  0
SECTION
  2
HEADER
  9
$ACADVER
  1
AC1009
  9
$INSBASE
 10
0.0
 20
0.0
 30
0.0
  9
$EXTMIN
 10
0.238058
 20
0.4482100000000001
 30
0.0
  9
$EXTMAX
 10
210.24000000000001
 20
297.44999999999987
 30
0.0
  9
$LIMMIN
 10
0.0
 20
0.0
  9
$LIMMAX
 10
12.0
 20
9.0
  9
$ORTHOMODE
 70
     0
  9
$REGENMODE
 70
     1
  9
$FILLMODE
 70
     1
  9
$QTEXTMODE
 70
     0
  9
$MIRRTEXT
 70
     1
  9
$DRAGMODE
 70
     2
  9
$LTSCALE
 40
1.0
  9
$OSMODE
 70
    37
  9
$ATTMODE
 70
     1
  9
$TEXTSIZE
 40
0.0
  9
$TRACEWID
 40
0.05
  9
$TEXTSTYLE
  7
STANDARD
  9
$CLAYER
  8
0
  9
$CELTYPE
  6
CONTINUOUS
  9
$CECOLOR
 62
   256
  9
$DIMSCALE
 40
1.0
  9
$DIMASZ
 40
0.18
  9
$DIMEXO
 40
0.0625
  9
$DIMDLI
 40
0.38
  9
$DIMRND
 40
0.0
  9
$DIMDLE
 40
0.0
  9
$DIMEXE
 40
0.18
  9
$DIMTP
 40
0.0
  9
$DIMTM
 40
0.0
  9
$DIMTXT
 40
0.18
  9
$DIMCEN
 40
0.09
  9
$DIMTSZ
 40
0.0
  9
$DIMTOL
 70
     0
  9
$DIMLIM
 70
     0
  9
$DIMTIH
 70
     1
  9
$DIMTOH
 70
     1
  9
$DIMSE1
 70
     0
  9
$DIMSE2
 70
     0
  9
$DIMTAD
 70
     0
  9
$DIMZIN
 70
     0
  9
$DIMBLK
  1

  9
$DIMASO
 70
     1
  9
$DIMSHO
 70
     1
  9
$DIMPOST
  1

  9
$DIMAPOST
  1

  9
$DIMALT
 70
     0
  9
$DIMALTD
 70
     2
  9
$DIMALTF
 40
25.399999999999999
  9
$DIMLFAC
 40
1.0
  9
$DIMTOFL
 70
     0
  9
$DIMTVP
 40
0.0
  9
$DIMTIX
 70
     0
  9
$DIMSOXD
 70
     0
  9
$DIMSAH
 70
     0
  9
$DIMBLK1
  1

  9
$DIMBLK2
  1

  9
$DIMSTYLE
  2
STANDARD
  9
$DIMCLRD
 70
     0
  9
$DIMCLRE
 70
     0
  9
$DIMCLRT
 70
     0
  9
$DIMTFAC
 40
1.0
  9
$DIMGAP
 40
0.09
  9
$LUNITS
 70
     2
  9
$LUPREC
 70
     4
  9
$SKETCHINC
 40
0.1
  9
$FILLETRAD
 40
0.0
  9
$AUNITS
 70
     0
  9
$AUPREC
 70
     0
  9
$MENU
  1
.
  9
$ELEVATION
 40
0.0
  9
$PELEVATION
 40
0.0
  9
$THICKNESS
 40
0.0
  9
$LIMCHECK
 70
     0
  9
$BLIPMODE
 70
     0
  9
$CHAMFERA
 40
0.0
  9
$CHAMFERB
 40
0.0
  9
$SKPOLY
 70
     0
  9
$TDCREATE
 40
2444972.375
  9
$TDUPDATE
 40
2457052.2460477892
  9
$TDINDWG
 40
0.0000069676
  9
$TDUSRTIMER
 40
0.0000069676
  9
$USRTIMER
 70
     1
  9
$ANGBASE
 50
0.0
  9
$ANGDIR
 70
     0
  9
$PDMODE
 70
     0
  9
$PDSIZE
 40
0.0
  9
$PLINEWID
 40
0.0
  9
$COORDS
 70
     1
  9
$SPLFRAME
 70
     0
  9
$SPLINETYPE
 70
     6
  9
$SPLINESEGS
 70
     8
  9
$ATTDIA
 70
     0
  9
$ATTREQ
 70
     1
  9
$HANDLING
 70
     1
  9
$HANDSEED
  5
2A7
  9
$SURFTAB1
 70
     6
  9
$SURFTAB2
 70
     6
  9
$SURFTYPE
 70
     6
  9
$SURFU
 70
     6
  9
$SURFV
 70
     6
  9
$UCSNAME
  2

  9
$UCSORG
 10
0.0
 20
0.0
 30
0.0
  9
$UCSXDIR
 10
1.0
 20
0.0
 30
0.0
  9
$UCSYDIR
 10
0.0
 20
1.0
 30
0.0
  9
$PUCSNAME
  2

  9
$PUCSORG
 10
0.0
 20
0.0
 30
0.0
  9
$PUCSXDIR
 10
1.0
 20
0.0
 30
0.0
  9
$PUCSYDIR
 10
0.0
 20
1.0
 30
0.0
  9
$USERI1
 70
     0
  9
$USERI2
 70
     0
  9
$USERI3
 70
     0
  9
$USERI4
 70
     0
  9
$USERI5
 70
     0
  9
$USERR1
 40
0.0
  9
$USERR2
 40
0.0
  9
$USERR3
 40
0.0
  9
$USERR4
 40
0.0
  9
$USERR5
 40
0.0
  9
$WORLDVIEW
 70
     1
  9
$SHADEDGE
 70
     3
  9
$SHADEDIF
 70
    70
  9
$TILEMODE
 70
     1
  9
$MAXACTVP
 70
    48
  9
$PLIMCHECK
 70
     0
  9
$PEXTMIN
 10
1.0000000000000000E+020
 20
1.0000000000000000E+020
 30
1.0000000000000000E+020
  9
$PEXTMAX
 10
-1.0000000000000000E+020
 20
-1.0000000000000000E+020
 30
-1.0000000000000000E+020
  9
$PLIMMIN
 10
0.0
 20
0.0
  9
$PLIMMAX
 10
12.0
 20
9.0
  9
$UNITMODE
 70
     0
  9
$VISRETAIN
 70
     1
  9
$PLINEGEN
 70
     0
  9
$PSLTSCALE
 70
     1
  0
ENDSEC
  0
SECTION
  2
TABLES
  0
TABLE
  2
VPORT
 70
     2
  0
VPORT
  2
*ACTIVE
 70
     0
 10
0.0
 20
0.0
 11
1.0
 21
1.0
 12
205.3110738070736
 22
148.72499999999991
 13
0.0
 23
0.0
 14
1.0
 24
1.0
 15
0.0
 25
0.0
 16
0.0
 26
0.0
 36
1.0
 17
0.0
 27
0.0
 37
0.0
 40
299.92188365650958
 41
2.2894736842105261
 42
50.0
 43
0.0
 44
0.0
 50
0.0
 51
0.0
 71
     0
 72
   100
 73
     1
 74
     1
 75
     0
 76
     0
 77
     0
 78
     0
  0
ENDTAB
  0
TABLE
  2
LTYPE
 70
     4
  0
LTYPE
  2
CONTINUOUS
 70
     0
  3
Solid line
 72
    65
 73
     0
 40
0.0
  0
LTYPE
  2
AIGENLINE001
 70
     0
  3
generate AI->DXF Converter
 72
    65
 73
     4
 40
5.8561449999999988
 49
3.5278
 49
-0.776115
 49
0.776115
 49
-0.776115
  0
LTYPE
  2
AIGENLINE002
 70
     0
  3
generate AI->DXF Converter
 72
    65
 73
     6
 40
7.4083750000000004
 49
3.5278
 49
-0.776115
 49
0.776115
 49
-0.776115
 49
0.776115
 49
-0.776115
  0
LTYPE
  2
AIGENLINE003
 70
     0
  3
generate AI->DXF Converter
 72
    65
 73
     2
 40
1.5522299999999991
 49
0.776115
 49
-0.776115
  0
ENDTAB
  0
TABLE
  2
LAYER
 70
     2
  0
LAYER
  2
0
 70
     0
 62
     7
  6
CONTINUOUS
  0
LAYER
  2
_________2
 70
     0
 62
     7
  6
CONTINUOUS
  0
ENDTAB
  0
TABLE
  2
STYLE
 70
     1
  0
STYLE
  2
STANDARD
 70
     0
 40
0.0
 41
0.0
 50
0.0
 71
     0
 42
0.0
  3
TXT
  4
EXTFONT.SHX
  0
ENDTAB
  0
TABLE
  2
VIEW
 70
     0
  0
ENDTAB
  0
TABLE
  2
UCS
 70
     0
  0
ENDTAB
  0
TABLE
  2
APPID
 70
     1
  0
APPID
  2
ACAD
 70
     0
  0
ENDTAB
  0
TABLE
  2
DIMSTYLE
 70
     1
  0
DIMSTYLE
  2
STANDARD
 70
     0
  3

  4

  5

  6

  7

 40
1.0
 41
0.18
 42
0.0625
 43
0.38
 44
0.18
 45
0.0
 46
0.0
 47
0.0
 48
0.0
140
0.18
141
0.09
142
0.0
143
25.399999999999999
144
1.0
145
0.0
146
1.0
147
0.09
 71
     0
 72
     0
 73
     1
 74
     1
 75
     0
 76
     0
 77
     0
 78
     0
170
     0
171
     2
172
     0
173
     0
174
     0
175
     0
176
     0
177
     0
178
     0
  0
ENDTAB
  0
ENDSEC
  0
SECTION
  2
BLOCKS
  0
BLOCK
  8
0
  2
$MODEL_SPACE
 70
     0
 10
0.0
 20
0.0
 30
0.0
  3
$MODEL_SPACE
  1

  0
ENDBLK
  5
1A
  8
0
  0
BLOCK
 67
     1
  8
0
  2
$PAPER_SPACE
 70
     0
 10
0.0
 20
0.0
 30
0.0
  3
$PAPER_SPACE
  1

  0
ENDBLK
  5
17
 67
     1
  8
0
  0
ENDSEC
  0
SECTION
  2
ENTITIES
  0
TEXT
  5
24
  8
0
 62
     7
 10
60.897708000000002
 20
113.90600000000001
 30
0.0
 40
3.0923400000000001
  1
湯
 41
0.5
 72
     2
 11
62.340800000000002
 21
113.90600000000001
 31
0.0
  0
TEXT
  5
25
  8
0
 62
     7
 10
88.566000000000003
 20
113.90600000000001
 30
0.0
 40
3.0923400000000001
  1
水
 41
0.5
  0
TEXT
  5
26
  8
0
 62
     7
 10
137.4486959999999
 20
89.081100000000006
 30
0.0
 40
3.0923400000000001
  1
壁仕上面
 41
0.5
 72
     2
 11
144.458
 21
89.081100000000006
 31
0.0
  0
TEXT
  5
27
  8
0
 62
     7
 10
89.819247999999988
 20
216.523
 30
0.0
 40
3.0923400000000001
  1
壁仕上面
 41
0.5
 72
     1
 11
93.323899999999995
 21
216.523
 31
0.0
  0
TEXT
  5
28
  8
0
 62
     7
 10
39.071100000000001
 20
203.37298249999989
 30
0.0
 40
3.0923400000000001
  1
190
 50
90.0
 41
0.5
 72
     1
 11
39.071100000000001
 21
205.04799999999989
 31
0.0
  0
TEXT
  5
29
  8
0
 62
     7
 10
83.775824999999998
 20
158.4489999999999
 30
0.0
 40
3.0923400000000001
  1
23
 41
0.5
 72
     1
 11
85.064299999999989
 21
158.4489999999999
 31
0.0
  0
TEXT
  5
2A
  8
0
 62
     7
 10
57.851100000000002
 20
106.66799999999991
 30
0.0
 40
3.0923400000000001
  1
G 1/2
 41
0.5
  0
TEXT
  5
2B
  8
0
 62
     7
 10
149.8249999999999
 20
112.11199999999999
 30
0.0
 40
3.0923400000000001
  1
G 1/2
 41
0.5
  0
TEXT
  5
2C
  8
0
 62
     7
 10
85.903697999999991
 20
106.66799999999991
 30
0.0
 40
3.0923400000000001
  1
G 1/2
 41
0.5
 72
     2
 11
91.985299999999995
 21
106.66799999999991
 31
0.0
  0
TEXT
  5
2D
  8
0
 62
     7
 10
179.55199999999999
 20
126.29152499999999
 30
0.0
 40
3.0923400000000001
  1
77
 50
90.0
 41
0.5
 72
     1
 11
179.55199999999999
 21
127.58
 31
0.0
  0
TEXT
  5
2E
  8
0
 62
     7
 10
172.79900000000001
 20
120.9915249999999
 30
0.0
 40
3.0923400000000001
  1
42
 50
90.0
 41
0.5
 72
     1
 11
172.79900000000001
 21
122.28
 31
0.0
  0
TEXT
  5
2F
  8
0
 62
     7
 10
101.996
 20
224.11350049999999
 30
0.0
 40
3.0923400000000001
  1
32～40
 50
90.0
 41
0.5
 72
     1
 11
101.996
 21
227.74700000000001
 31
0.0
  0
TEXT
  5
30
  8
0
 62
     7
 10
101.996
 20
233.85952499999999
 30
0.0
 40
3.0923400000000001
  1
37
 50
90.0
 41
0.5
 72
     1
 11
101.996
 21
235.148
 31
0.0
  0
TEXT
  5
31
  8
0
 62
     7
 10
76.462125
 20
144.39699999999999
 30
0.0
 40
3.0923400000000001
  1
23
 41
0.5
 72
     1
 11
77.750600000000006
 21
144.39699999999999
 31
0.0
  0
TEXT
  5
32
  8
0
 62
     7
 10
67.615424999999988
 20
144.39699999999999
 30
0.0
 40
3.0923400000000001
  1
65
 41
0.5
 72
     1
 11
68.903899999999993
 21
144.39699999999999
 31
0.0
  0
TEXT
  5
33
  8
0
 62
     7
 10
103.48
 20
117.49052499999991
 30
0.0
 40
3.0923400000000001
  1
77
 50
90.0
 41
0.5
 72
     1
 11
103.48
 21
118.7789999999999
 31
0.0
  0
TEXT
  5
34
  8
0
 62
     7
 10
96.4405
 20
126.29152499999999
 30
0.0
 40
3.0923400000000001
  1
77
 50
90.0
 41
0.5
 72
     1
 11
96.4405
 21
127.58
 31
0.0
  0
TEXT
  5
35
  8
0
 62
     7
 10
39.089700000000001
 20
123.83222000000001
 30
0.0
 40
3.0923400000000001
  1
15
 50
90.0
 41
0.5
 72
     1
 11
39.089700000000001
 21
124.863
 31
0.0
  0
TEXT
  5
36
  8
0
 62
     7
 10
39.089700000000001
 20
128.48537250000001
 30
0.0
 40
3.0923400000000001
  1
30
 50
90.0
 41
0.5
 72
     1
 11
39.089700000000001
 21
129.64500000000001
 31
0.0
  0
TEXT
  5
37
  8
0
 62
     7
 10
32.384300000000003
 20
138.98321999999999
 30
0.0
 40
3.0923400000000001
  1
7
 50
90.0
 41
0.5
 72
     2
 11
32.384300000000003
 21
140.01400000000001
 31
0.0
  0
TEXT
  5
38
  8
0
 62
     7
 10
32.384300000000003
 20
125.1915249999999
 30
0.0
 40
3.0923400000000001
  1
74
 50
90.0
 41
0.5
 72
     1
 11
32.384300000000003
 21
126.48
 31
0.0
  0
TEXT
  5
39
  8
0
 62
     7
 10
158.6445249999999
 20
144.99399999999989
 30
0.0
 40
3.0923400000000001
  1
37
 41
0.5
 72
     1
 11
159.93299999999991
 21
144.99399999999989
 31
0.0
  0
TEXT
  5
3A
  8
0
 62
     7
 10
139.72734800000001
 20
144.99399999999989
 30
0.0
 40
3.0923400000000001
  1
61～53
 41
0.5
 72
     1
 11
143.23199999999991
 21
144.99399999999989
 31
0.0
  0
TEXT
  5
3B
  8
0
 62
     7
 10
148.8995004999999
 20
144.99399999999989
 30
0.0
 40
3.0923400000000001
  1
32～40
 41
0.5
 72
     1
 11
152.5329999999999
 21
144.99399999999989
 31
0.0
  0
TEXT
  5
3C
  8
0
 62
     7
 10
77.715624999999989
 20
151.7229999999999
 30
0.0
 40
3.0923400000000001
  1
36
 41
0.5
 72
     1
 11
79.004099999999994
 21
151.7229999999999
 31
0.0
  0
TEXT
  5
3D
  8
0
 62
     7
 10
50.515625
 20
151.547
 30
0.0
 40
3.0923400000000001
  1
36
 41
0.5
 72
     1
 11
51.804099999999998
 21
151.547
 31
0.0
  0
TEXT
  5
3E
  8
0
 62
     7
 10
63.857829999999993
 20
151.7229999999999
 30
0.0
 40
3.0923400000000001
  1
100
 41
0.5
 72
     1
 11
65.403999999999996
 21
151.7229999999999
 31
0.0
  0
TEXT
  5
3F
  8
0
 62
     7
 10
63.600335000000001
 20
158.4489999999999
 30
0.0
 40
3.0923400000000001
  1
172
 41
0.5
 72
     1
 11
65.404200000000003
 21
158.4489999999999
 31
0.0
  0
TEXT
  5
40
  8
0
 62
     7
 10
166.95043999999999
 20
101.81399999999999
 30
0.0
 40
3.0923400000000001
  1
17
 41
0.5
 72
     2
 11
169.012
 21
101.81399999999999
 31
0.0
  0
TEXT
  5
41
  8
0
 62
     7
 10
152.470653
 20
94.906800000000004
 30
0.0
 40
3.0923400000000001
  1
69～77
 41
0.5
 72
     1
 11
156.233
 21
94.906800000000004
 31
0.0
  0
TEXT
  5
42
  8
0
 62
     7
 10
150.89850050000001
 20
101.95399999999989
 30
0.0
 40
3.0923400000000001
  1
52～60
 41
0.5
 72
     1
 11
154.53200000000001
 21
101.95399999999989
 31
0.0
  0
TEXT
  5
43
  8
0
 62
     7
 10
129.55098599999991
 20
113.0149999999999
 30
0.0
 40
3.0923400000000001
  1
開
 41
0.5
 72
     2
 11
130.89099999999999
 21
113.0149999999999
 31
0.0
  0
TEXT
  5
44
  8
0
 62
     7
 10
140.24000000000001
 20
110.01600000000001
 30
0.0
 40
3.0923400000000001
  1
閉
 41
0.5
  0
TEXT
  5
45
  8
0
 62
     7
 10
129.52813499999991
 20
101.81399999999999
 30
0.0
 40
3.0923400000000001
  1
175
 41
0.5
 72
     1
 11
131.33199999999999
 21
101.81399999999999
 31
0.0
  0
TEXT
  5
46
  8
0
 62
     7
 10
74.115624999999994
 20
100.1579999999999
 30
0.0
 40
3.0923400000000001
  1
65
 41
0.5
 72
     1
 11
75.4041
 21
100.1579999999999
 31
0.0
  0
TEXT
  5
47
  8
0
 62
     7
 10
48.442320000000002
 20
165.92999999999989
 30
0.0
 40
3.0923400000000001
  1
15
 41
0.5
 72
     1
 11
49.473100000000002
 21
165.92999999999989
 31
0.0
  0
TEXT
  5
48
  8
0
 62
     7
 10
72.96875
 20
248.3249999999999
 30
0.0
 40
3.0923400000000001
  1
KW9193400
 41
0.5
 72
     2
 11
85.853499999999997
 21
248.3249999999999
 31
0.0
  0
TEXT
  5
49
  8
0
 62
     7
 10
80.664774999999992
 20
197.81399999999999
 30
0.0
 40
3.0923400000000001
  1
KW1192033R
 41
0.5
 72
     2
 11
94.837999999999994
 21
197.81399999999999
 31
0.0
  0
TEXT
  5
4A
  8
0
 62
     7
 10
67.529082500000001
 20
165.685
 30
0.0
 40
3.0923400000000001
  1
180
 41
0.5
 72
     1
 11
69.204099999999997
 21
165.685
 31
0.0
  0
LINE
  5
4B
  8
0
 62
     7
 10
115.83199999999999
 20
123.479
 30
0.0
 11
111.83199999999999
 21
123.479
 31
0.0
  0
LINE
  5
4C
  8
0
 62
     7
 10
111.83199999999999
 20
123.479
 30
0.0
 11
111.83199999999999
 21
124.479
 31
0.0
  0
LINE
  5
4D
  8
0
 62
     7
 10
111.83199999999999
 20
124.479
 30
0.0
 11
115.83199999999999
 21
124.479
 31
0.0
  0
LINE
  5
4E
  8
0
 62
     7
 10
115.83199999999999
 20
124.479
 30
0.0
 11
115.83199999999999
 21
123.479
 31
0.0
  0
LINE
  5
4F
  8
0
  6
AIGENLINE001
 62
     7
 10
62.7425
 20
115.8549999999999
 30
0.0
 11
75.404300000000006
 21
126.48
 31
0.0
  0
LINE
  5
50
  8
0
  6
AIGENLINE002
 62
     7
 10
71.033799999999999
 20
124.1179999999999
 30
0.0
 11
63.1173
 21
117.47499999999989
 31
0.0
  0
LINE
  5
51
  8
0
  6
AIGENLINE002
 62
     7
 10
64.121200000000002
 20
115.967
 30
0.0
 11
63.092500000000001
 21
117.1939999999999
 31
0.0
  0
ARC
  5
52
  8
0
  6
AIGENLINE002
 62
     7
 10
63.256762999999999
 20
117.320937
 30
0.0
 40
0.207848
 50
132.1417679999999
 51
217.7856109999999
  0
LINE
  5
53
  8
0
  6
AIGENLINE002
 62
     7
 10
72.319199999999995
 20
122.58499999999989
 30
0.0
 11
64.403000000000006
 21
115.9429999999999
 31
0.0
  0
ARC
  5
54
  8
0
  6
AIGENLINE002
 62
     7
 10
64.275326000000007
 20
116.107423
 30
0.0
 40
0.208178
 50
222.242908
 51
307.83576699999992
  0
LINE
  5
55
  8
0
  6
AIGENLINE001
 62
     7
 10
88.065600000000003
 20
115.8549999999999
 30
0.0
 11
75.404300000000006
 21
126.48
 31
0.0
  0
LINE
  5
56
  8
0
  6
AIGENLINE002
 62
     7
 10
79.7744
 20
124.1179999999999
 30
0.0
 11
87.690799999999996
 21
117.47499999999989
 31
0.0
  0
LINE
  5
57
  8
0
  6
AIGENLINE002
 62
     7
 10
86.687200000000004
 20
115.967
 30
0.0
 11
87.715599999999995
 21
117.1939999999999
 31
0.0
  0
ARC
  5
58
  8
0
  6
AIGENLINE002
 62
     7
 10
87.563498999999993
 20
117.3217879999999
 30
0.0
 40
0.198933
 50
319.87627400000002
 51
352.92490299999992
  0
ARC
  5
59
  8
0
  6
AIGENLINE002
 62
     7
 10
87.558410999999992
 20
117.32013000000001
 30
0.0
 40
0.203791
 50
353.56381099999987
 51
49.482737999999991
  0
LINE
  5
5A
  8
0
  6
AIGENLINE002
 62
     7
 10
78.489099999999993
 20
122.58499999999989
 30
0.0
 11
86.405100000000004
 21
115.9429999999999
 31
0.0
  0
ARC
  5
5B
  8
0
  6
AIGENLINE002
 62
     7
 10
86.533031999999992
 20
116.1067709999999
 30
0.0
 40
0.207814
 50
232.000754
 51
317.90855800000003
  0
ARC
  5
5C
  8
0
  6
AIGENLINE003
 62
     7
 10
62.403734
 20
123.279646
 30
0.0
 40
0.9001229999999999
 50
270.00550199999992
 51
0.005472
  0
ARC
  5
5D
  8
0
  6
AIGENLINE003
 62
     7
 10
62.40390699999999
 20
123.279645
 30
0.0
 40
0.9001229999999999
 50
179.9944879999999
 51
269.99453799999992
  0
LINE
  5
5E
  8
0
  6
AIGENLINE003
 62
     7
 10
61.503799999999998
 20
123.28
 30
0.0
 11
61.503799999999998
 21
123.68000000000001
 31
0.0
  0
ARC
  5
5F
  8
0
  6
AIGENLINE003
 62
     7
 10
62.438267000000003
 20
123.64508499999999
 30
0.0
 40
0.9351239999999998
 50
92.111016000000006
 51
177.87798699999999
  0
ARC
  5
60
  8
0
  6
AIGENLINE003
 62
     7
 10
62.369216999999999
 20
123.64492799999999
 30
0.0
 40
0.9352870000000001
 50
2.1312570000000002
 51
87.879699999999985
  0
LINE
  5
61
  8
0
  6
AIGENLINE003
 62
     7
 10
63.303899999999999
 20
123.68000000000001
 30
0.0
 11
63.303899999999999
 21
123.28
 31
0.0
  0
LINE
  5
62
  8
0
  6
AIGENLINE001
 62
     7
 10
62.403799999999997
 20
121.95099999999999
 30
0.0
 11
62.403799999999997
 21
125.09099999999999
 31
0.0
  0
LINE
  5
63
  8
0
  6
AIGENLINE001
 62
     7
 10
63.803199999999997
 20
123.48
 30
0.0
 11
61.016300000000001
 21
123.48
 31
0.0
  0
ARC
  5
64
  8
0
  6
AIGENLINE003
 62
     7
 10
80.095950000000002
 20
132.33796499999991
 30
0.0
 40
0.935683
 50
317.15339899999998
 51
42.877612999999997
  0
ARC
  5
65
  8
0
  6
AIGENLINE003
 62
     7
 10
80.145499000000001
 20
132.38761199999999
 30
0.0
 40
0.9357459999999999
 50
227.11157700000001
 51
312.85743799999989
  0
LINE
  5
66
  8
0
  6
AIGENLINE003
 62
     7
 10
79.508700000000005
 20
131.702
 30
0.0
 11
79.225800000000007
 21
131.98500000000001
 31
0.0
  0
ARC
  5
67
  8
0
  6
AIGENLINE003
 62
     7
 10
79.910618999999997
 20
132.620982
 30
0.0
 40
0.934676
 50
137.07948599999989
 51
222.88949299999999
  0
ARC
  5
68
  8
0
  6
AIGENLINE003
 62
     7
 10
79.86246899999999
 20
132.6211669999999
 30
0.0
 40
0.8998829999999999
 50
45.000005000000009
 51
134.99997500000001
  0
LINE
  5
69
  8
0
  6
AIGENLINE003
 62
     7
 10
80.498799999999989
 20
133.25700000000001
 30
0.0
 11
80.781599999999997
 21
132.97499999999991
 31
0.0
  0
LINE
  5
6A
  8
0
  6
AIGENLINE001
 62
     7
 10
81.084800000000001
 20
131.39899999999989
 30
0.0
 11
78.864800000000002
 21
133.61899999999989
 31
0.0
  0
LINE
  5
6B
  8
0
  6
AIGENLINE001
 62
     7
 10
80.993499999999983
 20
133.46899999999991
 30
0.0
 11
79.022900000000007
 21
131.49799999999999
 31
0.0
  0
ARC
  5
6C
  8
0
  6
AIGENLINE003
 62
     7
 10
62.569014000000003
 20
132.44495000000001
 30
0.0
 40
0.9354729999999999
 50
2.1210840000000002
 51
87.878906000000001
  0
ARC
  5
6D
  8
0
  6
AIGENLINE003
 62
     7
 10
62.569357999999987
 20
132.51420999999999
 30
0.0
 40
0.9351299999999998
 50
272.10080399999998
 51
357.877275
  0
LINE
  5
6E
  8
0
  6
AIGENLINE003
 62
     7
 10
62.6036
 20
131.58000000000001
 30
0.0
 11
62.203699999999991
 21
131.58000000000001
 31
0.0
  0
ARC
  5
6F
  8
0
  6
AIGENLINE003
 62
     7
 10
62.238271999999988
 20
132.514186
 30
0.0
 40
0.9351179999999999
 50
182.1212799999999
 51
267.87875000000003
  0
ARC
  5
70
  8
0
  6
AIGENLINE003
 62
     7
 10
62.238610999999999
 20
132.44497899999999
 30
0.0
 40
0.935456
 50
92.14124200000002
 51
177.88066000000001
  0
LINE
  5
71
  8
0
  6
AIGENLINE003
 62
     7
 10
62.203699999999991
 20
133.37999999999991
 30
0.0
 11
62.6036
 21
133.37999999999991
 31
0.0
  0
LINE
  5
72
  8
0
  6
AIGENLINE001
 62
     7
 10
63.932400000000001
 20
132.4799999999999
 30
0.0
 11
60.792499999999997
 21
132.4799999999999
 31
0.0
  0
LINE
  5
73
  8
0
  6
AIGENLINE001
 62
     7
 10
62.403799999999997
 20
133.87899999999991
 30
0.0
 11
62.403799999999997
 21
131.09200000000001
 31
0.0
  0
LINE
  5
74
  8
0
  6
AIGENLINE002
 62
     7
 10
148.83299999999991
 20
100.414
 30
0.0
 11
148.83299999999991
 21
85.637299999999996
 31
0.0
  0
LINE
  5
75
  8
0
 62
     7
 10
145.30899999999991
 20
92.611000000000004
 30
0.0
 11
148.83299999999991
 21
90.576300000000003
 31
0.0
  0
LINE
  5
76
  8
0
 62
     7
 10
148.83299999999991
 20
90.576300000000003
 30
0.0
 11
145.30899999999991
 21
88.542299999999983
 31
0.0
  0
LINE
  5
77
  8
0
 62
     7
 10
145.30899999999991
 20
88.542299999999983
 30
0.0
 11
145.30899999999991
 21
92.611000000000004
 31
0.0
  0
LINE
  5
78
  8
0
 62
     7
 10
91.289199999999994
 20
220.52399999999989
 30
0.0
 11
93.323899999999995
 21
224.048
 31
0.0
  0
LINE
  5
79
  8
0
 62
     7
 10
93.323899999999995
 20
224.048
 30
0.0
 11
95.357900000000001
 21
220.52399999999989
 31
0.0
  0
LINE
  5
7A
  8
0
 62
     7
 10
95.357900000000001
 20
220.52399999999989
 30
0.0
 11
91.289199999999994
 21
220.52399999999989
 31
0.0
  0
LINE
  5
7B
  8
0
 62
     7
 10
146.62200000000001
 20
143.55999999999989
 30
0.0
 11
148.83399999999989
 21
144.15299999999999
 31
0.0
  0
LINE
  5
7C
  8
0
 62
     7
 10
148.83399999999989
 20
144.15299999999999
 30
0.0
 11
146.62200000000001
 21
144.74600000000001
 31
0.0
  0
LINE
  5
7D
  8
0
 62
     7
 10
146.62200000000001
 20
144.74600000000001
 30
0.0
 11
146.62200000000001
 21
143.55999999999989
 31
0.0
  0
LINE
  5
7E
  8
0
 62
     7
 10
154.02099999999999
 20
143.55299999999991
 30
0.0
 11
156.23199999999991
 21
144.14599999999999
 31
0.0
  0
LINE
  5
7F
  8
0
 62
     7
 10
156.23199999999991
 20
144.14599999999999
 30
0.0
 11
154.02099999999999
 21
144.738
 31
0.0
  0
LINE
  5
80
  8
0
 62
     7
 10
154.02099999999999
 20
144.738
 30
0.0
 11
154.02099999999999
 21
143.55299999999991
 31
0.0
  0
LINE
  5
81
  8
0
 62
     7
 10
163.6329999999999
 20
144.15299999999999
 30
0.0
 11
137.6329999999999
 21
144.15299999999999
 31
0.0
  0
LINE
  5
82
  8
0
 62
     7
 10
137.63199999999989
 20
144.85299999999989
 30
0.0
 11
137.63199999999989
 21
131.14599999999999
 31
0.0
  0
LINE
  5
83
  8
0
 62
     7
 10
139.84499999999991
 20
144.7529999999999
 30
0.0
 11
137.6329999999999
 21
144.16
 31
0.0
  0
LINE
  5
84
  8
0
 62
     7
 10
137.6329999999999
 20
144.16
 30
0.0
 11
139.84499999999991
 21
143.5679999999999
 31
0.0
  0
LINE
  5
85
  8
0
 62
     7
 10
139.84499999999991
 20
143.5679999999999
 30
0.0
 11
139.84499999999991
 21
144.7529999999999
 31
0.0
  0
LINE
  5
86
  8
0
 62
     7
 10
148.83299999999991
 20
144.85299999999989
 30
0.0
 11
148.83299999999991
 21
134.58000000000001
 31
0.0
  0
LINE
  5
87
  8
0
 62
     7
 10
161.42199999999991
 20
143.5679999999999
 30
0.0
 11
163.6329999999999
 21
144.16
 31
0.0
  0
LINE
  5
88
  8
0
 62
     7
 10
163.6329999999999
 20
144.16
 30
0.0
 11
161.42199999999991
 21
144.7529999999999
 31
0.0
  0
LINE
  5
89
  8
0
 62
     7
 10
161.42199999999991
 20
144.7529999999999
 30
0.0
 11
161.42199999999991
 21
143.5679999999999
 31
0.0
  0
LINE
  5
8A
  8
0
 62
     7
 10
151.0449999999999
 20
144.7529999999999
 30
0.0
 11
148.83399999999989
 21
144.16
 31
0.0
  0
LINE
  5
8B
  8
0
 62
     7
 10
148.83399999999989
 20
144.16
 30
0.0
 11
151.0449999999999
 21
143.5679999999999
 31
0.0
  0
LINE
  5
8C
  8
0
 62
     7
 10
151.0449999999999
 20
143.5679999999999
 30
0.0
 11
151.0449999999999
 21
144.7529999999999
 31
0.0
  0
LINE
  5
8D
  8
0
 62
     7
 10
158.4429999999999
 20
144.738
 30
0.0
 11
156.23199999999991
 21
144.14599999999999
 31
0.0
  0
LINE
  5
8E
  8
0
 62
     7
 10
156.23199999999991
 20
144.14599999999999
 30
0.0
 11
158.4429999999999
 21
143.55299999999991
 31
0.0
  0
LINE
  5
8F
  8
0
 62
     7
 10
158.4429999999999
 20
143.55299999999991
 30
0.0
 11
158.4429999999999
 21
144.738
 31
0.0
  0
LINE
  5
90
  8
0
 62
     7
 10
163.6329999999999
 20
144.85299999999989
 30
0.0
 11
163.6329999999999
 21
134.9499999999999
 31
0.0
  0
LINE
  5
91
  8
0
 62
     7
 10
156.233
 20
144.85299999999989
 30
0.0
 11
156.233
 21
135.28
 31
0.0
  0
LINE
  5
92
  8
0
 62
     7
 10
180.83699999999999
 20
133.0689999999999
 30
0.0
 11
180.244
 21
135.28
 31
0.0
  0
LINE
  5
93
  8
0
 62
     7
 10
180.244
 20
135.28
 30
0.0
 11
179.65199999999999
 21
133.0689999999999
 31
0.0
  0
LINE
  5
94
  8
0
 62
     7
 10
179.65199999999999
 20
133.0689999999999
 30
0.0
 11
180.83699999999999
 21
133.0689999999999
 31
0.0
  0
LINE
  5
95
  8
0
 62
     7
 10
179.66599999999991
 20
122.09
 30
0.0
 11
180.25899999999999
 21
119.879
 31
0.0
  0
LINE
  5
96
  8
0
 62
     7
 10
180.25899999999999
 20
119.879
 30
0.0
 11
180.851
 21
122.09
 31
0.0
  0
LINE
  5
97
  8
0
 62
     7
 10
180.851
 20
122.09
 30
0.0
 11
179.66599999999991
 21
122.09
 31
0.0
  0
LINE
  5
98
  8
0
 62
     7
 10
180.25200000000001
 20
135.28
 30
0.0
 11
180.25200000000001
 21
119.879
 31
0.0
  0
LINE
  5
99
  8
0
 62
     7
 10
180.952
 20
135.28
 30
0.0
 11
164.108
 21
135.28
 31
0.0
  0
LINE
  5
9A
  8
0
 62
     7
 10
180.952
 20
119.879
 30
0.0
 11
163.983
 21
119.879
 31
0.0
  0
LINE
  5
9B
  8
0
 62
     7
 10
174.084
 20
124.26899999999991
 30
0.0
 11
173.49199999999999
 21
126.48
 31
0.0
  0
LINE
  5
9C
  8
0
 62
     7
 10
173.49199999999999
 20
126.48
 30
0.0
 11
172.899
 21
124.26899999999991
 31
0.0
  0
LINE
  5
9D
  8
0
 62
     7
 10
172.899
 20
124.26899999999991
 30
0.0
 11
174.084
 21
124.26899999999991
 31
0.0
  0
LINE
  5
9E
  8
0
 62
     7
 10
172.91399999999999
 20
120.29000000000001
 30
0.0
 11
173.50599999999989
 21
118.07899999999999
 31
0.0
  0
LINE
  5
9F
  8
0
 62
     7
 10
173.50599999999989
 20
118.07899999999999
 30
0.0
 11
174.09899999999999
 21
120.29000000000001
 31
0.0
  0
LINE
  5
A0
  8
0
 62
     7
 10
174.09899999999999
 20
120.29000000000001
 30
0.0
 11
172.91399999999999
 21
120.29000000000001
 31
0.0
  0
LINE
  5
A1
  8
0
 62
     7
 10
173.499
 20
126.48
 30
0.0
 11
173.499
 21
118.08
 31
0.0
  0
LINE
  5
A2
  8
0
 62
     7
 10
163.6329999999999
 20
125.479
 30
0.0
 11
163.23199999999991
 21
125.479
 31
0.0
  0
LINE
  5
A3
  8
0
 62
     7
 10
163.6329999999999
 20
121.48
 30
0.0
 11
163.23199999999991
 21
121.48
 31
0.0
  0
LINE
  5
A4
  8
0
  6
AIGENLINE001
 62
     7
 10
165.029
 20
123.48
 30
0.0
 11
161.63499999999991
 21
123.48
 31
0.0
  0
LINE
  5
A5
  8
0
 62
     7
 10
163.6329999999999
 20
121.48
 30
0.0
 11
163.6329999999999
 21
125.479
 31
0.0
  0
LINE
  5
A6
  8
0
 62
     7
 10
163.6329999999999
 20
134.4789999999999
 30
0.0
 11
163.23199999999991
 21
134.4789999999999
 31
0.0
  0
LINE
  5
A7
  8
0
 62
     7
 10
163.6329999999999
 20
130.4799999999999
 30
0.0
 11
163.23199999999991
 21
130.4799999999999
 31
0.0
  0
LINE
  5
A8
  8
0
  6
AIGENLINE001
 62
     7
 10
165.029
 20
132.4799999999999
 30
0.0
 11
161.63499999999991
 21
132.4799999999999
 31
0.0
  0
LINE
  5
A9
  8
0
 62
     7
 10
174.19900000000001
 20
126.48
 30
0.0
 11
159.18299999999991
 21
126.48
 31
0.0
  0
LINE
  5
AA
  8
0
 62
     7
 10
174.19900000000001
 20
118.07899999999999
 30
0.0
 11
163.983
 21
118.07899999999999
 31
0.0
  0
LINE
  5
AB
  8
0
 62
     7
 10
161.42099999999991
 20
93.473600000000005
 30
0.0
 11
163.6329999999999
 21
94.066199999999995
 31
0.0
  0
LINE
  5
AC
  8
0
 62
     7
 10
163.6329999999999
 20
94.066199999999995
 30
0.0
 11
161.42099999999991
 21
94.658699999999996
 31
0.0
  0
LINE
  5
AD
  8
0
 62
     7
 10
161.42099999999991
 20
94.658699999999996
 30
0.0
 11
161.42099999999991
 21
93.473600000000005
 31
0.0
  0
LINE
  5
AE
  8
0
 62
     7
 10
151.04300000000001
 20
94.651499999999984
 30
0.0
 11
148.83099999999999
 21
94.058899999999994
 31
0.0
  0
LINE
  5
AF
  8
0
 62
     7
 10
148.83099999999999
 20
94.058899999999994
 30
0.0
 11
151.04300000000001
 21
93.466399999999979
 31
0.0
  0
LINE
  5
B0
  8
0
 62
     7
 10
151.04300000000001
 20
93.466399999999979
 30
0.0
 11
151.04300000000001
 21
94.651499999999984
 31
0.0
  0
LINE
  5
B1
  8
0
 62
     7
 10
163.6329999999999
 20
94.066199999999995
 30
0.0
 11
148.83299999999991
 21
94.066199999999995
 31
0.0
  0
LINE
  5
B2
  8
0
 62
     7
 10
158.02099999999999
 20
100.5209999999999
 30
0.0
 11
160.233
 21
101.1139999999999
 31
0.0
  0
LINE
  5
B3
  8
0
 62
     7
 10
160.233
 20
101.1139999999999
 30
0.0
 11
158.02099999999999
 21
101.706
 31
0.0
  0
LINE
  5
B4
  8
0
 62
     7
 10
158.02099999999999
 20
101.706
 30
0.0
 11
158.02099999999999
 21
100.5209999999999
 31
0.0
  0
LINE
  5
B5
  8
0
 62
     7
 10
165.84399999999999
 20
101.706
 30
0.0
 11
163.6329999999999
 21
101.1139999999999
 31
0.0
  0
LINE
  5
B6
  8
0
 62
     7
 10
163.6329999999999
 20
101.1139999999999
 30
0.0
 11
165.84399999999999
 21
100.5209999999999
 31
0.0
  0
LINE
  5
B7
  8
0
 62
     7
 10
165.84399999999999
 20
100.5209999999999
 30
0.0
 11
165.84399999999999
 21
101.706
 31
0.0
  0
LINE
  5
B8
  8
0
 62
     7
 10
151.04300000000001
 20
101.699
 30
0.0
 11
148.83099999999999
 21
101.107
 31
0.0
  0
LINE
  5
B9
  8
0
 62
     7
 10
148.83099999999999
 20
101.107
 30
0.0
 11
151.04300000000001
 21
100.5139999999999
 31
0.0
  0
LINE
  5
BA
  8
0
 62
     7
 10
151.04300000000001
 20
100.5139999999999
 30
0.0
 11
151.04300000000001
 21
101.699
 31
0.0
  0
LINE
  5
BB
  8
0
 62
     7
 10
169.012
 20
101.1139999999999
 30
0.0
 11
148.83299999999991
 21
101.1139999999999
 31
0.0
  0
LINE
  5
BC
  8
0
 62
     7
 10
163.6329999999999
 20
93.366100000000003
 30
0.0
 11
163.6329999999999
 21
120.91500000000001
 31
0.0
  0
LINE
  5
BD
  8
0
 62
     7
 10
160.233
 20
100.414
 30
0.0
 11
160.233
 21
116.53100000000001
 31
0.0
  0
LINE
  5
BE
  8
0
 62
     7
 10
116.04299999999991
 20
101.699
 30
0.0
 11
113.831
 21
101.107
 31
0.0
  0
LINE
  5
BF
  8
0
 62
     7
 10
113.831
 20
101.107
 30
0.0
 11
116.04299999999991
 21
100.5139999999999
 31
0.0
  0
LINE
  5
C0
  8
0
 62
     7
 10
116.04299999999991
 20
100.5139999999999
 30
0.0
 11
116.04299999999991
 21
101.699
 31
0.0
  0
LINE
  5
C1
  8
0
 62
     7
 10
146.62200000000001
 20
100.529
 30
0.0
 11
148.83399999999989
 21
101.121
 31
0.0
  0
LINE
  5
C2
  8
0
 62
     7
 10
148.83399999999989
 20
101.121
 30
0.0
 11
146.62200000000001
 21
101.7139999999999
 31
0.0
  0
LINE
  5
C3
  8
0
 62
     7
 10
146.62200000000001
 20
101.7139999999999
 30
0.0
 11
146.62200000000001
 21
100.529
 31
0.0
  0
LINE
  5
C4
  8
0
 62
     7
 10
113.83199999999989
 20
101.1139999999999
 30
0.0
 11
148.83299999999991
 21
101.1139999999999
 31
0.0
  0
LINE
  5
C5
  8
0
 62
     7
 10
113.83199999999989
 20
100.414
 30
0.0
 11
113.83199999999989
 21
121.5329999999999
 31
0.0
  0
LINE
  5
C6
  8
0
 62
     7
 10
148.83299999999991
 20
100.414
 30
0.0
 11
148.83299999999991
 21
118.37899999999991
 31
0.0
  0
LINE
  5
C7
  8
0
  6
AIGENLINE002
 62
     7
 10
132.87999999999991
 20
112.91799999999991
 30
0.0
 11
131.79199999999989
 21
113.4249999999999
 31
0.0
  0
ARC
  5
C8
  8
0
  6
AIGENLINE002
 62
     7
 10
131.887101
 20
113.609746
 30
0.0
 40
0.207992
 50
157.12647100000001
 51
242.87548799999999
  0
ARC
  5
C9
  8
0
  6
AIGENLINE002
 62
     7
 10
132.96050700000001
 20
113.108794
 30
0.0
 40
0.207578
 50
247.14844099999999
 51
333.03244499999988
  0
LINE
  5
CA
  8
0
  6
AIGENLINE002
 62
     7
 10
139.9489999999999
 20
130.91699999999989
 30
0.0
 11
141.21799999999999
 21
130.32499999999999
 31
0.0
  0
LINE
  5
CB
  8
0
  6
AIGENLINE002
 62
     7
 10
139.68299999999999
 20
130.81999999999999
 30
0.0
 11
131.69499999999999
 21
113.691
 31
0.0
  0
ARC
  5
CC
  8
0
  6
AIGENLINE002
 62
     7
 10
139.86817799999989
 20
130.72463099999999
 30
0.0
 40
0.208191
 50
67.177286999999993
 51
152.82465199999999
  0
LINE
  5
CD
  8
0
  6
AIGENLINE002
 62
     7
 10
141.21799999999999
 20
130.32499999999999
 30
0.0
 11
133.14599999999999
 21
113.0149999999999
 31
0.0
  0
LINE
  5
CE
  8
0
 62
     7
 10
157.5329999999999
 20
119.879
 30
0.0
 11
157.5329999999999
 21
118.07899999999999
 31
0.0
  0
LINE
  5
CF
  8
0
 62
     7
 10
162.93299999999991
 20
119.879
 30
0.0
 11
162.93299999999991
 21
118.07899999999999
 31
0.0
  0
LINE
  5
D0
  8
0
  6
AIGENLINE001
 62
     7
 10
160.233
 20
121.857
 30
0.0
 11
160.233
 21
117.23099999999999
 31
0.0
  0
LINE
  5
D1
  8
0
 62
     7
 10
157.5329999999999
 20
118.07899999999999
 30
0.0
 11
162.93299999999991
 21
118.07899999999999
 31
0.0
  0
LINE
  5
D2
  8
0
 62
     7
 10
115.492
 20
124.479
 30
0.0
 11
111.973
 21
124.479
 31
0.0
  0
LINE
  5
D3
  8
0
  6
AIGENLINE001
 62
     7
 10
113.833
 20
125.842
 30
0.0
 11
113.833
 21
122.2329999999999
 31
0.0
  0
LINE
  5
D4
  8
0
 62
     7
 10
110.833
 20
128.279
 30
0.0
 11
110.833
 21
124.675
 31
0.0
  0
LINE
  5
D5
  8
0
 62
     7
 10
115.83199999999999
 20
124.2769999999999
 30
0.0
 11
137.63199999999989
 21
123.863
 31
0.0
  0
LINE
  5
D6
  8
0
 62
     7
 10
111.02799999999991
 20
124.47499999999999
 30
0.0
 11
111.973
 21
124.479
 31
0.0
  0
ARC
  5
D7
  8
0
 62
     7
 10
111.039851
 20
124.68229699999991
 30
0.0
 40
0.207456
 50
182.014512
 51
266.68680299999988
  0
LINE
  5
D8
  8
0
 62
     7
 10
111.032
 20
128.4789999999999
 30
0.0
 11
137.6329999999999
 21
128.4789999999999
 31
0.0
  0
ARC
  5
D9
  8
0
 62
     7
 10
111.039919
 20
128.27206399999989
 30
0.0
 40
0.207521
 50
92.09293599999998
 51
178.00573399999999
  0
LINE
  5
DA
  8
0
 62
     7
 10
139.233
 20
111.2789999999999
 30
0.0
 11
137.63199999999989
 21
111.2789999999999
 31
0.0
  0
LINE
  5
DB
  8
0
 62
     7
 10
137.833
 20
130.37899999999999
 30
0.0
 11
137.833
 21
111.07899999999989
 31
0.0
  0
LINE
  5
DC
  8
0
 62
     7
 10
137.833
 20
122.179
 30
0.0
 11
139.233
 21
122.179
 31
0.0
  0
LINE
  5
DD
  8
0
 62
     7
 10
137.833
 20
122.57899999999989
 30
0.0
 11
139.233
 21
122.57899999999989
 31
0.0
  0
LINE
  5
DE
  8
0
 62
     7
 10
137.63199999999989
 20
111.2789999999999
 30
0.0
 11
137.63199999999989
 21
122.78
 31
0.0
  0
LINE
  5
DF
  8
0
 62
     7
 10
139.0329999999999
 20
111.07899999999989
 30
0.0
 11
137.833
 21
111.07899999999989
 31
0.0
  0
ARC
  5
E0
  8
0
 62
     7
 10
137.8404679999999
 20
111.2868689999999
 30
0.0
 40
0.207825
 50
182.0721659999999
 51
267.82916299999988
  0
LINE
  5
E1
  8
0
 62
     7
 10
139.233
 20
111.2789999999999
 30
0.0
 11
139.233
 21
122.57899999999989
 31
0.0
  0
ARC
  5
E2
  8
0
 62
     7
 10
139.02501499999991
 20
111.28686999999989
 30
0.0
 40
0.207813
 50
272.0726029999999
 51
357.9274069999999
  0
LINE
  5
E3
  8
0
 62
     7
 10
147.76900000000001
 20
119.07899999999999
 30
0.0
 11
148.83299999999991
 21
119.07899999999999
 31
0.0
  0
ARC
  5
E4
  8
0
 62
     7
 10
147.775586
 20
119.28699400000001
 30
0.0
 40
0.207665
 50
186.32860299999999
 51
268.08846299999999
  0
LINE
  5
E5
  8
0
 62
     7
 10
147.76900000000001
 20
133.87999999999991
 30
0.0
 11
148.83299999999991
 21
133.87999999999991
 31
0.0
  0
ARC
  5
E6
  8
0
 62
     7
 10
147.77520000000001
 20
133.67253600000001
 30
0.0
 40
0.207236
 50
91.808783999999989
 51
173.77414899999991
  0
ARC
  5
E7
  8
0
 62
     7
 10
224.87687700000001
 20
126.4795569999999
 30
0.0
 40
77.643900000000002
 50
174.66880699999999
 51
185.3311929999999
  0
LINE
  5
E8
  8
0
 62
     7
 10
82.004099999999994
 20
224.048
 30
0.0
 11
82.004099999999994
 21
224.24799999999999
 31
0.0
  0
LINE
  5
E9
  8
0
 62
     7
 10
68.804199999999994
 20
224.24799999999999
 30
0.0
 11
68.804199999999994
 21
224.048
 31
0.0
  0
LINE
  5
EA
  8
0
 62
     7
 10
68.804199999999994
 20
224.24799999999999
 30
0.0
 11
82.004099999999994
 21
224.24799999999999
 31
0.0
  0
LINE
  5
EB
  8
0
 62
     7
 10
149.0329999999999
 20
133.08000000000001
 30
0.0
 11
149.0329999999999
 21
119.879
 31
0.0
  0
LINE
  5
EC
  8
0
 62
     7
 10
149.0329999999999
 20
133.08000000000001
 30
0.0
 11
148.83299999999991
 21
133.08000000000001
 31
0.0
  0
LINE
  5
ED
  8
0
 62
     7
 10
149.0329999999999
 20
119.879
 30
0.0
 11
148.83299999999991
 21
119.879
 31
0.0
  0
LINE
  5
EE
  8
0
 62
     7
 10
62.004199999999997
 20
224.048
 30
0.0
 11
62.004199999999997
 21
224.24799999999999
 31
0.0
  0
LINE
  5
EF
  8
0
 62
     7
 10
48.803899999999999
 20
224.24799999999999
 30
0.0
 11
48.803899999999999
 21
224.048
 31
0.0
  0
LINE
  5
F0
  8
0
 62
     7
 10
48.803899999999999
 20
224.24799999999999
 30
0.0
 11
62.004199999999997
 21
224.24799999999999
 31
0.0
  0
LINE
  5
F1
  8
0
 62
     7
 10
57.303999999999988
 20
227.24799999999991
 30
0.0
 11
53.503999999999998
 21
227.24799999999991
 31
0.0
  0
LINE
  5
F2
  8
0
 62
     7
 10
149.0329999999999
 20
121.57899999999989
 30
0.0
 11
156.233
 21
121.57899999999989
 31
0.0
  0
LINE
  5
F3
  8
0
 62
     7
 10
149.0329999999999
 20
131.38
 30
0.0
 11
156.233
 21
131.38
 31
0.0
  0
LINE
  5
F4
  8
0
  6
AIGENLINE001
 62
     7
 10
109.55500000000001
 20
126.48
 30
0.0
 11
157.73400000000001
 21
126.48
 31
0.0
  0
LINE
  5
F5
  8
0
 62
     7
 10
139.233
 20
122.78
 30
0.0
 11
139.5329999999999
 21
122.78
 31
0.0
  0
LINE
  5
F6
  8
0
 62
     7
 10
139.233
 20
130.18000000000001
 30
0.0
 11
139.5329999999999
 21
130.18000000000001
 31
0.0
  0
LINE
  5
F7
  8
0
 62
     7
 10
137.833
 20
130.37899999999999
 30
0.0
 11
139.233
 21
130.37899999999999
 31
0.0
  0
LINE
  5
F8
  8
0
 62
     7
 10
137.63199999999989
 20
130.18000000000001
 30
0.0
 11
137.63199999999989
 21
122.78
 31
0.0
  0
ARC
  5
F9
  8
0
 62
     7
 10
137.84010900000001
 20
130.1721
 30
0.0
 40
0.207466
 50
92.075303000000005
 51
177.924667
  0
LINE
  5
FA
  8
0
 62
     7
 10
139.233
 20
130.37899999999999
 30
0.0
 11
139.233
 21
122.57899999999989
 31
0.0
  0
LINE
  5
FB
  8
0
 62
     7
 10
147.34100000000001
 20
130.57900000000001
 30
0.0
 11
139.5329999999999
 21
130.57900000000001
 31
0.0
  0
LINE
  5
FC
  8
0
 62
     7
 10
147.34100000000001
 20
122.37899999999991
 30
0.0
 11
139.5329999999999
 21
122.37899999999991
 31
0.0
  0
LINE
  5
FD
  8
0
 62
     7
 10
139.5329999999999
 20
130.57900000000001
 30
0.0
 11
139.5329999999999
 21
122.37899999999991
 31
0.0
  0
LINE
  5
FE
  8
0
 62
     7
 10
148.83299999999991
 20
133.87999999999991
 30
0.0
 11
148.83299999999991
 21
119.07899999999999
 31
0.0
  0
LINE
  5
FF
  8
0
 62
     7
 10
39.1858
 20
188.2579999999999
 30
0.0
 11
39.778399999999998
 21
186.047
 31
0.0
  0
LINE
  5
100
  8
0
 62
     7
 10
39.778399999999998
 20
186.047
 30
0.0
 11
40.370899999999999
 21
188.2579999999999
 31
0.0
  0
LINE
  5
101
  8
0
 62
     7
 10
40.370899999999999
 20
188.2579999999999
 30
0.0
 11
39.1858
 21
188.2579999999999
 31
0.0
  0
LINE
  5
102
  8
0
 62
     7
 10
66.662800000000004
 20
240.67199999999991
 30
0.0
 11
66.119200000000006
 21
238.44799999999989
 31
0.0
  0
LINE
  5
103
  8
0
 62
     7
 10
66.119200000000006
 20
238.44799999999989
 30
0.0
 11
67.701899999999995
 21
240.10199999999989
 31
0.0
  0
LINE
  5
104
  8
0
 62
     7
 10
67.701899999999995
 20
240.10199999999989
 30
0.0
 11
66.662800000000004
 21
240.67199999999991
 31
0.0
  0
LINE
  5
105
  8
0
 62
     7
 10
71.1434
 20
247.62499999999989
 30
0.0
 11
66.112700000000004
 21
238.452
 31
0.0
  0
LINE
  5
106
  8
0
 62
     7
 10
71.1434
 20
247.62499999999989
 30
0.0
 11
85.853499999999997
 21
247.62499999999989
 31
0.0
  0
LINE
  5
107
  8
0
 62
     7
 10
60.286099999999998
 20
204.36699999999999
 30
0.0
 11
58.005800000000001
 21
204.571
 31
0.0
  0
LINE
  5
108
  8
0
 62
     7
 10
58.005800000000001
 20
204.571
 30
0.0
 11
59.8782
 21
203.25399999999999
 31
0.0
  0
LINE
  5
109
  8
0
 62
     7
 10
59.8782
 20
203.25399999999999
 30
0.0
 11
60.286099999999998
 21
204.36699999999999
 31
0.0
  0
LINE
  5
10A
  8
0
 62
     7
 10
78.373699999999985
 20
197.114
 30
0.0
 11
58.0092
 21
204.578
 31
0.0
  0
LINE
  5
10B
  8
0
 62
     7
 10
74.376300000000001
 20
210.9379999999999
 30
0.0
 11
73.11399999999999
 21
212.8479999999999
 31
0.0
  0
LINE
  5
10C
  8
0
 62
     7
 10
73.11399999999999
 20
212.8479999999999
 30
0.0
 11
73.252200000000002
 21
210.56200000000001
 31
0.0
  0
LINE
  5
10D
  8
0
 62
     7
 10
73.252200000000002
 20
210.56200000000001
 30
0.0
 11
74.376300000000001
 21
210.9379999999999
 31
0.0
  0
LINE
  5
10E
  8
0
 62
     7
 10
78.373699999999985
 20
197.114
 30
0.0
 11
73.121200000000002
 21
212.84899999999999
 31
0.0
  0
LINE
  5
10F
  8
0
 62
     7
 10
78.373699999999985
 20
197.114
 30
0.0
 11
94.837999999999994
 21
197.114
 31
0.0
  0
LINE
  5
110
  8
0
 62
     7
 10
40.356399999999987
 20
221.83699999999999
 30
0.0
 11
39.7639
 21
224.04900000000001
 31
0.0
  0
LINE
  5
111
  8
0
 62
     7
 10
39.7639
 20
224.04900000000001
 30
0.0
 11
39.171300000000002
 21
221.83699999999999
 31
0.0
  0
LINE
  5
112
  8
0
 62
     7
 10
39.171300000000002
 20
221.83699999999999
 30
0.0
 11
40.356399999999987
 21
221.83699999999999
 31
0.0
  0
LINE
  5
113
  8
0
 62
     7
 10
39.77109999999999
 20
186.048
 30
0.0
 11
39.77109999999999
 21
224.048
 31
0.0
  0
LINE
  5
114
  8
0
 62
     7
 10
39.071100000000001
 20
186.048
 30
0.0
 11
52.318899999999992
 21
186.048
 31
0.0
  0
LINE
  5
115
  8
0
 62
     7
 10
39.071100000000001
 20
224.048
 30
0.0
 11
47.503999999999991
 21
224.048
 31
0.0
  0
LINE
  5
116
  8
0
 62
     7
 10
53.203999999999994
 20
231.44799999999989
 30
0.0
 11
53.203999999999994
 21
238.44799999999989
 31
0.0
  0
LINE
  5
117
  8
0
 62
     7
 10
57.303999999999988
 20
227.24799999999991
 30
0.0
 11
57.504199999999997
 21
227.44800000000001
 31
0.0
  0
LINE
  5
118
  8
0
 62
     7
 10
57.303999999999988
 20
229.44799999999989
 30
0.0
 11
57.303999999999988
 21
227.24799999999991
 31
0.0
  0
LINE
  5
119
  8
0
 62
     7
 10
53.503999999999998
 20
227.24799999999991
 30
0.0
 11
53.303899999999999
 21
227.44800000000001
 31
0.0
  0
LINE
  5
11A
  8
0
 62
     7
 10
53.503999999999998
 20
229.44799999999989
 30
0.0
 11
53.503999999999998
 21
227.24799999999991
 31
0.0
  0
LINE
  5
11B
  8
0
 62
     7
 10
53.603999999999999
 20
224.24799999999999
 30
0.0
 11
53.603999999999999
 21
227.24799999999991
 31
0.0
  0
LINE
  5
11C
  8
0
 62
     7
 10
57.204099999999997
 20
224.24799999999999
 30
0.0
 11
57.204099999999997
 21
227.24799999999991
 31
0.0
  0
LINE
  5
11D
  8
0
 62
     7
 10
57.504199999999997
 20
229.44799999999989
 30
0.0
 11
57.504199999999997
 21
227.44800000000001
 31
0.0
  0
LINE
  5
11E
  8
0
 62
     7
 10
53.303899999999999
 20
229.44799999999989
 30
0.0
 11
53.303899999999999
 21
227.44800000000001
 31
0.0
  0
LINE
  5
11F
  8
0
 62
     7
 10
57.504199999999997
 20
227.44800000000001
 30
0.0
 11
53.303899999999999
 21
227.44800000000001
 31
0.0
  0
LINE
  5
120
  8
0
 62
     7
 10
51.4039
 20
231.44799999999989
 30
0.0
 11
52.003999999999998
 21
231.44799999999989
 31
0.0
  0
LINE
  5
121
  8
0
 62
     7
 10
163.6329999999999
 20
130.4799999999999
 30
0.0
 11
163.6329999999999
 21
134.4789999999999
 31
0.0
  0
LINE
  5
122
  8
0
 62
     7
 10
162.43199999999999
 20
119.879
 30
0.0
 11
162.43199999999999
 21
135.28
 31
0.0
  0
LINE
  5
123
  8
0
 62
     7
 10
157.03299999999999
 20
119.879
 30
0.0
 11
157.03299999999999
 21
135.28
 31
0.0
  0
LINE
  5
124
  8
0
 62
     7
 10
156.233
 20
121.8799999999999
 30
0.0
 11
163.23199999999991
 21
121.8799999999999
 31
0.0
  0
LINE
  5
125
  8
0
 62
     7
 10
156.233
 20
120.679
 30
0.0
 11
156.233
 21
134.4799999999999
 31
0.0
  0
LINE
  5
126
  8
0
 62
     7
 10
157.03299999999999
 20
135.28
 30
0.0
 11
162.43199999999999
 21
135.28
 31
0.0
  0
ARC
  5
127
  8
0
 62
     7
 10
157.06317499999989
 20
134.44921199999999
 30
0.0
 40
0.8311149999999999
 50
92.109700000000004
 51
177.8902709999999
  0
ARC
  5
128
  8
0
 62
     7
 10
162.40187
 20
134.44922199999999
 30
0.0
 40
0.8311049999999999
 50
2.109065999999999
 51
87.890924999999996
  0
LINE
  5
129
  8
0
 62
     7
 10
157.03299999999999
 20
119.879
 30
0.0
 11
162.43199999999999
 21
119.879
 31
0.0
  0
ARC
  5
12A
  8
0
 62
     7
 10
157.06317499999989
 20
120.709953
 30
0.0
 40
0.8311149999999999
 50
182.10972899999999
 51
267.89030000000002
  0
LINE
  5
12B
  8
0
 62
     7
 10
163.23199999999991
 20
120.679
 30
0.0
 11
163.23199999999991
 21
134.4799999999999
 31
0.0
  0
ARC
  5
12C
  8
0
 62
     7
 10
162.40187
 20
120.7099429999999
 30
0.0
 40
0.8311049999999999
 50
272.10907500000002
 51
357.8909339999999
  0
LINE
  5
12D
  8
0
 62
     7
 10
158.23299999999989
 20
119.879
 30
0.0
 11
158.23299999999989
 21
135.28
 31
0.0
  0
LINE
  5
12E
  8
0
 62
     7
 10
82.204300000000003
 20
238.8479999999999
 30
0.0
 11
78.2042
 21
238.8479999999999
 31
0.0
  0
LINE
  5
12F
  8
0
 62
     7
 10
64.604200000000006
 20
238.8479999999999
 30
0.0
 11
60.604100000000003
 21
238.8479999999999
 31
0.0
  0
LINE
  5
130
  8
0
 62
     7
 10
59.404200000000003
 20
229.44799999999989
 30
0.0
 11
51.4039
 21
229.44799999999989
 31
0.0
  0
LINE
  5
131
  8
0
 62
     7
 10
59.404200000000003
 20
229.44799999999989
 30
0.0
 11
59.404200000000003
 21
231.44799999999989
 31
0.0
  0
LINE
  5
132
  8
0
 62
     7
 10
51.4039
 20
229.44799999999989
 30
0.0
 11
51.4039
 21
231.44799999999989
 31
0.0
  0
LINE
  5
133
  8
0
 62
     7
 10
70.503999999999991
 20
224.24799999999999
 30
0.0
 11
70.503999999999991
 21
231.44799999999989
 31
0.0
  0
LINE
  5
134
  8
0
 62
     7
 10
80.304299999999998
 20
224.24799999999999
 30
0.0
 11
80.304299999999998
 21
231.44799999999989
 31
0.0
  0
LINE
  5
135
  8
0
 62
     7
 10
51.20409999999999
 20
232.24799999999999
 30
0.0
 11
51.20409999999999
 21
237.64799999999991
 31
0.0
  0
ARC
  5
136
  8
0
 62
     7
 10
52.034641000000001
 20
232.27852499999989
 30
0.0
 40
0.8311149999999999
 50
182.10972899999999
 51
267.89030000000002
  0
ARC
  5
137
  8
0
 62
     7
 10
52.034630999999997
 20
237.61739299999999
 30
0.0
 40
0.8311049999999999
 50
92.109037999999998
 51
177.89093199999999
  0
LINE
  5
138
  8
0
 62
     7
 10
87.2042
 20
237.64799999999991
 30
0.0
 11
51.20409999999999
 21
237.64799999999991
 31
0.0
  0
LINE
  5
139
  8
0
 62
     7
 10
87.2042
 20
232.24799999999999
 30
0.0
 11
51.203699999999998
 21
232.24799999999999
 31
0.0
  0
LINE
  5
13A
  8
0
 62
     7
 10
85.204300000000003
 20
231.44799999999989
 30
0.0
 11
85.204300000000003
 21
238.44799999999989
 31
0.0
  0
LINE
  5
13B
  8
0
 62
     7
 10
60.604100000000003
 20
238.44799999999989
 30
0.0
 11
60.604100000000003
 21
238.8479999999999
 31
0.0
  0
LINE
  5
13C
  8
0
  6
AIGENLINE001
 62
     7
 10
62.603999999999999
 20
237.68599999999989
 30
0.0
 11
62.603999999999999
 21
239.95400000000001
 31
0.0
  0
LINE
  5
13D
  8
0
 62
     7
 10
64.604200000000006
 20
238.44799999999989
 30
0.0
 11
64.604200000000006
 21
238.8479999999999
 31
0.0
  0
LINE
  5
13E
  8
0
 62
     7
 10
78.2042
 20
238.44799999999989
 30
0.0
 11
78.2042
 21
238.8479999999999
 31
0.0
  0
LINE
  5
13F
  8
0
  6
AIGENLINE001
 62
     7
 10
80.204400000000007
 20
237.68599999999989
 30
0.0
 11
80.204400000000007
 21
239.95400000000001
 31
0.0
  0
LINE
  5
140
  8
0
 62
     7
 10
82.204300000000003
 20
238.44799999999989
 30
0.0
 11
82.204300000000003
 21
238.8479999999999
 31
0.0
  0
LINE
  5
141
  8
0
 62
     7
 10
86.404200000000003
 20
231.44799999999989
 30
0.0
 11
52.003999999999998
 21
231.44799999999989
 31
0.0
  0
LINE
  5
142
  8
0
 62
     7
 10
87.2042
 20
232.24799999999999
 30
0.0
 11
87.2042
 21
237.64799999999991
 31
0.0
  0
ARC
  5
143
  8
0
 62
     7
 10
86.373643999999999
 20
232.278516
 30
0.0
 40
0.8311049999999999
 50
272.10907500000002
 51
357.8909339999999
  0
LINE
  5
144
  8
0
 62
     7
 10
86.404200000000003
 20
238.44799999999989
 30
0.0
 11
52.003999999999998
 21
238.44799999999989
 31
0.0
  0
ARC
  5
145
  8
0
 62
     7
 10
86.373633999999996
 20
237.61738199999991
 30
0.0
 40
0.8311159999999999
 50
2.109726999999999
 51
87.890263000000004
  0
LINE
  5
146
  8
0
 62
     7
 10
87.2042
 20
233.44799999999989
 30
0.0
 11
51.20409999999999
 21
233.44799999999989
 31
0.0
  0
LINE
  5
147
  8
0
 62
     7
 10
103.5719999999999
 20
224.048
 30
0.0
 11
83.304299999999984
 21
224.048
 31
0.0
  0
LINE
  5
148
  8
0
  6
AIGENLINE001
 62
     7
 10
55.403999999999989
 20
184.77000000000001
 30
0.0
 11
55.403999999999989
 21
232.94900000000001
 31
0.0
  0
LINE
  5
149
  8
0
 62
     7
 10
57.906199999999998
 20
186.44499999999991
 30
0.0
 11
58.103999999999999
 21
222.44799999999989
 31
0.0
  0
LINE
  5
14A
  8
0
 62
     7
 10
53.3018
 20
186.048
 30
0.0
 11
57.5062
 21
186.048
 31
0.0
  0
ARC
  5
14B
  8
0
 62
     7
 10
57.491492999999998
 20
186.46252499999991
 30
0.0
 40
0.415086
 50
272.03629699999999
 51
357.61721699999993
  0
LINE
  5
14C
  8
0
 62
     7
 10
52.901499999999999
 20
186.44499999999991
 30
0.0
 11
52.704099999999997
 21
222.44799999999989
 31
0.0
  0
ARC
  5
14D
  8
0
 62
     7
 10
53.316668999999997
 20
186.46298400000001
 30
0.0
 40
0.415548
 50
182.44350299999999
 51
267.95235099999991
  0
LINE
  5
14E
  8
0
 62
     7
 10
71.703900000000004
 20
214.44799999999989
 30
0.0
 11
71.703900000000004
 21
214.74799999999991
 31
0.0
  0
LINE
  5
14F
  8
0
 62
     7
 10
79.103999999999999
 20
214.44799999999989
 30
0.0
 11
79.103999999999999
 21
214.74799999999991
 31
0.0
  0
LINE
  5
150
  8
0
 62
     7
 10
79.304199999999994
 20
213.04799999999989
 30
0.0
 11
79.304199999999994
 21
214.44799999999989
 31
0.0
  0
LINE
  5
151
  8
0
 62
     7
 10
79.103999999999999
 20
212.8479999999999
 30
0.0
 11
71.703900000000004
 21
212.8479999999999
 31
0.0
  0
ARC
  5
152
  8
0
 62
     7
 10
79.096529000000004
 20
213.05545000000001
 30
0.0
 40
0.2078
 50
272.06761099999989
 51
357.88306999999998
  0
LINE
  5
153
  8
0
 62
     7
 10
71.504099999999994
 20
213.04799999999989
 30
0.0
 11
71.504099999999994
 21
214.44799999999989
 31
0.0
  0
ARC
  5
154
  8
0
 62
     7
 10
71.711637999999994
 20
213.055319
 30
0.0
 40
0.207678
 50
182.08200500000001
 51
267.86865299999988
  0
LINE
  5
155
  8
0
 62
     7
 10
79.304199999999994
 20
214.44799999999989
 30
0.0
 11
71.504099999999994
 21
214.44799999999989
 31
0.0
  0
LINE
  5
156
  8
0
 62
     7
 10
79.503999999999991
 20
222.44799999999989
 30
0.0
 11
79.503999999999991
 21
214.74799999999991
 31
0.0
  0
LINE
  5
157
  8
0
 62
     7
 10
71.303899999999999
 20
222.44799999999989
 30
0.0
 11
71.303899999999999
 21
214.74799999999991
 31
0.0
  0
LINE
  5
158
  8
0
 62
     7
 10
79.503999999999991
 20
214.74799999999991
 30
0.0
 11
71.303899999999999
 21
214.74799999999991
 31
0.0
  0
LINE
  5
159
  8
0
 62
     7
 10
82.604299999999995
 20
222.648
 30
0.0
 11
82.604299999999995
 21
224.048
 31
0.0
  0
LINE
  5
15A
  8
0
 62
     7
 10
82.4041
 20
222.44799999999989
 30
0.0
 11
48.4039
 21
222.44799999999989
 31
0.0
  0
ARC
  5
15B
  8
0
 62
     7
 10
82.396664999999999
 20
222.65555599999999
 30
0.0
 40
0.20774
 50
272.05216299999989
 51
357.89851800000002
  0
LINE
  5
15C
  8
0
 62
     7
 10
48.20409999999999
 20
222.648
 30
0.0
 11
48.20409999999999
 21
224.048
 31
0.0
  0
ARC
  5
15D
  8
0
 62
     7
 10
48.4116
 20
222.65546199999989
 30
0.0
 40
0.207656
 50
182.07649799999999
 51
267.87416000000002
  0
LINE
  5
15E
  8
0
 62
     7
 10
82.604299999999995
 20
224.048
 30
0.0
 11
48.20409999999999
 21
224.048
 31
0.0
  0
LINE
  5
15F
  8
0
  6
AIGENLINE001
 62
     7
 10
75.403999999999996
 20
211.18899999999999
 30
0.0
 11
75.403999999999996
 21
232.97799999999989
 31
0.0
  0
LINE
  5
160
  8
0
 62
     7
 10
32.384300000000003
 20
119.07899999999999
 30
0.0
 11
47.582900000000002
 21
119.07899999999999
 31
0.0
  0
LINE
  5
161
  8
0
 62
     7
 10
40.452199999999991
 20
121.2679999999999
 30
0.0
 11
39.859699999999997
 21
123.48
 31
0.0
  0
LINE
  5
162
  8
0
 62
     7
 10
39.859699999999997
 20
123.48
 30
0.0
 11
39.267099999999992
 21
121.2679999999999
 31
0.0
  0
LINE
  5
163
  8
0
 62
     7
 10
39.267099999999992
 20
121.2679999999999
 30
0.0
 11
40.452199999999991
 21
121.2679999999999
 31
0.0
  0
LINE
  5
164
  8
0
 62
     7
 10
40.452199999999991
 20
130.268
 30
0.0
 11
39.859699999999997
 21
132.4799999999999
 31
0.0
  0
LINE
  5
165
  8
0
 62
     7
 10
39.859699999999997
 20
132.4799999999999
 30
0.0
 11
39.267099999999992
 21
130.268
 31
0.0
  0
LINE
  5
166
  8
0
 62
     7
 10
39.267099999999992
 20
130.268
 30
0.0
 11
40.452199999999991
 21
130.268
 31
0.0
  0
LINE
  5
167
  8
0
 62
     7
 10
39.323599999999999
 20
128.69099999999989
 30
0.0
 11
39.916200000000003
 21
126.48
 31
0.0
  0
LINE
  5
168
  8
0
 62
     7
 10
39.916200000000003
 20
126.48
 30
0.0
 11
40.50869999999999
 21
128.69099999999989
 31
0.0
  0
LINE
  5
169
  8
0
 62
     7
 10
40.50869999999999
 20
128.69099999999989
 30
0.0
 11
39.323599999999999
 21
128.69099999999989
 31
0.0
  0
LINE
  5
16A
  8
0
 62
     7
 10
39.859699999999997
 20
132.4799999999999
 30
0.0
 11
39.859699999999997
 21
120.0329999999999
 31
0.0
  0
LINE
  5
16B
  8
0
 62
     7
 10
33.676900000000003
 20
131.66800000000001
 30
0.0
 11
33.084299999999992
 21
133.87999999999991
 31
0.0
  0
LINE
  5
16C
  8
0
 62
     7
 10
33.084299999999992
 20
133.87999999999991
 30
0.0
 11
32.491799999999991
 21
131.66800000000001
 31
0.0
  0
LINE
  5
16D
  8
0
 62
     7
 10
32.491799999999991
 20
131.66800000000001
 30
0.0
 11
33.676900000000003
 21
131.66800000000001
 31
0.0
  0
LINE
  5
16E
  8
0
 62
     7
 10
32.491799999999991
 20
137.358
 30
0.0
 11
33.084299999999992
 21
135.14699999999999
 31
0.0
  0
LINE
  5
16F
  8
0
 62
     7
 10
33.084299999999992
 20
135.14699999999999
 30
0.0
 11
33.676900000000003
 21
137.358
 31
0.0
  0
LINE
  5
170
  8
0
 62
     7
 10
33.676900000000003
 20
137.358
 30
0.0
 11
32.491799999999991
 21
137.358
 31
0.0
  0
LINE
  5
171
  8
0
 62
     7
 10
32.499000000000002
 20
121.29000000000001
 30
0.0
 11
33.0916
 21
119.07899999999999
 31
0.0
  0
LINE
  5
172
  8
0
 62
     7
 10
33.0916
 20
119.07899999999999
 30
0.0
 11
33.684100000000001
 21
121.29000000000001
 31
0.0
  0
LINE
  5
173
  8
0
 62
     7
 10
33.684100000000001
 20
121.29000000000001
 30
0.0
 11
32.499000000000002
 21
121.29000000000001
 31
0.0
  0
LINE
  5
174
  8
0
 62
     7
 10
33.084299999999992
 20
140.01400000000001
 30
0.0
 11
33.084299999999992
 21
119.07899999999999
 31
0.0
  0
LINE
  5
175
  8
0
 62
     7
 10
39.159599999999998
 20
132.4799999999999
 30
0.0
 11
60.092500000000001
 21
132.4799999999999
 31
0.0
  0
LINE
  5
176
  8
0
 62
     7
 10
39.159599999999998
 20
123.48
 30
0.0
 11
60.092500000000001
 21
123.48
 31
0.0
  0
LINE
  5
177
  8
0
 62
     7
 10
39.159599999999998
 20
126.48
 30
0.0
 11
46.215200000000003
 21
126.48
 31
0.0
  0
LINE
  5
178
  8
0
 62
     7
 10
32.384300000000003
 20
135.28
 30
0.0
 11
51.731900000000003
 21
135.28
 31
0.0
  0
LINE
  5
179
  8
0
 62
     7
 10
32.384300000000003
 20
133.87999999999991
 30
0.0
 11
47.582900000000002
 21
133.87999999999991
 31
0.0
  0
LINE
  5
17A
  8
0
 62
     7
 10
68.9041
 20
99.457800000000006
 30
0.0
 11
81.904200000000003
 21
99.457800000000006
 31
0.0
  0
LINE
  5
17B
  8
0
 62
     7
 10
164.5449999999999
 20
112.0049999999999
 30
0.0
 11
162.33299999999991
 21
111.41199999999991
 31
0.0
  0
LINE
  5
17C
  8
0
 62
     7
 10
162.33299999999991
 20
111.41199999999991
 30
0.0
 11
164.5449999999999
 21
110.819
 31
0.0
  0
LINE
  5
17D
  8
0
 62
     7
 10
164.5449999999999
 20
110.819
 30
0.0
 11
164.5449999999999
 21
112.0049999999999
 31
0.0
  0
LINE
  5
17E
  8
0
 62
     7
 10
155.92099999999999
 20
110.819
 30
0.0
 11
158.1329999999999
 21
111.41199999999991
 31
0.0
  0
LINE
  5
17F
  8
0
 62
     7
 10
158.1329999999999
 20
111.41199999999991
 30
0.0
 11
155.92099999999999
 21
112.0049999999999
 31
0.0
  0
LINE
  5
180
  8
0
 62
     7
 10
155.92099999999999
 20
112.0049999999999
 30
0.0
 11
155.92099999999999
 21
110.819
 31
0.0
  0
LINE
  5
181
  8
0
 62
     7
 10
149.8249999999999
 20
111.41199999999991
 30
0.0
 11
165.8959999999999
 21
111.41199999999991
 31
0.0
  0
LINE
  5
182
  8
0
 62
     7
 10
158.1329999999999
 20
110.712
 30
0.0
 11
158.1329999999999
 21
117.37899999999991
 31
0.0
  0
LINE
  5
183
  8
0
 62
     7
 10
162.33299999999991
 20
110.712
 30
0.0
 11
162.33299999999991
 21
117.37899999999991
 31
0.0
  0
LINE
  5
184
  8
0
 62
     7
 10
81.904200000000003
 20
116.45
 30
0.0
 11
81.904200000000003
 21
98.757700000000014
 31
0.0
  0
LINE
  5
185
  8
0
 62
     7
 10
68.9041
 20
116.45
 30
0.0
 11
68.9041
 21
98.757700000000014
 31
0.0
  0
LINE
  5
186
  8
0
 62
     7
 10
71.115700000000004
 20
100.0499999999999
 30
0.0
 11
68.9041
 21
99.457800000000006
 31
0.0
  0
LINE
  5
187
  8
0
 62
     7
 10
68.9041
 20
99.457800000000006
 30
0.0
 11
71.115700000000004
 21
98.865200000000002
 31
0.0
  0
LINE
  5
188
  8
0
 62
     7
 10
71.115700000000004
 20
98.865200000000002
 30
0.0
 11
71.115700000000004
 21
100.0499999999999
 31
0.0
  0
LINE
  5
189
  8
0
 62
     7
 10
79.692599999999999
 20
98.865200000000002
 30
0.0
 11
81.904200000000003
 21
99.457800000000006
 31
0.0
  0
LINE
  5
18A
  8
0
 62
     7
 10
81.904200000000003
 20
99.457800000000006
 30
0.0
 11
79.692599999999999
 21
100.0499999999999
 31
0.0
  0
LINE
  5
18B
  8
0
 62
     7
 10
79.692599999999999
 20
100.0499999999999
 30
0.0
 11
79.692599999999999
 21
98.865200000000002
 31
0.0
  0
LINE
  5
18C
  8
0
 62
     7
 10
73.215800000000002
 20
106.56100000000001
 30
0.0
 11
71.004199999999983
 21
105.9679999999999
 31
0.0
  0
LINE
  5
18D
  8
0
 62
     7
 10
71.004199999999983
 20
105.9679999999999
 30
0.0
 11
73.215800000000002
 21
105.376
 31
0.0
  0
LINE
  5
18E
  8
0
 62
     7
 10
73.215800000000002
 20
105.376
 30
0.0
 11
73.215800000000002
 21
106.56100000000001
 31
0.0
  0
LINE
  5
18F
  8
0
 62
     7
 10
64.592299999999994
 20
105.376
 30
0.0
 11
66.803899999999999
 21
105.9679999999999
 31
0.0
  0
LINE
  5
190
  8
0
 62
     7
 10
66.803899999999999
 20
105.9679999999999
 30
0.0
 11
64.592299999999994
 21
106.56100000000001
 31
0.0
  0
LINE
  5
191
  8
0
 62
     7
 10
64.592299999999994
 20
106.56100000000001
 30
0.0
 11
64.592299999999994
 21
105.376
 31
0.0
  0
LINE
  5
192
  8
0
 62
     7
 10
86.215999999999994
 20
106.56100000000001
 30
0.0
 11
84.004400000000004
 21
105.9679999999999
 31
0.0
  0
LINE
  5
193
  8
0
 62
     7
 10
84.004400000000004
 20
105.9679999999999
 30
0.0
 11
86.215999999999994
 21
105.376
 31
0.0
  0
LINE
  5
194
  8
0
 62
     7
 10
86.215999999999994
 20
105.376
 30
0.0
 11
86.215999999999994
 21
106.56100000000001
 31
0.0
  0
LINE
  5
195
  8
0
 62
     7
 10
77.592500000000001
 20
105.376
 30
0.0
 11
79.804100000000005
 21
105.9679999999999
 31
0.0
  0
LINE
  5
196
  8
0
 62
     7
 10
79.804100000000005
 20
105.9679999999999
 30
0.0
 11
77.592500000000001
 21
106.56100000000001
 31
0.0
  0
LINE
  5
197
  8
0
 62
     7
 10
77.592500000000001
 20
106.56100000000001
 30
0.0
 11
77.592500000000001
 21
105.376
 31
0.0
  0
LINE
  5
198
  8
0
 62
     7
 10
76.989400000000003
 20
105.9679999999999
 30
0.0
 11
91.985299999999995
 21
105.9679999999999
 31
0.0
  0
LINE
  5
199
  8
0
 62
     7
 10
79.804100000000005
 20
105.2679999999999
 30
0.0
 11
79.804100000000005
 21
117.342
 31
0.0
  0
LINE
  5
19A
  8
0
 62
     7
 10
84.004400000000004
 20
105.2679999999999
 30
0.0
 11
84.004400000000004
 21
117.342
 31
0.0
  0
LINE
  5
19B
  8
0
 62
     7
 10
57.851100000000002
 20
105.9679999999999
 30
0.0
 11
73.990799999999993
 21
105.9679999999999
 31
0.0
  0
LINE
  5
19C
  8
0
 62
     7
 10
66.803899999999999
 20
105.2679999999999
 30
0.0
 11
66.803899999999999
 21
117.342
 31
0.0
  0
LINE
  5
19D
  8
0
 62
     7
 10
71.004199999999983
 20
105.2679999999999
 30
0.0
 11
71.004199999999983
 21
117.342
 31
0.0
  0
LINE
  5
19E
  8
0
 62
     7
 10
87.804299999999998
 20
231.44799999999989
 30
0.0
 11
103.5719999999999
 21
231.44799999999989
 31
0.0
  0
LINE
  5
19F
  8
0
 62
     7
 10
87.804299999999998
 20
238.8479999999999
 30
0.0
 11
103.5719999999999
 21
238.8479999999999
 31
0.0
  0
LINE
  5
1A0
  8
0
 62
     7
 10
102.286
 20
226.25700000000001
 30
0.0
 11
102.87899999999991
 21
224.04599999999999
 31
0.0
  0
LINE
  5
1A1
  8
0
 62
     7
 10
102.87899999999991
 20
224.04599999999999
 30
0.0
 11
103.471
 21
226.25700000000001
 31
0.0
  0
LINE
  5
1A2
  8
0
 62
     7
 10
103.471
 20
226.25700000000001
 30
0.0
 11
102.286
 21
226.25700000000001
 31
0.0
  0
LINE
  5
1A3
  8
0
 62
     7
 10
103.45699999999989
 20
229.2359999999999
 30
0.0
 11
102.8639999999999
 21
231.447
 31
0.0
  0
LINE
  5
1A4
  8
0
 62
     7
 10
102.8639999999999
 20
231.447
 30
0.0
 11
102.27200000000001
 21
229.2359999999999
 31
0.0
  0
LINE
  5
1A5
  8
0
 62
     7
 10
102.27200000000001
 20
229.2359999999999
 30
0.0
 11
103.45699999999989
 21
229.2359999999999
 31
0.0
  0
LINE
  5
1A6
  8
0
 62
     7
 10
102.872
 20
224.04599999999999
 30
0.0
 11
102.872
 21
231.447
 31
0.0
  0
LINE
  5
1A7
  8
0
 62
     7
 10
102.286
 20
233.65799999999999
 30
0.0
 11
102.87899999999991
 21
231.447
 31
0.0
  0
LINE
  5
1A8
  8
0
 62
     7
 10
102.87899999999991
 20
231.447
 30
0.0
 11
103.471
 21
233.65799999999999
 31
0.0
  0
LINE
  5
1A9
  8
0
 62
     7
 10
103.471
 20
233.65799999999999
 30
0.0
 11
102.286
 21
233.65799999999999
 31
0.0
  0
LINE
  5
1AA
  8
0
 62
     7
 10
103.45699999999989
 20
236.63799999999989
 30
0.0
 11
102.8639999999999
 21
238.84899999999999
 31
0.0
  0
LINE
  5
1AB
  8
0
 62
     7
 10
102.8639999999999
 20
238.84899999999999
 30
0.0
 11
102.27200000000001
 21
236.63799999999989
 31
0.0
  0
LINE
  5
1AC
  8
0
 62
     7
 10
102.27200000000001
 20
236.63799999999989
 30
0.0
 11
103.45699999999989
 21
236.63799999999989
 31
0.0
  0
LINE
  5
1AD
  8
0
 62
     7
 10
102.872
 20
231.44799999999989
 30
0.0
 11
102.872
 21
238.8479999999999
 31
0.0
  0
LINE
  5
1AE
  8
0
 62
     7
 10
77.231899999999996
 20
111.07899999999989
 30
0.0
 11
104.8799999999999
 21
111.07899999999989
 31
0.0
  0
LINE
  5
1AF
  8
0
 62
     7
 10
84.650000000000006
 20
126.48
 30
0.0
 11
92.818700000000007
 21
126.48
 31
0.0
  0
LINE
  5
1B0
  8
0
 62
     7
 10
97.982900000000015
 20
126.48
 30
0.0
 11
104.8799999999999
 21
126.48
 31
0.0
  0
LINE
  5
1B1
  8
0
 62
     7
 10
103.59399999999989
 20
113.29000000000001
 30
0.0
 11
104.187
 21
111.07899999999989
 31
0.0
  0
LINE
  5
1B2
  8
0
 62
     7
 10
104.187
 20
111.07899999999989
 30
0.0
 11
104.7789999999999
 21
113.29000000000001
 31
0.0
  0
LINE
  5
1B3
  8
0
 62
     7
 10
104.7789999999999
 20
113.29000000000001
 30
0.0
 11
103.59399999999989
 21
113.29000000000001
 31
0.0
  0
LINE
  5
1B4
  8
0
 62
     7
 10
104.7649999999999
 20
124.26899999999991
 30
0.0
 11
104.172
 21
126.48
 31
0.0
  0
LINE
  5
1B5
  8
0
 62
     7
 10
104.172
 20
126.48
 30
0.0
 11
103.58
 21
124.26899999999991
 31
0.0
  0
LINE
  5
1B6
  8
0
 62
     7
 10
103.58
 20
124.26899999999991
 30
0.0
 11
104.7649999999999
 21
124.26899999999991
 31
0.0
  0
LINE
  5
1B7
  8
0
 62
     7
 10
104.18000000000001
 20
111.07899999999989
 30
0.0
 11
104.18000000000001
 21
126.48
 31
0.0
  0
LINE
  5
1B8
  8
0
 62
     7
 10
86.454199999999986
 20
119.879
 30
0.0
 11
97.840599999999995
 21
119.879
 31
0.0
  0
LINE
  5
1B9
  8
0
 62
     7
 10
86.454199999999986
 20
135.28
 30
0.0
 11
97.840599999999995
 21
135.28
 31
0.0
  0
LINE
  5
1BA
  8
0
 62
     7
 10
64.614900000000006
 20
144.28200000000001
 30
0.0
 11
62.403799999999997
 21
143.69
 31
0.0
  0
LINE
  5
1BB
  8
0
 62
     7
 10
62.403799999999997
 20
143.69
 30
0.0
 11
64.614900000000006
 21
143.09700000000001
 31
0.0
  0
LINE
  5
1BC
  8
0
 62
     7
 10
64.614900000000006
 20
143.09700000000001
 30
0.0
 11
64.614900000000006
 21
144.28200000000001
 31
0.0
  0
LINE
  5
1BD
  8
0
 62
     7
 10
73.192899999999995
 20
143.1039999999999
 30
0.0
 11
75.403999999999996
 21
143.697
 31
0.0
  0
LINE
  5
1BE
  8
0
 62
     7
 10
75.403999999999996
 20
143.697
 30
0.0
 11
73.192899999999995
 21
144.28899999999999
 31
0.0
  0
LINE
  5
1BF
  8
0
 62
     7
 10
73.192899999999995
 20
144.28899999999999
 30
0.0
 11
73.192899999999995
 21
143.1039999999999
 31
0.0
  0
LINE
  5
1C0
  8
0
 62
     7
 10
62.404499999999999
 20
143.697
 30
0.0
 11
83.727699999999999
 21
143.697
 31
0.0
  0
LINE
  5
1C1
  8
0
 62
     7
 10
96.554900000000004
 20
122.09
 30
0.0
 11
97.147499999999994
 21
119.879
 31
0.0
  0
LINE
  5
1C2
  8
0
 62
     7
 10
97.147499999999994
 20
119.879
 30
0.0
 11
97.739999999999995
 21
122.09
 31
0.0
  0
LINE
  5
1C3
  8
0
 62
     7
 10
97.739999999999995
 20
122.09
 30
0.0
 11
96.554900000000004
 21
122.09
 31
0.0
  0
LINE
  5
1C4
  8
0
 62
     7
 10
97.7256
 20
133.0689999999999
 30
0.0
 11
97.132999999999996
 21
135.28
 31
0.0
  0
LINE
  5
1C5
  8
0
 62
     7
 10
97.132999999999996
 20
135.28
 30
0.0
 11
96.540499999999994
 21
133.0689999999999
 31
0.0
  0
LINE
  5
1C6
  8
0
 62
     7
 10
96.540499999999994
 20
133.0689999999999
 30
0.0
 11
97.7256
 21
133.0689999999999
 31
0.0
  0
LINE
  5
1C7
  8
0
 62
     7
 10
97.140600000000006
 20
119.879
 30
0.0
 11
97.140600000000006
 21
135.28
 31
0.0
  0
LINE
  5
1C8
  8
0
 62
     7
 10
73.192400000000006
 20
150.255
 30
0.0
 11
75.403999999999996
 21
150.84700000000001
 31
0.0
  0
LINE
  5
1C9
  8
0
 62
     7
 10
75.403999999999996
 20
150.84700000000001
 30
0.0
 11
73.192400000000006
 21
151.44
 31
0.0
  0
LINE
  5
1CA
  8
0
 62
     7
 10
73.192400000000006
 20
151.44
 30
0.0
 11
73.192400000000006
 21
150.255
 31
0.0
  0
LINE
  5
1CB
  8
0
 62
     7
 10
82.215500000000006
 20
144.28899999999999
 30
0.0
 11
80.003900000000016
 21
143.697
 31
0.0
  0
LINE
  5
1CC
  8
0
 62
     7
 10
80.003900000000016
 20
143.697
 30
0.0
 11
82.215500000000006
 21
143.1039999999999
 31
0.0
  0
LINE
  5
1CD
  8
0
 62
     7
 10
82.215500000000006
 20
143.1039999999999
 30
0.0
 11
82.215500000000006
 21
144.28899999999999
 31
0.0
  0
LINE
  5
1CE
  8
0
 62
     7
 10
77.615600000000001
 20
151.44
 30
0.0
 11
75.403999999999996
 21
150.84700000000001
 31
0.0
  0
LINE
  5
1CF
  8
0
 62
     7
 10
75.403999999999996
 20
150.84700000000001
 30
0.0
 11
77.615600000000001
 21
150.255
 31
0.0
  0
LINE
  5
1D0
  8
0
 62
     7
 10
77.615600000000001
 20
150.255
 30
0.0
 11
77.615600000000001
 21
151.44
 31
0.0
  0
LINE
  5
1D1
  8
0
 62
     7
 10
53.13369999999999
 20
150.255
 30
0.0
 11
55.345300000000002
 21
150.84700000000001
 31
0.0
  0
LINE
  5
1D2
  8
0
 62
     7
 10
55.345300000000002
 20
150.84700000000001
 30
0.0
 11
53.13369999999999
 21
151.44
 31
0.0
  0
LINE
  5
1D3
  8
0
 62
     7
 10
53.13369999999999
 20
151.44
 30
0.0
 11
53.13369999999999
 21
150.255
 31
0.0
  0
LINE
  5
1D4
  8
0
 62
     7
 10
57.556899999999999
 20
151.44
 30
0.0
 11
55.345300000000002
 21
150.84700000000001
 31
0.0
  0
LINE
  5
1D5
  8
0
 62
     7
 10
55.345300000000002
 20
150.84700000000001
 30
0.0
 11
57.556899999999999
 21
150.255
 31
0.0
  0
LINE
  5
1D6
  8
0
 62
     7
 10
57.556899999999999
 20
150.255
 30
0.0
 11
57.556899999999999
 21
151.44
 31
0.0
  0
LINE
  5
1D7
  8
0
 62
     7
 10
45.9925
 20
164.392
 30
0.0
 11
48.20409999999999
 21
164.98500000000001
 31
0.0
  0
LINE
  5
1D8
  8
0
 62
     7
 10
48.20409999999999
 20
164.98500000000001
 30
0.0
 11
45.9925
 21
165.578
 31
0.0
  0
LINE
  5
1D9
  8
0
 62
     7
 10
45.9925
 20
165.578
 30
0.0
 11
45.9925
 21
164.392
 31
0.0
  0
LINE
  5
1DA
  8
0
 62
     7
 10
53.415700000000001
 20
165.578
 30
0.0
 11
51.20409999999999
 21
164.98500000000001
 31
0.0
  0
LINE
  5
1DB
  8
0
 62
     7
 10
51.20409999999999
 20
164.98500000000001
 30
0.0
 11
53.415700000000001
 21
164.392
 31
0.0
  0
LINE
  5
1DC
  8
0
 62
     7
 10
53.415700000000001
 20
164.392
 30
0.0
 11
53.415700000000001
 21
165.578
 31
0.0
  0
LINE
  5
1DD
  8
0
 62
     7
 10
84.992599999999996
 20
164.392
 30
0.0
 11
87.2042
 21
164.98500000000001
 31
0.0
  0
LINE
  5
1DE
  8
0
 62
     7
 10
87.2042
 20
164.98500000000001
 30
0.0
 11
84.992599999999996
 21
165.578
 31
0.0
  0
LINE
  5
1DF
  8
0
 62
     7
 10
84.992599999999996
 20
165.578
 30
0.0
 11
84.992599999999996
 21
164.392
 31
0.0
  0
LINE
  5
1E0
  8
0
 62
     7
 10
48.20409999999999
 20
165.685
 30
0.0
 11
48.20409999999999
 21
134.9429999999999
 31
0.0
  0
LINE
  5
1E1
  8
0
 62
     7
 10
82.604299999999995
 20
158.4489999999999
 30
0.0
 11
82.604299999999995
 21
134.46299999999991
 31
0.0
  0
LINE
  5
1E2
  8
0
 62
     7
 10
89.415800000000004
 20
158.34200000000001
 30
0.0
 11
87.2042
 21
157.749
 31
0.0
  0
LINE
  5
1E3
  8
0
 62
     7
 10
87.2042
 20
157.749
 30
0.0
 11
89.415800000000004
 21
157.15600000000001
 31
0.0
  0
LINE
  5
1E4
  8
0
 62
     7
 10
89.415800000000004
 20
157.15600000000001
 30
0.0
 11
89.415800000000004
 21
158.34200000000001
 31
0.0
  0
LINE
  5
1E5
  8
0
 62
     7
 10
82.604299999999995
 20
157.749
 30
0.0
 11
90.691000000000003
 21
157.749
 31
0.0
  0
LINE
  5
1E6
  8
0
 62
     7
 10
80.393500000000003
 20
157.1629999999999
 30
0.0
 11
82.605099999999993
 21
157.756
 31
0.0
  0
LINE
  5
1E7
  8
0
 62
     7
 10
82.605099999999993
 20
157.756
 30
0.0
 11
80.393500000000003
 21
158.3479999999999
 31
0.0
  0
LINE
  5
1E8
  8
0
 62
     7
 10
80.393500000000003
 20
158.3479999999999
 30
0.0
 11
80.393500000000003
 21
157.1629999999999
 31
0.0
  0
LINE
  5
1E9
  8
0
 62
     7
 10
50.414799999999993
 20
158.33399999999989
 30
0.0
 11
48.203200000000002
 21
157.74100000000001
 31
0.0
  0
LINE
  5
1EA
  8
0
 62
     7
 10
48.203200000000002
 20
157.74100000000001
 30
0.0
 11
50.414799999999993
 21
157.149
 31
0.0
  0
LINE
  5
1EB
  8
0
 62
     7
 10
50.414799999999993
 20
157.149
 30
0.0
 11
50.414799999999993
 21
158.33399999999989
 31
0.0
  0
LINE
  5
1EC
  8
0
 62
     7
 10
82.604299999999995
 20
157.749
 30
0.0
 11
48.20409999999999
 21
157.749
 31
0.0
  0
LINE
  5
1ED
  8
0
 62
     7
 10
80.393500000000003
 20
150.262
 30
0.0
 11
82.605099999999993
 21
150.8549999999999
 31
0.0
  0
LINE
  5
1EE
  8
0
 62
     7
 10
82.605099999999993
 20
150.8549999999999
 30
0.0
 11
80.393500000000003
 21
151.447
 31
0.0
  0
LINE
  5
1EF
  8
0
 62
     7
 10
80.393500000000003
 20
151.447
 30
0.0
 11
80.393500000000003
 21
150.262
 31
0.0
  0
LINE
  5
1F0
  8
0
 62
     7
 10
50.414799999999993
 20
151.43299999999991
 30
0.0
 11
48.203200000000002
 21
150.83999999999989
 31
0.0
  0
LINE
  5
1F1
  8
0
 62
     7
 10
48.203200000000002
 20
150.83999999999989
 30
0.0
 11
50.414799999999993
 21
150.24799999999999
 31
0.0
  0
LINE
  5
1F2
  8
0
 62
     7
 10
50.414799999999993
 20
150.24799999999999
 30
0.0
 11
50.414799999999993
 21
151.43299999999991
 31
0.0
  0
LINE
  5
1F3
  8
0
 62
     7
 10
82.604299999999995
 20
150.84700000000001
 30
0.0
 11
48.20409999999999
 21
150.84700000000001
 31
0.0
  0
LINE
  5
1F4
  8
0
 62
     7
 10
51.20409999999999
 20
165.685
 30
0.0
 11
51.20409999999999
 21
155.08500000000001
 31
0.0
  0
LINE
  5
1F5
  8
0
 62
     7
 10
51.20409999999999
 20
150.083
 30
0.0
 11
51.20409999999999
 21
134.84
 31
0.0
  0
LINE
  5
1F6
  8
0
 62
     7
 10
87.2042
 20
165.685
 30
0.0
 11
87.2042
 21
134.9429999999999
 31
0.0
  0
LINE
  5
1F7
  8
0
 62
     7
 10
80.003900000000016
 20
144.404
 30
0.0
 11
80.003900000000016
 21
134.11500000000001
 31
0.0
  0
LINE
  5
1F8
  8
0
 62
     7
 10
62.403799999999997
 20
144.404
 30
0.0
 11
62.403799999999997
 21
134.82099999999991
 31
0.0
  0
LINE
  5
1F9
  8
0
 62
     7
 10
55.403999999999989
 20
151.547
 30
0.0
 11
55.403999999999989
 21
130.32799999999989
 31
0.0
  0
LINE
  5
1FA
  8
0
 62
     7
 10
75.403999999999996
 20
151.547
 30
0.0
 11
75.403999999999996
 21
132.2359999999999
 31
0.0
  0
LINE
  5
1FB
  8
0
 62
     7
 10
79.204300000000003
 20
118.08
 30
0.0
 11
79.204300000000003
 21
119.07899999999999
 31
0.0
  0
LINE
  5
1FC
  8
0
 62
     7
 10
84.604200000000006
 20
118.08
 30
0.0
 11
79.204300000000003
 21
118.08
 31
0.0
  0
LINE
  5
1FD
  8
0
 62
     7
 10
84.604200000000006
 20
118.08
 30
0.0
 11
84.604200000000006
 21
119.879
 31
0.0
  0
LINE
  5
1FE
  8
0
  6
AIGENLINE001
 62
     7
 10
81.904200000000003
 20
117.14999999999991
 30
0.0
 11
81.904200000000003
 21
119.9559999999999
 31
0.0
  0
LINE
  5
1FF
  8
0
 62
     7
 10
66.204099999999997
 20
118.08
 30
0.0
 11
66.204099999999997
 21
119.07899999999999
 31
0.0
  0
LINE
  5
200
  8
0
 62
     7
 10
71.603999999999999
 20
118.08
 30
0.0
 11
66.204099999999997
 21
118.08
 31
0.0
  0
LINE
  5
201
  8
0
 62
     7
 10
71.603999999999999
 20
118.08
 30
0.0
 11
71.603999999999999
 21
119.07899999999999
 31
0.0
  0
LINE
  5
202
  8
0
  6
AIGENLINE001
 62
     7
 10
68.9041
 20
117.14999999999991
 30
0.0
 11
68.9041
 21
119.9559999999999
 31
0.0
  0
LINE
  5
203
  8
0
  6
AIGENLINE001
 62
     7
 10
55.403999999999989
 20
122.524
 30
0.0
 11
55.403999999999989
 21
129.6279999999999
 31
0.0
  0
LINE
  5
204
  8
0
 62
     7
 10
57.264099999999999
 20
124.0799999999999
 30
0.0
 11
57.264099999999999
 21
124.479
 31
0.0
  0
LINE
  5
205
  8
0
 62
     7
 10
53.543999999999997
 20
124.0799999999999
 30
0.0
 11
53.543999999999997
 21
124.479
 31
0.0
  0
LINE
  5
206
  8
0
 62
     7
 10
53.543999999999997
 20
124.0799999999999
 30
0.0
 11
57.264099999999999
 21
124.0799999999999
 31
0.0
  0
LINE
  5
207
  8
0
 62
     7
 10
57.90420000000001
 20
128.07900000000001
 30
0.0
 11
57.90420000000001
 21
124.8799999999999
 31
0.0
  0
LINE
  5
208
  8
0
 62
     7
 10
53.304200000000002
 20
124.479
 30
0.0
 11
57.504199999999997
 21
124.479
 31
0.0
  0
ARC
  5
209
  8
0
 62
     7
 10
57.489115000000012
 20
124.8943469999999
 30
0.0
 40
0.415298
 50
272.07817699999993
 51
357.97116199999988
  0
LINE
  5
20A
  8
0
 62
     7
 10
52.904299999999999
 20
128.07900000000001
 30
0.0
 11
52.904299999999999
 21
124.8799999999999
 31
0.0
  0
ARC
  5
20B
  8
0
 62
     7
 10
53.319740000000003
 20
124.89479399999991
 30
0.0
 40
0.415762
 50
182.088234
 51
267.86246699999998
  0
ARC
  5
20C
  8
0
 62
     7
 10
57.488888000000003
 20
128.06418199999999
 30
0.0
 40
0.4155470000000001
 50
2.1082709999999989
 51
87.891718999999995
  0
ARC
  5
20D
  8
0
 62
     7
 10
53.319386999999999
 20
128.06431499999991
 30
0.0
 40
0.415409
 50
92.090659000000002
 51
177.90931199999989
  0
LINE
  5
20E
  8
0
 62
     7
 10
58.103999999999999
 20
128.07900000000001
 30
0.0
 11
58.103999999999999
 21
124.696
 31
0.0
  0
ARC
  5
20F
  8
0
 62
     7
 10
57.696502000000002
 20
124.70005500000001
 30
0.0
 40
0.4074920000000001
 50
300.63613900000001
 51
359.384139
  0
LINE
  5
210
  8
0
 62
     7
 10
52.704099999999997
 20
128.07900000000001
 30
0.0
 11
52.704099999999997
 21
124.696
 31
0.0
  0
ARC
  5
211
  8
0
 62
     7
 10
53.111966000000002
 20
124.7002889999999
 30
0.0
 40
0.407899
 50
180.6481069999999
 51
239.3316549999999
  0
ARC
  5
212
  8
0
 62
     7
 10
55.404204000000007
 20
128.79622599999999
 30
0.0
 40
5.1016379999999986
 50
240.65754100000001
 51
299.34247900000003
  0
LINE
  5
213
  8
0
 62
     7
 10
53.104100000000003
 20
128.4789999999999
 30
0.0
 11
57.703999999999994
 21
128.4789999999999
 31
0.0
  0
ARC
  5
214
  8
0
 62
     7
 10
57.688836999999992
 20
128.064314
 30
0.0
 40
0.415409
 50
2.0906859999999998
 51
87.909304000000006
  0
ARC
  5
215
  8
0
 62
     7
 10
53.119250999999991
 20
128.06428899999989
 30
0.0
 40
0.4154350000000001
 50
92.094017000000022
 51
177.90595300000001
  0
LINE
  5
216
  8
0
 62
     7
 10
86.404200000000003
 20
121.8799999999999
 30
0.0
 11
87.2042
 21
121.8799999999999
 31
0.0
  0
LINE
  5
217
  8
0
 62
     7
 10
85.204300000000003
 20
120.679
 30
0.0
 11
85.204300000000003
 21
119.879
 31
0.0
  0
LINE
  5
218
  8
0
 62
     7
 10
53.203999999999994
 20
135.28
 30
0.0
 11
53.203999999999994
 21
134.4789999999999
 31
0.0
  0
LINE
  5
219
  8
0
 62
     7
 10
85.204300000000003
 20
135.28
 30
0.0
 11
85.204300000000003
 21
134.4789999999999
 31
0.0
  0
LINE
  5
21A
  8
0
 62
     7
 10
86.404200000000003
 20
133.27999999999989
 30
0.0
 11
87.2042
 21
133.27999999999989
 31
0.0
  0
LINE
  5
21B
  8
0
 62
     7
 10
85.204300000000003
 20
134.4789999999999
 30
0.0
 11
53.203999999999994
 21
134.4789999999999
 31
0.0
  0
ARC
  5
21C
  8
0
 62
     7
 10
53.218128
 20
133.25483799999989
 30
0.0
 40
1.2247069999999991
 50
90.661906000000002
 51
149.24867
  0
LINE
  5
21D
  8
0
 62
     7
 10
85.204300000000003
 20
120.679
 30
0.0
 11
82.604299999999995
 21
120.679
 31
0.0
  0
LINE
  5
21E
  8
0
 62
     7
 10
86.404200000000003
 20
121.8799999999999
 30
0.0
 11
86.404200000000003
 21
133.27999999999989
 31
0.0
  0
ARC
  5
21F
  8
0
 62
     7
 10
85.158387000000005
 20
121.92518699999999
 30
0.0
 40
1.2466749999999991
 50
272.11039499999998
 51
357.90606200000002
  0
ARC
  5
220
  8
0
 62
     7
 10
85.158411000000015
 20
133.23364499999991
 30
0.0
 40
1.246662999999999
 50
2.1092859999999991
 51
87.890703999999985
  0
LINE
  5
221
  8
0
 62
     7
 10
85.204300000000003
 20
119.879
 30
0.0
 11
82.604299999999995
 21
119.879
 31
0.0
  0
LINE
  5
222
  8
0
 62
     7
 10
87.2042
 20
121.8799999999999
 30
0.0
 11
87.2042
 21
133.27999999999989
 31
0.0
  0
ARC
  5
223
  8
0
 62
     7
 10
85.204122999999996
 20
121.8794639999999
 30
0.0
 40
2.000062999999999
 50
270.004954
 51
0.004925
  0
LINE
  5
224
  8
0
 62
     7
 10
85.204300000000003
 20
135.28
 30
0.0
 11
53.203999999999994
 21
135.28
 31
0.0
  0
ARC
  5
225
  8
0
 62
     7
 10
53.245423000000002
 20
133.22362200000001
 30
0.0
 40
2.0565599999999988
 50
91.154691999999969
 51
161.478396
  0
ARC
  5
226
  8
0
 62
     7
 10
85.204122999999996
 20
133.2797009999999
 30
0.0
 40
2.000062999999999
 50
359.99507499999999
 51
89.995045999999988
  0
LINE
  5
227
  8
0
 62
     7
 10
74.404200000000003
 20
119.07899999999999
 30
0.0
 11
48.604100000000003
 21
119.07899999999999
 31
0.0
  0
LINE
  5
228
  8
0
 62
     7
 10
82.204300000000003
 20
119.07899999999999
 30
0.0
 11
76.4041
 21
119.07899999999999
 31
0.0
  0
LINE
  5
229
  8
0
 62
     7
 10
82.604299999999995
 20
119.479
 30
0.0
 11
82.604299999999995
 21
133.4789999999999
 31
0.0
  0
ARC
  5
22A
  8
0
 62
     7
 10
82.189251999999996
 20
119.49445799999999
 30
0.0
 40
0.415286
 50
272.07486399999999
 51
357.92514599999998
  0
LINE
  5
22B
  8
0
 62
     7
 10
82.204300000000003
 20
133.87999999999991
 30
0.0
 11
48.604100000000003
 21
133.87999999999991
 31
0.0
  0
ARC
  5
22C
  8
0
 62
     7
 10
82.188647000000003
 20
133.46406399999989
 30
0.0
 40
0.415899
 50
2.10582
 51
87.844841000000002
  0
LINE
  5
22D
  8
0
 62
     7
 10
48.20409999999999
 20
119.479
 30
0.0
 11
48.20409999999999
 21
133.4789999999999
 31
0.0
  0
ARC
  5
22E
  8
0
 62
     7
 10
48.619238000000003
 20
133.46452400000001
 30
0.0
 40
0.4154220000000001
 50
92.093960999999993
 51
177.9553389999999
  0
ARC
  5
22F
  8
0
 62
     7
 10
48.619234000000013
 20
119.4945979999999
 30
0.0
 40
0.41543
 50
182.09337400000001
 51
267.90665499999989
  0
LINE
  5
230
  8
0
  6
AIGENLINE001
 62
     7
 10
75.403999999999996
 20
109.95099999999999
 30
0.0
 11
75.403999999999996
 21
131.536
 31
0.0
  0
LINE
  5
231
  8
0
  6
AIGENLINE001
 62
     7
 10
83.760099999999994
 20
126.48
 30
0.0
 11
47.047899999999998
 21
126.48
 31
0.0
  0
LINE
  5
232
  8
0
 62
     7
 10
76.4041
 20
122.2029999999999
 30
0.0
 11
76.4041
 21
111.2789999999999
 31
0.0
  0
LINE
  5
233
  8
0
 62
     7
 10
74.603999999999985
 20
111.07899999999989
 30
0.0
 11
76.204300000000003
 21
111.07899999999989
 31
0.0
  0
ARC
  5
234
  8
0
 62
     7
 10
76.19659399999999
 20
111.286674
 30
0.0
 40
0.207623
 50
272.11906800000003
 51
357.97964200000001
  0
LINE
  5
235
  8
0
 62
     7
 10
74.404200000000003
 20
122.2029999999999
 30
0.0
 11
74.404200000000003
 21
111.2789999999999
 31
0.0
  0
ARC
  5
236
  8
0
 62
     7
 10
74.611886999999996
 20
111.2868689999999
 30
0.0
 40
0.207825
 50
182.0721659999999
 51
267.82916299999988
  0
LINE
  5
237
  8
0
 62
     7
 10
74.603999999999985
 20
111.2789999999999
 30
0.0
 11
76.204300000000003
 21
111.2789999999999
 31
0.0
  0
LINE
  5
238
  8
0
 62
     7
 10
76.204300000000003
 20
122.2029999999999
 30
0.0
 11
76.204300000000003
 21
111.2789999999999
 31
0.0
  0
ARC
  5
239
  8
0
 62
     7
 10
76.82174599999999
 20
122.190386
 30
0.0
 40
0.6175990000000001
 50
109.293584
 51
178.84937899999991
  0
LINE
  5
23A
  8
0
 62
     7
 10
74.603999999999985
 20
122.2029999999999
 30
0.0
 11
74.603999999999985
 21
111.2789999999999
 31
0.0
  0
ARC
  5
23B
  8
0
 62
     7
 10
73.987044999999995
 20
122.190752
 30
0.0
 40
0.6170869999999999
 50
1.1175959999999989
 51
70.739401000000001
  0
ARC
  5
23C
  8
0
 62
     7
 10
76.815114000000008
 20
122.194849
 30
0.0
 40
0.411103
 50
109.181442
 51
178.8934919999999
  0
ARC
  5
23D
  8
0
 62
     7
 10
73.993197999999992
 20
122.194869
 30
0.0
 40
0.4110750000000001
 50
1.1038250000000001
 51
70.821202
  0
ARC
  5
23E
  8
0
 62
     7
 10
75.298004000000006
 20
126.55667099999989
 30
0.0
 40
4.0069259999999991
 50
289.22934299999997
 51
358.89726400000001
  0
ARC
  5
23F
  8
0
 62
     7
 10
75.404141999999993
 20
126.479384
 30
0.0
 40
3.9000460000000001
 50
0.002541
 51
90.002510999999984
  0
ARC
  5
240
  8
0
 62
     7
 10
75.403970999999984
 20
126.479556
 30
0.0
 40
3.8998729999999999
 50
90.0
 51
179.99996999999991
  0
ARC
  5
241
  8
0
 62
     7
 10
75.511209999999991
 20
126.557344
 30
0.0
 40
4.0078670000000001
 50
181.11211900000001
 51
250.761314
  0
ARC
  5
242
  8
0
 62
     7
 10
75.291626000000008
 20
126.561323
 30
0.0
 40
4.2135169999999986
 50
289.23933999999991
 51
358.88806699999992
  0
ARC
  5
243
  8
0
 62
     7
 10
75.404141999999993
 20
126.479384
 30
0.0
 40
4.1002070000000002
 50
0.002417
 51
90.002386999999999
  0
ARC
  5
244
  8
0
 62
     7
 10
75.403970999999984
 20
126.479556
 30
0.0
 40
4.1000350000000001
 50
90.0
 51
179.99996999999991
  0
ARC
  5
245
  8
0
 62
     7
 10
75.516749000000004
 20
126.561387
 30
0.0
 40
4.2136069999999988
 50
181.11280400000001
 51
250.759829
  0
LINE
  5
246
  8
0
 62
     7
 10
43.872500000000002
 20
164.98500000000001
 30
0.0
 11
87.2042
 21
164.98500000000001
 31
0.0
  0
LINE
  5
247
  8
_________2
 62
     7
 10
129.946
 20
280.42999999999989
 30
0.0
 11
129.946
 21
259.43000000000001
 31
0.0
  0
LINE
  5
248
  8
_________2
 62
     7
 10
155.96700000000001
 20
280.42999999999989
 30
0.0
 11
155.96700000000001
 21
259.43000000000001
 31
0.0
  0
LINE
  5
249
  8
_________2
 62
     7
 10
162.5929999999999
 20
280.42999999999989
 30
0.0
 11
162.5929999999999
 21
259.43000000000001
 31
0.0
  0
TEXT
  5
24A
  8
_________2
 62
     7
 10
158.9878783333333
 20
261.5809999999999
 30
0.0
 40
3.3734599999999988
  1
1
 41
0.5
 72
     1
 11
159.26900000000001
 21
261.5809999999999
 31
0.0
  0
TEXT
  5
24B
  8
_________2
 62
     7
 10
158.9878783333333
 20
268.5809999999999
 30
0.0
 40
3.3734599999999988
  1
1
 41
0.5
 72
     1
 11
159.26900000000001
 21
268.5809999999999
 31
0.0
  0
TEXT
  5
24C
  8
_________2
 62
     7
 10
158.48185933333329
 20
275.5809999999999
 30
0.0
 40
3.3734599999999988
  1
数
 41
0.5
 72
     1
 11
159.26900000000001
 21
275.5809999999999
 31
0.0
  0
TEXT
  5
24D
  8
_________2
 62
     7
 10
172.63278333333329
 20
261.5809999999999
 30
0.0
 40
3.3734599999999988
  1
埋込部
 41
0.5
 72
     1
 11
175.44399999999999
 21
261.5809999999999
 31
0.0
  0
TEXT
  5
24E
  8
_________2
 62
     7
 10
165.43606866666661
 20
268.5809999999999
 30
0.0
 40
3.3734599999999988
  1
スパウト・ハンドル部
 41
0.5
 72
     1
 11
175.44399999999999
 21
268.5809999999999
 31
0.0
  0
TEXT
  5
24F
  8
_________2
 62
     7
 10
173.64482133333331
 20
275.5809999999999
 30
0.0
 40
3.3734599999999988
  1
名称
 41
0.5
 72
     1
 11
175.44399999999999
 21
275.5809999999999
 31
0.0
  0
TEXT
  5
250
  8
_________2
 62
     7
 10
135.76995833333331
 20
261.5809999999999
 30
0.0
 40
3.3734599999999988
  1
KW9193400
 41
0.5
 72
     1
 11
142.79799999999989
 21
261.5809999999999
 31
0.0
  0
TEXT
  5
251
  8
_________2
 62
     7
 10
135.0671541666666
 20
268.5809999999999
 30
0.0
 40
3.3734599999999988
  1
KW1192033R
 41
0.5
 72
     1
 11
142.79799999999989
 21
268.5809999999999
 31
0.0
  0
TEXT
  5
252
  8
_________2
 62
     7
 10
140.9988213333333
 20
275.5809999999999
 30
0.0
 40
3.3734599999999988
  1
品番
 41
0.5
 72
     1
 11
142.79799999999989
 21
275.5809999999999
 31
0.0
  0
LINE
  5
253
  8
_________2
 62
     7
 10
129.946
 20
259.43000000000001
 30
0.0
 11
188.49000000000001
 21
259.43000000000001
 31
0.0
  0
LINE
  5
254
  8
_________2
 62
     7
 10
129.946
 20
266.43000000000001
 30
0.0
 11
188.49000000000001
 21
266.43000000000001
 31
0.0
  0
LINE
  5
255
  8
_________2
 62
     7
 10
129.946
 20
273.43000000000001
 30
0.0
 11
188.49000000000001
 21
273.43000000000001
 31
0.0
  0
LINE
  5
256
  8
_________2
 62
     7
 10
210.24000000000001
 20
148.93100000000001
 30
0.0
 11
188.49000000000001
 21
148.93100000000001
 31
0.0
  0
LINE
  5
257
  8
_________2
 62
     7
 10
105.2389999999999
 20
17.428499999999989
 30
0.0
 11
105.2389999999999
 21
0.4482100000000001
 31
0.0
  0
LINE
  5
258
  8
_________2
 62
     7
 10
105.2389999999999
 20
297.44999999999987
 30
0.0
 11
105.2389999999999
 21
280.42999999999989
 31
0.0
  0
LINE
  5
259
  8
_________2
 62
     7
 10
21.988499999999991
 20
148.93100000000001
 30
0.0
 11
0.238058
 21
148.93100000000001
 31
0.0
  0
LINE
  5
25A
  8
_________2
 62
     7
 10
81.679900000000004
 20
51.324300000000001
 30
0.0
 11
79.493700000000004
 21
51.324300000000001
 31
0.0
  0
LINE
  5
25B
  8
_________2
 62
     7
 10
82.172600000000017
 20
51.324300000000001
 30
0.0
 11
81.920400000000001
 21
51.324300000000001
 31
0.0
  0
LINE
  5
25C
  8
_________2
 62
     7
 10
82.665199999999984
 20
51.324300000000001
 30
0.0
 11
85.590100000000007
 21
51.324300000000001
 31
0.0
  0
LINE
  5
25D
  8
_________2
 62
     7
 10
82.172600000000017
 20
51.324300000000001
 30
0.0
 11
82.424800000000005
 21
51.324300000000001
 31
0.0
  0
LINE
  5
25E
  8
_________2
 62
     7
 10
75.776399999999995
 20
51.324300000000001
 30
0.0
 11
73.589399999999998
 21
51.324300000000001
 31
0.0
  0
LINE
  5
25F
  8
_________2
 62
     7
 10
76.2684
 20
51.324300000000001
 30
0.0
 11
76.016900000000007
 21
51.324300000000001
 31
0.0
  0
LINE
  5
260
  8
_________2
 62
     7
 10
76.2684
 20
51.817
 30
0.0
 11
76.2684
 21
54.003900000000002
 31
0.0
  0
LINE
  5
261
  8
_________2
 62
     7
 10
76.2684
 20
51.324300000000001
 30
0.0
 11
76.2684
 21
51.576500000000003
 31
0.0
  0
LINE
  5
262
  8
_________2
 62
     7
 10
76.76100000000001
 20
51.324300000000001
 30
0.0
 11
78.947999999999993
 21
51.324300000000001
 31
0.0
  0
LINE
  5
263
  8
_________2
 62
     7
 10
76.2684
 20
51.324300000000001
 30
0.0
 11
76.520499999999998
 21
51.324300000000001
 31
0.0
  0
LINE
  5
264
  8
_________2
 62
     7
 10
76.2684
 20
50.832399999999993
 30
0.0
 11
76.2684
 21
48.645400000000002
 31
0.0
  0
LINE
  5
265
  8
_________2
 62
     7
 10
76.2684
 20
51.324300000000001
 30
0.0
 11
76.2684
 21
51.072800000000001
 31
0.0
  0
LINE
  5
266
  8
_________2
 62
     7
 10
79.979399999999984
 20
50.104799999999997
 30
0.0
 11
85.157399999999996
 21
49.240000000000002
 31
0.0
  0
LINE
  5
267
  8
_________2
 62
     7
 10
79.979399999999984
 20
52.543900000000001
 30
0.0
 11
85.157399999999996
 21
53.409300000000002
 31
0.0
  0
LINE
  5
268
  8
_________2
 62
     7
 10
85.157399999999996
 20
49.240000000000002
 30
0.0
 11
85.157399999999996
 21
53.409300000000002
 31
0.0
  0
LINE
  5
269
  8
_________2
 62
     7
 10
79.979399999999984
 20
50.104799999999997
 30
0.0
 11
79.979399999999984
 21
52.543900000000001
 31
0.0
  0
ARC
  5
26A
  8
_________2
 62
     7
 10
76.222110000000001
 20
51.277366999999991
 30
0.0
 40
1.2673709999999989
 50
2.1232950000000002
 51
87.909056000000007
  0
ARC
  5
26B
  8
_________2
 62
     7
 10
76.315273000000005
 20
51.277400999999998
 30
0.0
 40
1.267363
 50
92.121785999999986
 51
177.878185
  0
ARC
  5
26C
  8
_________2
 62
     7
 10
76.315273000000005
 20
51.371245999999992
 30
0.0
 40
1.267363
 50
182.12181499999991
 51
267.87821400000001
  0
ARC
  5
26D
  8
_________2
 62
     7
 10
76.221461000000005
 20
51.371928999999987
 30
0.0
 40
1.2680439999999991
 50
272.11916400000001
 51
357.84848499999993
  0
ARC
  5
26E
  8
_________2
 62
     7
 10
76.268349999999984
 20
51.324323
 30
0.0
 40
2.0849849999999992
 50
0.00001
 51
89.999980000000008
  0
ARC
  5
26F
  8
_________2
 62
     7
 10
76.348388
 20
51.245001999999992
 30
0.0
 40
2.1657860000000002
 50
92.117855000000034
 51
177.90105299999991
  0
ARC
  5
270
  8
_________2
 62
     7
 10
76.348354
 20
51.404327000000002
 30
0.0
 40
2.1657779999999991
 50
182.11700400000001
 51
267.88302499999992
  0
ARC
  5
271
  8
_________2
 62
     7
 10
76.188378999999983
 20
51.405009999999997
 30
0.0
 40
2.1664590000000001
 50
272.11546800000002
 51
357.86560400000002
  0
TEXT
  5
272
  8
_________2
 62
     7
 10
109.5439999999999
 20
23.199100000000001
 30
0.0
 40
3.0923400000000001
  1
図番
 41
0.5
  0
LINE
  5
273
  8
_________2
 62
     7
 10
108.4889999999999
 20
27.4283
 30
0.0
 11
188.49000000000001
 21
27.4283
 31
0.0
  0
TEXT
  5
274
  8
_________2
 62
     7
 10
109.5439999999999
 20
33.198900000000002
 30
0.0
 40
3.0923400000000001
  1
品番
 41
0.5
  0
TEXT
  5
275
  8
_________2
 62
     7
 10
109.5439999999999
 20
53.337699999999998
 30
0.0
 40
3.0923400000000001
  1
名称
 41
0.5
  0
TEXT
  5
276
  8
_________2
 62
     7
 10
96.784058333333334
 20
48.341500000000011
 30
0.0
 40
3.6545800000000002
  1
mm
 41
0.5
 72
     1
 11
98.306799999999996
 21
48.341500000000011
 31
0.0
  0
TEXT
  5
277
  8
_________2
 62
     7
 10
90.582099999999997
 20
53.337699999999998
 30
0.0
 40
3.0923400000000001
  1
単位
 41
0.5
  0
TEXT
  5
278
  8
_________2
 62
     7
 10
90.582099999999997
 20
40.930399999999999
 30
0.0
 40
3.0923400000000001
  1
尺度
 41
0.5
  0
TEXT
  5
279
  8
_________2
 62
     7
 10
95.487658666666675
 20
34.73749999999999
 30
0.0
 40
3.6545800000000002
  1
1 ： 5
 41
0.5
 72
     1
 11
98.898600000000002
 21
34.73749999999999
 31
0.0
  0
TEXT
  5
27A
  8
_________2
 62
     7
 10
129.76162749999989
 20
30.627400000000002
 30
0.0
 40
3.9357000000000002
  1
KW1192033R＋KW9193400
 41
0.5
 72
     1
 11
148.489
 21
30.627400000000002
 31
0.0
  0
TEXT
  5
27B
  8
_________2
 62
     7
 10
138.48576249999991
 20
20.626999999999988
 30
0.0
 40
3.9357000000000002
  1
KW1192033RC
 41
0.5
 72
     1
 11
148.489
 21
20.626999999999988
 31
0.0
  0
TEXT
  5
27C
  8
_________2
 62
     7
 10
29.525700000000001
 20
22.226900000000001
 30
0.0
 40
3.9357000000000002
  1
（社）日本水道協会認証品
 41
0.5
  0
TEXT
  5
27D
  8
_________2
 62
     7
 10
28.252400000000002
 20
61.387500000000003
 30
0.0
 40
4.2168199999999993
  1
※メンテナンスのため配管途中に、止水栓の設置をおすすめします。
 41
0.5
  0
TEXT
  5
27E
  8
_________2
 62
     7
 10
114.11799999999999
 20
45.7453
 30
0.0
 40
3.9357000000000002
  1
湯水混合栓（壁埋込式）
 41
0.5
  0
TEXT
  5
27F
  8
_________2
 62
     7
 10
44.364200333333329
 20
35.122599999999991
 30
0.0
 40
3.6545800000000002
  1
早川
 41
0.5
 72
     1
 11
46.252400000000002
 21
35.122599999999991
 31
0.0
  0
TEXT
  5
280
  8
_________2
 62
     7
 10
25.72929066666666
 20
35.122599999999991
 30
0.0
 40
3.6545800000000002
  1
石原
 41
0.5
 72
     1
 11
27.6784
 21
35.122599999999991
 31
0.0
  0
TEXT
  5
281
  8
_________2
 62
     7
 10
72.724699999999999
 20
34.73749999999999
 30
0.0
 40
3.6545800000000002
  1
15.01.29
 41
0.5
  0
TEXT
  5
282
  8
_________2
 62
     7
 10
71.531999999999996
 20
40.930399999999999
 30
0.0
 40
3.0923400000000001
  1
日付
 41
0.5
  0
TEXT
  5
283
  8
_________2
 62
     7
 10
34.578299999999992
 20
40.930399999999999
 30
0.0
 40
3.0923400000000001
  1
検図
 41
0.5
  0
TEXT
  5
284
  8
_________2
 62
     7
 10
22.960000000000001
 20
26.730999999999991
 30
0.0
 40
3.0923400000000001
  1
備考
 41
0.5
  0
TEXT
  5
285
  8
_________2
 62
     7
 10
22.960000000000001
 20
40.930399999999999
 30
0.0
 40
3.0923400000000001
  1
製図
 41
0.5
  0
TEXT
  5
286
  8
_________2
 62
     7
 10
28.727365333333339
 20
49.456400000000002
 30
0.0
 40
4.4979399999999989
  1
セラトレーディング株式会社
 41
0.5
 72
     1
 11
46.119399999999992
 21
49.456400000000002
 31
0.0
  0
LINE
  5
287
  8
_________2
 62
     7
 10
188.49000000000001
 20
17.428499999999989
 30
0.0
 11
21.988499999999991
 21
17.428499999999989
 31
0.0
  0
LINE
  5
288
  8
_________2
 62
     7
 10
21.988499999999991
 20
17.428499999999989
 30
0.0
 11
21.988499999999991
 21
280.42999999999989
 31
0.0
  0
LINE
  5
289
  8
_________2
 62
     7
 10
21.988499999999991
 20
280.42999999999989
 30
0.0
 11
188.49000000000001
 21
280.42999999999989
 31
0.0
  0
LINE
  5
28A
  8
_________2
 62
     7
 10
188.49000000000001
 20
280.42999999999989
 30
0.0
 11
188.49000000000001
 21
17.428499999999989
 31
0.0
  0
LINE
  5
28B
  8
_________2
 62
     7
 10
70.488799999999998
 20
30.9285
 30
0.0
 11
70.488799999999998
 21
57.428400000000011
 31
0.0
  0
LINE
  5
28C
  8
_________2
 62
     7
 10
89.488600000000005
 20
30.9285
 30
0.0
 11
89.488600000000005
 21
57.428400000000011
 31
0.0
  0
LINE
  5
28D
  8
_________2
 62
     7
 10
108.4889999999999
 20
17.428499999999989
 30
0.0
 11
108.4889999999999
 21
57.428400000000011
 31
0.0
  0
LINE
  5
28E
  8
_________2
 62
     7
 10
33.488300000000002
 20
30.9285
 30
0.0
 11
33.488300000000002
 21
44.928800000000003
 31
0.0
  0
LINE
  5
28F
  8
_________2
 62
     7
 10
21.988499999999991
 20
30.9285
 30
0.0
 11
108.4889999999999
 21
30.9285
 31
0.0
  0
LINE
  5
290
  8
_________2
 62
     7
 10
21.988499999999991
 20
44.928800000000003
 30
0.0
 11
108.4889999999999
 21
44.928800000000003
 31
0.0
  0
LINE
  5
291
  8
_________2
 62
     7
 10
108.4889999999999
 20
37.428100000000001
 30
0.0
 11
188.49000000000001
 21
37.428100000000001
 31
0.0
  0
LINE
  5
292
  8
_________2
 62
     7
 10
21.988499999999991
 20
57.428400000000011
 30
0.0
 11
188.49000000000001
 21
57.428400000000011
 31
0.0
  0
ENDSEC
  0
EOF
