  0
SECTION
  2
HEADER
  9
$ACADVER
  1
AC1009
  9
$INSBASE
 10
0.0
 20
0.0
 30
0.0
  9
$EXTMIN
 10
-104.794
 20
0.176045
 30
0.0
  9
$EXTMAX
 10
315.209
 20
297.178
 30
0.0
  9
$LIMMIN
 10
0.0
 20
0.0
  9
$LIMMAX
 10
12.0
 20
9.0
  9
$ORTHOMODE
 70
     0
  9
$REGENMODE
 70
     1
  9
$FILLMODE
 70
     1
  9
$QTEXTMODE
 70
     0
  9
$MIRRTEXT
 70
     1
  9
$DRAGMODE
 70
     2
  9
$LTSCALE
 40
1.0
  9
$OSMODE
 70
    37
  9
$ATTMODE
 70
     1
  9
$TEXTSIZE
 40
0.0
  9
$TRACEWID
 40
0.05
  9
$TEXTSTYLE
  7
STANDARD
  9
$CLAYER
  8
0
  9
$CELTYPE
  6
CONTINUOUS
  9
$CECOLOR
 62
   256
  9
$DIMSCALE
 40
1.0
  9
$DIMASZ
 40
0.18
  9
$DIMEXO
 40
0.0625
  9
$DIMDLI
 40
0.38
  9
$DIMRND
 40
0.0
  9
$DIMDLE
 40
0.0
  9
$DIMEXE
 40
0.18
  9
$DIMTP
 40
0.0
  9
$DIMTM
 40
0.0
  9
$DIMTXT
 40
0.18
  9
$DIMCEN
 40
0.09
  9
$DIMTSZ
 40
0.0
  9
$DIMTOL
 70
     0
  9
$DIMLIM
 70
     0
  9
$DIMTIH
 70
     1
  9
$DIMTOH
 70
     1
  9
$DIMSE1
 70
     0
  9
$DIMSE2
 70
     0
  9
$DIMTAD
 70
     0
  9
$DIMZIN
 70
     0
  9
$DIMBLK
  1

  9
$DIMASO
 70
     1
  9
$DIMSHO
 70
     1
  9
$DIMPOST
  1

  9
$DIMAPOST
  1

  9
$DIMALT
 70
     0
  9
$DIMALTD
 70
     2
  9
$DIMALTF
 40
25.399999999999999
  9
$DIMLFAC
 40
1.0
  9
$DIMTOFL
 70
     0
  9
$DIMTVP
 40
0.0
  9
$DIMTIX
 70
     0
  9
$DIMSOXD
 70
     0
  9
$DIMSAH
 70
     0
  9
$DIMBLK1
  1

  9
$DIMBLK2
  1

  9
$DIMSTYLE
  2
STANDARD
  9
$DIMCLRD
 70
     0
  9
$DIMCLRE
 70
     0
  9
$DIMCLRT
 70
     0
  9
$DIMTFAC
 40
1.0
  9
$DIMGAP
 40
0.09
  9
$LUNITS
 70
     2
  9
$LUPREC
 70
     4
  9
$SKETCHINC
 40
0.1
  9
$FILLETRAD
 40
0.0
  9
$AUNITS
 70
     0
  9
$AUPREC
 70
     0
  9
$MENU
  1
.
  9
$ELEVATION
 40
0.0
  9
$PELEVATION
 40
0.0
  9
$THICKNESS
 40
0.0
  9
$LIMCHECK
 70
     0
  9
$BLIPMODE
 70
     0
  9
$CHAMFERA
 40
0.0
  9
$CHAMFERB
 40
0.0
  9
$SKPOLY
 70
     0
  9
$TDCREATE
 40
2444972.375
  9
$TDUPDATE
 40
2458789.2521919911
  9
$TDINDWG
 40
0.0000496181
  9
$TDUSRTIMER
 40
0.0000496181
  9
$USRTIMER
 70
     1
  9
$ANGBASE
 50
0.0
  9
$ANGDIR
 70
     0
  9
$PDMODE
 70
     0
  9
$PDSIZE
 40
0.0
  9
$PLINEWID
 40
0.0
  9
$COORDS
 70
     1
  9
$SPLFRAME
 70
     0
  9
$SPLINETYPE
 70
     6
  9
$SPLINESEGS
 70
     8
  9
$ATTDIA
 70
     1
  9
$ATTREQ
 70
     1
  9
$HANDLING
 70
     1
  9
$HANDSEED
  5
3C0
  9
$SURFTAB1
 70
     6
  9
$SURFTAB2
 70
     6
  9
$SURFTYPE
 70
     6
  9
$SURFU
 70
     6
  9
$SURFV
 70
     6
  9
$UCSNAME
  2

  9
$UCSORG
 10
0.0
 20
0.0
 30
0.0
  9
$UCSXDIR
 10
1.0
 20
0.0
 30
0.0
  9
$UCSYDIR
 10
0.0
 20
1.0
 30
0.0
  9
$PUCSNAME
  2

  9
$PUCSORG
 10
0.0
 20
0.0
 30
0.0
  9
$PUCSXDIR
 10
1.0
 20
0.0
 30
0.0
  9
$PUCSYDIR
 10
0.0
 20
1.0
 30
0.0
  9
$USERI1
 70
     0
  9
$USERI2
 70
     0
  9
$USERI3
 70
     0
  9
$USERI4
 70
     0
  9
$USERI5
 70
     0
  9
$USERR1
 40
0.0
  9
$USERR2
 40
0.0
  9
$USERR3
 40
0.0
  9
$USERR4
 40
0.0
  9
$USERR5
 40
0.0
  9
$WORLDVIEW
 70
     1
  9
$SHADEDGE
 70
     3
  9
$SHADEDIF
 70
    70
  9
$TILEMODE
 70
     1
  9
$MAXACTVP
 70
    48
  9
$PLIMCHECK
 70
     0
  9
$PEXTMIN
 10
1.0000000000000000E+020
 20
1.0000000000000000E+020
 30
1.0000000000000000E+020
  9
$PEXTMAX
 10
-1.0000000000000000E+020
 20
-1.0000000000000000E+020
 30
-1.0000000000000000E+020
  9
$PLIMMIN
 10
0.0
 20
0.0
  9
$PLIMMAX
 10
12.0
 20
9.0
  9
$UNITMODE
 70
     0
  9
$VISRETAIN
 70
     1
  9
$PLINEGEN
 70
     0
  9
$PSLTSCALE
 70
     1
  0
ENDSEC
  0
SECTION
  2
TABLES
  0
TABLE
  2
VPORT
 70
     1
  0
VPORT
  2
*ACTIVE
 70
     0
 10
0.0
 20
0.0
 11
1.0
 21
1.0
 12
195.84271114783351
 22
148.589
 13
0.0
 23
0.0
 14
1.0
 24
1.0
 15
0.0
 25
0.0
 16
0.0
 26
0.0
 36
1.0
 17
0.0
 27
0.0
 37
0.0
 40
281.11539623648741
 41
2.298642533936651
 42
50.0
 43
0.0
 44
0.0
 50
0.0
 51
0.0
 71
     0
 72
   100
 73
     1
 74
     1
 75
     0
 76
     0
 77
     0
 78
     0
  0
ENDTAB
  0
TABLE
  2
LTYPE
 70
     4
  0
LTYPE
  2
CONTINUOUS
 70
     0
  3
Solid line
 72
    65
 73
     0
 40
0.0
  0
LTYPE
  2
AIGENLINE001
 70
     0
  3
generate AI->DXF Converter
 72
    65
 73
     4
 40
5.8561449999999988
 49
3.5278
 49
-0.776115
 49
0.776115
 49
-0.776115
  0
LTYPE
  2
AIGENLINE002
 70
     0
  3
generate AI->DXF Converter
 72
    65
 73
     6
 40
7.4083750000000004
 49
3.5278
 49
-0.776115
 49
0.776115
 49
-0.776115
 49
0.776115
 49
-0.776115
  0
LTYPE
  2
AIGENLINE003
 70
     0
  3
generate AI->DXF Converter
 72
    65
 73
     2
 40
1.5522299999999991
 49
0.776115
 49
-0.776115
  0
ENDTAB
  0
TABLE
  2
LAYER
 70
     4
  0
LAYER
  2
0
 70
     0
 62
     7
  6
CONTINUOUS
  0
LAYER
  2
____
 70
     0
 62
     7
  6
CONTINUOUS
  0
LAYER
  2
_________1
 70
     0
 62
     7
  6
CONTINUOUS
  0
LAYER
  2
_________2
 70
     0
 62
     7
  6
CONTINUOUS
  0
ENDTAB
  0
TABLE
  2
STYLE
 70
     1
  0
STYLE
  2
STANDARD
 70
     0
 40
0.0
 41
0.0
 50
0.0
 71
     0
 42
0.0
  3
TXT
  4
EXTFONT.SHX
  0
ENDTAB
  0
TABLE
  2
VIEW
 70
     0
  0
ENDTAB
  0
TABLE
  2
UCS
 70
     0
  0
ENDTAB
  0
TABLE
  2
APPID
 70
     3
  0
APPID
  2
ACAD
 70
     0
  0
APPID
  2
ACAD_NAV_VCDISPLAY
 70
     0
  0
APPID
  2
ACAD_MLEADERVER
 70
     0
  0
ENDTAB
  0
TABLE
  2
DIMSTYLE
 70
     1
  0
DIMSTYLE
  2
STANDARD
 70
     0
  3

  4

  5

  6

  7

 40
1.0
 41
0.18
 42
0.0625
 43
0.38
 44
0.18
 45
0.0
 46
0.0
 47
0.0
 48
0.0
140
0.18
141
0.09
142
0.0
143
25.399999999999999
144
1.0
145
0.0
146
1.0
147
0.09
 71
     0
 72
     0
 73
     1
 74
     1
 75
     0
 76
     0
 77
     0
 78
     0
170
     0
171
     2
172
     0
173
     0
174
     0
175
     0
176
     0
177
     0
178
     0
  0
ENDTAB
  0
ENDSEC
  0
SECTION
  2
BLOCKS
  0
BLOCK
  8
0
  2
$MODEL_SPACE
 70
     0
 10
0.0
 20
0.0
 30
0.0
  3
$MODEL_SPACE
  1

  0
ENDBLK
  5
1A
  8
0
  0
BLOCK
 67
     1
  8
0
  2
$PAPER_SPACE
 70
     0
 10
0.0
 20
0.0
 30
0.0
  3
$PAPER_SPACE
  1

  0
ENDBLK
  5
17
 67
     1
  8
0
  0
BLOCK
  8
_________1
  2
AIGNBL02010002
 70
     0
 10
0.0
 20
0.0
 30
0.0
  3
AIGNBL02010002
  1

  0
LINE
  5
28
  8
_________1
 62
     7
 10
69.740899999999996
 20
130.68700000000001
 30
0.0
 11
71.952699999999993
 21
131.279
 31
0.0
  0
LINE
  5
29
  8
_________1
 62
     7
 10
71.952699999999993
 20
131.279
 30
0.0
 11
69.740899999999996
 21
131.87200000000001
 31
0.0
  0
LINE
  5
2A
  8
_________1
 62
     7
 10
69.740899999999996
 20
131.87200000000001
 30
0.0
 11
69.740899999999996
 21
130.68700000000001
 31
0.0
  0
LINE
  5
2B
  8
_________1
 62
     7
 10
77.139600000000002
 20
130.679
 30
0.0
 11
79.351399999999998
 21
131.27199999999999
 31
0.0
  0
LINE
  5
2C
  8
_________1
 62
     7
 10
79.351399999999998
 20
131.27199999999999
 30
0.0
 11
77.139600000000002
 21
131.86500000000001
 31
0.0
  0
LINE
  5
2D
  8
_________1
 62
     7
 10
77.139600000000002
 20
131.86500000000001
 30
0.0
 11
77.139600000000002
 21
130.679
 31
0.0
  0
LINE
  5
2E
  8
_________1
 62
     7
 10
86.752499999999998
 20
131.279
 30
0.0
 11
60.752600000000001
 21
131.279
 31
0.0
  0
ENDBLK
  5
2F
  8
_________1
  0
BLOCK
  8
_________1
  2
AIGNBL02010003
 70
     0
 10
0.0
 20
0.0
 30
0.0
  3
AIGNBL02010003
  1

  0
LINE
  5
32
  8
_________1
 62
     7
 10
84.541499999999999
 20
130.69399999999999
 30
0.0
 11
86.752499999999998
 21
131.28700000000001
 31
0.0
  0
LINE
  5
33
  8
_________1
 62
     7
 10
86.752499999999998
 20
131.28700000000001
 30
0.0
 11
84.541499999999999
 21
131.87899999999999
 31
0.0
  0
LINE
  5
34
  8
_________1
 62
     7
 10
84.541499999999999
 20
131.87899999999999
 30
0.0
 11
84.541499999999999
 21
130.69399999999999
 31
0.0
  0
LINE
  5
35
  8
_________1
 62
     7
 10
74.163700000000006
 20
131.87899999999999
 30
0.0
 11
71.952699999999993
 21
131.28700000000001
 31
0.0
  0
LINE
  5
36
  8
_________1
 62
     7
 10
71.952699999999993
 20
131.28700000000001
 30
0.0
 11
74.163700000000006
 21
130.69399999999999
 31
0.0
  0
LINE
  5
37
  8
_________1
 62
     7
 10
74.163700000000006
 20
130.69399999999999
 30
0.0
 11
74.163700000000006
 21
131.87899999999999
 31
0.0
  0
LINE
  5
38
  8
_________1
 62
     7
 10
81.5625
 20
131.86500000000001
 30
0.0
 11
79.351399999999998
 21
131.27199999999999
 31
0.0
  0
LINE
  5
39
  8
_________1
 62
     7
 10
79.351399999999998
 20
131.27199999999999
 30
0.0
 11
81.5625
 21
130.679
 31
0.0
  0
LINE
  5
3A
  8
_________1
 62
     7
 10
81.5625
 20
130.679
 30
0.0
 11
81.5625
 21
131.86500000000001
 31
0.0
  0
ENDBLK
  5
3B
  8
_________1
  0
BLOCK
  8
_________1
  2
AIGNBL02010004
 70
     0
 10
0.0
 20
0.0
 30
0.0
  3
AIGNBL02010004
  1

  0
LINE
  5
3E
  8
_________1
 62
     7
 10
103.956
 20
120.196
 30
0.0
 11
103.364
 21
122.407
 31
0.0
  0
LINE
  5
3F
  8
_________1
 62
     7
 10
103.364
 20
122.407
 30
0.0
 11
102.771
 21
120.196
 31
0.0
  0
LINE
  5
40
  8
_________1
 62
     7
 10
102.771
 20
120.196
 30
0.0
 11
103.956
 21
120.196
 31
0.0
  0
LINE
  5
41
  8
_________1
 62
     7
 10
102.785
 20
109.21599999999999
 30
0.0
 11
103.378
 21
107.005
 31
0.0
  0
LINE
  5
42
  8
_________1
 62
     7
 10
103.378
 20
107.005
 30
0.0
 11
103.971
 21
109.21599999999999
 31
0.0
  0
LINE
  5
43
  8
_________1
 62
     7
 10
103.971
 20
109.21599999999999
 30
0.0
 11
102.785
 21
109.21599999999999
 31
0.0
  0
LINE
  5
44
  8
_________1
 62
     7
 10
103.371
 20
122.40600000000001
 30
0.0
 11
103.371
 21
107.006
 31
0.0
  0
ENDBLK
  5
45
  8
_________1
  0
BLOCK
  8
_________1
  2
AIGNBL02010005
 70
     0
 10
0.0
 20
0.0
 30
0.0
  3
AIGNBL02010005
  1

  0
LINE
  5
48
  8
_________1
 62
     7
 10
97.203299999999999
 20
111.395
 30
0.0
 11
96.610699999999994
 21
113.607
 31
0.0
  0
LINE
  5
49
  8
_________1
 62
     7
 10
96.610699999999994
 20
113.607
 30
0.0
 11
96.018199999999993
 21
111.395
 31
0.0
  0
LINE
  5
4A
  8
_________1
 62
     7
 10
96.018199999999993
 20
111.395
 30
0.0
 11
97.203299999999999
 21
111.395
 31
0.0
  0
LINE
  5
4B
  8
_________1
 62
     7
 10
96.032600000000002
 20
107.416
 30
0.0
 11
96.625200000000007
 21
105.205
 31
0.0
  0
LINE
  5
4C
  8
_________1
 62
     7
 10
96.625200000000007
 20
105.205
 30
0.0
 11
97.217799999999997
 21
107.416
 31
0.0
  0
LINE
  5
4D
  8
_________1
 62
     7
 10
97.217799999999997
 20
107.416
 30
0.0
 11
96.032600000000002
 21
107.416
 31
0.0
  0
LINE
  5
4E
  8
_________1
 62
     7
 10
96.617999999999995
 20
113.60599999999999
 30
0.0
 11
96.617999999999995
 21
105.206
 31
0.0
  0
ENDBLK
  5
4F
  8
_________1
  0
BLOCK
  8
_________1
  2
AIGNBL02010006
 70
     0
 10
0.0
 20
0.0
 30
0.0
  3
AIGNBL02010006
  1

  0
LINE
  5
52
  8
_________1
 62
     7
 10
84.540099999999995
 20
80.599900000000005
 30
0.0
 11
86.751800000000003
 21
81.192499999999995
 31
0.0
  0
LINE
  5
53
  8
_________1
 62
     7
 10
86.751800000000003
 20
81.192499999999995
 30
0.0
 11
84.540099999999995
 21
81.784999999999997
 31
0.0
  0
LINE
  5
54
  8
_________1
 62
     7
 10
84.540099999999995
 20
81.784999999999997
 30
0.0
 11
84.540099999999995
 21
80.599900000000005
 31
0.0
  0
LINE
  5
55
  8
_________1
 62
     7
 10
74.162400000000005
 20
81.777799999999999
 30
0.0
 11
71.950599999999994
 21
81.185199999999995
 31
0.0
  0
LINE
  5
56
  8
_________1
 62
     7
 10
71.950599999999994
 20
81.185199999999995
 30
0.0
 11
74.162400000000005
 21
80.592699999999994
 31
0.0
  0
LINE
  5
57
  8
_________1
 62
     7
 10
74.162400000000005
 20
80.592699999999994
 30
0.0
 11
74.162400000000005
 21
81.777799999999999
 31
0.0
  0
LINE
  5
58
  8
_________1
 62
     7
 10
86.751800000000003
 20
81.192499999999995
 30
0.0
 11
71.951599999999999
 21
81.192499999999995
 31
0.0
  0
LINE
  5
59
  8
_________1
 62
     7
 10
81.140100000000004
 20
87.647599999999997
 30
0.0
 11
83.351900000000001
 21
88.240099999999984
 31
0.0
  0
LINE
  5
5A
  8
_________1
 62
     7
 10
83.351900000000001
 20
88.240099999999984
 30
0.0
 11
81.140100000000004
 21
88.832700000000017
 31
0.0
  0
LINE
  5
5B
  8
_________1
 62
     7
 10
81.140100000000004
 20
88.832700000000017
 30
0.0
 11
81.140100000000004
 21
87.647599999999997
 31
0.0
  0
LINE
  5
5C
  8
_________1
 62
     7
 10
88.963599999999985
 20
88.832700000000017
 30
0.0
 11
86.751800000000003
 21
88.240099999999984
 31
0.0
  0
LINE
  5
5D
  8
_________1
 62
     7
 10
86.751800000000003
 20
88.240099999999984
 30
0.0
 11
88.963599999999985
 21
87.647599999999997
 31
0.0
  0
LINE
  5
5E
  8
_________1
 62
     7
 10
88.963599999999985
 20
87.647599999999997
 30
0.0
 11
88.963599999999985
 21
88.832700000000017
 31
0.0
  0
LINE
  5
5F
  8
_________1
 62
     7
 10
74.162400000000005
 20
88.825500000000005
 30
0.0
 11
71.950599999999994
 21
88.232900000000001
 31
0.0
  0
LINE
  5
60
  8
_________1
 62
     7
 10
71.950599999999994
 20
88.232900000000001
 30
0.0
 11
74.162400000000005
 21
87.640299999999996
 31
0.0
  0
LINE
  5
61
  8
_________1
 62
     7
 10
74.162400000000005
 20
87.640299999999996
 30
0.0
 11
74.162400000000005
 21
88.825500000000005
 31
0.0
  0
LINE
  5
62
  8
_________1
 62
     7
 10
92.130700000000004
 20
88.240099999999984
 30
0.0
 11
71.951599999999999
 21
88.240099999999984
 31
0.0
  0
ENDBLK
  5
63
  8
_________1
  0
BLOCK
  8
_________1
  2
AIGNBL02010007
 70
     0
 10
0.0
 20
0.0
 30
0.0
  3
AIGNBL02010007
  1

  0
LINE
  5
66
  8
_________1
 62
     7
 10
39.161999999999999
 20
88.825500000000005
 30
0.0
 11
36.950299999999999
 21
88.232900000000001
 31
0.0
  0
LINE
  5
67
  8
_________1
 62
     7
 10
36.950299999999999
 20
88.232900000000001
 30
0.0
 11
39.161999999999999
 21
87.640299999999996
 31
0.0
  0
LINE
  5
68
  8
_________1
 62
     7
 10
39.161999999999999
 20
87.640299999999996
 30
0.0
 11
39.161999999999999
 21
88.825500000000005
 31
0.0
  0
LINE
  5
69
  8
_________1
 62
     7
 10
69.740899999999996
 20
87.654799999999994
 30
0.0
 11
71.952699999999993
 21
88.247399999999999
 31
0.0
  0
LINE
  5
6A
  8
_________1
 62
     7
 10
71.952699999999993
 20
88.247399999999999
 30
0.0
 11
69.740899999999996
 21
88.8399
 31
0.0
  0
LINE
  5
6B
  8
_________1
 62
     7
 10
69.740899999999996
 20
88.8399
 30
0.0
 11
69.740899999999996
 21
87.654799999999994
 31
0.0
  0
LINE
  5
6C
  8
_________1
 62
     7
 10
36.95130000000001
 20
88.240099999999984
 30
0.0
 11
71.951599999999999
 21
88.240099999999984
 31
0.0
  0
ENDBLK
  5
6D
  8
_________1
  0
BLOCK
  8
_________1
  2
AIGNBL02010008
 70
     0
 10
0.0
 20
0.0
 30
0.0
  3
AIGNBL02010008
  1

  0
LINE
  5
70
  8
_________1
 62
     7
 10
-52.864600000000003
 20
189.05699999999999
 30
0.0
 11
-52.272100000000002
 21
186.84599999999989
 31
0.0
  0
LINE
  5
71
  8
_________1
 62
     7
 10
-52.272100000000002
 20
186.84599999999989
 30
0.0
 11
-51.679499999999997
 21
189.05699999999999
 31
0.0
  0
LINE
  5
72
  8
_________1
 62
     7
 10
-51.679499999999997
 20
189.05699999999999
 30
0.0
 11
-52.864600000000003
 21
189.05699999999999
 31
0.0
  0
LINE
  5
73
  8
_________1
 62
     7
 10
-25.3874
 20
241.471
 30
0.0
 11
-25.931100000000001
 21
239.24700000000001
 31
0.0
  0
LINE
  5
74
  8
_________1
 62
     7
 10
-25.931100000000001
 20
239.24700000000001
 30
0.0
 11
-24.348400000000002
 21
240.90100000000001
 31
0.0
  0
LINE
  5
75
  8
_________1
 62
     7
 10
-24.348400000000002
 20
240.90100000000001
 30
0.0
 11
-25.3874
 21
241.471
 31
0.0
  0
LINE
  5
76
  8
_________1
 62
     7
 10
-20.907
 20
248.423
 30
0.0
 11
-25.937899999999999
 21
239.251
 31
0.0
  0
LINE
  5
77
  8
_________1
 62
     7
 10
-20.907
 20
248.423
 30
0.0
 11
-6.1967299999999996
 21
248.423
 31
0.0
  0
LINE
  5
78
  8
_________1
 62
     7
 10
-31.764299999999999
 20
205.166
 30
0.0
 11
-34.044600000000003
 21
205.37
 31
0.0
  0
LINE
  5
79
  8
_________1
 62
     7
 10
-34.044600000000003
 20
205.37
 30
0.0
 11
-32.172199999999997
 21
204.053
 31
0.0
  0
LINE
  5
7A
  8
_________1
 62
     7
 10
-32.172199999999997
 20
204.053
 30
0.0
 11
-31.764299999999999
 21
205.166
 31
0.0
  0
LINE
  5
7B
  8
_________1
 62
     7
 10
-13.6768
 20
197.91200000000001
 30
0.0
 11
-34.041200000000011
 21
205.37700000000001
 31
0.0
  0
LINE
  5
7C
  8
_________1
 62
     7
 10
-17.674099999999999
 20
211.73599999999999
 30
0.0
 11
-18.936399999999999
 21
213.64599999999999
 31
0.0
  0
LINE
  5
7D
  8
_________1
 62
     7
 10
-18.936399999999999
 20
213.64599999999999
 30
0.0
 11
-18.798300000000001
 21
211.36099999999999
 31
0.0
  0
LINE
  5
7E
  8
_________1
 62
     7
 10
-18.798300000000001
 20
211.36099999999999
 30
0.0
 11
-17.674099999999999
 21
211.73599999999999
 31
0.0
  0
LINE
  5
7F
  8
_________1
 62
     7
 10
-13.6768
 20
197.91200000000001
 30
0.0
 11
-18.929200000000002
 21
213.648
 31
0.0
  0
LINE
  5
80
  8
_________1
 62
     7
 10
-13.6768
 20
197.91200000000001
 30
0.0
 11
2.7874400000000001
 21
197.91200000000001
 31
0.0
  0
LINE
  5
81
  8
_________1
 62
     7
 10
-51.693999999999988
 20
222.636
 30
0.0
 11
-52.286499999999997
 21
224.84700000000001
 31
0.0
  0
LINE
  5
82
  8
_________1
 62
     7
 10
-52.286499999999997
 20
224.84700000000001
 30
0.0
 11
-52.879100000000001
 21
222.636
 31
0.0
  0
LINE
  5
83
  8
_________1
 62
     7
 10
-52.879100000000001
 20
222.636
 30
0.0
 11
-51.693999999999988
 21
222.636
 31
0.0
  0
LINE
  5
84
  8
_________1
 62
     7
 10
-52.279299999999999
 20
186.84599999999989
 30
0.0
 11
-52.279299999999999
 21
224.846
 31
0.0
  0
ENDBLK
  5
85
  8
_________1
  0
BLOCK
  8
_________1
  2
AIGNBL02010009
 70
     0
 10
0.0
 20
0.0
 30
0.0
  3
AIGNBL02010009
  1

  0
LINE
  5
88
  8
_________1
 62
     7
 10
-51.598199999999991
 20
108.39400000000001
 30
0.0
 11
-52.190800000000003
 21
110.60599999999999
 31
0.0
  0
LINE
  5
89
  8
_________1
 62
     7
 10
-52.190800000000003
 20
110.60599999999999
 30
0.0
 11
-52.783299999999997
 21
108.39400000000001
 31
0.0
  0
LINE
  5
8A
  8
_________1
 62
     7
 10
-52.783299999999997
 20
108.39400000000001
 30
0.0
 11
-51.598199999999991
 21
108.39400000000001
 31
0.0
  0
LINE
  5
8B
  8
_________1
 62
     7
 10
-51.598199999999991
 20
117.39400000000001
 30
0.0
 11
-52.190800000000003
 21
119.60599999999999
 31
0.0
  0
LINE
  5
8C
  8
_________1
 62
     7
 10
-52.190800000000003
 20
119.60599999999999
 30
0.0
 11
-52.783299999999997
 21
117.39400000000001
 31
0.0
  0
LINE
  5
8D
  8
_________1
 62
     7
 10
-52.783299999999997
 20
117.39400000000001
 30
0.0
 11
-51.598199999999991
 21
117.39400000000001
 31
0.0
  0
LINE
  5
8E
  8
_________1
 62
     7
 10
-52.726799999999997
 20
115.81699999999999
 30
0.0
 11
-52.134300000000003
 21
113.60599999999999
 31
0.0
  0
LINE
  5
8F
  8
_________1
 62
     7
 10
-52.134300000000003
 20
113.60599999999999
 30
0.0
 11
-51.541699999999999
 21
115.81699999999999
 31
0.0
  0
LINE
  5
90
  8
_________1
 62
     7
 10
-51.541699999999999
 20
115.81699999999999
 30
0.0
 11
-52.726799999999997
 21
115.81699999999999
 31
0.0
  0
LINE
  5
91
  8
_________1
 62
     7
 10
-52.190800000000003
 20
119.60599999999999
 30
0.0
 11
-52.190800000000003
 21
107.16
 31
0.0
  0
ENDBLK
  5
92
  8
_________1
  0
BLOCK
  8
_________1
  2
AIGNBL0201000A
 70
     0
 10
0.0
 20
0.0
 30
0.0
  3
AIGNBL0201000A
  1

  0
LINE
  5
95
  8
_________1
 62
     7
 10
-58.373699999999992
 20
118.795
 30
0.0
 11
-58.966299999999997
 21
121.006
 31
0.0
  0
LINE
  5
96
  8
_________1
 62
     7
 10
-58.966299999999997
 20
121.006
 30
0.0
 11
-59.558799999999998
 21
118.795
 31
0.0
  0
LINE
  5
97
  8
_________1
 62
     7
 10
-59.558799999999998
 20
118.795
 30
0.0
 11
-58.373699999999992
 21
118.795
 31
0.0
  0
LINE
  5
98
  8
_________1
 62
     7
 10
-59.558799999999998
 20
124.48399999999999
 30
0.0
 11
-58.966299999999997
 21
122.273
 31
0.0
  0
LINE
  5
99
  8
_________1
 62
     7
 10
-58.966299999999997
 20
122.273
 30
0.0
 11
-58.373699999999992
 21
124.48399999999999
 31
0.0
  0
LINE
  5
9A
  8
_________1
 62
     7
 10
-58.373699999999992
 20
124.48399999999999
 30
0.0
 11
-59.558799999999998
 21
124.48399999999999
 31
0.0
  0
LINE
  5
9B
  8
_________1
 62
     7
 10
-59.551299999999998
 20
108.416
 30
0.0
 11
-58.9587
 21
106.205
 31
0.0
  0
LINE
  5
9C
  8
_________1
 62
     7
 10
-58.9587
 20
106.205
 30
0.0
 11
-58.366100000000003
 21
108.416
 31
0.0
  0
LINE
  5
9D
  8
_________1
 62
     7
 10
-58.366100000000003
 20
108.416
 30
0.0
 11
-59.551299999999998
 21
108.416
 31
0.0
  0
LINE
  5
9E
  8
_________1
 62
     7
 10
-58.966299999999997
 20
127.14100000000001
 30
0.0
 11
-58.966299999999997
 21
106.206
 31
0.0
  0
ENDBLK
  5
9F
  8
_________1
  0
BLOCK
  8
_________1
  2
AIGNBL0201000B
 70
     0
 10
0.0
 20
0.0
 30
0.0
  3
AIGNBL0201000B
  1

  0
LINE
  5
A2
  8
_________1
 62
     7
 10
-20.934899999999999
 20
87.176599999999993
 30
0.0
 11
-23.1464
 21
86.584100000000007
 31
0.0
  0
LINE
  5
A3
  8
_________1
 62
     7
 10
-23.1464
 20
86.584100000000007
 30
0.0
 11
-20.934899999999999
 21
85.991499999999988
 31
0.0
  0
LINE
  5
A4
  8
_________1
 62
     7
 10
-20.934899999999999
 20
85.991499999999988
 30
0.0
 11
-20.934899999999999
 21
87.176599999999993
 31
0.0
  0
LINE
  5
A5
  8
_________1
 62
     7
 10
-12.358000000000001
 20
85.991499999999988
 30
0.0
 11
-10.1462
 21
86.584100000000007
 31
0.0
  0
LINE
  5
A6
  8
_________1
 62
     7
 10
-10.1462
 20
86.584100000000007
 30
0.0
 11
-12.358000000000001
 21
87.176599999999993
 31
0.0
  0
LINE
  5
A7
  8
_________1
 62
     7
 10
-12.358000000000001
 20
87.176599999999993
 30
0.0
 11
-12.358000000000001
 21
85.991499999999988
 31
0.0
  0
LINE
  5
A8
  8
_________1
 62
     7
 10
-18.834800000000001
 20
93.687200000000004
 30
0.0
 11
-21.046199999999999
 21
93.094599999999986
 31
0.0
  0
LINE
  5
A9
  8
_________1
 62
     7
 10
-21.046199999999999
 20
93.094599999999986
 30
0.0
 11
-18.834800000000001
 21
92.502099999999999
 31
0.0
  0
LINE
  5
AA
  8
_________1
 62
     7
 10
-18.834800000000001
 20
92.502099999999999
 30
0.0
 11
-18.834800000000001
 21
93.687200000000004
 31
0.0
  0
LINE
  5
AB
  8
_________1
 62
     7
 10
-27.457899999999999
 20
92.502099999999999
 30
0.0
 11
-25.246500000000001
 21
93.094599999999986
 31
0.0
  0
LINE
  5
AC
  8
_________1
 62
     7
 10
-25.246500000000001
 20
93.094599999999986
 30
0.0
 11
-27.457899999999999
 21
93.687200000000004
 31
0.0
  0
LINE
  5
AD
  8
_________1
 62
     7
 10
-27.457899999999999
 20
93.687200000000004
 30
0.0
 11
-27.457899999999999
 21
92.502099999999999
 31
0.0
  0
LINE
  5
AE
  8
_________1
 62
     7
 10
-5.8343099999999994
 20
93.687200000000004
 30
0.0
 11
-8.0460700000000003
 21
93.094599999999986
 31
0.0
  0
LINE
  5
AF
  8
_________1
 62
     7
 10
-8.0460700000000003
 20
93.094599999999986
 30
0.0
 11
-5.8343099999999994
 21
92.502099999999999
 31
0.0
  0
LINE
  5
B0
  8
_________1
 62
     7
 10
-5.8343099999999994
 20
92.502099999999999
 30
0.0
 11
-5.8343099999999994
 21
93.687200000000004
 31
0.0
  0
LINE
  5
B1
  8
_________1
 62
     7
 10
-14.4581
 20
92.502099999999999
 30
0.0
 11
-12.2464
 21
93.094599999999986
 31
0.0
  0
LINE
  5
B2
  8
_________1
 62
     7
 10
-12.2464
 20
93.094599999999986
 30
0.0
 11
-14.4581
 21
93.687200000000004
 31
0.0
  0
LINE
  5
B3
  8
_________1
 62
     7
 10
-14.4581
 20
93.687200000000004
 30
0.0
 11
-14.4581
 21
92.502099999999999
 31
0.0
  0
LINE
  5
B4
  8
_________1
 62
     7
 10
-15.061
 20
93.094599999999986
 30
0.0
 11
1.685009999999999
 21
93.094599999999986
 31
0.0
  0
ENDBLK
  5
B5
  8
_________1
  0
BLOCK
  8
_________1
  2
AIGNBL0201000C
 70
     0
 10
0.0
 20
0.0
 30
0.0
  3
AIGNBL0201000C
  1

  0
LINE
  5
B8
  8
_________1
 62
     7
 10
10.235799999999999
 20
227.05500000000001
 30
0.0
 11
10.8283
 21
224.84399999999999
 31
0.0
  0
LINE
  5
B9
  8
_________1
 62
     7
 10
10.8283
 20
224.84399999999999
 30
0.0
 11
11.4209
 21
227.05500000000001
 31
0.0
  0
LINE
  5
BA
  8
_________1
 62
     7
 10
11.4209
 20
227.05500000000001
 30
0.0
 11
10.235799999999999
 21
227.05500000000001
 31
0.0
  0
LINE
  5
BB
  8
_________1
 62
     7
 10
11.4064
 20
230.035
 30
0.0
 11
10.8139
 21
232.24600000000001
 31
0.0
  0
LINE
  5
BC
  8
_________1
 62
     7
 10
10.8139
 20
232.24600000000001
 30
0.0
 11
10.221299999999999
 21
230.035
 31
0.0
  0
LINE
  5
BD
  8
_________1
 62
     7
 10
10.221299999999999
 20
230.035
 30
0.0
 11
11.4064
 21
230.035
 31
0.0
  0
LINE
  5
BE
  8
_________1
 62
     7
 10
10.8215
 20
224.845
 30
0.0
 11
10.8215
 21
232.245
 31
0.0
  0
ENDBLK
  5
BF
  8
_________1
  0
BLOCK
  8
_________1
  2
AIGNBL0201000D
 70
     0
 10
0.0
 20
0.0
 30
0.0
  3
AIGNBL0201000D
  1

  0
LINE
  5
C2
  8
_________1
 62
     7
 10
10.235799999999999
 20
234.45699999999999
 30
0.0
 11
10.8283
 21
232.24600000000001
 31
0.0
  0
LINE
  5
C3
  8
_________1
 62
     7
 10
10.8283
 20
232.24600000000001
 30
0.0
 11
11.4209
 21
234.45699999999999
 31
0.0
  0
LINE
  5
C4
  8
_________1
 62
     7
 10
11.4209
 20
234.45699999999999
 30
0.0
 11
10.235799999999999
 21
234.45699999999999
 31
0.0
  0
LINE
  5
C5
  8
_________1
 62
     7
 10
11.4064
 20
237.43600000000001
 30
0.0
 11
10.8139
 21
239.64699999999999
 31
0.0
  0
LINE
  5
C6
  8
_________1
 62
     7
 10
10.8139
 20
239.64699999999999
 30
0.0
 11
10.221299999999999
 21
237.43600000000001
 31
0.0
  0
LINE
  5
C7
  8
_________1
 62
     7
 10
10.221299999999999
 20
237.43600000000001
 30
0.0
 11
11.4064
 21
237.43600000000001
 31
0.0
  0
LINE
  5
C8
  8
_________1
 62
     7
 10
10.8215
 20
232.24700000000001
 30
0.0
 11
10.8215
 21
239.64699999999999
 31
0.0
  0
ENDBLK
  5
C9
  8
_________1
  0
BLOCK
  8
_________1
  2
AIGNBL0201000E
 70
     0
 10
0.0
 20
0.0
 30
0.0
  3
AIGNBL0201000E
  1

  0
LINE
  5
CC
  8
_________1
 62
     7
 10
11.5436
 20
100.416
 30
0.0
 11
12.136100000000001
 21
98.204800000000006
 31
0.0
  0
LINE
  5
CD
  8
_________1
 62
     7
 10
12.136100000000001
 20
98.204800000000006
 30
0.0
 11
12.7287
 21
100.416
 31
0.0
  0
LINE
  5
CE
  8
_________1
 62
     7
 10
12.7287
 20
100.416
 30
0.0
 11
11.5436
 21
100.416
 31
0.0
  0
LINE
  5
CF
  8
_________1
 62
     7
 10
12.7142
 20
111.395
 30
0.0
 11
12.121600000000001
 21
113.607
 31
0.0
  0
LINE
  5
D0
  8
_________1
 62
     7
 10
12.121600000000001
 20
113.607
 30
0.0
 11
11.5291
 21
111.395
 31
0.0
  0
LINE
  5
D1
  8
_________1
 62
     7
 10
11.5291
 20
111.395
 30
0.0
 11
12.7142
 21
111.395
 31
0.0
  0
LINE
  5
D2
  8
_________1
 62
     7
 10
12.129200000000001
 20
98.205500000000001
 30
0.0
 11
12.129200000000001
 21
113.60599999999999
 31
0.0
  0
ENDBLK
  5
D3
  8
_________1
  0
BLOCK
  8
_________1
  2
AIGNBL0201000F
 70
     0
 10
0.0
 20
0.0
 30
0.0
  3
AIGNBL0201000F
  1

  0
LINE
  5
D6
  8
_________1
 62
     7
 10
-27.435500000000001
 20
131.40799999999999
 30
0.0
 11
-29.646599999999999
 21
130.816
 31
0.0
  0
LINE
  5
D7
  8
_________1
 62
     7
 10
-29.646599999999999
 20
130.816
 30
0.0
 11
-27.435500000000001
 21
130.2229999999999
 31
0.0
  0
LINE
  5
D8
  8
_________1
 62
     7
 10
-27.435500000000001
 20
130.2229999999999
 30
0.0
 11
-27.435500000000001
 21
131.40799999999999
 31
0.0
  0
LINE
  5
D9
  8
_________1
 62
     7
 10
-18.857500000000002
 20
130.22999999999999
 30
0.0
 11
-16.6465
 21
130.82300000000001
 31
0.0
  0
LINE
  5
DA
  8
_________1
 62
     7
 10
-16.6465
 20
130.82300000000001
 30
0.0
 11
-18.857500000000002
 21
131.41499999999999
 31
0.0
  0
LINE
  5
DB
  8
_________1
 62
     7
 10
-18.857500000000002
 20
131.41499999999999
 30
0.0
 11
-18.857500000000002
 21
130.22999999999999
 31
0.0
  0
LINE
  5
DC
  8
_________1
 62
     7
 10
-29.645900000000001
 20
130.82300000000001
 30
0.0
 11
-8.3227100000000007
 21
130.82300000000001
 31
0.0
  0
ENDBLK
  5
DD
  8
_________1
  0
BLOCK
  8
_________1
  2
AIGNBL02010010
 70
     0
 10
0.0
 20
0.0
 30
0.0
  3
AIGNBL02010010
  1

  0
LINE
  5
E0
  8
_________1
 62
     7
 10
4.5044899999999997
 20
109.21599999999999
 30
0.0
 11
5.0970500000000003
 21
107.005
 31
0.0
  0
LINE
  5
E1
  8
_________1
 62
     7
 10
5.0970500000000003
 20
107.005
 30
0.0
 11
5.6896100000000001
 21
109.21599999999999
 31
0.0
  0
LINE
  5
E2
  8
_________1
 62
     7
 10
5.6896100000000001
 20
109.21599999999999
 30
0.0
 11
4.5044899999999997
 21
109.21599999999999
 31
0.0
  0
LINE
  5
E3
  8
_________1
 62
     7
 10
5.675139999999999
 20
120.196
 30
0.0
 11
5.0825800000000001
 21
122.407
 31
0.0
  0
LINE
  5
E4
  8
_________1
 62
     7
 10
5.0825800000000001
 20
122.407
 30
0.0
 11
4.4900199999999986
 21
120.196
 31
0.0
  0
LINE
  5
E5
  8
_________1
 62
     7
 10
4.4900199999999986
 20
120.196
 30
0.0
 11
5.675139999999999
 21
120.196
 31
0.0
  0
LINE
  5
E6
  8
_________1
 62
     7
 10
5.09016
 20
107.006
 30
0.0
 11
5.09016
 21
122.40600000000001
 31
0.0
  0
ENDBLK
  5
E7
  8
_________1
  0
BLOCK
  8
_________1
  2
AIGNBL02010011
 70
     0
 10
0.0
 20
0.0
 30
0.0
  3
AIGNBL02010011
  1

  0
LINE
  5
EA
  8
_________1
 62
     7
 10
-18.8582
 20
137.381
 30
0.0
 11
-16.6465
 21
137.97399999999999
 31
0.0
  0
LINE
  5
EB
  8
_________1
 62
     7
 10
-16.6465
 20
137.97399999999999
 30
0.0
 11
-18.8582
 21
138.566
 31
0.0
  0
LINE
  5
EC
  8
_________1
 62
     7
 10
-18.8582
 20
138.566
 30
0.0
 11
-18.8582
 21
137.381
 31
0.0
  0
LINE
  5
ED
  8
_________1
 62
     7
 10
-9.8347800000000003
 20
131.41499999999999
 30
0.0
 11
-12.0465
 21
130.82300000000001
 31
0.0
  0
LINE
  5
EE
  8
_________1
 62
     7
 10
-12.0465
 20
130.82300000000001
 30
0.0
 11
-9.8347800000000003
 21
130.22999999999999
 31
0.0
  0
LINE
  5
EF
  8
_________1
 62
     7
 10
-9.8347800000000003
 20
130.22999999999999
 30
0.0
 11
-9.8347800000000003
 21
131.41499999999999
 31
0.0
  0
LINE
  5
F0
  8
_________1
 62
     7
 10
-14.434699999999999
 20
138.566
 30
0.0
 11
-16.6465
 21
137.97399999999999
 31
0.0
  0
LINE
  5
F1
  8
_________1
 62
     7
 10
-16.6465
 20
137.97399999999999
 30
0.0
 11
-14.434699999999999
 21
137.381
 31
0.0
  0
LINE
  5
F2
  8
_________1
 62
     7
 10
-14.434699999999999
 20
137.381
 30
0.0
 11
-14.434699999999999
 21
138.566
 31
0.0
  0
LINE
  5
F3
  8
_________1
 62
     7
 10
-38.916699999999999
 20
137.381
 30
0.0
 11
-36.705300000000001
 21
137.97399999999999
 31
0.0
  0
LINE
  5
F4
  8
_________1
 62
     7
 10
-36.705300000000001
 20
137.97399999999999
 30
0.0
 11
-38.916699999999999
 21
138.566
 31
0.0
  0
LINE
  5
F5
  8
_________1
 62
     7
 10
-38.916699999999999
 20
138.566
 30
0.0
 11
-38.916699999999999
 21
137.381
 31
0.0
  0
LINE
  5
F6
  8
_________1
 62
     7
 10
-34.493499999999997
 20
138.566
 30
0.0
 11
-36.705300000000001
 21
137.97399999999999
 31
0.0
  0
LINE
  5
F7
  8
_________1
 62
     7
 10
-36.705300000000001
 20
137.97399999999999
 30
0.0
 11
-34.493499999999997
 21
137.381
 31
0.0
  0
LINE
  5
F8
  8
_________1
 62
     7
 10
-34.493499999999997
 20
137.381
 30
0.0
 11
-34.493499999999997
 21
138.566
 31
0.0
  0
LINE
  5
F9
  8
_________1
 62
     7
 10
-46.058100000000003
 20
151.51900000000001
 30
0.0
 11
-43.846400000000003
 21
152.11099999999999
 31
0.0
  0
LINE
  5
FA
  8
_________1
 62
     7
 10
-43.846400000000003
 20
152.11099999999999
 30
0.0
 11
-46.058100000000003
 21
152.70400000000001
 31
0.0
  0
LINE
  5
FB
  8
_________1
 62
     7
 10
-46.058100000000003
 20
152.70400000000001
 30
0.0
 11
-46.058100000000003
 21
151.51900000000001
 31
0.0
  0
LINE
  5
FC
  8
_________1
 62
     7
 10
-38.634599999999999
 20
152.70400000000001
 30
0.0
 11
-40.846299999999992
 21
152.11099999999999
 31
0.0
  0
LINE
  5
FD
  8
_________1
 62
     7
 10
-40.846299999999992
 20
152.11099999999999
 30
0.0
 11
-38.634599999999999
 21
151.51900000000001
 31
0.0
  0
LINE
  5
FE
  8
_________1
 62
     7
 10
-38.634599999999999
 20
151.51900000000001
 30
0.0
 11
-38.634599999999999
 21
152.70400000000001
 31
0.0
  0
LINE
  5
FF
  8
_________1
 62
     7
 10
-7.0580100000000003
 20
151.51900000000001
 30
0.0
 11
-4.8462500000000004
 21
152.11099999999999
 31
0.0
  0
LINE
  5
100
  8
_________1
 62
     7
 10
-4.8462500000000004
 20
152.11099999999999
 30
0.0
 11
-7.0580100000000003
 21
152.70400000000001
 31
0.0
  0
LINE
  5
101
  8
_________1
 62
     7
 10
-7.0580100000000003
 20
152.70400000000001
 30
0.0
 11
-7.0580100000000003
 21
151.51900000000001
 31
0.0
  0
ENDBLK
  5
102
  8
_________1
  0
BLOCK
  8
_________1
  2
AIGNBL02010012
 70
     0
 10
0.0
 20
0.0
 30
0.0
  3
AIGNBL02010012
  1

  0
LINE
  5
105
  8
_________1
 62
     7
 10
-2.634479999999999
 20
145.46799999999999
 30
0.0
 11
-4.8462500000000004
 21
144.875
 31
0.0
  0
LINE
  5
106
  8
_________1
 62
     7
 10
-4.8462500000000004
 20
144.875
 30
0.0
 11
-2.634479999999999
 21
144.28299999999999
 31
0.0
  0
LINE
  5
107
  8
_________1
 62
     7
 10
-2.634479999999999
 20
144.28299999999999
 30
0.0
 11
-2.634479999999999
 21
145.46799999999999
 31
0.0
  0
LINE
  5
108
  8
_________1
 62
     7
 10
-9.4461700000000004
 20
144.875
 30
0.0
 11
-1.3594399999999991
 21
144.875
 31
0.0
  0
ENDBLK
  5
109
  8
_________1
  0
BLOCK
  8
_________1
  2
AIGNBL02010013
 70
     0
 10
0.0
 20
0.0
 30
0.0
  3
AIGNBL02010013
  1

  0
LINE
  5
10C
  8
_________1
 62
     7
 10
-11.6569
 20
144.28999999999999
 30
0.0
 11
-9.4454799999999999
 21
144.88200000000001
 31
0.0
  0
LINE
  5
10D
  8
_________1
 62
     7
 10
-9.4454799999999999
 20
144.88200000000001
 30
0.0
 11
-11.6569
 21
145.47499999999999
 31
0.0
  0
LINE
  5
10E
  8
_________1
 62
     7
 10
-11.6569
 20
145.47499999999999
 30
0.0
 11
-11.6569
 21
144.28999999999999
 31
0.0
  0
LINE
  5
10F
  8
_________1
 62
     7
 10
-41.63559999999999
 20
145.46000000000001
 30
0.0
 11
-43.847000000000001
 21
144.86799999999999
 31
0.0
  0
LINE
  5
110
  8
_________1
 62
     7
 10
-43.847000000000001
 20
144.86799999999999
 30
0.0
 11
-41.63559999999999
 21
144.27500000000001
 31
0.0
  0
LINE
  5
111
  8
_________1
 62
     7
 10
-41.63559999999999
 20
144.27500000000001
 30
0.0
 11
-41.63559999999999
 21
145.46000000000001
 31
0.0
  0
LINE
  5
112
  8
_________1
 62
     7
 10
-9.4461700000000004
 20
144.875
 30
0.0
 11
-43.846400000000003
 21
144.875
 31
0.0
  0
ENDBLK
  5
113
  8
_________1
  0
BLOCK
  8
_________1
  2
AIGNBL02010014
 70
     0
 10
0.0
 20
0.0
 30
0.0
  3
AIGNBL02010014
  1

  0
LINE
  5
116
  8
_________1
 62
     7
 10
-11.6569
 20
137.38900000000001
 30
0.0
 11
-9.4454799999999999
 21
137.98099999999999
 31
0.0
  0
LINE
  5
117
  8
_________1
 62
     7
 10
-9.4454799999999999
 20
137.98099999999999
 30
0.0
 11
-11.6569
 21
138.57400000000001
 31
0.0
  0
LINE
  5
118
  8
_________1
 62
     7
 10
-11.6569
 20
138.57400000000001
 30
0.0
 11
-11.6569
 21
137.38900000000001
 31
0.0
  0
LINE
  5
119
  8
_________1
 62
     7
 10
-41.63559999999999
 20
138.559
 30
0.0
 11
-43.847000000000001
 21
137.96700000000001
 31
0.0
  0
LINE
  5
11A
  8
_________1
 62
     7
 10
-43.847000000000001
 20
137.96700000000001
 30
0.0
 11
-41.63559999999999
 21
137.374
 31
0.0
  0
LINE
  5
11B
  8
_________1
 62
     7
 10
-41.63559999999999
 20
137.374
 30
0.0
 11
-41.63559999999999
 21
138.559
 31
0.0
  0
LINE
  5
11C
  8
_________1
 62
     7
 10
-9.4461700000000004
 20
137.97399999999999
 30
0.0
 11
-43.846400000000003
 21
137.97399999999999
 31
0.0
  0
ENDBLK
  5
11D
  8
_________1
  0
BLOCK
  8
_________1
  2
AIGNBL02010015
 70
     0
 10
0.0
 20
0.0
 30
0.0
  3
AIGNBL02010015
  1

  0
LINE
  5
120
  8
_________1
 62
     7
 10
-48.177900000000001
 20
152.11099999999999
 30
0.0
 11
-4.8462500000000004
 21
152.11099999999999
 31
0.0
  0
ENDBLK
  5
121
  8
_________1
  0
BLOCK
  8
_________2
  2
AIGNBL03010002
 70
     0
 10
0.0
 20
0.0
 30
0.0
  3
AIGNBL03010002
  1

  0
LINE
  5
124
  8
_________2
 62
     7
 10
186.649
 20
51.052199999999999
 30
0.0
 11
184.46299999999999
 21
51.052199999999999
 31
0.0
  0
LINE
  5
125
  8
_________2
 62
     7
 10
187.142
 20
51.052199999999999
 30
0.0
 11
186.88900000000001
 21
51.052199999999999
 31
0.0
  0
LINE
  5
126
  8
_________2
 62
     7
 10
187.63399999999999
 20
51.052199999999999
 30
0.0
 11
190.559
 21
51.052199999999999
 31
0.0
  0
LINE
  5
127
  8
_________2
 62
     7
 10
187.142
 20
51.052199999999999
 30
0.0
 11
187.39400000000001
 21
51.052199999999999
 31
0.0
  0
LINE
  5
128
  8
_________2
 62
     7
 10
180.745
 20
51.052199999999999
 30
0.0
 11
178.55799999999999
 21
51.052199999999999
 31
0.0
  0
LINE
  5
129
  8
_________2
 62
     7
 10
181.23699999999999
 20
51.052199999999999
 30
0.0
 11
180.98599999999999
 21
51.052199999999999
 31
0.0
  0
LINE
  5
12A
  8
_________2
 62
     7
 10
181.23699999999999
 20
51.544800000000002
 30
0.0
 11
181.23699999999999
 21
53.7318
 31
0.0
  0
LINE
  5
12B
  8
_________2
 62
     7
 10
181.23699999999999
 20
51.052199999999999
 30
0.0
 11
181.23699999999999
 21
51.304299999999998
 31
0.0
  0
LINE
  5
12C
  8
_________2
 62
     7
 10
181.72999999999999
 20
51.052199999999999
 30
0.0
 11
183.917
 21
51.052199999999999
 31
0.0
  0
LINE
  5
12D
  8
_________2
 62
     7
 10
181.23699999999999
 20
51.052199999999999
 30
0.0
 11
181.489
 21
51.052199999999999
 31
0.0
  0
LINE
  5
12E
  8
_________2
 62
     7
 10
181.23699999999999
 20
50.560200000000002
 30
0.0
 11
181.23699999999999
 21
48.373199999999997
 31
0.0
  0
LINE
  5
12F
  8
_________2
 62
     7
 10
181.23699999999999
 20
51.052199999999999
 30
0.0
 11
181.23699999999999
 21
50.800699999999999
 31
0.0
  0
LINE
  5
130
  8
_________2
 62
     7
 10
184.94799999999989
 20
49.832599999999999
 30
0.0
 11
190.12599999999989
 21
48.9679
 31
0.0
  0
LINE
  5
131
  8
_________2
 62
     7
 10
184.94799999999989
 20
52.271700000000003
 30
0.0
 11
190.12599999999989
 21
53.137099999999997
 31
0.0
  0
LINE
  5
132
  8
_________2
 62
     7
 10
190.12599999999989
 20
48.9679
 30
0.0
 11
190.12599999999989
 21
53.137099999999997
 31
0.0
  0
LINE
  5
133
  8
_________2
 62
     7
 10
184.94799999999989
 20
49.832599999999999
 30
0.0
 11
184.94799999999989
 21
52.271700000000003
 31
0.0
  0
ARC
  5
134
  8
_________2
 62
     7
 10
181.190651
 20
51.004810999999989
 30
0.0
 40
1.2677780000000001
 50
2.1403449999999991
 51
87.892005999999995
  0
ARC
  5
135
  8
_________2
 62
     7
 10
181.28420199999999
 20
51.005241999999988
 30
0.0
 40
1.2673579999999991
 50
92.121564999999975
 51
177.87840600000001
  0
ARC
  5
136
  8
_________2
 62
     7
 10
181.28381400000001
 20
51.098689
 30
0.0
 40
1.2669559999999991
 50
182.10473099999999
 51
267.89529900000002
  0
ARC
  5
137
  8
_________2
 62
     7
 10
181.19038399999999
 20
51.099775000000001
 30
0.0
 40
1.268054
 50
272.11960599999998
 51
357.84804300000002
  0
ARC
  5
138
  8
_________2
 62
     7
 10
181.23728399999999
 20
51.05215900000001
 30
0.0
 40
2.0849849999999992
 50
0.00001
 51
89.999980000000008
  0
ARC
  5
139
  8
_________2
 62
     7
 10
181.317331
 20
50.972827000000002
 30
0.0
 40
2.1657969999999991
 50
92.118111999999996
 51
177.90079600000001
  0
ARC
  5
13A
  8
_________2
 62
     7
 10
181.31728799999999
 20
51.132162999999998
 30
0.0
 40
2.1657779999999991
 50
182.11700400000001
 51
267.88302499999998
  0
ARC
  5
13B
  8
_________2
 62
     7
 10
181.15730300000001
 20
51.132855999999997
 30
0.0
 40
2.166469999999999
 50
272.115725
 51
357.86534699999999
  0
ENDBLK
  5
13C
  8
_________2
  0
ENDSEC
  0
SECTION
  2
ENTITIES
  0
TEXT
  5
13D
  8
____
 62
     7
 10
-33.008195999999998
 20
101.032
 30
0.0
 40
3.0923400000000001
  1
湯側
 41
0.5
 72
     2
 11
-29.709700000000002
 21
101.032
 31
0.0
  0
TEXT
  5
13E
  8
____
 62
     7
 10
-3.4843899999999999
 20
101.032
 30
0.0
 40
3.0923400000000001
  1
水側
 41
0.5
  0
TEXT
  5
13F
  8
____
 62
     7
 10
60.567396000000002
 20
73.210099999999997
 30
0.0
 40
3.0923400000000001
  1
壁仕上面
 41
0.5
 72
     2
 11
67.576700000000002
 21
73.210099999999997
 31
0.0
  0
TEXT
  5
140
  8
____
 62
     7
 10
-2.2309920000000001
 20
217.321
 30
0.0
 40
3.0923400000000001
  1
壁仕上面
 41
0.5
 72
     1
 11
1.27366
 21
217.321
 31
0.0
  0
TEXT
  5
141
  8
____
 62
     7
 10
-52.979399999999998
 20
204.17098250000001
 30
0.0
 40
3.0923400000000001
  1
190
 50
90.0
 41
0.5
 72
     1
 11
-52.979399999999998
 21
205.846
 31
0.0
  0
TEXT
  5
142
  8
____
 62
     7
 10
-8.2748249999999999
 20
145.57499999999999
 30
0.0
 40
3.0923400000000001
  1
23
 41
0.5
 72
     1
 11
-6.9863499999999989
 21
145.57499999999999
 31
0.0
  0
TEXT
  5
143
  8
____
 62
     7
 10
-34.8994
 20
93.794700000000006
 30
0.0
 40
3.0923400000000001
  1
PF 1/2
 41
0.5
  0
TEXT
  5
144
  8
____
 62
     7
 10
72.594099999999983
 20
99.238299999999995
 30
0.0
 40
3.0923400000000001
  1
PF 1/2
 41
0.5
  0
TEXT
  5
145
  8
____
 62
     7
 10
-5.9427620000000001
 20
93.794700000000006
 30
0.0
 40
3.0923400000000001
  1
PF 1/2
 41
0.5
 72
     2
 11
1.685009999999999
 21
93.794700000000006
 31
0.0
  0
TEXT
  5
146
  8
____
 62
     7
 10
102.67100000000001
 20
113.417525
 30
0.0
 40
3.0923400000000001
  1
77
 50
90.0
 41
0.5
 72
     1
 11
102.67100000000001
 21
114.706
 31
0.0
  0
TEXT
  5
147
  8
____
 62
     7
 10
95.917900000000003
 20
108.117525
 30
0.0
 40
3.0923400000000001
  1
42
 50
90.0
 41
0.5
 72
     1
 11
95.917900000000003
 21
109.40600000000001
 31
0.0
  0
TEXT
  5
148
  8
____
 62
     7
 10
9.9457100000000001
 20
224.91150049999999
 30
0.0
 40
3.0923400000000001
  1
32～40
 50
90.0
 41
0.5
 72
     1
 11
9.9457100000000001
 21
228.54499999999999
 31
0.0
  0
TEXT
  5
149
  8
____
 62
     7
 10
9.9457100000000001
 20
234.658525
 30
0.0
 40
3.0923400000000001
  1
37
 50
90.0
 41
0.5
 72
     1
 11
9.9457100000000001
 21
235.947
 31
0.0
  0
TEXT
  5
14A
  8
____
 62
     7
 10
-15.588075
 20
131.523
 30
0.0
 40
3.0923400000000001
  1
23
 41
0.5
 72
     1
 11
-14.2996
 21
131.523
 31
0.0
  0
TEXT
  5
14B
  8
____
 62
     7
 10
-24.435175000000001
 20
131.523
 30
0.0
 40
3.0923400000000001
  1
65
 41
0.5
 72
     1
 11
-23.146699999999999
 21
131.523
 31
0.0
  0
TEXT
  5
14C
  8
____
 62
     7
 10
11.4292
 20
104.617525
 30
0.0
 40
3.0923400000000001
  1
77
 50
90.0
 41
0.5
 72
     1
 11
11.4292
 21
105.90600000000001
 31
0.0
  0
TEXT
  5
14D
  8
____
 62
     7
 10
4.3901099999999991
 20
113.417525
 30
0.0
 40
3.0923400000000001
  1
77
 50
90.0
 41
0.5
 72
     1
 11
4.3901099999999991
 21
114.706
 31
0.0
  0
TEXT
  5
14E
  8
____
 62
     7
 10
-52.960799999999992
 20
110.95922
 30
0.0
 40
3.0923400000000001
  1
15
 50
90.0
 41
0.5
 72
     1
 11
-52.960799999999992
 21
111.98999999999999
 31
0.0
  0
TEXT
  5
14F
  8
____
 62
     7
 10
-52.960799999999992
 20
115.6113725
 30
0.0
 40
3.0923400000000001
  1
30
 50
90.0
 41
0.5
 72
     1
 11
-52.960799999999992
 21
116.771
 31
0.0
  0
TEXT
  5
150
  8
____
 62
     7
 10
-59.6663
 20
126.11022
 30
0.0
 40
3.0923400000000001
  1
7
 50
90.0
 41
0.5
 72
     2
 11
-59.6663
 21
127.14100000000001
 31
0.0
  0
TEXT
  5
151
  8
____
 62
     7
 10
-59.6663
 20
112.317525
 30
0.0
 40
3.0923400000000001
  1
74
 50
90.0
 41
0.5
 72
     1
 11
-59.6663
 21
113.60599999999999
 31
0.0
  0
TEXT
  5
152
  8
____
 62
     7
 10
81.763324999999995
 20
132.12
 30
0.0
 40
3.0923400000000001
  1
37
 41
0.5
 72
     1
 11
83.0518
 21
132.12
 31
0.0
  0
TEXT
  5
153
  8
____
 62
     7
 10
62.846947999999998
 20
132.12
 30
0.0
 40
3.0923400000000001
  1
61～53
 41
0.5
 72
     1
 11
66.351600000000005
 21
132.12
 31
0.0
  0
TEXT
  5
154
  8
____
 62
     7
 10
72.018200500000006
 20
132.12
 30
0.0
 40
3.0923400000000001
  1
32～40
 41
0.5
 72
     1
 11
75.651700000000005
 21
132.12
 31
0.0
  0
TEXT
  5
155
  8
____
 62
     7
 10
-14.334775
 20
138.84899999999999
 30
0.0
 40
3.0923400000000001
  1
36
 41
0.5
 72
     1
 11
-13.0463
 21
138.84899999999999
 31
0.0
  0
TEXT
  5
156
  8
____
 62
     7
 10
-41.534675
 20
138.67400000000001
 30
0.0
 40
3.0923400000000001
  1
36
 41
0.5
 72
     1
 11
-40.246200000000002
 21
138.67400000000001
 31
0.0
  0
TEXT
  5
157
  8
____
 62
     7
 10
-28.19247
 20
138.84899999999999
 30
0.0
 40
3.0923400000000001
  1
100
 41
0.5
 72
     1
 11
-26.6463
 21
138.84899999999999
 31
0.0
  0
TEXT
  5
158
  8
____
 62
     7
 10
-28.450164999999998
 20
145.57499999999999
 30
0.0
 40
3.0923400000000001
  1
172
 41
0.5
 72
     1
 11
-26.6463
 21
145.57499999999999
 31
0.0
  0
TEXT
  5
159
  8
____
 62
     7
 10
90.069140000000004
 20
88.940200000000004
 30
0.0
 40
3.0923400000000001
  1
17
 41
0.5
 72
     2
 11
92.130700000000004
 21
88.940200000000004
 31
0.0
  0
TEXT
  5
15A
  8
____
 62
     7
 10
75.589352999999988
 20
82.033100000000005
 30
0.0
 40
3.0923400000000001
  1
69～77
 41
0.5
 72
     1
 11
79.351699999999994
 21
82.033100000000005
 31
0.0
  0
TEXT
  5
15B
  8
____
 62
     7
 10
74.018100500000003
 20
89.080699999999993
 30
0.0
 40
3.0923400000000001
  1
52～60
 41
0.5
 72
     1
 11
77.651600000000002
 21
89.080699999999993
 31
0.0
  0
TEXT
  5
15C
  8
____
 62
     7
 10
52.67048599999999
 20
100.14100000000001
 30
0.0
 40
3.0923400000000001
  1
開
 41
0.5
 72
     2
 11
54.0105
 21
100.14100000000001
 31
0.0
  0
TEXT
  5
15D
  8
____
 62
     7
 10
63.359200000000001
 20
97.142300000000006
 30
0.0
 40
3.0923400000000001
  1
閉
 41
0.5
  0
TEXT
  5
15E
  8
____
 62
     7
 10
52.647635000000001
 20
88.940200000000004
 30
0.0
 40
3.0923400000000001
  1
175
 41
0.5
 72
     1
 11
54.451500000000003
 21
88.940200000000004
 31
0.0
  0
TEXT
  5
15F
  8
____
 62
     7
 10
-17.934975000000001
 20
87.284099999999995
 30
0.0
 40
3.0923400000000001
  1
65
 41
0.5
 72
     1
 11
-16.6465
 21
87.284099999999995
 31
0.0
  0
TEXT
  5
160
  8
____
 62
     7
 10
-43.607979999999991
 20
153.05600000000001
 30
0.0
 40
3.0923400000000001
  1
15
 41
0.5
 72
     1
 11
-42.577199999999991
 21
153.05600000000001
 31
0.0
  0
TEXT
  5
161
  8
____
 62
     7
 10
-20.627649999999999
 20
249.12299999999999
 30
0.0
 40
3.0923400000000001
  1
KW9193400R
 41
0.5
 72
     2
 11
-6.1967299999999996
 21
249.12299999999999
 31
0.0
  0
TEXT
  5
162
  8
____
 62
     7
 10
-11.385785
 20
198.61199999999999
 30
0.0
 40
3.0923400000000001
  1
KW1192033T
 41
0.5
 72
     2
 11
2.7874400000000001
 21
198.61199999999999
 31
0.0
  0
TEXT
  5
163
  8
____
 62
     7
 10
-24.521317499999999
 20
152.81100000000001
 30
0.0
 40
3.0923400000000001
  1
180
 41
0.5
 72
     1
 11
-22.846299999999999
 21
152.81100000000001
 31
0.0
  0
LINE
  5
164
  8
_________1
 62
     7
 10
38.9512
 20
110.605
 30
0.0
 11
34.9514
 21
110.605
 31
0.0
  0
LINE
  5
165
  8
_________1
 62
     7
 10
34.9514
 20
110.605
 30
0.0
 11
34.9514
 21
111.60599999999999
 31
0.0
  0
LINE
  5
166
  8
_________1
 62
     7
 10
34.9514
 20
111.60599999999999
 30
0.0
 11
38.9512
 21
111.60599999999999
 31
0.0
  0
LINE
  5
167
  8
_________1
 62
     7
 10
38.9512
 20
111.60599999999999
 30
0.0
 11
38.9512
 21
110.605
 31
0.0
  0
LINE
  5
168
  8
_________1
  6
AIGENLINE001
 62
     7
 10
-29.30800000000001
 20
102.98099999999999
 30
0.0
 11
-16.646100000000001
 21
113.60599999999999
 31
0.0
  0
LINE
  5
169
  8
_________1
  6
AIGENLINE002
 62
     7
 10
-21.0166
 20
111.244
 30
0.0
 11
-28.9331
 21
104.601
 31
0.0
  0
LINE
  5
16A
  8
_________1
  6
AIGENLINE002
 62
     7
 10
-27.929200000000002
 20
103.09399999999999
 30
0.0
 11
-28.957899999999999
 21
104.31999999999999
 31
0.0
  0
ARC
  5
16B
  8
_________1
  6
AIGENLINE002
 62
     7
 10
-28.793938000000001
 20
104.447247
 30
0.0
 40
0.20765
 50
132.09124399999999
 51
217.83613500000001
  0
LINE
  5
16C
  8
_________1
  6
AIGENLINE002
 62
     7
 10
-19.731200000000001
 20
109.711
 30
0.0
 11
-27.647400000000001
 21
103.069
 31
0.0
  0
ARC
  5
16D
  8
_________1
  6
AIGENLINE002
 62
     7
 10
-27.775103999999999
 20
103.233739
 30
0.0
 40
0.2082
 50
222.24852799999999
 51
307.83014700000001
  0
LINE
  5
16E
  8
_________1
  6
AIGENLINE001
 62
     7
 10
-3.9849699999999988
 20
102.98099999999999
 30
0.0
 11
-16.646100000000001
 21
113.60599999999999
 31
0.0
  0
LINE
  5
16F
  8
_________1
  6
AIGENLINE002
 62
     7
 10
-12.276
 20
111.244
 30
0.0
 11
-4.359799999999999
 21
104.601
 31
0.0
  0
LINE
  5
170
  8
_________1
  6
AIGENLINE002
 62
     7
 10
-5.3630100000000001
 20
103.09399999999999
 30
0.0
 11
-4.3349900000000003
 21
104.31999999999999
 31
0.0
  0
ARC
  5
171
  8
_________1
  6
AIGENLINE002
 62
     7
 10
-4.4879300000000004
 20
104.448763
 30
0.0
 40
0.200008
 50
319.87737499999997
 51
352.76405699999998
  0
ARC
  5
172
  8
_________1
  6
AIGENLINE002
 62
     7
 10
-4.4918309999999986
 20
104.44636300000001
 30
0.0
 40
0.203595
 50
353.572543
 51
49.570067000000002
  0
LINE
  5
173
  8
_________1
  6
AIGENLINE002
 62
     7
 10
-13.561400000000001
 20
109.711
 30
0.0
 11
-5.6455099999999989
 21
103.069
 31
0.0
  0
ARC
  5
174
  8
_________1
  6
AIGENLINE002
 62
     7
 10
-5.517396999999999
 20
103.23320099999999
 30
0.0
 40
0.208036
 50
231.986932
 51
317.91035499999998
  0
ARC
  5
175
  8
_________1
  6
AIGENLINE003
 62
     7
 10
-29.646612000000001
 20
110.406018
 30
0.0
 40
0.900209
 50
270.00002000000001
 51
359.99999000000003
  0
ARC
  5
176
  8
_________1
  6
AIGENLINE003
 62
     7
 10
-29.646612000000001
 20
110.40601700000001
 30
0.0
 40
0.900209
 50
179.99996999999999
 51
270.00002000000001
  0
LINE
  5
177
  8
_________1
  6
AIGENLINE003
 62
     7
 10
-30.546800000000001
 20
110.40600000000001
 30
0.0
 11
-30.546800000000001
 21
110.806
 31
0.0
  0
ARC
  5
178
  8
_________1
  6
AIGENLINE003
 62
     7
 10
-29.612725000000001
 20
110.77175099999999
 30
0.0
 40
0.9347239999999999
 50
92.077641
 51
177.900398
  0
ARC
  5
179
  8
_________1
  6
AIGENLINE003
 62
     7
 10
-29.681211000000001
 20
110.771039
 30
0.0
 40
0.935461
 50
2.1415509999999989
 51
87.880369999999999
  0
LINE
  5
17A
  8
_________1
  6
AIGENLINE003
 62
     7
 10
-28.746400000000001
 20
110.806
 30
0.0
 11
-28.746400000000001
 21
110.40600000000001
 31
0.0
  0
LINE
  5
17B
  8
_________1
  6
AIGENLINE001
 62
     7
 10
-29.646599999999999
 20
109.077
 30
0.0
 11
-29.646599999999999
 21
112.217
 31
0.0
  0
LINE
  5
17C
  8
_________1
  6
AIGENLINE001
 62
     7
 10
-28.247199999999999
 20
110.60599999999999
 30
0.0
 11
-31.03400000000001
 21
110.60599999999999
 31
0.0
  0
ARC
  5
17D
  8
_________1
  6
AIGENLINE003
 62
     7
 10
-11.954158
 20
119.464437
 30
0.0
 40
0.9354449999999999
 50
317.12437
 51
42.875630000000001
  0
ARC
  5
17E
  8
_________1
  6
AIGENLINE003
 62
     7
 10
-11.905106
 20
119.513124
 30
0.0
 40
0.9351780000000001
 50
227.07930899999999
 51
312.88970699999999
  0
LINE
  5
17F
  8
_________1
  6
AIGENLINE003
 62
     7
 10
-12.5419
 20
118.828
 30
0.0
 11
-12.824400000000001
 21
119.111
 31
0.0
  0
ARC
  5
180
  8
_________1
  6
AIGENLINE003
 62
     7
 10
-12.139887
 20
119.74745299999999
 30
0.0
 40
0.934623
 50
137.09195700000001
 51
222.90804300000011
  0
ARC
  5
181
  8
_________1
  6
AIGENLINE003
 62
     7
 10
-12.188136
 20
119.74745299999999
 30
0.0
 40
0.8998829999999999
 50
45.000005000000009
 51
134.99997500000001
  0
LINE
  5
182
  8
_________1
  6
AIGENLINE003
 62
     7
 10
-11.5518
 20
120.384
 30
0.0
 11
-11.268599999999999
 21
120.101
 31
0.0
  0
LINE
  5
183
  8
_________1
  6
AIGENLINE001
 62
     7
 10
-10.9655
 20
118.52500000000001
 30
0.0
 11
-13.185499999999999
 21
120.745
 31
0.0
  0
LINE
  5
184
  8
_________1
  6
AIGENLINE001
 62
     7
 10
-11.0571
 20
120.595
 30
0.0
 11
-13.027699999999999
 21
118.625
 31
0.0
  0
ARC
  5
185
  8
_________1
  6
AIGENLINE003
 62
     7
 10
-29.481418999999999
 20
119.571235
 30
0.0
 40
0.9354729999999999
 50
2.1210840000000002
 51
87.878906000000001
  0
ARC
  5
186
  8
_________1
  6
AIGENLINE003
 62
     7
 10
-29.481075000000001
 20
119.640496
 30
0.0
 40
0.9351299999999998
 50
272.10080399999998
 51
357.877275
  0
LINE
  5
187
  8
_________1
  6
AIGENLINE003
 62
     7
 10
-29.4468
 20
118.706
 30
0.0
 11
-29.846800000000002
 21
118.706
 31
0.0
  0
ARC
  5
188
  8
_________1
  6
AIGENLINE003
 62
     7
 10
-29.812159999999999
 20
119.640472
 30
0.0
 40
0.9351179999999999
 50
182.12128000000001
 51
267.87875000000003
  0
ARC
  5
189
  8
_________1
  6
AIGENLINE003
 62
     7
 10
-29.812214000000001
 20
119.571657
 30
0.0
 40
0.9350500000000001
 50
92.118117000000012
 51
177.903785
  0
LINE
  5
18A
  8
_________1
  6
AIGENLINE003
 62
     7
 10
-29.846800000000002
 20
120.506
 30
0.0
 11
-29.4468
 21
120.506
 31
0.0
  0
LINE
  5
18B
  8
_________1
  6
AIGENLINE001
 62
     7
 10
-28.117999999999999
 20
119.60599999999999
 30
0.0
 11
-31.257899999999999
 21
119.60599999999999
 31
0.0
  0
LINE
  5
18C
  8
_________1
  6
AIGENLINE001
 62
     7
 10
-29.646599999999999
 20
121.005
 30
0.0
 11
-29.646599999999999
 21
118.21899999999999
 31
0.0
  0
LINE
  5
18D
  8
_________1
  6
AIGENLINE002
 62
     7
 10
71.951599999999999
 20
87.540099999999995
 30
0.0
 11
71.951599999999999
 21
69.766400000000004
 31
0.0
  0
LINE
  5
18E
  8
_________1
 62
     7
 10
68.427999999999997
 20
76.739999999999995
 30
0.0
 11
71.951599999999999
 21
74.705299999999994
 31
0.0
  0
LINE
  5
18F
  8
_________1
 62
     7
 10
71.951599999999999
 20
74.705299999999994
 30
0.0
 11
68.427999999999997
 21
72.671300000000002
 31
0.0
  0
LINE
  5
190
  8
_________1
 62
     7
 10
68.427999999999997
 20
72.671300000000002
 30
0.0
 11
68.427999999999997
 21
76.739999999999995
 31
0.0
  0
LINE
  5
191
  8
_________1
 62
     7
 10
-0.7610260000000001
 20
221.32300000000001
 30
0.0
 11
1.27366
 21
224.846
 31
0.0
  0
LINE
  5
192
  8
_________1
 62
     7
 10
1.27366
 20
224.846
 30
0.0
 11
3.3076599999999989
 21
221.32300000000001
 31
0.0
  0
LINE
  5
193
  8
_________1
 62
     7
 10
3.3076599999999989
 20
221.32300000000001
 30
0.0
 11
-0.7610260000000001
 21
221.32300000000001
 31
0.0
  0
INSERT
  5
194
  8
_________1
 62
     7
  2
AIGNBL02010002
 10
0.0
 20
0.0
 30
0.0
  0
LINE
  5
195
  8
_________1
 62
     7
 10
60.7515
 20
131.97900000000001
 30
0.0
 11
60.7515
 21
118.27200000000001
 31
0.0
  0
LINE
  5
196
  8
_________1
 62
     7
 10
62.963700000000003
 20
131.87899999999999
 30
0.0
 11
60.752600000000001
 21
131.28700000000001
 31
0.0
  0
LINE
  5
197
  8
_________1
 62
     7
 10
60.752600000000001
 20
131.28700000000001
 30
0.0
 11
62.963700000000003
 21
130.69399999999999
 31
0.0
  0
LINE
  5
198
  8
_________1
 62
     7
 10
62.963700000000003
 20
130.69399999999999
 30
0.0
 11
62.963700000000003
 21
131.87899999999999
 31
0.0
  0
LINE
  5
199
  8
_________1
 62
     7
 10
71.951599999999999
 20
131.97900000000001
 30
0.0
 11
71.951599999999999
 21
121.706
 31
0.0
  0
INSERT
  5
19A
  8
_________1
 62
     7
  2
AIGNBL02010003
 10
0.0
 20
0.0
 30
0.0
  0
LINE
  5
19B
  8
_________1
 62
     7
 10
86.751800000000003
 20
131.97900000000001
 30
0.0
 11
86.751800000000003
 21
122.07599999999999
 31
0.0
  0
LINE
  5
19C
  8
_________1
 62
     7
 10
79.352099999999993
 20
131.97900000000001
 30
0.0
 11
79.352099999999993
 21
122.40600000000001
 31
0.0
  0
INSERT
  5
19D
  8
_________1
 62
     7
  2
AIGNBL02010004
 10
0.0
 20
0.0
 30
0.0
  0
LINE
  5
19E
  8
_________1
 62
     7
 10
104.071
 20
122.40600000000001
 30
0.0
 11
87.2273
 21
122.40600000000001
 31
0.0
  0
LINE
  5
19F
  8
_________1
 62
     7
 10
104.071
 20
107.006
 30
0.0
 11
87.101900000000001
 21
107.006
 31
0.0
  0
INSERT
  5
1A0
  8
_________1
 62
     7
  2
AIGNBL02010005
 10
0.0
 20
0.0
 30
0.0
  0
LINE
  5
1A1
  8
_________1
 62
     7
 10
86.751800000000003
 20
112.60599999999999
 30
0.0
 11
86.351500000000016
 21
112.60599999999999
 31
0.0
  0
LINE
  5
1A2
  8
_________1
 62
     7
 10
86.751800000000003
 20
108.60599999999999
 30
0.0
 11
86.351500000000016
 21
108.60599999999999
 31
0.0
  0
LINE
  5
1A3
  8
_________1
  6
AIGENLINE001
 62
     7
 10
88.148499999999984
 20
110.60599999999999
 30
0.0
 11
84.753999999999976
 21
110.60599999999999
 31
0.0
  0
LINE
  5
1A4
  8
_________1
 62
     7
 10
86.751800000000003
 20
108.60599999999999
 30
0.0
 11
86.751800000000003
 21
112.60599999999999
 31
0.0
  0
LINE
  5
1A5
  8
_________1
 62
     7
 10
86.751800000000003
 20
121.60599999999999
 30
0.0
 11
86.351500000000016
 21
121.60599999999999
 31
0.0
  0
LINE
  5
1A6
  8
_________1
 62
     7
 10
86.751800000000003
 20
117.60599999999999
 30
0.0
 11
86.351500000000016
 21
117.60599999999999
 31
0.0
  0
LINE
  5
1A7
  8
_________1
  6
AIGENLINE001
 62
     7
 10
88.148499999999984
 20
119.60599999999999
 30
0.0
 11
84.753999999999976
 21
119.60599999999999
 31
0.0
  0
LINE
  5
1A8
  8
_________1
 62
     7
 10
97.317999999999984
 20
113.60599999999999
 30
0.0
 11
82.302099999999996
 21
113.60599999999999
 31
0.0
  0
LINE
  5
1A9
  8
_________1
 62
     7
 10
97.317999999999984
 20
105.206
 30
0.0
 11
87.101900000000001
 21
105.206
 31
0.0
  0
INSERT
  5
1AA
  8
_________1
 62
     7
  2
AIGNBL02010006
 10
0.0
 20
0.0
 30
0.0
  0
LINE
  5
1AB
  8
_________1
 62
     7
 10
86.751800000000003
 20
80.492400000000004
 30
0.0
 11
86.751800000000003
 21
108.042
 31
0.0
  0
LINE
  5
1AC
  8
_________1
 62
     7
 10
83.351900000000001
 20
87.540099999999995
 30
0.0
 11
83.351900000000001
 21
103.657
 31
0.0
  0
INSERT
  5
1AD
  8
_________1
 62
     7
  2
AIGNBL02010007
 10
0.0
 20
0.0
 30
0.0
  0
LINE
  5
1AE
  8
_________1
 62
     7
 10
36.95130000000001
 20
87.540099999999995
 30
0.0
 11
36.95130000000001
 21
108.65900000000001
 31
0.0
  0
LINE
  5
1AF
  8
_________1
 62
     7
 10
71.951599999999999
 20
87.540099999999995
 30
0.0
 11
71.951599999999999
 21
105.506
 31
0.0
  0
LINE
  5
1B0
  8
_________1
  6
AIGENLINE002
 62
     7
 10
55.998999999999988
 20
100.044
 30
0.0
 11
54.9114
 21
100.551
 31
0.0
  0
ARC
  5
1B1
  8
_________1
  6
AIGENLINE002
 62
     7
 10
55.006605999999998
 20
100.736176
 30
0.0
 40
0.208302
 50
157.205544
 51
242.796415
  0
ARC
  5
1B2
  8
_________1
  6
AIGENLINE002
 62
     7
 10
56.079664000000001
 20
100.23494700000001
 30
0.0
 40
0.207474
 50
247.1217740000001
 51
333.05911200000003
  0
LINE
  5
1B3
  8
_________1
  6
AIGENLINE002
 62
     7
 10
63.067999999999998
 20
118.04300000000001
 30
0.0
 11
64.3369
 21
117.45099999999999
 31
0.0
  0
LINE
  5
1B4
  8
_________1
  6
AIGENLINE002
 62
     7
 10
62.802100000000003
 20
117.946
 30
0.0
 11
54.814599999999999
 21
100.81699999999999
 31
0.0
  0
ARC
  5
1B5
  8
_________1
  6
AIGENLINE002
 62
     7
 10
62.987242000000002
 20
117.851038
 30
0.0
 40
0.208097
 50
67.153250999999997
 51
152.8486879999999
  0
LINE
  5
1B6
  8
_________1
  6
AIGENLINE002
 62
     7
 10
64.3369
 20
117.45099999999999
 30
0.0
 11
56.264600000000002
 21
100.14100000000001
 31
0.0
  0
LINE
  5
1B7
  8
_________1
 62
     7
 10
80.651899999999983
 20
107.006
 30
0.0
 11
80.651899999999983
 21
105.206
 31
0.0
  0
LINE
  5
1B8
  8
_________1
 62
     7
 10
86.0518
 20
107.006
 30
0.0
 11
86.0518
 21
105.206
 31
0.0
  0
LINE
  5
1B9
  8
_________1
  6
AIGENLINE001
 62
     7
 10
83.351900000000001
 20
108.983
 30
0.0
 11
83.351900000000001
 21
104.357
 31
0.0
  0
LINE
  5
1BA
  8
_________1
 62
     7
 10
80.651899999999983
 20
105.206
 30
0.0
 11
86.0518
 21
105.206
 31
0.0
  0
LINE
  5
1BB
  8
_________1
 62
     7
 10
38.611499999999999
 20
111.60599999999999
 30
0.0
 11
35.0916
 21
111.60599999999999
 31
0.0
  0
LINE
  5
1BC
  8
_________1
  6
AIGENLINE001
 62
     7
 10
36.951599999999999
 20
112.968
 30
0.0
 11
36.951599999999999
 21
109.35899999999999
 31
0.0
  0
LINE
  5
1BD
  8
_________1
 62
     7
 10
33.951599999999999
 20
115.40600000000001
 30
0.0
 11
33.951599999999999
 21
111.801
 31
0.0
  0
LINE
  5
1BE
  8
_________1
 62
     7
 10
38.9512
 20
111.40300000000001
 30
0.0
 11
60.7515
 21
110.989
 31
0.0
  0
LINE
  5
1BF
  8
_________1
 62
     7
 10
34.146999999999998
 20
111.601
 30
0.0
 11
35.0916
 21
111.60599999999999
 31
0.0
  0
ARC
  5
1C0
  8
_________1
 62
     7
 10
34.159025
 20
111.80864800000001
 30
0.0
 40
0.207525
 50
182.031835
 51
266.66947900000002
  0
LINE
  5
1C1
  8
_________1
 62
     7
 10
34.151400000000002
 20
115.60599999999999
 30
0.0
 11
60.751899999999999
 21
115.60599999999999
 31
0.0
  0
ARC
  5
1C2
  8
_________1
 62
     7
 10
34.159511999999999
 20
115.39786599999999
 30
0.0
 40
0.208024
 50
92.221661999999995
 51
177.87700899999999
  0
LINE
  5
1C3
  8
_________1
 62
     7
 10
62.35179999999999
 20
98.405600000000007
 30
0.0
 11
60.7515
 21
98.405600000000007
 31
0.0
  0
LINE
  5
1C4
  8
_________1
 62
     7
 10
60.951700000000002
 20
117.506
 30
0.0
 11
60.951700000000002
 21
98.205500000000001
 31
0.0
  0
LINE
  5
1C5
  8
_________1
 62
     7
 10
60.951700000000002
 20
109.306
 30
0.0
 11
62.35179999999999
 21
109.306
 31
0.0
  0
LINE
  5
1C6
  8
_________1
 62
     7
 10
60.951700000000002
 20
109.706
 30
0.0
 11
62.35179999999999
 21
109.706
 31
0.0
  0
LINE
  5
1C7
  8
_________1
 62
     7
 10
60.7515
 20
98.405600000000007
 30
0.0
 11
60.7515
 21
109.90600000000001
 31
0.0
  0
LINE
  5
1C8
  8
_________1
 62
     7
 10
62.151600000000002
 20
98.205500000000001
 30
0.0
 11
60.951700000000002
 21
98.205500000000001
 31
0.0
  0
ARC
  5
1C9
  8
_________1
 62
     7
 10
60.959693999999992
 20
98.413273000000004
 30
0.0
 40
0.207947
 50
182.10341700000001
 51
267.797912
  0
LINE
  5
1CA
  8
_________1
 62
     7
 10
62.35179999999999
 20
98.405600000000007
 30
0.0
 11
62.35179999999999
 21
109.706
 31
0.0
  0
ARC
  5
1CB
  8
_________1
 62
     7
 10
62.143593999999993
 20
98.413685000000015
 30
0.0
 40
0.208361
 50
272.21258699999998
 51
357.78742299999999
  0
LINE
  5
1CC
  8
_________1
 62
     7
 10
70.887799999999984
 20
106.206
 30
0.0
 11
71.951599999999999
 21
106.206
 31
0.0
  0
ARC
  5
1CD
  8
_________1
 62
     7
 10
70.894886
 20
106.413488
 30
0.0
 40
0.207879
 50
186.379772
 51
268.03729499999997
  0
LINE
  5
1CE
  8
_________1
 62
     7
 10
70.887799999999984
 20
121.006
 30
0.0
 11
71.951599999999999
 21
121.006
 31
0.0
  0
ARC
  5
1CF
  8
_________1
 62
     7
 10
70.894092999999984
 20
120.799054
 30
0.0
 40
0.206997
 50
91.751437999999993
 51
173.83149599999999
  0
ARC
  5
1D0
  8
_________1
 62
     7
 10
147.99598399999999
 20
113.605842
 30
0.0
 40
77.643900000000002
 50
174.66880699999999
 51
185.33119300000001
  0
LINE
  5
1D1
  8
_________1
 62
     7
 10
-10.0463
 20
224.846
 30
0.0
 11
-10.0463
 21
225.04599999999999
 31
0.0
  0
LINE
  5
1D2
  8
_________1
 62
     7
 10
-23.246300000000002
 20
225.04599999999999
 30
0.0
 11
-23.246300000000002
 21
224.846
 31
0.0
  0
LINE
  5
1D3
  8
_________1
 62
     7
 10
-23.246300000000002
 20
225.04599999999999
 30
0.0
 11
-10.0463
 21
225.04599999999999
 31
0.0
  0
LINE
  5
1D4
  8
_________1
 62
     7
 10
72.151799999999994
 20
120.206
 30
0.0
 11
72.151799999999994
 21
107.006
 31
0.0
  0
LINE
  5
1D5
  8
_________1
 62
     7
 10
72.151799999999994
 20
120.206
 30
0.0
 11
71.951599999999999
 21
120.206
 31
0.0
  0
LINE
  5
1D6
  8
_________1
 62
     7
 10
72.151799999999994
 20
107.006
 30
0.0
 11
71.951599999999999
 21
107.006
 31
0.0
  0
LINE
  5
1D7
  8
_________1
 62
     7
 10
-30.046199999999999
 20
224.846
 30
0.0
 11
-30.046199999999999
 21
225.04599999999999
 31
0.0
  0
LINE
  5
1D8
  8
_________1
 62
     7
 10
-43.246600000000001
 20
225.04599999999999
 30
0.0
 11
-43.246600000000001
 21
224.846
 31
0.0
  0
LINE
  5
1D9
  8
_________1
 62
     7
 10
-43.246600000000001
 20
225.04599999999999
 30
0.0
 11
-30.046199999999999
 21
225.04599999999999
 31
0.0
  0
LINE
  5
1DA
  8
_________1
 62
     7
 10
-34.746400000000001
 20
228.04599999999999
 30
0.0
 11
-38.546399999999998
 21
228.04599999999999
 31
0.0
  0
LINE
  5
1DB
  8
_________1
 62
     7
 10
72.151799999999994
 20
108.706
 30
0.0
 11
79.351699999999994
 21
108.706
 31
0.0
  0
LINE
  5
1DC
  8
_________1
 62
     7
 10
72.151799999999994
 20
118.506
 30
0.0
 11
79.351699999999994
 21
118.506
 31
0.0
  0
LINE
  5
1DD
  8
_________1
  6
AIGENLINE001
 62
     7
 10
32.674199999999999
 20
113.60599999999999
 30
0.0
 11
80.853099999999984
 21
113.60599999999999
 31
0.0
  0
LINE
  5
1DE
  8
_________1
 62
     7
 10
62.35179999999999
 20
109.90600000000001
 30
0.0
 11
62.651899999999998
 21
109.90600000000001
 31
0.0
  0
LINE
  5
1DF
  8
_________1
 62
     7
 10
62.35179999999999
 20
117.306
 30
0.0
 11
62.651899999999998
 21
117.306
 31
0.0
  0
LINE
  5
1E0
  8
_________1
 62
     7
 10
60.951700000000002
 20
117.506
 30
0.0
 11
62.35179999999999
 21
117.506
 31
0.0
  0
LINE
  5
1E1
  8
_________1
 62
     7
 10
60.7515
 20
117.306
 30
0.0
 11
60.7515
 21
109.90600000000001
 31
0.0
  0
ARC
  5
1E2
  8
_________1
 62
     7
 10
60.959731999999988
 20
117.29787
 30
0.0
 40
0.208
 50
92.212011000000004
 51
177.78796
  0
LINE
  5
1E3
  8
_________1
 62
     7
 10
62.35179999999999
 20
117.506
 30
0.0
 11
62.35179999999999
 21
109.706
 31
0.0
  0
LINE
  5
1E4
  8
_________1
 62
     7
 10
70.4602
 20
117.706
 30
0.0
 11
62.651899999999998
 21
117.706
 31
0.0
  0
LINE
  5
1E5
  8
_________1
 62
     7
 10
70.4602
 20
109.505
 30
0.0
 11
62.651899999999998
 21
109.505
 31
0.0
  0
LINE
  5
1E6
  8
_________1
 62
     7
 10
62.651899999999998
 20
117.706
 30
0.0
 11
62.651899999999998
 21
109.505
 31
0.0
  0
LINE
  5
1E7
  8
_________1
 62
     7
 10
71.951599999999999
 20
121.006
 30
0.0
 11
71.951599999999999
 21
106.206
 31
0.0
  0
INSERT
  5
1E8
  8
_________1
 62
     7
  2
AIGNBL02010008
 10
0.0
 20
0.0
 30
0.0
  0
LINE
  5
1E9
  8
_________1
 62
     7
 10
-52.979399999999998
 20
186.84599999999989
 30
0.0
 11
-39.731499999999997
 21
186.84599999999989
 31
0.0
  0
LINE
  5
1EA
  8
_________1
 62
     7
 10
-52.979399999999998
 20
224.846
 30
0.0
 11
-44.546399999999998
 21
224.846
 31
0.0
  0
LINE
  5
1EB
  8
_________1
 62
     7
 10
-38.846499999999999
 20
232.24700000000001
 30
0.0
 11
-38.846499999999999
 21
239.24700000000001
 31
0.0
  0
LINE
  5
1EC
  8
_________1
 62
     7
 10
-34.746400000000001
 20
228.04599999999999
 30
0.0
 11
-34.546300000000002
 21
228.24600000000001
 31
0.0
  0
LINE
  5
1ED
  8
_________1
 62
     7
 10
-34.746400000000001
 20
230.24600000000001
 30
0.0
 11
-34.746400000000001
 21
228.04599999999999
 31
0.0
  0
LINE
  5
1EE
  8
_________1
 62
     7
 10
-38.546399999999998
 20
228.04599999999999
 30
0.0
 11
-38.746499999999997
 21
228.24600000000001
 31
0.0
  0
LINE
  5
1EF
  8
_________1
 62
     7
 10
-38.546399999999998
 20
230.24600000000001
 30
0.0
 11
-38.546399999999998
 21
228.04599999999999
 31
0.0
  0
LINE
  5
1F0
  8
_________1
 62
     7
 10
-38.4465
 20
225.04599999999999
 30
0.0
 11
-38.4465
 21
228.04599999999999
 31
0.0
  0
LINE
  5
1F1
  8
_________1
 62
     7
 10
-34.846299999999999
 20
225.04599999999999
 30
0.0
 11
-34.846299999999999
 21
228.04599999999999
 31
0.0
  0
LINE
  5
1F2
  8
_________1
 62
     7
 10
-34.546300000000002
 20
230.24600000000001
 30
0.0
 11
-34.546300000000002
 21
228.24600000000001
 31
0.0
  0
LINE
  5
1F3
  8
_________1
 62
     7
 10
-38.746499999999997
 20
230.24600000000001
 30
0.0
 11
-38.746499999999997
 21
228.24600000000001
 31
0.0
  0
LINE
  5
1F4
  8
_________1
 62
     7
 10
-34.546300000000002
 20
228.24600000000001
 30
0.0
 11
-38.746499999999997
 21
228.24600000000001
 31
0.0
  0
LINE
  5
1F5
  8
_________1
 62
     7
 10
-40.646500000000003
 20
232.24700000000001
 30
0.0
 11
-40.046399999999998
 21
232.24700000000001
 31
0.0
  0
LINE
  5
1F6
  8
_________1
 62
     7
 10
86.751800000000003
 20
117.60599999999999
 30
0.0
 11
86.751800000000003
 21
121.60599999999999
 31
0.0
  0
LINE
  5
1F7
  8
_________1
 62
     7
 10
85.551599999999979
 20
107.006
 30
0.0
 11
85.551599999999979
 21
122.40600000000001
 31
0.0
  0
LINE
  5
1F8
  8
_________1
 62
     7
 10
80.151700000000005
 20
107.006
 30
0.0
 11
80.151700000000005
 21
122.407
 31
0.0
  0
LINE
  5
1F9
  8
_________1
 62
     7
 10
79.351699999999994
 20
109.006
 30
0.0
 11
86.351500000000016
 21
109.006
 31
0.0
  0
LINE
  5
1FA
  8
_________1
 62
     7
 10
79.351699999999994
 20
107.806
 30
0.0
 11
79.351699999999994
 21
121.60599999999999
 31
0.0
  0
LINE
  5
1FB
  8
_________1
 62
     7
 10
80.151700000000005
 20
122.40600000000001
 30
0.0
 11
85.551599999999979
 21
122.40600000000001
 31
0.0
  0
ARC
  5
1FC
  8
_________1
 62
     7
 10
80.182282999999998
 20
121.575498
 30
0.0
 40
0.8311149999999999
 50
92.109700000000004
 51
177.89027100000001
  0
ARC
  5
1FD
  8
_________1
 62
     7
 10
85.520977000000002
 20
121.575508
 30
0.0
 40
0.8311049999999999
 50
2.109065999999999
 51
87.890924999999996
  0
LINE
  5
1FE
  8
_________1
 62
     7
 10
80.151700000000005
 20
107.006
 30
0.0
 11
85.551599999999979
 21
107.006
 31
0.0
  0
ARC
  5
1FF
  8
_________1
 62
     7
 10
80.182282999999998
 20
107.83623900000001
 30
0.0
 40
0.8311149999999999
 50
182.10972899999999
 51
267.89030000000002
  0
LINE
  5
200
  8
_________1
 62
     7
 10
86.351500000000016
 20
107.806
 30
0.0
 11
86.351500000000016
 21
121.60599999999999
 31
0.0
  0
ARC
  5
201
  8
_________1
 62
     7
 10
85.520977000000002
 20
107.836229
 30
0.0
 40
0.8311049999999999
 50
272.10907500000002
 51
357.89093400000002
  0
LINE
  5
202
  8
_________1
 62
     7
 10
81.352000000000004
 20
107.006
 30
0.0
 11
81.352000000000004
 21
122.40600000000001
 31
0.0
  0
LINE
  5
203
  8
_________1
 62
     7
 10
-9.8461499999999997
 20
239.64599999999999
 30
0.0
 11
-13.846299999999999
 21
239.64599999999999
 31
0.0
  0
LINE
  5
204
  8
_________1
 62
     7
 10
-27.446200000000001
 20
239.64599999999999
 30
0.0
 11
-31.446300000000001
 21
239.64599999999999
 31
0.0
  0
LINE
  5
205
  8
_________1
 62
     7
 10
-32.646299999999997
 20
230.24600000000001
 30
0.0
 11
-40.646500000000003
 21
230.24600000000001
 31
0.0
  0
LINE
  5
206
  8
_________1
 62
     7
 10
-32.646299999999997
 20
230.24600000000001
 30
0.0
 11
-32.646299999999997
 21
232.24700000000001
 31
0.0
  0
LINE
  5
207
  8
_________1
 62
     7
 10
-40.646500000000003
 20
230.24600000000001
 30
0.0
 11
-40.646500000000003
 21
232.24700000000001
 31
0.0
  0
LINE
  5
208
  8
_________1
 62
     7
 10
-21.546500000000002
 20
225.04599999999999
 30
0.0
 11
-21.546500000000002
 21
232.24700000000001
 31
0.0
  0
LINE
  5
209
  8
_________1
 62
     7
 10
-11.7461
 20
225.04599999999999
 30
0.0
 11
-11.7461
 21
232.24700000000001
 31
0.0
  0
LINE
  5
20A
  8
_________1
 62
     7
 10
-40.846299999999992
 20
233.047
 30
0.0
 11
-40.846299999999992
 21
238.447
 31
0.0
  0
ARC
  5
20B
  8
_________1
 62
     7
 10
-40.015791999999998
 20
233.07710399999999
 30
0.0
 40
0.8311149999999999
 50
182.10972899999999
 51
267.89030000000002
  0
ARC
  5
20C
  8
_________1
 62
     7
 10
-40.015802000000001
 20
238.41597100000001
 30
0.0
 40
0.8311049999999999
 50
92.109037999999998
 51
177.89093199999999
  0
LINE
  5
20D
  8
_________1
 62
     7
 10
-4.8462500000000004
 20
238.447
 30
0.0
 11
-40.846299999999992
 21
238.447
 31
0.0
  0
LINE
  5
20E
  8
_________1
 62
     7
 10
-4.8462500000000004
 20
233.047
 30
0.0
 11
-40.846699999999998
 21
233.047
 31
0.0
  0
LINE
  5
20F
  8
_________1
 62
     7
 10
-6.8461399999999992
 20
232.24700000000001
 30
0.0
 11
-6.8461399999999992
 21
239.24700000000001
 31
0.0
  0
LINE
  5
210
  8
_________1
 62
     7
 10
-31.446300000000001
 20
239.24700000000001
 30
0.0
 11
-31.446300000000001
 21
239.64599999999999
 31
0.0
  0
LINE
  5
211
  8
_________1
  6
AIGENLINE001
 62
     7
 10
-29.4465
 20
238.48500000000001
 30
0.0
 11
-29.4465
 21
240.75200000000001
 31
0.0
  0
LINE
  5
212
  8
_________1
 62
     7
 10
-27.446200000000001
 20
239.24700000000001
 30
0.0
 11
-27.446200000000001
 21
239.64599999999999
 31
0.0
  0
LINE
  5
213
  8
_________1
 62
     7
 10
-13.846299999999999
 20
239.24700000000001
 30
0.0
 11
-13.846299999999999
 21
239.64599999999999
 31
0.0
  0
LINE
  5
214
  8
_________1
  6
AIGENLINE001
 62
     7
 10
-11.846
 20
238.48500000000001
 30
0.0
 11
-11.846
 21
240.75200000000001
 31
0.0
  0
LINE
  5
215
  8
_________1
 62
     7
 10
-9.8461499999999997
 20
239.24700000000001
 30
0.0
 11
-9.8461499999999997
 21
239.64599999999999
 31
0.0
  0
LINE
  5
216
  8
_________1
 62
     7
 10
-5.6462000000000003
 20
232.24700000000001
 30
0.0
 11
-40.046399999999998
 21
232.24700000000001
 31
0.0
  0
LINE
  5
217
  8
_________1
 62
     7
 10
-4.8462500000000004
 20
233.047
 30
0.0
 11
-4.8462500000000004
 21
238.447
 31
0.0
  0
ARC
  5
218
  8
_________1
 62
     7
 10
-5.6767890000000003
 20
233.07709399999999
 30
0.0
 40
0.8311049999999999
 50
272.10907500000002
 51
357.89093400000002
  0
LINE
  5
219
  8
_________1
 62
     7
 10
-5.6462000000000003
 20
239.24700000000001
 30
0.0
 11
-40.046399999999998
 21
239.24700000000001
 31
0.0
  0
ARC
  5
21A
  8
_________1
 62
     7
 10
-5.676798999999999
 20
238.41596100000001
 30
0.0
 40
0.8311159999999999
 50
2.109726999999999
 51
87.890263000000004
  0
LINE
  5
21B
  8
_________1
 62
     7
 10
-4.8462500000000004
 20
234.24700000000001
 30
0.0
 11
-40.846299999999992
 21
234.24700000000001
 31
0.0
  0
LINE
  5
21C
  8
_________1
 62
     7
 10
11.5215
 20
224.846
 30
0.0
 11
-8.7461199999999995
 21
224.846
 31
0.0
  0
LINE
  5
21D
  8
_________1
  6
AIGENLINE001
 62
     7
 10
-36.6464
 20
185.56899999999999
 30
0.0
 11
-36.6464
 21
233.74799999999999
 31
0.0
  0
LINE
  5
21E
  8
_________1
 62
     7
 10
-34.144199999999998
 20
187.244
 30
0.0
 11
-33.9465
 21
223.24600000000001
 31
0.0
  0
LINE
  5
21F
  8
_________1
 62
     7
 10
-38.748600000000003
 20
186.84599999999989
 30
0.0
 11
-34.544199999999996
 21
186.84599999999989
 31
0.0
  0
ARC
  5
220
  8
_________1
 62
     7
 10
-34.560122999999997
 20
187.262294
 30
0.0
 40
0.416319
 50
272.193198
 51
357.46031600000009
  0
LINE
  5
221
  8
_________1
 62
     7
 10
-39.148899999999998
 20
187.244
 30
0.0
 11
-39.346299999999999
 21
223.24600000000001
 31
0.0
  0
ARC
  5
222
  8
_________1
 62
     7
 10
-38.733711
 20
187.26161499999989
 30
0.0
 40
0.4156030000000001
 50
182.45048399999999
 51
267.94537000000003
  0
LINE
  5
223
  8
_________1
 62
     7
 10
-20.346499999999999
 20
215.24600000000001
 30
0.0
 11
-20.346499999999999
 21
215.54599999999999
 31
0.0
  0
LINE
  5
224
  8
_________1
 62
     7
 10
-12.946400000000001
 20
215.24600000000001
 30
0.0
 11
-12.946400000000001
 21
215.54599999999999
 31
0.0
  0
LINE
  5
225
  8
_________1
 62
     7
 10
-12.7462
 20
213.846
 30
0.0
 11
-12.7462
 21
215.24600000000001
 31
0.0
  0
LINE
  5
226
  8
_________1
 62
     7
 10
-12.946400000000001
 20
213.64599999999999
 30
0.0
 11
-20.346499999999999
 21
213.64599999999999
 31
0.0
  0
ARC
  5
227
  8
_________1
 62
     7
 10
-12.954438
 20
213.85456400000001
 30
0.0
 40
0.208355
 50
272.20930700000002
 51
357.74137300000001
  0
LINE
  5
228
  8
_________1
 62
     7
 10
-20.546299999999999
 20
213.846
 30
0.0
 11
-20.546299999999999
 21
215.24600000000001
 31
0.0
  0
ARC
  5
229
  8
_________1
 62
     7
 10
-20.338702000000001
 20
213.85398900000001
 30
0.0
 40
0.207773
 50
182.10643099999999
 51
267.84422699999999
  0
LINE
  5
22A
  8
_________1
 62
     7
 10
-12.7462
 20
215.24600000000001
 30
0.0
 11
-20.546299999999999
 21
215.24600000000001
 31
0.0
  0
LINE
  5
22B
  8
_________1
 62
     7
 10
-12.5464
 20
223.24600000000001
 30
0.0
 11
-12.5464
 21
215.54599999999999
 31
0.0
  0
LINE
  5
22C
  8
_________1
 62
     7
 10
-20.746500000000001
 20
223.24600000000001
 30
0.0
 11
-20.746500000000001
 21
215.54599999999999
 31
0.0
  0
LINE
  5
22D
  8
_________1
 62
     7
 10
-12.5464
 20
215.54599999999999
 30
0.0
 11
-20.746500000000001
 21
215.54599999999999
 31
0.0
  0
LINE
  5
22E
  8
_________1
 62
     7
 10
-9.4461700000000004
 20
223.447
 30
0.0
 11
-9.4461700000000004
 21
224.846
 31
0.0
  0
LINE
  5
22F
  8
_________1
 62
     7
 10
-9.6463300000000007
 20
223.24700000000001
 30
0.0
 11
-43.646500000000003
 21
223.24700000000001
 31
0.0
  0
ARC
  5
230
  8
_________1
 62
     7
 10
-9.6543600000000005
 20
223.45472699999999
 30
0.0
 40
0.208355
 50
272.20930700000002
 51
357.74137300000001
  0
LINE
  5
231
  8
_________1
 62
     7
 10
-43.846400000000003
 20
223.447
 30
0.0
 11
-43.846400000000003
 21
224.846
 31
0.0
  0
ARC
  5
232
  8
_________1
 62
     7
 10
-43.638719000000002
 20
223.45415299999999
 30
0.0
 40
0.207773
 50
182.10643099999999
 51
267.84422699999999
  0
LINE
  5
233
  8
_________1
 62
     7
 10
-9.4461700000000004
 20
224.846
 30
0.0
 11
-43.846400000000003
 21
224.846
 31
0.0
  0
LINE
  5
234
  8
_________1
  6
AIGENLINE001
 62
     7
 10
-16.6465
 20
211.98699999999999
 30
0.0
 11
-16.6465
 21
233.77699999999999
 31
0.0
  0
LINE
  5
235
  8
_________1
 62
     7
 10
-59.6663
 20
106.206
 30
0.0
 11
-44.467500000000001
 21
106.206
 31
0.0
  0
INSERT
  5
236
  8
_________1
 62
     7
  2
AIGNBL02010009
 10
0.0
 20
0.0
 30
0.0
  0
INSERT
  5
237
  8
_________1
 62
     7
  2
AIGNBL0201000A
 10
0.0
 20
0.0
 30
0.0
  0
LINE
  5
238
  8
_________1
 62
     7
 10
-52.890799999999999
 20
119.60599999999999
 30
0.0
 11
-31.957899999999999
 21
119.60599999999999
 31
0.0
  0
LINE
  5
239
  8
_________1
 62
     7
 10
-52.890799999999999
 20
110.60599999999999
 30
0.0
 11
-31.957899999999999
 21
110.60599999999999
 31
0.0
  0
LINE
  5
23A
  8
_________1
 62
     7
 10
-52.890799999999999
 20
113.60599999999999
 30
0.0
 11
-45.8352
 21
113.60599999999999
 31
0.0
  0
LINE
  5
23B
  8
_________1
 62
     7
 10
-59.6663
 20
122.40600000000001
 30
0.0
 11
-40.318600000000004
 21
122.40600000000001
 31
0.0
  0
LINE
  5
23C
  8
_________1
 62
     7
 10
-59.6663
 20
121.006
 30
0.0
 11
-44.467500000000001
 21
121.006
 31
0.0
  0
LINE
  5
23D
  8
_________1
 62
     7
 10
-23.1464
 20
86.584100000000007
 30
0.0
 11
-10.1462
 21
86.584100000000007
 31
0.0
  0
LINE
  5
23E
  8
_________1
 62
     7
 10
87.663799999999995
 20
99.130799999999994
 30
0.0
 11
85.452000000000012
 21
98.538300000000021
 31
0.0
  0
LINE
  5
23F
  8
_________1
 62
     7
 10
85.452000000000012
 20
98.538300000000021
 30
0.0
 11
87.663799999999995
 21
97.945700000000002
 31
0.0
  0
LINE
  5
240
  8
_________1
 62
     7
 10
87.663799999999995
 20
97.945700000000002
 30
0.0
 11
87.663799999999995
 21
99.130799999999994
 31
0.0
  0
LINE
  5
241
  8
_________1
 62
     7
 10
79.039900000000003
 20
97.945700000000002
 30
0.0
 11
81.2517
 21
98.538300000000021
 31
0.0
  0
LINE
  5
242
  8
_________1
 62
     7
 10
81.2517
 20
98.538300000000021
 30
0.0
 11
79.039900000000003
 21
99.130799999999994
 31
0.0
  0
LINE
  5
243
  8
_________1
 62
     7
 10
79.039900000000003
 20
99.130799999999994
 30
0.0
 11
79.039900000000003
 21
97.945700000000002
 31
0.0
  0
LINE
  5
244
  8
_________1
 62
     7
 10
72.594099999999983
 20
98.538300000000021
 30
0.0
 11
89.015299999999996
 21
98.538300000000021
 31
0.0
  0
LINE
  5
245
  8
_________1
 62
     7
 10
81.2517
 20
97.838200000000001
 30
0.0
 11
81.2517
 21
104.506
 31
0.0
  0
LINE
  5
246
  8
_________1
 62
     7
 10
85.452000000000012
 20
97.838200000000001
 30
0.0
 11
85.452000000000012
 21
104.506
 31
0.0
  0
LINE
  5
247
  8
_________1
 62
     7
 10
-10.1462
 20
103.57599999999999
 30
0.0
 11
-10.1462
 21
85.884
 31
0.0
  0
LINE
  5
248
  8
_________1
 62
     7
 10
-23.1464
 20
103.57599999999999
 30
0.0
 11
-23.1464
 21
85.884
 31
0.0
  0
INSERT
  5
249
  8
_________1
 62
     7
  2
AIGNBL0201000B
 10
0.0
 20
0.0
 30
0.0
  0
LINE
  5
24A
  8
_________1
 62
     7
 10
-12.2464
 20
92.394599999999997
 30
0.0
 11
-12.2464
 21
104.46899999999999
 31
0.0
  0
LINE
  5
24B
  8
_________1
 62
     7
 10
-8.0460700000000003
 20
92.394599999999997
 30
0.0
 11
-8.0460700000000003
 21
104.46899999999999
 31
0.0
  0
LINE
  5
24C
  8
_________1
 62
     7
 10
-34.8994
 20
93.094599999999986
 30
0.0
 11
-18.0596
 21
93.094599999999986
 31
0.0
  0
LINE
  5
24D
  8
_________1
 62
     7
 10
-25.246500000000001
 20
92.394599999999997
 30
0.0
 11
-25.246500000000001
 21
104.46899999999999
 31
0.0
  0
LINE
  5
24E
  8
_________1
 62
     7
 10
-21.046199999999999
 20
92.394599999999997
 30
0.0
 11
-21.046199999999999
 21
104.46899999999999
 31
0.0
  0
LINE
  5
24F
  8
_________1
 62
     7
 10
-4.2461099999999989
 20
232.24700000000001
 30
0.0
 11
11.5215
 21
232.24700000000001
 31
0.0
  0
LINE
  5
250
  8
_________1
 62
     7
 10
-4.2461099999999989
 20
239.64699999999999
 30
0.0
 11
11.5215
 21
239.64699999999999
 31
0.0
  0
INSERT
  5
251
  8
_________1
 62
     7
  2
AIGNBL0201000C
 10
0.0
 20
0.0
 30
0.0
  0
INSERT
  5
252
  8
_________1
 62
     7
  2
AIGNBL0201000D
 10
0.0
 20
0.0
 30
0.0
  0
LINE
  5
253
  8
_________1
 62
     7
 10
-14.8185
 20
98.205500000000001
 30
0.0
 11
12.8293
 21
98.205500000000001
 31
0.0
  0
LINE
  5
254
  8
_________1
 62
     7
 10
-7.4004599999999998
 20
113.60599999999999
 30
0.0
 11
0.768261
 21
113.60599999999999
 31
0.0
  0
LINE
  5
255
  8
_________1
 62
     7
 10
5.9324899999999996
 20
113.60599999999999
 30
0.0
 11
12.8293
 21
113.60599999999999
 31
0.0
  0
INSERT
  5
256
  8
_________1
 62
     7
  2
AIGNBL0201000E
 10
0.0
 20
0.0
 30
0.0
  0
LINE
  5
257
  8
_________1
 62
     7
 10
-5.5962500000000004
 20
107.006
 30
0.0
 11
5.7902100000000001
 21
107.006
 31
0.0
  0
LINE
  5
258
  8
_________1
 62
     7
 10
-5.5962500000000004
 20
122.40600000000001
 30
0.0
 11
5.7902100000000001
 21
122.40600000000001
 31
0.0
  0
INSERT
  5
259
  8
_________1
 62
     7
  2
AIGNBL0201000F
 10
0.0
 20
0.0
 30
0.0
  0
INSERT
  5
25A
  8
_________1
 62
     7
  2
AIGNBL02010010
 10
0.0
 20
0.0
 30
0.0
  0
INSERT
  5
25B
  8
_________1
 62
     7
  2
AIGNBL02010011
 10
0.0
 20
0.0
 30
0.0
  0
LINE
  5
25C
  8
_________1
 62
     7
 10
-43.846400000000003
 20
152.81100000000001
 30
0.0
 11
-43.846400000000003
 21
122.069
 31
0.0
  0
LINE
  5
25D
  8
_________1
 62
     7
 10
-9.4461700000000004
 20
145.57499999999999
 30
0.0
 11
-9.4461700000000004
 21
121.589
 31
0.0
  0
INSERT
  5
25E
  8
_________1
 62
     7
  2
AIGNBL02010012
 10
0.0
 20
0.0
 30
0.0
  0
INSERT
  5
25F
  8
_________1
 62
     7
  2
AIGNBL02010013
 10
0.0
 20
0.0
 30
0.0
  0
INSERT
  5
260
  8
_________1
 62
     7
  2
AIGNBL02010014
 10
0.0
 20
0.0
 30
0.0
  0
LINE
  5
261
  8
_________1
 62
     7
 10
-40.846299999999992
 20
152.81100000000001
 30
0.0
 11
-40.846299999999992
 21
142.21100000000001
 31
0.0
  0
LINE
  5
262
  8
_________1
 62
     7
 10
-40.846299999999992
 20
137.209
 30
0.0
 11
-40.846299999999992
 21
121.96599999999999
 31
0.0
  0
LINE
  5
263
  8
_________1
 62
     7
 10
-4.8462500000000004
 20
152.81100000000001
 30
0.0
 11
-4.8462500000000004
 21
122.069
 31
0.0
  0
LINE
  5
264
  8
_________1
 62
     7
 10
-12.0465
 20
131.53
 30
0.0
 11
-12.0465
 21
121.242
 31
0.0
  0
LINE
  5
265
  8
_________1
 62
     7
 10
-29.646599999999999
 20
131.53
 30
0.0
 11
-29.646599999999999
 21
121.947
 31
0.0
  0
LINE
  5
266
  8
_________1
 62
     7
 10
-36.6464
 20
138.67400000000001
 30
0.0
 11
-36.6464
 21
117.455
 31
0.0
  0
LINE
  5
267
  8
_________1
 62
     7
 10
-16.6465
 20
138.67400000000001
 30
0.0
 11
-16.6465
 21
119.36199999999999
 31
0.0
  0
LINE
  5
268
  8
_________1
 62
     7
 10
-12.8462
 20
105.206
 30
0.0
 11
-12.8462
 21
106.206
 31
0.0
  0
LINE
  5
269
  8
_________1
 62
     7
 10
-7.4462799999999998
 20
105.206
 30
0.0
 11
-12.8462
 21
105.206
 31
0.0
  0
LINE
  5
26A
  8
_________1
 62
     7
 10
-7.4462799999999998
 20
105.206
 30
0.0
 11
-7.4462799999999998
 21
107.006
 31
0.0
  0
LINE
  5
26B
  8
_________1
  6
AIGENLINE001
 62
     7
 10
-10.1462
 20
104.276
 30
0.0
 11
-10.1462
 21
107.083
 31
0.0
  0
LINE
  5
26C
  8
_________1
 62
     7
 10
-25.846299999999999
 20
105.206
 30
0.0
 11
-25.846299999999999
 21
106.206
 31
0.0
  0
LINE
  5
26D
  8
_________1
 62
     7
 10
-20.446400000000001
 20
105.206
 30
0.0
 11
-25.846299999999999
 21
105.206
 31
0.0
  0
LINE
  5
26E
  8
_________1
 62
     7
 10
-20.446400000000001
 20
105.206
 30
0.0
 11
-20.446400000000001
 21
106.206
 31
0.0
  0
LINE
  5
26F
  8
_________1
  6
AIGENLINE001
 62
     7
 10
-23.1464
 20
104.276
 30
0.0
 11
-23.1464
 21
107.083
 31
0.0
  0
LINE
  5
270
  8
_________1
  6
AIGENLINE001
 62
     7
 10
-36.6464
 20
109.65000000000001
 30
0.0
 11
-36.6464
 21
116.755
 31
0.0
  0
LINE
  5
271
  8
_________1
 62
     7
 10
-34.7864
 20
111.206
 30
0.0
 11
-34.7864
 21
111.60599999999999
 31
0.0
  0
LINE
  5
272
  8
_________1
 62
     7
 10
-38.506399999999999
 20
111.206
 30
0.0
 11
-38.506399999999999
 21
111.60599999999999
 31
0.0
  0
LINE
  5
273
  8
_________1
 62
     7
 10
-38.506399999999999
 20
111.206
 30
0.0
 11
-34.7864
 21
111.206
 31
0.0
  0
LINE
  5
274
  8
_________1
 62
     7
 10
-34.146299999999997
 20
115.206
 30
0.0
 11
-34.146299999999997
 21
112.006
 31
0.0
  0
LINE
  5
275
  8
_________1
 62
     7
 10
-38.746200000000002
 20
111.60599999999999
 30
0.0
 11
-34.546300000000002
 21
111.60599999999999
 31
0.0
  0
ARC
  5
276
  8
_________1
 62
     7
 10
-34.561579999999999
 20
112.020895
 30
0.0
 40
0.41557
 50
272.11303500000002
 51
357.93630400000001
  0
LINE
  5
277
  8
_________1
 62
     7
 10
-39.1462
 20
115.206
 30
0.0
 11
-39.1462
 21
112.006
 31
0.0
  0
ARC
  5
278
  8
_________1
 62
     7
 10
-38.730564000000001
 20
112.021209
 30
0.0
 40
0.415896
 50
182.105391
 51
267.84530999999998
  0
ARC
  5
279
  8
_________1
 62
     7
 10
-34.561546
 20
115.190467
 30
0.0
 40
0.415548
 50
2.108404999999999
 51
87.891584999999992
  0
ARC
  5
27A
  8
_________1
 62
     7
 10
-38.730911999999996
 20
115.190467
 30
0.0
 40
0.4155470000000001
 50
92.108378000000002
 51
177.891592
  0
LINE
  5
27B
  8
_________1
 62
     7
 10
-33.9465
 20
115.206
 30
0.0
 11
-33.9465
 21
111.822
 31
0.0
  0
ARC
  5
27C
  8
_________1
 62
     7
 10
-34.353240999999997
 20
111.825943
 30
0.0
 40
0.4067980000000001
 50
300.58111700000001
 51
359.43916100000001
  0
LINE
  5
27D
  8
_________1
 62
     7
 10
-39.346299999999999
 20
115.206
 30
0.0
 11
-39.346299999999999
 21
111.822
 31
0.0
  0
ARC
  5
27E
  8
_________1
 62
     7
 10
-38.938986999999997
 20
111.826274
 30
0.0
 40
0.407376
 50
180.6067129999999
 51
239.37304900000001
  0
ARC
  5
27F
  8
_________1
 62
     7
 10
-36.646228999999998
 20
115.922512
 30
0.0
 40
5.1016379999999986
 50
240.65754100000001
 51
299.34247900000003
  0
LINE
  5
280
  8
_________1
 62
     7
 10
-38.946399999999997
 20
115.60599999999999
 30
0.0
 11
-34.346400000000003
 21
115.60599999999999
 31
0.0
  0
ARC
  5
281
  8
_________1
 62
     7
 10
-34.361728999999997
 20
115.190467
 30
0.0
 40
0.415548
 50
2.108404999999999
 51
87.891584999999992
  0
ARC
  5
282
  8
_________1
 62
     7
 10
-38.931063999999999
 20
115.19045699999999
 30
0.0
 40
0.415558
 50
92.109700000000004
 51
177.89027100000001
  0
LINE
  5
283
  8
_________1
 62
     7
 10
-5.6462000000000003
 20
109.006
 30
0.0
 11
-4.8462500000000004
 21
109.006
 31
0.0
  0
LINE
  5
284
  8
_________1
 62
     7
 10
-6.8461399999999992
 20
107.806
 30
0.0
 11
-6.8461399999999992
 21
107.006
 31
0.0
  0
LINE
  5
285
  8
_________1
 62
     7
 10
-38.846499999999999
 20
122.40600000000001
 30
0.0
 11
-38.846499999999999
 21
121.60599999999999
 31
0.0
  0
LINE
  5
286
  8
_________1
 62
     7
 10
-6.8461399999999992
 20
122.40600000000001
 30
0.0
 11
-6.8461399999999992
 21
121.60599999999999
 31
0.0
  0
LINE
  5
287
  8
_________1
 62
     7
 10
-5.6462000000000003
 20
120.40600000000001
 30
0.0
 11
-4.8462500000000004
 21
120.40600000000001
 31
0.0
  0
LINE
  5
288
  8
_________1
 62
     7
 10
-6.8461399999999992
 20
121.60599999999999
 30
0.0
 11
-38.846499999999999
 21
121.60599999999999
 31
0.0
  0
ARC
  5
289
  8
_________1
 62
     7
 10
-38.83231
 20
120.38113300000001
 30
0.0
 40
1.2246980000000001
 50
90.661659999999983
 51
149.24891600000001
  0
LINE
  5
28A
  8
_________1
 62
     7
 10
-6.8461399999999992
 20
107.806
 30
0.0
 11
-9.4461700000000004
 21
107.806
 31
0.0
  0
LINE
  5
28B
  8
_________1
 62
     7
 10
-5.6462000000000003
 20
109.006
 30
0.0
 11
-5.6462000000000003
 21
120.40600000000001
 31
0.0
  0
ARC
  5
28C
  8
_________1
 62
     7
 10
-6.8920459999999997
 20
109.051473
 30
0.0
 40
1.2466749999999991
 50
272.11039499999998
 51
357.90606200000002
  0
ARC
  5
28D
  8
_________1
 62
     7
 10
-6.8920209999999997
 20
120.359931
 30
0.0
 40
1.246662999999999
 50
2.1092859999999991
 51
87.890703999999985
  0
LINE
  5
28E
  8
_________1
 62
     7
 10
-6.8461399999999992
 20
107.006
 30
0.0
 11
-9.4461700000000004
 21
107.006
 31
0.0
  0
LINE
  5
28F
  8
_________1
 62
     7
 10
-4.8462500000000004
 20
109.006
 30
0.0
 11
-4.8462500000000004
 21
120.40600000000001
 31
0.0
  0
ARC
  5
290
  8
_________1
 62
     7
 10
-6.8463099999999999
 20
109.00575000000001
 30
0.0
 40
2.000062999999999
 50
270.004954
 51
0.004925
  0
LINE
  5
291
  8
_________1
 62
     7
 10
-6.8461399999999992
 20
122.40600000000001
 30
0.0
 11
-38.846499999999999
 21
122.40600000000001
 31
0.0
  0
ARC
  5
292
  8
_________1
 62
     7
 10
-38.805009000000013
 20
120.349907
 30
0.0
 40
2.0565599999999988
 50
91.154691999999969
 51
161.478396
  0
ARC
  5
293
  8
_________1
 62
     7
 10
-6.8463099999999999
 20
120.405987
 30
0.0
 40
2.000062999999999
 50
359.99507499999999
 51
89.995045999999988
  0
LINE
  5
294
  8
_________1
 62
     7
 10
-17.6462
 20
106.206
 30
0.0
 11
-43.446399999999997
 21
106.206
 31
0.0
  0
LINE
  5
295
  8
_________1
 62
     7
 10
-9.8461499999999997
 20
106.206
 30
0.0
 11
-15.6463
 21
106.206
 31
0.0
  0
LINE
  5
296
  8
_________1
 62
     7
 10
-9.4461700000000004
 20
106.60599999999999
 30
0.0
 11
-9.4461700000000004
 21
120.60599999999999
 31
0.0
  0
ARC
  5
297
  8
_________1
 62
     7
 10
-9.8614429999999995
 20
106.62100700000001
 30
0.0
 40
0.415558
 50
272.109737
 51
357.89027299999998
  0
LINE
  5
298
  8
_________1
 62
     7
 10
-9.8461499999999997
 20
121.006
 30
0.0
 11
-43.446399999999997
 21
121.006
 31
0.0
  0
ARC
  5
299
  8
_________1
 62
     7
 10
-9.8617819999999998
 20
120.59035299999999
 30
0.0
 40
0.415896
 50
2.105388
 51
87.845272999999978
  0
LINE
  5
29A
  8
_________1
 62
     7
 10
-43.846400000000003
 20
106.60599999999999
 30
0.0
 11
-43.846400000000003
 21
120.60599999999999
 31
0.0
  0
ARC
  5
29B
  8
_________1
 62
     7
 10
-43.431060999999993
 20
120.590677
 30
0.0
 40
0.4155600000000001
 50
92.111677
 51
177.937623
  0
ARC
  5
29C
  8
_________1
 62
     7
 10
-43.431075999999997
 20
106.62100700000001
 30
0.0
 40
0.415558
 50
182.10972899999999
 51
267.89030000000002
  0
LINE
  5
29D
  8
_________1
  6
AIGENLINE001
 62
     7
 10
-16.6465
 20
97.077200000000005
 30
0.0
 11
-16.6465
 21
118.66200000000001
 31
0.0
  0
LINE
  5
29E
  8
_________1
  6
AIGENLINE001
 62
     7
 10
-8.2903300000000009
 20
113.60599999999999
 30
0.0
 11
-45.002499999999998
 21
113.60599999999999
 31
0.0
  0
LINE
  5
29F
  8
_________1
 62
     7
 10
-15.6463
 20
109.32899999999999
 30
0.0
 11
-15.6463
 21
98.405600000000007
 31
0.0
  0
LINE
  5
2A0
  8
_________1
 62
     7
 10
-17.446400000000001
 20
98.205500000000001
 30
0.0
 11
-15.8462
 21
98.205500000000001
 31
0.0
  0
ARC
  5
2A1
  8
_________1
 62
     7
 10
-15.854226000000001
 20
98.413347000000002
 30
0.0
 40
0.208024
 50
272.22168199999999
 51
357.877028
  0
LINE
  5
2A2
  8
_________1
 62
     7
 10
-17.6462
 20
109.32899999999999
 30
0.0
 11
-17.6462
 21
98.405600000000007
 31
0.0
  0
ARC
  5
2A3
  8
_________1
 62
     7
 10
-17.438427999999998
 20
98.413273000000004
 30
0.0
 40
0.207947
 50
182.10341700000001
 51
267.797912
  0
LINE
  5
2A4
  8
_________1
 62
     7
 10
-17.446400000000001
 20
98.405600000000007
 30
0.0
 11
-15.8462
 21
98.405600000000007
 31
0.0
  0
LINE
  5
2A5
  8
_________1
 62
     7
 10
-15.8462
 20
109.32899999999999
 30
0.0
 11
-15.8462
 21
98.405600000000007
 31
0.0
  0
ARC
  5
2A6
  8
_________1
 62
     7
 10
-15.228569999999999
 20
109.316587
 30
0.0
 40
0.617718
 50
109.3012639999999
 51
178.84169900000001
  0
LINE
  5
2A7
  8
_________1
 62
     7
 10
-17.446400000000001
 20
109.32899999999999
 30
0.0
 11
-17.446400000000001
 21
98.405600000000007
 31
0.0
  0
ARC
  5
2A8
  8
_________1
 62
     7
 10
-18.063518999999999
 20
109.31694299999999
 30
0.0
 40
0.6172200000000001
 50
1.126174999999999
 51
70.730820999999992
  0
ARC
  5
2A9
  8
_________1
 62
     7
 10
-15.234802999999999
 20
109.320761
 30
0.0
 40
0.4116260000000001
 50
109.232106
 51
178.842828
  0
ARC
  5
2AA
  8
_________1
 62
     7
 10
-18.057490999999999
 20
109.32096799999999
 30
0.0
 40
0.4113360000000001
 50
1.129116999999999
 51
70.795909999999992
  0
ARC
  5
2AB
  8
_________1
 62
     7
 10
-16.752428999999999
 20
113.682956
 30
0.0
 40
4.0069259999999991
 50
289.22934299999997
 51
358.89726400000012
  0
ARC
  5
2AC
  8
_________1
 62
     7
 10
-16.646291000000002
 20
113.60566900000001
 30
0.0
 40
3.9000460000000001
 50
0.002541
 51
90.002510999999984
  0
ARC
  5
2AD
  8
_________1
 62
     7
 10
-16.646460999999999
 20
113.605842
 30
0.0
 40
3.8998729999999999
 50
90.0
 51
179.99996999999999
  0
ARC
  5
2AE
  8
_________1
 62
     7
 10
-16.539221999999999
 20
113.683629
 30
0.0
 40
4.0078670000000001
 50
181.11211900000001
 51
250.761314
  0
ARC
  5
2AF
  8
_________1
 62
     7
 10
-16.758807000000001
 20
113.68760899999999
 30
0.0
 40
4.2135169999999986
 50
289.23933999999991
 51
358.88806699999998
  0
ARC
  5
2B0
  8
_________1
 62
     7
 10
-16.646291000000002
 20
113.60566900000001
 30
0.0
 40
4.1002070000000002
 50
0.002417
 51
90.002386999999999
  0
ARC
  5
2B1
  8
_________1
 62
     7
 10
-16.646460999999999
 20
113.605842
 30
0.0
 40
4.1000350000000001
 50
90.0
 51
179.99996999999999
  0
ARC
  5
2B2
  8
_________1
 62
     7
 10
-16.533684000000001
 20
113.687673
 30
0.0
 40
4.2136069999999988
 50
181.11280400000001
 51
250.759829
  0
INSERT
  5
2B3
  8
_________1
 62
     7
  2
AIGNBL02010015
 10
0.0
 20
0.0
 30
0.0
  0
LINE
  5
2B4
  8
_________2
 62
     7
 10
234.91499999999999
 20
280.15800000000002
 30
0.0
 11
234.91499999999999
 21
259.15800000000002
 31
0.0
  0
LINE
  5
2B5
  8
_________2
 62
     7
 10
260.93599999999998
 20
280.15800000000002
 30
0.0
 11
260.93599999999998
 21
259.15800000000002
 31
0.0
  0
LINE
  5
2B6
  8
_________2
 62
     7
 10
267.56200000000001
 20
280.15800000000002
 30
0.0
 11
267.56200000000001
 21
259.15800000000002
 31
0.0
  0
TEXT
  5
2B7
  8
_________2
 62
     7
 10
263.95687833333329
 20
261.30900000000003
 30
0.0
 40
3.3734599999999988
  1
1
 41
0.5
 72
     1
 11
264.238
 21
261.30900000000003
 31
0.0
  0
TEXT
  5
2B8
  8
_________2
 62
     7
 10
263.95687833333329
 20
268.30900000000003
 30
0.0
 40
3.3734599999999988
  1
1
 41
0.5
 72
     1
 11
264.238
 21
268.30900000000003
 31
0.0
  0
TEXT
  5
2B9
  8
_________2
 62
     7
 10
263.45085933333331
 20
275.30900000000003
 30
0.0
 40
3.3734599999999988
  1
数
 41
0.5
 72
     1
 11
264.238
 21
275.30900000000003
 31
0.0
  0
TEXT
  5
2BA
  8
_________2
 62
     7
 10
277.60178333333329
 20
261.30900000000003
 30
0.0
 40
3.3734599999999988
  1
埋込部
 41
0.5
 72
     1
 11
280.41300000000001
 21
261.30900000000003
 31
0.0
  0
TEXT
  5
2BB
  8
_________2
 62
     7
 10
270.40506866666669
 20
268.30900000000003
 30
0.0
 40
3.3734599999999988
  1
スパウト・ハンドル部
 41
0.5
 72
     1
 11
280.41300000000001
 21
268.30900000000003
 31
0.0
  0
TEXT
  5
2BC
  8
_________2
 62
     7
 10
278.61382133333342
 20
275.30900000000003
 30
0.0
 40
3.3734599999999988
  1
名称
 41
0.5
 72
     1
 11
280.41300000000001
 21
275.30900000000003
 31
0.0
  0
TEXT
  5
2BD
  8
_________2
 62
     7
 10
239.8955933333333
 20
261.30900000000003
 30
0.0
 40
3.3734599999999988
  1
KW9193400R
 41
0.5
 72
     1
 11
247.767
 21
261.30900000000003
 31
0.0
  0
TEXT
  5
2BE
  8
_________2
 62
     7
 10
240.03615416666671
 20
268.30900000000003
 30
0.0
 40
3.3734599999999988
  1
KW1192033T
 41
0.5
 72
     1
 11
247.767
 21
268.30900000000003
 31
0.0
  0
TEXT
  5
2BF
  8
_________2
 62
     7
 10
245.96782133333329
 20
275.30900000000003
 30
0.0
 40
3.3734599999999988
  1
品番
 41
0.5
 72
     1
 11
247.767
 21
275.30900000000003
 31
0.0
  0
LINE
  5
2C0
  8
_________2
 62
     7
 10
234.91499999999999
 20
259.15800000000002
 30
0.0
 11
293.459
 21
259.15800000000002
 31
0.0
  0
LINE
  5
2C1
  8
_________2
 62
     7
 10
234.91499999999999
 20
266.15800000000002
 30
0.0
 11
293.459
 21
266.15800000000002
 31
0.0
  0
LINE
  5
2C2
  8
_________2
 62
     7
 10
234.91499999999999
 20
273.15800000000002
 30
0.0
 11
293.459
 21
273.15800000000002
 31
0.0
  0
TEXT
  5
2C3
  8
_________2
 62
     7
 10
219.08699999999999
 20
46.173200000000001
 30
0.0
 40
3.9357000000000002
  1
湯水混合水栓（壁埋込式）
 41
0.5
  0
TEXT
  5
2C4
  8
_________2
 62
     7
 10
-76.019300000000001
 20
28.914200000000001
 30
0.0
 40
4.2168199999999993
  1
※メンテナンスのため配管途中に、必ず止水栓（現場手配）を設置してください。
 41
0.5
  0
TEXT
  5
2C5
  8
_________2
 62
     7
 10
-76.019300000000001
 20
21.790700000000001
 30
0.0
 40
4.2168199999999993
  1
※ガラス、鏡、天然石には取り付け出来ません。
 41
0.5
  0
TEXT
  5
2C6
  8
_________2
 62
     7
 10
169.50999999999999
 20
112.446
 30
0.0
 40
3.9357000000000002
  1
※快適にお使いいただくためには、0.2～0.3MPa程度の圧力をおすすめします。
 41
0.5
  0
TEXT
  5
2C7
  8
_________2
 62
     7
 10
169.50999999999999
 20
118.526
 30
0.0
 40
3.9357000000000002
  1
0.5MPa（流動圧）
 41
0.5
  0
TEXT
  5
2C8
  8
_________2
 62
     7
 10
129.49600000000001
 20
126.148
 30
0.0
 40
3.9357000000000002
  1
給水圧力
 41
0.5
  0
TEXT
  5
2C9
  8
_________2
 62
     7
 10
129.49600000000001
 20
133.91
 30
0.0
 40
3.9357000000000002
  1
用途
 41
0.5
  0
TEXT
  5
2CA
  8
_________2
 62
     7
 10
169.50999999999999
 20
133.91
 30
0.0
 40
3.9357000000000002
  1
一般住宅用（屋内用）
 41
0.5
  0
LINE
  5
2CB
  8
_________2
 62
     7
 10
145.64099999999999
 20
131.80199999999999
 30
0.0
 11
145.64099999999999
 21
110.46599999999999
 31
0.0
  0
LINE
  5
2CC
  8
_________2
 62
     7
 10
166.97200000000001
 20
139.565
 30
0.0
 11
166.97200000000001
 21
61.980800000000002
 31
0.0
  0
LINE
  5
2CD
  8
_________2
 62
     7
 10
290.16199999999998
 20
139.565
 30
0.0
 11
126.95699999999999
 21
139.565
 31
0.0
  0
LINE
  5
2CE
  8
_________2
 62
     7
 10
126.95699999999999
 20
139.565
 30
0.0
 11
126.95699999999999
 21
61.980800000000002
 31
0.0
  0
LINE
  5
2CF
  8
_________2
 62
     7
 10
126.95699999999999
 20
61.980800000000002
 30
0.0
 11
290.16199999999998
 21
61.980800000000002
 31
0.0
  0
LINE
  5
2D0
  8
_________2
 62
     7
 10
290.16199999999998
 20
61.980800000000002
 30
0.0
 11
290.16199999999998
 21
139.565
 31
0.0
  0
TEXT
  5
2D1
  8
_________2
 62
     7
 10
147.41499999999999
 20
126.148
 30
0.0
 40
3.9357000000000002
  1
最低必要水圧
 41
0.5
  0
TEXT
  5
2D2
  8
_________2
 62
     7
 10
169.50999999999999
 20
126.148
 30
0.0
 40
3.9357000000000002
  1
0.1MPa（流動圧）
 41
0.5
  0
LINE
  5
2D3
  8
_________2
 62
     7
 10
126.95699999999999
 20
131.80199999999999
 30
0.0
 11
290.16199999999998
 21
131.80199999999999
 31
0.0
  0
TEXT
  5
2D4
  8
_________2
 62
     7
 10
129.49600000000001
 20
104.81100000000001
 30
0.0
 40
3.9357000000000002
  1
使用可能水質
 41
0.5
  0
TEXT
  5
2D5
  8
_________2
 62
     7
 10
169.50999999999999
 20
104.81100000000001
 30
0.0
 40
3.9357000000000002
  1
水道水
 41
0.5
  0
LINE
  5
2D6
  8
_________2
 62
     7
 10
126.95699999999999
 20
110.46599999999999
 30
0.0
 11
290.16199999999998
 21
110.46599999999999
 31
0.0
  0
TEXT
  5
2D7
  8
_________2
 62
     7
 10
147.41499999999999
 20
118.526
 30
0.0
 40
3.9357000000000002
  1
最高水圧
 41
0.5
  0
LINE
  5
2D8
  8
_________2
 62
     7
 10
145.64099999999999
 20
124.04000000000001
 30
0.0
 11
290.16199999999998
 21
124.04000000000001
 31
0.0
  0
TEXT
  5
2D9
  8
_________2
 62
     7
 10
129.49600000000001
 20
97.1892
 30
0.0
 40
3.9357000000000002
  1
使用環境温度
 41
0.5
  0
TEXT
  5
2DA
  8
_________2
 62
     7
 10
129.49600000000001
 20
83.615099999999998
 30
0.0
 40
3.9357000000000002
  1
最高給湯温度
 41
0.5
  0
TEXT
  5
2DB
  8
_________2
 62
     7
 10
129.49600000000001
 20
69.912499999999994
 30
0.0
 40
3.9357000000000002
  1
特記事項
 41
0.5
  0
TEXT
  5
2DC
  8
_________2
 62
     7
 10
169.50999999999999
 20
91.108900000000006
 30
0.0
 40
3.9357000000000002
  1
※寒冷地仕様ではありません、凍結が予想される場合は凍結予防をしてください。
 41
0.5
  0
TEXT
  5
2DD
  8
_________2
 62
     7
 10
169.50999999999999
 20
97.1892
 30
0.0
 40
3.9357000000000002
  1
1～40℃
 41
0.5
  0
LINE
  5
2DE
  8
_________2
 62
     7
 10
126.95699999999999
 20
102.703
 30
0.0
 11
290.16199999999998
 21
102.703
 31
0.0
  0
TEXT
  5
2DF
  8
_________2
 62
     7
 10
169.50999999999999
 20
77.534800000000004
 30
0.0
 40
3.9357000000000002
  1
※安全のため給湯温度は60℃以下でのご使用をおすすめします。
 41
0.5
  0
TEXT
  5
2E0
  8
_________2
 62
     7
 10
169.50999999999999
 20
83.615099999999998
 30
0.0
 40
3.9357000000000002
  1
80℃
 41
0.5
  0
TEXT
  5
2E1
  8
_________2
 62
     7
 10
169.50999999999999
 20
63.8322
 30
0.0
 40
3.9357000000000002
  1
（2）湯水を逆に配管しないでください。
 41
0.5
  0
TEXT
  5
2E2
  8
_________2
 62
     7
 10
169.50999999999999
 20
69.912499999999994
 30
0.0
 40
3.9357000000000002
  1
（1）水圧は湯水ほぼ同圧、且つ湯圧が水圧より高くならないように設定してください。
 41
0.5
  0
LINE
  5
2E3
  8
_________2
 62
     7
 10
126.95699999999999
 20
89.128999999999976
 30
0.0
 11
290.16199999999998
 21
89.128999999999976
 31
0.0
  0
LINE
  5
2E4
  8
_________2
 62
     7
 10
126.95699999999999
 20
75.554900000000004
 30
0.0
 11
290.16199999999998
 21
75.554900000000004
 31
0.0
  0
TEXT
  5
2E5
  8
_________2
 62
     7
 10
200.4570586666666
 20
34.465299999999999
 30
0.0
 40
3.6545800000000002
  1
1 ： 5
 41
0.5
 72
     1
 11
203.86799999999999
 21
34.465299999999999
 31
0.0
  0
TEXT
  5
2E6
  8
_________2
 62
     7
 10
233.7467025
 20
30.3553
 30
0.0
 40
3.9357000000000002
  1
KW1192033T＋KW9193400R
 41
0.5
 72
     1
 11
253.458
 21
30.3553
 31
0.0
  0
TEXT
  5
2E7
  8
_________2
 62
     7
 10
149.3328003333333
 20
34.850499999999997
 30
0.0
 40
3.6545800000000002
  1
井田
 41
0.5
 72
     1
 11
151.221
 21
34.850499999999997
 31
0.0
  0
TEXT
  5
2E8
  8
_________2
 62
     7
 10
130.69789066666669
 20
34.850499999999997
 30
0.0
 40
3.6545800000000002
  1
恋塚
 41
0.5
 72
     1
 11
132.64699999999999
 21
34.850499999999997
 31
0.0
  0
TEXT
  5
2E9
  8
_________2
 62
     7
 10
177.69399999999999
 20
34.465299999999999
 30
0.0
 40
3.6545800000000002
  1
19.10.30
 41
0.5
  0
TEXT
  5
2EA
  8
_________2
 62
     7
 10
290.64778333333328
 20
12.808299999999999
 30
0.0
 40
3.3734599999999988
  1
A3
 41
0.5
 72
     2
 11
293.459
 21
12.808299999999999
 31
0.0
  0
TEXT
  5
2EB
  8
_________2
 62
     7
 10
134.495
 20
21.954699999999999
 30
0.0
 40
3.9357000000000002
  1
（社）日本水道協会認証品
 41
0.5
  0
LINE
  5
2EC
  8
_________2
 62
     7
 10
315.209
 20
148.65899999999999
 30
0.0
 11
293.459
 21
148.65899999999999
 31
0.0
  0
LINE
  5
2ED
  8
_________2
 62
     7
 10
105.20699999999999
 20
17.156300000000002
 30
0.0
 11
105.20699999999999
 21
0.176045
 31
0.0
  0
LINE
  5
2EE
  8
_________2
 62
     7
 10
105.20699999999999
 20
297.178
 30
0.0
 11
105.20699999999999
 21
280.15800000000002
 31
0.0
  0
LINE
  5
2EF
  8
_________2
 62
     7
 10
-83.043899999999994
 20
148.65899999999999
 30
0.0
 11
-104.794
 21
148.65899999999999
 31
0.0
  0
INSERT
  5
2F0
  8
_________2
 62
     7
  2
AIGNBL03010002
 10
0.0
 20
0.0
 30
0.0
  0
TEXT
  5
2F1
  8
_________2
 62
     7
 10
214.51300000000001
 20
22.9269
 30
0.0
 40
3.0923400000000001
  1
図番
 41
0.5
  0
LINE
  5
2F2
  8
_________2
 62
     7
 10
213.458
 20
27.156099999999999
 30
0.0
 11
293.459
 21
27.156099999999999
 31
0.0
  0
TEXT
  5
2F3
  8
_________2
 62
     7
 10
214.51300000000001
 20
32.926699999999997
 30
0.0
 40
3.0923400000000001
  1
品番
 41
0.5
  0
TEXT
  5
2F4
  8
_________2
 62
     7
 10
214.51300000000001
 20
53.0655
 30
0.0
 40
3.0923400000000001
  1
名称
 41
0.5
  0
TEXT
  5
2F5
  8
_________2
 62
     7
 10
201.75325833333329
 20
48.069400000000002
 30
0.0
 40
3.6545800000000002
  1
mm
 41
0.5
 72
     1
 11
203.27600000000001
 21
48.069400000000002
 31
0.0
  0
TEXT
  5
2F6
  8
_________2
 62
     7
 10
195.55099999999999
 20
53.0655
 30
0.0
 40
3.0923400000000001
  1
単位
 41
0.5
  0
TEXT
  5
2F7
  8
_________2
 62
     7
 10
195.55099999999999
 20
40.658200000000001
 30
0.0
 40
3.0923400000000001
  1
尺度
 41
0.5
  0
TEXT
  5
2F8
  8
_________2
 62
     7
 10
242.47083749999999
 20
20.354800000000001
 30
0.0
 40
3.9357000000000002
  1
KW1192033TRC
 41
0.5
 72
     1
 11
253.458
 21
20.354800000000001
 31
0.0
  0
TEXT
  5
2F9
  8
_________2
 62
     7
 10
176.501
 20
40.658200000000001
 30
0.0
 40
3.0923400000000001
  1
日付
 41
0.5
  0
TEXT
  5
2FA
  8
_________2
 62
     7
 10
139.547
 20
40.658200000000001
 30
0.0
 40
3.0923400000000001
  1
検図
 41
0.5
  0
TEXT
  5
2FB
  8
_________2
 62
     7
 10
127.929
 20
26.4588
 30
0.0
 40
3.0923400000000001
  1
備考
 41
0.5
  0
TEXT
  5
2FC
  8
_________2
 62
     7
 10
127.929
 20
40.658200000000001
 30
0.0
 40
3.0923400000000001
  1
製図
 41
0.5
  0
TEXT
  5
2FD
  8
_________2
 62
     7
 10
133.69596533333331
 20
49.184199999999997
 30
0.0
 40
4.4979399999999989
  1
セラトレーディング株式会社
 41
0.5
 72
     1
 11
151.08799999999999
 21
49.184199999999997
 31
0.0
  0
LINE
  5
2FE
  8
_________2
 62
     7
 10
293.459
 20
17.156300000000002
 30
0.0
 11
-83.043899999999994
 21
17.156300000000002
 31
0.0
  0
LINE
  5
2FF
  8
_________2
 62
     7
 10
-83.043899999999994
 20
17.156300000000002
 30
0.0
 11
-83.043899999999994
 21
280.15800000000002
 31
0.0
  0
LINE
  5
300
  8
_________2
 62
     7
 10
-83.043899999999994
 20
280.15800000000002
 30
0.0
 11
293.459
 21
280.15800000000002
 31
0.0
  0
LINE
  5
301
  8
_________2
 62
     7
 10
293.459
 20
280.15800000000002
 30
0.0
 11
293.459
 21
17.156300000000002
 31
0.0
  0
LINE
  5
302
  8
_________2
 62
     7
 10
175.458
 20
30.656400000000001
 30
0.0
 11
175.458
 21
57.156199999999998
 31
0.0
  0
LINE
  5
303
  8
_________2
 62
     7
 10
194.458
 20
30.656400000000001
 30
0.0
 11
194.458
 21
57.156199999999998
 31
0.0
  0
LINE
  5
304
  8
_________2
 62
     7
 10
126.95699999999999
 20
17.156300000000002
 30
0.0
 11
126.95699999999999
 21
57.156199999999998
 31
0.0
  0
LINE
  5
305
  8
_________2
 62
     7
 10
213.458
 20
17.156300000000002
 30
0.0
 11
213.458
 21
57.156199999999998
 31
0.0
  0
LINE
  5
306
  8
_________2
 62
     7
 10
138.45699999999999
 20
30.656400000000001
 30
0.0
 11
138.45699999999999
 21
44.65659999999999
 31
0.0
  0
LINE
  5
307
  8
_________2
 62
     7
 10
126.95699999999999
 20
30.656400000000001
 30
0.0
 11
213.458
 21
30.656400000000001
 31
0.0
  0
LINE
  5
308
  8
_________2
 62
     7
 10
126.95699999999999
 20
44.65659999999999
 30
0.0
 11
213.458
 21
44.65659999999999
 31
0.0
  0
LINE
  5
309
  8
_________2
 62
     7
 10
213.458
 20
37.15590000000001
 30
0.0
 11
293.459
 21
37.15590000000001
 31
0.0
  0
LINE
  5
30A
  8
_________2
 62
     7
 10
126.95699999999999
 20
57.156199999999998
 30
0.0
 11
293.459
 21
57.156199999999998
 31
0.0
  0
ENDSEC
  0
EOF
