  0
SECTION
  2
HEADER
  9
$ACADVER
  1
AC1009
  9
$INSBASE
 10
0.0
 20
0.0
 30
0.0
  9
$EXTMIN
 10
0.238058
 20
0.4482100000000001
 30
0.0
  9
$EXTMAX
 10
210.24000000000001
 20
297.44999999999987
 30
0.0
  9
$LIMMIN
 10
0.0
 20
0.0
  9
$LIMMAX
 10
12.0
 20
9.0
  9
$ORTHOMODE
 70
     0
  9
$REGENMODE
 70
     1
  9
$FILLMODE
 70
     1
  9
$QTEXTMODE
 70
     0
  9
$MIRRTEXT
 70
     1
  9
$DRAGMODE
 70
     2
  9
$LTSCALE
 40
1.0
  9
$OSMODE
 70
    37
  9
$ATTMODE
 70
     1
  9
$TEXTSIZE
 40
0.0
  9
$TRACEWID
 40
0.05
  9
$TEXTSTYLE
  7
STANDARD
  9
$CLAYER
  8
0
  9
$CELTYPE
  6
CONTINUOUS
  9
$CECOLOR
 62
   256
  9
$DIMSCALE
 40
1.0
  9
$DIMASZ
 40
0.18
  9
$DIMEXO
 40
0.0625
  9
$DIMDLI
 40
0.38
  9
$DIMRND
 40
0.0
  9
$DIMDLE
 40
0.0
  9
$DIMEXE
 40
0.18
  9
$DIMTP
 40
0.0
  9
$DIMTM
 40
0.0
  9
$DIMTXT
 40
0.18
  9
$DIMCEN
 40
0.09
  9
$DIMTSZ
 40
0.0
  9
$DIMTOL
 70
     0
  9
$DIMLIM
 70
     0
  9
$DIMTIH
 70
     1
  9
$DIMTOH
 70
     1
  9
$DIMSE1
 70
     0
  9
$DIMSE2
 70
     0
  9
$DIMTAD
 70
     0
  9
$DIMZIN
 70
     0
  9
$DIMBLK
  1

  9
$DIMASO
 70
     1
  9
$DIMSHO
 70
     1
  9
$DIMPOST
  1

  9
$DIMAPOST
  1

  9
$DIMALT
 70
     0
  9
$DIMALTD
 70
     2
  9
$DIMALTF
 40
25.399999999999999
  9
$DIMLFAC
 40
1.0
  9
$DIMTOFL
 70
     0
  9
$DIMTVP
 40
0.0
  9
$DIMTIX
 70
     0
  9
$DIMSOXD
 70
     0
  9
$DIMSAH
 70
     0
  9
$DIMBLK1
  1

  9
$DIMBLK2
  1

  9
$DIMSTYLE
  2
STANDARD
  9
$DIMCLRD
 70
     0
  9
$DIMCLRE
 70
     0
  9
$DIMCLRT
 70
     0
  9
$DIMTFAC
 40
1.0
  9
$DIMGAP
 40
0.09
  9
$LUNITS
 70
     2
  9
$LUPREC
 70
     4
  9
$SKETCHINC
 40
0.1
  9
$FILLETRAD
 40
0.0
  9
$AUNITS
 70
     0
  9
$AUPREC
 70
     0
  9
$MENU
  1
.
  9
$ELEVATION
 40
0.0
  9
$PELEVATION
 40
0.0
  9
$THICKNESS
 40
0.0
  9
$LIMCHECK
 70
     0
  9
$BLIPMODE
 70
     0
  9
$CHAMFERA
 40
0.0
  9
$CHAMFERB
 40
0.0
  9
$SKPOLY
 70
     0
  9
$TDCREATE
 40
2444972.375
  9
$TDUPDATE
 40
2457052.2461265158
  9
$TDINDWG
 40
0.0000067245
  9
$TDUSRTIMER
 40
0.0000067245
  9
$USRTIMER
 70
     1
  9
$ANGBASE
 50
0.0
  9
$ANGDIR
 70
     0
  9
$PDMODE
 70
     0
  9
$PDSIZE
 40
0.0
  9
$PLINEWID
 40
0.0
  9
$COORDS
 70
     1
  9
$SPLFRAME
 70
     0
  9
$SPLINETYPE
 70
     6
  9
$SPLINESEGS
 70
     8
  9
$ATTDIA
 70
     0
  9
$ATTREQ
 70
     1
  9
$HANDLING
 70
     1
  9
$HANDSEED
  5
2A9
  9
$SURFTAB1
 70
     6
  9
$SURFTAB2
 70
     6
  9
$SURFTYPE
 70
     6
  9
$SURFU
 70
     6
  9
$SURFV
 70
     6
  9
$UCSNAME
  2

  9
$UCSORG
 10
0.0
 20
0.0
 30
0.0
  9
$UCSXDIR
 10
1.0
 20
0.0
 30
0.0
  9
$UCSYDIR
 10
0.0
 20
1.0
 30
0.0
  9
$PUCSNAME
  2

  9
$PUCSORG
 10
0.0
 20
0.0
 30
0.0
  9
$PUCSXDIR
 10
1.0
 20
0.0
 30
0.0
  9
$PUCSYDIR
 10
0.0
 20
1.0
 30
0.0
  9
$USERI1
 70
     0
  9
$USERI2
 70
     0
  9
$USERI3
 70
     0
  9
$USERI4
 70
     0
  9
$USERI5
 70
     0
  9
$USERR1
 40
0.0
  9
$USERR2
 40
0.0
  9
$USERR3
 40
0.0
  9
$USERR4
 40
0.0
  9
$USERR5
 40
0.0
  9
$WORLDVIEW
 70
     1
  9
$SHADEDGE
 70
     3
  9
$SHADEDIF
 70
    70
  9
$TILEMODE
 70
     1
  9
$MAXACTVP
 70
    48
  9
$PLIMCHECK
 70
     0
  9
$PEXTMIN
 10
1.0000000000000000E+020
 20
1.0000000000000000E+020
 30
1.0000000000000000E+020
  9
$PEXTMAX
 10
-1.0000000000000000E+020
 20
-1.0000000000000000E+020
 30
-1.0000000000000000E+020
  9
$PLIMMIN
 10
0.0
 20
0.0
  9
$PLIMMAX
 10
12.0
 20
9.0
  9
$UNITMODE
 70
     0
  9
$VISRETAIN
 70
     1
  9
$PLINEGEN
 70
     0
  9
$PSLTSCALE
 70
     1
  0
ENDSEC
  0
SECTION
  2
TABLES
  0
TABLE
  2
VPORT
 70
     2
  0
VPORT
  2
*ACTIVE
 70
     0
 10
0.0
 20
0.0
 11
1.0
 21
1.0
 12
205.3110738070736
 22
148.72499999999991
 13
0.0
 23
0.0
 14
1.0
 24
1.0
 15
0.0
 25
0.0
 16
0.0
 26
0.0
 36
1.0
 17
0.0
 27
0.0
 37
0.0
 40
299.92188365650958
 41
2.2894736842105261
 42
50.0
 43
0.0
 44
0.0
 50
0.0
 51
0.0
 71
     0
 72
   100
 73
     1
 74
     1
 75
     0
 76
     0
 77
     0
 78
     0
  0
ENDTAB
  0
TABLE
  2
LTYPE
 70
     4
  0
LTYPE
  2
CONTINUOUS
 70
     0
  3
Solid line
 72
    65
 73
     0
 40
0.0
  0
LTYPE
  2
AIGENLINE001
 70
     0
  3
generate AI->DXF Converter
 72
    65
 73
     2
 40
1.5522299999999991
 49
0.776115
 49
-0.776115
  0
LTYPE
  2
AIGENLINE002
 70
     0
  3
generate AI->DXF Converter
 72
    65
 73
     4
 40
5.8561449999999988
 49
3.5278
 49
-0.776115
 49
0.776115
 49
-0.776115
  0
LTYPE
  2
AIGENLINE003
 70
     0
  3
generate AI->DXF Converter
 72
    65
 73
     6
 40
7.4083750000000004
 49
3.5278
 49
-0.776115
 49
0.776115
 49
-0.776115
 49
0.776115
 49
-0.776115
  0
ENDTAB
  0
TABLE
  2
LAYER
 70
     2
  0
LAYER
  2
0
 70
     0
 62
     7
  6
CONTINUOUS
  0
LAYER
  2
_________2
 70
     0
 62
     7
  6
CONTINUOUS
  0
ENDTAB
  0
TABLE
  2
STYLE
 70
     1
  0
STYLE
  2
STANDARD
 70
     0
 40
0.0
 41
0.0
 50
0.0
 71
     0
 42
0.0
  3
TXT
  4
EXTFONT.SHX
  0
ENDTAB
  0
TABLE
  2
VIEW
 70
     0
  0
ENDTAB
  0
TABLE
  2
UCS
 70
     0
  0
ENDTAB
  0
TABLE
  2
APPID
 70
     1
  0
APPID
  2
ACAD
 70
     0
  0
ENDTAB
  0
TABLE
  2
DIMSTYLE
 70
     1
  0
DIMSTYLE
  2
STANDARD
 70
     0
  3

  4

  5

  6

  7

 40
1.0
 41
0.18
 42
0.0625
 43
0.38
 44
0.18
 45
0.0
 46
0.0
 47
0.0
 48
0.0
140
0.18
141
0.09
142
0.0
143
25.399999999999999
144
1.0
145
0.0
146
1.0
147
0.09
 71
     0
 72
     0
 73
     1
 74
     1
 75
     0
 76
     0
 77
     0
 78
     0
170
     0
171
     2
172
     0
173
     0
174
     0
175
     0
176
     0
177
     0
178
     0
  0
ENDTAB
  0
ENDSEC
  0
SECTION
  2
BLOCKS
  0
BLOCK
  8
0
  2
$MODEL_SPACE
 70
     0
 10
0.0
 20
0.0
 30
0.0
  3
$MODEL_SPACE
  1

  0
ENDBLK
  5
1A
  8
0
  0
BLOCK
 67
     1
  8
0
  2
$PAPER_SPACE
 70
     0
 10
0.0
 20
0.0
 30
0.0
  3
$PAPER_SPACE
  1

  0
ENDBLK
  5
17
 67
     1
  8
0
  0
ENDSEC
  0
SECTION
  2
ENTITIES
  0
TEXT
  5
24
  8
0
 62
     7
 10
71.353049999999996
 20
260.73899999999998
 30
0.0
 40
3.0923400000000001
  1
KW9193400
 41
0.5
 72
     2
 11
84.237799999999979
 21
260.73899999999998
 31
0.0
  0
TEXT
  5
25
  8
0
 62
     7
 10
78.344875000000002
 20
210.22799999999989
 30
0.0
 40
3.0923400000000001
  1
KW1192034R
 41
0.5
 72
     2
 11
92.518100000000004
 21
210.22799999999989
 31
0.0
  0
TEXT
  5
26
  8
0
 62
     7
 10
145.83269599999991
 20
89.081100000000006
 30
0.0
 40
3.0923400000000001
  1
壁仕上面
 41
0.5
 72
     2
 11
152.84200000000001
 21
89.081100000000006
 31
0.0
  0
TEXT
  5
27
  8
0
 62
     7
 10
87.672147999999993
 20
228.93700000000001
 30
0.0
 40
3.0923400000000001
  1
壁仕上面
 41
0.5
 72
     1
 11
91.1768
 21
228.93700000000001
 31
0.0
  0
TEXT
  5
28
  8
0
 62
     7
 10
36.923900000000003
 20
210.5292874999999
 30
0.0
 40
3.0923400000000001
  1
240
 50
90.0
 41
0.5
 72
     1
 11
36.923900000000003
 21
212.46199999999999
 31
0.0
  0
TEXT
  5
29
  8
0
 62
     7
 10
81.628625000000014
 20
158.4489999999999
 30
0.0
 40
3.0923400000000001
  1
23
 41
0.5
 72
     1
 11
82.917100000000005
 21
158.4489999999999
 31
0.0
  0
TEXT
  5
2A
  8
0
 62
     7
 10
55.70389999999999
 20
106.66799999999991
 30
0.0
 40
3.0923400000000001
  1
G 1/2
 41
0.5
  0
TEXT
  5
2B
  8
0
 62
     7
 10
158.21000000000001
 20
112.11199999999999
 30
0.0
 40
3.0923400000000001
  1
G 1/2
 41
0.5
  0
TEXT
  5
2C
  8
0
 62
     7
 10
83.756597999999997
 20
106.66799999999991
 30
0.0
 40
3.0923400000000001
  1
G 1/2
 41
0.5
 72
     2
 11
89.838199999999986
 21
106.66799999999991
 31
0.0
  0
TEXT
  5
2D
  8
0
 62
     7
 10
183.874
 20
126.29152499999999
 30
0.0
 40
3.0923400000000001
  1
77
 50
90.0
 41
0.5
 72
     1
 11
183.874
 21
127.58
 31
0.0
  0
TEXT
  5
2E
  8
0
 62
     7
 10
178.20999999999989
 20
120.9915249999999
 30
0.0
 40
3.0923400000000001
  1
42
 50
90.0
 41
0.5
 72
     1
 11
178.20999999999989
 21
122.28
 31
0.0
  0
TEXT
  5
2F
  8
0
 62
     7
 10
99.848799999999997
 20
236.52750049999989
 30
0.0
 40
3.0923400000000001
  1
32～40
 50
90.0
 41
0.5
 72
     1
 11
99.848799999999997
 21
240.16099999999989
 31
0.0
  0
TEXT
  5
30
  8
0
 62
     7
 10
99.848799999999997
 20
246.2745249999999
 30
0.0
 40
3.0923400000000001
  1
37
 50
90.0
 41
0.5
 72
     1
 11
99.848799999999997
 21
247.5629999999999
 31
0.0
  0
TEXT
  5
31
  8
0
 62
     7
 10
74.314924999999988
 20
144.39699999999999
 30
0.0
 40
3.0923400000000001
  1
23
 41
0.5
 72
     1
 11
75.603399999999993
 21
144.39699999999999
 31
0.0
  0
TEXT
  5
32
  8
0
 62
     7
 10
65.46822499999999
 20
144.39699999999999
 30
0.0
 40
3.0923400000000001
  1
65
 41
0.5
 72
     1
 11
66.756699999999995
 21
144.39699999999999
 31
0.0
  0
TEXT
  5
33
  8
0
 62
     7
 10
101.333
 20
117.49052499999991
 30
0.0
 40
3.0923400000000001
  1
77
 50
90.0
 41
0.5
 72
     1
 11
101.333
 21
118.7789999999999
 31
0.0
  0
TEXT
  5
34
  8
0
 62
     7
 10
94.293400000000005
 20
126.29152499999999
 30
0.0
 40
3.0923400000000001
  1
77
 50
90.0
 41
0.5
 72
     1
 11
94.293400000000005
 21
127.58
 31
0.0
  0
TEXT
  5
35
  8
0
 62
     7
 10
36.942500000000003
 20
123.83222000000001
 30
0.0
 40
3.0923400000000001
  1
15
 50
90.0
 41
0.5
 72
     1
 11
36.942500000000003
 21
124.863
 31
0.0
  0
TEXT
  5
36
  8
0
 62
     7
 10
36.942500000000003
 20
128.48537250000001
 30
0.0
 40
3.0923400000000001
  1
30
 50
90.0
 41
0.5
 72
     1
 11
36.942500000000003
 21
129.64500000000001
 31
0.0
  0
TEXT
  5
37
  8
0
 62
     7
 10
30.237100000000002
 20
138.98321999999999
 30
0.0
 40
3.0923400000000001
  1
7
 50
90.0
 41
0.5
 72
     2
 11
30.237100000000002
 21
140.01400000000001
 31
0.0
  0
TEXT
  5
38
  8
0
 62
     7
 10
30.237100000000002
 20
125.1915249999999
 30
0.0
 40
3.0923400000000001
  1
74
 50
90.0
 41
0.5
 72
     1
 11
30.237100000000002
 21
126.48
 31
0.0
  0
TEXT
  5
39
  8
0
 62
     7
 10
167.028525
 20
144.99399999999989
 30
0.0
 40
3.0923400000000001
  1
37
 41
0.5
 72
     1
 11
168.31700000000001
 21
144.99399999999989
 31
0.0
  0
TEXT
  5
3A
  8
0
 62
     7
 10
148.112348
 20
144.99399999999989
 30
0.0
 40
3.0923400000000001
  1
61～53
 41
0.5
 72
     1
 11
151.61699999999999
 21
144.99399999999989
 31
0.0
  0
TEXT
  5
3B
  8
0
 62
     7
 10
157.28350049999989
 20
144.99399999999989
 30
0.0
 40
3.0923400000000001
  1
32～40
 41
0.5
 72
     1
 11
160.91699999999989
 21
144.99399999999989
 31
0.0
  0
TEXT
  5
3C
  8
0
 62
     7
 10
75.568424999999991
 20
151.7229999999999
 30
0.0
 40
3.0923400000000001
  1
36
 41
0.5
 72
     1
 11
76.856899999999996
 21
151.7229999999999
 31
0.0
  0
TEXT
  5
3D
  8
0
 62
     7
 10
48.368425000000002
 20
151.547
 30
0.0
 40
3.0923400000000001
  1
36
 41
0.5
 72
     1
 11
49.6569
 21
151.547
 31
0.0
  0
TEXT
  5
3E
  8
0
 62
     7
 10
61.710630000000002
 20
151.7229999999999
 30
0.0
 40
3.0923400000000001
  1
100
 41
0.5
 72
     1
 11
63.256799999999998
 21
151.7229999999999
 31
0.0
  0
TEXT
  5
3F
  8
0
 62
     7
 10
61.453135000000003
 20
158.4489999999999
 30
0.0
 40
3.0923400000000001
  1
172
 41
0.5
 72
     1
 11
63.256999999999998
 21
158.4489999999999
 31
0.0
  0
TEXT
  5
40
  8
0
 62
     7
 10
175.33443999999989
 20
101.81399999999999
 30
0.0
 40
3.0923400000000001
  1
17
 41
0.5
 72
     2
 11
177.3959999999999
 21
101.81399999999999
 31
0.0
  0
TEXT
  5
41
  8
0
 62
     7
 10
160.85465300000001
 20
94.950500000000005
 30
0.0
 40
3.0923400000000001
  1
69～77
 41
0.5
 72
     1
 11
164.61699999999999
 21
94.950500000000005
 31
0.0
  0
TEXT
  5
42
  8
0
 62
     7
 10
159.28350049999989
 20
101.95399999999989
 30
0.0
 40
3.0923400000000001
  1
52～60
 41
0.5
 72
     1
 11
162.917
 21
101.95399999999989
 31
0.0
  0
TEXT
  5
43
  8
0
 62
     7
 10
58.750508000000004
 20
113.90600000000001
 30
0.0
 40
3.0923400000000001
  1
湯
 41
0.5
 72
     2
 11
60.193600000000004
 21
113.90600000000001
 31
0.0
  0
TEXT
  5
44
  8
0
 62
     7
 10
86.418899999999994
 20
113.90600000000001
 30
0.0
 40
3.0923400000000001
  1
水
 41
0.5
  0
TEXT
  5
45
  8
0
 62
     7
 10
137.93598600000001
 20
113.0149999999999
 30
0.0
 40
3.0923400000000001
  1
開
 41
0.5
 72
     2
 11
139.27600000000001
 21
113.0149999999999
 31
0.0
  0
TEXT
  5
46
  8
0
 62
     7
 10
148.625
 20
110.01600000000001
 30
0.0
 40
3.0923400000000001
  1
閉
 41
0.5
  0
TEXT
  5
47
  8
0
 62
     7
 10
132.65544
 20
101.81399999999999
 30
0.0
 40
3.0923400000000001
  1
225
 41
0.5
 72
     1
 11
134.71700000000001
 21
101.81399999999999
 31
0.0
  0
TEXT
  5
48
  8
0
 62
     7
 10
71.968525
 20
100.1579999999999
 30
0.0
 40
3.0923400000000001
  1
65
 41
0.5
 72
     1
 11
73.257000000000005
 21
100.1579999999999
 31
0.0
  0
TEXT
  5
49
  8
0
 62
     7
 10
46.295119999999997
 20
165.92999999999989
 30
0.0
 40
3.0923400000000001
  1
15
 41
0.5
 72
     1
 11
47.325899999999997
 21
165.92999999999989
 31
0.0
  0
TEXT
  5
4A
  8
0
 62
     7
 10
65.381982500000007
 20
165.685
 30
0.0
 40
3.0923400000000001
  1
180
 41
0.5
 72
     1
 11
67.057000000000002
 21
165.685
 31
0.0
  0
ARC
  5
4B
  8
0
 62
     7
 10
53.294515000000011
 20
128.75020399999991
 30
0.0
 40
5.0801869999999996
 50
240.03469899999999
 51
246.36300899999989
  0
ARC
  5
4C
  8
0
 62
     7
 10
53.227342999999998
 20
128.73557700000001
 30
0.0
 40
5.063625
 50
293.63134100000002
 51
299.97163999999998
  0
LINE
  5
4D
  8
0
 62
     7
 10
114.217
 20
123.479
 30
0.0
 11
110.217
 21
123.479
 31
0.0
  0
LINE
  5
4E
  8
0
 62
     7
 10
110.217
 20
123.479
 30
0.0
 11
110.217
 21
124.479
 31
0.0
  0
LINE
  5
4F
  8
0
 62
     7
 10
110.217
 20
124.479
 30
0.0
 11
114.217
 21
124.479
 31
0.0
  0
LINE
  5
50
  8
0
 62
     7
 10
114.217
 20
124.479
 30
0.0
 11
114.217
 21
123.479
 31
0.0
  0
LINE
  5
51
  8
0
 62
     7
 10
55.256900000000002
 20
123.479
 30
0.0
 11
51.256799999999998
 21
123.479
 31
0.0
  0
LINE
  5
52
  8
0
 62
     7
 10
51.256799999999998
 20
123.479
 30
0.0
 11
51.256799999999998
 21
124.479
 31
0.0
  0
LINE
  5
53
  8
0
 62
     7
 10
51.256799999999998
 20
124.479
 30
0.0
 11
55.256900000000002
 21
124.479
 31
0.0
  0
LINE
  5
54
  8
0
 62
     7
 10
55.256900000000002
 20
124.479
 30
0.0
 11
55.256900000000002
 21
123.479
 31
0.0
  0
LINE
  5
55
  8
0
 62
     7
 10
64.536999999999992
 20
253.08600000000001
 30
0.0
 11
63.993400000000001
 21
250.86199999999999
 31
0.0
  0
LINE
  5
56
  8
0
 62
     7
 10
63.993400000000001
 20
250.86199999999999
 30
0.0
 11
65.576099999999997
 21
252.51599999999999
 31
0.0
  0
LINE
  5
57
  8
0
 62
     7
 10
65.576099999999997
 20
252.51599999999999
 30
0.0
 11
64.536999999999992
 21
253.08600000000001
 31
0.0
  0
LINE
  5
58
  8
0
 62
     7
 10
69.017600000000002
 20
260.03899999999987
 30
0.0
 11
63.986899999999999
 21
250.86699999999999
 31
0.0
  0
LINE
  5
59
  8
0
 62
     7
 10
69.017600000000002
 20
260.03899999999987
 30
0.0
 11
84.237799999999979
 21
260.03899999999987
 31
0.0
  0
LINE
  5
5A
  8
0
 62
     7
 10
58.160299999999999
 20
216.78200000000001
 30
0.0
 11
55.880000000000003
 21
216.9859999999999
 31
0.0
  0
LINE
  5
5B
  8
0
 62
     7
 10
55.880000000000003
 20
216.9859999999999
 30
0.0
 11
57.752400000000002
 21
215.66900000000001
 31
0.0
  0
LINE
  5
5C
  8
0
 62
     7
 10
57.752400000000002
 20
215.66900000000001
 30
0.0
 11
58.160299999999999
 21
216.78200000000001
 31
0.0
  0
LINE
  5
5D
  8
0
 62
     7
 10
76.247900000000001
 20
209.52799999999991
 30
0.0
 11
55.883400000000002
 21
216.99299999999991
 31
0.0
  0
LINE
  5
5E
  8
0
 62
     7
 10
72.250500000000002
 20
223.35199999999989
 30
0.0
 11
70.988200000000006
 21
225.26199999999989
 31
0.0
  0
LINE
  5
5F
  8
0
 62
     7
 10
70.988200000000006
 20
225.26199999999989
 30
0.0
 11
71.126300000000001
 21
222.977
 31
0.0
  0
LINE
  5
60
  8
0
 62
     7
 10
71.126300000000001
 20
222.977
 30
0.0
 11
72.250500000000002
 21
223.35199999999989
 31
0.0
  0
LINE
  5
61
  8
0
 62
     7
 10
76.247900000000001
 20
209.52799999999991
 30
0.0
 11
70.995400000000004
 21
225.2639999999999
 31
0.0
  0
LINE
  5
62
  8
0
 62
     7
 10
76.247900000000001
 20
209.52799999999991
 30
0.0
 11
92.518100000000004
 21
209.52799999999991
 31
0.0
  0
ARC
  5
63
  8
0
  6
AIGENLINE001
 62
     7
 10
60.256565000000002
 20
123.279646
 30
0.0
 40
0.9001229999999999
 50
270.00550199999992
 51
0.005472
  0
ARC
  5
64
  8
0
  6
AIGENLINE001
 62
     7
 10
60.256737000000001
 20
123.279645
 30
0.0
 40
0.9001229999999999
 50
179.9944879999999
 51
269.99453799999992
  0
LINE
  5
65
  8
0
  6
AIGENLINE001
 62
     7
 10
59.3566
 20
123.28
 30
0.0
 11
59.3566
 21
123.68000000000001
 31
0.0
  0
ARC
  5
66
  8
0
  6
AIGENLINE001
 62
     7
 10
60.291097999999998
 20
123.64508499999999
 30
0.0
 40
0.9351239999999998
 50
92.111016000000006
 51
177.87798699999999
  0
ARC
  5
67
  8
0
  6
AIGENLINE001
 62
     7
 10
60.222048000000001
 20
123.64492799999999
 30
0.0
 40
0.9352870000000001
 50
2.1312570000000002
 51
87.879699999999985
  0
LINE
  5
68
  8
0
  6
AIGENLINE001
 62
     7
 10
61.156700000000001
 20
123.68000000000001
 30
0.0
 11
61.156700000000001
 21
123.28
 31
0.0
  0
LINE
  5
69
  8
0
  6
AIGENLINE002
 62
     7
 10
60.256700000000002
 20
121.95099999999999
 30
0.0
 11
60.256700000000002
 21
125.09099999999999
 31
0.0
  0
LINE
  5
6A
  8
0
  6
AIGENLINE002
 62
     7
 10
61.656100000000002
 20
123.48
 30
0.0
 11
58.869100000000003
 21
123.48
 31
0.0
  0
ARC
  5
6B
  8
0
  6
AIGENLINE001
 62
     7
 10
77.948779999999999
 20
132.33796499999991
 30
0.0
 40
0.935683
 50
317.15339899999998
 51
42.877612999999997
  0
ARC
  5
6C
  8
0
  6
AIGENLINE001
 62
     7
 10
77.998328999999998
 20
132.38761199999999
 30
0.0
 40
0.9357459999999999
 50
227.11157700000001
 51
312.85743799999989
  0
LINE
  5
6D
  8
0
  6
AIGENLINE001
 62
     7
 10
77.361500000000007
 20
131.702
 30
0.0
 11
77.078599999999994
 21
131.98500000000001
 31
0.0
  0
ARC
  5
6E
  8
0
  6
AIGENLINE001
 62
     7
 10
77.763448999999994
 20
132.620982
 30
0.0
 40
0.934676
 50
137.07948599999989
 51
222.88949299999999
  0
ARC
  5
6F
  8
0
  6
AIGENLINE001
 62
     7
 10
77.715299999999999
 20
132.6211669999999
 30
0.0
 40
0.8998829999999999
 50
45.000005000000009
 51
134.99997500000001
  0
LINE
  5
70
  8
0
  6
AIGENLINE001
 62
     7
 10
78.351600000000005
 20
133.25700000000001
 30
0.0
 11
78.634500000000003
 21
132.97499999999991
 31
0.0
  0
LINE
  5
71
  8
0
  6
AIGENLINE002
 62
     7
 10
78.937600000000003
 20
131.39899999999989
 30
0.0
 11
76.717600000000004
 21
133.61899999999989
 31
0.0
  0
LINE
  5
72
  8
0
  6
AIGENLINE002
 62
     7
 10
78.846299999999999
 20
133.46899999999991
 30
0.0
 11
76.875699999999995
 21
131.49799999999999
 31
0.0
  0
ARC
  5
73
  8
0
  6
AIGENLINE001
 62
     7
 10
60.421844999999998
 20
132.44495000000001
 30
0.0
 40
0.9354729999999999
 50
2.1210840000000002
 51
87.878906000000001
  0
ARC
  5
74
  8
0
  6
AIGENLINE001
 62
     7
 10
60.422187999999998
 20
132.51420999999999
 30
0.0
 40
0.9351299999999998
 50
272.10080399999998
 51
357.877275
  0
LINE
  5
75
  8
0
  6
AIGENLINE001
 62
     7
 10
60.456499999999998
 20
131.58000000000001
 30
0.0
 11
60.0565
 21
131.58000000000001
 31
0.0
  0
ARC
  5
76
  8
0
  6
AIGENLINE001
 62
     7
 10
60.091102999999997
 20
132.514186
 30
0.0
 40
0.9351179999999999
 50
182.1212799999999
 51
267.87875000000003
  0
ARC
  5
77
  8
0
  6
AIGENLINE001
 62
     7
 10
60.091442000000001
 20
132.44497899999999
 30
0.0
 40
0.935456
 50
92.14124200000002
 51
177.88066000000001
  0
LINE
  5
78
  8
0
  6
AIGENLINE001
 62
     7
 10
60.0565
 20
133.37999999999991
 30
0.0
 11
60.456499999999998
 21
133.37999999999991
 31
0.0
  0
LINE
  5
79
  8
0
  6
AIGENLINE002
 62
     7
 10
61.785200000000003
 20
132.4799999999999
 30
0.0
 11
58.645400000000002
 21
132.4799999999999
 31
0.0
  0
LINE
  5
7A
  8
0
  6
AIGENLINE002
 62
     7
 10
60.256700000000002
 20
133.87899999999991
 30
0.0
 11
60.256700000000002
 21
131.09200000000001
 31
0.0
  0
LINE
  5
7B
  8
0
  6
AIGENLINE003
 62
     7
 10
157.21700000000001
 20
100.414
 30
0.0
 11
157.21700000000001
 21
85.637299999999996
 31
0.0
  0
LINE
  5
7C
  8
0
 62
     7
 10
153.6939999999999
 20
92.611000000000004
 30
0.0
 11
157.21700000000001
 21
90.576300000000003
 31
0.0
  0
LINE
  5
7D
  8
0
 62
     7
 10
157.21700000000001
 20
90.576300000000003
 30
0.0
 11
153.6939999999999
 21
88.542299999999983
 31
0.0
  0
LINE
  5
7E
  8
0
 62
     7
 10
153.6939999999999
 20
88.542299999999983
 30
0.0
 11
153.6939999999999
 21
92.611000000000004
 31
0.0
  0
LINE
  5
7F
  8
0
 62
     7
 10
89.142099999999999
 20
232.93899999999999
 30
0.0
 11
91.1768
 21
236.46199999999999
 31
0.0
  0
LINE
  5
80
  8
0
 62
     7
 10
91.1768
 20
236.46199999999999
 30
0.0
 11
93.210700000000003
 21
232.93899999999999
 31
0.0
  0
LINE
  5
81
  8
0
 62
     7
 10
93.210700000000003
 20
232.93899999999999
 30
0.0
 11
89.142099999999999
 21
232.93899999999999
 31
0.0
  0
LINE
  5
82
  8
0
 62
     7
 10
155.00700000000001
 20
143.55999999999989
 30
0.0
 11
157.2179999999999
 21
144.15299999999999
 31
0.0
  0
LINE
  5
83
  8
0
 62
     7
 10
157.2179999999999
 20
144.15299999999999
 30
0.0
 11
155.00700000000001
 21
144.74600000000001
 31
0.0
  0
LINE
  5
84
  8
0
 62
     7
 10
155.00700000000001
 20
144.74600000000001
 30
0.0
 11
155.00700000000001
 21
143.55999999999989
 31
0.0
  0
LINE
  5
85
  8
0
 62
     7
 10
162.40499999999989
 20
143.55299999999991
 30
0.0
 11
164.61699999999999
 21
144.14599999999999
 31
0.0
  0
LINE
  5
86
  8
0
 62
     7
 10
164.61699999999999
 20
144.14599999999999
 30
0.0
 11
162.40499999999989
 21
144.738
 31
0.0
  0
LINE
  5
87
  8
0
 62
     7
 10
162.40499999999989
 20
144.738
 30
0.0
 11
162.40499999999989
 21
143.55299999999991
 31
0.0
  0
LINE
  5
88
  8
0
 62
     7
 10
172.018
 20
144.15299999999999
 30
0.0
 11
146.018
 21
144.15299999999999
 31
0.0
  0
LINE
  5
89
  8
0
 62
     7
 10
146.01699999999991
 20
144.85299999999989
 30
0.0
 11
146.01699999999991
 21
131.14599999999999
 31
0.0
  0
LINE
  5
8A
  8
0
 62
     7
 10
148.2289999999999
 20
144.7529999999999
 30
0.0
 11
146.018
 21
144.16
 31
0.0
  0
LINE
  5
8B
  8
0
 62
     7
 10
146.018
 20
144.16
 30
0.0
 11
148.2289999999999
 21
143.5679999999999
 31
0.0
  0
LINE
  5
8C
  8
0
 62
     7
 10
148.2289999999999
 20
143.5679999999999
 30
0.0
 11
148.2289999999999
 21
144.7529999999999
 31
0.0
  0
LINE
  5
8D
  8
0
 62
     7
 10
157.21700000000001
 20
144.85299999999989
 30
0.0
 11
157.21700000000001
 21
134.58000000000001
 31
0.0
  0
LINE
  5
8E
  8
0
 62
     7
 10
169.80699999999999
 20
143.5679999999999
 30
0.0
 11
172.018
 21
144.16
 31
0.0
  0
LINE
  5
8F
  8
0
 62
     7
 10
172.018
 20
144.16
 30
0.0
 11
169.80699999999999
 21
144.7529999999999
 31
0.0
  0
LINE
  5
90
  8
0
 62
     7
 10
169.80699999999999
 20
144.7529999999999
 30
0.0
 11
169.80699999999999
 21
143.5679999999999
 31
0.0
  0
LINE
  5
91
  8
0
 62
     7
 10
159.42899999999989
 20
144.7529999999999
 30
0.0
 11
157.2179999999999
 21
144.16
 31
0.0
  0
LINE
  5
92
  8
0
 62
     7
 10
157.2179999999999
 20
144.16
 30
0.0
 11
159.42899999999989
 21
143.5679999999999
 31
0.0
  0
LINE
  5
93
  8
0
 62
     7
 10
159.42899999999989
 20
143.5679999999999
 30
0.0
 11
159.42899999999989
 21
144.7529999999999
 31
0.0
  0
LINE
  5
94
  8
0
 62
     7
 10
166.828
 20
144.738
 30
0.0
 11
164.61699999999999
 21
144.14599999999999
 31
0.0
  0
LINE
  5
95
  8
0
 62
     7
 10
164.61699999999999
 20
144.14599999999999
 30
0.0
 11
166.828
 21
143.55299999999991
 31
0.0
  0
LINE
  5
96
  8
0
 62
     7
 10
166.828
 20
143.55299999999991
 30
0.0
 11
166.828
 21
144.738
 31
0.0
  0
LINE
  5
97
  8
0
 62
     7
 10
172.01699999999991
 20
144.85299999999989
 30
0.0
 11
172.01699999999991
 21
134.9499999999999
 31
0.0
  0
LINE
  5
98
  8
0
 62
     7
 10
164.61799999999999
 20
144.85299999999989
 30
0.0
 11
164.61799999999999
 21
135.28
 31
0.0
  0
LINE
  5
99
  8
0
 62
     7
 10
185.15899999999999
 20
133.0689999999999
 30
0.0
 11
184.56700000000001
 21
135.28
 31
0.0
  0
LINE
  5
9A
  8
0
 62
     7
 10
184.56700000000001
 20
135.28
 30
0.0
 11
183.97399999999999
 21
133.0689999999999
 31
0.0
  0
LINE
  5
9B
  8
0
 62
     7
 10
183.97399999999999
 20
133.0689999999999
 30
0.0
 11
185.15899999999999
 21
133.0689999999999
 31
0.0
  0
LINE
  5
9C
  8
0
 62
     7
 10
183.989
 20
122.09
 30
0.0
 11
184.5809999999999
 21
119.879
 31
0.0
  0
LINE
  5
9D
  8
0
 62
     7
 10
184.5809999999999
 20
119.879
 30
0.0
 11
185.17400000000001
 21
122.09
 31
0.0
  0
LINE
  5
9E
  8
0
 62
     7
 10
185.17400000000001
 20
122.09
 30
0.0
 11
183.989
 21
122.09
 31
0.0
  0
LINE
  5
9F
  8
0
 62
     7
 10
184.57400000000001
 20
135.28
 30
0.0
 11
184.57400000000001
 21
119.879
 31
0.0
  0
LINE
  5
A0
  8
0
 62
     7
 10
185.274
 20
135.28
 30
0.0
 11
172.49299999999999
 21
135.28
 31
0.0
  0
LINE
  5
A1
  8
0
 62
     7
 10
185.274
 20
119.879
 30
0.0
 11
172.36699999999999
 21
119.879
 31
0.0
  0
LINE
  5
A2
  8
0
 62
     7
 10
179.4959999999999
 20
124.26899999999991
 30
0.0
 11
178.90299999999991
 21
126.48
 31
0.0
  0
LINE
  5
A3
  8
0
 62
     7
 10
178.90299999999991
 20
126.48
 30
0.0
 11
178.31099999999989
 21
124.26899999999991
 31
0.0
  0
LINE
  5
A4
  8
0
 62
     7
 10
178.31099999999989
 20
124.26899999999991
 30
0.0
 11
179.4959999999999
 21
124.26899999999991
 31
0.0
  0
LINE
  5
A5
  8
0
 62
     7
 10
178.3249999999999
 20
120.29000000000001
 30
0.0
 11
178.91799999999989
 21
118.07899999999999
 31
0.0
  0
LINE
  5
A6
  8
0
 62
     7
 10
178.91799999999989
 20
118.07899999999999
 30
0.0
 11
179.50999999999991
 21
120.29000000000001
 31
0.0
  0
LINE
  5
A7
  8
0
 62
     7
 10
179.50999999999991
 20
120.29000000000001
 30
0.0
 11
178.3249999999999
 21
120.29000000000001
 31
0.0
  0
LINE
  5
A8
  8
0
 62
     7
 10
178.90999999999991
 20
126.48
 30
0.0
 11
178.90999999999991
 21
118.08
 31
0.0
  0
LINE
  5
A9
  8
0
 62
     7
 10
172.01699999999991
 20
125.479
 30
0.0
 11
171.61699999999999
 21
125.479
 31
0.0
  0
LINE
  5
AA
  8
0
 62
     7
 10
172.01699999999991
 20
121.48
 30
0.0
 11
171.61699999999999
 21
121.48
 31
0.0
  0
LINE
  5
AB
  8
0
  6
AIGENLINE002
 62
     7
 10
173.41399999999999
 20
123.48
 30
0.0
 11
170.02000000000001
 21
123.48
 31
0.0
  0
LINE
  5
AC
  8
0
 62
     7
 10
172.01699999999991
 20
121.48
 30
0.0
 11
172.01699999999991
 21
125.479
 31
0.0
  0
LINE
  5
AD
  8
0
 62
     7
 10
172.01699999999991
 20
134.4789999999999
 30
0.0
 11
171.61699999999999
 21
134.4789999999999
 31
0.0
  0
LINE
  5
AE
  8
0
 62
     7
 10
172.01699999999991
 20
130.4799999999999
 30
0.0
 11
171.61699999999999
 21
130.4799999999999
 31
0.0
  0
LINE
  5
AF
  8
0
  6
AIGENLINE002
 62
     7
 10
173.41399999999999
 20
132.4799999999999
 30
0.0
 11
170.02000000000001
 21
132.4799999999999
 31
0.0
  0
LINE
  5
B0
  8
0
 62
     7
 10
179.61000000000001
 20
126.48
 30
0.0
 11
167.5679999999999
 21
126.48
 31
0.0
  0
LINE
  5
B1
  8
0
 62
     7
 10
179.61000000000001
 20
118.07899999999999
 30
0.0
 11
172.36699999999999
 21
118.07899999999999
 31
0.0
  0
LINE
  5
B2
  8
0
 62
     7
 10
169.8059999999999
 20
93.517399999999995
 30
0.0
 11
172.01699999999991
 21
94.109899999999996
 31
0.0
  0
LINE
  5
B3
  8
0
 62
     7
 10
172.01699999999991
 20
94.109899999999996
 30
0.0
 11
169.8059999999999
 21
94.702500000000001
 31
0.0
  0
LINE
  5
B4
  8
0
 62
     7
 10
169.8059999999999
 20
94.702500000000001
 30
0.0
 11
169.8059999999999
 21
93.517399999999995
 31
0.0
  0
LINE
  5
B5
  8
0
 62
     7
 10
159.42799999999991
 20
94.695200000000014
 30
0.0
 11
157.21600000000001
 21
94.102699999999999
 31
0.0
  0
LINE
  5
B6
  8
0
 62
     7
 10
157.21600000000001
 20
94.102699999999999
 30
0.0
 11
159.42799999999991
 21
93.510099999999994
 31
0.0
  0
LINE
  5
B7
  8
0
 62
     7
 10
159.42799999999991
 20
93.510099999999994
 30
0.0
 11
159.42799999999991
 21
94.695200000000014
 31
0.0
  0
LINE
  5
B8
  8
0
 62
     7
 10
172.01699999999991
 20
94.109899999999996
 30
0.0
 11
157.21700000000001
 21
94.109899999999996
 31
0.0
  0
LINE
  5
B9
  8
0
 62
     7
 10
166.40599999999989
 20
100.5209999999999
 30
0.0
 11
168.61699999999999
 21
101.1139999999999
 31
0.0
  0
LINE
  5
BA
  8
0
 62
     7
 10
168.61699999999999
 20
101.1139999999999
 30
0.0
 11
166.40599999999989
 21
101.706
 31
0.0
  0
LINE
  5
BB
  8
0
 62
     7
 10
166.40599999999989
 20
101.706
 30
0.0
 11
166.40599999999989
 21
100.5209999999999
 31
0.0
  0
LINE
  5
BC
  8
0
 62
     7
 10
174.22900000000001
 20
101.706
 30
0.0
 11
172.01699999999991
 21
101.1139999999999
 31
0.0
  0
LINE
  5
BD
  8
0
 62
     7
 10
172.01699999999991
 20
101.1139999999999
 30
0.0
 11
174.22900000000001
 21
100.5209999999999
 31
0.0
  0
LINE
  5
BE
  8
0
 62
     7
 10
174.22900000000001
 20
100.5209999999999
 30
0.0
 11
174.22900000000001
 21
101.706
 31
0.0
  0
LINE
  5
BF
  8
0
 62
     7
 10
159.42799999999991
 20
101.699
 30
0.0
 11
157.21600000000001
 21
101.107
 31
0.0
  0
LINE
  5
C0
  8
0
 62
     7
 10
157.21600000000001
 20
101.107
 30
0.0
 11
159.42799999999991
 21
100.5139999999999
 31
0.0
  0
LINE
  5
C1
  8
0
 62
     7
 10
159.42799999999991
 20
100.5139999999999
 30
0.0
 11
159.42799999999991
 21
101.699
 31
0.0
  0
LINE
  5
C2
  8
0
 62
     7
 10
177.3959999999999
 20
101.1139999999999
 30
0.0
 11
157.21700000000001
 21
101.1139999999999
 31
0.0
  0
LINE
  5
C3
  8
0
 62
     7
 10
172.01699999999991
 20
93.409899999999993
 30
0.0
 11
172.01699999999991
 21
120.91500000000001
 31
0.0
  0
LINE
  5
C4
  8
0
 62
     7
 10
168.61699999999999
 20
100.414
 30
0.0
 11
168.61699999999999
 21
116.53100000000001
 31
0.0
  0
LINE
  5
C5
  8
0
 62
     7
 10
114.4279999999999
 20
101.699
 30
0.0
 11
112.21599999999999
 21
101.107
 31
0.0
  0
LINE
  5
C6
  8
0
 62
     7
 10
112.21599999999999
 20
101.107
 30
0.0
 11
114.4279999999999
 21
100.5139999999999
 31
0.0
  0
LINE
  5
C7
  8
0
 62
     7
 10
114.4279999999999
 20
100.5139999999999
 30
0.0
 11
114.4279999999999
 21
101.699
 31
0.0
  0
LINE
  5
C8
  8
0
 62
     7
 10
155.00700000000001
 20
100.529
 30
0.0
 11
157.2179999999999
 21
101.121
 31
0.0
  0
LINE
  5
C9
  8
0
 62
     7
 10
157.2179999999999
 20
101.121
 30
0.0
 11
155.00700000000001
 21
101.7139999999999
 31
0.0
  0
LINE
  5
CA
  8
0
 62
     7
 10
155.00700000000001
 20
101.7139999999999
 30
0.0
 11
155.00700000000001
 21
100.529
 31
0.0
  0
LINE
  5
CB
  8
0
 62
     7
 10
112.217
 20
101.1139999999999
 30
0.0
 11
157.21700000000001
 21
101.1139999999999
 31
0.0
  0
LINE
  5
CC
  8
0
 62
     7
 10
112.217
 20
100.414
 30
0.0
 11
112.217
 21
122.517
 31
0.0
  0
LINE
  5
CD
  8
0
 62
     7
 10
157.21700000000001
 20
100.414
 30
0.0
 11
157.21700000000001
 21
118.37899999999991
 31
0.0
  0
LINE
  5
CE
  8
0
  6
AIGENLINE003
 62
     7
 10
141.26499999999999
 20
112.91799999999991
 30
0.0
 11
140.17699999999999
 21
113.4249999999999
 31
0.0
  0
ARC
  5
CF
  8
0
  6
AIGENLINE003
 62
     7
 10
140.271827
 20
113.609746
 30
0.0
 40
0.207992
 50
157.12647100000001
 51
242.87548799999999
  0
ARC
  5
D0
  8
0
  6
AIGENLINE003
 62
     7
 10
141.345234
 20
113.108794
 30
0.0
 40
0.207578
 50
247.14844099999999
 51
333.03244499999988
  0
LINE
  5
D1
  8
0
  6
AIGENLINE003
 62
     7
 10
148.334
 20
130.91699999999989
 30
0.0
 11
149.602
 21
130.32499999999999
 31
0.0
  0
LINE
  5
D2
  8
0
  6
AIGENLINE003
 62
     7
 10
148.0679999999999
 20
130.81999999999999
 30
0.0
 11
140.08000000000001
 21
113.691
 31
0.0
  0
ARC
  5
D3
  8
0
  6
AIGENLINE003
 62
     7
 10
148.25290499999991
 20
130.72463099999999
 30
0.0
 40
0.208191
 50
67.177286999999993
 51
152.82465199999999
  0
LINE
  5
D4
  8
0
  6
AIGENLINE003
 62
     7
 10
149.602
 20
130.32499999999999
 30
0.0
 11
141.53
 21
113.0149999999999
 31
0.0
  0
LINE
  5
D5
  8
0
 62
     7
 10
165.91800000000001
 20
119.879
 30
0.0
 11
165.91800000000001
 21
118.07899999999999
 31
0.0
  0
LINE
  5
D6
  8
0
 62
     7
 10
171.31700000000001
 20
119.879
 30
0.0
 11
171.31700000000001
 21
118.07899999999999
 31
0.0
  0
LINE
  5
D7
  8
0
  6
AIGENLINE002
 62
     7
 10
168.61699999999999
 20
121.857
 30
0.0
 11
168.61699999999999
 21
117.23099999999999
 31
0.0
  0
LINE
  5
D8
  8
0
 62
     7
 10
165.91800000000001
 20
118.07899999999999
 30
0.0
 11
171.31700000000001
 21
118.07899999999999
 31
0.0
  0
LINE
  5
D9
  8
0
 62
     7
 10
113.877
 20
124.479
 30
0.0
 11
110.357
 21
124.479
 31
0.0
  0
LINE
  5
DA
  8
0
  6
AIGENLINE002
 62
     7
 10
112.217
 20
125.842
 30
0.0
 11
112.217
 21
123.217
 31
0.0
  0
LINE
  5
DB
  8
0
 62
     7
 10
109.217
 20
128.279
 30
0.0
 11
109.217
 21
124.675
 31
0.0
  0
LINE
  5
DC
  8
0
 62
     7
 10
114.217
 20
124.27799999999991
 30
0.0
 11
146.01699999999991
 21
123.863
 31
0.0
  0
LINE
  5
DD
  8
0
 62
     7
 10
109.41199999999991
 20
124.47499999999999
 30
0.0
 11
110.357
 21
124.479
 31
0.0
  0
ARC
  5
DE
  8
0
 62
     7
 10
109.424435
 20
124.68229699999991
 30
0.0
 40
0.207456
 50
182.014512
 51
266.68680299999988
  0
LINE
  5
DF
  8
0
 62
     7
 10
109.417
 20
128.4789999999999
 30
0.0
 11
146.018
 21
128.4789999999999
 31
0.0
  0
ARC
  5
E0
  8
0
 62
     7
 10
109.4245029999999
 20
128.27206399999989
 30
0.0
 40
0.207521
 50
92.09293599999998
 51
178.00573399999999
  0
LINE
  5
E1
  8
0
 62
     7
 10
147.61699999999999
 20
111.2789999999999
 30
0.0
 11
146.01699999999991
 21
111.2789999999999
 31
0.0
  0
LINE
  5
E2
  8
0
 62
     7
 10
146.21700000000001
 20
130.37899999999999
 30
0.0
 11
146.21700000000001
 21
111.07899999999989
 31
0.0
  0
LINE
  5
E3
  8
0
 62
     7
 10
146.21700000000001
 20
122.179
 30
0.0
 11
147.61699999999999
 21
122.179
 31
0.0
  0
LINE
  5
E4
  8
0
 62
     7
 10
146.21700000000001
 20
122.57899999999989
 30
0.0
 11
147.61699999999999
 21
122.57899999999989
 31
0.0
  0
LINE
  5
E5
  8
0
 62
     7
 10
146.01699999999991
 20
111.2789999999999
 30
0.0
 11
146.01699999999991
 21
122.78
 31
0.0
  0
LINE
  5
E6
  8
0
 62
     7
 10
147.41699999999989
 20
111.07899999999989
 30
0.0
 11
146.21700000000001
 21
111.07899999999989
 31
0.0
  0
ARC
  5
E7
  8
0
 62
     7
 10
146.2251949999999
 20
111.2868689999999
 30
0.0
 40
0.207825
 50
182.0721659999999
 51
267.82916299999988
  0
LINE
  5
E8
  8
0
 62
     7
 10
147.61699999999999
 20
111.2789999999999
 30
0.0
 11
147.61699999999999
 21
122.57899999999989
 31
0.0
  0
ARC
  5
E9
  8
0
 62
     7
 10
147.40974099999991
 20
111.28686999999989
 30
0.0
 40
0.207813
 50
272.0726029999999
 51
357.9274069999999
  0
LINE
  5
EA
  8
0
 62
     7
 10
156.15299999999991
 20
119.07899999999999
 30
0.0
 11
157.21700000000001
 21
119.07899999999999
 31
0.0
  0
ARC
  5
EB
  8
0
 62
     7
 10
156.160312
 20
119.28699400000001
 30
0.0
 40
0.207665
 50
186.32860299999999
 51
268.08846299999999
  0
LINE
  5
EC
  8
0
 62
     7
 10
156.15299999999991
 20
133.87999999999991
 30
0.0
 11
157.21700000000001
 21
133.87999999999991
 31
0.0
  0
ARC
  5
ED
  8
0
 62
     7
 10
156.15992600000001
 20
133.67253600000001
 30
0.0
 40
0.207236
 50
91.808783999999989
 51
173.77414899999991
  0
ARC
  5
EE
  8
0
 62
     7
 10
233.26160300000001
 20
126.4795569999999
 30
0.0
 40
77.643900000000002
 50
174.66880699999999
 51
185.3311929999999
  0
LINE
  5
EF
  8
0
 62
     7
 10
79.856999999999999
 20
236.46199999999999
 30
0.0
 11
79.856999999999999
 21
236.66200000000001
 31
0.0
  0
LINE
  5
F0
  8
0
 62
     7
 10
66.656999999999996
 20
236.66200000000001
 30
0.0
 11
66.656999999999996
 21
236.46199999999999
 31
0.0
  0
LINE
  5
F1
  8
0
 62
     7
 10
66.656999999999996
 20
236.66200000000001
 30
0.0
 11
79.856999999999999
 21
236.66200000000001
 31
0.0
  0
LINE
  5
F2
  8
0
 62
     7
 10
157.417
 20
133.08000000000001
 30
0.0
 11
157.417
 21
119.879
 31
0.0
  0
LINE
  5
F3
  8
0
 62
     7
 10
157.417
 20
133.08000000000001
 30
0.0
 11
157.21700000000001
 21
133.08000000000001
 31
0.0
  0
LINE
  5
F4
  8
0
 62
     7
 10
157.417
 20
119.879
 30
0.0
 11
157.21700000000001
 21
119.879
 31
0.0
  0
LINE
  5
F5
  8
0
 62
     7
 10
59.856999999999999
 20
236.46199999999999
 30
0.0
 11
59.856999999999999
 21
236.66200000000001
 31
0.0
  0
LINE
  5
F6
  8
0
 62
     7
 10
46.656700000000001
 20
236.66200000000001
 30
0.0
 11
46.656700000000001
 21
236.46199999999999
 31
0.0
  0
LINE
  5
F7
  8
0
 62
     7
 10
46.656700000000001
 20
236.66200000000001
 30
0.0
 11
59.856999999999999
 21
236.66200000000001
 31
0.0
  0
LINE
  5
F8
  8
0
 62
     7
 10
55.15679999999999
 20
239.66199999999989
 30
0.0
 11
51.356900000000003
 21
239.66199999999989
 31
0.0
  0
LINE
  5
F9
  8
0
 62
     7
 10
157.417
 20
121.57899999999989
 30
0.0
 11
164.61699999999999
 21
121.57899999999989
 31
0.0
  0
LINE
  5
FA
  8
0
 62
     7
 10
157.417
 20
131.38
 30
0.0
 11
164.61699999999999
 21
131.38
 31
0.0
  0
LINE
  5
FB
  8
0
  6
AIGENLINE002
 62
     7
 10
107.9399999999999
 20
126.48
 30
0.0
 11
166.119
 21
126.48
 31
0.0
  0
LINE
  5
FC
  8
0
 62
     7
 10
147.61699999999999
 20
122.78
 30
0.0
 11
147.917
 21
122.78
 31
0.0
  0
LINE
  5
FD
  8
0
 62
     7
 10
147.61699999999999
 20
130.18000000000001
 30
0.0
 11
147.917
 21
130.18000000000001
 31
0.0
  0
LINE
  5
FE
  8
0
 62
     7
 10
146.21700000000001
 20
130.37899999999999
 30
0.0
 11
147.61699999999999
 21
130.37899999999999
 31
0.0
  0
LINE
  5
FF
  8
0
 62
     7
 10
146.01699999999991
 20
130.18000000000001
 30
0.0
 11
146.01699999999991
 21
122.78
 31
0.0
  0
ARC
  5
100
  8
0
 62
     7
 10
146.22483500000001
 20
130.1721
 30
0.0
 40
0.207466
 50
92.075303000000005
 51
177.924667
  0
LINE
  5
101
  8
0
 62
     7
 10
147.61699999999999
 20
130.37899999999999
 30
0.0
 11
147.61699999999999
 21
122.57899999999989
 31
0.0
  0
LINE
  5
102
  8
0
 62
     7
 10
155.726
 20
130.57900000000001
 30
0.0
 11
147.917
 21
130.57900000000001
 31
0.0
  0
LINE
  5
103
  8
0
 62
     7
 10
155.726
 20
122.37899999999991
 30
0.0
 11
147.917
 21
122.37899999999991
 31
0.0
  0
LINE
  5
104
  8
0
 62
     7
 10
147.917
 20
130.57900000000001
 30
0.0
 11
147.917
 21
122.37899999999991
 31
0.0
  0
LINE
  5
105
  8
0
 62
     7
 10
157.21700000000001
 20
133.87999999999991
 30
0.0
 11
157.21700000000001
 21
119.07899999999999
 31
0.0
  0
LINE
  5
106
  8
0
 62
     7
 10
37.038600000000002
 20
190.67299999999989
 30
0.0
 11
37.6312
 21
188.4609999999999
 31
0.0
  0
LINE
  5
107
  8
0
 62
     7
 10
37.6312
 20
188.4609999999999
 30
0.0
 11
38.223700000000001
 21
190.67299999999989
 31
0.0
  0
LINE
  5
108
  8
0
 62
     7
 10
38.223700000000001
 20
190.67299999999989
 30
0.0
 11
37.038600000000002
 21
190.67299999999989
 31
0.0
  0
LINE
  5
109
  8
0
 62
     7
 10
38.209299999999999
 20
234.2519999999999
 30
0.0
 11
37.616700000000002
 21
236.46299999999999
 31
0.0
  0
LINE
  5
10A
  8
0
 62
     7
 10
37.616700000000002
 20
236.46299999999999
 30
0.0
 11
37.0242
 21
234.2519999999999
 31
0.0
  0
LINE
  5
10B
  8
0
 62
     7
 10
37.0242
 20
234.2519999999999
 30
0.0
 11
38.209299999999999
 21
234.2519999999999
 31
0.0
  0
LINE
  5
10C
  8
0
 62
     7
 10
37.624000000000002
 20
188.46199999999999
 30
0.0
 11
37.624000000000002
 21
236.46199999999999
 31
0.0
  0
LINE
  5
10D
  8
0
 62
     7
 10
36.923900000000003
 20
188.46199999999999
 30
0.0
 11
50.17179999999999
 21
188.46199999999999
 31
0.0
  0
LINE
  5
10E
  8
0
 62
     7
 10
36.923900000000003
 20
236.46199999999999
 30
0.0
 11
45.356900000000003
 21
236.46199999999999
 31
0.0
  0
LINE
  5
10F
  8
0
 62
     7
 10
51.056800000000003
 20
243.86199999999991
 30
0.0
 11
51.056800000000003
 21
250.863
 31
0.0
  0
LINE
  5
110
  8
0
 62
     7
 10
55.15679999999999
 20
239.66199999999989
 30
0.0
 11
55.356999999999999
 21
239.86199999999999
 31
0.0
  0
LINE
  5
111
  8
0
 62
     7
 10
55.15679999999999
 20
241.86199999999999
 30
0.0
 11
55.15679999999999
 21
239.66199999999989
 31
0.0
  0
LINE
  5
112
  8
0
 62
     7
 10
51.356900000000003
 20
239.66199999999989
 30
0.0
 11
51.156700000000001
 21
239.86199999999999
 31
0.0
  0
LINE
  5
113
  8
0
 62
     7
 10
51.356900000000003
 20
241.86199999999999
 30
0.0
 11
51.356900000000003
 21
239.66199999999989
 31
0.0
  0
LINE
  5
114
  8
0
 62
     7
 10
51.456800000000001
 20
236.66200000000001
 30
0.0
 11
51.456800000000001
 21
239.66199999999989
 31
0.0
  0
LINE
  5
115
  8
0
 62
     7
 10
55.056899999999999
 20
236.66200000000001
 30
0.0
 11
55.056899999999999
 21
239.66199999999989
 31
0.0
  0
LINE
  5
116
  8
0
 62
     7
 10
55.356999999999999
 20
241.86199999999999
 30
0.0
 11
55.356999999999999
 21
239.86199999999999
 31
0.0
  0
LINE
  5
117
  8
0
 62
     7
 10
51.156700000000001
 20
241.86199999999999
 30
0.0
 11
51.156700000000001
 21
239.86199999999999
 31
0.0
  0
LINE
  5
118
  8
0
 62
     7
 10
55.356999999999999
 20
239.86199999999999
 30
0.0
 11
51.156700000000001
 21
239.86199999999999
 31
0.0
  0
LINE
  5
119
  8
0
 62
     7
 10
49.256700000000002
 20
243.86199999999991
 30
0.0
 11
49.856900000000003
 21
243.86199999999991
 31
0.0
  0
LINE
  5
11A
  8
0
 62
     7
 10
172.01699999999991
 20
130.4799999999999
 30
0.0
 11
172.01699999999991
 21
134.4789999999999
 31
0.0
  0
LINE
  5
11B
  8
0
 62
     7
 10
170.81700000000001
 20
119.879
 30
0.0
 11
170.81700000000001
 21
135.28
 31
0.0
  0
LINE
  5
11C
  8
0
 62
     7
 10
165.417
 20
119.879
 30
0.0
 11
165.417
 21
135.28
 31
0.0
  0
LINE
  5
11D
  8
0
 62
     7
 10
164.61699999999999
 20
121.8799999999999
 30
0.0
 11
171.61699999999999
 21
121.8799999999999
 31
0.0
  0
LINE
  5
11E
  8
0
 62
     7
 10
164.61699999999999
 20
120.679
 30
0.0
 11
164.61699999999999
 21
134.4799999999999
 31
0.0
  0
LINE
  5
11F
  8
0
 62
     7
 10
165.417
 20
135.28
 30
0.0
 11
170.81700000000001
 21
135.28
 31
0.0
  0
ARC
  5
120
  8
0
 62
     7
 10
165.447901
 20
134.44921199999999
 30
0.0
 40
0.8311149999999999
 50
92.109700000000004
 51
177.8902709999999
  0
ARC
  5
121
  8
0
 62
     7
 10
170.786596
 20
134.44922199999999
 30
0.0
 40
0.8311049999999999
 50
2.109065999999999
 51
87.890924999999996
  0
LINE
  5
122
  8
0
 62
     7
 10
165.417
 20
119.879
 30
0.0
 11
170.81700000000001
 21
119.879
 31
0.0
  0
ARC
  5
123
  8
0
 62
     7
 10
165.447901
 20
120.709953
 30
0.0
 40
0.8311149999999999
 50
182.10972899999999
 51
267.89030000000002
  0
LINE
  5
124
  8
0
 62
     7
 10
171.61699999999999
 20
120.679
 30
0.0
 11
171.61699999999999
 21
134.4799999999999
 31
0.0
  0
ARC
  5
125
  8
0
 62
     7
 10
170.786596
 20
120.7099429999999
 30
0.0
 40
0.8311049999999999
 50
272.10907500000002
 51
357.8909339999999
  0
LINE
  5
126
  8
0
 62
     7
 10
166.61799999999991
 20
119.879
 30
0.0
 11
166.61799999999991
 21
135.28
 31
0.0
  0
LINE
  5
127
  8
0
 62
     7
 10
80.057100000000005
 20
251.262
 30
0.0
 11
76.057000000000002
 21
251.262
 31
0.0
  0
LINE
  5
128
  8
0
 62
     7
 10
62.457000000000001
 20
251.262
 30
0.0
 11
58.456899999999997
 21
251.262
 31
0.0
  0
LINE
  5
129
  8
0
 62
     7
 10
57.256999999999991
 20
241.86199999999999
 30
0.0
 11
49.256700000000002
 21
241.86199999999999
 31
0.0
  0
LINE
  5
12A
  8
0
 62
     7
 10
57.256999999999991
 20
241.86199999999999
 30
0.0
 11
57.256999999999991
 21
243.86199999999991
 31
0.0
  0
LINE
  5
12B
  8
0
 62
     7
 10
49.256700000000002
 20
241.86199999999999
 30
0.0
 11
49.256700000000002
 21
243.86199999999991
 31
0.0
  0
LINE
  5
12C
  8
0
 62
     7
 10
68.356800000000007
 20
236.66200000000001
 30
0.0
 11
68.356800000000007
 21
243.86299999999989
 31
0.0
  0
LINE
  5
12D
  8
0
 62
     7
 10
78.1571
 20
236.66200000000001
 30
0.0
 11
78.1571
 21
243.86299999999989
 31
0.0
  0
LINE
  5
12E
  8
0
 62
     7
 10
49.056899999999992
 20
244.66200000000001
 30
0.0
 11
49.056899999999992
 21
250.06200000000001
 31
0.0
  0
ARC
  5
12F
  8
0
 62
     7
 10
49.887471999999988
 20
244.69300499999991
 30
0.0
 40
0.8311149999999999
 50
182.10972899999999
 51
267.89030000000002
  0
ARC
  5
130
  8
0
 62
     7
 10
49.887461999999999
 20
250.03187299999999
 30
0.0
 40
0.8311049999999999
 50
92.109037999999998
 51
177.89093199999999
  0
LINE
  5
131
  8
0
 62
     7
 10
85.057000000000002
 20
250.06200000000001
 30
0.0
 11
49.056899999999992
 21
250.06200000000001
 31
0.0
  0
LINE
  5
132
  8
0
 62
     7
 10
85.057000000000002
 20
244.66200000000001
 30
0.0
 11
49.05660000000001
 21
244.66200000000001
 31
0.0
  0
LINE
  5
133
  8
0
 62
     7
 10
83.057100000000005
 20
243.86199999999991
 30
0.0
 11
83.057100000000005
 21
250.86199999999999
 31
0.0
  0
LINE
  5
134
  8
0
 62
     7
 10
58.456899999999997
 20
250.86199999999999
 30
0.0
 11
58.456899999999997
 21
251.262
 31
0.0
  0
LINE
  5
135
  8
0
  6
AIGENLINE002
 62
     7
 10
60.456800000000001
 20
250.10099999999991
 30
0.0
 11
60.456800000000001
 21
252.36799999999999
 31
0.0
  0
LINE
  5
136
  8
0
 62
     7
 10
62.457000000000001
 20
250.86199999999999
 30
0.0
 11
62.457000000000001
 21
251.262
 31
0.0
  0
LINE
  5
137
  8
0
 62
     7
 10
76.057000000000002
 20
250.86199999999999
 30
0.0
 11
76.057000000000002
 21
251.262
 31
0.0
  0
LINE
  5
138
  8
0
  6
AIGENLINE002
 62
     7
 10
78.057199999999995
 20
250.10099999999991
 30
0.0
 11
78.057199999999995
 21
252.36799999999999
 31
0.0
  0
LINE
  5
139
  8
0
 62
     7
 10
80.057100000000005
 20
250.86199999999999
 30
0.0
 11
80.057100000000005
 21
251.262
 31
0.0
  0
LINE
  5
13A
  8
0
 62
     7
 10
84.257099999999994
 20
243.86199999999991
 30
0.0
 11
49.856900000000003
 21
243.86199999999991
 31
0.0
  0
LINE
  5
13B
  8
0
 62
     7
 10
85.057000000000002
 20
244.66200000000001
 30
0.0
 11
85.057000000000002
 21
250.06200000000001
 31
0.0
  0
ARC
  5
13C
  8
0
 62
     7
 10
84.226473999999996
 20
244.69299599999991
 30
0.0
 40
0.8311049999999999
 50
272.10907500000002
 51
357.8909339999999
  0
LINE
  5
13D
  8
0
 62
     7
 10
84.257099999999994
 20
250.86199999999999
 30
0.0
 11
49.856900000000003
 21
250.86199999999999
 31
0.0
  0
ARC
  5
13E
  8
0
 62
     7
 10
84.226465000000005
 20
250.03186199999999
 30
0.0
 40
0.8311159999999999
 50
2.109726999999999
 51
87.890263000000004
  0
LINE
  5
13F
  8
0
 62
     7
 10
85.057000000000002
 20
245.86299999999989
 30
0.0
 11
49.056899999999992
 21
245.86299999999989
 31
0.0
  0
LINE
  5
140
  8
0
 62
     7
 10
101.425
 20
236.46199999999999
 30
0.0
 11
81.157099999999986
 21
236.46199999999999
 31
0.0
  0
LINE
  5
141
  8
0
  6
AIGENLINE002
 62
     7
 10
53.256900000000002
 20
187.185
 30
0.0
 11
53.256900000000002
 21
245.364
 31
0.0
  0
LINE
  5
142
  8
0
 62
     7
 10
55.759099999999997
 20
188.86000000000001
 30
0.0
 11
55.956800000000001
 21
234.86199999999991
 31
0.0
  0
LINE
  5
143
  8
0
 62
     7
 10
51.154699999999998
 20
188.46199999999999
 30
0.0
 11
55.359099999999998
 21
188.46199999999999
 31
0.0
  0
ARC
  5
144
  8
0
 62
     7
 10
55.344324
 20
188.8768629999999
 30
0.0
 40
0.415086
 50
272.03629699999999
 51
357.61721699999993
  0
LINE
  5
145
  8
0
 62
     7
 10
50.754300000000001
 20
188.86000000000001
 30
0.0
 11
50.556899999999999
 21
234.86199999999991
 31
0.0
  0
ARC
  5
146
  8
0
 62
     7
 10
51.169499000000002
 20
188.87732199999999
 30
0.0
 40
0.415548
 50
182.44350299999999
 51
267.95235099999991
  0
LINE
  5
147
  8
0
 62
     7
 10
69.556700000000006
 20
226.86199999999991
 30
0.0
 11
69.556700000000006
 21
227.16199999999989
 31
0.0
  0
LINE
  5
148
  8
0
 62
     7
 10
76.956900000000005
 20
226.86199999999991
 30
0.0
 11
76.956900000000005
 21
227.16199999999989
 31
0.0
  0
LINE
  5
149
  8
0
 62
     7
 10
77.156999999999996
 20
225.46199999999999
 30
0.0
 11
77.156999999999996
 21
226.86199999999991
 31
0.0
  0
LINE
  5
14A
  8
0
 62
     7
 10
76.956900000000005
 20
225.26199999999989
 30
0.0
 11
69.556700000000006
 21
225.26199999999989
 31
0.0
  0
ARC
  5
14B
  8
0
 62
     7
 10
76.949359999999999
 20
225.46992999999989
 30
0.0
 40
0.2078
 50
272.06761099999989
 51
357.88306999999998
  0
LINE
  5
14C
  8
0
 62
     7
 10
69.356899999999996
 20
225.46199999999999
 30
0.0
 11
69.356899999999996
 21
226.86199999999991
 31
0.0
  0
ARC
  5
14D
  8
0
 62
     7
 10
69.564468999999988
 20
225.46979899999999
 30
0.0
 40
0.207678
 50
182.08200500000001
 51
267.86865299999988
  0
LINE
  5
14E
  8
0
 62
     7
 10
77.156999999999996
 20
226.86199999999991
 30
0.0
 11
69.356899999999996
 21
226.86199999999991
 31
0.0
  0
LINE
  5
14F
  8
0
 62
     7
 10
77.356800000000007
 20
234.86199999999991
 30
0.0
 11
77.356800000000007
 21
227.16199999999989
 31
0.0
  0
LINE
  5
150
  8
0
 62
     7
 10
69.156800000000004
 20
234.86199999999991
 30
0.0
 11
69.156800000000004
 21
227.16199999999989
 31
0.0
  0
LINE
  5
151
  8
0
 62
     7
 10
77.356800000000007
 20
227.16199999999989
 30
0.0
 11
69.156800000000004
 21
227.16199999999989
 31
0.0
  0
LINE
  5
152
  8
0
 62
     7
 10
80.457099999999997
 20
235.06200000000001
 30
0.0
 11
80.457099999999997
 21
236.46199999999999
 31
0.0
  0
LINE
  5
153
  8
0
 62
     7
 10
80.256900000000002
 20
234.86199999999991
 30
0.0
 11
46.256700000000002
 21
234.86199999999991
 31
0.0
  0
ARC
  5
154
  8
0
 62
     7
 10
80.249495999999994
 20
235.0700359999999
 30
0.0
 40
0.20774
 50
272.05216299999989
 51
357.89851800000002
  0
LINE
  5
155
  8
0
 62
     7
 10
46.056899999999999
 20
235.06200000000001
 30
0.0
 11
46.056899999999999
 21
236.46199999999999
 31
0.0
  0
ARC
  5
156
  8
0
 62
     7
 10
46.264431000000002
 20
235.069942
 30
0.0
 40
0.207656
 50
182.07649799999999
 51
267.87416000000002
  0
LINE
  5
157
  8
0
 62
     7
 10
80.457099999999997
 20
236.46199999999999
 30
0.0
 11
46.056899999999999
 21
236.46199999999999
 31
0.0
  0
LINE
  5
158
  8
0
  6
AIGENLINE002
 62
     7
 10
73.256799999999998
 20
223.60299999999989
 30
0.0
 11
73.256799999999998
 21
245.393
 31
0.0
  0
LINE
  5
159
  8
0
 62
     7
 10
30.237100000000002
 20
119.07899999999999
 30
0.0
 11
45.4358
 21
119.07899999999999
 31
0.0
  0
LINE
  5
15A
  8
0
 62
     7
 10
38.305100000000003
 20
121.2679999999999
 30
0.0
 11
37.712499999999999
 21
123.48
 31
0.0
  0
LINE
  5
15B
  8
0
 62
     7
 10
37.712499999999999
 20
123.48
 30
0.0
 11
37.119900000000001
 21
121.2679999999999
 31
0.0
  0
LINE
  5
15C
  8
0
 62
     7
 10
37.119900000000001
 20
121.2679999999999
 30
0.0
 11
38.305100000000003
 21
121.2679999999999
 31
0.0
  0
LINE
  5
15D
  8
0
 62
     7
 10
38.305100000000003
 20
130.268
 30
0.0
 11
37.712499999999999
 21
132.4799999999999
 31
0.0
  0
LINE
  5
15E
  8
0
 62
     7
 10
37.712499999999999
 20
132.4799999999999
 30
0.0
 11
37.119900000000001
 21
130.268
 31
0.0
  0
LINE
  5
15F
  8
0
 62
     7
 10
37.119900000000001
 20
130.268
 30
0.0
 11
38.305100000000003
 21
130.268
 31
0.0
  0
LINE
  5
160
  8
0
 62
     7
 10
37.176400000000001
 20
128.69099999999989
 30
0.0
 11
37.768999999999991
 21
126.48
 31
0.0
  0
LINE
  5
161
  8
0
 62
     7
 10
37.768999999999991
 20
126.48
 30
0.0
 11
38.361600000000003
 21
128.69099999999989
 31
0.0
  0
LINE
  5
162
  8
0
 62
     7
 10
38.361600000000003
 20
128.69099999999989
 30
0.0
 11
37.176400000000001
 21
128.69099999999989
 31
0.0
  0
LINE
  5
163
  8
0
 62
     7
 10
37.712499999999999
 20
132.4799999999999
 30
0.0
 11
37.712499999999999
 21
120.0329999999999
 31
0.0
  0
LINE
  5
164
  8
0
 62
     7
 10
31.529699999999991
 20
131.66800000000001
 30
0.0
 11
30.937200000000001
 21
133.87999999999991
 31
0.0
  0
LINE
  5
165
  8
0
 62
     7
 10
30.937200000000001
 20
133.87999999999991
 30
0.0
 11
30.3446
 21
131.66800000000001
 31
0.0
  0
LINE
  5
166
  8
0
 62
     7
 10
30.3446
 20
131.66800000000001
 30
0.0
 11
31.529699999999991
 21
131.66800000000001
 31
0.0
  0
LINE
  5
167
  8
0
 62
     7
 10
30.3446
 20
137.358
 30
0.0
 11
30.937200000000001
 21
135.14699999999999
 31
0.0
  0
LINE
  5
168
  8
0
 62
     7
 10
30.937200000000001
 20
135.14699999999999
 30
0.0
 11
31.529699999999991
 21
137.358
 31
0.0
  0
LINE
  5
169
  8
0
 62
     7
 10
31.529699999999991
 20
137.358
 30
0.0
 11
30.3446
 21
137.358
 31
0.0
  0
LINE
  5
16A
  8
0
 62
     7
 10
30.351800000000001
 20
121.29000000000001
 30
0.0
 11
30.944400000000002
 21
119.07899999999999
 31
0.0
  0
LINE
  5
16B
  8
0
 62
     7
 10
30.944400000000002
 20
119.07899999999999
 30
0.0
 11
31.536899999999999
 21
121.29000000000001
 31
0.0
  0
LINE
  5
16C
  8
0
 62
     7
 10
31.536899999999999
 20
121.29000000000001
 30
0.0
 11
30.351800000000001
 21
121.29000000000001
 31
0.0
  0
LINE
  5
16D
  8
0
 62
     7
 10
30.937200000000001
 20
140.01400000000001
 30
0.0
 11
30.937200000000001
 21
119.07899999999999
 31
0.0
  0
LINE
  5
16E
  8
0
 62
     7
 10
37.0124
 20
132.4799999999999
 30
0.0
 11
57.945300000000003
 21
132.4799999999999
 31
0.0
  0
LINE
  5
16F
  8
0
 62
     7
 10
37.0124
 20
123.48
 30
0.0
 11
57.945300000000003
 21
123.48
 31
0.0
  0
LINE
  5
170
  8
0
 62
     7
 10
37.0124
 20
126.48
 30
0.0
 11
44.067999999999998
 21
126.48
 31
0.0
  0
LINE
  5
171
  8
0
 62
     7
 10
30.237100000000002
 20
135.28
 30
0.0
 11
49.584699999999998
 21
135.28
 31
0.0
  0
LINE
  5
172
  8
0
 62
     7
 10
30.237100000000002
 20
133.87999999999991
 30
0.0
 11
45.4358
 21
133.87999999999991
 31
0.0
  0
LINE
  5
173
  8
0
 62
     7
 10
66.756900000000002
 20
99.457800000000006
 30
0.0
 11
79.757000000000005
 21
99.457800000000006
 31
0.0
  0
LINE
  5
174
  8
0
 62
     7
 10
172.92899999999989
 20
112.0049999999999
 30
0.0
 11
170.7179999999999
 21
111.41199999999991
 31
0.0
  0
LINE
  5
175
  8
0
 62
     7
 10
170.7179999999999
 20
111.41199999999991
 30
0.0
 11
172.92899999999989
 21
110.819
 31
0.0
  0
LINE
  5
176
  8
0
 62
     7
 10
172.92899999999989
 20
110.819
 30
0.0
 11
172.92899999999989
 21
112.0049999999999
 31
0.0
  0
LINE
  5
177
  8
0
 62
     7
 10
164.30600000000001
 20
110.819
 30
0.0
 11
166.51699999999991
 21
111.41199999999991
 31
0.0
  0
LINE
  5
178
  8
0
 62
     7
 10
166.51699999999991
 20
111.41199999999991
 30
0.0
 11
164.30600000000001
 21
112.0049999999999
 31
0.0
  0
LINE
  5
179
  8
0
 62
     7
 10
164.30600000000001
 20
112.0049999999999
 30
0.0
 11
164.30600000000001
 21
110.819
 31
0.0
  0
LINE
  5
17A
  8
0
 62
     7
 10
158.21000000000001
 20
111.41199999999991
 30
0.0
 11
174.28099999999989
 21
111.41199999999991
 31
0.0
  0
LINE
  5
17B
  8
0
 62
     7
 10
166.51699999999991
 20
110.712
 30
0.0
 11
166.51699999999991
 21
117.37899999999991
 31
0.0
  0
LINE
  5
17C
  8
0
 62
     7
 10
170.7179999999999
 20
110.712
 30
0.0
 11
170.7179999999999
 21
117.37899999999991
 31
0.0
  0
LINE
  5
17D
  8
0
 62
     7
 10
79.757000000000005
 20
116.45
 30
0.0
 11
79.757000000000005
 21
98.757700000000014
 31
0.0
  0
LINE
  5
17E
  8
0
 62
     7
 10
66.756900000000002
 20
116.45
 30
0.0
 11
66.756900000000002
 21
98.757700000000014
 31
0.0
  0
LINE
  5
17F
  8
0
 62
     7
 10
68.968500000000006
 20
100.0499999999999
 30
0.0
 11
66.756900000000002
 21
99.457800000000006
 31
0.0
  0
LINE
  5
180
  8
0
 62
     7
 10
66.756900000000002
 20
99.457800000000006
 30
0.0
 11
68.968500000000006
 21
98.865200000000002
 31
0.0
  0
LINE
  5
181
  8
0
 62
     7
 10
68.968500000000006
 20
98.865200000000002
 30
0.0
 11
68.968500000000006
 21
100.0499999999999
 31
0.0
  0
LINE
  5
182
  8
0
 62
     7
 10
77.545500000000004
 20
98.865200000000002
 30
0.0
 11
79.757000000000005
 21
99.457800000000006
 31
0.0
  0
LINE
  5
183
  8
0
 62
     7
 10
79.757000000000005
 20
99.457800000000006
 30
0.0
 11
77.545500000000004
 21
100.0499999999999
 31
0.0
  0
LINE
  5
184
  8
0
 62
     7
 10
77.545500000000004
 20
100.0499999999999
 30
0.0
 11
77.545500000000004
 21
98.865200000000002
 31
0.0
  0
LINE
  5
185
  8
0
 62
     7
 10
71.068600000000004
 20
106.56100000000001
 30
0.0
 11
68.856999999999985
 21
105.9679999999999
 31
0.0
  0
LINE
  5
186
  8
0
 62
     7
 10
68.856999999999985
 20
105.9679999999999
 30
0.0
 11
71.068600000000004
 21
105.376
 31
0.0
  0
LINE
  5
187
  8
0
 62
     7
 10
71.068600000000004
 20
105.376
 30
0.0
 11
71.068600000000004
 21
106.56100000000001
 31
0.0
  0
LINE
  5
188
  8
0
 62
     7
 10
62.4452
 20
105.376
 30
0.0
 11
64.656800000000004
 21
105.9679999999999
 31
0.0
  0
LINE
  5
189
  8
0
 62
     7
 10
64.656800000000004
 20
105.9679999999999
 30
0.0
 11
62.4452
 21
106.56100000000001
 31
0.0
  0
LINE
  5
18A
  8
0
 62
     7
 10
62.4452
 20
106.56100000000001
 30
0.0
 11
62.4452
 21
105.376
 31
0.0
  0
LINE
  5
18B
  8
0
 62
     7
 10
84.068799999999996
 20
106.56100000000001
 30
0.0
 11
81.857200000000006
 21
105.9679999999999
 31
0.0
  0
LINE
  5
18C
  8
0
 62
     7
 10
81.857200000000006
 20
105.9679999999999
 30
0.0
 11
84.068799999999996
 21
105.376
 31
0.0
  0
LINE
  5
18D
  8
0
 62
     7
 10
84.068799999999996
 20
105.376
 30
0.0
 11
84.068799999999996
 21
106.56100000000001
 31
0.0
  0
LINE
  5
18E
  8
0
 62
     7
 10
75.445300000000003
 20
105.376
 30
0.0
 11
77.656899999999993
 21
105.9679999999999
 31
0.0
  0
LINE
  5
18F
  8
0
 62
     7
 10
77.656899999999993
 20
105.9679999999999
 30
0.0
 11
75.445300000000003
 21
106.56100000000001
 31
0.0
  0
LINE
  5
190
  8
0
 62
     7
 10
75.445300000000003
 20
106.56100000000001
 30
0.0
 11
75.445300000000003
 21
105.376
 31
0.0
  0
LINE
  5
191
  8
0
 62
     7
 10
74.842200000000005
 20
105.9679999999999
 30
0.0
 11
89.838199999999986
 21
105.9679999999999
 31
0.0
  0
LINE
  5
192
  8
0
 62
     7
 10
77.656899999999993
 20
105.2679999999999
 30
0.0
 11
77.656899999999993
 21
117.342
 31
0.0
  0
LINE
  5
193
  8
0
 62
     7
 10
81.857200000000006
 20
105.2679999999999
 30
0.0
 11
81.857200000000006
 21
117.342
 31
0.0
  0
LINE
  5
194
  8
0
 62
     7
 10
55.70389999999999
 20
105.9679999999999
 30
0.0
 11
71.843599999999995
 21
105.9679999999999
 31
0.0
  0
LINE
  5
195
  8
0
 62
     7
 10
64.656800000000004
 20
105.2679999999999
 30
0.0
 11
64.656800000000004
 21
117.342
 31
0.0
  0
LINE
  5
196
  8
0
 62
     7
 10
68.856999999999985
 20
105.2679999999999
 30
0.0
 11
68.856999999999985
 21
117.342
 31
0.0
  0
LINE
  5
197
  8
0
 62
     7
 10
85.657200000000003
 20
243.86199999999991
 30
0.0
 11
101.425
 21
243.86199999999991
 31
0.0
  0
LINE
  5
198
  8
0
 62
     7
 10
85.657200000000003
 20
251.26300000000001
 30
0.0
 11
101.425
 21
251.26300000000001
 31
0.0
  0
LINE
  5
199
  8
0
 62
     7
 10
100.139
 20
238.67099999999991
 30
0.0
 11
100.73099999999999
 21
236.46000000000001
 31
0.0
  0
LINE
  5
19A
  8
0
 62
     7
 10
100.73099999999999
 20
236.46000000000001
 30
0.0
 11
101.3239999999999
 21
238.67099999999991
 31
0.0
  0
LINE
  5
19B
  8
0
 62
     7
 10
101.3239999999999
 20
238.67099999999991
 30
0.0
 11
100.139
 21
238.67099999999991
 31
0.0
  0
LINE
  5
19C
  8
0
 62
     7
 10
101.31
 20
241.6509999999999
 30
0.0
 11
100.717
 21
243.86199999999991
 31
0.0
  0
LINE
  5
19D
  8
0
 62
     7
 10
100.717
 20
243.86199999999991
 30
0.0
 11
100.1239999999999
 21
241.6509999999999
 31
0.0
  0
LINE
  5
19E
  8
0
 62
     7
 10
100.1239999999999
 20
241.6509999999999
 30
0.0
 11
101.31
 21
241.6509999999999
 31
0.0
  0
LINE
  5
19F
  8
0
 62
     7
 10
100.72499999999989
 20
236.4609999999999
 30
0.0
 11
100.72499999999989
 21
243.86099999999999
 31
0.0
  0
LINE
  5
1A0
  8
0
 62
     7
 10
100.139
 20
246.07299999999989
 30
0.0
 11
100.73099999999999
 21
243.86199999999991
 31
0.0
  0
LINE
  5
1A1
  8
0
 62
     7
 10
100.73099999999999
 20
243.86199999999991
 30
0.0
 11
101.3239999999999
 21
246.07299999999989
 31
0.0
  0
LINE
  5
1A2
  8
0
 62
     7
 10
101.3239999999999
 20
246.07299999999989
 30
0.0
 11
100.139
 21
246.07299999999989
 31
0.0
  0
LINE
  5
1A3
  8
0
 62
     7
 10
101.31
 20
249.05199999999999
 30
0.0
 11
100.717
 21
251.26300000000001
 31
0.0
  0
LINE
  5
1A4
  8
0
 62
     7
 10
100.717
 20
251.26300000000001
 30
0.0
 11
100.1239999999999
 21
249.05199999999999
 31
0.0
  0
LINE
  5
1A5
  8
0
 62
     7
 10
100.1239999999999
 20
249.05199999999999
 30
0.0
 11
101.31
 21
249.05199999999999
 31
0.0
  0
LINE
  5
1A6
  8
0
 62
     7
 10
100.72499999999989
 20
243.86199999999991
 30
0.0
 11
100.72499999999989
 21
251.26300000000001
 31
0.0
  0
LINE
  5
1A7
  8
0
 62
     7
 10
75.084800000000001
 20
111.07899999999989
 30
0.0
 11
102.7329999999999
 21
111.07899999999989
 31
0.0
  0
LINE
  5
1A8
  8
0
 62
     7
 10
82.502799999999993
 20
126.48
 30
0.0
 11
90.671499999999995
 21
126.48
 31
0.0
  0
LINE
  5
1A9
  8
0
 62
     7
 10
95.835800000000006
 20
126.48
 30
0.0
 11
102.7329999999999
 21
126.48
 31
0.0
  0
LINE
  5
1AA
  8
0
 62
     7
 10
101.4469999999999
 20
113.29000000000001
 30
0.0
 11
102.03999999999991
 21
111.07899999999989
 31
0.0
  0
LINE
  5
1AB
  8
0
 62
     7
 10
102.03999999999991
 20
111.07899999999989
 30
0.0
 11
102.63200000000001
 21
113.29000000000001
 31
0.0
  0
LINE
  5
1AC
  8
0
 62
     7
 10
102.63200000000001
 20
113.29000000000001
 30
0.0
 11
101.4469999999999
 21
113.29000000000001
 31
0.0
  0
LINE
  5
1AD
  8
0
 62
     7
 10
102.6179999999999
 20
124.26899999999991
 30
0.0
 11
102.02500000000001
 21
126.48
 31
0.0
  0
LINE
  5
1AE
  8
0
 62
     7
 10
102.02500000000001
 20
126.48
 30
0.0
 11
101.43299999999989
 21
124.26899999999991
 31
0.0
  0
LINE
  5
1AF
  8
0
 62
     7
 10
101.43299999999989
 20
124.26899999999991
 30
0.0
 11
102.6179999999999
 21
124.26899999999991
 31
0.0
  0
LINE
  5
1B0
  8
0
 62
     7
 10
102.0329999999999
 20
111.07899999999989
 30
0.0
 11
102.0329999999999
 21
126.48
 31
0.0
  0
LINE
  5
1B1
  8
0
 62
     7
 10
84.306999999999988
 20
119.879
 30
0.0
 11
95.6935
 21
119.879
 31
0.0
  0
LINE
  5
1B2
  8
0
 62
     7
 10
84.306999999999988
 20
135.28
 30
0.0
 11
95.6935
 21
135.28
 31
0.0
  0
LINE
  5
1B3
  8
0
 62
     7
 10
62.467700000000001
 20
144.28200000000001
 30
0.0
 11
60.256700000000002
 21
143.69
 31
0.0
  0
LINE
  5
1B4
  8
0
 62
     7
 10
60.256700000000002
 20
143.69
 30
0.0
 11
62.467700000000001
 21
143.09700000000001
 31
0.0
  0
LINE
  5
1B5
  8
0
 62
     7
 10
62.467700000000001
 20
143.09700000000001
 30
0.0
 11
62.467700000000001
 21
144.28200000000001
 31
0.0
  0
LINE
  5
1B6
  8
0
 62
     7
 10
71.045699999999997
 20
143.1039999999999
 30
0.0
 11
73.256799999999998
 21
143.697
 31
0.0
  0
LINE
  5
1B7
  8
0
 62
     7
 10
73.256799999999998
 20
143.697
 30
0.0
 11
71.045699999999997
 21
144.28899999999999
 31
0.0
  0
LINE
  5
1B8
  8
0
 62
     7
 10
71.045699999999997
 20
144.28899999999999
 30
0.0
 11
71.045699999999997
 21
143.1039999999999
 31
0.0
  0
LINE
  5
1B9
  8
0
 62
     7
 10
60.257300000000001
 20
143.697
 30
0.0
 11
81.580500000000015
 21
143.697
 31
0.0
  0
LINE
  5
1BA
  8
0
 62
     7
 10
94.407799999999995
 20
122.09
 30
0.0
 11
95.000299999999996
 21
119.879
 31
0.0
  0
LINE
  5
1BB
  8
0
 62
     7
 10
95.000299999999996
 20
119.879
 30
0.0
 11
95.5929
 21
122.09
 31
0.0
  0
LINE
  5
1BC
  8
0
 62
     7
 10
95.5929
 20
122.09
 30
0.0
 11
94.407799999999995
 21
122.09
 31
0.0
  0
LINE
  5
1BD
  8
0
 62
     7
 10
95.578400000000002
 20
133.0689999999999
 30
0.0
 11
94.985799999999998
 21
135.28
 31
0.0
  0
LINE
  5
1BE
  8
0
 62
     7
 10
94.985799999999998
 20
135.28
 30
0.0
 11
94.393299999999996
 21
133.0689999999999
 31
0.0
  0
LINE
  5
1BF
  8
0
 62
     7
 10
94.393299999999996
 20
133.0689999999999
 30
0.0
 11
95.578400000000002
 21
133.0689999999999
 31
0.0
  0
LINE
  5
1C0
  8
0
 62
     7
 10
94.993399999999994
 20
119.879
 30
0.0
 11
94.993399999999994
 21
135.28
 31
0.0
  0
LINE
  5
1C1
  8
0
 62
     7
 10
71.045199999999994
 20
150.255
 30
0.0
 11
73.256799999999998
 21
150.84700000000001
 31
0.0
  0
LINE
  5
1C2
  8
0
 62
     7
 10
73.256799999999998
 20
150.84700000000001
 30
0.0
 11
71.045199999999994
 21
151.44
 31
0.0
  0
LINE
  5
1C3
  8
0
 62
     7
 10
71.045199999999994
 20
151.44
 30
0.0
 11
71.045199999999994
 21
150.255
 31
0.0
  0
LINE
  5
1C4
  8
0
 62
     7
 10
80.068299999999994
 20
144.28899999999999
 30
0.0
 11
77.856700000000004
 21
143.697
 31
0.0
  0
LINE
  5
1C5
  8
0
 62
     7
 10
77.856700000000004
 20
143.697
 30
0.0
 11
80.068299999999994
 21
143.1039999999999
 31
0.0
  0
LINE
  5
1C6
  8
0
 62
     7
 10
80.068299999999994
 20
143.1039999999999
 30
0.0
 11
80.068299999999994
 21
144.28899999999999
 31
0.0
  0
LINE
  5
1C7
  8
0
 62
     7
 10
75.468400000000003
 20
151.44
 30
0.0
 11
73.256799999999998
 21
150.84700000000001
 31
0.0
  0
LINE
  5
1C8
  8
0
 62
     7
 10
73.256799999999998
 20
150.84700000000001
 30
0.0
 11
75.468400000000003
 21
150.255
 31
0.0
  0
LINE
  5
1C9
  8
0
 62
     7
 10
75.468400000000003
 20
150.255
 30
0.0
 11
75.468400000000003
 21
151.44
 31
0.0
  0
LINE
  5
1CA
  8
0
 62
     7
 10
50.986499999999999
 20
150.255
 30
0.0
 11
53.198099999999997
 21
150.84700000000001
 31
0.0
  0
LINE
  5
1CB
  8
0
 62
     7
 10
53.198099999999997
 20
150.84700000000001
 30
0.0
 11
50.986499999999999
 21
151.44
 31
0.0
  0
LINE
  5
1CC
  8
0
 62
     7
 10
50.986499999999999
 20
151.44
 30
0.0
 11
50.986499999999999
 21
150.255
 31
0.0
  0
LINE
  5
1CD
  8
0
 62
     7
 10
55.409700000000001
 20
151.44
 30
0.0
 11
53.198099999999997
 21
150.84700000000001
 31
0.0
  0
LINE
  5
1CE
  8
0
 62
     7
 10
53.198099999999997
 20
150.84700000000001
 30
0.0
 11
55.409700000000001
 21
150.255
 31
0.0
  0
LINE
  5
1CF
  8
0
 62
     7
 10
55.409700000000001
 20
150.255
 30
0.0
 11
55.409700000000001
 21
151.44
 31
0.0
  0
LINE
  5
1D0
  8
0
 62
     7
 10
43.845300000000002
 20
164.392
 30
0.0
 11
46.056899999999999
 21
164.98500000000001
 31
0.0
  0
LINE
  5
1D1
  8
0
 62
     7
 10
46.056899999999999
 20
164.98500000000001
 30
0.0
 11
43.845300000000002
 21
165.578
 31
0.0
  0
LINE
  5
1D2
  8
0
 62
     7
 10
43.845300000000002
 20
165.578
 30
0.0
 11
43.845300000000002
 21
164.392
 31
0.0
  0
LINE
  5
1D3
  8
0
 62
     7
 10
51.26850000000001
 20
165.578
 30
0.0
 11
49.056899999999992
 21
164.98500000000001
 31
0.0
  0
LINE
  5
1D4
  8
0
 62
     7
 10
49.056899999999992
 20
164.98500000000001
 30
0.0
 11
51.26850000000001
 21
164.392
 31
0.0
  0
LINE
  5
1D5
  8
0
 62
     7
 10
51.26850000000001
 20
164.392
 30
0.0
 11
51.26850000000001
 21
165.578
 31
0.0
  0
LINE
  5
1D6
  8
0
 62
     7
 10
82.845399999999984
 20
164.392
 30
0.0
 11
85.057000000000002
 21
164.98500000000001
 31
0.0
  0
LINE
  5
1D7
  8
0
 62
     7
 10
85.057000000000002
 20
164.98500000000001
 30
0.0
 11
82.845399999999984
 21
165.578
 31
0.0
  0
LINE
  5
1D8
  8
0
 62
     7
 10
82.845399999999984
 20
165.578
 30
0.0
 11
82.845399999999984
 21
164.392
 31
0.0
  0
LINE
  5
1D9
  8
0
 62
     7
 10
46.056899999999999
 20
165.685
 30
0.0
 11
46.056899999999999
 21
134.9429999999999
 31
0.0
  0
LINE
  5
1DA
  8
0
 62
     7
 10
80.457099999999997
 20
158.4489999999999
 30
0.0
 11
80.457099999999997
 21
134.46299999999991
 31
0.0
  0
LINE
  5
1DB
  8
0
 62
     7
 10
87.268600000000006
 20
158.34200000000001
 30
0.0
 11
85.057000000000002
 21
157.749
 31
0.0
  0
LINE
  5
1DC
  8
0
 62
     7
 10
85.057000000000002
 20
157.749
 30
0.0
 11
87.268600000000006
 21
157.15600000000001
 31
0.0
  0
LINE
  5
1DD
  8
0
 62
     7
 10
87.268600000000006
 20
157.15600000000001
 30
0.0
 11
87.268600000000006
 21
158.34200000000001
 31
0.0
  0
LINE
  5
1DE
  8
0
 62
     7
 10
80.457099999999997
 20
157.749
 30
0.0
 11
88.543800000000005
 21
157.749
 31
0.0
  0
LINE
  5
1DF
  8
0
 62
     7
 10
78.246399999999994
 20
157.1629999999999
 30
0.0
 11
80.457999999999984
 21
157.756
 31
0.0
  0
LINE
  5
1E0
  8
0
 62
     7
 10
80.457999999999984
 20
157.756
 30
0.0
 11
78.246399999999994
 21
158.3479999999999
 31
0.0
  0
LINE
  5
1E1
  8
0
 62
     7
 10
78.246399999999994
 20
158.3479999999999
 30
0.0
 11
78.246399999999994
 21
157.1629999999999
 31
0.0
  0
LINE
  5
1E2
  8
0
 62
     7
 10
48.267600000000002
 20
158.33399999999989
 30
0.0
 11
46.056100000000001
 21
157.74100000000001
 31
0.0
  0
LINE
  5
1E3
  8
0
 62
     7
 10
46.056100000000001
 20
157.74100000000001
 30
0.0
 11
48.267600000000002
 21
157.149
 31
0.0
  0
LINE
  5
1E4
  8
0
 62
     7
 10
48.267600000000002
 20
157.149
 30
0.0
 11
48.267600000000002
 21
158.33399999999989
 31
0.0
  0
LINE
  5
1E5
  8
0
 62
     7
 10
80.457099999999997
 20
157.749
 30
0.0
 11
46.056899999999999
 21
157.749
 31
0.0
  0
LINE
  5
1E6
  8
0
 62
     7
 10
78.246399999999994
 20
150.262
 30
0.0
 11
80.457999999999984
 21
150.8549999999999
 31
0.0
  0
LINE
  5
1E7
  8
0
 62
     7
 10
80.457999999999984
 20
150.8549999999999
 30
0.0
 11
78.246399999999994
 21
151.447
 31
0.0
  0
LINE
  5
1E8
  8
0
 62
     7
 10
78.246399999999994
 20
151.447
 30
0.0
 11
78.246399999999994
 21
150.262
 31
0.0
  0
LINE
  5
1E9
  8
0
 62
     7
 10
48.267600000000002
 20
151.43299999999991
 30
0.0
 11
46.056100000000001
 21
150.83999999999989
 31
0.0
  0
LINE
  5
1EA
  8
0
 62
     7
 10
46.056100000000001
 20
150.83999999999989
 30
0.0
 11
48.267600000000002
 21
150.24799999999999
 31
0.0
  0
LINE
  5
1EB
  8
0
 62
     7
 10
48.267600000000002
 20
150.24799999999999
 30
0.0
 11
48.267600000000002
 21
151.43299999999991
 31
0.0
  0
LINE
  5
1EC
  8
0
 62
     7
 10
80.457099999999997
 20
150.84700000000001
 30
0.0
 11
46.056899999999999
 21
150.84700000000001
 31
0.0
  0
LINE
  5
1ED
  8
0
 62
     7
 10
49.056899999999992
 20
165.685
 30
0.0
 11
49.056899999999992
 21
155.08500000000001
 31
0.0
  0
LINE
  5
1EE
  8
0
 62
     7
 10
49.056899999999992
 20
150.083
 30
0.0
 11
49.056899999999992
 21
134.84
 31
0.0
  0
LINE
  5
1EF
  8
0
 62
     7
 10
85.057000000000002
 20
165.685
 30
0.0
 11
85.057000000000002
 21
134.9429999999999
 31
0.0
  0
LINE
  5
1F0
  8
0
 62
     7
 10
77.856700000000004
 20
144.404
 30
0.0
 11
77.856700000000004
 21
134.11500000000001
 31
0.0
  0
LINE
  5
1F1
  8
0
 62
     7
 10
60.256700000000002
 20
144.404
 30
0.0
 11
60.256700000000002
 21
134.82099999999991
 31
0.0
  0
LINE
  5
1F2
  8
0
 62
     7
 10
53.256900000000002
 20
151.547
 30
0.0
 11
53.256900000000002
 21
130.32799999999989
 31
0.0
  0
LINE
  5
1F3
  8
0
 62
     7
 10
73.256799999999998
 20
151.547
 30
0.0
 11
73.256799999999998
 21
132.2359999999999
 31
0.0
  0
LINE
  5
1F4
  8
0
 62
     7
 10
77.057100000000005
 20
118.08
 30
0.0
 11
77.057100000000005
 21
119.07899999999999
 31
0.0
  0
LINE
  5
1F5
  8
0
 62
     7
 10
82.457000000000008
 20
118.08
 30
0.0
 11
77.057100000000005
 21
118.08
 31
0.0
  0
LINE
  5
1F6
  8
0
 62
     7
 10
82.457000000000008
 20
118.08
 30
0.0
 11
82.457000000000008
 21
119.879
 31
0.0
  0
LINE
  5
1F7
  8
0
  6
AIGENLINE002
 62
     7
 10
79.757000000000005
 20
117.14999999999991
 30
0.0
 11
79.757000000000005
 21
119.9559999999999
 31
0.0
  0
LINE
  5
1F8
  8
0
 62
     7
 10
64.057000000000002
 20
118.08
 30
0.0
 11
64.057000000000002
 21
119.07899999999999
 31
0.0
  0
LINE
  5
1F9
  8
0
 62
     7
 10
69.456800000000001
 20
118.08
 30
0.0
 11
64.057000000000002
 21
118.08
 31
0.0
  0
LINE
  5
1FA
  8
0
 62
     7
 10
69.456800000000001
 20
118.08
 30
0.0
 11
69.456800000000001
 21
119.07899999999999
 31
0.0
  0
LINE
  5
1FB
  8
0
  6
AIGENLINE002
 62
     7
 10
66.756900000000002
 20
117.14999999999991
 30
0.0
 11
66.756900000000002
 21
119.9559999999999
 31
0.0
  0
LINE
  5
1FC
  8
0
  6
AIGENLINE002
 62
     7
 10
60.595300000000002
 20
115.8549999999999
 30
0.0
 11
73.257099999999994
 21
126.48
 31
0.0
  0
LINE
  5
1FD
  8
0
  6
AIGENLINE003
 62
     7
 10
68.886700000000005
 20
124.1179999999999
 30
0.0
 11
60.970100000000002
 21
117.47499999999989
 31
0.0
  0
LINE
  5
1FE
  8
0
  6
AIGENLINE003
 62
     7
 10
61.973999999999997
 20
115.967
 30
0.0
 11
60.945300000000003
 21
117.1939999999999
 31
0.0
  0
ARC
  5
1FF
  8
0
  6
AIGENLINE003
 62
     7
 10
61.109593999999987
 20
117.320937
 30
0.0
 40
0.207848
 50
132.1417679999999
 51
217.7856109999999
  0
LINE
  5
200
  8
0
  6
AIGENLINE003
 62
     7
 10
70.171999999999997
 20
122.58499999999989
 30
0.0
 11
62.255899999999997
 21
115.9429999999999
 31
0.0
  0
ARC
  5
201
  8
0
  6
AIGENLINE003
 62
     7
 10
62.128157000000002
 20
116.107423
 30
0.0
 40
0.208178
 50
222.242908
 51
307.83576699999992
  0
LINE
  5
202
  8
0
  6
AIGENLINE002
 62
     7
 10
85.918499999999995
 20
115.8549999999999
 30
0.0
 11
73.257099999999994
 21
126.48
 31
0.0
  0
LINE
  5
203
  8
0
  6
AIGENLINE003
 62
     7
 10
77.627300000000005
 20
124.1179999999999
 30
0.0
 11
85.543599999999998
 21
117.47499999999989
 31
0.0
  0
LINE
  5
204
  8
0
  6
AIGENLINE003
 62
     7
 10
84.540099999999995
 20
115.967
 30
0.0
 11
85.568399999999997
 21
117.1939999999999
 31
0.0
  0
ARC
  5
205
  8
0
  6
AIGENLINE003
 62
     7
 10
85.416329000000005
 20
117.3217879999999
 30
0.0
 40
0.198933
 50
319.87627400000002
 51
352.92490299999992
  0
ARC
  5
206
  8
0
  6
AIGENLINE003
 62
     7
 10
85.411242000000001
 20
117.32013000000001
 30
0.0
 40
0.203791
 50
353.56381099999987
 51
49.482737999999991
  0
LINE
  5
207
  8
0
  6
AIGENLINE003
 62
     7
 10
76.341899999999995
 20
122.58499999999989
 30
0.0
 11
84.257900000000006
 21
115.9429999999999
 31
0.0
  0
ARC
  5
208
  8
0
  6
AIGENLINE003
 62
     7
 10
84.385863000000001
 20
116.1067709999999
 30
0.0
 40
0.207814
 50
232.000754
 51
317.90855800000003
  0
LINE
  5
209
  8
0
  6
AIGENLINE002
 62
     7
 10
53.256900000000002
 20
122.524
 30
0.0
 11
53.256900000000002
 21
129.6279999999999
 31
0.0
  0
LINE
  5
20A
  8
0
 62
     7
 10
55.756999999999998
 20
128.07900000000001
 30
0.0
 11
55.756999999999998
 21
124.8799999999999
 31
0.0
  0
LINE
  5
20B
  8
0
 62
     7
 10
51.157099999999993
 20
124.479
 30
0.0
 11
55.356999999999999
 21
124.479
 31
0.0
  0
ARC
  5
20C
  8
0
 62
     7
 10
55.341945999999993
 20
124.8943469999999
 30
0.0
 40
0.415298
 50
272.07817699999993
 51
357.97116199999988
  0
LINE
  5
20D
  8
0
 62
     7
 10
50.757100000000001
 20
128.07900000000001
 30
0.0
 11
50.757100000000001
 21
124.8799999999999
 31
0.0
  0
ARC
  5
20E
  8
0
 62
     7
 10
51.17257
 20
124.89479399999991
 30
0.0
 40
0.415762
 50
182.088234
 51
267.86246699999998
  0
ARC
  5
20F
  8
0
 62
     7
 10
55.341718000000007
 20
128.06418199999999
 30
0.0
 40
0.4155470000000001
 50
2.1082709999999989
 51
87.891718999999995
  0
ARC
  5
210
  8
0
 62
     7
 10
51.172218000000001
 20
128.06431499999991
 30
0.0
 40
0.415409
 50
92.090659000000002
 51
177.90931199999989
  0
LINE
  5
211
  8
0
 62
     7
 10
55.956800000000001
 20
128.07900000000001
 30
0.0
 11
55.956800000000001
 21
124.696
 31
0.0
  0
ARC
  5
212
  8
0
 62
     7
 10
55.549331999999993
 20
124.70005500000001
 30
0.0
 40
0.4074920000000001
 50
300.63613900000001
 51
359.384139
  0
LINE
  5
213
  8
0
 62
     7
 10
50.556899999999999
 20
128.07900000000001
 30
0.0
 11
50.556899999999999
 21
124.696
 31
0.0
  0
ARC
  5
214
  8
0
 62
     7
 10
50.96479699999999
 20
124.7002889999999
 30
0.0
 40
0.407899
 50
180.6481069999999
 51
239.3316549999999
  0
LINE
  5
215
  8
0
 62
     7
 10
50.956899999999997
 20
128.4789999999999
 30
0.0
 11
55.556800000000003
 21
128.4789999999999
 31
0.0
  0
ARC
  5
216
  8
0
 62
     7
 10
55.541668000000001
 20
128.064314
 30
0.0
 40
0.415409
 50
2.0906859999999998
 51
87.909304000000006
  0
ARC
  5
217
  8
0
 62
     7
 10
50.972082
 20
128.06428899999989
 30
0.0
 40
0.4154350000000001
 50
92.094017000000022
 51
177.90595300000001
  0
LINE
  5
218
  8
0
 62
     7
 10
84.257099999999994
 20
121.8799999999999
 30
0.0
 11
85.057000000000002
 21
121.8799999999999
 31
0.0
  0
LINE
  5
219
  8
0
 62
     7
 10
83.057100000000005
 20
120.679
 30
0.0
 11
83.057100000000005
 21
119.879
 31
0.0
  0
LINE
  5
21A
  8
0
 62
     7
 10
51.056800000000003
 20
135.28
 30
0.0
 11
51.056800000000003
 21
134.4789999999999
 31
0.0
  0
LINE
  5
21B
  8
0
 62
     7
 10
83.057100000000005
 20
135.28
 30
0.0
 11
83.057100000000005
 21
134.4789999999999
 31
0.0
  0
LINE
  5
21C
  8
0
 62
     7
 10
84.257099999999994
 20
133.27999999999989
 30
0.0
 11
85.057000000000002
 21
133.27999999999989
 31
0.0
  0
LINE
  5
21D
  8
0
 62
     7
 10
83.057100000000005
 20
134.4789999999999
 30
0.0
 11
51.056800000000003
 21
134.4789999999999
 31
0.0
  0
ARC
  5
21E
  8
0
 62
     7
 10
51.070957999999997
 20
133.25483799999989
 30
0.0
 40
1.2247069999999991
 50
90.661906000000002
 51
149.24867
  0
LINE
  5
21F
  8
0
 62
     7
 10
83.057100000000005
 20
120.679
 30
0.0
 11
80.457099999999997
 21
120.679
 31
0.0
  0
LINE
  5
220
  8
0
 62
     7
 10
84.257099999999994
 20
121.8799999999999
 30
0.0
 11
84.257099999999994
 21
133.27999999999989
 31
0.0
  0
ARC
  5
221
  8
0
 62
     7
 10
83.011218
 20
121.92518699999999
 30
0.0
 40
1.2466749999999991
 50
272.11039499999998
 51
357.90606200000002
  0
ARC
  5
222
  8
0
 62
     7
 10
83.011242000000024
 20
133.23364499999991
 30
0.0
 40
1.246662999999999
 50
2.1092859999999991
 51
87.890703999999985
  0
LINE
  5
223
  8
0
 62
     7
 10
83.057100000000005
 20
119.879
 30
0.0
 11
80.457099999999997
 21
119.879
 31
0.0
  0
LINE
  5
224
  8
0
 62
     7
 10
85.057000000000002
 20
121.8799999999999
 30
0.0
 11
85.057000000000002
 21
133.27999999999989
 31
0.0
  0
ARC
  5
225
  8
0
 62
     7
 10
83.056954000000005
 20
121.8794639999999
 30
0.0
 40
2.000062999999999
 50
270.004954
 51
0.004925
  0
LINE
  5
226
  8
0
 62
     7
 10
83.057100000000005
 20
135.28
 30
0.0
 11
51.056800000000003
 21
135.28
 31
0.0
  0
ARC
  5
227
  8
0
 62
     7
 10
51.098253999999997
 20
133.22362200000001
 30
0.0
 40
2.0565599999999988
 50
91.154691999999969
 51
161.478396
  0
ARC
  5
228
  8
0
 62
     7
 10
83.056954000000005
 20
133.2797009999999
 30
0.0
 40
2.000062999999999
 50
359.99507499999999
 51
89.995045999999988
  0
LINE
  5
229
  8
0
 62
     7
 10
72.257000000000005
 20
119.07899999999999
 30
0.0
 11
46.456899999999997
 21
119.07899999999999
 31
0.0
  0
LINE
  5
22A
  8
0
 62
     7
 10
80.057100000000005
 20
119.07899999999999
 30
0.0
 11
74.256900000000002
 21
119.07899999999999
 31
0.0
  0
LINE
  5
22B
  8
0
 62
     7
 10
80.457099999999997
 20
119.479
 30
0.0
 11
80.457099999999997
 21
133.4789999999999
 31
0.0
  0
ARC
  5
22C
  8
0
 62
     7
 10
80.042083000000005
 20
119.49445799999999
 30
0.0
 40
0.415286
 50
272.07486399999999
 51
357.92514599999998
  0
LINE
  5
22D
  8
0
 62
     7
 10
80.057100000000005
 20
133.87999999999991
 30
0.0
 11
46.456899999999997
 21
133.87999999999991
 31
0.0
  0
ARC
  5
22E
  8
0
 62
     7
 10
80.041477999999998
 20
133.46406399999989
 30
0.0
 40
0.415899
 50
2.10582
 51
87.844841000000002
  0
LINE
  5
22F
  8
0
 62
     7
 10
46.056899999999999
 20
119.479
 30
0.0
 11
46.056899999999999
 21
133.4789999999999
 31
0.0
  0
ARC
  5
230
  8
0
 62
     7
 10
46.472068
 20
133.46452400000001
 30
0.0
 40
0.4154220000000001
 50
92.093960999999993
 51
177.9553389999999
  0
ARC
  5
231
  8
0
 62
     7
 10
46.472064000000003
 20
119.4945979999999
 30
0.0
 40
0.41543
 50
182.09337400000001
 51
267.90665499999989
  0
LINE
  5
232
  8
0
  6
AIGENLINE002
 62
     7
 10
73.256799999999998
 20
109.95099999999999
 30
0.0
 11
73.256799999999998
 21
131.536
 31
0.0
  0
LINE
  5
233
  8
0
  6
AIGENLINE002
 62
     7
 10
81.612899999999996
 20
126.48
 30
0.0
 11
44.900700000000001
 21
126.48
 31
0.0
  0
LINE
  5
234
  8
0
 62
     7
 10
74.256900000000002
 20
122.2029999999999
 30
0.0
 11
74.256900000000002
 21
111.2789999999999
 31
0.0
  0
LINE
  5
235
  8
0
 62
     7
 10
72.456800000000001
 20
111.07899999999989
 30
0.0
 11
74.057100000000005
 21
111.07899999999989
 31
0.0
  0
ARC
  5
236
  8
0
 62
     7
 10
74.049424999999999
 20
111.286674
 30
0.0
 40
0.207623
 50
272.11906800000003
 51
357.97964200000001
  0
LINE
  5
237
  8
0
 62
     7
 10
72.257000000000005
 20
122.2029999999999
 30
0.0
 11
72.257000000000005
 21
111.2789999999999
 31
0.0
  0
ARC
  5
238
  8
0
 62
     7
 10
72.464716999999993
 20
111.2868689999999
 30
0.0
 40
0.207825
 50
182.0721659999999
 51
267.82916299999988
  0
LINE
  5
239
  8
0
 62
     7
 10
72.456800000000001
 20
111.2789999999999
 30
0.0
 11
74.057100000000005
 21
111.2789999999999
 31
0.0
  0
LINE
  5
23A
  8
0
 62
     7
 10
74.057100000000005
 20
122.2029999999999
 30
0.0
 11
74.057100000000005
 21
111.2789999999999
 31
0.0
  0
ARC
  5
23B
  8
0
 62
     7
 10
74.674576000000002
 20
122.190386
 30
0.0
 40
0.6175990000000001
 50
109.293584
 51
178.84937899999991
  0
LINE
  5
23C
  8
0
 62
     7
 10
72.456800000000001
 20
122.2029999999999
 30
0.0
 11
72.456800000000001
 21
111.2789999999999
 31
0.0
  0
ARC
  5
23D
  8
0
 62
     7
 10
71.839875000000006
 20
122.190752
 30
0.0
 40
0.6170869999999999
 50
1.1175959999999989
 51
70.739401000000001
  0
ARC
  5
23E
  8
0
 62
     7
 10
74.667944999999975
 20
122.194849
 30
0.0
 40
0.411103
 50
109.181442
 51
178.8934919999999
  0
ARC
  5
23F
  8
0
 62
     7
 10
71.846029000000001
 20
122.194869
 30
0.0
 40
0.4110750000000001
 50
1.1038250000000001
 51
70.821202
  0
ARC
  5
240
  8
0
 62
     7
 10
73.150834000000003
 20
126.55667099999989
 30
0.0
 40
4.0069259999999991
 50
289.22934299999997
 51
358.89726400000001
  0
ARC
  5
241
  8
0
 62
     7
 10
73.256973000000002
 20
126.479384
 30
0.0
 40
3.9000460000000001
 50
0.002541
 51
90.002510999999984
  0
ARC
  5
242
  8
0
 62
     7
 10
73.256801999999993
 20
126.479556
 30
0.0
 40
3.8998729999999999
 50
90.0
 51
179.99996999999991
  0
ARC
  5
243
  8
0
 62
     7
 10
73.364041
 20
126.557344
 30
0.0
 40
4.0078670000000001
 50
181.11211900000001
 51
250.761314
  0
ARC
  5
244
  8
0
 62
     7
 10
73.144456000000005
 20
126.561323
 30
0.0
 40
4.2135169999999986
 50
289.23933999999991
 51
358.88806699999992
  0
ARC
  5
245
  8
0
 62
     7
 10
73.256973000000002
 20
126.479384
 30
0.0
 40
4.1002070000000002
 50
0.002417
 51
90.002386999999999
  0
ARC
  5
246
  8
0
 62
     7
 10
73.256801999999993
 20
126.479556
 30
0.0
 40
4.1000350000000001
 50
90.0
 51
179.99996999999991
  0
ARC
  5
247
  8
0
 62
     7
 10
73.369579999999999
 20
126.561387
 30
0.0
 40
4.2136069999999988
 50
181.11280400000001
 51
250.759829
  0
LINE
  5
248
  8
0
 62
     7
 10
41.7254
 20
164.98500000000001
 30
0.0
 11
85.057000000000002
 21
164.98500000000001
 31
0.0
  0
TEXT
  5
249
  8
_________2
 62
     7
 10
28.252400000000002
 20
61.387500000000003
 30
0.0
 40
4.2168199999999993
  1
※メンテナンスのため配管途中に、止水栓の設置をおすすめします。
 41
0.5
  0
LINE
  5
24A
  8
_________2
 62
     7
 10
129.946
 20
280.42999999999989
 30
0.0
 11
129.946
 21
259.43000000000001
 31
0.0
  0
LINE
  5
24B
  8
_________2
 62
     7
 10
155.96700000000001
 20
280.42999999999989
 30
0.0
 11
155.96700000000001
 21
259.43000000000001
 31
0.0
  0
LINE
  5
24C
  8
_________2
 62
     7
 10
162.5929999999999
 20
280.42999999999989
 30
0.0
 11
162.5929999999999
 21
259.43000000000001
 31
0.0
  0
TEXT
  5
24D
  8
_________2
 62
     7
 10
158.9878783333333
 20
261.5809999999999
 30
0.0
 40
3.3734599999999988
  1
1
 41
0.5
 72
     1
 11
159.26900000000001
 21
261.5809999999999
 31
0.0
  0
TEXT
  5
24E
  8
_________2
 62
     7
 10
158.9878783333333
 20
268.5809999999999
 30
0.0
 40
3.3734599999999988
  1
1
 41
0.5
 72
     1
 11
159.26900000000001
 21
268.5809999999999
 31
0.0
  0
TEXT
  5
24F
  8
_________2
 62
     7
 10
158.48185933333329
 20
275.5809999999999
 30
0.0
 40
3.3734599999999988
  1
数
 41
0.5
 72
     1
 11
159.26900000000001
 21
275.5809999999999
 31
0.0
  0
TEXT
  5
250
  8
_________2
 62
     7
 10
172.63278333333329
 20
261.5809999999999
 30
0.0
 40
3.3734599999999988
  1
埋込部
 41
0.5
 72
     1
 11
175.44399999999999
 21
261.5809999999999
 31
0.0
  0
TEXT
  5
251
  8
_________2
 62
     7
 10
165.43606866666661
 20
268.5809999999999
 30
0.0
 40
3.3734599999999988
  1
スパウト・ハンドル部
 41
0.5
 72
     1
 11
175.44399999999999
 21
268.5809999999999
 31
0.0
  0
TEXT
  5
252
  8
_________2
 62
     7
 10
173.64482133333331
 20
275.5809999999999
 30
0.0
 40
3.3734599999999988
  1
名称
 41
0.5
 72
     1
 11
175.44399999999999
 21
275.5809999999999
 31
0.0
  0
TEXT
  5
253
  8
_________2
 62
     7
 10
135.76995833333331
 20
261.5809999999999
 30
0.0
 40
3.3734599999999988
  1
KW9193400
 41
0.5
 72
     1
 11
142.79799999999989
 21
261.5809999999999
 31
0.0
  0
TEXT
  5
254
  8
_________2
 62
     7
 10
135.0671541666666
 20
268.5809999999999
 30
0.0
 40
3.3734599999999988
  1
KW1192034R
 41
0.5
 72
     1
 11
142.79799999999989
 21
268.5809999999999
 31
0.0
  0
TEXT
  5
255
  8
_________2
 62
     7
 10
140.9988213333333
 20
275.5809999999999
 30
0.0
 40
3.3734599999999988
  1
品番
 41
0.5
 72
     1
 11
142.79799999999989
 21
275.5809999999999
 31
0.0
  0
LINE
  5
256
  8
_________2
 62
     7
 10
129.946
 20
259.43000000000001
 30
0.0
 11
188.49000000000001
 21
259.43000000000001
 31
0.0
  0
LINE
  5
257
  8
_________2
 62
     7
 10
129.946
 20
266.43000000000001
 30
0.0
 11
188.49000000000001
 21
266.43000000000001
 31
0.0
  0
LINE
  5
258
  8
_________2
 62
     7
 10
129.946
 20
273.43000000000001
 30
0.0
 11
188.49000000000001
 21
273.43000000000001
 31
0.0
  0
LINE
  5
259
  8
_________2
 62
     7
 10
210.24000000000001
 20
148.93100000000001
 30
0.0
 11
188.49000000000001
 21
148.93100000000001
 31
0.0
  0
LINE
  5
25A
  8
_________2
 62
     7
 10
105.2389999999999
 20
17.428499999999989
 30
0.0
 11
105.2389999999999
 21
0.4482100000000001
 31
0.0
  0
LINE
  5
25B
  8
_________2
 62
     7
 10
105.2389999999999
 20
297.44999999999987
 30
0.0
 11
105.2389999999999
 21
280.42999999999989
 31
0.0
  0
LINE
  5
25C
  8
_________2
 62
     7
 10
21.988499999999991
 20
148.93100000000001
 30
0.0
 11
0.238058
 21
148.93100000000001
 31
0.0
  0
LINE
  5
25D
  8
_________2
 62
     7
 10
81.679900000000004
 20
51.324300000000001
 30
0.0
 11
79.493700000000004
 21
51.324300000000001
 31
0.0
  0
LINE
  5
25E
  8
_________2
 62
     7
 10
82.172600000000017
 20
51.324300000000001
 30
0.0
 11
81.920400000000001
 21
51.324300000000001
 31
0.0
  0
LINE
  5
25F
  8
_________2
 62
     7
 10
82.665199999999984
 20
51.324300000000001
 30
0.0
 11
85.590100000000007
 21
51.324300000000001
 31
0.0
  0
LINE
  5
260
  8
_________2
 62
     7
 10
82.172600000000017
 20
51.324300000000001
 30
0.0
 11
82.424800000000005
 21
51.324300000000001
 31
0.0
  0
LINE
  5
261
  8
_________2
 62
     7
 10
75.776399999999995
 20
51.324300000000001
 30
0.0
 11
73.589399999999998
 21
51.324300000000001
 31
0.0
  0
LINE
  5
262
  8
_________2
 62
     7
 10
76.2684
 20
51.324300000000001
 30
0.0
 11
76.016900000000007
 21
51.324300000000001
 31
0.0
  0
LINE
  5
263
  8
_________2
 62
     7
 10
76.2684
 20
51.817
 30
0.0
 11
76.2684
 21
54.003900000000002
 31
0.0
  0
LINE
  5
264
  8
_________2
 62
     7
 10
76.2684
 20
51.324300000000001
 30
0.0
 11
76.2684
 21
51.576500000000003
 31
0.0
  0
LINE
  5
265
  8
_________2
 62
     7
 10
76.76100000000001
 20
51.324300000000001
 30
0.0
 11
78.947999999999993
 21
51.324300000000001
 31
0.0
  0
LINE
  5
266
  8
_________2
 62
     7
 10
76.2684
 20
51.324300000000001
 30
0.0
 11
76.520499999999998
 21
51.324300000000001
 31
0.0
  0
LINE
  5
267
  8
_________2
 62
     7
 10
76.2684
 20
50.832399999999993
 30
0.0
 11
76.2684
 21
48.645400000000002
 31
0.0
  0
LINE
  5
268
  8
_________2
 62
     7
 10
76.2684
 20
51.324300000000001
 30
0.0
 11
76.2684
 21
51.072800000000001
 31
0.0
  0
LINE
  5
269
  8
_________2
 62
     7
 10
79.979399999999984
 20
50.104799999999997
 30
0.0
 11
85.157399999999996
 21
49.240000000000002
 31
0.0
  0
LINE
  5
26A
  8
_________2
 62
     7
 10
79.979399999999984
 20
52.543900000000001
 30
0.0
 11
85.157399999999996
 21
53.409300000000002
 31
0.0
  0
LINE
  5
26B
  8
_________2
 62
     7
 10
85.157399999999996
 20
49.240000000000002
 30
0.0
 11
85.157399999999996
 21
53.409300000000002
 31
0.0
  0
LINE
  5
26C
  8
_________2
 62
     7
 10
79.979399999999984
 20
50.104799999999997
 30
0.0
 11
79.979399999999984
 21
52.543900000000001
 31
0.0
  0
ARC
  5
26D
  8
_________2
 62
     7
 10
76.222110000000001
 20
51.277366999999991
 30
0.0
 40
1.2673709999999989
 50
2.1232950000000002
 51
87.909056000000007
  0
ARC
  5
26E
  8
_________2
 62
     7
 10
76.315273000000005
 20
51.277400999999998
 30
0.0
 40
1.267363
 50
92.121785999999986
 51
177.878185
  0
ARC
  5
26F
  8
_________2
 62
     7
 10
76.315273000000005
 20
51.371245999999992
 30
0.0
 40
1.267363
 50
182.12181499999991
 51
267.87821400000001
  0
ARC
  5
270
  8
_________2
 62
     7
 10
76.221461000000005
 20
51.371928999999987
 30
0.0
 40
1.2680439999999991
 50
272.11916400000001
 51
357.84848499999993
  0
ARC
  5
271
  8
_________2
 62
     7
 10
76.268349999999984
 20
51.324323
 30
0.0
 40
2.0849849999999992
 50
0.00001
 51
89.999980000000008
  0
ARC
  5
272
  8
_________2
 62
     7
 10
76.348388
 20
51.245001999999992
 30
0.0
 40
2.1657860000000002
 50
92.117855000000034
 51
177.90105299999991
  0
ARC
  5
273
  8
_________2
 62
     7
 10
76.348354
 20
51.404327000000002
 30
0.0
 40
2.1657779999999991
 50
182.11700400000001
 51
267.88302499999992
  0
ARC
  5
274
  8
_________2
 62
     7
 10
76.188378999999983
 20
51.405009999999997
 30
0.0
 40
2.1664590000000001
 50
272.11546800000002
 51
357.86560400000002
  0
TEXT
  5
275
  8
_________2
 62
     7
 10
109.5439999999999
 20
23.199100000000001
 30
0.0
 40
3.0923400000000001
  1
図番
 41
0.5
  0
LINE
  5
276
  8
_________2
 62
     7
 10
108.4889999999999
 20
27.4283
 30
0.0
 11
188.49000000000001
 21
27.4283
 31
0.0
  0
TEXT
  5
277
  8
_________2
 62
     7
 10
109.5439999999999
 20
33.198900000000002
 30
0.0
 40
3.0923400000000001
  1
品番
 41
0.5
  0
TEXT
  5
278
  8
_________2
 62
     7
 10
109.5439999999999
 20
53.337699999999998
 30
0.0
 40
3.0923400000000001
  1
名称
 41
0.5
  0
TEXT
  5
279
  8
_________2
 62
     7
 10
96.784058333333334
 20
48.341500000000011
 30
0.0
 40
3.6545800000000002
  1
mm
 41
0.5
 72
     1
 11
98.306799999999996
 21
48.341500000000011
 31
0.0
  0
TEXT
  5
27A
  8
_________2
 62
     7
 10
90.582099999999997
 20
53.337699999999998
 30
0.0
 40
3.0923400000000001
  1
単位
 41
0.5
  0
TEXT
  5
27B
  8
_________2
 62
     7
 10
90.582099999999997
 20
40.930399999999999
 30
0.0
 40
3.0923400000000001
  1
尺度
 41
0.5
  0
TEXT
  5
27C
  8
_________2
 62
     7
 10
95.487658666666675
 20
34.73749999999999
 30
0.0
 40
3.6545800000000002
  1
1 ： 5
 41
0.5
 72
     1
 11
98.898600000000002
 21
34.73749999999999
 31
0.0
  0
TEXT
  5
27D
  8
_________2
 62
     7
 10
129.76162749999989
 20
30.627400000000002
 30
0.0
 40
3.9357000000000002
  1
KW1192034R＋KW9193400
 41
0.5
 72
     1
 11
148.489
 21
30.627400000000002
 31
0.0
  0
TEXT
  5
27E
  8
_________2
 62
     7
 10
138.48576249999991
 20
20.626999999999988
 30
0.0
 40
3.9357000000000002
  1
KW1192034RC
 41
0.5
 72
     1
 11
148.489
 21
20.626999999999988
 31
0.0
  0
TEXT
  5
27F
  8
_________2
 62
     7
 10
29.525700000000001
 20
22.226900000000001
 30
0.0
 40
3.9357000000000002
  1
（社）日本水道協会認証品
 41
0.5
  0
TEXT
  5
280
  8
_________2
 62
     7
 10
114.11799999999999
 20
45.7453
 30
0.0
 40
3.9357000000000002
  1
湯水混合栓（壁埋込式）
 41
0.5
  0
TEXT
  5
281
  8
_________2
 62
     7
 10
44.364200333333329
 20
35.122599999999991
 30
0.0
 40
3.6545800000000002
  1
早川
 41
0.5
 72
     1
 11
46.252400000000002
 21
35.122599999999991
 31
0.0
  0
TEXT
  5
282
  8
_________2
 62
     7
 10
25.72929066666666
 20
35.122599999999991
 30
0.0
 40
3.6545800000000002
  1
石原
 41
0.5
 72
     1
 11
27.6784
 21
35.122599999999991
 31
0.0
  0
TEXT
  5
283
  8
_________2
 62
     7
 10
72.724699999999999
 20
34.73749999999999
 30
0.0
 40
3.6545800000000002
  1
15.01.29
 41
0.5
  0
TEXT
  5
284
  8
_________2
 62
     7
 10
71.531999999999996
 20
40.930399999999999
 30
0.0
 40
3.0923400000000001
  1
日付
 41
0.5
  0
TEXT
  5
285
  8
_________2
 62
     7
 10
34.578299999999992
 20
40.930399999999999
 30
0.0
 40
3.0923400000000001
  1
検図
 41
0.5
  0
TEXT
  5
286
  8
_________2
 62
     7
 10
22.960000000000001
 20
26.730999999999991
 30
0.0
 40
3.0923400000000001
  1
備考
 41
0.5
  0
TEXT
  5
287
  8
_________2
 62
     7
 10
22.960000000000001
 20
40.930399999999999
 30
0.0
 40
3.0923400000000001
  1
製図
 41
0.5
  0
TEXT
  5
288
  8
_________2
 62
     7
 10
28.727365333333339
 20
49.456400000000002
 30
0.0
 40
4.4979399999999989
  1
セラトレーディング株式会社
 41
0.5
 72
     1
 11
46.119399999999992
 21
49.456400000000002
 31
0.0
  0
LINE
  5
289
  8
_________2
 62
     7
 10
188.49000000000001
 20
17.428499999999989
 30
0.0
 11
21.988499999999991
 21
17.428499999999989
 31
0.0
  0
LINE
  5
28A
  8
_________2
 62
     7
 10
21.988499999999991
 20
17.428499999999989
 30
0.0
 11
21.988499999999991
 21
280.42999999999989
 31
0.0
  0
LINE
  5
28B
  8
_________2
 62
     7
 10
21.988499999999991
 20
280.42999999999989
 30
0.0
 11
188.49000000000001
 21
280.42999999999989
 31
0.0
  0
LINE
  5
28C
  8
_________2
 62
     7
 10
188.49000000000001
 20
280.42999999999989
 30
0.0
 11
188.49000000000001
 21
17.428499999999989
 31
0.0
  0
LINE
  5
28D
  8
_________2
 62
     7
 10
70.488799999999998
 20
30.9285
 30
0.0
 11
70.488799999999998
 21
57.428400000000011
 31
0.0
  0
LINE
  5
28E
  8
_________2
 62
     7
 10
89.488600000000005
 20
30.9285
 30
0.0
 11
89.488600000000005
 21
57.428400000000011
 31
0.0
  0
LINE
  5
28F
  8
_________2
 62
     7
 10
108.4889999999999
 20
17.428499999999989
 30
0.0
 11
108.4889999999999
 21
57.428400000000011
 31
0.0
  0
LINE
  5
290
  8
_________2
 62
     7
 10
33.488300000000002
 20
30.9285
 30
0.0
 11
33.488300000000002
 21
44.928800000000003
 31
0.0
  0
LINE
  5
291
  8
_________2
 62
     7
 10
21.988499999999991
 20
30.9285
 30
0.0
 11
108.4889999999999
 21
30.9285
 31
0.0
  0
LINE
  5
292
  8
_________2
 62
     7
 10
21.988499999999991
 20
44.928800000000003
 30
0.0
 11
108.4889999999999
 21
44.928800000000003
 31
0.0
  0
LINE
  5
293
  8
_________2
 62
     7
 10
108.4889999999999
 20
37.428100000000001
 30
0.0
 11
188.49000000000001
 21
37.428100000000001
 31
0.0
  0
LINE
  5
294
  8
_________2
 62
     7
 10
21.988499999999991
 20
57.428400000000011
 30
0.0
 11
188.49000000000001
 21
57.428400000000011
 31
0.0
  0
ENDSEC
  0
EOF
