  0
SECTION
  2
HEADER
  9
$ACADVER
  1
AC1009
  9
$INSBASE
 10
0.0
 20
0.0
 30
0.0
  9
$EXTMIN
 10
-104.794
 20
0.176045
 30
0.0
  9
$EXTMAX
 10
315.209
 20
297.178
 30
0.0
  9
$LIMMIN
 10
0.0
 20
0.0
  9
$LIMMAX
 10
12.0
 20
9.0
  9
$ORTHOMODE
 70
     0
  9
$REGENMODE
 70
     1
  9
$FILLMODE
 70
     1
  9
$QTEXTMODE
 70
     0
  9
$MIRRTEXT
 70
     1
  9
$DRAGMODE
 70
     2
  9
$LTSCALE
 40
1.0
  9
$OSMODE
 70
    37
  9
$ATTMODE
 70
     1
  9
$TEXTSIZE
 40
0.0
  9
$TRACEWID
 40
0.05
  9
$TEXTSTYLE
  7
STANDARD
  9
$CLAYER
  8
0
  9
$CELTYPE
  6
CONTINUOUS
  9
$CECOLOR
 62
   256
  9
$DIMSCALE
 40
1.0
  9
$DIMASZ
 40
0.18
  9
$DIMEXO
 40
0.0625
  9
$DIMDLI
 40
0.38
  9
$DIMRND
 40
0.0
  9
$DIMDLE
 40
0.0
  9
$DIMEXE
 40
0.18
  9
$DIMTP
 40
0.0
  9
$DIMTM
 40
0.0
  9
$DIMTXT
 40
0.18
  9
$DIMCEN
 40
0.09
  9
$DIMTSZ
 40
0.0
  9
$DIMTOL
 70
     0
  9
$DIMLIM
 70
     0
  9
$DIMTIH
 70
     1
  9
$DIMTOH
 70
     1
  9
$DIMSE1
 70
     0
  9
$DIMSE2
 70
     0
  9
$DIMTAD
 70
     0
  9
$DIMZIN
 70
     0
  9
$DIMBLK
  1

  9
$DIMASO
 70
     1
  9
$DIMSHO
 70
     1
  9
$DIMPOST
  1

  9
$DIMAPOST
  1

  9
$DIMALT
 70
     0
  9
$DIMALTD
 70
     2
  9
$DIMALTF
 40
25.399999999999999
  9
$DIMLFAC
 40
1.0
  9
$DIMTOFL
 70
     0
  9
$DIMTVP
 40
0.0
  9
$DIMTIX
 70
     0
  9
$DIMSOXD
 70
     0
  9
$DIMSAH
 70
     0
  9
$DIMBLK1
  1

  9
$DIMBLK2
  1

  9
$DIMSTYLE
  2
STANDARD
  9
$DIMCLRD
 70
     0
  9
$DIMCLRE
 70
     0
  9
$DIMCLRT
 70
     0
  9
$DIMTFAC
 40
1.0
  9
$DIMGAP
 40
0.09
  9
$LUNITS
 70
     2
  9
$LUPREC
 70
     4
  9
$SKETCHINC
 40
0.1
  9
$FILLETRAD
 40
0.0
  9
$AUNITS
 70
     0
  9
$AUPREC
 70
     0
  9
$MENU
  1
.
  9
$ELEVATION
 40
0.0
  9
$PELEVATION
 40
0.0
  9
$THICKNESS
 40
0.0
  9
$LIMCHECK
 70
     0
  9
$BLIPMODE
 70
     0
  9
$CHAMFERA
 40
0.0
  9
$CHAMFERB
 40
0.0
  9
$SKPOLY
 70
     0
  9
$TDCREATE
 40
2444972.375
  9
$TDUPDATE
 40
2458789.2478841441
  9
$TDINDWG
 40
0.0000404977
  9
$TDUSRTIMER
 40
0.0000404977
  9
$USRTIMER
 70
     1
  9
$ANGBASE
 50
0.0
  9
$ANGDIR
 70
     0
  9
$PDMODE
 70
     0
  9
$PDSIZE
 40
0.0
  9
$PLINEWID
 40
0.0
  9
$COORDS
 70
     1
  9
$SPLFRAME
 70
     0
  9
$SPLINETYPE
 70
     6
  9
$SPLINESEGS
 70
     8
  9
$ATTDIA
 70
     1
  9
$ATTREQ
 70
     1
  9
$HANDLING
 70
     1
  9
$HANDSEED
  5
3C2
  9
$SURFTAB1
 70
     6
  9
$SURFTAB2
 70
     6
  9
$SURFTYPE
 70
     6
  9
$SURFU
 70
     6
  9
$SURFV
 70
     6
  9
$UCSNAME
  2

  9
$UCSORG
 10
0.0
 20
0.0
 30
0.0
  9
$UCSXDIR
 10
1.0
 20
0.0
 30
0.0
  9
$UCSYDIR
 10
0.0
 20
1.0
 30
0.0
  9
$PUCSNAME
  2

  9
$PUCSORG
 10
0.0
 20
0.0
 30
0.0
  9
$PUCSXDIR
 10
1.0
 20
0.0
 30
0.0
  9
$PUCSYDIR
 10
0.0
 20
1.0
 30
0.0
  9
$USERI1
 70
     0
  9
$USERI2
 70
     0
  9
$USERI3
 70
     0
  9
$USERI4
 70
     0
  9
$USERI5
 70
     0
  9
$USERR1
 40
0.0
  9
$USERR2
 40
0.0
  9
$USERR3
 40
0.0
  9
$USERR4
 40
0.0
  9
$USERR5
 40
0.0
  9
$WORLDVIEW
 70
     1
  9
$SHADEDGE
 70
     3
  9
$SHADEDIF
 70
    70
  9
$TILEMODE
 70
     1
  9
$MAXACTVP
 70
    48
  9
$PLIMCHECK
 70
     0
  9
$PEXTMIN
 10
1.0000000000000000E+020
 20
1.0000000000000000E+020
 30
1.0000000000000000E+020
  9
$PEXTMAX
 10
-1.0000000000000000E+020
 20
-1.0000000000000000E+020
 30
-1.0000000000000000E+020
  9
$PLIMMIN
 10
0.0
 20
0.0
  9
$PLIMMAX
 10
12.0
 20
9.0
  9
$UNITMODE
 70
     0
  9
$VISRETAIN
 70
     1
  9
$PLINEGEN
 70
     0
  9
$PSLTSCALE
 70
     1
  0
ENDSEC
  0
SECTION
  2
TABLES
  0
TABLE
  2
VPORT
 70
     1
  0
VPORT
  2
*ACTIVE
 70
     0
 10
0.0
 20
0.0
 11
1.0
 21
1.0
 12
197.03120107771841
 22
148.589
 13
0.0
 23
0.0
 14
1.0
 24
1.0
 15
0.0
 25
0.0
 16
0.0
 26
0.0
 36
1.0
 17
0.0
 27
0.0
 37
0.0
 40
285.48563927085848
 41
2.2716468590831909
 42
50.0
 43
0.0
 44
0.0
 50
0.0
 51
0.0
 71
     0
 72
   100
 73
     1
 74
     1
 75
     0
 76
     0
 77
     0
 78
     0
  0
ENDTAB
  0
TABLE
  2
LTYPE
 70
     4
  0
LTYPE
  2
CONTINUOUS
 70
     0
  3
Solid line
 72
    65
 73
     0
 40
0.0
  0
LTYPE
  2
AIGENLINE001
 70
     0
  3
generate AI->DXF Converter
 72
    65
 73
     2
 40
1.5522299999999991
 49
0.776115
 49
-0.776115
  0
LTYPE
  2
AIGENLINE002
 70
     0
  3
generate AI->DXF Converter
 72
    65
 73
     4
 40
5.8561449999999988
 49
3.5278
 49
-0.776115
 49
0.776115
 49
-0.776115
  0
LTYPE
  2
AIGENLINE003
 70
     0
  3
generate AI->DXF Converter
 72
    65
 73
     6
 40
7.4083750000000004
 49
3.5278
 49
-0.776115
 49
0.776115
 49
-0.776115
 49
0.776115
 49
-0.776115
  0
ENDTAB
  0
TABLE
  2
LAYER
 70
     4
  0
LAYER
  2
0
 70
     0
 62
     7
  6
CONTINUOUS
  0
LAYER
  2
____
 70
     0
 62
     7
  6
CONTINUOUS
  0
LAYER
  2
_________1
 70
     0
 62
     7
  6
CONTINUOUS
  0
LAYER
  2
_________2
 70
     0
 62
     7
  6
CONTINUOUS
  0
ENDTAB
  0
TABLE
  2
STYLE
 70
     1
  0
STYLE
  2
STANDARD
 70
     0
 40
0.0
 41
0.0
 50
0.0
 71
     0
 42
0.0
  3
TXT
  4
EXTFONT.SHX
  0
ENDTAB
  0
TABLE
  2
VIEW
 70
     0
  0
ENDTAB
  0
TABLE
  2
UCS
 70
     0
  0
ENDTAB
  0
TABLE
  2
APPID
 70
     3
  0
APPID
  2
ACAD
 70
     0
  0
APPID
  2
ACAD_NAV_VCDISPLAY
 70
     0
  0
APPID
  2
ACAD_MLEADERVER
 70
     0
  0
ENDTAB
  0
TABLE
  2
DIMSTYLE
 70
     1
  0
DIMSTYLE
  2
STANDARD
 70
     0
  3

  4

  5

  6

  7

 40
1.0
 41
0.18
 42
0.0625
 43
0.38
 44
0.18
 45
0.0
 46
0.0
 47
0.0
 48
0.0
140
0.18
141
0.09
142
0.0
143
25.399999999999999
144
1.0
145
0.0
146
1.0
147
0.09
 71
     0
 72
     0
 73
     1
 74
     1
 75
     0
 76
     0
 77
     0
 78
     0
170
     0
171
     2
172
     0
173
     0
174
     0
175
     0
176
     0
177
     0
178
     0
  0
ENDTAB
  0
ENDSEC
  0
SECTION
  2
BLOCKS
  0
BLOCK
  8
0
  2
$MODEL_SPACE
 70
     0
 10
0.0
 20
0.0
 30
0.0
  3
$MODEL_SPACE
  1

  0
ENDBLK
  5
1A
  8
0
  0
BLOCK
 67
     1
  8
0
  2
$PAPER_SPACE
 70
     0
 10
0.0
 20
0.0
 30
0.0
  3
$PAPER_SPACE
  1

  0
ENDBLK
  5
17
 67
     1
  8
0
  0
BLOCK
  8
_________1
  2
AIGNBL02010002
 70
     0
 10
0.0
 20
0.0
 30
0.0
  3
AIGNBL02010002
  1

  0
LINE
  5
28
  8
_________1
 62
     7
 10
78.311000000000007
 20
122.17700000000001
 30
0.0
 11
80.5227
 21
122.77
 31
0.0
  0
LINE
  5
29
  8
_________1
 62
     7
 10
80.5227
 20
122.77
 30
0.0
 11
78.311000000000007
 21
123.36199999999999
 31
0.0
  0
LINE
  5
2A
  8
_________1
 62
     7
 10
78.311000000000007
 20
123.36199999999999
 30
0.0
 11
78.311000000000007
 21
122.17700000000001
 31
0.0
  0
LINE
  5
2B
  8
_________1
 62
     7
 10
85.709699999999998
 20
122.17
 30
0.0
 11
87.921499999999995
 21
122.762
 31
0.0
  0
LINE
  5
2C
  8
_________1
 62
     7
 10
87.921499999999995
 20
122.762
 30
0.0
 11
85.709699999999998
 21
123.355
 31
0.0
  0
LINE
  5
2D
  8
_________1
 62
     7
 10
85.709699999999998
 20
123.355
 30
0.0
 11
85.709699999999998
 21
122.17
 31
0.0
  0
LINE
  5
2E
  8
_________1
 62
     7
 10
95.322599999999994
 20
122.77
 30
0.0
 11
69.322599999999994
 21
122.77
 31
0.0
  0
ENDBLK
  5
2F
  8
_________1
  0
BLOCK
  8
_________1
  2
AIGNBL02010003
 70
     0
 10
0.0
 20
0.0
 30
0.0
  3
AIGNBL02010003
  1

  0
LINE
  5
32
  8
_________1
 62
     7
 10
93.111500000000007
 20
122.184
 30
0.0
 11
95.322599999999994
 21
122.777
 31
0.0
  0
LINE
  5
33
  8
_________1
 62
     7
 10
95.322599999999994
 20
122.777
 30
0.0
 11
93.111500000000007
 21
123.369
 31
0.0
  0
LINE
  5
34
  8
_________1
 62
     7
 10
93.111500000000007
 20
123.369
 30
0.0
 11
93.111500000000007
 21
122.184
 31
0.0
  0
LINE
  5
35
  8
_________1
 62
     7
 10
82.733800000000016
 20
123.369
 30
0.0
 11
80.5227
 21
122.777
 31
0.0
  0
LINE
  5
36
  8
_________1
 62
     7
 10
80.5227
 20
122.777
 30
0.0
 11
82.733800000000016
 21
122.184
 31
0.0
  0
LINE
  5
37
  8
_________1
 62
     7
 10
82.733800000000016
 20
122.184
 30
0.0
 11
82.733800000000016
 21
123.369
 31
0.0
  0
LINE
  5
38
  8
_________1
 62
     7
 10
90.132499999999993
 20
123.355
 30
0.0
 11
87.921499999999995
 21
122.762
 31
0.0
  0
LINE
  5
39
  8
_________1
 62
     7
 10
87.921499999999995
 20
122.762
 30
0.0
 11
90.132499999999993
 21
122.17
 31
0.0
  0
LINE
  5
3A
  8
_________1
 62
     7
 10
90.132499999999993
 20
122.17
 30
0.0
 11
90.132499999999993
 21
123.355
 31
0.0
  0
ENDBLK
  5
3B
  8
_________1
  0
BLOCK
  8
_________1
  2
AIGNBL02010004
 70
     0
 10
0.0
 20
0.0
 30
0.0
  3
AIGNBL02010004
  1

  0
LINE
  5
3E
  8
_________1
 62
     7
 10
108.464
 20
111.68600000000001
 30
0.0
 11
107.871
 21
113.89700000000001
 31
0.0
  0
LINE
  5
3F
  8
_________1
 62
     7
 10
107.871
 20
113.89700000000001
 30
0.0
 11
107.279
 21
111.68600000000001
 31
0.0
  0
LINE
  5
40
  8
_________1
 62
     7
 10
107.279
 20
111.68600000000001
 30
0.0
 11
108.464
 21
111.68600000000001
 31
0.0
  0
LINE
  5
41
  8
_________1
 62
     7
 10
107.29300000000001
 20
100.706
 30
0.0
 11
107.886
 21
98.495199999999997
 31
0.0
  0
LINE
  5
42
  8
_________1
 62
     7
 10
107.886
 20
98.495199999999997
 30
0.0
 11
108.47799999999999
 21
100.706
 31
0.0
  0
LINE
  5
43
  8
_________1
 62
     7
 10
108.47799999999999
 20
100.706
 30
0.0
 11
107.29300000000001
 21
100.706
 31
0.0
  0
LINE
  5
44
  8
_________1
 62
     7
 10
107.878
 20
113.896
 30
0.0
 11
107.878
 21
98.495900000000006
 31
0.0
  0
ENDBLK
  5
45
  8
_________1
  0
BLOCK
  8
_________1
  2
AIGNBL02010005
 70
     0
 10
0.0
 20
0.0
 30
0.0
  3
AIGNBL02010005
  1

  0
LINE
  5
48
  8
_________1
 62
     7
 10
102.8
 20
102.886
 30
0.0
 11
102.208
 21
105.09699999999999
 31
0.0
  0
LINE
  5
49
  8
_________1
 62
     7
 10
102.208
 20
105.09699999999999
 30
0.0
 11
101.61499999999999
 21
102.886
 31
0.0
  0
LINE
  5
4A
  8
_________1
 62
     7
 10
101.61499999999999
 20
102.886
 30
0.0
 11
102.8
 21
102.886
 31
0.0
  0
LINE
  5
4B
  8
_________1
 62
     7
 10
101.63
 20
98.906599999999997
 30
0.0
 11
102.22199999999999
 21
96.695499999999996
 31
0.0
  0
LINE
  5
4C
  8
_________1
 62
     7
 10
102.22199999999999
 20
96.695499999999996
 30
0.0
 11
102.815
 21
98.906599999999997
 31
0.0
  0
LINE
  5
4D
  8
_________1
 62
     7
 10
102.815
 20
98.906599999999997
 30
0.0
 11
101.63
 21
98.906599999999997
 31
0.0
  0
LINE
  5
4E
  8
_________1
 62
     7
 10
102.215
 20
105.096
 30
0.0
 11
102.215
 21
96.696200000000005
 31
0.0
  0
ENDBLK
  5
4F
  8
_________1
  0
BLOCK
  8
_________1
  2
AIGNBL02010006
 70
     0
 10
0.0
 20
0.0
 30
0.0
  3
AIGNBL02010006
  1

  0
LINE
  5
52
  8
_________1
 62
     7
 10
93.110200000000006
 20
72.133899999999997
 30
0.0
 11
95.321899999999985
 21
72.726399999999984
 31
0.0
  0
LINE
  5
53
  8
_________1
 62
     7
 10
95.321899999999985
 20
72.726399999999984
 30
0.0
 11
93.110200000000006
 21
73.319000000000003
 31
0.0
  0
LINE
  5
54
  8
_________1
 62
     7
 10
93.110200000000006
 20
73.319000000000003
 30
0.0
 11
93.110200000000006
 21
72.133899999999997
 31
0.0
  0
LINE
  5
55
  8
_________1
 62
     7
 10
82.732399999999984
 20
73.311800000000005
 30
0.0
 11
80.520700000000005
 21
72.719200000000001
 31
0.0
  0
LINE
  5
56
  8
_________1
 62
     7
 10
80.520700000000005
 20
72.719200000000001
 30
0.0
 11
82.732399999999984
 21
72.126599999999996
 31
0.0
  0
LINE
  5
57
  8
_________1
 62
     7
 10
82.732399999999984
 20
72.126599999999996
 30
0.0
 11
82.732399999999984
 21
73.311800000000005
 31
0.0
  0
LINE
  5
58
  8
_________1
 62
     7
 10
95.321899999999985
 20
72.726399999999984
 30
0.0
 11
80.521699999999996
 21
72.726399999999984
 31
0.0
  0
LINE
  5
59
  8
_________1
 62
     7
 10
89.710200000000015
 20
79.137799999999999
 30
0.0
 11
91.921899999999994
 21
79.7303
 31
0.0
  0
LINE
  5
5A
  8
_________1
 62
     7
 10
91.921899999999994
 20
79.7303
 30
0.0
 11
89.710200000000015
 21
80.322900000000004
 31
0.0
  0
LINE
  5
5B
  8
_________1
 62
     7
 10
89.710200000000015
 20
80.322900000000004
 30
0.0
 11
89.710200000000015
 21
79.137799999999999
 31
0.0
  0
LINE
  5
5C
  8
_________1
 62
     7
 10
97.533699999999996
 20
80.322900000000004
 30
0.0
 11
95.321899999999985
 21
79.7303
 31
0.0
  0
LINE
  5
5D
  8
_________1
 62
     7
 10
95.321899999999985
 20
79.7303
 30
0.0
 11
97.533699999999996
 21
79.137799999999999
 31
0.0
  0
LINE
  5
5E
  8
_________1
 62
     7
 10
97.533699999999996
 20
79.137799999999999
 30
0.0
 11
97.533699999999996
 21
80.322900000000004
 31
0.0
  0
LINE
  5
5F
  8
_________1
 62
     7
 10
82.732399999999984
 20
80.315700000000007
 30
0.0
 11
80.520700000000005
 21
79.723100000000002
 31
0.0
  0
LINE
  5
60
  8
_________1
 62
     7
 10
80.520700000000005
 20
79.723100000000002
 30
0.0
 11
82.732399999999984
 21
79.130600000000001
 31
0.0
  0
LINE
  5
61
  8
_________1
 62
     7
 10
82.732399999999984
 20
79.130600000000001
 30
0.0
 11
82.732399999999984
 21
80.315700000000007
 31
0.0
  0
LINE
  5
62
  8
_________1
 62
     7
 10
100.70099999999999
 20
79.7303
 30
0.0
 11
80.521699999999996
 21
79.7303
 31
0.0
  0
ENDBLK
  5
63
  8
_________1
  0
BLOCK
  8
_________1
  2
AIGNBL02010007
 70
     0
 10
0.0
 20
0.0
 30
0.0
  3
AIGNBL02010007
  1

  0
LINE
  5
66
  8
_________1
 62
     7
 10
37.731999999999999
 20
80.315700000000007
 30
0.0
 11
35.52020000000001
 21
79.723100000000002
 31
0.0
  0
LINE
  5
67
  8
_________1
 62
     7
 10
35.52020000000001
 20
79.723100000000002
 30
0.0
 11
37.731999999999999
 21
79.130600000000001
 31
0.0
  0
LINE
  5
68
  8
_________1
 62
     7
 10
37.731999999999999
 20
79.130600000000001
 30
0.0
 11
37.731999999999999
 21
80.315700000000007
 31
0.0
  0
LINE
  5
69
  8
_________1
 62
     7
 10
78.311000000000007
 20
79.144999999999996
 30
0.0
 11
80.5227
 21
79.7376
 31
0.0
  0
LINE
  5
6A
  8
_________1
 62
     7
 10
80.5227
 20
79.7376
 30
0.0
 11
78.311000000000007
 21
80.330100000000002
 31
0.0
  0
LINE
  5
6B
  8
_________1
 62
     7
 10
78.311000000000007
 20
80.330100000000002
 30
0.0
 11
78.311000000000007
 21
79.144999999999996
 31
0.0
  0
LINE
  5
6C
  8
_________1
 62
     7
 10
35.5212
 20
79.7303
 30
0.0
 11
80.521699999999996
 21
79.7303
 31
0.0
  0
ENDBLK
  5
6D
  8
_________1
  0
BLOCK
  8
_________1
  2
AIGNBL02010008
 70
     0
 10
0.0
 20
0.0
 30
0.0
  3
AIGNBL02010008
  1

  0
LINE
  5
70
  8
_________1
 62
     7
 10
-53.842399999999998
 20
181.083
 30
0.0
 11
-53.2498
 21
178.87200000000001
 31
0.0
  0
LINE
  5
71
  8
_________1
 62
     7
 10
-53.2498
 20
178.87200000000001
 30
0.0
 11
-52.657200000000003
 21
181.083
 31
0.0
  0
LINE
  5
72
  8
_________1
 62
     7
 10
-52.657200000000003
 20
181.083
 30
0.0
 11
-53.842399999999998
 21
181.083
 31
0.0
  0
LINE
  5
73
  8
_________1
 62
     7
 10
-52.671700000000001
 20
224.66200000000001
 30
0.0
 11
-53.264299999999999
 21
226.874
 31
0.0
  0
LINE
  5
74
  8
_________1
 62
     7
 10
-53.264299999999999
 20
226.874
 30
0.0
 11
-53.8568
 21
224.66200000000001
 31
0.0
  0
LINE
  5
75
  8
_________1
 62
     7
 10
-53.8568
 20
224.66200000000001
 30
0.0
 11
-52.671700000000001
 21
224.66200000000001
 31
0.0
  0
LINE
  5
76
  8
_________1
 62
     7
 10
-53.256999999999998
 20
178.87200000000001
 30
0.0
 11
-53.256999999999998
 21
226.87299999999999
 31
0.0
  0
ENDBLK
  5
77
  8
_________1
  0
BLOCK
  8
_________1
  2
AIGNBL02010009
 70
     0
 10
0.0
 20
0.0
 30
0.0
  3
AIGNBL02010009
  1

  0
LINE
  5
7A
  8
_________1
 62
     7
 10
-52.575899999999997
 20
99.884600000000006
 30
0.0
 11
-53.168500000000002
 21
102.096
 31
0.0
  0
LINE
  5
7B
  8
_________1
 62
     7
 10
-53.168500000000002
 20
102.096
 30
0.0
 11
-53.761099999999999
 21
99.884600000000006
 31
0.0
  0
LINE
  5
7C
  8
_________1
 62
     7
 10
-53.761099999999999
 20
99.884600000000006
 30
0.0
 11
-52.575899999999997
 21
99.884600000000006
 31
0.0
  0
LINE
  5
7D
  8
_________1
 62
     7
 10
-52.575899999999997
 20
108.88500000000001
 30
0.0
 11
-53.168500000000002
 21
111.096
 31
0.0
  0
LINE
  5
7E
  8
_________1
 62
     7
 10
-53.168500000000002
 20
111.096
 30
0.0
 11
-53.761099999999999
 21
108.88500000000001
 31
0.0
  0
LINE
  5
7F
  8
_________1
 62
     7
 10
-53.761099999999999
 20
108.88500000000001
 30
0.0
 11
-52.575899999999997
 21
108.88500000000001
 31
0.0
  0
LINE
  5
80
  8
_________1
 62
     7
 10
-53.704599999999999
 20
107.307
 30
0.0
 11
-53.111999999999988
 21
105.096
 31
0.0
  0
LINE
  5
81
  8
_________1
 62
     7
 10
-53.111999999999988
 20
105.096
 30
0.0
 11
-52.519399999999997
 21
107.307
 31
0.0
  0
LINE
  5
82
  8
_________1
 62
     7
 10
-52.519399999999997
 20
107.307
 30
0.0
 11
-53.704599999999999
 21
107.307
 31
0.0
  0
LINE
  5
83
  8
_________1
 62
     7
 10
-53.168500000000002
 20
111.096
 30
0.0
 11
-53.168500000000002
 21
98.649900000000002
 31
0.0
  0
ENDBLK
  5
84
  8
_________1
  0
BLOCK
  8
_________1
  2
AIGNBL0201000A
 70
     0
 10
0.0
 20
0.0
 30
0.0
  3
AIGNBL0201000A
  1

  0
LINE
  5
87
  8
_________1
 62
     7
 10
-59.351300000000002
 20
110.285
 30
0.0
 11
-59.943800000000003
 21
112.496
 31
0.0
  0
LINE
  5
88
  8
_________1
 62
     7
 10
-59.943800000000003
 20
112.496
 30
0.0
 11
-60.5364
 21
110.285
 31
0.0
  0
LINE
  5
89
  8
_________1
 62
     7
 10
-60.5364
 20
110.285
 30
0.0
 11
-59.351300000000002
 21
110.285
 31
0.0
  0
LINE
  5
8A
  8
_________1
 62
     7
 10
-60.5364
 20
115.974
 30
0.0
 11
-59.943800000000003
 21
113.76300000000001
 31
0.0
  0
LINE
  5
8B
  8
_________1
 62
     7
 10
-59.943800000000003
 20
113.76300000000001
 30
0.0
 11
-59.351300000000002
 21
115.974
 31
0.0
  0
LINE
  5
8C
  8
_________1
 62
     7
 10
-59.351300000000002
 20
115.974
 30
0.0
 11
-60.5364
 21
115.974
 31
0.0
  0
LINE
  5
8D
  8
_________1
 62
     7
 10
-60.529200000000003
 20
99.906300000000016
 30
0.0
 11
-59.936599999999999
 21
97.695300000000003
 31
0.0
  0
LINE
  5
8E
  8
_________1
 62
     7
 10
-59.936599999999999
 20
97.695300000000003
 30
0.0
 11
-59.344000000000001
 21
99.906300000000016
 31
0.0
  0
LINE
  5
8F
  8
_________1
 62
     7
 10
-59.344000000000001
 20
99.906300000000016
 30
0.0
 11
-60.529200000000003
 21
99.906300000000016
 31
0.0
  0
LINE
  5
90
  8
_________1
 62
     7
 10
-59.943800000000003
 20
118.631
 30
0.0
 11
-59.943800000000003
 21
97.695899999999995
 31
0.0
  0
ENDBLK
  5
91
  8
_________1
  0
BLOCK
  8
_________1
  2
AIGNBL0201000B
 70
     0
 10
0.0
 20
0.0
 30
0.0
  3
AIGNBL0201000B
  1

  0
LINE
  5
94
  8
_________1
 62
     7
 10
-21.912500000000001
 20
78.666799999999995
 30
0.0
 11
-24.124099999999999
 21
78.074299999999994
 31
0.0
  0
LINE
  5
95
  8
_________1
 62
     7
 10
-24.124099999999999
 20
78.074299999999994
 30
0.0
 11
-21.912500000000001
 21
77.481700000000004
 31
0.0
  0
LINE
  5
96
  8
_________1
 62
     7
 10
-21.912500000000001
 20
77.481700000000004
 30
0.0
 11
-21.912500000000001
 21
78.666799999999995
 31
0.0
  0
LINE
  5
97
  8
_________1
 62
     7
 10
-13.3355
 20
77.481700000000004
 30
0.0
 11
-11.123900000000001
 21
78.074299999999994
 31
0.0
  0
LINE
  5
98
  8
_________1
 62
     7
 10
-11.123900000000001
 20
78.074299999999994
 30
0.0
 11
-13.3355
 21
78.666799999999995
 31
0.0
  0
LINE
  5
99
  8
_________1
 62
     7
 10
-13.3355
 20
78.666799999999995
 30
0.0
 11
-13.3355
 21
77.481700000000004
 31
0.0
  0
LINE
  5
9A
  8
_________1
 62
     7
 10
-19.8124
 20
85.177400000000006
 30
0.0
 11
-22.023900000000001
 21
84.584900000000005
 31
0.0
  0
LINE
  5
9B
  8
_________1
 62
     7
 10
-22.023900000000001
 20
84.584900000000005
 30
0.0
 11
-19.8124
 21
83.992300000000014
 31
0.0
  0
LINE
  5
9C
  8
_________1
 62
     7
 10
-19.8124
 20
83.992300000000014
 30
0.0
 11
-19.8124
 21
85.177400000000006
 31
0.0
  0
LINE
  5
9D
  8
_________1
 62
     7
 10
-28.4358
 20
83.992300000000014
 30
0.0
 11
-26.2242
 21
84.584900000000005
 31
0.0
  0
LINE
  5
9E
  8
_________1
 62
     7
 10
-26.2242
 20
84.584900000000005
 30
0.0
 11
-28.4358
 21
85.177400000000006
 31
0.0
  0
LINE
  5
9F
  8
_________1
 62
     7
 10
-28.4358
 20
85.177400000000006
 30
0.0
 11
-28.4358
 21
83.992300000000014
 31
0.0
  0
LINE
  5
A0
  8
_________1
 62
     7
 10
-6.8121999999999989
 20
85.177400000000006
 30
0.0
 11
-9.0237999999999996
 21
84.584900000000005
 31
0.0
  0
LINE
  5
A1
  8
_________1
 62
     7
 10
-9.0237999999999996
 20
84.584900000000005
 30
0.0
 11
-6.8121999999999989
 21
83.992300000000014
 31
0.0
  0
LINE
  5
A2
  8
_________1
 62
     7
 10
-6.8121999999999989
 20
83.992300000000014
 30
0.0
 11
-6.8121999999999989
 21
85.177400000000006
 31
0.0
  0
LINE
  5
A3
  8
_________1
 62
     7
 10
-15.435700000000001
 20
83.992300000000014
 30
0.0
 11
-13.2241
 21
84.584900000000005
 31
0.0
  0
LINE
  5
A4
  8
_________1
 62
     7
 10
-13.2241
 20
84.584900000000005
 30
0.0
 11
-15.435700000000001
 21
85.177400000000006
 31
0.0
  0
LINE
  5
A5
  8
_________1
 62
     7
 10
-15.435700000000001
 20
85.177400000000006
 30
0.0
 11
-15.435700000000001
 21
83.992300000000014
 31
0.0
  0
LINE
  5
A6
  8
_________1
 62
     7
 10
-16.038699999999999
 20
84.584900000000005
 30
0.0
 11
0.357259
 21
84.584900000000005
 31
0.0
  0
ENDBLK
  5
A7
  8
_________1
  0
BLOCK
  8
_________1
  2
AIGNBL0201000C
 70
     0
 10
0.0
 20
0.0
 30
0.0
  3
AIGNBL0201000C
  1

  0
LINE
  5
AA
  8
_________1
 62
     7
 10
9.2578899999999997
 20
229.08199999999999
 30
0.0
 11
9.8504500000000004
 21
226.87100000000001
 31
0.0
  0
LINE
  5
AB
  8
_________1
 62
     7
 10
9.8504500000000004
 20
226.87100000000001
 30
0.0
 11
10.443
 21
229.08199999999999
 31
0.0
  0
LINE
  5
AC
  8
_________1
 62
     7
 10
10.443
 20
229.08199999999999
 30
0.0
 11
9.2578899999999997
 21
229.08199999999999
 31
0.0
  0
LINE
  5
AD
  8
_________1
 62
     7
 10
10.4285
 20
232.06100000000001
 30
0.0
 11
9.8359800000000011
 21
234.27199999999999
 31
0.0
  0
LINE
  5
AE
  8
_________1
 62
     7
 10
9.8359800000000011
 20
234.27199999999999
 30
0.0
 11
9.2434200000000004
 21
232.06100000000001
 31
0.0
  0
LINE
  5
AF
  8
_________1
 62
     7
 10
9.2434200000000004
 20
232.06100000000001
 30
0.0
 11
10.4285
 21
232.06100000000001
 31
0.0
  0
LINE
  5
B0
  8
_________1
 62
     7
 10
9.8435600000000001
 20
226.87100000000001
 30
0.0
 11
9.8435600000000001
 21
234.27099999999999
 31
0.0
  0
ENDBLK
  5
B1
  8
_________1
  0
BLOCK
  8
_________1
  2
AIGNBL0201000D
 70
     0
 10
0.0
 20
0.0
 30
0.0
  3
AIGNBL0201000D
  1

  0
LINE
  5
B4
  8
_________1
 62
     7
 10
9.2578899999999997
 20
236.483
 30
0.0
 11
9.8504500000000004
 21
234.27199999999999
 31
0.0
  0
LINE
  5
B5
  8
_________1
 62
     7
 10
9.8504500000000004
 20
234.27199999999999
 30
0.0
 11
10.443
 21
236.483
 31
0.0
  0
LINE
  5
B6
  8
_________1
 62
     7
 10
10.443
 20
236.483
 30
0.0
 11
9.2578899999999997
 21
236.483
 31
0.0
  0
LINE
  5
B7
  8
_________1
 62
     7
 10
10.4285
 20
239.46299999999999
 30
0.0
 11
9.8359800000000011
 21
241.67400000000001
 31
0.0
  0
LINE
  5
B8
  8
_________1
 62
     7
 10
9.8359800000000011
 20
241.67400000000001
 30
0.0
 11
9.2434200000000004
 21
239.46299999999999
 31
0.0
  0
LINE
  5
B9
  8
_________1
 62
     7
 10
9.2434200000000004
 20
239.46299999999999
 30
0.0
 11
10.4285
 21
239.46299999999999
 31
0.0
  0
LINE
  5
BA
  8
_________1
 62
     7
 10
9.8435600000000001
 20
234.273
 30
0.0
 11
9.8435600000000001
 21
241.673
 31
0.0
  0
ENDBLK
  5
BB
  8
_________1
  0
BLOCK
  8
_________1
  2
AIGNBL0201000E
 70
     0
 10
0.0
 20
0.0
 30
0.0
  3
AIGNBL0201000E
  1

  0
LINE
  5
BE
  8
_________1
 62
     7
 10
10.566000000000001
 20
91.906099999999995
 30
0.0
 11
11.1586
 21
89.694999999999993
 31
0.0
  0
LINE
  5
BF
  8
_________1
 62
     7
 10
11.1586
 20
89.694999999999993
 30
0.0
 11
11.751099999999999
 21
91.906099999999995
 31
0.0
  0
LINE
  5
C0
  8
_________1
 62
     7
 10
11.751099999999999
 20
91.906099999999995
 30
0.0
 11
10.566000000000001
 21
91.906099999999995
 31
0.0
  0
LINE
  5
C1
  8
_________1
 62
     7
 10
11.736700000000001
 20
102.886
 30
0.0
 11
11.1441
 21
105.09699999999999
 31
0.0
  0
LINE
  5
C2
  8
_________1
 62
     7
 10
11.1441
 20
105.09699999999999
 30
0.0
 11
10.551500000000001
 21
102.886
 31
0.0
  0
LINE
  5
C3
  8
_________1
 62
     7
 10
10.551500000000001
 20
102.886
 30
0.0
 11
11.736700000000001
 21
102.886
 31
0.0
  0
LINE
  5
C4
  8
_________1
 62
     7
 10
11.1517
 20
89.695700000000002
 30
0.0
 11
11.1517
 21
105.096
 31
0.0
  0
ENDBLK
  5
C5
  8
_________1
  0
BLOCK
  8
_________1
  2
AIGNBL0201000F
 70
     0
 10
0.0
 20
0.0
 30
0.0
  3
AIGNBL0201000F
  1

  0
LINE
  5
C8
  8
_________1
 62
     7
 10
-28.4133
 20
122.899
 30
0.0
 11
-30.624300000000002
 21
122.306
 31
0.0
  0
LINE
  5
C9
  8
_________1
 62
     7
 10
-30.624300000000002
 20
122.306
 30
0.0
 11
-28.4133
 21
121.714
 31
0.0
  0
LINE
  5
CA
  8
_________1
 62
     7
 10
-28.4133
 20
121.714
 30
0.0
 11
-28.4133
 21
122.899
 31
0.0
  0
LINE
  5
CB
  8
_________1
 62
     7
 10
-19.8353
 20
121.72
 30
0.0
 11
-17.624199999999998
 21
122.313
 31
0.0
  0
LINE
  5
CC
  8
_________1
 62
     7
 10
-17.624199999999998
 20
122.313
 30
0.0
 11
-19.8353
 21
122.90600000000001
 31
0.0
  0
LINE
  5
CD
  8
_________1
 62
     7
 10
-19.8353
 20
122.90600000000001
 30
0.0
 11
-19.8353
 21
121.72
 31
0.0
  0
LINE
  5
CE
  8
_________1
 62
     7
 10
-30.6236
 20
122.313
 30
0.0
 11
-9.30044
 21
122.313
 31
0.0
  0
ENDBLK
  5
CF
  8
_________1
  0
BLOCK
  8
_________1
  2
AIGNBL02010010
 70
     0
 10
0.0
 20
0.0
 30
0.0
  3
AIGNBL02010010
  1

  0
LINE
  5
D2
  8
_________1
 62
     7
 10
3.5267699999999991
 20
100.706
 30
0.0
 11
4.1193299999999997
 21
98.495199999999997
 31
0.0
  0
LINE
  5
D3
  8
_________1
 62
     7
 10
4.1193299999999997
 20
98.495199999999997
 30
0.0
 11
4.7118900000000004
 21
100.706
 31
0.0
  0
LINE
  5
D4
  8
_________1
 62
     7
 10
4.7118900000000004
 20
100.706
 30
0.0
 11
3.5267699999999991
 21
100.706
 31
0.0
  0
LINE
  5
D5
  8
_________1
 62
     7
 10
4.6974200000000002
 20
111.68600000000001
 30
0.0
 11
4.1048599999999986
 21
113.89700000000001
 31
0.0
  0
LINE
  5
D6
  8
_________1
 62
     7
 10
4.1048599999999986
 20
113.89700000000001
 30
0.0
 11
3.5123000000000002
 21
111.68600000000001
 31
0.0
  0
LINE
  5
D7
  8
_________1
 62
     7
 10
3.5123000000000002
 20
111.68600000000001
 30
0.0
 11
4.6974200000000002
 21
111.68600000000001
 31
0.0
  0
LINE
  5
D8
  8
_________1
 62
     7
 10
4.1124400000000003
 20
98.495900000000006
 30
0.0
 11
4.1124400000000003
 21
113.896
 31
0.0
  0
ENDBLK
  5
D9
  8
_________1
  0
BLOCK
  8
_________1
  2
AIGNBL02010011
 70
     0
 10
0.0
 20
0.0
 30
0.0
  3
AIGNBL02010011
  1

  0
LINE
  5
DC
  8
_________1
 62
     7
 10
-19.835799999999999
 20
128.87100000000001
 30
0.0
 11
-17.624199999999998
 21
129.464
 31
0.0
  0
LINE
  5
DD
  8
_________1
 62
     7
 10
-17.624199999999998
 20
129.464
 30
0.0
 11
-19.835799999999999
 21
130.05600000000001
 31
0.0
  0
LINE
  5
DE
  8
_________1
 62
     7
 10
-19.835799999999999
 20
130.05600000000001
 30
0.0
 11
-19.835799999999999
 21
128.87100000000001
 31
0.0
  0
LINE
  5
DF
  8
_________1
 62
     7
 10
-10.8127
 20
122.90600000000001
 30
0.0
 11
-13.0243
 21
122.313
 31
0.0
  0
LINE
  5
E0
  8
_________1
 62
     7
 10
-13.0243
 20
122.313
 30
0.0
 11
-10.8127
 21
121.72
 31
0.0
  0
LINE
  5
E1
  8
_________1
 62
     7
 10
-10.8127
 20
121.72
 30
0.0
 11
-10.8127
 21
122.90600000000001
 31
0.0
  0
LINE
  5
E2
  8
_________1
 62
     7
 10
-15.412599999999999
 20
130.05600000000001
 30
0.0
 11
-17.624199999999998
 21
129.464
 31
0.0
  0
LINE
  5
E3
  8
_________1
 62
     7
 10
-17.624199999999998
 20
129.464
 30
0.0
 11
-15.412599999999999
 21
128.87100000000001
 31
0.0
  0
LINE
  5
E4
  8
_________1
 62
     7
 10
-15.412599999999999
 20
128.87100000000001
 30
0.0
 11
-15.412599999999999
 21
130.05600000000001
 31
0.0
  0
LINE
  5
E5
  8
_________1
 62
     7
 10
-39.894500000000001
 20
128.87100000000001
 30
0.0
 11
-37.682899999999997
 21
129.464
 31
0.0
  0
LINE
  5
E6
  8
_________1
 62
     7
 10
-37.682899999999997
 20
129.464
 30
0.0
 11
-39.894500000000001
 21
130.05600000000001
 31
0.0
  0
LINE
  5
E7
  8
_________1
 62
     7
 10
-39.894500000000001
 20
130.05600000000001
 30
0.0
 11
-39.894500000000001
 21
128.87100000000001
 31
0.0
  0
LINE
  5
E8
  8
_________1
 62
     7
 10
-35.471299999999999
 20
130.05600000000001
 30
0.0
 11
-37.682899999999997
 21
129.464
 31
0.0
  0
LINE
  5
E9
  8
_________1
 62
     7
 10
-37.682899999999997
 20
129.464
 30
0.0
 11
-35.471299999999999
 21
128.87100000000001
 31
0.0
  0
LINE
  5
EA
  8
_________1
 62
     7
 10
-35.471299999999999
 20
128.87100000000001
 30
0.0
 11
-35.471299999999999
 21
130.05600000000001
 31
0.0
  0
LINE
  5
EB
  8
_________1
 62
     7
 10
-47.035699999999999
 20
143.00899999999999
 30
0.0
 11
-44.824100000000001
 21
143.601
 31
0.0
  0
LINE
  5
EC
  8
_________1
 62
     7
 10
-44.824100000000001
 20
143.601
 30
0.0
 11
-47.035699999999999
 21
144.19399999999999
 31
0.0
  0
LINE
  5
ED
  8
_________1
 62
     7
 10
-47.035699999999999
 20
144.19399999999999
 30
0.0
 11
-47.035699999999999
 21
143.00899999999999
 31
0.0
  0
LINE
  5
EE
  8
_________1
 62
     7
 10
-39.612499999999997
 20
144.19399999999999
 30
0.0
 11
-41.824099999999987
 21
143.601
 31
0.0
  0
LINE
  5
EF
  8
_________1
 62
     7
 10
-41.824099999999987
 20
143.601
 30
0.0
 11
-39.612499999999997
 21
143.00899999999999
 31
0.0
  0
LINE
  5
F0
  8
_________1
 62
     7
 10
-39.612499999999997
 20
143.00899999999999
 30
0.0
 11
-39.612499999999997
 21
144.19399999999999
 31
0.0
  0
LINE
  5
F1
  8
_________1
 62
     7
 10
-8.0355600000000003
 20
143.00899999999999
 30
0.0
 11
-5.8239700000000001
 21
143.601
 31
0.0
  0
LINE
  5
F2
  8
_________1
 62
     7
 10
-5.8239700000000001
 20
143.601
 30
0.0
 11
-8.0355600000000003
 21
144.19399999999999
 31
0.0
  0
LINE
  5
F3
  8
_________1
 62
     7
 10
-8.0355600000000003
 20
144.19399999999999
 30
0.0
 11
-8.0355600000000003
 21
143.00899999999999
 31
0.0
  0
ENDBLK
  5
F4
  8
_________1
  0
BLOCK
  8
_________1
  2
AIGNBL02010012
 70
     0
 10
0.0
 20
0.0
 30
0.0
  3
AIGNBL02010012
  1

  0
LINE
  5
F7
  8
_________1
 62
     7
 10
-3.6123799999999999
 20
136.958
 30
0.0
 11
-5.8239700000000001
 21
136.36600000000001
 31
0.0
  0
LINE
  5
F8
  8
_________1
 62
     7
 10
-5.8239700000000001
 20
136.36600000000001
 30
0.0
 11
-3.6123799999999999
 21
135.773
 31
0.0
  0
LINE
  5
F9
  8
_________1
 62
     7
 10
-3.6123799999999999
 20
135.773
 30
0.0
 11
-3.6123799999999999
 21
136.958
 31
0.0
  0
LINE
  5
FA
  8
_________1
 62
     7
 10
-10.4239
 20
136.36600000000001
 30
0.0
 11
-2.3371699999999991
 21
136.36600000000001
 31
0.0
  0
ENDBLK
  5
FB
  8
_________1
  0
BLOCK
  8
_________1
  2
AIGNBL02010013
 70
     0
 10
0.0
 20
0.0
 30
0.0
  3
AIGNBL02010013
  1

  0
LINE
  5
FE
  8
_________1
 62
     7
 10
-12.634600000000001
 20
135.78
 30
0.0
 11
-10.423
 21
136.37299999999999
 31
0.0
  0
LINE
  5
FF
  8
_________1
 62
     7
 10
-10.423
 20
136.37299999999999
 30
0.0
 11
-12.634600000000001
 21
136.965
 31
0.0
  0
LINE
  5
100
  8
_________1
 62
     7
 10
-12.634600000000001
 20
136.965
 30
0.0
 11
-12.634600000000001
 21
135.78
 31
0.0
  0
LINE
  5
101
  8
_________1
 62
     7
 10
-42.613300000000002
 20
136.95099999999999
 30
0.0
 11
-44.8249
 21
136.358
 31
0.0
  0
LINE
  5
102
  8
_________1
 62
     7
 10
-44.8249
 20
136.358
 30
0.0
 11
-42.613300000000002
 21
135.76599999999999
 31
0.0
  0
LINE
  5
103
  8
_________1
 62
     7
 10
-42.613300000000002
 20
135.76599999999999
 30
0.0
 11
-42.613300000000002
 21
136.95099999999999
 31
0.0
  0
LINE
  5
104
  8
_________1
 62
     7
 10
-10.4239
 20
136.36600000000001
 30
0.0
 11
-44.824100000000001
 21
136.36600000000001
 31
0.0
  0
ENDBLK
  5
105
  8
_________1
  0
BLOCK
  8
_________1
  2
AIGNBL02010014
 70
     0
 10
0.0
 20
0.0
 30
0.0
  3
AIGNBL02010014
  1

  0
LINE
  5
108
  8
_________1
 62
     7
 10
-12.634600000000001
 20
128.87899999999999
 30
0.0
 11
-10.423
 21
129.471
 31
0.0
  0
LINE
  5
109
  8
_________1
 62
     7
 10
-10.423
 20
129.471
 30
0.0
 11
-12.634600000000001
 21
130.06399999999999
 31
0.0
  0
LINE
  5
10A
  8
_________1
 62
     7
 10
-12.634600000000001
 20
130.06399999999999
 30
0.0
 11
-12.634600000000001
 21
128.87899999999999
 31
0.0
  0
LINE
  5
10B
  8
_________1
 62
     7
 10
-42.613300000000002
 20
130.04900000000001
 30
0.0
 11
-44.8249
 21
129.45699999999999
 31
0.0
  0
LINE
  5
10C
  8
_________1
 62
     7
 10
-44.8249
 20
129.45699999999999
 30
0.0
 11
-42.613300000000002
 21
128.864
 31
0.0
  0
LINE
  5
10D
  8
_________1
 62
     7
 10
-42.613300000000002
 20
128.864
 30
0.0
 11
-42.613300000000002
 21
130.04900000000001
 31
0.0
  0
LINE
  5
10E
  8
_________1
 62
     7
 10
-10.4239
 20
129.464
 30
0.0
 11
-44.824100000000001
 21
129.464
 31
0.0
  0
ENDBLK
  5
10F
  8
_________1
  0
BLOCK
  8
_________1
  2
AIGNBL02010015
 70
     0
 10
0.0
 20
0.0
 30
0.0
  3
AIGNBL02010015
  1

  0
LINE
  5
112
  8
_________1
 62
     7
 10
-49.1556
 20
143.601
 30
0.0
 11
-5.8239700000000001
 21
143.601
 31
0.0
  0
ENDBLK
  5
113
  8
_________1
  0
BLOCK
  8
_________2
  2
AIGNBL03010002
 70
     0
 10
0.0
 20
0.0
 30
0.0
  3
AIGNBL03010002
  1

  0
LINE
  5
116
  8
_________2
 62
     7
 10
186.649
 20
51.052199999999999
 30
0.0
 11
184.46299999999999
 21
51.052199999999999
 31
0.0
  0
LINE
  5
117
  8
_________2
 62
     7
 10
187.142
 20
51.052199999999999
 30
0.0
 11
186.88900000000001
 21
51.052199999999999
 31
0.0
  0
LINE
  5
118
  8
_________2
 62
     7
 10
187.63399999999999
 20
51.052199999999999
 30
0.0
 11
190.559
 21
51.052199999999999
 31
0.0
  0
LINE
  5
119
  8
_________2
 62
     7
 10
187.142
 20
51.052199999999999
 30
0.0
 11
187.39400000000001
 21
51.052199999999999
 31
0.0
  0
LINE
  5
11A
  8
_________2
 62
     7
 10
180.745
 20
51.052199999999999
 30
0.0
 11
178.55799999999999
 21
51.052199999999999
 31
0.0
  0
LINE
  5
11B
  8
_________2
 62
     7
 10
181.23699999999999
 20
51.052199999999999
 30
0.0
 11
180.98599999999999
 21
51.052199999999999
 31
0.0
  0
LINE
  5
11C
  8
_________2
 62
     7
 10
181.23699999999999
 20
51.544800000000002
 30
0.0
 11
181.23699999999999
 21
53.7318
 31
0.0
  0
LINE
  5
11D
  8
_________2
 62
     7
 10
181.23699999999999
 20
51.052199999999999
 30
0.0
 11
181.23699999999999
 21
51.304299999999998
 31
0.0
  0
LINE
  5
11E
  8
_________2
 62
     7
 10
181.72999999999999
 20
51.052199999999999
 30
0.0
 11
183.917
 21
51.052199999999999
 31
0.0
  0
LINE
  5
11F
  8
_________2
 62
     7
 10
181.23699999999999
 20
51.052199999999999
 30
0.0
 11
181.489
 21
51.052199999999999
 31
0.0
  0
LINE
  5
120
  8
_________2
 62
     7
 10
181.23699999999999
 20
50.560200000000002
 30
0.0
 11
181.23699999999999
 21
48.373199999999997
 31
0.0
  0
LINE
  5
121
  8
_________2
 62
     7
 10
181.23699999999999
 20
51.052199999999999
 30
0.0
 11
181.23699999999999
 21
50.800699999999999
 31
0.0
  0
LINE
  5
122
  8
_________2
 62
     7
 10
184.94799999999989
 20
49.832599999999999
 30
0.0
 11
190.12599999999989
 21
48.9679
 31
0.0
  0
LINE
  5
123
  8
_________2
 62
     7
 10
184.94799999999989
 20
52.271700000000003
 30
0.0
 11
190.12599999999989
 21
53.137099999999997
 31
0.0
  0
LINE
  5
124
  8
_________2
 62
     7
 10
190.12599999999989
 20
48.9679
 30
0.0
 11
190.12599999999989
 21
53.137099999999997
 31
0.0
  0
LINE
  5
125
  8
_________2
 62
     7
 10
184.94799999999989
 20
49.832599999999999
 30
0.0
 11
184.94799999999989
 21
52.271700000000003
 31
0.0
  0
ARC
  5
126
  8
_________2
 62
     7
 10
181.190651
 20
51.004810999999989
 30
0.0
 40
1.2677780000000001
 50
2.1403449999999991
 51
87.892005999999995
  0
ARC
  5
127
  8
_________2
 62
     7
 10
181.28420199999999
 20
51.005241999999988
 30
0.0
 40
1.2673579999999991
 50
92.121564999999975
 51
177.87840600000001
  0
ARC
  5
128
  8
_________2
 62
     7
 10
181.28381400000001
 20
51.098689
 30
0.0
 40
1.2669559999999991
 50
182.10473099999999
 51
267.89529900000002
  0
ARC
  5
129
  8
_________2
 62
     7
 10
181.19038399999999
 20
51.099775000000001
 30
0.0
 40
1.268054
 50
272.11960599999998
 51
357.84804300000002
  0
ARC
  5
12A
  8
_________2
 62
     7
 10
181.23728399999999
 20
51.05215900000001
 30
0.0
 40
2.0849849999999992
 50
0.00001
 51
89.999980000000008
  0
ARC
  5
12B
  8
_________2
 62
     7
 10
181.317331
 20
50.972827000000002
 30
0.0
 40
2.1657969999999991
 50
92.118111999999996
 51
177.90079600000001
  0
ARC
  5
12C
  8
_________2
 62
     7
 10
181.31728799999999
 20
51.132162999999998
 30
0.0
 40
2.1657779999999991
 50
182.11700400000001
 51
267.88302499999998
  0
ARC
  5
12D
  8
_________2
 62
     7
 10
181.15730300000001
 20
51.132855999999997
 30
0.0
 40
2.166469999999999
 50
272.115725
 51
357.86534699999999
  0
ENDBLK
  5
12E
  8
_________2
  0
ENDSEC
  0
SECTION
  2
ENTITIES
  0
TEXT
  5
12F
  8
____
 62
     7
 10
-21.07414
 20
251.15000000000001
 30
0.0
 40
3.0923400000000001
  1
KW9193400R
 41
0.5
 72
     2
 11
-6.6432199999999986
 21
251.15000000000001
 31
0.0
  0
TEXT
  5
130
  8
____
 62
     7
 10
-12.536104999999999
 20
200.63900000000001
 30
0.0
 40
3.0923400000000001
  1
KW1192034T
 41
0.5
 72
     2
 11
1.6371199999999999
 21
200.63900000000001
 31
0.0
  0
TEXT
  5
131
  8
____
 62
     7
 10
69.137395999999995
 20
67.697599999999994
 30
0.0
 40
3.0923400000000001
  1
壁仕上面
 41
0.5
 72
     2
 11
76.146699999999996
 21
67.697599999999994
 31
0.0
  0
TEXT
  5
132
  8
____
 62
     7
 10
-3.2088890000000001
 20
219.34800000000001
 30
0.0
 40
3.0923400000000001
  1
壁仕上面
 41
0.5
 72
     1
 11
0.295763
 21
219.34800000000001
 31
0.0
  0
TEXT
  5
133
  8
____
 62
     7
 10
-53.957099999999997
 20
200.93928750000001
 30
0.0
 40
3.0923400000000001
  1
240
 50
90.0
 41
0.5
 72
     1
 11
-53.957099999999997
 21
202.87200000000001
 31
0.0
  0
TEXT
  5
134
  8
____
 62
     7
 10
-9.2523850000000003
 20
137.066
 30
0.0
 40
3.0923400000000001
  1
23
 41
0.5
 72
     1
 11
-7.9639100000000003
 21
137.066
 31
0.0
  0
TEXT
  5
135
  8
____
 62
     7
 10
-35.527099999999997
 20
85.284899999999993
 30
0.0
 40
3.0923400000000001
  1
PF 1/2
 41
0.5
  0
TEXT
  5
136
  8
____
 62
     7
 10
81.162800000000004
 20
90.728499999999997
 30
0.0
 40
3.0923400000000001
  1
PF 1/2
 41
0.5
  0
TEXT
  5
137
  8
____
 62
     7
 10
-7.2705130000000002
 20
85.284899999999993
 30
0.0
 40
3.0923400000000001
  1
PF 1/2
 41
0.5
 72
     2
 11
0.357259
 21
85.284899999999993
 31
0.0
  0
TEXT
  5
138
  8
____
 62
     7
 10
107.178
 20
104.90752500000001
 30
0.0
 40
3.0923400000000001
  1
77
 50
90.0
 41
0.5
 72
     1
 11
107.178
 21
106.196
 31
0.0
  0
TEXT
  5
139
  8
____
 62
     7
 10
101.515
 20
99.607524999999995
 30
0.0
 40
3.0923400000000001
  1
42
 50
90.0
 41
0.5
 72
     1
 11
101.515
 21
100.896
 31
0.0
  0
TEXT
  5
13A
  8
____
 62
     7
 10
8.9678100000000001
 20
226.9375005
 30
0.0
 40
3.0923400000000001
  1
32～40
 50
90.0
 41
0.5
 72
     1
 11
8.9678100000000001
 21
230.571
 31
0.0
  0
TEXT
  5
13B
  8
____
 62
     7
 10
8.9678100000000001
 20
236.68452500000001
 30
0.0
 40
3.0923400000000001
  1
37
 50
90.0
 41
0.5
 72
     1
 11
8.9678100000000001
 21
237.97300000000001
 31
0.0
  0
TEXT
  5
13C
  8
____
 62
     7
 10
-16.565975000000002
 20
123.01300000000001
 30
0.0
 40
3.0923400000000001
  1
23
 41
0.5
 72
     1
 11
-15.2775
 21
123.01300000000001
 31
0.0
  0
TEXT
  5
13D
  8
____
 62
     7
 10
-25.412775
 20
123.01300000000001
 30
0.0
 40
3.0923400000000001
  1
65
 41
0.5
 72
     1
 11
-24.124300000000002
 21
123.01300000000001
 31
0.0
  0
TEXT
  5
13E
  8
____
 62
     7
 10
10.451599999999999
 20
96.107425000000006
 30
0.0
 40
3.0923400000000001
  1
77
 50
90.0
 41
0.5
 72
     1
 11
10.451599999999999
 21
97.395899999999983
 31
0.0
  0
TEXT
  5
13F
  8
____
 62
     7
 10
3.4123899999999998
 20
104.90752500000001
 30
0.0
 40
3.0923400000000001
  1
77
 50
90.0
 41
0.5
 72
     1
 11
3.4123899999999998
 21
106.196
 31
0.0
  0
TEXT
  5
140
  8
____
 62
     7
 10
-53.938499999999998
 20
102.44922
 30
0.0
 40
3.0923400000000001
  1
15
 50
90.0
 41
0.5
 72
     1
 11
-53.938499999999998
 21
103.48
 31
0.0
  0
TEXT
  5
141
  8
____
 62
     7
 10
-53.938499999999998
 20
107.1013725
 30
0.0
 40
3.0923400000000001
  1
30
 50
90.0
 41
0.5
 72
     1
 11
-53.938499999999998
 21
108.261
 31
0.0
  0
TEXT
  5
142
  8
____
 62
     7
 10
-60.643900000000002
 20
117.60021999999999
 30
0.0
 40
3.0923400000000001
  1
7
 50
90.0
 41
0.5
 72
     2
 11
-60.643900000000002
 21
118.631
 31
0.0
  0
TEXT
  5
143
  8
____
 62
     7
 10
-60.643900000000002
 20
103.807525
 30
0.0
 40
3.0923400000000001
  1
74
 50
90.0
 41
0.5
 72
     1
 11
-60.643900000000002
 21
105.096
 31
0.0
  0
TEXT
  5
144
  8
____
 62
     7
 10
90.333424999999991
 20
123.61
 30
0.0
 40
3.0923400000000001
  1
37
 41
0.5
 72
     1
 11
91.621899999999997
 21
123.61
 31
0.0
  0
TEXT
  5
145
  8
____
 62
     7
 10
71.417047999999994
 20
123.61
 30
0.0
 40
3.0923400000000001
  1
61～53
 41
0.5
 72
     1
 11
74.921700000000001
 21
123.61
 31
0.0
  0
TEXT
  5
146
  8
____
 62
     7
 10
80.588200499999985
 20
123.61
 30
0.0
 40
3.0923400000000001
  1
32～40
 41
0.5
 72
     1
 11
84.221699999999984
 21
123.61
 31
0.0
  0
TEXT
  5
147
  8
____
 62
     7
 10
-15.312474999999999
 20
130.339
 30
0.0
 40
3.0923400000000001
  1
36
 41
0.5
 72
     1
 11
-14.023999999999999
 21
130.339
 31
0.0
  0
TEXT
  5
148
  8
____
 62
     7
 10
-42.512574999999998
 20
130.16399999999999
 30
0.0
 40
3.0923400000000001
  1
36
 41
0.5
 72
     1
 11
-41.2241
 21
130.16399999999999
 31
0.0
  0
TEXT
  5
149
  8
____
 62
     7
 10
-29.170369999999998
 20
130.339
 30
0.0
 40
3.0923400000000001
  1
100
 41
0.5
 72
     1
 11
-27.624199999999998
 21
130.339
 31
0.0
  0
TEXT
  5
14A
  8
____
 62
     7
 10
-29.427865000000001
 20
137.066
 30
0.0
 40
3.0923400000000001
  1
172
 41
0.5
 72
     1
 11
-27.623999999999999
 21
137.066
 31
0.0
  0
TEXT
  5
14B
  8
____
 62
     7
 10
98.639440000000008
 20
80.430400000000006
 30
0.0
 40
3.0923400000000001
  1
17
 41
0.5
 72
     2
 11
100.70099999999999
 21
80.430400000000006
 31
0.0
  0
TEXT
  5
14C
  8
____
 62
     7
 10
84.159452999999999
 20
73.566999999999993
 30
0.0
 40
3.0923400000000001
  1
69～77
 41
0.5
 72
     1
 11
87.921800000000005
 21
73.566999999999993
 31
0.0
  0
TEXT
  5
14D
  8
____
 62
     7
 10
82.588100499999996
 20
80.570999999999998
 30
0.0
 40
3.0923400000000001
  1
52～60
 41
0.5
 72
     1
 11
86.221599999999995
 21
80.570999999999998
 31
0.0
  0
TEXT
  5
14E
  8
____
 62
     7
 10
-33.985895999999997
 20
92.522400000000005
 30
0.0
 40
3.0923400000000001
  1
湯側
 41
0.5
 72
     2
 11
-30.6874
 21
92.522400000000005
 31
0.0
  0
TEXT
  5
14F
  8
____
 62
     7
 10
-4.4621199999999988
 20
92.522400000000005
 30
0.0
 40
3.0923400000000001
  1
水側
 41
0.5
  0
TEXT
  5
150
  8
____
 62
     7
 10
61.240585999999993
 20
91.631200000000007
 30
0.0
 40
3.0923400000000001
  1
開
 41
0.5
 72
     2
 11
62.580599999999997
 21
91.631200000000007
 31
0.0
  0
TEXT
  5
151
  8
____
 62
     7
 10
71.929199999999994
 20
88.632499999999979
 30
0.0
 40
3.0923400000000001
  1
閉
 41
0.5
  0
TEXT
  5
152
  8
____
 62
     7
 10
55.960039999999999
 20
80.430400000000006
 30
0.0
 40
3.0923400000000001
  1
225
 41
0.5
 72
     1
 11
58.021599999999999
 21
80.430400000000006
 31
0.0
  0
TEXT
  5
153
  8
____
 62
     7
 10
-18.912475000000001
 20
78.774299999999997
 30
0.0
 40
3.0923400000000001
  1
65
 41
0.5
 72
     1
 11
-17.623999999999999
 21
78.774299999999997
 31
0.0
  0
TEXT
  5
154
  8
____
 62
     7
 10
-44.585880000000003
 20
144.54599999999999
 30
0.0
 40
3.0923400000000001
  1
15
 41
0.5
 72
     1
 11
-43.555100000000003
 21
144.54599999999999
 31
0.0
  0
TEXT
  5
155
  8
____
 62
     7
 10
-25.499017500000001
 20
144.30099999999999
 30
0.0
 40
3.0923400000000001
  1
180
 41
0.5
 72
     1
 11
-23.824000000000002
 21
144.30099999999999
 31
0.0
  0
ARC
  5
156
  8
_________1
 62
     7
 10
-37.632007999999999
 20
107.276566
 30
0.0
 40
4.9793560000000001
 50
239.97055800000001
 51
246.42715000000001
  0
ARC
  5
157
  8
_________1
 62
     7
 10
-37.646771999999999
 20
107.33847299999999
 30
0.0
 40
5.0484049999999998
 50
293.62177400000002
 51
299.98120699999998
  0
LINE
  5
158
  8
_________1
 62
     7
 10
37.521500000000003
 20
102.096
 30
0.0
 11
33.521299999999997
 21
102.096
 31
0.0
  0
LINE
  5
159
  8
_________1
 62
     7
 10
33.521299999999997
 20
102.096
 30
0.0
 11
33.521299999999997
 21
103.096
 31
0.0
  0
LINE
  5
15A
  8
_________1
 62
     7
 10
33.521299999999997
 20
103.096
 30
0.0
 11
37.521500000000003
 21
103.096
 31
0.0
  0
LINE
  5
15B
  8
_________1
 62
     7
 10
37.521500000000003
 20
103.096
 30
0.0
 11
37.521500000000003
 21
102.096
 31
0.0
  0
LINE
  5
15C
  8
_________1
 62
     7
 10
-35.624099999999999
 20
102.096
 30
0.0
 11
-39.624200000000002
 21
102.096
 31
0.0
  0
LINE
  5
15D
  8
_________1
 62
     7
 10
-39.624200000000002
 20
102.096
 30
0.0
 11
-39.624200000000002
 21
103.096
 31
0.0
  0
LINE
  5
15E
  8
_________1
 62
     7
 10
-39.624200000000002
 20
103.096
 30
0.0
 11
-35.624099999999999
 21
103.096
 31
0.0
  0
LINE
  5
15F
  8
_________1
 62
     7
 10
-35.624099999999999
 20
103.096
 30
0.0
 11
-35.624099999999999
 21
102.096
 31
0.0
  0
LINE
  5
160
  8
_________1
 62
     7
 10
-26.344000000000001
 20
243.49700000000001
 30
0.0
 11
-26.887599999999999
 21
241.273
 31
0.0
  0
LINE
  5
161
  8
_________1
 62
     7
 10
-26.887599999999999
 20
241.273
 30
0.0
 11
-25.3049
 21
242.92699999999999
 31
0.0
  0
LINE
  5
162
  8
_________1
 62
     7
 10
-25.3049
 20
242.92699999999999
 30
0.0
 11
-26.344000000000001
 21
243.49700000000001
 31
0.0
  0
LINE
  5
163
  8
_________1
 62
     7
 10
-21.863399999999999
 20
250.44999999999999
 30
0.0
 11
-26.894100000000002
 21
241.27699999999999
 31
0.0
  0
LINE
  5
164
  8
_________1
 62
     7
 10
-21.863399999999999
 20
250.44999999999999
 30
0.0
 11
-6.6432199999999986
 21
250.44999999999999
 31
0.0
  0
LINE
  5
165
  8
_________1
 62
     7
 10
-32.720700000000001
 20
207.19200000000001
 30
0.0
 11
-35.000999999999998
 21
207.39599999999999
 31
0.0
  0
LINE
  5
166
  8
_________1
 62
     7
 10
-35.000999999999998
 20
207.39599999999999
 30
0.0
 11
-33.128599999999999
 21
206.07900000000001
 31
0.0
  0
LINE
  5
167
  8
_________1
 62
     7
 10
-33.128599999999999
 20
206.07900000000001
 30
0.0
 11
-32.720700000000001
 21
207.19200000000001
 31
0.0
  0
LINE
  5
168
  8
_________1
 62
     7
 10
-14.633100000000001
 20
199.93899999999999
 30
0.0
 11
-34.997599999999998
 21
207.40299999999999
 31
0.0
  0
LINE
  5
169
  8
_________1
 62
     7
 10
-18.630500000000001
 20
213.762
 30
0.0
 11
-19.892800000000001
 21
215.673
 31
0.0
  0
LINE
  5
16A
  8
_________1
 62
     7
 10
-19.892800000000001
 20
215.673
 30
0.0
 11
-19.7546
 21
213.387
 31
0.0
  0
LINE
  5
16B
  8
_________1
 62
     7
 10
-19.7546
 20
213.387
 30
0.0
 11
-18.630500000000001
 21
213.762
 31
0.0
  0
LINE
  5
16C
  8
_________1
 62
     7
 10
-14.633100000000001
 20
199.93899999999999
 30
0.0
 11
-19.8856
 21
215.67400000000001
 31
0.0
  0
LINE
  5
16D
  8
_________1
 62
     7
 10
-14.633100000000001
 20
199.93899999999999
 30
0.0
 11
1.6371199999999999
 21
199.93899999999999
 31
0.0
  0
ARC
  5
16E
  8
_________1
  6
AIGENLINE001
 62
     7
 10
-30.624423
 20
101.896147
 30
0.0
 40
0.9001229999999999
 50
270.00550199999998
 51
0.005472
  0
ARC
  5
16F
  8
_________1
  6
AIGENLINE001
 62
     7
 10
-30.62425
 20
101.896147
 30
0.0
 40
0.9001229999999999
 50
179.99448799999999
 51
269.99453799999998
  0
LINE
  5
170
  8
_________1
  6
AIGENLINE001
 62
     7
 10
-31.5244
 20
101.896
 30
0.0
 11
-31.5244
 21
102.29600000000001
 31
0.0
  0
ARC
  5
171
  8
_________1
  6
AIGENLINE001
 62
     7
 10
-30.590281999999998
 20
102.261979
 30
0.0
 40
0.9347179999999999
 50
92.08787199999999
 51
177.90113099999999
  0
ARC
  5
172
  8
_________1
  6
AIGENLINE001
 62
     7
 10
-30.658940000000001
 20
102.26142900000001
 30
0.0
 40
0.9352870000000001
 50
2.1312570000000002
 51
87.879699999999985
  0
LINE
  5
173
  8
_________1
  6
AIGENLINE001
 62
     7
 10
-29.724299999999999
 20
102.29600000000001
 30
0.0
 11
-29.724299999999999
 21
101.896
 31
0.0
  0
LINE
  5
174
  8
_________1
  6
AIGENLINE002
 62
     7
 10
-30.624300000000002
 20
100.56699999999999
 30
0.0
 11
-30.624300000000002
 21
103.70699999999999
 31
0.0
  0
LINE
  5
175
  8
_________1
  6
AIGENLINE002
 62
     7
 10
-29.224900000000002
 20
102.096
 30
0.0
 11
-32.011899999999997
 21
102.096
 31
0.0
  0
ARC
  5
176
  8
_________1
  6
AIGENLINE001
 62
     7
 10
-12.932207
 20
110.95446699999999
 30
0.0
 40
0.935683
 50
317.15339899999998
 51
42.877612999999997
  0
ARC
  5
177
  8
_________1
  6
AIGENLINE001
 62
     7
 10
-12.882657999999999
 20
111.004114
 30
0.0
 40
0.9357459999999999
 50
227.11157700000001
 51
312.857438
  0
LINE
  5
178
  8
_________1
  6
AIGENLINE001
 62
     7
 10
-13.519500000000001
 20
110.319
 30
0.0
 11
-13.802300000000001
 21
110.601
 31
0.0
  0
ARC
  5
179
  8
_________1
  6
AIGENLINE001
 62
     7
 10
-13.117538
 20
111.237483
 30
0.0
 40
0.934676
 50
137.079486
 51
222.88949299999999
  0
ARC
  5
17A
  8
_________1
  6
AIGENLINE001
 62
     7
 10
-13.165687999999999
 20
111.237669
 30
0.0
 40
0.8998829999999999
 50
45.000005000000009
 51
134.99997500000001
  0
LINE
  5
17B
  8
_________1
  6
AIGENLINE001
 62
     7
 10
-12.529400000000001
 20
111.874
 30
0.0
 11
-12.246499999999999
 21
111.59099999999999
 31
0.0
  0
LINE
  5
17C
  8
_________1
  6
AIGENLINE002
 62
     7
 10
-11.9434
 20
110.015
 30
0.0
 11
-14.163399999999999
 21
112.235
 31
0.0
  0
LINE
  5
17D
  8
_________1
  6
AIGENLINE002
 62
     7
 10
-12.034700000000001
 20
112.086
 30
0.0
 11
-14.0053
 21
110.11499999999999
 31
0.0
  0
ARC
  5
17E
  8
_________1
  6
AIGENLINE001
 62
     7
 10
-30.459143000000001
 20
111.06145100000001
 30
0.0
 40
0.9354729999999999
 50
2.1210840000000002
 51
87.878906000000001
  0
ARC
  5
17F
  8
_________1
  6
AIGENLINE001
 62
     7
 10
-30.458798999999999
 20
111.130712
 30
0.0
 40
0.9351299999999998
 50
272.10080399999998
 51
357.877275
  0
LINE
  5
180
  8
_________1
  6
AIGENLINE001
 62
     7
 10
-30.424499999999998
 20
110.196
 30
0.0
 11
-30.8245
 21
110.196
 31
0.0
  0
ARC
  5
181
  8
_________1
  6
AIGENLINE001
 62
     7
 10
-30.789885000000002
 20
111.13068699999999
 30
0.0
 40
0.9351179999999999
 50
182.12128000000001
 51
267.87875000000003
  0
ARC
  5
182
  8
_________1
  6
AIGENLINE001
 62
     7
 10
-30.789937999999999
 20
111.06187300000001
 30
0.0
 40
0.9350500000000001
 50
92.118117000000012
 51
177.903785
  0
LINE
  5
183
  8
_________1
  6
AIGENLINE001
 62
     7
 10
-30.8245
 20
111.996
 30
0.0
 11
-30.424499999999998
 21
111.996
 31
0.0
  0
LINE
  5
184
  8
_________1
  6
AIGENLINE002
 62
     7
 10
-29.095700000000001
 20
111.096
 30
0.0
 11
-32.235599999999998
 21
111.096
 31
0.0
  0
LINE
  5
185
  8
_________1
  6
AIGENLINE002
 62
     7
 10
-30.624300000000002
 20
112.495
 30
0.0
 11
-30.624300000000002
 21
109.709
 31
0.0
  0
LINE
  5
186
  8
_________1
  6
AIGENLINE003
 62
     7
 10
80.521699999999996
 20
79.030299999999997
 30
0.0
 11
80.521699999999996
 21
64.253799999999998
 31
0.0
  0
LINE
  5
187
  8
_________1
 62
     7
 10
76.998000000000005
 20
71.227500000000006
 30
0.0
 11
80.521699999999996
 21
69.192800000000005
 31
0.0
  0
LINE
  5
188
  8
_________1
 62
     7
 10
80.521699999999996
 20
69.192800000000005
 30
0.0
 11
76.998000000000005
 21
67.158799999999999
 31
0.0
  0
LINE
  5
189
  8
_________1
 62
     7
 10
76.998000000000005
 20
67.158799999999999
 30
0.0
 11
76.998000000000005
 21
71.227500000000006
 31
0.0
  0
LINE
  5
18A
  8
_________1
 62
     7
 10
-1.73892
 20
223.34899999999999
 30
0.0
 11
0.295763
 21
226.87299999999999
 31
0.0
  0
LINE
  5
18B
  8
_________1
 62
     7
 10
0.295763
 20
226.87299999999999
 30
0.0
 11
2.3297599999999989
 21
223.34899999999999
 31
0.0
  0
LINE
  5
18C
  8
_________1
 62
     7
 10
2.3297599999999989
 20
223.34899999999999
 30
0.0
 11
-1.73892
 21
223.34899999999999
 31
0.0
  0
INSERT
  5
18D
  8
_________1
 62
     7
  2
AIGNBL02010002
 10
0.0
 20
0.0
 30
0.0
  0
LINE
  5
18E
  8
_________1
 62
     7
 10
69.321600000000004
 20
123.47
 30
0.0
 11
69.321600000000004
 21
109.762
 31
0.0
  0
LINE
  5
18F
  8
_________1
 62
     7
 10
71.533699999999996
 20
123.369
 30
0.0
 11
69.322599999999994
 21
122.777
 31
0.0
  0
LINE
  5
190
  8
_________1
 62
     7
 10
69.322599999999994
 20
122.777
 30
0.0
 11
71.533699999999996
 21
122.184
 31
0.0
  0
LINE
  5
191
  8
_________1
 62
     7
 10
71.533699999999996
 20
122.184
 30
0.0
 11
71.533699999999996
 21
123.369
 31
0.0
  0
LINE
  5
192
  8
_________1
 62
     7
 10
80.521699999999996
 20
123.47
 30
0.0
 11
80.521699999999996
 21
113.196
 31
0.0
  0
INSERT
  5
193
  8
_________1
 62
     7
  2
AIGNBL02010003
 10
0.0
 20
0.0
 30
0.0
  0
LINE
  5
194
  8
_________1
 62
     7
 10
95.321899999999985
 20
123.47
 30
0.0
 11
95.321899999999985
 21
113.566
 31
0.0
  0
LINE
  5
195
  8
_________1
 62
     7
 10
87.9221
 20
123.47
 30
0.0
 11
87.9221
 21
113.896
 31
0.0
  0
INSERT
  5
196
  8
_________1
 62
     7
  2
AIGNBL02010004
 10
0.0
 20
0.0
 30
0.0
  0
LINE
  5
197
  8
_________1
 62
     7
 10
108.578
 20
113.896
 30
0.0
 11
95.797300000000007
 21
113.896
 31
0.0
  0
LINE
  5
198
  8
_________1
 62
     7
 10
108.578
 20
98.495900000000006
 30
0.0
 11
95.671899999999994
 21
98.495900000000006
 31
0.0
  0
INSERT
  5
199
  8
_________1
 62
     7
  2
AIGNBL02010005
 10
0.0
 20
0.0
 30
0.0
  0
LINE
  5
19A
  8
_________1
 62
     7
 10
95.321899999999985
 20
104.096
 30
0.0
 11
94.921599999999998
 21
104.096
 31
0.0
  0
LINE
  5
19B
  8
_________1
 62
     7
 10
95.321899999999985
 20
100.096
 30
0.0
 11
94.921599999999998
 21
100.096
 31
0.0
  0
LINE
  5
19C
  8
_________1
  6
AIGENLINE002
 62
     7
 10
96.718599999999995
 20
102.096
 30
0.0
 11
93.324100000000016
 21
102.096
 31
0.0
  0
LINE
  5
19D
  8
_________1
 62
     7
 10
95.321899999999985
 20
100.096
 30
0.0
 11
95.321899999999985
 21
104.096
 31
0.0
  0
LINE
  5
19E
  8
_________1
 62
     7
 10
95.321899999999985
 20
113.096
 30
0.0
 11
94.921599999999998
 21
113.096
 31
0.0
  0
LINE
  5
19F
  8
_________1
 62
     7
 10
95.321899999999985
 20
109.096
 30
0.0
 11
94.921599999999998
 21
109.096
 31
0.0
  0
LINE
  5
1A0
  8
_________1
  6
AIGENLINE002
 62
     7
 10
96.718599999999995
 20
111.096
 30
0.0
 11
93.324100000000016
 21
111.096
 31
0.0
  0
LINE
  5
1A1
  8
_________1
 62
     7
 10
102.91500000000001
 20
105.096
 30
0.0
 11
90.872200000000007
 21
105.096
 31
0.0
  0
LINE
  5
1A2
  8
_________1
 62
     7
 10
102.91500000000001
 20
96.695800000000006
 30
0.0
 11
95.671899999999994
 21
96.695800000000006
 31
0.0
  0
INSERT
  5
1A3
  8
_________1
 62
     7
  2
AIGNBL02010006
 10
0.0
 20
0.0
 30
0.0
  0
LINE
  5
1A4
  8
_________1
 62
     7
 10
95.321899999999985
 20
72.026399999999995
 30
0.0
 11
95.321899999999985
 21
99.531800000000004
 31
0.0
  0
LINE
  5
1A5
  8
_________1
 62
     7
 10
91.921899999999994
 20
79.030299999999997
 30
0.0
 11
91.921899999999994
 21
95.147199999999998
 31
0.0
  0
INSERT
  5
1A6
  8
_________1
 62
     7
  2
AIGNBL02010007
 10
0.0
 20
0.0
 30
0.0
  0
LINE
  5
1A7
  8
_________1
 62
     7
 10
35.5212
 20
79.030299999999997
 30
0.0
 11
35.5212
 21
101.133
 31
0.0
  0
LINE
  5
1A8
  8
_________1
 62
     7
 10
80.521699999999996
 20
79.030299999999997
 30
0.0
 11
80.521699999999996
 21
96.995900000000006
 31
0.0
  0
LINE
  5
1A9
  8
_________1
  6
AIGENLINE003
 62
     7
 10
64.569100000000006
 20
91.533999999999992
 30
0.0
 11
63.481499999999997
 21
92.0411
 31
0.0
  0
ARC
  5
1AA
  8
_________1
  6
AIGENLINE003
 62
     7
 10
63.576678999999999
 20
92.226392000000004
 30
0.0
 40
0.208302
 50
157.205544
 51
242.796415
  0
ARC
  5
1AB
  8
_________1
  6
AIGENLINE003
 62
     7
 10
64.649737000000002
 20
91.725161999999997
 30
0.0
 40
0.207474
 50
247.1217740000001
 51
333.05911200000003
  0
LINE
  5
1AC
  8
_________1
  6
AIGENLINE003
 62
     7
 10
71.638099999999994
 20
109.533
 30
0.0
 11
72.906899999999993
 21
108.941
 31
0.0
  0
LINE
  5
1AD
  8
_________1
  6
AIGENLINE003
 62
     7
 10
71.372100000000003
 20
109.43600000000001
 30
0.0
 11
63.384599999999999
 21
92.307100000000005
 31
0.0
  0
ARC
  5
1AE
  8
_________1
  6
AIGENLINE003
 62
     7
 10
71.557316
 20
109.34125400000001
 30
0.0
 40
0.208097
 50
67.153250999999997
 51
152.8486879999999
  0
LINE
  5
1AF
  8
_________1
  6
AIGENLINE003
 62
     7
 10
72.906899999999993
 20
108.941
 30
0.0
 11
64.834699999999998
 21
91.631200000000007
 31
0.0
  0
LINE
  5
1B0
  8
_________1
 62
     7
 10
89.222000000000008
 20
98.495900000000006
 30
0.0
 11
89.222000000000008
 21
96.695800000000006
 31
0.0
  0
LINE
  5
1B1
  8
_________1
 62
     7
 10
94.621899999999997
 20
98.495900000000006
 30
0.0
 11
94.621899999999997
 21
96.695800000000006
 31
0.0
  0
LINE
  5
1B2
  8
_________1
  6
AIGENLINE002
 62
     7
 10
91.921899999999994
 20
100.473
 30
0.0
 11
91.921899999999994
 21
95.847300000000004
 31
0.0
  0
LINE
  5
1B3
  8
_________1
 62
     7
 10
89.222000000000008
 20
96.695800000000006
 30
0.0
 11
94.621899999999997
 21
96.695800000000006
 31
0.0
  0
LINE
  5
1B4
  8
_________1
 62
     7
 10
37.181399999999996
 20
103.096
 30
0.0
 11
33.6616
 21
103.096
 31
0.0
  0
LINE
  5
1B5
  8
_________1
  6
AIGENLINE002
 62
     7
 10
35.521599999999999
 20
104.458
 30
0.0
 11
35.521599999999999
 21
101.834
 31
0.0
  0
LINE
  5
1B6
  8
_________1
 62
     7
 10
32.521599999999999
 20
106.896
 30
0.0
 11
32.521599999999999
 21
103.292
 31
0.0
  0
LINE
  5
1B7
  8
_________1
 62
     7
 10
37.521500000000003
 20
102.89400000000001
 30
0.0
 11
69.321600000000004
 21
102.479
 31
0.0
  0
LINE
  5
1B8
  8
_________1
 62
     7
 10
32.716900000000003
 20
103.092
 30
0.0
 11
33.6616
 21
103.096
 31
0.0
  0
ARC
  5
1B9
  8
_________1
 62
     7
 10
32.728957000000001
 20
103.29886399999999
 30
0.0
 40
0.207525
 50
182.031835
 51
266.66947900000002
  0
LINE
  5
1BA
  8
_________1
 62
     7
 10
32.721400000000003
 20
107.096
 30
0.0
 11
69.322000000000003
 21
107.096
 31
0.0
  0
ARC
  5
1BB
  8
_________1
 62
     7
 10
32.729443000000003
 20
106.888081
 30
0.0
 40
0.208024
 50
92.221661999999995
 51
177.87700899999999
  0
LINE
  5
1BC
  8
_________1
 62
     7
 10
70.921899999999994
 20
89.895899999999983
 30
0.0
 11
69.321600000000004
 21
89.895899999999983
 31
0.0
  0
LINE
  5
1BD
  8
_________1
 62
     7
 10
69.521799999999999
 20
108.996
 30
0.0
 11
69.521799999999999
 21
89.695700000000002
 31
0.0
  0
LINE
  5
1BE
  8
_________1
 62
     7
 10
69.521799999999999
 20
100.79600000000001
 30
0.0
 11
70.921899999999994
 21
100.79600000000001
 31
0.0
  0
LINE
  5
1BF
  8
_________1
 62
     7
 10
69.521799999999999
 20
101.196
 30
0.0
 11
70.921899999999994
 21
101.196
 31
0.0
  0
LINE
  5
1C0
  8
_________1
 62
     7
 10
69.321600000000004
 20
89.895899999999983
 30
0.0
 11
69.321600000000004
 21
101.396
 31
0.0
  0
LINE
  5
1C1
  8
_________1
 62
     7
 10
70.721699999999984
 20
89.695700000000002
 30
0.0
 11
69.521799999999999
 21
89.695700000000002
 31
0.0
  0
ARC
  5
1C2
  8
_________1
 62
     7
 10
69.529763000000003
 20
89.903484000000006
 30
0.0
 40
0.207942
 50
182.1020959999999
 51
267.79923300000002
  0
LINE
  5
1C3
  8
_________1
 62
     7
 10
70.921899999999994
 20
89.895899999999983
 30
0.0
 11
70.921899999999994
 21
101.196
 31
0.0
  0
ARC
  5
1C4
  8
_________1
 62
     7
 10
70.714060000000003
 20
89.903507999999988
 30
0.0
 40
0.207954
 50
272.10869300000002
 51
357.89131700000002
  0
LINE
  5
1C5
  8
_________1
 62
     7
 10
79.457800000000006
 20
97.695899999999995
 30
0.0
 11
80.521699999999996
 21
97.695899999999995
 31
0.0
  0
ARC
  5
1C6
  8
_________1
 62
     7
 10
79.464959999999991
 20
97.903704000000005
 30
0.0
 40
0.207879
 50
186.379772
 51
268.03729499999997
  0
LINE
  5
1C7
  8
_________1
 62
     7
 10
79.457800000000006
 20
112.496
 30
0.0
 11
80.521699999999996
 21
112.496
 31
0.0
  0
ARC
  5
1C8
  8
_________1
 62
     7
 10
79.464167000000003
 20
112.289269
 30
0.0
 40
0.206997
 50
91.751437999999993
 51
173.83149599999999
  0
ARC
  5
1C9
  8
_________1
 62
     7
 10
156.566058
 20
105.096058
 30
0.0
 40
77.643900000000002
 50
174.66880699999999
 51
185.33119300000001
  0
LINE
  5
1CA
  8
_________1
 62
     7
 10
-11.023999999999999
 20
226.87299999999999
 30
0.0
 11
-11.023999999999999
 21
227.07300000000001
 31
0.0
  0
LINE
  5
1CB
  8
_________1
 62
     7
 10
-24.224
 20
227.07300000000001
 30
0.0
 11
-24.224
 21
226.87299999999999
 31
0.0
  0
LINE
  5
1CC
  8
_________1
 62
     7
 10
-24.224
 20
227.07300000000001
 30
0.0
 11
-11.023999999999999
 21
227.07300000000001
 31
0.0
  0
LINE
  5
1CD
  8
_________1
 62
     7
 10
80.721900000000005
 20
111.696
 30
0.0
 11
80.721900000000005
 21
98.495900000000006
 31
0.0
  0
LINE
  5
1CE
  8
_________1
 62
     7
 10
80.721900000000005
 20
111.696
 30
0.0
 11
80.521699999999996
 21
111.696
 31
0.0
  0
LINE
  5
1CF
  8
_________1
 62
     7
 10
80.721900000000005
 20
98.495900000000006
 30
0.0
 11
80.521699999999996
 21
98.495900000000006
 31
0.0
  0
LINE
  5
1D0
  8
_________1
 62
     7
 10
-31.024000000000001
 20
226.87299999999999
 30
0.0
 11
-31.024000000000001
 21
227.07300000000001
 31
0.0
  0
LINE
  5
1D1
  8
_________1
 62
     7
 10
-44.224299999999999
 20
227.07300000000001
 30
0.0
 11
-44.224299999999999
 21
226.87299999999999
 31
0.0
  0
LINE
  5
1D2
  8
_________1
 62
     7
 10
-44.224299999999999
 20
227.07300000000001
 30
0.0
 11
-31.024000000000001
 21
227.07300000000001
 31
0.0
  0
LINE
  5
1D3
  8
_________1
 62
     7
 10
-35.7241
 20
230.07300000000001
 30
0.0
 11
-39.524099999999997
 21
230.07300000000001
 31
0.0
  0
LINE
  5
1D4
  8
_________1
 62
     7
 10
80.721900000000005
 20
100.196
 30
0.0
 11
87.921800000000005
 21
100.196
 31
0.0
  0
LINE
  5
1D5
  8
_________1
 62
     7
 10
80.721900000000005
 20
109.996
 30
0.0
 11
87.921800000000005
 21
109.996
 31
0.0
  0
LINE
  5
1D6
  8
_________1
  6
AIGENLINE002
 62
     7
 10
31.2441
 20
105.096
 30
0.0
 11
89.423199999999994
 21
105.096
 31
0.0
  0
LINE
  5
1D7
  8
_________1
 62
     7
 10
70.921899999999994
 20
101.396
 30
0.0
 11
71.221900000000005
 21
101.396
 31
0.0
  0
LINE
  5
1D8
  8
_________1
 62
     7
 10
70.921899999999994
 20
108.79600000000001
 30
0.0
 11
71.221900000000005
 21
108.79600000000001
 31
0.0
  0
LINE
  5
1D9
  8
_________1
 62
     7
 10
69.521799999999999
 20
108.996
 30
0.0
 11
70.921899999999994
 21
108.996
 31
0.0
  0
LINE
  5
1DA
  8
_________1
 62
     7
 10
69.321600000000004
 20
108.79600000000001
 30
0.0
 11
69.321600000000004
 21
101.396
 31
0.0
  0
ARC
  5
1DB
  8
_________1
 62
     7
 10
69.529805999999994
 20
108.78808600000001
 30
0.0
 40
0.208
 50
92.212011000000004
 51
177.78796
  0
LINE
  5
1DC
  8
_________1
 62
     7
 10
70.921899999999994
 20
108.996
 30
0.0
 11
70.921899999999994
 21
101.196
 31
0.0
  0
LINE
  5
1DD
  8
_________1
 62
     7
 10
79.030299999999997
 20
109.196
 30
0.0
 11
71.221900000000005
 21
109.196
 31
0.0
  0
LINE
  5
1DE
  8
_________1
 62
     7
 10
79.030299999999997
 20
100.996
 30
0.0
 11
71.221900000000005
 21
100.996
 31
0.0
  0
LINE
  5
1DF
  8
_________1
 62
     7
 10
71.221900000000005
 20
109.196
 30
0.0
 11
71.221900000000005
 21
100.996
 31
0.0
  0
LINE
  5
1E0
  8
_________1
 62
     7
 10
80.521699999999996
 20
112.496
 30
0.0
 11
80.521699999999996
 21
97.695899999999995
 31
0.0
  0
INSERT
  5
1E1
  8
_________1
 62
     7
  2
AIGNBL02010008
 10
0.0
 20
0.0
 30
0.0
  0
LINE
  5
1E2
  8
_________1
 62
     7
 10
-53.957099999999997
 20
178.87200000000001
 30
0.0
 11
-40.709200000000003
 21
178.87200000000001
 31
0.0
  0
LINE
  5
1E3
  8
_________1
 62
     7
 10
-53.957099999999997
 20
226.87299999999999
 30
0.0
 11
-45.524099999999997
 21
226.87299999999999
 31
0.0
  0
LINE
  5
1E4
  8
_________1
 62
     7
 10
-39.824199999999998
 20
234.273
 30
0.0
 11
-39.824199999999998
 21
241.273
 31
0.0
  0
LINE
  5
1E5
  8
_________1
 62
     7
 10
-35.7241
 20
230.07300000000001
 30
0.0
 11
-35.524000000000001
 21
230.273
 31
0.0
  0
LINE
  5
1E6
  8
_________1
 62
     7
 10
-35.7241
 20
232.273
 30
0.0
 11
-35.7241
 21
230.07300000000001
 31
0.0
  0
LINE
  5
1E7
  8
_________1
 62
     7
 10
-39.524099999999997
 20
230.07300000000001
 30
0.0
 11
-39.724299999999999
 21
230.273
 31
0.0
  0
LINE
  5
1E8
  8
_________1
 62
     7
 10
-39.524099999999997
 20
232.273
 30
0.0
 11
-39.524099999999997
 21
230.07300000000001
 31
0.0
  0
LINE
  5
1E9
  8
_________1
 62
     7
 10
-39.424199999999999
 20
227.07300000000001
 30
0.0
 11
-39.424199999999999
 21
230.07300000000001
 31
0.0
  0
LINE
  5
1EA
  8
_________1
 62
     7
 10
-35.824100000000001
 20
227.07300000000001
 30
0.0
 11
-35.824100000000001
 21
230.07300000000001
 31
0.0
  0
LINE
  5
1EB
  8
_________1
 62
     7
 10
-35.524000000000001
 20
232.273
 30
0.0
 11
-35.524000000000001
 21
230.273
 31
0.0
  0
LINE
  5
1EC
  8
_________1
 62
     7
 10
-39.724299999999999
 20
232.273
 30
0.0
 11
-39.724299999999999
 21
230.273
 31
0.0
  0
LINE
  5
1ED
  8
_________1
 62
     7
 10
-35.524000000000001
 20
230.273
 30
0.0
 11
-39.724299999999999
 21
230.273
 31
0.0
  0
LINE
  5
1EE
  8
_________1
 62
     7
 10
-41.624299999999991
 20
234.273
 30
0.0
 11
-41.02409999999999
 21
234.273
 31
0.0
  0
LINE
  5
1EF
  8
_________1
 62
     7
 10
95.321899999999985
 20
109.096
 30
0.0
 11
95.321899999999985
 21
113.096
 31
0.0
  0
LINE
  5
1F0
  8
_________1
 62
     7
 10
94.121600000000001
 20
98.495900000000006
 30
0.0
 11
94.121600000000001
 21
113.896
 31
0.0
  0
LINE
  5
1F1
  8
_________1
 62
     7
 10
88.721800000000002
 20
98.495900000000006
 30
0.0
 11
88.721800000000002
 21
113.89700000000001
 31
0.0
  0
LINE
  5
1F2
  8
_________1
 62
     7
 10
87.921800000000005
 20
100.496
 30
0.0
 11
94.921599999999998
 21
100.496
 31
0.0
  0
LINE
  5
1F3
  8
_________1
 62
     7
 10
87.921800000000005
 20
99.295900000000003
 30
0.0
 11
87.921800000000005
 21
113.096
 31
0.0
  0
LINE
  5
1F4
  8
_________1
 62
     7
 10
88.721800000000002
 20
113.896
 30
0.0
 11
94.121600000000001
 21
113.896
 31
0.0
  0
ARC
  5
1F5
  8
_________1
 62
     7
 10
88.752356000000006
 20
113.065714
 30
0.0
 40
0.8311149999999999
 50
92.109700000000004
 51
177.89027100000001
  0
ARC
  5
1F6
  8
_________1
 62
     7
 10
94.091051000000007
 20
113.06572300000001
 30
0.0
 40
0.8311049999999999
 50
2.109065999999999
 51
87.890924999999996
  0
LINE
  5
1F7
  8
_________1
 62
     7
 10
88.721800000000002
 20
98.495900000000006
 30
0.0
 11
94.121600000000001
 21
98.495900000000006
 31
0.0
  0
ARC
  5
1F8
  8
_________1
 62
     7
 10
88.752356000000006
 20
99.32645500000001
 30
0.0
 40
0.8311149999999999
 50
182.10972899999999
 51
267.89030000000002
  0
LINE
  5
1F9
  8
_________1
 62
     7
 10
94.921599999999998
 20
99.295900000000003
 30
0.0
 11
94.921599999999998
 21
113.096
 31
0.0
  0
ARC
  5
1FA
  8
_________1
 62
     7
 10
94.091051000000007
 20
99.326445000000007
 30
0.0
 40
0.8311049999999999
 50
272.10907500000002
 51
357.89093400000002
  0
LINE
  5
1FB
  8
_________1
 62
     7
 10
89.922000000000025
 20
98.495900000000006
 30
0.0
 11
89.922000000000025
 21
113.896
 31
0.0
  0
LINE
  5
1FC
  8
_________1
 62
     7
 10
-10.8239
 20
241.673
 30
0.0
 11
-14.824
 21
241.673
 31
0.0
  0
LINE
  5
1FD
  8
_________1
 62
     7
 10
-28.4239
 20
241.673
 30
0.0
 11
-32.424100000000003
 21
241.673
 31
0.0
  0
LINE
  5
1FE
  8
_________1
 62
     7
 10
-33.624000000000002
 20
232.273
 30
0.0
 11
-41.624299999999991
 21
232.273
 31
0.0
  0
LINE
  5
1FF
  8
_________1
 62
     7
 10
-33.624000000000002
 20
232.273
 30
0.0
 11
-33.624000000000002
 21
234.273
 31
0.0
  0
LINE
  5
200
  8
_________1
 62
     7
 10
-41.624299999999991
 20
232.273
 30
0.0
 11
-41.624299999999991
 21
234.273
 31
0.0
  0
LINE
  5
201
  8
_________1
 62
     7
 10
-22.5242
 20
227.07300000000001
 30
0.0
 11
-22.5242
 21
234.273
 31
0.0
  0
LINE
  5
202
  8
_________1
 62
     7
 10
-12.7239
 20
227.07300000000001
 30
0.0
 11
-12.7239
 21
234.273
 31
0.0
  0
LINE
  5
203
  8
_________1
 62
     7
 10
-41.824099999999987
 20
235.07300000000001
 30
0.0
 11
-41.824099999999987
 21
240.47300000000001
 31
0.0
  0
ARC
  5
204
  8
_________1
 62
     7
 10
-40.993516
 20
235.10334900000001
 30
0.0
 40
0.8311149999999999
 50
182.10972899999999
 51
267.89030000000002
  0
ARC
  5
205
  8
_________1
 62
     7
 10
-40.993526000000003
 20
240.442216
 30
0.0
 40
0.8311049999999999
 50
92.109037999999998
 51
177.89093199999999
  0
LINE
  5
206
  8
_________1
 62
     7
 10
-5.8239700000000001
 20
240.47300000000001
 30
0.0
 11
-41.824099999999987
 21
240.47300000000001
 31
0.0
  0
LINE
  5
207
  8
_________1
 62
     7
 10
-5.8239700000000001
 20
235.07300000000001
 30
0.0
 11
-41.82439999999999
 21
235.07300000000001
 31
0.0
  0
LINE
  5
208
  8
_________1
 62
     7
 10
-7.8238599999999998
 20
234.273
 30
0.0
 11
-7.8238599999999998
 21
241.273
 31
0.0
  0
LINE
  5
209
  8
_________1
 62
     7
 10
-32.424100000000003
 20
241.273
 30
0.0
 11
-32.424100000000003
 21
241.673
 31
0.0
  0
LINE
  5
20A
  8
_________1
  6
AIGENLINE002
 62
     7
 10
-30.424199999999999
 20
240.511
 30
0.0
 11
-30.424199999999999
 21
242.77799999999999
 31
0.0
  0
LINE
  5
20B
  8
_________1
 62
     7
 10
-28.4239
 20
241.273
 30
0.0
 11
-28.4239
 21
241.673
 31
0.0
  0
LINE
  5
20C
  8
_________1
 62
     7
 10
-14.824
 20
241.273
 30
0.0
 11
-14.824
 21
241.673
 31
0.0
  0
LINE
  5
20D
  8
_________1
  6
AIGENLINE002
 62
     7
 10
-12.8238
 20
240.511
 30
0.0
 11
-12.8238
 21
242.77799999999999
 31
0.0
  0
LINE
  5
20E
  8
_________1
 62
     7
 10
-10.8239
 20
241.273
 30
0.0
 11
-10.8239
 21
241.673
 31
0.0
  0
LINE
  5
20F
  8
_________1
 62
     7
 10
-6.6239299999999997
 20
234.273
 30
0.0
 11
-41.02409999999999
 21
234.273
 31
0.0
  0
LINE
  5
210
  8
_________1
 62
     7
 10
-5.8239700000000001
 20
235.07300000000001
 30
0.0
 11
-5.8239700000000001
 21
240.47300000000001
 31
0.0
  0
ARC
  5
211
  8
_________1
 62
     7
 10
-6.6545129999999997
 20
235.10334
 30
0.0
 40
0.8311049999999999
 50
272.10907500000002
 51
357.89093400000002
  0
LINE
  5
212
  8
_________1
 62
     7
 10
-6.6239299999999997
 20
241.273
 30
0.0
 11
-41.02409999999999
 21
241.273
 31
0.0
  0
ARC
  5
213
  8
_________1
 62
     7
 10
-6.6545229999999993
 20
240.442206
 30
0.0
 40
0.8311159999999999
 50
2.109726999999999
 51
87.890263000000004
  0
LINE
  5
214
  8
_________1
 62
     7
 10
-5.8239700000000001
 20
236.273
 30
0.0
 11
-41.824099999999987
 21
236.273
 31
0.0
  0
LINE
  5
215
  8
_________1
 62
     7
 10
10.5436
 20
226.87299999999999
 30
0.0
 11
-9.7238399999999992
 21
226.87299999999999
 31
0.0
  0
LINE
  5
216
  8
_________1
  6
AIGENLINE002
 62
     7
 10
-37.624099999999999
 20
177.595
 30
0.0
 11
-37.624099999999999
 21
235.774
 31
0.0
  0
LINE
  5
217
  8
_________1
 62
     7
 10
-35.121899999999997
 20
179.27000000000001
 30
0.0
 11
-34.924199999999999
 21
225.273
 31
0.0
  0
LINE
  5
218
  8
_________1
 62
     7
 10
-39.726300000000002
 20
178.87200000000001
 30
0.0
 11
-35.521900000000002
 21
178.87200000000001
 31
0.0
  0
ARC
  5
219
  8
_________1
 62
     7
 10
-35.537058000000002
 20
179.28760299999999
 30
0.0
 40
0.415496
 50
272.08865100000003
 51
357.564863
  0
LINE
  5
21A
  8
_________1
 62
     7
 10
-40.126699999999992
 20
179.27000000000001
 30
0.0
 11
-40.324100000000001
 21
225.273
 31
0.0
  0
ARC
  5
21B
  8
_________1
 62
     7
 10
-39.711435999999999
 20
179.28771900000001
 30
0.0
 40
0.4156030000000001
 50
182.45048399999999
 51
267.94537000000003
  0
LINE
  5
21C
  8
_________1
 62
     7
 10
-21.324200000000001
 20
217.273
 30
0.0
 11
-21.324200000000001
 21
217.57300000000001
 31
0.0
  0
LINE
  5
21D
  8
_________1
 62
     7
 10
-13.924099999999999
 20
217.273
 30
0.0
 11
-13.924099999999999
 21
217.57300000000001
 31
0.0
  0
LINE
  5
21E
  8
_________1
 62
     7
 10
-13.724
 20
215.87299999999999
 30
0.0
 11
-13.724
 21
217.273
 31
0.0
  0
LINE
  5
21F
  8
_________1
 62
     7
 10
-13.924099999999999
 20
215.673
 30
0.0
 11
-21.324200000000001
 21
215.673
 31
0.0
  0
ARC
  5
220
  8
_________1
 62
     7
 10
-13.932162999999999
 20
215.880809
 30
0.0
 40
0.208355
 50
272.20930700000002
 51
357.74137300000001
  0
LINE
  5
221
  8
_________1
 62
     7
 10
-21.524100000000001
 20
215.87299999999999
 30
0.0
 11
-21.524100000000001
 21
217.273
 31
0.0
  0
ARC
  5
222
  8
_________1
 62
     7
 10
-21.316427000000001
 20
215.880235
 30
0.0
 40
0.207773
 50
182.10643099999999
 51
267.84422699999999
  0
LINE
  5
223
  8
_________1
 62
     7
 10
-13.724
 20
217.273
 30
0.0
 11
-21.524100000000001
 21
217.273
 31
0.0
  0
LINE
  5
224
  8
_________1
 62
     7
 10
-13.5242
 20
225.273
 30
0.0
 11
-13.5242
 21
217.57300000000001
 31
0.0
  0
LINE
  5
225
  8
_________1
 62
     7
 10
-21.7242
 20
225.273
 30
0.0
 11
-21.7242
 21
217.57300000000001
 31
0.0
  0
LINE
  5
226
  8
_________1
 62
     7
 10
-13.5242
 20
217.57300000000001
 30
0.0
 11
-21.7242
 21
217.57300000000001
 31
0.0
  0
LINE
  5
227
  8
_________1
 62
     7
 10
-10.4239
 20
225.47300000000001
 30
0.0
 11
-10.4239
 21
226.87299999999999
 31
0.0
  0
LINE
  5
228
  8
_________1
 62
     7
 10
-10.6241
 20
225.273
 30
0.0
 11
-44.624299999999998
 21
225.273
 31
0.0
  0
ARC
  5
229
  8
_________1
 62
     7
 10
-10.632085
 20
225.48097300000001
 30
0.0
 40
0.208355
 50
272.20930700000002
 51
357.74137300000001
  0
LINE
  5
22A
  8
_________1
 62
     7
 10
-44.824100000000001
 20
225.47300000000001
 30
0.0
 11
-44.824100000000001
 21
226.87299999999999
 31
0.0
  0
ARC
  5
22B
  8
_________1
 62
     7
 10
-44.616443999999987
 20
225.48039900000001
 30
0.0
 40
0.207773
 50
182.10643099999999
 51
267.84422699999999
  0
LINE
  5
22C
  8
_________1
 62
     7
 10
-10.4239
 20
226.87299999999999
 30
0.0
 11
-44.824100000000001
 21
226.87299999999999
 31
0.0
  0
LINE
  5
22D
  8
_________1
  6
AIGENLINE002
 62
     7
 10
-17.624199999999998
 20
214.01300000000001
 30
0.0
 11
-17.624199999999998
 21
235.803
 31
0.0
  0
LINE
  5
22E
  8
_________1
 62
     7
 10
-60.643900000000002
 20
97.695899999999995
 30
0.0
 11
-45.4452
 21
97.695899999999995
 31
0.0
  0
INSERT
  5
22F
  8
_________1
 62
     7
  2
AIGNBL02010009
 10
0.0
 20
0.0
 30
0.0
  0
INSERT
  5
230
  8
_________1
 62
     7
  2
AIGNBL0201000A
 10
0.0
 20
0.0
 30
0.0
  0
LINE
  5
231
  8
_________1
 62
     7
 10
-53.86849999999999
 20
111.096
 30
0.0
 11
-32.935699999999997
 21
111.096
 31
0.0
  0
LINE
  5
232
  8
_________1
 62
     7
 10
-53.86849999999999
 20
102.096
 30
0.0
 11
-32.935699999999997
 21
102.096
 31
0.0
  0
LINE
  5
233
  8
_________1
 62
     7
 10
-53.86849999999999
 20
105.096
 30
0.0
 11
-46.812899999999992
 21
105.096
 31
0.0
  0
LINE
  5
234
  8
_________1
 62
     7
 10
-60.643900000000002
 20
113.896
 30
0.0
 11
-41.296300000000002
 21
113.896
 31
0.0
  0
LINE
  5
235
  8
_________1
 62
     7
 10
-60.643900000000002
 20
112.496
 30
0.0
 11
-45.4452
 21
112.496
 31
0.0
  0
LINE
  5
236
  8
_________1
 62
     7
 10
-24.124099999999999
 20
78.074299999999994
 30
0.0
 11
-11.123900000000001
 21
78.074299999999994
 31
0.0
  0
LINE
  5
237
  8
_________1
 62
     7
 10
96.233800000000002
 20
90.621099999999998
 30
0.0
 11
94.022099999999995
 21
90.028499999999994
 31
0.0
  0
LINE
  5
238
  8
_________1
 62
     7
 10
94.022099999999995
 20
90.028499999999994
 30
0.0
 11
96.233800000000002
 21
89.435900000000004
 31
0.0
  0
LINE
  5
239
  8
_________1
 62
     7
 10
96.233800000000002
 20
89.435900000000004
 30
0.0
 11
96.233800000000002
 21
90.621099999999998
 31
0.0
  0
LINE
  5
23A
  8
_________1
 62
     7
 10
87.610000000000014
 20
89.435900000000004
 30
0.0
 11
89.821799999999996
 21
90.028499999999994
 31
0.0
  0
LINE
  5
23B
  8
_________1
 62
     7
 10
89.821799999999996
 20
90.028499999999994
 30
0.0
 11
87.610000000000014
 21
90.621099999999998
 31
0.0
  0
LINE
  5
23C
  8
_________1
 62
     7
 10
87.610000000000014
 20
90.621099999999998
 30
0.0
 11
87.610000000000014
 21
89.435900000000004
 31
0.0
  0
LINE
  5
23D
  8
_________1
 62
     7
 10
81.162800000000004
 20
90.028499999999994
 30
0.0
 11
97.585400000000007
 21
90.028499999999994
 31
0.0
  0
LINE
  5
23E
  8
_________1
 62
     7
 10
89.821799999999996
 20
89.328400000000002
 30
0.0
 11
89.821799999999996
 21
95.995800000000017
 31
0.0
  0
LINE
  5
23F
  8
_________1
 62
     7
 10
94.022099999999995
 20
89.328400000000002
 30
0.0
 11
94.022099999999995
 21
95.995800000000017
 31
0.0
  0
LINE
  5
240
  8
_________1
 62
     7
 10
-11.123900000000001
 20
95.066599999999994
 30
0.0
 11
-11.123900000000001
 21
77.374200000000002
 31
0.0
  0
LINE
  5
241
  8
_________1
 62
     7
 10
-24.124099999999999
 20
95.066599999999994
 30
0.0
 11
-24.124099999999999
 21
77.374200000000002
 31
0.0
  0
INSERT
  5
242
  8
_________1
 62
     7
  2
AIGNBL0201000B
 10
0.0
 20
0.0
 30
0.0
  0
LINE
  5
243
  8
_________1
 62
     7
 10
-13.2241
 20
83.884799999999984
 30
0.0
 11
-13.2241
 21
95.9589
 31
0.0
  0
LINE
  5
244
  8
_________1
 62
     7
 10
-9.0237999999999996
 20
83.884799999999984
 30
0.0
 11
-9.0237999999999996
 21
95.9589
 31
0.0
  0
LINE
  5
245
  8
_________1
 62
     7
 10
-35.527099999999997
 20
84.584900000000005
 30
0.0
 11
-19.037400000000002
 21
84.584900000000005
 31
0.0
  0
LINE
  5
246
  8
_________1
 62
     7
 10
-26.2242
 20
83.884799999999984
 30
0.0
 11
-26.2242
 21
95.9589
 31
0.0
  0
LINE
  5
247
  8
_________1
 62
     7
 10
-22.023900000000001
 20
83.884799999999984
 30
0.0
 11
-22.023900000000001
 21
95.9589
 31
0.0
  0
LINE
  5
248
  8
_________1
 62
     7
 10
-5.2238300000000004
 20
234.273
 30
0.0
 11
10.5436
 21
234.273
 31
0.0
  0
LINE
  5
249
  8
_________1
 62
     7
 10
-5.2238300000000004
 20
241.673
 30
0.0
 11
10.5436
 21
241.673
 31
0.0
  0
INSERT
  5
24A
  8
_________1
 62
     7
  2
AIGNBL0201000C
 10
0.0
 20
0.0
 30
0.0
  0
INSERT
  5
24B
  8
_________1
 62
     7
  2
AIGNBL0201000D
 10
0.0
 20
0.0
 30
0.0
  0
LINE
  5
24C
  8
_________1
 62
     7
 10
-15.796200000000001
 20
89.695700000000002
 30
0.0
 11
11.851699999999999
 21
89.695700000000002
 31
0.0
  0
LINE
  5
24D
  8
_________1
 62
     7
 10
-8.3781800000000004
 20
105.096
 30
0.0
 11
-0.209463
 21
105.096
 31
0.0
  0
LINE
  5
24E
  8
_________1
 62
     7
 10
4.954769999999999
 20
105.096
 30
0.0
 11
11.851699999999999
 21
105.096
 31
0.0
  0
INSERT
  5
24F
  8
_________1
 62
     7
  2
AIGNBL0201000E
 10
0.0
 20
0.0
 30
0.0
  0
LINE
  5
250
  8
_________1
 62
     7
 10
-6.5739700000000001
 20
98.495900000000006
 30
0.0
 11
4.812479999999999
 21
98.495900000000006
 31
0.0
  0
LINE
  5
251
  8
_________1
 62
     7
 10
-6.5739700000000001
 20
113.896
 30
0.0
 11
4.812479999999999
 21
113.896
 31
0.0
  0
INSERT
  5
252
  8
_________1
 62
     7
  2
AIGNBL0201000F
 10
0.0
 20
0.0
 30
0.0
  0
INSERT
  5
253
  8
_________1
 62
     7
  2
AIGNBL02010010
 10
0.0
 20
0.0
 30
0.0
  0
INSERT
  5
254
  8
_________1
 62
     7
  2
AIGNBL02010011
 10
0.0
 20
0.0
 30
0.0
  0
LINE
  5
255
  8
_________1
 62
     7
 10
-44.824100000000001
 20
144.30099999999999
 30
0.0
 11
-44.824100000000001
 21
113.559
 31
0.0
  0
LINE
  5
256
  8
_________1
 62
     7
 10
-10.4239
 20
137.066
 30
0.0
 11
-10.4239
 21
113.07899999999999
 31
0.0
  0
INSERT
  5
257
  8
_________1
 62
     7
  2
AIGNBL02010012
 10
0.0
 20
0.0
 30
0.0
  0
INSERT
  5
258
  8
_________1
 62
     7
  2
AIGNBL02010013
 10
0.0
 20
0.0
 30
0.0
  0
INSERT
  5
259
  8
_________1
 62
     7
  2
AIGNBL02010014
 10
0.0
 20
0.0
 30
0.0
  0
LINE
  5
25A
  8
_________1
 62
     7
 10
-41.824099999999987
 20
144.30099999999999
 30
0.0
 11
-41.824099999999987
 21
133.70099999999999
 31
0.0
  0
LINE
  5
25B
  8
_________1
 62
     7
 10
-41.824099999999987
 20
128.69999999999999
 30
0.0
 11
-41.824099999999987
 21
113.45699999999999
 31
0.0
  0
LINE
  5
25C
  8
_________1
 62
     7
 10
-5.8239700000000001
 20
144.30099999999999
 30
0.0
 11
-5.8239700000000001
 21
113.559
 31
0.0
  0
LINE
  5
25D
  8
_________1
 62
     7
 10
-13.0243
 20
123.021
 30
0.0
 11
-13.0243
 21
112.732
 31
0.0
  0
LINE
  5
25E
  8
_________1
 62
     7
 10
-30.624300000000002
 20
123.021
 30
0.0
 11
-30.624300000000002
 21
113.437
 31
0.0
  0
LINE
  5
25F
  8
_________1
 62
     7
 10
-37.624099999999999
 20
130.16399999999999
 30
0.0
 11
-37.624099999999999
 21
108.94499999999999
 31
0.0
  0
LINE
  5
260
  8
_________1
 62
     7
 10
-17.624199999999998
 20
130.16399999999999
 30
0.0
 11
-17.624199999999998
 21
110.852
 31
0.0
  0
LINE
  5
261
  8
_________1
 62
     7
 10
-13.8239
 20
96.696200000000005
 30
0.0
 11
-13.8239
 21
97.695899999999995
 31
0.0
  0
LINE
  5
262
  8
_________1
 62
     7
 10
-8.4239999999999995
 20
96.696200000000005
 30
0.0
 11
-13.8239
 21
96.696200000000005
 31
0.0
  0
LINE
  5
263
  8
_________1
 62
     7
 10
-8.4239999999999995
 20
96.696200000000005
 30
0.0
 11
-8.4239999999999995
 21
98.495900000000006
 31
0.0
  0
LINE
  5
264
  8
_________1
  6
AIGENLINE002
 62
     7
 10
-11.123900000000001
 20
95.7667
 30
0.0
 11
-11.123900000000001
 21
98.572699999999983
 31
0.0
  0
LINE
  5
265
  8
_________1
 62
     7
 10
-26.824000000000002
 20
96.696200000000005
 30
0.0
 11
-26.824000000000002
 21
97.695899999999995
 31
0.0
  0
LINE
  5
266
  8
_________1
 62
     7
 10
-21.424199999999999
 20
96.696200000000005
 30
0.0
 11
-26.824000000000002
 21
96.696200000000005
 31
0.0
  0
LINE
  5
267
  8
_________1
 62
     7
 10
-21.424199999999999
 20
96.696200000000005
 30
0.0
 11
-21.424199999999999
 21
97.695899999999995
 31
0.0
  0
LINE
  5
268
  8
_________1
  6
AIGENLINE002
 62
     7
 10
-24.124099999999999
 20
95.7667
 30
0.0
 11
-24.124099999999999
 21
98.572699999999983
 31
0.0
  0
LINE
  5
269
  8
_________1
  6
AIGENLINE002
 62
     7
 10
-30.285699999999999
 20
94.471699999999984
 30
0.0
 11
-17.623799999999999
 21
105.096
 31
0.0
  0
LINE
  5
26A
  8
_________1
  6
AIGENLINE003
 62
     7
 10
-21.994299999999999
 20
102.73399999999999
 30
0.0
 11
-29.910900000000002
 21
96.091600000000014
 31
0.0
  0
LINE
  5
26B
  8
_________1
  6
AIGENLINE003
 62
     7
 10
-28.9069
 20
94.584000000000003
 30
0.0
 11
-29.935700000000001
 21
95.810100000000006
 31
0.0
  0
ARC
  5
26C
  8
_________1
  6
AIGENLINE003
 62
     7
 10
-29.771661999999999
 20
95.937462999999994
 30
0.0
 40
0.20765
 50
132.09124399999999
 51
217.83613500000001
  0
LINE
  5
26D
  8
_________1
  6
AIGENLINE003
 62
     7
 10
-20.7089
 20
101.202
 30
0.0
 11
-28.6251
 21
94.559499999999986
 31
0.0
  0
ARC
  5
26E
  8
_________1
  6
AIGENLINE003
 62
     7
 10
-28.752828999999998
 20
94.723955000000004
 30
0.0
 40
0.2082
 50
222.24852799999999
 51
307.83014700000001
  0
LINE
  5
26F
  8
_________1
  6
AIGENLINE002
 62
     7
 10
-4.9625199999999987
 20
94.471299999999985
 30
0.0
 11
-17.623799999999999
 21
105.096
 31
0.0
  0
LINE
  5
270
  8
_________1
  6
AIGENLINE003
 62
     7
 10
-13.2537
 20
102.73399999999999
 30
0.0
 11
-5.3373499999999989
 21
96.091600000000014
 31
0.0
  0
LINE
  5
271
  8
_________1
  6
AIGENLINE003
 62
     7
 10
-6.34091
 20
94.584000000000003
 30
0.0
 11
-5.3125400000000003
 21
95.810100000000006
 31
0.0
  0
ARC
  5
272
  8
_________1
  6
AIGENLINE003
 62
     7
 10
-5.464658
 20
95.938290000000009
 30
0.0
 40
0.198933
 50
319.876238
 51
352.92493899999999
  0
ARC
  5
273
  8
_________1
  6
AIGENLINE003
 62
     7
 10
-5.4697919999999991
 20
95.936612999999994
 30
0.0
 40
0.203834
 50
353.57026000000002
 51
49.476289000000008
  0
LINE
  5
274
  8
_________1
  6
AIGENLINE003
 62
     7
 10
-14.539099999999999
 20
101.202
 30
0.0
 11
-6.6230699999999993
 21
94.559499999999986
 31
0.0
  0
ARC
  5
275
  8
_________1
  6
AIGENLINE003
 62
     7
 10
-6.4951179999999988
 20
94.723202000000001
 30
0.0
 40
0.207762
 50
231.987312
 51
317.92199900000003
  0
LINE
  5
276
  8
_________1
  6
AIGENLINE002
 62
     7
 10
-37.624099999999999
 20
101.14
 30
0.0
 11
-37.624099999999999
 21
108.245
 31
0.0
  0
LINE
  5
277
  8
_________1
 62
     7
 10
-35.124000000000002
 20
106.696
 30
0.0
 11
-35.124000000000002
 21
103.496
 31
0.0
  0
LINE
  5
278
  8
_________1
 62
     7
 10
-39.7239
 20
103.096
 30
0.0
 11
-35.524000000000001
 21
103.096
 31
0.0
  0
ARC
  5
279
  8
_________1
 62
     7
 10
-35.539304999999999
 20
103.511111
 30
0.0
 40
0.41557
 50
272.11303500000002
 51
357.93630400000001
  0
LINE
  5
27A
  8
_________1
 62
     7
 10
-40.123899999999992
 20
106.696
 30
0.0
 11
-40.123899999999992
 21
103.496
 31
0.0
  0
ARC
  5
27B
  8
_________1
 62
     7
 10
-39.70828800000001
 20
103.511425
 30
0.0
 40
0.415896
 50
182.105391
 51
267.84530999999998
  0
ARC
  5
27C
  8
_________1
 62
     7
 10
-35.539270000000002
 20
106.680683
 30
0.0
 40
0.415548
 50
2.108404999999999
 51
87.891584999999992
  0
ARC
  5
27D
  8
_________1
 62
     7
 10
-39.70863700000001
 20
106.680683
 30
0.0
 40
0.4155470000000001
 50
92.108378000000002
 51
177.891592
  0
LINE
  5
27E
  8
_________1
 62
     7
 10
-34.924199999999999
 20
106.696
 30
0.0
 11
-34.924199999999999
 21
103.312
 31
0.0
  0
ARC
  5
27F
  8
_________1
 62
     7
 10
-35.330964999999999
 20
103.316158
 30
0.0
 40
0.4067980000000001
 50
300.58111700000001
 51
359.43916100000001
  0
LINE
  5
280
  8
_________1
 62
     7
 10
-40.324100000000001
 20
106.696
 30
0.0
 11
-40.324100000000001
 21
103.312
 31
0.0
  0
ARC
  5
281
  8
_________1
 62
     7
 10
-39.916710999999999
 20
103.31649
 30
0.0
 40
0.407376
 50
180.6067129999999
 51
239.37304900000001
  0
LINE
  5
282
  8
_________1
 62
     7
 10
-39.924100000000003
 20
107.096
 30
0.0
 11
-35.324199999999998
 21
107.096
 31
0.0
  0
ARC
  5
283
  8
_________1
 62
     7
 10
-35.339453000000013
 20
106.680683
 30
0.0
 40
0.415548
 50
2.108404999999999
 51
87.891584999999992
  0
ARC
  5
284
  8
_________1
 62
     7
 10
-39.908788000000001
 20
106.680673
 30
0.0
 40
0.415558
 50
92.109700000000004
 51
177.89027100000001
  0
LINE
  5
285
  8
_________1
 62
     7
 10
-6.6239299999999997
 20
100.496
 30
0.0
 11
-5.8239700000000001
 21
100.496
 31
0.0
  0
LINE
  5
286
  8
_________1
 62
     7
 10
-7.8238599999999998
 20
99.295900000000003
 30
0.0
 11
-7.8238599999999998
 21
98.495900000000006
 31
0.0
  0
LINE
  5
287
  8
_________1
 62
     7
 10
-39.824199999999998
 20
113.896
 30
0.0
 11
-39.824199999999998
 21
113.096
 31
0.0
  0
LINE
  5
288
  8
_________1
 62
     7
 10
-7.8238599999999998
 20
113.896
 30
0.0
 11
-7.8238599999999998
 21
113.096
 31
0.0
  0
LINE
  5
289
  8
_________1
 62
     7
 10
-6.6239299999999997
 20
111.896
 30
0.0
 11
-5.8239700000000001
 21
111.896
 31
0.0
  0
LINE
  5
28A
  8
_________1
 62
     7
 10
-7.8238599999999998
 20
113.096
 30
0.0
 11
-39.824199999999998
 21
113.096
 31
0.0
  0
ARC
  5
28B
  8
_________1
 62
     7
 10
-39.810034999999999
 20
111.871349
 30
0.0
 40
1.2246980000000001
 50
90.661659999999983
 51
149.24891600000001
  0
LINE
  5
28C
  8
_________1
 62
     7
 10
-7.8238599999999998
 20
99.295900000000003
 30
0.0
 11
-10.4239
 21
99.295900000000003
 31
0.0
  0
LINE
  5
28D
  8
_________1
 62
     7
 10
-6.6239299999999997
 20
100.496
 30
0.0
 11
-6.6239299999999997
 21
111.896
 31
0.0
  0
ARC
  5
28E
  8
_________1
 62
     7
 10
-7.869769999999999
 20
100.54168900000001
 30
0.0
 40
1.2466749999999991
 50
272.11039499999998
 51
357.90606200000002
  0
ARC
  5
28F
  8
_________1
 62
     7
 10
-7.869746000000001
 20
111.850146
 30
0.0
 40
1.246662999999999
 50
2.1092859999999991
 51
87.890703999999985
  0
LINE
  5
290
  8
_________1
 62
     7
 10
-7.8238599999999998
 20
98.495900000000006
 30
0.0
 11
-10.4239
 21
98.495900000000006
 31
0.0
  0
LINE
  5
291
  8
_________1
 62
     7
 10
-5.8239700000000001
 20
100.496
 30
0.0
 11
-5.8239700000000001
 21
111.896
 31
0.0
  0
ARC
  5
292
  8
_________1
 62
     7
 10
-7.8240339999999993
 20
100.495966
 30
0.0
 40
2.000062999999999
 50
270.004954
 51
0.004925
  0
LINE
  5
293
  8
_________1
 62
     7
 10
-7.8238599999999998
 20
113.896
 30
0.0
 11
-39.824199999999998
 21
113.896
 31
0.0
  0
ARC
  5
294
  8
_________1
 62
     7
 10
-39.782734000000012
 20
111.84012300000001
 30
0.0
 40
2.0565599999999988
 50
91.154691999999969
 51
161.478396
  0
ARC
  5
295
  8
_________1
 62
     7
 10
-7.8240339999999993
 20
111.896203
 30
0.0
 40
2.000062999999999
 50
359.99507499999999
 51
89.995045999999988
  0
LINE
  5
296
  8
_________1
 62
     7
 10
-18.623999999999999
 20
97.695899999999995
 30
0.0
 11
-44.424100000000003
 21
97.695899999999995
 31
0.0
  0
LINE
  5
297
  8
_________1
 62
     7
 10
-10.8239
 20
97.695899999999995
 30
0.0
 11
-16.624099999999999
 21
97.695899999999995
 31
0.0
  0
LINE
  5
298
  8
_________1
 62
     7
 10
-10.4239
 20
98.0959
 30
0.0
 11
-10.4239
 21
112.096
 31
0.0
  0
ARC
  5
299
  8
_________1
 62
     7
 10
-10.839168000000001
 20
98.111222999999995
 30
0.0
 40
0.415558
 50
272.109737
 51
357.89027299999998
  0
LINE
  5
29A
  8
_________1
 62
     7
 10
-10.8239
 20
112.496
 30
0.0
 11
-44.424100000000003
 21
112.496
 31
0.0
  0
ARC
  5
29B
  8
_________1
 62
     7
 10
-10.839506
 20
112.080568
 30
0.0
 40
0.415896
 50
2.105388
 51
87.845272999999978
  0
LINE
  5
29C
  8
_________1
 62
     7
 10
-44.824100000000001
 20
98.0959
 30
0.0
 11
-44.824100000000001
 21
112.096
 31
0.0
  0
ARC
  5
29D
  8
_________1
 62
     7
 10
-44.408785999999999
 20
112.080893
 30
0.0
 40
0.4155600000000001
 50
92.111677
 51
177.937623
  0
ARC
  5
29E
  8
_________1
 62
     7
 10
-44.408799999999992
 20
98.111221999999984
 30
0.0
 40
0.415558
 50
182.10972899999999
 51
267.89030000000002
  0
LINE
  5
29F
  8
_________1
  6
AIGENLINE002
 62
     7
 10
-17.624199999999998
 20
88.567400000000006
 30
0.0
 11
-17.624199999999998
 21
110.152
 31
0.0
  0
LINE
  5
2A0
  8
_________1
  6
AIGENLINE002
 62
     7
 10
-9.2680500000000006
 20
105.096
 30
0.0
 11
-45.9803
 21
105.096
 31
0.0
  0
LINE
  5
2A1
  8
_________1
 62
     7
 10
-16.624099999999999
 20
100.819
 30
0.0
 11
-16.624099999999999
 21
89.895899999999983
 31
0.0
  0
LINE
  5
2A2
  8
_________1
 62
     7
 10
-18.424099999999999
 20
89.695700000000002
 30
0.0
 11
-16.823899999999998
 21
89.695700000000002
 31
0.0
  0
ARC
  5
2A3
  8
_________1
 62
     7
 10
-16.831555999999999
 20
89.903169999999989
 30
0.0
 40
0.207616
 50
272.11738700000001
 51
357.98132399999997
  0
LINE
  5
2A4
  8
_________1
 62
     7
 10
-18.623999999999999
 20
100.819
 30
0.0
 11
-18.623999999999999
 21
89.895899999999983
 31
0.0
  0
ARC
  5
2A5
  8
_________1
 62
     7
 10
-18.416156999999998
 20
89.903484000000006
 30
0.0
 40
0.207942
 50
182.1020959999999
 51
267.79923300000002
  0
LINE
  5
2A6
  8
_________1
 62
     7
 10
-18.424099999999999
 20
89.895899999999983
 30
0.0
 11
-16.823899999999998
 21
89.895899999999983
 31
0.0
  0
LINE
  5
2A7
  8
_________1
 62
     7
 10
-16.823899999999998
 20
100.819
 30
0.0
 11
-16.823899999999998
 21
89.895899999999983
 31
0.0
  0
ARC
  5
2A8
  8
_________1
 62
     7
 10
-16.206294
 20
100.806803
 30
0.0
 40
0.617718
 50
109.3012639999999
 51
178.84169900000001
  0
LINE
  5
2A9
  8
_________1
 62
     7
 10
-18.424099999999999
 20
100.819
 30
0.0
 11
-18.424099999999999
 21
89.895899999999983
 31
0.0
  0
ARC
  5
2AA
  8
_________1
 62
     7
 10
-19.041243000000001
 20
100.807159
 30
0.0
 40
0.6172200000000001
 50
1.126174999999999
 51
70.730820999999992
  0
ARC
  5
2AB
  8
_________1
 62
     7
 10
-16.212527000000001
 20
100.81097699999999
 30
0.0
 40
0.4116260000000001
 50
109.232106
 51
178.842828
  0
ARC
  5
2AC
  8
_________1
 62
     7
 10
-19.035215999999998
 20
100.811184
 30
0.0
 40
0.4113360000000001
 50
1.129116999999999
 51
70.795909999999992
  0
ARC
  5
2AD
  8
_________1
 62
     7
 10
-17.730153000000001
 20
105.17317199999999
 30
0.0
 40
4.0069259999999991
 50
289.22934299999997
 51
358.89726400000012
  0
ARC
  5
2AE
  8
_________1
 62
     7
 10
-17.624015
 20
105.095885
 30
0.0
 40
3.9000460000000001
 50
0.002541
 51
90.002510999999984
  0
ARC
  5
2AF
  8
_________1
 62
     7
 10
-17.624186000000002
 20
105.096058
 30
0.0
 40
3.8998729999999999
 50
90.0
 51
179.99996999999999
  0
ARC
  5
2B0
  8
_________1
 62
     7
 10
-17.516946999999998
 20
105.173845
 30
0.0
 40
4.0078670000000001
 50
181.11211900000001
 51
250.761314
  0
ARC
  5
2B1
  8
_________1
 62
     7
 10
-17.736530999999999
 20
105.177824
 30
0.0
 40
4.2135169999999986
 50
289.23933999999991
 51
358.88806699999998
  0
ARC
  5
2B2
  8
_________1
 62
     7
 10
-17.624015
 20
105.095885
 30
0.0
 40
4.1002070000000002
 50
0.002417
 51
90.002386999999999
  0
ARC
  5
2B3
  8
_________1
 62
     7
 10
-17.624186000000002
 20
105.096058
 30
0.0
 40
4.1000350000000001
 50
90.0
 51
179.99996999999999
  0
ARC
  5
2B4
  8
_________1
 62
     7
 10
-17.511407999999999
 20
105.17788899999999
 30
0.0
 40
4.2136069999999988
 50
181.11280400000001
 51
250.759829
  0
INSERT
  5
2B5
  8
_________1
 62
     7
  2
AIGNBL02010015
 10
0.0
 20
0.0
 30
0.0
  0
LINE
  5
2B6
  8
_________2
 62
     7
 10
234.91499999999999
 20
280.15800000000002
 30
0.0
 11
234.91499999999999
 21
259.15800000000002
 31
0.0
  0
LINE
  5
2B7
  8
_________2
 62
     7
 10
260.93599999999998
 20
280.15800000000002
 30
0.0
 11
260.93599999999998
 21
259.15800000000002
 31
0.0
  0
LINE
  5
2B8
  8
_________2
 62
     7
 10
267.56200000000001
 20
280.15800000000002
 30
0.0
 11
267.56200000000001
 21
259.15800000000002
 31
0.0
  0
TEXT
  5
2B9
  8
_________2
 62
     7
 10
263.95687833333329
 20
261.30900000000003
 30
0.0
 40
3.3734599999999988
  1
1
 41
0.5
 72
     1
 11
264.238
 21
261.30900000000003
 31
0.0
  0
TEXT
  5
2BA
  8
_________2
 62
     7
 10
263.95687833333329
 20
268.30900000000003
 30
0.0
 40
3.3734599999999988
  1
1
 41
0.5
 72
     1
 11
264.238
 21
268.30900000000003
 31
0.0
  0
TEXT
  5
2BB
  8
_________2
 62
     7
 10
263.45085933333331
 20
275.30900000000003
 30
0.0
 40
3.3734599999999988
  1
数
 41
0.5
 72
     1
 11
264.238
 21
275.30900000000003
 31
0.0
  0
TEXT
  5
2BC
  8
_________2
 62
     7
 10
277.60178333333329
 20
261.30900000000003
 30
0.0
 40
3.3734599999999988
  1
埋込部
 41
0.5
 72
     1
 11
280.41300000000001
 21
261.30900000000003
 31
0.0
  0
TEXT
  5
2BD
  8
_________2
 62
     7
 10
270.40506866666669
 20
268.30900000000003
 30
0.0
 40
3.3734599999999988
  1
スパウト・ハンドル部
 41
0.5
 72
     1
 11
280.41300000000001
 21
268.30900000000003
 31
0.0
  0
TEXT
  5
2BE
  8
_________2
 62
     7
 10
278.61382133333342
 20
275.30900000000003
 30
0.0
 40
3.3734599999999988
  1
名称
 41
0.5
 72
     1
 11
280.41300000000001
 21
275.30900000000003
 31
0.0
  0
TEXT
  5
2BF
  8
_________2
 62
     7
 10
239.8955933333333
 20
261.30900000000003
 30
0.0
 40
3.3734599999999988
  1
KW9193400R
 41
0.5
 72
     1
 11
247.767
 21
261.30900000000003
 31
0.0
  0
TEXT
  5
2C0
  8
_________2
 62
     7
 10
240.03615416666671
 20
268.30900000000003
 30
0.0
 40
3.3734599999999988
  1
KW1192034T
 41
0.5
 72
     1
 11
247.767
 21
268.30900000000003
 31
0.0
  0
TEXT
  5
2C1
  8
_________2
 62
     7
 10
245.96782133333329
 20
275.30900000000003
 30
0.0
 40
3.3734599999999988
  1
品番
 41
0.5
 72
     1
 11
247.767
 21
275.30900000000003
 31
0.0
  0
LINE
  5
2C2
  8
_________2
 62
     7
 10
234.91499999999999
 20
259.15800000000002
 30
0.0
 11
293.459
 21
259.15800000000002
 31
0.0
  0
LINE
  5
2C3
  8
_________2
 62
     7
 10
234.91499999999999
 20
266.15800000000002
 30
0.0
 11
293.459
 21
266.15800000000002
 31
0.0
  0
LINE
  5
2C4
  8
_________2
 62
     7
 10
234.91499999999999
 20
273.15800000000002
 30
0.0
 11
293.459
 21
273.15800000000002
 31
0.0
  0
TEXT
  5
2C5
  8
_________2
 62
     7
 10
219.08699999999999
 20
46.173200000000001
 30
0.0
 40
3.9357000000000002
  1
湯水混合水栓（壁埋込式）
 41
0.5
  0
TEXT
  5
2C6
  8
_________2
 62
     7
 10
-76.019300000000001
 20
28.914200000000001
 30
0.0
 40
4.2168199999999993
  1
※メンテナンスのため配管途中に、必ず止水栓（現場手配）を設置してください。
 41
0.5
  0
TEXT
  5
2C7
  8
_________2
 62
     7
 10
-76.019300000000001
 20
21.790700000000001
 30
0.0
 40
4.2168199999999993
  1
※ガラス、鏡、天然石には取り付け出来ません。
 41
0.5
  0
TEXT
  5
2C8
  8
_________2
 62
     7
 10
169.50999999999999
 20
112.446
 30
0.0
 40
3.9357000000000002
  1
※快適にお使いいただくためには、0.2～0.3MPa程度の圧力をおすすめします。
 41
0.5
  0
TEXT
  5
2C9
  8
_________2
 62
     7
 10
169.50999999999999
 20
118.526
 30
0.0
 40
3.9357000000000002
  1
0.5MPa（流動圧）
 41
0.5
  0
TEXT
  5
2CA
  8
_________2
 62
     7
 10
129.49600000000001
 20
126.148
 30
0.0
 40
3.9357000000000002
  1
給水圧力
 41
0.5
  0
TEXT
  5
2CB
  8
_________2
 62
     7
 10
129.49600000000001
 20
133.91
 30
0.0
 40
3.9357000000000002
  1
用途
 41
0.5
  0
TEXT
  5
2CC
  8
_________2
 62
     7
 10
169.50999999999999
 20
133.91
 30
0.0
 40
3.9357000000000002
  1
一般住宅用（屋内用）
 41
0.5
  0
LINE
  5
2CD
  8
_________2
 62
     7
 10
145.64099999999999
 20
131.80199999999999
 30
0.0
 11
145.64099999999999
 21
110.46599999999999
 31
0.0
  0
LINE
  5
2CE
  8
_________2
 62
     7
 10
166.97200000000001
 20
139.565
 30
0.0
 11
166.97200000000001
 21
61.980800000000002
 31
0.0
  0
LINE
  5
2CF
  8
_________2
 62
     7
 10
290.16199999999998
 20
139.565
 30
0.0
 11
126.95699999999999
 21
139.565
 31
0.0
  0
LINE
  5
2D0
  8
_________2
 62
     7
 10
126.95699999999999
 20
139.565
 30
0.0
 11
126.95699999999999
 21
61.980800000000002
 31
0.0
  0
LINE
  5
2D1
  8
_________2
 62
     7
 10
126.95699999999999
 20
61.980800000000002
 30
0.0
 11
290.16199999999998
 21
61.980800000000002
 31
0.0
  0
LINE
  5
2D2
  8
_________2
 62
     7
 10
290.16199999999998
 20
61.980800000000002
 30
0.0
 11
290.16199999999998
 21
139.565
 31
0.0
  0
TEXT
  5
2D3
  8
_________2
 62
     7
 10
147.41499999999999
 20
126.148
 30
0.0
 40
3.9357000000000002
  1
最低必要水圧
 41
0.5
  0
TEXT
  5
2D4
  8
_________2
 62
     7
 10
169.50999999999999
 20
126.148
 30
0.0
 40
3.9357000000000002
  1
0.1MPa（流動圧）
 41
0.5
  0
LINE
  5
2D5
  8
_________2
 62
     7
 10
126.95699999999999
 20
131.80199999999999
 30
0.0
 11
290.16199999999998
 21
131.80199999999999
 31
0.0
  0
TEXT
  5
2D6
  8
_________2
 62
     7
 10
129.49600000000001
 20
104.81100000000001
 30
0.0
 40
3.9357000000000002
  1
使用可能水質
 41
0.5
  0
TEXT
  5
2D7
  8
_________2
 62
     7
 10
169.50999999999999
 20
104.81100000000001
 30
0.0
 40
3.9357000000000002
  1
水道水
 41
0.5
  0
LINE
  5
2D8
  8
_________2
 62
     7
 10
126.95699999999999
 20
110.46599999999999
 30
0.0
 11
290.16199999999998
 21
110.46599999999999
 31
0.0
  0
TEXT
  5
2D9
  8
_________2
 62
     7
 10
147.41499999999999
 20
118.526
 30
0.0
 40
3.9357000000000002
  1
最高水圧
 41
0.5
  0
LINE
  5
2DA
  8
_________2
 62
     7
 10
145.64099999999999
 20
124.04000000000001
 30
0.0
 11
290.16199999999998
 21
124.04000000000001
 31
0.0
  0
TEXT
  5
2DB
  8
_________2
 62
     7
 10
129.49600000000001
 20
97.1892
 30
0.0
 40
3.9357000000000002
  1
使用環境温度
 41
0.5
  0
TEXT
  5
2DC
  8
_________2
 62
     7
 10
129.49600000000001
 20
83.615099999999998
 30
0.0
 40
3.9357000000000002
  1
最高給湯温度
 41
0.5
  0
TEXT
  5
2DD
  8
_________2
 62
     7
 10
129.49600000000001
 20
69.912499999999994
 30
0.0
 40
3.9357000000000002
  1
特記事項
 41
0.5
  0
TEXT
  5
2DE
  8
_________2
 62
     7
 10
169.50999999999999
 20
91.108900000000006
 30
0.0
 40
3.9357000000000002
  1
※寒冷地仕様ではありません、凍結が予想される場合は凍結予防をしてください。
 41
0.5
  0
TEXT
  5
2DF
  8
_________2
 62
     7
 10
169.50999999999999
 20
97.1892
 30
0.0
 40
3.9357000000000002
  1
1～40℃
 41
0.5
  0
LINE
  5
2E0
  8
_________2
 62
     7
 10
126.95699999999999
 20
102.703
 30
0.0
 11
290.16199999999998
 21
102.703
 31
0.0
  0
TEXT
  5
2E1
  8
_________2
 62
     7
 10
169.50999999999999
 20
77.534800000000004
 30
0.0
 40
3.9357000000000002
  1
※安全のため給湯温度は60℃以下でのご使用をおすすめします。
 41
0.5
  0
TEXT
  5
2E2
  8
_________2
 62
     7
 10
169.50999999999999
 20
83.615099999999998
 30
0.0
 40
3.9357000000000002
  1
80℃
 41
0.5
  0
TEXT
  5
2E3
  8
_________2
 62
     7
 10
169.50999999999999
 20
63.8322
 30
0.0
 40
3.9357000000000002
  1
（2）湯水を逆に配管しないでください。
 41
0.5
  0
TEXT
  5
2E4
  8
_________2
 62
     7
 10
169.50999999999999
 20
69.912499999999994
 30
0.0
 40
3.9357000000000002
  1
（1）水圧は湯水ほぼ同圧、且つ湯圧が水圧より高くならないように設定してください。
 41
0.5
  0
LINE
  5
2E5
  8
_________2
 62
     7
 10
126.95699999999999
 20
89.128999999999976
 30
0.0
 11
290.16199999999998
 21
89.128999999999976
 31
0.0
  0
LINE
  5
2E6
  8
_________2
 62
     7
 10
126.95699999999999
 20
75.554900000000004
 30
0.0
 11
290.16199999999998
 21
75.554900000000004
 31
0.0
  0
TEXT
  5
2E7
  8
_________2
 62
     7
 10
200.4570586666666
 20
34.465299999999999
 30
0.0
 40
3.6545800000000002
  1
1 ： 5
 41
0.5
 72
     1
 11
203.86799999999999
 21
34.465299999999999
 31
0.0
  0
TEXT
  5
2E8
  8
_________2
 62
     7
 10
233.7467025
 20
30.3553
 30
0.0
 40
3.9357000000000002
  1
KW1192034T＋KW9193400R
 41
0.5
 72
     1
 11
253.458
 21
30.3553
 31
0.0
  0
TEXT
  5
2E9
  8
_________2
 62
     7
 10
149.3328003333333
 20
34.850499999999997
 30
0.0
 40
3.6545800000000002
  1
井田
 41
0.5
 72
     1
 11
151.221
 21
34.850499999999997
 31
0.0
  0
TEXT
  5
2EA
  8
_________2
 62
     7
 10
130.69789066666669
 20
34.850499999999997
 30
0.0
 40
3.6545800000000002
  1
恋塚
 41
0.5
 72
     1
 11
132.64699999999999
 21
34.850499999999997
 31
0.0
  0
TEXT
  5
2EB
  8
_________2
 62
     7
 10
177.69399999999999
 20
34.465299999999999
 30
0.0
 40
3.6545800000000002
  1
19.10.30
 41
0.5
  0
TEXT
  5
2EC
  8
_________2
 62
     7
 10
290.64778333333328
 20
12.808299999999999
 30
0.0
 40
3.3734599999999988
  1
A3
 41
0.5
 72
     2
 11
293.459
 21
12.808299999999999
 31
0.0
  0
TEXT
  5
2ED
  8
_________2
 62
     7
 10
134.495
 20
21.954699999999999
 30
0.0
 40
3.9357000000000002
  1
（社）日本水道協会認証品
 41
0.5
  0
LINE
  5
2EE
  8
_________2
 62
     7
 10
315.209
 20
148.65899999999999
 30
0.0
 11
293.459
 21
148.65899999999999
 31
0.0
  0
LINE
  5
2EF
  8
_________2
 62
     7
 10
105.20699999999999
 20
17.156300000000002
 30
0.0
 11
105.20699999999999
 21
0.176045
 31
0.0
  0
LINE
  5
2F0
  8
_________2
 62
     7
 10
105.20699999999999
 20
297.178
 30
0.0
 11
105.20699999999999
 21
280.15800000000002
 31
0.0
  0
LINE
  5
2F1
  8
_________2
 62
     7
 10
-83.043899999999994
 20
148.65899999999999
 30
0.0
 11
-104.794
 21
148.65899999999999
 31
0.0
  0
INSERT
  5
2F2
  8
_________2
 62
     7
  2
AIGNBL03010002
 10
0.0
 20
0.0
 30
0.0
  0
TEXT
  5
2F3
  8
_________2
 62
     7
 10
214.51300000000001
 20
22.9269
 30
0.0
 40
3.0923400000000001
  1
図番
 41
0.5
  0
LINE
  5
2F4
  8
_________2
 62
     7
 10
213.458
 20
27.156099999999999
 30
0.0
 11
293.459
 21
27.156099999999999
 31
0.0
  0
TEXT
  5
2F5
  8
_________2
 62
     7
 10
214.51300000000001
 20
32.926699999999997
 30
0.0
 40
3.0923400000000001
  1
品番
 41
0.5
  0
TEXT
  5
2F6
  8
_________2
 62
     7
 10
214.51300000000001
 20
53.0655
 30
0.0
 40
3.0923400000000001
  1
名称
 41
0.5
  0
TEXT
  5
2F7
  8
_________2
 62
     7
 10
201.75325833333329
 20
48.069400000000002
 30
0.0
 40
3.6545800000000002
  1
mm
 41
0.5
 72
     1
 11
203.27600000000001
 21
48.069400000000002
 31
0.0
  0
TEXT
  5
2F8
  8
_________2
 62
     7
 10
195.55099999999999
 20
53.0655
 30
0.0
 40
3.0923400000000001
  1
単位
 41
0.5
  0
TEXT
  5
2F9
  8
_________2
 62
     7
 10
195.55099999999999
 20
40.658200000000001
 30
0.0
 40
3.0923400000000001
  1
尺度
 41
0.5
  0
TEXT
  5
2FA
  8
_________2
 62
     7
 10
242.47083749999999
 20
20.354800000000001
 30
0.0
 40
3.9357000000000002
  1
KW1192034TRC
 41
0.5
 72
     1
 11
253.458
 21
20.354800000000001
 31
0.0
  0
TEXT
  5
2FB
  8
_________2
 62
     7
 10
176.501
 20
40.658200000000001
 30
0.0
 40
3.0923400000000001
  1
日付
 41
0.5
  0
TEXT
  5
2FC
  8
_________2
 62
     7
 10
139.547
 20
40.658200000000001
 30
0.0
 40
3.0923400000000001
  1
検図
 41
0.5
  0
TEXT
  5
2FD
  8
_________2
 62
     7
 10
127.929
 20
26.4588
 30
0.0
 40
3.0923400000000001
  1
備考
 41
0.5
  0
TEXT
  5
2FE
  8
_________2
 62
     7
 10
127.929
 20
40.658200000000001
 30
0.0
 40
3.0923400000000001
  1
製図
 41
0.5
  0
TEXT
  5
2FF
  8
_________2
 62
     7
 10
133.69596533333331
 20
49.184199999999997
 30
0.0
 40
4.4979399999999989
  1
セラトレーディング株式会社
 41
0.5
 72
     1
 11
151.08799999999999
 21
49.184199999999997
 31
0.0
  0
LINE
  5
300
  8
_________2
 62
     7
 10
293.459
 20
17.156300000000002
 30
0.0
 11
-83.043899999999994
 21
17.156300000000002
 31
0.0
  0
LINE
  5
301
  8
_________2
 62
     7
 10
-83.043899999999994
 20
17.156300000000002
 30
0.0
 11
-83.043899999999994
 21
280.15800000000002
 31
0.0
  0
LINE
  5
302
  8
_________2
 62
     7
 10
-83.043899999999994
 20
280.15800000000002
 30
0.0
 11
293.459
 21
280.15800000000002
 31
0.0
  0
LINE
  5
303
  8
_________2
 62
     7
 10
293.459
 20
280.15800000000002
 30
0.0
 11
293.459
 21
17.156300000000002
 31
0.0
  0
LINE
  5
304
  8
_________2
 62
     7
 10
175.458
 20
30.656400000000001
 30
0.0
 11
175.458
 21
57.156199999999998
 31
0.0
  0
LINE
  5
305
  8
_________2
 62
     7
 10
194.458
 20
30.656400000000001
 30
0.0
 11
194.458
 21
57.156199999999998
 31
0.0
  0
LINE
  5
306
  8
_________2
 62
     7
 10
126.95699999999999
 20
17.156300000000002
 30
0.0
 11
126.95699999999999
 21
57.156199999999998
 31
0.0
  0
LINE
  5
307
  8
_________2
 62
     7
 10
213.458
 20
17.156300000000002
 30
0.0
 11
213.458
 21
57.156199999999998
 31
0.0
  0
LINE
  5
308
  8
_________2
 62
     7
 10
138.45699999999999
 20
30.656400000000001
 30
0.0
 11
138.45699999999999
 21
44.65659999999999
 31
0.0
  0
LINE
  5
309
  8
_________2
 62
     7
 10
126.95699999999999
 20
30.656400000000001
 30
0.0
 11
213.458
 21
30.656400000000001
 31
0.0
  0
LINE
  5
30A
  8
_________2
 62
     7
 10
126.95699999999999
 20
44.65659999999999
 30
0.0
 11
213.458
 21
44.65659999999999
 31
0.0
  0
LINE
  5
30B
  8
_________2
 62
     7
 10
213.458
 20
37.15590000000001
 30
0.0
 11
293.459
 21
37.15590000000001
 31
0.0
  0
LINE
  5
30C
  8
_________2
 62
     7
 10
126.95699999999999
 20
57.156199999999998
 30
0.0
 11
293.459
 21
57.156199999999998
 31
0.0
  0
ENDSEC
  0
EOF
