  0
SECTION
  2
HEADER
  9
$ACADVER
  1
AC1009
  9
$INSBASE
 10
0.0
 20
0.0
 30
0.0
  9
$EXTMIN
 10
-4.7008599999999987
 20
-21.070999999999991
 30
0.0
  9
$EXTMAX
 10
205.30199999999999
 20
275.93099999999993
 30
0.0
  9
$LIMMIN
 10
0.0
 20
0.0
  9
$LIMMAX
 10
12.0
 20
9.0
  9
$ORTHOMODE
 70
     0
  9
$REGENMODE
 70
     1
  9
$FILLMODE
 70
     1
  9
$QTEXTMODE
 70
     0
  9
$MIRRTEXT
 70
     1
  9
$DRAGMODE
 70
     2
  9
$LTSCALE
 40
1.0
  9
$OSMODE
 70
    37
  9
$ATTMODE
 70
     1
  9
$TEXTSIZE
 40
0.0
  9
$TRACEWID
 40
0.05
  9
$TEXTSTYLE
  7
STANDARD
  9
$CLAYER
  8
0
  9
$CELTYPE
  6
CONTINUOUS
  9
$CECOLOR
 62
   256
  9
$DIMSCALE
 40
1.0
  9
$DIMASZ
 40
0.18
  9
$DIMEXO
 40
0.0625
  9
$DIMDLI
 40
0.38
  9
$DIMRND
 40
0.0
  9
$DIMDLE
 40
0.0
  9
$DIMEXE
 40
0.18
  9
$DIMTP
 40
0.0
  9
$DIMTM
 40
0.0
  9
$DIMTXT
 40
0.18
  9
$DIMCEN
 40
0.09
  9
$DIMTSZ
 40
0.0
  9
$DIMTOL
 70
     0
  9
$DIMLIM
 70
     0
  9
$DIMTIH
 70
     1
  9
$DIMTOH
 70
     1
  9
$DIMSE1
 70
     0
  9
$DIMSE2
 70
     0
  9
$DIMTAD
 70
     0
  9
$DIMZIN
 70
     0
  9
$DIMBLK
  1

  9
$DIMASO
 70
     1
  9
$DIMSHO
 70
     1
  9
$DIMPOST
  1

  9
$DIMAPOST
  1

  9
$DIMALT
 70
     0
  9
$DIMALTD
 70
     2
  9
$DIMALTF
 40
25.399999999999999
  9
$DIMLFAC
 40
1.0
  9
$DIMTOFL
 70
     0
  9
$DIMTVP
 40
0.0
  9
$DIMTIX
 70
     0
  9
$DIMSOXD
 70
     0
  9
$DIMSAH
 70
     0
  9
$DIMBLK1
  1

  9
$DIMBLK2
  1

  9
$DIMSTYLE
  2
STANDARD
  9
$DIMCLRD
 70
     0
  9
$DIMCLRE
 70
     0
  9
$DIMCLRT
 70
     0
  9
$DIMTFAC
 40
1.0
  9
$DIMGAP
 40
0.09
  9
$LUNITS
 70
     2
  9
$LUPREC
 70
     4
  9
$SKETCHINC
 40
0.1
  9
$FILLETRAD
 40
0.0
  9
$AUNITS
 70
     0
  9
$AUPREC
 70
     0
  9
$MENU
  1
.
  9
$ELEVATION
 40
0.0
  9
$PELEVATION
 40
0.0
  9
$THICKNESS
 40
0.0
  9
$LIMCHECK
 70
     0
  9
$BLIPMODE
 70
     0
  9
$CHAMFERA
 40
0.0
  9
$CHAMFERB
 40
0.0
  9
$SKPOLY
 70
     0
  9
$TDCREATE
 40
2444972.375
  9
$TDUPDATE
 40
2456676.249174051
  9
$TDINDWG
 40
0.000012963
  9
$TDUSRTIMER
 40
0.000012963
  9
$USRTIMER
 70
     1
  9
$ANGBASE
 50
0.0
  9
$ANGDIR
 70
     0
  9
$PDMODE
 70
     0
  9
$PDSIZE
 40
0.0
  9
$PLINEWID
 40
0.0
  9
$COORDS
 70
     1
  9
$SPLFRAME
 70
     0
  9
$SPLINETYPE
 70
     6
  9
$SPLINESEGS
 70
     8
  9
$ATTDIA
 70
     0
  9
$ATTREQ
 70
     1
  9
$HANDLING
 70
     1
  9
$HANDSEED
  5
961
  9
$SURFTAB1
 70
     6
  9
$SURFTAB2
 70
     6
  9
$SURFTYPE
 70
     6
  9
$SURFU
 70
     6
  9
$SURFV
 70
     6
  9
$UCSNAME
  2

  9
$UCSORG
 10
0.0
 20
0.0
 30
0.0
  9
$UCSXDIR
 10
1.0
 20
0.0
 30
0.0
  9
$UCSYDIR
 10
0.0
 20
1.0
 30
0.0
  9
$PUCSNAME
  2

  9
$PUCSORG
 10
0.0
 20
0.0
 30
0.0
  9
$PUCSXDIR
 10
1.0
 20
0.0
 30
0.0
  9
$PUCSYDIR
 10
0.0
 20
1.0
 30
0.0
  9
$USERI1
 70
     0
  9
$USERI2
 70
     0
  9
$USERI3
 70
     0
  9
$USERI4
 70
     0
  9
$USERI5
 70
     0
  9
$USERR1
 40
0.0
  9
$USERR2
 40
0.0
  9
$USERR3
 40
0.0
  9
$USERR4
 40
0.0
  9
$USERR5
 40
0.0
  9
$WORLDVIEW
 70
     1
  9
$SHADEDGE
 70
     3
  9
$SHADEDIF
 70
    70
  9
$TILEMODE
 70
     1
  9
$MAXACTVP
 70
    48
  9
$PLIMCHECK
 70
     0
  9
$PEXTMIN
 10
1.0000000000000000E+020
 20
1.0000000000000000E+020
 30
1.0000000000000000E+020
  9
$PEXTMAX
 10
-1.0000000000000000E+020
 20
-1.0000000000000000E+020
 30
-1.0000000000000000E+020
  9
$PLIMMIN
 10
0.0
 20
0.0
  9
$PLIMMAX
 10
12.0
 20
9.0
  9
$UNITMODE
 70
     0
  9
$VISRETAIN
 70
     1
  9
$PLINEGEN
 70
     0
  9
$PSLTSCALE
 70
     1
  0
ENDSEC
  0
SECTION
  2
TABLES
  0
TABLE
  2
VPORT
 70
     2
  0
VPORT
  2
*ACTIVE
 70
     0
 10
0.0
 20
0.0
 11
1.0
 21
1.0
 12
202.00697676956401
 22
127.42999999999989
 13
0.0
 23
0.0
 14
1.0
 24
1.0
 15
0.0
 25
0.0
 16
0.0
 26
0.0
 36
1.0
 17
0.0
 27
0.0
 37
0.0
 40
299.45318569463541
 41
2.2894736842105261
 42
50.0
 43
0.0
 44
0.0
 50
0.0
 51
0.0
 71
     0
 72
   100
 73
     1
 74
     1
 75
     0
 76
     0
 77
     0
 78
     0
  0
ENDTAB
  0
TABLE
  2
LTYPE
 70
     3
  0
LTYPE
  2
CONTINUOUS
 70
     0
  3
Solid line
 72
    65
 73
     0
 40
0.0
  0
LTYPE
  2
AIGENLINE001
 70
     0
  3
generate AI->DXF Converter
 72
    65
 73
     4
 40
5.8561449999999988
 49
3.5278
 49
-0.776115
 49
0.776115
 49
-0.776115
  0
LTYPE
  2
AIGENLINE002
 70
     0
  3
generate AI->DXF Converter
 72
    65
 73
     6
 40
7.4083750000000004
 49
3.5278
 49
-0.776115
 49
0.776115
 49
-0.776115
 49
0.776115
 49
-0.776115
  0
ENDTAB
  0
TABLE
  2
LAYER
 70
     2
  0
LAYER
  2
0
 70
     0
 62
     7
  6
CONTINUOUS
  0
LAYER
  2
_________2
 70
     0
 62
     7
  6
CONTINUOUS
  0
ENDTAB
  0
TABLE
  2
STYLE
 70
     1
  0
STYLE
  2
STANDARD
 70
     0
 40
0.0
 41
0.0
 50
0.0
 71
     0
 42
0.0
  3
TXT
  4
EXTFONT.SHX
  0
ENDTAB
  0
TABLE
  2
VIEW
 70
     0
  0
ENDTAB
  0
TABLE
  2
UCS
 70
     0
  0
ENDTAB
  0
TABLE
  2
APPID
 70
     1
  0
APPID
  2
ACAD
 70
     0
  0
ENDTAB
  0
TABLE
  2
DIMSTYLE
 70
     1
  0
DIMSTYLE
  2
STANDARD
 70
     0
  3

  4

  5

  6

  7

 40
1.0
 41
0.18
 42
0.0625
 43
0.38
 44
0.18
 45
0.0
 46
0.0
 47
0.0
 48
0.0
140
0.18
141
0.09
142
0.0
143
25.399999999999999
144
1.0
145
0.0
146
1.0
147
0.09
 71
     0
 72
     0
 73
     1
 74
     1
 75
     0
 76
     0
 77
     0
 78
     0
170
     0
171
     2
172
     0
173
     0
174
     0
175
     0
176
     0
177
     0
178
     0
  0
ENDTAB
  0
ENDSEC
  0
SECTION
  2
BLOCKS
  0
BLOCK
  8
0
  2
$MODEL_SPACE
 70
     0
 10
0.0
 20
0.0
 30
0.0
  3
$MODEL_SPACE
  1

  0
ENDBLK
  5
1A
  8
0
  0
BLOCK
 67
     1
  8
0
  2
$PAPER_SPACE
 70
     0
 10
0.0
 20
0.0
 30
0.0
  3
$PAPER_SPACE
  1

  0
ENDBLK
  5
17
 67
     1
  8
0
  0
ENDSEC
  0
SECTION
  2
ENTITIES
  0
TEXT
  5
23
  8
0
 62
     7
 10
48.53412500000001
 20
50.203299999999999
 30
0.0
 40
3.0923400000000001
  1
95
 41
0.5
 72
     1
 11
49.822600000000001
 21
50.203299999999999
 31
0.0
  0
TEXT
  5
24
  8
0
 62
     7
 10
54.078699999999991
 20
71.207149999999999
 30
0.0
 40
3.0923400000000001
  1
%%c5
 50
90.0
 41
0.5
 72
     2
 11
54.078699999999991
 21
73.784099999999995
 31
0.0
  0
TEXT
  5
25
  8
0
 62
     7
 10
44.264517999999988
 20
56.262599999999999
 30
0.0
 40
3.0923400000000001
  1
G1 1/4
 41
0.5
 72
     2
 11
51.376899999999999
 21
56.262599999999999
 31
0.0
  0
TEXT
  5
26
  8
0
 62
     7
 10
24.570199999999989
 20
66.799072499999994
 30
0.0
 40
3.0923400000000001
  1
50
 50
90.0
 41
0.5
 72
     1
 11
24.570199999999989
 21
67.958699999999993
 31
0.0
  0
TEXT
  5
27
  8
0
 62
     7
 10
24.238800000000001
 20
75.861122500000008
 30
0.0
 40
3.0923400000000001
  1
max.50
 50
90.0
 41
0.5
 72
     1
 11
24.238800000000001
 21
79.597700000000003
 31
0.0
  0
TEXT
  5
28
  8
0
 62
     7
 10
35.778939999999999
 20
90.834299999999985
 30
0.0
 40
3.0923400000000001
  1
%%c63
 41
0.5
 72
     1
 11
37.840499999999999
 21
90.834299999999985
 31
0.0
  0
TEXT
  5
29
  8
0
 62
     7
 10
20.947299999999991
 20
39.894799999999996
 30
0.0
 40
3.6545800000000002
  1
・国産洗面器とのセットの場合は国産の排水ヘッド部を別途準備してください。
 41
0.5
  0
TEXT
  5
2A
  8
0
 62
     7
 10
55.414900000000003
 20
142.14999999999989
 30
0.0
 40
3.0923400000000001
  1
%%c33
 41
0.5
  0
TEXT
  5
2B
  8
0
 62
     7
 10
94.150199999999998
 20
169.88128750000001
 30
0.0
 40
3.0923400000000001
  1
209
 50
90.0
 41
0.5
 72
     1
 11
94.150199999999998
 21
171.81399999999999
 31
0.0
  0
TEXT
  5
2C
  8
0
 62
     7
 10
159.50200000000001
 20
167.7591349999999
 30
0.0
 40
3.0923400000000001
  1
193
 50
90.0
 41
0.5
 72
     1
 11
159.50200000000001
 21
169.5629999999999
 31
0.0
  0
TEXT
  5
2D
  8
0
 62
     7
 10
105.726
 20
157.18474499999991
 30
0.0
 40
3.0923400000000001
  1
111.5
 50
90.0
 41
0.5
 72
     1
 11
105.726
 21
159.50399999999999
 31
0.0
  0
TEXT
  5
2E
  8
0
 62
     7
 10
99.938199999999995
 20
158.39283
 30
0.0
 40
3.0923400000000001
  1
114
 50
90.0
 41
0.5
 72
     1
 11
99.938199999999995
 21
159.93899999999991
 31
0.0
  0
TEXT
  5
2F
  8
0
 62
     7
 10
128.88613499999991
 20
158.20099999999991
 30
0.0
 40
3.0923400000000001
  1
125
 41
0.5
 72
     1
 11
130.68999999999991
 21
158.20099999999991
 31
0.0
  0
TEXT
  5
30
  8
0
 62
     7
 10
111.2576599999999
 20
162.119
 30
0.0
 40
3.0923400000000001
  1
16%%d
 41
0.5
 72
     2
 11
114.34999999999989
 21
162.119
 31
0.0
  0
TEXT
  5
31
  8
0
 62
     7
 10
154.97587999999999
 20
249.25899999999999
 30
0.0
 40
3.0923400000000001
  1
%%c35
 41
0.5
 72
     2
 11
159.0989999999999
 21
249.25899999999999
 31
0.0
  0
TEXT
  5
32
  8
0
 62
     7
 10
141.88264599999999
 20
228.6049999999999
 30
0.0
 40
3.0923400000000001
  1
水栓取付穴
 41
0.5
 72
     1
 11
146.31499999999991
 21
228.6049999999999
 31
0.0
  0
TEXT
  5
33
  8
0
 62
     7
 10
83.104799999999997
 20
222.4679999999999
 30
0.0
 40
3.0923400000000001
  1
水
 41
0.5
  0
TEXT
  5
34
  8
0
 62
     7
 10
56.342482499999988
 20
218.3829999999999
 30
0.0
 40
3.0923400000000001
  1
50%%d
 41
0.5
 72
     1
 11
58.017499999999998
 21
218.3829999999999
 31
0.0
  0
TEXT
  5
35
  8
0
 62
     7
 10
75.9288825
 20
218.3829999999999
 30
0.0
 40
3.0923400000000001
  1
50%%d
 41
0.5
 72
     1
 11
77.603899999999996
 21
218.3829999999999
 31
0.0
  0
TEXT
  5
36
  8
0
 62
     7
 10
50.32220800000001
 20
222.4679999999999
 30
0.0
 40
3.0923400000000001
  1
湯
 41
0.5
 72
     2
 11
51.765300000000003
 21
222.4679999999999
 31
0.0
  0
TEXT
  5
37
  8
0
 62
     7
 10
126.8674539999999
 20
199.0449999999999
 30
0.0
 40
3.0923400000000001
  1
開
 41
0.5
 72
     1
 11
127.5889999999999
 21
199.0449999999999
 31
0.0
  0
TEXT
  5
38
  8
0
 62
     7
 10
124.507986
 20
187.55399999999989
 30
0.0
 40
3.0923400000000001
  1
閉
 41
0.5
 72
     2
 11
125.848
 21
187.55399999999989
 31
0.0
  0
TEXT
  5
39
  8
0
 62
     7
 10
117.5049999999999
 20
87.102900000000005
 30
0.0
 40
3.0923400000000001
  1
G 3/8
 41
0.5
  0
TEXT
  5
3A
  8
0
 62
     7
 10
133.52600000000001
 20
137.70584500000001
 30
0.0
 40
3.0923400000000001
  1
max.40
 50
90.0
 41
0.5
 72
     2
 11
133.52600000000001
 21
145.179
 31
0.0
  0
TEXT
  5
3B
  8
0
 62
     7
 10
152.83504999999991
 20
86.178200000000004
 30
0.0
 40
3.0923400000000001
  1
%%c5
 41
0.5
 72
     2
 11
155.41200000000001
 21
86.178200000000004
 31
0.0
  0
TEXT
  5
3C
  8
0
 62
     7
 10
105.7329999999999
 20
117.96444
 30
0.0
 40
3.0923400000000001
  1
425
 50
90.0
 41
0.5
 72
     1
 11
105.7329999999999
 21
120.026
 31
0.0
  0
TEXT
  5
3D
  8
0
 62
     7
 10
159.50200000000001
 20
106.2591349999999
 30
0.0
 40
3.0923400000000001
  1
300
 50
90.0
 41
0.5
 72
     1
 11
159.50200000000001
 21
108.0629999999999
 31
0.0
  0
TEXT
  5
3E
  8
0
 62
     7
 10
65.559539999999984
 20
154.52600000000001
 30
0.0
 40
3.0923400000000001
  1
%%c55
 41
0.5
 72
     1
 11
67.621099999999984
 21
154.52600000000001
 31
0.0
  0
TEXT
  5
3F
  8
0
 62
     7
 10
65.159940000000006
 20
159.67299999999989
 30
0.0
 40
3.0923400000000001
  1
%%c43
 41
0.5
 72
     1
 11
67.221500000000006
 21
159.67299999999989
 31
0.0
  0
ARC
  5
40
  8
0
 62
     7
 10
72.663115000000005
 20
152.425127
 30
0.0
 40
0.422066
 50
318.72723100000002
 51
323.41769099999988
  0
ARC
  5
41
  8
0
 62
     7
 10
72.274501000000001
 20
152.7003409999999
 30
0.0
 40
0.898207
 50
324.09438399999988
 51
326.447631
  0
ARC
  5
42
  8
0
 62
     7
 10
72.435986
 20
152.57637700000001
 30
0.0
 40
0.695256
 50
327.60616900000002
 51
330.64967200000001
  0
ARC
  5
43
  8
0
 62
     7
 10
72.483284999999995
 20
152.55068199999991
 30
0.0
 40
0.6414340000000001
 50
330.57934299999999
 51
333.95228199999991
  0
ARC
  5
44
  8
0
 62
     7
 10
72.587932999999992
 20
152.497096
 30
0.0
 40
0.52389
 50
334.19187399999998
 51
338.30914300000001
  0
ARC
  5
45
  8
0
 62
     7
 10
72.363143999999991
 20
152.5977169999999
 30
0.0
 40
0.770022
 50
337.53415899999999
 51
340.39082400000001
  0
ARC
  5
46
  8
0
 62
     7
 10
72.484573999999995
 20
152.5399909999999
 30
0.0
 40
0.6364069999999999
 50
341.61763500000001
 51
345.08215799999988
  0
ARC
  5
47
  8
0
 62
     7
 10
72.626613000000006
 20
152.51671399999989
 30
0.0
 40
0.4933640000000001
 50
343.44763699999999
 51
347.99017500000002
  0
ARC
  5
48
  8
0
 62
     7
 10
72.401628000000002
 20
152.56772000000001
 30
0.0
 40
0.724044
 50
347.74679800000001
 51
350.82695799999988
  0
ARC
  5
49
  8
0
 62
     7
 10
72.710930000000005
 20
152.52592899999991
 30
0.0
 40
0.4121140000000001
 50
349.70761599999997
 51
355.16952900000001
  0
ARC
  5
4A
  8
0
 62
     7
 10
72.523488
 20
152.552931
 30
0.0
 40
0.601267
 50
354.10962699999999
 51
357.86202200000002
  0
ARC
  5
4B
  8
0
 62
     7
 10
72.439196999999993
 20
152.568196
 30
0.0
 40
0.6861760000000001
 50
356.85078399999992
 51
0.160549
  0
ARC
  5
4C
  8
0
 62
     7
 10
72.224983999999992
 20
152.55030300000001
 30
0.0
 40
0.900604
 50
1.2607600000000001
 51
3.7619660000000001
  0
ARC
  5
4D
  8
0
 62
     7
 10
72.528334999999998
 20
152.57696100000001
 30
0.0
 40
0.596195
 50
3.1183419999999988
 51
6.9078839999999984
  0
ARC
  5
4E
  8
0
 62
     7
 10
72.569143999999994
 20
152.589631
 30
0.0
 40
0.5542120000000002
 50
6.114914999999999
 51
10.145288000000001
  0
ARC
  5
4F
  8
0
 62
     7
 10
72.441462000000001
 20
152.56316799999999
 30
0.0
 40
0.6845680000000001
 50
10.443146999999991
 51
13.746364
  0
ARC
  5
50
  8
0
 62
     7
 10
72.538229999999999
 20
152.59838300000001
 30
0.0
 40
0.5823120000000001
 50
12.643112
 51
16.425795000000001
  0
ARC
  5
51
  8
0
 62
     7
 10
69.190794999999994
 20
151.469401
 30
0.0
 40
4.1146320000000003
 50
18.324645999999991
 51
18.866232
  0
ARC
  5
52
  8
0
 62
     7
 10
72.498463999999998
 20
152.5927889999999
 30
0.0
 40
0.62144
 50
19.468538999999989
 51
22.978768999999989
  0
ARC
  5
53
  8
0
 62
     7
 10
70.249611999999985
 20
151.48870700000001
 30
0.0
 40
3.1259389999999989
 50
25.518977
 51
26.213730999999999
  0
ARC
  5
54
  8
0
 62
     7
 10
72.534424000000001
 20
152.6116199999999
 30
0.0
 40
0.5801029999999999
 50
26.394005
 51
30.063541000000001
  0
ARC
  5
55
  8
0
 62
     7
 10
72.566365000000005
 20
152.629582
 30
0.0
 40
0.543461
 50
30.111525
 51
34.012354999999999
  0
ARC
  5
56
  8
0
 62
     7
 10
72.272281000000007
 20
152.41930999999991
 30
0.0
 40
0.9049049999999999
 50
34.632573999999991
 51
36.945365000000002
  0
ARC
  5
57
  8
0
 62
     7
 10
72.622062
 20
152.67440999999999
 30
0.0
 40
0.4720710000000001
 50
37.717201000000003
 51
40.630107000000002
  0
LINE
  5
58
  8
0
 62
     7
 10
72.9803
 20
152.99799999999991
 30
0.0
 11
72.981399999999994
 21
152.99700000000001
 31
0.0
  0
ARC
  5
59
  8
0
 62
     7
 10
72.653083999999993
 20
152.68296199999989
 30
0.0
 40
0.454516
 50
39.234555
 51
43.758372999999992
  0
ARC
  5
5A
  8
0
 62
     7
 10
72.717596
 20
152.72370599999999
 30
0.0
 40
0.378889
 50
35.023941999999991
 51
40.632626000000002
  0
ARC
  5
5B
  8
0
 62
     7
 10
72.632823999999999
 20
152.64318399999999
 30
0.0
 40
0.4948260000000001
 50
32.698259999999998
 51
37.026123999999989
  0
ARC
  5
5C
  8
0
 62
     7
 10
71.049326000000008
 20
151.74007800000001
 30
0.0
 40
2.3172189999999988
 50
29.414256999999989
 51
30.337720999999998
  0
ARC
  5
5D
  8
0
 62
     7
 10
72.631730000000005
 20
152.63433299999991
 30
0.0
 40
0.4996170000000001
 50
24.857016000000002
 51
29.204698999999991
  0
ARC
  5
5E
  8
0
 62
     7
 10
72.537301999999997
 20
152.587222
 30
0.0
 40
0.605108
 50
21.521889999999988
 51
25.146187000000001
  0
ARC
  5
5F
  8
0
 62
     7
 10
72.527116000000007
 20
152.581345
 30
0.0
 40
0.6167430000000002
 50
18.108207
 51
21.682651
  0
ARC
  5
60
  8
0
 62
     7
 10
72.576641000000009
 20
152.59508700000001
 30
0.0
 40
0.5654040000000001
 50
14.377706
 51
18.344445999999991
  0
ARC
  5
61
  8
0
 62
     7
 10
72.579762000000002
 20
152.5857419999999
 30
0.0
 40
0.5647870000000002
 50
11.457608999999991
 51
15.374755
  0
ARC
  5
62
  8
0
 62
     7
 10
72.468190000000007
 20
152.57124999999999
 30
0.0
 40
0.677061
 50
7.4763700000000002
 51
10.783981000000001
  0
ARC
  5
63
  8
0
 62
     7
 10
72.527129000000002
 20
152.563715
 30
0.0
 40
0.619788
 50
5.2491250000000003
 51
8.8760789999999972
  0
LINE
  5
64
  8
0
 62
     7
 10
73.144300000000001
 20
152.62
 30
0.0
 11
73.1464
 21
152.58099999999999
 31
0.0
  0
ARC
  5
65
  8
0
 62
     7
 10
71.100212999999997
 20
152.57945299999989
 30
0.0
 40
2.046173
 50
358.94752
 51
0.047317
  0
ARC
  5
66
  8
0
 62
     7
 10
72.608113000000003
 20
152.55565200000001
 30
0.0
 40
0.5381040000000001
 50
354.37823800000001
 51
358.53223000000003
  0
ARC
  5
67
  8
0
 62
     7
 10
72.165384000000003
 20
152.60437400000001
 30
0.0
 40
0.9834899999999999
 50
351.79467299999988
 51
354.08012300000001
  0
ARC
  5
68
  8
0
 62
     7
 10
72.696294999999992
 20
152.524
 30
0.0
 40
0.4465590000000001
 50
347.29249399999992
 51
352.279562
  0
ARC
  5
69
  8
0
 62
     7
 10
72.705396999999991
 20
152.50657499999991
 30
0.0
 40
0.4341060000000001
 50
344.13077199999998
 51
349.27208999999999
  0
ARC
  5
6A
  8
0
 62
     7
 10
72.713185999999993
 20
152.490341
 30
0.0
 40
0.42239
 50
340.73942699999992
 51
345.96036600000002
  0
ARC
  5
6B
  8
0
 62
     7
 10
72.298364000000007
 20
152.62796900000001
 30
0.0
 40
0.85942
 50
338.656814
 51
341.20013899999998
  0
ARC
  5
6C
  8
0
 62
     7
 10
72.212305000000001
 20
152.6806949999999
 30
0.0
 40
0.958932
 50
335.32601599999998
 51
337.59390999999999
  0
ARC
  5
6D
  8
0
 62
     7
 10
72.420249999999996
 20
152.60418799999999
 30
0.0
 40
0.738237
 50
331.03003799999999
 51
333.98429399999998
  0
ARC
  5
6E
  8
0
 62
     7
 10
72.639673000000002
 20
152.48004800000001
 30
0.0
 40
0.486148
 50
326.95134400000001
 51
331.30449599999992
  0
ARC
  5
6F
  8
0
 62
     7
 10
71.955999000000006
 20
152.94027299999991
 30
0.0
 40
1.310255999999999
 50
324.7607549999999
 51
326.38629900000001
  0
ARC
  5
70
  8
0
 62
     7
 10
72.308185999999992
 20
152.72346099999999
 30
0.0
 40
0.8978889999999999
 50
320.77547199999998
 51
323.09323399999988
  0
ARC
  5
71
  8
0
 62
     7
 10
72.234339000000006
 20
152.82973699999999
 30
0.0
 40
1.022921999999999
 50
316.82563299999993
 51
318.77927899999997
  0
ARC
  5
72
  8
0
 62
     7
 10
150.27279300000001
 20
152.58872600000001
 30
0.0
 40
0.8463450000000001
 50
180.07021399999999
 51
206.94020099999989
  0
ARC
  5
73
  8
0
 62
     7
 10
150.03517699999989
 20
152.48090999999999
 30
0.0
 40
0.5857820000000001
 50
208.068884
 51
233.62535399999999
  0
ARC
  5
74
  8
0
 62
     7
 10
149.91410300000001
 20
152.33419499999999
 30
0.0
 40
0.395987
 50
235.1408779999999
 51
268.87877400000002
  0
ARC
  5
75
  8
0
 62
     7
 10
150.27279300000001
 20
155.28848500000001
 30
0.0
 40
0.8463450000000001
 50
153.05979899999991
 51
179.92978600000001
  0
ARC
  5
76
  8
0
 62
     7
 10
150.03517699999989
 20
155.39630099999991
 30
0.0
 40
0.5857820000000001
 50
126.3746459999999
 51
151.93111599999989
  0
ARC
  5
77
  8
0
 62
     7
 10
149.91410300000001
 20
155.543015
 30
0.0
 40
0.395987
 50
91.121226000000007
 51
124.859122
  0
ARC
  5
78
  8
0
 62
     7
 10
149.90472199999999
 20
155.55816799999991
 30
0.0
 40
0.380762
 50
48.873932000000003
 51
89.754437999999993
  0
ARC
  5
79
  8
0
 62
     7
 10
149.78898499999991
 20
155.405236
 30
0.0
 40
0.57224
 50
22.737414999999991
 51
50.21627999999999
  0
ARC
  5
7A
  8
0
 62
     7
 10
149.579499
 20
155.29868999999999
 30
0.0
 40
0.806812
 50
359.34889800000002
 51
23.965893999999992
  0
ARC
  5
7B
  8
0
 62
     7
 10
151.794859
 20
152.56523000000001
 30
0.0
 40
0.820391
 50
333.03722499999992
 51
359.92035800000002
  0
ARC
  5
7C
  8
0
 62
     7
 10
152.0278219999999
 20
152.45902899999999
 30
0.0
 40
0.5647050000000001
 50
304.9661759999999
 51
331.92398300000002
  0
ARC
  5
7D
  8
0
 62
     7
 10
152.14321000000001
 20
152.31398799999999
 30
0.0
 40
0.379889
 50
270.94424900000001
 51
303.24105099999991
  0
ARC
  5
7E
  8
0
 62
     7
 10
152.151151
 20
152.303764
 30
0.0
 40
0.369618
 50
228.87540899999991
 51
269.73947799999991
  0
ARC
  5
7F
  8
0
 62
     7
 10
152.26661699999991
 20
152.45508100000001
 30
0.0
 40
0.559685
 50
202.1632929999999
 51
230.15947700000001
  0
ARC
  5
80
  8
0
 62
     7
 10
152.4685419999999
 20
152.555858
 30
0.0
 40
0.784896
 50
179.39904300000001
 51
203.41565099999991
  0
ARC
  5
81
  8
0
 62
     7
 10
152.50327699999991
 20
152.562952
 30
0.0
 40
0.8195879999999998
 50
153.00881799999991
 51
179.92042299999989
  0
ARC
  5
82
  8
0
 62
     7
 10
152.27133000000001
 20
152.668959
 30
0.0
 40
0.5648970000000001
 50
124.960205
 51
151.91238300000001
  0
ARC
  5
83
  8
0
 62
     7
 10
152.155823
 20
152.81439399999991
 30
0.0
 40
0.379689
 50
90.958793999999983
 51
123.250506
  0
ARC
  5
84
  8
0
 62
     7
 10
152.147786
 20
152.82400599999991
 30
0.0
 40
0.370027
 50
48.899163999999999
 51
89.739319999999992
  0
ARC
  5
85
  8
0
 62
     7
 10
152.032567
 20
152.67334600000001
 30
0.0
 40
0.5594350000000001
 50
22.146367999999999
 51
50.150607999999998
  0
ARC
  5
86
  8
0
 62
     7
 10
151.82968600000001
 20
152.57234800000001
 30
0.0
 40
0.7856069999999999
 50
359.397693
 51
23.391079999999999
  0
LINE
  5
87
  8
0
 62
     7
 10
149.42599999999999
 20
153.1879999999999
 30
0.0
 11
152.149
 21
153.1879999999999
 31
0.0
  0
LINE
  5
88
  8
0
 62
     7
 10
149.90600000000001
 20
151.9379999999999
 30
0.0
 11
152.149
 21
151.9379999999999
 31
0.0
  0
LINE
  5
89
  8
0
 62
     7
 10
149.42599999999999
 20
152.56
 30
0.0
 11
149.42599999999999
 21
155.2939999999999
 31
0.0
  0
LINE
  5
8A
  8
0
 62
     7
 10
150.38900000000001
 20
155.31
 30
0.0
 11
150.38900000000001
 21
153.1879999999999
 31
0.0
  0
ARC
  5
8B
  8
0
 62
     7
 10
67.605257999999992
 20
241.28636800000001
 30
0.0
 40
5.3750730000000004
 50
270.00002000000001
 51
359.99998999999991
  0
ARC
  5
8C
  8
0
 62
     7
 10
67.605257999999992
 20
241.28636599999999
 30
0.0
 40
5.3750710000000002
 50
179.99996999999991
 51
270.00002000000001
  0
ARC
  5
8D
  8
0
 62
     7
 10
67.605260000000001
 20
241.28636599999999
 30
0.0
 40
5.3750730000000004
 50
90.0
 51
179.99996999999991
  0
ARC
  5
8E
  8
0
 62
     7
 10
67.605257999999992
 20
241.28636599999999
 30
0.0
 40
5.3750730000000004
 50
0.00001
 51
89.999980000000008
  0
LINE
  5
8F
  8
0
 62
     7
 10
67.605400000000003
 20
145.56299999999999
 30
0.0
 11
67.605400000000003
 21
146.3129999999999
 31
0.0
  0
LINE
  5
90
  8
0
 62
     7
 10
67.605400000000003
 20
146.3129999999999
 30
0.0
 11
67.605400000000003
 21
145.56299999999999
 31
0.0
  0
LINE
  5
91
  8
0
 62
     7
 10
61.085000000000001
 20
65.407600000000002
 30
0.0
 11
60.579799999999999
 21
66.282700000000006
 31
0.0
  0
LINE
  5
92
  8
0
 62
     7
 10
60.579799999999999
 20
66.282700000000006
 30
0.0
 11
61.085000000000001
 21
67.157700000000006
 31
0.0
  0
LINE
  5
93
  8
0
 62
     7
 10
61.085000000000001
 20
67.157700000000006
 30
0.0
 11
62.095100000000002
 21
67.157700000000006
 31
0.0
  0
LINE
  5
94
  8
0
 62
     7
 10
62.095100000000002
 20
67.157700000000006
 30
0.0
 11
62.600200000000001
 21
66.282700000000006
 31
0.0
  0
LINE
  5
95
  8
0
 62
     7
 10
62.600200000000001
 20
66.282700000000006
 30
0.0
 11
62.095100000000002
 21
65.407600000000002
 31
0.0
  0
LINE
  5
96
  8
0
 62
     7
 10
62.095100000000002
 20
65.407600000000002
 30
0.0
 11
61.085000000000001
 21
65.407600000000002
 31
0.0
  0
ARC
  5
97
  8
0
 62
     7
 10
61.590772999999992
 20
66.283366999999998
 30
0.0
 40
0.7155510000000001
 50
270.00002000000001
 51
359.99998999999991
  0
ARC
  5
98
  8
0
 62
     7
 10
61.61826099999999
 20
66.310497999999995
 30
0.0
 40
0.7431900000000001
 50
182.09209799999999
 51
267.88033999999999
  0
ARC
  5
99
  8
0
 62
     7
 10
61.617888000000001
 20
66.255893999999984
 30
0.0
 40
0.7428300000000001
 50
92.091899999999995
 51
177.8804639999999
  0
ARC
  5
9A
  8
0
 62
     7
 10
61.591116999999997
 20
66.283023
 30
0.0
 40
0.715207
 50
0.027609
 51
90.027579000000003
  0
ARC
  5
9B
  8
0
 62
     7
 10
60.305694999999993
 20
66.254656999999995
 30
0.0
 40
2.785229999999999
 50
0.5906100000000001
 51
24.474432999999991
  0
ARC
  5
9C
  8
0
 62
     7
 10
60.425122999999999
 20
66.285528999999997
 30
0.0
 40
2.6656550000000001
 50
334.98143099999987
 51
359.95352700000001
  0
LINE
  5
9D
  8
0
 62
     7
 10
59.590499999999999
 20
66.2834
 30
0.0
 11
59.590499999999999
 21
65.9602
 31
0.0
  0
LINE
  5
9E
  8
0
 62
     7
 10
61.186
 20
65.693899999999999
 30
0.0
 11
62.179900000000004
 21
66.688199999999995
 31
0.0
  0
LINE
  5
9F
  8
0
 62
     7
 10
61.0017
 20
65.877499999999984
 30
0.0
 11
61.996299999999991
 21
66.872500000000002
 31
0.0
  0
LINE
  5
A0
  8
0
 62
     7
 10
59.590499999999999
 20
66.605800000000002
 30
0.0
 11
59.590499999999999
 21
66.2834
 31
0.0
  0
LINE
  5
A1
  8
0
 62
     7
 10
60.530000000000001
 20
65.158199999999994
 30
0.0
 11
62.840699999999991
 21
65.158199999999994
 31
0.0
  0
LINE
  5
A2
  8
0
 62
     7
 10
60.183100000000003
 20
65.262900000000002
 30
0.0
 11
59.7483
 21
65.552999999999983
 31
0.0
  0
ARC
  5
A3
  8
0
 62
     7
 10
60.531455000000001
 20
65.789897999999994
 30
0.0
 40
0.6317080000000001
 50
236.533289
 51
269.86999100000003
  0
ARC
  5
A4
  8
0
 62
     7
 10
59.400590999999999
 20
65.032211000000004
 30
0.0
 40
0.626212
 50
56.268890999999989
 51
89.925882999999985
  0
LINE
  5
A5
  8
0
  6
AIGENLINE001
 62
     7
 10
61.590800000000002
 20
64.658600000000007
 30
0.0
 11
61.590800000000002
 21
67.894999999999996
 31
0.0
  0
LINE
  5
A6
  8
0
 62
     7
 10
60.530000000000001
 20
67.408500000000004
 30
0.0
 11
62.840699999999991
 21
67.408500000000004
 31
0.0
  0
LINE
  5
A7
  8
0
 62
     7
 10
60.183100000000003
 20
67.303100000000001
 30
0.0
 11
59.7483
 21
67.013000000000005
 31
0.0
  0
ARC
  5
A8
  8
0
 62
     7
 10
60.531064000000001
 20
66.781565000000001
 30
0.0
 40
0.6269779999999999
 50
90.095256999999975
 51
123.709929
  0
ARC
  5
A9
  8
0
 62
     7
 10
59.400373999999999
 20
67.538669999999996
 30
0.0
 40
0.6303600000000001
 50
270.09333800000002
 51
303.503422
  0
ARC
  5
AA
  8
0
 62
     7
 10
39.066966999999991
 20
76.652799999999999
 30
0.0
 40
0.649124
 50
272.09640799999988
 51
357.90360199999992
  0
ARC
  5
AB
  8
0
 62
     7
 10
36.614671000000001
 20
76.653148000000002
 30
0.0
 40
0.6494720000000001
 50
182.12606099999999
 51
267.90554500000002
  0
ARC
  5
AC
  8
0
 62
     7
 10
39.066980999999991
 20
78.355085000000003
 30
0.0
 40
0.6491220000000001
 50
2.1267089999999991
 51
87.904875000000004
  0
ARC
  5
AD
  8
0
 62
     7
 10
36.614395000000002
 20
78.354997999999995
 30
0.0
 40
0.649199
 50
92.070957000000007
 51
177.86584199999999
  0
LINE
  5
AE
  8
0
 62
     7
 10
40.051600000000001
 20
50.088200000000001
 30
0.0
 11
37.840499999999999
 21
49.496000000000002
 31
0.0
  0
LINE
  5
AF
  8
0
 62
     7
 10
37.840499999999999
 20
49.496000000000002
 30
0.0
 11
40.051600000000001
 21
48.903799999999997
 31
0.0
  0
LINE
  5
B0
  8
0
 62
     7
 10
40.051600000000001
 20
48.903799999999997
 30
0.0
 11
40.051600000000001
 21
50.088200000000001
 31
0.0
  0
LINE
  5
B1
  8
0
 62
     7
 10
59.380000000000003
 20
48.918300000000002
 30
0.0
 11
61.590800000000002
 21
49.510100000000001
 31
0.0
  0
LINE
  5
B2
  8
0
 62
     7
 10
61.590800000000002
 20
49.510100000000001
 30
0.0
 11
59.380000000000003
 21
50.102699999999999
 31
0.0
  0
LINE
  5
B3
  8
0
 62
     7
 10
59.380000000000003
 20
50.102699999999999
 30
0.0
 11
59.380000000000003
 21
48.918300000000002
 31
0.0
  0
LINE
  5
B4
  8
0
 62
     7
 10
37.867400000000004
 20
49.5032
 30
0.0
 11
61.563899999999997
 21
49.5032
 31
0.0
  0
LINE
  5
B5
  8
0
 62
     7
 10
61.590800000000002
 20
64.196299999999994
 30
0.0
 11
61.590800000000002
 21
48.634700000000002
 31
0.0
  0
LINE
  5
B6
  8
0
 62
     7
 10
42.542400000000001
 20
55.5625
 30
0.0
 11
51.376899999999999
 21
55.5625
 31
0.0
  0
LINE
  5
B7
  8
0
 62
     7
 10
35.350700000000003
 20
56.147500000000001
 30
0.0
 11
33.140700000000002
 21
55.555599999999991
 31
0.0
  0
LINE
  5
B8
  8
0
 62
     7
 10
33.140700000000002
 20
55.555599999999991
 30
0.0
 11
35.350700000000003
 21
54.963099999999997
 31
0.0
  0
LINE
  5
B9
  8
0
 62
     7
 10
35.350700000000003
 20
54.963099999999997
 30
0.0
 11
35.350700000000003
 21
56.147500000000001
 31
0.0
  0
LINE
  5
BA
  8
0
 62
     7
 10
40.331299999999992
 20
54.977899999999998
 30
0.0
 11
42.542400000000001
 21
55.570099999999996
 31
0.0
  0
LINE
  5
BB
  8
0
 62
     7
 10
42.542400000000001
 20
55.570099999999996
 30
0.0
 11
40.331299999999992
 21
56.162599999999998
 31
0.0
  0
LINE
  5
BC
  8
0
 62
     7
 10
40.331299999999992
 20
56.162599999999998
 30
0.0
 11
40.331299999999992
 21
54.977899999999998
 31
0.0
  0
LINE
  5
BD
  8
0
 62
     7
 10
33.167200000000001
 20
55.5625
 30
0.0
 11
42.514799999999987
 21
55.5625
 31
0.0
  0
LINE
  5
BE
  8
0
 62
     7
 10
33.140700000000002
 20
61.3658
 30
0.0
 11
33.140700000000002
 21
54.9114
 31
0.0
  0
LINE
  5
BF
  8
0
 62
     7
 10
42.542400000000001
 20
61.3658
 30
0.0
 11
42.542400000000001
 21
54.982300000000002
 31
0.0
  0
LINE
  5
C0
  8
0
 62
     7
 10
25.855899999999991
 20
82.144999999999996
 30
0.0
 11
25.263400000000001
 21
84.355400000000003
 31
0.0
  0
LINE
  5
C1
  8
0
 62
     7
 10
25.263400000000001
 20
84.355400000000003
 30
0.0
 11
24.6708
 21
82.144999999999996
 31
0.0
  0
LINE
  5
C2
  8
0
 62
     7
 10
24.6708
 20
82.144999999999996
 30
0.0
 11
25.855899999999991
 21
82.144999999999996
 31
0.0
  0
LINE
  5
C3
  8
0
 62
     7
 10
24.685300000000002
 20
76.566000000000003
 30
0.0
 11
25.277899999999988
 21
74.355599999999995
 31
0.0
  0
LINE
  5
C4
  8
0
 62
     7
 10
25.277899999999988
 20
74.355599999999995
 30
0.0
 11
25.8704
 21
76.566000000000003
 31
0.0
  0
LINE
  5
C5
  8
0
 62
     7
 10
25.8704
 20
76.566000000000003
 30
0.0
 11
24.685300000000002
 21
76.566000000000003
 31
0.0
  0
LINE
  5
C6
  8
0
 62
     7
 10
25.270299999999992
 20
84.355400000000003
 30
0.0
 11
25.270299999999992
 21
74.355599999999995
 31
0.0
  0
LINE
  5
C7
  8
0
 62
     7
 10
25.855899999999991
 20
72.144499999999994
 30
0.0
 11
25.263400000000001
 21
74.355599999999995
 31
0.0
  0
LINE
  5
C8
  8
0
 62
     7
 10
25.263400000000001
 20
74.355599999999995
 30
0.0
 11
24.6708
 21
72.144499999999994
 31
0.0
  0
LINE
  5
C9
  8
0
 62
     7
 10
24.6708
 20
72.144499999999994
 30
0.0
 11
25.855899999999991
 21
72.144499999999994
 31
0.0
  0
LINE
  5
CA
  8
0
 62
     7
 10
24.685300000000002
 20
64.065399999999997
 30
0.0
 11
25.277899999999988
 21
61.855400000000003
 31
0.0
  0
LINE
  5
CB
  8
0
 62
     7
 10
25.277899999999988
 20
61.855400000000003
 30
0.0
 11
25.8704
 21
64.065399999999997
 31
0.0
  0
LINE
  5
CC
  8
0
 62
     7
 10
25.8704
 20
64.065399999999997
 30
0.0
 11
24.685300000000002
 21
64.065399999999997
 31
0.0
  0
LINE
  5
CD
  8
0
 62
     7
 10
25.270299999999992
 20
74.382099999999994
 30
0.0
 11
25.270299999999992
 21
61.855400000000003
 31
0.0
  0
LINE
  5
CE
  8
0
 62
     7
 10
32.386200000000002
 20
61.855400000000003
 30
0.0
 11
24.842099999999999
 21
61.855400000000003
 31
0.0
  0
LINE
  5
CF
  8
0
 62
     7
 10
29.702400000000001
 20
74.355599999999995
 30
0.0
 11
24.842099999999999
 21
74.355599999999995
 31
0.0
  0
LINE
  5
D0
  8
0
 62
     7
 10
29.605999999999991
 20
84.355400000000003
 30
0.0
 11
24.838599999999989
 21
84.355400000000003
 31
0.0
  0
LINE
  5
D1
  8
0
 62
     7
 10
45.703299999999999
 20
84.047099999999986
 30
0.0
 11
45.703299999999999
 21
83.921299999999988
 31
0.0
  0
ARC
  5
D2
  8
0
 62
     7
 10
48.709111
 20
67.852800999999999
 30
0.0
 40
6.4901419999999987
 50
197.78928099999999
 51
204.77076700000001
  0
ARC
  5
D3
  8
0
 62
     7
 10
45.050753
 20
66.173528000000005
 30
0.0
 40
2.4648020000000002
 50
204.957773
 51
213.30690599999991
  0
ARC
  5
D4
  8
0
 62
     7
 10
43.50644299999999
 20
65.168738000000005
 30
0.0
 40
0.6224600000000001
 50
214.068341
 51
227.383218
  0
ARC
  5
D5
  8
0
 62
     7
 10
45.417881000000001
 20
66.681849999999997
 30
0.0
 40
2.8333200000000001
 50
149.50595100000001
 51
156.595429
  0
ARC
  5
D6
  8
0
 62
     7
 10
47.411862999999997
 20
65.787144999999995
 30
0.0
 40
5.0187239999999989
 50
156.26389
 51
168.98905500000001
  0
LINE
  5
D7
  8
0
 62
     7
 10
49.9621
 20
68.806899999999999
 30
0.0
 11
49.381599999999992
 21
68.806899999999999
 31
0.0
  0
LINE
  5
D8
  8
0
 62
     7
 10
48.025300000000001
 20
63.853200000000001
 30
0.0
 11
47.13989999999999
 21
63.853200000000001
 31
0.0
  0
LINE
  5
D9
  8
0
 62
     7
 10
49.971800000000002
 20
63.853200000000001
 30
0.0
 11
49.448099999999997
 21
63.853200000000001
 31
0.0
  0
ARC
  5
DA
  8
0
 62
     7
 10
48.712904999999999
 20
63.750655000000002
 30
0.0
 40
1.087485
 50
72.843935000000002
 51
90.017119999999991
  0
ARC
  5
DB
  8
0
 62
     7
 10
48.808574
 20
64.133623
 30
0.0
 40
0.6936720000000001
 50
13.613713000000001
 51
71.063345999999996
  0
ARC
  5
DC
  8
0
 62
     7
 10
48.364846
 20
64.007513000000003
 30
0.0
 40
1.1547590000000001
 50
358.99189899999999
 51
14.513051000000001
  0
ARC
  5
DD
  8
0
 62
     7
 10
49.426380999999992
 20
63.987538000000001
 30
0.0
 40
0.093046
 50
342.149472
 51
359.78951699999999
  0
ARC
  5
DE
  8
0
 62
     7
 10
49.326292000000002
 20
64.017921000000001
 30
0.0
 40
0.197638
 50
328.49621000000002
 51
342.65988399999998
  0
ARC
  5
DF
  8
0
 62
     7
 10
49.151702
 20
64.122506999999999
 30
0.0
 40
0.401152
 50
318.40560399999998
 51
328.79078500000003
  0
ARC
  5
E0
  8
0
 62
     7
 10
48.866646000000003
 20
64.375497999999993
 30
0.0
 40
0.782284
 50
303.42672999999991
 51
318.40798899999999
  0
ARC
  5
E1
  8
0
 62
     7
 10
48.658366000000001
 20
64.658405999999985
 30
0.0
 40
1.133273999999999
 50
271.55672900000002
 51
304.33594099999988
  0
ARC
  5
E2
  8
0
 62
     7
 10
48.690360999999989
 20
64.311541000000005
 30
0.0
 40
0.7859910000000001
 50
241.00249400000001
 51
269.911993
  0
ARC
  5
E3
  8
0
 62
     7
 10
48.761991000000002
 20
64.472064000000003
 30
0.0
 40
0.9612350000000001
 50
215.114507
 51
241.90654900000001
  0
ARC
  5
E4
  8
0
 62
     7
 10
48.29892199999999
 20
64.135894999999991
 30
0.0
 40
0.38917
 50
202.74580800000001
 51
213.84463599999989
  0
ARC
  5
E5
  8
0
 62
     7
 10
48.060898000000002
 20
64.039085
 30
0.0
 40
0.132255
 50
182.92878400000001
 51
203.93683899999991
  0
ARC
  5
E6
  8
0
 62
     7
 10
49.355798
 20
64.033152999999999
 30
0.0
 40
1.4269819999999991
 50
170.47058200000001
 51
180.03314499999991
  0
ARC
  5
E7
  8
0
 62
     7
 10
48.744711000000002
 20
64.129773999999983
 30
0.0
 40
0.8083529999999999
 50
147.79704399999989
 51
170.05381199999999
  0
ARC
  5
E8
  8
0
 62
     7
 10
48.537430999999991
 20
64.236525
 30
0.0
 40
0.576422
 50
110.4855219999999
 51
145.795312
  0
ARC
  5
E9
  8
0
 62
     7
 10
48.642621000000013
 20
63.983406000000002
 30
0.0
 40
0.8504049999999999
 50
96.083977000000004
 51
111.1561449999999
  0
ARC
  5
EA
  8
0
 62
     7
 10
48.707127
 20
63.524041000000011
 30
0.0
 40
1.314111
 50
89.762221999999994
 51
96.757883999999976
  0
ARC
  5
EB
  8
0
 62
     7
 10
48.643917999999992
 20
66.704546999999991
 30
0.0
 40
2.2580879999999999
 50
78.397193000000001
 51
90.006095000000016
  0
ARC
  5
EC
  8
0
 62
     7
 10
48.870092
 20
67.851567000000003
 30
0.0
 40
1.089054999999999
 50
65.057977000000008
 51
77.916147999999993
  0
ARC
  5
ED
  8
0
 62
     7
 10
49.171436999999997
 20
68.511049
 30
0.0
 40
0.364035
 50
42.66122399999999
 51
64.292474999999996
  0
ARC
  5
EE
  8
0
 62
     7
 10
49.341956000000003
 20
68.676045000000002
 30
0.0
 40
0.12696
 50
2.6241650000000001
 51
40.052083000000003
  0
ARC
  5
EF
  8
0
 62
     7
 10
47.896858999999999
 20
68.681197999999995
 30
0.0
 40
1.571925
 50
346.05372699999992
 51
0.024032
  0
ARC
  5
F0
  8
0
 62
     7
 10
48.489192000000003
 20
68.551039000000003
 30
0.0
 40
0.965822
 50
325.63290999999992
 51
345.07856800000002
  0
ARC
  5
F1
  8
0
 62
     7
 10
48.722850999999999
 20
68.41407199999999
 30
0.0
 40
0.6958890000000001
 50
269.15435599999989
 51
324.08148699999998
  0
ARC
  5
F2
  8
0
 62
     7
 10
48.721350999999999
 20
68.495497
 30
0.0
 40
0.777288
 50
211.06153499999999
 51
269.35343699999999
  0
ARC
  5
F3
  8
0
 62
     7
 10
48.944922999999989
 20
68.641593999999998
 30
0.0
 40
1.0442279999999999
 50
184.71370200000001
 51
211.5989689999999
  0
ARC
  5
F4
  8
0
 62
     7
 10
49.335006
 20
68.708623000000003
 30
0.0
 40
1.4389199999999991
 50
179.92712900000001
 51
186.097399
  0
ARC
  5
F5
  8
0
 62
     7
 10
47.97819299999999
 20
68.709936999999996
 30
0.0
 40
0.082107
 50
139.46668799999989
 51
179.64008699999999
  0
ARC
  5
F6
  8
0
 62
     7
 10
48.074787999999998
 20
68.643283999999994
 30
0.0
 40
0.199208
 50
128.46028599999991
 51
142.9543229999999
  0
ARC
  5
F7
  8
0
 62
     7
 10
48.190348
 20
68.500507999999996
 30
0.0
 40
0.382886
 50
118.629464
 51
128.71251000000001
  0
ARC
  5
F8
  8
0
 62
     7
 10
48.330427
 20
68.245868999999985
 30
0.0
 40
0.673511
 50
110.70306100000001
 51
118.70975900000001
  0
ARC
  5
F9
  8
0
 62
     7
 10
48.508623
 20
67.770530000000008
 30
0.0
 40
1.1811519999999991
 50
98.166961000000015
 51
110.63730700000001
  0
ARC
  5
FA
  8
0
 62
     7
 10
48.634259999999998
 20
67.075761999999997
 30
0.0
 40
1.886897
 50
89.71400899999999
 51
98.946302000000017
  0
ARC
  5
FB
  8
0
 62
     7
 10
48.711360999999997
 20
66.847346999999985
 30
0.0
 40
0.5939250000000002
 50
57.308112999999999
 51
89.88238299999999
  0
ARC
  5
FC
  8
0
 62
     7
 10
48.598977000000012
 20
66.655195999999989
 30
0.0
 40
0.81639
 50
34.731171000000003
 51
57.954056999999992
  0
ARC
  5
FD
  8
0
 62
     7
 10
48.284680999999999
 20
66.414107000000001
 30
0.0
 40
1.2121939999999991
 50
11.779745999999999
 51
35.632688999999999
  0
ARC
  5
FE
  8
0
 62
     7
 10
47.961008
 20
66.317102000000006
 30
0.0
 40
1.5491239999999991
 50
359.83536800000002
 51
12.848119000000001
  0
ARC
  5
FF
  8
0
 62
     7
 10
47.975780999999991
 20
66.313342000000006
 30
0.0
 40
1.5343439999999999
 50
335.68739099999999
 51
359.97420099999988
  0
ARC
  5
100
  8
0
 62
     7
 10
48.423394999999999
 20
66.131538000000006
 30
0.0
 40
1.051741
 50
309.54056299999991
 51
334.673541
  0
ARC
  5
101
  8
0
 62
     7
 10
48.693420000000003
 20
65.837572999999992
 30
0.0
 40
0.653479
 50
271.680204
 51
307.69103699999999
  0
ARC
  5
102
  8
0
 62
     7
 10
48.713813999999999
 20
65.778211999999996
 30
0.0
 40
0.593838
 50
237.315291
 51
269.88098100000002
  0
ARC
  5
103
  8
0
 62
     7
 10
48.826594
 20
65.972012000000007
 30
0.0
 40
0.8179119999999999
 50
214.80469199999999
 51
237.997139
  0
ARC
  5
104
  8
0
 62
     7
 10
49.138908000000001
 20
66.212481000000011
 30
0.0
 40
1.2117610000000001
 50
191.84462600000001
 51
215.71194799999989
  0
ARC
  5
105
  8
0
 62
     7
 10
49.456588000000004
 20
66.308224999999993
 30
0.0
 40
1.5425930000000001
 50
179.83558699999989
 51
192.9032
  0
ARC
  5
106
  8
0
 62
     7
 10
49.443606000000003
 20
66.311971999999983
 30
0.0
 40
1.529604999999999
 50
155.603228
 51
179.9745749999999
  0
ARC
  5
107
  8
0
 62
     7
 10
49.003087999999998
 20
66.491681999999997
 30
0.0
 40
1.054351
 50
129.5121429999999
 51
154.60902599999989
  0
ARC
  5
108
  8
0
 62
     7
 10
48.732238000000002
 20
66.787181000000004
 30
0.0
 40
0.654385
 50
91.721388999999974
 51
127.67755200000001
  0
LINE
  5
109
  8
0
 62
     7
 10
56.063800000000001
 20
63.448399999999999
 30
0.0
 11
55.471899999999998
 21
65.658799999999985
 31
0.0
  0
LINE
  5
10A
  8
0
 62
     7
 10
55.471899999999998
 20
65.658799999999985
 30
0.0
 11
54.879300000000001
 21
63.448399999999999
 31
0.0
  0
LINE
  5
10B
  8
0
 62
     7
 10
54.879300000000001
 20
63.448399999999999
 30
0.0
 11
56.063800000000001
 21
63.448399999999999
 31
0.0
  0
LINE
  5
10C
  8
0
 62
     7
 10
54.894199999999991
 20
69.117699999999999
 30
0.0
 11
55.486699999999999
 21
66.907600000000002
 31
0.0
  0
LINE
  5
10D
  8
0
 62
     7
 10
55.486699999999999
 20
66.907600000000002
 30
0.0
 11
56.078200000000002
 21
69.117699999999999
 31
0.0
  0
LINE
  5
10E
  8
0
 62
     7
 10
56.078200000000002
 20
69.117699999999999
 30
0.0
 11
54.894199999999991
 21
69.117699999999999
 31
0.0
  0
LINE
  5
10F
  8
0
 62
     7
 10
55.4788
 20
73.784099999999995
 30
0.0
 11
55.4788
 21
61.86569999999999
 31
0.0
  0
LINE
  5
110
  8
0
 62
     7
 10
29.979800000000001
 20
84.829099999999997
 30
0.0
 11
29.979800000000001
 21
89.969200000000015
 31
0.0
  0
LINE
  5
111
  8
0
 62
     7
 10
30.2881
 20
84.355400000000003
 30
0.0
 11
45.393900000000002
 21
84.355400000000003
 31
0.0
  0
ARC
  5
112
  8
0
 62
     7
 10
45.382015999999993
 20
84.034122999999994
 30
0.0
 40
0.321515
 50
2.3097759999999989
 51
87.881945000000016
  0
ARC
  5
113
  8
0
 62
     7
 10
30.299305
 20
84.035154000000006
 30
0.0
 40
0.319773
 50
92.009388999999999
 51
177.862403
  0
LINE
  5
114
  8
0
 62
     7
 10
29.979800000000001
 20
83.921299999999988
 30
0.0
 11
29.979800000000001
 21
84.047099999999986
 31
0.0
  0
LINE
  5
115
  8
0
 62
     7
 10
42.742899999999992
 20
76.004099999999994
 30
0.0
 11
42.834200000000003
 21
76.004099999999994
 31
0.0
  0
LINE
  5
116
  8
0
 62
     7
 10
42.341500000000003
 20
76.407200000000003
 30
0.0
 11
42.341500000000003
 21
78.602800000000002
 31
0.0
  0
ARC
  5
117
  8
0
 62
     7
 10
42.758332000000003
 20
76.420855000000003
 30
0.0
 40
0.4170310000000001
 50
181.87795399999999
 51
267.87669799999992
  0
LINE
  5
118
  8
0
 62
     7
 10
33.352499999999999
 20
76.407200000000003
 30
0.0
 11
33.352499999999999
 21
78.602800000000002
 31
0.0
  0
LINE
  5
119
  8
0
 62
     7
 10
32.847799999999999
 20
76.004099999999994
 30
0.0
 11
32.9512
 21
76.004099999999994
 31
0.0
  0
ARC
  5
11A
  8
0
 62
     7
 10
32.934088000000003
 20
76.422477999999984
 30
0.0
 40
0.418716
 50
272.33795199999997
 51
357.90743500000002
  0
LINE
  5
11B
  8
0
 62
     7
 10
42.742899999999992
 20
79.003799999999998
 30
0.0
 11
42.834200000000003
 21
79.003799999999998
 31
0.0
  0
ARC
  5
11C
  8
0
 62
     7
 10
42.757866999999997
 20
78.587418999999997
 30
0.0
 40
0.4166240000000001
 50
92.061324999999997
 51
177.889443
  0
LINE
  5
11D
  8
0
 62
     7
 10
32.847799999999999
 20
79.003799999999998
 30
0.0
 11
32.9512
 21
79.003799999999998
 31
0.0
  0
ARC
  5
11E
  8
0
 62
     7
 10
32.935864000000002
 20
78.587098999999995
 30
0.0
 40
0.416955
 50
2.1528
 51
87.896392000000006
  0
LINE
  5
11F
  8
0
 62
     7
 10
32.847799999999999
 20
79.003799999999998
 30
0.0
 11
32.847799999999999
 21
81.591700000000003
 31
0.0
  0
LINE
  5
120
  8
0
 62
     7
 10
32.847799999999999
 20
75.504199999999983
 30
0.0
 11
32.847799999999999
 21
76.004099999999994
 31
0.0
  0
LINE
  5
121
  8
0
 62
     7
 10
32.847799999999999
 20
81.591700000000003
 30
0.0
 11
32.661799999999999
 21
81.786399999999986
 31
0.0
  0
LINE
  5
122
  8
0
 62
     7
 10
42.974699999999991
 20
81.786399999999986
 30
0.0
 11
42.834200000000003
 21
81.591700000000003
 31
0.0
  0
LINE
  5
123
  8
0
 62
     7
 10
42.834200000000003
 20
76.004099999999994
 30
0.0
 11
42.834200000000003
 21
75.504199999999983
 31
0.0
  0
LINE
  5
124
  8
0
 62
     7
 10
42.834200000000003
 20
81.591700000000003
 30
0.0
 11
42.834200000000003
 21
79.003799999999998
 31
0.0
  0
LINE
  5
125
  8
0
 62
     7
 10
29.979800000000001
 20
83.921299999999988
 30
0.0
 11
45.729100000000003
 21
83.921299999999988
 31
0.0
  0
LINE
  5
126
  8
0
 62
     7
 10
50.270499999999998
 20
64.161900000000003
 30
0.0
 11
50.270499999999998
 21
68.500600000000006
 31
0.0
  0
ARC
  5
127
  8
0
 62
     7
 10
49.959485999999998
 20
64.173789999999997
 30
0.0
 40
0.320844
 50
272.19425899999987
 51
357.869733
  0
ARC
  5
128
  8
0
 62
     7
 10
49.950334999999988
 20
68.486700999999996
 30
0.0
 40
0.320431
 50
2.4939439999999991
 51
87.891441999999998
  0
LINE
  5
129
  8
0
 62
     7
 10
43.0505
 20
64.016499999999994
 30
0.0
 11
32.631500000000003
 21
64.016499999999994
 31
0.0
  0
LINE
  5
12A
  8
0
 62
     7
 10
45.37149999999999
 20
74.355599999999995
 30
0.0
 11
30.310500000000001
 21
74.355599999999995
 31
0.0
  0
LINE
  5
12B
  8
0
 62
     7
 10
46.070900000000002
 20
68.334900000000005
 30
0.0
 11
46.070900000000002
 21
64.231800000000007
 31
0.0
  0
LINE
  5
12C
  8
0
 62
     7
 10
45.703299999999999
 20
84.584199999999996
 30
0.0
 11
45.703299999999999
 21
89.969200000000015
 31
0.0
  0
LINE
  5
12D
  8
0
 62
     7
 10
43.493200000000002
 20
88.952900000000014
 30
0.0
 11
45.703299999999999
 21
89.545100000000005
 31
0.0
  0
LINE
  5
12E
  8
0
 62
     7
 10
45.703299999999999
 20
89.545100000000005
 30
0.0
 11
43.493200000000002
 21
90.137699999999995
 31
0.0
  0
LINE
  5
12F
  8
0
 62
     7
 10
43.493200000000002
 20
90.137699999999995
 30
0.0
 11
43.493200000000002
 21
88.952900000000014
 31
0.0
  0
LINE
  5
130
  8
0
 62
     7
 10
32.189799999999998
 20
90.123599999999996
 30
0.0
 11
29.979800000000001
 21
89.531000000000006
 31
0.0
  0
LINE
  5
131
  8
0
 62
     7
 10
29.979800000000001
 20
89.531000000000006
 30
0.0
 11
32.189799999999998
 21
88.938500000000005
 31
0.0
  0
LINE
  5
132
  8
0
 62
     7
 10
32.189799999999998
 20
88.938500000000005
 30
0.0
 11
32.189799999999998
 21
90.123599999999996
 31
0.0
  0
LINE
  5
133
  8
0
 62
     7
 10
45.676399999999987
 20
89.538300000000007
 30
0.0
 11
30.079699999999999
 21
89.538300000000007
 31
0.0
  0
LINE
  5
134
  8
0
 62
     7
 10
37.840499999999999
 20
58.706499999999998
 30
0.0
 11
37.840499999999999
 21
48.486899999999999
 31
0.0
  0
LINE
  5
135
  8
0
 62
     7
 10
50.271500000000003
 20
65.658100000000005
 30
0.0
 11
59.401400000000002
 21
65.658100000000005
 31
0.0
  0
LINE
  5
136
  8
0
  6
AIGENLINE001
 62
     7
 10
40.962800000000001
 20
66.2834
 30
0.0
 11
64.132199999999983
 21
66.2834
 31
0.0
  0
LINE
  5
137
  8
0
 62
     7
 10
50.271500000000003
 20
66.908299999999997
 30
0.0
 11
59.401400000000002
 21
66.908299999999997
 31
0.0
  0
ARC
  5
138
  8
0
 62
     7
 10
43.429819999999999
 20
63.79014699999999
 30
0.0
 40
0.4416870000000001
 50
90.712804000000006
 51
149.174227
  0
LINE
  5
139
  8
0
 62
     7
 10
47.0321
 20
63.9617
 30
0.0
 11
47.0321
 21
68.604299999999995
 31
0.0
  0
ARC
  5
13A
  8
0
 62
     7
 10
43.498511000000001
 20
68.782943000000003
 30
0.0
 40
0.4483180000000001
 50
182.2203189999999
 51
267.87130999999988
  0
LINE
  5
13B
  8
0
 62
     7
 10
47.0321
 20
63.9617
 30
0.0
 11
47.13989999999999
 21
63.853200000000001
 31
0.0
  0
LINE
  5
13C
  8
0
 62
     7
 10
47.13989999999999
 20
68.710499999999996
 30
0.0
 11
47.0321
 21
68.604299999999995
 31
0.0
  0
LINE
  5
13D
  8
0
 62
     7
 10
43.481900000000003
 20
68.334900000000005
 30
0.0
 11
47.0321
 21
68.334900000000005
 31
0.0
  0
LINE
  5
13E
  8
0
 62
     7
 10
47.0321
 20
64.231800000000007
 30
0.0
 11
43.424300000000002
 21
64.231800000000007
 31
0.0
  0
LINE
  5
13F
  8
0
 62
     7
 10
46.505999999999993
 20
68.082099999999997
 30
0.0
 11
47.0321
 21
68.082099999999997
 31
0.0
  0
LINE
  5
140
  8
0
 62
     7
 10
47.0321
 20
64.4816
 30
0.0
 11
46.505999999999993
 21
64.4816
 31
0.0
  0
ARC
  5
141
  8
0
 62
     7
 10
44.54422499999999
 20
81.784207999999992
 30
0.0
 40
1.5694900000000001
 50
154.0568669999999
 51
179.92016399999989
  0
ARC
  5
142
  8
0
 62
     7
 10
45.017006999999992
 20
81.582312000000016
 30
0.0
 40
2.083107
 50
136.86840499999991
 51
154.752241
  0
ARC
  5
143
  8
0
 62
     7
 10
45.667455999999987
 20
81.005605000000003
 30
0.0
 40
2.9521730000000002
 50
98.347525000000019
 51
137.33078599999999
  0
ARC
  5
144
  8
0
 62
     7
 10
30.056232000000001
 20
81.332757000000001
 30
0.0
 40
2.6159840000000001
 50
66.29683399999999
 51
82.523683999999989
  0
ARC
  5
145
  8
0
 62
     7
 10
29.924110999999989
 20
80.958076000000005
 30
0.0
 40
3.0123150000000001
 50
39.598201000000003
 51
66.860709
  0
ARC
  5
146
  8
0
 62
     7
 10
30.62040399999999
 20
81.588779999999986
 30
0.0
 40
2.0742159999999989
 50
17.288508
 51
38.433520999999999
  0
ARC
  5
147
  8
0
 62
     7
 10
31.100069999999999
 20
81.773238000000006
 30
0.0
 40
1.5617650000000001
 50
0.4826710000000001
 51
16.056629000000001
  0
LINE
  5
148
  8
0
 62
     7
 10
39.715699999999991
 20
76.629099999999994
 30
0.0
 11
39.715699999999991
 21
78.379199999999997
 31
0.0
  0
LINE
  5
149
  8
0
 62
     7
 10
35.965600000000002
 20
76.629099999999994
 30
0.0
 11
35.965600000000002
 21
78.379199999999997
 31
0.0
  0
LINE
  5
14A
  8
0
  6
AIGENLINE001
 62
     7
 10
37.840499999999999
 20
59.73449999999999
 30
0.0
 11
37.840499999999999
 21
85.7624
 31
0.0
  0
ARC
  5
14B
  8
0
 62
     7
 10
31.344298999999999
 20
74.861271000000002
 30
0.0
 40
0.6566010000000001
 50
180.53297499999991
 51
230.363069
  0
ARC
  5
14C
  8
0
 62
     7
 10
31.361687
 20
74.830290000000005
 30
0.0
 40
0.674419
 50
92.174461000000008
 51
177.8863649999999
  0
ARC
  5
14D
  8
0
 62
     7
 10
44.322566999999992
 20
74.833326999999997
 30
0.0
 40
0.6713640000000001
 50
1.8638999999999999
 51
87.861730000000009
  0
ARC
  5
14E
  8
0
 62
     7
 10
44.339199999999991
 20
74.859650999999999
 30
0.0
 40
0.6543909999999999
 50
309.62581399999988
 51
359.607125
  0
LINE
  5
14F
  8
0
 62
     7
 10
43.0505
 20
72.174899999999994
 30
0.0
 11
43.0505
 21
68.765600000000006
 31
0.0
  0
ARC
  5
150
  8
0
 62
     7
 10
31.530494999999998
 20
72.163238000000007
 30
0.0
 40
1.1010279999999999
 50
0.6049030000000001
 51
59.360804000000009
  0
ARC
  5
151
  8
0
 62
     7
 10
44.15379699999999
 20
72.161911000000003
 30
0.0
 40
1.1033429999999991
 50
120.7068269999999
 51
179.327426
  0
LINE
  5
152
  8
0
 62
     7
 10
32.631500000000003
 20
64.016499999999994
 30
0.0
 11
32.631500000000003
 21
72.174899999999994
 31
0.0
  0
LINE
  5
153
  8
0
 62
     7
 10
46.505999999999993
 20
64.4816
 30
0.0
 11
46.070900000000002
 21
64.231800000000007
 31
0.0
  0
LINE
  5
154
  8
0
 62
     7
 10
42.542400000000001
 20
61.855400000000003
 30
0.0
 11
42.542400000000001
 21
63.367800000000003
 31
0.0
  0
LINE
  5
155
  8
0
 62
     7
 10
32.847799999999999
 20
62.148200000000003
 30
0.0
 11
42.834200000000003
 21
62.148200000000003
 31
0.0
  0
LINE
  5
156
  8
0
 62
     7
 10
45.37149999999999
 20
74.138599999999997
 30
0.0
 11
43.590400000000002
 21
73.110600000000005
 31
0.0
  0
LINE
  5
157
  8
0
 62
     7
 10
45.37149999999999
 20
74.138599999999997
 30
0.0
 11
45.37149999999999
 21
74.355599999999995
 31
0.0
  0
LINE
  5
158
  8
0
 62
     7
 10
42.834200000000003
 20
63.367800000000003
 30
0.0
 11
32.901200000000003
 21
63.367800000000003
 31
0.0
  0
LINE
  5
159
  8
0
 62
     7
 10
42.780099999999997
 20
63.367800000000003
 30
0.0
 11
42.780099999999997
 21
64.016499999999994
 31
0.0
  0
LINE
  5
15A
  8
0
 62
     7
 10
32.901200000000003
 20
63.367800000000003
 30
0.0
 11
32.901200000000003
 21
64.016499999999994
 31
0.0
  0
LINE
  5
15B
  8
0
 62
     7
 10
32.847799999999999
 20
62.148200000000003
 30
0.0
 11
33.140700000000002
 21
61.855400000000003
 31
0.0
  0
LINE
  5
15C
  8
0
 62
     7
 10
42.834200000000003
 20
62.148200000000003
 30
0.0
 11
42.542400000000001
 21
61.855400000000003
 31
0.0
  0
LINE
  5
15D
  8
0
 62
     7
 10
42.834200000000003
 20
63.367800000000003
 30
0.0
 11
42.834200000000003
 21
62.148200000000003
 31
0.0
  0
LINE
  5
15E
  8
0
 62
     7
 10
32.847799999999999
 20
62.148200000000003
 30
0.0
 11
32.847799999999999
 21
63.367800000000003
 31
0.0
  0
LINE
  5
15F
  8
0
 62
     7
 10
42.542400000000001
 20
61.855400000000003
 30
0.0
 11
33.140700000000002
 21
61.855400000000003
 31
0.0
  0
LINE
  5
160
  8
0
 62
     7
 10
30.310500000000001
 20
74.138599999999997
 30
0.0
 11
32.0916
 21
73.110600000000005
 31
0.0
  0
LINE
  5
161
  8
0
 62
     7
 10
30.310500000000001
 20
74.138599999999997
 30
0.0
 11
30.310500000000001
 21
74.355599999999995
 31
0.0
  0
LINE
  5
162
  8
0
 62
     7
 10
33.140700000000002
 20
61.855400000000003
 30
0.0
 11
33.140700000000002
 21
63.367800000000003
 31
0.0
  0
LINE
  5
163
  8
0
 62
     7
 10
36.590899999999991
 20
79.003799999999998
 30
0.0
 11
39.090699999999991
 21
79.003799999999998
 31
0.0
  0
LINE
  5
164
  8
0
 62
     7
 10
36.590899999999991
 20
76.004099999999994
 30
0.0
 11
39.090699999999991
 21
76.004099999999994
 31
0.0
  0
LINE
  5
165
  8
0
 62
     7
 10
31.336099999999998
 20
75.504199999999983
 30
0.0
 11
44.347599999999993
 21
75.504199999999983
 31
0.0
  0
LINE
  5
166
  8
0
 62
     7
 10
46.505999999999993
 20
64.231800000000007
 30
0.0
 11
46.505999999999993
 21
68.334900000000005
 31
0.0
  0
LINE
  5
167
  8
0
 62
     7
 10
46.070900000000002
 20
68.334900000000005
 30
0.0
 11
46.505999999999993
 21
68.082099999999997
 31
0.0
  0
LINE
  5
168
  8
0
 62
     7
 10
47.89609999999999
 20
68.710499999999996
 30
0.0
 11
47.13989999999999
 21
68.710499999999996
 31
0.0
  0
LINE
  5
169
  8
0
 62
     7
 10
114.175
 20
170.95400000000001
 30
0.0
 11
112.685
 21
165.7579999999999
 31
0.0
  0
LINE
  5
16A
  8
0
 62
     7
 10
74.4803
 20
154.12399999999991
 30
0.0
 11
74.4803
 21
147.01300000000001
 31
0.0
  0
LINE
  5
16B
  8
0
 62
     7
 10
60.730499999999999
 20
154.12399999999991
 30
0.0
 11
60.730499999999999
 21
147.01300000000001
 31
0.0
  0
LINE
  5
16C
  8
0
 62
     7
 10
62.941899999999997
 20
154.01699999999991
 30
0.0
 11
60.730499999999999
 21
153.42400000000001
 31
0.0
  0
LINE
  5
16D
  8
0
 62
     7
 10
60.730499999999999
 20
153.42400000000001
 30
0.0
 11
62.941899999999997
 21
152.83099999999999
 31
0.0
  0
LINE
  5
16E
  8
0
 62
     7
 10
62.941899999999997
 20
152.83099999999999
 30
0.0
 11
62.941899999999997
 21
154.01699999999991
 31
0.0
  0
LINE
  5
16F
  8
0
 62
     7
 10
74.4803
 20
153.42400000000001
 30
0.0
 11
60.730499999999999
 21
153.42400000000001
 31
0.0
  0
LINE
  5
170
  8
0
 62
     7
 10
73.941500000000005
 20
141.6399999999999
 30
0.0
 11
71.730400000000003
 21
141.04799999999989
 31
0.0
  0
LINE
  5
171
  8
0
 62
     7
 10
71.730400000000003
 20
141.04799999999989
 30
0.0
 11
73.941500000000005
 21
140.45599999999999
 31
0.0
  0
LINE
  5
172
  8
0
 62
     7
 10
73.941500000000005
 20
140.45599999999999
 30
0.0
 11
73.941500000000005
 21
141.6399999999999
 31
0.0
  0
LINE
  5
173
  8
0
 62
     7
 10
61.270400000000002
 20
140.46899999999991
 30
0.0
 11
63.480800000000002
 21
141.06200000000001
 31
0.0
  0
LINE
  5
174
  8
0
 62
     7
 10
63.480800000000002
 20
141.06200000000001
 30
0.0
 11
61.270400000000002
 21
141.65499999999989
 31
0.0
  0
LINE
  5
175
  8
0
 62
     7
 10
61.270400000000002
 20
141.65499999999989
 30
0.0
 11
61.270400000000002
 21
140.46899999999991
 31
0.0
  0
LINE
  5
176
  8
0
 62
     7
 10
55.414400000000001
 20
141.05500000000001
 30
0.0
 11
75.646199999999993
 21
141.05500000000001
 31
0.0
  0
LINE
  5
177
  8
0
 62
     7
 10
75.191400000000002
 20
159.16800000000001
 30
0.0
 11
72.9803
 21
158.5749999999999
 31
0.0
  0
LINE
  5
178
  8
0
 62
     7
 10
72.9803
 20
158.5749999999999
 30
0.0
 11
75.191400000000002
 21
157.983
 31
0.0
  0
LINE
  5
179
  8
0
 62
     7
 10
75.191400000000002
 20
157.983
 30
0.0
 11
75.191400000000002
 21
159.16800000000001
 31
0.0
  0
LINE
  5
17A
  8
0
 62
     7
 10
72.269900000000007
 20
152.83099999999999
 30
0.0
 11
74.4803
 21
153.42400000000001
 31
0.0
  0
LINE
  5
17B
  8
0
 62
     7
 10
74.4803
 20
153.42400000000001
 30
0.0
 11
72.269900000000007
 21
154.01699999999991
 31
0.0
  0
LINE
  5
17C
  8
0
 62
     7
 10
72.269900000000007
 20
154.01699999999991
 30
0.0
 11
72.269900000000007
 21
152.83099999999999
 31
0.0
  0
LINE
  5
17D
  8
0
 62
     7
 10
60.019799999999989
 20
157.983
 30
0.0
 11
62.230200000000004
 21
158.5749999999999
 31
0.0
  0
LINE
  5
17E
  8
0
 62
     7
 10
62.230200000000004
 20
158.5749999999999
 30
0.0
 11
60.019799999999989
 21
159.16800000000001
 31
0.0
  0
LINE
  5
17F
  8
0
 62
     7
 10
60.019799999999989
 20
159.16800000000001
 30
0.0
 11
60.019799999999989
 21
157.983
 31
0.0
  0
LINE
  5
180
  8
0
 62
     7
 10
58.47229999999999
 20
158.5749999999999
 30
0.0
 11
76.560500000000005
 21
158.5749999999999
 31
0.0
  0
LINE
  5
181
  8
0
  6
AIGENLINE001
 62
     7
 10
70.629400000000004
 20
123.06399999999989
 30
0.0
 11
67.339299999999994
 21
123.06399999999989
 31
0.0
  0
LINE
  5
182
  8
0
 62
     7
 10
69.733699999999999
 20
122.31399999999989
 30
0.0
 11
69.733699999999999
 21
124.81399999999999
 31
0.0
  0
LINE
  5
183
  8
0
 62
     7
 10
69.733699999999999
 20
124.81399999999999
 30
0.0
 11
68.483099999999993
 21
124.81399999999999
 31
0.0
  0
LINE
  5
184
  8
0
 62
     7
 10
68.483099999999993
 20
124.81399999999999
 30
0.0
 11
68.483099999999993
 21
122.31399999999989
 31
0.0
  0
LINE
  5
185
  8
0
 62
     7
 10
68.483099999999993
 20
122.31399999999989
 30
0.0
 11
68.108199999999997
 21
122.31399999999989
 31
0.0
  0
LINE
  5
186
  8
0
 62
     7
 10
68.108199999999997
 20
122.31399999999989
 30
0.0
 11
68.108199999999997
 21
126.31399999999989
 31
0.0
  0
LINE
  5
187
  8
0
 62
     7
 10
68.108199999999997
 20
126.31399999999989
 30
0.0
 11
70.108500000000006
 21
126.31399999999989
 31
0.0
  0
LINE
  5
188
  8
0
 62
     7
 10
70.108500000000006
 20
126.31399999999989
 30
0.0
 11
70.108500000000006
 21
122.31399999999989
 31
0.0
  0
LINE
  5
189
  8
0
 62
     7
 10
70.108500000000006
 20
122.31399999999989
 30
0.0
 11
69.733699999999999
 21
122.31399999999989
 31
0.0
  0
LINE
  5
18A
  8
0
 62
     7
 10
70.108500000000006
 20
126.31399999999989
 30
0.0
 11
68.108199999999997
 21
126.31399999999989
 31
0.0
  0
LINE
  5
18B
  8
0
 62
     7
 10
68.108199999999997
 20
126.31399999999989
 30
0.0
 11
68.108199999999997
 21
131.8129999999999
 31
0.0
  0
LINE
  5
18C
  8
0
 62
     7
 10
68.108199999999997
 20
131.8129999999999
 30
0.0
 11
70.108500000000006
 21
131.8129999999999
 31
0.0
  0
LINE
  5
18D
  8
0
 62
     7
 10
70.108500000000006
 20
131.8129999999999
 30
0.0
 11
70.108500000000006
 21
126.31399999999989
 31
0.0
  0
LINE
  5
18E
  8
0
 62
     7
 10
65.355599999999995
 20
135.15000000000001
 30
0.0
 11
64.855400000000003
 21
135.15000000000001
 31
0.0
  0
LINE
  5
18F
  8
0
 62
     7
 10
67.6053
 20
136.5629999999999
 30
0.0
 11
62.605699999999999
 21
136.5629999999999
 31
0.0
  0
LINE
  5
190
  8
0
 62
     7
 10
62.605699999999999
 20
136.5629999999999
 30
0.0
 11
62.605699999999999
 21
135.25499999999991
 31
0.0
  0
ARC
  5
191
  8
0
 62
     7
 10
62.819130999999999
 20
135.29139599999991
 30
0.0
 40
0.216515
 50
189.68832399999999
 51
200.0123889999999
  0
ARC
  5
192
  8
0
 62
     7
 10
63.064079
 20
135.37154200000001
 30
0.0
 40
0.4741770000000001
 50
198.9828029999999
 51
228.09880399999989
  0
ARC
  5
193
  8
0
 62
     7
 10
63.194757999999993
 20
135.50299199999989
 30
0.0
 40
0.6593560000000001
 50
227.27541600000001
 51
252.341297
  0
ARC
  5
194
  8
0
 62
     7
 10
63.339670999999989
 20
135.88410500000001
 30
0.0
 40
1.0667070000000001
 50
251.13398900000001
 51
264.38206400000001
  0
ARC
  5
195
  8
0
 62
     7
 10
63.405974999999998
 20
136.39606000000001
 30
0.0
 40
1.5827729999999991
 50
263.80762599999991
 51
270.18816699999991
  0
LINE
  5
196
  8
0
 62
     7
 10
63.411200000000001
 20
134.8129999999999
 30
0.0
 11
67.6053
 21
134.8129999999999
 31
0.0
  0
LINE
  5
197
  8
0
 62
     7
 10
65.355599999999995
 20
136.5629999999999
 30
0.0
 11
65.355599999999995
 21
135.15000000000001
 31
0.0
  0
ARC
  5
198
  8
0
 62
     7
 10
65.651323000000005
 20
135.33569700000001
 30
0.0
 40
0.3492570000000001
 50
212.14243300000001
 51
220.55745400000001
  0
ARC
  5
199
  8
0
 62
     7
 10
65.995834000000002
 20
135.61817600000001
 30
0.0
 40
0.7947270000000001
 50
219.880458
 51
257.59676000000002
  0
ARC
  5
19A
  8
0
 62
     7
 10
66.065303999999998
 20
135.831648
 30
0.0
 40
1.0183759999999991
 50
256.35913099999999
 51
270.38697599999989
  0
LINE
  5
19B
  8
0
 62
     7
 10
64.855400000000003
 20
136.5629999999999
 30
0.0
 11
64.855400000000003
 21
135.15000000000001
 31
0.0
  0
ARC
  5
19C
  8
0
 62
     7
 10
63.867601000000001
 20
136.9693419999999
 30
0.0
 40
2.0702919999999989
 50
295.27827000000002
 51
298.49707799999987
  0
ARC
  5
19D
  8
0
 62
     7
 10
63.237139999999997
 20
138.23618699999989
 30
0.0
 40
3.4851679999999989
 50
285.33020899999991
 51
295.75716199999988
  0
ARC
  5
19E
  8
0
 62
     7
 10
63.679946999999999
 20
136.679023
 30
0.0
 40
1.866404
 50
271.54261700000001
 51
284.85849999999988
  0
LINE
  5
19F
  8
0
 62
     7
 10
69.855599999999995
 20
135.15000000000001
 30
0.0
 11
70.355199999999996
 21
135.15000000000001
 31
0.0
  0
LINE
  5
1A0
  8
0
 62
     7
 10
67.6053
 20
136.5629999999999
 30
0.0
 11
72.605500000000006
 21
136.5629999999999
 31
0.0
  0
LINE
  5
1A1
  8
0
 62
     7
 10
72.605500000000006
 20
136.5629999999999
 30
0.0
 11
72.605500000000006
 21
135.25499999999991
 31
0.0
  0
ARC
  5
1A2
  8
0
 62
     7
 10
72.392360999999994
 20
135.2897219999999
 30
0.0
 40
0.215958
 50
340.40591099999989
 51
350.73674399999987
  0
ARC
  5
1A3
  8
0
 62
     7
 10
72.133173999999997
 20
135.37442999999999
 30
0.0
 40
0.488594
 50
302.60240299999992
 51
341.240476
  0
ARC
  5
1A4
  8
0
 62
     7
 10
71.992447999999996
 20
135.55245099999991
 30
0.0
 40
0.714746
 50
288.51632499999999
 51
304.41706599999998
  0
ARC
  5
1A5
  8
0
 62
     7
 10
71.875458999999992
 20
135.87891499999989
 30
0.0
 40
1.0614879999999991
 50
275.61592599999989
 51
288.90798599999988
  0
ARC
  5
1A6
  8
0
 62
     7
 10
71.808708999999993
 20
136.39413799999991
 30
0.0
 40
1.5808519999999999
 50
269.81043199999999
 51
276.19619899999998
  0
LINE
  5
1A7
  8
0
 62
     7
 10
71.8035
 20
134.8129999999999
 30
0.0
 11
67.6053
 21
134.8129999999999
 31
0.0
  0
LINE
  5
1A8
  8
0
 62
     7
 10
69.855599999999995
 20
136.5629999999999
 30
0.0
 11
69.855599999999995
 21
135.15000000000001
 31
0.0
  0
ARC
  5
1A9
  8
0
 62
     7
 10
69.559289000000007
 20
135.3366199999999
 30
0.0
 40
0.350251
 50
319.383059
 51
327.78149500000001
  0
ARC
  5
1AA
  8
0
 62
     7
 10
69.214115000000007
 20
135.62023300000001
 30
0.0
 40
0.7969530000000001
 50
282.44235299999991
 51
320.06053600000001
  0
ARC
  5
1AB
  8
0
 62
     7
 10
69.145831999999999
 20
135.83018799999991
 30
0.0
 40
1.016915
 50
269.61648899999989
 51
283.65062299999988
  0
LINE
  5
1AC
  8
0
 62
     7
 10
70.355199999999996
 20
136.5629999999999
 30
0.0
 11
70.355199999999996
 21
135.15000000000001
 31
0.0
  0
ARC
  5
1AD
  8
0
 62
     7
 10
71.375191000000001
 20
137.0324169999999
 30
0.0
 40
2.141124
 50
241.54923099999991
 51
244.8485269999999
  0
ARC
  5
1AE
  8
0
 62
     7
 10
71.96985699999999
 20
138.23003499999999
 30
0.0
 40
3.4780570000000002
 50
244.3661589999999
 51
254.9088119999999
  0
ARC
  5
1AF
  8
0
 62
     7
 10
71.527313000000007
 20
136.65180699999999
 30
0.0
 40
1.839111999999999
 50
255.41912500000001
 51
268.53602100000001
  0
LINE
  5
1B0
  8
0
 62
     7
 10
71.4803
 20
134.8129999999999
 30
0.0
 11
71.4803
 21
131.8129999999999
 31
0.0
  0
LINE
  5
1B1
  8
0
 62
     7
 10
63.730200000000004
 20
134.8129999999999
 30
0.0
 11
63.730200000000004
 21
131.8129999999999
 31
0.0
  0
LINE
  5
1B2
  8
0
 62
     7
 10
71.730400000000003
 20
132.0629999999999
 30
0.0
 11
63.480800000000002
 21
132.0629999999999
 31
0.0
  0
LINE
  5
1B3
  8
0
 62
     7
 10
71.730400000000003
 20
132.0629999999999
 30
0.0
 11
71.4803
 21
131.8129999999999
 31
0.0
  0
LINE
  5
1B4
  8
0
 62
     7
 10
71.4803
 20
131.8129999999999
 30
0.0
 11
63.730200000000004
 21
131.8129999999999
 31
0.0
  0
LINE
  5
1B5
  8
0
 62
     7
 10
63.730200000000004
 20
131.8129999999999
 30
0.0
 11
63.480800000000002
 21
132.0629999999999
 31
0.0
  0
LINE
  5
1B6
  8
0
 62
     7
 10
63.480800000000002
 20
132.0629999999999
 30
0.0
 11
63.480800000000002
 21
134.8129999999999
 31
0.0
  0
LINE
  5
1B7
  8
0
 62
     7
 10
63.480800000000002
 20
134.8129999999999
 30
0.0
 11
71.730400000000003
 21
134.8129999999999
 31
0.0
  0
LINE
  5
1B8
  8
0
 62
     7
 10
71.730400000000003
 20
134.8129999999999
 30
0.0
 11
71.730400000000003
 21
132.0629999999999
 31
0.0
  0
LINE
  5
1B9
  8
0
 62
     7
 10
71.4803
 20
145.56299999999999
 30
0.0
 11
71.4803
 21
138.0629999999999
 31
0.0
  0
LINE
  5
1BA
  8
0
 62
     7
 10
63.730499999999999
 20
145.56299999999999
 30
0.0
 11
63.730499999999999
 21
138.0629999999999
 31
0.0
  0
LINE
  5
1BB
  8
0
 62
     7
 10
71.730400000000003
 20
145.56299999999999
 30
0.0
 11
71.730400000000003
 21
138.0629999999999
 31
0.0
  0
LINE
  5
1BC
  8
0
 62
     7
 10
71.730400000000003
 20
138.0629999999999
 30
0.0
 11
63.480800000000002
 21
138.0629999999999
 31
0.0
  0
LINE
  5
1BD
  8
0
 62
     7
 10
63.480800000000002
 20
138.0629999999999
 30
0.0
 11
63.480800000000002
 21
145.56299999999999
 31
0.0
  0
LINE
  5
1BE
  8
0
 62
     7
 10
73.105699999999999
 20
136.5629999999999
 30
0.0
 11
62.105499999999999
 21
136.5629999999999
 31
0.0
  0
LINE
  5
1BF
  8
0
 62
     7
 10
62.105499999999999
 20
136.5629999999999
 30
0.0
 11
62.105499999999999
 21
137.1879999999999
 31
0.0
  0
LINE
  5
1C0
  8
0
 62
     7
 10
62.105499999999999
 20
137.1879999999999
 30
0.0
 11
73.105699999999999
 21
137.1879999999999
 31
0.0
  0
LINE
  5
1C1
  8
0
 62
     7
 10
73.105699999999999
 20
137.1879999999999
 30
0.0
 11
73.105699999999999
 21
136.5629999999999
 31
0.0
  0
LINE
  5
1C2
  8
0
 62
     7
 10
73.6053
 20
137.1879999999999
 30
0.0
 11
61.605200000000004
 21
137.1879999999999
 31
0.0
  0
LINE
  5
1C3
  8
0
 62
     7
 10
61.605200000000004
 20
137.1879999999999
 30
0.0
 11
61.605200000000004
 21
137.5629999999999
 31
0.0
  0
LINE
  5
1C4
  8
0
 62
     7
 10
61.605200000000004
 20
137.5629999999999
 30
0.0
 11
73.6053
 21
137.5629999999999
 31
0.0
  0
LINE
  5
1C5
  8
0
 62
     7
 10
73.6053
 20
137.5629999999999
 30
0.0
 11
73.6053
 21
137.1879999999999
 31
0.0
  0
LINE
  5
1C6
  8
0
 62
     7
 10
73.6053
 20
137.5629999999999
 30
0.0
 11
61.605200000000004
 21
137.5629999999999
 31
0.0
  0
LINE
  5
1C7
  8
0
 62
     7
 10
61.605200000000004
 20
137.5629999999999
 30
0.0
 11
61.605200000000004
 21
138.0629999999999
 31
0.0
  0
LINE
  5
1C8
  8
0
 62
     7
 10
61.605200000000004
 20
138.0629999999999
 30
0.0
 11
73.6053
 21
138.0629999999999
 31
0.0
  0
LINE
  5
1C9
  8
0
 62
     7
 10
73.6053
 20
138.0629999999999
 30
0.0
 11
73.6053
 21
137.5629999999999
 31
0.0
  0
LINE
  5
1CA
  8
0
 62
     7
 10
65.292900000000003
 20
111.622
 30
0.0
 11
65.292900000000003
 21
131.8129999999999
 31
0.0
  0
LINE
  5
1CB
  8
0
 62
     7
 10
67.918099999999995
 20
111.622
 30
0.0
 11
67.918099999999995
 21
131.8129999999999
 31
0.0
  0
LINE
  5
1CC
  8
0
  6
AIGENLINE001
 62
     7
 10
66.605500000000006
 20
107.045
 30
0.0
 11
66.605500000000006
 21
139.68599999999989
 31
0.0
  0
LINE
  5
1CD
  8
0
  6
AIGENLINE001
 62
     7
 10
69.1053
 20
68.444100000000006
 30
0.0
 11
69.1053
 21
139.68599999999989
 31
0.0
  0
LINE
  5
1CE
  8
0
 62
     7
 10
69.733699999999999
 20
122.452
 30
0.0
 11
69.733699999999999
 21
70.562899999999999
 31
0.0
  0
LINE
  5
1CF
  8
0
 62
     7
 10
68.483800000000002
 20
122.452
 30
0.0
 11
68.483800000000002
 21
70.562899999999999
 31
0.0
  0
LINE
  5
1D0
  8
0
 62
     7
 10
69.732299999999995
 20
70.562899999999999
 30
0.0
 11
68.482399999999998
 21
70.562899999999999
 31
0.0
  0
LINE
  5
1D1
  8
0
  6
AIGENLINE001
 62
     7
 10
67.6053
 20
107.045
 30
0.0
 11
79.487499999999997
 21
124.3129999999999
 31
0.0
  0
LINE
  5
1D2
  8
0
 62
     7
 10
80.800099999999986
 20
102.24799999999991
 30
0.0
 11
80.800099999999986
 21
120.304
 31
0.0
  0
LINE
  5
1D3
  8
0
 62
     7
 10
78.174899999999994
 20
120.304
 30
0.0
 11
78.174899999999994
 21
102.24799999999991
 31
0.0
  0
LINE
  5
1D4
  8
0
  6
AIGENLINE001
 62
     7
 10
79.487499999999997
 20
124.3129999999999
 30
0.0
 11
79.487499999999997
 21
93.2834
 31
0.0
  0
LINE
  5
1D5
  8
0
 62
     7
 10
82.240799999999979
 20
97.371399999999994
 30
0.0
 11
82.240799999999979
 21
94.745500000000007
 31
0.0
  0
LINE
  5
1D6
  8
0
 62
     7
 10
80.864799999999988
 20
97.371399999999994
 30
0.0
 11
80.864799999999988
 21
94.745500000000007
 31
0.0
  0
ARC
  5
1D7
  8
0
 62
     7
 10
78.652864000000008
 20
103.101535
 30
0.0
 40
9.0937260000000002
 50
291.69582700000001
 51
293.23800299999999
  0
ARC
  5
1D8
  8
0
 62
     7
 10
81.327407999999977
 20
96.417529000000002
 30
0.0
 40
1.894547
 50
281.78296999999998
 51
291.26814100000001
  0
ARC
  5
1D9
  8
0
 62
     7
 10
81.532918000000009
 20
95.510314000000008
 30
0.0
 40
0.9646139999999999
 50
270.46569699999998
 51
280.83723800000001
  0
ARC
  5
1DA
  8
0
 62
     7
 10
81.541837000000001
 20
95.460364999999996
 30
0.0
 40
0.914634
 50
257.58986499999992
 51
269.93241799999998
  0
ARC
  5
1DB
  8
0
 62
     7
 10
81.664199999999994
 20
96.078906000000003
 30
0.0
 40
1.545078
 50
247.1929649999999
 51
258.08771999999999
  0
ARC
  5
1DC
  8
0
 62
     7
 10
82.127829999999989
 20
97.263769999999994
 30
0.0
 40
2.817200999999999
 50
243.36414999999991
 51
247.8418969999999
  0
ARC
  5
1DD
  8
0
 62
     7
 10
81.620718000000011
 20
96.253364000000005
 30
0.0
 40
1.349596999999999
 50
97.382283000000015
 51
124.06179999999991
  0
ARC
  5
1DE
  8
0
 62
     7
 10
81.541632999999976
 20
96.696073999999996
 30
0.0
 40
0.9006540000000001
 50
90.055644000000015
 51
96.011484999999993
  0
ARC
  5
1DF
  8
0
 62
     7
 10
81.539966000000007
 20
96.678225999999995
 30
0.0
 40
0.9185019999999999
 50
77.80868199999999
 51
89.95059599999999
  0
ARC
  5
1E0
  8
0
 62
     7
 10
81.448495999999977
 20
96.207793000000024
 30
0.0
 40
1.397675999999999
 50
66.602540000000005
 51
78.216042999999999
  0
ARC
  5
1E1
  8
0
 62
     7
 10
81.215114000000014
 20
95.624256000000003
 30
0.0
 40
2.0259839999999998
 50
59.584410999999989
 51
67.098452000000009
  0
LINE
  5
1E2
  8
0
 62
     7
 10
76.740300000000005
 20
97.371399999999994
 30
0.0
 11
76.740300000000005
 21
94.745500000000007
 31
0.0
  0
LINE
  5
1E3
  8
0
 62
     7
 10
78.114900000000006
 20
97.371399999999994
 30
0.0
 11
78.114900000000006
 21
94.745500000000007
 31
0.0
  0
ARC
  5
1E4
  8
0
 62
     7
 10
75.032443000000001
 20
101.892076
 30
0.0
 40
7.7829689999999996
 50
291.529878
 51
293.33184399999988
  0
ARC
  5
1E5
  8
0
 62
     7
 10
77.160471999999999
 20
96.524058999999994
 30
0.0
 40
2.0085630000000001
 50
282.213143
 51
291.257182
  0
ARC
  5
1E6
  8
0
 62
     7
 10
77.429124000000002
 20
95.351626999999993
 30
0.0
 40
0.8059649999999999
 50
270.75121100000001
 51
281.17909400000002
  0
ARC
  5
1E7
  8
0
 62
     7
 10
77.440503000000007
 20
95.449418000000009
 30
0.0
 40
0.903687
 50
257.78598099999999
 51
269.94848400000001
  0
ARC
  5
1E8
  8
0
 62
     7
 10
77.540250999999984
 20
95.985520999999991
 30
0.0
 40
1.448845999999999
 50
252.926163
 51
258.41595699999999
  0
ARC
  5
1E9
  8
0
 62
     7
 10
77.787092999999999
 20
96.787053
 30
0.0
 40
2.2875259999999988
 50
248.52800499999989
 51
252.91039900000001
  0
ARC
  5
1EA
  8
0
 62
     7
 10
79.254106999999991
 20
100.48367500000001
 30
0.0
 40
6.2645970000000002
 50
246.34261000000001
 51
248.41768399999989
  0
ARC
  5
1EB
  8
0
 62
     7
 10
77.74945799999999
 20
95.642690000000016
 30
0.0
 40
2.0017059999999991
 50
107.94188200000001
 51
120.2737959999999
  0
ARC
  5
1EC
  8
0
 62
     7
 10
77.464309
 20
96.471981999999997
 30
0.0
 40
1.125014999999999
 50
91.253911000000016
 51
107.13635599999991
  0
ARC
  5
1ED
  8
0
 62
     7
 10
77.438969999999998
 20
96.826862000000006
 30
0.0
 40
0.7698649999999999
 50
76.166865999999999
 51
89.946363000000005
  0
ARC
  5
1EE
  8
0
 62
     7
 10
77.297015999999999
 20
96.154640000000015
 30
0.0
 40
1.4567110000000001
 50
65.830407999999991
 51
77.067157999999992
  0
ARC
  5
1EF
  8
0
 62
     7
 10
77.052929000000006
 20
95.550331000000014
 30
0.0
 40
2.1081279999999989
 50
59.750503000000002
 51
66.502766000000008
  0
ARC
  5
1F0
  8
0
 62
     7
 10
82.127420000000001
 20
88.410483999999997
 30
0.0
 40
6.4596580000000001
 50
101.27148800000001
 51
103.2488669999999
  0
ARC
  5
1F1
  8
0
 62
     7
 10
79.161051
 20
100.343423
 30
0.0
 40
5.837502999999999
 50
278.62354299999998
 51
284.74692799999991
  0
ARC
  5
1F2
  8
0
 62
     7
 10
79.690169999999995
 20
96.835516000000013
 30
0.0
 40
2.2899180000000001
 50
270.6174279999999
 51
278.69467900000001
  0
LINE
  5
1F3
  8
0
 62
     7
 10
79.714799999999997
 20
94.545699999999997
 30
0.0
 11
79.265600000000006
 21
94.545699999999997
 31
0.0
  0
ARC
  5
1F4
  8
0
 62
     7
 10
79.265924999999996
 20
96.507233999999997
 30
0.0
 40
1.9615029999999991
 50
261.54105600000003
 51
269.99059
  0
ARC
  5
1F5
  8
0
 62
     7
 10
79.479461999999998
 20
98.160225999999994
 30
0.0
 40
3.6280649999999999
 50
258.55453
 51
262.04550799999993
  0
ARC
  5
1F6
  8
0
 62
     7
 10
80.879256999999996
 20
104.96717199999991
 30
0.0
 40
10.577437
 50
256.53362199999998
 51
258.43959100000001
  0
ARC
  5
1F7
  8
0
 62
     7
 10
76.995873000000003
 20
88.832205999999985
 30
0.0
 40
6.0182969999999996
 50
76.350930000000005
 51
79.283874999999995
  0
ARC
  5
1F8
  8
0
 62
     7
 10
79.367455000000007
 20
93.673198999999997
 30
0.0
 40
3.9045640000000001
 50
102.84613899999999
 51
108.710337
  0
ARC
  5
1F9
  8
0
 62
     7
 10
79.595545000000001
 20
92.852907000000002
 30
0.0
 40
4.7552059999999994
 50
94.331414999999993
 51
103.3281309999999
  0
ARC
  5
1FA
  8
0
 62
     7
 10
79.383065999999999
 20
95.312984999999998
 30
0.0
 40
2.2862550000000001
 50
87.313519999999997
 51
93.677980999999988
  0
ARC
  5
1FB
  8
0
 62
     7
 10
79.573592000000005
 20
96.178923999999995
 30
0.0
 40
1.4202520000000001
 50
88.966301999999999
 51
93.365144999999984
  0
ARC
  5
1FC
  8
0
 62
     7
 10
79.559089
 20
95.012482999999975
 30
0.0
 40
2.5867729999999991
 50
85.190771999999996
 51
89.111204999999998
  0
ARC
  5
1FD
  8
0
 62
     7
 10
79.363384999999994
 20
92.716729000000001
 30
0.0
 40
4.890852999999999
 50
72.122085999999996
 51
85.160980000000009
  0
LINE
  5
1FE
  8
0
 62
     7
 10
80.740099999999984
 20
97.772400000000005
 30
0.0
 11
79.490200000000002
 21
97.772400000000005
 31
0.0
  0
LINE
  5
1FF
  8
0
 62
     7
 10
78.240300000000005
 20
97.772400000000005
 30
0.0
 11
79.490200000000002
 21
97.772400000000005
 31
0.0
  0
LINE
  5
200
  8
0
 62
     7
 10
77.189599999999999
 20
94.496099999999984
 30
0.0
 11
79.490200000000002
 21
94.496099999999984
 31
0.0
  0
LINE
  5
201
  8
0
 62
     7
 10
79.490200000000002
 20
94.496099999999984
 30
0.0
 11
81.790899999999993
 21
94.496099999999984
 31
0.0
  0
LINE
  5
202
  8
0
 62
     7
 10
82.090599999999995
 20
94.695899999999995
 30
0.0
 11
81.790899999999993
 21
94.520899999999997
 31
0.0
  0
LINE
  5
203
  8
0
 62
     7
 10
81.790899999999993
 20
94.520899999999997
 30
0.0
 11
81.790899999999993
 21
94.496099999999984
 31
0.0
  0
LINE
  5
204
  8
0
 62
     7
 10
82.240799999999979
 20
94.745500000000007
 30
0.0
 11
81.790899999999993
 21
94.520899999999997
 31
0.0
  0
LINE
  5
205
  8
0
 62
     7
 10
76.740300000000005
 20
94.745500000000007
 30
0.0
 11
77.189599999999999
 21
94.496099999999984
 31
0.0
  0
LINE
  5
206
  8
0
 62
     7
 10
77.189599999999999
 20
97.621499999999997
 30
0.0
 11
81.790899999999993
 21
97.621499999999997
 31
0.0
  0
LINE
  5
207
  8
0
 62
     7
 10
77.939899999999994
 20
97.746200000000002
 30
0.0
 11
81.040499999999994
 21
97.746200000000002
 31
0.0
  0
ARC
  5
208
  8
0
 62
     7
 10
80.487862000000007
 20
98.444203000000016
 30
0.0
 40
0.7175740000000001
 50
290.58107899999987
 51
326.48943199999991
  0
ARC
  5
209
  8
0
 62
     7
 10
80.659555999999995
 20
98.303918999999993
 30
0.0
 40
0.497464
 50
329.04443199999992
 51
341.56022100000001
  0
LINE
  5
20A
  8
0
 62
     7
 10
81.131500000000003
 20
98.146600000000007
 30
0.0
 11
81.165199999999984
 21
98.246499999999997
 31
0.0
  0
LINE
  5
20B
  8
0
 62
     7
 10
81.165199999999984
 20
98.246499999999997
 30
0.0
 11
81.165199999999984
 21
98.396699999999996
 31
0.0
  0
LINE
  5
20C
  8
0
 62
     7
 10
81.165199999999984
 20
98.396699999999996
 30
0.0
 11
81.115600000000001
 21
98.571700000000007
 31
0.0
  0
LINE
  5
20D
  8
0
 62
     7
 10
77.840000000000003
 20
98.571700000000007
 30
0.0
 11
77.864800000000002
 21
98.571700000000007
 31
0.0
  0
ARC
  5
20E
  8
0
 62
     7
 10
185.02834899999991
 20
83.290383999999989
 30
0.0
 40
108.272147
 50
171.88628
 51
171.97981899999991
  0
LINE
  5
20F
  8
0
 62
     7
 10
77.815200000000004
 20
98.396699999999996
 30
0.0
 11
77.815200000000004
 21
98.246499999999997
 31
0.0
  0
LINE
  5
210
  8
0
 62
     7
 10
77.815200000000004
 20
98.246499999999997
 30
0.0
 11
77.8476
 21
98.146600000000007
 31
0.0
  0
ARC
  5
211
  8
0
 62
     7
 10
78.913691
 20
98.503107000000014
 30
0.0
 40
1.124137999999999
 50
198.49167800000001
 51
203.282704
  0
ARC
  5
212
  8
0
 62
     7
 10
78.319626
 20
98.246331999999995
 30
0.0
 40
0.476957
 50
203.156587
 51
222.26802499999991
  0
ARC
  5
213
  8
0
 62
     7
 10
78.249262000000002
 20
98.201233999999985
 30
0.0
 40
0.394801
 50
224.29355099999989
 51
234.70009899999999
  0
ARC
  5
214
  8
0
 62
     7
 10
78.440175999999994
 20
98.476270000000014
 30
0.0
 40
0.729596
 50
234.94501099999991
 51
242.41402099999999
  0
ARC
  5
215
  8
0
 62
     7
 10
80.176892000000009
 20
101.79593199999989
 30
0.0
 40
4.4761049999999996
 50
242.38824999999991
 51
244.01189599999989
  0
LINE
  5
216
  8
0
 62
     7
 10
78.215500000000006
 20
97.772400000000005
 30
0.0
 11
78.240300000000005
 21
97.772400000000005
 31
0.0
  0
LINE
  5
217
  8
0
 62
     7
 10
78.0398
 20
98.996799999999993
 30
0.0
 11
80.915800000000004
 21
98.996799999999993
 31
0.0
  0
LINE
  5
218
  8
0
 62
     7
 10
78.0398
 20
100.997
 30
0.0
 11
79.490200000000002
 21
100.997
 31
0.0
  0
LINE
  5
219
  8
0
 62
     7
 10
79.490200000000002
 20
100.997
 30
0.0
 11
80.915800000000004
 21
100.997
 31
0.0
  0
LINE
  5
21A
  8
0
 62
     7
 10
81.165199999999984
 20
101.547
 30
0.0
 11
81.165199999999984
 21
101.422
 31
0.0
  0
LINE
  5
21B
  8
0
 62
     7
 10
81.165199999999984
 20
101.422
 30
0.0
 11
81.090100000000007
 21
101.297
 31
0.0
  0
LINE
  5
21C
  8
0
 62
     7
 10
77.789699999999996
 20
101.547
 30
0.0
 11
77.815200000000004
 21
101.422
 31
0.0
  0
LINE
  5
21D
  8
0
 62
     7
 10
77.815200000000004
 20
101.422
 30
0.0
 11
77.864800000000002
 21
101.297
 31
0.0
  0
LINE
  5
21E
  8
0
 62
     7
 10
77.789699999999996
 20
102.24799999999991
 30
0.0
 11
81.165199999999984
 21
102.24799999999991
 31
0.0
  0
LINE
  5
21F
  8
0
 62
     7
 10
77.789699999999996
 20
102.24799999999991
 30
0.0
 11
77.789699999999996
 21
101.547
 31
0.0
  0
LINE
  5
220
  8
0
 62
     7
 10
81.165199999999984
 20
102.24799999999991
 30
0.0
 11
81.165199999999984
 21
101.547
 31
0.0
  0
LINE
  5
221
  8
0
 62
     7
 10
81.790899999999993
 20
97.621499999999997
 30
0.0
 11
82.240799999999979
 21
97.371399999999994
 31
0.0
  0
LINE
  5
222
  8
0
 62
     7
 10
77.189599999999999
 20
97.621499999999997
 30
0.0
 11
76.740300000000005
 21
97.371399999999994
 31
0.0
  0
LINE
  5
223
  8
0
 62
     7
 10
77.864800000000002
 20
101.297
 30
0.0
 11
78.0398
 21
100.997
 31
0.0
  0
LINE
  5
224
  8
0
 62
     7
 10
78.0398
 20
98.996799999999993
 30
0.0
 11
77.864800000000002
 21
98.571700000000007
 31
0.0
  0
LINE
  5
225
  8
0
 62
     7
 10
81.090100000000007
 20
101.297
 30
0.0
 11
80.915800000000004
 21
100.997
 31
0.0
  0
LINE
  5
226
  8
0
 62
     7
 10
80.915800000000004
 20
98.996799999999993
 30
0.0
 11
81.115600000000001
 21
98.571700000000007
 31
0.0
  0
LINE
  5
227
  8
0
 62
     7
 10
78.0398
 20
100.997
 30
0.0
 11
78.0398
 21
98.996799999999993
 31
0.0
  0
LINE
  5
228
  8
0
 62
     7
 10
80.915800000000004
 20
100.997
 30
0.0
 11
80.915800000000004
 21
98.996799999999993
 31
0.0
  0
LINE
  5
229
  8
0
 62
     7
 10
77.939899999999994
 20
97.746200000000002
 30
0.0
 11
77.939899999999994
 21
97.621499999999997
 31
0.0
  0
LINE
  5
22A
  8
0
 62
     7
 10
81.040499999999994
 20
97.746200000000002
 30
0.0
 11
81.040499999999994
 21
97.621499999999997
 31
0.0
  0
LINE
  5
22B
  8
0
 62
     7
 10
76.740300000000005
 20
94.745500000000007
 30
0.0
 11
77.189599999999999
 21
94.496099999999984
 31
0.0
  0
LINE
  5
22C
  8
0
 62
     7
 10
82.240799999999979
 20
94.745500000000007
 30
0.0
 11
81.790899999999993
 21
94.496099999999984
 31
0.0
  0
LINE
  5
22D
  8
0
  6
AIGENLINE001
 62
     7
 10
66.605500000000006
 20
107.045
 30
0.0
 11
54.723300000000002
 21
124.3129999999999
 31
0.0
  0
LINE
  5
22E
  8
0
 62
     7
 10
53.410699999999999
 20
102.24799999999991
 30
0.0
 11
53.410699999999999
 21
120.304
 31
0.0
  0
LINE
  5
22F
  8
0
 62
     7
 10
56.035899999999998
 20
120.304
 30
0.0
 11
56.035899999999998
 21
102.24799999999991
 31
0.0
  0
LINE
  5
230
  8
0
  6
AIGENLINE001
 62
     7
 10
54.723300000000002
 20
124.3129999999999
 30
0.0
 11
54.723300000000002
 21
93.2834
 31
0.0
  0
LINE
  5
231
  8
0
 62
     7
 10
51.969900000000003
 20
97.371399999999994
 30
0.0
 11
51.969900000000003
 21
94.745500000000007
 31
0.0
  0
LINE
  5
232
  8
0
 62
     7
 10
53.3459
 20
97.371399999999994
 30
0.0
 11
53.3459
 21
94.745500000000007
 31
0.0
  0
ARC
  5
233
  8
0
 62
     7
 10
55.557879999999997
 20
103.101535
 30
0.0
 40
9.0937260000000002
 50
246.76201699999999
 51
248.304193
  0
ARC
  5
234
  8
0
 62
     7
 10
52.883336
 20
96.417529000000002
 30
0.0
 40
1.894547
 50
248.73187899999991
 51
258.21704999999992
  0
ARC
  5
235
  8
0
 62
     7
 10
52.677826000000003
 20
95.510314000000008
 30
0.0
 40
0.9646139999999999
 50
259.16278199999988
 51
269.53432299999992
  0
ARC
  5
236
  8
0
 62
     7
 10
52.668906999999997
 20
95.460364999999996
 30
0.0
 40
0.914634
 50
270.06760200000002
 51
282.41015499999992
  0
ARC
  5
237
  8
0
 62
     7
 10
52.54654399999999
 20
96.078906000000003
 30
0.0
 40
1.545078
 50
281.91230000000002
 51
292.80705499999999
  0
ARC
  5
238
  8
0
 62
     7
 10
52.082915
 20
97.263769999999994
 30
0.0
 40
2.817200999999999
 50
292.15812299999999
 51
296.63586900000001
  0
ARC
  5
239
  8
0
 62
     7
 10
52.590026999999992
 20
96.253364000000005
 30
0.0
 40
1.349596999999999
 50
55.93818000000001
 51
82.617697000000007
  0
ARC
  5
23A
  8
0
 62
     7
 10
52.669111000000001
 20
96.696073999999996
 30
0.0
 40
0.9006540000000001
 50
83.988495999999998
 51
89.944335999999979
  0
ARC
  5
23B
  8
0
 62
     7
 10
52.670777999999999
 20
96.678225999999995
 30
0.0
 40
0.9185019999999999
 50
90.049384000000003
 51
102.1912979999999
  0
ARC
  5
23C
  8
0
 62
     7
 10
52.762248
 20
96.207793000000024
 30
0.0
 40
1.397675999999999
 50
101.7839369999999
 51
113.39744
  0
ARC
  5
23D
  8
0
 62
     7
 10
52.995629999999998
 20
95.624256000000003
 30
0.0
 40
2.0259839999999998
 50
112.9015279999999
 51
120.415569
  0
LINE
  5
23E
  8
0
 62
     7
 10
57.470399999999998
 20
97.371399999999994
 30
0.0
 11
57.470399999999998
 21
94.745500000000007
 31
0.0
  0
LINE
  5
23F
  8
0
 62
     7
 10
56.095799999999997
 20
97.371399999999994
 30
0.0
 11
56.095799999999997
 21
94.745500000000007
 31
0.0
  0
ARC
  5
240
  8
0
 62
     7
 10
59.17830099999999
 20
101.892076
 30
0.0
 40
7.7829689999999996
 50
246.6681759999999
 51
248.47014100000001
  0
ARC
  5
241
  8
0
 62
     7
 10
57.050271999999993
 20
96.524058999999994
 30
0.0
 40
2.0085630000000001
 50
248.74283799999989
 51
257.786877
  0
ARC
  5
242
  8
0
 62
     7
 10
56.781620999999987
 20
95.351626999999993
 30
0.0
 40
0.8059649999999999
 50
258.82092499999987
 51
269.24880899999988
  0
ARC
  5
243
  8
0
 62
     7
 10
56.770240999999999
 20
95.449418000000009
 30
0.0
 40
0.903687
 50
270.051536
 51
282.21403900000001
  0
ARC
  5
244
  8
0
 62
     7
 10
56.670493000000008
 20
95.985520999999991
 30
0.0
 40
1.448845999999999
 50
281.58406300000001
 51
287.07385699999992
  0
ARC
  5
245
  8
0
 62
     7
 10
56.423651999999997
 20
96.787053
 30
0.0
 40
2.2875259999999988
 50
287.08962100000002
 51
291.47201499999989
  0
ARC
  5
246
  8
0
 62
     7
 10
54.956637000000001
 20
100.48367500000001
 30
0.0
 40
6.2645970000000002
 50
291.582335
 51
293.65740899999992
  0
ARC
  5
247
  8
0
 62
     7
 10
56.461286999999999
 20
95.642690000000016
 30
0.0
 40
2.0017059999999991
 50
59.726183999999989
 51
72.058098000000001
  0
ARC
  5
248
  8
0
 62
     7
 10
56.746434999999998
 20
96.471981999999997
 30
0.0
 40
1.125014999999999
 50
72.863624000000002
 51
88.746068999999991
  0
ARC
  5
249
  8
0
 62
     7
 10
56.771774000000001
 20
96.826862000000006
 30
0.0
 40
0.7698649999999999
 50
90.053616999999988
 51
103.8331139999999
  0
ARC
  5
24A
  8
0
 62
     7
 10
56.913727999999999
 20
96.154640000000015
 30
0.0
 40
1.4567110000000001
 50
102.932822
 51
114.169572
  0
ARC
  5
24B
  8
0
 62
     7
 10
57.157814999999999
 20
95.550331000000014
 30
0.0
 40
2.1081279999999989
 50
113.497215
 51
120.2494769999999
  0
ARC
  5
24C
  8
0
 62
     7
 10
52.08332399999999
 20
88.410483999999997
 30
0.0
 40
6.4596580000000001
 50
76.751113000000004
 51
78.728492000000003
  0
ARC
  5
24D
  8
0
 62
     7
 10
55.049692999999998
 20
100.343423
 30
0.0
 40
5.837502999999999
 50
255.25309100000001
 51
261.37647700000002
  0
ARC
  5
24E
  8
0
 62
     7
 10
54.520574000000003
 20
96.835516000000013
 30
0.0
 40
2.2899180000000001
 50
261.30534
 51
269.38259199999999
  0
LINE
  5
24F
  8
0
 62
     7
 10
54.495899999999999
 20
94.545699999999997
 30
0.0
 11
54.945099999999996
 21
94.545699999999997
 31
0.0
  0
ARC
  5
250
  8
0
 62
     7
 10
54.944819000000003
 20
96.507233999999997
 30
0.0
 40
1.9615029999999991
 50
270.00942900000001
 51
278.45896399999998
  0
ARC
  5
251
  8
0
 62
     7
 10
54.731281999999993
 20
98.160225999999994
 30
0.0
 40
3.6280649999999999
 50
277.95451200000002
 51
281.44549000000001
  0
ARC
  5
252
  8
0
 62
     7
 10
53.331488
 20
104.96717199999991
 30
0.0
 40
10.577437
 50
281.56042899999989
 51
283.46639800000003
  0
ARC
  5
253
  8
0
 62
     7
 10
57.214871000000002
 20
88.832205999999985
 30
0.0
 40
6.0182969999999996
 50
100.7161049999999
 51
103.64905
  0
ARC
  5
254
  8
0
 62
     7
 10
54.843288999999999
 20
93.673198999999997
 30
0.0
 40
3.9045640000000001
 50
71.289642999999984
 51
77.153841000000014
  0
ARC
  5
255
  8
0
 62
     7
 10
54.61519899999999
 20
92.852907000000002
 30
0.0
 40
4.7552059999999994
 50
76.671848999999995
 51
85.668565000000001
  0
ARC
  5
256
  8
0
 62
     7
 10
54.827678000000013
 20
95.312984999999998
 30
0.0
 40
2.2862550000000001
 50
86.321999000000005
 51
92.686459999999997
  0
ARC
  5
257
  8
0
 62
     7
 10
54.637152
 20
96.178923999999995
 30
0.0
 40
1.4202520000000001
 50
86.634834999999995
 51
91.033677999999995
  0
ARC
  5
258
  8
0
 62
     7
 10
54.651656000000003
 20
95.012482999999975
 30
0.0
 40
2.5867729999999991
 50
90.888774999999995
 51
94.809208000000012
  0
ARC
  5
259
  8
0
 62
     7
 10
54.847359999999988
 20
92.716729000000001
 30
0.0
 40
4.890852999999999
 50
94.839000000000013
 51
107.877894
  0
LINE
  5
25A
  8
0
 62
     7
 10
53.47059999999999
 20
97.772400000000005
 30
0.0
 11
54.720500000000001
 21
97.772400000000005
 31
0.0
  0
LINE
  5
25B
  8
0
 62
     7
 10
55.970399999999991
 20
97.772400000000005
 30
0.0
 11
54.720500000000001
 21
97.772400000000005
 31
0.0
  0
LINE
  5
25C
  8
0
 62
     7
 10
57.0212
 20
94.496099999999984
 30
0.0
 11
54.720500000000001
 21
94.496099999999984
 31
0.0
  0
LINE
  5
25D
  8
0
 62
     7
 10
54.720500000000001
 20
94.496099999999984
 30
0.0
 11
52.419899999999998
 21
94.496099999999984
 31
0.0
  0
LINE
  5
25E
  8
0
 62
     7
 10
52.120100000000001
 20
94.695899999999995
 30
0.0
 11
52.419899999999998
 21
94.520899999999997
 31
0.0
  0
LINE
  5
25F
  8
0
 62
     7
 10
52.419899999999998
 20
94.520899999999997
 30
0.0
 11
52.419899999999998
 21
94.496099999999984
 31
0.0
  0
LINE
  5
260
  8
0
 62
     7
 10
51.969900000000003
 20
94.745500000000007
 30
0.0
 11
52.419899999999998
 21
94.520899999999997
 31
0.0
  0
LINE
  5
261
  8
0
 62
     7
 10
57.470399999999998
 20
94.745500000000007
 30
0.0
 11
57.0212
 21
94.496099999999984
 31
0.0
  0
LINE
  5
262
  8
0
 62
     7
 10
57.0212
 20
97.621499999999997
 30
0.0
 11
52.419899999999998
 21
97.621499999999997
 31
0.0
  0
LINE
  5
263
  8
0
 62
     7
 10
56.270800000000001
 20
97.746200000000002
 30
0.0
 11
53.170200000000001
 21
97.746200000000002
 31
0.0
  0
ARC
  5
264
  8
0
 62
     7
 10
53.722881999999991
 20
98.444203000000016
 30
0.0
 40
0.7175740000000001
 50
213.5105869999999
 51
249.41894099999999
  0
ARC
  5
265
  8
0
 62
     7
 10
53.551188000000003
 20
98.303918999999993
 30
0.0
 40
0.497464
 50
198.43979899999991
 51
210.95558799999989
  0
LINE
  5
266
  8
0
 62
     7
 10
53.079300000000003
 20
98.146600000000007
 30
0.0
 11
53.04549999999999
 21
98.246499999999997
 31
0.0
  0
LINE
  5
267
  8
0
 62
     7
 10
53.04549999999999
 20
98.246499999999997
 30
0.0
 11
53.04549999999999
 21
98.396699999999996
 31
0.0
  0
LINE
  5
268
  8
0
 62
     7
 10
53.04549999999999
 20
98.396699999999996
 30
0.0
 11
53.095100000000002
 21
98.571700000000007
 31
0.0
  0
LINE
  5
269
  8
0
 62
     7
 10
56.370699999999999
 20
98.571700000000007
 30
0.0
 11
56.3459
 21
98.571700000000007
 31
0.0
  0
ARC
  5
26A
  8
0
 62
     7
 10
-50.817605
 20
83.290383999999989
 30
0.0
 40
108.272147
 50
8.0201609999999999
 51
8.1136999999999997
  0
LINE
  5
26B
  8
0
 62
     7
 10
56.395499999999991
 20
98.396699999999996
 30
0.0
 11
56.395499999999991
 21
98.246499999999997
 31
0.0
  0
LINE
  5
26C
  8
0
 62
     7
 10
56.395499999999991
 20
98.246499999999997
 30
0.0
 11
56.363199999999999
 21
98.146600000000007
 31
0.0
  0
ARC
  5
26D
  8
0
 62
     7
 10
55.297054000000003
 20
98.503107000000014
 30
0.0
 40
1.124137999999999
 50
336.71731599999998
 51
341.50834199999991
  0
ARC
  5
26E
  8
0
 62
     7
 10
55.891118000000013
 20
98.246331999999995
 30
0.0
 40
0.476957
 50
317.73199499999998
 51
336.84343299999989
  0
ARC
  5
26F
  8
0
 62
     7
 10
55.961481999999997
 20
98.201233999999985
 30
0.0
 40
0.394801
 50
305.29992099999993
 51
315.70646899999991
  0
ARC
  5
270
  8
0
 62
     7
 10
55.770568000000011
 20
98.476270000000014
 30
0.0
 40
0.729596
 50
297.58599900000002
 51
305.05500899999993
  0
ARC
  5
271
  8
0
 62
     7
 10
54.033852000000003
 20
101.79593199999989
 30
0.0
 40
4.4761049999999996
 50
295.98812400000003
 51
297.61176999999998
  0
LINE
  5
272
  8
0
 62
     7
 10
55.995199999999997
 20
97.772400000000005
 30
0.0
 11
55.970399999999991
 21
97.772400000000005
 31
0.0
  0
LINE
  5
273
  8
0
 62
     7
 10
56.17090000000001
 20
98.996799999999993
 30
0.0
 11
53.294899999999991
 21
98.996799999999993
 31
0.0
  0
LINE
  5
274
  8
0
 62
     7
 10
56.17090000000001
 20
100.997
 30
0.0
 11
54.720500000000001
 21
100.997
 31
0.0
  0
LINE
  5
275
  8
0
 62
     7
 10
54.720500000000001
 20
100.997
 30
0.0
 11
53.294899999999991
 21
100.997
 31
0.0
  0
LINE
  5
276
  8
0
 62
     7
 10
53.04549999999999
 20
101.547
 30
0.0
 11
53.04549999999999
 21
101.422
 31
0.0
  0
LINE
  5
277
  8
0
 62
     7
 10
53.04549999999999
 20
101.422
 30
0.0
 11
53.120600000000003
 21
101.297
 31
0.0
  0
LINE
  5
278
  8
0
 62
     7
 10
56.421000000000006
 20
101.547
 30
0.0
 11
56.395499999999991
 21
101.422
 31
0.0
  0
LINE
  5
279
  8
0
 62
     7
 10
56.395499999999991
 20
101.422
 30
0.0
 11
56.3459
 21
101.297
 31
0.0
  0
LINE
  5
27A
  8
0
 62
     7
 10
56.421000000000006
 20
102.24799999999991
 30
0.0
 11
53.04549999999999
 21
102.24799999999991
 31
0.0
  0
LINE
  5
27B
  8
0
 62
     7
 10
56.421000000000006
 20
102.24799999999991
 30
0.0
 11
56.421000000000006
 21
101.547
 31
0.0
  0
LINE
  5
27C
  8
0
 62
     7
 10
53.04549999999999
 20
102.24799999999991
 30
0.0
 11
53.04549999999999
 21
101.547
 31
0.0
  0
LINE
  5
27D
  8
0
 62
     7
 10
52.419899999999998
 20
97.621499999999997
 30
0.0
 11
51.969900000000003
 21
97.371399999999994
 31
0.0
  0
LINE
  5
27E
  8
0
 62
     7
 10
57.0212
 20
97.621499999999997
 30
0.0
 11
57.470399999999998
 21
97.371399999999994
 31
0.0
  0
LINE
  5
27F
  8
0
 62
     7
 10
56.3459
 20
101.297
 30
0.0
 11
56.17090000000001
 21
100.997
 31
0.0
  0
LINE
  5
280
  8
0
 62
     7
 10
56.17090000000001
 20
98.996799999999993
 30
0.0
 11
56.3459
 21
98.571700000000007
 31
0.0
  0
LINE
  5
281
  8
0
 62
     7
 10
53.120600000000003
 20
101.297
 30
0.0
 11
53.294899999999991
 21
100.997
 31
0.0
  0
LINE
  5
282
  8
0
 62
     7
 10
53.294899999999991
 20
98.996799999999993
 30
0.0
 11
53.095100000000002
 21
98.571700000000007
 31
0.0
  0
LINE
  5
283
  8
0
 62
     7
 10
56.17090000000001
 20
100.997
 30
0.0
 11
56.17090000000001
 21
98.996799999999993
 31
0.0
  0
LINE
  5
284
  8
0
 62
     7
 10
53.294899999999991
 20
100.997
 30
0.0
 11
53.294899999999991
 21
98.996799999999993
 31
0.0
  0
LINE
  5
285
  8
0
 62
     7
 10
56.270800000000001
 20
97.746200000000002
 30
0.0
 11
56.270800000000001
 21
97.621499999999997
 31
0.0
  0
LINE
  5
286
  8
0
 62
     7
 10
53.170200000000001
 20
97.746200000000002
 30
0.0
 11
53.170200000000001
 21
97.621499999999997
 31
0.0
  0
LINE
  5
287
  8
0
 62
     7
 10
57.470399999999998
 20
94.745500000000007
 30
0.0
 11
57.0212
 21
94.496099999999984
 31
0.0
  0
LINE
  5
288
  8
0
 62
     7
 10
51.969900000000003
 20
94.745500000000007
 30
0.0
 11
52.419899999999998
 21
94.496099999999984
 31
0.0
  0
LINE
  5
289
  8
0
 62
     7
 10
74.4803
 20
146.3129999999999
 30
0.0
 11
74.4803
 21
145.56299999999999
 31
0.0
  0
LINE
  5
28A
  8
0
 62
     7
 10
60.730499999999999
 20
146.3129999999999
 30
0.0
 11
60.730499999999999
 21
145.56299999999999
 31
0.0
  0
LINE
  5
28B
  8
0
 62
     7
 10
60.730499999999999
 20
146.3129999999999
 30
0.0
 11
74.4803
 21
146.3129999999999
 31
0.0
  0
LINE
  5
28C
  8
0
 62
     7
 10
60.730499999999999
 20
145.56299999999999
 30
0.0
 11
74.4803
 21
145.56299999999999
 31
0.0
  0
LINE
  5
28D
  8
0
 62
     7
 10
67.6053
 20
174.054
 30
0.0
 11
67.725800000000007
 21
174.05299999999991
 31
0.0
  0
LINE
  5
28E
  8
0
 62
     7
 10
67.725800000000007
 20
174.05299999999991
 30
0.0
 11
67.845200000000006
 21
174.05099999999999
 31
0.0
  0
ARC
  5
28F
  8
0
 62
     7
 10
67.547365999999997
 20
163.294175
 30
0.0
 40
10.760545
 50
87.778824999999998
 51
88.413877999999997
  0
ARC
  5
290
  8
0
 62
     7
 10
67.701059999999998
 20
167.31790699999999
 30
0.0
 40
6.7338800000000001
 50
86.749125000000006
 51
87.758666999999988
  0
ARC
  5
291
  8
0
 62
     7
 10
67.587393000000006
 20
164.832561
 30
0.0
 40
9.2217130000000012
 50
86.189541000000006
 51
86.919706000000005
  0
ARC
  5
292
  8
0
 62
     7
 10
67.360607999999999
 20
162.1473949999999
 30
0.0
 40
11.916111000000001
 50
85.398852999999988
 51
85.959517999999989
  0
ARC
  5
293
  8
0
 62
     7
 10
67.543515999999997
 20
164.84743700000001
 30
0.0
 40
9.2101609999999994
 50
84.472251999999997
 51
85.185624999999987
  0
ARC
  5
294
  8
0
 62
     7
 10
67.611554999999996
 20
165.72429099999991
 30
0.0
 40
8.3308470000000003
 50
83.579188999999985
 51
84.357108999999994
  0
ARC
  5
295
  8
0
 62
     7
 10
67.751097000000001
 20
166.94273000000001
 30
0.0
 40
7.1044460000000003
 50
82.701723000000001
 51
83.598613999999984
  0
ARC
  5
296
  8
0
 62
     7
 10
67.775134999999992
 20
167.1723439999999
 30
0.0
 40
6.8736410000000001
 50
81.747185999999999
 51
82.657326999999995
  0
ARC
  5
297
  8
0
 62
     7
 10
67.764050999999995
 20
167.12765200000001
 30
0.0
 40
6.9194630000000004
 50
80.826316000000006
 51
81.709482999999992
  0
ARC
  5
298
  8
0
 62
     7
 10
68.088798999999995
 20
169.11018899999991
 30
0.0
 40
4.9105119999999998
 50
79.66574
 51
80.879085000000003
  0
ARC
  5
299
  8
0
 62
     7
 10
67.995475999999996
 20
168.60895899999991
 30
0.0
 40
5.4203519999999994
 50
78.575831999999991
 51
79.64573
  0
ARC
  5
29A
  8
0
 62
     7
 10
68.209755000000001
 20
169.59244299999989
 30
0.0
 40
4.413937999999999
 50
77.500930000000011
 51
78.773584
  0
ARC
  5
29B
  8
0
 62
     7
 10
68.227112000000005
 20
169.67191800000001
 30
0.0
 40
4.3325899999999988
 50
76.234381999999997
 51
77.497557
  0
ARC
  5
29C
  8
0
 62
     7
 10
68.620817000000002
 20
171.2149489999999
 30
0.0
 40
2.7402380000000002
 50
74.641424999999998
 51
76.552863000000002
  0
ARC
  5
29D
  8
0
 62
     7
 10
68.596706000000012
 20
171.01480699999999
 30
0.0
 40
2.9397700000000002
 50
73.502651999999983
 51
75.221459999999993
  0
ARC
  5
29E
  8
0
 62
     7
 10
68.37609599999999
 20
170.29308599999999
 30
0.0
 40
3.6944319999999991
 50
72.085796000000002
 51
73.400596999999991
  0
ARC
  5
29F
  8
0
 62
     7
 10
68.659180000000006
 20
171.18008599999999
 30
0.0
 40
2.763363
 50
70.342089999999999
 51
72.01374100000001
  0
ARC
  5
2A0
  8
0
 62
     7
 10
68.626812999999999
 20
171.12203299999999
 30
0.0
 40
2.8289419999999992
 50
68.557958999999997
 51
70.120279999999994
  0
ARC
  5
2A1
  8
0
 62
     7
 10
68.511953000000005
 20
170.90173899999991
 30
0.0
 40
3.076090999999999
 50
66.714572000000004
 51
68.066602000000003
  0
ARC
  5
2A2
  8
0
 62
     7
 10
69.081955000000008
 20
172.2536189999999
 30
0.0
 40
1.609032999999999
 50
63.880476000000009
 51
66.328574000000003
  0
ARC
  5
2A3
  8
0
 62
     7
 10
69.183110999999997
 20
172.447901
 30
0.0
 40
1.3900689999999991
 50
61.415165000000002
 51
64.098669000000001
  0
ARC
  5
2A4
  8
0
 62
     7
 10
69.147456000000005
 20
172.3934899999999
 30
0.0
 40
1.454915999999999
 50
58.818469999999998
 51
61.207396000000003
  0
ARC
  5
2A5
  8
0
 62
     7
 10
69.195612999999994
 20
172.519473
 30
0.0
 40
1.322419
 50
55.326380000000007
 51
57.77738699999999
  0
ARC
  5
2A6
  8
0
 62
     7
 10
69.355902
 20
172.781677
 30
0.0
 40
1.015739999999999
 50
51.385939
 51
54.347918000000007
  0
ARC
  5
2A7
  8
0
 62
     7
 10
69.595089000000002
 20
173.08875399999991
 30
0.0
 40
0.626549
 50
46.486021999999991
 51
50.951954999999991
  0
ARC
  5
2A8
  8
0
 62
     7
 10
69.690862999999993
 20
173.195776
 30
0.0
 40
0.4830100000000001
 50
40.619326000000001
 51
45.984065999999991
  0
ARC
  5
2A9
  8
0
 62
     7
 10
69.771571999999992
 20
173.26071999999991
 30
0.0
 40
0.379482
 50
34.806240999999993
 51
41.109672000000003
  0
ARC
  5
2AA
  8
0
 62
     7
 10
69.756664000000001
 20
173.26120900000001
 30
0.0
 40
0.391545
 50
27.815242000000001
 51
33.502276999999999
  0
ARC
  5
2AB
  8
0
 62
     7
 10
69.843609999999984
 20
173.31508400000001
 30
0.0
 40
0.289592
 50
19.20027
 51
26.414480000000001
  0
ARC
  5
2AC
  8
0
 62
     7
 10
69.956525999999997
 20
173.35051799999991
 30
0.0
 40
0.171343
 50
8.7421849999999992
 51
20.428148999999991
  0
ARC
  5
2AD
  8
0
 62
     7
 10
69.956988999999993
 20
173.34577899999991
 30
0.0
 40
0.171672
 50
359.004818
 51
10.328896999999991
  0
ARC
  5
2AE
  8
0
 62
     7
 10
67.767321999999993
 20
177.58197799999991
 30
0.0
 40
2.575771
 50
358.01176199999998
 51
0.031457
  0
ARC
  5
2AF
  8
0
 62
     7
 10
67.99703199999999
 20
177.56872799999991
 30
0.0
 40
2.3457460000000001
 50
355.08025800000001
 51
358.140559
  0
ARC
  5
2B0
  8
0
 62
     7
 10
67.340765000000005
 20
177.6146169999999
 30
0.0
 40
3.0035500000000002
 50
352.88979099999989
 51
355.28172799999987
  0
ARC
  5
2B1
  8
0
 62
     7
 10
67.844149000000002
 20
177.56246999999991
 30
0.0
 40
2.497603999999999
 50
349.77624100000003
 51
352.64749499999988
  0
ARC
  5
2B2
  8
0
 62
     7
 10
68.275452999999999
 20
177.46670499999999
 30
0.0
 40
2.0562259999999992
 50
346.77163000000002
 51
350.269206
  0
ARC
  5
2B3
  8
0
 62
     7
 10
67.972262999999998
 20
177.51261199999999
 30
0.0
 40
2.362006
 50
344.32791200000003
 51
347.37057399999998
  0
ARC
  5
2B4
  8
0
 62
     7
 10
67.128873999999996
 20
177.75280100000001
 30
0.0
 40
3.2389259999999989
 50
342.04797600000001
 51
344.26717400000001
  0
ARC
  5
2B5
  8
0
 62
     7
 10
67.219682999999989
 20
177.761202
 30
0.0
 40
3.155332
 50
339.10796299999998
 51
341.39458500000001
  0
ARC
  5
2B6
  8
0
 62
     7
 10
67.716422999999992
 20
177.56681299999991
 30
0.0
 40
2.6219329999999998
 50
336.46171399999997
 51
339.20559900000001
  0
ARC
  5
2B7
  8
0
 62
     7
 10
67.327771999999996
 20
177.74743599999999
 30
0.0
 40
3.0503979999999991
 50
333.90847500000001
 51
336.26671299999992
  0
ARC
  5
2B8
  8
0
 62
     7
 10
66.927503999999999
 20
177.986861
 30
0.0
 40
3.515391999999999
 50
331.217153
 51
333.27305999999999
  0
ARC
  5
2B9
  8
0
 62
     7
 10
68.015043000000006
 20
177.38899299999991
 30
0.0
 40
2.2743500000000001
 50
328.05753099999993
 51
331.22624499999989
  0
ARC
  5
2BA
  8
0
 62
     7
 10
67.375775000000004
 20
177.78285199999991
 30
0.0
 40
3.025199999999999
 50
325.746825
 51
328.13319999999987
  0
ARC
  5
2BB
  8
0
 62
     7
 10
67.150402
 20
177.974321
 30
0.0
 40
3.3194019999999989
 50
323.02836500000001
 51
325.20466899999991
  0
ARC
  5
2BC
  8
0
 62
     7
 10
67.625072000000003
 20
177.6191
 30
0.0
 40
2.7265349999999988
 50
320.34881899999988
 51
322.99309499999998
  0
ARC
  5
2BD
  8
0
 62
     7
 10
67.717157999999984
 20
177.54841999999999
 30
0.0
 40
2.6105360000000002
 50
317.47739000000001
 51
320.25354199999992
  0
ARC
  5
2BE
  8
0
 62
     7
 10
67.370900000000006
 20
177.87243100000001
 30
0.0
 40
3.0847279999999988
 50
315.04427099999998
 51
317.38878399999987
  0
ARC
  5
2BF
  8
0
 62
     7
 10
67.371207999999996
 20
177.8958879999999
 30
0.0
 40
3.1011289999999998
 50
312.39673999999991
 51
314.73356100000001
  0
ARC
  5
2C0
  8
0
 62
     7
 10
66.191687999999999
 20
179.282782
 30
0.0
 40
4.9210629999999993
 50
310.17789399999992
 51
311.65088300000002
  0
ARC
  5
2C1
  8
0
 62
     7
 10
67.454094999999995
 20
177.85921099999999
 30
0.0
 40
3.0192849999999991
 50
306.89773199999991
 51
309.30301600000001
  0
ARC
  5
2C2
  8
0
 62
     7
 10
67.699394999999996
 20
177.52425500000001
 30
0.0
 40
2.6041460000000001
 50
304.21369700000002
 51
307.00631099999993
  0
ARC
  5
2C3
  8
0
 62
     7
 10
67.553003000000004
 20
177.74253999999999
 30
0.0
 40
2.8669699999999998
 50
301.64572799999991
 51
304.18014499999998
  0
ARC
  5
2C4
  8
0
 62
     7
 10
67.403181000000004
 20
178.0081679999999
 30
0.0
 40
3.1717299999999988
 50
299.13661500000001
 51
301.43218200000001
  0
ARC
  5
2C5
  8
0
 62
     7
 10
67.501481999999996
 20
177.86576199999999
 30
0.0
 40
2.9995270000000001
 50
296.39240999999993
 51
298.82096000000001
  0
ARC
  5
2C6
  8
0
 62
     7
 10
67.400131999999985
 20
178.11009399999989
 30
0.0
 40
3.2634929999999991
 50
293.85096099999998
 51
296.07949500000001
  0
ARC
  5
2C7
  8
0
 62
     7
 10
67.527967000000004
 20
177.86480299999999
 30
0.0
 40
2.9875119999999988
 50
291.07208899999989
 51
293.51087499999988
  0
ARC
  5
2C8
  8
0
 62
     7
 10
67.714185999999998
 20
177.36378500000001
 30
0.0
 40
2.453052
 50
288.254052
 51
291.22088300000001
  0
ARC
  5
2C9
  8
0
 62
     7
 10
67.654120999999975
 20
177.519454
 30
0.0
 40
2.6197149999999998
 50
285.645126
 51
288.43519900000001
  0
ARC
  5
2CA
  8
0
 62
     7
 10
67.482557999999983
 20
178.140457
 30
0.0
 40
3.2639770000000001
 50
283.36910899999992
 51
285.60537599999992
  0
ARC
  5
2CB
  8
0
 62
     7
 10
67.655242999999999
 20
177.44356999999991
 30
0.0
 40
2.5460560000000001
 50
280.34733599999993
 51
283.21454
  0
ARC
  5
2CC
  8
0
 62
     7
 10
67.586392000000004
 20
177.798248
 30
0.0
 40
2.9073349999999989
 50
277.91282299999989
 51
280.42667399999999
  0
ARC
  5
2CD
  8
0
 62
     7
 10
67.632156999999992
 20
177.459114
 30
0.0
 40
2.565129999999999
 50
275.096476
 51
277.94314600000001
  0
ARC
  5
2CE
  8
0
 62
     7
 10
67.625574
 20
177.37259
 30
0.0
 40
2.4795739999999991
 50
272.48078099999992
 51
275.42559699999998
  0
ARC
  5
2CF
  8
0
 62
     7
 10
67.603350000000006
 20
177.59963400000001
 30
0.0
 40
2.7073949999999991
 50
270.04039299999988
 51
272.74267999999989
  0
ARC
  5
2D0
  8
0
 62
     7
 10
65.285640999999998
 20
173.3432139999999
 30
0.0
 40
0.20307
 50
170.548766
 51
180.1175179999999
  0
ARC
  5
2D1
  8
0
 62
     7
 10
65.338981000000004
 20
173.33108300000001
 30
0.0
 40
0.257698
 50
162.091992
 51
169.83548500000001
  0
ARC
  5
2D2
  8
0
 62
     7
 10
65.294507999999993
 20
173.343761
 30
0.0
 40
0.211487
 50
151.73462900000001
 51
161.65555599999999
  0
ARC
  5
2D3
  8
0
 62
     7
 10
65.335148000000004
 20
173.33230399999991
 30
0.0
 40
0.252873
 50
145.052178
 51
153.80933999999991
  0
ARC
  5
2D4
  8
0
 62
     7
 10
65.452432000000002
 20
173.25333999999989
 30
0.0
 40
0.394248
 50
139.33796799999999
 51
145.40953400000001
  0
ARC
  5
2D5
  8
0
 62
     7
 10
65.612290999999999
 20
173.10651299999989
 30
0.0
 40
0.6112270000000001
 50
134.4346139999999
 51
138.6616709999999
  0
ARC
  5
2D6
  8
0
 62
     7
 10
65.713228000000001
 20
172.98075700000001
 30
0.0
 40
0.7718530000000001
 50
129.61587399999991
 51
133.24921900000001
  0
ARC
  5
2D7
  8
0
 62
     7
 10
65.763373999999985
 20
172.89719199999999
 30
0.0
 40
0.8683239999999999
 50
125.1657159999999
 51
128.64885000000001
  0
ARC
  5
2D8
  8
0
 62
     7
 10
65.847813000000002
 20
172.77346099999991
 30
0.0
 40
1.018108
 50
121.85620900000001
 51
125.039985
  0
ARC
  5
2D9
  8
0
 62
     7
 10
66.121429000000006
 20
172.29353699999999
 30
0.0
 40
1.5702949999999991
 50
118.880359
 51
121.093734
  0
ARC
  5
2DA
  8
0
 62
     7
 10
66.048777999999999
 20
172.422256
 30
0.0
 40
1.4224959999999991
 50
116.22446600000001
 51
118.822136
  0
ARC
  5
2DB
  8
0
 62
     7
 10
66.507750000000001
 20
171.42435699999999
 30
0.0
 40
2.520664
 50
113.99025399999999
 51
115.560002
  0
ARC
  5
2DC
  8
0
 62
     7
 10
66.342403000000004
 20
171.74801099999999
 30
0.0
 40
2.1578309999999998
 50
111.537364
 51
113.4732419999999
  0
ARC
  5
2DD
  8
0
 62
     7
 10
66.197851
 20
172.1366899999999
 30
0.0
 40
1.7432430000000001
 50
109.27430799999991
 51
111.807784
  0
ARC
  5
2DE
  8
0
 62
     7
 10
66.444511000000006
 20
171.51546200000001
 30
0.0
 40
2.4112309999999999
 50
108.0210159999999
 51
109.93426599999989
  0
ARC
  5
2DF
  8
0
 62
     7
 10
67.156514000000001
 20
169.26730699999999
 30
0.0
 40
4.7694029999999987
 50
106.78315000000001
 51
107.79962399999999
  0
ARC
  5
2E0
  8
0
 62
     7
 10
66.829762000000002
 20
170.24456000000001
 30
0.0
 40
3.7395519999999989
 50
104.962332
 51
106.31351599999989
  0
ARC
  5
2E1
  8
0
 62
     7
 10
66.917929999999998
 20
169.92356399999991
 30
0.0
 40
4.0724289999999996
 50
103.7039089999999
 51
104.994732
  0
ARC
  5
2E2
  8
0
 62
     7
 10
67.065044999999998
 20
169.32498799999991
 30
0.0
 40
4.6888180000000004
 50
102.5504099999999
 51
103.717612
  0
ARC
  5
2E3
  8
0
 62
     7
 10
66.993689000000003
 20
169.64395500000001
 30
0.0
 40
4.3619680000000001
 50
101.26255999999999
 51
102.54594899999999
  0
ARC
  5
2E4
  8
0
 62
     7
 10
66.970663999999999
 20
169.830904
 30
0.0
 40
4.1741449999999993
 50
100.06023399999989
 51
101.4537679999999
  0
ARC
  5
2E5
  8
0
 62
     7
 10
66.883634999999998
 20
170.536405
 30
0.0
 40
3.464491999999999
 50
98.960942000000017
 51
100.68123300000001
  0
ARC
  5
2E6
  8
0
 62
     7
 10
67.425207999999998
 20
167.29130599999991
 30
0.0
 40
6.7544039999999992
 50
98.309336000000016
 51
99.21119800000001
  0
ARC
  5
2E7
  8
0
 62
     7
 10
67.627187000000006
 20
165.74936199999999
 30
0.0
 40
8.3093830000000004
 50
97.395656000000002
 51
98.150887999999995
  0
ARC
  5
2E8
  8
0
 62
     7
 10
67.491736000000003
 20
166.70084399999999
 30
0.0
 40
7.3483910000000003
 50
96.438822000000002
 51
97.303270999999995
  0
ARC
  5
2E9
  8
0
 62
     7
 10
67.478420999999983
 20
166.8683199999999
 30
0.0
 40
7.1804809999999986
 50
95.580556000000016
 51
96.48310699999999
  0
ARC
  5
2EA
  8
0
 62
     7
 10
67.525462000000005
 20
166.4152629999999
 30
0.0
 40
7.6359649999999988
 50
94.740820999999997
 51
95.601263000000003
  0
ARC
  5
2EB
  8
0
 62
     7
 10
68.104469999999992
 20
158.8256759999999
 30
0.0
 40
15.247522999999999
 50
94.115149000000002
 51
94.552022999999991
  0
ARC
  5
2EC
  8
0
 62
     7
 10
67.622968
 20
164.78686200000001
 30
0.0
 40
9.2673009999999998
 50
93.059872999999982
 51
93.790697999999992
  0
ARC
  5
2ED
  8
0
 62
     7
 10
67.508135999999993
 20
167.39153400000001
 30
0.0
 40
6.6602579999999989
 50
92.254728
 51
93.269508000000002
  0
ARC
  5
2EE
  8
0
 62
     7
 10
67.578494999999975
 20
165.831963
 30
0.0
 40
8.2213940000000001
 50
91.484687999999991
 51
92.317079000000007
  0
LINE
  5
2EF
  8
0
 62
     7
 10
67.365499999999997
 20
174.05099999999999
 30
0.0
 11
67.485399999999998
 21
174.05299999999991
 31
0.0
  0
LINE
  5
2F0
  8
0
 62
     7
 10
67.485399999999998
 20
174.05299999999991
 30
0.0
 11
67.6053
 21
174.054
 31
0.0
  0
ARC
  5
2F1
  8
0
 62
     7
 10
67.604939999999999
 20
177.583099
 30
0.0
 40
2.6907610000000002
 50
266.08638999999988
 51
268.79994799999992
  0
ARC
  5
2F2
  8
0
 62
     7
 10
67.596986000000001
 20
177.625384
 30
0.0
 40
2.7324259999999989
 50
263.633488
 51
266.313309
  0
ARC
  5
2F3
  8
0
 62
     7
 10
67.644876999999994
 20
177.94362299999989
 30
0.0
 40
3.0540370000000001
 50
261.01811299999991
 51
263.40261199999998
  0
ARC
  5
2F4
  8
0
 62
     7
 10
67.537683000000001
 20
177.30482499999991
 30
0.0
 40
2.4063449999999991
 50
258.12887199999989
 51
261.16451000000001
  0
ARC
  5
2F5
  8
0
 62
     7
 10
67.476542000000009
 20
177.11506
 30
0.0
 40
2.2081590000000002
 50
255.36553199999989
 51
258.66850599999992
  0
ARC
  5
2F6
  8
0
 62
     7
 10
67.631449000000003
 20
177.77381099999999
 30
0.0
 40
2.8847230000000001
 50
253.15818399999989
 51
255.694311
  0
ARC
  5
2F7
  8
0
 62
     7
 10
67.626948999999996
 20
177.74271999999991
 30
0.0
 40
2.853666
 50
250.50762399999999
 51
253.06380299999989
  0
ARC
  5
2F8
  8
0
 62
     7
 10
67.544271999999992
 20
177.50496200000001
 30
0.0
 40
2.6019480000000001
 50
247.68272099999999
 51
250.47684799999999
  0
ARC
  5
2F9
  8
0
 62
     7
 10
67.542249999999996
 20
177.5199879999999
 30
0.0
 40
2.6150910000000001
 50
245.06136799999999
 51
247.84871899999999
  0
ARC
  5
2FA
  8
0
 62
     7
 10
67.578125
 20
177.61579499999991
 30
0.0
 40
2.7171029999999989
 50
242.54495499999999
 51
245.22724500000001
  0
ARC
  5
2FB
  8
0
 62
     7
 10
67.631406999999996
 20
177.717096
 30
0.0
 40
2.8315610000000002
 50
239.96077999999989
 51
242.5333049999999
  0
ARC
  5
2FC
  8
0
 62
     7
 10
67.719091000000006
 20
177.84052700000001
 30
0.0
 40
2.982340999999999
 50
237.25902699999989
 51
239.68955199999999
  0
ARC
  5
2FD
  8
0
 62
     7
 10
67.552618999999993
 20
177.58165899999989
 30
0.0
 40
2.6745649999999999
 50
234.540761
 51
237.25940099999991
  0
ARC
  5
2FE
  8
0
 62
     7
 10
67.568617000000003
 20
177.6101139999999
 30
0.0
 40
2.707025999999999
 50
231.9256069999999
 51
234.61434499999999
  0
ARC
  5
2FF
  8
0
 62
     7
 10
67.482535999999996
 20
177.50513000000001
 30
0.0
 40
2.5712980000000001
 50
229.175602
 51
231.992942
  0
ARC
  5
300
  8
0
 62
     7
 10
67.522874000000002
 20
177.56028399999991
 30
0.0
 40
2.6394109999999991
 50
226.54465699999989
 51
229.29569199999989
  0
ARC
  5
301
  8
0
 62
     7
 10
67.592112
 20
177.6407419999999
 30
0.0
 40
2.745441
 50
224.01178299999989
 51
226.65061900000001
  0
ARC
  5
302
  8
0
 62
     7
 10
68.071793999999997
 20
178.077868
 30
0.0
 40
3.3941979999999998
 50
221.55849599999999
 51
223.69262800000001
  0
ARC
  5
303
  8
0
 62
     7
 10
67.573460999999995
 20
177.611974
 30
0.0
 40
2.712299999999999
 50
218.5137749999999
 51
221.17757399999999
  0
ARC
  5
304
  8
0
 62
     7
 10
67.193136999999993
 20
177.32497099999989
 30
0.0
 40
2.2360269999999991
 50
215.6018049999999
 51
218.82794599999991
  0
ARC
  5
305
  8
0
 62
     7
 10
67.170772999999997
 20
177.33766799999989
 30
0.0
 40
2.2253579999999999
 50
212.95955599999991
 51
216.20280999999989
  0
ARC
  5
306
  8
0
 62
     7
 10
68.007594999999995
 20
177.8863399999999
 30
0.0
 40
3.2260040000000001
 50
210.81133099999991
 51
213.05006599999999
  0
ARC
  5
307
  8
0
 62
     7
 10
67.902252000000004
 20
177.79324099999999
 30
0.0
 40
3.0879529999999988
 50
207.99362500000001
 51
210.32889499999999
  0
ARC
  5
308
  8
0
 62
     7
 10
67.566405000000003
 20
177.60018099999991
 30
0.0
 40
2.7008130000000001
 50
205.05727899999991
 51
207.72135
  0
ARC
  5
309
  8
0
 62
     7
 10
67.372679000000005
 20
177.51654600000001
 30
0.0
 40
2.4899070000000001
 50
202.308639
 51
205.20188099999999
  0
ARC
  5
30A
  8
0
 62
     7
 10
67.195222000000001
 20
177.463067
 30
0.0
 40
2.305499999999999
 50
199.62606999999991
 51
202.75312199999999
  0
ARC
  5
30B
  8
0
 62
     7
 10
68.456190000000007
 20
177.89229999999989
 30
0.0
 40
3.6374339999999989
 50
197.347768
 51
199.323049
  0
ARC
  5
30C
  8
0
 62
     7
 10
68.935602000000003
 20
177.99316799999991
 30
0.0
 40
4.1253789999999988
 50
194.95391499999991
 51
196.6996189999999
  0
ARC
  5
30D
  8
0
 62
     7
 10
67.651247999999995
 20
177.60549499999991
 30
0.0
 40
2.7848189999999988
 50
191.48618999999999
 51
194.066565
  0
ARC
  5
30E
  8
0
 62
     7
 10
67.081750999999997
 20
177.50370000000001
 30
0.0
 40
2.2064989999999991
 50
188.585981
 51
191.84060600000001
  0
ARC
  5
30F
  8
0
 62
     7
 10
67.248784999999984
 20
177.55279899999999
 30
0.0
 40
2.3791090000000001
 50
186.12810999999999
 51
189.15464
  0
ARC
  5
310
  8
0
 62
     7
 10
67.278138999999996
 20
177.55657500000001
 30
0.0
 40
2.4086979999999989
 50
183.16205199999999
 51
186.142864
  0
ARC
  5
311
  8
0
 62
     7
 10
66.965267999999995
 20
177.56413399999991
 30
0.0
 40
2.096867
 50
180.41986899999989
 51
183.839876
  0
ARC
  5
312
  8
0
 62
     7
 10
66.568426000000002
 20
177.599918
 30
0.0
 40
1.7007380000000001
 50
180.556748
 51
181.72342
  0
ARC
  5
313
  8
0
 62
     7
 10
67.582798999999994
 20
177.09900099999999
 30
0.0
 40
2.999042999999999
 50
86.297171999999989
 51
88.580193999999992
  0
ARC
  5
314
  8
0
 62
     7
 10
67.584787000000006
 20
177.3359659999999
 30
0.0
 40
2.7624749999999989
 50
83.545291999999989
 51
86.020910999999998
  0
ARC
  5
315
  8
0
 62
     7
 10
67.605797999999993
 20
177.55531999999999
 30
0.0
 40
2.542152999999999
 50
80.771112000000002
 51
83.460070000000016
  0
ARC
  5
316
  8
0
 62
     7
 10
67.545368000000011
 20
177.27249499999991
 30
0.0
 40
2.831043999999999
 50
78.065453000000005
 51
80.481939999999994
  0
ARC
  5
317
  8
0
 62
     7
 10
67.644481999999996
 20
177.73912999999999
 30
0.0
 40
2.3540000000000001
 50
75.176368999999994
 51
78.076987000000003
  0
ARC
  5
318
  8
0
 62
     7
 10
67.649616000000009
 20
177.71993000000001
 30
0.0
 40
2.3712680000000002
 50
72.534959000000015
 51
75.414983000000007
  0
ARC
  5
319
  8
0
 62
     7
 10
67.558992000000003
 20
177.43742099999989
 30
0.0
 40
2.6679520000000001
 50
69.947716999999997
 51
72.499347000000014
  0
ARC
  5
31A
  8
0
 62
     7
 10
67.600369000000001
 20
177.5535659999999
 30
0.0
 40
2.5446610000000001
 50
67.238763000000006
 51
69.926226
  0
ARC
  5
31B
  8
0
 62
     7
 10
67.519638999999984
 20
177.39220599999999
 30
0.0
 40
2.7247150000000002
 50
64.482766999999996
 51
66.98612
  0
ARC
  5
31C
  8
0
 62
     7
 10
67.622300999999993
 20
177.612334
 30
0.0
 40
2.4818349999999989
 50
61.693339999999999
 51
64.432452999999995
  0
ARC
  5
31D
  8
0
 62
     7
 10
67.590035999999984
 20
177.552166
 30
0.0
 40
2.5501079999999998
 50
59.01963700000001
 51
61.696131999999992
  0
ARC
  5
31E
  8
0
 62
     7
 10
67.799914000000001
 20
177.894825
 30
0.0
 40
2.1483020000000002
 50
55.955928
 51
59.114460000000001
  0
ARC
  5
31F
  8
0
 62
     7
 10
67.83981
 20
177.91553899999991
 30
0.0
 40
2.1089120000000001
 50
53.313470999999993
 51
56.539007999999988
  0
ARC
  5
320
  8
0
 62
     7
 10
67.647280000000009
 20
177.645724
 30
0.0
 40
2.440313999999999
 50
50.689168999999993
 51
53.473243999999987
  0
ARC
  5
321
  8
0
 62
     7
 10
67.849907999999999
 20
177.87086099999999
 30
0.0
 40
2.1377980000000001
 50
47.891663999999999
 51
51.068328000000001
  0
ARC
  5
322
  8
0
 62
     7
 10
67.775006000000005
 20
177.77948299999991
 30
0.0
 40
2.2558220000000002
 50
45.034240000000011
 51
48.036541
  0
ARC
  5
323
  8
0
 62
     7
 10
68.067033999999992
 20
178.03320899999991
 30
0.0
 40
1.870129999999999
 50
42.242771999999988
 51
45.871108
  0
ARC
  5
324
  8
0
 62
     7
 10
67.366906
 20
177.401926
 30
0.0
 40
2.8128340000000001
 50
39.771988
 51
42.174799999999998
  0
ARC
  5
325
  8
0
 62
     7
 10
68.143687999999997
 20
178.024483
 30
0.0
 40
1.8176249999999989
 50
36.627263999999997
 51
40.35324
  0
ARC
  5
326
  8
0
 62
     7
 10
67.233019999999996
 20
177.33601899999999
 30
0.0
 40
2.9592230000000002
 50
34.522905000000002
 51
36.805489999999999
  0
ARC
  5
327
  8
0
 62
     7
 10
67.694710999999998
 20
177.66775999999999
 30
0.0
 40
2.3908549999999988
 50
31.418257999999991
 51
34.243357000000003
  0
ARC
  5
328
  8
0
 62
     7
 10
67.242248000000004
 20
177.39735599999989
 30
0.0
 40
2.917940999999999
 50
29.002044999999999
 51
31.318069999999999
  0
ARC
  5
329
  8
0
 62
     7
 10
67.850471999999996
 20
177.743584
 30
0.0
 40
2.218135999999999
 50
25.75836799999999
 51
28.79748300000001
  0
ARC
  5
32A
  8
0
 62
     7
 10
66.995855000000006
 20
177.34775099999999
 30
0.0
 40
3.1598889999999988
 50
23.357914000000001
 51
25.488275000000002
  0
ARC
  5
32B
  8
0
 62
     7
 10
67.730058999999997
 20
177.6678399999999
 30
0.0
 40
2.3589500000000001
 50
20.436833
 51
23.290773999999988
  0
ARC
  5
32C
  8
0
 62
     7
 10
67.525359999999992
 20
177.60953399999991
 30
0.0
 40
2.571178999999999
 50
17.446691999999999
 51
20.061588
  0
ARC
  5
32D
  8
0
 62
     7
 10
68.095422999999997
 20
177.76800800000001
 30
0.0
 40
1.979925999999999
 50
14.60999399999999
 51
18.017707000000001
  0
ARC
  5
32E
  8
0
 62
     7
 10
68.210994999999997
 20
177.7829899999999
 30
0.0
 40
1.8643700000000001
 50
11.459287
 51
15.06034
  0
ARC
  5
32F
  8
0
 62
     7
 10
67.484787999999995
 20
177.61281199999999
 30
0.0
 40
2.6100080000000001
 50
9.3789540000000002
 51
11.953417
  0
ARC
  5
330
  8
0
 62
     7
 10
67.856603000000007
 20
177.675342
 30
0.0
 40
2.2329720000000002
 50
6.3387109999999991
 51
9.3506800000000005
  0
ARC
  5
331
  8
0
 62
     7
 10
67.095590999999985
 20
177.60368799999989
 30
0.0
 40
2.9972709999999991
 50
3.852824
 51
6.0939500000000004
  0
ARC
  5
332
  8
0
 62
     7
 10
68.30148299999999
 20
177.678226
 30
0.0
 40
1.7891079999999999
 50
0.300423
 51
4.0660550000000004
  0
ARC
  5
333
  8
0
 62
     7
 10
67.559625999999994
 20
177.65136799999991
 30
0.0
 40
2.5312000000000001
 50
358.16858100000002
 51
0.820344
  0
ARC
  5
334
  8
0
 62
     7
 10
68.044387999999984
 20
177.64099799999991
 30
0.0
 40
2.0463599999999991
 50
354.73839299999997
 51
358.025013
  0
ARC
  5
335
  8
0
 62
     7
 10
68.296267
 20
177.582043
 30
0.0
 40
1.7904910000000001
 50
352.13052699999997
 51
355.87793499999998
  0
ARC
  5
336
  8
0
 62
     7
 10
67.638277000000002
 20
177.67056999999991
 30
0.0
 40
2.4544060000000001
 50
349.44073600000002
 51
352.18646699999988
  0
ARC
  5
337
  8
0
 62
     7
 10
68.108069
 20
177.56002000000001
 30
0.0
 40
1.97244
 50
346.68920299999991
 51
350.09685899999999
  0
ARC
  5
338
  8
0
 62
     7
 10
67.341708999999994
 20
177.74627499999991
 30
0.0
 40
2.7610990000000002
 50
344.15470599999998
 51
346.58939299999997
  0
ARC
  5
339
  8
0
 62
     7
 10
67.616985
 20
177.678124
 30
0.0
 40
2.4776919999999989
 50
341.21875799999992
 51
343.93271600000003
  0
ARC
  5
33A
  8
0
 62
     7
 10
67.111790999999997
 20
177.858608
 30
0.0
 40
3.0141070000000001
 50
338.82788699999998
 51
341.062432
  0
ARC
  5
33B
  8
0
 62
     7
 10
66.029627000000005
 20
178.35507699999991
 30
0.0
 40
4.2031529999999986
 50
336.24334499999998
 51
337.84484700000002
  0
ARC
  5
33C
  8
0
 62
     7
 10
67.852275000000006
 20
177.57732300000001
 30
0.0
 40
2.22174
 50
332.629277
 51
335.66544800000003
  0
ARC
  5
33D
  8
0
 62
     7
 10
67.195653000000007
 20
177.91528700000001
 30
0.0
 40
2.9602319999999991
 50
330.3834470000001
 51
332.66315800000001
  0
ARC
  5
33E
  8
0
 62
     7
 10
65.880923999999993
 20
178.73639299999991
 30
0.0
 40
4.509434999999999
 50
328.07240399999989
 51
329.56897299999991
  0
ARC
  5
33F
  8
0
 62
     7
 10
67.22319499999999
 20
177.9663149999999
 30
0.0
 40
2.963506999999999
 50
324.70625699999999
 51
326.984264
  0
ARC
  5
340
  8
0
 62
     7
 10
67.357714999999999
 20
177.88637900000001
 30
0.0
 40
2.8075549999999989
 50
322.04272400000002
 51
324.4516220000001
  0
ARC
  5
341
  8
0
 62
     7
 10
66.944603000000001
 20
178.2617929999999
 30
0.0
 40
3.3644489999999991
 50
319.31648699999988
 51
321.32902300000001
  0
ARC
  5
342
  8
0
 62
     7
 10
67.924581000000003
 20
177.420537
 30
0.0
 40
2.0729129999999998
 50
316.02575899999999
 51
319.29201899999993
  0
ARC
  5
343
  8
0
 62
     7
 10
67.677168000000009
 20
177.64371199999999
 30
0.0
 40
2.4059479999999991
 50
313.47225099999991
 51
316.29197399999998
  0
ARC
  5
344
  8
0
 62
     7
 10
67.59956600000001
 20
177.72649199999989
 30
0.0
 40
2.5194130000000001
 50
310.76443599999999
 51
313.45779199999993
  0
ARC
  5
345
  8
0
 62
     7
 10
68.090857999999997
 20
177.129445
 30
0.0
 40
1.7465099999999989
 50
307.455015
 51
311.346317
  0
ARC
  5
346
  8
0
 62
     7
 10
67.756717000000009
 20
177.51902899999999
 30
0.0
 40
2.2591549999999989
 50
305.16664800000001
 51
308.17353899999989
  0
ARC
  5
347
  8
0
 62
     7
 10
67.266241000000008
 20
178.23016100000001
 30
0.0
 40
3.1229969999999998
 50
302.83363500000002
 51
305.00838700000003
  0
ARC
  5
348
  8
0
 62
     7
 10
67.638066000000009
 20
177.665918
 30
0.0
 40
2.4472969999999998
 50
299.90167400000001
 51
302.68163199999998
  0
ARC
  5
349
  8
0
 62
     7
 10
67.466712999999999
 20
177.9981929999999
 30
0.0
 40
2.8208139999999999
 50
297.13706200000001
 51
299.55433900000003
  0
ARC
  5
34A
  8
0
 62
     7
 10
67.839768999999976
 20
177.239125
 30
0.0
 40
1.9751979999999989
 50
294.09676799999988
 51
297.55004600000001
  0
ARC
  5
34B
  8
0
 62
     7
 10
67.760660000000001
 20
177.36107999999999
 30
0.0
 40
2.1189429999999998
 50
291.49731400000002
 51
294.703102
  0
ARC
  5
34C
  8
0
 62
     7
 10
67.417496999999983
 20
178.2496779999999
 30
0.0
 40
3.0714860000000002
 50
289.15240799999992
 51
291.3790029999999
  0
ARC
  5
34D
  8
0
 62
     7
 10
67.576140000000009
 20
177.83543999999989
 30
0.0
 40
2.6281659999999989
 50
286.24451699999992
 51
288.84811500000001
  0
ARC
  5
34E
  8
0
 62
     7
 10
67.633436000000003
 20
177.62814399999991
 30
0.0
 40
2.4131200000000002
 50
283.48360899999989
 51
286.31526600000001
  0
ARC
  5
34F
  8
0
 62
     7
 10
67.677933999999993
 20
177.40777499999999
 30
0.0
 40
2.1884649999999999
 50
280.58643699999999
 51
283.695966
  0
ARC
  5
350
  8
0
 62
     7
 10
67.620300999999998
 20
177.62747300000001
 30
0.0
 40
2.4150669999999992
 50
278.1421499999999
 51
280.9729089999999
  0
ARC
  5
351
  8
0
 62
     7
 10
67.604081000000008
 20
177.76949999999999
 30
0.0
 40
2.557961999999999
 50
275.37811499999998
 51
278.051241
  0
ARC
  5
352
  8
0
 62
     7
 10
67.62576
 20
177.45457899999991
 30
0.0
 40
2.242408999999999
 50
272.53151200000002
 51
275.58081199999998
  0
ARC
  5
353
  8
0
 62
     7
 10
67.607147999999995
 20
177.72369399999991
 30
0.0
 40
2.5120930000000001
 50
269.95692799999989
 51
272.684504
  0
ARC
  5
354
  8
0
 62
     7
 10
67.617928000000006
 20
178.07587899999999
 30
0.0
 40
2.8644799999999999
 50
266.32615499999991
 51
268.71628799999991
  0
ARC
  5
355
  8
0
 62
     7
 10
67.621038999999996
 20
177.91794400000001
 30
0.0
 40
2.7071009999999989
 50
263.51998800000001
 51
266.04625499999992
  0
ARC
  5
356
  8
0
 62
     7
 10
67.552418000000003
 20
177.34402199999991
 30
0.0
 40
2.129103999999999
 50
260.40958499999988
 51
263.61178299999989
  0
ARC
  5
357
  8
0
 62
     7
 10
67.609882999999996
 20
177.7606899999999
 30
0.0
 40
2.5495540000000001
 50
258.01365199999992
 51
260.69626599999998
  0
ARC
  5
358
  8
0
 62
     7
 10
67.604339999999993
 20
177.72815800000001
 30
0.0
 40
2.5165809999999991
 50
255.27010200000001
 51
257.983294
  0
ARC
  5
359
  8
0
 62
     7
 10
67.518118999999984
 20
177.43778299999991
 30
0.0
 40
2.213846999999999
 50
252.432559
 51
255.51742299999989
  0
ARC
  5
35A
  8
0
 62
     7
 10
67.574693000000011
 20
177.64091999999991
 30
0.0
 40
2.4245969999999999
 50
249.79005599999999
 51
252.60686200000001
  0
ARC
  5
35B
  8
0
 62
     7
 10
67.573684999999998
 20
177.66325900000001
 30
0.0
 40
2.445227
 50
247.20527000000001
 51
249.99304699999999
  0
ARC
  5
35C
  8
0
 62
     7
 10
67.613631999999996
 20
177.74397999999991
 30
0.0
 40
2.5351270000000001
 50
244.38916399999999
 51
247.07976300000001
  0
ARC
  5
35D
  8
0
 62
     7
 10
67.591905000000011
 20
177.695639
 30
0.0
 40
2.482143999999999
 50
241.61851200000001
 51
244.3590879999999
  0
ARC
  5
35E
  8
0
 62
     7
 10
67.549863999999985
 20
177.637812
 30
0.0
 40
2.4113029999999989
 50
239.01568399999991
 51
241.84425699999991
  0
ARC
  5
35F
  8
0
 62
     7
 10
67.458175999999995
 20
177.48793599999999
 30
0.0
 40
2.2356119999999988
 50
236.01763999999989
 51
239.05278799999999
  0
ARC
  5
360
  8
0
 62
     7
 10
67.377022999999994
 20
177.40154200000001
 30
0.0
 40
2.1186979999999989
 50
233.320942
 51
236.531577
  0
ARC
  5
361
  8
0
 62
     7
 10
67.534137000000001
 20
177.62948700000001
 30
0.0
 40
2.395379999999999
 50
230.73006199999989
 51
233.56384199999991
  0
ARC
  5
362
  8
0
 62
     7
 10
67.639516999999984
 20
177.76693299999991
 30
0.0
 40
2.5684960000000001
 50
228.19867099999999
 51
230.8508939999999
  0
ARC
  5
363
  8
0
 62
     7
 10
67.844332999999992
 20
177.96056299999989
 30
0.0
 40
2.8494570000000001
 50
225.347049
 51
227.723771
  0
ARC
  5
364
  8
0
 62
     7
 10
67.435348000000005
 20
177.55115299999991
 30
0.0
 40
2.2707759999999988
 50
222.44593299999991
 51
225.42789999999999
  0
ARC
  5
365
  8
0
 62
     7
 10
67.386450999999994
 20
177.50951299999991
 30
0.0
 40
2.2065919999999992
 50
219.4418619999999
 51
222.504966
  0
ARC
  5
366
  8
0
 62
     7
 10
67.01957800000001
 20
177.24646599999991
 30
0.0
 40
1.7564099999999989
 50
216.56232999999989
 51
220.41821299999989
  0
ARC
  5
367
  8
0
 62
     7
 10
67.394389000000004
 20
177.554102
 30
0.0
 40
2.240845999999999
 50
214.156972
 51
217.17146199999999
  0
ARC
  5
368
  8
0
 62
     7
 10
67.466890000000006
 20
177.60930200000001
 30
0.0
 40
2.3318389999999991
 50
211.382521
 51
214.279134
  0
ARC
  5
369
  8
0
 62
     7
 10
67.219940000000008
 20
177.476471
 30
0.0
 40
2.0518999999999989
 50
208.5131889999999
 51
211.80696499999991
  0
ARC
  5
36A
  8
0
 62
     7
 10
67.360733999999994
 20
177.565485
 30
0.0
 40
2.218135999999999
 50
205.758388
 51
208.79750200000001
  0
ARC
  5
36B
  8
0
 62
     7
 10
68.215350999999998
 20
177.96131800000001
 30
0.0
 40
3.1598889999999988
 50
203.357934
 51
205.48829499999991
  0
ARC
  5
36C
  8
0
 62
     7
 10
67.436596999999992
 20
177.62208100000001
 30
0.0
 40
2.3104599999999991
 50
200.37367499999991
 51
203.29149099999989
  0
ARC
  5
36D
  8
0
 62
     7
 10
67.636918999999992
 20
177.691732
 30
0.0
 40
2.5225019999999998
 50
197.60848799999999
 51
200.27267800000001
  0
ARC
  5
36E
  8
0
 62
     7
 10
67.472658999999993
 20
177.63868299999999
 30
0.0
 40
2.3498909999999991
 50
194.71847199999991
 51
197.58720700000001
  0
ARC
  5
36F
  8
0
 62
     7
 10
67.186557999999991
 20
177.576075
 30
0.0
 40
2.0573060000000001
 50
191.79098400000001
 51
195.056445
  0
ARC
  5
370
  8
0
 62
     7
 10
67.510863000000001
 20
177.64810499999999
 30
0.0
 40
2.389491
 50
189.0780509999999
 51
191.8926909999999
  0
ARC
  5
371
  8
0
 62
     7
 10
67.301497999999995
 20
177.62658200000001
 30
0.0
 40
2.179384999999999
 50
186.30169199999989
 51
189.3877379999999
  0
ARC
  5
372
  8
0
 62
     7
 10
67.210383999999991
 20
177.62659899999991
 30
0.0
 40
2.088846999999999
 50
183.35576900000001
 51
186.57646899999989
  0
ARC
  5
373
  8
0
 62
     7
 10
67.054977000000008
 20
177.642458
 30
0.0
 40
1.934796
 50
180.62182599999991
 51
184.09402600000001
  0
ARC
  5
374
  8
0
 62
     7
 10
67.551490999999999
 20
177.65143399999999
 30
0.0
 40
2.431379999999999
 50
177.9455759999999
 51
180.70634999999999
  0
ARC
  5
375
  8
0
 62
     7
 10
67.405227999999994
 20
177.6596899999999
 30
0.0
 40
2.2849169999999992
 50
175.078125
 51
178.020993
  0
ARC
  5
376
  8
0
 62
     7
 10
67.253159999999994
 20
177.685642
 30
0.0
 40
2.1312220000000002
 50
172.268778
 51
175.42248699999999
  0
ARC
  5
377
  8
0
 62
     7
 10
67.952196000000001
 20
177.5848739999999
 30
0.0
 40
2.837466
 50
169.78093000000001
 51
172.15138999999991
  0
ARC
  5
378
  8
0
 62
     7
 10
67.690237999999994
 20
177.62087199999991
 30
0.0
 40
2.5733000000000001
 50
166.92157700000001
 51
169.5349479999999
  0
ARC
  5
379
  8
0
 62
     7
 10
67.152493000000007
 20
177.74993199999989
 30
0.0
 40
2.0203029999999988
 50
163.70820699999999
 51
167.03585200000001
  0
ARC
  5
37A
  8
0
 62
     7
 10
67.643739999999994
 20
177.61665300000001
 30
0.0
 40
2.529231999999999
 50
161.26968199999999
 51
163.93205
  0
ARC
  5
37B
  8
0
 62
     7
 10
68.213678000000002
 20
177.40715499999999
 30
0.0
 40
3.1362969999999999
 50
158.84404599999991
 51
160.9885669999999
  0
ARC
  5
37C
  8
0
 62
     7
 10
67.703462000000002
 20
177.58177000000001
 30
0.0
 40
2.5975369999999991
 50
155.77925999999999
 51
158.37433499999989
  0
ARC
  5
37D
  8
0
 62
     7
 10
67.433792000000011
 20
177.6939209999999
 30
0.0
 40
2.3056099999999988
 50
152.649812
 51
155.57165900000001
  0
ARC
  5
37E
  8
0
 62
     7
 10
67.390807999999993
 20
177.739148
 30
0.0
 40
2.2467450000000002
 50
150.17099400000001
 51
153.170625
  0
ARC
  5
37F
  8
0
 62
     7
 10
68.698155
 20
176.944061
 30
0.0
 40
3.776578999999999
 50
147.78264799999999
 51
149.572363
  0
ARC
  5
380
  8
0
 62
     7
 10
68.020314999999997
 20
177.32083600000001
 30
0.0
 40
3.0025369999999989
 50
144.721045
 51
146.969436
  0
ARC
  5
381
  8
0
 62
     7
 10
67.817071999999996
 20
177.4498879999999
 30
0.0
 40
2.7621109999999991
 50
142.022884
 51
144.4714219999999
  0
ARC
  5
382
  8
0
 62
     7
 10
67.317559000000003
 20
177.83455000000001
 30
0.0
 40
2.1316700000000002
 50
138.73440400000001
 51
141.911067
  0
ARC
  5
383
  8
0
 62
     7
 10
67.319531999999995
 20
177.8585459999999
 30
0.0
 40
2.1174149999999998
 50
136.06007099999991
 51
139.25766699999991
  0
ARC
  5
384
  8
0
 62
     7
 10
67.475480000000005
 20
177.73074099999991
 30
0.0
 40
2.3184490000000002
 50
133.539918
 51
136.46005199999991
  0
ARC
  5
385
  8
0
 62
     7
 10
68.313773999999995
 20
176.805432
 30
0.0
 40
3.5667919999999991
 50
131.159908
 51
133.06227999999999
  0
ARC
  5
386
  8
0
 62
     7
 10
67.377556000000013
 20
177.86608199999989
 30
0.0
 40
2.1520799999999989
 50
127.82176699999999
 51
130.97952599999999
  0
ARC
  5
387
  8
0
 62
     7
 10
67.554489000000004
 20
177.64845099999991
 30
0.0
 40
2.4324970000000001
 50
125.17132099999991
 51
127.970409
  0
ARC
  5
388
  8
0
 62
     7
 10
67.337772000000001
 20
177.9817919999999
 30
0.0
 40
2.0352329999999998
 50
122.2523129999999
 51
125.589669
  0
ARC
  5
389
  8
0
 62
     7
 10
67.471665999999985
 20
177.81010000000001
 30
0.0
 40
2.2519900000000002
 50
119.78107899999991
 51
122.80218600000001
  0
ARC
  5
38A
  8
0
 62
     7
 10
67.465454000000008
 20
177.84030299999989
 30
0.0
 40
2.222712
 50
116.96662499999989
 51
120.02879899999991
  0
ARC
  5
38B
  8
0
 62
     7
 10
67.537971999999996
 20
177.71162100000001
 30
0.0
 40
2.370295
 50
114.2351909999999
 51
117.1184139999999
  0
ARC
  5
38C
  8
0
 62
     7
 10
67.495450000000005
 20
177.84271399999989
 30
0.0
 40
2.233350999999999
 50
111.5794259999999
 51
114.62095100000001
  0
ARC
  5
38D
  8
0
 62
     7
 10
67.704806000000005
 20
177.30017000000001
 30
0.0
 40
2.8148710000000001
 50
109.050881
 51
111.4804899999999
  0
ARC
  5
38E
  8
0
 62
     7
 10
67.642581000000007
 20
177.46408299999999
 30
0.0
 40
2.639629999999999
 50
106.35749800000001
 51
108.93552699999999
  0
ARC
  5
38F
  8
0
 62
     7
 10
67.731453000000002
 20
177.10072999999991
 30
0.0
 40
3.0133540000000001
 50
103.76565100000001
 51
106.03318399999991
  0
ARC
  5
390
  8
0
 62
     7
 10
67.665079000000006
 20
177.29704699999991
 30
0.0
 40
2.8069380000000002
 50
100.971384
 51
103.4032689999999
  0
ARC
  5
391
  8
0
 62
     7
 10
67.622019999999992
 20
177.4657719999999
 30
0.0
 40
2.633121
 50
98.147210999999984
 51
100.7502829999999
  0
ARC
  5
392
  8
0
 62
     7
 10
67.605176999999998
 20
177.5561219999999
 30
0.0
 40
2.5412989999999991
 50
95.369329000000008
 51
98.059986000000023
  0
ARC
  5
393
  8
0
 62
     7
 10
67.603728000000004
 20
177.65134499999991
 30
0.0
 40
2.4463689999999989
 50
92.756979000000015
 51
95.544236999999995
  0
LINE
  5
394
  8
0
 62
     7
 10
67.486099999999993
 20
180.095
 30
0.0
 11
67.6053
 21
180.09700000000001
 31
0.0
  0
ARC
  5
395
  8
0
 62
     7
 10
70.122181000000012
 20
175.2382409999999
 30
0.0
 40
0.022289
 50
88.464337999999984
 51
111.55159999999989
  0
ARC
  5
396
  8
0
 62
     7
 10
70.135906000000006
 20
175.197205
 30
0.0
 40
0.065538
 50
109.53315599999991
 51
120.869066
  0
ARC
  5
397
  8
0
 62
     7
 10
70.213481999999999
 20
175.078416
 30
0.0
 40
0.20738
 50
122.42695000000001
 51
127.1810459999999
  0
ARC
  5
398
  8
0
 62
     7
 10
73.017956999999996
 20
171.57129900000001
 30
0.0
 40
4.6978549999999997
 50
128.58292800000001
 51
128.8683749999999
  0
ARC
  5
399
  8
0
 62
     7
 10
69.084966000000009
 20
176.27102500000001
 30
0.0
 40
1.4338420000000001
 50
312.13953599999991
 51
313.38651699999991
  0
ARC
  5
39A
  8
0
 62
     7
 10
71.462268999999992
 20
173.68275800000001
 30
0.0
 40
2.080581
 50
132.86198999999991
 51
133.94585299999989
  0
LINE
  5
39B
  8
0
 62
     7
 10
70.0184
 20
175.1809999999999
 30
0.0
 11
69.983400000000003
 21
175.14699999999999
 31
0.0
  0
ARC
  5
39C
  8
0
 62
     7
 10
66.246137000000004
 20
179.03758899999991
 30
0.0
 40
5.3948080000000003
 50
313.28060899999991
 51
313.84868699999993
  0
ARC
  5
39D
  8
0
 62
     7
 10
68.583926000000005
 20
176.5380669999999
 30
0.0
 40
1.972454999999999
 50
311.83520699999991
 51
313.61990400000002
  0
ARC
  5
39E
  8
0
 62
     7
 10
68.065597999999994
 20
177.060711
 30
0.0
 40
2.70784
 50
311.11804499999988
 51
312.63061499999998
  0
ARC
  5
39F
  8
0
 62
     7
 10
68.005195000000001
 20
177.14265700000001
 30
0.0
 40
2.8093089999999989
 50
309.28401099999991
 51
310.94705299999993
  0
ARC
  5
3A0
  8
0
 62
     7
 10
68.563723999999993
 20
176.44144700000001
 30
0.0
 40
1.912955
 50
307.13229899999999
 51
309.63357200000002
  0
ARC
  5
3A1
  8
0
 62
     7
 10
68.288456000000011
 20
176.774936
 30
0.0
 40
2.3450649999999991
 50
305.47531099999998
 51
307.57557700000001
  0
ARC
  5
3A2
  8
0
 62
     7
 10
68.569117000000006
 20
176.3383409999999
 30
0.0
 40
1.8268040000000001
 50
303.47479499999997
 51
306.25371799999999
  0
ARC
  5
3A3
  8
0
 62
     7
 10
67.94126
 20
177.24915499999989
 30
0.0
 40
2.932925
 50
302.04249299999998
 51
303.89159899999999
  0
ARC
  5
3A4
  8
0
 62
     7
 10
68.406926999999996
 20
176.48128199999991
 30
0.0
 40
2.0350130000000002
 50
299.631686
 51
302.39916899999992
  0
ARC
  5
3A5
  8
0
 62
     7
 10
67.692071999999996
 20
177.70897199999999
 30
0.0
 40
3.455619
 50
298.25899900000002
 51
299.869956
  0
ARC
  5
3A6
  8
0
 62
     7
 10
67.601697000000001
 20
177.89902499999991
 30
0.0
 40
3.665824999999999
 50
296.542193
 51
298.096788
  0
ARC
  5
3A7
  8
0
 62
     7
 10
66.417451999999983
 20
180.4828389999999
 30
0.0
 40
6.5072019999999986
 50
294.81205899999998
 51
295.70425499999999
  0
ARC
  5
3A8
  8
0
 62
     7
 10
67.126626000000002
 20
179.083279
 30
0.0
 40
4.939559
 50
292.97856999999999
 51
294.15791499999989
  0
ARC
  5
3A9
  8
0
 62
     7
 10
67.909080000000003
 20
177.275632
 30
0.0
 40
2.9699239999999998
 50
290.72785599999997
 51
292.69525499999992
  0
ARC
  5
3AA
  8
0
 62
     7
 10
67.956417000000002
 20
177.10719599999999
 30
0.0
 40
2.7956779999999992
 50
288.95710999999989
 51
291.04227099999991
  0
ARC
  5
3AB
  8
0
 62
     7
 10
67.859356000000005
 20
177.31874799999991
 30
0.0
 40
3.0273750000000001
 50
287.47614399999992
 51
289.39376900000002
  0
ARC
  5
3AC
  8
0
 62
     7
 10
67.480361000000002
 20
178.55676699999989
 30
0.0
 40
4.3220780000000003
 50
286.00249300000002
 51
287.3397839999999
  0
ARC
  5
3AD
  8
0
 62
     7
 10
67.696954000000005
 20
177.80258399999991
 30
0.0
 40
3.5374089999999989
 50
284.39031699999992
 51
285.99782599999992
  0
ARC
  5
3AE
  8
0
 62
     7
 10
67.431173000000001
 20
178.90865500000001
 30
0.0
 40
4.6748629999999993
 50
282.97110600000002
 51
284.17650800000001
  0
ARC
  5
3AF
  8
0
 62
     7
 10
67.551969
 20
178.43734699999999
 30
0.0
 40
4.188485
 50
281.45103699999993
 51
282.80798599999991
  0
ARC
  5
3B0
  8
0
 62
     7
 10
67.672721999999993
 20
177.853667
 30
0.0
 40
3.5924510000000001
 50
279.81557299999992
 51
281.41163699999993
  0
ARC
  5
3B1
  8
0
 62
     7
 10
67.457984999999994
 20
179.166155
 30
0.0
 40
4.9223489999999988
 50
278.50649299999998
 51
279.67407799999989
  0
ARC
  5
3B2
  8
0
 62
     7
 10
67.470928999999998
 20
179.32904500000001
 30
0.0
 40
5.0816660000000002
 50
276.97965899999991
 51
278.090487
  0
ARC
  5
3B3
  8
0
 62
     7
 10
67.634085999999996
 20
177.96105999999989
 30
0.0
 40
3.7039939999999998
 50
275.566104
 51
277.04593899999998
  0
ARC
  5
3B4
  8
0
 62
     7
 10
67.570442
 20
178.67559800000001
 30
0.0
 40
4.4213409999999991
 50
274.22305999999998
 51
275.48885000000001
  0
ARC
  5
3B5
  8
0
 62
     7
 10
66.892300000000006
 20
190.1342479999999
 30
0.0
 40
15.899699999999999
 50
273.26806899999991
 51
273.61941999999988
  0
ARC
  5
3B6
  8
0
 62
     7
 10
67.514476000000002
 20
180.9040159999999
 30
0.0
 40
6.6496880000000003
 50
271.61210999999997
 51
272.44973799999991
  0
ARC
  5
3B7
  8
0
 62
     7
 10
67.589184000000003
 20
179.384826
 30
0.0
 40
5.1290969999999989
 50
270.17957999999987
 51
271.25532199999998
  0
ARC
  5
3B8
  8
0
 62
     7
 10
67.755200000000002
 20
177.58484799999999
 30
0.0
 40
2.587893999999999
 50
359.9677769999999
 51
2.7261329999999999
  0
ARC
  5
3B9
  8
0
 62
     7
 10
67.400478000000007
 20
177.5624029999999
 30
0.0
 40
2.9432869999999989
 50
2.83413
 51
5.2580349999999987
  0
ARC
  5
3BA
  8
0
 62
     7
 10
67.454525000000004
 20
177.56622200000001
 30
0.0
 40
2.8891169999999988
 50
5.28085
 51
7.7497499999999997
  0
ARC
  5
3BB
  8
0
 62
     7
 10
67.443804
 20
177.53534799999991
 30
0.0
 40
2.9040499999999989
 50
8.324800999999999
 51
10.78222899999999
  0
ARC
  5
3BC
  8
0
 62
     7
 10
67.411304999999999
 20
177.53105600000001
 30
0.0
 40
2.9367789999999991
 50
10.74587599999999
 51
13.17822399999999
  0
ARC
  5
3BD
  8
0
 62
     7
 10
68.022873000000004
 20
177.674171
 30
0.0
 40
2.3086889999999989
 50
13.180196
 51
16.274692000000002
  0
ARC
  5
3BE
  8
0
 62
     7
 10
67.758369999999999
 20
177.61459300000001
 30
0.0
 40
2.5793449999999991
 50
15.898516000000001
 51
18.667836999999999
  0
ARC
  5
3BF
  8
0
 62
     7
 10
67.703707999999992
 20
177.58960400000001
 30
0.0
 40
2.6391360000000001
 50
18.801966
 51
21.515129000000002
  0
ARC
  5
3C0
  8
0
 62
     7
 10
67.646858999999992
 20
177.572169
 30
0.0
 40
2.698423
 50
21.416854999999991
 51
24.066267
  0
ARC
  5
3C1
  8
0
 62
     7
 10
67.076926
 20
177.3034879999999
 30
0.0
 40
3.3284059999999989
 50
24.288515
 51
26.441369999999999
  0
ARC
  5
3C2
  8
0
 62
     7
 10
66.763922999999991
 20
177.106719
 30
0.0
 40
3.696466
 50
27.011945000000001
 51
28.946998000000001
  0
ARC
  5
3C3
  8
0
 62
     7
 10
65.548113999999998
 20
176.31549099999989
 30
0.0
 40
5.144387
 50
30.104555999999999
 51
31.498328999999998
  0
ARC
  5
3C4
  8
0
 62
     7
 10
67.672409999999999
 20
177.5912229999999
 30
0.0
 40
2.666649
 50
31.973807000000001
 51
34.662514000000002
  0
ARC
  5
3C5
  8
0
 62
     7
 10
67.038112999999996
 20
177.11773700000001
 30
0.0
 40
3.457778999999999
 50
35.138052999999999
 51
37.217390000000002
  0
ARC
  5
3C6
  8
0
 62
     7
 10
67.566654
 20
177.514003
 30
0.0
 40
2.7972019999999991
 50
37.301747999999989
 51
39.87034899999999
  0
ARC
  5
3C7
  8
0
 62
     7
 10
67.734623999999997
 20
177.64738500000001
 30
0.0
 40
2.582786
 50
39.988095999999992
 51
42.768925000000003
  0
ARC
  5
3C8
  8
0
 62
     7
 10
68.027160999999992
 20
177.931343
 30
0.0
 40
2.1752379999999998
 50
42.51057999999999
 51
45.825564999999997
  0
ARC
  5
3C9
  8
0
 62
     7
 10
67.920316
 20
177.86669499999991
 30
0.0
 40
2.2962759999999989
 50
45.037514000000002
 51
48.17862499999999
  0
ARC
  5
3CA
  8
0
 62
     7
 10
67.551837000000006
 20
177.46649899999991
 30
0.0
 40
2.84023
 50
48.022381000000003
 51
50.553140999999997
  0
ARC
  5
3CB
  8
0
 62
     7
 10
67.596648000000002
 20
177.52305699999991
 30
0.0
 40
2.7680839999999991
 50
50.525581999999993
 51
53.133554000000011
  0
ARC
  5
3CC
  8
0
 62
     7
 10
67.405808999999991
 20
177.23539099999991
 30
0.0
 40
3.1127849999999988
 50
53.499986
 51
55.824424999999991
  0
ARC
  5
3CD
  8
0
 62
     7
 10
67.835746
 20
177.87412699999999
 30
0.0
 40
2.3428390000000001
 50
55.748572000000003
 51
58.828060999999991
  0
ARC
  5
3CE
  8
0
 62
     7
 10
67.846326000000005
 20
177.9364469999999
 30
0.0
 40
2.2841580000000001
 50
58.245984
 51
61.410108999999999
  0
ARC
  5
3CF
  8
0
 62
     7
 10
67.794861999999995
 20
177.88412799999989
 30
0.0
 40
2.354811999999999
 50
60.919764999999998
 51
63.992674000000001
  0
ARC
  5
3D0
  8
0
 62
     7
 10
67.51867
 20
177.3376749999999
 30
0.0
 40
2.9670489999999998
 50
63.826365000000003
 51
66.262715
  0
ARC
  5
3D1
  8
0
 62
     7
 10
67.617701999999994
 20
177.538161
 30
0.0
 40
2.743676999999999
 50
66.47048199999999
 51
69.116658999999999
  0
ARC
  5
3D2
  8
0
 62
     7
 10
67.666341000000003
 20
177.68265400000001
 30
0.0
 40
2.591345
 50
68.982602
 51
71.772870999999995
  0
ARC
  5
3D3
  8
0
 62
     7
 10
67.528435000000002
 20
177.259297
 30
0.0
 40
3.0365950000000002
 50
71.799909999999997
 51
74.189441000000002
  0
ARC
  5
3D4
  8
0
 62
     7
 10
67.688123000000004
 20
177.84069099999991
 30
0.0
 40
2.433692999999999
 50
74.077421000000001
 51
77.055102000000019
  0
ARC
  5
3D5
  8
0
 62
     7
 10
67.659755000000004
 20
177.77007900000001
 30
0.0
 40
2.508891999999999
 50
76.784967000000009
 51
79.678438
  0
ARC
  5
3D6
  8
0
 62
     7
 10
67.564246999999995
 20
177.254456
 30
0.0
 40
3.0332849999999989
 50
79.648652999999996
 51
82.041522999999998
  0
ARC
  5
3D7
  8
0
 62
     7
 10
67.598089999999999
 20
177.425703
 30
0.0
 40
2.8590179999999989
 50
82.238061000000002
 51
84.771084999999985
  0
ARC
  5
3D8
  8
0
 62
     7
 10
67.621972
 20
177.78079099999991
 30
0.0
 40
2.503245999999999
 50
84.574724999999987
 51
87.475949000000014
  0
ARC
  5
3D9
  8
0
 62
     7
 10
67.607512
 20
177.46291199999999
 30
0.0
 40
2.8214540000000001
 50
87.466878000000008
 51
90.045752000000007
  0
ARC
  5
3DA
  8
0
 62
     7
 10
67.603794999999991
 20
177.45782299999991
 30
0.0
 40
2.8265410000000002
 50
89.970316999999994
 51
92.53058200000001
  0
ARC
  5
3DB
  8
0
 62
     7
 10
67.608816000000004
 20
177.4989689999999
 30
0.0
 40
2.7856659999999991
 50
92.671126000000015
 51
95.278160999999997
  0
ARC
  5
3DC
  8
0
 62
     7
 10
67.594522999999995
 20
177.58015
 30
0.0
 40
2.7035230000000001
 50
95.134788999999998
 51
97.820785000000001
  0
ARC
  5
3DD
  8
0
 62
     7
 10
67.616967000000002
 20
177.43842199999989
 30
0.0
 40
2.8469879999999992
 50
97.88015399999999
 51
100.4296309999999
  0
ARC
  5
3DE
  8
0
 62
     7
 10
67.714031000000006
 20
176.988043
 30
0.0
 40
3.3075260000000002
 50
100.6709199999999
 51
102.86563599999999
  0
ARC
  5
3DF
  8
0
 62
     7
 10
67.639099999999999
 20
177.397165
 30
0.0
 40
2.8920479999999991
 50
103.223196
 51
105.722257
  0
ARC
  5
3E0
  8
0
 62
     7
 10
67.462333999999998
 20
177.97330400000001
 30
0.0
 40
2.2896070000000002
 50
105.3710649999999
 51
108.54860499999999
  0
ARC
  5
3E1
  8
0
 62
     7
 10
67.781017000000006
 20
177.02234899999999
 30
0.0
 40
3.2925399999999998
 50
108.54201500000001
 51
110.74462699999999
  0
ARC
  5
3E2
  8
0
 62
     7
 10
67.609650000000002
 20
177.50357600000001
 30
0.0
 40
2.7818320000000001
 50
110.9546099999999
 51
113.5500029999999
  0
ARC
  5
3E3
  8
0
 62
     7
 10
67.524727999999996
 20
177.698273
 30
0.0
 40
2.56942
 50
113.54871199999999
 51
116.362168
  0
ARC
  5
3E4
  8
0
 62
     7
 10
67.653886999999983
 20
177.42050800000001
 30
0.0
 40
2.8756619999999988
 50
116.21048999999999
 51
118.73281399999991
  0
ARC
  5
3E5
  8
0
 62
     7
 10
67.493298999999993
 20
177.7221909999999
 30
0.0
 40
2.5339299999999989
 50
118.82806100000001
 51
121.6734949999999
  0
ARC
  5
3E6
  8
0
 62
     7
 10
67.436573999999993
 20
177.77365
 30
0.0
 40
2.460442
 50
121.178507
 51
124.1230709999999
  0
ARC
  5
3E7
  8
0
 62
     7
 10
67.889433999999994
 20
177.12966399999991
 30
0.0
 40
3.247627
 50
124.363609
 51
126.5840909999999
  0
ARC
  5
3E8
  8
0
 62
     7
 10
67.384268999999989
 20
177.81175400000001
 30
0.0
 40
2.3988399999999999
 50
126.60529699999999
 51
129.61224799999991
  0
ARC
  5
3E9
  8
0
 62
     7
 10
67.599811000000003
 20
177.524089
 30
0.0
 40
2.7579329999999991
 50
129.2515239999999
 51
131.8659649999999
  0
ARC
  5
3EA
  8
0
 62
     7
 10
67.835787999999994
 20
177.30272799999989
 30
0.0
 40
3.0803989999999999
 50
132.38677799999999
 51
134.721204
  0
ARC
  5
3EB
  8
0
 62
     7
 10
67.159064999999998
 20
177.95560800000001
 30
0.0
 40
2.140426999999999
 50
134.1474509999999
 51
137.5163639999999
  0
ARC
  5
3EC
  8
0
 62
     7
 10
67.542966000000007
 20
177.58890299999999
 30
0.0
 40
2.6712310000000001
 50
137.2770999999999
 51
139.96583799999991
  0
ARC
  5
3ED
  8
0
 62
     7
 10
67.177396000000002
 20
177.886743
 30
0.0
 40
2.1997559999999998
 50
139.78073599999999
 51
143.04712799999999
  0
ARC
  5
3EE
  8
0
 62
     7
 10
67.602254000000002
 20
177.532509
 30
0.0
 40
2.7523619999999989
 50
142.47105400000001
 51
145.08050299999991
  0
ARC
  5
3EF
  8
0
 62
     7
 10
67.939645999999996
 20
177.33065999999999
 30
0.0
 40
3.144674999999999
 50
145.5838159999999
 51
147.86637500000001
  0
ARC
  5
3F0
  8
0
 62
     7
 10
67.351285000000004
 20
177.69368399999999
 30
0.0
 40
2.4533599999999991
 50
147.73713299999989
 51
150.659942
  0
ARC
  5
3F1
  8
0
 62
     7
 10
67.871890000000008
 20
177.412396
 30
0.0
 40
3.0450300000000001
 50
150.845969
 51
153.19504900000001
  0
ARC
  5
3F2
  8
0
 62
     7
 10
67.731275999999994
 20
177.484714
 30
0.0
 40
2.8869139999999991
 50
153.21759899999989
 51
155.69958600000001
  0
ARC
  5
3F3
  8
0
 62
     7
 10
67.616043000000005
 20
177.55969799999991
 30
0.0
 40
2.751112
 50
156.135266
 51
158.73447499999989
  0
ARC
  5
3F4
  8
0
 62
     7
 10
67.108781000000008
 20
177.73493999999999
 30
0.0
 40
2.214928
 50
158.19981000000001
 51
161.42854800000001
  0
ARC
  5
3F5
  8
0
 62
     7
 10
68.15638100000001
 20
177.39586199999999
 30
0.0
 40
3.3159900000000002
 50
161.63978599999999
 51
163.79382100000001
  0
ARC
  5
3F6
  8
0
 62
     7
 10
67.541122000000001
 20
177.58161000000001
 30
0.0
 40
2.673346
 50
163.93638100000001
 51
166.60868999999991
  0
ARC
  5
3F7
  8
0
 62
     7
 10
68.030473000000001
 20
177.47357600000001
 30
0.0
 40
3.1744249999999989
 50
166.75735499999999
 51
169.00888399999999
  0
ARC
  5
3F8
  8
0
 62
     7
 10
68.529782999999995
 20
177.41810499999991
 30
0.0
 40
3.6753779999999989
 50
169.64404799999991
 51
171.58745999999999
  0
ARC
  5
3F9
  8
0
 62
     7
 10
67.458753000000002
 20
177.60024699999991
 30
0.0
 40
2.589331
 50
172.10728299999991
 51
174.862078
  0
ARC
  5
3FA
  8
0
 62
     7
 10
67.450372000000002
 20
177.58789299999989
 30
0.0
 40
2.582122
 50
174.572397
 51
177.33539799999991
  0
ARC
  5
3FB
  8
0
 62
     7
 10
67.937352000000004
 20
177.5650389999999
 30
0.0
 40
3.0696379999999999
 50
177.33184900000001
 51
179.657408
  0
ARC
  5
3FC
  8
0
 62
     7
 10
67.638304000000005
 20
184.35670400000001
 30
0.0
 40
11.698707999999989
 50
269.207942
 51
269.782487
  0
ARC
  5
3FD
  8
0
 62
     7
 10
68.541079999999994
 20
227.124731
 30
0.0
 40
54.47601800000001
 50
268.75729999999987
 51
268.88034199999993
  0
ARC
  5
3FE
  8
0
 62
     7
 10
67.808358999999996
 20
186.8958649999999
 30
0.0
 40
14.24141
 50
267.72697099999999
 51
268.19436100000001
  0
ARC
  5
3FF
  8
0
 62
     7
 10
67.595502999999994
 20
180.72810000000001
 30
0.0
 40
8.0701199999999993
 50
266.68100499999991
 51
267.50023599999992
  0
ARC
  5
400
  8
0
 62
     7
 10
67.551242000000002
 20
180.278852
 30
0.0
 40
7.6190839999999991
 50
265.95455699999991
 51
266.81770199999988
  0
ARC
  5
401
  8
0
 62
     7
 10
67.806820999999985
 20
183.55790200000001
 30
0.0
 40
10.90802
 50
265.23789699999998
 51
265.83053100000001
  0
ARC
  5
402
  8
0
 62
     7
 10
67.459493000000009
 20
179.21586099999999
 30
0.0
 40
6.552149
 50
264.132068
 51
265.11248000000001
  0
ARC
  5
403
  8
0
 62
     7
 10
67.694006999999999
 20
181.65992900000001
 30
0.0
 40
9.0074009999999998
 50
263.53781299999991
 51
264.23757299999988
  0
ARC
  5
404
  8
0
 62
     7
 10
67.285725999999997
 20
177.9719979999999
 30
0.0
 40
5.2969599999999986
 50
262.268303
 51
263.43633899999998
  0
ARC
  5
405
  8
0
 62
     7
 10
67.928927000000002
 20
182.854781
 30
0.0
 40
10.22190399999999
 50
261.78226000000001
 51
262.377882
  0
ARC
  5
406
  8
0
 62
     7
 10
67.884919999999994
 20
181.9592339999999
 30
0.0
 40
9.3296449999999993
 50
260.63160399999992
 51
261.263622
  0
ARC
  5
407
  8
0
 62
     7
 10
69.632229000000009
 20
191.7715509999999
 30
0.0
 40
19.295932999999991
 50
259.95466299999993
 51
260.2552839999999
  0
ARC
  5
408
  8
0
 62
     7
 10
70.573996999999991
 20
194.795455
 30
0.0
 40
22.441313000000001
 50
258.68439899999998
 51
258.93366400000002
  0
ARC
  5
409
  8
0
 62
     7
 10
67.270988000000003
 20
178.03842700000001
 30
0.0
 40
5.362152
 50
257.14361999999988
 51
258.15920799999998
  0
ARC
  5
40A
  8
0
 62
     7
 10
66.945385999999999
 20
176.65489899999989
 30
0.0
 40
3.940869999999999
 50
255.94183399999989
 51
257.28310599999998
  0
ARC
  5
40B
  8
0
 62
     7
 10
67.465299999999985
 20
178.59807499999999
 30
0.0
 40
5.9522259999999996
 50
254.779967
 51
255.63060599999989
  0
ARC
  5
40C
  8
0
 62
     7
 10
67.566497999999996
 20
178.76423399999999
 30
0.0
 40
6.1393620000000002
 50
253.48256099999989
 51
254.2757509999999
  0
ARC
  5
40D
  8
0
 62
     7
 10
66.854099000000005
 20
176.2169449999999
 30
0.0
 40
3.4948949999999992
 50
251.480671
 51
252.80690699999991
  0
ARC
  5
40E
  8
0
 62
     7
 10
66.518415000000005
 20
175.213739
 30
0.0
 40
2.437015999999999
 50
249.64731900000001
 51
251.47263599999999
  0
ARC
  5
40F
  8
0
 62
     7
 10
66.762998999999994
 20
175.823643
 30
0.0
 40
3.0939580000000002
 50
247.96231499999999
 51
249.32895499999989
  0
ARC
  5
410
  8
0
 62
     7
 10
66.308606999999995
 20
174.6617169999999
 30
0.0
 40
1.8464879999999999
 50
245.35167599999991
 51
247.50367999999989
  0
ARC
  5
411
  8
0
 62
     7
 10
66.025140000000007
 20
174.07064800000001
 30
0.0
 40
1.1911080000000001
 50
242.7330299999999
 51
245.88727499999999
  0
ARC
  5
412
  8
0
 62
     7
 10
66.263469999999984
 20
174.53941599999999
 30
0.0
 40
1.7169769999999991
 50
240.76246099999989
 51
242.83024
  0
ARC
  5
413
  8
0
 62
     7
 10
66.464170999999993
 20
174.77370199999999
 30
0.0
 40
2.0203570000000002
 50
237.426209
 51
239.04082
  0
ARC
  5
414
  8
0
 62
     7
 10
65.804147999999984
 20
173.7333209999999
 30
0.0
 40
0.7882920000000001
 50
233.236366
 51
237.140918
  0
ARC
  5
415
  8
0
 62
     7
 10
65.76373199999999
 20
173.67475599999989
 30
0.0
 40
0.71719
 50
229.03936999999999
 51
233.022637
  0
ARC
  5
416
  8
0
 62
     7
 10
65.587081999999995
 20
173.472523
 30
0.0
 40
0.448671
 50
223.2927279999999
 51
229.14505199999999
  0
ARC
  5
417
  8
0
 62
     7
 10
65.492970999999997
 20
173.39269599999989
 30
0.0
 40
0.325496
 50
216.98033599999991
 51
224.4249209999999
  0
ARC
  5
418
  8
0
 62
     7
 10
65.482388
 20
173.3918689999999
 30
0.0
 40
0.316596
 50
210.900631
 51
218.01290899999989
  0
ARC
  5
419
  8
0
 62
     7
 10
65.472790000000003
 20
173.38516699999991
 30
0.0
 40
0.30492
 50
203.822261
 51
210.7461879999999
  0
ARC
  5
41A
  8
0
 62
     7
 10
65.493455000000012
 20
173.37907300000001
 30
0.0
 40
0.321663
 50
195.16780799999989
 51
201.34177600000001
  0
ARC
  5
41B
  8
0
 62
     7
 10
65.388914
 20
173.34521499999991
 30
0.0
 40
0.211973
 50
184.70959099999999
 51
193.72829899999991
  0
ARC
  5
41C
  8
0
 62
     7
 10
65.442527999999996
 20
173.344348
 30
0.0
 40
0.265387
 50
176.427503
 51
183.572497
  0
ARC
  5
41D
  8
0
 62
     7
 10
65.479957999999996
 20
173.3228639999999
 30
0.0
 40
0.304683
 50
166.50631299999989
 51
172.8314399999999
  0
ARC
  5
41E
  8
0
 62
     7
 10
65.574292
 20
173.27461700000001
 30
0.0
 40
0.4084310000000001
 50
158.14080999999999
 51
163.01063500000001
  0
ARC
  5
41F
  8
0
 62
     7
 10
65.511099999999999
 20
173.279763
 30
0.0
 40
0.348371
 50
148.9563399999999
 51
155.05528299999989
  0
ARC
  5
420
  8
0
 62
     7
 10
65.42325799999999
 20
173.334699
 30
0.0
 40
0.244787
 50
140.0750139999999
 51
149.37020200000001
  0
ARC
  5
421
  8
0
 62
     7
 10
65.515120999999994
 20
173.27240499999991
 30
0.0
 40
0.35539
 50
134.96929900000001
 51
141.87841299999991
  0
ARC
  5
422
  8
0
 62
     7
 10
65.611293000000003
 20
173.18738400000001
 30
0.0
 40
0.4835740000000001
 50
130.45167900000001
 51
135.911686
  0
ARC
  5
423
  8
0
 62
     7
 10
65.555365000000009
 20
173.27212900000001
 30
0.0
 40
0.383003
 50
124.823971
 51
132.3106929999999
  0
ARC
  5
424
  8
0
 62
     7
 10
65.709143999999995
 20
173.09416999999991
 30
0.0
 40
0.6173980000000001
 50
122.096532
 51
127.108774
  0
ARC
  5
425
  8
0
 62
     7
 10
65.951432999999994
 20
172.73521599999989
 30
0.0
 40
1.0503279999999999
 50
119.742908
 51
122.889025
  0
ARC
  5
426
  8
0
 62
     7
 10
65.955022
 20
172.72880599999999
 30
0.0
 40
1.057674
 50
116.386776
 51
119.739408
  0
ARC
  5
427
  8
0
 62
     7
 10
66.259339999999995
 20
172.120476
 30
0.0
 40
1.737873
 50
114.2737179999999
 51
116.461066
  0
ARC
  5
428
  8
0
 62
     7
 10
66.089439999999996
 20
172.52994199999989
 30
0.0
 40
1.294832999999999
 50
111.78892500000001
 51
114.8689199999999
  0
ARC
  5
429
  8
0
 62
     7
 10
66.509558999999996
 20
171.508443
 30
0.0
 40
2.399321
 50
110.272415
 51
112.05008100000001
  0
ARC
  5
42A
  8
0
 62
     7
 10
66.439777000000007
 20
171.69495399999991
 30
0.0
 40
2.2001849999999989
 50
108.22182599999999
 51
110.25062199999989
  0
ARC
  5
42B
  8
0
 62
     7
 10
66.525746999999996
 20
171.48841399999989
 30
0.0
 40
2.423309999999999
 50
106.706283
 51
108.6255409999999
  0
ARC
  5
42C
  8
0
 62
     7
 10
66.883127999999999
 20
170.28742
 30
0.0
 40
3.6763469999999998
 50
105.3253989999999
 51
106.660335
  0
ARC
  5
42D
  8
0
 62
     7
 10
66.998964000000001
 20
169.8732259999999
 30
0.0
 40
4.1064290000000003
 50
104.119062
 51
105.356714
  0
ARC
  5
42E
  8
0
 62
     7
 10
67.994433000000001
 20
165.69420099999991
 30
0.0
 40
8.402216000000001
 50
103.12385399999999
 51
103.750651
  0
ARC
  5
42F
  8
0
 62
     7
 10
67.162058999999999
 20
169.07185399999989
 30
0.0
 40
4.9239800000000002
 50
101.502233
 51
102.615188
  0
ARC
  5
430
  8
0
 62
     7
 10
67.046235999999993
 20
169.665708
 30
0.0
 40
4.3189589999999987
 50
100.26422099999991
 51
101.5675219999999
  0
ARC
  5
431
  8
0
 62
     7
 10
67.012555000000006
 20
169.9914159999999
 30
0.0
 40
3.9925399999999991
 50
99.168558000000004
 51
100.621494
  0
ARC
  5
432
  8
0
 62
     7
 10
67.127374000000003
 20
169.47108499999999
 30
0.0
 40
4.5246209999999989
 50
98.24255100000002
 51
99.554053000000025
  0
ARC
  5
433
  8
0
 62
     7
 10
67.761991000000009
 20
165.226653
 30
0.0
 40
8.8162109999999991
 50
97.680047000000002
 51
98.369683999999978
  0
ARC
  5
434
  8
0
 62
     7
 10
68.262985
 20
160.62444899999991
 30
0.0
 40
13.444607
 50
96.713391000000016
 51
97.174848999999995
  0
ARC
  5
435
  8
0
 62
     7
 10
67.57131600000001
 20
166.26403300000001
 30
0.0
 40
7.7628839999999988
 50
95.69616400000001
 51
96.50937399999998
  0
ARC
  5
436
  8
0
 62
     7
 10
67.619833999999997
 20
165.6473949999999
 30
0.0
 40
8.3813019999999998
 50
94.845100999999985
 51
95.607806999999994
  0
ARC
  5
437
  8
0
 62
     7
 10
67.610468999999995
 20
165.56777099999991
 30
0.0
 40
8.4598659999999999
 50
93.967661000000007
 51
94.736359000000007
  0
ARC
  5
438
  8
0
 62
     7
 10
67.475006999999991
 20
167.64260799999991
 30
0.0
 40
6.3806349999999989
 50
93.012753000000018
 51
94.043338000000006
  0
ARC
  5
439
  8
0
 62
     7
 10
67.593702000000008
 20
165.98052799999999
 30
0.0
 40
8.0467159999999982
 50
92.413173999999984
 51
93.234725999999995
  0
ARC
  5
43A
  8
0
 62
     7
 10
67.582797999999997
 20
166.08650900000001
 30
0.0
 40
7.9403719999999991
 50
91.524788000000001
 51
92.366761999999994
  0
LINE
  5
43B
  8
0
 62
     7
 10
67.371499999999983
 20
174.024
 30
0.0
 11
67.488299999999995
 21
174.0259999999999
 31
0.0
  0
LINE
  5
43C
  8
0
 62
     7
 10
67.488299999999995
 20
174.0259999999999
 30
0.0
 11
67.6053
 21
174.02699999999999
 31
0.0
  0
LINE
  5
43D
  8
0
 62
     7
 10
67.6053
 20
172.65799999999999
 30
0.0
 11
67.593900000000005
 21
172.65799999999999
 31
0.0
  0
LINE
  5
43E
  8
0
 62
     7
 10
67.6173
 20
174.02699999999999
 30
0.0
 11
67.7346
 21
174.0259999999999
 31
0.0
  0
LINE
  5
43F
  8
0
 62
     7
 10
67.7346
 20
174.0259999999999
 30
0.0
 11
67.851200000000006
 21
174.024
 31
0.0
  0
ARC
  5
440
  8
0
 62
     7
 10
67.474029999999999
 20
161.75697600000001
 30
0.0
 40
12.272546999999999
 50
87.694683999999995
 51
88.238664999999983
  0
ARC
  5
441
  8
0
 62
     7
 10
67.729792000000003
 20
168.20202499999991
 30
0.0
 40
5.8224279999999986
 50
86.522851999999986
 51
87.658348999999987
  0
ARC
  5
442
  8
0
 62
     7
 10
67.729224000000002
 20
167.50301399999989
 30
0.0
 40
6.520319999999999
 50
85.88180899999999
 51
86.890410000000017
  0
ARC
  5
443
  8
0
 62
     7
 10
67.597104999999999
 20
165.42685399999991
 30
0.0
 40
8.6006260000000001
 50
85.245644999999996
 51
85.997184999999988
  0
ARC
  5
444
  8
0
 62
     7
 10
67.099013999999997
 20
160.5793229999999
 30
0.0
 40
13.473093
 50
84.368039999999993
 51
84.843365000000034
  0
ARC
  5
445
  8
0
 62
     7
 10
67.933660000000003
 20
168.973714
 30
0.0
 40
5.0373169999999989
 50
83.190106999999983
 51
84.445496000000006
  0
ARC
  5
446
  8
0
 62
     7
 10
67.726326
 20
167.03632699999989
 30
0.0
 40
6.9856619999999987
 50
82.500260999999995
 51
83.385756000000001
  0
ARC
  5
447
  8
0
 62
     7
 10
67.535460999999998
 20
165.67898799999989
 30
0.0
 40
8.3563100000000006
 50
81.691243
 51
82.417502999999996
  0
ARC
  5
448
  8
0
 62
     7
 10
67.652965000000009
 20
166.753422
 30
0.0
 40
7.2762779999999987
 50
80.571145000000001
 51
81.384198999999995
  0
ARC
  5
449
  8
0
 62
     7
 10
67.973885999999993
 20
168.71380799999989
 30
0.0
 40
5.2898050000000003
 50
79.428391000000005
 51
80.521644999999992
  0
ARC
  5
44A
  8
0
 62
     7
 10
67.878028999999984
 20
168.251271
 30
0.0
 40
5.762084999999999
 50
78.36103
 51
79.335200999999984
  0
ARC
  5
44B
  8
0
 62
     7
 10
68.095308000000003
 20
169.31661699999989
 30
0.0
 40
4.674809999999999
 50
77.170639000000008
 51
78.335104999999999
  0
ARC
  5
44C
  8
0
 62
     7
 10
68.10895699999999
 20
169.37144499999991
 30
0.0
 40
4.6183199999999989
 50
76.040191000000007
 51
77.184708000000001
  0
ARC
  5
44D
  8
0
 62
     7
 10
68.094442999999998
 20
169.425532
 30
0.0
 40
4.5694129999999991
 50
74.596064999999996
 51
75.699957999999995
  0
ARC
  5
44E
  8
0
 62
     7
 10
68.396773999999994
 20
170.54820699999999
 30
0.0
 40
3.406768
 50
73.052518000000006
 51
74.482764000000003
  0
ARC
  5
44F
  8
0
 62
     7
 10
68.572955000000007
 20
171.13940400000001
 30
0.0
 40
2.789892
 50
71.313070999999994
 51
72.974467000000004
  0
ARC
  5
450
  8
0
 62
     7
 10
68.762540000000001
 20
171.65973999999991
 30
0.0
 40
2.2362809999999991
 50
69.645473999999993
 51
71.642978999999997
  0
ARC
  5
451
  8
0
 62
     7
 10
68.999981999999974
 20
172.288488
 30
0.0
 40
1.5642089999999991
 50
67.109178
 51
69.789040999999997
  0
ARC
  5
452
  8
0
 62
     7
 10
69.200183999999993
 20
172.69503700000001
 30
0.0
 40
1.112114
 50
64.877965000000003
 51
68.464150000000004
  0
ARC
  5
453
  8
0
 62
     7
 10
69.073408999999998
 20
172.373323
 30
0.0
 40
1.4573809999999989
 50
63.145002000000012
 51
65.735052999999994
  0
ARC
  5
454
  8
0
 62
     7
 10
68.990844999999993
 20
172.25328400000001
 30
0.0
 40
1.6018879999999991
 50
60.252264000000011
 51
62.449879000000003
  0
ARC
  5
455
  8
0
 62
     7
 10
69.344212999999996
 20
172.86580000000001
 30
0.0
 40
0.894761
 50
56.752896000000007
 51
60.436763000000013
  0
ARC
  5
456
  8
0
 62
     7
 10
69.415419
 20
172.96915899999999
 30
0.0
 40
0.769286
 50
52.987704999999998
 51
56.967707999999988
  0
ARC
  5
457
  8
0
 62
     7
 10
69.583174999999983
 20
173.17453199999991
 30
0.0
 40
0.5044140000000001
 50
48.520117999999989
 51
54.160254000000002
  0
ARC
  5
458
  8
0
 62
     7
 10
69.629232999999985
 20
173.2169209999999
 30
0.0
 40
0.442197
 50
43.367404000000001
 51
49.353245999999999
  0
ARC
  5
459
  8
0
 62
     7
 10
69.568543000000005
 20
173.16395900000001
 30
0.0
 40
0.5226930000000002
 50
38.385630999999997
 51
43.01958599999999
  0
ARC
  5
45A
  8
0
 62
     7
 10
69.739964999999998
 20
173.30202199999999
 30
0.0
 40
0.3025989999999999
 50
30.580732999999999
 51
38.049433999999998
  0
ARC
  5
45B
  8
0
 62
     7
 10
69.748063000000002
 20
173.30506
 30
0.0
 40
0.294085
 50
23.694534999999998
 51
30.873872999999989
  0
ARC
  5
45C
  8
0
 62
     7
 10
69.736335999999994
 20
173.3118969999999
 30
0.0
 40
0.302276
 50
15.074767
 51
21.614097000000001
  0
ARC
  5
45D
  8
0
 62
     7
 10
69.802378000000004
 20
173.33708300000001
 30
0.0
 40
0.232066
 50
5.0324749999999989
 51
13.310981999999999
  0
ARC
  5
45E
  8
0
 62
     7
 10
69.811583999999996
 20
173.34331099999989
 30
0.0
 40
0.222415
 50
355.15820600000001
 51
3.6419260000000002
  0
ARC
  5
45F
  8
0
 62
     7
 10
69.843419999999995
 20
173.342049
 30
0.0
 40
0.190591
 50
344.60916400000002
 51
354.7286279999999
  0
ARC
  5
460
  8
0
 62
     7
 10
69.774963
 20
173.3614639999999
 30
0.0
 40
0.261747
 50
336.85096399999998
 51
344.48879499999998
  0
ARC
  5
461
  8
0
 62
     7
 10
69.751415000000009
 20
173.3770199999999
 30
0.0
 40
0.289558
 50
328.60542700000002
 51
335.85237899999998
  0
ARC
  5
462
  8
0
 62
     7
 10
69.732201000000003
 20
173.38929499999989
 30
0.0
 40
0.312354
 50
321.212174
 51
328.51944700000001
  0
ARC
  5
463
  8
0
 62
     7
 10
69.696421999999998
 20
173.4127189999999
 30
0.0
 40
0.354941
 50
314.964945
 51
321.8828069999999
  0
ARC
  5
464
  8
0
 62
     7
 10
69.614024000000001
 20
173.48108400000001
 30
0.0
 40
0.461648
 50
310.47042699999997
 51
316.20463999999993
  0
ARC
  5
465
  8
0
 62
     7
 10
69.257002999999983
 20
173.91332199999999
 30
0.0
 40
1.022235
 50
307.16567800000001
 51
309.96902599999999
  0
ARC
  5
466
  8
0
 62
     7
 10
69.508242999999993
 20
173.585027
 30
0.0
 40
0.6088420000000001
 50
301.91517999999991
 51
306.98870099999988
  0
ARC
  5
467
  8
0
 62
     7
 10
69.353249000000005
 20
173.80147500000001
 30
0.0
 40
0.8746780000000001
 50
299.24026499999991
 51
303.03769299999999
  0
ARC
  5
468
  8
0
 62
     7
 10
69.246003999999999
 20
173.96938399999999
 30
0.0
 40
1.073639999999999
 50
296.55012099999988
 51
299.85721699999999
  0
ARC
  5
469
  8
0
 62
     7
 10
68.780577000000008
 20
174.914579
 30
0.0
 40
2.127203999999999
 50
294.60618699999998
 51
296.38477899999992
  0
ARC
  5
46A
  8
0
 62
     7
 10
68.720118999999997
 20
175.08662799999991
 30
0.0
 40
2.3088639999999989
 50
292.4653689999999
 51
294.19251600000001
  0
ARC
  5
46B
  8
0
 62
     7
 10
68.524860000000004
 20
175.65097399999999
 30
0.0
 40
2.905208
 50
290.30407999999989
 51
291.7709569999999
  0
ARC
  5
46C
  8
0
 62
     7
 10
68.588487000000001
 20
175.49731199999999
 30
0.0
 40
2.7390219999999998
 50
288.54035399999998
 51
290.17119400000001
  0
ARC
  5
46D
  8
0
 62
     7
 10
68.369646000000003
 20
176.188445
 30
0.0
 40
3.4638930000000001
 50
286.99459999999999
 51
288.337264
  0
ARC
  5
46E
  8
0
 62
     7
 10
68.306767000000008
 20
176.47218499999991
 30
0.0
 40
3.7536900000000002
 50
285.33917200000002
 51
286.64660199999997
  0
ARC
  5
46F
  8
0
 62
     7
 10
67.984519999999989
 20
177.715011
 30
0.0
 40
5.0375199999999989
 50
284.1260529999999
 51
285.13444500000003
  0
ARC
  5
470
  8
0
 62
     7
 10
67.649845999999997
 20
179.20238699999999
 30
0.0
 40
6.561710999999999
 50
282.98478199999988
 51
283.79031900000001
  0
ARC
  5
471
  8
0
 62
     7
 10
68.389442000000003
 20
176.03596200000001
 30
0.0
 40
3.3100839999999989
 50
281.17612100000002
 51
282.82529499999998
  0
ARC
  5
472
  8
0
 62
     7
 10
68.148918000000009
 20
177.024337
 30
0.0
 40
4.326562
 50
280.462108
 51
281.76399099999998
  0
ARC
  5
473
  8
0
 62
     7
 10
67.653243000000003
 20
179.82048
 30
0.0
 40
7.1662559999999988
 50
279.49031600000001
 51
280.29977599999989
  0
ARC
  5
474
  8
0
 62
     7
 10
67.735011
 20
179.44212400000001
 30
0.0
 40
6.7796219999999989
 50
278.460689
 51
279.3359549999999
  0
ARC
  5
475
  8
0
 62
     7
 10
67.822226000000001
 20
178.88448700000001
 30
0.0
 40
6.2152219999999989
 50
277.44375400000001
 51
278.42178100000001
  0
ARC
  5
476
  8
0
 62
     7
 10
67.626283999999998
 20
180.5172409999999
 30
0.0
 40
7.8596209999999997
 50
276.52623799999992
 51
277.3181009999999
  0
ARC
  5
477
  8
0
 62
     7
 10
67.869529
 20
178.25447
 30
0.0
 40
5.5838869999999989
 50
275.55837400000001
 51
276.68541499999992
  0
ARC
  5
478
  8
0
 62
     7
 10
67.348055000000002
 20
183.73026699999991
 30
0.0
 40
11.084453
 50
274.92116800000002
 51
275.49964599999998
  0
ARC
  5
479
  8
0
 62
     7
 10
67.776661000000004
 20
178.80148199999991
 30
0.0
 40
6.1370699999999987
 50
273.82220599999999
 51
274.88185299999992
  0
ARC
  5
47A
  8
0
 62
     7
 10
67.738078999999999
 20
178.8400199999999
 30
0.0
 40
6.1781990000000002
 50
273.09413000000001
 51
274.155396
  0
ARC
  5
47B
  8
0
 62
     7
 10
67.356065999999998
 20
186.45915600000001
 30
0.0
 40
13.80688
 50
272.49027999999993
 51
272.97047500000002
  0
ARC
  5
47C
  8
0
 62
     7
 10
67.54249200000001
 20
183.0918979999999
 30
0.0
 40
10.434778
 50
271.63215099999991
 51
272.27095999999989
  0
ARC
  5
47D
  8
0
 62
     7
 10
67.671250000000001
 20
177.9972689999999
 30
0.0
 40
5.3385739999999986
 50
270.55075099999988
 51
271.80817300000001
  0
ARC
  5
47E
  8
0
 62
     7
 10
67.568312000000006
 20
185.67917800000001
 30
0.0
 40
13.02115
 50
270.16258199999987
 51
270.67876999999999
  0
LINE
  5
47F
  8
0
 62
     7
 10
67.6053
 20
174.02699999999999
 30
0.0
 11
67.6173
 21
174.02699999999999
 31
0.0
  0
ARC
  5
480
  8
0
 62
     7
 10
67.603860999999995
 20
182.81913700000001
 30
0.0
 40
10.187583999999999
 50
269.33358399999992
 51
270.00787100000002
  0
ARC
  5
481
  8
0
 62
     7
 10
67.562010000000001
 20
179.39571599999991
 30
0.0
 40
6.7639079999999989
 50
268.33791099999991
 51
269.35077799999999
  0
ARC
  5
482
  8
0
 62
     7
 10
67.799208999999991
 20
186.87418199999999
 30
0.0
 40
14.246122
 50
267.77633800000001
 51
268.25672900000001
  0
ARC
  5
483
  8
0
 62
     7
 10
67.532515000000004
 20
180.04068399999991
 30
0.0
 40
7.4074220000000004
 50
266.87174700000003
 51
267.78676599999989
  0
ARC
  5
484
  8
0
 62
     7
 10
67.566907999999998
 20
180.737415
 30
0.0
 40
8.1049919999999993
 50
266.06449099999998
 51
266.89776599999988
  0
ARC
  5
485
  8
0
 62
     7
 10
67.699066000000002
 20
182.34707399999991
 30
0.0
 40
9.7199500000000008
 50
265.25110299999989
 51
265.93852500000003
  0
ARC
  5
486
  8
0
 62
     7
 10
67.452888999999999
 20
179.560823
 30
0.0
 40
6.9228990000000001
 50
264.42632999999989
 51
265.372432
  0
ARC
  5
487
  8
0
 62
     7
 10
67.577332999999996
 20
180.86855600000001
 30
0.0
 40
8.2365359999999992
 50
263.66160400000001
 51
264.448307
  0
ARC
  5
488
  8
0
 62
     7
 10
69.451056999999992
 20
196.3165139999999
 30
0.0
 40
23.797440000000002
 50
263.01631099999992
 51
263.284065
  0
ARC
  5
489
  8
0
 62
     7
 10
67.466766000000007
 20
179.76070999999999
 30
0.0
 40
7.123335
 50
261.78623700000003
 51
262.66721899999999
  0
ARC
  5
48A
  8
0
 62
     7
 10
67.416073999999995
 20
179.2651129999999
 30
0.0
 40
6.6256119999999994
 50
260.68819599999989
 51
261.60781700000001
  0
ARC
  5
48B
  8
0
 62
     7
 10
67.057706999999994
 20
177.1978169999999
 30
0.0
 40
4.5276129999999988
 50
259.61445099999992
 51
260.93041299999987
  0
ARC
  5
48C
  8
0
 62
     7
 10
67.619586999999996
 20
180.202416
 30
0.0
 40
7.5842850000000004
 50
258.76392700000002
 51
259.531114
  0
ARC
  5
48D
  8
0
 62
     7
 10
66.68253399999999
 20
175.56547699999999
 30
0.0
 40
2.8536799999999989
 50
257.11486200000002
 51
259.07662900000003
  0
ARC
  5
48E
  8
0
 62
     7
 10
66.845021000000003
 20
176.44637399999999
 30
0.0
 40
3.7488220000000001
 50
256.23700999999988
 51
257.69630000000001
  0
ARC
  5
48F
  8
0
 62
     7
 10
66.91516
 20
176.75085799999991
 30
0.0
 40
4.0612529999999989
 50
255.00349199999991
 51
256.297867
  0
ARC
  5
490
  8
0
 62
     7
 10
66.720231999999996
 20
176.02639500000001
 30
0.0
 40
3.311024999999999
 50
253.49091999999999
 51
255.017797
  0
ARC
  5
491
  8
0
 62
     7
 10
67.004653000000005
 20
176.95824400000001
 30
0.0
 40
4.2852879999999987
 50
252.25474
 51
253.385367
  0
ARC
  5
492
  8
0
 62
     7
 10
66.316218999999975
 20
174.796728
 30
0.0
 40
2.0167929999999989
 50
249.87861699999991
 51
252.16610099999991
  0
ARC
  5
493
  8
0
 62
     7
 10
66.269618000000008
 20
174.72863599999999
 30
0.0
 40
1.936931999999999
 50
248.19819299999989
 51
250.480086
  0
ARC
  5
494
  8
0
 62
     7
 10
66.165077999999994
 20
174.509424
 30
0.0
 40
1.694645999999999
 50
246.2621619999999
 51
248.7272319999999
  0
ARC
  5
495
  8
0
 62
     7
 10
66.468637000000001
 20
175.1638419999999
 30
0.0
 40
2.4159399999999991
 50
244.289354
 51
245.919736
  0
ARC
  5
496
  8
0
 62
     7
 10
66.051462000000001
 20
174.28293199999999
 30
0.0
 40
1.4412750000000001
 50
241.466486
 51
244.03931700000001
  0
ARC
  5
497
  8
0
 62
     7
 10
66.040765000000007
 20
174.2451209999999
 30
0.0
 40
1.4029739999999991
 50
238.6317709999999
 51
241.1126799999999
  0
ARC
  5
498
  8
0
 62
     7
 10
65.824815999999998
 20
173.87714899999989
 30
0.0
 40
0.976402
 50
234.892
 51
238.21180699999999
  0
ARC
  5
499
  8
0
 62
     7
 10
65.741598999999994
 20
173.75358199999991
 30
0.0
 40
0.827461
 50
231.04887500000001
 51
234.685022
  0
ARC
  5
49A
  8
0
 62
     7
 10
65.585189
 20
173.5657249999999
 30
0.0
 40
0.58305
 50
226.57192099999989
 51
231.39673999999999
  0
ARC
  5
49B
  8
0
 62
     7
 10
65.633828000000008
 20
173.599141
 30
0.0
 40
0.640873
 50
221.4361419999999
 51
225.4675729999999
  0
ARC
  5
49C
  8
0
 62
     7
 10
65.589585
 20
173.53935899999999
 30
0.0
 40
0.5683540000000001
 50
215.67258200000001
 51
219.86944699999989
  0
ARC
  5
49D
  8
0
 62
     7
 10
65.524066000000005
 20
173.462076
 30
0.0
 40
0.4707040000000001
 50
207.9424919999999
 51
212.67996799999989
  0
ARC
  5
49E
  8
0
 62
     7
 10
65.406419999999997
 20
173.38987
 30
0.0
 40
0.333051
 50
200.1573699999999
 51
206.45244600000001
  0
ARC
  5
49F
  8
0
 62
     7
 10
65.288450999999995
 20
173.34170800000001
 30
0.0
 40
0.205762
 50
189.18514599999989
 51
198.88737800000001
  0
ARC
  5
4A0
  8
0
 62
     7
 10
65.254390000000001
 20
173.339673
 30
0.0
 40
0.171847
 50
178.95825199999999
 51
190.328292
  0
ARC
  5
4A1
  8
0
 62
     7
 10
69.924419999999998
 20
173.34230500000001
 30
0.0
 40
0.204215
 50
350.57509199999998
 51
0.138363
  0
ARC
  5
4A2
  8
0
 62
     7
 10
69.910138000000003
 20
173.34697600000001
 30
0.0
 40
0.219082
 50
340.84813600000001
 51
349.98152999999991
  0
ARC
  5
4A3
  8
0
 62
     7
 10
69.927641000000008
 20
173.33500399999991
 30
0.0
 40
0.198698
 50
331.931533
 51
342.45371699999993
  0
ARC
  5
4A4
  8
0
 62
     7
 10
69.794483
 20
173.4027989999999
 30
0.0
 40
0.348105
 50
326.02469400000001
 51
332.39769699999988
  0
ARC
  5
4A5
  8
0
 62
     7
 10
69.814451000000005
 20
173.386664
 30
0.0
 40
0.322537
 50
318.99054899999999
 51
326.41945299999992
  0
ARC
  5
4A6
  8
0
 62
     7
 10
69.564599999999984
 20
173.61611099999999
 30
0.0
 40
0.661698
 50
314.26943399999988
 51
318.19452999999987
  0
ARC
  5
4A7
  8
0
 62
     7
 10
69.637698
 20
173.548135
 30
0.0
 40
0.5620190000000001
 50
308.79150899999991
 51
313.77051399999999
  0
ARC
  5
4A8
  8
0
 62
     7
 10
69.566699
 20
173.62535700000001
 30
0.0
 40
0.6667250000000001
 50
304.87648699999988
 51
309.389656
  0
ARC
  5
4A9
  8
0
 62
     7
 10
69.34400500000001
 20
173.94131299999989
 30
0.0
 40
1.0532719999999991
 50
301.90938699999998
 51
304.98684700000001
  0
ARC
  5
4AA
  8
0
 62
     7
 10
69.002783999999991
 20
174.53402199999991
 30
0.0
 40
1.736936
 50
299.12587000000002
 51
301.12971900000002
  0
ARC
  5
4AB
  8
0
 62
     7
 10
69.105990000000006
 20
174.38731599999991
 30
0.0
 40
1.558659
 50
296.05759899999998
 51
298.43663800000002
  0
ARC
  5
4AC
  8
0
 62
     7
 10
68.954181999999989
 20
174.7078689999999
 30
0.0
 40
1.9133199999999999
 50
293.86611599999998
 51
295.92483299999998
  0
ARC
  5
4AD
  8
0
 62
     7
 10
69.096588999999994
 20
174.387631
 30
0.0
 40
1.562846999999999
 50
291.16882599999991
 51
293.84181899999987
  0
ARC
  5
4AE
  8
0
 62
     7
 10
68.803999000000005
 20
175.09351000000001
 30
0.0
 40
2.3268219999999991
 50
289.7111339999999
 51
291.61062700000002
  0
ARC
  5
4AF
  8
0
 62
     7
 10
67.361333999999985
 20
179.27058400000001
 30
0.0
 40
6.7459100000000003
 50
288.59526699999992
 51
289.28048799999988
  0
ARC
  5
4B0
  8
0
 62
     7
 10
68.595868999999993
 20
175.70421399999989
 30
0.0
 40
2.9722339999999989
 50
286.32890400000002
 51
287.96221400000002
  0
ARC
  5
4B1
  8
0
 62
     7
 10
68.622166000000007
 20
175.5796629999999
 30
0.0
 40
2.8453319999999991
 50
284.75001400000002
 51
286.52587399999999
  0
ARC
  5
4B2
  8
0
 62
     7
 10
68.547824000000006
 20
175.73252600000001
 30
0.0
 40
3.0122650000000002
 50
283.63756699999988
 51
285.37719399999992
  0
ARC
  5
4B3
  8
0
 62
     7
 10
68.361512000000005
 20
176.46655999999999
 30
0.0
 40
3.7695409999999998
 50
282.30772999999988
 51
283.75899900000002
  0
ARC
  5
4B4
  8
0
 62
     7
 10
68.184841000000006
 20
177.21158700000001
 30
0.0
 40
4.535124999999999
 50
281.24342100000001
 51
282.48206599999997
  0
ARC
  5
4B5
  8
0
 62
     7
 10
68.132638999999983
 20
177.40545700000001
 30
0.0
 40
4.7354719999999988
 50
280.181308
 51
281.40555599999988
  0
ARC
  5
4B6
  8
0
 62
     7
 10
68.183970000000002
 20
176.97855699999991
 30
0.0
 40
4.3062930000000001
 50
279.12911400000002
 51
280.51310100000001
  0
ARC
  5
4B7
  8
0
 62
     7
 10
68.15101700000001
 20
176.99281999999999
 30
0.0
 40
4.3257089999999989
 50
278.11699199999993
 51
279.53008899999998
  0
ARC
  5
4B8
  8
0
 62
     7
 10
67.598730000000003
 20
180.801074
 30
0.0
 40
8.1737970000000004
 50
277.41505999999998
 51
278.18042700000001
  0
ARC
  5
4B9
  8
0
 62
     7
 10
66.492933999999991
 20
190.216317
 30
0.0
 40
17.653410999999991
 50
276.66936099999992
 51
277.03030299999989
  0
ARC
  5
4BA
  8
0
 62
     7
 10
67.944784999999996
 20
177.8828969999999
 30
0.0
 40
5.2348439999999989
 50
275.32615499999991
 51
276.56397299999992
  0
ARC
  5
4BB
  8
0
 62
     7
 10
67.970703999999984
 20
177.19310200000001
 30
0.0
 40
4.545780999999999
 50
274.36273699999998
 51
275.80792999999989
  0
ARC
  5
4BC
  8
0
 62
     7
 10
67.80419599999999
 20
178.53626
 30
0.0
 40
5.8980589999999991
 50
273.85347499999989
 51
274.98301600000002
  0
ARC
  5
4BD
  8
0
 62
     7
 10
67.719921999999997
 20
179.50764299999989
 30
0.0
 40
6.872935
 50
273.02756499999992
 51
274.01021800000001
  0
ARC
  5
4BE
  8
0
 62
     7
 10
67.386426999999983
 20
186.30610200000001
 30
0.0
 40
13.679544999999999
 50
272.423025
 51
272.91850099999999
  0
ARC
  5
4BF
  8
0
 62
     7
 10
67.641692000000006
 20
180.24175199999991
 30
0.0
 40
7.6098239999999997
 50
271.53382099999999
 51
272.43315200000001
  0
ARC
  5
4C0
  8
0
 62
     7
 10
67.608370999999991
 20
181.41947999999991
 30
0.0
 40
8.7880219999999998
 50
270.76588900000002
 51
271.54546199999999
  0
ARC
  5
4C1
  8
0
 62
     7
 10
67.487549999999999
 20
203.78164399999989
 30
0.0
 40
31.150313000000001
 50
270.21651600000001
 51
270.4383049999999
  0
ARC
  5
4C2
  8
0
 62
     7
 10
67.603774000000001
 20
177.92859899999991
 30
0.0
 40
3.6728449999999988
 50
268.531631
 51
270.02316699999989
  0
ARC
  5
4C3
  8
0
 62
     7
 10
67.579518999999991
 20
177.466137
 30
0.0
 40
3.2099380000000002
 50
267.06679700000001
 51
268.752905
  0
ARC
  5
4C4
  8
0
 62
     7
 10
67.547484999999995
 20
177.33577700000001
 30
0.0
 40
3.078214
 50
265.77802200000002
 51
267.53811100000001
  0
ARC
  5
4C5
  8
0
 62
     7
 10
67.491165000000009
 20
176.84229799999989
 30
0.0
 40
2.5820029999999989
 50
264.16588999999988
 51
266.21822300000002
  0
ARC
  5
4C6
  8
0
 62
     7
 10
67.526060000000001
 20
177.59782299999989
 30
0.0
 40
3.3374280000000001
 50
263.30670400000002
 51
264.88838399999992
  0
ARC
  5
4C7
  8
0
 62
     7
 10
67.938700999999995
 20
180.78088700000001
 30
0.0
 40
6.5470069999999989
 50
262.15202199999999
 51
262.966904
  0
ARC
  5
4C8
  8
0
 62
     7
 10
67.568674999999999
 20
178.01377500000001
 30
0.0
 40
3.7553040000000002
 50
260.5121079999999
 51
261.97998999999987
  0
ARC
  5
4C9
  8
0
 62
     7
 10
67.635225000000005
 20
178.388676
 30
0.0
 40
4.1360479999999997
 50
259.11318299999999
 51
260.45889299999988
  0
ARC
  5
4CA
  8
0
 62
     7
 10
67.606526000000002
 20
178.18092999999999
 30
0.0
 40
3.9266369999999999
 50
257.54496799999998
 51
258.9518799999999
  0
ARC
  5
4CB
  8
0
 62
     7
 10
67.388031999999995
 20
177.24439099999989
 30
0.0
 40
2.9650359999999991
 50
255.89455399999991
 51
257.76458799999989
  0
ARC
  5
4CC
  8
0
 62
     7
 10
67.489574000000005
 20
177.7201969999999
 30
0.0
 40
3.4512870000000002
 50
254.565067
 51
256.18469499999998
  0
ARC
  5
4CD
  8
0
 62
     7
 10
67.381080000000011
 20
177.38022100000001
 30
0.0
 40
3.0947299999999989
 50
253.00716199999999
 51
254.82607899999999
  0
ARC
  5
4CE
  8
0
 62
     7
 10
68.114609000000002
 20
179.68257199999999
 30
0.0
 40
5.5110130000000002
 50
251.67299700000001
 51
252.70944600000001
  0
ARC
  5
4CF
  8
0
 62
     7
 10
67.414063999999996
 20
177.553055
 30
0.0
 40
3.2692359999999998
 50
249.846146
 51
251.5924839999999
  0
ARC
  5
4D0
  8
0
 62
     7
 10
67.386346000000003
 20
177.45818399999999
 30
0.0
 40
3.1706300000000001
 50
247.91624899999991
 51
249.725672
  0
ARC
  5
4D1
  8
0
 62
     7
 10
67.171030000000002
 20
176.97977900000001
 30
0.0
 40
2.6464460000000001
 50
246.1620519999999
 51
248.3418529999999
  0
ARC
  5
4D2
  8
0
 62
     7
 10
67.017682999999991
 20
176.677423
 30
0.0
 40
2.307977999999999
 50
244.09798499999999
 51
246.6105839999999
  0
ARC
  5
4D3
  8
0
 62
     7
 10
67.070599000000001
 20
176.85357999999991
 30
0.0
 40
2.4897269999999998
 50
242.44558099999989
 51
244.773439
  0
ARC
  5
4D4
  8
0
 62
     7
 10
67.695594999999983
 20
178.0451469999999
 30
0.0
 40
3.8352559999999989
 50
240.89049299999999
 51
242.402334
  0
ARC
  5
4D5
  8
0
 62
     7
 10
67.176366000000002
 20
177.1047979999999
 30
0.0
 40
2.7610890000000001
 50
238.6758529999999
 51
240.81129899999991
  0
ARC
  5
4D6
  8
0
 62
     7
 10
67.509760999999983
 20
177.62497400000001
 30
0.0
 40
3.378798999999999
 50
236.684214
 51
238.43217799999999
  0
ARC
  5
4D7
  8
0
 62
     7
 10
67.204871999999995
 20
177.16010999999989
 30
0.0
 40
2.8228719999999998
 50
234.670491
 51
236.67313100000001
  0
ARC
  5
4D8
  8
0
 62
     7
 10
67.062240000000003
 20
176.95375699999991
 30
0.0
 40
2.5720419999999988
 50
232.48612999999989
 51
234.6044609999999
  0
ARC
  5
4D9
  8
0
 62
     7
 10
67.230796999999995
 20
177.1712409999999
 30
0.0
 40
2.8471950000000001
 50
230.58317199999999
 51
232.4607069999999
  0
ARC
  5
4DA
  8
0
 62
     7
 10
66.728126000000003
 20
176.57997700000001
 30
0.0
 40
2.071280999999999
 50
228.4215309999999
 51
230.940279
  0
ARC
  5
4DB
  8
0
 62
     7
 10
66.797306000000006
 20
176.6901159999999
 30
0.0
 40
2.1996849999999988
 50
226.95369599999989
 51
228.97748499999989
  0
ARC
  5
4DC
  8
0
 62
     7
 10
72.959680000000006
 20
183.29888799999989
 30
0.0
 40
11.235763
 50
226.661226
 51
226.99245499999989
  0
ARC
  5
4DD
  8
0
 62
     7
 10
58.929920999999993
 20
168.573779
 30
0.0
 40
9.1032340000000005
 50
46.04464500000001
 51
46.40350999999999
  0
ARC
  5
4DE
  8
0
 62
     7
 10
63.757120999999998
 20
173.68738200000001
 30
0.0
 40
2.071394999999999
 50
45.565753000000008
 51
46.846335000000003
  0
ARC
  5
4DF
  8
0
 62
     7
 10
63.983953999999997
 20
173.938097
 30
0.0
 40
1.7333590000000001
 50
46.648029000000001
 51
47.87296400000001
  0
ARC
  5
4E0
  8
0
 62
     7
 10
64.368123999999995
 20
174.33318600000001
 30
0.0
 40
1.182812999999999
 50
48.837310000000002
 51
50.121599999999987
  0
ARC
  5
4E1
  8
0
 62
     7
 10
64.964702000000003
 20
175.0276649999999
 30
0.0
 40
0.267657
 50
52.808163999999991
 51
57.044314999999997
  0
ARC
  5
4E2
  8
0
 62
     7
 10
65.069925999999995
 20
175.18930599999999
 30
0.0
 40
0.074785
 50
57.321311000000001
 51
68.31645300000001
  0
ARC
  5
4E3
  8
0
 62
     7
 10
65.088378000000006
 20
175.23522500000001
 30
0.0
 40
0.025299
 50
68.724335999999994
 51
90.665953999999999
  0
ARC
  5
4E4
  8
0
 62
     7
 10
65.087970999999996
 20
175.2489379999999
 30
0.0
 40
0.011584
 50
89.442408000000015
 51
124.763026
  0
ARC
  5
4E5
  8
0
 62
     7
 10
65.089943999999974
 20
175.24436499999999
 30
0.0
 40
0.016496
 50
121.33301
 51
148.66696099999999
  0
ARC
  5
4E6
  8
0
 62
     7
 10
65.105408999999995
 20
175.23706699999991
 30
0.0
 40
0.03355
 50
151.757656
 51
168.09925699999991
  0
ARC
  5
4E7
  8
0
 62
     7
 10
65.106797
 20
175.23191199999999
 30
0.0
 40
0.036284
 50
160.56450299999989
 51
179.703846
  0
ARC
  5
4E8
  8
0
 62
     7
 10
65.163156999999984
 20
175.220294
 30
0.0
 40
0.093392
 50
172.73763099999991
 51
182.05724499999999
  0
ARC
  5
4E9
  8
0
 62
     7
 10
65.336212000000003
 20
175.21803299999999
 30
0.0
 40
0.26639
 50
180.234792
 51
184.1285299999999
  0
ARC
  5
4EA
  8
0
 62
     7
 10
77.087707999999992
 20
176.3416399999999
 30
0.0
 40
12.07140899999999
 50
185.432275
 51
185.534944
  0
ARC
  5
4EB
  8
0
 62
     7
 10
64.409846999999999
 20
175.069727
 30
0.0
 40
0.671411
 50
7.0386389999999999
 51
9.2215640000000025
  0
ARC
  5
4EC
  8
0
 62
     7
 10
67.786741000000006
 20
175.60950500000001
 30
0.0
 40
2.748882
 50
189.58050399999991
 51
190.20737500000001
  0
ARC
  5
4ED
  8
0
 62
     7
 10
65.154732999999993
 20
175.13553400000001
 30
0.0
 40
0.074538
 50
190.16994299999999
 51
194.5082679999999
  0
ARC
  5
4EE
  8
0
 62
     7
 10
70.040660000000003
 20
175.136291
 30
0.0
 40
0.090058
 50
347.6528009999999
 51
351.99617999999992
  0
ARC
  5
4EF
  8
0
 62
     7
 10
69.362441000000004
 20
175.2789379999999
 30
0.0
 40
0.782933
 50
348.56758100000002
 51
350.82272799999993
  0
ARC
  5
4F0
  8
0
 62
     7
 10
69.782894999999996
 20
175.21227300000001
 30
0.0
 40
0.357231
 50
350.622792
 51
354.74615899999992
  0
LINE
  5
4F1
  8
0
 62
     7
 10
70.138599999999997
 20
175.18000000000001
 30
0.0
 11
70.140699999999995
 21
175.20099999999999
 31
0.0
  0
ARC
  5
4F2
  8
0
 62
     7
 10
69.763582999999997
 20
175.22462400000001
 30
0.0
 40
0.377843
 50
356.42968500000001
 51
359.1223930000001
  0
ARC
  5
4F3
  8
0
 62
     7
 10
69.964524999999995
 20
175.217851
 30
0.0
 40
0.17686
 50
0.319295
 51
5.069272999999999
  0
ARC
  5
4F4
  8
0
 62
     7
 10
69.976804000000001
 20
175.20525499999991
 30
0.0
 40
0.166301
 50
9.7709309999999991
 51
13.833933999999999
  0
ARC
  5
4F5
  8
0
 62
     7
 10
70.107783999999995
 20
175.236602
 30
0.0
 40
0.031637
 50
15.429088999999999
 51
31.829661999999999
  0
ARC
  5
4F6
  8
0
 62
     7
 10
70.121552000000008
 20
175.24629299999989
 30
0.0
 40
0.014861
 50
28.078234999999999
 51
56.100080000000013
  0
ARC
  5
4F7
  8
0
 62
     7
 10
70.122790000000009
 20
175.24645599999991
 30
0.0
 40
0.014066
 50
59.916274000000001
 51
90.046987999999985
  0
ARC
  5
4F8
  8
0
 62
     7
 10
68.323911999999993
 20
169.628996
 30
0.0
 40
3.4688460000000001
 50
175.09513799999999
 51
177.2766729999999
  0
ARC
  5
4F9
  8
0
 62
     7
 10
67.789816000000002
 20
169.650994
 30
0.0
 40
2.9343099999999991
 50
177.21023799999989
 51
179.73059499999991
  0
ARC
  5
4FA
  8
0
 62
     7
 10
67.080051999999995
 20
169.62652700000001
 30
0.0
 40
2.2248419999999989
 50
179.01454199999989
 51
182.24465499999999
  0
ARC
  5
4FB
  8
0
 62
     7
 10
67.879181000000003
 20
169.63718600000001
 30
0.0
 40
3.0238469999999991
 50
181.85341099999999
 51
184.24614899999989
  0
ARC
  5
4FC
  8
0
 62
     7
 10
68.283885999999995
 20
169.69685699999991
 30
0.0
 40
3.4319860000000002
 50
184.739351
 51
186.82348099999999
  0
ARC
  5
4FD
  8
0
 62
     7
 10
67.58802
 20
169.60095999999999
 30
0.0
 40
2.729684999999999
 50
186.560236
 51
189.1299039999999
  0
ARC
  5
4FE
  8
0
 62
     7
 10
68.056657999999985
 20
169.68963099999991
 30
0.0
 40
3.2064810000000001
 50
189.3655479999999
 51
191.5221389999999
  0
ARC
  5
4FF
  8
0
 62
     7
 10
68.161011999999999
 20
169.714562
 30
0.0
 40
3.3137150000000002
 50
191.58410900000001
 51
193.66887999999989
  0
ARC
  5
500
  8
0
 62
     7
 10
67.714943000000005
 20
169.63732300000001
 30
0.0
 40
2.8621880000000002
 50
194.27663699999999
 51
196.6560519999999
  0
ARC
  5
501
  8
0
 62
     7
 10
66.806612999999999
 20
169.33732499999999
 30
0.0
 40
1.9061749999999991
 50
195.842636
 51
199.38508999999991
  0
ARC
  5
502
  8
0
 62
     7
 10
67.536958999999996
 20
169.58604800000001
 30
0.0
 40
2.677681999999999
 50
199.218403
 51
201.7366669999999
  0
ARC
  5
503
  8
0
 62
     7
 10
67.531592000000003
 20
169.57838100000001
 30
0.0
 40
2.6698629999999999
 50
201.626484
 51
204.154653
  0
ARC
  5
504
  8
0
 62
     7
 10
68.887856999999997
 20
170.25195500000001
 30
0.0
 40
4.1834309999999988
 50
204.97114999999991
 51
206.6035399999999
  0
ARC
  5
505
  8
0
 62
     7
 10
67.699871000000002
 20
169.68050700000001
 30
0.0
 40
2.8653960000000001
 50
207.024451
 51
209.4209139999999
  0
ARC
  5
506
  8
0
 62
     7
 10
66.939332999999991
 20
169.237526
 30
0.0
 40
1.9853769999999991
 50
209.067126
 51
212.55200199999999
  0
ARC
  5
507
  8
0
 62
     7
 10
67.604893000000004
 20
169.657016
 30
0.0
 40
2.772095999999999
 50
212.45847499999991
 51
214.96680699999999
  0
ARC
  5
508
  8
0
 62
     7
 10
67.143961000000004
 20
169.32853399999999
 30
0.0
 40
2.2061220000000001
 50
214.83630400000001
 51
217.99434299999999
  0
ARC
  5
509
  8
0
 62
     7
 10
67.657566000000003
 20
169.72380799999999
 30
0.0
 40
2.8542070000000002
 50
217.90074799999999
 51
220.33439100000001
  0
ARC
  5
50A
  8
0
 62
     7
 10
67.565394999999995
 20
169.66143600000001
 30
0.0
 40
2.7436029999999989
 50
220.5873379999999
 51
223.147762
  0
ARC
  5
50B
  8
0
 62
     7
 10
67.34187
 20
169.46868399999991
 30
0.0
 40
2.4487320000000001
 50
223.43402699999999
 51
226.34131400000001
  0
ARC
  5
50C
  8
0
 62
     7
 10
67.179035999999996
 20
169.27395000000001
 30
0.0
 40
2.195497
 50
225.90726799999999
 51
229.149947
  0
ARC
  5
50D
  8
0
 62
     7
 10
67.346947999999983
 20
169.44759899999991
 30
0.0
 40
2.4367149999999991
 50
228.8341069999999
 51
231.7769339999999
  0
ARC
  5
50E
  8
0
 62
     7
 10
67.854221999999993
 20
170.11071100000001
 30
0.0
 40
3.271545999999999
 50
231.98298600000001
 51
234.18295800000001
  0
ARC
  5
50F
  8
0
 62
     7
 10
67.647694999999985
 20
169.851831
 30
0.0
 40
2.9408059999999998
 50
234.494191
 51
236.955556
  0
ARC
  5
510
  8
0
 62
     7
 10
67.566397999999992
 20
169.75373200000001
 30
0.0
 40
2.8142830000000001
 50
237.2539109999999
 51
239.82776799999999
  0
ARC
  5
511
  8
0
 62
     7
 10
67.372278000000009
 20
169.39999199999991
 30
0.0
 40
2.410922999999999
 50
239.5908299999999
 51
242.588784
  0
ARC
  5
512
  8
0
 62
     7
 10
67.579651999999996
 20
169.800026
 30
0.0
 40
2.8615140000000001
 50
242.59025899999989
 51
245.1186349999999
  0
ARC
  5
513
  8
0
 62
     7
 10
67.598597999999996
 20
169.85087999999999
 30
0.0
 40
2.915621999999999
 50
245.2013529999999
 51
247.68312299999999
  0
ARC
  5
514
  8
0
 62
     7
 10
67.468057999999999
 20
169.518326
 30
0.0
 40
2.5584129999999998
 50
247.559539
 51
250.398999
  0
ARC
  5
515
  8
0
 62
     7
 10
67.549436
 20
169.73434900000001
 30
0.0
 40
2.7892199999999998
 50
250.3128679999999
 51
252.91578899999999
  0
ARC
  5
516
  8
0
 62
     7
 10
67.693055000000001
 20
170.197765
 30
0.0
 40
3.2743809999999991
 50
252.89582200000001
 51
255.12840099999991
  0
ARC
  5
517
  8
0
 62
     7
 10
67.664480000000012
 20
170.1729169999999
 30
0.0
 40
3.2431009999999989
 50
255.503659
 51
257.76843500000001
  0
ARC
  5
518
  8
0
 62
     7
 10
67.645110999999986
 20
170.1181179999999
 30
0.0
 40
3.185449999999999
 50
257.9000979999999
 51
260.18194199999988
  0
ARC
  5
519
  8
0
 62
     7
 10
67.616171999999992
 20
170.00655499999991
 30
0.0
 40
3.070600999999999
 50
260.35904499999998
 51
262.71840099999991
  0
ARC
  5
51A
  8
0
 62
     7
 10
67.608039000000005
 20
169.928574
 30
0.0
 40
2.9922179999999989
 50
262.68361399999998
 51
265.1020509999999
  0
ARC
  5
51B
  8
0
 62
     7
 10
67.624346000000003
 20
170.26502999999991
 30
0.0
 40
3.328860999999999
 50
265.31684799999999
 51
267.49152099999992
  0
LINE
  5
51C
  8
0
 62
     7
 10
67.478700000000003
 20
166.93899999999999
 30
0.0
 11
67.6053
 21
166.93700000000001
 31
0.0
  0
LINE
  5
51D
  8
0
 62
     7
 10
67.6053
 20
166.93700000000001
 30
0.0
 11
67.732600000000005
 21
166.93899999999999
 31
0.0
  0
ARC
  5
51E
  8
0
 62
     7
 10
67.585061999999994
 20
170.29364499999991
 30
0.0
 40
3.357527999999999
 50
272.51778400000001
 51
274.67388699999998
  0
ARC
  5
51F
  8
0
 62
     7
 10
67.595052999999993
 20
170.01365599999991
 30
0.0
 40
3.0776829999999999
 50
274.91323799999992
 51
277.24503099999993
  0
ARC
  5
520
  8
0
 62
     7
 10
67.645942000000005
 20
169.66498100000001
 30
0.0
 40
2.7253810000000001
 50
277.1081549999999
 51
279.751553
  0
ARC
  5
521
  8
0
 62
     7
 10
67.525081
 20
170.3191379999999
 30
0.0
 40
3.3905690000000002
 50
279.89208400000001
 51
282.02102200000002
  0
ARC
  5
522
  8
0
 62
     7
 10
67.532165000000006
 20
170.20296399999989
 30
0.0
 40
3.2755119999999991
 50
282.32306199999999
 51
284.54127299999988
  0
ARC
  5
523
  8
0
 62
     7
 10
67.558261999999999
 20
170.08767
 30
0.0
 40
3.157360999999999
 50
284.60817500000002
 51
286.9209449999999
  0
ARC
  5
524
  8
0
 62
     7
 10
67.39166800000001
 20
170.54425499999991
 30
0.0
 40
3.6427629999999991
 50
287.33762999999988
 51
289.3357279999999
  0
ARC
  5
525
  8
0
 62
     7
 10
67.442309999999992
 20
170.30734699999991
 30
0.0
 40
3.4025879999999988
 50
289.85194999999987
 51
291.98852099999988
  0
ARC
  5
526
  8
0
 62
     7
 10
67.718700999999996
 20
169.60906900000001
 30
0.0
 40
2.6516220000000001
 50
292.10008199999987
 51
294.84753999999992
  0
ARC
  5
527
  8
0
 62
     7
 10
67.67560300000001
 20
169.708044
 30
0.0
 40
2.7595459999999989
 50
294.79603500000002
 51
297.42906399999998
  0
ARC
  5
528
  8
0
 62
     7
 10
67.423066000000006
 20
170.158681
 30
0.0
 40
3.275895999999999
 50
297.71871599999997
 51
299.93698000000001
  0
ARC
  5
529
  8
0
 62
     7
 10
67.57800300000001
 20
169.86345800000001
 30
0.0
 40
2.942771
 50
300.19136900000001
 51
302.66777500000001
  0
ARC
  5
52A
  8
0
 62
     7
 10
67.427713999999995
 20
170.04859400000001
 30
0.0
 40
3.1798540000000002
 50
303.14680600000003
 51
305.43861699999991
  0
ARC
  5
52B
  8
0
 62
     7
 10
67.706652000000005
 20
169.648788
 30
0.0
 40
2.6923840000000001
 50
305.53562099999988
 51
308.23530899999992
  0
ARC
  5
52C
  8
0
 62
     7
 10
67.502024000000006
 20
169.87492399999991
 30
0.0
 40
2.9967239999999999
 50
308.63255299999992
 51
311.03884799999992
  0
ARC
  5
52D
  8
0
 62
     7
 10
67.845989000000003
 20
169.48276799999991
 30
0.0
 40
2.4750969999999999
 50
310.993404
 51
313.912082
  0
ARC
  5
52E
  8
0
 62
     7
 10
68.170484999999999
 20
169.158174
 30
0.0
 40
2.0162209999999989
 50
313.66641199999998
 51
317.22534300000001
  0
ARC
  5
52F
  8
0
 62
     7
 10
68.398882999999998
 20
168.99043
 30
0.0
 40
1.734947
 50
316.16915799999992
 51
320.25928999999991
  0
ARC
  5
530
  8
0
 62
     7
 10
68.413583000000003
 20
169.032149
 30
0.0
 40
1.750807
 50
318.901813
 51
322.92605299999991
  0
ARC
  5
531
  8
0
 62
     7
 10
68.252814999999998
 20
169.19339799999989
 30
0.0
 40
1.97654
 50
322.00604299999998
 51
325.54710899999992
  0
ARC
  5
532
  8
0
 62
     7
 10
68.327073999999996
 20
169.17586099999991
 30
0.0
 40
1.905584999999999
 50
324.71874300000002
 51
328.39389699999998
  0
ARC
  5
533
  8
0
 62
     7
 10
67.566192999999998
 20
169.667427
 30
0.0
 40
2.811293
 50
327.988471
 51
330.47284400000001
  0
ARC
  5
534
  8
0
 62
     7
 10
67.801700999999994
 20
169.523437
 30
0.0
 40
2.5354259999999988
 50
330.68125600000002
 51
333.40500099999991
  0
ARC
  5
535
  8
0
 62
     7
 10
67.923878999999999
 20
169.46703600000001
 30
0.0
 40
2.4009299999999989
 50
333.30326300000002
 51
336.153752
  0
ARC
  5
536
  8
0
 62
     7
 10
68.032212000000001
 20
169.43911199999999
 30
0.0
 40
2.290627999999999
 50
335.69707499999993
 51
338.65183500000001
  0
ARC
  5
537
  8
0
 62
     7
 10
67.322925999999995
 20
169.7102229999999
 30
0.0
 40
3.0499459999999989
 50
338.75883799999991
 51
340.95800500000001
  0
ARC
  5
538
  8
0
 62
     7
 10
68.183041000000003
 20
169.41877600000001
 30
0.0
 40
2.1418140000000001
 50
340.82095199999992
 51
343.95898899999997
  0
ARC
  5
539
  8
0
 62
     7
 10
67.699190999999999
 20
169.57548399999999
 30
0.0
 40
2.6501830000000002
 50
343.59346599999998
 51
346.132206
  0
ARC
  5
53A
  8
0
 62
     7
 10
67.330161000000004
 20
169.64801900000001
 30
0.0
 40
3.0258940000000001
 50
346.47359799999992
 51
348.72131300000001
  0
ARC
  5
53B
  8
0
 62
     7
 10
68.165759999999992
 20
169.503523
 30
0.0
 40
2.1782810000000001
 50
348.14993500000003
 51
351.24037399999997
  0
ARC
  5
53C
  8
0
 62
     7
 10
67.860484
 20
169.57325199999991
 30
0.0
 40
2.490715999999999
 50
350.724515
 51
353.461161
  0
ARC
  5
53D
  8
0
 62
     7
 10
67.649804000000003
 20
169.616356
 30
0.0
 40
2.7049989999999999
 50
353.06226400000003
 51
355.61436700000002
  0
ARC
  5
53E
  8
0
 62
     7
 10
66.820738000000006
 20
169.66663600000001
 30
0.0
 40
3.5355080000000001
 50
355.829341
 51
357.78376099999991
  0
ARC
  5
53F
  8
0
 62
     7
 10
66.957325999999995
 20
169.64843200000001
 30
0.0
 40
3.3983419999999991
 50
358.00139999999988
 51
0.020238
  0
ARC
  5
540
  8
0
 62
     7
 10
67.674300000000002
 20
169.651072
 30
0.0
 40
2.6813679999999991
 50
359.96923900000002
 51
2.5982090000000002
  0
ARC
  5
541
  8
0
 62
     7
 10
67.968202000000005
 20
169.69662999999991
 30
0.0
 40
2.38592
 50
1.8252120000000001
 51
4.8711500000000001
  0
ARC
  5
542
  8
0
 62
     7
 10
69.612532000000002
 20
169.83990600000001
 30
0.0
 40
0.7353690000000001
 50
4.6273089999999986
 51
6.5558059999999987
  0
ARC
  5
543
  8
0
 62
     7
 10
72.859864999999985
 20
146.43390099999991
 30
0.0
 40
0.120538
 50
272.07540499999999
 51
358.00954999999999
  0
ARC
  5
544
  8
0
 62
     7
 10
62.350883000000003
 20
146.43413100000001
 30
0.0
 40
0.120777
 50
182.09575499999991
 51
267.81932999999992
  0
ARC
  5
545
  8
0
 62
     7
 10
72.690686999999997
 20
193.52386799999991
 30
0.0
 40
0.289837
 50
2.0937830000000002
 51
87.906206999999995
  0
ARC
  5
546
  8
0
 62
     7
 10
62.519835
 20
193.523864
 30
0.0
 40
0.289842
 50
92.094680999999994
 51
177.9052889999999
  0
ARC
  5
547
  8
0
 62
     7
 10
67.588711000000004
 20
191.6861219999999
 30
0.0
 40
0.459218
 50
2.1320179999999991
 51
87.934944999999985
  0
ARC
  5
548
  8
0
 62
     7
 10
67.622703000000001
 20
191.6859399999999
 30
0.0
 40
0.459433
 50
92.176036999999994
 51
177.84627599999999
  0
ARC
  5
549
  8
0
 62
     7
 10
67.587618999999989
 20
188.78993799999989
 30
0.0
 40
0.483404
 50
2.1124640000000001
 51
87.908735000000007
  0
ARC
  5
54A
  8
0
 62
     7
 10
67.623473000000004
 20
188.78972099999999
 30
0.0
 40
0.4836420000000001
 50
92.158322999999996
 51
177.86286399999989
  0
ARC
  5
54B
  8
0
 62
     7
 10
67.623056999999974
 20
188.82555600000001
 30
0.0
 40
0.4832180000000001
 50
182.110929
 51
267.88910099999998
  0
ARC
  5
54C
  8
0
 62
     7
 10
67.60543100000001
 20
188.807929
 30
0.0
 40
0.4652630000000001
 50
269.97880700000002
 51
359.97877699999992
  0
ARC
  5
54D
  8
0
 62
     7
 10
67.583083999999999
 20
188.78540299999989
 30
0.0
 40
0.604125
 50
2.120550999999999
 51
87.896412999999995
  0
ARC
  5
54E
  8
0
 62
     7
 10
67.627222000000003
 20
188.78632899999999
 30
0.0
 40
0.603191
 50
92.086730999999986
 51
177.964191
  0
ARC
  5
54F
  8
0
 62
     7
 10
67.628101000000001
 20
188.830062
 30
0.0
 40
0.604101
 50
182.11601799999991
 51
267.83305999999988
  0
ARC
  5
550
  8
0
 62
     7
 10
67.583318000000006
 20
188.8298759999999
 30
0.0
 40
0.603882
 50
272.08216800000002
 51
357.900868
  0
LINE
  5
551
  8
0
 62
     7
 10
70.343100000000007
 20
177.583
 30
0.0
 11
70.342699999999994
 21
177.63099999999989
 31
0.0
  0
ARC
  5
552
  8
0
 62
     7
 10
73.803820000000002
 20
177.738518
 30
0.0
 40
3.4627269999999988
 50
181.2272759999999
 51
181.77185700000001
  0
ARC
  5
553
  8
0
 62
     7
 10
69.835954999999984
 20
177.7059659999999
 30
0.0
 40
0.5036930000000001
 50
2.5956290000000002
 51
5.4047419999999997
  0
ARC
  5
554
  8
0
 62
     7
 10
67.201482999999996
 20
177.56438600000001
 30
0.0
 40
3.1419950000000001
 50
1.8232470000000001
 51
2.341883999999999
  0
LINE
  5
555
  8
0
 62
     7
 10
70.340900000000005
 20
177.6929999999999
 30
0.0
 11
70.339100000000002
 21
177.72900000000001
 31
0.0
  0
ARC
  5
556
  8
0
 62
     7
 10
69.118112999999994
 20
177.69203099999999
 30
0.0
 40
1.220839999999999
 50
2.8817909999999989
 51
4.8102679999999989
  0
ARC
  5
557
  8
0
 62
     7
 10
68.697547999999983
 20
177.66999899999999
 30
0.0
 40
1.6418250000000001
 50
4.3456879999999991
 51
5.0091460000000003
  0
ARC
  5
558
  8
0
 62
     7
 10
65.60078399999999
 20
177.39658799999989
 30
0.0
 40
4.7506349999999991
 50
5.0329439999999996
 51
5.6150849999999988
  0
ARC
  5
559
  8
0
 62
     7
 10
70.433526000000001
 20
177.88024799999991
 30
0.0
 40
0.10658
 50
184.29524599999999
 51
190.17863600000001
  0
ARC
  5
55A
  8
0
 62
     7
 10
67.619402000000008
 20
178.32420200000001
 30
0.0
 40
1.7733220000000001
 50
88.781627000000015
 51
90.456958
  0
LINE
  5
55B
  8
0
 62
     7
 10
67.553799999999995
 20
175.21199999999999
 30
0.0
 11
67.6053
 21
175.21199999999999
 31
0.0
  0
LINE
  5
55C
  8
0
 62
     7
 10
67.548599999999993
 20
174.893
 30
0.0
 11
67.6053
 21
174.892
 31
0.0
  0
LINE
  5
55D
  8
0
 62
     7
 10
72.701300000000003
 20
193.81399999999999
 30
0.0
 11
62.5092
 21
193.81399999999999
 31
0.0
  0
LINE
  5
55E
  8
0
 62
     7
 10
72.9803
 20
193.53399999999999
 30
0.0
 11
62.230200000000004
 21
193.53399999999999
 31
0.0
  0
LINE
  5
55F
  8
0
 62
     7
 10
72.9803
 20
181.75
 30
0.0
 11
62.230200000000004
 21
181.75
 31
0.0
  0
LINE
  5
560
  8
0
 62
     7
 10
62.230200000000004
 20
181.5979999999999
 30
0.0
 11
72.9803
 21
181.5979999999999
 31
0.0
  0
LINE
  5
561
  8
0
 62
     7
 10
72.9803
 20
181.75
 30
0.0
 11
72.9803
 21
193.53399999999999
 31
0.0
  0
LINE
  5
562
  8
0
 62
     7
 10
72.9803
 20
181.5979999999999
 30
0.0
 11
72.9803
 21
146.43000000000001
 31
0.0
  0
LINE
  5
563
  8
0
 62
     7
 10
70.343100000000007
 20
169.899
 30
0.0
 11
70.343100000000007
 21
177.583
 31
0.0
  0
LINE
  5
564
  8
0
 62
     7
 10
70.128600000000006
 20
173.34299999999999
 30
0.0
 11
70.128600000000006
 21
175.25899999999999
 31
0.0
  0
LINE
  5
565
  8
0
 62
     7
 10
68.047600000000003
 20
189.18599999999989
 30
0.0
 11
68.047600000000003
 21
191.703
 31
0.0
  0
LINE
  5
566
  8
0
 62
     7
 10
67.163600000000002
 20
191.703
 30
0.0
 11
67.163600000000002
 21
189.18599999999989
 31
0.0
  0
LINE
  5
567
  8
0
 62
     7
 10
65.082599999999985
 20
173.34299999999999
 30
0.0
 11
65.082599999999985
 21
175.25899999999999
 31
0.0
  0
LINE
  5
568
  8
0
 62
     7
 10
64.867800000000003
 20
169.899
 30
0.0
 11
64.867800000000003
 21
177.583
 31
0.0
  0
LINE
  5
569
  8
0
 62
     7
 10
62.230200000000004
 20
181.75
 30
0.0
 11
62.230200000000004
 21
193.53399999999999
 31
0.0
  0
LINE
  5
56A
  8
0
  6
AIGENLINE001
 62
     7
 10
67.6053
 20
196.43499999999989
 30
0.0
 11
67.6053
 21
162.74100000000001
 31
0.0
  0
LINE
  5
56B
  8
0
  6
AIGENLINE001
 62
     7
 10
67.6053
 20
152.7239999999999
 30
0.0
 11
67.6053
 21
107.045
 31
0.0
  0
LINE
  5
56C
  8
0
 62
     7
 10
62.230200000000004
 20
181.5979999999999
 30
0.0
 11
62.230200000000004
 21
146.43000000000001
 31
0.0
  0
LINE
  5
56D
  8
0
 62
     7
 10
62.230200000000004
 20
146.43000000000001
 30
0.0
 11
72.9803
 21
146.43000000000001
 31
0.0
  0
LINE
  5
56E
  8
0
 62
     7
 10
62.346299999999999
 20
146.3129999999999
 30
0.0
 11
72.864199999999997
 21
146.3129999999999
 31
0.0
  0
ARC
  5
56F
  8
0
 62
     7
 10
67.580179000000001
 20
242.097081
 30
0.0
 40
21.286871000000001
 50
221.713212
 51
235.06478299999989
  0
ARC
  5
570
  8
0
 62
     7
 10
67.492677999999998
 20
243.06832199999999
 30
0.0
 40
22.041933
 50
236.69720599999991
 51
316.63831699999992
  0
LINE
  5
571
  8
0
 62
     7
 10
69.776399999999995
 20
221.5209999999999
 30
0.0
 11
67.605599999999995
 21
220.79400000000001
 31
0.0
  0
LINE
  5
572
  8
0
 62
     7
 10
67.605599999999995
 20
220.79400000000001
 30
0.0
 11
69.849100000000007
 21
220.33799999999999
 31
0.0
  0
LINE
  5
573
  8
0
 62
     7
 10
69.849100000000007
 20
220.33799999999999
 30
0.0
 11
69.776399999999995
 21
221.5209999999999
 31
0.0
  0
LINE
  5
574
  8
0
 62
     7
 10
65.434799999999996
 20
221.5209999999999
 30
0.0
 11
67.605599999999995
 21
220.79400000000001
 31
0.0
  0
LINE
  5
575
  8
0
 62
     7
 10
67.605599999999995
 20
220.79400000000001
 30
0.0
 11
65.362099999999998
 21
220.33799999999999
 31
0.0
  0
LINE
  5
576
  8
0
 62
     7
 10
65.362099999999998
 20
220.33799999999999
 30
0.0
 11
65.434799999999996
 21
221.5209999999999
 31
0.0
  0
LINE
  5
577
  8
0
 62
     7
 10
81.680599999999998
 20
226.56899999999999
 30
0.0
 11
83.517899999999983
 21
227.934
 31
0.0
  0
LINE
  5
578
  8
0
 62
     7
 10
83.517899999999983
 20
227.934
 30
0.0
 11
82.609399999999994
 21
225.83299999999991
 31
0.0
  0
LINE
  5
579
  8
0
 62
     7
 10
82.609399999999994
 20
225.83299999999991
 30
0.0
 11
81.680599999999998
 21
226.56899999999999
 31
0.0
  0
LINE
  5
57A
  8
0
 62
     7
 10
52.533900000000003
 20
225.80500000000001
 30
0.0
 11
51.689900000000002
 21
227.93299999999991
 31
0.0
  0
LINE
  5
57B
  8
0
 62
     7
 10
51.689900000000002
 20
227.93299999999991
 30
0.0
 11
53.4848
 21
226.512
 31
0.0
  0
LINE
  5
57C
  8
0
 62
     7
 10
53.4848
 20
226.512
 30
0.0
 11
52.533900000000003
 21
225.80500000000001
 31
0.0
  0
ARC
  5
57D
  8
0
  6
AIGENLINE002
 62
     7
 10
52.347659
 20
229.08493899999999
 30
0.0
 40
0.12062
 50
132.02601499999989
 51
217.86796299999989
  0
ARC
  5
57E
  8
0
  6
AIGENLINE002
 62
     7
 10
52.940131000000001
 20
228.379244
 30
0.0
 40
0.12078
 50
222.09667899999991
 51
307.79731800000002
  0
ARC
  5
57F
  8
0
  6
AIGENLINE002
 62
     7
 10
61.073382999999993
 20
236.43804199999991
 30
0.0
 40
0.096665
 50
42.216184999999989
 51
127.857328
  0
ARC
  5
580
  8
0
  6
AIGENLINE002
 62
     7
 10
61.696166000000012
 20
235.69542100000001
 30
0.0
 40
0.097173
 50
312.36883999999992
 51
37.730616999999988
  0
LINE
  5
581
  8
0
  6
AIGENLINE002
 62
     7
 10
52.850499999999997
 20
228.298
 30
0.0
 11
52.252400000000002
 21
229.01099999999991
 31
0.0
  0
LINE
  5
582
  8
0
  6
AIGENLINE002
 62
     7
 10
52.2669
 20
229.1749999999999
 30
0.0
 11
61.014099999999999
 21
236.51400000000001
 31
0.0
  0
LINE
  5
583
  8
0
  6
AIGENLINE002
 62
     7
 10
63.27300000000001
 20
238.107
 30
0.0
 11
61.234900000000003
 21
236.39599999999999
 31
0.0
  0
LINE
  5
584
  8
0
  6
AIGENLINE002
 62
     7
 10
63.721600000000002
 20
237.572
 30
0.0
 11
61.683100000000003
 21
235.86199999999999
 31
0.0
  0
LINE
  5
585
  8
0
  6
AIGENLINE002
 62
     7
 10
53.014200000000002
 20
228.28399999999999
 30
0.0
 11
61.76169999999999
 21
235.624
 31
0.0
  0
LINE
  5
586
  8
0
  6
AIGENLINE002
 62
     7
 10
61.145000000000003
 20
236.5029999999999
 30
0.0
 11
61.773000000000003
 21
235.75499999999991
 31
0.0
  0
LINE
  5
587
  8
0
  6
AIGENLINE001
 62
     7
 10
67.6053
 20
241.28599999999989
 30
0.0
 11
51.310899999999997
 21
227.613
 31
0.0
  0
ARC
  5
588
  8
0
  6
AIGENLINE002
 62
     7
 10
82.862612999999996
 20
229.085058
 30
0.0
 40
0.121159
 50
322.25885699999992
 51
47.607748000000001
  0
ARC
  5
589
  8
0
  6
AIGENLINE002
 62
     7
 10
82.270956999999996
 20
228.378817
 30
0.0
 40
0.120583
 50
231.99359899999999
 51
318.09132199999999
  0
ARC
  5
58A
  8
0
  6
AIGENLINE002
 62
     7
 10
74.137294999999995
 20
236.43798000000001
 30
0.0
 40
0.096826
 50
52.079632999999987
 51
137.82088999999991
  0
ARC
  5
58B
  8
0
  6
AIGENLINE002
 62
     7
 10
73.51446
 20
235.695572
 30
0.0
 40
0.096895
 50
142.25439299999991
 51
227.94460799999999
  0
LINE
  5
58C
  8
0
  6
AIGENLINE002
 62
     7
 10
82.360699999999994
 20
228.298
 30
0.0
 11
82.958399999999997
 21
229.01099999999991
 31
0.0
  0
LINE
  5
58D
  8
0
  6
AIGENLINE002
 62
     7
 10
82.944299999999998
 20
229.1749999999999
 30
0.0
 11
74.196799999999996
 21
236.51400000000001
 31
0.0
  0
LINE
  5
58E
  8
0
  6
AIGENLINE002
 62
     7
 10
71.937100000000001
 20
238.107
 30
0.0
 11
73.975999999999999
 21
236.39599999999999
 31
0.0
  0
LINE
  5
58F
  8
0
  6
AIGENLINE002
 62
     7
 10
71.488900000000001
 20
237.57299999999989
 30
0.0
 11
73.5274
 21
235.86199999999999
 31
0.0
  0
LINE
  5
590
  8
0
  6
AIGENLINE002
 62
     7
 10
82.196700000000007
 20
228.28399999999999
 30
0.0
 11
73.449600000000004
 21
235.624
 31
0.0
  0
LINE
  5
591
  8
0
  6
AIGENLINE002
 62
     7
 10
74.0655
 20
236.5029999999999
 30
0.0
 11
73.437799999999996
 21
235.75499999999991
 31
0.0
  0
LINE
  5
592
  8
0
  6
AIGENLINE001
 62
     7
 10
67.6053
 20
241.28599999999989
 30
0.0
 11
83.900000000000006
 21
227.613
 31
0.0
  0
ARC
  5
593
  8
0
 62
     7
 10
65.022992000000002
 20
206.598613
 30
0.0
 40
0.167798
 50
170.997342
 51
179.9746419999999
  0
ARC
  5
594
  8
0
 62
     7
 10
65.060272999999995
 20
206.60186399999989
 30
0.0
 40
0.204312
 50
163.213368
 51
173.534797
  0
ARC
  5
595
  8
0
 62
     7
 10
65.141767999999999
 20
206.5830169999999
 30
0.0
 40
0.287829
 50
156.69858600000001
 51
164.30663200000001
  0
ARC
  5
596
  8
0
 62
     7
 10
65.362031999999999
 20
206.45321799999999
 30
0.0
 40
0.5424220000000001
 50
149.006901
 51
153.3077449999999
  0
ARC
  5
597
  8
0
 62
     7
 10
65.180549999999997
 20
206.56076899999991
 30
0.0
 40
0.331471
 50
141.3008209999999
 51
148.78980799999991
  0
ARC
  5
598
  8
0
 62
     7
 10
65.267579999999995
 20
206.49115699999999
 30
0.0
 40
0.442916
 50
135.28022899999991
 51
141.311972
  0
ARC
  5
599
  8
0
 62
     7
 10
65.274630000000002
 20
206.50000399999999
 30
0.0
 40
0.441844
 50
130.20976999999999
 51
136.73884699999991
  0
ARC
  5
59A
  8
0
 62
     7
 10
65.33685899999999
 20
206.4512189999999
 30
0.0
 40
0.5195210000000001
 50
125.96399099999999
 51
131.977756
  0
ARC
  5
59B
  8
0
 62
     7
 10
65.565922999999998
 20
206.15727599999991
 30
0.0
 40
0.89205
 50
123.033275
 51
126.784583
  0
ARC
  5
59C
  8
0
 62
     7
 10
65.499005999999994
 20
206.28275999999991
 30
0.0
 40
0.750473
 50
119.200885
 51
123.9727009999999
  0
ARC
  5
59D
  8
0
 62
     7
 10
65.929097999999996
 20
205.56702300000001
 30
0.0
 40
1.585297999999999
 50
117.730527
 51
120.149472
  0
ARC
  5
59E
  8
0
 62
     7
 10
66.774173000000005
 20
203.78941099999989
 30
0.0
 40
3.552849999999999
 50
115.30873699999999
 51
116.45426
  0
ARC
  5
59F
  8
0
 62
     7
 10
65.994388999999984
 20
205.412837
 30
0.0
 40
1.751924
 50
112.47143799999991
 51
114.95127099999991
  0
ARC
  5
5A0
  8
0
 62
     7
 10
65.911477000000005
 20
205.66423299999991
 30
0.0
 40
1.4880539999999991
 50
110.151645
 51
113.221231
  0
ARC
  5
5A1
  8
0
 62
     7
 10
66.301377000000002
 20
204.70410199999989
 30
0.0
 40
2.5239790000000002
 50
109.05443799999991
 51
110.9521
  0
ARC
  5
5A2
  8
0
 62
     7
 10
66.615015999999997
 20
203.77401900000001
 30
0.0
 40
3.5055010000000002
 50
107.505306
 51
108.9369889999999
  0
ARC
  5
5A3
  8
0
 62
     7
 10
66.983120999999997
 20
202.50465600000001
 30
0.0
 40
4.8269000000000002
 50
106.05203899999989
 51
107.14017799999991
  0
ARC
  5
5A4
  8
0
 62
     7
 10
66.835623999999996
 20
202.98195599999991
 30
0.0
 40
4.3274359999999987
 50
104.6601099999999
 51
105.92272199999999
  0
ARC
  5
5A5
  8
0
 62
     7
 10
67.542548999999994
 20
200.114406
 30
0.0
 40
7.2806629999999997
 50
103.5488129999999
 51
104.33098
  0
ARC
  5
5A6
  8
0
 62
     7
 10
66.951342000000011
 20
202.4699159999999
 30
0.0
 40
4.8522550000000004
 50
102.07313000000001
 51
103.27817899999999
  0
ARC
  5
5A7
  8
0
 62
     7
 10
66.818337999999983
 20
203.18951699999991
 30
0.0
 40
4.1208019999999994
 50
100.88297900000001
 51
102.357455
  0
ARC
  5
5A8
  8
0
 62
     7
 10
67.138759999999991
 20
201.545042
 30
0.0
 40
5.7961989999999988
 50
99.847488999999996
 51
100.924263
  0
ARC
  5
5A9
  8
0
 62
     7
 10
67.466316000000006
 20
199.83403999999999
 30
0.0
 40
7.5380739999999999
 50
99.224985000000004
 51
100.076296
  0
ARC
  5
5AA
  8
0
 62
     7
 10
68.434710999999993
 20
193.110839
 30
0.0
 40
14.330083999999999
 50
98.281295999999998
 51
98.737436000000002
  0
ARC
  5
5AB
  8
0
 62
     7
 10
67.537673999999996
 20
198.93668500000001
 30
0.0
 40
8.4359210000000004
 50
97.159520999999998
 51
97.951432999999994
  0
ARC
  5
5AC
  8
0
 62
     7
 10
67.767556999999996
 20
197.06087299999999
 30
0.0
 40
10.325759
 50
96.465654000000015
 51
97.127914000000004
  0
ARC
  5
5AD
  8
0
 62
     7
 10
69.067747999999995
 20
183.77083499999989
 30
0.0
 40
23.678563
 50
95.678865000000016
 51
95.970472999999984
  0
ARC
  5
5AE
  8
0
 62
     7
 10
67.530036999999993
 20
198.6764499999999
 30
0.0
 40
8.6941160000000011
 50
94.506043000000005
 51
95.315009000000003
  0
ARC
  5
5AF
  8
0
 62
     7
 10
67.316096000000002
 20
201.920399
 30
0.0
 40
5.4435459999999987
 50
93.634590000000003
 51
94.943696000000003
  0
ARC
  5
5B0
  8
0
 62
     7
 10
67.482495999999998
 20
199.94025999999999
 30
0.0
 40
7.4303610000000004
 50
92.979743999999997
 51
93.947175999999985
  0
ARC
  5
5B1
  8
0
 62
     7
 10
67.888953000000001
 20
191.61505600000001
 30
0.0
 40
15.76546099999999
 50
92.422124999999994
 51
92.882118999999975
  0
ARC
  5
5B2
  8
0
 62
     7
 10
67.68938
 20
195.4543449999999
 30
0.0
 40
11.921226000000001
 50
91.631455000000017
 51
92.243622000000016
  0
LINE
  5
5B3
  8
0
 62
     7
 10
67.349999999999994
 20
207.3709999999999
 30
0.0
 11
67.477599999999995
 21
207.37299999999991
 31
0.0
  0
LINE
  5
5B4
  8
0
 62
     7
 10
67.477599999999995
 20
207.37299999999991
 30
0.0
 11
67.605599999999995
 21
207.374
 31
0.0
  0
LINE
  5
5B5
  8
0
 62
     7
 10
67.6631
 20
207.374
 30
0.0
 11
67.790599999999998
 21
207.37200000000001
 31
0.0
  0
LINE
  5
5B6
  8
0
 62
     7
 10
67.790599999999998
 20
207.37200000000001
 30
0.0
 11
67.918599999999984
 21
207.369
 31
0.0
  0
ARC
  5
5B7
  8
0
 62
     7
 10
67.422314999999983
 20
193.18403499999999
 30
0.0
 40
14.193659
 50
87.484771999999992
 51
87.996252999999996
  0
ARC
  5
5B8
  8
0
 62
     7
 10
67.697201000000007
 20
199.455196
 30
0.0
 40
7.9164759999999994
 50
86.567936999999986
 51
87.480520999999996
  0
ARC
  5
5B9
  8
0
 62
     7
 10
67.557154999999995
 20
197.360274
 30
0.0
 40
10.016035
 50
85.770618999999996
 51
86.485664999999983
  0
ARC
  5
5BA
  8
0
 62
     7
 10
67.863973000000001
 20
201.15446999999989
 30
0.0
 40
6.209598999999999
 50
84.871972
 51
86.012017
  0
ARC
  5
5BB
  8
0
 62
     7
 10
67.798756000000012
 20
200.07087799999999
 30
0.0
 40
7.294753
 50
84.165828999999988
 51
85.122503000000009
  0
ARC
  5
5BC
  8
0
 62
     7
 10
67.180233999999984
 20
194.20320699999999
 30
0.0
 40
13.194915999999999
 50
83.562500000000014
 51
84.08387900000001
  0
ARC
  5
5BD
  8
0
 62
     7
 10
67.165392999999995
 20
194.88512099999991
 30
0.0
 40
12.519297999999999
 50
82.604849999999999
 51
83.145099000000002
  0
ARC
  5
5BE
  8
0
 62
     7
 10
67.452377999999996
 20
197.51762500000001
 30
0.0
 40
9.8719020000000004
 50
81.618616000000003
 51
82.290068999999988
  0
ARC
  5
5BF
  8
0
 62
     7
 10
67.900942000000001
 20
200.61811899999989
 30
0.0
 40
6.7391439999999996
 50
80.587097999999997
 51
81.549242000000007
  0
ARC
  5
5C0
  8
0
 62
     7
 10
68.025581999999986
 20
201.3812629999999
 30
0.0
 40
5.9658910000000001
 50
79.507786999999993
 51
80.569339999999997
  0
ARC
  5
5C1
  8
0
 62
     7
 10
67.846343000000005
 20
200.5134909999999
 30
0.0
 40
6.8518169999999987
 50
78.457099999999997
 51
79.355435999999983
  0
ARC
  5
5C2
  8
0
 62
     7
 10
68.494416000000001
 20
203.57288700000001
 30
0.0
 40
3.7246860000000002
 50
77.201028000000008
 51
78.807468
  0
ARC
  5
5C3
  8
0
 62
     7
 10
66.959778
 20
196.96517
 30
0.0
 40
10.508243999999991
 50
76.473729000000006
 51
77.022765000000007
  0
ARC
  5
5C4
  8
0
 62
     7
 10
67.935637999999997
 20
201.23528400000001
 30
0.0
 40
6.1285299999999996
 50
75.090395000000015
 51
76.006742000000017
  0
ARC
  5
5C5
  8
0
 62
     7
 10
68.193918000000011
 20
202.38667299999989
 30
0.0
 40
4.9496699999999993
 50
73.471642000000003
 51
74.550252999999984
  0
ARC
  5
5C6
  8
0
 62
     7
 10
68.419508999999991
 20
203.15672199999989
 30
0.0
 40
4.147263999999999
 50
72.184882999999999
 51
73.432928000000004
  0
ARC
  5
5C7
  8
0
 62
     7
 10
68.161625999999998
 20
202.5344189999999
 30
0.0
 40
4.8189399999999996
 50
70.509326000000001
 51
71.529445999999993
  0
ARC
  5
5C8
  8
0
 62
     7
 10
68.970647
 20
204.85311799999991
 30
0.0
 40
2.3632040000000001
 50
68.251110999999995
 51
70.243095999999994
  0
ARC
  5
5C9
  8
0
 62
     7
 10
69.191970999999995
 20
205.38306499999999
 30
0.0
 40
1.7889949999999999
 50
66.058008999999998
 51
68.545860000000005
  0
ARC
  5
5CA
  8
0
 62
     7
 10
69.110963999999996
 20
205.17087499999991
 30
0.0
 40
2.015838
 50
64.311029000000005
 51
66.401156
  0
ARC
  5
5CB
  8
0
 62
     7
 10
69.410669999999996
 20
205.79111399999991
 30
0.0
 40
1.3269850000000001
 50
61.362921
 51
64.363625999999996
  0
ARC
  5
5CC
  8
0
 62
     7
 10
69.382340999999997
 20
205.73648700000001
 30
0.0
 40
1.388506999999999
 50
58.751806999999992
 51
61.417258999999987
  0
ARC
  5
5CD
  8
0
 62
     7
 10
69.553545999999983
 20
206.0226209999999
 30
0.0
 40
1.0550740000000001
 50
55.326018000000012
 51
58.63979699999998
  0
ARC
  5
5CE
  8
0
 62
     7
 10
69.641538999999995
 20
206.158535
 30
0.0
 40
0.893251
 50
51.392221999999997
 51
55.008057999999998
  0
ARC
  5
5CF
  8
0
 62
     7
 10
69.69314399999999
 20
206.229218
 30
0.0
 40
0.8058250000000001
 50
47.388544000000003
 51
51.123497999999991
  0
ARC
  5
5D0
  8
0
 62
     7
 10
69.773391000000004
 20
206.32938200000001
 30
0.0
 40
0.6778360000000001
 50
42.498384000000001
 51
46.648583000000002
  0
ARC
  5
5D1
  8
0
 62
     7
 10
69.843292000000005
 20
206.41892699999991
 30
0.0
 40
0.5661170000000001
 50
36.039161
 51
40.595508000000002
  0
ARC
  5
5D2
  8
0
 62
     7
 10
70.084702000000007
 20
206.58948899999999
 30
0.0
 40
0.270592
 50
27.996604000000001
 51
36.90977199999999
  0
ARC
  5
5D3
  8
0
 62
     7
 10
70.041123999999996
 20
206.5667179999999
 30
0.0
 40
0.31976
 50
20.912372999999999
 51
27.933816
  0
ARC
  5
5D4
  8
0
 62
     7
 10
70.141187000000002
 20
206.60234299999991
 30
0.0
 40
0.213586
 50
11.479706
 51
21.566344999999998
  0
ARC
  5
5D5
  8
0
 62
     7
 10
70.159851000000003
 20
206.60098600000001
 30
0.0
 40
0.195631
 50
2.3037730000000001
 51
12.95733299999999
  0
LINE
  5
5D6
  8
0
 62
     7
 10
70.3553
 20
206.6089999999999
 30
0.0
 11
70.3553
 21
206.59899999999999
 31
0.0
  0
LINE
  5
5D7
  8
0
 62
     7
 10
67.657799999999995
 20
207.053
 30
0.0
 11
67.777299999999997
 21
207.05199999999999
 31
0.0
  0
LINE
  5
5D8
  8
0
 62
     7
 10
67.777299999999997
 20
207.05199999999999
 30
0.0
 11
67.896699999999996
 21
207.04799999999989
 31
0.0
  0
ARC
  5
5D9
  8
0
 62
     7
 10
67.491441000000009
 20
194.7137139999999
 30
0.0
 40
12.341388999999999
 50
87.565943000000004
 51
88.118137000000004
  0
ARC
  5
5DA
  8
0
 62
     7
 10
67.406779
 20
195.09846099999999
 30
0.0
 40
11.96101
 50
86.520506999999995
 51
87.082481000000001
  0
ARC
  5
5DB
  8
0
 62
     7
 10
67.646658000000002
 20
198.995735
 30
0.0
 40
8.0563630000000011
 50
85.707447999999985
 51
86.541177999999988
  0
ARC
  5
5DC
  8
0
 62
     7
 10
67.133376999999996
 20
192.79052200000001
 30
0.0
 40
14.282667
 50
85.054879000000014
 51
85.517352000000017
  0
ARC
  5
5DD
  8
0
 62
     7
 10
67.937274000000002
 20
202.12357
 30
0.0
 40
4.9150629999999991
 50
83.686976000000001
 51
85.012714000000003
  0
ARC
  5
5DE
  8
0
 62
     7
 10
67.874036000000004
 20
201.076976
 30
0.0
 40
5.9624930000000003
 50
83.111287000000004
 51
84.188872999999987
  0
ARC
  5
5DF
  8
0
 62
     7
 10
67.312491000000009
 20
196.60337799999999
 30
0.0
 40
10.471169
 50
82.396236999999999
 51
82.996799999999993
  0
ARC
  5
5E0
  8
0
 62
     7
 10
67.711901999999995
 20
199.916023
 30
0.0
 40
7.1349279999999986
 50
81.191384999999997
 51
82.055471999999995
  0
ARC
  5
5E1
  8
0
 62
     7
 10
68.297077999999999
 20
203.52280799999991
 30
0.0
 40
3.4811699999999992
 50
79.889240999999998
 51
81.618516
  0
ARC
  5
5E2
  8
0
 62
     7
 10
68.207004999999995
 20
202.83158299999991
 30
0.0
 40
4.1776010000000001
 50
78.932315000000003
 51
80.337333999999998
  0
ARC
  5
5E3
  8
0
 62
     7
 10
67.949838
 20
201.38277199999999
 30
0.0
 40
5.648892
 50
78.186704000000006
 51
79.193413000000007
  0
ARC
  5
5E4
  8
0
 62
     7
 10
67.074010999999999
 20
197.57831200000001
 30
0.0
 40
9.5523980000000002
 50
77.137304
 51
77.716352999999984
  0
ARC
  5
5E5
  8
0
 62
     7
 10
68.495806999999999
 20
203.810305
 30
0.0
 40
3.1602739999999998
 50
75.430581000000004
 51
77.115208999999993
  0
ARC
  5
5E6
  8
0
 62
     7
 10
68.118763000000001
 20
202.380775
 30
0.0
 40
4.6386849999999988
 50
74.260357999999997
 51
75.364908
  0
ARC
  5
5E7
  8
0
 62
     7
 10
67.189126000000002
 20
199.3863659999999
 30
0.0
 40
7.7734339999999991
 50
73.01479599999999
 51
73.652280000000005
  0
ARC
  5
5E8
  8
0
 62
     7
 10
68.816838000000004
 20
204.71527699999999
 30
0.0
 40
2.2014740000000002
 50
70.874033999999995
 51
73.014926000000003
  0
ARC
  5
5E9
  8
0
 62
     7
 10
68.613581999999994
 20
204.1568429999999
 30
0.0
 40
2.7956929999999991
 50
69.086598999999993
 51
70.688209000000001
  0
ARC
  5
5EA
  8
0
 62
     7
 10
68.795093999999992
 20
204.61965399999991
 30
0.0
 40
2.2985849999999992
 50
67.350746000000001
 51
69.195047000000002
  0
ARC
  5
5EB
  8
0
 62
     7
 10
68.909425999999996
 20
204.9231639999999
 30
0.0
 40
1.9744859999999991
 50
64.968974000000003
 51
67.021004000000005
  0
ARC
  5
5EC
  8
0
 62
     7
 10
69.105513000000002
 20
205.33183600000001
 30
0.0
 40
1.521237999999999
 50
62.655524999999997
 51
65.148145999999997
  0
ARC
  5
5ED
  8
0
 62
     7
 10
69.171145999999993
 20
205.49132800000001
 30
0.0
 40
1.3495019999999991
 50
59.40381099999999
 51
62.020265000000002
  0
ARC
  5
5EE
  8
0
 62
     7
 10
69.307559999999995
 20
205.7186669999999
 30
0.0
 40
1.0843830000000001
 50
56.423012000000007
 51
59.494207000000003
  0
ARC
  5
5EF
  8
0
 62
     7
 10
69.309689000000006
 20
205.74653599999999
 30
0.0
 40
1.0600750000000001
 50
52.770809000000007
 51
55.685757999999993
  0
ARC
  5
5F0
  8
0
 62
     7
 10
69.657505
 20
206.197678
 30
0.0
 40
0.4904510000000001
 50
47.404400999999993
 51
53.237631
  0
ARC
  5
5F1
  8
0
 62
     7
 10
69.632757999999995
 20
206.16741400000001
 30
0.0
 40
0.5294840000000001
 50
42.652685999999989
 51
47.649656
  0
ARC
  5
5F2
  8
0
 62
     7
 10
69.670172999999991
 20
206.20726999999991
 30
0.0
 40
0.474978
 50
37.022185999999998
 51
42.174619999999997
  0
ARC
  5
5F3
  8
0
 62
     7
 10
69.841727000000006
 20
206.33516900000001
 30
0.0
 40
0.261001
 50
28.578116999999999
 51
37.281585
  0
ARC
  5
5F4
  8
0
 62
     7
 10
69.792642999999998
 20
206.30517499999999
 30
0.0
 40
0.318465
 50
22.380164000000001
 51
29.092732000000002
  0
ARC
  5
5F5
  8
0
 62
     7
 10
69.848113999999995
 20
206.33548899999991
 30
0.0
 40
0.2557239999999999
 50
12.999743999999991
 51
20.831772999999998
  0
ARC
  5
5F6
  8
0
 62
     7
 10
69.843665999999999
 20
206.34087500000001
 30
0.0
 40
0.258922
 50
4.0698759999999989
 51
11.616963999999999
  0
ARC
  5
5F7
  8
0
 62
     7
 10
69.928498000000005
 20
206.34917799999999
 30
0.0
 40
0.17373
 50
352.04843899999997
 51
3.3241160000000001
  0
ARC
  5
5F8
  8
0
 62
     7
 10
69.923259999999999
 20
206.34488499999989
 30
0.0
 40
0.178393
 50
342.605502
 51
353.64680199999998
  0
ARC
  5
5F9
  8
0
 62
     7
 10
69.911612000000005
 20
206.33962700000001
 30
0.0
 40
0.188129
 50
334.27350000000001
 51
345.19511
  0
ARC
  5
5FA
  8
0
 62
     7
 10
69.865837999999997
 20
206.35793499999991
 30
0.0
 40
0.237336
 50
325.80423300000001
 51
335.08840600000002
  0
ARC
  5
5FB
  8
0
 62
     7
 10
69.725122999999996
 20
206.4430109999999
 30
0.0
 40
0.401634
 50
321.25495100000001
 51
327.04784899999999
  0
ARC
  5
5FC
  8
0
 62
     7
 10
69.766639999999995
 20
206.40913499999999
 30
0.0
 40
0.348052
 50
314.03559799999988
 51
321.32704000000001
  0
ARC
  5
5FD
  8
0
 62
     7
 10
69.623925999999997
 20
206.54290199999991
 30
0.0
 40
0.543504
 50
309.99678799999992
 51
315.04942399999999
  0
ARC
  5
5FE
  8
0
 62
     7
 10
69.303481999999988
 20
206.940259
 30
0.0
 40
1.0539229999999991
 50
306.66255999999998
 51
309.45782800000001
  0
ARC
  5
5FF
  8
0
 62
     7
 10
69.468132999999995
 20
206.7307459999999
 30
0.0
 40
0.7875760000000001
 50
302.11189999999999
 51
306.15500900000001
  0
ARC
  5
600
  8
0
 62
     7
 10
69.312531000000007
 20
206.97793799999991
 30
0.0
 40
1.0796639999999991
 50
298.94834400000002
 51
302.132879
  0
ARC
  5
601
  8
0
 62
     7
 10
69.422107999999994
 20
206.7434659999999
 30
0.0
 40
0.8216389999999998
 50
295.71484900000002
 51
300.17597499999999
  0
ARC
  5
602
  8
0
 62
     7
 10
68.955044999999998
 20
207.66893200000001
 30
0.0
 40
1.858206
 50
294.217647
 51
296.30856399999999
  0
ARC
  5
603
  8
0
 62
     7
 10
68.855470999999994
 20
207.89575600000001
 30
0.0
 40
2.1059149999999991
 50
292.20419600000002
 51
294.15688499999987
  0
ARC
  5
604
  8
0
 62
     7
 10
68.56395400000001
 20
208.68169700000001
 30
0.0
 40
2.9438639999999991
 50
290.19392799999991
 51
291.67644899999999
  0
ARC
  5
605
  8
0
 62
     7
 10
68.166038999999998
 20
209.889545
 30
0.0
 40
4.2150489999999987
 50
288.51270299999987
 51
289.60272200000003
  0
ARC
  5
606
  8
0
 62
     7
 10
68.825364000000008
 20
207.906893
 30
0.0
 40
2.1256529999999989
 50
286.37476800000002
 51
288.62899800000002
  0
ARC
  5
607
  8
0
 62
     7
 10
68.177475000000001
 20
210.0947799999999
 30
0.0
 40
4.407449999999999
 50
285.29879399999987
 51
286.43720200000001
  0
ARC
  5
608
  8
0
 62
     7
 10
68.461193000000009
 20
209.04094199999989
 30
0.0
 40
3.3161
 50
283.80313699999988
 51
285.37471799999997
  0
ARC
  5
609
  8
0
 62
     7
 10
68.253562000000002
 20
209.85507199999989
 30
0.0
 40
4.156263
 50
282.59986299999991
 51
283.90506899999991
  0
ARC
  5
60A
  8
0
 62
     7
 10
67.116206000000005
 20
215.194185
 30
0.0
 40
9.6150549999999981
 50
281.69040299999989
 51
282.27383199999991
  0
ARC
  5
60B
  8
0
 62
     7
 10
68.37401899999999
 20
209.0676499999999
 30
0.0
 40
3.360755999999999
 50
280.14670899999999
 51
281.85501799999997
  0
ARC
  5
60C
  8
0
 62
     7
 10
68.290336999999994
 20
209.35255000000001
 30
0.0
 40
3.656083999999999
 50
279.02358099999992
 51
280.65105599999993
  0
ARC
  5
60D
  8
0
 62
     7
 10
67.946793
 20
211.34321199999999
 30
0.0
 40
5.6760559999999991
 50
278.22368499999988
 51
279.29688900000002
  0
ARC
  5
60E
  8
0
 62
     7
 10
68.139500999999996
 20
209.739047
 30
0.0
 40
4.061005999999999
 50
277.23374100000001
 51
278.77012500000001
  0
ARC
  5
60F
  8
0
 62
     7
 10
66.99346899999999
 20
218.81072900000001
 30
0.0
 40
13.20478999999999
 50
276.730029
 51
277.21043500000002
  0
ARC
  5
610
  8
0
 62
     7
 10
67.647086000000002
 20
213.68875199999999
 30
0.0
 40
8.0416570000000007
 50
275.58099800000002
 51
276.38188300000002
  0
ARC
  5
611
  8
0
 62
     7
 10
67.427995999999993
 20
216.14146899999989
 30
0.0
 40
10.504075
 50
274.84190899999999
 51
275.46927799999992
  0
ARC
  5
612
  8
0
 62
     7
 10
67.875013999999993
 20
210.6747279999999
 30
0.0
 40
5.0191369999999997
 50
273.707221
 51
275.02461499999993
  0
ARC
  5
613
  8
0
 62
     7
 10
67.643765999999999
 20
213.53542400000001
 30
0.0
 40
7.8889319999999996
 50
273.18617
 51
274.03984700000001
  0
ARC
  5
614
  8
0
 62
     7
 10
67.641385999999983
 20
213.81985
 30
0.0
 40
8.1730610000000006
 50
272.26511699999992
 51
273.09200499999992
  0
ARC
  5
615
  8
0
 62
     7
 10
67.695747999999995
 20
211.4438649999999
 30
0.0
 40
5.7969200000000001
 50
271.47573399999987
 51
272.65638799999999
  0
ARC
  5
616
  8
0
 62
     7
 10
67.538523999999995
 20
218.81997499999991
 30
0.0
 40
13.174673
 50
270.813154
 51
271.33314300000001
  0
ARC
  5
617
  8
0
 62
     7
 10
67.630207999999996
 20
211.79553100000001
 30
0.0
 40
6.1496399999999989
 50
269.77077000000003
 51
270.88781399999988
  0
ARC
  5
618
  8
0
 62
     7
 10
67.669118000000012
 20
220.8695779999999
 30
0.0
 40
15.224078
 50
269.11459899999988
 51
269.56453900000002
  0
ARC
  5
619
  8
0
 62
     7
 10
67.498564000000002
 20
209.97746799999999
 30
0.0
 40
4.3306329999999988
 50
267.55935799999997
 51
269.14397300000002
  0
ARC
  5
61A
  8
0
 62
     7
 10
67.528945999999991
 20
212.63643099999999
 30
0.0
 40
6.9889700000000001
 50
267.26647500000001
 51
268.23879899999997
  0
ARC
  5
61B
  8
0
 62
     7
 10
67.565167000000002
 20
213.5526899999999
 30
0.0
 40
7.9059169999999988
 50
266.46830699999992
 51
267.32095800000002
  0
ARC
  5
61C
  8
0
 62
     7
 10
67.361090000000004
 20
210.79946699999999
 30
0.0
 40
5.1454649999999988
 50
265.54644500000001
 51
266.84789499999988
  0
ARC
  5
61D
  8
0
 62
     7
 10
68.743756999999974
 20
228.05340200000001
 30
0.0
 40
22.45470199999999
 50
265.15264499999989
 51
265.44768399999998
  0
ARC
  5
61E
  8
0
 62
     7
 10
71.132407999999984
 20
249.7145999999999
 30
0.0
 40
44.243684999999992
 50
264.29304300000001
 51
264.44076100000001
  0
ARC
  5
61F
  8
0
 62
     7
 10
67.589145000000002
 20
213.753829
 30
0.0
 40
8.1089649999999995
 50
263.14782100000002
 51
263.9378769999999
  0
ARC
  5
620
  8
0
 62
     7
 10
67.741889999999984
 20
214.95865000000001
 30
0.0
 40
9.3234080000000006
 50
262.4269579999999
 51
263.09922
  0
ARC
  5
621
  8
0
 62
     7
 10
68.146297000000004
 20
217.253356
 30
0.0
 40
11.651811
 50
261.41032599999988
 51
261.94279399999999
  0
ARC
  5
622
  8
0
 62
     7
 10
67.262787000000003
 20
211.30262099999999
 30
0.0
 40
5.635885
 50
260.19128499999999
 51
261.25594000000001
  0
ARC
  5
623
  8
0
 62
     7
 10
67.083204000000009
 20
210.301265
 30
0.0
 40
4.6185780000000003
 50
258.999413
 51
260.27027599999991
  0
ARC
  5
624
  8
0
 62
     7
 10
67.221043000000009
 20
211.069613
 30
0.0
 40
5.3991230000000003
 50
258.06578300000001
 51
259.11942499999998
  0
ARC
  5
625
  8
0
 62
     7
 10
67.163038999999984
 20
210.7765389999999
 30
0.0
 40
5.1003899999999991
 50
256.94218499999988
 51
258.02248500000002
  0
ARC
  5
626
  8
0
 62
     7
 10
66.832216000000003
 20
209.3125389999999
 30
0.0
 40
3.5995110000000001
 50
255.32654700000001
 51
256.80690399999997
  0
ARC
  5
627
  8
0
 62
     7
 10
66.586513999999994
 20
208.47699299999991
 30
0.0
 40
2.7291009999999991
 50
253.9817359999999
 51
255.87317300000001
  0
ARC
  5
628
  8
0
 62
     7
 10
66.678376
 20
208.842375
 30
0.0
 40
3.1056710000000001
 50
252.63123599999989
 51
254.21289100000001
  0
ARC
  5
629
  8
0
 62
     7
 10
66.679636000000002
 20
208.83900499999999
 30
0.0
 40
3.1028319999999989
 50
251.07053599999989
 51
252.59045399999991
  0
ARC
  5
62A
  8
0
 62
     7
 10
66.740234000000001
 20
208.95116299999989
 30
0.0
 40
3.22865
 50
249.313219
 51
250.69899599999991
  0
ARC
  5
62B
  8
0
 62
     7
 10
66.152899000000005
 20
207.40845100000001
 30
0.0
 40
1.5779279999999991
 50
246.77323199999989
 51
249.4762399999999
  0
ARC
  5
62C
  8
0
 62
     7
 10
66.049766000000005
 20
207.21885700000001
 30
0.0
 40
1.363175
 50
244.66070999999999
 51
247.614024
  0
ARC
  5
62D
  8
0
 62
     7
 10
66.197078000000005
 20
207.55375599999991
 30
0.0
 40
1.728929999999999
 50
242.8052799999999
 51
244.99843000000001
  0
ARC
  5
62E
  8
0
 62
     7
 10
66.049781999999993
 20
207.21834199999989
 30
0.0
 40
1.3634580000000001
 50
239.27594799999989
 51
241.86916600000001
  0
ARC
  5
62F
  8
0
 62
     7
 10
65.762512999999998
 20
206.7588549999999
 30
0.0
 40
0.821789
 50
236.079522
 51
240.12608499999999
  0
ARC
  5
630
  8
0
 62
     7
 10
66.006107
 20
207.097669
 30
0.0
 40
1.238945999999999
 50
232.98128600000001
 51
235.47532100000001
  0
ARC
  5
631
  8
0
 62
     7
 10
65.730257999999992
 20
206.71418199999991
 30
0.0
 40
0.7667470000000001
 50
228.455893
 51
232.18617800000001
  0
ARC
  5
632
  8
0
 62
     7
 10
65.596851000000001
 20
206.552435
 30
0.0
 40
0.5572620000000002
 50
222.90729400000001
 51
227.69268600000001
  0
ARC
  5
633
  8
0
 62
     7
 10
65.536265999999998
 20
206.48582399999989
 30
0.0
 40
0.467598
 50
216.79249300000001
 51
221.98313099999999
  0
ARC
  5
634
  8
0
 62
     7
 10
65.389634000000001
 20
206.37878399999991
 30
0.0
 40
0.286073
 50
209.2072729999999
 51
217.21341799999999
  0
ARC
  5
635
  8
0
 62
     7
 10
65.417045999999999
 20
206.39107000000001
 30
0.0
 40
0.316005
 50
202.01674499999999
 51
208.72641299999989
  0
ARC
  5
636
  8
0
 62
     7
 10
65.349479999999986
 20
206.35886599999989
 30
0.0
 40
0.241337
 50
192.563782
 51
200.9419879999999
  0
ARC
  5
637
  8
0
 62
     7
 10
65.271793000000002
 20
206.34531799999991
 30
0.0
 40
0.162605
 50
181.8279719999999
 51
193.85890800000001
  0
ARC
  5
638
  8
0
 62
     7
 10
65.344184999999996
 20
206.347452
 30
0.0
 40
0.235028
 50
173.54037099999991
 51
181.7850169999999
  0
ARC
  5
639
  8
0
 62
     7
 10
65.302154999999999
 20
206.35333700000001
 30
0.0
 40
0.192606
 50
163.6192649999999
 51
173.873288
  0
ARC
  5
63A
  8
0
 62
     7
 10
65.447726000000003
 20
206.300782
 30
0.0
 40
0.347216
 50
156.16868099999991
 51
162.07325
  0
ARC
  5
63B
  8
0
 62
     7
 10
65.336765
 20
206.346948
 30
0.0
 40
0.227077
 50
145.8286929999999
 51
155.5118699999999
  0
ARC
  5
63C
  8
0
 62
     7
 10
65.524040999999997
 20
206.23176100000001
 30
0.0
 40
0.446828
 50
141.88473999999991
 51
147.09635
  0
ARC
  5
63D
  8
0
 62
     7
 10
65.594954000000001
 20
206.15489600000001
 30
0.0
 40
0.550319
 50
135.5478159999999
 51
140.145388
  0
ARC
  5
63E
  8
0
 62
     7
 10
65.564976000000001
 20
206.17271700000001
 30
0.0
 40
0.516505
 50
129.28346499999989
 51
134.63002599999999
  0
ARC
  5
63F
  8
0
 62
     7
 10
65.587885
 20
206.17130399999991
 30
0.0
 40
0.5323710000000002
 50
125.563709
 51
131.095935
  0
ARC
  5
640
  8
0
 62
     7
 10
65.78094200000001
 20
205.90072499999999
 30
0.0
 40
0.8647619999999999
 50
121.83797300000001
 51
125.542135
  0
ARC
  5
641
  8
0
 62
     7
 10
65.690714999999983
 20
206.0860429999999
 30
0.0
 40
0.660068
 50
118.48369099999999
 51
123.670485
  0
ARC
  5
642
  8
0
 62
     7
 10
66.375146999999998
 20
204.8458489999999
 30
0.0
 40
2.0765759999999989
 50
117.0153039999999
 51
118.76300999999999
  0
ARC
  5
643
  8
0
 62
     7
 10
66.412480000000002
 20
204.68764799999991
 30
0.0
 40
2.2348049999999988
 50
114.269234
 51
116.02563499999999
  0
ARC
  5
644
  8
0
 62
     7
 10
66.284448999999995
 20
204.95899499999999
 30
0.0
 40
1.934822
 50
111.992295
 51
114.115672
  0
ARC
  5
645
  8
0
 62
     7
 10
66.595761999999993
 20
204.139723
 30
0.0
 40
2.8111189999999988
 50
110.063416
 51
111.62250899999999
  0
ARC
  5
646
  8
0
 62
     7
 10
66.375660999999994
 20
204.75733199999999
 30
0.0
 40
2.1554889999999989
 50
108.0769149999999
 51
110.1998779999999
  0
ARC
  5
647
  8
0
 62
     7
 10
66.519424999999998
 20
204.36852500000001
 30
0.0
 40
2.569763
 50
106.5695569999999
 51
108.4341699999999
  0
ARC
  5
648
  8
0
 62
     7
 10
67.101517999999999
 20
202.44693100000001
 30
0.0
 40
4.5775730000000001
 50
105.600613
 51
106.693755
  0
ARC
  5
649
  8
0
 62
     7
 10
67.570464000000001
 20
200.3829439999999
 30
0.0
 40
6.6924349999999997
 50
103.93453
 51
104.7153489999999
  0
ARC
  5
64A
  8
0
 62
     7
 10
66.792529999999999
 20
203.57146499999999
 30
0.0
 40
3.4104339999999991
 50
102.55820899999991
 51
104.14953300000001
  0
ARC
  5
64B
  8
0
 62
     7
 10
66.696830000000006
 20
204.07825399999999
 30
0.0
 40
2.8950109999999998
 50
100.9599169999999
 51
102.890338
  0
ARC
  5
64C
  8
0
 62
     7
 10
66.842516000000003
 20
203.58067600000001
 30
0.0
 40
3.4115549999999999
 50
100.079048
 51
101.77328
  0
ARC
  5
64D
  8
0
 62
     7
 10
67.196561000000003
 20
201.82487599999999
 30
0.0
 40
5.2023820000000001
 50
99.393637000000012
 51
100.53394899999989
  0
ARC
  5
64E
  8
0
 62
     7
 10
69.045574999999999
 20
189.97820400000001
 30
0.0
 40
17.192330999999999
 50
98.674792000000011
 51
99.029193999999976
  0
ARC
  5
64F
  8
0
 62
     7
 10
67.314223999999996
 20
201.049823
 30
0.0
 40
5.9863799999999996
 50
97.237818999999973
 51
98.276101000000011
  0
ARC
  5
650
  8
0
 62
     7
 10
67.065512999999996
 20
203.34665200000001
 30
0.0
 40
3.6767650000000001
 50
96.171313999999995
 51
97.902369000000007
  0
ARC
  5
651
  8
0
 62
     7
 10
67.442188000000002
 20
200.273155
 30
0.0
 40
6.7730869999999994
 50
95.593209000000016
 51
96.544252999999983
  0
ARC
  5
652
  8
0
 62
     7
 10
67.449202
 20
200.25967199999999
 30
0.0
 40
6.7871920000000001
 50
94.670102000000014
 51
95.641044999999991
  0
ARC
  5
653
  8
0
 62
     7
 10
67.430751999999984
 20
200.76949500000001
 30
0.0
 40
6.277603
 50
93.824703999999997
 51
94.88112799999999
  0
ARC
  5
654
  8
0
 62
     7
 10
67.484690000000001
 20
200.3405129999999
 30
0.0
 40
6.7092739999999997
 50
93.039174000000017
 51
94.039923999999985
  0
ARC
  5
655
  8
0
 62
     7
 10
67.627965000000003
 20
198.16745599999999
 30
0.0
 40
8.8869150000000001
 50
92.456005000000005
 51
93.218795999999983
  0
ARC
  5
656
  8
0
 62
     7
 10
67.888285999999994
 20
189.57389900000001
 30
0.0
 40
17.484068000000001
 50
91.711243000000024
 51
92.101519999999994
  0
LINE
  5
657
  8
0
 62
     7
 10
67.366200000000006
 20
207.05000000000001
 30
0.0
 11
67.485699999999994
 21
207.053
 31
0.0
  0
LINE
  5
658
  8
0
 62
     7
 10
67.485699999999994
 20
207.053
 30
0.0
 11
67.605599999999995
 21
207.053
 31
0.0
  0
LINE
  5
659
  8
0
 62
     7
 10
67.605599999999995
 20
205.636
 30
0.0
 11
67.730500000000006
 21
205.637
 31
0.0
  0
LINE
  5
65A
  8
0
 62
     7
 10
67.730500000000006
 20
205.637
 30
0.0
 11
67.855199999999996
 21
205.6389999999999
 31
0.0
  0
ARC
  5
65B
  8
0
 62
     7
 10
66.990794999999991
 20
232.44071
 30
0.0
 40
26.81559699999999
 50
271.84727199999998
 51
272.11353300000002
  0
ARC
  5
65C
  8
0
 62
     7
 10
67.571900999999997
 20
215.251193
 30
0.0
 40
9.6164899999999989
 50
272.43069199999991
 51
273.16641499999992
  0
ARC
  5
65D
  8
0
 62
     7
 10
67.708798000000002
 20
212.70529599999989
 30
0.0
 40
7.0669190000000004
 50
273.19833999999992
 51
274.19479200000001
  0
ARC
  5
65E
  8
0
 62
     7
 10
67.597183000000001
 20
214.6467649999999
 30
0.0
 40
9.0114039999999989
 50
273.99961200000001
 51
274.77292299999999
  0
ARC
  5
65F
  8
0
 62
     7
 10
67.747508999999994
 20
212.84340899999989
 30
0.0
 40
7.2017929999999986
 50
274.77488599999992
 51
275.73273799999993
  0
ARC
  5
660
  8
0
 62
     7
 10
67.598708000000002
 20
214.26661799999999
 30
0.0
 40
8.6327490000000004
 50
275.77186499999999
 51
276.55956499999991
  0
ARC
  5
661
  8
0
 62
     7
 10
67.859814999999998
 20
211.98116599999989
 30
0.0
 40
6.3324309999999988
 50
276.57479099999989
 51
277.63340799999997
  0
ARC
  5
662
  8
0
 62
     7
 10
67.75602099999999
 20
212.85658299999989
 30
0.0
 40
7.2138899999999992
 50
277.52689500000002
 51
278.44285500000001
  0
ARC
  5
663
  8
0
 62
     7
 10
68.102523000000005
 20
210.4942299999999
 30
0.0
 40
4.8262650000000002
 50
278.49152900000001
 51
279.82759700000003
  0
ARC
  5
664
  8
0
 62
     7
 10
68.151832999999996
 20
210.41570499999989
 30
0.0
 40
4.7406069999999989
 50
279.40235300000001
 51
280.74721699999998
  0
ARC
  5
665
  8
0
 62
     7
 10
68.312221999999991
 20
209.690337
 30
0.0
 40
3.998116
 50
280.42747500000002
 51
281.97768300000001
  0
ARC
  5
666
  8
0
 62
     7
 10
68.38776
 20
209.46667799999989
 30
0.0
 40
3.763749999999999
 50
281.55939799999999
 51
283.17555599999997
  0
ARC
  5
667
  8
0
 62
     7
 10
68.391656999999995
 20
209.52657400000001
 30
0.0
 40
3.8212209999999991
 50
282.91394100000002
 51
284.463796
  0
ARC
  5
668
  8
0
 62
     7
 10
68.467786000000004
 20
209.27230299999999
 30
0.0
 40
3.5560089999999991
 50
284.29934500000002
 51
285.91792500000003
  0
ARC
  5
669
  8
0
 62
     7
 10
68.749684999999999
 20
208.34135699999999
 30
0.0
 40
2.5834939999999991
 50
285.56819799999988
 51
287.75355400000001
  0
ARC
  5
66A
  8
0
 62
     7
 10
68.910732999999993
 20
207.92739899999989
 30
0.0
 40
2.1403150000000002
 50
287.02664700000003
 51
289.58164199999999
  0
ARC
  5
66B
  8
0
 62
     7
 10
68.957643000000004
 20
207.87968000000001
 30
0.0
 40
2.079825
 50
288.80464899999998
 51
291.361469
  0
ARC
  5
66C
  8
0
 62
     7
 10
69.007374999999996
 20
207.786835
 30
0.0
 40
1.9752829999999999
 50
290.999008
 51
293.61860200000001
  0
ARC
  5
66D
  8
0
 62
     7
 10
68.966013000000004
 20
207.89622099999991
 30
0.0
 40
2.0920860000000001
 50
293.45625000000001
 51
295.87553799999989
  0
ARC
  5
66E
  8
0
 62
     7
 10
68.924893999999995
 20
207.9225459999999
 30
0.0
 40
2.1338689999999989
 50
296.56045499999999
 51
298.84875899999992
  0
ARC
  5
66F
  8
0
 62
     7
 10
69.304902999999996
 20
207.218763
 30
0.0
 40
1.334090999999999
 50
299.13763899999998
 51
302.70844299999987
  0
ARC
  5
670
  8
0
 62
     7
 10
69.511892000000003
 20
206.90868299999991
 30
0.0
 40
0.961353
 50
302.31443300000001
 51
307.060204
  0
ARC
  5
671
  8
0
 62
     7
 10
69.683219999999992
 20
206.7066449999999
 30
0.0
 40
0.697036
 50
305.83032999999989
 51
311.94533999999987
  0
ARC
  5
672
  8
0
 62
     7
 10
69.522524000000004
 20
206.88672
 30
0.0
 40
0.9383860000000001
 50
311.89381200000003
 51
316.06013799999999
  0
ARC
  5
673
  8
0
 62
     7
 10
69.744140999999999
 20
206.672439
 30
0.0
 40
0.6301160000000001
 50
316.1071
 51
321.76010200000002
  0
ARC
  5
674
  8
0
 62
     7
 10
69.744161000000005
 20
206.67845600000001
 30
0.0
 40
0.6338420000000001
 50
321.33179599999988
 51
326.459926
  0
ARC
  5
675
  8
0
 62
     7
 10
69.609581999999989
 20
206.7388
 30
0.0
 40
0.7797260000000001
 50
328.22825599999999
 51
332.095888
  0
ARC
  5
676
  8
0
 62
     7
 10
69.926232999999996
 20
206.573857
 30
0.0
 40
0.422707
 50
331.76708400000001
 51
338.48789900000003
  0
ARC
  5
677
  8
0
 62
     7
 10
69.914692000000002
 20
206.59003799999991
 30
0.0
 40
0.4395100000000001
 50
337.07707699999997
 51
343.30962799999998
  0
ARC
  5
678
  8
0
 62
     7
 10
69.799515
 20
206.617437
 30
0.0
 40
0.557746
 50
344.01167199999998
 51
348.74695600000001
  0
ARC
  5
679
  8
0
 62
     7
 10
69.875965000000008
 20
206.6018939999999
 30
0.0
 40
0.479733
 50
348.785843
 51
354.21704099999999
  0
ARC
  5
67A
  8
0
 62
     7
 10
69.870167000000009
 20
206.59829499999989
 30
0.0
 40
0.485156
 50
354.70890900000001
 51
0.046289
  0
ARC
  5
67B
  8
0
 62
     7
 10
65.225340000000003
 20
206.5986419999999
 30
0.0
 40
0.370146
 50
179.992964
 51
186.99631299999999
  0
ARC
  5
67C
  8
0
 62
     7
 10
65.248439000000005
 20
206.58892399999991
 30
0.0
 40
0.392088
 50
185.17533099999989
 51
191.82182399999991
  0
ARC
  5
67D
  8
0
 62
     7
 10
65.293295000000001
 20
206.58732099999989
 30
0.0
 40
0.4357970000000001
 50
190.40722600000001
 51
196.53483499999999
  0
ARC
  5
67E
  8
0
 62
     7
 10
65.411523000000003
 20
206.6281459999999
 30
0.0
 40
0.5607810000000001
 50
197.09570400000001
 51
201.990172
  0
ARC
  5
67F
  8
0
 62
     7
 10
65.279785000000004
 20
206.57276599999989
 30
0.0
 40
0.417895
 50
201.713008
 51
208.60562999999999
  0
ARC
  5
680
  8
0
 62
     7
 10
65.481134999999995
 20
206.677897
 30
0.0
 40
0.645015
 50
208.241119
 51
212.9896379999999
  0
ARC
  5
681
  8
0
 62
     7
 10
65.368921999999998
 20
206.601922
 30
0.0
 40
0.5095340000000002
 50
212.69418099999999
 51
219.10595000000001
  0
ARC
  5
682
  8
0
 62
     7
 10
65.464329000000006
 20
206.66556299999999
 30
0.0
 40
0.6238030000000001
 50
218.114474
 51
223.90373099999999
  0
ARC
  5
683
  8
0
 62
     7
 10
65.687710999999993
 20
206.88993799999989
 30
0.0
 40
0.9403679999999999
 50
224.31557699999991
 51
228.51829399999991
  0
ARC
  5
684
  8
0
 62
     7
 10
65.664148999999995
 20
206.8758279999999
 30
0.0
 40
0.914229
 50
229.03883500000001
 51
233.76426599999999
  0
ARC
  5
685
  8
0
 62
     7
 10
65.689123999999993
 20
206.8933679999999
 30
0.0
 40
0.9431889999999999
 50
233.17035100000001
 51
238.00431900000001
  0
ARC
  5
686
  8
0
 62
     7
 10
65.928666000000007
 20
207.2601829999999
 30
0.0
 40
1.381230999999999
 50
237.63953599999991
 51
241.11914599999989
  0
ARC
  5
687
  8
0
 62
     7
 10
66.399838000000003
 20
208.15467699999999
 30
0.0
 40
2.3921239999999999
 50
241.5852779999999
 51
243.63000899999989
  0
ARC
  5
688
  8
0
 62
     7
 10
66.157085999999993
 20
207.69415000000001
 30
0.0
 40
1.87174
 50
244.02620399999989
 51
246.735141
  0
ARC
  5
689
  8
0
 62
     7
 10
66.561881
 20
208.6576969999999
 30
0.0
 40
2.9168389999999991
 50
246.90608899999989
 51
248.6787119999999
  0
ARC
  5
68A
  8
0
 62
     7
 10
66.538298999999995
 20
208.66680099999991
 30
0.0
 40
2.9168560000000001
 50
249.1752689999999
 51
251.00350299999999
  0
ARC
  5
68B
  8
0
 62
     7
 10
66.634005999999999
 20
208.905441
 30
0.0
 40
3.1736779999999989
 50
250.77214599999999
 51
252.4892419999999
  0
ARC
  5
68C
  8
0
 62
     7
 10
67.017105000000001
 20
210.25853900000001
 30
0.0
 40
4.5795339999999989
 50
253.011977
 51
254.242932
  0
ARC
  5
68D
  8
0
 62
     7
 10
67.019493000000011
 20
210.27353099999999
 30
0.0
 40
4.5946109999999996
 50
254.265041
 51
255.51772899999989
  0
ARC
  5
68E
  8
0
 62
     7
 10
67.38967199999999
 20
211.93014599999989
 30
0.0
 40
6.2914099999999991
 50
256.02655399999992
 51
256.96713499999993
  0
ARC
  5
68F
  8
0
 62
     7
 10
67.867510999999993
 20
214.1755169999999
 30
0.0
 40
8.5867960000000014
 50
257.239529
 51
257.94565599999999
  0
ARC
  5
690
  8
0
 62
     7
 10
67.396274000000005
 20
212.22785399999989
 30
0.0
 40
6.5838890000000001
 50
258.41643699999997
 51
259.35750400000001
  0
ARC
  5
691
  8
0
 62
     7
 10
67.391284999999996
 20
212.2156609999999
 30
0.0
 40
6.5709850000000003
 50
259.38062899999989
 51
260.34494899999999
  0
ARC
  5
692
  8
0
 62
     7
 10
70.381782999999999
 20
231.08646999999999
 30
0.0
 40
25.676964999999999
 50
260.82872900000001
 51
261.08055000000002
  0
ARC
  5
693
  8
0
 62
     7
 10
69.418441000000001
 20
226.9219259999999
 30
0.0
 40
21.415606
 50
261.899247
 51
262.20589799999988
  0
ARC
  5
694
  8
0
 62
     7
 10
68.19437099999999
 20
219.049295
 30
0.0
 40
13.450485999999991
 50
262.82410599999997
 51
263.32304199999987
  0
ARC
  5
695
  8
0
 62
     7
 10
67.292063999999996
 20
211.22505699999999
 30
0.0
 40
5.574419999999999
 50
263.183785
 51
264.39485799999989
  0
ARC
  5
696
  8
0
 62
     7
 10
67.620145999999991
 20
214.48532899999989
 30
0.0
 40
8.8511509999999998
 50
264.34258299999988
 51
265.11972200000002
  0
ARC
  5
697
  8
0
 62
     7
 10
67.663696000000002
 20
215.24331699999999
 30
0.0
 40
9.6101189999999992
 50
265.24548299999998
 51
265.96959199999992
  0
ARC
  5
698
  8
0
 62
     7
 10
67.632424
 20
215.02563699999999
 30
0.0
 40
9.3907939999999996
 50
266.06657000000001
 51
266.8110549999999
  0
ARC
  5
699
  8
0
 62
     7
 10
67.632998000000001
 20
215.0833979999999
 30
0.0
 40
9.4484979999999972
 50
266.82706400000001
 51
267.57586900000001
  0
ARC
  5
69A
  8
0
 62
     7
 10
68.224700999999996
 20
232.26710800000001
 30
0.0
 40
26.642202000000001
 50
267.86756999999989
 51
268.13297299999988
  0
LINE
  5
69B
  8
0
 62
     7
 10
67.356700000000004
 20
205.6389999999999
 30
0.0
 11
67.480900000000005
 21
205.637
 31
0.0
  0
LINE
  5
69C
  8
0
 62
     7
 10
67.480900000000005
 20
205.637
 30
0.0
 11
67.605599999999995
 21
205.636
 31
0.0
  0
LINE
  5
69D
  8
0
 62
     7
 10
64.855199999999996
 20
206.59899999999999
 30
0.0
 11
64.855900000000005
 21
206.589
 31
0.0
  0
LINE
  5
69E
  8
0
 62
     7
 10
67.553399999999996
 20
205.6459999999999
 30
0.0
 11
67.605599999999995
 21
205.6459999999999
 31
0.0
  0
LINE
  5
69F
  8
0
 62
     7
 10
67.657799999999995
 20
207.053
 30
0.0
 11
67.605599999999995
 21
207.053
 31
0.0
  0
ARC
  5
6A0
  8
0
 62
     7
 10
67.612746000000001
 20
203.76262700000001
 30
0.0
 40
3.6113909999999998
 50
89.200500000000005
 51
90.113310999999996
  0
LINE
  5
6A1
  8
0
 62
     7
 10
70.3553
 20
236.667
 30
0.0
 11
70.3553
 21
206.59899999999999
 31
0.0
  0
LINE
  5
6A2
  8
0
 62
     7
 10
64.855199999999996
 20
236.66800000000001
 30
0.0
 11
64.855199999999996
 21
206.59899999999999
 31
0.0
  0
ARC
  5
6A3
  8
0
 62
     7
 10
68.066501000000002
 20
221.75536700000001
 30
0.0
 40
0.120367
 50
271.99632700000001
 51
358.00368300000002
  0
ARC
  5
6A4
  8
0
 62
     7
 10
67.14461
 20
221.755629
 30
0.0
 40
0.120625
 50
182.11643699999999
 51
268.053358
  0
ARC
  5
6A5
  8
0
 62
     7
 10
71.894408999999996
 20
248.21460099999999
 30
0.0
 40
0.12081
 50
57.180647
 51
142.96739700000001
  0
ARC
  5
6A6
  8
0
 62
     7
 10
72.649249999999995
 20
247.68615700000001
 30
0.0
 40
0.120677
 50
327.07246099999992
 51
52.957404999999987
  0
ARC
  5
6A7
  8
0
 62
     7
 10
68.090142
 20
233.16637999999989
 30
0.0
 40
0.096721
 50
2.1536200000000001
 51
87.846369999999993
  0
ARC
  5
6A8
  8
0
 62
     7
 10
67.120638999999997
 20
233.166449
 30
0.0
 40
0.096638
 50
91.903097999999986
 51
177.88505799999999
  0
ARC
  5
6A9
  8
0
 62
     7
 10
67.437993000000006
 20
241.39262999999991
 30
0.0
 40
7.043143999999999
 50
295.02961800000003
 51
359.13551799999988
  0
ARC
  5
6AA
  8
0
 62
     7
 10
67.503816
 20
241.23924400000001
 30
0.0
 40
6.9766779999999988
 50
0.3869989999999999
 51
49.750545000000002
  0
ARC
  5
6AB
  8
0
 62
     7
 10
67.606504999999999
 20
241.2800269999999
 30
0.0
 40
6.8812439999999997
 50
59.882566000000011
 51
90.004630999999989
  0
ARC
  5
6AC
  8
0
 62
     7
 10
67.605518000000004
 20
241.28593499999999
 30
0.0
 40
6.875335999999999
 50
89.996410999999995
 51
179.99638100000001
  0
ARC
  5
6AD
  8
0
 62
     7
 10
67.771279000000007
 20
241.391999
 30
0.0
 40
7.0418880000000001
 50
180.85951900000001
 51
244.97682
  0
ARC
  5
6AE
  8
0
 62
     7
 10
67.605516000000009
 20
241.28628199999989
 30
0.0
 40
5.1000659999999991
 50
270.00098700000001
 51
0.000958
  0
ARC
  5
6AF
  8
0
 62
     7
 10
67.605602000000005
 20
241.28636599999999
 30
0.0
 40
5.0999800000000004
 50
0.00001
 51
89.999980000000008
  0
ARC
  5
6B0
  8
0
 62
     7
 10
67.605604
 20
241.28636599999999
 30
0.0
 40
5.0999800000000004
 50
90.0
 51
179.99996999999991
  0
ARC
  5
6B1
  8
0
 62
     7
 10
67.605688000000001
 20
241.28627999999989
 30
0.0
 40
5.100064999999999
 50
179.99900299999999
 51
269.99905200000001
  0
LINE
  5
6B2
  8
0
 62
     7
 10
67.140500000000003
 20
221.63499999999991
 30
0.0
 11
68.070700000000002
 21
221.63499999999991
 31
0.0
  0
LINE
  5
6B3
  8
0
 62
     7
 10
67.024100000000004
 20
221.75099999999989
 30
0.0
 11
68.186800000000005
 21
221.75099999999989
 31
0.0
  0
LINE
  5
6B4
  8
0
 62
     7
 10
68.186800000000005
 20
221.75099999999989
 30
0.0
 11
68.186800000000005
 21
233.16999999999999
 31
0.0
  0
LINE
  5
6B5
  8
0
 62
     7
 10
67.954599999999999
 20
235.92400000000001
 30
0.0
 11
67.954599999999999
 21
233.26299999999989
 31
0.0
  0
LINE
  5
6B6
  8
0
 62
     7
 10
67.256600000000006
 20
235.92400000000001
 30
0.0
 11
67.256600000000006
 21
233.26299999999989
 31
0.0
  0
LINE
  5
6B7
  8
0
 62
     7
 10
67.024100000000004
 20
221.75099999999989
 30
0.0
 11
67.024100000000004
 21
233.16999999999999
 31
0.0
  0
LINE
  5
6B8
  8
0
 62
     7
 10
68.186800000000005
 20
233.16999999999999
 30
0.0
 11
67.024100000000004
 21
233.16999999999999
 31
0.0
  0
LINE
  5
6B9
  8
0
 62
     7
 10
68.093800000000002
 20
233.26299999999989
 30
0.0
 11
67.117400000000004
 21
233.26299999999989
 31
0.0
  0
LINE
  5
6BA
  8
0
 62
     7
 10
71.146699999999996
 20
245.33000000000001
 30
0.0
 11
72.750500000000002
 21
247.62100000000001
 31
0.0
  0
LINE
  5
6BB
  8
0
 62
     7
 10
70.194599999999994
 20
245.99799999999991
 30
0.0
 11
71.798000000000002
 21
248.28700000000001
 31
0.0
  0
LINE
  5
6BC
  8
0
 62
     7
 10
72.750500000000002
 20
247.62100000000001
 30
0.0
 11
71.798000000000002
 21
248.28700000000001
 31
0.0
  0
LINE
  5
6BD
  8
0
 62
     7
 10
72.721900000000005
 20
247.78200000000001
 30
0.0
 11
71.959900000000005
 21
248.31599999999989
 31
0.0
  0
LINE
  5
6BE
  8
0
  6
AIGENLINE001
 62
     7
 10
56.354900000000001
 20
241.28599999999989
 30
0.0
 11
78.854900000000001
 21
241.28599999999989
 31
0.0
  0
LINE
  5
6BF
  8
0
  6
AIGENLINE001
 62
     7
 10
67.6053
 20
250.76300000000001
 30
0.0
 11
67.6053
 21
202.559
 31
0.0
  0
LINE
  5
6C0
  8
0
 62
     7
 10
140.93700000000001
 20
172.208
 30
0.0
 11
140.93700000000001
 21
172.2059999999999
 31
0.0
  0
LINE
  5
6C1
  8
0
 62
     7
 10
140.93700000000001
 20
172.2059999999999
 30
0.0
 11
140.93999999999991
 21
172.19900000000001
 31
0.0
  0
ARC
  5
6C2
  8
0
 62
     7
 10
141.292416
 20
172.342127
 30
0.0
 40
0.38015
 50
202.058029
 51
203.9194399999999
  0
LINE
  5
6C3
  8
0
 62
     7
 10
140.94499999999991
 20
172.1879999999999
 30
0.0
 11
140.952
 21
172.17199999999991
 31
0.0
  0
ARC
  5
6C4
  8
0
 62
     7
 10
141.24191499999989
 20
172.28671099999991
 30
0.0
 40
0.311912
 50
201.5490889999999
 51
205.65917499999989
  0
ARC
  5
6C5
  8
0
 62
     7
 10
145.8187519999999
 20
174.092972
 30
0.0
 40
5.2315199999999988
 50
201.78238699999989
 51
202.085418
  0
LINE
  5
6C6
  8
0
 62
     7
 10
140.971
 20
172.12599999999989
 30
0.0
 11
140.98400000000001
 21
172.095
 31
0.0
  0
LINE
  5
6C7
  8
0
 62
     7
 10
140.98400000000001
 20
172.095
 30
0.0
 11
140.999
 21
172.059
 31
0.0
  0
ARC
  5
6C8
  8
0
 62
     7
 10
140.19040699999999
 20
171.694411
 30
0.0
 40
0.886879
 50
21.445423999999999
 51
24.308313999999999
  0
ARC
  5
6C9
  8
0
 62
     7
 10
133.34748400000001
 20
168.86681699999991
 30
0.0
 40
8.2908699999999982
 50
22.002884999999999
 51
22.34353599999999
  0
ARC
  5
6CA
  8
0
 62
     7
 10
120.4036149999999
 20
163.63545699999989
 30
0.0
 40
22.251918
 50
21.862639000000001
 51
22.005126000000001
  0
ARC
  5
6CB
  8
0
 62
     7
 10
129.0059259999999
 20
167.08351200000001
 30
0.0
 40
12.984296000000001
 50
21.606259999999999
 51
21.877126000000001
  0
LINE
  5
6CC
  8
0
 62
     7
 10
141.078
 20
171.86500000000001
 30
0.0
 11
141.102
 21
171.80199999999999
 31
0.0
  0
LINE
  5
6CD
  8
0
 62
     7
 10
141.102
 20
171.80199999999999
 30
0.0
 11
141.1279999999999
 21
171.733
 31
0.0
  0
ARC
  5
6CE
  8
0
 62
     7
 10
136.960925
 20
170.12304099999989
 30
0.0
 40
4.4675979999999997
 50
20.099084999999999
 51
21.128167999999999
  0
LINE
  5
6CF
  8
0
 62
     7
 10
141.15600000000001
 20
171.6579999999999
 30
0.0
 11
141.18700000000001
 21
171.577
 31
0.0
  0
ARC
  5
6D0
  8
0
 62
     7
 10
134.68351799999999
 20
169.252543
 30
0.0
 40
6.9060619999999986
 50
18.904178999999999
 51
19.665761
  0
ARC
  5
6D1
  8
0
 62
     7
 10
137.79130599999999
 20
170.247366
 30
0.0
 40
3.6441870000000001
 50
18.420544
 51
19.937467999999999
  0
ARC
  5
6D2
  8
0
 62
     7
 10
111.96497100000001
 20
161.428247
 30
0.0
 40
30.934687
 50
18.611854999999991
 51
18.802842999999989
  0
ARC
  5
6D3
  8
0
 62
     7
 10
246.42910599999999
 20
204.72374499999989
 30
0.0
 40
110.331369
 50
197.63360299999991
 51
197.690212
  0
ARC
  5
6D4
  8
0
 62
     7
 10
135.99468100000001
 20
169.482653
 30
0.0
 40
5.5897360000000003
 50
16.699010999999992
 51
17.863982
  0
ARC
  5
6D5
  8
0
 62
     7
 10
96.206772000000015
 20
157.875134
 30
0.0
 40
47.036090999999999
 50
16.171495
 51
16.315522000000001
  0
ARC
  5
6D6
  8
0
 62
     7
 10
137.5471389999999
 20
169.8398379999999
 30
0.0
 40
3.9991989999999991
 50
14.73416499999999
 51
16.494634000000001
  0
ARC
  5
6D7
  8
0
 62
     7
 10
119.4570759999999
 20
165.17817700000001
 30
0.0
 40
22.680204
 50
14.18412
 51
14.500329000000001
  0
ARC
  5
6D8
  8
0
 62
     7
 10
135.29635200000001
 20
169.18525399999999
 30
0.0
 40
6.3419270000000001
 50
13.010954999999999
 51
14.150887000000001
  0
ARC
  5
6D9
  8
0
 62
     7
 10
136.16020499999991
 20
169.357381
 30
0.0
 40
5.4615660000000004
 50
11.969581
 51
13.29187099999999
  0
ARC
  5
6DA
  8
0
 62
     7
 10
137.48357799999991
 20
169.61542700000001
 30
0.0
 40
4.1135080000000004
 50
10.528663
 51
12.276323
  0
ARC
  5
6DB
  8
0
 62
     7
 10
127.1025539999999
 20
167.72813199999999
 30
0.0
 40
14.664671
 50
9.8768139999999995
 51
10.366996
  0
ARC
  5
6DC
  8
0
 62
     7
 10
131.12293999999989
 20
168.49780100000001
 30
0.0
 40
10.572072999999991
 50
8.8248990000000003
 51
9.504804
  0
LINE
  5
6DD
  8
0
 62
     7
 10
141.56999999999999
 20
170.12
 30
0.0
 11
141.58699999999999
 21
169.995
 31
0.0
  0
ARC
  5
6DE
  8
0
 62
     7
 10
124.4532949999999
 20
168.0334039999999
 30
0.0
 40
17.245694
 50
6.114908999999999
 51
6.5306319999999989
  0
ARC
  5
6DF
  8
0
 62
     7
 10
136.497873
 20
169.34713300000001
 30
0.0
 40
5.1297559999999987
 50
4.4895839999999989
 51
5.8554299999999992
  0
ARC
  5
6E0
  8
0
 62
     7
 10
131.58882600000001
 20
169.0506969999999
 30
0.0
 40
10.04733699999999
 50
3.3033619999999999
 51
3.9835119999999988
  0
ARC
  5
6E1
  8
0
 62
     7
 10
135.52570499999999
 20
169.32472300000001
 30
0.0
 40
6.101388
 50
1.7362649999999991
 51
2.8646519999999991
  0
ARC
  5
6E2
  8
0
 62
     7
 10
138.432705
 20
169.39469199999991
 30
0.0
 40
3.1936539999999991
 50
359.97221500000001
 51
2.061741
  0
ARC
  5
6E3
  8
0
 62
     7
 10
132.64842999999991
 20
169.39138399999999
 30
0.0
 40
8.9779289999999996
 50
359.29005699999988
 51
0.011223
  0
ARC
  5
6E4
  8
0
 62
     7
 10
138.19431299999999
 20
169.348276
 30
0.0
 40
3.4320330000000001
 50
356.96606000000003
 51
358.86249600000002
  0
ARC
  5
6E5
  8
0
 62
     7
 10
138.67472900000001
 20
169.2733429999999
 30
0.0
 40
2.9487389999999989
 50
355.743604
 51
357.92598399999991
  0
ARC
  5
6E6
  8
0
 62
     7
 10
133.1739639999999
 20
169.691868
 30
0.0
 40
8.4654000000000007
 50
354.94033400000001
 51
355.68198100000001
  0
ARC
  5
6E7
  8
0
 62
     7
 10
137.48557600000001
 20
169.34238199999999
 30
0.0
 40
4.1398910000000004
 50
353.00628299999988
 51
354.49564399999991
  0
ARC
  5
6E8
  8
0
 62
     7
 10
137.64064999999991
 20
169.29878500000001
 30
0.0
 40
3.980737
 50
351.81966999999997
 51
353.35734599999989
  0
ARC
  5
6E9
  8
0
 62
     7
 10
139.071731
 20
169.08083400000001
 30
0.0
 40
2.5332340000000002
 50
349.72596800000002
 51
352.09348099999988
  0
ARC
  5
6EA
  8
0
 62
     7
 10
137.844942
 20
169.23464199999989
 30
0.0
 40
3.7683889999999991
 50
349.187817
 51
350.75175899999999
  0
ARC
  5
6EB
  8
0
 62
     7
 10
139.13873899999999
 20
168.97756999999999
 30
0.0
 40
2.4493559999999999
 50
347.04623299999997
 51
349.41719199999989
  0
ARC
  5
6EC
  8
0
 62
     7
 10
138.16645800000001
 20
169.134131
 30
0.0
 40
3.4326120000000002
 50
346.46334599999989
 51
348.13748799999991
  0
ARC
  5
6ED
  8
0
 62
     7
 10
139.25072900000001
 20
168.8563639999999
 30
0.0
 40
2.313502999999999
 50
344.39083499999998
 51
346.86600199999992
  0
ARC
  5
6EE
  8
0
 62
     7
 10
138.155742
 20
169.09605400000001
 30
0.0
 40
3.4331930000000002
 50
343.80660199999988
 51
345.45534800000001
  0
ARC
  5
6EF
  8
0
 62
     7
 10
135.25866499999989
 20
169.91981799999991
 30
0.0
 40
6.4450839999999987
 50
343.0925279999999
 51
343.95645599999989
  0
ARC
  5
6F0
  8
0
 62
     7
 10
125.0879129999999
 20
173.18364600000001
 30
0.0
 40
17.126214000000001
 50
342.221248
 51
342.54110600000001
  0
ARC
  5
6F1
  8
0
 62
     7
 10
138.338099
 20
168.95621299999991
 30
0.0
 40
3.2180719999999998
 50
340.199344
 51
341.85984400000001
  0
ARC
  5
6F2
  8
0
 62
     7
 10
138.68918099999999
 20
168.773808
 30
0.0
 40
2.8264490000000002
 50
339.43955599999993
 51
341.26752599999992
  0
ARC
  5
6F3
  8
0
 62
     7
 10
135.18213499999999
 20
170.11269699999991
 30
0.0
 40
6.5803520000000004
 50
338.48305399999992
 51
339.248471
  0
ARC
  5
6F4
  8
0
 62
     7
 10
135.2046729999999
 20
170.08220399999999
 30
0.0
 40
6.5482319999999987
 50
337.90940899999993
 51
338.65893699999998
  0
LINE
  5
6F5
  8
0
 62
     7
 10
141.27199999999999
 20
167.62
 30
0.0
 11
141.24100000000001
 21
167.54400000000001
 31
0.0
  0
ARC
  5
6F6
  8
0
 62
     7
 10
143.55608000000001
 20
166.481875
 30
0.0
 40
2.5476079999999999
 50
155.35661899999991
 51
157.12598499999999
  0
ARC
  5
6F7
  8
0
 62
     7
 10
107.176237
 20
182.93957499999991
 30
0.0
 40
37.382581999999999
 50
335.44412699999992
 51
335.55872999999991
  0
ARC
  5
6F8
  8
0
 62
     7
 10
139.580319
 20
168.1185999999999
 30
0.0
 40
1.7499899999999999
 50
333.57662099999999
 51
335.90283399999998
  0
ARC
  5
6F9
  8
0
 62
     7
 10
139.67652100000001
 20
168.002667
 30
0.0
 40
1.6134019999999989
 50
333.40689199999991
 51
335.743807
  0
ARC
  5
6FA
  8
0
 62
     7
 10
138.80050999999989
 20
168.40903700000001
 30
0.0
 40
2.5788109999999991
 50
332.68022300000001
 51
334.0460819999999
  0
ARC
  5
6FB
  8
0
 62
     7
 10
139.51760699999991
 20
167.99448699999999
 30
0.0
 40
1.7518779999999989
 50
332.12285700000001
 51
333.96218599999992
  0
ARC
  5
6FC
  8
0
 62
     7
 10
139.48144600000001
 20
167.96295699999999
 30
0.0
 40
1.7696659999999991
 50
331.91653200000002
 51
333.57281699999987
  0
LINE
  5
6FD
  8
0
 62
     7
 10
141.04300000000001
 20
167.13
 30
0.0
 11
141.02099999999999
 21
167.089
 31
0.0
  0
ARC
  5
6FE
  8
0
 62
     7
 10
141.56236399999989
 20
166.77581000000001
 30
0.0
 40
0.6250250000000001
 50
149.94133099999999
 51
153.68624099999991
  0
ARC
  5
6FF
  8
0
 62
     7
 10
141.4858999999999
 20
166.7694139999999
 30
0.0
 40
0.5607220000000001
 50
149.63351099999991
 51
153.3202179999999
  0
ARC
  5
700
  8
0
 62
     7
 10
139.64568299999999
 20
167.763845
 30
0.0
 40
1.531337999999999
 50
329.84022199999998
 51
330.98899599999999
  0
ARC
  5
701
  8
0
 62
     7
 10
140.72850600000001
 20
167.110646
 30
0.0
 40
0.267729
 50
329.00505600000002
 51
334.28502700000001
  0
LINE
  5
702
  8
0
 62
     7
 10
140.958
 20
166.9729999999999
 30
0.0
 11
140.94799999999989
 21
166.9559999999999
 31
0.0
  0
ARC
  5
703
  8
0
 62
     7
 10
140.82470599999991
 20
167.01855699999999
 30
0.0
 40
0.138625
 50
327.38392099999987
 51
333.12632300000001
  0
ARC
  5
704
  8
0
 62
     7
 10
141.11474699999991
 20
166.85494
 30
0.0
 40
0.19475
 50
152.84064599999999
 51
155.15262899999991
  0
LINE
  5
705
  8
0
 62
     7
 10
140.9379999999999
 20
166.93700000000001
 30
0.0
 11
140.93700000000001
 21
166.934
 31
0.0
  0
LINE
  5
706
  8
0
 62
     7
 10
112.8429999999999
 20
174.8659999999999
 30
0.0
 11
112.8449999999999
 21
174.86699999999999
 31
0.0
  0
LINE
  5
707
  8
0
 62
     7
 10
112.8449999999999
 20
174.86699999999999
 30
0.0
 11
112.851
 21
174.87
 31
0.0
  0
LINE
  5
708
  8
0
 62
     7
 10
112.851
 20
174.87
 30
0.0
 11
112.86
 21
174.875
 31
0.0
  0
ARC
  5
709
  8
0
 62
     7
 10
112.830732
 20
174.95508000000001
 30
0.0
 40
0.085359
 50
290.28067099999993
 51
300.5347799999999
  0
LINE
  5
70A
  8
0
 62
     7
 10
112.874
 20
174.88200000000001
 30
0.0
 11
112.892
 21
174.89099999999991
 31
0.0
  0
LINE
  5
70B
  8
0
 62
     7
 10
112.892
 20
174.89099999999991
 30
0.0
 11
112.914
 21
174.90199999999999
 31
0.0
  0
ARC
  5
70C
  8
0
 62
     7
 10
113.3005399999999
 20
174.170592
 30
0.0
 40
0.8271459999999999
 50
115.849193
 51
117.882408
  0
ARC
  5
70D
  8
0
 62
     7
 10
115.511651
 20
170.0821949999999
 30
0.0
 40
5.4744570000000001
 50
117.656617
 51
118.0195199999999
  0
ARC
  5
70E
  8
0
 62
     7
 10
110.847956
 20
179.1780029999999
 30
0.0
 40
4.7477429999999989
 50
296.55631599999998
 51
297.02672899999988
  0
ARC
  5
70F
  8
0
 62
     7
 10
104.071791
 20
191.9701629999999
 30
0.0
 40
19.22335799999999
 50
297.692407
 51
297.82468799999998
  0
ARC
  5
710
  8
0
 62
     7
 10
98.374380999999985
 20
204.365467
 30
0.0
 40
32.853377999999999
 50
296.52173099999987
 51
296.608385
  0
ARC
  5
711
  8
0
 62
     7
 10
114.0685899999999
 20
173.1206949999999
 30
0.0
 40
2.1118359999999998
 50
116.13536999999999
 51
117.633984
  0
LINE
  5
712
  8
0
 62
     7
 10
113.13799999999991
 20
175.01699999999991
 30
0.0
 11
113.1939999999999
 21
175.0449999999999
 31
0.0
  0
ARC
  5
713
  8
0
 62
     7
 10
115.3577199999999
 20
170.7686459999999
 30
0.0
 40
4.7925449999999987
 50
116.031459
 51
116.836395
  0
ARC
  5
714
  8
0
 62
     7
 10
121.617445
 20
158.51808399999999
 30
0.0
 40
18.549161999999988
 50
116.56994399999989
 51
116.798616
  0
LINE
  5
715
  8
0
 62
     7
 10
113.321
 20
175.10799999999989
 30
0.0
 11
113.3929999999999
 21
175.14400000000001
 31
0.0
  0
ARC
  5
716
  8
0
 62
     7
 10
128.487539
 20
144.5180169999999
 30
0.0
 40
34.144007000000002
 50
116.08957099999991
 51
116.2370719999999
  0
ARC
  5
717
  8
0
 62
     7
 10
119.380782
 20
163.07804699999991
 30
0.0
 40
13.470181999999999
 50
115.61690399999991
 51
116.0189909999999
  0
ARC
  5
718
  8
0
 62
     7
 10
118.559811
 20
164.98498499999999
 30
0.0
 40
11.396048999999991
 50
115.52853
 51
116.04021399999991
  0
LINE
  5
719
  8
0
 62
     7
 10
113.649
 20
175.26799999999989
 30
0.0
 11
113.7489999999999
 21
175.31599999999989
 31
0.0
  0
ARC
  5
71A
  8
0
 62
     7
 10
118.53604300000001
 20
165.17593299999999
 30
0.0
 40
11.213309000000001
 50
114.65307199999999
 51
115.272482
  0
ARC
  5
71B
  8
0
 62
     7
 10
118.58301999999991
 20
165.04388499999999
 30
0.0
 40
11.352922
 50
113.966854
 51
114.590568
  0
ARC
  5
71C
  8
0
 62
     7
 10
118.475268
 20
165.38522
 30
0.0
 40
10.997320999999999
 50
113.501209
 51
114.1762469999999
  0
ARC
  5
71D
  8
0
 62
     7
 10
117.598859
 20
167.40383799999989
 30
0.0
 40
8.796660000000001
 50
112.62158100000001
 51
113.509349
  0
ARC
  5
71E
  8
0
 62
     7
 10
120.0431809999999
 20
161.33145200000001
 30
0.0
 40
15.342266
 50
111.783554
 51
112.32493599999999
  0
ARC
  5
71F
  8
0
 62
     7
 10
133.04644599999989
 20
126.2251039999999
 30
0.0
 40
52.775892000000013
 50
110.600257
 51
110.74856799999991
  0
ARC
  5
720
  8
0
 62
     7
 10
116.749234
 20
169.3139229999999
 30
0.0
 40
6.7088190000000001
 50
108.727216
 51
109.7931419999999
  0
ARC
  5
721
  8
0
 62
     7
 10
116.172709
 20
170.87335300000001
 30
0.0
 40
5.047051999999999
 50
106.82229699999991
 51
108.2126379999999
  0
ARC
  5
722
  8
0
 62
     7
 10
116.071753
 20
170.9522979999999
 30
0.0
 40
4.9428190000000001
 50
104.66676699999999
 51
105.96693
  0
ARC
  5
723
  8
0
 62
     7
 10
115.5251169999999
 20
172.937928
 30
0.0
 40
2.8836020000000002
 50
102.082263
 51
104.148791
  0
ARC
  5
724
  8
0
 62
     7
 10
115.3735649999999
 20
173.59785400000001
 30
0.0
 40
2.2065950000000001
 50
99.499678000000003
 51
101.82099599999989
  0
ARC
  5
725
  8
0
 62
     7
 10
115.35839900000001
 20
173.48635699999991
 30
0.0
 40
2.3143009999999991
 50
96.659828000000005
 51
98.673759000000004
  0
ARC
  5
726
  8
0
 62
     7
 10
115.236822
 20
174.53080299999991
 30
0.0
 40
1.2628029999999999
 50
93.240142000000006
 51
96.676739000000026
  0
LINE
  5
727
  8
0
 62
     7
 10
115.16500000000001
 20
175.792
 30
0.0
 11
115.2329999999999
 21
175.79400000000001
 31
0.0
  0
LINE
  5
728
  8
0
 62
     7
 10
115.2329999999999
 20
175.79400000000001
 30
0.0
 11
115.29599999999991
 21
175.79299999999989
 31
0.0
  0
ARC
  5
729
  8
0
 62
     7
 10
115.2641899999999
 20
175.03293400000001
 30
0.0
 40
0.760339
 50
83.119881000000007
 51
87.626958999999999
  0
ARC
  5
72A
  8
0
 62
     7
 10
115.278446
 20
174.916043
 30
0.0
 40
0.8751329999999999
 50
81.213981000000004
 51
84.963546999999991
  0
ARC
  5
72B
  8
0
 62
     7
 10
115.2745449999999
 20
174.94803999999991
 30
0.0
 40
0.844152
 50
76.900819999999996
 51
80.620593999999997
  0
ARC
  5
72C
  8
0
 62
     7
 10
115.2294709999999
 20
174.7007669999999
 30
0.0
 40
1.0952749999999991
 50
74.751338000000004
 51
77.535942000000006
  0
ARC
  5
72D
  8
0
 62
     7
 10
115.10028200000001
 20
174.3094899999999
 30
0.0
 40
1.5069099999999991
 50
71.896710999999996
 51
73.925021000000001
  0
ARC
  5
72E
  8
0
 62
     7
 10
115.23814399999991
 20
174.77636799999999
 30
0.0
 40
1.0204029999999999
 50
68.032403000000002
 51
71.108544999999992
  0
ARC
  5
72F
  8
0
 62
     7
 10
115.22218699999991
 20
174.75487499999991
 30
0.0
 40
1.0463260000000001
 50
64.629818999999983
 51
67.662355000000005
  0
ARC
  5
730
  8
0
 62
     7
 10
115.24175700000001
 20
174.784142
 30
0.0
 40
1.0115089999999991
 50
61.643608
 51
64.921106000000009
  0
ARC
  5
731
  8
0
 62
     7
 10
115.195577
 20
174.694706
 30
0.0
 40
1.1121490000000001
 50
58.649357000000002
 51
61.738352999999996
  0
ARC
  5
732
  8
0
 62
     7
 10
114.3129279999999
 20
173.27894399999991
 30
0.0
 40
2.7804809999999991
 50
56.975399000000003
 51
58.294978999999998
  0
ARC
  5
733
  8
0
 62
     7
 10
132.61543099999989
 20
199.16546099999999
 30
0.0
 40
28.92504799999999
 50
234.52365499999999
 51
234.66264100000001
  0
ARC
  5
734
  8
0
 62
     7
 10
109.035743
 20
167.04893899999999
 30
0.0
 40
10.932505000000001
 50
50.813867999999999
 51
51.204132999999999
  0
ARC
  5
735
  8
0
 62
     7
 10
114.776619
 20
174.09526199999999
 30
0.0
 40
1.8435939999999991
 50
48.217159000000002
 51
50.738590000000009
  0
ARC
  5
736
  8
0
 62
     7
 10
114.756013
 20
174.08261200000001
 30
0.0
 40
1.8667699999999989
 50
45.165421999999992
 51
48.004277000000002
  0
ARC
  5
737
  8
0
 62
     7
 10
114.78106
 20
174.056724
 30
0.0
 40
1.867815999999999
 50
43.176151000000011
 51
46.270260999999998
  0
ARC
  5
738
  8
0
 62
     7
 10
112.8563289999999
 20
172.25810799999999
 30
0.0
 40
4.5021269999999989
 50
41.703885
 51
43.108212999999992
  0
ARC
  5
739
  8
0
 62
     7
 10
110.1012429999999
 20
169.89867599999991
 30
0.0
 40
8.129054
 50
40.435580999999999
 51
41.200831999999991
  0
ARC
  5
73A
  8
0
 62
     7
 10
114.903875
 20
173.97717800000001
 30
0.0
 40
1.8283430000000001
 50
37.199548
 51
40.769603999999987
  0
ARC
  5
73B
  8
0
 62
     7
 10
113.4368379999999
 20
172.69692499999991
 30
0.0
 40
3.7732600000000001
 50
37.350456999999999
 51
39.216589999999997
  0
ARC
  5
73C
  8
0
 62
     7
 10
107.067207
 20
167.79980499999999
 30
0.0
 40
11.80779199999999
 50
36.863671999999987
 51
37.488899000000004
  0
ARC
  5
73D
  8
0
 62
     7
 10
113.0985889999999
 20
172.328337
 30
0.0
 40
4.2655709999999987
 50
35.160577000000004
 51
36.798977000000001
  0
ARC
  5
73E
  8
0
 62
     7
 10
110.681433
 20
170.528739
 30
0.0
 40
7.2784619999999993
 50
34.860619999999997
 51
35.784669000000001
  0
ARC
  5
73F
  8
0
 62
     7
 10
90.627036000000004
 20
156.46812700000001
 30
0.0
 40
31.770876000000001
 50
34.789932
 51
34.995206000000003
  0
ARC
  5
740
  8
0
 62
     7
 10
122.093073
 20
178.176332
 30
0.0
 40
6.4578480000000003
 50
213.674598
 51
214.675838
  0
ARC
  5
741
  8
0
 62
     7
 10
99.983627000000013
 20
163.2374889999999
 30
0.0
 40
20.225932
 50
33.535238
 51
33.844889000000002
  0
ARC
  5
742
  8
0
 62
     7
 10
113.98710699999999
 20
172.43501199999989
 30
0.0
 40
3.4729129999999988
 50
33.021416999999992
 51
34.68456299999999
  0
ARC
  5
743
  8
0
 62
     7
 10
111.586823
 20
170.79005499999991
 30
0.0
 40
6.3822929999999989
 50
32.802796999999991
 51
33.660616999999988
  0
ARC
  5
744
  8
0
 62
     7
 10
136.17375699999999
 20
186.57294899999991
 30
0.0
 40
22.83444699999999
 50
212.66782599999999
 51
212.894542
  0
ARC
  5
745
  8
0
 62
     7
 10
114.379462
 20
172.446271
 30
0.0
 40
3.1378270000000001
 50
31.816838000000001
 51
33.358631000000003
  0
ARC
  5
746
  8
0
 62
     7
 10
113.388935
 20
171.712354
 30
0.0
 40
4.3676190000000004
 50
32.125115000000001
 51
33.147496999999987
  0
ARC
  5
747
  8
0
 62
     7
 10
114.05644599999999
 20
172.04684
 30
0.0
 40
3.6251500000000001
 50
32.129190999999999
 51
33.258240999999998
  0
ARC
  5
748
  8
0
 62
     7
 10
114.751898
 20
172.432705
 30
0.0
 40
2.8313189999999988
 50
31.685064000000001
 51
33.001269999999991
  0
LINE
  5
749
  8
0
 62
     7
 10
117.161
 20
173.9199999999999
 30
0.0
 11
117.1929999999999
 21
173.87
 31
0.0
  0
ARC
  5
74A
  8
0
 62
     7
 10
118.408849
 20
174.599594
 30
0.0
 40
1.4180039999999989
 50
210.962085
 51
213.0884749999999
  0
ARC
  5
74B
  8
0
 62
     7
 10
113.1388709999999
 20
171.29956699999991
 30
0.0
 40
4.8002399999999996
 50
31.18987199999999
 51
31.749134999999999
  0
ARC
  5
74C
  8
0
 62
     7
 10
115.84937600000001
 20
172.87125299999991
 30
0.0
 40
1.668634999999999
 50
31.792113000000001
 51
33.222929000000001
  0
ARC
  5
74D
  8
0
 62
     7
 10
118.015086
 20
174.19408799999999
 30
0.0
 40
0.869223
 50
210.69676999999999
 51
213.145015
  0
ARC
  5
74E
  8
0
 62
     7
 10
114.7414329999999
 20
172.12091000000001
 30
0.0
 40
3.005789
 50
31.504142000000002
 51
32.114629999999998
  0
ARC
  5
74F
  8
0
 62
     7
 10
117.63216
 20
173.8812749999999
 30
0.0
 40
0.378872
 50
210.0389889999999
 51
213.97181
  0
ARC
  5
750
  8
0
 62
     7
 10
117.4652479999999
 20
173.75143499999999
 30
0.0
 40
0.168515
 50
209.066136
 51
216.23550099999991
  0
ARC
  5
751
  8
0
 62
     7
 10
117.1196679999999
 20
173.52353400000001
 30
0.0
 40
0.245794
 50
27.721793000000002
 51
31.462792999999991
  0
ARC
  5
752
  8
0
 62
     7
 10
117.18363600000001
 20
173.52631099999999
 30
0.0
 40
0.189849
 50
32.282796000000012
 51
35.989075999999997
  0
ARC
  5
753
  8
0
 62
     7
 10
117.3684919999999
 20
173.63858200000001
 30
0.0
 40
0.02667
 50
204.05983299999991
 51
218.37700499999991
  0
LINE
  5
754
  8
0
 62
     7
 10
117.348
 20
173.62200000000001
 30
0.0
 11
117.3489999999999
 21
173.62
 31
0.0
  0
ARC
  5
755
  8
0
 62
     7
 10
112.1257139999999
 20
180.04925700000001
 30
0.0
 40
0.241666
 50
76.621522999999996
 51
162.41425599999991
  0
ARC
  5
756
  8
0
 62
     7
 10
110.90996
 20
175.650634
 30
0.0
 40
0.241765
 50
166.641279
 51
252.521435
  0
LINE
  5
757
  8
0
 62
     7
 10
110.6749999999999
 20
175.7059999999999
 30
0.0
 11
111.8949999999999
 21
180.12200000000001
 31
0.0
  0
LINE
  5
758
  8
0
 62
     7
 10
110.837
 20
175.4199999999999
 30
0.0
 11
112.182
 21
180.28399999999999
 31
0.0
  0
LINE
  5
759
  8
0
 62
     7
 10
112.80499999999989
 20
174.68299999999991
 30
0.0
 11
112.857
 21
174.87299999999991
 31
0.0
  0
LINE
  5
75A
  8
0
 62
     7
 10
117.2879999999999
 20
173.44399999999999
 30
0.0
 11
117.34099999999999
 21
173.63399999999999
 31
0.0
  0
LINE
  5
75B
  8
0
 62
     7
 10
117.2879999999999
 20
173.44399999999999
 30
0.0
 11
112.80499999999989
 21
174.68299999999991
 31
0.0
  0
LINE
  5
75C
  8
0
 62
     7
 10
112.8429999999999
 20
174.8659999999999
 30
0.0
 11
110.837
 21
175.4199999999999
 31
0.0
  0
LINE
  5
75D
  8
0
 62
     7
 10
140.941
 20
166.94399999999999
 30
0.0
 11
117.3489999999999
 21
173.62
 31
0.0
  0
LINE
  5
75E
  8
0
 62
     7
 10
140.93700000000001
 20
172.2229999999999
 30
0.0
 11
112.182
 21
180.28399999999999
 31
0.0
  0
ARC
  5
75F
  8
0
 62
     7
 10
147.8061999999999
 20
123.07340600000001
 30
0.0
 40
0.259265
 50
271.98234300000001
 51
357.85960999999998
  0
ARC
  5
760
  8
0
 62
     7
 10
147.82478399999999
 20
123.074056
 30
0.0
 40
0.259938
 50
182.2782499999999
 51
267.8798369999999
  0
ARC
  5
761
  8
0
 62
     7
 10
147.82482300000001
 20
123.0540679999999
 30
0.0
 40
0.25995
 50
92.128518000000014
 51
177.87145200000001
  0
ARC
  5
762
  8
0
 62
     7
 10
147.80550299999999
 20
123.054058
 30
0.0
 40
0.25996
 50
2.1307099999999992
 51
87.869280000000003
  0
LINE
  5
763
  8
0
 62
     7
 10
148.43999999999991
 20
124.81399999999999
 30
0.0
 11
148.43999999999991
 21
122.31399999999989
 31
0.0
  0
LINE
  5
764
  8
0
 62
     7
 10
148.43999999999991
 20
122.31399999999989
 30
0.0
 11
147.18999999999991
 21
122.31399999999989
 31
0.0
  0
LINE
  5
765
  8
0
 62
     7
 10
147.18999999999991
 20
122.31399999999989
 30
0.0
 11
147.18999999999991
 21
124.81399999999999
 31
0.0
  0
LINE
  5
766
  8
0
 62
     7
 10
147.18999999999991
 20
124.81399999999999
 30
0.0
 11
146.815
 21
124.81399999999999
 31
0.0
  0
LINE
  5
767
  8
0
 62
     7
 10
146.815
 20
124.81399999999999
 30
0.0
 11
146.815
 21
126.31399999999989
 31
0.0
  0
LINE
  5
768
  8
0
 62
     7
 10
146.815
 20
126.31399999999989
 30
0.0
 11
148.815
 21
126.31399999999989
 31
0.0
  0
LINE
  5
769
  8
0
 62
     7
 10
148.815
 20
126.31399999999989
 30
0.0
 11
148.815
 21
124.81399999999999
 31
0.0
  0
LINE
  5
76A
  8
0
 62
     7
 10
148.815
 20
124.81399999999999
 30
0.0
 11
148.43999999999991
 21
124.81399999999999
 31
0.0
  0
LINE
  5
76B
  8
0
 62
     7
 10
148.815
 20
126.31399999999989
 30
0.0
 11
146.815
 21
126.31399999999989
 31
0.0
  0
LINE
  5
76C
  8
0
 62
     7
 10
146.815
 20
126.31399999999989
 30
0.0
 11
146.815
 21
131.8129999999999
 31
0.0
  0
LINE
  5
76D
  8
0
 62
     7
 10
146.815
 20
131.8129999999999
 30
0.0
 11
148.815
 21
131.8129999999999
 31
0.0
  0
LINE
  5
76E
  8
0
 62
     7
 10
148.815
 20
131.8129999999999
 30
0.0
 11
148.815
 21
126.31399999999989
 31
0.0
  0
LINE
  5
76F
  8
0
 62
     7
 10
137.6939999999999
 20
102.24799999999991
 30
0.0
 11
137.6939999999999
 21
120.304
 31
0.0
  0
LINE
  5
770
  8
0
 62
     7
 10
135.0689999999999
 20
120.304
 30
0.0
 11
135.0689999999999
 21
102.24799999999991
 31
0.0
  0
LINE
  5
771
  8
0
  6
AIGENLINE001
 62
     7
 10
136.38200000000001
 20
124.3129999999999
 30
0.0
 11
136.38200000000001
 21
93.283800000000014
 31
0.0
  0
LINE
  5
772
  8
0
 62
     7
 10
136.38200000000001
 20
94.745500000000007
 30
0.0
 11
136.38200000000001
 21
97.370700000000014
 31
0.0
  0
LINE
  5
773
  8
0
 62
     7
 10
134.006
 20
94.745500000000007
 30
0.0
 11
134.006
 21
97.370700000000014
 31
0.0
  0
ARC
  5
774
  8
0
 62
     7
 10
139.7347729999999
 20
117.6421289999999
 30
0.0
 40
23.602436999999991
 50
255.952305
 51
256.94672500000001
  0
ARC
  5
775
  8
0
 62
     7
 10
135.49973099999991
 20
99.494530000000012
 30
0.0
 40
4.9673220000000002
 50
257.25637799999993
 51
263.09917899999988
  0
ARC
  5
776
  8
0
 62
     7
 10
135.21679900000001
 20
97.372818000000009
 30
0.0
 40
2.8271049999999991
 50
263.62521800000002
 51
269.79589900000002
  0
ARC
  5
777
  8
0
 62
     7
 10
135.205412
 20
97.064400000000006
 30
0.0
 40
2.518669
 50
270.02992899999992
 51
277.21034199999991
  0
ARC
  5
778
  8
0
 62
     7
 10
134.9927459999999
 20
98.865934999999993
 30
0.0
 40
4.3326769999999986
 50
277.01026699999989
 51
283.59545299999991
  0
ARC
  5
779
  8
0
 62
     7
 10
132.217523
 20
110.911435
 30
0.0
 40
16.693553000000001
 50
283.13548700000001
 51
284.44420700000001
  0
ARC
  5
77A
  8
0
 62
     7
 10
134.7679379999999
 20
92.654934999999995
 30
0.0
 40
4.9842069999999987
 50
71.110894999999999
 51
78.891000000000005
  0
ARC
  5
77B
  8
0
 62
     7
 10
135.17540199999999
 20
94.582755000000006
 30
0.0
 40
3.014135
 50
79.430560999999983
 51
89.404507999999979
  0
ARC
  5
77C
  8
0
 62
     7
 10
135.20873700000001
 20
94.692986000000005
 30
0.0
 40
2.9037419999999989
 50
90.039636000000002
 51
100.813225
  0
ARC
  5
77D
  8
0
 62
     7
 10
135.4518699999999
 20
93.243209999999991
 30
0.0
 40
4.3735150000000003
 50
100.37861700000001
 51
109.308318
  0
ARC
  5
77E
  8
0
 62
     7
 10
142.15913499999999
 20
117.809485
 30
0.0
 40
23.776588
 50
255.93655999999999
 51
256.90015199999999
  0
ARC
  5
77F
  8
0
 62
     7
 10
137.88217
 20
99.535343999999995
 30
0.0
 40
5.0086909999999998
 50
257.17297400000001
 51
263.07493999999991
  0
ARC
  5
780
  8
0
 62
     7
 10
137.5915159999999
 20
97.360971000000006
 30
0.0
 40
2.8152590000000002
 50
263.61156499999993
 51
269.78808199999992
  0
ARC
  5
781
  8
0
 62
     7
 10
137.57978799999989
 20
97.069168000000005
 30
0.0
 40
2.523436999999999
 50
270.02984600000002
 51
277.20351699999992
  0
ARC
  5
782
  8
0
 62
     7
 10
137.36780999999999
 20
98.864542000000014
 30
0.0
 40
4.3312460000000002
 50
277.00742700000001
 51
283.59563300000002
  0
ARC
  5
783
  8
0
 62
     7
 10
134.5223639999999
 20
111.2112809999999
 30
0.0
 40
17.001439000000001
 50
283.13524999999993
 51
284.42132700000002
  0
LINE
  5
784
  8
0
 62
     7
 10
138.75699999999989
 20
94.745500000000007
 30
0.0
 11
138.75699999999989
 21
97.370700000000014
 31
0.0
  0
ARC
  5
785
  8
0
 62
     7
 10
137.14189599999989
 20
92.651693000000009
 30
0.0
 40
4.9876329999999989
 50
71.110928000000001
 51
78.883884999999992
  0
ARC
  5
786
  8
0
 62
     7
 10
137.55045000000001
 20
94.580421999999984
 30
0.0
 40
3.016459999999999
 50
79.435377000000017
 51
89.417755
  0
ARC
  5
787
  8
0
 62
     7
 10
137.5831169999999
 20
94.702020999999988
 30
0.0
 40
2.8947069999999999
 50
90.039867999999984
 51
100.8301389999999
  0
ARC
  5
788
  8
0
 62
     7
 10
137.82815099999991
 20
93.243552000000008
 30
0.0
 40
4.373367
 50
100.39289599999989
 51
109.316335
  0
LINE
  5
789
  8
0
 62
     7
 10
138.75699999999989
 20
94.545699999999997
 30
0.0
 11
138.75699999999989
 21
94.745500000000007
 31
0.0
  0
LINE
  5
78A
  8
0
 62
     7
 10
138.75699999999989
 20
97.370700000000014
 30
0.0
 11
138.75699999999989
 21
97.596699999999984
 31
0.0
  0
LINE
  5
78B
  8
0
 62
     7
 10
134.006
 20
94.545699999999997
 30
0.0
 11
134.006
 21
94.745500000000007
 31
0.0
  0
LINE
  5
78C
  8
0
 62
     7
 10
134.006
 20
97.370700000000014
 30
0.0
 11
134.006
 21
97.596699999999984
 31
0.0
  0
LINE
  5
78D
  8
0
 62
     7
 10
137.63199999999989
 20
97.771000000000001
 30
0.0
 11
136.38200000000001
 21
97.771000000000001
 31
0.0
  0
LINE
  5
78E
  8
0
 62
     7
 10
136.38200000000001
 20
97.771000000000001
 30
0.0
 11
135.13200000000001
 21
97.771000000000001
 31
0.0
  0
LINE
  5
78F
  8
0
 62
     7
 10
138.75699999999989
 20
94.545699999999997
 30
0.0
 11
138.68100000000001
 21
94.496099999999984
 31
0.0
  0
LINE
  5
790
  8
0
 62
     7
 10
138.68100000000001
 20
94.496099999999984
 30
0.0
 11
134.08099999999999
 21
94.496099999999984
 31
0.0
  0
LINE
  5
791
  8
0
 62
     7
 10
134.08099999999999
 20
94.496099999999984
 30
0.0
 11
134.006
 21
94.545699999999997
 31
0.0
  0
ARC
  5
792
  8
0
 62
     7
 10
138.73808
 20
97.562984999999983
 30
0.0
 40
0.038479
 50
61.269488000000003
 51
90.14337900000001
  0
ARC
  5
793
  8
0
 62
     7
 10
138.57669599999991
 20
96.245929000000004
 30
0.0
 40
1.365095999999999
 50
83.214589000000004
 51
88.388773
  0
ARC
  5
794
  8
0
 62
     7
 10
138.03487100000001
 20
82.908372
 30
0.0
 40
14.71355799999999
 50
87.740026000000015
 51
89.360946999999996
  0
ARC
  5
795
  8
0
 62
     7
 10
137.0968959999999
 20
15.572381
 30
0.0
 40
82.056034999999994
 50
89.230439000000004
 51
89.925376
  0
ARC
  5
796
  8
0
 62
     7
 10
136.51544199999989
 20
-302.48533900000001
 30
0.0
 40
400.1142779999999
 50
89.901425000000003
 51
90.348620000000025
  0
LINE
  5
797
  8
0
 62
     7
 10
134.08099999999999
 20
97.621499999999997
 30
0.0
 11
134.006
 21
97.596699999999984
 31
0.0
  0
LINE
  5
798
  8
0
 62
     7
 10
137.93199999999999
 20
97.621499999999997
 30
0.0
 11
137.93199999999999
 21
97.746200000000002
 31
0.0
  0
LINE
  5
799
  8
0
 62
     7
 10
137.93199999999999
 20
97.746200000000002
 30
0.0
 11
134.83099999999999
 21
97.746200000000002
 31
0.0
  0
LINE
  5
79A
  8
0
 62
     7
 10
134.83099999999999
 20
97.621499999999997
 30
0.0
 11
134.83099999999999
 21
97.746200000000002
 31
0.0
  0
LINE
  5
79B
  8
0
 62
     7
 10
135.13200000000001
 20
97.771000000000001
 30
0.0
 11
134.756
 21
98.072199999999995
 31
0.0
  0
LINE
  5
79C
  8
0
 62
     7
 10
134.756
 20
98.072199999999995
 30
0.0
 11
134.73099999999999
 21
98.571700000000007
 31
0.0
  0
LINE
  5
79D
  8
0
 62
     7
 10
138.03200000000001
 20
98.571700000000007
 30
0.0
 11
138.006
 21
98.072199999999995
 31
0.0
  0
LINE
  5
79E
  8
0
 62
     7
 10
138.006
 20
98.072199999999995
 30
0.0
 11
137.63199999999989
 21
97.771000000000001
 31
0.0
  0
LINE
  5
79F
  8
0
 62
     7
 10
137.83199999999991
 20
98.996799999999993
 30
0.0
 11
134.93199999999999
 21
98.996799999999993
 31
0.0
  0
LINE
  5
7A0
  8
0
 62
     7
 10
134.93199999999999
 20
98.996799999999993
 30
0.0
 11
134.73099999999999
 21
98.571700000000007
 31
0.0
  0
LINE
  5
7A1
  8
0
 62
     7
 10
138.03200000000001
 20
98.571700000000007
 30
0.0
 11
137.83199999999991
 21
98.996799999999993
 31
0.0
  0
LINE
  5
7A2
  8
0
 62
     7
 10
137.83199999999991
 20
100.997
 30
0.0
 11
134.93199999999999
 21
100.997
 31
0.0
  0
LINE
  5
7A3
  8
0
 62
     7
 10
134.93199999999999
 20
98.996799999999993
 30
0.0
 11
134.93199999999999
 21
100.997
 31
0.0
  0
LINE
  5
7A4
  8
0
 62
     7
 10
137.83199999999991
 20
98.996799999999993
 30
0.0
 11
137.83199999999991
 21
100.997
 31
0.0
  0
LINE
  5
7A5
  8
0
 62
     7
 10
134.93199999999999
 20
100.997
 30
0.0
 11
134.756
 21
101.297
 31
0.0
  0
LINE
  5
7A6
  8
0
 62
     7
 10
138.006
 20
101.297
 30
0.0
 11
137.83199999999991
 21
100.997
 31
0.0
  0
LINE
  5
7A7
  8
0
 62
     7
 10
134.756
 20
101.297
 30
0.0
 11
134.70599999999999
 21
101.422
 31
0.0
  0
LINE
  5
7A8
  8
0
 62
     7
 10
134.70599999999999
 20
101.422
 30
0.0
 11
134.70599999999999
 21
101.547
 31
0.0
  0
ARC
  5
7A9
  8
0
 62
     7
 10
137.46361999999991
 20
101.605721
 30
0.0
 40
0.620508
 50
339.65783999999991
 51
354.56034599999992
  0
ARC
  5
7AA
  8
0
 62
     7
 10
137.3873439999999
 20
101.614187
 30
0.0
 40
0.6952180000000001
 50
332.89890400000002
 51
341.18907200000001
  0
LINE
  5
7AB
  8
0
 62
     7
 10
138.08099999999999
 20
101.547
 30
0.0
 11
138.08099999999999
 21
102.24799999999991
 31
0.0
  0
LINE
  5
7AC
  8
0
 62
     7
 10
138.08099999999999
 20
102.24799999999991
 30
0.0
 11
134.70599999999999
 21
102.24799999999991
 31
0.0
  0
LINE
  5
7AD
  8
0
 62
     7
 10
134.70599999999999
 20
101.547
 30
0.0
 11
134.70599999999999
 21
102.24799999999991
 31
0.0
  0
LINE
  5
7AE
  8
0
  6
AIGENLINE001
 62
     7
 10
147.815
 20
107.045
 30
0.0
 11
136.38200000000001
 21
124.3129999999999
 31
0.0
  0
LINE
  5
7AF
  8
0
 62
     7
 10
130.05999999999989
 20
102.24799999999991
 30
0.0
 11
130.05999999999989
 21
120.304
 31
0.0
  0
LINE
  5
7B0
  8
0
 62
     7
 10
127.435
 20
120.304
 30
0.0
 11
127.435
 21
102.24799999999991
 31
0.0
  0
LINE
  5
7B1
  8
0
  6
AIGENLINE001
 62
     7
 10
128.74799999999991
 20
124.3129999999999
 30
0.0
 11
128.74799999999991
 21
93.283800000000014
 31
0.0
  0
LINE
  5
7B2
  8
0
 62
     7
 10
128.74799999999991
 20
94.745500000000007
 30
0.0
 11
128.74799999999991
 21
97.370700000000014
 31
0.0
  0
LINE
  5
7B3
  8
0
 62
     7
 10
126.372
 20
94.745500000000007
 30
0.0
 11
126.372
 21
97.370700000000014
 31
0.0
  0
ARC
  5
7B4
  8
0
 62
     7
 10
132.10108199999999
 20
117.6421289999999
 30
0.0
 40
23.602436999999991
 50
255.952305
 51
256.94672500000001
  0
ARC
  5
7B5
  8
0
 62
     7
 10
127.8660399999999
 20
99.494530000000012
 30
0.0
 40
4.9673220000000002
 50
257.25637799999993
 51
263.09917899999988
  0
ARC
  5
7B6
  8
0
 62
     7
 10
127.583108
 20
97.372818000000009
 30
0.0
 40
2.8271049999999991
 50
263.62521800000002
 51
269.79589900000002
  0
ARC
  5
7B7
  8
0
 62
     7
 10
127.57172199999989
 20
97.064400000000006
 30
0.0
 40
2.518669
 50
270.02992899999992
 51
277.21034199999991
  0
ARC
  5
7B8
  8
0
 62
     7
 10
127.3590549999999
 20
98.865934999999993
 30
0.0
 40
4.3326769999999986
 50
277.01026699999989
 51
283.59545299999991
  0
ARC
  5
7B9
  8
0
 62
     7
 10
124.583832
 20
110.911435
 30
0.0
 40
16.693553000000001
 50
283.13548700000001
 51
284.44420700000001
  0
ARC
  5
7BA
  8
0
 62
     7
 10
127.1342479999999
 20
92.654934999999995
 30
0.0
 40
4.9842069999999987
 50
71.110894999999999
 51
78.891000000000005
  0
ARC
  5
7BB
  8
0
 62
     7
 10
127.54171100000001
 20
94.582755000000006
 30
0.0
 40
3.014135
 50
79.430560999999983
 51
89.404507999999979
  0
ARC
  5
7BC
  8
0
 62
     7
 10
127.575046
 20
94.692986000000005
 30
0.0
 40
2.9037419999999989
 50
90.039636000000002
 51
100.813225
  0
ARC
  5
7BD
  8
0
 62
     7
 10
127.818179
 20
93.243209999999991
 30
0.0
 40
4.3735150000000003
 50
100.37861700000001
 51
109.308318
  0
ARC
  5
7BE
  8
0
 62
     7
 10
134.52544399999991
 20
117.809485
 30
0.0
 40
23.776588
 50
255.93655999999999
 51
256.90015199999999
  0
ARC
  5
7BF
  8
0
 62
     7
 10
130.248479
 20
99.535343999999995
 30
0.0
 40
5.0086909999999998
 50
257.17297400000001
 51
263.07493999999991
  0
ARC
  5
7C0
  8
0
 62
     7
 10
129.95782500000001
 20
97.360971000000006
 30
0.0
 40
2.8152590000000002
 50
263.61156499999993
 51
269.78808199999992
  0
ARC
  5
7C1
  8
0
 62
     7
 10
129.94609800000001
 20
97.069168000000005
 30
0.0
 40
2.523436999999999
 50
270.02984600000002
 51
277.20351699999992
  0
ARC
  5
7C2
  8
0
 62
     7
 10
129.73411899999999
 20
98.864542000000014
 30
0.0
 40
4.3312460000000002
 50
277.00742700000001
 51
283.59563300000002
  0
ARC
  5
7C3
  8
0
 62
     7
 10
126.8886729999999
 20
111.2112809999999
 30
0.0
 40
17.001439000000001
 50
283.13524999999993
 51
284.42132700000002
  0
LINE
  5
7C4
  8
0
 62
     7
 10
131.12299999999991
 20
94.745500000000007
 30
0.0
 11
131.12299999999991
 21
97.370700000000014
 31
0.0
  0
ARC
  5
7C5
  8
0
 62
     7
 10
129.50820499999989
 20
92.651693000000009
 30
0.0
 40
4.9876329999999989
 50
71.110928000000001
 51
78.883884999999992
  0
ARC
  5
7C6
  8
0
 62
     7
 10
129.91675900000001
 20
94.580421999999984
 30
0.0
 40
3.016459999999999
 50
79.435377000000017
 51
89.417755
  0
ARC
  5
7C7
  8
0
 62
     7
 10
129.9494259999999
 20
94.702020999999988
 30
0.0
 40
2.8947069999999999
 50
90.039867999999984
 51
100.8301389999999
  0
ARC
  5
7C8
  8
0
 62
     7
 10
130.19445999999999
 20
93.243552000000008
 30
0.0
 40
4.373367
 50
100.39289599999989
 51
109.316335
  0
LINE
  5
7C9
  8
0
 62
     7
 10
131.12299999999991
 20
94.545699999999997
 30
0.0
 11
131.12299999999991
 21
94.745500000000007
 31
0.0
  0
LINE
  5
7CA
  8
0
 62
     7
 10
131.12299999999991
 20
97.370700000000014
 30
0.0
 11
131.12299999999991
 21
97.596699999999984
 31
0.0
  0
LINE
  5
7CB
  8
0
 62
     7
 10
126.372
 20
94.545699999999997
 30
0.0
 11
126.372
 21
94.745500000000007
 31
0.0
  0
LINE
  5
7CC
  8
0
 62
     7
 10
126.372
 20
97.370700000000014
 30
0.0
 11
126.372
 21
97.596699999999984
 31
0.0
  0
LINE
  5
7CD
  8
0
 62
     7
 10
129.99799999999991
 20
97.771000000000001
 30
0.0
 11
128.74799999999991
 21
97.771000000000001
 31
0.0
  0
LINE
  5
7CE
  8
0
 62
     7
 10
128.74799999999991
 20
97.771000000000001
 30
0.0
 11
127.498
 21
97.771000000000001
 31
0.0
  0
LINE
  5
7CF
  8
0
 62
     7
 10
131.12299999999991
 20
94.545699999999997
 30
0.0
 11
131.048
 21
94.496099999999984
 31
0.0
  0
LINE
  5
7D0
  8
0
 62
     7
 10
131.048
 20
94.496099999999984
 30
0.0
 11
126.4469999999999
 21
94.496099999999984
 31
0.0
  0
LINE
  5
7D1
  8
0
 62
     7
 10
126.4469999999999
 20
94.496099999999984
 30
0.0
 11
126.372
 21
94.545699999999997
 31
0.0
  0
ARC
  5
7D2
  8
0
 62
     7
 10
131.104389
 20
97.562984999999983
 30
0.0
 40
0.038479
 50
61.269488000000003
 51
90.14337900000001
  0
ARC
  5
7D3
  8
0
 62
     7
 10
130.943005
 20
96.245929000000004
 30
0.0
 40
1.365095999999999
 50
83.214589000000004
 51
88.388773
  0
ARC
  5
7D4
  8
0
 62
     7
 10
130.40118000000001
 20
82.908372
 30
0.0
 40
14.71355799999999
 50
87.740026000000015
 51
89.360946999999996
  0
ARC
  5
7D5
  8
0
 62
     7
 10
129.46320499999999
 20
15.572381
 30
0.0
 40
82.056034999999994
 50
89.230439000000004
 51
89.925376
  0
ARC
  5
7D6
  8
0
 62
     7
 10
128.88175100000001
 20
-302.48533900000001
 30
0.0
 40
400.1142779999999
 50
89.901425000000003
 51
90.348620000000025
  0
LINE
  5
7D7
  8
0
 62
     7
 10
126.4469999999999
 20
97.621499999999997
 30
0.0
 11
126.372
 21
97.596699999999984
 31
0.0
  0
LINE
  5
7D8
  8
0
 62
     7
 10
130.298
 20
97.621499999999997
 30
0.0
 11
130.298
 21
97.746200000000002
 31
0.0
  0
LINE
  5
7D9
  8
0
 62
     7
 10
130.298
 20
97.746200000000002
 30
0.0
 11
127.19799999999989
 21
97.746200000000002
 31
0.0
  0
LINE
  5
7DA
  8
0
 62
     7
 10
127.19799999999989
 20
97.621499999999997
 30
0.0
 11
127.19799999999989
 21
97.746200000000002
 31
0.0
  0
LINE
  5
7DB
  8
0
 62
     7
 10
127.498
 20
97.771000000000001
 30
0.0
 11
127.122
 21
98.072199999999995
 31
0.0
  0
LINE
  5
7DC
  8
0
 62
     7
 10
127.122
 20
98.072199999999995
 30
0.0
 11
127.0979999999999
 21
98.571700000000007
 31
0.0
  0
LINE
  5
7DD
  8
0
 62
     7
 10
130.39899999999989
 20
98.571700000000007
 30
0.0
 11
130.37299999999991
 21
98.072199999999995
 31
0.0
  0
LINE
  5
7DE
  8
0
 62
     7
 10
130.37299999999991
 20
98.072199999999995
 30
0.0
 11
129.99799999999991
 21
97.771000000000001
 31
0.0
  0
LINE
  5
7DF
  8
0
 62
     7
 10
130.19799999999989
 20
98.996799999999993
 30
0.0
 11
127.298
 21
98.996799999999993
 31
0.0
  0
LINE
  5
7E0
  8
0
 62
     7
 10
127.298
 20
98.996799999999993
 30
0.0
 11
127.0979999999999
 21
98.571700000000007
 31
0.0
  0
LINE
  5
7E1
  8
0
 62
     7
 10
130.39899999999989
 20
98.571700000000007
 30
0.0
 11
130.19799999999989
 21
98.996799999999993
 31
0.0
  0
LINE
  5
7E2
  8
0
 62
     7
 10
130.19799999999989
 20
100.997
 30
0.0
 11
127.298
 21
100.997
 31
0.0
  0
LINE
  5
7E3
  8
0
 62
     7
 10
127.298
 20
98.996799999999993
 30
0.0
 11
127.298
 21
100.997
 31
0.0
  0
LINE
  5
7E4
  8
0
 62
     7
 10
130.19799999999989
 20
98.996799999999993
 30
0.0
 11
130.19799999999989
 21
100.997
 31
0.0
  0
LINE
  5
7E5
  8
0
 62
     7
 10
127.298
 20
100.997
 30
0.0
 11
127.122
 21
101.297
 31
0.0
  0
LINE
  5
7E6
  8
0
 62
     7
 10
130.37299999999991
 20
101.297
 30
0.0
 11
130.19799999999989
 21
100.997
 31
0.0
  0
LINE
  5
7E7
  8
0
 62
     7
 10
127.122
 20
101.297
 30
0.0
 11
127.072
 21
101.422
 31
0.0
  0
LINE
  5
7E8
  8
0
 62
     7
 10
127.072
 20
101.422
 30
0.0
 11
127.072
 21
101.547
 31
0.0
  0
ARC
  5
7E9
  8
0
 62
     7
 10
129.82992899999991
 20
101.605721
 30
0.0
 40
0.620508
 50
339.65783999999991
 51
354.56034599999992
  0
ARC
  5
7EA
  8
0
 62
     7
 10
129.75365300000001
 20
101.614187
 30
0.0
 40
0.6952180000000001
 50
332.89890400000002
 51
341.18907200000001
  0
LINE
  5
7EB
  8
0
 62
     7
 10
130.44799999999989
 20
101.547
 30
0.0
 11
130.44799999999989
 21
102.24799999999991
 31
0.0
  0
LINE
  5
7EC
  8
0
 62
     7
 10
130.44799999999989
 20
102.24799999999991
 30
0.0
 11
127.072
 21
102.24799999999991
 31
0.0
  0
LINE
  5
7ED
  8
0
 62
     7
 10
127.072
 20
101.547
 30
0.0
 11
127.072
 21
102.24799999999991
 31
0.0
  0
LINE
  5
7EE
  8
0
 62
     7
 10
144.066
 20
135.15000000000001
 30
0.0
 11
143.565
 21
135.15000000000001
 31
0.0
  0
LINE
  5
7EF
  8
0
 62
     7
 10
146.31499999999991
 20
136.5629999999999
 30
0.0
 11
141.31599999999989
 21
136.5629999999999
 31
0.0
  0
LINE
  5
7F0
  8
0
 62
     7
 10
141.31599999999989
 20
136.5629999999999
 30
0.0
 11
141.31599999999989
 21
135.25499999999991
 31
0.0
  0
ARC
  5
7F1
  8
0
 62
     7
 10
141.53929600000001
 20
135.293645
 30
0.0
 40
0.227007
 50
189.81205600000001
 51
200.4855409999999
  0
ARC
  5
7F2
  8
0
 62
     7
 10
141.79373100000001
 20
135.38090500000001
 30
0.0
 40
0.4959439999999999
 50
199.64183700000001
 51
237.45842200000001
  0
ARC
  5
7F3
  8
0
 62
     7
 10
141.93351699999991
 20
135.55943199999999
 30
0.0
 40
0.7219640000000001
 50
235.72742799999989
 51
251.518021
  0
ARC
  5
7F4
  8
0
 62
     7
 10
142.04951199999999
 20
135.88381100000001
 30
0.0
 40
1.066408
 50
251.13212799999991
 51
264.38392499999992
  0
ARC
  5
7F5
  8
0
 62
     7
 10
142.11589399999991
 20
136.39632599999999
 30
0.0
 40
1.583038999999999
 50
263.80816399999998
 51
270.1876299999999
  0
LINE
  5
7F6
  8
0
 62
     7
 10
142.12100000000001
 20
134.8129999999999
 30
0.0
 11
146.31499999999991
 21
134.8129999999999
 31
0.0
  0
LINE
  5
7F7
  8
0
 62
     7
 10
144.066
 20
136.5629999999999
 30
0.0
 11
144.066
 21
135.15000000000001
 31
0.0
  0
ARC
  5
7F8
  8
0
 62
     7
 10
144.36708499999989
 20
135.3399719999999
 30
0.0
 40
0.356491
 50
212.223364
 51
220.46682799999991
  0
ARC
  5
7F9
  8
0
 62
     7
 10
144.70584999999991
 20
135.61836899999989
 30
0.0
 40
0.79494
 50
219.88583399999999
 51
257.59200699999991
  0
ARC
  5
7FA
  8
0
 62
     7
 10
144.7751889999999
 20
135.83147500000001
 30
0.0
 40
1.0182029999999991
 50
256.35793399999989
 51
270.38817299999988
  0
LINE
  5
7FB
  8
0
 62
     7
 10
143.565
 20
136.5629999999999
 30
0.0
 11
143.565
 21
135.15000000000001
 31
0.0
  0
ARC
  5
7FC
  8
0
 62
     7
 10
142.54875899999999
 20
137.026036
 30
0.0
 40
2.1338330000000001
 50
295.32620700000001
 51
298.449141
  0
ARC
  5
7FD
  8
0
 62
     7
 10
141.947002
 20
138.23627999999991
 30
0.0
 40
3.485271
 50
285.33057500000001
 51
295.757138
  0
ARC
  5
7FE
  8
0
 62
     7
 10
142.38978399999999
 20
136.67953199999999
 30
0.0
 40
1.8669150000000001
 50
271.544264
 51
284.85664899999989
  0
LINE
  5
7FF
  8
0
 62
     7
 10
148.566
 20
135.15000000000001
 30
0.0
 11
149.065
 21
135.15000000000001
 31
0.0
  0
LINE
  5
800
  8
0
 62
     7
 10
146.31499999999991
 20
136.5629999999999
 30
0.0
 11
151.31499999999991
 21
136.5629999999999
 31
0.0
  0
LINE
  5
801
  8
0
 62
     7
 10
151.31499999999991
 20
136.5629999999999
 30
0.0
 11
151.31499999999991
 21
135.25499999999991
 31
0.0
  0
ARC
  5
802
  8
0
 62
     7
 10
151.09752700000001
 20
135.290941
 30
0.0
 40
0.220831
 50
340.52020199999993
 51
350.62245300000001
  0
ARC
  5
803
  8
0
 62
     7
 10
150.84306599999991
 20
135.37443500000001
 30
0.0
 40
0.488608
 50
302.60394100000002
 51
341.24043999999992
  0
ARC
  5
804
  8
0
 62
     7
 10
150.7023889999999
 20
135.552402
 30
0.0
 40
0.714689
 50
288.51479399999988
 51
304.41720699999991
  0
ARC
  5
805
  8
0
 62
     7
 10
150.58543499999999
 20
135.87859800000001
 30
0.0
 40
1.0611660000000001
 50
275.61348700000002
 51
288.90989100000002
  0
ARC
  5
806
  8
0
 62
     7
 10
150.51863700000001
 20
136.39360199999999
 30
0.0
 40
1.580314999999999
 50
269.80953699999998
 51
276.19727799999993
  0
LINE
  5
807
  8
0
 62
     7
 10
150.51300000000001
 20
134.8129999999999
 30
0.0
 11
146.31499999999991
 21
134.8129999999999
 31
0.0
  0
LINE
  5
808
  8
0
 62
     7
 10
148.566
 20
136.5629999999999
 30
0.0
 11
148.566
 21
135.15000000000001
 31
0.0
  0
ARC
  5
809
  8
0
 62
     7
 10
148.2695379999999
 20
135.33640099999991
 30
0.0
 40
0.349844
 50
319.37306100000001
 51
327.78181599999999
  0
ARC
  5
80A
  8
0
 62
     7
 10
147.92401100000001
 20
135.62023600000001
 30
0.0
 40
0.7969590000000001
 50
282.44297899999992
 51
320.06053199999991
  0
ARC
  5
80B
  8
0
 62
     7
 10
147.855717
 20
135.83036100000001
 30
0.0
 40
1.0170879999999991
 50
269.61768799999987
 51
283.64942400000001
  0
LINE
  5
80C
  8
0
 62
     7
 10
149.065
 20
136.5629999999999
 30
0.0
 11
149.065
 21
135.15000000000001
 31
0.0
  0
ARC
  5
80D
  8
0
 62
     7
 10
150.084406
 20
137.03113999999999
 30
0.0
 40
2.1396730000000002
 50
241.54917499999999
 51
244.8508379999999
  0
ARC
  5
80E
  8
0
 62
     7
 10
150.67952099999991
 20
138.22932700000001
 30
0.0
 40
3.477312
 50
244.36477400000001
 51
254.909525
  0
ARC
  5
80F
  8
0
 62
     7
 10
150.23728299999999
 20
136.652308
 30
0.0
 40
1.839613999999999
 50
255.420941
 51
268.53440999999998
  0
LINE
  5
810
  8
0
 62
     7
 10
150.19
 20
134.8129999999999
 30
0.0
 11
150.19
 21
131.8129999999999
 31
0.0
  0
LINE
  5
811
  8
0
 62
     7
 10
142.44
 20
134.8129999999999
 30
0.0
 11
142.44
 21
131.8129999999999
 31
0.0
  0
LINE
  5
812
  8
0
 62
     7
 10
150.43999999999991
 20
132.0629999999999
 30
0.0
 11
142.191
 21
132.0629999999999
 31
0.0
  0
LINE
  5
813
  8
0
 62
     7
 10
150.43999999999991
 20
132.0629999999999
 30
0.0
 11
150.19
 21
131.8129999999999
 31
0.0
  0
LINE
  5
814
  8
0
 62
     7
 10
150.19
 20
131.8129999999999
 30
0.0
 11
142.44
 21
131.8129999999999
 31
0.0
  0
LINE
  5
815
  8
0
 62
     7
 10
142.44
 20
131.8129999999999
 30
0.0
 11
142.191
 21
132.0629999999999
 31
0.0
  0
LINE
  5
816
  8
0
 62
     7
 10
142.191
 20
132.0629999999999
 30
0.0
 11
142.191
 21
134.8129999999999
 31
0.0
  0
LINE
  5
817
  8
0
 62
     7
 10
142.191
 20
134.8129999999999
 30
0.0
 11
150.43999999999991
 21
134.8129999999999
 31
0.0
  0
LINE
  5
818
  8
0
 62
     7
 10
150.43999999999991
 20
134.8129999999999
 30
0.0
 11
150.43999999999991
 21
132.0629999999999
 31
0.0
  0
LINE
  5
819
  8
0
 62
     7
 10
150.19
 20
145.56299999999999
 30
0.0
 11
150.19
 21
138.0629999999999
 31
0.0
  0
LINE
  5
81A
  8
0
 62
     7
 10
142.44
 20
145.56299999999999
 30
0.0
 11
142.44
 21
138.0629999999999
 31
0.0
  0
LINE
  5
81B
  8
0
 62
     7
 10
150.43999999999991
 20
138.0629999999999
 30
0.0
 11
142.191
 21
138.0629999999999
 31
0.0
  0
LINE
  5
81C
  8
0
 62
     7
 10
142.191
 20
138.0629999999999
 30
0.0
 11
142.191
 21
145.56299999999999
 31
0.0
  0
LINE
  5
81D
  8
0
 62
     7
 10
142.191
 20
145.56299999999999
 30
0.0
 11
150.43999999999991
 21
145.56299999999999
 31
0.0
  0
LINE
  5
81E
  8
0
 62
     7
 10
150.43999999999991
 20
145.56299999999999
 30
0.0
 11
150.43999999999991
 21
138.0629999999999
 31
0.0
  0
LINE
  5
81F
  8
0
 62
     7
 10
151.81599999999989
 20
136.5629999999999
 30
0.0
 11
140.815
 21
136.5629999999999
 31
0.0
  0
LINE
  5
820
  8
0
 62
     7
 10
140.815
 20
136.5629999999999
 30
0.0
 11
140.815
 21
137.1879999999999
 31
0.0
  0
LINE
  5
821
  8
0
 62
     7
 10
140.815
 20
137.1879999999999
 30
0.0
 11
151.81599999999989
 21
137.1879999999999
 31
0.0
  0
LINE
  5
822
  8
0
 62
     7
 10
151.81599999999989
 20
137.1879999999999
 30
0.0
 11
151.81599999999989
 21
136.5629999999999
 31
0.0
  0
LINE
  5
823
  8
0
 62
     7
 10
152.315
 20
137.1879999999999
 30
0.0
 11
140.31499999999991
 21
137.1879999999999
 31
0.0
  0
LINE
  5
824
  8
0
 62
     7
 10
140.31499999999991
 20
137.1879999999999
 30
0.0
 11
140.31499999999991
 21
137.5629999999999
 31
0.0
  0
LINE
  5
825
  8
0
 62
     7
 10
140.31499999999991
 20
137.5629999999999
 30
0.0
 11
152.315
 21
137.5629999999999
 31
0.0
  0
LINE
  5
826
  8
0
 62
     7
 10
152.315
 20
137.5629999999999
 30
0.0
 11
152.315
 21
137.1879999999999
 31
0.0
  0
LINE
  5
827
  8
0
 62
     7
 10
152.315
 20
137.5629999999999
 30
0.0
 11
140.31499999999991
 21
137.5629999999999
 31
0.0
  0
LINE
  5
828
  8
0
 62
     7
 10
140.31499999999991
 20
137.5629999999999
 30
0.0
 11
140.31499999999991
 21
138.0629999999999
 31
0.0
  0
LINE
  5
829
  8
0
 62
     7
 10
140.31499999999991
 20
138.0629999999999
 30
0.0
 11
152.315
 21
138.0629999999999
 31
0.0
  0
LINE
  5
82A
  8
0
 62
     7
 10
152.315
 20
138.0629999999999
 30
0.0
 11
152.315
 21
137.5629999999999
 31
0.0
  0
LINE
  5
82B
  8
0
  6
AIGENLINE001
 62
     7
 10
144.815
 20
107.045
 30
0.0
 11
128.74799999999991
 21
124.3129999999999
 31
0.0
  0
LINE
  5
82C
  8
0
 62
     7
 10
143.5029999999999
 20
111.621
 30
0.0
 11
143.5029999999999
 21
131.8129999999999
 31
0.0
  0
LINE
  5
82D
  8
0
 62
     7
 10
146.1279999999999
 20
111.621
 30
0.0
 11
146.1279999999999
 21
131.8129999999999
 31
0.0
  0
LINE
  5
82E
  8
0
  6
AIGENLINE001
 62
     7
 10
144.815
 20
107.045
 30
0.0
 11
144.815
 21
139.5929999999999
 31
0.0
  0
LINE
  5
82F
  8
0
  6
AIGENLINE001
 62
     7
 10
147.815
 20
68.444500000000005
 30
0.0
 11
147.815
 21
139.68599999999989
 31
0.0
  0
LINE
  5
830
  8
0
 62
     7
 10
148.44399999999999
 20
122.452
 30
0.0
 11
148.44399999999999
 21
70.562899999999999
 31
0.0
  0
LINE
  5
831
  8
0
 62
     7
 10
148.44399999999999
 20
70.562899999999999
 30
0.0
 11
147.1939999999999
 21
70.562899999999999
 31
0.0
  0
LINE
  5
832
  8
0
 62
     7
 10
147.1939999999999
 20
122.452
 30
0.0
 11
147.1939999999999
 21
70.562899999999999
 31
0.0
  0
LINE
  5
833
  8
0
 62
     7
 10
139.44
 20
146.3129999999999
 30
0.0
 11
139.44
 21
145.56299999999999
 31
0.0
  0
LINE
  5
834
  8
0
 62
     7
 10
153.19
 20
146.3129999999999
 30
0.0
 11
153.19
 21
145.56299999999999
 31
0.0
  0
LINE
  5
835
  8
0
 62
     7
 10
153.19
 20
146.3129999999999
 30
0.0
 11
139.44
 21
146.3129999999999
 31
0.0
  0
LINE
  5
836
  8
0
 62
     7
 10
153.19
 20
145.56299999999999
 30
0.0
 11
139.44
 21
145.56299999999999
 31
0.0
  0
LINE
  5
837
  8
0
 62
     7
 10
140.93999999999991
 20
192.3949999999999
 30
0.0
 11
140.93999999999991
 21
192.39400000000001
 31
0.0
  0
LINE
  5
838
  8
0
 62
     7
 10
140.93999999999991
 20
192.39400000000001
 30
0.0
 11
140.93999999999991
 21
192.3899999999999
 31
0.0
  0
LINE
  5
839
  8
0
 62
     7
 10
140.93999999999991
 20
192.3899999999999
 30
0.0
 11
140.941
 21
192.38499999999999
 31
0.0
  0
ARC
  5
83A
  8
0
 62
     7
 10
140.971339
 20
192.38346000000001
 30
0.0
 40
0.030581
 50
177.76965499999989
 51
192.38955899999999
  0
LINE
  5
83B
  8
0
 62
     7
 10
140.941
 20
192.37700000000001
 30
0.0
 11
140.94200000000001
 21
192.36699999999999
 31
0.0
  0
LINE
  5
83C
  8
0
 62
     7
 10
140.94200000000001
 20
192.36699999999999
 30
0.0
 11
140.9429999999999
 21
192.3549999999999
 31
0.0
  0
ARC
  5
83D
  8
0
 62
     7
 10
140.68678499999999
 20
192.32217099999991
 30
0.0
 40
0.258096
 50
4.084111
 51
7.196987
  0
ARC
  5
83E
  8
0
 62
     7
 10
141.04969
 20
192.34173899999999
 30
0.0
 40
0.105471
 50
180.64490499999991
 51
189.29461499999999
  0
ARC
  5
83F
  8
0
 62
     7
 10
141.07322400000001
 20
192.325692
 30
0.0
 40
0.127624
 50
180.44338599999989
 51
188.43913499999999
  0
LINE
  5
840
  8
0
 62
     7
 10
140.94699999999989
 20
192.30699999999999
 30
0.0
 11
140.94799999999989
 21
192.28699999999989
 31
0.0
  0
ARC
  5
841
  8
0
 62
     7
 10
120.162385
 20
190.31215299999991
 30
0.0
 40
20.878907000000002
 50
5.3675980000000001
 51
5.427899
  0
ARC
  5
842
  8
0
 62
     7
 10
141.163667
 20
192.26628600000001
 30
0.0
 40
0.213931
 50
180.27029599999989
 51
186.51242199999999
  0
ARC
  5
843
  8
0
 62
     7
 10
141.1965889999999
 20
192.24340000000001
 30
0.0
 40
0.245477
 50
180.32163700000001
 51
186.0824429999999
  0
ARC
  5
844
  8
0
 62
     7
 10
141.20466899999991
 20
192.21805900000001
 30
0.0
 40
0.252175
 50
180.15213700000001
 51
185.9945669999999
  0
LINE
  5
845
  8
0
 62
     7
 10
140.95399999999989
 20
192.19200000000001
 30
0.0
 11
140.95500000000001
 21
192.16499999999991
 31
0.0
  0
ARC
  5
846
  8
0
 62
     7
 10
140.39940899999999
 20
192.12353200000001
 30
0.0
 40
0.556688
 50
1.3629990000000001
 51
4.2566169999999994
  0
ARC
  5
847
  8
0
 62
     7
 10
140.62433799999999
 20
192.1143209999999
 30
0.0
 40
0.332361
 50
358.82227699999987
 51
3.873497
  0
ARC
  5
848
  8
0
 62
     7
 10
140.60672099999991
 20
192.08437099999989
 30
0.0
 40
0.350671
 50
358.823804
 51
3.7801010000000002
  0
ARC
  5
849
  8
0
 62
     7
 10
140.60527500000001
 20
192.05392399999999
 30
0.0
 40
0.3528090000000001
 50
358.79621800000001
 51
3.7784390000000001
  0
ARC
  5
84A
  8
0
 62
     7
 10
140.59822800000001
 20
192.02304699999991
 30
0.0
 40
0.360543
 50
358.82880099999988
 51
3.7314780000000001
  0
ARC
  5
84B
  8
0
 62
     7
 10
141.58750599999999
 20
192.01397700000001
 30
0.0
 40
0.6288120000000002
 50
179.845043
 51
182.6869549999999
  0
LINE
  5
84C
  8
0
 62
     7
 10
140.959
 20
191.98400000000001
 30
0.0
 11
140.959
 21
191.95299999999989
 31
0.0
  0
LINE
  5
84D
  8
0
 62
     7
 10
151.68999999999991
 20
182.749
 30
0.0
 11
151.68999999999991
 21
182.75099999999989
 31
0.0
  0
ARC
  5
84E
  8
0
 62
     7
 10
151.69982899999999
 20
182.75426100000001
 30
0.0
 40
0.010285
 50
178.592356
 51
201.13925599999999
  0
LINE
  5
84F
  8
0
 62
     7
 10
151.68999999999991
 20
182.755
 30
0.0
 11
151.68899999999999
 21
182.76099999999991
 31
0.0
  0
LINE
  5
850
  8
0
 62
     7
 10
151.68899999999999
 20
182.76099999999991
 30
0.0
 11
151.68700000000001
 21
182.77000000000001
 31
0.0
  0
ARC
  5
851
  8
0
 62
     7
 10
151.63108
 20
182.76894799999999
 30
0.0
 40
0.056409
 50
1.0851580000000001
 51
12.737294999999991
  0
ARC
  5
852
  8
0
 62
     7
 10
151.60141799999991
 20
182.78025299999999
 30
0.0
 40
0.084691
 50
0.7659339999999999
 51
10.37846
  0
ARC
  5
853
  8
0
 62
     7
 10
151.57365899999999
 20
182.794398
 30
0.0
 40
0.11107
 50
0.5739670000000001
 51
9.053134
  0
ARC
  5
854
  8
0
 62
     7
 10
149.2347189999999
 20
182.55180299999989
 30
0.0
 40
2.462399
 50
6.0627300000000002
 51
6.5022529999999987
  0
ARC
  5
855
  8
0
 62
     7
 10
154.7417749999999
 20
183.14229199999991
 30
0.0
 40
3.076322999999999
 50
185.420953
 51
185.814246
  0
LINE
  5
856
  8
0
 62
     7
 10
151.679
 20
182.852
 30
0.0
 11
151.67699999999999
 21
182.875
 31
0.0
  0
ARC
  5
857
  8
0
 62
     7
 10
161.22980200000001
 20
183.67255800000001
 30
0.0
 40
9.5859149999999982
 50
184.62328699999989
 51
184.77411299999989
  0
LINE
  5
858
  8
0
 62
     7
 10
151.67500000000001
 20
182.90000000000001
 30
0.0
 11
151.672
 21
182.92699999999999
 31
0.0
  0
ARC
  5
859
  8
0
 62
     7
 10
146.888667
 20
182.59962300000001
 30
0.0
 40
4.794827999999999
 50
3.9122720000000002
 51
4.2589600000000001
  0
ARC
  5
85A
  8
0
 62
     7
 10
193.762137
 20
185.80876399999991
 30
0.0
 40
42.188465000000001
 50
183.8359529999999
 51
183.87768799999989
  0
LINE
  5
85B
  8
0
 62
     7
 10
151.66800000000001
 20
182.98599999999999
 30
0.0
 11
151.66599999999991
 21
183.018
 31
0.0
  0
LINE
  5
85C
  8
0
 62
     7
 10
151.66599999999991
 20
183.018
 30
0.0
 11
151.6639999999999
 21
183.05199999999999
 31
0.0
  0
LINE
  5
85D
  8
0
 62
     7
 10
151.6639999999999
 20
183.05199999999999
 30
0.0
 11
151.66200000000001
 21
183.0859999999999
 31
0.0
  0
ARC
  5
85E
  8
0
 62
     7
 10
151.16278700000001
 20
183.084833
 30
0.0
 40
0.4992010000000001
 50
0.18562
 51
4.262302
  0
LINE
  5
85F
  8
0
 62
     7
 10
151.661
 20
183.12200000000001
 30
0.0
 11
151.65899999999991
 21
183.1579999999999
 31
0.0
  0
LINE
  5
860
  8
0
 62
     7
 10
151.65899999999991
 20
183.1579999999999
 30
0.0
 11
151.6579999999999
 21
183.196
 31
0.0
  0
LINE
  5
861
  8
0
 62
     7
 10
151.6579999999999
 20
183.196
 30
0.0
 11
151.65700000000001
 21
183.23400000000001
 31
0.0
  0
ARC
  5
862
  8
0
 62
     7
 10
150.67904599999989
 20
183.2357419999999
 30
0.0
 40
0.978118
 50
359.90229199999987
 51
2.1529409999999989
  0
LINE
  5
863
  8
0
 62
     7
 10
151.65600000000001
 20
183.27199999999999
 30
0.0
 11
151.65600000000001
 21
183.31099999999989
 31
0.0
  0
LINE
  5
864
  8
0
 62
     7
 10
151.65600000000001
 20
183.31099999999989
 30
0.0
 11
151.65600000000001
 21
183.34899999999999
 31
0.0
  0
LINE
  5
865
  8
0
 62
     7
 10
151.65600000000001
 20
183.34899999999999
 30
0.0
 11
151.65600000000001
 21
183.38800000000001
 31
0.0
  0
ARC
  5
866
  8
0
 62
     7
 10
151.080386
 20
183.4174439999999
 30
0.0
 40
0.576844
 50
357.06401199999999
 51
0.880755
  0
LINE
  5
867
  8
0
 62
     7
 10
151.65700000000001
 20
183.42599999999999
 30
0.0
 11
151.6579999999999
 21
183.465
 31
0.0
  0
ARC
  5
868
  8
0
 62
     7
 10
150.31353200000001
 20
183.53268600000001
 30
0.0
 40
1.3460449999999999
 50
357.098567
 51
358.698125
  0
ARC
  5
869
  8
0
 62
     7
 10
150.30905699999991
 20
183.57133899999999
 30
0.0
 40
1.351947
 50
357.06452100000001
 51
358.61331999999999
  0
ARC
  5
86A
  8
0
 62
     7
 10
150.42359400000001
 20
183.60414099999991
 30
0.0
 40
1.238747
 50
356.96815600000002
 51
358.62664799999988
  0
LINE
  5
86B
  8
0
 62
     7
 10
151.66200000000001
 20
183.57400000000001
 30
0.0
 11
151.6639999999999
 21
183.60900000000001
 31
0.0
  0
ARC
  5
86C
  8
0
 62
     7
 10
141.16814600000001
 20
184.27490700000001
 30
0.0
 40
10.517016
 50
356.36923899999988
 51
356.55164300000001
  0
LINE
  5
86D
  8
0
 62
     7
 10
151.66599999999991
 20
183.642
 30
0.0
 11
151.66800000000001
 21
183.67500000000001
 31
0.0
  0
LINE
  5
86E
  8
0
 62
     7
 10
151.66800000000001
 20
183.67500000000001
 30
0.0
 11
151.6699999999999
 21
183.7049999999999
 31
0.0
  0
LINE
  5
86F
  8
0
 62
     7
 10
151.6699999999999
 20
183.7049999999999
 30
0.0
 11
151.672
 21
183.73400000000001
 31
0.0
  0
ARC
  5
870
  8
0
 62
     7
 10
152.37439399999991
 20
183.67624599999991
 30
0.0
 40
0.7044550000000001
 50
173.07544699999991
 51
175.286573
  0
LINE
  5
871
  8
0
 62
     7
 10
151.67500000000001
 20
183.76099999999991
 30
0.0
 11
151.67699999999999
 21
183.78599999999989
 31
0.0
  0
ARC
  5
872
  8
0
 62
     7
 10
156.50049699999991
 20
183.366018
 30
0.0
 40
4.8416309999999987
 50
174.745542
 51
175.01979
  0
ARC
  5
873
  8
0
 62
     7
 10
142.977711
 20
184.67590300000001
 30
0.0
 40
8.7445360000000001
 50
354.31324000000001
 51
354.45159999999993
  0
LINE
  5
874
  8
0
 62
     7
 10
151.68100000000001
 20
183.83000000000001
 30
0.0
 11
151.68299999999991
 21
183.84899999999999
 31
0.0
  0
ARC
  5
875
  8
0
 62
     7
 10
151.5078969999999
 20
183.87214599999999
 30
0.0
 40
0.176943
 50
352.54874899999999
 51
357.923969
  0
ARC
  5
876
  8
0
 62
     7
 10
151.572079
 20
183.88385600000001
 30
0.0
 40
0.114092
 50
350.86195800000002
 51
357.99364800000001
  0
ARC
  5
877
  8
0
 62
     7
 10
151.61103299999999
 20
183.89467699999989
 30
0.0
 40
0.076516
 50
348.83503100000001
 51
357.54687000000001
  0
LINE
  5
878
  8
0
 62
     7
 10
151.68700000000001
 20
183.89099999999999
 30
0.0
 11
151.68899999999999
 21
183.90000000000001
 31
0.0
  0
LINE
  5
879
  8
0
 62
     7
 10
151.68899999999999
 20
183.90000000000001
 30
0.0
 11
151.68999999999991
 21
183.90700000000001
 31
0.0
  0
ARC
  5
87A
  8
0
 62
     7
 10
151.695762
 20
183.90773300000001
 30
0.0
 40
0.00627
 50
151.807559
 51
187.58275
  0
LINE
  5
87B
  8
0
 62
     7
 10
151.68999999999991
 20
183.91099999999989
 30
0.0
 11
151.68999999999991
 21
183.91200000000001
 31
0.0
  0
ARC
  5
87C
  8
0
  6
AIGENLINE002
 62
     7
 10
127.7791059999999
 20
197.7008439999999
 30
0.0
 40
0.120297
 50
70.623161999999994
 51
156.47001299999999
  0
ARC
  5
87D
  8
0
  6
AIGENLINE002
 62
     7
 10
127.436758
 20
196.840801
 30
0.0
 40
0.11642
 50
158.50678600000001
 51
248.39464000000001
  0
ARC
  5
87E
  8
0
  6
AIGENLINE002
 62
     7
 10
138.40767500000001
 20
193.5465669999999
 30
0.0
 40
0.096362
 50
340.54760899999991
 51
66.676787000000004
  0
ARC
  5
87F
  8
0
  6
AIGENLINE002
 62
     7
 10
138.05218999999991
 20
192.64443700000001
 30
0.0
 40
0.096987
 50
250.6224519999999
 51
336.20745899999991
  0
LINE
  5
880
  8
0
  6
AIGENLINE002
 62
     7
 10
127.819
 20
197.81399999999999
 30
0.0
 11
138.446
 21
193.63499999999999
 31
0.0
  0
LINE
  5
881
  8
0
  6
AIGENLINE002
 62
     7
 10
140.7829999999999
 20
192.46599999999989
 30
0.0
 11
138.447
 21
193.38499999999991
 31
0.0
  0
LINE
  5
882
  8
0
  6
AIGENLINE002
 62
     7
 10
141.01900000000001
 20
191.62299999999991
 30
0.0
 11
138.19200000000001
 21
192.73599999999999
 31
0.0
  0
LINE
  5
883
  8
0
  6
AIGENLINE002
 62
     7
 10
127.39399999999991
 20
196.733
 30
0.0
 11
138.02000000000001
 21
192.553
 31
0.0
  0
LINE
  5
884
  8
0
  6
AIGENLINE002
 62
     7
 10
127.3279999999999
 20
196.8829999999999
 30
0.0
 11
127.669
 21
197.749
 31
0.0
  0
LINE
  5
885
  8
0
  6
AIGENLINE002
 62
     7
 10
138.49899999999991
 20
193.51400000000001
 30
0.0
 11
138.14099999999999
 21
192.60499999999999
 31
0.0
  0
ARC
  5
886
  8
0
 62
     7
 10
126.78493400000001
 20
189.26807099999999
 30
0.0
 40
0.120807
 50
92.354444999999984
 51
177.8157939999999
  0
ARC
  5
887
  8
0
 62
     7
 10
126.78461799999999
 20
188.34643199999991
 30
0.0
 40
0.120473
 50
181.95539600000001
 51
267.7894189999999
  0
ARC
  5
888
  8
0
 62
     7
 10
138.19551100000001
 20
189.29210499999991
 30
0.0
 40
0.096739
 50
2.2657529999999988
 51
87.840439000000003
  0
ARC
  5
889
  8
0
 62
     7
 10
138.19552200000001
 20
188.32270199999991
 30
0.0
 40
0.096721
 50
272.15362999999991
 51
357.8463799999999
  0
ARC
  5
88A
  8
0
 62
     7
 10
141.22973500000001
 20
193.52352400000001
 30
0.0
 40
0.289837
 50
92.093755999999985
 51
177.90621399999989
  0
ARC
  5
88B
  8
0
 62
     7
 10
151.40058200000001
 20
193.52351399999989
 30
0.0
 40
0.289847
 50
2.0956349999999988
 51
87.904354999999995
  0
ARC
  5
88C
  8
0
 62
     7
 10
135.92918399999999
 20
188.67790099999991
 30
0.0
 40
5.0301999999999989
 50
354.98023799999999
 51
0.01933
  0
ARC
  5
88D
  8
0
 62
     7
 10
141.060483
 20
146.433819
 30
0.0
 40
0.120467
 50
182.03465999999989
 51
267.79509999999988
  0
ARC
  5
88E
  8
0
 62
     7
 10
151.5694959999999
 20
146.43419399999991
 30
0.0
 40
0.12083
 50
272.03706399999999
 51
357.79318000000001
  0
LINE
  5
88F
  8
0
 62
     7
 10
141.21899999999999
 20
193.8129999999999
 30
0.0
 11
151.411
 21
193.8129999999999
 31
0.0
  0
LINE
  5
890
  8
0
 62
     7
 10
140.93999999999991
 20
193.53399999999999
 30
0.0
 11
151.68999999999991
 21
193.53399999999999
 31
0.0
  0
LINE
  5
891
  8
0
 62
     7
 10
126.78
 20
189.38900000000001
 30
0.0
 11
138.1989999999999
 21
189.38900000000001
 31
0.0
  0
LINE
  5
892
  8
0
 62
     7
 10
140.959
 20
189.15599999999989
 30
0.0
 11
138.292
 21
189.15599999999989
 31
0.0
  0
LINE
  5
893
  8
0
 62
     7
 10
140.9499999999999
 20
188.459
 30
0.0
 11
138.292
 21
188.459
 31
0.0
  0
LINE
  5
894
  8
0
 62
     7
 10
126.78
 20
188.226
 30
0.0
 11
138.1989999999999
 21
188.226
 31
0.0
  0
LINE
  5
895
  8
0
 62
     7
 10
140.93700000000001
 20
181.749
 30
0.0
 11
151.68999999999991
 21
181.749
 31
0.0
  0
LINE
  5
896
  8
0
 62
     7
 10
151.68999999999991
 20
181.5979999999999
 30
0.0
 11
140.93700000000001
 21
181.5979999999999
 31
0.0
  0
LINE
  5
897
  8
0
 62
     7
 10
126.6639999999999
 20
188.34200000000001
 30
0.0
 11
126.6639999999999
 21
189.273
 31
0.0
  0
LINE
  5
898
  8
0
 62
     7
 10
126.78
 20
188.226
 30
0.0
 11
126.78
 21
189.38900000000001
 31
0.0
  0
LINE
  5
899
  8
0
 62
     7
 10
138.1989999999999
 20
189.38900000000001
 30
0.0
 11
138.1989999999999
 21
188.226
 31
0.0
  0
LINE
  5
89A
  8
0
 62
     7
 10
138.292
 20
189.29599999999999
 30
0.0
 11
138.292
 21
188.31899999999999
 31
0.0
  0
LINE
  5
89B
  8
0
 62
     7
 10
140.93999999999991
 20
192.3949999999999
 30
0.0
 11
140.93999999999991
 21
193.53399999999999
 31
0.0
  0
LINE
  5
89C
  8
0
 62
     7
 10
140.93700000000001
 20
181.749
 30
0.0
 11
140.93999999999991
 21
188.23799999999989
 31
0.0
  0
LINE
  5
89D
  8
0
 62
     7
 10
140.93700000000001
 20
166.94399999999999
 30
0.0
 11
140.93999999999991
 21
146.43000000000001
 31
0.0
  0
LINE
  5
89E
  8
0
 62
     7
 10
140.93700000000001
 20
181.5979999999999
 30
0.0
 11
140.93700000000001
 21
172.208
 31
0.0
  0
LINE
  5
89F
  8
0
 62
     7
 10
140.959
 20
191.95299999999989
 30
0.0
 11
140.959
 21
188.68000000000001
 31
0.0
  0
LINE
  5
8A0
  8
0
 62
     7
 10
151.66699999999989
 20
183.65599999999989
 30
0.0
 11
151.66699999999989
 21
183.00499999999991
 31
0.0
  0
LINE
  5
8A1
  8
0
 62
     7
 10
151.68999999999991
 20
183.91200000000001
 30
0.0
 11
151.68999999999991
 21
193.53399999999999
 31
0.0
  0
LINE
  5
8A2
  8
0
 62
     7
 10
151.68999999999991
 20
181.749
 30
0.0
 11
151.68999999999991
 21
182.749
 31
0.0
  0
LINE
  5
8A3
  8
0
  6
AIGENLINE001
 62
     7
 10
146.31499999999991
 20
195.185
 30
0.0
 11
146.31499999999991
 21
129.559
 31
0.0
  0
LINE
  5
8A4
  8
0
 62
     7
 10
151.68999999999991
 20
181.5979999999999
 30
0.0
 11
151.68999999999991
 21
153.1879999999999
 31
0.0
  0
LINE
  5
8A5
  8
0
 62
     7
 10
151.68999999999991
 20
151.9379999999999
 30
0.0
 11
151.68999999999991
 21
146.43000000000001
 31
0.0
  0
LINE
  5
8A6
  8
0
 62
     7
 10
151.68999999999991
 20
146.43000000000001
 30
0.0
 11
140.93999999999991
 21
146.43000000000001
 31
0.0
  0
LINE
  5
8A7
  8
0
 62
     7
 10
151.5739999999999
 20
146.3129999999999
 30
0.0
 11
141.05600000000001
 21
146.3129999999999
 31
0.0
  0
LINE
  5
8A8
  8
0
 62
     7
 10
154.065
 20
145.56299999999999
 30
0.0
 11
161.49199999999999
 21
145.56299999999999
 31
0.0
  0
LINE
  5
8A9
  8
0
  6
AIGENLINE001
 62
     7
 10
115.78100000000001
 20
176.74799999999991
 30
0.0
 11
114.3589999999999
 21
171.60599999999991
 31
0.0
  0
LINE
  5
8AA
  8
0
 62
     7
 10
115.0649999999999
 20
173.09700000000001
 30
0.0
 11
115.0649999999999
 21
156.60299999999989
 31
0.0
  0
LINE
  5
8AB
  8
0
 62
     7
 10
94.201899999999995
 20
197.81399999999999
 30
0.0
 11
126.81999999999989
 21
197.81399999999999
 31
0.0
  0
LINE
  5
8AC
  8
0
 62
     7
 10
105.77799999999991
 20
173.44399999999999
 30
0.0
 11
115.88799999999991
 21
173.44399999999999
 31
0.0
  0
LINE
  5
8AD
  8
0
 62
     7
 10
99.989900000000006
 20
174.06399999999999
 30
0.0
 11
113.7679999999999
 21
174.06399999999999
 31
0.0
  0
LINE
  5
8AE
  8
0
 62
     7
 10
94.216399999999993
 20
145.56299999999999
 30
0.0
 11
138.56399999999991
 21
145.56299999999999
 31
0.0
  0
LINE
  5
8AF
  8
0
 62
     7
 10
152.08799999999999
 20
193.8129999999999
 30
0.0
 11
161.2949999999999
 21
193.8129999999999
 31
0.0
  0
LINE
  5
8B0
  8
0
 62
     7
 10
126.685
 20
85.531899999999979
 30
0.0
 11
126.685
 21
93.796099999999996
 31
0.0
  0
LINE
  5
8B1
  8
0
 62
     7
 10
130.81
 20
85.517499999999998
 30
0.0
 11
130.81
 21
93.796099999999996
 31
0.0
  0
LINE
  5
8B2
  8
0
 62
     7
 10
94.323899999999995
 20
147.77500000000001
 30
0.0
 11
94.916300000000007
 21
145.56299999999999
 31
0.0
  0
LINE
  5
8B3
  8
0
 62
     7
 10
94.916300000000007
 20
145.56299999999999
 30
0.0
 11
95.508799999999994
 21
147.77500000000001
 31
0.0
  0
LINE
  5
8B4
  8
0
 62
     7
 10
95.508799999999994
 20
147.77500000000001
 30
0.0
 11
94.323899999999995
 21
147.77500000000001
 31
0.0
  0
LINE
  5
8B5
  8
0
 62
     7
 10
95.494299999999996
 20
195.602
 30
0.0
 11
94.901799999999994
 21
197.81399999999999
 31
0.0
  0
LINE
  5
8B6
  8
0
 62
     7
 10
94.901799999999994
 20
197.81399999999999
 30
0.0
 11
94.309399999999997
 21
195.602
 31
0.0
  0
LINE
  5
8B7
  8
0
 62
     7
 10
94.309399999999997
 20
195.602
 30
0.0
 11
95.494299999999996
 21
195.602
 31
0.0
  0
LINE
  5
8B8
  8
0
 62
     7
 10
94.901799999999994
 20
145.56299999999999
 30
0.0
 11
94.901799999999994
 21
197.81399999999999
 31
0.0
  0
LINE
  5
8B9
  8
0
 62
     7
 10
159.57099999999991
 20
147.77500000000001
 30
0.0
 11
160.1639999999999
 21
145.56299999999999
 31
0.0
  0
LINE
  5
8BA
  8
0
 62
     7
 10
160.1639999999999
 20
145.56299999999999
 30
0.0
 11
160.756
 21
147.77500000000001
 31
0.0
  0
LINE
  5
8BB
  8
0
 62
     7
 10
160.756
 20
147.77500000000001
 30
0.0
 11
159.57099999999991
 21
147.77500000000001
 31
0.0
  0
LINE
  5
8BC
  8
0
 62
     7
 10
160.74199999999999
 20
191.60199999999989
 30
0.0
 11
160.149
 21
193.8129999999999
 31
0.0
  0
LINE
  5
8BD
  8
0
 62
     7
 10
160.149
 20
193.8129999999999
 30
0.0
 11
159.55699999999999
 21
191.60199999999989
 31
0.0
  0
LINE
  5
8BE
  8
0
 62
     7
 10
159.55699999999999
 20
191.60199999999989
 30
0.0
 11
160.74199999999999
 21
191.60199999999989
 31
0.0
  0
LINE
  5
8BF
  8
0
 62
     7
 10
160.149
 20
145.56299999999999
 30
0.0
 11
160.149
 21
192.5629999999999
 31
0.0
  0
LINE
  5
8C0
  8
0
 62
     7
 10
105.90000000000001
 20
147.77500000000001
 30
0.0
 11
106.492
 21
145.56299999999999
 31
0.0
  0
LINE
  5
8C1
  8
0
 62
     7
 10
106.492
 20
145.56299999999999
 30
0.0
 11
107.08499999999989
 21
147.77500000000001
 31
0.0
  0
LINE
  5
8C2
  8
0
 62
     7
 10
107.08499999999989
 20
147.77500000000001
 30
0.0
 11
105.90000000000001
 21
147.77500000000001
 31
0.0
  0
LINE
  5
8C3
  8
0
 62
     7
 10
107.06999999999989
 20
171.232
 30
0.0
 11
106.47799999999999
 21
173.44399999999999
 31
0.0
  0
LINE
  5
8C4
  8
0
 62
     7
 10
106.47799999999999
 20
173.44399999999999
 30
0.0
 11
105.88500000000001
 21
171.232
 31
0.0
  0
LINE
  5
8C5
  8
0
 62
     7
 10
105.88500000000001
 20
171.232
 30
0.0
 11
107.06999999999989
 21
171.232
 31
0.0
  0
LINE
  5
8C6
  8
0
 62
     7
 10
106.47799999999999
 20
145.56299999999999
 30
0.0
 11
106.47799999999999
 21
173.44399999999999
 31
0.0
  0
LINE
  5
8C7
  8
0
 62
     7
 10
100.11199999999999
 20
147.77500000000001
 30
0.0
 11
100.70399999999989
 21
145.56299999999999
 31
0.0
  0
LINE
  5
8C8
  8
0
 62
     7
 10
100.70399999999989
 20
145.56299999999999
 30
0.0
 11
101.297
 21
147.77500000000001
 31
0.0
  0
LINE
  5
8C9
  8
0
 62
     7
 10
101.297
 20
147.77500000000001
 30
0.0
 11
100.11199999999999
 21
147.77500000000001
 31
0.0
  0
LINE
  5
8CA
  8
0
 62
     7
 10
101.282
 20
171.852
 30
0.0
 11
100.6899999999999
 21
174.06399999999999
 31
0.0
  0
LINE
  5
8CB
  8
0
 62
     7
 10
100.6899999999999
 20
174.06399999999999
 30
0.0
 11
100.09699999999999
 21
171.852
 31
0.0
  0
LINE
  5
8CC
  8
0
 62
     7
 10
100.09699999999999
 20
171.852
 30
0.0
 11
101.282
 21
171.852
 31
0.0
  0
LINE
  5
8CD
  8
0
 62
     7
 10
100.6899999999999
 20
145.56299999999999
 30
0.0
 11
100.6899999999999
 21
174.06399999999999
 31
0.0
  0
LINE
  5
8CE
  8
0
 62
     7
 10
144.1039999999999
 20
156.72499999999999
 30
0.0
 11
146.31499999999991
 21
157.31700000000001
 31
0.0
  0
LINE
  5
8CF
  8
0
 62
     7
 10
146.31499999999991
 20
157.31700000000001
 30
0.0
 11
144.1039999999999
 21
157.90999999999991
 31
0.0
  0
LINE
  5
8D0
  8
0
 62
     7
 10
144.1039999999999
 20
157.90999999999991
 30
0.0
 11
144.1039999999999
 21
156.72499999999999
 31
0.0
  0
LINE
  5
8D1
  8
0
 62
     7
 10
117.277
 20
157.89500000000001
 30
0.0
 11
115.0649999999999
 21
157.30299999999991
 31
0.0
  0
LINE
  5
8D2
  8
0
 62
     7
 10
115.0649999999999
 20
157.30299999999991
 30
0.0
 11
117.277
 21
156.71000000000001
 31
0.0
  0
LINE
  5
8D3
  8
0
 62
     7
 10
117.277
 20
156.71000000000001
 30
0.0
 11
117.277
 21
157.89500000000001
 31
0.0
  0
LINE
  5
8D4
  8
0
 62
     7
 10
146.31499999999991
 20
157.30299999999991
 30
0.0
 11
115.0649999999999
 21
157.30299999999991
 31
0.0
  0
LINE
  5
8D5
  8
0
 62
     7
 10
110.572
 20
166.58000000000001
 30
0.0
 11
112.846
 21
166.31999999999991
 31
0.0
  0
LINE
  5
8D6
  8
0
 62
     7
 10
112.846
 20
166.31999999999991
 30
0.0
 11
111.006
 21
167.68199999999999
 31
0.0
  0
LINE
  5
8D7
  8
0
 62
     7
 10
111.006
 20
167.68199999999999
 30
0.0
 11
110.572
 21
166.58000000000001
 31
0.0
  0
LINE
  5
8D8
  8
0
 62
     7
 10
117.277
 20
166.58199999999999
 30
0.0
 11
115.0649999999999
 21
165.99000000000001
 31
0.0
  0
LINE
  5
8D9
  8
0
 62
     7
 10
115.0649999999999
 20
165.99000000000001
 30
0.0
 11
117.277
 21
165.39699999999999
 31
0.0
  0
LINE
  5
8DA
  8
0
 62
     7
 10
117.277
 20
165.39699999999999
 30
0.0
 11
117.277
 21
166.58199999999999
 31
0.0
  0
LINE
  5
8DB
  8
0
 62
     7
 10
118.721
 20
165.99000000000001
 30
0.0
 11
115.33499999999989
 21
165.99000000000001
 31
0.0
  0
ARC
  5
8DC
  8
0
 62
     7
 10
115.3542689999999
 20
175.57106200000001
 30
0.0
 40
9.5811960000000003
 50
233.33709500000001
 51
269.88652399999989
  0
LINE
  5
8DD
  8
0
 62
     7
 10
107.077
 20
143.352
 30
0.0
 11
106.485
 21
145.56299999999999
 31
0.0
  0
LINE
  5
8DE
  8
0
 62
     7
 10
106.485
 20
145.56299999999999
 30
0.0
 11
105.892
 21
143.352
 31
0.0
  0
LINE
  5
8DF
  8
0
 62
     7
 10
105.892
 20
143.352
 30
0.0
 11
107.077
 21
143.352
 31
0.0
  0
LINE
  5
8E0
  8
0
 62
     7
 10
105.907
 20
96.707499999999996
 30
0.0
 11
106.4989999999999
 21
94.496099999999984
 31
0.0
  0
LINE
  5
8E1
  8
0
 62
     7
 10
106.4989999999999
 20
94.496099999999984
 30
0.0
 11
107.092
 21
96.707499999999996
 31
0.0
  0
LINE
  5
8E2
  8
0
 62
     7
 10
107.092
 20
96.707499999999996
 30
0.0
 11
105.907
 21
96.707499999999996
 31
0.0
  0
LINE
  5
8E3
  8
0
 62
     7
 10
106.485
 20
145.56299999999999
 30
0.0
 11
106.485
 21
94.496099999999984
 31
0.0
  0
LINE
  5
8E4
  8
0
 62
     7
 10
125.526
 20
94.496099999999984
 30
0.0
 11
105.7849999999999
 21
94.496099999999984
 31
0.0
  0
LINE
  5
8E5
  8
0
 62
     7
 10
149.17699999999999
 20
70.562899999999999
 30
0.0
 11
160.90199999999999
 21
70.562899999999999
 31
0.0
  0
LINE
  5
8E6
  8
0
 62
     7
 10
160.7949999999999
 20
143.352
 30
0.0
 11
160.20199999999991
 21
145.56299999999999
 31
0.0
  0
LINE
  5
8E7
  8
0
 62
     7
 10
160.20199999999991
 20
145.56299999999999
 30
0.0
 11
159.61000000000001
 21
143.352
 31
0.0
  0
LINE
  5
8E8
  8
0
 62
     7
 10
159.61000000000001
 20
143.352
 30
0.0
 11
160.7949999999999
 21
143.352
 31
0.0
  0
LINE
  5
8E9
  8
0
 62
     7
 10
159.62399999999991
 20
72.774299999999997
 30
0.0
 11
160.21700000000001
 21
70.562899999999999
 31
0.0
  0
LINE
  5
8EA
  8
0
 62
     7
 10
160.21700000000001
 20
70.562899999999999
 30
0.0
 11
160.80899999999991
 21
72.774299999999997
 31
0.0
  0
LINE
  5
8EB
  8
0
 62
     7
 10
160.80899999999991
 20
72.774299999999997
 30
0.0
 11
159.62399999999991
 21
72.774299999999997
 31
0.0
  0
LINE
  5
8EC
  8
0
 62
     7
 10
160.20199999999991
 20
145.56299999999999
 30
0.0
 11
160.20199999999991
 21
70.562899999999999
 31
0.0
  0
LINE
  5
8ED
  8
0
 62
     7
 10
135.22200000000001
 20
143.352
 30
0.0
 11
134.62899999999991
 21
145.56299999999999
 31
0.0
  0
LINE
  5
8EE
  8
0
 62
     7
 10
134.62899999999991
 20
145.56299999999999
 30
0.0
 11
134.03700000000001
 21
143.352
 31
0.0
  0
LINE
  5
8EF
  8
0
 62
     7
 10
134.03700000000001
 20
143.352
 30
0.0
 11
135.22200000000001
 21
143.352
 31
0.0
  0
LINE
  5
8F0
  8
0
 62
     7
 10
134.05099999999999
 20
140.27500000000001
 30
0.0
 11
134.64400000000001
 21
138.0629999999999
 31
0.0
  0
LINE
  5
8F1
  8
0
 62
     7
 10
134.64400000000001
 20
138.0629999999999
 30
0.0
 11
135.23599999999999
 21
140.27500000000001
 31
0.0
  0
LINE
  5
8F2
  8
0
 62
     7
 10
135.23599999999999
 20
140.27500000000001
 30
0.0
 11
134.05099999999999
 21
140.27500000000001
 31
0.0
  0
LINE
  5
8F3
  8
0
 62
     7
 10
134.62899999999991
 20
145.56299999999999
 30
0.0
 11
134.62899999999991
 21
138.0629999999999
 31
0.0
  0
LINE
  5
8F4
  8
0
 62
     7
 10
139.732
 20
138.0629999999999
 30
0.0
 11
133.929
 21
138.0629999999999
 31
0.0
  0
LINE
  5
8F5
  8
0
 62
     7
 10
145.0149999999999
 20
84.212100000000007
 30
0.0
 11
147.22699999999989
 21
84.804699999999997
 31
0.0
  0
LINE
  5
8F6
  8
0
 62
     7
 10
147.22699999999989
 20
84.804699999999997
 30
0.0
 11
145.0149999999999
 21
85.397199999999998
 31
0.0
  0
LINE
  5
8F7
  8
0
 62
     7
 10
145.0149999999999
 20
85.397199999999998
 30
0.0
 11
145.0149999999999
 21
84.212100000000007
 31
0.0
  0
LINE
  5
8F8
  8
0
 62
     7
 10
150.6879999999999
 20
85.382800000000003
 30
0.0
 11
148.477
 21
84.790199999999999
 31
0.0
  0
LINE
  5
8F9
  8
0
 62
     7
 10
148.477
 20
84.790199999999999
 30
0.0
 11
150.6879999999999
 21
84.197599999999994
 31
0.0
  0
LINE
  5
8FA
  8
0
 62
     7
 10
150.6879999999999
 20
84.197599999999994
 30
0.0
 11
150.6879999999999
 21
85.382800000000003
 31
0.0
  0
LINE
  5
8FB
  8
0
 62
     7
 10
155.49700000000001
 20
84.790199999999999
 30
0.0
 11
142.62799999999999
 21
84.790199999999999
 31
0.0
  0
LINE
  5
8FC
  8
0
 62
     7
 10
133.02099999999999
 20
86.810100000000006
 30
0.0
 11
130.81
 21
86.217500000000001
 31
0.0
  0
LINE
  5
8FD
  8
0
 62
     7
 10
130.81
 20
86.217500000000001
 30
0.0
 11
133.02099999999999
 21
85.625600000000006
 31
0.0
  0
LINE
  5
8FE
  8
0
 62
     7
 10
133.02099999999999
 20
85.625600000000006
 30
0.0
 11
133.02099999999999
 21
86.810100000000006
 31
0.0
  0
LINE
  5
8FF
  8
0
 62
     7
 10
124.4739999999999
 20
85.639399999999995
 30
0.0
 11
126.685
 21
86.232000000000014
 31
0.0
  0
LINE
  5
900
  8
0
 62
     7
 10
126.685
 20
86.232000000000014
 30
0.0
 11
124.4739999999999
 21
86.824500000000015
 31
0.0
  0
LINE
  5
901
  8
0
 62
     7
 10
124.4739999999999
 20
86.824500000000015
 30
0.0
 11
124.4739999999999
 21
85.639399999999995
 31
0.0
  0
LINE
  5
902
  8
0
 62
     7
 10
117.35299999999989
 20
86.225099999999998
 30
0.0
 11
134.45599999999999
 21
86.225099999999998
 31
0.0
  0
LINE
  5
903
  8
0
 62
     7
 10
153.428
 20
248.39899999999989
 30
0.0
 11
159.215
 21
248.39899999999989
 31
0.0
  0
LINE
  5
904
  8
0
 62
     7
 10
142.077
 20
236.21000000000001
 30
0.0
 11
143.22099999999989
 21
238.19300000000001
 31
0.0
  0
LINE
  5
905
  8
0
 62
     7
 10
143.22099999999989
 20
238.19300000000001
 30
0.0
 11
141.23799999999989
 21
237.048
 31
0.0
  0
LINE
  5
906
  8
0
 62
     7
 10
141.23799999999989
 20
237.048
 30
0.0
 11
142.077
 21
236.21000000000001
 31
0.0
  0
LINE
  5
907
  8
0
 62
     7
 10
150.554
 20
246.363
 30
0.0
 11
149.40899999999991
 21
244.37999999999991
 31
0.0
  0
LINE
  5
908
  8
0
 62
     7
 10
149.40899999999991
 20
244.37999999999991
 30
0.0
 11
151.39199999999991
 21
245.52499999999989
 31
0.0
  0
LINE
  5
909
  8
0
 62
     7
 10
151.39199999999991
 20
245.52499999999989
 30
0.0
 11
150.554
 21
246.363
 31
0.0
  0
LINE
  5
90A
  8
0
 62
     7
 10
153.428
 20
248.39899999999989
 30
0.0
 11
139.24199999999999
 21
234.214
 31
0.0
  0
LINE
  5
90B
  8
0
  6
AIGENLINE001
 62
     7
 10
146.31499999999991
 20
247.60699999999991
 30
0.0
 11
146.31499999999991
 21
234.45500000000001
 31
0.0
  0
ARC
  5
90C
  8
0
 62
     7
 10
146.31533499999989
 20
241.28619399999991
 30
0.0
 40
4.3751269999999991
 50
0.002266
 51
90.002235999999996
  0
ARC
  5
90D
  8
0
 62
     7
 10
146.315337
 20
241.28653799999989
 30
0.0
 40
4.374782999999999
 50
90.002256000000017
 51
180.00226599999991
  0
ARC
  5
90E
  8
0
 62
     7
 10
146.31533499999989
 20
241.28619399999991
 30
0.0
 40
4.3747809999999987
 50
179.997714
 51
269.99776400000002
  0
ARC
  5
90F
  8
0
 62
     7
 10
146.31533499999989
 20
241.28654
 30
0.0
 40
4.3751269999999991
 50
269.99776400000002
 51
359.99773399999992
  0
LINE
  5
910
  8
0
  6
AIGENLINE001
 62
     7
 10
139.37700000000001
 20
241.28599999999989
 30
0.0
 11
153.09200000000001
 21
241.28599999999989
 31
0.0
  0
TEXT
  5
911
  8
_________2
 62
     7
 10
24.5868
 20
0.707627
 30
0.0
 40
3.9357000000000002
  1
（社）日本水道協会認証品
 41
0.5
  0
TEXT
  5
912
  8
_________2
 62
     7
 10
109.18000000000001
 20
24.226099999999999
 30
0.0
 40
3.9357000000000002
  1
オノ 湯水混合水栓
 41
0.5
  0
LINE
  5
913
  8
_________2
 62
     7
 10
205.30199999999999
 20
127.411
 30
0.0
 11
183.55099999999999
 21
127.411
 31
0.0
  0
LINE
  5
914
  8
_________2
 62
     7
 10
100.2999999999999
 20
-4.0910799999999998
 30
0.0
 11
100.2999999999999
 21
-21.070999999999991
 31
0.0
  0
LINE
  5
915
  8
_________2
 62
     7
 10
100.2999999999999
 20
275.93099999999993
 30
0.0
 11
100.2999999999999
 21
258.911
 31
0.0
  0
LINE
  5
916
  8
_________2
 62
     7
 10
17.049499999999998
 20
127.411
 30
0.0
 11
-4.7008599999999987
 21
127.411
 31
0.0
  0
LINE
  5
917
  8
_________2
 62
     7
 10
76.741
 20
29.8047
 30
0.0
 11
74.554699999999997
 21
29.8047
 31
0.0
  0
LINE
  5
918
  8
_________2
 62
     7
 10
77.233699999999999
 20
29.8047
 30
0.0
 11
76.981499999999997
 21
29.8047
 31
0.0
  0
LINE
  5
919
  8
_________2
 62
     7
 10
77.726299999999995
 20
29.8047
 30
0.0
 11
80.651200000000003
 21
29.8047
 31
0.0
  0
LINE
  5
91A
  8
_________2
 62
     7
 10
77.233699999999999
 20
29.8047
 30
0.0
 11
77.485900000000001
 21
29.8047
 31
0.0
  0
LINE
  5
91B
  8
_________2
 62
     7
 10
70.837500000000006
 20
29.8047
 30
0.0
 11
68.650499999999994
 21
29.8047
 31
0.0
  0
LINE
  5
91C
  8
_________2
 62
     7
 10
71.329400000000007
 20
29.8047
 30
0.0
 11
71.0779
 21
29.8047
 31
0.0
  0
LINE
  5
91D
  8
_________2
 62
     7
 10
71.329400000000007
 20
30.2974
 30
0.0
 11
71.329400000000007
 21
32.484400000000001
 31
0.0
  0
LINE
  5
91E
  8
_________2
 62
     7
 10
71.329400000000007
 20
29.8047
 30
0.0
 11
71.329400000000007
 21
30.057300000000001
 31
0.0
  0
LINE
  5
91F
  8
_________2
 62
     7
 10
71.822100000000006
 20
29.8047
 30
0.0
 11
74.009
 21
29.8047
 31
0.0
  0
LINE
  5
920
  8
_________2
 62
     7
 10
71.329400000000007
 20
29.8047
 30
0.0
 11
71.581599999999995
 21
29.8047
 31
0.0
  0
LINE
  5
921
  8
_________2
 62
     7
 10
71.329400000000007
 20
29.312799999999999
 30
0.0
 11
71.329400000000007
 21
27.126200000000001
 31
0.0
  0
LINE
  5
922
  8
_________2
 62
     7
 10
71.329400000000007
 20
29.8047
 30
0.0
 11
71.329400000000007
 21
29.5532
 31
0.0
  0
LINE
  5
923
  8
_________2
 62
     7
 10
75.040499999999994
 20
28.5852
 30
0.0
 11
80.218500000000006
 21
27.720400000000001
 31
0.0
  0
LINE
  5
924
  8
_________2
 62
     7
 10
75.040499999999994
 20
31.024699999999999
 30
0.0
 11
80.218500000000006
 21
31.8901
 31
0.0
  0
LINE
  5
925
  8
_________2
 62
     7
 10
80.218500000000006
 20
27.720400000000001
 30
0.0
 11
80.218500000000006
 21
31.8901
 31
0.0
  0
LINE
  5
926
  8
_________2
 62
     7
 10
75.040499999999994
 20
28.5852
 30
0.0
 11
75.040499999999994
 21
31.024699999999999
 31
0.0
  0
ARC
  5
927
  8
_________2
 62
     7
 10
71.282845999999992
 20
29.757801000000001
 30
0.0
 40
1.267714
 50
2.1220840000000001
 51
87.894083999999992
  0
ARC
  5
928
  8
_________2
 62
     7
 10
71.375985
 20
29.758545999999999
 30
0.0
 40
1.2669680000000001
 50
92.105782999999988
 51
177.91037
  0
ARC
  5
929
  8
_________2
 62
     7
 10
71.376357999999996
 20
29.851671
 30
0.0
 40
1.2673680000000001
 50
182.12203600000001
 51
267.877993
  0
ARC
  5
92A
  8
_________2
 62
     7
 10
71.282541000000009
 20
29.852347999999999
 30
0.0
 40
1.2680439999999991
 50
272.11916400000001
 51
357.84848499999993
  0
ARC
  5
92B
  8
_________2
 62
     7
 10
71.249061999999995
 20
29.724731999999989
 30
0.0
 40
2.1668310000000002
 50
2.1161439999999989
 51
87.874379000000005
  0
ARC
  5
92C
  8
_________2
 62
     7
 10
71.409099999999995
 20
29.726146
 30
0.0
 40
2.165392999999999
 50
92.108508999999998
 51
177.91986499999999
  0
ARC
  5
92D
  8
_________2
 62
     7
 10
71.409439000000006
 20
29.884751999999999
 30
0.0
 40
2.1657829999999998
 50
182.117133
 51
267.88289700000001
  0
ARC
  5
92E
  8
_________2
 62
     7
 10
71.249459000000002
 20
29.885429999999989
 30
0.0
 40
2.1664590000000001
 50
272.11546800000002
 51
357.86560400000002
  0
TEXT
  5
92F
  8
_________2
 62
     7
 10
104.605
 20
1.6794899999999999
 30
0.0
 40
3.0923400000000001
  1
図番
 41
0.5
  0
LINE
  5
930
  8
_________2
 62
     7
 10
103.5509999999999
 20
5.9087199999999989
 30
0.0
 11
183.55099999999999
 21
5.9087199999999989
 31
0.0
  0
TEXT
  5
931
  8
_________2
 62
     7
 10
104.605
 20
11.679299999999991
 30
0.0
 40
3.0923400000000001
  1
品番
 41
0.5
  0
TEXT
  5
932
  8
_________2
 62
     7
 10
104.605
 20
31.8184
 30
0.0
 40
3.0923400000000001
  1
名称
 41
0.5
  0
TEXT
  5
933
  8
_________2
 62
     7
 10
91.845058333333341
 20
26.822299999999998
 30
0.0
 40
3.6545800000000002
  1
mm
 41
0.5
 72
     1
 11
93.367800000000003
 21
26.822299999999998
 31
0.0
  0
TEXT
  5
934
  8
_________2
 62
     7
 10
85.643199999999993
 20
31.8184
 30
0.0
 40
3.0923400000000001
  1
単位
 41
0.5
  0
TEXT
  5
935
  8
_________2
 62
     7
 10
85.643199999999993
 20
19.410799999999991
 30
0.0
 40
3.0923400000000001
  1
尺度
 41
0.5
  0
TEXT
  5
936
  8
_________2
 62
     7
 10
90.548758666666686
 20
13.218199999999991
 30
0.0
 40
3.6545800000000002
  1
1 ： 4
 41
0.5
 72
     1
 11
93.959699999999998
 21
13.218199999999991
 31
0.0
  0
TEXT
  5
937
  8
_________2
 62
     7
 10
134.5306875
 20
9.1082000000000001
 30
0.0
 40
3.9357000000000002
  1
KW2151042R
 41
0.5
 72
     1
 11
143.55000000000001
 21
9.1082000000000001
 31
0.0
  0
TEXT
  5
938
  8
_________2
 62
     7
 10
134.5306875
 20
-0.8926299999999999
 30
0.0
 40
3.9357000000000002
  1
KW2151042R
 41
0.5
 72
     1
 11
143.55000000000001
 21
-0.8926299999999999
 31
0.0
  0
TEXT
  5
939
  8
_________2
 62
     7
 10
39.425300333333333
 20
13.603400000000001
 30
0.0
 40
3.6545800000000002
  1
早川
 41
0.5
 72
     1
 11
41.313499999999998
 21
13.603400000000001
 31
0.0
  0
TEXT
  5
93A
  8
_________2
 62
     7
 10
20.79039066666666
 20
13.603400000000001
 30
0.0
 40
3.6545800000000002
  1
麻生
 41
0.5
 72
     1
 11
22.7395
 21
13.603400000000001
 31
0.0
  0
TEXT
  5
93B
  8
_________2
 62
     7
 10
67.785799999999995
 20
13.218199999999991
 30
0.0
 40
3.6545800000000002
  1
14.01.14
 41
0.5
  0
TEXT
  5
93C
  8
_________2
 62
     7
 10
66.593100000000007
 20
19.410799999999991
 30
0.0
 40
3.0923400000000001
  1
日付
 41
0.5
  0
TEXT
  5
93D
  8
_________2
 62
     7
 10
29.639399999999998
 20
19.410799999999991
 30
0.0
 40
3.0923400000000001
  1
検図
 41
0.5
  0
TEXT
  5
93E
  8
_________2
 62
     7
 10
18.021100000000001
 20
5.21143
 30
0.0
 40
3.0923400000000001
  1
備考
 41
0.5
  0
TEXT
  5
93F
  8
_________2
 62
     7
 10
18.021100000000001
 20
19.410799999999991
 30
0.0
 40
3.0923400000000001
  1
製図
 41
0.5
  0
TEXT
  5
940
  8
_________2
 62
     7
 10
23.788465333333338
 20
27.936800000000002
 30
0.0
 40
4.4979399999999989
  1
セラトレーディング株式会社
 41
0.5
 72
     1
 11
41.180500000000002
 21
27.936800000000002
 31
0.0
  0
LINE
  5
941
  8
_________2
 62
     7
 10
183.55099999999999
 20
-4.0910799999999998
 30
0.0
 11
17.049499999999998
 21
-4.0910799999999998
 31
0.0
  0
LINE
  5
942
  8
_________2
 62
     7
 10
17.049499999999998
 20
-4.0910799999999998
 30
0.0
 11
17.049499999999998
 21
258.911
 31
0.0
  0
LINE
  5
943
  8
_________2
 62
     7
 10
17.049499999999998
 20
258.911
 30
0.0
 11
183.55099999999999
 21
258.911
 31
0.0
  0
LINE
  5
944
  8
_________2
 62
     7
 10
183.55099999999999
 20
258.911
 30
0.0
 11
183.55099999999999
 21
-4.0910799999999998
 31
0.0
  0
LINE
  5
945
  8
_________2
 62
     7
 10
65.549899999999994
 20
9.4092999999999982
 30
0.0
 11
65.549899999999994
 21
35.909100000000002
 31
0.0
  0
LINE
  5
946
  8
_________2
 62
     7
 10
84.549700000000016
 20
9.4092999999999982
 30
0.0
 11
84.549700000000016
 21
35.909100000000002
 31
0.0
  0
LINE
  5
947
  8
_________2
 62
     7
 10
103.5509999999999
 20
-4.0910799999999998
 30
0.0
 11
103.5509999999999
 21
35.909100000000002
 31
0.0
  0
LINE
  5
948
  8
_________2
 62
     7
 10
28.549299999999992
 20
9.4092999999999982
 30
0.0
 11
28.549299999999992
 21
23.409199999999998
 31
0.0
  0
LINE
  5
949
  8
_________2
 62
     7
 10
17.049499999999998
 20
9.4092999999999982
 30
0.0
 11
103.5509999999999
 21
9.4092999999999982
 31
0.0
  0
LINE
  5
94A
  8
_________2
 62
     7
 10
17.049499999999998
 20
23.409199999999998
 30
0.0
 11
103.5509999999999
 21
23.409199999999998
 31
0.0
  0
LINE
  5
94B
  8
_________2
 62
     7
 10
103.5509999999999
 20
15.9085
 30
0.0
 11
183.55099999999999
 21
15.9085
 31
0.0
  0
LINE
  5
94C
  8
_________2
 62
     7
 10
17.049499999999998
 20
35.909100000000002
 30
0.0
 11
183.55099999999999
 21
35.909100000000002
 31
0.0
  0
ENDSEC
  0
EOF
