  0
SECTION
  2
HEADER
  9
$ACADVER
  1
AC1009
  9
$INSBASE
 10
0.0
 20
0.0
 30
0.0
  9
$EXTMIN
 10
-104.794
 20
0.176045
 30
0.0
  9
$EXTMAX
 10
315.209
 20
297.178
 30
0.0
  9
$LIMMIN
 10
0.0
 20
0.0
  9
$LIMMAX
 10
12.0
 20
9.0
  9
$ORTHOMODE
 70
     0
  9
$REGENMODE
 70
     1
  9
$FILLMODE
 70
     1
  9
$QTEXTMODE
 70
     0
  9
$MIRRTEXT
 70
     1
  9
$DRAGMODE
 70
     2
  9
$LTSCALE
 40
1.0
  9
$OSMODE
 70
    37
  9
$ATTMODE
 70
     1
  9
$TEXTSIZE
 40
0.0
  9
$TRACEWID
 40
0.05
  9
$TEXTSTYLE
  7
STANDARD
  9
$CLAYER
  8
0
  9
$CELTYPE
  6
CONTINUOUS
  9
$CECOLOR
 62
   256
  9
$DIMSCALE
 40
1.0
  9
$DIMASZ
 40
0.18
  9
$DIMEXO
 40
0.0625
  9
$DIMDLI
 40
0.38
  9
$DIMRND
 40
0.0
  9
$DIMDLE
 40
0.0
  9
$DIMEXE
 40
0.18
  9
$DIMTP
 40
0.0
  9
$DIMTM
 40
0.0
  9
$DIMTXT
 40
0.18
  9
$DIMCEN
 40
0.09
  9
$DIMTSZ
 40
0.0
  9
$DIMTOL
 70
     0
  9
$DIMLIM
 70
     0
  9
$DIMTIH
 70
     1
  9
$DIMTOH
 70
     1
  9
$DIMSE1
 70
     0
  9
$DIMSE2
 70
     0
  9
$DIMTAD
 70
     0
  9
$DIMZIN
 70
     0
  9
$DIMBLK
  1

  9
$DIMASO
 70
     1
  9
$DIMSHO
 70
     1
  9
$DIMPOST
  1

  9
$DIMAPOST
  1

  9
$DIMALT
 70
     0
  9
$DIMALTD
 70
     2
  9
$DIMALTF
 40
25.399999999999999
  9
$DIMLFAC
 40
1.0
  9
$DIMTOFL
 70
     0
  9
$DIMTVP
 40
0.0
  9
$DIMTIX
 70
     0
  9
$DIMSOXD
 70
     0
  9
$DIMSAH
 70
     0
  9
$DIMBLK1
  1

  9
$DIMBLK2
  1

  9
$DIMSTYLE
  2
STANDARD
  9
$DIMCLRD
 70
     0
  9
$DIMCLRE
 70
     0
  9
$DIMCLRT
 70
     0
  9
$DIMTFAC
 40
1.0
  9
$DIMGAP
 40
0.09
  9
$LUNITS
 70
     2
  9
$LUPREC
 70
     4
  9
$SKETCHINC
 40
0.1
  9
$FILLETRAD
 40
0.0
  9
$AUNITS
 70
     0
  9
$AUPREC
 70
     0
  9
$MENU
  1
.
  9
$ELEVATION
 40
0.0
  9
$PELEVATION
 40
0.0
  9
$THICKNESS
 40
0.0
  9
$LIMCHECK
 70
     0
  9
$BLIPMODE
 70
     0
  9
$CHAMFERA
 40
0.0
  9
$CHAMFERB
 40
0.0
  9
$SKPOLY
 70
     0
  9
$TDCREATE
 40
2444972.375
  9
$TDUPDATE
 40
2459251.2067395598
  9
$TDINDWG
 40
0.0000709954
  9
$TDUSRTIMER
 40
0.0000709954
  9
$USRTIMER
 70
     1
  9
$ANGBASE
 50
0.0
  9
$ANGDIR
 70
     0
  9
$PDMODE
 70
     0
  9
$PDSIZE
 40
0.0
  9
$PLINEWID
 40
0.0
  9
$COORDS
 70
     1
  9
$SPLFRAME
 70
     0
  9
$SPLINETYPE
 70
     6
  9
$SPLINESEGS
 70
     8
  9
$ATTDIA
 70
     1
  9
$ATTREQ
 70
     1
  9
$HANDLING
 70
     1
  9
$HANDSEED
  5
91F
  9
$SURFTAB1
 70
     6
  9
$SURFTAB2
 70
     6
  9
$SURFTYPE
 70
     6
  9
$SURFU
 70
     6
  9
$SURFV
 70
     6
  9
$UCSNAME
  2

  9
$UCSORG
 10
0.0
 20
0.0
 30
0.0
  9
$UCSXDIR
 10
1.0
 20
0.0
 30
0.0
  9
$UCSYDIR
 10
0.0
 20
1.0
 30
0.0
  9
$PUCSNAME
  2

  9
$PUCSORG
 10
0.0
 20
0.0
 30
0.0
  9
$PUCSXDIR
 10
1.0
 20
0.0
 30
0.0
  9
$PUCSYDIR
 10
0.0
 20
1.0
 30
0.0
  9
$USERI1
 70
     0
  9
$USERI2
 70
     0
  9
$USERI3
 70
     0
  9
$USERI4
 70
     0
  9
$USERI5
 70
     0
  9
$USERR1
 40
0.0
  9
$USERR2
 40
0.0
  9
$USERR3
 40
0.0
  9
$USERR4
 40
0.0
  9
$USERR5
 40
0.0
  9
$WORLDVIEW
 70
     1
  9
$SHADEDGE
 70
     3
  9
$SHADEDIF
 70
    70
  9
$TILEMODE
 70
     1
  9
$MAXACTVP
 70
    48
  9
$PLIMCHECK
 70
     0
  9
$PEXTMIN
 10
1.0000000000000000E+020
 20
1.0000000000000000E+020
 30
1.0000000000000000E+020
  9
$PEXTMAX
 10
-1.0000000000000000E+020
 20
-1.0000000000000000E+020
 30
-1.0000000000000000E+020
  9
$PLIMMIN
 10
0.0
 20
0.0
  9
$PLIMMAX
 10
12.0
 20
9.0
  9
$UNITMODE
 70
     0
  9
$VISRETAIN
 70
     1
  9
$PLINEGEN
 70
     0
  9
$PSLTSCALE
 70
     1
  0
ENDSEC
  0
SECTION
  2
TABLES
  0
TABLE
  2
VPORT
 70
     1
  0
VPORT
  2
*ACTIVE
 70
     0
 10
0.0
 20
0.0
 11
1.0
 21
1.0
 12
159.5855372518389
 22
148.589
 13
0.0
 23
0.0
 14
1.0
 24
1.0
 15
0.0
 25
0.0
 16
0.0
 26
0.0
 36
1.0
 17
0.0
 27
0.0
 37
0.0
 40
257.34758213707039
 41
2.2294736842105261
 42
50.0
 43
0.0
 44
0.0
 50
0.0
 51
0.0
 71
     0
 72
   100
 73
     1
 74
     1
 75
     0
 76
     0
 77
     0
 78
     0
  0
ENDTAB
  0
TABLE
  2
LTYPE
 70
     3
  0
LTYPE
  2
CONTINUOUS
 70
     0
  3
Solid line
 72
    65
 73
     0
 40
0.0
  0
LTYPE
  2
AIGENLINE001
 70
     0
  3
generate AI->DXF Converter
 72
    65
 73
     6
 40
7.4083750000000004
 49
3.5278
 49
-0.776115
 49
0.776115
 49
-0.776115
 49
0.776115
 49
-0.776115
  0
LTYPE
  2
AIGENLINE002
 70
     0
  3
generate AI->DXF Converter
 72
    65
 73
     4
 40
5.8561449999999988
 49
3.5278
 49
-0.776115
 49
0.776115
 49
-0.776115
  0
ENDTAB
  0
TABLE
  2
LAYER
 70
     4
  0
LAYER
  2
0
 70
     0
 62
     7
  6
CONTINUOUS
  0
LAYER
  2
____
 70
     0
 62
     7
  6
CONTINUOUS
  0
LAYER
  2
_________1
 70
     0
 62
     7
  6
CONTINUOUS
  0
LAYER
  2
_________2
 70
     0
 62
     7
  6
CONTINUOUS
  0
ENDTAB
  0
TABLE
  2
STYLE
 70
     1
  0
STYLE
  2
STANDARD
 70
     0
 40
0.0
 41
0.0
 50
0.0
 71
     0
 42
0.0
  3
TXT
  4
EXTFONT.SHX
  0
ENDTAB
  0
TABLE
  2
VIEW
 70
     0
  0
ENDTAB
  0
TABLE
  2
UCS
 70
     0
  0
ENDTAB
  0
TABLE
  2
APPID
 70
     3
  0
APPID
  2
ACAD
 70
     0
  0
APPID
  2
ACAD_NAV_VCDISPLAY
 70
     0
  0
APPID
  2
ACAD_MLEADERVER
 70
     0
  0
ENDTAB
  0
TABLE
  2
DIMSTYLE
 70
     1
  0
DIMSTYLE
  2
STANDARD
 70
     0
  3

  4

  5

  6

  7

 40
1.0
 41
0.18
 42
0.0625
 43
0.38
 44
0.18
 45
0.0
 46
0.0
 47
0.0
 48
0.0
140
0.18
141
0.09
142
0.0
143
25.399999999999999
144
1.0
145
0.0
146
1.0
147
0.09
 71
     0
 72
     0
 73
     1
 74
     1
 75
     0
 76
     0
 77
     0
 78
     0
170
     0
171
     2
172
     0
173
     0
174
     0
175
     0
176
     0
177
     0
178
     0
  0
ENDTAB
  0
ENDSEC
  0
SECTION
  2
BLOCKS
  0
BLOCK
  8
0
  2
$MODEL_SPACE
 70
     0
 10
0.0
 20
0.0
 30
0.0
  3
$MODEL_SPACE
  1

  0
ENDBLK
  5
1A
  8
0
  0
BLOCK
 67
     1
  8
0
  2
$PAPER_SPACE
 70
     0
 10
0.0
 20
0.0
 30
0.0
  3
$PAPER_SPACE
  1

  0
ENDBLK
  5
17
 67
     1
  8
0
  0
BLOCK
  8
_________1
  2
AIGNBL0202003F
 70
     0
 10
0.0
 20
0.0
 30
0.0
  3
AIGNBL0202003F
  1

  0
ARC
  5
27
  8
_________1
  6
AIGENLINE001
 62
     7
 10
62.467162999999999
 20
211.26088100000001
 30
0.0
 40
0.104086
 50
342.81645499999991
 51
68.314428000000007
  0
ENDBLK
  5
28
  8
_________1
  0
BLOCK
  8
_________1
  2
AIGNBL02020040
 70
     0
 10
0.0
 20
0.0
 30
0.0
  3
AIGNBL02020040
  1

  0
ARC
  5
2B
  8
_________1
  6
AIGENLINE001
 62
     7
 10
62.119181999999988
 20
210.279393
 30
0.0
 40
0.10442
 50
252.668611
 51
338.34773999999999
  0
ENDBLK
  5
2C
  8
_________1
  0
BLOCK
  8
_________1
  2
AIGNBL02020041
 70
     0
 10
0.0
 20
0.0
 30
0.0
  3
AIGNBL02020041
  1

  0
ARC
  5
2F
  8
_________1
  6
AIGENLINE001
 62
     7
 10
50.899113
 20
215.32816099999999
 30
0.0
 40
0.131016
 50
73.070257999999995
 51
157.86121
  0
ENDBLK
  5
30
  8
_________1
  0
BLOCK
  8
_________1
  2
AIGNBL02020042
 70
     0
 10
0.0
 20
0.0
 30
0.0
  3
AIGNBL02020042
  1

  0
ARC
  5
33
  8
_________1
  6
AIGENLINE001
 62
     7
 10
50.56959899999999
 20
214.39677499999999
 30
0.0
 40
0.131117
 50
162.915053
 51
248.12636699999999
  0
ENDBLK
  5
34
  8
_________1
  0
BLOCK
  8
_________1
  2
AIGNBL02020043
 70
     0
 10
0.0
 20
0.0
 30
0.0
  3
AIGNBL02020043
  1

  0
LINE
  5
37
  8
_________1
  6
AIGENLINE001
 62
     7
 10
50.9373
 20
215.453
 30
0.0
 11
62.505600000000001
 21
211.358
 31
0.0
  0
ENDBLK
  5
38
  8
_________1
  0
BLOCK
  8
_________1
  2
AIGNBL02020044
 70
     0
 10
0.0
 20
0.0
 30
0.0
  3
AIGNBL02020044
  1

  0
LINE
  5
3B
  8
_________1
  6
AIGENLINE001
 62
     7
 10
67.719099999999997
 20
209.24600000000001
 30
0.0
 11
62.516300000000001
 21
211.089
 31
0.0
  0
ENDBLK
  5
3C
  8
_________1
  0
BLOCK
  8
_________1
  2
AIGNBL02020045
 70
     0
 10
0.0
 20
0.0
 30
0.0
  3
AIGNBL02020045
  1

  0
LINE
  5
3F
  8
_________1
  6
AIGENLINE001
 62
     7
 10
67.759799999999998
 20
208.43700000000001
 30
0.0
 11
62.265500000000003
 21
210.38200000000001
 31
0.0
  0
ENDBLK
  5
40
  8
_________1
  0
BLOCK
  8
_________1
  2
AIGNBL02020046
 70
     0
 10
0.0
 20
0.0
 30
0.0
  3
AIGNBL02020046
  1

  0
LINE
  5
43
  8
_________1
  6
AIGENLINE001
 62
     7
 10
50.520699999999998
 20
214.27500000000001
 30
0.0
 11
62.08809999999999
 21
210.18000000000001
 31
0.0
  0
ENDBLK
  5
44
  8
_________1
  0
BLOCK
  8
_________1
  2
AIGNBL02020047
 70
     0
 10
0.0
 20
0.0
 30
0.0
  3
AIGNBL02020047
  1

  0
LINE
  5
47
  8
_________1
  6
AIGENLINE001
 62
     7
 10
50.444299999999998
 20
214.435
 30
0.0
 11
50.777799999999999
 21
215.37799999999999
 31
0.0
  0
ENDBLK
  5
48
  8
_________1
  0
BLOCK
  8
_________1
  2
AIGNBL02020048
 70
     0
 10
0.0
 20
0.0
 30
0.0
  3
AIGNBL02020048
  1

  0
LINE
  5
4B
  8
_________1
  6
AIGENLINE001
 62
     7
 10
50.520699999999998
 20
214.27500000000001
 30
0.0
 11
50.9373
 21
215.453
 31
0.0
  0
ENDBLK
  5
4C
  8
_________1
  0
BLOCK
  8
_________1
  2
AIGNBL02020049
 70
     0
 10
0.0
 20
0.0
 30
0.0
  3
AIGNBL02020049
  1

  0
LINE
  5
4F
  8
_________1
  6
AIGENLINE001
 62
     7
 10
62.08809999999999
 20
210.18000000000001
 30
0.0
 11
62.505600000000001
 21
211.358
 31
0.0
  0
ENDBLK
  5
50
  8
_________1
  0
BLOCK
  8
_________1
  2
AIGNBL0202004A
 70
     0
 10
0.0
 20
0.0
 30
0.0
  3
AIGNBL0202004A
  1

  0
LINE
  5
53
  8
_________1
  6
AIGENLINE001
 62
     7
 10
62.216200000000001
 20
210.24100000000001
 30
0.0
 11
62.566600000000001
 21
211.22999999999999
 31
0.0
  0
ENDBLK
  5
54
  8
_________1
  0
BLOCK
  8
_________1
  2
AIGNBL02010002
 70
     0
 10
0.0
 20
0.0
 30
0.0
  3
AIGNBL02010002
  1

  0
ARC
  5
57
  8
_________1
  6
AIGENLINE001
 62
     7
 10
-35.770358000000002
 20
256.82648
 30
0.0
 40
0.104101
 50
312.11570399999999
 51
37.836146999999997
  0
ENDBLK
  5
58
  8
_________1
  0
BLOCK
  8
_________1
  2
AIGNBL02010003
 70
     0
 10
0.0
 20
0.0
 30
0.0
  3
AIGNBL02010003
  1

  0
ARC
  5
5B
  8
_________1
  6
AIGENLINE001
 62
     7
 10
-36.439745000000009
 20
257.62437499999999
 30
0.0
 40
0.104018
 50
42.206666999999989
 51
127.871968
  0
ENDBLK
  5
5C
  8
_________1
  0
BLOCK
  8
_________1
  2
AIGNBL02010004
 70
     0
 10
0.0
 20
0.0
 30
0.0
  3
AIGNBL02010004
  1

  0
ARC
  5
5F
  8
_________1
  6
AIGENLINE001
 62
     7
 10
-45.180807000000001
 20
248.96424200000001
 30
0.0
 40
0.130307
 50
222.23761099999999
 51
307.82775800000002
  0
ENDBLK
  5
60
  8
_________1
  0
BLOCK
  8
_________1
  2
AIGNBL02010005
 70
     0
 10
0.0
 20
0.0
 30
0.0
  3
AIGNBL02010005
  1

  0
ARC
  5
63
  8
_________1
  6
AIGENLINE001
 62
     7
 10
-45.816856999999999
 20
249.722139
 30
0.0
 40
0.13015
 50
132.20672999999999
 51
217.728003
  0
ENDBLK
  5
64
  8
_________1
  0
BLOCK
  8
_________1
  2
AIGNBL02010006
 70
     0
 10
0.0
 20
0.0
 30
0.0
  3
AIGNBL02010006
  1

  0
LINE
  5
67
  8
_________1
  6
AIGENLINE001
 62
     7
 10
-45.277299999999997
 20
248.87700000000001
 30
0.0
 11
-45.919800000000002
 21
249.642
 31
0.0
  0
ENDBLK
  5
68
  8
_________1
  0
BLOCK
  8
_________1
  2
AIGNBL02010007
 70
     0
 10
0.0
 20
0.0
 30
0.0
  3
AIGNBL02010007
  1

  0
LINE
  5
6B
  8
_________1
  6
AIGENLINE001
 62
     7
 10
-45.100900000000003
 20
248.86099999999999
 30
0.0
 11
-45.904299999999999
 21
249.81899999999999
 31
0.0
  0
ENDBLK
  5
6C
  8
_________1
  0
BLOCK
  8
_________1
  2
AIGNBL02010008
 70
     0
 10
0.0
 20
0.0
 30
0.0
  3
AIGNBL02010008
  1

  0
LINE
  5
6F
  8
_________1
  6
AIGENLINE001
 62
     7
 10
-45.904299999999999
 20
249.81899999999999
 30
0.0
 11
-36.503599999999999
 21
257.7059999999999
 31
0.0
  0
ENDBLK
  5
70
  8
_________1
  0
BLOCK
  8
_________1
  2
AIGNBL02010009
 70
     0
 10
0.0
 20
0.0
 30
0.0
  3
AIGNBL02010009
  1

  0
LINE
  5
73
  8
_________1
  6
AIGENLINE001
 62
     7
 10
-32.044199999999996
 20
261.12200000000001
 30
0.0
 11
-36.266599999999997
 21
257.57900000000001
 31
0.0
  0
ENDBLK
  5
74
  8
_________1
  0
BLOCK
  8
_________1
  2
AIGNBL0201000A
 70
     0
 10
0.0
 20
0.0
 30
0.0
  3
AIGNBL0201000A
  1

  0
LINE
  5
77
  8
_________1
  6
AIGENLINE001
 62
     7
 10
-31.561900000000001
 20
260.548
 30
0.0
 11
-35.784300000000002
 21
257.005
 31
0.0
  0
ENDBLK
  5
78
  8
_________1
  0
BLOCK
  8
_________1
  2
AIGNBL0201000B
 70
     0
 10
0.0
 20
0.0
 30
0.0
  3
AIGNBL0201000B
  1

  0
LINE
  5
7B
  8
_________1
  6
AIGENLINE001
 62
     7
 10
-45.100900000000003
 20
248.86099999999999
 30
0.0
 11
-35.700499999999998
 21
256.74900000000002
 31
0.0
  0
ENDBLK
  5
7C
  8
_________1
  0
BLOCK
  8
_________1
  2
AIGNBL0201000C
 70
     0
 10
0.0
 20
0.0
 30
0.0
  3
AIGNBL0201000C
  1

  0
LINE
  5
7F
  8
_________1
  6
AIGENLINE001
 62
     7
 10
-35.700499999999998
 20
256.74900000000002
 30
0.0
 11
-36.503599999999999
 21
257.7059999999999
 31
0.0
  0
ENDBLK
  5
80
  8
_________1
  0
BLOCK
  8
_________1
  2
AIGNBL0201000D
 70
     0
 10
0.0
 20
0.0
 30
0.0
  3
AIGNBL0201000D
  1

  0
LINE
  5
83
  8
_________1
  6
AIGENLINE001
 62
     7
 10
-35.688099999999999
 20
256.88999999999999
 30
0.0
 11
-36.362699999999997
 21
257.69400000000002
 31
0.0
  0
ENDBLK
  5
84
  8
_________1
  0
BLOCK
  8
_________1
  2
AIGNBL0201000E
 70
     0
 10
0.0
 20
0.0
 30
0.0
  3
AIGNBL0201000E
  1

  0
LINE
  5
87
  8
_________1
  6
AIGENLINE002
 62
     7
 10
-27.6968
 20
264.28100000000001
 30
0.0
 11
-46.536799999999999
 21
248.47200000000001
 31
0.0
  0
LINE
  5
88
  8
_________1
 62
     7
 10
-46.968800000000002
 20
248.10900000000001
 30
0.0
 11
-49.774900000000002
 21
245.755
 31
0.0
  0
ENDBLK
  5
89
  8
_________1
  0
BLOCK
  8
_________1
  2
AIGNBL0201000F
 70
     0
 10
0.0
 20
0.0
 30
0.0
  3
AIGNBL0201000F
  1

  0
ARC
  5
8C
  8
_________1
  6
AIGENLINE001
 62
     7
 10
-19.623781000000001
 20
256.82647200000002
 30
0.0
 40
0.104029
 50
142.12693999999999
 51
227.921209
  0
ENDBLK
  5
8D
  8
_________1
  0
BLOCK
  8
_________1
  2
AIGNBL02010010
 70
     0
 10
0.0
 20
0.0
 30
0.0
  3
AIGNBL02010010
  1

  0
ARC
  5
90
  8
_________1
  6
AIGENLINE001
 62
     7
 10
-18.954298000000001
 20
257.62439999999998
 30
0.0
 40
0.103999
 50
52.118361999999998
 51
137.80296300000001
  0
ENDBLK
  5
91
  8
_________1
  0
BLOCK
  8
_________1
  2
AIGNBL02010011
 70
     0
 10
0.0
 20
0.0
 30
0.0
  3
AIGNBL02010011
  1

  0
ARC
  5
94
  8
_________1
  6
AIGENLINE001
 62
     7
 10
-10.213236
 20
248.964271
 30
0.0
 40
0.130327
 50
232.1807520000001
 51
317.753919
  0
ENDBLK
  5
95
  8
_________1
  0
BLOCK
  8
_________1
  2
AIGNBL02010012
 70
     0
 10
0.0
 20
0.0
 30
0.0
  3
AIGNBL02010012
  1

  0
ARC
  5
98
  8
_________1
  6
AIGENLINE001
 62
     7
 10
-9.5771829999999998
 20
249.722139
 30
0.0
 40
0.13015
 50
322.27203399999991
 51
47.793233000000001
  0
ENDBLK
  5
99
  8
_________1
  0
BLOCK
  8
_________1
  2
AIGNBL02010013
 70
     0
 10
0.0
 20
0.0
 30
0.0
  3
AIGNBL02010013
  1

  0
LINE
  5
9C
  8
_________1
  6
AIGENLINE001
 62
     7
 10
-10.1168
 20
248.87700000000001
 30
0.0
 11
-9.4742399999999982
 21
249.642
 31
0.0
  0
ENDBLK
  5
9D
  8
_________1
  0
BLOCK
  8
_________1
  2
AIGNBL02010014
 70
     0
 10
0.0
 20
0.0
 30
0.0
  3
AIGNBL02010014
  1

  0
LINE
  5
A0
  8
_________1
  6
AIGENLINE001
 62
     7
 10
-10.293100000000001
 20
248.86099999999999
 30
0.0
 11
-9.4897500000000008
 21
249.81899999999999
 31
0.0
  0
ENDBLK
  5
A1
  8
_________1
  0
BLOCK
  8
_________1
  2
AIGNBL02010015
 70
     0
 10
0.0
 20
0.0
 30
0.0
  3
AIGNBL02010015
  1

  0
LINE
  5
A4
  8
_________1
  6
AIGENLINE001
 62
     7
 10
-9.4897500000000008
 20
249.81899999999999
 30
0.0
 11
-18.8904
 21
257.7059999999999
 31
0.0
  0
ENDBLK
  5
A5
  8
_________1
  0
BLOCK
  8
_________1
  2
AIGNBL02010016
 70
     0
 10
0.0
 20
0.0
 30
0.0
  3
AIGNBL02010016
  1

  0
LINE
  5
A8
  8
_________1
  6
AIGENLINE001
 62
     7
 10
-23.349799999999998
 20
261.12200000000001
 30
0.0
 11
-19.127500000000001
 21
257.57900000000001
 31
0.0
  0
ENDBLK
  5
A9
  8
_________1
  0
BLOCK
  8
_________1
  2
AIGNBL02010017
 70
     0
 10
0.0
 20
0.0
 30
0.0
  3
AIGNBL02010017
  1

  0
LINE
  5
AC
  8
_________1
  6
AIGENLINE001
 62
     7
 10
-23.832100000000001
 20
260.548
 30
0.0
 11
-19.6098
 21
257.005
 31
0.0
  0
ENDBLK
  5
AD
  8
_________1
  0
BLOCK
  8
_________1
  2
AIGNBL02010018
 70
     0
 10
0.0
 20
0.0
 30
0.0
  3
AIGNBL02010018
  1

  0
LINE
  5
B0
  8
_________1
  6
AIGENLINE001
 62
     7
 10
-10.293100000000001
 20
248.86099999999999
 30
0.0
 11
-19.6935
 21
256.74900000000002
 31
0.0
  0
ENDBLK
  5
B1
  8
_________1
  0
BLOCK
  8
_________1
  2
AIGNBL02010019
 70
     0
 10
0.0
 20
0.0
 30
0.0
  3
AIGNBL02010019
  1

  0
LINE
  5
B4
  8
_________1
  6
AIGENLINE001
 62
     7
 10
-19.6935
 20
256.74900000000002
 30
0.0
 11
-18.8904
 21
257.7059999999999
 31
0.0
  0
ENDBLK
  5
B5
  8
_________1
  0
BLOCK
  8
_________1
  2
AIGNBL0201001A
 70
     0
 10
0.0
 20
0.0
 30
0.0
  3
AIGNBL0201001A
  1

  0
LINE
  5
B8
  8
_________1
  6
AIGENLINE001
 62
     7
 10
-19.7059
 20
256.88999999999999
 30
0.0
 11
-19.031300000000002
 21
257.69400000000002
 31
0.0
  0
ENDBLK
  5
B9
  8
_________1
  0
BLOCK
  8
_________1
  2
AIGNBL0201001B
 70
     0
 10
0.0
 20
0.0
 30
0.0
  3
AIGNBL0201001B
  1

  0
LINE
  5
BC
  8
_________1
  6
AIGENLINE002
 62
     7
 10
-27.697199999999999
 20
264.28100000000001
 30
0.0
 11
-8.8572199999999999
 21
248.47200000000001
 31
0.0
  0
LINE
  5
BD
  8
_________1
 62
     7
 10
-8.4252099999999999
 20
248.10900000000001
 30
0.0
 11
-5.619159999999999
 21
245.755
 31
0.0
  0
ENDBLK
  5
BE
  8
_________1
  0
BLOCK
  8
_________1
  2
AIGNBL0201001C
 70
     0
 10
0.0
 20
0.0
 30
0.0
  3
AIGNBL0201001C
  1

  0
LINE
  5
C1
  8
_________1
 62
     7
 10
-27.697199999999999
 20
221.20599999999999
 30
0.0
 11
-27.508700000000001
 21
221.208
 31
0.0
  0
ARC
  5
C2
  8
_________1
 62
     7
 10
-27.685378000000011
 20
229.61497
 30
0.0
 40
8.4086020000000001
 50
271.20366999999999
 51
272.48138799999998
  0
ARC
  5
C3
  8
_________1
 62
     7
 10
-27.662566000000002
 20
229.41015300000001
 30
0.0
 40
8.2030009999999987
 50
272.38413800000001
 51
273.68058300000001
  0
ARC
  5
C4
  8
_________1
 62
     7
 10
-27.667663999999998
 20
229.44970000000001
 30
0.0
 40
8.2427939999999982
 50
273.69829700000003
 51
274.96634999999998
  0
ARC
  5
C5
  8
_________1
 62
     7
 10
-27.597715999999998
 20
228.658007
 30
0.0
 40
7.4480179999999994
 50
274.9575200000001
 51
276.33174300000002
  0
ARC
  5
C6
  8
_________1
 62
     7
 10
-27.510736999999999
 20
227.88346100000001
 30
0.0
 40
6.6686039999999993
 50
276.32291600000002
 51
277.81429300000002
  0
ARC
  5
C7
  8
_________1
 62
     7
 10
-27.505963000000001
 20
227.86793700000001
 30
0.0
 40
6.6525759999999989
 50
277.79173500000002
 51
279.23486400000002
  0
ARC
  5
C8
  8
_________1
 62
     7
 10
-27.379719999999999
 20
227.00647499999999
 30
0.0
 40
5.7820359999999988
 50
279.37004200000001
 51
280.9655259999999
  0
ARC
  5
C9
  8
_________1
 62
     7
 10
-27.136621999999999
 20
225.77507800000001
 30
0.0
 40
4.5268829999999989
 50
280.9095200000001
 51
282.84789799999999
  0
ARC
  5
CA
  8
_________1
 62
     7
 10
-26.976078000000001
 20
225.108768
 30
0.0
 40
3.8415639999999991
 50
282.723186
 51
284.88738999999998
  0
ARC
  5
CB
  8
_________1
 62
     7
 10
-26.831699
 20
224.586152
 30
0.0
 40
3.2994019999999988
 50
284.796018
 51
287.15468199999998
  0
ARC
  5
CC
  8
_________1
 62
     7
 10
-26.734365000000011
 20
224.248884
 30
0.0
 40
2.9484369999999989
 50
287.28048999999999
 51
289.73753799999997
  0
ARC
  5
CD
  8
_________1
 62
     7
 10
-26.549019000000001
 20
223.70029199999999
 30
0.0
 40
2.3695049999999989
 50
289.99891400000001
 51
292.81776600000001
  0
ARC
  5
CE
  8
_________1
 62
     7
 10
-26.26102100000001
 20
223.00129999999999
 30
0.0
 40
1.613537999999999
 50
293.01697100000001
 51
296.78051299999998
  0
ARC
  5
CF
  8
_________1
 62
     7
 10
-26.033612000000002
 20
222.55091200000001
 30
0.0
 40
1.108995
 50
296.77615900000001
 51
301.71429699999999
  0
ARC
  5
D0
  8
_________1
 62
     7
 10
-25.869596000000001
 20
222.29911799999999
 30
0.0
 40
0.8086100000000001
 50
301.20688999999999
 51
307.26274100000001
  0
ARC
  5
D1
  8
_________1
 62
     7
 10
-25.744498
 20
222.13059000000001
 30
0.0
 40
0.598745
 50
307.499773
 51
314.72441900000001
  0
ARC
  5
D2
  8
_________1
 62
     7
 10
-25.621980000000001
 20
222.00142099999999
 30
0.0
 40
0.420773
 50
315.248313
 51
324.26144900000003
  0
ARC
  5
D3
  8
_________1
 62
     7
 10
-25.517928000000001
 20
221.92336
 30
0.0
 40
0.290732
 50
324.770962
 51
336.40405500000003
  0
ARC
  5
D4
  8
_________1
 62
     7
 10
-25.463529999999999
 20
221.89409900000001
 30
0.0
 40
0.229225
 50
337.66409199999998
 51
351.15028899999999
  0
ARC
  5
D5
  8
_________1
 62
     7
 10
-25.454809000000001
 20
221.88475800000001
 30
0.0
 40
0.219313
 50
353.21131500000001
 51
6.7886850000000001
  0
ARC
  5
D6
  8
_________1
 62
     7
 10
-25.460992999999998
 20
221.876126
 30
0.0
 40
0.226609
 50
8.7714960000000008
 51
22.414123
  0
ARC
  5
D7
  8
_________1
 62
     7
 10
-25.489488999999999
 20
221.862189
 30
0.0
 40
0.258274
 50
22.861951000000001
 51
35.963031999999998
  0
ARC
  5
D8
  8
_________1
 62
     7
 10
-25.550377999999998
 20
221.828701
 30
0.0
 40
0.327339
 50
34.448298000000001
 51
46.041939999999997
  0
ARC
  5
D9
  8
_________1
 62
     7
 10
-25.723493999999999
 20
221.662994
 30
0.0
 40
0.566869
 50
45.072158999999992
 51
52.703648999999992
  0
ARC
  5
DA
  8
_________1
 62
     7
 10
-25.852264999999999
 20
221.495868
 30
0.0
 40
0.777848
 50
52.617393000000007
 51
58.91297500000001
  0
ARC
  5
DB
  8
_________1
 62
     7
 10
-25.978926000000001
 20
221.316272
 30
0.0
 40
0.997175
 50
58.008628000000002
 51
63.500915999999997
  0
ARC
  5
DC
  8
_________1
 62
     7
 10
-26.201602999999999
 20
220.896231
 30
0.0
 40
1.472489999999999
 50
63.039158999999998
 51
67.163356999999991
  0
ARC
  5
DD
  8
_________1
 62
     7
 10
-26.371776000000001
 20
220.52130399999999
 30
0.0
 40
1.884107
 50
66.819022000000004
 51
70.364296999999993
  0
ARC
  5
DE
  8
_________1
 62
     7
 10
-26.578980999999999
 20
219.98478399999999
 30
0.0
 40
2.4591020000000001
 50
70.017949999999999
 51
72.964022
  0
ARC
  5
DF
  8
_________1
 62
     7
 10
-26.722628
 20
219.557603
 30
0.0
 40
2.9096479999999989
 50
72.723957999999996
 51
75.405148999999994
  0
ARC
  5
E0
  8
_________1
 62
     7
 10
-27.129176000000001
 20
218.049035
 30
0.0
 40
4.4719999999999986
 50
75.234778000000006
 51
77.089569999999995
  0
ARC
  5
E1
  8
_________1
 62
     7
 10
-27.023710999999999
 20
218.552471
 30
0.0
 40
3.9577379999999991
 50
76.949400999999995
 51
79.167076000000009
  0
ARC
  5
E2
  8
_________1
 62
     7
 10
-27.427423999999998
 20
216.46081899999999
 30
0.0
 40
6.0879940000000001
 50
79.135059000000012
 51
80.650069999999985
  0
ARC
  5
E3
  8
_________1
 62
     7
 10
-27.966916000000001
 20
212.82216
 30
0.0
 40
9.7661359999999995
 50
80.995187000000001
 51
81.978215000000006
  0
ARC
  5
E4
  8
_________1
 62
     7
 10
-27.542369999999998
 20
215.63095200000001
 30
0.0
 40
6.9256409999999997
 50
82.213383999999976
 51
83.649406999999997
  0
ARC
  5
E5
  8
_________1
 62
     7
 10
-27.767229
 20
213.396435
 30
0.0
 40
9.1713490000000011
 50
83.797372999999993
 51
84.913363999999987
  0
ARC
  5
E6
  8
_________1
 62
     7
 10
-27.495768999999999
 20
216.58882700000001
 30
0.0
 40
5.9674750000000003
 50
84.791886999999988
 51
86.543466000000009
  0
ARC
  5
E7
  8
_________1
 62
     7
 10
-27.604375000000001
 20
215.58021199999999
 30
0.0
 40
6.9809649999999994
 50
86.152803000000006
 51
87.676281000000003
  0
ARC
  5
E8
  8
_________1
 62
     7
 10
-27.637968999999998
 20
215.424565
 30
0.0
 40
7.137897999999999
 50
87.457504999999983
 51
88.962654000000001
  0
ARC
  5
E9
  8
_________1
 62
     7
 10
-27.695409000000001
 20
214.134862
 30
0.0
 40
8.4284990000000004
 50
88.730968999999973
 51
90.012116000000006
  0
ENDBLK
  5
EA
  8
_________1
  0
BLOCK
  8
_________1
  2
AIGNBL0201001D
 70
     0
 10
0.0
 20
0.0
 30
0.0
  3
AIGNBL0201001D
  1

  0
ARC
  5
ED
  8
_________1
 62
     7
 10
-27.698668000000001
 20
214.10673499999999
 30
0.0
 40
8.4566259999999982
 50
89.989994999999993
 51
91.266880000000015
  0
ARC
  5
EE
  8
_________1
 62
     7
 10
-27.66825
 20
212.60324399999999
 30
0.0
 40
9.9604219999999994
 50
91.250593000000009
 51
92.329207999999994
  0
ARC
  5
EF
  8
_________1
 62
     7
 10
-27.644629999999999
 20
212.883172
 30
0.0
 40
9.6817479999999971
 50
92.536197999999999
 51
93.634677000000011
  0
ARC
  5
F0
  8
_________1
 62
     7
 10
-27.477512999999998
 20
211.00619599999999
 30
0.0
 40
11.565642
 50
93.871430000000004
 51
94.776859999999985
  0
ARC
  5
F1
  8
_________1
 62
     7
 10
-27.89547
 20
216.121826
 30
0.0
 40
6.4329819999999991
 50
94.861493999999993
 51
96.449507999999994
  0
ARC
  5
F2
  8
_________1
 62
     7
 10
-27.877362999999999
 20
215.83537200000001
 30
0.0
 40
6.7196720000000001
 50
96.328563000000003
 51
97.808605000000014
  0
ARC
  5
F3
  8
_________1
 62
     7
 10
-27.422329000000001
 20
212.76651899999999
 30
0.0
 40
9.8219499999999993
 50
98.006160000000008
 51
98.985590000000002
  0
ARC
  5
F4
  8
_________1
 62
     7
 10
-27.940241
 20
216.32331500000001
 30
0.0
 40
6.2280699999999989
 50
99.390073999999984
 51
100.86788799999999
  0
ARC
  5
F5
  8
_________1
 62
     7
 10
-28.306477000000001
 20
218.24892800000001
 30
0.0
 40
4.2679419999999988
 50
100.913506
 51
102.969977
  0
ARC
  5
F6
  8
_________1
 62
     7
 10
-28.386292000000001
 20
218.53045700000001
 30
0.0
 40
3.9757089999999988
 50
102.759682
 51
104.850855
  0
ARC
  5
F7
  8
_________1
 62
     7
 10
-28.514610999999999
 20
219.015435
 30
0.0
 40
3.474041999999999
 50
104.85529099999999
 51
107.09536900000001
  0
ARC
  5
F8
  8
_________1
 62
     7
 10
-28.761662999999999
 20
219.824254
 30
0.0
 40
2.628334999999999
 50
107.13082300000001
 51
109.88716599999999
  0
ARC
  5
F9
  8
_________1
 62
     7
 10
-28.956613000000001
 20
220.35297399999999
 30
0.0
 40
2.0648330000000001
 50
109.79087699999999
 51
113.025763
  0
ARC
  5
FA
  8
_________1
 62
     7
 10
-29.213054
 20
220.93990500000001
 30
0.0
 40
1.4243719999999991
 50
112.766931
 51
117.030514
  0
ARC
  5
FB
  8
_________1
 62
     7
 10
-29.340257999999999
 20
221.17751100000001
 30
0.0
 40
1.1549240000000001
 50
116.766313
 51
121.522887
  0
ARC
  5
FC
  8
_________1
 62
     7
 10
-29.522402
 20
221.466385
 30
0.0
 40
0.8134579999999999
 50
121.22493299999999
 51
127.244659
  0
ARC
  5
FD
  8
_________1
 62
     7
 10
-29.630942999999998
 20
221.61988299999999
 30
0.0
 40
0.6256070000000001
 50
127.839561
 51
134.72983199999999
  0
ARC
  5
FE
  8
_________1
 62
     7
 10
-29.807646999999999
 20
221.79792599999999
 30
0.0
 40
0.374762
 50
134.69363300000001
 51
144.81609
  0
ARC
  5
FF
  8
_________1
 62
     7
 10
-29.901575000000001
 20
221.86031700000001
 30
0.0
 40
0.262062
 50
144.132047
 51
157.04293000000001
  0
ARC
  5
100
  8
_________1
 62
     7
 10
-29.942592000000001
 20
221.878694
 30
0.0
 40
0.217128
 50
157.286497
 51
171.52784500000001
  0
ARC
  5
101
  8
_________1
 62
     7
 10
-29.942775999999999
 20
221.88475800000001
 30
0.0
 40
0.216135
 50
173.1109909999999
 51
186.88900899999999
  0
ARC
  5
102
  8
_________1
 62
     7
 10
-29.932289000000001
 20
221.893698
 30
0.0
 40
0.227746
 50
188.80573699999999
 51
202.379921
  0
ARC
  5
103
  8
_________1
 62
     7
 10
-29.908048000000001
 20
221.90555000000001
 30
0.0
 40
0.25468
 50
202.769105
 51
216.05591799999999
  0
ARC
  5
104
  8
_________1
 62
     7
 10
-29.841657000000001
 20
221.942804
 30
0.0
 40
0.330401
 50
214.502229
 51
225.98804799999999
  0
ARC
  5
105
  8
_________1
 62
     7
 10
-29.683195000000001
 20
222.09242499999999
 30
0.0
 40
0.5482000000000001
 50
224.94203400000001
 51
232.83381399999999
  0
ARC
  5
106
  8
_________1
 62
     7
 10
-29.541487
 20
222.271694
 30
0.0
 40
0.7766810000000001
 50
232.492762
 51
238.77678700000001
  0
ARC
  5
107
  8
_________1
 62
     7
 10
-29.354344000000001
 20
222.566745
 30
0.0
 40
1.1260269999999999
 50
238.416042
 51
243.294758
  0
ARC
  5
108
  8
_________1
 62
     7
 10
-29.218454999999999
 20
222.81797599999999
 30
0.0
 40
1.411554
 50
242.950118
 51
247.25243699999999
  0
ARC
  5
109
  8
_________1
 62
     7
 10
-29.008735999999999
 20
223.28359800000001
 30
0.0
 40
1.9220969999999999
 50
246.85408899999999
 51
250.32927000000001
  0
ARC
  5
10A
  8
_________1
 62
     7
 10
-28.837664
 20
223.71823900000001
 30
0.0
 40
2.389003999999999
 50
249.974738
 51
253.007273
  0
ARC
  5
10B
  8
_________1
 62
     7
 10
-28.608623999999999
 20
224.42568499999999
 30
0.0
 40
3.132525999999999
 50
252.78250299999999
 51
255.26683700000009
  0
ARC
  5
10C
  8
_________1
 62
     7
 10
-28.453735999999999
 20
224.964583
 30
0.0
 40
3.6931169999999991
 50
255.06912800000001
 51
257.320335
  0
ARC
  5
10D
  8
_________1
 62
     7
 10
-28.329094999999999
 20
225.435959
 30
0.0
 40
4.1803970000000001
 50
257.07178299999998
 51
259.170838
  0
ARC
  5
10E
  8
_________1
 62
     7
 10
-28.130652000000001
 20
226.34975499999999
 30
0.0
 40
5.1152559999999987
 50
258.91070999999999
 51
260.71038399999998
  0
ARC
  5
10F
  8
_________1
 62
     7
 10
-27.85493300000001
 20
228.10695699999999
 30
0.0
 40
6.8939289999999991
 50
260.80640699999998
 51
262.201842
  0
ARC
  5
110
  8
_________1
 62
     7
 10
-27.817482999999999
 20
228.41704999999999
 30
0.0
 40
7.2062379999999999
 50
262.24136299999998
 51
263.62146799999999
  0
ARC
  5
111
  8
_________1
 62
     7
 10
-27.802862000000001
 20
228.58284900000001
 30
0.0
 40
7.3726359999999991
 50
263.65169400000002
 51
265.03730400000001
  0
ARC
  5
112
  8
_________1
 62
     7
 10
-27.787570000000009
 20
228.66282799999999
 30
0.0
 40
7.4536429999999987
 50
264.97337700000003
 51
266.378333
  0
ARC
  5
113
  8
_________1
 62
     7
 10
-27.735623
 20
229.33835199999999
 30
0.0
 40
8.1311039999999988
 50
266.31370500000003
 51
267.62161300000002
  0
ARC
  5
114
  8
_________1
 62
     7
 10
-27.712228
 20
229.514849
 30
0.0
 40
8.3084360000000004
 50
267.51092899999998
 51
268.8040529999999
  0
LINE
  5
115
  8
_________1
 62
     7
 10
-27.8856
 20
221.208
 30
0.0
 11
-27.697199999999999
 21
221.20599999999999
 31
0.0
  0
ENDBLK
  5
116
  8
_________1
  0
BLOCK
  8
_________1
  2
AIGNBL0201001E
 70
     0
 10
0.0
 20
0.0
 30
0.0
  3
AIGNBL0201001E
  1

  0
ARC
  5
119
  8
_________1
 62
     7
 10
-25.198772999999999
 20
222.124605
 30
0.0
 40
0.213233
 50
0.097752
 51
15.322424
  0
ARC
  5
11A
  8
_________1
 62
     7
 10
-25.221723999999998
 20
222.11963299999999
 30
0.0
 40
0.236685
 50
15.015305
 51
29.565854999999999
  0
ARC
  5
11B
  8
_________1
 62
     7
 10
-25.316371
 20
222.071358
 30
0.0
 40
0.34286
 50
28.778306000000011
 51
39.917962000000003
  0
ARC
  5
11C
  8
_________1
 62
     7
 10
-25.430425
 20
221.97550799999999
 30
0.0
 40
0.4918420000000001
 50
39.955959
 51
48.748219999999989
  0
ARC
  5
11D
  8
_________1
 62
     7
 10
-25.548224000000001
 20
221.855209
 30
0.0
 40
0.6600229999999999
 50
47.945872999999992
 51
55.349409999999992
  0
ARC
  5
11E
  8
_________1
 62
     7
 10
-25.785236999999999
 20
221.515299
 30
0.0
 40
1.0744039999999999
 50
55.258126000000011
 51
60.382594999999981
  0
ARC
  5
11F
  8
_________1
 62
     7
 10
-25.901171000000001
 20
221.32894899999999
 30
0.0
 40
1.2937309999999991
 50
59.997668000000012
 51
64.718181999999999
  0
ARC
  5
120
  8
_________1
 62
     7
 10
-26.26920800000001
 20
220.54376099999999
 30
0.0
 40
2.160892
 50
64.785657
 51
67.917288999999997
  0
ARC
  5
121
  8
_________1
 62
     7
 10
-26.431204000000001
 20
220.12359799999999
 30
0.0
 40
2.6111459999999989
 50
68.089453000000006
 51
70.906426999999994
  0
ARC
  5
122
  8
_________1
 62
     7
 10
-26.670874999999999
 20
219.40397300000001
 30
0.0
 40
3.369591999999999
 50
71.057969999999983
 51
73.420190000000005
  0
ARC
  5
123
  8
_________1
 62
     7
 10
-26.740375
 20
219.159918
 30
0.0
 40
3.6233330000000001
 50
73.468114999999997
 51
75.824079999999995
  0
ARC
  5
124
  8
_________1
 62
     7
 10
-27.236219999999999
 20
217.19455099999999
 30
0.0
 40
5.6502840000000001
 50
75.829883999999993
 51
77.431421999999998
  0
ARC
  5
125
  8
_________1
 62
     7
 10
-27.106670999999999
 20
217.733723
 30
0.0
 40
5.0958500000000004
 50
77.533922000000018
 51
79.403939000000008
  0
ARC
  5
126
  8
_________1
 62
     7
 10
-27.469626000000002
 20
215.71321800000001
 30
0.0
 40
7.1486580000000002
 50
79.522328999999999
 51
80.920529000000002
  0
ARC
  5
127
  8
_________1
 62
     7
 10
-27.224231
 20
217.35879499999999
 30
0.0
 40
5.485002999999999
 50
80.739210999999983
 51
82.630520000000004
  0
ARC
  5
128
  8
_________1
 62
     7
 10
-27.477594
 20
215.63275100000001
 30
0.0
 40
7.229349
 50
82.393746999999991
 51
83.878850999999997
  0
ARC
  5
129
  8
_________1
 62
     7
 10
-27.547701
 20
215.09768
 30
0.0
 40
7.7688550000000003
 50
83.785539999999983
 51
85.202254000000011
  0
ARC
  5
12A
  8
_________1
 62
     7
 10
-27.65692700000001
 20
213.891728
 30
0.0
 40
8.9797210000000014
 50
85.151336000000001
 51
86.405529000000016
  0
ARC
  5
12B
  8
_________1
 62
     7
 10
-27.675148
 20
213.57952299999999
 30
0.0
 40
9.2924539999999993
 50
86.414094000000006
 51
87.643559999999994
  0
ARC
  5
12C
  8
_________1
 62
     7
 10
-27.691817
 20
213.1833
 30
0.0
 40
9.6890280000000004
 50
87.641407999999984
 51
88.833790000000008
  0
ARC
  5
12D
  8
_________1
 62
     7
 10
-27.713767000000001
 20
212.20954499999999
 30
0.0
 40
10.663027
 50
88.822359000000006
 51
89.91092900000001
  0
ENDBLK
  5
12E
  8
_________1
  0
BLOCK
  8
_________1
  2
AIGNBL0201001F
 70
     0
 10
0.0
 20
0.0
 30
0.0
  3
AIGNBL0201001F
  1

  0
ARC
  5
131
  8
_________1
 62
     7
 10
-27.698772999999999
 20
213.82089400000001
 30
0.0
 40
9.0516660000000009
 50
89.989989000000008
 51
91.274532999999977
  0
ARC
  5
132
  8
_________1
 62
     7
 10
-27.701360000000001
 20
213.15504899999999
 30
0.0
 40
9.7173039999999986
 50
91.171955999999994
 51
92.358838000000006
  0
ARC
  5
133
  8
_________1
 62
     7
 10
-27.713139999999999
 20
213.462052
 30
0.0
 40
9.4100770000000011
 50
92.364103999999983
 51
93.578202000000005
  0
ARC
  5
134
  8
_________1
 62
     7
 10
-27.726984999999999
 20
213.74984900000001
 30
0.0
 40
9.1219770000000011
 50
93.604230999999999
 51
94.838864999999984
  0
ARC
  5
135
  8
_________1
 62
     7
 10
-27.652699999999999
 20
213.06596999999999
 30
0.0
 40
9.8096990000000002
 50
94.934256999999988
 51
96.058224999999993
  0
ARC
  5
136
  8
_________1
 62
     7
 10
-27.602955999999999
 20
213.04219599999999
 30
0.0
 40
9.8387019999999996
 50
96.331679000000008
 51
97.420907999999983
  0
ARC
  5
137
  8
_________1
 62
     7
 10
-28.121914
 20
217.01647700000001
 30
0.0
 40
5.8306820000000004
 50
97.408117000000004
 51
99.190638000000007
  0
ARC
  5
138
  8
_________1
 62
     7
 10
-27.987247
 20
216.088189
 30
0.0
 40
6.768578999999999
 50
99.060884000000016
 51
100.534728
  0
ARC
  5
139
  8
_________1
 62
     7
 10
-27.719311999999999
 20
214.93037699999999
 30
0.0
 40
7.9560309999999994
 50
100.907298
 51
102.107446
  0
ARC
  5
13A
  8
_________1
 62
     7
 10
-28.108315000000001
 20
216.98335499999999
 30
0.0
 40
5.8673419999999989
 50
102.598184
 51
104.14046999999999
  0
ARC
  5
13B
  8
_________1
 62
     7
 10
-28.564091000000001
 20
218.84097600000001
 30
0.0
 40
3.9546800000000002
 50
104.312178
 51
106.465909
  0
ARC
  5
13C
  8
_________1
 62
     7
 10
-28.817844999999998
 20
219.69848200000001
 30
0.0
 40
3.0604169999999988
 50
106.46044999999999
 51
109.06135
  0
ARC
  5
13D
  8
_________1
 62
     7
 10
-28.875781
 20
219.88986199999999
 30
0.0
 40
2.8606199999999991
 50
109.216408
 51
111.787671
  0
ARC
  5
13E
  8
_________1
 62
     7
 10
-29.222642
 20
220.76633699999999
 30
0.0
 40
1.918013
 50
111.88435200000001
 51
115.412662
  0
ARC
  5
13F
  8
_________1
 62
     7
 10
-29.371901000000001
 20
221.091959
 30
0.0
 40
1.5598540000000001
 50
115.59334200000001
 51
119.51937599999999
  0
ARC
  5
140
  8
_________1
 62
     7
 10
-29.654916
 20
221.59130300000001
 30
0.0
 40
0.985884
 50
119.50539999999999
 51
125.07337699999999
  0
ARC
  5
141
  8
_________1
 62
     7
 10
-29.824991000000001
 20
221.82845499999999
 30
0.0
 40
0.6940720000000001
 50
124.832402
 51
131.872275
  0
ARC
  5
142
  8
_________1
 62
     7
 10
-29.960737000000002
 20
221.97235699999999
 30
0.0
 40
0.496336
 50
131.291642
 51
140.00413900000001
  0
ARC
  5
143
  8
_________1
 62
     7
 10
-30.048031000000002
 20
222.05086800000001
 30
0.0
 40
0.379021
 50
140.61486099999999
 51
150.68883
  0
ARC
  5
144
  8
_________1
 62
     7
 10
-30.148696000000001
 20
222.10980799999999
 30
0.0
 40
0.262398
 50
151.15033700000001
 51
164.26846399999999
  0
ARC
  5
145
  8
_________1
 62
     7
 10
-30.183284000000011
 20
222.12293600000001
 30
0.0
 40
0.225569
 50
165.096137
 51
179.48364699999999
  0
ENDBLK
  5
146
  8
_________1
  0
BLOCK
  8
_________1
  2
AIGNBL02010020
 70
     0
 10
0.0
 20
0.0
 30
0.0
  3
AIGNBL02010020
  1

  0
LINE
  5
149
  8
_________1
 62
     7
 10
-27.697199999999999
 20
221.197
 30
0.0
 11
-27.506699999999999
 21
221.19900000000001
 31
0.0
  0
ARC
  5
14A
  8
_________1
 62
     7
 10
-27.683976000000001
 20
230.00277500000001
 30
0.0
 40
8.8059829999999994
 50
271.15367400000008
 51
272.38713999999999
  0
ARC
  5
14B
  8
_________1
 62
     7
 10
-27.669250999999999
 20
229.75581199999999
 30
0.0
 40
8.5586219999999997
 50
272.35751199999999
 51
273.61851100000001
  0
ARC
  5
14C
  8
_________1
 62
     7
 10
-27.751995000000001
 20
230.80524399999999
 30
0.0
 40
9.6111979999999981
 50
273.715957
 51
274.81984899999998
  0
ARC
  5
14D
  8
_________1
 62
     7
 10
-27.764666999999999
 20
230.57875300000001
 30
0.0
 40
9.3866259999999997
 50
275.01308899999998
 51
276.12870299999997
  0
ARC
  5
14E
  8
_________1
 62
     7
 10
-27.691337000000001
 20
229.62318099999999
 30
0.0
 40
8.4287369999999981
 50
276.32656700000001
 51
277.53917999999999
  0
ARC
  5
14F
  8
_________1
 62
     7
 10
-27.535542
 20
228.298529
 30
0.0
 40
7.095121999999999
 50
277.695448
 51
279.095958
  0
ARC
  5
150
  8
_________1
 62
     7
 10
-27.361663
 20
227.152535
 30
0.0
 40
5.936056999999999
 50
279.18742099999997
 51
280.81499300000002
  0
ARC
  5
151
  8
_________1
 62
     7
 10
-27.266235999999999
 20
226.65008800000001
 30
0.0
 40
5.4246299999999996
 50
280.820763
 51
282.537487
  0
ARC
  5
152
  8
_________1
 62
     7
 10
-27.194504999999999
 20
226.23317
 30
0.0
 40
5.0021230000000001
 50
282.77210600000001
 51
284.56721700000003
  0
ARC
  5
153
  8
_________1
 62
     7
 10
-26.865770000000001
 20
224.947845
 30
0.0
 40
3.67544
 50
284.64691299999998
 51
286.991491
  0
ARC
  5
154
  8
_________1
 62
     7
 10
-26.690079999999998
 20
224.36013600000001
 30
0.0
 40
3.062044999999999
 50
287.06118600000002
 51
289.765534
  0
ARC
  5
155
  8
_________1
 62
     7
 10
-26.488147999999999
 20
223.775406
 30
0.0
 40
2.4434900000000002
 50
289.94619699999998
 51
293.17784499999999
  0
ARC
  5
156
  8
_________1
 62
     7
 10
-26.238140000000001
 20
223.19481400000001
 30
0.0
 40
1.8113589999999991
 50
293.13621799999999
 51
297.32945899999999
  0
ARC
  5
157
  8
_________1
 62
     7
 10
-26.037882
 20
222.80134799999999
 30
0.0
 40
1.3698749999999991
 50
297.44391200000001
 51
302.70756
  0
ARC
  5
158
  8
_________1
 62
     7
 10
-25.807600000000001
 20
222.450063
 30
0.0
 40
0.9498639999999999
 50
302.46922000000001
 51
309.51090299999998
  0
ARC
  5
159
  8
_________1
 62
     7
 10
-25.715060999999999
 20
222.33636100000001
 30
0.0
 40
0.8032679999999999
 50
309.57841000000002
 51
316.86739399999999
  0
ARC
  5
15A
  8
_________1
 62
     7
 10
-25.643242000000001
 20
222.26088100000001
 30
0.0
 40
0.6992770000000002
 50
317.3574680000001
 51
324.62759599999998
  0
ARC
  5
15B
  8
_________1
 62
     7
 10
-25.517032
 20
222.16135800000001
 30
0.0
 40
0.5388130000000001
 50
325.48794299999997
 51
333.83616000000001
  0
ARC
  5
15C
  8
_________1
 62
     7
 10
-25.489281999999999
 20
222.14795899999999
 30
0.0
 40
0.507998
 50
333.81243799999999
 51
341.97657199999998
  0
ARC
  5
15D
  8
_________1
 62
     7
 10
-25.427451000000001
 20
222.123538
 30
0.0
 40
0.4416640000000001
 50
342.50744400000002
 51
351.43879099999998
  0
ARC
  5
15E
  8
_________1
 62
     7
 10
-25.421289999999999
 20
222.12469999999999
 30
0.0
 40
0.4357490000000001
 50
351.16715699999997
 51
0.035433
  0
ENDBLK
  5
15F
  8
_________1
  0
BLOCK
  8
_________1
  2
AIGNBL02010021
 70
     0
 10
0.0
 20
0.0
 30
0.0
  3
AIGNBL02010021
  1

  0
ARC
  5
162
  8
_________1
 62
     7
 10
-29.949307000000001
 20
222.124199
 30
0.0
 40
0.4595380000000001
 50
179.903898
 51
188.30909500000001
  0
ARC
  5
163
  8
_________1
 62
     7
 10
-29.893075
 20
222.142472
 30
0.0
 40
0.517916
 50
189.41045399999999
 51
197.07062199999999
  0
ARC
  5
164
  8
_________1
 62
     7
 10
-29.910356
 20
222.14607799999999
 30
0.0
 40
0.5025270000000001
 50
198.04213100000001
 51
206.36486099999999
  0
ARC
  5
165
  8
_________1
 62
     7
 10
-29.885126
 20
222.15710300000001
 30
0.0
 40
0.5300310000000001
 50
206.221484
 51
214.81049999999999
  0
ARC
  5
166
  8
_________1
 62
     7
 10
-29.857999
 20
222.17309399999999
 30
0.0
 40
0.561437
 50
214.57004900000001
 51
223.713977
  0
ARC
  5
167
  8
_________1
 62
     7
 10
-29.683205000000001
 20
222.33220900000001
 30
0.0
 40
0.7977560000000001
 50
223.29852399999999
 51
230.744235
  0
ARC
  5
168
  8
_________1
 62
     7
 10
-29.60966500000001
 20
222.418823
 30
0.0
 40
0.9113610000000001
 50
230.60992999999999
 51
238.00229100000001
  0
ARC
  5
169
  8
_________1
 62
     7
 10
-29.380082999999999
 20
222.75733099999999
 30
0.0
 40
1.320181
 50
237.33687599999999
 51
242.82473300000001
  0
ARC
  5
16A
  8
_________1
 62
     7
 10
-29.172229999999999
 20
223.16208800000001
 30
0.0
 40
1.775188
 50
242.82311200000001
 51
247.107181
  0
ARC
  5
16B
  8
_________1
 62
     7
 10
-28.984099000000001
 20
223.58230900000001
 30
0.0
 40
2.2355160000000001
 50
246.85491200000001
 51
250.39228499999999
  0
ARC
  5
16C
  8
_________1
 62
     7
 10
-28.747582999999999
 20
224.24335300000001
 30
0.0
 40
2.9375969999999998
 50
250.37338799999989
 51
253.18915699999991
  0
ARC
  5
16D
  8
_________1
 62
     7
 10
-28.630886
 20
224.57928000000001
 30
0.0
 40
3.292951
 50
252.93590900000001
 51
255.55204699999999
  0
ARC
  5
16E
  8
_________1
 62
     7
 10
-28.436354999999999
 20
225.23882399999999
 30
0.0
 40
3.9802430000000002
 50
255.20912100000001
 51
257.45493399999998
  0
ARC
  5
16F
  8
_________1
 62
     7
 10
-28.091003000000011
 20
226.83411599999999
 30
0.0
 40
5.612468999999999
 50
257.55092000000002
 51
259.20982900000001
  0
ARC
  5
170
  8
_________1
 62
     7
 10
-28.150155000000002
 20
226.50991300000001
 30
0.0
 40
5.2829249999999988
 50
259.18175300000001
 51
261.00623300000001
  0
ARC
  5
171
  8
_________1
 62
     7
 10
-27.918281
 20
227.89782299999999
 30
0.0
 40
6.6900300000000001
 50
260.90298999999999
 51
262.38517300000001
  0
ARC
  5
172
  8
_________1
 62
     7
 10
-27.898852000000002
 20
228.02091100000001
 30
0.0
 40
6.8146079999999989
 50
262.36039599999998
 51
263.85719799999998
  0
ARC
  5
173
  8
_________1
 62
     7
 10
-27.780826000000001
 20
229.02726100000001
 30
0.0
 40
7.8278149999999993
 50
263.78647799999999
 51
265.11661000000009
  0
ARC
  5
174
  8
_________1
 62
     7
 10
-27.786681999999999
 20
228.82272599999999
 30
0.0
 40
7.6235330000000001
 50
265.0296009999999
 51
266.41873799999991
  0
ARC
  5
175
  8
_________1
 62
     7
 10
-27.64676
 20
231.34368499999999
 30
0.0
 40
10.148325
 50
266.51935400000002
 51
267.57693799999998
  0
ARC
  5
176
  8
_________1
 62
     7
 10
-27.708105
 20
229.759908
 30
0.0
 40
8.5633719999999993
 50
267.53901000000002
 51
268.80285099999998
  0
LINE
  5
177
  8
_________1
 62
     7
 10
-27.887
 20
221.19800000000001
 30
0.0
 11
-27.697199999999999
 21
221.197
 31
0.0
  0
ENDBLK
  5
178
  8
_________1
  0
BLOCK
  8
_________1
  2
AIGNBL02010022
 70
     0
 10
0.0
 20
0.0
 30
0.0
  3
AIGNBL02010022
  1

  0
ARC
  5
17B
  8
_________1
 62
     7
 10
67.849768000000012
 20
184.66974500000001
 30
0.0
 40
0.086965
 50
146.38830200000001
 51
151.68415200000001
  0
ARC
  5
17C
  8
_________1
 62
     7
 10
68.368090000000009
 20
184.394711
 30
0.0
 40
0.6733690000000001
 50
149.19152800000001
 51
151.31867700000001
  0
ARC
  5
17D
  8
_________1
 62
     7
 10
71.111221
 20
182.94246200000001
 30
0.0
 40
3.7764899999999999
 50
150.963911
 51
151.58379500000001
  0
ARC
  5
17E
  8
_________1
 62
     7
 10
70.054726000000002
 20
183.57119900000001
 30
0.0
 40
2.5478849999999991
 50
150.49416299999999
 51
151.79448099999999
  0
ARC
  5
17F
  8
_________1
 62
     7
 10
64.455128000000002
 20
186.67612700000001
 30
0.0
 40
3.8550930000000001
 50
331.32103599999999
 51
332.40684900000002
  0
ARC
  5
180
  8
_________1
 62
     7
 10
64.264125000000007
 20
186.81528299999999
 30
0.0
 40
4.0889749999999987
 50
331.918406
 51
333.16425199999998
  0
ARC
  5
181
  8
_________1
 62
     7
 10
61.803747999999999
 20
188.093582
 30
0.0
 40
6.8615130000000004
 50
332.9143049999999
 51
333.786585
  0
ARC
  5
182
  8
_________1
 62
     7
 10
65.30630699999999
 20
186.42526799999999
 30
0.0
 40
2.9826799999999989
 50
332.81839200000002
 51
335.0945779999999
  0
LINE
  5
183
  8
_________1
 62
     7
 10
68.011600000000001
 20
185.16900000000001
 30
0.0
 11
68.066699999999997
 21
185.28899999999999
 31
0.0
  0
ARC
  5
184
  8
_________1
 62
     7
 10
62.586365999999998
 20
187.70535000000001
 30
0.0
 40
5.9893859999999988
 50
336.207583
 51
337.57638400000002
  0
ARC
  5
185
  8
_________1
 62
     7
 10
64.799937
 20
186.83586
 30
0.0
 40
3.6117460000000001
 50
336.93193500000001
 51
339.36983800000002
  0
ARC
  5
186
  8
_________1
 62
     7
 10
62.315946999999987
 20
187.80370300000001
 30
0.0
 40
6.2775259999999991
 50
339.090687
 51
340.56801100000001
  0
ARC
  5
187
  8
_________1
 62
     7
 10
63.348250999999991
 20
187.454712
 30
0.0
 40
5.1879410000000004
 50
340.40983199999999
 51
342.27726799999999
  0
ARC
  5
188
  8
_________1
 62
     7
 10
62.326008999999999
 20
187.7406
 30
0.0
 40
6.2488159999999997
 50
342.63358899999997
 51
344.22875599999998
  0
ARC
  5
189
  8
_________1
 62
     7
 10
60.109143000000003
 20
188.26585
 30
0.0
 40
8.5255410000000005
 50
344.88107400000001
 51
346.08170899999999
  0
ARC
  5
18A
  8
_________1
 62
     7
 10
61.344792000000012
 20
187.82523499999999
 30
0.0
 40
7.2213649999999987
 50
347.11684200000002
 51
348.55692099999999
  0
ARC
  5
18B
  8
_________1
 62
     7
 10
64.971354000000005
 20
187.119584
 30
0.0
 40
3.5270039999999998
 50
348.10425600000002
 51
351.11453799999998
  0
ARC
  5
18C
  8
_________1
 62
     7
 10
58.224267000000012
 20
188.09977799999999
 30
0.0
 40
10.344783
 50
351.52286299999997
 51
352.57097499999998
  0
ARC
  5
18D
  8
_________1
 62
     7
 10
61.205264
 20
187.55469199999999
 30
0.0
 40
7.3199729999999992
 50
353.784876
 51
355.28565800000001
  0
ARC
  5
18E
  8
_________1
 62
     7
 10
63.953902999999997
 20
187.31481500000001
 30
0.0
 40
4.560937
 50
355.45097600000003
 51
357.92217399999998
  0
ARC
  5
18F
  8
_________1
 62
     7
 10
64.655373999999995
 20
187.30950300000001
 30
0.0
 40
3.8597869999999999
 50
357.62344400000001
 51
0.6107300000000001
  0
ARC
  5
190
  8
_________1
 62
     7
 10
63.863562999999999
 20
187.35224400000001
 30
0.0
 40
4.6513790000000004
 50
359.980301
 51
2.514597999999999
  0
ARC
  5
191
  8
_________1
 62
     7
 10
62.203860999999989
 20
187.25083699999999
 30
0.0
 40
6.3139959999999986
 50
2.7731449999999991
 51
4.6936949999999991
  0
ARC
  5
192
  8
_________1
 62
     7
 10
64.258746000000002
 20
187.44319100000001
 30
0.0
 40
4.2503279999999988
 50
4.376085999999999
 51
7.2987799999999989
  0
ARC
  5
193
  8
_________1
 62
     7
 10
61.474724000000002
 20
187.09340599999999
 30
0.0
 40
7.0562329999999989
 50
7.244044999999999
 51
9.0413809999999994
  0
ARC
  5
194
  8
_________1
 62
     7
 10
62.160421999999997
 20
187.21419800000001
 30
0.0
 40
6.3600820000000002
 50
8.9374640000000003
 51
10.966815
  0
ARC
  5
195
  8
_________1
 62
     7
 10
60.801270000000002
 20
186.92907199999999
 30
0.0
 40
7.748685
 50
11.124708
 51
12.796497
  0
ARC
  5
196
  8
_________1
 62
     7
 10
61.778033999999998
 20
187.15742499999999
 30
0.0
 40
6.7456059999999987
 50
12.742654
 51
14.646219
  0
ARC
  5
197
  8
_________1
 62
     7
 10
58.923290000000001
 20
186.381564
 30
0.0
 40
9.7038060000000002
 50
14.816433999999999
 51
16.105998
  0
ARC
  5
198
  8
_________1
 62
     7
 10
60.771116999999997
 20
186.94869299999999
 30
0.0
 40
7.7712429999999992
 50
15.868192000000001
 51
17.403151000000001
  0
ARC
  5
199
  8
_________1
 62
     7
 10
53.265067999999999
 20
184.54945699999999
 30
0.0
 40
15.651351999999999
 50
17.565687
 51
18.278805999999999
  0
ARC
  5
19A
  8
_________1
 62
     7
 10
62.177689999999998
 20
187.50101900000001
 30
0.0
 40
6.262719999999999
 50
18.212342
 51
19.846073000000001
  0
ARC
  5
19B
  8
_________1
 62
     7
 10
58.14199
 20
186.109126
 30
0.0
 40
10.531447
 50
19.514904000000001
 51
20.388273000000002
  0
ARC
  5
19C
  8
_________1
 62
     7
 10
55.205804000000001
 20
185.0427
 30
0.0
 40
13.655233000000001
 50
20.290545999999999
 51
20.886593000000001
  0
ARC
  5
19D
  8
_________1
 62
     7
 10
183.07002800000001
 20
234.701919
 30
0.0
 40
123.513897
 50
201.2054040000001
 51
201.262326
  0
LINE
  5
19E
  8
_________1
 62
     7
 10
67.919300000000007
 20
190.02500000000001
 30
0.0
 11
67.879999999999995
 21
190.12299999999999
 31
0.0
  0
ARC
  5
19F
  8
_________1
 62
     7
 10
64.823152000000007
 20
188.94143099999999
 30
0.0
 40
3.2771159999999999
 50
21.126304999999999
 51
22.645274000000001
  0
LINE
  5
1A0
  8
_________1
 62
     7
 10
67.8476
 20
190.203
 30
0.0
 11
67.820800000000006
 21
190.267
 31
0.0
  0
ARC
  5
1A1
  8
_________1
 62
     7
 10
83.541257000000002
 20
196.84660299999999
 30
0.0
 40
17.041767
 50
202.529537
 51
202.710228
  0
ARC
  5
1A2
  8
_________1
 62
     7
 10
70.133358999999999
 20
191.36409399999999
 30
0.0
 40
2.5575040000000002
 50
203.327899
 51
204.17112399999999
  0
ARC
  5
1A3
  8
_________1
 62
     7
 10
68.072626
 20
190.47841199999999
 30
0.0
 40
0.314517
 50
199.77316500000001
 51
203.829689
  0
ARC
  5
1A4
  8
_________1
 62
     7
 10
67.872406999999995
 20
190.42419599999999
 30
0.0
 40
0.10905
 50
204.540907
 51
208.58922899999999
  0
ENDBLK
  5
1A5
  8
_________1
  0
BLOCK
  8
_________1
  2
AIGNBL02010023
 70
     0
 10
0.0
 20
0.0
 30
0.0
  3
AIGNBL02010023
  1

  0
ARC
  5
1A8
  8
_________1
 62
     7
 10
36.953066999999997
 20
193.30697499999999
 30
0.0
 40
0.09445
 50
205.88688099999999
 51
209.9076950000001
  0
ARC
  5
1A9
  8
_________1
 62
     7
 10
37.64687
 20
193.76904300000001
 30
0.0
 40
0.9272569999999999
 50
211.67767599999999
 51
212.87364500000001
  0
ARC
  5
1AA
  8
_________1
 62
     7
 10
36.044848999999999
 20
192.802708
 30
0.0
 40
0.943739
 50
30.529
 51
32.528968999999996
  0
ARC
  5
1AB
  8
_________1
 62
     7
 10
38.623234000000011
 20
194.44910100000001
 30
0.0
 40
2.1154570000000001
 50
211.30346800000009
 51
212.57346200000001
  0
ARC
  5
1AC
  8
_________1
 62
     7
 10
38.549329
 20
194.46879000000001
 30
0.0
 40
2.0632799999999989
 50
211.13946799999999
 51
212.83710500000001
  0
ARC
  5
1AD
  8
_________1
 62
     7
 10
41.551660999999989
 20
196.404314
 30
0.0
 40
5.6348739999999991
 50
211.426772
 51
212.197641
  0
ARC
  5
1AE
  8
_________1
 62
     7
 10
40.487978999999989
 20
195.895332
 30
0.0
 40
4.4634599999999987
 50
211.790255
 51
212.97113300000009
  0
ARC
  5
1AF
  8
_________1
 62
     7
 10
64.826152000000008
 20
211.448127
 30
0.0
 40
33.346238999999997
 50
212.287295
 51
212.47409300000001
  0
ARC
  5
1B0
  8
_________1
 62
     7
 10
27.751382
 20
188.04637
 30
0.0
 40
10.496459
 50
32.174584000000003
 51
32.863726
  0
ARC
  5
1B1
  8
_________1
 62
     7
 10
29.798598999999999
 20
189.456051
 30
0.0
 40
8.0122520000000002
 50
32.340456000000003
 51
33.37575300000001
  0
ARC
  5
1B2
  8
_________1
 62
     7
 10
25.899258
 20
187.03464199999999
 30
0.0
 40
12.601202000000001
 50
32.816198
 51
33.560232999999997
  0
ARC
  5
1B3
  8
_________1
 62
     7
 10
29.772026
 20
189.697305
 30
0.0
 40
7.902432000000001
 50
32.995471000000002
 51
34.324942
  0
ARC
  5
1B4
  8
_________1
 62
     7
 10
18.676069999999999
 20
182.34695099999999
 30
0.0
 40
21.211639000000002
 50
33.821061999999998
 51
34.368886000000003
  0
ARC
  5
1B5
  8
_________1
 62
     7
 10
-60.99624399999999
 20
125.923039
 30
0.0
 40
118.83786600000001
 50
35.138832000000001
 51
35.244318
  0
ARC
  5
1B6
  8
_________1
 62
     7
 10
29.722148000000001
 20
189.964416
 30
0.0
 40
7.7924269999999991
 50
35.595998999999999
 51
37.247186999999997
  0
ARC
  5
1B7
  8
_________1
 62
     7
 10
30.065742
 20
190.25350299999999
 30
0.0
 40
7.3439759999999987
 50
37.074297999999999
 51
38.771180000000001
  0
ARC
  5
1B8
  8
_________1
 62
     7
 10
29.649256000000001
 20
189.79119399999999
 30
0.0
 40
7.9588179999999991
 50
39.488453999999997
 51
40.914009999999998
  0
ARC
  5
1B9
  8
_________1
 62
     7
 10
32.977791000000003
 20
192.634322
 30
0.0
 40
3.5815669999999988
 50
41.416488999999991
 51
44.253923999999991
  0
ARC
  5
1BA
  8
_________1
 62
     7
 10
33.502298000000003
 20
193.132374
 30
0.0
 40
2.8583409999999989
 50
44.440151
 51
47.597988999999977
  0
ARC
  5
1BB
  8
_________1
 62
     7
 10
34.160485000000001
 20
193.84423699999999
 30
0.0
 40
1.888854
 50
47.779889999999988
 51
51.989646999999998
  0
ARC
  5
1BC
  8
_________1
 62
     7
 10
34.361352000000011
 20
194.10873699999999
 30
0.0
 40
1.5567669999999989
 50
51.819722999999989
 51
56.360818999999978
  0
ARC
  5
1BD
  8
_________1
 62
     7
 10
34.647886
 20
194.55211299999999
 30
0.0
 40
1.0289330000000001
 50
55.967590000000001
 51
62.16574
  0
ARC
  5
1BE
  8
_________1
 62
     7
 10
34.699798999999999
 20
194.70797899999999
 30
0.0
 40
0.8672780000000001
 50
60.39038699999999
 51
67.168243000000004
  0
ARC
  5
1BF
  8
_________1
 62
     7
 10
34.666285000000002
 20
194.67357100000001
 30
0.0
 40
0.912163
 50
66.066602000000003
 51
72.206485999999998
  0
ARC
  5
1C0
  8
_________1
 62
     7
 10
34.679516999999997
 20
194.75025600000001
 30
0.0
 40
0.8351729999999999
 50
71.463177000000002
 51
78.080443999999986
  0
ARC
  5
1C1
  8
_________1
 62
     7
 10
34.610261000000001
 20
194.49815000000001
 30
0.0
 40
1.0962590000000001
 50
77.260198000000017
 51
82.347808000000015
  0
ARC
  5
1C2
  8
_________1
 62
     7
 10
34.614555000000003
 20
194.489914
 30
0.0
 40
1.1038629999999989
 50
82.625652000000002
 51
87.974351999999996
  0
ARC
  5
1C3
  8
_________1
 62
     7
 10
34.605763000000003
 20
194.36018799999999
 30
0.0
 40
1.2338260000000001
 50
87.779222000000004
 51
92.932497999999995
  0
ARC
  5
1C4
  8
_________1
 62
     7
 10
34.612392
 20
194.00554
 30
0.0
 40
1.588390999999999
 50
92.516832999999991
 51
96.957149999999984
  0
ARC
  5
1C5
  8
_________1
 62
     7
 10
34.678136000000002
 20
193.624098
 30
0.0
 40
1.9750799999999991
 50
97.510006999999973
 51
101.554305
  0
ARC
  5
1C6
  8
_________1
 62
     7
 10
34.725628
 20
193.31731600000001
 30
0.0
 40
2.2852060000000001
 50
101.180279
 51
105.12844200000001
  0
ARC
  5
1C7
  8
_________1
 62
     7
 10
34.999111999999997
 20
192.255922
 30
0.0
 40
3.3812150000000001
 50
104.908135
 51
107.914872
  0
ARC
  5
1C8
  8
_________1
 62
     7
 10
35.404487000000003
 20
190.984002
 30
0.0
 40
4.716164
 50
107.84771499999999
 51
110.25224399999991
  0
ARC
  5
1C9
  8
_________1
 62
     7
 10
35.489274999999999
 20
190.68104500000001
 30
0.0
 40
5.0298049999999996
 50
109.963773
 51
112.443297
  0
ARC
  5
1CA
  8
_________1
 62
     7
 10
39.135503999999997
 20
181.79071200000001
 30
0.0
 40
14.638801000000001
 50
112.3493669999999
 51
113.228385
  0
ARC
  5
1CB
  8
_________1
 62
     7
 10
38.204681000000001
 20
184.172327
 30
0.0
 40
12.083417000000001
 50
113.626367
 51
114.664692
  0
ARC
  5
1CC
  8
_________1
 62
     7
 10
39.233334999999997
 20
181.78797499999999
 30
0.0
 40
14.679622
 50
114.42971799999999
 51
115.22236700000001
  0
LINE
  5
1CD
  8
_________1
 62
     7
 10
32.977899999999998
 20
195.06800000000001
 30
0.0
 11
32.81280000000001
 21
194.989
 31
0.0
  0
ARC
  5
1CE
  8
_________1
 62
     7
 10
45.251749999999987
 20
169.51043300000001
 30
0.0
 40
28.352985
 50
116.02196000000001
 51
116.35246100000001
  0
ARC
  5
1CF
  8
_________1
 62
     7
 10
41.604185999999991
 20
176.68576300000001
 30
0.0
 40
20.304359999999999
 50
116.11701100000001
 51
116.52699699999989
  0
ARC
  5
1D0
  8
_________1
 62
     7
 10
21.149301000000001
 20
217.34693100000001
 30
0.0
 40
25.212109999999999
 50
296.56176699999997
 51
296.84835199999998
  0
ARC
  5
1D1
  8
_________1
 62
     7
 10
30.001532999999998
 20
199.484194
 30
0.0
 40
5.2768090000000001
 50
296.136822
 51
297.31791600000003
  0
ARC
  5
1D2
  8
_________1
 62
     7
 10
26.279399999999999
 20
206.49020200000001
 30
0.0
 40
13.208542
 50
296.84483999999998
 51
297.24417899999997
  0
ARC
  5
1D3
  8
_________1
 62
     7
 10
27.659908999999999
 20
203.51816500000001
 30
0.0
 40
9.9340019999999996
 50
297.043273
 51
297.48139800000001
  0
ARC
  5
1D4
  8
_________1
 62
     7
 10
33.937756
 20
191.23231200000001
 30
0.0
 40
3.8628689999999999
 50
117.125184
 51
118.03028999999999
  0
ARC
  5
1D5
  8
_________1
 62
     7
 10
41.113966999999988
 20
176.754571
 30
0.0
 40
20.020235
 50
116.687331
 51
116.82093399999999
  0
ARC
  5
1D6
  8
_________1
 62
     7
 10
32.419150999999999
 20
193.94645700000001
 30
0.0
 40
0.754706
 50
116.639421
 51
119.155095
  0
ARC
  5
1D7
  8
_________1
 62
     7
 10
32.269500000000001
 20
194.13854799999999
 30
0.0
 40
0.5153830000000002
 50
115.026161
 51
117.201638
  0
LINE
  5
1D8
  8
_________1
 62
     7
 10
32.03390000000001
 20
194.59700000000001
 30
0.0
 11
32.028399999999998
 21
194.59299999999999
 31
0.0
  0
ENDBLK
  5
1D9
  8
_________1
  0
BLOCK
  8
_________1
  2
AIGNBL02010024
 70
     0
 10
0.0
 20
0.0
 30
0.0
  3
AIGNBL02010024
  1

  0
ARC
  5
1DC
  8
_________1
 62
     7
 10
-29.999016000000001
 20
193.983822
 30
0.0
 40
0.19761
 50
164.82483099999999
 51
179.88510500000001
  0
ARC
  5
1DD
  8
_________1
 62
     7
 10
-29.956185999999999
 20
193.968479
 30
0.0
 40
0.242989
 50
150.83806000000001
 51
163.97679400000001
  0
ARC
  5
1DE
  8
_________1
 62
     7
 10
-29.906542000000002
 20
193.94580400000001
 30
0.0
 40
0.297422
 50
139.86346399999999
 51
151.68378000000001
  0
ARC
  5
1DF
  8
_________1
 62
     7
 10
-29.80130200000001
 20
193.86239399999999
 30
0.0
 40
0.4316640000000001
 50
131.21003899999999
 51
140.40378999999999
  0
ARC
  5
1E0
  8
_________1
 62
     7
 10
-29.590824000000001
 20
193.62360100000001
 30
0.0
 40
0.749977
 50
125.250986
 51
131.28801799999999
  0
ARC
  5
1E1
  8
_________1
 62
     7
 10
-29.446449000000001
 20
193.39810199999999
 30
0.0
 40
1.0175279999999991
 50
119.59173
 51
124.5613
  0
ARC
  5
1E2
  8
_________1
 62
     7
 10
-29.372706999999998
 20
193.28476599999999
 30
0.0
 40
1.152523999999999
 50
115.1083639999999
 51
119.99723299999999
  0
ARC
  5
1E3
  8
_________1
 62
     7
 10
-29.137429000000001
 20
192.82742999999999
 30
0.0
 40
1.666588999999999
 50
112.016712
 51
115.760998
  0
ARC
  5
1E4
  8
_________1
 62
     7
 10
-28.703814999999999
 20
191.701999
 30
0.0
 40
2.8725689999999999
 50
109.25820899999999
 51
111.61967799999999
  0
ARC
  5
1E5
  8
_________1
 62
     7
 10
-28.605461999999999
 20
191.34809300000001
 30
0.0
 40
3.2391990000000002
 50
106.57124399999999
 51
108.83583900000001
  0
ARC
  5
1E6
  8
_________1
 62
     7
 10
-28.332768999999999
 20
190.34698
 30
0.0
 40
4.2765740000000001
 50
104.414483
 51
106.247575
  0
ARC
  5
1E7
  8
_________1
 62
     7
 10
-28.576861000000001
 20
191.35473400000001
 30
0.0
 40
3.2398119999999988
 50
102.089738
 51
104.67016599999999
  0
ARC
  5
1E8
  8
_________1
 62
     7
 10
-28.232710999999998
 20
189.89582300000001
 30
0.0
 40
4.7385469999999996
 50
100.610308
 51
102.46406
  0
ARC
  5
1E9
  8
_________1
 62
     7
 10
-28.218809
 20
189.867007
 30
0.0
 40
4.769436999999999
 50
98.778980000000004
 51
100.710725
  0
ARC
  5
1EA
  8
_________1
 62
     7
 10
-28.151785
 20
189.71749600000001
 30
0.0
 40
4.9276169999999988
 50
97.344587000000018
 51
99.283841000000024
  0
ARC
  5
1EB
  8
_________1
 62
     7
 10
-27.836829999999999
 20
187.497367
 30
0.0
 40
7.1698500000000003
 50
96.194551000000004
 51
97.572793000000004
  0
ARC
  5
1EC
  8
_________1
 62
     7
 10
-27.59551500000001
 20
185.14370600000001
 30
0.0
 40
9.535817999999999
 50
95.045147999999998
 51
96.110041000000024
  0
ARC
  5
1ED
  8
_________1
 62
     7
 10
-27.644303000000011
 20
185.0028659999999
 30
0.0
 40
9.6720140000000008
 50
93.611653000000004
 51
94.683879000000005
  0
ARC
  5
1EE
  8
_________1
 62
     7
 10
-27.831150999999998
 20
188.35846000000001
 30
0.0
 40
6.3113640000000002
 50
92.165283000000002
 51
93.837744999999984
  0
ARC
  5
1EF
  8
_________1
 62
     7
 10
-27.768049999999999
 20
188.050794
 30
0.0
 40
6.6213939999999996
 50
91.002659999999992
 51
92.610326999999984
  0
LINE
  5
1F0
  8
_________1
 62
     7
 10
-27.883900000000001
 20
194.67099999999999
 30
0.0
 11
-27.697199999999999
 21
194.673
 31
0.0
  0
ENDBLK
  5
1F1
  8
_________1
  0
BLOCK
  8
_________1
  2
AIGNBL02010025
 70
     0
 10
0.0
 20
0.0
 30
0.0
  3
AIGNBL02010025
  1

  0
ARC
  5
1F4
  8
_________1
 62
     7
 10
-27.426565000000011
 20
187.29005900000001
 30
0.0
 40
2.9822799999999989
 50
179.974433
 51
183.25914700000001
  0
ARC
  5
1F5
  8
_________1
 62
     7
 10
-27.470071999999998
 20
187.29835700000001
 30
0.0
 40
2.9393349999999989
 50
183.46885599999999
 51
187.111345
  0
ARC
  5
1F6
  8
_________1
 62
     7
 10
-27.885498999999999
 20
187.24570399999999
 30
0.0
 40
2.5205850000000001
 50
187.09271699999999
 51
191.26625999999999
  0
ARC
  5
1F7
  8
_________1
 62
     7
 10
-27.823533000000001
 20
187.24886799999999
 30
0.0
 40
2.581990999999999
 50
191.06647099999989
 51
195.11735200000001
  0
ARC
  5
1F8
  8
_________1
 62
     7
 10
-28.100560000000002
 20
187.16750999999999
 30
0.0
 40
2.293340999999999
 50
194.96010599999991
 51
197.96710999999999
  0
ENDBLK
  5
1F9
  8
_________1
  0
BLOCK
  8
_________1
  2
AIGNBL02010026
 70
     0
 10
0.0
 20
0.0
 30
0.0
  3
AIGNBL02010026
  1

  0
ARC
  5
1FC
  8
_________1
 62
     7
 10
-27.944258000000001
 20
198.09032500000001
 30
0.0
 40
2.464586999999999
 50
179.96497099999999
 51
184.49474799999999
  0
ARC
  5
1FD
  8
_________1
 62
     7
 10
-28.137484000000011
 20
198.06424999999999
 30
0.0
 40
2.2699379999999998
 50
184.22082800000001
 51
189.151645
  0
ARC
  5
1FE
  8
_________1
 62
     7
 10
-27.903448000000001
 20
198.088989
 30
0.0
 40
2.5049610000000002
 50
188.85889499999999
 51
193.32469699999999
  0
ARC
  5
1FF
  8
_________1
 62
     7
 10
-27.910191999999999
 20
198.09138999999999
 30
0.0
 40
2.4989560000000002
 50
193.41390000000001
 51
197.89398199999999
  0
ARC
  5
200
  8
_________1
 62
     7
 10
-27.791944000000001
 20
198.12634800000001
 30
0.0
 40
2.6222259999999991
 50
197.827001
 51
202.104783
  0
ARC
  5
201
  8
_________1
 62
     7
 10
-27.844707
 20
198.11025000000001
 30
0.0
 40
2.5672890000000002
 50
202.215045
 51
206.58953500000001
  0
ARC
  5
202
  8
_________1
 62
     7
 10
-27.840239
 20
198.11408899999989
 30
0.0
 40
2.5730019999999998
 50
206.621431
 51
211.00018900000001
  0
ARC
  5
203
  8
_________1
 62
     7
 10
-27.991427999999999
 20
198.01467700000001
 30
0.0
 40
2.392218999999999
 50
210.82430199999999
 51
215.55847900000001
  0
ARC
  5
204
  8
_________1
 62
     7
 10
-27.956776000000001
 20
198.01835399999999
 30
0.0
 40
2.4226079999999999
 50
215.152636
 51
219.82618600000001
  0
ARC
  5
205
  8
_________1
 62
     7
 10
-27.495661999999999
 20
198.411789
 30
0.0
 40
3.0287269999999991
 50
219.95537200000001
 51
223.70841799999999
  0
ARC
  5
206
  8
_________1
 62
     7
 10
-27.710363999999998
 20
198.22919400000001
 30
0.0
 40
2.7474039999999991
 50
224.04970599999999
 51
228.1969290000001
  0
ARC
  5
207
  8
_________1
 62
     7
 10
-27.766546000000002
 20
198.17473200000001
 30
0.0
 40
2.669362
 50
228.316642
 51
232.603812
  0
ARC
  5
208
  8
_________1
 62
     7
 10
-27.889241999999999
 20
197.99091999999999
 30
0.0
 40
2.4488560000000001
 50
232.27259000000001
 51
236.95055600000001
  0
ARC
  5
209
  8
_________1
 62
     7
 10
-27.747342
 20
198.19321099999999
 30
0.0
 40
2.695816999999999
 50
236.76737800000001
 51
241.03535099999999
  0
ARC
  5
20A
  8
_________1
 62
     7
 10
-27.716208999999999
 20
198.245452
 30
0.0
 40
2.7566019999999991
 50
240.99503000000001
 51
245.171886
  0
ARC
  5
20B
  8
_________1
 62
     7
 10
-27.65040900000001
 20
198.388722
 30
0.0
 40
2.9142579999999998
 50
245.18053599999999
 51
249.14267599999991
  0
ARC
  5
20C
  8
_________1
 62
     7
 10
-27.724969000000002
 20
198.21182999999999
 30
0.0
 40
2.7224209999999989
 50
249.283534
 51
253.537721
  0
ARC
  5
20D
  8
_________1
 62
     7
 10
-27.768219999999999
 20
198.03201799999999
 30
0.0
 40
2.5377399999999999
 50
253.323735
 51
257.89411799999999
  0
ARC
  5
20E
  8
_________1
 62
     7
 10
-27.689816
 20
198.31913800000001
 30
0.0
 40
2.8349660000000001
 50
257.56173799999999
 51
261.65417500000001
  0
ARC
  5
20F
  8
_________1
 62
     7
 10
-27.714041000000002
 20
198.20672300000001
 30
0.0
 40
2.720235999999999
 50
261.81534900000008
 51
266.08509299999997
  0
ARC
  5
210
  8
_________1
 62
     7
 10
-27.691161000000001
 20
198.357359
 30
0.0
 40
2.8721099999999988
 50
265.83489100000003
 51
269.87968899999998
  0
ENDBLK
  5
211
  8
_________1
  0
BLOCK
  8
_________1
  2
AIGNBL02010027
 70
     0
 10
0.0
 20
0.0
 30
0.0
  3
AIGNBL02010027
  1

  0
ARC
  5
214
  8
_________1
 62
     7
 10
-25.395368999999999
 20
193.983822
 30
0.0
 40
0.19761
 50
0.114876
 51
15.175148999999999
  0
ARC
  5
215
  8
_________1
 62
     7
 10
-25.441307999999999
 20
193.967185
 30
0.0
 40
0.246334
 50
16.11277999999999
 51
29.072324999999999
  0
ARC
  5
216
  8
_________1
 62
     7
 10
-25.491447999999998
 20
193.943352
 30
0.0
 40
0.301759
 50
28.401437000000001
 51
40.051279000000001
  0
ARC
  5
217
  8
_________1
 62
     7
 10
-25.587669999999999
 20
193.86765600000001
 30
0.0
 40
0.42414
 50
39.514462999999999
 51
48.871668999999997
  0
ARC
  5
218
  8
_________1
 62
     7
 10
-25.819410000000001
 20
193.60351
 30
0.0
 40
0.7755330000000001
 50
48.811515
 51
54.649442000000008
  0
ARC
  5
219
  8
_________1
 62
     7
 10
-25.965921000000002
 20
193.369405
 30
0.0
 40
1.0513639999999991
 50
55.518697000000003
 51
60.328232999999997
  0
ARC
  5
21A
  8
_________1
 62
     7
 10
-25.995816000000001
 20
193.33433600000001
 30
0.0
 40
1.0966670000000001
 50
59.878160999999992
 51
65.016202000000007
  0
ARC
  5
21B
  8
_________1
 62
     7
 10
-26.22340100000001
 20
192.903189
 30
0.0
 40
1.5837779999999999
 50
64.141056000000006
 51
68.081193999999996
  0
ARC
  5
21C
  8
_________1
 62
     7
 10
-26.766680000000001
 20
191.49777
 30
0.0
 40
3.0904759999999989
 50
68.463565000000003
 51
70.658507999999983
  0
ARC
  5
21D
  8
_________1
 62
     7
 10
-26.747516999999998
 20
191.47780800000001
 30
0.0
 40
3.1030619999999991
 50
71.114458999999997
 51
73.478418999999974
  0
ARC
  5
21E
  8
_________1
 62
     7
 10
-26.907049000000001
 20
190.91077799999999
 30
0.0
 40
3.6920589999999991
 50
73.607285000000005
 51
75.730617000000009
  0
ARC
  5
21F
  8
_________1
 62
     7
 10
-26.883721000000001
 20
191.076435
 30
0.0
 40
3.5258089999999989
 50
75.434485999999993
 51
77.805571
  0
ARC
  5
220
  8
_________1
 62
     7
 10
-27.166371999999999
 20
189.87280899999999
 30
0.0
 40
4.7620329999999989
 50
77.540492
 51
79.385099999999994
  0
ARC
  5
221
  8
_________1
 62
     7
 10
-27.06087800000001
 20
190.53487200000001
 30
0.0
 40
4.0919069999999991
 50
79.129308999999992
 51
81.380946999999992
  0
ARC
  5
222
  8
_________1
 62
     7
 10
-27.450961
 20
188.29171099999999
 30
0.0
 40
6.3683870000000002
 50
80.935519999999997
 51
82.436012000000005
  0
ARC
  5
223
  8
_________1
 62
     7
 10
-28.024581000000001
 20
183.628829
 30
0.0
 40
11.066295
 50
82.669832999999997
 51
83.562782999999996
  0
ARC
  5
224
  8
_________1
 62
     7
 10
-29.181042000000001
 20
170.99026699999999
 30
0.0
 40
23.756340000000002
 50
84.208663999999985
 51
84.636107999999993
  0
ARC
  5
225
  8
_________1
 62
     7
 10
-28.815306
 20
170.31398899999999
 30
0.0
 40
24.399208999999999
 50
85.639697999999996
 51
86.064730000000012
  0
ARC
  5
226
  8
_________1
 62
     7
 10
-27.550830999999999
 20
188.59500399999999
 30
0.0
 40
6.0745219999999991
 50
86.129627999999997
 51
87.867304000000004
  0
ARC
  5
227
  8
_________1
 62
     7
 10
-27.641310000000001
 20
187.575999
 30
0.0
 40
7.0963820000000011
 50
87.443460000000002
 51
88.943512999999996
  0
ARC
  5
228
  8
_________1
 62
     7
 10
-27.75778
 20
177.98380499999999
 30
0.0
 40
16.689202000000002
 50
89.150906999999975
 51
89.791984999999997
  0
ENDBLK
  5
229
  8
_________1
  0
BLOCK
  8
_________1
  2
AIGNBL02010028
 70
     0
 10
0.0
 20
0.0
 30
0.0
  3
AIGNBL02010028
  1

  0
ARC
  5
22C
  8
_________1
 62
     7
 10
-25.308762000000002
 20
195.799453
 30
0.0
 40
0.123412
 50
353.90912700000001
 51
0.6382520000000002
  0
ARC
  5
22D
  8
_________1
 62
     7
 10
-25.698436999999998
 20
195.818196
 30
0.0
 40
0.513378
 50
352.46483200000011
 51
356.44453500000009
  0
ARC
  5
22E
  8
_________1
 62
     7
 10
-25.791675000000001
 20
195.83141599999999
 30
0.0
 40
0.607545
 50
347.995564
 51
352.38192500000002
  0
LINE
  5
22F
  8
_________1
 62
     7
 10
-25.197399999999998
 20
195.70500000000001
 30
0.0
 11
-25.197800000000001
 21
195.703
 31
0.0
  0
ENDBLK
  5
230
  8
_________1
  0
BLOCK
  8
_________1
  2
AIGNBL02010029
 70
     0
 10
0.0
 20
0.0
 30
0.0
  3
AIGNBL02010029
  1

  0
ARC
  5
233
  8
_________1
 62
     7
 10
-27.703430000000001
 20
198.36287400000001
 30
0.0
 40
2.8776250000000001
 50
270.12420900000001
 51
274.16125099999999
  0
ARC
  5
234
  8
_________1
 62
     7
 10
-27.697811000000002
 20
198.3715379999999
 30
0.0
 40
2.885866
 50
274.03750600000001
 51
278.06209100000001
  0
ARC
  5
235
  8
_________1
 62
     7
 10
-27.681763
 20
198.19477699999999
 30
0.0
 40
2.7086160000000001
 50
278.25035100000002
 51
282.53377599999999
  0
ARC
  5
236
  8
_________1
 62
     7
 10
-27.685409
 20
198.26290700000001
 30
0.0
 40
2.7759360000000002
 50
282.30207899999999
 51
286.48010799999997
  0
ARC
  5
237
  8
_________1
 62
     7
 10
-27.751092
 20
198.44908799999999
 30
0.0
 40
2.9731190000000001
 50
286.67606599999999
 51
290.56509299999999
  0
ARC
  5
238
  8
_________1
 62
     7
 10
-27.666685999999999
 20
198.209431
 30
0.0
 40
2.71909
 50
290.67377299999998
 51
294.92712599999999
  0
ARC
  5
239
  8
_________1
 62
     7
 10
-27.683029000000001
 20
198.255011
 30
0.0
 40
2.7673149999999991
 50
294.83622200000002
 51
298.99690099999998
  0
ARC
  5
23A
  8
_________1
 62
     7
 10
-27.603199
 20
198.12052700000001
 30
0.0
 40
2.6109939999999989
 50
298.895309
 51
303.30200200000002
  0
ARC
  5
23B
  8
_________1
 62
     7
 10
-27.553018999999999
 20
198.05831800000001
 30
0.0
 40
2.531461999999999
 50
303.1258279999999
 51
307.65106500000002
  0
ARC
  5
23C
  8
_________1
 62
     7
 10
-27.5486
 20
198.078744
 30
0.0
 40
2.5449850000000001
 50
307.29139500000002
 51
311.78819099999998
  0
ARC
  5
23D
  8
_________1
 62
     7
 10
-27.686565999999999
 20
198.231841
 30
0.0
 40
2.751074
 50
311.805858
 51
315.94754699999999
  0
ARC
  5
23E
  8
_________1
 62
     7
 10
-27.754822000000001
 20
198.282983
 30
0.0
 40
2.8357089999999991
 50
316.16382299999998
 51
320.17242700000003
  0
ARC
  5
23F
  8
_________1
 62
     7
 10
-27.467965
 20
198.041639
 30
0.0
 40
2.460834999999999
 50
320.21015299999999
 51
324.81106399999999
  0
ARC
  5
240
  8
_________1
 62
     7
 10
-27.560338000000002
 20
198.11763099999999
 30
0.0
 40
2.580134999999999
 50
324.61402800000002
 51
329.00323100000003
  0
ARC
  5
241
  8
_________1
 62
     7
 10
-27.538886000000002
 20
198.10569599999999
 30
0.0
 40
2.5556000000000001
 50
328.984914
 51
333.393505
  0
ARC
  5
242
  8
_________1
 62
     7
 10
-27.749744
 20
198.20101399999999
 30
0.0
 40
2.7868330000000001
 50
333.58286800000002
 51
337.61259100000001
  0
ARC
  5
243
  8
_________1
 62
     7
 10
-27.507337
 20
198.09179700000001
 30
0.0
 40
2.521113999999999
 50
337.80941200000001
 51
342.25884300000001
  0
ARC
  5
244
  8
_________1
 62
     7
 10
-27.592922999999999
 20
198.121858
 30
0.0
 40
2.6117910000000002
 50
342.20285799999999
 51
346.48929900000002
  0
ARC
  5
245
  8
_________1
 62
     7
 10
-27.784925999999999
 20
198.146624
 30
0.0
 40
2.8043439999999999
 50
346.91380199999998
 51
350.90264600000012
  0
ARC
  5
246
  8
_________1
 62
     7
 10
-27.401
 20
198.081143
 30
0.0
 40
2.4148969999999998
 50
350.99644999999998
 51
355.63111700000002
  0
ARC
  5
247
  8
_________1
 62
     7
 10
-27.448784000000011
 20
198.090273
 30
0.0
 40
2.4632439999999991
 50
355.50403599999999
 51
0.036245
  0
ENDBLK
  5
248
  8
_________1
  0
BLOCK
  8
_________1
  2
AIGNBL0201002A
 70
     0
 10
0.0
 20
0.0
 30
0.0
  3
AIGNBL0201002A
  1

  0
LINE
  5
24B
  8
_________1
 62
     7
 10
-30.1966
 20
195.703
 30
0.0
 11
-30.196999999999999
 21
195.70400000000001
 31
0.0
  0
ARC
  5
24C
  8
_________1
 62
     7
 10
-29.339352000000002
 20
195.87532999999999
 30
0.0
 40
0.8744920000000001
 50
188.20483999999999
 51
191.27409
  0
ARC
  5
24D
  8
_________1
 62
     7
 10
-29.413720000000001
 20
195.844684
 30
0.0
 40
0.7967560000000001
 50
184.19802999999999
 51
186.78665799999999
  0
ARC
  5
24E
  8
_________1
 62
     7
 10
-30.122866999999999
 20
195.79768000000001
 30
0.0
 40
0.086218
 50
177.90733599999999
 51
187.54528500000001
  0
ENDBLK
  5
24F
  8
_________1
  0
BLOCK
  8
_________1
  2
AIGNBL0201002B
 70
     0
 10
0.0
 20
0.0
 30
0.0
  3
AIGNBL0201002B
  1

  0
ARC
  5
252
  8
_________1
 62
     7
 10
-27.691186999999999
 20
198.21083899999999
 30
0.0
 40
2.41622
 50
269.857595
 51
274.330378
  0
ARC
  5
253
  8
_________1
 62
     7
 10
-27.693778999999999
 20
198.33911000000001
 30
0.0
 40
2.5443299999999991
 50
274.17048299999999
 51
278.41743199999991
  0
ARC
  5
254
  8
_________1
 62
     7
 10
-27.710602999999999
 20
198.43228400000001
 30
0.0
 40
2.6389640000000001
 50
278.48263800000001
 51
282.576595
  0
ARC
  5
255
  8
_________1
 62
     7
 10
-27.687608000000001
 20
198.309425
 30
0.0
 40
2.5140500000000001
 50
282.67478999999997
 51
286.97223300000002
  0
ARC
  5
256
  8
_________1
 62
     7
 10
-27.683946000000009
 20
198.30488299999999
 30
0.0
 40
2.508637999999999
 50
286.92251599999997
 51
291.21097900000001
  0
ARC
  5
257
  8
_________1
 62
     7
 10
-27.677962000000001
 20
198.28992299999999
 30
0.0
 40
2.4925259999999989
 50
291.20717400000001
 51
295.52152999999998
  0
ARC
  5
258
  8
_________1
 62
     7
 10
-27.69595
 20
198.33128500000001
 30
0.0
 40
2.5376039999999991
 50
295.48566599999998
 51
299.71742699999999
  0
ARC
  5
259
  8
_________1
 62
     7
 10
-27.783842
 20
198.463514
 30
0.0
 40
2.696034
 50
299.94660399999998
 51
303.90695399999998
  0
ARC
  5
25A
  8
_________1
 62
     7
 10
-27.668074000000001
 20
198.270026
 30
0.0
 40
2.4708959999999989
 50
304.181871
 51
308.49693300000001
  0
ARC
  5
25B
  8
_________1
 62
     7
 10
-27.529305999999998
 20
198.11399700000001
 30
0.0
 40
2.2624319999999991
 50
308.20614999999998
 51
312.90409299999999
  0
ARC
  5
25C
  8
_________1
 62
     7
 10
-27.692003
 20
198.29024799999999
 30
0.0
 40
2.5022950000000002
 50
312.88548900000001
 51
317.11452000000003
  0
ARC
  5
25D
  8
_________1
 62
     7
 10
-27.534974999999999
 20
198.14213100000001
 30
0.0
 40
2.2864399999999998
 50
317.15623099999999
 51
321.78045299999991
  0
ARC
  5
25E
  8
_________1
 62
     7
 10
-27.448134
 20
198.09368499999999
 30
0.0
 40
2.1882959999999989
 50
321.370294
 51
326.17982499999999
  0
ARC
  5
25F
  8
_________1
 62
     7
 10
-27.537783999999998
 20
198.16074599999999
 30
0.0
 40
2.3001099999999992
 50
326.03495800000002
 51
330.59458000000001
  0
ARC
  5
260
  8
_________1
 62
     7
 10
-27.758033999999999
 20
198.27927700000001
 30
0.0
 40
2.5501860000000001
 50
330.70420200000001
 51
334.81422099999997
  0
ARC
  5
261
  8
_________1
 62
     7
 10
-27.493907
 20
198.148697
 30
0.0
 40
2.255606999999999
 50
334.96069999999997
 51
339.58254599999998
  0
ARC
  5
262
  8
_________1
 62
     7
 10
-27.757034000000001
 20
198.24032500000001
 30
0.0
 40
2.5341759999999991
 50
339.71643599999999
 51
343.82586800000001
  0
ARC
  5
263
  8
_________1
 62
     7
 10
-27.799426
 20
198.22749899999999
 30
0.0
 40
2.571429999999999
 50
344.36345599999999
 51
348.40818200000001
  0
ARC
  5
264
  8
_________1
 62
     7
 10
-27.541702000000001
 20
198.167992
 30
0.0
 40
2.3070149999999998
 50
348.56979100000001
 51
353.0778049999999
  0
ARC
  5
265
  8
_________1
 62
     7
 10
-28.007811
 20
198.20171500000001
 30
0.0
 40
2.7738830000000001
 50
353.546673
 51
357.28810199999998
  0
ARC
  5
266
  8
_________1
 62
     7
 10
-27.986595000000001
 20
198.161078
 30
0.0
 40
2.7510529999999989
 50
358.11260900000002
 51
1.887391
  0
ARC
  5
267
  8
_________1
 62
     7
 10
-27.993795000000009
 20
198.121565
 30
0.0
 40
2.75983
 50
2.702369
 51
6.4628559999999986
  0
ARC
  5
268
  8
_________1
 62
     7
 10
-27.558406999999999
 20
198.14969099999999
 30
0.0
 40
2.324138
 50
6.9820240000000009
 51
11.440027000000001
  0
ARC
  5
269
  8
_________1
 62
     7
 10
-27.364474000000001
 20
198.199308
 30
0.0
 40
2.124241
 50
11.165839
 51
16.062522999999999
  0
ARC
  5
26A
  8
_________1
 62
     7
 10
-27.504524
 20
198.16588899999999
 30
0.0
 40
2.268079999999999
 50
15.894890999999999
 51
20.494969000000001
  0
ARC
  5
26B
  8
_________1
 62
     7
 10
-27.446210000000001
 20
198.19501
 30
0.0
 40
2.2032720000000001
 50
20.316541999999998
 51
25.056507
  0
ARC
  5
26C
  8
_________1
 62
     7
 10
-27.693822000000001
 20
198.07335800000001
 30
0.0
 40
2.4791080000000001
 50
25.179859
 51
29.400686
  0
ARC
  5
26D
  8
_________1
 62
     7
 10
-27.602699999999999
 20
198.123921
 30
0.0
 40
2.3748999999999989
 50
29.417145999999999
 51
33.84018300000001
  0
ARC
  5
26E
  8
_________1
 62
     7
 10
-27.914688000000002
 20
197.88669300000001
 30
0.0
 40
2.7662409999999991
 50
34.322806
 51
38.127074
  0
ARC
  5
26F
  8
_________1
 62
     7
 10
-27.469363999999999
 20
198.23243400000001
 30
0.0
 40
2.2024680000000001
 50
38.204383999999997
 51
42.99819699999999
  0
ARC
  5
270
  8
_________1
 62
     7
 10
-27.728089000000001
 20
198.00039799999999
 30
0.0
 40
2.5499450000000001
 50
42.846781999999997
 51
47.002231999999992
  0
ARC
  5
271
  8
_________1
 62
     7
 10
-27.730929
 20
197.97254799999999
 30
0.0
 40
2.572306999999999
 50
47.379009000000003
 51
51.510747999999992
  0
ARC
  5
272
  8
_________1
 62
     7
 10
-27.608508
 20
198.126949
 30
0.0
 40
2.3752619999999989
 50
51.504174999999989
 51
55.988137000000002
  0
ARC
  5
273
  8
_________1
 62
     7
 10
-27.624402
 20
198.121431
 30
0.0
 40
2.3887480000000001
 50
55.74617700000001
 51
60.220605999999989
  0
ARC
  5
274
  8
_________1
 62
     7
 10
-27.754860999999998
 20
197.868617
 30
0.0
 40
2.6729989999999999
 50
60.484935999999998
 51
64.498836999999995
  0
ARC
  5
275
  8
_________1
 62
     7
 10
-27.745747999999999
 20
197.86344
 30
0.0
 40
2.6737690000000001
 50
64.722859
 51
68.741717000000008
  0
ARC
  5
276
  8
_________1
 62
     7
 10
-27.700548000000001
 20
197.968548
 30
0.0
 40
2.559428
 50
68.831591000000003
 51
73.034914000000001
  0
ARC
  5
277
  8
_________1
 62
     7
 10
-27.684459000000011
 20
198.02394100000001
 30
0.0
 40
2.501749999999999
 50
73.017197999999993
 51
77.33578
  0
ARC
  5
278
  8
_________1
 62
     7
 10
-27.683449
 20
198.03527
 30
0.0
 40
2.4904759999999988
 50
77.301302000000007
 51
81.639464000000004
  0
ARC
  5
279
  8
_________1
 62
     7
 10
-27.672369
 20
198.252081
 30
0.0
 40
2.274451
 50
81.121468999999991
 51
85.874556000000013
  0
ARC
  5
27A
  8
_________1
 62
     7
 10
-27.718720000000001
 20
197.35828799999999
 30
0.0
 40
3.1693139999999991
 50
86.201216000000002
 51
89.610810999999984
  0
ENDBLK
  5
27B
  8
_________1
  0
BLOCK
  8
_________1
  2
AIGNBL0201002C
 70
     0
 10
0.0
 20
0.0
 30
0.0
  3
AIGNBL0201002C
  1

  0
ARC
  5
27E
  8
_________1
 62
     7
 10
-27.698658999999999
 20
197.987168
 30
0.0
 40
2.540360999999999
 50
89.966914000000017
 51
94.221019999999996
  0
ARC
  5
27F
  8
_________1
 62
     7
 10
-27.661522999999999
 20
197.72130100000001
 30
0.0
 40
2.8082950000000002
 50
94.577383999999981
 51
98.426551999999987
  0
ARC
  5
280
  8
_________1
 62
     7
 10
-27.713726000000001
 20
198.05028300000001
 30
0.0
 40
2.4752169999999989
 50
98.347138000000015
 51
102.712056
  0
ARC
  5
281
  8
_________1
 62
     7
 10
-27.719601000000001
 20
198.060496
 30
0.0
 40
2.4639639999999989
 50
102.63107100000001
 51
107.015912
  0
ARC
  5
282
  8
_________1
 62
     7
 10
-27.817419999999998
 20
198.32610500000001
 30
0.0
 40
2.1814139999999989
 50
106.60066399999999
 51
111.532791
  0
ARC
  5
283
  8
_________1
 62
     7
 10
-27.774301999999999
 20
198.15568300000001
 30
0.0
 40
2.3558750000000002
 50
110.986983
 51
115.548402
  0
ARC
  5
284
  8
_________1
 62
     7
 10
-27.578239
 20
197.75093100000001
 30
0.0
 40
2.8056079999999999
 50
115.596039
 51
119.420148
  0
ARC
  5
285
  8
_________1
 62
     7
 10
-27.529949999999999
 20
197.73754500000001
 30
0.0
 40
2.8412090000000001
 50
120.135791
 51
123.89738699999999
  0
ARC
  5
286
  8
_________1
 62
     7
 10
-27.66676
 20
197.964517
 30
0.0
 40
2.5765470000000001
 50
124.18707000000001
 51
128.32057800000001
  0
ARC
  5
287
  8
_________1
 62
     7
 10
-27.767495
 20
198.0991709999999
 30
0.0
 40
2.4084460000000001
 50
128.426714
 51
132.84503100000001
  0
ARC
  5
288
  8
_________1
 62
     7
 10
-27.792815999999998
 20
198.12199699999999
 30
0.0
 40
2.3744930000000002
 50
132.77160499999999
 51
137.22836599999999
  0
ARC
  5
289
  8
_________1
 62
     7
 10
-27.976184000000011
 20
198.27628799999999
 30
0.0
 40
2.1351429999999998
 50
136.92615799999999
 51
141.87122199999999
  0
ARC
  5
28A
  8
_________1
 62
     7
 10
-27.84806
 20
198.15953300000001
 30
0.0
 40
2.3080519999999991
 50
141.55508800000001
 51
146.12184300000001
  0
ARC
  5
28B
  8
_________1
 62
     7
 10
-27.931726999999999
 20
198.207437
 30
0.0
 40
2.211897
 50
145.94396599999999
 51
150.68553199999999
  0
ARC
  5
28C
  8
_________1
 62
     7
 10
-27.954525
 20
198.20438300000001
 30
0.0
 40
2.1935579999999999
 50
150.32441800000001
 51
155.09499700000001
  0
ARC
  5
28D
  8
_________1
 62
     7
 10
-28.027775999999999
 20
198.228286
 30
0.0
 40
2.1170729999999991
 50
154.84691799999999
 51
159.7799939999999
  0
ARC
  5
28E
  8
_________1
 62
     7
 10
-27.672256000000001
 20
198.09436500000001
 30
0.0
 40
2.4969709999999989
 50
159.715948
 51
163.89415199999999
  0
ARC
  5
28F
  8
_________1
 62
     7
 10
-27.959548000000002
 20
198.182266
 30
0.0
 40
2.1965750000000002
 50
164.01812799999999
 51
168.75346999999999
  0
ARC
  5
290
  8
_________1
 62
     7
 10
-27.932724
 20
198.16538
 30
0.0
 40
2.2262059999999999
 50
168.46184500000001
 51
173.11606399999999
  0
ARC
  5
291
  8
_________1
 62
     7
 10
-27.546247999999999
 20
198.133465
 30
0.0
 40
2.613761999999999
 50
173.43693300000001
 51
177.41518600000001
  0
ARC
  5
292
  8
_________1
 62
     7
 10
-27.565562
 20
198.16090600000001
 30
0.0
 40
2.5933660000000001
 50
178.00159099999999
 51
181.99840900000001
  0
ARC
  5
293
  8
_________1
 62
     7
 10
-27.58005
 20
198.186207
 30
0.0
 40
2.579898
 50
182.571202
 51
186.59406300000001
  0
ARC
  5
294
  8
_________1
 62
     7
 10
-27.901859000000002
 20
198.16004799999999
 30
0.0
 40
2.2572410000000001
 50
186.87248600000001
 51
191.47995900000001
  0
ARC
  5
295
  8
_________1
 62
     7
 10
-28.048494000000002
 20
198.117659
 30
0.0
 40
2.105138999999999
 50
191.143629
 51
196.08477400000001
  0
ARC
  5
296
  8
_________1
 62
     7
 10
-28.017937
 20
198.114982
 30
0.0
 40
2.133786999999999
 50
195.78838499999989
 51
200.66935000000001
  0
ARC
  5
297
  8
_________1
 62
     7
 10
-28.069877000000002
 20
198.07773700000001
 30
0.0
 40
2.0721090000000002
 50
200.21270000000001
 51
205.24409399999999
  0
ARC
  5
298
  8
_________1
 62
     7
 10
-27.916557999999998
 20
198.135018
 30
0.0
 40
2.2352560000000001
 50
204.89611300000001
 51
209.58550299999999
  0
ARC
  5
299
  8
_________1
 62
     7
 10
-27.736650000000001
 20
198.23478700000001
 30
0.0
 40
2.4409659999999991
 50
209.53706099999999
 51
213.83344099999999
  0
ARC
  5
29A
  8
_________1
 62
     7
 10
-27.953044999999999
 20
198.08554899999999
 30
0.0
 40
2.1781259999999989
 50
213.741873
 51
218.58119500000001
  0
ARC
  5
29B
  8
_________1
 62
     7
 10
-27.784735000000001
 20
198.20962299999999
 30
0.0
 40
2.3870869999999988
 50
218.38987800000001
 51
222.81274199999999
  0
ARC
  5
29C
  8
_________1
 62
     7
 10
-27.790396999999999
 20
198.20223300000001
 30
0.0
 40
2.3779110000000001
 50
222.77483899999999
 51
227.225191
  0
ARC
  5
29D
  8
_________1
 62
     7
 10
-27.757784000000001
 20
198.23937900000001
 30
0.0
 40
2.427327
 50
227.25557900000001
 51
231.63421700000001
  0
ARC
  5
29E
  8
_________1
 62
     7
 10
-27.721060000000001
 20
198.277164
 30
0.0
 40
2.4797519999999991
 50
231.510795
 51
235.81044
  0
ARC
  5
29F
  8
_________1
 62
     7
 10
-27.914224999999998
 20
197.976136
 30
0.0
 40
2.1222209999999988
 50
235.55735200000001
 51
240.58912900000001
  0
ARC
  5
2A0
  8
_________1
 62
     7
 10
-27.707176
 20
198.31456700000001
 30
0.0
 40
2.5187509999999991
 50
240.26674800000001
 51
244.53019900000001
  0
ARC
  5
2A1
  8
_________1
 62
     7
 10
-27.697313999999999
 20
198.334157
 30
0.0
 40
2.540678999999999
 50
244.51939300000001
 51
248.75194300000001
  0
ARC
  5
2A2
  8
_________1
 62
     7
 10
-27.764129000000001
 20
198.14954399999999
 30
0.0
 40
2.3444060000000002
 50
248.63875400000001
 51
253.227791
  0
ARC
  5
2A3
  8
_________1
 62
     7
 10
-27.674548000000001
 20
198.43120500000001
 30
0.0
 40
2.639937999999999
 50
253.13029599999999
 51
257.22272099999998
  0
ARC
  5
2A4
  8
_________1
 62
     7
 10
-27.703412
 20
198.32667900000001
 30
0.0
 40
2.531622
 50
257.336592
 51
261.60421400000001
  0
ARC
  5
2A5
  8
_________1
 62
     7
 10
-27.674098999999998
 20
198.57943499999999
 30
0.0
 40
2.785960999999999
 50
261.76683400000002
 51
265.64529099999999
  0
ARC
  5
2A6
  8
_________1
 62
     7
 10
-27.703659999999999
 20
198.19820799999999
 30
0.0
 40
2.4035899999999999
 50
265.65788400000002
 51
270.15418199999999
  0
ENDBLK
  5
2A7
  8
_________1
  0
BLOCK
  8
_________1
  2
AIGNBL0201002D
 70
     0
 10
0.0
 20
0.0
 30
0.0
  3
AIGNBL0201002D
  1

  0
ARC
  5
2AA
  8
_________1
 62
     7
 10
-27.42040900000001
 20
187.20523299999999
 30
0.0
 40
2.4254020000000001
 50
342.13339500000001
 51
344.91737100000012
  0
ARC
  5
2AB
  8
_________1
 62
     7
 10
-27.772303999999998
 20
187.29637
 30
0.0
 40
2.788891
 50
344.99070599999999
 51
348.72715799999997
  0
ARC
  5
2AC
  8
_________1
 62
     7
 10
-27.951778000000012
 20
187.314425
 30
0.0
 40
2.9684829999999991
 50
349.06256999999999
 51
352.61273799999998
  0
ARC
  5
2AD
  8
_________1
 62
     7
 10
-27.711307000000001
 20
187.277173
 30
0.0
 40
2.725225
 50
352.73938299999998
 51
356.66093799999999
  0
ARC
  5
2AE
  8
_________1
 62
     7
 10
-27.864719000000001
 20
187.29087000000001
 30
0.0
 40
2.8791779999999991
 50
356.56665099999998
 51
0.010317
  0
ENDBLK
  5
2AF
  8
_________1
  0
BLOCK
  8
_________1
  2
AIGNBL0201002E
 70
     0
 10
0.0
 20
0.0
 30
0.0
  3
AIGNBL0201002E
  1

  0
ARC
  5
2B2
  8
_________1
 62
     7
 10
-27.698651999999999
 20
203.258747
 30
0.0
 40
9.9632079999999998
 50
268.93453099999999
 51
270.00840099999999
  0
ARC
  5
2B3
  8
_________1
 62
     7
 10
-27.80433
 20
198.76735199999999
 30
0.0
 40
5.4706700000000001
 50
267.22057599999999
 51
269.16643699999997
  0
ARC
  5
2B4
  8
_________1
 62
     7
 10
-27.844044
 20
199.36408700000001
 30
0.0
 40
6.0651650000000004
 50
266.128308
 51
267.86866400000002
  0
ARC
  5
2B5
  8
_________1
 62
     7
 10
-27.76676500000001
 20
201.27689100000001
 30
0.0
 40
7.9789909999999997
 50
265.202361
 51
266.50210600000003
  0
ARC
  5
2B6
  8
_________1
 62
     7
 10
-27.771048
 20
201.02726999999999
 30
0.0
 40
7.7299039999999994
 50
263.76555999999999
 51
265.079251
  0
ARC
  5
2B7
  8
_________1
 62
     7
 10
-27.449864000000002
 20
203.67643899999999
 30
0.0
 40
10.398332999999999
 50
262.6411720000001
 51
263.59148399999998
  0
ARC
  5
2B8
  8
_________1
 62
     7
 10
-28.238973000000001
 20
197.71616
 30
0.0
 40
4.3861169999999987
 50
260.71391
 51
262.89195999999998
  0
ARC
  5
2B9
  8
_________1
 62
     7
 10
-27.122727999999999
 20
204.48332300000001
 30
0.0
 40
11.244721999999999
 50
259.84548999999998
 51
260.664806
  0
ARC
  5
2BA
  8
_________1
 62
     7
 10
-28.096734000000001
 20
198.67959200000001
 30
0.0
 40
5.3605679999999989
 50
257.51702999999998
 51
259.15640400000001
  0
ARC
  5
2BB
  8
_________1
 62
     7
 10
-28.282384
 20
197.896783
 30
0.0
 40
4.5561519999999991
 50
255.83482599999999
 51
257.668655
  0
ARC
  5
2BC
  8
_________1
 62
     7
 10
-28.364447999999999
 20
197.50556
 30
0.0
 40
4.1567739999999986
 50
253.72600700000001
 51
255.61193499999999
  0
ARC
  5
2BD
  8
_________1
 62
     7
 10
-28.278969
 20
197.606953
 30
0.0
 40
4.2783949999999988
 50
251.29174399999999
 51
253.00764300000009
  0
ARC
  5
2BE
  8
_________1
 62
     7
 10
-28.48884
 20
196.84328600000001
 30
0.0
 40
3.4880659999999999
 50
248.588694
 51
250.53341900000001
  0
ARC
  5
2BF
  8
_________1
 62
     7
 10
-28.887267000000001
 20
195.722093
 30
0.0
 40
2.2991239999999991
 50
244.92186799999999
 51
247.63233
  0
ARC
  5
2C0
  8
_________1
 62
     7
 10
-29.288475999999999
 20
194.83605
 30
0.0
 40
1.326608999999999
 50
240.14252200000001
 51
244.39644000000001
  0
ARC
  5
2C1
  8
_________1
 62
     7
 10
-29.513985999999999
 20
194.46257199999999
 30
0.0
 40
0.8904879999999998
 50
235.08394100000001
 51
240.76302799999999
  0
ARC
  5
2C2
  8
_________1
 62
     7
 10
-29.564036999999999
 20
194.37879000000001
 30
0.0
 40
0.793169
 50
228.87649400000001
 51
234.58450199999999
  0
ARC
  5
2C3
  8
_________1
 62
     7
 10
-29.802046000000001
 20
194.10531800000001
 30
0.0
 40
0.4306300000000001
 50
219.58514600000001
 51
228.8010250000001
  0
ARC
  5
2C4
  8
_________1
 62
     7
 10
-29.884675999999999
 20
194.03750600000001
 30
0.0
 40
0.323738
 50
208.79815600000001
 51
219.65459999999999
  0
ARC
  5
2C5
  8
_________1
 62
     7
 10
-29.945129999999999
 20
194.00455700000001
 30
0.0
 40
0.254889
 50
196.33114599999999
 51
208.85399899999999
  0
ARC
  5
2C6
  8
_________1
 62
     7
 10
-29.968031
 20
193.98877300000001
 30
0.0
 40
0.22864
 50
181.14160799999999
 51
194.14845600000001
  0
ENDBLK
  5
2C7
  8
_________1
  0
BLOCK
  8
_________1
  2
AIGNBL0201002F
 70
     0
 10
0.0
 20
0.0
 30
0.0
  3
AIGNBL0201002F
  1

  0
LINE
  5
2CA
  8
_________1
 62
     7
 10
-27.697199999999999
 20
193.29599999999999
 30
0.0
 11
-27.5105
 21
193.297
 31
0.0
  0
ARC
  5
2CB
  8
_________1
 62
     7
 10
-27.63529500000001
 20
200.20172299999999
 30
0.0
 40
6.9055899999999992
 50
271.03576299999997
 51
272.57726300000002
  0
ARC
  5
2CC
  8
_________1
 62
     7
 10
-27.576013
 20
199.85368399999999
 30
0.0
 40
6.5553819999999998
 50
272.19643300000001
 51
273.80663500000003
  0
ARC
  5
2CD
  8
_________1
 62
     7
 10
-27.561574
 20
200.36614399999999
 30
0.0
 40
7.065917999999999
 50
273.41393099999999
 51
274.881641
  0
ARC
  5
2CE
  8
_________1
 62
     7
 10
-27.444082999999999
 20
199.19171
 30
0.0
 40
5.8857710000000001
 50
274.71495199999998
 51
276.44027599999998
  0
ARC
  5
2CF
  8
_________1
 62
     7
 10
-27.536166999999999
 20
200.29390900000001
 30
0.0
 40
6.9914179999999986
 50
276.17698300000001
 51
277.59040099999999
  0
ARC
  5
2D0
  8
_________1
 62
     7
 10
-27.185055999999999
 20
197.92194900000001
 30
0.0
 40
4.5939940000000004
 50
277.15734300000003
 51
279.23682599999989
  0
ARC
  5
2D1
  8
_________1
 62
     7
 10
-27.772030999999998
 20
201.57411200000001
 30
0.0
 40
8.2930229999999998
 50
279.18940300000003
 51
280.300342
  0
ARC
  5
2D2
  8
_________1
 62
     7
 10
-27.340194
 20
198.88569099999989
 30
0.0
 40
5.5709919999999986
 50
280.87457799999999
 51
282.45202699999999
  0
ARC
  5
2D3
  8
_________1
 62
     7
 10
-27.057001
 20
197.663174
 30
0.0
 40
4.3161889999999987
 50
282.28038299999997
 51
284.21617600000002
  0
ARC
  5
2D4
  8
_________1
 62
     7
 10
-27.128685000000001
 20
197.86575400000001
 30
0.0
 40
4.5302119999999997
 50
284.465823
 51
286.19627500000001
  0
ARC
  5
2D5
  8
_________1
 62
     7
 10
-26.882905999999998
 20
196.88495
 30
0.0
 40
3.5199809999999991
 50
286.80750399999999
 51
288.893148
  0
ARC
  5
2D6
  8
_________1
 62
     7
 10
-26.742901
 20
196.406857
 30
0.0
 40
3.0223930000000001
 50
289.31676700000003
 51
291.56115999999997
  0
ARC
  5
2D7
  8
_________1
 62
     7
 10
-26.562874999999998
 20
195.848974
 30
0.0
 40
2.4376790000000002
 50
292.44473299999999
 51
295.00110899999999
  0
ARC
  5
2D8
  8
_________1
 62
     7
 10
-26.091341
 20
194.80833799999999
 30
0.0
 40
1.295323999999999
 50
295.55218400000001
 51
299.90889399999998
  0
ARC
  5
2D9
  8
_________1
 62
     7
 10
-25.872273
 20
194.44960699999999
 30
0.0
 40
0.875206
 50
299.18736699999999
 51
304.96570300000002
  0
ARC
  5
2DA
  8
_________1
 62
     7
 10
-25.81317
 20
194.35701399999999
 30
0.0
 40
0.76547
 50
305.31215099999997
 51
311.22689200000002
  0
ARC
  5
2DB
  8
_________1
 62
     7
 10
-25.596101000000001
 20
194.10897600000001
 30
0.0
 40
0.435861
 50
311.25441599999999
 51
320.35945199999998
  0
ARC
  5
2DC
  8
_________1
 62
     7
 10
-25.506806000000001
 20
194.03553099999999
 30
0.0
 40
0.320243
 50
320.28599700000001
 51
331.2612870000001
  0
ARC
  5
2DD
  8
_________1
 62
     7
 10
-25.449255000000001
 20
194.00455700000001
 30
0.0
 40
0.254889
 50
331.14602100000002
 51
343.66887300000002
  0
ARC
  5
2DE
  8
_________1
 62
     7
 10
-25.426354
 20
193.98877300000001
 30
0.0
 40
0.22864
 50
345.851564
 51
358.85841199999999
  0
ENDBLK
  5
2DF
  8
_________1
  0
BLOCK
  8
_________1
  2
AIGNBL02010030
 70
     0
 10
0.0
 20
0.0
 30
0.0
  3
AIGNBL02010030
  1

  0
ARC
  5
2E2
  8
_________1
 62
     7
 10
-27.938179999999999
 20
187.33612600000001
 30
0.0
 40
2.9654109999999991
 50
356.39077500000002
 51
359.09563700000001
  0
ARC
  5
2E3
  8
_________1
 62
     7
 10
-27.927102999999999
 20
187.339989
 30
0.0
 40
2.9546030000000001
 50
352.47540199999997
 51
356.30249500000002
  0
ARC
  5
2E4
  8
_________1
 62
     7
 10
-27.928470000000001
 20
187.352138
 30
0.0
 40
2.957573
 50
348.494573
 51
352.24552699999998
  0
ARC
  5
2E5
  8
_________1
 62
     7
 10
-27.713761000000002
 20
187.32381799999999
 30
0.0
 40
2.7415709999999991
 50
344.14485400000001
 51
348.17951499999998
  0
ARC
  5
2E6
  8
_________1
 62
     7
 10
-27.721105000000001
 20
187.338808
 30
0.0
 40
2.7527590000000002
 50
339.89470699999998
 51
343.886481
  0
ARC
  5
2E7
  8
_________1
 62
     7
 10
-27.603662
 20
187.30923799999999
 30
0.0
 40
2.6323379999999998
 50
335.44038799999998
 51
339.62040200000001
  0
ARC
  5
2E8
  8
_________1
 62
     7
 10
-27.325195000000001
 20
187.17702800000001
 30
0.0
 40
2.3241169999999989
 50
330.771863
 51
335.55150300000003
  0
ARC
  5
2E9
  8
_________1
 62
     7
 10
-27.421519
 20
187.22694000000001
 30
0.0
 40
2.4325509999999988
 50
326.24882300000002
 51
330.85375399999998
  0
ARC
  5
2EA
  8
_________1
 62
     7
 10
-27.334406999999999
 20
187.15987000000001
 30
0.0
 40
2.322868999999999
 50
321.54403100000002
 51
326.43054100000001
  0
ARC
  5
2EB
  8
_________1
 62
     7
 10
-27.435767999999999
 20
187.23356100000001
 30
0.0
 40
2.448078999999999
 50
316.978971
 51
321.66882299999997
  0
ARC
  5
2EC
  8
_________1
 62
     7
 10
-27.340288999999999
 20
187.12999500000001
 30
0.0
 40
2.3076389999999991
 50
312.2075549999999
 51
317.24153899999999
  0
ARC
  5
2ED
  8
_________1
 62
     7
 10
-27.559626999999999
 20
187.36936499999999
 30
0.0
 40
2.632299999999999
 50
307.78743700000001
 51
312.24355500000001
  0
ARC
  5
2EE
  8
_________1
 62
     7
 10
-27.80101500000001
 20
187.71637200000001
 30
0.0
 40
3.0545200000000001
 50
303.49815699999999
 51
307.37745799999999
  0
ARC
  5
2EF
  8
_________1
 62
     7
 10
-27.574603
 20
187.408759
 30
0.0
 40
2.673109999999999
 50
298.64152000000001
 51
303.09023500000001
  0
ARC
  5
2F0
  8
_________1
 62
     7
 10
-27.560756999999999
 20
187.36423500000001
 30
0.0
 40
2.6274130000000002
 50
294.28819499999997
 51
298.84192100000001
  0
ARC
  5
2F1
  8
_________1
 62
     7
 10
-27.715828999999999
 20
187.71607399999999
 30
0.0
 40
3.0118969999999998
 50
290.25812999999999
 51
294.223996
  0
ARC
  5
2F2
  8
_________1
 62
     7
 10
-27.671990999999998
 20
187.62348800000001
 30
0.0
 40
2.9098730000000002
 50
285.95565199999999
 51
290.0795819999999
  0
ARC
  5
2F3
  8
_________1
 62
     7
 10
-27.754729999999999
 20
187.95205799999999
 30
0.0
 40
3.2485479999999991
 50
282.07781499999999
 51
285.76568900000001
  0
ARC
  5
2F4
  8
_________1
 62
     7
 10
-27.691244000000001
 20
187.70463699999999
 30
0.0
 40
2.9933369999999999
 50
277.883557
 51
281.88047499999999
  0
ARC
  5
2F5
  8
_________1
 62
     7
 10
-27.688403000000012
 20
187.640232
 30
0.0
 40
2.9291580000000002
 50
273.90809300000001
 51
278.00129199999998
  0
ARC
  5
2F6
  8
_________1
 62
     7
 10
-27.695124
 20
187.80435399999999
 30
0.0
 40
3.0933589999999991
 50
269.96168999999998
 51
273.82510200000002
  0
ENDBLK
  5
2F7
  8
_________1
  0
BLOCK
  8
_________1
  2
AIGNBL02010031
 70
     0
 10
0.0
 20
0.0
 30
0.0
  3
AIGNBL02010031
  1

  0
ARC
  5
2FA
  8
_________1
 62
     7
 10
-27.575962000000001
 20
198.088787
 30
0.0
 40
2.590422999999999
 50
0.06732
 51
4.3845269999999994
  0
ARC
  5
2FB
  8
_________1
 62
     7
 10
-27.444019000000001
 20
198.10280599999999
 30
0.0
 40
2.4577969999999998
 50
4.2938400000000003
 51
8.8546240000000012
  0
ARC
  5
2FC
  8
_________1
 62
     7
 10
-27.560071000000001
 20
198.08280300000001
 30
0.0
 40
2.5755460000000001
 50
8.8969149999999981
 51
13.247795999999999
  0
ARC
  5
2FD
  8
_________1
 62
     7
 10
-27.637170000000001
 20
198.056453
 30
0.0
 40
2.656644
 50
13.419911000000001
 51
17.639112000000001
  0
ARC
  5
2FE
  8
_________1
 62
     7
 10
-27.660032000000001
 20
198.041282
 30
0.0
 40
2.6830389999999991
 50
17.799918000000002
 51
21.994541000000002
  0
ARC
  5
2FF
  8
_________1
 62
     7
 10
-27.545365
 20
198.08594600000001
 30
0.0
 40
2.5599899999999991
 50
22.028815000000002
 51
26.426670000000001
  0
ARC
  5
300
  8
_________1
 62
     7
 10
-27.774514
 20
197.95632499999999
 30
0.0
 40
2.822916999999999
 50
26.712707999999999
 51
30.715914000000009
  0
ARC
  5
301
  8
_________1
 62
     7
 10
-27.645527000000001
 20
198.022198
 30
0.0
 40
2.6783950000000001
 50
30.913840000000011
 51
35.133887999999999
  0
ARC
  5
302
  8
_________1
 62
     7
 10
-27.628813000000001
 20
198.03190699999999
 30
0.0
 40
2.6591390000000001
 50
35.170043999999997
 51
39.445383
  0
ARC
  5
303
  8
_________1
 62
     7
 10
-27.549035
 20
198.091961
 30
0.0
 40
2.5593810000000001
 50
39.541910000000001
 51
43.989271000000002
  0
ARC
  5
304
  8
_________1
 62
     7
 10
-27.587954
 20
198.07192900000001
 30
0.0
 40
2.6013250000000001
 50
43.711353000000003
 51
48.107396999999999
  0
ARC
  5
305
  8
_________1
 62
     7
 10
-27.585450000000002
 20
198.07947799999999
 30
0.0
 40
2.594036
 50
48.037216000000008
 51
52.452792999999993
  0
ARC
  5
306
  8
_________1
 62
     7
 10
-27.898076
 20
197.65355
 30
0.0
 40
3.1222750000000001
 50
52.667524999999998
 51
56.348634999999987
  0
ARC
  5
307
  8
_________1
 62
     7
 10
-27.631577000000011
 20
198.03248300000001
 30
0.0
 40
2.6591900000000002
 50
56.604157000000001
 51
60.928431999999987
  0
ARC
  5
308
  8
_________1
 62
     7
 10
-27.502462000000001
 20
198.300365
 30
0.0
 40
2.362384
 50
60.508462000000002
 51
65.397754000000006
  0
ARC
  5
309
  8
_________1
 62
     7
 10
-27.644749000000001
 20
198.04153500000001
 30
0.0
 40
2.6570419999999988
 50
64.931635
 51
69.287246999999994
  0
ARC
  5
30A
  8
_________1
 62
     7
 10
-27.670615000000002
 20
197.982597
 30
0.0
 40
2.7213210000000001
 50
69.216746999999998
 51
73.481851000000006
  0
ARC
  5
30B
  8
_________1
 62
     7
 10
-27.710934999999999
 20
197.86426
 30
0.0
 40
2.8462419999999988
 50
73.380989999999997
 51
77.459243000000001
  0
ARC
  5
30C
  8
_________1
 62
     7
 10
-27.753361999999999
 20
197.59812700000001
 30
0.0
 40
3.1152809999999991
 50
77.760346999999996
 51
81.490643000000006
  0
ARC
  5
30D
  8
_________1
 62
     7
 10
-27.707294000000001
 20
197.81543500000001
 30
0.0
 40
2.89358
 50
81.756084999999999
 51
85.778183999999996
  0
ARC
  5
30E
  8
_________1
 62
     7
 10
-27.706002999999999
 20
197.611998
 30
0.0
 40
3.0964119999999991
 50
86.079138
 51
89.836965000000006
  0
ENDBLK
  5
30F
  8
_________1
  0
BLOCK
  8
_________1
  2
AIGNBL02010032
 70
     0
 10
0.0
 20
0.0
 30
0.0
  3
AIGNBL02010032
  1

  0
ARC
  5
312
  8
_________1
 62
     7
 10
-27.698772000000002
 20
197.9034
 30
0.0
 40
2.804997999999999
 50
89.967731000000001
 51
94.116125999999994
  0
ARC
  5
313
  8
_________1
 62
     7
 10
-27.682838
 20
197.77649299999999
 30
0.0
 40
2.9327290000000001
 50
94.248653000000004
 51
98.217038000000016
  0
ARC
  5
314
  8
_________1
 62
     7
 10
-27.730941999999999
 20
198.08390299999999
 30
0.0
 40
2.621602999999999
 50
98.136741000000001
 51
102.57723
  0
ARC
  5
315
  8
_________1
 62
     7
 10
-27.676593
 20
197.83657099999999
 30
0.0
 40
2.874835
 50
102.561027
 51
106.59870100000001
  0
ARC
  5
316
  8
_________1
 62
     7
 10
-27.708888000000002
 20
197.93748400000001
 30
0.0
 40
2.7689010000000001
 50
106.55479099999999
 51
110.746571
  0
ARC
  5
317
  8
_________1
 62
     7
 10
-27.695125999999998
 20
197.91161600000001
 30
0.0
 40
2.7979699999999998
 50
110.822474
 51
114.95860399999999
  0
ARC
  5
318
  8
_________1
 62
     7
 10
-27.628208000000001
 20
197.78853000000001
 30
0.0
 40
2.9378109999999991
 50
115.128867
 51
119.05408799999999
  0
ARC
  5
319
  8
_________1
 62
     7
 10
-27.724603999999999
 20
197.96451099999999
 30
0.0
 40
2.7371620000000001
 50
119.07914599999999
 51
123.286354
  0
ARC
  5
31A
  8
_________1
 62
     7
 10
-27.807224999999999
 20
198.09376700000001
 30
0.0
 40
2.5837689999999989
 50
123.327895
 51
127.770347
  0
ARC
  5
31B
  8
_________1
 62
     7
 10
-27.835184999999999
 20
198.11613600000001
 30
0.0
 40
2.5489749999999991
 50
127.581502
 51
132.08013700000001
  0
ARC
  5
31C
  8
_________1
 62
     7
 10
-27.978881000000001
 20
198.24556799999999
 30
0.0
 40
2.356692999999999
 50
131.596069
 51
136.442868
  0
ARC
  5
31D
  8
_________1
 62
     7
 10
-27.900217000000001
 20
198.14095800000001
 30
0.0
 40
2.485878
 50
135.94492399999999
 51
140.523855
  0
ARC
  5
31E
  8
_________1
 62
     7
 10
-27.871473000000002
 20
198.11395400000001
 30
0.0
 40
2.5252340000000002
 50
140.46555000000001
 51
144.95674700000001
  0
ARC
  5
31F
  8
_________1
 62
     7
 10
-28.030377999999999
 20
198.20404199999999
 30
0.0
 40
2.343472999999999
 50
144.529236
 51
149.36439899999999
  0
ARC
  5
320
  8
_________1
 62
     7
 10
-27.822952999999998
 20
198.06757500000001
 30
0.0
 40
2.5915140000000001
 50
149.105255
 51
153.466084
  0
ARC
  5
321
  8
_________1
 62
     7
 10
-27.628643
 20
197.98677599999999
 30
0.0
 40
2.8014899999999998
 50
153.76294799999999
 51
157.78152700000001
  0
ARC
  5
322
  8
_________1
 62
     7
 10
-27.984303000000011
 20
198.12901400000001
 30
0.0
 40
2.4184540000000001
 50
157.71490499999999
 51
162.35331099999999
  0
ARC
  5
323
  8
_________1
 62
     7
 10
-27.796866999999999
 20
198.069265
 30
0.0
 40
2.615181999999999
 50
162.350742
 51
166.64414400000001
  0
ARC
  5
324
  8
_________1
 62
     7
 10
-27.780215999999999
 20
198.07329300000001
 30
0.0
 40
2.630463999999999
 50
166.81329299999999
 51
171.08066500000001
  0
ARC
  5
325
  8
_________1
 62
     7
 10
-27.954507
 20
198.102957
 30
0.0
 40
2.4536829999999998
 50
171.13395499999999
 51
175.69439199999999
  0
ARC
  5
326
  8
_________1
 62
     7
 10
-28.019282
 20
198.09693100000001
 30
0.0
 40
2.3895669999999991
 50
175.433705
 51
180.1222909999999
  0
ENDBLK
  5
327
  8
_________1
  0
BLOCK
  8
_________1
  2
AIGNBL02010033
 70
     0
 10
0.0
 20
0.0
 30
0.0
  3
AIGNBL02010033
  1

  0
ARC
  5
32A
  8
_________1
 62
     7
 10
-30.132968000000002
 20
195.80223100000001
 30
0.0
 40
0.076072
 50
172.21037699999999
 51
181.056703
  0
ARC
  5
32B
  8
_________1
 62
     7
 10
-30.159344000000001
 20
195.81275199999999
 30
0.0
 40
0.048995
 50
158.384117
 51
180.24606
  0
ARC
  5
32C
  8
_________1
 62
     7
 10
-30.1843
 20
195.82196200000001
 30
0.0
 40
0.02241
 50
124.427429
 51
156.771219
  0
LINE
  5
32D
  8
_________1
 62
     7
 10
-30.196999999999999
 20
195.84
 30
0.0
 11
-30.184200000000001
 21
195.84099999999989
 31
0.0
  0
ARC
  5
32E
  8
_________1
 62
     7
 10
-30.195985
 20
195.790201
 30
0.0
 40
0.05194
 50
53.279694999999997
 51
76.910753
  0
ARC
  5
32F
  8
_________1
 62
     7
 10
-30.415803000000011
 20
195.4796659999999
 30
0.0
 40
0.432388
 50
49.913439999999987
 51
54.53517999999999
  0
ARC
  5
330
  8
_________1
 62
     7
 10
-30.850998000000001
 20
194.987414
 30
0.0
 40
1.089354999999999
 50
46.379318999999988
 51
49.073292999999993
  0
ARC
  5
331
  8
_________1
 62
     7
 10
-36.031341999999988
 20
189.45412300000001
 30
0.0
 40
8.6691120000000002
 50
46.359198999999997
 51
46.823070999999999
  0
ARC
  5
332
  8
_________1
 62
     7
 10
-18.788043999999999
 20
207.909706
 30
0.0
 40
16.58905
 50
227.2510410000001
 51
227.57104799999999
  0
ARC
  5
333
  8
_________1
 62
     7
 10
-28.205431000000001
 20
197.630258
 30
0.0
 40
2.6480069999999989
 50
227.91325499999991
 51
230.444998
  0
ARC
  5
334
  8
_________1
 62
     7
 10
-28.038440000000001
 20
197.83568399999999
 30
0.0
 40
2.912736999999999
 50
230.48564999999999
 51
233.18375800000001
  0
ARC
  5
335
  8
_________1
 62
     7
 10
-28.113046000000001
 20
197.740354
 30
0.0
 40
2.7917139999999989
 50
233.23712599999999
 51
236.35271399999999
  0
ARC
  5
336
  8
_________1
 62
     7
 10
-28.142609000000011
 20
197.70586900000001
 30
0.0
 40
2.7466309999999998
 50
236.46749800000001
 51
239.76038399999999
  0
ARC
  5
337
  8
_________1
 62
     7
 10
-27.967165000000001
 20
198.01176899999999
 30
0.0
 40
3.0992639999999989
 50
239.80633399999999
 51
242.77665500000001
  0
ARC
  5
338
  8
_________1
 62
     7
 10
-27.936124
 20
198.066045
 30
0.0
 40
3.1617289999999998
 50
242.72640000000001
 51
245.666968
  0
ARC
  5
339
  8
_________1
 62
     7
 10
-28.007318000000001
 20
197.90894599999999
 30
0.0
 40
2.989250999999999
 50
245.66963000000001
 51
248.792395
  0
ARC
  5
33A
  8
_________1
 62
     7
 10
-27.792155999999999
 20
198.444772
 30
0.0
 40
3.5666289999999998
 50
248.683864
 51
251.28751099999999
  0
ARC
  5
33B
  8
_________1
 62
     7
 10
-27.584619
 20
199.13359800000001
 30
0.0
 40
4.2856959999999988
 50
251.61400399999999
 51
253.76576900000001
  0
ARC
  5
33C
  8
_________1
 62
     7
 10
-27.914097999999999
 20
197.98997700000001
 30
0.0
 40
3.0955659999999989
 50
253.70332099999999
 51
256.671741
  0
ARC
  5
33D
  8
_________1
 62
     7
 10
-27.867308999999999
 20
198.06480400000001
 30
0.0
 40
3.1792899999999991
 50
256.16209400000002
 51
259.02309200000002
  0
ARC
  5
33E
  8
_________1
 62
     7
 10
-27.741769000000001
 20
198.61249900000001
 30
0.0
 40
3.7409159999999999
 50
258.73278599999998
 51
261.14983000000001
  0
ARC
  5
33F
  8
_________1
 62
     7
 10
-27.538233000000002
 20
200.17792900000001
 30
0.0
 40
5.319170999999999
 50
261.5777930000001
 51
263.26622900000001
  0
ARC
  5
340
  8
_________1
 62
     7
 10
-27.730568000000002
 20
198.50684799999999
 30
0.0
 40
3.6370680000000002
 50
263.18847299999999
 51
265.64254399999999
  0
ARC
  5
341
  8
_________1
 62
     7
 10
-27.642952000000001
 20
200.031924
 30
0.0
 40
5.1644719999999991
 50
265.95885199999998
 51
267.68150900000001
  0
LINE
  5
342
  8
_________1
 62
     7
 10
-27.851900000000001
 20
194.87200000000001
 30
0.0
 11
-27.697199999999999
 21
194.869
 31
0.0
  0
ENDBLK
  5
343
  8
_________1
  0
BLOCK
  8
_________1
  2
AIGNBL02010034
 70
     0
 10
0.0
 20
0.0
 30
0.0
  3
AIGNBL02010034
  1

  0
LINE
  5
346
  8
_________1
 62
     7
 10
-27.697199999999999
 20
194.869
 30
0.0
 11
-27.5425
 21
194.87200000000001
 31
0.0
  0
ARC
  5
347
  8
_________1
 62
     7
 10
-27.717587000000002
 20
199.422708
 30
0.0
 40
4.5543949999999986
 50
272.20312300000001
 51
274.15655600000002
  0
ARC
  5
348
  8
_________1
 62
     7
 10
-27.707630000000002
 20
198.954939
 30
0.0
 40
4.0872039999999989
 50
274.49263100000002
 51
276.67639200000002
  0
ARC
  5
349
  8
_________1
 62
     7
 10
-27.709312000000001
 20
199.074175
 30
0.0
 40
4.2058450000000001
 50
276.5102950000001
 51
278.64572199999998
  0
ARC
  5
34A
  8
_________1
 62
     7
 10
-27.757166000000002
 20
199.20190099999999
 30
0.0
 40
4.3394050000000002
 50
279.01688899999999
 51
281.10053599999998
  0
ARC
  5
34B
  8
_________1
 62
     7
 10
-27.833423
 20
199.50299999999999
 30
0.0
 40
4.6495819999999988
 50
281.30828600000001
 51
283.26356299999998
  0
ARC
  5
34C
  8
_________1
 62
     7
 10
-27.697357
 20
198.76984200000001
 30
0.0
 40
3.9049269999999989
 50
283.78845000000001
 51
286.13793099999998
  0
ARC
  5
34D
  8
_________1
 62
     7
 10
-27.387602999999999
 20
197.78461100000001
 30
0.0
 40
2.8725200000000002
 50
285.66513900000001
 51
288.88229100000001
  0
ARC
  5
34E
  8
_________1
 62
     7
 10
-27.736263999999998
 20
198.812746
 30
0.0
 40
3.958164
 50
288.84130199999998
 51
291.187363
  0
ARC
  5
34F
  8
_________1
 62
     7
 10
-27.75262
 20
198.77988199999999
 30
0.0
 40
3.9335249999999991
 50
291.58250900000002
 51
293.95550500000002
  0
ARC
  5
350
  8
_________1
 62
     7
 10
-27.647561
 20
198.457573
 30
0.0
 40
3.5964930000000002
 50
294.51082000000002
 51
297.09585199999998
  0
ARC
  5
351
  8
_________1
 62
     7
 10
-27.163841000000001
 20
197.530866
 30
0.0
 40
2.5511840000000001
 50
296.90420599999999
 51
300.51284399999997
  0
ARC
  5
352
  8
_________1
 62
     7
 10
-27.334810000000001
 20
197.83933999999999
 30
0.0
 40
2.9037609999999998
 50
300.32875100000001
 51
303.44340599999998
  0
ARC
  5
353
  8
_________1
 62
     7
 10
-27.813965
 20
198.507081
 30
0.0
 40
3.7251489999999992
 50
303.93284399999999
 51
306.26456000000002
  0
ARC
  5
354
  8
_________1
 62
     7
 10
-27.048383999999999
 20
197.4365
 30
0.0
 40
2.409146999999999
 50
306.64463999999998
 51
309.91195299999998
  0
ARC
  5
355
  8
_________1
 62
     7
 10
-27.229735000000002
 20
197.677469
 30
0.0
 40
2.7103779999999991
 50
309.584157
 51
312.05763000000002
  0
ARC
  5
356
  8
_________1
 62
     7
 10
-29.103677999999999
 20
199.726822
 30
0.0
 40
5.4873079999999996
 50
312.25114600000001
 51
313.21594399999998
  0
LINE
  5
357
  8
_________1
 62
     7
 10
-25.3462
 20
195.72800000000001
 30
0.0
 11
-25.294899999999998
 21
195.77600000000001
 31
0.0
  0
ARC
  5
358
  8
_________1
 62
     7
 10
-24.407391000000001
 20
194.837818
 30
0.0
 40
1.291480999999999
 50
131.137531
 51
133.409818
  0
ARC
  5
359
  8
_________1
 62
     7
 10
-24.936589000000001
 20
195.418823
 30
0.0
 40
0.5060279999999999
 50
125.362966
 51
129.28804600000001
  0
ARC
  5
35A
  8
_________1
 62
     7
 10
-25.192969999999999
 20
195.780475
 30
0.0
 40
0.062719
 50
105.909508
 51
125.571883
  0
LINE
  5
35B
  8
_________1
 62
     7
 10
-25.2102
 20
195.84099999999989
 30
0.0
 11
-25.197800000000001
 21
195.84
 31
0.0
  0
ARC
  5
35C
  8
_________1
 62
     7
 10
-25.208444
 20
195.82262499999999
 30
0.0
 40
0.020779
 50
24.207920999999999
 51
59.059148999999991
  0
ARC
  5
35D
  8
_________1
 62
     7
 10
-25.236750000000001
 20
195.81277399999999
 30
0.0
 40
0.050703
 50
0.126671
 51
21.243151000000001
  0
ARC
  5
35E
  8
_________1
 62
     7
 10
-25.245849
 20
195.80341999999999
 30
0.0
 40
0.060547
 50
357.54640799999999
 51
8.9945670000000018
  0
ENDBLK
  5
35F
  8
_________1
  0
BLOCK
  8
_________1
  2
AIGNBL02010035
 70
     0
 10
0.0
 20
0.0
 30
0.0
  3
AIGNBL02010035
  1

  0
ARC
  5
362
  8
_________1
 62
     7
 10
-27.698813000000001
 20
187.81790699999999
 30
0.0
 40
3.106911999999999
 50
266.18334700000003
 51
270.029901
  0
ARC
  5
363
  8
_________1
 62
     7
 10
-27.670069999999999
 20
187.984534
 30
0.0
 40
3.275129999999999
 50
262.21500099999997
 51
265.875654
  0
ARC
  5
364
  8
_________1
 62
     7
 10
-27.771993999999999
 20
187.31465700000001
 30
0.0
 40
2.597640999999999
 50
257.82742300000001
 51
262.44098600000001
  0
ARC
  5
365
  8
_________1
 62
     7
 10
-27.778676999999998
 20
187.37513799999999
 30
0.0
 40
2.655422999999999
 50
253.72976199999999
 51
258.24355600000001
  0
ARC
  5
366
  8
_________1
 62
     7
 10
-27.803887
 20
187.38271700000001
 30
0.0
 40
2.6557650000000002
 50
249.78834599999999
 51
254.29768300000001
  0
ARC
  5
367
  8
_________1
 62
     7
 10
-27.803995
 20
187.409325
 30
0.0
 40
2.680714
 50
245.53093000000001
 51
249.98698400000001
  0
ARC
  5
368
  8
_________1
 62
     7
 10
-27.709468000000001
 20
187.61255600000001
 30
0.0
 40
2.904846
 50
241.375654
 51
245.49427
  0
ARC
  5
369
  8
_________1
 62
     7
 10
-27.628643
 20
187.72856100000001
 30
0.0
 40
3.045431999999999
 50
237.181838
 51
241.08644699999999
  0
ARC
  5
36A
  8
_________1
 62
     7
 10
-27.590467
 20
187.72045199999999
 30
0.0
 40
3.0595249999999989
 50
232.62573599999999
 51
236.49868900000001
  0
ARC
  5
36B
  8
_________1
 62
     7
 10
-27.505948
 20
187.761011
 30
0.0
 40
3.1433490000000002
 50
228.11884599999999
 51
231.850202
  0
ARC
  5
36C
  8
_________1
 62
     7
 10
-28.009284999999998
 20
187.17523899999989
 30
0.0
 40
2.3712580000000001
 50
222.826053
 51
227.72489400000001
  0
ARC
  5
36D
  8
_________1
 62
     7
 10
-27.96435300000001
 20
187.22863100000001
 30
0.0
 40
2.4405220000000001
 50
218.32393099999999
 51
223.02831399999999
  0
ARC
  5
36E
  8
_________1
 62
     7
 10
-27.965107
 20
187.22882999999999
 30
0.0
 40
2.4400539999999991
 50
213.68688299999999
 51
218.338584
  0
ARC
  5
36F
  8
_________1
 62
     7
 10
-27.975197000000001
 20
187.225514
 30
0.0
 40
2.429819999999999
 50
209.143677
 51
213.75378599999999
  0
ARC
  5
370
  8
_________1
 62
     7
 10
-27.911549999999998
 20
187.25679
 30
0.0
 40
2.500645
 50
204.61730900000001
 51
209.05936399999999
  0
ARC
  5
371
  8
_________1
 62
     7
 10
-28.167801000000001
 20
187.15328199999999
 30
0.0
 40
2.2246029999999992
 50
199.996331
 51
204.94291799999999
  0
ARC
  5
372
  8
_________1
 62
     7
 10
-27.737209000000011
 20
187.317902
 30
0.0
 40
2.68554
 50
196.06356099999999
 51
200.15529100000001
  0
ARC
  5
373
  8
_________1
 62
     7
 10
-27.67444600000001
 20
187.32534000000001
 30
0.0
 40
2.7479299999999989
 50
191.825176
 51
195.85049599999999
  0
ARC
  5
374
  8
_________1
 62
     7
 10
-27.741319000000001
 20
187.305409
 30
0.0
 40
2.6783980000000001
 50
187.55892700000001
 51
191.70101299999999
  0
ARC
  5
375
  8
_________1
 62
     7
 10
-27.899177999999999
 20
187.29755700000001
 30
0.0
 40
2.520910999999999
 50
183.368167
 51
187.85397599999999
  0
ARC
  5
376
  8
_________1
 62
     7
 10
-26.961213999999998
 20
187.35563300000001
 30
0.0
 40
3.4606690000000002
 50
181.09795800000001
 51
183.41566900000001
  0
ENDBLK
  5
377
  8
_________1
  0
BLOCK
  8
_________1
  2
AIGNBL02010036
 70
     0
 10
0.0
 20
0.0
 30
0.0
  3
AIGNBL02010036
  1

  0
ARC
  5
37A
  8
_________1
 62
     7
 10
-28.217704999999999
 20
253.30408199999999
 30
0.0
 40
0.10453
 50
92.291049999999998
 51
177.51168899999999
  0
ENDBLK
  5
37B
  8
_________1
  0
BLOCK
  8
_________1
  2
AIGNBL02010037
 70
     0
 10
0.0
 20
0.0
 30
0.0
  3
AIGNBL02010037
  1

  0
ARC
  5
37E
  8
_________1
 62
     7
 10
-27.176300999999999
 20
253.30482000000001
 30
0.0
 40
0.103778
 50
2.0984519999999991
 51
87.901539000000014
  0
ENDBLK
  5
37F
  8
_________1
  0
BLOCK
  8
_________1
  2
AIGNBL02010038
 70
     0
 10
0.0
 20
0.0
 30
0.0
  3
AIGNBL02010038
  1

  0
ARC
  5
382
  8
_________1
 62
     7
 10
-28.192419000000001
 20
241.04177300000001
 30
0.0
 40
0.129802
 50
182.057467
 51
267.94256300000001
  0
ENDBLK
  5
383
  8
_________1
  0
BLOCK
  8
_________1
  2
AIGNBL02010039
 70
     0
 10
0.0
 20
0.0
 30
0.0
  3
AIGNBL02010039
  1

  0
ARC
  5
386
  8
_________1
 62
     7
 10
-27.202058000000001
 20
241.04150799999999
 30
0.0
 40
0.12954
 50
272.102373
 51
358.05569400000002
  0
ENDBLK
  5
387
  8
_________1
  0
BLOCK
  8
_________1
  2
AIGNBL0201003A
 70
     0
 10
0.0
 20
0.0
 30
0.0
  3
AIGNBL0201003A
  1

  0
ARC
  5
38A
  8
_________1
 62
     7
 10
-27.697192999999999
 20
264.28063100000003
 30
0.0
 40
5.0736249999999989
 50
270.00002000000001
 51
359.99999000000003
  0
ARC
  5
38B
  8
_________1
 62
     7
 10
-27.697106999999999
 20
264.28054300000002
 30
0.0
 40
5.0735390000000002
 50
0.000983
 51
90.00095300000001
  0
ARC
  5
38C
  8
_________1
 62
     7
 10
-27.697278000000001
 20
264.28054300000002
 30
0.0
 40
5.0735390000000002
 50
89.999026999999984
 51
179.998998
  0
ARC
  5
38D
  8
_________1
 62
     7
 10
-27.697192999999999
 20
264.28062899999998
 30
0.0
 40
5.0736230000000004
 50
179.99996999999999
 51
270.00002000000001
  0
ENDBLK
  5
38E
  8
_________1
  0
BLOCK
  8
_________1
  2
AIGNBL0201003B
 70
     0
 10
0.0
 20
0.0
 30
0.0
  3
AIGNBL0201003B
  1

  0
ARC
  5
391
  8
_________1
 62
     7
 10
-27.697279999999999
 20
264.28054500000002
 30
0.0
 40
5.373435999999999
 50
270.00093800000002
 51
0.000908
  0
ARC
  5
392
  8
_________1
 62
     7
 10
-27.697279999999999
 20
264.28071499999999
 30
0.0
 40
5.373435999999999
 50
359.99909200000002
 51
89.999061999999995
  0
ARC
  5
393
  8
_________1
 62
     7
 10
-27.697105000000001
 20
264.28071499999999
 30
0.0
 40
5.373435999999999
 50
90.000917999999984
 51
180.00092799999999
  0
ARC
  5
394
  8
_________1
 62
     7
 10
-27.697106999999999
 20
264.28054300000002
 30
0.0
 40
5.3734349999999989
 50
179.99905200000001
 51
269.999101
  0
ENDBLK
  5
395
  8
_________1
  0
BLOCK
  8
_________1
  2
AIGNBL0201003C
 70
     0
 10
0.0
 20
0.0
 30
0.0
  3
AIGNBL0201003C
  1

  0
ARC
  5
398
  8
_________1
 62
     7
 10
67.825519999999983
 20
198.53946999999999
 30
0.0
 40
0.052351
 50
182.20380399999991
 51
267.79622499999999
  0
ENDBLK
  5
399
  8
_________1
  0
BLOCK
  8
_________1
  2
AIGNBL0201003D
 70
     0
 10
0.0
 20
0.0
 30
0.0
  3
AIGNBL0201003D
  1

  0
ARC
  5
39C
  8
_________1
 62
     7
 10
78.468366000000003
 20
198.539389
 30
0.0
 40
0.052266
 50
272.11791399999998
 51
357.8820960000001
  0
ENDBLK
  5
39D
  8
_________1
  0
BLOCK
  8
_________1
  2
AIGNBL0201003E
 70
     0
 10
0.0
 20
0.0
 30
0.0
  3
AIGNBL0201003E
  1

  0
INSERT
  5
3A0
  8
_________1
 62
     7
  2
AIGNBL0202003F
 10
0.0
 20
0.0
 30
0.0
  0
INSERT
  5
3A1
  8
_________1
 62
     7
  2
AIGNBL02020040
 10
0.0
 20
0.0
 30
0.0
  0
INSERT
  5
3A2
  8
_________1
 62
     7
  2
AIGNBL02020041
 10
0.0
 20
0.0
 30
0.0
  0
INSERT
  5
3A3
  8
_________1
 62
     7
  2
AIGNBL02020042
 10
0.0
 20
0.0
 30
0.0
  0
INSERT
  5
3A4
  8
_________1
 62
     7
  2
AIGNBL02020043
 10
0.0
 20
0.0
 30
0.0
  0
INSERT
  5
3A5
  8
_________1
 62
     7
  2
AIGNBL02020044
 10
0.0
 20
0.0
 30
0.0
  0
INSERT
  5
3A6
  8
_________1
 62
     7
  2
AIGNBL02020045
 10
0.0
 20
0.0
 30
0.0
  0
INSERT
  5
3A7
  8
_________1
 62
     7
  2
AIGNBL02020046
 10
0.0
 20
0.0
 30
0.0
  0
INSERT
  5
3A8
  8
_________1
 62
     7
  2
AIGNBL02020047
 10
0.0
 20
0.0
 30
0.0
  0
INSERT
  5
3A9
  8
_________1
 62
     7
  2
AIGNBL02020048
 10
0.0
 20
0.0
 30
0.0
  0
INSERT
  5
3AA
  8
_________1
 62
     7
  2
AIGNBL02020049
 10
0.0
 20
0.0
 30
0.0
  0
INSERT
  5
3AB
  8
_________1
 62
     7
  2
AIGNBL0202004A
 10
0.0
 20
0.0
 30
0.0
  0
ENDBLK
  5
3AC
  8
_________1
  0
BLOCK
  8
_________1
  2
AIGNBL0201004B
 70
     0
 10
0.0
 20
0.0
 30
0.0
  3
AIGNBL0201004B
  1

  0
ARC
  5
3AF
  8
_________1
 62
     7
 10
62.171111000000003
 20
206.594561
 30
0.0
 40
0.103759
 50
2.0884999999999989
 51
87.911490000000001
  0
ENDBLK
  5
3B0
  8
_________1
  0
BLOCK
  8
_________1
  2
AIGNBL0201004C
 70
     0
 10
0.0
 20
0.0
 30
0.0
  3
AIGNBL0201004C
  1

  0
ARC
  5
3B3
  8
_________1
 62
     7
 10
62.170741000000007
 20
205.55240800000001
 30
0.0
 40
0.104129
 50
272.28476899999998
 51
357.91247199999998
  0
ENDBLK
  5
3B4
  8
_________1
  0
BLOCK
  8
_________1
  2
AIGNBL0201004D
 70
     0
 10
0.0
 20
0.0
 30
0.0
  3
AIGNBL0201004D
  1

  0
ARC
  5
3B7
  8
_________1
 62
     7
 10
78.391031999999996
 20
134.36373399999999
 30
0.0
 40
0.129654
 50
272.14387099999999
 51
357.85613899999998
  0
ENDBLK
  5
3B8
  8
_________1
  0
BLOCK
  8
_________1
  2
AIGNBL0201004E
 70
     0
 10
0.0
 20
0.0
 30
0.0
  3
AIGNBL0201004E
  1

  0
ARC
  5
3BB
  8
_________1
 62
     7
 10
67.903447
 20
134.36443899999989
 30
0.0
 40
0.130358
 50
182.442137
 51
267.87357100000003
  0
ENDBLK
  5
3BC
  8
_________1
  0
BLOCK
  8
_________1
  2
AIGNBL0201004F
 70
     0
 10
0.0
 20
0.0
 30
0.0
  3
AIGNBL0201004F
  1

  0
ARC
  5
3BF
  8
_________1
 62
     7
 10
49.908067000000003
 20
206.56850499999999
 30
0.0
 40
0.129831
 50
92.066637999999983
 51
177.85435799999999
  0
ENDBLK
  5
3C0
  8
_________1
  0
BLOCK
  8
_________1
  2
AIGNBL02010050
 70
     0
 10
0.0
 20
0.0
 30
0.0
  3
AIGNBL02010050
  1

  0
ARC
  5
3C3
  8
_________1
 62
     7
 10
49.908260999999989
 20
205.578284
 30
0.0
 40
0.130013
 50
181.991963
 51
267.85044399999998
  0
ENDBLK
  5
3C4
  8
_________1
  0
BLOCK
  8
_________1
  2
AIGNBL02010051
 70
     0
 10
0.0
 20
0.0
 30
0.0
  3
AIGNBL02010051
  1

  0
ARC
  5
3C7
  8
_________1
 62
     7
 10
29.950043999999998
 20
195.43533500000001
 30
0.0
 40
0.259919
 50
166.71253300000001
 51
252.389319
  0
ENDBLK
  5
3C8
  8
_________1
  0
BLOCK
  8
_________1
  2
AIGNBL02010052
 70
     0
 10
0.0
 20
0.0
 30
0.0
  3
AIGNBL02010052
  1

  0
ARC
  5
3CB
  8
_________1
 62
     7
 10
31.251691000000001
 20
200.163757
 30
0.0
 40
0.259633
 50
76.533417
 51
162.43734000000001
  0
ENDBLK
  5
3CC
  8
_________1
  0
BLOCK
  8
_________1
  2
AIGNBL02010053
 70
     0
 10
0.0
 20
0.0
 30
0.0
  3
AIGNBL02010053
  1

  0
ARC
  5
3CF
  8
_________1
 62
     7
 10
68.084788000000003
 20
210.92214799999999
 30
0.0
 40
0.3118
 50
92.052265000000006
 51
177.84906100000001
  0
ENDBLK
  5
3D0
  8
_________1
  0
BLOCK
  8
_________1
  2
AIGNBL02010054
 70
     0
 10
0.0
 20
0.0
 30
0.0
  3
AIGNBL02010054
  1

  0
ARC
  5
3D3
  8
_________1
 62
     7
 10
78.209578000000008
 20
210.92273599999999
 30
0.0
 40
0.311216
 50
2.0465539999999991
 51
87.920517000000004
  0
ENDBLK
  5
3D4
  8
_________1
  0
BLOCK
  8
_________1
  2
AIGNBL02010055
 70
     0
 10
0.0
 20
0.0
 30
0.0
  3
AIGNBL02010055
  1

  0
ARC
  5
3D7
  8
_________1
 62
     7
 10
65.045113000000001
 20
209.42867000000001
 30
0.0
 40
2.7424710000000001
 50
2.955641
 51
5.8692500000000001
  0
ARC
  5
3D8
  8
_________1
 62
     7
 10
62.109456999999992
 20
209.222354
 30
0.0
 40
5.6851240000000001
 50
0.121144
 51
3.5066329999999999
  0
ENDBLK
  5
3D9
  8
_________1
  0
BLOCK
  8
_________1
  2
AIGNBL02010056
 70
     0
 10
0.0
 20
0.0
 30
0.0
  3
AIGNBL02010056
  1

  0
ARC
  5
3DC
  8
_________1
 62
     7
 10
64.964104000000006
 20
205.95152999999999
 30
0.0
 40
2.830662999999999
 50
357.69626799999998
 51
0.6797350000000001
  0
ARC
  5
3DD
  8
_________1
 62
     7
 10
62.277816000000001
 20
205.99812
 30
0.0
 40
5.5169940000000004
 50
354.92798299999998
 51
358.33423699999997
  0
ENDBLK
  5
3DE
  8
_________1
  0
BLOCK
  8
_________1
  2
AIGNBL02010057
 70
     0
 10
0.0
 20
0.0
 30
0.0
  3
AIGNBL02010057
  1

  0
ARC
  5
3E1
  8
_________1
 62
     7
 10
-33.018411999999998
 20
198.53925899999999
 30
0.0
 40
0.052161
 50
181.97958399999999
 51
267.23017199999998
  0
ENDBLK
  5
3E2
  8
_________1
  0
BLOCK
  8
_________1
  2
AIGNBL02010058
 70
     0
 10
0.0
 20
0.0
 30
0.0
  3
AIGNBL02010058
  1

  0
ARC
  5
3E5
  8
_________1
 62
     7
 10
-22.375489999999999
 20
198.538782
 30
0.0
 40
0.051663
 50
272.25935500000003
 51
358.53092900000001
  0
ENDBLK
  5
3E6
  8
_________1
  0
BLOCK
  8
_________1
  2
AIGNBL02010059
 70
     0
 10
0.0
 20
0.0
 30
0.0
  3
AIGNBL02010059
  1

  0
ARC
  5
3E9
  8
_________1
 62
     7
 10
-22.453229
 20
134.36355699999999
 30
0.0
 40
0.129471
 50
272.06847299999998
 51
357.93153700000011
  0
ENDBLK
  5
3EA
  8
_________1
  0
BLOCK
  8
_________1
  2
AIGNBL0201005A
 70
     0
 10
0.0
 20
0.0
 30
0.0
  3
AIGNBL0201005A
  1

  0
ARC
  5
3ED
  8
_________1
 62
     7
 10
-32.941175999999999
 20
134.36353700000001
 30
0.0
 40
0.12945
 50
182.05980500000001
 51
267.940225
  0
ENDBLK
  5
3EE
  8
_________1
  0
BLOCK
  8
_________1
  2
AIGNBL0201005B
 70
     0
 10
0.0
 20
0.0
 30
0.0
  3
AIGNBL0201005B
  1

  0
ARC
  5
3F1
  8
_________1
 62
     7
 10
-32.759543000000001
 20
210.922755
 30
0.0
 40
0.311197
 50
92.076104999999984
 51
177.956785
  0
ENDBLK
  5
3F2
  8
_________1
  0
BLOCK
  8
_________1
  2
AIGNBL0201005C
 70
     0
 10
0.0
 20
0.0
 30
0.0
  3
AIGNBL0201005C
  1

  0
ARC
  5
3F5
  8
_________1
 62
     7
 10
-22.635401000000002
 20
210.92219700000001
 30
0.0
 40
0.311776
 50
2.1421339999999991
 51
87.824937000000006
  0
ENDBLK
  5
3F6
  8
_________1
  0
BLOCK
  8
_________1
  2
AIGNBL0201005D
 70
     0
 10
0.0
 20
0.0
 30
0.0
  3
AIGNBL0201005D
  1

  0
ARC
  5
3F9
  8
_________1
 62
     7
 10
-27.714966
 20
209.21624299999999
 30
0.0
 40
0.493189
 50
2.1068679999999991
 51
87.934685999999999
  0
ARC
  5
3FA
  8
_________1
 62
     7
 10
-27.678702000000001
 20
209.21552500000001
 30
0.0
 40
0.493932
 50
92.145365999999996
 51
177.81304
  0
ENDBLK
  5
3FB
  8
_________1
  0
BLOCK
  8
_________1
  2
AIGNBL0201005E
 70
     0
 10
0.0
 20
0.0
 30
0.0
  3
AIGNBL0201005E
  1

  0
ARC
  5
3FE
  8
_________1
 62
     7
 10
-27.716682000000009
 20
206.05399600000001
 30
0.0
 40
0.5197350000000001
 50
2.1292810000000002
 51
87.850968999999992
  0
ARC
  5
3FF
  8
_________1
 62
     7
 10
-27.677866000000002
 20
206.054159
 30
0.0
 40
0.5195660000000001
 50
92.131778999999995
 51
177.88793200000001
  0
ARC
  5
400
  8
_________1
 62
     7
 10
-27.678618
 20
206.09223800000001
 30
0.0
 40
0.518807
 50
182.09128100000001
 51
267.94824899999998
  0
ARC
  5
401
  8
_________1
 62
     7
 10
-27.716487999999998
 20
206.09296000000001
 30
0.0
 40
0.519554
 50
272.12840799999998
 51
357.83210100000002
  0
ENDBLK
  5
402
  8
_________1
  0
BLOCK
  8
_________1
  2
AIGNBL0201005F
 70
     0
 10
0.0
 20
0.0
 30
0.0
  3
AIGNBL0201005F
  1

  0
ARC
  5
405
  8
_________1
 62
     7
 10
-27.721674
 20
206.049183
 30
0.0
 40
0.6495290000000001
 50
2.1284230000000002
 51
87.839973000000015
  0
ARC
  5
406
  8
_________1
 62
     7
 10
-27.673819999999999
 20
206.05029099999999
 30
0.0
 40
0.648381
 50
92.065841000000006
 51
177.965723
  0
ARC
  5
407
  8
_________1
 62
     7
 10
-27.673103999999999
 20
206.097037
 30
0.0
 40
0.6491220000000001
 50
182.0951179999999
 51
267.87331799999998
  0
ARC
  5
408
  8
_________1
 62
     7
 10
-27.720569999999999
 20
206.096327
 30
0.0
 40
0.648386
 50
272.06627099999997
 51
357.96533199999999
  0
ENDBLK
  5
409
  8
_________1
  0
BLOCK
  8
_________1
  2
AIGNBL02010060
 70
     0
 10
0.0
 20
0.0
 30
0.0
  3
AIGNBL02010060
  1

  0
LINE
  5
40C
  8
_________1
 62
     7
 10
-24.973099999999999
 20
187.28899999999999
 30
0.0
 11
-24.973099999999999
 21
187.33199999999999
 31
0.0
  0
ENDBLK
  5
40D
  8
_________1
  0
BLOCK
  8
_________1
  2
AIGNBL02010061
 70
     0
 10
0.0
 20
0.0
 30
0.0
  3
AIGNBL02010061
  1

  0
LINE
  5
410
  8
_________1
 62
     7
 10
-30.421199999999999
 20
187.33199999999999
 30
0.0
 11
-30.421199999999999
 21
187.28899999999999
 31
0.0
  0
ENDBLK
  5
411
  8
_________1
  0
BLOCK
  8
_________1
  2
AIGNBL02010062
 70
     0
 10
0.0
 20
0.0
 30
0.0
  3
AIGNBL02010062
  1

  0
ARC
  5
414
  8
_________1
 62
     7
 10
-26.756882000000001
 20
187.35728700000001
 30
0.0
 40
1.783922999999999
 50
359.18911000000003
 51
2.902679
  0
ARC
  5
415
  8
_________1
 62
     7
 10
-27.58698900000001
 20
187.36070900000001
 30
0.0
 40
2.6131859999999998
 50
1.906034999999999
 51
5.2707069999999989
  0
ENDBLK
  5
416
  8
_________1
  0
BLOCK
  8
_________1
  2
AIGNBL02010063
 70
     0
 10
0.0
 20
0.0
 30
0.0
  3
AIGNBL02010063
  1

  0
ARC
  5
419
  8
_________1
 62
     7
 10
-28.556804
 20
187.415077
 30
0.0
 40
1.8620099999999991
 50
174.276839
 51
177.842457
  0
ARC
  5
41A
  8
_________1
 62
     7
 10
-27.919087999999999
 20
187.34735000000001
 30
0.0
 40
2.502205
 50
176.84241
 51
180.35056299999999
  0
ENDBLK
  5
41B
  8
_________1
  0
BLOCK
  8
_________1
  2
AIGNBL02010064
 70
     0
 10
0.0
 20
0.0
 30
0.0
  3
AIGNBL02010064
  1

  0
ARC
  5
41E
  8
_________1
 62
     7
 10
-27.524028000000001
 20
187.31313399999999
 30
0.0
 40
2.550959999999999
 50
0.4246720000000001
 51
5.5092150000000002
  0
ENDBLK
  5
41F
  8
_________1
  0
BLOCK
  8
_________1
  2
AIGNBL02010065
 70
     0
 10
0.0
 20
0.0
 30
0.0
  3
AIGNBL02010065
  1

  0
ARC
  5
422
  8
_________1
 62
     7
 10
-27.830497999999999
 20
187.31106800000001
 30
0.0
 40
2.5908329999999999
 50
174.52991700000001
 51
179.536157
  0
ENDBLK
  5
423
  8
_________1
  0
BLOCK
  8
_________1
  2
AIGNBL02010066
 70
     0
 10
0.0
 20
0.0
 30
0.0
  3
AIGNBL02010066
  1

  0
LINE
  5
426
  8
_________1
 62
     7
 10
-28.197099999999999
 20
240.91200000000001
 30
0.0
 11
-27.197299999999998
 21
240.91200000000001
 31
0.0
  0
ENDBLK
  5
427
  8
_________1
  0
BLOCK
  8
_________1
  2
AIGNBL02010067
 70
     0
 10
0.0
 20
0.0
 30
0.0
  3
AIGNBL02010067
  1

  0
LINE
  5
42A
  8
_________1
 62
     7
 10
-28.322099999999999
 20
241.03700000000001
 30
0.0
 11
-27.072600000000001
 21
241.03700000000001
 31
0.0
  0
ENDBLK
  5
42B
  8
_________1
  0
BLOCK
  8
_________1
  2
AIGNBL02010068
 70
     0
 10
0.0
 20
0.0
 30
0.0
  3
AIGNBL02010068
  1

  0
LINE
  5
42E
  8
_________1
 62
     7
 10
-24.985499999999998
 20
259.642
 30
0.0
 11
-24.985499999999998
 21
222.125
 31
0.0
  0
ENDBLK
  5
42F
  8
_________1
  0
BLOCK
  8
_________1
  2
AIGNBL02010069
 70
     0
 10
0.0
 20
0.0
 30
0.0
  3
AIGNBL02010069
  1

  0
LINE
  5
432
  8
_________1
 62
     7
 10
-27.072600000000001
 20
241.03700000000001
 30
0.0
 11
-27.072600000000001
 21
253.309
 31
0.0
  0
ENDBLK
  5
433
  8
_________1
  0
BLOCK
  8
_________1
  2
AIGNBL0201006A
 70
     0
 10
0.0
 20
0.0
 30
0.0
  3
AIGNBL0201006A
  1

  0
LINE
  5
436
  8
_________1
 62
     7
 10
-27.322399999999998
 20
258.92099999999999
 30
0.0
 11
-27.322399999999998
 21
253.40899999999999
 31
0.0
  0
ENDBLK
  5
437
  8
_________1
  0
BLOCK
  8
_________1
  2
AIGNBL0201006B
 70
     0
 10
0.0
 20
0.0
 30
0.0
  3
AIGNBL0201006B
  1

  0
LINE
  5
43A
  8
_________1
 62
     7
 10
-28.072399999999998
 20
258.92099999999999
 30
0.0
 11
-28.072399999999998
 21
253.40899999999999
 31
0.0
  0
ENDBLK
  5
43B
  8
_________1
  0
BLOCK
  8
_________1
  2
AIGNBL0201006C
 70
     0
 10
0.0
 20
0.0
 30
0.0
  3
AIGNBL0201006C
  1

  0
LINE
  5
43E
  8
_________1
 62
     7
 10
-28.322099999999999
 20
241.03700000000001
 30
0.0
 11
-28.322099999999999
 21
253.309
 31
0.0
  0
ENDBLK
  5
43F
  8
_________1
  0
BLOCK
  8
_________1
  2
AIGNBL0201006D
 70
     0
 10
0.0
 20
0.0
 30
0.0
  3
AIGNBL0201006D
  1

  0
LINE
  5
442
  8
_________1
 62
     7
 10
-30.408799999999999
 20
259.642
 30
0.0
 11
-30.408799999999999
 21
222.125
 31
0.0
  0
ENDBLK
  5
443
  8
_________1
  0
BLOCK
  8
_________1
  2
AIGNBL0201006E
 70
     0
 10
0.0
 20
0.0
 30
0.0
  3
AIGNBL0201006E
  1

  0
LINE
  5
446
  8
_________1
 62
     7
 10
-28.322099999999999
 20
253.309
 30
0.0
 11
-27.072600000000001
 21
253.309
 31
0.0
  0
ENDBLK
  5
447
  8
_________1
  0
BLOCK
  8
_________1
  2
AIGNBL0201006F
 70
     0
 10
0.0
 20
0.0
 30
0.0
  3
AIGNBL0201006F
  1

  0
LINE
  5
44A
  8
_________1
 62
     7
 10
-28.221900000000002
 20
253.40899999999999
 30
0.0
 11
-27.172499999999999
 21
253.40899999999999
 31
0.0
  0
ENDBLK
  5
44B
  8
_________1
  0
BLOCK
  8
_________1
  2
AIGNBL02010070
 70
     0
 10
0.0
 20
0.0
 30
0.0
  3
AIGNBL02010070
  1

  0
LINE
  5
44E
  8
_________1
 62
     7
 10
68.073599999999999
 20
211.23400000000001
 30
0.0
 11
78.2209
 21
211.23400000000001
 31
0.0
  0
ENDBLK
  5
44F
  8
_________1
  0
BLOCK
  8
_________1
  2
AIGNBL02010071
 70
     0
 10
0.0
 20
0.0
 30
0.0
  3
AIGNBL02010071
  1

  0
LINE
  5
452
  8
_________1
 62
     7
 10
67.773200000000003
 20
210.934
 30
0.0
 11
78.520600000000002
 21
210.934
 31
0.0
  0
ENDBLK
  5
453
  8
_________1
  0
BLOCK
  8
_________1
  2
AIGNBL02010072
 70
     0
 10
0.0
 20
0.0
 30
0.0
  3
AIGNBL02010072
  1

  0
LINE
  5
456
  8
_________1
 62
     7
 10
49.903399999999991
 20
206.69800000000001
 30
0.0
 11
62.174900000000001
 21
206.69800000000001
 31
0.0
  0
ENDBLK
  5
457
  8
_________1
  0
BLOCK
  8
_________1
  2
AIGNBL02010073
 70
     0
 10
0.0
 20
0.0
 30
0.0
  3
AIGNBL02010073
  1

  0
LINE
  5
45A
  8
_________1
 62
     7
 10
67.794600000000003
 20
206.44800000000001
 30
0.0
 11
62.274799999999992
 21
206.44800000000001
 31
0.0
  0
ENDBLK
  5
45B
  8
_________1
  0
BLOCK
  8
_________1
  2
AIGNBL02010074
 70
     0
 10
0.0
 20
0.0
 30
0.0
  3
AIGNBL02010074
  1

  0
LINE
  5
45E
  8
_________1
 62
     7
 10
67.786999999999992
 20
205.69800000000001
 30
0.0
 11
62.274799999999992
 21
205.69800000000001
 31
0.0
  0
ENDBLK
  5
45F
  8
_________1
  0
BLOCK
  8
_________1
  2
AIGNBL02010075
 70
     0
 10
0.0
 20
0.0
 30
0.0
  3
AIGNBL02010075
  1

  0
LINE
  5
462
  8
_________1
 62
     7
 10
34.396599999999999
 20
177.90700000000001
 30
0.0
 11
73.146900000000002
 21
177.90700000000001
 31
0.0
  0
ENDBLK
  5
463
  8
_________1
  0
BLOCK
  8
_________1
  2
AIGNBL02010076
 70
     0
 10
0.0
 20
0.0
 30
0.0
  3
AIGNBL02010076
  1

  0
LINE
  5
466
  8
_________1
 62
     7
 10
24.831499999999998
 20
193.071
 30
0.0
 11
35.406700000000001
 21
193.071
 31
0.0
  0
ENDBLK
  5
467
  8
_________1
  0
BLOCK
  8
_________1
  2
AIGNBL02010077
 70
     0
 10
0.0
 20
0.0
 30
0.0
  3
AIGNBL02010077
  1

  0
LINE
  5
46A
  8
_________1
 62
     7
 10
19.043399999999998
 20
193.73400000000001
 30
0.0
 11
33.52320000000001
 21
193.73400000000001
 31
0.0
  0
ENDBLK
  5
46B
  8
_________1
  0
BLOCK
  8
_________1
  2
AIGNBL02010078
 70
     0
 10
0.0
 20
0.0
 30
0.0
  3
AIGNBL02010078
  1

  0
LINE
  5
46E
  8
_________1
 62
     7
 10
49.903399999999991
 20
205.44800000000001
 30
0.0
 11
62.174900000000001
 21
205.44800000000001
 31
0.0
  0
ENDBLK
  5
46F
  8
_________1
  0
BLOCK
  8
_________1
  2
AIGNBL02010079
 70
     0
 10
0.0
 20
0.0
 30
0.0
  3
AIGNBL02010079
  1

  0
LINE
  5
472
  8
_________1
 62
     7
 10
31.004200000000001
 20
200.24199999999999
 30
0.0
 11
29.697099999999999
 21
195.495
 31
0.0
  0
ENDBLK
  5
473
  8
_________1
  0
BLOCK
  8
_________1
  2
AIGNBL0201007A
 70
     0
 10
0.0
 20
0.0
 30
0.0
  3
AIGNBL0201007A
  1

  0
LINE
  5
476
  8
_________1
 62
     7
 10
31.312200000000001
 20
200.416
 30
0.0
 11
29.871400000000001
 21
195.18799999999999
 31
0.0
  0
ENDBLK
  5
477
  8
_________1
  0
BLOCK
  8
_________1
  2
AIGNBL0201007B
 70
     0
 10
0.0
 20
0.0
 30
0.0
  3
AIGNBL0201007B
  1

  0
LINE
  5
47A
  8
_________1
 62
     7
 10
31.987100000000002
 20
194.39699999999999
 30
0.0
 11
32.043599999999998
 21
194.601
 31
0.0
  0
ENDBLK
  5
47B
  8
_________1
  0
BLOCK
  8
_________1
  2
AIGNBL0201007C
 70
     0
 10
0.0
 20
0.0
 30
0.0
  3
AIGNBL0201007C
  1

  0
LINE
  5
47E
  8
_________1
 62
     7
 10
67.773200000000003
 20
198.53700000000001
 30
0.0
 11
78.520600000000002
 21
198.53700000000001
 31
0.0
  0
ENDBLK
  5
47F
  8
_________1
  0
BLOCK
  8
_________1
  2
AIGNBL0201007D
 70
     0
 10
0.0
 20
0.0
 30
0.0
  3
AIGNBL0201007D
  1

  0
LINE
  5
482
  8
_________1
 62
     7
 10
67.823499999999996
 20
198.48699999999999
 30
0.0
 11
78.470299999999995
 21
198.48699999999999
 31
0.0
  0
ENDBLK
  5
483
  8
_________1
  0
BLOCK
  8
_________1
  2
AIGNBL0201007E
 70
     0
 10
0.0
 20
0.0
 30
0.0
  3
AIGNBL0201007E
  1

  0
LINE
  5
486
  8
_________1
 62
     7
 10
67.773200000000003
 20
198.375
 30
0.0
 11
78.520600000000002
 21
198.375
 31
0.0
  0
ENDBLK
  5
487
  8
_________1
  0
BLOCK
  8
_________1
  2
AIGNBL0201007F
 70
     0
 10
0.0
 20
0.0
 30
0.0
  3
AIGNBL0201007F
  1

  0
LINE
  5
48A
  8
_________1
 62
     7
 10
36.80680000000001
 20
193.071
 30
0.0
 11
36.8626
 21
193.27500000000001
 31
0.0
  0
ENDBLK
  5
48B
  8
_________1
  0
BLOCK
  8
_________1
  2
AIGNBL02010080
 70
     0
 10
0.0
 20
0.0
 30
0.0
  3
AIGNBL02010080
  1

  0
LINE
  5
48E
  8
_________1
 62
     7
 10
49.778300000000002
 20
205.57400000000001
 30
0.0
 11
49.778300000000002
 21
206.57300000000001
 31
0.0
  0
ENDBLK
  5
48F
  8
_________1
  0
BLOCK
  8
_________1
  2
AIGNBL02010081
 70
     0
 10
0.0
 20
0.0
 30
0.0
  3
AIGNBL02010081
  1

  0
LINE
  5
492
  8
_________1
 62
     7
 10
49.903399999999991
 20
205.44800000000001
 30
0.0
 11
49.903399999999991
 21
206.69800000000001
 31
0.0
  0
ENDBLK
  5
493
  8
_________1
  0
BLOCK
  8
_________1
  2
AIGNBL02010082
 70
     0
 10
0.0
 20
0.0
 30
0.0
  3
AIGNBL02010082
  1

  0
LINE
  5
496
  8
_________1
 62
     7
 10
62.174900000000001
 20
205.44800000000001
 30
0.0
 11
62.174900000000001
 21
206.69800000000001
 31
0.0
  0
ENDBLK
  5
497
  8
_________1
  0
BLOCK
  8
_________1
  2
AIGNBL02010083
 70
     0
 10
0.0
 20
0.0
 30
0.0
  3
AIGNBL02010083
  1

  0
LINE
  5
49A
  8
_________1
 62
     7
 10
62.274799999999992
 20
205.54900000000001
 30
0.0
 11
62.274799999999992
 21
206.59800000000001
 31
0.0
  0
ENDBLK
  5
49B
  8
_________1
  0
BLOCK
  8
_________1
  2
AIGNBL02010084
 70
     0
 10
0.0
 20
0.0
 30
0.0
  3
AIGNBL02010084
  1

  0
LINE
  5
49E
  8
_________1
 62
     7
 10
36.80680000000001
 20
193.071
 30
0.0
 11
31.987100000000002
 21
194.39699999999999
 31
0.0
  0
ENDBLK
  5
49F
  8
_________1
  0
BLOCK
  8
_________1
  2
AIGNBL02010085
 70
     0
 10
0.0
 20
0.0
 30
0.0
  3
AIGNBL02010085
  1

  0
LINE
  5
4A2
  8
_________1
 62
     7
 10
67.773200000000003
 20
209.709
 30
0.0
 11
67.773200000000003
 21
210.934
 31
0.0
  0
ENDBLK
  5
4A3
  8
_________1
  0
BLOCK
  8
_________1
  2
AIGNBL02010086
 70
     0
 10
0.0
 20
0.0
 30
0.0
  3
AIGNBL02010086
  1

  0
LINE
  5
4A6
  8
_________1
 62
     7
 10
67.773200000000003
 20
198.53700000000001
 30
0.0
 11
67.773200000000003
 21
205.50999999999999
 31
0.0
  0
ENDBLK
  5
4A7
  8
_________1
  0
BLOCK
  8
_________1
  2
AIGNBL02010087
 70
     0
 10
0.0
 20
0.0
 30
0.0
  3
AIGNBL02010087
  1

  0
LINE
  5
4AA
  8
_________1
 62
     7
 10
35.3367
 20
197.012
 30
0.0
 11
33.916699999999999
 21
192.06100000000001
 31
0.0
  0
LINE
  5
4AB
  8
_________1
 62
     7
 10
33.7727
 20
191.559
 30
0.0
 11
29.867599999999999
 21
177.946
 31
0.0
  0
ENDBLK
  5
4AC
  8
_________1
  0
BLOCK
  8
_________1
  2
AIGNBL02010088
 70
     0
 10
0.0
 20
0.0
 30
0.0
  3
AIGNBL02010088
  1

  0
LINE
  5
4AF
  8
_________1
 62
     7
 10
34.396599999999999
 20
192.83799999999999
 30
0.0
 11
34.396599999999999
 21
177.20699999999999
 31
0.0
  0
ENDBLK
  5
4B0
  8
_________1
  0
BLOCK
  8
_________1
  2
AIGNBL02010089
 70
     0
 10
0.0
 20
0.0
 30
0.0
  3
AIGNBL02010089
  1

  0
LINE
  5
4B3
  8
_________1
  6
AIGENLINE002
 62
     7
 10
73.146900000000002
 20
178.20500000000001
 30
0.0
 11
73.146900000000002
 21
28.904900000000001
 31
0.0
  0
ENDBLK
  5
4B4
  8
_________1
  0
BLOCK
  8
_________1
  2
AIGNBL0201008A
 70
     0
 10
0.0
 20
0.0
 30
0.0
  3
AIGNBL0201008A
  1

  0
LINE
  5
4B7
  8
_________1
  6
AIGENLINE002
 62
     7
 10
-27.697199999999999
 20
273.12099999999998
 30
0.0
 11
-27.697199999999999
 21
217.946
 31
0.0
  0
ENDBLK
  5
4B8
  8
_________1
  0
BLOCK
  8
_________1
  2
AIGNBL0201008B
 70
     0
 10
0.0
 20
0.0
 30
0.0
  3
AIGNBL0201008B
  1

  0
LINE
  5
4BB
  8
_________1
  6
AIGENLINE002
 62
     7
 10
-27.697199999999999
 20
214.03100000000001
 30
0.0
 11
-27.697199999999999
 21
163.78100000000001
 31
0.0
  0
LINE
  5
4BC
  8
_________1
  6
AIGENLINE002
 62
     7
 10
-27.697199999999999
 20
158.518
 30
0.0
 11
-27.697199999999999
 21
144.91300000000001
 31
0.0
  0
ENDBLK
  5
4BD
  8
_________1
  0
BLOCK
  8
_________1
  2
AIGNBL0201008C
 70
     0
 10
0.0
 20
0.0
 30
0.0
  3
AIGNBL0201008C
  1

  0
LINE
  5
4C0
  8
_________1
 62
     7
 10
67.773200000000003
 20
184.7109999999999
 30
0.0
 11
67.773200000000003
 21
134.35900000000001
 31
0.0
  0
ENDBLK
  5
4C1
  8
_________1
  0
BLOCK
  8
_________1
  2
AIGNBL0201008D
 70
     0
 10
0.0
 20
0.0
 30
0.0
  3
AIGNBL0201008D
  1

  0
LINE
  5
4C4
  8
_________1
 62
     7
 10
67.773200000000003
 20
198.375
 30
0.0
 11
67.773200000000003
 21
190.37899999999999
 31
0.0
  0
ENDBLK
  5
4C5
  8
_________1
  0
BLOCK
  8
_________1
  2
AIGNBL0201008E
 70
     0
 10
0.0
 20
0.0
 30
0.0
  3
AIGNBL0201008E
  1

  0
LINE
  5
4C8
  8
_________1
 62
     7
 10
67.794600000000003
 20
209.23400000000001
 30
0.0
 11
67.794600000000003
 21
205.98500000000001
 31
0.0
  0
ENDBLK
  5
4C9
  8
_________1
  0
BLOCK
  8
_________1
  2
AIGNBL0201008F
 70
     0
 10
0.0
 20
0.0
 30
0.0
  3
AIGNBL0201008F
  1

  0
LINE
  5
4CC
  8
_________1
 62
     7
 10
67.902100000000004
 20
198.48699999999999
 30
0.0
 11
67.902100000000004
 21
198.375
 31
0.0
  0
ENDBLK
  5
4CD
  8
_________1
  0
BLOCK
  8
_________1
  2
AIGNBL02010090
 70
     0
 10
0.0
 20
0.0
 30
0.0
  3
AIGNBL02010090
  1

  0
LINE
  5
4D0
  8
_________1
 62
     7
 10
32.028399999999998
 20
194.59299999999999
 30
0.0
 11
29.871400000000001
 21
195.18799999999999
 31
0.0
  0
ENDBLK
  5
4D1
  8
_________1
  0
BLOCK
  8
_________1
  2
AIGNBL02010091
 70
     0
 10
0.0
 20
0.0
 30
0.0
  3
AIGNBL02010091
  1

  0
LINE
  5
4D4
  8
_________1
 62
     7
 10
67.773200000000003
 20
184.7109999999999
 30
0.0
 11
36.871200000000002
 21
193.25999999999999
 31
0.0
  0
ENDBLK
  5
4D5
  8
_________1
  0
BLOCK
  8
_________1
  2
AIGNBL02010092
 70
     0
 10
0.0
 20
0.0
 30
0.0
  3
AIGNBL02010092
  1

  0
LINE
  5
4D8
  8
_________1
 62
     7
 10
67.784899999999993
 20
190.351
 30
0.0
 11
31.312200000000001
 21
200.416
 31
0.0
  0
ENDBLK
  5
4D9
  8
_________1
  0
BLOCK
  8
_________1
  2
AIGNBL02010093
 70
     0
 10
0.0
 20
0.0
 30
0.0
  3
AIGNBL02010093
  1

  0
LINE
  5
4DC
  8
_________1
 62
     7
 10
78.392399999999995
 20
198.48699999999999
 30
0.0
 11
78.392399999999995
 21
198.375
 31
0.0
  0
ENDBLK
  5
4DD
  8
_________1
  0
BLOCK
  8
_________1
  2
AIGNBL02010094
 70
     0
 10
0.0
 20
0.0
 30
0.0
  3
AIGNBL02010094
  1

  0
LINE
  5
4E0
  8
_________1
 62
     7
 10
78.520600000000002
 20
198.53700000000001
 30
0.0
 11
78.520600000000002
 21
210.934
 31
0.0
  0
ENDBLK
  5
4E1
  8
_________1
  0
BLOCK
  8
_________1
  2
AIGNBL02010095
 70
     0
 10
0.0
 20
0.0
 30
0.0
  3
AIGNBL02010095
  1

  0
LINE
  5
4E4
  8
_________1
 62
     7
 10
78.520600000000002
 20
198.375
 30
0.0
 11
78.520600000000002
 21
134.35900000000001
 31
0.0
  0
ENDBLK
  5
4E5
  8
_________1
  0
BLOCK
  8
_________1
  2
AIGNBL02010096
 70
     0
 10
0.0
 20
0.0
 30
0.0
  3
AIGNBL02010096
  1

  0
LINE
  5
4E8
  8
_________1
 62
     7
 10
67.773200000000003
 20
134.35900000000001
 30
0.0
 11
78.520600000000002
 21
134.35900000000001
 31
0.0
  0
ENDBLK
  5
4E9
  8
_________1
  0
BLOCK
  8
_________1
  2
AIGNBL02010097
 70
     0
 10
0.0
 20
0.0
 30
0.0
  3
AIGNBL02010097
  1

  0
LINE
  5
4EC
  8
_________1
 62
     7
 10
67.898600000000002
 20
134.23400000000001
 30
0.0
 11
78.395899999999997
 21
134.23400000000001
 31
0.0
  0
ENDBLK
  5
4ED
  8
_________1
  0
BLOCK
  8
_________1
  2
AIGNBL02010098
 70
     0
 10
0.0
 20
0.0
 30
0.0
  3
AIGNBL02010098
  1

  0
LINE
  5
4F0
  8
_________1
 62
     7
 10
-22.6236
 20
211.23400000000001
 30
0.0
 11
-32.770800000000001
 21
211.23400000000001
 31
0.0
  0
ENDBLK
  5
4F1
  8
_________1
  0
BLOCK
  8
_________1
  2
AIGNBL02010099
 70
     0
 10
0.0
 20
0.0
 30
0.0
  3
AIGNBL02010099
  1

  0
LINE
  5
4F4
  8
_________1
 62
     7
 10
-22.323799999999999
 20
210.934
 30
0.0
 11
-33.070500000000003
 21
210.934
 31
0.0
  0
ENDBLK
  5
4F5
  8
_________1
  0
BLOCK
  8
_________1
  2
AIGNBL0201009A
 70
     0
 10
0.0
 20
0.0
 30
0.0
  3
AIGNBL0201009A
  1

  0
LINE
  5
4F8
  8
_________1
 62
     7
 10
-30.369199999999999
 20
198.53700000000001
 30
0.0
 11
-33.070500000000003
 21
198.53700000000001
 31
0.0
  0
ENDBLK
  5
4F9
  8
_________1
  0
BLOCK
  8
_________1
  2
AIGNBL0201009B
 70
     0
 10
0.0
 20
0.0
 30
0.0
  3
AIGNBL0201009B
  1

  0
LINE
  5
4FC
  8
_________1
 62
     7
 10
-22.323799999999999
 20
198.53700000000001
 30
0.0
 11
-25.025200000000002
 21
198.53700000000001
 31
0.0
  0
ENDBLK
  5
4FD
  8
_________1
  0
BLOCK
  8
_________1
  2
AIGNBL0201009C
 70
     0
 10
0.0
 20
0.0
 30
0.0
  3
AIGNBL0201009C
  1

  0
LINE
  5
500
  8
_________1
 62
     7
 10
-30.378900000000002
 20
198.48699999999999
 30
0.0
 11
-33.020899999999997
 21
198.48699999999999
 31
0.0
  0
ENDBLK
  5
501
  8
_________1
  0
BLOCK
  8
_________1
  2
AIGNBL0201009D
 70
     0
 10
0.0
 20
0.0
 30
0.0
  3
AIGNBL0201009D
  1

  0
LINE
  5
504
  8
_________1
 62
     7
 10
-25.015499999999999
 20
198.48699999999999
 30
0.0
 11
-22.3735
 21
198.48699999999999
 31
0.0
  0
ENDBLK
  5
505
  8
_________1
  0
BLOCK
  8
_________1
  2
AIGNBL0201009E
 70
     0
 10
0.0
 20
0.0
 30
0.0
  3
AIGNBL0201009E
  1

  0
LINE
  5
508
  8
_________1
 62
     7
 10
-30.393000000000001
 20
198.375
 30
0.0
 11
-33.070500000000003
 21
198.375
 31
0.0
  0
ENDBLK
  5
509
  8
_________1
  0
BLOCK
  8
_________1
  2
AIGNBL0201009F
 70
     0
 10
0.0
 20
0.0
 30
0.0
  3
AIGNBL0201009F
  1

  0
LINE
  5
50C
  8
_________1
 62
     7
 10
-22.323799999999999
 20
198.375
 30
0.0
 11
-25.0014
 21
198.375
 31
0.0
  0
ENDBLK
  5
50D
  8
_________1
  0
BLOCK
  8
_________1
  2
AIGNBL020100A0
 70
     0
 10
0.0
 20
0.0
 30
0.0
  3
AIGNBL020100A0
  1

  0
LINE
  5
510
  8
_________1
 62
     7
 10
-22.323799999999999
 20
198.53700000000001
 30
0.0
 11
-22.323799999999999
 21
210.934
 31
0.0
  0
ENDBLK
  5
511
  8
_________1
  0
BLOCK
  8
_________1
  2
AIGNBL020100A1
 70
     0
 10
0.0
 20
0.0
 30
0.0
  3
AIGNBL020100A1
  1

  0
LINE
  5
514
  8
_________1
 62
     7
 10
-22.323799999999999
 20
198.375
 30
0.0
 11
-22.323799999999999
 21
134.35900000000001
 31
0.0
  0
ENDBLK
  5
515
  8
_________1
  0
BLOCK
  8
_________1
  2
AIGNBL020100A2
 70
     0
 10
0.0
 20
0.0
 30
0.0
  3
AIGNBL020100A2
  1

  0
LINE
  5
518
  8
_________1
 62
     7
 10
-22.452000000000002
 20
198.48699999999999
 30
0.0
 11
-22.452000000000002
 21
198.375
 31
0.0
  0
ENDBLK
  5
519
  8
_________1
  0
BLOCK
  8
_________1
  2
AIGNBL020100A3
 70
     0
 10
0.0
 20
0.0
 30
0.0
  3
AIGNBL020100A3
  1

  0
LINE
  5
51C
  8
_________1
 62
     7
 10
-24.985499999999998
 20
187.291
 30
0.0
 11
-24.985499999999998
 21
198.09200000000001
 31
0.0
  0
ENDBLK
  5
51D
  8
_________1
  0
BLOCK
  8
_________1
  2
AIGNBL020100A4
 70
     0
 10
0.0
 20
0.0
 30
0.0
  3
AIGNBL020100A4
  1

  0
LINE
  5
520
  8
_________1
 62
     7
 10
-25.197800000000001
 20
193.98400000000001
 30
0.0
 11
-25.197800000000001
 21
195.84099999999989
 31
0.0
  0
ENDBLK
  5
521
  8
_________1
  0
BLOCK
  8
_________1
  2
AIGNBL020100A5
 70
     0
 10
0.0
 20
0.0
 30
0.0
  3
AIGNBL020100A5
  1

  0
LINE
  5
524
  8
_________1
 62
     7
 10
-27.222100000000001
 20
209.23400000000001
 30
0.0
 11
-27.222100000000001
 21
206.47900000000001
 31
0.0
  0
ENDBLK
  5
525
  8
_________1
  0
BLOCK
  8
_________1
  2
AIGNBL020100A6
 70
     0
 10
0.0
 20
0.0
 30
0.0
  3
AIGNBL020100A6
  1

  0
LINE
  5
528
  8
_________1
 62
     7
 10
-28.1723
 20
209.23400000000001
 30
0.0
 11
-28.1723
 21
206.47900000000001
 31
0.0
  0
ENDBLK
  5
529
  8
_________1
  0
BLOCK
  8
_________1
  2
AIGNBL020100A7
 70
     0
 10
0.0
 20
0.0
 30
0.0
  3
AIGNBL020100A7
  1

  0
LINE
  5
52C
  8
_________1
 62
     7
 10
-30.1966
 20
193.98400000000001
 30
0.0
 11
-30.1966
 21
195.84099999999989
 31
0.0
  0
ENDBLK
  5
52D
  8
_________1
  0
BLOCK
  8
_________1
  2
AIGNBL020100A8
 70
     0
 10
0.0
 20
0.0
 30
0.0
  3
AIGNBL020100A8
  1

  0
LINE
  5
530
  8
_________1
 62
     7
 10
-30.408799999999999
 20
187.291
 30
0.0
 11
-30.408799999999999
 21
198.09200000000001
 31
0.0
  0
ENDBLK
  5
531
  8
_________1
  0
BLOCK
  8
_________1
  2
AIGNBL020100A9
 70
     0
 10
0.0
 20
0.0
 30
0.0
  3
AIGNBL020100A9
  1

  0
LINE
  5
534
  8
_________1
 62
     7
 10
-32.942399999999999
 20
198.48699999999999
 30
0.0
 11
-32.942399999999999
 21
198.375
 31
0.0
  0
ENDBLK
  5
535
  8
_________1
  0
BLOCK
  8
_________1
  2
AIGNBL020100AA
 70
     0
 10
0.0
 20
0.0
 30
0.0
  3
AIGNBL020100AA
  1

  0
LINE
  5
538
  8
_________1
 62
     7
 10
-33.070500000000003
 20
198.53700000000001
 30
0.0
 11
-33.070500000000003
 21
210.934
 31
0.0
  0
ENDBLK
  5
539
  8
_________1
  0
BLOCK
  8
_________1
  2
AIGNBL020100AB
 70
     0
 10
0.0
 20
0.0
 30
0.0
  3
AIGNBL020100AB
  1

  0
LINE
  5
53C
  8
_________1
 62
     7
 10
-33.070500000000003
 20
198.375
 30
0.0
 11
-33.070500000000003
 21
134.35900000000001
 31
0.0
  0
ENDBLK
  5
53D
  8
_________1
  0
BLOCK
  8
_________1
  2
AIGNBL020100AC
 70
     0
 10
0.0
 20
0.0
 30
0.0
  3
AIGNBL020100AC
  1

  0
LINE
  5
540
  8
_________1
 62
     7
 10
-22.323799999999999
 20
134.35900000000001
 30
0.0
 11
-33.070500000000003
 21
134.35900000000001
 31
0.0
  0
ENDBLK
  5
541
  8
_________1
  0
BLOCK
  8
_________1
  2
AIGNBL020100AD
 70
     0
 10
0.0
 20
0.0
 30
0.0
  3
AIGNBL020100AD
  1

  0
LINE
  5
544
  8
_________1
 62
     7
 10
-25.524999999999999
 20
236.774
 30
0.0
 11
-27.6968
 21
236.04900000000001
 31
0.0
  0
LINE
  5
545
  8
_________1
 62
     7
 10
-27.6968
 20
236.04900000000001
 30
0.0
 11
-25.453399999999998
 21
235.59100000000001
 31
0.0
  0
LINE
  5
546
  8
_________1
 62
     7
 10
-25.453399999999998
 20
235.59100000000001
 30
0.0
 11
-25.524999999999999
 21
236.774
 31
0.0
  0
LINE
  5
547
  8
_________1
 62
     7
 10
-7.0929799999999998
 20
244.084
 30
0.0
 11
-6.0701199999999993
 21
246.13300000000001
 31
0.0
  0
LINE
  5
548
  8
_________1
 62
     7
 10
-6.0701199999999993
 20
246.13300000000001
 30
0.0
 11
-7.9801000000000002
 21
244.87
 31
0.0
  0
LINE
  5
549
  8
_________1
 62
     7
 10
-7.9801000000000002
 20
244.87
 30
0.0
 11
-7.0929799999999998
 21
244.084
 31
0.0
  0
ENDBLK
  5
54A
  8
_________1
  0
BLOCK
  8
_________1
  2
AIGNBL020100AE
 70
     0
 10
0.0
 20
0.0
 30
0.0
  3
AIGNBL020100AE
  1

  0
LINE
  5
54D
  8
_________1
 62
     7
 10
-23.0335
 20
139.61799999999999
 30
0.0
 11
-20.8218
 21
140.21100000000001
 31
0.0
  0
LINE
  5
54E
  8
_________1
 62
     7
 10
-20.8218
 20
140.21100000000001
 30
0.0
 11
-23.0335
 21
140.803
 31
0.0
  0
LINE
  5
54F
  8
_________1
 62
     7
 10
-23.0335
 20
140.803
 30
0.0
 11
-23.0335
 21
139.61799999999999
 31
0.0
  0
LINE
  5
550
  8
_________1
 62
     7
 10
-32.360799999999998
 20
140.78899999999999
 30
0.0
 11
-34.572600000000001
 21
140.196
 31
0.0
  0
LINE
  5
551
  8
_________1
 62
     7
 10
-34.572600000000001
 20
140.196
 30
0.0
 11
-32.360799999999998
 21
139.60400000000001
 31
0.0
  0
LINE
  5
552
  8
_________1
 62
     7
 10
-32.360799999999998
 20
139.60400000000001
 30
0.0
 11
-32.360799999999998
 21
140.78899999999999
 31
0.0
  0
LINE
  5
553
  8
_________1
 62
     7
 10
-20.822099999999999
 20
140.196
 30
0.0
 11
-34.572299999999998
 21
140.196
 31
0.0
  0
ENDBLK
  5
554
  8
_________1
  0
BLOCK
  8
_________1
  2
AIGNBL020100AF
 70
     0
 10
0.0
 20
0.0
 30
0.0
  3
AIGNBL020100AF
  1

  0
LINE
  5
557
  8
_________1
 62
     7
 10
62.053600000000003
 20
131.023
 30
0.0
 11
61.461100000000002
 21
133.23400000000001
 31
0.0
  0
LINE
  5
558
  8
_________1
 62
     7
 10
61.461100000000002
 20
133.23400000000001
 30
0.0
 11
60.868499999999997
 21
131.023
 31
0.0
  0
LINE
  5
559
  8
_________1
 62
     7
 10
60.868499999999997
 20
131.023
 30
0.0
 11
62.053600000000003
 21
131.023
 31
0.0
  0
LINE
  5
55A
  8
_________1
 62
     7
 10
60.883000000000003
 20
127.94499999999999
 30
0.0
 11
61.47549999999999
 21
125.73399999999999
 31
0.0
  0
LINE
  5
55B
  8
_________1
 62
     7
 10
61.47549999999999
 20
125.73399999999999
 30
0.0
 11
62.068100000000001
 21
127.94499999999999
 31
0.0
  0
LINE
  5
55C
  8
_________1
 62
     7
 10
62.068100000000001
 20
127.94499999999999
 30
0.0
 11
60.883000000000003
 21
127.94499999999999
 31
0.0
  0
LINE
  5
55D
  8
_________1
 62
     7
 10
61.461100000000002
 20
133.23400000000001
 30
0.0
 11
61.461100000000002
 21
125.73399999999999
 31
0.0
  0
ENDBLK
  5
55E
  8
_________1
  0
BLOCK
  8
_________1
  2
AIGNBL020100B0
 70
     0
 10
0.0
 20
0.0
 30
0.0
  3
AIGNBL020100B0
  1

  0
LINE
  5
561
  8
_________1
 62
     7
 10
77.350300000000004
 20
24.3642
 30
0.0
 11
75.139200000000002
 21
23.771699999999999
 31
0.0
  0
LINE
  5
562
  8
_________1
 62
     7
 10
75.139200000000002
 20
23.771699999999999
 30
0.0
 11
77.350300000000004
 21
23.1798
 31
0.0
  0
LINE
  5
563
  8
_________1
 62
     7
 10
77.350300000000004
 20
23.1798
 30
0.0
 11
77.350300000000004
 21
24.3642
 31
0.0
  0
LINE
  5
564
  8
_________1
 62
     7
 10
68.803600000000003
 20
23.1936
 30
0.0
 11
71.013999999999996
 21
23.786100000000001
 31
0.0
  0
LINE
  5
565
  8
_________1
 62
     7
 10
71.013999999999996
 20
23.786100000000001
 30
0.0
 11
68.803600000000003
 21
24.378699999999998
 31
0.0
  0
LINE
  5
566
  8
_________1
 62
     7
 10
68.803600000000003
 20
24.378699999999998
 30
0.0
 11
68.803600000000003
 21
23.1936
 31
0.0
  0
LINE
  5
567
  8
_________1
 62
     7
 10
60.002400000000002
 20
23.779199999999999
 30
0.0
 11
78.855099999999993
 21
23.779199999999999
 31
0.0
  0
ENDBLK
  5
568
  8
_________1
  0
BLOCK
  8
_________1
  2
AIGNBL020100B1
 70
     0
 10
0.0
 20
0.0
 30
0.0
  3
AIGNBL020100B1
  1

  0
LINE
  5
56B
  8
_________1
 62
     7
 10
-21.3613
 20
128.72399999999999
 30
0.0
 11
-23.572399999999998
 21
128.131
 31
0.0
  0
LINE
  5
56C
  8
_________1
 62
     7
 10
-23.572399999999998
 20
128.131
 30
0.0
 11
-21.3613
 21
127.54000000000001
 31
0.0
  0
LINE
  5
56D
  8
_________1
 62
     7
 10
-21.3613
 20
127.54000000000001
 30
0.0
 11
-21.3613
 21
128.72399999999999
 31
0.0
  0
LINE
  5
56E
  8
_________1
 62
     7
 10
-34.032400000000003
 20
127.553
 30
0.0
 11
-31.821999999999999
 21
128.14599999999999
 31
0.0
  0
LINE
  5
56F
  8
_________1
 62
     7
 10
-31.821999999999999
 20
128.14599999999999
 30
0.0
 11
-34.032400000000003
 21
128.739
 31
0.0
  0
LINE
  5
570
  8
_________1
 62
     7
 10
-34.032400000000003
 20
128.739
 30
0.0
 11
-34.032400000000003
 21
127.553
 31
0.0
  0
LINE
  5
571
  8
_________1
 62
     7
 10
-40.18569999999999
 20
128.13900000000001
 30
0.0
 11
-19.656600000000001
 21
128.13900000000001
 31
0.0
  0
ENDBLK
  5
572
  8
_________1
  0
BLOCK
  8
_________1
  2
AIGNBL020100B2
 70
     0
 10
0.0
 20
0.0
 30
0.0
  3
AIGNBL020100B2
  1

  0
LINE
  5
575
  8
_________1
 62
     7
 10
68.908699999999996
 20
259.20400000000001
 30
0.0
 11
70.053200000000004
 21
261.18700000000001
 31
0.0
  0
LINE
  5
576
  8
_________1
 62
     7
 10
70.053200000000004
 20
261.18700000000001
 30
0.0
 11
68.0702
 21
260.04199999999997
 31
0.0
  0
LINE
  5
577
  8
_________1
 62
     7
 10
68.0702
 20
260.04199999999997
 30
0.0
 11
68.908699999999996
 21
259.20400000000001
 31
0.0
  0
LINE
  5
578
  8
_________1
 62
     7
 10
77.385800000000003
 20
269.35700000000003
 30
0.0
 11
76.240600000000001
 21
267.37400000000002
 31
0.0
  0
LINE
  5
579
  8
_________1
 62
     7
 10
76.240600000000001
 20
267.37400000000002
 30
0.0
 11
78.223600000000005
 21
268.51900000000001
 31
0.0
  0
LINE
  5
57A
  8
_________1
 62
     7
 10
78.223600000000005
 20
268.51900000000001
 30
0.0
 11
77.385800000000003
 21
269.35700000000003
 31
0.0
  0
LINE
  5
57B
  8
_________1
 62
     7
 10
80.259699999999995
 20
271.39299999999997
 30
0.0
 11
66.074100000000001
 21
257.20800000000003
 31
0.0
  0
ENDBLK
  5
57C
  8
_________1
  0
BLOCK
  8
_________2
  2
AIGNBL03010002
 70
     0
 10
0.0
 20
0.0
 30
0.0
  3
AIGNBL03010002
  1

  0
LINE
  5
57F
  8
_________2
 62
     7
 10
186.649
 20
51.052199999999999
 30
0.0
 11
184.46299999999999
 21
51.052199999999999
 31
0.0
  0
LINE
  5
580
  8
_________2
 62
     7
 10
187.142
 20
51.052199999999999
 30
0.0
 11
186.88900000000001
 21
51.052199999999999
 31
0.0
  0
LINE
  5
581
  8
_________2
 62
     7
 10
187.63399999999999
 20
51.052199999999999
 30
0.0
 11
190.559
 21
51.052199999999999
 31
0.0
  0
LINE
  5
582
  8
_________2
 62
     7
 10
187.142
 20
51.052199999999999
 30
0.0
 11
187.39400000000001
 21
51.052199999999999
 31
0.0
  0
LINE
  5
583
  8
_________2
 62
     7
 10
180.745
 20
51.052199999999999
 30
0.0
 11
178.55799999999999
 21
51.052199999999999
 31
0.0
  0
LINE
  5
584
  8
_________2
 62
     7
 10
181.23699999999999
 20
51.052199999999999
 30
0.0
 11
180.98599999999999
 21
51.052199999999999
 31
0.0
  0
LINE
  5
585
  8
_________2
 62
     7
 10
181.23699999999999
 20
51.544800000000002
 30
0.0
 11
181.23699999999999
 21
53.7318
 31
0.0
  0
LINE
  5
586
  8
_________2
 62
     7
 10
181.23699999999999
 20
51.052199999999999
 30
0.0
 11
181.23699999999999
 21
51.304299999999998
 31
0.0
  0
LINE
  5
587
  8
_________2
 62
     7
 10
181.72999999999999
 20
51.052199999999999
 30
0.0
 11
183.917
 21
51.052199999999999
 31
0.0
  0
LINE
  5
588
  8
_________2
 62
     7
 10
181.23699999999999
 20
51.052199999999999
 30
0.0
 11
181.489
 21
51.052199999999999
 31
0.0
  0
LINE
  5
589
  8
_________2
 62
     7
 10
181.23699999999999
 20
50.560200000000002
 30
0.0
 11
181.23699999999999
 21
48.373199999999997
 31
0.0
  0
LINE
  5
58A
  8
_________2
 62
     7
 10
181.23699999999999
 20
51.052199999999999
 30
0.0
 11
181.23699999999999
 21
50.800699999999999
 31
0.0
  0
LINE
  5
58B
  8
_________2
 62
     7
 10
184.94799999999989
 20
49.832599999999999
 30
0.0
 11
190.12599999999989
 21
48.9679
 31
0.0
  0
LINE
  5
58C
  8
_________2
 62
     7
 10
184.94799999999989
 20
52.271700000000003
 30
0.0
 11
190.12599999999989
 21
53.137099999999997
 31
0.0
  0
LINE
  5
58D
  8
_________2
 62
     7
 10
190.12599999999989
 20
48.9679
 30
0.0
 11
190.12599999999989
 21
53.137099999999997
 31
0.0
  0
LINE
  5
58E
  8
_________2
 62
     7
 10
184.94799999999989
 20
49.832599999999999
 30
0.0
 11
184.94799999999989
 21
52.271700000000003
 31
0.0
  0
ARC
  5
58F
  8
_________2
 62
     7
 10
181.190651
 20
51.004810999999989
 30
0.0
 40
1.2677780000000001
 50
2.1403449999999991
 51
87.892005999999995
  0
ARC
  5
590
  8
_________2
 62
     7
 10
181.28420199999999
 20
51.005241999999988
 30
0.0
 40
1.2673579999999991
 50
92.121564999999975
 51
177.87840600000001
  0
ARC
  5
591
  8
_________2
 62
     7
 10
181.28381400000001
 20
51.098689
 30
0.0
 40
1.2669559999999991
 50
182.10473099999999
 51
267.89529900000002
  0
ARC
  5
592
  8
_________2
 62
     7
 10
181.19038399999999
 20
51.099775000000001
 30
0.0
 40
1.268054
 50
272.11960599999998
 51
357.84804300000002
  0
ARC
  5
593
  8
_________2
 62
     7
 10
181.23728399999999
 20
51.05215900000001
 30
0.0
 40
2.0849849999999992
 50
0.00001
 51
89.999980000000008
  0
ARC
  5
594
  8
_________2
 62
     7
 10
181.317331
 20
50.972827000000002
 30
0.0
 40
2.1657969999999991
 50
92.118111999999996
 51
177.90079600000001
  0
ARC
  5
595
  8
_________2
 62
     7
 10
181.31728799999999
 20
51.132162999999998
 30
0.0
 40
2.1657779999999991
 50
182.11700400000001
 51
267.88302499999998
  0
ARC
  5
596
  8
_________2
 62
     7
 10
181.15730300000001
 20
51.132855999999997
 30
0.0
 40
2.166469999999999
 50
272.115725
 51
357.86534699999999
  0
ENDBLK
  5
597
  8
_________2
  0
ENDSEC
  0
SECTION
  2
ENTITIES
  0
TEXT
  5
598
  8
____
 62
     7
 10
-39.117717500000012
 20
239.131
 30
0.0
 40
3.0923400000000001
  1
50%%d
 41
0.5
 72
     1
 11
-37.442700000000002
 21
239.131
 31
0.0
  0
TEXT
  5
599
  8
____
 62
     7
 10
-18.5497175
 20
239.131
 30
0.0
 40
3.0923400000000001
  1
50%%d
 41
0.5
 72
     1
 11
-16.874700000000001
 21
239.131
 31
0.0
  0
TEXT
  5
59A
  8
____
 62
     7
 10
-29.758759999999999
 20
159.88800000000001
 30
0.0
 40
3.0923400000000001
  1
%%c43
 41
0.5
 72
     1
 11
-27.697199999999999
 21
159.88800000000001
 31
0.0
  0
TEXT
  5
59B
  8
____
 62
     7
 10
-29.758759999999999
 20
140.89599999999999
 30
0.0
 40
3.0923400000000001
  1
%%c55
 41
0.5
 72
     1
 11
-27.697199999999999
 21
140.89599999999999
 31
0.0
  0
TEXT
  5
59C
  8
____
 62
     7
 10
-40.18569999999999
 20
128.839
 30
0.0
 40
3.0923400000000001
  1
%%c33
 41
0.5
  0
TEXT
  5
59D
  8
____
 62
     7
 10
60.153999999999989
 20
24.657
 30
0.0
 40
3.0923400000000001
  1
PF 3/8
 41
0.5
  0
TEXT
  5
59E
  8
____
 62
     7
 10
60.357900000000001
 20
125.375845
 30
0.0
 40
3.0923400000000001
  1
max.40
 50
90.0
 41
0.5
 72
     2
 11
60.357900000000001
 21
132.84899999999999
 31
0.0
  0
TEXT
  5
59F
  8
____
 62
     7
 10
24.780200000000001
 20
80.308482500000011
 30
0.0
 40
3.0923400000000001
  1
410
 50
90.0
 41
0.5
 72
     1
 11
24.780200000000001
 21
81.983500000000006
 31
0.0
  0
TEXT
  5
5A0
  8
____
 62
     7
 10
51.96773499999999
 20
178.607
 30
0.0
 40
3.0923400000000001
  1
155
 41
0.5
 72
     1
 11
53.771599999999992
 21
178.607
 31
0.0
  0
TEXT
  5
5A1
  8
____
 62
     7
 10
30.602830000000001
 20
174.12
 30
0.0
 40
3.0923400000000001
  1
16%%d
 41
0.5
 72
     1
 11
32.149000000000001
 21
174.12
 31
0.0
  0
TEXT
  5
5A2
  8
____
 62
     7
 10
81.807280000000006
 20
272.25299999999999
 30
0.0
 40
3.0923400000000001
  1
%%c35
 41
0.5
 72
     2
 11
85.930400000000006
 21
272.25299999999999
 31
0.0
  0
TEXT
  5
5A3
  8
____
 62
     7
 10
68.714545999999984
 20
251.59899999999999
 30
0.0
 40
3.0923400000000001
  1
水栓取付穴
 41
0.5
 72
     1
 11
73.146900000000002
 21
251.59899999999999
 31
0.0
  0
TEXT
  5
5A4
  8
____
 62
     7
 10
-8.7080500000000001
 20
249.38900000000001
 30
0.0
 40
3.0923400000000001
  1
水
 41
0.5
  0
TEXT
  5
5A5
  8
____
 62
     7
 10
-47.988892
 20
249.38900000000001
 30
0.0
 40
3.0923400000000001
  1
湯
 41
0.5
 72
     2
 11
-46.5458
 21
249.38900000000001
 31
0.0
  0
TEXT
  5
5A6
  8
____
 62
     7
 10
50.138853999999988
 20
216.71199999999999
 30
0.0
 40
3.0923400000000001
  1
開
 41
0.5
 72
     1
 11
50.860399999999998
 21
216.71199999999999
 31
0.0
  0
TEXT
  5
5A7
  8
____
 62
     7
 10
47.754485999999993
 20
204.50800000000001
 30
0.0
 40
3.0923400000000001
  1
閉
 41
0.5
 72
     2
 11
49.094499999999989
 21
204.50800000000001
 31
0.0
  0
TEXT
  5
5A8
  8
____
 62
     7
 10
90.268799999999999
 20
170.43013500000001
 30
0.0
 40
3.0923400000000001
  1
312
 50
90.0
 41
0.5
 72
     1
 11
90.268799999999999
 21
172.23400000000001
 31
0.0
  0
TEXT
  5
5A9
  8
____
 62
     7
 10
13.255599999999999
 20
172.29743999999999
 30
0.0
 40
3.0923400000000001
  1
329
 50
90.0
 41
0.5
 72
     1
 11
13.255599999999999
 21
174.35900000000001
 31
0.0
  0
TEXT
  5
5AA
  8
____
 62
     7
 10
24.831499999999998
 20
161.09044
 30
0.0
 40
3.0923400000000001
  1
239
 50
90.0
 41
0.5
 72
     1
 11
24.831499999999998
 21
163.15199999999999
 31
0.0
  0
TEXT
  5
5AB
  8
____
 62
     7
 10
19.043399999999998
 20
161.42243999999999
 30
0.0
 40
3.0923400000000001
  1
242
 50
90.0
 41
0.5
 72
     1
 11
19.043399999999998
 21
163.48400000000001
 31
0.0
  0
TEXT
  5
5AC
  8
____
 62
     7
 10
-42.791048000000004
 20
24.977399999999999
 30
0.0
 40
3.0923400000000001
  1
湯側
 41
0.5
 72
     1
 11
-41.141800000000003
 21
24.977399999999999
 31
0.0
  0
TEXT
  5
5AD
  8
____
 62
     7
 10
-15.902248
 20
24.977399999999999
 30
0.0
 40
3.0923400000000001
  1
水側
 41
0.5
 72
     1
 11
-14.253
 21
24.977399999999999
 31
0.0
  0
ARC
  5
5AE
  8
_________1
 62
     7
 10
34.388233999999997
 20
193.98456999999999
 30
0.0
 40
16.077683
 50
243.393451
 51
270.02970599999998
  0
ARC
  5
5AF
  8
_________1
 62
     7
 10
-27.902809999999999
 20
264.72225400000002
 30
0.0
 40
28.674409000000001
 50
270.41086899999999
 51
319.58775200000002
  0
ARC
  5
5B0
  8
_________1
 62
     7
 10
-27.507348
 20
264.68894999999998
 30
0.0
 40
28.640996000000001
 50
220.38349199999999
 51
269.62022700000011
  0
ARC
  5
5B1
  8
_________1
 62
     7
 10
-27.526005000000001
 20
264.39144300000009
 30
0.0
 40
7.0471339999999989
 50
180.90101100000001
 51
245.84684300000001
  0
ARC
  5
5B2
  8
_________1
 62
     7
 10
-27.697191
 20
264.28062899999998
 30
0.0
 40
6.8750770000000001
 50
90.0
 51
179.99996999999999
  0
ARC
  5
5B3
  8
_________1
 62
     7
 10
-27.697194
 20
264.28062899999998
 30
0.0
 40
6.8750770000000001
 50
0.00001
 51
89.999980000000008
  0
ARC
  5
5B4
  8
_________1
 62
     7
 10
-27.866755000000001
 20
264.39033699999999
 30
0.0
 40
7.0454929999999987
 50
294.13854500000002
 51
359.10779700000001
  0
INSERT
  5
5B5
  8
_________1
 62
     7
  2
AIGNBL02010002
 10
0.0
 20
0.0
 30
0.0
  0
INSERT
  5
5B6
  8
_________1
 62
     7
  2
AIGNBL02010003
 10
0.0
 20
0.0
 30
0.0
  0
INSERT
  5
5B7
  8
_________1
 62
     7
  2
AIGNBL02010004
 10
0.0
 20
0.0
 30
0.0
  0
INSERT
  5
5B8
  8
_________1
 62
     7
  2
AIGNBL02010005
 10
0.0
 20
0.0
 30
0.0
  0
INSERT
  5
5B9
  8
_________1
 62
     7
  2
AIGNBL02010006
 10
0.0
 20
0.0
 30
0.0
  0
INSERT
  5
5BA
  8
_________1
 62
     7
  2
AIGNBL02010007
 10
0.0
 20
0.0
 30
0.0
  0
INSERT
  5
5BB
  8
_________1
 62
     7
  2
AIGNBL02010008
 10
0.0
 20
0.0
 30
0.0
  0
INSERT
  5
5BC
  8
_________1
 62
     7
  2
AIGNBL02010009
 10
0.0
 20
0.0
 30
0.0
  0
INSERT
  5
5BD
  8
_________1
 62
     7
  2
AIGNBL0201000A
 10
0.0
 20
0.0
 30
0.0
  0
INSERT
  5
5BE
  8
_________1
 62
     7
  2
AIGNBL0201000B
 10
0.0
 20
0.0
 30
0.0
  0
INSERT
  5
5BF
  8
_________1
 62
     7
  2
AIGNBL0201000C
 10
0.0
 20
0.0
 30
0.0
  0
INSERT
  5
5C0
  8
_________1
 62
     7
  2
AIGNBL0201000D
 10
0.0
 20
0.0
 30
0.0
  0
INSERT
  5
5C1
  8
_________1
 62
     7
  2
AIGNBL0201000E
 10
0.0
 20
0.0
 30
0.0
  0
LINE
  5
5C2
  8
_________1
 62
     7
 10
-29.869
 20
236.774
 30
0.0
 11
-27.697199999999999
 21
236.04900000000001
 31
0.0
  0
LINE
  5
5C3
  8
_________1
 62
     7
 10
-27.697199999999999
 20
236.04900000000001
 30
0.0
 11
-29.9407
 21
235.59100000000001
 31
0.0
  0
LINE
  5
5C4
  8
_________1
 62
     7
 10
-29.9407
 20
235.59100000000001
 30
0.0
 11
-29.869
 21
236.774
 31
0.0
  0
LINE
  5
5C5
  8
_________1
 62
     7
 10
-48.301099999999998
 20
244.084
 30
0.0
 11
-49.323900000000002
 21
246.13300000000001
 31
0.0
  0
LINE
  5
5C6
  8
_________1
 62
     7
 10
-49.323900000000002
 20
246.13300000000001
 30
0.0
 11
-47.413899999999991
 21
244.87
 31
0.0
  0
LINE
  5
5C7
  8
_________1
 62
     7
 10
-47.413899999999991
 20
244.87
 30
0.0
 11
-48.301099999999998
 21
244.084
 31
0.0
  0
INSERT
  5
5C8
  8
_________1
 62
     7
  2
AIGNBL0201000F
 10
0.0
 20
0.0
 30
0.0
  0
INSERT
  5
5C9
  8
_________1
 62
     7
  2
AIGNBL02010010
 10
0.0
 20
0.0
 30
0.0
  0
INSERT
  5
5CA
  8
_________1
 62
     7
  2
AIGNBL02010011
 10
0.0
 20
0.0
 30
0.0
  0
INSERT
  5
5CB
  8
_________1
 62
     7
  2
AIGNBL02010012
 10
0.0
 20
0.0
 30
0.0
  0
INSERT
  5
5CC
  8
_________1
 62
     7
  2
AIGNBL02010013
 10
0.0
 20
0.0
 30
0.0
  0
INSERT
  5
5CD
  8
_________1
 62
     7
  2
AIGNBL02010014
 10
0.0
 20
0.0
 30
0.0
  0
INSERT
  5
5CE
  8
_________1
 62
     7
  2
AIGNBL02010015
 10
0.0
 20
0.0
 30
0.0
  0
INSERT
  5
5CF
  8
_________1
 62
     7
  2
AIGNBL02010016
 10
0.0
 20
0.0
 30
0.0
  0
INSERT
  5
5D0
  8
_________1
 62
     7
  2
AIGNBL02010017
 10
0.0
 20
0.0
 30
0.0
  0
INSERT
  5
5D1
  8
_________1
 62
     7
  2
AIGNBL02010018
 10
0.0
 20
0.0
 30
0.0
  0
INSERT
  5
5D2
  8
_________1
 62
     7
  2
AIGNBL02010019
 10
0.0
 20
0.0
 30
0.0
  0
INSERT
  5
5D3
  8
_________1
 62
     7
  2
AIGNBL0201001A
 10
0.0
 20
0.0
 30
0.0
  0
INSERT
  5
5D4
  8
_________1
 62
     7
  2
AIGNBL0201001B
 10
0.0
 20
0.0
 30
0.0
  0
LINE
  5
5D5
  8
_________1
  6
AIGENLINE002
 62
     7
 10
-36.692
 20
264.28100000000001
 30
0.0
 11
-18.8767
 21
264.28100000000001
 31
0.0
  0
INSERT
  5
5D6
  8
_________1
 62
     7
  2
AIGNBL0201001C
 10
0.0
 20
0.0
 30
0.0
  0
INSERT
  5
5D7
  8
_________1
 62
     7
  2
AIGNBL0201001D
 10
0.0
 20
0.0
 30
0.0
  0
INSERT
  5
5D8
  8
_________1
 62
     7
  2
AIGNBL0201001E
 10
0.0
 20
0.0
 30
0.0
  0
INSERT
  5
5D9
  8
_________1
 62
     7
  2
AIGNBL0201001F
 10
0.0
 20
0.0
 30
0.0
  0
INSERT
  5
5DA
  8
_________1
 62
     7
  2
AIGNBL02010020
 10
0.0
 20
0.0
 30
0.0
  0
INSERT
  5
5DB
  8
_________1
 62
     7
  2
AIGNBL02010021
 10
0.0
 20
0.0
 30
0.0
  0
INSERT
  5
5DC
  8
_________1
 62
     7
  2
AIGNBL02010022
 10
0.0
 20
0.0
 30
0.0
  0
INSERT
  5
5DD
  8
_________1
 62
     7
  2
AIGNBL02010023
 10
0.0
 20
0.0
 30
0.0
  0
INSERT
  5
5DE
  8
_________1
 62
     7
  2
AIGNBL02010024
 10
0.0
 20
0.0
 30
0.0
  0
INSERT
  5
5DF
  8
_________1
 62
     7
  2
AIGNBL02010025
 10
0.0
 20
0.0
 30
0.0
  0
INSERT
  5
5E0
  8
_________1
 62
     7
  2
AIGNBL02010026
 10
0.0
 20
0.0
 30
0.0
  0
INSERT
  5
5E1
  8
_________1
 62
     7
  2
AIGNBL02010027
 10
0.0
 20
0.0
 30
0.0
  0
INSERT
  5
5E2
  8
_________1
 62
     7
  2
AIGNBL02010028
 10
0.0
 20
0.0
 30
0.0
  0
INSERT
  5
5E3
  8
_________1
 62
     7
  2
AIGNBL02010029
 10
0.0
 20
0.0
 30
0.0
  0
INSERT
  5
5E4
  8
_________1
 62
     7
  2
AIGNBL0201002A
 10
0.0
 20
0.0
 30
0.0
  0
INSERT
  5
5E5
  8
_________1
 62
     7
  2
AIGNBL0201002B
 10
0.0
 20
0.0
 30
0.0
  0
INSERT
  5
5E6
  8
_________1
 62
     7
  2
AIGNBL0201002C
 10
0.0
 20
0.0
 30
0.0
  0
INSERT
  5
5E7
  8
_________1
 62
     7
  2
AIGNBL0201002D
 10
0.0
 20
0.0
 30
0.0
  0
INSERT
  5
5E8
  8
_________1
 62
     7
  2
AIGNBL0201002E
 10
0.0
 20
0.0
 30
0.0
  0
INSERT
  5
5E9
  8
_________1
 62
     7
  2
AIGNBL0201002F
 10
0.0
 20
0.0
 30
0.0
  0
INSERT
  5
5EA
  8
_________1
 62
     7
  2
AIGNBL02010030
 10
0.0
 20
0.0
 30
0.0
  0
INSERT
  5
5EB
  8
_________1
 62
     7
  2
AIGNBL02010031
 10
0.0
 20
0.0
 30
0.0
  0
INSERT
  5
5EC
  8
_________1
 62
     7
  2
AIGNBL02010032
 10
0.0
 20
0.0
 30
0.0
  0
INSERT
  5
5ED
  8
_________1
 62
     7
  2
AIGNBL02010033
 10
0.0
 20
0.0
 30
0.0
  0
INSERT
  5
5EE
  8
_________1
 62
     7
  2
AIGNBL02010034
 10
0.0
 20
0.0
 30
0.0
  0
INSERT
  5
5EF
  8
_________1
 62
     7
  2
AIGNBL02010035
 10
0.0
 20
0.0
 30
0.0
  0
INSERT
  5
5F0
  8
_________1
 62
     7
  2
AIGNBL02010036
 10
0.0
 20
0.0
 30
0.0
  0
INSERT
  5
5F1
  8
_________1
 62
     7
  2
AIGNBL02010037
 10
0.0
 20
0.0
 30
0.0
  0
INSERT
  5
5F2
  8
_________1
 62
     7
  2
AIGNBL02010038
 10
0.0
 20
0.0
 30
0.0
  0
INSERT
  5
5F3
  8
_________1
 62
     7
  2
AIGNBL02010039
 10
0.0
 20
0.0
 30
0.0
  0
INSERT
  5
5F4
  8
_________1
 62
     7
  2
AIGNBL0201003A
 10
0.0
 20
0.0
 30
0.0
  0
INSERT
  5
5F5
  8
_________1
 62
     7
  2
AIGNBL0201003B
 10
0.0
 20
0.0
 30
0.0
  0
INSERT
  5
5F6
  8
_________1
 62
     7
  2
AIGNBL0201003C
 10
0.0
 20
0.0
 30
0.0
  0
INSERT
  5
5F7
  8
_________1
 62
     7
  2
AIGNBL0201003D
 10
0.0
 20
0.0
 30
0.0
  0
INSERT
  5
5F8
  8
_________1
 62
     7
  2
AIGNBL0201003E
 10
0.0
 20
0.0
 30
0.0
  0
INSERT
  5
5F9
  8
_________1
 62
     7
  2
AIGNBL0201004B
 10
0.0
 20
0.0
 30
0.0
  0
INSERT
  5
5FA
  8
_________1
 62
     7
  2
AIGNBL0201004C
 10
0.0
 20
0.0
 30
0.0
  0
INSERT
  5
5FB
  8
_________1
 62
     7
  2
AIGNBL0201004D
 10
0.0
 20
0.0
 30
0.0
  0
INSERT
  5
5FC
  8
_________1
 62
     7
  2
AIGNBL0201004E
 10
0.0
 20
0.0
 30
0.0
  0
INSERT
  5
5FD
  8
_________1
 62
     7
  2
AIGNBL0201004F
 10
0.0
 20
0.0
 30
0.0
  0
INSERT
  5
5FE
  8
_________1
 62
     7
  2
AIGNBL02010050
 10
0.0
 20
0.0
 30
0.0
  0
INSERT
  5
5FF
  8
_________1
 62
     7
  2
AIGNBL02010051
 10
0.0
 20
0.0
 30
0.0
  0
INSERT
  5
600
  8
_________1
 62
     7
  2
AIGNBL02010052
 10
0.0
 20
0.0
 30
0.0
  0
INSERT
  5
601
  8
_________1
 62
     7
  2
AIGNBL02010053
 10
0.0
 20
0.0
 30
0.0
  0
INSERT
  5
602
  8
_________1
 62
     7
  2
AIGNBL02010054
 10
0.0
 20
0.0
 30
0.0
  0
INSERT
  5
603
  8
_________1
 62
     7
  2
AIGNBL02010055
 10
0.0
 20
0.0
 30
0.0
  0
INSERT
  5
604
  8
_________1
 62
     7
  2
AIGNBL02010056
 10
0.0
 20
0.0
 30
0.0
  0
INSERT
  5
605
  8
_________1
 62
     7
  2
AIGNBL02010057
 10
0.0
 20
0.0
 30
0.0
  0
INSERT
  5
606
  8
_________1
 62
     7
  2
AIGNBL02010058
 10
0.0
 20
0.0
 30
0.0
  0
INSERT
  5
607
  8
_________1
 62
     7
  2
AIGNBL02010059
 10
0.0
 20
0.0
 30
0.0
  0
INSERT
  5
608
  8
_________1
 62
     7
  2
AIGNBL0201005A
 10
0.0
 20
0.0
 30
0.0
  0
INSERT
  5
609
  8
_________1
 62
     7
  2
AIGNBL0201005B
 10
0.0
 20
0.0
 30
0.0
  0
INSERT
  5
60A
  8
_________1
 62
     7
  2
AIGNBL0201005C
 10
0.0
 20
0.0
 30
0.0
  0
INSERT
  5
60B
  8
_________1
 62
     7
  2
AIGNBL0201005D
 10
0.0
 20
0.0
 30
0.0
  0
INSERT
  5
60C
  8
_________1
 62
     7
  2
AIGNBL0201005E
 10
0.0
 20
0.0
 30
0.0
  0
INSERT
  5
60D
  8
_________1
 62
     7
  2
AIGNBL0201005F
 10
0.0
 20
0.0
 30
0.0
  0
INSERT
  5
60E
  8
_________1
 62
     7
  2
AIGNBL02010060
 10
0.0
 20
0.0
 30
0.0
  0
INSERT
  5
60F
  8
_________1
 62
     7
  2
AIGNBL02010061
 10
0.0
 20
0.0
 30
0.0
  0
INSERT
  5
610
  8
_________1
 62
     7
  2
AIGNBL02010062
 10
0.0
 20
0.0
 30
0.0
  0
INSERT
  5
611
  8
_________1
 62
     7
  2
AIGNBL02010063
 10
0.0
 20
0.0
 30
0.0
  0
INSERT
  5
612
  8
_________1
 62
     7
  2
AIGNBL02010064
 10
0.0
 20
0.0
 30
0.0
  0
INSERT
  5
613
  8
_________1
 62
     7
  2
AIGNBL02010065
 10
0.0
 20
0.0
 30
0.0
  0
INSERT
  5
614
  8
_________1
 62
     7
  2
AIGNBL02010066
 10
0.0
 20
0.0
 30
0.0
  0
INSERT
  5
615
  8
_________1
 62
     7
  2
AIGNBL02010067
 10
0.0
 20
0.0
 30
0.0
  0
INSERT
  5
616
  8
_________1
 62
     7
  2
AIGNBL02010068
 10
0.0
 20
0.0
 30
0.0
  0
INSERT
  5
617
  8
_________1
 62
     7
  2
AIGNBL02010069
 10
0.0
 20
0.0
 30
0.0
  0
INSERT
  5
618
  8
_________1
 62
     7
  2
AIGNBL0201006A
 10
0.0
 20
0.0
 30
0.0
  0
INSERT
  5
619
  8
_________1
 62
     7
  2
AIGNBL0201006B
 10
0.0
 20
0.0
 30
0.0
  0
INSERT
  5
61A
  8
_________1
 62
     7
  2
AIGNBL0201006C
 10
0.0
 20
0.0
 30
0.0
  0
INSERT
  5
61B
  8
_________1
 62
     7
  2
AIGNBL0201006D
 10
0.0
 20
0.0
 30
0.0
  0
INSERT
  5
61C
  8
_________1
 62
     7
  2
AIGNBL0201006E
 10
0.0
 20
0.0
 30
0.0
  0
INSERT
  5
61D
  8
_________1
 62
     7
  2
AIGNBL0201006F
 10
0.0
 20
0.0
 30
0.0
  0
INSERT
  5
61E
  8
_________1
 62
     7
  2
AIGNBL02010070
 10
0.0
 20
0.0
 30
0.0
  0
INSERT
  5
61F
  8
_________1
 62
     7
  2
AIGNBL02010071
 10
0.0
 20
0.0
 30
0.0
  0
INSERT
  5
620
  8
_________1
 62
     7
  2
AIGNBL02010072
 10
0.0
 20
0.0
 30
0.0
  0
INSERT
  5
621
  8
_________1
 62
     7
  2
AIGNBL02010073
 10
0.0
 20
0.0
 30
0.0
  0
INSERT
  5
622
  8
_________1
 62
     7
  2
AIGNBL02010074
 10
0.0
 20
0.0
 30
0.0
  0
INSERT
  5
623
  8
_________1
 62
     7
  2
AIGNBL02010075
 10
0.0
 20
0.0
 30
0.0
  0
INSERT
  5
624
  8
_________1
 62
     7
  2
AIGNBL02010076
 10
0.0
 20
0.0
 30
0.0
  0
INSERT
  5
625
  8
_________1
 62
     7
  2
AIGNBL02010077
 10
0.0
 20
0.0
 30
0.0
  0
INSERT
  5
626
  8
_________1
 62
     7
  2
AIGNBL02010078
 10
0.0
 20
0.0
 30
0.0
  0
INSERT
  5
627
  8
_________1
 62
     7
  2
AIGNBL02010079
 10
0.0
 20
0.0
 30
0.0
  0
INSERT
  5
628
  8
_________1
 62
     7
  2
AIGNBL0201007A
 10
0.0
 20
0.0
 30
0.0
  0
INSERT
  5
629
  8
_________1
 62
     7
  2
AIGNBL0201007B
 10
0.0
 20
0.0
 30
0.0
  0
INSERT
  5
62A
  8
_________1
 62
     7
  2
AIGNBL0201007C
 10
0.0
 20
0.0
 30
0.0
  0
INSERT
  5
62B
  8
_________1
 62
     7
  2
AIGNBL0201007D
 10
0.0
 20
0.0
 30
0.0
  0
INSERT
  5
62C
  8
_________1
 62
     7
  2
AIGNBL0201007E
 10
0.0
 20
0.0
 30
0.0
  0
INSERT
  5
62D
  8
_________1
 62
     7
  2
AIGNBL0201007F
 10
0.0
 20
0.0
 30
0.0
  0
INSERT
  5
62E
  8
_________1
 62
     7
  2
AIGNBL02010080
 10
0.0
 20
0.0
 30
0.0
  0
INSERT
  5
62F
  8
_________1
 62
     7
  2
AIGNBL02010081
 10
0.0
 20
0.0
 30
0.0
  0
INSERT
  5
630
  8
_________1
 62
     7
  2
AIGNBL02010082
 10
0.0
 20
0.0
 30
0.0
  0
INSERT
  5
631
  8
_________1
 62
     7
  2
AIGNBL02010083
 10
0.0
 20
0.0
 30
0.0
  0
INSERT
  5
632
  8
_________1
 62
     7
  2
AIGNBL02010084
 10
0.0
 20
0.0
 30
0.0
  0
INSERT
  5
633
  8
_________1
 62
     7
  2
AIGNBL02010085
 10
0.0
 20
0.0
 30
0.0
  0
INSERT
  5
634
  8
_________1
 62
     7
  2
AIGNBL02010086
 10
0.0
 20
0.0
 30
0.0
  0
INSERT
  5
635
  8
_________1
 62
     7
  2
AIGNBL02010087
 10
0.0
 20
0.0
 30
0.0
  0
INSERT
  5
636
  8
_________1
 62
     7
  2
AIGNBL02010088
 10
0.0
 20
0.0
 30
0.0
  0
INSERT
  5
637
  8
_________1
 62
     7
  2
AIGNBL02010089
 10
0.0
 20
0.0
 30
0.0
  0
INSERT
  5
638
  8
_________1
 62
     7
  2
AIGNBL0201008A
 10
0.0
 20
0.0
 30
0.0
  0
INSERT
  5
639
  8
_________1
 62
     7
  2
AIGNBL0201008B
 10
0.0
 20
0.0
 30
0.0
  0
INSERT
  5
63A
  8
_________1
 62
     7
  2
AIGNBL0201008C
 10
0.0
 20
0.0
 30
0.0
  0
INSERT
  5
63B
  8
_________1
 62
     7
  2
AIGNBL0201008D
 10
0.0
 20
0.0
 30
0.0
  0
INSERT
  5
63C
  8
_________1
 62
     7
  2
AIGNBL0201008E
 10
0.0
 20
0.0
 30
0.0
  0
INSERT
  5
63D
  8
_________1
 62
     7
  2
AIGNBL0201008F
 10
0.0
 20
0.0
 30
0.0
  0
INSERT
  5
63E
  8
_________1
 62
     7
  2
AIGNBL02010090
 10
0.0
 20
0.0
 30
0.0
  0
INSERT
  5
63F
  8
_________1
 62
     7
  2
AIGNBL02010091
 10
0.0
 20
0.0
 30
0.0
  0
INSERT
  5
640
  8
_________1
 62
     7
  2
AIGNBL02010092
 10
0.0
 20
0.0
 30
0.0
  0
INSERT
  5
641
  8
_________1
 62
     7
  2
AIGNBL02010093
 10
0.0
 20
0.0
 30
0.0
  0
INSERT
  5
642
  8
_________1
 62
     7
  2
AIGNBL02010094
 10
0.0
 20
0.0
 30
0.0
  0
INSERT
  5
643
  8
_________1
 62
     7
  2
AIGNBL02010095
 10
0.0
 20
0.0
 30
0.0
  0
INSERT
  5
644
  8
_________1
 62
     7
  2
AIGNBL02010096
 10
0.0
 20
0.0
 30
0.0
  0
INSERT
  5
645
  8
_________1
 62
     7
  2
AIGNBL02010097
 10
0.0
 20
0.0
 30
0.0
  0
INSERT
  5
646
  8
_________1
 62
     7
  2
AIGNBL02010098
 10
0.0
 20
0.0
 30
0.0
  0
INSERT
  5
647
  8
_________1
 62
     7
  2
AIGNBL02010099
 10
0.0
 20
0.0
 30
0.0
  0
INSERT
  5
648
  8
_________1
 62
     7
  2
AIGNBL0201009A
 10
0.0
 20
0.0
 30
0.0
  0
INSERT
  5
649
  8
_________1
 62
     7
  2
AIGNBL0201009B
 10
0.0
 20
0.0
 30
0.0
  0
INSERT
  5
64A
  8
_________1
 62
     7
  2
AIGNBL0201009C
 10
0.0
 20
0.0
 30
0.0
  0
INSERT
  5
64B
  8
_________1
 62
     7
  2
AIGNBL0201009D
 10
0.0
 20
0.0
 30
0.0
  0
INSERT
  5
64C
  8
_________1
 62
     7
  2
AIGNBL0201009E
 10
0.0
 20
0.0
 30
0.0
  0
INSERT
  5
64D
  8
_________1
 62
     7
  2
AIGNBL0201009F
 10
0.0
 20
0.0
 30
0.0
  0
INSERT
  5
64E
  8
_________1
 62
     7
  2
AIGNBL020100A0
 10
0.0
 20
0.0
 30
0.0
  0
INSERT
  5
64F
  8
_________1
 62
     7
  2
AIGNBL020100A1
 10
0.0
 20
0.0
 30
0.0
  0
INSERT
  5
650
  8
_________1
 62
     7
  2
AIGNBL020100A2
 10
0.0
 20
0.0
 30
0.0
  0
INSERT
  5
651
  8
_________1
 62
     7
  2
AIGNBL020100A3
 10
0.0
 20
0.0
 30
0.0
  0
INSERT
  5
652
  8
_________1
 62
     7
  2
AIGNBL020100A4
 10
0.0
 20
0.0
 30
0.0
  0
INSERT
  5
653
  8
_________1
 62
     7
  2
AIGNBL020100A5
 10
0.0
 20
0.0
 30
0.0
  0
INSERT
  5
654
  8
_________1
 62
     7
  2
AIGNBL020100A6
 10
0.0
 20
0.0
 30
0.0
  0
INSERT
  5
655
  8
_________1
 62
     7
  2
AIGNBL020100A7
 10
0.0
 20
0.0
 30
0.0
  0
INSERT
  5
656
  8
_________1
 62
     7
  2
AIGNBL020100A8
 10
0.0
 20
0.0
 30
0.0
  0
INSERT
  5
657
  8
_________1
 62
     7
  2
AIGNBL020100A9
 10
0.0
 20
0.0
 30
0.0
  0
INSERT
  5
658
  8
_________1
 62
     7
  2
AIGNBL020100AA
 10
0.0
 20
0.0
 30
0.0
  0
INSERT
  5
659
  8
_________1
 62
     7
  2
AIGNBL020100AB
 10
0.0
 20
0.0
 30
0.0
  0
INSERT
  5
65A
  8
_________1
 62
     7
  2
AIGNBL020100AC
 10
0.0
 20
0.0
 30
0.0
  0
INSERT
  5
65B
  8
_________1
 62
     7
  2
AIGNBL020100AD
 10
0.0
 20
0.0
 30
0.0
  0
LINE
  5
65C
  8
_________1
 62
     7
 10
70.935100000000006
 20
177.31399999999999
 30
0.0
 11
73.146900000000002
 21
177.90700000000001
 31
0.0
  0
LINE
  5
65D
  8
_________1
 62
     7
 10
73.146900000000002
 20
177.90700000000001
 30
0.0
 11
70.935100000000006
 21
178.5
 31
0.0
  0
LINE
  5
65E
  8
_________1
 62
     7
 10
70.935100000000006
 20
178.5
 30
0.0
 11
70.935100000000006
 21
177.31399999999999
 31
0.0
  0
LINE
  5
65F
  8
_________1
 62
     7
 10
27.747800000000002
 20
178.71000000000001
 30
0.0
 11
30.0288
 21
178.5079999999999
 31
0.0
  0
LINE
  5
660
  8
_________1
 62
     7
 10
30.0288
 20
178.5079999999999
 30
0.0
 11
28.154699999999998
 21
179.82300000000001
 31
0.0
  0
LINE
  5
661
  8
_________1
 62
     7
 10
28.154699999999998
 20
179.82300000000001
 30
0.0
 11
27.747800000000002
 21
178.71000000000001
 31
0.0
  0
LINE
  5
662
  8
_________1
 62
     7
 10
36.6083
 20
178.499
 30
0.0
 11
34.396599999999999
 21
177.90700000000001
 31
0.0
  0
LINE
  5
663
  8
_________1
 62
     7
 10
34.396599999999999
 20
177.90700000000001
 30
0.0
 11
36.6083
 21
177.31399999999999
 31
0.0
  0
LINE
  5
664
  8
_________1
 62
     7
 10
36.6083
 20
177.31399999999999
 30
0.0
 11
36.6083
 21
178.499
 31
0.0
  0
LINE
  5
665
  8
_________1
 62
     7
 10
-24.535599999999999
 20
158.61000000000001
 30
0.0
 11
-22.323799999999999
 21
159.203
 31
0.0
  0
LINE
  5
666
  8
_________1
 62
     7
 10
-22.323799999999999
 20
159.203
 30
0.0
 11
-24.535599999999999
 21
159.79599999999999
 31
0.0
  0
LINE
  5
667
  8
_________1
 62
     7
 10
-24.535599999999999
 20
159.79599999999999
 30
0.0
 11
-24.535599999999999
 21
158.61000000000001
 31
0.0
  0
LINE
  5
668
  8
_________1
 62
     7
 10
-30.858799999999999
 20
159.78100000000001
 30
0.0
 11
-33.070500000000003
 21
159.18799999999999
 31
0.0
  0
LINE
  5
669
  8
_________1
 62
     7
 10
-33.070500000000003
 20
159.18799999999999
 30
0.0
 11
-30.858799999999999
 21
158.596
 31
0.0
  0
LINE
  5
66A
  8
_________1
 62
     7
 10
-30.858799999999999
 20
158.596
 30
0.0
 11
-30.858799999999999
 21
159.78100000000001
 31
0.0
  0
LINE
  5
66B
  8
_________1
 62
     7
 10
-22.324200000000001
 20
159.18799999999999
 30
0.0
 11
-33.0702
 21
159.18799999999999
 31
0.0
  0
INSERT
  5
66C
  8
_________1
 62
     7
  2
AIGNBL020100AE
 10
0.0
 20
0.0
 30
0.0
  0
LINE
  5
66D
  8
_________1
 62
     7
 10
-34.572299999999998
 20
134.684
 30
0.0
 11
-34.572299999999998
 21
140.89599999999999
 31
0.0
  0
LINE
  5
66E
  8
_________1
 62
     7
 10
-20.822099999999999
 20
134.684
 30
0.0
 11
-20.822099999999999
 21
140.89599999999999
 31
0.0
  0
LINE
  5
66F
  8
_________1
 62
     7
 10
13.377599999999999
 20
135.44499999999999
 30
0.0
 11
13.9701
 21
133.23400000000001
 31
0.0
  0
LINE
  5
670
  8
_________1
 62
     7
 10
13.9701
 20
133.23400000000001
 30
0.0
 11
14.5627
 21
135.44499999999999
 31
0.0
  0
LINE
  5
671
  8
_________1
 62
     7
 10
14.5627
 20
135.44499999999999
 30
0.0
 11
13.377599999999999
 21
135.44499999999999
 31
0.0
  0
LINE
  5
672
  8
_________1
 62
     7
 10
13.9557
 20
215.48400000000001
 30
0.0
 11
13.9557
 21
133.23400000000001
 31
0.0
  0
LINE
  5
673
  8
_________1
 62
     7
 10
90.390699999999995
 20
135.44499999999999
 30
0.0
 11
90.9833
 21
133.23400000000001
 31
0.0
  0
LINE
  5
674
  8
_________1
 62
     7
 10
90.9833
 20
133.23400000000001
 30
0.0
 11
91.575900000000004
 21
135.44499999999999
 31
0.0
  0
LINE
  5
675
  8
_________1
 62
     7
 10
91.575900000000004
 20
135.44499999999999
 30
0.0
 11
90.390699999999995
 21
135.44499999999999
 31
0.0
  0
LINE
  5
676
  8
_________1
 62
     7
 10
90.968800000000002
 20
211.23400000000001
 30
0.0
 11
90.968800000000002
 21
133.23400000000001
 31
0.0
  0
LINE
  5
677
  8
_________1
 62
     7
 10
49.690100000000001
 20
215.48400000000001
 30
0.0
 11
13.255599999999999
 21
215.48400000000001
 31
0.0
  0
LINE
  5
678
  8
_________1
 62
     7
 10
65.069800000000001
 20
133.23400000000001
 30
0.0
 11
13.270099999999999
 21
133.23400000000001
 31
0.0
  0
LINE
  5
679
  8
_________1
 62
     7
 10
24.939
 20
135.44499999999999
 30
0.0
 11
25.531600000000001
 21
133.23400000000001
 31
0.0
  0
LINE
  5
67A
  8
_________1
 62
     7
 10
25.531600000000001
 20
133.23400000000001
 30
0.0
 11
26.124199999999998
 21
135.44499999999999
 31
0.0
  0
LINE
  5
67B
  8
_________1
 62
     7
 10
26.124199999999998
 20
135.44499999999999
 30
0.0
 11
24.939
 21
135.44499999999999
 31
0.0
  0
LINE
  5
67C
  8
_________1
 62
     7
 10
25.531600000000001
 20
133.23400000000001
 30
0.0
 11
25.531600000000001
 21
193.071
 31
0.0
  0
LINE
  5
67D
  8
_________1
 62
     7
 10
26.124199999999998
 20
190.86000000000001
 30
0.0
 11
25.531600000000001
 21
193.071
 31
0.0
  0
LINE
  5
67E
  8
_________1
 62
     7
 10
25.531600000000001
 20
193.071
 30
0.0
 11
24.939
 21
190.86000000000001
 31
0.0
  0
LINE
  5
67F
  8
_________1
 62
     7
 10
24.939
 20
190.86000000000001
 30
0.0
 11
26.124199999999998
 21
190.86000000000001
 31
0.0
  0
LINE
  5
680
  8
_________1
 62
     7
 10
19.165400000000002
 20
135.44499999999999
 30
0.0
 11
19.757899999999999
 21
133.23400000000001
 31
0.0
  0
LINE
  5
681
  8
_________1
 62
     7
 10
19.757899999999999
 20
133.23400000000001
 30
0.0
 11
20.3505
 21
135.44499999999999
 31
0.0
  0
LINE
  5
682
  8
_________1
 62
     7
 10
20.3505
 20
135.44499999999999
 30
0.0
 11
19.165400000000002
 21
135.44499999999999
 31
0.0
  0
LINE
  5
683
  8
_________1
 62
     7
 10
19.743500000000001
 20
133.23400000000001
 30
0.0
 11
19.743500000000001
 21
193.73400000000001
 31
0.0
  0
LINE
  5
684
  8
_________1
 62
     7
 10
91.668899999999994
 20
211.23400000000001
 30
0.0
 11
79.255099999999999
 21
211.23400000000001
 31
0.0
  0
LINE
  5
685
  8
_________1
 62
     7
 10
91.668899999999994
 20
133.23400000000001
 30
0.0
 11
80.721999999999994
 21
133.23400000000001
 31
0.0
  0
LINE
  5
686
  8
_________1
 62
     7
 10
66.271799999999999
 20
134.23400000000001
 30
0.0
 11
66.271799999999999
 21
133.23400000000001
 31
0.0
  0
LINE
  5
687
  8
_________1
 62
     7
 10
80.022000000000006
 20
134.23400000000001
 30
0.0
 11
80.022000000000006
 21
133.23400000000001
 31
0.0
  0
LINE
  5
688
  8
_________1
 62
     7
 10
66.271799999999999
 20
134.23400000000001
 30
0.0
 11
80.022000000000006
 21
134.23400000000001
 31
0.0
  0
LINE
  5
689
  8
_________1
 62
     7
 10
66.271799999999999
 20
133.23400000000001
 30
0.0
 11
80.022000000000006
 21
133.23400000000001
 31
0.0
  0
LINE
  5
68A
  8
_________1
 62
     7
 10
-20.822099999999999
 20
134.23400000000001
 30
0.0
 11
-20.822099999999999
 21
133.23400000000001
 31
0.0
  0
LINE
  5
68B
  8
_________1
 62
     7
 10
-34.572299999999998
 20
134.23400000000001
 30
0.0
 11
-34.572299999999998
 21
133.23400000000001
 31
0.0
  0
LINE
  5
68C
  8
_________1
 62
     7
 10
-20.822099999999999
 20
134.23400000000001
 30
0.0
 11
-34.572299999999998
 21
134.23400000000001
 31
0.0
  0
LINE
  5
68D
  8
_________1
  6
AIGENLINE002
 62
     7
 10
-27.697199999999999
 20
117.351
 30
0.0
 11
-27.697199999999999
 21
139.64599999999999
 31
0.0
  0
LINE
  5
68E
  8
_________1
 62
     7
 10
-34.572299999999998
 20
133.23400000000001
 30
0.0
 11
-20.822099999999999
 21
133.23400000000001
 31
0.0
  0
LINE
  5
68F
  8
_________1
 62
     7
 10
73.146900000000002
 20
30.989899999999999
 30
0.0
 11
73.146900000000002
 21
33.615000000000002
 31
0.0
  0
LINE
  5
690
  8
_________1
 62
     7
 10
70.771500000000003
 20
30.989899999999999
 30
0.0
 11
70.771500000000003
 21
33.615000000000002
 31
0.0
  0
ARC
  5
691
  8
_________1
 62
     7
 10
76.474731999999989
 20
53.769979999999997
 30
0.0
 40
23.4832
 50
255.94433699999999
 51
256.943398
  0
ARC
  5
692
  8
_________1
 62
     7
 10
72.265430000000009
 20
35.739490000000011
 30
0.0
 40
4.9679809999999991
 50
257.25647300000003
 51
263.098252
  0
ARC
  5
693
  8
_________1
 62
     7
 10
71.982500000000002
 20
33.61985
 30
0.0
 40
2.8298229999999989
 50
263.62808000000001
 51
269.7897779999999
  0
ARC
  5
694
  8
_________1
 62
     7
 10
71.970803000000004
 20
33.311010000000003
 30
0.0
 40
2.5209639999999989
 50
270.02988299999998
 51
277.20705500000003
  0
ARC
  5
695
  8
_________1
 62
     7
 10
71.75895899999999
 20
35.105719000000001
 30
0.0
 40
4.3280969999999996
 50
277.00867599999998
 51
283.59992599999998
  0
ARC
  5
696
  8
_________1
 62
     7
 10
68.976799999999997
 20
47.177503000000002
 30
0.0
 40
16.716142999999999
 50
283.13919600000003
 51
284.445897
  0
ARC
  5
697
  8
_________1
 62
     7
 10
71.524303000000003
 20
28.867121000000001
 30
0.0
 40
5.0175279999999987
 50
71.132167999999993
 51
78.857747000000003
  0
ARC
  5
698
  8
_________1
 62
     7
 10
71.941035999999997
 20
30.826516999999999
 30
0.0
 40
3.0146850000000001
 50
79.432352000000009
 51
89.409268000000012
  0
ARC
  5
699
  8
_________1
 62
     7
 10
71.972463000000005
 20
30.957820000000002
 30
0.0
 40
2.8832230000000001
 50
90.006855999999999
 51
100.851679
  0
ARC
  5
69A
  8
_________1
 62
     7
 10
72.217832999999999
 20
29.486926
 30
0.0
 40
4.3741570000000003
 50
100.380926
 51
109.30856199999999
  0
ARC
  5
69B
  8
_________1
 62
     7
 10
78.802875999999983
 20
53.581034000000002
 30
0.0
 40
23.288430999999999
 50
255.94424100000001
 51
256.95196700000002
  0
ARC
  5
69C
  8
_________1
 62
     7
 10
74.643106000000003
 20
35.75095000000001
 30
0.0
 40
4.9796300000000002
 50
257.261551
 51
263.08818600000001
  0
ARC
  5
69D
  8
_________1
 62
     7
 10
74.357426000000004
 20
33.611058
 30
0.0
 40
2.8210309999999992
 50
263.617998
 51
269.78492499999999
  0
ARC
  5
69E
  8
_________1
 62
     7
 10
74.345522000000003
 20
33.313572000000001
 30
0.0
 40
2.523525999999999
 50
270.02984900000001
 51
277.20339100000001
  0
ARC
  5
69F
  8
_________1
 62
     7
 10
74.20902199999999
 20
34.550139999999999
 30
0.0
 40
3.7675010000000002
 50
276.90481599999998
 51
280.328551
  0
ARC
  5
6A0
  8
_________1
 62
     7
 10
73.835967000000011
 20
36.585850999999998
 30
0.0
 40
5.8371120000000003
 50
280.34840800000001
 51
283.11891300000002
  0
ARC
  5
6A1
  8
_________1
 62
     7
 10
71.148677000000006
 20
48.017032999999998
 30
0.0
 40
17.579908
 50
283.19253500000002
 51
284.40568999999999
  0
LINE
  5
6A2
  8
_________1
 62
     7
 10
75.522300000000001
 20
30.989899999999999
 30
0.0
 11
75.522300000000001
 21
33.615000000000002
 31
0.0
  0
ARC
  5
6A3
  8
_________1
 62
     7
 10
73.897680000000008
 20
28.858226999999999
 30
0.0
 40
5.0266010000000003
 50
71.143039999999999
 51
78.857267000000007
  0
ARC
  5
6A4
  8
_________1
 62
     7
 10
74.316063
 20
30.824763999999998
 30
0.0
 40
3.0164360000000001
 50
79.43576400000002
 51
89.415456000000006
  0
ARC
  5
6A5
  8
_________1
 62
     7
 10
74.347183000000001
 20
30.963526000000002
 30
0.0
 40
2.8775169999999992
 50
90.006897999999993
 51
100.862465
  0
ARC
  5
6A6
  8
_________1
 62
     7
 10
74.595169999999996
 20
29.480307
 30
0.0
 40
4.3810409999999997
 50
100.392011
 51
109.303746
  0
LINE
  5
6A7
  8
_________1
 62
     7
 10
75.522300000000001
 20
30.789999999999999
 30
0.0
 11
75.522300000000001
 21
30.989899999999999
 31
0.0
  0
LINE
  5
6A8
  8
_________1
 62
     7
 10
75.522300000000001
 20
33.615000000000002
 30
0.0
 11
75.522300000000001
 21
33.841000000000001
 31
0.0
  0
LINE
  5
6A9
  8
_________1
 62
     7
 10
70.771500000000003
 20
30.789999999999999
 30
0.0
 11
70.771500000000003
 21
30.989899999999999
 31
0.0
  0
LINE
  5
6AA
  8
_________1
 62
     7
 10
70.771500000000003
 20
33.615000000000002
 30
0.0
 11
70.771500000000003
 21
33.841000000000001
 31
0.0
  0
LINE
  5
6AB
  8
_________1
 62
     7
 10
74.397499999999994
 20
34.0154
 30
0.0
 11
73.146900000000002
 21
34.0154
 31
0.0
  0
LINE
  5
6AC
  8
_________1
 62
     7
 10
73.146900000000002
 20
34.0154
 30
0.0
 11
71.897400000000005
 21
34.0154
 31
0.0
  0
LINE
  5
6AD
  8
_________1
 62
     7
 10
75.522300000000001
 20
30.789999999999999
 30
0.0
 11
75.447199999999995
 21
30.740400000000001
 31
0.0
  0
LINE
  5
6AE
  8
_________1
 62
     7
 10
75.447199999999995
 20
30.740400000000001
 30
0.0
 11
70.846599999999995
 21
30.740400000000001
 31
0.0
  0
LINE
  5
6AF
  8
_________1
 62
     7
 10
70.846599999999995
 20
30.740400000000001
 30
0.0
 11
70.771500000000003
 21
30.789999999999999
 31
0.0
  0
ARC
  5
6B0
  8
_________1
 62
     7
 10
75.503791000000007
 20
33.807256000000002
 30
0.0
 40
0.038529
 50
61.271849000000003
 51
90.109865999999997
  0
ARC
  5
6B1
  8
_________1
 62
     7
 10
75.342004000000003
 20
32.484417000000001
 30
0.0
 40
1.370938999999999
 50
83.225694000000004
 51
88.378034999999997
  0
ARC
  5
6B2
  8
_________1
 62
     7
 10
74.799204000000003
 20
19.097625000000001
 30
0.0
 40
14.768637999999999
 50
87.743041000000005
 51
89.357894999999999
  0
ARC
  5
6B3
  8
_________1
 62
     7
 10
73.862631999999991
 20
-48.183140999999999
 30
0.0
 40
82.055878000000007
 50
89.230439000000004
 51
89.925381000000002
  0
ARC
  5
6B4
  8
_________1
 62
     7
 10
73.281339000000003
 20
-366.00038899999998
 30
0.0
 40
399.873648
 50
89.901390000000006
 51
90.348853000000005
  0
LINE
  5
6B5
  8
_________1
 62
     7
 10
70.846599999999995
 20
33.8658
 30
0.0
 11
70.771500000000003
 21
33.841000000000001
 31
0.0
  0
LINE
  5
6B6
  8
_________1
 62
     7
 10
74.697199999999995
 20
33.8658
 30
0.0
 11
74.697199999999995
 21
33.990600000000001
 31
0.0
  0
LINE
  5
6B7
  8
_________1
 62
     7
 10
74.697199999999995
 20
33.990600000000001
 30
0.0
 11
71.596599999999995
 21
33.990600000000001
 31
0.0
  0
LINE
  5
6B8
  8
_________1
 62
     7
 10
71.596599999999995
 20
33.8658
 30
0.0
 11
71.596599999999995
 21
33.990600000000001
 31
0.0
  0
LINE
  5
6B9
  8
_________1
 62
     7
 10
71.897400000000005
 20
34.0154
 30
0.0
 11
71.521799999999999
 21
34.316499999999998
 31
0.0
  0
LINE
  5
6BA
  8
_________1
 62
     7
 10
71.521799999999999
 20
34.316499999999998
 30
0.0
 11
71.496700000000004
 21
34.816000000000003
 31
0.0
  0
LINE
  5
6BB
  8
_________1
 62
     7
 10
74.798100000000005
 20
34.816000000000003
 30
0.0
 11
74.771999999999991
 21
34.316499999999998
 31
0.0
  0
LINE
  5
6BC
  8
_________1
 62
     7
 10
74.771999999999991
 20
34.316499999999998
 30
0.0
 11
74.397499999999994
 21
34.0154
 31
0.0
  0
LINE
  5
6BD
  8
_________1
 62
     7
 10
74.597300000000004
 20
35.241100000000003
 30
0.0
 11
71.697500000000005
 21
35.241100000000003
 31
0.0
  0
LINE
  5
6BE
  8
_________1
 62
     7
 10
71.697500000000005
 20
35.241100000000003
 30
0.0
 11
71.496700000000004
 21
34.816000000000003
 31
0.0
  0
LINE
  5
6BF
  8
_________1
 62
     7
 10
74.798100000000005
 20
34.816000000000003
 30
0.0
 11
74.597300000000004
 21
35.241100000000003
 31
0.0
  0
LINE
  5
6C0
  8
_________1
 62
     7
 10
74.597300000000004
 20
37.241399999999999
 30
0.0
 11
71.697500000000005
 21
37.241399999999999
 31
0.0
  0
LINE
  5
6C1
  8
_________1
 62
     7
 10
71.084299999999999
 20
23.389900000000001
 30
0.0
 11
71.084299999999999
 21
30.3002
 31
0.0
  0
LINE
  5
6C2
  8
_________1
 62
     7
 10
75.209500000000006
 20
23.389900000000001
 30
0.0
 11
75.209500000000006
 21
30.3002
 31
0.0
  0
LINE
  5
6C3
  8
_________1
 62
     7
 10
71.697500000000005
 20
35.241100000000003
 30
0.0
 11
71.697500000000005
 21
37.241399999999999
 31
0.0
  0
LINE
  5
6C4
  8
_________1
 62
     7
 10
74.597300000000004
 20
35.241100000000003
 30
0.0
 11
74.597300000000004
 21
37.241399999999999
 31
0.0
  0
LINE
  5
6C5
  8
_________1
 62
     7
 10
71.697500000000005
 20
37.241399999999999
 30
0.0
 11
71.521799999999999
 21
37.541800000000002
 31
0.0
  0
LINE
  5
6C6
  8
_________1
 62
     7
 10
74.771999999999991
 20
37.541800000000002
 30
0.0
 11
74.597300000000004
 21
37.241399999999999
 31
0.0
  0
LINE
  5
6C7
  8
_________1
 62
     7
 10
71.521799999999999
 20
37.541800000000002
 30
0.0
 11
71.471500000000006
 21
37.666499999999999
 31
0.0
  0
LINE
  5
6C8
  8
_________1
 62
     7
 10
71.471500000000006
 20
37.666499999999999
 30
0.0
 11
71.471500000000006
 21
37.791200000000011
 31
0.0
  0
ARC
  5
6C9
  8
_________1
 62
     7
 10
74.183677000000003
 20
37.85494400000001
 30
0.0
 40
0.6664439999999999
 50
331.97276799999997
 51
354.51261699999998
  0
LINE
  5
6CA
  8
_________1
 62
     7
 10
74.847099999999983
 20
37.791200000000011
 30
0.0
 11
74.847099999999983
 21
38.491999999999997
 31
0.0
  0
LINE
  5
6CB
  8
_________1
 62
     7
 10
74.847099999999983
 20
38.491999999999997
 30
0.0
 11
71.471500000000006
 21
38.491999999999997
 31
0.0
  0
LINE
  5
6CC
  8
_________1
 62
     7
 10
71.471500000000006
 20
37.791200000000011
 30
0.0
 11
71.471500000000006
 21
38.491999999999997
 31
0.0
  0
LINE
  5
6CD
  8
_________1
 62
     7
 10
70.896900000000002
 20
122.81999999999999
 30
0.0
 11
70.396999999999991
 21
122.81999999999999
 31
0.0
  0
LINE
  5
6CE
  8
_________1
 62
     7
 10
73.146900000000002
 20
124.23399999999999
 30
0.0
 11
68.146999999999991
 21
124.23399999999999
 31
0.0
  0
LINE
  5
6CF
  8
_________1
 62
     7
 10
68.146999999999991
 20
124.23399999999999
 30
0.0
 11
68.146999999999991
 21
122.925
 31
0.0
  0
ARC
  5
6D0
  8
_________1
 62
     7
 10
68.363444000000001
 20
122.962613
 30
0.0
 40
0.219645
 50
189.79943700000001
 51
199.97778099999999
  0
ARC
  5
6D1
  8
_________1
 62
     7
 10
68.605858999999995
 20
123.04228500000001
 30
0.0
 40
0.4747600000000001
 50
199.01894200000001
 51
228.10579000000001
  0
ARC
  5
6D2
  8
_________1
 62
     7
 10
68.736435
 20
123.173688
 30
0.0
 40
0.6598340000000001
 50
227.284987
 51
252.332809
  0
ARC
  5
6D3
  8
_________1
 62
     7
 10
68.881081999999992
 20
123.554108
 30
0.0
 40
1.0664450000000001
 50
251.130751
 51
264.37839100000002
  0
ARC
  5
6D4
  8
_________1
 62
     7
 10
68.947296999999992
 20
124.065473
 30
0.0
 40
1.5819169999999989
 50
263.80597299999999
 51
270.18743599999999
  0
LINE
  5
6D5
  8
_________1
 62
     7
 10
68.952500000000001
 20
122.48399999999999
 30
0.0
 11
73.146900000000002
 21
122.48399999999999
 31
0.0
  0
LINE
  5
6D6
  8
_________1
 62
     7
 10
70.896900000000002
 20
124.23399999999999
 30
0.0
 11
70.896900000000002
 21
122.81999999999999
 31
0.0
  0
ARC
  5
6D7
  8
_________1
 62
     7
 10
71.191051000000002
 20
123.005161
 30
0.0
 40
0.347315
 50
212.11953099999999
 51
220.59112999999999
  0
ARC
  5
6D8
  8
_________1
 62
     7
 10
71.537980000000005
 20
123.28931900000001
 30
0.0
 40
0.795715
 50
219.87472099999999
 51
257.55911500000002
  0
ARC
  5
6D9
  8
_________1
 62
     7
 10
71.606611999999984
 20
123.500225
 30
0.0
 40
1.016683
 50
256.34258799999998
 51
270.38707299999999
  0
LINE
  5
6DA
  8
_________1
 62
     7
 10
70.396999999999991
 20
124.23399999999999
 30
0.0
 11
70.396999999999991
 21
122.81999999999999
 31
0.0
  0
ARC
  5
6DB
  8
_________1
 62
     7
 10
69.494938000000005
 20
124.469948
 30
0.0
 40
1.8800060000000001
 50
295.12714599999998
 51
298.67390699999999
  0
ARC
  5
6DC
  8
_________1
 62
     7
 10
68.776995999999997
 20
125.908367
 30
0.0
 40
3.4873819999999989
 50
285.34819599999997
 51
295.77131700000001
  0
ARC
  5
6DD
  8
_________1
 62
     7
 10
69.221427000000006
 20
124.347407
 30
0.0
 40
1.8645240000000001
 50
271.54916800000001
 51
284.8743740000001
  0
LINE
  5
6DE
  8
_________1
 62
     7
 10
75.396900000000002
 20
122.81999999999999
 30
0.0
 11
75.896799999999999
 21
122.81999999999999
 31
0.0
  0
LINE
  5
6DF
  8
_________1
 62
     7
 10
73.146900000000002
 20
124.23399999999999
 30
0.0
 11
78.146799999999999
 21
124.23399999999999
 31
0.0
  0
LINE
  5
6E0
  8
_________1
 62
     7
 10
78.146799999999999
 20
124.23399999999999
 30
0.0
 11
78.146799999999999
 21
122.925
 31
0.0
  0
ARC
  5
6E1
  8
_________1
 62
     7
 10
77.933658999999992
 20
122.959992
 30
0.0
 40
0.215958
 50
340.405911
 51
350.73674399999999
  0
ARC
  5
6E2
  8
_________1
 62
     7
 10
77.674459999999996
 20
123.04462700000001
 30
0.0
 40
0.4885830000000001
 50
302.61630600000001
 51
341.24910599999998
  0
ARC
  5
6E3
  8
_________1
 62
     7
 10
77.533971999999991
 20
123.22225
 30
0.0
 40
0.714276
 50
288.52263499999998
 51
304.42883799999998
  0
ARC
  5
6E4
  8
_________1
 62
     7
 10
77.417129000000003
 20
123.547945
 30
0.0
 40
1.0602439999999991
 50
275.6166960000001
 51
288.91841799999997
  0
ARC
  5
6E5
  8
_________1
 62
     7
 10
77.350347999999997
 20
124.063011
 30
0.0
 40
1.5794549999999989
 50
269.81044800000001
 51
276.198938
  0
LINE
  5
6E6
  8
_________1
 62
     7
 10
77.345100000000002
 20
122.48399999999999
 30
0.0
 11
73.146900000000002
 21
122.48399999999999
 31
0.0
  0
LINE
  5
6E7
  8
_________1
 62
     7
 10
75.396900000000002
 20
124.23399999999999
 30
0.0
 11
75.396900000000002
 21
122.81999999999999
 31
0.0
  0
ARC
  5
6E8
  8
_________1
 62
     7
 10
75.102753000000007
 20
123.005161
 30
0.0
 40
0.347315
 50
319.40888999999999
 51
327.88048900000001
  0
ARC
  5
6E9
  8
_________1
 62
     7
 10
74.755824000000004
 20
123.28931900000001
 30
0.0
 40
0.795715
 50
282.44090499999999
 51
320.12529899999998
  0
ARC
  5
6EA
  8
_________1
 62
     7
 10
74.68719200000001
 20
123.500225
 30
0.0
 40
1.016683
 50
269.61294700000002
 51
283.65743199999997
  0
LINE
  5
6EB
  8
_________1
 62
     7
 10
75.896799999999999
 20
124.23399999999999
 30
0.0
 11
75.896799999999999
 21
122.81999999999999
 31
0.0
  0
ARC
  5
6EC
  8
_________1
 62
     7
 10
76.884281000000001
 20
124.636014
 30
0.0
 40
2.0666950000000002
 50
241.45757699999999
 51
244.875202
  0
ARC
  5
6ED
  8
_________1
 62
     7
 10
77.514186999999993
 20
125.901343
 30
0.0
 40
3.4799150000000001
 50
244.33087800000001
 51
254.66281499999999
  0
ARC
  5
6EE
  8
_________1
 62
     7
 10
77.072377000000003
 20
124.347407
 30
0.0
 40
1.8645240000000001
 50
255.12564599999999
 51
268.450852
  0
LINE
  5
6EF
  8
_________1
 62
     7
 10
77.021999999999991
 20
122.48399999999999
 30
0.0
 11
77.021999999999991
 21
119.48399999999999
 31
0.0
  0
LINE
  5
6F0
  8
_________1
 62
     7
 10
69.271799999999985
 20
122.48399999999999
 30
0.0
 11
69.271799999999985
 21
119.48399999999999
 31
0.0
  0
LINE
  5
6F1
  8
_________1
 62
     7
 10
77.271699999999996
 20
119.73399999999999
 30
0.0
 11
69.022099999999995
 21
119.73399999999999
 31
0.0
  0
LINE
  5
6F2
  8
_________1
 62
     7
 10
77.271699999999996
 20
119.73399999999999
 30
0.0
 11
77.021999999999991
 21
119.48399999999999
 31
0.0
  0
LINE
  5
6F3
  8
_________1
 62
     7
 10
77.021999999999991
 20
119.48399999999999
 30
0.0
 11
69.271799999999985
 21
119.48399999999999
 31
0.0
  0
LINE
  5
6F4
  8
_________1
 62
     7
 10
69.271799999999985
 20
119.48399999999999
 30
0.0
 11
69.022099999999995
 21
119.73399999999999
 31
0.0
  0
LINE
  5
6F5
  8
_________1
 62
     7
 10
69.022099999999995
 20
119.73399999999999
 30
0.0
 11
69.022099999999995
 21
122.48399999999999
 31
0.0
  0
LINE
  5
6F6
  8
_________1
 62
     7
 10
69.022099999999995
 20
122.48399999999999
 30
0.0
 11
77.271699999999996
 21
122.48399999999999
 31
0.0
  0
LINE
  5
6F7
  8
_________1
 62
     7
 10
77.271699999999996
 20
122.48399999999999
 30
0.0
 11
77.271699999999996
 21
119.73399999999999
 31
0.0
  0
LINE
  5
6F8
  8
_________1
 62
     7
 10
77.021999999999991
 20
133.23400000000001
 30
0.0
 11
77.021999999999991
 21
125.73399999999999
 31
0.0
  0
LINE
  5
6F9
  8
_________1
 62
     7
 10
69.271799999999985
 20
133.23400000000001
 30
0.0
 11
69.271799999999985
 21
125.73399999999999
 31
0.0
  0
LINE
  5
6FA
  8
_________1
 62
     7
 10
77.271699999999996
 20
125.73399999999999
 30
0.0
 11
69.022099999999995
 21
125.73399999999999
 31
0.0
  0
LINE
  5
6FB
  8
_________1
 62
     7
 10
69.022099999999995
 20
125.73399999999999
 30
0.0
 11
69.022099999999995
 21
133.23400000000001
 31
0.0
  0
LINE
  5
6FC
  8
_________1
 62
     7
 10
69.022099999999995
 20
133.23400000000001
 30
0.0
 11
77.271699999999996
 21
133.23400000000001
 31
0.0
  0
LINE
  5
6FD
  8
_________1
 62
     7
 10
77.271699999999996
 20
133.23400000000001
 30
0.0
 11
77.271699999999996
 21
125.73399999999999
 31
0.0
  0
LINE
  5
6FE
  8
_________1
 62
     7
 10
78.646999999999991
 20
124.23399999999999
 30
0.0
 11
67.646799999999999
 21
124.23399999999999
 31
0.0
  0
LINE
  5
6FF
  8
_________1
 62
     7
 10
67.646799999999999
 20
124.23399999999999
 30
0.0
 11
67.646799999999999
 21
124.85899999999999
 31
0.0
  0
LINE
  5
700
  8
_________1
 62
     7
 10
67.646799999999999
 20
124.85899999999999
 30
0.0
 11
78.646999999999991
 21
124.85899999999999
 31
0.0
  0
LINE
  5
701
  8
_________1
 62
     7
 10
78.646999999999991
 20
124.85899999999999
 30
0.0
 11
78.646999999999991
 21
124.23399999999999
 31
0.0
  0
LINE
  5
702
  8
_________1
 62
     7
 10
79.146900000000002
 20
124.85899999999999
 30
0.0
 11
67.146900000000002
 21
124.85899999999999
 31
0.0
  0
LINE
  5
703
  8
_________1
 62
     7
 10
67.146900000000002
 20
124.85899999999999
 30
0.0
 11
67.146900000000002
 21
125.233
 31
0.0
  0
LINE
  5
704
  8
_________1
 62
     7
 10
67.146900000000002
 20
125.233
 30
0.0
 11
79.146900000000002
 21
125.233
 31
0.0
  0
LINE
  5
705
  8
_________1
 62
     7
 10
79.146900000000002
 20
125.233
 30
0.0
 11
79.146900000000002
 21
124.85899999999999
 31
0.0
  0
LINE
  5
706
  8
_________1
 62
     7
 10
79.146900000000002
 20
125.233
 30
0.0
 11
67.146900000000002
 21
125.233
 31
0.0
  0
LINE
  5
707
  8
_________1
 62
     7
 10
67.146900000000002
 20
125.233
 30
0.0
 11
67.146900000000002
 21
125.73399999999999
 31
0.0
  0
LINE
  5
708
  8
_________1
 62
     7
 10
67.146900000000002
 20
125.73399999999999
 30
0.0
 11
79.146900000000002
 21
125.73399999999999
 31
0.0
  0
LINE
  5
709
  8
_________1
 62
     7
 10
79.146900000000002
 20
125.73399999999999
 30
0.0
 11
79.146900000000002
 21
125.233
 31
0.0
  0
LINE
  5
70A
  8
_________1
 62
     7
 10
71.834699999999984
 20
38.491999999999997
 30
0.0
 11
71.834699999999984
 21
119.48399999999999
 31
0.0
  0
LINE
  5
70B
  8
_________1
 62
     7
 10
74.459500000000006
 20
38.491999999999997
 30
0.0
 11
74.459500000000006
 21
119.48399999999999
 31
0.0
  0
LINE
  5
70C
  8
_________1
 62
     7
 10
91.561400000000006
 20
209.023
 30
0.0
 11
90.968800000000002
 21
211.23400000000001
 31
0.0
  0
LINE
  5
70D
  8
_________1
 62
     7
 10
90.968800000000002
 20
211.23400000000001
 30
0.0
 11
90.376300000000001
 21
209.023
 31
0.0
  0
LINE
  5
70E
  8
_________1
 62
     7
 10
90.376300000000001
 20
209.023
 30
0.0
 11
91.561400000000006
 21
209.023
 31
0.0
  0
LINE
  5
70F
  8
_________1
 62
     7
 10
14.5482
 20
213.273
 30
0.0
 11
13.9557
 21
215.48400000000001
 31
0.0
  0
LINE
  5
710
  8
_________1
 62
     7
 10
13.9557
 20
215.48400000000001
 30
0.0
 11
13.363099999999999
 21
213.273
 31
0.0
  0
LINE
  5
711
  8
_________1
 62
     7
 10
13.363099999999999
 20
213.273
 30
0.0
 11
14.5482
 21
213.273
 31
0.0
  0
LINE
  5
712
  8
_________1
 62
     7
 10
20.335999999999999
 20
191.523
 30
0.0
 11
19.743500000000001
 21
193.73400000000001
 31
0.0
  0
LINE
  5
713
  8
_________1
 62
     7
 10
19.743500000000001
 20
193.73400000000001
 30
0.0
 11
19.1509
 21
191.523
 31
0.0
  0
LINE
  5
714
  8
_________1
 62
     7
 10
19.1509
 20
191.523
 30
0.0
 11
20.335999999999999
 21
191.523
 31
0.0
  0
LINE
  5
715
  8
_________1
 62
     7
 10
26.124199999999998
 20
131.023
 30
0.0
 11
25.531600000000001
 21
133.23400000000001
 31
0.0
  0
LINE
  5
716
  8
_________1
 62
     7
 10
25.531600000000001
 20
133.23400000000001
 30
0.0
 11
24.939
 21
131.023
 31
0.0
  0
LINE
  5
717
  8
_________1
 62
     7
 10
24.939
 20
131.023
 30
0.0
 11
26.124199999999998
 21
131.023
 31
0.0
  0
LINE
  5
718
  8
_________1
 62
     7
 10
24.953499999999998
 20
32.943899999999999
 30
0.0
 11
25.546099999999999
 21
30.732900000000001
 31
0.0
  0
LINE
  5
719
  8
_________1
 62
     7
 10
25.546099999999999
 20
30.732900000000001
 30
0.0
 11
26.1386
 21
32.943899999999999
 31
0.0
  0
LINE
  5
71A
  8
_________1
 62
     7
 10
26.1386
 20
32.943899999999999
 30
0.0
 11
24.953499999999998
 21
32.943899999999999
 31
0.0
  0
LINE
  5
71B
  8
_________1
 62
     7
 10
25.531600000000001
 20
133.23400000000001
 30
0.0
 11
25.531600000000001
 21
30.732900000000001
 31
0.0
  0
LINE
  5
71C
  8
_________1
 62
     7
 10
69.434799999999996
 20
30.732900000000001
 30
0.0
 11
24.846
 21
30.732900000000001
 31
0.0
  0
INSERT
  5
71D
  8
_________1
 62
     7
  2
AIGNBL020100AF
 10
0.0
 20
0.0
 30
0.0
  0
LINE
  5
71E
  8
_________1
 62
     7
 10
66.563299999999998
 20
125.73399999999999
 30
0.0
 11
60.761000000000003
 21
125.73399999999999
 31
0.0
  0
INSERT
  5
71F
  8
_________1
 62
     7
  2
AIGNBL020100B0
 10
0.0
 20
0.0
 30
0.0
  0
LINE
  5
720
  8
_________1
 62
     7
 10
-29.947199999999999
 20
122.81999999999999
 30
0.0
 11
-30.447099999999999
 21
122.81999999999999
 31
0.0
  0
LINE
  5
721
  8
_________1
 62
     7
 10
-27.697199999999999
 20
124.23399999999999
 30
0.0
 11
-32.697099999999999
 21
124.23399999999999
 31
0.0
  0
LINE
  5
722
  8
_________1
 62
     7
 10
-32.697099999999999
 20
124.23399999999999
 30
0.0
 11
-32.697099999999999
 21
122.925
 31
0.0
  0
ARC
  5
723
  8
_________1
 62
     7
 10
-32.480310000000003
 20
122.96267400000001
 30
0.0
 40
0.219992
 50
189.80001100000001
 51
199.96190799999999
  0
ARC
  5
724
  8
_________1
 62
     7
 10
-32.238005999999999
 20
123.042449
 30
0.0
 40
0.475036
 50
199.028459
 51
228.09842900000001
  0
ARC
  5
725
  8
_________1
 62
     7
 10
-32.107660000000003
 20
123.173688
 30
0.0
 40
0.6598340000000001
 50
227.284987
 51
252.332809
  0
ARC
  5
726
  8
_________1
 62
     7
 10
-31.963013
 20
123.554108
 30
0.0
 40
1.0664450000000001
 50
251.130751
 51
264.37839100000002
  0
ARC
  5
727
  8
_________1
 62
     7
 10
-31.896811
 20
124.065207
 30
0.0
 40
1.5816499999999989
 50
263.80543499999999
 51
270.187973
  0
LINE
  5
728
  8
_________1
 62
     7
 10
-31.8916
 20
122.48399999999999
 30
0.0
 11
-27.697199999999999
 21
122.48399999999999
 31
0.0
  0
LINE
  5
729
  8
_________1
 62
     7
 10
-29.947199999999999
 20
124.23399999999999
 30
0.0
 11
-29.947199999999999
 21
122.81999999999999
 31
0.0
  0
ARC
  5
72A
  8
_________1
 62
     7
 10
-29.658263000000002
 20
123.001318
 30
0.0
 40
0.340851
 50
212.03905399999999
 51
220.67160699999999
  0
ARC
  5
72B
  8
_________1
 62
     7
 10
-29.306235000000001
 20
123.28912099999999
 30
0.0
 40
0.795496
 50
219.86934600000001
 51
257.56448999999998
  0
ARC
  5
72C
  8
_________1
 62
     7
 10
-29.237482
 20
123.500225
 30
0.0
 40
1.016683
 50
256.34258799999998
 51
270.38707299999999
  0
LINE
  5
72D
  8
_________1
 62
     7
 10
-30.447099999999999
 20
124.23399999999999
 30
0.0
 11
-30.447099999999999
 21
122.81999999999999
 31
0.0
  0
ARC
  5
72E
  8
_________1
 62
     7
 10
-31.372883000000002
 20
124.516715
 30
0.0
 40
1.9324220000000001
 50
295.17526299999997
 51
298.62578999999999
  0
ARC
  5
72F
  8
_________1
 62
     7
 10
-32.067055000000003
 20
125.90827400000001
 30
0.0
 40
3.4872800000000002
 50
285.34782899999999
 51
295.771342
  0
ARC
  5
730
  8
_________1
 62
     7
 10
-31.622637000000001
 20
124.347156
 30
0.0
 40
1.8642719999999999
 50
271.54844700000001
 51
284.87529799999999
  0
LINE
  5
731
  8
_________1
 62
     7
 10
-25.447199999999999
 20
122.81999999999999
 30
0.0
 11
-24.947299999999998
 21
122.81999999999999
 31
0.0
  0
LINE
  5
732
  8
_________1
 62
     7
 10
-27.697199999999999
 20
124.23399999999999
 30
0.0
 11
-22.697299999999998
 21
124.23399999999999
 31
0.0
  0
LINE
  5
733
  8
_________1
 62
     7
 10
-22.697299999999998
 20
124.23399999999999
 30
0.0
 11
-22.697299999999998
 21
122.925
 31
0.0
  0
ARC
  5
734
  8
_________1
 62
     7
 10
-22.915174
 20
122.96121100000001
 30
0.0
 40
0.220831
 50
340.52020199999998
 51
350.62245300000001
  0
ARC
  5
735
  8
_________1
 62
     7
 10
-23.169620999999999
 20
123.044622
 30
0.0
 40
0.488569
 50
302.61476699999997
 51
341.24914200000001
  0
ARC
  5
736
  8
_________1
 62
     7
 10
-23.310158000000001
 20
123.22229799999999
 30
0.0
 40
0.714333
 50
288.52416699999998
 51
304.428697
  0
ARC
  5
737
  8
_________1
 62
     7
 10
-23.427029000000001
 20
123.548237
 30
0.0
 40
1.06054
 50
275.61856599999999
 51
288.91654799999998
  0
ARC
  5
738
  8
_________1
 62
     7
 10
-23.493746999999999
 20
124.063011
 30
0.0
 40
1.5794549999999989
 50
269.81044800000001
 51
276.198938
  0
LINE
  5
739
  8
_________1
 62
     7
 10
-23.498999999999999
 20
122.48399999999999
 30
0.0
 11
-27.697199999999999
 21
122.48399999999999
 31
0.0
  0
LINE
  5
73A
  8
_________1
 62
     7
 10
-25.447199999999999
 20
124.23399999999999
 30
0.0
 11
-25.447199999999999
 21
122.81999999999999
 31
0.0
  0
ARC
  5
73B
  8
_________1
 62
     7
 10
-25.741342
 20
123.005161
 30
0.0
 40
0.347315
 50
319.40888999999999
 51
327.88048900000001
  0
ARC
  5
73C
  8
_________1
 62
     7
 10
-26.088270000000001
 20
123.28931900000001
 30
0.0
 40
0.795715
 50
282.44090499999999
 51
320.12529899999998
  0
ARC
  5
73D
  8
_________1
 62
     7
 10
-26.156903
 20
123.500225
 30
0.0
 40
1.016683
 50
269.61294700000002
 51
283.65743199999997
  0
LINE
  5
73E
  8
_________1
 62
     7
 10
-24.947299999999998
 20
124.23399999999999
 30
0.0
 11
-24.947299999999998
 21
122.81999999999999
 31
0.0
  0
ARC
  5
73F
  8
_________1
 62
     7
 10
-23.959813
 20
124.636014
 30
0.0
 40
2.0666950000000002
 50
241.45757699999999
 51
244.875202
  0
ARC
  5
740
  8
_________1
 62
     7
 10
-23.329906999999999
 20
125.901343
 30
0.0
 40
3.4799150000000001
 50
244.33087800000001
 51
254.66281499999999
  0
ARC
  5
741
  8
_________1
 62
     7
 10
-23.771754999999999
 20
124.347149
 30
0.0
 40
1.864264999999999
 50
255.124717
 51
268.45178099999998
  0
LINE
  5
742
  8
_________1
 62
     7
 10
-23.822099999999999
 20
122.48399999999999
 30
0.0
 11
-23.822099999999999
 21
119.48399999999999
 31
0.0
  0
LINE
  5
743
  8
_________1
 62
     7
 10
-31.572299999999998
 20
122.48399999999999
 30
0.0
 11
-31.572299999999998
 21
119.48399999999999
 31
0.0
  0
LINE
  5
744
  8
_________1
 62
     7
 10
-23.572399999999998
 20
119.73399999999999
 30
0.0
 11
-31.821999999999999
 21
119.73399999999999
 31
0.0
  0
LINE
  5
745
  8
_________1
 62
     7
 10
-23.572399999999998
 20
119.73399999999999
 30
0.0
 11
-23.822099999999999
 21
119.48399999999999
 31
0.0
  0
LINE
  5
746
  8
_________1
 62
     7
 10
-23.822099999999999
 20
119.48399999999999
 30
0.0
 11
-31.572299999999998
 21
119.48399999999999
 31
0.0
  0
LINE
  5
747
  8
_________1
 62
     7
 10
-31.572299999999998
 20
119.48399999999999
 30
0.0
 11
-31.821999999999999
 21
119.73399999999999
 31
0.0
  0
LINE
  5
748
  8
_________1
 62
     7
 10
-31.821999999999999
 20
119.73399999999999
 30
0.0
 11
-31.821999999999999
 21
122.48399999999999
 31
0.0
  0
LINE
  5
749
  8
_________1
 62
     7
 10
-31.821999999999999
 20
122.48399999999999
 30
0.0
 11
-23.572399999999998
 21
122.48399999999999
 31
0.0
  0
LINE
  5
74A
  8
_________1
 62
     7
 10
-23.572399999999998
 20
122.48399999999999
 30
0.0
 11
-23.572399999999998
 21
119.73399999999999
 31
0.0
  0
LINE
  5
74B
  8
_________1
 62
     7
 10
-23.822099999999999
 20
133.23400000000001
 30
0.0
 11
-23.822099999999999
 21
125.73399999999999
 31
0.0
  0
LINE
  5
74C
  8
_________1
 62
     7
 10
-31.572299999999998
 20
133.23400000000001
 30
0.0
 11
-31.572299999999998
 21
125.73399999999999
 31
0.0
  0
LINE
  5
74D
  8
_________1
 62
     7
 10
-23.572399999999998
 20
133.23400000000001
 30
0.0
 11
-23.572399999999998
 21
125.73399999999999
 31
0.0
  0
LINE
  5
74E
  8
_________1
 62
     7
 10
-23.572399999999998
 20
125.73399999999999
 30
0.0
 11
-31.821999999999999
 21
125.73399999999999
 31
0.0
  0
LINE
  5
74F
  8
_________1
 62
     7
 10
-31.821999999999999
 20
125.73399999999999
 30
0.0
 11
-31.821999999999999
 21
133.23400000000001
 31
0.0
  0
LINE
  5
750
  8
_________1
 62
     7
 10
-22.197099999999999
 20
124.23399999999999
 30
0.0
 11
-33.197299999999998
 21
124.23399999999999
 31
0.0
  0
LINE
  5
751
  8
_________1
 62
     7
 10
-33.197299999999998
 20
124.23399999999999
 30
0.0
 11
-33.197299999999998
 21
124.85899999999999
 31
0.0
  0
LINE
  5
752
  8
_________1
 62
     7
 10
-33.197299999999998
 20
124.85899999999999
 30
0.0
 11
-22.197099999999999
 21
124.85899999999999
 31
0.0
  0
LINE
  5
753
  8
_________1
 62
     7
 10
-22.197099999999999
 20
124.85899999999999
 30
0.0
 11
-22.197099999999999
 21
124.23399999999999
 31
0.0
  0
LINE
  5
754
  8
_________1
 62
     7
 10
-21.697199999999999
 20
124.85899999999999
 30
0.0
 11
-33.697200000000002
 21
124.85899999999999
 31
0.0
  0
LINE
  5
755
  8
_________1
 62
     7
 10
-33.697200000000002
 20
124.85899999999999
 30
0.0
 11
-33.697200000000002
 21
125.233
 31
0.0
  0
LINE
  5
756
  8
_________1
 62
     7
 10
-33.697200000000002
 20
125.233
 30
0.0
 11
-21.697199999999999
 21
125.233
 31
0.0
  0
LINE
  5
757
  8
_________1
 62
     7
 10
-21.697199999999999
 20
125.233
 30
0.0
 11
-21.697199999999999
 21
124.85899999999999
 31
0.0
  0
LINE
  5
758
  8
_________1
 62
     7
 10
-21.697199999999999
 20
125.233
 30
0.0
 11
-33.697200000000002
 21
125.233
 31
0.0
  0
LINE
  5
759
  8
_________1
 62
     7
 10
-33.697200000000002
 20
125.233
 30
0.0
 11
-33.697200000000002
 21
125.73399999999999
 31
0.0
  0
LINE
  5
75A
  8
_________1
 62
     7
 10
-33.697200000000002
 20
125.73399999999999
 30
0.0
 11
-21.697199999999999
 21
125.73399999999999
 31
0.0
  0
LINE
  5
75B
  8
_________1
 62
     7
 10
-21.697199999999999
 20
125.73399999999999
 30
0.0
 11
-21.697199999999999
 21
125.233
 31
0.0
  0
LINE
  5
75C
  8
_________1
 62
     7
 10
-24.822600000000001
 20
78.399799999999999
 30
0.0
 11
-24.822600000000001
 21
119.48399999999999
 31
0.0
  0
LINE
  5
75D
  8
_________1
 62
     7
 10
-27.447399999999998
 20
78.399799999999999
 30
0.0
 11
-27.447399999999998
 21
119.48399999999999
 31
0.0
  0
LINE
  5
75E
  8
_________1
  6
AIGENLINE002
 62
     7
 10
-26.134799999999998
 20
73.823400000000007
 30
0.0
 11
-26.134799999999998
 21
135.696
 31
0.0
  0
LINE
  5
75F
  8
_________1
  6
AIGENLINE002
 62
     7
 10
-26.134799999999998
 20
73.823400000000007
 30
0.0
 11
-14.253
 21
91.091000000000008
 31
0.0
  0
LINE
  5
760
  8
_________1
 62
     7
 10
-12.9404
 20
38.491999999999997
 30
0.0
 11
-12.9404
 21
87.0822
 31
0.0
  0
LINE
  5
761
  8
_________1
 62
     7
 10
-15.5656
 20
87.0822
 30
0.0
 11
-15.5656
 21
38.491999999999997
 31
0.0
  0
LINE
  5
762
  8
_________1
  6
AIGENLINE002
 62
     7
 10
-14.253
 20
91.091000000000008
 30
0.0
 11
-14.253
 21
29.527799999999999
 31
0.0
  0
LINE
  5
763
  8
_________1
 62
     7
 10
-11.499599999999999
 20
33.615699999999997
 30
0.0
 11
-11.499599999999999
 21
30.989899999999999
 31
0.0
  0
LINE
  5
764
  8
_________1
 62
     7
 10
-12.875299999999999
 20
33.615699999999997
 30
0.0
 11
-12.875299999999999
 21
30.989899999999999
 31
0.0
  0
ARC
  5
765
  8
_________1
 62
     7
 10
-15.08201
 20
39.332889999999999
 30
0.0
 40
9.0796229999999998
 50
291.69347099999999
 51
293.23802999999998
  0
ARC
  5
766
  8
_________1
 62
     7
 10
-12.413205
 20
32.662337999999998
 30
0.0
 40
1.895068
 50
281.78519599999998
 51
291.26780300000001
  0
ARC
  5
767
  8
_________1
 62
     7
 10
-12.207516999999999
 20
31.754629000000001
 30
0.0
 40
0.9646139999999999
 50
270.46569699999998
 51
280.83723800000001
  0
ARC
  5
768
  8
_________1
 62
     7
 10
-12.198598
 20
31.704629000000001
 30
0.0
 40
0.914583
 50
257.58951500000001
 51
269.93242700000002
  0
ARC
  5
769
  8
_________1
 62
     7
 10
-12.076625999999999
 20
32.321215000000002
 30
0.0
 40
1.543032
 50
247.18136200000001
 51
258.086771
  0
ARC
  5
76A
  8
_________1
 62
     7
 10
-11.616255000000001
 20
33.496583000000001
 30
0.0
 40
2.805127999999999
 50
243.33175299999999
 51
247.82447099999999
  0
ARC
  5
76B
  8
_________1
 62
     7
 10
-12.120358
 20
32.500473999999997
 30
0.0
 40
1.346730999999999
 50
97.366204999999994
 51
124.093655
  0
ARC
  5
76C
  8
_________1
 62
     7
 10
-12.198573
 20
32.938009999999998
 30
0.0
 40
0.9030329999999999
 50
90.070059000000015
 51
96.003703999999999
  0
ARC
  5
76D
  8
_________1
 62
     7
 10
-12.199574
 20
32.930382000000002
 30
0.0
 40
0.91066
 50
77.756203999999997
 51
90.006457999999995
  0
ARC
  5
76E
  8
_________1
 62
     7
 10
-12.291904000000001
 20
32.451383999999997
 30
0.0
 40
1.39839
 50
66.609766000000008
 51
78.221337000000005
  0
ARC
  5
76F
  8
_________1
 62
     7
 10
-12.521089999999999
 20
31.878025999999998
 30
0.0
 40
2.0156900000000002
 50
59.552059999999997
 51
67.100557999999992
  0
LINE
  5
770
  8
_________1
 62
     7
 10
-17.0001
 20
33.615699999999997
 30
0.0
 11
-17.0001
 21
30.989899999999999
 31
0.0
  0
LINE
  5
771
  8
_________1
 62
     7
 10
-15.625500000000001
 20
33.615699999999997
 30
0.0
 11
-15.625500000000001
 21
30.989899999999999
 31
0.0
  0
ARC
  5
772
  8
_________1
 62
     7
 10
-18.943946
 20
38.705228000000012
 30
0.0
 40
8.3987449999999981
 50
291.603746
 51
293.27296100000001
  0
ARC
  5
773
  8
_________1
 62
     7
 10
-16.579364999999999
 20
32.76576
 30
0.0
 40
2.0059399999999998
 50
282.220686
 51
291.27096399999999
  0
ARC
  5
774
  8
_________1
 62
     7
 10
-16.310881999999999
 20
31.594407
 30
0.0
 40
0.8044279999999998
 50
270.74658299999999
 51
281.19141400000001
  0
ARC
  5
775
  8
_________1
 62
     7
 10
-16.299592000000001
 20
31.695599000000001
 30
0.0
 40
0.9055530000000001
 50
257.79862100000003
 51
269.94890800000002
  0
ARC
  5
776
  8
_________1
 62
     7
 10
-16.200354000000001
 20
32.229686999999998
 30
0.0
 40
1.448637
 50
252.9329109999999
 51
258.42680100000001
  0
ARC
  5
777
  8
_________1
 62
     7
 10
-15.952445000000001
 20
33.034283000000002
 30
0.0
 40
2.290559
 50
248.53388899999999
 51
252.911665
  0
ARC
  5
778
  8
_________1
 62
     7
 10
-14.482917
 20
36.736680999999997
 30
0.0
 40
6.2739250000000002
 50
246.34591800000001
 51
248.417933
  0
ARC
  5
779
  8
_________1
 62
     7
 10
-15.997700999999999
 20
31.901865000000001
 30
0.0
 40
1.9854839999999989
 50
107.887558
 51
120.322399
  0
ARC
  5
77A
  8
_________1
 62
     7
 10
-16.2758
 20
32.714429000000003
 30
0.0
 40
1.1268819999999991
 50
91.250872000000015
 51
107.120964
  0
ARC
  5
77B
  8
_________1
 62
     7
 10
-16.30112699999999
 20
33.072679000000001
 30
0.0
 40
0.768363
 50
76.154964000000007
 51
89.945821999999993
  0
ARC
  5
77C
  8
_________1
 62
     7
 10
-16.444053
 20
32.397483000000001
 30
0.0
 40
1.458323
 50
65.831039000000004
 51
77.050696000000002
  0
ARC
  5
77D
  8
_________1
 62
     7
 10
-16.688631000000001
 20
31.792598000000002
 30
0.0
 40
2.110465
 50
59.752110999999999
 51
66.496694999999988
  0
ARC
  5
77E
  8
_________1
 62
     7
 10
-11.557218000000001
 20
24.394203999999998
 30
0.0
 40
6.7260660000000003
 50
101.300856
 51
103.201297
  0
ARC
  5
77F
  8
_________1
 62
     7
 10
-14.576774
 20
36.577373999999999
 30
0.0
 40
5.826859999999999
 50
278.61355800000001
 51
284.74973599999998
  0
ARC
  5
780
  8
_________1
 62
     7
 10
-14.050378
 20
33.0809
 30
0.0
 40
2.290988
 50
270.61997600000001
 51
278.69372800000002
  0
LINE
  5
781
  8
_________1
 62
     7
 10
-14.025600000000001
 20
30.789999999999999
 30
0.0
 11
-14.4748
 21
30.789999999999999
 31
0.0
  0
ARC
  5
782
  8
_________1
 62
     7
 10
-14.473281
 20
32.767485999999998
 30
0.0
 40
1.977439999999999
 50
261.57515799999999
 51
269.95506899999998
  0
ARC
  5
783
  8
_________1
 62
     7
 10
-14.260267000000001
 20
34.407753999999997
 30
0.0
 40
3.6313379999999991
 50
258.55536000000001
 51
262.04225500000001
  0
ARC
  5
784
  8
_________1
 62
     7
 10
-12.838532000000001
 20
41.311629999999987
 30
0.0
 40
10.680071
 50
256.54137400000002
 51
258.42880000000002
  0
ARC
  5
785
  8
_________1
 62
     7
 10
-16.743213000000001
 20
25.079965000000001
 30
0.0
 40
6.0146639999999989
 50
76.354271999999995
 51
79.290402999999998
  0
ARC
  5
786
  8
_________1
 62
     7
 10
-14.385225999999999
 20
29.960346000000001
 30
0.0
 40
3.8600690000000002
 50
102.80932900000001
 51
108.742109
  0
ARC
  5
787
  8
_________1
 62
     7
 10
-14.144442
 20
29.094550000000002
 30
0.0
 40
4.7578949999999987
 50
94.332815999999994
 51
103.325208
  0
ARC
  5
788
  8
_________1
 62
     7
 10
-14.357279999999999
 20
31.55565300000001
 30
0.0
 40
2.287895999999999
 50
87.317677000000003
 51
93.674328000000017
  0
ARC
  5
789
  8
_________1
 62
     7
 10
-14.166952999999999
 20
32.425214000000011
 30
0.0
 40
1.418274
 50
88.960406000000006
 51
93.365382999999994
  0
ARC
  5
78A
  8
_________1
 62
     7
 10
-14.180615
 20
31.268346999999999
 30
0.0
 40
2.5752090000000001
 50
85.185453999999993
 51
89.123485000000002
  0
ARC
  5
78B
  8
_________1
 62
     7
 10
-14.377894
 20
28.954599000000002
 30
0.0
 40
4.8973509999999996
 50
72.132006000000004
 51
85.157514000000006
  0
LINE
  5
78C
  8
_________1
 62
     7
 10
-13.0
 20
34.0167
 30
0.0
 11
-14.2502
 21
34.0167
 31
0.0
  0
LINE
  5
78D
  8
_________1
 62
     7
 10
-15.5001
 20
34.0167
 30
0.0
 11
-14.2502
 21
34.0167
 31
0.0
  0
LINE
  5
78E
  8
_________1
 62
     7
 10
-16.550899999999999
 20
30.740400000000001
 30
0.0
 11
-14.2502
 21
30.740400000000001
 31
0.0
  0
LINE
  5
78F
  8
_________1
 62
     7
 10
-14.2502
 20
30.740400000000001
 30
0.0
 11
-11.9496
 21
30.740400000000001
 31
0.0
  0
LINE
  5
790
  8
_________1
 62
     7
 10
-11.6495
 20
30.940300000000001
 30
0.0
 11
-11.9496
 21
30.7652
 31
0.0
  0
LINE
  5
791
  8
_________1
 62
     7
 10
-11.9496
 20
30.7652
 30
0.0
 11
-11.9496
 21
30.740400000000001
 31
0.0
  0
LINE
  5
792
  8
_________1
 62
     7
 10
-11.499599999999999
 20
30.989899999999999
 30
0.0
 11
-11.9496
 21
30.7652
 31
0.0
  0
LINE
  5
793
  8
_________1
 62
     7
 10
-17.0001
 20
30.989899999999999
 30
0.0
 11
-16.550899999999999
 21
30.740400000000001
 31
0.0
  0
LINE
  5
794
  8
_________1
 62
     7
 10
-16.550899999999999
 20
33.8658
 30
0.0
 11
-11.9496
 21
33.8658
 31
0.0
  0
LINE
  5
795
  8
_________1
 62
     7
 10
-15.8005
 20
33.990600000000001
 30
0.0
 11
-12.6999
 21
33.990600000000001
 31
0.0
  0
ARC
  5
796
  8
_________1
 62
     7
 10
-13.253247
 20
34.689439
 30
0.0
 40
0.718794
 50
290.63132100000001
 51
326.46634799999998
  0
ARC
  5
797
  8
_________1
 62
     7
 10
-13.082157
 20
34.549696999999988
 30
0.0
 40
0.499466
 50
328.98734400000001
 51
341.45999799999998
  0
LINE
  5
798
  8
_________1
 62
     7
 10
-12.608599999999999
 20
34.390900000000002
 30
0.0
 11
-12.575200000000001
 21
34.4908
 31
0.0
  0
LINE
  5
799
  8
_________1
 62
     7
 10
-12.575200000000001
 20
34.4908
 30
0.0
 11
-12.575200000000001
 21
34.640999999999998
 31
0.0
  0
LINE
  5
79A
  8
_________1
 62
     7
 10
-12.575200000000001
 20
34.640999999999998
 30
0.0
 11
-12.6248
 21
34.816000000000003
 31
0.0
  0
LINE
  5
79B
  8
_________1
 62
     7
 10
-15.900399999999999
 20
34.816000000000003
 30
0.0
 11
-15.8756
 21
34.816000000000003
 31
0.0
  0
ARC
  5
79C
  8
_________1
 62
     7
 10
91.287914000000001
 20
19.534699
 30
0.0
 40
108.272147
 50
171.88628
 51
171.97981899999999
  0
LINE
  5
79D
  8
_________1
 62
     7
 10
-15.9252
 20
34.640999999999998
 30
0.0
 11
-15.9252
 21
34.4908
 31
0.0
  0
LINE
  5
79E
  8
_________1
 62
     7
 10
-15.9252
 20
34.4908
 30
0.0
 11
-15.892799999999999
 21
34.390900000000002
 31
0.0
  0
ARC
  5
79F
  8
_________1
 62
     7
 10
-14.822336999999999
 20
34.749267000000003
 30
0.0
 40
1.1289029999999991
 50
198.50954899999991
 51
203.280889
  0
ARC
  5
7A0
  8
_________1
 62
     7
 10
-15.421260999999999
 20
34.490637999999997
 30
0.0
 40
0.476525
 50
203.178259
 51
222.312816
  0
ARC
  5
7A1
  8
_________1
 62
     7
 10
-15.490575
 20
34.446238000000001
 30
0.0
 40
0.395621
 50
224.31582900000001
 51
234.70482899999999
  0
ARC
  5
7A2
  8
_________1
 62
     7
 10
-15.297942000000001
 20
34.724103999999997
 30
0.0
 40
0.73372
 50
234.964393
 51
242.390061
  0
ARC
  5
7A3
  8
_________1
 62
     7
 10
-13.519142
 20
38.122779999999999
 30
0.0
 40
4.5697499999999991
 50
242.37601900000001
 51
243.96491399999999
  0
LINE
  5
7A4
  8
_________1
 62
     7
 10
-15.524900000000001
 20
34.0167
 30
0.0
 11
-15.5001
 21
34.0167
 31
0.0
  0
LINE
  5
7A5
  8
_________1
 62
     7
 10
-15.7003
 20
35.241100000000003
 30
0.0
 11
-12.8246
 21
35.241100000000003
 31
0.0
  0
LINE
  5
7A6
  8
_________1
 62
     7
 10
-15.7003
 20
37.241399999999999
 30
0.0
 11
-14.2502
 21
37.241399999999999
 31
0.0
  0
LINE
  5
7A7
  8
_________1
 62
     7
 10
-14.2502
 20
37.241399999999999
 30
0.0
 11
-12.8246
 21
37.241399999999999
 31
0.0
  0
LINE
  5
7A8
  8
_________1
 62
     7
 10
-12.575200000000001
 20
37.791200000000011
 30
0.0
 11
-12.575200000000001
 21
37.666499999999999
 31
0.0
  0
LINE
  5
7A9
  8
_________1
 62
     7
 10
-12.575200000000001
 20
37.666499999999999
 30
0.0
 11
-12.65
 21
37.5411
 31
0.0
  0
LINE
  5
7AA
  8
_________1
 62
     7
 10
-15.9504
 20
37.791200000000011
 30
0.0
 11
-15.9252
 21
37.666499999999999
 31
0.0
  0
LINE
  5
7AB
  8
_________1
 62
     7
 10
-15.9252
 20
37.666499999999999
 30
0.0
 11
-15.8756
 21
37.5411
 31
0.0
  0
LINE
  5
7AC
  8
_________1
 62
     7
 10
-15.9504
 20
38.491999999999997
 30
0.0
 11
-12.575200000000001
 21
38.491999999999997
 31
0.0
  0
LINE
  5
7AD
  8
_________1
 62
     7
 10
-15.9504
 20
38.491999999999997
 30
0.0
 11
-15.9504
 21
37.791200000000011
 31
0.0
  0
LINE
  5
7AE
  8
_________1
 62
     7
 10
-12.575200000000001
 20
38.491999999999997
 30
0.0
 11
-12.575200000000001
 21
37.791200000000011
 31
0.0
  0
LINE
  5
7AF
  8
_________1
 62
     7
 10
-11.9496
 20
33.8658
 30
0.0
 11
-11.499599999999999
 21
33.615699999999997
 31
0.0
  0
LINE
  5
7B0
  8
_________1
 62
     7
 10
-16.550899999999999
 20
33.8658
 30
0.0
 11
-17.0001
 21
33.615699999999997
 31
0.0
  0
LINE
  5
7B1
  8
_________1
 62
     7
 10
-15.8756
 20
37.5411
 30
0.0
 11
-15.7003
 21
37.241399999999999
 31
0.0
  0
LINE
  5
7B2
  8
_________1
 62
     7
 10
-15.7003
 20
35.241100000000003
 30
0.0
 11
-15.8756
 21
34.816000000000003
 31
0.0
  0
LINE
  5
7B3
  8
_________1
 62
     7
 10
-12.65
 20
37.5411
 30
0.0
 11
-12.8246
 21
37.241399999999999
 31
0.0
  0
LINE
  5
7B4
  8
_________1
 62
     7
 10
-12.8246
 20
35.241100000000003
 30
0.0
 11
-12.6248
 21
34.816000000000003
 31
0.0
  0
LINE
  5
7B5
  8
_________1
 62
     7
 10
-15.7003
 20
37.241399999999999
 30
0.0
 11
-15.7003
 21
35.241100000000003
 31
0.0
  0
LINE
  5
7B6
  8
_________1
 62
     7
 10
-12.8246
 20
37.241399999999999
 30
0.0
 11
-12.8246
 21
35.241100000000003
 31
0.0
  0
LINE
  5
7B7
  8
_________1
 62
     7
 10
-15.8005
 20
33.990600000000001
 30
0.0
 11
-15.8005
 21
33.8658
 31
0.0
  0
LINE
  5
7B8
  8
_________1
 62
     7
 10
-12.6999
 20
33.990600000000001
 30
0.0
 11
-12.6999
 21
33.8658
 31
0.0
  0
LINE
  5
7B9
  8
_________1
 62
     7
 10
-17.0001
 20
30.989899999999999
 30
0.0
 11
-16.550899999999999
 21
30.740400000000001
 31
0.0
  0
LINE
  5
7BA
  8
_________1
 62
     7
 10
-11.499599999999999
 20
30.989899999999999
 30
0.0
 11
-11.9496
 21
30.740400000000001
 31
0.0
  0
LINE
  5
7BB
  8
_________1
 62
     7
 10
-30.572099999999999
 20
78.399799999999999
 30
0.0
 11
-30.572099999999999
 21
119.48399999999999
 31
0.0
  0
LINE
  5
7BC
  8
_________1
 62
     7
 10
-27.947299999999998
 20
78.399799999999999
 30
0.0
 11
-27.947299999999998
 21
119.48399999999999
 31
0.0
  0
LINE
  5
7BD
  8
_________1
  6
AIGENLINE002
 62
     7
 10
-29.259899999999998
 20
73.823400000000007
 30
0.0
 11
-29.259899999999998
 21
135.696
 31
0.0
  0
LINE
  5
7BE
  8
_________1
  6
AIGENLINE002
 62
     7
 10
-29.259899999999998
 20
73.823400000000007
 30
0.0
 11
-41.141800000000003
 21
91.091000000000008
 31
0.0
  0
LINE
  5
7BF
  8
_________1
 62
     7
 10
-42.4544
 20
38.491999999999997
 30
0.0
 11
-42.4544
 21
87.0822
 31
0.0
  0
LINE
  5
7C0
  8
_________1
 62
     7
 10
-39.8292
 20
87.0822
 30
0.0
 11
-39.8292
 21
38.491999999999997
 31
0.0
  0
LINE
  5
7C1
  8
_________1
  6
AIGENLINE002
 62
     7
 10
-41.141800000000003
 20
91.091000000000008
 30
0.0
 11
-41.141800000000003
 21
29.527799999999999
 31
0.0
  0
LINE
  5
7C2
  8
_________1
 62
     7
 10
-43.895099999999999
 20
33.615699999999997
 30
0.0
 11
-43.895099999999999
 21
30.989899999999999
 31
0.0
  0
LINE
  5
7C3
  8
_________1
 62
     7
 10
-42.519499999999987
 20
33.615699999999997
 30
0.0
 11
-42.519499999999987
 21
30.989899999999999
 31
0.0
  0
ARC
  5
7C4
  8
_________1
 62
     7
 10
-40.310509000000003
 20
39.338040999999997
 30
0.0
 40
9.0852280000000007
 50
246.762
 51
248.305575
  0
ARC
  5
7C5
  8
_________1
 62
     7
 10
-42.981566999999991
 20
32.662236
 30
0.0
 40
1.8949590000000001
 50
248.732146
 51
258.21545500000002
  0
ARC
  5
7C6
  8
_________1
 62
     7
 10
-43.187212000000002
 20
31.754629000000001
 30
0.0
 40
0.9646139999999999
 50
259.16278199999999
 51
269.53432299999997
  0
ARC
  5
7C7
  8
_________1
 62
     7
 10
-43.196137999999991
 20
31.704688999999998
 30
0.0
 40
0.914643
 50
270.06800199999998
 51
282.41009500000001
  0
ARC
  5
7C8
  8
_________1
 62
     7
 10
-43.318102999999986
 20
32.321215000000002
 30
0.0
 40
1.543032
 50
281.91324900000001
 51
292.81865800000003
  0
ARC
  5
7C9
  8
_________1
 62
     7
 10
-43.778473999999989
 20
33.496583000000001
 30
0.0
 40
2.805127999999999
 50
292.17554799999999
 51
296.66826700000001
  0
ARC
  5
7CA
  8
_________1
 62
     7
 10
-43.274371000000002
 20
32.500473999999997
 30
0.0
 40
1.346730999999999
 50
55.906326
 51
82.633775
  0
ARC
  5
7CB
  8
_________1
 62
     7
 10
-43.196165999999991
 20
32.937829000000001
 30
0.0
 40
0.903214
 50
83.996870000000001
 51
89.929327000000001
  0
ARC
  5
7CC
  8
_________1
 62
     7
 10
-43.195160999999999
 20
32.930380999999997
 30
0.0
 40
0.9106620000000001
 50
89.993195999999983
 51
102.243764
  0
ARC
  5
7CD
  8
_________1
 62
     7
 10
-43.10286099999999
 20
32.451515000000001
 30
0.0
 40
1.398255
 50
101.77851699999999
 51
113.39099899999999
  0
ARC
  5
7CE
  8
_________1
 62
     7
 10
-42.874212999999997
 20
31.879169000000001
 30
0.0
 40
2.0144129999999998
 50
112.89702699999999
 51
120.450315
  0
LINE
  5
7CF
  8
_________1
 62
     7
 10
-38.394599999999997
 20
33.615699999999997
 30
0.0
 11
-38.394599999999997
 21
30.989899999999999
 31
0.0
  0
LINE
  5
7D0
  8
_________1
 62
     7
 10
-39.769199999999998
 20
33.615699999999997
 30
0.0
 11
-39.769199999999998
 21
30.989899999999999
 31
0.0
  0
ARC
  5
7D1
  8
_________1
 62
     7
 10
-36.480240000000002
 20
38.627589
 30
0.0
 40
8.3157859999999992
 50
246.70213899999999
 51
248.34815
  0
ARC
  5
7D2
  8
_________1
 62
     7
 10
-38.812038999999999
 20
32.777679999999997
 30
0.0
 40
2.018294
 50
248.5995770000001
 51
257.758692
  0
ARC
  5
7D3
  8
_________1
 62
     7
 10
-39.08386500000001
 20
31.594245000000001
 30
0.0
 40
0.804267
 50
258.80755299999998
 51
269.25448999999998
  0
ARC
  5
7D4
  8
_________1
 62
     7
 10
-39.095137000000001
 20
31.695599000000001
 30
0.0
 40
0.9055530000000001
 50
270.05111199999999
 51
282.20139799999998
  0
ARC
  5
7D5
  8
_________1
 62
     7
 10
-39.194659000000001
 20
32.230800000000002
 30
0.0
 40
1.449784
 50
281.57539500000001
 51
287.064933
  0
ARC
  5
7D6
  8
_________1
 62
     7
 10
-39.441890999999998
 20
33.033079999999998
 30
0.0
 40
2.2892939999999991
 50
287.08778999999998
 51
291.46785999999997
  0
ARC
  5
7D7
  8
_________1
 62
     7
 10
-40.909469999999992
 20
36.731200000000001
 30
0.0
 40
6.2679650000000002
 50
291.580556
 51
293.65458699999999
  0
ARC
  5
7D8
  8
_________1
 62
     7
 10
-39.396991999999997
 20
31.901927000000001
 30
0.0
 40
1.9854130000000001
 50
59.677578999999987
 51
72.113010000000003
  0
ARC
  5
7D9
  8
_________1
 62
     7
 10
-39.118906000000003
 20
32.71460900000001
 30
0.0
 40
1.1267009999999991
 50
72.877708999999996
 51
88.750097999999994
  0
ARC
  5
7DA
  8
_________1
 62
     7
 10
-39.093603000000002
 20
33.072679000000001
 30
0.0
 40
0.768363
 50
90.054157999999987
 51
103.845017
  0
ARC
  5
7DB
  8
_________1
 62
     7
 10
-38.95064
 20
32.39734
 30
0.0
 40
1.4584699999999999
 50
102.949409
 51
114.168128
  0
ARC
  5
7DC
  8
_________1
 62
     7
 10
-38.705679000000003
 20
31.791810999999999
 30
0.0
 40
2.1113559999999998
 50
113.505337
 51
120.24694
  0
ARC
  5
7DD
  8
_________1
 62
     7
 10
-43.837054999999999
 20
24.396484000000001
 30
0.0
 40
6.7237410000000004
 50
76.798084000000003
 51
78.699136999999993
  0
ARC
  5
7DE
  8
_________1
 62
     7
 10
-40.818243000000002
 20
36.576048999999998
 30
0.0
 40
5.8255069999999991
 50
255.24964399999999
 51
261.38730199999998
  0
ARC
  5
7DF
  8
_________1
 62
     7
 10
-41.344351000000003
 20
33.0809
 30
0.0
 40
2.290988
 50
261.30629199999998
 51
269.380044
  0
LINE
  5
7E0
  8
_________1
 62
     7
 10
-41.369100000000003
 20
30.789999999999999
 30
0.0
 11
-40.919899999999998
 21
30.789999999999999
 31
0.0
  0
ARC
  5
7E1
  8
_________1
 62
     7
 10
-40.921454999999987
 20
32.767574000000003
 30
0.0
 40
1.9775290000000001
 50
270.04513800000001
 51
278.42467399999998
  0
ARC
  5
7E2
  8
_________1
 62
     7
 10
-41.134627999999992
 20
34.408620999999997
 30
0.0
 40
3.6322190000000001
 50
277.95846499999999
 51
281.4444299999999
  0
ARC
  5
7E3
  8
_________1
 62
     7
 10
-42.556992999999991
 20
41.315366999999988
 30
0.0
 40
10.68389
 50
281.57135299999999
 51
283.45813299999998
  0
ARC
  5
7E4
  8
_________1
 62
     7
 10
-38.657271000000001
 20
25.106628000000001
 30
0.0
 40
5.9873959999999986
 50
100.702889
 51
103.652396
  0
ARC
  5
7E5
  8
_________1
 62
     7
 10
-41.013294000000002
 20
29.946929999999998
 30
0.0
 40
3.8739910000000002
 50
71.268542000000025
 51
77.179981000000012
  0
ARC
  5
7E6
  8
_________1
 62
     7
 10
-41.250287999999991
 20
29.094550000000002
 30
0.0
 40
4.7578949999999987
 50
76.67477199999999
 51
85.667164
  0
ARC
  5
7E7
  8
_________1
 62
     7
 10
-41.037449999999993
 20
31.555568999999998
 30
0.0
 40
2.2879800000000001
 50
86.325767999999997
 51
92.682186999999999
  0
ARC
  5
7E8
  8
_________1
 62
     7
 10
-41.227778000000001
 20
32.425179
 30
0.0
 40
1.4183099999999991
 50
86.634600999999989
 51
91.039683999999994
  0
ARC
  5
7E9
  8
_________1
 62
     7
 10
-41.214120000000001
 20
31.268346999999999
 30
0.0
 40
2.5752090000000001
 50
90.876494999999991
 51
94.814526000000001
  0
ARC
  5
7EA
  8
_________1
 62
     7
 10
-41.016848000000003
 20
28.95467
 30
0.0
 40
4.8972809999999987
 50
94.842457999999993
 51
107.868092
  0
LINE
  5
7EB
  8
_________1
 62
     7
 10
-42.394799999999989
 20
34.0167
 30
0.0
 11
-41.144500000000001
 21
34.0167
 31
0.0
  0
LINE
  5
7EC
  8
_________1
 62
     7
 10
-39.894599999999997
 20
34.0167
 30
0.0
 11
-41.144500000000001
 21
34.0167
 31
0.0
  0
LINE
  5
7ED
  8
_________1
 62
     7
 10
-38.843899999999998
 20
30.740400000000001
 30
0.0
 11
-41.144500000000001
 21
30.740400000000001
 31
0.0
  0
LINE
  5
7EE
  8
_________1
 62
     7
 10
-41.144500000000001
 20
30.740400000000001
 30
0.0
 11
-43.4452
 21
30.740400000000001
 31
0.0
  0
LINE
  5
7EF
  8
_________1
 62
     7
 10
-43.74519999999999
 20
30.940300000000001
 30
0.0
 11
-43.4452
 21
30.7652
 31
0.0
  0
LINE
  5
7F0
  8
_________1
 62
     7
 10
-43.4452
 20
30.7652
 30
0.0
 11
-43.4452
 21
30.740400000000001
 31
0.0
  0
LINE
  5
7F1
  8
_________1
 62
     7
 10
-43.895099999999999
 20
30.989899999999999
 30
0.0
 11
-43.4452
 21
30.7652
 31
0.0
  0
LINE
  5
7F2
  8
_________1
 62
     7
 10
-38.394599999999997
 20
30.989899999999999
 30
0.0
 11
-38.843899999999998
 21
30.740400000000001
 31
0.0
  0
LINE
  5
7F3
  8
_________1
 62
     7
 10
-38.843899999999998
 20
33.8658
 30
0.0
 11
-43.4452
 21
33.8658
 31
0.0
  0
LINE
  5
7F4
  8
_________1
 62
     7
 10
-39.594200000000001
 20
33.990600000000001
 30
0.0
 11
-42.694800000000001
 21
33.990600000000001
 31
0.0
  0
ARC
  5
7F5
  8
_________1
 62
     7
 10
-42.141482000000003
 20
34.689439
 30
0.0
 40
0.718794
 50
213.533672
 51
249.36869799999999
  0
ARC
  5
7F6
  8
_________1
 62
     7
 10
-42.312573
 20
34.549696999999988
 30
0.0
 40
0.499466
 50
198.54002199999999
 51
211.01267599999991
  0
LINE
  5
7F7
  8
_________1
 62
     7
 10
-42.78609999999999
 20
34.390900000000002
 30
0.0
 11
-42.819499999999998
 21
34.4908
 31
0.0
  0
LINE
  5
7F8
  8
_________1
 62
     7
 10
-42.819499999999998
 20
34.4908
 30
0.0
 11
-42.819499999999998
 21
34.640999999999998
 31
0.0
  0
LINE
  5
7F9
  8
_________1
 62
     7
 10
-42.819499999999998
 20
34.640999999999998
 30
0.0
 11
-42.7699
 21
34.816000000000003
 31
0.0
  0
LINE
  5
7FA
  8
_________1
 62
     7
 10
-39.494300000000003
 20
34.816000000000003
 30
0.0
 11
-39.519100000000002
 21
34.816000000000003
 31
0.0
  0
ARC
  5
7FB
  8
_________1
 62
     7
 10
-146.68264400000001
 20
19.534699
 30
0.0
 40
108.272147
 50
8.0201609999999999
 51
8.1136999999999997
  0
LINE
  5
7FC
  8
_________1
 62
     7
 10
-39.469499999999996
 20
34.640999999999998
 30
0.0
 11
-39.469499999999996
 21
34.4908
 31
0.0
  0
LINE
  5
7FD
  8
_________1
 62
     7
 10
-39.469499999999996
 20
34.4908
 30
0.0
 11
-39.501899999999999
 21
34.390900000000002
 31
0.0
  0
ARC
  5
7FE
  8
_________1
 62
     7
 10
-40.570954999999991
 20
34.748781999999999
 30
0.0
 40
1.1273859999999989
 50
336.71280400000001
 51
341.49066599999998
  0
ARC
  5
7FF
  8
_________1
 62
     7
 10
-39.973559999999999
 20
34.490679
 30
0.0
 40
0.47662
 50
317.69095600000003
 51
336.82128399999999
  0
ARC
  5
800
  8
_________1
 62
     7
 10
-39.904155000000003
 20
34.446238000000001
 30
0.0
 40
0.395621
 50
305.29518999999999
 51
315.684191
  0
ARC
  5
801
  8
_________1
 62
     7
 10
-40.096786999999999
 20
34.724103999999997
 30
0.0
 40
0.73372
 50
297.609959
 51
305.03562699999998
  0
ARC
  5
802
  8
_________1
 62
     7
 10
-41.875588
 20
38.122779999999999
 30
0.0
 40
4.5697499999999991
 50
296.03510599999998
 51
297.62400100000002
  0
LINE
  5
803
  8
_________1
 62
     7
 10
-39.869799999999998
 20
34.0167
 30
0.0
 11
-39.894599999999997
 21
34.0167
 31
0.0
  0
LINE
  5
804
  8
_________1
 62
     7
 10
-39.694499999999998
 20
35.241100000000003
 30
0.0
 11
-42.570099999999996
 21
35.241100000000003
 31
0.0
  0
LINE
  5
805
  8
_________1
 62
     7
 10
-39.694499999999998
 20
37.241399999999999
 30
0.0
 11
-41.144500000000001
 21
37.241399999999999
 31
0.0
  0
LINE
  5
806
  8
_________1
 62
     7
 10
-41.144500000000001
 20
37.241399999999999
 30
0.0
 11
-42.570099999999996
 21
37.241399999999999
 31
0.0
  0
LINE
  5
807
  8
_________1
 62
     7
 10
-42.819499999999998
 20
37.791200000000011
 30
0.0
 11
-42.819499999999998
 21
37.666499999999999
 31
0.0
  0
LINE
  5
808
  8
_________1
 62
     7
 10
-42.819499999999998
 20
37.666499999999999
 30
0.0
 11
-42.744799999999991
 21
37.5411
 31
0.0
  0
LINE
  5
809
  8
_________1
 62
     7
 10
-39.444400000000002
 20
37.791200000000011
 30
0.0
 11
-39.469499999999996
 21
37.666499999999999
 31
0.0
  0
LINE
  5
80A
  8
_________1
 62
     7
 10
-39.469499999999996
 20
37.666499999999999
 30
0.0
 11
-39.519100000000002
 21
37.5411
 31
0.0
  0
LINE
  5
80B
  8
_________1
 62
     7
 10
-39.444400000000002
 20
38.491999999999997
 30
0.0
 11
-42.819499999999998
 21
38.491999999999997
 31
0.0
  0
LINE
  5
80C
  8
_________1
 62
     7
 10
-39.444400000000002
 20
38.491999999999997
 30
0.0
 11
-39.444400000000002
 21
37.791200000000011
 31
0.0
  0
LINE
  5
80D
  8
_________1
 62
     7
 10
-42.819499999999998
 20
38.491999999999997
 30
0.0
 11
-42.819499999999998
 21
37.791200000000011
 31
0.0
  0
LINE
  5
80E
  8
_________1
 62
     7
 10
-43.4452
 20
33.8658
 30
0.0
 11
-43.895099999999999
 21
33.615699999999997
 31
0.0
  0
LINE
  5
80F
  8
_________1
 62
     7
 10
-38.843899999999998
 20
33.8658
 30
0.0
 11
-38.394599999999997
 21
33.615699999999997
 31
0.0
  0
LINE
  5
810
  8
_________1
 62
     7
 10
-39.519100000000002
 20
37.5411
 30
0.0
 11
-39.694499999999998
 21
37.241399999999999
 31
0.0
  0
LINE
  5
811
  8
_________1
 62
     7
 10
-39.694499999999998
 20
35.241100000000003
 30
0.0
 11
-39.519100000000002
 21
34.816000000000003
 31
0.0
  0
LINE
  5
812
  8
_________1
 62
     7
 10
-42.744799999999991
 20
37.5411
 30
0.0
 11
-42.570099999999996
 21
37.241399999999999
 31
0.0
  0
LINE
  5
813
  8
_________1
 62
     7
 10
-42.570099999999996
 20
35.241100000000003
 30
0.0
 11
-42.7699
 21
34.816000000000003
 31
0.0
  0
LINE
  5
814
  8
_________1
 62
     7
 10
-39.694499999999998
 20
37.241399999999999
 30
0.0
 11
-39.694499999999998
 21
35.241100000000003
 31
0.0
  0
LINE
  5
815
  8
_________1
 62
     7
 10
-42.570099999999996
 20
37.241399999999999
 30
0.0
 11
-42.570099999999996
 21
35.241100000000003
 31
0.0
  0
LINE
  5
816
  8
_________1
 62
     7
 10
-39.594200000000001
 20
33.990600000000001
 30
0.0
 11
-39.594200000000001
 21
33.8658
 31
0.0
  0
LINE
  5
817
  8
_________1
 62
     7
 10
-42.694800000000001
 20
33.990600000000001
 30
0.0
 11
-42.694800000000001
 21
33.8658
 31
0.0
  0
LINE
  5
818
  8
_________1
 62
     7
 10
-38.394599999999997
 20
30.989899999999999
 30
0.0
 11
-38.843899999999998
 21
30.740400000000001
 31
0.0
  0
LINE
  5
819
  8
_________1
 62
     7
 10
-43.895099999999999
 20
30.989899999999999
 30
0.0
 11
-43.4452
 21
30.740400000000001
 31
0.0
  0
INSERT
  5
81A
  8
_________1
 62
     7
  2
AIGNBL020100B1
 10
0.0
 20
0.0
 30
0.0
  0
LINE
  5
81B
  8
_________1
 62
     7
 10
80.259699999999995
 20
271.39299999999997
 30
0.0
 11
86.046800000000005
 21
271.39299999999997
 31
0.0
  0
INSERT
  5
81C
  8
_________1
 62
     7
  2
AIGNBL020100B2
 10
0.0
 20
0.0
 30
0.0
  0
LINE
  5
81D
  8
_________1
  6
AIGENLINE002
 62
     7
 10
73.146900000000002
 20
270.601
 30
0.0
 11
73.146900000000002
 21
257.44900000000001
 31
0.0
  0
ARC
  5
81E
  8
_________1
 62
     7
 10
73.147074000000003
 20
264.28045700000001
 30
0.0
 40
4.3751269999999991
 50
0.002266
 51
90.002235999999996
  0
ARC
  5
81F
  8
_________1
 62
     7
 10
73.147075000000001
 20
264.280801
 30
0.0
 40
4.374782999999999
 50
90.002256000000017
 51
180.00226599999999
  0
ARC
  5
820
  8
_________1
 62
     7
 10
73.147074000000003
 20
264.28045700000001
 30
0.0
 40
4.3747809999999987
 50
179.997714
 51
269.99776400000002
  0
ARC
  5
821
  8
_________1
 62
     7
 10
73.147074000000003
 20
264.28080299999999
 30
0.0
 40
4.3751269999999991
 50
269.99776400000002
 51
359.99773399999998
  0
LINE
  5
822
  8
_________1
  6
AIGENLINE002
 62
     7
 10
66.208399999999997
 20
264.28100000000001
 30
0.0
 11
79.924099999999996
 21
264.28100000000001
 31
0.0
  0
TEXT
  5
823
  8
_________2
 62
     7
 10
200.4570586666666
 20
34.465299999999999
 30
0.0
 40
3.6545800000000002
  1
1 ： 4
 41
0.5
 72
     1
 11
203.86799999999999
 21
34.465299999999999
 31
0.0
  0
TEXT
  5
824
  8
_________2
 62
     7
 10
244.43868749999999
 20
30.3553
 30
0.0
 40
3.9357000000000002
  1
KW2151093R
 41
0.5
 72
     1
 11
253.458
 21
30.3553
 31
0.0
  0
TEXT
  5
825
  8
_________2
 62
     7
 10
149.27189066666671
 20
34.850499999999997
 30
0.0
 40
3.6545800000000002
  1
井伊
 41
0.5
 72
     1
 11
151.221
 21
34.850499999999997
 31
0.0
  0
TEXT
  5
826
  8
_________2
 62
     7
 10
130.69789066666669
 20
34.850499999999997
 30
0.0
 40
3.6545800000000002
  1
木場
 41
0.5
 72
     1
 11
132.64699999999999
 21
34.850499999999997
 31
0.0
  0
TEXT
  5
827
  8
_________2
 62
     7
 10
177.69399999999999
 20
34.465299999999999
 30
0.0
 40
3.6545800000000002
  1
20.05.12
 41
0.5
  0
TEXT
  5
828
  8
_________2
 62
     7
 10
290.64778333333328
 20
12.808299999999999
 30
0.0
 40
3.3734599999999988
  1
A3
 41
0.5
 72
     2
 11
293.459
 21
12.808299999999999
 31
0.0
  0
TEXT
  5
829
  8
_________2
 62
     7
 10
134.495
 20
21.954699999999999
 30
0.0
 40
3.9357000000000002
  1
（社）日本水道協会認証品
 41
0.5
  0
LINE
  5
82A
  8
_________2
 62
     7
 10
315.209
 20
148.65899999999999
 30
0.0
 11
293.459
 21
148.65899999999999
 31
0.0
  0
LINE
  5
82B
  8
_________2
 62
     7
 10
105.20699999999999
 20
17.156300000000002
 30
0.0
 11
105.20699999999999
 21
0.176045
 31
0.0
  0
LINE
  5
82C
  8
_________2
 62
     7
 10
105.20699999999999
 20
297.178
 30
0.0
 11
105.20699999999999
 21
280.15800000000002
 31
0.0
  0
LINE
  5
82D
  8
_________2
 62
     7
 10
-83.043899999999994
 20
148.65899999999999
 30
0.0
 11
-104.794
 21
148.65899999999999
 31
0.0
  0
INSERT
  5
82E
  8
_________2
 62
     7
  2
AIGNBL03010002
 10
0.0
 20
0.0
 30
0.0
  0
TEXT
  5
82F
  8
_________2
 62
     7
 10
214.51300000000001
 20
22.9269
 30
0.0
 40
3.0923400000000001
  1
図番
 41
0.5
  0
LINE
  5
830
  8
_________2
 62
     7
 10
213.458
 20
27.156099999999999
 30
0.0
 11
293.459
 21
27.156099999999999
 31
0.0
  0
TEXT
  5
831
  8
_________2
 62
     7
 10
214.51300000000001
 20
32.926699999999997
 30
0.0
 40
3.0923400000000001
  1
品番
 41
0.5
  0
TEXT
  5
832
  8
_________2
 62
     7
 10
214.51300000000001
 20
53.0655
 30
0.0
 40
3.0923400000000001
  1
名称
 41
0.5
  0
TEXT
  5
833
  8
_________2
 62
     7
 10
201.75325833333329
 20
48.069400000000002
 30
0.0
 40
3.6545800000000002
  1
mm
 41
0.5
 72
     1
 11
203.27600000000001
 21
48.069400000000002
 31
0.0
  0
TEXT
  5
834
  8
_________2
 62
     7
 10
195.55099999999999
 20
53.0655
 30
0.0
 40
3.0923400000000001
  1
単位
 41
0.5
  0
TEXT
  5
835
  8
_________2
 62
     7
 10
195.55099999999999
 20
40.658200000000001
 30
0.0
 40
3.0923400000000001
  1
尺度
 41
0.5
  0
TEXT
  5
836
  8
_________2
 62
     7
 10
244.43868749999999
 20
20.354800000000001
 30
0.0
 40
3.9357000000000002
  1
KW2151093R
 41
0.5
 72
     1
 11
253.458
 21
20.354800000000001
 31
0.0
  0
TEXT
  5
837
  8
_________2
 62
     7
 10
129.49600000000001
 20
132.15600000000001
 30
0.0
 40
3.9357000000000002
  1
給水圧力
 41
0.5
  0
TEXT
  5
838
  8
_________2
 62
     7
 10
129.49600000000001
 20
139.91900000000001
 30
0.0
 40
3.9357000000000002
  1
用途
 41
0.5
  0
TEXT
  5
839
  8
_________2
 62
     7
 10
169.50999999999999
 20
139.91900000000001
 30
0.0
 40
3.9357000000000002
  1
一般住宅用（屋内用）
 41
0.5
  0
LINE
  5
83A
  8
_________2
 62
     7
 10
145.64099999999999
 20
137.81100000000001
 30
0.0
 11
145.64099999999999
 21
116.474
 31
0.0
  0
LINE
  5
83B
  8
_________2
 62
     7
 10
166.97200000000001
 20
145.57299999999989
 30
0.0
 11
166.97200000000001
 21
61.980800000000002
 31
0.0
  0
LINE
  5
83C
  8
_________2
 62
     7
 10
290.16199999999998
 20
145.57299999999989
 30
0.0
 11
126.95699999999999
 21
145.57299999999989
 31
0.0
  0
LINE
  5
83D
  8
_________2
 62
     7
 10
126.95699999999999
 20
145.57299999999989
 30
0.0
 11
126.95699999999999
 21
61.980800000000002
 31
0.0
  0
LINE
  5
83E
  8
_________2
 62
     7
 10
126.95699999999999
 20
61.980800000000002
 30
0.0
 11
290.16199999999998
 21
61.980800000000002
 31
0.0
  0
LINE
  5
83F
  8
_________2
 62
     7
 10
290.16199999999998
 20
61.980800000000002
 30
0.0
 11
290.16199999999998
 21
145.57299999999989
 31
0.0
  0
TEXT
  5
840
  8
_________2
 62
     7
 10
147.41499999999999
 20
132.15600000000001
 30
0.0
 40
3.9357000000000002
  1
最低必要水圧
 41
0.5
  0
TEXT
  5
841
  8
_________2
 62
     7
 10
169.50999999999999
 20
132.15600000000001
 30
0.0
 40
3.9357000000000002
  1
0.1MPa（流動圧）
 41
0.5
  0
LINE
  5
842
  8
_________2
 62
     7
 10
126.95699999999999
 20
137.81100000000001
 30
0.0
 11
290.16199999999998
 21
137.81100000000001
 31
0.0
  0
TEXT
  5
843
  8
_________2
 62
     7
 10
129.49600000000001
 20
110.819
 30
0.0
 40
3.9357000000000002
  1
使用可能水質
 41
0.5
  0
TEXT
  5
844
  8
_________2
 62
     7
 10
169.50999999999999
 20
110.819
 30
0.0
 40
3.9357000000000002
  1
水道水
 41
0.5
  0
LINE
  5
845
  8
_________2
 62
     7
 10
126.95699999999999
 20
116.474
 30
0.0
 11
290.16199999999998
 21
116.474
 31
0.0
  0
TEXT
  5
846
  8
_________2
 62
     7
 10
147.41499999999999
 20
124.53400000000001
 30
0.0
 40
3.9357000000000002
  1
最高水圧
 41
0.5
  0
TEXT
  5
847
  8
_________2
 62
     7
 10
169.50999999999999
 20
118.602
 30
0.0
 40
3.9357000000000002
  1
※快適にお使いいただくためには、0.2～0.3MPa程度の圧力をおすすめします。
 41
0.5
  0
TEXT
  5
848
  8
_________2
 62
     7
 10
169.50999999999999
 20
124.53400000000001
 30
0.0
 40
3.9357000000000002
  1
0.5MPa（流動圧）
 41
0.5
  0
LINE
  5
849
  8
_________2
 62
     7
 10
145.64099999999999
 20
130.048
 30
0.0
 11
290.16199999999998
 21
130.048
 31
0.0
  0
TEXT
  5
84A
  8
_________2
 62
     7
 10
129.49600000000001
 20
103.197
 30
0.0
 40
3.9357000000000002
  1
使用環境温度
 41
0.5
  0
TEXT
  5
84B
  8
_________2
 62
     7
 10
129.49600000000001
 20
89.623299999999986
 30
0.0
 40
3.9357000000000002
  1
最高給湯温度
 41
0.5
  0
TEXT
  5
84C
  8
_________2
 62
     7
 10
129.49600000000001
 20
75.920699999999997
 30
0.0
 40
3.9357000000000002
  1
特記事項
 41
0.5
  0
TEXT
  5
84D
  8
_________2
 62
     7
 10
169.50999999999999
 20
103.197
 30
0.0
 40
3.9357000000000002
  1
1～40℃
 41
0.5
  0
TEXT
  5
84E
  8
_________2
 62
     7
 10
169.50999999999999
 20
97.200199999999995
 30
0.0
 40
3.9357000000000002
  1
※寒冷地仕様ではありません、凍結が予想される場合は凍結予防をしてください。
 41
0.5
  0
LINE
  5
84F
  8
_________2
 62
     7
 10
126.95699999999999
 20
108.711
 30
0.0
 11
290.16199999999998
 21
108.711
 31
0.0
  0
TEXT
  5
850
  8
_________2
 62
     7
 10
169.50999999999999
 20
89.623299999999986
 30
0.0
 40
3.9357000000000002
  1
80℃
 41
0.5
  0
TEXT
  5
851
  8
_________2
 62
     7
 10
169.50999999999999
 20
83.626099999999994
 30
0.0
 40
3.9357000000000002
  1
※安全のため給湯温度は60℃以下でのご使用をおすすめします。
 41
0.5
  0
TEXT
  5
852
  8
_________2
 62
     7
 10
169.50999999999999
 20
75.920699999999997
 30
0.0
 40
3.9357000000000002
  1
（1）水圧は湯水ほぼ同圧、且つ湯圧が水圧より高くならないように設定してください。
 41
0.5
  0
TEXT
  5
853
  8
_________2
 62
     7
 10
169.50999999999999
 20
69.923500000000004
 30
0.0
 40
3.9357000000000002
  1
（2）湯水を逆に配管しないでください。
 41
0.5
  0
TEXT
  5
854
  8
_________2
 62
     7
 10
169.50999999999999
 20
63.926200000000001
 30
0.0
 40
3.9357000000000002
  1
（3）フレキホース寸法公差\U+00B120
 41
0.5
  0
TEXT
  5
855
  8
_________2
 62
     7
 10
219.08699999999999
 20
45.473100000000002
 30
0.0
 40
3.9357000000000002
  1
オノ 湯水混合水栓
 41
0.5
  0
TEXT
  5
856
  8
_________2
 62
     7
 10
176.501
 20
40.658200000000001
 30
0.0
 40
3.0923400000000001
  1
日付
 41
0.5
  0
TEXT
  5
857
  8
_________2
 62
     7
 10
139.547
 20
40.658200000000001
 30
0.0
 40
3.0923400000000001
  1
検図
 41
0.5
  0
TEXT
  5
858
  8
_________2
 62
     7
 10
127.929
 20
26.4588
 30
0.0
 40
3.0923400000000001
  1
備考
 41
0.5
  0
TEXT
  5
859
  8
_________2
 62
     7
 10
127.929
 20
40.658200000000001
 30
0.0
 40
3.0923400000000001
  1
製図
 41
0.5
  0
TEXT
  5
85A
  8
_________2
 62
     7
 10
133.69596533333331
 20
49.184199999999997
 30
0.0
 40
4.4979399999999989
  1
セラトレーディング株式会社
 41
0.5
 72
     1
 11
151.08799999999999
 21
49.184199999999997
 31
0.0
  0
LINE
  5
85B
  8
_________2
 62
     7
 10
293.459
 20
17.156300000000002
 30
0.0
 11
-83.043899999999994
 21
17.156300000000002
 31
0.0
  0
LINE
  5
85C
  8
_________2
 62
     7
 10
-83.043899999999994
 20
17.156300000000002
 30
0.0
 11
-83.043899999999994
 21
280.15800000000002
 31
0.0
  0
LINE
  5
85D
  8
_________2
 62
     7
 10
-83.043899999999994
 20
280.15800000000002
 30
0.0
 11
293.459
 21
280.15800000000002
 31
0.0
  0
LINE
  5
85E
  8
_________2
 62
     7
 10
293.459
 20
280.15800000000002
 30
0.0
 11
293.459
 21
17.156300000000002
 31
0.0
  0
LINE
  5
85F
  8
_________2
 62
     7
 10
175.458
 20
30.656400000000001
 30
0.0
 11
175.458
 21
57.156199999999998
 31
0.0
  0
LINE
  5
860
  8
_________2
 62
     7
 10
194.458
 20
30.656400000000001
 30
0.0
 11
194.458
 21
57.156199999999998
 31
0.0
  0
LINE
  5
861
  8
_________2
 62
     7
 10
126.95699999999999
 20
17.156300000000002
 30
0.0
 11
126.95699999999999
 21
57.156199999999998
 31
0.0
  0
LINE
  5
862
  8
_________2
 62
     7
 10
213.458
 20
17.156300000000002
 30
0.0
 11
213.458
 21
57.156199999999998
 31
0.0
  0
LINE
  5
863
  8
_________2
 62
     7
 10
138.45699999999999
 20
30.656400000000001
 30
0.0
 11
138.45699999999999
 21
44.65659999999999
 31
0.0
  0
LINE
  5
864
  8
_________2
 62
     7
 10
126.95699999999999
 20
30.656400000000001
 30
0.0
 11
213.458
 21
30.656400000000001
 31
0.0
  0
LINE
  5
865
  8
_________2
 62
     7
 10
126.95699999999999
 20
44.65659999999999
 30
0.0
 11
213.458
 21
44.65659999999999
 31
0.0
  0
LINE
  5
866
  8
_________2
 62
     7
 10
213.458
 20
37.15590000000001
 30
0.0
 11
293.459
 21
37.15590000000001
 31
0.0
  0
LINE
  5
867
  8
_________2
 62
     7
 10
126.95699999999999
 20
95.137299999999996
 30
0.0
 11
290.16199999999998
 21
95.137299999999996
 31
0.0
  0
LINE
  5
868
  8
_________2
 62
     7
 10
126.95699999999999
 20
81.563199999999995
 30
0.0
 11
290.16199999999998
 21
81.563199999999995
 31
0.0
  0
LINE
  5
869
  8
_________2
 62
     7
 10
126.95699999999999
 20
57.156199999999998
 30
0.0
 11
293.459
 21
57.156199999999998
 31
0.0
  0
ENDSEC
  0
EOF
