  0
SECTION
  2
HEADER
  9
$ACADVER
  1
AC1009
  9
$INSBASE
 10
0.0
 20
0.0
 30
0.0
  9
$EXTMIN
 10
-4.7012099999999988
 20
-21.070999999999991
 30
0.0
  9
$EXTMAX
 10
205.30099999999999
 20
275.93099999999993
 30
0.0
  9
$LIMMIN
 10
0.0
 20
0.0
  9
$LIMMAX
 10
12.0
 20
9.0
  9
$ORTHOMODE
 70
     0
  9
$REGENMODE
 70
     1
  9
$FILLMODE
 70
     1
  9
$QTEXTMODE
 70
     0
  9
$MIRRTEXT
 70
     1
  9
$DRAGMODE
 70
     2
  9
$LTSCALE
 40
1.0
  9
$OSMODE
 70
    37
  9
$ATTMODE
 70
     1
  9
$TEXTSIZE
 40
0.0
  9
$TRACEWID
 40
0.05
  9
$TEXTSTYLE
  7
STANDARD
  9
$CLAYER
  8
0
  9
$CELTYPE
  6
CONTINUOUS
  9
$CECOLOR
 62
   256
  9
$DIMSCALE
 40
1.0
  9
$DIMASZ
 40
0.18
  9
$DIMEXO
 40
0.0625
  9
$DIMDLI
 40
0.38
  9
$DIMRND
 40
0.0
  9
$DIMDLE
 40
0.0
  9
$DIMEXE
 40
0.18
  9
$DIMTP
 40
0.0
  9
$DIMTM
 40
0.0
  9
$DIMTXT
 40
0.18
  9
$DIMCEN
 40
0.09
  9
$DIMTSZ
 40
0.0
  9
$DIMTOL
 70
     0
  9
$DIMLIM
 70
     0
  9
$DIMTIH
 70
     1
  9
$DIMTOH
 70
     1
  9
$DIMSE1
 70
     0
  9
$DIMSE2
 70
     0
  9
$DIMTAD
 70
     0
  9
$DIMZIN
 70
     0
  9
$DIMBLK
  1

  9
$DIMASO
 70
     1
  9
$DIMSHO
 70
     1
  9
$DIMPOST
  1

  9
$DIMAPOST
  1

  9
$DIMALT
 70
     0
  9
$DIMALTD
 70
     2
  9
$DIMALTF
 40
25.399999999999999
  9
$DIMLFAC
 40
1.0
  9
$DIMTOFL
 70
     0
  9
$DIMTVP
 40
0.0
  9
$DIMTIX
 70
     0
  9
$DIMSOXD
 70
     0
  9
$DIMSAH
 70
     0
  9
$DIMBLK1
  1

  9
$DIMBLK2
  1

  9
$DIMSTYLE
  2
STANDARD
  9
$DIMCLRD
 70
     0
  9
$DIMCLRE
 70
     0
  9
$DIMCLRT
 70
     0
  9
$DIMTFAC
 40
1.0
  9
$DIMGAP
 40
0.09
  9
$LUNITS
 70
     2
  9
$LUPREC
 70
     4
  9
$SKETCHINC
 40
0.1
  9
$FILLETRAD
 40
0.0
  9
$AUNITS
 70
     0
  9
$AUPREC
 70
     0
  9
$MENU
  1
.
  9
$ELEVATION
 40
0.0
  9
$PELEVATION
 40
0.0
  9
$THICKNESS
 40
0.0
  9
$LIMCHECK
 70
     0
  9
$BLIPMODE
 70
     0
  9
$CHAMFERA
 40
0.0
  9
$CHAMFERB
 40
0.0
  9
$SKPOLY
 70
     0
  9
$TDCREATE
 40
2444972.375
  9
$TDUPDATE
 40
2456676.2492598142
  9
$TDINDWG
 40
0.0000099769
  9
$TDUSRTIMER
 40
0.0000099769
  9
$USRTIMER
 70
     1
  9
$ANGBASE
 50
0.0
  9
$ANGDIR
 70
     0
  9
$PDMODE
 70
     0
  9
$PDSIZE
 40
0.0
  9
$PLINEWID
 40
0.0
  9
$COORDS
 70
     1
  9
$SPLFRAME
 70
     0
  9
$SPLINETYPE
 70
     6
  9
$SPLINESEGS
 70
     8
  9
$ATTDIA
 70
     0
  9
$ATTREQ
 70
     1
  9
$HANDLING
 70
     1
  9
$HANDSEED
  5
5D8
  9
$SURFTAB1
 70
     6
  9
$SURFTAB2
 70
     6
  9
$SURFTYPE
 70
     6
  9
$SURFU
 70
     6
  9
$SURFV
 70
     6
  9
$UCSNAME
  2

  9
$UCSORG
 10
0.0
 20
0.0
 30
0.0
  9
$UCSXDIR
 10
1.0
 20
0.0
 30
0.0
  9
$UCSYDIR
 10
0.0
 20
1.0
 30
0.0
  9
$PUCSNAME
  2

  9
$PUCSORG
 10
0.0
 20
0.0
 30
0.0
  9
$PUCSXDIR
 10
1.0
 20
0.0
 30
0.0
  9
$PUCSYDIR
 10
0.0
 20
1.0
 30
0.0
  9
$USERI1
 70
     0
  9
$USERI2
 70
     0
  9
$USERI3
 70
     0
  9
$USERI4
 70
     0
  9
$USERI5
 70
     0
  9
$USERR1
 40
0.0
  9
$USERR2
 40
0.0
  9
$USERR3
 40
0.0
  9
$USERR4
 40
0.0
  9
$USERR5
 40
0.0
  9
$WORLDVIEW
 70
     1
  9
$SHADEDGE
 70
     3
  9
$SHADEDIF
 70
    70
  9
$TILEMODE
 70
     1
  9
$MAXACTVP
 70
    48
  9
$PLIMCHECK
 70
     0
  9
$PEXTMIN
 10
1.0000000000000000E+020
 20
1.0000000000000000E+020
 30
1.0000000000000000E+020
  9
$PEXTMAX
 10
-1.0000000000000000E+020
 20
-1.0000000000000000E+020
 30
-1.0000000000000000E+020
  9
$PLIMMIN
 10
0.0
 20
0.0
  9
$PLIMMAX
 10
12.0
 20
9.0
  9
$UNITMODE
 70
     0
  9
$VISRETAIN
 70
     1
  9
$PLINEGEN
 70
     0
  9
$PSLTSCALE
 70
     1
  0
ENDSEC
  0
SECTION
  2
TABLES
  0
TABLE
  2
VPORT
 70
     2
  0
VPORT
  2
*ACTIVE
 70
     0
 10
0.0
 20
0.0
 11
1.0
 21
1.0
 12
202.006301769564
 22
127.42999999999989
 13
0.0
 23
0.0
 14
1.0
 24
1.0
 15
0.0
 25
0.0
 16
0.0
 26
0.0
 36
1.0
 17
0.0
 27
0.0
 37
0.0
 40
299.45318569463541
 41
2.2894736842105261
 42
50.0
 43
0.0
 44
0.0
 50
0.0
 51
0.0
 71
     0
 72
   100
 73
     1
 74
     1
 75
     0
 76
     0
 77
     0
 78
     0
  0
ENDTAB
  0
TABLE
  2
LTYPE
 70
     3
  0
LTYPE
  2
CONTINUOUS
 70
     0
  3
Solid line
 72
    65
 73
     0
 40
0.0
  0
LTYPE
  2
AIGENLINE001
 70
     0
  3
generate AI->DXF Converter
 72
    65
 73
     6
 40
7.4083750000000004
 49
3.5278
 49
-0.776115
 49
0.776115
 49
-0.776115
 49
0.776115
 49
-0.776115
  0
LTYPE
  2
AIGENLINE002
 70
     0
  3
generate AI->DXF Converter
 72
    65
 73
     4
 40
5.8561449999999988
 49
3.5278
 49
-0.776115
 49
0.776115
 49
-0.776115
  0
ENDTAB
  0
TABLE
  2
LAYER
 70
     2
  0
LAYER
  2
0
 70
     0
 62
     7
  6
CONTINUOUS
  0
LAYER
  2
_________2
 70
     0
 62
     7
  6
CONTINUOUS
  0
ENDTAB
  0
TABLE
  2
STYLE
 70
     1
  0
STYLE
  2
STANDARD
 70
     0
 40
0.0
 41
0.0
 50
0.0
 71
     0
 42
0.0
  3
TXT
  4
EXTFONT.SHX
  0
ENDTAB
  0
TABLE
  2
VIEW
 70
     0
  0
ENDTAB
  0
TABLE
  2
UCS
 70
     0
  0
ENDTAB
  0
TABLE
  2
APPID
 70
     1
  0
APPID
  2
ACAD
 70
     0
  0
ENDTAB
  0
TABLE
  2
DIMSTYLE
 70
     1
  0
DIMSTYLE
  2
STANDARD
 70
     0
  3

  4

  5

  6

  7

 40
1.0
 41
0.18
 42
0.0625
 43
0.38
 44
0.18
 45
0.0
 46
0.0
 47
0.0
 48
0.0
140
0.18
141
0.09
142
0.0
143
25.399999999999999
144
1.0
145
0.0
146
1.0
147
0.09
 71
     0
 72
     0
 73
     1
 74
     1
 75
     0
 76
     0
 77
     0
 78
     0
170
     0
171
     2
172
     0
173
     0
174
     0
175
     0
176
     0
177
     0
178
     0
  0
ENDTAB
  0
ENDSEC
  0
SECTION
  2
BLOCKS
  0
BLOCK
  8
0
  2
$MODEL_SPACE
 70
     0
 10
0.0
 20
0.0
 30
0.0
  3
$MODEL_SPACE
  1

  0
ENDBLK
  5
1A
  8
0
  0
BLOCK
 67
     1
  8
0
  2
$PAPER_SPACE
 70
     0
 10
0.0
 20
0.0
 30
0.0
  3
$PAPER_SPACE
  1

  0
ENDBLK
  5
17
 67
     1
  8
0
  0
ENDSEC
  0
SECTION
  2
ENTITIES
  0
TEXT
  5
23
  8
0
 62
     7
 10
44.807882499999991
 20
214.58799999999999
 30
0.0
 40
3.0923400000000001
  1
50%%d
 41
0.5
 72
     1
 11
46.482900000000001
 21
214.58799999999999
 31
0.0
  0
TEXT
  5
24
  8
0
 62
     7
 10
65.9746825
 20
214.58799999999999
 30
0.0
 40
3.0923400000000001
  1
50%%d
 41
0.5
 72
     1
 11
67.649699999999996
 21
214.58799999999999
 31
0.0
  0
TEXT
  5
25
  8
0
 62
     7
 10
54.765639999999991
 20
133.20599999999999
 30
0.0
 40
3.0923400000000001
  1
%%c43
 41
0.5
 72
     1
 11
56.827199999999991
 21
133.20599999999999
 31
0.0
  0
TEXT
  5
26
  8
0
 62
     7
 10
54.765639999999991
 20
114.2139999999999
 30
0.0
 40
3.0923400000000001
  1
%%c55
 41
0.5
 72
     1
 11
56.827199999999991
 21
114.2139999999999
 31
0.0
  0
TEXT
  5
27
  8
0
 62
     7
 10
44.68869999999999
 20
102.0089999999999
 30
0.0
 40
3.0923400000000001
  1
%%c33
 41
0.5
  0
TEXT
  5
28
  8
0
 62
     7
 10
119.06
 20
43.728199999999987
 30
0.0
 40
3.0923400000000001
  1
G 3/8
 41
0.5
  0
TEXT
  5
29
  8
0
 62
     7
 10
135.08199999999991
 20
98.080844999999997
 30
0.0
 40
3.0923400000000001
  1
max.40
 50
90.0
 41
0.5
 72
     2
 11
135.08199999999991
 21
105.554
 31
0.0
  0
TEXT
  5
2A
  8
0
 62
     7
 10
99.503900000000002
 20
75.9386875
 30
0.0
 40
3.0923400000000001
  1
350
 50
90.0
 41
0.5
 72
     1
 11
99.503900000000002
 21
77.871399999999994
 31
0.0
  0
TEXT
  5
2B
  8
0
 62
     7
 10
126.6911349999999
 20
151.31100000000001
 30
0.0
 40
3.0923400000000001
  1
155
 41
0.5
 72
     1
 11
128.495
 21
151.31100000000001
 31
0.0
  0
TEXT
  5
2C
  8
0
 62
     7
 10
105.3268299999999
 20
146.8239999999999
 30
0.0
 40
3.0923400000000001
  1
16%%d
 41
0.5
 72
     1
 11
106.87299999999991
 21
146.8239999999999
 31
0.0
  0
TEXT
  5
2D
  8
0
 62
     7
 10
156.53087999999991
 20
247.7109999999999
 30
0.0
 40
3.0923400000000001
  1
%%c35
 41
0.5
 72
     2
 11
160.654
 21
247.7109999999999
 31
0.0
  0
TEXT
  5
2E
  8
0
 62
     7
 10
143.43864599999989
 20
227.0559999999999
 30
0.0
 40
3.0923400000000001
  1
水栓取付穴
 41
0.5
 72
     1
 11
147.87100000000001
 21
227.0559999999999
 31
0.0
  0
TEXT
  5
2F
  8
0
 62
     7
 10
75.816400000000002
 20
224.84599999999989
 30
0.0
 40
3.0923400000000001
  1
水
 41
0.5
  0
TEXT
  5
30
  8
0
 62
     7
 10
36.535508
 20
224.84599999999989
 30
0.0
 40
3.0923400000000001
  1
湯
 41
0.5
 72
     2
 11
37.9786
 21
224.84599999999989
 31
0.0
  0
TEXT
  5
31
  8
0
 62
     7
 10
124.862454
 20
189.417
 30
0.0
 40
3.0923400000000001
  1
開
 41
0.5
 72
     1
 11
125.584
 21
189.417
 31
0.0
  0
TEXT
  5
32
  8
0
 62
     7
 10
122.4779859999999
 20
177.21199999999999
 30
0.0
 40
3.0923400000000001
  1
閉
 41
0.5
 72
     2
 11
123.818
 21
177.21199999999999
 31
0.0
  0
TEXT
  5
33
  8
0
 62
     7
 10
164.99299999999991
 20
143.1341349999999
 30
0.0
 40
3.0923400000000001
  1
312
 50
90.0
 41
0.5
 72
     1
 11
164.99299999999991
 21
144.9379999999999
 31
0.0
  0
TEXT
  5
34
  8
0
 62
     7
 10
87.979299999999995
 20
145.00144
 30
0.0
 40
3.0923400000000001
  1
329
 50
90.0
 41
0.5
 72
     1
 11
87.979299999999995
 21
147.0629999999999
 31
0.0
  0
TEXT
  5
35
  8
0
 62
     7
 10
99.555300000000017
 20
133.79444000000001
 30
0.0
 40
3.0923400000000001
  1
239
 50
90.0
 41
0.5
 72
     1
 11
99.555300000000017
 21
135.85599999999991
 31
0.0
  0
TEXT
  5
36
  8
0
 62
     7
 10
93.767300000000006
 20
134.12644
 30
0.0
 40
3.0923400000000001
  1
242
 50
90.0
 41
0.5
 72
     1
 11
93.767300000000006
 21
136.1879999999999
 31
0.0
  0
ARC
  5
37
  8
0
 62
     7
 10
109.11196699999989
 20
166.688906
 30
0.0
 40
16.077683
 50
243.39345099999991
 51
270.02970599999998
  0
ARC
  5
38
  8
0
 62
     7
 10
56.621591000000002
 20
240.17975599999991
 30
0.0
 40
28.674409000000001
 50
270.41086899999988
 51
319.58775200000002
  0
ARC
  5
39
  8
0
 62
     7
 10
57.017054000000002
 20
240.1464509999999
 30
0.0
 40
28.640996000000001
 50
220.3834919999999
 51
269.620227
  0
ARC
  5
3A
  8
0
 62
     7
 10
56.998750000000001
 20
239.84917799999991
 30
0.0
 40
7.0474920000000001
 50
180.90285999999989
 51
245.84499500000001
  0
ARC
  5
3B
  8
0
 62
     7
 10
56.827210000000001
 20
239.7381299999999
 30
0.0
 40
6.8750770000000001
 50
90.0
 51
179.99996999999991
  0
ARC
  5
3C
  8
0
 62
     7
 10
56.827207999999999
 20
239.7381299999999
 30
0.0
 40
6.8750770000000001
 50
0.00001
 51
89.999980000000008
  0
ARC
  5
3D
  8
0
 62
     7
 10
56.657646999999997
 20
239.84783799999991
 30
0.0
 40
7.0454929999999987
 50
294.13854500000002
 51
359.10779700000001
  0
ARC
  5
3E
  8
0
  6
AIGENLINE001
 62
     7
 10
48.754044
 20
232.2839819999999
 30
0.0
 40
0.104101
 50
312.11570399999988
 51
37.83614699999999
  0
ARC
  5
3F
  8
0
  6
AIGENLINE001
 62
     7
 10
48.084657
 20
233.08187599999991
 30
0.0
 40
0.104018
 50
42.206666999999989
 51
127.871968
  0
ARC
  5
40
  8
0
  6
AIGENLINE001
 62
     7
 10
39.343579999999989
 20
224.42157
 30
0.0
 40
0.130179
 50
222.18550200000001
 51
307.87986699999988
  0
ARC
  5
41
  8
0
  6
AIGENLINE001
 62
     7
 10
38.707545000000003
 20
225.179641
 30
0.0
 40
0.13015
 50
132.20672999999999
 51
217.72800299999989
  0
LINE
  5
42
  8
0
  6
AIGENLINE001
 62
     7
 10
39.247100000000003
 20
224.33399999999989
 30
0.0
 11
38.604599999999991
 21
225.09999999999991
 31
0.0
  0
LINE
  5
43
  8
0
  6
AIGENLINE001
 62
     7
 10
39.42349999999999
 20
224.31899999999999
 30
0.0
 11
38.620100000000001
 21
225.2759999999999
 31
0.0
  0
LINE
  5
44
  8
0
  6
AIGENLINE001
 62
     7
 10
38.620100000000001
 20
225.2759999999999
 30
0.0
 11
48.020800000000001
 21
233.16399999999999
 31
0.0
  0
LINE
  5
45
  8
0
  6
AIGENLINE001
 62
     7
 10
52.480200000000004
 20
236.58000000000001
 30
0.0
 11
48.257800000000003
 21
233.03700000000001
 31
0.0
  0
LINE
  5
46
  8
0
  6
AIGENLINE001
 62
     7
 10
52.962499999999999
 20
236.005
 30
0.0
 11
48.740099999999998
 21
232.46199999999999
 31
0.0
  0
LINE
  5
47
  8
0
  6
AIGENLINE001
 62
     7
 10
39.42349999999999
 20
224.31899999999999
 30
0.0
 11
48.823900000000002
 21
232.20699999999999
 31
0.0
  0
LINE
  5
48
  8
0
  6
AIGENLINE001
 62
     7
 10
48.823900000000002
 20
232.20699999999999
 30
0.0
 11
48.020800000000001
 21
233.16399999999999
 31
0.0
  0
LINE
  5
49
  8
0
  6
AIGENLINE001
 62
     7
 10
48.836300000000001
 20
232.3479999999999
 30
0.0
 11
48.161700000000003
 21
233.15199999999999
 31
0.0
  0
LINE
  5
4A
  8
0
  6
AIGENLINE002
 62
     7
 10
56.827599999999997
 20
239.738
 30
0.0
 11
37.9876
 21
223.929
 31
0.0
  0
LINE
  5
4B
  8
0
 62
     7
 10
37.555599999999998
 20
223.56700000000001
 30
0.0
 11
34.749499999999991
 21
221.21299999999999
 31
0.0
  0
LINE
  5
4C
  8
0
 62
     7
 10
54.6554
 20
212.232
 30
0.0
 11
56.827199999999991
 21
211.50700000000001
 31
0.0
  0
LINE
  5
4D
  8
0
 62
     7
 10
56.827199999999991
 20
211.50700000000001
 30
0.0
 11
54.5837
 21
211.04899999999989
 31
0.0
  0
LINE
  5
4E
  8
0
 62
     7
 10
54.5837
 20
211.04899999999989
 30
0.0
 11
54.6554
 21
212.232
 31
0.0
  0
LINE
  5
4F
  8
0
 62
     7
 10
36.223300000000002
 20
219.54199999999989
 30
0.0
 11
35.200499999999991
 21
221.58999999999989
 31
0.0
  0
LINE
  5
50
  8
0
 62
     7
 10
35.200499999999991
 20
221.58999999999989
 30
0.0
 11
37.110500000000002
 21
220.32699999999991
 31
0.0
  0
LINE
  5
51
  8
0
 62
     7
 10
37.110500000000002
 20
220.32699999999991
 30
0.0
 11
36.223300000000002
 21
219.54199999999989
 31
0.0
  0
ARC
  5
52
  8
0
  6
AIGENLINE001
 62
     7
 10
64.900839000000005
 20
232.2839919999999
 30
0.0
 40
0.10419
 50
142.20897099999991
 51
227.83917899999989
  0
ARC
  5
53
  8
0
  6
AIGENLINE001
 62
     7
 10
65.570104000000001
 20
233.08190200000001
 30
0.0
 40
0.103999
 50
52.118361999999998
 51
137.80296299999989
  0
ARC
  5
54
  8
0
  6
AIGENLINE001
 62
     7
 10
74.311166
 20
224.421772
 30
0.0
 40
0.130327
 50
232.18075200000001
 51
317.753919
  0
ARC
  5
55
  8
0
  6
AIGENLINE001
 62
     7
 10
74.947218000000007
 20
225.17963999999989
 30
0.0
 40
0.13015
 50
322.27203399999991
 51
47.793233000000001
  0
LINE
  5
56
  8
0
  6
AIGENLINE001
 62
     7
 10
74.407600000000002
 20
224.33399999999989
 30
0.0
 11
75.050200000000004
 21
225.09999999999991
 31
0.0
  0
LINE
  5
57
  8
0
  6
AIGENLINE001
 62
     7
 10
74.231300000000005
 20
224.31899999999999
 30
0.0
 11
75.034700000000001
 21
225.2759999999999
 31
0.0
  0
LINE
  5
58
  8
0
  6
AIGENLINE001
 62
     7
 10
75.034700000000001
 20
225.2759999999999
 30
0.0
 11
65.634
 21
233.16399999999999
 31
0.0
  0
LINE
  5
59
  8
0
  6
AIGENLINE001
 62
     7
 10
61.174599999999998
 20
236.58000000000001
 30
0.0
 11
65.396900000000002
 21
233.03700000000001
 31
0.0
  0
LINE
  5
5A
  8
0
  6
AIGENLINE001
 62
     7
 10
60.69230000000001
 20
236.005
 30
0.0
 11
64.914599999999993
 21
232.46199999999999
 31
0.0
  0
LINE
  5
5B
  8
0
  6
AIGENLINE001
 62
     7
 10
74.231300000000005
 20
224.31899999999999
 30
0.0
 11
64.8309
 21
232.20699999999999
 31
0.0
  0
LINE
  5
5C
  8
0
  6
AIGENLINE001
 62
     7
 10
64.8309
 20
232.20699999999999
 30
0.0
 11
65.634
 21
233.16399999999999
 31
0.0
  0
LINE
  5
5D
  8
0
  6
AIGENLINE001
 62
     7
 10
64.8185
 20
232.3479999999999
 30
0.0
 11
65.493099999999998
 21
233.15199999999999
 31
0.0
  0
LINE
  5
5E
  8
0
  6
AIGENLINE002
 62
     7
 10
56.827199999999991
 20
239.738
 30
0.0
 11
75.667199999999994
 21
223.929
 31
0.0
  0
LINE
  5
5F
  8
0
 62
     7
 10
76.099199999999996
 20
223.56700000000001
 30
0.0
 11
78.905199999999994
 21
221.21299999999999
 31
0.0
  0
LINE
  5
60
  8
0
  6
AIGENLINE002
 62
     7
 10
47.8324
 20
239.738
 30
0.0
 11
65.6477
 21
239.738
 31
0.0
  0
LINE
  5
61
  8
0
 62
     7
 10
56.827199999999991
 20
196.66399999999999
 30
0.0
 11
57.015700000000002
 21
196.666
 31
0.0
  0
ARC
  5
62
  8
0
 62
     7
 10
56.839024000000002
 20
205.072472
 30
0.0
 40
8.4086020000000001
 50
271.20366999999999
 51
272.48138799999992
  0
ARC
  5
63
  8
0
 62
     7
 10
56.862069999999989
 20
204.86323699999991
 30
0.0
 40
8.1985779999999995
 50
272.38378899999998
 51
273.68093199999993
  0
ARC
  5
64
  8
0
 62
     7
 10
56.856737999999993
 20
204.90720099999999
 30
0.0
 40
8.2427939999999982
 50
273.69829700000003
 51
274.96634999999998
  0
ARC
  5
65
  8
0
 62
     7
 10
56.927669999999992
 20
204.10555299999999
 30
0.0
 40
7.4380149999999992
 50
274.95659599999988
 51
276.33266700000001
  0
ARC
  5
66
  8
0
 62
     7
 10
57.013665000000003
 20
203.34096199999999
 30
0.0
 40
6.6686039999999993
 50
276.32291600000002
 51
277.81429300000002
  0
ARC
  5
67
  8
0
 62
     7
 10
57.018439000000001
 20
203.32543799999991
 30
0.0
 40
6.6525759999999989
 50
277.79173500000002
 51
279.23486400000002
  0
ARC
  5
68
  8
0
 62
     7
 10
57.144681999999989
 20
202.46397699999989
 30
0.0
 40
5.7820359999999988
 50
279.3700419999999
 51
280.9655259999999
  0
ARC
  5
69
  8
0
 62
     7
 10
57.387779999999999
 20
201.23257899999999
 30
0.0
 40
4.5268829999999989
 50
280.90951999999999
 51
282.84789799999987
  0
ARC
  5
6A
  8
0
 62
     7
 10
57.552720999999998
 20
200.54837299999991
 30
0.0
 40
3.823138999999999
 50
282.71796999999998
 51
284.892606
  0
ARC
  5
6B
  8
0
 62
     7
 10
57.692702000000011
 20
200.04365399999989
 30
0.0
 40
3.2994019999999988
 50
284.796018
 51
287.15468199999992
  0
ARC
  5
6C
  8
0
 62
     7
 10
57.790036000000001
 20
199.70638600000001
 30
0.0
 40
2.9484369999999989
 50
287.28048999999987
 51
289.73753799999992
  0
ARC
  5
6D
  8
0
 62
     7
 10
57.982472999999992
 20
199.13970900000001
 30
0.0
 40
2.3500869999999989
 50
289.98726599999998
 51
292.82941499999993
  0
ARC
  5
6E
  8
0
 62
     7
 10
58.269075999999998
 20
198.44653099999999
 30
0.0
 40
1.6000179999999991
 50
293.00106399999987
 51
296.79642000000001
  0
ARC
  5
6F
  8
0
 62
     7
 10
58.495218999999992
 20
198.00050200000001
 30
0.0
 40
1.099936
 50
296.75581299999999
 51
301.734644
  0
ARC
  5
70
  8
0
 62
     7
 10
58.659095999999998
 20
197.75031399999989
 30
0.0
 40
0.800994
 50
301.17807199999999
 51
307.29155999999989
  0
ARC
  5
71
  8
0
 62
     7
 10
58.779904000000002
 20
197.58809099999991
 30
0.0
 40
0.598745
 50
307.499773
 51
314.72441900000001
  0
ARC
  5
72
  8
0
 62
     7
 10
58.902420999999997
 20
197.458922
 30
0.0
 40
0.420773
 50
315.248313
 51
324.26144900000003
  0
ARC
  5
73
  8
0
 62
     7
 10
59.006473999999997
 20
197.38086199999989
 30
0.0
 40
0.290732
 50
324.770962
 51
336.40405499999991
  0
ARC
  5
74
  8
0
 62
     7
 10
59.063784999999989
 20
197.350787
 30
0.0
 40
0.226221
 50
337.57412299999999
 51
351.24025899999992
  0
ARC
  5
75
  8
0
 62
     7
 10
59.072792999999997
 20
197.34226000000001
 30
0.0
 40
0.216135
 50
353.11102999999991
 51
6.8889699999999996
  0
ARC
  5
76
  8
0
 62
     7
 10
59.066414999999999
 20
197.3344669999999
 30
0.0
 40
0.22351
 50
8.6764639999999993
 51
22.509154999999989
  0
ARC
  5
77
  8
0
 62
     7
 10
59.034913000000003
 20
197.31969099999989
 30
0.0
 40
0.258274
 50
22.861951000000001
 51
35.963031999999991
  0
ARC
  5
78
  8
0
 62
     7
 10
58.974022999999988
 20
197.28620199999989
 30
0.0
 40
0.327339
 50
34.448298000000001
 51
46.041939999999997
  0
ARC
  5
79
  8
0
 62
     7
 10
58.800907999999993
 20
197.12049500000001
 30
0.0
 40
0.566869
 50
45.072158999999992
 51
52.703648999999992
  0
ARC
  5
7A
  8
0
 62
     7
 10
58.672136999999999
 20
196.9533689999999
 30
0.0
 40
0.777848
 50
52.617393000000007
 51
58.91297500000001
  0
ARC
  5
7B
  8
0
 62
     7
 10
58.545476000000001
 20
196.773774
 30
0.0
 40
0.997175
 50
58.008628000000002
 51
63.500915999999997
  0
ARC
  5
7C
  8
0
 62
     7
 10
58.322798999999989
 20
196.35373200000001
 30
0.0
 40
1.472489999999999
 50
63.039158999999998
 51
67.163356999999991
  0
ARC
  5
7D
  8
0
 62
     7
 10
58.152625999999998
 20
195.97880499999999
 30
0.0
 40
1.884107
 50
66.819022000000004
 51
70.364296999999993
  0
ARC
  5
7E
  8
0
 62
     7
 10
57.945419999999991
 20
195.442285
 30
0.0
 40
2.4591020000000001
 50
70.017949999999999
 51
72.964022
  0
ARC
  5
7F
  8
0
 62
     7
 10
57.801774000000002
 20
195.01510400000001
 30
0.0
 40
2.9096479999999989
 50
72.723957999999996
 51
75.405148999999994
  0
ARC
  5
80
  8
0
 62
     7
 10
57.395226000000001
 20
193.50653700000001
 30
0.0
 40
4.4719999999999986
 50
75.234778000000006
 51
77.089569999999995
  0
ARC
  5
81
  8
0
 62
     7
 10
57.50069100000001
 20
194.009973
 30
0.0
 40
3.9577379999999991
 50
76.949400999999995
 51
79.167076000000009
  0
ARC
  5
82
  8
0
 62
     7
 10
57.096978
 20
191.91831999999991
 30
0.0
 40
6.0879940000000001
 50
79.135059000000012
 51
80.650069999999985
  0
ARC
  5
83
  8
0
 62
     7
 10
56.55748599999999
 20
188.27966099999989
 30
0.0
 40
9.7661359999999995
 50
80.995187000000001
 51
81.978215000000006
  0
ARC
  5
84
  8
0
 62
     7
 10
56.982031999999997
 20
191.0884539999999
 30
0.0
 40
6.9256409999999997
 50
82.213383999999976
 51
83.649406999999997
  0
ARC
  5
85
  8
0
 62
     7
 10
56.757173000000002
 20
188.853937
 30
0.0
 40
9.1713490000000011
 50
83.797372999999993
 51
84.913363999999987
  0
ARC
  5
86
  8
0
 62
     7
 10
57.028632999999999
 20
192.04632799999999
 30
0.0
 40
5.9674750000000003
 50
84.791886999999988
 51
86.543466000000009
  0
ARC
  5
87
  8
0
 62
     7
 10
56.920026999999997
 20
191.03771399999991
 30
0.0
 40
6.9809649999999994
 50
86.152803000000006
 51
87.676281000000003
  0
ARC
  5
88
  8
0
 62
     7
 10
56.88643299999999
 20
190.8820659999999
 30
0.0
 40
7.137897999999999
 50
87.457504999999983
 51
88.962654000000001
  0
ARC
  5
89
  8
0
 62
     7
 10
56.828992999999997
 20
189.59236299999989
 30
0.0
 40
8.4284990000000004
 50
88.730968999999973
 51
90.012116000000006
  0
ARC
  5
8A
  8
0
 62
     7
 10
56.82573399999999
 20
189.56423599999999
 30
0.0
 40
8.4566259999999982
 50
89.989994999999993
 51
91.266880000000015
  0
ARC
  5
8B
  8
0
 62
     7
 10
56.856152000000002
 20
188.060745
 30
0.0
 40
9.9604219999999994
 50
91.250593000000009
 51
92.329207999999994
  0
ARC
  5
8C
  8
0
 62
     7
 10
56.879770999999998
 20
188.34067300000001
 30
0.0
 40
9.6817479999999971
 50
92.536197999999999
 51
93.634677000000011
  0
ARC
  5
8D
  8
0
 62
     7
 10
57.046888000000003
 20
186.46369799999999
 30
0.0
 40
11.565642
 50
93.871430000000004
 51
94.776859999999985
  0
ARC
  5
8E
  8
0
 62
     7
 10
56.628931999999992
 20
191.57932699999989
 30
0.0
 40
6.4329819999999991
 50
94.861493999999993
 51
96.449507999999994
  0
ARC
  5
8F
  8
0
 62
     7
 10
56.647038999999999
 20
191.2928729999999
 30
0.0
 40
6.7196720000000001
 50
96.328563000000003
 51
97.808605000000014
  0
ARC
  5
90
  8
0
 62
     7
 10
57.102072
 20
188.22402
 30
0.0
 40
9.8219499999999993
 50
98.006160000000008
 51
98.985590000000002
  0
ARC
  5
91
  8
0
 62
     7
 10
56.584161000000002
 20
191.7808159999999
 30
0.0
 40
6.2280699999999989
 50
99.390073999999984
 51
100.86788799999999
  0
ARC
  5
92
  8
0
 62
     7
 10
56.217925000000001
 20
193.70643000000001
 30
0.0
 40
4.2679419999999988
 50
100.913506
 51
102.969977
  0
ARC
  5
93
  8
0
 62
     7
 10
56.157167000000001
 20
193.910403
 30
0.0
 40
4.0555580000000004
 50
102.780271
 51
104.83026599999999
  0
ARC
  5
94
  8
0
 62
     7
 10
56.032105000000001
 20
194.394991
 30
0.0
 40
3.555102999999999
 50
104.880832
 51
107.069827
  0
ARC
  5
95
  8
0
 62
     7
 10
55.762739000000003
 20
195.28175599999989
 30
0.0
 40
2.628334999999999
 50
107.13082300000001
 51
109.88716599999989
  0
ARC
  5
96
  8
0
 62
     7
 10
55.567788
 20
195.81047599999991
 30
0.0
 40
2.0648330000000001
 50
109.79087699999999
 51
113.0257629999999
  0
ARC
  5
97
  8
0
 62
     7
 10
55.311348000000002
 20
196.39740699999999
 30
0.0
 40
1.4243719999999991
 50
112.7669309999999
 51
117.0305139999999
  0
ARC
  5
98
  8
0
 62
     7
 10
55.184144000000003
 20
196.63501199999999
 30
0.0
 40
1.1549240000000001
 50
116.7663129999999
 51
121.522887
  0
ARC
  5
99
  8
0
 62
     7
 10
55.001999999999988
 20
196.92388600000001
 30
0.0
 40
0.8134579999999999
 50
121.22493299999999
 51
127.244659
  0
ARC
  5
9A
  8
0
 62
     7
 10
54.893459
 20
197.07738499999999
 30
0.0
 40
0.6256070000000001
 50
127.839561
 51
134.72983199999999
  0
ARC
  5
9B
  8
0
 62
     7
 10
54.720950000000002
 20
197.2518759999999
 30
0.0
 40
0.380236
 50
134.76669199999989
 51
144.743031
  0
ARC
  5
9C
  8
0
 62
     7
 10
54.622827000000001
 20
197.3178179999999
 30
0.0
 40
0.262062
 50
144.13204699999989
 51
157.04293000000001
  0
ARC
  5
9D
  8
0
 62
     7
 10
54.58180999999999
 20
197.336195
 30
0.0
 40
0.217128
 50
157.28649699999991
 51
171.5278449999999
  0
ARC
  5
9E
  8
0
 62
     7
 10
54.581625000000003
 20
197.34226000000001
 30
0.0
 40
0.216135
 50
173.1109909999999
 51
186.88900899999999
  0
ARC
  5
9F
  8
0
 62
     7
 10
54.592112999999991
 20
197.35120000000001
 30
0.0
 40
0.227746
 50
188.80573699999999
 51
202.37992099999991
  0
ARC
  5
A0
  8
0
 62
     7
 10
54.616354000000001
 20
197.36305200000001
 30
0.0
 40
0.25468
 50
202.769105
 51
216.05591799999999
  0
ARC
  5
A1
  8
0
 62
     7
 10
54.68274499999999
 20
197.400306
 30
0.0
 40
0.330401
 50
214.50222899999989
 51
225.98804799999999
  0
ARC
  5
A2
  8
0
 62
     7
 10
54.846314999999997
 20
197.555779
 30
0.0
 40
0.5559500000000001
 50
224.99712500000001
 51
232.7787229999999
  0
ARC
  5
A3
  8
0
 62
     7
 10
54.982914999999998
 20
197.729196
 30
0.0
 40
0.7766810000000001
 50
232.492762
 51
238.77678700000001
  0
ARC
  5
A4
  8
0
 62
     7
 10
55.176541
 20
198.03587300000001
 30
0.0
 40
1.1393269999999991
 50
238.44453599999991
 51
243.26626400000001
  0
ARC
  5
A5
  8
0
 62
     7
 10
55.305946999999989
 20
198.27547799999999
 30
0.0
 40
1.411554
 50
242.95011799999989
 51
247.25243699999999
  0
ARC
  5
A6
  8
0
 62
     7
 10
55.51566600000001
 20
198.74109899999991
 30
0.0
 40
1.9220969999999999
 50
246.85408899999999
 51
250.32927000000001
  0
ARC
  5
A7
  8
0
 62
     7
 10
55.686737999999998
 20
199.17573999999999
 30
0.0
 40
2.389003999999999
 50
249.974738
 51
253.007273
  0
ARC
  5
A8
  8
0
 62
     7
 10
55.915778000000003
 20
199.88318599999999
 30
0.0
 40
3.132525999999999
 50
252.78250299999991
 51
255.26683700000001
  0
ARC
  5
A9
  8
0
 62
     7
 10
56.070665000000012
 20
200.42208400000001
 30
0.0
 40
3.6931169999999991
 50
255.06912799999989
 51
257.320335
  0
ARC
  5
AA
  8
0
 62
     7
 10
56.195306999999993
 20
200.89346099999989
 30
0.0
 40
4.1803970000000001
 50
257.07178299999993
 51
259.170838
  0
ARC
  5
AB
  8
0
 62
     7
 10
56.393749999999997
 20
201.80725699999999
 30
0.0
 40
5.1152559999999987
 50
258.91070999999999
 51
260.71038399999992
  0
ARC
  5
AC
  8
0
 62
     7
 10
56.669468999999992
 20
203.564458
 30
0.0
 40
6.8939289999999991
 50
260.80640699999992
 51
262.20184199999989
  0
ARC
  5
AD
  8
0
 62
     7
 10
56.706918999999992
 20
203.874551
 30
0.0
 40
7.2062379999999999
 50
262.24136299999998
 51
263.62146799999999
  0
ARC
  5
AE
  8
0
 62
     7
 10
56.721539999999997
 20
204.04034999999999
 30
0.0
 40
7.3726359999999991
 50
263.65169400000002
 51
265.03730400000001
  0
ARC
  5
AF
  8
0
 62
     7
 10
56.737466000000012
 20
204.1287089999999
 30
0.0
 40
7.4620449999999989
 50
264.97416800000002
 51
266.37754199999989
  0
ARC
  5
B0
  8
0
 62
     7
 10
56.789070999999993
 20
204.80136200000001
 30
0.0
 40
8.1366199999999989
 50
266.31414799999988
 51
267.62117000000001
  0
ARC
  5
B1
  8
0
 62
     7
 10
56.812173999999999
 20
204.972351
 30
0.0
 40
8.3084360000000004
 50
267.51092899999992
 51
268.8040529999999
  0
LINE
  5
B2
  8
0
 62
     7
 10
56.638800000000003
 20
196.666
 30
0.0
 11
56.827199999999991
 21
196.66399999999999
 31
0.0
  0
ARC
  5
B3
  8
0
 62
     7
 10
59.325628000000002
 20
197.58210700000001
 30
0.0
 40
0.213233
 50
0.097752
 51
15.322424
  0
ARC
  5
B4
  8
0
 62
     7
 10
59.302678
 20
197.577134
 30
0.0
 40
0.236685
 50
15.015304999999991
 51
29.565854999999999
  0
ARC
  5
B5
  8
0
 62
     7
 10
59.208030999999998
 20
197.52886000000001
 30
0.0
 40
0.34286
 50
28.778306000000001
 51
39.917962000000003
  0
ARC
  5
B6
  8
0
 62
     7
 10
59.093977000000002
 20
197.433009
 30
0.0
 40
0.4918420000000001
 50
39.955959
 51
48.748219999999989
  0
ARC
  5
B7
  8
0
 62
     7
 10
58.976177
 20
197.31271100000001
 30
0.0
 40
0.6600229999999999
 50
47.945872999999992
 51
55.349409999999992
  0
ARC
  5
B8
  8
0
 62
     7
 10
58.739164999999993
 20
196.97280000000001
 30
0.0
 40
1.0744039999999999
 50
55.258126000000011
 51
60.382594999999981
  0
ARC
  5
B9
  8
0
 62
     7
 10
58.623231000000011
 20
196.786451
 30
0.0
 40
1.2937309999999991
 50
59.997668000000012
 51
64.718181999999999
  0
ARC
  5
BA
  8
0
 62
     7
 10
58.255192999999998
 20
196.00126299999991
 30
0.0
 40
2.160892
 50
64.785657
 51
67.917288999999997
  0
ARC
  5
BB
  8
0
 62
     7
 10
58.093198000000001
 20
195.58109899999991
 30
0.0
 40
2.6111459999999989
 50
68.089453000000006
 51
70.906426999999994
  0
ARC
  5
BC
  8
0
 62
     7
 10
57.853527
 20
194.86147399999999
 30
0.0
 40
3.369591999999999
 50
71.057969999999983
 51
73.420190000000005
  0
ARC
  5
BD
  8
0
 62
     7
 10
57.784027000000002
 20
194.6174199999999
 30
0.0
 40
3.6233330000000001
 50
73.468114999999997
 51
75.824079999999995
  0
ARC
  5
BE
  8
0
 62
     7
 10
57.288181999999992
 20
192.652052
 30
0.0
 40
5.6502840000000001
 50
75.829883999999993
 51
77.431421999999998
  0
ARC
  5
BF
  8
0
 62
     7
 10
57.417731000000003
 20
193.19122400000001
 30
0.0
 40
5.0958500000000004
 50
77.533922000000018
 51
79.403939000000008
  0
ARC
  5
C0
  8
0
 62
     7
 10
57.054774999999999
 20
191.17071999999999
 30
0.0
 40
7.1486580000000002
 50
79.522328999999999
 51
80.920529000000002
  0
ARC
  5
C1
  8
0
 62
     7
 10
57.300170999999999
 20
192.81629599999999
 30
0.0
 40
5.485002999999999
 50
80.739210999999983
 51
82.630520000000004
  0
ARC
  5
C2
  8
0
 62
     7
 10
57.046807999999999
 20
191.09025199999999
 30
0.0
 40
7.229349
 50
82.393746999999991
 51
83.878850999999997
  0
ARC
  5
C3
  8
0
 62
     7
 10
56.976700999999991
 20
190.555181
 30
0.0
 40
7.7688550000000003
 50
83.785539999999983
 51
85.202254000000011
  0
ARC
  5
C4
  8
0
 62
     7
 10
56.867474000000001
 20
189.34922900000001
 30
0.0
 40
8.9797210000000014
 50
85.151336000000001
 51
86.405529000000016
  0
ARC
  5
C5
  8
0
 62
     7
 10
56.849254000000002
 20
189.037025
 30
0.0
 40
9.2924539999999993
 50
86.414094000000006
 51
87.643559999999994
  0
ARC
  5
C6
  8
0
 62
     7
 10
56.832584999999987
 20
188.64080100000001
 30
0.0
 40
9.6890280000000004
 50
87.641407999999984
 51
88.833790000000008
  0
ARC
  5
C7
  8
0
 62
     7
 10
56.810634999999998
 20
187.667047
 30
0.0
 40
10.663027
 50
88.822359000000006
 51
89.91092900000001
  0
ARC
  5
C8
  8
0
 62
     7
 10
56.825628999999999
 20
189.2783949999999
 30
0.0
 40
9.0516660000000009
 50
89.989989000000008
 51
91.274532999999977
  0
ARC
  5
C9
  8
0
 62
     7
 10
56.823042000000001
 20
188.612551
 30
0.0
 40
9.7173039999999986
 50
91.171955999999994
 51
92.358838000000006
  0
ARC
  5
CA
  8
0
 62
     7
 10
56.811261000000002
 20
188.91955300000001
 30
0.0
 40
9.4100770000000011
 50
92.364103999999983
 51
93.578202000000005
  0
ARC
  5
CB
  8
0
 62
     7
 10
56.79741700000001
 20
189.20734999999999
 30
0.0
 40
9.1219770000000011
 50
93.604230999999999
 51
94.838864999999984
  0
ARC
  5
CC
  8
0
 62
     7
 10
56.871701999999999
 20
188.52347199999991
 30
0.0
 40
9.8096990000000002
 50
94.934256999999988
 51
96.058224999999993
  0
ARC
  5
CD
  8
0
 62
     7
 10
56.921444999999999
 20
188.499698
 30
0.0
 40
9.8387019999999996
 50
96.331679000000008
 51
97.420907999999983
  0
ARC
  5
CE
  8
0
 62
     7
 10
56.402487999999998
 20
192.47397799999999
 30
0.0
 40
5.8306820000000004
 50
97.408117000000004
 51
99.190638000000007
  0
ARC
  5
CF
  8
0
 62
     7
 10
56.537154999999998
 20
191.54568999999989
 30
0.0
 40
6.768578999999999
 50
99.060884000000016
 51
100.534728
  0
ARC
  5
D0
  8
0
 62
     7
 10
56.80509
 20
190.387878
 30
0.0
 40
7.9560309999999994
 50
100.907298
 51
102.1074459999999
  0
ARC
  5
D1
  8
0
 62
     7
 10
56.416086
 20
192.44085699999991
 30
0.0
 40
5.8673419999999989
 50
102.598184
 51
104.14046999999999
  0
ARC
  5
D2
  8
0
 62
     7
 10
55.982762999999998
 20
194.21690399999989
 30
0.0
 40
4.0392720000000004
 50
104.334733
 51
106.443354
  0
ARC
  5
D3
  8
0
 62
     7
 10
55.72678299999999
 20
195.09283699999989
 30
0.0
 40
3.1267059999999991
 50
106.488026
 51
109.03377399999999
  0
ARC
  5
D4
  8
0
 62
     7
 10
55.648620999999999
 20
195.34736299999989
 30
0.0
 40
2.8606199999999991
 50
109.216408
 51
111.7876709999999
  0
ARC
  5
D5
  8
0
 62
     7
 10
55.30175899999999
 20
196.22383899999991
 30
0.0
 40
1.918013
 50
111.88435200000001
 51
115.412662
  0
ARC
  5
D6
  8
0
 62
     7
 10
55.152500000000003
 20
196.54946100000001
 30
0.0
 40
1.5598540000000001
 50
115.59334199999989
 51
119.51937599999989
  0
ARC
  5
D7
  8
0
 62
     7
 10
54.87960300000001
 20
197.03279399999991
 30
0.0
 40
1.0048010000000001
 50
119.55785299999999
 51
125.020923
  0
ARC
  5
D8
  8
0
 62
     7
 10
54.69941
 20
197.285956
 30
0.0
 40
0.6940720000000001
 50
124.832402
 51
131.872275
  0
ARC
  5
D9
  8
0
 62
     7
 10
54.569639000000002
 20
197.4240179999999
 30
0.0
 40
0.504667
 50
131.36368999999991
 51
139.9320909999999
  0
ARC
  5
DA
  8
0
 62
     7
 10
54.476370999999993
 20
197.5083689999999
 30
0.0
 40
0.379021
 50
140.61486099999999
 51
150.68882999999991
  0
ARC
  5
DB
  8
0
 62
     7
 10
54.375706000000001
 20
197.56730999999999
 30
0.0
 40
0.262398
 50
151.15033700000001
 51
164.26846399999991
  0
ARC
  5
DC
  8
0
 62
     7
 10
54.341118000000002
 20
197.5804379999999
 30
0.0
 40
0.225569
 50
165.096137
 51
179.48364699999991
  0
LINE
  5
DD
  8
0
 62
     7
 10
56.827199999999991
 20
196.654
 30
0.0
 11
57.017699999999991
 21
196.65599999999989
 31
0.0
  0
ARC
  5
DE
  8
0
 62
     7
 10
56.840538000000002
 20
205.45663099999999
 30
0.0
 40
8.8023360000000004
 50
271.15341799999999
 51
272.38739500000003
  0
ARC
  5
DF
  8
0
 62
     7
 10
56.855150999999992
 20
205.213314
 30
0.0
 40
8.5586219999999997
 50
272.35751199999999
 51
273.61851100000001
  0
ARC
  5
E0
  8
0
 62
     7
 10
56.773156
 20
206.252701
 30
0.0
 40
9.6011259999999972
 50
273.71537799999999
 51
274.82042799999988
  0
ARC
  5
E1
  8
0
 62
     7
 10
56.759734000000002
 20
206.03625400000001
 30
0.0
 40
9.3866259999999997
 50
275.01308899999998
 51
276.12870299999992
  0
ARC
  5
E2
  8
0
 62
     7
 10
56.833064999999998
 20
205.080682
 30
0.0
 40
8.4287369999999981
 50
276.32656700000001
 51
277.53917999999987
  0
ARC
  5
E3
  8
0
 62
     7
 10
56.988859999999988
 20
203.75603099999989
 30
0.0
 40
7.095121999999999
 50
277.695448
 51
279.09595799999988
  0
ARC
  5
E4
  8
0
 62
     7
 10
57.162739000000002
 20
202.61003600000001
 30
0.0
 40
5.936056999999999
 50
279.18742099999992
 51
280.81499300000002
  0
ARC
  5
E5
  8
0
 62
     7
 10
57.258166000000003
 20
202.10758999999999
 30
0.0
 40
5.4246299999999996
 50
280.820763
 51
282.537487
  0
ARC
  5
E6
  8
0
 62
     7
 10
57.329897000000003
 20
201.69067100000001
 30
0.0
 40
5.0021230000000001
 50
282.77210600000001
 51
284.56721699999991
  0
ARC
  5
E7
  8
0
 62
     7
 10
57.658631999999997
 20
200.40534700000001
 30
0.0
 40
3.67544
 50
284.64691299999998
 51
286.99149099999988
  0
ARC
  5
E8
  8
0
 62
     7
 10
57.840563000000003
 20
199.79889
 30
0.0
 40
3.0422919999999989
 50
287.05240499999991
 51
289.774315
  0
ARC
  5
E9
  8
0
 62
     7
 10
58.036253000000002
 20
199.23290700000001
 30
0.0
 40
2.4434900000000002
 50
289.94619699999998
 51
293.17784499999988
  0
ARC
  5
EA
  8
0
 62
     7
 10
58.286261000000003
 20
198.65231499999999
 30
0.0
 40
1.8113589999999991
 50
293.13621799999999
 51
297.32945899999999
  0
ARC
  5
EB
  8
0
 62
     7
 10
58.486519999999999
 20
198.25885
 30
0.0
 40
1.3698749999999991
 50
297.4439119999999
 51
302.70755999999989
  0
ARC
  5
EC
  8
0
 62
     7
 10
58.716802000000001
 20
197.90756499999989
 30
0.0
 40
0.9498639999999999
 50
302.46922000000001
 51
309.51090299999993
  0
ARC
  5
ED
  8
0
 62
     7
 10
58.809341000000011
 20
197.7938629999999
 30
0.0
 40
0.8032679999999999
 50
309.57841000000002
 51
316.86739399999999
  0
ARC
  5
EE
  8
0
 62
     7
 10
58.88964399999999
 20
197.71151099999989
 30
0.0
 40
0.6883820000000001
 50
317.29985499999992
 51
324.68520899999987
  0
ARC
  5
EF
  8
0
 62
     7
 10
59.007368999999997
 20
197.61886000000001
 30
0.0
 40
0.5388130000000001
 50
325.48794299999997
 51
333.83616000000001
  0
ARC
  5
F0
  8
0
 62
     7
 10
59.035119999999992
 20
197.60546099999999
 30
0.0
 40
0.507998
 50
333.81243799999999
 51
341.97657199999998
  0
ARC
  5
F1
  8
0
 62
     7
 10
59.096950999999997
 20
197.58103899999989
 30
0.0
 40
0.4416640000000001
 50
342.50744400000002
 51
351.43879099999998
  0
ARC
  5
F2
  8
0
 62
     7
 10
59.103112000000003
 20
197.582201
 30
0.0
 40
0.4357490000000001
 50
351.16715699999992
 51
0.035433
  0
ARC
  5
F3
  8
0
 62
     7
 10
54.586595999999993
 20
197.582526
 30
0.0
 40
0.471038
 50
180.00672099999991
 51
188.20631299999991
  0
ARC
  5
F4
  8
0
 62
     7
 10
54.644645999999987
 20
197.60310699999991
 30
0.0
 40
0.531569
 50
189.5089669999999
 51
196.97210999999999
  0
ARC
  5
F5
  8
0
 62
     7
 10
54.624281999999987
 20
197.60775799999999
 30
0.0
 40
0.5135550000000001
 50
198.1316469999999
 51
206.27534499999999
  0
ARC
  5
F6
  8
0
 62
     7
 10
54.649324
 20
197.62052700000001
 30
0.0
 40
0.541663
 50
206.31387100000001
 51
214.7181129999999
  0
ARC
  5
F7
  8
0
 62
     7
 10
54.673703000000003
 20
197.636537
 30
0.0
 40
0.57082
 50
214.64535599999991
 51
223.63866999999999
  0
ARC
  5
F8
  8
0
 62
     7
 10
54.841196999999987
 20
197.78971100000001
 30
0.0
 40
0.7977560000000001
 50
223.29852399999999
 51
230.744235
  0
ARC
  5
F9
  8
0
 62
     7
 10
54.914735999999991
 20
197.87632400000001
 30
0.0
 40
0.9113610000000001
 50
230.60992999999999
 51
238.00229100000001
  0
ARC
  5
FA
  8
0
 62
     7
 10
55.151411000000003
 20
198.22715600000001
 30
0.0
 40
1.334384
 50
237.36610399999989
 51
242.79550499999991
  0
ARC
  5
FB
  8
0
 62
     7
 10
55.359394000000002
 20
198.635052
 30
0.0
 40
1.792241999999999
 50
242.843504
 51
247.08679000000001
  0
ARC
  5
FC
  8
0
 62
     7
 10
55.540303000000002
 20
199.03980999999999
 30
0.0
 40
2.2355160000000001
 50
246.85491200000001
 51
250.3922849999999
  0
ARC
  5
FD
  8
0
 62
     7
 10
55.776818999999989
 20
199.70085399999991
 30
0.0
 40
2.9375969999999998
 50
250.37338799999989
 51
253.18915699999991
  0
ARC
  5
FE
  8
0
 62
     7
 10
55.893515000000001
 20
200.03678199999999
 30
0.0
 40
3.292951
 50
252.9359089999999
 51
255.55204699999999
  0
ARC
  5
FF
  8
0
 62
     7
 10
56.088045999999999
 20
200.696325
 30
0.0
 40
3.9802430000000002
 50
255.2091209999999
 51
257.45493399999992
  0
ARC
  5
100
  8
0
 62
     7
 10
56.433399000000001
 20
202.291617
 30
0.0
 40
5.612468999999999
 50
257.55092000000002
 51
259.20982900000001
  0
ARC
  5
101
  8
0
 62
     7
 10
56.374246999999997
 20
201.96741399999991
 30
0.0
 40
5.2829249999999988
 50
259.1817529999999
 51
261.00623300000001
  0
ARC
  5
102
  8
0
 62
     7
 10
56.606119999999997
 20
203.35532399999991
 30
0.0
 40
6.6900300000000001
 50
260.90298999999987
 51
262.38517300000001
  0
ARC
  5
103
  8
0
 62
     7
 10
56.627485
 20
203.49442400000001
 30
0.0
 40
6.8307349999999998
 50
262.36216300000001
 51
263.8554309999999
  0
ARC
  5
104
  8
0
 62
     7
 10
56.743575999999997
 20
204.48476199999999
 30
0.0
 40
7.8278149999999993
 50
263.78647799999999
 51
265.11660999999998
  0
ARC
  5
105
  8
0
 62
     7
 10
56.738352999999996
 20
204.288704
 30
0.0
 40
7.6320319999999997
 50
265.03037399999999
 51
266.41796399999998
  0
ARC
  5
106
  8
0
 62
     7
 10
56.878050999999999
 20
206.80913499999991
 30
0.0
 40
10.156283999999991
 50
266.51976899999988
 51
267.57652400000001
  0
ARC
  5
107
  8
0
 62
     7
 10
56.816386999999999
 20
205.22024899999991
 30
0.0
 40
8.5662140000000004
 50
267.53922
 51
268.80264199999988
  0
LINE
  5
108
  8
0
 62
     7
 10
56.6374
 20
196.65599999999989
 30
0.0
 11
56.827199999999991
 21
196.654
 31
0.0
  0
ARC
  5
109
  8
0
 62
     7
 10
142.57420200000001
 20
157.37366
 30
0.0
 40
0.087783
 50
146.4129989999999
 51
151.65945500000001
  0
ARC
  5
10A
  8
0
 62
     7
 10
143.15352599999991
 20
157.0637879999999
 30
0.0
 40
0.7444250000000001
 50
149.293057
 51
151.21714700000001
  0
ARC
  5
10B
  8
0
 62
     7
 10
145.83495300000001
 20
155.64679699999991
 30
0.0
 40
3.7764899999999999
 50
150.963911
 51
151.58379500000001
  0
ARC
  5
10C
  8
0
 62
     7
 10
144.27352300000001
 20
156.553764
 30
0.0
 40
1.9714169999999991
 50
150.30403599999991
 51
151.98460800000001
  0
ARC
  5
10D
  8
0
 62
     7
 10
139.66465400000001
 20
159.12067999999991
 30
0.0
 40
3.3042289999999999
 50
331.23052200000001
 51
332.49736300000001
  0
ARC
  5
10E
  8
0
 62
     7
 10
138.957222
 20
159.53553899999989
 30
0.0
 40
4.1234979999999997
 50
331.92362200000002
 51
333.15903700000001
  0
ARC
  5
10F
  8
0
 62
     7
 10
136.52748099999999
 20
160.7979179999999
 30
0.0
 40
6.8615130000000004
 50
332.9143049999999
 51
333.786585
  0
ARC
  5
110
  8
0
 62
     7
 10
140.0300389999999
 20
159.129603
 30
0.0
 40
2.9826799999999989
 50
332.81839200000002
 51
335.0945779999999
  0
ARC
  5
111
  8
0
 62
     7
 10
161.24638999999991
 20
149.4353219999999
 30
0.0
 40
20.343605
 50
155.12260599999999
 51
155.4942439999999
  0
ARC
  5
112
  8
0
 62
     7
 10
137.31009800000001
 20
160.40968599999999
 30
0.0
 40
5.9893859999999988
 50
336.207583
 51
337.5763839999999
  0
ARC
  5
113
  8
0
 62
     7
 10
139.473871
 20
159.5601629999999
 30
0.0
 40
3.6653859999999998
 50
336.94977599999987
 51
339.35199599999999
  0
ARC
  5
114
  8
0
 62
     7
 10
137.66991699999991
 20
160.27652399999999
 30
0.0
 40
5.6061740000000002
 50
339.00222400000001
 51
340.65647299999989
  0
ARC
  5
115
  8
0
 62
     7
 10
137.89545200000001
 20
160.21865099999991
 30
0.0
 40
5.3742380000000001
 50
340.44220200000001
 51
342.24489799999992
  0
ARC
  5
116
  8
0
 62
     7
 10
137.0497409999999
 20
160.44493600000001
 30
0.0
 40
6.2488159999999997
 50
342.63358899999997
 51
344.22875599999998
  0
ARC
  5
117
  8
0
 62
     7
 10
134.08042900000001
 20
161.165043
 30
0.0
 40
9.3027699999999989
 50
344.93123100000003
 51
346.03155199999992
  0
ARC
  5
118
  8
0
 62
     7
 10
135.43909500000001
 20
160.665235
 30
0.0
 40
7.865202
 50
347.1757859999999
 51
348.49797599999988
  0
ARC
  5
119
  8
0
 62
     7
 10
139.43327899999991
 20
159.871926
 30
0.0
 40
3.7930899999999999
 50
348.20986299999993
 51
351.00892999999991
  0
ARC
  5
11A
  8
0
 62
     7
 10
130.3899209999999
 20
161.1614919999999
 30
0.0
 40
12.927617
 50
351.627567
 51
352.46627000000001
  0
ARC
  5
11B
  8
0
 62
     7
 10
135.9289959999999
 20
160.259028
 30
0.0
 40
7.3199729999999992
 50
353.784876
 51
355.28565800000001
  0
ARC
  5
11C
  8
0
 62
     7
 10
138.199106
 20
160.04685599999999
 30
0.0
 40
5.0401669999999994
 50
355.56847499999992
 51
357.80467499999992
  0
ARC
  5
11D
  8
0
 62
     7
 10
139.39998399999999
 20
160.01351699999989
 30
0.0
 40
3.838913999999999
 50
357.61532099999999
 51
0.618853
  0
ARC
  5
11E
  8
0
 62
     7
 10
138.5872949999999
 20
160.05658
 30
0.0
 40
4.6513790000000004
 50
359.980301
 51
2.514597999999999
  0
ARC
  5
11F
  8
0
 62
     7
 10
136.8662379999999
 20
159.95116899999991
 30
0.0
 40
6.3754730000000004
 50
2.7824049999999989
 51
4.6844349999999988
  0
ARC
  5
120
  8
0
 62
     7
 10
138.98247799999999
 20
160.14752699999991
 30
0.0
 40
4.2503279999999988
 50
4.376085999999999
 51
7.2987799999999989
  0
ARC
  5
121
  8
0
 62
     7
 10
135.42075800000001
 20
159.68646799999991
 30
0.0
 40
7.8417639999999986
 50
7.3340739999999993
 51
8.9513529999999992
  0
ARC
  5
122
  8
0
 62
     7
 10
135.5890719999999
 20
159.69129099999989
 30
0.0
 40
7.6747800000000002
 50
9.1112929999999999
 51
10.792987
  0
ARC
  5
123
  8
0
 62
     7
 10
135.82469900000001
 20
159.6968949999999
 30
0.0
 40
7.4423719999999989
 50
11.090301999999999
 51
12.830902999999999
  0
ARC
  5
124
  8
0
 62
     7
 10
136.501766
 20
159.86176099999989
 30
0.0
 40
6.7456059999999987
 50
12.742653999999989
 51
14.646219
  0
ARC
  5
125
  8
0
 62
     7
 10
133.64702199999999
 20
159.08590000000001
 30
0.0
 40
9.7038060000000002
 50
14.816433999999999
 51
16.105998
  0
ARC
  5
126
  8
0
 62
     7
 10
134.47082800000001
 20
159.34706099999991
 30
0.0
 40
8.839913000000001
 50
15.96097799999999
 51
17.310363999999989
  0
ARC
  5
127
  8
0
 62
     7
 10
122.3514659999999
 20
155.43056599999991
 30
0.0
 40
21.576105999999989
 50
17.663598
 51
18.180895
  0
ARC
  5
128
  8
0
 62
     7
 10
136.90142199999991
 20
160.20535499999991
 30
0.0
 40
6.262719999999999
 50
18.212342
 51
19.846073000000001
  0
ARC
  5
129
  8
0
 62
     7
 10
130.51873499999999
 20
157.96147300000001
 30
0.0
 40
13.028233999999999
 50
19.598593000000001
 51
20.304583999999998
  0
ARC
  5
12A
  8
0
 62
     7
 10
129.92953700000001
 20
157.74703600000001
 30
0.0
 40
13.65523299999999
 50
20.290545999999988
 51
20.886592999999991
  0
ARC
  5
12B
  8
0
 62
     7
 10
167.65572999999989
 20
172.382743
 30
0.0
 40
26.810742999999999
 50
201.10274799999999
 51
201.36498199999991
  0
LINE
  5
12C
  8
0
 62
     7
 10
142.643
 20
162.7299999999999
 30
0.0
 11
142.6039999999999
 21
162.827
 31
0.0
  0
ARC
  5
12D
  8
0
 62
     7
 10
139.54688400000001
 20
161.64576700000001
 30
0.0
 40
3.2771159999999999
 50
21.126304999999991
 51
22.645274000000001
  0
LINE
  5
12E
  8
0
 62
     7
 10
142.571
 20
162.9079999999999
 30
0.0
 11
142.5439999999999
 21
162.97200000000001
 31
0.0
  0
LINE
  5
12F
  8
0
 62
     7
 10
142.5439999999999
 20
162.97200000000001
 30
0.0
 11
142.524
 21
163.02099999999999
 31
0.0
  0
ARC
  5
130
  8
0
 62
     7
 10
144.9102629999999
 20
164.091825
 30
0.0
 40
2.6155930000000001
 50
203.33726299999989
 51
204.16176100000001
  0
ARC
  5
131
  8
0
 62
     7
 10
142.78321899999989
 20
163.17749299999991
 30
0.0
 40
0.300375
 50
199.67763299999999
 51
203.92522099999991
  0
ARC
  5
132
  8
0
 62
     7
 10
142.59613999999999
 20
163.12853200000001
 30
0.0
 40
0.10905
 50
204.540907
 51
208.58922899999999
  0
ARC
  5
133
  8
0
 62
     7
 10
111.67045899999999
 20
166.00795400000001
 30
0.0
 40
0.08728
 50
205.72164799999999
 51
210.07292699999999
  0
ARC
  5
134
  8
0
 62
     7
 10
112.79370299999999
 20
166.74059999999989
 30
0.0
 40
1.4276610000000001
 50
211.88727700000001
 51
212.66404399999999
  0
ARC
  5
135
  8
0
 62
     7
 10
110.7817889999999
 20
165.5151469999999
 30
0.0
 40
0.9282459999999998
 50
30.512308000000001
 51
32.545662
  0
ARC
  5
136
  8
0
 62
     7
 10
113.34696599999999
 20
167.153437
 30
0.0
 40
2.1154570000000001
 50
211.30346800000001
 51
212.57346200000001
  0
ARC
  5
137
  8
0
 62
     7
 10
113.461361
 20
167.29073500000001
 30
0.0
 40
2.285267999999999
 50
211.22192599999991
 51
212.75464600000001
  0
ARC
  5
138
  8
0
 62
     7
 10
116.27539299999999
 20
169.10865000000001
 30
0.0
 40
5.6348739999999991
 50
211.426772
 51
212.197641
  0
ARC
  5
139
  8
0
 62
     7
 10
114.70312699999999
 20
168.277151
 30
0.0
 40
3.8612719999999991
 50
211.69816800000001
 51
213.06322
  0
ARC
  5
13A
  8
0
 62
     7
 10
139.54988499999999
 20
184.15246200000001
 30
0.0
 40
33.346238999999997
 50
212.287295
 51
212.47409300000001
  0
ARC
  5
13B
  8
0
 62
     7
 10
102.475114
 20
160.75070600000001
 30
0.0
 40
10.496459
 50
32.174584000000003
 51
32.863725999999993
  0
ARC
  5
13C
  8
0
 62
     7
 10
103.3169879999999
 20
161.38186499999989
 30
0.0
 40
9.4471059999999998
 50
32.419080000000001
 51
33.297128999999998
  0
ARC
  5
13D
  8
0
 62
     7
 10
100.62299
 20
159.738978
 30
0.0
 40
12.601202000000001
 50
32.816198
 51
33.560232999999997
  0
ARC
  5
13E
  8
0
 62
     7
 10
101.4467699999999
 20
160.37127599999999
 30
0.0
 40
11.565419999999991
 50
33.20601099999999
 51
34.114403000000003
  0
ARC
  5
13F
  8
0
 62
     7
 10
85.864378999999985
 20
149.95038600000001
 30
0.0
 40
30.311115000000001
 50
33.903292
 51
34.286656999999991
  0
ARC
  5
140
  8
0
 62
     7
 10
78.394843000000009
 20
144.23094299999991
 30
0.0
 40
39.707994999999997
 50
35.033726000000001
 51
35.349423999999999
  0
ARC
  5
141
  8
0
 62
     7
 10
102.7445189999999
 20
161.41341
 30
0.0
 40
9.9066119999999991
 50
35.772199000000001
 51
37.070987000000002
  0
ARC
  5
142
  8
0
 62
     7
 10
105.03492799999999
 20
163.14907600000001
 30
0.0
 40
7.0328549999999996
 50
37.036762000000003
 51
38.80871599999999
  0
ARC
  5
143
  8
0
 62
     7
 10
105.30073400000001
 20
163.27957000000001
 30
0.0
 40
6.744256
 50
39.360081999999991
 51
41.042380999999992
  0
ARC
  5
144
  8
0
 62
     7
 10
107.177527
 20
164.852834
 30
0.0
 40
4.2959440000000004
 50
41.652445
 51
44.017966999999999
  0
ARC
  5
145
  8
0
 62
     7
 10
108.428253
 20
166.04625699999991
 30
0.0
 40
2.567253
 50
44.261071999999992
 51
47.777066999999988
  0
ARC
  5
146
  8
0
 62
     7
 10
108.8842179999999
 20
166.548573
 30
0.0
 40
1.888854
 50
47.779889999999988
 51
51.989646999999998
  0
ARC
  5
147
  8
0
 62
     7
 10
109.05724499999999
 20
166.77462800000001
 30
0.0
 40
1.6041959999999991
 50
51.886887000000002
 51
56.293655000000001
  0
ARC
  5
148
  8
0
 62
     7
 10
109.380201
 20
167.27077199999999
 30
0.0
 40
1.012259999999999
 50
55.916494
 51
62.216836000000008
  0
ARC
  5
149
  8
0
 62
     7
 10
109.40279099999989
 20
167.370204
 30
0.0
 40
0.914141
 50
60.564306000000023
 51
66.994324000000006
  0
ARC
  5
14A
  8
0
 62
     7
 10
109.3900169999999
 20
167.37790699999991
 30
0.0
 40
0.912163
 50
66.066602000000003
 51
72.206485999999998
  0
ARC
  5
14B
  8
0
 62
     7
 10
109.403249
 20
167.45459199999991
 30
0.0
 40
0.8351729999999999
 50
71.463177000000002
 51
78.080443999999986
  0
ARC
  5
14C
  8
0
 62
     7
 10
109.3483919999999
 20
167.282546
 30
0.0
 40
1.015001
 50
77.056397000000004
 51
82.551608999999985
  0
ARC
  5
14D
  8
0
 62
     7
 10
109.34446
 20
167.26932400000001
 30
0.0
 40
1.0286239999999991
 50
82.429879000000014
 51
88.170124999999999
  0
ARC
  5
14E
  8
0
 62
     7
 10
109.32949499999989
 20
167.06452399999989
 30
0.0
 40
1.2338260000000001
 50
87.779222000000004
 51
92.932497999999995
  0
ARC
  5
14F
  8
0
 62
     7
 10
109.3500729999999
 20
166.54153600000001
 30
0.0
 40
1.757193
 50
92.730201000000008
 51
96.743781000000027
  0
ARC
  5
150
  8
0
 62
     7
 10
109.4039489999999
 20
166.3160409999999
 30
0.0
 40
1.987638
 50
97.522788000000006
 51
101.5415229999999
  0
ARC
  5
151
  8
0
 62
     7
 10
109.449361
 20
166.0216519999999
 30
0.0
 40
2.2852060000000001
 50
101.1802789999999
 51
105.12844199999989
  0
ARC
  5
152
  8
0
 62
     7
 10
109.741879
 20
164.89563200000001
 30
0.0
 40
3.4485629999999992
 50
104.93750199999999
 51
107.88550599999991
  0
ARC
  5
153
  8
0
 62
     7
 10
109.91499499999991
 20
164.30583300000001
 30
0.0
 40
4.0630579999999989
 50
107.65442400000001
 51
110.4455339999999
  0
ARC
  5
154
  8
0
 62
     7
 10
110.213007
 20
163.38538099999991
 30
0.0
 40
5.0298049999999996
 50
109.9637729999999
 51
112.4432969999999
  0
ARC
  5
155
  8
0
 62
     7
 10
112.5535629999999
 20
157.60280800000001
 30
0.0
 40
11.268031000000001
 50
112.21788599999999
 51
113.359866
  0
ARC
  5
156
  8
0
 62
     7
 10
113.30338999999999
 20
156.040175
 30
0.0
 40
13.000071999999999
 50
113.6629749999999
 51
114.628084
  0
ARC
  5
157
  8
0
 62
     7
 10
114.666197
 20
152.95944399999991
 30
0.0
 40
16.368534
 50
114.47061100000001
 51
115.181473
  0
ARC
  5
158
  8
0
 62
     7
 10
151.30142499999991
 20
76.362465999999984
 30
0.0
 40
101.2754589999999
 50
115.499747
 51
115.6032269999999
  0
ARC
  5
159
  8
0
 62
     7
 10
69.853060999999997
 20
244.134344
 30
0.0
 40
85.224709000000004
 50
296.13225399999988
 51
296.24220600000001
  0
ARC
  5
15A
  8
0
 62
     7
 10
130.31308200000001
 20
121.1206229999999
 30
0.0
 40
51.843907999999999
 50
116.2417199999999
 51
116.4022879999999
  0
ARC
  5
15B
  8
0
 62
     7
 10
102.3370469999999
 20
177.201829
 30
0.0
 40
10.82848999999999
 50
296.37142899999998
 51
297.03869099999997
  0
ARC
  5
15C
  8
0
 62
     7
 10
104.72526499999999
 20
172.18852999999999
 30
0.0
 40
5.2768090000000001
 50
296.136822
 51
297.31791600000003
  0
ARC
  5
15D
  8
0
 62
     7
 10
103.98535699999999
 20
173.35281399999991
 30
0.0
 40
6.6497029999999988
 50
296.647897
 51
297.44112200000001
  0
ARC
  5
15E
  8
0
 62
     7
 10
104.59160799999999
 20
171.93773300000001
 30
0.0
 40
5.1138669999999991
 50
296.83679099999989
 51
297.68788000000001
  0
ARC
  5
15F
  8
0
 62
     7
 10
108.1609659999999
 20
164.8949639999999
 30
0.0
 40
2.7817620000000001
 50
116.949298
 51
118.206176
  0
ARC
  5
160
  8
0
 62
     7
 10
109.7876429999999
 20
161.45983799999991
 30
0.0
 40
6.580563999999999
 50
116.5508999999999
 51
116.95736599999989
  0
ARC
  5
161
  8
0
 62
     7
 10
107.1304929999999
 20
166.674195
 30
0.0
 40
0.728233
 50
116.5936879999999
 51
119.200828
  0
ARC
  5
162
  8
0
 62
     7
 10
106.99323200000001
 20
166.84288399999991
 30
0.0
 40
0.5153830000000002
 50
115.026161
 51
117.201638
  0
LINE
  5
163
  8
0
 62
     7
 10
106.7579999999999
 20
167.3009999999999
 30
0.0
 11
106.752
 21
167.298
 31
0.0
  0
ARC
  5
164
  8
0
 62
     7
 10
54.525385999999997
 20
166.68815799999999
 30
0.0
 40
0.19761
 50
164.82483099999999
 51
179.88510500000001
  0
ARC
  5
165
  8
0
 62
     7
 10
54.570093999999997
 20
166.67203299999991
 30
0.0
 40
0.24501
 50
150.89247299999991
 51
163.922381
  0
ARC
  5
166
  8
0
 62
     7
 10
54.61786
 20
166.65013999999999
 30
0.0
 40
0.297422
 50
139.86346399999999
 51
151.68378000000001
  0
ARC
  5
167
  8
0
 62
     7
 10
54.723098999999991
 20
166.56673000000001
 30
0.0
 40
0.4316640000000001
 50
131.21003899999991
 51
140.4037899999999
  0
ARC
  5
168
  8
0
 62
     7
 10
54.925043000000002
 20
166.33875599999999
 30
0.0
 40
0.736216
 50
125.194509
 51
131.34449399999991
  0
ARC
  5
169
  8
0
 62
     7
 10
55.108468000000002
 20
166.0537469999999
 30
0.0
 40
1.074938999999999
 50
119.72451699999991
 51
124.4285129999999
  0
ARC
  5
16A
  8
0
 62
     7
 10
55.151694999999989
 20
165.989102
 30
0.0
 40
1.152523999999999
 50
115.1083639999999
 51
119.99723299999999
  0
ARC
  5
16B
  8
0
 62
     7
 10
55.359952999999997
 20
165.592771
 30
0.0
 40
1.5999060000000001
 50
111.938653
 51
115.839057
  0
ARC
  5
16C
  8
0
 62
     7
 10
55.820587000000003
 20
164.40633500000001
 30
0.0
 40
2.8725689999999999
 50
109.25820899999999
 51
111.61967799999999
  0
ARC
  5
16D
  8
0
 62
     7
 10
55.866652000000002
 20
164.21623199999999
 30
0.0
 40
3.067288
 50
106.507773
 51
108.899309
  0
ARC
  5
16E
  8
0
 62
     7
 10
56.191631999999991
 20
163.0513149999999
 30
0.0
 40
4.2765740000000001
 50
104.414483
 51
106.2475749999999
  0
ARC
  5
16F
  8
0
 62
     7
 10
55.92061300000001
 20
164.17227800000001
 30
0.0
 40
3.1234759999999988
 50
102.0416739999999
 51
104.71822899999989
  0
ARC
  5
170
  8
0
 62
     7
 10
56.296503999999999
 20
162.57657800000001
 30
0.0
 40
4.7626109999999988
 50
100.6149919999999
 51
102.45937600000001
  0
ARC
  5
171
  8
0
 62
     7
 10
56.308420999999989
 20
162.55487600000001
 30
0.0
 40
4.786143
 50
98.782351000000006
 51
100.7073529999999
  0
ARC
  5
172
  8
0
 62
     7
 10
56.348872
 20
162.58430999999999
 30
0.0
 40
4.7634369999999997
 50
97.311164000000019
 51
99.317263999999994
  0
ARC
  5
173
  8
0
 62
     7
 10
56.722414000000001
 20
159.91309099999989
 30
0.0
 40
7.4605369999999986
 50
96.221402999999995
 51
97.545941000000013
  0
ARC
  5
174
  8
0
 62
     7
 10
56.972352000000001
 20
157.40296000000001
 30
0.0
 40
9.9829990000000013
 50
95.068998999999977
 51
96.086190000000002
  0
ARC
  5
175
  8
0
 62
     7
 10
56.881032999999988
 20
157.69432
 30
0.0
 40
9.6849289999999986
 50
93.612367999999975
 51
94.683164000000005
  0
ARC
  5
176
  8
0
 62
     7
 10
56.699604000000001
 20
160.941631
 30
0.0
 40
6.432682999999999
 50
92.181054999999986
 51
93.821972999999986
  0
ARC
  5
177
  8
0
 62
     7
 10
56.759859999999989
 20
160.64390599999999
 30
0.0
 40
6.7326629999999996
 50
91.015946000000014
 51
92.597041000000004
  0
LINE
  5
178
  8
0
 62
     7
 10
56.640500000000003
 20
167.37599999999989
 30
0.0
 11
56.827199999999991
 21
167.37700000000001
 31
0.0
  0
ARC
  5
179
  8
0
 62
     7
 10
57.09764599999999
 20
159.9943889999999
 30
0.0
 40
2.9820889999999989
 50
179.97432800000001
 51
183.259252
  0
ARC
  5
17A
  8
0
 62
     7
 10
57.054330000000007
 20
160.00269299999999
 30
0.0
 40
2.9393349999999989
 50
183.46885599999999
 51
187.111345
  0
ARC
  5
17B
  8
0
 62
     7
 10
56.638902000000002
 20
159.950039
 30
0.0
 40
2.5205850000000001
 50
187.09271699999991
 51
191.26625999999999
  0
ARC
  5
17C
  8
0
 62
     7
 10
56.754840000000002
 20
159.965755
 30
0.0
 40
2.637367999999999
 50
191.109016
 51
195.074806
  0
ARC
  5
17D
  8
0
 62
     7
 10
56.423842000000008
 20
159.87184600000001
 30
0.0
 40
2.293340999999999
 50
194.96010599999991
 51
197.96710999999999
  0
ARC
  5
17E
  8
0
 62
     7
 10
56.58014399999999
 20
170.79466099999999
 30
0.0
 40
2.464586999999999
 50
179.96497099999991
 51
184.4947479999999
  0
ARC
  5
17F
  8
0
 62
     7
 10
56.386918000000009
 20
170.76858599999991
 30
0.0
 40
2.2699379999999998
 50
184.2208279999999
 51
189.151645
  0
ARC
  5
180
  8
0
 62
     7
 10
56.586239999999997
 20
170.78652
 30
0.0
 40
2.4696139999999991
 50
188.826919
 51
193.356673
  0
ARC
  5
181
  8
0
 62
     7
 10
56.61421
 20
170.795726
 30
0.0
 40
2.4989560000000002
 50
193.4138999999999
 51
197.89398199999991
  0
ARC
  5
182
  8
0
 62
     7
 10
56.732458000000001
 20
170.83068399999999
 30
0.0
 40
2.6222259999999991
 50
197.82700099999991
 51
202.104783
  0
ARC
  5
183
  8
0
 62
     7
 10
56.679693999999998
 20
170.81458599999999
 30
0.0
 40
2.5672890000000002
 50
202.215045
 51
206.58953500000001
  0
ARC
  5
184
  8
0
 62
     7
 10
56.593542999999997
 20
170.768584
 30
0.0
 40
2.4696599999999989
 50
206.5297699999999
 51
211.09185099999991
  0
ARC
  5
185
  8
0
 62
     7
 10
56.532973999999989
 20
170.7190129999999
 30
0.0
 40
2.392218999999999
 50
210.82430199999999
 51
215.55847900000001
  0
ARC
  5
186
  8
0
 62
     7
 10
56.567625
 20
170.72269
 30
0.0
 40
2.4226079999999999
 50
215.152636
 51
219.82618599999989
  0
ARC
  5
187
  8
0
 62
     7
 10
57.028739999999999
 20
171.11612500000001
 30
0.0
 40
3.0287269999999991
 50
219.95537200000001
 51
223.70841799999999
  0
ARC
  5
188
  8
0
 62
     7
 10
56.692870999999997
 20
170.8075169999999
 30
0.0
 40
2.5727099999999989
 50
223.9088339999999
 51
228.3378009999999
  0
ARC
  5
189
  8
0
 62
     7
 10
56.794184999999999
 20
170.92307700000001
 30
0.0
 40
2.7263899999999999
 50
228.36149900000001
 51
232.558954
  0
ARC
  5
18A
  8
0
 62
     7
 10
56.703080999999997
 20
170.79087200000001
 30
0.0
 40
2.566047999999999
 50
232.37946700000001
 51
236.84367900000001
  0
ARC
  5
18B
  8
0
 62
     7
 10
56.777058999999987
 20
170.897547
 30
0.0
 40
2.695816999999999
 50
236.76737800000001
 51
241.03535099999991
  0
ARC
  5
18C
  8
0
 62
     7
 10
56.879818000000007
 20
171.090869
 30
0.0
 40
2.9147240000000001
 50
241.108373
 51
245.0585439999999
  0
ARC
  5
18D
  8
0
 62
     7
 10
56.833229000000003
 20
170.99626599999991
 30
0.0
 40
2.8092980000000001
 50
245.10648900000001
 51
249.216724
  0
ARC
  5
18E
  8
0
 62
     7
 10
56.826341000000014
 20
170.9961689999999
 30
0.0
 40
2.806770999999999
 50
249.347486
 51
253.473769
  0
ARC
  5
18F
  8
0
 62
     7
 10
56.756181999999988
 20
170.73635300000001
 30
0.0
 40
2.5377399999999999
 50
253.32373499999991
 51
257.89411799999999
  0
ARC
  5
190
  8
0
 62
     7
 10
56.845149999999997
 20
171.081076
 30
0.0
 40
2.8934919999999988
 50
257.60314399999987
 51
261.61276900000001
  0
ARC
  5
191
  8
0
 62
     7
 10
56.810361
 20
170.91105899999991
 30
0.0
 40
2.720235999999999
 50
261.81534900000003
 51
266.08509299999997
  0
ARC
  5
192
  8
0
 62
     7
 10
56.834060000000001
 20
171.08358000000001
 30
0.0
 40
2.8939959999999991
 50
265.85019199999988
 51
269.86438799999991
  0
ARC
  5
193
  8
0
 62
     7
 10
59.129031999999988
 20
166.68815799999999
 30
0.0
 40
0.19761
 50
0.114876
 51
15.17514899999999
  0
ARC
  5
194
  8
0
 62
     7
 10
59.084324999999993
 20
166.67203299999991
 30
0.0
 40
0.24501
 50
16.077598999999999
 51
29.107506999999998
  0
ARC
  5
195
  8
0
 62
     7
 10
59.036557999999992
 20
166.65013999999999
 30
0.0
 40
0.297422
 50
28.316199999999998
 51
40.136516
  0
ARC
  5
196
  8
0
 62
     7
 10
58.928237000000003
 20
166.56373400000001
 30
0.0
 40
0.43595
 50
39.641472
 51
48.744658999999999
  0
ARC
  5
197
  8
0
 62
     7
 10
58.729269999999993
 20
166.3386209999999
 30
0.0
 40
0.7363870000000001
 50
48.656202000000008
 51
54.804755
  0
ARC
  5
198
  8
0
 62
     7
 10
58.558481000000008
 20
166.0737409999999
 30
0.0
 40
1.0513639999999991
 50
55.518697000000003
 51
60.328232999999997
  0
ARC
  5
199
  8
0
 62
     7
 10
58.528585999999997
 20
166.03867199999991
 30
0.0
 40
1.0966670000000001
 50
59.878160999999992
 51
65.016202000000007
  0
ARC
  5
19A
  8
0
 62
     7
 10
58.313935000000001
 20
165.63673
 30
0.0
 40
1.551855999999999
 50
64.100515000000001
 51
68.121735000000001
  0
ARC
  5
19B
  8
0
 62
     7
 10
57.757720999999997
 20
164.20210599999999
 30
0.0
 40
3.0904759999999989
 50
68.463565000000003
 51
70.658507999999983
  0
ARC
  5
19C
  8
0
 62
     7
 10
57.776885
 20
164.18214399999999
 30
0.0
 40
3.1030619999999991
 50
71.114458999999997
 51
73.478418999999974
  0
ARC
  5
19D
  8
0
 62
     7
 10
57.405875999999999
 20
162.84372899999991
 30
0.0
 40
4.4917930000000004
 50
73.796323999999998
 51
75.541578000000001
  0
ARC
  5
19E
  8
0
 62
     7
 10
57.747239
 20
164.22874999999991
 30
0.0
 40
3.0654449999999991
 50
75.256411000000014
 51
77.983644999999996
  0
ARC
  5
19F
  8
0
 62
     7
 10
57.358029999999999
 20
162.577145
 30
0.0
 40
4.7620329999999989
 50
77.540492
 51
79.385099999999994
  0
ARC
  5
1A0
  8
0
 62
     7
 10
57.271051999999997
 20
162.11848699999999
 30
0.0
 40
5.2288639999999988
 50
79.374127000000001
 51
81.136127999999999
  0
ARC
  5
1A1
  8
0
 62
     7
 10
57.295112000000003
 20
162.512911
 30
0.0
 40
4.835585
 50
80.697682999999984
 51
82.673849000000004
  0
ARC
  5
1A2
  8
0
 62
     7
 10
56.950589000000001
 20
160.067035
 30
0.0
 40
7.3054869999999994
 50
82.439982000000001
 51
83.792633999999993
  0
ARC
  5
1A3
  8
0
 62
     7
 10
56.526333999999999
 20
155.80825799999991
 30
0.0
 40
11.585233000000001
 50
83.984130000000007
 51
84.860641000000001
  0
ARC
  5
1A4
  8
0
 62
     7
 10
56.607554
 20
155.40758099999999
 30
0.0
 40
11.977591999999991
 50
85.419300000000007
 51
86.285128000000014
  0
ARC
  5
1A5
  8
0
 62
     7
 10
56.973570000000002
 20
161.29933899999989
 30
0.0
 40
6.0745219999999991
 50
86.129627999999997
 51
87.867304000000004
  0
ARC
  5
1A6
  8
0
 62
     7
 10
56.883091999999998
 20
160.28033500000001
 30
0.0
 40
7.0963820000000011
 50
87.443460000000002
 51
88.943512999999996
  0
ARC
  5
1A7
  8
0
 62
     7
 10
56.766620999999986
 20
150.688141
 30
0.0
 40
16.689201999999991
 50
89.150906999999975
 51
89.791984999999997
  0
ARC
  5
1A8
  8
0
 62
     7
 10
59.21564
 20
168.5037889999999
 30
0.0
 40
0.123412
 50
353.90912700000001
 51
0.6382520000000002
  0
ARC
  5
1A9
  8
0
 62
     7
 10
58.851044999999992
 20
168.52009699999991
 30
0.0
 40
0.4881960000000001
 50
352.362146
 51
356.54721999999998
  0
ARC
  5
1AA
  8
0
 62
     7
 10
58.725039000000002
 20
168.537081
 30
0.0
 40
0.6153420000000001
 50
348.02336500000001
 51
352.35412400000001
  0
LINE
  5
1AB
  8
0
 62
     7
 10
59.326999999999998
 20
168.40899999999999
 30
0.0
 11
59.326599999999999
 21
168.40700000000001
 31
0.0
  0
ARC
  5
1AC
  8
0
 62
     7
 10
56.821153000000002
 20
171.062354
 30
0.0
 40
2.872768999999999
 50
270.12079499999999
 51
274.16466500000001
  0
ARC
  5
1AD
  8
0
 62
     7
 10
56.82659000000001
 20
171.07587399999991
 30
0.0
 40
2.885866
 50
274.03750600000001
 51
278.06209100000001
  0
ARC
  5
1AE
  8
0
 62
     7
 10
56.849185999999989
 20
170.863416
 30
0.0
 40
2.6723479999999991
 50
278.221271
 51
282.56285600000001
  0
ARC
  5
1AF
  8
0
 62
     7
 10
56.826708999999987
 20
171.01511499999989
 30
0.0
 40
2.825326
 50
282.33861300000001
 51
286.44357300000001
  0
ARC
  5
1B0
  8
0
 62
     7
 10
56.773309999999988
 20
171.15342399999989
 30
0.0
 40
2.9731190000000001
 50
286.67606599999999
 51
290.56509299999988
  0
ARC
  5
1B1
  8
0
 62
     7
 10
56.863709
 20
170.899508
 30
0.0
 40
2.7036329999999991
 50
290.66160899999988
 51
294.93928999999991
  0
ARC
  5
1B2
  8
0
 62
     7
 10
56.84137299999999
 20
170.95934700000001
 30
0.0
 40
2.7673149999999991
 50
294.83622200000002
 51
298.99690099999992
  0
ARC
  5
1B3
  8
0
 62
     7
 10
56.864624999999997
 20
170.91865699999991
 30
0.0
 40
2.7204540000000001
 50
298.98400299999992
 51
303.21330799999993
  0
ARC
  5
1B4
  8
0
 62
     7
 10
56.920636000000002
 20
170.83409099999989
 30
0.0
 40
2.6190220000000002
 50
303.20151099999993
 51
307.57538199999999
  0
ARC
  5
1B5
  8
0
 62
     7
 10
56.975800999999997
 20
170.78308000000001
 30
0.0
 40
2.5449850000000001
 50
307.29139500000002
 51
311.78819099999998
  0
ARC
  5
1B6
  8
0
 62
     7
 10
56.837835999999989
 20
170.93617699999999
 30
0.0
 40
2.751074
 50
311.805858
 51
315.94754699999999
  0
ARC
  5
1B7
  8
0
 62
     7
 10
56.907575999999999
 20
170.86379799999989
 30
0.0
 40
2.6506270000000001
 50
316.02380699999992
 51
320.31244299999997
  0
ARC
  5
1B8
  8
0
 62
     7
 10
56.939861000000001
 20
170.8353919999999
 30
0.0
 40
2.607642999999999
 50
320.33972999999992
 51
324.681487
  0
ARC
  5
1B9
  8
0
 62
     7
 10
57.042454000000014
 20
170.77068700000001
 30
0.0
 40
2.4865330000000001
 50
324.53137199999998
 51
329.08588700000001
  0
ARC
  5
1BA
  8
0
 62
     7
 10
57.166001999999999
 20
170.7107639999999
 30
0.0
 40
2.3497819999999989
 50
328.79173100000003
 51
333.58668699999993
  0
ARC
  5
1BB
  8
0
 62
     7
 10
56.985007000000003
 20
170.809921
 30
0.0
 40
2.556006
 50
333.400825
 51
337.79463500000003
  0
ARC
  5
1BC
  8
0
 62
     7
 10
57.113630999999998
 20
170.76105100000001
 30
0.0
 40
2.4184540000000001
 50
337.714924
 51
342.35333100000003
  0
ARC
  5
1BD
  8
0
 62
     7
 10
57.041136000000002
 20
170.795466
 30
0.0
 40
2.4979939999999989
 50
342.10517499999992
 51
346.58698299999998
  0
ARC
  5
1BE
  8
0
 62
     7
 10
56.870905
 20
170.8251939999999
 30
0.0
 40
2.6704979999999989
 50
346.81379800000002
 51
351.00265000000002
  0
ARC
  5
1BF
  8
0
 62
     7
 10
57.223263000000003
 20
170.77377200000001
 30
0.0
 40
2.3144379999999991
 50
350.89580599999988
 51
355.73176100000001
  0
ARC
  5
1C0
  8
0
 62
     7
 10
57.182187999999996
 20
170.790459
 30
0.0
 40
2.356679999999999
 50
355.40151099999991
 51
0.13877
  0
LINE
  5
1C1
  8
0
 62
     7
 10
54.327800000000011
 20
168.40700000000001
 30
0.0
 11
54.32739999999999
 21
168.40899999999999
 31
0.0
  0
ARC
  5
1C2
  8
0
 62
     7
 10
55.185048999999992
 20
168.579666
 30
0.0
 40
0.8744920000000001
 50
188.2048399999999
 51
191.27409
  0
ARC
  5
1C3
  8
0
 62
     7
 10
55.110681999999997
 20
168.5490199999999
 30
0.0
 40
0.7967560000000001
 50
184.19802999999999
 51
186.78665799999999
  0
ARC
  5
1C4
  8
0
 62
     7
 10
54.401147999999992
 20
168.5019969999999
 30
0.0
 40
0.085833
 50
177.88565399999999
 51
187.56696700000001
  0
ARC
  5
1C5
  8
0
 62
     7
 10
56.83386500000001
 20
170.8973949999999
 30
0.0
 40
2.3984419999999989
 50
269.84100899999987
 51
274.34696400000001
  0
ARC
  5
1C6
  8
0
 62
     7
 10
56.833150000000003
 20
171.02053399999991
 30
0.0
 40
2.5212949999999998
 50
274.15107299999988
 51
278.43684200000001
  0
ARC
  5
1C7
  8
0
 62
     7
 10
56.813798999999989
 20
171.13661899999991
 30
0.0
 40
2.6389640000000001
 50
278.48263800000001
 51
282.576595
  0
ARC
  5
1C8
  8
0
 62
     7
 10
56.838321000000001
 20
171.007992
 30
0.0
 40
2.5080869999999988
 50
282.66967899999997
 51
286.97734400000002
  0
ARC
  5
1C9
  8
0
 62
     7
 10
56.84045600000001
 20
171.009219
 30
0.0
 40
2.508637999999999
 50
286.92251599999997
 51
291.21097900000001
  0
ARC
  5
1CA
  8
0
 62
     7
 10
56.846440000000001
 20
170.994258
 30
0.0
 40
2.4925259999999989
 50
291.20717400000001
 51
295.52152999999993
  0
ARC
  5
1CB
  8
0
 62
     7
 10
56.870742000000007
 20
170.954734
 30
0.0
 40
2.446393
 50
295.40673900000002
 51
299.79635300000001
  0
ARC
  5
1CC
  8
0
 62
     7
 10
56.760032999999993
 20
171.13659799999999
 30
0.0
 40
2.6592329999999991
 50
299.9191899999999
 51
303.93436899999989
  0
ARC
  5
1CD
  8
0
 62
     7
 10
56.856327999999998
 20
170.97436200000001
 30
0.0
 40
2.4708959999999989
 50
304.181871
 51
308.49693300000001
  0
ARC
  5
1CE
  8
0
 62
     7
 10
56.99509599999999
 20
170.81833299999991
 30
0.0
 40
2.2624319999999991
 50
308.20614999999998
 51
312.90409299999988
  0
ARC
  5
1CF
  8
0
 62
     7
 10
56.738545999999999
 20
171.088437
 30
0.0
 40
2.634936999999999
 50
312.9919779999999
 51
317.0080319999999
  0
ARC
  5
1D0
  8
0
 62
     7
 10
57.060699
 20
170.785526
 30
0.0
 40
2.1927449999999991
 50
317.05737900000003
 51
321.87930499999987
  0
ARC
  5
1D1
  8
0
 62
     7
 10
57.225580999999998
 20
170.68863999999991
 30
0.0
 40
2.0033840000000001
 50
321.14818600000001
 51
326.40193399999993
  0
ARC
  5
1D2
  8
0
 62
     7
 10
57.154528000000013
 20
170.761438
 30
0.0
 40
2.1029580000000001
 50
325.82109800000001
 51
330.80844000000002
  0
ARC
  5
1D3
  8
0
 62
     7
 10
56.970059999999997
 20
170.87874600000001
 30
0.0
 40
2.321245999999999
 50
330.50142099999988
 51
335.01700199999999
  0
ARC
  5
1D4
  8
0
 62
     7
 10
56.943047999999997
 20
170.8896629999999
 30
0.0
 40
2.350341999999999
 50
335.05389300000002
 51
339.48935299999999
  0
ARC
  5
1D5
  8
0
 62
     7
 10
56.767367000000007
 20
170.944661
 30
0.0
 40
2.5341759999999991
 50
339.71643599999999
 51
343.82586800000001
  0
ARC
  5
1D6
  8
0
 62
     7
 10
56.913260999999999
 20
170.88623499999991
 30
0.0
 40
2.3778320000000002
 50
344.19872199999998
 51
348.57291600000002
  0
ARC
  5
1D7
  8
0
 62
     7
 10
57.087162999999997
 20
170.85545300000001
 30
0.0
 40
2.2012830000000001
 50
348.46146699999991
 51
353.18612899999999
  0
ARC
  5
1D8
  8
0
 62
     7
 10
56.702378000000003
 20
170.89115899999999
 30
0.0
 40
2.5876069999999989
 50
353.41195199999993
 51
357.42282399999999
  0
ARC
  5
1D9
  8
0
 62
     7
 10
56.700291999999997
 20
170.8654139999999
 30
0.0
 40
2.5886619999999989
 50
357.99416300000001
 51
2.0058370000000001
  0
ARC
  5
1DA
  8
0
 62
     7
 10
56.670202000000003
 20
170.83708999999999
 30
0.0
 40
2.619866
 50
2.6018799999999991
 51
6.563345
  0
ARC
  5
1DB
  8
0
 62
     7
 10
57.098863999999999
 20
170.87557399999989
 30
0.0
 40
2.1896409999999991
 50
6.8450340000000001
 51
11.577017
  0
ARC
  5
1DC
  8
0
 62
     7
 10
57.21343199999999
 20
170.91660100000001
 30
0.0
 40
2.069242
 50
11.100723
 51
16.127638999999999
  0
ARC
  5
1DD
  8
0
 62
     7
 10
57.164926999999992
 20
170.91789999999989
 30
0.0
 40
2.115527999999999
 50
15.728935
 51
20.660924999999992
  0
ARC
  5
1DE
  8
0
 62
     7
 10
57.100727999999997
 20
170.9087669999999
 30
0.0
 40
2.178866999999999
 50
20.289981000000001
 51
25.083068000000001
  0
ARC
  5
1DF
  8
0
 62
     7
 10
56.929584999999989
 20
170.8287729999999
 30
0.0
 40
2.3677820000000001
 50
25.080584999999989
 51
29.499959000000011
  0
ARC
  5
1E0
  8
0
 62
     7
 10
57.005124000000002
 20
170.879636
 30
0.0
 40
2.2770009999999989
 50
29.322012000000001
 51
33.935316999999998
  0
ARC
  5
1E1
  8
0
 62
     7
 10
56.836286999999992
 20
170.75700699999999
 30
0.0
 40
2.4855489999999998
 50
34.10790699999999
 51
38.341974
  0
ARC
  5
1E2
  8
0
 62
     7
 10
57.112653000000002
 20
170.986154
 30
0.0
 40
2.1266539999999998
 50
38.118881999999999
 51
43.083697999999998
  0
ARC
  5
1E3
  8
0
 62
     7
 10
56.863073999999997
 20
170.77131899999989
 30
0.0
 40
2.455719999999999
 50
42.767022999999988
 51
47.081990999999988
  0
ARC
  5
1E4
  8
0
 62
     7
 10
56.653266000000002
 20
170.5130419999999
 30
0.0
 40
2.7878199999999991
 50
47.538772999999999
 51
51.350983999999997
  0
ARC
  5
1E5
  8
0
 62
     7
 10
56.915892999999997
 20
170.83128500000001
 30
0.0
 40
2.3752619999999989
 50
51.504174999999989
 51
55.988137000000002
  0
ARC
  5
1E6
  8
0
 62
     7
 10
56.790213999999992
 20
170.65018599999999
 30
0.0
 40
2.595682
 50
55.924613000000001
 51
60.042168999999987
  0
ARC
  5
1E7
  8
0
 62
     7
 10
56.643083999999988
 20
170.33011499999989
 30
0.0
 40
2.9466369999999991
 50
60.671377
 51
64.312397000000004
  0
ARC
  5
1E8
  8
0
 62
     7
 10
56.871341999999999
 20
170.78332900000001
 30
0.0
 40
2.439290999999999
 50
64.529609999999991
 51
68.934965000000005
  0
ARC
  5
1E9
  8
0
 62
     7
 10
56.896341999999997
 20
170.88261099999991
 30
0.0
 40
2.3376899999999998
 50
68.632137999999998
 51
73.234367000000006
  0
ARC
  5
1EA
  8
0
 62
     7
 10
56.894871999999999
 20
170.93583000000001
 30
0.0
 40
2.287218999999999
 50
72.81455600000001
 51
77.538421999999997
  0
ARC
  5
1EB
  8
0
 62
     7
 10
56.840952999999999
 20
170.73960600000001
 30
0.0
 40
2.4904759999999988
 50
77.301302000000007
 51
81.639464000000004
  0
ARC
  5
1EC
  8
0
 62
     7
 10
56.852032999999999
 20
170.9564169999999
 30
0.0
 40
2.274451
 50
81.121468999999991
 51
85.874556000000013
  0
ARC
  5
1ED
  8
0
 62
     7
 10
56.80568199999999
 20
170.062624
 30
0.0
 40
3.1693139999999991
 50
86.201216000000002
 51
89.610810999999984
  0
ARC
  5
1EE
  8
0
 62
     7
 10
56.825743000000003
 20
170.69150400000001
 30
0.0
 40
2.540360999999999
 50
89.966914000000017
 51
94.221019999999996
  0
ARC
  5
1EF
  8
0
 62
     7
 10
56.831342999999997
 20
170.70233999999991
 30
0.0
 40
2.529974999999999
 50
94.365568999999994
 51
98.638366000000005
  0
ARC
  5
1F0
  8
0
 62
     7
 10
56.770986999999998
 20
170.96814099999989
 30
0.0
 40
2.2582110000000002
 50
98.137293999999983
 51
102.92189999999989
  0
ARC
  5
1F1
  8
0
 62
     7
 10
56.804800999999998
 20
170.76483200000001
 30
0.0
 40
2.4639639999999989
 50
102.63107099999991
 51
107.015912
  0
ARC
  5
1F2
  8
0
 62
     7
 10
56.706982000000004
 20
171.03044099999991
 30
0.0
 40
2.1814139999999989
 50
106.60066399999999
 51
111.5327909999999
  0
ARC
  5
1F3
  8
0
 62
     7
 10
56.750100000000003
 20
170.86001899999999
 30
0.0
 40
2.3558750000000002
 50
110.986983
 51
115.548402
  0
ARC
  5
1F4
  8
0
 62
     7
 10
56.827579000000007
 20
170.682986
 30
0.0
 40
2.5490200000000001
 50
115.403486
 51
119.612701
  0
ARC
  5
1F5
  8
0
 62
     7
 10
56.858756000000007
 20
170.65889899999999
 30
0.0
 40
2.5854119999999989
 50
119.949629
 51
124.08354799999999
  0
ARC
  5
1F6
  8
0
 62
     7
 10
56.857642000000013
 20
170.66885300000001
 30
0.0
 40
2.5765470000000001
 50
124.18706999999991
 51
128.32057800000001
  0
ARC
  5
1F7
  8
0
 62
     7
 10
56.756906999999998
 20
170.803507
 30
0.0
 40
2.4084460000000001
 50
128.42671399999989
 51
132.84503100000001
  0
ARC
  5
1F8
  8
0
 62
     7
 10
56.731586
 20
170.82633300000001
 30
0.0
 40
2.3744930000000002
 50
132.77160499999999
 51
137.22836599999991
  0
ARC
  5
1F9
  8
0
 62
     7
 10
56.651141000000003
 20
170.892404
 30
0.0
 40
2.2705829999999998
 50
137.07372799999999
 51
141.72365199999999
  0
ARC
  5
1FA
  8
0
 62
     7
 10
56.676341000000001
 20
170.86386899999991
 30
0.0
 40
2.3080519999999991
 50
141.5550879999999
 51
146.1218429999999
  0
ARC
  5
1FB
  8
0
 62
     7
 10
56.694935999999998
 20
170.84865099999999
 30
0.0
 40
2.3319740000000002
 50
146.06610599999999
 51
150.56339299999999
  0
ARC
  5
1FC
  8
0
 62
     7
 10
56.485393999999992
 20
170.952305
 30
0.0
 40
2.0985800000000001
 50
150.21639799999991
 51
155.2030169999999
  0
ARC
  5
1FD
  8
0
 62
     7
 10
56.496625999999999
 20
170.93262200000001
 30
0.0
 40
2.1170729999999991
 50
154.8469179999999
 51
159.7799939999999
  0
ARC
  5
1FE
  8
0
 62
     7
 10
56.852145999999998
 20
170.79870099999999
 30
0.0
 40
2.4969709999999989
 50
159.715948
 51
163.89415199999991
  0
ARC
  5
1FF
  8
0
 62
     7
 10
56.564854000000011
 20
170.88660200000001
 30
0.0
 40
2.1965750000000002
 50
164.01812799999999
 51
168.75346999999999
  0
ARC
  5
200
  8
0
 62
     7
 10
56.591678000000002
 20
170.8697159999999
 30
0.0
 40
2.2262059999999999
 50
168.46184500000001
 51
173.11606399999991
  0
ARC
  5
201
  8
0
 62
     7
 10
56.978154000000004
 20
170.83780100000001
 30
0.0
 40
2.613761999999999
 50
173.4369329999999
 51
177.41518600000001
  0
ARC
  5
202
  8
0
 62
     7
 10
56.968572999999999
 20
170.86524199999991
 30
0.0
 40
2.603092999999999
 50
178.009061
 51
181.990939
  0
ARC
  5
203
  8
0
 62
     7
 10
56.944352000000002
 20
170.89054299999989
 30
0.0
 40
2.579898
 50
182.571202
 51
186.59406299999989
  0
ARC
  5
204
  8
0
 62
     7
 10
56.596953999999997
 20
170.86025000000001
 30
0.0
 40
2.231341
 50
186.845731
 51
191.5067139999999
  0
ARC
  5
205
  8
0
 62
     7
 10
56.47590799999999
 20
170.8219949999999
 30
0.0
 40
2.105138999999999
 50
191.143629
 51
196.08477400000001
  0
ARC
  5
206
  8
0
 62
     7
 10
56.557962000000003
 20
170.83627799999991
 30
0.0
 40
2.187956999999999
 50
195.84884199999991
 51
200.60889299999991
  0
ARC
  5
207
  8
0
 62
     7
 10
56.514556999999989
 20
170.80722
 30
0.0
 40
2.1371340000000001
 50
200.28929099999991
 51
205.16750300000001
  0
ARC
  5
208
  8
0
 62
     7
 10
56.689346
 20
170.881314
 30
0.0
 40
2.3268520000000001
 50
204.98845999999989
 51
209.493157
  0
ARC
  5
209
  8
0
 62
     7
 10
56.688006000000001
 20
170.87755399999989
 30
0.0
 40
2.323836
 50
209.428729
 51
213.94177300000001
  0
ARC
  5
20A
  8
0
 62
     7
 10
56.571356000000009
 20
170.789885
 30
0.0
 40
2.1781259999999989
 50
213.741873
 51
218.58119500000001
  0
ARC
  5
20B
  8
0
 62
     7
 10
56.739667000000011
 20
170.91395900000001
 30
0.0
 40
2.3870869999999988
 50
218.38987800000001
 51
222.8127419999999
  0
ARC
  5
20C
  8
0
 62
     7
 10
56.734004000000013
 20
170.90656899999991
 30
0.0
 40
2.3779110000000001
 50
222.77483899999999
 51
227.225191
  0
ARC
  5
20D
  8
0
 62
     7
 10
56.766618000000008
 20
170.943715
 30
0.0
 40
2.427327
 50
227.25557900000001
 51
231.63421699999989
  0
ARC
  5
20E
  8
0
 62
     7
 10
56.803342000000001
 20
170.98150000000001
 30
0.0
 40
2.4797519999999991
 50
231.510795
 51
235.81044
  0
ARC
  5
20F
  8
0
 62
     7
 10
56.651918999999992
 20
170.74746499999989
 30
0.0
 40
2.2010819999999991
 50
235.64754599999989
 51
240.49893499999999
  0
ARC
  5
210
  8
0
 62
     7
 10
56.871268000000008
 20
171.12226799999991
 30
0.0
 40
2.6353140000000002
 50
240.36107799999999
 51
244.435869
  0
ARC
  5
211
  8
0
 62
     7
 10
56.836075999999998
 20
171.0592979999999
 30
0.0
 40
2.5633259999999991
 50
244.53809899999999
 51
248.733237
  0
ARC
  5
212
  8
0
 62
     7
 10
56.760272999999998
 20
170.85388
 30
0.0
 40
2.3444060000000002
 50
248.63875399999989
 51
253.227791
  0
ARC
  5
213
  8
0
 62
     7
 10
56.849854000000001
 20
171.1355409999999
 30
0.0
 40
2.639937999999999
 50
253.13029599999999
 51
257.22272099999992
  0
ARC
  5
214
  8
0
 62
     7
 10
56.822239000000003
 20
171.03773200000001
 30
0.0
 40
2.5384500000000001
 50
257.34233399999999
 51
261.59847200000002
  0
ARC
  5
215
  8
0
 62
     7
 10
56.845925000000001
 20
171.24408099999991
 30
0.0
 40
2.7460539999999991
 50
261.73864099999997
 51
265.67348399999992
  0
ARC
  5
216
  8
0
 62
     7
 10
56.820757999999991
 20
170.902996
 30
0.0
 40
2.404040999999999
 50
265.65830699999992
 51
270.15375999999998
  0
ARC
  5
217
  8
0
 62
     7
 10
57.215701000000003
 20
159.87653399999999
 30
0.0
 40
2.3089469999999999
 50
342.06317300000001
 51
344.987593
  0
ARC
  5
218
  8
0
 62
     7
 10
56.970371999999998
 20
159.949747
 30
0.0
 40
2.5648770000000001
 50
344.827471
 51
348.89039200000002
  0
ARC
  5
219
  8
0
 62
     7
 10
56.677162000000003
 20
160.00190000000001
 30
0.0
 40
2.8626469999999991
 50
348.99692099999987
 51
352.67838699999999
  0
ARC
  5
21A
  8
0
 62
     7
 10
56.918907999999988
 20
159.9716939999999
 30
0.0
 40
2.6190220000000002
 50
352.65983899999998
 51
356.74048199999999
  0
ARC
  5
21B
  8
0
 62
     7
 10
56.659682999999987
 20
159.99520599999991
 30
0.0
 40
2.8791779999999991
 50
356.56665099999992
 51
0.010317
  0
ARC
  5
21C
  8
0
 62
     7
 10
56.825749999999992
 20
175.96308300000001
 30
0.0
 40
9.9632079999999998
 50
268.93453099999988
 51
270.00840099999988
  0
ARC
  5
21D
  8
0
 62
     7
 10
56.769142000000002
 20
173.02750099999989
 30
0.0
 40
7.0270820000000001
 50
267.43608299999988
 51
268.95092999999991
  0
ARC
  5
21E
  8
0
 62
     7
 10
56.786288999999996
 20
174.08867100000001
 30
0.0
 40
8.0880130000000001
 50
266.34595400000001
 51
267.65101800000002
  0
ARC
  5
21F
  8
0
 62
     7
 10
56.610588
 20
171.95350199999999
 30
0.0
 40
5.9461170000000001
 50
264.980166
 51
266.72430200000002
  0
ARC
  5
220
  8
0
 62
     7
 10
56.560633999999993
 20
171.75815800000001
 30
0.0
 40
5.7472440000000002
 50
263.538949
 51
265.30586199999988
  0
ARC
  5
221
  8
0
 62
     7
 10
56.666921999999992
 20
173.004358
 30
0.0
 40
6.9975740000000002
 50
262.41024099999998
 51
263.82241499999992
  0
ARC
  5
222
  8
0
 62
     7
 10
56.285429000000001
 20
170.42049600000001
 30
0.0
 40
4.3861169999999987
 50
260.71390999999988
 51
262.89195999999993
  0
ARC
  5
223
  8
0
 62
     7
 10
57.401672999999988
 20
177.18765899999991
 30
0.0
 40
11.244721999999999
 50
259.84548999999993
 51
260.66480599999988
  0
ARC
  5
224
  8
0
 62
     7
 10
56.427667000000007
 20
171.383928
 30
0.0
 40
5.3605679999999989
 50
257.51702999999992
 51
259.15640400000001
  0
ARC
  5
225
  8
0
 62
     7
 10
56.242018000000002
 20
170.6011189999999
 30
0.0
 40
4.5561519999999991
 50
255.83482599999991
 51
257.668655
  0
ARC
  5
226
  8
0
 62
     7
 10
56.159953999999999
 20
170.2098959999999
 30
0.0
 40
4.1567739999999986
 50
253.72600700000001
 51
255.61193499999999
  0
ARC
  5
227
  8
0
 62
     7
 10
56.028573999999999
 20
169.63788799999989
 30
0.0
 40
3.5710319999999989
 50
251.121781
 51
253.177606
  0
ARC
  5
228
  8
0
 62
     7
 10
56.035561999999992
 20
169.5476219999999
 30
0.0
 40
3.4880659999999999
 50
248.58869399999989
 51
250.53341900000001
  0
ARC
  5
229
  8
0
 62
     7
 10
55.637135000000001
 20
168.42642900000001
 30
0.0
 40
2.2991239999999991
 50
244.92186799999999
 51
247.63232999999991
  0
ARC
  5
22A
  8
0
 62
     7
 10
55.186191999999998
 20
167.44577899999999
 30
0.0
 40
1.219806999999999
 50
239.95619500000001
 51
244.58276599999999
  0
ARC
  5
22B
  8
0
 62
     7
 10
55.010415999999999
 20
167.16690800000001
 30
0.0
 40
0.8904879999999998
 50
235.08394100000001
 51
240.76302799999991
  0
ARC
  5
22C
  8
0
 62
     7
 10
54.942269000000003
 20
167.0601879999999
 30
0.0
 40
0.76399
 50
228.76739699999999
 51
234.69359899999989
  0
ARC
  5
22D
  8
0
 62
     7
 10
54.732719000000003
 20
166.81972899999991
 30
0.0
 40
0.4450390000000001
 50
219.7346399999999
 51
228.65153099999989
  0
ARC
  5
22E
  8
0
 62
     7
 10
54.639726000000003
 20
166.74184199999991
 30
0.0
 40
0.323738
 50
208.79815600000001
 51
219.65459999999999
  0
ARC
  5
22F
  8
0
 62
     7
 10
54.57596800000001
 20
166.70751799999991
 30
0.0
 40
0.251332
 50
196.24217699999991
 51
208.94296799999989
  0
ARC
  5
230
  8
0
 62
     7
 10
54.558032999999988
 20
166.693332
 30
0.0
 40
0.230306
 50
181.18885399999991
 51
194.10121099999989
  0
LINE
  5
231
  8
0
 62
     7
 10
56.827199999999991
 20
166.0
 30
0.0
 11
57.013899999999992
 21
166.00200000000001
 31
0.0
  0
ARC
  5
232
  8
0
 62
     7
 10
56.889107000000003
 20
172.906059
 30
0.0
 40
6.9055899999999992
 50
271.03576299999992
 51
272.57726300000002
  0
ARC
  5
233
  8
0
 62
     7
 10
56.942469999999993
 20
172.67089799999991
 30
0.0
 40
6.6684039999999989
 50
272.21007900000001
 51
273.79298799999992
  0
ARC
  5
234
  8
0
 62
     7
 10
56.951381999999988
 20
173.2283129999999
 30
0.0
 40
7.2241539999999986
 50
273.43000599999988
 51
274.865566
  0
ARC
  5
235
  8
0
 62
     7
 10
57.066856000000008
 20
172.03390499999989
 30
0.0
 40
6.024271999999999
 50
274.73478699999998
 51
276.42044199999992
  0
ARC
  5
236
  8
0
 62
     7
 10
56.960358999999997
 20
173.2291459999999
 30
0.0
 40
7.2239779999999989
 50
276.19973499999998
 51
277.56764900000002
  0
ARC
  5
237
  8
0
 62
     7
 10
57.323219999999992
 20
170.73823400000001
 30
0.0
 40
4.7070800000000004
 50
277.18232599999999
 51
279.21184399999993
  0
ARC
  5
238
  8
0
 62
     7
 10
56.664270999999992
 20
174.79142999999991
 30
0.0
 40
8.8134910000000009
 50
279.22220600000003
 51
280.267538
  0
ARC
  5
239
  8
0
 62
     7
 10
57.184207999999998
 20
171.59002699999991
 30
0.0
 40
5.5709919999999986
 50
280.87457799999987
 51
282.45202699999987
  0
ARC
  5
23A
  8
0
 62
     7
 10
57.508889000000003
 20
170.191292
 30
0.0
 40
4.1351800000000001
 50
282.23801099999991
 51
284.25854800000002
  0
ARC
  5
23B
  8
0
 62
     7
 10
57.395716999999998
 20
170.57008999999999
 30
0.0
 40
4.5302119999999997
 50
284.46582299999989
 51
286.1962749999999
  0
ARC
  5
23C
  8
0
 62
     7
 10
57.641494999999992
 20
169.58928599999999
 30
0.0
 40
3.5199809999999991
 50
286.80750399999988
 51
288.893148
  0
ARC
  5
23D
  8
0
 62
     7
 10
57.719234
 20
169.27827600000001
 30
0.0
 40
3.2006689999999991
 50
289.37927999999988
 51
291.49864700000001
  0
ARC
  5
23E
  8
0
 62
     7
 10
58.014398999999997
 20
168.4329919999999
 30
0.0
 40
2.306290999999999
 50
292.37190199999992
 51
295.07393899999988
  0
ARC
  5
23F
  8
0
 62
     7
 10
58.458819999999989
 20
167.463672
 30
0.0
 40
1.2400059999999991
 50
295.45495599999992
 51
300.006123
  0
ARC
  5
240
  8
0
 62
     7
 10
58.643785000000001
 20
167.16725500000001
 30
0.0
 40
0.8908970000000001
 50
299.23829699999999
 51
304.91477300000003
  0
ARC
  5
241
  8
0
 62
     7
 10
58.711231999999988
 20
167.06134999999989
 30
0.0
 40
0.76547
 50
305.31215099999991
 51
311.22689200000002
  0
ARC
  5
242
  8
0
 62
     7
 10
58.921145999999993
 20
166.820268
 30
0.0
 40
0.4458090000000001
 50
311.35620599999999
 51
320.25766199999998
  0
ARC
  5
243
  8
0
 62
     7
 10
59.012306000000002
 20
166.7434659999999
 30
0.0
 40
0.326612
 50
320.393327
 51
331.15395699999988
  0
ARC
  5
244
  8
0
 62
     7
 10
59.078451000000001
 20
166.70751799999991
 30
0.0
 40
0.251332
 50
331.057052
 51
343.75784299999998
  0
ARC
  5
245
  8
0
 62
     7
 10
59.096386000000003
 20
166.693332
 30
0.0
 40
0.230306
 50
345.89880899999991
 51
358.81116600000001
  0
ARC
  5
246
  8
0
 62
     7
 10
56.782325
 20
160.03273399999989
 30
0.0
 40
2.769213999999999
 50
356.294937
 51
359.19147500000003
  0
ARC
  5
247
  8
0
 62
     7
 10
56.764038999999997
 20
160.02794299999999
 30
0.0
 40
2.7871579999999998
 50
352.36039499999998
 51
356.41750200000001
  0
ARC
  5
248
  8
0
 62
     7
 10
56.785657
 20
160.024283
 30
0.0
 40
2.765245999999999
 50
348.36407899999989
 51
352.37602099999992
  0
ARC
  5
249
  8
0
 62
     7
 10
56.938456999999993
 20
159.99666999999991
 30
0.0
 40
2.610018999999999
 50
344.04312999999991
 51
348.28123799999992
  0
ARC
  5
24A
  8
0
 62
     7
 10
56.996347
 20
159.98001099999999
 30
0.0
 40
2.5497809999999999
 50
339.73575
 51
344.04543799999988
  0
ARC
  5
24B
  8
0
 62
     7
 10
56.920740000000002
 20
160.01357399999989
 30
0.0
 40
2.6323379999999998
 50
335.44038799999998
 51
339.62040200000001
  0
ARC
  5
24C
  8
0
 62
     7
 10
57.277256000000008
 20
159.84187299999991
 30
0.0
 40
2.236724999999999
 50
330.67843199999987
 51
335.64493399999992
  0
ARC
  5
24D
  8
0
 62
     7
 10
57.260317000000001
 20
159.83499299999991
 30
0.0
 40
2.24817
 50
326.05987399999998
 51
331.0427029999999
  0
ARC
  5
24E
  8
0
 62
     7
 10
57.252549999999999
 20
159.818736
 30
0.0
 40
2.2456070000000001
 50
321.45991499999991
 51
326.514658
  0
ARC
  5
24F
  8
0
 62
     7
 10
57.148772999999998
 20
159.88621199999989
 30
0.0
 40
2.3688509999999989
 50
316.90049699999997
 51
321.747297
  0
ARC
  5
250
  8
0
 62
     7
 10
57.229618000000002
 20
159.78838500000001
 30
0.0
 40
2.243036
 50
312.13501300000001
 51
317.31407999999999
  0
ARC
  5
251
  8
0
 62
     7
 10
56.846778
 20
160.21424699999989
 30
0.0
 40
2.8156819999999989
 50
307.932613
 51
312.09837799999991
  0
ARC
  5
252
  8
0
 62
     7
 10
56.853639999999999
 20
160.23768000000001
 30
0.0
 40
2.8300149999999991
 50
303.34421800000001
 51
307.53139700000003
  0
ARC
  5
253
  8
0
 62
     7
 10
57.042900000000003
 20
159.95732399999989
 30
0.0
 40
2.4917829999999999
 50
298.47956399999998
 51
303.25219099999998
  0
ARC
  5
254
  8
0
 62
     7
 10
56.869666000000002
 20
160.256528
 30
0.0
 40
2.8374019999999991
 50
294.45677999999992
 51
298.67333699999989
  0
ARC
  5
255
  8
0
 62
     7
 10
56.808572999999988
 20
160.42041
 30
0.0
 40
3.0118969999999998
 50
290.25812999999988
 51
294.223996
  0
ARC
  5
256
  8
0
 62
     7
 10
56.766098
 20
160.5931909999999
 30
0.0
 40
3.1887599999999989
 50
286.13605899999988
 51
289.8991759999999
  0
ARC
  5
257
  8
0
 62
     7
 10
56.769671999999993
 20
160.65639400000001
 30
0.0
 40
3.2485479999999991
 50
282.07781499999987
 51
285.76568900000001
  0
ARC
  5
258
  8
0
 62
     7
 10
56.779568999999988
 20
160.71659099999991
 30
0.0
 40
3.3054160000000001
 50
278.07230699999991
 51
281.69172500000002
  0
ARC
  5
259
  8
0
 62
     7
 10
56.835999000000001
 20
160.3445679999999
 30
0.0
 40
2.9291580000000002
 50
273.90809300000001
 51
278.00129199999992
  0
ARC
  5
25A
  8
0
 62
     7
 10
56.838524999999997
 20
160.22897699999999
 30
0.0
 40
2.8136689999999991
 50
269.769586
 51
274.01720599999987
  0
ARC
  5
25B
  8
0
 62
     7
 10
57.065881999999988
 20
170.79768799999991
 30
0.0
 40
2.472979
 50
359.96475400000003
 51
4.4870929999999989
  0
ARC
  5
25C
  8
0
 62
     7
 10
57.199584999999999
 20
170.82087899999999
 30
0.0
 40
2.3379069999999991
 50
4.1768320000000001
 51
8.9716320000000014
  0
ARC
  5
25D
  8
0
 62
     7
 10
57.076937999999998
 20
170.80917500000001
 30
0.0
 40
2.460888999999999
 50
8.7955050000000004
 51
13.349204999999991
  0
ARC
  5
25E
  8
0
 62
     7
 10
56.948475000000002
 20
170.77780699999991
 30
0.0
 40
2.5931239999999991
 50
13.36821099999999
 51
17.690812000000001
  0
ARC
  5
25F
  8
0
 62
     7
 10
57.042143999999993
 20
170.80996099999999
 30
0.0
 40
2.4941139999999988
 50
17.640971
 51
22.153486999999991
  0
ARC
  5
260
  8
0
 62
     7
 10
57.075433999999987
 20
170.83366000000001
 30
0.0
 40
2.4543629999999999
 50
21.934132000000002
 51
26.521352999999991
  0
ARC
  5
261
  8
0
 62
     7
 10
56.749887999999999
 20
170.660661
 30
0.0
 40
2.822916999999999
 50
26.712707999999999
 51
30.715914000000001
  0
ARC
  5
262
  8
0
 62
     7
 10
56.967858999999997
 20
170.7843739999999
 30
0.0
 40
2.5723400000000001
 50
30.826803000000002
 51
35.220925000000001
  0
ARC
  5
263
  8
0
 62
     7
 10
57.004403000000003
 20
170.81916100000001
 30
0.0
 40
2.5224340000000001
 50
35.054132000000003
 51
39.561293999999997
  0
ARC
  5
264
  8
0
 62
     7
 10
57.039992000000012
 20
170.85400899999999
 30
0.0
 40
2.4728050000000001
 50
39.464015000000003
 51
44.067166
  0
ARC
  5
265
  8
0
 62
     7
 10
56.936447999999999
 20
170.776265
 30
0.0
 40
2.6013250000000001
 50
43.711353000000003
 51
48.107396999999999
  0
ARC
  5
266
  8
0
 62
     7
 10
56.818418000000001
 20
170.63891399999989
 30
0.0
 40
2.7823849999999992
 50
48.186736000000003
 51
52.30327299999999
  0
ARC
  5
267
  8
0
 62
     7
 10
56.770589999999999
 20
170.56019699999999
 30
0.0
 40
2.8739340000000002
 50
52.508417999999999
 51
56.507741000000003
  0
ARC
  5
268
  8
0
 62
     7
 10
56.892825000000002
 20
170.73681899999991
 30
0.0
 40
2.6591900000000002
 50
56.604157000000001
 51
60.928431999999987
  0
ARC
  5
269
  8
0
 62
     7
 10
57.021940000000001
 20
171.00470100000001
 30
0.0
 40
2.362384
 50
60.508462000000002
 51
65.397754000000006
  0
ARC
  5
26A
  8
0
 62
     7
 10
56.879653000000012
 20
170.74587099999999
 30
0.0
 40
2.6570419999999988
 50
64.931635
 51
69.287246999999994
  0
ARC
  5
26B
  8
0
 62
     7
 10
56.92333399999999
 20
170.89298500000001
 30
0.0
 40
2.504011999999999
 50
69.031577999999996
 51
73.667019999999994
  0
ARC
  5
26C
  8
0
 62
     7
 10
56.813467000000003
 20
170.5685959999999
 30
0.0
 40
2.8462419999999988
 50
73.380989999999997
 51
77.459243000000001
  0
ARC
  5
26D
  8
0
 62
     7
 10
56.823877000000003
 20
170.59107099999991
 30
0.0
 40
2.8220480000000001
 50
77.566463999999996
 51
81.684526000000005
  0
ARC
  5
26E
  8
0
 62
     7
 10
56.817107999999998
 20
170.51977099999999
 30
0.0
 40
2.89358
 50
81.756084999999999
 51
85.778183999999996
  0
ARC
  5
26F
  8
0
 62
     7
 10
56.828870000000002
 20
170.61000899999999
 30
0.0
 40
2.8027259999999989
 50
85.882171999999997
 51
90.033931000000024
  0
ARC
  5
270
  8
0
 62
     7
 10
56.825629999999997
 20
170.60773599999999
 30
0.0
 40
2.804997999999999
 50
89.967731000000001
 51
94.116125999999994
  0
ARC
  5
271
  8
0
 62
     7
 10
56.812818999999998
 20
170.74401899999989
 30
0.0
 40
2.6681479999999991
 50
94.051804000000004
 51
98.413887000000031
  0
ARC
  5
272
  8
0
 62
     7
 10
56.793459999999989
 20
170.78823899999989
 30
0.0
 40
2.621602999999999
 50
98.136741000000001
 51
102.57723
  0
ARC
  5
273
  8
0
 62
     7
 10
56.784482999999987
 20
170.78436999999991
 30
0.0
 40
2.6234419999999989
 50
102.36747800000001
 51
106.7922489999999
  0
ARC
  5
274
  8
0
 62
     7
 10
56.815513000000003
 20
170.64181999999991
 30
0.0
 40
2.7689010000000001
 50
106.55479099999999
 51
110.746571
  0
ARC
  5
275
  8
0
 62
     7
 10
56.829276
 20
170.61595099999991
 30
0.0
 40
2.7979699999999998
 50
110.822474
 51
114.95860399999989
  0
ARC
  5
276
  8
0
 62
     7
 10
56.783326000000002
 20
170.71350899999999
 30
0.0
 40
2.690134
 50
114.94809099999991
 51
119.2348639999999
  0
ARC
  5
277
  8
0
 62
     7
 10
56.691271999999998
 20
170.84816499999991
 30
0.0
 40
2.5277129999999999
 50
118.904751
 51
123.46074899999989
  0
ARC
  5
278
  8
0
 62
     7
 10
56.839052000000002
 20
170.62755000000001
 30
0.0
 40
2.793245999999999
 50
123.4945479999999
 51
127.60369299999989
  0
ARC
  5
279
  8
0
 62
     7
 10
56.581842000000002
 20
170.94920500000001
 30
0.0
 40
2.3814779999999991
 50
127.42321
 51
132.238429
  0
ARC
  5
27A
  8
0
 62
     7
 10
56.545519999999989
 20
170.949904
 30
0.0
 40
2.356692999999999
 50
131.596069
 51
136.442868
  0
ARC
  5
27B
  8
0
 62
     7
 10
56.517281999999987
 20
170.94076100000001
 30
0.0
 40
2.3426740000000001
 50
135.80489099999991
 51
140.6638879999999
  0
ARC
  5
27C
  8
0
 62
     7
 10
56.652929
 20
170.81828999999991
 30
0.0
 40
2.5252340000000002
 50
140.46555000000001
 51
144.95674700000001
  0
ARC
  5
27D
  8
0
 62
     7
 10
56.494023999999989
 20
170.908378
 30
0.0
 40
2.343472999999999
 50
144.529236
 51
149.36439899999991
  0
ARC
  5
27E
  8
0
 62
     7
 10
56.701448999999997
 20
170.77191099999999
 30
0.0
 40
2.5915140000000001
 50
149.105255
 51
153.46608399999991
  0
ARC
  5
27F
  8
0
 62
     7
 10
56.785936
 20
170.740532
 30
0.0
 40
2.6811370000000001
 50
153.6727149999999
 51
157.87175999999999
  0
ARC
  5
280
  8
0
 62
     7
 10
56.540098999999998
 20
170.83334999999991
 30
0.0
 40
2.4184540000000001
 50
157.71490499999999
 51
162.35331099999999
  0
ARC
  5
281
  8
0
 62
     7
 10
56.657502000000001
 20
170.79302599999991
 30
0.0
 40
2.5425589999999998
 50
162.2893949999999
 51
166.70549099999999
  0
ARC
  5
282
  8
0
 62
     7
 10
56.744185999999999
 20
170.77762899999991
 30
0.0
 40
2.630463999999999
 50
166.8132929999999
 51
171.0806649999999
  0
ARC
  5
283
  8
0
 62
     7
 10
56.536669000000003
 20
170.81112899999991
 30
0.0
 40
2.4202629999999998
 50
171.102452
 51
175.72589500000001
  0
ARC
  5
284
  8
0
 62
     7
 10
56.488872999999998
 20
170.80189699999991
 30
0.0
 40
2.3733230000000001
 50
175.4176499999999
 51
180.1383459999999
  0
ARC
  5
285
  8
0
 62
     7
 10
54.39143399999999
 20
168.50656699999999
 30
0.0
 40
0.076072
 50
172.21037699999991
 51
181.056703
  0
ARC
  5
286
  8
0
 62
     7
 10
54.365537000000003
 20
168.516997
 30
0.0
 40
0.049474
 50
158.491344
 51
180.138834
  0
ARC
  5
287
  8
0
 62
     7
 10
54.340105000000001
 20
168.526296
 30
0.0
 40
0.022414
 50
124.43000000000001
 51
156.7686469999999
  0
LINE
  5
288
  8
0
 62
     7
 10
54.32739999999999
 20
168.5449999999999
 30
0.0
 11
54.340200000000003
 21
168.5449999999999
 31
0.0
  0
ARC
  5
289
  8
0
 62
     7
 10
54.328415999999997
 20
168.49453700000001
 30
0.0
 40
0.05194
 50
53.279694999999997
 51
76.910753
  0
ARC
  5
28A
  8
0
 62
     7
 10
54.108598999999998
 20
168.18400199999991
 30
0.0
 40
0.432388
 50
49.913439999999987
 51
54.53517999999999
  0
ARC
  5
28B
  8
0
 62
     7
 10
53.673403999999998
 20
167.69175000000001
 30
0.0
 40
1.089354999999999
 50
46.379318999999988
 51
49.073292999999993
  0
ARC
  5
28C
  8
0
 62
     7
 10
48.493059000000002
 20
162.15845899999999
 30
0.0
 40
8.6691120000000002
 50
46.359198999999997
 51
46.823070999999999
  0
ARC
  5
28D
  8
0
 62
     7
 10
70.910606999999985
 20
186.24316999999991
 30
0.0
 40
24.234939000000001
 50
227.30152100000001
 51
227.520568
  0
ARC
  5
28E
  8
0
 62
     7
 10
56.243970999999988
 20
170.24777
 30
0.0
 40
2.533304999999999
 50
227.85592999999989
 51
230.50232399999999
  0
ARC
  5
28F
  8
0
 62
     7
 10
56.551400999999998
 20
170.62328199999999
 30
0.0
 40
3.0186090000000001
 50
230.53297299999991
 51
233.13643500000001
  0
ARC
  5
290
  8
0
 62
     7
 10
56.411356000000012
 20
170.44468999999989
 30
0.0
 40
2.7917139999999989
 50
233.2371259999999
 51
236.35271399999991
  0
ARC
  5
291
  8
0
 62
     7
 10
56.413881999999987
 20
170.46178599999999
 30
0.0
 40
2.8073549999999989
 50
236.50312
 51
239.72476199999991
  0
ARC
  5
292
  8
0
 62
     7
 10
56.557237000000001
 20
170.716105
 30
0.0
 40
3.0992639999999989
 50
239.80633399999991
 51
242.77665500000001
  0
ARC
  5
293
  8
0
 62
     7
 10
56.677942999999999
 20
170.95583400000001
 30
0.0
 40
3.367656999999999
 50
242.81632400000001
 51
245.577044
  0
ARC
  5
294
  8
0
 62
     7
 10
56.577257999999993
 20
170.7566479999999
 30
0.0
 40
3.144677999999999
 50
245.74682000000001
 51
248.71520599999991
  0
ARC
  5
295
  8
0
 62
     7
 10
56.744847
 20
171.18370300000001
 30
0.0
 40
3.6034389999999989
 50
248.69716500000001
 51
251.27421000000001
  0
ARC
  5
296
  8
0
 62
     7
 10
56.939782999999998
 20
171.83793399999999
 30
0.0
 40
4.2856959999999988
 50
251.61400399999991
 51
253.76576900000001
  0
ARC
  5
297
  8
0
 62
     7
 10
56.610304000000014
 20
170.69431299999991
 30
0.0
 40
3.0955659999999989
 50
253.7033209999999
 51
256.67174099999988
  0
ARC
  5
298
  8
0
 62
     7
 10
56.657093000000003
 20
170.76913999999991
 30
0.0
 40
3.1792899999999991
 50
256.16209399999991
 51
259.02309200000002
  0
ARC
  5
299
  8
0
 62
     7
 10
56.782632999999997
 20
171.316835
 30
0.0
 40
3.7409159999999999
 50
258.73278599999992
 51
261.14983000000001
  0
ARC
  5
29A
  8
0
 62
     7
 10
57.012735999999997
 20
173.08195599999999
 30
0.0
 40
5.5205999999999991
 50
261.60859799999992
 51
263.23542400000002
  0
ARC
  5
29B
  8
0
 62
     7
 10
56.801196999999988
 20
171.28648799999991
 30
0.0
 40
3.7127150000000002
 50
263.2134779999999
 51
265.61753900000002
  0
ARC
  5
29C
  8
0
 62
     7
 10
56.881449000000003
 20
172.73625999999999
 30
0.0
 40
5.1644719999999991
 50
265.95885199999992
 51
267.68150900000001
  0
LINE
  5
29D
  8
0
 62
     7
 10
56.672499999999999
 20
167.57599999999991
 30
0.0
 11
56.827199999999991
 21
167.57299999999989
 31
0.0
  0
LINE
  5
29E
  8
0
 62
     7
 10
56.827199999999991
 20
167.57299999999989
 30
0.0
 11
56.981900000000003
 21
167.57599999999991
 31
0.0
  0
ARC
  5
29F
  8
0
 62
     7
 10
56.802638999999992
 20
172.20220699999999
 30
0.0
 40
4.629662999999999
 50
272.21900399999998
 51
274.14067599999993
  0
ARC
  5
2A0
  8
0
 62
     7
 10
56.809260999999999
 20
171.736086
 30
0.0
 40
4.1643679999999987
 50
274.51286499999992
 51
276.656158
  0
ARC
  5
2A1
  8
0
 62
     7
 10
56.80140999999999
 20
171.8813439999999
 30
0.0
 40
4.3095660000000002
 50
276.53599600000001
 51
278.62002200000001
  0
ARC
  5
2A2
  8
0
 62
     7
 10
56.767234999999999
 20
171.906237
 30
0.0
 40
4.3394050000000002
 50
279.01688899999988
 51
281.10053599999992
  0
ARC
  5
2A3
  8
0
 62
     7
 10
56.729137999999992
 20
172.032116
 30
0.0
 40
4.4702820000000001
 50
281.26907
 51
283.30277899999999
  0
ARC
  5
2A4
  8
0
 62
     7
 10
56.78438100000001
 20
171.63381000000001
 30
0.0
 40
4.0701289999999988
 50
283.83613700000001
 51
286.09024299999999
  0
ARC
  5
2A5
  8
0
 62
     7
 10
57.136798999999989
 20
170.48894599999991
 30
0.0
 40
2.8725200000000002
 50
285.66513900000001
 51
288.88229100000001
  0
ARC
  5
2A6
  8
0
 62
     7
 10
56.726996
 20
171.68493499999991
 30
0.0
 40
4.1367699999999994
 50
288.891955
 51
291.13670999999999
  0
ARC
  5
2A7
  8
0
 62
     7
 10
56.854207999999993
 20
171.287837
 30
0.0
 40
3.720596
 50
291.51459499999999
 51
294.02341899999988
  0
ARC
  5
2A8
  8
0
 62
     7
 10
56.965214000000003
 20
170.97912600000001
 30
0.0
 40
3.393521999999999
 50
294.43349799999987
 51
297.17317400000002
  0
ARC
  5
2A9
  8
0
 62
     7
 10
57.373747999999999
 20
170.21112400000001
 30
0.0
 40
2.523746
 50
296.88458300000002
 51
300.532467
  0
ARC
  5
2AA
  8
0
 62
     7
 10
57.273161999999999
 20
170.40934300000001
 30
0.0
 40
2.7456169999999989
 50
300.23902700000002
 51
303.53312999999991
  0
ARC
  5
2AB
  8
0
 62
     7
 10
56.710436999999999
 20
171.2114169999999
 30
0.0
 40
3.7251489999999992
 50
303.93284399999987
 51
306.26456000000002
  0
ARC
  5
2AC
  8
0
 62
     7
 10
57.382530000000003
 20
170.25930399999999
 30
0.0
 40
2.5600009999999989
 50
306.74093199999987
 51
309.81566199999997
  0
ARC
  5
2AD
  8
0
 62
     7
 10
57.294666999999997
 20
170.38180500000001
 30
0.0
 40
2.7103779999999991
 50
309.584157
 51
312.0576299999999
  0
ARC
  5
2AE
  8
0
 62
     7
 10
55.420724
 20
172.43115800000001
 30
0.0
 40
5.4873079999999996
 50
312.25114600000001
 51
313.21594399999992
  0
LINE
  5
2AF
  8
0
 62
     7
 10
59.17819999999999
 20
168.43199999999999
 30
0.0
 11
59.229500000000002
 21
168.4799999999999
 31
0.0
  0
ARC
  5
2B0
  8
0
 62
     7
 10
60.117010999999991
 20
167.54215400000001
 30
0.0
 40
1.291480999999999
 50
131.137531
 51
133.409818
  0
ARC
  5
2B1
  8
0
 62
     7
 10
59.606064000000003
 20
168.099222
 30
0.0
 40
0.5361130000000001
 50
125.473136
 51
129.177877
  0
ARC
  5
2B2
  8
0
 62
     7
 10
59.331431999999992
 20
168.48481100000001
 30
0.0
 40
0.062719
 50
105.909508
 51
125.571883
  0
LINE
  5
2B3
  8
0
 62
     7
 10
59.3142
 20
168.5449999999999
 30
0.0
 11
59.326599999999999
 21
168.5449999999999
 31
0.0
  0
ARC
  5
2B4
  8
0
 62
     7
 10
59.316079999999999
 20
168.5270689999999
 30
0.0
 40
0.020624
 50
24.072724000000001
 51
59.194345999999982
  0
ARC
  5
2B5
  8
0
 62
     7
 10
59.287835999999999
 20
168.517145
 30
0.0
 40
0.050519
 50
0.087654
 51
21.282167999999999
  0
ARC
  5
2B6
  8
0
 62
     7
 10
59.280078000000003
 20
168.50784299999989
 30
0.0
 40
0.059027
 50
357.39855199999988
 51
9.1424229999999991
  0
ARC
  5
2B7
  8
0
 62
     7
 10
56.825588000000003
 20
160.52224299999989
 30
0.0
 40
3.106911999999999
 50
266.18334700000003
 51
270.029901
  0
ARC
  5
2B8
  8
0
 62
     7
 10
56.822208999999987
 20
160.38089600000001
 30
0.0
 40
2.965659
 50
262.0239279999999
 51
266.0667259999999
  0
ARC
  5
2B9
  8
0
 62
     7
 10
56.792470000000002
 20
160.249349
 30
0.0
 40
2.8312799999999991
 50
258.01787100000001
 51
262.25053700000001
  0
ARC
  5
2BA
  8
0
 62
     7
 10
56.745723999999989
 20
160.07947399999989
 30
0.0
 40
2.655422999999999
 50
253.72976199999999
 51
258.2435559999999
  0
ARC
  5
2BB
  8
0
 62
     7
 10
56.793731000000008
 20
160.3129679999999
 30
0.0
 40
2.893079999999999
 50
249.973377
 51
254.112652
  0
ARC
  5
2BC
  8
0
 62
     7
 10
56.720407000000002
 20
160.11366100000001
 30
0.0
 40
2.680714
 50
245.53093000000001
 51
249.98698400000001
  0
ARC
  5
2BD
  8
0
 62
     7
 10
56.814933999999987
 20
160.31689199999991
 30
0.0
 40
2.904846
 50
241.375654
 51
245.49427
  0
ARC
  5
2BE
  8
0
 62
     7
 10
56.895758999999998
 20
160.432897
 30
0.0
 40
3.045431999999999
 50
237.181838
 51
241.08644699999999
  0
ARC
  5
2BF
  8
0
 62
     7
 10
56.797235000000001
 20
160.23269999999999
 30
0.0
 40
2.8239070000000002
 50
232.46409299999999
 51
236.6603319999999
  0
ARC
  5
2C0
  8
0
 62
     7
 10
56.864387000000001
 20
160.281837
 30
0.0
 40
2.9038779999999988
 50
227.9649299999999
 51
232.00411899999989
  0
ARC
  5
2C1
  8
0
 62
     7
 10
56.515116999999996
 20
159.8795749999999
 30
0.0
 40
2.3712580000000001
 50
222.82605299999989
 51
227.72489400000001
  0
ARC
  5
2C2
  8
0
 62
     7
 10
56.458955000000003
 20
159.84608499999999
 30
0.0
 40
2.3073419999999989
 50
218.1880799999999
 51
223.16416499999991
  0
ARC
  5
2C3
  8
0
 62
     7
 10
56.671221000000003
 20
160.014523
 30
0.0
 40
2.5783160000000001
 50
213.81166999999999
 51
218.213797
  0
ARC
  5
2C4
  8
0
 62
     7
 10
56.549205000000008
 20
159.9298499999999
 30
0.0
 40
2.429819999999999
 50
209.143677
 51
213.75378599999999
  0
ARC
  5
2C5
  8
0
 62
     7
 10
56.612851999999997
 20
159.96112600000001
 30
0.0
 40
2.500645
 50
204.61730899999989
 51
209.0593639999999
  0
ARC
  5
2C6
  8
0
 62
     7
 10
56.356600999999991
 20
159.857618
 30
0.0
 40
2.2246029999999992
 50
199.996331
 51
204.94291799999991
  0
ARC
  5
2C7
  8
0
 62
     7
 10
56.879514
 20
160.05242999999999
 30
0.0
 40
2.782613
 50
196.13496099999989
 51
200.08389099999991
  0
ARC
  5
2C8
  8
0
 62
     7
 10
56.849955999999999
 20
160.02967599999991
 30
0.0
 40
2.7479299999999989
 50
191.825176
 51
195.85049599999991
  0
ARC
  5
2C9
  8
0
 62
     7
 10
56.783082999999998
 20
160.0097449999999
 30
0.0
 40
2.6783980000000001
 50
187.55892700000001
 51
191.7010129999999
  0
ARC
  5
2CA
  8
0
 62
     7
 10
56.656255000000002
 20
160.004941
 30
0.0
 40
2.5520679999999998
 50
183.39556400000001
 51
187.82657900000001
  0
ARC
  5
2CB
  8
0
 62
     7
 10
57.563187999999997
 20
160.05996899999991
 30
0.0
 40
3.4606690000000002
 50
181.09795800000001
 51
183.41566900000001
  0
ARC
  5
2CC
  8
0
 62
     7
 10
56.306697
 20
228.76158399999991
 30
0.0
 40
0.10453
 50
92.291049999999998
 51
177.5116889999999
  0
ARC
  5
2CD
  8
0
 62
     7
 10
57.348101
 20
228.7623219999999
 30
0.0
 40
0.103778
 50
2.0984519999999991
 51
87.901539000000014
  0
ARC
  5
2CE
  8
0
 62
     7
 10
56.332180000000008
 20
216.499471
 30
0.0
 40
0.130006
 50
182.14126200000001
 51
267.858768
  0
ARC
  5
2CF
  8
0
 62
     7
 10
57.322348999999988
 20
216.4990029999999
 30
0.0
 40
0.129534
 50
272.09996100000001
 51
358.05810600000001
  0
ARC
  5
2D0
  8
0
 62
     7
 10
56.827207999999999
 20
239.73813200000001
 30
0.0
 40
5.0736249999999989
 50
270.00002000000001
 51
359.99998999999991
  0
ARC
  5
2D1
  8
0
 62
     7
 10
56.827294999999992
 20
239.738044
 30
0.0
 40
5.0735390000000002
 50
0.000983
 51
90.00095300000001
  0
ARC
  5
2D2
  8
0
 62
     7
 10
56.827123999999991
 20
239.738044
 30
0.0
 40
5.0735390000000002
 50
89.999026999999984
 51
179.998998
  0
ARC
  5
2D3
  8
0
 62
     7
 10
56.827207999999999
 20
239.7381299999999
 30
0.0
 40
5.0736230000000004
 50
179.99996999999991
 51
270.00002000000001
  0
ARC
  5
2D4
  8
0
 62
     7
 10
56.827122000000003
 20
239.73804599999991
 30
0.0
 40
5.373435999999999
 50
270.00093799999991
 51
0.000908
  0
ARC
  5
2D5
  8
0
 62
     7
 10
56.827122000000003
 20
239.73821599999999
 30
0.0
 40
5.373435999999999
 50
359.99909200000002
 51
89.999061999999995
  0
ARC
  5
2D6
  8
0
 62
     7
 10
56.827295999999997
 20
239.73821599999999
 30
0.0
 40
5.373435999999999
 50
90.000917999999984
 51
180.00092799999999
  0
ARC
  5
2D7
  8
0
 62
     7
 10
56.827293999999988
 20
239.738044
 30
0.0
 40
5.3734349999999989
 50
179.99905200000001
 51
269.999101
  0
ARC
  5
2D8
  8
0
 62
     7
 10
142.54925199999991
 20
171.24380600000001
 30
0.0
 40
0.052351
 50
182.20380399999991
 51
267.79622499999988
  0
ARC
  5
2D9
  8
0
 62
     7
 10
153.192016
 20
171.24380600000001
 30
0.0
 40
0.052351
 50
272.20379400000002
 51
357.79621500000002
  0
ARC
  5
2DA
  8
0
  6
AIGENLINE001
 62
     7
 10
137.1908949999999
 20
183.96521699999991
 30
0.0
 40
0.104086
 50
342.81645499999991
 51
68.314428000000007
  0
ARC
  5
2DB
  8
0
  6
AIGENLINE001
 62
     7
 10
136.84280200000001
 20
182.9839649999999
 30
0.0
 40
0.104612
 50
252.76603199999991
 51
338.25031799999999
  0
ARC
  5
2DC
  8
0
  6
AIGENLINE001
 62
     7
 10
125.62295899999999
 20
188.03225699999999
 30
0.0
 40
0.131213
 50
73.148572999999985
 51
157.78289499999991
  0
ARC
  5
2DD
  8
0
  6
AIGENLINE001
 62
     7
 10
125.29333099999999
 20
187.10111000000001
 30
0.0
 40
0.131117
 50
162.91505299999989
 51
248.12636699999999
  0
LINE
  5
2DE
  8
0
  6
AIGENLINE001
 62
     7
 10
125.661
 20
188.1579999999999
 30
0.0
 11
137.2289999999999
 21
184.06200000000001
 31
0.0
  0
LINE
  5
2DF
  8
0
  6
AIGENLINE001
 62
     7
 10
142.4429999999999
 20
181.95099999999999
 30
0.0
 11
137.24000000000001
 21
183.79300000000001
 31
0.0
  0
LINE
  5
2E0
  8
0
  6
AIGENLINE001
 62
     7
 10
142.48400000000001
 20
181.14099999999999
 30
0.0
 11
136.989
 21
183.0859999999999
 31
0.0
  0
LINE
  5
2E1
  8
0
  6
AIGENLINE001
 62
     7
 10
125.2439999999999
 20
186.97900000000001
 30
0.0
 11
136.81200000000001
 21
182.88399999999999
 31
0.0
  0
LINE
  5
2E2
  8
0
  6
AIGENLINE001
 62
     7
 10
125.16799999999991
 20
187.1399999999999
 30
0.0
 11
125.501
 21
188.08199999999991
 31
0.0
  0
LINE
  5
2E3
  8
0
  6
AIGENLINE001
 62
     7
 10
125.2439999999999
 20
186.97900000000001
 30
0.0
 11
125.661
 21
188.1579999999999
 31
0.0
  0
LINE
  5
2E4
  8
0
  6
AIGENLINE001
 62
     7
 10
136.81200000000001
 20
182.88399999999999
 30
0.0
 11
137.2289999999999
 21
184.06200000000001
 31
0.0
  0
LINE
  5
2E5
  8
0
  6
AIGENLINE001
 62
     7
 10
136.93999999999991
 20
182.94499999999991
 30
0.0
 11
137.28999999999999
 21
183.934
 31
0.0
  0
ARC
  5
2E6
  8
0
 62
     7
 10
136.89483799999991
 20
179.298891
 30
0.0
 40
0.103765
 50
2.0915789999999999
 51
87.908410999999987
  0
ARC
  5
2E7
  8
0
 62
     7
 10
136.89448400000001
 20
178.25673399999991
 30
0.0
 40
0.104118
 50
272.27945699999998
 51
357.91778399999993
  0
ARC
  5
2E8
  8
0
 62
     7
 10
153.11476499999989
 20
107.06807000000001
 30
0.0
 40
0.129654
 50
272.14387099999999
 51
357.85613899999993
  0
ARC
  5
2E9
  8
0
 62
     7
 10
142.62717900000001
 20
107.068775
 30
0.0
 40
0.130358
 50
182.44213699999989
 51
267.87357099999991
  0
ARC
  5
2EA
  8
0
 62
     7
 10
124.631809
 20
179.27283
 30
0.0
 40
0.129841
 50
92.071045999999996
 51
177.84995000000001
  0
ARC
  5
2EB
  8
0
 62
     7
 10
124.63198799999989
 20
178.282614
 30
0.0
 40
0.130008
 50
181.98976999999999
 51
267.85263700000002
  0
ARC
  5
2EC
  8
0
 62
     7
 10
104.67271700000001
 20
168.139071
 30
0.0
 40
0.259028
 50
166.5294879999999
 51
252.57236399999999
  0
ARC
  5
2ED
  8
0
 62
     7
 10
105.975162
 20
172.86855600000001
 30
0.0
 40
0.259244
 50
76.453281000000004
 51
162.5174759999999
  0
ARC
  5
2EE
  8
0
 62
     7
 10
142.80812900000001
 20
183.62687600000001
 30
0.0
 40
0.311394
 50
91.982885999999965
 51
177.91844
  0
ARC
  5
2EF
  8
0
 62
     7
 10
152.93331499999999
 20
183.62707700000001
 30
0.0
 40
0.311212
 50
2.0457169999999989
 51
87.921354000000008
  0
ARC
  5
2F0
  8
0
 62
     7
 10
139.77306200000001
 20
182.13343699999999
 30
0.0
 40
2.7382330000000001
 50
2.9511849999999988
 51
5.8692960000000012
  0
ARC
  5
2F1
  8
0
 62
     7
 10
136.8281189999999
 20
181.92643799999991
 30
0.0
 40
5.6901950000000001
 50
0.12357
 51
3.506043
  0
ARC
  5
2F2
  8
0
 62
     7
 10
139.68816200000001
 20
178.65586999999999
 30
0.0
 40
2.8303370000000001
 50
357.696146
 51
0.6797380000000001
  0
ARC
  5
2F3
  8
0
 62
     7
 10
137.0019879999999
 20
178.70242499999989
 30
0.0
 40
5.5165540000000002
 50
354.92790099999991
 51
358.33453900000001
  0
ARC
  5
2F4
  8
0
 62
     7
 10
51.506073000000001
 20
171.24367599999991
 30
0.0
 40
0.052247
 50
182.065663
 51
267.144092
  0
ARC
  5
2F5
  8
0
 62
     7
 10
62.148896999999998
 20
171.243133
 30
0.0
 40
0.051679
 50
272.27592799999991
 51
358.51435600000002
  0
ARC
  5
2F6
  8
0
 62
     7
 10
62.07117199999999
 20
107.0678929999999
 30
0.0
 40
0.129471
 50
272.06847299999993
 51
357.93153699999999
  0
ARC
  5
2F7
  8
0
 62
     7
 10
51.583423000000003
 20
107.06807000000001
 30
0.0
 40
0.129654
 50
182.14388099999999
 51
267.85614900000002
  0
ARC
  5
2F8
  8
0
 62
     7
 10
51.764864000000003
 20
183.62708599999999
 30
0.0
 40
0.311202
 50
92.076937999999984
 51
177.955951
  0
ARC
  5
2F9
  8
0
 62
     7
 10
61.889001
 20
183.626532
 30
0.0
 40
0.311776
 50
2.1421339999999991
 51
87.824937000000006
  0
ARC
  5
2FA
  8
0
 62
     7
 10
56.809435000000001
 20
181.92057800000001
 30
0.0
 40
0.493189
 50
2.1068679999999991
 51
87.934685999999999
  0
ARC
  5
2FB
  8
0
 62
     7
 10
56.845700000000001
 20
181.91986099999991
 30
0.0
 40
0.493932
 50
92.145365999999996
 51
177.81304
  0
ARC
  5
2FC
  8
0
 62
     7
 10
56.807720000000003
 20
178.75833199999991
 30
0.0
 40
0.5197350000000001
 50
2.1292810000000002
 51
87.850968999999992
  0
ARC
  5
2FD
  8
0
 62
     7
 10
56.846536
 20
178.7584939999999
 30
0.0
 40
0.5195660000000001
 50
92.131778999999995
 51
177.88793200000001
  0
ARC
  5
2FE
  8
0
 62
     7
 10
56.846175000000002
 20
178.79696599999991
 30
0.0
 40
0.519212
 50
182.13292300000001
 51
267.90660700000001
  0
ARC
  5
2FF
  8
0
 62
     7
 10
56.807918999999991
 20
178.797291
 30
0.0
 40
0.519549
 50
272.127861
 51
357.83264800000001
  0
ARC
  5
300
  8
0
 62
     7
 10
56.803120999999997
 20
178.75391200000001
 30
0.0
 40
0.6491220000000001
 50
2.0951149999999998
 51
87.873281000000006
  0
ARC
  5
301
  8
0
 62
     7
 10
56.851370999999993
 20
178.75383899999991
 30
0.0
 40
0.6491980000000001
 50
92.132874999999984
 51
177.8986899999999
  0
ARC
  5
302
  8
0
 62
     7
 10
56.851298
 20
178.80137300000001
 30
0.0
 40
0.6491220000000001
 50
182.0951179999999
 51
267.87331799999998
  0
ARC
  5
303
  8
0
 62
     7
 10
56.803047999999997
 20
178.801446
 30
0.0
 40
0.6491980000000001
 50
272.13291199999998
 51
357.89869199999993
  0
LINE
  5
304
  8
0
 62
     7
 10
59.551299999999998
 20
159.994
 30
0.0
 11
59.551299999999998
 21
160.036
 31
0.0
  0
LINE
  5
305
  8
0
 62
     7
 10
54.103200000000001
 20
160.036
 30
0.0
 11
54.103200000000001
 21
159.994
 31
0.0
  0
ARC
  5
306
  8
0
 62
     7
 10
57.769569999999987
 20
160.06166899999999
 30
0.0
 40
1.781873
 50
359.18670299999991
 51
2.9048909999999988
  0
ARC
  5
307
  8
0
 62
     7
 10
56.937103999999998
 20
160.06501900000001
 30
0.0
 40
2.6134970000000002
 50
1.906604999999999
 51
5.2706410000000004
  0
ARC
  5
308
  8
0
 62
     7
 10
55.947705999999997
 20
160.12079
 30
0.0
 40
1.8420810000000001
 50
174.25774199999989
 51
177.86228500000001
  0
ARC
  5
309
  8
0
 62
     7
 10
56.604850999999996
 20
160.05168699999999
 30
0.0
 40
2.5017419999999988
 50
176.84210999999999
 51
180.35066499999999
  0
ARC
  5
30A
  8
0
 62
     7
 10
57.002318000000002
 20
160.01757000000001
 30
0.0
 40
2.5490149999999998
 50
0.4227310000000001
 51
5.5111549999999996
  0
ARC
  5
30B
  8
0
 62
     7
 10
56.716332999999992
 20
160.014241
 30
0.0
 40
2.6132719999999998
 50
174.55142299999989
 51
179.51465099999999
  0
LINE
  5
30C
  8
0
 62
     7
 10
56.327300000000001
 20
216.36999999999989
 30
0.0
 11
57.327100000000002
 21
216.36999999999989
 31
0.0
  0
LINE
  5
30D
  8
0
 62
     7
 10
56.202300000000001
 20
216.495
 30
0.0
 11
57.451799999999999
 21
216.495
 31
0.0
  0
LINE
  5
30E
  8
0
 62
     7
 10
59.538899999999998
 20
235.09899999999999
 30
0.0
 11
59.538899999999998
 21
197.58199999999991
 31
0.0
  0
LINE
  5
30F
  8
0
 62
     7
 10
57.451799999999999
 20
216.495
 30
0.0
 11
57.451799999999999
 21
228.76599999999991
 31
0.0
  0
LINE
  5
310
  8
0
 62
     7
 10
57.201999999999998
 20
234.3779999999999
 30
0.0
 11
57.201999999999998
 21
228.8659999999999
 31
0.0
  0
LINE
  5
311
  8
0
 62
     7
 10
56.451999999999991
 20
234.3779999999999
 30
0.0
 11
56.451999999999991
 21
228.8659999999999
 31
0.0
  0
LINE
  5
312
  8
0
 62
     7
 10
56.202300000000001
 20
216.495
 30
0.0
 11
56.202300000000001
 21
228.76599999999991
 31
0.0
  0
LINE
  5
313
  8
0
 62
     7
 10
54.115600000000001
 20
235.09899999999999
 30
0.0
 11
54.115600000000001
 21
197.58199999999991
 31
0.0
  0
LINE
  5
314
  8
0
 62
     7
 10
56.202300000000001
 20
228.76599999999991
 30
0.0
 11
57.451799999999999
 21
228.76599999999991
 31
0.0
  0
LINE
  5
315
  8
0
 62
     7
 10
56.302500000000002
 20
228.8659999999999
 30
0.0
 11
57.351900000000001
 21
228.8659999999999
 31
0.0
  0
LINE
  5
316
  8
0
 62
     7
 10
142.797
 20
183.93799999999999
 30
0.0
 11
152.94499999999991
 21
183.93799999999999
 31
0.0
  0
LINE
  5
317
  8
0
 62
     7
 10
142.49700000000001
 20
183.63800000000001
 30
0.0
 11
153.244
 21
183.63800000000001
 31
0.0
  0
LINE
  5
318
  8
0
 62
     7
 10
124.627
 20
179.40299999999999
 30
0.0
 11
136.89899999999989
 21
179.40299999999999
 31
0.0
  0
LINE
  5
319
  8
0
 62
     7
 10
142.518
 20
179.15299999999991
 30
0.0
 11
136.999
 21
179.15299999999991
 31
0.0
  0
LINE
  5
31A
  8
0
 62
     7
 10
142.51099999999991
 20
178.40299999999999
 30
0.0
 11
136.999
 21
178.40299999999999
 31
0.0
  0
LINE
  5
31B
  8
0
 62
     7
 10
109.12
 20
150.6109999999999
 30
0.0
 11
147.87100000000001
 21
150.6109999999999
 31
0.0
  0
LINE
  5
31C
  8
0
 62
     7
 10
99.555300000000017
 20
165.77500000000001
 30
0.0
 11
110.1299999999999
 21
165.77500000000001
 31
0.0
  0
LINE
  5
31D
  8
0
 62
     7
 10
93.767300000000006
 20
166.43899999999999
 30
0.0
 11
108.247
 21
166.43899999999999
 31
0.0
  0
LINE
  5
31E
  8
0
 62
     7
 10
124.627
 20
178.15299999999999
 30
0.0
 11
136.89899999999989
 21
178.15299999999999
 31
0.0
  0
LINE
  5
31F
  8
0
 62
     7
 10
105.72799999999989
 20
172.94599999999991
 30
0.0
 11
104.42100000000001
 21
168.19900000000001
 31
0.0
  0
LINE
  5
320
  8
0
 62
     7
 10
106.0359999999999
 20
173.1209999999999
 30
0.0
 11
104.5949999999999
 21
167.89199999999991
 31
0.0
  0
LINE
  5
321
  8
0
 62
     7
 10
106.711
 20
167.102
 30
0.0
 11
106.767
 21
167.3059999999999
 31
0.0
  0
LINE
  5
322
  8
0
 62
     7
 10
142.49700000000001
 20
171.24199999999999
 30
0.0
 11
153.244
 21
171.24199999999999
 31
0.0
  0
LINE
  5
323
  8
0
 62
     7
 10
142.54699999999991
 20
171.19099999999989
 30
0.0
 11
153.1939999999999
 21
171.19099999999989
 31
0.0
  0
LINE
  5
324
  8
0
 62
     7
 10
142.49700000000001
 20
171.07900000000001
 30
0.0
 11
153.244
 21
171.07900000000001
 31
0.0
  0
LINE
  5
325
  8
0
 62
     7
 10
111.53100000000001
 20
165.77500000000001
 30
0.0
 11
111.586
 21
165.97900000000001
 31
0.0
  0
LINE
  5
326
  8
0
 62
     7
 10
124.502
 20
178.27799999999991
 30
0.0
 11
124.502
 21
179.27799999999999
 31
0.0
  0
LINE
  5
327
  8
0
 62
     7
 10
124.627
 20
178.15299999999999
 30
0.0
 11
124.627
 21
179.40299999999999
 31
0.0
  0
LINE
  5
328
  8
0
 62
     7
 10
136.89899999999989
 20
178.15299999999999
 30
0.0
 11
136.89899999999989
 21
179.40299999999999
 31
0.0
  0
LINE
  5
329
  8
0
 62
     7
 10
136.999
 20
178.2529999999999
 30
0.0
 11
136.999
 21
179.30299999999991
 31
0.0
  0
LINE
  5
32A
  8
0
 62
     7
 10
111.53100000000001
 20
165.77500000000001
 30
0.0
 11
106.711
 21
167.102
 31
0.0
  0
LINE
  5
32B
  8
0
 62
     7
 10
142.49700000000001
 20
182.4129999999999
 30
0.0
 11
142.49700000000001
 21
183.63800000000001
 31
0.0
  0
LINE
  5
32C
  8
0
 62
     7
 10
142.49700000000001
 20
171.24199999999999
 30
0.0
 11
142.49700000000001
 21
178.215
 31
0.0
  0
LINE
  5
32D
  8
0
 62
     7
 10
110.06
 20
169.71599999999989
 30
0.0
 11
108.64
 21
164.7649999999999
 31
0.0
  0
LINE
  5
32E
  8
0
 62
     7
 10
108.496
 20
164.26300000000001
 30
0.0
 11
104.59099999999999
 21
150.65000000000001
 31
0.0
  0
LINE
  5
32F
  8
0
 62
     7
 10
109.12
 20
165.542
 30
0.0
 11
109.12
 21
149.91099999999989
 31
0.0
  0
LINE
  5
330
  8
0
  6
AIGENLINE002
 62
     7
 10
147.87100000000001
 20
187.00499999999991
 30
0.0
 11
147.87100000000001
 21
89.185100000000006
 31
0.0
  0
LINE
  5
331
  8
0
  6
AIGENLINE002
 62
     7
 10
56.827199999999991
 20
248.578
 30
0.0
 11
56.827199999999991
 21
193.40299999999991
 31
0.0
  0
LINE
  5
332
  8
0
  6
AIGENLINE002
 62
     7
 10
56.827199999999991
 20
186.7359999999999
 30
0.0
 11
56.827199999999991
 21
136.48500000000001
 31
0.0
  0
LINE
  5
333
  8
0
  6
AIGENLINE002
 62
     7
 10
56.827199999999991
 20
131.22200000000001
 30
0.0
 11
56.827199999999991
 21
117.61799999999999
 31
0.0
  0
LINE
  5
334
  8
0
 62
     7
 10
142.49700000000001
 20
157.41499999999991
 30
0.0
 11
142.49700000000001
 21
107.0629999999999
 31
0.0
  0
LINE
  5
335
  8
0
 62
     7
 10
142.49700000000001
 20
171.07900000000001
 30
0.0
 11
142.49700000000001
 21
163.083
 31
0.0
  0
LINE
  5
336
  8
0
 62
     7
 10
142.518
 20
181.93899999999999
 30
0.0
 11
142.518
 21
178.68899999999999
 31
0.0
  0
LINE
  5
337
  8
0
 62
     7
 10
142.626
 20
171.19099999999989
 30
0.0
 11
142.626
 21
171.07900000000001
 31
0.0
  0
LINE
  5
338
  8
0
 62
     7
 10
106.752
 20
167.298
 30
0.0
 11
104.5949999999999
 21
167.89199999999991
 31
0.0
  0
LINE
  5
339
  8
0
 62
     7
 10
142.49700000000001
 20
157.41499999999991
 30
0.0
 11
111.5949999999999
 21
165.964
 31
0.0
  0
LINE
  5
33A
  8
0
 62
     7
 10
142.5089999999999
 20
163.05600000000001
 30
0.0
 11
106.0359999999999
 21
173.1209999999999
 31
0.0
  0
LINE
  5
33B
  8
0
 62
     7
 10
153.11600000000001
 20
171.19099999999989
 30
0.0
 11
153.11600000000001
 21
171.07900000000001
 31
0.0
  0
LINE
  5
33C
  8
0
 62
     7
 10
153.244
 20
171.24199999999999
 30
0.0
 11
153.244
 21
183.63800000000001
 31
0.0
  0
LINE
  5
33D
  8
0
 62
     7
 10
153.244
 20
171.07900000000001
 30
0.0
 11
153.244
 21
107.0629999999999
 31
0.0
  0
LINE
  5
33E
  8
0
 62
     7
 10
142.49700000000001
 20
107.0629999999999
 30
0.0
 11
153.244
 21
107.0629999999999
 31
0.0
  0
LINE
  5
33F
  8
0
 62
     7
 10
142.62200000000001
 20
106.93899999999999
 30
0.0
 11
153.12
 21
106.93899999999999
 31
0.0
  0
LINE
  5
340
  8
0
 62
     7
 10
61.900799999999997
 20
183.93799999999999
 30
0.0
 11
51.753599999999999
 21
183.93799999999999
 31
0.0
  0
LINE
  5
341
  8
0
 62
     7
 10
62.200600000000001
 20
183.63800000000001
 30
0.0
 11
51.45389999999999
 21
183.63800000000001
 31
0.0
  0
LINE
  5
342
  8
0
 62
     7
 10
54.155200000000001
 20
171.24199999999999
 30
0.0
 11
51.45389999999999
 21
171.24199999999999
 31
0.0
  0
LINE
  5
343
  8
0
 62
     7
 10
62.200600000000001
 20
171.24199999999999
 30
0.0
 11
59.499200000000002
 21
171.24199999999999
 31
0.0
  0
LINE
  5
344
  8
0
 62
     7
 10
54.145499999999998
 20
171.19099999999989
 30
0.0
 11
51.503500000000003
 21
171.19099999999989
 31
0.0
  0
LINE
  5
345
  8
0
 62
     7
 10
59.508899999999997
 20
171.19099999999989
 30
0.0
 11
62.1509
 21
171.19099999999989
 31
0.0
  0
LINE
  5
346
  8
0
 62
     7
 10
54.131399999999999
 20
171.07900000000001
 30
0.0
 11
51.45389999999999
 21
171.07900000000001
 31
0.0
  0
LINE
  5
347
  8
0
 62
     7
 10
62.200600000000001
 20
171.07900000000001
 30
0.0
 11
59.52300000000001
 21
171.07900000000001
 31
0.0
  0
LINE
  5
348
  8
0
 62
     7
 10
62.200600000000001
 20
171.24199999999999
 30
0.0
 11
62.200600000000001
 21
183.63800000000001
 31
0.0
  0
LINE
  5
349
  8
0
 62
     7
 10
62.200600000000001
 20
171.07900000000001
 30
0.0
 11
62.200600000000001
 21
107.0629999999999
 31
0.0
  0
LINE
  5
34A
  8
0
 62
     7
 10
62.072400000000002
 20
171.19099999999989
 30
0.0
 11
62.072400000000002
 21
171.07900000000001
 31
0.0
  0
LINE
  5
34B
  8
0
 62
     7
 10
59.538899999999998
 20
159.99600000000001
 30
0.0
 11
59.538899999999998
 21
170.79599999999991
 31
0.0
  0
LINE
  5
34C
  8
0
 62
     7
 10
59.326599999999999
 20
166.68899999999999
 30
0.0
 11
59.326599999999999
 21
168.5449999999999
 31
0.0
  0
LINE
  5
34D
  8
0
 62
     7
 10
57.302300000000002
 20
181.93899999999999
 30
0.0
 11
57.302300000000002
 21
179.184
 31
0.0
  0
LINE
  5
34E
  8
0
 62
     7
 10
56.3521
 20
181.93899999999999
 30
0.0
 11
56.3521
 21
179.184
 31
0.0
  0
LINE
  5
34F
  8
0
 62
     7
 10
54.327800000000011
 20
166.68899999999999
 30
0.0
 11
54.327800000000011
 21
168.5449999999999
 31
0.0
  0
LINE
  5
350
  8
0
 62
     7
 10
54.115600000000001
 20
159.99600000000001
 30
0.0
 11
54.115600000000001
 21
170.79599999999991
 31
0.0
  0
LINE
  5
351
  8
0
 62
     7
 10
51.582000000000001
 20
171.19099999999989
 30
0.0
 11
51.582000000000001
 21
171.07900000000001
 31
0.0
  0
LINE
  5
352
  8
0
 62
     7
 10
51.45389999999999
 20
171.24199999999999
 30
0.0
 11
51.45389999999999
 21
183.63800000000001
 31
0.0
  0
LINE
  5
353
  8
0
 62
     7
 10
51.45389999999999
 20
171.07900000000001
 30
0.0
 11
51.45389999999999
 21
107.0629999999999
 31
0.0
  0
LINE
  5
354
  8
0
 62
     7
 10
62.200600000000001
 20
107.0629999999999
 30
0.0
 11
51.45389999999999
 21
107.0629999999999
 31
0.0
  0
LINE
  5
355
  8
0
 62
     7
 10
58.999400000000001
 20
212.232
 30
0.0
 11
56.827599999999997
 21
211.50700000000001
 31
0.0
  0
LINE
  5
356
  8
0
 62
     7
 10
56.827599999999997
 20
211.50700000000001
 30
0.0
 11
59.070999999999998
 21
211.04899999999989
 31
0.0
  0
LINE
  5
357
  8
0
 62
     7
 10
59.070999999999998
 20
211.04899999999989
 30
0.0
 11
58.999400000000001
 21
212.232
 31
0.0
  0
LINE
  5
358
  8
0
 62
     7
 10
77.431399999999996
 20
219.54199999999989
 30
0.0
 11
78.454300000000003
 21
221.58999999999989
 31
0.0
  0
LINE
  5
359
  8
0
 62
     7
 10
78.454300000000003
 20
221.58999999999989
 30
0.0
 11
76.544300000000007
 21
220.32699999999991
 31
0.0
  0
LINE
  5
35A
  8
0
 62
     7
 10
76.544300000000007
 20
220.32699999999991
 30
0.0
 11
77.431399999999996
 21
219.54199999999989
 31
0.0
  0
LINE
  5
35B
  8
0
 62
     7
 10
145.65899999999999
 20
150.01900000000001
 30
0.0
 11
147.87100000000001
 21
150.6109999999999
 31
0.0
  0
LINE
  5
35C
  8
0
 62
     7
 10
147.87100000000001
 20
150.6109999999999
 30
0.0
 11
145.65899999999999
 21
151.20400000000001
 31
0.0
  0
LINE
  5
35D
  8
0
 62
     7
 10
145.65899999999999
 20
151.20400000000001
 30
0.0
 11
145.65899999999999
 21
150.01900000000001
 31
0.0
  0
LINE
  5
35E
  8
0
 62
     7
 10
102.47199999999999
 20
151.4139999999999
 30
0.0
 11
104.7529999999999
 21
151.21199999999999
 31
0.0
  0
LINE
  5
35F
  8
0
 62
     7
 10
104.7529999999999
 20
151.21199999999999
 30
0.0
 11
102.8779999999999
 21
152.52699999999999
 31
0.0
  0
LINE
  5
360
  8
0
 62
     7
 10
102.8779999999999
 20
152.52699999999999
 30
0.0
 11
102.47199999999999
 21
151.4139999999999
 31
0.0
  0
LINE
  5
361
  8
0
 62
     7
 10
111.33199999999999
 20
151.20400000000001
 30
0.0
 11
109.12
 21
150.6109999999999
 31
0.0
  0
LINE
  5
362
  8
0
 62
     7
 10
109.12
 20
150.6109999999999
 30
0.0
 11
111.33199999999999
 21
150.01900000000001
 31
0.0
  0
LINE
  5
363
  8
0
 62
     7
 10
111.33199999999999
 20
150.01900000000001
 30
0.0
 11
111.33199999999999
 21
151.20400000000001
 31
0.0
  0
LINE
  5
364
  8
0
 62
     7
 10
59.988799999999991
 20
131.315
 30
0.0
 11
62.200600000000001
 21
131.90700000000001
 31
0.0
  0
LINE
  5
365
  8
0
 62
     7
 10
62.200600000000001
 20
131.90700000000001
 30
0.0
 11
59.988799999999991
 21
132.49999999999989
 31
0.0
  0
LINE
  5
366
  8
0
 62
     7
 10
59.988799999999991
 20
132.49999999999989
 30
0.0
 11
59.988799999999991
 21
131.315
 31
0.0
  0
LINE
  5
367
  8
0
 62
     7
 10
53.665599999999991
 20
132.48500000000001
 30
0.0
 11
51.45389999999999
 21
131.89299999999989
 31
0.0
  0
LINE
  5
368
  8
0
 62
     7
 10
51.45389999999999
 20
131.89299999999989
 30
0.0
 11
53.665599999999991
 21
131.30000000000001
 31
0.0
  0
LINE
  5
369
  8
0
 62
     7
 10
53.665599999999991
 20
131.30000000000001
 30
0.0
 11
53.665599999999991
 21
132.48500000000001
 31
0.0
  0
LINE
  5
36A
  8
0
 62
     7
 10
62.200200000000002
 20
131.89299999999989
 30
0.0
 11
51.4542
 21
131.89299999999989
 31
0.0
  0
LINE
  5
36B
  8
0
 62
     7
 10
61.490900000000011
 20
112.32299999999989
 30
0.0
 11
63.702599999999997
 21
112.91500000000001
 31
0.0
  0
LINE
  5
36C
  8
0
 62
     7
 10
63.702599999999997
 20
112.91500000000001
 30
0.0
 11
61.490900000000011
 21
113.508
 31
0.0
  0
LINE
  5
36D
  8
0
 62
     7
 10
61.490900000000011
 20
113.508
 30
0.0
 11
61.490900000000011
 21
112.32299999999989
 31
0.0
  0
LINE
  5
36E
  8
0
 62
     7
 10
52.163600000000002
 20
113.4929999999999
 30
0.0
 11
49.951799999999999
 21
112.901
 31
0.0
  0
LINE
  5
36F
  8
0
 62
     7
 10
49.951799999999999
 20
112.901
 30
0.0
 11
52.163600000000002
 21
112.30799999999989
 31
0.0
  0
LINE
  5
370
  8
0
 62
     7
 10
52.163600000000002
 20
112.30799999999989
 30
0.0
 11
52.163600000000002
 21
113.4929999999999
 31
0.0
  0
LINE
  5
371
  8
0
 62
     7
 10
63.702300000000001
 20
112.901
 30
0.0
 11
49.952100000000002
 21
112.901
 31
0.0
  0
LINE
  5
372
  8
0
 62
     7
 10
49.952100000000002
 20
107.38799999999991
 30
0.0
 11
49.952100000000002
 21
113.6009999999999
 31
0.0
  0
LINE
  5
373
  8
0
 62
     7
 10
63.702300000000001
 20
107.38799999999991
 30
0.0
 11
63.702300000000001
 21
113.6009999999999
 31
0.0
  0
LINE
  5
374
  8
0
 62
     7
 10
88.101299999999995
 20
108.15000000000001
 30
0.0
 11
88.693899999999999
 21
105.9379999999999
 31
0.0
  0
LINE
  5
375
  8
0
 62
     7
 10
88.693899999999999
 20
105.9379999999999
 30
0.0
 11
89.286399999999986
 21
108.15000000000001
 31
0.0
  0
LINE
  5
376
  8
0
 62
     7
 10
89.286399999999986
 20
108.15000000000001
 30
0.0
 11
88.101299999999995
 21
108.15000000000001
 31
0.0
  0
LINE
  5
377
  8
0
 62
     7
 10
88.679400000000001
 20
188.1879999999999
 30
0.0
 11
88.679400000000001
 21
105.9379999999999
 31
0.0
  0
LINE
  5
378
  8
0
 62
     7
 10
165.114
 20
108.15000000000001
 30
0.0
 11
165.70699999999999
 21
105.9379999999999
 31
0.0
  0
LINE
  5
379
  8
0
 62
     7
 10
165.70699999999999
 20
105.9379999999999
 30
0.0
 11
166.30000000000001
 21
108.15000000000001
 31
0.0
  0
LINE
  5
37A
  8
0
 62
     7
 10
166.30000000000001
 20
108.15000000000001
 30
0.0
 11
165.114
 21
108.15000000000001
 31
0.0
  0
LINE
  5
37B
  8
0
 62
     7
 10
165.6929999999999
 20
183.93799999999999
 30
0.0
 11
165.6929999999999
 21
105.9379999999999
 31
0.0
  0
LINE
  5
37C
  8
0
 62
     7
 10
124.414
 20
188.1879999999999
 30
0.0
 11
87.979299999999995
 21
188.1879999999999
 31
0.0
  0
LINE
  5
37D
  8
0
 62
     7
 10
139.7939999999999
 20
105.9379999999999
 30
0.0
 11
87.477400000000003
 21
105.9379999999999
 31
0.0
  0
LINE
  5
37E
  8
0
 62
     7
 10
99.662800000000004
 20
108.15000000000001
 30
0.0
 11
100.255
 21
105.9379999999999
 31
0.0
  0
LINE
  5
37F
  8
0
 62
     7
 10
100.255
 20
105.9379999999999
 30
0.0
 11
100.848
 21
108.15000000000001
 31
0.0
  0
LINE
  5
380
  8
0
 62
     7
 10
100.848
 20
108.15000000000001
 30
0.0
 11
99.662800000000004
 21
108.15000000000001
 31
0.0
  0
LINE
  5
381
  8
0
 62
     7
 10
100.255
 20
105.9379999999999
 30
0.0
 11
100.255
 21
165.77500000000001
 31
0.0
  0
LINE
  5
382
  8
0
 62
     7
 10
100.848
 20
163.56399999999991
 30
0.0
 11
100.255
 21
165.77500000000001
 31
0.0
  0
LINE
  5
383
  8
0
 62
     7
 10
100.255
 20
165.77500000000001
 30
0.0
 11
99.662800000000004
 21
163.56399999999991
 31
0.0
  0
LINE
  5
384
  8
0
 62
     7
 10
99.662800000000004
 20
163.56399999999991
 30
0.0
 11
100.848
 21
163.56399999999991
 31
0.0
  0
LINE
  5
385
  8
0
 62
     7
 10
93.889300000000006
 20
108.15000000000001
 30
0.0
 11
94.481800000000007
 21
105.9379999999999
 31
0.0
  0
LINE
  5
386
  8
0
 62
     7
 10
94.481800000000007
 20
105.9379999999999
 30
0.0
 11
95.074399999999997
 21
108.15000000000001
 31
0.0
  0
LINE
  5
387
  8
0
 62
     7
 10
95.074399999999997
 20
108.15000000000001
 30
0.0
 11
93.889300000000006
 21
108.15000000000001
 31
0.0
  0
LINE
  5
388
  8
0
 62
     7
 10
94.467399999999998
 20
105.9379999999999
 30
0.0
 11
94.467399999999998
 21
166.43899999999999
 31
0.0
  0
LINE
  5
389
  8
0
 62
     7
 10
166.393
 20
183.93799999999999
 30
0.0
 11
153.9789999999999
 21
183.93799999999999
 31
0.0
  0
LINE
  5
38A
  8
0
 62
     7
 10
166.393
 20
105.9379999999999
 30
0.0
 11
155.44599999999991
 21
105.9379999999999
 31
0.0
  0
LINE
  5
38B
  8
0
 62
     7
 10
140.99600000000001
 20
106.93899999999999
 30
0.0
 11
140.99600000000001
 21
105.9379999999999
 31
0.0
  0
LINE
  5
38C
  8
0
 62
     7
 10
154.74600000000001
 20
106.93899999999999
 30
0.0
 11
154.74600000000001
 21
105.9379999999999
 31
0.0
  0
LINE
  5
38D
  8
0
 62
     7
 10
140.99600000000001
 20
106.93899999999999
 30
0.0
 11
154.74600000000001
 21
106.93899999999999
 31
0.0
  0
LINE
  5
38E
  8
0
 62
     7
 10
140.99600000000001
 20
105.9379999999999
 30
0.0
 11
154.74600000000001
 21
105.9379999999999
 31
0.0
  0
LINE
  5
38F
  8
0
 62
     7
 10
63.702300000000001
 20
106.93899999999999
 30
0.0
 11
63.702300000000001
 21
105.9379999999999
 31
0.0
  0
LINE
  5
390
  8
0
 62
     7
 10
49.952100000000002
 20
106.93899999999999
 30
0.0
 11
49.952100000000002
 21
105.9379999999999
 31
0.0
  0
LINE
  5
391
  8
0
 62
     7
 10
63.702300000000001
 20
106.93899999999999
 30
0.0
 11
49.952100000000002
 21
106.93899999999999
 31
0.0
  0
LINE
  5
392
  8
0
  6
AIGENLINE002
 62
     7
 10
56.827199999999991
 20
90.055400000000006
 30
0.0
 11
56.827199999999991
 21
112.351
 31
0.0
  0
LINE
  5
393
  8
0
 62
     7
 10
49.952100000000002
 20
105.9379999999999
 30
0.0
 11
63.702300000000001
 21
105.9379999999999
 31
0.0
  0
LINE
  5
394
  8
0
 62
     7
 10
139.249
 20
57.563099999999999
 30
0.0
 11
139.249
 21
80.679100000000005
 31
0.0
  0
LINE
  5
395
  8
0
 62
     7
 10
136.62399999999991
 20
80.679100000000005
 30
0.0
 11
136.62399999999991
 21
57.563099999999999
 31
0.0
  0
LINE
  5
396
  8
0
  6
AIGENLINE002
 62
     7
 10
137.93700000000001
 20
84.687899999999999
 30
0.0
 11
137.93700000000001
 21
48.5989
 31
0.0
  0
LINE
  5
397
  8
0
 62
     7
 10
137.93700000000001
 20
50.061
 30
0.0
 11
137.93700000000001
 21
52.686199999999999
 31
0.0
  0
LINE
  5
398
  8
0
 62
     7
 10
135.56100000000001
 20
50.061
 30
0.0
 11
135.56100000000001
 21
52.686199999999999
 31
0.0
  0
ARC
  5
399
  8
0
 62
     7
 10
141.1848949999999
 20
72.509830000000008
 30
0.0
 40
23.142506999999998
 50
255.936249
 51
256.95002199999999
  0
ARC
  5
39A
  8
0
 62
     7
 10
137.05581699999999
 20
54.814689000000001
 30
0.0
 40
4.9720930000000001
 50
257.25949700000001
 51
263.09643
  0
ARC
  5
39B
  8
0
 62
     7
 10
136.77221900000001
 20
52.690681000000012
 30
0.0
 40
2.8295180000000002
 50
263.62774799999988
 51
269.79011099999991
  0
ARC
  5
39C
  8
0
 62
     7
 10
136.76053300000001
 20
52.382156999999999
 30
0.0
 40
2.5209749999999991
 50
270.03002299999991
 51
277.20703900000001
  0
ARC
  5
39D
  8
0
 62
     7
 10
136.54865799999999
 20
54.17709399999999
 30
0.0
 40
4.3283379999999987
 50
277.008714
 51
283.59966600000001
  0
ARC
  5
39E
  8
0
 62
     7
 10
133.766537
 20
66.248637999999985
 30
0.0
 40
16.716142999999992
 50
283.13919599999991
 51
284.445897
  0
ARC
  5
39F
  8
0
 62
     7
 10
136.31774599999989
 20
47.952052000000002
 30
0.0
 40
5.0032759999999996
 50
71.121235999999996
 51
78.868915000000001
  0
ARC
  5
3A0
  8
0
 62
     7
 10
136.73082600000001
 20
49.898257999999998
 30
0.0
 40
3.014079999999999
 50
79.431341000000003
 51
89.410163999999995
  0
ARC
  5
3A1
  8
0
 62
     7
 10
136.76219900000001
 20
50.029313999999999
 30
0.0
 40
2.8828640000000001
 50
90.006844999999998
 51
100.852923
  0
ARC
  5
3A2
  8
0
 62
     7
 10
137.0069179999999
 20
48.560361999999998
 30
0.0
 40
4.3717699999999988
 50
100.3779049999999
 51
109.3104749999999
  0
ARC
  5
3A3
  8
0
 62
     7
 10
143.5143939999999
 20
72.326405000000008
 30
0.0
 40
22.953423999999998
 50
255.9361529999999
 51
256.95859000000002
  0
ARC
  5
3A4
  8
0
 62
     7
 10
139.43330900000001
 20
54.825080999999997
 30
0.0
 40
4.9826600000000001
 50
257.2639299999999
 51
263.08700699999991
  0
ARC
  5
3A5
  8
0
 62
     7
 10
139.14716299999989
 20
52.682193999999988
 30
0.0
 40
2.8210309999999992
 50
263.617998
 51
269.78492499999987
  0
ARC
  5
3A6
  8
0
 62
     7
 10
139.13525899999999
 20
52.384619000000001
 30
0.0
 40
2.523436999999999
 50
270.02984600000002
 51
277.20351699999992
  0
ARC
  5
3A7
  8
0
 62
     7
 10
138.92328000000001
 20
54.179993000000003
 30
0.0
 40
4.3312460000000002
 50
277.00742700000001
 51
283.59563300000002
  0
ARC
  5
3A8
  8
0
 62
     7
 10
136.07783399999991
 20
66.526731999999996
 30
0.0
 40
17.001439000000001
 50
283.13524999999993
 51
284.42132700000002
  0
LINE
  5
3A9
  8
0
 62
     7
 10
140.31200000000001
 20
50.061
 30
0.0
 11
140.31200000000001
 21
52.686199999999999
 31
0.0
  0
ARC
  5
3AA
  8
0
 62
     7
 10
138.68737899999991
 20
47.929253000000003
 30
0.0
 40
5.0267169999999988
 50
71.143041000000011
 51
78.857030000000009
  0
ARC
  5
3AB
  8
0
 62
     7
 10
139.10577599999999
 20
49.89559899999999
 30
0.0
 40
3.016735999999999
 50
79.436267999999998
 51
89.415066000000024
  0
ARC
  5
3AC
  8
0
 62
     7
 10
139.13691900000001
 20
50.034960999999988
 30
0.0
 40
2.877216999999999
 50
90.006888999999987
 51
100.863602
  0
ARC
  5
3AD
  8
0
 62
     7
 10
139.3842129999999
 20
48.553927000000002
 30
0.0
 40
4.3784669999999988
 50
100.388957
 51
109.305924
  0
LINE
  5
3AE
  8
0
 62
     7
 10
140.31200000000001
 20
49.86119999999999
 30
0.0
 11
140.31200000000001
 21
50.061
 31
0.0
  0
LINE
  5
3AF
  8
0
 62
     7
 10
140.31200000000001
 20
52.686199999999999
 30
0.0
 11
140.31200000000001
 21
52.912199999999999
 31
0.0
  0
LINE
  5
3B0
  8
0
 62
     7
 10
135.56100000000001
 20
49.86119999999999
 30
0.0
 11
135.56100000000001
 21
50.061
 31
0.0
  0
LINE
  5
3B1
  8
0
 62
     7
 10
135.56100000000001
 20
52.686199999999999
 30
0.0
 11
135.56100000000001
 21
52.912199999999999
 31
0.0
  0
LINE
  5
3B2
  8
0
 62
     7
 10
139.18700000000001
 20
53.086500000000001
 30
0.0
 11
137.93700000000001
 21
53.086500000000001
 31
0.0
  0
LINE
  5
3B3
  8
0
 62
     7
 10
137.93700000000001
 20
53.086500000000001
 30
0.0
 11
136.68700000000001
 21
53.086500000000001
 31
0.0
  0
LINE
  5
3B4
  8
0
 62
     7
 10
140.31200000000001
 20
49.86119999999999
 30
0.0
 11
140.23699999999991
 21
49.811599999999999
 31
0.0
  0
LINE
  5
3B5
  8
0
 62
     7
 10
140.23699999999991
 20
49.811599999999999
 30
0.0
 11
135.636
 21
49.811599999999999
 31
0.0
  0
LINE
  5
3B6
  8
0
 62
     7
 10
135.636
 20
49.811599999999999
 30
0.0
 11
135.56100000000001
 21
49.86119999999999
 31
0.0
  0
ARC
  5
3B7
  8
0
 62
     7
 10
140.29355000000001
 20
52.878436000000001
 30
0.0
 40
0.038479
 50
61.269488000000003
 51
90.14337900000001
  0
ARC
  5
3B8
  8
0
 62
     7
 10
140.13196099999999
 20
51.559395999999992
 30
0.0
 40
1.3670910000000001
 50
83.215862000000001
 51
88.382508000000001
  0
ARC
  5
3B9
  8
0
 62
     7
 10
139.624056
 20
39.341645999999997
 30
0.0
 40
13.595285000000001
 50
87.696236999999996
 51
89.304100000000005
  0
ARC
  5
3BA
  8
0
 62
     7
 10
138.710938
 20
-22.344902999999999
 30
0.0
 40
75.288551999999996
 50
89.179406999999998
 51
89.888685999999993
  0
ARC
  5
3BB
  8
0
 62
     7
 10
138.01264900000001
 20
-325.16166099999992
 30
0.0
 40
378.106111
 50
89.872012999999995
 51
90.360083999999986
  0
LINE
  5
3BC
  8
0
 62
     7
 10
135.636
 20
52.936999999999998
 30
0.0
 11
135.56100000000001
 21
52.912199999999999
 31
0.0
  0
LINE
  5
3BD
  8
0
 62
     7
 10
139.48699999999999
 20
52.936999999999998
 30
0.0
 11
139.48699999999999
 21
53.061700000000002
 31
0.0
  0
LINE
  5
3BE
  8
0
 62
     7
 10
139.48699999999999
 20
53.061700000000002
 30
0.0
 11
136.386
 21
53.061700000000002
 31
0.0
  0
LINE
  5
3BF
  8
0
 62
     7
 10
136.386
 20
52.936999999999998
 30
0.0
 11
136.386
 21
53.061700000000002
 31
0.0
  0
LINE
  5
3C0
  8
0
 62
     7
 10
136.68700000000001
 20
53.086500000000001
 30
0.0
 11
136.31200000000001
 21
53.387599999999999
 31
0.0
  0
LINE
  5
3C1
  8
0
 62
     7
 10
136.31200000000001
 20
53.387599999999999
 30
0.0
 11
136.28599999999989
 21
53.88709999999999
 31
0.0
  0
LINE
  5
3C2
  8
0
 62
     7
 10
139.58799999999999
 20
53.88709999999999
 30
0.0
 11
139.56200000000001
 21
53.387599999999999
 31
0.0
  0
LINE
  5
3C3
  8
0
 62
     7
 10
139.56200000000001
 20
53.387599999999999
 30
0.0
 11
139.18700000000001
 21
53.086500000000001
 31
0.0
  0
LINE
  5
3C4
  8
0
 62
     7
 10
139.38699999999989
 20
54.3123
 30
0.0
 11
136.48699999999999
 21
54.3123
 31
0.0
  0
LINE
  5
3C5
  8
0
 62
     7
 10
136.48699999999999
 20
54.3123
 30
0.0
 11
136.28599999999989
 21
53.88709999999999
 31
0.0
  0
LINE
  5
3C6
  8
0
 62
     7
 10
139.58799999999999
 20
53.88709999999999
 30
0.0
 11
139.38699999999989
 21
54.3123
 31
0.0
  0
LINE
  5
3C7
  8
0
 62
     7
 10
139.38699999999989
 20
56.3125
 30
0.0
 11
136.48699999999999
 21
56.3125
 31
0.0
  0
LINE
  5
3C8
  8
0
 62
     7
 10
136.48699999999999
 20
54.3123
 30
0.0
 11
136.48699999999999
 21
56.3125
 31
0.0
  0
LINE
  5
3C9
  8
0
 62
     7
 10
139.38699999999989
 20
54.3123
 30
0.0
 11
139.38699999999989
 21
56.3125
 31
0.0
  0
LINE
  5
3CA
  8
0
 62
     7
 10
136.48699999999999
 20
56.3125
 30
0.0
 11
136.31200000000001
 21
56.61290000000001
 31
0.0
  0
LINE
  5
3CB
  8
0
 62
     7
 10
139.56200000000001
 20
56.61290000000001
 30
0.0
 11
139.38699999999989
 21
56.3125
 31
0.0
  0
LINE
  5
3CC
  8
0
 62
     7
 10
136.31200000000001
 20
56.61290000000001
 30
0.0
 11
136.26099999999991
 21
56.7376
 31
0.0
  0
LINE
  5
3CD
  8
0
 62
     7
 10
136.26099999999991
 20
56.7376
 30
0.0
 11
136.26099999999991
 21
56.862299999999998
 31
0.0
  0
ARC
  5
3CE
  8
0
 62
     7
 10
139.019035
 20
56.921177
 30
0.0
 40
0.620564
 50
339.65870099999989
 51
354.56034
  0
ARC
  5
3CF
  8
0
 62
     7
 10
138.94177899999991
 20
56.930089999999993
 30
0.0
 40
0.6963460000000001
 50
332.90463599999993
 51
341.18094600000001
  0
LINE
  5
3D0
  8
0
 62
     7
 10
139.637
 20
56.862299999999998
 30
0.0
 11
139.637
 21
57.563099999999999
 31
0.0
  0
LINE
  5
3D1
  8
0
 62
     7
 10
139.637
 20
57.563099999999999
 30
0.0
 11
136.26099999999991
 21
57.563099999999999
 31
0.0
  0
LINE
  5
3D2
  8
0
 62
     7
 10
136.26099999999991
 20
56.862299999999998
 30
0.0
 11
136.26099999999991
 21
57.563099999999999
 31
0.0
  0
LINE
  5
3D3
  8
0
  6
AIGENLINE002
 62
     7
 10
149.37100000000001
 20
67.420299999999983
 30
0.0
 11
137.93700000000001
 21
84.687899999999999
 31
0.0
  0
LINE
  5
3D4
  8
0
 62
     7
 10
131.61600000000001
 20
57.563099999999999
 30
0.0
 11
131.61600000000001
 21
80.679100000000005
 31
0.0
  0
LINE
  5
3D5
  8
0
 62
     7
 10
128.99000000000001
 20
80.679100000000005
 30
0.0
 11
128.99000000000001
 21
57.563099999999999
 31
0.0
  0
LINE
  5
3D6
  8
0
  6
AIGENLINE002
 62
     7
 10
130.30299999999991
 20
84.687899999999999
 30
0.0
 11
130.30299999999991
 21
48.5989
 31
0.0
  0
LINE
  5
3D7
  8
0
 62
     7
 10
130.30299999999991
 20
50.061
 30
0.0
 11
130.30299999999991
 21
52.686199999999999
 31
0.0
  0
LINE
  5
3D8
  8
0
 62
     7
 10
127.9279999999999
 20
50.061
 30
0.0
 11
127.9279999999999
 21
52.686199999999999
 31
0.0
  0
ARC
  5
3D9
  8
0
 62
     7
 10
133.55120500000001
 20
72.509830000000008
 30
0.0
 40
23.142506999999998
 50
255.936249
 51
256.95002199999999
  0
ARC
  5
3DA
  8
0
 62
     7
 10
129.42212599999999
 20
54.814689000000001
 30
0.0
 40
4.9720930000000001
 50
257.25949700000001
 51
263.09643
  0
ARC
  5
3DB
  8
0
 62
     7
 10
129.13852800000001
 20
52.690681000000012
 30
0.0
 40
2.8295180000000002
 50
263.62774799999988
 51
269.79011099999991
  0
ARC
  5
3DC
  8
0
 62
     7
 10
129.1268419999999
 20
52.382156999999999
 30
0.0
 40
2.5209749999999991
 50
270.03002299999991
 51
277.20703900000001
  0
ARC
  5
3DD
  8
0
 62
     7
 10
128.91496699999999
 20
54.17709399999999
 30
0.0
 40
4.3283379999999987
 50
277.008714
 51
283.59966600000001
  0
ARC
  5
3DE
  8
0
 62
     7
 10
126.132846
 20
66.248637999999985
 30
0.0
 40
16.716142999999992
 50
283.13919599999991
 51
284.445897
  0
ARC
  5
3DF
  8
0
 62
     7
 10
128.68405499999989
 20
47.952052000000002
 30
0.0
 40
5.0032759999999996
 50
71.121235999999996
 51
78.868915000000001
  0
ARC
  5
3E0
  8
0
 62
     7
 10
129.09713500000001
 20
49.898257999999998
 30
0.0
 40
3.014079999999999
 50
79.431341000000003
 51
89.410163999999995
  0
ARC
  5
3E1
  8
0
 62
     7
 10
129.12850800000001
 20
50.029313999999999
 30
0.0
 40
2.8828640000000001
 50
90.006844999999998
 51
100.852923
  0
ARC
  5
3E2
  8
0
 62
     7
 10
129.37322700000001
 20
48.560361999999998
 30
0.0
 40
4.3717699999999988
 50
100.3779049999999
 51
109.3104749999999
  0
ARC
  5
3E3
  8
0
 62
     7
 10
135.88070300000001
 20
72.326405000000008
 30
0.0
 40
22.953423999999998
 50
255.9361529999999
 51
256.95859000000002
  0
ARC
  5
3E4
  8
0
 62
     7
 10
131.7996179999999
 20
54.825080999999997
 30
0.0
 40
4.9826600000000001
 50
257.2639299999999
 51
263.08700699999991
  0
ARC
  5
3E5
  8
0
 62
     7
 10
131.51347200000001
 20
52.682193999999988
 30
0.0
 40
2.8210309999999992
 50
263.617998
 51
269.78492499999987
  0
ARC
  5
3E6
  8
0
 62
     7
 10
131.50156799999991
 20
52.384619000000001
 30
0.0
 40
2.523436999999999
 50
270.02984600000002
 51
277.20351699999992
  0
ARC
  5
3E7
  8
0
 62
     7
 10
131.28958899999989
 20
54.179993000000003
 30
0.0
 40
4.3312460000000002
 50
277.00742700000001
 51
283.59563300000002
  0
ARC
  5
3E8
  8
0
 62
     7
 10
128.444143
 20
66.526731999999996
 30
0.0
 40
17.001439000000001
 50
283.13524999999993
 51
284.42132700000002
  0
LINE
  5
3E9
  8
0
 62
     7
 10
132.678
 20
50.061
 30
0.0
 11
132.678
 21
52.686199999999999
 31
0.0
  0
ARC
  5
3EA
  8
0
 62
     7
 10
131.05368899999991
 20
47.929253000000003
 30
0.0
 40
5.0267169999999988
 50
71.143041000000011
 51
78.857030000000009
  0
ARC
  5
3EB
  8
0
 62
     7
 10
131.47208499999999
 20
49.89559899999999
 30
0.0
 40
3.016735999999999
 50
79.436267999999998
 51
89.415066000000024
  0
ARC
  5
3EC
  8
0
 62
     7
 10
131.50322899999989
 20
50.034960999999988
 30
0.0
 40
2.877216999999999
 50
90.006888999999987
 51
100.863602
  0
ARC
  5
3ED
  8
0
 62
     7
 10
131.7505219999999
 20
48.553927000000002
 30
0.0
 40
4.3784669999999988
 50
100.388957
 51
109.305924
  0
LINE
  5
3EE
  8
0
 62
     7
 10
132.678
 20
49.86119999999999
 30
0.0
 11
132.678
 21
50.061
 31
0.0
  0
LINE
  5
3EF
  8
0
 62
     7
 10
132.678
 20
52.686199999999999
 30
0.0
 11
132.678
 21
52.912199999999999
 31
0.0
  0
LINE
  5
3F0
  8
0
 62
     7
 10
127.9279999999999
 20
49.86119999999999
 30
0.0
 11
127.9279999999999
 21
50.061
 31
0.0
  0
LINE
  5
3F1
  8
0
 62
     7
 10
127.9279999999999
 20
52.686199999999999
 30
0.0
 11
127.9279999999999
 21
52.912199999999999
 31
0.0
  0
LINE
  5
3F2
  8
0
 62
     7
 10
131.554
 20
53.086500000000001
 30
0.0
 11
130.30299999999991
 21
53.086500000000001
 31
0.0
  0
LINE
  5
3F3
  8
0
 62
     7
 10
130.30299999999991
 20
53.086500000000001
 30
0.0
 11
129.05299999999991
 21
53.086500000000001
 31
0.0
  0
LINE
  5
3F4
  8
0
 62
     7
 10
132.678
 20
49.86119999999999
 30
0.0
 11
132.60299999999989
 21
49.811599999999999
 31
0.0
  0
LINE
  5
3F5
  8
0
 62
     7
 10
132.60299999999989
 20
49.811599999999999
 30
0.0
 11
128.0029999999999
 21
49.811599999999999
 31
0.0
  0
LINE
  5
3F6
  8
0
 62
     7
 10
128.0029999999999
 20
49.811599999999999
 30
0.0
 11
127.9279999999999
 21
49.86119999999999
 31
0.0
  0
ARC
  5
3F7
  8
0
 62
     7
 10
132.65986000000001
 20
52.878436000000001
 30
0.0
 40
0.038479
 50
61.269488000000003
 51
90.14337900000001
  0
ARC
  5
3F8
  8
0
 62
     7
 10
132.49826999999991
 20
51.559395999999992
 30
0.0
 40
1.3670910000000001
 50
83.215862000000001
 51
88.382508000000001
  0
ARC
  5
3F9
  8
0
 62
     7
 10
131.99036599999999
 20
39.341645999999997
 30
0.0
 40
13.595285000000001
 50
87.696236999999996
 51
89.304100000000005
  0
ARC
  5
3FA
  8
0
 62
     7
 10
131.077248
 20
-22.344902999999999
 30
0.0
 40
75.288551999999996
 50
89.179406999999998
 51
89.888685999999993
  0
ARC
  5
3FB
  8
0
 62
     7
 10
130.37895900000001
 20
-325.16166099999992
 30
0.0
 40
378.106111
 50
89.872012999999995
 51
90.360083999999986
  0
LINE
  5
3FC
  8
0
 62
     7
 10
128.0029999999999
 20
52.936999999999998
 30
0.0
 11
127.9279999999999
 21
52.912199999999999
 31
0.0
  0
LINE
  5
3FD
  8
0
 62
     7
 10
131.85299999999989
 20
52.936999999999998
 30
0.0
 11
131.85299999999989
 21
53.061700000000002
 31
0.0
  0
LINE
  5
3FE
  8
0
 62
     7
 10
131.85299999999989
 20
53.061700000000002
 30
0.0
 11
128.7529999999999
 21
53.061700000000002
 31
0.0
  0
LINE
  5
3FF
  8
0
 62
     7
 10
128.7529999999999
 20
52.936999999999998
 30
0.0
 11
128.7529999999999
 21
53.061700000000002
 31
0.0
  0
LINE
  5
400
  8
0
 62
     7
 10
129.05299999999991
 20
53.086500000000001
 30
0.0
 11
128.678
 21
53.387599999999999
 31
0.0
  0
LINE
  5
401
  8
0
 62
     7
 10
128.678
 20
53.387599999999999
 30
0.0
 11
128.65299999999991
 21
53.88709999999999
 31
0.0
  0
LINE
  5
402
  8
0
 62
     7
 10
131.95400000000001
 20
53.88709999999999
 30
0.0
 11
131.928
 21
53.387599999999999
 31
0.0
  0
LINE
  5
403
  8
0
 62
     7
 10
131.928
 20
53.387599999999999
 30
0.0
 11
131.554
 21
53.086500000000001
 31
0.0
  0
LINE
  5
404
  8
0
 62
     7
 10
131.7529999999999
 20
54.3123
 30
0.0
 11
128.8539999999999
 21
54.3123
 31
0.0
  0
LINE
  5
405
  8
0
 62
     7
 10
128.8539999999999
 20
54.3123
 30
0.0
 11
128.65299999999991
 21
53.88709999999999
 31
0.0
  0
LINE
  5
406
  8
0
 62
     7
 10
131.95400000000001
 20
53.88709999999999
 30
0.0
 11
131.7529999999999
 21
54.3123
 31
0.0
  0
LINE
  5
407
  8
0
 62
     7
 10
131.7529999999999
 20
56.3125
 30
0.0
 11
128.8539999999999
 21
56.3125
 31
0.0
  0
LINE
  5
408
  8
0
 62
     7
 10
128.24000000000001
 20
42.461100000000002
 30
0.0
 11
128.24000000000001
 21
49.371299999999991
 31
0.0
  0
LINE
  5
409
  8
0
 62
     7
 10
132.36600000000001
 20
42.461100000000002
 30
0.0
 11
132.36600000000001
 21
49.371299999999991
 31
0.0
  0
LINE
  5
40A
  8
0
 62
     7
 10
128.8539999999999
 20
54.3123
 30
0.0
 11
128.8539999999999
 21
56.3125
 31
0.0
  0
LINE
  5
40B
  8
0
 62
     7
 10
131.7529999999999
 20
54.3123
 30
0.0
 11
131.7529999999999
 21
56.3125
 31
0.0
  0
LINE
  5
40C
  8
0
 62
     7
 10
128.8539999999999
 20
56.3125
 30
0.0
 11
128.678
 21
56.61290000000001
 31
0.0
  0
LINE
  5
40D
  8
0
 62
     7
 10
131.928
 20
56.61290000000001
 30
0.0
 11
131.7529999999999
 21
56.3125
 31
0.0
  0
LINE
  5
40E
  8
0
 62
     7
 10
128.678
 20
56.61290000000001
 30
0.0
 11
128.6279999999999
 21
56.7376
 31
0.0
  0
LINE
  5
40F
  8
0
 62
     7
 10
128.6279999999999
 20
56.7376
 30
0.0
 11
128.6279999999999
 21
56.862299999999998
 31
0.0
  0
ARC
  5
410
  8
0
 62
     7
 10
131.385344
 20
56.921177
 30
0.0
 40
0.620564
 50
339.65870099999989
 51
354.56034
  0
ARC
  5
411
  8
0
 62
     7
 10
131.308088
 20
56.930089999999993
 30
0.0
 40
0.6963460000000001
 50
332.90463599999993
 51
341.18094600000001
  0
LINE
  5
412
  8
0
 62
     7
 10
132.0029999999999
 20
56.862299999999998
 30
0.0
 11
132.0029999999999
 21
57.563099999999999
 31
0.0
  0
LINE
  5
413
  8
0
 62
     7
 10
132.0029999999999
 20
57.563099999999999
 30
0.0
 11
128.6279999999999
 21
57.563099999999999
 31
0.0
  0
LINE
  5
414
  8
0
 62
     7
 10
128.6279999999999
 20
56.862299999999998
 30
0.0
 11
128.6279999999999
 21
57.563099999999999
 31
0.0
  0
LINE
  5
415
  8
0
 62
     7
 10
145.62100000000001
 20
95.524799999999999
 30
0.0
 11
145.12100000000001
 21
95.524799999999999
 31
0.0
  0
LINE
  5
416
  8
0
 62
     7
 10
147.87100000000001
 20
96.937999999999988
 30
0.0
 11
142.87100000000001
 21
96.937999999999988
 31
0.0
  0
LINE
  5
417
  8
0
 62
     7
 10
142.87100000000001
 20
96.937999999999988
 30
0.0
 11
142.87100000000001
 21
95.629599999999996
 31
0.0
  0
ARC
  5
418
  8
0
 62
     7
 10
143.087176
 20
95.666948000000005
 30
0.0
 40
0.219645
 50
189.79943700000001
 51
199.97778099999999
  0
ARC
  5
419
  8
0
 62
     7
 10
143.32932600000001
 20
95.746444999999994
 30
0.0
 40
0.4744520000000001
 50
199.00930299999999
 51
228.11542899999989
  0
ARC
  5
41A
  8
0
 62
     7
 10
143.460038
 20
95.877803
 30
0.0
 40
0.6595850000000001
 50
227.28017299999991
 51
252.33762300000001
  0
ARC
  5
41B
  8
0
 62
     7
 10
143.60487000000001
 20
96.258712000000003
 30
0.0
 40
1.0667180000000001
 50
251.13257599999989
 51
264.37709799999999
  0
ARC
  5
41C
  8
0
 62
     7
 10
143.67100600000001
 20
96.769272000000015
 30
0.0
 40
1.58138
 50
263.80489399999999
 51
270.18833099999989
  0
LINE
  5
41D
  8
0
 62
     7
 10
143.67599999999999
 20
95.187899999999999
 30
0.0
 11
147.87100000000001
 21
95.187899999999999
 31
0.0
  0
LINE
  5
41E
  8
0
 62
     7
 10
145.62100000000001
 20
96.937999999999988
 30
0.0
 11
145.62100000000001
 21
95.524799999999999
 31
0.0
  0
ARC
  5
41F
  8
0
 62
     7
 10
145.91478399999991
 20
95.709496000000001
 30
0.0
 40
0.347315
 50
212.11953099999999
 51
220.59112999999999
  0
ARC
  5
420
  8
0
 62
     7
 10
146.26159599999991
 20
95.993460999999996
 30
0.0
 40
0.7955020000000002
 50
219.86935
 51
257.56386400000002
  0
ARC
  5
421
  8
0
 62
     7
 10
146.33035899999999
 20
96.204735000000014
 30
0.0
 40
1.016856999999999
 50
256.34379000000001
 51
270.38615800000002
  0
LINE
  5
422
  8
0
 62
     7
 10
145.12100000000001
 20
96.937999999999988
 30
0.0
 11
145.12100000000001
 21
95.524799999999999
 31
0.0
  0
ARC
  5
423
  8
0
 62
     7
 10
144.19432199999989
 20
97.222191000000024
 30
0.0
 40
1.933721
 50
295.17769199999998
 51
298.6257589999999
  0
ARC
  5
424
  8
0
 62
     7
 10
143.50008600000001
 20
98.614452999999983
 30
0.0
 40
3.4892389999999991
 50
285.35076400000003
 51
295.76840699999991
  0
ARC
  5
425
  8
0
 62
     7
 10
143.94519700000001
 20
97.051484999999985
 30
0.0
 40
1.864264999999999
 50
271.54823900000002
 51
284.87530299999992
  0
LINE
  5
426
  8
0
 62
     7
 10
150.12100000000001
 20
95.524799999999999
 30
0.0
 11
150.62100000000001
 21
95.524799999999999
 31
0.0
  0
LINE
  5
427
  8
0
 62
     7
 10
147.87100000000001
 20
96.937999999999988
 30
0.0
 11
152.87100000000001
 21
96.937999999999988
 31
0.0
  0
LINE
  5
428
  8
0
 62
     7
 10
152.87100000000001
 20
96.937999999999988
 30
0.0
 11
152.87100000000001
 21
95.629599999999996
 31
0.0
  0
ARC
  5
429
  8
0
 62
     7
 10
152.65265299999999
 20
95.665547000000004
 30
0.0
 40
0.220831
 50
340.52020199999993
 51
350.62245300000001
  0
ARC
  5
42A
  8
0
 62
     7
 10
152.39800600000001
 20
95.749107999999993
 30
0.0
 40
0.4888060000000001
 50
302.62547599999999
 51
341.239936
  0
ARC
  5
42B
  8
0
 62
     7
 10
152.25752199999999
 20
95.926951000000003
 30
0.0
 40
0.7146810000000001
 50
288.52716900000001
 51
304.4243029999999
  0
ARC
  5
42C
  8
0
 62
     7
 10
152.14079799999999
 20
96.252573000000012
 30
0.0
 40
1.06054
 50
275.61856599999987
 51
288.91654799999992
  0
ARC
  5
42D
  8
0
 62
     7
 10
152.074094
 20
96.767081000000005
 30
0.0
 40
1.5791889999999991
 50
269.80990899999989
 51
276.19947599999989
  0
LINE
  5
42E
  8
0
 62
     7
 10
152.0689999999999
 20
95.187899999999999
 30
0.0
 11
147.87100000000001
 21
95.187899999999999
 31
0.0
  0
LINE
  5
42F
  8
0
 62
     7
 10
150.12100000000001
 20
96.937999999999988
 30
0.0
 11
150.12100000000001
 21
95.524799999999999
 31
0.0
  0
ARC
  5
430
  8
0
 62
     7
 10
149.82648499999999
 20
95.709496000000001
 30
0.0
 40
0.347315
 50
319.40888999999999
 51
327.8804889999999
  0
ARC
  5
431
  8
0
 62
     7
 10
149.47967199999999
 20
95.993460999999996
 30
0.0
 40
0.7955020000000002
 50
282.43615599999993
 51
320.13067000000001
  0
ARC
  5
432
  8
0
 62
     7
 10
149.410909
 20
96.204735000000014
 30
0.0
 40
1.016856999999999
 50
269.61386199999993
 51
283.65622999999999
  0
LINE
  5
433
  8
0
 62
     7
 10
150.62100000000001
 20
96.937999999999988
 30
0.0
 11
150.62100000000001
 21
95.524799999999999
 31
0.0
  0
ARC
  5
434
  8
0
 62
     7
 10
151.60801299999989
 20
97.340350000000001
 30
0.0
 40
2.0666950000000002
 50
241.45757699999999
 51
244.875202
  0
ARC
  5
435
  8
0
 62
     7
 10
152.23791900000001
 20
98.605679000000009
 30
0.0
 40
3.4799150000000001
 50
244.3308779999999
 51
254.66281499999999
  0
ARC
  5
436
  8
0
 62
     7
 10
151.79607200000001
 20
97.051484999999985
 30
0.0
 40
1.864264999999999
 50
255.12471699999989
 51
268.45178099999998
  0
LINE
  5
437
  8
0
 62
     7
 10
151.7459999999999
 20
95.187899999999999
 30
0.0
 11
151.7459999999999
 21
92.187899999999999
 31
0.0
  0
LINE
  5
438
  8
0
 62
     7
 10
143.99600000000001
 20
95.187899999999999
 30
0.0
 11
143.99600000000001
 21
92.187899999999999
 31
0.0
  0
LINE
  5
439
  8
0
 62
     7
 10
151.995
 20
92.437999999999974
 30
0.0
 11
143.74600000000001
 21
92.437999999999974
 31
0.0
  0
LINE
  5
43A
  8
0
 62
     7
 10
151.995
 20
92.437999999999974
 30
0.0
 11
151.7459999999999
 21
92.187899999999999
 31
0.0
  0
LINE
  5
43B
  8
0
 62
     7
 10
151.7459999999999
 20
92.187899999999999
 30
0.0
 11
143.99600000000001
 21
92.187899999999999
 31
0.0
  0
LINE
  5
43C
  8
0
 62
     7
 10
143.99600000000001
 20
92.187899999999999
 30
0.0
 11
143.74600000000001
 21
92.437999999999974
 31
0.0
  0
LINE
  5
43D
  8
0
 62
     7
 10
143.74600000000001
 20
92.437999999999974
 30
0.0
 11
143.74600000000001
 21
95.187899999999999
 31
0.0
  0
LINE
  5
43E
  8
0
 62
     7
 10
143.74600000000001
 20
95.187899999999999
 30
0.0
 11
151.995
 21
95.187899999999999
 31
0.0
  0
LINE
  5
43F
  8
0
 62
     7
 10
151.995
 20
95.187899999999999
 30
0.0
 11
151.995
 21
92.437999999999974
 31
0.0
  0
LINE
  5
440
  8
0
 62
     7
 10
151.7459999999999
 20
105.9379999999999
 30
0.0
 11
151.7459999999999
 21
98.437999999999988
 31
0.0
  0
LINE
  5
441
  8
0
 62
     7
 10
143.99600000000001
 20
105.9379999999999
 30
0.0
 11
143.99600000000001
 21
98.437999999999988
 31
0.0
  0
LINE
  5
442
  8
0
 62
     7
 10
151.995
 20
98.437999999999988
 30
0.0
 11
143.74600000000001
 21
98.437999999999988
 31
0.0
  0
LINE
  5
443
  8
0
 62
     7
 10
143.74600000000001
 20
98.437999999999988
 30
0.0
 11
143.74600000000001
 21
105.9379999999999
 31
0.0
  0
LINE
  5
444
  8
0
 62
     7
 10
143.74600000000001
 20
105.9379999999999
 30
0.0
 11
151.995
 21
105.9379999999999
 31
0.0
  0
LINE
  5
445
  8
0
 62
     7
 10
151.995
 20
105.9379999999999
 30
0.0
 11
151.995
 21
98.437999999999988
 31
0.0
  0
LINE
  5
446
  8
0
 62
     7
 10
153.37100000000001
 20
96.937999999999988
 30
0.0
 11
142.3709999999999
 21
96.937999999999988
 31
0.0
  0
LINE
  5
447
  8
0
 62
     7
 10
142.3709999999999
 20
96.937999999999988
 30
0.0
 11
142.3709999999999
 21
97.562999999999988
 31
0.0
  0
LINE
  5
448
  8
0
 62
     7
 10
142.3709999999999
 20
97.562999999999988
 30
0.0
 11
153.37100000000001
 21
97.562999999999988
 31
0.0
  0
LINE
  5
449
  8
0
 62
     7
 10
153.37100000000001
 20
97.562999999999988
 30
0.0
 11
153.37100000000001
 21
96.937999999999988
 31
0.0
  0
LINE
  5
44A
  8
0
 62
     7
 10
153.87100000000001
 20
97.562999999999988
 30
0.0
 11
141.87100000000001
 21
97.562999999999988
 31
0.0
  0
LINE
  5
44B
  8
0
 62
     7
 10
141.87100000000001
 20
97.562999999999988
 30
0.0
 11
141.87100000000001
 21
97.937799999999996
 31
0.0
  0
LINE
  5
44C
  8
0
 62
     7
 10
141.87100000000001
 20
97.937799999999996
 30
0.0
 11
153.87100000000001
 21
97.937799999999996
 31
0.0
  0
LINE
  5
44D
  8
0
 62
     7
 10
153.87100000000001
 20
97.937799999999996
 30
0.0
 11
153.87100000000001
 21
97.562999999999988
 31
0.0
  0
LINE
  5
44E
  8
0
 62
     7
 10
153.87100000000001
 20
97.937799999999996
 30
0.0
 11
141.87100000000001
 21
97.937799999999996
 31
0.0
  0
LINE
  5
44F
  8
0
 62
     7
 10
141.87100000000001
 20
97.937799999999996
 30
0.0
 11
141.87100000000001
 21
98.437999999999988
 31
0.0
  0
LINE
  5
450
  8
0
 62
     7
 10
141.87100000000001
 20
98.437999999999988
 30
0.0
 11
153.87100000000001
 21
98.437999999999988
 31
0.0
  0
LINE
  5
451
  8
0
 62
     7
 10
153.87100000000001
 20
98.437999999999988
 30
0.0
 11
153.87100000000001
 21
97.937799999999996
 31
0.0
  0
LINE
  5
452
  8
0
  6
AIGENLINE002
 62
     7
 10
146.37100000000001
 20
67.420299999999983
 30
0.0
 11
130.30299999999991
 21
84.687899999999999
 31
0.0
  0
LINE
  5
453
  8
0
 62
     7
 10
148.05799999999991
 20
71.996099999999984
 30
0.0
 11
148.05799999999991
 21
92.187899999999999
 31
0.0
  0
LINE
  5
454
  8
0
 62
     7
 10
150.68299999999991
 20
71.996099999999984
 30
0.0
 11
150.68299999999991
 21
92.187899999999999
 31
0.0
  0
LINE
  5
455
  8
0
  6
AIGENLINE002
 62
     7
 10
149.37100000000001
 20
67.420299999999983
 30
0.0
 11
149.37100000000001
 21
108.318
 31
0.0
  0
LINE
  5
456
  8
0
 62
     7
 10
145.05799999999991
 20
71.996099999999984
 30
0.0
 11
145.05799999999991
 21
92.187899999999999
 31
0.0
  0
LINE
  5
457
  8
0
 62
     7
 10
147.68299999999991
 20
71.996099999999984
 30
0.0
 11
147.68299999999991
 21
92.187899999999999
 31
0.0
  0
LINE
  5
458
  8
0
  6
AIGENLINE002
 62
     7
 10
146.37100000000001
 20
67.420299999999983
 30
0.0
 11
146.37100000000001
 21
108.318
 31
0.0
  0
LINE
  5
459
  8
0
 62
     7
 10
166.28499999999991
 20
181.727
 30
0.0
 11
165.6929999999999
 21
183.93799999999999
 31
0.0
  0
LINE
  5
45A
  8
0
 62
     7
 10
165.6929999999999
 20
183.93799999999999
 30
0.0
 11
165.09999999999991
 21
181.727
 31
0.0
  0
LINE
  5
45B
  8
0
 62
     7
 10
165.09999999999991
 20
181.727
 30
0.0
 11
166.28499999999991
 21
181.727
 31
0.0
  0
LINE
  5
45C
  8
0
 62
     7
 10
89.271900000000016
 20
185.977
 30
0.0
 11
88.679400000000001
 21
188.1879999999999
 31
0.0
  0
LINE
  5
45D
  8
0
 62
     7
 10
88.679400000000001
 20
188.1879999999999
 30
0.0
 11
88.086799999999997
 21
185.977
 31
0.0
  0
LINE
  5
45E
  8
0
 62
     7
 10
88.086799999999997
 20
185.977
 30
0.0
 11
89.271900000000016
 21
185.977
 31
0.0
  0
LINE
  5
45F
  8
0
 62
     7
 10
95.059899999999999
 20
164.22799999999989
 30
0.0
 11
94.467399999999998
 21
166.43899999999999
 31
0.0
  0
LINE
  5
460
  8
0
 62
     7
 10
94.467399999999998
 20
166.43899999999999
 30
0.0
 11
93.874799999999993
 21
164.22799999999989
 31
0.0
  0
LINE
  5
461
  8
0
 62
     7
 10
93.874799999999993
 20
164.22799999999989
 30
0.0
 11
95.059899999999999
 21
164.22799999999989
 31
0.0
  0
LINE
  5
462
  8
0
 62
     7
 10
100.848
 20
103.727
 30
0.0
 11
100.255
 21
105.9379999999999
 31
0.0
  0
LINE
  5
463
  8
0
 62
     7
 10
100.255
 20
105.9379999999999
 30
0.0
 11
99.662800000000004
 21
103.727
 31
0.0
  0
LINE
  5
464
  8
0
 62
     7
 10
99.662800000000004
 20
103.727
 30
0.0
 11
100.848
 21
103.727
 31
0.0
  0
LINE
  5
465
  8
0
 62
     7
 10
99.677199999999985
 20
52.01509999999999
 30
0.0
 11
100.2699999999999
 21
49.803999999999988
 31
0.0
  0
LINE
  5
466
  8
0
 62
     7
 10
100.2699999999999
 20
49.803999999999988
 30
0.0
 11
100.86199999999999
 21
52.01509999999999
 31
0.0
  0
LINE
  5
467
  8
0
 62
     7
 10
100.86199999999999
 20
52.01509999999999
 30
0.0
 11
99.677199999999985
 21
52.01509999999999
 31
0.0
  0
LINE
  5
468
  8
0
 62
     7
 10
100.255
 20
105.9379999999999
 30
0.0
 11
100.255
 21
49.803999999999988
 31
0.0
  0
LINE
  5
469
  8
0
 62
     7
 10
126.59099999999999
 20
49.803999999999988
 30
0.0
 11
99.569699999999997
 21
49.803999999999988
 31
0.0
  0
LINE
  5
46A
  8
0
 62
     7
 10
136.77699999999999
 20
103.727
 30
0.0
 11
136.185
 21
105.9379999999999
 31
0.0
  0
LINE
  5
46B
  8
0
 62
     7
 10
136.185
 20
105.9379999999999
 30
0.0
 11
135.59200000000001
 21
103.727
 31
0.0
  0
LINE
  5
46C
  8
0
 62
     7
 10
135.59200000000001
 20
103.727
 30
0.0
 11
136.77699999999999
 21
103.727
 31
0.0
  0
LINE
  5
46D
  8
0
 62
     7
 10
135.607
 20
100.65000000000001
 30
0.0
 11
136.1989999999999
 21
98.437999999999988
 31
0.0
  0
LINE
  5
46E
  8
0
 62
     7
 10
136.1989999999999
 20
98.437999999999988
 30
0.0
 11
136.792
 21
100.65000000000001
 31
0.0
  0
LINE
  5
46F
  8
0
 62
     7
 10
136.792
 20
100.65000000000001
 30
0.0
 11
135.607
 21
100.65000000000001
 31
0.0
  0
LINE
  5
470
  8
0
 62
     7
 10
136.185
 20
105.9379999999999
 30
0.0
 11
136.185
 21
98.437999999999988
 31
0.0
  0
LINE
  5
471
  8
0
 62
     7
 10
141.28700000000001
 20
98.437999999999988
 30
0.0
 11
135.48500000000001
 21
98.437999999999988
 31
0.0
  0
LINE
  5
472
  8
0
 62
     7
 10
134.50599999999989
 20
43.435299999999998
 30
0.0
 11
132.2949999999999
 21
42.84279999999999
 31
0.0
  0
LINE
  5
473
  8
0
 62
     7
 10
132.2949999999999
 20
42.84279999999999
 30
0.0
 11
134.50599999999989
 21
42.250900000000001
 31
0.0
  0
LINE
  5
474
  8
0
 62
     7
 10
134.50599999999989
 20
42.250900000000001
 30
0.0
 11
134.50599999999989
 21
43.435299999999998
 31
0.0
  0
LINE
  5
475
  8
0
 62
     7
 10
125.95999999999999
 20
42.264699999999991
 30
0.0
 11
128.1699999999999
 21
42.857300000000002
 31
0.0
  0
LINE
  5
476
  8
0
 62
     7
 10
128.1699999999999
 20
42.857300000000002
 30
0.0
 11
125.95999999999999
 21
43.449800000000003
 31
0.0
  0
LINE
  5
477
  8
0
 62
     7
 10
125.95999999999999
 20
43.449800000000003
 30
0.0
 11
125.95999999999999
 21
42.264699999999991
 31
0.0
  0
LINE
  5
478
  8
0
 62
     7
 10
118.90899999999991
 20
42.8504
 30
0.0
 11
136.01099999999991
 21
42.8504
 31
0.0
  0
LINE
  5
479
  8
0
 62
     7
 10
54.577199999999998
 20
95.524799999999999
 30
0.0
 11
54.077300000000001
 21
95.524799999999999
 31
0.0
  0
LINE
  5
47A
  8
0
 62
     7
 10
56.827199999999991
 20
96.937999999999988
 30
0.0
 11
51.827300000000001
 21
96.937999999999988
 31
0.0
  0
LINE
  5
47B
  8
0
 62
     7
 10
51.827300000000001
 20
96.937999999999988
 30
0.0
 11
51.827300000000001
 21
95.629599999999996
 31
0.0
  0
ARC
  5
47C
  8
0
 62
     7
 10
52.043751
 20
95.666948000000005
 30
0.0
 40
0.219645
 50
189.79943700000001
 51
199.97778099999999
  0
ARC
  5
47D
  8
0
 62
     7
 10
52.286165999999987
 20
95.74662099999999
 30
0.0
 40
0.4747600000000001
 50
199.0189419999999
 51
228.1057899999999
  0
ARC
  5
47E
  8
0
 62
     7
 10
52.416741999999999
 20
95.878023999999996
 30
0.0
 40
0.6598340000000001
 50
227.284987
 51
252.332809
  0
ARC
  5
47F
  8
0
 62
     7
 10
52.561388999999991
 20
96.258443
 30
0.0
 40
1.0664450000000001
 50
251.13075099999989
 51
264.37839100000002
  0
ARC
  5
480
  8
0
 62
     7
 10
52.627604000000012
 20
96.769808999999995
 30
0.0
 40
1.5819169999999989
 50
263.80597299999999
 51
270.18743599999999
  0
LINE
  5
481
  8
0
 62
     7
 10
52.632800000000003
 20
95.187899999999999
 30
0.0
 11
56.827199999999991
 21
95.187899999999999
 31
0.0
  0
LINE
  5
482
  8
0
 62
     7
 10
54.577199999999998
 20
96.937999999999988
 30
0.0
 11
54.577199999999998
 21
95.524799999999999
 31
0.0
  0
ARC
  5
483
  8
0
 62
     7
 10
54.871358999999998
 20
95.709496000000001
 30
0.0
 40
0.347315
 50
212.11953099999999
 51
220.59112999999999
  0
ARC
  5
484
  8
0
 62
     7
 10
55.218286999999997
 20
95.993655000000004
 30
0.0
 40
0.795715
 50
219.87472099999999
 51
257.55911499999991
  0
ARC
  5
485
  8
0
 62
     7
 10
55.286918999999997
 20
96.204560999999998
 30
0.0
 40
1.016683
 50
256.34258799999998
 51
270.38707299999987
  0
LINE
  5
486
  8
0
 62
     7
 10
54.077300000000001
 20
96.937999999999988
 30
0.0
 11
54.077300000000001
 21
95.524799999999999
 31
0.0
  0
ARC
  5
487
  8
0
 62
     7
 10
53.175244999999997
 20
97.174284000000014
 30
0.0
 40
1.8800060000000001
 50
295.12714599999998
 51
298.67390699999999
  0
ARC
  5
488
  8
0
 62
     7
 10
52.457304000000001
 20
98.61270300000001
 30
0.0
 40
3.4873819999999989
 50
285.34819599999997
 51
295.77131700000001
  0
ARC
  5
489
  8
0
 62
     7
 10
52.901734999999988
 20
97.051743000000016
 30
0.0
 40
1.8645240000000001
 50
271.5491679999999
 51
284.87437399999999
  0
LINE
  5
48A
  8
0
 62
     7
 10
59.077199999999998
 20
95.524799999999999
 30
0.0
 11
59.577100000000002
 21
95.524799999999999
 31
0.0
  0
LINE
  5
48B
  8
0
 62
     7
 10
56.827199999999991
 20
96.937999999999988
 30
0.0
 11
61.827100000000002
 21
96.937999999999988
 31
0.0
  0
LINE
  5
48C
  8
0
 62
     7
 10
61.827100000000002
 20
96.937999999999988
 30
0.0
 11
61.827100000000002
 21
95.629599999999996
 31
0.0
  0
ARC
  5
48D
  8
0
 62
     7
 10
61.613967000000002
 20
95.664327999999983
 30
0.0
 40
0.215958
 50
340.40591099999989
 51
350.73674399999987
  0
ARC
  5
48E
  8
0
 62
     7
 10
61.354767000000002
 20
95.748963000000003
 30
0.0
 40
0.4885830000000001
 50
302.61630600000001
 51
341.24910599999993
  0
ARC
  5
48F
  8
0
 62
     7
 10
61.214280000000002
 20
95.926585000000003
 30
0.0
 40
0.714276
 50
288.52263499999998
 51
304.42883799999993
  0
ARC
  5
490
  8
0
 62
     7
 10
61.097436999999999
 20
96.252281000000011
 30
0.0
 40
1.0602439999999991
 50
275.61669599999999
 51
288.91841799999997
  0
ARC
  5
491
  8
0
 62
     7
 10
61.030655000000003
 20
96.767347000000001
 30
0.0
 40
1.5794549999999989
 50
269.81044800000001
 51
276.198938
  0
LINE
  5
492
  8
0
 62
     7
 10
61.025399999999998
 20
95.187899999999999
 30
0.0
 11
56.827199999999991
 21
95.187899999999999
 31
0.0
  0
LINE
  5
493
  8
0
 62
     7
 10
59.077199999999998
 20
96.937999999999988
 30
0.0
 11
59.077199999999998
 21
95.524799999999999
 31
0.0
  0
ARC
  5
494
  8
0
 62
     7
 10
58.783059999999999
 20
95.709496000000001
 30
0.0
 40
0.347315
 50
319.40888999999999
 51
327.8804889999999
  0
ARC
  5
495
  8
0
 62
     7
 10
58.436132000000001
 20
95.993655000000004
 30
0.0
 40
0.795715
 50
282.44090499999987
 51
320.12529899999998
  0
ARC
  5
496
  8
0
 62
     7
 10
58.367499000000002
 20
96.204560999999998
 30
0.0
 40
1.016683
 50
269.61294700000002
 51
283.65743199999997
  0
LINE
  5
497
  8
0
 62
     7
 10
59.577100000000002
 20
96.937999999999988
 30
0.0
 11
59.577100000000002
 21
95.524799999999999
 31
0.0
  0
ARC
  5
498
  8
0
 62
     7
 10
60.564588000000001
 20
97.340350000000001
 30
0.0
 40
2.0666950000000002
 50
241.45757699999999
 51
244.875202
  0
ARC
  5
499
  8
0
 62
     7
 10
61.194494999999989
 20
98.605679000000009
 30
0.0
 40
3.4799150000000001
 50
244.3308779999999
 51
254.66281499999999
  0
ARC
  5
49A
  8
0
 62
     7
 10
60.752683999999988
 20
97.051743000000016
 30
0.0
 40
1.8645240000000001
 50
255.1256459999999
 51
268.450852
  0
LINE
  5
49B
  8
0
 62
     7
 10
60.702300000000001
 20
95.187899999999999
 30
0.0
 11
60.702300000000001
 21
92.187899999999999
 31
0.0
  0
LINE
  5
49C
  8
0
 62
     7
 10
52.952100000000002
 20
95.187899999999999
 30
0.0
 11
52.952100000000002
 21
92.187899999999999
 31
0.0
  0
LINE
  5
49D
  8
0
 62
     7
 10
60.951999999999998
 20
92.437999999999974
 30
0.0
 11
52.702399999999997
 21
92.437999999999974
 31
0.0
  0
LINE
  5
49E
  8
0
 62
     7
 10
60.951999999999998
 20
92.437999999999974
 30
0.0
 11
60.702300000000001
 21
92.187899999999999
 31
0.0
  0
LINE
  5
49F
  8
0
 62
     7
 10
60.702300000000001
 20
92.187899999999999
 30
0.0
 11
52.952100000000002
 21
92.187899999999999
 31
0.0
  0
LINE
  5
4A0
  8
0
 62
     7
 10
52.952100000000002
 20
92.187899999999999
 30
0.0
 11
52.702399999999997
 21
92.437999999999974
 31
0.0
  0
LINE
  5
4A1
  8
0
 62
     7
 10
52.702399999999997
 20
92.437999999999974
 30
0.0
 11
52.702399999999997
 21
95.187899999999999
 31
0.0
  0
LINE
  5
4A2
  8
0
 62
     7
 10
52.702399999999997
 20
95.187899999999999
 30
0.0
 11
60.951999999999998
 21
95.187899999999999
 31
0.0
  0
LINE
  5
4A3
  8
0
 62
     7
 10
60.951999999999998
 20
95.187899999999999
 30
0.0
 11
60.951999999999998
 21
92.437999999999974
 31
0.0
  0
LINE
  5
4A4
  8
0
 62
     7
 10
60.702300000000001
 20
105.9379999999999
 30
0.0
 11
60.702300000000001
 21
98.437999999999988
 31
0.0
  0
LINE
  5
4A5
  8
0
 62
     7
 10
52.952100000000002
 20
105.9379999999999
 30
0.0
 11
52.952100000000002
 21
98.437999999999988
 31
0.0
  0
LINE
  5
4A6
  8
0
 62
     7
 10
60.951999999999998
 20
105.9379999999999
 30
0.0
 11
60.951999999999998
 21
98.437999999999988
 31
0.0
  0
LINE
  5
4A7
  8
0
 62
     7
 10
60.951999999999998
 20
98.437999999999988
 30
0.0
 11
52.702399999999997
 21
98.437999999999988
 31
0.0
  0
LINE
  5
4A8
  8
0
 62
     7
 10
52.702399999999997
 20
98.437999999999988
 30
0.0
 11
52.702399999999997
 21
105.9379999999999
 31
0.0
  0
LINE
  5
4A9
  8
0
 62
     7
 10
62.327300000000001
 20
96.937999999999988
 30
0.0
 11
51.327100000000002
 21
96.937999999999988
 31
0.0
  0
LINE
  5
4AA
  8
0
 62
     7
 10
51.327100000000002
 20
96.937999999999988
 30
0.0
 11
51.327100000000002
 21
97.562999999999988
 31
0.0
  0
LINE
  5
4AB
  8
0
 62
     7
 10
51.327100000000002
 20
97.562999999999988
 30
0.0
 11
62.327300000000001
 21
97.562999999999988
 31
0.0
  0
LINE
  5
4AC
  8
0
 62
     7
 10
62.327300000000001
 20
97.562999999999988
 30
0.0
 11
62.327300000000001
 21
96.937999999999988
 31
0.0
  0
LINE
  5
4AD
  8
0
 62
     7
 10
62.827199999999998
 20
97.562999999999988
 30
0.0
 11
50.827199999999998
 21
97.562999999999988
 31
0.0
  0
LINE
  5
4AE
  8
0
 62
     7
 10
50.827199999999998
 20
97.562999999999988
 30
0.0
 11
50.827199999999998
 21
97.937799999999996
 31
0.0
  0
LINE
  5
4AF
  8
0
 62
     7
 10
50.827199999999998
 20
97.937799999999996
 30
0.0
 11
62.827199999999998
 21
97.937799999999996
 31
0.0
  0
LINE
  5
4B0
  8
0
 62
     7
 10
62.827199999999998
 20
97.937799999999996
 30
0.0
 11
62.827199999999998
 21
97.562999999999988
 31
0.0
  0
LINE
  5
4B1
  8
0
 62
     7
 10
62.827199999999998
 20
97.937799999999996
 30
0.0
 11
50.827199999999998
 21
97.937799999999996
 31
0.0
  0
LINE
  5
4B2
  8
0
 62
     7
 10
50.827199999999998
 20
97.937799999999996
 30
0.0
 11
50.827199999999998
 21
98.437999999999988
 31
0.0
  0
LINE
  5
4B3
  8
0
 62
     7
 10
50.827199999999998
 20
98.437999999999988
 30
0.0
 11
62.827199999999998
 21
98.437999999999988
 31
0.0
  0
LINE
  5
4B4
  8
0
 62
     7
 10
62.827199999999998
 20
98.437999999999988
 30
0.0
 11
62.827199999999998
 21
97.937799999999996
 31
0.0
  0
LINE
  5
4B5
  8
0
 62
     7
 10
59.701799999999999
 20
71.996700000000004
 30
0.0
 11
59.701799999999999
 21
92.187899999999999
 31
0.0
  0
LINE
  5
4B6
  8
0
 62
     7
 10
57.076999999999991
 20
71.996700000000004
 30
0.0
 11
57.076999999999991
 21
92.187899999999999
 31
0.0
  0
LINE
  5
4B7
  8
0
  6
AIGENLINE002
 62
     7
 10
58.389600000000002
 20
67.420299999999983
 30
0.0
 11
58.389600000000002
 21
108.40000000000001
 31
0.0
  0
LINE
  5
4B8
  8
0
  6
AIGENLINE002
 62
     7
 10
58.389600000000002
 20
67.420299999999983
 30
0.0
 11
70.2714
 21
84.687899999999999
 31
0.0
  0
LINE
  5
4B9
  8
0
 62
     7
 10
71.584000000000003
 20
57.563099999999999
 30
0.0
 11
71.584000000000003
 21
80.679100000000005
 31
0.0
  0
LINE
  5
4BA
  8
0
 62
     7
 10
68.958799999999997
 20
80.679100000000005
 30
0.0
 11
68.958799999999997
 21
57.563099999999999
 31
0.0
  0
LINE
  5
4BB
  8
0
  6
AIGENLINE002
 62
     7
 10
70.2714
 20
84.687899999999999
 30
0.0
 11
70.2714
 21
48.5989
 31
0.0
  0
LINE
  5
4BC
  8
0
 62
     7
 10
73.024799999999999
 20
52.686900000000001
 30
0.0
 11
73.024799999999999
 21
50.061
 31
0.0
  0
LINE
  5
4BD
  8
0
 62
     7
 10
71.649100000000004
 20
52.686900000000001
 30
0.0
 11
71.649100000000004
 21
50.061
 31
0.0
  0
ARC
  5
4BE
  8
0
 62
     7
 10
69.659593999999998
 20
57.878308999999987
 30
0.0
 40
8.5108619999999995
 50
291.64301499999999
 51
293.29081500000001
  0
ARC
  5
4BF
  8
0
 62
     7
 10
72.110826000000003
 20
51.734830000000002
 30
0.0
 40
1.896471
 50
281.78779100000003
 51
291.26332000000002
  0
ARC
  5
4C0
  8
0
 62
     7
 10
72.316884999999999
 20
50.825764999999997
 30
0.0
 40
0.9646139999999999
 50
270.46569699999998
 51
280.83723800000001
  0
ARC
  5
4C1
  8
0
 62
     7
 10
72.324861999999996
 20
50.767153
 30
0.0
 40
0.9059709999999999
 50
257.530618
 51
269.99132400000002
  0
ARC
  5
4C2
  8
0
 62
     7
 10
72.447774999999993
 20
51.39235
 30
0.0
 40
1.543032
 50
247.18136200000001
 51
258.086771
  0
ARC
  5
4C3
  8
0
 62
     7
 10
72.908146000000002
 20
52.567717999999999
 30
0.0
 40
2.805127999999999
 50
243.33175299999999
 51
247.8244709999999
  0
ARC
  5
4C4
  8
0
 62
     7
 10
72.404043999999999
 20
51.57161
 30
0.0
 40
1.346730999999999
 50
97.366204999999994
 51
124.0936549999999
  0
ARC
  5
4C5
  8
0
 62
     7
 10
72.325828999999999
 20
52.009146000000001
 30
0.0
 40
0.9030329999999999
 50
90.070059000000015
 51
96.003703999999999
  0
ARC
  5
4C6
  8
0
 62
     7
 10
72.323931999999999
 20
51.993395999999997
 30
0.0
 40
0.9187829999999999
 50
77.808963000000006
 51
89.95054300000001
  0
ARC
  5
4C7
  8
0
 62
     7
 10
72.233781000000008
 20
51.527509999999999
 30
0.0
 40
1.3932370000000001
 50
66.820028000000008
 51
78.231076000000002
  0
ARC
  5
4C8
  8
0
 62
     7
 10
72.006647999999998
 20
50.955616999999997
 30
0.0
 40
2.0084330000000001
 50
59.540793999999998
 51
67.285362000000006
  0
LINE
  5
4C9
  8
0
 62
     7
 10
67.524299999999997
 20
52.686900000000001
 30
0.0
 11
67.524299999999997
 21
50.061
 31
0.0
  0
LINE
  5
4CA
  8
0
 62
     7
 10
68.898899999999998
 20
52.686900000000001
 30
0.0
 11
68.898899999999998
 21
50.061
 31
0.0
  0
ARC
  5
4CB
  8
0
 62
     7
 10
65.509205000000009
 20
57.942154000000002
 30
0.0
 40
8.5791979999999999
 50
291.67714099999989
 51
293.27260999999999
  0
ARC
  5
4CC
  8
0
 62
     7
 10
67.942293999999976
 20
51.846887999999993
 30
0.0
 40
2.0162869999999988
 50
282.23675900000001
 51
291.405012
  0
ARC
  5
4CD
  8
0
 62
     7
 10
68.213519999999988
 20
50.665541999999988
 30
0.0
 40
0.8044279999999998
 50
270.74658299999987
 51
281.19141400000001
  0
ARC
  5
4CE
  8
0
 62
     7
 10
68.224808999999993
 20
50.766734999999997
 30
0.0
 40
0.9055530000000001
 50
257.79862099999991
 51
269.94890800000002
  0
ARC
  5
4CF
  8
0
 62
     7
 10
68.324331999999998
 20
51.301935999999998
 30
0.0
 40
1.449784
 50
252.93508600000001
 51
258.42462499999999
  0
ARC
  5
4D0
  8
0
 62
     7
 10
68.572564
 20
52.107277000000003
 30
0.0
 40
2.2925149999999999
 50
248.536924
 51
252.91079300000001
  0
ARC
  5
4D1
  8
0
 62
     7
 10
70.045074
 20
55.816210999999988
 30
0.0
 40
6.2830550000000001
 50
246.3466589999999
 51
248.415727
  0
ARC
  5
4D2
  8
0
 62
     7
 10
68.526701000000003
 20
50.973000999999996
 30
0.0
 40
1.9854839999999989
 50
107.887558
 51
120.322399
  0
ARC
  5
4D3
  8
0
 62
     7
 10
68.248602000000005
 20
51.785564000000001
 30
0.0
 40
1.1268819999999991
 50
91.250872000000015
 51
107.1209639999999
  0
ARC
  5
4D4
  8
0
 62
     7
 10
68.223275000000001
 20
52.143814999999996
 30
0.0
 40
0.768363
 50
76.154964000000007
 51
89.945821999999993
  0
ARC
  5
4D5
  8
0
 62
     7
 10
68.080348000000001
 20
51.468618999999997
 30
0.0
 40
1.458323
 50
65.831039000000004
 51
77.050696000000002
  0
ARC
  5
4D6
  8
0
 62
     7
 10
67.834374999999994
 20
50.860981000000002
 30
0.0
 40
2.113545999999999
 50
59.757032999999993
 51
66.491772999999995
  0
ARC
  5
4D7
  8
0
 62
     7
 10
72.967184000000003
 20
43.465340000000012
 30
0.0
 40
6.7260660000000003
 50
101.300856
 51
103.2012969999999
  0
ARC
  5
4D8
  8
0
 62
     7
 10
69.960718
 20
55.585196999999987
 30
0.0
 40
5.7623030000000002
 50
278.57915099999991
 51
284.78414299999997
  0
ARC
  5
4D9
  8
0
 62
     7
 10
70.474024
 20
52.152035999999988
 30
0.0
 40
2.290988
 50
270.61997599999989
 51
278.69372799999991
  0
LINE
  5
4DA
  8
0
 62
     7
 10
70.498800000000003
 20
49.86119999999999
 30
0.0
 11
70.049599999999998
 21
49.86119999999999
 31
0.0
  0
ARC
  5
4DB
  8
0
 62
     7
 10
70.049890000000005
 20
51.822007999999997
 30
0.0
 40
1.9608259999999991
 50
261.53959300000002
 51
269.990634
  0
ARC
  5
4DC
  8
0
 62
     7
 10
70.263972999999993
 20
53.477841000000012
 30
0.0
 40
3.6302759999999998
 50
258.55465699999991
 51
262.04248799999988
  0
ARC
  5
4DD
  8
0
 62
     7
 10
71.676001999999997
 20
60.338462
 30
0.0
 40
10.634688000000001
 50
256.53752200000002
 51
258.43303199999991
  0
ARC
  5
4DE
  8
0
 62
     7
 10
67.781188999999983
 20
44.1511
 30
0.0
 40
6.0146639999999989
 50
76.354271999999995
 51
79.290402999999998
  0
ARC
  5
4DF
  8
0
 62
     7
 10
70.138855000000007
 20
49.032431000000003
 30
0.0
 40
3.8590659999999999
 50
102.80782600000001
 51
108.7421259999999
  0
ARC
  5
4E0
  8
0
 62
     7
 10
70.37960799999999
 20
48.168170000000003
 30
0.0
 40
4.7553910000000004
 50
94.330847000000006
 51
103.3279939999999
  0
ARC
  5
4E1
  8
0
 62
     7
 10
70.167121999999992
 20
50.626789000000002
 30
0.0
 40
2.287895999999999
 50
87.317677000000003
 51
93.674328000000017
  0
ARC
  5
4E2
  8
0
 62
     7
 10
70.357449000000003
 20
51.496349999999993
 30
0.0
 40
1.418274
 50
88.960406000000006
 51
93.365382999999994
  0
ARC
  5
4E3
  8
0
 62
     7
 10
70.343787000000006
 20
50.339482000000011
 30
0.0
 40
2.5752090000000001
 50
85.185453999999993
 51
89.123485000000002
  0
ARC
  5
4E4
  8
0
 62
     7
 10
70.146069999999995
 20
48.023552000000002
 30
0.0
 40
4.8995639999999989
 50
72.134959999999992
 51
85.154560000000004
  0
LINE
  5
4E5
  8
0
 62
     7
 10
71.5244
 20
53.087899999999998
 30
0.0
 11
70.274199999999993
 21
53.087899999999998
 31
0.0
  0
LINE
  5
4E6
  8
0
 62
     7
 10
69.024299999999997
 20
53.087899999999998
 30
0.0
 11
70.274199999999993
 21
53.087899999999998
 31
0.0
  0
LINE
  5
4E7
  8
0
 62
     7
 10
67.973500000000001
 20
49.811599999999999
 30
0.0
 11
70.274199999999993
 21
49.811599999999999
 31
0.0
  0
LINE
  5
4E8
  8
0
 62
     7
 10
70.274199999999993
 20
49.811599999999999
 30
0.0
 11
72.574799999999996
 21
49.811599999999999
 31
0.0
  0
LINE
  5
4E9
  8
0
 62
     7
 10
72.874899999999997
 20
50.011400000000002
 30
0.0
 11
72.574799999999996
 21
49.836399999999998
 31
0.0
  0
LINE
  5
4EA
  8
0
 62
     7
 10
72.574799999999996
 20
49.836399999999998
 30
0.0
 11
72.574799999999996
 21
49.811599999999999
 31
0.0
  0
LINE
  5
4EB
  8
0
 62
     7
 10
73.024799999999999
 20
50.061
 30
0.0
 11
72.574799999999996
 21
49.836399999999998
 31
0.0
  0
LINE
  5
4EC
  8
0
 62
     7
 10
67.524299999999997
 20
50.061
 30
0.0
 11
67.973500000000001
 21
49.811599999999999
 31
0.0
  0
LINE
  5
4ED
  8
0
 62
     7
 10
67.973500000000001
 20
52.936999999999998
 30
0.0
 11
72.574799999999996
 21
52.936999999999998
 31
0.0
  0
LINE
  5
4EE
  8
0
 62
     7
 10
68.7239
 20
53.061700000000002
 30
0.0
 11
71.8245
 21
53.061700000000002
 31
0.0
  0
ARC
  5
4EF
  8
0
 62
     7
 10
71.272825999999995
 20
53.758477999999997
 30
0.0
 40
0.7162430000000001
 50
290.56532299999998
 51
326.53234700000002
  0
ARC
  5
4F0
  8
0
 62
     7
 10
71.442244999999986
 20
53.620831999999993
 30
0.0
 40
0.499466
 50
328.98734400000001
 51
341.45999799999993
  0
LINE
  5
4F1
  8
0
 62
     7
 10
71.915800000000004
 20
53.461999999999989
 30
0.0
 11
71.949200000000005
 21
53.561900000000001
 31
0.0
  0
LINE
  5
4F2
  8
0
 62
     7
 10
71.949200000000005
 20
53.561900000000001
 30
0.0
 11
71.949200000000005
 21
53.7121
 31
0.0
  0
LINE
  5
4F3
  8
0
 62
     7
 10
71.949200000000005
 20
53.7121
 30
0.0
 11
71.899600000000007
 21
53.88709999999999
 31
0.0
  0
LINE
  5
4F4
  8
0
 62
     7
 10
68.623999999999995
 20
53.88709999999999
 30
0.0
 11
68.648799999999994
 21
53.88709999999999
 31
0.0
  0
ARC
  5
4F5
  8
0
 62
     7
 10
175.8123159999999
 20
38.605834999999999
 30
0.0
 40
108.272147
 50
171.88628
 51
171.97981899999991
  0
LINE
  5
4F6
  8
0
 62
     7
 10
68.599199999999996
 20
53.7121
 30
0.0
 11
68.599199999999996
 21
53.561900000000001
 31
0.0
  0
LINE
  5
4F7
  8
0
 62
     7
 10
68.599199999999996
 20
53.561900000000001
 30
0.0
 11
68.631600000000006
 21
53.461999999999989
 31
0.0
  0
ARC
  5
4F8
  8
0
 62
     7
 10
69.700626999999983
 20
53.819918000000008
 30
0.0
 40
1.1273859999999989
 50
198.509354
 51
203.287215
  0
ARC
  5
4F9
  8
0
 62
     7
 10
69.102935000000002
 20
53.561610000000002
 30
0.0
 40
0.476266
 50
203.1702249999999
 51
222.3154679999999
  0
ARC
  5
4FA
  8
0
 62
     7
 10
69.034109999999998
 20
53.517738000000001
 30
0.0
 40
0.396082
 50
224.325423
 51
234.70178399999989
  0
ARC
  5
4FB
  8
0
 62
     7
 10
69.226458999999991
 20
53.795239999999993
 30
0.0
 40
0.73372
 50
234.964393
 51
242.390061
  0
ARC
  5
4FC
  8
0
 62
     7
 10
70.981418000000005
 20
57.146777
 30
0.0
 40
4.5169300000000003
 50
242.36672799999991
 51
243.9742049999999
  0
LINE
  5
4FD
  8
0
 62
     7
 10
68.999499999999998
 20
53.087899999999998
 30
0.0
 11
69.024299999999997
 21
53.087899999999998
 31
0.0
  0
LINE
  5
4FE
  8
0
 62
     7
 10
68.824100000000001
 20
54.3123
 30
0.0
 11
71.699799999999996
 21
54.3123
 31
0.0
  0
LINE
  5
4FF
  8
0
 62
     7
 10
68.824100000000001
 20
56.3125
 30
0.0
 11
70.274199999999993
 21
56.3125
 31
0.0
  0
LINE
  5
500
  8
0
 62
     7
 10
70.274199999999993
 20
56.3125
 30
0.0
 11
71.699799999999996
 21
56.3125
 31
0.0
  0
LINE
  5
501
  8
0
 62
     7
 10
71.949200000000005
 20
56.862299999999998
 30
0.0
 11
71.949200000000005
 21
56.7376
 31
0.0
  0
LINE
  5
502
  8
0
 62
     7
 10
71.949200000000005
 20
56.7376
 30
0.0
 11
71.874399999999994
 21
56.612200000000001
 31
0.0
  0
LINE
  5
503
  8
0
 62
     7
 10
68.573999999999998
 20
56.862299999999998
 30
0.0
 11
68.599199999999996
 21
56.7376
 31
0.0
  0
LINE
  5
504
  8
0
 62
     7
 10
68.599199999999996
 20
56.7376
 30
0.0
 11
68.648799999999994
 21
56.612200000000001
 31
0.0
  0
LINE
  5
505
  8
0
 62
     7
 10
68.573999999999998
 20
57.563099999999999
 30
0.0
 11
71.949200000000005
 21
57.563099999999999
 31
0.0
  0
LINE
  5
506
  8
0
 62
     7
 10
68.573999999999998
 20
57.563099999999999
 30
0.0
 11
68.573999999999998
 21
56.862299999999998
 31
0.0
  0
LINE
  5
507
  8
0
 62
     7
 10
71.949200000000005
 20
57.563099999999999
 30
0.0
 11
71.949200000000005
 21
56.862299999999998
 31
0.0
  0
LINE
  5
508
  8
0
 62
     7
 10
72.574799999999996
 20
52.936999999999998
 30
0.0
 11
73.024799999999999
 21
52.686900000000001
 31
0.0
  0
LINE
  5
509
  8
0
 62
     7
 10
67.973500000000001
 20
52.936999999999998
 30
0.0
 11
67.524299999999997
 21
52.686900000000001
 31
0.0
  0
LINE
  5
50A
  8
0
 62
     7
 10
68.648799999999994
 20
56.612200000000001
 30
0.0
 11
68.824100000000001
 21
56.3125
 31
0.0
  0
LINE
  5
50B
  8
0
 62
     7
 10
68.824100000000001
 20
54.3123
 30
0.0
 11
68.648799999999994
 21
53.88709999999999
 31
0.0
  0
LINE
  5
50C
  8
0
 62
     7
 10
71.874399999999994
 20
56.612200000000001
 30
0.0
 11
71.699799999999996
 21
56.3125
 31
0.0
  0
LINE
  5
50D
  8
0
 62
     7
 10
71.699799999999996
 20
54.3123
 30
0.0
 11
71.899600000000007
 21
53.88709999999999
 31
0.0
  0
LINE
  5
50E
  8
0
 62
     7
 10
68.824100000000001
 20
56.3125
 30
0.0
 11
68.824100000000001
 21
54.3123
 31
0.0
  0
LINE
  5
50F
  8
0
 62
     7
 10
71.699799999999996
 20
56.3125
 30
0.0
 11
71.699799999999996
 21
54.3123
 31
0.0
  0
LINE
  5
510
  8
0
 62
     7
 10
68.7239
 20
53.061700000000002
 30
0.0
 11
68.7239
 21
52.936999999999998
 31
0.0
  0
LINE
  5
511
  8
0
 62
     7
 10
71.8245
 20
53.061700000000002
 30
0.0
 11
71.8245
 21
52.936999999999998
 31
0.0
  0
LINE
  5
512
  8
0
 62
     7
 10
67.524299999999997
 20
50.061
 30
0.0
 11
67.973500000000001
 21
49.811599999999999
 31
0.0
  0
LINE
  5
513
  8
0
 62
     7
 10
73.024799999999999
 20
50.061
 30
0.0
 11
72.574799999999996
 21
49.811599999999999
 31
0.0
  0
LINE
  5
514
  8
0
 62
     7
 10
53.952300000000001
 20
71.996700000000004
 30
0.0
 11
53.952300000000001
 21
92.187899999999999
 31
0.0
  0
LINE
  5
515
  8
0
 62
     7
 10
56.577100000000002
 20
71.996700000000004
 30
0.0
 11
56.577100000000002
 21
92.187899999999999
 31
0.0
  0
LINE
  5
516
  8
0
  6
AIGENLINE002
 62
     7
 10
55.264499999999998
 20
67.420299999999983
 30
0.0
 11
55.264499999999998
 21
108.40000000000001
 31
0.0
  0
LINE
  5
517
  8
0
  6
AIGENLINE002
 62
     7
 10
55.264499999999998
 20
67.420299999999983
 30
0.0
 11
43.382599999999996
 21
84.687899999999999
 31
0.0
  0
LINE
  5
518
  8
0
 62
     7
 10
42.069999999999993
 20
57.563099999999999
 30
0.0
 11
42.069999999999993
 21
80.679100000000005
 31
0.0
  0
LINE
  5
519
  8
0
 62
     7
 10
44.6952
 20
80.679100000000005
 30
0.0
 11
44.6952
 21
57.563099999999999
 31
0.0
  0
LINE
  5
51A
  8
0
  6
AIGENLINE002
 62
     7
 10
43.382599999999996
 20
84.687899999999999
 30
0.0
 11
43.382599999999996
 21
48.5989
 31
0.0
  0
LINE
  5
51B
  8
0
 62
     7
 10
40.629300000000001
 20
52.686900000000001
 30
0.0
 11
40.629300000000001
 21
50.061
 31
0.0
  0
LINE
  5
51C
  8
0
 62
     7
 10
42.004899999999999
 20
52.686900000000001
 30
0.0
 11
42.004899999999999
 21
50.061
 31
0.0
  0
ARC
  5
51D
  8
0
 62
     7
 10
43.994479999999989
 20
57.878308999999987
 30
0.0
 40
8.5108619999999995
 50
246.70920499999991
 51
248.35700399999999
  0
ARC
  5
51E
  8
0
 62
     7
 10
41.543247999999998
 20
51.734830000000002
 30
0.0
 40
1.896471
 50
248.73670000000001
 51
258.21222899999998
  0
ARC
  5
51F
  8
0
 62
     7
 10
41.337189000000002
 20
50.825764999999997
 30
0.0
 40
0.9646139999999999
 50
259.16278199999988
 51
269.53432299999992
  0
ARC
  5
520
  8
0
 62
     7
 10
41.329211999999998
 20
50.767153
 30
0.0
 40
0.9059709999999999
 50
270.00869599999987
 51
282.46940199999989
  0
ARC
  5
521
  8
0
 62
     7
 10
41.206429999999997
 20
51.391930999999992
 30
0.0
 40
1.542595999999999
 50
281.9117
 51
292.82020699999993
  0
ARC
  5
522
  8
0
 62
     7
 10
40.745927999999999
 20
52.567717999999999
 30
0.0
 40
2.805127999999999
 50
292.17554799999988
 51
296.66826700000001
  0
ARC
  5
523
  8
0
 62
     7
 10
41.251173000000001
 20
51.574628999999987
 30
0.0
 40
1.343588999999999
 50
55.874502
 51
82.665598000000017
  0
ARC
  5
524
  8
0
 62
     7
 10
41.328245000000003
 20
52.009146000000001
 30
0.0
 40
0.9030329999999999
 50
83.996275999999995
 51
89.929920999999993
  0
ARC
  5
525
  8
0
 62
     7
 10
41.330148000000001
 20
51.993336999999997
 30
0.0
 40
0.9188410000000001
 50
90.049824999999998
 51
102.190629
  0
ARC
  5
526
  8
0
 62
     7
 10
41.420260999999989
 20
51.527646000000011
 30
0.0
 40
1.3930979999999991
 50
101.768773
 51
113.1807519999999
  0
ARC
  5
527
  8
0
 62
     7
 10
41.647052000000002
 20
50.956330000000001
 30
0.0
 40
2.0076290000000001
 50
112.712487
 51
120.4603
  0
LINE
  5
528
  8
0
 62
     7
 10
46.129800000000003
 20
52.686900000000001
 30
0.0
 11
46.129800000000003
 21
50.061
 31
0.0
  0
LINE
  5
529
  8
0
 62
     7
 10
44.755200000000002
 20
52.686900000000001
 30
0.0
 11
44.755200000000002
 21
50.061
 31
0.0
  0
ARC
  5
52A
  8
0
 62
     7
 10
48.144869
 20
57.942154000000002
 30
0.0
 40
8.5791979999999999
 50
246.72740999999999
 51
248.32287899999989
  0
ARC
  5
52B
  8
0
 62
     7
 10
45.71177999999999
 20
51.846887999999993
 30
0.0
 40
2.0162869999999988
 50
248.59500800000001
 51
257.763261
  0
ARC
  5
52C
  8
0
 62
     7
 10
45.440553999999999
 20
50.665541999999988
 30
0.0
 40
0.8044279999999998
 50
258.808606
 51
269.25343700000002
  0
ARC
  5
52D
  8
0
 62
     7
 10
45.429265000000001
 20
50.766734999999997
 30
0.0
 40
0.9055530000000001
 50
270.05111199999988
 51
282.20139799999993
  0
ARC
  5
52E
  8
0
 62
     7
 10
45.329741999999989
 20
51.301935999999998
 30
0.0
 40
1.449784
 50
281.57539500000001
 51
287.06493299999988
  0
ARC
  5
52F
  8
0
 62
     7
 10
45.081509999999987
 20
52.107277000000003
 30
0.0
 40
2.2925149999999999
 50
287.089226
 51
291.46309600000001
  0
ARC
  5
530
  8
0
 62
     7
 10
43.608999999999988
 20
55.816210999999988
 30
0.0
 40
6.2830550000000001
 50
291.584293
 51
293.6533609999999
  0
ARC
  5
531
  8
0
 62
     7
 10
45.127372999999999
 20
50.973000999999996
 30
0.0
 40
1.9854839999999989
 50
59.677581000000011
 51
72.112421999999995
  0
ARC
  5
532
  8
0
 62
     7
 10
45.405471999999989
 20
51.785564000000001
 30
0.0
 40
1.1268819999999991
 50
72.879016000000007
 51
88.749108000000007
  0
ARC
  5
533
  8
0
 62
     7
 10
45.430799
 20
52.143814999999996
 30
0.0
 40
0.768363
 50
90.054157999999987
 51
103.845017
  0
ARC
  5
534
  8
0
 62
     7
 10
45.573725999999994
 20
51.468618999999997
 30
0.0
 40
1.458323
 50
102.94928400000001
 51
114.1689409999999
  0
ARC
  5
535
  8
0
 62
     7
 10
45.819698999999993
 20
50.860981000000002
 30
0.0
 40
2.113545999999999
 50
113.508207
 51
120.242947
  0
ARC
  5
536
  8
0
 62
     7
 10
40.697752999999999
 20
43.515363999999991
 30
0.0
 40
6.6748830000000003
 50
76.791397000000003
 51
78.706411000000003
  0
ARC
  5
537
  8
0
 62
     7
 10
43.706446
 20
55.648509999999987
 30
0.0
 40
5.826859999999999
 50
255.25028399999991
 51
261.38646199999999
  0
ARC
  5
538
  8
0
 62
     7
 10
43.180069000000003
 20
52.152267999999992
 30
0.0
 40
2.29122
 50
261.30670099999992
 51
269.37963499999989
  0
LINE
  5
539
  8
0
 62
     7
 10
43.15529999999999
 20
49.86119999999999
 30
0.0
 11
43.604500000000002
 21
49.86119999999999
 31
0.0
  0
ARC
  5
53A
  8
0
 62
     7
 10
43.604183999999997
 20
51.822007999999997
 30
0.0
 40
1.9608259999999991
 50
270.00938500000001
 51
278.46042699999992
  0
ARC
  5
53B
  8
0
 62
     7
 10
43.389940000000003
 20
53.47889
 30
0.0
 40
3.6313379999999991
 50
277.95776499999988
 51
281.44466
  0
ARC
  5
53C
  8
0
 62
     7
 10
41.976174
 20
60.347037999999991
 30
0.0
 40
10.643471999999999
 50
281.56777
 51
283.46171600000002
  0
ARC
  5
53D
  8
0
 62
     7
 10
45.87269899999999
 20
44.152079000000001
 30
0.0
 40
6.013668
 50
100.7095699999999
 51
103.64613799999989
  0
ARC
  5
53E
  8
0
 62
     7
 10
43.515219000000002
 20
49.032431000000003
 30
0.0
 40
3.8590659999999999
 50
71.257854000000009
 51
77.192154000000002
  0
ARC
  5
53F
  8
0
 62
     7
 10
43.274465999999997
 20
48.168170000000003
 30
0.0
 40
4.7553910000000004
 50
76.671986000000004
 51
85.669133000000016
  0
ARC
  5
540
  8
0
 62
     7
 10
43.486952000000002
 20
50.626789000000002
 30
0.0
 40
2.287895999999999
 50
86.325652000000005
 51
92.682303000000019
  0
ARC
  5
541
  8
0
 62
     7
 10
43.296653000000013
 20
51.497684999999997
 30
0.0
 40
1.416939999999999
 50
86.632521999999994
 51
91.041648999999978
  0
ARC
  5
542
  8
0
 62
     7
 10
43.310287000000002
 20
50.339482000000011
 30
0.0
 40
2.5752090000000001
 50
90.876494999999991
 51
94.814526000000001
  0
ARC
  5
543
  8
0
 62
     7
 10
43.508056000000003
 20
48.023293000000002
 30
0.0
 40
4.899824999999999
 50
94.845768999999976
 51
107.864671
  0
LINE
  5
544
  8
0
 62
     7
 10
42.1297
 20
53.087899999999998
 30
0.0
 11
43.379899999999999
 21
53.087899999999998
 31
0.0
  0
LINE
  5
545
  8
0
 62
     7
 10
44.629800000000003
 20
53.087899999999998
 30
0.0
 11
43.379899999999999
 21
53.087899999999998
 31
0.0
  0
LINE
  5
546
  8
0
 62
     7
 10
45.680500000000002
 20
49.811599999999999
 30
0.0
 11
43.379899999999999
 21
49.811599999999999
 31
0.0
  0
LINE
  5
547
  8
0
 62
     7
 10
43.379899999999999
 20
49.811599999999999
 30
0.0
 11
41.0792
 21
49.811599999999999
 31
0.0
  0
LINE
  5
548
  8
0
 62
     7
 10
40.779200000000003
 20
50.011400000000002
 30
0.0
 11
41.0792
 21
49.836399999999998
 31
0.0
  0
LINE
  5
549
  8
0
 62
     7
 10
41.0792
 20
49.836399999999998
 30
0.0
 11
41.0792
 21
49.811599999999999
 31
0.0
  0
LINE
  5
54A
  8
0
 62
     7
 10
40.629300000000001
 20
50.061
 30
0.0
 11
41.0792
 21
49.836399999999998
 31
0.0
  0
LINE
  5
54B
  8
0
 62
     7
 10
46.129800000000003
 20
50.061
 30
0.0
 11
45.680500000000002
 21
49.811599999999999
 31
0.0
  0
LINE
  5
54C
  8
0
 62
     7
 10
45.680500000000002
 20
52.936999999999998
 30
0.0
 11
41.0792
 21
52.936999999999998
 31
0.0
  0
LINE
  5
54D
  8
0
 62
     7
 10
44.930199999999999
 20
53.061700000000002
 30
0.0
 11
41.829599999999999
 21
53.061700000000002
 31
0.0
  0
ARC
  5
54E
  8
0
 62
     7
 10
42.381247999999999
 20
53.758477999999997
 30
0.0
 40
0.7162430000000001
 50
213.46767299999991
 51
249.434697
  0
ARC
  5
54F
  8
0
 62
     7
 10
42.212601999999997
 20
53.621189000000001
 30
0.0
 40
0.500312
 50
198.5506069999999
 51
211.0020899999999
  0
LINE
  5
550
  8
0
 62
     7
 10
41.738300000000002
 20
53.461999999999989
 30
0.0
 11
41.704900000000002
 21
53.561900000000001
 31
0.0
  0
LINE
  5
551
  8
0
 62
     7
 10
41.704900000000002
 20
53.561900000000001
 30
0.0
 11
41.704900000000002
 21
53.7121
 31
0.0
  0
LINE
  5
552
  8
0
 62
     7
 10
41.704900000000002
 20
53.7121
 30
0.0
 11
41.7545
 21
53.88709999999999
 31
0.0
  0
LINE
  5
553
  8
0
 62
     7
 10
45.03009999999999
 20
53.88709999999999
 30
0.0
 11
45.005299999999998
 21
53.88709999999999
 31
0.0
  0
ARC
  5
554
  8
0
 62
     7
 10
15.192697000000001
 20
49.568959999999997
 30
0.0
 40
30.148250000000001
 50
7.8989659999999997
 51
8.2348949999999999
  0
LINE
  5
555
  8
0
 62
     7
 10
45.054900000000004
 20
53.7121
 30
0.0
 11
45.054900000000004
 21
53.561900000000001
 31
0.0
  0
LINE
  5
556
  8
0
 62
     7
 10
45.054900000000004
 20
53.561900000000001
 30
0.0
 11
45.022500000000001
 21
53.461999999999989
 31
0.0
  0
ARC
  5
557
  8
0
 62
     7
 10
43.952008999999997
 20
53.820402999999999
 30
0.0
 40
1.1289029999999991
 50
336.71913099999989
 51
341.49047100000001
  0
ARC
  5
558
  8
0
 62
     7
 10
44.550854000000001
 20
53.561810999999999
 30
0.0
 40
0.476612
 50
317.68974700000001
 51
336.82132300000001
  0
ARC
  5
559
  8
0
 62
     7
 10
44.619964000000003
 20
53.517738000000001
 30
0.0
 40
0.396082
 50
305.29823599999992
 51
315.67459700000001
  0
ARC
  5
55A
  8
0
 62
     7
 10
44.428325999999998
 20
53.794070999999988
 30
0.0
 40
0.732355
 50
297.60302999999999
 51
305.04255599999988
  0
ARC
  5
55B
  8
0
 62
     7
 10
42.684403000000003
 20
57.123550999999992
 30
0.0
 40
4.490905999999999
 50
296.0211569999999
 51
297.63794999999988
  0
LINE
  5
55C
  8
0
 62
     7
 10
44.654600000000002
 20
53.087899999999998
 30
0.0
 11
44.629800000000003
 21
53.087899999999998
 31
0.0
  0
LINE
  5
55D
  8
0
 62
     7
 10
44.829900000000002
 20
54.3123
 30
0.0
 11
41.954300000000003
 21
54.3123
 31
0.0
  0
LINE
  5
55E
  8
0
 62
     7
 10
44.829900000000002
 20
56.3125
 30
0.0
 11
43.379899999999999
 21
56.3125
 31
0.0
  0
LINE
  5
55F
  8
0
 62
     7
 10
43.379899999999999
 20
56.3125
 30
0.0
 11
41.954300000000003
 21
56.3125
 31
0.0
  0
LINE
  5
560
  8
0
 62
     7
 10
41.704900000000002
 20
56.862299999999998
 30
0.0
 11
41.704900000000002
 21
56.7376
 31
0.0
  0
LINE
  5
561
  8
0
 62
     7
 10
41.704900000000002
 20
56.7376
 30
0.0
 11
41.779600000000002
 21
56.612200000000001
 31
0.0
  0
LINE
  5
562
  8
0
 62
     7
 10
45.079999999999998
 20
56.862299999999998
 30
0.0
 11
45.054900000000004
 21
56.7376
 31
0.0
  0
LINE
  5
563
  8
0
 62
     7
 10
45.054900000000004
 20
56.7376
 30
0.0
 11
45.005299999999998
 21
56.612200000000001
 31
0.0
  0
LINE
  5
564
  8
0
 62
     7
 10
45.079999999999998
 20
57.563099999999999
 30
0.0
 11
41.704900000000002
 21
57.563099999999999
 31
0.0
  0
LINE
  5
565
  8
0
 62
     7
 10
45.079999999999998
 20
57.563099999999999
 30
0.0
 11
45.079999999999998
 21
56.862299999999998
 31
0.0
  0
LINE
  5
566
  8
0
 62
     7
 10
41.704900000000002
 20
57.563099999999999
 30
0.0
 11
41.704900000000002
 21
56.862299999999998
 31
0.0
  0
LINE
  5
567
  8
0
 62
     7
 10
41.0792
 20
52.936999999999998
 30
0.0
 11
40.629300000000001
 21
52.686900000000001
 31
0.0
  0
LINE
  5
568
  8
0
 62
     7
 10
45.680500000000002
 20
52.936999999999998
 30
0.0
 11
46.129800000000003
 21
52.686900000000001
 31
0.0
  0
LINE
  5
569
  8
0
 62
     7
 10
45.005299999999998
 20
56.612200000000001
 30
0.0
 11
44.829900000000002
 21
56.3125
 31
0.0
  0
LINE
  5
56A
  8
0
 62
     7
 10
44.829900000000002
 20
54.3123
 30
0.0
 11
45.005299999999998
 21
53.88709999999999
 31
0.0
  0
LINE
  5
56B
  8
0
 62
     7
 10
41.779600000000002
 20
56.612200000000001
 30
0.0
 11
41.954300000000003
 21
56.3125
 31
0.0
  0
LINE
  5
56C
  8
0
 62
     7
 10
41.954300000000003
 20
54.3123
 30
0.0
 11
41.7545
 21
53.88709999999999
 31
0.0
  0
LINE
  5
56D
  8
0
 62
     7
 10
44.829900000000002
 20
56.3125
 30
0.0
 11
44.829900000000002
 21
54.3123
 31
0.0
  0
LINE
  5
56E
  8
0
 62
     7
 10
41.954300000000003
 20
56.3125
 30
0.0
 11
41.954300000000003
 21
54.3123
 31
0.0
  0
LINE
  5
56F
  8
0
 62
     7
 10
44.930199999999999
 20
53.061700000000002
 30
0.0
 11
44.930199999999999
 21
52.936999999999998
 31
0.0
  0
LINE
  5
570
  8
0
 62
     7
 10
41.829599999999999
 20
53.061700000000002
 30
0.0
 11
41.829599999999999
 21
52.936999999999998
 31
0.0
  0
LINE
  5
571
  8
0
 62
     7
 10
46.129800000000003
 20
50.061
 30
0.0
 11
45.680500000000002
 21
49.811599999999999
 31
0.0
  0
LINE
  5
572
  8
0
 62
     7
 10
40.629300000000001
 20
50.061
 30
0.0
 11
41.0792
 21
49.811599999999999
 31
0.0
  0
LINE
  5
573
  8
0
 62
     7
 10
63.1631
 20
101.428
 30
0.0
 11
60.951999999999998
 21
100.8359999999999
 31
0.0
  0
LINE
  5
574
  8
0
 62
     7
 10
60.951999999999998
 20
100.8359999999999
 30
0.0
 11
63.1631
 21
100.2439999999999
 31
0.0
  0
LINE
  5
575
  8
0
 62
     7
 10
63.1631
 20
100.2439999999999
 30
0.0
 11
63.1631
 21
101.428
 31
0.0
  0
LINE
  5
576
  8
0
 62
     7
 10
50.49199999999999
 20
100.258
 30
0.0
 11
52.702399999999997
 21
100.84999999999989
 31
0.0
  0
LINE
  5
577
  8
0
 62
     7
 10
52.702399999999997
 20
100.84999999999989
 30
0.0
 11
50.49199999999999
 21
101.4429999999999
 31
0.0
  0
LINE
  5
578
  8
0
 62
     7
 10
50.49199999999999
 20
101.4429999999999
 30
0.0
 11
50.49199999999999
 21
100.258
 31
0.0
  0
LINE
  5
579
  8
0
 62
     7
 10
44.68869999999999
 20
100.8429999999999
 30
0.0
 11
64.867800000000003
 21
100.8429999999999
 31
0.0
  0
LINE
  5
57A
  8
0
 62
     7
 10
154.983
 20
246.851
 30
0.0
 11
160.77099999999999
 21
246.851
 31
0.0
  0
LINE
  5
57B
  8
0
 62
     7
 10
143.63200000000001
 20
234.66200000000001
 30
0.0
 11
144.77699999999999
 21
236.64400000000001
 31
0.0
  0
LINE
  5
57C
  8
0
 62
     7
 10
144.77699999999999
 20
236.64400000000001
 30
0.0
 11
142.7939999999999
 21
235.49999999999989
 31
0.0
  0
LINE
  5
57D
  8
0
 62
     7
 10
142.7939999999999
 20
235.49999999999989
 30
0.0
 11
143.63200000000001
 21
234.66200000000001
 31
0.0
  0
LINE
  5
57E
  8
0
 62
     7
 10
152.11000000000001
 20
244.815
 30
0.0
 11
150.964
 21
242.83199999999991
 31
0.0
  0
LINE
  5
57F
  8
0
 62
     7
 10
150.964
 20
242.83199999999991
 30
0.0
 11
152.947
 21
243.976
 31
0.0
  0
LINE
  5
580
  8
0
 62
     7
 10
152.947
 20
243.976
 30
0.0
 11
152.11000000000001
 21
244.815
 31
0.0
  0
LINE
  5
581
  8
0
 62
     7
 10
154.983
 20
246.851
 30
0.0
 11
140.798
 21
232.66499999999991
 31
0.0
  0
LINE
  5
582
  8
0
  6
AIGENLINE002
 62
     7
 10
147.87100000000001
 20
246.059
 30
0.0
 11
147.87100000000001
 21
232.90700000000001
 31
0.0
  0
ARC
  5
583
  8
0
 62
     7
 10
147.87080599999999
 20
239.73795799999999
 30
0.0
 40
4.3751269999999991
 50
0.002266
 51
90.002235999999996
  0
ARC
  5
584
  8
0
 62
     7
 10
147.87080700000001
 20
239.73830299999989
 30
0.0
 40
4.374782999999999
 50
90.002256000000017
 51
180.00226599999991
  0
ARC
  5
585
  8
0
 62
     7
 10
147.87080599999999
 20
239.73795799999999
 30
0.0
 40
4.3747809999999987
 50
179.997714
 51
269.99776400000002
  0
ARC
  5
586
  8
0
 62
     7
 10
147.87080599999999
 20
239.738304
 30
0.0
 40
4.3751269999999991
 50
269.99776400000002
 51
359.99773399999992
  0
LINE
  5
587
  8
0
  6
AIGENLINE002
 62
     7
 10
140.93199999999999
 20
239.738
 30
0.0
 11
154.648
 21
239.738
 31
0.0
  0
TEXT
  5
588
  8
_________2
 62
     7
 10
24.586400000000001
 20
0.707627
 30
0.0
 40
3.9357000000000002
  1
（社）日本水道協会認証品
 41
0.5
  0
TEXT
  5
589
  8
_________2
 62
     7
 10
109.179
 20
24.226099999999999
 30
0.0
 40
3.9357000000000002
  1
オノ 湯水混合水栓
 41
0.5
  0
LINE
  5
58A
  8
_________2
 62
     7
 10
205.30099999999999
 20
127.411
 30
0.0
 11
183.55099999999999
 21
127.411
 31
0.0
  0
LINE
  5
58B
  8
_________2
 62
     7
 10
100.2999999999999
 20
-4.0910799999999998
 30
0.0
 11
100.2999999999999
 21
-21.070999999999991
 31
0.0
  0
LINE
  5
58C
  8
_________2
 62
     7
 10
100.2999999999999
 20
275.93099999999993
 30
0.0
 11
100.2999999999999
 21
258.911
 31
0.0
  0
LINE
  5
58D
  8
_________2
 62
     7
 10
17.049199999999988
 20
127.411
 30
0.0
 11
-4.7012099999999988
 21
127.411
 31
0.0
  0
LINE
  5
58E
  8
_________2
 62
     7
 10
76.740700000000004
 20
29.8047
 30
0.0
 11
74.554400000000001
 21
29.8047
 31
0.0
  0
LINE
  5
58F
  8
_________2
 62
     7
 10
77.2333
 20
29.8047
 30
0.0
 11
76.981099999999984
 21
29.8047
 31
0.0
  0
LINE
  5
590
  8
_________2
 62
     7
 10
77.725999999999999
 20
29.8047
 30
0.0
 11
80.650899999999993
 21
29.8047
 31
0.0
  0
LINE
  5
591
  8
_________2
 62
     7
 10
77.2333
 20
29.8047
 30
0.0
 11
77.485500000000002
 21
29.8047
 31
0.0
  0
LINE
  5
592
  8
_________2
 62
     7
 10
70.837100000000007
 20
29.8047
 30
0.0
 11
68.650199999999998
 21
29.8047
 31
0.0
  0
LINE
  5
593
  8
_________2
 62
     7
 10
71.329099999999997
 20
29.8047
 30
0.0
 11
71.077600000000004
 21
29.8047
 31
0.0
  0
LINE
  5
594
  8
_________2
 62
     7
 10
71.329099999999997
 20
30.2974
 30
0.0
 11
71.329099999999997
 21
32.484400000000001
 31
0.0
  0
LINE
  5
595
  8
_________2
 62
     7
 10
71.329099999999997
 20
29.8047
 30
0.0
 11
71.329099999999997
 21
30.057300000000001
 31
0.0
  0
LINE
  5
596
  8
_________2
 62
     7
 10
71.821700000000007
 20
29.8047
 30
0.0
 11
74.008700000000005
 21
29.8047
 31
0.0
  0
LINE
  5
597
  8
_________2
 62
     7
 10
71.329099999999997
 20
29.8047
 30
0.0
 11
71.581299999999985
 21
29.8047
 31
0.0
  0
LINE
  5
598
  8
_________2
 62
     7
 10
71.329099999999997
 20
29.312799999999999
 30
0.0
 11
71.329099999999997
 21
27.126200000000001
 31
0.0
  0
LINE
  5
599
  8
_________2
 62
     7
 10
71.329099999999997
 20
29.8047
 30
0.0
 11
71.329099999999997
 21
29.5532
 31
0.0
  0
LINE
  5
59A
  8
_________2
 62
     7
 10
75.040199999999999
 20
28.5852
 30
0.0
 11
80.218199999999996
 21
27.720400000000001
 31
0.0
  0
LINE
  5
59B
  8
_________2
 62
     7
 10
75.040199999999999
 20
31.024699999999999
 30
0.0
 11
80.218199999999996
 21
31.8901
 31
0.0
  0
LINE
  5
59C
  8
_________2
 62
     7
 10
80.218199999999996
 20
27.720400000000001
 30
0.0
 11
80.218199999999996
 21
31.8901
 31
0.0
  0
LINE
  5
59D
  8
_________2
 62
     7
 10
75.040199999999999
 20
28.5852
 30
0.0
 11
75.040199999999999
 21
31.024699999999999
 31
0.0
  0
ARC
  5
59E
  8
_________2
 62
     7
 10
71.282501999999994
 20
29.757801000000001
 30
0.0
 40
1.267714
 50
2.1220840000000001
 51
87.894083999999992
  0
ARC
  5
59F
  8
_________2
 62
     7
 10
71.375640000000004
 20
29.758545999999999
 30
0.0
 40
1.2669680000000001
 50
92.105782999999988
 51
177.91037
  0
ARC
  5
5A0
  8
_________2
 62
     7
 10
71.376013999999998
 20
29.851671
 30
0.0
 40
1.2673680000000001
 50
182.12203600000001
 51
267.877993
  0
ARC
  5
5A1
  8
_________2
 62
     7
 10
71.282195999999999
 20
29.852347999999999
 30
0.0
 40
1.2680439999999991
 50
272.11916400000001
 51
357.84848499999993
  0
ARC
  5
5A2
  8
_________2
 62
     7
 10
71.248716999999985
 20
29.724731999999989
 30
0.0
 40
2.1668310000000002
 50
2.1161439999999989
 51
87.874379000000005
  0
ARC
  5
5A3
  8
_________2
 62
     7
 10
71.408756000000011
 20
29.726146
 30
0.0
 40
2.165392999999999
 50
92.108508999999998
 51
177.91986499999999
  0
ARC
  5
5A4
  8
_________2
 62
     7
 10
71.409094999999994
 20
29.884751999999999
 30
0.0
 40
2.1657829999999998
 50
182.117133
 51
267.88289700000001
  0
ARC
  5
5A5
  8
_________2
 62
     7
 10
71.249115000000003
 20
29.885429999999989
 30
0.0
 40
2.1664590000000001
 50
272.11546800000002
 51
357.86560400000002
  0
TEXT
  5
5A6
  8
_________2
 62
     7
 10
104.605
 20
1.6794899999999999
 30
0.0
 40
3.0923400000000001
  1
図番
 41
0.5
  0
LINE
  5
5A7
  8
_________2
 62
     7
 10
103.55
 20
5.9087199999999989
 30
0.0
 11
183.55099999999999
 21
5.9087199999999989
 31
0.0
  0
TEXT
  5
5A8
  8
_________2
 62
     7
 10
104.605
 20
11.679299999999991
 30
0.0
 40
3.0923400000000001
  1
品番
 41
0.5
  0
TEXT
  5
5A9
  8
_________2
 62
     7
 10
104.605
 20
31.8184
 30
0.0
 40
3.0923400000000001
  1
名称
 41
0.5
  0
TEXT
  5
5AA
  8
_________2
 62
     7
 10
91.844758333333345
 20
26.822299999999998
 30
0.0
 40
3.6545800000000002
  1
mm
 41
0.5
 72
     1
 11
93.367500000000007
 21
26.822299999999998
 31
0.0
  0
TEXT
  5
5AB
  8
_________2
 62
     7
 10
85.642899999999983
 20
31.8184
 30
0.0
 40
3.0923400000000001
  1
単位
 41
0.5
  0
TEXT
  5
5AC
  8
_________2
 62
     7
 10
85.642899999999983
 20
19.410799999999991
 30
0.0
 40
3.0923400000000001
  1
尺度
 41
0.5
  0
TEXT
  5
5AD
  8
_________2
 62
     7
 10
90.548458666666676
 20
13.218199999999991
 30
0.0
 40
3.6545800000000002
  1
1 ： 4
 41
0.5
 72
     1
 11
93.959400000000016
 21
13.218199999999991
 31
0.0
  0
TEXT
  5
5AE
  8
_________2
 62
     7
 10
135.5146125
 20
9.1082000000000001
 30
0.0
 40
3.9357000000000002
  1
KW2151093
 41
0.5
 72
     1
 11
143.55000000000001
 21
9.1082000000000001
 31
0.0
  0
TEXT
  5
5AF
  8
_________2
 62
     7
 10
135.5146125
 20
-0.8926299999999999
 30
0.0
 40
3.9357000000000002
  1
KW2151093
 41
0.5
 72
     1
 11
143.55000000000001
 21
-0.8926299999999999
 31
0.0
  0
TEXT
  5
5B0
  8
_________2
 62
     7
 10
39.42500033333333
 20
13.603400000000001
 30
0.0
 40
3.6545800000000002
  1
早川
 41
0.5
 72
     1
 11
41.313200000000002
 21
13.603400000000001
 31
0.0
  0
TEXT
  5
5B1
  8
_________2
 62
     7
 10
20.790090666666661
 20
13.603400000000001
 30
0.0
 40
3.6545800000000002
  1
麻生
 41
0.5
 72
     1
 11
22.73919999999999
 21
13.603400000000001
 31
0.0
  0
TEXT
  5
5B2
  8
_________2
 62
     7
 10
67.785399999999996
 20
13.218199999999991
 30
0.0
 40
3.6545800000000002
  1
14.01.14
 41
0.5
  0
TEXT
  5
5B3
  8
_________2
 62
     7
 10
66.592699999999994
 20
19.410799999999991
 30
0.0
 40
3.0923400000000001
  1
日付
 41
0.5
  0
TEXT
  5
5B4
  8
_________2
 62
     7
 10
29.638999999999999
 20
19.410799999999991
 30
0.0
 40
3.0923400000000001
  1
検図
 41
0.5
  0
TEXT
  5
5B5
  8
_________2
 62
     7
 10
18.020700000000001
 20
5.21143
 30
0.0
 40
3.0923400000000001
  1
備考
 41
0.5
  0
TEXT
  5
5B6
  8
_________2
 62
     7
 10
18.020700000000001
 20
19.410799999999991
 30
0.0
 40
3.0923400000000001
  1
製図
 41
0.5
  0
TEXT
  5
5B7
  8
_________2
 62
     7
 10
23.788165333333328
 20
27.936800000000002
 30
0.0
 40
4.4979399999999989
  1
セラトレーディング株式会社
 41
0.5
 72
     1
 11
41.180199999999999
 21
27.936800000000002
 31
0.0
  0
LINE
  5
5B8
  8
_________2
 62
     7
 10
183.55099999999999
 20
-4.0910799999999998
 30
0.0
 11
17.049199999999988
 21
-4.0910799999999998
 31
0.0
  0
LINE
  5
5B9
  8
_________2
 62
     7
 10
17.049199999999988
 20
-4.0910799999999998
 30
0.0
 11
17.049199999999988
 21
258.911
 31
0.0
  0
LINE
  5
5BA
  8
_________2
 62
     7
 10
17.049199999999988
 20
258.911
 30
0.0
 11
183.55099999999999
 21
258.911
 31
0.0
  0
LINE
  5
5BB
  8
_________2
 62
     7
 10
183.55099999999999
 20
258.911
 30
0.0
 11
183.55099999999999
 21
-4.0910799999999998
 31
0.0
  0
LINE
  5
5BC
  8
_________2
 62
     7
 10
65.549599999999998
 20
9.4092999999999982
 30
0.0
 11
65.549599999999998
 21
35.909100000000002
 31
0.0
  0
LINE
  5
5BD
  8
_________2
 62
     7
 10
84.549400000000006
 20
9.4092999999999982
 30
0.0
 11
84.549400000000006
 21
35.909100000000002
 31
0.0
  0
LINE
  5
5BE
  8
_________2
 62
     7
 10
103.55
 20
-4.0910799999999998
 30
0.0
 11
103.55
 21
35.909100000000002
 31
0.0
  0
LINE
  5
5BF
  8
_________2
 62
     7
 10
28.548999999999999
 20
9.4092999999999982
 30
0.0
 11
28.548999999999999
 21
23.409199999999998
 31
0.0
  0
LINE
  5
5C0
  8
_________2
 62
     7
 10
17.049199999999988
 20
9.4092999999999982
 30
0.0
 11
103.55
 21
9.4092999999999982
 31
0.0
  0
LINE
  5
5C1
  8
_________2
 62
     7
 10
17.049199999999988
 20
23.409199999999998
 30
0.0
 11
103.55
 21
23.409199999999998
 31
0.0
  0
LINE
  5
5C2
  8
_________2
 62
     7
 10
103.55
 20
15.9085
 30
0.0
 11
183.55099999999999
 21
15.9085
 31
0.0
  0
LINE
  5
5C3
  8
_________2
 62
     7
 10
17.049199999999988
 20
35.909100000000002
 30
0.0
 11
183.55099999999999
 21
35.909100000000002
 31
0.0
  0
ENDSEC
  0
EOF
