  0
SECTION
  2
HEADER
  9
$ACADVER
  1
AC1009
  9
$LUNITS
 70
2
  9
$LUPREC
 70
4
  9
$LTSCALE
 40
1.0
  9
$EXTMIN
 10
-104.7936
 20
0.176
 30
0
  9
$EXTMAX
 10
315.2069
 20
297.1763
 30
0
  0
ENDSEC
  0
SECTION
  2
TABLES
  0
TABLE
  2
LTYPE
 70
256
  0
LTYPE
  2
AIGENLINE001
 70
64
  3
generate AI->DXF Converter
 72
65
 73
6
 40
7.4083
 49
3.5278
 49
-0.7761
 49
0.7761
 49
-0.7761
 49
0.7761
 49
-0.7761
  0
LTYPE
  2
AIGENLINE002
 70
64
  3
generate AI->DXF Converter
 72
65
 73
4
 40
5.8561
 49
3.5278
 49
-0.7761
 49
0.7761
 49
-0.7761
  0
LTYPE
  2
AIGENLINE003
 70
64
  3
generate AI->DXF Converter
 72
65
 73
4
 40
9.4368
 49
4.9389
 49
-1.4993
 49
1.4993
 49
-1.4993
  0
ENDTAB
  0
TABLE
  2
LAYER
 70
3
  0
LAYER
  2
LAYER_1
 70
64
 62
7
  6
CONTINUOUS
  0
LAYER
  2
LAYER_2
 70
64
 62
7
  6
CONTINUOUS
  0
LAYER
  2
LAYER_3
 70
64
 62
7
  6
CONTINUOUS
  0
ENDTAB
  0
TABLE
  2
STYLE
 70
6
  0
STYLE
  2
STANDARD
 70
0
 40
0
 50
0
 71
0
 41
0
 42
0
  3
TXT
  4
BIGFONT
  0
ENDTAB
  0
ENDSEC
  0
SECTION
  2
BLOCKS
  0
BLOCK
  8
LAYER_2
  2
AIGNBL02010002
 70
64
 10
0
 20
0
 30
0
  3
AIGNBL02010002
  0
LINE
  8
LAYER_2
 10
71.3579
 20
272.2526
 11
57.1724
 21
258.0675
  0
LINE
  8
LAYER_2
 10
68.484
 20
270.2166
 11
67.3389
 21
268.2339
  0
LINE
  8
LAYER_2
 10
67.3389
 20
268.2339
 11
69.3219
 21
269.3786
  0
LINE
  8
LAYER_2
 10
69.3219
 20
269.3786
 11
68.484
 21
270.2166
  0
LINE
  8
LAYER_2
 10
60.007
 20
260.0639
 11
61.1515
 21
262.0465
  0
LINE
  8
LAYER_2
 10
61.1515
 20
262.0465
 11
59.1685
 21
260.9017
  0
LINE
  8
LAYER_2
 10
59.1685
 20
260.9017
 11
60.007
 21
260.0639
  0
ENDBLK
  0
BLOCK
  8
LAYER_2
  2
AIGNBL02010003
 70
64
 10
0
 20
0
 30
0
  3
AIGNBL02010003
  0
LINE
  8
LAYER_2
 10
33.8333
 20
115.2701
 11
52.3858
 21
115.2701
  0
LINE
  8
LAYER_2
 10
42.3344
 20
114.6845
 11
44.5448
 21
115.277
  0
LINE
  8
LAYER_2
 10
44.5448
 20
115.277
 11
42.3344
 21
115.8696
  0
LINE
  8
LAYER_2
 10
42.3344
 20
115.8696
 11
42.3344
 21
114.6845
  0
LINE
  8
LAYER_2
 10
50.881
 20
115.8551
 11
48.6699
 21
115.2626
  0
LINE
  8
LAYER_2
 10
48.6699
 20
115.2626
 11
50.881
 21
114.6707
  0
LINE
  8
LAYER_2
 10
50.881
 20
114.6707
 11
50.881
 21
115.8551
  0
ENDBLK
  0
BLOCK
  8
LAYER_2
  2
AIGNBL02010004
 70
64
 10
0
 20
0
 30
0
  3
AIGNBL02010004
  0
LINE
  8
LAYER_2
 10
-32.3477
 20
185.9683
 11
-14.2596
 21
185.9683
  0
LINE
  8
LAYER_2
 10
-30.3575
 20
185.3826
 11
-28.1471
 21
185.9752
  0
LINE
  8
LAYER_2
 10
-28.1471
 20
185.9752
 11
-30.3575
 21
186.5678
  0
LINE
  8
LAYER_2
 10
-30.3575
 20
186.5678
 11
-30.3575
 21
185.3826
  0
LINE
  8
LAYER_2
 10
-19.3749
 20
180.2246
 11
-17.1645
 21
180.8172
  0
LINE
  8
LAYER_2
 10
-17.1645
 20
180.8172
 11
-19.3749
 21
181.4098
  0
LINE
  8
LAYER_2
 10
-19.3749
 20
181.4098
 11
-19.3749
 21
180.2246
  0
LINE
  8
LAYER_2
 10
-15.9642
 20
186.5533
 11
-18.1753
 21
185.9607
  0
LINE
  8
LAYER_2
 10
-18.1753
 20
185.9607
 11
-15.9642
 21
185.3689
  0
LINE
  8
LAYER_2
 10
-15.9642
 20
185.3689
 11
-15.9642
 21
186.5533
  0
LINE
  8
LAYER_2
 10
-35.4056
 20
169.9534
 11
-15.1739
 21
169.9534
  0
LINE
  8
LAYER_2
 10
-29.55
 20
169.3678
 11
-27.3396
 21
169.9603
  0
LINE
  8
LAYER_2
 10
-27.3396
 20
169.9603
 11
-29.55
 21
170.5529
  0
LINE
  8
LAYER_2
 10
-29.55
 20
170.5529
 11
-29.55
 21
169.3678
  0
LINE
  8
LAYER_2
 10
-16.8789
 20
170.5384
 11
-19.09
 21
169.9459
  0
LINE
  8
LAYER_2
 10
-19.09
 20
169.9459
 11
-16.8789
 21
169.354
  0
LINE
  8
LAYER_2
 10
-16.8789
 20
169.354
 11
-16.8789
 21
170.5384
  0
ENDBLK
  0
BLOCK
  8
LAYER_2
  2
AIGNBL02010005
 70
64
 10
0
 20
0
 30
0
  3
AIGNBL02010005
  0
LINE
  8
LAYER_2
 10
52.5594
 20
174.3483
 11
52.5594
 21
166.8484
  0
LINE
  8
LAYER_2
 10
51.9813
 20
169.0598
 11
52.5739
 21
166.8484
  0
LINE
  8
LAYER_2
 10
52.5739
 20
166.8484
 11
53.1664
 21
169.0598
  0
LINE
  8
LAYER_2
 10
53.1664
 20
169.0598
 11
51.9813
 21
169.0598
  0
LINE
  8
LAYER_2
 10
53.152
 20
172.137
 11
52.5594
 21
174.3483
  0
LINE
  8
LAYER_2
 10
52.5594
 20
174.3483
 11
51.9668
 21
172.137
  0
LINE
  8
LAYER_2
 10
51.9668
 20
172.137
 11
53.152
 21
172.137
  0
ENDBLK
  0
BLOCK
  8
LAYER_2
  2
AIGNBL02010006
 70
64
 10
0
 20
0
 30
0
  3
AIGNBL02010006
  0
LINE
  8
LAYER_2
 10
81.2825
 20
174.3483
 11
81.2825
 21
96.8482
  0
LINE
  8
LAYER_2
 10
80.7045
 20
99.0596
 11
81.297
 21
96.8482
  0
LINE
  8
LAYER_2
 10
81.297
 20
96.8482
 11
81.8896
 21
99.0596
  0
LINE
  8
LAYER_2
 10
81.8896
 20
99.0596
 11
80.7045
 21
99.0596
  0
LINE
  8
LAYER_2
 10
81.8751
 20
172.137
 11
81.2825
 21
174.3483
  0
LINE
  8
LAYER_2
 10
81.2825
 20
174.3483
 11
80.69
 21
172.137
  0
LINE
  8
LAYER_2
 10
80.69
 20
172.137
 11
81.8751
 21
172.137
  0
ENDBLK
  0
BLOCK
  8
LAYER_2
  2
AIGNBL02010007
 70
64
 10
0
 20
0
 30
0
  3
AIGNBL02010007
  0
LINE
  8
LAYER_2
 10
17.0064
 20
174.3483
 11
17.0064
 21
123.2738
  0
LINE
  8
LAYER_2
 10
16.4283
 20
125.4852
 11
17.0208
 21
123.2738
  0
LINE
  8
LAYER_2
 10
17.0208
 20
123.2738
 11
17.6134
 21
125.4852
  0
LINE
  8
LAYER_2
 10
17.6134
 20
125.4852
 11
16.4283
 21
125.4852
  0
LINE
  8
LAYER_2
 10
17.5989
 20
172.137
 11
17.0064
 21
174.3483
  0
LINE
  8
LAYER_2
 10
17.0064
 20
174.3483
 11
16.4138
 21
172.137
  0
LINE
  8
LAYER_2
 10
16.4138
 20
172.137
 11
17.5989
 21
172.137
  0
ENDBLK
  0
BLOCK
  8
LAYER_2
  2
AIGNBL02010008
 70
64
 10
0
 20
0
 30
0
  3
AIGNBL02010008
  0
LINE
  8
LAYER_2
 10
66.7449
 20
152.3483
 11
64.7451
 21
152.3483
  0
LINE
  8
LAYER_2
 10
64.7451
 20
152.3483
 11
64.7451
 21
160.5984
  0
LINE
  8
LAYER_2
 10
64.7451
 20
160.5984
 11
66.7449
 21
160.5984
  0
LINE
  8
LAYER_2
 10
66.7449
 20
160.5984
 11
66.7449
 21
152.3483
  0
LINE
  8
LAYER_2
 10
65.1199
 20
150.848
 11
64.7451
 21
150.848
  0
LINE
  8
LAYER_2
 10
64.7451
 20
150.848
 11
64.7451
 21
152.3483
  0
LINE
  8
LAYER_2
 10
64.7451
 20
152.3483
 11
66.7449
 21
152.3483
  0
LINE
  8
LAYER_2
 10
66.7449
 20
152.3483
 11
66.7449
 21
150.848
  0
LINE
  8
LAYER_2
 10
66.7449
 20
150.848
 11
66.3701
 21
150.848
  0
LINE
  8
LAYER_2
 10
66.3701
 20
150.848
 11
66.3701
 21
148.3482
  0
LINE
  8
LAYER_2
 10
66.3701
 20
148.3482
 11
65.1199
 21
148.3482
  0
LINE
  8
LAYER_2
 10
65.1199
 20
148.3482
 11
65.1199
 21
150.848
  0
ARC
  8
LAYER_2
 10
65.7358
 20
149.1075
 40
0.2593
 50
272.0839042
 51
357.8701857
  0
ARC
  8
LAYER_2
 10
65.7545
 20
149.1078
 40
0.2595
 50
182.1808629
 51
267.956757
  0
ARC
  8
LAYER_2
 10
65.7452
 20
149.0979
 40
0.2501
 50
90.00307376
 51
179.9969262
  0
ARC
  8
LAYER_2
 10
65.7357
 20
149.0888
 40
0.2594
 50
2.016844289
 51
87.89144579
  0
ENDBLK
  0
BLOCK
  8
LAYER_2
  2
AIGNBL02010009
 70
64
 10
0
 20
0
 30
0
  3
AIGNBL02010009
  0
LINE
  8
LAYER_2
 10
-20.7119
 20
152.3483
 11
-22.7118
 21
152.3483
  0
LINE
  8
LAYER_2
 10
-22.7118
 20
152.3483
 11
-22.7118
 21
160.5984
  0
LINE
  8
LAYER_2
 10
-22.7118
 20
160.5984
 11
-20.7119
 21
160.5984
  0
LINE
  8
LAYER_2
 10
-20.7119
 20
160.5984
 11
-20.7119
 21
152.3483
  0
LINE
  8
LAYER_2
 10
-22.337
 20
148.3486
 11
-22.7118
 21
148.3486
  0
LINE
  8
LAYER_2
 10
-22.7118
 20
148.3486
 11
-22.7118
 21
152.3483
  0
LINE
  8
LAYER_2
 10
-22.7118
 20
152.3483
 11
-20.7119
 21
152.3483
  0
LINE
  8
LAYER_2
 10
-20.7119
 20
152.3483
 11
-20.7119
 21
148.3486
  0
LINE
  8
LAYER_2
 10
-20.7119
 20
148.3486
 11
-21.0867
 21
148.3486
  0
LINE
  8
LAYER_2
 10
-21.0867
 20
148.3486
 11
-21.0867
 21
150.8483
  0
LINE
  8
LAYER_2
 10
-21.0867
 20
150.8483
 11
-22.337
 21
150.8483
  0
LINE
  8
LAYER_2
 10
-22.337
 20
150.8483
 11
-22.337
 21
148.3486
  0
ENDBLK
  0
BLOCK
  8
LAYER_2
  2
AIGNBL0201000A
 70
64
 10
0
 20
0
 30
0
  3
AIGNBL0201000A
  0
LINE
  8
LAYER_2
  6
AIGENLINE001
 10
72.5761
 20
217.6543
 11
73.1621
 21
219.1701
  0
LINE
  8
LAYER_2
  6
AIGENLINE001
 10
64.1856
 20
220.8182
 11
64.1294
 21
220.6728
  0
LINE
  8
LAYER_2
  6
AIGENLINE001
 10
50.0796
 20
226.5398
 11
50.6205
 21
227.9385
  0
LINE
  8
LAYER_2
  6
AIGENLINE001
 10
72.4793
 20
217.6115
 11
50.223
 21
226.2163
  0
LINE
  8
LAYER_2
  6
AIGENLINE001
 10
72.9905
 20
219.558
 11
50.944
 21
228.0815
  0
ARC
  8
LAYER_2
  6
AIGENLINE001
 10
72.882
 20
219.2781
 40
0.3002
 50
338.9196516
 51
68.80782582
  0
ARC
  8
LAYER_2
  6
AIGENLINE001
 10
50.8592
 20
227.836
 40
0.2598
 50
70.94266641
 51
156.7520432
  0
ARC
  8
LAYER_2
  6
AIGENLINE001
 10
50.3134
 20
226.4499
 40
0.2505
 50
158.9742408
 51
248.8389438
  0
ARC
  8
LAYER_2
  6
AIGENLINE001
 10
72.5048
 20
217.6847
 40
0.0775
 50
250.7696324
 51
336.9354848
  0
LINE
  8
LAYER_2
  6
AIGENLINE001
 10
63.6271
 20
221.1142
 11
63.6089
 21
221.1197
  0
LINE
  8
LAYER_2
  6
AIGENLINE001
 10
63.6089
 20
221.1197
 11
63.5865
 21
221.1262
  0
LINE
  8
LAYER_2
  6
AIGENLINE001
 10
63.5865
 20
221.1262
 11
63.561
 21
221.1338
  0
LINE
  8
LAYER_2
  6
AIGENLINE001
 10
63.561
 20
221.1338
 11
63.531
 21
221.1427
  0
LINE
  8
LAYER_2
  6
AIGENLINE001
 10
63.531
 20
221.1427
 11
63.4965
 21
221.1527
  0
LINE
  8
LAYER_2
  6
AIGENLINE001
 10
63.4965
 20
221.1527
 11
63.4576
 21
221.1638
  0
LINE
  8
LAYER_2
  6
AIGENLINE001
 10
63.4576
 20
221.1638
 11
63.4132
 21
221.1765
  0
LINE
  8
LAYER_2
  6
AIGENLINE001
 10
63.4132
 20
221.1765
 11
63.366
 21
221.1893
  0
LINE
  8
LAYER_2
  6
AIGENLINE001
 10
63.366
 20
221.1893
 11
63.3205
 21
221.2013
  0
LINE
  8
LAYER_2
  6
AIGENLINE001
 10
63.3205
 20
221.2013
 11
63.2761
 21
221.213
  0
LINE
  8
LAYER_2
  6
AIGENLINE001
 10
63.2761
 20
221.213
 11
63.232
 21
221.2244
  0
LINE
  8
LAYER_2
  6
AIGENLINE001
 10
63.232
 20
221.2244
 11
63.1865
 21
221.2358
  0
LINE
  8
LAYER_2
  6
AIGENLINE001
 10
63.1865
 20
221.2358
 11
63.1407
 21
221.2475
  0
LINE
  8
LAYER_2
  6
AIGENLINE001
 10
63.1407
 20
221.2475
 11
63.0986
 21
221.2582
  0
LINE
  8
LAYER_2
  6
AIGENLINE001
 10
63.0986
 20
221.2582
 11
63.0618
 21
221.2681
  0
LINE
  8
LAYER_2
  6
AIGENLINE001
 10
63.0618
 20
221.2681
 11
63.0284
 21
221.2768
  0
LINE
  8
LAYER_2
  6
AIGENLINE001
 10
63.0284
 20
221.2768
 11
62.9987
 21
221.2854
  0
LINE
  8
LAYER_2
  6
AIGENLINE001
 10
62.9987
 20
221.2854
 11
62.9722
 21
221.2936
  0
LINE
  8
LAYER_2
  6
AIGENLINE001
 10
62.9722
 20
221.2936
 11
62.9484
 21
221.3009
  0
LINE
  8
LAYER_2
  6
AIGENLINE001
 10
62.9484
 20
221.3009
 11
62.9267
 21
221.3078
  0
LINE
  8
LAYER_2
  6
AIGENLINE001
 10
62.9267
 20
221.3078
 11
62.9071
 21
221.3143
  0
LINE
  8
LAYER_2
  6
AIGENLINE001
 10
62.9071
 20
221.3143
 11
62.8892
 21
221.3205
  0
LINE
  8
LAYER_2
  6
AIGENLINE001
 10
62.8892
 20
221.3205
 11
62.8727
 21
221.326
  0
LINE
  8
LAYER_2
  6
AIGENLINE001
 10
62.8727
 20
221.326
 11
62.8578
 21
221.3315
  0
LINE
  8
LAYER_2
  6
AIGENLINE001
 10
62.8578
 20
221.3315
 11
62.8444
 21
221.3364
  0
LINE
  8
LAYER_2
  6
AIGENLINE001
 10
62.8444
 20
221.3364
 11
62.832
 21
221.3415
  0
LINE
  8
LAYER_2
  6
AIGENLINE001
 10
63.6271
 20
221.1142
 11
63.6244
 21
221.1048
  0
LINE
  8
LAYER_2
  6
AIGENLINE001
 10
63.6244
 20
221.1048
 11
63.6223
 21
221.0952
  0
LINE
  8
LAYER_2
  6
AIGENLINE001
 10
63.6223
 20
221.0952
 11
63.6216
 21
221.0855
  0
LINE
  8
LAYER_2
  6
AIGENLINE001
 10
63.6216
 20
221.0855
 11
63.6223
 21
221.0759
  0
LINE
  8
LAYER_2
  6
AIGENLINE001
 10
63.6223
 20
221.0759
 11
63.624
 21
221.0666
  0
LINE
  8
LAYER_2
  6
AIGENLINE001
 10
63.624
 20
221.0666
 11
63.6271
 21
221.0573
  0
LINE
  8
LAYER_2
  6
AIGENLINE001
 10
63.6271
 20
221.0573
 11
63.6316
 21
221.049
  0
LINE
  8
LAYER_2
  6
AIGENLINE001
 10
63.6316
 20
221.049
 11
63.6368
 21
221.0408
  0
LINE
  8
LAYER_2
  6
AIGENLINE001
 10
63.6368
 20
221.0408
 11
63.643
 21
221.0339
  0
LINE
  8
LAYER_2
  6
AIGENLINE001
 10
63.643
 20
221.0339
 11
63.6499
 21
221.0277
  0
LINE
  8
LAYER_2
  6
AIGENLINE001
 10
63.6499
 20
221.0277
 11
63.6578
 21
221.0229
  0
LINE
  8
LAYER_2
  6
AIGENLINE001
 10
63.6578
 20
221.0229
 11
63.6661
 21
221.019
  0
ENDBLK
  0
BLOCK
  8
LAYER_2
  2
AIGNBL0201000B
 70
64
 10
0
 20
0
 30
0
  3
AIGNBL0201000B
  0
ARC
  8
LAYER_2
 10
-21.0385
 20
204.8921
 40
0.3265
 50
295.1500726
 51
352.1979219
  0
ARC
  8
LAYER_2
 10
-22.0883
 20
206.7242
 40
2.4371
 50
278.714711
 51
299.1893029
  0
ARC
  8
LAYER_2
 10
-23.1591
 20
212.0918
 40
7.9088
 50
269.5966064
 51
280.4912525
  0
ARC
  8
LAYER_2
 10
-23.2776
 20
211.993
 40
7.81
 50
259.2488958
 51
270.4604584
  0
ARC
  8
LAYER_2
 10
-24.3642
 20
206.6671
 40
2.3761
 50
240.621942
 51
261.0339364
  0
ARC
  8
LAYER_2
 10
-25.391
 20
204.8921
 40
0.3265
 50
187.8006259
 51
244.8470112
  0
ARC
  8
LAYER_2
 10
-25.3911
 20
204.8035
 40
0.3265
 50
115.14541
 51
172.1946568
  0
ARC
  8
LAYER_2
 10
-24.3412
 20
202.9712
 40
2.4372
 50
98.71462473
 51
119.1868942
  0
ARC
  8
LAYER_2
 10
-23.2705
 20
197.6037
 40
7.9088
 50
89.59663118
 51
100.4909603
  0
ARC
  8
LAYER_2
 10
-23.1521
 20
197.7014
 40
7.8112
 50
79.24998914
 51
90.46014683
  0
ARC
  8
LAYER_2
 10
-22.0655
 20
203.0277
 40
2.3768
 50
60.62795428
 51
81.03475104
  0
ARC
  8
LAYER_2
 10
-21.0384
 20
204.8035
 40
0.3265
 50
7.806795941
 51
64.85750606
  0
ARC
  8
LAYER_2
 10
-25.391
 20
206.1343
 40
0.3265
 50
115.1529888
 51
172.1993741
  0
ARC
  8
LAYER_2
 10
-24.3413
 20
204.3025
 40
2.4368
 50
98.71504261
 51
119.1910825
  0
ARC
  8
LAYER_2
 10
-23.2705
 20
198.9352
 40
7.9082
 50
89.59647863
 51
100.4916225
  0
ARC
  8
LAYER_2
 10
-23.1521
 20
199.0329
 40
7.8106
 50
79.24928735
 51
90.46031763
  0
ARC
  8
LAYER_2
 10
-22.0654
 20
204.359
 40
2.3764
 50
60.62373375
 51
81.03429011
  0
ARC
  8
LAYER_2
 10
-21.0385
 20
206.1343
 40
0.3265
 50
7.802078097
 51
64.8499274
  0
LINE
  8
LAYER_2
 10
-25.7145
 20
206.1786
 11
-25.7145
 21
204.8478
  0
LINE
  8
LAYER_2
 10
-20.715
 20
206.1786
 11
-20.715
 21
204.8478
  0
ENDBLK
  0
BLOCK
  8
LAYER_3
  2
AIGNBL03010002
 70
64
 10
0
 20
0
 30
0
  3
AIGNBL03010002
  0
ARC
  8
LAYER_3
 10
181.2361
 20
51.0518
 40
2.085
 50
359.9990616
 51
90.00093841
  0
ARC
  8
LAYER_3
 10
181.2364
 20
51.0522
 40
2.0846
 50
90.00927268
 51
180.0099666
  0
ARC
  8
LAYER_3
 10
181.2361
 20
51.0519
 40
2.0843
 50
180.0023133
 51
270.0004358
  0
ARC
  8
LAYER_3
 10
181.2365
 20
51.0522
 40
2.0846
 50
269.9893525
 51
359.9886593
  0
ARC
  8
LAYER_3
 10
181.2365
 20
51.0515
 40
1.2199
 50
0.01483428533
 51
90.01804168
  0
ARC
  8
LAYER_3
 10
181.2361
 20
51.0519
 40
1.2195
 50
90.00175626
 51
180.0029419
  0
ARC
  8
LAYER_3
 10
181.2361
 20
51.0518
 40
1.2195
 50
180.0016044
 51
269.9983956
  0
ARC
  8
LAYER_3
 10
181.2365
 20
51.0522
 40
1.2199
 50
269.9818051
 51
359.9806209
  0
LINE
  8
LAYER_3
 10
184.9472
 20
49.8323
 11
184.9472
 21
52.2714
  0
LINE
  8
LAYER_3
 10
190.1252
 20
48.9676
 11
190.1252
 21
53.1368
  0
LINE
  8
LAYER_3
 10
184.9472
 20
52.2714
 11
190.1252
 21
53.1368
  0
LINE
  8
LAYER_3
 10
184.9472
 20
49.8323
 11
190.1252
 21
48.9676
  0
LINE
  8
LAYER_3
 10
181.2361
 20
51.0518
 11
181.2361
 21
50.8004
  0
LINE
  8
LAYER_3
 10
181.2361
 20
50.5599
 11
181.2361
 21
48.3729
  0
LINE
  8
LAYER_3
 10
181.2361
 20
51.0518
 11
181.4883
 21
51.0518
  0
LINE
  8
LAYER_3
 10
181.7288
 20
51.0518
 11
183.9157
 21
51.0518
  0
LINE
  8
LAYER_3
 10
181.2361
 20
51.0518
 11
181.2361
 21
51.304
  0
LINE
  8
LAYER_3
 10
181.2361
 20
51.5445
 11
181.2361
 21
53.7314
  0
LINE
  8
LAYER_3
 10
181.2361
 20
51.0518
 11
180.9846
 21
51.0518
  0
LINE
  8
LAYER_3
 10
180.7442
 20
51.0518
 11
178.5572
 21
51.0518
  0
LINE
  8
LAYER_3
 10
187.1404
 20
51.0518
 11
187.3925
 21
51.0518
  0
LINE
  8
LAYER_3
 10
187.633
 20
51.0518
 11
190.5579
 21
51.0518
  0
LINE
  8
LAYER_3
 10
187.1404
 20
51.0518
 11
186.8882
 21
51.0518
  0
LINE
  8
LAYER_3
 10
186.6477
 20
51.0518
 11
184.4614
 21
51.0518
  0
ENDBLK
  0
ENDSEC
  0
SECTION
  2
ENTITIES
  0
TEXT
  8
LAYER_1
 10
-11.333
 20
117.8688
 11
-11.333
 21
117.8688
 40
3.0923
 41
0.5
 72
1
  1
水側
  0
TEXT
  8
LAYER_1
 10
-36.0967
 20
117.8688
 11
-36.0967
 21
117.8688
 40
3.0923
 41
0.5
 72
1
  1
湯側
  0
TEXT
  8
LAYER_1
 10
-23.9803
 20
186.6684
 11
-23.9803
 21
186.6684
 40
3.0923
 41
0.5
 72
1
  1
%%c40
  0
TEXT
  8
LAYER_1
 10
-23.9937
 20
181.5173
 11
-23.9937
 21
181.5173
 40
3.0923
 41
0.5
 72
1
  1
%%c48
  0
TEXT
  8
LAYER_1
 10
80.3196
 20
135.5983
 11
80.3196
 21
135.5983
 40
3.0923
 41
0.5
 50
89.99999999
 72
1
  1
310
  0
TEXT
  8
LAYER_1
 10
16.255
 20
148.8109
 11
16.255
 21
148.8109
 40
3.0923
 41
0.5
 50
89.99999999
 72
1
  1
425
  0
TEXT
  8
LAYER_1
 10
72.2019
 20
114.2755
 11
72.2019
 21
114.2755
 40
3.0923
 41
0.5
 72
2
  1
%%c5
  0
TEXT
  8
LAYER_1
 10
51.4563
 20
173.9636
 11
51.4563
 21
173.9636
 40
3.0923
 41
0.5
 50
89.99999999
 72
2
  1
max.40
  0
TEXT
  8
LAYER_1
 10
33.8332
 20
115.9702
 11
33.8332
 21
115.9702
 40
3.0923
 41
0.5
  1
PF 3/8
  0
TEXT
  8
LAYER_1
 10
43.7786
 20
217.0224
 11
43.7786
 21
217.0224
 40
3.0923
 41
0.5
 72
2
  1
閉
  0
TEXT
  8
LAYER_1
 10
51.0794
 20
229.6497
 11
51.0794
 21
229.6497
 40
3.0923
 41
0.5
 72
2
  1
開
  0
TEXT
  8
LAYER_1
 10
-46.5298
 20
268.2713
 11
-46.5298
 21
268.2713
 40
3.0923
 41
0.5
 72
2
  1
湯
  0
TEXT
  8
LAYER_1
 10
-42.6393
 20
247.6314
 11
-42.6393
 21
247.6314
 40
3.0923
 41
0.5
 72
2
  1
100%%d
  0
TEXT
  8
LAYER_1
 10
-19.3635
 20
241.7034
 11
-19.3635
 21
241.7034
 40
3.0923
 41
0.5
  1
水
  0
TEXT
  8
LAYER_1
 10
64.2452
 20
252.4585
 11
64.2452
 21
252.4585
 40
3.0923
 41
0.5
 72
1
  1
水栓取付穴
  0
TEXT
  8
LAYER_1
 10
75.9967
 20
272.9527
 11
75.9967
 21
272.9527
 40
3.0923
 41
0.5
 72
2
  1
%%c35
  0
TEXT
  8
LAYER_1
 10
31.2699
 20
189.2188
 11
31.2699
 21
189.2188
 40
3.0923
 41
0.5
 72
2
  1
15%%d
  0
TEXT
  8
LAYER_1
 10
48.6203
 20
186.986
 11
48.6203
 21
186.986
 40
3.0923
 41
0.5
 72
1
  1
125
  0
TEXT
  8
LAYER_1
 10
16.2481
 20
189.5984
 11
16.2481
 21
189.5984
 40
3.0923
 41
0.5
 50
89.99999999
 72
1
  1
122
  0
TEXT
  8
LAYER_1
 10
23.6561
 20
189.2656
 11
23.6561
 21
189.2656
 40
3.0923
 41
0.5
 50
89.99999999
 72
1
  1
120
  0
TEXT
  8
LAYER_1
 10
80.4781
 20
197.7233
 11
80.4781
 21
197.7233
 40
3.0923
 41
0.5
 50
89.99999999
 72
1
  1
187
  0
TEXT
  8
LAYER_1
 10
8.7626
 20
201.2234
 11
8.7626
 21
201.2234
 40
3.0923
 41
0.5
 50
89.99999999
 72
1
  1
215
  0
TEXT
  8
LAYER_1
 10
-35.4056
 20
170.6535
 11
-35.4056
 21
170.6535
 40
3.0923
 41
0.5
  1
%%c33
  0
TEXT
  8
LAYER_1
 10
-77.8468
 20
20.8373
 11
-77.8468
 21
20.8373
 40
3.6546
 41
0.5
  1
・連結金具の取付位置は95にしてください。
  0
TEXT
  8
LAYER_1
 10
-77.8468
 20
27.3609
 11
-77.8468
 21
27.3609
 40
3.6546
 41
0.5
  1
・国産洗面器とのセットの場合は国産の排水ヘッド部を別途準備してください。
  0
TEXT
  8
LAYER_1
 10
-23.9803
 20
85.4349
 11
-23.9803
 21
85.4349
 40
3.0923
 41
0.5
 72
1
  1
%%c63
  0
TEXT
  8
LAYER_1
 10
-9.6785
 20
50.4093
 11
-9.6785
 21
50.4093
 40
3.0923
 41
0.5
 72
2
  1
G1 1/4
  0
TEXT
  8
LAYER_1
 10
15.4564
 20
66.7056
 11
15.4564
 21
66.7056
 40
3.0923
 41
0.5
 50
89.99999999
 72
2
  1
%%c5
  0
TEXT
  8
LAYER_1
 10
0.5352
 20
37.021
 11
0.5352
 21
37.021
 40
3.0923
 41
0.5
 72
1
  1
190
  0
TEXT
  8
LAYER_1
 10
-11.3397
 20
44.2598
 11
-11.3397
 21
44.2598
 40
3.0923
 41
0.5
 72
1
  1
（95）
  0
TEXT
  8
LAYER_1
 10
29.3222
 20
73.4549
 11
29.3222
 21
73.4549
 40
3.0923
 41
0.5
 72
2
  1
連結金具取付位置
  0
TEXT
  8
LAYER_1
 10
-39.2665
 20
74.1581
 11
-39.2665
 21
74.1581
 40
3.0923
 41
0.5
 50
89.99999999
 72
1
  1
max.45
  0
TEXT
  8
LAYER_1
 10
-38.9351
 20
62.1054
 11
-38.9351
 21
62.1054
 40
3.0923
 41
0.5
 50
89.99999999
 72
1
  1
50
  0
LINE
  8
LAYER_2
  6
AIGENLINE002
 10
57.3067
 20
265.1402
 11
71.0223
 21
265.1402
  0
CIRCLE
  8
LAYER_2
 10
64.2452
 20
265.1402
 40
4.3751
  0
LINE
  8
LAYER_2
  6
AIGENLINE002
 10
64.2452
 20
271.4609
 11
64.2452
 21
258.309
  0
INSERT
  8
LAYER_2
  2
AIGNBL02010002
 10
0
 20
0
 30
0
  0
LINE
  8
LAYER_2
 10
71.3579
 20
272.2526
 11
77.145
 21
272.2526
  0
INSERT
  8
LAYER_2
  2
AIGNBL02010003
 10
0
 20
0
 30
0
  0
INSERT
  8
LAYER_2
  2
AIGNBL02010004
 10
0
 20
0
 30
0
  0
LINE
  8
LAYER_2
 10
73.4267
 20
113.5755
 11
60.5582
 21
113.5755
  0
LINE
  8
LAYER_2
 10
68.618
 20
114.1681
 11
66.4066
 21
113.5755
  0
LINE
  8
LAYER_2
 10
66.4066
 20
113.5755
 11
68.618
 21
112.9829
  0
LINE
  8
LAYER_2
 10
68.618
 20
112.9829
 11
68.618
 21
114.1681
  0
LINE
  8
LAYER_2
 10
62.945
 20
112.9974
 11
65.1564
 21
113.59
  0
LINE
  8
LAYER_2
 10
65.1564
 20
113.59
 11
62.945
 21
114.1825
  0
LINE
  8
LAYER_2
 10
62.945
 20
114.1825
 11
62.945
 21
112.9974
  0
LINE
  8
LAYER_2
 10
57.6616
 20
166.8484
 11
51.8594
 21
166.8484
  0
INSERT
  8
LAYER_2
  2
AIGNBL02010005
 10
0
 20
0
 30
0
  0
INSERT
  8
LAYER_2
  2
AIGNBL02010006
 10
0
 20
0
 30
0
  0
LINE
  8
LAYER_2
 10
67.1067
 20
96.8482
 11
81.9826
 21
96.8482
  0
LINE
  8
LAYER_2
 10
42.9655
 20
123.2738
 11
16.3063
 21
123.2738
  0
INSERT
  8
LAYER_2
  2
AIGNBL02010007
 10
0
 20
0
 30
0
  0
LINE
  8
LAYER_2
  6
AIGENLINE002
 10
-23.2148
 20
228.6543
 11
-23.2148
 21
274.165
  0
LINE
  8
LAYER_2
  6
AIGENLINE002
 10
-23.2148
 20
190.5706
 11
-23.2148
 21
222.5458
  0
LINE
  8
LAYER_2
  6
AIGENLINE002
 10
-23.2148
 20
135.8305
 11
-23.2148
 21
179.9342
  0
LINE
  8
LAYER_2
  6
AIGENLINE002
 10
-14.417
 20
265.1402
 11
-31.7245
 21
265.1402
  0
LINE
  8
LAYER_2
 10
-38.85
 20
123.5308
 11
-38.4001
 21
123.2814
  0
LINE
  8
LAYER_2
 10
-33.3496
 20
123.5308
 11
-33.7988
 21
123.2814
  0
LINE
  8
LAYER_2
 10
-37.6497
 20
126.5315
 11
-37.6497
 21
126.4068
  0
LINE
  8
LAYER_2
 10
-34.5492
 20
126.5315
 11
-34.5492
 21
126.4068
  0
LINE
  8
LAYER_2
 10
-37.525
 20
129.7822
 11
-37.525
 21
127.782
  0
LINE
  8
LAYER_2
 10
-34.6494
 20
129.7822
 11
-34.6494
 21
127.782
  0
LINE
  8
LAYER_2
 10
-37.525
 20
127.782
 11
-37.7248
 21
127.3569
  0
LINE
  8
LAYER_2
 10
-37.6997
 20
130.082
 11
-37.525
 21
129.7822
  0
LINE
  8
LAYER_2
 10
-34.6494
 20
127.782
 11
-34.474
 21
127.3569
  0
LINE
  8
LAYER_2
 10
-34.474
 20
130.082
 11
-34.6494
 21
129.7822
  0
LINE
  8
LAYER_2
 10
-33.7988
 20
126.4068
 11
-33.3496
 21
126.1566
  0
LINE
  8
LAYER_2
 10
-38.4001
 20
126.4068
 11
-38.85
 21
126.1566
  0
LINE
  8
LAYER_2
 10
-37.7744
 20
131.0328
 11
-37.7744
 21
130.3321
  0
LINE
  8
LAYER_2
 10
-34.3993
 20
131.0328
 11
-34.3993
 21
130.3321
  0
LINE
  8
LAYER_2
 10
-34.3993
 20
131.0328
 11
-37.7744
 21
131.0328
  0
LINE
  8
LAYER_2
 10
-34.4244
 20
130.2074
 11
-34.474
 21
130.082
  0
LINE
  8
LAYER_2
 10
-34.3993
 20
130.3321
 11
-34.4244
 21
130.2074
  0
LINE
  8
LAYER_2
 10
-37.7744
 20
130.2074
 11
-37.6997
 21
130.082
  0
LINE
  8
LAYER_2
 10
-37.7744
 20
130.3321
 11
-37.7744
 21
130.2074
  0
LINE
  8
LAYER_2
 10
-36.0994
 20
129.7822
 11
-37.525
 21
129.7822
  0
LINE
  8
LAYER_2
 10
-34.6494
 20
129.7822
 11
-36.0994
 21
129.7822
  0
LINE
  8
LAYER_2
 10
-34.6494
 20
127.782
 11
-37.525
 21
127.782
  0
LINE
  8
LAYER_2
 10
-34.4492
 20
127.3569
 11
-34.4244
 21
127.1819
  0
LINE
  8
LAYER_2
 10
-34.4244
 20
127.1819
 11
-34.4244
 21
127.0317
  0
LINE
  8
LAYER_2
 10
-34.4244
 20
127.0317
 11
-34.4568
 21
126.9318
  0
ARC
  8
LAYER_2
 10
-34.9108
 20
127.0364
 40
0.4659
 50
296.3392614
 51
347.0205246
  0
ARC
  8
LAYER_2
 10
-35.1512
 20
127.3493
 40
0.8564
 50
292.4124751
 51
301.4737434
  0
LINE
  8
LAYER_2
 10
-34.8247
 20
126.5576
 11
-34.8495
 21
126.5576
  0
LINE
  8
LAYER_2
 10
-34.4492
 20
127.3569
 11
-34.474
 21
127.3569
  0
ARC
  8
LAYER_2
 10
-37.1302
 20
127.1789
 40
0.6589
 50
202.0250572
 51
250.5489284
  0
LINE
  8
LAYER_2
 10
-37.741
 20
126.9318
 11
-37.7744
 21
127.0317
  0
LINE
  8
LAYER_2
 10
-37.7744
 20
127.0317
 11
-37.7744
 21
127.1819
  0
LINE
  8
LAYER_2
 10
-37.7744
 20
127.1819
 11
-37.7248
 21
127.3569
  0
LINE
  8
LAYER_2
 10
-34.5492
 20
126.5315
 11
-37.6497
 21
126.5315
  0
LINE
  8
LAYER_2
 10
-33.7988
 20
126.4068
 11
-38.4001
 21
126.4068
  0
LINE
  8
LAYER_2
 10
-33.3496
 20
123.5308
 11
-33.7988
 21
123.2814
  0
LINE
  8
LAYER_2
 10
-38.85
 20
123.5308
 11
-38.4001
 21
123.3062
  0
LINE
  8
LAYER_2
 10
-38.7001
 20
123.4812
 11
-38.4001
 21
123.3062
  0
LINE
  8
LAYER_2
 10
-38.4001
 20
123.3062
 11
-38.4001
 21
123.2814
  0
LINE
  8
LAYER_2
 10
-36.0994
 20
123.2814
 11
-38.4001
 21
123.2814
  0
LINE
  8
LAYER_2
 10
-33.7988
 20
123.2814
 11
-36.0994
 21
123.2814
  0
LINE
  8
LAYER_2
 10
-34.8495
 20
126.5576
 11
-36.0994
 21
126.5576
  0
LINE
  8
LAYER_2
 10
-37.3496
 20
126.5576
 11
-36.0994
 21
126.5576
  0
ARC
  8
LAYER_2
 10
-36.0973
 20
122.0606
 40
4.3213
 50
90.0278332
 51
108.5831329
  0
ARC
  8
LAYER_2
 10
-36.1066
 20
122.0285
 40
4.3534
 50
71.48608529
 51
89.90560787
  0
ARC
  8
LAYER_2
 10
-36.1487
 20
127.7523
 40
4.4247
 50
252.5653742
 51
267.7290761
  0
LINE
  8
LAYER_2
 10
-36.324
 20
123.331
 11
-35.8748
 21
123.331
  0
ARC
  8
LAYER_2
 10
-36.2032
 20
128.6348
 40
5.314
 50
273.5426081
 51
286.1595835
  0
ARC
  8
LAYER_2
 10
-34.1339
 20
124.9201
 40
1.4643
 50
57.61476047
 51
86.68862693
  0
ARC
  8
LAYER_2
 10
-33.9468
 20
124.9514
 40
1.4342
 50
94.09790615
 51
122.822921
  0
ARC
  8
LAYER_2
 10
-33.9174
 20
125.0163
 40
1.6904
 50
241.4926281
 51
265.5252436
  0
ARC
  8
LAYER_2
 10
-34.1683
 20
125.0729
 40
1.746
 50
273.909029
 51
297.9644578
  0
LINE
  8
LAYER_2
 10
-34.7242
 20
126.1566
 11
-34.7242
 21
123.5308
  0
LINE
  8
LAYER_2
 10
-33.3496
 20
126.1566
 11
-33.3496
 21
123.5308
  0
ARC
  8
LAYER_2
 10
-38.2038
 20
125.0949
 40
1.2881
 50
55.50940282
 51
87.60543489
  0
ARC
  8
LAYER_2
 10
-38.0791
 20
124.9617
 40
1.422
 50
92.85604
 51
122.8262441
  0
ARC
  8
LAYER_2
 10
-38.0486
 20
125.0125
 40
1.6845
 50
241.5913513
 51
266.5481286
  0
ARC
  8
LAYER_2
 10
-38.24
 20
124.8774
 40
1.549
 50
273.3299831
 51
299.6198255
  0
LINE
  8
LAYER_2
 10
-37.4744
 20
126.1566
 11
-37.4744
 21
123.5308
  0
LINE
  8
LAYER_2
 10
-38.85
 20
126.1566
 11
-38.85
 21
123.5308
  0
LINE
  8
LAYER_2
  6
AIGENLINE002
 10
-36.0967
 20
153.098
 11
-36.0967
 21
122.069
  0
LINE
  8
LAYER_2
 10
-34.7841
 20
149.0892
 11
-34.7841
 21
131.0328
  0
LINE
  8
LAYER_2
 10
-37.4093
 20
131.0328
 11
-37.4093
 21
149.0892
  0
LINE
  8
LAYER_2
  6
AIGENLINE002
 10
-24.2149
 20
135.8305
 11
-36.0967
 21
153.098
  0
LINE
  8
LAYER_2
 10
-8.5797
 20
123.5308
 11
-9.0296
 21
123.2814
  0
LINE
  8
LAYER_2
 10
-14.0801
 20
123.5308
 11
-13.6309
 21
123.2814
  0
LINE
  8
LAYER_2
 10
-9.78
 20
126.5315
 11
-9.78
 21
126.4068
  0
LINE
  8
LAYER_2
 10
-12.8805
 20
126.5315
 11
-12.8805
 21
126.4068
  0
LINE
  8
LAYER_2
 10
-9.9047
 20
129.7822
 11
-9.9047
 21
127.782
  0
LINE
  8
LAYER_2
 10
-12.7803
 20
129.7822
 11
-12.7803
 21
127.782
  0
LINE
  8
LAYER_2
 10
-9.9047
 20
127.782
 11
-9.7048
 21
127.3569
  0
LINE
  8
LAYER_2
 10
-9.73
 20
130.082
 11
-9.9047
 21
129.7822
  0
LINE
  8
LAYER_2
 10
-12.7803
 20
127.782
 11
-12.9556
 21
127.3569
  0
LINE
  8
LAYER_2
 10
-12.9556
 20
130.082
 11
-12.7803
 21
129.7822
  0
LINE
  8
LAYER_2
 10
-13.6309
 20
126.4068
 11
-14.0801
 21
126.1566
  0
LINE
  8
LAYER_2
 10
-9.0296
 20
126.4068
 11
-8.5797
 21
126.1566
  0
LINE
  8
LAYER_2
 10
-9.6552
 20
131.0328
 11
-9.6552
 21
130.3321
  0
LINE
  8
LAYER_2
 10
-13.0304
 20
131.0328
 11
-13.0304
 21
130.3321
  0
LINE
  8
LAYER_2
 10
-13.0304
 20
131.0328
 11
-9.6552
 21
131.0328
  0
LINE
  8
LAYER_2
 10
-13.0052
 20
130.2074
 11
-12.9556
 21
130.082
  0
LINE
  8
LAYER_2
 10
-13.0304
 20
130.3321
 11
-13.0052
 21
130.2074
  0
LINE
  8
LAYER_2
 10
-9.6552
 20
130.2074
 11
-9.73
 21
130.082
  0
LINE
  8
LAYER_2
 10
-9.6552
 20
130.3321
 11
-9.6552
 21
130.2074
  0
LINE
  8
LAYER_2
 10
-11.3302
 20
129.7822
 11
-9.9047
 21
129.7822
  0
LINE
  8
LAYER_2
 10
-12.7803
 20
129.7822
 11
-11.3302
 21
129.7822
  0
LINE
  8
LAYER_2
 10
-12.7803
 20
127.782
 11
-9.9047
 21
127.782
  0
LINE
  8
LAYER_2
 10
-12.9804
 20
127.3569
 11
-13.0052
 21
127.1819
  0
LINE
  8
LAYER_2
 10
-13.0052
 20
127.1819
 11
-13.0052
 21
127.0317
  0
LINE
  8
LAYER_2
 10
-13.0052
 20
127.0317
 11
-12.9728
 21
126.9318
  0
ARC
  8
LAYER_2
 10
-12.519
 20
127.0363
 40
0.4656
 50
192.9627394
 51
243.6749464
  0
ARC
  8
LAYER_2
 10
-12.2782
 20
127.3497
 40
0.8568
 50
238.5301856
 51
247.5878996
  0
LINE
  8
LAYER_2
 10
-12.6049
 20
126.5576
 11
-12.5801
 21
126.5576
  0
LINE
  8
LAYER_2
 10
-12.9804
 20
127.3569
 11
-12.9556
 21
127.3569
  0
ARC
  8
LAYER_2
 10
-10.2996
 20
127.1789
 40
0.659
 50
289.4649842
 51
337.9756561
  0
LINE
  8
LAYER_2
 10
-9.6887
 20
126.9318
 11
-9.6552
 21
127.0317
  0
LINE
  8
LAYER_2
 10
-9.6552
 20
127.0317
 11
-9.6552
 21
127.1819
  0
LINE
  8
LAYER_2
 10
-9.6552
 20
127.1819
 11
-9.7048
 21
127.3569
  0
LINE
  8
LAYER_2
 10
-12.8805
 20
126.5315
 11
-9.78
 21
126.5315
  0
LINE
  8
LAYER_2
 10
-13.6309
 20
126.4068
 11
-9.0296
 21
126.4068
  0
LINE
  8
LAYER_2
 10
-14.0801
 20
123.5308
 11
-13.6309
 21
123.2814
  0
LINE
  8
LAYER_2
 10
-8.5797
 20
123.5308
 11
-9.0296
 21
123.3062
  0
LINE
  8
LAYER_2
 10
-8.7295
 20
123.4812
 11
-9.0296
 21
123.3062
  0
LINE
  8
LAYER_2
 10
-9.0296
 20
123.3062
 11
-9.0296
 21
123.2814
  0
LINE
  8
LAYER_2
 10
-11.3302
 20
123.2814
 11
-9.0296
 21
123.2814
  0
LINE
  8
LAYER_2
 10
-13.6309
 20
123.2814
 11
-11.3302
 21
123.2814
  0
LINE
  8
LAYER_2
 10
-12.5801
 20
126.5576
 11
-11.3302
 21
126.5576
  0
LINE
  8
LAYER_2
 10
-10.08
 20
126.5576
 11
-11.3302
 21
126.5576
  0
ARC
  8
LAYER_2
 10
-11.3323
 20
122.0611
 40
4.3208
 50
71.41585561
 51
89.97184829
  0
ARC
  8
LAYER_2
 10
-11.3231
 20
122.0283
 40
4.3536
 50
90.0933155
 51
108.5136619
  0
ARC
  8
LAYER_2
 10
-11.2809
 20
127.7512
 40
4.4236
 50
272.2705283
 51
287.4367009
  0
LINE
  8
LAYER_2
 10
-11.1056
 20
123.331
 11
-11.5548
 21
123.331
  0
ARC
  8
LAYER_2
 10
-11.2266
 20
128.6348
 40
5.3139
 50
253.8406409
 51
266.4588462
  0
ARC
  8
LAYER_2
 10
-13.2957
 20
124.9197
 40
1.4646
 50
93.31486209
 51
122.3817505
  0
ARC
  8
LAYER_2
 10
-13.4828
 20
124.9516
 40
1.4339
 50
57.17467899
 51
85.90449376
  0
ARC
  8
LAYER_2
 10
-13.5122
 20
125.016
 40
1.6902
 50
274.473149
 51
298.5089793
  0
ARC
  8
LAYER_2
 10
-13.2613
 20
125.0732
 40
1.7463
 50
242.0376827
 51
266.0888305
  0
LINE
  8
LAYER_2
 10
-12.7055
 20
126.1566
 11
-12.7055
 21
123.5308
  0
LINE
  8
LAYER_2
 10
-14.0801
 20
126.1566
 11
-14.0801
 21
123.5308
  0
ARC
  8
LAYER_2
 10
-9.2259
 20
125.0949
 40
1.2881
 50
92.39456509
 51
124.4905972
  0
ARC
  8
LAYER_2
 10
-9.3505
 20
124.962
 40
1.4217
 50
57.17031213
 51
87.14740371
  0
ARC
  8
LAYER_2
 10
-9.3811
 20
125.0123
 40
1.6843
 50
273.4502257
 51
298.4102944
  0
ARC
  8
LAYER_2
 10
-9.1897
 20
124.8774
 40
1.549
 50
240.3801745
 51
266.6700169
  0
LINE
  8
LAYER_2
 10
-9.9553
 20
126.1566
 11
-9.9553
 21
123.5308
  0
LINE
  8
LAYER_2
 10
-8.5797
 20
126.1566
 11
-8.5797
 21
123.5308
  0
LINE
  8
LAYER_2
  6
AIGENLINE002
 10
-11.333
 20
153.098
 11
-11.333
 21
122.069
  0
LINE
  8
LAYER_2
 10
-12.6456
 20
149.0892
 11
-12.6456
 21
131.0328
  0
LINE
  8
LAYER_2
 10
-10.0204
 20
131.0328
 11
-10.0204
 21
149.0892
  0
LINE
  8
LAYER_2
  6
AIGENLINE002
 10
-23.2148
 20
135.8305
 11
-11.333
 21
153.098
  0
LINE
  8
LAYER_2
 10
-25.3859
 20
243.6318
 11
-23.2148
 21
242.9049
  0
LINE
  8
LAYER_2
 10
-23.2148
 20
242.9049
 11
-25.4582
 21
242.4491
  0
LINE
  8
LAYER_2
 10
-25.4582
 20
242.4491
 11
-25.3859
 21
243.6318
  0
LINE
  8
LAYER_2
 10
67.8815
 20
181.9701
 11
67.8815
 21
179.8481
  0
LINE
  8
LAYER_2
 10
66.9179
 20
179.2195
 11
66.9179
 21
181.9536
  0
ARC
  8
LAYER_2
 10
33.041
 20
203.1601
 40
9.5833
 50
226.009029
 51
256.4037639
  0
ARC
  8
LAYER_2
 10
33.0008
 20
203.1311
 40
9.5457
 50
256.5978348
 51
270.0380965
  0
LINE
  8
LAYER_2
 10
36.3929
 20
193.5854
 11
33.0071
 21
193.5854
  0
LINE
  8
LAYER_2
 10
35.2185
 20
194.178
 11
33.0071
 21
193.5854
  0
LINE
  8
LAYER_2
 10
33.0071
 20
193.5854
 11
35.2185
 21
192.9929
  0
LINE
  8
LAYER_2
 10
35.2185
 20
192.9929
 11
35.2185
 21
194.178
  0
LINE
  8
LAYER_2
 10
27.4881
 20
194.7297
 11
29.7043
 21
194.1558
  0
LINE
  8
LAYER_2
 10
29.7043
 20
194.1558
 11
28.0717
 21
195.7614
  0
LINE
  8
LAYER_2
 10
28.0717
 20
195.7614
 11
27.4881
 21
194.7297
  0
LINE
  8
LAYER_2
 10
64.2452
 20
186.0875
 11
32.9954
 21
186.0875
  0
LINE
  8
LAYER_2
 10
35.2068
 20
186.6801
 11
32.9954
 21
186.0875
  0
LINE
  8
LAYER_2
 10
32.9954
 20
186.0875
 11
35.2068
 21
185.495
  0
LINE
  8
LAYER_2
 10
35.2068
 20
185.495
 11
35.2068
 21
186.6801
  0
LINE
  8
LAYER_2
 10
-17.1645
 20
180.8172
 11
-29.2096
 21
180.8172
  0
LINE
  8
LAYER_2
 10
-26.9982
 20
181.4098
 11
-29.2096
 21
180.8172
  0
LINE
  8
LAYER_2
 10
-29.2096
 20
180.8172
 11
-26.9982
 21
180.2246
  0
LINE
  8
LAYER_2
 10
-26.9982
 20
180.2246
 11
-26.9982
 21
181.4098
  0
LINE
  8
LAYER_2
 10
62.0338
 20
185.5094
 11
64.2452
 21
186.102
  0
LINE
  8
LAYER_2
 10
64.2452
 20
186.102
 11
62.0338
 21
186.6945
  0
LINE
  8
LAYER_2
 10
62.0338
 20
186.6945
 11
62.0338
 21
185.5094
  0
LINE
  8
LAYER_2
 10
16.9995
 20
174.3483
 11
16.9995
 21
204.8483
  0
LINE
  8
LAYER_2
 10
17.592
 20
202.6367
 11
16.9995
 21
204.8483
  0
LINE
  8
LAYER_2
 10
16.9995
 20
204.8483
 11
16.4069
 21
202.6367
  0
LINE
  8
LAYER_2
 10
16.4069
 20
202.6367
 11
17.592
 21
202.6367
  0
LINE
  8
LAYER_2
 10
16.4214
 20
176.5598
 11
17.0139
 21
174.3483
  0
LINE
  8
LAYER_2
 10
17.0139
 20
174.3483
 11
17.6065
 21
176.5598
  0
LINE
  8
LAYER_2
 10
17.6065
 20
176.5598
 11
16.4214
 21
176.5598
  0
LINE
  8
LAYER_2
 10
24.4075
 20
174.3483
 11
24.4075
 21
204.1829
  0
LINE
  8
LAYER_2
 10
25
 20
201.9713
 11
24.4075
 21
204.1829
  0
LINE
  8
LAYER_2
 10
24.4075
 20
204.1829
 11
23.8149
 21
201.9713
  0
LINE
  8
LAYER_2
 10
23.8149
 20
201.9713
 11
25
 21
201.9713
  0
LINE
  8
LAYER_2
 10
23.8294
 20
176.5598
 11
24.4219
 21
174.3483
  0
LINE
  8
LAYER_2
 10
24.4219
 20
174.3483
 11
25.0145
 21
176.5598
  0
LINE
  8
LAYER_2
 10
25.0145
 20
176.5598
 11
23.8294
 21
176.5598
  0
LINE
  8
LAYER_2
 10
81.2295
 20
174.3483
 11
81.2295
 21
221.0983
  0
LINE
  8
LAYER_2
 10
81.822
 20
218.8867
 11
81.2295
 21
221.0983
  0
LINE
  8
LAYER_2
 10
81.2295
 20
221.0983
 11
80.6369
 21
218.8867
  0
LINE
  8
LAYER_2
 10
80.6369
 20
218.8867
 11
81.822
 21
218.8867
  0
LINE
  8
LAYER_2
 10
80.6514
 20
176.5598
 11
81.244
 21
174.3483
  0
LINE
  8
LAYER_2
 10
81.244
 20
174.3483
 11
81.8365
 21
176.5598
  0
LINE
  8
LAYER_2
 10
81.8365
 20
176.5598
 11
80.6514
 21
176.5598
  0
LINE
  8
LAYER_2
 10
9.514
 20
174.3483
 11
9.514
 21
228.0984
  0
LINE
  8
LAYER_2
 10
10.1065
 20
225.8868
 11
9.514
 21
228.0984
  0
LINE
  8
LAYER_2
 10
9.514
 20
228.0984
 11
8.9214
 21
225.8868
  0
LINE
  8
LAYER_2
 10
8.9214
 20
225.8868
 11
10.1065
 21
225.8868
  0
LINE
  8
LAYER_2
 10
8.9359
 20
176.5598
 11
9.5285
 21
174.3483
  0
LINE
  8
LAYER_2
 10
9.5285
 20
174.3483
 11
10.121
 21
176.5598
  0
LINE
  8
LAYER_2
 10
10.121
 20
176.5598
 11
8.9359
 21
176.5598
  0
LINE
  8
LAYER_2
 10
65.1233
 20
148.4857
 11
65.1233
 21
96.8482
  0
LINE
  8
LAYER_2
 10
66.3732
 20
96.8482
 11
65.1233
 21
96.8482
  0
LINE
  8
LAYER_2
 10
-21.0885
 20
96.8482
 11
-22.3383
 21
96.8482
  0
LINE
  8
LAYER_2
 10
66.3732
 20
148.4857
 11
66.3732
 21
96.8482
  0
LINE
  8
LAYER_2
  6
AIGENLINE002
 10
65.7452
 20
94.7298
 11
65.7452
 21
168.471
  0
LINE
  8
LAYER_2
  6
AIGENLINE002
 10
62.7452
 20
135.8305
 11
62.7452
 21
168.3777
  0
LINE
  8
LAYER_2
 10
64.0578
 20
140.4066
 11
64.0578
 21
160.5984
  0
LINE
  8
LAYER_2
 10
61.4329
 20
140.4066
 11
61.4329
 21
160.5984
  0
LINE
  8
LAYER_2
  6
AIGENLINE002
 10
62.7452
 20
135.8305
 11
46.6776
 21
153.098
  0
LINE
  8
LAYER_2
 10
70.2451
 20
166.3483
 11
58.2452
 21
166.3483
  0
LINE
  8
LAYER_2
 10
58.2452
 20
166.3483
 11
58.2452
 21
166.8484
  0
LINE
  8
LAYER_2
 10
58.2452
 20
166.8484
 11
70.2451
 21
166.8484
  0
LINE
  8
LAYER_2
 10
70.2451
 20
166.8484
 11
70.2451
 21
166.3483
  0
LINE
  8
LAYER_2
 10
70.2451
 20
165.9735
 11
58.2452
 21
165.9735
  0
LINE
  8
LAYER_2
 10
58.2452
 20
165.9735
 11
58.2452
 21
166.3483
  0
LINE
  8
LAYER_2
 10
58.2452
 20
166.3483
 11
70.2451
 21
166.3483
  0
LINE
  8
LAYER_2
 10
70.2451
 20
166.3483
 11
70.2451
 21
165.9735
  0
LINE
  8
LAYER_2
 10
69.7453
 20
165.3484
 11
58.7451
 21
165.3484
  0
LINE
  8
LAYER_2
 10
58.7451
 20
165.3484
 11
58.7451
 21
165.9735
  0
LINE
  8
LAYER_2
 10
58.7451
 20
165.9735
 11
69.7453
 21
165.9735
  0
LINE
  8
LAYER_2
 10
69.7453
 20
165.9735
 11
69.7453
 21
165.3484
  0
LINE
  8
LAYER_2
 10
68.37
 20
166.8484
 11
60.1204
 21
166.8484
  0
LINE
  8
LAYER_2
 10
60.1204
 20
166.8484
 11
60.1204
 21
174.3483
  0
LINE
  8
LAYER_2
 10
60.1204
 20
174.3483
 11
68.37
 21
174.3483
  0
LINE
  8
LAYER_2
 10
68.37
 20
174.3483
 11
68.37
 21
166.8484
  0
LINE
  8
LAYER_2
 10
60.3701
 20
174.3483
 11
60.3701
 21
166.8484
  0
LINE
  8
LAYER_2
 10
68.1202
 20
174.3483
 11
68.1202
 21
166.8484
  0
LINE
  8
LAYER_2
 10
68.37
 20
160.8484
 11
68.1202
 21
160.5984
  0
LINE
  8
LAYER_2
 10
68.1202
 20
160.5984
 11
60.3701
 21
160.5984
  0
LINE
  8
LAYER_2
 10
60.3701
 20
160.5984
 11
60.1204
 21
160.8484
  0
LINE
  8
LAYER_2
 10
60.1204
 20
160.8484
 11
60.1204
 21
163.5985
  0
LINE
  8
LAYER_2
 10
60.1204
 20
163.5985
 11
68.37
 21
163.5985
  0
LINE
  8
LAYER_2
 10
68.37
 20
163.5985
 11
68.37
 21
160.8484
  0
LINE
  8
LAYER_2
 10
68.37
 20
160.8484
 11
60.1204
 21
160.8484
  0
LINE
  8
LAYER_2
 10
60.3701
 20
163.5985
 11
60.3701
 21
160.5984
  0
LINE
  8
LAYER_2
 10
68.1202
 20
163.5985
 11
68.1202
 21
160.5984
  0
LINE
  8
LAYER_2
 10
66.995
 20
165.3484
 11
66.995
 21
163.9349
  0
ARC
  8
LAYER_2
 10
68.3327
 20
166.3593
 40
2.769
 50
241.1114417
 51
265.5984819
  0
LINE
  8
LAYER_2
 10
66.4952
 20
165.3484
 11
66.4952
 21
163.9349
  0
ARC
  8
LAYER_2
 10
65.8183
 20
164.4453
 40
0.8478
 50
267.3149167
 51
322.9794682
  0
LINE
  8
LAYER_2
 10
64.2452
 20
165.3484
 11
69.2451
 21
165.3484
  0
LINE
  8
LAYER_2
 10
69.2451
 20
165.3484
 11
69.2451
 21
164.0401
  0
ARC
  8
LAYER_2
 10
68.757
 20
164.1675
 40
0.5045
 50
300.627571
 51
345.3707307
  0
ARC
  8
LAYER_2
 10
68.4959
 20
164.6508
 40
1.0536
 50
267.1460126
 51
299.4570767
  0
LINE
  8
LAYER_2
 10
68.4434
 20
163.5985
 11
64.2452
 21
163.5985
  0
LINE
  8
LAYER_2
 10
66.4952
 20
163.9349
 11
66.995
 21
163.9349
  0
LINE
  8
LAYER_2
 10
61.4953
 20
165.3484
 11
61.4953
 21
163.9349
  0
ARC
  8
LAYER_2
 10
60.1576
 20
166.3593
 40
2.769
 50
274.4015182
 51
298.8885583
  0
LINE
  8
LAYER_2
 10
61.9952
 20
165.3484
 11
61.9952
 21
163.9349
  0
ARC
  8
LAYER_2
 10
62.6721
 20
164.4453
 40
0.8478
 50
217.0205319
 51
272.6850833
  0
LINE
  8
LAYER_2
 10
64.2452
 20
165.3484
 11
59.2453
 21
165.3484
  0
LINE
  8
LAYER_2
 10
59.2453
 20
165.3484
 11
59.2453
 21
164.0401
  0
ARC
  8
LAYER_2
 10
59.738
 20
164.1732
 40
0.5104
 50
195.1162561
 51
239.5117646
  0
ARC
  8
LAYER_2
 10
60.0006
 20
164.6648
 40
1.0675
 50
240.7543531
 51
272.6946548
  0
LINE
  8
LAYER_2
 10
60.0508
 20
163.5985
 11
64.2452
 21
163.5985
  0
LINE
  8
LAYER_2
 10
61.9952
 20
163.9349
 11
61.4953
 21
163.9349
  0
LINE
  8
LAYER_2
 10
45.0022
 20
130.3321
 11
45.0022
 21
131.0328
  0
LINE
  8
LAYER_2
 10
48.3778
 20
130.3321
 11
48.3778
 21
131.0328
  0
LINE
  8
LAYER_2
 10
48.3778
 20
131.0328
 11
45.0022
 21
131.0328
  0
ARC
  8
LAYER_2
 10
47.667
 20
130.4104
 40
0.7151
 50
332.7258818
 51
353.7155152
  0
LINE
  8
LAYER_2
 10
45.0525
 20
130.0827
 11
45.0022
 21
130.2074
  0
LINE
  8
LAYER_2
 10
45.0022
 20
130.2074
 11
45.0022
 21
130.3321
  0
LINE
  8
LAYER_2
 10
48.3026
 20
130.0827
 11
48.128
 21
129.7822
  0
LINE
  8
LAYER_2
 10
45.2283
 20
129.7822
 11
45.0525
 21
130.0827
  0
LINE
  8
LAYER_2
 10
48.128
 20
127.782
 11
48.128
 21
129.7822
  0
LINE
  8
LAYER_2
 10
45.2283
 20
127.782
 11
45.2283
 21
129.7822
  0
LINE
  8
LAYER_2
 10
48.7402
 20
114.8808
 11
48.7402
 21
122.8411
  0
LINE
  8
LAYER_2
 10
44.615
 20
114.8808
 11
44.615
 21
122.8411
  0
LINE
  8
LAYER_2
 10
48.128
 20
129.7822
 11
45.2283
 21
129.7822
  0
LINE
  8
LAYER_2
 10
48.3288
 20
127.3569
 11
48.128
 21
127.782
  0
LINE
  8
LAYER_2
 10
45.2283
 20
127.782
 11
45.0274
 21
127.3569
  0
LINE
  8
LAYER_2
 10
48.128
 20
127.782
 11
45.2283
 21
127.782
  0
LINE
  8
LAYER_2
 10
48.3288
 20
127.3569
 11
48.3026
 21
126.8574
  0
LINE
  8
LAYER_2
 10
48.3026
 20
126.8574
 11
47.9282
 21
126.5563
  0
LINE
  8
LAYER_2
 10
45.4281
 20
126.5563
 11
45.0525
 21
126.8574
  0
LINE
  8
LAYER_2
 10
45.0525
 20
126.8574
 11
45.0274
 21
127.3569
  0
LINE
  8
LAYER_2
 10
45.1273
 20
126.4068
 11
45.1273
 21
126.5315
  0
LINE
  8
LAYER_2
 10
48.2279
 20
126.4068
 11
48.2279
 21
126.5315
  0
LINE
  8
LAYER_2
 10
48.2279
 20
126.5315
 11
45.1273
 21
126.5315
  0
LINE
  8
LAYER_2
 10
44.3773
 20
126.4068
 11
44.3022
 21
126.3819
  0
ARC
  8
LAYER_2
 10
46.3275
 20
53.6074
 40
72.8255
 50
87.85522377
 51
91.53453542
  0
LINE
  8
LAYER_2
 10
44.3773
 20
123.2814
 11
44.3022
 21
123.331
  0
LINE
  8
LAYER_2
 10
49.053
 20
123.331
 11
48.9779
 21
123.2814
  0
LINE
  8
LAYER_2
 10
48.9779
 20
123.2814
 11
44.3773
 21
123.2814
  0
LINE
  8
LAYER_2
 10
46.6776
 20
126.5563
 11
45.4281
 21
126.5563
  0
LINE
  8
LAYER_2
 10
47.9282
 20
126.5563
 11
46.6776
 21
126.5563
  0
LINE
  8
LAYER_2
 10
44.3022
 20
126.1559
 11
44.3022
 21
126.3819
  0
LINE
  8
LAYER_2
 10
44.3022
 20
123.331
 11
44.3022
 21
123.5308
  0
LINE
  8
LAYER_2
 10
49.053
 20
126.1559
 11
49.053
 21
126.3819
  0
LINE
  8
LAYER_2
 10
49.053
 20
123.331
 11
49.053
 21
123.5308
  0
ARC
  8
LAYER_2
 10
47.771
 20
122.6581
 40
3.7253
 50
69.87189604
 51
88.36247334
  0
ARC
  8
LAYER_2
 10
47.9514
 20
122.691
 40
3.6917
 50
91.14775993
 51
110.1855234
  0
ARC
  8
LAYER_2
 10
48.0226
 20
127.9053
 40
4.5766
 50
252.9091664
 51
268.1832249
  0
ARC
  8
LAYER_2
 10
47.7048
 20
127.9048
 40
4.5771
 50
272.1621979
 51
287.1305767
  0
LINE
  8
LAYER_2
 10
49.053
 20
123.5308
 11
49.053
 21
126.1559
  0
ARC
  8
LAYER_2
 10
45.3961
 20
122.6607
 40
3.7227
 50
69.8643992
 51
88.35731117
  0
ARC
  8
LAYER_2
 10
45.5763
 20
122.6894
 40
3.6933
 50
91.14041775
 51
110.1807126
  0
ARC
  8
LAYER_2
 10
45.6465
 20
127.9017
 40
4.5729
 50
252.9041141
 51
268.1991023
  0
ARC
  8
LAYER_2
 10
45.3305
 20
127.8978
 40
4.5701
 50
272.1605947
 51
287.1434592
  0
LINE
  8
LAYER_2
 10
44.3022
 20
123.5308
 11
44.3022
 21
126.1559
  0
LINE
  8
LAYER_2
 10
46.6776
 20
123.5308
 11
46.6776
 21
126.1559
  0
LINE
  8
LAYER_2
  6
AIGENLINE002
 10
46.6776
 20
153.098
 11
46.6776
 21
122.069
  0
LINE
  8
LAYER_2
 10
45.365
 20
149.0892
 11
45.365
 21
131.0328
  0
LINE
  8
LAYER_2
 10
47.9902
 20
131.0328
 11
47.9902
 21
149.0892
  0
INSERT
  8
LAYER_2
  2
AIGNBL02010008
 10
0
 20
0
 30
0
  0
LINE
  8
LAYER_2
 10
-22.3366
 20
148.4857
 11
-22.3366
 21
96.8485
  0
LINE
  8
LAYER_2
 10
-21.0867
 20
148.4857
 11
-21.0867
 21
96.8485
  0
LINE
  8
LAYER_2
  6
AIGENLINE002
 10
-21.7148
 20
94.7298
 11
-21.7148
 21
168.471
  0
LINE
  8
LAYER_2
  6
AIGENLINE002
 10
-24.2149
 20
135.8305
 11
-24.2149
 21
168.3777
  0
LINE
  8
LAYER_2
 10
-22.9023
 20
140.4069
 11
-22.9023
 21
160.5984
  0
LINE
  8
LAYER_2
 10
-25.5271
 20
140.4069
 11
-25.5271
 21
160.5984
  0
LINE
  8
LAYER_2
 10
-17.2148
 20
166.3483
 11
-29.2148
 21
166.3483
  0
LINE
  8
LAYER_2
 10
-29.2148
 20
166.3483
 11
-29.2148
 21
166.8484
  0
LINE
  8
LAYER_2
 10
-29.2148
 20
166.8484
 11
-17.2148
 21
166.8484
  0
LINE
  8
LAYER_2
 10
-17.2148
 20
166.8484
 11
-17.2148
 21
166.3483
  0
LINE
  8
LAYER_2
 10
-17.2148
 20
165.9735
 11
-29.2148
 21
165.9735
  0
LINE
  8
LAYER_2
 10
-29.2148
 20
165.9735
 11
-29.2148
 21
166.3483
  0
LINE
  8
LAYER_2
 10
-29.2148
 20
166.3483
 11
-17.2148
 21
166.3483
  0
LINE
  8
LAYER_2
 10
-17.2148
 20
166.3483
 11
-17.2148
 21
165.9735
  0
LINE
  8
LAYER_2
 10
-17.7147
 20
165.3484
 11
-28.7149
 21
165.3484
  0
LINE
  8
LAYER_2
 10
-28.7149
 20
165.3484
 11
-28.7149
 21
165.9735
  0
LINE
  8
LAYER_2
 10
-28.7149
 20
165.9735
 11
-17.7147
 21
165.9735
  0
LINE
  8
LAYER_2
 10
-17.7147
 20
165.9735
 11
-17.7147
 21
165.3484
  0
LINE
  8
LAYER_2
 10
-19.09
 20
174.3483
 11
-19.09
 21
166.8484
  0
LINE
  8
LAYER_2
 10
-19.09
 20
166.8484
 11
-27.3396
 21
166.8484
  0
LINE
  8
LAYER_2
 10
-27.3396
 20
166.8484
 11
-27.3396
 21
174.3483
  0
LINE
  8
LAYER_2
 10
-27.0898
 20
174.3483
 11
-27.0898
 21
166.8484
  0
LINE
  8
LAYER_2
 10
-19.3397
 20
174.3483
 11
-19.3397
 21
166.8484
  0
LINE
  8
LAYER_2
 10
-19.09
 20
160.8484
 11
-19.3397
 21
160.5984
  0
LINE
  8
LAYER_2
 10
-19.3397
 20
160.5984
 11
-27.0898
 21
160.5984
  0
LINE
  8
LAYER_2
 10
-27.0898
 20
160.5984
 11
-27.3396
 21
160.8484
  0
LINE
  8
LAYER_2
 10
-27.3396
 20
160.8484
 11
-27.3396
 21
163.5985
  0
LINE
  8
LAYER_2
 10
-27.3396
 20
163.5985
 11
-19.09
 21
163.5985
  0
LINE
  8
LAYER_2
 10
-19.09
 20
163.5985
 11
-19.09
 21
160.8484
  0
LINE
  8
LAYER_2
 10
-19.09
 20
160.8484
 11
-27.3396
 21
160.8484
  0
LINE
  8
LAYER_2
 10
-27.0898
 20
163.5985
 11
-27.0898
 21
160.5984
  0
LINE
  8
LAYER_2
 10
-19.3397
 20
163.5985
 11
-19.3397
 21
160.5984
  0
LINE
  8
LAYER_2
 10
-20.4649
 20
165.3484
 11
-20.4649
 21
163.9349
  0
ARC
  8
LAYER_2
 10
-19.1272
 20
166.3593
 40
2.769
 50
241.1114417
 51
265.5984819
  0
LINE
  8
LAYER_2
 10
-20.9648
 20
165.3484
 11
-20.9648
 21
163.9349
  0
ARC
  8
LAYER_2
 10
-21.6417
 20
164.4453
 40
0.8478
 50
267.3149167
 51
322.9794682
  0
LINE
  8
LAYER_2
 10
-23.2148
 20
165.3484
 11
-18.2149
 21
165.3484
  0
LINE
  8
LAYER_2
 10
-18.2149
 20
165.3484
 11
-18.2149
 21
164.0401
  0
ARC
  8
LAYER_2
 10
-18.703
 20
164.1675
 40
0.5045
 50
300.627571
 51
345.3707307
  0
ARC
  8
LAYER_2
 10
-18.9641
 20
164.6508
 40
1.0536
 50
267.1460126
 51
299.4570767
  0
LINE
  8
LAYER_2
 10
-19.0166
 20
163.5985
 11
-23.2148
 21
163.5985
  0
LINE
  8
LAYER_2
 10
-20.9648
 20
163.9349
 11
-20.4649
 21
163.9349
  0
LINE
  8
LAYER_2
 10
-25.9647
 20
165.3484
 11
-25.9647
 21
163.9349
  0
ARC
  8
LAYER_2
 10
-27.3022
 20
166.3586
 40
2.7683
 50
274.400884
 51
298.8919876
  0
LINE
  8
LAYER_2
 10
-25.4648
 20
165.3484
 11
-25.4648
 21
163.9349
  0
ARC
  8
LAYER_2
 10
-24.7879
 20
164.4453
 40
0.8478
 50
217.0205319
 51
272.6850833
  0
LINE
  8
LAYER_2
 10
-23.2148
 20
165.3484
 11
-28.2146
 21
165.3484
  0
LINE
  8
LAYER_2
 10
-28.2146
 20
165.3484
 11
-28.2146
 21
164.0401
  0
ARC
  8
LAYER_2
 10
-27.722
 20
164.173
 40
0.5102
 50
195.1034818
 51
239.5081231
  0
ARC
  8
LAYER_2
 10
-27.4594
 20
164.6647
 40
1.0674
 50
240.7519691
 51
272.6956703
  0
LINE
  8
LAYER_2
 10
-27.4092
 20
163.5985
 11
-23.2148
 21
163.5985
  0
LINE
  8
LAYER_2
 10
-25.4648
 20
163.9349
 11
-25.9647
 21
163.9349
  0
INSERT
  8
LAYER_2
  2
AIGNBL02010009
 10
0
 20
0
 30
0
  0
LINE
  8
LAYER_2
  6
AIGENLINE002
 10
-20.1907
 20
149.0986
 11
-23.4807
 21
149.0986
  0
LINE
  8
LAYER_2
 10
-29.2096
 20
174.3483
 11
-17.2096
 21
174.3483
  0
LINE
  8
LAYER_2
 10
-29.2096
 20
175.0984
 11
-17.2096
 21
175.0984
  0
LINE
  8
LAYER_2
 10
-17.4597
 20
175.3481
 11
-28.9595
 21
175.3481
  0
LINE
  8
LAYER_2
 10
-18.2721
 20
175.4732
 11
-28.1471
 21
175.4732
  0
LINE
  8
LAYER_2
 10
-18.2721
 20
178.5982
 11
-17.8263
 21
178.5982
  0
LINE
  8
LAYER_2
 10
-18.2721
 20
179.8481
 11
-17.8263
 21
179.8481
  0
LINE
  8
LAYER_2
 10
-29.2096
 20
175.0984
 11
-29.2096
 21
174.3483
  0
LINE
  8
LAYER_2
 10
-28.1471
 20
175.4732
 11
-28.1471
 21
218.7222
  0
LINE
  8
LAYER_2
 10
-28.1471
 20
219.0774
 11
-28.1471
 21
220.7025
  0
LINE
  8
LAYER_2
 10
-27.239
 20
219.0026
 11
-27.239
 21
218.8473
  0
LINE
  8
LAYER_2
 10
-26.2737
 20
211.1351
 11
-26.2737
 21
207.6263
  0
LINE
  8
LAYER_2
 10
-26.2737
 20
207.6263
 11
-26.3791
 21
199.7056
  0
LINE
  8
LAYER_2
 10
-26.2737
 20
211.1434
 11
-26.3763
 21
203.8322
  0
LINE
  8
LAYER_2
 10
-25.8985
 20
211.2315
 11
-25.8985
 21
207.7231
  0
LINE
  8
LAYER_2
 10
-25.6487
 20
207.4816
 11
-25.6487
 21
207.023
  0
LINE
  8
LAYER_2
 10
-24.8739
 20
219.3027
 11
-24.8739
 21
220.7025
  0
LINE
  8
LAYER_2
 10
-25.6487
 20
207.023
 11
-25.658
 21
206.3194
  0
LINE
  8
LAYER_2
 10
-24.4595
 20
219.3027
 11
-24.4595
 21
220.7025
  0
LINE
  8
LAYER_2
 10
-24.2097
 20
219.3027
 11
-24.2097
 21
220.7025
  0
LINE
  8
LAYER_2
 10
-24.1594
 20
221.0025
 11
-24.1594
 21
220.7524
  0
LINE
  8
LAYER_2
 10
-24.1594
 20
219.0026
 11
-24.1594
 21
219.2524
  0
LINE
  8
LAYER_2
 10
-22.2595
 20
221.0025
 11
-22.2595
 21
220.7524
  0
LINE
  8
LAYER_2
 10
-22.2595
 20
219.0026
 11
-22.2595
 21
219.2524
  0
LINE
  8
LAYER_2
 10
-22.2095
 20
220.7025
 11
-22.2095
 21
219.3027
  0
LINE
  8
LAYER_2
 10
-21.9597
 20
220.7025
 11
-21.9597
 21
219.3027
  0
LINE
  8
LAYER_2
 10
-21.5453
 20
219.3027
 11
-21.5453
 21
220.7025
  0
LINE
  8
LAYER_2
 10
-20.0429
 20
203.8349
 11
-20.1456
 21
211.1437
  0
LINE
  8
LAYER_2
 10
-20.7705
 20
207.023
 11
-20.7612
 21
206.3057
  0
LINE
  8
LAYER_2
 10
-20.1456
 20
207.6263
 11
-20.0401
 21
199.7084
  0
LINE
  8
LAYER_2
 10
-20.7705
 20
207.4816
 11
-20.7705
 21
207.023
  0
LINE
  8
LAYER_2
 10
-20.5207
 20
207.7231
 11
-20.5207
 21
211.2315
  0
LINE
  8
LAYER_2
 10
-20.1456
 20
207.6263
 11
-20.1456
 21
211.1351
  0
LINE
  8
LAYER_2
 10
-20.1459
 20
211.1437
 11
-20.1462
 21
211.163
  0
LINE
  8
LAYER_2
 10
-20.1462
 20
211.163
 11
-20.148
 21
211.1871
  0
LINE
  8
LAYER_2
 10
-20.148
 20
211.1871
 11
-20.1503
 21
211.2105
  0
LINE
  8
LAYER_2
 10
-20.1503
 20
211.2105
 11
-20.1538
 21
211.2343
  0
LINE
  8
LAYER_2
 10
-20.1538
 20
211.2343
 11
-20.1583
 21
211.2577
  0
LINE
  8
LAYER_2
 10
-20.1583
 20
211.2577
 11
-20.1635
 21
211.2811
  0
LINE
  8
LAYER_2
 10
-20.1635
 20
211.2811
 11
-20.1696
 21
211.3043
  0
LINE
  8
LAYER_2
 10
-20.1696
 20
211.3043
 11
-20.1769
 21
211.327
  0
LINE
  8
LAYER_2
 10
-20.1769
 20
211.327
 11
-20.1848
 21
211.3497
  0
LINE
  8
LAYER_2
 10
-20.1848
 20
211.3497
 11
-20.1938
 21
211.3718
  0
LINE
  8
LAYER_2
 10
-20.1938
 20
211.3718
 11
-20.2034
 21
211.3938
  0
LINE
  8
LAYER_2
 10
-20.2034
 20
211.3938
 11
-20.2141
 21
211.4155
  0
LINE
  8
LAYER_2
 10
-20.2141
 20
211.4155
 11
-20.2255
 21
211.4365
  0
LINE
  8
LAYER_2
 10
-20.2255
 20
211.4365
 11
-20.2379
 21
211.4569
  0
LINE
  8
LAYER_2
 10
-20.2379
 20
211.4569
 11
-20.251
 21
211.4772
  0
LINE
  8
LAYER_2
 10
-20.251
 20
211.4772
 11
-20.2648
 21
211.4968
  0
LINE
  8
LAYER_2
 10
-20.2648
 20
211.4968
 11
-20.2792
 21
211.5158
  0
LINE
  8
LAYER_2
 10
-20.2792
 20
211.5158
 11
-20.2947
 21
211.5344
  0
LINE
  8
LAYER_2
 10
-20.2947
 20
211.5344
 11
-20.3105
 21
211.5523
  0
LINE
  8
LAYER_2
 10
-20.3105
 20
211.5523
 11
-20.3274
 21
211.5695
  0
LINE
  8
LAYER_2
 10
-20.3274
 20
211.5695
 11
-20.345
 21
211.5861
  0
LINE
  8
LAYER_2
 10
-20.345
 20
211.5861
 11
-20.3629
 21
211.6019
  0
LINE
  8
LAYER_2
 10
-20.3629
 20
211.6019
 11
-20.3815
 21
211.6174
  0
LINE
  8
LAYER_2
 10
-20.3815
 20
211.6174
 11
-20.4008
 21
211.6319
  0
LINE
  8
LAYER_2
 10
-20.4008
 20
211.6319
 11
-20.4208
 21
211.6456
  0
LINE
  8
LAYER_2
 10
-20.4208
 20
211.6456
 11
-20.4408
 21
211.6584
  0
LINE
  8
LAYER_2
 10
-20.4408
 20
211.6584
 11
-20.4618
 21
211.6708
  0
LINE
  8
LAYER_2
 10
-20.4618
 20
211.6708
 11
-20.4832
 21
211.6821
  0
LINE
  8
LAYER_2
 10
-20.4832
 20
211.6821
 11
-20.5049
 21
211.6928
  0
LINE
  8
LAYER_2
 10
-20.5049
 20
211.6928
 11
-20.5273
 21
211.7025
  0
LINE
  8
LAYER_2
 10
-20.5273
 20
211.7025
 11
-20.5497
 21
211.7115
  0
LINE
  8
LAYER_2
 10
-20.5497
 20
211.7115
 11
-20.5727
 21
211.7194
  0
LINE
  8
LAYER_2
 10
-20.5727
 20
211.7194
 11
-20.5958
 21
211.7266
  0
LINE
  8
LAYER_2
 10
-20.5958
 20
211.7266
 11
-20.6196
 21
211.7328
  0
LINE
  8
LAYER_2
 10
-20.6196
 20
211.7328
 11
-20.6434
 21
211.7383
  0
LINE
  8
LAYER_2
 10
-20.6434
 20
211.7383
 11
-20.6671
 21
211.7428
  0
LINE
  8
LAYER_2
 10
-20.6671
 20
211.7428
 11
-20.6916
 21
211.7462
  0
LINE
  8
LAYER_2
 10
-20.6916
 20
211.7462
 11
-20.7157
 21
211.7486
  0
LINE
  8
LAYER_2
 10
-20.7157
 20
211.7486
 11
-20.7402
 21
211.7504
  0
LINE
  8
LAYER_2
 10
-20.7402
 20
211.7504
 11
-20.7584
 21
211.7511
  0
LINE
  8
LAYER_2
 10
-19.1802
 20
219.0026
 11
-19.1802
 21
218.8473
  0
LINE
  8
LAYER_2
 10
-18.2721
 20
175.4732
 11
-18.2721
 21
218.7222
  0
LINE
  8
LAYER_2
 10
-18.2721
 20
219.0774
 11
-18.2721
 21
220.7025
  0
LINE
  8
LAYER_2
 10
-17.2096
 20
175.0984
 11
-17.2096
 21
174.3483
  0
LINE
  8
LAYER_2
 10
-25.6487
 20
207.023
 11
-20.7705
 21
207.023
  0
LINE
  8
LAYER_2
 10
-25.6487
 20
207.4816
 11
-20.7705
 21
207.4816
  0
LINE
  8
LAYER_2
 10
-25.6605
 20
211.7511
 11
-25.6784
 21
211.7504
  0
LINE
  8
LAYER_2
 10
-25.6784
 20
211.7504
 11
-25.7028
 21
211.7486
  0
LINE
  8
LAYER_2
 10
-25.7028
 20
211.7486
 11
-25.727
 21
211.7462
  0
LINE
  8
LAYER_2
 10
-25.727
 20
211.7462
 11
-25.7514
 21
211.7428
  0
LINE
  8
LAYER_2
 10
-25.7514
 20
211.7428
 11
-25.7752
 21
211.7383
  0
LINE
  8
LAYER_2
 10
-25.7752
 20
211.7383
 11
-25.7993
 21
211.7332
  0
LINE
  8
LAYER_2
 10
-25.7993
 20
211.7332
 11
-25.8227
 21
211.7266
  0
LINE
  8
LAYER_2
 10
-25.8227
 20
211.7266
 11
-25.8461
 21
211.7197
  0
LINE
  8
LAYER_2
 10
-25.8461
 20
211.7197
 11
-25.8692
 21
211.7115
  0
LINE
  8
LAYER_2
 10
-25.8692
 20
211.7115
 11
-25.8919
 21
211.7025
  0
LINE
  8
LAYER_2
 10
-25.8919
 20
211.7025
 11
-25.914
 21
211.6928
  0
LINE
  8
LAYER_2
 10
-25.914
 20
211.6928
 11
-25.936
 21
211.6821
  0
LINE
  8
LAYER_2
 10
-25.936
 20
211.6821
 11
-25.9574
 21
211.6708
  0
LINE
  8
LAYER_2
 10
-25.9574
 20
211.6708
 11
-25.9784
 21
211.6584
  0
LINE
  8
LAYER_2
 10
-25.9784
 20
211.6584
 11
-25.9988
 21
211.6453
  0
LINE
  8
LAYER_2
 10
-25.9988
 20
211.6453
 11
-26.0187
 21
211.6315
  0
LINE
  8
LAYER_2
 10
-26.0187
 20
211.6315
 11
-26.038
 21
211.6171
  0
LINE
  8
LAYER_2
 10
-26.038
 20
211.6171
 11
-26.0566
 21
211.6015
  0
LINE
  8
LAYER_2
 10
-26.0566
 20
211.6015
 11
-26.0749
 21
211.5857
  0
LINE
  8
LAYER_2
 10
-26.0749
 20
211.5857
 11
-26.0925
 21
211.5688
  0
LINE
  8
LAYER_2
 10
-26.0925
 20
211.5688
 11
-26.109
 21
211.5516
  0
LINE
  8
LAYER_2
 10
-26.109
 20
211.5516
 11
-26.1249
 21
211.5337
  0
LINE
  8
LAYER_2
 10
-26.1249
 20
211.5337
 11
-26.1403
 21
211.5154
  0
LINE
  8
LAYER_2
 10
-26.1403
 20
211.5154
 11
-26.1548
 21
211.4961
  0
LINE
  8
LAYER_2
 10
-26.1548
 20
211.4961
 11
-26.1686
 21
211.4768
  0
LINE
  8
LAYER_2
 10
-26.1686
 20
211.4768
 11
-26.1817
 21
211.4565
  0
LINE
  8
LAYER_2
 10
-26.1817
 20
211.4565
 11
-26.1941
 21
211.4358
  0
LINE
  8
LAYER_2
 10
-26.1941
 20
211.4358
 11
-26.2055
 21
211.4152
  0
LINE
  8
LAYER_2
 10
-26.2055
 20
211.4152
 11
-26.2158
 21
211.3938
  0
LINE
  8
LAYER_2
 10
-26.2158
 20
211.3938
 11
-26.2254
 21
211.3718
  0
LINE
  8
LAYER_2
 10
-26.2254
 20
211.3718
 11
-26.2344
 21
211.3494
  0
LINE
  8
LAYER_2
 10
-26.2344
 20
211.3494
 11
-26.2423
 21
211.327
  0
LINE
  8
LAYER_2
 10
-26.2423
 20
211.327
 11
-26.2496
 21
211.3043
  0
LINE
  8
LAYER_2
 10
-26.2496
 20
211.3043
 11
-26.2558
 21
211.2811
  0
LINE
  8
LAYER_2
 10
-26.2558
 20
211.2811
 11
-26.2609
 21
211.2577
  0
LINE
  8
LAYER_2
 10
-26.2609
 20
211.2577
 11
-26.2654
 21
211.2343
  0
LINE
  8
LAYER_2
 10
-26.2654
 20
211.2343
 11
-26.2689
 21
211.2105
  0
LINE
  8
LAYER_2
 10
-26.2689
 20
211.2105
 11
-26.2713
 21
211.1867
  0
LINE
  8
LAYER_2
 10
-26.2713
 20
211.1867
 11
-26.273
 21
211.163
  0
LINE
  8
LAYER_2
 10
-26.273
 20
211.163
 11
-26.2733
 21
211.1434
  0
LINE
  8
LAYER_2
 10
-20.7584
 20
211.7511
 11
-21.5718
 21
211.7638
  0
LINE
  8
LAYER_2
 10
-21.5718
 20
211.7638
 11
-22.3904
 21
211.7718
  0
LINE
  8
LAYER_2
 10
-22.3904
 20
211.7718
 11
-23.2092
 21
211.7742
  0
LINE
  8
LAYER_2
 10
-23.2092
 20
211.7742
 11
-24.0282
 21
211.7718
  0
LINE
  8
LAYER_2
 10
-24.0282
 20
211.7718
 11
-24.8471
 21
211.7638
  0
LINE
  8
LAYER_2
 10
-24.8471
 20
211.7638
 11
-25.6605
 21
211.7511
  0
LINE
  8
LAYER_2
 10
-28.1471
 20
218.7222
 11
-18.2721
 21
218.7222
  0
LINE
  8
LAYER_2
 10
-28.0221
 20
218.8473
 11
-18.3971
 21
218.8473
  0
LINE
  8
LAYER_2
 10
-28.072
 20
219.0026
 11
-18.3472
 21
219.0026
  0
LINE
  8
LAYER_2
 10
-21.5701
 20
219.0774
 11
-18.2721
 21
219.0774
  0
LINE
  8
LAYER_2
 10
-28.1471
 20
219.0774
 11
-24.8491
 21
219.0774
  0
LINE
  8
LAYER_2
 10
-22.2595
 20
219.2524
 11
-24.1594
 21
219.2524
  0
LINE
  8
LAYER_2
 10
-21.5453
 20
219.3027
 11
-22.2095
 21
219.3027
  0
LINE
  8
LAYER_2
 10
-24.8739
 20
219.3027
 11
-24.2097
 21
219.3027
  0
LINE
  8
LAYER_2
 10
-28.1471
 20
220.7025
 11
-24.2097
 21
220.7025
  0
LINE
  8
LAYER_2
 10
-22.2095
 20
220.7025
 11
-18.2721
 21
220.7025
  0
LINE
  8
LAYER_2
 10
-24.1594
 20
220.7524
 11
-22.2595
 21
220.7524
  0
LINE
  8
LAYER_2
 10
-27.847
 20
221.0025
 11
-18.5722
 21
221.0025
  0
LINE
  8
LAYER_2
 10
-23.6416
 20
270.3093
 11
-22.7417
 21
270.3093
  0
LINE
  8
LAYER_2
 10
-22.3418
 20
270.1093
 11
-24.0416
 21
270.1093
  0
LINE
  8
LAYER_2
 10
-22.3167
 20
270.0342
 11
-22.586
 21
270.0342
  0
LINE
  8
LAYER_2
 10
-23.7973
 20
270.0342
 11
-24.0667
 21
270.0342
  0
LINE
  8
LAYER_2
 10
-18.1112
 20
271.9669
 11
-17.345
 21
271.3242
  0
LINE
  8
LAYER_2
 10
-18.2873
 20
271.9515
 11
-17.3295
 21
271.148
  0
LINE
  8
LAYER_2
 10
-20.3281
 20
269.5193
 11
-19.3704
 21
268.7159
  0
LINE
  8
LAYER_2
 10
-20.3185
 20
269.4137
 11
-19.4762
 21
268.7068
  0
LINE
  8
LAYER_2
 10
-19.6584
 20
268.7617
 11
-20.233
 21
269.2437
  0
LINE
  8
LAYER_2
 10
-24.1419
 20
259.8975
 11
-24.4416
 21
259.8975
  0
LINE
  8
LAYER_2
 10
-22.2415
 20
259.8975
 11
-21.9418
 21
259.8975
  0
LINE
  8
LAYER_2
 10
-20.3281
 20
269.5193
 11
-18.2873
 21
271.9515
  0
LINE
  8
LAYER_2
 10
-20.3144
 20
269.1465
 11
-20.233
 21
269.2437
  0
LINE
  8
LAYER_2
 10
-19.7397
 20
268.6647
 11
-19.6584
 21
268.7617
  0
LINE
  8
LAYER_2
 10
-19.3704
 20
268.7159
 11
-17.3295
 21
271.148
  0
LINE
  8
LAYER_2
 10
-21.6287
 20
260.7682
 11
-21.5274
 21
260.4859
  0
LINE
  8
LAYER_2
 10
-24.7547
 20
260.7682
 11
-24.856
 21
260.4859
  0
LINE
  8
LAYER_2
 10
-27.1873
 20
262.2338
 11
-27.1284
 21
262.1507
  0
LINE
  8
LAYER_2
 10
-27.1284
 20
262.1507
 11
-27.0702
 21
262.0641
  0
LINE
  8
LAYER_2
 10
-27.0702
 20
262.0641
 11
-27.0144
 21
261.9763
  0
LINE
  8
LAYER_2
 10
-27.0144
 20
261.9763
 11
-26.9599
 21
261.8868
  0
LINE
  8
LAYER_2
 10
-26.9599
 20
261.8868
 11
-26.9083
 21
261.7962
  0
LINE
  8
LAYER_2
 10
-26.9083
 20
261.7962
 11
-26.8587
 21
261.7044
  0
LINE
  8
LAYER_2
 10
-26.8587
 20
261.7044
 11
-26.8111
 21
261.6116
  0
LINE
  8
LAYER_2
 10
-26.8111
 20
261.6116
 11
-26.766
 21
261.5174
  0
LINE
  8
LAYER_2
 10
-26.766
 20
261.5174
 11
-26.7229
 21
261.4223
  0
LINE
  8
LAYER_2
 10
-26.7229
 20
261.4223
 11
-26.6826
 21
261.3263
  0
LINE
  8
LAYER_2
 10
-26.6826
 20
261.3263
 11
-26.6444
 21
261.2292
  0
LINE
  8
LAYER_2
 10
-26.6444
 20
261.2292
 11
-26.6082
 21
261.1313
  0
LINE
  8
LAYER_2
 10
-26.6082
 20
261.1313
 11
-26.5748
 21
261.0325
  0
LINE
  8
LAYER_2
 10
-26.5748
 20
261.0325
 11
-26.5438
 21
260.9331
  0
LINE
  8
LAYER_2
 10
-26.5438
 20
260.9331
 11
-26.5148
 21
260.8327
  0
LINE
  8
LAYER_2
 10
-26.5148
 20
260.8327
 11
-26.4886
 21
260.7319
  0
LINE
  8
LAYER_2
 10
-26.4886
 20
260.7319
 11
-26.4645
 21
260.6304
  0
LINE
  8
LAYER_2
 10
-26.4645
 20
260.6304
 11
-26.4432
 21
260.5285
  0
LINE
  8
LAYER_2
 10
-26.4432
 20
260.5285
 11
-26.4242
 21
260.4259
  0
LINE
  8
LAYER_2
 10
-26.4242
 20
260.4259
 11
-26.4077
 21
260.3231
  0
LINE
  8
LAYER_2
 10
-26.4077
 20
260.3231
 11
-26.3936
 21
260.2199
  0
LINE
  8
LAYER_2
 10
-26.3936
 20
260.2199
 11
-26.3819
 21
260.1162
  0
LINE
  8
LAYER_2
 10
-26.3819
 20
260.1162
 11
-26.3732
 21
260.0126
  0
LINE
  8
LAYER_2
 10
-26.3732
 20
260.0126
 11
-26.3667
 21
259.9085
  0
LINE
  8
LAYER_2
 10
-26.3667
 20
259.9085
 11
-26.3626
 21
259.8045
  0
LINE
  8
LAYER_2
 10
-26.3626
 20
259.8045
 11
-26.3612
 21
259.7053
  0
LINE
  8
LAYER_2
 10
-26.2558
 20
230.9787
 11
-26.2551
 21
230.9614
  0
LINE
  8
LAYER_2
 10
-26.2551
 20
230.9614
 11
-26.254
 21
230.9444
  0
LINE
  8
LAYER_2
 10
-26.254
 20
230.9444
 11
-26.252
 21
230.9273
  0
LINE
  8
LAYER_2
 10
-26.252
 20
230.9273
 11
-26.2496
 21
230.9104
  0
LINE
  8
LAYER_2
 10
-26.2496
 20
230.9104
 11
-26.2461
 21
230.8936
  0
LINE
  8
LAYER_2
 10
-26.2461
 20
230.8936
 11
-26.242
 21
230.877
  0
LINE
  8
LAYER_2
 10
-26.242
 20
230.877
 11
-26.2371
 21
230.8607
  0
LINE
  8
LAYER_2
 10
-26.2371
 20
230.8607
 11
-26.2316
 21
230.8445
  0
LINE
  8
LAYER_2
 10
-26.2316
 20
230.8445
 11
-26.2254
 21
230.8286
  0
LINE
  8
LAYER_2
 10
-26.2254
 20
230.8286
 11
-26.2182
 21
230.8128
  0
LINE
  8
LAYER_2
 10
-26.2182
 20
230.8128
 11
-26.2106
 21
230.7975
  0
LINE
  8
LAYER_2
 10
-26.2106
 20
230.7975
 11
-26.2024
 21
230.7823
  0
LINE
  8
LAYER_2
 10
-26.2024
 20
230.7823
 11
-26.193
 21
230.7676
  0
LINE
  8
LAYER_2
 10
-26.193
 20
230.7676
 11
-26.1834
 21
230.753
  0
LINE
  8
LAYER_2
 10
-26.1834
 20
230.753
 11
-26.1731
 21
230.7391
  0
LINE
  8
LAYER_2
 10
-26.1731
 20
230.7391
 11
-26.1621
 21
230.7253
  0
LINE
  8
LAYER_2
 10
-26.1621
 20
230.7253
 11
-26.151
 21
230.7122
  0
LINE
  8
LAYER_2
 10
-26.151
 20
230.7122
 11
-26.139
 21
230.6996
  0
LINE
  8
LAYER_2
 10
-26.139
 20
230.6996
 11
-26.1262
 21
230.6877
  0
LINE
  8
LAYER_2
 10
-26.1262
 20
230.6877
 11
-26.1138
 21
230.6763
  0
LINE
  8
LAYER_2
 10
-26.1138
 20
230.6763
 11
-26.1007
 21
230.6657
  0
LINE
  8
LAYER_2
 10
-26.1007
 20
230.6657
 11
-26.0876
 21
230.6557
  0
LINE
  8
LAYER_2
 10
-26.0876
 20
230.6557
 11
-26.0745
 21
230.6467
  0
LINE
  8
LAYER_2
 10
-26.0745
 20
230.6467
 11
-26.0622
 21
230.6385
  0
LINE
  8
LAYER_2
 10
-26.0622
 20
230.6385
 11
-26.0497
 21
230.631
  0
LINE
  8
LAYER_2
 10
-26.0497
 20
230.631
 11
-26.0377
 21
230.624
  0
LINE
  8
LAYER_2
 10
-26.0377
 20
230.624
 11
-26.0256
 21
230.6178
  0
LINE
  8
LAYER_2
 10
-26.0256
 20
230.6178
 11
-26.0136
 21
230.6114
  0
LINE
  8
LAYER_2
 10
-26.0136
 20
230.6114
 11
-26.0008
 21
230.6057
  0
LINE
  8
LAYER_2
 10
-26.0008
 20
230.6057
 11
-25.9877
 21
230.5999
  0
LINE
  8
LAYER_2
 10
-25.9877
 20
230.5999
 11
-25.974
 21
230.5945
  0
LINE
  8
LAYER_2
 10
-25.974
 20
230.5945
 11
-25.9598
 21
230.5894
  0
LINE
  8
LAYER_2
 10
-25.9598
 20
230.5894
 11
-25.9454
 21
230.5842
  0
LINE
  8
LAYER_2
 10
-25.9454
 20
230.5842
 11
-25.9299
 21
230.5794
  0
LINE
  8
LAYER_2
 10
-25.9299
 20
230.5794
 11
-25.914
 21
230.5747
  0
LINE
  8
LAYER_2
 10
-25.914
 20
230.5747
 11
-25.8982
 21
230.5706
  0
LINE
  8
LAYER_2
 10
-25.8982
 20
230.5706
 11
-25.8813
 21
230.5664
  0
LINE
  8
LAYER_2
 10
-25.8813
 20
230.5664
 11
-25.864
 21
230.5627
  0
LINE
  8
LAYER_2
 10
-25.864
 20
230.5627
 11
-25.8458
 21
230.559
  0
LINE
  8
LAYER_2
 10
-25.8458
 20
230.559
 11
-25.8275
 21
230.5558
  0
LINE
  8
LAYER_2
 10
-25.8275
 20
230.5558
 11
-25.8082
 21
230.5528
  0
LINE
  8
LAYER_2
 10
-25.8082
 20
230.5528
 11
-25.7883
 21
230.5501
  0
LINE
  8
LAYER_2
 10
-25.7883
 20
230.5501
 11
-25.7676
 21
230.5477
  0
LINE
  8
LAYER_2
 10
-25.7676
 20
230.5477
 11
-25.7466
 21
230.5456
  0
LINE
  8
LAYER_2
 10
-25.7466
 20
230.5456
 11
-25.7259
 21
230.5439
  0
LINE
  8
LAYER_2
 10
-25.7259
 20
230.5439
 11
-25.7049
 21
230.5425
  0
LINE
  8
LAYER_2
 10
-25.7049
 20
230.5425
 11
-25.6842
 21
230.5416
  0
LINE
  8
LAYER_2
 10
-25.6842
 20
230.5416
 11
-25.6646
 21
230.5408
  0
LINE
  8
LAYER_2
 10
-25.6646
 20
230.5408
 11
-25.6453
 21
230.5406
  0
LINE
  8
LAYER_2
 10
-25.6453
 20
230.5406
 11
-25.6308
 21
230.5404
  0
LINE
  8
LAYER_2
 10
-26.2558
 20
230.9787
 11
-26.2592
 21
231.919
  0
LINE
  8
LAYER_2
 10
-26.2592
 20
231.919
 11
-26.3612
 21
259.7053
  0
LINE
  8
LAYER_2
 10
-26.2558
 20
231.919
 11
-26.3584
 21
260.0332
  0
LINE
  8
LAYER_2
 10
-26.2558
 20
231.919
 11
-26.2558
 21
230.979
  0
LINE
  8
LAYER_2
 10
-25.8809
 20
231.558
 11
-25.8809
 21
230.618
  0
LINE
  8
LAYER_2
 10
-19.3105
 20
262.0679
 11
-19.2515
 21
262.1551
  0
LINE
  8
LAYER_2
 10
-19.2515
 20
262.1551
 11
-19.1923
 21
262.2389
  0
LINE
  8
LAYER_2
 10
-25.6308
 20
230.5532
 11
-25.6308
 21
230.5404
  0
LINE
  8
LAYER_2
 10
-24.4416
 20
259.8975
 11
-24.4416
 21
246.1347
  0
LINE
  8
LAYER_2
 10
-24.1419
 20
259.8975
 11
-24.1419
 21
245.8847
  0
LINE
  8
LAYER_2
 10
-24.0667
 20
269.9932
 11
-24.0667
 21
270.0342
  0
LINE
  8
LAYER_2
 10
-22.3167
 20
269.9932
 11
-22.3167
 21
270.0342
  0
LINE
  8
LAYER_2
 10
-22.2415
 20
259.8975
 11
-22.2415
 21
245.8847
  0
LINE
  8
LAYER_2
 10
-21.9418
 20
246.1347
 11
-21.9418
 21
259.8975
  0
LINE
  8
LAYER_2
 10
-20.7526
 20
230.5532
 11
-20.7526
 21
230.5404
  0
LINE
  8
LAYER_2
 10
-20.5025
 20
230.618
 11
-20.5025
 21
231.558
  0
LINE
  8
LAYER_2
 10
-20.1276
 20
230.979
 11
-20.1276
 21
231.919
  0
LINE
  8
LAYER_2
 10
-20.0222
 20
259.6949
 11
-20.0208
 21
259.7945
  0
LINE
  8
LAYER_2
 10
-20.0208
 20
259.7945
 11
-20.0167
 21
259.8992
  0
LINE
  8
LAYER_2
 10
-20.0167
 20
259.8992
 11
-20.0102
 21
260.0038
  0
LINE
  8
LAYER_2
 10
-20.0102
 20
260.0038
 11
-20.0008
 21
260.1082
  0
LINE
  8
LAYER_2
 10
-20.0008
 20
260.1082
 11
-19.9895
 21
260.2124
  0
LINE
  8
LAYER_2
 10
-19.9895
 20
260.2124
 11
-19.9753
 21
260.3161
  0
LINE
  8
LAYER_2
 10
-19.9753
 20
260.3161
 11
-19.9588
 21
260.4198
  0
LINE
  8
LAYER_2
 10
-19.9588
 20
260.4198
 11
-19.9399
 21
260.5227
  0
LINE
  8
LAYER_2
 10
-19.9399
 20
260.5227
 11
-19.9182
 21
260.6254
  0
LINE
  8
LAYER_2
 10
-19.9182
 20
260.6254
 11
-19.8941
 21
260.7274
  0
LINE
  8
LAYER_2
 10
-19.8941
 20
260.7274
 11
-19.8679
 21
260.8289
  0
LINE
  8
LAYER_2
 10
-19.8679
 20
260.8289
 11
-19.8389
 21
260.9296
  0
LINE
  8
LAYER_2
 10
-19.8389
 20
260.9296
 11
-19.8079
 21
261.0299
  0
LINE
  8
LAYER_2
 10
-19.8079
 20
261.0299
 11
-19.7741
 21
261.1291
  0
LINE
  8
LAYER_2
 10
-19.7741
 20
261.1291
 11
-19.738
 21
261.2276
  0
LINE
  8
LAYER_2
 10
-19.738
 20
261.2276
 11
-19.6997
 21
261.3253
  0
LINE
  8
LAYER_2
 10
-19.6997
 20
261.3253
 11
-19.6588
 21
261.4219
  0
LINE
  8
LAYER_2
 10
-19.6588
 20
261.4219
 11
-19.6157
 21
261.5179
  0
LINE
  8
LAYER_2
 10
-19.6157
 20
261.5179
 11
-19.5702
 21
261.6123
  0
LINE
  8
LAYER_2
 10
-19.5702
 20
261.6123
 11
-19.5227
 21
261.706
  0
LINE
  8
LAYER_2
 10
-19.5227
 20
261.706
 11
-19.4727
 21
261.7983
  0
LINE
  8
LAYER_2
 10
-19.4727
 20
261.7983
 11
-19.4207
 21
261.8894
  0
LINE
  8
LAYER_2
 10
-19.4207
 20
261.8894
 11
-19.3666
 21
261.9792
  0
LINE
  8
LAYER_2
 10
-19.3666
 20
261.9792
 11
-19.3105
 21
262.0679
  0
LINE
  8
LAYER_2
 10
-20.1276
 20
231.919
 11
-20.025
 21
260.023
  0
LINE
  8
LAYER_2
 10
-20.1276
 20
230.9788
 11
-20.0222
 21
259.6946
  0
LINE
  8
LAYER_2
 10
-24.4416
 20
246.1347
 11
-21.9418
 21
246.1347
  0
LINE
  8
LAYER_2
 10
-24.1915
 20
245.8847
 11
-22.1919
 21
245.8847
  0
LINE
  8
LAYER_2
 10
-20.7526
 20
230.5404
 11
-20.7381
 21
230.5406
  0
LINE
  8
LAYER_2
 10
-20.7381
 20
230.5406
 11
-20.7191
 21
230.5408
  0
LINE
  8
LAYER_2
 10
-20.7191
 20
230.5408
 11
-20.6992
 21
230.5416
  0
LINE
  8
LAYER_2
 10
-20.6992
 20
230.5416
 11
-20.6781
 21
230.5425
  0
LINE
  8
LAYER_2
 10
-20.6781
 20
230.5425
 11
-20.6568
 21
230.5439
  0
LINE
  8
LAYER_2
 10
-20.6568
 20
230.5439
 11
-20.6358
 21
230.5458
  0
LINE
  8
LAYER_2
 10
-20.6358
 20
230.5458
 11
-20.6147
 21
230.5477
  0
LINE
  8
LAYER_2
 10
-20.6147
 20
230.5477
 11
-20.5941
 21
230.5503
  0
LINE
  8
LAYER_2
 10
-20.5941
 20
230.5503
 11
-20.5741
 21
230.553
  0
LINE
  8
LAYER_2
 10
-20.5741
 20
230.553
 11
-20.5548
 21
230.5561
  0
LINE
  8
LAYER_2
 10
-25.6308
 20
230.5532
 11
-20.7526
 21
230.5532
  0
LINE
  8
LAYER_2
 10
-25.6308
 20
230.5404
 11
-20.7526
 21
230.5404
  0
LINE
  8
LAYER_2
 10
-20.5521
 20
230.5566
 11
-20.5362
 21
230.5594
  0
LINE
  8
LAYER_2
 10
-20.5362
 20
230.5594
 11
-20.5183
 21
230.5629
  0
LINE
  8
LAYER_2
 10
-20.5183
 20
230.5629
 11
-20.5011
 21
230.5668
  0
LINE
  8
LAYER_2
 10
-20.5011
 20
230.5668
 11
-20.4845
 21
230.5708
  0
LINE
  8
LAYER_2
 10
-20.4845
 20
230.5708
 11
-20.4683
 21
230.5749
  0
LINE
  8
LAYER_2
 10
-20.4683
 20
230.5749
 11
-20.4529
 21
230.5795
  0
LINE
  8
LAYER_2
 10
-20.4529
 20
230.5795
 11
-20.4377
 21
230.5844
  0
LINE
  8
LAYER_2
 10
-20.4377
 20
230.5844
 11
-20.4232
 21
230.5894
  0
LINE
  8
LAYER_2
 10
-20.4232
 20
230.5894
 11
-20.4091
 21
230.5947
  0
LINE
  8
LAYER_2
 10
-20.4091
 20
230.5947
 11
-20.3957
 21
230.6002
  0
LINE
  8
LAYER_2
 10
-20.3957
 20
230.6002
 11
-20.3822
 21
230.6061
  0
LINE
  8
LAYER_2
 10
-20.3822
 20
230.6061
 11
-20.3691
 21
230.6119
  0
LINE
  8
LAYER_2
 10
-20.3691
 20
230.6119
 11
-20.3564
 21
230.6181
  0
LINE
  8
LAYER_2
 10
-20.3564
 20
230.6181
 11
-20.344
 21
230.625
  0
LINE
  8
LAYER_2
 10
-20.344
 20
230.625
 11
-20.3316
 21
230.6321
  0
LINE
  8
LAYER_2
 10
-20.3316
 20
230.6321
 11
-20.3192
 21
230.6396
  0
LINE
  8
LAYER_2
 10
-20.3192
 20
230.6396
 11
-20.3064
 21
230.6483
  0
LINE
  8
LAYER_2
 10
-20.3064
 20
230.6483
 11
-20.2937
 21
230.6576
  0
LINE
  8
LAYER_2
 10
-20.2937
 20
230.6576
 11
-20.2806
 21
230.6674
  0
LINE
  8
LAYER_2
 10
-20.2806
 20
230.6674
 11
-20.2675
 21
230.6782
  0
LINE
  8
LAYER_2
 10
-20.2675
 20
230.6782
 11
-20.2551
 21
230.6896
  0
LINE
  8
LAYER_2
 10
-20.2551
 20
230.6896
 11
-20.2427
 21
230.7017
  0
LINE
  8
LAYER_2
 10
-20.2427
 20
230.7017
 11
-20.2306
 21
230.7144
  0
LINE
  8
LAYER_2
 10
-20.2306
 20
230.7144
 11
-20.2193
 21
230.7277
  0
LINE
  8
LAYER_2
 10
-20.2193
 20
230.7277
 11
-20.2082
 21
230.7415
  0
LINE
  8
LAYER_2
 10
-20.2082
 20
230.7415
 11
-20.1979
 21
230.7556
  0
LINE
  8
LAYER_2
 10
-20.1979
 20
230.7556
 11
-20.1883
 21
230.7704
  0
LINE
  8
LAYER_2
 10
-20.1883
 20
230.7704
 11
-20.1793
 21
230.7854
  0
LINE
  8
LAYER_2
 10
-20.1793
 20
230.7854
 11
-20.171
 21
230.8007
  0
LINE
  8
LAYER_2
 10
-20.171
 20
230.8007
 11
-20.1635
 21
230.8164
  0
LINE
  8
LAYER_2
 10
-20.1635
 20
230.8164
 11
-20.1566
 21
230.8324
  0
LINE
  8
LAYER_2
 10
-20.1566
 20
230.8324
 11
-20.1503
 21
230.8484
  0
LINE
  8
LAYER_2
 10
-20.1503
 20
230.8484
 11
-20.1448
 21
230.8651
  0
LINE
  8
LAYER_2
 10
-20.1448
 20
230.8651
 11
-20.1404
 21
230.8819
  0
LINE
  8
LAYER_2
 10
-20.1404
 20
230.8819
 11
-20.1366
 21
230.8984
  0
LINE
  8
LAYER_2
 10
-20.1366
 20
230.8984
 11
-20.1331
 21
230.9153
  0
LINE
  8
LAYER_2
 10
-20.1331
 20
230.9153
 11
-20.1307
 21
230.9325
  0
LINE
  8
LAYER_2
 10
-20.1307
 20
230.9325
 11
-20.129
 21
230.9496
  0
LINE
  8
LAYER_2
 10
-20.129
 20
230.9496
 11
-20.128
 21
230.9671
  0
LINE
  8
LAYER_2
 10
-20.128
 20
230.9671
 11
-20.1276
 21
230.9788
  0
LINE
  8
LAYER_2
 10
-24.8739
 20
219.3027
 11
-24.8491
 21
219.0774
  0
ARC
  8
LAYER_2
 10
-27.8471
 20
220.7025
 40
0.3
 50
89.98976436
 51
179.9911402
  0
ARC
  8
LAYER_2
 10
-24.1594
 20
219.3027
 40
0.3001
 50
179.9991266
 51
270.0008734
  0
ARC
  8
LAYER_2
 10
-24.1594
 20
220.7024
 40
0.3001
 50
89.99180636
 51
179.9890982
  0
LINE
  8
LAYER_2
 10
-25.7228
 20
207.4926
 11
-25.6487
 21
207.4816
  0
ARC
  8
LAYER_2
 10
-28.9502
 20
175.0887
 40
0.2596
 50
92.05176492
 51
177.8565251
  0
ARC
  8
LAYER_2
 10
-28.022
 20
175.4732
 40
0.1251
 50
179.9823727
 51
269.971809
  0
ARC
  8
LAYER_2
 10
-28.022
 20
218.7222
 40
0.1251
 50
90.02787029
 51
180.017948
  0
ARC
  8
LAYER_2
 10
-28.0693
 20
219.0805
 40
0.0779
 50
182.2489835
 51
267.9803522
  0
ARC
  8
LAYER_2
 10
-24.1576
 20
219.3045
 40
0.0521
 50
181.9776637
 51
268.0223364
  0
ARC
  8
LAYER_2
 10
-24.1579
 20
220.7006
 40
0.0519
 50
91.69587858
 51
177.8466725
  0
ARC
  8
LAYER_2
 10
-23.2096
 20
83.0708
 40
128.4255
 50
88.90959014
 51
91.09040983
  0
LINE
  8
LAYER_2
 10
-21.5701
 20
219.0774
 11
-21.5453
 21
219.3027
  0
ARC
  8
LAYER_2
 10
-22.271
 20
219.3139
 40
0.3115
 50
272.1100883
 51
357.9472171
  0
ARC
  8
LAYER_2
 10
-18.5721
 20
220.7025
 40
0.3
 50
0.009390173078
 51
90.00970523
  0
ARC
  8
LAYER_2
 10
-22.2711
 20
220.6911
 40
0.3116
 50
2.095937009
 51
87.86585306
  0
LINE
  8
LAYER_2
 10
-20.7705
 20
207.4816
 11
-20.6964
 21
207.4926
  0
ARC
  8
LAYER_2
 10
-17.4689
 20
175.0888
 40
0.2594
 50
2.114490427
 51
87.97721947
  0
ARC
  8
LAYER_2
 10
-18.3972
 20
175.4732
 40
0.1251
 50
270.0294637
 51
0.0163545756
  0
ARC
  8
LAYER_2
 10
-18.3972
 20
218.7222
 40
0.1251
 50
359.9833247
 51
89.97085699
  0
ARC
  8
LAYER_2
 10
-18.3499
 20
219.0804
 40
0.0778
 50
271.9745524
 51
357.7961119
  0
ARC
  8
LAYER_2
 10
-22.2614
 20
220.7005
 40
0.0519
 50
2.183009257
 51
87.93169696
  0
ARC
  8
LAYER_2
 10
-22.2616
 20
219.3045
 40
0.0521
 50
272.2900666
 51
358.0526788
  0
ARC
  8
LAYER_2
 10
-30.6792
 20
259.6943
 40
4.3173
 50
8.379478564
 51
33.48378449
  0
LINE
  8
LAYER_2
 10
-26.3939
 20
260.2206
 11
-26.4046
 21
260.3028
  0
LINE
  8
LAYER_2
 10
-26.3901
 20
260.1894
 11
-26.3939
 21
260.2206
  0
LINE
  8
LAYER_2
 10
-26.4046
 20
260.3028
 11
-26.408
 21
260.3235
  0
LINE
  8
LAYER_2
 10
-26.3826
 20
260.1174
 11
-26.3901
 21
260.1894
  0
LINE
  8
LAYER_2
 10
-26.3736
 20
260.0139
 11
-26.3826
 21
260.1174
  0
LINE
  8
LAYER_2
 10
-26.3701
 20
259.9697
 11
-26.3736
 21
260.0139
  0
LINE
  8
LAYER_2
 10
-26.3626
 20
259.8062
 11
-26.3646
 21
259.8623
  0
LINE
  8
LAYER_2
 10
-26.3646
 20
259.8623
 11
-26.3701
 21
259.9697
  0
LINE
  8
LAYER_2
 10
-26.3612
 20
259.7053
 11
-26.3626
 21
259.8062
  0
LINE
  8
LAYER_2
 10
-27.0784
 20
262.0762
 11
-27.1866
 21
262.2331
  0
ARC
  8
LAYER_2
 10
-29.6889
 20
260.0212
 40
3.3305
 50
0.2072193993
 51
38.20027899
  0
ARC
  8
LAYER_2
 10
-23.6369
 20
269.8
 40
0.5094
 50
90.52560413
 51
142.6044982
  0
LINE
  8
LAYER_2
 10
-24.0416
 20
270.1093
 11
-24.0667
 21
270.0342
  0
ARC
  8
LAYER_2
 10
-23.1914
 20
265.1341
 40
5.9997
 50
302.0684976
 51
32.07203806
  0
ARC
  8
LAYER_2
 10
-23.1957
 20
265.1315
 40
6.0047
 50
32.07172654
 51
44.01136416
  0
ARC
  8
LAYER_2
 10
-23.1915
 20
265.1348
 40
5.9995
 50
55.97925892
 51
145.9837429
  0
ARC
  8
LAYER_2
 10
-23.192
 20
265.134
 40
5.9995
 50
145.9746094
 51
235.9799231
  0
LINE
  8
LAYER_2
 10
-26.5486
 20
260.1614
 11
-26.3763
 21
260.0496
  0
ARC
  8
LAYER_2
 10
-23.1917
 20
265.1343
 40
5.7498
 50
304.1238115
 51
34.12578573
  0
ARC
  8
LAYER_2
 10
-23.184
 20
265.1404
 40
5.7401
 50
34.11810878
 51
43.77034737
  0
ARC
  8
LAYER_2
 10
-23.1918
 20
265.1345
 40
5.7498
 50
56.23842452
 51
146.2427044
  0
ARC
  8
LAYER_2
 10
-23.1917
 20
265.1344
 40
5.7499
 50
146.2421773
 51
235.8914425
  0
ARC
  8
LAYER_2
 10
-23.1915
 20
265.1343
 40
4.9372
 50
289.6972337
 51
19.69909189
  0
ARC
  8
LAYER_2
 10
-23.192
 20
265.1338
 40
4.9378
 50
19.70218138
 51
109.6940633
  0
ARC
  8
LAYER_2
 10
-23.1914
 20
265.1342
 40
4.9376
 50
109.701139
 51
199.6965893
  0
ARC
  8
LAYER_2
 10
-23.1905
 20
265.1356
 40
4.939
 50
199.7087237
 51
250.2931963
  0
ARC
  8
LAYER_2
 10
-25.0666
 20
259.8977
 40
0.9247
 50
359.9873173
 51
70.28856653
  0
ARC
  8
LAYER_2
 10
-25.0666
 20
259.8975
 40
0.625
 50
0.004294373332
 51
70.30846145
  0
LINE
  8
LAYER_2
 10
-26.2558
 20
230.979
 11
-26.2554
 21
230.9628
  0
ARC
  8
LAYER_2
 10
-24.1915
 20
246.1348
 40
0.2501
 50
180.0135479
 51
270.0093658
  0
ARC
  8
LAYER_2
 10
-15.6516
 20
259.6767
 40
4.3708
 50
146.6792178
 51
171.5788551
  0
LINE
  8
LAYER_2
 10
-19.9781
 20
260.2975
 11
-19.9891
 21
260.2132
  0
LINE
  8
LAYER_2
 10
-19.9891
 20
260.2132
 11
-19.9933
 21
260.1826
  0
LINE
  8
LAYER_2
 10
-19.9753
 20
260.3168
 11
-19.9781
 21
260.2975
  0
LINE
  8
LAYER_2
 10
-19.9933
 20
260.1826
 11
-20.0008
 21
260.1094
  0
LINE
  8
LAYER_2
 10
-20.0008
 20
260.1094
 11
-20.0098
 21
260.0053
  0
LINE
  8
LAYER_2
 10
-20.0098
 20
260.0053
 11
-20.0133
 21
259.9607
  0
LINE
  8
LAYER_2
 10
-20.0188
 20
259.8529
 11
-20.0208
 21
259.7964
  0
LINE
  8
LAYER_2
 10
-20.0133
 20
259.9607
 11
-20.0167
 21
259.9009
  0
LINE
  8
LAYER_2
 10
-20.0167
 20
259.9009
 11
-20.0188
 21
259.8529
  0
LINE
  8
LAYER_2
 10
-20.0208
 20
259.7964
 11
-20.0222
 21
259.6949
  0
LINE
  8
LAYER_2
 10
-19.1937
 20
262.2372
 11
-19.3015
 21
262.081
  0
ARC
  8
LAYER_2
 10
-16.6674
 20
260.0116
 40
3.3577
 50
144.4740799
 51
179.8047804
  0
LINE
  8
LAYER_2
 10
-19.3883
 20
261.9792
 11
-19.4
 21
261.9626
  0
LINE
  8
LAYER_2
 10
-19.3105
 20
262.0823
 11
-19.3883
 21
261.9792
  0
ARC
  8
LAYER_2
 10
-21.3168
 20
259.8977
 40
0.9247
 50
109.7114739
 51
180.0126422
  0
LINE
  8
LAYER_2
 10
-20.7526
 20
230.5532
 11
-20.6785
 21
230.5561
  0
ARC
  8
LAYER_2
 10
-21.3168
 20
259.8975
 40
0.625
 50
109.6915985
 51
179.9956457
  0
ARC
  8
LAYER_2
 10
-22.7463
 20
269.8002
 40
0.5091
 50
37.38105684
 51
89.47737934
  0
ARC
  8
LAYER_2
 10
-22.1919
 20
246.1348
 40
0.2501
 50
269.990475
 51
359.9866112
  0
LINE
  8
LAYER_2
 10
-44.7859
 20
266.8495
 11
-45.0953
 21
269.1178
  0
LINE
  8
LAYER_2
 10
-45.0953
 20
269.1178
 11
-45.9614
 21
266.9983
  0
LINE
  8
LAYER_2
 10
-45.9614
 20
266.9983
 11
-44.7859
 21
266.8495
  0
LINE
  8
LAYER_2
  6
AIGENLINE002
 10
-43.1522
 20
268.7645
 11
-23.2148
 21
265.1402
  0
LINE
  8
LAYER_2
  6
AIGENLINE002
 10
-45.5952
 20
269.2085
 11
-43.4654
 21
268.8215
  0
LINE
  8
LAYER_2
  6
AIGENLINE001
 10
-27.9787
 20
264.7781
 11
-42.272
 21
267.3571
  0
LINE
  8
LAYER_2
  6
AIGENLINE001
 10
-41.8248
 20
269.8166
 11
-27.5931
 21
267.2488
  0
LINE
  8
LAYER_2
  6
AIGENLINE001
 10
-42.4729
 20
267.6476
 11
-42.1152
 21
269.6154
  0
ARC
  8
LAYER_2
  6
AIGENLINE001
 10
-42.2281
 20
267.6021
 40
0.2489
 50
169.4796947
 51
259.8531586
  0
ARC
  8
LAYER_2
  6
AIGENLINE001
 10
-41.8617
 20
269.5597
 40
0.2595
 50
81.82236445
 51
167.6089707
  0
LINE
  8
LAYER_2
 10
-22.3167
 20
270.0342
 11
-22.3418
 21
270.1093
  0
ARC
  8
LAYER_2
 10
-17.4327
 20
271.2277
 40
0.1304
 50
322.332999
 51
47.72153422
  0
ARC
  8
LAYER_2
 10
-18.191
 20
271.8644
 40
0.1299
 50
52.11353986
 51
137.8820988
  0
ARC
  8
LAYER_2
 10
-19.6007
 20
268.7096
 40
0.0777
 50
52.15242933
 51
137.9324728
  0
ARC
  8
LAYER_2
 10
-20.2943
 20
269.2918
 40
0.0779
 50
321.9011877
 51
47.82326542
  0
ARC
  8
LAYER_2
 10
-19.4279
 20
268.7647
 40
0.0754
 50
230.1327394
 51
319.6992366
  0
ARC
  8
LAYER_2
 10
-20.2709
 20
269.4714
 40
0.0746
 50
140.051634
 51
230.3568289
  0
LINE
  8
LAYER_2
 10
-20.7402
 20
232.0794
 11
-25.6432
 21
232.0794
  0
LINE
  8
LAYER_2
 10
-20.7477
 20
231.6229
 11
-25.6357
 21
231.6229
  0
LINE
  8
LAYER_2
 10
-17.8263
 20
179.8481
 11
-17.7874
 21
179.8464
  0
LINE
  8
LAYER_2
 10
-17.7874
 20
179.8464
 11
-17.7484
 21
179.8409
  0
LINE
  8
LAYER_2
 10
-17.7484
 20
179.8409
 11
-17.7102
 21
179.8319
  0
LINE
  8
LAYER_2
 10
-17.7102
 20
179.8319
 11
-17.672
 21
179.8188
  0
LINE
  8
LAYER_2
 10
-17.672
 20
179.8188
 11
-17.6348
 21
179.8026
  0
LINE
  8
LAYER_2
 10
-17.6348
 20
179.8026
 11
-17.5982
 21
179.7823
  0
LINE
  8
LAYER_2
 10
-17.5982
 20
179.7823
 11
-17.5631
 21
179.7585
  0
LINE
  8
LAYER_2
 10
-17.5631
 20
179.7585
 11
-17.5297
 21
179.7317
  0
LINE
  8
LAYER_2
 10
-17.5297
 20
179.7317
 11
-17.4976
 21
179.701
  0
LINE
  8
LAYER_2
 10
-17.4976
 20
179.701
 11
-17.468
 21
179.6676
  0
LINE
  8
LAYER_2
 10
-17.468
 20
179.6676
 11
-17.4405
 21
179.6311
  0
LINE
  8
LAYER_2
 10
-17.4405
 20
179.6311
 11
-17.4153
 21
179.5918
  0
LINE
  8
LAYER_2
 10
-17.4153
 20
179.5918
 11
-17.3929
 21
179.5504
  0
LINE
  8
LAYER_2
 10
-17.3929
 20
179.5504
 11
-17.3733
 21
179.5067
  0
LINE
  8
LAYER_2
 10
-17.3733
 20
179.5067
 11
-17.3564
 21
179.4616
  0
LINE
  8
LAYER_2
 10
-17.3564
 20
179.4616
 11
-17.3426
 21
179.4147
  0
LINE
  8
LAYER_2
 10
-17.3426
 20
179.4147
 11
-17.3319
 21
179.3668
  0
LINE
  8
LAYER_2
 10
-17.3319
 20
179.3668
 11
-17.3244
 21
179.3182
  0
LINE
  8
LAYER_2
 10
-17.3244
 20
179.3182
 11
-17.3199
 21
179.269
  0
LINE
  8
LAYER_2
 10
-17.3199
 20
179.269
 11
-17.3185
 21
179.2194
  0
LINE
  8
LAYER_2
 10
-17.3185
 20
179.2194
 11
-17.3202
 21
179.1701
  0
LINE
  8
LAYER_2
 10
-17.3202
 20
179.1701
 11
-17.3251
 21
179.1208
  0
LINE
  8
LAYER_2
 10
-17.3251
 20
179.1208
 11
-17.3333
 21
179.0726
  0
LINE
  8
LAYER_2
 10
-17.3333
 20
179.0726
 11
-17.3443
 21
179.0251
  0
LINE
  8
LAYER_2
 10
-17.3443
 20
179.0251
 11
-17.3585
 21
178.9786
  0
LINE
  8
LAYER_2
 10
-17.3585
 20
178.9786
 11
-17.3753
 21
178.9341
  0
LINE
  8
LAYER_2
 10
-17.3753
 20
178.9341
 11
-17.3953
 21
178.8911
  0
LINE
  8
LAYER_2
 10
-17.3953
 20
178.8911
 11
-17.418
 21
178.8501
  0
LINE
  8
LAYER_2
 10
-17.418
 20
178.8501
 11
-17.4432
 21
178.8115
  0
LINE
  8
LAYER_2
 10
-17.4432
 20
178.8115
 11
-17.4704
 21
178.776
  0
LINE
  8
LAYER_2
 10
-17.4704
 20
178.776
 11
-17.5
 21
178.7429
  0
LINE
  8
LAYER_2
 10
-17.5
 20
178.7429
 11
-17.5318
 21
178.7129
  0
LINE
  8
LAYER_2
 10
-17.5318
 20
178.7129
 11
-17.5648
 21
178.6864
  0
LINE
  8
LAYER_2
 10
-17.5648
 20
178.6864
 11
-17.5999
 21
178.663
  0
LINE
  8
LAYER_2
 10
-17.5999
 20
178.663
 11
-17.6358
 21
178.6433
  0
LINE
  8
LAYER_2
 10
-17.6358
 20
178.6433
 11
-17.6726
 21
178.6272
  0
LINE
  8
LAYER_2
 10
-17.6726
 20
178.6272
 11
-17.7105
 21
178.6144
  0
LINE
  8
LAYER_2
 10
-17.7105
 20
178.6144
 11
-17.7488
 21
178.6055
  0
LINE
  8
LAYER_2
 10
-17.7488
 20
178.6055
 11
-17.7874
 21
178.6
  0
LINE
  8
LAYER_2
 10
-17.7874
 20
178.6
 11
-17.8263
 21
178.5982
  0
LINE
  8
LAYER_2
 10
-25.8985
 20
207.7231
 11
-25.8975
 21
207.6996
  0
LINE
  8
LAYER_2
 10
-25.8975
 20
207.6996
 11
-25.8937
 21
207.6762
  0
LINE
  8
LAYER_2
 10
-25.8937
 20
207.6762
 11
-25.8878
 21
207.6531
  0
LINE
  8
LAYER_2
 10
-25.8878
 20
207.6531
 11
-25.8796
 21
207.6304
  0
LINE
  8
LAYER_2
 10
-25.8796
 20
207.6304
 11
-25.8689
 21
207.6087
  0
LINE
  8
LAYER_2
 10
-25.8689
 20
207.6087
 11
-25.8558
 21
207.588
  0
LINE
  8
LAYER_2
 10
-25.8558
 20
207.588
 11
-25.841
 21
207.5687
  0
LINE
  8
LAYER_2
 10
-25.841
 20
207.5687
 11
-25.8244
 21
207.5512
  0
LINE
  8
LAYER_2
 10
-25.8244
 20
207.5512
 11
-25.8058
 21
207.5353
  0
LINE
  8
LAYER_2
 10
-25.8058
 20
207.5353
 11
-25.7862
 21
207.5212
  0
LINE
  8
LAYER_2
 10
-25.7862
 20
207.5212
 11
-25.7652
 21
207.5095
  0
LINE
  8
LAYER_2
 10
-25.6536
 20
211.4731
 11
-25.677
 21
211.4717
  0
LINE
  8
LAYER_2
 10
-25.677
 20
211.4717
 11
-25.7007
 21
211.4679
  0
LINE
  8
LAYER_2
 10
-25.7007
 20
211.4679
 11
-25.7242
 21
211.462
  0
LINE
  8
LAYER_2
 10
-25.7242
 20
211.462
 11
-25.7469
 21
211.4538
  0
LINE
  8
LAYER_2
 10
-25.7469
 20
211.4538
 11
-25.769
 21
211.4434
  0
LINE
  8
LAYER_2
 10
-25.769
 20
211.4434
 11
-25.79
 21
211.431
  0
LINE
  8
LAYER_2
 10
-25.79
 20
211.431
 11
-25.8093
 21
211.4169
  0
LINE
  8
LAYER_2
 10
-25.8093
 20
211.4169
 11
-25.8272
 21
211.4007
  0
LINE
  8
LAYER_2
 10
-25.8272
 20
211.4007
 11
-25.8434
 21
211.3835
  0
LINE
  8
LAYER_2
 10
-25.8434
 20
211.3835
 11
-25.8575
 21
211.3642
  0
LINE
  8
LAYER_2
 10
-25.8575
 20
211.3642
 11
-25.8699
 21
211.3439
  0
LINE
  8
LAYER_2
 10
-25.8699
 20
211.3439
 11
-25.8802
 21
211.3225
  0
LINE
  8
LAYER_2
 10
-25.8802
 20
211.3225
 11
-25.8885
 21
211.3001
  0
LINE
  8
LAYER_2
 10
-25.8885
 20
211.3001
 11
-25.894
 21
211.2774
  0
LINE
  8
LAYER_2
 10
-25.894
 20
211.2774
 11
-25.8975
 21
211.2546
  0
LINE
  8
LAYER_2
 10
-25.8975
 20
211.2546
 11
-25.8985
 21
211.2315
  0
LINE
  8
LAYER_2
 10
-26.3791
 20
199.7056
 11
-26.3791
 21
199.6888
  0
LINE
  8
LAYER_2
 10
-26.3791
 20
199.6888
 11
-26.3787
 21
199.6726
  0
LINE
  8
LAYER_2
 10
-26.3787
 20
199.6726
 11
-26.3784
 21
199.6578
  0
LINE
  8
LAYER_2
 10
-26.3784
 20
199.6578
 11
-26.3777
 21
199.6436
  0
LINE
  8
LAYER_2
 10
-26.3777
 20
199.6436
 11
-26.3767
 21
199.6302
  0
LINE
  8
LAYER_2
 10
-26.3767
 20
199.6302
 11
-26.376
 21
199.6178
  0
LINE
  8
LAYER_2
 10
-26.376
 20
199.6178
 11
-26.3746
 21
199.6064
  0
LINE
  8
LAYER_2
 10
-26.3746
 20
199.6064
 11
-26.3736
 21
199.5964
  0
LINE
  8
LAYER_2
 10
-26.3736
 20
199.5964
 11
-26.3722
 21
199.5871
  0
LINE
  8
LAYER_2
 10
-26.3722
 20
199.5871
 11
-26.3708
 21
199.5785
  0
LINE
  8
LAYER_2
 10
-26.3708
 20
199.5785
 11
-26.3694
 21
199.5706
  0
LINE
  8
LAYER_2
 10
-26.3694
 20
199.5706
 11
-26.3681
 21
199.5627
  0
LINE
  8
LAYER_2
 10
-26.3681
 20
199.5627
 11
-26.3664
 21
199.5551
  0
LINE
  8
LAYER_2
 10
-26.3664
 20
199.5551
 11
-26.3643
 21
199.5475
  0
LINE
  8
LAYER_2
 10
-26.3643
 20
199.5475
 11
-26.3622
 21
199.5396
  0
LINE
  8
LAYER_2
 10
-26.3622
 20
199.5396
 11
-26.3594
 21
199.5317
  0
LINE
  8
LAYER_2
 10
-26.3594
 20
199.5317
 11
-26.3567
 21
199.5241
  0
LINE
  8
LAYER_2
 10
-26.3567
 20
199.5241
 11
-26.3536
 21
199.5169
  0
LINE
  8
LAYER_2
 10
-26.3536
 20
199.5169
 11
-26.3502
 21
199.5096
  0
LINE
  8
LAYER_2
 10
-26.3502
 20
199.5096
 11
-26.3464
 21
199.5034
  0
LINE
  8
LAYER_2
 10
-26.3464
 20
199.5034
 11
-26.3422
 21
199.4972
  0
LINE
  8
LAYER_2
 10
-26.3422
 20
199.4972
 11
-26.3378
 21
199.4917
  0
LINE
  8
LAYER_2
 10
-26.3378
 20
199.4917
 11
-26.3329
 21
199.4869
  0
LINE
  8
LAYER_2
 10
-26.3329
 20
199.4869
 11
-26.3274
 21
199.4824
  0
LINE
  8
LAYER_2
 10
-26.3274
 20
199.4824
 11
-26.3219
 21
199.4783
  0
LINE
  8
LAYER_2
 10
-26.3219
 20
199.4783
 11
-26.3154
 21
199.4752
  0
LINE
  8
LAYER_2
 10
-26.3154
 20
199.4752
 11
-26.3085
 21
199.4728
  0
LINE
  8
LAYER_2
 10
-26.3085
 20
199.4728
 11
-26.3009
 21
199.4707
  0
LINE
  8
LAYER_2
 10
-26.3009
 20
199.4707
 11
-26.293
 21
199.47
  0
LINE
  8
LAYER_2
 10
-26.293
 20
199.47
 11
-26.2837
 21
199.4697
  0
LINE
  8
LAYER_2
 10
-26.2837
 20
199.4697
 11
-26.2737
 21
199.4707
  0
LINE
  8
LAYER_2
 10
-26.2737
 20
199.4707
 11
-26.2623
 21
199.4728
  0
LINE
  8
LAYER_2
 10
-26.2623
 20
199.4728
 11
-26.2499
 21
199.4759
  0
LINE
  8
LAYER_2
 10
-26.2499
 20
199.4759
 11
-26.2361
 21
199.4803
  0
LINE
  8
LAYER_2
 10
-26.2361
 20
199.4803
 11
-26.2206
 21
199.4869
  0
LINE
  8
LAYER_2
 10
-26.2206
 20
199.4869
 11
-26.2031
 21
199.4948
  0
LINE
  8
LAYER_2
 10
-26.2031
 20
199.4948
 11
-26.1834
 21
199.5048
  0
LINE
  8
LAYER_2
 10
-26.1834
 20
199.5048
 11
-26.161
 21
199.5172
  0
LINE
  8
LAYER_2
 10
-26.161
 20
199.5172
 11
-26.1355
 21
199.5323
  0
LINE
  8
LAYER_2
 10
-26.1355
 20
199.5323
 11
-26.1066
 21
199.5506
  0
LINE
  8
LAYER_2
 10
-26.1066
 20
199.5506
 11
-26.0732
 21
199.5727
  0
LINE
  8
LAYER_2
 10
-26.0732
 20
199.5727
 11
-26.0339
 21
199.5992
  0
LINE
  8
LAYER_2
 10
-26.0339
 20
199.5992
 11
-25.9874
 21
199.6312
  0
LINE
  8
LAYER_2
 10
-25.9874
 20
199.6312
 11
-25.9309
 21
199.6712
  0
LINE
  8
LAYER_2
 10
-25.9309
 20
199.6712
 11
-25.8665
 21
199.717
  0
LINE
  8
LAYER_2
 10
-25.8665
 20
199.717
 11
-25.8041
 21
199.7618
  0
LINE
  8
LAYER_2
 10
-25.8041
 20
199.7618
 11
-25.7448
 21
199.8052
  0
LINE
  8
LAYER_2
 10
-26.2737
 20
207.6263
 11
-26.2716
 21
207.5791
  0
LINE
  8
LAYER_2
 10
-26.2716
 20
207.5791
 11
-26.2658
 21
207.5319
  0
LINE
  8
LAYER_2
 10
-26.2658
 20
207.5319
 11
-26.2564
 21
207.4854
  0
LINE
  8
LAYER_2
 10
-26.2564
 20
207.4854
 11
-26.243
 21
207.4399
  0
LINE
  8
LAYER_2
 10
-26.243
 20
207.4399
 11
-26.2261
 21
207.3954
  0
LINE
  8
LAYER_2
 10
-26.2261
 20
207.3954
 11
-26.2055
 21
207.3527
  0
LINE
  8
LAYER_2
 10
-26.2055
 20
207.3527
 11
-26.1817
 21
207.3114
  0
LINE
  8
LAYER_2
 10
-26.1817
 20
207.3114
 11
-26.1541
 21
207.2718
  0
LINE
  8
LAYER_2
 10
-26.1541
 20
207.2718
 11
-26.1238
 21
207.2345
  0
LINE
  8
LAYER_2
 10
-26.1238
 20
207.2345
 11
-26.0904
 21
207.1998
  0
LINE
  8
LAYER_2
 10
-26.0904
 20
207.1998
 11
-26.0546
 21
207.1677
  0
LINE
  8
LAYER_2
 10
-26.0546
 20
207.1677
 11
-26.016
 21
207.1384
  0
LINE
  8
LAYER_2
 10
-26.016
 20
207.1384
 11
-25.975
 21
207.1122
  0
LINE
  8
LAYER_2
 10
-25.975
 20
207.1122
 11
-25.9323
 21
207.0888
  0
LINE
  8
LAYER_2
 10
-25.9323
 20
207.0888
 11
-25.8878
 21
207.0688
  0
LINE
  8
LAYER_2
 10
-25.8878
 20
207.0688
 11
-25.8417
 21
207.0526
  0
LINE
  8
LAYER_2
 10
-25.8417
 20
207.0526
 11
-25.7945
 21
207.0396
  0
LINE
  8
LAYER_2
 10
-25.7945
 20
207.0396
 11
-25.7466
 21
207.0306
  0
LINE
  8
LAYER_2
 10
-25.7466
 20
207.0306
 11
-25.6977
 21
207.0247
  0
LINE
  8
LAYER_2
 10
-25.6977
 20
207.0247
 11
-25.6487
 21
207.023
  0
LINE
  8
LAYER_2
 10
-27.0895
 20
203.8236
 11
-27.1029
 21
203.1221
  0
LINE
  8
LAYER_2
 10
-27.1029
 20
203.1221
 11
-27.1284
 21
202.3349
  0
LINE
  8
LAYER_2
 10
-27.1284
 20
202.3349
 11
-27.1601
 21
201.4609
  0
LINE
  8
LAYER_2
 10
-27.1601
 20
201.4609
 11
-27.1894
 21
200.5424
  0
LINE
  8
LAYER_2
 10
-27.1894
 20
200.5424
 11
-27.2052
 21
199.7094
  0
LINE
  8
LAYER_2
 10
-20.7705
 20
207.023
 11
-20.7216
 21
207.0247
  0
LINE
  8
LAYER_2
 10
-20.7216
 20
207.0247
 11
-20.6726
 21
207.0306
  0
LINE
  8
LAYER_2
 10
-20.6726
 20
207.0306
 11
-20.6248
 21
207.0396
  0
LINE
  8
LAYER_2
 10
-20.6248
 20
207.0396
 11
-20.5776
 21
207.0526
  0
LINE
  8
LAYER_2
 10
-20.5776
 20
207.0526
 11
-20.5314
 21
207.0688
  0
LINE
  8
LAYER_2
 10
-20.5314
 20
207.0688
 11
-20.4869
 21
207.0888
  0
LINE
  8
LAYER_2
 10
-20.4869
 20
207.0888
 11
-20.4442
 21
207.1122
  0
LINE
  8
LAYER_2
 10
-20.4442
 20
207.1122
 11
-20.4032
 21
207.1384
  0
LINE
  8
LAYER_2
 10
-20.4032
 20
207.1384
 11
-20.3647
 21
207.1677
  0
LINE
  8
LAYER_2
 10
-20.3647
 20
207.1677
 11
-20.3285
 21
207.1998
  0
LINE
  8
LAYER_2
 10
-20.3285
 20
207.1998
 11
-20.2954
 21
207.2345
  0
LINE
  8
LAYER_2
 10
-20.2954
 20
207.2345
 11
-20.2651
 21
207.2718
  0
LINE
  8
LAYER_2
 10
-20.2651
 20
207.2718
 11
-20.2375
 21
207.3114
  0
LINE
  8
LAYER_2
 10
-20.2375
 20
207.3114
 11
-20.2137
 21
207.3527
  0
LINE
  8
LAYER_2
 10
-20.2137
 20
207.3527
 11
-20.1931
 21
207.3954
  0
LINE
  8
LAYER_2
 10
-20.1931
 20
207.3954
 11
-20.1762
 21
207.4399
  0
LINE
  8
LAYER_2
 10
-20.1762
 20
207.4399
 11
-20.1628
 21
207.4854
  0
LINE
  8
LAYER_2
 10
-20.1628
 20
207.4854
 11
-20.1535
 21
207.5319
  0
LINE
  8
LAYER_2
 10
-20.1535
 20
207.5319
 11
-20.1476
 21
207.5791
  0
LINE
  8
LAYER_2
 10
-20.1476
 20
207.5791
 11
-20.1456
 21
207.6263
  0
LINE
  8
LAYER_2
 10
-20.6744
 20
199.8086
 11
-20.6147
 21
199.7649
  0
LINE
  8
LAYER_2
 10
-20.6147
 20
199.7649
 11
-20.5524
 21
199.7198
  0
LINE
  8
LAYER_2
 10
-20.5524
 20
199.7198
 11
-20.4869
 21
199.6732
  0
LINE
  8
LAYER_2
 10
-20.4869
 20
199.6732
 11
-20.4291
 21
199.6326
  0
LINE
  8
LAYER_2
 10
-20.4291
 20
199.6326
 11
-20.3822
 21
199.6002
  0
LINE
  8
LAYER_2
 10
-20.3822
 20
199.6002
 11
-20.3429
 21
199.5737
  0
LINE
  8
LAYER_2
 10
-20.3429
 20
199.5737
 11
-20.3095
 21
199.552
  0
LINE
  8
LAYER_2
 10
-20.3095
 20
199.552
 11
-20.2809
 21
199.5341
  0
LINE
  8
LAYER_2
 10
-20.2809
 20
199.5341
 11
-20.2558
 21
199.5193
  0
LINE
  8
LAYER_2
 10
-20.2558
 20
199.5193
 11
-20.2337
 21
199.5072
  0
LINE
  8
LAYER_2
 10
-20.2337
 20
199.5072
 11
-20.2141
 21
199.4972
  0
LINE
  8
LAYER_2
 10
-20.2141
 20
199.4972
 11
-20.1969
 21
199.4893
  0
LINE
  8
LAYER_2
 10
-20.1969
 20
199.4893
 11
-20.1814
 21
199.4834
  0
LINE
  8
LAYER_2
 10
-20.1814
 20
199.4834
 11
-20.1679
 21
199.4789
  0
LINE
  8
LAYER_2
 10
-20.1679
 20
199.4789
 11
-20.1555
 21
199.4755
  0
LINE
  8
LAYER_2
 10
-20.1555
 20
199.4755
 11
-20.1445
 21
199.4738
  0
LINE
  8
LAYER_2
 10
-20.1445
 20
199.4738
 11
-20.1345
 21
199.4731
  0
LINE
  8
LAYER_2
 10
-20.1345
 20
199.4731
 11
-20.1255
 21
199.4731
  0
LINE
  8
LAYER_2
 10
-20.1255
 20
199.4731
 11
-20.1173
 21
199.4741
  0
LINE
  8
LAYER_2
 10
-20.1173
 20
199.4741
 11
-20.1097
 21
199.4762
  0
LINE
  8
LAYER_2
 10
-20.1097
 20
199.4762
 11
-20.1032
 21
199.4786
  0
LINE
  8
LAYER_2
 10
-20.1032
 20
199.4786
 11
-20.097
 21
199.4817
  0
LINE
  8
LAYER_2
 10
-20.097
 20
199.4817
 11
-20.0911
 21
199.4858
  0
LINE
  8
LAYER_2
 10
-20.0911
 20
199.4858
 11
-20.0859
 21
199.4903
  0
LINE
  8
LAYER_2
 10
-20.0859
 20
199.4903
 11
-20.0811
 21
199.4951
  0
LINE
  8
LAYER_2
 10
-20.0811
 20
199.4951
 11
-20.0767
 21
199.5007
  0
LINE
  8
LAYER_2
 10
-20.0767
 20
199.5007
 11
-20.0725
 21
199.5069
  0
LINE
  8
LAYER_2
 10
-20.0725
 20
199.5069
 11
-20.0691
 21
199.513
  0
LINE
  8
LAYER_2
 10
-20.0691
 20
199.513
 11
-20.0656
 21
199.52
  0
LINE
  8
LAYER_2
 10
-20.0656
 20
199.52
 11
-20.0625
 21
199.5275
  0
LINE
  8
LAYER_2
 10
-20.0625
 20
199.5275
 11
-20.0594
 21
199.5351
  0
LINE
  8
LAYER_2
 10
-20.0594
 20
199.5351
 11
-20.057
 21
199.5427
  0
LINE
  8
LAYER_2
 10
-20.057
 20
199.5427
 11
-20.0549
 21
199.5506
  0
LINE
  8
LAYER_2
 10
-20.0549
 20
199.5506
 11
-20.0529
 21
199.5582
  0
LINE
  8
LAYER_2
 10
-20.0529
 20
199.5582
 11
-20.0511
 21
199.5657
  0
LINE
  8
LAYER_2
 10
-20.0511
 20
199.5657
 11
-20.0498
 21
199.5737
  0
LINE
  8
LAYER_2
 10
-20.0498
 20
199.5737
 11
-20.0484
 21
199.5816
  0
LINE
  8
LAYER_2
 10
-20.0484
 20
199.5816
 11
-20.047
 21
199.5902
  0
LINE
  8
LAYER_2
 10
-20.047
 20
199.5902
 11
-20.0456
 21
199.5992
  0
LINE
  8
LAYER_2
 10
-20.0456
 20
199.5992
 11
-20.0446
 21
199.6095
  0
LINE
  8
LAYER_2
 10
-20.0446
 20
199.6095
 11
-20.0432
 21
199.6209
  0
LINE
  8
LAYER_2
 10
-20.0432
 20
199.6209
 11
-20.0425
 21
199.6333
  0
LINE
  8
LAYER_2
 10
-20.0425
 20
199.6333
 11
-20.0415
 21
199.6464
  0
LINE
  8
LAYER_2
 10
-20.0415
 20
199.6464
 11
-20.0408
 21
199.6605
  0
LINE
  8
LAYER_2
 10
-20.0408
 20
199.6605
 11
-20.0405
 21
199.6757
  0
LINE
  8
LAYER_2
 10
-20.0405
 20
199.6757
 11
-20.0401
 21
199.6915
  0
LINE
  8
LAYER_2
 10
-20.0401
 20
199.6915
 11
-20.0401
 21
199.7084
  0
LINE
  8
LAYER_2
 10
-25.8985
 20
211.2315
 11
-25.9312
 21
211.2315
  0
LINE
  8
LAYER_2
 10
-25.9312
 20
211.2315
 11
-25.9636
 21
211.2302
  0
LINE
  8
LAYER_2
 10
-25.9636
 20
211.2302
 11
-25.9953
 21
211.2284
  0
LINE
  8
LAYER_2
 10
-25.9953
 20
211.2284
 11
-26.0267
 21
211.226
  0
LINE
  8
LAYER_2
 10
-26.0267
 20
211.226
 11
-26.0566
 21
211.2226
  0
LINE
  8
LAYER_2
 10
-26.0566
 20
211.2226
 11
-26.0859
 21
211.2188
  0
LINE
  8
LAYER_2
 10
-26.0859
 20
211.2188
 11
-26.1131
 21
211.2143
  0
LINE
  8
LAYER_2
 10
-26.1131
 20
211.2143
 11
-26.1393
 21
211.2091
  0
LINE
  8
LAYER_2
 10
-26.1393
 20
211.2091
 11
-26.1634
 21
211.2036
  0
LINE
  8
LAYER_2
 10
-26.1634
 20
211.2036
 11
-26.1855
 21
211.1971
  0
LINE
  8
LAYER_2
 10
-26.1855
 20
211.1971
 11
-26.2055
 21
211.1906
  0
LINE
  8
LAYER_2
 10
-26.2055
 20
211.1906
 11
-26.223
 21
211.1833
  0
LINE
  8
LAYER_2
 10
-26.223
 20
211.1833
 11
-26.2382
 21
211.1761
  0
LINE
  8
LAYER_2
 10
-26.2382
 20
211.1761
 11
-26.2506
 21
211.1682
  0
LINE
  8
LAYER_2
 10
-26.2506
 20
211.1682
 11
-26.2606
 21
211.1602
  0
LINE
  8
LAYER_2
 10
-26.2606
 20
211.1602
 11
-26.2678
 21
211.152
  0
LINE
  8
LAYER_2
 10
-26.2678
 20
211.152
 11
-26.2702
 21
211.1478
  0
LINE
  8
LAYER_2
 10
-20.5207
 20
207.7231
 11
-20.488
 21
207.7227
  0
LINE
  8
LAYER_2
 10
-20.488
 20
207.7227
 11
-20.4556
 21
207.7217
  0
LINE
  8
LAYER_2
 10
-20.4556
 20
207.7217
 11
-20.4239
 21
207.7196
  0
LINE
  8
LAYER_2
 10
-20.4239
 20
207.7196
 11
-20.3926
 21
207.7172
  0
LINE
  8
LAYER_2
 10
-20.3926
 20
207.7172
 11
-20.3626
 21
207.7141
  0
LINE
  8
LAYER_2
 10
-20.3626
 20
207.7141
 11
-20.3333
 21
207.71
  0
LINE
  8
LAYER_2
 10
-20.3333
 20
207.71
 11
-20.3061
 21
207.7055
  0
LINE
  8
LAYER_2
 10
-20.3061
 20
207.7055
 11
-20.2799
 21
207.7003
  0
LINE
  8
LAYER_2
 10
-20.2799
 20
207.7003
 11
-20.2558
 21
207.6948
  0
LINE
  8
LAYER_2
 10
-20.2558
 20
207.6948
 11
-20.2337
 21
207.6886
  0
LINE
  8
LAYER_2
 10
-20.2337
 20
207.6886
 11
-20.2137
 21
207.6817
  0
LINE
  8
LAYER_2
 10
-20.2137
 20
207.6817
 11
-20.1962
 21
207.6748
  0
LINE
  8
LAYER_2
 10
-20.1962
 20
207.6748
 11
-20.181
 21
207.6673
  0
LINE
  8
LAYER_2
 10
-20.181
 20
207.6673
 11
-20.1686
 21
207.6593
  0
LINE
  8
LAYER_2
 10
-20.1686
 20
207.6593
 11
-20.1586
 21
207.6514
  0
LINE
  8
LAYER_2
 10
-20.1586
 20
207.6514
 11
-20.1514
 21
207.6431
  0
LINE
  8
LAYER_2
 10
-20.1514
 20
207.6431
 11
-20.1473
 21
207.6349
  0
LINE
  8
LAYER_2
 10
-20.1473
 20
207.6349
 11
-20.1456
 21
207.6263
  0
LINE
  8
LAYER_2
 10
-24.8491
 20
219.0774
 11
-24.8012
 21
219.076
  0
LINE
  8
LAYER_2
 10
-24.8012
 20
219.076
 11
-24.7537
 21
219.074
  0
LINE
  8
LAYER_2
 10
-24.7537
 20
219.074
 11
-24.7075
 21
219.0719
  0
LINE
  8
LAYER_2
 10
-24.7075
 20
219.0719
 11
-24.6621
 21
219.0691
  0
LINE
  8
LAYER_2
 10
-24.6621
 20
219.0691
 11
-24.6176
 21
219.0664
  0
LINE
  8
LAYER_2
 10
-24.6176
 20
219.0664
 11
-24.5735
 21
219.0626
  0
LINE
  8
LAYER_2
 10
-24.5735
 20
219.0626
 11
-24.5301
 21
219.0584
  0
LINE
  8
LAYER_2
 10
-24.5301
 20
219.0584
 11
-24.4902
 21
219.0533
  0
LINE
  8
LAYER_2
 10
-24.4902
 20
219.0533
 11
-24.4554
 21
219.0481
  0
LINE
  8
LAYER_2
 10
-24.4554
 20
219.0481
 11
-24.4247
 21
219.043
  0
LINE
  8
LAYER_2
 10
-24.4247
 20
219.043
 11
-24.3965
 21
219.0378
  0
LINE
  8
LAYER_2
 10
-24.3965
 20
219.0378
 11
-24.3689
 21
219.0319
  0
LINE
  8
LAYER_2
 10
-24.3689
 20
219.0319
 11
-24.3424
 21
219.0264
  0
LINE
  8
LAYER_2
 10
-24.3424
 20
219.0264
 11
-24.3182
 21
219.0213
  0
LINE
  8
LAYER_2
 10
-24.3182
 20
219.0213
 11
-24.2972
 21
219.0171
  0
LINE
  8
LAYER_2
 10
-24.2972
 20
219.0171
 11
-24.2783
 21
219.0133
  0
LINE
  8
LAYER_2
 10
-24.2783
 20
219.0133
 11
-24.2614
 21
219.0106
  0
LINE
  8
LAYER_2
 10
-24.2614
 20
219.0106
 11
-24.2459
 21
219.0085
  0
LINE
  8
LAYER_2
 10
-24.2459
 20
219.0085
 11
-24.2318
 21
219.0068
  0
LINE
  8
LAYER_2
 10
-24.2318
 20
219.0068
 11
-24.2187
 21
219.0054
  0
LINE
  8
LAYER_2
 10
-24.2187
 20
219.0054
 11
-24.207
 21
219.0044
  0
LINE
  8
LAYER_2
 10
-24.207
 20
219.0044
 11
-24.1959
 21
219.0037
  0
LINE
  8
LAYER_2
 10
-24.1959
 20
219.0037
 11
-24.1856
 21
219.003
  0
LINE
  8
LAYER_2
 10
-24.1856
 20
219.003
 11
-24.1763
 21
219.0026
  0
LINE
  8
LAYER_2
 10
-24.1763
 20
219.0026
 11
-24.1674
 21
219.0026
  0
LINE
  8
LAYER_2
 10
-24.1674
 20
219.0026
 11
-24.1598
 21
219.0026
  0
LINE
  8
LAYER_2
 10
-20.6964
 20
207.4926
 11
-20.57
 21
207.4926
  0
LINE
  8
LAYER_2
 10
-22.257
 20
219.0026
 11
-22.2092
 21
219.0044
  0
LINE
  8
LAYER_2
 10
-22.2092
 20
219.0044
 11
-22.1657
 21
219.0096
  0
LINE
  8
LAYER_2
 10
-22.1657
 20
219.0096
 11
-22.1278
 21
219.0157
  0
LINE
  8
LAYER_2
 10
-22.1278
 20
219.0157
 11
-22.0948
 21
219.0226
  0
LINE
  8
LAYER_2
 10
-22.0948
 20
219.0226
 11
-22.0652
 21
219.0288
  0
LINE
  8
LAYER_2
 10
-22.0652
 20
219.0288
 11
-22.0379
 21
219.0347
  0
LINE
  8
LAYER_2
 10
-22.0379
 20
219.0347
 11
-22.0117
 21
219.0399
  0
LINE
  8
LAYER_2
 10
-22.0117
 20
219.0399
 11
-21.9845
 21
219.0447
  0
LINE
  8
LAYER_2
 10
-21.9845
 20
219.0447
 11
-21.9556
 21
219.0495
  0
LINE
  8
LAYER_2
 10
-21.9556
 20
219.0495
 11
-21.9232
 21
219.0543
  0
LINE
  8
LAYER_2
 10
-21.9232
 20
219.0543
 11
-21.8863
 21
219.0584
  0
LINE
  8
LAYER_2
 10
-21.8863
 20
219.0584
 11
-21.8447
 21
219.0629
  0
LINE
  8
LAYER_2
 10
-21.8447
 20
219.0629
 11
-21.8009
 21
219.0664
  0
LINE
  8
LAYER_2
 10
-21.8009
 20
219.0664
 11
-21.7565
 21
219.0695
  0
LINE
  8
LAYER_2
 10
-21.7565
 20
219.0695
 11
-21.7113
 21
219.0719
  0
LINE
  8
LAYER_2
 10
-21.7113
 20
219.0719
 11
-21.6648
 21
219.074
  0
LINE
  8
LAYER_2
 10
-21.6648
 20
219.074
 11
-21.618
 21
219.076
  0
LINE
  8
LAYER_2
 10
-21.618
 20
219.076
 11
-21.5701
 21
219.0774
  0
LINE
  8
LAYER_2
 10
-20.57
 20
207.4926
 11
-20.57
 21
207.5791
  0
LINE
  8
LAYER_2
 10
-21.6466
 20
221.0025
 11
-21.6373
 21
221.0012
  0
LINE
  8
LAYER_2
 10
-21.6373
 20
221.0012
 11
-21.628
 21
220.9974
  0
LINE
  8
LAYER_2
 10
-21.628
 20
220.9974
 11
-21.6187
 21
220.9911
  0
LINE
  8
LAYER_2
 10
-21.6187
 20
220.9911
 11
-21.61
 21
220.9822
  0
LINE
  8
LAYER_2
 10
-21.61
 20
220.9822
 11
-21.6014
 21
220.9712
  0
LINE
  8
LAYER_2
 10
-21.6014
 20
220.9712
 11
-21.5932
 21
220.9574
  0
LINE
  8
LAYER_2
 10
-21.5932
 20
220.9574
 11
-21.5856
 21
220.9419
  0
LINE
  8
LAYER_2
 10
-21.5856
 20
220.9419
 11
-21.5784
 21
220.9243
  0
LINE
  8
LAYER_2
 10
-21.5784
 20
220.9243
 11
-21.5718
 21
220.9047
  0
LINE
  8
LAYER_2
 10
-21.5718
 20
220.9047
 11
-21.5656
 21
220.8833
  0
LINE
  8
LAYER_2
 10
-21.5656
 20
220.8833
 11
-21.5604
 21
220.8606
  0
LINE
  8
LAYER_2
 10
-21.5604
 20
220.8606
 11
-21.556
 21
220.8361
  0
LINE
  8
LAYER_2
 10
-21.556
 20
220.8361
 11
-21.5522
 21
220.811
  0
LINE
  8
LAYER_2
 10
-21.5522
 20
220.811
 11
-21.5491
 21
220.7844
  0
LINE
  8
LAYER_2
 10
-21.5491
 20
220.7844
 11
-21.547
 21
220.7576
  0
LINE
  8
LAYER_2
 10
-21.547
 20
220.7576
 11
-21.5456
 21
220.7304
  0
LINE
  8
LAYER_2
 10
-21.5456
 20
220.7304
 11
-21.5453
 21
220.7025
  0
LINE
  8
LAYER_2
 10
-24.7727
 20
221.0025
 11
-24.7819
 21
221.0012
  0
LINE
  8
LAYER_2
 10
-24.7819
 20
221.0012
 11
-24.7912
 21
220.9974
  0
LINE
  8
LAYER_2
 10
-24.7912
 20
220.9974
 11
-24.8006
 21
220.9911
  0
LINE
  8
LAYER_2
 10
-24.8006
 20
220.9911
 11
-24.8092
 21
220.9822
  0
LINE
  8
LAYER_2
 10
-24.8092
 20
220.9822
 11
-24.8178
 21
220.9712
  0
LINE
  8
LAYER_2
 10
-24.8178
 20
220.9712
 11
-24.826
 21
220.9574
  0
LINE
  8
LAYER_2
 10
-24.826
 20
220.9574
 11
-24.8336
 21
220.9419
  0
LINE
  8
LAYER_2
 10
-24.8336
 20
220.9419
 11
-24.8408
 21
220.9243
  0
LINE
  8
LAYER_2
 10
-24.8408
 20
220.9243
 11
-24.8474
 21
220.9047
  0
LINE
  8
LAYER_2
 10
-24.8474
 20
220.9047
 11
-24.8536
 21
220.8833
  0
LINE
  8
LAYER_2
 10
-24.8536
 20
220.8833
 11
-24.8588
 21
220.8606
  0
LINE
  8
LAYER_2
 10
-24.8588
 20
220.8606
 11
-24.8632
 21
220.8361
  0
LINE
  8
LAYER_2
 10
-24.8632
 20
220.8361
 11
-24.8671
 21
220.811
  0
LINE
  8
LAYER_2
 10
-24.8671
 20
220.811
 11
-24.8701
 21
220.7844
  0
LINE
  8
LAYER_2
 10
-24.8701
 20
220.7844
 11
-24.8722
 21
220.7576
  0
LINE
  8
LAYER_2
 10
-24.8722
 20
220.7576
 11
-24.8732
 21
220.7304
  0
LINE
  8
LAYER_2
 10
-24.8732
 20
220.7304
 11
-24.8739
 21
220.7025
  0
LINE
  8
LAYER_2
 10
-25.7652
 20
207.5095
 11
-25.7652
 21
207.4926
  0
LINE
  8
LAYER_2
 10
-25.7652
 20
207.4926
 11
-25.7228
 21
207.4926
  0
LINE
  8
LAYER_2
 10
-25.8985
 20
207.7231
 11
-25.9312
 21
207.7227
  0
LINE
  8
LAYER_2
 10
-25.9312
 20
207.7227
 11
-25.9636
 21
207.7217
  0
LINE
  8
LAYER_2
 10
-25.9636
 20
207.7217
 11
-25.9953
 21
207.7196
  0
LINE
  8
LAYER_2
 10
-25.9953
 20
207.7196
 11
-26.0267
 21
207.7172
  0
LINE
  8
LAYER_2
 10
-26.0267
 20
207.7172
 11
-26.0566
 21
207.7141
  0
LINE
  8
LAYER_2
 10
-26.0566
 20
207.7141
 11
-26.0859
 21
207.71
  0
LINE
  8
LAYER_2
 10
-26.0859
 20
207.71
 11
-26.1131
 21
207.7055
  0
LINE
  8
LAYER_2
 10
-26.1131
 20
207.7055
 11
-26.1393
 21
207.7003
  0
LINE
  8
LAYER_2
 10
-26.1393
 20
207.7003
 11
-26.1634
 21
207.6948
  0
LINE
  8
LAYER_2
 10
-26.1634
 20
207.6948
 11
-26.1855
 21
207.6886
  0
LINE
  8
LAYER_2
 10
-26.1855
 20
207.6886
 11
-26.2055
 21
207.6817
  0
LINE
  8
LAYER_2
 10
-26.2055
 20
207.6817
 11
-26.223
 21
207.6748
  0
LINE
  8
LAYER_2
 10
-26.223
 20
207.6748
 11
-26.2382
 21
207.6673
  0
LINE
  8
LAYER_2
 10
-26.2382
 20
207.6673
 11
-26.2506
 21
207.6593
  0
LINE
  8
LAYER_2
 10
-26.2506
 20
207.6593
 11
-26.2606
 21
207.6514
  0
LINE
  8
LAYER_2
 10
-26.2606
 20
207.6514
 11
-26.2678
 21
207.6431
  0
LINE
  8
LAYER_2
 10
-26.2678
 20
207.6431
 11
-26.272
 21
207.6349
  0
LINE
  8
LAYER_2
 10
-26.272
 20
207.6349
 11
-26.2737
 21
207.6263
  0
LINE
  8
LAYER_2
 10
-19.2109
 20
199.7125
 11
-19.3294
 21
199.7056
  0
LINE
  8
LAYER_2
 10
-19.3294
 20
199.7056
 11
-19.4396
 21
199.6998
  0
LINE
  8
LAYER_2
 10
-19.4396
 20
199.6998
 11
-19.5409
 21
199.6953
  0
LINE
  8
LAYER_2
 10
-19.5409
 20
199.6953
 11
-19.634
 21
199.6915
  0
LINE
  8
LAYER_2
 10
-19.634
 20
199.6915
 11
-19.7173
 21
199.6891
  0
LINE
  8
LAYER_2
 10
-19.7173
 20
199.6891
 11
-19.7917
 21
199.6877
  0
LINE
  8
LAYER_2
 10
-19.7917
 20
199.6877
 11
-19.8565
 21
199.6874
  0
LINE
  8
LAYER_2
 10
-19.8565
 20
199.6874
 11
-19.9116
 21
199.6881
  0
LINE
  8
LAYER_2
 10
-19.9116
 20
199.6881
 11
-19.9575
 21
199.6901
  0
LINE
  8
LAYER_2
 10
-19.9575
 20
199.6901
 11
-19.9929
 21
199.6929
  0
LINE
  8
LAYER_2
 10
-19.9929
 20
199.6929
 11
-20.0188
 21
199.697
  0
LINE
  8
LAYER_2
 10
-20.0188
 20
199.697
 11
-20.0346
 21
199.7022
  0
LINE
  8
LAYER_2
 10
-20.0346
 20
199.7022
 11
-20.0401
 21
199.7084
  0
LINE
  8
LAYER_2
 10
-21.9291
 20
195.1447
 11
-21.9198
 21
195.3714
  0
LINE
  8
LAYER_2
 10
-21.9198
 20
195.3714
 11
-21.9074
 21
195.597
  0
LINE
  8
LAYER_2
 10
-21.9074
 20
195.597
 11
-21.8915
 21
195.822
  0
LINE
  8
LAYER_2
 10
-21.8915
 20
195.822
 11
-21.8726
 21
196.0452
  0
LINE
  8
LAYER_2
 10
-21.8726
 20
196.0452
 11
-21.8509
 21
196.2664
  0
LINE
  8
LAYER_2
 10
-21.8509
 20
196.2664
 11
-21.8257
 21
196.4855
  0
LINE
  8
LAYER_2
 10
-21.8257
 20
196.4855
 11
-21.7978
 21
196.7012
  0
LINE
  8
LAYER_2
 10
-21.7978
 20
196.7012
 11
-21.7668
 21
196.9137
  0
LINE
  8
LAYER_2
 10
-21.7668
 20
196.9137
 11
-21.7327
 21
197.1222
  0
LINE
  8
LAYER_2
 10
-21.7327
 20
197.1222
 11
-21.6962
 21
197.3265
  0
LINE
  8
LAYER_2
 10
-21.6962
 20
197.3265
 11
-21.6569
 21
197.5259
  0
LINE
  8
LAYER_2
 10
-21.6569
 20
197.5259
 11
-21.6145
 21
197.7199
  0
LINE
  8
LAYER_2
 10
-21.6145
 20
197.7199
 11
-21.5701
 21
197.9083
  0
LINE
  8
LAYER_2
 10
-21.5701
 20
197.9083
 11
-21.5232
 21
198.0906
  0
LINE
  8
LAYER_2
 10
-21.5232
 20
198.0906
 11
-21.474
 21
198.2663
  0
LINE
  8
LAYER_2
 10
-21.474
 20
198.2663
 11
-21.4223
 21
198.4354
  0
LINE
  8
LAYER_2
 10
-21.4223
 20
198.4354
 11
-21.3686
 21
198.597
  0
LINE
  8
LAYER_2
 10
-21.3686
 20
198.597
 11
-21.3128
 21
198.7513
  0
LINE
  8
LAYER_2
 10
-21.3128
 20
198.7513
 11
-21.2552
 21
198.8974
  0
LINE
  8
LAYER_2
 10
-21.2552
 20
198.8974
 11
-21.1959
 21
199.0352
  0
LINE
  8
LAYER_2
 10
-21.1959
 20
199.0352
 11
-21.135
 21
199.1647
  0
LINE
  8
LAYER_2
 10
-21.135
 20
199.1647
 11
-21.0726
 21
199.285
  0
LINE
  8
LAYER_2
 10
-21.0726
 20
199.285
 11
-21.0089
 21
199.3963
  0
LINE
  8
LAYER_2
 10
-21.0089
 20
199.3963
 11
-20.9438
 21
199.4986
  0
LINE
  8
LAYER_2
 10
-20.9438
 20
199.4986
 11
-20.8776
 21
199.5909
  0
LINE
  8
LAYER_2
 10
-20.8776
 20
199.5909
 11
-20.8108
 21
199.6732
  0
LINE
  8
LAYER_2
 10
-20.8108
 20
199.6732
 11
-20.7429
 21
199.7463
  0
LINE
  8
LAYER_2
 10
-20.7429
 20
199.7463
 11
-20.6744
 21
199.8086
  0
LINE
  8
LAYER_2
 10
-24.4922
 20
195.1574
 11
-24.5019
 21
195.3831
  0
LINE
  8
LAYER_2
 10
-24.5019
 20
195.3831
 11
-24.5146
 21
195.608
  0
LINE
  8
LAYER_2
 10
-24.5146
 20
195.608
 11
-24.5305
 21
195.8323
  0
LINE
  8
LAYER_2
 10
-24.5305
 20
195.8323
 11
-24.5494
 21
196.0545
  0
LINE
  8
LAYER_2
 10
-24.5494
 20
196.0545
 11
-24.5715
 21
196.2754
  0
LINE
  8
LAYER_2
 10
-24.5715
 20
196.2754
 11
-24.5966
 21
196.4934
  0
LINE
  8
LAYER_2
 10
-24.5966
 20
196.4934
 11
-24.6248
 21
196.7084
  0
LINE
  8
LAYER_2
 10
-24.6248
 20
196.7084
 11
-24.6559
 21
196.9199
  0
LINE
  8
LAYER_2
 10
-24.6559
 20
196.9199
 11
-24.69
 21
197.128
  0
LINE
  8
LAYER_2
 10
-24.69
 20
197.128
 11
-24.7265
 21
197.3313
  0
LINE
  8
LAYER_2
 10
-24.7265
 20
197.3313
 11
-24.7657
 21
197.53
  0
LINE
  8
LAYER_2
 10
-24.7657
 20
197.53
 11
-24.8078
 21
197.7233
  0
LINE
  8
LAYER_2
 10
-24.8078
 20
197.7233
 11
-24.8522
 21
197.9111
  0
LINE
  8
LAYER_2
 10
-24.8522
 20
197.9111
 11
-24.8991
 21
198.093
  0
LINE
  8
LAYER_2
 10
-24.8991
 20
198.093
 11
-24.9487
 21
198.268
  0
LINE
  8
LAYER_2
 10
-24.9487
 20
198.268
 11
-25
 21
198.4365
  0
LINE
  8
LAYER_2
 10
-25
 20
198.4365
 11
-25.0534
 21
198.5977
  0
LINE
  8
LAYER_2
 10
-25.0534
 20
198.5977
 11
-25.1092
 21
198.7513
  0
LINE
  8
LAYER_2
 10
-25.1092
 20
198.7513
 11
-25.1664
 21
198.8971
  0
LINE
  8
LAYER_2
 10
-25.1664
 20
198.8971
 11
-25.2257
 21
199.0342
  0
LINE
  8
LAYER_2
 10
-25.2257
 20
199.0342
 11
-25.2863
 21
199.1634
  0
LINE
  8
LAYER_2
 10
-25.2863
 20
199.1634
 11
-25.3487
 21
199.2833
  0
LINE
  8
LAYER_2
 10
-25.3487
 20
199.2833
 11
-25.4121
 21
199.3942
  0
LINE
  8
LAYER_2
 10
-25.4121
 20
199.3942
 11
-25.4768
 21
199.4958
  0
LINE
  8
LAYER_2
 10
-25.4768
 20
199.4958
 11
-25.5426
 21
199.5882
  0
LINE
  8
LAYER_2
 10
-25.5426
 20
199.5882
 11
-25.6091
 21
199.6705
  0
LINE
  8
LAYER_2
 10
-25.6091
 20
199.6705
 11
-25.6766
 21
199.7428
  0
LINE
  8
LAYER_2
 10
-25.6766
 20
199.7428
 11
-25.7448
 21
199.8052
  0
LINE
  8
LAYER_2
 10
-24.8491
 20
219.0774
 11
-24.8491
 21
219.0678
  0
LINE
  8
LAYER_2
 10
-24.8491
 20
219.0678
 11
-24.8484
 21
219.0581
  0
LINE
  8
LAYER_2
 10
-24.8484
 20
219.0581
 11
-24.8474
 21
219.0488
  0
LINE
  8
LAYER_2
 10
-24.8474
 20
219.0488
 11
-24.846
 21
219.0399
  0
LINE
  8
LAYER_2
 10
-24.846
 20
219.0399
 11
-24.844
 21
219.0319
  0
LINE
  8
LAYER_2
 10
-24.844
 20
219.0319
 11
-24.8419
 21
219.0243
  0
LINE
  8
LAYER_2
 10
-24.8419
 20
219.0243
 11
-24.8395
 21
219.0182
  0
LINE
  8
LAYER_2
 10
-24.8395
 20
219.0182
 11
-24.8367
 21
219.0126
  0
LINE
  8
LAYER_2
 10
-24.8367
 20
219.0126
 11
-24.8336
 21
219.0081
  0
LINE
  8
LAYER_2
 10
-24.8336
 20
219.0081
 11
-24.8309
 21
219.0051
  0
LINE
  8
LAYER_2
 10
-24.8309
 20
219.0051
 11
-24.8274
 21
219.0033
  0
LINE
  8
LAYER_2
 10
-24.8274
 20
219.0033
 11
-24.8243
 21
219.0026
  0
LINE
  8
LAYER_2
 10
-21.5701
 20
219.0774
 11
-21.5701
 21
219.0678
  0
LINE
  8
LAYER_2
 10
-21.5701
 20
219.0678
 11
-21.5708
 21
219.0581
  0
LINE
  8
LAYER_2
 10
-21.5708
 20
219.0581
 11
-21.5718
 21
219.0488
  0
LINE
  8
LAYER_2
 10
-21.5718
 20
219.0488
 11
-21.5732
 21
219.0399
  0
LINE
  8
LAYER_2
 10
-21.5732
 20
219.0399
 11
-21.5753
 21
219.0319
  0
LINE
  8
LAYER_2
 10
-21.5753
 20
219.0319
 11
-21.5773
 21
219.0243
  0
LINE
  8
LAYER_2
 10
-21.5773
 20
219.0243
 11
-21.5797
 21
219.0182
  0
LINE
  8
LAYER_2
 10
-21.5797
 20
219.0182
 11
-21.5825
 21
219.0126
  0
LINE
  8
LAYER_2
 10
-21.5825
 20
219.0126
 11
-21.5852
 21
219.0081
  0
LINE
  8
LAYER_2
 10
-21.5852
 20
219.0081
 11
-21.5883
 21
219.0051
  0
LINE
  8
LAYER_2
 10
-21.5883
 20
219.0051
 11
-21.5918
 21
219.0033
  0
LINE
  8
LAYER_2
 10
-21.5918
 20
219.0033
 11
-21.5949
 21
219.0026
  0
LINE
  8
LAYER_2
 10
-27.2052
 20
199.7094
 11
-27.0871
 21
199.7029
  0
LINE
  8
LAYER_2
 10
-27.0871
 20
199.7029
 11
-26.9772
 21
199.697
  0
LINE
  8
LAYER_2
 10
-26.9772
 20
199.697
 11
-26.8762
 21
199.6925
  0
LINE
  8
LAYER_2
 10
-26.8762
 20
199.6925
 11
-26.7839
 21
199.6891
  0
LINE
  8
LAYER_2
 10
-26.7839
 20
199.6891
 11
-26.7005
 21
199.6863
  0
LINE
  8
LAYER_2
 10
-26.7005
 20
199.6863
 11
-26.6265
 21
199.685
  0
LINE
  8
LAYER_2
 10
-26.6265
 20
199.685
 11
-26.562
 21
199.6846
  0
LINE
  8
LAYER_2
 10
-26.562
 20
199.6846
 11
-26.5069
 21
199.6857
  0
LINE
  8
LAYER_2
 10
-26.5069
 20
199.6857
 11
-26.4618
 21
199.6874
  0
LINE
  8
LAYER_2
 10
-26.4618
 20
199.6874
 11
-26.4259
 21
199.6905
  0
LINE
  8
LAYER_2
 10
-26.4259
 20
199.6905
 11
-26.4004
 21
199.6943
  0
LINE
  8
LAYER_2
 10
-26.4004
 20
199.6943
 11
-26.3846
 21
199.6994
  0
LINE
  8
LAYER_2
 10
-26.3846
 20
199.6994
 11
-26.3791
 21
199.7056
  0
LINE
  8
LAYER_2
 10
-27.0895
 20
203.8236
 11
-26.9879
 21
203.8194
  0
LINE
  8
LAYER_2
 10
-26.9879
 20
203.8194
 11
-26.8934
 21
203.8156
  0
LINE
  8
LAYER_2
 10
-26.8934
 20
203.8156
 11
-26.8063
 21
203.8125
  0
LINE
  8
LAYER_2
 10
-26.8063
 20
203.8125
 11
-26.7264
 21
203.8101
  0
LINE
  8
LAYER_2
 10
-26.7264
 20
203.8101
 11
-26.6544
 21
203.8084
  0
LINE
  8
LAYER_2
 10
-26.6544
 20
203.8084
 11
-26.5906
 21
203.8074
  0
LINE
  8
LAYER_2
 10
-26.5906
 20
203.8074
 11
-26.5348
 21
203.8074
  0
LINE
  8
LAYER_2
 10
-26.5348
 20
203.8074
 11
-26.4869
 21
203.8077
  0
LINE
  8
LAYER_2
 10
-26.4869
 20
203.8077
 11
-26.448
 21
203.8091
  0
LINE
  8
LAYER_2
 10
-26.448
 20
203.8091
 11
-26.417
 21
203.8108
  0
LINE
  8
LAYER_2
 10
-26.417
 20
203.8108
 11
-26.3949
 21
203.8136
  0
LINE
  8
LAYER_2
 10
-26.3949
 20
203.8136
 11
-26.3812
 21
203.8167
  0
LINE
  8
LAYER_2
 10
-26.3812
 20
203.8167
 11
-26.3763
 21
203.8208
  0
LINE
  8
LAYER_2
 10
-27.2052
 20
199.7094
 11
-27.2056
 21
199.5713
  0
LINE
  8
LAYER_2
 10
-27.2056
 20
199.5713
 11
-27.2042
 21
199.4386
  0
LINE
  8
LAYER_2
 10
-27.2042
 20
199.4386
 11
-27.2008
 21
199.3101
  0
LINE
  8
LAYER_2
 10
-27.2008
 20
199.3101
 11
-27.1959
 21
199.184
  0
LINE
  8
LAYER_2
 10
-27.1959
 20
199.184
 11
-27.1894
 21
199.059
  0
LINE
  8
LAYER_2
 10
-27.1894
 20
199.059
 11
-27.1808
 21
198.9336
  0
LINE
  8
LAYER_2
 10
-27.1808
 20
198.9336
 11
-27.1701
 21
198.8065
  0
LINE
  8
LAYER_2
 10
-27.1701
 20
198.8065
 11
-27.1573
 21
198.6759
  0
LINE
  8
LAYER_2
 10
-27.1573
 20
198.6759
 11
-27.1415
 21
198.5402
  0
LINE
  8
LAYER_2
 10
-27.1415
 20
198.5402
 11
-27.1219
 21
198.3961
  0
LINE
  8
LAYER_2
 10
-27.1219
 20
198.3961
 11
-27.0977
 21
198.2411
  0
LINE
  8
LAYER_2
 10
-27.0977
 20
198.2411
 11
-27.0674
 21
198.0706
  0
LINE
  8
LAYER_2
 10
-27.0674
 20
198.0706
 11
-27.0275
 21
197.8787
  0
LINE
  8
LAYER_2
 10
-27.0275
 20
197.8787
 11
-26.9761
 21
197.6654
  0
LINE
  8
LAYER_2
 10
-26.9761
 20
197.6654
 11
-26.9145
 21
197.446
  0
LINE
  8
LAYER_2
 10
-26.9145
 20
197.446
 11
-26.8449
 21
197.2314
  0
LINE
  8
LAYER_2
 10
-26.8449
 20
197.2314
 11
-26.7677
 21
197.0236
  0
LINE
  8
LAYER_2
 10
-26.7677
 20
197.0236
 11
-26.6833
 21
196.8245
  0
LINE
  8
LAYER_2
 10
-26.6833
 20
196.8245
 11
-26.5924
 21
196.6347
  0
LINE
  8
LAYER_2
 10
-26.5924
 20
196.6347
 11
-26.4959
 21
196.4562
  0
LINE
  8
LAYER_2
 10
-26.4959
 20
196.4562
 11
-26.3946
 21
196.2902
  0
LINE
  8
LAYER_2
 10
-26.3946
 20
196.2902
 11
-26.2895
 21
196.1369
  0
LINE
  8
LAYER_2
 10
-26.2895
 20
196.1369
 11
-26.182
 21
195.9963
  0
LINE
  8
LAYER_2
 10
-26.182
 20
195.9963
 11
-26.0728
 21
195.8692
  0
LINE
  8
LAYER_2
 10
-26.0728
 20
195.8692
 11
-25.9626
 21
195.7548
  0
LINE
  8
LAYER_2
 10
-25.9626
 20
195.7548
 11
-25.8523
 21
195.6525
  0
LINE
  8
LAYER_2
 10
-25.8523
 20
195.6525
 11
-25.7418
 21
195.5619
  0
LINE
  8
LAYER_2
 10
-25.7418
 20
195.5619
 11
-25.6318
 21
195.482
  0
LINE
  8
LAYER_2
 10
-25.6318
 20
195.482
 11
-25.523
 21
195.4127
  0
LINE
  8
LAYER_2
 10
-25.523
 20
195.4127
 11
-25.4152
 21
195.3528
  0
LINE
  8
LAYER_2
 10
-25.4152
 20
195.3528
 11
-25.3087
 21
195.3021
  0
LINE
  8
LAYER_2
 10
-25.3087
 20
195.3021
 11
-25.2033
 21
195.2594
  0
LINE
  8
LAYER_2
 10
-25.2033
 20
195.2594
 11
-25.0993
 21
195.2246
  0
LINE
  8
LAYER_2
 10
-25.0993
 20
195.2246
 11
-24.9959
 21
195.1971
  0
LINE
  8
LAYER_2
 10
-24.9959
 20
195.1971
 11
-24.8939
 21
195.1764
  0
LINE
  8
LAYER_2
 10
-24.8939
 20
195.1764
 11
-24.7923
 21
195.1622
  0
LINE
  8
LAYER_2
 10
-24.7923
 20
195.1622
 11
-24.6917
 21
195.1547
  0
LINE
  8
LAYER_2
 10
-24.6917
 20
195.1547
 11
-24.5918
 21
195.153
  0
LINE
  8
LAYER_2
 10
-24.5918
 20
195.153
 11
-24.4922
 21
195.1574
  0
LINE
  8
LAYER_2
 10
-24.4922
 20
195.1574
 11
-24.3027
 21
195.1684
  0
LINE
  8
LAYER_2
 10
-24.3027
 20
195.1684
 11
-24.1012
 21
195.1747
  0
LINE
  8
LAYER_2
 10
-24.1012
 20
195.1747
 11
-23.888
 21
195.1767
  0
LINE
  8
LAYER_2
 10
-23.888
 20
195.1767
 11
-23.665
 21
195.1757
  0
LINE
  8
LAYER_2
 10
-23.665
 20
195.1757
 11
-23.437
 21
195.1729
  0
LINE
  8
LAYER_2
 10
-23.437
 20
195.1729
 11
-23.2096
 21
195.1708
  0
LINE
  8
LAYER_2
 10
-17.8263
 20
179.8481
 11
-17.7887
 21
179.8464
  0
LINE
  8
LAYER_2
 10
-17.7887
 20
179.8464
 11
-17.7515
 21
179.8405
  0
LINE
  8
LAYER_2
 10
-17.7515
 20
179.8405
 11
-17.7147
 21
179.8309
  0
LINE
  8
LAYER_2
 10
-17.7147
 20
179.8309
 11
-17.6785
 21
179.8178
  0
LINE
  8
LAYER_2
 10
-17.6785
 20
179.8178
 11
-17.643
 21
179.8006
  0
LINE
  8
LAYER_2
 10
-17.643
 20
179.8006
 11
-17.6089
 21
179.7799
  0
LINE
  8
LAYER_2
 10
-17.6089
 20
179.7799
 11
-17.5762
 21
179.7561
  0
LINE
  8
LAYER_2
 10
-17.5762
 20
179.7561
 11
-17.5448
 21
179.7289
  0
LINE
  8
LAYER_2
 10
-17.5448
 20
179.7289
 11
-17.5156
 21
179.6983
  0
LINE
  8
LAYER_2
 10
-17.5156
 20
179.6983
 11
-17.488
 21
179.6652
  0
LINE
  8
LAYER_2
 10
-17.488
 20
179.6652
 11
-17.4621
 21
179.629
  0
LINE
  8
LAYER_2
 10
-17.4621
 20
179.629
 11
-17.4391
 21
179.5904
  0
LINE
  8
LAYER_2
 10
-17.4391
 20
179.5904
 11
-17.418
 21
179.5498
  0
LINE
  8
LAYER_2
 10
-17.418
 20
179.5498
 11
-17.3998
 21
179.5071
  0
LINE
  8
LAYER_2
 10
-17.3998
 20
179.5071
 11
-17.3839
 21
179.4622
  0
LINE
  8
LAYER_2
 10
-17.3839
 20
179.4622
 11
-17.3712
 21
179.4164
  0
LINE
  8
LAYER_2
 10
-17.3712
 20
179.4164
 11
-17.3609
 21
179.3692
  0
LINE
  8
LAYER_2
 10
-17.3609
 20
179.3692
 11
-17.3536
 21
179.321
  0
LINE
  8
LAYER_2
 10
-17.3536
 20
179.321
 11
-17.3492
 21
179.2721
  0
LINE
  8
LAYER_2
 10
-17.3492
 20
179.2721
 11
-17.3474
 21
179.2232
  0
LINE
  8
LAYER_2
 10
-17.3474
 20
179.2232
 11
-17.3492
 21
179.1742
  0
LINE
  8
LAYER_2
 10
-17.3492
 20
179.1742
 11
-17.3536
 21
179.1253
  0
LINE
  8
LAYER_2
 10
-17.3536
 20
179.1253
 11
-17.3609
 21
179.0774
  0
LINE
  8
LAYER_2
 10
-17.3609
 20
179.0774
 11
-17.3712
 21
179.0302
  0
LINE
  8
LAYER_2
 10
-17.3712
 20
179.0302
 11
-17.3839
 21
178.9841
  0
LINE
  8
LAYER_2
 10
-17.3839
 20
178.9841
 11
-17.3998
 21
178.9396
  0
LINE
  8
LAYER_2
 10
-17.3998
 20
178.9396
 11
-17.418
 21
178.8966
  0
LINE
  8
LAYER_2
 10
-17.418
 20
178.8966
 11
-17.4391
 21
178.8559
  0
LINE
  8
LAYER_2
 10
-17.4391
 20
178.8559
 11
-17.4621
 21
178.8173
  0
LINE
  8
LAYER_2
 10
-17.4621
 20
178.8173
 11
-17.488
 21
178.7812
  0
LINE
  8
LAYER_2
 10
-17.488
 20
178.7812
 11
-17.5156
 21
178.7481
  0
LINE
  8
LAYER_2
 10
-17.5156
 20
178.7481
 11
-17.5448
 21
178.7174
  0
LINE
  8
LAYER_2
 10
-17.5448
 20
178.7174
 11
-17.5762
 21
178.6902
  0
LINE
  8
LAYER_2
 10
-17.5762
 20
178.6902
 11
-17.6089
 21
178.6665
  0
LINE
  8
LAYER_2
 10
-17.6089
 20
178.6665
 11
-17.643
 21
178.6458
  0
LINE
  8
LAYER_2
 10
-17.643
 20
178.6458
 11
-17.6785
 21
178.6289
  0
LINE
  8
LAYER_2
 10
-17.6785
 20
178.6289
 11
-17.7147
 21
178.6154
  0
LINE
  8
LAYER_2
 10
-17.7147
 20
178.6154
 11
-17.7515
 21
178.6058
  0
LINE
  8
LAYER_2
 10
-17.7515
 20
178.6058
 11
-17.7887
 21
178.6003
  0
LINE
  8
LAYER_2
 10
-17.7887
 20
178.6003
 11
-17.8263
 21
178.5982
  0
LINE
  8
LAYER_2
 10
-23.2096
 20
195.1708
 11
-22.986
 21
195.1702
  0
LINE
  8
LAYER_2
 10
-22.986
 20
195.1702
 11
-22.7628
 21
195.1698
  0
LINE
  8
LAYER_2
 10
-22.7628
 20
195.1698
 11
-22.543
 21
195.1681
  0
LINE
  8
LAYER_2
 10
-22.543
 20
195.1681
 11
-22.3294
 21
195.164
  0
LINE
  8
LAYER_2
 10
-22.3294
 20
195.164
 11
-22.1247
 21
195.1564
  0
LINE
  8
LAYER_2
 10
-22.1247
 20
195.1564
 11
-21.9291
 21
195.1447
  0
LINE
  8
LAYER_2
 10
-21.9291
 20
195.1447
 11
-21.8295
 21
195.1405
  0
LINE
  8
LAYER_2
 10
-21.8295
 20
195.1405
 11
-21.7292
 21
195.1423
  0
LINE
  8
LAYER_2
 10
-21.7292
 20
195.1423
 11
-21.6283
 21
195.1502
  0
LINE
  8
LAYER_2
 10
-21.6283
 20
195.1502
 11
-21.5267
 21
195.1643
  0
LINE
  8
LAYER_2
 10
-21.5267
 20
195.1643
 11
-21.4244
 21
195.1853
  0
LINE
  8
LAYER_2
 10
-21.4244
 20
195.1853
 11
-21.321
 21
195.2129
  0
LINE
  8
LAYER_2
 10
-21.321
 20
195.2129
 11
-21.2163
 21
195.248
  0
LINE
  8
LAYER_2
 10
-21.2163
 20
195.248
 11
-21.1109
 21
195.2908
  0
LINE
  8
LAYER_2
 10
-21.1109
 20
195.2908
 11
-21.0041
 21
195.3414
  0
LINE
  8
LAYER_2
 10
-21.0041
 20
195.3414
 11
-20.8959
 21
195.4013
  0
LINE
  8
LAYER_2
 10
-20.8959
 20
195.4013
 11
-20.787
 21
195.4706
  0
LINE
  8
LAYER_2
 10
-20.787
 20
195.4706
 11
-20.6771
 21
195.5502
  0
LINE
  8
LAYER_2
 10
-20.6771
 20
195.5502
 11
-20.5669
 21
195.6408
  0
LINE
  8
LAYER_2
 10
-20.5669
 20
195.6408
 11
-20.4566
 21
195.7427
  0
LINE
  8
LAYER_2
 10
-20.4566
 20
195.7427
 11
-20.3464
 21
195.8568
  0
LINE
  8
LAYER_2
 10
-20.3464
 20
195.8568
 11
-20.2375
 21
195.9832
  0
LINE
  8
LAYER_2
 10
-20.2375
 20
195.9832
 11
-20.13
 21
196.1227
  0
LINE
  8
LAYER_2
 10
-20.13
 20
196.1227
 11
-20.0256
 21
196.2754
  0
LINE
  8
LAYER_2
 10
-20.0256
 20
196.2754
 11
-19.9247
 21
196.4404
  0
LINE
  8
LAYER_2
 10
-19.9247
 20
196.4404
 11
-19.8283
 21
196.6178
  0
LINE
  8
LAYER_2
 10
-19.8283
 20
196.6178
 11
-19.7373
 21
196.8063
  0
LINE
  8
LAYER_2
 10
-19.7373
 20
196.8063
 11
-19.6529
 21
197.0047
  0
LINE
  8
LAYER_2
 10
-19.6529
 20
197.0047
 11
-19.5757
 21
197.2117
  0
LINE
  8
LAYER_2
 10
-19.5757
 20
197.2117
 11
-19.5058
 21
197.4257
  0
LINE
  8
LAYER_2
 10
-19.5058
 20
197.4257
 11
-19.4438
 21
197.6448
  0
LINE
  8
LAYER_2
 10
-19.4438
 20
197.6448
 11
-19.3914
 21
197.8598
  0
LINE
  8
LAYER_2
 10
-19.3914
 20
197.8598
 11
-19.3511
 21
198.0544
  0
LINE
  8
LAYER_2
 10
-19.3511
 20
198.0544
 11
-19.3197
 21
198.227
  0
LINE
  8
LAYER_2
 10
-19.3197
 20
198.227
 11
-19.2953
 21
198.3841
  0
LINE
  8
LAYER_2
 10
-19.2953
 20
198.3841
 11
-19.2756
 21
198.5298
  0
LINE
  8
LAYER_2
 10
-19.2756
 20
198.5298
 11
-19.2595
 21
198.6676
  0
LINE
  8
LAYER_2
 10
-19.2595
 20
198.6676
 11
-19.2464
 21
198.7996
  0
LINE
  8
LAYER_2
 10
-19.2464
 20
198.7996
 11
-19.2357
 21
198.9281
  0
LINE
  8
LAYER_2
 10
-19.2357
 20
198.9281
 11
-19.2271
 21
199.0545
  0
LINE
  8
LAYER_2
 10
-19.2271
 20
199.0545
 11
-19.2202
 21
199.1806
  0
LINE
  8
LAYER_2
 10
-19.2202
 20
199.1806
 11
-19.215
 21
199.3081
  0
LINE
  8
LAYER_2
 10
-19.215
 20
199.3081
 11
-19.2119
 21
199.4379
  0
LINE
  8
LAYER_2
 10
-19.2119
 20
199.4379
 11
-19.2102
 21
199.5723
  0
LINE
  8
LAYER_2
 10
-19.2102
 20
199.5723
 11
-19.2109
 21
199.7125
  0
LINE
  8
LAYER_2
 10
-23.2096
 20
199.9185
 11
-22.9209
 21
199.9172
  0
LINE
  8
LAYER_2
 10
-22.9209
 20
199.9172
 11
-22.6243
 21
199.9127
  0
LINE
  8
LAYER_2
 10
-22.6243
 20
199.9127
 11
-22.3201
 21
199.9048
  0
LINE
  8
LAYER_2
 10
-22.3201
 20
199.9048
 11
-22.0083
 21
199.8934
  0
LINE
  8
LAYER_2
 10
-22.0083
 20
199.8934
 11
-21.6886
 21
199.8782
  0
LINE
  8
LAYER_2
 10
-21.6886
 20
199.8782
 11
-21.36
 21
199.8593
  0
LINE
  8
LAYER_2
 10
-21.36
 20
199.8593
 11
-21.022
 21
199.8362
  0
LINE
  8
LAYER_2
 10
-21.022
 20
199.8362
 11
-20.6744
 21
199.8086
  0
LINE
  8
LAYER_2
 10
-25.7448
 20
199.8052
 11
-25.3835
 21
199.8338
  0
LINE
  8
LAYER_2
 10
-25.3835
 20
199.8338
 11
-25.0372
 21
199.8576
  0
LINE
  8
LAYER_2
 10
-25.0372
 20
199.8576
 11
-24.7048
 21
199.8769
  0
LINE
  8
LAYER_2
 10
-24.7048
 20
199.8769
 11
-24.3854
 21
199.8924
  0
LINE
  8
LAYER_2
 10
-24.3854
 20
199.8924
 11
-24.0767
 21
199.9037
  0
LINE
  8
LAYER_2
 10
-24.0767
 20
199.9037
 11
-23.778
 21
199.912
  0
LINE
  8
LAYER_2
 10
-23.778
 20
199.912
 11
-23.489
 21
199.9168
  0
LINE
  8
LAYER_2
 10
-23.489
 20
199.9168
 11
-23.2096
 21
199.9185
  0
LINE
  8
LAYER_2
 10
-19.2109
 20
199.7125
 11
-19.2264
 21
200.5404
  0
LINE
  8
LAYER_2
 10
-19.2264
 20
200.5404
 11
-19.2553
 21
201.4564
  0
LINE
  8
LAYER_2
 10
-19.2553
 20
201.4564
 11
-19.2874
 21
202.3411
  0
LINE
  8
LAYER_2
 10
-19.2874
 20
202.3411
 11
-19.3125
 21
203.1276
  0
LINE
  8
LAYER_2
 10
-19.3125
 20
203.1276
 11
-19.3259
 21
203.8263
  0
LINE
  8
LAYER_2
 10
-19.3259
 20
203.8263
 11
-19.3294
 21
203.981
  0
LINE
  8
LAYER_2
 10
-19.3294
 20
203.981
 11
-19.3366
 21
204.1495
  0
LINE
  8
LAYER_2
 10
-19.3366
 20
204.1495
 11
-19.3497
 21
204.3369
  0
LINE
  8
LAYER_2
 10
-19.3497
 20
204.3369
 11
-19.3697
 21
204.5487
  0
LINE
  8
LAYER_2
 10
-19.3697
 20
204.5487
 11
-19.399
 21
204.7803
  0
LINE
  8
LAYER_2
 10
-19.399
 20
204.7803
 11
-19.4372
 21
205.0221
  0
LINE
  8
LAYER_2
 10
-19.4372
 20
205.0221
 11
-19.4848
 21
205.2684
  0
LINE
  8
LAYER_2
 10
-19.4848
 20
205.2684
 11
-19.5419
 21
205.5186
  0
LINE
  8
LAYER_2
 10
-19.5419
 20
205.5186
 11
-19.6088
 21
205.7693
  0
LINE
  8
LAYER_2
 10
-19.6088
 20
205.7693
 11
-19.6853
 21
206.0167
  0
LINE
  8
LAYER_2
 10
-19.6853
 20
206.0167
 11
-19.7707
 21
206.2572
  0
LINE
  8
LAYER_2
 10
-19.7707
 20
206.2572
 11
-19.863
 21
206.487
  0
LINE
  8
LAYER_2
 10
-19.863
 20
206.487
 11
-19.9616
 21
206.7023
  0
LINE
  8
LAYER_2
 10
-19.9616
 20
206.7023
 11
-20.0639
 21
206.9011
  0
LINE
  8
LAYER_2
 10
-20.0639
 20
206.9011
 11
-20.0863
 21
206.9417
  0
LINE
  8
LAYER_2
 10
-26.3763
 20
203.8208
 11
-26.3767
 21
203.6596
  0
LINE
  8
LAYER_2
 10
-26.3767
 20
203.6596
 11
-26.3767
 21
203.4966
  0
LINE
  8
LAYER_2
 10
-26.3767
 20
203.4966
 11
-26.3767
 21
203.334
  0
LINE
  8
LAYER_2
 10
-26.3767
 20
203.334
 11
-26.3767
 21
203.1735
  0
LINE
  8
LAYER_2
 10
-26.3767
 20
203.1735
 11
-26.377
 21
203.0136
  0
LINE
  8
LAYER_2
 10
-26.377
 20
203.0136
 11
-26.377
 21
202.8472
  0
LINE
  8
LAYER_2
 10
-26.377
 20
202.8472
 11
-26.377
 21
202.6653
  0
LINE
  8
LAYER_2
 10
-26.377
 20
202.6653
 11
-26.3774
 21
202.46
  0
LINE
  8
LAYER_2
 10
-26.3774
 20
202.46
 11
-26.3774
 21
202.2275
  0
LINE
  8
LAYER_2
 10
-26.3774
 20
202.2275
 11
-26.3777
 21
201.9749
  0
LINE
  8
LAYER_2
 10
-26.3777
 20
201.9749
 11
-26.3777
 21
201.71
  0
LINE
  8
LAYER_2
 10
-26.3777
 20
201.71
 11
-26.3781
 21
201.4433
  0
LINE
  8
LAYER_2
 10
-26.3781
 20
201.4433
 11
-26.3781
 21
201.1881
  0
LINE
  8
LAYER_2
 10
-26.3781
 20
201.1881
 11
-26.3781
 21
200.9586
  0
LINE
  8
LAYER_2
 10
-26.3781
 20
200.9586
 11
-26.3784
 21
200.7581
  0
LINE
  8
LAYER_2
 10
-26.3784
 20
200.7581
 11
-26.3784
 21
200.5766
  0
LINE
  8
LAYER_2
 10
-26.3784
 20
200.5766
 11
-26.3784
 21
200.4036
  0
LINE
  8
LAYER_2
 10
-26.3784
 20
200.4036
 11
-26.3787
 21
200.2303
  0
LINE
  8
LAYER_2
 10
-26.3787
 20
200.2303
 11
-26.3787
 21
200.055
  0
LINE
  8
LAYER_2
 10
-26.3787
 20
200.055
 11
-26.3787
 21
199.8796
  0
LINE
  8
LAYER_2
 10
-26.3787
 20
199.8796
 11
-26.3791
 21
199.7056
  0
LINE
  8
LAYER_2
 10
-25.6536
 20
211.4731
 11
-25.6542
 21
211.5044
  0
LINE
  8
LAYER_2
 10
-25.6542
 20
211.5044
 11
-25.655
 21
211.5344
  0
LINE
  8
LAYER_2
 10
-25.655
 20
211.5344
 11
-25.6553
 21
211.5633
  0
LINE
  8
LAYER_2
 10
-25.6553
 20
211.5633
 11
-25.656
 21
211.5905
  0
LINE
  8
LAYER_2
 10
-25.656
 20
211.5905
 11
-25.6566
 21
211.6164
  0
LINE
  8
LAYER_2
 10
-25.6566
 20
211.6164
 11
-25.6574
 21
211.6408
  0
LINE
  8
LAYER_2
 10
-25.6574
 20
211.6408
 11
-25.6577
 21
211.6625
  0
LINE
  8
LAYER_2
 10
-25.6577
 20
211.6625
 11
-25.6584
 21
211.6825
  0
LINE
  8
LAYER_2
 10
-25.6584
 20
211.6825
 11
-25.6587
 21
211.7001
  0
LINE
  8
LAYER_2
 10
-25.6587
 20
211.7001
 11
-25.6591
 21
211.7152
  0
LINE
  8
LAYER_2
 10
-25.6591
 20
211.7152
 11
-25.6594
 21
211.728
  0
LINE
  8
LAYER_2
 10
-25.6594
 20
211.728
 11
-25.6598
 21
211.738
  0
LINE
  8
LAYER_2
 10
-25.6598
 20
211.738
 11
-25.6601
 21
211.7449
  0
LINE
  8
LAYER_2
 10
-25.6601
 20
211.7449
 11
-25.6605
 21
211.7494
  0
LINE
  8
LAYER_2
 10
-25.6605
 20
211.7494
 11
-25.6605
 21
211.7511
  0
LINE
  8
LAYER_2
 10
-20.7657
 20
211.4731
 11
-20.765
 21
211.5044
  0
LINE
  8
LAYER_2
 10
-20.765
 20
211.5044
 11
-20.7643
 21
211.5344
  0
LINE
  8
LAYER_2
 10
-20.7643
 20
211.5344
 11
-20.7636
 21
211.5633
  0
LINE
  8
LAYER_2
 10
-20.7636
 20
211.5633
 11
-20.7632
 21
211.5905
  0
LINE
  8
LAYER_2
 10
-20.7632
 20
211.5905
 11
-20.7626
 21
211.6164
  0
LINE
  8
LAYER_2
 10
-20.7626
 20
211.6164
 11
-20.7619
 21
211.6408
  0
LINE
  8
LAYER_2
 10
-20.7619
 20
211.6408
 11
-20.7615
 21
211.6629
  0
LINE
  8
LAYER_2
 10
-20.7615
 20
211.6629
 11
-20.7608
 21
211.6825
  0
LINE
  8
LAYER_2
 10
-20.7608
 20
211.6825
 11
-20.7605
 21
211.7001
  0
LINE
  8
LAYER_2
 10
-20.7605
 20
211.7001
 11
-20.7602
 21
211.7152
  0
LINE
  8
LAYER_2
 10
-20.7602
 20
211.7152
 11
-20.7598
 21
211.728
  0
LINE
  8
LAYER_2
 10
-20.7598
 20
211.728
 11
-20.7595
 21
211.738
  0
LINE
  8
LAYER_2
 10
-20.7595
 20
211.738
 11
-20.7591
 21
211.7449
  0
LINE
  8
LAYER_2
 10
-20.7591
 20
211.7449
 11
-20.7588
 21
211.7494
  0
LINE
  8
LAYER_2
 10
-20.7588
 20
211.7494
 11
-20.7584
 21
211.7511
  0
LINE
  8
LAYER_2
 10
-20.57
 20
211.3759
 11
-20.57
 21
211.3938
  0
LINE
  8
LAYER_2
 10
-20.57
 20
211.3938
 11
-20.5851
 21
211.3938
  0
LINE
  8
LAYER_2
 10
-20.5207
 20
211.2315
 11
-20.488
 21
211.2315
  0
LINE
  8
LAYER_2
 10
-20.488
 20
211.2315
 11
-20.4556
 21
211.2302
  0
LINE
  8
LAYER_2
 10
-20.4556
 20
211.2302
 11
-20.4239
 21
211.2284
  0
LINE
  8
LAYER_2
 10
-20.4239
 20
211.2284
 11
-20.3926
 21
211.226
  0
LINE
  8
LAYER_2
 10
-20.3926
 20
211.226
 11
-20.3626
 21
211.2226
  0
LINE
  8
LAYER_2
 10
-20.3626
 20
211.2226
 11
-20.3333
 21
211.2188
  0
LINE
  8
LAYER_2
 10
-20.3333
 20
211.2188
 11
-20.3061
 21
211.2143
  0
LINE
  8
LAYER_2
 10
-20.3061
 20
211.2143
 11
-20.2799
 21
211.2091
  0
LINE
  8
LAYER_2
 10
-20.2799
 20
211.2091
 11
-20.2558
 21
211.2036
  0
LINE
  8
LAYER_2
 10
-20.2558
 20
211.2036
 11
-20.2337
 21
211.1971
  0
LINE
  8
LAYER_2
 10
-20.2337
 20
211.1971
 11
-20.2137
 21
211.1906
  0
LINE
  8
LAYER_2
 10
-20.2137
 20
211.1906
 11
-20.1962
 21
211.1833
  0
LINE
  8
LAYER_2
 10
-20.1962
 20
211.1833
 11
-20.181
 21
211.1761
  0
LINE
  8
LAYER_2
 10
-20.181
 20
211.1761
 11
-20.1686
 21
211.1682
  0
LINE
  8
LAYER_2
 10
-20.1686
 20
211.1682
 11
-20.1586
 21
211.1602
  0
LINE
  8
LAYER_2
 10
-20.1586
 20
211.1602
 11
-20.1514
 21
211.152
  0
LINE
  8
LAYER_2
 10
-20.1514
 20
211.152
 11
-20.149
 21
211.1478
  0
LINE
  8
LAYER_2
 10
-19.3259
 20
203.8263
 11
-19.4283
 21
203.8218
  0
LINE
  8
LAYER_2
 10
-19.4283
 20
203.8218
 11
-19.5234
 21
203.8181
  0
LINE
  8
LAYER_2
 10
-19.5234
 20
203.8181
 11
-19.6108
 21
203.815
  0
LINE
  8
LAYER_2
 10
-19.6108
 20
203.815
 11
-19.6908
 21
203.8125
  0
LINE
  8
LAYER_2
 10
-19.6908
 20
203.8125
 11
-19.7631
 21
203.8108
  0
LINE
  8
LAYER_2
 10
-19.7631
 20
203.8108
 11
-19.8276
 21
203.8098
  0
LINE
  8
LAYER_2
 10
-19.8276
 20
203.8098
 11
-19.8837
 21
203.8094
  0
LINE
  8
LAYER_2
 10
-19.8837
 20
203.8094
 11
-19.9316
 21
203.8101
  0
LINE
  8
LAYER_2
 10
-19.9316
 20
203.8101
 11
-19.9709
 21
203.8111
  0
LINE
  8
LAYER_2
 10
-19.9709
 20
203.8111
 11
-20.0019
 21
203.8132
  0
LINE
  8
LAYER_2
 10
-20.0019
 20
203.8132
 11
-20.0243
 21
203.816
  0
LINE
  8
LAYER_2
 10
-20.0243
 20
203.816
 11
-20.0381
 21
203.8194
  0
LINE
  8
LAYER_2
 10
-20.0381
 20
203.8194
 11
-20.0429
 21
203.8232
  0
LINE
  8
LAYER_2
 10
-26.2737
 20
211.1351
 11
-26.3763
 21
203.8322
  0
LINE
  8
LAYER_2
 10
-26.3333
 20
206.9196
 11
-26.3571
 21
206.8763
  0
LINE
  8
LAYER_2
 10
-26.3571
 20
206.8763
 11
-26.459
 21
206.6775
  0
LINE
  8
LAYER_2
 10
-26.459
 20
206.6775
 11
-26.5565
 21
206.4632
  0
LINE
  8
LAYER_2
 10
-26.5565
 20
206.4632
 11
-26.6485
 21
206.2344
  0
LINE
  8
LAYER_2
 10
-26.6485
 20
206.2344
 11
-26.7333
 21
205.9957
  0
LINE
  8
LAYER_2
 10
-26.7333
 20
205.9957
 11
-26.809
 21
205.75
  0
LINE
  8
LAYER_2
 10
-26.809
 20
205.75
 11
-26.8755
 21
205.5017
  0
LINE
  8
LAYER_2
 10
-26.8755
 20
205.5017
 11
-26.932
 21
205.2536
  0
LINE
  8
LAYER_2
 10
-26.932
 20
205.2536
 11
-26.9792
 21
205.0097
  0
LINE
  8
LAYER_2
 10
-26.9792
 20
205.0097
 11
-27.0171
 21
204.7706
  0
LINE
  8
LAYER_2
 10
-27.0171
 20
204.7706
 11
-27.0457
 21
204.5412
  0
LINE
  8
LAYER_2
 10
-27.0457
 20
204.5412
 11
-27.0661
 21
204.331
  0
LINE
  8
LAYER_2
 10
-27.0661
 20
204.331
 11
-27.0788
 21
204.1446
  0
LINE
  8
LAYER_2
 10
-27.0788
 20
204.1446
 11
-27.086
 21
203.9772
  0
LINE
  8
LAYER_2
 10
-27.086
 20
203.9772
 11
-27.0895
 21
203.8236
  0
LINE
  8
LAYER_2
 10
-20.0401
 20
199.7084
 11
-20.0405
 21
199.881
  0
LINE
  8
LAYER_2
 10
-20.0405
 20
199.881
 11
-20.0405
 21
200.0553
  0
LINE
  8
LAYER_2
 10
-20.0405
 20
200.0553
 11
-20.0405
 21
200.2296
  0
LINE
  8
LAYER_2
 10
-20.0405
 20
200.2296
 11
-20.0408
 21
200.4012
  0
LINE
  8
LAYER_2
 10
-20.0408
 20
200.4012
 11
-20.0408
 21
200.5711
  0
LINE
  8
LAYER_2
 10
-20.0408
 20
200.5711
 11
-20.0408
 21
200.7481
  0
LINE
  8
LAYER_2
 10
-20.0408
 20
200.7481
 11
-20.0412
 21
200.9424
  0
LINE
  8
LAYER_2
 10
-20.0412
 20
200.9424
 11
-20.0412
 21
201.1636
  0
LINE
  8
LAYER_2
 10
-20.0412
 20
201.1636
 11
-20.0415
 21
201.4117
  0
LINE
  8
LAYER_2
 10
-20.0415
 20
201.4117
 11
-20.0415
 21
201.6752
  0
LINE
  8
LAYER_2
 10
-20.0415
 20
201.6752
 11
-20.0415
 21
201.9425
  0
LINE
  8
LAYER_2
 10
-20.0415
 20
201.9425
 11
-20.0418
 21
202.2027
  0
LINE
  8
LAYER_2
 10
-20.0418
 20
202.2027
 11
-20.0418
 21
202.4438
  0
LINE
  8
LAYER_2
 10
-20.0418
 20
202.4438
 11
-20.0418
 21
202.656
  0
LINE
  8
LAYER_2
 10
-20.0418
 20
202.656
 11
-20.0422
 21
202.8417
  0
LINE
  8
LAYER_2
 10
-20.0422
 20
202.8417
 11
-20.0422
 21
203.0098
  0
LINE
  8
LAYER_2
 10
-20.0422
 20
203.0098
 11
-20.0425
 21
203.1707
  0
LINE
  8
LAYER_2
 10
-20.0425
 20
203.1707
 11
-20.0425
 21
203.3326
  0
LINE
  8
LAYER_2
 10
-20.0425
 20
203.3326
 11
-20.0425
 21
203.4966
  0
LINE
  8
LAYER_2
 10
-20.0425
 20
203.4966
 11
-20.0425
 21
203.6609
  0
LINE
  8
LAYER_2
 10
-20.0425
 20
203.6609
 11
-20.0429
 21
203.8232
  0
LINE
  8
LAYER_2
 10
-20.1456
 20
211.1351
 11
-20.0429
 21
203.8349
  0
LINE
  8
LAYER_2
 10
-20.5851
 20
211.3938
 11
-20.6006
 21
211.409
  0
LINE
  8
LAYER_2
 10
-20.6006
 20
211.409
 11
-20.6179
 21
211.4228
  0
LINE
  8
LAYER_2
 10
-20.6179
 20
211.4228
 11
-20.6365
 21
211.4355
  0
LINE
  8
LAYER_2
 10
-20.6365
 20
211.4355
 11
-20.6564
 21
211.4465
  0
LINE
  8
LAYER_2
 10
-20.6564
 20
211.4465
 11
-20.6775
 21
211.4558
  0
LINE
  8
LAYER_2
 10
-20.6775
 20
211.4558
 11
-20.6992
 21
211.4631
  0
LINE
  8
LAYER_2
 10
-20.6992
 20
211.4631
 11
-20.7212
 21
211.4686
  0
LINE
  8
LAYER_2
 10
-20.7212
 20
211.4686
 11
-20.7436
 21
211.4717
  0
LINE
  8
LAYER_2
 10
-20.7436
 20
211.4717
 11
-20.7657
 21
211.4731
  0
LINE
  8
LAYER_2
 10
-20.5207
 20
211.2315
 11
-20.5218
 21
211.2536
  0
LINE
  8
LAYER_2
 10
-20.5218
 20
211.2536
 11
-20.5249
 21
211.2753
  0
LINE
  8
LAYER_2
 10
-20.5249
 20
211.2753
 11
-20.53
 21
211.2973
  0
LINE
  8
LAYER_2
 10
-20.53
 20
211.2973
 11
-20.5372
 21
211.3184
  0
LINE
  8
LAYER_2
 10
-20.5372
 20
211.3184
 11
-20.5462
 21
211.3387
  0
LINE
  8
LAYER_2
 10
-20.5462
 20
211.3387
 11
-20.5576
 21
211.358
  0
LINE
  8
LAYER_2
 10
-20.5576
 20
211.358
 11
-20.57
 21
211.3759
  0
LINE
  8
LAYER_2
 10
-20.57
 20
207.5791
 11
-20.5576
 21
207.597
  0
LINE
  8
LAYER_2
 10
-20.5576
 20
207.597
 11
-20.5462
 21
207.6163
  0
LINE
  8
LAYER_2
 10
-20.5462
 20
207.6163
 11
-20.5372
 21
207.6366
  0
LINE
  8
LAYER_2
 10
-20.5372
 20
207.6366
 11
-20.53
 21
207.6579
  0
LINE
  8
LAYER_2
 10
-20.53
 20
207.6579
 11
-20.5245
 21
207.6793
  0
LINE
  8
LAYER_2
 10
-20.5245
 20
207.6793
 11
-20.5218
 21
207.7014
  0
LINE
  8
LAYER_2
 10
-20.5218
 20
207.7014
 11
-20.5207
 21
207.7231
  0
LINE
  8
LAYER_2
 10
-25.6432
 20
232.0794
 11
-25.6915
 21
232.0785
  0
LINE
  8
LAYER_2
 10
-25.6915
 20
232.0785
 11
-25.7393
 21
232.0768
  0
LINE
  8
LAYER_2
 10
-25.7393
 20
232.0768
 11
-25.7865
 21
232.074
  0
LINE
  8
LAYER_2
 10
-25.7865
 20
232.074
 11
-25.8334
 21
232.0704
  0
LINE
  8
LAYER_2
 10
-25.8334
 20
232.0704
 11
-25.8782
 21
232.0659
  0
LINE
  8
LAYER_2
 10
-25.8782
 20
232.0659
 11
-25.9219
 21
232.0604
  0
LINE
  8
LAYER_2
 10
-25.9219
 20
232.0604
 11
-25.9643
 21
232.0544
  0
LINE
  8
LAYER_2
 10
-25.9643
 20
232.0544
 11
-26.0043
 21
232.0472
  0
LINE
  8
LAYER_2
 10
-26.0043
 20
232.0472
 11
-26.0415
 21
232.0394
  0
LINE
  8
LAYER_2
 10
-26.0415
 20
232.0394
 11
-26.0769
 21
232.0308
  0
LINE
  8
LAYER_2
 10
-26.0769
 20
232.0308
 11
-26.1097
 21
232.0215
  0
LINE
  8
LAYER_2
 10
-26.1097
 20
232.0215
 11
-26.1393
 21
232.0118
  0
LINE
  8
LAYER_2
 10
-26.1393
 20
232.0118
 11
-26.1658
 21
232.0015
  0
LINE
  8
LAYER_2
 10
-26.1658
 20
232.0015
 11
-26.1893
 21
231.9905
  0
LINE
  8
LAYER_2
 10
-26.1893
 20
231.9905
 11
-26.2089
 21
231.9793
  0
LINE
  8
LAYER_2
 10
-26.2089
 20
231.9793
 11
-26.2258
 21
231.9676
  0
LINE
  8
LAYER_2
 10
-26.2258
 20
231.9676
 11
-26.2389
 21
231.9559
  0
LINE
  8
LAYER_2
 10
-26.2389
 20
231.9559
 11
-26.2482
 21
231.9436
  0
LINE
  8
LAYER_2
 10
-26.2482
 20
231.9436
 11
-26.2537
 21
231.9314
  0
LINE
  8
LAYER_2
 10
-26.2537
 20
231.9314
 11
-26.2558
 21
231.919
  0
LINE
  8
LAYER_2
 10
-20.025
 20
260.023
 11
-20.0253
 21
259.9958
  0
LINE
  8
LAYER_2
 10
-20.0253
 20
259.9958
 11
-20.0267
 21
259.9629
  0
LINE
  8
LAYER_2
 10
-20.0267
 20
259.9629
 11
-20.0284
 21
259.9244
  0
LINE
  8
LAYER_2
 10
-20.0284
 20
259.9244
 11
-20.0312
 21
259.8799
  0
LINE
  8
LAYER_2
 10
-20.0312
 20
259.8799
 11
-20.0346
 21
259.8293
  0
LINE
  8
LAYER_2
 10
-20.0346
 20
259.8293
 11
-20.0391
 21
259.7717
  0
LINE
  8
LAYER_2
 10
-20.0391
 20
259.7717
 11
-20.0446
 21
259.7068
  0
LINE
  8
LAYER_2
 10
-20.0446
 20
259.7068
 11
-20.0511
 21
259.6336
  0
LINE
  8
LAYER_2
 10
-20.0511
 20
259.6336
 11
-20.0594
 21
259.5514
  0
LINE
  8
LAYER_2
 10
-20.0594
 20
259.5514
 11
-20.0687
 21
259.4593
  0
LINE
  8
LAYER_2
 10
-20.0687
 20
259.4593
 11
-20.0801
 21
259.3559
  0
LINE
  8
LAYER_2
 10
-20.0801
 20
259.3559
 11
-20.0932
 21
259.2407
  0
LINE
  8
LAYER_2
 10
-20.0932
 20
259.2407
 11
-20.109
 21
259.1118
  0
LINE
  8
LAYER_2
 10
-20.109
 20
259.1118
 11
-20.1283
 21
258.9682
  0
LINE
  8
LAYER_2
 10
-20.1283
 20
258.9682
 11
-20.1507
 21
258.8085
  0
LINE
  8
LAYER_2
 10
-20.1507
 20
258.8085
 11
-20.1772
 21
258.6314
  0
LINE
  8
LAYER_2
 10
-20.1772
 20
258.6314
 11
-20.21
 21
258.4338
  0
LINE
  8
LAYER_2
 10
-20.21
 20
258.4338
 11
-20.2496
 21
258.2161
  0
LINE
  8
LAYER_2
 10
-20.2496
 20
258.2161
 11
-20.2923
 21
258.0006
  0
LINE
  8
LAYER_2
 10
-20.2923
 20
258.0006
 11
-20.335
 21
257.8096
  0
LINE
  8
LAYER_2
 10
-20.335
 20
257.8096
 11
-20.3764
 21
257.6399
  0
LINE
  8
LAYER_2
 10
-20.3764
 20
257.6399
 11
-20.4174
 21
257.489
  0
LINE
  8
LAYER_2
 10
-20.4174
 20
257.489
 11
-20.4577
 21
257.3547
  0
LINE
  8
LAYER_2
 10
-20.4577
 20
257.3547
 11
-20.4976
 21
257.2355
  0
LINE
  8
LAYER_2
 10
-20.4976
 20
257.2355
 11
-20.5366
 21
257.13
  0
LINE
  8
LAYER_2
 10
-20.5366
 20
257.13
 11
-20.5748
 21
257.0377
  0
LINE
  8
LAYER_2
 10
-20.5748
 20
257.0377
 11
-20.6123
 21
256.9571
  0
LINE
  8
LAYER_2
 10
-20.6123
 20
256.9571
 11
-20.6492
 21
256.8878
  0
LINE
  8
LAYER_2
 10
-20.1276
 20
231.919
 11
-20.1297
 21
231.9314
  0
LINE
  8
LAYER_2
 10
-20.1297
 20
231.9314
 11
-20.1352
 21
231.9436
  0
LINE
  8
LAYER_2
 10
-20.1352
 20
231.9436
 11
-20.1445
 21
231.9559
  0
LINE
  8
LAYER_2
 10
-20.1445
 20
231.9559
 11
-20.1576
 21
231.9676
  0
LINE
  8
LAYER_2
 10
-20.1576
 20
231.9676
 11
-20.1741
 21
231.9793
  0
LINE
  8
LAYER_2
 10
-20.1741
 20
231.9793
 11
-20.1941
 21
231.9905
  0
LINE
  8
LAYER_2
 10
-20.1941
 20
231.9905
 11
-20.2176
 21
232.0015
  0
LINE
  8
LAYER_2
 10
-20.2176
 20
232.0015
 11
-20.2441
 21
232.0118
  0
LINE
  8
LAYER_2
 10
-20.2441
 20
232.0118
 11
-20.2737
 21
232.0215
  0
LINE
  8
LAYER_2
 10
-20.2737
 20
232.0215
 11
-20.3064
 21
232.0308
  0
LINE
  8
LAYER_2
 10
-20.3064
 20
232.0308
 11
-20.3419
 21
232.0394
  0
LINE
  8
LAYER_2
 10
-20.3419
 20
232.0394
 11
-20.3791
 21
232.0472
  0
LINE
  8
LAYER_2
 10
-20.3791
 20
232.0472
 11
-20.4191
 21
232.0544
  0
LINE
  8
LAYER_2
 10
-20.4191
 20
232.0544
 11
-20.4615
 21
232.0604
  0
LINE
  8
LAYER_2
 10
-20.4615
 20
232.0604
 11
-20.5049
 21
232.0659
  0
LINE
  8
LAYER_2
 10
-20.5049
 20
232.0659
 11
-20.55
 21
232.0704
  0
LINE
  8
LAYER_2
 10
-20.55
 20
232.0704
 11
-20.5969
 21
232.074
  0
LINE
  8
LAYER_2
 10
-20.5969
 20
232.074
 11
-20.6441
 21
232.0768
  0
LINE
  8
LAYER_2
 10
-20.6441
 20
232.0768
 11
-20.6919
 21
232.0785
  0
LINE
  8
LAYER_2
 10
-20.6919
 20
232.0785
 11
-20.7402
 21
232.0794
  0
LINE
  8
LAYER_2
 10
-25.6357
 20
231.6229
 11
-25.6363
 21
231.6327
  0
LINE
  8
LAYER_2
 10
-25.6363
 20
231.6327
 11
-25.637
 21
231.6449
  0
LINE
  8
LAYER_2
 10
-25.637
 20
231.6449
 11
-25.6377
 21
231.6601
  0
LINE
  8
LAYER_2
 10
-25.6377
 20
231.6601
 11
-25.6381
 21
231.6773
  0
LINE
  8
LAYER_2
 10
-25.6381
 20
231.6773
 11
-25.6388
 21
231.6973
  0
LINE
  8
LAYER_2
 10
-25.6388
 20
231.6973
 11
-25.6391
 21
231.7192
  0
LINE
  8
LAYER_2
 10
-25.6391
 20
231.7192
 11
-25.6398
 21
231.7431
  0
LINE
  8
LAYER_2
 10
-25.6398
 20
231.7431
 11
-25.6405
 21
231.7688
  0
LINE
  8
LAYER_2
 10
-25.6405
 20
231.7688
 11
-25.6405
 21
231.7963
  0
LINE
  8
LAYER_2
 10
-25.6405
 20
231.7963
 11
-25.6412
 21
231.8251
  0
LINE
  8
LAYER_2
 10
-25.6412
 20
231.8251
 11
-25.6418
 21
231.8551
  0
LINE
  8
LAYER_2
 10
-25.6418
 20
231.8551
 11
-25.6418
 21
231.8861
  0
LINE
  8
LAYER_2
 10
-25.6418
 20
231.8861
 11
-25.6422
 21
231.918
  0
LINE
  8
LAYER_2
 10
-25.6422
 20
231.918
 11
-25.6425
 21
231.9502
  0
LINE
  8
LAYER_2
 10
-25.6425
 20
231.9502
 11
-25.6425
 21
231.9827
  0
LINE
  8
LAYER_2
 10
-25.6425
 20
231.9827
 11
-25.6432
 21
232.0153
  0
LINE
  8
LAYER_2
 10
-25.6432
 20
232.0153
 11
-25.6432
 21
232.0475
  0
LINE
  8
LAYER_2
 10
-25.6432
 20
232.0475
 11
-25.6432
 21
232.0794
  0
LINE
  8
LAYER_2
 10
-20.7477
 20
231.6229
 11
-20.747
 21
231.6327
  0
LINE
  8
LAYER_2
 10
-20.747
 20
231.6327
 11
-20.7464
 21
231.6449
  0
LINE
  8
LAYER_2
 10
-20.7464
 20
231.6449
 11
-20.7457
 21
231.6601
  0
LINE
  8
LAYER_2
 10
-20.7457
 20
231.6601
 11
-20.7453
 21
231.6773
  0
LINE
  8
LAYER_2
 10
-20.7453
 20
231.6773
 11
-20.7446
 21
231.6973
  0
LINE
  8
LAYER_2
 10
-20.7446
 20
231.6973
 11
-20.7443
 21
231.7192
  0
LINE
  8
LAYER_2
 10
-20.7443
 20
231.7192
 11
-20.7436
 21
231.7431
  0
LINE
  8
LAYER_2
 10
-20.7436
 20
231.7431
 11
-20.7429
 21
231.7688
  0
LINE
  8
LAYER_2
 10
-20.7429
 20
231.7688
 11
-20.7429
 21
231.7963
  0
LINE
  8
LAYER_2
 10
-20.7429
 20
231.7963
 11
-20.7422
 21
231.8251
  0
LINE
  8
LAYER_2
 10
-20.7422
 20
231.8251
 11
-20.7415
 21
231.8551
  0
LINE
  8
LAYER_2
 10
-20.7415
 20
231.8551
 11
-20.7415
 21
231.8861
  0
LINE
  8
LAYER_2
 10
-20.7415
 20
231.8861
 11
-20.7412
 21
231.918
  0
LINE
  8
LAYER_2
 10
-20.7412
 20
231.918
 11
-20.7409
 21
231.9502
  0
LINE
  8
LAYER_2
 10
-20.7409
 20
231.9502
 11
-20.7405
 21
231.9827
  0
LINE
  8
LAYER_2
 10
-20.7405
 20
231.9827
 11
-20.7405
 21
232.0153
  0
LINE
  8
LAYER_2
 10
-20.7405
 20
232.0153
 11
-20.7405
 21
232.0475
  0
LINE
  8
LAYER_2
 10
-20.7405
 20
232.0475
 11
-20.7402
 21
232.0794
  0
LINE
  8
LAYER_2
 10
-20.5521
 20
231.6014
 11
-20.5672
 21
231.6014
  0
LINE
  8
LAYER_2
 10
-20.5025
 20
231.558
 11
-20.4701
 21
231.5593
  0
LINE
  8
LAYER_2
 10
-20.4701
 20
231.5593
 11
-20.4377
 21
231.5635
  0
LINE
  8
LAYER_2
 10
-20.4377
 20
231.5635
 11
-20.406
 21
231.5705
  0
LINE
  8
LAYER_2
 10
-20.406
 20
231.5705
 11
-20.375
 21
231.5798
  0
LINE
  8
LAYER_2
 10
-20.375
 20
231.5798
 11
-20.3447
 21
231.5917
  0
LINE
  8
LAYER_2
 10
-20.3447
 20
231.5917
 11
-20.3157
 21
231.6064
  0
LINE
  8
LAYER_2
 10
-20.3157
 20
231.6064
 11
-20.2882
 21
231.6234
  0
LINE
  8
LAYER_2
 10
-20.2882
 20
231.6234
 11
-20.262
 21
231.6425
  0
LINE
  8
LAYER_2
 10
-20.262
 20
231.6425
 11
-20.2379
 21
231.6637
  0
LINE
  8
LAYER_2
 10
-20.2379
 20
231.6637
 11
-20.2158
 21
231.687
  0
LINE
  8
LAYER_2
 10
-20.2158
 20
231.687
 11
-20.1958
 21
231.712
  0
LINE
  8
LAYER_2
 10
-20.1958
 20
231.712
 11
-20.1786
 21
231.7385
  0
LINE
  8
LAYER_2
 10
-20.1786
 20
231.7385
 11
-20.1635
 21
231.7664
  0
LINE
  8
LAYER_2
 10
-20.1635
 20
231.7664
 11
-20.1503
 21
231.7953
  0
LINE
  8
LAYER_2
 10
-20.1503
 20
231.7953
 11
-20.1407
 21
231.8257
  0
LINE
  8
LAYER_2
 10
-20.1407
 20
231.8257
 11
-20.1338
 21
231.8561
  0
LINE
  8
LAYER_2
 10
-20.1338
 20
231.8561
 11
-20.129
 21
231.8876
  0
LINE
  8
LAYER_2
 10
-20.129
 20
231.8876
 11
-20.1276
 21
231.919
  0
LINE
  8
LAYER_2
 10
-21.5773
 20
260.4657
 11
-21.5787
 21
260.4633
  0
LINE
  8
LAYER_2
 10
-21.5787
 20
260.4633
 11
-21.5835
 21
260.4482
  0
LINE
  8
LAYER_2
 10
-21.5835
 20
260.4482
 11
-21.5863
 21
260.4251
  0
LINE
  8
LAYER_2
 10
-21.5863
 20
260.4251
 11
-21.5863
 21
260.3939
  0
LINE
  8
LAYER_2
 10
-21.5863
 20
260.3939
 11
-21.5842
 21
260.355
  0
LINE
  8
LAYER_2
 10
-21.5842
 20
260.355
 11
-21.5794
 21
260.3083
  0
LINE
  8
LAYER_2
 10
-21.5794
 20
260.3083
 11
-21.5718
 21
260.254
  0
LINE
  8
LAYER_2
 10
-21.5718
 20
260.254
 11
-21.5622
 21
260.1922
  0
LINE
  8
LAYER_2
 10
-21.5622
 20
260.1922
 11
-21.5494
 21
260.1231
  0
LINE
  8
LAYER_2
 10
-21.5494
 20
260.1231
 11
-21.5346
 21
260.047
  0
LINE
  8
LAYER_2
 10
-21.5346
 20
260.047
 11
-21.5174
 21
259.964
  0
LINE
  8
LAYER_2
 10
-21.5174
 20
259.964
 11
-21.4981
 21
259.8744
  0
LINE
  8
LAYER_2
 10
-21.4981
 20
259.8744
 11
-21.4761
 21
259.7783
  0
LINE
  8
LAYER_2
 10
-21.4761
 20
259.7783
 11
-21.4523
 21
259.6763
  0
LINE
  8
LAYER_2
 10
-21.4523
 20
259.6763
 11
-21.4261
 21
259.5683
  0
LINE
  8
LAYER_2
 10
-21.4261
 20
259.5683
 11
-21.3978
 21
259.4548
  0
LINE
  8
LAYER_2
 10
-21.3978
 20
259.4548
 11
-21.3679
 21
259.3361
  0
LINE
  8
LAYER_2
 10
-21.3679
 20
259.3361
 11
-21.3355
 21
259.2126
  0
LINE
  8
LAYER_2
 10
-21.3355
 20
259.2126
 11
-21.3017
 21
259.0844
  0
LINE
  8
LAYER_2
 10
-21.3017
 20
259.0844
 11
-21.2659
 21
258.9523
  0
LINE
  8
LAYER_2
 10
-21.2659
 20
258.9523
 11
-21.2287
 21
258.8162
  0
LINE
  8
LAYER_2
 10
-21.2287
 20
258.8162
 11
-21.1901
 21
258.6769
  0
LINE
  8
LAYER_2
 10
-21.1901
 20
258.6769
 11
-21.1498
 21
258.5344
  0
LINE
  8
LAYER_2
 10
-21.1498
 20
258.5344
 11
-21.1081
 21
258.3894
  0
LINE
  8
LAYER_2
 10
-21.1081
 20
258.3894
 11
-21.0654
 21
258.2421
  0
LINE
  8
LAYER_2
 10
-21.0654
 20
258.2421
 11
-21.022
 21
258.0933
  0
LINE
  8
LAYER_2
 10
-21.022
 20
258.0933
 11
-20.9772
 21
257.9427
  0
LINE
  8
LAYER_2
 10
-20.9772
 20
257.9427
 11
-20.9317
 21
257.7915
  0
LINE
  8
LAYER_2
 10
-20.9317
 20
257.7915
 11
-20.8855
 21
257.6396
  0
LINE
  8
LAYER_2
 10
-20.8855
 20
257.6396
 11
-20.8387
 21
257.4876
  0
LINE
  8
LAYER_2
 10
-20.8387
 20
257.4876
 11
-20.7918
 21
257.3362
  0
LINE
  8
LAYER_2
 10
-20.7918
 20
257.3362
 11
-20.7443
 21
257.1853
  0
LINE
  8
LAYER_2
 10
-20.7443
 20
257.1853
 11
-20.6968
 21
257.0358
  0
LINE
  8
LAYER_2
 10
-20.6968
 20
257.0358
 11
-20.6492
 21
256.8878
  0
LINE
  8
LAYER_2
 10
-24.8088
 20
260.4669
 11
-24.8068
 21
260.464
  0
LINE
  8
LAYER_2
 10
-24.8068
 20
260.464
 11
-24.8012
 21
260.4489
  0
LINE
  8
LAYER_2
 10
-24.8012
 20
260.4489
 11
-24.7978
 21
260.4256
  0
LINE
  8
LAYER_2
 10
-24.7978
 20
260.4256
 11
-24.7971
 21
260.3945
  0
LINE
  8
LAYER_2
 10
-24.7971
 20
260.3945
 11
-24.7992
 21
260.3553
  0
LINE
  8
LAYER_2
 10
-24.7992
 20
260.3553
 11
-24.8037
 21
260.3088
  0
LINE
  8
LAYER_2
 10
-24.8037
 20
260.3088
 11
-24.8109
 21
260.2546
  0
LINE
  8
LAYER_2
 10
-24.8109
 20
260.2546
 11
-24.8202
 21
260.1931
  0
LINE
  8
LAYER_2
 10
-24.8202
 20
260.1931
 11
-24.8322
 21
260.124
  0
LINE
  8
LAYER_2
 10
-24.8322
 20
260.124
 11
-24.8467
 21
260.0482
  0
LINE
  8
LAYER_2
 10
-24.8467
 20
260.0482
 11
-24.8636
 21
259.9655
  0
LINE
  8
LAYER_2
 10
-24.8636
 20
259.9655
 11
-24.8825
 21
259.8763
  0
LINE
  8
LAYER_2
 10
-24.8825
 20
259.8763
 11
-24.9039
 21
259.7807
  0
LINE
  8
LAYER_2
 10
-24.9039
 20
259.7807
 11
-24.928
 21
259.6789
  0
LINE
  8
LAYER_2
 10
-24.928
 20
259.6789
 11
-24.9539
 21
259.5714
  0
LINE
  8
LAYER_2
 10
-24.9539
 20
259.5714
 11
-24.9818
 21
259.4584
  0
LINE
  8
LAYER_2
 10
-24.9818
 20
259.4584
 11
-25.0121
 21
259.3402
  0
LINE
  8
LAYER_2
 10
-25.0121
 20
259.3402
 11
-25.0441
 21
259.2173
  0
LINE
  8
LAYER_2
 10
-25.0441
 20
259.2173
 11
-25.0779
 21
259.0898
  0
LINE
  8
LAYER_2
 10
-25.0779
 20
259.0898
 11
-25.1134
 21
258.9582
  0
LINE
  8
LAYER_2
 10
-25.1134
 20
258.9582
 11
-25.1513
 21
258.823
  0
LINE
  8
LAYER_2
 10
-25.1513
 20
258.823
 11
-25.1899
 21
258.6843
  0
LINE
  8
LAYER_2
 10
-25.1899
 20
258.6843
 11
-25.2302
 21
258.5425
  0
LINE
  8
LAYER_2
 10
-25.2302
 20
258.5425
 11
-25.2718
 21
258.3984
  0
LINE
  8
LAYER_2
 10
-25.2718
 20
258.3984
 11
-25.3146
 21
258.2517
  0
LINE
  8
LAYER_2
 10
-25.3146
 20
258.2517
 11
-25.3587
 21
258.1036
  0
LINE
  8
LAYER_2
 10
-25.3587
 20
258.1036
 11
-25.4035
 21
257.9543
  0
LINE
  8
LAYER_2
 10
-25.4035
 20
257.9543
 11
-25.4496
 21
257.8039
  0
LINE
  8
LAYER_2
 10
-25.4496
 20
257.8039
 11
-25.4958
 21
257.6527
  0
LINE
  8
LAYER_2
 10
-25.4958
 20
257.6527
 11
-25.543
 21
257.5018
  0
LINE
  8
LAYER_2
 10
-25.543
 20
257.5018
 11
-25.5902
 21
257.3509
  0
LINE
  8
LAYER_2
 10
-25.5902
 20
257.3509
 11
-25.6384
 21
257.2012
  0
LINE
  8
LAYER_2
 10
-25.6384
 20
257.2012
 11
-25.6859
 21
257.0523
  0
LINE
  8
LAYER_2
 10
-25.6859
 20
257.0523
 11
-25.7342
 21
256.9053
  0
LINE
  8
LAYER_2
 10
-25.8809
 20
230.618
 11
-25.8796
 21
230.6117
  0
LINE
  8
LAYER_2
 10
-25.8796
 20
230.6117
 11
-25.8761
 21
230.6054
  0
LINE
  8
LAYER_2
 10
-25.8761
 20
230.6054
 11
-25.8699
 21
230.5992
  0
LINE
  8
LAYER_2
 10
-25.8699
 20
230.5992
 11
-25.8616
 21
230.5932
  0
LINE
  8
LAYER_2
 10
-25.8616
 20
230.5932
 11
-25.8506
 21
230.5873
  0
LINE
  8
LAYER_2
 10
-25.8506
 20
230.5873
 11
-25.8379
 21
230.5818
  0
LINE
  8
LAYER_2
 10
-25.8379
 20
230.5818
 11
-25.8231
 21
230.5766
  0
LINE
  8
LAYER_2
 10
-25.8231
 20
230.5766
 11
-25.8065
 21
230.572
  0
LINE
  8
LAYER_2
 10
-25.8065
 20
230.572
 11
-25.7879
 21
230.5675
  0
LINE
  8
LAYER_2
 10
-25.7879
 20
230.5675
 11
-25.7679
 21
230.5639
  0
LINE
  8
LAYER_2
 10
-25.7679
 20
230.5639
 11
-25.7473
 21
230.5608
  0
LINE
  8
LAYER_2
 10
-25.6357
 20
231.6229
 11
-25.6591
 21
231.6224
  0
LINE
  8
LAYER_2
 10
-25.6591
 20
231.6224
 11
-25.6829
 21
231.6214
  0
LINE
  8
LAYER_2
 10
-25.6829
 20
231.6214
 11
-25.7063
 21
231.6198
  0
LINE
  8
LAYER_2
 10
-25.7063
 20
231.6198
 11
-25.7294
 21
231.6177
  0
LINE
  8
LAYER_2
 10
-25.7294
 20
231.6177
 11
-25.7514
 21
231.6148
  0
LINE
  8
LAYER_2
 10
-25.7514
 20
231.6148
 11
-25.7721
 21
231.6115
  0
LINE
  8
LAYER_2
 10
-25.7721
 20
231.6115
 11
-25.7914
 21
231.6077
  0
LINE
  8
LAYER_2
 10
-25.7914
 20
231.6077
 11
-25.8093
 21
231.6033
  0
LINE
  8
LAYER_2
 10
-25.8093
 20
231.6033
 11
-25.8255
 21
231.5988
  0
LINE
  8
LAYER_2
 10
-25.8255
 20
231.5988
 11
-25.8396
 21
231.5936
  0
LINE
  8
LAYER_2
 10
-25.8396
 20
231.5936
 11
-25.852
 21
231.5881
  0
LINE
  8
LAYER_2
 10
-25.852
 20
231.5881
 11
-25.8623
 21
231.5824
  0
LINE
  8
LAYER_2
 10
-25.8623
 20
231.5824
 11
-25.8706
 21
231.5764
  0
LINE
  8
LAYER_2
 10
-25.8706
 20
231.5764
 11
-25.8761
 21
231.5703
  0
LINE
  8
LAYER_2
 10
-25.8761
 20
231.5703
 11
-25.8796
 21
231.5641
  0
LINE
  8
LAYER_2
 10
-25.8796
 20
231.5641
 11
-25.8809
 21
231.558
  0
LINE
  8
LAYER_2
 10
-25.8809
 20
231.558
 11
-25.9133
 21
231.5593
  0
LINE
  8
LAYER_2
 10
-25.9133
 20
231.5593
 11
-25.9457
 21
231.5635
  0
LINE
  8
LAYER_2
 10
-25.9457
 20
231.5635
 11
-25.9774
 21
231.5705
  0
LINE
  8
LAYER_2
 10
-25.9774
 20
231.5705
 11
-26.0088
 21
231.5798
  0
LINE
  8
LAYER_2
 10
-26.0088
 20
231.5798
 11
-26.0387
 21
231.5917
  0
LINE
  8
LAYER_2
 10
-26.0387
 20
231.5917
 11
-26.0677
 21
231.6064
  0
LINE
  8
LAYER_2
 10
-26.0677
 20
231.6064
 11
-26.0952
 21
231.6234
  0
LINE
  8
LAYER_2
 10
-26.0952
 20
231.6234
 11
-26.1214
 21
231.6425
  0
LINE
  8
LAYER_2
 10
-26.1214
 20
231.6425
 11
-26.1455
 21
231.6637
  0
LINE
  8
LAYER_2
 10
-26.1455
 20
231.6637
 11
-26.1676
 21
231.687
  0
LINE
  8
LAYER_2
 10
-26.1676
 20
231.687
 11
-26.1875
 21
231.712
  0
LINE
  8
LAYER_2
 10
-26.1875
 20
231.712
 11
-26.2048
 21
231.7385
  0
LINE
  8
LAYER_2
 10
-26.2048
 20
231.7385
 11
-26.2199
 21
231.7664
  0
LINE
  8
LAYER_2
 10
-26.2199
 20
231.7664
 11
-26.233
 21
231.7953
  0
LINE
  8
LAYER_2
 10
-26.233
 20
231.7953
 11
-26.2427
 21
231.8257
  0
LINE
  8
LAYER_2
 10
-26.2427
 20
231.8257
 11
-26.2499
 21
231.8561
  0
LINE
  8
LAYER_2
 10
-26.2499
 20
231.8561
 11
-26.2544
 21
231.8876
  0
LINE
  8
LAYER_2
 10
-26.2544
 20
231.8876
 11
-26.2558
 21
231.919
  0
LINE
  8
LAYER_2
 10
-20.5025
 20
230.618
 11
-20.4701
 21
230.6193
  0
LINE
  8
LAYER_2
 10
-20.4701
 20
230.6193
 11
-20.4377
 21
230.6235
  0
LINE
  8
LAYER_2
 10
-20.4377
 20
230.6235
 11
-20.406
 21
230.6302
  0
LINE
  8
LAYER_2
 10
-20.406
 20
230.6302
 11
-20.375
 21
230.6396
  0
LINE
  8
LAYER_2
 10
-20.375
 20
230.6396
 11
-20.3447
 21
230.6517
  0
LINE
  8
LAYER_2
 10
-20.3447
 20
230.6517
 11
-20.3157
 21
230.6662
  0
LINE
  8
LAYER_2
 10
-20.3157
 20
230.6662
 11
-20.2882
 21
230.6831
  0
LINE
  8
LAYER_2
 10
-20.2882
 20
230.6831
 11
-20.262
 21
230.7022
  0
LINE
  8
LAYER_2
 10
-20.262
 20
230.7022
 11
-20.2379
 21
230.7234
  0
LINE
  8
LAYER_2
 10
-20.2379
 20
230.7234
 11
-20.2158
 21
230.7468
  0
LINE
  8
LAYER_2
 10
-20.2158
 20
230.7468
 11
-20.1958
 21
230.7718
  0
LINE
  8
LAYER_2
 10
-20.1958
 20
230.7718
 11
-20.1786
 21
230.7983
  0
LINE
  8
LAYER_2
 10
-20.1786
 20
230.7983
 11
-20.1635
 21
230.8262
  0
LINE
  8
LAYER_2
 10
-20.1635
 20
230.8262
 11
-20.1503
 21
230.8553
  0
LINE
  8
LAYER_2
 10
-20.1503
 20
230.8553
 11
-20.1407
 21
230.8855
  0
LINE
  8
LAYER_2
 10
-20.1407
 20
230.8855
 11
-20.1338
 21
230.9161
  0
LINE
  8
LAYER_2
 10
-20.1338
 20
230.9161
 11
-20.129
 21
230.9473
  0
LINE
  8
LAYER_2
 10
-20.129
 20
230.9473
 11
-20.1283
 21
230.959
  0
LINE
  8
LAYER_2
 10
-20.6785
 20
230.5561
 11
-20.5521
 21
230.5561
  0
LINE
  8
LAYER_2
 10
-20.5521
 20
230.5561
 11
-20.5521
 21
230.5794
  0
LINE
  8
LAYER_2
 10
-25.7473
 20
230.5561
 11
-25.7049
 21
230.5561
  0
LINE
  8
LAYER_2
 10
-25.8809
 20
230.618
 11
-25.9133
 21
230.6193
  0
LINE
  8
LAYER_2
 10
-25.9133
 20
230.6193
 11
-25.9457
 21
230.6235
  0
LINE
  8
LAYER_2
 10
-25.9457
 20
230.6235
 11
-25.9774
 21
230.6302
  0
LINE
  8
LAYER_2
 10
-25.9774
 20
230.6302
 11
-26.0088
 21
230.6396
  0
LINE
  8
LAYER_2
 10
-26.0088
 20
230.6396
 11
-26.0387
 21
230.6517
  0
LINE
  8
LAYER_2
 10
-26.0387
 20
230.6517
 11
-26.0677
 21
230.6662
  0
LINE
  8
LAYER_2
 10
-26.0677
 20
230.6662
 11
-26.0952
 21
230.6831
  0
LINE
  8
LAYER_2
 10
-26.0952
 20
230.6831
 11
-26.1214
 21
230.7022
  0
LINE
  8
LAYER_2
 10
-26.1214
 20
230.7022
 11
-26.1455
 21
230.7234
  0
LINE
  8
LAYER_2
 10
-26.1455
 20
230.7234
 11
-26.1676
 21
230.7468
  0
LINE
  8
LAYER_2
 10
-26.1676
 20
230.7468
 11
-26.1875
 21
230.7718
  0
LINE
  8
LAYER_2
 10
-26.1875
 20
230.7718
 11
-26.2048
 21
230.7983
  0
LINE
  8
LAYER_2
 10
-26.2048
 20
230.7983
 11
-26.2199
 21
230.8262
  0
LINE
  8
LAYER_2
 10
-26.2199
 20
230.8262
 11
-26.233
 21
230.8553
  0
LINE
  8
LAYER_2
 10
-26.233
 20
230.8553
 11
-26.2427
 21
230.8855
  0
LINE
  8
LAYER_2
 10
-26.2427
 20
230.8855
 11
-26.2499
 21
230.9161
  0
LINE
  8
LAYER_2
 10
-26.2499
 20
230.9161
 11
-26.2544
 21
230.9473
  0
LINE
  8
LAYER_2
 10
-26.2544
 20
230.9473
 11
-26.2554
 21
230.9628
  0
LINE
  8
LAYER_2
 10
-20.5672
 20
231.6014
 11
-20.5824
 21
231.6055
  0
LINE
  8
LAYER_2
 10
-20.5824
 20
231.6055
 11
-20.6
 21
231.6093
  0
LINE
  8
LAYER_2
 10
-20.6
 20
231.6093
 11
-20.6186
 21
231.6127
  0
LINE
  8
LAYER_2
 10
-20.6186
 20
231.6127
 11
-20.6385
 21
231.6156
  0
LINE
  8
LAYER_2
 10
-20.6385
 20
231.6156
 11
-20.6595
 21
231.6181
  0
LINE
  8
LAYER_2
 10
-20.6595
 20
231.6181
 11
-20.6812
 21
231.6201
  0
LINE
  8
LAYER_2
 10
-20.6812
 20
231.6201
 11
-20.7036
 21
231.6215
  0
LINE
  8
LAYER_2
 10
-20.7036
 20
231.6215
 11
-20.7257
 21
231.6224
  0
LINE
  8
LAYER_2
 10
-20.7257
 20
231.6224
 11
-20.7477
 21
231.6229
  0
LINE
  8
LAYER_2
 10
-20.5025
 20
231.558
 11
-20.5038
 21
231.564
  0
LINE
  8
LAYER_2
 10
-20.5038
 20
231.564
 11
-20.5066
 21
231.5699
  0
LINE
  8
LAYER_2
 10
-20.5066
 20
231.5699
 11
-20.5121
 21
231.5757
  0
LINE
  8
LAYER_2
 10
-20.5121
 20
231.5757
 11
-20.5193
 21
231.5814
  0
LINE
  8
LAYER_2
 10
-20.5193
 20
231.5814
 11
-20.5286
 21
231.5867
  0
LINE
  8
LAYER_2
 10
-20.5286
 20
231.5867
 11
-20.5397
 21
231.5919
  0
LINE
  8
LAYER_2
 10
-20.5397
 20
231.5919
 11
-20.5521
 21
231.5967
  0
LINE
  8
LAYER_2
 10
-20.5521
 20
230.5794
 11
-20.5397
 21
230.5842
  0
LINE
  8
LAYER_2
 10
-20.5397
 20
230.5842
 11
-20.5286
 21
230.5894
  0
LINE
  8
LAYER_2
 10
-20.5286
 20
230.5894
 11
-20.5193
 21
230.5949
  0
LINE
  8
LAYER_2
 10
-20.5193
 20
230.5949
 11
-20.5121
 21
230.6004
  0
LINE
  8
LAYER_2
 10
-20.5121
 20
230.6004
 11
-20.5066
 21
230.6064
  0
LINE
  8
LAYER_2
 10
-20.5066
 20
230.6064
 11
-20.5038
 21
230.6121
  0
LINE
  8
LAYER_2
 10
-20.5038
 20
230.6121
 11
-20.5025
 21
230.618
  0
LINE
  8
LAYER_2
 10
-25.7049
 20
230.5561
 11
-25.6804
 21
230.5544
  0
LINE
  8
LAYER_2
 10
-25.6804
 20
230.5544
 11
-25.6556
 21
230.5535
  0
LINE
  8
LAYER_2
 10
-25.6556
 20
230.5535
 11
-25.6308
 21
230.5532
  0
LINE
  8
LAYER_2
 10
-20.6492
 20
256.8878
 11
-20.9221
 21
256.8102
  0
LINE
  8
LAYER_2
 10
-20.9221
 20
256.8102
 11
-21.2063
 21
256.7413
  0
LINE
  8
LAYER_2
 10
-21.2063
 20
256.7413
 11
-21.5019
 21
256.6811
  0
LINE
  8
LAYER_2
 10
-21.5019
 20
256.6811
 11
-21.8095
 21
256.6307
  0
LINE
  8
LAYER_2
 10
-21.8095
 20
256.6307
 11
-21.9418
 21
256.6126
  0
LINE
  8
LAYER_2
 10
-20.7402
 20
232.0794
 11
-20.7339
 21
233.8851
  0
LINE
  8
LAYER_2
 10
-20.7339
 20
233.8851
 11
-20.7105
 21
240.2172
  0
LINE
  8
LAYER_2
 10
-20.7105
 20
240.2172
 11
-20.6802
 21
248.4853
  0
LINE
  8
LAYER_2
 10
-20.6802
 20
248.4853
 11
-20.6492
 21
256.8878
  0
LINE
  8
LAYER_2
 10
-25.6432
 20
232.0794
 11
-25.6494
 21
233.8851
  0
LINE
  8
LAYER_2
 10
-25.6494
 20
233.8851
 11
-25.6728
 21
240.2229
  0
LINE
  8
LAYER_2
 10
-25.6728
 20
240.2229
 11
-25.7032
 21
248.4966
  0
LINE
  8
LAYER_2
 10
-25.7032
 20
248.4966
 11
-25.7342
 21
256.9053
  0
LINE
  8
LAYER_2
 10
-24.4416
 20
256.6193
 11
-24.5329
 21
256.6326
  0
LINE
  8
LAYER_2
 10
-24.5329
 20
256.6326
 11
-24.8453
 21
256.6851
  0
LINE
  8
LAYER_2
 10
-24.8453
 20
256.6851
 11
-25.1499
 21
256.7485
  0
LINE
  8
LAYER_2
 10
-25.1499
 20
256.7485
 11
-25.4462
 21
256.8219
  0
LINE
  8
LAYER_2
 10
-25.4462
 20
256.8219
 11
-25.7342
 21
256.9053
  0
LINE
  8
LAYER_2
 10
-25.7342
 20
256.9053
 11
-25.7714
 21
256.976
  0
LINE
  8
LAYER_2
 10
-25.7714
 20
256.976
 11
-25.8093
 21
257.0579
  0
LINE
  8
LAYER_2
 10
-25.8093
 20
257.0579
 11
-25.8479
 21
257.1519
  0
LINE
  8
LAYER_2
 10
-25.8479
 20
257.1519
 11
-25.8872
 21
257.2589
  0
LINE
  8
LAYER_2
 10
-25.8872
 20
257.2589
 11
-25.9271
 21
257.3798
  0
LINE
  8
LAYER_2
 10
-25.9271
 20
257.3798
 11
-25.9678
 21
257.5157
  0
LINE
  8
LAYER_2
 10
-25.9678
 20
257.5157
 11
-26.0091
 21
257.6688
  0
LINE
  8
LAYER_2
 10
-26.0091
 20
257.6688
 11
-26.0508
 21
257.8399
  0
LINE
  8
LAYER_2
 10
-26.0508
 20
257.8399
 11
-26.0928
 21
258.0308
  0
LINE
  8
LAYER_2
 10
-26.0928
 20
258.0308
 11
-26.1359
 21
258.2452
  0
LINE
  8
LAYER_2
 10
-26.1359
 20
258.2452
 11
-26.1758
 21
258.4662
  0
LINE
  8
LAYER_2
 10
-26.1758
 20
258.4662
 11
-26.2082
 21
258.666
  0
LINE
  8
LAYER_2
 10
-26.2082
 20
258.666
 11
-26.2351
 21
258.8421
  0
LINE
  8
LAYER_2
 10
-26.2351
 20
258.8421
 11
-26.2571
 21
258.9988
  0
LINE
  8
LAYER_2
 10
-26.2571
 20
258.9988
 11
-26.2757
 21
259.1392
  0
LINE
  8
LAYER_2
 10
-26.2757
 20
259.1392
 11
-26.2913
 21
259.2651
  0
LINE
  8
LAYER_2
 10
-26.2913
 20
259.2651
 11
-26.3043
 21
259.3781
  0
LINE
  8
LAYER_2
 10
-26.3043
 20
259.3781
 11
-26.3154
 21
259.4791
  0
LINE
  8
LAYER_2
 10
-26.3154
 20
259.4791
 11
-26.3247
 21
259.5695
  0
LINE
  8
LAYER_2
 10
-26.3247
 20
259.5695
 11
-26.3323
 21
259.6499
  0
LINE
  8
LAYER_2
 10
-26.3323
 20
259.6499
 11
-26.3391
 21
259.7219
  0
LINE
  8
LAYER_2
 10
-26.3391
 20
259.7219
 11
-26.3446
 21
259.7857
  0
LINE
  8
LAYER_2
 10
-26.3446
 20
259.7857
 11
-26.3488
 21
259.8424
  0
LINE
  8
LAYER_2
 10
-26.3488
 20
259.8424
 11
-26.3522
 21
259.8921
  0
LINE
  8
LAYER_2
 10
-26.3522
 20
259.8921
 11
-26.355
 21
259.9359
  0
LINE
  8
LAYER_2
 10
-26.355
 20
259.9359
 11
-26.3571
 21
259.974
  0
LINE
  8
LAYER_2
 10
-26.3571
 20
259.974
 11
-26.3581
 21
260.0062
  0
LINE
  8
LAYER_2
 10
-26.3581
 20
260.0062
 11
-26.3584
 21
260.0332
  0
ARC
  8
LAYER_2
 10
-23.0716
 20
265.2222
 40
4.7573
 50
181.0433622
 51
249.1157247
  0
ARC
  8
LAYER_2
 10
-23.1966
 20
265.1355
 40
4.6315
 50
89.99888853
 51
179.9986373
  0
ARC
  8
LAYER_2
 10
-23.1966
 20
265.1357
 40
4.6313
 50
359.9990706
 51
89.99845507
  0
ARC
  8
LAYER_2
 10
-23.3155
 20
265.2179
 40
4.7509
 50
290.756377
 51
359.0079231
  0
LINE
  8
LAYER_2
 10
58.2452
 20
174.3483
 11
70.2448
 21
174.3483
  0
LINE
  8
LAYER_2
 10
70.9604
 20
221.0983
 11
82.3746
 21
221.0983
  0
LINE
  8
LAYER_2
 10
8.8284
 20
174.3483
 11
57.0904
 21
174.3483
  0
LINE
  8
LAYER_2
 10
23.7074
 20
204.1829
 11
33.8646
 21
204.1829
  0
LINE
  8
LAYER_2
 10
16.2994
 20
204.8483
 11
30.1294
 21
204.8483
  0
LINE
  8
LAYER_2
 10
8.8139
 20
228.0984
 11
49.5077
 21
228.0984
  0
LINE
  8
LAYER_2
 10
70.2448
 20
175.0984
 11
58.2452
 21
175.0984
  0
LINE
  8
LAYER_2
 10
69.9947
 20
175.3481
 11
58.495
 21
175.3481
  0
LINE
  8
LAYER_2
 10
59.3077
 20
175.4732
 11
69.1823
 21
175.4732
  0
LINE
  8
LAYER_2
 10
70.2448
 20
175.0984
 11
70.2448
 21
174.3483
  0
LINE
  8
LAYER_2
 10
69.4197
 20
195.8978
 11
69.4197
 21
196.7976
  0
LINE
  8
LAYER_2
 10
69.2199
 20
197.1976
 11
69.2199
 21
195.4978
  0
LINE
  8
LAYER_2
 10
69.1823
 20
179.8543
 11
69.1823
 21
195.4103
  0
LINE
  8
LAYER_2
 10
69.1823
 20
175.4732
 11
69.1823
 21
178.5882
  0
LINE
  8
LAYER_2
 10
69.1823
 20
197.2855
 11
69.1823
 21
218.818
  0
LINE
  8
LAYER_2
 10
69.1823
 20
219.1732
 11
69.1823
 21
220.7982
  0
LINE
  8
LAYER_2
 10
69.1448
 20
197.0619
 11
69.1448
 21
195.6335
  0
LINE
  8
LAYER_2
 10
67.3985
 20
178.5982
 11
69.6416
 21
178.5982
  0
LINE
  8
LAYER_2
 10
68.2746
 20
219.0984
 11
68.2746
 21
218.9431
  0
LINE
  8
LAYER_2
 10
66.9179
 20
179.8481
 11
69.6416
 21
179.8481
  0
LINE
  8
LAYER_2
 10
60.2155
 20
219.0984
 11
60.2155
 21
218.9431
  0
LINE
  8
LAYER_2
 10
59.5964
 20
219.3985
 11
59.5964
 21
220.7982
  0
LINE
  8
LAYER_2
 10
59.3077
 20
208.2343
 11
59.3077
 21
218.818
  0
LINE
  8
LAYER_2
 10
59.0079
 20
219.3985
 11
59.0079
 21
221.0983
  0
LINE
  8
LAYER_2
 10
59.3077
 20
175.4732
 11
59.3077
 21
195.1722
  0
LINE
  8
LAYER_2
 10
59.3077
 20
195.1722
 11
59.3063
 21
195.2797
  0
LINE
  8
LAYER_2
 10
59.3063
 20
195.2797
 11
59.3025
 21
195.3944
  0
LINE
  8
LAYER_2
 10
59.3025
 20
195.3944
 11
59.2959
 21
195.5088
  0
LINE
  8
LAYER_2
 10
59.2959
 20
195.5088
 11
59.2866
 21
195.6229
  0
LINE
  8
LAYER_2
 10
59.2866
 20
195.6229
 11
59.2749
 21
195.7369
  0
LINE
  8
LAYER_2
 10
59.2749
 20
195.7369
 11
59.2605
 21
195.8506
  0
LINE
  8
LAYER_2
 10
59.2605
 20
195.8506
 11
59.2432
 21
195.9639
  0
LINE
  8
LAYER_2
 10
59.2432
 20
195.9639
 11
59.2236
 21
196.0769
  0
LINE
  8
LAYER_2
 10
59.2236
 20
196.0769
 11
59.2012
 21
196.1892
  0
LINE
  8
LAYER_2
 10
59.2012
 20
196.1892
 11
59.1761
 21
196.3012
  0
LINE
  8
LAYER_2
 10
59.1761
 20
196.3012
 11
59.1485
 21
196.4121
  0
LINE
  8
LAYER_2
 10
59.1485
 20
196.4121
 11
59.1182
 21
196.5227
  0
LINE
  8
LAYER_2
 10
59.1182
 20
196.5227
 11
59.0854
 21
196.6326
  0
LINE
  8
LAYER_2
 10
59.0854
 20
196.6326
 11
59.0503
 21
196.7418
  0
LINE
  8
LAYER_2
 10
59.0503
 20
196.7418
 11
59.0124
 21
196.85
  0
LINE
  8
LAYER_2
 10
59.0124
 20
196.85
 11
58.9721
 21
196.9571
  0
LINE
  8
LAYER_2
 10
58.9721
 20
196.9571
 11
58.9294
 21
197.0636
  0
LINE
  8
LAYER_2
 10
58.9294
 20
197.0636
 11
58.8839
 21
197.1687
  0
LINE
  8
LAYER_2
 10
58.8839
 20
197.1687
 11
58.8364
 21
197.273
  0
LINE
  8
LAYER_2
 10
58.8364
 20
197.273
 11
58.7864
 21
197.3761
  0
LINE
  8
LAYER_2
 10
58.7864
 20
197.3761
 11
58.7337
 21
197.4777
  0
LINE
  8
LAYER_2
 10
58.7337
 20
197.4777
 11
58.6789
 21
197.5783
  0
LINE
  8
LAYER_2
 10
58.6789
 20
197.5783
 11
58.6218
 21
197.6779
  0
LINE
  8
LAYER_2
 10
58.6218
 20
197.6779
 11
58.5621
 21
197.7757
  0
LINE
  8
LAYER_2
 10
58.5621
 20
197.7757
 11
58.5005
 21
197.8722
  0
LINE
  8
LAYER_2
 10
58.5005
 20
197.8722
 11
58.4364
 21
197.9672
  0
LINE
  8
LAYER_2
 10
58.4364
 20
197.9672
 11
58.3703
 21
198.0609
  0
LINE
  8
LAYER_2
 10
58.3703
 20
198.0609
 11
58.302
 21
198.1529
  0
LINE
  8
LAYER_2
 10
58.302
 20
198.1529
 11
58.2314
 21
198.2435
  0
LINE
  8
LAYER_2
 10
58.2314
 20
198.2435
 11
58.1591
 21
198.3321
  0
LINE
  8
LAYER_2
 10
58.1591
 20
198.3321
 11
58.0846
 21
198.4192
  0
LINE
  8
LAYER_2
 10
58.0846
 20
198.4192
 11
58.0078
 21
198.5043
  0
LINE
  8
LAYER_2
 10
58.0078
 20
198.5043
 11
57.9293
 21
198.5877
  0
LINE
  8
LAYER_2
 10
57.9293
 20
198.5877
 11
57.849
 21
198.6693
  0
LINE
  8
LAYER_2
 10
57.849
 20
198.6693
 11
57.7663
 21
198.7489
  0
LINE
  8
LAYER_2
 10
57.7663
 20
198.7489
 11
57.6823
 21
198.8268
  0
LINE
  8
LAYER_2
 10
57.6823
 20
198.8268
 11
57.5965
 21
198.9026
  0
LINE
  8
LAYER_2
 10
57.5965
 20
198.9026
 11
57.5086
 21
198.9763
  0
LINE
  8
LAYER_2
 10
57.5086
 20
198.9763
 11
57.4194
 21
199.048
  0
LINE
  8
LAYER_2
 10
57.4194
 20
199.048
 11
57.3285
 21
199.1175
  0
LINE
  8
LAYER_2
 10
57.3285
 20
199.1175
 11
57.2354
 21
199.1851
  0
LINE
  8
LAYER_2
 10
57.2354
 20
199.1851
 11
57.1414
 21
199.2505
  0
LINE
  8
LAYER_2
 10
57.1414
 20
199.2505
 11
57.0456
 21
199.3136
  0
LINE
  8
LAYER_2
 10
57.0456
 20
199.3136
 11
56.9488
 21
199.3746
  0
LINE
  8
LAYER_2
 10
56.9488
 20
199.3746
 11
56.8503
 21
199.4328
  0
LINE
  8
LAYER_2
 10
56.8503
 20
199.4328
 11
56.7504
 21
199.4893
  0
LINE
  8
LAYER_2
 10
56.7504
 20
199.4893
 11
56.6491
 21
199.543
  0
LINE
  8
LAYER_2
 10
56.6491
 20
199.543
 11
56.5467
 21
199.5947
  0
LINE
  8
LAYER_2
 10
56.5467
 20
199.5947
 11
56.4431
 21
199.644
  0
LINE
  8
LAYER_2
 10
56.4431
 20
199.644
 11
56.3387
 21
199.6905
  0
LINE
  8
LAYER_2
 10
56.3387
 20
199.6905
 11
56.2329
 21
199.7349
  0
LINE
  8
LAYER_2
 10
56.2329
 20
199.7349
 11
56.1261
 21
199.7766
  0
LINE
  8
LAYER_2
 10
56.1261
 20
199.7766
 11
56.0186
 21
199.8159
  0
LINE
  8
LAYER_2
 10
56.0186
 20
199.8159
 11
55.9101
 21
199.8527
  0
LINE
  8
LAYER_2
 10
55.9101
 20
199.8527
 11
55.8009
 21
199.8868
  0
LINE
  8
LAYER_2
 10
55.8009
 20
199.8868
 11
55.7141
 21
199.912
  0
LINE
  8
LAYER_2
 10
58.2452
 20
175.0984
 11
58.2452
 21
174.3483
  0
LINE
  8
LAYER_2
 10
29.9262
 20
207.023
 11
32.7518
 21
206.2441
  0
LINE
  8
LAYER_2
 10
33.2231
 20
206.1139
 11
56.103
 21
199.8052
  0
LINE
  8
LAYER_2
 10
30.0895
 20
207.6263
 11
58.815
 21
199.7056
  0
LINE
  8
LAYER_2
 10
29.7284
 20
207.7231
 11
30.0895
 21
207.6263
  0
LINE
  8
LAYER_2
 10
45.2455
 20
219.0984
 11
45.2455
 21
221.0983
  0
LINE
  8
LAYER_2
 10
44.9954
 20
219.3482
 11
44.9954
 21
220.8482
  0
LINE
  8
LAYER_2
 10
30.6686
 20
211.2315
 11
31.0296
 21
211.1351
  0
LINE
  8
LAYER_2
 10
31.196
 20
211.7621
 11
55.6462
 21
205.4031
  0
LINE
  8
LAYER_2
 10
55.6462
 20
205.4031
 11
55.7175
 21
205.3856
  0
LINE
  8
LAYER_2
 10
55.7175
 20
205.3856
 11
55.7943
 21
205.3687
  0
LINE
  8
LAYER_2
 10
55.7943
 20
205.3687
 11
55.8715
 21
205.3542
  0
LINE
  8
LAYER_2
 10
55.8715
 20
205.3542
 11
55.949
 21
205.3411
  0
LINE
  8
LAYER_2
 10
55.949
 20
205.3411
 11
56.0272
 21
205.3308
  0
LINE
  8
LAYER_2
 10
56.0272
 20
205.3308
 11
56.1055
 21
205.3222
  0
LINE
  8
LAYER_2
 10
56.1055
 20
205.3222
 11
56.184
 21
205.3156
  0
LINE
  8
LAYER_2
 10
56.184
 20
205.3156
 11
56.2626
 21
205.3115
  0
LINE
  8
LAYER_2
 10
56.2626
 20
205.3115
 11
56.3411
 21
205.3094
  0
LINE
  8
LAYER_2
 10
56.3411
 20
205.3094
 11
56.4196
 21
205.3094
  0
LINE
  8
LAYER_2
 10
56.4196
 20
205.3094
 11
56.4982
 21
205.3115
  0
LINE
  8
LAYER_2
 10
56.4982
 20
205.3115
 11
56.5767
 21
205.3156
  0
LINE
  8
LAYER_2
 10
56.5767
 20
205.3156
 11
56.6553
 21
205.3218
  0
LINE
  8
LAYER_2
 10
56.6553
 20
205.3218
 11
56.7335
 21
205.3301
  0
LINE
  8
LAYER_2
 10
56.7335
 20
205.3301
 11
56.8113
 21
205.3408
  0
LINE
  8
LAYER_2
 10
56.8113
 20
205.3408
 11
56.8892
 21
205.3532
  0
LINE
  8
LAYER_2
 10
56.8892
 20
205.3532
 11
56.9664
 21
205.368
  0
LINE
  8
LAYER_2
 10
56.9664
 20
205.368
 11
57.0435
 21
205.3845
  0
LINE
  8
LAYER_2
 10
57.0435
 20
205.3845
 11
57.1197
 21
205.4035
  0
LINE
  8
LAYER_2
 10
57.1197
 20
205.4035
 11
57.1955
 21
205.4245
  0
LINE
  8
LAYER_2
 10
57.1955
 20
205.4245
 11
57.2709
 21
205.4472
  0
LINE
  8
LAYER_2
 10
57.2709
 20
205.4472
 11
57.3453
 21
205.472
  0
LINE
  8
LAYER_2
 10
57.3453
 20
205.472
 11
57.4194
 21
205.4989
  0
LINE
  8
LAYER_2
 10
57.4194
 20
205.4989
 11
57.4924
 21
205.5278
  0
LINE
  8
LAYER_2
 10
57.4924
 20
205.5278
 11
57.5648
 21
205.5588
  0
LINE
  8
LAYER_2
 10
57.5648
 20
205.5588
 11
57.6364
 21
205.5916
  0
LINE
  8
LAYER_2
 10
57.6364
 20
205.5916
 11
57.7071
 21
205.6261
  0
LINE
  8
LAYER_2
 10
57.7071
 20
205.6261
 11
57.777
 21
205.6629
  0
LINE
  8
LAYER_2
 10
57.777
 20
205.6629
 11
57.8456
 21
205.7011
  0
LINE
  8
LAYER_2
 10
57.8456
 20
205.7011
 11
57.9131
 21
205.7414
  0
LINE
  8
LAYER_2
 10
57.9131
 20
205.7414
 11
57.9796
 21
205.7835
  0
LINE
  8
LAYER_2
 10
57.9796
 20
205.7835
 11
58.045
 21
205.8272
  0
LINE
  8
LAYER_2
 10
58.045
 20
205.8272
 11
58.1088
 21
205.873
  0
LINE
  8
LAYER_2
 10
58.1088
 20
205.873
 11
58.1718
 21
205.9202
  0
LINE
  8
LAYER_2
 10
58.1718
 20
205.9202
 11
58.2335
 21
205.9692
  0
LINE
  8
LAYER_2
 10
58.2335
 20
205.9692
 11
58.2938
 21
206.0198
  0
LINE
  8
LAYER_2
 10
58.2938
 20
206.0198
 11
58.3527
 21
206.0718
  0
LINE
  8
LAYER_2
 10
58.3527
 20
206.0718
 11
58.4099
 21
206.1259
  0
LINE
  8
LAYER_2
 10
58.4099
 20
206.1259
 11
58.466
 21
206.181
  0
LINE
  8
LAYER_2
 10
58.466
 20
206.181
 11
58.5205
 21
206.2379
  0
LINE
  8
LAYER_2
 10
58.5205
 20
206.2379
 11
58.5732
 21
206.2961
  0
LINE
  8
LAYER_2
 10
58.5732
 20
206.2961
 11
58.6245
 21
206.3557
  0
LINE
  8
LAYER_2
 10
58.6245
 20
206.3557
 11
58.6745
 21
206.4167
  0
LINE
  8
LAYER_2
 10
58.6745
 20
206.4167
 11
58.7223
 21
206.479
  0
LINE
  8
LAYER_2
 10
58.7223
 20
206.479
 11
58.7689
 21
206.5424
  0
LINE
  8
LAYER_2
 10
58.7689
 20
206.5424
 11
58.8133
 21
206.6072
  0
LINE
  8
LAYER_2
 10
58.8133
 20
206.6072
 11
58.8563
 21
206.6733
  0
LINE
  8
LAYER_2
 10
58.8563
 20
206.6733
 11
58.8973
 21
206.7402
  0
LINE
  8
LAYER_2
 10
58.8973
 20
206.7402
 11
58.9366
 21
206.8084
  0
LINE
  8
LAYER_2
 10
58.9366
 20
206.8084
 11
58.9742
 21
206.8776
  0
LINE
  8
LAYER_2
 10
58.9742
 20
206.8776
 11
59.0093
 21
206.9479
  0
LINE
  8
LAYER_2
 10
59.0093
 20
206.9479
 11
59.0431
 21
207.0189
  0
LINE
  8
LAYER_2
 10
59.0431
 20
207.0189
 11
59.0751
 21
207.0909
  0
LINE
  8
LAYER_2
 10
59.0751
 20
207.0909
 11
59.1047
 21
207.1639
  0
LINE
  8
LAYER_2
 10
59.1047
 20
207.1639
 11
59.1326
 21
207.2373
  0
LINE
  8
LAYER_2
 10
59.1326
 20
207.2373
 11
59.1585
 21
207.3117
  0
LINE
  8
LAYER_2
 10
59.1585
 20
207.3117
 11
59.1819
 21
207.3868
  0
LINE
  8
LAYER_2
 10
59.1819
 20
207.3868
 11
59.2036
 21
207.4623
  0
LINE
  8
LAYER_2
 10
59.2036
 20
207.4623
 11
59.2236
 21
207.5384
  0
LINE
  8
LAYER_2
 10
59.2236
 20
207.5384
 11
59.2412
 21
207.6152
  0
LINE
  8
LAYER_2
 10
59.2412
 20
207.6152
 11
59.2567
 21
207.6924
  0
LINE
  8
LAYER_2
 10
59.2567
 20
207.6924
 11
59.2704
 21
207.7699
  0
LINE
  8
LAYER_2
 10
59.2704
 20
207.7699
 11
59.2818
 21
207.8474
  0
LINE
  8
LAYER_2
 10
59.2818
 20
207.8474
 11
59.2911
 21
207.9256
  0
LINE
  8
LAYER_2
 10
59.2911
 20
207.9256
 11
59.2983
 21
208.0042
  0
LINE
  8
LAYER_2
 10
59.2983
 20
208.0042
 11
59.3035
 21
208.0827
  0
LINE
  8
LAYER_2
 10
59.3035
 20
208.0827
 11
59.3066
 21
208.1613
  0
LINE
  8
LAYER_2
 10
59.3066
 20
208.1613
 11
59.3077
 21
208.2343
  0
LINE
  8
LAYER_2
 10
69.1823
 20
218.818
 11
59.3077
 21
218.818
  0
LINE
  8
LAYER_2
 10
69.0573
 20
218.9431
 11
59.4327
 21
218.9431
  0
LINE
  8
LAYER_2
 10
69.1072
 20
219.0984
 11
45.2455
 21
219.0984
  0
LINE
  8
LAYER_2
 10
69.1823
 20
219.1732
 11
59.5878
 21
219.1732
  0
LINE
  8
LAYER_2
 10
59.5964
 20
219.3985
 11
44.9954
 21
219.3985
  0
LINE
  8
LAYER_2
 10
69.1823
 20
220.7982
 11
44.9954
 21
220.7982
  0
LINE
  8
LAYER_2
 10
31.196
 20
211.7621
 11
31.1898
 21
211.739
  0
LINE
  8
LAYER_2
 10
31.0296
 20
211.1351
 11
30.0895
 21
207.6263
  0
LINE
  8
LAYER_2
 10
30.7395
 20
211.4965
 11
29.6636
 21
207.4816
  0
LINE
  8
LAYER_2
 10
68.8823
 20
221.0983
 11
45.2455
 21
221.0983
  0
LINE
  8
LAYER_2
 10
59.5964
 20
219.3985
 11
59.5878
 21
219.1732
  0
ARC
  8
LAYER_2
 10
68.9196
 20
195.8977
 40
0.5001
 50
306.9060452
 51
0.009698243029
  0
ARC
  8
LAYER_2
 10
68.9196
 20
196.7977
 40
0.5001
 50
359.9907316
 51
53.09352493
  0
ARC
  8
LAYER_2
 10
31.1015
 20
211.3994
 40
0.3748
 50
75.4030284
 51
164.9802175
  0
ARC
  8
LAYER_2
 10
30.0434
 20
207.3946
 40
0.3896
 50
167.094574
 51
252.497392
  0
ARC
  8
LAYER_2
 10
31.1055
 20
211.3591
 40
0.3892
 50
77.48962591
 51
162.9607845
  0
ARC
  8
LAYER_2
 10
68.8823
 20
220.7983
 40
0.3
 50
359.9903021
 51
89.99060246
  0
ARC
  8
LAYER_2
 10
58.495
 20
175.0983
 40
0.2498
 50
89.98979094
 51
179.9872678
  0
ARC
  8
LAYER_2
 10
69.9855
 20
175.0887
 40
0.2595
 50
2.13115873
 51
87.96055117
  0
ARC
  8
LAYER_2
 10
45.2455
 20
220.8482
 40
0.2501
 50
89.99780365
 51
180.0021964
  0
ARC
  8
LAYER_2
 10
45.255
 20
219.358
 40
0.2597
 50
182.1546172
 51
267.9141515
  0
LINE
  8
LAYER_2
 10
69.2199
 20
195.4978
 11
69.1703
 21
195.4754
  0
LINE
  8
LAYER_2
 10
69.1703
 20
197.22
 11
69.2199
 21
197.1976
  0
ARC
  8
LAYER_2
 10
69.0572
 20
175.4732
 40
0.1251
 50
270.0247091
 51
0.02110915837
  0
ARC
  8
LAYER_2
 10
59.4327
 20
175.4731
 40
0.125
 50
179.9763655
 51
269.9778162
  0
ARC
  8
LAYER_2
 10
69.0572
 20
218.818
 40
0.1251
 50
359.9846088
 51
89.96957292
  0
ARC
  8
LAYER_2
 10
59.4328
 20
218.818
 40
0.1251
 50
90.02790279
 51
180.0179155
  0
ARC
  8
LAYER_2
 10
69.1046
 20
219.1761
 40
0.0777
 50
271.8986328
 51
357.8720315
  0
LINE
  8
LAYER_2
 10
33.2231
 20
206.1139
 11
33.1053
 21
206.1466
  0
LINE
  8
LAYER_2
 10
33.1053
 20
206.1466
 11
32.9875
 21
206.179
  0
LINE
  8
LAYER_2
 10
32.9875
 20
206.179
 11
32.8693
 21
206.2117
  0
LINE
  8
LAYER_2
 10
32.8693
 20
206.2117
 11
32.7518
 21
206.2441
  0
LINE
  8
LAYER_2
 10
69.1823
 20
197.2855
 11
69.182
 21
197.283
  0
LINE
  8
LAYER_2
 10
69.182
 20
197.283
 11
69.1803
 21
197.2758
  0
LINE
  8
LAYER_2
 10
69.1803
 20
197.2758
 11
69.1782
 21
197.2641
  0
LINE
  8
LAYER_2
 10
69.1782
 20
197.2641
 11
69.1755
 21
197.2476
  0
LINE
  8
LAYER_2
 10
69.1755
 20
197.2476
 11
69.1716
 21
197.2266
  0
LINE
  8
LAYER_2
 10
69.1716
 20
197.2266
 11
69.1672
 21
197.201
  0
LINE
  8
LAYER_2
 10
69.1672
 20
197.201
 11
69.162
 21
197.1711
  0
LINE
  8
LAYER_2
 10
69.162
 20
197.1711
 11
69.1565
 21
197.137
  0
LINE
  8
LAYER_2
 10
69.1565
 20
197.137
 11
69.1503
 21
197.0987
  0
LINE
  8
LAYER_2
 10
69.1503
 20
197.0987
 11
69.1441
 21
197.0567
  0
LINE
  8
LAYER_2
 10
69.1441
 20
197.0567
 11
69.1376
 21
197.0105
  0
LINE
  8
LAYER_2
 10
69.1376
 20
197.0105
 11
69.131
 21
196.9613
  0
LINE
  8
LAYER_2
 10
69.131
 20
196.9613
 11
69.1248
 21
196.9089
  0
LINE
  8
LAYER_2
 10
69.1248
 20
196.9089
 11
69.1189
 21
196.8535
  0
LINE
  8
LAYER_2
 10
69.1189
 20
196.8535
 11
69.1131
 21
196.7959
  0
LINE
  8
LAYER_2
 10
69.1131
 20
196.7959
 11
69.1079
 21
196.7356
  0
LINE
  8
LAYER_2
 10
69.1079
 20
196.7356
 11
69.1034
 21
196.6736
  0
LINE
  8
LAYER_2
 10
69.1034
 20
196.6736
 11
69.0996
 21
196.6102
  0
LINE
  8
LAYER_2
 10
69.0996
 20
196.6102
 11
69.0966
 21
196.5458
  0
LINE
  8
LAYER_2
 10
69.0966
 20
196.5458
 11
69.0941
 21
196.4803
  0
LINE
  8
LAYER_2
 10
69.0941
 20
196.4803
 11
69.0928
 21
196.4142
  0
LINE
  8
LAYER_2
 10
69.0928
 20
196.4142
 11
69.0924
 21
196.3477
  0
LINE
  8
LAYER_2
 10
69.0924
 20
196.3477
 11
69.0928
 21
196.2816
  0
LINE
  8
LAYER_2
 10
69.0928
 20
196.2816
 11
69.0941
 21
196.2154
  0
LINE
  8
LAYER_2
 10
69.0941
 20
196.2154
 11
69.0966
 21
196.1496
  0
LINE
  8
LAYER_2
 10
69.0966
 20
196.1496
 11
69.0996
 21
196.0852
  0
LINE
  8
LAYER_2
 10
69.0996
 20
196.0852
 11
69.1034
 21
196.0218
  0
LINE
  8
LAYER_2
 10
69.1034
 20
196.0218
 11
69.1079
 21
195.9598
  0
LINE
  8
LAYER_2
 10
69.1079
 20
195.9598
 11
69.1131
 21
195.8998
  0
LINE
  8
LAYER_2
 10
69.1131
 20
195.8998
 11
69.1189
 21
195.842
  0
LINE
  8
LAYER_2
 10
69.1189
 20
195.842
 11
69.1248
 21
195.7868
  0
LINE
  8
LAYER_2
 10
69.1248
 20
195.7868
 11
69.131
 21
195.7341
  0
LINE
  8
LAYER_2
 10
69.131
 20
195.7341
 11
69.1376
 21
195.6849
  0
LINE
  8
LAYER_2
 10
69.1376
 20
195.6849
 11
69.1441
 21
195.6391
  0
LINE
  8
LAYER_2
 10
69.1441
 20
195.6391
 11
69.1503
 21
195.5967
  0
LINE
  8
LAYER_2
 10
69.1503
 20
195.5967
 11
69.1565
 21
195.5584
  0
LINE
  8
LAYER_2
 10
69.1565
 20
195.5584
 11
69.162
 21
195.5243
  0
LINE
  8
LAYER_2
 10
69.162
 20
195.5243
 11
69.1672
 21
195.4943
  0
LINE
  8
LAYER_2
 10
69.1672
 20
195.4943
 11
69.1716
 21
195.4689
  0
LINE
  8
LAYER_2
 10
69.1716
 20
195.4689
 11
69.1755
 21
195.4478
  0
LINE
  8
LAYER_2
 10
69.1755
 20
195.4478
 11
69.1782
 21
195.4313
  0
LINE
  8
LAYER_2
 10
69.1782
 20
195.4313
 11
69.1803
 21
195.4196
  0
LINE
  8
LAYER_2
 10
69.1803
 20
195.4196
 11
69.182
 21
195.4127
  0
LINE
  8
LAYER_2
 10
69.182
 20
195.4127
 11
69.1823
 21
195.4103
  0
LINE
  8
LAYER_2
 10
59.5819
 20
208.1651
 11
59.6112
 21
208.1534
  0
LINE
  8
LAYER_2
 10
59.6112
 20
208.1534
 11
59.6422
 21
208.1361
  0
LINE
  8
LAYER_2
 10
59.6422
 20
208.1361
 11
59.676
 21
208.1124
  0
LINE
  8
LAYER_2
 10
59.676
 20
208.1124
 11
59.7121
 21
208.0817
  0
LINE
  8
LAYER_2
 10
59.7121
 20
208.0817
 11
59.751
 21
208.0438
  0
LINE
  8
LAYER_2
 10
59.751
 20
208.0438
 11
59.7934
 21
207.9976
  0
LINE
  8
LAYER_2
 10
59.7934
 20
207.9976
 11
59.8389
 21
207.9428
  0
LINE
  8
LAYER_2
 10
59.8389
 20
207.9428
 11
59.8885
 21
207.8778
  0
LINE
  8
LAYER_2
 10
59.8885
 20
207.8778
 11
59.9416
 21
207.8023
  0
LINE
  8
LAYER_2
 10
59.9416
 20
207.8023
 11
59.9994
 21
207.7148
  0
LINE
  8
LAYER_2
 10
59.9994
 20
207.7148
 11
60.0614
 21
207.6142
  0
LINE
  8
LAYER_2
 10
60.0614
 20
207.6142
 11
60.1283
 21
207.4991
  0
LINE
  8
LAYER_2
 10
60.1283
 20
207.4991
 11
60.1999
 21
207.3689
  0
LINE
  8
LAYER_2
 10
60.1999
 20
207.3689
 11
60.2761
 21
207.2218
  0
LINE
  8
LAYER_2
 10
60.2761
 20
207.2218
 11
60.3567
 21
207.0578
  0
LINE
  8
LAYER_2
 10
60.3567
 20
207.0578
 11
60.4407
 21
206.8763
  0
LINE
  8
LAYER_2
 10
60.4407
 20
206.8763
 11
60.5276
 21
206.6775
  0
LINE
  8
LAYER_2
 10
60.5276
 20
206.6775
 11
60.6151
 21
206.4632
  0
LINE
  8
LAYER_2
 10
60.6151
 20
206.4632
 11
60.7022
 21
206.2344
  0
LINE
  8
LAYER_2
 10
60.7022
 20
206.2344
 11
60.7863
 21
205.9957
  0
LINE
  8
LAYER_2
 10
60.7863
 20
205.9957
 11
60.8655
 21
205.75
  0
LINE
  8
LAYER_2
 10
60.8655
 20
205.75
 11
60.9375
 21
205.5017
  0
LINE
  8
LAYER_2
 10
60.9375
 20
205.5017
 11
61.0016
 21
205.2536
  0
LINE
  8
LAYER_2
 10
61.0016
 20
205.2536
 11
61.0561
 21
205.0097
  0
LINE
  8
LAYER_2
 10
61.0561
 20
205.0097
 11
61.1015
 21
204.7706
  0
LINE
  8
LAYER_2
 10
61.1015
 20
204.7706
 11
61.1367
 21
204.5412
  0
LINE
  8
LAYER_2
 10
61.1367
 20
204.5412
 11
61.1618
 21
204.331
  0
LINE
  8
LAYER_2
 10
61.1618
 20
204.331
 11
61.1777
 21
204.1446
  0
LINE
  8
LAYER_2
 10
61.1777
 20
204.1446
 11
61.187
 21
203.9772
  0
LINE
  8
LAYER_2
 10
61.187
 20
203.9772
 11
61.1915
 21
203.8236
  0
LINE
  8
LAYER_2
 10
59.1437
 20
203.8208
 11
59.1385
 21
203.6596
  0
LINE
  8
LAYER_2
 10
59.1385
 20
203.6596
 11
59.1313
 21
203.4966
  0
LINE
  8
LAYER_2
 10
59.1313
 20
203.4966
 11
59.1227
 21
203.334
  0
LINE
  8
LAYER_2
 10
59.1227
 20
203.334
 11
59.1123
 21
203.1735
  0
LINE
  8
LAYER_2
 10
59.1123
 20
203.1735
 11
59.1006
 21
203.0136
  0
LINE
  8
LAYER_2
 10
59.1006
 20
203.0136
 11
59.0872
 21
202.8472
  0
LINE
  8
LAYER_2
 10
59.0872
 20
202.8472
 11
59.0717
 21
202.6653
  0
LINE
  8
LAYER_2
 10
59.0717
 20
202.6653
 11
59.0524
 21
202.46
  0
LINE
  8
LAYER_2
 10
59.0524
 20
202.46
 11
59.0293
 21
202.2275
  0
LINE
  8
LAYER_2
 10
59.0293
 20
202.2275
 11
59.0031
 21
201.9749
  0
LINE
  8
LAYER_2
 10
59.0031
 20
201.9749
 11
58.9752
 21
201.71
  0
LINE
  8
LAYER_2
 10
58.9752
 20
201.71
 11
58.9473
 21
201.4433
  0
LINE
  8
LAYER_2
 10
58.9473
 20
201.4433
 11
58.9215
 21
201.1881
  0
LINE
  8
LAYER_2
 10
58.9215
 20
201.1881
 11
58.8991
 21
200.9586
  0
LINE
  8
LAYER_2
 10
58.8991
 20
200.9586
 11
58.8808
 21
200.7581
  0
LINE
  8
LAYER_2
 10
58.8808
 20
200.7581
 11
58.8657
 21
200.5766
  0
LINE
  8
LAYER_2
 10
58.8657
 20
200.5766
 11
58.8526
 21
200.4036
  0
LINE
  8
LAYER_2
 10
58.8526
 20
200.4036
 11
58.8405
 21
200.2303
  0
LINE
  8
LAYER_2
 10
58.8405
 20
200.2303
 11
58.8298
 21
200.055
  0
LINE
  8
LAYER_2
 10
58.8298
 20
200.055
 11
58.8212
 21
199.8796
  0
LINE
  8
LAYER_2
 10
58.8212
 20
199.8796
 11
58.815
 21
199.7056
  0
LINE
  8
LAYER_2
 10
31.0296
 20
211.1351
 11
40.2615
 21
208.7332
  0
LINE
  8
LAYER_2
 10
40.2615
 20
208.7332
 11
49.629
 21
206.2961
  0
LINE
  8
LAYER_2
 10
49.629
 20
206.2961
 11
59.1437
 21
203.8208
  0
LINE
  8
LAYER_2
 10
58.7644
 20
219.0984
 11
58.7795
 21
219.0994
  0
LINE
  8
LAYER_2
 10
58.7795
 20
219.0994
 11
58.7968
 21
219.1036
  0
LINE
  8
LAYER_2
 10
58.7968
 20
219.1036
 11
58.8154
 21
219.1105
  0
LINE
  8
LAYER_2
 10
58.8154
 20
219.1105
 11
58.8353
 21
219.1201
  0
LINE
  8
LAYER_2
 10
58.8353
 20
219.1201
 11
58.8563
 21
219.1325
  0
LINE
  8
LAYER_2
 10
58.8563
 20
219.1325
 11
58.8777
 21
219.148
  0
LINE
  8
LAYER_2
 10
58.8777
 20
219.148
 11
58.8984
 21
219.1659
  0
LINE
  8
LAYER_2
 10
58.8984
 20
219.1659
 11
58.9184
 21
219.1856
  0
LINE
  8
LAYER_2
 10
58.9184
 20
219.1856
 11
58.9366
 21
219.2066
  0
LINE
  8
LAYER_2
 10
58.9366
 20
219.2066
 11
58.9525
 21
219.2283
  0
LINE
  8
LAYER_2
 10
58.9525
 20
219.2283
 11
58.9666
 21
219.2504
  0
LINE
  8
LAYER_2
 10
58.9666
 20
219.2504
 11
58.9783
 21
219.2724
  0
LINE
  8
LAYER_2
 10
58.9783
 20
219.2724
 11
58.988
 21
219.2941
  0
LINE
  8
LAYER_2
 10
58.988
 20
219.2941
 11
58.9955
 21
219.3158
  0
LINE
  8
LAYER_2
 10
58.9955
 20
219.3158
 11
59.0011
 21
219.3368
  0
LINE
  8
LAYER_2
 10
59.0011
 20
219.3368
 11
59.0048
 21
219.3579
  0
LINE
  8
LAYER_2
 10
59.0048
 20
219.3579
 11
59.0072
 21
219.3782
  0
LINE
  8
LAYER_2
 10
59.0072
 20
219.3782
 11
59.0079
 21
219.3985
  0
LINE
  8
LAYER_2
 10
59.5819
 20
208.1651
 11
59.5746
 21
208.0073
  0
LINE
  8
LAYER_2
 10
59.5746
 20
208.0073
 11
59.5595
 21
207.8499
  0
LINE
  8
LAYER_2
 10
59.5595
 20
207.8499
 11
59.5361
 21
207.6934
  0
LINE
  8
LAYER_2
 10
59.5361
 20
207.6934
 11
59.5051
 21
207.5384
  0
LINE
  8
LAYER_2
 10
59.5051
 20
207.5384
 11
59.4658
 21
207.3851
  0
LINE
  8
LAYER_2
 10
59.4658
 20
207.3851
 11
59.4193
 21
207.2339
  0
LINE
  8
LAYER_2
 10
59.4193
 20
207.2339
 11
59.3652
 21
207.0854
  0
LINE
  8
LAYER_2
 10
59.3652
 20
207.0854
 11
59.3035
 21
206.94
  0
LINE
  8
LAYER_2
 10
59.3035
 20
206.94
 11
59.2346
 21
206.798
  0
LINE
  8
LAYER_2
 10
59.2346
 20
206.798
 11
59.1588
 21
206.6603
  0
LINE
  8
LAYER_2
 10
59.1588
 20
206.6603
 11
59.0762
 21
206.5262
  0
LINE
  8
LAYER_2
 10
59.0762
 20
206.5262
 11
58.9869
 21
206.397
  0
LINE
  8
LAYER_2
 10
58.9869
 20
206.397
 11
58.8911
 21
206.273
  0
LINE
  8
LAYER_2
 10
58.8911
 20
206.273
 11
58.7895
 21
206.1542
  0
LINE
  8
LAYER_2
 10
58.7895
 20
206.1542
 11
58.682
 21
206.0412
  0
LINE
  8
LAYER_2
 10
58.682
 20
206.0412
 11
58.569
 21
205.934
  0
LINE
  8
LAYER_2
 10
58.569
 20
205.934
 11
58.4509
 21
205.8331
  0
LINE
  8
LAYER_2
 10
58.4509
 20
205.8331
 11
58.3279
 21
205.739
  0
LINE
  8
LAYER_2
 10
58.3279
 20
205.739
 11
58.2004
 21
205.6515
  0
LINE
  8
LAYER_2
 10
58.2004
 20
205.6515
 11
58.0688
 21
205.5713
  0
LINE
  8
LAYER_2
 10
58.0688
 20
205.5713
 11
57.9334
 21
205.4982
  0
LINE
  8
LAYER_2
 10
57.9334
 20
205.4982
 11
57.7949
 21
205.4328
  0
LINE
  8
LAYER_2
 10
57.7949
 20
205.4328
 11
57.6533
 21
205.3752
  0
LINE
  8
LAYER_2
 10
57.6533
 20
205.3752
 11
57.509
 21
205.3253
  0
LINE
  8
LAYER_2
 10
57.509
 20
205.3253
 11
57.3625
 21
205.2836
  0
LINE
  8
LAYER_2
 10
57.3625
 20
205.2836
 11
57.2144
 21
205.2498
  0
LINE
  8
LAYER_2
 10
57.2144
 20
205.2498
 11
57.0649
 21
205.2243
  0
LINE
  8
LAYER_2
 10
57.0649
 20
205.2243
 11
56.9143
 21
205.2074
  0
LINE
  8
LAYER_2
 10
56.9143
 20
205.2074
 11
56.7631
 21
205.1985
  0
LINE
  8
LAYER_2
 10
56.7631
 20
205.1985
 11
56.6122
 21
205.1982
  0
LINE
  8
LAYER_2
 10
56.6122
 20
205.1982
 11
56.4617
 21
205.2061
  0
LINE
  8
LAYER_2
 10
56.4617
 20
205.2061
 11
56.3118
 21
205.2226
  0
LINE
  8
LAYER_2
 10
56.3118
 20
205.2226
 11
56.163
 21
205.2471
  0
LINE
  8
LAYER_2
 10
56.163
 20
205.2471
 11
56.0159
 21
205.2801
  0
LINE
  8
LAYER_2
 10
59.5878
 20
219.1732
 11
59.5688
 21
219.1718
  0
LINE
  8
LAYER_2
 10
59.5688
 20
219.1718
 11
59.5457
 21
219.1698
  0
LINE
  8
LAYER_2
 10
59.5457
 20
219.1698
 11
59.5188
 21
219.1677
  0
LINE
  8
LAYER_2
 10
59.5188
 20
219.1677
 11
59.4879
 21
219.1649
  0
LINE
  8
LAYER_2
 10
59.4879
 20
219.1649
 11
59.4524
 21
219.1622
  0
LINE
  8
LAYER_2
 10
59.4524
 20
219.1622
 11
59.4117
 21
219.1584
  0
LINE
  8
LAYER_2
 10
59.4117
 20
219.1584
 11
59.3655
 21
219.1542
  0
LINE
  8
LAYER_2
 10
59.3655
 20
219.1542
 11
59.317
 21
219.1491
  0
LINE
  8
LAYER_2
 10
59.317
 20
219.1491
 11
59.2701
 21
219.1439
  0
LINE
  8
LAYER_2
 10
59.2701
 20
219.1439
 11
59.2246
 21
219.1387
  0
LINE
  8
LAYER_2
 10
59.2246
 20
219.1387
 11
59.1795
 21
219.1336
  0
LINE
  8
LAYER_2
 10
59.1795
 20
219.1336
 11
59.133
 21
219.1277
  0
LINE
  8
LAYER_2
 10
59.133
 20
219.1277
 11
59.0858
 21
219.1222
  0
LINE
  8
LAYER_2
 10
59.0858
 20
219.1222
 11
59.0431
 21
219.117
  0
LINE
  8
LAYER_2
 10
59.0431
 20
219.117
 11
59.0048
 21
219.1129
  0
LINE
  8
LAYER_2
 10
59.0048
 20
219.1129
 11
58.9707
 21
219.1091
  0
LINE
  8
LAYER_2
 10
58.9707
 20
219.1091
 11
58.9401
 21
219.1064
  0
LINE
  8
LAYER_2
 10
58.9401
 20
219.1064
 11
58.9122
 21
219.1043
  0
LINE
  8
LAYER_2
 10
58.9122
 20
219.1043
 11
58.8874
 21
219.1025
  0
LINE
  8
LAYER_2
 10
58.8874
 20
219.1025
 11
58.8646
 21
219.1012
  0
LINE
  8
LAYER_2
 10
58.8646
 20
219.1012
 11
58.844
 21
219.1001
  0
LINE
  8
LAYER_2
 10
58.844
 20
219.1001
 11
58.825
 21
219.0994
  0
LINE
  8
LAYER_2
 10
58.825
 20
219.0994
 11
58.8078
 21
219.0988
  0
LINE
  8
LAYER_2
 10
58.8078
 20
219.0988
 11
58.7919
 21
219.0984
  0
LINE
  8
LAYER_2
 10
58.7919
 20
219.0984
 11
58.7775
 21
219.0984
  0
LINE
  8
LAYER_2
 10
58.7775
 20
219.0984
 11
58.764
 21
219.0984
  0
LINE
  8
LAYER_2
 10
59.4768
 20
195.1574
 11
59.4741
 21
195.3831
  0
LINE
  8
LAYER_2
 10
59.4741
 20
195.3831
 11
59.461
 21
195.608
  0
LINE
  8
LAYER_2
 10
59.461
 20
195.608
 11
59.4382
 21
195.8323
  0
LINE
  8
LAYER_2
 10
59.4382
 20
195.8323
 11
59.4048
 21
196.0545
  0
LINE
  8
LAYER_2
 10
59.4048
 20
196.0545
 11
59.3621
 21
196.2754
  0
LINE
  8
LAYER_2
 10
59.3621
 20
196.2754
 11
59.3094
 21
196.4934
  0
LINE
  8
LAYER_2
 10
59.3094
 20
196.4934
 11
59.2467
 21
196.7084
  0
LINE
  8
LAYER_2
 10
59.2467
 20
196.7084
 11
59.1747
 21
196.9199
  0
LINE
  8
LAYER_2
 10
59.1747
 20
196.9199
 11
59.093
 21
197.128
  0
LINE
  8
LAYER_2
 10
59.093
 20
197.128
 11
59.0024
 21
197.3313
  0
LINE
  8
LAYER_2
 10
59.0024
 20
197.3313
 11
58.9025
 21
197.53
  0
LINE
  8
LAYER_2
 10
58.9025
 20
197.53
 11
58.794
 21
197.7233
  0
LINE
  8
LAYER_2
 10
58.794
 20
197.7233
 11
58.6769
 21
197.9111
  0
LINE
  8
LAYER_2
 10
58.6769
 20
197.9111
 11
58.5511
 21
198.093
  0
LINE
  8
LAYER_2
 10
58.5511
 20
198.093
 11
58.4178
 21
198.268
  0
LINE
  8
LAYER_2
 10
58.4178
 20
198.268
 11
58.2766
 21
198.4365
  0
LINE
  8
LAYER_2
 10
58.2766
 20
198.4365
 11
58.1274
 21
198.5977
  0
LINE
  8
LAYER_2
 10
58.1274
 20
198.5977
 11
57.9717
 21
198.7513
  0
LINE
  8
LAYER_2
 10
57.9717
 20
198.7513
 11
57.8091
 21
198.8971
  0
LINE
  8
LAYER_2
 10
57.8091
 20
198.8971
 11
57.6399
 21
199.0342
  0
LINE
  8
LAYER_2
 10
57.6399
 20
199.0342
 11
57.4645
 21
199.1634
  0
LINE
  8
LAYER_2
 10
57.4645
 20
199.1634
 11
57.2837
 21
199.2833
  0
LINE
  8
LAYER_2
 10
57.2837
 20
199.2833
 11
57.0976
 21
199.3942
  0
LINE
  8
LAYER_2
 10
57.0976
 20
199.3942
 11
56.9068
 21
199.4958
  0
LINE
  8
LAYER_2
 10
56.9068
 20
199.4958
 11
56.7114
 21
199.5882
  0
LINE
  8
LAYER_2
 10
56.7114
 20
199.5882
 11
56.512
 21
199.6705
  0
LINE
  8
LAYER_2
 10
56.512
 20
199.6705
 11
56.3094
 21
199.7428
  0
LINE
  8
LAYER_2
 10
56.3094
 20
199.7428
 11
56.103
 21
199.8052
  0
LINE
  8
LAYER_2
 10
59.8789
 20
221.0983
 11
59.853
 21
221.0969
  0
LINE
  8
LAYER_2
 10
59.853
 20
221.0969
 11
59.8268
 21
221.0931
  0
LINE
  8
LAYER_2
 10
59.8268
 20
221.0931
 11
59.8017
 21
221.0869
  0
LINE
  8
LAYER_2
 10
59.8017
 20
221.0869
 11
59.7769
 21
221.078
  0
LINE
  8
LAYER_2
 10
59.7769
 20
221.078
 11
59.7531
 21
221.067
  0
LINE
  8
LAYER_2
 10
59.7531
 20
221.067
 11
59.73
 21
221.0532
  0
LINE
  8
LAYER_2
 10
59.73
 20
221.0532
 11
59.7087
 21
221.0377
  0
LINE
  8
LAYER_2
 10
59.7087
 20
221.0377
 11
59.6883
 21
221.0201
  0
LINE
  8
LAYER_2
 10
59.6883
 20
221.0201
 11
59.6701
 21
221.0005
  0
LINE
  8
LAYER_2
 10
59.6701
 20
221.0005
 11
59.6536
 21
220.9791
  0
LINE
  8
LAYER_2
 10
59.6536
 20
220.9791
 11
59.6387
 21
220.9564
  0
LINE
  8
LAYER_2
 10
59.6387
 20
220.9564
 11
59.6263
 21
220.9319
  0
LINE
  8
LAYER_2
 10
59.6263
 20
220.9319
 11
59.6157
 21
220.9068
  0
LINE
  8
LAYER_2
 10
59.6157
 20
220.9068
 11
59.6074
 21
220.8802
  0
LINE
  8
LAYER_2
 10
59.6074
 20
220.8802
 11
59.6012
 21
220.8534
  0
LINE
  8
LAYER_2
 10
59.6012
 20
220.8534
 11
59.5977
 21
220.8261
  0
LINE
  8
LAYER_2
 10
59.5977
 20
220.8261
 11
59.5964
 21
220.7982
  0
LINE
  8
LAYER_2
 10
61.3444
 20
199.7094
 11
61.1732
 21
199.7029
  0
LINE
  8
LAYER_2
 10
61.1732
 20
199.7029
 11
60.9964
 21
199.697
  0
LINE
  8
LAYER_2
 10
60.9964
 20
199.697
 11
60.8145
 21
199.6925
  0
LINE
  8
LAYER_2
 10
60.8145
 20
199.6925
 11
60.6282
 21
199.6891
  0
LINE
  8
LAYER_2
 10
60.6282
 20
199.6891
 11
60.4376
 21
199.6863
  0
LINE
  8
LAYER_2
 10
60.4376
 20
199.6863
 11
60.243
 21
199.685
  0
LINE
  8
LAYER_2
 10
60.243
 20
199.685
 11
60.0452
 21
199.6846
  0
LINE
  8
LAYER_2
 10
60.0452
 20
199.6846
 11
59.8448
 21
199.6857
  0
LINE
  8
LAYER_2
 10
59.8448
 20
199.6857
 11
59.6418
 21
199.6874
  0
LINE
  8
LAYER_2
 10
59.6418
 20
199.6874
 11
59.4368
 21
199.6905
  0
LINE
  8
LAYER_2
 10
59.4368
 20
199.6905
 11
59.2302
 21
199.6943
  0
LINE
  8
LAYER_2
 10
59.2302
 20
199.6943
 11
59.0228
 21
199.6994
  0
LINE
  8
LAYER_2
 10
59.0228
 20
199.6994
 11
58.815
 21
199.7056
  0
LINE
  8
LAYER_2
 10
61.1915
 20
203.8236
 11
61.055
 21
203.8194
  0
LINE
  8
LAYER_2
 10
61.055
 20
203.8194
 11
60.9141
 21
203.8156
  0
LINE
  8
LAYER_2
 10
60.9141
 20
203.8156
 11
60.7684
 21
203.8125
  0
LINE
  8
LAYER_2
 10
60.7684
 20
203.8125
 11
60.6185
 21
203.8101
  0
LINE
  8
LAYER_2
 10
60.6185
 20
203.8101
 11
60.4645
 21
203.8084
  0
LINE
  8
LAYER_2
 10
60.4645
 20
203.8084
 11
60.3071
 21
203.8074
  0
LINE
  8
LAYER_2
 10
60.3071
 20
203.8074
 11
60.1465
 21
203.8074
  0
LINE
  8
LAYER_2
 10
60.1465
 20
203.8074
 11
59.9836
 21
203.8077
  0
LINE
  8
LAYER_2
 10
59.9836
 20
203.8077
 11
59.8182
 21
203.8091
  0
LINE
  8
LAYER_2
 10
59.8182
 20
203.8091
 11
59.6511
 21
203.8108
  0
LINE
  8
LAYER_2
 10
59.6511
 20
203.8108
 11
59.4827
 21
203.8136
  0
LINE
  8
LAYER_2
 10
59.4827
 20
203.8136
 11
59.3135
 21
203.8167
  0
LINE
  8
LAYER_2
 10
59.3135
 20
203.8167
 11
59.1437
 21
203.8208
  0
LINE
  8
LAYER_2
 10
59.5878
 20
219.1732
 11
59.5884
 21
219.1635
  0
LINE
  8
LAYER_2
 10
59.5884
 20
219.1635
 11
59.5902
 21
219.1539
  0
LINE
  8
LAYER_2
 10
59.5902
 20
219.1539
 11
59.5929
 21
219.1446
  0
LINE
  8
LAYER_2
 10
59.5929
 20
219.1446
 11
59.597
 21
219.1356
  0
LINE
  8
LAYER_2
 10
59.597
 20
219.1356
 11
59.6022
 21
219.1277
  0
LINE
  8
LAYER_2
 10
59.6022
 20
219.1277
 11
59.6084
 21
219.1201
  0
LINE
  8
LAYER_2
 10
59.6084
 20
219.1201
 11
59.6153
 21
219.1139
  0
LINE
  8
LAYER_2
 10
59.6153
 20
219.1139
 11
59.6232
 21
219.1084
  0
LINE
  8
LAYER_2
 10
59.6232
 20
219.1084
 11
59.6315
 21
219.1039
  0
LINE
  8
LAYER_2
 10
59.6315
 20
219.1039
 11
59.6401
 21
219.1008
  0
LINE
  8
LAYER_2
 10
59.6401
 20
219.1008
 11
59.6491
 21
219.0991
  0
LINE
  8
LAYER_2
 10
59.6491
 20
219.0991
 11
59.6584
 21
219.0984
  0
LINE
  8
LAYER_2
 10
59.3077
 20
208.2343
 11
59.3121
 21
208.2336
  0
LINE
  8
LAYER_2
 10
59.3121
 20
208.2336
 11
59.3259
 21
208.2312
  0
LINE
  8
LAYER_2
 10
59.3259
 20
208.2312
 11
59.348
 21
208.2271
  0
LINE
  8
LAYER_2
 10
59.348
 20
208.2271
 11
59.379
 21
208.2205
  0
LINE
  8
LAYER_2
 10
59.379
 20
208.2205
 11
59.4179
 21
208.2112
  0
LINE
  8
LAYER_2
 10
59.4179
 20
208.2112
 11
59.4651
 21
208.1992
  0
LINE
  8
LAYER_2
 10
59.4651
 20
208.1992
 11
59.5199
 21
208.1837
  0
LINE
  8
LAYER_2
 10
59.5199
 20
208.1837
 11
59.5819
 21
208.1651
  0
LINE
  8
LAYER_2
 10
61.1915
 20
203.8236
 11
61.2087
 21
203.1221
  0
LINE
  8
LAYER_2
 10
61.2087
 20
203.1221
 11
61.2411
 21
202.3349
  0
LINE
  8
LAYER_2
 10
61.2411
 20
202.3349
 11
61.2834
 21
201.4609
  0
LINE
  8
LAYER_2
 10
61.2834
 20
201.4609
 11
61.3227
 21
200.5424
  0
LINE
  8
LAYER_2
 10
61.3227
 20
200.5424
 11
61.3444
 21
199.7094
  0
LINE
  8
LAYER_2
 10
61.3444
 20
199.7094
 11
61.3451
 21
199.5713
  0
LINE
  8
LAYER_2
 10
61.3451
 20
199.5713
 11
61.343
 21
199.4386
  0
LINE
  8
LAYER_2
 10
61.343
 20
199.4386
 11
61.3385
 21
199.3101
  0
LINE
  8
LAYER_2
 10
61.3385
 20
199.3101
 11
61.3316
 21
199.184
  0
LINE
  8
LAYER_2
 10
61.3316
 20
199.184
 11
61.3227
 21
199.059
  0
LINE
  8
LAYER_2
 10
61.3227
 20
199.059
 11
61.311
 21
198.9336
  0
LINE
  8
LAYER_2
 10
61.311
 20
198.9336
 11
61.2969
 21
198.8065
  0
LINE
  8
LAYER_2
 10
61.2969
 20
198.8065
 11
61.2793
 21
198.6759
  0
LINE
  8
LAYER_2
 10
61.2793
 20
198.6759
 11
61.2586
 21
198.5402
  0
LINE
  8
LAYER_2
 10
61.2586
 20
198.5402
 11
61.2331
 21
198.3961
  0
LINE
  8
LAYER_2
 10
61.2331
 20
198.3961
 11
61.2021
 21
198.2411
  0
LINE
  8
LAYER_2
 10
61.2021
 20
198.2411
 11
61.1636
 21
198.0706
  0
LINE
  8
LAYER_2
 10
61.1636
 20
198.0706
 11
61.1143
 21
197.8787
  0
LINE
  8
LAYER_2
 10
61.1143
 20
197.8787
 11
61.0526
 21
197.6654
  0
LINE
  8
LAYER_2
 10
61.0526
 20
197.6654
 11
60.9813
 21
197.446
  0
LINE
  8
LAYER_2
 10
60.9813
 20
197.446
 11
60.9041
 21
197.2314
  0
LINE
  8
LAYER_2
 10
60.9041
 20
197.2314
 11
60.8221
 21
197.0236
  0
LINE
  8
LAYER_2
 10
60.8221
 20
197.0236
 11
60.7363
 21
196.8245
  0
LINE
  8
LAYER_2
 10
60.7363
 20
196.8245
 11
60.6485
 21
196.6347
  0
LINE
  8
LAYER_2
 10
60.6485
 20
196.6347
 11
60.56
 21
196.4562
  0
LINE
  8
LAYER_2
 10
60.56
 20
196.4562
 11
60.4721
 21
196.2902
  0
LINE
  8
LAYER_2
 10
60.4721
 20
196.2902
 11
60.386
 21
196.1369
  0
LINE
  8
LAYER_2
 10
60.386
 20
196.1369
 11
60.3026
 21
195.9963
  0
LINE
  8
LAYER_2
 10
60.3026
 20
195.9963
 11
60.2223
 21
195.8692
  0
LINE
  8
LAYER_2
 10
60.2223
 20
195.8692
 11
60.1462
 21
195.7548
  0
LINE
  8
LAYER_2
 10
60.1462
 20
195.7548
 11
60.0742
 21
195.6525
  0
LINE
  8
LAYER_2
 10
60.0742
 20
195.6525
 11
60.0063
 21
195.5619
  0
LINE
  8
LAYER_2
 10
60.0063
 20
195.5619
 11
59.9426
 21
195.482
  0
LINE
  8
LAYER_2
 10
59.9426
 20
195.482
 11
59.883
 21
195.4127
  0
LINE
  8
LAYER_2
 10
59.883
 20
195.4127
 11
59.8275
 21
195.3528
  0
LINE
  8
LAYER_2
 10
59.8275
 20
195.3528
 11
59.7759
 21
195.3021
  0
LINE
  8
LAYER_2
 10
59.7759
 20
195.3021
 11
59.728
 21
195.2594
  0
LINE
  8
LAYER_2
 10
59.728
 20
195.2594
 11
59.6835
 21
195.2246
  0
LINE
  8
LAYER_2
 10
59.6835
 20
195.2246
 11
59.6422
 21
195.1971
  0
LINE
  8
LAYER_2
 10
59.6422
 20
195.1971
 11
59.6036
 21
195.1764
  0
LINE
  8
LAYER_2
 10
59.6036
 20
195.1764
 11
59.5681
 21
195.1622
  0
LINE
  8
LAYER_2
 10
59.5681
 20
195.1622
 11
59.5354
 21
195.1547
  0
LINE
  8
LAYER_2
 10
59.5354
 20
195.1547
 11
59.5051
 21
195.153
  0
LINE
  8
LAYER_2
 10
59.5051
 20
195.153
 11
59.4768
 21
195.1574
  0
LINE
  8
LAYER_2
 10
59.4768
 20
195.1574
 11
59.4303
 21
195.1684
  0
LINE
  8
LAYER_2
 10
59.4303
 20
195.1684
 11
59.3886
 21
195.1747
  0
LINE
  8
LAYER_2
 10
59.3886
 20
195.1747
 11
59.3545
 21
195.1767
  0
LINE
  8
LAYER_2
 10
59.3545
 20
195.1767
 11
59.3287
 21
195.1757
  0
LINE
  8
LAYER_2
 10
59.3287
 20
195.1757
 11
59.3128
 21
195.1729
  0
LINE
  8
LAYER_2
 10
59.3128
 20
195.1729
 11
59.3077
 21
195.1719
  0
LINE
  8
LAYER_2
 10
58.815
 20
199.7056
 11
58.8323
 21
199.6888
  0
LINE
  8
LAYER_2
 10
58.8323
 20
199.6888
 11
58.847
 21
199.6726
  0
LINE
  8
LAYER_2
 10
58.847
 20
199.6726
 11
58.8595
 21
199.6578
  0
LINE
  8
LAYER_2
 10
58.8595
 20
199.6578
 11
58.8698
 21
199.6436
  0
LINE
  8
LAYER_2
 10
58.8698
 20
199.6436
 11
58.8777
 21
199.6302
  0
LINE
  8
LAYER_2
 10
58.8777
 20
199.6302
 11
58.8836
 21
199.6178
  0
LINE
  8
LAYER_2
 10
58.8836
 20
199.6178
 11
58.8874
 21
199.6064
  0
LINE
  8
LAYER_2
 10
58.8874
 20
199.6064
 11
58.8894
 21
199.5964
  0
LINE
  8
LAYER_2
 10
58.8894
 20
199.5964
 11
58.8905
 21
199.5871
  0
LINE
  8
LAYER_2
 10
58.8905
 20
199.5871
 11
58.8898
 21
199.5785
  0
LINE
  8
LAYER_2
 10
58.8898
 20
199.5785
 11
58.8881
 21
199.5706
  0
LINE
  8
LAYER_2
 10
58.8881
 20
199.5706
 11
58.8853
 21
199.5627
  0
LINE
  8
LAYER_2
 10
58.8853
 20
199.5627
 11
58.8811
 21
199.5551
  0
LINE
  8
LAYER_2
 10
58.8811
 20
199.5551
 11
58.8753
 21
199.5475
  0
LINE
  8
LAYER_2
 10
58.8753
 20
199.5475
 11
58.8677
 21
199.5396
  0
LINE
  8
LAYER_2
 10
58.8677
 20
199.5396
 11
58.8577
 21
199.5317
  0
LINE
  8
LAYER_2
 10
58.8577
 20
199.5317
 11
58.8457
 21
199.5241
  0
LINE
  8
LAYER_2
 10
58.8457
 20
199.5241
 11
58.8315
 21
199.5169
  0
LINE
  8
LAYER_2
 10
58.8315
 20
199.5169
 11
58.815
 21
199.5096
  0
LINE
  8
LAYER_2
 10
58.815
 20
199.5096
 11
58.7957
 21
199.5034
  0
LINE
  8
LAYER_2
 10
58.7957
 20
199.5034
 11
58.774
 21
199.4972
  0
LINE
  8
LAYER_2
 10
58.774
 20
199.4972
 11
58.7496
 21
199.4917
  0
LINE
  8
LAYER_2
 10
58.7496
 20
199.4917
 11
58.7223
 21
199.4869
  0
LINE
  8
LAYER_2
 10
58.7223
 20
199.4869
 11
58.6917
 21
199.4824
  0
LINE
  8
LAYER_2
 10
58.6917
 20
199.4824
 11
58.6579
 21
199.4783
  0
LINE
  8
LAYER_2
 10
58.6579
 20
199.4783
 11
58.6207
 21
199.4752
  0
LINE
  8
LAYER_2
 10
58.6207
 20
199.4752
 11
58.5794
 21
199.4728
  0
LINE
  8
LAYER_2
 10
58.5794
 20
199.4728
 11
58.5342
 21
199.4707
  0
LINE
  8
LAYER_2
 10
58.5342
 20
199.4707
 11
58.484
 21
199.47
  0
LINE
  8
LAYER_2
 10
58.484
 20
199.47
 11
58.4285
 21
199.4697
  0
LINE
  8
LAYER_2
 10
58.4285
 20
199.4697
 11
58.3675
 21
199.4707
  0
LINE
  8
LAYER_2
 10
58.3675
 20
199.4707
 11
58.3003
 21
199.4728
  0
LINE
  8
LAYER_2
 10
58.3003
 20
199.4728
 11
58.2259
 21
199.4759
  0
LINE
  8
LAYER_2
 10
58.2259
 20
199.4759
 11
58.1443
 21
199.4803
  0
LINE
  8
LAYER_2
 10
58.1443
 20
199.4803
 11
58.054
 21
199.4869
  0
LINE
  8
LAYER_2
 10
58.054
 20
199.4869
 11
57.9544
 21
199.4948
  0
LINE
  8
LAYER_2
 10
57.9544
 20
199.4948
 11
57.8452
 21
199.5048
  0
LINE
  8
LAYER_2
 10
57.8452
 20
199.5048
 11
57.7246
 21
199.5172
  0
LINE
  8
LAYER_2
 10
57.7246
 20
199.5172
 11
57.5923
 21
199.5323
  0
LINE
  8
LAYER_2
 10
57.5923
 20
199.5323
 11
57.447
 21
199.5506
  0
LINE
  8
LAYER_2
 10
57.447
 20
199.5506
 11
57.2868
 21
199.5727
  0
LINE
  8
LAYER_2
 10
57.2868
 20
199.5727
 11
57.1097
 21
199.5992
  0
LINE
  8
LAYER_2
 10
57.1097
 20
199.5992
 11
56.9133
 21
199.6312
  0
LINE
  8
LAYER_2
 10
56.9133
 20
199.6312
 11
56.6928
 21
199.6712
  0
LINE
  8
LAYER_2
 10
56.6928
 20
199.6712
 11
56.4665
 21
199.717
  0
LINE
  8
LAYER_2
 10
56.4665
 20
199.717
 11
56.2708
 21
199.7618
  0
LINE
  8
LAYER_2
 10
56.2708
 20
199.7618
 11
56.103
 21
199.8052
  0
LINE
  8
LAYER_2
 10
30.0895
 20
207.6263
 11
30.0764
 21
207.5791
  0
LINE
  8
LAYER_2
 10
30.0764
 20
207.5791
 11
30.064
 21
207.5319
  0
LINE
  8
LAYER_2
 10
30.064
 20
207.5319
 11
30.0512
 21
207.4854
  0
LINE
  8
LAYER_2
 10
30.0512
 20
207.4854
 11
30.0388
 21
207.4399
  0
LINE
  8
LAYER_2
 10
30.0388
 20
207.4399
 11
30.0268
 21
207.3954
  0
LINE
  8
LAYER_2
 10
30.0268
 20
207.3954
 11
30.015
 21
207.3527
  0
LINE
  8
LAYER_2
 10
30.015
 20
207.3527
 11
30.0037
 21
207.3114
  0
LINE
  8
LAYER_2
 10
30.0037
 20
207.3114
 11
29.993
 21
207.2718
  0
LINE
  8
LAYER_2
 10
29.993
 20
207.2718
 11
29.983
 21
207.2345
  0
LINE
  8
LAYER_2
 10
29.983
 20
207.2345
 11
29.9737
 21
207.1998
  0
LINE
  8
LAYER_2
 10
29.9737
 20
207.1998
 11
29.9651
 21
207.1677
  0
LINE
  8
LAYER_2
 10
29.9651
 20
207.1677
 11
29.9568
 21
207.1384
  0
LINE
  8
LAYER_2
 10
29.9568
 20
207.1384
 11
29.95
 21
207.1122
  0
LINE
  8
LAYER_2
 10
29.95
 20
207.1122
 11
29.9437
 21
207.0888
  0
LINE
  8
LAYER_2
 10
29.9437
 20
207.0888
 11
29.9386
 21
207.0688
  0
LINE
  8
LAYER_2
 10
29.9386
 20
207.0688
 11
29.9341
 21
207.0526
  0
LINE
  8
LAYER_2
 10
29.9341
 20
207.0526
 11
29.9307
 21
207.0396
  0
LINE
  8
LAYER_2
 10
29.9307
 20
207.0396
 11
29.9282
 21
207.0306
  0
LINE
  8
LAYER_2
 10
29.9282
 20
207.0306
 11
29.9265
 21
207.0247
  0
LINE
  8
LAYER_2
 10
29.9265
 20
207.0247
 11
29.9262
 21
207.023
  0
LINE
  8
LAYER_2
 10
31.1898
 20
211.739
 11
39.3333
 21
209.6203
  0
LINE
  8
LAYER_2
 10
39.3333
 20
209.6203
 11
47.6071
 21
207.4678
  0
LINE
  8
LAYER_2
 10
47.6071
 20
207.4678
 11
56.0159
 21
205.2801
  0
LINE
  8
LAYER_2
 10
55.6462
 20
205.4031
 11
55.6524
 21
205.4011
  0
LINE
  8
LAYER_2
 10
55.6524
 20
205.4011
 11
55.671
 21
205.3949
  0
LINE
  8
LAYER_2
 10
55.671
 20
205.3949
 11
55.7014
 21
205.3845
  0
LINE
  8
LAYER_2
 10
55.7014
 20
205.3845
 11
55.7434
 21
205.3704
  0
LINE
  8
LAYER_2
 10
55.7434
 20
205.3704
 11
55.7957
 21
205.3528
  0
LINE
  8
LAYER_2
 10
55.7957
 20
205.3528
 11
55.8591
 21
205.3318
  0
LINE
  8
LAYER_2
 10
55.8591
 20
205.3318
 11
55.9325
 21
205.3077
  0
LINE
  8
LAYER_2
 10
55.9325
 20
205.3077
 11
56.0159
 21
205.2801
  0
LINE
  8
LAYER_2
 10
56.0159
 20
205.2801
 11
56.0865
 21
205.2598
  0
LINE
  8
LAYER_2
 10
56.0865
 20
205.2598
 11
56.1685
 21
205.2343
  0
LINE
  8
LAYER_2
 10
56.1685
 20
205.2343
 11
56.2626
 21
205.203
  0
LINE
  8
LAYER_2
 10
56.2626
 20
205.203
 11
56.3693
 21
205.1654
  0
LINE
  8
LAYER_2
 10
56.3693
 20
205.1654
 11
56.4903
 21
205.1217
  0
LINE
  8
LAYER_2
 10
56.4903
 20
205.1217
 11
56.6263
 21
205.0704
  0
LINE
  8
LAYER_2
 10
56.6263
 20
205.0704
 11
56.7793
 21
205.0107
  0
LINE
  8
LAYER_2
 10
56.7793
 20
205.0107
 11
56.9505
 21
204.9425
  0
LINE
  8
LAYER_2
 10
56.9505
 20
204.9425
 11
57.1414
 21
204.8643
  0
LINE
  8
LAYER_2
 10
57.1414
 20
204.8643
 11
57.3557
 21
204.7741
  0
LINE
  8
LAYER_2
 10
57.3557
 20
204.7741
 11
57.5769
 21
204.6783
  0
LINE
  8
LAYER_2
 10
57.5769
 20
204.6783
 11
57.7767
 21
204.5898
  0
LINE
  8
LAYER_2
 10
57.7767
 20
204.5898
 11
57.9527
 21
204.5095
  0
LINE
  8
LAYER_2
 10
57.9527
 20
204.5095
 11
58.1094
 21
204.4357
  0
LINE
  8
LAYER_2
 10
58.1094
 20
204.4357
 11
58.25
 21
204.3682
  0
LINE
  8
LAYER_2
 10
58.25
 20
204.3682
 11
58.3758
 21
204.3059
  0
LINE
  8
LAYER_2
 10
58.3758
 20
204.3059
 11
58.4888
 21
204.248
  0
LINE
  8
LAYER_2
 10
58.4888
 20
204.248
 11
58.5897
 21
204.1946
  0
LINE
  8
LAYER_2
 10
58.5897
 20
204.1946
 11
58.68
 21
204.1453
  0
LINE
  8
LAYER_2
 10
58.68
 20
204.1453
 11
58.7606
 21
204.0992
  0
LINE
  8
LAYER_2
 10
58.7606
 20
204.0992
 11
58.8326
 21
204.0564
  0
LINE
  8
LAYER_2
 10
58.8326
 20
204.0564
 11
58.8963
 21
204.0165
  0
LINE
  8
LAYER_2
 10
58.8963
 20
204.0165
 11
58.9528
 21
203.9789
  0
LINE
  8
LAYER_2
 10
58.9528
 20
203.9789
 11
59.0028
 21
203.9434
  0
LINE
  8
LAYER_2
 10
59.0028
 20
203.9434
 11
59.0465
 21
203.9104
  0
LINE
  8
LAYER_2
 10
59.0465
 20
203.9104
 11
59.0848
 21
203.8787
  0
LINE
  8
LAYER_2
 10
59.0848
 20
203.8787
 11
59.1168
 21
203.849
  0
LINE
  8
LAYER_2
 10
59.1168
 20
203.849
 11
59.1437
 21
203.8208
  0
LINE
  8
LAYER_2
 10
31.1898
 20
211.739
 11
31.1892
 21
211.7363
  0
LINE
  8
LAYER_2
 10
31.1892
 20
211.7363
 11
31.1874
 21
211.7301
  0
LINE
  8
LAYER_2
 10
31.1874
 20
211.7301
 11
31.1847
 21
211.7201
  0
LINE
  8
LAYER_2
 10
31.1847
 20
211.7201
 11
31.1809
 21
211.7066
  0
LINE
  8
LAYER_2
 10
31.1809
 20
211.7066
 11
31.1764
 21
211.6897
  0
LINE
  8
LAYER_2
 10
31.1764
 20
211.6897
 11
31.1709
 21
211.6698
  0
LINE
  8
LAYER_2
 10
31.1709
 20
211.6698
 11
31.165
 21
211.646
  0
LINE
  8
LAYER_2
 10
31.165
 20
211.646
 11
31.1578
 21
211.6195
  0
LINE
  8
LAYER_2
 10
31.1578
 20
211.6195
 11
31.1499
 21
211.5902
  0
LINE
  8
LAYER_2
 10
31.1499
 20
211.5902
 11
31.1416
 21
211.5581
  0
LINE
  8
LAYER_2
 10
31.1416
 20
211.5581
 11
31.1323
 21
211.5234
  0
LINE
  8
LAYER_2
 10
31.1323
 20
211.5234
 11
31.1227
 21
211.4865
  0
LINE
  8
LAYER_2
 10
31.1227
 20
211.4865
 11
31.112
 21
211.4472
  0
LINE
  8
LAYER_2
 10
31.112
 20
211.4472
 11
31.101
 21
211.4062
  0
LINE
  8
LAYER_2
 10
31.101
 20
211.4062
 11
31.0899
 21
211.3635
  0
LINE
  8
LAYER_2
 10
31.0899
 20
211.3635
 11
31.0782
 21
211.3197
  0
LINE
  8
LAYER_2
 10
31.0782
 20
211.3197
 11
31.0665
 21
211.2743
  0
LINE
  8
LAYER_2
 10
31.0665
 20
211.2743
 11
31.0544
 21
211.2284
  0
LINE
  8
LAYER_2
 10
31.0544
 20
211.2284
 11
31.042
 21
211.182
  0
LINE
  8
LAYER_2
 10
31.042
 20
211.182
 11
31.0296
 21
211.1351
  0
LINE
  8
LAYER_2
  6
AIGENLINE002
 10
64.2452
 20
224.8896
 11
64.2452
 21
160.1384
  0
LINE
  8
LAYER_2
 10
32.9954
 20
191.8155
 11
32.9954
 21
185.3875
  0
LINE
  8
LAYER_2
 10
-29.2096
 20
181.586
 11
-29.2096
 21
175.8983
  0
LINE
  8
LAYER_2
 10
-17.1645
 20
181.586
 11
-17.1645
 21
175.8983
  0
LINE
  8
LAYER_2
 10
32.9954
 20
203.5132
 11
32.9954
 21
192.731
  0
LINE
  8
LAYER_2
  6
AIGENLINE002
 10
32.9954
 20
208.1706
 11
32.9954
 21
203.9319
  0
LINE
  8
LAYER_2
 10
32.2419
 20
203.42
 11
29.5348
 21
193.3171
  0
LINE
  8
LAYER_2
  6
AIGENLINE002
 10
33.4956
 20
208.0982
 11
32.367
 21
203.8859
  0
INSERT
  8
LAYER_2
  2
AIGNBL0201000A
 10
0
 20
0
 30
0
  0
ARC
  8
LAYER_2
 10
69.3526
 20
179.2121
 40
0.7547
 50
323.9604348
 51
0.905033621
  0
ARC
  8
LAYER_2
 10
69.6238
 20
179.0108
 40
0.417
 50
272.4435426
 51
324.4058929
  0
ARC
  8
LAYER_2
 10
69.6563
 20
179.0029
 40
0.4091
 50
217.7140395
 51
267.9414285
  0
ARC
  8
LAYER_2
 10
69.9205
 20
179.2101
 40
0.7449
 50
178.9312874
 51
217.8862918
  0
ARC
  8
LAYER_2
 10
69.9303
 20
179.2358
 40
0.7546
 50
143.93575
 51
180.8977067
  0
ARC
  8
LAYER_2
 10
69.6595
 20
179.4372
 40
0.4172
 50
92.46477354
 51
144.3979859
  0
ARC
  8
LAYER_2
 10
69.6271
 20
179.4453
 40
0.4089
 50
37.70279928
 51
87.96130442
  0
ARC
  8
LAYER_2
 10
69.3621
 20
179.2381
 40
0.7453
 50
358.9185718
 51
37.85382844
  0
ARC
  8
LAYER_2
 10
67.7018
 20
181.961
 40
0.7833
 50
145.1422467
 51
180.8502804
  0
ARC
  8
LAYER_2
 10
67.4198
 20
182.1627
 40
0.4366
 50
92.79271614
 51
145.7023665
  0
ARC
  8
LAYER_2
 10
67.3839
 20
182.1792
 40
0.4198
 50
38.49612979
 51
88.01215772
  0
ARC
  8
LAYER_2
 10
67.1154
 20
181.9653
 40
0.7632
 50
358.8074549
 51
38.51938752
  0
ARC
  8
LAYER_2
 10
67.7018
 20
179.236
 40
0.7833
 50
179.1497196
 51
214.8577533
  0
ARC
  8
LAYER_2
 10
67.4198
 20
179.0343
 40
0.4366
 50
214.2976335
 51
267.2072839
  0
LINE
  8
LAYER_2
 10
71.3069
 20
174.3483
 11
82.5724
 21
174.3483
  0
LINE
  8
LAYER_2
 10
35.0352
 20
204.1829
 11
30.2149
 21
205.5123
  0
LINE
  8
LAYER_2
 10
30.2149
 20
205.5123
 11
30.5773
 21
206.8437
  0
LINE
  8
LAYER_2
 10
30.5773
 20
206.8437
 11
35.3973
 21
205.5143
  0
LINE
  8
LAYER_2
 10
35.3973
 20
205.5143
 11
35.0352
 21
204.1829
  0
INSERT
  8
LAYER_2
  2
AIGNBL0201000B
 10
0
 20
0
 30
0
  0
ARC
  8
LAYER_2
 10
-23.1121
 20
265.1523
 40
22.338
 50
169.77446
 51
180.0310089
  0
ARC
  8
LAYER_2
 10
-23.2148
 20
265.1402
 40
22.2353
 50
180.0000426
 51
269.9999575
  0
LINE
  8
LAYER_2
 10
-25.6794
 20
204.7358
 11
-25.7448
 21
199.8052
  0
LINE
  8
LAYER_2
 10
-20.7402
 20
204.7541
 11
-20.6744
 21
199.8086
  0
LINE
  8
LAYER_2
 10
-13.1592
 20
62.8571
 11
-13.9154
 21
62.8571
  0
LINE
  8
LAYER_2
 10
-14.9844
 20
62.4816
 11
-14.5493
 21
62.2288
  0
LINE
  8
LAYER_2
 10
-14.5493
 20
58.3785
 11
-14.5493
 21
62.4816
  0
LINE
  8
LAYER_2
 10
-29.7191
 20
69.6509
 11
-16.7077
 21
69.6509
  0
LINE
  8
LAYER_2
 10
-24.4643
 20
70.1504
 11
-21.9645
 21
70.1504
  0
LINE
  8
LAYER_2
 10
-24.4643
 20
73.1504
 11
-21.9645
 21
73.1504
  0
LINE
  8
LAYER_2
 10
-27.9146
 20
56.0021
 11
-27.9146
 21
57.5145
  0
LINE
  8
LAYER_2
 10
-30.7447
 20
68.2853
 11
-30.7447
 21
68.5023
  0
LINE
  8
LAYER_2
 10
-30.7447
 20
68.2853
 11
-28.9636
 21
67.2572
  0
LINE
  8
LAYER_2
 10
-18.5129
 20
56.0021
 11
-27.9146
 21
56.0021
  0
LINE
  8
LAYER_2
 10
-28.2074
 20
56.2949
 11
-28.2074
 21
57.5145
  0
LINE
  8
LAYER_2
 10
-18.2211
 20
57.5145
 11
-18.2211
 21
56.2949
  0
LINE
  8
LAYER_2
 10
-18.2211
 20
56.2949
 11
-18.5129
 21
56.0021
  0
LINE
  8
LAYER_2
 10
-28.2074
 20
56.2949
 11
-27.9146
 21
56.0021
  0
LINE
  8
LAYER_2
 10
-28.154
 20
57.5145
 11
-28.154
 21
58.1629
  0
LINE
  8
LAYER_2
 10
-18.2752
 20
57.5145
 11
-18.2752
 21
58.1629
  0
LINE
  8
LAYER_2
 10
-18.2211
 20
57.5145
 11
-28.154
 21
57.5145
  0
LINE
  8
LAYER_2
 10
-15.6838
 20
68.2853
 11
-15.6838
 21
68.5023
  0
LINE
  8
LAYER_2
 10
-15.6838
 20
68.2853
 11
-17.4649
 21
67.2572
  0
LINE
  8
LAYER_2
 10
-28.2074
 20
56.2949
 11
-18.2211
 21
56.2949
  0
LINE
  8
LAYER_2
 10
-18.5129
 20
56.0021
 11
-18.5129
 21
57.5145
  0
LINE
  8
LAYER_2
 10
-14.5493
 20
58.628
 11
-14.9844
 21
58.3785
  0
LINE
  8
LAYER_2
 10
-28.4238
 20
58.1629
 11
-28.4238
 21
66.3215
  0
ARC
  8
LAYER_2
 10
-16.9045
 20
66.3103
 40
1.1003
 50
120.6155627
 51
179.4144442
  0
ARC
  8
LAYER_2
 10
-29.5255
 20
66.3095
 40
1.1018
 50
0.6260320059
 51
59.3347729
  0
LINE
  8
LAYER_2
 10
-18.0048
 20
66.3215
 11
-18.0048
 21
62.9123
  0
ARC
  8
LAYER_2
 10
-16.7329
 20
68.9798
 40
0.6716
 50
1.876619255
 51
87.8490906
  0
ARC
  8
LAYER_2
 10
-16.7134
 20
69.0051
 40
0.6517
 50
309.5063782
 51
359.7086062
  0
ARC
  8
LAYER_2
 10
-29.6938
 20
68.9773
 40
0.6741
 50
92.14736337
 51
177.9144586
  0
ARC
  8
LAYER_2
 10
-29.7116
 20
69.0076
 40
0.656
 50
180.5102174
 51
230.3870823
  0
LINE
  8
LAYER_2
  6
AIGENLINE002
 10
-23.2148
 20
53.8813
 11
-23.2148
 21
79.909
  0
LINE
  8
LAYER_2
 10
-25.0896
 20
70.7753
 11
-25.0896
 21
72.5255
  0
LINE
  8
LAYER_2
 10
-21.3396
 20
70.7753
 11
-21.3396
 21
72.5255
  0
ARC
  8
LAYER_2
 10
-31.0827
 20
75.165
 40
2.9385
 50
44.97750676
 51
81.70142409
  0
ARC
  8
LAYER_2
 10
-30.5751
 20
75.6405
 40
2.2435
 50
24.94802987
 51
45.55130179
  0
ARC
  8
LAYER_2
 10
-30.0009
 20
75.914
 40
1.6075
 50
0.6661266664
 51
24.74097856
  0
ARC
  8
LAYER_2
 10
-16.4768
 20
75.9222
 40
1.6038
 50
155.2296029
 51
179.6245997
  0
ARC
  8
LAYER_2
 10
-15.9237
 20
75.6557
 40
2.2177
 50
134.0651097
 51
154.9647366
  0
ARC
  8
LAYER_2
 10
-15.3487
 20
75.072
 40
3.037
 50
98.85843513
 51
134.2015157
  0
LINE
  8
LAYER_2
 10
-14.0233
 20
58.628
 11
-14.5493
 21
58.628
  0
LINE
  8
LAYER_2
 10
-14.5493
 20
62.2288
 11
-14.0233
 21
62.2288
  0
LINE
  8
LAYER_2
 10
-14.0233
 20
58.3785
 11
-17.631
 21
58.3785
  0
LINE
  8
LAYER_2
 10
-17.5734
 20
62.4816
 11
-14.0233
 21
62.4816
  0
LINE
  8
LAYER_2
 10
-13.9154
 20
62.8571
 11
-14.0233
 21
62.7511
  0
LINE
  8
LAYER_2
 10
-14.0233
 20
58.1084
 11
-13.9154
 21
57.9996
  0
ARC
  8
LAYER_2
 10
-17.5573
 20
62.9291
 40
0.4478
 50
182.1485772
 51
267.9444678
  0
LINE
  8
LAYER_2
 10
-14.0233
 20
58.1084
 11
-14.0233
 21
62.7511
  0
ARC
  8
LAYER_2
 10
-17.6251
 20
57.9364
 40
0.4421
 50
90.76317853
 51
149.1877146
  0
LINE
  8
LAYER_2
 10
1.6459
 20
61.0547
 11
24.0381
 21
61.0547
  0
LINE
  8
LAYER_2
 10
-10.7839
 20
61.0547
 11
-0.5693
 21
61.0547
  0
LINE
  8
LAYER_2
  6
AIGENLINE002
 10
-20.0925
 20
60.4297
 11
25.8057
 21
60.4297
  0
LINE
  8
LAYER_2
 10
1.6459
 20
59.8048
 11
24.0381
 21
59.8048
  0
LINE
  8
LAYER_2
 10
-10.7839
 20
59.8048
 11
-0.5693
 21
59.8048
  0
LINE
  8
LAYER_2
 10
-23.2148
 20
52.8533
 11
-23.2148
 21
35.3047
  0
LINE
  8
LAYER_2
 10
-15.3789
 20
84.7349
 11
-30.9755
 21
84.7349
  0
LINE
  8
LAYER_2
 10
-28.8654
 20
85.3199
 11
-31.0755
 21
84.7273
  0
LINE
  8
LAYER_2
 10
-31.0755
 20
84.7273
 11
-28.8654
 21
84.1347
  0
LINE
  8
LAYER_2
 10
-28.8654
 20
84.1347
 11
-28.8654
 21
85.3199
  0
LINE
  8
LAYER_2
 10
-17.5621
 20
84.1492
 11
-15.352
 21
84.7418
  0
LINE
  8
LAYER_2
 10
-15.352
 20
84.7418
 11
-17.5621
 21
85.3343
  0
LINE
  8
LAYER_2
 10
-17.5621
 20
85.3343
 11
-17.5621
 21
84.1492
  0
LINE
  8
LAYER_2
 10
-15.352
 20
78.7308
 11
-15.352
 21
85.1655
  0
LINE
  8
LAYER_2
 10
-14.9844
 20
62.4816
 11
-14.9844
 21
58.3785
  0
LINE
  8
LAYER_2
 10
-15.6838
 20
68.5023
 11
-30.7447
 21
68.5023
  0
LINE
  8
LAYER_2
 10
-18.0048
 20
58.1629
 11
-28.4238
 21
58.1629
  0
ARC
  8
LAYER_2
 10
-11.1034
 20
62.635
 40
0.3188
 50
2.156658059
 51
88.16014979
  0
ARC
  8
LAYER_2
 10
-11.096
 20
58.3204
 40
0.3211
 50
272.216716
 51
357.8204288
  0
LINE
  8
LAYER_2
 10
-10.7849
 20
58.3082
 11
-10.7849
 21
62.647
  0
LINE
  8
LAYER_2
 10
-31.0755
 20
78.0679
 11
-15.3262
 21
78.0679
  0
LINE
  8
LAYER_2
 10
-18.2211
 20
75.7384
 11
-18.2211
 21
73.1504
  0
LINE
  8
LAYER_2
 10
-18.2211
 20
70.1504
 11
-18.2211
 21
69.6509
  0
LINE
  8
LAYER_2
 10
-18.0806
 20
75.9327
 11
-18.2211
 21
75.7384
  0
LINE
  8
LAYER_2
 10
-28.2074
 20
75.7384
 11
-28.3935
 21
75.9327
  0
LINE
  8
LAYER_2
 10
-28.2074
 20
69.6509
 11
-28.2074
 21
70.1504
  0
LINE
  8
LAYER_2
 10
-28.2074
 20
73.1504
 11
-28.2074
 21
75.7384
  0
ARC
  8
LAYER_2
 10
-28.1039
 20
72.7492
 40
0.4012
 50
0.02381848714
 51
90.01903014
  0
LINE
  8
LAYER_2
 10
-28.2074
 20
73.1504
 11
-28.104
 21
73.1504
  0
ARC
  8
LAYER_2
 10
-18.3126
 20
72.7492
 40
0.4012
 50
89.96998204
 51
179.9728935
  0
LINE
  8
LAYER_2
 10
-18.3124
 20
73.1504
 11
-18.2211
 21
73.1504
  0
ARC
  8
LAYER_2
 10
-28.1207
 20
70.5683
 40
0.4183
 50
272.2901829
 51
357.9662374
  0
LINE
  8
LAYER_2
 10
-28.2074
 20
70.1504
 11
-28.104
 21
70.1504
  0
LINE
  8
LAYER_2
 10
-27.7027
 20
70.5535
 11
-27.7027
 21
72.7494
  0
ARC
  8
LAYER_2
 10
-18.2967
 20
70.5675
 40
0.4174
 50
181.9174594
 51
267.840396
  0
LINE
  8
LAYER_2
 10
-18.7138
 20
70.5535
 11
-18.7138
 21
72.7494
  0
LINE
  8
LAYER_2
 10
-18.3124
 20
70.1504
 11
-18.2211
 21
70.1504
  0
LINE
  8
LAYER_2
 10
-31.0755
 20
78.0679
 11
-31.0755
 21
78.1933
  0
ARC
  8
LAYER_2
 10
-30.7566
 20
78.1824
 40
0.319
 50
91.87858787
 51
178.0470503
  0
ARC
  8
LAYER_2
 10
-15.672
 20
78.182
 40
0.3202
 50
2.022460058
 51
88.10731514
  0
LINE
  8
LAYER_2
 10
-30.7671
 20
78.502
 11
-15.6614
 21
78.502
  0
LINE
  8
LAYER_2
 10
-31.0755
 20
78.9754
 11
-31.0755
 21
85.1655
  0
LINE
  8
LAYER_2
 10
16.1565
 20
67.9304
 11
16.1565
 21
56.0124
  0
LINE
  8
LAYER_2
 10
15.5718
 20
63.2643
 11
16.1644
 21
61.054
  0
LINE
  8
LAYER_2
 10
16.1644
 20
61.054
 11
16.7559
 21
63.2643
  0
LINE
  8
LAYER_2
 10
16.7559
 20
63.2643
 11
15.5718
 21
63.2643
  0
LINE
  8
LAYER_2
 10
16.7415
 20
57.5951
 11
16.1496
 21
59.8055
  0
LINE
  8
LAYER_2
 10
16.1496
 20
59.8055
 11
15.557
 21
57.5951
  0
LINE
  8
LAYER_2
 10
15.557
 20
57.5951
 11
16.7415
 21
57.5951
  0
ARC
  8
LAYER_2
 10
-12.3544
 20
60.9538
 40
0.6343
 50
48.88170635
 51
88.94651046
  0
ARC
  8
LAYER_2
 10
-12.656
 20
60.6219
 40
1.0828
 50
17.5725227
 51
48.40615722
  0
ARC
  8
LAYER_2
 10
-13.0887
 20
60.4626
 40
1.5435
 50
359.8809741
 51
18.35993912
  0
ARC
  8
LAYER_2
 10
-13.0157
 20
60.4469
 40
1.4706
 50
334.1578205
 51
0.4860468778
  0
ARC
  8
LAYER_2
 10
-12.5301
 20
60.2007
 40
0.9263
 50
301.8701414
 51
334.7699392
  0
ARC
  8
LAYER_2
 10
-12.3453
 20
59.9274
 40
0.5967
 50
270.2501869
 51
300.6565703
  0
ARC
  8
LAYER_2
 10
-12.3308
 20
59.9657
 40
0.6351
 50
228.9064403
 51
268.9229647
  0
ARC
  8
LAYER_2
 10
-12.029
 20
60.2987
 40
1.0844
 50
197.6460725
 51
228.4563231
  0
ARC
  8
LAYER_2
 10
-11.6028
 20
60.4563
 40
1.5385
 50
179.8834428
 51
198.4269266
  0
ARC
  8
LAYER_2
 10
-11.6746
 20
60.4716
 40
1.4667
 50
154.0750199
 51
180.475856
  0
ARC
  8
LAYER_2
 10
-12.1543
 20
60.7158
 40
0.9286
 50
121.8438904
 51
154.687439
  0
ARC
  8
LAYER_2
 10
-12.34
 20
60.9912
 40
0.5968
 50
90.26060661
 51
120.6542411
  0
ARC
  8
LAYER_2
 10
-12.3528
 20
61.4746
 40
1.6357
 50
67.46733073
 51
92.05835687
  0
ARC
  8
LAYER_2
 10
-11.7772
 20
62.7997
 40
0.1927
 50
8.505350371
 51
74.6006937
  0
ARC
  8
LAYER_2
 10
-12.8225
 20
62.7897
 40
1.2365
 50
333.1206925
 51
1.782384152
  0
ARC
  8
LAYER_2
 10
-12.3355
 20
62.5662
 40
0.7014
 50
269.4113613
 51
331.4198978
  0
ARC
  8
LAYER_2
 10
-12.3434
 20
62.6188
 40
0.7539
 50
233.2402315
 51
270.0507027
  0
ARC
  8
LAYER_2
 10
-12.2506
 20
62.7153
 40
0.8869
 50
198.1100095
 51
232.1692287
  0
ARC
  8
LAYER_2
 10
-11.8389
 20
62.8508
 40
1.3203
 50
179.7286227
 51
198.1478222
  0
ARC
  8
LAYER_2
 10
-12.9043
 20
62.7638
 40
0.2715
 50
95.84098879
 51
159.8950282
  0
ARC
  8
LAYER_2
 10
-12.4272
 20
61.3854
 40
1.724
 50
89.48027811
 51
107.0207669
  0
ARC
  8
LAYER_2
 10
-12.3123
 20
58.1148
 40
0.8706
 50
57.6582407
 51
92.00011502
  0
ARC
  8
LAYER_2
 10
-12.2353
 20
58.2952
 40
0.6777
 50
16.48232551
 51
55.00400083
  0
ARC
  8
LAYER_2
 10
-12.7783
 20
58.1403
 40
1.2424
 50
359.7059529
 51
16.22762086
  0
ARC
  8
LAYER_2
 10
-11.9758
 20
58.272
 40
0.461
 50
295.3219572
 51
342.5687689
  0
ARC
  8
LAYER_2
 10
-12.3893
 20
58.7814
 40
1.1093
 50
271.1906118
 51
303.4007231
  0
ARC
  8
LAYER_2
 10
-12.3395
 20
58.5364
 40
0.8645
 50
204.4413961
 51
268.2271764
  0
ARC
  8
LAYER_2
 10
-12.189
 20
58.2263
 40
0.9387
 50
149.7358386
 51
182.9089494
  0
ARC
  8
LAYER_2
 10
-12.5027
 20
58.3666
 40
0.5982
 50
105.218843
 51
146.1951327
  0
ARC
  8
LAYER_2
 10
-12.3457
 20
57.7636
 40
1.2213
 50
89.85756385
 51
104.897247
  0
LINE
  8
LAYER_2
 10
-11.0836
 20
57.9996
 11
-11.6072
 21
57.9996
  0
LINE
  8
LAYER_2
 10
-13.03
 20
57.9996
 11
-13.9154
 21
57.9996
  0
LINE
  8
LAYER_2
 10
-11.0932
 20
62.9536
 11
-11.6737
 21
62.9536
  0
ARC
  8
LAYER_2
 10
-14.0592
 20
60.0548
 40
4.5877
 50
151.1846442
 51
169.483933
  0
ARC
  8
LAYER_2
 10
-14.2928
 20
61.2514
 40
4.4097
 50
196.2646759
 51
211.2055333
  0
ARC
  8
LAYER_2
 10
-16.9978
 20
59.7909
 40
1.3481
 50
217.6960574
 51
223.8283226
  0
LINE
  8
LAYER_2
 10
-15.352
 20
78.1933
 11
-15.352
 21
78.0679
  0
LINE
  8
LAYER_2
 10
-18.5129
 20
55.5122
 11
-18.5129
 21
49.1291
  0
LINE
  8
LAYER_2
 10
-27.9146
 20
55.5122
 11
-27.9146
 21
49.0582
  0
LINE
  8
LAYER_2
 10
-27.888
 20
49.7093
 11
-18.5405
 21
49.7093
  0
LINE
  8
LAYER_2
 10
-20.724
 20
49.1243
 11
-18.5129
 21
49.7169
  0
LINE
  8
LAYER_2
 10
-18.5129
 20
49.7169
 11
-20.724
 21
50.3094
  0
LINE
  8
LAYER_2
 10
-20.724
 20
50.3094
 11
-20.724
 21
49.1243
  0
LINE
  8
LAYER_2
 10
-25.7046
 20
50.2943
 11
-27.9146
 21
49.7024
  0
LINE
  8
LAYER_2
 10
-27.9146
 20
49.7024
 11
-25.7046
 21
49.1098
  0
LINE
  8
LAYER_2
 10
-25.7046
 20
49.1098
 11
-25.7046
 21
50.2943
  0
LINE
  8
LAYER_2
 10
-18.5129
 20
49.7093
 11
-9.6785
 21
49.7093
  0
LINE
  8
LAYER_2
 10
24.2852
 20
59.3549
 11
24.2852
 21
35.4521
  0
LINE
  8
LAYER_2
 10
-23.1879
 20
36.3209
 11
24.2583
 21
36.3209
  0
LINE
  8
LAYER_2
 10
22.0744
 20
35.736
 11
24.2852
 21
36.3279
  0
LINE
  8
LAYER_2
 10
24.2852
 20
36.3279
 11
22.0744
 21
36.9204
  0
LINE
  8
LAYER_2
 10
22.0744
 20
36.9204
 11
22.0744
 21
35.736
  0
LINE
  8
LAYER_2
 10
-21.0037
 20
36.9059
 11
-23.2148
 21
36.3134
  0
LINE
  8
LAYER_2
 10
-23.2148
 20
36.3134
 11
-21.0037
 21
35.7215
  0
LINE
  8
LAYER_2
 10
-21.0037
 20
35.7215
 11
-21.0037
 21
36.9059
  0
LINE
  8
LAYER_2
 10
0.5352
 20
56.0855
 11
0.5352
 21
42.6909
  0
LINE
  8
LAYER_2
 10
-23.1879
 20
43.5598
 11
0.5083
 21
43.5598
  0
LINE
  8
LAYER_2
 10
-1.6755
 20
42.9748
 11
0.5352
 21
43.5667
  0
LINE
  8
LAYER_2
 10
0.5352
 20
43.5667
 11
-1.6755
 21
44.1592
  0
LINE
  8
LAYER_2
 10
-1.6755
 20
44.1592
 11
-1.6755
 21
42.9748
  0
LINE
  8
LAYER_2
 10
-21.0037
 20
44.1448
 11
-23.2148
 21
43.5522
  0
LINE
  8
LAYER_2
 10
-23.2148
 20
43.5522
 11
-21.0037
 21
42.9603
  0
LINE
  8
LAYER_2
 10
-21.0037
 20
42.9603
 11
-21.0037
 21
44.1448
  0
ARC
  8
LAYER_2
 10
-24.4645
 20
72.5253
 40
0.6251
 50
89.98193486
 51
179.9814017
  0
ARC
  8
LAYER_2
 10
-21.9645
 20
72.5255
 40
0.6249
 50
0.003552702532
 51
89.99644729
  0
ARC
  8
LAYER_2
 10
-24.4645
 20
70.7755
 40
0.6251
 50
180.0187256
 51
270.0179379
  0
ARC
  8
LAYER_2
 10
-21.9645
 20
70.7753
 40
0.6249
 50
270.00368
 51
359.99632
  0
LINE
  8
LAYER_2
  6
AIGENLINE003
 10
0.5352
 20
56.7855
 11
0.5352
 21
64.5694
  0
LINE
  8
LAYER_2
 10
0.662
 20
57.9796
 11
0.662
 21
59.6856
  0
LINE
  8
LAYER_2
 10
0.415
 20
57.9796
 11
0.415
 21
59.6856
  0
ARC
  8
LAYER_2
 10
0.9621
 20
61.0407
 40
0.7009
 50
12.67782645
 51
50.56208911
  0
ARC
  8
LAYER_2
 10
0.5824
 20
60.5622
 40
1.3117
 50
51.03119691
 51
91.80496013
  0
ARC
  8
LAYER_2
 10
0.5282
 20
60.4224
 40
1.4509
 50
89.49231478
 51
116.0180655
  0
ARC
  8
LAYER_2
 10
0.2454
 20
60.9637
 40
0.8405
 50
114.8773971
 51
165.7631761
  0
ARC
  8
LAYER_2
 10
0.1306
 20
58.6277
 40
0.7268
 50
195.6512946
 51
233.174465
  0
ARC
  8
LAYER_2
 10
0.4983
 20
59.1269
 40
1.3468
 50
233.3803344
 51
271.3353276
  0
ARC
  8
LAYER_2
 10
0.5419
 20
59.2325
 40
1.4521
 50
269.5175457
 51
295.8888438
  0
ARC
  8
LAYER_2
 10
0.7844
 20
58.7553
 40
0.917
 50
295.2793413
 51
328.1641196
  0
ARC
  8
LAYER_2
 10
1.0549
 20
58.5727
 40
0.591
 50
329.3684599
 51
359.7476108
  0
LINE
  8
LAYER_2
 10
0.1483
 20
62.6532
 11
0.1483
 21
61.8932
  0
LINE
  8
LAYER_2
 10
0.9593
 20
62.6532
 11
0.9593
 21
61.8932
  0
ARC
  8
LAYER_2
 10
0.7612
 20
62.925
 40
0.2711
 50
270.349035
 51
332.8073048
  0
ARC
  8
LAYER_2
 10
0.4224
 20
63.0444
 40
0.629
 50
337.2408205
 51
0.8893279094
  0
ARC
  8
LAYER_2
 10
0.6423
 20
63.0863
 40
0.4103
 50
355.5113265
 51
46.12561909
  0
ARC
  8
LAYER_2
 10
0.7429
 20
63.1551
 40
0.2921
 50
51.00477577
 51
80.97042639
  0
ARC
  8
LAYER_2
 10
0.367
 20
62.9322
 40
0.2773
 50
211.5866855
 51
272.9982007
  0
ARC
  8
LAYER_2
 10
0.6426
 20
63.0408
 40
0.5713
 50
178.6514593
 51
206.3759649
  0
ARC
  8
LAYER_2
 10
0.4766
 20
63.0852
 40
0.4063
 50
133.752697
 51
184.3789795
  0
ARC
  8
LAYER_2
 10
0.3909
 20
63.1356
 40
0.3118
 50
98.26143734
 51
128.7718939
  0
ARC
  8
LAYER_2
 10
-0.2197
 20
62.9257
 40
0.2718
 50
270.3743313
 51
332.7211174
  0
ARC
  8
LAYER_2
 10
-0.5597
 20
63.0465
 40
0.6313
 50
337.1222794
 51
0.696169394
  0
ARC
  8
LAYER_2
 10
-0.3097
 20
63.0884
 40
0.3827
 50
354.8771413
 51
61.13246352
  0
ARC
  8
LAYER_2
 10
1.3472
 20
62.9323
 40
0.2774
 50
211.6063166
 51
272.9126035
  0
ARC
  8
LAYER_2
 10
1.6204
 20
63.041
 40
0.5692
 50
178.6682485
 51
206.5022438
  0
ARC
  8
LAYER_2
 10
1.4358
 20
63.0855
 40
0.3857
 50
119.0089186
 51
184.6494311
  0
LINE
  8
LAYER_2
 10
-0.3257
 20
61.8932
 11
1.3992
 21
61.8932
  0
LINE
  8
LAYER_2
 10
-0.5693
 20
57.9954
 11
-0.5693
 21
61.6093
  0
LINE
  8
LAYER_2
 10
1.6459
 20
57.9899
 11
1.6459
 21
61.6114
  0
ARC
  8
LAYER_2
 10
0.5385
 20
58.8328
 40
0.8617
 50
359.9890781
 51
89.98432526
  0
ARC
  8
LAYER_2
 10
0.5389
 20
58.8329
 40
0.8616
 50
90.01610145
 51
180.0171463
  0
ARC
  8
LAYER_2
 10
0.5386
 20
58.8326
 40
0.8613
 50
180.0009482
 51
270.0057037
  0
ARC
  8
LAYER_2
 10
0.5388
 20
58.8327
 40
0.8614
 50
269.9938723
 51
359.9928248
  0
LINE
  8
LAYER_2
 10
-0.3227
 20
57.7081
 11
1.4002
 21
57.7081
  0
LINE
  8
LAYER_2
 10
-0.5693
 20
57.9954
 11
-0.3227
 21
57.7081
  0
LINE
  8
LAYER_2
 10
1.6459
 20
57.9954
 11
1.4002
 21
57.7081
  0
LINE
  8
LAYER_2
 10
1.3992
 20
61.8932
 11
1.6459
 21
61.6066
  0
LINE
  8
LAYER_2
 10
-0.3257
 20
61.8932
 11
-0.5721
 21
61.6066
  0
LINE
  8
LAYER_2
 10
-0.302
 20
62.6532
 11
1.4226
 21
62.6532
  0
ARC
  8
LAYER_2
 10
-0.0209
 20
63.1631
 40
0.2811
 50
89.98884068
 51
179.9907802
  0
LINE
  8
LAYER_2
 10
-0.302
 20
63.1631
 11
-0.302
 21
62.6532
  0
ARC
  8
LAYER_2
 10
1.1302
 20
63.1518
 40
0.2926
 50
2.220732643
 51
87.92176877
  0
LINE
  8
LAYER_2
 10
-0.0208
 20
63.4442
 11
1.1408
 21
63.4442
  0
LINE
  8
LAYER_2
 10
1.4226
 20
63.1631
 11
1.4226
 21
62.6532
  0
LINE
  8
LAYER_2
 10
-0.0229
 20
61.8932
 11
-0.0229
 21
62.6532
  0
LINE
  8
LAYER_2
 10
1.1315
 20
61.8932
 11
1.1315
 21
62.6532
  0
LINE
  8
LAYER_2
 10
24.0381
 20
61.0547
 11
24.0381
 21
59.8048
  0
LINE
  8
LAYER_2
 10
24.2852
 20
60.0549
 11
24.2852
 21
60.8046
  0
LINE
  8
LAYER_2
 10
24.0381
 20
61.0547
 11
24.2852
 21
60.8046
  0
LINE
  8
LAYER_2
 10
24.2852
 20
60.0549
 11
24.0381
 21
59.8048
  0
LINE
  8
LAYER_2
 10
5.6317
 20
72.7549
 11
0.905
 21
63.4442
  0
LINE
  8
LAYER_2
 10
1.3781
 20
65.6842
 11
0.905
 21
63.4442
  0
LINE
  8
LAYER_2
 10
0.905
 20
63.4442
 11
2.4347
 21
65.1481
  0
LINE
  8
LAYER_2
 10
2.4347
 20
65.1481
 11
1.3781
 21
65.6842
  0
LINE
  8
LAYER_2
 10
5.6317
 20
72.7549
 11
29.3223
 21
72.7549
  0
LINE
  8
LAYER_2
 10
-31.4492
 20
78.502
 11
-38.6667
 21
78.502
  0
LINE
  8
LAYER_2
 10
-31.3528
 20
68.5023
 11
-38.6632
 21
68.5023
  0
LINE
  8
LAYER_2
 10
-28.6691
 20
56.0021
 11
-38.6632
 21
56.0021
  0
LINE
  8
LAYER_2
 10
-38.235
 20
68.5285
 11
-38.235
 21
56.0021
  0
LINE
  8
LAYER_2
 10
-38.82
 20
58.2118
 11
-38.2275
 21
56.0021
  0
LINE
  8
LAYER_2
 10
-38.2275
 20
56.0021
 11
-37.6349
 21
58.2118
  0
LINE
  8
LAYER_2
 10
-37.6349
 20
58.2118
 11
-38.82
 21
58.2118
  0
LINE
  8
LAYER_2
 10
-37.6494
 20
66.2912
 11
-38.2419
 21
68.5023
  0
LINE
  8
LAYER_2
 10
-38.2419
 20
68.5023
 11
-38.8345
 21
66.2912
  0
LINE
  8
LAYER_2
 10
-38.8345
 20
66.2912
 11
-37.6494
 21
66.2912
  0
LINE
  8
LAYER_2
 10
-38.235
 20
78.502
 11
-38.235
 21
69.6509
  0
LINE
  8
LAYER_2
 10
-38.82
 20
71.8612
 11
-38.2275
 21
69.6509
  0
LINE
  8
LAYER_2
 10
-38.2275
 20
69.6509
 11
-37.6349
 21
71.8612
  0
LINE
  8
LAYER_2
 10
-37.6349
 20
71.8612
 11
-38.82
 21
71.8612
  0
LINE
  8
LAYER_2
 10
-37.6494
 20
76.2916
 11
-38.2419
 21
78.502
  0
LINE
  8
LAYER_2
 10
-38.2419
 20
78.502
 11
-38.8345
 21
76.2916
  0
LINE
  8
LAYER_2
 10
-38.8345
 20
76.2916
 11
-37.6494
 21
76.2916
  0
LINE
  8
LAYER_2
 10
-31.3528
 20
69.6509
 11
-38.6632
 21
69.6509
  0
LINE
  8
LAYER_3
 10
126.9566
 20
57.1559
 11
293.4567
 21
57.1559
  0
LINE
  8
LAYER_3
 10
126.9566
 20
81.5626
 11
290.1597
 21
81.5626
  0
LINE
  8
LAYER_3
 10
126.9566
 20
95.1367
 11
290.1597
 21
95.1367
  0
LINE
  8
LAYER_3
 10
213.4567
 20
37.1557
 11
293.4567
 21
37.1557
  0
LINE
  8
LAYER_3
 10
126.9566
 20
44.6564
 11
213.4567
 21
44.6564
  0
LINE
  8
LAYER_3
 10
126.9566
 20
30.6562
 11
213.4567
 21
30.6562
  0
LINE
  8
LAYER_3
 10
138.4563
 20
30.6562
 11
138.4563
 21
44.6564
  0
LINE
  8
LAYER_3
 10
213.4567
 20
17.1562
 11
213.4567
 21
57.1559
  0
LINE
  8
LAYER_3
 10
126.9566
 20
17.1562
 11
126.9566
 21
57.1559
  0
LINE
  8
LAYER_3
 10
194.4563
 20
30.6562
 11
194.4563
 21
57.1559
  0
LINE
  8
LAYER_3
 10
175.4566
 20
30.6562
 11
175.4566
 21
57.1559
  0
LINE
  8
LAYER_3
 10
293.4567
 20
17.1562
 11
-83.0433
 21
17.1562
  0
LINE
  8
LAYER_3
 10
-83.0433
 20
17.1562
 11
-83.0433
 21
280.1562
  0
LINE
  8
LAYER_3
 10
-83.0433
 20
280.1562
 11
293.4567
 21
280.1562
  0
LINE
  8
LAYER_3
 10
293.4567
 20
280.1562
 11
293.4567
 21
17.1562
  0
TEXT
  8
LAYER_3
 10
153.4949
 20
49.1839
 11
153.4949
 21
49.1839
 40
4.4979
 41
0.5
 72
1
  1
セラトレーディング株式会社
  0
TEXT
  8
LAYER_3
 10
127.9281
 20
40.658
 11
127.9281
 21
40.658
 40
3.0923
 41
0.5
  1
製図
  0
TEXT
  8
LAYER_3
 10
127.9281
 20
26.4587
 11
127.9281
 21
26.4587
 40
3.0923
 41
0.5
  1
備考
  0
TEXT
  8
LAYER_3
 10
139.5463
 20
40.658
 11
139.5463
 21
40.658
 40
3.0923
 41
0.5
  1
検図
  0
TEXT
  8
LAYER_3
 10
176.4998
 20
40.658
 11
176.4998
 21
40.658
 40
3.0923
 41
0.5
  1
日付
  0
TEXT
  8
LAYER_3
 10
219.0853
 20
45.4728
 11
219.0853
 21
45.4728
 40
3.9357
 41
0.5
  1
アヴァ 湯水混合水栓
  0
TEXT
  8
LAYER_3
 10
169.5094
 20
63.9258
 11
169.5094
 21
63.9258
 40
3.9357
 41
0.5
  1
（3）フレキホース寸法公差%%p}20
  0
TEXT
  8
LAYER_3
 10
169.5094
 20
69.923
 11
169.5094
 21
69.923
 40
3.9357
 41
0.5
  1
（2）湯水を逆に配管しないでください。
  0
TEXT
  8
LAYER_3
 10
169.5094
 20
75.9203
 11
169.5094
 21
75.9203
 40
3.9357
 41
0.5
  1
（1）水圧は湯水ほぼ同圧、且つ湯圧が水圧より高くならないように設定してください。
  0
TEXT
  8
LAYER_3
 10
169.5094
 20
83.6256
 11
169.5094
 21
83.6256
 40
3.9357
 41
0.5
  1
※安全のため給湯温度は60℃以下でのご使用をおすすめします。
  0
TEXT
  8
LAYER_3
 10
169.5094
 20
89.6228
 11
169.5094
 21
89.6228
 40
3.9357
 41
0.5
  1
80℃
  0
LINE
  8
LAYER_3
 10
126.9566
 20
108.7107
 11
290.1597
 21
108.7107
  0
TEXT
  8
LAYER_3
 10
169.5094
 20
97.1996
 11
169.5094
 21
97.1996
 40
3.9357
 41
0.5
  1
※寒冷地仕様ではありません、凍結が予想される場合は凍結予防をしてください。
  0
TEXT
  8
LAYER_3
 10
169.5094
 20
103.1968
 11
169.5094
 21
103.1968
 40
3.9357
 41
0.5
  1
1～40℃
  0
TEXT
  8
LAYER_3
 10
129.4953
 20
75.9203
 11
129.4953
 21
75.9203
 40
3.9357
 41
0.5
  1
特記事項
  0
TEXT
  8
LAYER_3
 10
129.4953
 20
89.6228
 11
129.4953
 21
89.6228
 40
3.9357
 41
0.5
  1
最高給湯温度
  0
TEXT
  8
LAYER_3
 10
129.4953
 20
103.1968
 11
129.4953
 21
103.1968
 40
3.9357
 41
0.5
  1
使用環境温度
  0
LINE
  8
LAYER_3
 10
145.6397
 20
130.0472
 11
290.1597
 21
130.0472
  0
TEXT
  8
LAYER_3
 10
169.5094
 20
124.5333
 11
169.5094
 21
124.5333
 40
3.9357
 41
0.5
  1
0.5MPa（静水圧）
  0
TEXT
  8
LAYER_3
 10
169.5094
 20
118.6012
 11
169.5094
 21
118.6012
 40
3.9357
 41
0.5
  1
※快適にお使いいただくためには、0.2～0.3MPa程度の圧力をおすすめします。
  0
TEXT
  8
LAYER_3
 10
147.4139
 20
124.5333
 11
147.4139
 21
124.5333
 40
3.9357
 41
0.5
  1
最高水圧
  0
LINE
  8
LAYER_3
 10
126.9566
 20
116.4732
 11
290.1597
 21
116.4732
  0
TEXT
  8
LAYER_3
 10
169.5094
 20
110.8187
 11
169.5094
 21
110.8187
 40
3.9357
 41
0.5
  1
水道水
  0
TEXT
  8
LAYER_3
 10
129.4953
 20
110.8187
 11
129.4953
 21
110.8187
 40
3.9357
 41
0.5
  1
使用可能水質
  0
LINE
  8
LAYER_3
 10
126.9566
 20
137.8097
 11
290.1597
 21
137.8097
  0
TEXT
  8
LAYER_3
 10
169.5094
 20
132.1552
 11
169.5094
 21
132.1552
 40
3.9357
 41
0.5
  1
0.1MPa（流動圧）
  0
TEXT
  8
LAYER_3
 10
147.4139
 20
132.1552
 11
147.4139
 21
132.1552
 40
3.9357
 41
0.5
  1
最低必要水圧
  0
LINE
  8
LAYER_3
 10
290.1597
 20
145.5722
 11
126.9566
 21
145.5722
  0
LINE
  8
LAYER_3
 10
126.9566
 20
145.5722
 11
126.9566
 21
61.9804
  0
LINE
  8
LAYER_3
 10
126.9566
 20
61.9804
 11
290.1597
 21
61.9804
  0
LINE
  8
LAYER_3
 10
290.1597
 20
61.9804
 11
290.1597
 21
145.5722
  0
LINE
  8
LAYER_3
 10
166.9707
 20
145.5722
 11
166.9707
 21
61.9804
  0
LINE
  8
LAYER_3
 10
145.6397
 20
137.8097
 11
145.6397
 21
116.4732
  0
TEXT
  8
LAYER_3
 10
169.5094
 20
139.9177
 11
169.5094
 21
139.9177
 40
3.9357
 41
0.5
  1
一般住宅用（屋内用）
  0
TEXT
  8
LAYER_3
 10
129.4953
 20
139.9177
 11
129.4953
 21
139.9177
 40
3.9357
 41
0.5
  1
用途
  0
TEXT
  8
LAYER_3
 10
129.4953
 20
132.1552
 11
129.4953
 21
132.1552
 40
3.9357
 41
0.5
  1
給水圧力
  0
TEXT
  8
LAYER_3
 10
253.4564
 20
20.3547
 11
253.4564
 21
20.3547
 40
3.9357
 41
0.5
 72
1
  1
KW2191032A
  0
TEXT
  8
LAYER_3
 10
195.5498
 20
40.658
 11
195.5498
 21
40.658
 40
3.0923
 41
0.5
  1
尺度
  0
TEXT
  8
LAYER_3
 10
195.5498
 20
53.0652
 11
195.5498
 21
53.0652
 40
3.0923
 41
0.5
  1
単位
  0
TEXT
  8
LAYER_3
 10
203.2744
 20
48.0691
 11
203.2744
 21
48.0691
 40
3.6546
 41
0.5
 72
1
  1
mm
  0
TEXT
  8
LAYER_3
 10
214.5116
 20
53.0652
 11
214.5116
 21
53.0652
 40
3.0923
 41
0.5
  1
名称
  0
TEXT
  8
LAYER_3
 10
214.5116
 20
32.9265
 11
214.5116
 21
32.9265
 40
3.0923
 41
0.5
  1
品番
  0
LINE
  8
LAYER_3
 10
213.4567
 20
27.156
 11
293.4567
 21
27.156
  0
TEXT
  8
LAYER_3
 10
214.5116
 20
22.9268
 11
214.5116
 21
22.9268
 40
3.0923
 41
0.5
  1
図番
  0
INSERT
  8
LAYER_3
  2
AIGNBL03010002
 10
0
 20
0
 30
0
  0
LINE
  8
LAYER_3
 10
-83.0433
 20
148.6576
 11
-104.7936
 21
148.6576
  0
LINE
  8
LAYER_3
 10
105.2067
 20
297.1763
 11
105.2067
 21
280.1562
  0
LINE
  8
LAYER_3
 10
105.2067
 20
17.1562
 11
105.2067
 21
0.176
  0
LINE
  8
LAYER_3
 10
315.2069
 20
148.6576
 11
293.4567
 21
148.6576
  0
TEXT
  8
LAYER_3
 10
134.4938
 20
21.9546
 11
134.4938
 21
21.9546
 40
3.9357
 41
0.5
  1
（社）日本水道協会認証品
  0
TEXT
  8
LAYER_3
 10
293.4567
 20
12.8082
 11
293.4567
 21
12.8082
 40
3.3734
 41
0.5
 72
2
  1
A3
  0
TEXT
  8
LAYER_3
 10
177.6925
 20
34.4651
 11
177.6925
 21
34.4651
 40
3.6546
 41
0.5
  1
23.03.13
  0
TEXT
  8
LAYER_3
 10
132.6465
 20
34.8502
 11
132.6465
 21
34.8502
 40
3.6546
 41
0.5
 72
1
  1
木場
  0
TEXT
  8
LAYER_3
 10
151.2204
 20
34.8502
 11
151.2204
 21
34.8502
 40
3.6546
 41
0.5
 72
1
  1
井田
  0
TEXT
  8
LAYER_3
 10
253.4564
 20
30.3551
 11
253.4564
 21
30.3551
 40
3.9357
 41
0.5
 72
1
  1
KW2191032A
  0
TEXT
  8
LAYER_3
 10
203.8663
 20
34.4651
 11
203.8663
 21
34.4651
 40
3.6546
 41
0.5
 72
1
  1
1 ： 4
  0
ENDSEC
  0
EOF
