  0
SECTION
  2
HEADER
  9
$ACADVER
  1
AC1009
  9
$LUNITS
 70
2
  9
$LUPREC
 70
4
  9
$LTSCALE
 40
1.0
  9
$EXTMIN
 10
-104.7936
 20
0.176
 30
0
  9
$EXTMAX
 10
315.2069
 20
297.1763
 30
0
  0
ENDSEC
  0
SECTION
  2
TABLES
  0
TABLE
  2
LTYPE
 70
256
  0
LTYPE
  2
AIGENLINE001
 70
64
  3
generate AI->DXF Converter
 72
65
 73
6
 40
7.4083
 49
3.5278
 49
-0.7761
 49
0.7761
 49
-0.7761
 49
0.7761
 49
-0.7761
  0
LTYPE
  2
AIGENLINE002
 70
64
  3
generate AI->DXF Converter
 72
65
 73
4
 40
5.8561
 49
3.5278
 49
-0.7761
 49
0.7761
 49
-0.7761
  0
LTYPE
  2
AIGENLINE003
 70
64
  3
generate AI->DXF Converter
 72
65
 73
4
 40
9.4368
 49
4.9389
 49
-1.4993
 49
1.4993
 49
-1.4993
  0
ENDTAB
  0
TABLE
  2
LAYER
 70
3
  0
LAYER
  2
LAYER_1
 70
64
 62
7
  6
CONTINUOUS
  0
LAYER
  2
LAYER_2
 70
64
 62
7
  6
CONTINUOUS
  0
LAYER
  2
LAYER_3
 70
64
 62
7
  6
CONTINUOUS
  0
ENDTAB
  0
TABLE
  2
STYLE
 70
6
  0
STYLE
  2
STANDARD
 70
0
 40
0
 50
0
 71
0
 41
0
 42
0
  3
TXT
  4
BIGFONT
  0
ENDTAB
  0
ENDSEC
  0
SECTION
  2
BLOCKS
  0
BLOCK
  8
LAYER_2
  2
AIGNBL02010002
 70
64
 10
0
 20
0
 30
0
  3
AIGNBL02010002
  0
LINE
  8
LAYER_2
 10
78.2302
 20
269.6791
 11
64.0447
 21
255.494
  0
LINE
  8
LAYER_2
 10
75.3563
 20
267.6431
 11
74.2111
 21
265.6604
  0
LINE
  8
LAYER_2
 10
74.2111
 20
265.6604
 11
76.1941
 21
266.8051
  0
LINE
  8
LAYER_2
 10
76.1941
 20
266.8051
 11
75.3563
 21
267.6431
  0
LINE
  8
LAYER_2
 10
66.8793
 20
257.4904
 11
68.0237
 21
259.4731
  0
LINE
  8
LAYER_2
 10
68.0237
 20
259.4731
 11
66.0407
 21
258.3282
  0
LINE
  8
LAYER_2
 10
66.0407
 20
258.3282
 11
66.8793
 21
257.4904
  0
ENDBLK
  0
BLOCK
  8
LAYER_2
  2
AIGNBL02010003
 70
64
 10
0
 20
0
 30
0
  3
AIGNBL02010003
  0
LINE
  8
LAYER_2
 10
40.4682
 20
113.6558
 11
59.2581
 21
113.6558
  0
LINE
  8
LAYER_2
 10
49.2066
 20
113.0701
 11
51.417
 21
113.6627
  0
LINE
  8
LAYER_2
 10
51.417
 20
113.6627
 11
49.2066
 21
114.2552
  0
LINE
  8
LAYER_2
 10
49.2066
 20
114.2552
 11
49.2066
 21
113.0701
  0
LINE
  8
LAYER_2
 10
57.7533
 20
114.2407
 11
55.5422
 21
113.6482
  0
LINE
  8
LAYER_2
 10
55.5422
 20
113.6482
 11
57.7533
 21
113.0563
  0
LINE
  8
LAYER_2
 10
57.7533
 20
113.0563
 11
57.7533
 21
114.2407
  0
ENDBLK
  0
BLOCK
  8
LAYER_2
  2
AIGNBL02010004
 70
64
 10
0
 20
0
 30
0
  3
AIGNBL02010004
  0
LINE
  8
LAYER_2
 10
-33.9881
 20
184.3539
 11
-15.9
 21
184.3539
  0
LINE
  8
LAYER_2
 10
-31.9979
 20
183.7683
 11
-29.7875
 21
184.3609
  0
LINE
  8
LAYER_2
 10
-29.7875
 20
184.3609
 11
-31.9979
 21
184.9534
  0
LINE
  8
LAYER_2
 10
-31.9979
 20
184.9534
 11
-31.9979
 21
183.7683
  0
LINE
  8
LAYER_2
 10
-21.0153
 20
178.6103
 11
-18.8049
 21
179.2029
  0
LINE
  8
LAYER_2
 10
-18.8049
 20
179.2029
 11
-21.0153
 21
179.7954
  0
LINE
  8
LAYER_2
 10
-21.0153
 20
179.7954
 11
-21.0153
 21
178.6103
  0
LINE
  8
LAYER_2
 10
-17.6048
 20
184.9389
 11
-19.8158
 21
184.3464
  0
LINE
  8
LAYER_2
 10
-19.8158
 20
184.3464
 11
-17.6048
 21
183.7545
  0
LINE
  8
LAYER_2
 10
-17.6048
 20
183.7545
 11
-17.6048
 21
184.9389
  0
LINE
  8
LAYER_2
 10
-37.046
 20
168.3391
 11
-16.8145
 21
168.3391
  0
LINE
  8
LAYER_2
 10
-31.1904
 20
167.7534
 11
-28.98
 21
168.346
  0
LINE
  8
LAYER_2
 10
-28.98
 20
168.346
 11
-31.1904
 21
168.9385
  0
LINE
  8
LAYER_2
 10
-31.1904
 20
168.9385
 11
-31.1904
 21
167.7534
  0
LINE
  8
LAYER_2
 10
-18.5193
 20
168.924
 11
-20.7304
 21
168.3315
  0
LINE
  8
LAYER_2
 10
-20.7304
 20
168.3315
 11
-18.5193
 21
167.7396
  0
LINE
  8
LAYER_2
 10
-18.5193
 20
167.7396
 11
-18.5193
 21
168.924
  0
ENDBLK
  0
BLOCK
  8
LAYER_2
  2
AIGNBL02010005
 70
64
 10
0
 20
0
 30
0
  3
AIGNBL02010005
  0
LINE
  8
LAYER_2
 10
59.4317
 20
172.734
 11
59.4317
 21
165.234
  0
LINE
  8
LAYER_2
 10
58.8536
 20
167.4454
 11
59.4462
 21
165.234
  0
LINE
  8
LAYER_2
 10
59.4462
 20
165.234
 11
60.0387
 21
167.4454
  0
LINE
  8
LAYER_2
 10
60.0387
 20
167.4454
 11
58.8536
 21
167.4454
  0
LINE
  8
LAYER_2
 10
60.0243
 20
170.5226
 11
59.4317
 21
172.734
  0
LINE
  8
LAYER_2
 10
59.4317
 20
172.734
 11
58.8391
 21
170.5226
  0
LINE
  8
LAYER_2
 10
58.8391
 20
170.5226
 11
60.0243
 21
170.5226
  0
ENDBLK
  0
BLOCK
  8
LAYER_2
  2
AIGNBL02010006
 70
64
 10
0
 20
0
 30
0
  3
AIGNBL02010006
  0
LINE
  8
LAYER_2
 10
88.1548
 20
172.734
 11
88.1548
 21
95.2342
  0
LINE
  8
LAYER_2
 10
87.5767
 20
97.4452
 11
88.1693
 21
95.2342
  0
LINE
  8
LAYER_2
 10
88.1693
 20
95.2342
 11
88.7618
 21
97.4452
  0
LINE
  8
LAYER_2
 10
88.7618
 20
97.4452
 11
87.5767
 21
97.4452
  0
LINE
  8
LAYER_2
 10
88.7474
 20
170.5226
 11
88.1548
 21
172.734
  0
LINE
  8
LAYER_2
 10
88.1548
 20
172.734
 11
87.5623
 21
170.5226
  0
LINE
  8
LAYER_2
 10
87.5623
 20
170.5226
 11
88.7474
 21
170.5226
  0
ENDBLK
  0
BLOCK
  8
LAYER_2
  2
AIGNBL02010007
 70
64
 10
0
 20
0
 30
0
  3
AIGNBL02010007
  0
LINE
  8
LAYER_2
 10
29.1869
 20
172.734
 11
29.1869
 21
121.6594
  0
LINE
  8
LAYER_2
 10
28.6088
 20
123.8712
 11
29.2013
 21
121.6594
  0
LINE
  8
LAYER_2
 10
29.2013
 20
121.6594
 11
29.7939
 21
123.8712
  0
LINE
  8
LAYER_2
 10
29.7939
 20
123.8712
 11
28.6088
 21
123.8712
  0
LINE
  8
LAYER_2
 10
29.7794
 20
170.5226
 11
29.1869
 21
172.734
  0
LINE
  8
LAYER_2
 10
29.1869
 20
172.734
 11
28.5943
 21
170.5226
  0
LINE
  8
LAYER_2
 10
28.5943
 20
170.5226
 11
29.7794
 21
170.5226
  0
ENDBLK
  0
BLOCK
  8
LAYER_2
  2
AIGNBL02010008
 70
64
 10
0
 20
0
 30
0
  3
AIGNBL02010008
  0
LINE
  8
LAYER_2
 10
73.6172
 20
150.9839
 11
71.6173
 21
150.9839
  0
LINE
  8
LAYER_2
 10
71.6173
 20
150.9839
 11
71.6173
 21
158.9841
  0
LINE
  8
LAYER_2
 10
71.6173
 20
158.9841
 11
73.6172
 21
158.9841
  0
LINE
  8
LAYER_2
 10
73.6172
 20
158.9841
 11
73.6172
 21
150.9839
  0
LINE
  8
LAYER_2
 10
71.9922
 20
149.4832
 11
71.6173
 21
149.4832
  0
LINE
  8
LAYER_2
 10
71.6173
 20
149.4832
 11
71.6173
 21
150.9839
  0
LINE
  8
LAYER_2
 10
71.6173
 20
150.9839
 11
73.6172
 21
150.9839
  0
LINE
  8
LAYER_2
 10
73.6172
 20
150.9839
 11
73.6172
 21
149.4832
  0
LINE
  8
LAYER_2
 10
73.6172
 20
149.4832
 11
73.2424
 21
149.4832
  0
LINE
  8
LAYER_2
 10
73.2424
 20
149.4832
 11
73.2424
 21
146.9836
  0
LINE
  8
LAYER_2
 10
73.2424
 20
146.9836
 11
71.9922
 21
146.9836
  0
LINE
  8
LAYER_2
 10
71.9922
 20
146.9836
 11
71.9922
 21
149.4832
  0
ARC
  8
LAYER_2
 10
72.6082
 20
147.743
 40
0.2592
 50
272.0429641
 51
357.8652157
  0
ARC
  8
LAYER_2
 10
72.6266
 20
147.7433
 40
0.2595
 50
182.2019484
 51
267.9586403
  0
ARC
  8
LAYER_2
 10
72.6174
 20
147.7333
 40
0.2501
 50
90.00670752
 51
179.9932924
  0
ARC
  8
LAYER_2
 10
72.6079
 20
147.7241
 40
0.2594
 50
2.025970896
 51
87.90526041
  0
ENDBLK
  0
BLOCK
  8
LAYER_2
  2
AIGNBL02010009
 70
64
 10
0
 20
0
 30
0
  3
AIGNBL02010009
  0
LINE
  8
LAYER_2
 10
-22.3523
 20
150.9839
 11
-24.3522
 21
150.9839
  0
LINE
  8
LAYER_2
 10
-24.3522
 20
150.9839
 11
-24.3522
 21
158.9841
  0
LINE
  8
LAYER_2
 10
-24.3522
 20
158.9841
 11
-22.3523
 21
158.9841
  0
LINE
  8
LAYER_2
 10
-22.3523
 20
158.9841
 11
-22.3523
 21
150.9839
  0
LINE
  8
LAYER_2
 10
-23.9774
 20
146.9843
 11
-24.3522
 21
146.9843
  0
LINE
  8
LAYER_2
 10
-24.3522
 20
146.9843
 11
-24.3522
 21
150.9839
  0
LINE
  8
LAYER_2
 10
-24.3522
 20
150.9839
 11
-22.3523
 21
150.9839
  0
LINE
  8
LAYER_2
 10
-22.3523
 20
150.9839
 11
-22.3523
 21
146.9843
  0
LINE
  8
LAYER_2
 10
-22.3523
 20
146.9843
 11
-22.7271
 21
146.9843
  0
LINE
  8
LAYER_2
 10
-22.7271
 20
146.9843
 11
-22.7271
 21
149.4839
  0
LINE
  8
LAYER_2
 10
-22.7271
 20
149.4839
 11
-23.9774
 21
149.4839
  0
LINE
  8
LAYER_2
 10
-23.9774
 20
149.4839
 11
-23.9774
 21
146.9843
  0
ENDBLK
  0
BLOCK
  8
LAYER_2
  2
AIGNBL0201000A
 70
64
 10
0
 20
0
 30
0
  3
AIGNBL0201000A
  0
LINE
  8
LAYER_2
  6
AIGENLINE001
 10
79.4484
 20
216.0399
 11
80.0344
 21
217.5557
  0
LINE
  8
LAYER_2
  6
AIGENLINE001
 10
71.0578
 20
219.2038
 11
71.0017
 21
219.0584
  0
LINE
  8
LAYER_2
  6
AIGENLINE001
 10
56.9519
 20
224.9255
 11
57.4928
 21
226.3242
  0
LINE
  8
LAYER_2
  6
AIGENLINE001
 10
79.3516
 20
215.9971
 11
57.0952
 21
224.602
  0
LINE
  8
LAYER_2
  6
AIGENLINE001
 10
79.8628
 20
217.9436
 11
57.8163
 21
226.4671
  0
ARC
  8
LAYER_2
  6
AIGENLINE001
 10
79.7395
 20
217.6572
 40
0.3118
 50
341.0130934
 51
66.71438404
  0
ARC
  8
LAYER_2
  6
AIGENLINE001
 10
57.7314
 20
226.2217
 40
0.2597
 50
70.91656758
 51
156.7485063
  0
ARC
  8
LAYER_2
  6
AIGENLINE001
 10
57.1857
 20
224.8356
 40
0.2505
 50
158.9589439
 51
248.8246321
  0
ARC
  8
LAYER_2
  6
AIGENLINE001
 10
79.3771
 20
216.0703
 40
0.0775
 50
250.7696324
 51
336.9354848
  0
LINE
  8
LAYER_2
  6
AIGENLINE001
 10
70.4994
 20
219.4998
 11
70.4812
 21
219.5053
  0
LINE
  8
LAYER_2
  6
AIGENLINE001
 10
70.4812
 20
219.5053
 11
70.4588
 21
219.5118
  0
LINE
  8
LAYER_2
  6
AIGENLINE001
 10
70.4588
 20
219.5118
 11
70.4332
 21
219.5194
  0
LINE
  8
LAYER_2
  6
AIGENLINE001
 10
70.4332
 20
219.5194
 11
70.4033
 21
219.5284
  0
LINE
  8
LAYER_2
  6
AIGENLINE001
 10
70.4033
 20
219.5284
 11
70.3688
 21
219.5384
  0
LINE
  8
LAYER_2
  6
AIGENLINE001
 10
70.3688
 20
219.5384
 11
70.3299
 21
219.5494
  0
LINE
  8
LAYER_2
  6
AIGENLINE001
 10
70.3299
 20
219.5494
 11
70.2855
 21
219.5621
  0
LINE
  8
LAYER_2
  6
AIGENLINE001
 10
70.2855
 20
219.5621
 11
70.2383
 21
219.5749
  0
LINE
  8
LAYER_2
  6
AIGENLINE001
 10
70.2383
 20
219.5749
 11
70.1928
 21
219.5869
  0
LINE
  8
LAYER_2
  6
AIGENLINE001
 10
70.1928
 20
219.5869
 11
70.1483
 21
219.5987
  0
LINE
  8
LAYER_2
  6
AIGENLINE001
 10
70.1483
 20
219.5987
 11
70.1042
 21
219.61
  0
LINE
  8
LAYER_2
  6
AIGENLINE001
 10
70.1042
 20
219.61
 11
70.0588
 21
219.6214
  0
LINE
  8
LAYER_2
  6
AIGENLINE001
 10
70.0588
 20
219.6214
 11
70.0129
 21
219.6331
  0
LINE
  8
LAYER_2
  6
AIGENLINE001
 10
70.0129
 20
219.6331
 11
69.9709
 21
219.6438
  0
LINE
  8
LAYER_2
  6
AIGENLINE001
 10
69.9709
 20
219.6438
 11
69.9341
 21
219.6538
  0
LINE
  8
LAYER_2
  6
AIGENLINE001
 10
69.9341
 20
219.6538
 11
69.9007
 21
219.6624
  0
LINE
  8
LAYER_2
  6
AIGENLINE001
 10
69.9007
 20
219.6624
 11
69.871
 21
219.671
  0
LINE
  8
LAYER_2
  6
AIGENLINE001
 10
69.871
 20
219.671
 11
69.8445
 21
219.6793
  0
LINE
  8
LAYER_2
  6
AIGENLINE001
 10
69.8445
 20
219.6793
 11
69.8207
 21
219.6865
  0
LINE
  8
LAYER_2
  6
AIGENLINE001
 10
69.8207
 20
219.6865
 11
69.799
 21
219.6934
  0
LINE
  8
LAYER_2
  6
AIGENLINE001
 10
69.799
 20
219.6934
 11
69.7794
 21
219.6999
  0
LINE
  8
LAYER_2
  6
AIGENLINE001
 10
69.7794
 20
219.6999
 11
69.7615
 21
219.7061
  0
LINE
  8
LAYER_2
  6
AIGENLINE001
 10
69.7615
 20
219.7061
 11
69.7449
 21
219.7117
  0
LINE
  8
LAYER_2
  6
AIGENLINE001
 10
69.7449
 20
219.7117
 11
69.7301
 21
219.7172
  0
LINE
  8
LAYER_2
  6
AIGENLINE001
 10
69.7301
 20
219.7172
 11
69.7167
 21
219.722
  0
LINE
  8
LAYER_2
  6
AIGENLINE001
 10
69.7167
 20
219.722
 11
69.7043
 21
219.7271
  0
LINE
  8
LAYER_2
  6
AIGENLINE001
 10
70.4994
 20
219.4998
 11
70.4966
 21
219.4905
  0
LINE
  8
LAYER_2
  6
AIGENLINE001
 10
70.4966
 20
219.4905
 11
70.4946
 21
219.4808
  0
LINE
  8
LAYER_2
  6
AIGENLINE001
 10
70.4946
 20
219.4808
 11
70.4939
 21
219.4712
  0
LINE
  8
LAYER_2
  6
AIGENLINE001
 10
70.4939
 20
219.4712
 11
70.4946
 21
219.4615
  0
LINE
  8
LAYER_2
  6
AIGENLINE001
 10
70.4946
 20
219.4615
 11
70.4963
 21
219.4522
  0
LINE
  8
LAYER_2
  6
AIGENLINE001
 10
70.4963
 20
219.4522
 11
70.4994
 21
219.4429
  0
LINE
  8
LAYER_2
  6
AIGENLINE001
 10
70.4994
 20
219.4429
 11
70.5039
 21
219.4347
  0
LINE
  8
LAYER_2
  6
AIGENLINE001
 10
70.5039
 20
219.4347
 11
70.5091
 21
219.4264
  0
LINE
  8
LAYER_2
  6
AIGENLINE001
 10
70.5091
 20
219.4264
 11
70.5152
 21
219.4195
  0
LINE
  8
LAYER_2
  6
AIGENLINE001
 10
70.5152
 20
219.4195
 11
70.5221
 21
219.4133
  0
LINE
  8
LAYER_2
  6
AIGENLINE001
 10
70.5221
 20
219.4133
 11
70.53
 21
219.4085
  0
LINE
  8
LAYER_2
  6
AIGENLINE001
 10
70.53
 20
219.4085
 11
70.5383
 21
219.4047
  0
ENDBLK
  0
BLOCK
  8
LAYER_2
  2
AIGNBL0201000B
 70
64
 10
0
 20
0
 30
0
  3
AIGNBL0201000B
  0
ARC
  8
LAYER_2
 10
-27.0404
 20
204.5191
 40
0.318
 50
114.1232476
 51
171.7415299
  0
ARC
  8
LAYER_2
 10
-25.9742
 20
202.6026
 40
2.5101
 50
98.0756487
 51
118.4605069
  0
ARC
  8
LAYER_2
 10
-24.907
 20
197.0234
 40
8.1885
 50
89.63753143
 51
99.98474325
  0
ARC
  8
LAYER_2
 10
-24.7905
 20
197.2307
 40
7.9813
 50
79.32223089
 51
90.46440552
  0
ARC
  8
LAYER_2
 10
-23.6593
 20
202.8153
 40
2.2851
 50
60.02360477
 51
81.25048038
  0
ARC
  8
LAYER_2
 10
-22.652
 20
204.5275
 40
0.2991
 50
7.167766424
 51
63.300912
  0
LINE
  8
LAYER_2
 10
-27.3551
 20
204.5648
 11
-27.3551
 21
203.3574
  0
LINE
  8
LAYER_2
 10
-22.3552
 20
204.5648
 11
-22.3552
 21
203.3574
  0
ENDBLK
  0
BLOCK
  8
LAYER_3
  2
AIGNBL03010002
 70
64
 10
0
 20
0
 30
0
  3
AIGNBL03010002
  0
ARC
  8
LAYER_3
 10
181.2361
 20
51.0518
 40
2.085
 50
359.9990616
 51
90.00093841
  0
ARC
  8
LAYER_3
 10
181.2364
 20
51.0522
 40
2.0846
 50
90.00927268
 51
180.0099666
  0
ARC
  8
LAYER_3
 10
181.2361
 20
51.0519
 40
2.0843
 50
180.0023133
 51
270.0004358
  0
ARC
  8
LAYER_3
 10
181.2365
 20
51.0522
 40
2.0846
 50
269.9893525
 51
359.9886593
  0
ARC
  8
LAYER_3
 10
181.2365
 20
51.0515
 40
1.2199
 50
0.01483428533
 51
90.01804168
  0
ARC
  8
LAYER_3
 10
181.2361
 20
51.0519
 40
1.2195
 50
90.00175626
 51
180.0029419
  0
ARC
  8
LAYER_3
 10
181.2361
 20
51.0518
 40
1.2195
 50
180.0016044
 51
269.9983956
  0
ARC
  8
LAYER_3
 10
181.2365
 20
51.0522
 40
1.2199
 50
269.9818051
 51
359.9806209
  0
LINE
  8
LAYER_3
 10
184.9472
 20
49.8323
 11
184.9472
 21
52.2714
  0
LINE
  8
LAYER_3
 10
190.1252
 20
48.9676
 11
190.1252
 21
53.1368
  0
LINE
  8
LAYER_3
 10
184.9472
 20
52.2714
 11
190.1252
 21
53.1368
  0
LINE
  8
LAYER_3
 10
184.9472
 20
49.8323
 11
190.1252
 21
48.9676
  0
LINE
  8
LAYER_3
 10
181.2361
 20
51.0518
 11
181.2361
 21
50.8004
  0
LINE
  8
LAYER_3
 10
181.2361
 20
50.5599
 11
181.2361
 21
48.3729
  0
LINE
  8
LAYER_3
 10
181.2361
 20
51.0518
 11
181.4883
 21
51.0518
  0
LINE
  8
LAYER_3
 10
181.7288
 20
51.0518
 11
183.9157
 21
51.0518
  0
LINE
  8
LAYER_3
 10
181.2361
 20
51.0518
 11
181.2361
 21
51.304
  0
LINE
  8
LAYER_3
 10
181.2361
 20
51.5445
 11
181.2361
 21
53.7314
  0
LINE
  8
LAYER_3
 10
181.2361
 20
51.0518
 11
180.9846
 21
51.0518
  0
LINE
  8
LAYER_3
 10
180.7442
 20
51.0518
 11
178.5572
 21
51.0518
  0
LINE
  8
LAYER_3
 10
187.1404
 20
51.0518
 11
187.3925
 21
51.0518
  0
LINE
  8
LAYER_3
 10
187.633
 20
51.0518
 11
190.5579
 21
51.0518
  0
LINE
  8
LAYER_3
 10
187.1404
 20
51.0518
 11
186.8882
 21
51.0518
  0
LINE
  8
LAYER_3
 10
186.6477
 20
51.0518
 11
184.4614
 21
51.0518
  0
ENDBLK
  0
ENDSEC
  0
SECTION
  2
ENTITIES
  0
TEXT
  8
LAYER_1
 10
-77.8468
 20
20.8373
 11
-77.8468
 21
20.8373
 40
3.6546
 41
0.5
  1
・連結金具の取付位置は95にしてください。
  0
TEXT
  8
LAYER_1
 10
-77.8468
 20
27.3609
 11
-77.8468
 21
27.3609
 40
3.6546
 41
0.5
  1
・国産洗面器とのセットの場合は国産の排水ヘッド部を別途準備してください。
  0
TEXT
  8
LAYER_1
 10
-26.0341
 20
185.054
 11
-26.0341
 21
185.054
 40
3.0923
 41
0.5
 72
1
  1
%%c40
  0
TEXT
  8
LAYER_1
 10
-25.6341
 20
179.9029
 11
-25.6341
 21
179.9029
 40
3.0923
 41
0.5
 72
1
  1
%%c48
  0
TEXT
  8
LAYER_1
 10
87.1919
 20
133.9839
 11
87.1919
 21
133.9839
 40
3.0923
 41
0.5
 50
89.99999999
 72
1
  1
310
  0
TEXT
  8
LAYER_1
 10
28.4355
 20
147.1965
 11
28.4355
 21
147.1965
 40
3.0923
 41
0.5
 50
89.99999999
 72
1
  1
425
  0
TEXT
  8
LAYER_1
 10
79.0742
 20
112.6615
 11
79.0742
 21
112.6615
 40
3.0923
 41
0.5
 72
2
  1
%%c5
  0
TEXT
  8
LAYER_1
 10
58.3286
 20
172.3492
 11
58.3286
 21
172.3492
 40
3.0923
 41
0.5
 50
89.99999999
 72
2
  1
max.40
  0
TEXT
  8
LAYER_1
 10
40.6197
 20
114.5336
 11
40.6197
 21
114.5336
 40
3.0923
 41
0.5
  1
PF 3/8
  0
TEXT
  8
LAYER_1
 10
-25.6207
 20
86.835
 11
-25.6207
 21
86.835
 40
3.0923
 41
0.5
 72
1
  1
%%c63
  0
TEXT
  8
LAYER_1
 10
-11.3188
 20
51.8094
 11
-11.3188
 21
51.8094
 40
3.0923
 41
0.5
 72
2
  1
G1 1/4
  0
TEXT
  8
LAYER_1
 10
13.816
 20
68.1057
 11
13.816
 21
68.1057
 40
3.0923
 41
0.5
 50
89.99999999
 72
2
  1
%%c5
  0
TEXT
  8
LAYER_1
 10
-1.1052
 20
38.4211
 11
-1.1052
 21
38.4211
 40
3.0923
 41
0.5
 72
1
  1
190
  0
TEXT
  8
LAYER_1
 10
-12.9801
 20
45.6599
 11
-12.9801
 21
45.6599
 40
3.0923
 41
0.5
 72
1
  1
（95）
  0
TEXT
  8
LAYER_1
 10
50.6508
 20
215.408
 11
50.6508
 21
215.408
 40
3.0923
 41
0.5
 72
2
  1
閉
  0
TEXT
  8
LAYER_1
 10
57.9517
 20
228.0353
 11
57.9517
 21
228.0353
 40
3.0923
 41
0.5
 72
2
  1
開
  0
TEXT
  8
LAYER_1
 10
-42.1487
 20
250.4788
 11
-42.1487
 21
250.4788
 40
3.0923
 41
0.5
 72
2
  1
湯
  0
TEXT
  8
LAYER_1
 10
-13.4855
 20
239.7228
 11
-13.4855
 21
239.7228
 40
3.0923
 41
0.5
 72
1
  1
50%%d
  0
TEXT
  8
LAYER_1
 10
-36.8756
 20
239.7228
 11
-36.8756
 21
239.7228
 40
3.0923
 41
0.5
 72
1
  1
50%%d
  0
TEXT
  8
LAYER_1
 10
-7.903
 20
250.4788
 11
-7.903
 21
250.4788
 40
3.0923
 41
0.5
  1
水
  0
TEXT
  8
LAYER_1
 10
71.1175
 20
249.885
 11
71.1175
 21
249.885
 40
3.0923
 41
0.5
 72
1
  1
水栓取付穴
  0
TEXT
  8
LAYER_1
 10
82.7925
 20
270.3792
 11
82.7925
 21
270.3792
 40
3.0923
 41
0.5
 72
2
  1
%%c35
  0
TEXT
  8
LAYER_1
 10
38.1422
 20
187.6044
 11
38.1422
 21
187.6044
 40
3.0923
 41
0.5
 72
2
  1
15%%d
  0
TEXT
  8
LAYER_1
 10
55.4926
 20
185.3716
 11
55.4926
 21
185.3716
 40
3.0923
 41
0.5
 72
1
  1
125
  0
TEXT
  8
LAYER_1
 10
20.8907
 20
187.984
 11
20.8907
 21
187.984
 40
3.0923
 41
0.5
 50
89.99999999
 72
1
  1
122
  0
TEXT
  8
LAYER_1
 10
28.4286
 20
187.7339
 11
28.4286
 21
187.7339
 40
3.0923
 41
0.5
 50
89.99999999
 72
1
  1
120
  0
TEXT
  8
LAYER_1
 10
87.3504
 20
196.109
 11
87.3504
 21
196.109
 40
3.0923
 41
0.5
 50
89.99999999
 72
1
  1
187
  0
TEXT
  8
LAYER_1
 10
13.3525
 20
199.609
 11
13.3525
 21
199.609
 40
3.0923
 41
0.5
 50
89.99999999
 72
1
  1
215
  0
TEXT
  8
LAYER_1
 10
-37.046
 20
169.0391
 11
-37.046
 21
169.0391
 40
3.0923
 41
0.5
  1
%%c33
  0
TEXT
  8
LAYER_1
 10
-12.9734
 20
115.9316
 11
-12.9734
 21
115.9316
 40
3.0923
 41
0.5
 72
1
  1
水側
  0
TEXT
  8
LAYER_1
 10
-37.7371
 20
115.9316
 11
-37.7371
 21
115.9316
 40
3.0923
 41
0.5
 72
1
  1
湯側
  0
TEXT
  8
LAYER_1
 10
27.6819
 20
74.855
 11
27.6819
 21
74.855
 40
3.0923
 41
0.5
 72
2
  1
連結金具取付位置
  0
TEXT
  8
LAYER_1
 10
-40.9069
 20
75.5582
 11
-40.9069
 21
75.5582
 40
3.0923
 41
0.5
 50
89.99999999
 72
1
  1
max.45
  0
TEXT
  8
LAYER_1
 10
-40.5755
 20
63.5055
 11
-40.5755
 21
63.5055
 40
3.0923
 41
0.5
 50
89.99999999
 72
1
  1
50
  0
LINE
  8
LAYER_2
 10
-14.7996
 20
64.2572
 11
-15.5558
 21
64.2572
  0
LINE
  8
LAYER_2
 10
-16.6248
 20
63.8817
 11
-16.1897
 21
63.6288
  0
LINE
  8
LAYER_2
 10
-16.1897
 20
59.7786
 11
-16.1897
 21
63.8817
  0
LINE
  8
LAYER_2
 10
-31.3595
 20
71.051
 11
-18.3481
 21
71.051
  0
LINE
  8
LAYER_2
 10
-26.1047
 20
71.5505
 11
-23.6049
 21
71.5505
  0
LINE
  8
LAYER_2
 10
-26.1047
 20
74.5505
 11
-23.6049
 21
74.5505
  0
LINE
  8
LAYER_2
 10
-29.5549
 20
57.4022
 11
-29.5549
 21
58.9146
  0
LINE
  8
LAYER_2
 10
-32.3851
 20
69.6853
 11
-32.3851
 21
69.9024
  0
LINE
  8
LAYER_2
 10
-32.3851
 20
69.6853
 11
-30.604
 21
68.6573
  0
LINE
  8
LAYER_2
 10
-20.1533
 20
57.4022
 11
-29.5549
 21
57.4022
  0
LINE
  8
LAYER_2
 10
-29.8478
 20
57.695
 11
-29.8478
 21
58.9146
  0
LINE
  8
LAYER_2
 10
-19.8615
 20
58.9146
 11
-19.8615
 21
57.695
  0
LINE
  8
LAYER_2
 10
-19.8615
 20
57.695
 11
-20.1533
 21
57.4022
  0
LINE
  8
LAYER_2
 10
-29.8478
 20
57.695
 11
-29.5549
 21
57.4022
  0
LINE
  8
LAYER_2
 10
-29.7944
 20
58.9146
 11
-29.7944
 21
59.5629
  0
LINE
  8
LAYER_2
 10
-19.9156
 20
58.9146
 11
-19.9156
 21
59.5629
  0
LINE
  8
LAYER_2
 10
-19.8615
 20
58.9146
 11
-29.7944
 21
58.9146
  0
LINE
  8
LAYER_2
 10
-17.3242
 20
69.6853
 11
-17.3242
 21
69.9024
  0
LINE
  8
LAYER_2
 10
-17.3242
 20
69.6853
 11
-19.1053
 21
68.6573
  0
LINE
  8
LAYER_2
 10
-29.8478
 20
57.695
 11
-19.8615
 21
57.695
  0
LINE
  8
LAYER_2
 10
-20.1533
 20
57.4022
 11
-20.1533
 21
58.9146
  0
LINE
  8
LAYER_2
 10
-16.1897
 20
60.028
 11
-16.6248
 21
59.7786
  0
LINE
  8
LAYER_2
 10
-30.0641
 20
59.5629
 11
-30.0641
 21
67.7216
  0
ARC
  8
LAYER_2
 10
-18.5447
 20
67.7103
 40
1.1004
 50
120.6249668
 51
179.4142282
  0
ARC
  8
LAYER_2
 10
-31.1659
 20
67.7095
 40
1.1019
 50
0.631561879
 51
59.33843119
  0
LINE
  8
LAYER_2
 10
-19.6451
 20
67.7216
 11
-19.6451
 21
64.3123
  0
ARC
  8
LAYER_2
 10
-18.3733
 20
70.3799
 40
0.6716
 50
1.876619255
 51
87.8490906
  0
ARC
  8
LAYER_2
 10
-18.354
 20
70.4052
 40
0.6519
 50
309.526606
 51
359.7071026
  0
ARC
  8
LAYER_2
 10
-31.3342
 20
70.3774
 40
0.6741
 50
92.14736337
 51
177.9144586
  0
ARC
  8
LAYER_2
 10
-31.3522
 20
70.4077
 40
0.6558
 50
180.508973
 51
230.4070305
  0
LINE
  8
LAYER_2
  6
AIGENLINE002
 10
-24.8552
 20
55.2814
 11
-24.8552
 21
81.3091
  0
LINE
  8
LAYER_2
 10
-26.73
 20
72.1754
 11
-26.73
 21
73.9255
  0
LINE
  8
LAYER_2
 10
-22.98
 20
72.1754
 11
-22.98
 21
73.9255
  0
ARC
  8
LAYER_2
 10
-32.7228
 20
76.5654
 40
2.9381
 50
44.97720572
 51
81.70629153
  0
ARC
  8
LAYER_2
 10
-32.2157
 20
77.0404
 40
2.2437
 50
24.94943019
 51
45.55171177
  0
ARC
  8
LAYER_2
 10
-31.6416
 20
77.3139
 40
1.6079
 50
0.6712342304
 51
24.74247511
  0
ARC
  8
LAYER_2
 10
-18.1169
 20
77.3222
 40
1.604
 50
155.2313439
 51
179.6248512
  0
ARC
  8
LAYER_2
 10
-17.564
 20
77.0558
 40
2.2177
 50
134.0663837
 51
154.966451
  0
ARC
  8
LAYER_2
 10
-16.9894
 20
76.4725
 40
3.0365
 50
98.85543785
 51
134.2028969
  0
LINE
  8
LAYER_2
 10
-15.6637
 20
60.028
 11
-16.1897
 21
60.028
  0
LINE
  8
LAYER_2
 10
-16.1897
 20
63.6288
 11
-15.6637
 21
63.6288
  0
LINE
  8
LAYER_2
 10
-15.6637
 20
59.7786
 11
-19.2713
 21
59.7786
  0
LINE
  8
LAYER_2
 10
-19.2138
 20
63.8817
 11
-15.6637
 21
63.8817
  0
LINE
  8
LAYER_2
 10
-15.5558
 20
64.2572
 11
-15.6637
 21
64.1511
  0
LINE
  8
LAYER_2
 10
-15.6637
 20
59.5085
 11
-15.5558
 21
59.3997
  0
ARC
  8
LAYER_2
 10
-19.1978
 20
64.329
 40
0.4476
 50
182.1423272
 51
267.9507394
  0
LINE
  8
LAYER_2
 10
-15.6637
 20
59.5085
 11
-15.6637
 21
64.1511
  0
ARC
  8
LAYER_2
 10
-19.2656
 20
59.3369
 40
0.4417
 50
90.74314155
 51
149.2307521
  0
LINE
  8
LAYER_2
 10
0.0055
 20
62.4548
 11
22.3978
 21
62.4548
  0
LINE
  8
LAYER_2
 10
-12.4242
 20
62.4548
 11
-2.2097
 21
62.4548
  0
LINE
  8
LAYER_2
  6
AIGENLINE002
 10
-21.7329
 20
61.8298
 11
24.1653
 21
61.8298
  0
LINE
  8
LAYER_2
 10
0.0055
 20
61.2049
 11
22.3978
 21
61.2049
  0
LINE
  8
LAYER_2
 10
-12.4242
 20
61.2049
 11
-2.2097
 21
61.2049
  0
LINE
  8
LAYER_2
 10
-24.8552
 20
54.2534
 11
-24.8552
 21
36.7047
  0
LINE
  8
LAYER_2
 10
-17.0193
 20
86.135
 11
-32.6159
 21
86.135
  0
LINE
  8
LAYER_2
 10
-30.5058
 20
86.7199
 11
-32.7158
 21
86.1274
  0
LINE
  8
LAYER_2
 10
-32.7158
 20
86.1274
 11
-30.5058
 21
85.5348
  0
LINE
  8
LAYER_2
 10
-30.5058
 20
85.5348
 11
-30.5058
 21
86.7199
  0
LINE
  8
LAYER_2
 10
-19.2024
 20
85.5493
 11
-16.9924
 21
86.1418
  0
LINE
  8
LAYER_2
 10
-16.9924
 20
86.1418
 11
-19.2024
 21
86.7344
  0
LINE
  8
LAYER_2
 10
-19.2024
 20
86.7344
 11
-19.2024
 21
85.5493
  0
LINE
  8
LAYER_2
 10
-16.9924
 20
80.1309
 11
-16.9924
 21
86.5656
  0
LINE
  8
LAYER_2
 10
-16.6248
 20
63.8817
 11
-16.6248
 21
59.7786
  0
LINE
  8
LAYER_2
 10
-17.3242
 20
69.9024
 11
-32.3851
 21
69.9024
  0
LINE
  8
LAYER_2
 10
-19.6451
 20
59.5629
 11
-30.0641
 21
59.5629
  0
ARC
  8
LAYER_2
 10
-12.7438
 20
64.0351
 40
0.3188
 50
2.156658059
 51
88.16014979
  0
ARC
  8
LAYER_2
 10
-12.7363
 20
59.7204
 40
0.3209
 50
272.1991331
 51
357.8380117
  0
LINE
  8
LAYER_2
 10
-12.4253
 20
59.7083
 11
-12.4253
 21
64.0471
  0
LINE
  8
LAYER_2
 10
-32.7158
 20
79.468
 11
-16.9666
 21
79.468
  0
LINE
  8
LAYER_2
 10
-19.8615
 20
77.1385
 11
-19.8615
 21
74.5505
  0
LINE
  8
LAYER_2
 10
-19.8615
 20
71.5505
 11
-19.8615
 21
71.051
  0
LINE
  8
LAYER_2
 10
-19.7209
 20
77.3327
 11
-19.8615
 21
77.1385
  0
LINE
  8
LAYER_2
 10
-29.8478
 20
77.1385
 11
-30.0338
 21
77.3327
  0
LINE
  8
LAYER_2
 10
-29.8478
 20
71.051
 11
-29.8478
 21
71.5505
  0
LINE
  8
LAYER_2
 10
-29.8478
 20
74.5505
 11
-29.8478
 21
77.1385
  0
ARC
  8
LAYER_2
 10
-29.7443
 20
74.1493
 40
0.4012
 50
0.02469222712
 51
90.0181564
  0
LINE
  8
LAYER_2
 10
-29.8478
 20
74.5505
 11
-29.7444
 21
74.5505
  0
ARC
  8
LAYER_2
 10
-19.9529
 20
74.1493
 40
0.4012
 50
89.98065302
 51
179.9764983
  0
LINE
  8
LAYER_2
 10
-19.9528
 20
74.5505
 11
-19.8615
 21
74.5505
  0
ARC
  8
LAYER_2
 10
-29.7611
 20
71.9684
 40
0.4182
 50
272.2846332
 51
357.971787
  0
LINE
  8
LAYER_2
 10
-29.8478
 20
71.5505
 11
-29.7444
 21
71.5505
  0
LINE
  8
LAYER_2
 10
-29.3431
 20
71.9536
 11
-29.3431
 21
74.1495
  0
ARC
  8
LAYER_2
 10
-19.9371
 20
71.9675
 40
0.4173
 50
181.9035452
 51
267.8400346
  0
LINE
  8
LAYER_2
 10
-20.3541
 20
71.9536
 11
-20.3541
 21
74.1495
  0
LINE
  8
LAYER_2
 10
-19.9528
 20
71.5505
 11
-19.8615
 21
71.5505
  0
LINE
  8
LAYER_2
 10
-32.7158
 20
79.468
 11
-32.7158
 21
79.5934
  0
ARC
  8
LAYER_2
 10
-32.397
 20
79.5825
 40
0.319
 50
91.89468238
 51
178.0495372
  0
ARC
  8
LAYER_2
 10
-17.3124
 20
79.5821
 40
0.3202
 50
2.022460058
 51
88.10731514
  0
LINE
  8
LAYER_2
 10
-32.4075
 20
79.9021
 11
-17.3018
 21
79.9021
  0
LINE
  8
LAYER_2
 10
-32.7158
 20
80.3754
 11
-32.7158
 21
86.5656
  0
LINE
  8
LAYER_2
 10
14.5161
 20
69.3305
 11
14.5161
 21
57.4125
  0
LINE
  8
LAYER_2
 10
13.9314
 20
64.6644
 11
14.524
 21
62.4541
  0
LINE
  8
LAYER_2
 10
14.524
 20
62.4541
 11
15.1155
 21
64.6644
  0
LINE
  8
LAYER_2
 10
15.1155
 20
64.6644
 11
13.9314
 21
64.6644
  0
LINE
  8
LAYER_2
 10
15.1011
 20
58.9952
 11
14.5092
 21
61.2056
  0
LINE
  8
LAYER_2
 10
14.5092
 20
61.2056
 11
13.9166
 21
58.9952
  0
LINE
  8
LAYER_2
 10
13.9166
 20
58.9952
 11
15.1011
 21
58.9952
  0
ARC
  8
LAYER_2
 10
-13.9947
 20
62.3537
 40
0.6344
 50
48.88601864
 51
88.94772964
  0
ARC
  8
LAYER_2
 10
-14.2963
 20
62.022
 40
1.0826
 50
17.57172523
 51
48.40924217
  0
ARC
  8
LAYER_2
 10
-14.7293
 20
61.8626
 40
1.5437
 50
359.8805699
 51
18.35874607
  0
ARC
  8
LAYER_2
 10
-14.6559
 20
61.8469
 40
1.4703
 50
334.155493
 51
0.485469058
  0
ARC
  8
LAYER_2
 10
-14.1705
 20
61.6009
 40
0.9263
 50
301.8692113
 51
334.7677889
  0
ARC
  8
LAYER_2
 10
-13.9857
 20
61.3275
 40
0.5967
 50
270.2502495
 51
300.6560063
  0
ARC
  8
LAYER_2
 10
-13.9712
 20
61.3658
 40
0.6351
 50
228.9074913
 51
268.9228464
  0
ARC
  8
LAYER_2
 10
-13.6695
 20
61.6988
 40
1.0844
 50
197.6482326
 51
228.4577796
  0
ARC
  8
LAYER_2
 10
-13.2436
 20
61.8563
 40
1.5381
 50
179.8836352
 51
198.4290467
  0
ARC
  8
LAYER_2
 10
-13.315
 20
61.8716
 40
1.4668
 50
154.0754894
 51
180.4770261
  0
ARC
  8
LAYER_2
 10
-13.7948
 20
62.1159
 40
0.9284
 50
121.8400314
 51
154.6869128
  0
ARC
  8
LAYER_2
 10
-13.9804
 20
62.3912
 40
0.5968
 50
90.26020529
 51
120.649935
  0
ARC
  8
LAYER_2
 10
-13.9933
 20
62.8743
 40
1.6362
 50
67.47059064
 51
92.05712705
  0
ARC
  8
LAYER_2
 10
-13.4175
 20
64.1998
 40
0.1927
 50
8.509795704
 51
74.60871042
  0
ARC
  8
LAYER_2
 10
-14.4624
 20
64.1898
 40
1.2361
 50
333.1126243
 51
1.782888499
  0
ARC
  8
LAYER_2
 10
-13.9758
 20
63.9665
 40
0.7015
 50
269.407702
 51
331.4092003
  0
ARC
  8
LAYER_2
 10
-13.9838
 20
64.0191
 40
0.754
 50
233.2510708
 51
270.0531167
  0
ARC
  8
LAYER_2
 10
-13.8913
 20
64.1153
 40
0.8866
 50
198.1100893
 51
232.1778536
  0
ARC
  8
LAYER_2
 10
-13.4792
 20
64.2509
 40
1.3204
 50
179.7281777
 51
198.1471481
  0
ARC
  8
LAYER_2
 10
-14.5447
 20
64.1639
 40
0.2715
 50
95.84098879
 51
159.8950282
  0
ARC
  8
LAYER_2
 10
-14.0676
 20
62.7855
 40
1.724
 50
89.48027811
 51
107.0207669
  0
ARC
  8
LAYER_2
 10
-13.9527
 20
59.5147
 40
0.8707
 50
57.66537229
 51
92.00124047
  0
ARC
  8
LAYER_2
 10
-13.8755
 20
59.6953
 40
0.6776
 50
16.48343665
 51
55.01028018
  0
ARC
  8
LAYER_2
 10
-14.4186
 20
59.5404
 40
1.2423
 50
359.7058415
 51
16.22827781
  0
ARC
  8
LAYER_2
 10
-13.6161
 20
59.672
 40
0.4609
 50
295.3205765
 51
342.5806935
  0
ARC
  8
LAYER_2
 10
-14.0295
 20
60.1814
 40
1.1092
 50
271.1904862
 51
303.3989551
  0
ARC
  8
LAYER_2
 10
-13.9798
 20
59.9366
 40
0.8646
 50
204.4458601
 51
268.2296656
  0
ARC
  8
LAYER_2
 10
-13.8296
 20
59.6264
 40
0.9386
 50
149.7332464
 51
182.9099971
  0
ARC
  8
LAYER_2
 10
-14.1432
 20
59.7667
 40
0.5982
 50
105.2119087
 51
146.1903034
  0
ARC
  8
LAYER_2
 10
-13.9861
 20
59.1631
 40
1.2218
 50
89.85752244
 51
104.8914179
  0
LINE
  8
LAYER_2
 10
-12.724
 20
59.3997
 11
-13.2476
 21
59.3997
  0
LINE
  8
LAYER_2
 10
-14.6704
 20
59.3997
 11
-15.5558
 21
59.3997
  0
LINE
  8
LAYER_2
 10
-12.7336
 20
64.3537
 11
-13.3141
 21
64.3537
  0
ARC
  8
LAYER_2
 10
-15.7002
 20
61.4554
 40
4.5869
 50
151.1870404
 51
169.488933
  0
ARC
  8
LAYER_2
 10
-15.9332
 20
62.6515
 40
4.4097
 50
196.2646759
 51
211.2055333
  0
ARC
  8
LAYER_2
 10
-18.6382
 20
61.191
 40
1.3481
 50
217.6960574
 51
223.8283226
  0
LINE
  8
LAYER_2
 10
-16.9924
 20
79.5934
 11
-16.9924
 21
79.468
  0
LINE
  8
LAYER_2
 10
-20.1533
 20
56.9123
 11
-20.1533
 21
50.5292
  0
LINE
  8
LAYER_2
 10
-29.5549
 20
56.9123
 11
-29.5549
 21
50.4583
  0
LINE
  8
LAYER_2
 10
-29.5284
 20
51.1094
 11
-20.1809
 21
51.1094
  0
LINE
  8
LAYER_2
 10
-22.3643
 20
50.5244
 11
-20.1533
 21
51.1169
  0
LINE
  8
LAYER_2
 10
-20.1533
 20
51.1169
 11
-22.3643
 21
51.7095
  0
LINE
  8
LAYER_2
 10
-22.3643
 20
51.7095
 11
-22.3643
 21
50.5244
  0
LINE
  8
LAYER_2
 10
-27.3449
 20
51.6944
 11
-29.5549
 21
51.1025
  0
LINE
  8
LAYER_2
 10
-29.5549
 20
51.1025
 11
-27.3449
 21
50.5099
  0
LINE
  8
LAYER_2
 10
-27.3449
 20
50.5099
 11
-27.3449
 21
51.6944
  0
LINE
  8
LAYER_2
 10
-20.1533
 20
51.1094
 11
-11.3189
 21
51.1094
  0
LINE
  8
LAYER_2
 10
22.6448
 20
60.755
 11
22.6448
 21
36.8522
  0
LINE
  8
LAYER_2
 10
-24.8283
 20
37.721
 11
22.6179
 21
37.721
  0
LINE
  8
LAYER_2
 10
20.4341
 20
37.1361
 11
22.6448
 21
37.7279
  0
LINE
  8
LAYER_2
 10
22.6448
 20
37.7279
 11
20.4341
 21
38.3205
  0
LINE
  8
LAYER_2
 10
20.4341
 20
38.3205
 11
20.4341
 21
37.1361
  0
LINE
  8
LAYER_2
 10
-22.6441
 20
38.306
 11
-24.8552
 21
37.7135
  0
LINE
  8
LAYER_2
 10
-24.8552
 20
37.7135
 11
-22.6441
 21
37.1216
  0
LINE
  8
LAYER_2
 10
-22.6441
 20
37.1216
 11
-22.6441
 21
38.306
  0
LINE
  8
LAYER_2
 10
-1.1052
 20
57.4856
 11
-1.1052
 21
44.091
  0
LINE
  8
LAYER_2
 10
-24.8283
 20
44.9599
 11
-1.1321
 21
44.9599
  0
LINE
  8
LAYER_2
 10
-3.3159
 20
44.3749
 11
-1.1052
 21
44.9667
  0
LINE
  8
LAYER_2
 10
-1.1052
 20
44.9667
 11
-3.3159
 21
45.5593
  0
LINE
  8
LAYER_2
 10
-3.3159
 20
45.5593
 11
-3.3159
 21
44.3749
  0
LINE
  8
LAYER_2
 10
-22.6441
 20
45.5448
 11
-24.8552
 21
44.9523
  0
LINE
  8
LAYER_2
 10
-24.8552
 20
44.9523
 11
-22.6441
 21
44.3604
  0
LINE
  8
LAYER_2
 10
-22.6441
 20
44.3604
 11
-22.6441
 21
45.5448
  0
ARC
  8
LAYER_2
 10
-26.1049
 20
73.9254
 40
0.6251
 50
89.98428868
 51
179.9882159
  0
ARC
  8
LAYER_2
 10
-23.6049
 20
73.9256
 40
0.6249
 50
359.9950304
 51
89.99580157
  0
ARC
  8
LAYER_2
 10
-26.1049
 20
72.1756
 40
0.6251
 50
180.0196988
 51
270.0169647
  0
ARC
  8
LAYER_2
 10
-23.6049
 20
72.1754
 40
0.6249
 50
270.0029471
 51
359.9970529
  0
LINE
  8
LAYER_2
  6
AIGENLINE002
 10
64.179
 20
262.5667
 11
77.8946
 21
262.5667
  0
CIRCLE
  8
LAYER_2
 10
71.1175
 20
262.5667
 40
4.3751
  0
LINE
  8
LAYER_2
  6
AIGENLINE002
 10
71.1175
 20
268.8875
 11
71.1175
 21
255.7354
  0
INSERT
  8
LAYER_2
  2
AIGNBL02010002
 10
0
 20
0
 30
0
  0
LINE
  8
LAYER_2
 10
78.2302
 20
269.6791
 11
84.0173
 21
269.6791
  0
INSERT
  8
LAYER_2
  2
AIGNBL02010003
 10
0
 20
0
 30
0
  0
INSERT
  8
LAYER_2
  2
AIGNBL02010004
 10
0
 20
0
 30
0
  0
LINE
  8
LAYER_2
 10
80.299
 20
111.9615
 11
67.4305
 21
111.9615
  0
LINE
  8
LAYER_2
 10
75.4903
 20
112.554
 11
73.2789
 21
111.9615
  0
LINE
  8
LAYER_2
 10
73.2789
 20
111.9615
 11
75.4903
 21
111.3689
  0
LINE
  8
LAYER_2
 10
75.4903
 20
111.3689
 11
75.4903
 21
112.554
  0
LINE
  8
LAYER_2
 10
69.8173
 20
111.3834
 11
72.0287
 21
111.9759
  0
LINE
  8
LAYER_2
 10
72.0287
 20
111.9759
 11
69.8173
 21
112.5685
  0
LINE
  8
LAYER_2
 10
69.8173
 20
112.5685
 11
69.8173
 21
111.3834
  0
LINE
  8
LAYER_2
 10
64.5339
 20
165.234
 11
58.7316
 21
165.234
  0
INSERT
  8
LAYER_2
  2
AIGNBL02010005
 10
0
 20
0
 30
0
  0
INSERT
  8
LAYER_2
  2
AIGNBL02010006
 10
0
 20
0
 30
0
  0
LINE
  8
LAYER_2
 10
73.9789
 20
95.2342
 11
88.8549
 21
95.2342
  0
LINE
  8
LAYER_2
 10
49.8378
 20
121.6594
 11
28.4868
 21
121.6594
  0
INSERT
  8
LAYER_2
  2
AIGNBL02010007
 10
0
 20
0
 30
0
  0
LINE
  8
LAYER_2
  6
AIGENLINE002
 10
-24.8552
 20
226.0808
 11
-24.8552
 21
271.5915
  0
LINE
  8
LAYER_2
  6
AIGENLINE002
 10
-24.8552
 20
188.9562
 11
-24.8552
 21
220.9314
  0
LINE
  8
LAYER_2
  6
AIGENLINE002
 10
-24.8552
 20
134.2161
 11
-24.8552
 21
178.3198
  0
LINE
  8
LAYER_2
  6
AIGENLINE002
 10
-16.0574
 20
262.5667
 11
-33.3649
 21
262.5667
  0
LINE
  8
LAYER_2
 10
-40.4904
 20
121.9164
 11
-40.0405
 21
121.667
  0
LINE
  8
LAYER_2
 10
-34.9899
 20
121.9164
 11
-35.4392
 21
121.667
  0
LINE
  8
LAYER_2
 10
-39.2901
 20
124.9171
 11
-39.2901
 21
124.7924
  0
LINE
  8
LAYER_2
 10
-36.1895
 20
124.9171
 11
-36.1895
 21
124.7924
  0
LINE
  8
LAYER_2
 10
-39.1654
 20
128.1679
 11
-39.1654
 21
126.1677
  0
LINE
  8
LAYER_2
 10
-36.2898
 20
128.1679
 11
-36.2898
 21
126.1677
  0
LINE
  8
LAYER_2
 10
-39.1654
 20
126.1677
 11
-39.3652
 21
125.7425
  0
LINE
  8
LAYER_2
 10
-39.34
 20
128.4676
 11
-39.1654
 21
128.1679
  0
LINE
  8
LAYER_2
 10
-36.2898
 20
126.1677
 11
-36.1144
 21
125.7425
  0
LINE
  8
LAYER_2
 10
-36.1144
 20
128.4676
 11
-36.2898
 21
128.1679
  0
LINE
  8
LAYER_2
 10
-35.4392
 20
124.7924
 11
-34.9899
 21
124.5423
  0
LINE
  8
LAYER_2
 10
-40.0405
 20
124.7924
 11
-40.4904
 21
124.5423
  0
LINE
  8
LAYER_2
 10
-39.4148
 20
129.4185
 11
-39.4148
 21
128.7177
  0
LINE
  8
LAYER_2
 10
-36.0397
 20
129.4185
 11
-36.0397
 21
128.7177
  0
LINE
  8
LAYER_2
 10
-36.0397
 20
129.4185
 11
-39.4148
 21
129.4185
  0
LINE
  8
LAYER_2
 10
-36.0648
 20
128.593
 11
-36.1144
 21
128.4676
  0
LINE
  8
LAYER_2
 10
-36.0397
 20
128.7177
 11
-36.0648
 21
128.593
  0
LINE
  8
LAYER_2
 10
-39.4148
 20
128.593
 11
-39.34
 21
128.4676
  0
LINE
  8
LAYER_2
 10
-39.4148
 20
128.7177
 11
-39.4148
 21
128.593
  0
LINE
  8
LAYER_2
 10
-37.7398
 20
128.1679
 11
-39.1654
 21
128.1679
  0
LINE
  8
LAYER_2
 10
-36.2898
 20
128.1679
 11
-37.7398
 21
128.1679
  0
LINE
  8
LAYER_2
 10
-36.2898
 20
126.1677
 11
-39.1654
 21
126.1677
  0
LINE
  8
LAYER_2
 10
-36.0896
 20
125.7425
 11
-36.0648
 21
125.5675
  0
LINE
  8
LAYER_2
 10
-36.0648
 20
125.5675
 11
-36.0648
 21
125.4173
  0
LINE
  8
LAYER_2
 10
-36.0648
 20
125.4173
 11
-36.0972
 21
125.3174
  0
ARC
  8
LAYER_2
 10
-36.5508
 20
125.4218
 40
0.4654
 50
296.3118522
 51
347.041966
  0
ARC
  8
LAYER_2
 10
-36.7911
 20
125.7347
 40
0.8559
 50
292.3884238
 51
301.4539858
  0
LINE
  8
LAYER_2
 10
-36.4651
 20
124.9433
 11
-36.4899
 21
124.9433
  0
LINE
  8
LAYER_2
 10
-36.0896
 20
125.7425
 11
-36.1144
 21
125.7425
  0
ARC
  8
LAYER_2
 10
-38.7707
 20
125.5645
 40
0.6588
 50
202.0310074
 51
250.5582762
  0
LINE
  8
LAYER_2
 10
-39.3814
 20
125.3174
 11
-39.4148
 21
125.4173
  0
LINE
  8
LAYER_2
 10
-39.4148
 20
125.4173
 11
-39.4148
 21
125.5675
  0
LINE
  8
LAYER_2
 10
-39.4148
 20
125.5675
 11
-39.3652
 21
125.7425
  0
LINE
  8
LAYER_2
 10
-36.1895
 20
124.9171
 11
-39.2901
 21
124.9171
  0
LINE
  8
LAYER_2
 10
-35.4392
 20
124.7924
 11
-40.0405
 21
124.7924
  0
LINE
  8
LAYER_2
 10
-34.9899
 20
121.9164
 11
-35.4392
 21
121.667
  0
LINE
  8
LAYER_2
 10
-40.4904
 20
121.9164
 11
-40.0405
 21
121.6918
  0
LINE
  8
LAYER_2
 10
-40.3405
 20
121.8668
 11
-40.0405
 21
121.6918
  0
LINE
  8
LAYER_2
 10
-40.0405
 20
121.6918
 11
-40.0405
 21
121.667
  0
LINE
  8
LAYER_2
 10
-37.7398
 20
121.667
 11
-40.0405
 21
121.667
  0
LINE
  8
LAYER_2
 10
-35.4392
 20
121.667
 11
-37.7398
 21
121.667
  0
LINE
  8
LAYER_2
 10
-36.4899
 20
124.9433
 11
-37.7398
 21
124.9433
  0
LINE
  8
LAYER_2
 10
-38.99
 20
124.9433
 11
-37.7398
 21
124.9433
  0
ARC
  8
LAYER_2
 10
-37.7371
 20
120.4426
 40
4.325
 50
90.03597863
 51
108.5749875
  0
ARC
  8
LAYER_2
 10
-37.7479
 20
120.4078
 40
4.3598
 50
71.49958198
 51
89.89344056
  0
ARC
  8
LAYER_2
 10
-37.7957
 20
126.0997
 40
4.3863
 50
252.498579
 51
267.7958713
  0
LINE
  8
LAYER_2
 10
-37.9644
 20
121.7166
 11
-37.5152
 21
121.7166
  0
ARC
  8
LAYER_2
 10
-37.8436
 20
127.0215
 40
5.315
 50
273.5424677
 51
286.1580452
  0
ARC
  8
LAYER_2
 10
-35.7744
 20
123.3051
 40
1.4649
 50
57.62142596
 51
86.68196143
  0
ARC
  8
LAYER_2
 10
-35.5889
 20
123.3424
 40
1.4288
 50
94.04230503
 51
122.8785222
  0
ARC
  8
LAYER_2
 10
-35.5579
 20
123.4012
 40
1.6897
 50
241.4876102
 51
265.5302615
  0
ARC
  8
LAYER_2
 10
-35.8088
 20
123.4593
 40
1.7467
 50
273.9144014
 51
297.9590855
  0
LINE
  8
LAYER_2
 10
-36.3645
 20
124.5423
 11
-36.3645
 21
121.9164
  0
LINE
  8
LAYER_2
 10
-34.9899
 20
124.5423
 11
-34.9899
 21
121.9164
  0
ARC
  8
LAYER_2
 10
-39.8445
 20
123.4797
 40
1.289
 50
55.52036999
 51
87.5893768
  0
ARC
  8
LAYER_2
 10
-39.7195
 20
123.3473
 40
1.4221
 50
92.85251363
 51
122.8249968
  0
ARC
  8
LAYER_2
 10
-39.689
 20
123.3982
 40
1.6846
 50
241.5924799
 51
266.5513201
  0
ARC
  8
LAYER_2
 10
-39.8804
 20
123.2629
 40
1.5489
 50
273.3336165
 51
299.6208054
  0
LINE
  8
LAYER_2
 10
-39.1148
 20
124.5423
 11
-39.1148
 21
121.9164
  0
LINE
  8
LAYER_2
 10
-40.4904
 20
124.5423
 11
-40.4904
 21
121.9164
  0
LINE
  8
LAYER_2
  6
AIGENLINE002
 10
-37.7371
 20
151.4834
 11
-37.7371
 21
120.455
  0
LINE
  8
LAYER_2
 10
-36.4245
 20
147.4749
 11
-36.4245
 21
129.4185
  0
LINE
  8
LAYER_2
 10
-39.0496
 20
129.4185
 11
-39.0496
 21
147.4749
  0
LINE
  8
LAYER_2
  6
AIGENLINE002
 10
-25.8553
 20
134.2161
 11
-37.7371
 21
151.4834
  0
LINE
  8
LAYER_2
 10
-10.22
 20
121.9164
 11
-10.67
 21
121.667
  0
LINE
  8
LAYER_2
 10
-15.7205
 20
121.9164
 11
-15.2713
 21
121.667
  0
LINE
  8
LAYER_2
 10
-11.4203
 20
124.9171
 11
-11.4203
 21
124.7924
  0
LINE
  8
LAYER_2
 10
-14.5209
 20
124.9171
 11
-14.5209
 21
124.7924
  0
LINE
  8
LAYER_2
 10
-11.545
 20
128.1679
 11
-11.545
 21
126.1677
  0
LINE
  8
LAYER_2
 10
-14.4206
 20
128.1679
 11
-14.4206
 21
126.1677
  0
LINE
  8
LAYER_2
 10
-11.545
 20
126.1677
 11
-11.3452
 21
125.7425
  0
LINE
  8
LAYER_2
 10
-11.3704
 20
128.4676
 11
-11.545
 21
128.1679
  0
LINE
  8
LAYER_2
 10
-14.4206
 20
126.1677
 11
-14.596
 21
125.7425
  0
LINE
  8
LAYER_2
 10
-14.596
 20
128.4676
 11
-14.4206
 21
128.1679
  0
LINE
  8
LAYER_2
 10
-15.2713
 20
124.7924
 11
-15.7205
 21
124.5423
  0
LINE
  8
LAYER_2
 10
-10.67
 20
124.7924
 11
-10.22
 21
124.5423
  0
LINE
  8
LAYER_2
 10
-11.2956
 20
129.4185
 11
-11.2956
 21
128.7177
  0
LINE
  8
LAYER_2
 10
-14.6708
 20
129.4185
 11
-14.6708
 21
128.7177
  0
LINE
  8
LAYER_2
 10
-14.6708
 20
129.4185
 11
-11.2956
 21
129.4185
  0
LINE
  8
LAYER_2
 10
-14.6456
 20
128.593
 11
-14.596
 21
128.4676
  0
LINE
  8
LAYER_2
 10
-14.6708
 20
128.7177
 11
-14.6456
 21
128.593
  0
LINE
  8
LAYER_2
 10
-11.2956
 20
128.593
 11
-11.3704
 21
128.4676
  0
LINE
  8
LAYER_2
 10
-11.2956
 20
128.7177
 11
-11.2956
 21
128.593
  0
LINE
  8
LAYER_2
 10
-12.9706
 20
128.1679
 11
-11.545
 21
128.1679
  0
LINE
  8
LAYER_2
 10
-14.4206
 20
128.1679
 11
-12.9706
 21
128.1679
  0
LINE
  8
LAYER_2
 10
-14.4206
 20
126.1677
 11
-11.545
 21
126.1677
  0
LINE
  8
LAYER_2
 10
-14.6208
 20
125.7425
 11
-14.6456
 21
125.5675
  0
LINE
  8
LAYER_2
 10
-14.6456
 20
125.5675
 11
-14.6456
 21
125.4173
  0
LINE
  8
LAYER_2
 10
-14.6456
 20
125.4173
 11
-14.6132
 21
125.3174
  0
ARC
  8
LAYER_2
 10
-14.1596
 20
125.4218
 40
0.4654
 50
192.958034
 51
243.6881478
  0
ARC
  8
LAYER_2
 10
-13.9193
 20
125.7347
 40
0.8559
 50
238.5460143
 51
247.6115763
  0
LINE
  8
LAYER_2
 10
-14.2453
 20
124.9433
 11
-14.2205
 21
124.9433
  0
LINE
  8
LAYER_2
 10
-14.6208
 20
125.7425
 11
-14.596
 21
125.7425
  0
ARC
  8
LAYER_2
 10
-11.9399
 20
125.5647
 40
0.659
 50
289.4524081
 51
337.9583083
  0
LINE
  8
LAYER_2
 10
-11.329
 20
125.3174
 11
-11.2956
 21
125.4173
  0
LINE
  8
LAYER_2
 10
-11.2956
 20
125.4173
 11
-11.2956
 21
125.5675
  0
LINE
  8
LAYER_2
 10
-11.2956
 20
125.5675
 11
-11.3452
 21
125.7425
  0
LINE
  8
LAYER_2
 10
-14.5209
 20
124.9171
 11
-11.4203
 21
124.9171
  0
LINE
  8
LAYER_2
 10
-15.2713
 20
124.7924
 11
-10.67
 21
124.7924
  0
LINE
  8
LAYER_2
 10
-15.7205
 20
121.9164
 11
-15.2713
 21
121.667
  0
LINE
  8
LAYER_2
 10
-10.22
 20
121.9164
 11
-10.67
 21
121.6918
  0
LINE
  8
LAYER_2
 10
-10.3699
 20
121.8668
 11
-10.67
 21
121.6918
  0
LINE
  8
LAYER_2
 10
-10.67
 20
121.6918
 11
-10.67
 21
121.667
  0
LINE
  8
LAYER_2
 10
-12.9706
 20
121.667
 11
-10.67
 21
121.667
  0
LINE
  8
LAYER_2
 10
-15.2713
 20
121.667
 11
-12.9706
 21
121.667
  0
LINE
  8
LAYER_2
 10
-14.2205
 20
124.9433
 11
-12.9706
 21
124.9433
  0
LINE
  8
LAYER_2
 10
-11.7204
 20
124.9433
 11
-12.9706
 21
124.9433
  0
ARC
  8
LAYER_2
 10
-12.9733
 20
120.443
 40
4.3246
 50
71.42400175
 51
89.96370215
  0
ARC
  8
LAYER_2
 10
-12.9626
 20
120.4084
 40
4.3592
 50
90.10530722
 51
108.5016702
  0
ARC
  8
LAYER_2
 10
-12.9146
 20
126.0986
 40
4.3853
 50
272.2037472
 51
287.5034821
  0
LINE
  8
LAYER_2
 10
-12.746
 20
121.7166
 11
-13.1952
 21
121.7166
  0
ARC
  8
LAYER_2
 10
-12.867
 20
127.0204
 40
5.3139
 50
253.8406409
 51
266.4588462
  0
ARC
  8
LAYER_2
 10
-14.936
 20
123.3051
 40
1.4649
 50
93.31803854
 51
122.378574
  0
ARC
  8
LAYER_2
 10
-15.1235
 20
123.3365
 40
1.4348
 50
57.18355914
 51
85.89561361
  0
ARC
  8
LAYER_2
 10
-15.1526
 20
123.4016
 40
1.6902
 50
274.473149
 51
298.5089793
  0
ARC
  8
LAYER_2
 10
-14.9017
 20
123.4588
 40
1.7463
 50
242.0376827
 51
266.0888305
  0
LINE
  8
LAYER_2
 10
-14.3459
 20
124.5423
 11
-14.3459
 21
121.9164
  0
LINE
  8
LAYER_2
 10
-15.7205
 20
124.5423
 11
-15.7205
 21
121.9164
  0
ARC
  8
LAYER_2
 10
-10.8658
 20
123.4791
 40
1.2896
 50
92.41416746
 51
124.4709948
  0
ARC
  8
LAYER_2
 10
-10.9909
 20
123.3473
 40
1.4221
 50
57.17500317
 51
87.14748635
  0
ARC
  8
LAYER_2
 10
-11.0216
 20
123.3986
 40
1.685
 50
273.4518209
 51
298.4043792
  0
ARC
  8
LAYER_2
 10
-10.83
 20
123.2634
 40
1.5494
 50
240.3835791
 51
266.6666123
  0
LINE
  8
LAYER_2
 10
-11.5957
 20
124.5423
 11
-11.5957
 21
121.9164
  0
LINE
  8
LAYER_2
 10
-10.22
 20
124.5423
 11
-10.22
 21
121.9164
  0
LINE
  8
LAYER_2
  6
AIGENLINE002
 10
-12.9734
 20
151.4834
 11
-12.9734
 21
120.455
  0
LINE
  8
LAYER_2
 10
-14.2859
 20
147.4749
 11
-14.2859
 21
129.4185
  0
LINE
  8
LAYER_2
 10
-11.6608
 20
129.4185
 11
-11.6608
 21
147.4749
  0
LINE
  8
LAYER_2
  6
AIGENLINE002
 10
-24.8552
 20
134.2161
 11
-12.9734
 21
151.4834
  0
LINE
  8
LAYER_2
 10
-10.4559
 20
247.5969
 11
-8.5502
 21
248.8658
  0
LINE
  8
LAYER_2
 10
-8.5502
 20
248.8658
 11
-9.5665
 21
246.8142
  0
LINE
  8
LAYER_2
 10
-9.5665
 20
246.8142
 11
-10.4559
 21
247.5969
  0
LINE
  8
LAYER_2
 10
-27.0259
 20
241.9964
 11
-24.855
 21
241.2695
  0
LINE
  8
LAYER_2
 10
-24.855
 20
241.2695
 11
-27.0984
 21
240.8137
  0
LINE
  8
LAYER_2
 10
-27.0984
 20
240.8137
 11
-27.0259
 21
241.9964
  0
LINE
  8
LAYER_2
 10
-22.6841
 20
241.9964
 11
-24.855
 21
241.2695
  0
LINE
  8
LAYER_2
 10
-24.855
 20
241.2695
 11
-22.6115
 21
240.8137
  0
LINE
  8
LAYER_2
 10
-22.6115
 20
240.8137
 11
-22.6841
 21
241.9964
  0
ARC
  8
LAYER_2
 10
-24.8675
 20
262.5874
 40
21.3061
 50
220.10255
 51
233.9826935
  0
ARC
  8
LAYER_2
 10
-24.6696
 20
262.8343
 40
21.6222
 50
233.9431577
 51
235.0037442
  0
ARC
  8
LAYER_2
 10
-24.7749
 20
262.6723
 40
21.429
 50
234.986081
 51
248.6109365
  0
ARC
  8
LAYER_2
 10
-24.8792
 20
262.4855
 40
21.2172
 50
248.6892242
 51
268.5801668
  0
ARC
  8
LAYER_2
 10
-24.9391
 20
262.8388
 40
21.569
 50
268.7623245
 51
307.5111392
  0
ARC
  8
LAYER_2
 10
-24.8051
 20
262.4849
 40
21.2069
 50
307.8062947
 51
320.0418274
  0
LINE
  8
LAYER_2
 10
74.7538
 20
179.9807
 11
74.7538
 21
177.8586
  0
LINE
  8
LAYER_2
 10
73.7901
 20
177.2302
 11
73.7901
 21
179.9642
  0
ARC
  8
LAYER_2
 10
39.914
 20
201.5473
 40
9.585
 50
226.0122292
 51
256.4020051
  0
ARC
  8
LAYER_2
 10
39.8731
 20
201.5162
 40
9.5452
 50
256.5970457
 51
270.0379542
  0
LINE
  8
LAYER_2
 10
43.2652
 20
191.971
 11
39.8794
 21
191.971
  0
LINE
  8
LAYER_2
 10
42.0908
 20
192.5636
 11
39.8794
 21
191.971
  0
LINE
  8
LAYER_2
 10
39.8794
 20
191.971
 11
42.0908
 21
191.3785
  0
LINE
  8
LAYER_2
 10
42.0908
 20
191.3785
 11
42.0908
 21
192.5636
  0
LINE
  8
LAYER_2
 10
34.3603
 20
193.1155
 11
36.5766
 21
192.5416
  0
LINE
  8
LAYER_2
 10
36.5766
 20
192.5416
 11
34.9439
 21
194.147
  0
LINE
  8
LAYER_2
 10
34.9439
 20
194.147
 11
34.3603
 21
193.1155
  0
LINE
  8
LAYER_2
 10
71.1175
 20
184.4731
 11
39.8677
 21
184.4731
  0
LINE
  8
LAYER_2
 10
42.0791
 20
185.0657
 11
39.8677
 21
184.4731
  0
LINE
  8
LAYER_2
 10
39.8677
 20
184.4731
 11
42.0791
 21
183.8806
  0
LINE
  8
LAYER_2
 10
42.0791
 20
183.8806
 11
42.0791
 21
185.0657
  0
LINE
  8
LAYER_2
 10
-18.8049
 20
179.2029
 11
-30.85
 21
179.2029
  0
LINE
  8
LAYER_2
 10
-28.6386
 20
179.7954
 11
-30.85
 21
179.2029
  0
LINE
  8
LAYER_2
 10
-30.85
 20
179.2029
 11
-28.6386
 21
178.6103
  0
LINE
  8
LAYER_2
 10
-28.6386
 20
178.6103
 11
-28.6386
 21
179.7954
  0
LINE
  8
LAYER_2
 10
68.906
 20
183.895
 11
71.1175
 21
184.4876
  0
LINE
  8
LAYER_2
 10
71.1175
 20
184.4876
 11
68.906
 21
185.0802
  0
LINE
  8
LAYER_2
 10
68.906
 20
185.0802
 11
68.906
 21
183.895
  0
LINE
  8
LAYER_2
 10
21.6418
 20
172.734
 11
21.6418
 21
203.2339
  0
LINE
  8
LAYER_2
 10
22.2343
 20
201.0223
 11
21.6418
 21
203.2339
  0
LINE
  8
LAYER_2
 10
21.6418
 20
203.2339
 11
21.0495
 21
201.0223
  0
LINE
  8
LAYER_2
 10
21.0495
 20
201.0223
 11
22.2343
 21
201.0223
  0
LINE
  8
LAYER_2
 10
21.0637
 20
174.9454
 11
21.6562
 21
172.734
  0
LINE
  8
LAYER_2
 10
21.6562
 20
172.734
 11
22.2488
 21
174.9454
  0
LINE
  8
LAYER_2
 10
22.2488
 20
174.9454
 11
21.0637
 21
174.9454
  0
LINE
  8
LAYER_2
 10
29.1799
 20
172.734
 11
29.1799
 21
202.734
  0
LINE
  8
LAYER_2
 10
29.7725
 20
200.5225
 11
29.1799
 21
202.734
  0
LINE
  8
LAYER_2
 10
29.1799
 20
202.734
 11
28.5874
 21
200.5225
  0
LINE
  8
LAYER_2
 10
28.5874
 20
200.5225
 11
29.7725
 21
200.5225
  0
LINE
  8
LAYER_2
 10
28.6019
 20
174.9454
 11
29.1944
 21
172.734
  0
LINE
  8
LAYER_2
 10
29.1944
 20
172.734
 11
29.787
 21
174.9454
  0
LINE
  8
LAYER_2
 10
29.787
 20
174.9454
 11
28.6019
 21
174.9454
  0
LINE
  8
LAYER_2
 10
88.1018
 20
172.734
 11
88.1018
 21
219.4839
  0
LINE
  8
LAYER_2
 10
88.6943
 20
217.2723
 11
88.1018
 21
219.4839
  0
LINE
  8
LAYER_2
 10
88.1018
 20
219.4839
 11
87.5092
 21
217.2723
  0
LINE
  8
LAYER_2
 10
87.5092
 20
217.2723
 11
88.6943
 21
217.2723
  0
LINE
  8
LAYER_2
 10
87.5237
 20
174.9454
 11
88.1162
 21
172.734
  0
LINE
  8
LAYER_2
 10
88.1162
 20
172.734
 11
88.7088
 21
174.9454
  0
LINE
  8
LAYER_2
 10
88.7088
 20
174.9454
 11
87.5237
 21
174.9454
  0
LINE
  8
LAYER_2
 10
14.1039
 20
172.734
 11
14.1039
 21
226.484
  0
LINE
  8
LAYER_2
 10
14.6964
 20
224.2724
 11
14.1039
 21
226.484
  0
LINE
  8
LAYER_2
 10
14.1039
 20
226.484
 11
13.5113
 21
224.2724
  0
LINE
  8
LAYER_2
 10
13.5113
 20
224.2724
 11
14.6964
 21
224.2724
  0
LINE
  8
LAYER_2
 10
13.5258
 20
174.9454
 11
14.1183
 21
172.734
  0
LINE
  8
LAYER_2
 10
14.1183
 20
172.734
 11
14.7109
 21
174.9454
  0
LINE
  8
LAYER_2
 10
14.7109
 20
174.9454
 11
13.5258
 21
174.9454
  0
LINE
  8
LAYER_2
 10
71.9956
 20
147.1214
 11
71.9956
 21
95.2342
  0
LINE
  8
LAYER_2
 10
73.2455
 20
95.2342
 11
71.9956
 21
95.2342
  0
LINE
  8
LAYER_2
 10
-22.7287
 20
95.2335
 11
-23.9786
 21
95.2335
  0
LINE
  8
LAYER_2
 10
73.2455
 20
147.1214
 11
73.2455
 21
95.2342
  0
LINE
  8
LAYER_2
  6
AIGENLINE002
 10
72.6174
 20
93.1154
 11
72.6174
 21
166.8567
  0
LINE
  8
LAYER_2
  6
AIGENLINE002
 10
69.6174
 20
134.2161
 11
69.6174
 21
166.7633
  0
LINE
  8
LAYER_2
 10
70.93
 20
138.7925
 11
70.93
 21
158.9841
  0
LINE
  8
LAYER_2
 10
68.3052
 20
138.7925
 11
68.3052
 21
158.9841
  0
LINE
  8
LAYER_2
  6
AIGENLINE002
 10
69.6174
 20
134.2161
 11
53.5499
 21
151.4834
  0
LINE
  8
LAYER_2
 10
77.1174
 20
164.7341
 11
65.1175
 21
164.7341
  0
LINE
  8
LAYER_2
 10
65.1175
 20
164.7341
 11
65.1175
 21
165.234
  0
LINE
  8
LAYER_2
 10
65.1175
 20
165.234
 11
77.1174
 21
165.234
  0
LINE
  8
LAYER_2
 10
77.1174
 20
165.234
 11
77.1174
 21
164.7341
  0
LINE
  8
LAYER_2
 10
77.1174
 20
164.3593
 11
65.1175
 21
164.3593
  0
LINE
  8
LAYER_2
 10
65.1175
 20
164.3593
 11
65.1175
 21
164.7341
  0
LINE
  8
LAYER_2
 10
65.1175
 20
164.7341
 11
77.1174
 21
164.7341
  0
LINE
  8
LAYER_2
 10
77.1174
 20
164.7341
 11
77.1174
 21
164.3593
  0
LINE
  8
LAYER_2
 10
76.6175
 20
163.734
 11
65.6174
 21
163.734
  0
LINE
  8
LAYER_2
 10
65.6174
 20
163.734
 11
65.6174
 21
164.3593
  0
LINE
  8
LAYER_2
 10
65.6174
 20
164.3593
 11
76.6175
 21
164.3593
  0
LINE
  8
LAYER_2
 10
76.6175
 20
164.3593
 11
76.6175
 21
163.734
  0
LINE
  8
LAYER_2
 10
75.2423
 20
165.234
 11
66.9926
 21
165.234
  0
LINE
  8
LAYER_2
 10
66.9926
 20
165.234
 11
66.9926
 21
172.734
  0
LINE
  8
LAYER_2
 10
66.9926
 20
172.734
 11
75.2423
 21
172.734
  0
LINE
  8
LAYER_2
 10
75.2423
 20
172.734
 11
75.2423
 21
165.234
  0
LINE
  8
LAYER_2
 10
67.2424
 20
172.734
 11
67.2424
 21
165.234
  0
LINE
  8
LAYER_2
 10
74.9925
 20
172.734
 11
74.9925
 21
165.234
  0
LINE
  8
LAYER_2
 10
75.2423
 20
159.2342
 11
74.9925
 21
158.9841
  0
LINE
  8
LAYER_2
 10
74.9925
 20
158.9841
 11
67.2424
 21
158.9841
  0
LINE
  8
LAYER_2
 10
67.2424
 20
158.9841
 11
66.9926
 21
159.2342
  0
LINE
  8
LAYER_2
 10
66.9926
 20
159.2342
 11
66.9926
 21
161.9843
  0
LINE
  8
LAYER_2
 10
66.9926
 20
161.9843
 11
75.2423
 21
161.9843
  0
LINE
  8
LAYER_2
 10
75.2423
 20
161.9843
 11
75.2423
 21
159.2342
  0
LINE
  8
LAYER_2
 10
75.2423
 20
159.2342
 11
66.9926
 21
159.2342
  0
LINE
  8
LAYER_2
 10
67.2424
 20
161.9843
 11
67.2424
 21
158.9841
  0
LINE
  8
LAYER_2
 10
74.9925
 20
161.9843
 11
74.9925
 21
158.9841
  0
LINE
  8
LAYER_2
 10
73.8673
 20
163.734
 11
73.8673
 21
162.3205
  0
ARC
  8
LAYER_2
 10
75.2049
 20
164.7463
 40
2.7701
 50
241.1266978
 51
265.6019237
  0
LINE
  8
LAYER_2
 10
73.3674
 20
163.734
 11
73.3674
 21
162.3205
  0
ARC
  8
LAYER_2
 10
72.6907
 20
162.8312
 40
0.8478
 50
267.3122805
 51
322.9620443
  0
LINE
  8
LAYER_2
 10
71.1175
 20
163.734
 11
76.1173
 21
163.734
  0
LINE
  8
LAYER_2
 10
76.1173
 20
163.734
 11
76.1173
 21
162.4259
  0
ARC
  8
LAYER_2
 10
75.6291
 20
162.5533
 40
0.5045
 50
300.6318597
 51
345.3724809
  0
ARC
  8
LAYER_2
 10
75.3681
 20
163.0363
 40
1.0533
 50
267.1459903
 51
299.4604567
  0
LINE
  8
LAYER_2
 10
75.3157
 20
161.9843
 11
71.1175
 21
161.9843
  0
LINE
  8
LAYER_2
 10
73.3674
 20
162.3205
 11
73.8673
 21
162.3205
  0
LINE
  8
LAYER_2
 10
68.3676
 20
163.734
 11
68.3676
 21
162.3205
  0
ARC
  8
LAYER_2
 10
67.03
 20
164.7463
 40
2.7701
 50
274.3980763
 51
298.8733022
  0
LINE
  8
LAYER_2
 10
68.8674
 20
163.734
 11
68.8674
 21
162.3205
  0
ARC
  8
LAYER_2
 10
69.5442
 20
162.8312
 40
0.8479
 50
217.040614
 51
272.6912108
  0
LINE
  8
LAYER_2
 10
71.1175
 20
163.734
 11
66.1176
 21
163.734
  0
LINE
  8
LAYER_2
 10
66.1176
 20
163.734
 11
66.1176
 21
162.4259
  0
ARC
  8
LAYER_2
 10
66.6103
 20
162.559
 40
0.5104
 50
195.1145169
 51
239.5075146
  0
ARC
  8
LAYER_2
 10
66.8728
 20
163.0504
 40
1.0673
 50
240.7509894
 51
272.6946737
  0
LINE
  8
LAYER_2
 10
66.923
 20
161.9843
 11
71.1175
 21
161.9843
  0
LINE
  8
LAYER_2
 10
68.8674
 20
162.3205
 11
68.3676
 21
162.3205
  0
LINE
  8
LAYER_2
 10
51.8745
 20
128.7177
 11
51.8745
 21
129.4185
  0
LINE
  8
LAYER_2
 10
55.25
 20
128.7177
 11
55.25
 21
129.4185
  0
LINE
  8
LAYER_2
 10
55.25
 20
129.4185
 11
51.8745
 21
129.4185
  0
ARC
  8
LAYER_2
 10
54.5351
 20
128.797
 40
0.7193
 50
332.8103726
 51
353.6731467
  0
LINE
  8
LAYER_2
 10
51.9248
 20
128.4683
 11
51.8745
 21
128.593
  0
LINE
  8
LAYER_2
 10
51.8745
 20
128.593
 11
51.8745
 21
128.7177
  0
LINE
  8
LAYER_2
 10
55.1749
 20
128.4683
 11
55.0003
 21
128.1679
  0
LINE
  8
LAYER_2
 10
52.1005
 20
128.1679
 11
51.9248
 21
128.4683
  0
LINE
  8
LAYER_2
 10
55.0003
 20
126.1677
 11
55.0003
 21
128.1679
  0
LINE
  8
LAYER_2
 10
52.1005
 20
126.1677
 11
52.1005
 21
128.1679
  0
LINE
  8
LAYER_2
 10
55.6125
 20
113.2665
 11
55.6125
 21
121.2267
  0
LINE
  8
LAYER_2
 10
51.4873
 20
113.2665
 11
51.4873
 21
121.2267
  0
LINE
  8
LAYER_2
 10
55.0003
 20
128.1679
 11
52.1005
 21
128.1679
  0
LINE
  8
LAYER_2
 10
55.2011
 20
125.7425
 11
55.0003
 21
126.1677
  0
LINE
  8
LAYER_2
 10
52.1005
 20
126.1677
 11
51.8997
 21
125.7425
  0
LINE
  8
LAYER_2
 10
55.0003
 20
126.1677
 11
52.1005
 21
126.1677
  0
LINE
  8
LAYER_2
 10
55.2011
 20
125.7425
 11
55.1749
 21
125.243
  0
LINE
  8
LAYER_2
 10
55.1749
 20
125.243
 11
54.8004
 21
124.9419
  0
LINE
  8
LAYER_2
 10
52.3003
 20
124.9419
 11
51.9248
 21
125.243
  0
LINE
  8
LAYER_2
 10
51.9248
 20
125.243
 11
51.8997
 21
125.7425
  0
LINE
  8
LAYER_2
 10
51.9996
 20
124.7924
 11
51.9996
 21
124.9171
  0
LINE
  8
LAYER_2
 10
55.1002
 20
124.7924
 11
55.1002
 21
124.9171
  0
LINE
  8
LAYER_2
 10
55.1002
 20
124.9171
 11
51.9996
 21
124.9171
  0
LINE
  8
LAYER_2
 10
51.2496
 20
124.7924
 11
51.1745
 21
124.7676
  0
ARC
  8
LAYER_2
 10
53.2007
 20
51.8544
 40
72.9641
 50
87.85994508
 51
91.53226483
  0
LINE
  8
LAYER_2
 10
51.2496
 20
121.667
 11
51.1745
 21
121.7166
  0
LINE
  8
LAYER_2
 10
55.9253
 20
121.7166
 11
55.8502
 21
121.667
  0
LINE
  8
LAYER_2
 10
55.8502
 20
121.667
 11
51.2496
 21
121.667
  0
LINE
  8
LAYER_2
 10
53.5499
 20
124.9419
 11
52.3003
 21
124.9419
  0
LINE
  8
LAYER_2
 10
54.8004
 20
124.9419
 11
53.5499
 21
124.9419
  0
LINE
  8
LAYER_2
 10
51.1745
 20
124.5416
 11
51.1745
 21
124.7676
  0
LINE
  8
LAYER_2
 10
51.1745
 20
121.7166
 11
51.1745
 21
121.9164
  0
LINE
  8
LAYER_2
 10
55.9253
 20
124.5416
 11
55.9253
 21
124.7676
  0
LINE
  8
LAYER_2
 10
55.9253
 20
121.7166
 11
55.9253
 21
121.9164
  0
ARC
  8
LAYER_2
 10
54.6428
 20
121.0411
 40
3.7281
 50
69.87875003
 51
88.35561936
  0
ARC
  8
LAYER_2
 10
54.8241
 20
121.0746
 40
3.6938
 50
91.15323458
 51
110.1800488
  0
ARC
  8
LAYER_2
 10
54.8949
 20
126.2909
 40
4.5766
 50
252.9091664
 51
268.1832249
  0
ARC
  8
LAYER_2
 10
54.5765
 20
126.2939
 40
4.5805
 50
272.1678423
 51
287.1249323
  0
LINE
  8
LAYER_2
 10
55.9253
 20
121.9164
 11
55.9253
 21
124.5416
  0
ARC
  8
LAYER_2
 10
52.2678
 20
121.0432
 40
3.726
 50
69.87255756
 51
88.3491528
  0
ARC
  8
LAYER_2
 10
52.449
 20
121.073
 40
3.6954
 50
91.14588847
 51
110.1752419
  0
ARC
  8
LAYER_2
 10
52.5188
 20
126.2873
 40
4.5729
 50
252.9041141
 51
268.1991023
  0
ARC
  8
LAYER_2
 10
52.2022
 20
126.2868
 40
4.5735
 50
272.1662418
 51
287.1378121
  0
LINE
  8
LAYER_2
 10
51.1745
 20
121.9164
 11
51.1745
 21
124.5416
  0
LINE
  8
LAYER_2
 10
53.5499
 20
121.9164
 11
53.5499
 21
124.5416
  0
LINE
  8
LAYER_2
  6
AIGENLINE002
 10
53.5499
 20
151.4834
 11
53.5499
 21
120.455
  0
LINE
  8
LAYER_2
 10
52.2373
 20
147.4749
 11
52.2373
 21
129.4185
  0
LINE
  8
LAYER_2
 10
54.8624
 20
129.4185
 11
54.8624
 21
147.4749
  0
LINE
  8
LAYER_2
  6
AIGENLINE002
 10
72.6174
 20
134.2161
 11
61.1835
 21
151.4834
  0
LINE
  8
LAYER_2
 10
59.5082
 20
128.7177
 11
59.5082
 21
129.4185
  0
LINE
  8
LAYER_2
 10
62.8837
 20
128.7177
 11
62.8837
 21
129.4185
  0
LINE
  8
LAYER_2
 10
62.8837
 20
129.4185
 11
59.5082
 21
129.4185
  0
ARC
  8
LAYER_2
 10
62.1685
 20
128.7971
 40
0.7196
 50
332.8152837
 51
353.6682356
  0
LINE
  8
LAYER_2
 10
59.5584
 20
128.4683
 11
59.5082
 21
128.593
  0
LINE
  8
LAYER_2
 10
59.5082
 20
128.593
 11
59.5082
 21
128.7177
  0
LINE
  8
LAYER_2
 10
62.8086
 20
128.4683
 11
62.6339
 21
128.1679
  0
LINE
  8
LAYER_2
 10
59.7342
 20
128.1679
 11
59.5584
 21
128.4683
  0
LINE
  8
LAYER_2
 10
62.6339
 20
126.1677
 11
62.6339
 21
128.1679
  0
LINE
  8
LAYER_2
 10
59.7342
 20
126.1677
 11
59.7342
 21
128.1679
  0
LINE
  8
LAYER_2
 10
62.6339
 20
128.1679
 11
59.7342
 21
128.1679
  0
LINE
  8
LAYER_2
 10
62.8348
 20
125.7425
 11
62.6339
 21
126.1677
  0
LINE
  8
LAYER_2
 10
59.7342
 20
126.1677
 11
59.5333
 21
125.7425
  0
LINE
  8
LAYER_2
 10
62.6339
 20
126.1677
 11
59.7342
 21
126.1677
  0
LINE
  8
LAYER_2
 10
62.8348
 20
125.7425
 11
62.8086
 21
125.243
  0
LINE
  8
LAYER_2
 10
62.8086
 20
125.243
 11
62.4341
 21
124.9419
  0
LINE
  8
LAYER_2
 10
59.934
 20
124.9419
 11
59.5584
 21
125.243
  0
LINE
  8
LAYER_2
 10
59.5584
 20
125.243
 11
59.5333
 21
125.7425
  0
LINE
  8
LAYER_2
 10
59.6332
 20
124.7924
 11
59.6332
 21
124.9171
  0
LINE
  8
LAYER_2
 10
62.7338
 20
124.7924
 11
62.7338
 21
124.9171
  0
LINE
  8
LAYER_2
 10
62.7338
 20
124.9171
 11
59.6332
 21
124.9171
  0
LINE
  8
LAYER_2
 10
58.8832
 20
124.7924
 11
58.8081
 21
124.7676
  0
ARC
  8
LAYER_2
 10
60.8343
 20
51.8578
 40
72.9607
 50
87.85985956
 51
91.53235035
  0
LINE
  8
LAYER_2
 10
58.8832
 20
121.667
 11
58.8081
 21
121.7166
  0
LINE
  8
LAYER_2
 10
63.5589
 20
121.7166
 11
63.4838
 21
121.667
  0
LINE
  8
LAYER_2
 10
63.4838
 20
121.667
 11
58.8832
 21
121.667
  0
LINE
  8
LAYER_2
 10
61.1835
 20
124.9419
 11
59.934
 21
124.9419
  0
LINE
  8
LAYER_2
 10
62.4341
 20
124.9419
 11
61.1835
 21
124.9419
  0
LINE
  8
LAYER_2
 10
58.8081
 20
124.5416
 11
58.8081
 21
124.7676
  0
LINE
  8
LAYER_2
 10
58.8081
 20
121.7166
 11
58.8081
 21
121.9164
  0
LINE
  8
LAYER_2
 10
63.5589
 20
124.5416
 11
63.5589
 21
124.7676
  0
LINE
  8
LAYER_2
 10
63.5589
 20
121.7166
 11
63.5589
 21
121.9164
  0
ARC
  8
LAYER_2
 10
62.2764
 20
121.0412
 40
3.728
 50
69.8784224
 51
88.35413944
  0
ARC
  8
LAYER_2
 10
62.4578
 20
121.0741
 40
3.6942
 50
91.15283925
 51
110.1787071
  0
ARC
  8
LAYER_2
 10
62.5285
 20
126.291
 40
4.5767
 50
252.9095822
 51
268.1843564
  0
ARC
  8
LAYER_2
 10
62.2102
 20
126.2933
 40
4.58
 50
272.1683077
 51
287.1260774
  0
LINE
  8
LAYER_2
 10
63.5589
 20
121.9164
 11
63.5589
 21
124.5416
  0
ARC
  8
LAYER_2
 10
59.9015
 20
121.0437
 40
3.7254
 50
69.87125705
 51
88.35045332
  0
ARC
  8
LAYER_2
 10
60.0827
 20
121.0725
 40
3.6958
 50
91.14715281
 51
110.1739775
  0
ARC
  8
LAYER_2
 10
60.1525
 20
126.2879
 40
4.5736
 50
252.9052519
 51
268.1979645
  0
ARC
  8
LAYER_2
 10
59.8359
 20
126.2863
 40
4.573
 50
272.1654369
 51
287.138617
  0
LINE
  8
LAYER_2
 10
58.8081
 20
121.9164
 11
58.8081
 21
124.5416
  0
LINE
  8
LAYER_2
 10
61.1835
 20
121.9164
 11
61.1835
 21
124.5416
  0
LINE
  8
LAYER_2
  6
AIGENLINE002
 10
61.1835
 20
151.4834
 11
61.1835
 21
120.455
  0
LINE
  8
LAYER_2
 10
59.8709
 20
147.4749
 11
59.8709
 21
129.4185
  0
LINE
  8
LAYER_2
 10
62.4961
 20
129.4185
 11
62.4961
 21
147.4749
  0
INSERT
  8
LAYER_2
  2
AIGNBL02010008
 10
0
 20
0
 30
0
  0
LINE
  8
LAYER_2
 10
-23.977
 20
147.1214
 11
-23.977
 21
95.4843
  0
LINE
  8
LAYER_2
 10
-22.7271
 20
147.1214
 11
-22.7271
 21
95.4843
  0
LINE
  8
LAYER_2
  6
AIGENLINE002
 10
-23.3552
 20
93.1154
 11
-23.3552
 21
166.8567
  0
LINE
  8
LAYER_2
  6
AIGENLINE002
 10
-25.8553
 20
134.2161
 11
-25.8553
 21
166.7633
  0
LINE
  8
LAYER_2
 10
-24.5427
 20
138.7925
 11
-24.5427
 21
158.9841
  0
LINE
  8
LAYER_2
 10
-27.1675
 20
138.7925
 11
-27.1675
 21
158.9841
  0
LINE
  8
LAYER_2
 10
-18.8552
 20
164.7341
 11
-30.8551
 21
164.7341
  0
LINE
  8
LAYER_2
 10
-30.8551
 20
164.7341
 11
-30.8551
 21
165.234
  0
LINE
  8
LAYER_2
 10
-30.8551
 20
165.234
 11
-18.8552
 21
165.234
  0
LINE
  8
LAYER_2
 10
-18.8552
 20
165.234
 11
-18.8552
 21
164.7341
  0
LINE
  8
LAYER_2
 10
-18.8552
 20
164.3593
 11
-30.8551
 21
164.3593
  0
LINE
  8
LAYER_2
 10
-30.8551
 20
164.3593
 11
-30.8551
 21
164.7341
  0
LINE
  8
LAYER_2
 10
-30.8551
 20
164.7341
 11
-18.8552
 21
164.7341
  0
LINE
  8
LAYER_2
 10
-18.8552
 20
164.7341
 11
-18.8552
 21
164.3593
  0
LINE
  8
LAYER_2
 10
-19.355
 20
163.734
 11
-30.3553
 21
163.734
  0
LINE
  8
LAYER_2
 10
-30.3553
 20
163.734
 11
-30.3553
 21
164.3593
  0
LINE
  8
LAYER_2
 10
-30.3553
 20
164.3593
 11
-19.355
 21
164.3593
  0
LINE
  8
LAYER_2
 10
-19.355
 20
164.3593
 11
-19.355
 21
163.734
  0
LINE
  8
LAYER_2
 10
-20.7304
 20
172.734
 11
-20.7304
 21
165.234
  0
LINE
  8
LAYER_2
 10
-20.7304
 20
165.234
 11
-28.98
 21
165.234
  0
LINE
  8
LAYER_2
 10
-28.98
 20
165.234
 11
-28.98
 21
172.734
  0
LINE
  8
LAYER_2
 10
-28.7302
 20
172.734
 11
-28.7302
 21
165.234
  0
LINE
  8
LAYER_2
 10
-20.9801
 20
172.734
 11
-20.9801
 21
165.234
  0
LINE
  8
LAYER_2
 10
-20.7304
 20
159.2342
 11
-20.9801
 21
158.9841
  0
LINE
  8
LAYER_2
 10
-20.9801
 20
158.9841
 11
-28.7302
 21
158.9841
  0
LINE
  8
LAYER_2
 10
-28.7302
 20
158.9841
 11
-28.98
 21
159.2342
  0
LINE
  8
LAYER_2
 10
-28.98
 20
159.2342
 11
-28.98
 21
161.9843
  0
LINE
  8
LAYER_2
 10
-28.98
 20
161.9843
 11
-20.7304
 21
161.9843
  0
LINE
  8
LAYER_2
 10
-20.7304
 20
161.9843
 11
-20.7304
 21
159.2342
  0
LINE
  8
LAYER_2
 10
-20.7304
 20
159.2342
 11
-28.98
 21
159.2342
  0
LINE
  8
LAYER_2
 10
-28.7302
 20
161.9843
 11
-28.7302
 21
158.9841
  0
LINE
  8
LAYER_2
 10
-20.9801
 20
161.9843
 11
-20.9801
 21
158.9841
  0
LINE
  8
LAYER_2
 10
-22.1053
 20
163.734
 11
-22.1053
 21
162.3205
  0
ARC
  8
LAYER_2
 10
-20.7677
 20
164.7463
 40
2.7701
 50
241.1266978
 51
265.6019237
  0
LINE
  8
LAYER_2
 10
-22.6052
 20
163.734
 11
-22.6052
 21
162.3205
  0
ARC
  8
LAYER_2
 10
-23.2819
 20
162.831
 40
0.8477
 50
267.301584
 51
322.9665913
  0
LINE
  8
LAYER_2
 10
-24.8552
 20
163.734
 11
-19.8553
 21
163.734
  0
LINE
  8
LAYER_2
 10
-19.8553
 20
163.734
 11
-19.8553
 21
162.4259
  0
ARC
  8
LAYER_2
 10
-20.3434
 20
162.5533
 40
0.5045
 50
300.627571
 51
345.3707307
  0
ARC
  8
LAYER_2
 10
-20.6045
 20
163.0366
 40
1.0536
 50
267.1460126
 51
299.4570767
  0
LINE
  8
LAYER_2
 10
-20.657
 20
161.9843
 11
-24.8552
 21
161.9843
  0
LINE
  8
LAYER_2
 10
-22.6052
 20
162.3205
 11
-22.1053
 21
162.3205
  0
LINE
  8
LAYER_2
 10
-27.605
 20
163.734
 11
-27.605
 21
162.3205
  0
ARC
  8
LAYER_2
 10
-28.9426
 20
164.7463
 40
2.7701
 50
274.3980763
 51
298.8733022
  0
LINE
  8
LAYER_2
 10
-27.1052
 20
163.734
 11
-27.1052
 21
162.3205
  0
ARC
  8
LAYER_2
 10
-26.4284
 20
162.8312
 40
0.8479
 50
217.040614
 51
272.6912108
  0
LINE
  8
LAYER_2
 10
-24.8552
 20
163.734
 11
-29.855
 21
163.734
  0
LINE
  8
LAYER_2
 10
-29.855
 20
163.734
 11
-29.855
 21
162.4259
  0
ARC
  8
LAYER_2
 10
-29.3624
 20
162.5588
 40
0.5102
 50
195.1034818
 51
239.5081231
  0
ARC
  8
LAYER_2
 10
-29.0998
 20
163.0505
 40
1.0674
 50
240.7519691
 51
272.6956703
  0
LINE
  8
LAYER_2
 10
-29.0496
 20
161.9843
 11
-24.8552
 21
161.9843
  0
LINE
  8
LAYER_2
 10
-27.1052
 20
162.3205
 11
-27.605
 21
162.3205
  0
INSERT
  8
LAYER_2
  2
AIGNBL02010009
 10
0
 20
0
 30
0
  0
LINE
  8
LAYER_2
  6
AIGENLINE002
 10
-21.8311
 20
147.7339
 11
-25.1211
 21
147.7339
  0
LINE
  8
LAYER_2
 10
-30.85
 20
172.734
 11
-18.85
 21
172.734
  0
LINE
  8
LAYER_2
 10
-30.85
 20
173.484
 11
-18.85
 21
173.484
  0
LINE
  8
LAYER_2
 10
-19.1001
 20
173.7337
 11
-30.5998
 21
173.7337
  0
LINE
  8
LAYER_2
 10
-19.9125
 20
173.8588
 11
-29.7875
 21
173.8588
  0
LINE
  8
LAYER_2
 10
-19.9125
 20
176.6087
 11
-19.4667
 21
176.6087
  0
LINE
  8
LAYER_2
 10
-19.9125
 20
177.8586
 11
-19.4667
 21
177.8586
  0
LINE
  8
LAYER_2
 10
-30.85
 20
173.484
 11
-30.85
 21
172.734
  0
LINE
  8
LAYER_2
 10
-29.7875
 20
173.8588
 11
-29.7875
 21
217.1078
  0
LINE
  8
LAYER_2
 10
-29.7875
 20
217.463
 11
-29.7875
 21
219.0881
  0
LINE
  8
LAYER_2
 10
-28.8794
 20
217.3883
 11
-28.8794
 21
217.2329
  0
LINE
  8
LAYER_2
 10
-27.9141
 20
209.5207
 11
-27.9141
 21
206.0119
  0
LINE
  8
LAYER_2
 10
-27.9141
 20
206.0119
 11
-28.0195
 21
198.0913
  0
LINE
  8
LAYER_2
 10
-27.9141
 20
209.529
 11
-28.0167
 21
202.2178
  0
LINE
  8
LAYER_2
 10
-27.5389
 20
209.6172
 11
-27.5389
 21
206.1087
  0
LINE
  8
LAYER_2
 10
-27.2891
 20
205.8672
 11
-27.2891
 21
205.4086
  0
LINE
  8
LAYER_2
 10
-26.5143
 20
217.6883
 11
-26.5143
 21
219.0881
  0
LINE
  8
LAYER_2
 10
-27.2891
 20
205.4086
 11
-27.2984
 21
204.705
  0
LINE
  8
LAYER_2
 10
-27.3179
 20
203.2458
 11
-27.3852
 21
198.1908
  0
LINE
  8
LAYER_2
 10
-26.0999
 20
217.6883
 11
-26.0999
 21
219.0881
  0
LINE
  8
LAYER_2
 10
-25.8501
 20
217.6883
 11
-25.8501
 21
219.0881
  0
LINE
  8
LAYER_2
 10
-25.7998
 20
219.3882
 11
-25.7998
 21
219.138
  0
LINE
  8
LAYER_2
 10
-25.7998
 20
217.3883
 11
-25.7998
 21
217.6381
  0
LINE
  8
LAYER_2
 10
-23.8998
 20
219.3882
 11
-23.8998
 21
219.138
  0
LINE
  8
LAYER_2
 10
-23.8998
 20
217.3883
 11
-23.8998
 21
217.6381
  0
LINE
  8
LAYER_2
 10
-23.8499
 20
219.0881
 11
-23.8499
 21
217.6883
  0
LINE
  8
LAYER_2
 10
-23.6001
 20
219.0881
 11
-23.6001
 21
217.6883
  0
LINE
  8
LAYER_2
 10
-23.1856
 20
217.6883
 11
-23.1856
 21
219.0881
  0
LINE
  8
LAYER_2
 10
-21.6833
 20
202.2205
 11
-21.7859
 21
209.5293
  0
LINE
  8
LAYER_2
 10
-22.4109
 20
205.4086
 11
-22.4014
 21
204.6914
  0
LINE
  8
LAYER_2
 10
-22.3823
 20
203.2624
 11
-22.3147
 21
198.1943
  0
LINE
  8
LAYER_2
 10
-21.7859
 20
206.0119
 11
-21.6805
 21
198.094
  0
LINE
  8
LAYER_2
 10
-22.4109
 20
205.8672
 11
-22.4109
 21
205.4086
  0
LINE
  8
LAYER_2
 10
-22.1611
 20
206.1087
 11
-22.1611
 21
209.6172
  0
LINE
  8
LAYER_2
 10
-21.7859
 20
206.0119
 11
-21.7859
 21
209.5207
  0
LINE
  8
LAYER_2
 10
-21.7863
 20
209.5293
 11
-21.7866
 21
209.5486
  0
LINE
  8
LAYER_2
 10
-21.7866
 20
209.5486
 11
-21.7883
 21
209.5727
  0
LINE
  8
LAYER_2
 10
-21.7883
 20
209.5727
 11
-21.7907
 21
209.5962
  0
LINE
  8
LAYER_2
 10
-21.7907
 20
209.5962
 11
-21.7942
 21
209.6199
  0
LINE
  8
LAYER_2
 10
-21.7942
 20
209.6199
 11
-21.7987
 21
209.6433
  0
LINE
  8
LAYER_2
 10
-21.7987
 20
209.6433
 11
-21.8039
 21
209.6668
  0
LINE
  8
LAYER_2
 10
-21.8039
 20
209.6668
 11
-21.81
 21
209.6899
  0
LINE
  8
LAYER_2
 10
-21.81
 20
209.6899
 11
-21.8173
 21
209.7126
  0
LINE
  8
LAYER_2
 10
-21.8173
 20
209.7126
 11
-21.8252
 21
209.7353
  0
LINE
  8
LAYER_2
 10
-21.8252
 20
209.7353
 11
-21.8342
 21
209.7574
  0
LINE
  8
LAYER_2
 10
-21.8342
 20
209.7574
 11
-21.8438
 21
209.7794
  0
LINE
  8
LAYER_2
 10
-21.8438
 20
209.7794
 11
-21.8545
 21
209.8011
  0
LINE
  8
LAYER_2
 10
-21.8545
 20
209.8011
 11
-21.8658
 21
209.8222
  0
LINE
  8
LAYER_2
 10
-21.8658
 20
209.8222
 11
-21.8783
 21
209.8425
  0
LINE
  8
LAYER_2
 10
-21.8783
 20
209.8425
 11
-21.8913
 21
209.8628
  0
LINE
  8
LAYER_2
 10
-21.8913
 20
209.8628
 11
-21.9051
 21
209.8825
  0
LINE
  8
LAYER_2
 10
-21.9051
 20
209.8825
 11
-21.9196
 21
209.9014
  0
LINE
  8
LAYER_2
 10
-21.9196
 20
209.9014
 11
-21.9351
 21
209.92
  0
LINE
  8
LAYER_2
 10
-21.9351
 20
209.92
 11
-21.9509
 21
209.9379
  0
LINE
  8
LAYER_2
 10
-21.9509
 20
209.9379
 11
-21.9678
 21
209.9551
  0
LINE
  8
LAYER_2
 10
-21.9678
 20
209.9551
 11
-21.9854
 21
209.9717
  0
LINE
  8
LAYER_2
 10
-21.9854
 20
209.9717
 11
-22.0033
 21
209.9875
  0
LINE
  8
LAYER_2
 10
-22.0033
 20
209.9875
 11
-22.0219
 21
210.003
  0
LINE
  8
LAYER_2
 10
-22.0219
 20
210.003
 11
-22.0412
 21
210.0175
  0
LINE
  8
LAYER_2
 10
-22.0412
 20
210.0175
 11
-22.0612
 21
210.0313
  0
LINE
  8
LAYER_2
 10
-22.0612
 20
210.0313
 11
-22.0812
 21
210.044
  0
LINE
  8
LAYER_2
 10
-22.0812
 20
210.044
 11
-22.1022
 21
210.0564
  0
LINE
  8
LAYER_2
 10
-22.1022
 20
210.0564
 11
-22.1235
 21
210.0678
  0
LINE
  8
LAYER_2
 10
-22.1235
 20
210.0678
 11
-22.1452
 21
210.0785
  0
LINE
  8
LAYER_2
 10
-22.1452
 20
210.0785
 11
-22.1676
 21
210.0881
  0
LINE
  8
LAYER_2
 10
-22.1676
 20
210.0881
 11
-22.19
 21
210.0971
  0
LINE
  8
LAYER_2
 10
-22.19
 20
210.0971
 11
-22.2131
 21
210.105
  0
LINE
  8
LAYER_2
 10
-22.2131
 20
210.105
 11
-22.2362
 21
210.1123
  0
LINE
  8
LAYER_2
 10
-22.2362
 20
210.1123
 11
-22.26
 21
210.1184
  0
LINE
  8
LAYER_2
 10
-22.26
 20
210.1184
 11
-22.2837
 21
210.124
  0
LINE
  8
LAYER_2
 10
-22.2837
 20
210.124
 11
-22.3075
 21
210.1284
  0
LINE
  8
LAYER_2
 10
-22.3075
 20
210.1284
 11
-22.332
 21
210.1319
  0
LINE
  8
LAYER_2
 10
-22.332
 20
210.1319
 11
-22.3561
 21
210.1343
  0
LINE
  8
LAYER_2
 10
-22.3561
 20
210.1343
 11
-22.3805
 21
210.136
  0
LINE
  8
LAYER_2
 10
-22.3805
 20
210.136
 11
-22.3988
 21
210.1367
  0
LINE
  8
LAYER_2
 10
-20.8206
 20
217.3883
 11
-20.8206
 21
217.2329
  0
LINE
  8
LAYER_2
 10
-19.9125
 20
173.8588
 11
-19.9125
 21
217.1078
  0
LINE
  8
LAYER_2
 10
-19.9125
 20
217.463
 11
-19.9125
 21
219.0881
  0
LINE
  8
LAYER_2
 10
-18.85
 20
173.484
 11
-18.85
 21
172.734
  0
LINE
  8
LAYER_2
 10
-27.2891
 20
205.4086
 11
-22.4109
 21
205.4086
  0
LINE
  8
LAYER_2
 10
-27.2891
 20
205.8672
 11
-22.4109
 21
205.8672
  0
LINE
  8
LAYER_2
 10
-27.3008
 20
210.1367
 11
-27.3188
 21
210.136
  0
LINE
  8
LAYER_2
 10
-27.3188
 20
210.136
 11
-27.3432
 21
210.1343
  0
LINE
  8
LAYER_2
 10
-27.3432
 20
210.1343
 11
-27.3673
 21
210.1319
  0
LINE
  8
LAYER_2
 10
-27.3673
 20
210.1319
 11
-27.3918
 21
210.1284
  0
LINE
  8
LAYER_2
 10
-27.3918
 20
210.1284
 11
-27.4156
 21
210.124
  0
LINE
  8
LAYER_2
 10
-27.4156
 20
210.124
 11
-27.4397
 21
210.1188
  0
LINE
  8
LAYER_2
 10
-27.4397
 20
210.1188
 11
-27.4631
 21
210.1123
  0
LINE
  8
LAYER_2
 10
-27.4631
 20
210.1123
 11
-27.4865
 21
210.1053
  0
LINE
  8
LAYER_2
 10
-27.4865
 20
210.1053
 11
-27.5096
 21
210.0971
  0
LINE
  8
LAYER_2
 10
-27.5096
 20
210.0971
 11
-27.5323
 21
210.0881
  0
LINE
  8
LAYER_2
 10
-27.5323
 20
210.0881
 11
-27.5544
 21
210.0785
  0
LINE
  8
LAYER_2
 10
-27.5544
 20
210.0785
 11
-27.5764
 21
210.0678
  0
LINE
  8
LAYER_2
 10
-27.5764
 20
210.0678
 11
-27.5978
 21
210.0564
  0
LINE
  8
LAYER_2
 10
-27.5978
 20
210.0564
 11
-27.6188
 21
210.044
  0
LINE
  8
LAYER_2
 10
-27.6188
 20
210.044
 11
-27.6392
 21
210.0309
  0
LINE
  8
LAYER_2
 10
-27.6392
 20
210.0309
 11
-27.6591
 21
210.0171
  0
LINE
  8
LAYER_2
 10
-27.6591
 20
210.0171
 11
-27.6784
 21
210.0027
  0
LINE
  8
LAYER_2
 10
-27.6784
 20
210.0027
 11
-27.697
 21
209.9872
  0
LINE
  8
LAYER_2
 10
-27.697
 20
209.9872
 11
-27.7153
 21
209.9713
  0
LINE
  8
LAYER_2
 10
-27.7153
 20
209.9713
 11
-27.7328
 21
209.9545
  0
LINE
  8
LAYER_2
 10
-27.7328
 20
209.9545
 11
-27.7494
 21
209.9372
  0
LINE
  8
LAYER_2
 10
-27.7494
 20
209.9372
 11
-27.7652
 21
209.9193
  0
LINE
  8
LAYER_2
 10
-27.7652
 20
209.9193
 11
-27.7807
 21
209.901
  0
LINE
  8
LAYER_2
 10
-27.7807
 20
209.901
 11
-27.7952
 21
209.8817
  0
LINE
  8
LAYER_2
 10
-27.7952
 20
209.8817
 11
-27.809
 21
209.8624
  0
LINE
  8
LAYER_2
 10
-27.809
 20
209.8624
 11
-27.8221
 21
209.8421
  0
LINE
  8
LAYER_2
 10
-27.8221
 20
209.8421
 11
-27.8345
 21
209.8215
  0
LINE
  8
LAYER_2
 10
-27.8345
 20
209.8215
 11
-27.8458
 21
209.8008
  0
LINE
  8
LAYER_2
 10
-27.8458
 20
209.8008
 11
-27.8562
 21
209.7794
  0
LINE
  8
LAYER_2
 10
-27.8562
 20
209.7794
 11
-27.8658
 21
209.7574
  0
LINE
  8
LAYER_2
 10
-27.8658
 20
209.7574
 11
-27.8748
 21
209.735
  0
LINE
  8
LAYER_2
 10
-27.8748
 20
209.735
 11
-27.8827
 21
209.7126
  0
LINE
  8
LAYER_2
 10
-27.8827
 20
209.7126
 11
-27.8899
 21
209.6899
  0
LINE
  8
LAYER_2
 10
-27.8899
 20
209.6899
 11
-27.8961
 21
209.6668
  0
LINE
  8
LAYER_2
 10
-27.8961
 20
209.6668
 11
-27.9013
 21
209.6433
  0
LINE
  8
LAYER_2
 10
-27.9013
 20
209.6433
 11
-27.9058
 21
209.6199
  0
LINE
  8
LAYER_2
 10
-27.9058
 20
209.6199
 11
-27.9092
 21
209.5962
  0
LINE
  8
LAYER_2
 10
-27.9092
 20
209.5962
 11
-27.9116
 21
209.5724
  0
LINE
  8
LAYER_2
 10
-27.9116
 20
209.5724
 11
-27.9134
 21
209.5486
  0
LINE
  8
LAYER_2
 10
-27.9134
 20
209.5486
 11
-27.9137
 21
209.529
  0
LINE
  8
LAYER_2
 10
-22.3988
 20
210.1367
 11
-23.2122
 21
210.1494
  0
LINE
  8
LAYER_2
 10
-23.2122
 20
210.1494
 11
-24.0308
 21
210.1574
  0
LINE
  8
LAYER_2
 10
-24.0308
 20
210.1574
 11
-24.8496
 21
210.1598
  0
LINE
  8
LAYER_2
 10
-24.8496
 20
210.1598
 11
-25.6685
 21
210.1574
  0
LINE
  8
LAYER_2
 10
-25.6685
 20
210.1574
 11
-26.4874
 21
210.1494
  0
LINE
  8
LAYER_2
 10
-26.4874
 20
210.1494
 11
-27.3008
 21
210.1367
  0
LINE
  8
LAYER_2
 10
-29.7875
 20
217.1078
 11
-19.9125
 21
217.1078
  0
LINE
  8
LAYER_2
 10
-29.6624
 20
217.2329
 11
-20.0375
 21
217.2329
  0
LINE
  8
LAYER_2
 10
-29.7124
 20
217.3883
 11
-19.9876
 21
217.3883
  0
LINE
  8
LAYER_2
 10
-23.2105
 20
217.463
 11
-19.9125
 21
217.463
  0
LINE
  8
LAYER_2
 10
-29.7875
 20
217.463
 11
-26.4895
 21
217.463
  0
LINE
  8
LAYER_2
 10
-23.8998
 20
217.6381
 11
-25.7998
 21
217.6381
  0
LINE
  8
LAYER_2
 10
-23.1856
 20
217.6883
 11
-23.8499
 21
217.6883
  0
LINE
  8
LAYER_2
 10
-26.5143
 20
217.6883
 11
-25.8501
 21
217.6883
  0
LINE
  8
LAYER_2
 10
-29.7875
 20
219.0881
 11
-25.8501
 21
219.0881
  0
LINE
  8
LAYER_2
 10
-23.8499
 20
219.0881
 11
-19.9125
 21
219.0881
  0
LINE
  8
LAYER_2
 10
-25.7998
 20
219.138
 11
-23.8998
 21
219.138
  0
LINE
  8
LAYER_2
 10
-29.4874
 20
219.3882
 11
-20.2125
 21
219.3882
  0
LINE
  8
LAYER_2
 10
-25.282
 20
267.7358
 11
-24.3821
 21
267.7358
  0
LINE
  8
LAYER_2
 10
-23.9822
 20
267.5358
 11
-25.682
 21
267.5358
  0
LINE
  8
LAYER_2
 10
-23.957
 20
267.4607
 11
-24.2264
 21
267.4607
  0
LINE
  8
LAYER_2
 10
-25.4377
 20
267.4607
 11
-25.7071
 21
267.4607
  0
LINE
  8
LAYER_2
 10
-19.7516
 20
269.3934
 11
-18.9854
 21
268.7507
  0
LINE
  8
LAYER_2
 10
-19.9276
 20
269.378
 11
-18.9699
 21
268.5745
  0
LINE
  8
LAYER_2
 10
-21.9685
 20
266.9458
 11
-21.0108
 21
266.1424
  0
LINE
  8
LAYER_2
 10
-21.9589
 20
266.8402
 11
-21.1165
 21
266.1333
  0
LINE
  8
LAYER_2
 10
-21.2988
 20
266.1882
 11
-21.8734
 21
266.6702
  0
LINE
  8
LAYER_2
 10
-25.7822
 20
257.324
 11
-26.082
 21
257.324
  0
LINE
  8
LAYER_2
 10
-23.8819
 20
257.324
 11
-23.5822
 21
257.324
  0
LINE
  8
LAYER_2
 10
-21.9685
 20
266.9458
 11
-19.9276
 21
269.378
  0
LINE
  8
LAYER_2
 10
-21.9547
 20
266.573
 11
-21.8734
 21
266.6702
  0
LINE
  8
LAYER_2
 10
-21.3801
 20
266.0912
 11
-21.2988
 21
266.1882
  0
LINE
  8
LAYER_2
 10
-21.0108
 20
266.1424
 11
-18.9699
 21
268.5745
  0
LINE
  8
LAYER_2
 10
-23.269
 20
258.1947
 11
-23.1678
 21
257.9124
  0
LINE
  8
LAYER_2
 10
-26.3951
 20
258.1947
 11
-26.4964
 21
257.9124
  0
LINE
  8
LAYER_2
 10
-28.8277
 20
259.6603
 11
-28.7688
 21
259.5773
  0
LINE
  8
LAYER_2
 10
-28.7688
 20
259.5773
 11
-28.7106
 21
259.4906
  0
LINE
  8
LAYER_2
 10
-28.7106
 20
259.4906
 11
-28.6548
 21
259.4027
  0
LINE
  8
LAYER_2
 10
-28.6548
 20
259.4027
 11
-28.6003
 21
259.3134
  0
LINE
  8
LAYER_2
 10
-28.6003
 20
259.3134
 11
-28.5486
 21
259.2228
  0
LINE
  8
LAYER_2
 10
-28.5486
 20
259.2228
 11
-28.499
 21
259.1309
  0
LINE
  8
LAYER_2
 10
-28.499
 20
259.1309
 11
-28.4515
 21
259.0381
  0
LINE
  8
LAYER_2
 10
-28.4515
 20
259.0381
 11
-28.4064
 21
258.9439
  0
LINE
  8
LAYER_2
 10
-28.4064
 20
258.9439
 11
-28.3633
 21
258.8488
  0
LINE
  8
LAYER_2
 10
-28.3633
 20
258.8488
 11
-28.323
 21
258.7529
  0
LINE
  8
LAYER_2
 10
-28.323
 20
258.7529
 11
-28.2847
 21
258.6557
  0
LINE
  8
LAYER_2
 10
-28.2847
 20
258.6557
 11
-28.2486
 21
258.5578
  0
LINE
  8
LAYER_2
 10
-28.2486
 20
258.5578
 11
-28.2152
 21
258.459
  0
LINE
  8
LAYER_2
 10
-28.2152
 20
258.459
 11
-28.1842
 21
258.3596
  0
LINE
  8
LAYER_2
 10
-28.1842
 20
258.3596
 11
-28.1552
 21
258.2592
  0
LINE
  8
LAYER_2
 10
-28.1552
 20
258.2592
 11
-28.129
 21
258.1584
  0
LINE
  8
LAYER_2
 10
-28.129
 20
258.1584
 11
-28.1049
 21
258.0569
  0
LINE
  8
LAYER_2
 10
-28.1049
 20
258.0569
 11
-28.0835
 21
257.9549
  0
LINE
  8
LAYER_2
 10
-28.0835
 20
257.9549
 11
-28.0646
 21
257.8525
  0
LINE
  8
LAYER_2
 10
-28.0646
 20
257.8525
 11
-28.0481
 21
257.7496
  0
LINE
  8
LAYER_2
 10
-28.0481
 20
257.7496
 11
-28.0339
 21
257.6464
  0
LINE
  8
LAYER_2
 10
-28.0339
 20
257.6464
 11
-28.0222
 21
257.5428
  0
LINE
  8
LAYER_2
 10
-28.0222
 20
257.5428
 11
-28.0136
 21
257.439
  0
LINE
  8
LAYER_2
 10
-28.0136
 20
257.439
 11
-28.0071
 21
257.335
  0
LINE
  8
LAYER_2
 10
-28.0071
 20
257.335
 11
-28.0029
 21
257.231
  0
LINE
  8
LAYER_2
 10
-28.0029
 20
257.231
 11
-28.0016
 21
257.1317
  0
LINE
  8
LAYER_2
 10
-27.8961
 20
228.4052
 11
-27.8954
 21
228.3879
  0
LINE
  8
LAYER_2
 10
-27.8954
 20
228.3879
 11
-27.8944
 21
228.3709
  0
LINE
  8
LAYER_2
 10
-27.8944
 20
228.3709
 11
-27.8923
 21
228.3538
  0
LINE
  8
LAYER_2
 10
-27.8923
 20
228.3538
 11
-27.8899
 21
228.337
  0
LINE
  8
LAYER_2
 10
-27.8899
 20
228.337
 11
-27.8865
 21
228.3201
  0
LINE
  8
LAYER_2
 10
-27.8865
 20
228.3201
 11
-27.8824
 21
228.3036
  0
LINE
  8
LAYER_2
 10
-27.8824
 20
228.3036
 11
-27.8775
 21
228.2872
  0
LINE
  8
LAYER_2
 10
-27.8775
 20
228.2872
 11
-27.872
 21
228.271
  0
LINE
  8
LAYER_2
 10
-27.872
 20
228.271
 11
-27.8658
 21
228.2552
  0
LINE
  8
LAYER_2
 10
-27.8658
 20
228.2552
 11
-27.8586
 21
228.2393
  0
LINE
  8
LAYER_2
 10
-27.8586
 20
228.2393
 11
-27.851
 21
228.224
  0
LINE
  8
LAYER_2
 10
-27.851
 20
228.224
 11
-27.8427
 21
228.2088
  0
LINE
  8
LAYER_2
 10
-27.8427
 20
228.2088
 11
-27.8334
 21
228.1942
  0
LINE
  8
LAYER_2
 10
-27.8334
 20
228.1942
 11
-27.8238
 21
228.1795
  0
LINE
  8
LAYER_2
 10
-27.8238
 20
228.1795
 11
-27.8135
 21
228.1656
  0
LINE
  8
LAYER_2
 10
-27.8135
 20
228.1656
 11
-27.8025
 21
228.1518
  0
LINE
  8
LAYER_2
 10
-27.8025
 20
228.1518
 11
-27.7914
 21
228.1387
  0
LINE
  8
LAYER_2
 10
-27.7914
 20
228.1387
 11
-27.7793
 21
228.1261
  0
LINE
  8
LAYER_2
 10
-27.7793
 20
228.1261
 11
-27.7666
 21
228.1142
  0
LINE
  8
LAYER_2
 10
-27.7666
 20
228.1142
 11
-27.7542
 21
228.1029
  0
LINE
  8
LAYER_2
 10
-27.7542
 20
228.1029
 11
-27.7411
 21
228.0922
  0
LINE
  8
LAYER_2
 10
-27.7411
 20
228.0922
 11
-27.728
 21
228.0822
  0
LINE
  8
LAYER_2
 10
-27.728
 20
228.0822
 11
-27.7149
 21
228.0732
  0
LINE
  8
LAYER_2
 10
-27.7149
 20
228.0732
 11
-27.7025
 21
228.065
  0
LINE
  8
LAYER_2
 10
-27.7025
 20
228.065
 11
-27.6901
 21
228.0576
  0
LINE
  8
LAYER_2
 10
-27.6901
 20
228.0576
 11
-27.6781
 21
228.0505
  0
LINE
  8
LAYER_2
 10
-27.6781
 20
228.0505
 11
-27.666
 21
228.0443
  0
LINE
  8
LAYER_2
 10
-27.666
 20
228.0443
 11
-27.654
 21
228.0379
  0
LINE
  8
LAYER_2
 10
-27.654
 20
228.0379
 11
-27.6412
 21
228.0322
  0
LINE
  8
LAYER_2
 10
-27.6412
 20
228.0322
 11
-27.6281
 21
228.0264
  0
LINE
  8
LAYER_2
 10
-27.6281
 20
228.0264
 11
-27.6144
 21
228.0211
  0
LINE
  8
LAYER_2
 10
-27.6144
 20
228.0211
 11
-27.6002
 21
228.0159
  0
LINE
  8
LAYER_2
 10
-27.6002
 20
228.0159
 11
-27.5857
 21
228.0107
  0
LINE
  8
LAYER_2
 10
-27.5857
 20
228.0107
 11
-27.5703
 21
228.0059
  0
LINE
  8
LAYER_2
 10
-27.5703
 20
228.0059
 11
-27.5544
 21
228.0012
  0
LINE
  8
LAYER_2
 10
-27.5544
 20
228.0012
 11
-27.5385
 21
227.9971
  0
LINE
  8
LAYER_2
 10
-27.5385
 20
227.9971
 11
-27.5217
 21
227.993
  0
LINE
  8
LAYER_2
 10
-27.5217
 20
227.993
 11
-27.5044
 21
227.9892
  0
LINE
  8
LAYER_2
 10
-27.5044
 20
227.9892
 11
-27.4862
 21
227.9856
  0
LINE
  8
LAYER_2
 10
-27.4862
 20
227.9856
 11
-27.4679
 21
227.9823
  0
LINE
  8
LAYER_2
 10
-27.4679
 20
227.9823
 11
-27.4486
 21
227.9794
  0
LINE
  8
LAYER_2
 10
-27.4486
 20
227.9794
 11
-27.4286
 21
227.9766
  0
LINE
  8
LAYER_2
 10
-27.4286
 20
227.9766
 11
-27.408
 21
227.9742
  0
LINE
  8
LAYER_2
 10
-27.408
 20
227.9742
 11
-27.387
 21
227.9721
  0
LINE
  8
LAYER_2
 10
-27.387
 20
227.9721
 11
-27.3663
 21
227.9704
  0
LINE
  8
LAYER_2
 10
-27.3663
 20
227.9704
 11
-27.3453
 21
227.969
  0
LINE
  8
LAYER_2
 10
-27.3453
 20
227.969
 11
-27.3246
 21
227.9682
  0
LINE
  8
LAYER_2
 10
-27.3246
 20
227.9682
 11
-27.305
 21
227.9673
  0
LINE
  8
LAYER_2
 10
-27.305
 20
227.9673
 11
-27.2857
 21
227.9671
  0
LINE
  8
LAYER_2
 10
-27.2857
 20
227.9671
 11
-27.2712
 21
227.967
  0
LINE
  8
LAYER_2
 10
-27.8961
 20
228.4052
 11
-27.8996
 21
229.3455
  0
LINE
  8
LAYER_2
 10
-27.8996
 20
229.3455
 11
-28.0016
 21
257.1317
  0
LINE
  8
LAYER_2
 10
-27.8961
 20
229.3455
 11
-27.9988
 21
257.4597
  0
LINE
  8
LAYER_2
 10
-27.8961
 20
229.3455
 11
-27.8961
 21
228.4055
  0
LINE
  8
LAYER_2
 10
-27.5213
 20
228.9845
 11
-27.5213
 21
228.0445
  0
LINE
  8
LAYER_2
 10
-20.9508
 20
259.4944
 11
-20.8919
 21
259.5816
  0
LINE
  8
LAYER_2
 10
-20.8919
 20
259.5816
 11
-20.8327
 21
259.6655
  0
LINE
  8
LAYER_2
 10
-27.2712
 20
227.9797
 11
-27.2712
 21
227.967
  0
LINE
  8
LAYER_2
 10
-26.082
 20
257.324
 11
-26.082
 21
243.5612
  0
LINE
  8
LAYER_2
 10
-25.7822
 20
257.324
 11
-25.7822
 21
243.3113
  0
LINE
  8
LAYER_2
 10
-25.7071
 20
267.4197
 11
-25.7071
 21
267.4607
  0
LINE
  8
LAYER_2
 10
-23.957
 20
267.4197
 11
-23.957
 21
267.4607
  0
LINE
  8
LAYER_2
 10
-23.8819
 20
257.324
 11
-23.8819
 21
243.3113
  0
LINE
  8
LAYER_2
 10
-23.5822
 20
243.5612
 11
-23.5822
 21
257.324
  0
LINE
  8
LAYER_2
 10
-22.393
 20
227.9797
 11
-22.393
 21
227.967
  0
LINE
  8
LAYER_2
 10
-22.1428
 20
228.0445
 11
-22.1428
 21
228.9845
  0
LINE
  8
LAYER_2
 10
-21.768
 20
228.4055
 11
-21.768
 21
229.3455
  0
LINE
  8
LAYER_2
 10
-21.6626
 20
257.1214
 11
-21.6612
 21
257.221
  0
LINE
  8
LAYER_2
 10
-21.6612
 20
257.221
 11
-21.6571
 21
257.3257
  0
LINE
  8
LAYER_2
 10
-21.6571
 20
257.3257
 11
-21.6505
 21
257.4303
  0
LINE
  8
LAYER_2
 10
-21.6505
 20
257.4303
 11
-21.6412
 21
257.5347
  0
LINE
  8
LAYER_2
 10
-21.6412
 20
257.5347
 11
-21.6299
 21
257.6389
  0
LINE
  8
LAYER_2
 10
-21.6299
 20
257.6389
 11
-21.6157
 21
257.7426
  0
LINE
  8
LAYER_2
 10
-21.6157
 20
257.7426
 11
-21.5992
 21
257.8463
  0
LINE
  8
LAYER_2
 10
-21.5992
 20
257.8463
 11
-21.5803
 21
257.9493
  0
LINE
  8
LAYER_2
 10
-21.5803
 20
257.9493
 11
-21.5585
 21
258.0519
  0
LINE
  8
LAYER_2
 10
-21.5585
 20
258.0519
 11
-21.5344
 21
258.1539
  0
LINE
  8
LAYER_2
 10
-21.5344
 20
258.1539
 11
-21.5083
 21
258.2554
  0
LINE
  8
LAYER_2
 10
-21.5083
 20
258.2554
 11
-21.4793
 21
258.3561
  0
LINE
  8
LAYER_2
 10
-21.4793
 20
258.3561
 11
-21.4483
 21
258.4564
  0
LINE
  8
LAYER_2
 10
-21.4483
 20
258.4564
 11
-21.4145
 21
258.5556
  0
LINE
  8
LAYER_2
 10
-21.4145
 20
258.5556
 11
-21.3784
 21
258.6542
  0
LINE
  8
LAYER_2
 10
-21.3784
 20
258.6542
 11
-21.3401
 21
258.7518
  0
LINE
  8
LAYER_2
 10
-21.3401
 20
258.7518
 11
-21.2991
 21
258.8485
  0
LINE
  8
LAYER_2
 10
-21.2991
 20
258.8485
 11
-21.2561
 21
258.9444
  0
LINE
  8
LAYER_2
 10
-21.2561
 20
258.9444
 11
-21.2106
 21
259.0388
  0
LINE
  8
LAYER_2
 10
-21.2106
 20
259.0388
 11
-21.163
 21
259.1325
  0
LINE
  8
LAYER_2
 10
-21.163
 20
259.1325
 11
-21.1131
 21
259.2248
  0
LINE
  8
LAYER_2
 10
-21.1131
 20
259.2248
 11
-21.0611
 21
259.3159
  0
LINE
  8
LAYER_2
 10
-21.0611
 20
259.3159
 11
-21.007
 21
259.4057
  0
LINE
  8
LAYER_2
 10
-21.007
 20
259.4057
 11
-20.9508
 21
259.4944
  0
LINE
  8
LAYER_2
 10
-21.768
 20
229.3455
 11
-21.6654
 21
257.4496
  0
LINE
  8
LAYER_2
 10
-21.768
 20
228.4053
 11
-21.6626
 21
257.1211
  0
LINE
  8
LAYER_2
 10
-26.082
 20
243.5612
 11
-23.5822
 21
243.5612
  0
LINE
  8
LAYER_2
 10
-25.8318
 20
243.3113
 11
-23.8323
 21
243.3113
  0
LINE
  8
LAYER_2
 10
-22.393
 20
227.967
 11
-22.3785
 21
227.9671
  0
LINE
  8
LAYER_2
 10
-22.3785
 20
227.9671
 11
-22.3595
 21
227.9673
  0
LINE
  8
LAYER_2
 10
-22.3595
 20
227.9673
 11
-22.3395
 21
227.9682
  0
LINE
  8
LAYER_2
 10
-22.3395
 20
227.9682
 11
-22.3185
 21
227.969
  0
LINE
  8
LAYER_2
 10
-22.3185
 20
227.969
 11
-22.2972
 21
227.9704
  0
LINE
  8
LAYER_2
 10
-22.2972
 20
227.9704
 11
-22.2762
 21
227.9723
  0
LINE
  8
LAYER_2
 10
-22.2762
 20
227.9723
 11
-22.2551
 21
227.9742
  0
LINE
  8
LAYER_2
 10
-22.2551
 20
227.9742
 11
-22.2345
 21
227.9768
  0
LINE
  8
LAYER_2
 10
-22.2345
 20
227.9768
 11
-22.2145
 21
227.9795
  0
LINE
  8
LAYER_2
 10
-22.2145
 20
227.9795
 11
-22.1952
 21
227.9826
  0
LINE
  8
LAYER_2
 10
-27.2712
 20
227.9797
 11
-22.393
 21
227.9797
  0
LINE
  8
LAYER_2
 10
-27.2712
 20
227.967
 11
-22.393
 21
227.967
  0
LINE
  8
LAYER_2
 10
-22.1924
 20
227.9832
 11
-22.1766
 21
227.9859
  0
LINE
  8
LAYER_2
 10
-22.1766
 20
227.9859
 11
-22.1587
 21
227.9893
  0
LINE
  8
LAYER_2
 10
-22.1587
 20
227.9893
 11
-22.1415
 21
227.9933
  0
LINE
  8
LAYER_2
 10
-22.1415
 20
227.9933
 11
-22.1249
 21
227.9973
  0
LINE
  8
LAYER_2
 10
-22.1249
 20
227.9973
 11
-22.1087
 21
228.0014
  0
LINE
  8
LAYER_2
 10
-22.1087
 20
228.0014
 11
-22.0932
 21
228.0061
  0
LINE
  8
LAYER_2
 10
-22.0932
 20
228.0061
 11
-22.0781
 21
228.0109
  0
LINE
  8
LAYER_2
 10
-22.0781
 20
228.0109
 11
-22.0636
 21
228.0159
  0
LINE
  8
LAYER_2
 10
-22.0636
 20
228.0159
 11
-22.0495
 21
228.0212
  0
LINE
  8
LAYER_2
 10
-22.0495
 20
228.0212
 11
-22.0361
 21
228.0267
  0
LINE
  8
LAYER_2
 10
-22.0361
 20
228.0267
 11
-22.0226
 21
228.0326
  0
LINE
  8
LAYER_2
 10
-22.0226
 20
228.0326
 11
-22.0095
 21
228.0384
  0
LINE
  8
LAYER_2
 10
-22.0095
 20
228.0384
 11
-21.9968
 21
228.0447
  0
LINE
  8
LAYER_2
 10
-21.9968
 20
228.0447
 11
-21.9844
 21
228.0515
  0
LINE
  8
LAYER_2
 10
-21.9844
 20
228.0515
 11
-21.972
 21
228.0586
  0
LINE
  8
LAYER_2
 10
-21.972
 20
228.0586
 11
-21.9596
 21
228.0662
  0
LINE
  8
LAYER_2
 10
-21.9596
 20
228.0662
 11
-21.9468
 21
228.0748
  0
LINE
  8
LAYER_2
 10
-21.9468
 20
228.0748
 11
-21.9341
 21
228.0841
  0
LINE
  8
LAYER_2
 10
-21.9341
 20
228.0841
 11
-21.921
 21
228.0939
  0
LINE
  8
LAYER_2
 10
-21.921
 20
228.0939
 11
-21.9079
 21
228.1048
  0
LINE
  8
LAYER_2
 10
-21.9079
 20
228.1048
 11
-21.8955
 21
228.1161
  0
LINE
  8
LAYER_2
 10
-21.8955
 20
228.1161
 11
-21.8831
 21
228.1282
  0
LINE
  8
LAYER_2
 10
-21.8831
 20
228.1282
 11
-21.871
 21
228.1409
  0
LINE
  8
LAYER_2
 10
-21.871
 20
228.1409
 11
-21.8597
 21
228.1542
  0
LINE
  8
LAYER_2
 10
-21.8597
 20
228.1542
 11
-21.8486
 21
228.168
  0
LINE
  8
LAYER_2
 10
-21.8486
 20
228.168
 11
-21.8383
 21
228.1821
  0
LINE
  8
LAYER_2
 10
-21.8383
 20
228.1821
 11
-21.8287
 21
228.1969
  0
LINE
  8
LAYER_2
 10
-21.8287
 20
228.1969
 11
-21.8197
 21
228.2119
  0
LINE
  8
LAYER_2
 10
-21.8197
 20
228.2119
 11
-21.8114
 21
228.2272
  0
LINE
  8
LAYER_2
 10
-21.8114
 20
228.2272
 11
-21.8039
 21
228.2429
  0
LINE
  8
LAYER_2
 10
-21.8039
 20
228.2429
 11
-21.7969
 21
228.2589
  0
LINE
  8
LAYER_2
 10
-21.7969
 20
228.2589
 11
-21.7907
 21
228.2749
  0
LINE
  8
LAYER_2
 10
-21.7907
 20
228.2749
 11
-21.7852
 21
228.2917
  0
LINE
  8
LAYER_2
 10
-21.7852
 20
228.2917
 11
-21.7807
 21
228.3084
  0
LINE
  8
LAYER_2
 10
-21.7807
 20
228.3084
 11
-21.777
 21
228.3249
  0
LINE
  8
LAYER_2
 10
-21.777
 20
228.3249
 11
-21.7735
 21
228.3418
  0
LINE
  8
LAYER_2
 10
-21.7735
 20
228.3418
 11
-21.7711
 21
228.359
  0
LINE
  8
LAYER_2
 10
-21.7711
 20
228.359
 11
-21.7694
 21
228.3761
  0
LINE
  8
LAYER_2
 10
-21.7694
 20
228.3761
 11
-21.7684
 21
228.3936
  0
LINE
  8
LAYER_2
 10
-21.7684
 20
228.3936
 11
-21.768
 21
228.4053
  0
LINE
  8
LAYER_2
 10
-26.5143
 20
217.6883
 11
-26.4895
 21
217.463
  0
ARC
  8
LAYER_2
 10
-29.4874
 20
219.0881
 40
0.3001
 50
89.99933535
 51
180.0006647
  0
ARC
  8
LAYER_2
 10
-25.7998
 20
217.6884
 40
0.3001
 50
180.0122048
 51
270.0068907
  0
ARC
  8
LAYER_2
 10
-25.7998
 20
219.0881
 40
0.3001
 50
90.00137692
 51
179.998623
  0
LINE
  8
LAYER_2
 10
-27.3632
 20
205.8782
 11
-27.2891
 21
205.8672
  0
ARC
  8
LAYER_2
 10
-30.5906
 20
173.4742
 40
0.2596
 50
92.03799743
 51
177.8473881
  0
ARC
  8
LAYER_2
 10
-29.6624
 20
173.8588
 40
0.1251
 50
179.9908516
 51
270.0091484
  0
ARC
  8
LAYER_2
 10
-29.6624
 20
217.1078
 40
0.1251
 50
89.98337642
 51
180.0166236
  0
ARC
  8
LAYER_2
 10
-29.7096
 20
217.4662
 40
0.078
 50
182.3551463
 51
267.9508385
  0
ARC
  8
LAYER_2
 10
-25.798
 20
217.6902
 40
0.0521
 50
182.0495936
 51
268.0644278
  0
ARC
  8
LAYER_2
 10
-25.7983
 20
219.0862
 40
0.0519
 50
91.69587858
 51
177.8466725
  0
ARC
  8
LAYER_2
 10
-24.85
 20
81.4345
 40
128.4475
 50
88.90975402
 51
91.09024596
  0
LINE
  8
LAYER_2
 10
-23.2105
 20
217.463
 11
-23.1856
 21
217.6883
  0
ARC
  8
LAYER_2
 10
-23.9
 20
217.6882
 40
0.2999
 50
270.0361764
 51
0.02114801142
  0
ARC
  8
LAYER_2
 10
-20.2126
 20
219.0881
 40
0.3001
 50
359.9963106
 51
89.98459395
  0
ARC
  8
LAYER_2
 10
-23.9116
 20
219.0767
 40
0.3117
 50
2.092480676
 51
87.83109948
  0
LINE
  8
LAYER_2
 10
-22.4109
 20
205.8672
 11
-22.3368
 21
205.8782
  0
ARC
  8
LAYER_2
 10
-19.1093
 20
173.4744
 40
0.2594
 50
2.114490427
 51
87.97721947
  0
ARC
  8
LAYER_2
 10
-20.0376
 20
173.8588
 40
0.1251
 50
270.0294093
 51
0.01640897627
  0
ARC
  8
LAYER_2
 10
-20.0375
 20
217.1079
 40
0.125
 50
359.976118
 51
89.97806371
  0
ARC
  8
LAYER_2
 10
-19.9902
 20
217.466
 40
0.0777
 50
271.9080985
 51
357.7859167
  0
ARC
  8
LAYER_2
 10
-23.9017
 20
219.0862
 40
0.0518
 50
2.112410706
 51
87.88758928
  0
ARC
  8
LAYER_2
 10
-23.9019
 20
217.6901
 40
0.052
 50
272.2810731
 51
358.0623571
  0
ARC
  8
LAYER_2
 10
-32.3192
 20
257.121
 40
4.3169
 50
8.378330172
 51
33.48493288
  0
LINE
  8
LAYER_2
 10
-28.0343
 20
257.6472
 11
-28.045
 21
257.7293
  0
LINE
  8
LAYER_2
 10
-28.0305
 20
257.616
 11
-28.0343
 21
257.6472
  0
LINE
  8
LAYER_2
 10
-28.045
 20
257.7293
 11
-28.0484
 21
257.75
  0
LINE
  8
LAYER_2
 10
-28.0229
 20
257.544
 11
-28.0305
 21
257.616
  0
LINE
  8
LAYER_2
 10
-28.014
 20
257.4404
 11
-28.0229
 21
257.544
  0
LINE
  8
LAYER_2
 10
-28.0105
 20
257.3962
 11
-28.014
 21
257.4404
  0
LINE
  8
LAYER_2
 10
-28.0029
 20
257.2327
 11
-28.005
 21
257.2889
  0
LINE
  8
LAYER_2
 10
-28.005
 20
257.2889
 11
-28.0105
 21
257.3962
  0
LINE
  8
LAYER_2
 10
-28.0016
 20
257.1317
 11
-28.0029
 21
257.2327
  0
LINE
  8
LAYER_2
 10
-28.7188
 20
259.5027
 11
-28.827
 21
259.6596
  0
ARC
  8
LAYER_2
 10
-31.3292
 20
257.4478
 40
3.3304
 50
0.204494275
 51
38.19801315
  0
ARC
  8
LAYER_2
 10
-25.2773
 20
267.2265
 40
0.5094
 50
90.52560413
 51
142.6044982
  0
LINE
  8
LAYER_2
 10
-25.682
 20
267.5358
 11
-25.7071
 21
267.4607
  0
ARC
  8
LAYER_2
 10
-24.8318
 20
262.5606
 40
5.9997
 50
302.0684075
 51
32.07212816
  0
ARC
  8
LAYER_2
 10
-24.8349
 20
262.5594
 40
6.0029
 50
32.06661354
 51
44.00925141
  0
ARC
  8
LAYER_2
 10
-24.8319
 20
262.5613
 40
5.9995
 50
55.97914064
 51
145.9838611
  0
ARC
  8
LAYER_2
 10
-24.8324
 20
262.5605
 40
5.9995
 50
145.9747928
 51
235.9797397
  0
LINE
  8
LAYER_2
 10
-28.189
 20
257.5879
 11
-28.0167
 21
257.4761
  0
ARC
  8
LAYER_2
 10
-24.832
 20
262.5608
 40
5.7498
 50
304.1246045
 51
34.12611076
  0
ARC
  8
LAYER_2
 10
-24.8208
 20
262.5698
 40
5.7354
 50
34.11417593
 51
43.77428022
  0
ARC
  8
LAYER_2
 10
-24.8321
 20
262.561
 40
5.7498
 50
56.23778456
 51
146.2430697
  0
ARC
  8
LAYER_2
 10
-24.8321
 20
262.5609
 40
5.7499
 50
146.2425485
 51
235.8924584
  0
ARC
  8
LAYER_2
 10
-24.832
 20
262.5608
 40
4.9373
 50
289.697714
 51
19.69861159
  0
ARC
  8
LAYER_2
 10
-24.8324
 20
262.5603
 40
4.9378
 50
19.70202597
 51
109.6942187
  0
ARC
  8
LAYER_2
 10
-24.8318
 20
262.5608
 40
4.9376
 50
109.7015257
 51
199.696985
  0
ARC
  8
LAYER_2
 10
-24.8307
 20
262.5622
 40
4.9391
 50
199.7074689
 51
250.2906112
  0
ARC
  8
LAYER_2
 10
-26.7069
 20
257.3241
 40
0.9247
 50
359.9907341
 51
70.29395047
  0
ARC
  8
LAYER_2
 10
-26.7069
 20
257.324
 40
0.6249
 50
359.9986873
 51
70.31406851
  0
LINE
  8
LAYER_2
 10
-27.8961
 20
228.4055
 11
-27.8958
 21
228.3893
  0
ARC
  8
LAYER_2
 10
-25.832
 20
243.5613
 40
0.25
 50
180.0295899
 51
270.0391513
  0
ARC
  8
LAYER_2
 10
-17.2924
 20
257.1034
 40
4.3704
 50
146.6786096
 51
171.5816295
  0
LINE
  8
LAYER_2
 10
-21.6185
 20
257.724
 11
-21.6295
 21
257.6397
  0
LINE
  8
LAYER_2
 10
-21.6295
 20
257.6397
 11
-21.6336
 21
257.6091
  0
LINE
  8
LAYER_2
 10
-21.6157
 20
257.7432
 11
-21.6185
 21
257.724
  0
LINE
  8
LAYER_2
 10
-21.6336
 20
257.6091
 11
-21.6412
 21
257.5358
  0
LINE
  8
LAYER_2
 10
-21.6412
 20
257.5358
 11
-21.6502
 21
257.4318
  0
LINE
  8
LAYER_2
 10
-21.6502
 20
257.4318
 11
-21.6536
 21
257.3872
  0
LINE
  8
LAYER_2
 10
-21.6591
 20
257.2794
 11
-21.6612
 21
257.2229
  0
LINE
  8
LAYER_2
 10
-21.6536
 20
257.3872
 11
-21.6571
 21
257.3274
  0
LINE
  8
LAYER_2
 10
-21.6571
 20
257.3274
 11
-21.6591
 21
257.2794
  0
LINE
  8
LAYER_2
 10
-21.6612
 20
257.2229
 11
-21.6626
 21
257.1214
  0
LINE
  8
LAYER_2
 10
-20.834
 20
259.6637
 11
-20.9419
 21
259.5075
  0
ARC
  8
LAYER_2
 10
-18.3077
 20
257.4381
 40
3.3577
 50
144.4742955
 51
179.8045648
  0
LINE
  8
LAYER_2
 10
-21.0287
 20
259.4057
 11
-21.0404
 21
259.3892
  0
LINE
  8
LAYER_2
 10
-20.9508
 20
259.5089
 11
-21.0287
 21
259.4057
  0
ARC
  8
LAYER_2
 10
-22.9572
 20
257.3242
 40
0.9247
 50
109.704259
 51
180.0110563
  0
LINE
  8
LAYER_2
 10
-22.393
 20
227.9797
 11
-22.3189
 21
227.9826
  0
ARC
  8
LAYER_2
 10
-22.9573
 20
257.324
 40
0.6249
 50
109.687598
 51
179.9996461
  0
ARC
  8
LAYER_2
 10
-24.3867
 20
267.2267
 40
0.5091
 50
37.38105684
 51
89.47737934
  0
ARC
  8
LAYER_2
 10
-23.8322
 20
243.5613
 40
0.25
 50
269.9793386
 51
359.9748248
  0
LINE
  8
LAYER_2
  6
AIGENLINE002
 10
-9.6192
 20
249.7643
 11
-24.8552
 21
262.5667
  0
LINE
  8
LAYER_2
 10
-7.4402
 20
247.9332
 11
-9.1734
 21
249.3894
  0
LINE
  8
LAYER_2
  6
AIGENLINE001
 10
-22.0936
 20
258.6688
 11
-10.9866
 21
249.3105
  0
LINE
  8
LAYER_2
  6
AIGENLINE001
 10
-9.3784
 20
251.2238
 11
-20.4375
 21
260.5419
  0
LINE
  8
LAYER_2
  6
AIGENLINE001
 10
-10.6341
 20
249.3412
 11
-9.3478
 21
250.8718
  0
ARC
  8
LAYER_2
  6
AIGENLINE001
 10
-10.8268
 20
249.5148
 40
0.2594
 50
231.9696666
 51
317.9852455
  0
ARC
  8
LAYER_2
  6
AIGENLINE001
 10
-9.5386
 20
251.0325
 40
0.2495
 50
319.8876756
 51
50.04899625
  0
LINE
  8
LAYER_2
 10
-39.2545
 20
247.5969
 11
-41.1601
 21
248.8658
  0
LINE
  8
LAYER_2
 10
-41.1601
 20
248.8658
 11
-40.1438
 21
246.8142
  0
LINE
  8
LAYER_2
 10
-40.1438
 20
246.8142
 11
-39.2545
 21
247.5969
  0
LINE
  8
LAYER_2
  6
AIGENLINE002
 10
-40.0911
 20
249.7643
 11
-24.8552
 21
262.5667
  0
LINE
  8
LAYER_2
 10
-42.2701
 20
247.9332
 11
-40.5369
 21
249.3894
  0
LINE
  8
LAYER_2
  6
AIGENLINE001
 10
-27.6167
 20
258.6688
 11
-38.7237
 21
249.3105
  0
LINE
  8
LAYER_2
  6
AIGENLINE001
 10
-40.3319
 20
251.2238
 11
-29.2728
 21
260.5419
  0
LINE
  8
LAYER_2
  6
AIGENLINE001
 10
-39.0762
 20
249.3412
 11
-40.3626
 21
250.8718
  0
ARC
  8
LAYER_2
  6
AIGENLINE001
 10
-38.8835
 20
249.5148
 40
0.2594
 50
222.0165541
 51
308.0285339
  0
ARC
  8
LAYER_2
  6
AIGENLINE001
 10
-40.1717
 20
251.0325
 40
0.2495
 50
129.9460653
 51
220.0849534
  0
LINE
  8
LAYER_2
 10
-23.957
 20
267.4607
 11
-23.9822
 21
267.5358
  0
ARC
  8
LAYER_2
 10
-19.0731
 20
268.6542
 40
0.1304
 50
322.332999
 51
47.72153422
  0
ARC
  8
LAYER_2
 10
-19.8313
 20
269.291
 40
0.1298
 50
52.09304034
 51
137.9082488
  0
ARC
  8
LAYER_2
 10
-21.2411
 20
266.1361
 40
0.0777
 50
52.15242934
 51
137.9324728
  0
ARC
  8
LAYER_2
 10
-21.9308
 20
266.7185
 40
0.075
 50
319.8842212
 51
49.84938779
  0
ARC
  8
LAYER_2
 10
-21.0682
 20
266.1912
 40
0.0754
 50
230.1826544
 51
319.6585777
  0
ARC
  8
LAYER_2
 10
-21.9112
 20
266.8979
 40
0.0747
 50
140.0870929
 51
230.3213699
  0
LINE
  8
LAYER_2
 10
-22.3805
 20
229.5059
 11
-27.2836
 21
229.5059
  0
LINE
  8
LAYER_2
 10
-22.3881
 20
229.0494
 11
-27.276
 21
229.0494
  0
LINE
  8
LAYER_2
 10
-19.4667
 20
177.8586
 11
-19.4278
 21
177.8572
  0
LINE
  8
LAYER_2
 10
-19.4278
 20
177.8572
 11
-19.3888
 21
177.8517
  0
LINE
  8
LAYER_2
 10
-19.3888
 20
177.8517
 11
-19.3506
 21
177.8427
  0
LINE
  8
LAYER_2
 10
-19.3506
 20
177.8427
 11
-19.3124
 21
177.8296
  0
LINE
  8
LAYER_2
 10
-19.3124
 20
177.8296
 11
-19.2751
 21
177.8131
  0
LINE
  8
LAYER_2
 10
-19.2751
 20
177.8131
 11
-19.2386
 21
177.7931
  0
LINE
  8
LAYER_2
 10
-19.2386
 20
177.7931
 11
-19.2035
 21
177.769
  0
LINE
  8
LAYER_2
 10
-19.2035
 20
177.769
 11
-19.1701
 21
177.7421
  0
LINE
  8
LAYER_2
 10
-19.1701
 20
177.7421
 11
-19.138
 21
177.7118
  0
LINE
  8
LAYER_2
 10
-19.138
 20
177.7118
 11
-19.1084
 21
177.678
  0
LINE
  8
LAYER_2
 10
-19.1084
 20
177.678
 11
-19.0808
 21
177.6415
  0
LINE
  8
LAYER_2
 10
-19.0808
 20
177.6415
 11
-19.0557
 21
177.6023
  0
LINE
  8
LAYER_2
 10
-19.0557
 20
177.6023
 11
-19.0333
 21
177.5609
  0
LINE
  8
LAYER_2
 10
-19.0333
 20
177.5609
 11
-19.0137
 21
177.5175
  0
LINE
  8
LAYER_2
 10
-19.0137
 20
177.5175
 11
-18.9968
 21
177.472
  0
LINE
  8
LAYER_2
 10
-18.9968
 20
177.472
 11
-18.983
 21
177.4252
  0
LINE
  8
LAYER_2
 10
-18.983
 20
177.4252
 11
-18.9723
 21
177.3776
  0
LINE
  8
LAYER_2
 10
-18.9723
 20
177.3776
 11
-18.9647
 21
177.3287
  0
LINE
  8
LAYER_2
 10
-18.9647
 20
177.3287
 11
-18.9603
 21
177.2798
  0
LINE
  8
LAYER_2
 10
-18.9603
 20
177.2798
 11
-18.9589
 21
177.2302
  0
LINE
  8
LAYER_2
 10
-18.9589
 20
177.2302
 11
-18.9606
 21
177.1806
  0
LINE
  8
LAYER_2
 10
-18.9606
 20
177.1806
 11
-18.9654
 21
177.1317
  0
LINE
  8
LAYER_2
 10
-18.9654
 20
177.1317
 11
-18.9737
 21
177.0834
  0
LINE
  8
LAYER_2
 10
-18.9737
 20
177.0834
 11
-18.9847
 21
177.0359
  0
LINE
  8
LAYER_2
 10
-18.9847
 20
177.0359
 11
-18.9988
 21
176.989
  0
LINE
  8
LAYER_2
 10
-18.9988
 20
176.989
 11
-19.0157
 21
176.9449
  0
LINE
  8
LAYER_2
 10
-19.0157
 20
176.9449
 11
-19.0357
 21
176.9015
  0
LINE
  8
LAYER_2
 10
-19.0357
 20
176.9015
 11
-19.0584
 21
176.8609
  0
LINE
  8
LAYER_2
 10
-19.0584
 20
176.8609
 11
-19.0836
 21
176.8223
  0
LINE
  8
LAYER_2
 10
-19.0836
 20
176.8223
 11
-19.1108
 21
176.7865
  0
LINE
  8
LAYER_2
 10
-19.1108
 20
176.7865
 11
-19.1404
 21
176.7534
  0
LINE
  8
LAYER_2
 10
-19.1404
 20
176.7534
 11
-19.1721
 21
176.7237
  0
LINE
  8
LAYER_2
 10
-19.1721
 20
176.7237
 11
-19.2052
 21
176.6969
  0
LINE
  8
LAYER_2
 10
-19.2052
 20
176.6969
 11
-19.2404
 21
176.6734
  0
LINE
  8
LAYER_2
 10
-19.2404
 20
176.6734
 11
-19.2762
 21
176.6542
  0
LINE
  8
LAYER_2
 10
-19.2762
 20
176.6542
 11
-19.313
 21
176.6376
  0
LINE
  8
LAYER_2
 10
-19.313
 20
176.6376
 11
-19.3509
 21
176.6252
  0
LINE
  8
LAYER_2
 10
-19.3509
 20
176.6252
 11
-19.3892
 21
176.6162
  0
LINE
  8
LAYER_2
 10
-19.3892
 20
176.6162
 11
-19.4278
 21
176.6107
  0
LINE
  8
LAYER_2
 10
-19.4278
 20
176.6107
 11
-19.4667
 21
176.6087
  0
LINE
  8
LAYER_2
 10
-27.5389
 20
206.1087
 11
-27.5379
 21
206.0853
  0
LINE
  8
LAYER_2
 10
-27.5379
 20
206.0853
 11
-27.5341
 21
206.0618
  0
LINE
  8
LAYER_2
 10
-27.5341
 20
206.0618
 11
-27.5282
 21
206.0388
  0
LINE
  8
LAYER_2
 10
-27.5282
 20
206.0388
 11
-27.5199
 21
206.016
  0
LINE
  8
LAYER_2
 10
-27.5199
 20
206.016
 11
-27.5093
 21
205.9943
  0
LINE
  8
LAYER_2
 10
-27.5093
 20
205.9943
 11
-27.4962
 21
205.9736
  0
LINE
  8
LAYER_2
 10
-27.4962
 20
205.9736
 11
-27.4814
 21
205.9543
  0
LINE
  8
LAYER_2
 10
-27.4814
 20
205.9543
 11
-27.4648
 21
205.9368
  0
LINE
  8
LAYER_2
 10
-27.4648
 20
205.9368
 11
-27.4462
 21
205.9209
  0
LINE
  8
LAYER_2
 10
-27.4462
 20
205.9209
 11
-27.4266
 21
205.9068
  0
LINE
  8
LAYER_2
 10
-27.4266
 20
205.9068
 11
-27.4056
 21
205.8951
  0
LINE
  8
LAYER_2
 10
-27.294
 20
209.8587
 11
-27.3174
 21
209.8573
  0
LINE
  8
LAYER_2
 10
-27.3174
 20
209.8573
 11
-27.3411
 21
209.8535
  0
LINE
  8
LAYER_2
 10
-27.3411
 20
209.8535
 11
-27.3645
 21
209.8477
  0
LINE
  8
LAYER_2
 10
-27.3645
 20
209.8477
 11
-27.3873
 21
209.8394
  0
LINE
  8
LAYER_2
 10
-27.3873
 20
209.8394
 11
-27.4094
 21
209.829
  0
LINE
  8
LAYER_2
 10
-27.4094
 20
209.829
 11
-27.4304
 21
209.8167
  0
LINE
  8
LAYER_2
 10
-27.4304
 20
209.8167
 11
-27.4497
 21
209.8025
  0
LINE
  8
LAYER_2
 10
-27.4497
 20
209.8025
 11
-27.4676
 21
209.7863
  0
LINE
  8
LAYER_2
 10
-27.4676
 20
209.7863
 11
-27.4838
 21
209.7691
  0
LINE
  8
LAYER_2
 10
-27.4838
 20
209.7691
 11
-27.4979
 21
209.7498
  0
LINE
  8
LAYER_2
 10
-27.4979
 20
209.7498
 11
-27.5103
 21
209.7295
  0
LINE
  8
LAYER_2
 10
-27.5103
 20
209.7295
 11
-27.5206
 21
209.7081
  0
LINE
  8
LAYER_2
 10
-27.5206
 20
209.7081
 11
-27.5289
 21
209.6857
  0
LINE
  8
LAYER_2
 10
-27.5289
 20
209.6857
 11
-27.5344
 21
209.663
  0
LINE
  8
LAYER_2
 10
-27.5344
 20
209.663
 11
-27.5379
 21
209.6403
  0
LINE
  8
LAYER_2
 10
-27.5379
 20
209.6403
 11
-27.5389
 21
209.6172
  0
LINE
  8
LAYER_2
 10
-28.0195
 20
198.0913
 11
-28.0195
 21
198.0744
  0
LINE
  8
LAYER_2
 10
-28.0195
 20
198.0744
 11
-28.0191
 21
198.0582
  0
LINE
  8
LAYER_2
 10
-28.0191
 20
198.0582
 11
-28.0188
 21
198.0434
  0
LINE
  8
LAYER_2
 10
-28.0188
 20
198.0434
 11
-28.0181
 21
198.0293
  0
LINE
  8
LAYER_2
 10
-28.0181
 20
198.0293
 11
-28.0171
 21
198.0158
  0
LINE
  8
LAYER_2
 10
-28.0171
 20
198.0158
 11
-28.0164
 21
198.0034
  0
LINE
  8
LAYER_2
 10
-28.0164
 20
198.0034
 11
-28.015
 21
197.992
  0
LINE
  8
LAYER_2
 10
-28.015
 20
197.992
 11
-28.014
 21
197.9821
  0
LINE
  8
LAYER_2
 10
-28.014
 20
197.9821
 11
-28.0126
 21
197.9727
  0
LINE
  8
LAYER_2
 10
-28.0126
 20
197.9727
 11
-28.0112
 21
197.9641
  0
LINE
  8
LAYER_2
 10
-28.0112
 20
197.9641
 11
-28.0098
 21
197.9562
  0
LINE
  8
LAYER_2
 10
-28.0098
 20
197.9562
 11
-28.0084
 21
197.9483
  0
LINE
  8
LAYER_2
 10
-28.0084
 20
197.9483
 11
-28.0067
 21
197.9407
  0
LINE
  8
LAYER_2
 10
-28.0067
 20
197.9407
 11
-28.0047
 21
197.9331
  0
LINE
  8
LAYER_2
 10
-28.0047
 20
197.9331
 11
-28.0026
 21
197.9252
  0
LINE
  8
LAYER_2
 10
-28.0026
 20
197.9252
 11
-27.9998
 21
197.9173
  0
LINE
  8
LAYER_2
 10
-27.9998
 20
197.9173
 11
-27.9971
 21
197.9097
  0
LINE
  8
LAYER_2
 10
-27.9971
 20
197.9097
 11
-27.994
 21
197.9025
  0
LINE
  8
LAYER_2
 10
-27.994
 20
197.9025
 11
-27.9906
 21
197.8952
  0
LINE
  8
LAYER_2
 10
-27.9906
 20
197.8952
 11
-27.9867
 21
197.889
  0
LINE
  8
LAYER_2
 10
-27.9867
 20
197.889
 11
-27.9826
 21
197.8828
  0
LINE
  8
LAYER_2
 10
-27.9826
 20
197.8828
 11
-27.9781
 21
197.8773
  0
LINE
  8
LAYER_2
 10
-27.9781
 20
197.8773
 11
-27.9733
 21
197.8725
  0
LINE
  8
LAYER_2
 10
-27.9733
 20
197.8725
 11
-27.9678
 21
197.868
  0
LINE
  8
LAYER_2
 10
-27.9678
 20
197.868
 11
-27.9623
 21
197.8639
  0
LINE
  8
LAYER_2
 10
-27.9623
 20
197.8639
 11
-27.9557
 21
197.8608
  0
LINE
  8
LAYER_2
 10
-27.9557
 20
197.8608
 11
-27.9489
 21
197.8584
  0
LINE
  8
LAYER_2
 10
-27.9489
 20
197.8584
 11
-27.9413
 21
197.8563
  0
LINE
  8
LAYER_2
 10
-27.9413
 20
197.8563
 11
-27.9334
 21
197.8556
  0
LINE
  8
LAYER_2
 10
-27.9334
 20
197.8556
 11
-27.9241
 21
197.8553
  0
LINE
  8
LAYER_2
 10
-27.9241
 20
197.8553
 11
-27.9141
 21
197.8563
  0
LINE
  8
LAYER_2
 10
-27.9141
 20
197.8563
 11
-27.9027
 21
197.8584
  0
LINE
  8
LAYER_2
 10
-27.9027
 20
197.8584
 11
-27.8903
 21
197.8615
  0
LINE
  8
LAYER_2
 10
-27.8903
 20
197.8615
 11
-27.8765
 21
197.866
  0
LINE
  8
LAYER_2
 10
-27.8765
 20
197.866
 11
-27.861
 21
197.8725
  0
LINE
  8
LAYER_2
 10
-27.861
 20
197.8725
 11
-27.8434
 21
197.8804
  0
LINE
  8
LAYER_2
 10
-27.8434
 20
197.8804
 11
-27.8238
 21
197.8904
  0
LINE
  8
LAYER_2
 10
-27.8238
 20
197.8904
 11
-27.8014
 21
197.9028
  0
LINE
  8
LAYER_2
 10
-27.8014
 20
197.9028
 11
-27.7759
 21
197.918
  0
LINE
  8
LAYER_2
 10
-27.7759
 20
197.918
 11
-27.747
 21
197.9362
  0
LINE
  8
LAYER_2
 10
-27.747
 20
197.9362
 11
-27.7136
 21
197.9583
  0
LINE
  8
LAYER_2
 10
-27.7136
 20
197.9583
 11
-27.6743
 21
197.9848
  0
LINE
  8
LAYER_2
 10
-27.6743
 20
197.9848
 11
-27.6278
 21
198.0168
  0
LINE
  8
LAYER_2
 10
-27.6278
 20
198.0168
 11
-27.5713
 21
198.0568
  0
LINE
  8
LAYER_2
 10
-27.5713
 20
198.0568
 11
-27.5069
 21
198.1026
  0
LINE
  8
LAYER_2
 10
-27.5069
 20
198.1026
 11
-27.4445
 21
198.1474
  0
LINE
  8
LAYER_2
 10
-27.4445
 20
198.1474
 11
-27.3852
 21
198.1908
  0
LINE
  8
LAYER_2
 10
-27.9141
 20
206.0119
 11
-27.912
 21
205.9647
  0
LINE
  8
LAYER_2
 10
-27.912
 20
205.9647
 11
-27.9061
 21
205.9175
  0
LINE
  8
LAYER_2
 10
-27.9061
 20
205.9175
 11
-27.8968
 21
205.871
  0
LINE
  8
LAYER_2
 10
-27.8968
 20
205.871
 11
-27.8834
 21
205.8255
  0
LINE
  8
LAYER_2
 10
-27.8834
 20
205.8255
 11
-27.8665
 21
205.7811
  0
LINE
  8
LAYER_2
 10
-27.8665
 20
205.7811
 11
-27.8458
 21
205.7383
  0
LINE
  8
LAYER_2
 10
-27.8458
 20
205.7383
 11
-27.8221
 21
205.697
  0
LINE
  8
LAYER_2
 10
-27.8221
 20
205.697
 11
-27.7945
 21
205.6574
  0
LINE
  8
LAYER_2
 10
-27.7945
 20
205.6574
 11
-27.7642
 21
205.6202
  0
LINE
  8
LAYER_2
 10
-27.7642
 20
205.6202
 11
-27.7308
 21
205.5854
  0
LINE
  8
LAYER_2
 10
-27.7308
 20
205.5854
 11
-27.695
 21
205.5533
  0
LINE
  8
LAYER_2
 10
-27.695
 20
205.5533
 11
-27.6564
 21
205.5241
  0
LINE
  8
LAYER_2
 10
-27.6564
 20
205.5241
 11
-27.6154
 21
205.4979
  0
LINE
  8
LAYER_2
 10
-27.6154
 20
205.4979
 11
-27.5727
 21
205.4745
  0
LINE
  8
LAYER_2
 10
-27.5727
 20
205.4745
 11
-27.5282
 21
205.4545
  0
LINE
  8
LAYER_2
 10
-27.5282
 20
205.4545
 11
-27.4821
 21
205.4383
  0
LINE
  8
LAYER_2
 10
-27.4821
 20
205.4383
 11
-27.4349
 21
205.4252
  0
LINE
  8
LAYER_2
 10
-27.4349
 20
205.4252
 11
-27.387
 21
205.4162
  0
LINE
  8
LAYER_2
 10
-27.387
 20
205.4162
 11
-27.3381
 21
205.4104
  0
LINE
  8
LAYER_2
 10
-27.3381
 20
205.4104
 11
-27.2891
 21
205.4086
  0
LINE
  8
LAYER_2
 10
-28.7299
 20
202.2092
 11
-28.7433
 21
201.5078
  0
LINE
  8
LAYER_2
 10
-28.7433
 20
201.5078
 11
-28.7688
 21
200.7206
  0
LINE
  8
LAYER_2
 10
-28.7688
 20
200.7206
 11
-28.8005
 21
199.8465
  0
LINE
  8
LAYER_2
 10
-28.8005
 20
199.8465
 11
-28.8298
 21
198.9281
  0
LINE
  8
LAYER_2
 10
-28.8298
 20
198.9281
 11
-28.8456
 21
198.0951
  0
LINE
  8
LAYER_2
 10
-22.4109
 20
205.4086
 11
-22.3619
 21
205.4104
  0
LINE
  8
LAYER_2
 10
-22.3619
 20
205.4104
 11
-22.313
 21
205.4162
  0
LINE
  8
LAYER_2
 10
-22.313
 20
205.4162
 11
-22.2651
 21
205.4252
  0
LINE
  8
LAYER_2
 10
-22.2651
 20
205.4252
 11
-22.2179
 21
205.4383
  0
LINE
  8
LAYER_2
 10
-22.2179
 20
205.4383
 11
-22.1718
 21
205.4545
  0
LINE
  8
LAYER_2
 10
-22.1718
 20
205.4545
 11
-22.1273
 21
205.4745
  0
LINE
  8
LAYER_2
 10
-22.1273
 20
205.4745
 11
-22.0846
 21
205.4979
  0
LINE
  8
LAYER_2
 10
-22.0846
 20
205.4979
 11
-22.0436
 21
205.5241
  0
LINE
  8
LAYER_2
 10
-22.0436
 20
205.5241
 11
-22.005
 21
205.5533
  0
LINE
  8
LAYER_2
 10
-22.005
 20
205.5533
 11
-21.9688
 21
205.5854
  0
LINE
  8
LAYER_2
 10
-21.9688
 20
205.5854
 11
-21.9358
 21
205.6202
  0
LINE
  8
LAYER_2
 10
-21.9358
 20
205.6202
 11
-21.9055
 21
205.6574
  0
LINE
  8
LAYER_2
 10
-21.9055
 20
205.6574
 11
-21.8779
 21
205.697
  0
LINE
  8
LAYER_2
 10
-21.8779
 20
205.697
 11
-21.8541
 21
205.7383
  0
LINE
  8
LAYER_2
 10
-21.8541
 20
205.7383
 11
-21.8335
 21
205.7811
  0
LINE
  8
LAYER_2
 10
-21.8335
 20
205.7811
 11
-21.8166
 21
205.8255
  0
LINE
  8
LAYER_2
 10
-21.8166
 20
205.8255
 11
-21.8031
 21
205.871
  0
LINE
  8
LAYER_2
 10
-21.8031
 20
205.871
 11
-21.7938
 21
205.9175
  0
LINE
  8
LAYER_2
 10
-21.7938
 20
205.9175
 11
-21.788
 21
205.9647
  0
LINE
  8
LAYER_2
 10
-21.788
 20
205.9647
 11
-21.7859
 21
206.0119
  0
LINE
  8
LAYER_2
 10
-22.3147
 20
198.1943
 11
-22.2551
 21
198.1505
  0
LINE
  8
LAYER_2
 10
-22.2551
 20
198.1505
 11
-22.1928
 21
198.1054
  0
LINE
  8
LAYER_2
 10
-22.1928
 20
198.1054
 11
-22.1273
 21
198.0589
  0
LINE
  8
LAYER_2
 10
-22.1273
 20
198.0589
 11
-22.0695
 21
198.0182
  0
LINE
  8
LAYER_2
 10
-22.0695
 20
198.0182
 11
-22.0226
 21
197.9858
  0
LINE
  8
LAYER_2
 10
-22.0226
 20
197.9858
 11
-21.9833
 21
197.9593
  0
LINE
  8
LAYER_2
 10
-21.9833
 20
197.9593
 11
-21.9499
 21
197.9376
  0
LINE
  8
LAYER_2
 10
-21.9499
 20
197.9376
 11
-21.9213
 21
197.9197
  0
LINE
  8
LAYER_2
 10
-21.9213
 20
197.9197
 11
-21.8962
 21
197.9049
  0
LINE
  8
LAYER_2
 10
-21.8962
 20
197.9049
 11
-21.8741
 21
197.8928
  0
LINE
  8
LAYER_2
 10
-21.8741
 20
197.8928
 11
-21.8545
 21
197.8828
  0
LINE
  8
LAYER_2
 10
-21.8545
 20
197.8828
 11
-21.8373
 21
197.8749
  0
LINE
  8
LAYER_2
 10
-21.8373
 20
197.8749
 11
-21.8217
 21
197.8691
  0
LINE
  8
LAYER_2
 10
-21.8217
 20
197.8691
 11
-21.8083
 21
197.8646
  0
LINE
  8
LAYER_2
 10
-21.8083
 20
197.8646
 11
-21.7959
 21
197.8611
  0
LINE
  8
LAYER_2
 10
-21.7959
 20
197.8611
 11
-21.7849
 21
197.8594
  0
LINE
  8
LAYER_2
 10
-21.7849
 20
197.8594
 11
-21.7749
 21
197.8587
  0
LINE
  8
LAYER_2
 10
-21.7749
 20
197.8587
 11
-21.7659
 21
197.8587
  0
LINE
  8
LAYER_2
 10
-21.7659
 20
197.8587
 11
-21.7577
 21
197.8598
  0
LINE
  8
LAYER_2
 10
-21.7577
 20
197.8598
 11
-21.7501
 21
197.8618
  0
LINE
  8
LAYER_2
 10
-21.7501
 20
197.8618
 11
-21.7436
 21
197.8642
  0
LINE
  8
LAYER_2
 10
-21.7436
 20
197.8642
 11
-21.7374
 21
197.8673
  0
LINE
  8
LAYER_2
 10
-21.7374
 20
197.8673
 11
-21.7315
 21
197.8715
  0
LINE
  8
LAYER_2
 10
-21.7315
 20
197.8715
 11
-21.7263
 21
197.8759
  0
LINE
  8
LAYER_2
 10
-21.7263
 20
197.8759
 11
-21.7215
 21
197.8808
  0
LINE
  8
LAYER_2
 10
-21.7215
 20
197.8808
 11
-21.717
 21
197.8863
  0
LINE
  8
LAYER_2
 10
-21.717
 20
197.8863
 11
-21.7129
 21
197.8925
  0
LINE
  8
LAYER_2
 10
-21.7129
 20
197.8925
 11
-21.7095
 21
197.8987
  0
LINE
  8
LAYER_2
 10
-21.7095
 20
197.8987
 11
-21.706
 21
197.9056
  0
LINE
  8
LAYER_2
 10
-21.706
 20
197.9056
 11
-21.7029
 21
197.9132
  0
LINE
  8
LAYER_2
 10
-21.7029
 20
197.9132
 11
-21.6998
 21
197.9207
  0
LINE
  8
LAYER_2
 10
-21.6998
 20
197.9207
 11
-21.6974
 21
197.9283
  0
LINE
  8
LAYER_2
 10
-21.6974
 20
197.9283
 11
-21.6953
 21
197.9362
  0
LINE
  8
LAYER_2
 10
-21.6953
 20
197.9362
 11
-21.6933
 21
197.9438
  0
LINE
  8
LAYER_2
 10
-21.6933
 20
197.9438
 11
-21.6915
 21
197.9514
  0
LINE
  8
LAYER_2
 10
-21.6915
 20
197.9514
 11
-21.6902
 21
197.9593
  0
LINE
  8
LAYER_2
 10
-21.6902
 20
197.9593
 11
-21.6888
 21
197.9672
  0
LINE
  8
LAYER_2
 10
-21.6888
 20
197.9672
 11
-21.6874
 21
197.9758
  0
LINE
  8
LAYER_2
 10
-21.6874
 20
197.9758
 11
-21.686
 21
197.9848
  0
LINE
  8
LAYER_2
 10
-21.686
 20
197.9848
 11
-21.685
 21
197.9951
  0
LINE
  8
LAYER_2
 10
-21.685
 20
197.9951
 11
-21.6836
 21
198.0065
  0
LINE
  8
LAYER_2
 10
-21.6836
 20
198.0065
 11
-21.6829
 21
198.0189
  0
LINE
  8
LAYER_2
 10
-21.6829
 20
198.0189
 11
-21.6819
 21
198.032
  0
LINE
  8
LAYER_2
 10
-21.6819
 20
198.032
 11
-21.6812
 21
198.0461
  0
LINE
  8
LAYER_2
 10
-21.6812
 20
198.0461
 11
-21.6808
 21
198.0613
  0
LINE
  8
LAYER_2
 10
-21.6808
 20
198.0613
 11
-21.6805
 21
198.0771
  0
LINE
  8
LAYER_2
 10
-21.6805
 20
198.0771
 11
-21.6805
 21
198.094
  0
LINE
  8
LAYER_2
 10
-27.5389
 20
209.6172
 11
-27.5716
 21
209.6172
  0
LINE
  8
LAYER_2
 10
-27.5716
 20
209.6172
 11
-27.604
 21
209.6158
  0
LINE
  8
LAYER_2
 10
-27.604
 20
209.6158
 11
-27.6357
 21
209.6141
  0
LINE
  8
LAYER_2
 10
-27.6357
 20
209.6141
 11
-27.6671
 21
209.6117
  0
LINE
  8
LAYER_2
 10
-27.6671
 20
209.6117
 11
-27.697
 21
209.6082
  0
LINE
  8
LAYER_2
 10
-27.697
 20
209.6082
 11
-27.7263
 21
209.6044
  0
LINE
  8
LAYER_2
 10
-27.7263
 20
209.6044
 11
-27.7535
 21
209.5999
  0
LINE
  8
LAYER_2
 10
-27.7535
 20
209.5999
 11
-27.7797
 21
209.5948
  0
LINE
  8
LAYER_2
 10
-27.7797
 20
209.5948
 11
-27.8038
 21
209.5893
  0
LINE
  8
LAYER_2
 10
-27.8038
 20
209.5893
 11
-27.8259
 21
209.5827
  0
LINE
  8
LAYER_2
 10
-27.8259
 20
209.5827
 11
-27.8458
 21
209.5762
  0
LINE
  8
LAYER_2
 10
-27.8458
 20
209.5762
 11
-27.8634
 21
209.5689
  0
LINE
  8
LAYER_2
 10
-27.8634
 20
209.5689
 11
-27.8786
 21
209.5617
  0
LINE
  8
LAYER_2
 10
-27.8786
 20
209.5617
 11
-27.891
 21
209.5538
  0
LINE
  8
LAYER_2
 10
-27.891
 20
209.5538
 11
-27.901
 21
209.5459
  0
LINE
  8
LAYER_2
 10
-27.901
 20
209.5459
 11
-27.9082
 21
209.5376
  0
LINE
  8
LAYER_2
 10
-27.9082
 20
209.5376
 11
-27.9106
 21
209.5334
  0
LINE
  8
LAYER_2
 10
-22.1611
 20
206.1087
 11
-22.1284
 21
206.1083
  0
LINE
  8
LAYER_2
 10
-22.1284
 20
206.1083
 11
-22.096
 21
206.1073
  0
LINE
  8
LAYER_2
 10
-22.096
 20
206.1073
 11
-22.0643
 21
206.1053
  0
LINE
  8
LAYER_2
 10
-22.0643
 20
206.1053
 11
-22.0329
 21
206.1028
  0
LINE
  8
LAYER_2
 10
-22.0329
 20
206.1028
 11
-22.003
 21
206.0997
  0
LINE
  8
LAYER_2
 10
-22.003
 20
206.0997
 11
-21.9737
 21
206.0956
  0
LINE
  8
LAYER_2
 10
-21.9737
 20
206.0956
 11
-21.9464
 21
206.0911
  0
LINE
  8
LAYER_2
 10
-21.9464
 20
206.0911
 11
-21.9203
 21
206.086
  0
LINE
  8
LAYER_2
 10
-21.9203
 20
206.086
 11
-21.8962
 21
206.0804
  0
LINE
  8
LAYER_2
 10
-21.8962
 20
206.0804
 11
-21.8741
 21
206.0743
  0
LINE
  8
LAYER_2
 10
-21.8741
 20
206.0743
 11
-21.8541
 21
206.0673
  0
LINE
  8
LAYER_2
 10
-21.8541
 20
206.0673
 11
-21.8366
 21
206.0605
  0
LINE
  8
LAYER_2
 10
-21.8366
 20
206.0605
 11
-21.8214
 21
206.0529
  0
LINE
  8
LAYER_2
 10
-21.8214
 20
206.0529
 11
-21.809
 21
206.045
  0
LINE
  8
LAYER_2
 10
-21.809
 20
206.045
 11
-21.799
 21
206.037
  0
LINE
  8
LAYER_2
 10
-21.799
 20
206.037
 11
-21.7918
 21
206.0288
  0
LINE
  8
LAYER_2
 10
-21.7918
 20
206.0288
 11
-21.7877
 21
206.0205
  0
LINE
  8
LAYER_2
 10
-21.7877
 20
206.0205
 11
-21.7859
 21
206.0119
  0
LINE
  8
LAYER_2
 10
-26.4895
 20
217.463
 11
-26.4416
 21
217.4617
  0
LINE
  8
LAYER_2
 10
-26.4416
 20
217.4617
 11
-26.3941
 21
217.4596
  0
LINE
  8
LAYER_2
 10
-26.3941
 20
217.4596
 11
-26.3479
 21
217.4575
  0
LINE
  8
LAYER_2
 10
-26.3479
 20
217.4575
 11
-26.3024
 21
217.4548
  0
LINE
  8
LAYER_2
 10
-26.3024
 20
217.4548
 11
-26.258
 21
217.452
  0
LINE
  8
LAYER_2
 10
-26.258
 20
217.452
 11
-26.2139
 21
217.4482
  0
LINE
  8
LAYER_2
 10
-26.2139
 20
217.4482
 11
-26.1705
 21
217.4441
  0
LINE
  8
LAYER_2
 10
-26.1705
 20
217.4441
 11
-26.1305
 21
217.4389
  0
LINE
  8
LAYER_2
 10
-26.1305
 20
217.4389
 11
-26.0957
 21
217.4338
  0
LINE
  8
LAYER_2
 10
-26.0957
 20
217.4338
 11
-26.0651
 21
217.4286
  0
LINE
  8
LAYER_2
 10
-26.0651
 20
217.4286
 11
-26.0368
 21
217.4234
  0
LINE
  8
LAYER_2
 10
-26.0368
 20
217.4234
 11
-26.0093
 21
217.4176
  0
LINE
  8
LAYER_2
 10
-26.0093
 20
217.4176
 11
-25.9828
 21
217.412
  0
LINE
  8
LAYER_2
 10
-25.9828
 20
217.412
 11
-25.9586
 21
217.4069
  0
LINE
  8
LAYER_2
 10
-25.9586
 20
217.4069
 11
-25.9376
 21
217.4028
  0
LINE
  8
LAYER_2
 10
-25.9376
 20
217.4028
 11
-25.9187
 21
217.399
  0
LINE
  8
LAYER_2
 10
-25.9187
 20
217.399
 11
-25.9018
 21
217.3962
  0
LINE
  8
LAYER_2
 10
-25.9018
 20
217.3962
 11
-25.8863
 21
217.3941
  0
LINE
  8
LAYER_2
 10
-25.8863
 20
217.3941
 11
-25.8722
 21
217.3924
  0
LINE
  8
LAYER_2
 10
-25.8722
 20
217.3924
 11
-25.8591
 21
217.391
  0
LINE
  8
LAYER_2
 10
-25.8591
 20
217.391
 11
-25.8474
 21
217.39
  0
LINE
  8
LAYER_2
 10
-25.8474
 20
217.39
 11
-25.8363
 21
217.3893
  0
LINE
  8
LAYER_2
 10
-25.8363
 20
217.3893
 11
-25.826
 21
217.3886
  0
LINE
  8
LAYER_2
 10
-25.826
 20
217.3886
 11
-25.8167
 21
217.3883
  0
LINE
  8
LAYER_2
 10
-25.8167
 20
217.3883
 11
-25.8077
 21
217.3883
  0
LINE
  8
LAYER_2
 10
-25.8077
 20
217.3883
 11
-25.8002
 21
217.3883
  0
LINE
  8
LAYER_2
 10
-22.3368
 20
205.8782
 11
-22.2104
 21
205.8782
  0
LINE
  8
LAYER_2
 10
-23.8974
 20
217.3883
 11
-23.8495
 21
217.39
  0
LINE
  8
LAYER_2
 10
-23.8495
 20
217.39
 11
-23.8061
 21
217.3952
  0
LINE
  8
LAYER_2
 10
-23.8061
 20
217.3952
 11
-23.7682
 21
217.4014
  0
LINE
  8
LAYER_2
 10
-23.7682
 20
217.4014
 11
-23.7352
 21
217.4083
  0
LINE
  8
LAYER_2
 10
-23.7352
 20
217.4083
 11
-23.7055
 21
217.4145
  0
LINE
  8
LAYER_2
 10
-23.7055
 20
217.4145
 11
-23.6783
 21
217.4203
  0
LINE
  8
LAYER_2
 10
-23.6783
 20
217.4203
 11
-23.6521
 21
217.4255
  0
LINE
  8
LAYER_2
 10
-23.6521
 20
217.4255
 11
-23.6249
 21
217.4303
  0
LINE
  8
LAYER_2
 10
-23.6249
 20
217.4303
 11
-23.596
 21
217.4351
  0
LINE
  8
LAYER_2
 10
-23.596
 20
217.4351
 11
-23.5636
 21
217.4399
  0
LINE
  8
LAYER_2
 10
-23.5636
 20
217.4399
 11
-23.5267
 21
217.4441
  0
LINE
  8
LAYER_2
 10
-23.5267
 20
217.4441
 11
-23.4851
 21
217.4485
  0
LINE
  8
LAYER_2
 10
-23.4851
 20
217.4485
 11
-23.4413
 21
217.452
  0
LINE
  8
LAYER_2
 10
-23.4413
 20
217.452
 11
-23.3969
 21
217.4551
  0
LINE
  8
LAYER_2
 10
-23.3969
 20
217.4551
 11
-23.3517
 21
217.4575
  0
LINE
  8
LAYER_2
 10
-23.3517
 20
217.4575
 11
-23.3052
 21
217.4596
  0
LINE
  8
LAYER_2
 10
-23.3052
 20
217.4596
 11
-23.2584
 21
217.4617
  0
LINE
  8
LAYER_2
 10
-23.2584
 20
217.4617
 11
-23.2105
 21
217.463
  0
LINE
  8
LAYER_2
 10
-22.2104
 20
205.8782
 11
-22.2104
 21
205.9647
  0
LINE
  8
LAYER_2
 10
-23.287
 20
219.3882
 11
-23.2777
 21
219.3868
  0
LINE
  8
LAYER_2
 10
-23.2777
 20
219.3868
 11
-23.2683
 21
219.383
  0
LINE
  8
LAYER_2
 10
-23.2683
 20
219.383
 11
-23.2591
 21
219.3768
  0
LINE
  8
LAYER_2
 10
-23.2591
 20
219.3768
 11
-23.2504
 21
219.3678
  0
LINE
  8
LAYER_2
 10
-23.2504
 20
219.3678
 11
-23.2418
 21
219.3568
  0
LINE
  8
LAYER_2
 10
-23.2418
 20
219.3568
 11
-23.2336
 21
219.343
  0
LINE
  8
LAYER_2
 10
-23.2336
 20
219.343
 11
-23.226
 21
219.3275
  0
LINE
  8
LAYER_2
 10
-23.226
 20
219.3275
 11
-23.2187
 21
219.31
  0
LINE
  8
LAYER_2
 10
-23.2187
 20
219.31
 11
-23.2122
 21
219.2903
  0
LINE
  8
LAYER_2
 10
-23.2122
 20
219.2903
 11
-23.206
 21
219.269
  0
LINE
  8
LAYER_2
 10
-23.206
 20
219.269
 11
-23.2008
 21
219.2462
  0
LINE
  8
LAYER_2
 10
-23.2008
 20
219.2462
 11
-23.1963
 21
219.2218
  0
LINE
  8
LAYER_2
 10
-23.1963
 20
219.2218
 11
-23.1926
 21
219.1966
  0
LINE
  8
LAYER_2
 10
-23.1926
 20
219.1966
 11
-23.1895
 21
219.1701
  0
LINE
  8
LAYER_2
 10
-23.1895
 20
219.1701
 11
-23.1874
 21
219.1432
  0
LINE
  8
LAYER_2
 10
-23.1874
 20
219.1432
 11
-23.186
 21
219.116
  0
LINE
  8
LAYER_2
 10
-23.186
 20
219.116
 11
-23.1856
 21
219.0881
  0
LINE
  8
LAYER_2
 10
-26.413
 20
219.3882
 11
-26.4223
 21
219.3868
  0
LINE
  8
LAYER_2
 10
-26.4223
 20
219.3868
 11
-26.4316
 21
219.383
  0
LINE
  8
LAYER_2
 10
-26.4316
 20
219.383
 11
-26.4409
 21
219.3768
  0
LINE
  8
LAYER_2
 10
-26.4409
 20
219.3768
 11
-26.4495
 21
219.3678
  0
LINE
  8
LAYER_2
 10
-26.4495
 20
219.3678
 11
-26.4582
 21
219.3568
  0
LINE
  8
LAYER_2
 10
-26.4582
 20
219.3568
 11
-26.4664
 21
219.343
  0
LINE
  8
LAYER_2
 10
-26.4664
 20
219.343
 11
-26.474
 21
219.3275
  0
LINE
  8
LAYER_2
 10
-26.474
 20
219.3275
 11
-26.4812
 21
219.31
  0
LINE
  8
LAYER_2
 10
-26.4812
 20
219.31
 11
-26.4878
 21
219.2903
  0
LINE
  8
LAYER_2
 10
-26.4878
 20
219.2903
 11
-26.494
 21
219.269
  0
LINE
  8
LAYER_2
 10
-26.494
 20
219.269
 11
-26.4991
 21
219.2462
  0
LINE
  8
LAYER_2
 10
-26.4991
 20
219.2462
 11
-26.5036
 21
219.2218
  0
LINE
  8
LAYER_2
 10
-26.5036
 20
219.2218
 11
-26.5074
 21
219.1966
  0
LINE
  8
LAYER_2
 10
-26.5074
 20
219.1966
 11
-26.5105
 21
219.1701
  0
LINE
  8
LAYER_2
 10
-26.5105
 20
219.1701
 11
-26.5126
 21
219.1432
  0
LINE
  8
LAYER_2
 10
-26.5126
 20
219.1432
 11
-26.5136
 21
219.116
  0
LINE
  8
LAYER_2
 10
-26.5136
 20
219.116
 11
-26.5143
 21
219.0881
  0
LINE
  8
LAYER_2
 10
-27.4056
 20
205.8951
 11
-27.4056
 21
205.8782
  0
LINE
  8
LAYER_2
 10
-27.4056
 20
205.8782
 11
-27.3632
 21
205.8782
  0
LINE
  8
LAYER_2
 10
-27.5389
 20
206.1087
 11
-27.5716
 21
206.1083
  0
LINE
  8
LAYER_2
 10
-27.5716
 20
206.1083
 11
-27.604
 21
206.1073
  0
LINE
  8
LAYER_2
 10
-27.604
 20
206.1073
 11
-27.6357
 21
206.1053
  0
LINE
  8
LAYER_2
 10
-27.6357
 20
206.1053
 11
-27.6671
 21
206.1028
  0
LINE
  8
LAYER_2
 10
-27.6671
 20
206.1028
 11
-27.697
 21
206.0997
  0
LINE
  8
LAYER_2
 10
-27.697
 20
206.0997
 11
-27.7263
 21
206.0956
  0
LINE
  8
LAYER_2
 10
-27.7263
 20
206.0956
 11
-27.7535
 21
206.0911
  0
LINE
  8
LAYER_2
 10
-27.7535
 20
206.0911
 11
-27.7797
 21
206.086
  0
LINE
  8
LAYER_2
 10
-27.7797
 20
206.086
 11
-27.8038
 21
206.0804
  0
LINE
  8
LAYER_2
 10
-27.8038
 20
206.0804
 11
-27.8259
 21
206.0743
  0
LINE
  8
LAYER_2
 10
-27.8259
 20
206.0743
 11
-27.8458
 21
206.0673
  0
LINE
  8
LAYER_2
 10
-27.8458
 20
206.0673
 11
-27.8634
 21
206.0605
  0
LINE
  8
LAYER_2
 10
-27.8634
 20
206.0605
 11
-27.8786
 21
206.0529
  0
LINE
  8
LAYER_2
 10
-27.8786
 20
206.0529
 11
-27.891
 21
206.045
  0
LINE
  8
LAYER_2
 10
-27.891
 20
206.045
 11
-27.901
 21
206.037
  0
LINE
  8
LAYER_2
 10
-27.901
 20
206.037
 11
-27.9082
 21
206.0288
  0
LINE
  8
LAYER_2
 10
-27.9082
 20
206.0288
 11
-27.9123
 21
206.0205
  0
LINE
  8
LAYER_2
 10
-27.9123
 20
206.0205
 11
-27.9141
 21
206.0119
  0
LINE
  8
LAYER_2
 10
-20.8513
 20
198.0982
 11
-20.9698
 21
198.0913
  0
LINE
  8
LAYER_2
 10
-20.9698
 20
198.0913
 11
-21.08
 21
198.0854
  0
LINE
  8
LAYER_2
 10
-21.08
 20
198.0854
 11
-21.1813
 21
198.0809
  0
LINE
  8
LAYER_2
 10
-21.1813
 20
198.0809
 11
-21.2743
 21
198.0771
  0
LINE
  8
LAYER_2
 10
-21.2743
 20
198.0771
 11
-21.3577
 21
198.0747
  0
LINE
  8
LAYER_2
 10
-21.3577
 20
198.0747
 11
-21.4321
 21
198.0734
  0
LINE
  8
LAYER_2
 10
-21.4321
 20
198.0734
 11
-21.4969
 21
198.073
  0
LINE
  8
LAYER_2
 10
-21.4969
 20
198.073
 11
-21.552
 21
198.0737
  0
LINE
  8
LAYER_2
 10
-21.552
 20
198.0737
 11
-21.5978
 21
198.0758
  0
LINE
  8
LAYER_2
 10
-21.5978
 20
198.0758
 11
-21.6333
 21
198.0785
  0
LINE
  8
LAYER_2
 10
-21.6333
 20
198.0785
 11
-21.6591
 21
198.0826
  0
LINE
  8
LAYER_2
 10
-21.6591
 20
198.0826
 11
-21.675
 21
198.0878
  0
LINE
  8
LAYER_2
 10
-21.675
 20
198.0878
 11
-21.6805
 21
198.094
  0
LINE
  8
LAYER_2
 10
-23.5694
 20
193.5303
 11
-23.5602
 21
193.757
  0
LINE
  8
LAYER_2
 10
-23.5602
 20
193.757
 11
-23.5477
 21
193.9827
  0
LINE
  8
LAYER_2
 10
-23.5477
 20
193.9827
 11
-23.5319
 21
194.2076
  0
LINE
  8
LAYER_2
 10
-23.5319
 20
194.2076
 11
-23.513
 21
194.4309
  0
LINE
  8
LAYER_2
 10
-23.513
 20
194.4309
 11
-23.4913
 21
194.652
  0
LINE
  8
LAYER_2
 10
-23.4913
 20
194.652
 11
-23.4661
 21
194.8711
  0
LINE
  8
LAYER_2
 10
-23.4661
 20
194.8711
 11
-23.4382
 21
195.0868
  0
LINE
  8
LAYER_2
 10
-23.4382
 20
195.0868
 11
-23.4072
 21
195.2994
  0
LINE
  8
LAYER_2
 10
-23.4072
 20
195.2994
 11
-23.3731
 21
195.5078
  0
LINE
  8
LAYER_2
 10
-23.3731
 20
195.5078
 11
-23.3366
 21
195.7121
  0
LINE
  8
LAYER_2
 10
-23.3366
 20
195.7121
 11
-23.2973
 21
195.9115
  0
LINE
  8
LAYER_2
 10
-23.2973
 20
195.9115
 11
-23.2549
 21
196.1055
  0
LINE
  8
LAYER_2
 10
-23.2549
 20
196.1055
 11
-23.2105
 21
196.2939
  0
LINE
  8
LAYER_2
 10
-23.2105
 20
196.2939
 11
-23.1636
 21
196.4762
  0
LINE
  8
LAYER_2
 10
-23.1636
 20
196.4762
 11
-23.1144
 21
196.6519
  0
LINE
  8
LAYER_2
 10
-23.1144
 20
196.6519
 11
-23.0627
 21
196.8211
  0
LINE
  8
LAYER_2
 10
-23.0627
 20
196.8211
 11
-23.0089
 21
196.9826
  0
LINE
  8
LAYER_2
 10
-23.0089
 20
196.9826
 11
-22.9531
 21
197.137
  0
LINE
  8
LAYER_2
 10
-22.9531
 20
197.137
 11
-22.8956
 21
197.283
  0
LINE
  8
LAYER_2
 10
-22.8956
 20
197.283
 11
-22.8363
 21
197.4209
  0
LINE
  8
LAYER_2
 10
-22.8363
 20
197.4209
 11
-22.7754
 21
197.5504
  0
LINE
  8
LAYER_2
 10
-22.7754
 20
197.5504
 11
-22.713
 21
197.6706
  0
LINE
  8
LAYER_2
 10
-22.713
 20
197.6706
 11
-22.6493
 21
197.7819
  0
LINE
  8
LAYER_2
 10
-22.6493
 20
197.7819
 11
-22.5842
 21
197.8842
  0
LINE
  8
LAYER_2
 10
-22.5842
 20
197.8842
 11
-22.518
 21
197.9766
  0
LINE
  8
LAYER_2
 10
-22.518
 20
197.9766
 11
-22.4512
 21
198.0589
  0
LINE
  8
LAYER_2
 10
-22.4512
 20
198.0589
 11
-22.3833
 21
198.1319
  0
LINE
  8
LAYER_2
 10
-22.3833
 20
198.1319
 11
-22.3147
 21
198.1943
  0
LINE
  8
LAYER_2
 10
-26.1326
 20
193.5431
 11
-26.1422
 21
193.7687
  0
LINE
  8
LAYER_2
 10
-26.1422
 20
193.7687
 11
-26.155
 21
193.9937
  0
LINE
  8
LAYER_2
 10
-26.155
 20
193.9937
 11
-26.1709
 21
194.218
  0
LINE
  8
LAYER_2
 10
-26.1709
 20
194.218
 11
-26.1898
 21
194.4401
  0
LINE
  8
LAYER_2
 10
-26.1898
 20
194.4401
 11
-26.2118
 21
194.661
  0
LINE
  8
LAYER_2
 10
-26.2118
 20
194.661
 11
-26.237
 21
194.8791
  0
LINE
  8
LAYER_2
 10
-26.237
 20
194.8791
 11
-26.2652
 21
195.094
  0
LINE
  8
LAYER_2
 10
-26.2652
 20
195.094
 11
-26.2962
 21
195.3056
  0
LINE
  8
LAYER_2
 10
-26.2962
 20
195.3056
 11
-26.3303
 21
195.5136
  0
LINE
  8
LAYER_2
 10
-26.3303
 20
195.5136
 11
-26.3669
 21
195.7169
  0
LINE
  8
LAYER_2
 10
-26.3669
 20
195.7169
 11
-26.4062
 21
195.9157
  0
LINE
  8
LAYER_2
 10
-26.4062
 20
195.9157
 11
-26.4482
 21
196.109
  0
LINE
  8
LAYER_2
 10
-26.4482
 20
196.109
 11
-26.4926
 21
196.2967
  0
LINE
  8
LAYER_2
 10
-26.4926
 20
196.2967
 11
-26.5395
 21
196.4786
  0
LINE
  8
LAYER_2
 10
-26.5395
 20
196.4786
 11
-26.5891
 21
196.6536
  0
LINE
  8
LAYER_2
 10
-26.5891
 20
196.6536
 11
-26.6404
 21
196.8221
  0
LINE
  8
LAYER_2
 10
-26.6404
 20
196.8221
 11
-26.6938
 21
196.9833
  0
LINE
  8
LAYER_2
 10
-26.6938
 20
196.9833
 11
-26.7496
 21
197.137
  0
LINE
  8
LAYER_2
 10
-26.7496
 20
197.137
 11
-26.8068
 21
197.2827
  0
LINE
  8
LAYER_2
 10
-26.8068
 20
197.2827
 11
-26.8661
 21
197.4198
  0
LINE
  8
LAYER_2
 10
-26.8661
 20
197.4198
 11
-26.9267
 21
197.549
  0
LINE
  8
LAYER_2
 10
-26.9267
 20
197.549
 11
-26.9891
 21
197.6689
  0
LINE
  8
LAYER_2
 10
-26.9891
 20
197.6689
 11
-27.0524
 21
197.7798
  0
LINE
  8
LAYER_2
 10
-27.0524
 20
197.7798
 11
-27.1172
 21
197.8814
  0
LINE
  8
LAYER_2
 10
-27.1172
 20
197.8814
 11
-27.183
 21
197.9738
  0
LINE
  8
LAYER_2
 10
-27.183
 20
197.9738
 11
-27.2495
 21
198.0561
  0
LINE
  8
LAYER_2
 10
-27.2495
 20
198.0561
 11
-27.317
 21
198.1285
  0
LINE
  8
LAYER_2
 10
-27.317
 20
198.1285
 11
-27.3852
 21
198.1908
  0
LINE
  8
LAYER_2
 10
-26.4895
 20
217.463
 11
-26.4895
 21
217.4534
  0
LINE
  8
LAYER_2
 10
-26.4895
 20
217.4534
 11
-26.4888
 21
217.4438
  0
LINE
  8
LAYER_2
 10
-26.4888
 20
217.4438
 11
-26.4878
 21
217.4344
  0
LINE
  8
LAYER_2
 10
-26.4878
 20
217.4344
 11
-26.4864
 21
217.4255
  0
LINE
  8
LAYER_2
 10
-26.4864
 20
217.4255
 11
-26.4843
 21
217.4176
  0
LINE
  8
LAYER_2
 10
-26.4843
 20
217.4176
 11
-26.4823
 21
217.41
  0
LINE
  8
LAYER_2
 10
-26.4823
 20
217.41
 11
-26.4799
 21
217.4038
  0
LINE
  8
LAYER_2
 10
-26.4799
 20
217.4038
 11
-26.4771
 21
217.3983
  0
LINE
  8
LAYER_2
 10
-26.4771
 20
217.3983
 11
-26.474
 21
217.3938
  0
LINE
  8
LAYER_2
 10
-26.474
 20
217.3938
 11
-26.4712
 21
217.3907
  0
LINE
  8
LAYER_2
 10
-26.4712
 20
217.3907
 11
-26.4678
 21
217.389
  0
LINE
  8
LAYER_2
 10
-26.4678
 20
217.389
 11
-26.4647
 21
217.3883
  0
LINE
  8
LAYER_2
 10
-23.2105
 20
217.463
 11
-23.2105
 21
217.4534
  0
LINE
  8
LAYER_2
 10
-23.2105
 20
217.4534
 11
-23.2112
 21
217.4438
  0
LINE
  8
LAYER_2
 10
-23.2112
 20
217.4438
 11
-23.2122
 21
217.4344
  0
LINE
  8
LAYER_2
 10
-23.2122
 20
217.4344
 11
-23.2136
 21
217.4255
  0
LINE
  8
LAYER_2
 10
-23.2136
 20
217.4255
 11
-23.2156
 21
217.4176
  0
LINE
  8
LAYER_2
 10
-23.2156
 20
217.4176
 11
-23.2177
 21
217.41
  0
LINE
  8
LAYER_2
 10
-23.2177
 20
217.41
 11
-23.2201
 21
217.4038
  0
LINE
  8
LAYER_2
 10
-23.2201
 20
217.4038
 11
-23.2229
 21
217.3983
  0
LINE
  8
LAYER_2
 10
-23.2229
 20
217.3983
 11
-23.2256
 21
217.3938
  0
LINE
  8
LAYER_2
 10
-23.2256
 20
217.3938
 11
-23.2287
 21
217.3907
  0
LINE
  8
LAYER_2
 10
-23.2287
 20
217.3907
 11
-23.2322
 21
217.389
  0
LINE
  8
LAYER_2
 10
-23.2322
 20
217.389
 11
-23.2353
 21
217.3883
  0
LINE
  8
LAYER_2
 10
-28.8456
 20
198.0951
 11
-28.7274
 21
198.0885
  0
LINE
  8
LAYER_2
 10
-28.7274
 20
198.0885
 11
-28.6175
 21
198.0826
  0
LINE
  8
LAYER_2
 10
-28.6175
 20
198.0826
 11
-28.5166
 21
198.0782
  0
LINE
  8
LAYER_2
 10
-28.5166
 20
198.0782
 11
-28.4243
 21
198.0747
  0
LINE
  8
LAYER_2
 10
-28.4243
 20
198.0747
 11
-28.3409
 21
198.072
  0
LINE
  8
LAYER_2
 10
-28.3409
 20
198.072
 11
-28.2668
 21
198.0706
  0
LINE
  8
LAYER_2
 10
-28.2668
 20
198.0706
 11
-28.2024
 21
198.0703
  0
LINE
  8
LAYER_2
 10
-28.2024
 20
198.0703
 11
-28.1473
 21
198.0713
  0
LINE
  8
LAYER_2
 10
-28.1473
 20
198.0713
 11
-28.1022
 21
198.073
  0
LINE
  8
LAYER_2
 10
-28.1022
 20
198.073
 11
-28.0663
 21
198.0761
  0
LINE
  8
LAYER_2
 10
-28.0663
 20
198.0761
 11
-28.0408
 21
198.0799
  0
LINE
  8
LAYER_2
 10
-28.0408
 20
198.0799
 11
-28.025
 21
198.0851
  0
LINE
  8
LAYER_2
 10
-28.025
 20
198.0851
 11
-28.0195
 21
198.0913
  0
LINE
  8
LAYER_2
 10
-28.7299
 20
202.2092
 11
-28.6282
 21
202.2051
  0
LINE
  8
LAYER_2
 10
-28.6282
 20
202.2051
 11
-28.5338
 21
202.2012
  0
LINE
  8
LAYER_2
 10
-28.5338
 20
202.2012
 11
-28.4467
 21
202.1982
  0
LINE
  8
LAYER_2
 10
-28.4467
 20
202.1982
 11
-28.3668
 21
202.1957
  0
LINE
  8
LAYER_2
 10
-28.3668
 20
202.1957
 11
-28.2948
 21
202.194
  0
LINE
  8
LAYER_2
 10
-28.2948
 20
202.194
 11
-28.231
 21
202.193
  0
LINE
  8
LAYER_2
 10
-28.231
 20
202.193
 11
-28.1752
 21
202.193
  0
LINE
  8
LAYER_2
 10
-28.1752
 20
202.193
 11
-28.1273
 21
202.1933
  0
LINE
  8
LAYER_2
 10
-28.1273
 20
202.1933
 11
-28.0884
 21
202.1947
  0
LINE
  8
LAYER_2
 10
-28.0884
 20
202.1947
 11
-28.0574
 21
202.1964
  0
LINE
  8
LAYER_2
 10
-28.0574
 20
202.1964
 11
-28.0353
 21
202.1992
  0
LINE
  8
LAYER_2
 10
-28.0353
 20
202.1992
 11
-28.0216
 21
202.2023
  0
LINE
  8
LAYER_2
 10
-28.0216
 20
202.2023
 11
-28.0167
 21
202.2064
  0
LINE
  8
LAYER_2
 10
-28.8456
 20
198.0951
 11
-28.846
 21
197.9569
  0
LINE
  8
LAYER_2
 10
-28.846
 20
197.9569
 11
-28.8446
 21
197.8243
  0
LINE
  8
LAYER_2
 10
-28.8446
 20
197.8243
 11
-28.8411
 21
197.6958
  0
LINE
  8
LAYER_2
 10
-28.8411
 20
197.6958
 11
-28.8363
 21
197.5697
  0
LINE
  8
LAYER_2
 10
-28.8363
 20
197.5697
 11
-28.8298
 21
197.4446
  0
LINE
  8
LAYER_2
 10
-28.8298
 20
197.4446
 11
-28.8212
 21
197.3192
  0
LINE
  8
LAYER_2
 10
-28.8212
 20
197.3192
 11
-28.8105
 21
197.1921
  0
LINE
  8
LAYER_2
 10
-28.8105
 20
197.1921
 11
-28.7977
 21
197.0615
  0
LINE
  8
LAYER_2
 10
-28.7977
 20
197.0615
 11
-28.7819
 21
196.9258
  0
LINE
  8
LAYER_2
 10
-28.7819
 20
196.9258
 11
-28.7623
 21
196.7818
  0
LINE
  8
LAYER_2
 10
-28.7623
 20
196.7818
 11
-28.7381
 21
196.6268
  0
LINE
  8
LAYER_2
 10
-28.7381
 20
196.6268
 11
-28.7078
 21
196.4562
  0
LINE
  8
LAYER_2
 10
-28.7078
 20
196.4562
 11
-28.6679
 21
196.2643
  0
LINE
  8
LAYER_2
 10
-28.6679
 20
196.2643
 11
-28.6165
 21
196.0511
  0
LINE
  8
LAYER_2
 10
-28.6165
 20
196.0511
 11
-28.5549
 21
195.8316
  0
LINE
  8
LAYER_2
 10
-28.5549
 20
195.8316
 11
-28.4853
 21
195.617
  0
LINE
  8
LAYER_2
 10
-28.4853
 20
195.617
 11
-28.4081
 21
195.4093
  0
LINE
  8
LAYER_2
 10
-28.4081
 20
195.4093
 11
-28.3237
 21
195.2101
  0
LINE
  8
LAYER_2
 10
-28.3237
 20
195.2101
 11
-28.2327
 21
195.0203
  0
LINE
  8
LAYER_2
 10
-28.2327
 20
195.0203
 11
-28.1363
 21
194.8418
  0
LINE
  8
LAYER_2
 10
-28.1363
 20
194.8418
 11
-28.035
 21
194.6758
  0
LINE
  8
LAYER_2
 10
-28.035
 20
194.6758
 11
-27.9299
 21
194.5225
  0
LINE
  8
LAYER_2
 10
-27.9299
 20
194.5225
 11
-27.8224
 21
194.3819
  0
LINE
  8
LAYER_2
 10
-27.8224
 20
194.3819
 11
-27.7132
 21
194.2548
  0
LINE
  8
LAYER_2
 10
-27.7132
 20
194.2548
 11
-27.603
 21
194.1404
  0
LINE
  8
LAYER_2
 10
-27.603
 20
194.1404
 11
-27.4927
 21
194.0381
  0
LINE
  8
LAYER_2
 10
-27.4927
 20
194.0381
 11
-27.3822
 21
193.9475
  0
LINE
  8
LAYER_2
 10
-27.3822
 20
193.9475
 11
-27.2722
 21
193.8676
  0
LINE
  8
LAYER_2
 10
-27.2722
 20
193.8676
 11
-27.1634
 21
193.7983
  0
LINE
  8
LAYER_2
 10
-27.1634
 20
193.7983
 11
-27.0556
 21
193.7384
  0
LINE
  8
LAYER_2
 10
-27.0556
 20
193.7384
 11
-26.9491
 21
193.6877
  0
LINE
  8
LAYER_2
 10
-26.9491
 20
193.6877
 11
-26.8437
 21
193.645
  0
LINE
  8
LAYER_2
 10
-26.8437
 20
193.645
 11
-26.7396
 21
193.6102
  0
LINE
  8
LAYER_2
 10
-26.7396
 20
193.6102
 11
-26.6363
 21
193.5827
  0
LINE
  8
LAYER_2
 10
-26.6363
 20
193.5827
 11
-26.5343
 21
193.562
  0
LINE
  8
LAYER_2
 10
-26.5343
 20
193.562
 11
-26.4327
 21
193.5479
  0
LINE
  8
LAYER_2
 10
-26.4327
 20
193.5479
 11
-26.3321
 21
193.5403
  0
LINE
  8
LAYER_2
 10
-26.3321
 20
193.5403
 11
-26.2322
 21
193.5386
  0
LINE
  8
LAYER_2
 10
-26.2322
 20
193.5386
 11
-26.1326
 21
193.5431
  0
LINE
  8
LAYER_2
 10
-26.1326
 20
193.5431
 11
-25.9431
 21
193.5541
  0
LINE
  8
LAYER_2
 10
-25.9431
 20
193.5541
 11
-25.7416
 21
193.5603
  0
LINE
  8
LAYER_2
 10
-25.7416
 20
193.5603
 11
-25.5283
 21
193.5624
  0
LINE
  8
LAYER_2
 10
-25.5283
 20
193.5624
 11
-25.3054
 21
193.5613
  0
LINE
  8
LAYER_2
 10
-25.3054
 20
193.5613
 11
-25.0773
 21
193.5585
  0
LINE
  8
LAYER_2
 10
-25.0773
 20
193.5585
 11
-24.85
 21
193.5565
  0
LINE
  8
LAYER_2
 10
-19.4667
 20
177.8586
 11
-19.4291
 21
177.8572
  0
LINE
  8
LAYER_2
 10
-19.4291
 20
177.8572
 11
-19.3919
 21
177.851
  0
LINE
  8
LAYER_2
 10
-19.3919
 20
177.851
 11
-19.355
 21
177.8413
  0
LINE
  8
LAYER_2
 10
-19.355
 20
177.8413
 11
-19.3189
 21
177.8283
  0
LINE
  8
LAYER_2
 10
-19.3189
 20
177.8283
 11
-19.2834
 21
177.811
  0
LINE
  8
LAYER_2
 10
-19.2834
 20
177.811
 11
-19.2493
 21
177.7904
  0
LINE
  8
LAYER_2
 10
-19.2493
 20
177.7904
 11
-19.2166
 21
177.7669
  0
LINE
  8
LAYER_2
 10
-19.2166
 20
177.7669
 11
-19.1852
 21
177.7394
  0
LINE
  8
LAYER_2
 10
-19.1852
 20
177.7394
 11
-19.1559
 21
177.709
  0
LINE
  8
LAYER_2
 10
-19.1559
 20
177.709
 11
-19.1284
 21
177.676
  0
LINE
  8
LAYER_2
 10
-19.1284
 20
177.676
 11
-19.1025
 21
177.6394
  0
LINE
  8
LAYER_2
 10
-19.1025
 20
177.6394
 11
-19.0795
 21
177.6009
  0
LINE
  8
LAYER_2
 10
-19.0795
 20
177.6009
 11
-19.0584
 21
177.5602
  0
LINE
  8
LAYER_2
 10
-19.0584
 20
177.5602
 11
-19.0402
 21
177.5175
  0
LINE
  8
LAYER_2
 10
-19.0402
 20
177.5175
 11
-19.0243
 21
177.4727
  0
LINE
  8
LAYER_2
 10
-19.0243
 20
177.4727
 11
-19.0116
 21
177.4273
  0
LINE
  8
LAYER_2
 10
-19.0116
 20
177.4273
 11
-19.0012
 21
177.3797
  0
LINE
  8
LAYER_2
 10
-19.0012
 20
177.3797
 11
-18.994
 21
177.3315
  0
LINE
  8
LAYER_2
 10
-18.994
 20
177.3315
 11
-18.9895
 21
177.2825
  0
LINE
  8
LAYER_2
 10
-18.9895
 20
177.2825
 11
-18.9878
 21
177.2336
  0
LINE
  8
LAYER_2
 10
-18.9878
 20
177.2336
 11
-18.9895
 21
177.1847
  0
LINE
  8
LAYER_2
 10
-18.9895
 20
177.1847
 11
-18.994
 21
177.1358
  0
LINE
  8
LAYER_2
 10
-18.994
 20
177.1358
 11
-19.0012
 21
177.0882
  0
LINE
  8
LAYER_2
 10
-19.0012
 20
177.0882
 11
-19.0116
 21
177.0407
  0
LINE
  8
LAYER_2
 10
-19.0116
 20
177.0407
 11
-19.0243
 21
176.9945
  0
LINE
  8
LAYER_2
 10
-19.0243
 20
176.9945
 11
-19.0402
 21
176.9504
  0
LINE
  8
LAYER_2
 10
-19.0402
 20
176.9504
 11
-19.0584
 21
176.907
  0
LINE
  8
LAYER_2
 10
-19.0584
 20
176.907
 11
-19.0795
 21
176.8664
  0
LINE
  8
LAYER_2
 10
-19.0795
 20
176.8664
 11
-19.1025
 21
176.8278
  0
LINE
  8
LAYER_2
 10
-19.1025
 20
176.8278
 11
-19.1284
 21
176.792
  0
LINE
  8
LAYER_2
 10
-19.1284
 20
176.792
 11
-19.1559
 21
176.7589
  0
LINE
  8
LAYER_2
 10
-19.1559
 20
176.7589
 11
-19.1852
 21
176.7279
  0
LINE
  8
LAYER_2
 10
-19.1852
 20
176.7279
 11
-19.2166
 21
176.701
  0
LINE
  8
LAYER_2
 10
-19.2166
 20
176.701
 11
-19.2493
 21
176.6769
  0
LINE
  8
LAYER_2
 10
-19.2493
 20
176.6769
 11
-19.2834
 21
176.6562
  0
LINE
  8
LAYER_2
 10
-19.2834
 20
176.6562
 11
-19.3189
 21
176.6397
  0
LINE
  8
LAYER_2
 10
-19.3189
 20
176.6397
 11
-19.355
 21
176.6259
  0
LINE
  8
LAYER_2
 10
-19.355
 20
176.6259
 11
-19.3919
 21
176.6162
  0
LINE
  8
LAYER_2
 10
-19.3919
 20
176.6162
 11
-19.4291
 21
176.6107
  0
LINE
  8
LAYER_2
 10
-19.4291
 20
176.6107
 11
-19.4667
 21
176.6087
  0
LINE
  8
LAYER_2
 10
-24.85
 20
193.5565
 11
-24.6264
 21
193.5558
  0
LINE
  8
LAYER_2
 10
-24.6264
 20
193.5558
 11
-24.4032
 21
193.5554
  0
LINE
  8
LAYER_2
 10
-24.4032
 20
193.5554
 11
-24.1834
 21
193.5537
  0
LINE
  8
LAYER_2
 10
-24.1834
 20
193.5537
 11
-23.9698
 21
193.5496
  0
LINE
  8
LAYER_2
 10
-23.9698
 20
193.5496
 11
-23.7651
 21
193.542
  0
LINE
  8
LAYER_2
 10
-23.7651
 20
193.542
 11
-23.5694
 21
193.5303
  0
LINE
  8
LAYER_2
 10
-23.5694
 20
193.5303
 11
-23.4699
 21
193.5262
  0
LINE
  8
LAYER_2
 10
-23.4699
 20
193.5262
 11
-23.3696
 21
193.5279
  0
LINE
  8
LAYER_2
 10
-23.3696
 20
193.5279
 11
-23.2687
 21
193.5358
  0
LINE
  8
LAYER_2
 10
-23.2687
 20
193.5358
 11
-23.1671
 21
193.5499
  0
LINE
  8
LAYER_2
 10
-23.1671
 20
193.5499
 11
-23.0648
 21
193.571
  0
LINE
  8
LAYER_2
 10
-23.0648
 20
193.571
 11
-22.9614
 21
193.5985
  0
LINE
  8
LAYER_2
 10
-22.9614
 20
193.5985
 11
-22.8566
 21
193.6336
  0
LINE
  8
LAYER_2
 10
-22.8566
 20
193.6336
 11
-22.7512
 21
193.6764
  0
LINE
  8
LAYER_2
 10
-22.7512
 20
193.6764
 11
-22.6445
 21
193.727
  0
LINE
  8
LAYER_2
 10
-22.6445
 20
193.727
 11
-22.5363
 21
193.787
  0
LINE
  8
LAYER_2
 10
-22.5363
 20
193.787
 11
-22.4274
 21
193.8562
  0
LINE
  8
LAYER_2
 10
-22.4274
 20
193.8562
 11
-22.3175
 21
193.9358
  0
LINE
  8
LAYER_2
 10
-22.3175
 20
193.9358
 11
-22.2073
 21
194.0264
  0
LINE
  8
LAYER_2
 10
-22.2073
 20
194.0264
 11
-22.097
 21
194.1284
  0
LINE
  8
LAYER_2
 10
-22.097
 20
194.1284
 11
-21.9868
 21
194.2424
  0
LINE
  8
LAYER_2
 10
-21.9868
 20
194.2424
 11
-21.8779
 21
194.3688
  0
LINE
  8
LAYER_2
 10
-21.8779
 20
194.3688
 11
-21.7704
 21
194.5084
  0
LINE
  8
LAYER_2
 10
-21.7704
 20
194.5084
 11
-21.666
 21
194.661
  0
LINE
  8
LAYER_2
 10
-21.666
 20
194.661
 11
-21.5651
 21
194.826
  0
LINE
  8
LAYER_2
 10
-21.5651
 20
194.826
 11
-21.4686
 21
195.0034
  0
LINE
  8
LAYER_2
 10
-21.4686
 20
195.0034
 11
-21.3777
 21
195.1919
  0
LINE
  8
LAYER_2
 10
-21.3777
 20
195.1919
 11
-21.2933
 21
195.3903
  0
LINE
  8
LAYER_2
 10
-21.2933
 20
195.3903
 11
-21.2161
 21
195.5974
  0
LINE
  8
LAYER_2
 10
-21.2161
 20
195.5974
 11
-21.1462
 21
195.8113
  0
LINE
  8
LAYER_2
 10
-21.1462
 20
195.8113
 11
-21.0842
 21
196.0304
  0
LINE
  8
LAYER_2
 10
-21.0842
 20
196.0304
 11
-21.0318
 21
196.2454
  0
LINE
  8
LAYER_2
 10
-21.0318
 20
196.2454
 11
-20.9915
 21
196.44
  0
LINE
  8
LAYER_2
 10
-20.9915
 20
196.44
 11
-20.9602
 21
196.6126
  0
LINE
  8
LAYER_2
 10
-20.9602
 20
196.6126
 11
-20.9357
 21
196.7697
  0
LINE
  8
LAYER_2
 10
-20.9357
 20
196.7697
 11
-20.9161
 21
196.9154
  0
LINE
  8
LAYER_2
 10
-20.9161
 20
196.9154
 11
-20.8999
 21
197.0533
  0
LINE
  8
LAYER_2
 10
-20.8999
 20
197.0533
 11
-20.8867
 21
197.1852
  0
LINE
  8
LAYER_2
 10
-20.8867
 20
197.1852
 11
-20.8761
 21
197.3137
  0
LINE
  8
LAYER_2
 10
-20.8761
 20
197.3137
 11
-20.8675
 21
197.4402
  0
LINE
  8
LAYER_2
 10
-20.8675
 20
197.4402
 11
-20.8606
 21
197.5662
  0
LINE
  8
LAYER_2
 10
-20.8606
 20
197.5662
 11
-20.8554
 21
197.6937
  0
LINE
  8
LAYER_2
 10
-20.8554
 20
197.6937
 11
-20.8523
 21
197.8236
  0
LINE
  8
LAYER_2
 10
-20.8523
 20
197.8236
 11
-20.8506
 21
197.9579
  0
LINE
  8
LAYER_2
 10
-20.8506
 20
197.9579
 11
-20.8513
 21
198.0982
  0
LINE
  8
LAYER_2
 10
-24.85
 20
198.3042
 11
-24.5613
 21
198.3028
  0
LINE
  8
LAYER_2
 10
-24.5613
 20
198.3028
 11
-24.2647
 21
198.2983
  0
LINE
  8
LAYER_2
 10
-24.2647
 20
198.2983
 11
-23.9605
 21
198.2904
  0
LINE
  8
LAYER_2
 10
-23.9605
 20
198.2904
 11
-23.6487
 21
198.279
  0
LINE
  8
LAYER_2
 10
-23.6487
 20
198.279
 11
-23.329
 21
198.2639
  0
LINE
  8
LAYER_2
 10
-23.329
 20
198.2639
 11
-23.0003
 21
198.2449
  0
LINE
  8
LAYER_2
 10
-23.0003
 20
198.2449
 11
-22.6623
 21
198.2218
  0
LINE
  8
LAYER_2
 10
-22.6623
 20
198.2218
 11
-22.3147
 21
198.1943
  0
LINE
  8
LAYER_2
 10
-27.3852
 20
198.1908
 11
-27.0238
 21
198.2194
  0
LINE
  8
LAYER_2
 10
-27.0238
 20
198.2194
 11
-26.6776
 21
198.2432
  0
LINE
  8
LAYER_2
 10
-26.6776
 20
198.2432
 11
-26.3452
 21
198.2625
  0
LINE
  8
LAYER_2
 10
-26.3452
 20
198.2625
 11
-26.0258
 21
198.278
  0
LINE
  8
LAYER_2
 10
-26.0258
 20
198.278
 11
-25.7171
 21
198.2894
  0
LINE
  8
LAYER_2
 10
-25.7171
 20
198.2894
 11
-25.4184
 21
198.2976
  0
LINE
  8
LAYER_2
 10
-25.4184
 20
198.2976
 11
-25.1294
 21
198.3025
  0
LINE
  8
LAYER_2
 10
-25.1294
 20
198.3025
 11
-24.85
 21
198.3042
  0
LINE
  8
LAYER_2
 10
-20.8513
 20
198.0982
 11
-20.8668
 21
198.926
  0
LINE
  8
LAYER_2
 10
-20.8668
 20
198.926
 11
-20.8957
 21
199.842
  0
LINE
  8
LAYER_2
 10
-20.8957
 20
199.842
 11
-20.9278
 21
200.7268
  0
LINE
  8
LAYER_2
 10
-20.9278
 20
200.7268
 11
-20.9529
 21
201.5133
  0
LINE
  8
LAYER_2
 10
-20.9529
 20
201.5133
 11
-20.9663
 21
202.2119
  0
LINE
  8
LAYER_2
 10
-20.9663
 20
202.2119
 11
-20.9698
 21
202.3666
  0
LINE
  8
LAYER_2
 10
-20.9698
 20
202.3666
 11
-20.977
 21
202.5351
  0
LINE
  8
LAYER_2
 10
-20.977
 20
202.5351
 11
-20.9901
 21
202.7225
  0
LINE
  8
LAYER_2
 10
-20.9901
 20
202.7225
 11
-21.0101
 21
202.9344
  0
LINE
  8
LAYER_2
 10
-21.0101
 20
202.9344
 11
-21.0394
 21
203.1659
  0
LINE
  8
LAYER_2
 10
-21.0394
 20
203.1659
 11
-21.0776
 21
203.4077
  0
LINE
  8
LAYER_2
 10
-21.0776
 20
203.4077
 11
-21.1251
 21
203.6541
  0
LINE
  8
LAYER_2
 10
-21.1251
 20
203.6541
 11
-21.1823
 21
203.9042
  0
LINE
  8
LAYER_2
 10
-21.1823
 20
203.9042
 11
-21.2492
 21
204.155
  0
LINE
  8
LAYER_2
 10
-21.2492
 20
204.155
 11
-21.3257
 21
204.4023
  0
LINE
  8
LAYER_2
 10
-21.3257
 20
204.4023
 11
-21.4111
 21
204.6428
  0
LINE
  8
LAYER_2
 10
-21.4111
 20
204.6428
 11
-21.5034
 21
204.8726
  0
LINE
  8
LAYER_2
 10
-21.5034
 20
204.8726
 11
-21.602
 21
205.0879
  0
LINE
  8
LAYER_2
 10
-21.602
 20
205.0879
 11
-21.7043
 21
205.2867
  0
LINE
  8
LAYER_2
 10
-21.7043
 20
205.2867
 11
-21.7267
 21
205.3274
  0
LINE
  8
LAYER_2
 10
-28.0167
 20
202.2064
 11
-28.0171
 21
202.0452
  0
LINE
  8
LAYER_2
 10
-28.0171
 20
202.0452
 11
-28.0171
 21
201.8822
  0
LINE
  8
LAYER_2
 10
-28.0171
 20
201.8822
 11
-28.0171
 21
201.7196
  0
LINE
  8
LAYER_2
 10
-28.0171
 20
201.7196
 11
-28.0171
 21
201.5591
  0
LINE
  8
LAYER_2
 10
-28.0171
 20
201.5591
 11
-28.0174
 21
201.3992
  0
LINE
  8
LAYER_2
 10
-28.0174
 20
201.3992
 11
-28.0174
 21
201.2328
  0
LINE
  8
LAYER_2
 10
-28.0174
 20
201.2328
 11
-28.0174
 21
201.0509
  0
LINE
  8
LAYER_2
 10
-28.0174
 20
201.0509
 11
-28.0178
 21
200.8456
  0
LINE
  8
LAYER_2
 10
-28.0178
 20
200.8456
 11
-28.0178
 21
200.6131
  0
LINE
  8
LAYER_2
 10
-28.0178
 20
200.6131
 11
-28.0181
 21
200.3606
  0
LINE
  8
LAYER_2
 10
-28.0181
 20
200.3606
 11
-28.0181
 21
200.0956
  0
LINE
  8
LAYER_2
 10
-28.0181
 20
200.0956
 11
-28.0185
 21
199.829
  0
LINE
  8
LAYER_2
 10
-28.0185
 20
199.829
 11
-28.0185
 21
199.5737
  0
LINE
  8
LAYER_2
 10
-28.0185
 20
199.5737
 11
-28.0185
 21
199.3442
  0
LINE
  8
LAYER_2
 10
-28.0185
 20
199.3442
 11
-28.0188
 21
199.1438
  0
LINE
  8
LAYER_2
 10
-28.0188
 20
199.1438
 11
-28.0188
 21
198.9622
  0
LINE
  8
LAYER_2
 10
-28.0188
 20
198.9622
 11
-28.0188
 21
198.7892
  0
LINE
  8
LAYER_2
 10
-28.0188
 20
198.7892
 11
-28.0191
 21
198.616
  0
LINE
  8
LAYER_2
 10
-28.0191
 20
198.616
 11
-28.0191
 21
198.4406
  0
LINE
  8
LAYER_2
 10
-28.0191
 20
198.4406
 11
-28.0191
 21
198.2652
  0
LINE
  8
LAYER_2
 10
-28.0191
 20
198.2652
 11
-28.0195
 21
198.0913
  0
LINE
  8
LAYER_2
 10
-27.294
 20
209.8587
 11
-27.2946
 21
209.89
  0
LINE
  8
LAYER_2
 10
-27.2946
 20
209.89
 11
-27.2953
 21
209.92
  0
LINE
  8
LAYER_2
 10
-27.2953
 20
209.92
 11
-27.2957
 21
209.949
  0
LINE
  8
LAYER_2
 10
-27.2957
 20
209.949
 11
-27.2964
 21
209.9762
  0
LINE
  8
LAYER_2
 10
-27.2964
 20
209.9762
 11
-27.297
 21
210.002
  0
LINE
  8
LAYER_2
 10
-27.297
 20
210.002
 11
-27.2977
 21
210.0265
  0
LINE
  8
LAYER_2
 10
-27.2977
 20
210.0265
 11
-27.2981
 21
210.0482
  0
LINE
  8
LAYER_2
 10
-27.2981
 20
210.0482
 11
-27.2988
 21
210.0682
  0
LINE
  8
LAYER_2
 10
-27.2988
 20
210.0682
 11
-27.2991
 21
210.0857
  0
LINE
  8
LAYER_2
 10
-27.2991
 20
210.0857
 11
-27.2995
 21
210.1009
  0
LINE
  8
LAYER_2
 10
-27.2995
 20
210.1009
 11
-27.2998
 21
210.1136
  0
LINE
  8
LAYER_2
 10
-27.2998
 20
210.1136
 11
-27.3001
 21
210.1236
  0
LINE
  8
LAYER_2
 10
-27.3001
 20
210.1236
 11
-27.3005
 21
210.1305
  0
LINE
  8
LAYER_2
 10
-27.3005
 20
210.1305
 11
-27.3008
 21
210.135
  0
LINE
  8
LAYER_2
 10
-27.3008
 20
210.135
 11
-27.3008
 21
210.1367
  0
LINE
  8
LAYER_2
 10
-22.406
 20
209.8587
 11
-22.4053
 21
209.89
  0
LINE
  8
LAYER_2
 10
-22.4053
 20
209.89
 11
-22.4047
 21
209.92
  0
LINE
  8
LAYER_2
 10
-22.4047
 20
209.92
 11
-22.404
 21
209.949
  0
LINE
  8
LAYER_2
 10
-22.404
 20
209.949
 11
-22.4036
 21
209.9762
  0
LINE
  8
LAYER_2
 10
-22.4036
 20
209.9762
 11
-22.4029
 21
210.002
  0
LINE
  8
LAYER_2
 10
-22.4029
 20
210.002
 11
-22.4022
 21
210.0265
  0
LINE
  8
LAYER_2
 10
-22.4022
 20
210.0265
 11
-22.4019
 21
210.0485
  0
LINE
  8
LAYER_2
 10
-22.4019
 20
210.0485
 11
-22.4012
 21
210.0682
  0
LINE
  8
LAYER_2
 10
-22.4012
 20
210.0682
 11
-22.4009
 21
210.0857
  0
LINE
  8
LAYER_2
 10
-22.4009
 20
210.0857
 11
-22.4005
 21
210.1009
  0
LINE
  8
LAYER_2
 10
-22.4005
 20
210.1009
 11
-22.4002
 21
210.1136
  0
LINE
  8
LAYER_2
 10
-22.4002
 20
210.1136
 11
-22.3998
 21
210.1236
  0
LINE
  8
LAYER_2
 10
-22.3998
 20
210.1236
 11
-22.3995
 21
210.1305
  0
LINE
  8
LAYER_2
 10
-22.3995
 20
210.1305
 11
-22.3992
 21
210.135
  0
LINE
  8
LAYER_2
 10
-22.3992
 20
210.135
 11
-22.3988
 21
210.1367
  0
LINE
  8
LAYER_2
 10
-22.2104
 20
209.7615
 11
-22.2104
 21
209.7794
  0
LINE
  8
LAYER_2
 10
-22.2104
 20
209.7794
 11
-22.2255
 21
209.7794
  0
LINE
  8
LAYER_2
 10
-22.1611
 20
209.6172
 11
-22.1284
 21
209.6172
  0
LINE
  8
LAYER_2
 10
-22.1284
 20
209.6172
 11
-22.096
 21
209.6158
  0
LINE
  8
LAYER_2
 10
-22.096
 20
209.6158
 11
-22.0643
 21
209.6141
  0
LINE
  8
LAYER_2
 10
-22.0643
 20
209.6141
 11
-22.0329
 21
209.6117
  0
LINE
  8
LAYER_2
 10
-22.0329
 20
209.6117
 11
-22.003
 21
209.6082
  0
LINE
  8
LAYER_2
 10
-22.003
 20
209.6082
 11
-21.9737
 21
209.6044
  0
LINE
  8
LAYER_2
 10
-21.9737
 20
209.6044
 11
-21.9464
 21
209.5999
  0
LINE
  8
LAYER_2
 10
-21.9464
 20
209.5999
 11
-21.9203
 21
209.5948
  0
LINE
  8
LAYER_2
 10
-21.9203
 20
209.5948
 11
-21.8962
 21
209.5893
  0
LINE
  8
LAYER_2
 10
-21.8962
 20
209.5893
 11
-21.8741
 21
209.5827
  0
LINE
  8
LAYER_2
 10
-21.8741
 20
209.5827
 11
-21.8541
 21
209.5762
  0
LINE
  8
LAYER_2
 10
-21.8541
 20
209.5762
 11
-21.8366
 21
209.5689
  0
LINE
  8
LAYER_2
 10
-21.8366
 20
209.5689
 11
-21.8214
 21
209.5617
  0
LINE
  8
LAYER_2
 10
-21.8214
 20
209.5617
 11
-21.809
 21
209.5538
  0
LINE
  8
LAYER_2
 10
-21.809
 20
209.5538
 11
-21.799
 21
209.5459
  0
LINE
  8
LAYER_2
 10
-21.799
 20
209.5459
 11
-21.7918
 21
209.5376
  0
LINE
  8
LAYER_2
 10
-21.7918
 20
209.5376
 11
-21.7894
 21
209.5334
  0
LINE
  8
LAYER_2
 10
-20.9663
 20
202.2119
 11
-21.0687
 21
202.2075
  0
LINE
  8
LAYER_2
 10
-21.0687
 20
202.2075
 11
-21.1637
 21
202.2037
  0
LINE
  8
LAYER_2
 10
-21.1637
 20
202.2037
 11
-21.2512
 21
202.2006
  0
LINE
  8
LAYER_2
 10
-21.2512
 20
202.2006
 11
-21.3312
 21
202.1982
  0
LINE
  8
LAYER_2
 10
-21.3312
 20
202.1982
 11
-21.4035
 21
202.1964
  0
LINE
  8
LAYER_2
 10
-21.4035
 20
202.1964
 11
-21.4679
 21
202.1954
  0
LINE
  8
LAYER_2
 10
-21.4679
 20
202.1954
 11
-21.5241
 21
202.1951
  0
LINE
  8
LAYER_2
 10
-21.5241
 20
202.1951
 11
-21.572
 21
202.1957
  0
LINE
  8
LAYER_2
 10
-21.572
 20
202.1957
 11
-21.6113
 21
202.1968
  0
LINE
  8
LAYER_2
 10
-21.6113
 20
202.1968
 11
-21.6422
 21
202.1988
  0
LINE
  8
LAYER_2
 10
-21.6422
 20
202.1988
 11
-21.6646
 21
202.2016
  0
LINE
  8
LAYER_2
 10
-21.6646
 20
202.2016
 11
-21.6784
 21
202.2051
  0
LINE
  8
LAYER_2
 10
-21.6784
 20
202.2051
 11
-21.6833
 21
202.2088
  0
LINE
  8
LAYER_2
 10
-27.9141
 20
209.5207
 11
-28.0167
 21
202.2178
  0
LINE
  8
LAYER_2
 10
-27.9737
 20
205.3053
 11
-27.9974
 21
205.2619
  0
LINE
  8
LAYER_2
 10
-27.9974
 20
205.2619
 11
-28.0994
 21
205.0631
  0
LINE
  8
LAYER_2
 10
-28.0994
 20
205.0631
 11
-28.1969
 21
204.8488
  0
LINE
  8
LAYER_2
 10
-28.1969
 20
204.8488
 11
-28.2889
 21
204.6201
  0
LINE
  8
LAYER_2
 10
-28.2889
 20
204.6201
 11
-28.3736
 21
204.3813
  0
LINE
  8
LAYER_2
 10
-28.3736
 20
204.3813
 11
-28.4494
 21
204.1357
  0
LINE
  8
LAYER_2
 10
-28.4494
 20
204.1357
 11
-28.5159
 21
203.8873
  0
LINE
  8
LAYER_2
 10
-28.5159
 20
203.8873
 11
-28.5724
 21
203.6392
  0
LINE
  8
LAYER_2
 10
-28.5724
 20
203.6392
 11
-28.6196
 21
203.3953
  0
LINE
  8
LAYER_2
 10
-28.6196
 20
203.3953
 11
-28.6575
 21
203.1563
  0
LINE
  8
LAYER_2
 10
-28.6575
 20
203.1563
 11
-28.6861
 21
202.9268
  0
LINE
  8
LAYER_2
 10
-28.6861
 20
202.9268
 11
-28.7064
 21
202.7167
  0
LINE
  8
LAYER_2
 10
-28.7064
 20
202.7167
 11
-28.7192
 21
202.5303
  0
LINE
  8
LAYER_2
 10
-28.7192
 20
202.5303
 11
-28.7264
 21
202.3629
  0
LINE
  8
LAYER_2
 10
-28.7264
 20
202.3629
 11
-28.7299
 21
202.2092
  0
LINE
  8
LAYER_2
 10
-21.6805
 20
198.094
 11
-21.6808
 21
198.2666
  0
LINE
  8
LAYER_2
 10
-21.6808
 20
198.2666
 11
-21.6808
 21
198.441
  0
LINE
  8
LAYER_2
 10
-21.6808
 20
198.441
 11
-21.6808
 21
198.6153
  0
LINE
  8
LAYER_2
 10
-21.6808
 20
198.6153
 11
-21.6812
 21
198.7868
  0
LINE
  8
LAYER_2
 10
-21.6812
 20
198.7868
 11
-21.6812
 21
198.9567
  0
LINE
  8
LAYER_2
 10
-21.6812
 20
198.9567
 11
-21.6812
 21
199.1337
  0
LINE
  8
LAYER_2
 10
-21.6812
 20
199.1337
 11
-21.6815
 21
199.328
  0
LINE
  8
LAYER_2
 10
-21.6815
 20
199.328
 11
-21.6815
 21
199.5492
  0
LINE
  8
LAYER_2
 10
-21.6815
 20
199.5492
 11
-21.6819
 21
199.7973
  0
LINE
  8
LAYER_2
 10
-21.6819
 20
199.7973
 11
-21.6819
 21
200.0608
  0
LINE
  8
LAYER_2
 10
-21.6819
 20
200.0608
 11
-21.6819
 21
200.3282
  0
LINE
  8
LAYER_2
 10
-21.6819
 20
200.3282
 11
-21.6822
 21
200.5883
  0
LINE
  8
LAYER_2
 10
-21.6822
 20
200.5883
 11
-21.6822
 21
200.8294
  0
LINE
  8
LAYER_2
 10
-21.6822
 20
200.8294
 11
-21.6822
 21
201.0416
  0
LINE
  8
LAYER_2
 10
-21.6822
 20
201.0416
 11
-21.6826
 21
201.2273
  0
LINE
  8
LAYER_2
 10
-21.6826
 20
201.2273
 11
-21.6826
 21
201.3955
  0
LINE
  8
LAYER_2
 10
-21.6826
 20
201.3955
 11
-21.6829
 21
201.5563
  0
LINE
  8
LAYER_2
 10
-21.6829
 20
201.5563
 11
-21.6829
 21
201.7183
  0
LINE
  8
LAYER_2
 10
-21.6829
 20
201.7183
 11
-21.6829
 21
201.8822
  0
LINE
  8
LAYER_2
 10
-21.6829
 20
201.8822
 11
-21.6829
 21
202.0466
  0
LINE
  8
LAYER_2
 10
-21.6829
 20
202.0466
 11
-21.6833
 21
202.2088
  0
LINE
  8
LAYER_2
 10
-21.7859
 20
209.5207
 11
-21.6833
 21
202.2205
  0
LINE
  8
LAYER_2
 10
-22.2255
 20
209.7794
 11
-22.241
 21
209.7946
  0
LINE
  8
LAYER_2
 10
-22.241
 20
209.7946
 11
-22.2582
 21
209.8084
  0
LINE
  8
LAYER_2
 10
-22.2582
 20
209.8084
 11
-22.2769
 21
209.8211
  0
LINE
  8
LAYER_2
 10
-22.2769
 20
209.8211
 11
-22.2968
 21
209.8321
  0
LINE
  8
LAYER_2
 10
-22.2968
 20
209.8321
 11
-22.3179
 21
209.8415
  0
LINE
  8
LAYER_2
 10
-22.3179
 20
209.8415
 11
-22.3395
 21
209.8487
  0
LINE
  8
LAYER_2
 10
-22.3395
 20
209.8487
 11
-22.3616
 21
209.8542
  0
LINE
  8
LAYER_2
 10
-22.3616
 20
209.8542
 11
-22.384
 21
209.8573
  0
LINE
  8
LAYER_2
 10
-22.384
 20
209.8573
 11
-22.406
 21
209.8587
  0
LINE
  8
LAYER_2
 10
-22.1611
 20
209.6172
 11
-22.1621
 21
209.6392
  0
LINE
  8
LAYER_2
 10
-22.1621
 20
209.6392
 11
-22.1652
 21
209.6609
  0
LINE
  8
LAYER_2
 10
-22.1652
 20
209.6609
 11
-22.1704
 21
209.683
  0
LINE
  8
LAYER_2
 10
-22.1704
 20
209.683
 11
-22.1776
 21
209.704
  0
LINE
  8
LAYER_2
 10
-22.1776
 20
209.704
 11
-22.1866
 21
209.7243
  0
LINE
  8
LAYER_2
 10
-22.1866
 20
209.7243
 11
-22.1979
 21
209.7436
  0
LINE
  8
LAYER_2
 10
-22.1979
 20
209.7436
 11
-22.2104
 21
209.7615
  0
LINE
  8
LAYER_2
 10
-22.2104
 20
205.9647
 11
-22.1979
 21
205.9826
  0
LINE
  8
LAYER_2
 10
-22.1979
 20
205.9826
 11
-22.1866
 21
206.0019
  0
LINE
  8
LAYER_2
 10
-22.1866
 20
206.0019
 11
-22.1776
 21
206.0222
  0
LINE
  8
LAYER_2
 10
-22.1776
 20
206.0222
 11
-22.1704
 21
206.0436
  0
LINE
  8
LAYER_2
 10
-22.1704
 20
206.0436
 11
-22.1649
 21
206.0649
  0
LINE
  8
LAYER_2
 10
-22.1649
 20
206.0649
 11
-22.1621
 21
206.087
  0
LINE
  8
LAYER_2
 10
-22.1621
 20
206.087
 11
-22.1611
 21
206.1087
  0
LINE
  8
LAYER_2
 10
-27.2836
 20
229.5059
 11
-27.3318
 21
229.505
  0
LINE
  8
LAYER_2
 10
-27.3318
 20
229.505
 11
-27.3797
 21
229.5033
  0
LINE
  8
LAYER_2
 10
-27.3797
 20
229.5033
 11
-27.4269
 21
229.5005
  0
LINE
  8
LAYER_2
 10
-27.4269
 20
229.5005
 11
-27.4738
 21
229.4969
  0
LINE
  8
LAYER_2
 10
-27.4738
 20
229.4969
 11
-27.5186
 21
229.4925
  0
LINE
  8
LAYER_2
 10
-27.5186
 20
229.4925
 11
-27.5623
 21
229.4869
  0
LINE
  8
LAYER_2
 10
-27.5623
 20
229.4869
 11
-27.6047
 21
229.4809
  0
LINE
  8
LAYER_2
 10
-27.6047
 20
229.4809
 11
-27.6447
 21
229.4737
  0
LINE
  8
LAYER_2
 10
-27.6447
 20
229.4737
 11
-27.6819
 21
229.4659
  0
LINE
  8
LAYER_2
 10
-27.6819
 20
229.4659
 11
-27.7173
 21
229.4573
  0
LINE
  8
LAYER_2
 10
-27.7173
 20
229.4573
 11
-27.7501
 21
229.448
  0
LINE
  8
LAYER_2
 10
-27.7501
 20
229.448
 11
-27.7797
 21
229.4384
  0
LINE
  8
LAYER_2
 10
-27.7797
 20
229.4384
 11
-27.8062
 21
229.428
  0
LINE
  8
LAYER_2
 10
-27.8062
 20
229.428
 11
-27.8297
 21
229.417
  0
LINE
  8
LAYER_2
 10
-27.8297
 20
229.417
 11
-27.8493
 21
229.4058
  0
LINE
  8
LAYER_2
 10
-27.8493
 20
229.4058
 11
-27.8662
 21
229.3941
  0
LINE
  8
LAYER_2
 10
-27.8662
 20
229.3941
 11
-27.8793
 21
229.3824
  0
LINE
  8
LAYER_2
 10
-27.8793
 20
229.3824
 11
-27.8886
 21
229.3701
  0
LINE
  8
LAYER_2
 10
-27.8886
 20
229.3701
 11
-27.8941
 21
229.3579
  0
LINE
  8
LAYER_2
 10
-27.8941
 20
229.3579
 11
-27.8961
 21
229.3455
  0
LINE
  8
LAYER_2
 10
-21.6654
 20
257.4496
 11
-21.6657
 21
257.4224
  0
LINE
  8
LAYER_2
 10
-21.6657
 20
257.4224
 11
-21.6671
 21
257.3894
  0
LINE
  8
LAYER_2
 10
-21.6671
 20
257.3894
 11
-21.6688
 21
257.3509
  0
LINE
  8
LAYER_2
 10
-21.6688
 20
257.3509
 11
-21.6716
 21
257.3064
  0
LINE
  8
LAYER_2
 10
-21.6716
 20
257.3064
 11
-21.675
 21
257.2558
  0
LINE
  8
LAYER_2
 10
-21.675
 20
257.2558
 11
-21.6795
 21
257.1982
  0
LINE
  8
LAYER_2
 10
-21.6795
 20
257.1982
 11
-21.685
 21
257.1333
  0
LINE
  8
LAYER_2
 10
-21.685
 20
257.1333
 11
-21.6915
 21
257.0601
  0
LINE
  8
LAYER_2
 10
-21.6915
 20
257.0601
 11
-21.6998
 21
256.9779
  0
LINE
  8
LAYER_2
 10
-21.6998
 20
256.9779
 11
-21.7091
 21
256.8858
  0
LINE
  8
LAYER_2
 10
-21.7091
 20
256.8858
 11
-21.7205
 21
256.7824
  0
LINE
  8
LAYER_2
 10
-21.7205
 20
256.7824
 11
-21.7335
 21
256.6672
  0
LINE
  8
LAYER_2
 10
-21.7335
 20
256.6672
 11
-21.7494
 21
256.5383
  0
LINE
  8
LAYER_2
 10
-21.7494
 20
256.5383
 11
-21.7687
 21
256.3947
  0
LINE
  8
LAYER_2
 10
-21.7687
 20
256.3947
 11
-21.7911
 21
256.235
  0
LINE
  8
LAYER_2
 10
-21.7911
 20
256.235
 11
-21.8176
 21
256.0579
  0
LINE
  8
LAYER_2
 10
-21.8176
 20
256.0579
 11
-21.8504
 21
255.8603
  0
LINE
  8
LAYER_2
 10
-21.8504
 20
255.8603
 11
-21.89
 21
255.6426
  0
LINE
  8
LAYER_2
 10
-21.89
 20
255.6426
 11
-21.9327
 21
255.4271
  0
LINE
  8
LAYER_2
 10
-21.9327
 20
255.4271
 11
-21.9754
 21
255.2361
  0
LINE
  8
LAYER_2
 10
-21.9754
 20
255.2361
 11
-22.0168
 21
255.0664
  0
LINE
  8
LAYER_2
 10
-22.0168
 20
255.0664
 11
-22.0577
 21
254.9155
  0
LINE
  8
LAYER_2
 10
-22.0577
 20
254.9155
 11
-22.098
 21
254.7812
  0
LINE
  8
LAYER_2
 10
-22.098
 20
254.7812
 11
-22.138
 21
254.662
  0
LINE
  8
LAYER_2
 10
-22.138
 20
254.662
 11
-22.177
 21
254.5565
  0
LINE
  8
LAYER_2
 10
-22.177
 20
254.5565
 11
-22.2152
 21
254.4642
  0
LINE
  8
LAYER_2
 10
-22.2152
 20
254.4642
 11
-22.2527
 21
254.3836
  0
LINE
  8
LAYER_2
 10
-22.2527
 20
254.3836
 11
-22.2896
 21
254.3144
  0
LINE
  8
LAYER_2
 10
-21.768
 20
229.3455
 11
-21.7701
 21
229.3579
  0
LINE
  8
LAYER_2
 10
-21.7701
 20
229.3579
 11
-21.7756
 21
229.3701
  0
LINE
  8
LAYER_2
 10
-21.7756
 20
229.3701
 11
-21.7849
 21
229.3824
  0
LINE
  8
LAYER_2
 10
-21.7849
 20
229.3824
 11
-21.798
 21
229.3941
  0
LINE
  8
LAYER_2
 10
-21.798
 20
229.3941
 11
-21.8145
 21
229.4058
  0
LINE
  8
LAYER_2
 10
-21.8145
 20
229.4058
 11
-21.8345
 21
229.417
  0
LINE
  8
LAYER_2
 10
-21.8345
 20
229.417
 11
-21.8579
 21
229.428
  0
LINE
  8
LAYER_2
 10
-21.8579
 20
229.428
 11
-21.8845
 21
229.4384
  0
LINE
  8
LAYER_2
 10
-21.8845
 20
229.4384
 11
-21.9141
 21
229.448
  0
LINE
  8
LAYER_2
 10
-21.9141
 20
229.448
 11
-21.9468
 21
229.4573
  0
LINE
  8
LAYER_2
 10
-21.9468
 20
229.4573
 11
-21.9823
 21
229.4659
  0
LINE
  8
LAYER_2
 10
-21.9823
 20
229.4659
 11
-22.0195
 21
229.4737
  0
LINE
  8
LAYER_2
 10
-22.0195
 20
229.4737
 11
-22.0595
 21
229.4809
  0
LINE
  8
LAYER_2
 10
-22.0595
 20
229.4809
 11
-22.1018
 21
229.4869
  0
LINE
  8
LAYER_2
 10
-22.1018
 20
229.4869
 11
-22.1452
 21
229.4925
  0
LINE
  8
LAYER_2
 10
-22.1452
 20
229.4925
 11
-22.1904
 21
229.4969
  0
LINE
  8
LAYER_2
 10
-22.1904
 20
229.4969
 11
-22.2372
 21
229.5005
  0
LINE
  8
LAYER_2
 10
-22.2372
 20
229.5005
 11
-22.2844
 21
229.5033
  0
LINE
  8
LAYER_2
 10
-22.2844
 20
229.5033
 11
-22.3323
 21
229.505
  0
LINE
  8
LAYER_2
 10
-22.3323
 20
229.505
 11
-22.3805
 21
229.5059
  0
LINE
  8
LAYER_2
 10
-27.276
 20
229.0494
 11
-27.2767
 21
229.0592
  0
LINE
  8
LAYER_2
 10
-27.2767
 20
229.0592
 11
-27.2774
 21
229.0714
  0
LINE
  8
LAYER_2
 10
-27.2774
 20
229.0714
 11
-27.2781
 21
229.0866
  0
LINE
  8
LAYER_2
 10
-27.2781
 20
229.0866
 11
-27.2784
 21
229.1038
  0
LINE
  8
LAYER_2
 10
-27.2784
 20
229.1038
 11
-27.2791
 21
229.1238
  0
LINE
  8
LAYER_2
 10
-27.2791
 20
229.1238
 11
-27.2795
 21
229.1457
  0
LINE
  8
LAYER_2
 10
-27.2795
 20
229.1457
 11
-27.2802
 21
229.1696
  0
LINE
  8
LAYER_2
 10
-27.2802
 20
229.1696
 11
-27.2808
 21
229.1953
  0
LINE
  8
LAYER_2
 10
-27.2808
 20
229.1953
 11
-27.2808
 21
229.2229
  0
LINE
  8
LAYER_2
 10
-27.2808
 20
229.2229
 11
-27.2815
 21
229.2516
  0
LINE
  8
LAYER_2
 10
-27.2815
 20
229.2516
 11
-27.2822
 21
229.2816
  0
LINE
  8
LAYER_2
 10
-27.2822
 20
229.2816
 11
-27.2822
 21
229.3126
  0
LINE
  8
LAYER_2
 10
-27.2822
 20
229.3126
 11
-27.2826
 21
229.3445
  0
LINE
  8
LAYER_2
 10
-27.2826
 20
229.3445
 11
-27.2829
 21
229.3767
  0
LINE
  8
LAYER_2
 10
-27.2829
 20
229.3767
 11
-27.2829
 21
229.4092
  0
LINE
  8
LAYER_2
 10
-27.2829
 20
229.4092
 11
-27.2836
 21
229.4418
  0
LINE
  8
LAYER_2
 10
-27.2836
 20
229.4418
 11
-27.2836
 21
229.474
  0
LINE
  8
LAYER_2
 10
-27.2836
 20
229.474
 11
-27.2836
 21
229.5059
  0
LINE
  8
LAYER_2
 10
-22.3881
 20
229.0494
 11
-22.3874
 21
229.0592
  0
LINE
  8
LAYER_2
 10
-22.3874
 20
229.0592
 11
-22.3867
 21
229.0714
  0
LINE
  8
LAYER_2
 10
-22.3867
 20
229.0714
 11
-22.386
 21
229.0866
  0
LINE
  8
LAYER_2
 10
-22.386
 20
229.0866
 11
-22.3857
 21
229.1038
  0
LINE
  8
LAYER_2
 10
-22.3857
 20
229.1038
 11
-22.385
 21
229.1238
  0
LINE
  8
LAYER_2
 10
-22.385
 20
229.1238
 11
-22.3847
 21
229.1457
  0
LINE
  8
LAYER_2
 10
-22.3847
 20
229.1457
 11
-22.384
 21
229.1696
  0
LINE
  8
LAYER_2
 10
-22.384
 20
229.1696
 11
-22.3833
 21
229.1953
  0
LINE
  8
LAYER_2
 10
-22.3833
 20
229.1953
 11
-22.3833
 21
229.2229
  0
LINE
  8
LAYER_2
 10
-22.3833
 20
229.2229
 11
-22.3826
 21
229.2516
  0
LINE
  8
LAYER_2
 10
-22.3826
 20
229.2516
 11
-22.3819
 21
229.2816
  0
LINE
  8
LAYER_2
 10
-22.3819
 20
229.2816
 11
-22.3819
 21
229.3126
  0
LINE
  8
LAYER_2
 10
-22.3819
 20
229.3126
 11
-22.3816
 21
229.3445
  0
LINE
  8
LAYER_2
 10
-22.3816
 20
229.3445
 11
-22.3812
 21
229.3767
  0
LINE
  8
LAYER_2
 10
-22.3812
 20
229.3767
 11
-22.3809
 21
229.4092
  0
LINE
  8
LAYER_2
 10
-22.3809
 20
229.4092
 11
-22.3809
 21
229.4418
  0
LINE
  8
LAYER_2
 10
-22.3809
 20
229.4418
 11
-22.3809
 21
229.474
  0
LINE
  8
LAYER_2
 10
-22.3809
 20
229.474
 11
-22.3805
 21
229.5059
  0
LINE
  8
LAYER_2
 10
-22.1924
 20
229.0279
 11
-22.2076
 21
229.0279
  0
LINE
  8
LAYER_2
 10
-22.1428
 20
228.9845
 11
-22.1105
 21
228.9859
  0
LINE
  8
LAYER_2
 10
-22.1105
 20
228.9859
 11
-22.0781
 21
228.99
  0
LINE
  8
LAYER_2
 10
-22.0781
 20
228.99
 11
-22.0464
 21
228.997
  0
LINE
  8
LAYER_2
 10
-22.0464
 20
228.997
 11
-22.0154
 21
229.0064
  0
LINE
  8
LAYER_2
 10
-22.0154
 20
229.0064
 11
-21.985
 21
229.0182
  0
LINE
  8
LAYER_2
 10
-21.985
 20
229.0182
 11
-21.9561
 21
229.0329
  0
LINE
  8
LAYER_2
 10
-21.9561
 20
229.0329
 11
-21.9286
 21
229.0499
  0
LINE
  8
LAYER_2
 10
-21.9286
 20
229.0499
 11
-21.9023
 21
229.069
  0
LINE
  8
LAYER_2
 10
-21.9023
 20
229.069
 11
-21.8783
 21
229.0902
  0
LINE
  8
LAYER_2
 10
-21.8783
 20
229.0902
 11
-21.8562
 21
229.1135
  0
LINE
  8
LAYER_2
 10
-21.8562
 20
229.1135
 11
-21.8362
 21
229.1385
  0
LINE
  8
LAYER_2
 10
-21.8362
 20
229.1385
 11
-21.819
 21
229.165
  0
LINE
  8
LAYER_2
 10
-21.819
 20
229.165
 11
-21.8039
 21
229.1929
  0
LINE
  8
LAYER_2
 10
-21.8039
 20
229.1929
 11
-21.7907
 21
229.2218
  0
LINE
  8
LAYER_2
 10
-21.7907
 20
229.2218
 11
-21.7811
 21
229.2521
  0
LINE
  8
LAYER_2
 10
-21.7811
 20
229.2521
 11
-21.7742
 21
229.2827
  0
LINE
  8
LAYER_2
 10
-21.7742
 20
229.2827
 11
-21.7694
 21
229.3142
  0
LINE
  8
LAYER_2
 10
-21.7694
 20
229.3142
 11
-21.768
 21
229.3455
  0
LINE
  8
LAYER_2
 10
-23.2177
 20
257.8923
 11
-23.2191
 21
257.8899
  0
LINE
  8
LAYER_2
 10
-23.2191
 20
257.8899
 11
-23.2239
 21
257.8747
  0
LINE
  8
LAYER_2
 10
-23.2239
 20
257.8747
 11
-23.2267
 21
257.8516
  0
LINE
  8
LAYER_2
 10
-23.2267
 20
257.8516
 11
-23.2267
 21
257.8204
  0
LINE
  8
LAYER_2
 10
-23.2267
 20
257.8204
 11
-23.2246
 21
257.7815
  0
LINE
  8
LAYER_2
 10
-23.2246
 20
257.7815
 11
-23.2198
 21
257.7348
  0
LINE
  8
LAYER_2
 10
-23.2198
 20
257.7348
 11
-23.2122
 21
257.6806
  0
LINE
  8
LAYER_2
 10
-23.2122
 20
257.6806
 11
-23.2025
 21
257.6187
  0
LINE
  8
LAYER_2
 10
-23.2025
 20
257.6187
 11
-23.1898
 21
257.5496
  0
LINE
  8
LAYER_2
 10
-23.1898
 20
257.5496
 11
-23.175
 21
257.4735
  0
LINE
  8
LAYER_2
 10
-23.175
 20
257.4735
 11
-23.1577
 21
257.3905
  0
LINE
  8
LAYER_2
 10
-23.1577
 20
257.3905
 11
-23.1385
 21
257.3009
  0
LINE
  8
LAYER_2
 10
-23.1385
 20
257.3009
 11
-23.1164
 21
257.2048
  0
LINE
  8
LAYER_2
 10
-23.1164
 20
257.2048
 11
-23.0927
 21
257.1028
  0
LINE
  8
LAYER_2
 10
-23.0927
 20
257.1028
 11
-23.0665
 21
256.9948
  0
LINE
  8
LAYER_2
 10
-23.0665
 20
256.9948
 11
-23.0382
 21
256.8813
  0
LINE
  8
LAYER_2
 10
-23.0382
 20
256.8813
 11
-23.0082
 21
256.7626
  0
LINE
  8
LAYER_2
 10
-23.0082
 20
256.7626
 11
-22.9759
 21
256.6391
  0
LINE
  8
LAYER_2
 10
-22.9759
 20
256.6391
 11
-22.9421
 21
256.511
  0
LINE
  8
LAYER_2
 10
-22.9421
 20
256.511
 11
-22.9063
 21
256.3788
  0
LINE
  8
LAYER_2
 10
-22.9063
 20
256.3788
 11
-22.8691
 21
256.2427
  0
LINE
  8
LAYER_2
 10
-22.8691
 20
256.2427
 11
-22.8305
 21
256.1034
  0
LINE
  8
LAYER_2
 10
-22.8305
 20
256.1034
 11
-22.7902
 21
255.9609
  0
LINE
  8
LAYER_2
 10
-22.7902
 20
255.9609
 11
-22.7485
 21
255.8159
  0
LINE
  8
LAYER_2
 10
-22.7485
 20
255.8159
 11
-22.7058
 21
255.6686
  0
LINE
  8
LAYER_2
 10
-22.7058
 20
255.6686
 11
-22.6623
 21
255.5198
  0
LINE
  8
LAYER_2
 10
-22.6623
 20
255.5198
 11
-22.6176
 21
255.3692
  0
LINE
  8
LAYER_2
 10
-22.6176
 20
255.3692
 11
-22.5721
 21
255.218
  0
LINE
  8
LAYER_2
 10
-22.5721
 20
255.218
 11
-22.5259
 21
255.0661
  0
LINE
  8
LAYER_2
 10
-22.5259
 20
255.0661
 11
-22.4791
 21
254.9141
  0
LINE
  8
LAYER_2
 10
-22.4791
 20
254.9141
 11
-22.4322
 21
254.7627
  0
LINE
  8
LAYER_2
 10
-22.4322
 20
254.7627
 11
-22.3847
 21
254.6119
  0
LINE
  8
LAYER_2
 10
-22.3847
 20
254.6119
 11
-22.3371
 21
254.4623
  0
LINE
  8
LAYER_2
 10
-22.3371
 20
254.4623
 11
-22.2896
 21
254.3144
  0
LINE
  8
LAYER_2
 10
-26.4492
 20
257.8935
 11
-26.4472
 21
257.8905
  0
LINE
  8
LAYER_2
 10
-26.4472
 20
257.8905
 11
-26.4416
 21
257.8754
  0
LINE
  8
LAYER_2
 10
-26.4416
 20
257.8754
 11
-26.4382
 21
257.8521
  0
LINE
  8
LAYER_2
 10
-26.4382
 20
257.8521
 11
-26.4375
 21
257.821
  0
LINE
  8
LAYER_2
 10
-26.4375
 20
257.821
 11
-26.4396
 21
257.7818
  0
LINE
  8
LAYER_2
 10
-26.4396
 20
257.7818
 11
-26.444
 21
257.7353
  0
LINE
  8
LAYER_2
 10
-26.444
 20
257.7353
 11
-26.4513
 21
257.6811
  0
LINE
  8
LAYER_2
 10
-26.4513
 20
257.6811
 11
-26.4606
 21
257.6196
  0
LINE
  8
LAYER_2
 10
-26.4606
 20
257.6196
 11
-26.4726
 21
257.5505
  0
LINE
  8
LAYER_2
 10
-26.4726
 20
257.5505
 11
-26.4871
 21
257.4747
  0
LINE
  8
LAYER_2
 10
-26.4871
 20
257.4747
 11
-26.504
 21
257.392
  0
LINE
  8
LAYER_2
 10
-26.504
 20
257.392
 11
-26.5229
 21
257.3028
  0
LINE
  8
LAYER_2
 10
-26.5229
 20
257.3028
 11
-26.5443
 21
257.2072
  0
LINE
  8
LAYER_2
 10
-26.5443
 20
257.2072
 11
-26.5684
 21
257.1054
  0
LINE
  8
LAYER_2
 10
-26.5684
 20
257.1054
 11
-26.5943
 21
256.9979
  0
LINE
  8
LAYER_2
 10
-26.5943
 20
256.9979
 11
-26.6222
 21
256.8849
  0
LINE
  8
LAYER_2
 10
-26.6222
 20
256.8849
 11
-26.6525
 21
256.7668
  0
LINE
  8
LAYER_2
 10
-26.6525
 20
256.7668
 11
-26.6845
 21
256.6437
  0
LINE
  8
LAYER_2
 10
-26.6845
 20
256.6437
 11
-26.7183
 21
256.5163
  0
LINE
  8
LAYER_2
 10
-26.7183
 20
256.5163
 11
-26.7537
 21
256.3847
  0
LINE
  8
LAYER_2
 10
-26.7537
 20
256.3847
 11
-26.7916
 21
256.2495
  0
LINE
  8
LAYER_2
 10
-26.7916
 20
256.2495
 11
-26.8302
 21
256.1108
  0
LINE
  8
LAYER_2
 10
-26.8302
 20
256.1108
 11
-26.8706
 21
255.969
  0
LINE
  8
LAYER_2
 10
-26.8706
 20
255.969
 11
-26.9122
 21
255.8249
  0
LINE
  8
LAYER_2
 10
-26.9122
 20
255.8249
 11
-26.9549
 21
255.6783
  0
LINE
  8
LAYER_2
 10
-26.9549
 20
255.6783
 11
-26.999
 21
255.5301
  0
LINE
  8
LAYER_2
 10
-26.999
 20
255.5301
 11
-27.0438
 21
255.3808
  0
LINE
  8
LAYER_2
 10
-27.0438
 20
255.3808
 11
-27.09
 21
255.2304
  0
LINE
  8
LAYER_2
 10
-27.09
 20
255.2304
 11
-27.1362
 21
255.0792
  0
LINE
  8
LAYER_2
 10
-27.1362
 20
255.0792
 11
-27.1834
 21
254.9283
  0
LINE
  8
LAYER_2
 10
-27.1834
 20
254.9283
 11
-27.2306
 21
254.7774
  0
LINE
  8
LAYER_2
 10
-27.2306
 20
254.7774
 11
-27.2788
 21
254.6277
  0
LINE
  8
LAYER_2
 10
-27.2788
 20
254.6277
 11
-27.3263
 21
254.4789
  0
LINE
  8
LAYER_2
 10
-27.3263
 20
254.4789
 11
-27.3746
 21
254.3317
  0
LINE
  8
LAYER_2
 10
-27.5213
 20
228.0445
 11
-27.5199
 21
228.0383
  0
LINE
  8
LAYER_2
 10
-27.5199
 20
228.0383
 11
-27.5165
 21
228.0319
  0
LINE
  8
LAYER_2
 10
-27.5165
 20
228.0319
 11
-27.5103
 21
228.0257
  0
LINE
  8
LAYER_2
 10
-27.5103
 20
228.0257
 11
-27.502
 21
228.0197
  0
LINE
  8
LAYER_2
 10
-27.502
 20
228.0197
 11
-27.491
 21
228.0138
  0
LINE
  8
LAYER_2
 10
-27.491
 20
228.0138
 11
-27.4782
 21
228.0083
  0
LINE
  8
LAYER_2
 10
-27.4782
 20
228.0083
 11
-27.4634
 21
228.0031
  0
LINE
  8
LAYER_2
 10
-27.4634
 20
228.0031
 11
-27.4469
 21
227.9985
  0
LINE
  8
LAYER_2
 10
-27.4469
 20
227.9985
 11
-27.4283
 21
227.994
  0
LINE
  8
LAYER_2
 10
-27.4283
 20
227.994
 11
-27.4083
 21
227.9904
  0
LINE
  8
LAYER_2
 10
-27.4083
 20
227.9904
 11
-27.3877
 21
227.9873
  0
LINE
  8
LAYER_2
 10
-27.276
 20
229.0494
 11
-27.2995
 21
229.0489
  0
LINE
  8
LAYER_2
 10
-27.2995
 20
229.0489
 11
-27.3232
 21
229.0478
  0
LINE
  8
LAYER_2
 10
-27.3232
 20
229.0478
 11
-27.3467
 21
229.0463
  0
LINE
  8
LAYER_2
 10
-27.3467
 20
229.0463
 11
-27.3697
 21
229.0442
  0
LINE
  8
LAYER_2
 10
-27.3697
 20
229.0442
 11
-27.3918
 21
229.0413
  0
LINE
  8
LAYER_2
 10
-27.3918
 20
229.0413
 11
-27.4125
 21
229.038
  0
LINE
  8
LAYER_2
 10
-27.4125
 20
229.038
 11
-27.4318
 21
229.0343
  0
LINE
  8
LAYER_2
 10
-27.4318
 20
229.0343
 11
-27.4497
 21
229.0298
  0
LINE
  8
LAYER_2
 10
-27.4497
 20
229.0298
 11
-27.4659
 21
229.0253
  0
LINE
  8
LAYER_2
 10
-27.4659
 20
229.0253
 11
-27.48
 21
229.0201
  0
LINE
  8
LAYER_2
 10
-27.48
 20
229.0201
 11
-27.4924
 21
229.0146
  0
LINE
  8
LAYER_2
 10
-27.4924
 20
229.0146
 11
-27.5027
 21
229.0089
  0
LINE
  8
LAYER_2
 10
-27.5027
 20
229.0089
 11
-27.511
 21
229.0029
  0
LINE
  8
LAYER_2
 10
-27.511
 20
229.0029
 11
-27.5165
 21
228.9969
  0
LINE
  8
LAYER_2
 10
-27.5165
 20
228.9969
 11
-27.5199
 21
228.9907
  0
LINE
  8
LAYER_2
 10
-27.5199
 20
228.9907
 11
-27.5213
 21
228.9845
  0
LINE
  8
LAYER_2
 10
-27.5213
 20
228.9845
 11
-27.5537
 21
228.9859
  0
LINE
  8
LAYER_2
 10
-27.5537
 20
228.9859
 11
-27.5861
 21
228.99
  0
LINE
  8
LAYER_2
 10
-27.5861
 20
228.99
 11
-27.6178
 21
228.997
  0
LINE
  8
LAYER_2
 10
-27.6178
 20
228.997
 11
-27.6491
 21
229.0064
  0
LINE
  8
LAYER_2
 10
-27.6491
 20
229.0064
 11
-27.6791
 21
229.0182
  0
LINE
  8
LAYER_2
 10
-27.6791
 20
229.0182
 11
-27.708
 21
229.0329
  0
LINE
  8
LAYER_2
 10
-27.708
 20
229.0329
 11
-27.7356
 21
229.0499
  0
LINE
  8
LAYER_2
 10
-27.7356
 20
229.0499
 11
-27.7618
 21
229.069
  0
LINE
  8
LAYER_2
 10
-27.7618
 20
229.069
 11
-27.7859
 21
229.0902
  0
LINE
  8
LAYER_2
 10
-27.7859
 20
229.0902
 11
-27.808
 21
229.1135
  0
LINE
  8
LAYER_2
 10
-27.808
 20
229.1135
 11
-27.8279
 21
229.1385
  0
LINE
  8
LAYER_2
 10
-27.8279
 20
229.1385
 11
-27.8452
 21
229.165
  0
LINE
  8
LAYER_2
 10
-27.8452
 20
229.165
 11
-27.8603
 21
229.1929
  0
LINE
  8
LAYER_2
 10
-27.8603
 20
229.1929
 11
-27.8734
 21
229.2218
  0
LINE
  8
LAYER_2
 10
-27.8734
 20
229.2218
 11
-27.8831
 21
229.2521
  0
LINE
  8
LAYER_2
 10
-27.8831
 20
229.2521
 11
-27.8903
 21
229.2827
  0
LINE
  8
LAYER_2
 10
-27.8903
 20
229.2827
 11
-27.8948
 21
229.3142
  0
LINE
  8
LAYER_2
 10
-27.8948
 20
229.3142
 11
-27.8961
 21
229.3455
  0
LINE
  8
LAYER_2
 10
-22.1428
 20
228.0445
 11
-22.1105
 21
228.0459
  0
LINE
  8
LAYER_2
 10
-22.1105
 20
228.0459
 11
-22.0781
 21
228.05
  0
LINE
  8
LAYER_2
 10
-22.0781
 20
228.05
 11
-22.0464
 21
228.0567
  0
LINE
  8
LAYER_2
 10
-22.0464
 20
228.0567
 11
-22.0154
 21
228.0662
  0
LINE
  8
LAYER_2
 10
-22.0154
 20
228.0662
 11
-21.985
 21
228.0782
  0
LINE
  8
LAYER_2
 10
-21.985
 20
228.0782
 11
-21.9561
 21
228.0927
  0
LINE
  8
LAYER_2
 10
-21.9561
 20
228.0927
 11
-21.9286
 21
228.1096
  0
LINE
  8
LAYER_2
 10
-21.9286
 20
228.1096
 11
-21.9023
 21
228.1287
  0
LINE
  8
LAYER_2
 10
-21.9023
 20
228.1287
 11
-21.8783
 21
228.1499
  0
LINE
  8
LAYER_2
 10
-21.8783
 20
228.1499
 11
-21.8562
 21
228.1733
  0
LINE
  8
LAYER_2
 10
-21.8562
 20
228.1733
 11
-21.8362
 21
228.1983
  0
LINE
  8
LAYER_2
 10
-21.8362
 20
228.1983
 11
-21.819
 21
228.2248
  0
LINE
  8
LAYER_2
 10
-21.819
 20
228.2248
 11
-21.8039
 21
228.2527
  0
LINE
  8
LAYER_2
 10
-21.8039
 20
228.2527
 11
-21.7907
 21
228.2818
  0
LINE
  8
LAYER_2
 10
-21.7907
 20
228.2818
 11
-21.7811
 21
228.312
  0
LINE
  8
LAYER_2
 10
-21.7811
 20
228.312
 11
-21.7742
 21
228.3426
  0
LINE
  8
LAYER_2
 10
-21.7742
 20
228.3426
 11
-21.7694
 21
228.3738
  0
LINE
  8
LAYER_2
 10
-21.7694
 20
228.3738
 11
-21.7687
 21
228.3855
  0
LINE
  8
LAYER_2
 10
-22.3189
 20
227.9826
 11
-22.1924
 21
227.9826
  0
LINE
  8
LAYER_2
 10
-22.1924
 20
227.9826
 11
-22.1924
 21
228.0059
  0
LINE
  8
LAYER_2
 10
-27.3877
 20
227.9826
 11
-27.3453
 21
227.9826
  0
LINE
  8
LAYER_2
 10
-27.5213
 20
228.0445
 11
-27.5537
 21
228.0459
  0
LINE
  8
LAYER_2
 10
-27.5537
 20
228.0459
 11
-27.5861
 21
228.05
  0
LINE
  8
LAYER_2
 10
-27.5861
 20
228.05
 11
-27.6178
 21
228.0567
  0
LINE
  8
LAYER_2
 10
-27.6178
 20
228.0567
 11
-27.6491
 21
228.0662
  0
LINE
  8
LAYER_2
 10
-27.6491
 20
228.0662
 11
-27.6791
 21
228.0782
  0
LINE
  8
LAYER_2
 10
-27.6791
 20
228.0782
 11
-27.708
 21
228.0927
  0
LINE
  8
LAYER_2
 10
-27.708
 20
228.0927
 11
-27.7356
 21
228.1096
  0
LINE
  8
LAYER_2
 10
-27.7356
 20
228.1096
 11
-27.7618
 21
228.1287
  0
LINE
  8
LAYER_2
 10
-27.7618
 20
228.1287
 11
-27.7859
 21
228.1499
  0
LINE
  8
LAYER_2
 10
-27.7859
 20
228.1499
 11
-27.808
 21
228.1733
  0
LINE
  8
LAYER_2
 10
-27.808
 20
228.1733
 11
-27.8279
 21
228.1983
  0
LINE
  8
LAYER_2
 10
-27.8279
 20
228.1983
 11
-27.8452
 21
228.2248
  0
LINE
  8
LAYER_2
 10
-27.8452
 20
228.2248
 11
-27.8603
 21
228.2527
  0
LINE
  8
LAYER_2
 10
-27.8603
 20
228.2527
 11
-27.8734
 21
228.2818
  0
LINE
  8
LAYER_2
 10
-27.8734
 20
228.2818
 11
-27.8831
 21
228.312
  0
LINE
  8
LAYER_2
 10
-27.8831
 20
228.312
 11
-27.8903
 21
228.3426
  0
LINE
  8
LAYER_2
 10
-27.8903
 20
228.3426
 11
-27.8948
 21
228.3738
  0
LINE
  8
LAYER_2
 10
-27.8948
 20
228.3738
 11
-27.8958
 21
228.3893
  0
LINE
  8
LAYER_2
 10
-22.2076
 20
229.0279
 11
-22.2228
 21
229.032
  0
LINE
  8
LAYER_2
 10
-22.2228
 20
229.032
 11
-22.2403
 21
229.0358
  0
LINE
  8
LAYER_2
 10
-22.2403
 20
229.0358
 11
-22.2589
 21
229.0392
  0
LINE
  8
LAYER_2
 10
-22.2589
 20
229.0392
 11
-22.2789
 21
229.0422
  0
LINE
  8
LAYER_2
 10
-22.2789
 20
229.0422
 11
-22.2999
 21
229.0446
  0
LINE
  8
LAYER_2
 10
-22.2999
 20
229.0446
 11
-22.3216
 21
229.0466
  0
LINE
  8
LAYER_2
 10
-22.3216
 20
229.0466
 11
-22.344
 21
229.048
  0
LINE
  8
LAYER_2
 10
-22.344
 20
229.048
 11
-22.3661
 21
229.0489
  0
LINE
  8
LAYER_2
 10
-22.3661
 20
229.0489
 11
-22.3881
 21
229.0494
  0
LINE
  8
LAYER_2
 10
-22.1428
 20
228.9845
 11
-22.1442
 21
228.9905
  0
LINE
  8
LAYER_2
 10
-22.1442
 20
228.9905
 11
-22.147
 21
228.9963
  0
LINE
  8
LAYER_2
 10
-22.147
 20
228.9963
 11
-22.1525
 21
229.0022
  0
LINE
  8
LAYER_2
 10
-22.1525
 20
229.0022
 11
-22.1597
 21
229.0079
  0
LINE
  8
LAYER_2
 10
-22.1597
 20
229.0079
 11
-22.169
 21
229.0132
  0
LINE
  8
LAYER_2
 10
-22.169
 20
229.0132
 11
-22.1801
 21
229.0184
  0
LINE
  8
LAYER_2
 10
-22.1801
 20
229.0184
 11
-22.1924
 21
229.0232
  0
LINE
  8
LAYER_2
 10
-22.1924
 20
228.0059
 11
-22.1801
 21
228.0107
  0
LINE
  8
LAYER_2
 10
-22.1801
 20
228.0107
 11
-22.169
 21
228.0159
  0
LINE
  8
LAYER_2
 10
-22.169
 20
228.0159
 11
-22.1597
 21
228.0214
  0
LINE
  8
LAYER_2
 10
-22.1597
 20
228.0214
 11
-22.1525
 21
228.0269
  0
LINE
  8
LAYER_2
 10
-22.1525
 20
228.0269
 11
-22.147
 21
228.0329
  0
LINE
  8
LAYER_2
 10
-22.147
 20
228.0329
 11
-22.1442
 21
228.0386
  0
LINE
  8
LAYER_2
 10
-22.1442
 20
228.0386
 11
-22.1428
 21
228.0445
  0
LINE
  8
LAYER_2
 10
-27.3453
 20
227.9826
 11
-27.3208
 21
227.9809
  0
LINE
  8
LAYER_2
 10
-27.3208
 20
227.9809
 11
-27.296
 21
227.9801
  0
LINE
  8
LAYER_2
 10
-27.296
 20
227.9801
 11
-27.2712
 21
227.9797
  0
LINE
  8
LAYER_2
 10
-22.2896
 20
254.3144
 11
-22.5624
 21
254.2367
  0
LINE
  8
LAYER_2
 10
-22.5624
 20
254.2367
 11
-22.8467
 21
254.1678
  0
LINE
  8
LAYER_2
 10
-22.8467
 20
254.1678
 11
-23.1423
 21
254.1077
  0
LINE
  8
LAYER_2
 10
-23.1423
 20
254.1077
 11
-23.4499
 21
254.0572
  0
LINE
  8
LAYER_2
 10
-23.4499
 20
254.0572
 11
-23.5822
 21
254.0391
  0
LINE
  8
LAYER_2
 10
-22.3805
 20
229.5059
 11
-22.3743
 21
231.3116
  0
LINE
  8
LAYER_2
 10
-22.3743
 20
231.3116
 11
-22.3509
 21
237.6437
  0
LINE
  8
LAYER_2
 10
-22.3509
 20
237.6437
 11
-22.3206
 21
245.9118
  0
LINE
  8
LAYER_2
 10
-22.3206
 20
245.9118
 11
-22.2896
 21
254.3144
  0
LINE
  8
LAYER_2
 10
-27.2836
 20
229.5059
 11
-27.2898
 21
231.3116
  0
LINE
  8
LAYER_2
 10
-27.2898
 20
231.3116
 11
-27.3132
 21
237.6494
  0
LINE
  8
LAYER_2
 10
-27.3132
 20
237.6494
 11
-27.3436
 21
245.9232
  0
LINE
  8
LAYER_2
 10
-27.3436
 20
245.9232
 11
-27.3746
 21
254.3317
  0
LINE
  8
LAYER_2
 10
-26.082
 20
254.0458
 11
-26.1733
 21
254.0591
  0
LINE
  8
LAYER_2
 10
-26.1733
 20
254.0591
 11
-26.4857
 21
254.1116
  0
LINE
  8
LAYER_2
 10
-26.4857
 20
254.1116
 11
-26.7903
 21
254.175
  0
LINE
  8
LAYER_2
 10
-26.7903
 20
254.175
 11
-27.0866
 21
254.2484
  0
LINE
  8
LAYER_2
 10
-27.0866
 20
254.2484
 11
-27.3746
 21
254.3317
  0
LINE
  8
LAYER_2
 10
-27.3746
 20
254.3317
 11
-27.4118
 21
254.4025
  0
LINE
  8
LAYER_2
 10
-27.4118
 20
254.4025
 11
-27.4497
 21
254.4844
  0
LINE
  8
LAYER_2
 10
-27.4497
 20
254.4844
 11
-27.4882
 21
254.5784
  0
LINE
  8
LAYER_2
 10
-27.4882
 20
254.5784
 11
-27.5275
 21
254.6854
  0
LINE
  8
LAYER_2
 10
-27.5275
 20
254.6854
 11
-27.5675
 21
254.8063
  0
LINE
  8
LAYER_2
 10
-27.5675
 20
254.8063
 11
-27.6081
 21
254.9422
  0
LINE
  8
LAYER_2
 10
-27.6081
 20
254.9422
 11
-27.6495
 21
255.0954
  0
LINE
  8
LAYER_2
 10
-27.6495
 20
255.0954
 11
-27.6912
 21
255.2664
  0
LINE
  8
LAYER_2
 10
-27.6912
 20
255.2664
 11
-27.7332
 21
255.4573
  0
LINE
  8
LAYER_2
 10
-27.7332
 20
255.4573
 11
-27.7762
 21
255.6717
  0
LINE
  8
LAYER_2
 10
-27.7762
 20
255.6717
 11
-27.8162
 21
255.8927
  0
LINE
  8
LAYER_2
 10
-27.8162
 20
255.8927
 11
-27.8486
 21
256.0925
  0
LINE
  8
LAYER_2
 10
-27.8486
 20
256.0925
 11
-27.8755
 21
256.2686
  0
LINE
  8
LAYER_2
 10
-27.8755
 20
256.2686
 11
-27.8975
 21
256.4253
  0
LINE
  8
LAYER_2
 10
-27.8975
 20
256.4253
 11
-27.9161
 21
256.5657
  0
LINE
  8
LAYER_2
 10
-27.9161
 20
256.5657
 11
-27.9316
 21
256.6917
  0
LINE
  8
LAYER_2
 10
-27.9316
 20
256.6917
 11
-27.9447
 21
256.8046
  0
LINE
  8
LAYER_2
 10
-27.9447
 20
256.8046
 11
-27.9557
 21
256.9056
  0
LINE
  8
LAYER_2
 10
-27.9557
 20
256.9056
 11
-27.965
 21
256.996
  0
LINE
  8
LAYER_2
 10
-27.965
 20
256.996
 11
-27.9726
 21
257.0765
  0
LINE
  8
LAYER_2
 10
-27.9726
 20
257.0765
 11
-27.9795
 21
257.1485
  0
LINE
  8
LAYER_2
 10
-27.9795
 20
257.1485
 11
-27.985
 21
257.2122
  0
LINE
  8
LAYER_2
 10
-27.985
 20
257.2122
 11
-27.9892
 21
257.2689
  0
LINE
  8
LAYER_2
 10
-27.9892
 20
257.2689
 11
-27.9926
 21
257.3186
  0
LINE
  8
LAYER_2
 10
-27.9926
 20
257.3186
 11
-27.9954
 21
257.3624
  0
LINE
  8
LAYER_2
 10
-27.9954
 20
257.3624
 11
-27.9974
 21
257.4005
  0
LINE
  8
LAYER_2
 10
-27.9974
 20
257.4005
 11
-27.9985
 21
257.4327
  0
LINE
  8
LAYER_2
 10
-27.9985
 20
257.4327
 11
-27.9988
 21
257.4597
  0
ARC
  8
LAYER_2
 10
-24.7123
 20
262.6486
 40
4.757
 50
181.042339
 51
249.1179846
  0
ARC
  8
LAYER_2
 10
-24.837
 20
262.562
 40
4.6315
 50
89.99887095
 51
179.9986548
  0
ARC
  8
LAYER_2
 10
-24.837
 20
262.5622
 40
4.6313
 50
359.9988228
 51
89.9987029
  0
ARC
  8
LAYER_2
 10
-24.9559
 20
262.6444
 40
4.7509
 50
290.7564114
 51
359.0078887
  0
LINE
  8
LAYER_2
 10
65.1175
 20
172.734
 11
77.1171
 21
172.734
  0
LINE
  8
LAYER_2
 10
77.8326
 20
219.4839
 11
89.2469
 21
219.4839
  0
LINE
  8
LAYER_2
 10
13.4183
 20
172.734
 11
63.9627
 21
172.734
  0
LINE
  8
LAYER_2
 10
20.9417
 20
203.2339
 11
38.1176
 21
203.2339
  0
LINE
  8
LAYER_2
 10
28.4799
 20
202.734
 11
40.1715
 21
202.734
  0
LINE
  8
LAYER_2
 10
13.4038
 20
226.484
 11
56.38
 21
226.484
  0
LINE
  8
LAYER_2
 10
77.1171
 20
173.484
 11
65.1175
 21
173.484
  0
LINE
  8
LAYER_2
 10
76.867
 20
173.7337
 11
65.3673
 21
173.7337
  0
LINE
  8
LAYER_2
 10
66.1799
 20
173.8588
 11
76.0546
 21
173.8588
  0
LINE
  8
LAYER_2
 10
77.1171
 20
173.484
 11
77.1171
 21
172.734
  0
LINE
  8
LAYER_2
 10
76.292
 20
194.2834
 11
76.292
 21
195.1833
  0
LINE
  8
LAYER_2
 10
76.0922
 20
195.5832
 11
76.0922
 21
193.8834
  0
LINE
  8
LAYER_2
 10
76.0546
 20
177.8648
 11
76.0546
 21
193.7959
  0
LINE
  8
LAYER_2
 10
76.0546
 20
173.8588
 11
76.0546
 21
176.599
  0
LINE
  8
LAYER_2
 10
76.0546
 20
195.6711
 11
76.0546
 21
217.2036
  0
LINE
  8
LAYER_2
 10
76.0546
 20
217.5588
 11
76.0546
 21
219.1839
  0
LINE
  8
LAYER_2
 10
76.017
 20
195.4475
 11
76.017
 21
194.0192
  0
LINE
  8
LAYER_2
 10
74.2708
 20
176.6087
 11
76.5138
 21
176.6087
  0
LINE
  8
LAYER_2
 10
75.1468
 20
217.484
 11
75.1468
 21
217.3287
  0
LINE
  8
LAYER_2
 10
73.7901
 20
177.8586
 11
76.5138
 21
177.8586
  0
LINE
  8
LAYER_2
 10
67.0877
 20
217.484
 11
67.0877
 21
217.3287
  0
LINE
  8
LAYER_2
 10
66.4686
 20
217.7841
 11
66.4686
 21
219.1839
  0
LINE
  8
LAYER_2
 10
66.1799
 20
206.6199
 11
66.1799
 21
217.2036
  0
LINE
  8
LAYER_2
 10
65.8802
 20
217.7841
 11
65.8802
 21
219.4839
  0
LINE
  8
LAYER_2
 10
66.1799
 20
173.8588
 11
66.1799
 21
193.5579
  0
LINE
  8
LAYER_2
 10
66.1799
 20
193.5579
 11
66.1786
 21
193.6654
  0
LINE
  8
LAYER_2
 10
66.1786
 20
193.6654
 11
66.1748
 21
193.7801
  0
LINE
  8
LAYER_2
 10
66.1748
 20
193.7801
 11
66.1682
 21
193.8945
  0
LINE
  8
LAYER_2
 10
66.1682
 20
193.8945
 11
66.1589
 21
194.0085
  0
LINE
  8
LAYER_2
 10
66.1589
 20
194.0085
 11
66.1472
 21
194.1225
  0
LINE
  8
LAYER_2
 10
66.1472
 20
194.1225
 11
66.1327
 21
194.2362
  0
LINE
  8
LAYER_2
 10
66.1327
 20
194.2362
 11
66.1155
 21
194.3495
  0
LINE
  8
LAYER_2
 10
66.1155
 20
194.3495
 11
66.0959
 21
194.4625
  0
LINE
  8
LAYER_2
 10
66.0959
 20
194.4625
 11
66.0735
 21
194.5749
  0
LINE
  8
LAYER_2
 10
66.0735
 20
194.5749
 11
66.0483
 21
194.6868
  0
LINE
  8
LAYER_2
 10
66.0483
 20
194.6868
 11
66.0208
 21
194.7977
  0
LINE
  8
LAYER_2
 10
66.0208
 20
194.7977
 11
65.9905
 21
194.9083
  0
LINE
  8
LAYER_2
 10
65.9905
 20
194.9083
 11
65.9577
 21
195.0182
  0
LINE
  8
LAYER_2
 10
65.9577
 20
195.0182
 11
65.9226
 21
195.1275
  0
LINE
  8
LAYER_2
 10
65.9226
 20
195.1275
 11
65.8847
 21
195.2356
  0
LINE
  8
LAYER_2
 10
65.8847
 20
195.2356
 11
65.8444
 21
195.3428
  0
LINE
  8
LAYER_2
 10
65.8444
 20
195.3428
 11
65.8017
 21
195.4492
  0
LINE
  8
LAYER_2
 10
65.8017
 20
195.4492
 11
65.7562
 21
195.5543
  0
LINE
  8
LAYER_2
 10
65.7562
 20
195.5543
 11
65.7086
 21
195.6587
  0
LINE
  8
LAYER_2
 10
65.7086
 20
195.6587
 11
65.6587
 21
195.7617
  0
LINE
  8
LAYER_2
 10
65.6587
 20
195.7617
 11
65.606
 21
195.8633
  0
LINE
  8
LAYER_2
 10
65.606
 20
195.8633
 11
65.5512
 21
195.9639
  0
LINE
  8
LAYER_2
 10
65.5512
 20
195.9639
 11
65.494
 21
196.0635
  0
LINE
  8
LAYER_2
 10
65.494
 20
196.0635
 11
65.4344
 21
196.1613
  0
LINE
  8
LAYER_2
 10
65.4344
 20
196.1613
 11
65.3728
 21
196.2578
  0
LINE
  8
LAYER_2
 10
65.3728
 20
196.2578
 11
65.3087
 21
196.3529
  0
LINE
  8
LAYER_2
 10
65.3087
 20
196.3529
 11
65.2425
 21
196.4466
  0
LINE
  8
LAYER_2
 10
65.2425
 20
196.4466
 11
65.1743
 21
196.5386
  0
LINE
  8
LAYER_2
 10
65.1743
 20
196.5386
 11
65.1037
 21
196.6292
  0
LINE
  8
LAYER_2
 10
65.1037
 20
196.6292
 11
65.0313
 21
196.7177
  0
LINE
  8
LAYER_2
 10
65.0313
 20
196.7177
 11
64.9569
 21
196.8049
  0
LINE
  8
LAYER_2
 10
64.9569
 20
196.8049
 11
64.8801
 21
196.89
  0
LINE
  8
LAYER_2
 10
64.8801
 20
196.89
 11
64.8016
 21
196.9733
  0
LINE
  8
LAYER_2
 10
64.8016
 20
196.9733
 11
64.7213
 21
197.055
  0
LINE
  8
LAYER_2
 10
64.7213
 20
197.055
 11
64.6386
 21
197.1345
  0
LINE
  8
LAYER_2
 10
64.6386
 20
197.1345
 11
64.5546
 21
197.2124
  0
LINE
  8
LAYER_2
 10
64.5546
 20
197.2124
 11
64.4688
 21
197.2882
  0
LINE
  8
LAYER_2
 10
64.4688
 20
197.2882
 11
64.3809
 21
197.3619
  0
LINE
  8
LAYER_2
 10
64.3809
 20
197.3619
 11
64.2917
 21
197.4336
  0
LINE
  8
LAYER_2
 10
64.2917
 20
197.4336
 11
64.2007
 21
197.5032
  0
LINE
  8
LAYER_2
 10
64.2007
 20
197.5032
 11
64.1077
 21
197.5707
  0
LINE
  8
LAYER_2
 10
64.1077
 20
197.5707
 11
64.0137
 21
197.6362
  0
LINE
  8
LAYER_2
 10
64.0137
 20
197.6362
 11
63.9179
 21
197.6992
  0
LINE
  8
LAYER_2
 10
63.9179
 20
197.6992
 11
63.8211
 21
197.7602
  0
LINE
  8
LAYER_2
 10
63.8211
 20
197.7602
 11
63.7226
 21
197.8184
  0
LINE
  8
LAYER_2
 10
63.7226
 20
197.8184
 11
63.6227
 21
197.8749
  0
LINE
  8
LAYER_2
 10
63.6227
 20
197.8749
 11
63.5213
 21
197.9286
  0
LINE
  8
LAYER_2
 10
63.5213
 20
197.9286
 11
63.419
 21
197.9803
  0
LINE
  8
LAYER_2
 10
63.419
 20
197.9803
 11
63.3154
 21
198.0296
  0
LINE
  8
LAYER_2
 10
63.3154
 20
198.0296
 11
63.211
 21
198.0761
  0
LINE
  8
LAYER_2
 10
63.211
 20
198.0761
 11
63.1052
 21
198.1206
  0
LINE
  8
LAYER_2
 10
63.1052
 20
198.1206
 11
62.9984
 21
198.1622
  0
LINE
  8
LAYER_2
 10
62.9984
 20
198.1622
 11
62.8909
 21
198.2015
  0
LINE
  8
LAYER_2
 10
62.8909
 20
198.2015
 11
62.7824
 21
198.2384
  0
LINE
  8
LAYER_2
 10
62.7824
 20
198.2384
 11
62.6732
 21
198.2725
  0
LINE
  8
LAYER_2
 10
62.6732
 20
198.2725
 11
62.5864
 21
198.2976
  0
LINE
  8
LAYER_2
 10
65.1175
 20
173.484
 11
65.1175
 21
172.734
  0
LINE
  8
LAYER_2
 10
36.7984
 20
205.4086
 11
39.6241
 21
204.6297
  0
LINE
  8
LAYER_2
 10
40.0954
 20
204.4995
 11
62.9753
 21
198.1908
  0
LINE
  8
LAYER_2
 10
36.9617
 20
206.0119
 11
65.6873
 21
198.0913
  0
LINE
  8
LAYER_2
 10
36.6007
 20
206.1087
 11
36.9617
 21
206.0119
  0
LINE
  8
LAYER_2
 10
52.1178
 20
217.484
 11
52.1178
 21
219.4839
  0
LINE
  8
LAYER_2
 10
51.8676
 20
217.7338
 11
51.8676
 21
219.2338
  0
LINE
  8
LAYER_2
 10
37.5408
 20
209.6172
 11
37.9019
 21
209.5207
  0
LINE
  8
LAYER_2
 10
38.0683
 20
210.1477
 11
62.5185
 21
203.7887
  0
LINE
  8
LAYER_2
 10
62.5185
 20
203.7887
 11
62.5898
 21
203.7712
  0
LINE
  8
LAYER_2
 10
62.5898
 20
203.7712
 11
62.6666
 21
203.7543
  0
LINE
  8
LAYER_2
 10
62.6666
 20
203.7543
 11
62.7438
 21
203.7399
  0
LINE
  8
LAYER_2
 10
62.7438
 20
203.7399
 11
62.8213
 21
203.7268
  0
LINE
  8
LAYER_2
 10
62.8213
 20
203.7268
 11
62.8995
 21
203.7164
  0
LINE
  8
LAYER_2
 10
62.8995
 20
203.7164
 11
62.9777
 21
203.7078
  0
LINE
  8
LAYER_2
 10
62.9777
 20
203.7078
 11
63.0563
 21
203.7013
  0
LINE
  8
LAYER_2
 10
63.0563
 20
203.7013
 11
63.1348
 21
203.6971
  0
LINE
  8
LAYER_2
 10
63.1348
 20
203.6971
 11
63.2134
 21
203.695
  0
LINE
  8
LAYER_2
 10
63.2134
 20
203.695
 11
63.2919
 21
203.695
  0
LINE
  8
LAYER_2
 10
63.2919
 20
203.695
 11
63.3705
 21
203.6971
  0
LINE
  8
LAYER_2
 10
63.3705
 20
203.6971
 11
63.449
 21
203.7013
  0
LINE
  8
LAYER_2
 10
63.449
 20
203.7013
 11
63.5276
 21
203.7075
  0
LINE
  8
LAYER_2
 10
63.5276
 20
203.7075
 11
63.6058
 21
203.7157
  0
LINE
  8
LAYER_2
 10
63.6058
 20
203.7157
 11
63.6836
 21
203.7264
  0
LINE
  8
LAYER_2
 10
63.6836
 20
203.7264
 11
63.7615
 21
203.7388
  0
LINE
  8
LAYER_2
 10
63.7615
 20
203.7388
 11
63.8387
 21
203.7536
  0
LINE
  8
LAYER_2
 10
63.8387
 20
203.7536
 11
63.9158
 21
203.7702
  0
LINE
  8
LAYER_2
 10
63.9158
 20
203.7702
 11
63.9919
 21
203.7891
  0
LINE
  8
LAYER_2
 10
63.9919
 20
203.7891
 11
64.0678
 21
203.8101
  0
LINE
  8
LAYER_2
 10
64.0678
 20
203.8101
 11
64.1432
 21
203.8328
  0
LINE
  8
LAYER_2
 10
64.1432
 20
203.8328
 11
64.2176
 21
203.8577
  0
LINE
  8
LAYER_2
 10
64.2176
 20
203.8577
 11
64.2917
 21
203.8845
  0
LINE
  8
LAYER_2
 10
64.2917
 20
203.8845
 11
64.3647
 21
203.9135
  0
LINE
  8
LAYER_2
 10
64.3647
 20
203.9135
 11
64.4371
 21
203.9445
  0
LINE
  8
LAYER_2
 10
64.4371
 20
203.9445
 11
64.5087
 21
203.9772
  0
LINE
  8
LAYER_2
 10
64.5087
 20
203.9772
 11
64.5794
 21
204.0117
  0
LINE
  8
LAYER_2
 10
64.5794
 20
204.0117
 11
64.6493
 21
204.0485
  0
LINE
  8
LAYER_2
 10
64.6493
 20
204.0485
 11
64.7178
 21
204.0868
  0
LINE
  8
LAYER_2
 10
64.7178
 20
204.0868
 11
64.7854
 21
204.1271
  0
LINE
  8
LAYER_2
 10
64.7854
 20
204.1271
 11
64.8518
 21
204.1691
  0
LINE
  8
LAYER_2
 10
64.8518
 20
204.1691
 11
64.9173
 21
204.2129
  0
LINE
  8
LAYER_2
 10
64.9173
 20
204.2129
 11
64.981
 21
204.2587
  0
LINE
  8
LAYER_2
 10
64.981
 20
204.2587
 11
65.0441
 21
204.3059
  0
LINE
  8
LAYER_2
 10
65.0441
 20
204.3059
 11
65.1058
 21
204.3548
  0
LINE
  8
LAYER_2
 10
65.1058
 20
204.3548
 11
65.1661
 21
204.4054
  0
LINE
  8
LAYER_2
 10
65.1661
 20
204.4054
 11
65.2249
 21
204.4575
  0
LINE
  8
LAYER_2
 10
65.2249
 20
204.4575
 11
65.2822
 21
204.5116
  0
LINE
  8
LAYER_2
 10
65.2822
 20
204.5116
 11
65.3383
 21
204.5667
  0
LINE
  8
LAYER_2
 10
65.3383
 20
204.5667
 11
65.3927
 21
204.6235
  0
LINE
  8
LAYER_2
 10
65.3927
 20
204.6235
 11
65.4454
 21
204.6817
  0
LINE
  8
LAYER_2
 10
65.4454
 20
204.6817
 11
65.4968
 21
204.7413
  0
LINE
  8
LAYER_2
 10
65.4968
 20
204.7413
 11
65.5467
 21
204.8023
  0
LINE
  8
LAYER_2
 10
65.5467
 20
204.8023
 11
65.5946
 21
204.8647
  0
LINE
  8
LAYER_2
 10
65.5946
 20
204.8647
 11
65.6411
 21
204.928
  0
LINE
  8
LAYER_2
 10
65.6411
 20
204.928
 11
65.6856
 21
204.9928
  0
LINE
  8
LAYER_2
 10
65.6856
 20
204.9928
 11
65.7286
 21
205.059
  0
LINE
  8
LAYER_2
 10
65.7286
 20
205.059
 11
65.7696
 21
205.1258
  0
LINE
  8
LAYER_2
 10
65.7696
 20
205.1258
 11
65.8089
 21
205.194
  0
LINE
  8
LAYER_2
 10
65.8089
 20
205.194
 11
65.8465
 21
205.2633
  0
LINE
  8
LAYER_2
 10
65.8465
 20
205.2633
 11
65.8816
 21
205.3336
  0
LINE
  8
LAYER_2
 10
65.8816
 20
205.3336
 11
65.9154
 21
205.4045
  0
LINE
  8
LAYER_2
 10
65.9154
 20
205.4045
 11
65.9474
 21
205.4765
  0
LINE
  8
LAYER_2
 10
65.9474
 20
205.4765
 11
65.977
 21
205.5496
  0
LINE
  8
LAYER_2
 10
65.977
 20
205.5496
 11
66.0049
 21
205.6229
  0
LINE
  8
LAYER_2
 10
66.0049
 20
205.6229
 11
66.0308
 21
205.6973
  0
LINE
  8
LAYER_2
 10
66.0308
 20
205.6973
 11
66.0542
 21
205.7725
  0
LINE
  8
LAYER_2
 10
66.0542
 20
205.7725
 11
66.0759
 21
205.8479
  0
LINE
  8
LAYER_2
 10
66.0759
 20
205.8479
 11
66.0959
 21
205.924
  0
LINE
  8
LAYER_2
 10
66.0959
 20
205.924
 11
66.1134
 21
206.0009
  0
LINE
  8
LAYER_2
 10
66.1134
 20
206.0009
 11
66.1289
 21
206.078
  0
LINE
  8
LAYER_2
 10
66.1289
 20
206.078
 11
66.1427
 21
206.1555
  0
LINE
  8
LAYER_2
 10
66.1427
 20
206.1555
 11
66.1541
 21
206.2331
  0
LINE
  8
LAYER_2
 10
66.1541
 20
206.2331
 11
66.1634
 21
206.3112
  0
LINE
  8
LAYER_2
 10
66.1634
 20
206.3112
 11
66.1706
 21
206.3898
  0
LINE
  8
LAYER_2
 10
66.1706
 20
206.3898
 11
66.1758
 21
206.4683
  0
LINE
  8
LAYER_2
 10
66.1758
 20
206.4683
 11
66.1789
 21
206.5469
  0
LINE
  8
LAYER_2
 10
66.1789
 20
206.5469
 11
66.1799
 21
206.6199
  0
LINE
  8
LAYER_2
 10
76.0546
 20
217.2036
 11
66.1799
 21
217.2036
  0
LINE
  8
LAYER_2
 10
75.9296
 20
217.3287
 11
66.305
 21
217.3287
  0
LINE
  8
LAYER_2
 10
75.9795
 20
217.484
 11
52.1178
 21
217.484
  0
LINE
  8
LAYER_2
 10
76.0546
 20
217.5588
 11
66.46
 21
217.5588
  0
LINE
  8
LAYER_2
 10
66.4686
 20
217.7841
 11
51.8676
 21
217.7841
  0
LINE
  8
LAYER_2
 10
76.0546
 20
219.1839
 11
51.8676
 21
219.1839
  0
LINE
  8
LAYER_2
 10
38.0683
 20
210.1477
 11
38.0621
 21
210.1246
  0
LINE
  8
LAYER_2
 10
37.9019
 20
209.5207
 11
36.9617
 21
206.0119
  0
LINE
  8
LAYER_2
 10
37.6118
 20
209.8821
 11
36.5359
 21
205.8672
  0
LINE
  8
LAYER_2
 10
75.7545
 20
219.4839
 11
52.1178
 21
219.4839
  0
LINE
  8
LAYER_2
 10
66.4686
 20
217.7841
 11
66.46
 21
217.5588
  0
ARC
  8
LAYER_2
 10
75.7919
 20
194.2833
 40
0.5001
 50
306.9056931
 51
0.01005033213
  0
ARC
  8
LAYER_2
 10
75.7919
 20
195.1833
 40
0.5001
 50
0.0001044385365
 51
53.09560669
  0
ARC
  8
LAYER_2
 10
37.9738
 20
209.785
 40
0.3748
 50
75.40254571
 51
164.9807002
  0
ARC
  8
LAYER_2
 10
36.9157
 20
205.7802
 40
0.3897
 50
167.0949722
 51
252.4781747
  0
ARC
  8
LAYER_2
 10
37.9778
 20
209.7445
 40
0.3893
 50
77.49471336
 51
162.9447779
  0
ARC
  8
LAYER_2
 10
75.7546
 20
219.1839
 40
0.3
 50
0.008853236903
 51
90.01024216
  0
ARC
  8
LAYER_2
 10
65.3672
 20
173.484
 40
0.2497
 50
89.98641883
 51
179.9906399
  0
ARC
  8
LAYER_2
 10
76.8577
 20
173.4743
 40
0.2596
 50
2.143474846
 51
87.94823505
  0
ARC
  8
LAYER_2
 10
52.1177
 20
219.2338
 40
0.2501
 50
89.98279509
 51
179.9943003
  0
ARC
  8
LAYER_2
 10
52.1273
 20
217.7437
 40
0.2598
 50
182.1760664
 51
267.9156069
  0
LINE
  8
LAYER_2
 10
76.0922
 20
193.8834
 11
76.0426
 21
193.861
  0
LINE
  8
LAYER_2
 10
76.0426
 20
195.6056
 11
76.0922
 21
195.5832
  0
ARC
  8
LAYER_2
 10
75.9295
 20
173.8588
 40
0.1251
 50
270.0318206
 51
0.01399768394
  0
ARC
  8
LAYER_2
 10
66.305
 20
173.8588
 40
0.1251
 50
180.0005826
 51
269.9994174
  0
ARC
  8
LAYER_2
 10
75.9295
 20
217.2036
 40
0.1251
 50
359.9833026
 51
89.97087911
  0
ARC
  8
LAYER_2
 10
66.305
 20
217.2036
 40
0.1251
 50
89.99788347
 51
180.0021165
  0
ARC
  8
LAYER_2
 10
75.9769
 20
217.5617
 40
0.0778
 50
271.9332491
 51
357.8374152
  0
LINE
  8
LAYER_2
 10
40.0954
 20
204.4995
 11
39.9776
 21
204.5322
  0
LINE
  8
LAYER_2
 10
39.9776
 20
204.5322
 11
39.8598
 21
204.5646
  0
LINE
  8
LAYER_2
 10
39.8598
 20
204.5646
 11
39.7416
 21
204.5973
  0
LINE
  8
LAYER_2
 10
39.7416
 20
204.5973
 11
39.6241
 21
204.6297
  0
LINE
  8
LAYER_2
 10
76.0546
 20
195.6711
 11
76.0543
 21
195.6687
  0
LINE
  8
LAYER_2
 10
76.0543
 20
195.6687
 11
76.0525
 21
195.6615
  0
LINE
  8
LAYER_2
 10
76.0525
 20
195.6615
 11
76.0505
 21
195.6497
  0
LINE
  8
LAYER_2
 10
76.0505
 20
195.6497
 11
76.0477
 21
195.6332
  0
LINE
  8
LAYER_2
 10
76.0477
 20
195.6332
 11
76.0439
 21
195.6122
  0
LINE
  8
LAYER_2
 10
76.0439
 20
195.6122
 11
76.0394
 21
195.5867
  0
LINE
  8
LAYER_2
 10
76.0394
 20
195.5867
 11
76.0343
 21
195.5567
  0
LINE
  8
LAYER_2
 10
76.0343
 20
195.5567
 11
76.0288
 21
195.5226
  0
LINE
  8
LAYER_2
 10
76.0288
 20
195.5226
 11
76.0226
 21
195.4844
  0
LINE
  8
LAYER_2
 10
76.0226
 20
195.4844
 11
76.0164
 21
195.4423
  0
LINE
  8
LAYER_2
 10
76.0164
 20
195.4423
 11
76.0098
 21
195.3962
  0
LINE
  8
LAYER_2
 10
76.0098
 20
195.3962
 11
76.0033
 21
195.3469
  0
LINE
  8
LAYER_2
 10
76.0033
 20
195.3469
 11
75.9971
 21
195.2945
  0
LINE
  8
LAYER_2
 10
75.9971
 20
195.2945
 11
75.9912
 21
195.2391
  0
LINE
  8
LAYER_2
 10
75.9912
 20
195.2391
 11
75.9854
 21
195.1815
  0
LINE
  8
LAYER_2
 10
75.9854
 20
195.1815
 11
75.9802
 21
195.1212
  0
LINE
  8
LAYER_2
 10
75.9802
 20
195.1212
 11
75.9757
 21
195.0592
  0
LINE
  8
LAYER_2
 10
75.9757
 20
195.0592
 11
75.9719
 21
194.9958
  0
LINE
  8
LAYER_2
 10
75.9719
 20
194.9958
 11
75.9688
 21
194.9314
  0
LINE
  8
LAYER_2
 10
75.9688
 20
194.9314
 11
75.9664
 21
194.866
  0
LINE
  8
LAYER_2
 10
75.9664
 20
194.866
 11
75.965
 21
194.7998
  0
LINE
  8
LAYER_2
 10
75.965
 20
194.7998
 11
75.9647
 21
194.7333
  0
LINE
  8
LAYER_2
 10
75.9647
 20
194.7333
 11
75.965
 21
194.6672
  0
LINE
  8
LAYER_2
 10
75.965
 20
194.6672
 11
75.9664
 21
194.601
  0
LINE
  8
LAYER_2
 10
75.9664
 20
194.601
 11
75.9688
 21
194.5352
  0
LINE
  8
LAYER_2
 10
75.9688
 20
194.5352
 11
75.9719
 21
194.4708
  0
LINE
  8
LAYER_2
 10
75.9719
 20
194.4708
 11
75.9757
 21
194.4074
  0
LINE
  8
LAYER_2
 10
75.9757
 20
194.4074
 11
75.9802
 21
194.3454
  0
LINE
  8
LAYER_2
 10
75.9802
 20
194.3454
 11
75.9854
 21
194.2855
  0
LINE
  8
LAYER_2
 10
75.9854
 20
194.2855
 11
75.9912
 21
194.2276
  0
LINE
  8
LAYER_2
 10
75.9912
 20
194.2276
 11
75.9971
 21
194.1725
  0
LINE
  8
LAYER_2
 10
75.9971
 20
194.1725
 11
76.0033
 21
194.1197
  0
LINE
  8
LAYER_2
 10
76.0033
 20
194.1197
 11
76.0098
 21
194.0705
  0
LINE
  8
LAYER_2
 10
76.0098
 20
194.0705
 11
76.0164
 21
194.0247
  0
LINE
  8
LAYER_2
 10
76.0164
 20
194.0247
 11
76.0226
 21
193.9823
  0
LINE
  8
LAYER_2
 10
76.0226
 20
193.9823
 11
76.0288
 21
193.9441
  0
LINE
  8
LAYER_2
 10
76.0288
 20
193.9441
 11
76.0343
 21
193.91
  0
LINE
  8
LAYER_2
 10
76.0343
 20
193.91
 11
76.0394
 21
193.88
  0
LINE
  8
LAYER_2
 10
76.0394
 20
193.88
 11
76.0439
 21
193.8545
  0
LINE
  8
LAYER_2
 10
76.0439
 20
193.8545
 11
76.0477
 21
193.8335
  0
LINE
  8
LAYER_2
 10
76.0477
 20
193.8335
 11
76.0505
 21
193.8169
  0
LINE
  8
LAYER_2
 10
76.0505
 20
193.8169
 11
76.0525
 21
193.8052
  0
LINE
  8
LAYER_2
 10
76.0525
 20
193.8052
 11
76.0543
 21
193.7983
  0
LINE
  8
LAYER_2
 10
76.0543
 20
193.7983
 11
76.0546
 21
193.7959
  0
LINE
  8
LAYER_2
 10
66.4542
 20
206.5507
 11
66.4834
 21
206.539
  0
LINE
  8
LAYER_2
 10
66.4834
 20
206.539
 11
66.5144
 21
206.5218
  0
LINE
  8
LAYER_2
 10
66.5144
 20
206.5218
 11
66.5482
 21
206.498
  0
LINE
  8
LAYER_2
 10
66.5482
 20
206.498
 11
66.5844
 21
206.4673
  0
LINE
  8
LAYER_2
 10
66.5844
 20
206.4673
 11
66.6233
 21
206.4294
  0
LINE
  8
LAYER_2
 10
66.6233
 20
206.4294
 11
66.6657
 21
206.3832
  0
LINE
  8
LAYER_2
 10
66.6657
 20
206.3832
 11
66.7112
 21
206.3285
  0
LINE
  8
LAYER_2
 10
66.7112
 20
206.3285
 11
66.7608
 21
206.2634
  0
LINE
  8
LAYER_2
 10
66.7608
 20
206.2634
 11
66.8139
 21
206.1879
  0
LINE
  8
LAYER_2
 10
66.8139
 20
206.1879
 11
66.8717
 21
206.1004
  0
LINE
  8
LAYER_2
 10
66.8717
 20
206.1004
 11
66.9337
 21
205.9998
  0
LINE
  8
LAYER_2
 10
66.9337
 20
205.9998
 11
67.0006
 21
205.8848
  0
LINE
  8
LAYER_2
 10
67.0006
 20
205.8848
 11
67.0722
 21
205.7545
  0
LINE
  8
LAYER_2
 10
67.0722
 20
205.7545
 11
67.1484
 21
205.6074
  0
LINE
  8
LAYER_2
 10
67.1484
 20
205.6074
 11
67.229
 21
205.4434
  0
LINE
  8
LAYER_2
 10
67.229
 20
205.4434
 11
67.313
 21
205.2619
  0
LINE
  8
LAYER_2
 10
67.313
 20
205.2619
 11
67.3999
 21
205.0631
  0
LINE
  8
LAYER_2
 10
67.3999
 20
205.0631
 11
67.4873
 21
204.8488
  0
LINE
  8
LAYER_2
 10
67.4873
 20
204.8488
 11
67.5745
 21
204.6201
  0
LINE
  8
LAYER_2
 10
67.5745
 20
204.6201
 11
67.6586
 21
204.3813
  0
LINE
  8
LAYER_2
 10
67.6586
 20
204.3813
 11
67.7378
 21
204.1357
  0
LINE
  8
LAYER_2
 10
67.7378
 20
204.1357
 11
67.8098
 21
203.8873
  0
LINE
  8
LAYER_2
 10
67.8098
 20
203.8873
 11
67.8739
 21
203.6392
  0
LINE
  8
LAYER_2
 10
67.8739
 20
203.6392
 11
67.9283
 21
203.3953
  0
LINE
  8
LAYER_2
 10
67.9283
 20
203.3953
 11
67.9738
 21
203.1563
  0
LINE
  8
LAYER_2
 10
67.9738
 20
203.1563
 11
68.009
 21
202.9268
  0
LINE
  8
LAYER_2
 10
68.009
 20
202.9268
 11
68.0341
 21
202.7167
  0
LINE
  8
LAYER_2
 10
68.0341
 20
202.7167
 11
68.0499
 21
202.5303
  0
LINE
  8
LAYER_2
 10
68.0499
 20
202.5303
 11
68.0592
 21
202.3629
  0
LINE
  8
LAYER_2
 10
68.0592
 20
202.3629
 11
68.0637
 21
202.2092
  0
LINE
  8
LAYER_2
 10
66.0159
 20
202.2064
 11
66.0108
 21
202.0452
  0
LINE
  8
LAYER_2
 10
66.0108
 20
202.0452
 11
66.0036
 21
201.8822
  0
LINE
  8
LAYER_2
 10
66.0036
 20
201.8822
 11
65.9949
 21
201.7196
  0
LINE
  8
LAYER_2
 10
65.9949
 20
201.7196
 11
65.9846
 21
201.5591
  0
LINE
  8
LAYER_2
 10
65.9846
 20
201.5591
 11
65.9729
 21
201.3992
  0
LINE
  8
LAYER_2
 10
65.9729
 20
201.3992
 11
65.9595
 21
201.2328
  0
LINE
  8
LAYER_2
 10
65.9595
 20
201.2328
 11
65.9439
 21
201.0509
  0
LINE
  8
LAYER_2
 10
65.9439
 20
201.0509
 11
65.9246
 21
200.8456
  0
LINE
  8
LAYER_2
 10
65.9246
 20
200.8456
 11
65.9016
 21
200.6131
  0
LINE
  8
LAYER_2
 10
65.9016
 20
200.6131
 11
65.8754
 21
200.3606
  0
LINE
  8
LAYER_2
 10
65.8754
 20
200.3606
 11
65.8475
 21
200.0956
  0
LINE
  8
LAYER_2
 10
65.8475
 20
200.0956
 11
65.8196
 21
199.829
  0
LINE
  8
LAYER_2
 10
65.8196
 20
199.829
 11
65.7938
 21
199.5737
  0
LINE
  8
LAYER_2
 10
65.7938
 20
199.5737
 11
65.7714
 21
199.3442
  0
LINE
  8
LAYER_2
 10
65.7714
 20
199.3442
 11
65.7531
 21
199.1438
  0
LINE
  8
LAYER_2
 10
65.7531
 20
199.1438
 11
65.738
 21
198.9622
  0
LINE
  8
LAYER_2
 10
65.738
 20
198.9622
 11
65.7248
 21
198.7892
  0
LINE
  8
LAYER_2
 10
65.7248
 20
198.7892
 11
65.7128
 21
198.616
  0
LINE
  8
LAYER_2
 10
65.7128
 20
198.616
 11
65.7021
 21
198.4406
  0
LINE
  8
LAYER_2
 10
65.7021
 20
198.4406
 11
65.6935
 21
198.2652
  0
LINE
  8
LAYER_2
 10
65.6935
 20
198.2652
 11
65.6873
 21
198.0913
  0
LINE
  8
LAYER_2
 10
37.9019
 20
209.5207
 11
47.1337
 21
207.1188
  0
LINE
  8
LAYER_2
 10
47.1337
 20
207.1188
 11
56.5013
 21
204.6817
  0
LINE
  8
LAYER_2
 10
56.5013
 20
204.6817
 11
66.0159
 21
202.2064
  0
LINE
  8
LAYER_2
 10
65.6366
 20
217.484
 11
65.6518
 21
217.4851
  0
LINE
  8
LAYER_2
 10
65.6518
 20
217.4851
 11
65.669
 21
217.4892
  0
LINE
  8
LAYER_2
 10
65.669
 20
217.4892
 11
65.6876
 21
217.4961
  0
LINE
  8
LAYER_2
 10
65.6876
 20
217.4961
 11
65.7076
 21
217.5058
  0
LINE
  8
LAYER_2
 10
65.7076
 20
217.5058
 11
65.7286
 21
217.5182
  0
LINE
  8
LAYER_2
 10
65.7286
 20
217.5182
 11
65.75
 21
217.5337
  0
LINE
  8
LAYER_2
 10
65.75
 20
217.5337
 11
65.7707
 21
217.5516
  0
LINE
  8
LAYER_2
 10
65.7707
 20
217.5516
 11
65.7907
 21
217.5712
  0
LINE
  8
LAYER_2
 10
65.7907
 20
217.5712
 11
65.8089
 21
217.5922
  0
LINE
  8
LAYER_2
 10
65.8089
 20
217.5922
 11
65.8247
 21
217.6139
  0
LINE
  8
LAYER_2
 10
65.8247
 20
217.6139
 11
65.8389
 21
217.636
  0
LINE
  8
LAYER_2
 10
65.8389
 20
217.636
 11
65.8506
 21
217.658
  0
LINE
  8
LAYER_2
 10
65.8506
 20
217.658
 11
65.8602
 21
217.6797
  0
LINE
  8
LAYER_2
 10
65.8602
 20
217.6797
 11
65.8678
 21
217.7014
  0
LINE
  8
LAYER_2
 10
65.8678
 20
217.7014
 11
65.8733
 21
217.7225
  0
LINE
  8
LAYER_2
 10
65.8733
 20
217.7225
 11
65.8771
 21
217.7435
  0
LINE
  8
LAYER_2
 10
65.8771
 20
217.7435
 11
65.8795
 21
217.7638
  0
LINE
  8
LAYER_2
 10
65.8795
 20
217.7638
 11
65.8802
 21
217.7841
  0
LINE
  8
LAYER_2
 10
66.4542
 20
206.5507
 11
66.4469
 21
206.3929
  0
LINE
  8
LAYER_2
 10
66.4469
 20
206.3929
 11
66.4318
 21
206.2355
  0
LINE
  8
LAYER_2
 10
66.4318
 20
206.2355
 11
66.4083
 21
206.079
  0
LINE
  8
LAYER_2
 10
66.4083
 20
206.079
 11
66.3774
 21
205.924
  0
LINE
  8
LAYER_2
 10
66.3774
 20
205.924
 11
66.3381
 21
205.7707
  0
LINE
  8
LAYER_2
 10
66.3381
 20
205.7707
 11
66.2916
 21
205.6195
  0
LINE
  8
LAYER_2
 10
66.2916
 20
205.6195
 11
66.2375
 21
205.471
  0
LINE
  8
LAYER_2
 10
66.2375
 20
205.471
 11
66.1758
 21
205.3256
  0
LINE
  8
LAYER_2
 10
66.1758
 20
205.3256
 11
66.1069
 21
205.1837
  0
LINE
  8
LAYER_2
 10
66.1069
 20
205.1837
 11
66.0311
 21
205.0459
  0
LINE
  8
LAYER_2
 10
66.0311
 20
205.0459
 11
65.9484
 21
204.9118
  0
LINE
  8
LAYER_2
 10
65.9484
 20
204.9118
 11
65.8592
 21
204.7827
  0
LINE
  8
LAYER_2
 10
65.8592
 20
204.7827
 11
65.7634
 21
204.6587
  0
LINE
  8
LAYER_2
 10
65.7634
 20
204.6587
 11
65.6618
 21
204.5398
  0
LINE
  8
LAYER_2
 10
65.6618
 20
204.5398
 11
65.5543
 21
204.4268
  0
LINE
  8
LAYER_2
 10
65.5543
 20
204.4268
 11
65.4413
 21
204.3196
  0
LINE
  8
LAYER_2
 10
65.4413
 20
204.3196
 11
65.3232
 21
204.2187
  0
LINE
  8
LAYER_2
 10
65.3232
 20
204.2187
 11
65.2001
 21
204.1247
  0
LINE
  8
LAYER_2
 10
65.2001
 20
204.1247
 11
65.0727
 21
204.0371
  0
LINE
  8
LAYER_2
 10
65.0727
 20
204.0371
 11
64.9411
 21
203.9569
  0
LINE
  8
LAYER_2
 10
64.9411
 20
203.9569
 11
64.8057
 21
203.8839
  0
LINE
  8
LAYER_2
 10
64.8057
 20
203.8839
 11
64.6672
 21
203.8184
  0
LINE
  8
LAYER_2
 10
64.6672
 20
203.8184
 11
64.5256
 21
203.7608
  0
LINE
  8
LAYER_2
 10
64.5256
 20
203.7608
 11
64.3812
 21
203.7109
  0
LINE
  8
LAYER_2
 10
64.3812
 20
203.7109
 11
64.2348
 21
203.6692
  0
LINE
  8
LAYER_2
 10
64.2348
 20
203.6692
 11
64.0867
 21
203.6355
  0
LINE
  8
LAYER_2
 10
64.0867
 20
203.6355
 11
63.9372
 21
203.61
  0
LINE
  8
LAYER_2
 10
63.9372
 20
203.61
 11
63.7866
 21
203.5931
  0
LINE
  8
LAYER_2
 10
63.7866
 20
203.5931
 11
63.6354
 21
203.5841
  0
LINE
  8
LAYER_2
 10
63.6354
 20
203.5841
 11
63.4845
 21
203.5838
  0
LINE
  8
LAYER_2
 10
63.4845
 20
203.5838
 11
63.3339
 21
203.5917
  0
LINE
  8
LAYER_2
 10
63.3339
 20
203.5917
 11
63.1841
 21
203.6082
  0
LINE
  8
LAYER_2
 10
63.1841
 20
203.6082
 11
63.0352
 21
203.6327
  0
LINE
  8
LAYER_2
 10
63.0352
 20
203.6327
 11
62.8881
 21
203.6658
  0
LINE
  8
LAYER_2
 10
66.46
 20
217.5588
 11
66.4411
 21
217.5574
  0
LINE
  8
LAYER_2
 10
66.4411
 20
217.5574
 11
66.418
 21
217.5554
  0
LINE
  8
LAYER_2
 10
66.418
 20
217.5554
 11
66.3911
 21
217.5533
  0
LINE
  8
LAYER_2
 10
66.3911
 20
217.5533
 11
66.3601
 21
217.5505
  0
LINE
  8
LAYER_2
 10
66.3601
 20
217.5505
 11
66.3246
 21
217.5478
  0
LINE
  8
LAYER_2
 10
66.3246
 20
217.5478
 11
66.284
 21
217.544
  0
LINE
  8
LAYER_2
 10
66.284
 20
217.544
 11
66.2378
 21
217.5398
  0
LINE
  8
LAYER_2
 10
66.2378
 20
217.5398
 11
66.1892
 21
217.5347
  0
LINE
  8
LAYER_2
 10
66.1892
 20
217.5347
 11
66.1424
 21
217.5295
  0
LINE
  8
LAYER_2
 10
66.1424
 20
217.5295
 11
66.0969
 21
217.5244
  0
LINE
  8
LAYER_2
 10
66.0969
 20
217.5244
 11
66.0518
 21
217.5192
  0
LINE
  8
LAYER_2
 10
66.0518
 20
217.5192
 11
66.0053
 21
217.5133
  0
LINE
  8
LAYER_2
 10
66.0053
 20
217.5133
 11
65.9581
 21
217.5078
  0
LINE
  8
LAYER_2
 10
65.9581
 20
217.5078
 11
65.9154
 21
217.5027
  0
LINE
  8
LAYER_2
 10
65.9154
 20
217.5027
 11
65.8771
 21
217.4985
  0
LINE
  8
LAYER_2
 10
65.8771
 20
217.4985
 11
65.843
 21
217.4947
  0
LINE
  8
LAYER_2
 10
65.843
 20
217.4947
 11
65.8124
 21
217.492
  0
LINE
  8
LAYER_2
 10
65.8124
 20
217.492
 11
65.7844
 21
217.4899
  0
LINE
  8
LAYER_2
 10
65.7844
 20
217.4899
 11
65.7596
 21
217.4882
  0
LINE
  8
LAYER_2
 10
65.7596
 20
217.4882
 11
65.7369
 21
217.4868
  0
LINE
  8
LAYER_2
 10
65.7369
 20
217.4868
 11
65.7162
 21
217.4858
  0
LINE
  8
LAYER_2
 10
65.7162
 20
217.4858
 11
65.6973
 21
217.4851
  0
LINE
  8
LAYER_2
 10
65.6973
 20
217.4851
 11
65.6801
 21
217.4844
  0
LINE
  8
LAYER_2
 10
65.6801
 20
217.4844
 11
65.6642
 21
217.484
  0
LINE
  8
LAYER_2
 10
65.6642
 20
217.484
 11
65.6498
 21
217.484
  0
LINE
  8
LAYER_2
 10
65.6498
 20
217.484
 11
65.6363
 21
217.484
  0
LINE
  8
LAYER_2
 10
66.3491
 20
193.5431
 11
66.3464
 21
193.7687
  0
LINE
  8
LAYER_2
 10
66.3464
 20
193.7687
 11
66.3333
 21
193.9937
  0
LINE
  8
LAYER_2
 10
66.3333
 20
193.9937
 11
66.3105
 21
194.218
  0
LINE
  8
LAYER_2
 10
66.3105
 20
194.218
 11
66.2771
 21
194.4401
  0
LINE
  8
LAYER_2
 10
66.2771
 20
194.4401
 11
66.2344
 21
194.661
  0
LINE
  8
LAYER_2
 10
66.2344
 20
194.661
 11
66.1817
 21
194.8791
  0
LINE
  8
LAYER_2
 10
66.1817
 20
194.8791
 11
66.1189
 21
195.094
  0
LINE
  8
LAYER_2
 10
66.1189
 20
195.094
 11
66.0469
 21
195.3056
  0
LINE
  8
LAYER_2
 10
66.0469
 20
195.3056
 11
65.9653
 21
195.5136
  0
LINE
  8
LAYER_2
 10
65.9653
 20
195.5136
 11
65.8747
 21
195.7169
  0
LINE
  8
LAYER_2
 10
65.8747
 20
195.7169
 11
65.7748
 21
195.9157
  0
LINE
  8
LAYER_2
 10
65.7748
 20
195.9157
 11
65.6663
 21
196.109
  0
LINE
  8
LAYER_2
 10
65.6663
 20
196.109
 11
65.5491
 21
196.2967
  0
LINE
  8
LAYER_2
 10
65.5491
 20
196.2967
 11
65.4234
 21
196.4786
  0
LINE
  8
LAYER_2
 10
65.4234
 20
196.4786
 11
65.2901
 21
196.6536
  0
LINE
  8
LAYER_2
 10
65.2901
 20
196.6536
 11
65.1488
 21
196.8221
  0
LINE
  8
LAYER_2
 10
65.1488
 20
196.8221
 11
64.9997
 21
196.9833
  0
LINE
  8
LAYER_2
 10
64.9997
 20
196.9833
 11
64.8439
 21
197.137
  0
LINE
  8
LAYER_2
 10
64.8439
 20
197.137
 11
64.6813
 21
197.2827
  0
LINE
  8
LAYER_2
 10
64.6813
 20
197.2827
 11
64.5122
 21
197.4198
  0
LINE
  8
LAYER_2
 10
64.5122
 20
197.4198
 11
64.3368
 21
197.549
  0
LINE
  8
LAYER_2
 10
64.3368
 20
197.549
 11
64.156
 21
197.6689
  0
LINE
  8
LAYER_2
 10
64.156
 20
197.6689
 11
63.9699
 21
197.7798
  0
LINE
  8
LAYER_2
 10
63.9699
 20
197.7798
 11
63.779
 21
197.8814
  0
LINE
  8
LAYER_2
 10
63.779
 20
197.8814
 11
63.5837
 21
197.9738
  0
LINE
  8
LAYER_2
 10
63.5837
 20
197.9738
 11
63.3843
 21
198.0561
  0
LINE
  8
LAYER_2
 10
63.3843
 20
198.0561
 11
63.1817
 21
198.1285
  0
LINE
  8
LAYER_2
 10
63.1817
 20
198.1285
 11
62.9753
 21
198.1908
  0
LINE
  8
LAYER_2
 10
66.7511
 20
219.4839
 11
66.7253
 21
219.4826
  0
LINE
  8
LAYER_2
 10
66.7253
 20
219.4826
 11
66.6991
 21
219.4787
  0
LINE
  8
LAYER_2
 10
66.6991
 20
219.4787
 11
66.674
 21
219.4726
  0
LINE
  8
LAYER_2
 10
66.674
 20
219.4726
 11
66.6492
 21
219.4636
  0
LINE
  8
LAYER_2
 10
66.6492
 20
219.4636
 11
66.6254
 21
219.4526
  0
LINE
  8
LAYER_2
 10
66.6254
 20
219.4526
 11
66.6023
 21
219.4388
  0
LINE
  8
LAYER_2
 10
66.6023
 20
219.4388
 11
66.5809
 21
219.4233
  0
LINE
  8
LAYER_2
 10
66.5809
 20
219.4233
 11
66.5606
 21
219.4057
  0
LINE
  8
LAYER_2
 10
66.5606
 20
219.4057
 11
66.5424
 21
219.3861
  0
LINE
  8
LAYER_2
 10
66.5424
 20
219.3861
 11
66.5258
 21
219.3647
  0
LINE
  8
LAYER_2
 10
66.5258
 20
219.3647
 11
66.511
 21
219.342
  0
LINE
  8
LAYER_2
 10
66.511
 20
219.342
 11
66.4986
 21
219.3175
  0
LINE
  8
LAYER_2
 10
66.4986
 20
219.3175
 11
66.4879
 21
219.2924
  0
LINE
  8
LAYER_2
 10
66.4879
 20
219.2924
 11
66.4797
 21
219.2659
  0
LINE
  8
LAYER_2
 10
66.4797
 20
219.2659
 11
66.4735
 21
219.239
  0
LINE
  8
LAYER_2
 10
66.4735
 20
219.239
 11
66.47
 21
219.2118
  0
LINE
  8
LAYER_2
 10
66.47
 20
219.2118
 11
66.4686
 21
219.1839
  0
LINE
  8
LAYER_2
 10
68.2167
 20
198.0951
 11
68.0455
 21
198.0885
  0
LINE
  8
LAYER_2
 10
68.0455
 20
198.0885
 11
67.8687
 21
198.0826
  0
LINE
  8
LAYER_2
 10
67.8687
 20
198.0826
 11
67.6868
 21
198.0782
  0
LINE
  8
LAYER_2
 10
67.6868
 20
198.0782
 11
67.5004
 21
198.0747
  0
LINE
  8
LAYER_2
 10
67.5004
 20
198.0747
 11
67.3099
 21
198.072
  0
LINE
  8
LAYER_2
 10
67.3099
 20
198.072
 11
67.1153
 21
198.0706
  0
LINE
  8
LAYER_2
 10
67.1153
 20
198.0706
 11
66.9175
 21
198.0703
  0
LINE
  8
LAYER_2
 10
66.9175
 20
198.0703
 11
66.717
 21
198.0713
  0
LINE
  8
LAYER_2
 10
66.717
 20
198.0713
 11
66.5141
 21
198.073
  0
LINE
  8
LAYER_2
 10
66.5141
 20
198.073
 11
66.3091
 21
198.0761
  0
LINE
  8
LAYER_2
 10
66.3091
 20
198.0761
 11
66.1024
 21
198.0799
  0
LINE
  8
LAYER_2
 10
66.1024
 20
198.0799
 11
65.895
 21
198.0851
  0
LINE
  8
LAYER_2
 10
65.895
 20
198.0851
 11
65.6873
 21
198.0913
  0
LINE
  8
LAYER_2
 10
68.0637
 20
202.2092
 11
67.9273
 21
202.2051
  0
LINE
  8
LAYER_2
 10
67.9273
 20
202.2051
 11
67.7864
 21
202.2012
  0
LINE
  8
LAYER_2
 10
67.7864
 20
202.2012
 11
67.6407
 21
202.1982
  0
LINE
  8
LAYER_2
 10
67.6407
 20
202.1982
 11
67.4908
 21
202.1957
  0
LINE
  8
LAYER_2
 10
67.4908
 20
202.1957
 11
67.3368
 21
202.194
  0
LINE
  8
LAYER_2
 10
67.3368
 20
202.194
 11
67.1794
 21
202.193
  0
LINE
  8
LAYER_2
 10
67.1794
 20
202.193
 11
67.0188
 21
202.193
  0
LINE
  8
LAYER_2
 10
67.0188
 20
202.193
 11
66.8559
 21
202.1933
  0
LINE
  8
LAYER_2
 10
66.8559
 20
202.1933
 11
66.6905
 21
202.1947
  0
LINE
  8
LAYER_2
 10
66.6905
 20
202.1947
 11
66.5234
 21
202.1964
  0
LINE
  8
LAYER_2
 10
66.5234
 20
202.1964
 11
66.355
 21
202.1992
  0
LINE
  8
LAYER_2
 10
66.355
 20
202.1992
 11
66.1858
 21
202.2023
  0
LINE
  8
LAYER_2
 10
66.1858
 20
202.2023
 11
66.0159
 21
202.2064
  0
LINE
  8
LAYER_2
 10
66.46
 20
217.5588
 11
66.4607
 21
217.5492
  0
LINE
  8
LAYER_2
 10
66.4607
 20
217.5492
 11
66.4624
 21
217.5395
  0
LINE
  8
LAYER_2
 10
66.4624
 20
217.5395
 11
66.4652
 21
217.5302
  0
LINE
  8
LAYER_2
 10
66.4652
 20
217.5302
 11
66.4693
 21
217.5213
  0
LINE
  8
LAYER_2
 10
66.4693
 20
217.5213
 11
66.4745
 21
217.5133
  0
LINE
  8
LAYER_2
 10
66.4745
 20
217.5133
 11
66.4807
 21
217.5058
  0
LINE
  8
LAYER_2
 10
66.4807
 20
217.5058
 11
66.4876
 21
217.4996
  0
LINE
  8
LAYER_2
 10
66.4876
 20
217.4996
 11
66.4955
 21
217.4941
  0
LINE
  8
LAYER_2
 10
66.4955
 20
217.4941
 11
66.5038
 21
217.4896
  0
LINE
  8
LAYER_2
 10
66.5038
 20
217.4896
 11
66.5124
 21
217.4865
  0
LINE
  8
LAYER_2
 10
66.5124
 20
217.4865
 11
66.5214
 21
217.4847
  0
LINE
  8
LAYER_2
 10
66.5214
 20
217.4847
 11
66.5306
 21
217.484
  0
LINE
  8
LAYER_2
 10
66.1799
 20
206.6199
 11
66.1844
 21
206.6193
  0
LINE
  8
LAYER_2
 10
66.1844
 20
206.6193
 11
66.1982
 21
206.6168
  0
LINE
  8
LAYER_2
 10
66.1982
 20
206.6168
 11
66.2202
 21
206.6127
  0
LINE
  8
LAYER_2
 10
66.2202
 20
206.6127
 11
66.2512
 21
206.6062
  0
LINE
  8
LAYER_2
 10
66.2512
 20
206.6062
 11
66.2902
 21
206.5969
  0
LINE
  8
LAYER_2
 10
66.2902
 20
206.5969
 11
66.3374
 21
206.5848
  0
LINE
  8
LAYER_2
 10
66.3374
 20
206.5848
 11
66.3921
 21
206.5693
  0
LINE
  8
LAYER_2
 10
66.3921
 20
206.5693
 11
66.4542
 21
206.5507
  0
LINE
  8
LAYER_2
 10
68.0637
 20
202.2092
 11
68.081
 21
201.5078
  0
LINE
  8
LAYER_2
 10
68.081
 20
201.5078
 11
68.1133
 21
200.7206
  0
LINE
  8
LAYER_2
 10
68.1133
 20
200.7206
 11
68.1557
 21
199.8465
  0
LINE
  8
LAYER_2
 10
68.1557
 20
199.8465
 11
68.195
 21
198.9281
  0
LINE
  8
LAYER_2
 10
68.195
 20
198.9281
 11
68.2167
 21
198.0951
  0
LINE
  8
LAYER_2
 10
68.2167
 20
198.0951
 11
68.2174
 21
197.9569
  0
LINE
  8
LAYER_2
 10
68.2174
 20
197.9569
 11
68.2153
 21
197.8243
  0
LINE
  8
LAYER_2
 10
68.2153
 20
197.8243
 11
68.2108
 21
197.6958
  0
LINE
  8
LAYER_2
 10
68.2108
 20
197.6958
 11
68.2039
 21
197.5697
  0
LINE
  8
LAYER_2
 10
68.2039
 20
197.5697
 11
68.195
 21
197.4446
  0
LINE
  8
LAYER_2
 10
68.195
 20
197.4446
 11
68.1833
 21
197.3192
  0
LINE
  8
LAYER_2
 10
68.1833
 20
197.3192
 11
68.1692
 21
197.1921
  0
LINE
  8
LAYER_2
 10
68.1692
 20
197.1921
 11
68.1515
 21
197.0615
  0
LINE
  8
LAYER_2
 10
68.1515
 20
197.0615
 11
68.1309
 21
196.9258
  0
LINE
  8
LAYER_2
 10
68.1309
 20
196.9258
 11
68.1054
 21
196.7818
  0
LINE
  8
LAYER_2
 10
68.1054
 20
196.7818
 11
68.0744
 21
196.6268
  0
LINE
  8
LAYER_2
 10
68.0744
 20
196.6268
 11
68.0358
 21
196.4562
  0
LINE
  8
LAYER_2
 10
68.0358
 20
196.4562
 11
67.9866
 21
196.2643
  0
LINE
  8
LAYER_2
 10
67.9866
 20
196.2643
 11
67.9249
 21
196.0511
  0
LINE
  8
LAYER_2
 10
67.9249
 20
196.0511
 11
67.8536
 21
195.8316
  0
LINE
  8
LAYER_2
 10
67.8536
 20
195.8316
 11
67.7764
 21
195.617
  0
LINE
  8
LAYER_2
 10
67.7764
 20
195.617
 11
67.6944
 21
195.4093
  0
LINE
  8
LAYER_2
 10
67.6944
 20
195.4093
 11
67.6086
 21
195.2101
  0
LINE
  8
LAYER_2
 10
67.6086
 20
195.2101
 11
67.5208
 21
195.0203
  0
LINE
  8
LAYER_2
 10
67.5208
 20
195.0203
 11
67.4322
 21
194.8418
  0
LINE
  8
LAYER_2
 10
67.4322
 20
194.8418
 11
67.3444
 21
194.6758
  0
LINE
  8
LAYER_2
 10
67.3444
 20
194.6758
 11
67.2582
 21
194.5225
  0
LINE
  8
LAYER_2
 10
67.2582
 20
194.5225
 11
67.1749
 21
194.3819
  0
LINE
  8
LAYER_2
 10
67.1749
 20
194.3819
 11
67.0946
 21
194.2548
  0
LINE
  8
LAYER_2
 10
67.0946
 20
194.2548
 11
67.0185
 21
194.1404
  0
LINE
  8
LAYER_2
 10
67.0185
 20
194.1404
 11
66.9465
 21
194.0381
  0
LINE
  8
LAYER_2
 10
66.9465
 20
194.0381
 11
66.8786
 21
193.9475
  0
LINE
  8
LAYER_2
 10
66.8786
 20
193.9475
 11
66.8149
 21
193.8676
  0
LINE
  8
LAYER_2
 10
66.8149
 20
193.8676
 11
66.7553
 21
193.7983
  0
LINE
  8
LAYER_2
 10
66.7553
 20
193.7983
 11
66.6998
 21
193.7384
  0
LINE
  8
LAYER_2
 10
66.6998
 20
193.7384
 11
66.6481
 21
193.6877
  0
LINE
  8
LAYER_2
 10
66.6481
 20
193.6877
 11
66.6002
 21
193.645
  0
LINE
  8
LAYER_2
 10
66.6002
 20
193.645
 11
66.5558
 21
193.6102
  0
LINE
  8
LAYER_2
 10
66.5558
 20
193.6102
 11
66.5144
 21
193.5827
  0
LINE
  8
LAYER_2
 10
66.5144
 20
193.5827
 11
66.4759
 21
193.562
  0
LINE
  8
LAYER_2
 10
66.4759
 20
193.562
 11
66.4404
 21
193.5479
  0
LINE
  8
LAYER_2
 10
66.4404
 20
193.5479
 11
66.4077
 21
193.5403
  0
LINE
  8
LAYER_2
 10
66.4077
 20
193.5403
 11
66.3774
 21
193.5386
  0
LINE
  8
LAYER_2
 10
66.3774
 20
193.5386
 11
66.3491
 21
193.5431
  0
LINE
  8
LAYER_2
 10
66.3491
 20
193.5431
 11
66.3026
 21
193.5541
  0
LINE
  8
LAYER_2
 10
66.3026
 20
193.5541
 11
66.2609
 21
193.5603
  0
LINE
  8
LAYER_2
 10
66.2609
 20
193.5603
 11
66.2268
 21
193.5624
  0
LINE
  8
LAYER_2
 10
66.2268
 20
193.5624
 11
66.201
 21
193.5613
  0
LINE
  8
LAYER_2
 10
66.201
 20
193.5613
 11
66.1851
 21
193.5585
  0
LINE
  8
LAYER_2
 10
66.1851
 20
193.5585
 11
66.1799
 21
193.5575
  0
LINE
  8
LAYER_2
 10
65.6873
 20
198.0913
 11
65.7045
 21
198.0744
  0
LINE
  8
LAYER_2
 10
65.7045
 20
198.0744
 11
65.7193
 21
198.0582
  0
LINE
  8
LAYER_2
 10
65.7193
 20
198.0582
 11
65.7317
 21
198.0434
  0
LINE
  8
LAYER_2
 10
65.7317
 20
198.0434
 11
65.7421
 21
198.0293
  0
LINE
  8
LAYER_2
 10
65.7421
 20
198.0293
 11
65.75
 21
198.0158
  0
LINE
  8
LAYER_2
 10
65.75
 20
198.0158
 11
65.7558
 21
198.0034
  0
LINE
  8
LAYER_2
 10
65.7558
 20
198.0034
 11
65.7596
 21
197.992
  0
LINE
  8
LAYER_2
 10
65.7596
 20
197.992
 11
65.7617
 21
197.9821
  0
LINE
  8
LAYER_2
 10
65.7617
 20
197.9821
 11
65.7628
 21
197.9727
  0
LINE
  8
LAYER_2
 10
65.7628
 20
197.9727
 11
65.762
 21
197.9641
  0
LINE
  8
LAYER_2
 10
65.762
 20
197.9641
 11
65.7603
 21
197.9562
  0
LINE
  8
LAYER_2
 10
65.7603
 20
197.9562
 11
65.7576
 21
197.9483
  0
LINE
  8
LAYER_2
 10
65.7576
 20
197.9483
 11
65.7534
 21
197.9407
  0
LINE
  8
LAYER_2
 10
65.7534
 20
197.9407
 11
65.7476
 21
197.9331
  0
LINE
  8
LAYER_2
 10
65.7476
 20
197.9331
 11
65.74
 21
197.9252
  0
LINE
  8
LAYER_2
 10
65.74
 20
197.9252
 11
65.73
 21
197.9173
  0
LINE
  8
LAYER_2
 10
65.73
 20
197.9173
 11
65.7179
 21
197.9097
  0
LINE
  8
LAYER_2
 10
65.7179
 20
197.9097
 11
65.7038
 21
197.9025
  0
LINE
  8
LAYER_2
 10
65.7038
 20
197.9025
 11
65.6873
 21
197.8952
  0
LINE
  8
LAYER_2
 10
65.6873
 20
197.8952
 11
65.668
 21
197.889
  0
LINE
  8
LAYER_2
 10
65.668
 20
197.889
 11
65.6463
 21
197.8828
  0
LINE
  8
LAYER_2
 10
65.6463
 20
197.8828
 11
65.6218
 21
197.8773
  0
LINE
  8
LAYER_2
 10
65.6218
 20
197.8773
 11
65.5946
 21
197.8725
  0
LINE
  8
LAYER_2
 10
65.5946
 20
197.8725
 11
65.564
 21
197.868
  0
LINE
  8
LAYER_2
 10
65.564
 20
197.868
 11
65.5302
 21
197.8639
  0
LINE
  8
LAYER_2
 10
65.5302
 20
197.8639
 11
65.493
 21
197.8608
  0
LINE
  8
LAYER_2
 10
65.493
 20
197.8608
 11
65.4516
 21
197.8584
  0
LINE
  8
LAYER_2
 10
65.4516
 20
197.8584
 11
65.4065
 21
197.8563
  0
LINE
  8
LAYER_2
 10
65.4065
 20
197.8563
 11
65.3562
 21
197.8556
  0
LINE
  8
LAYER_2
 10
65.3562
 20
197.8556
 11
65.3008
 21
197.8553
  0
LINE
  8
LAYER_2
 10
65.3008
 20
197.8553
 11
65.2398
 21
197.8563
  0
LINE
  8
LAYER_2
 10
65.2398
 20
197.8563
 11
65.1726
 21
197.8584
  0
LINE
  8
LAYER_2
 10
65.1726
 20
197.8584
 11
65.0982
 21
197.8615
  0
LINE
  8
LAYER_2
 10
65.0982
 20
197.8615
 11
65.0165
 21
197.866
  0
LINE
  8
LAYER_2
 10
65.0165
 20
197.866
 11
64.9263
 21
197.8725
  0
LINE
  8
LAYER_2
 10
64.9263
 20
197.8725
 11
64.8267
 21
197.8804
  0
LINE
  8
LAYER_2
 10
64.8267
 20
197.8804
 11
64.7175
 21
197.8904
  0
LINE
  8
LAYER_2
 10
64.7175
 20
197.8904
 11
64.5969
 21
197.9028
  0
LINE
  8
LAYER_2
 10
64.5969
 20
197.9028
 11
64.4646
 21
197.918
  0
LINE
  8
LAYER_2
 10
64.4646
 20
197.918
 11
64.3193
 21
197.9362
  0
LINE
  8
LAYER_2
 10
64.3193
 20
197.9362
 11
64.1591
 21
197.9583
  0
LINE
  8
LAYER_2
 10
64.1591
 20
197.9583
 11
63.982
 21
197.9848
  0
LINE
  8
LAYER_2
 10
63.982
 20
197.9848
 11
63.7856
 21
198.0168
  0
LINE
  8
LAYER_2
 10
63.7856
 20
198.0168
 11
63.5651
 21
198.0568
  0
LINE
  8
LAYER_2
 10
63.5651
 20
198.0568
 11
63.3388
 21
198.1026
  0
LINE
  8
LAYER_2
 10
63.3388
 20
198.1026
 11
63.1431
 21
198.1474
  0
LINE
  8
LAYER_2
 10
63.1431
 20
198.1474
 11
62.9753
 21
198.1908
  0
LINE
  8
LAYER_2
 10
36.9617
 20
206.0119
 11
36.9486
 21
205.9647
  0
LINE
  8
LAYER_2
 10
36.9486
 20
205.9647
 11
36.9363
 21
205.9175
  0
LINE
  8
LAYER_2
 10
36.9363
 20
205.9175
 11
36.9235
 21
205.871
  0
LINE
  8
LAYER_2
 10
36.9235
 20
205.871
 11
36.9111
 21
205.8255
  0
LINE
  8
LAYER_2
 10
36.9111
 20
205.8255
 11
36.899
 21
205.7811
  0
LINE
  8
LAYER_2
 10
36.899
 20
205.7811
 11
36.8873
 21
205.7383
  0
LINE
  8
LAYER_2
 10
36.8873
 20
205.7383
 11
36.876
 21
205.697
  0
LINE
  8
LAYER_2
 10
36.876
 20
205.697
 11
36.8653
 21
205.6574
  0
LINE
  8
LAYER_2
 10
36.8653
 20
205.6574
 11
36.8553
 21
205.6202
  0
LINE
  8
LAYER_2
 10
36.8553
 20
205.6202
 11
36.846
 21
205.5854
  0
LINE
  8
LAYER_2
 10
36.846
 20
205.5854
 11
36.8374
 21
205.5533
  0
LINE
  8
LAYER_2
 10
36.8374
 20
205.5533
 11
36.8291
 21
205.5241
  0
LINE
  8
LAYER_2
 10
36.8291
 20
205.5241
 11
36.8222
 21
205.4979
  0
LINE
  8
LAYER_2
 10
36.8222
 20
205.4979
 11
36.816
 21
205.4745
  0
LINE
  8
LAYER_2
 10
36.816
 20
205.4745
 11
36.8108
 21
205.4545
  0
LINE
  8
LAYER_2
 10
36.8108
 20
205.4545
 11
36.8064
 21
205.4383
  0
LINE
  8
LAYER_2
 10
36.8064
 20
205.4383
 11
36.8029
 21
205.4252
  0
LINE
  8
LAYER_2
 10
36.8029
 20
205.4252
 11
36.8005
 21
205.4162
  0
LINE
  8
LAYER_2
 10
36.8005
 20
205.4162
 11
36.7988
 21
205.4104
  0
LINE
  8
LAYER_2
 10
36.7988
 20
205.4104
 11
36.7984
 21
205.4086
  0
LINE
  8
LAYER_2
 10
38.0621
 20
210.1246
 11
46.2056
 21
208.0059
  0
LINE
  8
LAYER_2
 10
46.2056
 20
208.0059
 11
54.4794
 21
205.8534
  0
LINE
  8
LAYER_2
 10
54.4794
 20
205.8534
 11
62.8881
 21
203.6658
  0
LINE
  8
LAYER_2
 10
62.5185
 20
203.7887
 11
62.5247
 21
203.7867
  0
LINE
  8
LAYER_2
 10
62.5247
 20
203.7867
 11
62.5433
 21
203.7805
  0
LINE
  8
LAYER_2
 10
62.5433
 20
203.7805
 11
62.5736
 21
203.7702
  0
LINE
  8
LAYER_2
 10
62.5736
 20
203.7702
 11
62.6157
 21
203.756
  0
LINE
  8
LAYER_2
 10
62.6157
 20
203.756
 11
62.668
 21
203.7385
  0
LINE
  8
LAYER_2
 10
62.668
 20
203.7385
 11
62.7314
 21
203.7174
  0
LINE
  8
LAYER_2
 10
62.7314
 20
203.7174
 11
62.8048
 21
203.6933
  0
LINE
  8
LAYER_2
 10
62.8048
 20
203.6933
 11
62.8881
 21
203.6658
  0
LINE
  8
LAYER_2
 10
62.8881
 20
203.6658
 11
62.9588
 21
203.6454
  0
LINE
  8
LAYER_2
 10
62.9588
 20
203.6454
 11
63.0408
 21
203.6199
  0
LINE
  8
LAYER_2
 10
63.0408
 20
203.6199
 11
63.1348
 21
203.5886
  0
LINE
  8
LAYER_2
 10
63.1348
 20
203.5886
 11
63.2416
 21
203.551
  0
LINE
  8
LAYER_2
 10
63.2416
 20
203.551
 11
63.3626
 21
203.5073
  0
LINE
  8
LAYER_2
 10
63.3626
 20
203.5073
 11
63.4986
 21
203.456
  0
LINE
  8
LAYER_2
 10
63.4986
 20
203.456
 11
63.6516
 21
203.3964
  0
LINE
  8
LAYER_2
 10
63.6516
 20
203.3964
 11
63.8228
 21
203.3282
  0
LINE
  8
LAYER_2
 10
63.8228
 20
203.3282
 11
64.0137
 21
203.2499
  0
LINE
  8
LAYER_2
 10
64.0137
 20
203.2499
 11
64.228
 21
203.1597
  0
LINE
  8
LAYER_2
 10
64.228
 20
203.1597
 11
64.4491
 21
203.0639
  0
LINE
  8
LAYER_2
 10
64.4491
 20
203.0639
 11
64.6489
 21
202.9754
  0
LINE
  8
LAYER_2
 10
64.6489
 20
202.9754
 11
64.825
 21
202.8951
  0
LINE
  8
LAYER_2
 10
64.825
 20
202.8951
 11
64.9817
 21
202.8214
  0
LINE
  8
LAYER_2
 10
64.9817
 20
202.8214
 11
65.1223
 21
202.7539
  0
LINE
  8
LAYER_2
 10
65.1223
 20
202.7539
 11
65.248
 21
202.6915
  0
LINE
  8
LAYER_2
 10
65.248
 20
202.6915
 11
65.361
 21
202.6336
  0
LINE
  8
LAYER_2
 10
65.361
 20
202.6336
 11
65.462
 21
202.5802
  0
LINE
  8
LAYER_2
 10
65.462
 20
202.5802
 11
65.5522
 21
202.531
  0
LINE
  8
LAYER_2
 10
65.5522
 20
202.531
 11
65.6329
 21
202.4848
  0
LINE
  8
LAYER_2
 10
65.6329
 20
202.4848
 11
65.7049
 21
202.4421
  0
LINE
  8
LAYER_2
 10
65.7049
 20
202.4421
 11
65.7686
 21
202.4021
  0
LINE
  8
LAYER_2
 10
65.7686
 20
202.4021
 11
65.8251
 21
202.3645
  0
LINE
  8
LAYER_2
 10
65.8251
 20
202.3645
 11
65.875
 21
202.3291
  0
LINE
  8
LAYER_2
 10
65.875
 20
202.3291
 11
65.9188
 21
202.296
  0
LINE
  8
LAYER_2
 10
65.9188
 20
202.296
 11
65.957
 21
202.2643
  0
LINE
  8
LAYER_2
 10
65.957
 20
202.2643
 11
65.9891
 21
202.2347
  0
LINE
  8
LAYER_2
 10
65.9891
 20
202.2347
 11
66.0159
 21
202.2064
  0
LINE
  8
LAYER_2
 10
38.0621
 20
210.1246
 11
38.0614
 21
210.1219
  0
LINE
  8
LAYER_2
 10
38.0614
 20
210.1219
 11
38.0597
 21
210.1157
  0
LINE
  8
LAYER_2
 10
38.0597
 20
210.1157
 11
38.0569
 21
210.1057
  0
LINE
  8
LAYER_2
 10
38.0569
 20
210.1057
 11
38.0532
 21
210.0922
  0
LINE
  8
LAYER_2
 10
38.0532
 20
210.0922
 11
38.0487
 21
210.0754
  0
LINE
  8
LAYER_2
 10
38.0487
 20
210.0754
 11
38.0432
 21
210.0554
  0
LINE
  8
LAYER_2
 10
38.0432
 20
210.0554
 11
38.0373
 21
210.0316
  0
LINE
  8
LAYER_2
 10
38.0373
 20
210.0316
 11
38.0301
 21
210.0051
  0
LINE
  8
LAYER_2
 10
38.0301
 20
210.0051
 11
38.0221
 21
209.9758
  0
LINE
  8
LAYER_2
 10
38.0221
 20
209.9758
 11
38.0139
 21
209.9438
  0
LINE
  8
LAYER_2
 10
38.0139
 20
209.9438
 11
38.0046
 21
209.909
  0
LINE
  8
LAYER_2
 10
38.0046
 20
209.909
 11
37.9949
 21
209.8721
  0
LINE
  8
LAYER_2
 10
37.9949
 20
209.8721
 11
37.9843
 21
209.8329
  0
LINE
  8
LAYER_2
 10
37.9843
 20
209.8329
 11
37.9732
 21
209.7918
  0
LINE
  8
LAYER_2
 10
37.9732
 20
209.7918
 11
37.9622
 21
209.7491
  0
LINE
  8
LAYER_2
 10
37.9622
 20
209.7491
 11
37.9505
 21
209.7054
  0
LINE
  8
LAYER_2
 10
37.9505
 20
209.7054
 11
37.9388
 21
209.6599
  0
LINE
  8
LAYER_2
 10
37.9388
 20
209.6599
 11
37.9267
 21
209.6141
  0
LINE
  8
LAYER_2
 10
37.9267
 20
209.6141
 11
37.9143
 21
209.5676
  0
LINE
  8
LAYER_2
 10
37.9143
 20
209.5676
 11
37.9019
 21
209.5207
  0
LINE
  8
LAYER_2
  6
AIGENLINE002
 10
71.1175
 20
223.2753
 11
71.1175
 21
158.5238
  0
LINE
  8
LAYER_2
 10
39.8677
 20
190.2009
 11
39.8677
 21
183.7731
  0
LINE
  8
LAYER_2
 10
-30.85
 20
179.9718
 11
-30.85
 21
174.2839
  0
LINE
  8
LAYER_2
 10
-18.8049
 20
179.9718
 11
-18.8049
 21
174.2839
  0
LINE
  8
LAYER_2
  6
AIGENLINE002
 10
39.8677
 20
206.5562
 11
39.8677
 21
191.1167
  0
LINE
  8
LAYER_2
  6
AIGENLINE002
 10
40.3679
 20
206.4839
 11
36.4071
 21
191.7027
  0
INSERT
  8
LAYER_2
  2
AIGNBL0201000A
 10
0
 20
0
 30
0
  0
ARC
  8
LAYER_2
 10
76.2244
 20
177.2228
 40
0.7553
 50
323.9718893
 51
0.9044235217
  0
ARC
  8
LAYER_2
 10
76.496
 20
177.0212
 40
0.4171
 50
272.4459299
 51
324.4200405
  0
ARC
  8
LAYER_2
 10
76.5285
 20
177.0131
 40
0.4089
 50
217.683713
 51
267.936303
  0
ARC
  8
LAYER_2
 10
76.7936
 20
177.2208
 40
0.7456
 50
178.9304563
 51
217.8601997
  0
ARC
  8
LAYER_2
 10
76.803
 20
177.2465
 40
0.755
 50
143.9520585
 51
180.8945113
  0
ARC
  8
LAYER_2
 10
76.5318
 20
177.4481
 40
0.4171
 50
92.47122458
 51
144.4218073
  0
ARC
  8
LAYER_2
 10
76.4992
 20
177.456
 40
0.409
 50
37.69471473
 51
87.95905179
  0
ARC
  8
LAYER_2
 10
76.2343
 20
177.2487
 40
0.7455
 50
358.923354
 51
37.85091162
  0
ARC
  8
LAYER_2
 10
74.5739
 20
179.9717
 40
0.7832
 50
145.1330194
 51
180.8454836
  0
ARC
  8
LAYER_2
 10
74.2921
 20
180.1733
 40
0.4368
 50
92.79833874
 51
145.6991854
  0
ARC
  8
LAYER_2
 10
74.2562
 20
180.1901
 40
0.4197
 50
38.48197852
 51
88.01019945
  0
ARC
  8
LAYER_2
 10
73.9874
 20
179.976
 40
0.7633
 50
358.8091365
 51
38.50814879
  0
ARC
  8
LAYER_2
 10
74.5746
 20
177.2469
 40
0.7838
 50
179.1589173
 51
214.8521131
  0
ARC
  8
LAYER_2
 10
74.2922
 20
177.0449
 40
0.4367
 50
214.2748544
 51
267.1890846
  0
LINE
  8
LAYER_2
 10
78.1792
 20
172.734
 11
89.4447
 21
172.734
  0
INSERT
  8
LAYER_2
  2
AIGNBL0201000B
 10
0
 20
0
 30
0
  0
LINE
  8
LAYER_2
 10
42.2744
 20
203.9176
 11
41.9509
 21
202.7103
  0
LINE
  8
LAYER_2
 10
41.9509
 20
202.7103
 11
37.1213
 21
204.0044
  0
LINE
  8
LAYER_2
 10
37.1213
 20
204.0044
 11
37.4447
 21
205.2117
  0
LINE
  8
LAYER_2
 10
37.4447
 20
205.2117
 11
42.2744
 21
203.9176
  0
ARC
  8
LAYER_2
 10
-22.67
 20
203.4031
 40
0.3181
 50
294.1263867
 51
351.7412919
  0
ARC
  8
LAYER_2
 10
-23.7363
 20
205.3195
 40
2.5101
 50
278.0779775
 51
298.4635128
  0
ARC
  8
LAYER_2
 10
-24.8034
 20
210.8975
 40
8.1872
 50
269.6375308
 51
279.986939
  0
ARC
  8
LAYER_2
 10
-24.9198
 20
210.6889
 40
7.9787
 50
259.319045
 51
270.4642337
  0
ARC
  8
LAYER_2
 10
-26.0509
 20
205.1068
 40
2.285
 50
240.0198727
 51
261.2471571
  0
ARC
  8
LAYER_2
 10
-27.0583
 20
203.3947
 40
0.2991
 50
187.1680165
 51
243.2972045
  0
ARC
  8
LAYER_2
 10
-27.0403
 20
203.3117
 40
0.3181
 50
114.1309745
 51
171.7465285
  0
ARC
  8
LAYER_2
 10
-25.9742
 20
201.3958
 40
2.5096
 50
98.07598693
 51
118.4647246
  0
ARC
  8
LAYER_2
 10
-24.907
 20
195.8167
 40
8.1879
 50
89.63738908
 51
99.98537469
  0
ARC
  8
LAYER_2
 10
-24.7905
 20
196.024
 40
7.9806
 50
79.32150235
 51
90.46458104
  0
ARC
  8
LAYER_2
 10
-23.6592
 20
201.6084
 40
2.2847
 50
60.01909049
 51
81.25001662
  0
ARC
  8
LAYER_2
 10
-22.652
 20
203.3201
 40
0.2992
 50
7.16319063
 51
63.29286836
  0
LINE
  8
LAYER_2
  6
AIGENLINE003
 10
-1.1052
 20
58.1856
 11
-1.1052
 21
65.9694
  0
LINE
  8
LAYER_2
 10
-0.9784
 20
59.3797
 11
-0.9784
 21
61.0857
  0
LINE
  8
LAYER_2
 10
-1.2254
 20
59.3797
 11
-1.2254
 21
61.0857
  0
ARC
  8
LAYER_2
 10
-0.6783
 20
62.4407
 40
0.7009
 50
12.68302659
 51
50.56269152
  0
ARC
  8
LAYER_2
 10
-1.0581
 20
61.9622
 40
1.3117
 50
51.02892635
 51
91.80200767
  0
ARC
  8
LAYER_2
 10
-1.1122
 20
61.8225
 40
1.4509
 50
89.49231478
 51
116.0180655
  0
ARC
  8
LAYER_2
 10
-1.395
 20
62.3638
 40
0.8405
 50
114.8773971
 51
165.7631761
  0
ARC
  8
LAYER_2
 10
-1.5098
 20
60.0278
 40
0.7268
 50
195.6509752
 51
233.17561
  0
ARC
  8
LAYER_2
 10
-1.1423
 20
60.5267
 40
1.3465
 50
233.3817208
 51
271.3456651
  0
ARC
  8
LAYER_2
 10
-1.0985
 20
60.633
 40
1.4524
 50
269.5173061
 51
295.8823647
  0
ARC
  8
LAYER_2
 10
-0.8559
 20
60.1554
 40
0.9169
 50
295.2721384
 51
328.1566664
  0
ARC
  8
LAYER_2
 10
-0.5853
 20
59.9727
 40
0.5908
 50
329.3616661
 51
359.7473852
  0
LINE
  8
LAYER_2
 10
-1.4921
 20
64.0533
 11
-1.4921
 21
63.2933
  0
LINE
  8
LAYER_2
 10
-0.6811
 20
64.0533
 11
-0.6811
 21
63.2933
  0
ARC
  8
LAYER_2
 10
-0.8792
 20
64.3251
 40
0.2711
 50
270.349035
 51
332.8073048
  0
ARC
  8
LAYER_2
 10
-1.218
 20
64.4445
 40
0.629
 50
337.2408205
 51
0.8893279094
  0
ARC
  8
LAYER_2
 10
-0.9982
 20
64.4864
 40
0.4104
 50
355.5129782
 51
46.11335177
  0
ARC
  8
LAYER_2
 10
-0.8975
 20
64.5552
 40
0.292
 50
50.99747189
 51
80.95757688
  0
ARC
  8
LAYER_2
 10
-1.2733
 20
64.3323
 40
0.2774
 50
211.5822855
 51
272.9704668
  0
ARC
  8
LAYER_2
 10
-0.9977
 20
64.4409
 40
0.5713
 50
178.6518741
 51
206.374616
  0
ARC
  8
LAYER_2
 10
-1.1638
 20
64.4853
 40
0.4063
 50
133.752697
 51
184.3789795
  0
ARC
  8
LAYER_2
 10
-1.2495
 20
64.5357
 40
0.3118
 50
98.26143734
 51
128.7718939
  0
ARC
  8
LAYER_2
 10
-1.8601
 20
64.3258
 40
0.2718
 50
270.3743313
 51
332.7211174
  0
ARC
  8
LAYER_2
 10
-2.2001
 20
64.4466
 40
0.6313
 50
337.1222794
 51
0.696169394
  0
ARC
  8
LAYER_2
 10
-1.9501
 20
64.4885
 40
0.3827
 50
354.8771413
 51
61.13246352
  0
ARC
  8
LAYER_2
 10
-0.293
 20
64.3326
 40
0.2776
 50
211.6139583
 51
272.8897197
  0
ARC
  8
LAYER_2
 10
-0.0201
 20
64.4411
 40
0.5692
 50
178.6680365
 51
206.5057232
  0
ARC
  8
LAYER_2
 10
-0.2045
 20
64.4855
 40
0.3858
 50
119.0175551
 51
184.6407946
  0
LINE
  8
LAYER_2
 10
-1.9661
 20
63.2933
 11
-0.2412
 21
63.2933
  0
LINE
  8
LAYER_2
 10
-2.2097
 20
59.3955
 11
-2.2097
 21
63.0094
  0
LINE
  8
LAYER_2
 10
0.0055
 20
59.39
 11
0.0055
 21
63.0115
  0
ARC
  8
LAYER_2
 10
-1.1019
 20
60.2328
 40
0.8618
 50
359.991638
 51
89.98841568
  0
ARC
  8
LAYER_2
 10
-1.1014
 20
60.233
 40
0.8616
 50
90.01989939
 51
180.0200002
  0
ARC
  8
LAYER_2
 10
-1.1017
 20
60.2327
 40
0.8613
 50
179.9983879
 51
270.0016121
  0
ARC
  8
LAYER_2
 10
-1.1016
 20
60.2329
 40
0.8615
 50
269.9900747
 51
359.989972
  0
LINE
  8
LAYER_2
 10
-1.963
 20
59.1082
 11
-0.2401
 21
59.1082
  0
LINE
  8
LAYER_2
 10
-2.2097
 20
59.3955
 11
-1.963
 21
59.1082
  0
LINE
  8
LAYER_2
 10
0.0055
 20
59.3955
 11
-0.2401
 21
59.1082
  0
LINE
  8
LAYER_2
 10
-0.2412
 20
63.2933
 11
0.0055
 21
63.0067
  0
LINE
  8
LAYER_2
 10
-1.9661
 20
63.2933
 11
-2.2124
 21
63.0067
  0
LINE
  8
LAYER_2
 10
-1.9424
 20
64.0533
 11
-0.2177
 21
64.0533
  0
ARC
  8
LAYER_2
 10
-1.6612
 20
64.5631
 40
0.2812
 50
89.99028759
 51
179.9893333
  0
LINE
  8
LAYER_2
 10
-1.9424
 20
64.5632
 11
-1.9424
 21
64.0533
  0
ARC
  8
LAYER_2
 10
-0.5102
 20
64.5518
 40
0.2927
 50
2.229834494
 51
87.91266692
  0
LINE
  8
LAYER_2
 10
-1.6612
 20
64.8443
 11
-0.4995
 21
64.8443
  0
LINE
  8
LAYER_2
 10
-0.2177
 20
64.5632
 11
-0.2177
 21
64.0533
  0
LINE
  8
LAYER_2
 10
-1.6633
 20
63.2933
 11
-1.6633
 21
64.0533
  0
LINE
  8
LAYER_2
 10
-0.5088
 20
63.2933
 11
-0.5088
 21
64.0533
  0
LINE
  8
LAYER_2
 10
22.3978
 20
62.4548
 11
22.3978
 21
61.2049
  0
LINE
  8
LAYER_2
 10
22.6448
 20
61.455
 11
22.6448
 21
62.2046
  0
LINE
  8
LAYER_2
 10
22.3978
 20
62.4548
 11
22.6448
 21
62.2046
  0
LINE
  8
LAYER_2
 10
22.6448
 20
61.455
 11
22.3978
 21
61.2049
  0
LINE
  8
LAYER_2
 10
3.9913
 20
74.155
 11
-0.7354
 21
64.8443
  0
LINE
  8
LAYER_2
 10
-0.2624
 20
67.0843
 11
-0.7354
 21
64.8443
  0
LINE
  8
LAYER_2
 10
-0.7354
 20
64.8443
 11
0.7943
 21
66.5482
  0
LINE
  8
LAYER_2
 10
0.7943
 20
66.5482
 11
-0.2624
 21
67.0843
  0
LINE
  8
LAYER_2
 10
3.9913
 20
74.155
 11
27.6819
 21
74.155
  0
LINE
  8
LAYER_2
 10
-33.0896
 20
79.9021
 11
-40.3071
 21
79.9021
  0
LINE
  8
LAYER_2
 10
-32.9932
 20
69.9024
 11
-40.3036
 21
69.9024
  0
LINE
  8
LAYER_2
 10
-30.3094
 20
57.4022
 11
-40.3036
 21
57.4022
  0
LINE
  8
LAYER_2
 10
-39.8754
 20
69.9285
 11
-39.8754
 21
57.4022
  0
LINE
  8
LAYER_2
 10
-40.4604
 20
59.6119
 11
-39.8678
 21
57.4022
  0
LINE
  8
LAYER_2
 10
-39.8678
 20
57.4022
 11
-39.2753
 21
59.6119
  0
LINE
  8
LAYER_2
 10
-39.2753
 20
59.6119
 11
-40.4604
 21
59.6119
  0
LINE
  8
LAYER_2
 10
-39.2897
 20
67.6913
 11
-39.8823
 21
69.9024
  0
LINE
  8
LAYER_2
 10
-39.8823
 20
69.9024
 11
-40.4749
 21
67.6913
  0
LINE
  8
LAYER_2
 10
-40.4749
 20
67.6913
 11
-39.2897
 21
67.6913
  0
LINE
  8
LAYER_2
 10
-39.8754
 20
79.9021
 11
-39.8754
 21
71.0509
  0
LINE
  8
LAYER_2
 10
-40.4604
 20
73.2613
 11
-39.8678
 21
71.0509
  0
LINE
  8
LAYER_2
 10
-39.8678
 20
71.0509
 11
-39.2753
 21
73.2613
  0
LINE
  8
LAYER_2
 10
-39.2753
 20
73.2613
 11
-40.4604
 21
73.2613
  0
LINE
  8
LAYER_2
 10
-39.2897
 20
77.6917
 11
-39.8823
 21
79.9021
  0
LINE
  8
LAYER_2
 10
-39.8823
 20
79.9021
 11
-40.4749
 21
77.6917
  0
LINE
  8
LAYER_2
 10
-40.4749
 20
77.6917
 11
-39.2897
 21
77.6917
  0
LINE
  8
LAYER_2
 10
-32.9932
 20
71.0509
 11
-40.3036
 21
71.0509
  0
LINE
  8
LAYER_3
 10
126.9566
 20
57.1559
 11
293.4567
 21
57.1559
  0
LINE
  8
LAYER_3
 10
126.9566
 20
81.5626
 11
290.1597
 21
81.5626
  0
LINE
  8
LAYER_3
 10
126.9566
 20
95.1367
 11
290.1597
 21
95.1367
  0
LINE
  8
LAYER_3
 10
213.4567
 20
37.1557
 11
293.4567
 21
37.1557
  0
LINE
  8
LAYER_3
 10
126.9566
 20
44.6564
 11
213.4567
 21
44.6564
  0
LINE
  8
LAYER_3
 10
126.9566
 20
30.6562
 11
213.4567
 21
30.6562
  0
LINE
  8
LAYER_3
 10
138.4563
 20
30.6562
 11
138.4563
 21
44.6564
  0
LINE
  8
LAYER_3
 10
213.4567
 20
17.1562
 11
213.4567
 21
57.1559
  0
LINE
  8
LAYER_3
 10
126.9566
 20
17.1562
 11
126.9566
 21
57.1559
  0
LINE
  8
LAYER_3
 10
194.4563
 20
30.6562
 11
194.4563
 21
57.1559
  0
LINE
  8
LAYER_3
 10
175.4566
 20
30.6562
 11
175.4566
 21
57.1559
  0
LINE
  8
LAYER_3
 10
293.4567
 20
17.1562
 11
-83.0433
 21
17.1562
  0
LINE
  8
LAYER_3
 10
-83.0433
 20
17.1562
 11
-83.0433
 21
280.1562
  0
LINE
  8
LAYER_3
 10
-83.0433
 20
280.1562
 11
293.4567
 21
280.1562
  0
LINE
  8
LAYER_3
 10
293.4567
 20
280.1562
 11
293.4567
 21
17.1562
  0
TEXT
  8
LAYER_3
 10
153.4949
 20
49.1839
 11
153.4949
 21
49.1839
 40
4.4979
 41
0.5
 72
1
  1
セラトレーディング株式会社
  0
TEXT
  8
LAYER_3
 10
127.9281
 20
40.658
 11
127.9281
 21
40.658
 40
3.0923
 41
0.5
  1
製図
  0
TEXT
  8
LAYER_3
 10
127.9281
 20
26.4587
 11
127.9281
 21
26.4587
 40
3.0923
 41
0.5
  1
備考
  0
TEXT
  8
LAYER_3
 10
139.5463
 20
40.658
 11
139.5463
 21
40.658
 40
3.0923
 41
0.5
  1
検図
  0
TEXT
  8
LAYER_3
 10
176.4998
 20
40.658
 11
176.4998
 21
40.658
 40
3.0923
 41
0.5
  1
日付
  0
TEXT
  8
LAYER_3
 10
219.0853
 20
45.4728
 11
219.0853
 21
45.4728
 40
3.9357
 41
0.5
  1
アヴァ 湯水混合水栓
  0
TEXT
  8
LAYER_3
 10
169.5094
 20
75.9203
 11
169.5094
 21
75.9203
 40
3.9357
 41
0.5
  1
（1）水圧は湯水ほぼ同圧、且つ湯圧が水圧より高くならないように設定してください。
  0
TEXT
  8
LAYER_3
 10
169.5094
 20
69.923
 11
169.5094
 21
69.923
 40
3.9357
 41
0.5
  1
（2）湯水を逆に配管しないでください。
  0
TEXT
  8
LAYER_3
 10
169.5094
 20
63.9258
 11
169.5094
 21
63.9258
 40
3.9357
 41
0.5
  1
（3）フレキホース寸法公差%%p}20
  0
LINE
  8
LAYER_3
 10
126.9566
 20
108.7107
 11
290.1597
 21
108.7107
  0
TEXT
  8
LAYER_3
 10
169.5094
 20
83.6256
 11
169.5094
 21
83.6256
 40
3.9357
 41
0.5
  1
※安全のため給湯温度は60℃以下でのご使用をおすすめします。
  0
TEXT
  8
LAYER_3
 10
169.5094
 20
103.1968
 11
169.5094
 21
103.1968
 40
3.9357
 41
0.5
  1
1～40℃
  0
TEXT
  8
LAYER_3
 10
169.5094
 20
89.6228
 11
169.5094
 21
89.6228
 40
3.9357
 41
0.5
  1
80℃
  0
TEXT
  8
LAYER_3
 10
169.5094
 20
97.1996
 11
169.5094
 21
97.1996
 40
3.9357
 41
0.5
  1
※寒冷地仕様ではありません、凍結が予想される場合は凍結予防をしてください。
  0
TEXT
  8
LAYER_3
 10
129.4953
 20
75.9203
 11
129.4953
 21
75.9203
 40
3.9357
 41
0.5
  1
特記事項
  0
TEXT
  8
LAYER_3
 10
129.4953
 20
89.6228
 11
129.4953
 21
89.6228
 40
3.9357
 41
0.5
  1
最高給湯温度
  0
TEXT
  8
LAYER_3
 10
129.4953
 20
103.1968
 11
129.4953
 21
103.1968
 40
3.9357
 41
0.5
  1
使用環境温度
  0
LINE
  8
LAYER_3
 10
145.6397
 20
130.0472
 11
290.1597
 21
130.0472
  0
TEXT
  8
LAYER_3
 10
147.4139
 20
124.5333
 11
147.4139
 21
124.5333
 40
3.9357
 41
0.5
  1
最高水圧
  0
LINE
  8
LAYER_3
 10
126.9566
 20
116.4732
 11
290.1597
 21
116.4732
  0
TEXT
  8
LAYER_3
 10
169.5094
 20
110.8187
 11
169.5094
 21
110.8187
 40
3.9357
 41
0.5
  1
水道水
  0
TEXT
  8
LAYER_3
 10
129.4953
 20
110.8187
 11
129.4953
 21
110.8187
 40
3.9357
 41
0.5
  1
使用可能水質
  0
LINE
  8
LAYER_3
 10
126.9566
 20
137.8097
 11
290.1597
 21
137.8097
  0
TEXT
  8
LAYER_3
 10
169.5094
 20
132.1552
 11
169.5094
 21
132.1552
 40
3.9357
 41
0.5
  1
0.1MPa（流動圧）
  0
TEXT
  8
LAYER_3
 10
147.4139
 20
132.1552
 11
147.4139
 21
132.1552
 40
3.9357
 41
0.5
  1
最低必要水圧
  0
LINE
  8
LAYER_3
 10
290.1597
 20
145.5722
 11
126.9566
 21
145.5722
  0
LINE
  8
LAYER_3
 10
126.9566
 20
145.5722
 11
126.9566
 21
61.9804
  0
LINE
  8
LAYER_3
 10
126.9566
 20
61.9804
 11
290.1597
 21
61.9804
  0
LINE
  8
LAYER_3
 10
290.1597
 20
61.9804
 11
290.1597
 21
145.5722
  0
LINE
  8
LAYER_3
 10
166.9707
 20
145.5722
 11
166.9707
 21
61.9804
  0
LINE
  8
LAYER_3
 10
145.6397
 20
137.8097
 11
145.6397
 21
116.4732
  0
TEXT
  8
LAYER_3
 10
169.5094
 20
139.9177
 11
169.5094
 21
139.9177
 40
3.9357
 41
0.5
  1
一般住宅用（屋内用）
  0
TEXT
  8
LAYER_3
 10
129.4953
 20
139.9177
 11
129.4953
 21
139.9177
 40
3.9357
 41
0.5
  1
用途
  0
TEXT
  8
LAYER_3
 10
129.4953
 20
132.1552
 11
129.4953
 21
132.1552
 40
3.9357
 41
0.5
  1
給水圧力
  0
TEXT
  8
LAYER_3
 10
253.4564
 20
20.3547
 11
253.4564
 21
20.3547
 40
3.9357
 41
0.5
 72
1
  1
KW2191042E
  0
TEXT
  8
LAYER_3
 10
203.8663
 20
34.4651
 11
203.8663
 21
34.4651
 40
3.6546
 41
0.5
 72
1
  1
1 ： 4
  0
TEXT
  8
LAYER_3
 10
195.5498
 20
40.658
 11
195.5498
 21
40.658
 40
3.0923
 41
0.5
  1
尺度
  0
TEXT
  8
LAYER_3
 10
195.5498
 20
53.0652
 11
195.5498
 21
53.0652
 40
3.0923
 41
0.5
  1
単位
  0
TEXT
  8
LAYER_3
 10
203.2744
 20
48.0691
 11
203.2744
 21
48.0691
 40
3.6546
 41
0.5
 72
1
  1
mm
  0
TEXT
  8
LAYER_3
 10
214.5116
 20
53.0652
 11
214.5116
 21
53.0652
 40
3.0923
 41
0.5
  1
名称
  0
TEXT
  8
LAYER_3
 10
214.5116
 20
32.9265
 11
214.5116
 21
32.9265
 40
3.0923
 41
0.5
  1
品番
  0
LINE
  8
LAYER_3
 10
213.4567
 20
27.156
 11
293.4567
 21
27.156
  0
TEXT
  8
LAYER_3
 10
214.5116
 20
22.9268
 11
214.5116
 21
22.9268
 40
3.0923
 41
0.5
  1
図番
  0
INSERT
  8
LAYER_3
  2
AIGNBL03010002
 10
0
 20
0
 30
0
  0
LINE
  8
LAYER_3
 10
-83.0433
 20
148.6576
 11
-104.7936
 21
148.6576
  0
LINE
  8
LAYER_3
 10
105.2067
 20
297.1763
 11
105.2067
 21
280.1562
  0
LINE
  8
LAYER_3
 10
105.2067
 20
17.1562
 11
105.2067
 21
0.176
  0
LINE
  8
LAYER_3
 10
315.2069
 20
148.6576
 11
293.4567
 21
148.6576
  0
TEXT
  8
LAYER_3
 10
134.4938
 20
21.9546
 11
134.4938
 21
21.9546
 40
3.9357
 41
0.5
  1
（社）日本水道協会認証品
  0
TEXT
  8
LAYER_3
 10
293.4567
 20
12.8082
 11
293.4567
 21
12.8082
 40
3.3734
 41
0.5
 72
2
  1
A3
  0
TEXT
  8
LAYER_3
 10
132.6465
 20
34.8502
 11
132.6465
 21
34.8502
 40
3.6546
 41
0.5
 72
1
  1
木場
  0
TEXT
  8
LAYER_3
 10
151.2204
 20
34.8502
 11
151.2204
 21
34.8502
 40
3.6546
 41
0.5
 72
1
  1
井田
  0
TEXT
  8
LAYER_3
 10
253.4564
 20
30.3551
 11
253.4564
 21
30.3551
 40
3.9357
 41
0.5
 72
1
  1
KW2191042E
  0
TEXT
  8
LAYER_3
 10
169.5094
 20
124.5333
 11
169.5094
 21
124.5333
 40
3.9357
 41
0.5
  1
0.5MPa（静水圧）
  0
TEXT
  8
LAYER_3
 10
169.5094
 20
118.6405
 11
169.5094
 21
118.6405
 40
3.9357
 41
0.5
  1
※快適にお使いいただくためには、0.2～0.3MPa程度の圧力をおすすめします。
  0
TEXT
  8
LAYER_3
 10
177.6925
 20
34.4651
 11
177.6925
 21
34.4651
 40
3.6546
 41
0.5
  1
23.03.13
  0
ENDSEC
  0
EOF
