  0
SECTION
  2
HEADER
  9
$ACADVER
  1
AC1009
  9
$LUNITS
 70
2
  9
$LUPREC
 70
4
  9
$LTSCALE
 40
1.0
  9
$EXTMIN
 10
-104.7936
 20
0.176
 30
0
  9
$EXTMAX
 10
315.2069
 20
297.1763
 30
0
  0
ENDSEC
  0
SECTION
  2
TABLES
  0
TABLE
  2
LTYPE
 70
256
  0
LTYPE
  2
AIGENLINE001
 70
64
  3
generate AI->DXF Converter
 72
65
 73
4
 40
6
 49
3.6
 49
-0.8
 49
0.8
 49
-0.8
  0
LTYPE
  2
AIGENLINE002
 70
64
  3
generate AI->DXF Converter
 72
65
 73
6
 40
7.6
 49
3.6
 49
-0.8
 49
0.8
 49
-0.8
 49
0.8
 49
-0.8
  0
LTYPE
  2
AIGENLINE003
 70
64
  3
generate AI->DXF Converter
 72
65
 73
4
 40
5.8561
 49
3.5278
 49
-0.7761
 49
0.7761
 49
-0.7761
  0
ENDTAB
  0
TABLE
  2
LAYER
 70
3
  0
LAYER
  2
LAYER_1
 70
64
 62
7
  6
CONTINUOUS
  0
LAYER
  2
LAYER_2
 70
64
 62
7
  6
CONTINUOUS
  0
LAYER
  2
LAYER_3
 70
64
 62
7
  6
CONTINUOUS
  0
ENDTAB
  0
TABLE
  2
STYLE
 70
6
  0
STYLE
  2
STANDARD
 70
0
 40
0
 50
0
 71
0
 41
0
 42
0
  3
TXT
  4
BIGFONT
  0
ENDTAB
  0
ENDSEC
  0
SECTION
  2
BLOCKS
  0
BLOCK
  8
LAYER_2
  2
AIGNBL02020009
 70
64
 10
0
 20
0
 30
0
  3
AIGNBL02020009
  0
LINE
  8
LAYER_2
 10
-29.2147
 20
118.2194
 11
-17.2149
 21
118.2194
  0
ENDBLK
  0
BLOCK
  8
LAYER_2
  2
AIGNBL0202000A
 70
64
 10
0
 20
0
 30
0
  3
AIGNBL0202000A
  0
LINE
  8
LAYER_2
 10
-17.4648
 20
119.2194
 11
-28.9648
 21
119.2194
  0
ENDBLK
  0
BLOCK
  8
LAYER_2
  2
AIGNBL0202000B
 70
64
 10
0
 20
0
 30
0
  3
AIGNBL0202000B
  0
LINE
  8
LAYER_2
 10
-27.7241
 20
162.4694
 11
-27.3829
 21
162.7654
  0
ENDBLK
  0
BLOCK
  8
LAYER_2
  2
AIGNBL0202000C
 70
64
 10
0
 20
0
 30
0
  3
AIGNBL0202000C
  0
LINE
  8
LAYER_2
 10
-29.2148
 20
118.9694
 11
-29.2148
 21
118.2194
  0
ENDBLK
  0
BLOCK
  8
LAYER_2
  2
AIGNBL0202000D
 70
64
 10
0
 20
0
 30
0
  3
AIGNBL0202000D
  0
LINE
  8
LAYER_2
 10
-28.2148
 20
164.5694
 11
-28.2148
 21
162.8069
  0
ENDBLK
  0
BLOCK
  8
LAYER_2
  2
AIGNBL0202000E
 70
64
 10
0
 20
0
 30
0
  3
AIGNBL0202000E
  0
LINE
  8
LAYER_2
 10
-28.2148
 20
162.3944
 11
-28.2148
 21
119.2194
  0
ENDBLK
  0
BLOCK
  8
LAYER_2
  2
AIGNBL0202000F
 70
64
 10
0
 20
0
 30
0
  3
AIGNBL0202000F
  0
LINE
  8
LAYER_2
 10
-20.6127
 20
150.7377
 11
-20.6097
 21
150.7405
  0
ENDBLK
  0
BLOCK
  8
LAYER_2
  2
AIGNBL02020010
 70
64
 10
0
 20
0
 30
0
  3
AIGNBL02020010
  0
LINE
  8
LAYER_2
 10
-20.6127
 20
150.7378
 11
-20.6097
 21
150.7405
  0
ENDBLK
  0
BLOCK
  8
LAYER_2
  2
AIGNBL02020011
 70
64
 10
0
 20
0
 30
0
  3
AIGNBL02020011
  0
LINE
  8
LAYER_2
 10
-20.9055
 20
148.8785
 11
-20.8398
 21
148.9175
  0
ENDBLK
  0
BLOCK
  8
LAYER_2
  2
AIGNBL02020012
 70
64
 10
0
 20
0
 30
0
  3
AIGNBL02020012
  0
LINE
  8
LAYER_2
 10
-21.0647
 20
148.7949
 11
-20.9055
 21
148.8785
  0
ENDBLK
  0
BLOCK
  8
LAYER_2
  2
AIGNBL02020013
 70
64
 10
0
 20
0
 30
0
  3
AIGNBL02020013
  0
LINE
  8
LAYER_2
 10
-27.3829
 20
162.8069
 11
-27.3829
 21
162.7654
  0
ENDBLK
  0
BLOCK
  8
LAYER_2
  2
AIGNBL02020014
 70
64
 10
0
 20
0
 30
0
  3
AIGNBL02020014
  0
LINE
  8
LAYER_2
 10
-26.1665
 20
154.6581
 11
-26.1674
 21
154.6507
  0
ENDBLK
  0
BLOCK
  8
LAYER_2
  2
AIGNBL02020015
 70
64
 10
0
 20
0
 30
0
  3
AIGNBL02020015
  0
LINE
  8
LAYER_2
 10
-20.5767
 20
150.8773
 11
-20.5704
 21
150.8864
  0
ENDBLK
  0
BLOCK
  8
LAYER_2
  2
AIGNBL02020016
 70
64
 10
0
 20
0
 30
0
  3
AIGNBL02020016
  0
LINE
  8
LAYER_2
 10
-20.581
 20
150.8711
 11
-20.5767
 21
150.8773
  0
ENDBLK
  0
BLOCK
  8
LAYER_2
  2
AIGNBL02020017
 70
64
 10
0
 20
0
 30
0
  3
AIGNBL02020017
  0
LINE
  8
LAYER_2
 10
-20.5853
 20
150.8649
 11
-20.581
 21
150.8711
  0
ENDBLK
  0
BLOCK
  8
LAYER_2
  2
AIGNBL02020018
 70
64
 10
0
 20
0
 30
0
  3
AIGNBL02020018
  0
LINE
  8
LAYER_2
 10
-20.5898
 20
150.8586
 11
-20.5853
 21
150.8649
  0
ENDBLK
  0
BLOCK
  8
LAYER_2
  2
AIGNBL02020019
 70
64
 10
0
 20
0
 30
0
  3
AIGNBL02020019
  0
LINE
  8
LAYER_2
 10
-20.5944
 20
150.8523
 11
-20.5898
 21
150.8586
  0
ENDBLK
  0
BLOCK
  8
LAYER_2
  2
AIGNBL0202001A
 70
64
 10
0
 20
0
 30
0
  3
AIGNBL0202001A
  0
LINE
  8
LAYER_2
 10
-20.599
 20
150.8459
 11
-20.5944
 21
150.8523
  0
ENDBLK
  0
BLOCK
  8
LAYER_2
  2
AIGNBL0202001B
 70
64
 10
0
 20
0
 30
0
  3
AIGNBL0202001B
  0
LINE
  8
LAYER_2
 10
-20.6037
 20
150.8395
 11
-20.599
 21
150.8459
  0
ENDBLK
  0
BLOCK
  8
LAYER_2
  2
AIGNBL0202001C
 70
64
 10
0
 20
0
 30
0
  3
AIGNBL0202001C
  0
LINE
  8
LAYER_2
 10
-20.6085
 20
150.8329
 11
-20.6037
 21
150.8395
  0
ENDBLK
  0
BLOCK
  8
LAYER_2
  2
AIGNBL0202001D
 70
64
 10
0
 20
0
 30
0
  3
AIGNBL0202001D
  0
LINE
  8
LAYER_2
 10
-20.6135
 20
150.8263
 11
-20.6085
 21
150.8329
  0
ENDBLK
  0
BLOCK
  8
LAYER_2
  2
AIGNBL0202001E
 70
64
 10
0
 20
0
 30
0
  3
AIGNBL0202001E
  0
LINE
  8
LAYER_2
 10
-20.6185
 20
150.8197
 11
-20.6135
 21
150.8263
  0
ENDBLK
  0
BLOCK
  8
LAYER_2
  2
AIGNBL0202001F
 70
64
 10
0
 20
0
 30
0
  3
AIGNBL0202001F
  0
LINE
  8
LAYER_2
 10
-20.6236
 20
150.8129
 11
-20.6185
 21
150.8197
  0
ENDBLK
  0
BLOCK
  8
LAYER_2
  2
AIGNBL02020020
 70
64
 10
0
 20
0
 30
0
  3
AIGNBL02020020
  0
LINE
  8
LAYER_2
 10
-20.6289
 20
150.8061
 11
-20.6236
 21
150.8129
  0
ENDBLK
  0
BLOCK
  8
LAYER_2
  2
AIGNBL02020021
 70
64
 10
0
 20
0
 30
0
  3
AIGNBL02020021
  0
LINE
  8
LAYER_2
 10
-20.6342
 20
150.7993
 11
-20.6289
 21
150.8061
  0
ENDBLK
  0
BLOCK
  8
LAYER_2
  2
AIGNBL02020022
 70
64
 10
0
 20
0
 30
0
  3
AIGNBL02020022
  0
LINE
  8
LAYER_2
 10
-20.6397
 20
150.7923
 11
-20.6342
 21
150.7993
  0
ENDBLK
  0
BLOCK
  8
LAYER_2
  2
AIGNBL02020023
 70
64
 10
0
 20
0
 30
0
  3
AIGNBL02020023
  0
LINE
  8
LAYER_2
 10
-20.6452
 20
150.7853
 11
-20.6397
 21
150.7923
  0
ENDBLK
  0
BLOCK
  8
LAYER_2
  2
AIGNBL02020024
 70
64
 10
0
 20
0
 30
0
  3
AIGNBL02020024
  0
LINE
  8
LAYER_2
 10
-20.6509
 20
150.7782
 11
-20.6452
 21
150.7853
  0
ENDBLK
  0
BLOCK
  8
LAYER_2
  2
AIGNBL02020025
 70
64
 10
0
 20
0
 30
0
  3
AIGNBL02020025
  0
LINE
  8
LAYER_2
 10
-20.6567
 20
150.771
 11
-20.6509
 21
150.7782
  0
ENDBLK
  0
BLOCK
  8
LAYER_2
  2
AIGNBL02020026
 70
64
 10
0
 20
0
 30
0
  3
AIGNBL02020026
  0
LINE
  8
LAYER_2
 10
-20.6627
 20
150.7637
 11
-20.6567
 21
150.771
  0
ENDBLK
  0
BLOCK
  8
LAYER_2
  2
AIGNBL02020027
 70
64
 10
0
 20
0
 30
0
  3
AIGNBL02020027
  0
LINE
  8
LAYER_2
 10
-20.6688
 20
150.7564
 11
-20.6627
 21
150.7637
  0
ENDBLK
  0
BLOCK
  8
LAYER_2
  2
AIGNBL02020028
 70
64
 10
0
 20
0
 30
0
  3
AIGNBL02020028
  0
LINE
  8
LAYER_2
 10
-20.675
 20
150.749
 11
-20.6688
 21
150.7564
  0
ENDBLK
  0
BLOCK
  8
LAYER_2
  2
AIGNBL02020029
 70
64
 10
0
 20
0
 30
0
  3
AIGNBL02020029
  0
LINE
  8
LAYER_2
 10
-20.6813
 20
150.7415
 11
-20.675
 21
150.749
  0
ENDBLK
  0
BLOCK
  8
LAYER_2
  2
AIGNBL0202002A
 70
64
 10
0
 20
0
 30
0
  3
AIGNBL0202002A
  0
LINE
  8
LAYER_2
 10
-20.6878
 20
150.7339
 11
-20.6813
 21
150.7415
  0
ENDBLK
  0
BLOCK
  8
LAYER_2
  2
AIGNBL0202002B
 70
64
 10
0
 20
0
 30
0
  3
AIGNBL0202002B
  0
LINE
  8
LAYER_2
 10
-20.6978
 20
150.7224
 11
-20.6944
 21
150.7262
  0
LINE
  8
LAYER_2
 10
-20.6944
 20
150.7262
 11
-20.6878
 21
150.7339
  0
ENDBLK
  0
BLOCK
  8
LAYER_2
  2
AIGNBL0202002C
 70
64
 10
0
 20
0
 30
0
  3
AIGNBL0202002C
  0
LINE
  8
LAYER_2
 10
-25.6985
 20
150.6865
 11
-25.6985
 21
149.9626
  0
ENDBLK
  0
BLOCK
  8
LAYER_2
  2
AIGNBL0202002D
 70
64
 10
0
 20
0
 30
0
  3
AIGNBL0202002D
  0
LINE
  8
LAYER_2
 10
-25.5898
 20
150.0523
 11
-25.5898
 21
148.9175
  0
ENDBLK
  0
BLOCK
  8
LAYER_2
  2
AIGNBL0202002E
 70
64
 10
0
 20
0
 30
0
  3
AIGNBL0202002E
  0
LINE
  8
LAYER_2
 10
-20.43
 20
151.1328
 11
-20.4265
 21
151.1405
  0
ENDBLK
  0
BLOCK
  8
LAYER_2
  2
AIGNBL0202002F
 70
64
 10
0
 20
0
 30
0
  3
AIGNBL0202002F
  0
LINE
  8
LAYER_2
 10
-20.4337
 20
151.125
 11
-20.43
 21
151.1328
  0
ENDBLK
  0
BLOCK
  8
LAYER_2
  2
AIGNBL02020030
 70
64
 10
0
 20
0
 30
0
  3
AIGNBL02020030
  0
LINE
  8
LAYER_2
 10
-20.4375
 20
151.1169
 11
-20.4337
 21
151.125
  0
ENDBLK
  0
BLOCK
  8
LAYER_2
  2
AIGNBL02020031
 70
64
 10
0
 20
0
 30
0
  3
AIGNBL02020031
  0
LINE
  8
LAYER_2
 10
-20.4414
 20
151.1087
 11
-20.4375
 21
151.1169
  0
ENDBLK
  0
BLOCK
  8
LAYER_2
  2
AIGNBL02020032
 70
64
 10
0
 20
0
 30
0
  3
AIGNBL02020032
  0
LINE
  8
LAYER_2
 10
-20.4455
 20
151.1003
 11
-20.4414
 21
151.1087
  0
ENDBLK
  0
BLOCK
  8
LAYER_2
  2
AIGNBL02020033
 70
64
 10
0
 20
0
 30
0
  3
AIGNBL02020033
  0
LINE
  8
LAYER_2
 10
-20.4498
 20
151.0917
 11
-20.4455
 21
151.1003
  0
ENDBLK
  0
BLOCK
  8
LAYER_2
  2
AIGNBL02020034
 70
64
 10
0
 20
0
 30
0
  3
AIGNBL02020034
  0
LINE
  8
LAYER_2
 10
-20.4542
 20
151.0829
 11
-20.4498
 21
151.0917
  0
ENDBLK
  0
BLOCK
  8
LAYER_2
  2
AIGNBL02020035
 70
64
 10
0
 20
0
 30
0
  3
AIGNBL02020035
  0
LINE
  8
LAYER_2
 10
-20.4576
 20
151.0762
 11
-20.4542
 21
151.0829
  0
ENDBLK
  0
BLOCK
  8
LAYER_2
  2
AIGNBL02020036
 70
64
 10
0
 20
0
 30
0
  3
AIGNBL02020036
  0
LINE
  8
LAYER_2
 10
-20.4611
 20
151.0694
 11
-20.4576
 21
151.0762
  0
ENDBLK
  0
BLOCK
  8
LAYER_2
  2
AIGNBL02020037
 70
64
 10
0
 20
0
 30
0
  3
AIGNBL02020037
  0
LINE
  8
LAYER_2
 10
-20.4646
 20
151.0625
 11
-20.4611
 21
151.0694
  0
ENDBLK
  0
BLOCK
  8
LAYER_2
  2
AIGNBL02020038
 70
64
 10
0
 20
0
 30
0
  3
AIGNBL02020038
  0
LINE
  8
LAYER_2
 10
-20.4683
 20
151.0556
 11
-20.4646
 21
151.0625
  0
ENDBLK
  0
BLOCK
  8
LAYER_2
  2
AIGNBL02020039
 70
64
 10
0
 20
0
 30
0
  3
AIGNBL02020039
  0
LINE
  8
LAYER_2
 10
-20.472
 20
151.0486
 11
-20.4683
 21
151.0556
  0
ENDBLK
  0
BLOCK
  8
LAYER_2
  2
AIGNBL0202003A
 70
64
 10
0
 20
0
 30
0
  3
AIGNBL0202003A
  0
LINE
  8
LAYER_2
 10
-20.4758
 20
151.0415
 11
-20.472
 21
151.0486
  0
ENDBLK
  0
BLOCK
  8
LAYER_2
  2
AIGNBL0202003B
 70
64
 10
0
 20
0
 30
0
  3
AIGNBL0202003B
  0
LINE
  8
LAYER_2
 10
-20.4797
 20
151.0343
 11
-20.4758
 21
151.0415
  0
ENDBLK
  0
BLOCK
  8
LAYER_2
  2
AIGNBL0202003C
 70
64
 10
0
 20
0
 30
0
  3
AIGNBL0202003C
  0
LINE
  8
LAYER_2
 10
-20.4836
 20
151.0271
 11
-20.4797
 21
151.0343
  0
ENDBLK
  0
BLOCK
  8
LAYER_2
  2
AIGNBL0202003D
 70
64
 10
0
 20
0
 30
0
  3
AIGNBL0202003D
  0
LINE
  8
LAYER_2
 10
-20.4877
 20
151.0197
 11
-20.4836
 21
151.0271
  0
ENDBLK
  0
BLOCK
  8
LAYER_2
  2
AIGNBL0202003E
 70
64
 10
0
 20
0
 30
0
  3
AIGNBL0202003E
  0
LINE
  8
LAYER_2
 10
-20.4919
 20
151.0123
 11
-20.4877
 21
151.0197
  0
ENDBLK
  0
BLOCK
  8
LAYER_2
  2
AIGNBL0202003F
 70
64
 10
0
 20
0
 30
0
  3
AIGNBL0202003F
  0
LINE
  8
LAYER_2
 10
-20.4962
 20
151.0048
 11
-20.4919
 21
151.0123
  0
ENDBLK
  0
BLOCK
  8
LAYER_2
  2
AIGNBL02020040
 70
64
 10
0
 20
0
 30
0
  3
AIGNBL02020040
  0
LINE
  8
LAYER_2
 10
-20.5005
 20
150.9972
 11
-20.4962
 21
151.0048
  0
ENDBLK
  0
BLOCK
  8
LAYER_2
  2
AIGNBL02020041
 70
64
 10
0
 20
0
 30
0
  3
AIGNBL02020041
  0
LINE
  8
LAYER_2
 10
-20.505
 20
150.9895
 11
-20.5005
 21
150.9972
  0
ENDBLK
  0
BLOCK
  8
LAYER_2
  2
AIGNBL02020042
 70
64
 10
0
 20
0
 30
0
  3
AIGNBL02020042
  0
LINE
  8
LAYER_2
 10
-20.5096
 20
150.9817
 11
-20.505
 21
150.9895
  0
ENDBLK
  0
BLOCK
  8
LAYER_2
  2
AIGNBL02020043
 70
64
 10
0
 20
0
 30
0
  3
AIGNBL02020043
  0
LINE
  8
LAYER_2
 10
-20.5143
 20
150.9738
 11
-20.5096
 21
150.9817
  0
ENDBLK
  0
BLOCK
  8
LAYER_2
  2
AIGNBL02020044
 70
64
 10
0
 20
0
 30
0
  3
AIGNBL02020044
  0
LINE
  8
LAYER_2
 10
-20.5191
 20
150.9659
 11
-20.5143
 21
150.9738
  0
ENDBLK
  0
BLOCK
  8
LAYER_2
  2
AIGNBL02020045
 70
64
 10
0
 20
0
 30
0
  3
AIGNBL02020045
  0
LINE
  8
LAYER_2
 10
-20.524
 20
150.9578
 11
-20.5191
 21
150.9659
  0
ENDBLK
  0
BLOCK
  8
LAYER_2
  2
AIGNBL02020046
 70
64
 10
0
 20
0
 30
0
  3
AIGNBL02020046
  0
LINE
  8
LAYER_2
 10
-20.5291
 20
150.9496
 11
-20.524
 21
150.9578
  0
ENDBLK
  0
BLOCK
  8
LAYER_2
  2
AIGNBL02020047
 70
64
 10
0
 20
0
 30
0
  3
AIGNBL02020047
  0
LINE
  8
LAYER_2
 10
-20.5342
 20
150.9414
 11
-20.5291
 21
150.9496
  0
ENDBLK
  0
BLOCK
  8
LAYER_2
  2
AIGNBL02020048
 70
64
 10
0
 20
0
 30
0
  3
AIGNBL02020048
  0
LINE
  8
LAYER_2
 10
-20.5396
 20
150.933
 11
-20.5342
 21
150.9414
  0
ENDBLK
  0
BLOCK
  8
LAYER_2
  2
AIGNBL02020049
 70
64
 10
0
 20
0
 30
0
  3
AIGNBL02020049
  0
LINE
  8
LAYER_2
 10
-20.545
 20
150.9245
 11
-20.5396
 21
150.933
  0
ENDBLK
  0
BLOCK
  8
LAYER_2
  2
AIGNBL0202004A
 70
64
 10
0
 20
0
 30
0
  3
AIGNBL0202004A
  0
LINE
  8
LAYER_2
 10
-20.5506
 20
150.9159
 11
-20.545
 21
150.9245
  0
ENDBLK
  0
BLOCK
  8
LAYER_2
  2
AIGNBL0202004B
 70
64
 10
0
 20
0
 30
0
  3
AIGNBL0202004B
  0
LINE
  8
LAYER_2
 10
-20.5564
 20
150.9072
 11
-20.5506
 21
150.9159
  0
ENDBLK
  0
BLOCK
  8
LAYER_2
  2
AIGNBL0202004C
 70
64
 10
0
 20
0
 30
0
  3
AIGNBL0202004C
  0
LINE
  8
LAYER_2
 10
-20.5623
 20
150.8984
 11
-20.5564
 21
150.9072
  0
ENDBLK
  0
BLOCK
  8
LAYER_2
  2
AIGNBL0202004D
 70
64
 10
0
 20
0
 30
0
  3
AIGNBL0202004D
  0
LINE
  8
LAYER_2
 10
-20.5704
 20
150.8864
 11
-20.5683
 21
150.8894
  0
LINE
  8
LAYER_2
 10
-20.5683
 20
150.8894
 11
-20.5623
 21
150.8984
  0
ENDBLK
  0
BLOCK
  8
LAYER_2
  2
AIGNBL0202004E
 70
64
 10
0
 20
0
 30
0
  3
AIGNBL0202004E
  0
LINE
  8
LAYER_2
 10
-20.3824
 20
151.2459
 11
-20.3798
 21
151.2527
  0
ENDBLK
  0
BLOCK
  8
LAYER_2
  2
AIGNBL0202004F
 70
64
 10
0
 20
0
 30
0
  3
AIGNBL0202004F
  0
LINE
  8
LAYER_2
 10
-20.3864
 20
151.2354
 11
-20.3829
 21
151.2445
  0
ENDBLK
  0
BLOCK
  8
LAYER_2
  2
AIGNBL02020050
 70
64
 10
0
 20
0
 30
0
  3
AIGNBL02020050
  0
LINE
  8
LAYER_2
 10
-20.3902
 20
151.2258
 11
-20.3864
 21
151.2354
  0
ENDBLK
  0
BLOCK
  8
LAYER_2
  2
AIGNBL02020051
 70
64
 10
0
 20
0
 30
0
  3
AIGNBL02020051
  0
LINE
  8
LAYER_2
 10
-20.3934
 20
151.2176
 11
-20.3902
 21
151.2258
  0
ENDBLK
  0
BLOCK
  8
LAYER_2
  2
AIGNBL02020052
 70
64
 10
0
 20
0
 30
0
  3
AIGNBL02020052
  0
LINE
  8
LAYER_2
 10
-20.397
 20
151.2088
 11
-20.3934
 21
151.2176
  0
ENDBLK
  0
BLOCK
  8
LAYER_2
  2
AIGNBL02020053
 70
64
 10
0
 20
0
 30
0
  3
AIGNBL02020053
  0
LINE
  8
LAYER_2
 10
-20.4003
 20
151.2008
 11
-20.397
 21
151.2088
  0
ENDBLK
  0
BLOCK
  8
LAYER_2
  2
AIGNBL02020054
 70
64
 10
0
 20
0
 30
0
  3
AIGNBL02020054
  0
LINE
  8
LAYER_2
 10
-20.4034
 20
151.1933
 11
-20.4003
 21
151.2008
  0
ENDBLK
  0
BLOCK
  8
LAYER_2
  2
AIGNBL02020055
 70
64
 10
0
 20
0
 30
0
  3
AIGNBL02020055
  0
LINE
  8
LAYER_2
 10
-20.4064
 20
151.186
 11
-20.4034
 21
151.1933
  0
ENDBLK
  0
BLOCK
  8
LAYER_2
  2
AIGNBL02020056
 70
64
 10
0
 20
0
 30
0
  3
AIGNBL02020056
  0
LINE
  8
LAYER_2
 10
-20.4095
 20
151.1789
 11
-20.4064
 21
151.186
  0
ENDBLK
  0
BLOCK
  8
LAYER_2
  2
AIGNBL02020057
 70
64
 10
0
 20
0
 30
0
  3
AIGNBL02020057
  0
LINE
  8
LAYER_2
 10
-20.4125
 20
151.1718
 11
-20.4095
 21
151.1789
  0
ENDBLK
  0
BLOCK
  8
LAYER_2
  2
AIGNBL02020058
 70
64
 10
0
 20
0
 30
0
  3
AIGNBL02020058
  0
LINE
  8
LAYER_2
 10
-20.4157
 20
151.1646
 11
-20.4125
 21
151.1718
  0
ENDBLK
  0
BLOCK
  8
LAYER_2
  2
AIGNBL02020059
 70
64
 10
0
 20
0
 30
0
  3
AIGNBL02020059
  0
LINE
  8
LAYER_2
 10
-20.4189
 20
151.1573
 11
-20.4157
 21
151.1646
  0
ENDBLK
  0
BLOCK
  8
LAYER_2
  2
AIGNBL0202005A
 70
64
 10
0
 20
0
 30
0
  3
AIGNBL0202005A
  0
LINE
  8
LAYER_2
 10
-20.4222
 20
151.1499
 11
-20.4189
 21
151.1573
  0
ENDBLK
  0
BLOCK
  8
LAYER_2
  2
AIGNBL0202005B
 70
64
 10
0
 20
0
 30
0
  3
AIGNBL0202005B
  0
LINE
  8
LAYER_2
 10
-20.4265
 20
151.1405
 11
-20.4256
 21
151.1424
  0
LINE
  8
LAYER_2
 10
-20.4256
 20
151.1424
 11
-20.4222
 21
151.1499
  0
ENDBLK
  0
BLOCK
  8
LAYER_2
  2
AIGNBL0202005C
 70
64
 10
0
 20
0
 30
0
  3
AIGNBL0202005C
  0
LINE
  8
LAYER_2
 10
-20.3131
 20
151.4576
 11
-20.3114
 21
151.4657
  0
ENDBLK
  0
BLOCK
  8
LAYER_2
  2
AIGNBL0202005D
 70
64
 10
0
 20
0
 30
0
  3
AIGNBL0202005D
  0
LINE
  8
LAYER_2
 10
-25.9736
 20
151.0794
 11
-25.9699
 21
151.072
  0
ENDBLK
  0
BLOCK
  8
LAYER_2
  2
AIGNBL0202005E
 70
64
 10
0
 20
0
 30
0
  3
AIGNBL0202005E
  0
LINE
  8
LAYER_2
 10
-25.9773
 20
151.0867
 11
-25.9736
 21
151.0794
  0
ENDBLK
  0
BLOCK
  8
LAYER_2
  2
AIGNBL0202005F
 70
64
 10
0
 20
0
 30
0
  3
AIGNBL0202005F
  0
LINE
  8
LAYER_2
 10
-25.981
 20
151.094
 11
-25.9773
 21
151.0867
  0
ENDBLK
  0
BLOCK
  8
LAYER_2
  2
AIGNBL02020060
 70
64
 10
0
 20
0
 30
0
  3
AIGNBL02020060
  0
LINE
  8
LAYER_2
 10
-25.9846
 20
151.1014
 11
-25.981
 21
151.094
  0
ENDBLK
  0
BLOCK
  8
LAYER_2
  2
AIGNBL02020061
 70
64
 10
0
 20
0
 30
0
  3
AIGNBL02020061
  0
LINE
  8
LAYER_2
 10
-25.9881
 20
151.1087
 11
-25.9846
 21
151.1014
  0
ENDBLK
  0
BLOCK
  8
LAYER_2
  2
AIGNBL02020062
 70
64
 10
0
 20
0
 30
0
  3
AIGNBL02020062
  0
LINE
  8
LAYER_2
 10
-25.9916
 20
151.116
 11
-25.9881
 21
151.1087
  0
ENDBLK
  0
BLOCK
  8
LAYER_2
  2
AIGNBL02020063
 70
64
 10
0
 20
0
 30
0
  3
AIGNBL02020063
  0
LINE
  8
LAYER_2
 10
-25.9951
 20
151.1233
 11
-25.9916
 21
151.116
  0
ENDBLK
  0
BLOCK
  8
LAYER_2
  2
AIGNBL02020064
 70
64
 10
0
 20
0
 30
0
  3
AIGNBL02020064
  0
LINE
  8
LAYER_2
 10
-25.9986
 20
151.1307
 11
-25.9951
 21
151.1233
  0
ENDBLK
  0
BLOCK
  8
LAYER_2
  2
AIGNBL02020065
 70
64
 10
0
 20
0
 30
0
  3
AIGNBL02020065
  0
LINE
  8
LAYER_2
 10
-26.002
 20
151.138
 11
-25.9986
 21
151.1307
  0
ENDBLK
  0
BLOCK
  8
LAYER_2
  2
AIGNBL02020066
 70
64
 10
0
 20
0
 30
0
  3
AIGNBL02020066
  0
LINE
  8
LAYER_2
 10
-26.0054
 20
151.1454
 11
-26.002
 21
151.138
  0
ENDBLK
  0
BLOCK
  8
LAYER_2
  2
AIGNBL02020067
 70
64
 10
0
 20
0
 30
0
  3
AIGNBL02020067
  0
LINE
  8
LAYER_2
 10
-26.0087
 20
151.1529
 11
-26.0054
 21
151.1454
  0
ENDBLK
  0
BLOCK
  8
LAYER_2
  2
AIGNBL02020068
 70
64
 10
0
 20
0
 30
0
  3
AIGNBL02020068
  0
LINE
  8
LAYER_2
 10
-26.0121
 20
151.1605
 11
-26.0087
 21
151.1529
  0
ENDBLK
  0
BLOCK
  8
LAYER_2
  2
AIGNBL02020069
 70
64
 10
0
 20
0
 30
0
  3
AIGNBL02020069
  0
LINE
  8
LAYER_2
 10
-26.0154
 20
151.1681
 11
-26.0121
 21
151.1605
  0
ENDBLK
  0
BLOCK
  8
LAYER_2
  2
AIGNBL0202006A
 70
64
 10
0
 20
0
 30
0
  3
AIGNBL0202006A
  0
LINE
  8
LAYER_2
 10
-26.0188
 20
151.1758
 11
-26.0154
 21
151.1681
  0
ENDBLK
  0
BLOCK
  8
LAYER_2
  2
AIGNBL0202006B
 70
64
 10
0
 20
0
 30
0
  3
AIGNBL0202006B
  0
LINE
  8
LAYER_2
 10
-26.0221
 20
151.1836
 11
-26.0188
 21
151.1758
  0
ENDBLK
  0
BLOCK
  8
LAYER_2
  2
AIGNBL0202006C
 70
64
 10
0
 20
0
 30
0
  3
AIGNBL0202006C
  0
LINE
  8
LAYER_2
 10
-26.0254
 20
151.1915
 11
-26.0221
 21
151.1836
  0
ENDBLK
  0
BLOCK
  8
LAYER_2
  2
AIGNBL0202006D
 70
64
 10
0
 20
0
 30
0
  3
AIGNBL0202006D
  0
LINE
  8
LAYER_2
 10
-26.0288
 20
151.1995
 11
-26.0254
 21
151.1915
  0
ENDBLK
  0
BLOCK
  8
LAYER_2
  2
AIGNBL0202006E
 70
64
 10
0
 20
0
 30
0
  3
AIGNBL0202006E
  0
LINE
  8
LAYER_2
 10
-26.0323
 20
151.208
 11
-26.0288
 21
151.1995
  0
ENDBLK
  0
BLOCK
  8
LAYER_2
  2
AIGNBL0202006F
 70
64
 10
0
 20
0
 30
0
  3
AIGNBL0202006F
  0
LINE
  8
LAYER_2
 10
-26.036
 20
151.2173
 11
-26.0323
 21
151.208
  0
ENDBLK
  0
BLOCK
  8
LAYER_2
  2
AIGNBL02020070
 70
64
 10
0
 20
0
 30
0
  3
AIGNBL02020070
  0
LINE
  8
LAYER_2
 10
-26.0391
 20
151.2251
 11
-26.036
 21
151.2173
  0
ENDBLK
  0
BLOCK
  8
LAYER_2
  2
AIGNBL02020071
 70
64
 10
0
 20
0
 30
0
  3
AIGNBL02020071
  0
LINE
  8
LAYER_2
 10
-26.043
 20
151.2351
 11
-26.0391
 21
151.2251
  0
ENDBLK
  0
BLOCK
  8
LAYER_2
  2
AIGNBL02020072
 70
64
 10
0
 20
0
 30
0
  3
AIGNBL02020072
  0
LINE
  8
LAYER_2
 10
-26.0468
 20
151.245
 11
-26.043
 21
151.2351
  0
ENDBLK
  0
BLOCK
  8
LAYER_2
  2
AIGNBL02020073
 70
64
 10
0
 20
0
 30
0
  3
AIGNBL02020073
  0
LINE
  8
LAYER_2
 10
-26.0507
 20
151.2552
 11
-26.0468
 21
151.245
  0
ENDBLK
  0
BLOCK
  8
LAYER_2
  2
AIGNBL02020074
 70
64
 10
0
 20
0
 30
0
  3
AIGNBL02020074
  0
LINE
  8
LAYER_2
 10
-20.8398
 20
148.9175
 11
-20.8398
 21
150.0523
  0
ENDBLK
  0
BLOCK
  8
LAYER_2
  2
AIGNBL02020075
 70
64
 10
0
 20
0
 30
0
  3
AIGNBL02020075
  0
LINE
  8
LAYER_2
 10
-20.731
 20
150.6865
 11
-20.731
 21
149.9626
  0
ENDBLK
  0
BLOCK
  8
LAYER_2
  2
AIGNBL02020076
 70
64
 10
0
 20
0
 30
0
  3
AIGNBL02020076
  0
LINE
  8
LAYER_2
 10
-25.8168
 20
150.8273
 11
-25.8102
 21
150.8184
  0
ENDBLK
  0
BLOCK
  8
LAYER_2
  2
AIGNBL02020077
 70
64
 10
0
 20
0
 30
0
  3
AIGNBL02020077
  0
LINE
  8
LAYER_2
 10
-25.8234
 20
150.8361
 11
-25.8168
 21
150.8273
  0
ENDBLK
  0
BLOCK
  8
LAYER_2
  2
AIGNBL02020078
 70
64
 10
0
 20
0
 30
0
  3
AIGNBL02020078
  0
LINE
  8
LAYER_2
 10
-25.8297
 20
150.8447
 11
-25.8234
 21
150.8361
  0
ENDBLK
  0
BLOCK
  8
LAYER_2
  2
AIGNBL02020079
 70
64
 10
0
 20
0
 30
0
  3
AIGNBL02020079
  0
LINE
  8
LAYER_2
 10
-25.8359
 20
150.8533
 11
-25.8297
 21
150.8447
  0
ENDBLK
  0
BLOCK
  8
LAYER_2
  2
AIGNBL0202007A
 70
64
 10
0
 20
0
 30
0
  3
AIGNBL0202007A
  0
LINE
  8
LAYER_2
 10
-25.842
 20
150.8617
 11
-25.8359
 21
150.8533
  0
ENDBLK
  0
BLOCK
  8
LAYER_2
  2
AIGNBL0202007B
 70
64
 10
0
 20
0
 30
0
  3
AIGNBL0202007B
  0
LINE
  8
LAYER_2
 10
-25.8479
 20
150.8701
 11
-25.842
 21
150.8617
  0
ENDBLK
  0
BLOCK
  8
LAYER_2
  2
AIGNBL0202007C
 70
64
 10
0
 20
0
 30
0
  3
AIGNBL0202007C
  0
LINE
  8
LAYER_2
 10
-25.8536
 20
150.8782
 11
-25.8479
 21
150.8701
  0
ENDBLK
  0
BLOCK
  8
LAYER_2
  2
AIGNBL0202007D
 70
64
 10
0
 20
0
 30
0
  3
AIGNBL0202007D
  0
LINE
  8
LAYER_2
 10
-25.8591
 20
150.8863
 11
-25.8536
 21
150.8782
  0
ENDBLK
  0
BLOCK
  8
LAYER_2
  2
AIGNBL0202007E
 70
64
 10
0
 20
0
 30
0
  3
AIGNBL0202007E
  0
LINE
  8
LAYER_2
 10
-25.8645
 20
150.8941
 11
-25.8591
 21
150.8863
  0
ENDBLK
  0
BLOCK
  8
LAYER_2
  2
AIGNBL0202007F
 70
64
 10
0
 20
0
 30
0
  3
AIGNBL0202007F
  0
LINE
  8
LAYER_2
 10
-25.8696
 20
150.9018
 11
-25.8645
 21
150.8941
  0
ENDBLK
  0
BLOCK
  8
LAYER_2
  2
AIGNBL02020080
 70
64
 10
0
 20
0
 30
0
  3
AIGNBL02020080
  0
LINE
  8
LAYER_2
 10
-25.8746
 20
150.9093
 11
-25.8696
 21
150.9018
  0
ENDBLK
  0
BLOCK
  8
LAYER_2
  2
AIGNBL02020081
 70
64
 10
0
 20
0
 30
0
  3
AIGNBL02020081
  0
LINE
  8
LAYER_2
 10
-25.8794
 20
150.9165
 11
-25.8746
 21
150.9093
  0
ENDBLK
  0
BLOCK
  8
LAYER_2
  2
AIGNBL02020082
 70
64
 10
0
 20
0
 30
0
  3
AIGNBL02020082
  0
LINE
  8
LAYER_2
 10
-25.8839
 20
150.9235
 11
-25.8794
 21
150.9165
  0
ENDBLK
  0
BLOCK
  8
LAYER_2
  2
AIGNBL02020083
 70
64
 10
0
 20
0
 30
0
  3
AIGNBL02020083
  0
LINE
  8
LAYER_2
 10
-25.8883
 20
150.9303
 11
-25.8839
 21
150.9235
  0
ENDBLK
  0
BLOCK
  8
LAYER_2
  2
AIGNBL02020084
 70
64
 10
0
 20
0
 30
0
  3
AIGNBL02020084
  0
LINE
  8
LAYER_2
 10
-25.8926
 20
150.937
 11
-25.8883
 21
150.9303
  0
ENDBLK
  0
BLOCK
  8
LAYER_2
  2
AIGNBL02020085
 70
64
 10
0
 20
0
 30
0
  3
AIGNBL02020085
  0
LINE
  8
LAYER_2
 10
-25.8967
 20
150.9435
 11
-25.8926
 21
150.937
  0
ENDBLK
  0
BLOCK
  8
LAYER_2
  2
AIGNBL02020086
 70
64
 10
0
 20
0
 30
0
  3
AIGNBL02020086
  0
LINE
  8
LAYER_2
 10
-25.9007
 20
150.95
 11
-25.8967
 21
150.9435
  0
ENDBLK
  0
BLOCK
  8
LAYER_2
  2
AIGNBL02020087
 70
64
 10
0
 20
0
 30
0
  3
AIGNBL02020087
  0
LINE
  8
LAYER_2
 10
-25.9047
 20
150.9563
 11
-25.9007
 21
150.95
  0
ENDBLK
  0
BLOCK
  8
LAYER_2
  2
AIGNBL02020088
 70
64
 10
0
 20
0
 30
0
  3
AIGNBL02020088
  0
LINE
  8
LAYER_2
 10
-25.9098
 20
150.9647
 11
-25.9047
 21
150.9563
  0
ENDBLK
  0
BLOCK
  8
LAYER_2
  2
AIGNBL02020089
 70
64
 10
0
 20
0
 30
0
  3
AIGNBL02020089
  0
LINE
  8
LAYER_2
 10
-25.9147
 20
150.9729
 11
-25.9098
 21
150.9647
  0
ENDBLK
  0
BLOCK
  8
LAYER_2
  2
AIGNBL0202008A
 70
64
 10
0
 20
0
 30
0
  3
AIGNBL0202008A
  0
LINE
  8
LAYER_2
 10
-25.9196
 20
150.981
 11
-25.9147
 21
150.9729
  0
ENDBLK
  0
BLOCK
  8
LAYER_2
  2
AIGNBL0202008B
 70
64
 10
0
 20
0
 30
0
  3
AIGNBL0202008B
  0
LINE
  8
LAYER_2
 10
-25.9243
 20
150.9889
 11
-25.9196
 21
150.981
  0
ENDBLK
  0
BLOCK
  8
LAYER_2
  2
AIGNBL0202008C
 70
64
 10
0
 20
0
 30
0
  3
AIGNBL0202008C
  0
LINE
  8
LAYER_2
 10
-25.9288
 20
150.9968
 11
-25.9243
 21
150.9889
  0
ENDBLK
  0
BLOCK
  8
LAYER_2
  2
AIGNBL0202008D
 70
64
 10
0
 20
0
 30
0
  3
AIGNBL0202008D
  0
LINE
  8
LAYER_2
 10
-25.9333
 20
151.0046
 11
-25.9288
 21
150.9968
  0
ENDBLK
  0
BLOCK
  8
LAYER_2
  2
AIGNBL0202008E
 70
64
 10
0
 20
0
 30
0
  3
AIGNBL0202008E
  0
LINE
  8
LAYER_2
 10
-25.9377
 20
151.0123
 11
-25.9333
 21
151.0046
  0
ENDBLK
  0
BLOCK
  8
LAYER_2
  2
AIGNBL0202008F
 70
64
 10
0
 20
0
 30
0
  3
AIGNBL0202008F
  0
LINE
  8
LAYER_2
 10
-25.942
 20
151.0199
 11
-25.9377
 21
151.0123
  0
ENDBLK
  0
BLOCK
  8
LAYER_2
  2
AIGNBL02020090
 70
64
 10
0
 20
0
 30
0
  3
AIGNBL02020090
  0
LINE
  8
LAYER_2
 10
-25.9461
 20
151.0274
 11
-25.942
 21
151.0199
  0
ENDBLK
  0
BLOCK
  8
LAYER_2
  2
AIGNBL02020091
 70
64
 10
0
 20
0
 30
0
  3
AIGNBL02020091
  0
LINE
  8
LAYER_2
 10
-25.9503
 20
151.0349
 11
-25.9461
 21
151.0274
  0
ENDBLK
  0
BLOCK
  8
LAYER_2
  2
AIGNBL02020092
 70
64
 10
0
 20
0
 30
0
  3
AIGNBL02020092
  0
LINE
  8
LAYER_2
 10
-25.9543
 20
151.0424
 11
-25.9503
 21
151.0349
  0
ENDBLK
  0
BLOCK
  8
LAYER_2
  2
AIGNBL02020093
 70
64
 10
0
 20
0
 30
0
  3
AIGNBL02020093
  0
LINE
  8
LAYER_2
 10
-25.9583
 20
151.0498
 11
-25.9543
 21
151.0424
  0
ENDBLK
  0
BLOCK
  8
LAYER_2
  2
AIGNBL02020094
 70
64
 10
0
 20
0
 30
0
  3
AIGNBL02020094
  0
LINE
  8
LAYER_2
 10
-25.9622
 20
151.0573
 11
-25.9583
 21
151.0498
  0
ENDBLK
  0
BLOCK
  8
LAYER_2
  2
AIGNBL02020095
 70
64
 10
0
 20
0
 30
0
  3
AIGNBL02020095
  0
LINE
  8
LAYER_2
 10
-25.9661
 20
151.0647
 11
-25.9622
 21
151.0573
  0
ENDBLK
  0
BLOCK
  8
LAYER_2
  2
AIGNBL02020096
 70
64
 10
0
 20
0
 30
0
  3
AIGNBL02020096
  0
LINE
  8
LAYER_2
 10
-25.9699
 20
151.072
 11
-25.9661
 21
151.0647
  0
ENDBLK
  0
BLOCK
  8
LAYER_2
  2
AIGNBL02020097
 70
64
 10
0
 20
0
 30
0
  3
AIGNBL02020097
  0
LINE
  8
LAYER_2
 10
-19.0466
 20
162.8069
 11
-19.0466
 21
162.7654
  0
ENDBLK
  0
BLOCK
  8
LAYER_2
  2
AIGNBL02020098
 70
64
 10
0
 20
0
 30
0
  3
AIGNBL02020098
  0
LINE
  8
LAYER_2
 10
-18.2148
 20
164.5694
 11
-18.2148
 21
162.8069
  0
ENDBLK
  0
BLOCK
  8
LAYER_2
  2
AIGNBL02020099
 70
64
 10
0
 20
0
 30
0
  3
AIGNBL02020099
  0
LINE
  8
LAYER_2
 10
-18.2148
 20
162.3944
 11
-18.2148
 21
119.2194
  0
ENDBLK
  0
BLOCK
  8
LAYER_2
  2
AIGNBL0202009A
 70
64
 10
0
 20
0
 30
0
  3
AIGNBL0202009A
  0
LINE
  8
LAYER_2
 10
-25.5898
 20
148.9175
 11
-25.5241
 21
148.8785
  0
ENDBLK
  0
BLOCK
  8
LAYER_2
  2
AIGNBL0202009B
 70
64
 10
0
 20
0
 30
0
  3
AIGNBL0202009B
  0
LINE
  8
LAYER_2
 10
-25.8198
 20
150.7405
 11
-25.8169
 21
150.7378
  0
ENDBLK
  0
BLOCK
  8
LAYER_2
  2
AIGNBL0202009C
 70
64
 10
0
 20
0
 30
0
  3
AIGNBL0202009C
  0
LINE
  8
LAYER_2
 10
-25.8198
 20
150.7405
 11
-25.8169
 21
150.7377
  0
ENDBLK
  0
BLOCK
  8
LAYER_2
  2
AIGNBL0202009D
 70
64
 10
0
 20
0
 30
0
  3
AIGNBL0202009D
  0
LINE
  8
LAYER_2
 10
-25.7378
 20
150.7293
 11
-25.7318
 21
150.7224
  0
ENDBLK
  0
BLOCK
  8
LAYER_2
  2
AIGNBL0202009E
 70
64
 10
0
 20
0
 30
0
  3
AIGNBL0202009E
  0
LINE
  8
LAYER_2
 10
-25.7436
 20
150.7361
 11
-25.7378
 21
150.7293
  0
ENDBLK
  0
BLOCK
  8
LAYER_2
  2
AIGNBL0202009F
 70
64
 10
0
 20
0
 30
0
  3
AIGNBL0202009F
  0
LINE
  8
LAYER_2
 10
-25.7494
 20
150.7428
 11
-25.7436
 21
150.7361
  0
ENDBLK
  0
BLOCK
  8
LAYER_2
  2
AIGNBL020200A0
 70
64
 10
0
 20
0
 30
0
  3
AIGNBL020200A0
  0
LINE
  8
LAYER_2
 10
-25.755
 20
150.7495
 11
-25.7494
 21
150.7428
  0
ENDBLK
  0
BLOCK
  8
LAYER_2
  2
AIGNBL020200A1
 70
64
 10
0
 20
0
 30
0
  3
AIGNBL020200A1
  0
LINE
  8
LAYER_2
 10
-25.7605
 20
150.756
 11
-25.755
 21
150.7495
  0
ENDBLK
  0
BLOCK
  8
LAYER_2
  2
AIGNBL020200A2
 70
64
 10
0
 20
0
 30
0
  3
AIGNBL020200A2
  0
LINE
  8
LAYER_2
 10
-25.7659
 20
150.7626
 11
-25.7605
 21
150.756
  0
ENDBLK
  0
BLOCK
  8
LAYER_2
  2
AIGNBL020200A3
 70
64
 10
0
 20
0
 30
0
  3
AIGNBL020200A3
  0
LINE
  8
LAYER_2
 10
-25.7712
 20
150.769
 11
-25.7659
 21
150.7626
  0
ENDBLK
  0
BLOCK
  8
LAYER_2
  2
AIGNBL020200A4
 70
64
 10
0
 20
0
 30
0
  3
AIGNBL020200A4
  0
LINE
  8
LAYER_2
 10
-25.7764
 20
150.7754
 11
-25.7712
 21
150.769
  0
ENDBLK
  0
BLOCK
  8
LAYER_2
  2
AIGNBL020200A5
 70
64
 10
0
 20
0
 30
0
  3
AIGNBL020200A5
  0
LINE
  8
LAYER_2
 10
-25.7815
 20
150.7817
 11
-25.7764
 21
150.7754
  0
ENDBLK
  0
BLOCK
  8
LAYER_2
  2
AIGNBL020200A6
 70
64
 10
0
 20
0
 30
0
  3
AIGNBL020200A6
  0
LINE
  8
LAYER_2
 10
-25.7865
 20
150.788
 11
-25.7815
 21
150.7817
  0
ENDBLK
  0
BLOCK
  8
LAYER_2
  2
AIGNBL020200A7
 70
64
 10
0
 20
0
 30
0
  3
AIGNBL020200A7
  0
LINE
  8
LAYER_2
 10
-25.7914
 20
150.7942
 11
-25.7865
 21
150.788
  0
ENDBLK
  0
BLOCK
  8
LAYER_2
  2
AIGNBL020200A8
 70
64
 10
0
 20
0
 30
0
  3
AIGNBL020200A8
  0
LINE
  8
LAYER_2
 10
-25.7962
 20
150.8003
 11
-25.7914
 21
150.7942
  0
ENDBLK
  0
BLOCK
  8
LAYER_2
  2
AIGNBL020200A9
 70
64
 10
0
 20
0
 30
0
  3
AIGNBL020200A9
  0
LINE
  8
LAYER_2
 10
-25.801
 20
150.8064
 11
-25.7962
 21
150.8003
  0
ENDBLK
  0
BLOCK
  8
LAYER_2
  2
AIGNBL020200AA
 70
64
 10
0
 20
0
 30
0
  3
AIGNBL020200AA
  0
LINE
  8
LAYER_2
 10
-25.8102
 20
150.8184
 11
-25.8079
 21
150.8155
  0
LINE
  8
LAYER_2
 10
-25.8079
 20
150.8155
 11
-25.801
 21
150.8064
  0
ENDBLK
  0
BLOCK
  8
LAYER_2
  2
AIGNBL020200AB
 70
64
 10
0
 20
0
 30
0
  3
AIGNBL020200AB
  0
LINE
  8
LAYER_2
 10
-17.2148
 20
118.9694
 11
-17.2148
 21
118.2194
  0
ENDBLK
  0
BLOCK
  8
LAYER_2
  2
AIGNBL020200AC
 70
64
 10
0
 20
0
 30
0
  3
AIGNBL020200AC
  0
LINE
  8
LAYER_2
 10
-25.3649
 20
148.7949
 11
-25.5241
 21
148.8785
  0
ENDBLK
  0
BLOCK
  8
LAYER_2
  2
AIGNBL020200AD
 70
64
 10
0
 20
0
 30
0
  3
AIGNBL020200AD
  0
LINE
  8
LAYER_2
 10
-25.7612
 20
150.7568
 11
-25.7613
 21
150.7569
  0
ENDBLK
  0
BLOCK
  8
LAYER_2
  2
AIGNBL020200AE
 70
64
 10
0
 20
0
 30
0
  3
AIGNBL020200AE
  0
LINE
  8
LAYER_2
 10
-26.3357
 20
151.6822
 11
-26.3354
 21
151.6822
  0
ENDBLK
  0
BLOCK
  8
LAYER_2
  2
AIGNBL020200AF
 70
64
 10
0
 20
0
 30
0
  3
AIGNBL020200AF
  0
LINE
  8
LAYER_2
 10
-26.3344
 20
151.6821
 11
-26.3342
 21
151.6821
  0
ENDBLK
  0
BLOCK
  8
LAYER_2
  2
AIGNBL020200B0
 70
64
 10
0
 20
0
 30
0
  3
AIGNBL020200B0
  0
LINE
  8
LAYER_2
 10
-26.334
 20
151.6821
 11
-26.3339
 21
151.6821
  0
LINE
  8
LAYER_2
 10
-26.3339
 20
151.6821
 11
-26.3338
 21
151.6821
  0
ENDBLK
  0
BLOCK
  8
LAYER_2
  2
AIGNBL020200B1
 70
64
 10
0
 20
0
 30
0
  3
AIGNBL020200B1
  0
LINE
  8
LAYER_2
 10
-21.1717
 20
155.5344
 11
-21.1963
 21
155.5367
  0
ENDBLK
  0
BLOCK
  8
LAYER_2
  2
AIGNBL020200B2
 70
64
 10
0
 20
0
 30
0
  3
AIGNBL020200B2
  0
LINE
  8
LAYER_2
 10
-18.7055
 20
162.4694
 11
-19.0466
 21
162.7654
  0
ENDBLK
  0
BLOCK
  8
LAYER_2
  2
AIGNBL020200B3
 70
64
 10
0
 20
0
 30
0
  3
AIGNBL020200B3
  0
LINE
  8
LAYER_2
 10
-18.2898
 20
162.4694
 11
-28.1398
 21
162.4694
  0
ENDBLK
  0
BLOCK
  8
LAYER_2
  2
AIGNBL020200B4
 70
64
 10
0
 20
0
 30
0
  3
AIGNBL020200B4
  0
LINE
  8
LAYER_2
 10
-19.0466
 20
162.7654
 11
-27.3829
 21
162.7654
  0
ENDBLK
  0
BLOCK
  8
LAYER_2
  2
AIGNBL020200B5
 70
64
 10
0
 20
0
 30
0
  3
AIGNBL020200B5
  0
LINE
  8
LAYER_2
 10
-28.2148
 20
162.8069
 11
-18.2148
 21
162.8069
  0
ENDBLK
  0
BLOCK
  8
LAYER_2
  2
AIGNBL020200B6
 70
64
 10
0
 20
0
 30
0
  3
AIGNBL020200B6
  0
ARC
  8
LAYER_2
 10
-23.2147
 20
133.5829
 40
22.0463
 50
84.74714866
 51
95.31774214
  0
ENDBLK
  0
BLOCK
  8
LAYER_2
  2
AIGNBL020200B7
 70
64
 10
0
 20
0
 30
0
  3
AIGNBL020200B7
  0
ARC
  8
LAYER_2
 10
-23.2156
 20
133.6934
 40
22.0073
 50
84.10955412
 51
89.99781165
  0
ENDBLK
  0
BLOCK
  8
LAYER_2
  2
AIGNBL020200B8
 70
64
 10
0
 20
0
 30
0
  3
AIGNBL020200B8
  0
LINE
  8
LAYER_2
 10
-25.7341
 20
149.8651
 11
-25.7475
 21
150.0619
  0
ENDBLK
  0
BLOCK
  8
LAYER_2
  2
AIGNBL020200B9
 70
64
 10
0
 20
0
 30
0
  3
AIGNBL020200B9
  0
LINE
  8
LAYER_2
 10
-20.2986
 20
151.5505
 11
-20.2899
 21
151.5975
  0
ENDBLK
  0
BLOCK
  8
LAYER_2
  2
AIGNBL020200BA
 70
64
 10
0
 20
0
 30
0
  3
AIGNBL020200BA
  0
LINE
  8
LAYER_2
 10
-26.1357
 20
151.5753
 11
-26.1309
 21
151.5505
  0
ENDBLK
  0
BLOCK
  8
LAYER_2
  2
AIGNBL020200BB
 70
64
 10
0
 20
0
 30
0
  3
AIGNBL020200BB
  0
LINE
  8
LAYER_2
 10
-26.1497
 20
151.6608
 11
-26.1411
 21
151.6052
  0
ENDBLK
  0
BLOCK
  8
LAYER_2
  2
AIGNBL020200BC
 70
64
 10
0
 20
0
 30
0
  3
AIGNBL020200BC
  0
LINE
  8
LAYER_2
 10
-26.1411
 20
151.6052
 11
-26.1397
 21
151.5975
  0
ENDBLK
  0
BLOCK
  8
LAYER_2
  2
AIGNBL020200BD
 70
64
 10
0
 20
0
 30
0
  3
AIGNBL020200BD
  0
ARC
  8
LAYER_2
 10
-24.848
 20
151.8875
 40
1.4999
 50
187.8704417
 51
224.7684105
  0
ENDBLK
  0
BLOCK
  8
LAYER_2
  2
AIGNBL020200BE
 70
64
 10
0
 20
0
 30
0
  3
AIGNBL020200BE
  0
LINE
  8
LAYER_2
 10
-26.1397
 20
151.5975
 11
-26.1165
 21
151.4576
  0
ENDBLK
  0
BLOCK
  8
LAYER_2
  2
AIGNBL020200BF
 70
64
 10
0
 20
0
 30
0
  3
AIGNBL020200BF
  0
LINE
  8
LAYER_2
 10
-25.9996
 20
151.1239
 11
-25.9754
 21
151.0829
  0
ENDBLK
  0
BLOCK
  8
LAYER_2
  2
AIGNBL020200C0
 70
64
 10
0
 20
0
 30
0
  3
AIGNBL020200C0
  0
LINE
  8
LAYER_2
 10
-26.1165
 20
151.4576
 11
-26.0173
 21
151.1608
  0
ENDBLK
  0
BLOCK
  8
LAYER_2
  2
AIGNBL020200C1
 70
64
 10
0
 20
0
 30
0
  3
AIGNBL020200C1
  0
LINE
  8
LAYER_2
 10
-26.0173
 20
151.1608
 11
-25.9996
 21
151.1239
  0
ENDBLK
  0
BLOCK
  8
LAYER_2
  2
AIGNBL020200C2
 70
64
 10
0
 20
0
 30
0
  3
AIGNBL020200C2
  0
LINE
  8
LAYER_2
 10
-25.9996
 20
151.1239
 11
-25.9471
 21
151.0281
  0
ENDBLK
  0
BLOCK
  8
LAYER_2
  2
AIGNBL020200C3
 70
64
 10
0
 20
0
 30
0
  3
AIGNBL020200C3
  0
LINE
  8
LAYER_2
 10
-25.8926
 20
151.6653
 11
-25.8844
 21
151.6103
  0
ENDBLK
  0
BLOCK
  8
LAYER_2
  2
AIGNBL020200C4
 70
64
 10
0
 20
0
 30
0
  3
AIGNBL020200C4
  0
ARC
  8
LAYER_2
 10
-28.9648
 20
118.9694
 40
0.25
 50
89.99606703
 51
180.003933
  0
ENDBLK
  0
BLOCK
  8
LAYER_2
  2
AIGNBL020200C5
 70
64
 10
0
 20
0
 30
0
  3
AIGNBL020200C5
  0
ARC
  8
LAYER_2
 10
-31.8212
 20
153.2239
 40
11.6467
 50
352.3734262
 51
7.036755348
  0
ENDBLK
  0
BLOCK
  8
LAYER_2
  2
AIGNBL020200C6
 70
64
 10
0
 20
0
 30
0
  3
AIGNBL020200C6
  0
ARC
  8
LAYER_2
 10
-31.5795
 20
153.2684
 40
11.5927
 50
352.1351009
 51
7.22500279
  0
ENDBLK
  0
BLOCK
  8
LAYER_2
  2
AIGNBL020200C7
 70
64
 10
0
 20
0
 30
0
  3
AIGNBL020200C7
  0
ARC
  8
LAYER_2
 10
-31.7288
 20
153.2255
 40
11.2998
 50
352.1599656
 51
7.233080991
  0
ENDBLK
  0
BLOCK
  8
LAYER_2
  2
AIGNBL020200C8
 70
64
 10
0
 20
0
 30
0
  3
AIGNBL020200C8
  0
ARC
  8
LAYER_2
 10
-26.3648
 20
164.057
 40
4.625
 50
351.9791121
 51
8.020887896
  0
ENDBLK
  0
BLOCK
  8
LAYER_2
  2
AIGNBL020200C9
 70
64
 10
0
 20
0
 30
0
  3
AIGNBL020200C9
  0
LINE
  8
LAYER_2
 10
-20.712
 20
150.6477
 11
-20.6127
 21
150.7377
  0
ENDBLK
  0
BLOCK
  8
LAYER_2
  2
AIGNBL020200CA
 70
64
 10
0
 20
0
 30
0
  3
AIGNBL020200CA
  0
LINE
  8
LAYER_2
 10
-20.6097
 20
150.7405
 11
-20.5166
 21
150.8312
  0
ENDBLK
  0
BLOCK
  8
LAYER_2
  2
AIGNBL020200CB
 70
64
 10
0
 20
0
 30
0
  3
AIGNBL020200CB
  0
LINE
  8
LAYER_2
 10
-25.7176
 20
150.6477
 11
-25.6988
 21
150.6313
  0
ENDBLK
  0
BLOCK
  8
LAYER_2
  2
AIGNBL020200CC
 70
64
 10
0
 20
0
 30
0
  3
AIGNBL020200CC
  0
LINE
  8
LAYER_2
 10
-26.1599
 20
154.7055
 11
-26.1646
 21
154.6728
  0
ENDBLK
  0
BLOCK
  8
LAYER_2
  2
AIGNBL020200CD
 70
64
 10
0
 20
0
 30
0
  3
AIGNBL020200CD
  0
ARC
  8
LAYER_2
 10
-25.3711
 20
154.6022
 40
0.9875
 50
95.89199064
 51
172.7749956
  0
ENDBLK
  0
BLOCK
  8
LAYER_2
  2
AIGNBL020200CE
 70
64
 10
0
 20
0
 30
0
  3
AIGNBL020200CE
  0
ARC
  8
LAYER_2
 10
-25.1854
 20
154.5499
 40
0.9869
 50
95.36307822
 51
170.9239855
  0
ENDBLK
  0
BLOCK
  8
LAYER_2
  2
AIGNBL020200CF
 70
64
 10
0
 20
0
 30
0
  3
AIGNBL020200CF
  0
LINE
  8
LAYER_2
 10
-25.6354
 20
162.8135
 11
-25.6204
 21
162.8069
  0
ENDBLK
  0
BLOCK
  8
LAYER_2
  2
AIGNBL020200D0
 70
64
 10
0
 20
0
 30
0
  3
AIGNBL020200D0
  0
ARC
  8
LAYER_2
 10
-27.7398
 20
164.5695
 40
0.475
 50
93.47840646
 51
180.0065722
  0
ENDBLK
  0
BLOCK
  8
LAYER_2
  2
AIGNBL020200D1
 70
64
 10
0
 20
0
 30
0
  3
AIGNBL020200D1
  0
ARC
  8
LAYER_2
 10
-24.1741
 20
164.6361
 40
0.475
 50
98.45677248
 51
171.9850035
  0
ENDBLK
  0
BLOCK
  8
LAYER_2
  2
AIGNBL020200D2
 70
64
 10
0
 20
0
 30
0
  3
AIGNBL020200D2
  0
ARC
  8
LAYER_2
 10
-24.1742
 20
163.4778
 40
0.475
 50
188.0145616
 51
261.5436625
  0
ENDBLK
  0
BLOCK
  8
LAYER_2
  2
AIGNBL020200D3
 70
64
 10
0
 20
0
 30
0
  3
AIGNBL020200D3
  0
ARC
  8
LAYER_2
 10
-28.1398
 20
162.3944
 40
0.075
 50
89.9868898
 51
180.0131102
  0
ENDBLK
  0
BLOCK
  8
LAYER_2
  2
AIGNBL020200D4
 70
64
 10
0
 20
0
 30
0
  3
AIGNBL020200D4
  0
ARC
  8
LAYER_2
 10
-23.2148
 20
90.1819
 40
75
 50
86.51897522
 51
93.48102476
  0
ENDBLK
  0
BLOCK
  8
LAYER_2
  2
AIGNBL020200D5
 70
64
 10
0
 20
0
 30
0
  3
AIGNBL020200D5
  0
ARC
  8
LAYER_2
 10
-23.214
 20
133.6934
 40
22.0073
 50
90.00218848
 51
95.8904457
  0
ENDBLK
  0
BLOCK
  8
LAYER_2
  2
AIGNBL020200D6
 70
64
 10
0
 20
0
 30
0
  3
AIGNBL020200D6
  0
ARC
  8
LAYER_2
 10
-23.2148
 20
134.2523
 40
21.1439
 50
84.44992345
 51
95.55007652
  0
ENDBLK
  0
BLOCK
  8
LAYER_2
  2
AIGNBL020200D7
 70
64
 10
0
 20
0
 30
0
  3
AIGNBL020200D7
  0
LINE
  8
LAYER_2
 10
-26.1397
 20
151.5975
 11
-26.1357
 21
151.5753
  0
ENDBLK
  0
BLOCK
  8
LAYER_2
  2
AIGNBL020200D8
 70
64
 10
0
 20
0
 30
0
  3
AIGNBL020200D8
  0
LINE
  8
LAYER_2
 10
-20.2885
 20
151.6052
 11
-20.2799
 21
151.6608
  0
ENDBLK
  0
BLOCK
  8
LAYER_2
  2
AIGNBL020200D9
 70
64
 10
0
 20
0
 30
0
  3
AIGNBL020200D9
  0
LINE
  8
LAYER_2
 10
-20.2899
 20
151.5975
 11
-20.2885
 21
151.6052
  0
ENDBLK
  0
BLOCK
  8
LAYER_2
  2
AIGNBL020200DA
 70
64
 10
0
 20
0
 30
0
  3
AIGNBL020200DA
  0
ARC
  8
LAYER_2
 10
-21.5816
 20
151.8874
 40
1.4999
 50
315.2381565
 51
352.1338115
  0
ENDBLK
  0
BLOCK
  8
LAYER_2
  2
AIGNBL020200DB
 70
64
 10
0
 20
0
 30
0
  3
AIGNBL020200DB
  0
LINE
  8
LAYER_2
 10
-20.3114
 20
151.4657
 11
-20.2899
 21
151.5975
  0
ENDBLK
  0
BLOCK
  8
LAYER_2
  2
AIGNBL020200DC
 70
64
 10
0
 20
0
 30
0
  3
AIGNBL020200DC
  0
LINE
  8
LAYER_2
 10
-20.4542
 20
151.0829
 11
-20.43
 21
151.1239
  0
ENDBLK
  0
BLOCK
  8
LAYER_2
  2
AIGNBL020200DD
 70
64
 10
0
 20
0
 30
0
  3
AIGNBL020200DD
  0
LINE
  8
LAYER_2
 10
-20.4123
 20
151.1608
 11
-20.3131
 21
151.4576
  0
ENDBLK
  0
BLOCK
  8
LAYER_2
  2
AIGNBL020200DE
 70
64
 10
0
 20
0
 30
0
  3
AIGNBL020200DE
  0
LINE
  8
LAYER_2
 10
-20.43
 20
151.1239
 11
-20.4123
 21
151.1608
  0
ENDBLK
  0
BLOCK
  8
LAYER_2
  2
AIGNBL020200DF
 70
64
 10
0
 20
0
 30
0
  3
AIGNBL020200DF
  0
LINE
  8
LAYER_2
 10
-20.4825
 20
151.0281
 11
-20.43
 21
151.1239
  0
ENDBLK
  0
BLOCK
  8
LAYER_2
  2
AIGNBL020200E0
 70
64
 10
0
 20
0
 30
0
  3
AIGNBL020200E0
  0
LINE
  8
LAYER_2
 10
-20.5452
 20
151.6103
 11
-20.537
 21
151.6653
  0
ENDBLK
  0
BLOCK
  8
LAYER_2
  2
AIGNBL020200E1
 70
64
 10
0
 20
0
 30
0
  3
AIGNBL020200E1
  0
LINE
  8
LAYER_2
 10
-20.682
 20
150.062
 11
-20.6954
 21
149.8651
  0
ENDBLK
  0
BLOCK
  8
LAYER_2
  2
AIGNBL020200E2
 70
64
 10
0
 20
0
 30
0
  3
AIGNBL020200E2
  0
ARC
  8
LAYER_2
 10
-17.4648
 20
118.9694
 40
0.25
 50
359.993456
 51
90.00654402
  0
ENDBLK
  0
BLOCK
  8
LAYER_2
  2
AIGNBL020200E3
 70
64
 10
0
 20
0
 30
0
  3
AIGNBL020200E3
  0
ARC
  8
LAYER_2
 10
-14.6084
 20
153.2243
 40
11.6467
 50
172.9651537
 51
187.6285197
  0
ENDBLK
  0
BLOCK
  8
LAYER_2
  2
AIGNBL020200E4
 70
64
 10
0
 20
0
 30
0
  3
AIGNBL020200E4
  0
ARC
  8
LAYER_2
 10
-14.8501
 20
153.2684
 40
11.5928
 50
172.7750119
 51
187.8648843
  0
ENDBLK
  0
BLOCK
  8
LAYER_2
  2
AIGNBL020200E5
 70
64
 10
0
 20
0
 30
0
  3
AIGNBL020200E5
  0
ARC
  8
LAYER_2
 10
-14.7008
 20
153.2255
 40
11.2998
 50
172.7669337
 51
187.8400197
  0
ENDBLK
  0
BLOCK
  8
LAYER_2
  2
AIGNBL020200E6
 70
64
 10
0
 20
0
 30
0
  3
AIGNBL020200E6
  0
ARC
  8
LAYER_2
 10
-23.2148
 20
169.9319
 40
7
 50
261.5448523
 51
278.4551477
  0
ENDBLK
  0
BLOCK
  8
LAYER_2
  2
AIGNBL020200E7
 70
64
 10
0
 20
0
 30
0
  3
AIGNBL020200E7
  0
ARC
  8
LAYER_2
 10
-23.2148
 20
158.1819
 40
7
 50
81.54486259
 51
98.45513738
  0
ENDBLK
  0
BLOCK
  8
LAYER_2
  2
AIGNBL020200E8
 70
64
 10
0
 20
0
 30
0
  3
AIGNBL020200E8
  0
ARC
  8
LAYER_2
 10
-20.0648
 20
164.057
 40
4.625
 50
171.9789786
 51
188.0210214
  0
ENDBLK
  0
BLOCK
  8
LAYER_2
  2
AIGNBL020200E9
 70
64
 10
0
 20
0
 30
0
  3
AIGNBL020200E9
  0
LINE
  8
LAYER_2
 10
-25.8169
 20
150.7377
 11
-25.7176
 21
150.6477
  0
ENDBLK
  0
BLOCK
  8
LAYER_2
  2
AIGNBL020200EA
 70
64
 10
0
 20
0
 30
0
  3
AIGNBL020200EA
  0
LINE
  8
LAYER_2
 10
-25.9129
 20
150.8312
 11
-25.8198
 21
150.7405
  0
ENDBLK
  0
BLOCK
  8
LAYER_2
  2
AIGNBL020200EB
 70
64
 10
0
 20
0
 30
0
  3
AIGNBL020200EB
  0
LINE
  8
LAYER_2
 10
-20.7308
 20
150.6313
 11
-20.712
 21
150.6477
  0
ENDBLK
  0
BLOCK
  8
LAYER_2
  2
AIGNBL020200EC
 70
64
 10
0
 20
0
 30
0
  3
AIGNBL020200EC
  0
LINE
  8
LAYER_2
 10
-20.265
 20
154.6728
 11
-20.2696
 21
154.7055
  0
ENDBLK
  0
BLOCK
  8
LAYER_2
  2
AIGNBL020200ED
 70
64
 10
0
 20
0
 30
0
  3
AIGNBL020200ED
  0
ARC
  8
LAYER_2
 10
-21.0585
 20
154.6022
 40
0.9875
 50
7.224430198
 51
84.10858354
  0
ENDBLK
  0
BLOCK
  8
LAYER_2
  2
AIGNBL020200EE
 70
64
 10
0
 20
0
 30
0
  3
AIGNBL020200EE
  0
ARC
  8
LAYER_2
 10
-21.2442
 20
154.5499
 40
0.9869
 50
9.078242758
 51
84.64117334
  0
ENDBLK
  0
BLOCK
  8
LAYER_2
  2
AIGNBL020200EF
 70
64
 10
0
 20
0
 30
0
  3
AIGNBL020200EF
  0
LINE
  8
LAYER_2
 10
-20.8092
 20
162.8069
 11
-20.7942
 21
162.8135
  0
ENDBLK
  0
BLOCK
  8
LAYER_2
  2
AIGNBL020200F0
 70
64
 10
0
 20
0
 30
0
  3
AIGNBL020200F0
  0
ARC
  8
LAYER_2
 10
-18.6898
 20
164.5695
 40
0.475
 50
359.9916669
 51
86.51053594
  0
ENDBLK
  0
BLOCK
  8
LAYER_2
  2
AIGNBL020200F1
 70
64
 10
0
 20
0
 30
0
  3
AIGNBL020200F1
  0
ARC
  8
LAYER_2
 10
-22.2554
 20
164.636
 40
0.475
 50
8.018953096
 51
81.5392709
  0
ENDBLK
  0
BLOCK
  8
LAYER_2
  2
AIGNBL020200F2
 70
64
 10
0
 20
0
 30
0
  3
AIGNBL020200F2
  0
ARC
  8
LAYER_2
 10
-22.2554
 20
163.4779
 40
0.475
 50
278.4602943
 51
351.9814817
  0
ENDBLK
  0
BLOCK
  8
LAYER_2
  2
AIGNBL020200F3
 70
64
 10
0
 20
0
 30
0
  3
AIGNBL020200F3
  0
ARC
  8
LAYER_2
 10
-18.2898
 20
162.3944
 40
0.075
 50
359.9781788
 51
90.02182124
  0
ENDBLK
  0
BLOCK
  8
LAYER_2
  2
AIGNBL020200F4
 70
64
 10
0
 20
0
 30
0
  3
AIGNBL020200F4
  0
LINE
  8
LAYER_2
 10
-25.3649
 20
148.7949
 11
-25.2144
 21
148.7304
  0
LINE
  8
LAYER_2
 10
-25.2144
 20
148.7304
 11
-25.0195
 21
148.6713
  0
LINE
  8
LAYER_2
 10
-25.0195
 20
148.6713
 11
-24.7845
 21
148.6188
  0
LINE
  8
LAYER_2
 10
-24.7845
 20
148.6188
 11
-24.5146
 21
148.5742
  0
LINE
  8
LAYER_2
 10
-24.5146
 20
148.5742
 11
-23.8948
 21
148.5124
  0
LINE
  8
LAYER_2
 10
-23.8948
 20
148.5124
 11
-23.2148
 21
148.4911
  0
ENDBLK
  0
BLOCK
  8
LAYER_2
  2
AIGNBL020200F5
 70
64
 10
0
 20
0
 30
0
  3
AIGNBL020200F5
  0
LINE
  8
LAYER_2
 10
-26.1309
 20
151.5505
 11
-26.0845
 21
151.3614
  0
ENDBLK
  0
BLOCK
  8
LAYER_2
  2
AIGNBL020200F6
 70
64
 10
0
 20
0
 30
0
  3
AIGNBL020200F6
  0
LINE
  8
LAYER_2
 10
-20.3429
 20
151.3687
 11
-20.2986
 21
151.5505
  0
ENDBLK
  0
BLOCK
  8
LAYER_2
  2
AIGNBL020200F7
 70
64
 10
0
 20
0
 30
0
  3
AIGNBL020200F7
  0
LINE
  8
LAYER_2
 10
-25.7311
 20
150.7216
 11
-25.6202
 21
150.6166
  0
LINE
  8
LAYER_2
 10
-25.6202
 20
150.6166
 11
-25.4447
 21
150.5146
  0
LINE
  8
LAYER_2
 10
-25.4447
 20
150.5146
 11
-25.2005
 21
150.4472
  0
LINE
  8
LAYER_2
 10
-25.2005
 20
150.4472
 11
-24.8892
 21
150.4211
  0
LINE
  8
LAYER_2
 10
-24.8892
 20
150.4211
 11
-24.5211
 21
150.4253
  0
LINE
  8
LAYER_2
 10
-24.5211
 20
150.4253
 11
-24.1097
 21
150.4433
  0
LINE
  8
LAYER_2
 10
-24.1097
 20
150.4433
 11
-23.6695
 21
150.4608
  0
LINE
  8
LAYER_2
 10
-23.6695
 20
150.4608
 11
-23.2148
 21
150.468
  0
ENDBLK
  0
BLOCK
  8
LAYER_2
  2
AIGNBL020200F8
 70
64
 10
0
 20
0
 30
0
  3
AIGNBL020200F8
  0
LINE
  8
LAYER_2
 10
-23.2148
 20
150.468
 11
-22.7601
 21
150.4608
  0
LINE
  8
LAYER_2
 10
-22.7601
 20
150.4608
 11
-22.3198
 21
150.4433
  0
LINE
  8
LAYER_2
 10
-22.3198
 20
150.4433
 11
-21.9085
 21
150.4253
  0
LINE
  8
LAYER_2
 10
-21.9085
 20
150.4253
 11
-21.5404
 21
150.4211
  0
LINE
  8
LAYER_2
 10
-21.5404
 20
150.4211
 11
-21.2291
 21
150.4472
  0
LINE
  8
LAYER_2
 10
-21.2291
 20
150.4472
 11
-20.9848
 21
150.5146
  0
LINE
  8
LAYER_2
 10
-20.9848
 20
150.5146
 11
-20.8094
 21
150.6166
  0
LINE
  8
LAYER_2
 10
-20.8094
 20
150.6166
 11
-20.6985
 21
150.7216
  0
ENDBLK
  0
BLOCK
  8
LAYER_2
  2
AIGNBL020200F9
 70
64
 10
0
 20
0
 30
0
  3
AIGNBL020200F9
  0
LINE
  8
LAYER_2
 10
-23.2148
 20
148.4911
 11
-22.5348
 21
148.5124
  0
LINE
  8
LAYER_2
 10
-22.5348
 20
148.5124
 11
-21.915
 21
148.5742
  0
LINE
  8
LAYER_2
 10
-21.915
 20
148.5742
 11
-21.6451
 21
148.6188
  0
LINE
  8
LAYER_2
 10
-21.6451
 20
148.6188
 11
-21.4101
 21
148.6713
  0
LINE
  8
LAYER_2
 10
-21.4101
 20
148.6713
 11
-21.2152
 21
148.7304
  0
LINE
  8
LAYER_2
 10
-21.2152
 20
148.7304
 11
-21.0647
 21
148.7949
  0
ENDBLK
  0
BLOCK
  8
LAYER_2
  2
AIGNBL020200FA
 70
64
 10
0
 20
0
 30
0
  3
AIGNBL020200FA
  0
LINE
  8
LAYER_2
 10
-21.0647
 20
148.7949
 11
-21.0309
 21
148.8138
  0
LINE
  8
LAYER_2
 10
-21.0309
 20
148.8138
 11
-20.9528
 21
148.8719
  0
ENDBLK
  0
BLOCK
  8
LAYER_2
  2
AIGNBL020200FB
 70
64
 10
0
 20
0
 30
0
  3
AIGNBL020200FB
  0
LINE
  8
LAYER_2
 10
-20.9528
 20
148.8719
 11
-20.9134
 21
148.9248
  0
LINE
  8
LAYER_2
 10
-20.9134
 20
148.9248
 11
-20.9025
 21
148.9782
  0
LINE
  8
LAYER_2
 10
-20.9025
 20
148.9782
 11
-20.9201
 21
149.0315
  0
LINE
  8
LAYER_2
 10
-20.9201
 20
149.0315
 11
-20.9662
 21
149.0841
  0
LINE
  8
LAYER_2
 10
-20.9662
 20
149.0841
 11
-21.04
 21
149.1354
  0
LINE
  8
LAYER_2
 10
-21.04
 20
149.1354
 11
-21.1408
 21
149.1846
  0
LINE
  8
LAYER_2
 10
-21.1408
 20
149.1846
 11
-21.2672
 21
149.2311
  0
LINE
  8
LAYER_2
 10
-21.2672
 20
149.2311
 11
-21.4176
 21
149.2745
  0
LINE
  8
LAYER_2
 10
-21.4176
 20
149.2745
 11
-21.5903
 21
149.3141
  0
LINE
  8
LAYER_2
 10
-21.5903
 20
149.3141
 11
-21.7831
 21
149.3495
  0
LINE
  8
LAYER_2
 10
-21.7831
 20
149.3495
 11
-22.2192
 21
149.4059
  0
LINE
  8
LAYER_2
 10
-22.2192
 20
149.4059
 11
-22.7044
 21
149.4408
  0
LINE
  8
LAYER_2
 10
-22.7044
 20
149.4408
 11
-23.2148
 21
149.4527
  0
ENDBLK
  0
BLOCK
  8
LAYER_2
  2
AIGNBL020200FC
 70
64
 10
0
 20
0
 30
0
  3
AIGNBL020200FC
  0
ARC
  8
LAYER_2
 10
-25.3984
 20
151.5478
 40
0.711
 50
195.2015986
 51
216.2727286
  0
LINE
  8
LAYER_2
 10
-25.9716
 20
151.1272
 11
-25.8828
 21
151.0318
  0
LINE
  8
LAYER_2
 10
-25.8828
 20
151.0318
 11
-25.7757
 21
150.9583
  0
LINE
  8
LAYER_2
 10
-25.7757
 20
150.9583
 11
-25.6575
 21
150.9045
  0
LINE
  8
LAYER_2
 10
-25.6575
 20
150.9045
 11
-25.5336
 21
150.8657
  0
LINE
  8
LAYER_2
 10
-25.5336
 20
150.8657
 11
-25.2784
 21
150.8166
  0
ENDBLK
  0
BLOCK
  8
LAYER_2
  2
AIGNBL020200FD
 70
64
 10
0
 20
0
 30
0
  3
AIGNBL020200FD
  0
LINE
  8
LAYER_2
 10
-23.2148
 20
149.4527
 11
-23.7252
 21
149.4408
  0
LINE
  8
LAYER_2
 10
-23.7252
 20
149.4408
 11
-24.2103
 21
149.4059
  0
LINE
  8
LAYER_2
 10
-24.2103
 20
149.4059
 11
-24.6464
 21
149.3495
  0
LINE
  8
LAYER_2
 10
-24.6464
 20
149.3495
 11
-24.8392
 21
149.3141
  0
LINE
  8
LAYER_2
 10
-24.8392
 20
149.3141
 11
-25.0119
 21
149.2745
  0
LINE
  8
LAYER_2
 10
-25.0119
 20
149.2745
 11
-25.1624
 21
149.2311
  0
LINE
  8
LAYER_2
 10
-25.1624
 20
149.2311
 11
-25.2888
 21
149.1846
  0
LINE
  8
LAYER_2
 10
-25.2888
 20
149.1846
 11
-25.3895
 21
149.1354
  0
LINE
  8
LAYER_2
 10
-25.3895
 20
149.1354
 11
-25.4634
 21
149.0841
  0
LINE
  8
LAYER_2
 10
-25.4634
 20
149.0841
 11
-25.5094
 21
149.0315
  0
LINE
  8
LAYER_2
 10
-25.5094
 20
149.0315
 11
-25.5271
 21
148.9782
  0
LINE
  8
LAYER_2
 10
-25.5271
 20
148.9782
 11
-25.5162
 21
148.9248
  0
LINE
  8
LAYER_2
 10
-25.5162
 20
148.9248
 11
-25.4767
 21
148.8719
  0
ENDBLK
  0
BLOCK
  8
LAYER_2
  2
AIGNBL020200FE
 70
64
 10
0
 20
0
 30
0
  3
AIGNBL020200FE
  0
LINE
  8
LAYER_2
 10
-25.4767
 20
148.8719
 11
-25.4546
 21
148.8523
  0
LINE
  8
LAYER_2
 10
-25.4546
 20
148.8523
 11
-25.3649
 21
148.7949
  0
ENDBLK
  0
BLOCK
  8
LAYER_2
  2
AIGNBL020200FF
 70
64
 10
0
 20
0
 30
0
  3
AIGNBL020200FF
  0
LINE
  8
LAYER_2
 10
-26.1646
 20
154.6728
 11
-26.1665
 21
154.6581
  0
ENDBLK
  0
BLOCK
  8
LAYER_2
  2
AIGNBL02020100
 70
64
 10
0
 20
0
 30
0
  3
AIGNBL02020100
  0
LINE
  8
LAYER_2
 10
-26.152
 20
151.6782
 11
-26.1497
 21
151.6608
  0
ENDBLK
  0
BLOCK
  8
LAYER_2
  2
AIGNBL02020101
 70
64
 10
0
 20
0
 30
0
  3
AIGNBL02020101
  0
LINE
  8
LAYER_2
 10
-20.2799
 20
151.6608
 11
-20.2775
 21
151.6782
  0
ENDBLK
  0
BLOCK
  8
LAYER_2
  2
AIGNBL02020102
 70
64
 10
0
 20
0
 30
0
  3
AIGNBL02020102
  0
LINE
  8
LAYER_2
 10
-20.2622
 20
154.6507
 11
-20.265
 21
154.6728
  0
ENDBLK
  0
BLOCK
  8
LAYER_2
  2
AIGNBL02020103
 70
64
 10
0
 20
0
 30
0
  3
AIGNBL02020103
  0
LINE
  8
LAYER_2
 10
-21.152
 20
155.5325
 11
-21.1717
 21
155.5344
  0
ENDBLK
  0
BLOCK
  8
LAYER_2
  2
AIGNBL02020104
 70
64
 10
0
 20
0
 30
0
  3
AIGNBL02020104
  0
LINE
  8
LAYER_2
 10
-25.2579
 20
155.5344
 11
-25.2776
 21
155.5325
  0
ENDBLK
  0
BLOCK
  8
LAYER_2
  2
AIGNBL02020105
 70
64
 10
0
 20
0
 30
0
  3
AIGNBL02020105
  0
LINE
  8
LAYER_2
 10
-25.895
 20
151.6841
 11
-25.8926
 21
151.6653
  0
ENDBLK
  0
BLOCK
  8
LAYER_2
  2
AIGNBL02020106
 70
64
 10
0
 20
0
 30
0
  3
AIGNBL02020106
  0
LINE
  8
LAYER_2
 10
-25.8844
 20
151.6103
 11
-25.8619
 21
151.4931
  0
LINE
  8
LAYER_2
 10
-25.8619
 20
151.4931
 11
-25.8319
 21
151.3781
  0
LINE
  8
LAYER_2
 10
-25.8319
 20
151.3781
 11
-25.812
 21
151.3221
  0
LINE
  8
LAYER_2
 10
-25.812
 20
151.3221
 11
-25.7868
 21
151.2682
  0
LINE
  8
LAYER_2
 10
-25.7868
 20
151.2682
 11
-25.7536
 21
151.2187
  0
LINE
  8
LAYER_2
 10
-25.7536
 20
151.2187
 11
-25.7109
 21
151.1769
  0
LINE
  8
LAYER_2
 10
-25.7109
 20
151.1769
 11
-25.6611
 21
151.1434
  0
LINE
  8
LAYER_2
 10
-25.6611
 20
151.1434
 11
-25.6074
 21
151.1166
  0
LINE
  8
LAYER_2
 10
-25.6074
 20
151.1166
 11
-25.4943
 21
151.0766
  0
LINE
  8
LAYER_2
 10
-25.4943
 20
151.0766
 11
-25.3778
 21
151.0482
  0
LINE
  8
LAYER_2
 10
-25.3778
 20
151.0482
 11
-25.2597
 21
151.0271
  0
ENDBLK
  0
BLOCK
  8
LAYER_2
  2
AIGNBL02020107
 70
64
 10
0
 20
0
 30
0
  3
AIGNBL02020107
  0
LINE
  8
LAYER_2
 10
-25.2597
 20
151.0271
 11
-25.0058
 21
150.9973
  0
LINE
  8
LAYER_2
 10
-25.0058
 20
150.9973
 11
-24.7506
 21
150.9814
  0
LINE
  8
LAYER_2
 10
-24.7506
 20
150.9814
 11
-24.2392
 21
150.9699
  0
LINE
  8
LAYER_2
 10
-24.2392
 20
150.9699
 11
-23.7271
 21
150.969
  0
LINE
  8
LAYER_2
 10
-23.7271
 20
150.969
 11
-23.2148
 21
150.9697
  0
ENDBLK
  0
BLOCK
  8
LAYER_2
  2
AIGNBL02020108
 70
64
 10
0
 20
0
 30
0
  3
AIGNBL02020108
  0
LINE
  8
LAYER_2
 10
-23.2148
 20
150.9697
 11
-22.7024
 21
150.969
  0
LINE
  8
LAYER_2
 10
-22.7024
 20
150.969
 11
-22.1904
 21
150.9699
  0
LINE
  8
LAYER_2
 10
-22.1904
 20
150.9699
 11
-21.679
 21
150.9814
  0
LINE
  8
LAYER_2
 10
-21.679
 20
150.9814
 11
-21.4238
 21
150.9973
  0
LINE
  8
LAYER_2
 10
-21.4238
 20
150.9973
 11
-21.1698
 21
151.0271
  0
ENDBLK
  0
BLOCK
  8
LAYER_2
  2
AIGNBL02020109
 70
64
 10
0
 20
0
 30
0
  3
AIGNBL02020109
  0
LINE
  8
LAYER_2
 10
-21.1698
 20
151.0271
 11
-21.0518
 21
151.0482
  0
LINE
  8
LAYER_2
 10
-21.0518
 20
151.0482
 11
-20.9353
 21
151.0766
  0
LINE
  8
LAYER_2
 10
-20.9353
 20
151.0766
 11
-20.8222
 21
151.1166
  0
LINE
  8
LAYER_2
 10
-20.8222
 20
151.1166
 11
-20.7685
 21
151.1434
  0
LINE
  8
LAYER_2
 10
-20.7685
 20
151.1434
 11
-20.7187
 21
151.1769
  0
LINE
  8
LAYER_2
 10
-20.7187
 20
151.1769
 11
-20.676
 21
151.2187
  0
LINE
  8
LAYER_2
 10
-20.676
 20
151.2187
 11
-20.6428
 21
151.2682
  0
LINE
  8
LAYER_2
 10
-20.6428
 20
151.2682
 11
-20.6175
 21
151.3221
  0
LINE
  8
LAYER_2
 10
-20.6175
 20
151.3221
 11
-20.5977
 21
151.3781
  0
LINE
  8
LAYER_2
 10
-20.5977
 20
151.3781
 11
-20.5677
 21
151.4931
  0
LINE
  8
LAYER_2
 10
-20.5677
 20
151.4931
 11
-20.5452
 21
151.6103
  0
ENDBLK
  0
BLOCK
  8
LAYER_2
  2
AIGNBL0202010A
 70
64
 10
0
 20
0
 30
0
  3
AIGNBL0202010A
  0
LINE
  8
LAYER_2
 10
-20.537
 20
151.6653
 11
-20.5346
 21
151.6841
  0
ENDBLK
  0
BLOCK
  8
LAYER_2
  2
AIGNBL0202010B
 70
64
 10
0
 20
0
 30
0
  3
AIGNBL0202010B
  0
LINE
  8
LAYER_2
 10
-25.2597
 20
155.2971
 11
-25.2802
 21
155.2952
  0
ENDBLK
  0
BLOCK
  8
LAYER_2
  2
AIGNBL0202010C
 70
64
 10
0
 20
0
 30
0
  3
AIGNBL0202010C
  0
LINE
  8
LAYER_2
 10
-25.9079
 20
154.6714
 11
-25.9107
 21
154.6482
  0
ENDBLK
  0
BLOCK
  8
LAYER_2
  2
AIGNBL0202010D
 70
64
 10
0
 20
0
 30
0
  3
AIGNBL0202010D
  0
ARC
  8
LAYER_2
 10
-25.2126
 20
154.6048
 40
0.6937
 50
95.59436479
 51
115.3507771
  0
ARC
  8
LAYER_2
 10
-25.2046
 20
154.5958
 40
0.7053
 50
115.6220864
 51
135.0788065
  0
LINE
  8
LAYER_2
 10
-25.704
 20
155.0938
 11
-25.8413
 21
154.8994
  0
LINE
  8
LAYER_2
 10
-25.8413
 20
154.8994
 11
-25.9079
 21
154.6714
  0
ENDBLK
  0
BLOCK
  8
LAYER_2
  2
AIGNBL0202010E
 70
64
 10
0
 20
0
 30
0
  3
AIGNBL0202010E
  0
LINE
  8
LAYER_2
 10
-20.5189
 20
154.6482
 11
-20.5217
 21
154.6714
  0
ENDBLK
  0
BLOCK
  8
LAYER_2
  2
AIGNBL0202010F
 70
64
 10
0
 20
0
 30
0
  3
AIGNBL0202010F
  0
LINE
  8
LAYER_2
 10
-21.1493
 20
155.2952
 11
-21.1698
 21
155.2971
  0
ENDBLK
  0
BLOCK
  8
LAYER_2
  2
AIGNBL02020110
 70
64
 10
0
 20
0
 30
0
  3
AIGNBL02020110
  0
LINE
  8
LAYER_2
 10
-20.5217
 20
154.6714
 11
-20.5883
 21
154.8994
  0
LINE
  8
LAYER_2
 10
-20.5883
 20
154.8994
 11
-20.7256
 21
155.0938
  0
ARC
  8
LAYER_2
 10
-21.22
 20
154.6028
 40
0.6968
 50
44.80217939
 51
64.49692763
  0
ARC
  8
LAYER_2
 10
-21.2157
 20
154.6098
 40
0.6886
 50
64.57318988
 51
84.46881969
  0
ENDBLK
  0
BLOCK
  8
LAYER_2
  2
AIGNBL02020111
 70
64
 10
0
 20
0
 30
0
  3
AIGNBL02020111
  0
LINE
  8
LAYER_2
 10
-25.2784
 20
150.8166
 11
-25.0221
 21
150.7898
  0
LINE
  8
LAYER_2
 10
-25.0221
 20
150.7898
 11
-24.7648
 21
150.7755
  0
LINE
  8
LAYER_2
 10
-24.7648
 20
150.7755
 11
-24.2489
 21
150.7653
  0
LINE
  8
LAYER_2
 10
-24.2489
 20
150.7653
 11
-23.7321
 21
150.7648
  0
LINE
  8
LAYER_2
 10
-23.7321
 20
150.7648
 11
-23.2148
 21
150.7656
  0
ENDBLK
  0
BLOCK
  8
LAYER_2
  2
AIGNBL02020112
 70
64
 10
0
 20
0
 30
0
  3
AIGNBL02020112
  0
LINE
  8
LAYER_2
 10
-23.2148
 20
150.7656
 11
-22.6975
 21
150.7648
  0
LINE
  8
LAYER_2
 10
-22.6975
 20
150.7648
 11
-22.1807
 21
150.7653
  0
LINE
  8
LAYER_2
 10
-22.1807
 20
150.7653
 11
-21.6648
 21
150.7755
  0
LINE
  8
LAYER_2
 10
-21.6648
 20
150.7755
 11
-21.4074
 21
150.7898
  0
LINE
  8
LAYER_2
 10
-21.4074
 20
150.7898
 11
-21.1512
 21
150.8166
  0
ENDBLK
  0
BLOCK
  8
LAYER_2
  2
AIGNBL02020113
 70
64
 10
0
 20
0
 30
0
  3
AIGNBL02020113
  0
LINE
  8
LAYER_2
 10
-21.1512
 20
150.8166
 11
-20.8941
 21
150.8662
  0
LINE
  8
LAYER_2
 10
-20.8941
 20
150.8662
 11
-20.7694
 21
150.9055
  0
LINE
  8
LAYER_2
 10
-20.7694
 20
150.9055
 11
-20.6505
 21
150.9601
  0
LINE
  8
LAYER_2
 10
-20.6505
 20
150.9601
 11
-20.5432
 21
151.035
  0
LINE
  8
LAYER_2
 10
-20.5432
 20
151.035
 11
-20.4547
 21
151.1318
  0
ARC
  8
LAYER_2
 10
-21.2101
 20
151.6331
 40
0.9066
 50
326.4292763
 51
343.0427487
  0
ENDBLK
  0
BLOCK
  8
LAYER_2
  2
AIGNBL02020114
 70
64
 10
0
 20
0
 30
0
  3
AIGNBL02020114
  0
LINE
  8
LAYER_2
 10
-25.9129
 20
150.8312
 11
-25.9087
 21
150.8234
  0
LINE
  8
LAYER_2
 10
-25.9087
 20
150.8234
 11
-25.9022
 21
150.8078
  0
LINE
  8
LAYER_2
 10
-25.9022
 20
150.8078
 11
-25.8938
 21
150.7849
  0
LINE
  8
LAYER_2
 10
-25.8938
 20
150.7849
 11
-25.8838
 21
150.7556
  0
LINE
  8
LAYER_2
 10
-25.8838
 20
150.7556
 11
-25.8726
 21
150.7203
  0
LINE
  8
LAYER_2
 10
-25.8726
 20
150.7203
 11
-25.8606
 21
150.6796
  0
LINE
  8
LAYER_2
 10
-25.8606
 20
150.6796
 11
-25.8351
 21
150.5843
  0
LINE
  8
LAYER_2
 10
-25.8351
 20
150.5843
 11
-25.8095
 21
150.4728
  0
LINE
  8
LAYER_2
 10
-25.8095
 20
150.4728
 11
-25.7855
 21
150.3475
  0
LINE
  8
LAYER_2
 10
-25.7855
 20
150.3475
 11
-25.7644
 21
150.2101
  0
LINE
  8
LAYER_2
 10
-25.7644
 20
150.2101
 11
-25.7475
 21
150.0619
  0
ENDBLK
  0
BLOCK
  8
LAYER_2
  2
AIGNBL02020115
 70
64
 10
0
 20
0
 30
0
  3
AIGNBL02020115
  0
LINE
  8
LAYER_2
 10
-20.5166
 20
150.8312
 11
-20.5208
 21
150.8234
  0
LINE
  8
LAYER_2
 10
-20.5208
 20
150.8234
 11
-20.5273
 21
150.8078
  0
LINE
  8
LAYER_2
 10
-20.5273
 20
150.8078
 11
-20.5358
 21
150.785
  0
LINE
  8
LAYER_2
 10
-20.5358
 20
150.785
 11
-20.5458
 21
150.7556
  0
LINE
  8
LAYER_2
 10
-20.5458
 20
150.7556
 11
-20.557
 21
150.7203
  0
LINE
  8
LAYER_2
 10
-20.557
 20
150.7203
 11
-20.569
 21
150.6797
  0
LINE
  8
LAYER_2
 10
-20.569
 20
150.6797
 11
-20.5944
 21
150.5844
  0
LINE
  8
LAYER_2
 10
-20.5944
 20
150.5844
 11
-20.62
 21
150.4729
  0
LINE
  8
LAYER_2
 10
-20.62
 20
150.4729
 11
-20.6441
 21
150.3476
  0
LINE
  8
LAYER_2
 10
-20.6441
 20
150.3476
 11
-20.6651
 21
150.2102
  0
LINE
  8
LAYER_2
 10
-20.6651
 20
150.2102
 11
-20.682
 21
150.062
  0
ENDBLK
  0
BLOCK
  8
LAYER_2
  2
AIGNBL02020116
 70
64
 10
0
 20
0
 30
0
  3
AIGNBL02020116
  0
LINE
  8
LAYER_2
 10
-23.2148
 20
149.585
 11
-23.9924
 21
149.5591
  0
LINE
  8
LAYER_2
 10
-23.9924
 20
149.5591
 11
-24.6919
 21
149.4838
  0
LINE
  8
LAYER_2
 10
-24.6919
 20
149.4838
 11
-24.9898
 21
149.4298
  0
LINE
  8
LAYER_2
 10
-24.9898
 20
149.4298
 11
-25.2428
 21
149.3668
  0
LINE
  8
LAYER_2
 10
-25.2428
 20
149.3668
 11
-25.4445
 21
149.2961
  0
LINE
  8
LAYER_2
 10
-25.4445
 20
149.2961
 11
-25.5898
 21
149.2197
  0
ENDBLK
  0
BLOCK
  8
LAYER_2
  2
AIGNBL02020117
 70
64
 10
0
 20
0
 30
0
  3
AIGNBL02020117
  0
LINE
  8
LAYER_2
 10
-20.8398
 20
149.2197
 11
-20.9851
 21
149.2961
  0
LINE
  8
LAYER_2
 10
-20.9851
 20
149.2961
 11
-21.1868
 21
149.3668
  0
LINE
  8
LAYER_2
 10
-21.1868
 20
149.3668
 11
-21.4398
 21
149.4298
  0
LINE
  8
LAYER_2
 10
-21.4398
 20
149.4298
 11
-21.7377
 21
149.4838
  0
LINE
  8
LAYER_2
 10
-21.7377
 20
149.4838
 11
-22.4371
 21
149.5591
  0
LINE
  8
LAYER_2
 10
-22.4371
 20
149.5591
 11
-23.2148
 21
149.585
  0
ENDBLK
  0
BLOCK
  8
LAYER_2
  2
AIGNBL02020118
 70
64
 10
0
 20
0
 30
0
  3
AIGNBL02020118
  0
ARC
  8
LAYER_2
 10
-20.9755
 20
149.9465
 40
0.2388
 50
304.6151646
 51
15.28465902
  0
ARC
  8
LAYER_2
 10
-20.8577
 20
149.8865
 40
0.1668
 50
47.52120435
 51
83.83297512
  0
ENDBLK
  0
BLOCK
  8
LAYER_2
  2
AIGNBL02020119
 70
64
 10
0
 20
0
 30
0
  3
AIGNBL02020119
  0
ARC
  8
LAYER_2
 10
-25.5978
 20
149.9533
 40
0.0993
 50
85.38858375
 51
192.5306014
  0
ARC
  8
LAYER_2
 10
-25.0736
 20
150.1692
 40
0.665
 50
200.9161814
 51
219.0759338
  0
ENDBLK
  0
BLOCK
  8
LAYER_2
  2
AIGNBL0202011B
 70
64
 10
0
 20
0
 30
0
  3
AIGNBL0202011B
  0
LINE
  8
LAYER_2
 10
67.9926
 20
162.7616
 11
68.3639
 21
162.4694
  0
ENDBLK
  0
BLOCK
  8
LAYER_2
  2
AIGNBL0202011C
 70
64
 10
0
 20
0
 30
0
  3
AIGNBL0202011C
  0
LINE
  8
LAYER_2
 10
70.2452
 20
118.2194
 11
58.2452
 21
118.2194
  0
ENDBLK
  0
BLOCK
  8
LAYER_2
  2
AIGNBL0202011D
 70
64
 10
0
 20
0
 30
0
  3
AIGNBL0202011D
  0
LINE
  8
LAYER_2
 10
69.9952
 20
119.2194
 11
58.4952
 21
119.2194
  0
ENDBLK
  0
BLOCK
  8
LAYER_2
  2
AIGNBL0202011E
 70
64
 10
0
 20
0
 30
0
  3
AIGNBL0202011E
  0
LINE
  8
LAYER_2
 10
69.2452
 20
129.2194
 11
69.245
 21
129.2181
  0
ENDBLK
  0
BLOCK
  8
LAYER_2
  2
AIGNBL0202011F
 70
64
 10
0
 20
0
 30
0
  3
AIGNBL0202011F
  0
LINE
  8
LAYER_2
 10
70.2452
 20
118.2194
 11
70.2452
 21
118.9694
  0
ENDBLK
  0
BLOCK
  8
LAYER_2
  2
AIGNBL02020120
 70
64
 10
0
 20
0
 30
0
  3
AIGNBL02020120
  0
LINE
  8
LAYER_2
 10
69.2452
 20
164.5694
 11
69.2452
 21
163.7944
  0
ENDBLK
  0
BLOCK
  8
LAYER_2
  2
AIGNBL02020121
 70
64
 10
0
 20
0
 30
0
  3
AIGNBL02020121
  0
LINE
  8
LAYER_2
 10
69.2452
 20
162.3944
 11
69.2452
 21
119.2194
  0
ENDBLK
  0
BLOCK
  8
LAYER_2
  2
AIGNBL02020122
 70
64
 10
0
 20
0
 30
0
  3
AIGNBL02020122
  0
LINE
  8
LAYER_2
 10
69.1977
 20
163.1069
 11
69.1977
 21
162.8069
  0
ENDBLK
  0
BLOCK
  8
LAYER_2
  2
AIGNBL02020123
 70
64
 10
0
 20
0
 30
0
  3
AIGNBL02020123
  0
LINE
  8
LAYER_2
 10
68.4133
 20
162.8069
 11
68.4133
 21
162.4694
  0
ENDBLK
  0
BLOCK
  8
LAYER_2
  2
AIGNBL02020124
 70
64
 10
0
 20
0
 30
0
  3
AIGNBL02020124
  0
LINE
  8
LAYER_2
 10
69.2452
 20
163.7944
 11
69.245
 21
163.793
  0
ENDBLK
  0
BLOCK
  8
LAYER_2
  2
AIGNBL02020125
 70
64
 10
0
 20
0
 30
0
  3
AIGNBL02020125
  0
LINE
  8
LAYER_2
 10
60.077
 20
162.8069
 11
60.077
 21
162.7654
  0
ENDBLK
  0
BLOCK
  8
LAYER_2
  2
AIGNBL02020126
 70
64
 10
0
 20
0
 30
0
  3
AIGNBL02020126
  0
LINE
  8
LAYER_2
 10
59.2452
 20
162.3944
 11
59.2452
 21
157.7194
  0
ENDBLK
  0
BLOCK
  8
LAYER_2
  2
AIGNBL02020127
 70
64
 10
0
 20
0
 30
0
  3
AIGNBL02020127
  0
LINE
  8
LAYER_2
 10
59.2452
 20
147.4694
 11
59.2452
 21
119.2194
  0
ENDBLK
  0
BLOCK
  8
LAYER_2
  2
AIGNBL02020128
 70
64
 10
0
 20
0
 30
0
  3
AIGNBL02020128
  0
LINE
  8
LAYER_2
 10
58.2452
 20
118.2194
 11
58.2452
 21
118.9694
  0
ENDBLK
  0
BLOCK
  8
LAYER_2
  2
AIGNBL02020129
 70
64
 10
0
 20
0
 30
0
  3
AIGNBL02020129
  0
LINE
  8
LAYER_2
 10
30.7098
 20
149.4527
 11
35.2337
 21
148.4911
  0
ENDBLK
  0
BLOCK
  8
LAYER_2
  2
AIGNBL0202012A
 70
64
 10
0
 20
0
 30
0
  3
AIGNBL0202012A
  0
LINE
  8
LAYER_2
 10
30.5629
 20
149.585
 11
32.2813
 21
149.2197
  0
ENDBLK
  0
BLOCK
  8
LAYER_2
  2
AIGNBL0202012B
 70
64
 10
0
 20
0
 30
0
  3
AIGNBL0202012B
  0
LINE
  8
LAYER_2
 10
33.7034
 20
148.9175
 11
35.4218
 21
148.5522
  0
ENDBLK
  0
BLOCK
  8
LAYER_2
  2
AIGNBL0202012C
 70
64
 10
0
 20
0
 30
0
  3
AIGNBL0202012C
  0
LINE
  8
LAYER_2
 10
33.8803
 20
149.75
 11
32.4583
 21
150.0523
  0
ENDBLK
  0
BLOCK
  8
LAYER_2
  2
AIGNBL0202012D
 70
64
 10
0
 20
0
 30
0
  3
AIGNBL0202012D
  0
LINE
  8
LAYER_2
 10
30.5629
 20
149.585
 11
30.7098
 21
149.4527
  0
ENDBLK
  0
BLOCK
  8
LAYER_2
  2
AIGNBL0202012E
 70
64
 10
0
 20
0
 30
0
  3
AIGNBL0202012E
  0
LINE
  8
LAYER_2
 10
57.0702
 20
149.707
 11
39.3105
 21
149.8
  0
ENDBLK
  0
BLOCK
  8
LAYER_2
  2
AIGNBL0202012F
 70
64
 10
0
 20
0
 30
0
  3
AIGNBL0202012F
  0
LINE
  8
LAYER_2
 10
59.7359
 20
162.4694
 11
60.077
 21
162.7654
  0
ENDBLK
  0
BLOCK
  8
LAYER_2
  2
AIGNBL02020130
 70
64
 10
0
 20
0
 30
0
  3
AIGNBL02020130
  0
LINE
  8
LAYER_2
 10
35.4218
 20
148.5522
 11
35.2337
 21
148.4911
  0
ENDBLK
  0
BLOCK
  8
LAYER_2
  2
AIGNBL02020131
 70
64
 10
0
 20
0
 30
0
  3
AIGNBL02020131
  0
LINE
  8
LAYER_2
 10
57.0702
 20
155.7007
 11
29.7939
 21
155.6293
  0
ENDBLK
  0
BLOCK
  8
LAYER_2
  2
AIGNBL02020132
 70
64
 10
0
 20
0
 30
0
  3
AIGNBL02020132
  0
LINE
  8
LAYER_2
 10
35.4218
 20
148.5522
 11
35.7061
 21
149.8895
  0
ENDBLK
  0
BLOCK
  8
LAYER_2
  2
AIGNBL02020133
 70
64
 10
0
 20
0
 30
0
  3
AIGNBL02020133
  0
LINE
  8
LAYER_2
 10
33.7034
 20
148.9175
 11
33.8803
 21
149.75
  0
ENDBLK
  0
BLOCK
  8
LAYER_2
  2
AIGNBL02020134
 70
64
 10
0
 20
0
 30
0
  3
AIGNBL02020134
  0
LINE
  8
LAYER_2
 10
59.3202
 20
162.4694
 11
69.1702
 21
162.4694
  0
ENDBLK
  0
BLOCK
  8
LAYER_2
  2
AIGNBL02020135
 70
64
 10
0
 20
0
 30
0
  3
AIGNBL02020135
  0
LINE
  8
LAYER_2
 10
60.077
 20
162.7654
 11
67.9823
 21
162.7654
  0
ENDBLK
  0
BLOCK
  8
LAYER_2
  2
AIGNBL02020136
 70
64
 10
0
 20
0
 30
0
  3
AIGNBL02020136
  0
LINE
  8
LAYER_2
 10
69.1977
 20
162.8069
 11
59.0368
 21
162.8069
  0
ENDBLK
  0
BLOCK
  8
LAYER_2
  2
AIGNBL02020137
 70
64
 10
0
 20
0
 30
0
  3
AIGNBL02020137
  0
LINE
  8
LAYER_2
 10
57.9952
 20
162.9319
 11
44.552
 21
162.9319
  0
ENDBLK
  0
BLOCK
  8
LAYER_2
  2
AIGNBL02020138
 70
64
 10
0
 20
0
 30
0
  3
AIGNBL02020138
  0
LINE
  8
LAYER_2
 10
32.4583
 20
150.0523
 11
32.2813
 21
149.2197
  0
ENDBLK
  0
BLOCK
  8
LAYER_2
  2
AIGNBL02020139
 70
64
 10
0
 20
0
 30
0
  3
AIGNBL02020139
  0
LINE
  8
LAYER_2
 10
59.0368
 20
162.8069
 11
57.9952
 21
162.9319
  0
ENDBLK
  0
BLOCK
  8
LAYER_2
  2
AIGNBL0202013A
 70
64
 10
0
 20
0
 30
0
  3
AIGNBL0202013A
  0
LINE
  8
LAYER_2
 10
44.552
 20
165.1819
 11
64.2452
 21
165.1819
  0
ENDBLK
  0
BLOCK
  8
LAYER_2
  2
AIGNBL0202013B
 70
64
 10
0
 20
0
 30
0
  3
AIGNBL0202013B
  0
LINE
  8
LAYER_2
 10
30.5629
 20
149.585
 11
30.7471
 21
150.4516
  0
ENDBLK
  0
BLOCK
  8
LAYER_2
  2
AIGNBL0202013C
 70
64
 10
0
 20
0
 30
0
  3
AIGNBL0202013C
  0
LINE
  8
LAYER_2
 10
30.4429
 20
137.0746
 11
32.5499
 21
146.9873
  0
ENDBLK
  0
BLOCK
  8
LAYER_2
  2
AIGNBL0202013D
 70
64
 10
0
 20
0
 30
0
  3
AIGNBL0202013D
  0
LINE
  8
LAYER_2
 10
68.799
 20
165.0436
 11
64.2452
 21
165.1819
  0
ENDBLK
  0
BLOCK
  8
LAYER_2
  2
AIGNBL0202013E
 70
64
 10
0
 20
0
 30
0
  3
AIGNBL0202013E
  0
LINE
  8
LAYER_2
 10
29.3341
 20
154.6718
 11
29.4831
 21
155.3964
  0
ENDBLK
  0
BLOCK
  8
LAYER_2
  2
AIGNBL0202013F
 70
64
 10
0
 20
0
 30
0
  3
AIGNBL0202013F
  0
LINE
  8
LAYER_2
 10
44.2521
 20
163.227
 11
44.2521
 21
164.8869
  0
ENDBLK
  0
BLOCK
  8
LAYER_2
  2
AIGNBL02020140
 70
64
 10
0
 20
0
 30
0
  3
AIGNBL02020140
  0
ARC
  8
LAYER_2
 10
74.26
 20
163.1026
 40
5.0623
 50
172.1613845
 51
179.951109
  0
ENDBLK
  0
BLOCK
  8
LAYER_2
  2
AIGNBL02020141
 70
64
 10
0
 20
0
 30
0
  3
AIGNBL02020141
  0
LINE
  8
LAYER_2
 10
59.8702
 20
162.8135
 11
59.8619
 21
162.8069
  0
ENDBLK
  0
BLOCK
  8
LAYER_2
  2
AIGNBL02020142
 70
64
 10
0
 20
0
 30
0
  3
AIGNBL02020142
  0
ARC
  8
LAYER_2
 10
68.7702
 20
164.5694
 40
0.475
 50
359.9944954
 51
86.52052589
  0
ENDBLK
  0
BLOCK
  8
LAYER_2
  2
AIGNBL02020143
 70
64
 10
0
 20
0
 30
0
  3
AIGNBL02020143
  0
ARC
  8
LAYER_2
 10
69.9952
 20
118.9694
 40
0.25
 50
359.9981002
 51
90.0018998
  0
ENDBLK
  0
BLOCK
  8
LAYER_2
  2
AIGNBL02020144
 70
64
 10
0
 20
0
 30
0
  3
AIGNBL02020144
  0
ARC
  8
LAYER_2
 10
58.4952
 20
118.9694
 40
0.25
 50
89.99142295
 51
180.0085771
  0
ENDBLK
  0
BLOCK
  8
LAYER_2
  2
AIGNBL02020145
 70
64
 10
0
 20
0
 30
0
  3
AIGNBL02020145
  0
ARC
  8
LAYER_2
 10
69.1702
 20
162.3944
 40
0.075
 50
359.9936719
 51
90.00632805
  0
ENDBLK
  0
BLOCK
  8
LAYER_2
  2
AIGNBL02020146
 70
64
 10
0
 20
0
 30
0
  3
AIGNBL02020146
  0
ARC
  8
LAYER_2
 10
59.3202
 20
162.3944
 40
0.075
 50
89.97139707
 51
180.0286029
  0
ENDBLK
  0
BLOCK
  8
LAYER_2
  2
AIGNBL02020147
 70
64
 10
0
 20
0
 30
0
  3
AIGNBL02020147
  0
LINE
  8
LAYER_2
 10
30.67
 20
150.468
 11
29.6936
 21
150.7656
  0
ENDBLK
  0
BLOCK
  8
LAYER_2
  2
AIGNBL02020148
 70
64
 10
0
 20
0
 30
0
  3
AIGNBL02020148
  0
ARC
  8
LAYER_2
 10
42.0308
 20
153.1664
 40
12.7857
 50
173.2380158
 51
186.7619842
  0
ENDBLK
  0
BLOCK
  8
LAYER_2
  2
AIGNBL02020149
 70
64
 10
0
 20
0
 30
0
  3
AIGNBL02020149
  0
ARC
  8
LAYER_2
 10
32.7451
 20
152.0656
 40
3.4349
 50
186.7671064
 51
198.6062842
  0
ENDBLK
  0
BLOCK
  8
LAYER_2
  2
AIGNBL0202014A
 70
64
 10
0
 20
0
 30
0
  3
AIGNBL0202014A
  0
ARC
  8
LAYER_2
 10
29.7977
 20
151.0735
 40
0.325
 50
198.6230162
 51
251.3208115
  0
ENDBLK
  0
BLOCK
  8
LAYER_2
  2
AIGNBL0202014B
 70
64
 10
0
 20
0
 30
0
  3
AIGNBL0202014B
  0
ARC
  8
LAYER_2
 10
29.7948
 20
155.3043
 40
0.325
 50
90.15659004
 51
163.5359972
  0
ENDBLK
  0
BLOCK
  8
LAYER_2
  2
AIGNBL0202014C
 70
64
 10
0
 20
0
 30
0
  3
AIGNBL0202014C
  0
ARC
  8
LAYER_2
 10
44.5521
 20
163.2319
 40
0.3
 50
180.9363586
 51
269.9880575
  0
ENDBLK
  0
BLOCK
  8
LAYER_2
  2
AIGNBL0202014D
 70
64
 10
0
 20
0
 30
0
  3
AIGNBL0202014D
  0
ARC
  8
LAYER_2
 10
44.552
 20
164.8819
 40
0.3
 50
90.00305142
 51
179.0531161
  0
ENDBLK
  0
BLOCK
  8
LAYER_2
  2
AIGNBL0202014E
 70
64
 10
0
 20
0
 30
0
  3
AIGNBL0202014E
  0
LINE
  8
LAYER_2
 10
39.3105
 20
149.8
 11
35.7791
 21
149.8541
  0
ENDBLK
  0
BLOCK
  8
LAYER_2
  2
AIGNBL0202014F
 70
64
 10
0
 20
0
 30
0
  3
AIGNBL0202014F
  0
ARC
  8
LAYER_2
 10
57.0439
 20
148.0953
 40
1.6119
 50
74.00365013
 51
89.06490519
  0
ARC
  8
LAYER_2
 10
56.8906
 20
147.6168
 40
2.1141
 50
62.10330078
 51
73.58445307
  0
ARC
  8
LAYER_2
 10
56.624
 20
147.1502
 40
2.6514
 50
47.99288126
 51
61.72997564
  0
LINE
  8
LAYER_2
 10
58.3984
 20
149.1203
 11
58.6228
 21
148.8954
  0
LINE
  8
LAYER_2
 10
58.6228
 20
148.8954
 11
58.8212
 21
148.6473
  0
LINE
  8
LAYER_2
 10
58.8212
 20
148.6473
 11
58.9899
 21
148.3781
  0
LINE
  8
LAYER_2
 10
58.9899
 20
148.3781
 11
59.1231
 21
148.0898
  0
ARC
  8
LAYER_2
 10
57.5046
 20
147.4491
 40
1.7407
 50
0.6696811904
 51
21.59831723
  0
ENDBLK
  0
BLOCK
  8
LAYER_2
  2
AIGNBL02020150
 70
64
 10
0
 20
0
 30
0
  3
AIGNBL02020150
  0
LINE
  8
LAYER_2
 10
35.7791
 20
149.8541
 11
35.7579
 21
149.864
  0
LINE
  8
LAYER_2
 10
35.7579
 20
149.864
 11
35.6952
 21
149.8949
  0
LINE
  8
LAYER_2
 10
35.6952
 20
149.8949
 11
35.5926
 21
149.9473
  0
LINE
  8
LAYER_2
 10
35.5926
 20
149.9473
 11
35.4525
 21
150.02
  0
LINE
  8
LAYER_2
 10
35.4525
 20
150.02
 11
35.2778
 21
150.1116
  0
LINE
  8
LAYER_2
 10
35.2778
 20
150.1116
 11
35.0723
 21
150.2202
  0
LINE
  8
LAYER_2
 10
35.0723
 20
150.2202
 11
34.58
 21
150.4676
  0
ENDBLK
  0
BLOCK
  8
LAYER_2
  2
AIGNBL02020151
 70
64
 10
0
 20
0
 30
0
  3
AIGNBL02020151
  0
LINE
  8
LAYER_2
 10
34.58
 20
150.4676
 11
34.1165
 21
150.6546
  0
ARC
  8
LAYER_2
 10
33.3455
 20
148.4226
 40
2.3614
 50
70.94345406
 51
83.07763621
  0
LINE
  8
LAYER_2
 10
33.6301
 20
150.7668
 11
33.3807
 21
150.7815
  0
LINE
  8
LAYER_2
 10
33.3807
 20
150.7815
 11
33.1312
 21
150.7672
  0
LINE
  8
LAYER_2
 10
33.1312
 20
150.7672
 11
32.6403
 21
150.674
  0
LINE
  8
LAYER_2
 10
32.6403
 20
150.674
 11
32.1561
 21
150.5491
  0
LINE
  8
LAYER_2
 10
32.1561
 20
150.5491
 11
31.6658
 21
150.4521
  0
LINE
  8
LAYER_2
 10
31.6658
 20
150.4521
 11
31.1672
 21
150.4202
  0
ARC
  8
LAYER_2
 10
31.1909
 20
153.276
 40
2.8559
 50
259.4916761
 51
269.5254314
  0
ENDBLK
  0
BLOCK
  8
LAYER_2
  2
AIGNBL02020152
 70
64
 10
0
 20
0
 30
0
  3
AIGNBL02020152
  0
LINE
  8
LAYER_2
 10
59.2452
 20
157.7194
 11
59.2146
 21
157.2986
  0
ARC
  8
LAYER_2
 10
57.1617
 20
157.5948
 40
2.0741
 50
340.1239658
 51
351.7903629
  0
ARC
  8
LAYER_2
 10
57.4939
 20
157.4613
 40
1.7165
 50
326.4468564
 51
340.5446883
  0
ARC
  8
LAYER_2
 10
57.5891
 20
157.3983
 40
1.6023
 50
311.3380959
 51
326.441078
  0
ARC
  8
LAYER_2
 10
57.501
 20
157.5132
 40
1.7467
 50
297.1687421
 51
311.0187876
  0
ARC
  8
LAYER_2
 10
57.312
 20
157.9176
 40
2.1929
 50
285.7048115
 51
296.7370896
  0
LINE
  8
LAYER_2
 10
57.9056
 20
155.8066
 11
57.4915
 21
155.7254
  0
LINE
  8
LAYER_2
 10
57.4915
 20
155.7254
 11
57.0702
 21
155.7007
  0
ENDBLK
  0
BLOCK
  8
LAYER_2
  2
AIGNBL02020153
 70
64
 10
0
 20
0
 30
0
  3
AIGNBL02020153
  0
ARC
  8
LAYER_2
 10
33.869
 20
153.1822
 40
4.2687
 50
248.164953
 51
257.970222
  0
ARC
  8
LAYER_2
 10
33.8753
 20
153.2723
 40
4.3582
 50
258.1365496
 51
267.7400381
  0
ENDBLK
  0
BLOCK
  8
LAYER_2
  2
AIGNBL02020154
 70
64
 10
0
 20
0
 30
0
  3
AIGNBL02020154
  0
LINE
  8
LAYER_2
 10
67.9926
 20
162.7616
 11
67.9823
 21
162.7654
  0
ENDBLK
  0
BLOCK
  8
LAYER_2
  2
AIGNBL02020155
 70
64
 10
0
 20
0
 30
0
  3
AIGNBL02020155
  0
ARC
  8
LAYER_2
 10
32.3139
 20
145.8774
 40
4.1774
 50
67.97740754
 51
88.01915611
  0
ENDBLK
  0
BLOCK
  8
LAYER_2
  2
AIGNBL02020157
 70
64
 10
0
 20
0
 30
0
  3
AIGNBL02020157
  0
LINE
  8
LAYER_2
 10
-20.7941
 20
239.0591
 11
-20.869
 21
239.0144
  0
ENDBLK
  0
BLOCK
  8
LAYER_2
  2
AIGNBL02020158
 70
64
 10
0
 20
0
 30
0
  3
AIGNBL02020158
  0
LINE
  8
LAYER_2
 10
-25.5605
 20
239.0144
 11
-25.6354
 21
239.0591
  0
ENDBLK
  0
BLOCK
  8
LAYER_2
  2
AIGNBL02020159
 70
64
 10
0
 20
0
 30
0
  3
AIGNBL02020159
  0
LINE
  8
LAYER_2
 10
-20.869
 20
239.0144
 11
-21.003
 21
238.9168
  0
LINE
  8
LAYER_2
 10
-21.003
 20
238.9168
 11
-21.1293
 21
238.8009
  0
LINE
  8
LAYER_2
 10
-21.1293
 20
238.8009
 11
-21.2464
 21
238.6679
  0
LINE
  8
LAYER_2
 10
-21.2464
 20
238.6679
 11
-21.3529
 21
238.5197
  0
LINE
  8
LAYER_2
 10
-21.3529
 20
238.5197
 11
-21.4486
 21
238.3568
  0
LINE
  8
LAYER_2
 10
-21.4486
 20
238.3568
 11
-21.5328
 21
238.1804
  0
LINE
  8
LAYER_2
 10
-21.5328
 20
238.1804
 11
-21.605
 21
237.9908
  0
LINE
  8
LAYER_2
 10
-21.605
 20
237.9908
 11
-21.6637
 21
237.7889
  0
LINE
  8
LAYER_2
 10
-21.6637
 20
237.7889
 11
-21.7075
 21
237.5747
  0
LINE
  8
LAYER_2
 10
-21.7075
 20
237.5747
 11
-21.7339
 21
237.3478
  0
LINE
  8
LAYER_2
 10
-21.7339
 20
237.3478
 11
-21.7397
 21
237.1841
  0
ENDBLK
  0
BLOCK
  8
LAYER_2
  2
AIGNBL0202015A
 70
64
 10
0
 20
0
 30
0
  3
AIGNBL0202015A
  0
LINE
  8
LAYER_2
 10
-20.1745
 20
208.9689
 11
-20.1756
 21
208.9435
  0
LINE
  8
LAYER_2
 10
-20.1756
 20
208.9435
 11
-20.1838
 21
208.8938
  0
LINE
  8
LAYER_2
 10
-20.1838
 20
208.8938
 11
-20.1995
 21
208.846
  0
LINE
  8
LAYER_2
 10
-20.1995
 20
208.846
 11
-20.2223
 21
208.8014
  0
LINE
  8
LAYER_2
 10
-20.2223
 20
208.8014
 11
-20.2515
 21
208.7609
  0
LINE
  8
LAYER_2
 10
-20.2515
 20
208.7609
 11
-20.2866
 21
208.7255
  0
LINE
  8
LAYER_2
 10
-20.2866
 20
208.7255
 11
-20.3264
 21
208.696
  0
LINE
  8
LAYER_2
 10
-20.3264
 20
208.696
 11
-20.3698
 21
208.673
  0
LINE
  8
LAYER_2
 10
-20.3698
 20
208.673
 11
-20.4157
 21
208.657
  0
LINE
  8
LAYER_2
 10
-20.4157
 20
208.657
 11
-20.4291
 21
208.6537
  0
ENDBLK
  0
BLOCK
  8
LAYER_2
  2
AIGNBL0202015B
 70
64
 10
0
 20
0
 30
0
  3
AIGNBL0202015B
  0
LINE
  8
LAYER_2
 10
-19.9844
 20
236.4662
 11
-19.9867
 21
236.2608
  0
ENDBLK
  0
BLOCK
  8
LAYER_2
  2
AIGNBL0202015C
 70
64
 10
0
 20
0
 30
0
  3
AIGNBL0202015C
  0
LINE
  8
LAYER_2
 10
-19.9867
 20
236.2608
 11
-20.1745
 21
208.9689
  0
ENDBLK
  0
BLOCK
  8
LAYER_2
  2
AIGNBL0202015D
 70
64
 10
0
 20
0
 30
0
  3
AIGNBL0202015D
  0
LINE
  8
LAYER_2
 10
-19.0519
 20
240.6645
 11
-19.0485
 21
240.6697
  0
ENDBLK
  0
BLOCK
  8
LAYER_2
  2
AIGNBL0202015E
 70
64
 10
0
 20
0
 30
0
  3
AIGNBL0202015E
  0
LINE
  8
LAYER_2
 10
-19.0514
 20
240.6653
 11
-19.0838
 21
240.6154
  0
ENDBLK
  0
BLOCK
  8
LAYER_2
  2
AIGNBL0202015F
 70
64
 10
0
 20
0
 30
0
  3
AIGNBL0202015F
  0
LINE
  8
LAYER_2
 10
-19.0783
 20
240.624
 11
-19.0866
 21
240.6111
  0
ENDBLK
  0
BLOCK
  8
LAYER_2
  2
AIGNBL02020160
 70
64
 10
0
 20
0
 30
0
  3
AIGNBL02020160
  0
LINE
  8
LAYER_2
 10
-19.0866
 20
240.6111
 11
-19.0971
 21
240.5945
  0
ENDBLK
  0
BLOCK
  8
LAYER_2
  2
AIGNBL02020161
 70
64
 10
0
 20
0
 30
0
  3
AIGNBL02020161
  0
LINE
  8
LAYER_2
 10
-19.0971
 20
240.5945
 11
-19.1081
 21
240.5768
  0
ENDBLK
  0
BLOCK
  8
LAYER_2
  2
AIGNBL02020162
 70
64
 10
0
 20
0
 30
0
  3
AIGNBL02020162
  0
LINE
  8
LAYER_2
 10
-19.1081
 20
240.5768
 11
-19.1249
 21
240.5496
  0
LINE
  8
LAYER_2
 10
-19.1249
 20
240.5496
 11
-19.1367
 21
240.5301
  0
LINE
  8
LAYER_2
 10
-19.1367
 20
240.5301
 11
-19.1518
 21
240.5048
  0
LINE
  8
LAYER_2
 10
-19.1518
 20
240.5048
 11
-19.1713
 21
240.4715
  0
LINE
  8
LAYER_2
 10
-19.1713
 20
240.4715
 11
-19.1952
 21
240.4295
  0
LINE
  8
LAYER_2
 10
-19.1952
 20
240.4295
 11
-19.2244
 21
240.3765
  0
LINE
  8
LAYER_2
 10
-19.2244
 20
240.3765
 11
-19.257
 21
240.3149
  0
LINE
  8
LAYER_2
 10
-19.257
 20
240.3149
 11
-19.2919
 21
240.2461
  0
LINE
  8
LAYER_2
 10
-19.2919
 20
240.2461
 11
-19.328
 21
240.1715
  0
LINE
  8
LAYER_2
 10
-19.328
 20
240.1715
 11
-19.3642
 21
240.0929
  0
LINE
  8
LAYER_2
 10
-19.3642
 20
240.0929
 11
-19.4002
 21
240.0108
  0
LINE
  8
LAYER_2
 10
-19.4002
 20
240.0108
 11
-19.4352
 21
239.9265
  0
LINE
  8
LAYER_2
 10
-19.4352
 20
239.9265
 11
-19.4694
 21
239.8396
  0
LINE
  8
LAYER_2
 10
-19.4694
 20
239.8396
 11
-19.5027
 21
239.7504
  0
LINE
  8
LAYER_2
 10
-19.5027
 20
239.7504
 11
-19.535
 21
239.6589
  0
LINE
  8
LAYER_2
 10
-19.535
 20
239.6589
 11
-19.5663
 21
239.5652
  0
LINE
  8
LAYER_2
 10
-19.5663
 20
239.5652
 11
-19.5964
 21
239.4696
  0
LINE
  8
LAYER_2
 10
-19.5964
 20
239.4696
 11
-19.6254
 21
239.3723
  0
LINE
  8
LAYER_2
 10
-19.6254
 20
239.3723
 11
-19.6531
 21
239.2734
  0
LINE
  8
LAYER_2
 10
-19.6531
 20
239.2734
 11
-19.6797
 21
239.1729
  0
LINE
  8
LAYER_2
 10
-19.6797
 20
239.1729
 11
-19.7051
 21
239.071
  0
LINE
  8
LAYER_2
 10
-19.7051
 20
239.071
 11
-19.7292
 21
238.9674
  0
LINE
  8
LAYER_2
 10
-19.7292
 20
238.9674
 11
-19.7523
 21
238.8624
  0
LINE
  8
LAYER_2
 10
-19.7523
 20
238.8624
 11
-19.7741
 21
238.7559
  0
LINE
  8
LAYER_2
 10
-19.7741
 20
238.7559
 11
-19.7949
 21
238.6479
  0
LINE
  8
LAYER_2
 10
-19.7949
 20
238.6479
 11
-19.8144
 21
238.5385
  0
LINE
  8
LAYER_2
 10
-19.8144
 20
238.5385
 11
-19.8329
 21
238.4276
  0
LINE
  8
LAYER_2
 10
-19.8329
 20
238.4276
 11
-19.8502
 21
238.3153
  0
LINE
  8
LAYER_2
 10
-19.8502
 20
238.3153
 11
-19.8665
 21
238.2016
  0
LINE
  8
LAYER_2
 10
-19.8665
 20
238.2016
 11
-19.8816
 21
238.0865
  0
LINE
  8
LAYER_2
 10
-19.8816
 20
238.0865
 11
-19.8956
 21
237.97
  0
LINE
  8
LAYER_2
 10
-19.8956
 20
237.97
 11
-19.9085
 21
237.8521
  0
LINE
  8
LAYER_2
 10
-19.9085
 20
237.8521
 11
-19.9204
 21
237.7329
  0
LINE
  8
LAYER_2
 10
-19.9204
 20
237.7329
 11
-19.9312
 21
237.6124
  0
LINE
  8
LAYER_2
 10
-19.9312
 20
237.6124
 11
-19.9409
 21
237.4906
  0
LINE
  8
LAYER_2
 10
-19.9409
 20
237.4906
 11
-19.9496
 21
237.3675
  0
LINE
  8
LAYER_2
 10
-19.9496
 20
237.3675
 11
-19.9573
 21
237.2431
  0
LINE
  8
LAYER_2
 10
-19.9573
 20
237.2431
 11
-19.964
 21
237.1173
  0
LINE
  8
LAYER_2
 10
-19.964
 20
237.1173
 11
-19.9698
 21
236.99
  0
LINE
  8
LAYER_2
 10
-19.9698
 20
236.99
 11
-19.9747
 21
236.8612
  0
LINE
  8
LAYER_2
 10
-19.9747
 20
236.8612
 11
-19.9787
 21
236.731
  0
LINE
  8
LAYER_2
 10
-19.9787
 20
236.731
 11
-19.982
 21
236.5994
  0
LINE
  8
LAYER_2
 10
-19.982
 20
236.5994
 11
-19.9844
 21
236.4662
  0
ENDBLK
  0
BLOCK
  8
LAYER_2
  2
AIGNBL02020163
 70
64
 10
0
 20
0
 30
0
  3
AIGNBL02020163
  0
LINE
  8
LAYER_2
 10
-21.7397
 20
237.1841
 11
-21.7397
 21
223.748
  0
ENDBLK
  0
BLOCK
  8
LAYER_2
  2
AIGNBL02020164
 70
64
 10
0
 20
0
 30
0
  3
AIGNBL02020164
  0
LINE
  8
LAYER_2
 10
-27.3046
 20
240.5496
 11
-27.3214
 21
240.5768
  0
ENDBLK
  0
BLOCK
  8
LAYER_2
  2
AIGNBL02020165
 70
64
 10
0
 20
0
 30
0
  3
AIGNBL02020165
  0
LINE
  8
LAYER_2
 10
-27.3214
 20
240.5768
 11
-27.3324
 21
240.5945
  0
ENDBLK
  0
BLOCK
  8
LAYER_2
  2
AIGNBL02020166
 70
64
 10
0
 20
0
 30
0
  3
AIGNBL02020166
  0
LINE
  8
LAYER_2
 10
-27.3324
 20
240.5945
 11
-27.3429
 21
240.6111
  0
ENDBLK
  0
BLOCK
  8
LAYER_2
  2
AIGNBL02020167
 70
64
 10
0
 20
0
 30
0
  3
AIGNBL02020167
  0
LINE
  8
LAYER_2
 10
-27.354
 20
240.6283
 11
-27.3429
 21
240.6111
  0
ENDBLK
  0
BLOCK
  8
LAYER_2
  2
AIGNBL02020168
 70
64
 10
0
 20
0
 30
0
  3
AIGNBL02020168
  0
LINE
  8
LAYER_2
 10
-27.3458
 20
240.6156
 11
-27.3782
 21
240.6653
  0
ENDBLK
  0
BLOCK
  8
LAYER_2
  2
AIGNBL02020169
 70
64
 10
0
 20
0
 30
0
  3
AIGNBL02020169
  0
LINE
  8
LAYER_2
 10
-27.3816
 20
240.6705
 11
-27.3783
 21
240.6655
  0
ENDBLK
  0
BLOCK
  8
LAYER_2
  2
AIGNBL0202016A
 70
64
 10
0
 20
0
 30
0
  3
AIGNBL0202016A
  0
LINE
  8
LAYER_2
 10
-24.6897
 20
223.748
 11
-24.6897
 21
237.1841
  0
ENDBLK
  0
BLOCK
  8
LAYER_2
  2
AIGNBL0202016B
 70
64
 10
0
 20
0
 30
0
  3
AIGNBL0202016B
  0
LINE
  8
LAYER_2
 10
-24.6896
 20
237.1841
 11
-24.6955
 21
237.3478
  0
LINE
  8
LAYER_2
 10
-24.6955
 20
237.3478
 11
-24.7219
 21
237.5747
  0
LINE
  8
LAYER_2
 10
-24.7219
 20
237.5747
 11
-24.7657
 21
237.7889
  0
LINE
  8
LAYER_2
 10
-24.7657
 20
237.7889
 11
-24.8245
 21
237.9908
  0
LINE
  8
LAYER_2
 10
-24.8245
 20
237.9908
 11
-24.8966
 21
238.1804
  0
LINE
  8
LAYER_2
 10
-24.8966
 20
238.1804
 11
-24.9808
 21
238.3568
  0
LINE
  8
LAYER_2
 10
-24.9808
 20
238.3568
 11
-25.0766
 21
238.5197
  0
LINE
  8
LAYER_2
 10
-25.0766
 20
238.5197
 11
-25.1831
 21
238.6679
  0
LINE
  8
LAYER_2
 10
-25.1831
 20
238.6679
 11
-25.3002
 21
238.8009
  0
LINE
  8
LAYER_2
 10
-25.3002
 20
238.8009
 11
-25.4265
 21
238.9168
  0
LINE
  8
LAYER_2
 10
-25.4265
 20
238.9168
 11
-25.5605
 21
239.0144
  0
ENDBLK
  0
BLOCK
  8
LAYER_2
  2
AIGNBL0202016C
 70
64
 10
0
 20
0
 30
0
  3
AIGNBL0202016C
  0
LINE
  8
LAYER_2
 10
-26.255
 20
208.9689
 11
-26.4433
 21
236.3317
  0
LINE
  8
LAYER_2
 10
-26.4433
 20
236.3317
 11
-26.4451
 21
236.4662
  0
LINE
  8
LAYER_2
 10
-26.4451
 20
236.4662
 11
-26.4475
 21
236.5994
  0
LINE
  8
LAYER_2
 10
-26.4475
 20
236.5994
 11
-26.4508
 21
236.731
  0
LINE
  8
LAYER_2
 10
-26.4508
 20
236.731
 11
-26.4548
 21
236.8612
  0
LINE
  8
LAYER_2
 10
-26.4548
 20
236.8612
 11
-26.4597
 21
236.99
  0
LINE
  8
LAYER_2
 10
-26.4597
 20
236.99
 11
-26.4655
 21
237.1173
  0
LINE
  8
LAYER_2
 10
-26.4655
 20
237.1173
 11
-26.4722
 21
237.2431
  0
LINE
  8
LAYER_2
 10
-26.4722
 20
237.2431
 11
-26.4799
 21
237.3675
  0
LINE
  8
LAYER_2
 10
-26.4799
 20
237.3675
 11
-26.4886
 21
237.4906
  0
LINE
  8
LAYER_2
 10
-26.4886
 20
237.4906
 11
-26.4983
 21
237.6124
  0
LINE
  8
LAYER_2
 10
-26.4983
 20
237.6124
 11
-26.5091
 21
237.7329
  0
LINE
  8
LAYER_2
 10
-26.5091
 20
237.7329
 11
-26.521
 21
237.8521
  0
LINE
  8
LAYER_2
 10
-26.521
 20
237.8521
 11
-26.5339
 21
237.97
  0
LINE
  8
LAYER_2
 10
-26.5339
 20
237.97
 11
-26.5479
 21
238.0865
  0
LINE
  8
LAYER_2
 10
-26.5479
 20
238.0865
 11
-26.563
 21
238.2016
  0
LINE
  8
LAYER_2
 10
-26.563
 20
238.2016
 11
-26.5793
 21
238.3153
  0
LINE
  8
LAYER_2
 10
-26.5793
 20
238.3153
 11
-26.5966
 21
238.4276
  0
LINE
  8
LAYER_2
 10
-26.5966
 20
238.4276
 11
-26.6151
 21
238.5385
  0
LINE
  8
LAYER_2
 10
-26.6151
 20
238.5385
 11
-26.6346
 21
238.6479
  0
LINE
  8
LAYER_2
 10
-26.6346
 20
238.6479
 11
-26.6554
 21
238.7559
  0
LINE
  8
LAYER_2
 10
-26.6554
 20
238.7559
 11
-26.6772
 21
238.8624
  0
LINE
  8
LAYER_2
 10
-26.6772
 20
238.8624
 11
-26.7002
 21
238.9674
  0
LINE
  8
LAYER_2
 10
-26.7002
 20
238.9674
 11
-26.7244
 21
239.071
  0
LINE
  8
LAYER_2
 10
-26.7244
 20
239.071
 11
-26.7498
 21
239.1729
  0
LINE
  8
LAYER_2
 10
-26.7498
 20
239.1729
 11
-26.7764
 21
239.2734
  0
LINE
  8
LAYER_2
 10
-26.7764
 20
239.2734
 11
-26.8041
 21
239.3723
  0
LINE
  8
LAYER_2
 10
-26.8041
 20
239.3723
 11
-26.8331
 21
239.4696
  0
LINE
  8
LAYER_2
 10
-26.8331
 20
239.4696
 11
-26.8632
 21
239.5652
  0
LINE
  8
LAYER_2
 10
-26.8632
 20
239.5652
 11
-26.8945
 21
239.6589
  0
LINE
  8
LAYER_2
 10
-26.8945
 20
239.6589
 11
-26.9268
 21
239.7504
  0
LINE
  8
LAYER_2
 10
-26.9268
 20
239.7504
 11
-26.9601
 21
239.8396
  0
LINE
  8
LAYER_2
 10
-26.9601
 20
239.8396
 11
-26.9943
 21
239.9265
  0
LINE
  8
LAYER_2
 10
-26.9943
 20
239.9265
 11
-27.0293
 21
240.0108
  0
LINE
  8
LAYER_2
 10
-27.0293
 20
240.0108
 11
-27.0653
 21
240.0929
  0
LINE
  8
LAYER_2
 10
-27.0653
 20
240.0929
 11
-27.1015
 21
240.1715
  0
LINE
  8
LAYER_2
 10
-27.1015
 20
240.1715
 11
-27.1376
 21
240.2461
  0
LINE
  8
LAYER_2
 10
-27.1376
 20
240.2461
 11
-27.1725
 21
240.3149
  0
LINE
  8
LAYER_2
 10
-27.1725
 20
240.3149
 11
-27.2051
 21
240.3765
  0
LINE
  8
LAYER_2
 10
-27.2051
 20
240.3765
 11
-27.2343
 21
240.4295
  0
LINE
  8
LAYER_2
 10
-27.2343
 20
240.4295
 11
-27.2582
 21
240.4715
  0
LINE
  8
LAYER_2
 10
-27.2582
 20
240.4715
 11
-27.2777
 21
240.5048
  0
LINE
  8
LAYER_2
 10
-27.2777
 20
240.5048
 11
-27.2928
 21
240.5301
  0
LINE
  8
LAYER_2
 10
-27.2928
 20
240.5301
 11
-27.3046
 21
240.5496
  0
ENDBLK
  0
BLOCK
  8
LAYER_2
  2
AIGNBL0202016D
 70
64
 10
0
 20
0
 30
0
  3
AIGNBL0202016D
  0
LINE
  8
LAYER_2
 10
-24.3968
 20
223.4481
 11
-23.2147
 21
223.4341
  0
ENDBLK
  0
BLOCK
  8
LAYER_2
  2
AIGNBL0202016E
 70
64
 10
0
 20
0
 30
0
  3
AIGNBL0202016E
  0
LINE
  8
LAYER_2
 10
-22.0327
 20
223.4481
 11
-23.2147
 21
223.4341
  0
ENDBLK
  0
BLOCK
  8
LAYER_2
  2
AIGNBL0202016F
 70
64
 10
0
 20
0
 30
0
  3
AIGNBL0202016F
  0
LINE
  8
LAYER_2
 10
-21.1698
 20
208.5351
 11
-20.4291
 21
208.6537
  0
ENDBLK
  0
BLOCK
  8
LAYER_2
  2
AIGNBL02020170
 70
64
 10
0
 20
0
 30
0
  3
AIGNBL02020170
  0
LINE
  8
LAYER_2
 10
-26.0004
 20
208.6537
 11
-26.0139
 21
208.657
  0
LINE
  8
LAYER_2
 10
-26.0139
 20
208.657
 11
-26.0597
 21
208.673
  0
LINE
  8
LAYER_2
 10
-26.0597
 20
208.673
 11
-26.1032
 21
208.696
  0
LINE
  8
LAYER_2
 10
-26.1032
 20
208.696
 11
-26.1429
 21
208.7255
  0
LINE
  8
LAYER_2
 10
-26.1429
 20
208.7255
 11
-26.178
 21
208.7609
  0
LINE
  8
LAYER_2
 10
-26.178
 20
208.7609
 11
-26.2072
 21
208.8014
  0
LINE
  8
LAYER_2
 10
-26.2072
 20
208.8014
 11
-26.23
 21
208.8461
  0
LINE
  8
LAYER_2
 10
-26.23
 20
208.8461
 11
-26.2457
 21
208.8939
  0
LINE
  8
LAYER_2
 10
-26.2457
 20
208.8939
 11
-26.2539
 21
208.9436
  0
LINE
  8
LAYER_2
 10
-26.2539
 20
208.9436
 11
-26.255
 21
208.9689
  0
ENDBLK
  0
BLOCK
  8
LAYER_2
  2
AIGNBL02020171
 70
64
 10
0
 20
0
 30
0
  3
AIGNBL02020171
  0
LINE
  8
LAYER_2
 10
-26.0004
 20
208.6537
 11
-25.2597
 21
208.5351
  0
ENDBLK
  0
BLOCK
  8
LAYER_2
  2
AIGNBL02020172
 70
64
 10
0
 20
0
 30
0
  3
AIGNBL02020172
  0
LINE
  8
LAYER_2
 10
-19.0755
 20
240.6283
 11
-19.0513
 21
240.6654
  0
ENDBLK
  0
BLOCK
  8
LAYER_2
  2
AIGNBL02020173
 70
64
 10
0
 20
0
 30
0
  3
AIGNBL02020173
  0
LINE
  8
LAYER_2
 10
-20.9179
 20
238.9821
 11
-20.7941
 21
239.0591
  0
ENDBLK
  0
BLOCK
  8
LAYER_2
  2
AIGNBL02020174
 70
64
 10
0
 20
0
 30
0
  3
AIGNBL02020174
  0
ARC
  8
LAYER_2
 10
-22.0397
 20
223.748
 40
0.3
 50
271.3385393
 51
359.9949842
  0
ENDBLK
  0
BLOCK
  8
LAYER_2
  2
AIGNBL02020175
 70
64
 10
0
 20
0
 30
0
  3
AIGNBL02020175
  0
ARC
  8
LAYER_2
 10
-23.2147
 20
229.1841
 40
20.75
 50
264.3442186
 51
275.6557814
  0
ENDBLK
  0
BLOCK
  8
LAYER_2
  2
AIGNBL02020176
 70
64
 10
0
 20
0
 30
0
  3
AIGNBL02020176
  0
ARC
  8
LAYER_2
 10
-23.2147
 20
243.4341
 40
5
 50
151.0437333
 51
241.0445052
  0
ARC
  8
LAYER_2
 10
-23.2147
 20
243.4341
 40
5
 50
61.04478363
 51
151.0439028
  0
ARC
  8
LAYER_2
 10
-23.2148
 20
243.4341
 40
5
 50
331.0437265
 51
61.04451203
  0
ARC
  8
LAYER_2
 10
-23.2148
 20
243.4341
 40
5
 50
298.9557507
 51
331.0442493
  0
ENDBLK
  0
BLOCK
  8
LAYER_2
  2
AIGNBL02020177
 70
64
 10
0
 20
0
 30
0
  3
AIGNBL02020177
  0
LINE
  8
LAYER_2
 10
-27.3783
 20
240.6655
 11
-27.354
 21
240.6283
  0
ENDBLK
  0
BLOCK
  8
LAYER_2
  2
AIGNBL02020178
 70
64
 10
0
 20
0
 30
0
  3
AIGNBL02020178
  0
LINE
  8
LAYER_2
 10
-25.6354
 20
239.0591
 11
-25.5115
 21
238.982
  0
ENDBLK
  0
BLOCK
  8
LAYER_2
  2
AIGNBL02020179
 70
64
 10
0
 20
0
 30
0
  3
AIGNBL02020179
  0
ARC
  8
LAYER_2
 10
-24.3897
 20
223.748
 40
0.3
 50
179.9956491
 51
268.6512745
  0
ENDBLK
  0
BLOCK
  8
LAYER_2
  2
AIGNBL0202017B
 70
64
 10
0
 20
0
 30
0
  3
AIGNBL0202017B
  0
LINE
  8
LAYER_2
 10
-24.706
 20
102.8645
 11
-21.7236
 21
102.8645
  0
ENDBLK
  0
BLOCK
  8
LAYER_2
  2
AIGNBL0202017C
 70
64
 10
0
 20
0
 30
0
  3
AIGNBL0202017C
  0
LINE
  8
LAYER_2
 10
-24.7148
 20
102.9245
 11
-24.706
 21
102.9245
  0
ENDBLK
  0
BLOCK
  8
LAYER_2
  2
AIGNBL0202017D
 70
64
 10
0
 20
0
 30
0
  3
AIGNBL0202017D
  0
LINE
  8
LAYER_2
 10
-21.7236
 20
102.9245
 11
-21.7148
 21
102.9245
  0
ENDBLK
  0
BLOCK
  8
LAYER_2
  2
AIGNBL0202017E
 70
64
 10
0
 20
0
 30
0
  3
AIGNBL0202017E
  0
LINE
  8
LAYER_2
 10
-23.7689
 20
102.392
 11
-23.8039
 21
102.4045
  0
ENDBLK
  0
BLOCK
  8
LAYER_2
  2
AIGNBL0202017F
 70
64
 10
0
 20
0
 30
0
  3
AIGNBL0202017F
  0
LINE
  8
LAYER_2
 10
-21.0935
 20
105.4695
 11
-21.0759
 21
105.4726
  0
LINE
  8
LAYER_2
 10
-21.0759
 20
105.4726
 11
-21.059
 21
105.4818
  0
LINE
  8
LAYER_2
 10
-21.059
 20
105.4818
 11
-21.0428
 21
105.4968
  0
LINE
  8
LAYER_2
 10
-21.0428
 20
105.4968
 11
-21.0279
 21
105.5172
  0
LINE
  8
LAYER_2
 10
-21.0279
 20
105.5172
 11
-21.0145
 21
105.5427
  0
LINE
  8
LAYER_2
 10
-21.0145
 20
105.5427
 11
-21.0032
 21
105.5726
  0
LINE
  8
LAYER_2
 10
-21.0032
 20
105.5726
 11
-20.994
 21
105.606
  0
LINE
  8
LAYER_2
 10
-20.994
 20
105.606
 11
-20.9873
 21
105.6423
  0
LINE
  8
LAYER_2
 10
-20.9873
 20
105.6423
 11
-20.9832
 21
105.6804
  0
LINE
  8
LAYER_2
 10
-20.9832
 20
105.6804
 11
-20.9818
 21
105.7195
  0
ENDBLK
  0
BLOCK
  8
LAYER_2
  2
AIGNBL02020180
 70
64
 10
0
 20
0
 30
0
  3
AIGNBL02020180
  0
LINE
  8
LAYER_2
 10
-20.5948
 20
105.4695
 11
-20.5732
 21
105.4726
  0
LINE
  8
LAYER_2
 10
-20.5732
 20
105.4726
 11
-20.5522
 21
105.4818
  0
LINE
  8
LAYER_2
 10
-20.5522
 20
105.4818
 11
-20.5322
 21
105.4968
  0
LINE
  8
LAYER_2
 10
-20.5322
 20
105.4968
 11
-20.5138
 21
105.5172
  0
LINE
  8
LAYER_2
 10
-20.5138
 20
105.5172
 11
-20.4973
 21
105.5427
  0
LINE
  8
LAYER_2
 10
-20.4973
 20
105.5427
 11
-20.4833
 21
105.5726
  0
LINE
  8
LAYER_2
 10
-20.4833
 20
105.5726
 11
-20.472
 21
105.606
  0
LINE
  8
LAYER_2
 10
-20.472
 20
105.606
 11
-20.4637
 21
105.6423
  0
LINE
  8
LAYER_2
 10
-20.4637
 20
105.6423
 11
-20.4587
 21
105.6804
  0
LINE
  8
LAYER_2
 10
-20.4587
 20
105.6804
 11
-20.457
 21
105.7195
  0
ENDBLK
  0
BLOCK
  8
LAYER_2
  2
AIGNBL02020181
 70
64
 10
0
 20
0
 30
0
  3
AIGNBL02020181
  0
LINE
  8
LAYER_2
 10
-20.5948
 20
105.4695
 11
-20.561
 21
105.4726
  0
LINE
  8
LAYER_2
 10
-20.561
 20
105.4726
 11
-20.5279
 21
105.4818
  0
LINE
  8
LAYER_2
 10
-20.5279
 20
105.4818
 11
-20.4965
 21
105.4968
  0
LINE
  8
LAYER_2
 10
-20.4965
 20
105.4968
 11
-20.4676
 21
105.5172
  0
LINE
  8
LAYER_2
 10
-20.4676
 20
105.5172
 11
-20.4417
 21
105.5427
  0
LINE
  8
LAYER_2
 10
-20.4417
 20
105.5427
 11
-20.4197
 21
105.5726
  0
LINE
  8
LAYER_2
 10
-20.4197
 20
105.5726
 11
-20.402
 21
105.606
  0
LINE
  8
LAYER_2
 10
-20.402
 20
105.606
 11
-20.3889
 21
105.6423
  0
LINE
  8
LAYER_2
 10
-20.3889
 20
105.6423
 11
-20.381
 21
105.6804
  0
LINE
  8
LAYER_2
 10
-20.381
 20
105.6804
 11
-20.3783
 21
105.7195
  0
ENDBLK
  0
BLOCK
  8
LAYER_2
  2
AIGNBL02020182
 70
64
 10
0
 20
0
 30
0
  3
AIGNBL02020182
  0
LINE
  8
LAYER_2
 10
-18.4648
 20
105.4695
 11
-22.4648
 21
105.4695
  0
ENDBLK
  0
BLOCK
  8
LAYER_2
  2
AIGNBL02020183
 70
64
 10
0
 20
0
 30
0
  3
AIGNBL02020183
  0
LINE
  8
LAYER_2
 10
-23.9648
 20
105.4695
 11
-27.9648
 21
105.4695
  0
ENDBLK
  0
BLOCK
  8
LAYER_2
  2
AIGNBL02020184
 70
64
 10
0
 20
0
 30
0
  3
AIGNBL02020184
  0
LINE
  8
LAYER_2
 10
-25.8347
 20
105.4695
 11
-25.8686
 21
105.4726
  0
LINE
  8
LAYER_2
 10
-25.8686
 20
105.4726
 11
-25.9017
 21
105.4818
  0
LINE
  8
LAYER_2
 10
-25.9017
 20
105.4818
 11
-25.9331
 21
105.4968
  0
LINE
  8
LAYER_2
 10
-25.9331
 20
105.4968
 11
-25.962
 21
105.5172
  0
LINE
  8
LAYER_2
 10
-25.962
 20
105.5172
 11
-25.9878
 21
105.5427
  0
LINE
  8
LAYER_2
 10
-25.9878
 20
105.5427
 11
-26.0099
 21
105.5726
  0
LINE
  8
LAYER_2
 10
-26.0099
 20
105.5726
 11
-26.0276
 21
105.606
  0
LINE
  8
LAYER_2
 10
-26.0276
 20
105.606
 11
-26.0407
 21
105.6423
  0
LINE
  8
LAYER_2
 10
-26.0407
 20
105.6423
 11
-26.0486
 21
105.6804
  0
LINE
  8
LAYER_2
 10
-26.0486
 20
105.6804
 11
-26.0513
 21
105.7195
  0
ENDBLK
  0
BLOCK
  8
LAYER_2
  2
AIGNBL02020185
 70
64
 10
0
 20
0
 30
0
  3
AIGNBL02020185
  0
LINE
  8
LAYER_2
 10
-25.8347
 20
105.4695
 11
-25.8562
 21
105.4726
  0
LINE
  8
LAYER_2
 10
-25.8562
 20
105.4726
 11
-25.8773
 21
105.4818
  0
LINE
  8
LAYER_2
 10
-25.8773
 20
105.4818
 11
-25.8974
 21
105.4968
  0
LINE
  8
LAYER_2
 10
-25.8974
 20
105.4968
 11
-25.9158
 21
105.5172
  0
LINE
  8
LAYER_2
 10
-25.9158
 20
105.5172
 11
-25.9323
 21
105.5427
  0
LINE
  8
LAYER_2
 10
-25.9323
 20
105.5427
 11
-25.9463
 21
105.5726
  0
LINE
  8
LAYER_2
 10
-25.9463
 20
105.5726
 11
-25.9576
 21
105.606
  0
LINE
  8
LAYER_2
 10
-25.9576
 20
105.606
 11
-25.9659
 21
105.6423
  0
LINE
  8
LAYER_2
 10
-25.9659
 20
105.6423
 11
-25.9709
 21
105.6804
  0
LINE
  8
LAYER_2
 10
-25.9709
 20
105.6804
 11
-25.9726
 21
105.7195
  0
ENDBLK
  0
BLOCK
  8
LAYER_2
  2
AIGNBL02020186
 70
64
 10
0
 20
0
 30
0
  3
AIGNBL02020186
  0
LINE
  8
LAYER_2
 10
-25.3361
 20
105.4695
 11
-25.3536
 21
105.4726
  0
LINE
  8
LAYER_2
 10
-25.3536
 20
105.4726
 11
-25.3706
 21
105.4818
  0
LINE
  8
LAYER_2
 10
-25.3706
 20
105.4818
 11
-25.3868
 21
105.4968
  0
LINE
  8
LAYER_2
 10
-25.3868
 20
105.4968
 11
-25.4017
 21
105.5172
  0
LINE
  8
LAYER_2
 10
-25.4017
 20
105.5172
 11
-25.415
 21
105.5427
  0
LINE
  8
LAYER_2
 10
-25.415
 20
105.5427
 11
-25.4264
 21
105.5726
  0
LINE
  8
LAYER_2
 10
-25.4264
 20
105.5726
 11
-25.4356
 21
105.606
  0
LINE
  8
LAYER_2
 10
-25.4356
 20
105.606
 11
-25.4423
 21
105.6423
  0
LINE
  8
LAYER_2
 10
-25.4423
 20
105.6423
 11
-25.4463
 21
105.6804
  0
LINE
  8
LAYER_2
 10
-25.4463
 20
105.6804
 11
-25.4478
 21
105.7195
  0
ENDBLK
  0
BLOCK
  8
LAYER_2
  2
AIGNBL02020187
 70
64
 10
0
 20
0
 30
0
  3
AIGNBL02020187
  0
LINE
  8
LAYER_2
 10
-23.0995
 20
102.4045
 11
-23.1057
 21
102.4087
  0
LINE
  8
LAYER_2
 10
-23.1057
 20
102.4087
 11
-23.1141
 21
102.4127
  0
LINE
  8
LAYER_2
 10
-23.1141
 20
102.4127
 11
-23.1245
 21
102.4162
  0
LINE
  8
LAYER_2
 10
-23.1245
 20
102.4162
 11
-23.1367
 21
102.4193
  0
LINE
  8
LAYER_2
 10
-23.1367
 20
102.4193
 11
-23.1505
 21
102.4219
  0
LINE
  8
LAYER_2
 10
-23.1505
 20
102.4219
 11
-23.1655
 21
102.4241
  0
LINE
  8
LAYER_2
 10
-23.1655
 20
102.4241
 11
-23.1814
 21
102.4256
  0
LINE
  8
LAYER_2
 10
-23.1814
 20
102.4256
 11
-23.1979
 21
102.4265
  0
LINE
  8
LAYER_2
 10
-23.1979
 20
102.4265
 11
-23.2148
 21
102.4268
  0
LINE
  8
LAYER_2
 10
-23.2148
 20
102.4268
 11
-23.2316
 21
102.4265
  0
LINE
  8
LAYER_2
 10
-23.2316
 20
102.4265
 11
-23.2481
 21
102.4256
  0
LINE
  8
LAYER_2
 10
-23.2481
 20
102.4256
 11
-23.2641
 21
102.4241
  0
LINE
  8
LAYER_2
 10
-23.2641
 20
102.4241
 11
-23.2791
 21
102.4219
  0
LINE
  8
LAYER_2
 10
-23.2791
 20
102.4219
 11
-23.2928
 21
102.4194
  0
LINE
  8
LAYER_2
 10
-23.2928
 20
102.4194
 11
-23.3051
 21
102.4162
  0
LINE
  8
LAYER_2
 10
-23.3051
 20
102.4162
 11
-23.3155
 21
102.4127
  0
LINE
  8
LAYER_2
 10
-23.3155
 20
102.4127
 11
-23.324
 21
102.4087
  0
LINE
  8
LAYER_2
 10
-23.324
 20
102.4087
 11
-23.3301
 21
102.4045
  0
ENDBLK
  0
BLOCK
  8
LAYER_2
  2
AIGNBL02020188
 70
64
 10
0
 20
0
 30
0
  3
AIGNBL02020188
  0
LINE
  8
LAYER_2
 10
-20.8702
 20
107.2195
 11
-20.8876
 21
107.2164
  0
LINE
  8
LAYER_2
 10
-20.8876
 20
107.2164
 11
-20.9047
 21
107.2072
  0
LINE
  8
LAYER_2
 10
-20.9047
 20
107.2072
 11
-20.9209
 21
107.1922
  0
LINE
  8
LAYER_2
 10
-20.9209
 20
107.1922
 11
-20.9358
 21
107.1718
  0
LINE
  8
LAYER_2
 10
-20.9358
 20
107.1718
 11
-20.9491
 21
107.1463
  0
LINE
  8
LAYER_2
 10
-20.9491
 20
107.1463
 11
-20.9605
 21
107.1165
  0
LINE
  8
LAYER_2
 10
-20.9605
 20
107.1165
 11
-20.9697
 21
107.083
  0
LINE
  8
LAYER_2
 10
-20.9697
 20
107.083
 11
-20.9764
 21
107.0467
  0
LINE
  8
LAYER_2
 10
-20.9764
 20
107.0467
 11
-20.9804
 21
107.0086
  0
LINE
  8
LAYER_2
 10
-20.9804
 20
107.0086
 11
-20.9818
 21
106.9695
  0
ENDBLK
  0
BLOCK
  8
LAYER_2
  2
AIGNBL02020189
 70
64
 10
0
 20
0
 30
0
  3
AIGNBL02020189
  0
LINE
  8
LAYER_2
 10
-20.3191
 20
107.2195
 11
-20.3407
 21
107.2164
  0
LINE
  8
LAYER_2
 10
-20.3407
 20
107.2164
 11
-20.3617
 21
107.2072
  0
LINE
  8
LAYER_2
 10
-20.3617
 20
107.2072
 11
-20.3817
 21
107.1922
  0
LINE
  8
LAYER_2
 10
-20.3817
 20
107.1922
 11
-20.4001
 21
107.1718
  0
LINE
  8
LAYER_2
 10
-20.4001
 20
107.1718
 11
-20.4166
 21
107.1463
  0
LINE
  8
LAYER_2
 10
-20.4166
 20
107.1463
 11
-20.4306
 21
107.1165
  0
LINE
  8
LAYER_2
 10
-20.4306
 20
107.1165
 11
-20.4419
 21
107.083
  0
LINE
  8
LAYER_2
 10
-20.4419
 20
107.083
 11
-20.4502
 21
107.0467
  0
LINE
  8
LAYER_2
 10
-20.4502
 20
107.0467
 11
-20.4552
 21
107.0086
  0
LINE
  8
LAYER_2
 10
-20.4552
 20
107.0086
 11
-20.4569
 21
106.9695
  0
ENDBLK
  0
BLOCK
  8
LAYER_2
  2
AIGNBL0202018A
 70
64
 10
0
 20
0
 30
0
  3
AIGNBL0202018A
  0
LINE
  8
LAYER_2
 10
-20.7842
 20
107.2195
 11
-20.7692
 21
107.2216
  0
LINE
  8
LAYER_2
 10
-20.7692
 20
107.2216
 11
-20.7542
 21
107.2281
  0
LINE
  8
LAYER_2
 10
-20.7542
 20
107.2281
 11
-20.74
 21
107.2385
  0
LINE
  8
LAYER_2
 10
-20.74
 20
107.2385
 11
-20.7264
 21
107.253
  0
LINE
  8
LAYER_2
 10
-20.7264
 20
107.253
 11
-20.7138
 21
107.2712
  0
LINE
  8
LAYER_2
 10
-20.7138
 20
107.2712
 11
-20.7024
 21
107.2927
  0
LINE
  8
LAYER_2
 10
-20.7024
 20
107.2927
 11
-20.6924
 21
107.3173
  0
LINE
  8
LAYER_2
 10
-20.6924
 20
107.3173
 11
-20.684
 21
107.3445
  0
LINE
  8
LAYER_2
 10
-20.684
 20
107.3445
 11
-20.6773
 21
107.3738
  0
LINE
  8
LAYER_2
 10
-20.6773
 20
107.3738
 11
-20.6724
 21
107.4048
  0
LINE
  8
LAYER_2
 10
-20.6724
 20
107.4048
 11
-20.6695
 21
107.4369
  0
LINE
  8
LAYER_2
 10
-20.6695
 20
107.4369
 11
-20.6685
 21
107.4695
  0
ENDBLK
  0
BLOCK
  8
LAYER_2
  2
AIGNBL0202018B
 70
64
 10
0
 20
0
 30
0
  3
AIGNBL0202018B
  0
LINE
  8
LAYER_2
 10
-20.1618
 20
107.2195
 11
-20.1957
 21
107.2164
  0
LINE
  8
LAYER_2
 10
-20.1957
 20
107.2164
 11
-20.2288
 21
107.2072
  0
LINE
  8
LAYER_2
 10
-20.2288
 20
107.2072
 11
-20.2602
 21
107.1922
  0
LINE
  8
LAYER_2
 10
-20.2602
 20
107.1922
 11
-20.2891
 21
107.1718
  0
LINE
  8
LAYER_2
 10
-20.2891
 20
107.1718
 11
-20.3149
 21
107.1463
  0
LINE
  8
LAYER_2
 10
-20.3149
 20
107.1463
 11
-20.337
 21
107.1165
  0
LINE
  8
LAYER_2
 10
-20.337
 20
107.1165
 11
-20.3547
 21
107.083
  0
LINE
  8
LAYER_2
 10
-20.3547
 20
107.083
 11
-20.3678
 21
107.0467
  0
LINE
  8
LAYER_2
 10
-20.3678
 20
107.0467
 11
-20.3757
 21
107.0086
  0
LINE
  8
LAYER_2
 10
-20.3757
 20
107.0086
 11
-20.3783
 21
106.9695
  0
ENDBLK
  0
BLOCK
  8
LAYER_2
  2
AIGNBL0202018C
 70
64
 10
0
 20
0
 30
0
  3
AIGNBL0202018C
  0
LINE
  8
LAYER_2
 10
-17.9648
 20
107.2195
 11
-28.4648
 21
107.2195
  0
ENDBLK
  0
BLOCK
  8
LAYER_2
  2
AIGNBL0202018D
 70
64
 10
0
 20
0
 30
0
  3
AIGNBL0202018D
  0
LINE
  8
LAYER_2
 10
-25.0898
 20
108.4695
 11
-21.3398
 21
108.4695
  0
ENDBLK
  0
BLOCK
  8
LAYER_2
  2
AIGNBL0202018E
 70
64
 10
0
 20
0
 30
0
  3
AIGNBL0202018E
  0
LINE
  8
LAYER_2
 10
-26.2677
 20
107.2195
 11
-26.2339
 21
107.2164
  0
LINE
  8
LAYER_2
 10
-26.2339
 20
107.2164
 11
-26.2008
 21
107.2072
  0
LINE
  8
LAYER_2
 10
-26.2008
 20
107.2072
 11
-26.1694
 21
107.1922
  0
LINE
  8
LAYER_2
 10
-26.1694
 20
107.1922
 11
-26.1405
 21
107.1718
  0
LINE
  8
LAYER_2
 10
-26.1405
 20
107.1718
 11
-26.1146
 21
107.1463
  0
LINE
  8
LAYER_2
 10
-26.1146
 20
107.1463
 11
-26.0926
 21
107.1165
  0
LINE
  8
LAYER_2
 10
-26.0926
 20
107.1165
 11
-26.0749
 21
107.083
  0
LINE
  8
LAYER_2
 10
-26.0749
 20
107.083
 11
-26.0618
 21
107.0467
  0
LINE
  8
LAYER_2
 10
-26.0618
 20
107.0467
 11
-26.0539
 21
107.0086
  0
LINE
  8
LAYER_2
 10
-26.0539
 20
107.0086
 11
-26.0512
 21
106.9695
  0
ENDBLK
  0
BLOCK
  8
LAYER_2
  2
AIGNBL0202018F
 70
64
 10
0
 20
0
 30
0
  3
AIGNBL0202018F
  0
LINE
  8
LAYER_2
 10
-25.6453
 20
107.2195
 11
-25.6604
 21
107.2216
  0
LINE
  8
LAYER_2
 10
-25.6604
 20
107.2216
 11
-25.6753
 21
107.2281
  0
LINE
  8
LAYER_2
 10
-25.6753
 20
107.2281
 11
-25.6896
 21
107.2385
  0
LINE
  8
LAYER_2
 10
-25.6896
 20
107.2385
 11
-25.7032
 21
107.253
  0
LINE
  8
LAYER_2
 10
-25.7032
 20
107.253
 11
-25.7158
 21
107.2712
  0
LINE
  8
LAYER_2
 10
-25.7158
 20
107.2712
 11
-25.7272
 21
107.2927
  0
LINE
  8
LAYER_2
 10
-25.7272
 20
107.2927
 11
-25.7372
 21
107.3173
  0
LINE
  8
LAYER_2
 10
-25.7372
 20
107.3173
 11
-25.7456
 21
107.3445
  0
LINE
  8
LAYER_2
 10
-25.7456
 20
107.3445
 11
-25.7522
 21
107.3738
  0
LINE
  8
LAYER_2
 10
-25.7522
 20
107.3738
 11
-25.7572
 21
107.4048
  0
LINE
  8
LAYER_2
 10
-25.7572
 20
107.4048
 11
-25.7601
 21
107.4369
  0
LINE
  8
LAYER_2
 10
-25.7601
 20
107.4369
 11
-25.7611
 21
107.4695
  0
ENDBLK
  0
BLOCK
  8
LAYER_2
  2
AIGNBL02020190
 70
64
 10
0
 20
0
 30
0
  3
AIGNBL02020190
  0
LINE
  8
LAYER_2
 10
-26.1105
 20
107.2195
 11
-26.0889
 21
107.2164
  0
LINE
  8
LAYER_2
 10
-26.0889
 20
107.2164
 11
-26.0679
 21
107.2072
  0
LINE
  8
LAYER_2
 10
-26.0679
 20
107.2072
 11
-26.0479
 21
107.1922
  0
LINE
  8
LAYER_2
 10
-26.0479
 20
107.1922
 11
-26.0295
 21
107.1718
  0
LINE
  8
LAYER_2
 10
-26.0295
 20
107.1718
 11
-26.013
 21
107.1463
  0
LINE
  8
LAYER_2
 10
-26.013
 20
107.1463
 11
-25.999
 21
107.1165
  0
LINE
  8
LAYER_2
 10
-25.999
 20
107.1165
 11
-25.9877
 21
107.083
  0
LINE
  8
LAYER_2
 10
-25.9877
 20
107.083
 11
-25.9794
 21
107.0467
  0
LINE
  8
LAYER_2
 10
-25.9794
 20
107.0467
 11
-25.9744
 21
107.0086
  0
LINE
  8
LAYER_2
 10
-25.9744
 20
107.0086
 11
-25.9726
 21
106.9695
  0
ENDBLK
  0
BLOCK
  8
LAYER_2
  2
AIGNBL02020191
 70
64
 10
0
 20
0
 30
0
  3
AIGNBL02020191
  0
LINE
  8
LAYER_2
 10
-25.5594
 20
107.2195
 11
-25.5419
 21
107.2164
  0
LINE
  8
LAYER_2
 10
-25.5419
 20
107.2164
 11
-25.5249
 21
107.2072
  0
LINE
  8
LAYER_2
 10
-25.5249
 20
107.2072
 11
-25.5087
 21
107.1922
  0
LINE
  8
LAYER_2
 10
-25.5087
 20
107.1922
 11
-25.4938
 21
107.1718
  0
LINE
  8
LAYER_2
 10
-25.4938
 20
107.1718
 11
-25.4805
 21
107.1463
  0
LINE
  8
LAYER_2
 10
-25.4805
 20
107.1463
 11
-25.4691
 21
107.1165
  0
LINE
  8
LAYER_2
 10
-25.4691
 20
107.1165
 11
-25.4599
 21
107.083
  0
LINE
  8
LAYER_2
 10
-25.4599
 20
107.083
 11
-25.4532
 21
107.0467
  0
LINE
  8
LAYER_2
 10
-25.4532
 20
107.0467
 11
-25.4492
 21
107.0086
  0
LINE
  8
LAYER_2
 10
-25.4492
 20
107.0086
 11
-25.4477
 21
106.9695
  0
ENDBLK
  0
BLOCK
  8
LAYER_2
  2
AIGNBL02020192
 70
64
 10
0
 20
0
 30
0
  3
AIGNBL02020192
  0
LINE
  8
LAYER_2
 10
-24.6437
 20
107.2195
 11
-24.6508
 21
107.2216
  0
LINE
  8
LAYER_2
 10
-24.6508
 20
107.2216
 11
-24.6576
 21
107.2281
  0
LINE
  8
LAYER_2
 10
-24.6576
 20
107.2281
 11
-24.6643
 21
107.2385
  0
LINE
  8
LAYER_2
 10
-24.6643
 20
107.2385
 11
-24.6707
 21
107.253
  0
LINE
  8
LAYER_2
 10
-24.6707
 20
107.253
 11
-24.6765
 21
107.2712
  0
LINE
  8
LAYER_2
 10
-24.6765
 20
107.2712
 11
-24.6818
 21
107.2927
  0
LINE
  8
LAYER_2
 10
-24.6818
 20
107.2927
 11
-24.6865
 21
107.3173
  0
LINE
  8
LAYER_2
 10
-24.6865
 20
107.3173
 11
-24.6905
 21
107.3445
  0
LINE
  8
LAYER_2
 10
-24.6905
 20
107.3445
 11
-24.6935
 21
107.3738
  0
LINE
  8
LAYER_2
 10
-24.6935
 20
107.3738
 11
-24.6958
 21
107.4048
  0
LINE
  8
LAYER_2
 10
-24.6958
 20
107.4048
 11
-24.6972
 21
107.4369
  0
LINE
  8
LAYER_2
 10
-24.6972
 20
107.4369
 11
-24.6976
 21
107.4695
  0
ENDBLK
  0
BLOCK
  8
LAYER_2
  2
AIGNBL02020193
 70
64
 10
0
 20
0
 30
0
  3
AIGNBL02020193
  0
LINE
  8
LAYER_2
 10
-22.4648
 20
109.5945
 11
-23.9648
 21
109.5945
  0
ENDBLK
  0
BLOCK
  8
LAYER_2
  2
AIGNBL02020194
 70
64
 10
0
 20
0
 30
0
  3
AIGNBL02020194
  0
LINE
  8
LAYER_2
 10
-22.5898
 20
109.7195
 11
-22.4648
 21
109.5945
  0
ENDBLK
  0
BLOCK
  8
LAYER_2
  2
AIGNBL02020195
 70
64
 10
0
 20
0
 30
0
  3
AIGNBL02020195
  0
LINE
  8
LAYER_2
 10
-26.0512
 20
106.9695
 11
-26.0512
 21
105.7195
  0
ENDBLK
  0
BLOCK
  8
LAYER_2
  2
AIGNBL02020196
 70
64
 10
0
 20
0
 30
0
  3
AIGNBL02020196
  0
LINE
  8
LAYER_2
 10
-25.9726
 20
106.9695
 11
-25.9726
 21
105.7195
  0
ENDBLK
  0
BLOCK
  8
LAYER_2
  2
AIGNBL02020197
 70
64
 10
0
 20
0
 30
0
  3
AIGNBL02020197
  0
LINE
  8
LAYER_2
 10
-25.7611
 20
107.4695
 11
-25.7611
 21
108.4695
  0
ENDBLK
  0
BLOCK
  8
LAYER_2
  2
AIGNBL02020198
 70
64
 10
0
 20
0
 30
0
  3
AIGNBL02020198
  0
LINE
  8
LAYER_2
 10
-25.4478
 20
105.7195
 11
-25.4478
 21
106.9695
  0
ENDBLK
  0
BLOCK
  8
LAYER_2
  2
AIGNBL02020199
 70
64
 10
0
 20
0
 30
0
  3
AIGNBL02020199
  0
LINE
  8
LAYER_2
 10
-25.3361
 20
105.4695
 11
-25.3361
 21
107.2195
  0
ENDBLK
  0
BLOCK
  8
LAYER_2
  2
AIGNBL0202019A
 70
64
 10
0
 20
0
 30
0
  3
AIGNBL0202019A
  0
LINE
  8
LAYER_2
 10
-25.0898
 20
108.4695
 11
-25.0898
 21
107.4695
  0
ENDBLK
  0
BLOCK
  8
LAYER_2
  2
AIGNBL0202019B
 70
64
 10
0
 20
0
 30
0
  3
AIGNBL0202019B
  0
LINE
  8
LAYER_2
 10
-24.706
 20
102.8645
 11
-24.706
 21
102.9245
  0
ENDBLK
  0
BLOCK
  8
LAYER_2
  2
AIGNBL0202019C
 70
64
 10
0
 20
0
 30
0
  3
AIGNBL0202019C
  0
LINE
  8
LAYER_2
 10
-24.6976
 20
108.4695
 11
-24.6976
 21
107.4695
  0
ENDBLK
  0
BLOCK
  8
LAYER_2
  2
AIGNBL0202019D
 70
64
 10
0
 20
0
 30
0
  3
AIGNBL0202019D
  0
LINE
  8
LAYER_2
 10
-23.8398
 20
109.7195
 11
-23.8398
 21
108.4695
  0
ENDBLK
  0
BLOCK
  8
LAYER_2
  2
AIGNBL0202019E
 70
64
 10
0
 20
0
 30
0
  3
AIGNBL0202019E
  0
LINE
  8
LAYER_2
 10
-23.8398
 20
107.2195
 11
-23.8398
 21
103.4695
  0
ENDBLK
  0
BLOCK
  8
LAYER_2
  2
AIGNBL0202019F
 70
64
 10
0
 20
0
 30
0
  3
AIGNBL0202019F
  0
LINE
  8
LAYER_2
 10
-23.7689
 20
102.4213
 11
-23.7689
 21
102.392
  0
ENDBLK
  0
BLOCK
  8
LAYER_2
  2
AIGNBL020201A0
 70
64
 10
0
 20
0
 30
0
  3
AIGNBL020201A0
  0
LINE
  8
LAYER_2
 10
-22.6607
 20
102.4213
 11
-22.6607
 21
102.392
  0
ENDBLK
  0
BLOCK
  8
LAYER_2
  2
AIGNBL020201A1
 70
64
 10
0
 20
0
 30
0
  3
AIGNBL020201A1
  0
LINE
  8
LAYER_2
 10
-22.5898
 20
109.7195
 11
-22.5898
 21
108.4695
  0
ENDBLK
  0
BLOCK
  8
LAYER_2
  2
AIGNBL020201A2
 70
64
 10
0
 20
0
 30
0
  3
AIGNBL020201A2
  0
LINE
  8
LAYER_2
 10
-22.5898
 20
107.2195
 11
-22.5898
 21
103.4695
  0
ENDBLK
  0
BLOCK
  8
LAYER_2
  2
AIGNBL020201A3
 70
64
 10
0
 20
0
 30
0
  3
AIGNBL020201A3
  0
LINE
  8
LAYER_2
 10
-21.7319
 20
107.4695
 11
-21.7319
 21
108.4695
  0
ENDBLK
  0
BLOCK
  8
LAYER_2
  2
AIGNBL020201A4
 70
64
 10
0
 20
0
 30
0
  3
AIGNBL020201A4
  0
LINE
  8
LAYER_2
 10
-21.7236
 20
102.8645
 11
-21.7236
 21
102.9245
  0
ENDBLK
  0
BLOCK
  8
LAYER_2
  2
AIGNBL020201A5
 70
64
 10
0
 20
0
 30
0
  3
AIGNBL020201A5
  0
LINE
  8
LAYER_2
 10
-21.3398
 20
107.4695
 11
-21.3398
 21
108.4695
  0
ENDBLK
  0
BLOCK
  8
LAYER_2
  2
AIGNBL020201A6
 70
64
 10
0
 20
0
 30
0
  3
AIGNBL020201A6
  0
LINE
  8
LAYER_2
 10
-21.0935
 20
105.4695
 11
-21.0935
 21
107.2195
  0
ENDBLK
  0
BLOCK
  8
LAYER_2
  2
AIGNBL020201A7
 70
64
 10
0
 20
0
 30
0
  3
AIGNBL020201A7
  0
LINE
  8
LAYER_2
 10
-20.9818
 20
106.9695
 11
-20.9818
 21
105.7195
  0
ENDBLK
  0
BLOCK
  8
LAYER_2
  2
AIGNBL020201A8
 70
64
 10
0
 20
0
 30
0
  3
AIGNBL020201A8
  0
LINE
  8
LAYER_2
 10
-20.6685
 20
107.4695
 11
-20.6685
 21
108.4695
  0
ENDBLK
  0
BLOCK
  8
LAYER_2
  2
AIGNBL020201A9
 70
64
 10
0
 20
0
 30
0
  3
AIGNBL020201A9
  0
LINE
  8
LAYER_2
 10
-20.4569
 20
105.7195
 11
-20.4569
 21
106.9695
  0
ENDBLK
  0
BLOCK
  8
LAYER_2
  2
AIGNBL020201AA
 70
64
 10
0
 20
0
 30
0
  3
AIGNBL020201AA
  0
LINE
  8
LAYER_2
 10
-20.3783
 20
105.7195
 11
-20.3783
 21
106.9695
  0
ENDBLK
  0
BLOCK
  8
LAYER_2
  2
AIGNBL020201AB
 70
64
 10
0
 20
0
 30
0
  3
AIGNBL020201AB
  0
LINE
  8
LAYER_2
 10
-23.8398
 20
109.7195
 11
-23.9648
 21
109.5945
  0
ENDBLK
  0
BLOCK
  8
LAYER_2
  2
AIGNBL020201AC
 70
64
 10
0
 20
0
 30
0
  3
AIGNBL020201AC
  0
LINE
  8
LAYER_2
 10
-21.7859
 20
107.2195
 11
-21.7788
 21
107.2216
  0
LINE
  8
LAYER_2
 10
-21.7788
 20
107.2216
 11
-21.7719
 21
107.2281
  0
LINE
  8
LAYER_2
 10
-21.7719
 20
107.2281
 11
-21.7652
 21
107.2385
  0
LINE
  8
LAYER_2
 10
-21.7652
 20
107.2385
 11
-21.7589
 21
107.253
  0
LINE
  8
LAYER_2
 10
-21.7589
 20
107.253
 11
-21.7531
 21
107.2712
  0
LINE
  8
LAYER_2
 10
-21.7531
 20
107.2712
 11
-21.7478
 21
107.2927
  0
LINE
  8
LAYER_2
 10
-21.7478
 20
107.2927
 11
-21.7431
 21
107.3173
  0
LINE
  8
LAYER_2
 10
-21.7431
 20
107.3173
 11
-21.7392
 21
107.3445
  0
LINE
  8
LAYER_2
 10
-21.7392
 20
107.3445
 11
-21.736
 21
107.3738
  0
LINE
  8
LAYER_2
 10
-21.736
 20
107.3738
 11
-21.7337
 21
107.4048
  0
LINE
  8
LAYER_2
 10
-21.7337
 20
107.4048
 11
-21.7324
 21
107.4369
  0
LINE
  8
LAYER_2
 10
-21.7324
 20
107.4369
 11
-21.732
 21
107.4695
  0
ENDBLK
  0
BLOCK
  8
LAYER_2
  2
AIGNBL020201AD
 70
64
 10
0
 20
0
 30
0
  3
AIGNBL020201AD
  0
LINE
  8
LAYER_2
 10
-22.6257
 20
102.4045
 11
-22.6607
 21
102.392
  0
ENDBLK
  0
BLOCK
  8
LAYER_2
  2
AIGNBL020201AE
 70
64
 10
0
 20
0
 30
0
  3
AIGNBL020201AE
  0
ARC
  8
LAYER_2
 10
-28.4648
 20
107.4695
 40
0.25
 50
180.0041849
 51
269.9958152
  0
ENDBLK
  0
BLOCK
  8
LAYER_2
  2
AIGNBL020201AF
 70
64
 10
0
 20
0
 30
0
  3
AIGNBL020201AF
  0
ARC
  8
LAYER_2
 10
-27.9648
 20
105.7195
 40
0.25
 50
180.0042916
 51
269.9957085
  0
ENDBLK
  0
BLOCK
  8
LAYER_2
  2
AIGNBL020201B0
 70
64
 10
0
 20
0
 30
0
  3
AIGNBL020201B0
  0
ARC
  8
LAYER_2
 10
-28.4648
 20
106.9695
 40
0.25
 50
0.002187829259
 51
89.99781216
  0
ENDBLK
  0
BLOCK
  8
LAYER_2
  2
AIGNBL020201B1
 70
64
 10
0
 20
0
 30
0
  3
AIGNBL020201B1
  0
ARC
  8
LAYER_2
 10
-24.8398
 20
107.4695
 40
0.25
 50
180.0041217
 51
269.9958783
  0
ENDBLK
  0
BLOCK
  8
LAYER_2
  2
AIGNBL020201B2
 70
64
 10
0
 20
0
 30
0
  3
AIGNBL020201B2
  0
ARC
  8
LAYER_2
 10
-23.2146
 20
104.6561
 40
2.3309
 50
283.747696
 51
309.7681693
  0
ENDBLK
  0
BLOCK
  8
LAYER_2
  2
AIGNBL020201B3
 70
64
 10
0
 20
0
 30
0
  3
AIGNBL020201B3
  0
ARC
  8
LAYER_2
 10
-23.2146
 20
104.6569
 40
2.3317
 50
230.2365425
 51
256.2475922
  0
ENDBLK
  0
BLOCK
  8
LAYER_2
  2
AIGNBL020201B4
 70
64
 10
0
 20
0
 30
0
  3
AIGNBL020201B4
  0
ARC
  8
LAYER_2
 10
-17.9648
 20
107.4695
 40
0.25
 50
270.0015749
 51
359.9984251
  0
ENDBLK
  0
BLOCK
  8
LAYER_2
  2
AIGNBL020201B5
 70
64
 10
0
 20
0
 30
0
  3
AIGNBL020201B5
  0
ARC
  8
LAYER_2
 10
-18.4648
 20
105.7195
 40
0.25
 50
270.0022986
 51
359.9977014
  0
ENDBLK
  0
BLOCK
  8
LAYER_2
  2
AIGNBL020201B6
 70
64
 10
0
 20
0
 30
0
  3
AIGNBL020201B6
  0
ARC
  8
LAYER_2
 10
-17.9648
 20
106.9695
 40
0.25
 50
90.00541428
 51
179.9945857
  0
ENDBLK
  0
BLOCK
  8
LAYER_2
  2
AIGNBL020201B7
 70
64
 10
0
 20
0
 30
0
  3
AIGNBL020201B7
  0
ARC
  8
LAYER_2
 10
-21.5898
 20
107.4695
 40
0.25
 50
270.0021285
 51
359.9978715
  0
ENDBLK
  0
BLOCK
  8
LAYER_2
  2
AIGNBL020201B8
 70
64
 10
0
 20
0
 30
0
  3
AIGNBL020201B8
  0
LINE
  8
LAYER_2
 10
-22.7272
 20
102.4079
 11
-22.7133
 21
102.4111
  0
LINE
  8
LAYER_2
 10
-22.7133
 20
102.4111
 11
-22.6993
 21
102.4142
  0
LINE
  8
LAYER_2
 10
-22.6993
 20
102.4142
 11
-22.6856
 21
102.4169
  0
LINE
  8
LAYER_2
 10
-22.6856
 20
102.4169
 11
-22.6722
 21
102.4194
  0
ENDBLK
  0
BLOCK
  8
LAYER_2
  2
AIGNBL020201B9
 70
64
 10
0
 20
0
 30
0
  3
AIGNBL020201B9
  0
LINE
  8
LAYER_2
 10
-22.6722
 20
102.4194
 11
-22.6593
 21
102.4216
  0
LINE
  8
LAYER_2
 10
-22.6593
 20
102.4216
 11
-22.647
 21
102.4235
  0
LINE
  8
LAYER_2
 10
-22.647
 20
102.4235
 11
-22.6357
 21
102.4249
  0
LINE
  8
LAYER_2
 10
-22.6357
 20
102.4249
 11
-22.6254
 21
102.4259
  0
LINE
  8
LAYER_2
 10
-22.6254
 20
102.4259
 11
-22.6163
 21
102.4266
  0
LINE
  8
LAYER_2
 10
-22.6163
 20
102.4266
 11
-22.6085
 21
102.4268
  0
LINE
  8
LAYER_2
 10
-22.6085
 20
102.4268
 11
-22.6021
 21
102.4266
  0
LINE
  8
LAYER_2
 10
-22.6021
 20
102.4266
 11
-22.5974
 21
102.4259
  0
LINE
  8
LAYER_2
 10
-22.5974
 20
102.4259
 11
-22.5942
 21
102.4249
  0
LINE
  8
LAYER_2
 10
-22.5942
 20
102.4249
 11
-22.5926
 21
102.4234
  0
LINE
  8
LAYER_2
 10
-22.5926
 20
102.4234
 11
-22.5925
 21
102.4227
  0
ENDBLK
  0
BLOCK
  8
LAYER_2
  2
AIGNBL020201BA
 70
64
 10
0
 20
0
 30
0
  3
AIGNBL020201BA
  0
LINE
  8
LAYER_2
 10
-24.7148
 20
103.4695
 11
-21.7148
 21
103.4695
  0
ENDBLK
  0
BLOCK
  8
LAYER_2
  2
AIGNBL020201BB
 70
64
 10
0
 20
0
 30
0
  3
AIGNBL020201BB
  0
LINE
  8
LAYER_2
 10
-23.7701
 20
102.4216
 11
-23.7573
 21
102.4193
  0
LINE
  8
LAYER_2
 10
-23.7573
 20
102.4193
 11
-23.7439
 21
102.4169
  0
LINE
  8
LAYER_2
 10
-23.7439
 20
102.4169
 11
-23.7302
 21
102.4141
  0
LINE
  8
LAYER_2
 10
-23.7302
 20
102.4141
 11
-23.7162
 21
102.4111
  0
LINE
  8
LAYER_2
 10
-23.7162
 20
102.4111
 11
-23.7023
 21
102.4079
  0
LINE
  8
LAYER_2
 10
-23.7023
 20
102.4079
 11
-23.6886
 21
102.4044
  0
ENDBLK
  0
BLOCK
  8
LAYER_2
  2
AIGNBL020201BC
 70
64
 10
0
 20
0
 30
0
  3
AIGNBL020201BC
  0
LINE
  8
LAYER_2
 10
-23.6886
 20
102.4045
 11
-23.6666
 21
102.3991
  0
LINE
  8
LAYER_2
 10
-23.6666
 20
102.3991
 11
-23.6439
 21
102.3943
  0
LINE
  8
LAYER_2
 10
-23.6439
 20
102.3943
 11
-23.6208
 21
102.3898
  0
LINE
  8
LAYER_2
 10
-23.6208
 20
102.3898
 11
-23.5974
 21
102.3858
  0
LINE
  8
LAYER_2
 10
-23.5974
 20
102.3858
 11
-23.5741
 21
102.3824
  0
LINE
  8
LAYER_2
 10
-23.5741
 20
102.3824
 11
-23.551
 21
102.3797
  0
LINE
  8
LAYER_2
 10
-23.551
 20
102.3797
 11
-23.5287
 21
102.3776
  0
LINE
  8
LAYER_2
 10
-23.5287
 20
102.3776
 11
-23.5074
 21
102.3762
  0
LINE
  8
LAYER_2
 10
-23.5074
 20
102.3762
 11
-23.4872
 21
102.3753
  0
LINE
  8
LAYER_2
 10
-23.4872
 20
102.3753
 11
-23.4685
 21
102.375
  0
LINE
  8
LAYER_2
 10
-23.4685
 20
102.375
 11
-23.4517
 21
102.3752
  0
LINE
  8
LAYER_2
 10
-23.4517
 20
102.3752
 11
-23.4365
 21
102.3758
  0
LINE
  8
LAYER_2
 10
-23.4365
 20
102.3758
 11
-23.4227
 21
102.3768
  0
LINE
  8
LAYER_2
 10
-23.4227
 20
102.3768
 11
-23.4102
 21
102.3781
  0
LINE
  8
LAYER_2
 10
-23.4102
 20
102.3781
 11
-23.3988
 21
102.3796
  0
LINE
  8
LAYER_2
 10
-23.3988
 20
102.3796
 11
-23.3882
 21
102.3814
  0
LINE
  8
LAYER_2
 10
-23.3882
 20
102.3814
 11
-23.3785
 21
102.3834
  0
LINE
  8
LAYER_2
 10
-23.3785
 20
102.3834
 11
-23.3695
 21
102.3857
  0
LINE
  8
LAYER_2
 10
-23.3695
 20
102.3857
 11
-23.3612
 21
102.3882
  0
LINE
  8
LAYER_2
 10
-23.3612
 20
102.3882
 11
-23.3535
 21
102.391
  0
LINE
  8
LAYER_2
 10
-23.3535
 20
102.391
 11
-23.3464
 21
102.3941
  0
LINE
  8
LAYER_2
 10
-23.3464
 20
102.3941
 11
-23.3403
 21
102.3973
  0
LINE
  8
LAYER_2
 10
-23.3403
 20
102.3973
 11
-23.3348
 21
102.4008
  0
LINE
  8
LAYER_2
 10
-23.3348
 20
102.4008
 11
-23.33
 21
102.4045
  0
ENDBLK
  0
BLOCK
  8
LAYER_2
  2
AIGNBL020201BD
 70
64
 10
0
 20
0
 30
0
  3
AIGNBL020201BD
  0
LINE
  8
LAYER_2
 10
-23.8039
 20
102.4045
 11
-23.8129
 21
102.4079
  0
LINE
  8
LAYER_2
 10
-23.8129
 20
102.4079
 11
-23.8207
 21
102.4111
  0
LINE
  8
LAYER_2
 10
-23.8207
 20
102.4111
 11
-23.827
 21
102.4141
  0
LINE
  8
LAYER_2
 10
-23.827
 20
102.4141
 11
-23.8319
 21
102.4169
  0
LINE
  8
LAYER_2
 10
-23.8319
 20
102.4169
 11
-23.8351
 21
102.4194
  0
LINE
  8
LAYER_2
 10
-23.8351
 20
102.4194
 11
-23.8369
 21
102.4216
  0
LINE
  8
LAYER_2
 10
-23.8369
 20
102.4216
 11
-23.8371
 21
102.4227
  0
ENDBLK
  0
BLOCK
  8
LAYER_2
  2
AIGNBL020201BE
 70
64
 10
0
 20
0
 30
0
  3
AIGNBL020201BE
  0
LINE
  8
LAYER_2
 10
-28.7147
 20
108.4695
 11
-25.0898
 21
108.4695
  0
ENDBLK
  0
BLOCK
  8
LAYER_2
  2
AIGNBL020201BF
 70
64
 10
0
 20
0
 30
0
  3
AIGNBL020201BF
  0
LINE
  8
LAYER_2
 10
-21.3398
 20
108.4695
 11
-17.7148
 21
108.4695
  0
ENDBLK
  0
BLOCK
  8
LAYER_2
  2
AIGNBL020201C0
 70
64
 10
0
 20
0
 30
0
  3
AIGNBL020201C0
  0
LINE
  8
LAYER_2
 10
-23.0995
 20
102.4045
 11
-23.0948
 21
102.4007
  0
LINE
  8
LAYER_2
 10
-23.0948
 20
102.4007
 11
-23.0891
 21
102.3972
  0
LINE
  8
LAYER_2
 10
-23.0891
 20
102.3972
 11
-23.0828
 21
102.3939
  0
LINE
  8
LAYER_2
 10
-23.0828
 20
102.3939
 11
-23.0756
 21
102.3908
  0
LINE
  8
LAYER_2
 10
-23.0756
 20
102.3908
 11
-23.0678
 21
102.388
  0
LINE
  8
LAYER_2
 10
-23.0678
 20
102.388
 11
-23.0591
 21
102.3854
  0
LINE
  8
LAYER_2
 10
-23.0591
 20
102.3854
 11
-23.0499
 21
102.3831
  0
LINE
  8
LAYER_2
 10
-23.0499
 20
102.3831
 11
-23.0397
 21
102.3811
  0
LINE
  8
LAYER_2
 10
-23.0397
 20
102.3811
 11
-23.029
 21
102.3793
  0
LINE
  8
LAYER_2
 10
-23.029
 20
102.3793
 11
-23.0172
 21
102.3778
  0
LINE
  8
LAYER_2
 10
-23.0172
 20
102.3778
 11
-23.0047
 21
102.3766
  0
LINE
  8
LAYER_2
 10
-23.0047
 20
102.3766
 11
-22.9912
 21
102.3757
  0
LINE
  8
LAYER_2
 10
-22.9912
 20
102.3757
 11
-22.9767
 21
102.3752
  0
LINE
  8
LAYER_2
 10
-22.9767
 20
102.3752
 11
-22.9612
 21
102.375
  0
LINE
  8
LAYER_2
 10
-22.9612
 20
102.375
 11
-22.9448
 21
102.3752
  0
LINE
  8
LAYER_2
 10
-22.9448
 20
102.3752
 11
-22.9281
 21
102.3758
  0
LINE
  8
LAYER_2
 10
-22.9281
 20
102.3758
 11
-22.9117
 21
102.3768
  0
LINE
  8
LAYER_2
 10
-22.9117
 20
102.3768
 11
-22.896
 21
102.378
  0
LINE
  8
LAYER_2
 10
-22.896
 20
102.378
 11
-22.8815
 21
102.3794
  0
LINE
  8
LAYER_2
 10
-22.8815
 20
102.3794
 11
-22.8677
 21
102.3809
  0
LINE
  8
LAYER_2
 10
-22.8677
 20
102.3809
 11
-22.8547
 21
102.3826
  0
LINE
  8
LAYER_2
 10
-22.8547
 20
102.3826
 11
-22.842
 21
102.3844
  0
LINE
  8
LAYER_2
 10
-22.842
 20
102.3844
 11
-22.8294
 21
102.3862
  0
LINE
  8
LAYER_2
 10
-22.8294
 20
102.3862
 11
-22.8169
 21
102.3883
  0
LINE
  8
LAYER_2
 10
-22.8169
 20
102.3883
 11
-22.8042
 21
102.3906
  0
LINE
  8
LAYER_2
 10
-22.8042
 20
102.3906
 11
-22.7915
 21
102.393
  0
LINE
  8
LAYER_2
 10
-22.7915
 20
102.393
 11
-22.7788
 21
102.3957
  0
LINE
  8
LAYER_2
 10
-22.7788
 20
102.3957
 11
-22.766
 21
102.3985
  0
LINE
  8
LAYER_2
 10
-22.766
 20
102.3985
 11
-22.7534
 21
102.4014
  0
LINE
  8
LAYER_2
 10
-22.7534
 20
102.4014
 11
-22.7272
 21
102.4079
  0
ENDBLK
  0
BLOCK
  8
LAYER_2
  2
AIGNBL020201C1
 70
64
 10
0
 20
0
 30
0
  3
AIGNBL020201C1
  0
LINE
  8
LAYER_2
 10
-29.9648
 20
109.7195
 11
-16.4648
 21
109.7195
  0
ENDBLK
  0
BLOCK
  8
LAYER_2
  2
AIGNBL020201C2
 70
64
 10
0
 20
0
 30
0
  3
AIGNBL020201C2
  0
LINE
  8
LAYER_2
 10
-29.9648
 20
110.2195
 11
-16.4648
 21
110.2195
  0
ENDBLK
  0
BLOCK
  8
LAYER_2
  2
AIGNBL020201C3
 70
64
 10
0
 20
0
 30
0
  3
AIGNBL020201C3
  0
LINE
  8
LAYER_2
 10
-29.2148
 20
110.7195
 11
-17.2148
 21
110.7195
  0
ENDBLK
  0
BLOCK
  8
LAYER_2
  2
AIGNBL020201C4
 70
64
 10
0
 20
0
 30
0
  3
AIGNBL020201C4
  0
LINE
  8
LAYER_2
 10
-29.9648
 20
110.2195
 11
-29.9648
 21
109.7195
  0
ENDBLK
  0
BLOCK
  8
LAYER_2
  2
AIGNBL020201C5
 70
64
 10
0
 20
0
 30
0
  3
AIGNBL020201C5
  0
LINE
  8
LAYER_2
 10
-29.2148
 20
110.7195
 11
-29.2148
 21
110.2195
  0
ENDBLK
  0
BLOCK
  8
LAYER_2
  2
AIGNBL020201C6
 70
64
 10
0
 20
0
 30
0
  3
AIGNBL020201C6
  0
LINE
  8
LAYER_2
 10
-28.7148
 20
108.4695
 11
-28.7148
 21
107.4695
  0
ENDBLK
  0
BLOCK
  8
LAYER_2
  2
AIGNBL020201C7
 70
64
 10
0
 20
0
 30
0
  3
AIGNBL020201C7
  0
LINE
  8
LAYER_2
 10
-28.2148
 20
105.7195
 11
-28.2148
 21
106.9695
  0
ENDBLK
  0
BLOCK
  8
LAYER_2
  2
AIGNBL020201C8
 70
64
 10
0
 20
0
 30
0
  3
AIGNBL020201C8
  0
LINE
  8
LAYER_2
 10
-24.7148
 20
102.9245
 11
-24.7148
 21
103.4695
  0
ENDBLK
  0
BLOCK
  8
LAYER_2
  2
AIGNBL020201C9
 70
64
 10
0
 20
0
 30
0
  3
AIGNBL020201C9
  0
LINE
  8
LAYER_2
 10
-23.9648
 20
103.4695
 11
-23.9648
 21
107.2195
  0
ENDBLK
  0
BLOCK
  8
LAYER_2
  2
AIGNBL020201CA
 70
64
 10
0
 20
0
 30
0
  3
AIGNBL020201CA
  0
LINE
  8
LAYER_2
 10
-23.9648
 20
108.4695
 11
-23.9648
 21
109.5945
  0
ENDBLK
  0
BLOCK
  8
LAYER_2
  2
AIGNBL020201CB
 70
64
 10
0
 20
0
 30
0
  3
AIGNBL020201CB
  0
LINE
  8
LAYER_2
 10
-23.8039
 20
102.4045
 11
-23.8039
 21
102.4259
  0
ENDBLK
  0
BLOCK
  8
LAYER_2
  2
AIGNBL020201CC
 70
64
 10
0
 20
0
 30
0
  3
AIGNBL020201CC
  0
LINE
  8
LAYER_2
 10
-22.6257
 20
102.4045
 11
-22.6257
 21
102.4259
  0
ENDBLK
  0
BLOCK
  8
LAYER_2
  2
AIGNBL020201CD
 70
64
 10
0
 20
0
 30
0
  3
AIGNBL020201CD
  0
LINE
  8
LAYER_2
 10
-22.4648
 20
103.4695
 11
-22.4648
 21
107.2195
  0
ENDBLK
  0
BLOCK
  8
LAYER_2
  2
AIGNBL020201CE
 70
64
 10
0
 20
0
 30
0
  3
AIGNBL020201CE
  0
LINE
  8
LAYER_2
 10
-22.4648
 20
108.4695
 11
-22.4648
 21
109.5945
  0
ENDBLK
  0
BLOCK
  8
LAYER_2
  2
AIGNBL020201CF
 70
64
 10
0
 20
0
 30
0
  3
AIGNBL020201CF
  0
LINE
  8
LAYER_2
 10
-21.7148
 20
102.9245
 11
-21.7148
 21
103.4695
  0
ENDBLK
  0
BLOCK
  8
LAYER_2
  2
AIGNBL020201D0
 70
64
 10
0
 20
0
 30
0
  3
AIGNBL020201D0
  0
LINE
  8
LAYER_2
 10
-18.2148
 20
105.7195
 11
-18.2148
 21
106.9695
  0
ENDBLK
  0
BLOCK
  8
LAYER_2
  2
AIGNBL020201D1
 70
64
 10
0
 20
0
 30
0
  3
AIGNBL020201D1
  0
LINE
  8
LAYER_2
 10
-17.7148
 20
108.4695
 11
-17.7148
 21
107.4695
  0
ENDBLK
  0
BLOCK
  8
LAYER_2
  2
AIGNBL020201D2
 70
64
 10
0
 20
0
 30
0
  3
AIGNBL020201D2
  0
LINE
  8
LAYER_2
 10
-17.2148
 20
110.7195
 11
-17.2148
 21
110.2195
  0
ENDBLK
  0
BLOCK
  8
LAYER_2
  2
AIGNBL020201D3
 70
64
 10
0
 20
0
 30
0
  3
AIGNBL020201D3
  0
LINE
  8
LAYER_2
 10
-23.8371
 20
102.4226
 11
-23.8369
 21
102.4234
  0
LINE
  8
LAYER_2
 10
-23.8369
 20
102.4234
 11
-23.8353
 21
102.4249
  0
LINE
  8
LAYER_2
 10
-23.8353
 20
102.4249
 11
-23.8322
 21
102.426
  0
LINE
  8
LAYER_2
 10
-23.8322
 20
102.426
 11
-23.8273
 21
102.4266
  0
LINE
  8
LAYER_2
 10
-23.8273
 20
102.4266
 11
-23.821
 21
102.4268
  0
LINE
  8
LAYER_2
 10
-23.821
 20
102.4268
 11
-23.8131
 21
102.4266
  0
LINE
  8
LAYER_2
 10
-23.8131
 20
102.4266
 11
-23.804
 21
102.426
  0
LINE
  8
LAYER_2
 10
-23.804
 20
102.426
 11
-23.7937
 21
102.4248
  0
LINE
  8
LAYER_2
 10
-23.7937
 20
102.4248
 11
-23.7823
 21
102.4234
  0
LINE
  8
LAYER_2
 10
-23.7823
 20
102.4234
 11
-23.7702
 21
102.4216
  0
ENDBLK
  0
BLOCK
  8
LAYER_2
  2
AIGNBL020201D4
 70
64
 10
0
 20
0
 30
0
  3
AIGNBL020201D4
  0
LINE
  8
LAYER_2
 10
-16.4648
 20
110.2195
 11
-16.4648
 21
109.7195
  0
ENDBLK
  0
BLOCK
  8
LAYER_2
  2
AIGNBL020201D5
 70
64
 10
0
 20
0
 30
0
  3
AIGNBL020201D5
  0
LINE
  8
LAYER_2
 10
-22.5925
 20
102.4226
 11
-22.5927
 21
102.4216
  0
LINE
  8
LAYER_2
 10
-22.5927
 20
102.4216
 11
-22.5944
 21
102.4194
  0
LINE
  8
LAYER_2
 10
-22.5944
 20
102.4194
 11
-22.5978
 21
102.4169
  0
LINE
  8
LAYER_2
 10
-22.5978
 20
102.4169
 11
-22.6026
 21
102.4141
  0
LINE
  8
LAYER_2
 10
-22.6026
 20
102.4141
 11
-22.609
 21
102.4111
  0
LINE
  8
LAYER_2
 10
-22.609
 20
102.4111
 11
-22.6166
 21
102.4079
  0
LINE
  8
LAYER_2
 10
-22.6166
 20
102.4079
 11
-22.6256
 21
102.4045
  0
ENDBLK
  0
BLOCK
  8
LAYER_2
  2
AIGNBL020201D7
 70
64
 10
0
 20
0
 30
0
  3
AIGNBL020201D7
  0
LINE
  8
LAYER_2
 10
58.2882
 20
102.4045
 11
58.2987
 21
102.401
  0
LINE
  8
LAYER_2
 10
58.2987
 20
102.401
 11
58.3098
 21
102.3978
  0
LINE
  8
LAYER_2
 10
58.3098
 20
102.3978
 11
58.3211
 21
102.3948
  0
LINE
  8
LAYER_2
 10
58.3211
 20
102.3948
 11
58.3327
 21
102.392
  0
ENDBLK
  0
BLOCK
  8
LAYER_2
  2
AIGNBL020201D8
 70
64
 10
0
 20
0
 30
0
  3
AIGNBL020201D8
  0
LINE
  8
LAYER_2
 10
57.8499
 20
102.4126
 11
57.8138
 21
102.422
  0
ENDBLK
  0
BLOCK
  8
LAYER_2
  2
AIGNBL020201D9
 70
64
 10
0
 20
0
 30
0
  3
AIGNBL020201D9
  0
LINE
  8
LAYER_2
 10
57.8138
 20
102.422
 11
57.7952
 21
102.4268
  0
ENDBLK
  0
BLOCK
  8
LAYER_2
  2
AIGNBL020201DA
 70
64
 10
0
 20
0
 30
0
  3
AIGNBL020201DA
  0
LINE
  8
LAYER_2
 10
57.8815
 20
102.4045
 11
57.8651
 21
102.4087
  0
LINE
  8
LAYER_2
 10
57.8651
 20
102.4087
 11
57.8499
 21
102.4127
  0
ENDBLK
  0
BLOCK
  8
LAYER_2
  2
AIGNBL020201DB
 70
64
 10
0
 20
0
 30
0
  3
AIGNBL020201DB
  0
LINE
  8
LAYER_2
 10
56.9952
 20
102.8645
 11
58.3326
 21
102.8645
  0
ENDBLK
  0
BLOCK
  8
LAYER_2
  2
AIGNBL020201DC
 70
64
 10
0
 20
0
 30
0
  3
AIGNBL020201DC
  0
LINE
  8
LAYER_2
 10
58.6577
 20
102.8645
 11
59.9952
 21
102.8645
  0
ENDBLK
  0
BLOCK
  8
LAYER_2
  2
AIGNBL020201DD
 70
64
 10
0
 20
0
 30
0
  3
AIGNBL020201DD
  0
LINE
  8
LAYER_2
 10
68.4952
 20
102.8645
 11
69.8326
 21
102.8645
  0
ENDBLK
  0
BLOCK
  8
LAYER_2
  2
AIGNBL020201DE
 70
64
 10
0
 20
0
 30
0
  3
AIGNBL020201DE
  0
LINE
  8
LAYER_2
 10
70.1577
 20
102.8645
 11
71.4951
 21
102.8645
  0
ENDBLK
  0
BLOCK
  8
LAYER_2
  2
AIGNBL020201DF
 70
64
 10
0
 20
0
 30
0
  3
AIGNBL020201DF
  0
LINE
  8
LAYER_2
 10
58.3327
 20
102.9245
 11
58.6577
 21
102.9245
  0
ENDBLK
  0
BLOCK
  8
LAYER_2
  2
AIGNBL020201E0
 70
64
 10
0
 20
0
 30
0
  3
AIGNBL020201E0
  0
LINE
  8
LAYER_2
 10
69.8327
 20
102.9245
 11
70.1577
 21
102.9245
  0
ENDBLK
  0
BLOCK
  8
LAYER_2
  2
AIGNBL020201E1
 70
64
 10
0
 20
0
 30
0
  3
AIGNBL020201E1
  0
LINE
  8
LAYER_2
 10
69.3499
 20
102.4126
 11
69.3138
 21
102.422
  0
ENDBLK
  0
BLOCK
  8
LAYER_2
  2
AIGNBL020201E2
 70
64
 10
0
 20
0
 30
0
  3
AIGNBL020201E2
  0
LINE
  8
LAYER_2
 10
69.3138
 20
102.422
 11
69.2952
 21
102.4268
  0
ENDBLK
  0
BLOCK
  8
LAYER_2
  2
AIGNBL020201E3
 70
64
 10
0
 20
0
 30
0
  3
AIGNBL020201E3
  0
LINE
  8
LAYER_2
 10
69.3815
 20
102.4045
 11
69.3651
 21
102.4087
  0
LINE
  8
LAYER_2
 10
69.3651
 20
102.4087
 11
69.3499
 21
102.4127
  0
ENDBLK
  0
BLOCK
  8
LAYER_2
  2
AIGNBL020201E4
 70
64
 10
0
 20
0
 30
0
  3
AIGNBL020201E4
  0
LINE
  8
LAYER_2
 10
69.7882
 20
102.4045
 11
69.7987
 21
102.401
  0
LINE
  8
LAYER_2
 10
69.7987
 20
102.401
 11
69.8098
 21
102.3978
  0
LINE
  8
LAYER_2
 10
69.8098
 20
102.3978
 11
69.8211
 21
102.3948
  0
LINE
  8
LAYER_2
 10
69.8211
 20
102.3948
 11
69.8327
 21
102.392
  0
ENDBLK
  0
BLOCK
  8
LAYER_2
  2
AIGNBL020201E5
 70
64
 10
0
 20
0
 30
0
  3
AIGNBL020201E5
  0
LINE
  8
LAYER_2
 10
59.2452
 20
109.5945
 11
59.1202
 21
109.7195
  0
ENDBLK
  0
BLOCK
  8
LAYER_2
  2
AIGNBL020201E6
 70
64
 10
0
 20
0
 30
0
  3
AIGNBL020201E6
  0
LINE
  8
LAYER_2
 10
70.6952
 20
102.4268
 11
70.6766
 21
102.422
  0
ENDBLK
  0
BLOCK
  8
LAYER_2
  2
AIGNBL020201E7
 70
64
 10
0
 20
0
 30
0
  3
AIGNBL020201E7
  0
LINE
  8
LAYER_2
 10
70.6766
 20
102.422
 11
70.6405
 21
102.4126
  0
ENDBLK
  0
BLOCK
  8
LAYER_2
  2
AIGNBL020201E8
 70
64
 10
0
 20
0
 30
0
  3
AIGNBL020201E8
  0
LINE
  8
LAYER_2
 10
70.6405
 20
102.4126
 11
70.6252
 21
102.4088
  0
LINE
  8
LAYER_2
 10
70.6252
 20
102.4088
 11
70.6088
 21
102.4044
  0
ENDBLK
  0
BLOCK
  8
LAYER_2
  2
AIGNBL020201E9
 70
64
 10
0
 20
0
 30
0
  3
AIGNBL020201E9
  0
LINE
  8
LAYER_2
 10
70.1577
 20
102.392
 11
70.1693
 21
102.3948
  0
LINE
  8
LAYER_2
 10
70.1693
 20
102.3948
 11
70.1807
 21
102.3978
  0
LINE
  8
LAYER_2
 10
70.1807
 20
102.3978
 11
70.1916
 21
102.401
  0
LINE
  8
LAYER_2
 10
70.1916
 20
102.401
 11
70.2022
 21
102.4045
  0
ENDBLK
  0
BLOCK
  8
LAYER_2
  2
AIGNBL020201EA
 70
64
 10
0
 20
0
 30
0
  3
AIGNBL020201EA
  0
LINE
  8
LAYER_2
 10
59.9952
 20
105.4695
 11
68.4952
 21
105.4695
  0
ENDBLK
  0
BLOCK
  8
LAYER_2
  2
AIGNBL020201EB
 70
64
 10
0
 20
0
 30
0
  3
AIGNBL020201EB
  0
LINE
  8
LAYER_2
 10
57.3702
 20
107.4695
 11
57.3702
 21
108.4695
  0
ENDBLK
  0
BLOCK
  8
LAYER_2
  2
AIGNBL020201EC
 70
64
 10
0
 20
0
 30
0
  3
AIGNBL020201EC
  0
LINE
  8
LAYER_2
 10
57.7452
 20
107.2195
 11
57.7452
 21
103.4695
  0
ENDBLK
  0
BLOCK
  8
LAYER_2
  2
AIGNBL020201ED
 70
64
 10
0
 20
0
 30
0
  3
AIGNBL020201ED
  0
LINE
  8
LAYER_2
 10
57.8702
 20
107.2195
 11
57.8702
 21
103.4695
  0
ENDBLK
  0
BLOCK
  8
LAYER_2
  2
AIGNBL020201EE
 70
64
 10
0
 20
0
 30
0
  3
AIGNBL020201EE
  0
LINE
  8
LAYER_2
 10
58.3327
 20
102.392
 11
58.3327
 21
102.9245
  0
ENDBLK
  0
BLOCK
  8
LAYER_2
  2
AIGNBL020201EF
 70
64
 10
0
 20
0
 30
0
  3
AIGNBL020201EF
  0
LINE
  8
LAYER_2
 10
58.6577
 20
102.392
 11
58.6577
 21
102.9245
  0
ENDBLK
  0
BLOCK
  8
LAYER_2
  2
AIGNBL020201F0
 70
64
 10
0
 20
0
 30
0
  3
AIGNBL020201F0
  0
LINE
  8
LAYER_2
 10
59.1202
 20
107.2195
 11
59.1202
 21
103.4695
  0
ENDBLK
  0
BLOCK
  8
LAYER_2
  2
AIGNBL020201F1
 70
64
 10
0
 20
0
 30
0
  3
AIGNBL020201F1
  0
LINE
  8
LAYER_2
 10
59.2452
 20
107.2195
 11
59.2452
 21
103.4695
  0
ENDBLK
  0
BLOCK
  8
LAYER_2
  2
AIGNBL020201F2
 70
64
 10
0
 20
0
 30
0
  3
AIGNBL020201F2
  0
LINE
  8
LAYER_2
 10
59.7452
 20
106.9695
 11
59.7452
 21
105.7195
  0
ENDBLK
  0
BLOCK
  8
LAYER_2
  2
AIGNBL020201F3
 70
64
 10
0
 20
0
 30
0
  3
AIGNBL020201F3
  0
LINE
  8
LAYER_2
 10
59.1952
 20
102.4268
 11
59.1766
 21
102.422
  0
ENDBLK
  0
BLOCK
  8
LAYER_2
  2
AIGNBL020201F4
 70
64
 10
0
 20
0
 30
0
  3
AIGNBL020201F4
  0
LINE
  8
LAYER_2
 10
59.1766
 20
102.422
 11
59.1405
 21
102.4126
  0
ENDBLK
  0
BLOCK
  8
LAYER_2
  2
AIGNBL020201F5
 70
64
 10
0
 20
0
 30
0
  3
AIGNBL020201F5
  0
LINE
  8
LAYER_2
 10
59.1405
 20
102.4126
 11
59.1252
 21
102.4088
  0
LINE
  8
LAYER_2
 10
59.1252
 20
102.4088
 11
59.1088
 21
102.4044
  0
ENDBLK
  0
BLOCK
  8
LAYER_2
  2
AIGNBL020201F6
 70
64
 10
0
 20
0
 30
0
  3
AIGNBL020201F6
  0
LINE
  8
LAYER_2
 10
58.6577
 20
102.392
 11
58.6693
 21
102.3948
  0
LINE
  8
LAYER_2
 10
58.6693
 20
102.3948
 11
58.6807
 21
102.3978
  0
LINE
  8
LAYER_2
 10
58.6807
 20
102.3978
 11
58.6916
 21
102.401
  0
LINE
  8
LAYER_2
 10
58.6916
 20
102.401
 11
58.7022
 21
102.4045
  0
ENDBLK
  0
BLOCK
  8
LAYER_2
  2
AIGNBL020201F7
 70
64
 10
0
 20
0
 30
0
  3
AIGNBL020201F7
  0
LINE
  8
LAYER_2
 10
70.8702
 20
107.2195
 11
70.7452
 21
107.2195
  0
ENDBLK
  0
BLOCK
  8
LAYER_2
  2
AIGNBL020201F8
 70
64
 10
0
 20
0
 30
0
  3
AIGNBL020201F8
  0
LINE
  8
LAYER_2
 10
69.2452
 20
107.2195
 11
68.9951
 21
107.2195
  0
ENDBLK
  0
BLOCK
  8
LAYER_2
  2
AIGNBL020201F9
 70
64
 10
0
 20
0
 30
0
  3
AIGNBL020201F9
  0
LINE
  8
LAYER_2
 10
70.8077
 20
107.2195
 11
57.6202
 21
107.2195
  0
ENDBLK
  0
BLOCK
  8
LAYER_2
  2
AIGNBL020201FA
 70
64
 10
0
 20
0
 30
0
  3
AIGNBL020201FA
  0
LINE
  8
LAYER_2
 10
57.7452
 20
107.2195
 11
57.6202
 21
107.2195
  0
ENDBLK
  0
BLOCK
  8
LAYER_2
  2
AIGNBL020201FB
 70
64
 10
0
 20
0
 30
0
  3
AIGNBL020201FB
  0
LINE
  8
LAYER_2
 10
60.1202
 20
108.4695
 11
57.5577
 21
108.4695
  0
ENDBLK
  0
BLOCK
  8
LAYER_2
  2
AIGNBL020201FC
 70
64
 10
0
 20
0
 30
0
  3
AIGNBL020201FC
  0
LINE
  8
LAYER_2
 10
57.7452
 20
108.4695
 11
57.3702
 21
108.4695
  0
ENDBLK
  0
BLOCK
  8
LAYER_2
  2
AIGNBL020201FD
 70
64
 10
0
 20
0
 30
0
  3
AIGNBL020201FD
  0
LINE
  8
LAYER_2
 10
60.1202
 20
108.4695
 11
70.7451
 21
108.4695
  0
ENDBLK
  0
BLOCK
  8
LAYER_2
  2
AIGNBL020201FE
 70
64
 10
0
 20
0
 30
0
  3
AIGNBL020201FE
  0
LINE
  8
LAYER_2
 10
70.7452
 20
108.4695
 11
71.1202
 21
108.4695
  0
ENDBLK
  0
BLOCK
  8
LAYER_2
  2
AIGNBL020201FF
 70
64
 10
0
 20
0
 30
0
  3
AIGNBL020201FF
  0
LINE
  8
LAYER_2
 10
70.7452
 20
109.5945
 11
69.2452
 21
109.5945
  0
ENDBLK
  0
BLOCK
  8
LAYER_2
  2
AIGNBL02020200
 70
64
 10
0
 20
0
 30
0
  3
AIGNBL02020200
  0
LINE
  8
LAYER_2
 10
59.2452
 20
109.5945
 11
57.7452
 21
109.5945
  0
ENDBLK
  0
BLOCK
  8
LAYER_2
  2
AIGNBL02020201
 70
64
 10
0
 20
0
 30
0
  3
AIGNBL02020201
  0
LINE
  8
LAYER_2
 10
70.7452
 20
109.5945
 11
70.6202
 21
109.7195
  0
ENDBLK
  0
BLOCK
  8
LAYER_2
  2
AIGNBL02020202
 70
64
 10
0
 20
0
 30
0
  3
AIGNBL02020202
  0
LINE
  8
LAYER_2
 10
68.7452
 20
106.9695
 11
68.7452
 21
105.7195
  0
ENDBLK
  0
BLOCK
  8
LAYER_2
  2
AIGNBL02020203
 70
64
 10
0
 20
0
 30
0
  3
AIGNBL02020203
  0
LINE
  8
LAYER_2
 10
69.2452
 20
107.2195
 11
69.2452
 21
103.4695
  0
ENDBLK
  0
BLOCK
  8
LAYER_2
  2
AIGNBL02020204
 70
64
 10
0
 20
0
 30
0
  3
AIGNBL02020204
  0
LINE
  8
LAYER_2
 10
69.3702
 20
107.2195
 11
69.3702
 21
103.4695
  0
ENDBLK
  0
BLOCK
  8
LAYER_2
  2
AIGNBL02020205
 70
64
 10
0
 20
0
 30
0
  3
AIGNBL02020205
  0
LINE
  8
LAYER_2
 10
69.8327
 20
102.392
 11
69.8327
 21
102.9245
  0
ENDBLK
  0
BLOCK
  8
LAYER_2
  2
AIGNBL02020206
 70
64
 10
0
 20
0
 30
0
  3
AIGNBL02020206
  0
LINE
  8
LAYER_2
 10
70.1577
 20
102.392
 11
70.1577
 21
102.9245
  0
ENDBLK
  0
BLOCK
  8
LAYER_2
  2
AIGNBL02020207
 70
64
 10
0
 20
0
 30
0
  3
AIGNBL02020207
  0
LINE
  8
LAYER_2
 10
70.6202
 20
107.2195
 11
70.6202
 21
103.4695
  0
ENDBLK
  0
BLOCK
  8
LAYER_2
  2
AIGNBL02020208
 70
64
 10
0
 20
0
 30
0
  3
AIGNBL02020208
  0
LINE
  8
LAYER_2
 10
70.7452
 20
107.2195
 11
70.7452
 21
103.4695
  0
ENDBLK
  0
BLOCK
  8
LAYER_2
  2
AIGNBL02020209
 70
64
 10
0
 20
0
 30
0
  3
AIGNBL02020209
  0
LINE
  8
LAYER_2
 10
71.1202
 20
107.4695
 11
71.1202
 21
108.4695
  0
ENDBLK
  0
BLOCK
  8
LAYER_2
  2
AIGNBL0202020A
 70
64
 10
0
 20
0
 30
0
  3
AIGNBL0202020A
  0
LINE
  8
LAYER_2
 10
57.7452
 20
109.5945
 11
57.8701
 21
109.7195
  0
ENDBLK
  0
BLOCK
  8
LAYER_2
  2
AIGNBL0202020B
 70
64
 10
0
 20
0
 30
0
  3
AIGNBL0202020B
  0
LINE
  8
LAYER_2
 10
69.2452
 20
109.5945
 11
69.3702
 21
109.7195
  0
ENDBLK
  0
BLOCK
  8
LAYER_2
  2
AIGNBL0202020C
 70
64
 10
0
 20
0
 30
0
  3
AIGNBL0202020C
  0
ARC
  8
LAYER_2
 10
57.6202
 20
107.4695
 40
0.25
 50
179.9999066
 51
270.0000934
  0
ENDBLK
  0
BLOCK
  8
LAYER_2
  2
AIGNBL0202020D
 70
64
 10
0
 20
0
 30
0
  3
AIGNBL0202020D
  0
ARC
  8
LAYER_2
 10
59.4952
 20
106.9695
 40
0.25
 50
0.005390087806
 51
90.01752363
  0
ENDBLK
  0
BLOCK
  8
LAYER_2
  2
AIGNBL0202020E
 70
64
 10
0
 20
0
 30
0
  3
AIGNBL0202020E
  0
ARC
  8
LAYER_2
 10
59.9952
 20
105.7195
 40
0.25
 50
180.0010869
 51
269.9989131
  0
ENDBLK
  0
BLOCK
  8
LAYER_2
  2
AIGNBL0202020F
 70
64
 10
0
 20
0
 30
0
  3
AIGNBL0202020F
  0
ARC
  8
LAYER_2
 10
68.9952
 20
106.9694
 40
0.2501
 50
89.98972755
 51
179.9873587
  0
ENDBLK
  0
BLOCK
  8
LAYER_2
  2
AIGNBL02020210
 70
64
 10
0
 20
0
 30
0
  3
AIGNBL02020210
  0
ARC
  8
LAYER_2
 10
70.8702
 20
107.4695
 40
0.25
 50
270.005347
 51
359.994653
  0
ENDBLK
  0
BLOCK
  8
LAYER_2
  2
AIGNBL02020211
 70
64
 10
0
 20
0
 30
0
  3
AIGNBL02020211
  0
ARC
  8
LAYER_2
 10
68.4952
 20
105.7195
 40
0.25
 50
270.006527
 51
359.993473
  0
ENDBLK
  0
BLOCK
  8
LAYER_2
  2
AIGNBL02020212
 70
64
 10
0
 20
0
 30
0
  3
AIGNBL02020212
  0
LINE
  8
LAYER_2
 10
58.8928
 20
102.4216
 11
58.8983
 21
102.4193
  0
LINE
  8
LAYER_2
 10
58.8983
 20
102.4193
 11
58.9022
 21
102.4169
  0
LINE
  8
LAYER_2
 10
58.9022
 20
102.4169
 11
58.9045
 21
102.4141
  0
LINE
  8
LAYER_2
 10
58.9045
 20
102.4141
 11
58.9053
 21
102.4112
  0
ENDBLK
  0
BLOCK
  8
LAYER_2
  2
AIGNBL02020213
 70
64
 10
0
 20
0
 30
0
  3
AIGNBL02020213
  0
LINE
  8
LAYER_2
 10
58.0885
 20
102.4045
 11
58.086
 21
102.4079
  0
LINE
  8
LAYER_2
 10
58.086
 20
102.4079
 11
58.0851
 21
102.4113
  0
ENDBLK
  0
BLOCK
  8
LAYER_2
  2
AIGNBL02020214
 70
64
 10
0
 20
0
 30
0
  3
AIGNBL02020214
  0
LINE
  8
LAYER_2
 10
57.8815
 20
102.4045
 11
57.8964
 21
102.4007
  0
LINE
  8
LAYER_2
 10
57.8964
 20
102.4007
 11
57.911
 21
102.3972
  0
LINE
  8
LAYER_2
 10
57.911
 20
102.3972
 11
57.9254
 21
102.3939
  0
LINE
  8
LAYER_2
 10
57.9254
 20
102.3939
 11
57.9395
 21
102.3908
  0
LINE
  8
LAYER_2
 10
57.9395
 20
102.3908
 11
57.9532
 21
102.388
  0
LINE
  8
LAYER_2
 10
57.9532
 20
102.388
 11
57.9665
 21
102.3854
  0
LINE
  8
LAYER_2
 10
57.9665
 20
102.3854
 11
57.9794
 21
102.3831
  0
LINE
  8
LAYER_2
 10
57.9794
 20
102.3831
 11
57.9918
 21
102.3811
  0
LINE
  8
LAYER_2
 10
57.9918
 20
102.3811
 11
58.0038
 21
102.3793
  0
LINE
  8
LAYER_2
 10
58.0038
 20
102.3793
 11
58.0154
 21
102.3778
  0
LINE
  8
LAYER_2
 10
58.0154
 20
102.3778
 11
58.0266
 21
102.3766
  0
LINE
  8
LAYER_2
 10
58.0266
 20
102.3766
 11
58.0372
 21
102.3757
  0
LINE
  8
LAYER_2
 10
58.0372
 20
102.3757
 11
58.0475
 21
102.3752
  0
LINE
  8
LAYER_2
 10
58.0475
 20
102.3752
 11
58.057
 21
102.375
  0
LINE
  8
LAYER_2
 10
58.057
 20
102.375
 11
58.0658
 21
102.3752
  0
LINE
  8
LAYER_2
 10
58.0658
 20
102.3752
 11
58.0735
 21
102.3758
  0
LINE
  8
LAYER_2
 10
58.0735
 20
102.3758
 11
58.0798
 21
102.3768
  0
LINE
  8
LAYER_2
 10
58.0798
 20
102.3768
 11
58.0849
 21
102.378
  0
LINE
  8
LAYER_2
 10
58.0849
 20
102.378
 11
58.0887
 21
102.3794
  0
LINE
  8
LAYER_2
 10
58.0887
 20
102.3794
 11
58.0916
 21
102.3809
  0
LINE
  8
LAYER_2
 10
58.0916
 20
102.3809
 11
58.0938
 21
102.3826
  0
LINE
  8
LAYER_2
 10
58.0938
 20
102.3826
 11
58.0954
 21
102.3844
  0
LINE
  8
LAYER_2
 10
58.0954
 20
102.3844
 11
58.0964
 21
102.3862
  0
LINE
  8
LAYER_2
 10
58.0964
 20
102.3862
 11
58.0969
 21
102.3883
  0
LINE
  8
LAYER_2
 10
58.0969
 20
102.3883
 11
58.0969
 21
102.3892
  0
ENDBLK
  0
BLOCK
  8
LAYER_2
  2
AIGNBL02020215
 70
64
 10
0
 20
0
 30
0
  3
AIGNBL02020215
  0
LINE
  8
LAYER_2
 10
69.3815
 20
102.4045
 11
69.3964
 21
102.4007
  0
LINE
  8
LAYER_2
 10
69.3964
 20
102.4007
 11
69.411
 21
102.3972
  0
LINE
  8
LAYER_2
 10
69.411
 20
102.3972
 11
69.4254
 21
102.3939
  0
LINE
  8
LAYER_2
 10
69.4254
 20
102.3939
 11
69.4395
 21
102.3908
  0
LINE
  8
LAYER_2
 10
69.4395
 20
102.3908
 11
69.4532
 21
102.388
  0
LINE
  8
LAYER_2
 10
69.4532
 20
102.388
 11
69.4665
 21
102.3854
  0
LINE
  8
LAYER_2
 10
69.4665
 20
102.3854
 11
69.4794
 21
102.3831
  0
LINE
  8
LAYER_2
 10
69.4794
 20
102.3831
 11
69.4918
 21
102.3811
  0
LINE
  8
LAYER_2
 10
69.4918
 20
102.3811
 11
69.5038
 21
102.3793
  0
LINE
  8
LAYER_2
 10
69.5038
 20
102.3793
 11
69.5154
 21
102.3778
  0
LINE
  8
LAYER_2
 10
69.5154
 20
102.3778
 11
69.5265
 21
102.3766
  0
LINE
  8
LAYER_2
 10
69.5265
 20
102.3766
 11
69.5372
 21
102.3757
  0
LINE
  8
LAYER_2
 10
69.5372
 20
102.3757
 11
69.5474
 21
102.3752
  0
LINE
  8
LAYER_2
 10
69.5474
 20
102.3752
 11
69.557
 21
102.375
  0
LINE
  8
LAYER_2
 10
69.557
 20
102.375
 11
69.5658
 21
102.3752
  0
LINE
  8
LAYER_2
 10
69.5658
 20
102.3752
 11
69.5735
 21
102.3758
  0
LINE
  8
LAYER_2
 10
69.5735
 20
102.3758
 11
69.5798
 21
102.3768
  0
LINE
  8
LAYER_2
 10
69.5798
 20
102.3768
 11
69.5848
 21
102.378
  0
LINE
  8
LAYER_2
 10
69.5848
 20
102.378
 11
69.5887
 21
102.3794
  0
LINE
  8
LAYER_2
 10
69.5887
 20
102.3794
 11
69.5916
 21
102.3809
  0
LINE
  8
LAYER_2
 10
69.5916
 20
102.3809
 11
69.5938
 21
102.3826
  0
LINE
  8
LAYER_2
 10
69.5938
 20
102.3826
 11
69.5954
 21
102.3844
  0
LINE
  8
LAYER_2
 10
69.5954
 20
102.3844
 11
69.5964
 21
102.3862
  0
LINE
  8
LAYER_2
 10
69.5964
 20
102.3862
 11
69.5969
 21
102.3883
  0
LINE
  8
LAYER_2
 10
69.5969
 20
102.3883
 11
69.5969
 21
102.3892
  0
ENDBLK
  0
BLOCK
  8
LAYER_2
  2
AIGNBL02020216
 70
64
 10
0
 20
0
 30
0
  3
AIGNBL02020216
  0
LINE
  8
LAYER_2
 10
70.3928
 20
102.4216
 11
70.3983
 21
102.4193
  0
LINE
  8
LAYER_2
 10
70.3983
 20
102.4193
 11
70.4022
 21
102.4169
  0
LINE
  8
LAYER_2
 10
70.4022
 20
102.4169
 11
70.4045
 21
102.4141
  0
LINE
  8
LAYER_2
 10
70.4045
 20
102.4141
 11
70.4053
 21
102.4112
  0
ENDBLK
  0
BLOCK
  8
LAYER_2
  2
AIGNBL02020217
 70
64
 10
0
 20
0
 30
0
  3
AIGNBL02020217
  0
LINE
  8
LAYER_2
 10
58.8934
 20
102.3893
 11
58.8941
 21
102.3858
  0
LINE
  8
LAYER_2
 10
58.8941
 20
102.3858
 11
58.8966
 21
102.3825
  0
LINE
  8
LAYER_2
 10
58.8966
 20
102.3825
 11
58.9009
 21
102.3797
  0
LINE
  8
LAYER_2
 10
58.9009
 20
102.3797
 11
58.907
 21
102.3776
  0
LINE
  8
LAYER_2
 10
58.907
 20
102.3776
 11
58.9145
 21
102.3761
  0
LINE
  8
LAYER_2
 10
58.9145
 20
102.3761
 11
58.9234
 21
102.3753
  0
LINE
  8
LAYER_2
 10
58.9234
 20
102.3753
 11
58.9333
 21
102.375
  0
LINE
  8
LAYER_2
 10
58.9333
 20
102.375
 11
58.9437
 21
102.3752
  0
LINE
  8
LAYER_2
 10
58.9437
 20
102.3752
 11
58.9544
 21
102.3759
  0
LINE
  8
LAYER_2
 10
58.9544
 20
102.3759
 11
58.9656
 21
102.3768
  0
LINE
  8
LAYER_2
 10
58.9656
 20
102.3768
 11
58.9769
 21
102.3781
  0
LINE
  8
LAYER_2
 10
58.9769
 20
102.3781
 11
58.9885
 21
102.3796
  0
LINE
  8
LAYER_2
 10
58.9885
 20
102.3796
 11
59.0004
 21
102.3814
  0
LINE
  8
LAYER_2
 10
59.0004
 20
102.3814
 11
59.0126
 21
102.3834
  0
LINE
  8
LAYER_2
 10
59.0126
 20
102.3834
 11
59.0252
 21
102.3856
  0
LINE
  8
LAYER_2
 10
59.0252
 20
102.3856
 11
59.0382
 21
102.3882
  0
LINE
  8
LAYER_2
 10
59.0382
 20
102.3882
 11
59.0517
 21
102.391
  0
LINE
  8
LAYER_2
 10
59.0517
 20
102.391
 11
59.0657
 21
102.394
  0
LINE
  8
LAYER_2
 10
59.0657
 20
102.394
 11
59.0799
 21
102.3973
  0
LINE
  8
LAYER_2
 10
59.0799
 20
102.3973
 11
59.0941
 21
102.4007
  0
ENDBLK
  0
BLOCK
  8
LAYER_2
  2
AIGNBL02020218
 70
64
 10
0
 20
0
 30
0
  3
AIGNBL02020218
  0
LINE
  8
LAYER_2
 10
58.097
 20
102.3892
 11
58.0969
 21
102.3906
  0
LINE
  8
LAYER_2
 10
58.0969
 20
102.3906
 11
58.0962
 21
102.393
  0
LINE
  8
LAYER_2
 10
58.0962
 20
102.393
 11
58.0951
 21
102.3957
  0
LINE
  8
LAYER_2
 10
58.0951
 20
102.3957
 11
58.0934
 21
102.3985
  0
LINE
  8
LAYER_2
 10
58.0934
 20
102.3985
 11
58.0912
 21
102.4014
  0
LINE
  8
LAYER_2
 10
58.0912
 20
102.4014
 11
58.0885
 21
102.4045
  0
ENDBLK
  0
BLOCK
  8
LAYER_2
  2
AIGNBL02020219
 70
64
 10
0
 20
0
 30
0
  3
AIGNBL02020219
  0
LINE
  8
LAYER_2
 10
56.9952
 20
103.4695
 11
56.9952
 21
102.8645
  0
ENDBLK
  0
BLOCK
  8
LAYER_2
  2
AIGNBL0202021A
 70
64
 10
0
 20
0
 30
0
  3
AIGNBL0202021A
  0
LINE
  8
LAYER_2
 10
70.5941
 20
102.4008
 11
70.6089
 21
102.4045
  0
ENDBLK
  0
BLOCK
  8
LAYER_2
  2
AIGNBL0202021B
 70
64
 10
0
 20
0
 30
0
  3
AIGNBL0202021B
  0
LINE
  8
LAYER_2
 10
56.9952
 20
103.4695
 11
59.9952
 21
103.4695
  0
ENDBLK
  0
BLOCK
  8
LAYER_2
  2
AIGNBL0202021C
 70
64
 10
0
 20
0
 30
0
  3
AIGNBL0202021C
  0
LINE
  8
LAYER_2
 10
68.4952
 20
103.4695
 11
71.4952
 21
103.4695
  0
ENDBLK
  0
BLOCK
  8
LAYER_2
  2
AIGNBL0202021D
 70
64
 10
0
 20
0
 30
0
  3
AIGNBL0202021D
  0
LINE
  8
LAYER_2
 10
69.5885
 20
102.4045
 11
69.586
 21
102.4079
  0
LINE
  8
LAYER_2
 10
69.586
 20
102.4079
 11
69.5851
 21
102.4113
  0
ENDBLK
  0
BLOCK
  8
LAYER_2
  2
AIGNBL0202021E
 70
64
 10
0
 20
0
 30
0
  3
AIGNBL0202021E
  0
LINE
  8
LAYER_2
 10
58.0885
 20
102.4045
 11
58.0885
 21
102.4171
  0
ENDBLK
  0
BLOCK
  8
LAYER_2
  2
AIGNBL0202021F
 70
64
 10
0
 20
0
 30
0
  3
AIGNBL0202021F
  0
LINE
  8
LAYER_2
 10
58.097
 20
102.4213
 11
58.097
 21
102.3892
  0
ENDBLK
  0
BLOCK
  8
LAYER_2
  2
AIGNBL02020220
 70
64
 10
0
 20
0
 30
0
  3
AIGNBL02020220
  0
LINE
  8
LAYER_2
 10
58.8934
 20
102.4213
 11
58.8934
 21
102.3892
  0
ENDBLK
  0
BLOCK
  8
LAYER_2
  2
AIGNBL02020221
 70
64
 10
0
 20
0
 30
0
  3
AIGNBL02020221
  0
LINE
  8
LAYER_2
 10
58.9019
 20
102.4045
 11
58.9019
 21
102.4171
  0
ENDBLK
  0
BLOCK
  8
LAYER_2
  2
AIGNBL02020222
 70
64
 10
0
 20
0
 30
0
  3
AIGNBL02020222
  0
LINE
  8
LAYER_2
 10
59.0941
 20
102.4008
 11
59.1089
 21
102.4045
  0
ENDBLK
  0
BLOCK
  8
LAYER_2
  2
AIGNBL02020223
 70
64
 10
0
 20
0
 30
0
  3
AIGNBL02020223
  0
LINE
  8
LAYER_2
 10
59.9952
 20
103.4695
 11
59.9952
 21
102.8645
  0
ENDBLK
  0
BLOCK
  8
LAYER_2
  2
AIGNBL02020224
 70
64
 10
0
 20
0
 30
0
  3
AIGNBL02020224
  0
LINE
  8
LAYER_2
 10
58.0851
 20
102.4112
 11
58.0858
 21
102.4142
  0
LINE
  8
LAYER_2
 10
58.0858
 20
102.4142
 11
58.0882
 21
102.4169
  0
LINE
  8
LAYER_2
 10
58.0882
 20
102.4169
 11
58.0922
 21
102.4194
  0
ENDBLK
  0
BLOCK
  8
LAYER_2
  2
AIGNBL02020225
 70
64
 10
0
 20
0
 30
0
  3
AIGNBL02020225
  0
LINE
  8
LAYER_2
 10
58.9053
 20
102.4112
 11
58.9044
 21
102.4079
  0
LINE
  8
LAYER_2
 10
58.9044
 20
102.4079
 11
58.9019
 21
102.4045
  0
ENDBLK
  0
BLOCK
  8
LAYER_2
  2
AIGNBL02020226
 70
64
 10
0
 20
0
 30
0
  3
AIGNBL02020226
  0
LINE
  8
LAYER_2
 10
70.3934
 20
102.3893
 11
70.3941
 21
102.3858
  0
LINE
  8
LAYER_2
 10
70.3941
 20
102.3858
 11
70.3967
 21
102.3825
  0
LINE
  8
LAYER_2
 10
70.3967
 20
102.3825
 11
70.4009
 21
102.3797
  0
LINE
  8
LAYER_2
 10
70.4009
 20
102.3797
 11
70.407
 21
102.3776
  0
LINE
  8
LAYER_2
 10
70.407
 20
102.3776
 11
70.4145
 21
102.3761
  0
LINE
  8
LAYER_2
 10
70.4145
 20
102.3761
 11
70.4234
 21
102.3753
  0
LINE
  8
LAYER_2
 10
70.4234
 20
102.3753
 11
70.4333
 21
102.375
  0
LINE
  8
LAYER_2
 10
70.4333
 20
102.375
 11
70.4437
 21
102.3752
  0
LINE
  8
LAYER_2
 10
70.4437
 20
102.3752
 11
70.4544
 21
102.3759
  0
LINE
  8
LAYER_2
 10
70.4544
 20
102.3759
 11
70.4656
 21
102.3768
  0
LINE
  8
LAYER_2
 10
70.4656
 20
102.3768
 11
70.4769
 21
102.3781
  0
LINE
  8
LAYER_2
 10
70.4769
 20
102.3781
 11
70.4885
 21
102.3796
  0
LINE
  8
LAYER_2
 10
70.4885
 20
102.3796
 11
70.5004
 21
102.3814
  0
LINE
  8
LAYER_2
 10
70.5004
 20
102.3814
 11
70.5126
 21
102.3834
  0
LINE
  8
LAYER_2
 10
70.5126
 20
102.3834
 11
70.5252
 21
102.3856
  0
LINE
  8
LAYER_2
 10
70.5252
 20
102.3856
 11
70.5382
 21
102.3882
  0
LINE
  8
LAYER_2
 10
70.5382
 20
102.3882
 11
70.5517
 21
102.391
  0
LINE
  8
LAYER_2
 10
70.5517
 20
102.391
 11
70.5656
 21
102.394
  0
LINE
  8
LAYER_2
 10
70.5656
 20
102.394
 11
70.5798
 21
102.3973
  0
LINE
  8
LAYER_2
 10
70.5798
 20
102.3973
 11
70.5941
 21
102.4007
  0
ENDBLK
  0
BLOCK
  8
LAYER_2
  2
AIGNBL02020227
 70
64
 10
0
 20
0
 30
0
  3
AIGNBL02020227
  0
LINE
  8
LAYER_2
 10
69.5969
 20
102.3892
 11
69.5969
 21
102.3906
  0
LINE
  8
LAYER_2
 10
69.5969
 20
102.3906
 11
69.5962
 21
102.393
  0
LINE
  8
LAYER_2
 10
69.5962
 20
102.393
 11
69.5951
 21
102.3957
  0
LINE
  8
LAYER_2
 10
69.5951
 20
102.3957
 11
69.5934
 21
102.3985
  0
LINE
  8
LAYER_2
 10
69.5934
 20
102.3985
 11
69.5912
 21
102.4014
  0
LINE
  8
LAYER_2
 10
69.5912
 20
102.4014
 11
69.5885
 21
102.4045
  0
ENDBLK
  0
BLOCK
  8
LAYER_2
  2
AIGNBL02020228
 70
64
 10
0
 20
0
 30
0
  3
AIGNBL02020228
  0
LINE
  8
LAYER_2
 10
68.4952
 20
103.4695
 11
68.4952
 21
102.8645
  0
ENDBLK
  0
BLOCK
  8
LAYER_2
  2
AIGNBL02020229
 70
64
 10
0
 20
0
 30
0
  3
AIGNBL02020229
  0
LINE
  8
LAYER_2
 10
69.5885
 20
102.4045
 11
69.5885
 21
102.4171
  0
ENDBLK
  0
BLOCK
  8
LAYER_2
  2
AIGNBL0202022A
 70
64
 10
0
 20
0
 30
0
  3
AIGNBL0202022A
  0
LINE
  8
LAYER_2
 10
69.5969
 20
102.4213
 11
69.5969
 21
102.3892
  0
ENDBLK
  0
BLOCK
  8
LAYER_2
  2
AIGNBL0202022B
 70
64
 10
0
 20
0
 30
0
  3
AIGNBL0202022B
  0
LINE
  8
LAYER_2
 10
70.3934
 20
102.4213
 11
70.3934
 21
102.3892
  0
ENDBLK
  0
BLOCK
  8
LAYER_2
  2
AIGNBL0202022C
 70
64
 10
0
 20
0
 30
0
  3
AIGNBL0202022C
  0
LINE
  8
LAYER_2
 10
70.4019
 20
102.4045
 11
70.4019
 21
102.4171
  0
ENDBLK
  0
BLOCK
  8
LAYER_2
  2
AIGNBL0202022D
 70
64
 10
0
 20
0
 30
0
  3
AIGNBL0202022D
  0
LINE
  8
LAYER_2
 10
71.4952
 20
103.4695
 11
71.4952
 21
102.8645
  0
ENDBLK
  0
BLOCK
  8
LAYER_2
  2
AIGNBL0202022E
 70
64
 10
0
 20
0
 30
0
  3
AIGNBL0202022E
  0
LINE
  8
LAYER_2
 10
58.8974
 20
102.3991
 11
58.8946
 21
102.3943
  0
LINE
  8
LAYER_2
 10
58.8946
 20
102.3943
 11
58.8934
 21
102.3898
  0
LINE
  8
LAYER_2
 10
58.8934
 20
102.3898
 11
58.8934
 21
102.3892
  0
ENDBLK
  0
BLOCK
  8
LAYER_2
  2
AIGNBL0202022F
 70
64
 10
0
 20
0
 30
0
  3
AIGNBL0202022F
  0
LINE
  8
LAYER_2
 10
69.5851
 20
102.4112
 11
69.5858
 21
102.4142
  0
LINE
  8
LAYER_2
 10
69.5858
 20
102.4142
 11
69.5882
 21
102.4169
  0
LINE
  8
LAYER_2
 10
69.5882
 20
102.4169
 11
69.5922
 21
102.4194
  0
ENDBLK
  0
BLOCK
  8
LAYER_2
  2
AIGNBL02020230
 70
64
 10
0
 20
0
 30
0
  3
AIGNBL02020230
  0
LINE
  8
LAYER_2
 10
70.4053
 20
102.4112
 11
70.4044
 21
102.4079
  0
LINE
  8
LAYER_2
 10
70.4044
 20
102.4079
 11
70.4019
 21
102.4045
  0
ENDBLK
  0
BLOCK
  8
LAYER_2
  2
AIGNBL02020231
 70
64
 10
0
 20
0
 30
0
  3
AIGNBL02020231
  0
LINE
  8
LAYER_2
 10
58.9019
 20
102.4045
 11
58.8974
 21
102.3991
  0
ENDBLK
  0
BLOCK
  8
LAYER_2
  2
AIGNBL02020232
 70
64
 10
0
 20
0
 30
0
  3
AIGNBL02020232
  0
LINE
  8
LAYER_2
 10
70.3974
 20
102.3991
 11
70.3946
 21
102.3943
  0
LINE
  8
LAYER_2
 10
70.3946
 20
102.3943
 11
70.3934
 21
102.3898
  0
LINE
  8
LAYER_2
 10
70.3934
 20
102.3898
 11
70.3934
 21
102.3892
  0
ENDBLK
  0
BLOCK
  8
LAYER_2
  2
AIGNBL02020233
 70
64
 10
0
 20
0
 30
0
  3
AIGNBL02020233
  0
LINE
  8
LAYER_2
 10
70.4019
 20
102.4045
 11
70.3974
 21
102.3991
  0
ENDBLK
  0
BLOCK
  8
LAYER_2
  2
AIGNBL02020234
 70
64
 10
0
 20
0
 30
0
  3
AIGNBL02020234
  0
LINE
  8
LAYER_2
 10
58.0921
 20
102.4194
 11
58.0976
 21
102.4216
  0
LINE
  8
LAYER_2
 10
58.0976
 20
102.4216
 11
58.1046
 21
102.4235
  0
LINE
  8
LAYER_2
 10
58.1046
 20
102.4235
 11
58.1129
 21
102.4249
  0
LINE
  8
LAYER_2
 10
58.1129
 20
102.4249
 11
58.1226
 21
102.4259
  0
LINE
  8
LAYER_2
 10
58.1226
 20
102.4259
 11
58.1335
 21
102.4266
  0
LINE
  8
LAYER_2
 10
58.1335
 20
102.4266
 11
58.1453
 21
102.4268
  0
LINE
  8
LAYER_2
 10
58.1453
 20
102.4268
 11
58.1579
 21
102.4266
  0
LINE
  8
LAYER_2
 10
58.1579
 20
102.4266
 11
58.1712
 21
102.4259
  0
LINE
  8
LAYER_2
 10
58.1712
 20
102.4259
 11
58.185
 21
102.4249
  0
LINE
  8
LAYER_2
 10
58.185
 20
102.4249
 11
58.199
 21
102.4234
  0
LINE
  8
LAYER_2
 10
58.199
 20
102.4234
 11
58.213
 21
102.4215
  0
LINE
  8
LAYER_2
 10
58.213
 20
102.4215
 11
58.227
 21
102.4194
  0
LINE
  8
LAYER_2
 10
58.227
 20
102.4194
 11
58.2405
 21
102.4168
  0
LINE
  8
LAYER_2
 10
58.2405
 20
102.4168
 11
58.2535
 21
102.4141
  0
LINE
  8
LAYER_2
 10
58.2535
 20
102.4141
 11
58.266
 21
102.4111
  0
LINE
  8
LAYER_2
 10
58.266
 20
102.4111
 11
58.2775
 21
102.4078
  0
LINE
  8
LAYER_2
 10
58.2775
 20
102.4078
 11
58.2882
 21
102.4045
  0
ENDBLK
  0
BLOCK
  8
LAYER_2
  2
AIGNBL02020235
 70
64
 10
0
 20
0
 30
0
  3
AIGNBL02020235
  0
LINE
  8
LAYER_2
 10
58.7022
 20
102.4045
 11
58.7129
 21
102.4079
  0
LINE
  8
LAYER_2
 10
58.7129
 20
102.4079
 11
58.7245
 21
102.4111
  0
LINE
  8
LAYER_2
 10
58.7245
 20
102.4111
 11
58.7369
 21
102.4141
  0
LINE
  8
LAYER_2
 10
58.7369
 20
102.4141
 11
58.75
 21
102.4169
  0
LINE
  8
LAYER_2
 10
58.75
 20
102.4169
 11
58.7636
 21
102.4194
  0
LINE
  8
LAYER_2
 10
58.7636
 20
102.4194
 11
58.7775
 21
102.4216
  0
LINE
  8
LAYER_2
 10
58.7775
 20
102.4216
 11
58.7915
 21
102.4234
  0
LINE
  8
LAYER_2
 10
58.7915
 20
102.4234
 11
58.8056
 21
102.4249
  0
LINE
  8
LAYER_2
 10
58.8056
 20
102.4249
 11
58.8193
 21
102.4259
  0
LINE
  8
LAYER_2
 10
58.8193
 20
102.4259
 11
58.8326
 21
102.4266
  0
LINE
  8
LAYER_2
 10
58.8326
 20
102.4266
 11
58.8453
 21
102.4268
  0
LINE
  8
LAYER_2
 10
58.8453
 20
102.4268
 11
58.8571
 21
102.4266
  0
LINE
  8
LAYER_2
 10
58.8571
 20
102.4266
 11
58.8679
 21
102.4259
  0
LINE
  8
LAYER_2
 10
58.8679
 20
102.4259
 11
58.8775
 21
102.4249
  0
LINE
  8
LAYER_2
 10
58.8775
 20
102.4249
 11
58.8859
 21
102.4234
  0
LINE
  8
LAYER_2
 10
58.8859
 20
102.4234
 11
58.8929
 21
102.4216
  0
ENDBLK
  0
BLOCK
  8
LAYER_2
  2
AIGNBL02020236
 70
64
 10
0
 20
0
 30
0
  3
AIGNBL02020236
  0
LINE
  8
LAYER_2
 10
69.5921
 20
102.4194
 11
69.5976
 21
102.4216
  0
LINE
  8
LAYER_2
 10
69.5976
 20
102.4216
 11
69.6046
 21
102.4235
  0
LINE
  8
LAYER_2
 10
69.6046
 20
102.4235
 11
69.6129
 21
102.4249
  0
LINE
  8
LAYER_2
 10
69.6129
 20
102.4249
 11
69.6226
 21
102.4259
  0
LINE
  8
LAYER_2
 10
69.6226
 20
102.4259
 11
69.6335
 21
102.4266
  0
LINE
  8
LAYER_2
 10
69.6335
 20
102.4266
 11
69.6453
 21
102.4268
  0
LINE
  8
LAYER_2
 10
69.6453
 20
102.4268
 11
69.6579
 21
102.4266
  0
LINE
  8
LAYER_2
 10
69.6579
 20
102.4266
 11
69.6712
 21
102.4259
  0
LINE
  8
LAYER_2
 10
69.6712
 20
102.4259
 11
69.6851
 21
102.4249
  0
LINE
  8
LAYER_2
 10
69.6851
 20
102.4249
 11
69.699
 21
102.4234
  0
LINE
  8
LAYER_2
 10
69.699
 20
102.4234
 11
69.713
 21
102.4215
  0
LINE
  8
LAYER_2
 10
69.713
 20
102.4215
 11
69.727
 21
102.4194
  0
LINE
  8
LAYER_2
 10
69.727
 20
102.4194
 11
69.7405
 21
102.4168
  0
LINE
  8
LAYER_2
 10
69.7405
 20
102.4168
 11
69.7535
 21
102.4141
  0
LINE
  8
LAYER_2
 10
69.7535
 20
102.4141
 11
69.766
 21
102.4111
  0
LINE
  8
LAYER_2
 10
69.766
 20
102.4111
 11
69.7775
 21
102.4078
  0
LINE
  8
LAYER_2
 10
69.7775
 20
102.4078
 11
69.7882
 21
102.4045
  0
ENDBLK
  0
BLOCK
  8
LAYER_2
  2
AIGNBL02020237
 70
64
 10
0
 20
0
 30
0
  3
AIGNBL02020237
  0
LINE
  8
LAYER_2
 10
70.2022
 20
102.4045
 11
70.2129
 21
102.4079
  0
LINE
  8
LAYER_2
 10
70.2129
 20
102.4079
 11
70.2245
 21
102.4111
  0
LINE
  8
LAYER_2
 10
70.2245
 20
102.4111
 11
70.2369
 21
102.4141
  0
LINE
  8
LAYER_2
 10
70.2369
 20
102.4141
 11
70.25
 21
102.4169
  0
LINE
  8
LAYER_2
 10
70.25
 20
102.4169
 11
70.2636
 21
102.4194
  0
LINE
  8
LAYER_2
 10
70.2636
 20
102.4194
 11
70.2775
 21
102.4216
  0
LINE
  8
LAYER_2
 10
70.2775
 20
102.4216
 11
70.2915
 21
102.4234
  0
LINE
  8
LAYER_2
 10
70.2915
 20
102.4234
 11
70.3056
 21
102.4249
  0
LINE
  8
LAYER_2
 10
70.3056
 20
102.4249
 11
70.3193
 21
102.4259
  0
LINE
  8
LAYER_2
 10
70.3193
 20
102.4259
 11
70.3326
 21
102.4266
  0
LINE
  8
LAYER_2
 10
70.3326
 20
102.4266
 11
70.3452
 21
102.4268
  0
LINE
  8
LAYER_2
 10
70.3452
 20
102.4268
 11
70.3571
 21
102.4266
  0
LINE
  8
LAYER_2
 10
70.3571
 20
102.4266
 11
70.3679
 21
102.4259
  0
LINE
  8
LAYER_2
 10
70.3679
 20
102.4259
 11
70.3775
 21
102.4249
  0
LINE
  8
LAYER_2
 10
70.3775
 20
102.4249
 11
70.3859
 21
102.4234
  0
LINE
  8
LAYER_2
 10
70.3859
 20
102.4234
 11
70.3929
 21
102.4216
  0
ENDBLK
  0
BLOCK
  8
LAYER_2
  2
AIGNBL02020238
 70
64
 10
0
 20
0
 30
0
  3
AIGNBL02020238
  0
ARC
  8
LAYER_2
 10
58.4954
 20
104.6565
 40
2.3371
 50
230.0654238
 51
252.566233
  0
ENDBLK
  0
BLOCK
  8
LAYER_2
  2
AIGNBL02020239
 70
64
 10
0
 20
0
 30
0
  3
AIGNBL02020239
  0
ARC
  8
LAYER_2
 10
58.4952
 20
104.6562
 40
2.3367
 50
287.4318574
 51
309.9364858
  0
ENDBLK
  0
BLOCK
  8
LAYER_2
  2
AIGNBL0202023A
 70
64
 10
0
 20
0
 30
0
  3
AIGNBL0202023A
  0
ARC
  8
LAYER_2
 10
69.9954
 20
104.6565
 40
2.3371
 50
230.0655189
 51
252.5661379
  0
ENDBLK
  0
BLOCK
  8
LAYER_2
  2
AIGNBL0202023B
 70
64
 10
0
 20
0
 30
0
  3
AIGNBL0202023B
  0
ARC
  8
LAYER_2
 10
69.9952
 20
104.6561
 40
2.3366
 50
287.4314892
 51
309.936854
  0
ENDBLK
  0
BLOCK
  8
LAYER_2
  2
AIGNBL0202023C
 70
64
 10
0
 20
0
 30
0
  3
AIGNBL0202023C
  0
LINE
  8
LAYER_2
 10
57.4721
 20
109.7195
 11
70.9721
 21
109.7195
  0
ENDBLK
  0
BLOCK
  8
LAYER_2
  2
AIGNBL0202023D
 70
64
 10
0
 20
0
 30
0
  3
AIGNBL0202023D
  0
LINE
  8
LAYER_2
 10
57.4721
 20
110.2195
 11
70.9721
 21
110.2195
  0
ENDBLK
  0
BLOCK
  8
LAYER_2
  2
AIGNBL0202023E
 70
64
 10
0
 20
0
 30
0
  3
AIGNBL0202023E
  0
LINE
  8
LAYER_2
 10
58.2221
 20
110.7195
 11
70.2221
 21
110.7195
  0
ENDBLK
  0
BLOCK
  8
LAYER_2
  2
AIGNBL0202023F
 70
64
 10
0
 20
0
 30
0
  3
AIGNBL0202023F
  0
LINE
  8
LAYER_2
 10
70.2221
 20
110.7195
 11
70.2221
 21
110.2195
  0
ENDBLK
  0
BLOCK
  8
LAYER_2
  2
AIGNBL02020240
 70
64
 10
0
 20
0
 30
0
  3
AIGNBL02020240
  0
LINE
  8
LAYER_2
 10
70.9721
 20
110.2195
 11
70.9721
 21
109.7195
  0
ENDBLK
  0
BLOCK
  8
LAYER_2
  2
AIGNBL02020241
 70
64
 10
0
 20
0
 30
0
  3
AIGNBL02020241
  0
LINE
  8
LAYER_2
 10
57.8702
 20
109.7195
 11
59.1202
 21
109.7195
  0
ENDBLK
  0
BLOCK
  8
LAYER_2
  2
AIGNBL02020242
 70
64
 10
0
 20
0
 30
0
  3
AIGNBL02020242
  0
LINE
  8
LAYER_2
 10
69.3702
 20
109.7195
 11
70.6202
 21
109.7195
  0
ENDBLK
  0
BLOCK
  8
LAYER_2
  2
AIGNBL02020243
 70
64
 10
0
 20
0
 30
0
  3
AIGNBL02020243
  0
LINE
  8
LAYER_2
 10
69.2452
 20
109.5945
 11
69.2452
 21
108.4695
  0
ENDBLK
  0
BLOCK
  8
LAYER_2
  2
AIGNBL02020244
 70
64
 10
0
 20
0
 30
0
  3
AIGNBL02020244
  0
LINE
  8
LAYER_2
 10
69.3702
 20
109.5945
 11
69.3702
 21
108.4695
  0
ENDBLK
  0
BLOCK
  8
LAYER_2
  2
AIGNBL02020245
 70
64
 10
0
 20
0
 30
0
  3
AIGNBL02020245
  0
LINE
  8
LAYER_2
 10
70.6202
 20
109.5945
 11
70.6202
 21
108.4695
  0
ENDBLK
  0
BLOCK
  8
LAYER_2
  2
AIGNBL02020246
 70
64
 10
0
 20
0
 30
0
  3
AIGNBL02020246
  0
LINE
  8
LAYER_2
 10
70.7452
 20
109.5945
 11
70.7452
 21
108.4695
  0
ENDBLK
  0
BLOCK
  8
LAYER_2
  2
AIGNBL02020247
 70
64
 10
0
 20
0
 30
0
  3
AIGNBL02020247
  0
LINE
  8
LAYER_2
 10
57.7452
 20
109.5945
 11
57.7452
 21
108.4695
  0
ENDBLK
  0
BLOCK
  8
LAYER_2
  2
AIGNBL02020248
 70
64
 10
0
 20
0
 30
0
  3
AIGNBL02020248
  0
LINE
  8
LAYER_2
 10
57.8702
 20
109.5945
 11
57.8702
 21
108.4695
  0
ENDBLK
  0
BLOCK
  8
LAYER_2
  2
AIGNBL02020249
 70
64
 10
0
 20
0
 30
0
  3
AIGNBL02020249
  0
LINE
  8
LAYER_2
 10
59.1202
 20
109.5945
 11
59.1202
 21
108.4695
  0
ENDBLK
  0
BLOCK
  8
LAYER_2
  2
AIGNBL0202024A
 70
64
 10
0
 20
0
 30
0
  3
AIGNBL0202024A
  0
LINE
  8
LAYER_2
 10
59.2452
 20
109.5945
 11
59.2452
 21
108.4695
  0
ENDBLK
  0
BLOCK
  8
LAYER_2
  2
AIGNBL0202024B
 70
64
 10
0
 20
0
 30
0
  3
AIGNBL0202024B
  0
LINE
  8
LAYER_2
 10
64.6201
 20
105.4695
 11
63.8701
 21
105.4695
  0
LINE
  8
LAYER_2
 10
63.8701
 20
105.4695
 11
63.8701
 21
107.2195
  0
LINE
  8
LAYER_2
 10
63.8701
 20
107.2195
 11
64.6201
 21
107.2195
  0
LINE
  8
LAYER_2
 10
64.6201
 20
107.2195
 11
64.6201
 21
105.4695
  0
ENDBLK
  0
BLOCK
  8
LAYER_2
  2
AIGNBL0202024C
 70
64
 10
0
 20
0
 30
0
  3
AIGNBL0202024C
  0
LINE
  8
LAYER_2
 10
67.9872
 20
105.4695
 11
67.9872
 21
107.2195
  0
ENDBLK
  0
BLOCK
  8
LAYER_2
  2
AIGNBL0202024D
 70
64
 10
0
 20
0
 30
0
  3
AIGNBL0202024D
  0
LINE
  8
LAYER_2
 10
60.4952
 20
107.2195
 11
60.4952
 21
105.4695
  0
ENDBLK
  0
BLOCK
  8
LAYER_2
  2
AIGNBL0202024E
 70
64
 10
0
 20
0
 30
0
  3
AIGNBL0202024E
  0
LINE
  8
LAYER_2
 10
57.4721
 20
109.7195
 11
57.4721
 21
110.2195
  0
ENDBLK
  0
BLOCK
  8
LAYER_2
  2
AIGNBL0202024F
 70
64
 10
0
 20
0
 30
0
  3
AIGNBL0202024F
  0
LINE
  8
LAYER_2
 10
58.2221
 20
110.7195
 11
58.2221
 21
110.2195
  0
ENDBLK
  0
BLOCK
  8
LAYER_2
  2
AIGNBL02010002
 70
64
 10
0
 20
0
 30
0
  3
AIGNBL02010002
  0
LINE
  8
LAYER_2
 10
-47.7406
 20
247.7587
 11
-44.9449
 21
247.2657
  0
ENDBLK
  0
BLOCK
  8
LAYER_2
  2
AIGNBL02010003
 70
64
 10
0
 20
0
 30
0
  3
AIGNBL02010003
  0
LINE
  8
LAYER_2
 10
-32.3477
 20
129.8394
 11
-14.2596
 21
129.8394
  0
LINE
  8
LAYER_2
 10
-30.3575
 20
129.2537
 11
-28.1471
 21
129.8463
  0
LINE
  8
LAYER_2
 10
-28.1471
 20
129.8463
 11
-30.3575
 21
130.4389
  0
LINE
  8
LAYER_2
 10
-30.3575
 20
130.4389
 11
-30.3575
 21
129.2537
  0
LINE
  8
LAYER_2
 10
-19.3749
 20
124.0957
 11
-17.1645
 21
124.6883
  0
LINE
  8
LAYER_2
 10
-17.1645
 20
124.6883
 11
-19.3749
 21
125.2809
  0
LINE
  8
LAYER_2
 10
-19.3749
 20
125.2809
 11
-19.3749
 21
124.0957
  0
LINE
  8
LAYER_2
 10
-15.9642
 20
130.4244
 11
-18.1753
 21
129.8318
  0
LINE
  8
LAYER_2
 10
-18.1753
 20
129.8318
 11
-15.9642
 21
129.24
  0
LINE
  8
LAYER_2
 10
-15.9642
 20
129.24
 11
-15.9642
 21
130.4244
  0
LINE
  8
LAYER_2
 10
-35.1956
 20
113.8245
 11
-15.1739
 21
113.8245
  0
LINE
  8
LAYER_2
 10
-29.55
 20
113.2389
 11
-27.3396
 21
113.8314
  0
LINE
  8
LAYER_2
 10
-27.3396
 20
113.8314
 11
-29.55
 21
114.424
  0
LINE
  8
LAYER_2
 10
-29.55
 20
114.424
 11
-29.55
 21
113.2389
  0
LINE
  8
LAYER_2
 10
-16.8789
 20
114.4095
 11
-19.09
 21
113.817
  0
LINE
  8
LAYER_2
 10
-19.09
 20
113.817
 11
-16.8789
 21
113.2251
  0
LINE
  8
LAYER_2
 10
-16.8789
 20
113.2251
 11
-16.8789
 21
114.4095
  0
ENDBLK
  0
BLOCK
  8
LAYER_2
  2
AIGNBL02010004
 70
64
 10
0
 20
0
 30
0
  3
AIGNBL02010004
  0
LINE
  8
LAYER_2
 10
35.3332
 20
59.1412
 11
53.8857
 21
59.1412
  0
LINE
  8
LAYER_2
 10
43.8343
 20
58.5556
 11
46.0447
 21
59.1481
  0
LINE
  8
LAYER_2
 10
46.0447
 20
59.1481
 11
43.8343
 21
59.7407
  0
LINE
  8
LAYER_2
 10
43.8343
 20
59.7407
 11
43.8343
 21
58.5556
  0
LINE
  8
LAYER_2
 10
52.3809
 20
59.7262
 11
50.1699
 21
59.1336
  0
LINE
  8
LAYER_2
 10
50.1699
 20
59.1336
 11
52.3809
 21
58.5418
  0
LINE
  8
LAYER_2
 10
52.3809
 20
58.5418
 11
52.3809
 21
59.7262
  0
ENDBLK
  0
BLOCK
  8
LAYER_2
  2
AIGNBL02010005
 70
64
 10
0
 20
0
 30
0
  3
AIGNBL02010005
  0
LINE
  8
LAYER_2
 10
52.5594
 20
118.2194
 11
52.5594
 21
110.7195
  0
LINE
  8
LAYER_2
 10
51.9813
 20
112.9309
 11
52.5739
 21
110.7195
  0
LINE
  8
LAYER_2
 10
52.5739
 20
110.7195
 11
53.1664
 21
112.9309
  0
LINE
  8
LAYER_2
 10
53.1664
 20
112.9309
 11
51.9813
 21
112.9309
  0
LINE
  8
LAYER_2
 10
53.152
 20
116.0081
 11
52.5594
 21
118.2194
  0
LINE
  8
LAYER_2
 10
52.5594
 20
118.2194
 11
51.9668
 21
116.0081
  0
LINE
  8
LAYER_2
 10
51.9668
 20
116.0081
 11
53.152
 21
116.0081
  0
ENDBLK
  0
BLOCK
  8
LAYER_2
  2
AIGNBL02010006
 70
64
 10
0
 20
0
 30
0
  3
AIGNBL02010006
  0
LINE
  8
LAYER_2
 10
22.0714
 20
118.2194
 11
22.0714
 21
67.1449
  0
LINE
  8
LAYER_2
 10
21.4933
 20
69.3563
 11
22.0859
 21
67.1449
  0
LINE
  8
LAYER_2
 10
22.0859
 20
67.1449
 11
22.6784
 21
69.3563
  0
LINE
  8
LAYER_2
 10
22.6784
 20
69.3563
 11
21.4933
 21
69.3563
  0
LINE
  8
LAYER_2
 10
22.664
 20
116.0081
 11
22.0714
 21
118.2194
  0
LINE
  8
LAYER_2
 10
22.0714
 20
118.2194
 11
21.4788
 21
116.0081
  0
LINE
  8
LAYER_2
 10
21.4788
 20
116.0081
 11
22.664
 21
116.0081
  0
ENDBLK
  0
BLOCK
  8
LAYER_2
  2
AIGNBL02010007
 70
64
 10
0
 20
0
 30
0
  3
AIGNBL02010007
  0
LINE
  8
LAYER_2
 10
71.3579
 20
250.5465
 11
57.1724
 21
236.3613
  0
LINE
  8
LAYER_2
 10
68.484
 20
248.5105
 11
67.3389
 21
246.5278
  0
LINE
  8
LAYER_2
 10
67.3389
 20
246.5278
 11
69.3219
 21
247.6724
  0
LINE
  8
LAYER_2
 10
69.3219
 20
247.6724
 11
68.484
 21
248.5105
  0
LINE
  8
LAYER_2
 10
60.007
 20
238.3578
 11
61.1515
 21
240.3404
  0
LINE
  8
LAYER_2
 10
61.1515
 20
240.3404
 11
59.1685
 21
239.1956
  0
LINE
  8
LAYER_2
 10
59.1685
 20
239.1956
 11
60.007
 21
238.3578
  0
ENDBLK
  0
BLOCK
  8
LAYER_2
  2
AIGNBL02010008
 70
64
 10
0
 20
0
 30
0
  3
AIGNBL02010008
  0
INSERT
  8
LAYER_2
  2
AIGNBL02020009
 10
0
 20
0
 30
0
  0
INSERT
  8
LAYER_2
  2
AIGNBL0202000A
 10
0
 20
0
 30
0
  0
INSERT
  8
LAYER_2
  2
AIGNBL0202000B
 10
0
 20
0
 30
0
  0
INSERT
  8
LAYER_2
  2
AIGNBL0202000C
 10
0
 20
0
 30
0
  0
INSERT
  8
LAYER_2
  2
AIGNBL0202000D
 10
0
 20
0
 30
0
  0
INSERT
  8
LAYER_2
  2
AIGNBL0202000E
 10
0
 20
0
 30
0
  0
INSERT
  8
LAYER_2
  2
AIGNBL0202000F
 10
0
 20
0
 30
0
  0
INSERT
  8
LAYER_2
  2
AIGNBL02020010
 10
0
 20
0
 30
0
  0
INSERT
  8
LAYER_2
  2
AIGNBL02020011
 10
0
 20
0
 30
0
  0
INSERT
  8
LAYER_2
  2
AIGNBL02020012
 10
0
 20
0
 30
0
  0
INSERT
  8
LAYER_2
  2
AIGNBL02020013
 10
0
 20
0
 30
0
  0
INSERT
  8
LAYER_2
  2
AIGNBL02020014
 10
0
 20
0
 30
0
  0
INSERT
  8
LAYER_2
  2
AIGNBL02020015
 10
0
 20
0
 30
0
  0
INSERT
  8
LAYER_2
  2
AIGNBL02020016
 10
0
 20
0
 30
0
  0
INSERT
  8
LAYER_2
  2
AIGNBL02020017
 10
0
 20
0
 30
0
  0
INSERT
  8
LAYER_2
  2
AIGNBL02020018
 10
0
 20
0
 30
0
  0
INSERT
  8
LAYER_2
  2
AIGNBL02020019
 10
0
 20
0
 30
0
  0
INSERT
  8
LAYER_2
  2
AIGNBL0202001A
 10
0
 20
0
 30
0
  0
INSERT
  8
LAYER_2
  2
AIGNBL0202001B
 10
0
 20
0
 30
0
  0
INSERT
  8
LAYER_2
  2
AIGNBL0202001C
 10
0
 20
0
 30
0
  0
INSERT
  8
LAYER_2
  2
AIGNBL0202001D
 10
0
 20
0
 30
0
  0
INSERT
  8
LAYER_2
  2
AIGNBL0202001E
 10
0
 20
0
 30
0
  0
INSERT
  8
LAYER_2
  2
AIGNBL0202001F
 10
0
 20
0
 30
0
  0
INSERT
  8
LAYER_2
  2
AIGNBL02020020
 10
0
 20
0
 30
0
  0
INSERT
  8
LAYER_2
  2
AIGNBL02020021
 10
0
 20
0
 30
0
  0
INSERT
  8
LAYER_2
  2
AIGNBL02020022
 10
0
 20
0
 30
0
  0
INSERT
  8
LAYER_2
  2
AIGNBL02020023
 10
0
 20
0
 30
0
  0
INSERT
  8
LAYER_2
  2
AIGNBL02020024
 10
0
 20
0
 30
0
  0
INSERT
  8
LAYER_2
  2
AIGNBL02020025
 10
0
 20
0
 30
0
  0
INSERT
  8
LAYER_2
  2
AIGNBL02020026
 10
0
 20
0
 30
0
  0
INSERT
  8
LAYER_2
  2
AIGNBL02020027
 10
0
 20
0
 30
0
  0
INSERT
  8
LAYER_2
  2
AIGNBL02020028
 10
0
 20
0
 30
0
  0
INSERT
  8
LAYER_2
  2
AIGNBL02020029
 10
0
 20
0
 30
0
  0
INSERT
  8
LAYER_2
  2
AIGNBL0202002A
 10
0
 20
0
 30
0
  0
INSERT
  8
LAYER_2
  2
AIGNBL0202002B
 10
0
 20
0
 30
0
  0
INSERT
  8
LAYER_2
  2
AIGNBL0202002C
 10
0
 20
0
 30
0
  0
INSERT
  8
LAYER_2
  2
AIGNBL0202002D
 10
0
 20
0
 30
0
  0
INSERT
  8
LAYER_2
  2
AIGNBL0202002E
 10
0
 20
0
 30
0
  0
INSERT
  8
LAYER_2
  2
AIGNBL0202002F
 10
0
 20
0
 30
0
  0
INSERT
  8
LAYER_2
  2
AIGNBL02020030
 10
0
 20
0
 30
0
  0
INSERT
  8
LAYER_2
  2
AIGNBL02020031
 10
0
 20
0
 30
0
  0
INSERT
  8
LAYER_2
  2
AIGNBL02020032
 10
0
 20
0
 30
0
  0
INSERT
  8
LAYER_2
  2
AIGNBL02020033
 10
0
 20
0
 30
0
  0
INSERT
  8
LAYER_2
  2
AIGNBL02020034
 10
0
 20
0
 30
0
  0
INSERT
  8
LAYER_2
  2
AIGNBL02020035
 10
0
 20
0
 30
0
  0
INSERT
  8
LAYER_2
  2
AIGNBL02020036
 10
0
 20
0
 30
0
  0
INSERT
  8
LAYER_2
  2
AIGNBL02020037
 10
0
 20
0
 30
0
  0
INSERT
  8
LAYER_2
  2
AIGNBL02020038
 10
0
 20
0
 30
0
  0
INSERT
  8
LAYER_2
  2
AIGNBL02020039
 10
0
 20
0
 30
0
  0
INSERT
  8
LAYER_2
  2
AIGNBL0202003A
 10
0
 20
0
 30
0
  0
INSERT
  8
LAYER_2
  2
AIGNBL0202003B
 10
0
 20
0
 30
0
  0
INSERT
  8
LAYER_2
  2
AIGNBL0202003C
 10
0
 20
0
 30
0
  0
INSERT
  8
LAYER_2
  2
AIGNBL0202003D
 10
0
 20
0
 30
0
  0
INSERT
  8
LAYER_2
  2
AIGNBL0202003E
 10
0
 20
0
 30
0
  0
INSERT
  8
LAYER_2
  2
AIGNBL0202003F
 10
0
 20
0
 30
0
  0
INSERT
  8
LAYER_2
  2
AIGNBL02020040
 10
0
 20
0
 30
0
  0
INSERT
  8
LAYER_2
  2
AIGNBL02020041
 10
0
 20
0
 30
0
  0
INSERT
  8
LAYER_2
  2
AIGNBL02020042
 10
0
 20
0
 30
0
  0
INSERT
  8
LAYER_2
  2
AIGNBL02020043
 10
0
 20
0
 30
0
  0
INSERT
  8
LAYER_2
  2
AIGNBL02020044
 10
0
 20
0
 30
0
  0
INSERT
  8
LAYER_2
  2
AIGNBL02020045
 10
0
 20
0
 30
0
  0
INSERT
  8
LAYER_2
  2
AIGNBL02020046
 10
0
 20
0
 30
0
  0
INSERT
  8
LAYER_2
  2
AIGNBL02020047
 10
0
 20
0
 30
0
  0
INSERT
  8
LAYER_2
  2
AIGNBL02020048
 10
0
 20
0
 30
0
  0
INSERT
  8
LAYER_2
  2
AIGNBL02020049
 10
0
 20
0
 30
0
  0
INSERT
  8
LAYER_2
  2
AIGNBL0202004A
 10
0
 20
0
 30
0
  0
INSERT
  8
LAYER_2
  2
AIGNBL0202004B
 10
0
 20
0
 30
0
  0
INSERT
  8
LAYER_2
  2
AIGNBL0202004C
 10
0
 20
0
 30
0
  0
INSERT
  8
LAYER_2
  2
AIGNBL0202004D
 10
0
 20
0
 30
0
  0
INSERT
  8
LAYER_2
  2
AIGNBL0202004E
 10
0
 20
0
 30
0
  0
INSERT
  8
LAYER_2
  2
AIGNBL0202004F
 10
0
 20
0
 30
0
  0
INSERT
  8
LAYER_2
  2
AIGNBL02020050
 10
0
 20
0
 30
0
  0
INSERT
  8
LAYER_2
  2
AIGNBL02020051
 10
0
 20
0
 30
0
  0
INSERT
  8
LAYER_2
  2
AIGNBL02020052
 10
0
 20
0
 30
0
  0
INSERT
  8
LAYER_2
  2
AIGNBL02020053
 10
0
 20
0
 30
0
  0
INSERT
  8
LAYER_2
  2
AIGNBL02020054
 10
0
 20
0
 30
0
  0
INSERT
  8
LAYER_2
  2
AIGNBL02020055
 10
0
 20
0
 30
0
  0
INSERT
  8
LAYER_2
  2
AIGNBL02020056
 10
0
 20
0
 30
0
  0
INSERT
  8
LAYER_2
  2
AIGNBL02020057
 10
0
 20
0
 30
0
  0
INSERT
  8
LAYER_2
  2
AIGNBL02020058
 10
0
 20
0
 30
0
  0
INSERT
  8
LAYER_2
  2
AIGNBL02020059
 10
0
 20
0
 30
0
  0
INSERT
  8
LAYER_2
  2
AIGNBL0202005A
 10
0
 20
0
 30
0
  0
INSERT
  8
LAYER_2
  2
AIGNBL0202005B
 10
0
 20
0
 30
0
  0
INSERT
  8
LAYER_2
  2
AIGNBL0202005C
 10
0
 20
0
 30
0
  0
INSERT
  8
LAYER_2
  2
AIGNBL0202005D
 10
0
 20
0
 30
0
  0
INSERT
  8
LAYER_2
  2
AIGNBL0202005E
 10
0
 20
0
 30
0
  0
INSERT
  8
LAYER_2
  2
AIGNBL0202005F
 10
0
 20
0
 30
0
  0
INSERT
  8
LAYER_2
  2
AIGNBL02020060
 10
0
 20
0
 30
0
  0
INSERT
  8
LAYER_2
  2
AIGNBL02020061
 10
0
 20
0
 30
0
  0
INSERT
  8
LAYER_2
  2
AIGNBL02020062
 10
0
 20
0
 30
0
  0
INSERT
  8
LAYER_2
  2
AIGNBL02020063
 10
0
 20
0
 30
0
  0
INSERT
  8
LAYER_2
  2
AIGNBL02020064
 10
0
 20
0
 30
0
  0
INSERT
  8
LAYER_2
  2
AIGNBL02020065
 10
0
 20
0
 30
0
  0
INSERT
  8
LAYER_2
  2
AIGNBL02020066
 10
0
 20
0
 30
0
  0
INSERT
  8
LAYER_2
  2
AIGNBL02020067
 10
0
 20
0
 30
0
  0
INSERT
  8
LAYER_2
  2
AIGNBL02020068
 10
0
 20
0
 30
0
  0
INSERT
  8
LAYER_2
  2
AIGNBL02020069
 10
0
 20
0
 30
0
  0
INSERT
  8
LAYER_2
  2
AIGNBL0202006A
 10
0
 20
0
 30
0
  0
INSERT
  8
LAYER_2
  2
AIGNBL0202006B
 10
0
 20
0
 30
0
  0
INSERT
  8
LAYER_2
  2
AIGNBL0202006C
 10
0
 20
0
 30
0
  0
INSERT
  8
LAYER_2
  2
AIGNBL0202006D
 10
0
 20
0
 30
0
  0
INSERT
  8
LAYER_2
  2
AIGNBL0202006E
 10
0
 20
0
 30
0
  0
INSERT
  8
LAYER_2
  2
AIGNBL0202006F
 10
0
 20
0
 30
0
  0
INSERT
  8
LAYER_2
  2
AIGNBL02020070
 10
0
 20
0
 30
0
  0
INSERT
  8
LAYER_2
  2
AIGNBL02020071
 10
0
 20
0
 30
0
  0
INSERT
  8
LAYER_2
  2
AIGNBL02020072
 10
0
 20
0
 30
0
  0
INSERT
  8
LAYER_2
  2
AIGNBL02020073
 10
0
 20
0
 30
0
  0
INSERT
  8
LAYER_2
  2
AIGNBL02020074
 10
0
 20
0
 30
0
  0
INSERT
  8
LAYER_2
  2
AIGNBL02020075
 10
0
 20
0
 30
0
  0
INSERT
  8
LAYER_2
  2
AIGNBL02020076
 10
0
 20
0
 30
0
  0
INSERT
  8
LAYER_2
  2
AIGNBL02020077
 10
0
 20
0
 30
0
  0
INSERT
  8
LAYER_2
  2
AIGNBL02020078
 10
0
 20
0
 30
0
  0
INSERT
  8
LAYER_2
  2
AIGNBL02020079
 10
0
 20
0
 30
0
  0
INSERT
  8
LAYER_2
  2
AIGNBL0202007A
 10
0
 20
0
 30
0
  0
INSERT
  8
LAYER_2
  2
AIGNBL0202007B
 10
0
 20
0
 30
0
  0
INSERT
  8
LAYER_2
  2
AIGNBL0202007C
 10
0
 20
0
 30
0
  0
INSERT
  8
LAYER_2
  2
AIGNBL0202007D
 10
0
 20
0
 30
0
  0
INSERT
  8
LAYER_2
  2
AIGNBL0202007E
 10
0
 20
0
 30
0
  0
INSERT
  8
LAYER_2
  2
AIGNBL0202007F
 10
0
 20
0
 30
0
  0
INSERT
  8
LAYER_2
  2
AIGNBL02020080
 10
0
 20
0
 30
0
  0
INSERT
  8
LAYER_2
  2
AIGNBL02020081
 10
0
 20
0
 30
0
  0
INSERT
  8
LAYER_2
  2
AIGNBL02020082
 10
0
 20
0
 30
0
  0
INSERT
  8
LAYER_2
  2
AIGNBL02020083
 10
0
 20
0
 30
0
  0
INSERT
  8
LAYER_2
  2
AIGNBL02020084
 10
0
 20
0
 30
0
  0
INSERT
  8
LAYER_2
  2
AIGNBL02020085
 10
0
 20
0
 30
0
  0
INSERT
  8
LAYER_2
  2
AIGNBL02020086
 10
0
 20
0
 30
0
  0
INSERT
  8
LAYER_2
  2
AIGNBL02020087
 10
0
 20
0
 30
0
  0
INSERT
  8
LAYER_2
  2
AIGNBL02020088
 10
0
 20
0
 30
0
  0
INSERT
  8
LAYER_2
  2
AIGNBL02020089
 10
0
 20
0
 30
0
  0
INSERT
  8
LAYER_2
  2
AIGNBL0202008A
 10
0
 20
0
 30
0
  0
INSERT
  8
LAYER_2
  2
AIGNBL0202008B
 10
0
 20
0
 30
0
  0
INSERT
  8
LAYER_2
  2
AIGNBL0202008C
 10
0
 20
0
 30
0
  0
INSERT
  8
LAYER_2
  2
AIGNBL0202008D
 10
0
 20
0
 30
0
  0
INSERT
  8
LAYER_2
  2
AIGNBL0202008E
 10
0
 20
0
 30
0
  0
INSERT
  8
LAYER_2
  2
AIGNBL0202008F
 10
0
 20
0
 30
0
  0
INSERT
  8
LAYER_2
  2
AIGNBL02020090
 10
0
 20
0
 30
0
  0
INSERT
  8
LAYER_2
  2
AIGNBL02020091
 10
0
 20
0
 30
0
  0
INSERT
  8
LAYER_2
  2
AIGNBL02020092
 10
0
 20
0
 30
0
  0
INSERT
  8
LAYER_2
  2
AIGNBL02020093
 10
0
 20
0
 30
0
  0
INSERT
  8
LAYER_2
  2
AIGNBL02020094
 10
0
 20
0
 30
0
  0
INSERT
  8
LAYER_2
  2
AIGNBL02020095
 10
0
 20
0
 30
0
  0
INSERT
  8
LAYER_2
  2
AIGNBL02020096
 10
0
 20
0
 30
0
  0
INSERT
  8
LAYER_2
  2
AIGNBL02020097
 10
0
 20
0
 30
0
  0
INSERT
  8
LAYER_2
  2
AIGNBL02020098
 10
0
 20
0
 30
0
  0
INSERT
  8
LAYER_2
  2
AIGNBL02020099
 10
0
 20
0
 30
0
  0
INSERT
  8
LAYER_2
  2
AIGNBL0202009A
 10
0
 20
0
 30
0
  0
INSERT
  8
LAYER_2
  2
AIGNBL0202009B
 10
0
 20
0
 30
0
  0
INSERT
  8
LAYER_2
  2
AIGNBL0202009C
 10
0
 20
0
 30
0
  0
INSERT
  8
LAYER_2
  2
AIGNBL0202009D
 10
0
 20
0
 30
0
  0
INSERT
  8
LAYER_2
  2
AIGNBL0202009E
 10
0
 20
0
 30
0
  0
INSERT
  8
LAYER_2
  2
AIGNBL0202009F
 10
0
 20
0
 30
0
  0
INSERT
  8
LAYER_2
  2
AIGNBL020200A0
 10
0
 20
0
 30
0
  0
INSERT
  8
LAYER_2
  2
AIGNBL020200A1
 10
0
 20
0
 30
0
  0
INSERT
  8
LAYER_2
  2
AIGNBL020200A2
 10
0
 20
0
 30
0
  0
INSERT
  8
LAYER_2
  2
AIGNBL020200A3
 10
0
 20
0
 30
0
  0
INSERT
  8
LAYER_2
  2
AIGNBL020200A4
 10
0
 20
0
 30
0
  0
INSERT
  8
LAYER_2
  2
AIGNBL020200A5
 10
0
 20
0
 30
0
  0
INSERT
  8
LAYER_2
  2
AIGNBL020200A6
 10
0
 20
0
 30
0
  0
INSERT
  8
LAYER_2
  2
AIGNBL020200A7
 10
0
 20
0
 30
0
  0
INSERT
  8
LAYER_2
  2
AIGNBL020200A8
 10
0
 20
0
 30
0
  0
INSERT
  8
LAYER_2
  2
AIGNBL020200A9
 10
0
 20
0
 30
0
  0
INSERT
  8
LAYER_2
  2
AIGNBL020200AA
 10
0
 20
0
 30
0
  0
INSERT
  8
LAYER_2
  2
AIGNBL020200AB
 10
0
 20
0
 30
0
  0
INSERT
  8
LAYER_2
  2
AIGNBL020200AC
 10
0
 20
0
 30
0
  0
INSERT
  8
LAYER_2
  2
AIGNBL020200AD
 10
0
 20
0
 30
0
  0
INSERT
  8
LAYER_2
  2
AIGNBL020200AE
 10
0
 20
0
 30
0
  0
INSERT
  8
LAYER_2
  2
AIGNBL020200AF
 10
0
 20
0
 30
0
  0
INSERT
  8
LAYER_2
  2
AIGNBL020200B0
 10
0
 20
0
 30
0
  0
INSERT
  8
LAYER_2
  2
AIGNBL020200B1
 10
0
 20
0
 30
0
  0
INSERT
  8
LAYER_2
  2
AIGNBL020200B2
 10
0
 20
0
 30
0
  0
INSERT
  8
LAYER_2
  2
AIGNBL020200B3
 10
0
 20
0
 30
0
  0
INSERT
  8
LAYER_2
  2
AIGNBL020200B4
 10
0
 20
0
 30
0
  0
INSERT
  8
LAYER_2
  2
AIGNBL020200B5
 10
0
 20
0
 30
0
  0
INSERT
  8
LAYER_2
  2
AIGNBL020200B6
 10
0
 20
0
 30
0
  0
INSERT
  8
LAYER_2
  2
AIGNBL020200B7
 10
0
 20
0
 30
0
  0
INSERT
  8
LAYER_2
  2
AIGNBL020200B8
 10
0
 20
0
 30
0
  0
INSERT
  8
LAYER_2
  2
AIGNBL020200B9
 10
0
 20
0
 30
0
  0
INSERT
  8
LAYER_2
  2
AIGNBL020200BA
 10
0
 20
0
 30
0
  0
INSERT
  8
LAYER_2
  2
AIGNBL020200BB
 10
0
 20
0
 30
0
  0
INSERT
  8
LAYER_2
  2
AIGNBL020200BC
 10
0
 20
0
 30
0
  0
INSERT
  8
LAYER_2
  2
AIGNBL020200BD
 10
0
 20
0
 30
0
  0
INSERT
  8
LAYER_2
  2
AIGNBL020200BE
 10
0
 20
0
 30
0
  0
INSERT
  8
LAYER_2
  2
AIGNBL020200BF
 10
0
 20
0
 30
0
  0
INSERT
  8
LAYER_2
  2
AIGNBL020200C0
 10
0
 20
0
 30
0
  0
INSERT
  8
LAYER_2
  2
AIGNBL020200C1
 10
0
 20
0
 30
0
  0
INSERT
  8
LAYER_2
  2
AIGNBL020200C2
 10
0
 20
0
 30
0
  0
INSERT
  8
LAYER_2
  2
AIGNBL020200C3
 10
0
 20
0
 30
0
  0
INSERT
  8
LAYER_2
  2
AIGNBL020200C4
 10
0
 20
0
 30
0
  0
INSERT
  8
LAYER_2
  2
AIGNBL020200C5
 10
0
 20
0
 30
0
  0
INSERT
  8
LAYER_2
  2
AIGNBL020200C6
 10
0
 20
0
 30
0
  0
INSERT
  8
LAYER_2
  2
AIGNBL020200C7
 10
0
 20
0
 30
0
  0
INSERT
  8
LAYER_2
  2
AIGNBL020200C8
 10
0
 20
0
 30
0
  0
INSERT
  8
LAYER_2
  2
AIGNBL020200C9
 10
0
 20
0
 30
0
  0
INSERT
  8
LAYER_2
  2
AIGNBL020200CA
 10
0
 20
0
 30
0
  0
INSERT
  8
LAYER_2
  2
AIGNBL020200CB
 10
0
 20
0
 30
0
  0
INSERT
  8
LAYER_2
  2
AIGNBL020200CC
 10
0
 20
0
 30
0
  0
INSERT
  8
LAYER_2
  2
AIGNBL020200CD
 10
0
 20
0
 30
0
  0
INSERT
  8
LAYER_2
  2
AIGNBL020200CE
 10
0
 20
0
 30
0
  0
INSERT
  8
LAYER_2
  2
AIGNBL020200CF
 10
0
 20
0
 30
0
  0
INSERT
  8
LAYER_2
  2
AIGNBL020200D0
 10
0
 20
0
 30
0
  0
INSERT
  8
LAYER_2
  2
AIGNBL020200D1
 10
0
 20
0
 30
0
  0
INSERT
  8
LAYER_2
  2
AIGNBL020200D2
 10
0
 20
0
 30
0
  0
INSERT
  8
LAYER_2
  2
AIGNBL020200D3
 10
0
 20
0
 30
0
  0
INSERT
  8
LAYER_2
  2
AIGNBL020200D4
 10
0
 20
0
 30
0
  0
INSERT
  8
LAYER_2
  2
AIGNBL020200D5
 10
0
 20
0
 30
0
  0
INSERT
  8
LAYER_2
  2
AIGNBL020200D6
 10
0
 20
0
 30
0
  0
INSERT
  8
LAYER_2
  2
AIGNBL020200D7
 10
0
 20
0
 30
0
  0
INSERT
  8
LAYER_2
  2
AIGNBL020200D8
 10
0
 20
0
 30
0
  0
INSERT
  8
LAYER_2
  2
AIGNBL020200D9
 10
0
 20
0
 30
0
  0
INSERT
  8
LAYER_2
  2
AIGNBL020200DA
 10
0
 20
0
 30
0
  0
INSERT
  8
LAYER_2
  2
AIGNBL020200DB
 10
0
 20
0
 30
0
  0
INSERT
  8
LAYER_2
  2
AIGNBL020200DC
 10
0
 20
0
 30
0
  0
INSERT
  8
LAYER_2
  2
AIGNBL020200DD
 10
0
 20
0
 30
0
  0
INSERT
  8
LAYER_2
  2
AIGNBL020200DE
 10
0
 20
0
 30
0
  0
INSERT
  8
LAYER_2
  2
AIGNBL020200DF
 10
0
 20
0
 30
0
  0
INSERT
  8
LAYER_2
  2
AIGNBL020200E0
 10
0
 20
0
 30
0
  0
INSERT
  8
LAYER_2
  2
AIGNBL020200E1
 10
0
 20
0
 30
0
  0
INSERT
  8
LAYER_2
  2
AIGNBL020200E2
 10
0
 20
0
 30
0
  0
INSERT
  8
LAYER_2
  2
AIGNBL020200E3
 10
0
 20
0
 30
0
  0
INSERT
  8
LAYER_2
  2
AIGNBL020200E4
 10
0
 20
0
 30
0
  0
INSERT
  8
LAYER_2
  2
AIGNBL020200E5
 10
0
 20
0
 30
0
  0
INSERT
  8
LAYER_2
  2
AIGNBL020200E6
 10
0
 20
0
 30
0
  0
INSERT
  8
LAYER_2
  2
AIGNBL020200E7
 10
0
 20
0
 30
0
  0
INSERT
  8
LAYER_2
  2
AIGNBL020200E8
 10
0
 20
0
 30
0
  0
INSERT
  8
LAYER_2
  2
AIGNBL020200E9
 10
0
 20
0
 30
0
  0
INSERT
  8
LAYER_2
  2
AIGNBL020200EA
 10
0
 20
0
 30
0
  0
INSERT
  8
LAYER_2
  2
AIGNBL020200EB
 10
0
 20
0
 30
0
  0
INSERT
  8
LAYER_2
  2
AIGNBL020200EC
 10
0
 20
0
 30
0
  0
INSERT
  8
LAYER_2
  2
AIGNBL020200ED
 10
0
 20
0
 30
0
  0
INSERT
  8
LAYER_2
  2
AIGNBL020200EE
 10
0
 20
0
 30
0
  0
INSERT
  8
LAYER_2
  2
AIGNBL020200EF
 10
0
 20
0
 30
0
  0
INSERT
  8
LAYER_2
  2
AIGNBL020200F0
 10
0
 20
0
 30
0
  0
INSERT
  8
LAYER_2
  2
AIGNBL020200F1
 10
0
 20
0
 30
0
  0
INSERT
  8
LAYER_2
  2
AIGNBL020200F2
 10
0
 20
0
 30
0
  0
INSERT
  8
LAYER_2
  2
AIGNBL020200F3
 10
0
 20
0
 30
0
  0
INSERT
  8
LAYER_2
  2
AIGNBL020200F4
 10
0
 20
0
 30
0
  0
INSERT
  8
LAYER_2
  2
AIGNBL020200F5
 10
0
 20
0
 30
0
  0
INSERT
  8
LAYER_2
  2
AIGNBL020200F6
 10
0
 20
0
 30
0
  0
INSERT
  8
LAYER_2
  2
AIGNBL020200F7
 10
0
 20
0
 30
0
  0
INSERT
  8
LAYER_2
  2
AIGNBL020200F8
 10
0
 20
0
 30
0
  0
INSERT
  8
LAYER_2
  2
AIGNBL020200F9
 10
0
 20
0
 30
0
  0
INSERT
  8
LAYER_2
  2
AIGNBL020200FA
 10
0
 20
0
 30
0
  0
INSERT
  8
LAYER_2
  2
AIGNBL020200FB
 10
0
 20
0
 30
0
  0
INSERT
  8
LAYER_2
  2
AIGNBL020200FC
 10
0
 20
0
 30
0
  0
INSERT
  8
LAYER_2
  2
AIGNBL020200FD
 10
0
 20
0
 30
0
  0
INSERT
  8
LAYER_2
  2
AIGNBL020200FE
 10
0
 20
0
 30
0
  0
INSERT
  8
LAYER_2
  2
AIGNBL020200FF
 10
0
 20
0
 30
0
  0
INSERT
  8
LAYER_2
  2
AIGNBL02020100
 10
0
 20
0
 30
0
  0
INSERT
  8
LAYER_2
  2
AIGNBL02020101
 10
0
 20
0
 30
0
  0
INSERT
  8
LAYER_2
  2
AIGNBL02020102
 10
0
 20
0
 30
0
  0
INSERT
  8
LAYER_2
  2
AIGNBL02020103
 10
0
 20
0
 30
0
  0
INSERT
  8
LAYER_2
  2
AIGNBL02020104
 10
0
 20
0
 30
0
  0
INSERT
  8
LAYER_2
  2
AIGNBL02020105
 10
0
 20
0
 30
0
  0
INSERT
  8
LAYER_2
  2
AIGNBL02020106
 10
0
 20
0
 30
0
  0
INSERT
  8
LAYER_2
  2
AIGNBL02020107
 10
0
 20
0
 30
0
  0
INSERT
  8
LAYER_2
  2
AIGNBL02020108
 10
0
 20
0
 30
0
  0
INSERT
  8
LAYER_2
  2
AIGNBL02020109
 10
0
 20
0
 30
0
  0
INSERT
  8
LAYER_2
  2
AIGNBL0202010A
 10
0
 20
0
 30
0
  0
INSERT
  8
LAYER_2
  2
AIGNBL0202010B
 10
0
 20
0
 30
0
  0
INSERT
  8
LAYER_2
  2
AIGNBL0202010C
 10
0
 20
0
 30
0
  0
INSERT
  8
LAYER_2
  2
AIGNBL0202010D
 10
0
 20
0
 30
0
  0
INSERT
  8
LAYER_2
  2
AIGNBL0202010E
 10
0
 20
0
 30
0
  0
INSERT
  8
LAYER_2
  2
AIGNBL0202010F
 10
0
 20
0
 30
0
  0
INSERT
  8
LAYER_2
  2
AIGNBL02020110
 10
0
 20
0
 30
0
  0
INSERT
  8
LAYER_2
  2
AIGNBL02020111
 10
0
 20
0
 30
0
  0
INSERT
  8
LAYER_2
  2
AIGNBL02020112
 10
0
 20
0
 30
0
  0
INSERT
  8
LAYER_2
  2
AIGNBL02020113
 10
0
 20
0
 30
0
  0
INSERT
  8
LAYER_2
  2
AIGNBL02020114
 10
0
 20
0
 30
0
  0
INSERT
  8
LAYER_2
  2
AIGNBL02020115
 10
0
 20
0
 30
0
  0
INSERT
  8
LAYER_2
  2
AIGNBL02020116
 10
0
 20
0
 30
0
  0
INSERT
  8
LAYER_2
  2
AIGNBL02020117
 10
0
 20
0
 30
0
  0
INSERT
  8
LAYER_2
  2
AIGNBL02020118
 10
0
 20
0
 30
0
  0
INSERT
  8
LAYER_2
  2
AIGNBL02020119
 10
0
 20
0
 30
0
  0
ENDBLK
  0
BLOCK
  8
LAYER_2
  2
AIGNBL0201011A
 70
64
 10
0
 20
0
 30
0
  3
AIGNBL0201011A
  0
INSERT
  8
LAYER_2
  2
AIGNBL0202011B
 10
0
 20
0
 30
0
  0
INSERT
  8
LAYER_2
  2
AIGNBL0202011C
 10
0
 20
0
 30
0
  0
INSERT
  8
LAYER_2
  2
AIGNBL0202011D
 10
0
 20
0
 30
0
  0
INSERT
  8
LAYER_2
  2
AIGNBL0202011E
 10
0
 20
0
 30
0
  0
INSERT
  8
LAYER_2
  2
AIGNBL0202011F
 10
0
 20
0
 30
0
  0
INSERT
  8
LAYER_2
  2
AIGNBL02020120
 10
0
 20
0
 30
0
  0
INSERT
  8
LAYER_2
  2
AIGNBL02020121
 10
0
 20
0
 30
0
  0
INSERT
  8
LAYER_2
  2
AIGNBL02020122
 10
0
 20
0
 30
0
  0
INSERT
  8
LAYER_2
  2
AIGNBL02020123
 10
0
 20
0
 30
0
  0
INSERT
  8
LAYER_2
  2
AIGNBL02020124
 10
0
 20
0
 30
0
  0
INSERT
  8
LAYER_2
  2
AIGNBL02020125
 10
0
 20
0
 30
0
  0
INSERT
  8
LAYER_2
  2
AIGNBL02020126
 10
0
 20
0
 30
0
  0
INSERT
  8
LAYER_2
  2
AIGNBL02020127
 10
0
 20
0
 30
0
  0
INSERT
  8
LAYER_2
  2
AIGNBL02020128
 10
0
 20
0
 30
0
  0
INSERT
  8
LAYER_2
  2
AIGNBL02020129
 10
0
 20
0
 30
0
  0
INSERT
  8
LAYER_2
  2
AIGNBL0202012A
 10
0
 20
0
 30
0
  0
INSERT
  8
LAYER_2
  2
AIGNBL0202012B
 10
0
 20
0
 30
0
  0
INSERT
  8
LAYER_2
  2
AIGNBL0202012C
 10
0
 20
0
 30
0
  0
INSERT
  8
LAYER_2
  2
AIGNBL0202012D
 10
0
 20
0
 30
0
  0
INSERT
  8
LAYER_2
  2
AIGNBL0202012E
 10
0
 20
0
 30
0
  0
INSERT
  8
LAYER_2
  2
AIGNBL0202012F
 10
0
 20
0
 30
0
  0
INSERT
  8
LAYER_2
  2
AIGNBL02020130
 10
0
 20
0
 30
0
  0
INSERT
  8
LAYER_2
  2
AIGNBL02020131
 10
0
 20
0
 30
0
  0
INSERT
  8
LAYER_2
  2
AIGNBL02020132
 10
0
 20
0
 30
0
  0
INSERT
  8
LAYER_2
  2
AIGNBL02020133
 10
0
 20
0
 30
0
  0
INSERT
  8
LAYER_2
  2
AIGNBL02020134
 10
0
 20
0
 30
0
  0
INSERT
  8
LAYER_2
  2
AIGNBL02020135
 10
0
 20
0
 30
0
  0
INSERT
  8
LAYER_2
  2
AIGNBL02020136
 10
0
 20
0
 30
0
  0
INSERT
  8
LAYER_2
  2
AIGNBL02020137
 10
0
 20
0
 30
0
  0
INSERT
  8
LAYER_2
  2
AIGNBL02020138
 10
0
 20
0
 30
0
  0
INSERT
  8
LAYER_2
  2
AIGNBL02020139
 10
0
 20
0
 30
0
  0
INSERT
  8
LAYER_2
  2
AIGNBL0202013A
 10
0
 20
0
 30
0
  0
INSERT
  8
LAYER_2
  2
AIGNBL0202013B
 10
0
 20
0
 30
0
  0
LINE
  8
LAYER_2
  6
AIGENLINE001
 10
32.6654
 20
147.5303
 11
33.6611
 21
152.2147
  0
INSERT
  8
LAYER_2
  2
AIGNBL0202013C
 10
0
 20
0
 30
0
  0
INSERT
  8
LAYER_2
  2
AIGNBL0202013D
 10
0
 20
0
 30
0
  0
INSERT
  8
LAYER_2
  2
AIGNBL0202013E
 10
0
 20
0
 30
0
  0
INSERT
  8
LAYER_2
  2
AIGNBL0202013F
 10
0
 20
0
 30
0
  0
INSERT
  8
LAYER_2
  2
AIGNBL02020140
 10
0
 20
0
 30
0
  0
INSERT
  8
LAYER_2
  2
AIGNBL02020141
 10
0
 20
0
 30
0
  0
INSERT
  8
LAYER_2
  2
AIGNBL02020142
 10
0
 20
0
 30
0
  0
INSERT
  8
LAYER_2
  2
AIGNBL02020143
 10
0
 20
0
 30
0
  0
INSERT
  8
LAYER_2
  2
AIGNBL02020144
 10
0
 20
0
 30
0
  0
INSERT
  8
LAYER_2
  2
AIGNBL02020145
 10
0
 20
0
 30
0
  0
INSERT
  8
LAYER_2
  2
AIGNBL02020146
 10
0
 20
0
 30
0
  0
INSERT
  8
LAYER_2
  2
AIGNBL02020147
 10
0
 20
0
 30
0
  0
INSERT
  8
LAYER_2
  2
AIGNBL02020148
 10
0
 20
0
 30
0
  0
INSERT
  8
LAYER_2
  2
AIGNBL02020149
 10
0
 20
0
 30
0
  0
INSERT
  8
LAYER_2
  2
AIGNBL0202014A
 10
0
 20
0
 30
0
  0
INSERT
  8
LAYER_2
  2
AIGNBL0202014B
 10
0
 20
0
 30
0
  0
INSERT
  8
LAYER_2
  2
AIGNBL0202014C
 10
0
 20
0
 30
0
  0
INSERT
  8
LAYER_2
  2
AIGNBL0202014D
 10
0
 20
0
 30
0
  0
INSERT
  8
LAYER_2
  2
AIGNBL0202014E
 10
0
 20
0
 30
0
  0
INSERT
  8
LAYER_2
  2
AIGNBL0202014F
 10
0
 20
0
 30
0
  0
INSERT
  8
LAYER_2
  2
AIGNBL02020150
 10
0
 20
0
 30
0
  0
INSERT
  8
LAYER_2
  2
AIGNBL02020151
 10
0
 20
0
 30
0
  0
INSERT
  8
LAYER_2
  2
AIGNBL02020152
 10
0
 20
0
 30
0
  0
INSERT
  8
LAYER_2
  2
AIGNBL02020153
 10
0
 20
0
 30
0
  0
INSERT
  8
LAYER_2
  2
AIGNBL02020154
 10
0
 20
0
 30
0
  0
INSERT
  8
LAYER_2
  2
AIGNBL02020155
 10
0
 20
0
 30
0
  0
ENDBLK
  0
BLOCK
  8
LAYER_2
  2
AIGNBL02010156
 70
64
 10
0
 20
0
 30
0
  3
AIGNBL02010156
  0
INSERT
  8
LAYER_2
  2
AIGNBL02020157
 10
0
 20
0
 30
0
  0
INSERT
  8
LAYER_2
  2
AIGNBL02020158
 10
0
 20
0
 30
0
  0
INSERT
  8
LAYER_2
  2
AIGNBL02020159
 10
0
 20
0
 30
0
  0
INSERT
  8
LAYER_2
  2
AIGNBL0202015A
 10
0
 20
0
 30
0
  0
INSERT
  8
LAYER_2
  2
AIGNBL0202015B
 10
0
 20
0
 30
0
  0
INSERT
  8
LAYER_2
  2
AIGNBL0202015C
 10
0
 20
0
 30
0
  0
INSERT
  8
LAYER_2
  2
AIGNBL0202015D
 10
0
 20
0
 30
0
  0
INSERT
  8
LAYER_2
  2
AIGNBL0202015E
 10
0
 20
0
 30
0
  0
INSERT
  8
LAYER_2
  2
AIGNBL0202015F
 10
0
 20
0
 30
0
  0
INSERT
  8
LAYER_2
  2
AIGNBL02020160
 10
0
 20
0
 30
0
  0
INSERT
  8
LAYER_2
  2
AIGNBL02020161
 10
0
 20
0
 30
0
  0
INSERT
  8
LAYER_2
  2
AIGNBL02020162
 10
0
 20
0
 30
0
  0
INSERT
  8
LAYER_2
  2
AIGNBL02020163
 10
0
 20
0
 30
0
  0
INSERT
  8
LAYER_2
  2
AIGNBL02020164
 10
0
 20
0
 30
0
  0
INSERT
  8
LAYER_2
  2
AIGNBL02020165
 10
0
 20
0
 30
0
  0
INSERT
  8
LAYER_2
  2
AIGNBL02020166
 10
0
 20
0
 30
0
  0
INSERT
  8
LAYER_2
  2
AIGNBL02020167
 10
0
 20
0
 30
0
  0
INSERT
  8
LAYER_2
  2
AIGNBL02020168
 10
0
 20
0
 30
0
  0
INSERT
  8
LAYER_2
  2
AIGNBL02020169
 10
0
 20
0
 30
0
  0
INSERT
  8
LAYER_2
  2
AIGNBL0202016A
 10
0
 20
0
 30
0
  0
INSERT
  8
LAYER_2
  2
AIGNBL0202016B
 10
0
 20
0
 30
0
  0
INSERT
  8
LAYER_2
  2
AIGNBL0202016C
 10
0
 20
0
 30
0
  0
INSERT
  8
LAYER_2
  2
AIGNBL0202016D
 10
0
 20
0
 30
0
  0
INSERT
  8
LAYER_2
  2
AIGNBL0202016E
 10
0
 20
0
 30
0
  0
INSERT
  8
LAYER_2
  2
AIGNBL0202016F
 10
0
 20
0
 30
0
  0
INSERT
  8
LAYER_2
  2
AIGNBL02020170
 10
0
 20
0
 30
0
  0
INSERT
  8
LAYER_2
  2
AIGNBL02020171
 10
0
 20
0
 30
0
  0
INSERT
  8
LAYER_2
  2
AIGNBL02020172
 10
0
 20
0
 30
0
  0
INSERT
  8
LAYER_2
  2
AIGNBL02020173
 10
0
 20
0
 30
0
  0
INSERT
  8
LAYER_2
  2
AIGNBL02020174
 10
0
 20
0
 30
0
  0
INSERT
  8
LAYER_2
  2
AIGNBL02020175
 10
0
 20
0
 30
0
  0
INSERT
  8
LAYER_2
  2
AIGNBL02020176
 10
0
 20
0
 30
0
  0
INSERT
  8
LAYER_2
  2
AIGNBL02020177
 10
0
 20
0
 30
0
  0
INSERT
  8
LAYER_2
  2
AIGNBL02020178
 10
0
 20
0
 30
0
  0
INSERT
  8
LAYER_2
  2
AIGNBL02020179
 10
0
 20
0
 30
0
  0
LINE
  8
LAYER_2
  6
AIGENLINE002
 10
-29.1154
 20
245.9714
 11
-42.3451
 21
248.3041
  0
ARC
  8
LAYER_2
  6
AIGENLINE002
 10
-42.388
 20
247.9951
 40
0.3119
 50
82.10033844
 51
166.530912
  0
LINE
  8
LAYER_2
  6
AIGENLINE002
 10
-42.6913
 20
248.0678
 11
-42.9104
 21
246.9064
  0
LINE
  8
LAYER_2
  6
AIGENLINE002
 10
-42.9104
 20
246.9064
 11
-43.1017
 21
245.7401
  0
ARC
  8
LAYER_2
  6
AIGENLINE002
 10
-42.7922
 20
245.7044
 40
0.3116
 50
173.4180758
 51
257.937019
  0
LINE
  8
LAYER_2
  6
AIGENLINE002
 10
-42.8573
 20
245.3997
 11
-29.6276
 21
243.067
  0
ENDBLK
  0
BLOCK
  8
LAYER_2
  2
AIGNBL0201017A
 70
64
 10
0
 20
0
 30
0
  3
AIGNBL0201017A
  0
INSERT
  8
LAYER_2
  2
AIGNBL0202017B
 10
0
 20
0
 30
0
  0
INSERT
  8
LAYER_2
  2
AIGNBL0202017C
 10
0
 20
0
 30
0
  0
INSERT
  8
LAYER_2
  2
AIGNBL0202017D
 10
0
 20
0
 30
0
  0
INSERT
  8
LAYER_2
  2
AIGNBL0202017E
 10
0
 20
0
 30
0
  0
INSERT
  8
LAYER_2
  2
AIGNBL0202017F
 10
0
 20
0
 30
0
  0
INSERT
  8
LAYER_2
  2
AIGNBL02020180
 10
0
 20
0
 30
0
  0
INSERT
  8
LAYER_2
  2
AIGNBL02020181
 10
0
 20
0
 30
0
  0
INSERT
  8
LAYER_2
  2
AIGNBL02020182
 10
0
 20
0
 30
0
  0
INSERT
  8
LAYER_2
  2
AIGNBL02020183
 10
0
 20
0
 30
0
  0
INSERT
  8
LAYER_2
  2
AIGNBL02020184
 10
0
 20
0
 30
0
  0
INSERT
  8
LAYER_2
  2
AIGNBL02020185
 10
0
 20
0
 30
0
  0
INSERT
  8
LAYER_2
  2
AIGNBL02020186
 10
0
 20
0
 30
0
  0
INSERT
  8
LAYER_2
  2
AIGNBL02020187
 10
0
 20
0
 30
0
  0
INSERT
  8
LAYER_2
  2
AIGNBL02020188
 10
0
 20
0
 30
0
  0
INSERT
  8
LAYER_2
  2
AIGNBL02020189
 10
0
 20
0
 30
0
  0
INSERT
  8
LAYER_2
  2
AIGNBL0202018A
 10
0
 20
0
 30
0
  0
INSERT
  8
LAYER_2
  2
AIGNBL0202018B
 10
0
 20
0
 30
0
  0
INSERT
  8
LAYER_2
  2
AIGNBL0202018C
 10
0
 20
0
 30
0
  0
INSERT
  8
LAYER_2
  2
AIGNBL0202018D
 10
0
 20
0
 30
0
  0
INSERT
  8
LAYER_2
  2
AIGNBL0202018E
 10
0
 20
0
 30
0
  0
INSERT
  8
LAYER_2
  2
AIGNBL0202018F
 10
0
 20
0
 30
0
  0
INSERT
  8
LAYER_2
  2
AIGNBL02020190
 10
0
 20
0
 30
0
  0
INSERT
  8
LAYER_2
  2
AIGNBL02020191
 10
0
 20
0
 30
0
  0
INSERT
  8
LAYER_2
  2
AIGNBL02020192
 10
0
 20
0
 30
0
  0
INSERT
  8
LAYER_2
  2
AIGNBL02020193
 10
0
 20
0
 30
0
  0
INSERT
  8
LAYER_2
  2
AIGNBL02020194
 10
0
 20
0
 30
0
  0
INSERT
  8
LAYER_2
  2
AIGNBL02020195
 10
0
 20
0
 30
0
  0
INSERT
  8
LAYER_2
  2
AIGNBL02020196
 10
0
 20
0
 30
0
  0
INSERT
  8
LAYER_2
  2
AIGNBL02020197
 10
0
 20
0
 30
0
  0
INSERT
  8
LAYER_2
  2
AIGNBL02020198
 10
0
 20
0
 30
0
  0
INSERT
  8
LAYER_2
  2
AIGNBL02020199
 10
0
 20
0
 30
0
  0
INSERT
  8
LAYER_2
  2
AIGNBL0202019A
 10
0
 20
0
 30
0
  0
INSERT
  8
LAYER_2
  2
AIGNBL0202019B
 10
0
 20
0
 30
0
  0
INSERT
  8
LAYER_2
  2
AIGNBL0202019C
 10
0
 20
0
 30
0
  0
INSERT
  8
LAYER_2
  2
AIGNBL0202019D
 10
0
 20
0
 30
0
  0
INSERT
  8
LAYER_2
  2
AIGNBL0202019E
 10
0
 20
0
 30
0
  0
INSERT
  8
LAYER_2
  2
AIGNBL0202019F
 10
0
 20
0
 30
0
  0
INSERT
  8
LAYER_2
  2
AIGNBL020201A0
 10
0
 20
0
 30
0
  0
INSERT
  8
LAYER_2
  2
AIGNBL020201A1
 10
0
 20
0
 30
0
  0
INSERT
  8
LAYER_2
  2
AIGNBL020201A2
 10
0
 20
0
 30
0
  0
INSERT
  8
LAYER_2
  2
AIGNBL020201A3
 10
0
 20
0
 30
0
  0
INSERT
  8
LAYER_2
  2
AIGNBL020201A4
 10
0
 20
0
 30
0
  0
INSERT
  8
LAYER_2
  2
AIGNBL020201A5
 10
0
 20
0
 30
0
  0
INSERT
  8
LAYER_2
  2
AIGNBL020201A6
 10
0
 20
0
 30
0
  0
INSERT
  8
LAYER_2
  2
AIGNBL020201A7
 10
0
 20
0
 30
0
  0
INSERT
  8
LAYER_2
  2
AIGNBL020201A8
 10
0
 20
0
 30
0
  0
INSERT
  8
LAYER_2
  2
AIGNBL020201A9
 10
0
 20
0
 30
0
  0
INSERT
  8
LAYER_2
  2
AIGNBL020201AA
 10
0
 20
0
 30
0
  0
INSERT
  8
LAYER_2
  2
AIGNBL020201AB
 10
0
 20
0
 30
0
  0
INSERT
  8
LAYER_2
  2
AIGNBL020201AC
 10
0
 20
0
 30
0
  0
INSERT
  8
LAYER_2
  2
AIGNBL020201AD
 10
0
 20
0
 30
0
  0
INSERT
  8
LAYER_2
  2
AIGNBL020201AE
 10
0
 20
0
 30
0
  0
INSERT
  8
LAYER_2
  2
AIGNBL020201AF
 10
0
 20
0
 30
0
  0
INSERT
  8
LAYER_2
  2
AIGNBL020201B0
 10
0
 20
0
 30
0
  0
INSERT
  8
LAYER_2
  2
AIGNBL020201B1
 10
0
 20
0
 30
0
  0
INSERT
  8
LAYER_2
  2
AIGNBL020201B2
 10
0
 20
0
 30
0
  0
INSERT
  8
LAYER_2
  2
AIGNBL020201B3
 10
0
 20
0
 30
0
  0
INSERT
  8
LAYER_2
  2
AIGNBL020201B4
 10
0
 20
0
 30
0
  0
INSERT
  8
LAYER_2
  2
AIGNBL020201B5
 10
0
 20
0
 30
0
  0
INSERT
  8
LAYER_2
  2
AIGNBL020201B6
 10
0
 20
0
 30
0
  0
INSERT
  8
LAYER_2
  2
AIGNBL020201B7
 10
0
 20
0
 30
0
  0
INSERT
  8
LAYER_2
  2
AIGNBL020201B8
 10
0
 20
0
 30
0
  0
INSERT
  8
LAYER_2
  2
AIGNBL020201B9
 10
0
 20
0
 30
0
  0
INSERT
  8
LAYER_2
  2
AIGNBL020201BA
 10
0
 20
0
 30
0
  0
INSERT
  8
LAYER_2
  2
AIGNBL020201BB
 10
0
 20
0
 30
0
  0
INSERT
  8
LAYER_2
  2
AIGNBL020201BC
 10
0
 20
0
 30
0
  0
INSERT
  8
LAYER_2
  2
AIGNBL020201BD
 10
0
 20
0
 30
0
  0
INSERT
  8
LAYER_2
  2
AIGNBL020201BE
 10
0
 20
0
 30
0
  0
INSERT
  8
LAYER_2
  2
AIGNBL020201BF
 10
0
 20
0
 30
0
  0
INSERT
  8
LAYER_2
  2
AIGNBL020201C0
 10
0
 20
0
 30
0
  0
INSERT
  8
LAYER_2
  2
AIGNBL020201C1
 10
0
 20
0
 30
0
  0
INSERT
  8
LAYER_2
  2
AIGNBL020201C2
 10
0
 20
0
 30
0
  0
INSERT
  8
LAYER_2
  2
AIGNBL020201C3
 10
0
 20
0
 30
0
  0
INSERT
  8
LAYER_2
  2
AIGNBL020201C4
 10
0
 20
0
 30
0
  0
INSERT
  8
LAYER_2
  2
AIGNBL020201C5
 10
0
 20
0
 30
0
  0
INSERT
  8
LAYER_2
  2
AIGNBL020201C6
 10
0
 20
0
 30
0
  0
INSERT
  8
LAYER_2
  2
AIGNBL020201C7
 10
0
 20
0
 30
0
  0
INSERT
  8
LAYER_2
  2
AIGNBL020201C8
 10
0
 20
0
 30
0
  0
INSERT
  8
LAYER_2
  2
AIGNBL020201C9
 10
0
 20
0
 30
0
  0
INSERT
  8
LAYER_2
  2
AIGNBL020201CA
 10
0
 20
0
 30
0
  0
INSERT
  8
LAYER_2
  2
AIGNBL020201CB
 10
0
 20
0
 30
0
  0
INSERT
  8
LAYER_2
  2
AIGNBL020201CC
 10
0
 20
0
 30
0
  0
INSERT
  8
LAYER_2
  2
AIGNBL020201CD
 10
0
 20
0
 30
0
  0
INSERT
  8
LAYER_2
  2
AIGNBL020201CE
 10
0
 20
0
 30
0
  0
INSERT
  8
LAYER_2
  2
AIGNBL020201CF
 10
0
 20
0
 30
0
  0
INSERT
  8
LAYER_2
  2
AIGNBL020201D0
 10
0
 20
0
 30
0
  0
INSERT
  8
LAYER_2
  2
AIGNBL020201D1
 10
0
 20
0
 30
0
  0
INSERT
  8
LAYER_2
  2
AIGNBL020201D2
 10
0
 20
0
 30
0
  0
INSERT
  8
LAYER_2
  2
AIGNBL020201D3
 10
0
 20
0
 30
0
  0
INSERT
  8
LAYER_2
  2
AIGNBL020201D4
 10
0
 20
0
 30
0
  0
INSERT
  8
LAYER_2
  2
AIGNBL020201D5
 10
0
 20
0
 30
0
  0
ENDBLK
  0
BLOCK
  8
LAYER_2
  2
AIGNBL020101D6
 70
64
 10
0
 20
0
 30
0
  3
AIGNBL020101D6
  0
INSERT
  8
LAYER_2
  2
AIGNBL020201D7
 10
0
 20
0
 30
0
  0
INSERT
  8
LAYER_2
  2
AIGNBL020201D8
 10
0
 20
0
 30
0
  0
INSERT
  8
LAYER_2
  2
AIGNBL020201D9
 10
0
 20
0
 30
0
  0
INSERT
  8
LAYER_2
  2
AIGNBL020201DA
 10
0
 20
0
 30
0
  0
INSERT
  8
LAYER_2
  2
AIGNBL020201DB
 10
0
 20
0
 30
0
  0
INSERT
  8
LAYER_2
  2
AIGNBL020201DC
 10
0
 20
0
 30
0
  0
INSERT
  8
LAYER_2
  2
AIGNBL020201DD
 10
0
 20
0
 30
0
  0
INSERT
  8
LAYER_2
  2
AIGNBL020201DE
 10
0
 20
0
 30
0
  0
INSERT
  8
LAYER_2
  2
AIGNBL020201DF
 10
0
 20
0
 30
0
  0
INSERT
  8
LAYER_2
  2
AIGNBL020201E0
 10
0
 20
0
 30
0
  0
INSERT
  8
LAYER_2
  2
AIGNBL020201E1
 10
0
 20
0
 30
0
  0
INSERT
  8
LAYER_2
  2
AIGNBL020201E2
 10
0
 20
0
 30
0
  0
INSERT
  8
LAYER_2
  2
AIGNBL020201E3
 10
0
 20
0
 30
0
  0
INSERT
  8
LAYER_2
  2
AIGNBL020201E4
 10
0
 20
0
 30
0
  0
INSERT
  8
LAYER_2
  2
AIGNBL020201E5
 10
0
 20
0
 30
0
  0
INSERT
  8
LAYER_2
  2
AIGNBL020201E6
 10
0
 20
0
 30
0
  0
INSERT
  8
LAYER_2
  2
AIGNBL020201E7
 10
0
 20
0
 30
0
  0
INSERT
  8
LAYER_2
  2
AIGNBL020201E8
 10
0
 20
0
 30
0
  0
INSERT
  8
LAYER_2
  2
AIGNBL020201E9
 10
0
 20
0
 30
0
  0
INSERT
  8
LAYER_2
  2
AIGNBL020201EA
 10
0
 20
0
 30
0
  0
INSERT
  8
LAYER_2
  2
AIGNBL020201EB
 10
0
 20
0
 30
0
  0
INSERT
  8
LAYER_2
  2
AIGNBL020201EC
 10
0
 20
0
 30
0
  0
INSERT
  8
LAYER_2
  2
AIGNBL020201ED
 10
0
 20
0
 30
0
  0
INSERT
  8
LAYER_2
  2
AIGNBL020201EE
 10
0
 20
0
 30
0
  0
INSERT
  8
LAYER_2
  2
AIGNBL020201EF
 10
0
 20
0
 30
0
  0
INSERT
  8
LAYER_2
  2
AIGNBL020201F0
 10
0
 20
0
 30
0
  0
INSERT
  8
LAYER_2
  2
AIGNBL020201F1
 10
0
 20
0
 30
0
  0
INSERT
  8
LAYER_2
  2
AIGNBL020201F2
 10
0
 20
0
 30
0
  0
INSERT
  8
LAYER_2
  2
AIGNBL020201F3
 10
0
 20
0
 30
0
  0
INSERT
  8
LAYER_2
  2
AIGNBL020201F4
 10
0
 20
0
 30
0
  0
INSERT
  8
LAYER_2
  2
AIGNBL020201F5
 10
0
 20
0
 30
0
  0
INSERT
  8
LAYER_2
  2
AIGNBL020201F6
 10
0
 20
0
 30
0
  0
INSERT
  8
LAYER_2
  2
AIGNBL020201F7
 10
0
 20
0
 30
0
  0
INSERT
  8
LAYER_2
  2
AIGNBL020201F8
 10
0
 20
0
 30
0
  0
INSERT
  8
LAYER_2
  2
AIGNBL020201F9
 10
0
 20
0
 30
0
  0
INSERT
  8
LAYER_2
  2
AIGNBL020201FA
 10
0
 20
0
 30
0
  0
INSERT
  8
LAYER_2
  2
AIGNBL020201FB
 10
0
 20
0
 30
0
  0
INSERT
  8
LAYER_2
  2
AIGNBL020201FC
 10
0
 20
0
 30
0
  0
INSERT
  8
LAYER_2
  2
AIGNBL020201FD
 10
0
 20
0
 30
0
  0
INSERT
  8
LAYER_2
  2
AIGNBL020201FE
 10
0
 20
0
 30
0
  0
INSERT
  8
LAYER_2
  2
AIGNBL020201FF
 10
0
 20
0
 30
0
  0
INSERT
  8
LAYER_2
  2
AIGNBL02020200
 10
0
 20
0
 30
0
  0
INSERT
  8
LAYER_2
  2
AIGNBL02020201
 10
0
 20
0
 30
0
  0
INSERT
  8
LAYER_2
  2
AIGNBL02020202
 10
0
 20
0
 30
0
  0
INSERT
  8
LAYER_2
  2
AIGNBL02020203
 10
0
 20
0
 30
0
  0
INSERT
  8
LAYER_2
  2
AIGNBL02020204
 10
0
 20
0
 30
0
  0
INSERT
  8
LAYER_2
  2
AIGNBL02020205
 10
0
 20
0
 30
0
  0
INSERT
  8
LAYER_2
  2
AIGNBL02020206
 10
0
 20
0
 30
0
  0
INSERT
  8
LAYER_2
  2
AIGNBL02020207
 10
0
 20
0
 30
0
  0
INSERT
  8
LAYER_2
  2
AIGNBL02020208
 10
0
 20
0
 30
0
  0
INSERT
  8
LAYER_2
  2
AIGNBL02020209
 10
0
 20
0
 30
0
  0
INSERT
  8
LAYER_2
  2
AIGNBL0202020A
 10
0
 20
0
 30
0
  0
INSERT
  8
LAYER_2
  2
AIGNBL0202020B
 10
0
 20
0
 30
0
  0
INSERT
  8
LAYER_2
  2
AIGNBL0202020C
 10
0
 20
0
 30
0
  0
INSERT
  8
LAYER_2
  2
AIGNBL0202020D
 10
0
 20
0
 30
0
  0
INSERT
  8
LAYER_2
  2
AIGNBL0202020E
 10
0
 20
0
 30
0
  0
INSERT
  8
LAYER_2
  2
AIGNBL0202020F
 10
0
 20
0
 30
0
  0
INSERT
  8
LAYER_2
  2
AIGNBL02020210
 10
0
 20
0
 30
0
  0
INSERT
  8
LAYER_2
  2
AIGNBL02020211
 10
0
 20
0
 30
0
  0
INSERT
  8
LAYER_2
  2
AIGNBL02020212
 10
0
 20
0
 30
0
  0
INSERT
  8
LAYER_2
  2
AIGNBL02020213
 10
0
 20
0
 30
0
  0
INSERT
  8
LAYER_2
  2
AIGNBL02020214
 10
0
 20
0
 30
0
  0
INSERT
  8
LAYER_2
  2
AIGNBL02020215
 10
0
 20
0
 30
0
  0
INSERT
  8
LAYER_2
  2
AIGNBL02020216
 10
0
 20
0
 30
0
  0
INSERT
  8
LAYER_2
  2
AIGNBL02020217
 10
0
 20
0
 30
0
  0
INSERT
  8
LAYER_2
  2
AIGNBL02020218
 10
0
 20
0
 30
0
  0
INSERT
  8
LAYER_2
  2
AIGNBL02020219
 10
0
 20
0
 30
0
  0
INSERT
  8
LAYER_2
  2
AIGNBL0202021A
 10
0
 20
0
 30
0
  0
INSERT
  8
LAYER_2
  2
AIGNBL0202021B
 10
0
 20
0
 30
0
  0
INSERT
  8
LAYER_2
  2
AIGNBL0202021C
 10
0
 20
0
 30
0
  0
INSERT
  8
LAYER_2
  2
AIGNBL0202021D
 10
0
 20
0
 30
0
  0
INSERT
  8
LAYER_2
  2
AIGNBL0202021E
 10
0
 20
0
 30
0
  0
INSERT
  8
LAYER_2
  2
AIGNBL0202021F
 10
0
 20
0
 30
0
  0
INSERT
  8
LAYER_2
  2
AIGNBL02020220
 10
0
 20
0
 30
0
  0
INSERT
  8
LAYER_2
  2
AIGNBL02020221
 10
0
 20
0
 30
0
  0
INSERT
  8
LAYER_2
  2
AIGNBL02020222
 10
0
 20
0
 30
0
  0
INSERT
  8
LAYER_2
  2
AIGNBL02020223
 10
0
 20
0
 30
0
  0
INSERT
  8
LAYER_2
  2
AIGNBL02020224
 10
0
 20
0
 30
0
  0
INSERT
  8
LAYER_2
  2
AIGNBL02020225
 10
0
 20
0
 30
0
  0
INSERT
  8
LAYER_2
  2
AIGNBL02020226
 10
0
 20
0
 30
0
  0
INSERT
  8
LAYER_2
  2
AIGNBL02020227
 10
0
 20
0
 30
0
  0
INSERT
  8
LAYER_2
  2
AIGNBL02020228
 10
0
 20
0
 30
0
  0
INSERT
  8
LAYER_2
  2
AIGNBL02020229
 10
0
 20
0
 30
0
  0
INSERT
  8
LAYER_2
  2
AIGNBL0202022A
 10
0
 20
0
 30
0
  0
INSERT
  8
LAYER_2
  2
AIGNBL0202022B
 10
0
 20
0
 30
0
  0
INSERT
  8
LAYER_2
  2
AIGNBL0202022C
 10
0
 20
0
 30
0
  0
INSERT
  8
LAYER_2
  2
AIGNBL0202022D
 10
0
 20
0
 30
0
  0
INSERT
  8
LAYER_2
  2
AIGNBL0202022E
 10
0
 20
0
 30
0
  0
INSERT
  8
LAYER_2
  2
AIGNBL0202022F
 10
0
 20
0
 30
0
  0
INSERT
  8
LAYER_2
  2
AIGNBL02020230
 10
0
 20
0
 30
0
  0
INSERT
  8
LAYER_2
  2
AIGNBL02020231
 10
0
 20
0
 30
0
  0
INSERT
  8
LAYER_2
  2
AIGNBL02020232
 10
0
 20
0
 30
0
  0
INSERT
  8
LAYER_2
  2
AIGNBL02020233
 10
0
 20
0
 30
0
  0
INSERT
  8
LAYER_2
  2
AIGNBL02020234
 10
0
 20
0
 30
0
  0
INSERT
  8
LAYER_2
  2
AIGNBL02020235
 10
0
 20
0
 30
0
  0
INSERT
  8
LAYER_2
  2
AIGNBL02020236
 10
0
 20
0
 30
0
  0
INSERT
  8
LAYER_2
  2
AIGNBL02020237
 10
0
 20
0
 30
0
  0
INSERT
  8
LAYER_2
  2
AIGNBL02020238
 10
0
 20
0
 30
0
  0
INSERT
  8
LAYER_2
  2
AIGNBL02020239
 10
0
 20
0
 30
0
  0
INSERT
  8
LAYER_2
  2
AIGNBL0202023A
 10
0
 20
0
 30
0
  0
INSERT
  8
LAYER_2
  2
AIGNBL0202023B
 10
0
 20
0
 30
0
  0
INSERT
  8
LAYER_2
  2
AIGNBL0202023C
 10
0
 20
0
 30
0
  0
INSERT
  8
LAYER_2
  2
AIGNBL0202023D
 10
0
 20
0
 30
0
  0
INSERT
  8
LAYER_2
  2
AIGNBL0202023E
 10
0
 20
0
 30
0
  0
INSERT
  8
LAYER_2
  2
AIGNBL0202023F
 10
0
 20
0
 30
0
  0
INSERT
  8
LAYER_2
  2
AIGNBL02020240
 10
0
 20
0
 30
0
  0
INSERT
  8
LAYER_2
  2
AIGNBL02020241
 10
0
 20
0
 30
0
  0
INSERT
  8
LAYER_2
  2
AIGNBL02020242
 10
0
 20
0
 30
0
  0
INSERT
  8
LAYER_2
  2
AIGNBL02020243
 10
0
 20
0
 30
0
  0
INSERT
  8
LAYER_2
  2
AIGNBL02020244
 10
0
 20
0
 30
0
  0
INSERT
  8
LAYER_2
  2
AIGNBL02020245
 10
0
 20
0
 30
0
  0
INSERT
  8
LAYER_2
  2
AIGNBL02020246
 10
0
 20
0
 30
0
  0
INSERT
  8
LAYER_2
  2
AIGNBL02020247
 10
0
 20
0
 30
0
  0
INSERT
  8
LAYER_2
  2
AIGNBL02020248
 10
0
 20
0
 30
0
  0
INSERT
  8
LAYER_2
  2
AIGNBL02020249
 10
0
 20
0
 30
0
  0
INSERT
  8
LAYER_2
  2
AIGNBL0202024A
 10
0
 20
0
 30
0
  0
INSERT
  8
LAYER_2
  2
AIGNBL0202024B
 10
0
 20
0
 30
0
  0
INSERT
  8
LAYER_2
  2
AIGNBL0202024C
 10
0
 20
0
 30
0
  0
INSERT
  8
LAYER_2
  2
AIGNBL0202024D
 10
0
 20
0
 30
0
  0
INSERT
  8
LAYER_2
  2
AIGNBL0202024E
 10
0
 20
0
 30
0
  0
INSERT
  8
LAYER_2
  2
AIGNBL0202024F
 10
0
 20
0
 30
0
  0
ENDBLK
  0
BLOCK
  8
LAYER_3
  2
AIGNBL03010002
 70
64
 10
0
 20
0
 30
0
  3
AIGNBL03010002
  0
ARC
  8
LAYER_3
 10
181.2361
 20
51.0518
 40
2.085
 50
359.9990616
 51
90.00093841
  0
ARC
  8
LAYER_3
 10
181.2364
 20
51.0522
 40
2.0846
 50
90.00927268
 51
180.0099666
  0
ARC
  8
LAYER_3
 10
181.2361
 20
51.0519
 40
2.0843
 50
180.0023133
 51
270.0004358
  0
ARC
  8
LAYER_3
 10
181.2365
 20
51.0522
 40
2.0846
 50
269.9893525
 51
359.9886593
  0
ARC
  8
LAYER_3
 10
181.2365
 20
51.0515
 40
1.2199
 50
0.01483428533
 51
90.01804168
  0
ARC
  8
LAYER_3
 10
181.2361
 20
51.0519
 40
1.2195
 50
90.00175626
 51
180.0029419
  0
ARC
  8
LAYER_3
 10
181.2361
 20
51.0518
 40
1.2195
 50
180.0016044
 51
269.9983956
  0
ARC
  8
LAYER_3
 10
181.2365
 20
51.0522
 40
1.2199
 50
269.9818051
 51
359.9806209
  0
LINE
  8
LAYER_3
 10
184.9472
 20
49.8323
 11
184.9472
 21
52.2714
  0
LINE
  8
LAYER_3
 10
190.1252
 20
48.9676
 11
190.1252
 21
53.1368
  0
LINE
  8
LAYER_3
 10
184.9472
 20
52.2714
 11
190.1252
 21
53.1368
  0
LINE
  8
LAYER_3
 10
184.9472
 20
49.8323
 11
190.1252
 21
48.9676
  0
LINE
  8
LAYER_3
 10
181.2361
 20
51.0518
 11
181.2361
 21
50.8004
  0
LINE
  8
LAYER_3
 10
181.2361
 20
50.5599
 11
181.2361
 21
48.3729
  0
LINE
  8
LAYER_3
 10
181.2361
 20
51.0518
 11
181.4883
 21
51.0518
  0
LINE
  8
LAYER_3
 10
181.7288
 20
51.0518
 11
183.9157
 21
51.0518
  0
LINE
  8
LAYER_3
 10
181.2361
 20
51.0518
 11
181.2361
 21
51.304
  0
LINE
  8
LAYER_3
 10
181.2361
 20
51.5445
 11
181.2361
 21
53.7314
  0
LINE
  8
LAYER_3
 10
181.2361
 20
51.0518
 11
180.9846
 21
51.0518
  0
LINE
  8
LAYER_3
 10
180.7442
 20
51.0518
 11
178.5572
 21
51.0518
  0
LINE
  8
LAYER_3
 10
187.1404
 20
51.0518
 11
187.3925
 21
51.0518
  0
LINE
  8
LAYER_3
 10
187.633
 20
51.0518
 11
190.5579
 21
51.0518
  0
LINE
  8
LAYER_3
 10
187.1404
 20
51.0518
 11
186.8882
 21
51.0518
  0
LINE
  8
LAYER_3
 10
186.6477
 20
51.0518
 11
184.4614
 21
51.0518
  0
ENDBLK
  0
ENDSEC
  0
SECTION
  2
ENTITIES
  0
TEXT
  8
LAYER_1
 10
21.3201
 20
92.682
 11
21.3201
 21
92.682
 40
3.0923
 41
0.5
 50
89.99999999
 72
1
  1
485
  0
TEXT
  8
LAYER_1
 10
51.4565
 20
117.8343
 11
51.4565
 21
117.8343
 40
3.0923
 41
0.5
 50
89.99999999
 72
2
  1
max.45
  0
TEXT
  8
LAYER_1
 10
35.3334
 20
59.8413
 11
35.3334
 21
59.8413
 40
3.0923
 41
0.5
  1
PF 3/8
  0
TEXT
  8
LAYER_1
 10
43.7786
 20
160.8934
 11
43.7786
 21
160.8934
 40
3.0923
 41
0.5
 72
2
  1
閉
  0
TEXT
  8
LAYER_1
 10
50.6603
 20
174.1913
 11
50.6603
 21
174.1913
 40
3.0923
 41
0.5
 72
2
  1
開
  0
TEXT
  8
LAYER_1
 10
29.8036
 20
133.237
 11
29.8036
 21
133.237
 40
3.0923
 41
0.5
 72
1
  1
12%%d%%p}10%%d
  0
TEXT
  8
LAYER_1
 10
48.6203
 20
138.355
 11
48.6203
 21
138.355
 40
3.0923
 41
0.5
 72
1
  1
125
  0
TEXT
  8
LAYER_1
 10
80.4781
 20
141.5872
 11
80.4781
 21
141.5872
 40
3.0923
 41
0.5
 50
89.99999999
 72
1
  1
188
  0
TEXT
  8
LAYER_1
 10
21.3131
 20
133.4692
 11
21.3131
 21
133.4692
 40
3.0923
 41
0.5
 50
89.99999999
 72
1
  1
123
  0
TEXT
  8
LAYER_1
 10
13.8276
 20
145.5946
 11
13.8276
 21
145.5946
 40
3.0923
 41
0.5
 50
89.99999999
 72
1
  1
219
  0
TEXT
  8
LAYER_1
 10
-10.2745
 20
61.7399
 11
-10.2745
 21
61.7399
 40
3.0923
 41
0.5
 72
1
  1
水側
  0
TEXT
  8
LAYER_1
 10
-36.0967
 20
61.7399
 11
-36.0967
 21
61.7399
 40
3.0923
 41
0.5
 72
1
  1
湯側
  0
TEXT
  8
LAYER_1
 10
-23.9803
 20
130.5391
 11
-23.9803
 21
130.5391
 40
3.0923
 41
0.5
 72
1
  1
%%c40
  0
TEXT
  8
LAYER_1
 10
-23.9937
 20
125.388
 11
-23.9937
 21
125.388
 40
3.0923
 41
0.5
 72
1
  1
%%c48
  0
TEXT
  8
LAYER_1
 10
-35.1958
 20
114.5243
 11
-35.1958
 21
114.5243
 40
3.0923
 41
0.5
  1
M33
  0
TEXT
  8
LAYER_1
 10
-48.6453
 20
246.8669
 11
-48.6453
 21
246.8669
 40
3.0923
 41
0.5
 72
2
  1
湯
  0
TEXT
  8
LAYER_1
 10
-41.0676
 20
223.9272
 11
-41.0676
 21
223.9272
 40
3.0923
 41
0.5
 72
2
  1
100%%d
  0
TEXT
  8
LAYER_1
 10
-19.6152
 20
217.4334
 11
-19.6152
 21
217.4334
 40
3.0923
 41
0.5
  1
水
  0
TEXT
  8
LAYER_1
 10
64.2453
 20
230.7523
 11
64.2453
 21
230.7523
 40
3.0923
 41
0.5
 72
1
  1
水栓取付穴
  0
TEXT
  8
LAYER_1
 10
75.9969
 20
251.2465
 11
75.9969
 21
251.2465
 40
3.0923
 41
0.5
 72
2
  1
%%c35
  0
LINE
  8
LAYER_2
  6
AIGENLINE003
 10
-23.2148
 20
134.6034
 11
-23.2148
 21
167.8936
  0
LINE
  8
LAYER_2
  6
AIGENLINE003
 10
-15.2855
 20
243.4341
 11
-31.7142
 21
243.4341
  0
LINE
  8
LAYER_2
  6
AIGENLINE003
 10
-23.2148
 20
206.2324
 11
-23.2148
 21
252.2288
  0
LINE
  8
LAYER_2
  6
AIGENLINE003
 10
-44.5225
 20
247.1912
 11
-23.2148
 21
243.4341
  0
INSERT
  8
LAYER_2
  2
AIGNBL02010002
 10
0
 20
0
 30
0
  0
LINE
  8
LAYER_2
 10
81.2295
 20
118.2194
 11
81.2295
 21
165.1819
  0
LINE
  8
LAYER_2
 10
81.822
 20
162.9703
 11
81.2295
 21
165.1819
  0
LINE
  8
LAYER_2
 10
81.2295
 20
165.1819
 11
80.6369
 21
162.9703
  0
LINE
  8
LAYER_2
 10
80.6369
 20
162.9703
 11
81.822
 21
162.9703
  0
LINE
  8
LAYER_2
 10
80.6514
 20
120.4309
 11
81.244
 21
118.2194
  0
LINE
  8
LAYER_2
 10
81.244
 20
118.2194
 11
81.8365
 21
120.4309
  0
LINE
  8
LAYER_2
 10
81.8365
 20
120.4309
 11
80.6514
 21
120.4309
  0
LINE
  8
LAYER_2
 10
70.9604
 20
165.1819
 11
82.3746
 21
165.1819
  0
LINE
  8
LAYER_2
 10
22.0645
 20
118.2194
 11
22.0645
 21
148.9719
  0
LINE
  8
LAYER_2
 10
22.6571
 20
146.7603
 11
22.0645
 21
148.9719
  0
LINE
  8
LAYER_2
 10
22.0645
 20
148.9719
 11
21.472
 21
146.7603
  0
LINE
  8
LAYER_2
 10
21.472
 20
146.7603
 11
22.6571
 21
146.7603
  0
LINE
  8
LAYER_2
 10
21.4864
 20
120.4309
 11
22.079
 21
118.2194
  0
LINE
  8
LAYER_2
 10
22.079
 20
118.2194
 11
22.6715
 21
120.4309
  0
LINE
  8
LAYER_2
 10
22.6715
 20
120.4309
 11
21.4864
 21
120.4309
  0
LINE
  8
LAYER_2
 10
14.579
 20
118.2194
 11
14.579
 21
172.9694
  0
LINE
  8
LAYER_2
 10
15.1716
 20
170.7579
 11
14.579
 21
172.9694
  0
LINE
  8
LAYER_2
 10
14.579
 20
172.9694
 11
13.9865
 21
170.7579
  0
LINE
  8
LAYER_2
 10
13.9865
 20
170.7579
 11
15.1716
 21
170.7579
  0
LINE
  8
LAYER_2
 10
14.0009
 20
120.4309
 11
14.5935
 21
118.2194
  0
LINE
  8
LAYER_2
 10
14.5935
 20
118.2194
 11
15.1861
 21
120.4309
  0
LINE
  8
LAYER_2
 10
15.1861
 20
120.4309
 11
14.0009
 21
120.4309
  0
LINE
  8
LAYER_2
 10
21.3645
 20
148.9719
 11
31.1749
 21
148.9719
  0
LINE
  8
LAYER_2
 10
13.879
 20
172.9694
 11
48.0371
 21
172.9694
  0
INSERT
  8
LAYER_2
  2
AIGNBL02010003
 10
0
 20
0
 30
0
  0
LINE
  8
LAYER_2
  6
AIGENLINE003
 10
-23.2148
 20
100.3862
 11
-23.2148
 21
123.8053
  0
LINE
  8
LAYER_2
 10
-38.85
 20
67.4019
 11
-38.4001
 21
67.1525
  0
LINE
  8
LAYER_2
 10
-33.3496
 20
67.4019
 11
-33.7988
 21
67.1525
  0
LINE
  8
LAYER_2
 10
-37.6497
 20
70.4026
 11
-37.6497
 21
70.2779
  0
LINE
  8
LAYER_2
 10
-34.5492
 20
70.4026
 11
-34.5492
 21
70.2779
  0
LINE
  8
LAYER_2
 10
-37.525
 20
73.6533
 11
-37.525
 21
71.6531
  0
LINE
  8
LAYER_2
 10
-34.6494
 20
73.6533
 11
-34.6494
 21
71.6531
  0
LINE
  8
LAYER_2
 10
-37.525
 20
71.6531
 11
-37.7248
 21
71.228
  0
LINE
  8
LAYER_2
 10
-37.6997
 20
73.9531
 11
-37.525
 21
73.6533
  0
LINE
  8
LAYER_2
 10
-34.6494
 20
71.6531
 11
-34.474
 21
71.228
  0
LINE
  8
LAYER_2
 10
-34.474
 20
73.9531
 11
-34.6494
 21
73.6533
  0
LINE
  8
LAYER_2
 10
-33.7988
 20
70.2779
 11
-33.3496
 21
70.0277
  0
LINE
  8
LAYER_2
 10
-38.4001
 20
70.2779
 11
-38.85
 21
70.0277
  0
LINE
  8
LAYER_2
 10
-37.7744
 20
74.9039
 11
-37.7744
 21
74.2032
  0
LINE
  8
LAYER_2
 10
-34.3993
 20
74.9039
 11
-34.3993
 21
74.2032
  0
LINE
  8
LAYER_2
 10
-34.3993
 20
74.9039
 11
-37.7744
 21
74.9039
  0
LINE
  8
LAYER_2
 10
-34.4244
 20
74.0785
 11
-34.474
 21
73.9531
  0
LINE
  8
LAYER_2
 10
-34.3993
 20
74.2032
 11
-34.4244
 21
74.0785
  0
LINE
  8
LAYER_2
 10
-37.7744
 20
74.0785
 11
-37.6997
 21
73.9531
  0
LINE
  8
LAYER_2
 10
-37.7744
 20
74.2032
 11
-37.7744
 21
74.0785
  0
LINE
  8
LAYER_2
 10
-36.0994
 20
73.6533
 11
-37.525
 21
73.6533
  0
LINE
  8
LAYER_2
 10
-34.6494
 20
73.6533
 11
-36.0994
 21
73.6533
  0
LINE
  8
LAYER_2
 10
-34.6494
 20
71.6531
 11
-37.525
 21
71.6531
  0
LINE
  8
LAYER_2
 10
-34.4492
 20
71.228
 11
-34.4244
 21
71.053
  0
LINE
  8
LAYER_2
 10
-34.4244
 20
71.053
 11
-34.4244
 21
70.9028
  0
LINE
  8
LAYER_2
 10
-34.4244
 20
70.9028
 11
-34.4568
 21
70.8029
  0
ARC
  8
LAYER_2
 10
-34.9108
 20
70.9075
 40
0.4659
 50
296.3392614
 51
347.0205246
  0
ARC
  8
LAYER_2
 10
-35.1512
 20
71.2204
 40
0.8564
 50
292.4124751
 51
301.4737434
  0
LINE
  8
LAYER_2
 10
-34.8247
 20
70.4287
 11
-34.8495
 21
70.4287
  0
LINE
  8
LAYER_2
 10
-34.4492
 20
71.228
 11
-34.474
 21
71.228
  0
ARC
  8
LAYER_2
 10
-37.1302
 20
71.05
 40
0.6589
 50
202.0250572
 51
250.5489284
  0
LINE
  8
LAYER_2
 10
-37.741
 20
70.8029
 11
-37.7744
 21
70.9028
  0
LINE
  8
LAYER_2
 10
-37.7744
 20
70.9028
 11
-37.7744
 21
71.053
  0
LINE
  8
LAYER_2
 10
-37.7744
 20
71.053
 11
-37.7248
 21
71.228
  0
LINE
  8
LAYER_2
 10
-34.5492
 20
70.4026
 11
-37.6497
 21
70.4026
  0
LINE
  8
LAYER_2
 10
-33.7988
 20
70.2779
 11
-38.4001
 21
70.2779
  0
LINE
  8
LAYER_2
 10
-33.3496
 20
67.4019
 11
-33.7988
 21
67.1525
  0
LINE
  8
LAYER_2
 10
-38.85
 20
67.4019
 11
-38.4001
 21
67.1773
  0
LINE
  8
LAYER_2
 10
-38.7001
 20
67.3523
 11
-38.4001
 21
67.1773
  0
LINE
  8
LAYER_2
 10
-38.4001
 20
67.1773
 11
-38.4001
 21
67.1525
  0
LINE
  8
LAYER_2
 10
-36.0994
 20
67.1525
 11
-38.4001
 21
67.1525
  0
LINE
  8
LAYER_2
 10
-33.7988
 20
67.1525
 11
-36.0994
 21
67.1525
  0
LINE
  8
LAYER_2
 10
-34.8495
 20
70.4287
 11
-36.0994
 21
70.4287
  0
LINE
  8
LAYER_2
 10
-37.3496
 20
70.4287
 11
-36.0994
 21
70.4287
  0
ARC
  8
LAYER_2
 10
-36.0973
 20
65.9317
 40
4.3213
 50
90.0278332
 51
108.5831329
  0
ARC
  8
LAYER_2
 10
-36.1066
 20
65.8996
 40
4.3534
 50
71.48608529
 51
89.90560787
  0
ARC
  8
LAYER_2
 10
-36.1487
 20
71.6234
 40
4.4247
 50
252.5653742
 51
267.7290761
  0
LINE
  8
LAYER_2
 10
-36.324
 20
67.2021
 11
-35.8748
 21
67.2021
  0
ARC
  8
LAYER_2
 10
-36.2032
 20
72.5059
 40
5.314
 50
273.5426081
 51
286.1595835
  0
ARC
  8
LAYER_2
 10
-34.1339
 20
68.7912
 40
1.4643
 50
57.61476047
 51
86.68862693
  0
ARC
  8
LAYER_2
 10
-33.9468
 20
68.8225
 40
1.4342
 50
94.09790615
 51
122.822921
  0
ARC
  8
LAYER_2
 10
-33.9174
 20
68.8874
 40
1.6904
 50
241.4926281
 51
265.5252436
  0
ARC
  8
LAYER_2
 10
-34.1683
 20
68.944
 40
1.746
 50
273.909029
 51
297.9644578
  0
LINE
  8
LAYER_2
 10
-34.7242
 20
70.0277
 11
-34.7242
 21
67.4019
  0
LINE
  8
LAYER_2
 10
-33.3496
 20
70.0277
 11
-33.3496
 21
67.4019
  0
ARC
  8
LAYER_2
 10
-38.2038
 20
68.966
 40
1.2881
 50
55.50940282
 51
87.60543489
  0
ARC
  8
LAYER_2
 10
-38.0791
 20
68.8328
 40
1.422
 50
92.85604
 51
122.8262441
  0
ARC
  8
LAYER_2
 10
-38.0486
 20
68.8836
 40
1.6845
 50
241.5913513
 51
266.5481286
  0
ARC
  8
LAYER_2
 10
-38.24
 20
68.7485
 40
1.549
 50
273.3299831
 51
299.6198255
  0
LINE
  8
LAYER_2
 10
-37.4744
 20
70.0277
 11
-37.4744
 21
67.4019
  0
LINE
  8
LAYER_2
 10
-38.85
 20
70.0277
 11
-38.85
 21
67.4019
  0
LINE
  8
LAYER_2
  6
AIGENLINE003
 10
-36.0967
 20
96.9691
 11
-36.0967
 21
65.9401
  0
LINE
  8
LAYER_2
 10
-34.7841
 20
92.9603
 11
-34.7841
 21
74.9039
  0
LINE
  8
LAYER_2
 10
-37.4093
 20
74.9039
 11
-37.4093
 21
92.9603
  0
LINE
  8
LAYER_2
  6
AIGENLINE003
 10
-24.9425
 20
79.7016
 11
-36.0967
 21
96.9691
  0
LINE
  8
LAYER_2
 10
-7.5799
 20
67.4019
 11
-8.0298
 21
67.1525
  0
LINE
  8
LAYER_2
 10
-13.0803
 20
67.4019
 11
-12.6311
 21
67.1525
  0
LINE
  8
LAYER_2
 10
-8.7802
 20
70.4026
 11
-8.7802
 21
70.2779
  0
LINE
  8
LAYER_2
 10
-11.8807
 20
70.4026
 11
-11.8807
 21
70.2779
  0
LINE
  8
LAYER_2
 10
-8.9049
 20
73.6533
 11
-8.9049
 21
71.6531
  0
LINE
  8
LAYER_2
 10
-11.7805
 20
73.6533
 11
-11.7805
 21
71.6531
  0
LINE
  8
LAYER_2
 10
-8.9049
 20
71.6531
 11
-8.7051
 21
71.228
  0
LINE
  8
LAYER_2
 10
-8.7302
 20
73.9531
 11
-8.9049
 21
73.6533
  0
LINE
  8
LAYER_2
 10
-11.7805
 20
71.6531
 11
-11.9559
 21
71.228
  0
LINE
  8
LAYER_2
 10
-11.9559
 20
73.9531
 11
-11.7805
 21
73.6533
  0
LINE
  8
LAYER_2
 10
-12.6311
 20
70.2779
 11
-13.0803
 21
70.0277
  0
LINE
  8
LAYER_2
 10
-8.0298
 20
70.2779
 11
-7.5799
 21
70.0277
  0
LINE
  8
LAYER_2
 10
-8.6555
 20
74.9039
 11
-8.6555
 21
74.2032
  0
LINE
  8
LAYER_2
 10
-12.0306
 20
74.9039
 11
-12.0306
 21
74.2032
  0
LINE
  8
LAYER_2
 10
-12.0306
 20
74.9039
 11
-8.6555
 21
74.9039
  0
LINE
  8
LAYER_2
 10
-12.0055
 20
74.0785
 11
-11.9559
 21
73.9531
  0
LINE
  8
LAYER_2
 10
-12.0306
 20
74.2032
 11
-12.0055
 21
74.0785
  0
LINE
  8
LAYER_2
 10
-8.6555
 20
74.0785
 11
-8.7302
 21
73.9531
  0
LINE
  8
LAYER_2
 10
-8.6555
 20
74.2032
 11
-8.6555
 21
74.0785
  0
LINE
  8
LAYER_2
 10
-10.3305
 20
73.6533
 11
-8.9049
 21
73.6533
  0
LINE
  8
LAYER_2
 10
-11.7805
 20
73.6533
 11
-10.3305
 21
73.6533
  0
LINE
  8
LAYER_2
 10
-11.7805
 20
71.6531
 11
-8.9049
 21
71.6531
  0
LINE
  8
LAYER_2
 10
-11.9807
 20
71.228
 11
-12.0055
 21
71.053
  0
LINE
  8
LAYER_2
 10
-12.0055
 20
71.053
 11
-12.0055
 21
70.9028
  0
LINE
  8
LAYER_2
 10
-12.0055
 20
70.9028
 11
-11.9731
 21
70.8029
  0
ARC
  8
LAYER_2
 10
-11.5191
 20
70.9075
 40
0.4659
 50
192.9794755
 51
243.6607386
  0
ARC
  8
LAYER_2
 10
-11.2787
 20
71.2204
 40
0.8564
 50
238.5262566
 51
247.5875249
  0
LINE
  8
LAYER_2
 10
-11.6052
 20
70.4287
 11
-11.5804
 21
70.4287
  0
LINE
  8
LAYER_2
 10
-11.9807
 20
71.228
 11
-11.9559
 21
71.228
  0
ARC
  8
LAYER_2
 10
-9.2997
 20
71.05
 40
0.6589
 50
289.4510716
 51
337.9749428
  0
LINE
  8
LAYER_2
 10
-8.6889
 20
70.8029
 11
-8.6555
 21
70.9028
  0
LINE
  8
LAYER_2
 10
-8.6555
 20
70.9028
 11
-8.6555
 21
71.053
  0
LINE
  8
LAYER_2
 10
-8.6555
 20
71.053
 11
-8.7051
 21
71.228
  0
LINE
  8
LAYER_2
 10
-11.8807
 20
70.4026
 11
-8.7802
 21
70.4026
  0
LINE
  8
LAYER_2
 10
-12.6311
 20
70.2779
 11
-8.0298
 21
70.2779
  0
LINE
  8
LAYER_2
 10
-13.0803
 20
67.4019
 11
-12.6311
 21
67.1525
  0
LINE
  8
LAYER_2
 10
-7.5799
 20
67.4019
 11
-8.0298
 21
67.1773
  0
LINE
  8
LAYER_2
 10
-7.7297
 20
67.3523
 11
-8.0298
 21
67.1773
  0
LINE
  8
LAYER_2
 10
-8.0298
 20
67.1773
 11
-8.0298
 21
67.1525
  0
LINE
  8
LAYER_2
 10
-10.3305
 20
67.1525
 11
-8.0298
 21
67.1525
  0
LINE
  8
LAYER_2
 10
-12.6311
 20
67.1525
 11
-10.3305
 21
67.1525
  0
LINE
  8
LAYER_2
 10
-11.5804
 20
70.4287
 11
-10.3305
 21
70.4287
  0
LINE
  8
LAYER_2
 10
-9.0803
 20
70.4287
 11
-10.3305
 21
70.4287
  0
ARC
  8
LAYER_2
 10
-10.3326
 20
65.9317
 40
4.3213
 50
71.41686707
 51
89.97216678
  0
ARC
  8
LAYER_2
 10
-10.3233
 20
65.8996
 40
4.3534
 50
90.0943921
 51
108.5139147
  0
ARC
  8
LAYER_2
 10
-10.2811
 20
71.6225
 40
4.4239
 50
272.270876
 51
287.4363532
  0
LINE
  8
LAYER_2
 10
-10.1058
 20
67.2021
 11
-10.5551
 21
67.2021
  0
ARC
  8
LAYER_2
 10
-10.2267
 20
72.5059
 40
5.314
 50
253.8404165
 51
266.457392
  0
ARC
  8
LAYER_2
 10
-12.296
 20
68.7912
 40
1.4643
 50
93.31137305
 51
122.3852395
  0
ARC
  8
LAYER_2
 10
-12.4831
 20
68.8225
 40
1.4342
 50
57.17707893
 51
85.90209382
  0
ARC
  8
LAYER_2
 10
-12.5125
 20
68.8874
 40
1.6904
 50
274.4747564
 51
298.5073719
  0
ARC
  8
LAYER_2
 10
-12.2616
 20
68.944
 40
1.746
 50
242.0355422
 51
266.090971
  0
LINE
  8
LAYER_2
 10
-11.7057
 20
70.0277
 11
-11.7057
 21
67.4019
  0
LINE
  8
LAYER_2
 10
-13.0803
 20
70.0277
 11
-13.0803
 21
67.4019
  0
ARC
  8
LAYER_2
 10
-8.2261
 20
68.966
 40
1.2881
 50
92.39456509
 51
124.4905972
  0
ARC
  8
LAYER_2
 10
-8.3508
 20
68.8328
 40
1.422
 50
57.17375587
 51
87.14395998
  0
ARC
  8
LAYER_2
 10
-8.3813
 20
68.8836
 40
1.6845
 50
273.4518714
 51
298.4086487
  0
ARC
  8
LAYER_2
 10
-8.1899
 20
68.7485
 40
1.549
 50
240.3801745
 51
266.6700169
  0
LINE
  8
LAYER_2
 10
-8.9555
 20
70.0277
 11
-8.9555
 21
67.4019
  0
LINE
  8
LAYER_2
 10
-7.5799
 20
70.0277
 11
-7.5799
 21
67.4019
  0
LINE
  8
LAYER_2
  6
AIGENLINE003
 10
-10.3332
 20
96.9691
 11
-10.3332
 21
65.9401
  0
LINE
  8
LAYER_2
 10
-11.6458
 20
92.9603
 11
-11.6458
 21
74.9039
  0
LINE
  8
LAYER_2
 10
-9.0206
 20
74.9039
 11
-9.0206
 21
92.9603
  0
LINE
  8
LAYER_2
  6
AIGENLINE003
 10
-21.4874
 20
79.7016
 11
-10.3332
 21
96.9691
  0
LINE
  8
LAYER_2
 10
-17.1645
 20
124.6883
 11
-29.2096
 21
124.6883
  0
LINE
  8
LAYER_2
 10
-26.9982
 20
125.2809
 11
-29.2096
 21
124.6883
  0
LINE
  8
LAYER_2
 10
-29.2096
 20
124.6883
 11
-26.9982
 21
124.0957
  0
LINE
  8
LAYER_2
 10
-26.9982
 20
124.0957
 11
-26.9982
 21
125.2809
  0
LINE
  8
LAYER_2
  6
AIGENLINE003
 10
-24.9425
 20
79.7016
 11
-24.9425
 21
106.2821
  0
LINE
  8
LAYER_2
 10
-23.6299
 20
84.278
 11
-23.6299
 21
102.3898
  0
LINE
  8
LAYER_2
 10
-26.2547
 20
84.278
 11
-26.2547
 21
104.4695
  0
LINE
  8
LAYER_2
  6
AIGENLINE003
 10
-21.4874
 20
79.7016
 11
-21.4874
 21
106.2821
  0
LINE
  8
LAYER_2
 10
-20.1749
 20
84.278
 11
-20.1749
 21
104.4695
  0
LINE
  8
LAYER_2
 10
-22.7997
 20
84.278
 11
-22.7997
 21
102.4079
  0
LINE
  8
LAYER_2
 10
-19.09
 20
118.2194
 11
-19.09
 21
110.7195
  0
LINE
  8
LAYER_2
 10
-19.09
 20
110.7195
 11
-27.3396
 21
110.7195
  0
LINE
  8
LAYER_2
 10
-27.3396
 20
110.7195
 11
-27.3396
 21
118.2194
  0
LINE
  8
LAYER_2
 10
-27.0898
 20
118.2194
 11
-27.0898
 21
110.7195
  0
LINE
  8
LAYER_2
 10
-19.3397
 20
118.2194
 11
-19.3397
 21
110.7195
  0
LINE
  8
LAYER_2
 10
-23.9648
 20
104.4695
 11
-27.0898
 21
104.4695
  0
LINE
  8
LAYER_2
 10
-27.0898
 20
104.4695
 11
-27.3396
 21
104.7195
  0
LINE
  8
LAYER_2
 10
-27.3396
 20
104.7195
 11
-27.3396
 21
105.4695
  0
LINE
  8
LAYER_2
 10
-19.09
 20
105.4695
 11
-19.09
 21
104.7195
  0
LINE
  8
LAYER_2
 10
-19.09
 20
104.7195
 11
-19.3397
 21
104.4695
  0
LINE
  8
LAYER_2
 10
-19.3397
 20
104.4695
 11
-22.4648
 21
104.4695
  0
LINE
  8
LAYER_2
 10
-23.9648
 20
104.7195
 11
-27.3396
 21
104.7195
  0
LINE
  8
LAYER_2
 10
-19.09
 20
104.7195
 11
-22.4648
 21
104.7195
  0
LINE
  8
LAYER_2
 10
-27.0898
 20
105.4695
 11
-27.0898
 21
104.4695
  0
LINE
  8
LAYER_2
 10
-19.3397
 20
105.4695
 11
-19.3397
 21
104.4695
  0
LINE
  8
LAYER_2
 10
-29.2096
 20
125.4571
 11
-29.2096
 21
119.7694
  0
LINE
  8
LAYER_2
 10
-17.1645
 20
125.4571
 11
-17.1645
 21
119.7694
  0
ARC
  8
LAYER_2
 10
33.041
 20
147.0312
 40
9.5833
 50
226.009029
 51
256.4037639
  0
ARC
  8
LAYER_2
 10
33.0008
 20
147.0022
 40
9.5457
 50
256.5978348
 51
270.0380965
  0
LINE
  8
LAYER_2
 10
27.4881
 20
138.6008
 11
29.7043
 21
138.0269
  0
LINE
  8
LAYER_2
 10
29.7043
 20
138.0269
 11
28.0717
 21
139.6325
  0
LINE
  8
LAYER_2
 10
28.0717
 20
139.6325
 11
27.4881
 21
138.6008
  0
LINE
  8
LAYER_2
 10
64.2452
 20
137.4565
 11
32.9954
 21
137.4565
  0
LINE
  8
LAYER_2
 10
35.2068
 20
138.0491
 11
32.9954
 21
137.4565
  0
LINE
  8
LAYER_2
 10
32.9954
 20
137.4565
 11
35.2068
 21
136.864
  0
LINE
  8
LAYER_2
 10
35.2068
 20
136.864
 11
35.2068
 21
138.0491
  0
LINE
  8
LAYER_2
 10
62.0338
 20
136.8784
 11
64.2452
 21
137.471
  0
LINE
  8
LAYER_2
 10
64.2452
 20
137.471
 11
62.0338
 21
138.0635
  0
LINE
  8
LAYER_2
 10
62.0338
 20
138.0635
 11
62.0338
 21
136.8784
  0
LINE
  8
LAYER_2
 10
32.9954
 20
147.5057
 11
32.9954
 21
136.7565
  0
INSERT
  8
LAYER_2
  2
AIGNBL02010004
 10
0
 20
0
 30
0
  0
LINE
  8
LAYER_2
 10
57.6616
 20
110.7195
 11
51.8594
 21
110.7195
  0
INSERT
  8
LAYER_2
  2
AIGNBL02010005
 10
0
 20
0
 30
0
  0
LINE
  8
LAYER_2
 10
44.4655
 20
67.1449
 11
21.3714
 21
67.1449
  0
INSERT
  8
LAYER_2
  2
AIGNBL02010006
 10
0
 20
0
 30
0
  0
LINE
  8
LAYER_2
 10
65.5578
 20
84.2777
 11
65.5578
 21
104.4695
  0
LINE
  8
LAYER_2
 10
62.9329
 20
84.2777
 11
62.9329
 21
104.4695
  0
LINE
  8
LAYER_2
  6
AIGENLINE003
 10
64.2452
 20
79.7016
 11
48.1776
 21
96.9691
  0
LINE
  8
LAYER_2
 10
60.1204
 20
110.7195
 11
60.1204
 21
118.2194
  0
LINE
  8
LAYER_2
 10
60.1204
 20
118.2194
 11
68.37
 21
118.2194
  0
LINE
  8
LAYER_2
 10
68.37
 20
118.2194
 11
68.37
 21
110.7195
  0
LINE
  8
LAYER_2
 10
60.3701
 20
118.2194
 11
60.3701
 21
110.7195
  0
LINE
  8
LAYER_2
 10
68.1202
 20
118.2194
 11
68.1202
 21
110.7195
  0
LINE
  8
LAYER_2
 10
68.37
 20
105.4695
 11
68.37
 21
104.7195
  0
LINE
  8
LAYER_2
 10
68.37
 20
104.7195
 11
68.1202
 21
104.4695
  0
LINE
  8
LAYER_2
 10
68.1202
 20
104.4695
 11
60.3701
 21
104.4695
  0
LINE
  8
LAYER_2
 10
60.3701
 20
104.4695
 11
60.1204
 21
104.7195
  0
LINE
  8
LAYER_2
 10
60.1204
 20
104.7195
 11
60.1204
 21
105.4695
  0
LINE
  8
LAYER_2
 10
68.37
 20
104.7195
 11
60.1204
 21
104.7195
  0
LINE
  8
LAYER_2
 10
60.3701
 20
105.4695
 11
60.3701
 21
104.4695
  0
LINE
  8
LAYER_2
 10
68.1202
 20
105.4695
 11
68.1202
 21
104.4695
  0
LINE
  8
LAYER_2
 10
46.5022
 20
74.2032
 11
46.5022
 21
74.9039
  0
LINE
  8
LAYER_2
 10
49.8777
 20
74.2032
 11
49.8777
 21
74.9039
  0
LINE
  8
LAYER_2
 10
49.8777
 20
74.9039
 11
46.5022
 21
74.9039
  0
ARC
  8
LAYER_2
 10
49.1643
 20
74.282
 40
0.7177
 50
332.7873681
 51
353.6961512
  0
LINE
  8
LAYER_2
 10
46.5525
 20
73.9538
 11
46.5022
 21
74.0785
  0
LINE
  8
LAYER_2
 10
46.5022
 20
74.0785
 11
46.5022
 21
74.2032
  0
LINE
  8
LAYER_2
 10
49.8026
 20
73.9538
 11
49.628
 21
73.6533
  0
LINE
  8
LAYER_2
 10
46.7282
 20
73.6533
 11
46.5525
 21
73.9538
  0
LINE
  8
LAYER_2
 10
49.628
 20
71.6531
 11
49.628
 21
73.6533
  0
LINE
  8
LAYER_2
 10
46.7282
 20
71.6531
 11
46.7282
 21
73.6533
  0
LINE
  8
LAYER_2
 10
50.2401
 20
58.7519
 11
50.2401
 21
66.7122
  0
LINE
  8
LAYER_2
 10
46.115
 20
58.7519
 11
46.115
 21
66.7122
  0
LINE
  8
LAYER_2
 10
49.628
 20
73.6533
 11
46.7282
 21
73.6533
  0
LINE
  8
LAYER_2
 10
49.8288
 20
71.228
 11
49.628
 21
71.6531
  0
LINE
  8
LAYER_2
 10
46.7282
 20
71.6531
 11
46.5274
 21
71.228
  0
LINE
  8
LAYER_2
 10
49.628
 20
71.6531
 11
46.7282
 21
71.6531
  0
LINE
  8
LAYER_2
 10
49.8288
 20
71.228
 11
49.8026
 21
70.7285
  0
LINE
  8
LAYER_2
 10
49.8026
 20
70.7285
 11
49.4282
 21
70.4274
  0
LINE
  8
LAYER_2
 10
46.9281
 20
70.4274
 11
46.5525
 21
70.7285
  0
LINE
  8
LAYER_2
 10
46.5525
 20
70.7285
 11
46.5274
 21
71.228
  0
LINE
  8
LAYER_2
 10
46.6273
 20
70.2779
 11
46.6273
 21
70.4026
  0
LINE
  8
LAYER_2
 10
49.7279
 20
70.2779
 11
49.7279
 21
70.4026
  0
LINE
  8
LAYER_2
 10
49.7279
 20
70.4026
 11
46.6273
 21
70.4026
  0
LINE
  8
LAYER_2
 10
45.8773
 20
70.2779
 11
45.8022
 21
70.253
  0
ARC
  8
LAYER_2
 10
47.8275
 20
-2.5215
 40
72.8255
 50
87.85522377
 51
91.53453542
  0
LINE
  8
LAYER_2
 10
45.8773
 20
67.1525
 11
45.8022
 21
67.2021
  0
LINE
  8
LAYER_2
 10
50.553
 20
67.2021
 11
50.4779
 21
67.1525
  0
LINE
  8
LAYER_2
 10
50.4779
 20
67.1525
 11
45.8773
 21
67.1525
  0
LINE
  8
LAYER_2
 10
48.1776
 20
70.4274
 11
46.9281
 21
70.4274
  0
LINE
  8
LAYER_2
 10
49.4282
 20
70.4274
 11
48.1776
 21
70.4274
  0
LINE
  8
LAYER_2
 10
45.8022
 20
70.027
 11
45.8022
 21
70.253
  0
LINE
  8
LAYER_2
 10
45.8022
 20
67.2021
 11
45.8022
 21
67.4019
  0
LINE
  8
LAYER_2
 10
50.553
 20
70.027
 11
50.553
 21
70.253
  0
LINE
  8
LAYER_2
 10
50.553
 20
67.2021
 11
50.553
 21
67.4019
  0
ARC
  8
LAYER_2
 10
49.2709
 20
66.5287
 40
3.7258
 50
69.87323646
 51
88.36113292
  0
ARC
  8
LAYER_2
 10
49.4514
 20
66.5621
 40
3.6917
 50
91.14775993
 51
110.1855234
  0
ARC
  8
LAYER_2
 10
49.5226
 20
71.7764
 40
4.5766
 50
252.9091664
 51
268.1832249
  0
ARC
  8
LAYER_2
 10
49.2048
 20
71.7759
 40
4.5771
 50
272.1621979
 51
287.1305767
  0
LINE
  8
LAYER_2
 10
50.553
 20
67.4019
 11
50.553
 21
70.027
  0
ARC
  8
LAYER_2
 10
46.8959
 20
66.5308
 40
3.7238
 50
69.86704136
 51
88.35466901
  0
ARC
  8
LAYER_2
 10
47.0763
 20
66.5605
 40
3.6933
 50
91.14041775
 51
110.1807126
  0
ARC
  8
LAYER_2
 10
47.1465
 20
71.7728
 40
4.5729
 50
252.9041141
 51
268.1991023
  0
ARC
  8
LAYER_2
 10
46.8305
 20
71.7689
 40
4.5701
 50
272.1605947
 51
287.1434592
  0
LINE
  8
LAYER_2
 10
45.8022
 20
67.4019
 11
45.8022
 21
70.027
  0
LINE
  8
LAYER_2
 10
48.1776
 20
67.4019
 11
48.1776
 21
70.027
  0
LINE
  8
LAYER_2
  6
AIGENLINE003
 10
48.1776
 20
96.9691
 11
48.1776
 21
65.9401
  0
LINE
  8
LAYER_2
 10
46.865
 20
92.9603
 11
46.865
 21
74.9039
  0
LINE
  8
LAYER_2
 10
49.4902
 20
74.9039
 11
49.4902
 21
92.9603
  0
LINE
  8
LAYER_2
 10
13.8934
 20
118.2194
 11
57.0904
 21
118.2194
  0
LINE
  8
LAYER_2
  6
AIGENLINE003
 10
64.2452
 20
169.6701
 11
64.2452
 21
79.7016
  0
LINE
  8
LAYER_2
 10
71.3069
 20
118.2194
 11
82.5724
 21
118.2194
  0
LINE
  8
LAYER_2
 10
-25.3859
 20
219.6404
 11
-23.2148
 21
218.9135
  0
LINE
  8
LAYER_2
 10
-23.2148
 20
218.9135
 11
-25.4582
 21
218.4577
  0
LINE
  8
LAYER_2
 10
-25.4582
 20
218.4577
 11
-25.3859
 21
219.6404
  0
LINE
  8
LAYER_2
 10
-46.9058
 20
245.3978
 11
-47.2152
 21
247.666
  0
LINE
  8
LAYER_2
 10
-47.2152
 20
247.666
 11
-48.0813
 21
245.5466
  0
LINE
  8
LAYER_2
 10
-48.0813
 20
245.5466
 11
-46.9058
 21
245.3978
  0
ARC
  8
LAYER_2
 10
-23.1073
 20
243.3166
 40
24.4971
 50
169.773056
 51
180.031594
  0
ARC
  8
LAYER_2
 10
-23.2148
 20
243.3031
 40
24.3896
 50
180.0000237
 51
269.9999763
  0
LINE
  8
LAYER_2
  6
AIGENLINE003
 10
57.3067
 20
243.4341
 11
71.0223
 21
243.4341
  0
CIRCLE
  8
LAYER_2
 10
64.2452
 20
243.4341
 40
4.3751
  0
LINE
  8
LAYER_2
  6
AIGENLINE003
 10
64.2452
 20
249.7548
 11
64.2452
 21
236.6028
  0
INSERT
  8
LAYER_2
  2
AIGNBL02010007
 10
0
 20
0
 30
0
  0
LINE
  8
LAYER_2
 10
71.3579
 20
250.5465
 11
77.145
 21
250.5465
  0
INSERT
  8
LAYER_2
  2
AIGNBL02010008
 10
0
 20
0
 30
0
  0
INSERT
  8
LAYER_2
  2
AIGNBL0201011A
 10
0
 20
0
 30
0
  0
INSERT
  8
LAYER_2
  2
AIGNBL02010156
 10
0
 20
0
 30
0
  0
LINE
  8
LAYER_2
  6
AIGENLINE002
 10
71.9646
 20
164.0765
 11
67.7662
 21
165.8472
  0
LINE
  8
LAYER_2
  6
AIGENLINE002
 10
67.7662
 20
165.8472
 11
49.3991
 21
172.9484
  0
ARC
  8
LAYER_2
  6
AIGENLINE002
 10
49.2957
 20
172.6576
 40
0.3086
 50
70.42983281
 51
155.9458044
  0
LINE
  8
LAYER_2
  6
AIGENLINE002
 10
49.0139
 20
172.7834
 11
48.4147
 21
171.2336
  0
ARC
  8
LAYER_2
  6
AIGENLINE002
 10
48.7047
 20
171.1357
 40
0.3061
 50
161.3435693
 51
247.7502731
  0
LINE
  8
LAYER_2
  6
AIGENLINE002
 10
48.5888
 20
170.8524
 11
61.1253
 21
166.0055
  0
LINE
  8
LAYER_2
  6
AIGENLINE002
 10
61.1253
 20
166.0055
 11
62.0534
 21
165.5105
  0
LINE
  8
LAYER_2
  6
AIGENLINE002
 10
62.0534
 20
165.5105
 11
71.5298
 21
161.8467
  0
LINE
  8
LAYER_2
  6
AIGENLINE002
 10
71.5298
 20
161.8467
 11
71.638
 21
162.1264
  0
ARC
  8
LAYER_2
  6
AIGENLINE002
 10
76.2054
 20
160.3818
 40
4.8893
 50
151.0089494
 51
159.0948284
  0
LINE
  8
LAYER_2
  6
AIGENLINE002
 10
71.9288
 20
162.7515
 11
72.2087
 21
163.4753
  0
ARC
  8
LAYER_2
  6
AIGENLINE002
 10
71.7462
 20
163.6377
 40
0.4902
 50
340.6542733
 51
63.54212605
  0
ARC
  8
LAYER_2
 10
-23.3288
 20
243.4929
 40
6.1135
 50
304.9960982
 51
359.4505667
  0
ARC
  8
LAYER_2
 10
-23.2164
 20
243.4343
 40
6.0008
 50
359.9995226
 51
89.99952257
  0
ARC
  8
LAYER_2
 10
-23.2145
 20
243.4361
 40
5.999
 50
90.01713851
 51
180.0172447
  0
ARC
  8
LAYER_2
 10
-23.1133
 20
243.485
 40
6.1005
 50
180.4763702
 51
235.1069617
  0
LINE
  8
LAYER_2
 10
68.37
 20
109.7195
 11
68.37
 21
108.4695
  0
LINE
  8
LAYER_2
 10
60.1204
 20
108.4695
 11
60.1204
 21
109.7195
  0
LINE
  8
LAYER_2
 10
60.3701
 20
109.7195
 11
60.3701
 21
108.4695
  0
LINE
  8
LAYER_2
 10
68.1202
 20
109.7195
 11
68.1202
 21
108.4695
  0
INSERT
  8
LAYER_2
  2
AIGNBL0201017A
 10
0
 20
0
 30
0
  0
INSERT
  8
LAYER_2
  2
AIGNBL020101D6
 10
0
 20
0
 30
0
  0
LINE
  8
LAYER_2
 10
-27.3396
 20
108.4695
 11
-27.3396
 21
109.7195
  0
LINE
  8
LAYER_2
 10
-19.09
 20
109.7195
 11
-19.09
 21
108.4695
  0
LINE
  8
LAYER_2
 10
-27.0898
 20
109.7195
 11
-27.0898
 21
108.4695
  0
LINE
  8
LAYER_2
 10
-19.3397
 20
109.7195
 11
-19.3397
 21
108.4695
  0
LINE
  8
LAYER_3
 10
126.9566
 20
57.1559
 11
293.4567
 21
57.1559
  0
LINE
  8
LAYER_3
 10
126.9566
 20
99.5543
 11
290.1597
 21
99.5543
  0
LINE
  8
LAYER_3
 10
126.9566
 20
113.1283
 11
290.1597
 21
113.1283
  0
LINE
  8
LAYER_3
 10
213.4567
 20
37.1557
 11
293.4567
 21
37.1557
  0
LINE
  8
LAYER_3
 10
126.9566
 20
44.6564
 11
213.4567
 21
44.6564
  0
LINE
  8
LAYER_3
 10
126.9566
 20
30.6562
 11
213.4567
 21
30.6562
  0
LINE
  8
LAYER_3
 10
138.4563
 20
30.6562
 11
138.4563
 21
44.6564
  0
LINE
  8
LAYER_3
 10
213.4567
 20
17.1562
 11
213.4567
 21
57.1559
  0
LINE
  8
LAYER_3
 10
126.9566
 20
17.1562
 11
126.9566
 21
57.1559
  0
LINE
  8
LAYER_3
 10
194.4563
 20
30.6562
 11
194.4563
 21
57.1559
  0
LINE
  8
LAYER_3
 10
175.4566
 20
30.6562
 11
175.4566
 21
57.1559
  0
LINE
  8
LAYER_3
 10
293.4567
 20
17.1562
 11
-83.0433
 21
17.1562
  0
LINE
  8
LAYER_3
 10
-83.0433
 20
17.1562
 11
-83.0433
 21
280.1562
  0
LINE
  8
LAYER_3
 10
-83.0433
 20
280.1562
 11
293.4567
 21
280.1562
  0
LINE
  8
LAYER_3
 10
293.4567
 20
280.1562
 11
293.4567
 21
17.1562
  0
TEXT
  8
LAYER_3
 10
153.4949
 20
49.1839
 11
153.4949
 21
49.1839
 40
4.4979
 41
0.5
 72
1
  1
セラトレーディング株式会社
  0
TEXT
  8
LAYER_3
 10
127.9281
 20
40.658
 11
127.9281
 21
40.658
 40
3.0923
 41
0.5
  1
製図
  0
TEXT
  8
LAYER_3
 10
127.9281
 20
26.4587
 11
127.9281
 21
26.4587
 40
3.0923
 41
0.5
  1
備考
  0
TEXT
  8
LAYER_3
 10
139.5463
 20
40.658
 11
139.5463
 21
40.658
 40
3.0923
 41
0.5
  1
検図
  0
TEXT
  8
LAYER_3
 10
176.4998
 20
40.658
 11
176.4998
 21
40.658
 40
3.0923
 41
0.5
  1
日付
  0
TEXT
  8
LAYER_3
 10
219.0853
 20
45.4728
 11
219.0853
 21
45.4728
 40
3.9357
 41
0.5
  1
AVA 2.0 湯水混合水栓
  0
TEXT
  8
LAYER_3
 10
169.5094
 20
81.9175
 11
169.5094
 21
81.9175
 40
3.9357
 41
0.5
  1
（3）フレキホース寸法公差%%p}20
  0
TEXT
  8
LAYER_3
 10
169.5094
 20
87.9147
 11
169.5094
 21
87.9147
 40
3.9357
 41
0.5
  1
（2）湯水を逆に配管しないでください。
  0
TEXT
  8
LAYER_3
 10
169.5094
 20
75.9203
 11
169.5094
 21
75.9203
 40
3.9357
 41
0.5
  1
（4）流量上限：約5L/min（定量節水仕様）
  0
TEXT
  8
LAYER_3
 10
169.5094
 20
69.923
 11
169.5094
 21
69.923
 40
3.9357
 41
0.5
  1
（5）吐水方法：泡沫
  0
TEXT
  8
LAYER_3
 10
169.5094
 20
93.9119
 11
169.5094
 21
93.9119
 40
3.9357
 41
0.5
  1
（1）水圧は湯水ほぼ同圧、且つ湯圧が水圧より高くならないように設定してください。
  0
TEXT
  8
LAYER_3
 10
169.5094
 20
101.6172
 11
169.5094
 21
101.6172
 40
3.9357
 41
0.5
  1
※安全のため給湯温度は60℃以下でのご使用をおすすめします。
  0
TEXT
  8
LAYER_3
 10
169.5094
 20
107.6144
 11
169.5094
 21
107.6144
 40
3.9357
 41
0.5
  1
70℃
  0
LINE
  8
LAYER_3
 10
126.9566
 20
126.7024
 11
290.1597
 21
126.7024
  0
TEXT
  8
LAYER_3
 10
169.5094
 20
115.1912
 11
169.5094
 21
115.1912
 40
3.9357
 41
0.5
  1
※寒冷地仕様ではありません、凍結が予想される場合は凍結予防をしてください。
  0
TEXT
  8
LAYER_3
 10
169.5094
 20
121.1885
 11
169.5094
 21
121.1885
 40
3.9357
 41
0.5
  1
1～40℃
  0
TEXT
  8
LAYER_3
 10
129.4953
 20
93.9119
 11
129.4953
 21
93.9119
 40
3.9357
 41
0.5
  1
特記事項
  0
TEXT
  8
LAYER_3
 10
129.4953
 20
107.6144
 11
129.4953
 21
107.6144
 40
3.9357
 41
0.5
  1
最高給湯温度
  0
TEXT
  8
LAYER_3
 10
129.4953
 20
121.1885
 11
129.4953
 21
121.1885
 40
3.9357
 41
0.5
  1
使用環境温度
  0
LINE
  8
LAYER_3
 10
145.6397
 20
142.2273
 11
290.1597
 21
142.2273
  0
TEXT
  8
LAYER_3
 10
169.5094
 20
136.7134
 11
169.5094
 21
136.7134
 40
3.9357
 41
0.5
  1
0.5MPa（静水圧）
  0
TEXT
  8
LAYER_3
 10
147.4139
 20
136.7134
 11
147.4139
 21
136.7134
 40
3.9357
 41
0.5
  1
最高水圧
  0
LINE
  8
LAYER_3
 10
126.9566
 20
134.4648
 11
290.1597
 21
134.4648
  0
TEXT
  8
LAYER_3
 10
169.5094
 20
128.8104
 11
169.5094
 21
128.8104
 40
3.9357
 41
0.5
  1
水道水
  0
TEXT
  8
LAYER_3
 10
129.4953
 20
128.8104
 11
129.4953
 21
128.8104
 40
3.9357
 41
0.5
  1
使用可能水質
  0
LINE
  8
LAYER_3
 10
126.9566
 20
149.9898
 11
290.1597
 21
149.9898
  0
TEXT
  8
LAYER_3
 10
169.5094
 20
144.3354
 11
169.5094
 21
144.3354
 40
3.9357
 41
0.5
  1
0.1MPa（流動圧）
  0
TEXT
  8
LAYER_3
 10
147.4139
 20
144.3354
 11
147.4139
 21
144.3354
 40
3.9357
 41
0.5
  1
最低必要水圧
  0
LINE
  8
LAYER_3
 10
290.1597
 20
157.7523
 11
126.9566
 21
157.7523
  0
LINE
  8
LAYER_3
 10
126.9566
 20
157.7523
 11
126.9566
 21
61.9804
  0
LINE
  8
LAYER_3
 10
126.9566
 20
61.9804
 11
290.1597
 21
61.9804
  0
LINE
  8
LAYER_3
 10
290.1597
 20
61.9804
 11
290.1597
 21
157.7523
  0
LINE
  8
LAYER_3
 10
166.9707
 20
157.7523
 11
166.9707
 21
61.9804
  0
LINE
  8
LAYER_3
 10
145.6397
 20
149.9898
 11
145.6397
 21
134.4648
  0
TEXT
  8
LAYER_3
 10
169.5094
 20
152.0979
 11
169.5094
 21
152.0979
 40
3.9357
 41
0.5
  1
一般住宅用（屋内用）
  0
TEXT
  8
LAYER_3
 10
129.4953
 20
152.0979
 11
129.4953
 21
152.0979
 40
3.9357
 41
0.5
  1
用途
  0
TEXT
  8
LAYER_3
 10
129.4953
 20
144.3354
 11
129.4953
 21
144.3354
 40
3.9357
 41
0.5
  1
給水圧力
  0
TEXT
  8
LAYER_3
 10
253.4564
 20
20.3547
 11
253.4564
 21
20.3547
 40
3.9357
 41
0.5
 72
1
  1
KW2468072
  0
TEXT
  8
LAYER_3
 10
195.5498
 20
40.658
 11
195.5498
 21
40.658
 40
3.0923
 41
0.5
  1
尺度
  0
TEXT
  8
LAYER_3
 10
195.5498
 20
53.0652
 11
195.5498
 21
53.0652
 40
3.0923
 41
0.5
  1
単位
  0
TEXT
  8
LAYER_3
 10
203.2744
 20
48.0691
 11
203.2744
 21
48.0691
 40
3.6546
 41
0.5
 72
1
  1
mm
  0
TEXT
  8
LAYER_3
 10
214.5116
 20
53.0652
 11
214.5116
 21
53.0652
 40
3.0923
 41
0.5
  1
名称
  0
TEXT
  8
LAYER_3
 10
214.5116
 20
32.9265
 11
214.5116
 21
32.9265
 40
3.0923
 41
0.5
  1
品番
  0
LINE
  8
LAYER_3
 10
213.4567
 20
27.156
 11
293.4567
 21
27.156
  0
TEXT
  8
LAYER_3
 10
214.5116
 20
22.9268
 11
214.5116
 21
22.9268
 40
3.0923
 41
0.5
  1
図番
  0
INSERT
  8
LAYER_3
  2
AIGNBL03010002
 10
0
 20
0
 30
0
  0
LINE
  8
LAYER_3
 10
-83.0433
 20
148.6576
 11
-104.7936
 21
148.6576
  0
LINE
  8
LAYER_3
 10
105.2067
 20
297.1763
 11
105.2067
 21
280.1562
  0
LINE
  8
LAYER_3
 10
105.2067
 20
17.1562
 11
105.2067
 21
0.176
  0
LINE
  8
LAYER_3
 10
315.2069
 20
148.6576
 11
293.4567
 21
148.6576
  0
TEXT
  8
LAYER_3
 10
134.4938
 20
21.9546
 11
134.4938
 21
21.9546
 40
3.9357
 41
0.5
  1
（社）日本水道協会認証品
  0
TEXT
  8
LAYER_3
 10
293.4567
 20
12.8082
 11
293.4567
 21
12.8082
 40
3.3734
 41
0.5
 72
2
  1
A3
  0
TEXT
  8
LAYER_3
 10
177.6925
 20
34.4651
 11
177.6925
 21
34.4651
 40
3.6546
 41
0.5
  1
23.07.12
  0
TEXT
  8
LAYER_3
 10
132.6465
 20
34.8502
 11
132.6465
 21
34.8502
 40
3.6546
 41
0.5
 72
1
  1
福田
  0
TEXT
  8
LAYER_3
 10
151.2204
 20
34.8502
 11
151.2204
 21
34.8502
 40
3.6546
 41
0.5
 72
1
  1
井田
  0
TEXT
  8
LAYER_3
 10
253.4564
 20
30.3551
 11
253.4564
 21
30.3551
 40
3.9357
 41
0.5
 72
1
  1
KW2468072
  0
TEXT
  8
LAYER_3
 10
203.8663
 20
34.4651
 11
203.8663
 21
34.4651
 40
3.6546
 41
0.5
 72
1
  1
1 ： 4
  0
TEXT
  8
LAYER_3
 10
169.5094
 20
63.9258
 11
169.5094
 21
63.9258
 40
3.9357
 41
0.5
  1
（6）吐水角度可変式：12%%d%%p}10%%d
  0
ENDSEC
  0
EOF
