  0
SECTION
  2
HEADER
  9
$ACADVER
  1
AC1009
  9
$LUNITS
 70
2
  9
$LUPREC
 70
4
  9
$LTSCALE
 40
1.0
  9
$EXTMIN
 10
-104.7936
 20
0.176
 30
0
  9
$EXTMAX
 10
315.2069
 20
297.1763
 30
0
  0
ENDSEC
  0
SECTION
  2
TABLES
  0
TABLE
  2
LTYPE
 70
256
  0
LTYPE
  2
AIGENLINE001
 70
64
  3
generate AI->DXF Converter
 72
65
 73
4
 40
5.8561
 49
3.5278
 49
-0.7761
 49
0.7761
 49
-0.7761
  0
LTYPE
  2
AIGENLINE002
 70
64
  3
generate AI->DXF Converter
 72
65
 73
6
 40
7.6
 49
3.6
 49
-0.8
 49
0.8
 49
-0.8
 49
0.8
 49
-0.8
  0
LTYPE
  2
AIGENLINE003
 70
64
  3
generate AI->DXF Converter
 72
65
 73
4
 40
6
 49
3.6
 49
-0.8
 49
0.8
 49
-0.8
  0
ENDTAB
  0
TABLE
  2
LAYER
 70
3
  0
LAYER
  2
LAYER_1
 70
64
 62
7
  6
CONTINUOUS
  0
LAYER
  2
LAYER_2
 70
64
 62
7
  6
CONTINUOUS
  0
LAYER
  2
LAYER_3
 70
64
 62
7
  6
CONTINUOUS
  0
ENDTAB
  0
TABLE
  2
STYLE
 70
6
  0
STYLE
  2
STANDARD
 70
0
 40
0
 50
0
 71
0
 41
0
 42
0
  3
TXT
  4
BIGFONT
  0
ENDTAB
  0
ENDSEC
  0
SECTION
  2
BLOCKS
  0
BLOCK
  8
LAYER_2
  2
AIGNBL02020006
 70
64
 10
0
 20
0
 30
0
  3
AIGNBL02020006
  0
LINE
  8
LAYER_2
 10
-45.4445
 20
116.973
 11
-27.3564
 21
116.973
  0
LINE
  8
LAYER_2
 10
-43.4542
 20
116.3874
 11
-41.2439
 21
116.9799
  0
LINE
  8
LAYER_2
 10
-41.2439
 20
116.9799
 11
-43.4542
 21
117.5725
  0
LINE
  8
LAYER_2
 10
-43.4542
 20
117.5725
 11
-43.4542
 21
116.3874
  0
LINE
  8
LAYER_2
 10
-32.4716
 20
111.2294
 11
-30.2613
 21
111.8219
  0
LINE
  8
LAYER_2
 10
-30.2613
 20
111.8219
 11
-32.4716
 21
112.4145
  0
LINE
  8
LAYER_2
 10
-32.4716
 20
112.4145
 11
-32.4716
 21
111.2294
  0
LINE
  8
LAYER_2
 10
-29.061
 20
117.558
 11
-31.2721
 21
116.9655
  0
LINE
  8
LAYER_2
 10
-31.2721
 20
116.9655
 11
-29.061
 21
116.3736
  0
LINE
  8
LAYER_2
 10
-29.061
 20
116.3736
 11
-29.061
 21
117.558
  0
LINE
  8
LAYER_2
 10
-47.8024
 20
100.9582
 11
-28.2707
 21
100.9582
  0
LINE
  8
LAYER_2
 10
-42.6467
 20
100.3725
 11
-40.4363
 21
100.965
  0
LINE
  8
LAYER_2
 10
-40.4363
 20
100.965
 11
-42.6467
 21
101.5576
  0
LINE
  8
LAYER_2
 10
-42.6467
 20
101.5576
 11
-42.6467
 21
100.3725
  0
LINE
  8
LAYER_2
 10
-29.9757
 20
101.5431
 11
-32.1867
 21
100.9506
  0
LINE
  8
LAYER_2
 10
-32.1867
 20
100.9506
 11
-29.9757
 21
100.3587
  0
LINE
  8
LAYER_2
 10
-29.9757
 20
100.3587
 11
-29.9757
 21
101.5431
  0
ENDBLK
  0
BLOCK
  8
LAYER_2
  2
AIGNBL02020100
 70
64
 10
0
 20
0
 30
0
  3
AIGNBL02020100
  0
LINE
  8
LAYER_2
 10
-37.8027
 20
89.9981
 11
-34.8203
 21
89.9981
  0
ENDBLK
  0
BLOCK
  8
LAYER_2
  2
AIGNBL02020101
 70
64
 10
0
 20
0
 30
0
  3
AIGNBL02020101
  0
LINE
  8
LAYER_2
 10
-37.8115
 20
90.0581
 11
-37.8027
 21
90.0581
  0
ENDBLK
  0
BLOCK
  8
LAYER_2
  2
AIGNBL02020102
 70
64
 10
0
 20
0
 30
0
  3
AIGNBL02020102
  0
LINE
  8
LAYER_2
 10
-34.8204
 20
90.0581
 11
-34.8116
 21
90.0581
  0
ENDBLK
  0
BLOCK
  8
LAYER_2
  2
AIGNBL02020103
 70
64
 10
0
 20
0
 30
0
  3
AIGNBL02020103
  0
LINE
  8
LAYER_2
 10
-36.8656
 20
89.5256
 11
-36.9006
 21
89.5381
  0
ENDBLK
  0
BLOCK
  8
LAYER_2
  2
AIGNBL02020104
 70
64
 10
0
 20
0
 30
0
  3
AIGNBL02020104
  0
LINE
  8
LAYER_2
 10
-34.1902
 20
92.6031
 11
-34.1727
 21
92.6062
  0
LINE
  8
LAYER_2
 10
-34.1727
 20
92.6062
 11
-34.1557
 21
92.6154
  0
LINE
  8
LAYER_2
 10
-34.1557
 20
92.6154
 11
-34.1395
 21
92.6304
  0
LINE
  8
LAYER_2
 10
-34.1395
 20
92.6304
 11
-34.1246
 21
92.6508
  0
LINE
  8
LAYER_2
 10
-34.1246
 20
92.6508
 11
-34.1113
 21
92.6763
  0
LINE
  8
LAYER_2
 10
-34.1113
 20
92.6763
 11
-34.0999
 21
92.7062
  0
LINE
  8
LAYER_2
 10
-34.0999
 20
92.7062
 11
-34.0907
 21
92.7396
  0
LINE
  8
LAYER_2
 10
-34.0907
 20
92.7396
 11
-34.084
 21
92.7759
  0
LINE
  8
LAYER_2
 10
-34.084
 20
92.7759
 11
-34.08
 21
92.814
  0
LINE
  8
LAYER_2
 10
-34.08
 20
92.814
 11
-34.0786
 21
92.8532
  0
ENDBLK
  0
BLOCK
  8
LAYER_2
  2
AIGNBL02020105
 70
64
 10
0
 20
0
 30
0
  3
AIGNBL02020105
  0
LINE
  8
LAYER_2
 10
-33.6916
 20
92.6031
 11
-33.67
 21
92.6062
  0
LINE
  8
LAYER_2
 10
-33.67
 20
92.6062
 11
-33.649
 21
92.6154
  0
LINE
  8
LAYER_2
 10
-33.649
 20
92.6154
 11
-33.629
 21
92.6304
  0
LINE
  8
LAYER_2
 10
-33.629
 20
92.6304
 11
-33.6105
 21
92.6508
  0
LINE
  8
LAYER_2
 10
-33.6105
 20
92.6508
 11
-33.5941
 21
92.6763
  0
LINE
  8
LAYER_2
 10
-33.5941
 20
92.6763
 11
-33.58
 21
92.7062
  0
LINE
  8
LAYER_2
 10
-33.58
 20
92.7062
 11
-33.5687
 21
92.7396
  0
LINE
  8
LAYER_2
 10
-33.5687
 20
92.7396
 11
-33.5604
 21
92.7759
  0
LINE
  8
LAYER_2
 10
-33.5604
 20
92.7759
 11
-33.5554
 21
92.814
  0
LINE
  8
LAYER_2
 10
-33.5554
 20
92.814
 11
-33.5537
 21
92.8532
  0
ENDBLK
  0
BLOCK
  8
LAYER_2
  2
AIGNBL02020106
 70
64
 10
0
 20
0
 30
0
  3
AIGNBL02020106
  0
LINE
  8
LAYER_2
 10
-33.6916
 20
92.6031
 11
-33.6577
 21
92.6062
  0
LINE
  8
LAYER_2
 10
-33.6577
 20
92.6062
 11
-33.6247
 21
92.6154
  0
LINE
  8
LAYER_2
 10
-33.6247
 20
92.6154
 11
-33.5933
 21
92.6304
  0
LINE
  8
LAYER_2
 10
-33.5933
 20
92.6304
 11
-33.5643
 21
92.6508
  0
LINE
  8
LAYER_2
 10
-33.5643
 20
92.6508
 11
-33.5385
 21
92.6763
  0
LINE
  8
LAYER_2
 10
-33.5385
 20
92.6763
 11
-33.5164
 21
92.7062
  0
LINE
  8
LAYER_2
 10
-33.5164
 20
92.7062
 11
-33.4987
 21
92.7396
  0
LINE
  8
LAYER_2
 10
-33.4987
 20
92.7396
 11
-33.4857
 21
92.7759
  0
LINE
  8
LAYER_2
 10
-33.4857
 20
92.7759
 11
-33.4777
 21
92.814
  0
LINE
  8
LAYER_2
 10
-33.4777
 20
92.814
 11
-33.4751
 21
92.8532
  0
ENDBLK
  0
BLOCK
  8
LAYER_2
  2
AIGNBL02020107
 70
64
 10
0
 20
0
 30
0
  3
AIGNBL02020107
  0
LINE
  8
LAYER_2
 10
-31.5615
 20
92.6031
 11
-35.5615
 21
92.6031
  0
ENDBLK
  0
BLOCK
  8
LAYER_2
  2
AIGNBL02020108
 70
64
 10
0
 20
0
 30
0
  3
AIGNBL02020108
  0
LINE
  8
LAYER_2
 10
-37.0615
 20
92.6031
 11
-41.0615
 21
92.6031
  0
ENDBLK
  0
BLOCK
  8
LAYER_2
  2
AIGNBL02020109
 70
64
 10
0
 20
0
 30
0
  3
AIGNBL02020109
  0
LINE
  8
LAYER_2
 10
-38.9315
 20
92.6031
 11
-38.9654
 21
92.6062
  0
LINE
  8
LAYER_2
 10
-38.9654
 20
92.6062
 11
-38.9984
 21
92.6154
  0
LINE
  8
LAYER_2
 10
-38.9984
 20
92.6154
 11
-39.0298
 21
92.6304
  0
LINE
  8
LAYER_2
 10
-39.0298
 20
92.6304
 11
-39.0588
 21
92.6508
  0
LINE
  8
LAYER_2
 10
-39.0588
 20
92.6508
 11
-39.0846
 21
92.6763
  0
LINE
  8
LAYER_2
 10
-39.0846
 20
92.6763
 11
-39.1066
 21
92.7062
  0
LINE
  8
LAYER_2
 10
-39.1066
 20
92.7062
 11
-39.1244
 21
92.7396
  0
LINE
  8
LAYER_2
 10
-39.1244
 20
92.7396
 11
-39.1374
 21
92.7759
  0
LINE
  8
LAYER_2
 10
-39.1374
 20
92.7759
 11
-39.1454
 21
92.814
  0
LINE
  8
LAYER_2
 10
-39.1454
 20
92.814
 11
-39.148
 21
92.8532
  0
ENDBLK
  0
BLOCK
  8
LAYER_2
  2
AIGNBL0202010A
 70
64
 10
0
 20
0
 30
0
  3
AIGNBL0202010A
  0
LINE
  8
LAYER_2
 10
-38.9315
 20
92.6031
 11
-38.9529
 21
92.6062
  0
LINE
  8
LAYER_2
 10
-38.9529
 20
92.6062
 11
-38.9741
 21
92.6154
  0
LINE
  8
LAYER_2
 10
-38.9741
 20
92.6154
 11
-38.9941
 21
92.6304
  0
LINE
  8
LAYER_2
 10
-38.9941
 20
92.6304
 11
-39.0125
 21
92.6508
  0
LINE
  8
LAYER_2
 10
-39.0125
 20
92.6508
 11
-39.029
 21
92.6763
  0
LINE
  8
LAYER_2
 10
-39.029
 20
92.6763
 11
-39.0431
 21
92.7062
  0
LINE
  8
LAYER_2
 10
-39.0431
 20
92.7062
 11
-39.0543
 21
92.7396
  0
LINE
  8
LAYER_2
 10
-39.0543
 20
92.7396
 11
-39.0626
 21
92.7759
  0
LINE
  8
LAYER_2
 10
-39.0626
 20
92.7759
 11
-39.0677
 21
92.814
  0
LINE
  8
LAYER_2
 10
-39.0677
 20
92.814
 11
-39.0693
 21
92.8532
  0
ENDBLK
  0
BLOCK
  8
LAYER_2
  2
AIGNBL0202010B
 70
64
 10
0
 20
0
 30
0
  3
AIGNBL0202010B
  0
LINE
  8
LAYER_2
 10
-38.4329
 20
92.6031
 11
-38.4503
 21
92.6062
  0
LINE
  8
LAYER_2
 10
-38.4503
 20
92.6062
 11
-38.4673
 21
92.6154
  0
LINE
  8
LAYER_2
 10
-38.4673
 20
92.6154
 11
-38.4836
 21
92.6304
  0
LINE
  8
LAYER_2
 10
-38.4836
 20
92.6304
 11
-38.4985
 21
92.6508
  0
LINE
  8
LAYER_2
 10
-38.4985
 20
92.6508
 11
-38.5118
 21
92.6763
  0
LINE
  8
LAYER_2
 10
-38.5118
 20
92.6763
 11
-38.5232
 21
92.7062
  0
LINE
  8
LAYER_2
 10
-38.5232
 20
92.7062
 11
-38.5323
 21
92.7396
  0
LINE
  8
LAYER_2
 10
-38.5323
 20
92.7396
 11
-38.539
 21
92.7759
  0
LINE
  8
LAYER_2
 10
-38.539
 20
92.7759
 11
-38.5431
 21
92.814
  0
LINE
  8
LAYER_2
 10
-38.5431
 20
92.814
 11
-38.5445
 21
92.8532
  0
ENDBLK
  0
BLOCK
  8
LAYER_2
  2
AIGNBL0202010C
 70
64
 10
0
 20
0
 30
0
  3
AIGNBL0202010C
  0
LINE
  8
LAYER_2
 10
-36.1963
 20
89.5381
 11
-36.2024
 21
89.5423
  0
LINE
  8
LAYER_2
 10
-36.2024
 20
89.5423
 11
-36.2108
 21
89.5463
  0
LINE
  8
LAYER_2
 10
-36.2108
 20
89.5463
 11
-36.2212
 21
89.5498
  0
LINE
  8
LAYER_2
 10
-36.2212
 20
89.5498
 11
-36.2335
 21
89.5529
  0
LINE
  8
LAYER_2
 10
-36.2335
 20
89.5529
 11
-36.2472
 21
89.5556
  0
LINE
  8
LAYER_2
 10
-36.2472
 20
89.5556
 11
-36.2622
 21
89.5577
  0
LINE
  8
LAYER_2
 10
-36.2622
 20
89.5577
 11
-36.2782
 21
89.5592
  0
LINE
  8
LAYER_2
 10
-36.2782
 20
89.5592
 11
-36.2947
 21
89.5602
  0
LINE
  8
LAYER_2
 10
-36.2947
 20
89.5602
 11
-36.3115
 21
89.5604
  0
LINE
  8
LAYER_2
 10
-36.3115
 20
89.5604
 11
-36.3284
 21
89.5602
  0
LINE
  8
LAYER_2
 10
-36.3284
 20
89.5602
 11
-36.3449
 21
89.5592
  0
LINE
  8
LAYER_2
 10
-36.3449
 20
89.5592
 11
-36.3608
 21
89.5577
  0
LINE
  8
LAYER_2
 10
-36.3608
 20
89.5577
 11
-36.3758
 21
89.5556
  0
LINE
  8
LAYER_2
 10
-36.3758
 20
89.5556
 11
-36.3896
 21
89.553
  0
LINE
  8
LAYER_2
 10
-36.3896
 20
89.553
 11
-36.4018
 21
89.5498
  0
LINE
  8
LAYER_2
 10
-36.4018
 20
89.5498
 11
-36.4123
 21
89.5463
  0
LINE
  8
LAYER_2
 10
-36.4123
 20
89.5463
 11
-36.4207
 21
89.5423
  0
LINE
  8
LAYER_2
 10
-36.4207
 20
89.5423
 11
-36.4268
 21
89.5381
  0
ENDBLK
  0
BLOCK
  8
LAYER_2
  2
AIGNBL0202010D
 70
64
 10
0
 20
0
 30
0
  3
AIGNBL0202010D
  0
LINE
  8
LAYER_2
 10
-33.9669
 20
94.3531
 11
-33.9844
 21
94.35
  0
LINE
  8
LAYER_2
 10
-33.9844
 20
94.35
 11
-34.0014
 21
94.3409
  0
LINE
  8
LAYER_2
 10
-34.0014
 20
94.3409
 11
-34.0176
 21
94.3259
  0
LINE
  8
LAYER_2
 10
-34.0176
 20
94.3259
 11
-34.0325
 21
94.3054
  0
LINE
  8
LAYER_2
 10
-34.0325
 20
94.3054
 11
-34.0459
 21
94.2799
  0
LINE
  8
LAYER_2
 10
-34.0459
 20
94.2799
 11
-34.0572
 21
94.2501
  0
LINE
  8
LAYER_2
 10
-34.0572
 20
94.2501
 11
-34.0664
 21
94.2166
  0
LINE
  8
LAYER_2
 10
-34.0664
 20
94.2166
 11
-34.0731
 21
94.1803
  0
LINE
  8
LAYER_2
 10
-34.0731
 20
94.1803
 11
-34.0772
 21
94.1422
  0
LINE
  8
LAYER_2
 10
-34.0772
 20
94.1422
 11
-34.0786
 21
94.1031
  0
ENDBLK
  0
BLOCK
  8
LAYER_2
  2
AIGNBL0202010E
 70
64
 10
0
 20
0
 30
0
  3
AIGNBL0202010E
  0
LINE
  8
LAYER_2
 10
-33.4158
 20
94.3531
 11
-33.4374
 21
94.35
  0
LINE
  8
LAYER_2
 10
-33.4374
 20
94.35
 11
-33.4584
 21
94.3409
  0
LINE
  8
LAYER_2
 10
-33.4584
 20
94.3409
 11
-33.4784
 21
94.3259
  0
LINE
  8
LAYER_2
 10
-33.4784
 20
94.3259
 11
-33.4969
 21
94.3054
  0
LINE
  8
LAYER_2
 10
-33.4969
 20
94.3054
 11
-33.5134
 21
94.2799
  0
LINE
  8
LAYER_2
 10
-33.5134
 20
94.2799
 11
-33.5274
 21
94.2501
  0
LINE
  8
LAYER_2
 10
-33.5274
 20
94.2501
 11
-33.5387
 21
94.2166
  0
LINE
  8
LAYER_2
 10
-33.5387
 20
94.2166
 11
-33.547
 21
94.1803
  0
LINE
  8
LAYER_2
 10
-33.547
 20
94.1803
 11
-33.552
 21
94.1422
  0
LINE
  8
LAYER_2
 10
-33.552
 20
94.1422
 11
-33.5537
 21
94.1031
  0
ENDBLK
  0
BLOCK
  8
LAYER_2
  2
AIGNBL0202010F
 70
64
 10
0
 20
0
 30
0
  3
AIGNBL0202010F
  0
LINE
  8
LAYER_2
 10
-33.881
 20
94.3531
 11
-33.8659
 21
94.3552
  0
LINE
  8
LAYER_2
 10
-33.8659
 20
94.3552
 11
-33.851
 21
94.3617
  0
LINE
  8
LAYER_2
 10
-33.851
 20
94.3617
 11
-33.8367
 21
94.3722
  0
LINE
  8
LAYER_2
 10
-33.8367
 20
94.3722
 11
-33.8231
 21
94.3866
  0
LINE
  8
LAYER_2
 10
-33.8231
 20
94.3866
 11
-33.8105
 21
94.4048
  0
LINE
  8
LAYER_2
 10
-33.8105
 20
94.4048
 11
-33.7991
 21
94.4263
  0
LINE
  8
LAYER_2
 10
-33.7991
 20
94.4263
 11
-33.7892
 21
94.4509
  0
LINE
  8
LAYER_2
 10
-33.7892
 20
94.4509
 11
-33.7808
 21
94.4781
  0
LINE
  8
LAYER_2
 10
-33.7808
 20
94.4781
 11
-33.7741
 21
94.5075
  0
LINE
  8
LAYER_2
 10
-33.7741
 20
94.5075
 11
-33.7692
 21
94.5384
  0
LINE
  8
LAYER_2
 10
-33.7692
 20
94.5384
 11
-33.7662
 21
94.5705
  0
LINE
  8
LAYER_2
 10
-33.7662
 20
94.5705
 11
-33.7653
 21
94.6031
  0
ENDBLK
  0
BLOCK
  8
LAYER_2
  2
AIGNBL02020110
 70
64
 10
0
 20
0
 30
0
  3
AIGNBL02020110
  0
LINE
  8
LAYER_2
 10
-33.2586
 20
94.3531
 11
-33.2924
 21
94.35
  0
LINE
  8
LAYER_2
 10
-33.2924
 20
94.35
 11
-33.3255
 21
94.3409
  0
LINE
  8
LAYER_2
 10
-33.3255
 20
94.3409
 11
-33.3569
 21
94.3259
  0
LINE
  8
LAYER_2
 10
-33.3569
 20
94.3259
 11
-33.3858
 21
94.3054
  0
LINE
  8
LAYER_2
 10
-33.3858
 20
94.3054
 11
-33.4117
 21
94.2799
  0
LINE
  8
LAYER_2
 10
-33.4117
 20
94.2799
 11
-33.4337
 21
94.2501
  0
LINE
  8
LAYER_2
 10
-33.4337
 20
94.2501
 11
-33.4515
 21
94.2166
  0
LINE
  8
LAYER_2
 10
-33.4515
 20
94.2166
 11
-33.4645
 21
94.1803
  0
LINE
  8
LAYER_2
 10
-33.4645
 20
94.1803
 11
-33.4725
 21
94.1422
  0
LINE
  8
LAYER_2
 10
-33.4725
 20
94.1422
 11
-33.4751
 21
94.1031
  0
ENDBLK
  0
BLOCK
  8
LAYER_2
  2
AIGNBL02020111
 70
64
 10
0
 20
0
 30
0
  3
AIGNBL02020111
  0
LINE
  8
LAYER_2
 10
-31.0615
 20
94.3531
 11
-41.5615
 21
94.3531
  0
ENDBLK
  0
BLOCK
  8
LAYER_2
  2
AIGNBL02020112
 70
64
 10
0
 20
0
 30
0
  3
AIGNBL02020112
  0
LINE
  8
LAYER_2
 10
-38.1865
 20
95.6031
 11
-34.4365
 21
95.6031
  0
ENDBLK
  0
BLOCK
  8
LAYER_2
  2
AIGNBL02020113
 70
64
 10
0
 20
0
 30
0
  3
AIGNBL02020113
  0
LINE
  8
LAYER_2
 10
-39.3645
 20
94.3531
 11
-39.3306
 21
94.35
  0
LINE
  8
LAYER_2
 10
-39.3306
 20
94.35
 11
-39.2976
 21
94.3409
  0
LINE
  8
LAYER_2
 10
-39.2976
 20
94.3409
 11
-39.2662
 21
94.3259
  0
LINE
  8
LAYER_2
 10
-39.2662
 20
94.3259
 11
-39.2372
 21
94.3054
  0
LINE
  8
LAYER_2
 10
-39.2372
 20
94.3054
 11
-39.2114
 21
94.2799
  0
LINE
  8
LAYER_2
 10
-39.2114
 20
94.2799
 11
-39.1893
 21
94.2501
  0
LINE
  8
LAYER_2
 10
-39.1893
 20
94.2501
 11
-39.1716
 21
94.2166
  0
LINE
  8
LAYER_2
 10
-39.1716
 20
94.2166
 11
-39.1586
 21
94.1803
  0
LINE
  8
LAYER_2
 10
-39.1586
 20
94.1803
 11
-39.1506
 21
94.1422
  0
LINE
  8
LAYER_2
 10
-39.1506
 20
94.1422
 11
-39.148
 21
94.1031
  0
ENDBLK
  0
BLOCK
  8
LAYER_2
  2
AIGNBL02020114
 70
64
 10
0
 20
0
 30
0
  3
AIGNBL02020114
  0
LINE
  8
LAYER_2
 10
-38.7421
 20
94.3531
 11
-38.7572
 21
94.3552
  0
LINE
  8
LAYER_2
 10
-38.7572
 20
94.3552
 11
-38.7721
 21
94.3617
  0
LINE
  8
LAYER_2
 10
-38.7721
 20
94.3617
 11
-38.7864
 21
94.3722
  0
LINE
  8
LAYER_2
 10
-38.7864
 20
94.3722
 11
-38.7999
 21
94.3866
  0
LINE
  8
LAYER_2
 10
-38.7999
 20
94.3866
 11
-38.8126
 21
94.4048
  0
LINE
  8
LAYER_2
 10
-38.8126
 20
94.4048
 11
-38.8239
 21
94.4263
  0
LINE
  8
LAYER_2
 10
-38.8239
 20
94.4263
 11
-38.8339
 21
94.4509
  0
LINE
  8
LAYER_2
 10
-38.8339
 20
94.4509
 11
-38.8424
 21
94.4781
  0
LINE
  8
LAYER_2
 10
-38.8424
 20
94.4781
 11
-38.849
 21
94.5075
  0
LINE
  8
LAYER_2
 10
-38.849
 20
94.5075
 11
-38.8539
 21
94.5384
  0
LINE
  8
LAYER_2
 10
-38.8539
 20
94.5384
 11
-38.8568
 21
94.5705
  0
LINE
  8
LAYER_2
 10
-38.8568
 20
94.5705
 11
-38.8578
 21
94.6031
  0
ENDBLK
  0
BLOCK
  8
LAYER_2
  2
AIGNBL02020115
 70
64
 10
0
 20
0
 30
0
  3
AIGNBL02020115
  0
LINE
  8
LAYER_2
 10
-39.2073
 20
94.3531
 11
-39.1857
 21
94.35
  0
LINE
  8
LAYER_2
 10
-39.1857
 20
94.35
 11
-39.1647
 21
94.3409
  0
LINE
  8
LAYER_2
 10
-39.1647
 20
94.3409
 11
-39.1447
 21
94.3259
  0
LINE
  8
LAYER_2
 10
-39.1447
 20
94.3259
 11
-39.1262
 21
94.3054
  0
LINE
  8
LAYER_2
 10
-39.1262
 20
94.3054
 11
-39.1097
 21
94.2799
  0
LINE
  8
LAYER_2
 10
-39.1097
 20
94.2799
 11
-39.0957
 21
94.2501
  0
LINE
  8
LAYER_2
 10
-39.0957
 20
94.2501
 11
-39.0844
 21
94.2166
  0
LINE
  8
LAYER_2
 10
-39.0844
 20
94.2166
 11
-39.0761
 21
94.1803
  0
LINE
  8
LAYER_2
 10
-39.0761
 20
94.1803
 11
-39.0711
 21
94.1422
  0
LINE
  8
LAYER_2
 10
-39.0711
 20
94.1422
 11
-39.0693
 21
94.1031
  0
ENDBLK
  0
BLOCK
  8
LAYER_2
  2
AIGNBL02020116
 70
64
 10
0
 20
0
 30
0
  3
AIGNBL02020116
  0
LINE
  8
LAYER_2
 10
-38.6562
 20
94.3531
 11
-38.6387
 21
94.35
  0
LINE
  8
LAYER_2
 10
-38.6387
 20
94.35
 11
-38.6217
 21
94.3409
  0
LINE
  8
LAYER_2
 10
-38.6217
 20
94.3409
 11
-38.6054
 21
94.3259
  0
LINE
  8
LAYER_2
 10
-38.6054
 20
94.3259
 11
-38.5905
 21
94.3054
  0
LINE
  8
LAYER_2
 10
-38.5905
 20
94.3054
 11
-38.5772
 21
94.2799
  0
LINE
  8
LAYER_2
 10
-38.5772
 20
94.2799
 11
-38.5658
 21
94.2501
  0
LINE
  8
LAYER_2
 10
-38.5658
 20
94.2501
 11
-38.5567
 21
94.2166
  0
LINE
  8
LAYER_2
 10
-38.5567
 20
94.2166
 11
-38.55
 21
94.1803
  0
LINE
  8
LAYER_2
 10
-38.55
 20
94.1803
 11
-38.5459
 21
94.1422
  0
LINE
  8
LAYER_2
 10
-38.5459
 20
94.1422
 11
-38.5445
 21
94.1031
  0
ENDBLK
  0
BLOCK
  8
LAYER_2
  2
AIGNBL02020117
 70
64
 10
0
 20
0
 30
0
  3
AIGNBL02020117
  0
LINE
  8
LAYER_2
 10
-37.7405
 20
94.3531
 11
-37.7475
 21
94.3552
  0
LINE
  8
LAYER_2
 10
-37.7475
 20
94.3552
 11
-37.7544
 21
94.3617
  0
LINE
  8
LAYER_2
 10
-37.7544
 20
94.3617
 11
-37.7611
 21
94.3722
  0
LINE
  8
LAYER_2
 10
-37.7611
 20
94.3722
 11
-37.7674
 21
94.3866
  0
LINE
  8
LAYER_2
 10
-37.7674
 20
94.3866
 11
-37.7733
 21
94.4048
  0
LINE
  8
LAYER_2
 10
-37.7733
 20
94.4048
 11
-37.7786
 21
94.4263
  0
LINE
  8
LAYER_2
 10
-37.7786
 20
94.4263
 11
-37.7832
 21
94.4509
  0
LINE
  8
LAYER_2
 10
-37.7832
 20
94.4509
 11
-37.7872
 21
94.4781
  0
LINE
  8
LAYER_2
 10
-37.7872
 20
94.4781
 11
-37.7903
 21
94.5075
  0
LINE
  8
LAYER_2
 10
-37.7903
 20
94.5075
 11
-37.7926
 21
94.5384
  0
LINE
  8
LAYER_2
 10
-37.7926
 20
94.5384
 11
-37.7939
 21
94.5705
  0
LINE
  8
LAYER_2
 10
-37.7939
 20
94.5705
 11
-37.7943
 21
94.6031
  0
ENDBLK
  0
BLOCK
  8
LAYER_2
  2
AIGNBL02020118
 70
64
 10
0
 20
0
 30
0
  3
AIGNBL02020118
  0
LINE
  8
LAYER_2
 10
-35.5615
 20
96.7281
 11
-37.0616
 21
96.7281
  0
ENDBLK
  0
BLOCK
  8
LAYER_2
  2
AIGNBL02020119
 70
64
 10
0
 20
0
 30
0
  3
AIGNBL02020119
  0
LINE
  8
LAYER_2
 10
-35.6865
 20
96.8531
 11
-35.5616
 21
96.7281
  0
ENDBLK
  0
BLOCK
  8
LAYER_2
  2
AIGNBL0202011A
 70
64
 10
0
 20
0
 30
0
  3
AIGNBL0202011A
  0
LINE
  8
LAYER_2
 10
-39.148
 20
94.1031
 11
-39.148
 21
92.8531
  0
ENDBLK
  0
BLOCK
  8
LAYER_2
  2
AIGNBL0202011B
 70
64
 10
0
 20
0
 30
0
  3
AIGNBL0202011B
  0
LINE
  8
LAYER_2
 10
-39.0694
 20
94.1031
 11
-39.0694
 21
92.8531
  0
ENDBLK
  0
BLOCK
  8
LAYER_2
  2
AIGNBL0202011C
 70
64
 10
0
 20
0
 30
0
  3
AIGNBL0202011C
  0
LINE
  8
LAYER_2
 10
-38.8578
 20
94.6031
 11
-38.8578
 21
95.6032
  0
ENDBLK
  0
BLOCK
  8
LAYER_2
  2
AIGNBL0202011D
 70
64
 10
0
 20
0
 30
0
  3
AIGNBL0202011D
  0
LINE
  8
LAYER_2
 10
-38.5445
 20
92.8531
 11
-38.5445
 21
94.1031
  0
ENDBLK
  0
BLOCK
  8
LAYER_2
  2
AIGNBL0202011E
 70
64
 10
0
 20
0
 30
0
  3
AIGNBL0202011E
  0
LINE
  8
LAYER_2
 10
-38.4329
 20
92.6031
 11
-38.4329
 21
94.3531
  0
ENDBLK
  0
BLOCK
  8
LAYER_2
  2
AIGNBL0202011F
 70
64
 10
0
 20
0
 30
0
  3
AIGNBL0202011F
  0
LINE
  8
LAYER_2
 10
-38.1865
 20
95.6031
 11
-38.1865
 21
94.6031
  0
ENDBLK
  0
BLOCK
  8
LAYER_2
  2
AIGNBL02020120
 70
64
 10
0
 20
0
 30
0
  3
AIGNBL02020120
  0
LINE
  8
LAYER_2
 10
-37.8027
 20
89.9981
 11
-37.8027
 21
90.0581
  0
ENDBLK
  0
BLOCK
  8
LAYER_2
  2
AIGNBL02020121
 70
64
 10
0
 20
0
 30
0
  3
AIGNBL02020121
  0
LINE
  8
LAYER_2
 10
-37.7944
 20
95.6031
 11
-37.7944
 21
94.6031
  0
ENDBLK
  0
BLOCK
  8
LAYER_2
  2
AIGNBL02020122
 70
64
 10
0
 20
0
 30
0
  3
AIGNBL02020122
  0
LINE
  8
LAYER_2
 10
-36.9365
 20
96.8531
 11
-36.9365
 21
95.6031
  0
ENDBLK
  0
BLOCK
  8
LAYER_2
  2
AIGNBL02020123
 70
64
 10
0
 20
0
 30
0
  3
AIGNBL02020123
  0
LINE
  8
LAYER_2
 10
-36.9365
 20
94.3531
 11
-36.9365
 21
90.6031
  0
ENDBLK
  0
BLOCK
  8
LAYER_2
  2
AIGNBL02020124
 70
64
 10
0
 20
0
 30
0
  3
AIGNBL02020124
  0
LINE
  8
LAYER_2
 10
-36.8656
 20
89.555
 11
-36.8656
 21
89.5256
  0
ENDBLK
  0
BLOCK
  8
LAYER_2
  2
AIGNBL02020125
 70
64
 10
0
 20
0
 30
0
  3
AIGNBL02020125
  0
LINE
  8
LAYER_2
 10
-35.7575
 20
89.555
 11
-35.7575
 21
89.5256
  0
ENDBLK
  0
BLOCK
  8
LAYER_2
  2
AIGNBL02020126
 70
64
 10
0
 20
0
 30
0
  3
AIGNBL02020126
  0
LINE
  8
LAYER_2
 10
-35.6865
 20
96.8531
 11
-35.6865
 21
95.6031
  0
ENDBLK
  0
BLOCK
  8
LAYER_2
  2
AIGNBL02020127
 70
64
 10
0
 20
0
 30
0
  3
AIGNBL02020127
  0
LINE
  8
LAYER_2
 10
-35.6865
 20
94.3531
 11
-35.6865
 21
90.6031
  0
ENDBLK
  0
BLOCK
  8
LAYER_2
  2
AIGNBL02020128
 70
64
 10
0
 20
0
 30
0
  3
AIGNBL02020128
  0
LINE
  8
LAYER_2
 10
-34.8287
 20
94.6031
 11
-34.8287
 21
95.6032
  0
ENDBLK
  0
BLOCK
  8
LAYER_2
  2
AIGNBL02020129
 70
64
 10
0
 20
0
 30
0
  3
AIGNBL02020129
  0
LINE
  8
LAYER_2
 10
-34.8204
 20
89.9981
 11
-34.8204
 21
90.0581
  0
ENDBLK
  0
BLOCK
  8
LAYER_2
  2
AIGNBL0202012A
 70
64
 10
0
 20
0
 30
0
  3
AIGNBL0202012A
  0
LINE
  8
LAYER_2
 10
-34.4365
 20
94.6031
 11
-34.4365
 21
95.6032
  0
ENDBLK
  0
BLOCK
  8
LAYER_2
  2
AIGNBL0202012B
 70
64
 10
0
 20
0
 30
0
  3
AIGNBL0202012B
  0
LINE
  8
LAYER_2
 10
-34.1902
 20
92.6031
 11
-34.1902
 21
94.3531
  0
ENDBLK
  0
BLOCK
  8
LAYER_2
  2
AIGNBL0202012C
 70
64
 10
0
 20
0
 30
0
  3
AIGNBL0202012C
  0
LINE
  8
LAYER_2
 10
-34.0786
 20
94.1031
 11
-34.0786
 21
92.8531
  0
ENDBLK
  0
BLOCK
  8
LAYER_2
  2
AIGNBL0202012D
 70
64
 10
0
 20
0
 30
0
  3
AIGNBL0202012D
  0
LINE
  8
LAYER_2
 10
-33.7652
 20
94.6031
 11
-33.7652
 21
95.6032
  0
ENDBLK
  0
BLOCK
  8
LAYER_2
  2
AIGNBL0202012E
 70
64
 10
0
 20
0
 30
0
  3
AIGNBL0202012E
  0
LINE
  8
LAYER_2
 10
-33.5537
 20
92.8531
 11
-33.5537
 21
94.1031
  0
ENDBLK
  0
BLOCK
  8
LAYER_2
  2
AIGNBL0202012F
 70
64
 10
0
 20
0
 30
0
  3
AIGNBL0202012F
  0
LINE
  8
LAYER_2
 10
-33.4751
 20
92.8531
 11
-33.4751
 21
94.1031
  0
ENDBLK
  0
BLOCK
  8
LAYER_2
  2
AIGNBL02020130
 70
64
 10
0
 20
0
 30
0
  3
AIGNBL02020130
  0
LINE
  8
LAYER_2
 10
-36.9365
 20
96.8531
 11
-37.0615
 21
96.7281
  0
ENDBLK
  0
BLOCK
  8
LAYER_2
  2
AIGNBL02020131
 70
64
 10
0
 20
0
 30
0
  3
AIGNBL02020131
  0
LINE
  8
LAYER_2
 10
-34.8826
 20
94.3531
 11
-34.8756
 21
94.3552
  0
LINE
  8
LAYER_2
 10
-34.8756
 20
94.3552
 11
-34.8687
 21
94.3617
  0
LINE
  8
LAYER_2
 10
-34.8687
 20
94.3617
 11
-34.862
 21
94.3722
  0
LINE
  8
LAYER_2
 10
-34.862
 20
94.3722
 11
-34.8556
 21
94.3866
  0
LINE
  8
LAYER_2
 10
-34.8556
 20
94.3866
 11
-34.8498
 21
94.4048
  0
LINE
  8
LAYER_2
 10
-34.8498
 20
94.4048
 11
-34.8445
 21
94.4263
  0
LINE
  8
LAYER_2
 10
-34.8445
 20
94.4263
 11
-34.8398
 21
94.4509
  0
LINE
  8
LAYER_2
 10
-34.8398
 20
94.4509
 11
-34.836
 21
94.4781
  0
LINE
  8
LAYER_2
 10
-34.836
 20
94.4781
 11
-34.8328
 21
94.5075
  0
LINE
  8
LAYER_2
 10
-34.8328
 20
94.5075
 11
-34.8305
 21
94.5384
  0
LINE
  8
LAYER_2
 10
-34.8305
 20
94.5384
 11
-34.8292
 21
94.5705
  0
LINE
  8
LAYER_2
 10
-34.8292
 20
94.5705
 11
-34.8287
 21
94.6031
  0
ENDBLK
  0
BLOCK
  8
LAYER_2
  2
AIGNBL02020132
 70
64
 10
0
 20
0
 30
0
  3
AIGNBL02020132
  0
LINE
  8
LAYER_2
 10
-35.7224
 20
89.5381
 11
-35.7574
 21
89.5256
  0
ENDBLK
  0
BLOCK
  8
LAYER_2
  2
AIGNBL02020133
 70
64
 10
0
 20
0
 30
0
  3
AIGNBL02020133
  0
ARC
  8
LAYER_2
 10
-41.5615
 20
94.6031
 40
0.25
 50
180.0007568
 51
269.9992432
  0
ENDBLK
  0
BLOCK
  8
LAYER_2
  2
AIGNBL02020134
 70
64
 10
0
 20
0
 30
0
  3
AIGNBL02020134
  0
ARC
  8
LAYER_2
 10
-41.0615
 20
92.8531
 40
0.25
 50
180.0008638
 51
269.9991363
  0
ENDBLK
  0
BLOCK
  8
LAYER_2
  2
AIGNBL02020135
 70
64
 10
0
 20
0
 30
0
  3
AIGNBL02020135
  0
ARC
  8
LAYER_2
 10
-41.5616
 20
94.1031
 40
0.2501
 50
359.9941584
 51
90.00584162
  0
ENDBLK
  0
BLOCK
  8
LAYER_2
  2
AIGNBL02020136
 70
64
 10
0
 20
0
 30
0
  3
AIGNBL02020136
  0
ARC
  8
LAYER_2
 10
-37.9365
 20
94.6031
 40
0.25
 50
180.0006937
 51
269.9993063
  0
ENDBLK
  0
BLOCK
  8
LAYER_2
  2
AIGNBL02020137
 70
64
 10
0
 20
0
 30
0
  3
AIGNBL02020137
  0
ARC
  8
LAYER_2
 10
-36.3114
 20
91.7897
 40
2.3309
 50
283.7476763
 51
309.768189
  0
ENDBLK
  0
BLOCK
  8
LAYER_2
  2
AIGNBL02020138
 70
64
 10
0
 20
0
 30
0
  3
AIGNBL02020138
  0
ARC
  8
LAYER_2
 10
-36.3113
 20
91.7905
 40
2.3317
 50
230.2365191
 51
256.2476157
  0
ENDBLK
  0
BLOCK
  8
LAYER_2
  2
AIGNBL02020139
 70
64
 10
0
 20
0
 30
0
  3
AIGNBL02020139
  0
ARC
  8
LAYER_2
 10
-31.0615
 20
94.6031
 40
0.25
 50
270.009778
 51
359.990222
  0
ENDBLK
  0
BLOCK
  8
LAYER_2
  2
AIGNBL0202013A
 70
64
 10
0
 20
0
 30
0
  3
AIGNBL0202013A
  0
ARC
  8
LAYER_2
 10
-31.5615
 20
92.8531
 40
0.25
 50
270.010501
 51
0.01241277967
  0
ENDBLK
  0
BLOCK
  8
LAYER_2
  2
AIGNBL0202013B
 70
64
 10
0
 20
0
 30
0
  3
AIGNBL0202013B
  0
ARC
  8
LAYER_2
 10
-31.0616
 20
94.1031
 40
0.25
 50
89.9857526
 51
179.9913336
  0
ENDBLK
  0
BLOCK
  8
LAYER_2
  2
AIGNBL0202013C
 70
64
 10
0
 20
0
 30
0
  3
AIGNBL0202013C
  0
ARC
  8
LAYER_2
 10
-34.6865
 20
94.6031
 40
0.25
 50
270.0103315
 51
359.9896685
  0
ENDBLK
  0
BLOCK
  8
LAYER_2
  2
AIGNBL0202013D
 70
64
 10
0
 20
0
 30
0
  3
AIGNBL0202013D
  0
LINE
  8
LAYER_2
 10
-35.8239
 20
89.5415
 11
-35.81
 21
89.5447
  0
LINE
  8
LAYER_2
 10
-35.81
 20
89.5447
 11
-35.7961
 21
89.5478
  0
LINE
  8
LAYER_2
 10
-35.7961
 20
89.5478
 11
-35.7823
 21
89.5505
  0
LINE
  8
LAYER_2
 10
-35.7823
 20
89.5505
 11
-35.7689
 21
89.553
  0
ENDBLK
  0
BLOCK
  8
LAYER_2
  2
AIGNBL0202013E
 70
64
 10
0
 20
0
 30
0
  3
AIGNBL0202013E
  0
LINE
  8
LAYER_2
 10
-35.7689
 20
89.553
 11
-35.756
 21
89.5552
  0
LINE
  8
LAYER_2
 10
-35.756
 20
89.5552
 11
-35.7438
 21
89.5571
  0
LINE
  8
LAYER_2
 10
-35.7438
 20
89.5571
 11
-35.7325
 21
89.5585
  0
LINE
  8
LAYER_2
 10
-35.7325
 20
89.5585
 11
-35.7222
 21
89.5596
  0
LINE
  8
LAYER_2
 10
-35.7222
 20
89.5596
 11
-35.7131
 21
89.5603
  0
LINE
  8
LAYER_2
 10
-35.7131
 20
89.5603
 11
-35.7052
 21
89.5604
  0
LINE
  8
LAYER_2
 10
-35.7052
 20
89.5604
 11
-35.6989
 21
89.5603
  0
LINE
  8
LAYER_2
 10
-35.6989
 20
89.5603
 11
-35.6941
 21
89.5596
  0
LINE
  8
LAYER_2
 10
-35.6941
 20
89.5596
 11
-35.6909
 21
89.5585
  0
LINE
  8
LAYER_2
 10
-35.6909
 20
89.5585
 11
-35.6894
 21
89.557
  0
LINE
  8
LAYER_2
 10
-35.6894
 20
89.557
 11
-35.6893
 21
89.5563
  0
ENDBLK
  0
BLOCK
  8
LAYER_2
  2
AIGNBL0202013F
 70
64
 10
0
 20
0
 30
0
  3
AIGNBL0202013F
  0
LINE
  8
LAYER_2
 10
-37.8115
 20
90.6031
 11
-34.8116
 21
90.6031
  0
ENDBLK
  0
BLOCK
  8
LAYER_2
  2
AIGNBL02020140
 70
64
 10
0
 20
0
 30
0
  3
AIGNBL02020140
  0
LINE
  8
LAYER_2
 10
-36.8669
 20
89.5552
 11
-36.854
 21
89.553
  0
LINE
  8
LAYER_2
 10
-36.854
 20
89.553
 11
-36.8406
 21
89.5505
  0
LINE
  8
LAYER_2
 10
-36.8406
 20
89.5505
 11
-36.8269
 21
89.5477
  0
LINE
  8
LAYER_2
 10
-36.8269
 20
89.5477
 11
-36.813
 21
89.5447
  0
LINE
  8
LAYER_2
 10
-36.813
 20
89.5447
 11
-36.7991
 21
89.5415
  0
LINE
  8
LAYER_2
 10
-36.7991
 20
89.5415
 11
-36.7854
 21
89.5381
  0
ENDBLK
  0
BLOCK
  8
LAYER_2
  2
AIGNBL02020141
 70
64
 10
0
 20
0
 30
0
  3
AIGNBL02020141
  0
LINE
  8
LAYER_2
 10
-36.7854
 20
89.5381
 11
-36.7633
 21
89.5327
  0
LINE
  8
LAYER_2
 10
-36.7633
 20
89.5327
 11
-36.7407
 21
89.5279
  0
LINE
  8
LAYER_2
 10
-36.7407
 20
89.5279
 11
-36.7176
 21
89.5234
  0
LINE
  8
LAYER_2
 10
-36.7176
 20
89.5234
 11
-36.6941
 21
89.5194
  0
LINE
  8
LAYER_2
 10
-36.6941
 20
89.5194
 11
-36.6708
 21
89.5161
  0
LINE
  8
LAYER_2
 10
-36.6708
 20
89.5161
 11
-36.6478
 21
89.5133
  0
LINE
  8
LAYER_2
 10
-36.6478
 20
89.5133
 11
-36.6255
 21
89.5112
  0
LINE
  8
LAYER_2
 10
-36.6255
 20
89.5112
 11
-36.6041
 21
89.5098
  0
LINE
  8
LAYER_2
 10
-36.6041
 20
89.5098
 11
-36.5839
 21
89.5089
  0
LINE
  8
LAYER_2
 10
-36.5839
 20
89.5089
 11
-36.5652
 21
89.5086
  0
LINE
  8
LAYER_2
 10
-36.5652
 20
89.5086
 11
-36.5485
 21
89.5088
  0
LINE
  8
LAYER_2
 10
-36.5485
 20
89.5088
 11
-36.5332
 21
89.5094
  0
LINE
  8
LAYER_2
 10
-36.5332
 20
89.5094
 11
-36.5195
 21
89.5104
  0
LINE
  8
LAYER_2
 10
-36.5195
 20
89.5104
 11
-36.507
 21
89.5117
  0
LINE
  8
LAYER_2
 10
-36.507
 20
89.5117
 11
-36.4956
 21
89.5132
  0
LINE
  8
LAYER_2
 10
-36.4956
 20
89.5132
 11
-36.485
 21
89.515
  0
LINE
  8
LAYER_2
 10
-36.485
 20
89.515
 11
-36.4753
 21
89.517
  0
LINE
  8
LAYER_2
 10
-36.4753
 20
89.517
 11
-36.4663
 21
89.5193
  0
LINE
  8
LAYER_2
 10
-36.4663
 20
89.5193
 11
-36.4579
 21
89.5218
  0
LINE
  8
LAYER_2
 10
-36.4579
 20
89.5218
 11
-36.4502
 21
89.5246
  0
LINE
  8
LAYER_2
 10
-36.4502
 20
89.5246
 11
-36.4432
 21
89.5277
  0
LINE
  8
LAYER_2
 10
-36.4432
 20
89.5277
 11
-36.437
 21
89.531
  0
LINE
  8
LAYER_2
 10
-36.437
 20
89.531
 11
-36.4315
 21
89.5344
  0
LINE
  8
LAYER_2
 10
-36.4315
 20
89.5344
 11
-36.4268
 21
89.5381
  0
ENDBLK
  0
BLOCK
  8
LAYER_2
  2
AIGNBL02020142
 70
64
 10
0
 20
0
 30
0
  3
AIGNBL02020142
  0
LINE
  8
LAYER_2
 10
-36.9007
 20
89.5381
 11
-36.9097
 21
89.5415
  0
LINE
  8
LAYER_2
 10
-36.9097
 20
89.5415
 11
-36.9174
 21
89.5447
  0
LINE
  8
LAYER_2
 10
-36.9174
 20
89.5447
 11
-36.9238
 21
89.5477
  0
LINE
  8
LAYER_2
 10
-36.9238
 20
89.5477
 11
-36.9286
 21
89.5505
  0
LINE
  8
LAYER_2
 10
-36.9286
 20
89.5505
 11
-36.9319
 21
89.553
  0
LINE
  8
LAYER_2
 10
-36.9319
 20
89.553
 11
-36.9336
 21
89.5552
  0
LINE
  8
LAYER_2
 10
-36.9336
 20
89.5552
 11
-36.9338
 21
89.5563
  0
ENDBLK
  0
BLOCK
  8
LAYER_2
  2
AIGNBL02020143
 70
64
 10
0
 20
0
 30
0
  3
AIGNBL02020143
  0
LINE
  8
LAYER_2
 10
-41.8115
 20
95.6031
 11
-38.1865
 21
95.6031
  0
ENDBLK
  0
BLOCK
  8
LAYER_2
  2
AIGNBL02020144
 70
64
 10
0
 20
0
 30
0
  3
AIGNBL02020144
  0
LINE
  8
LAYER_2
 10
-34.4365
 20
95.6031
 11
-30.8116
 21
95.6031
  0
ENDBLK
  0
BLOCK
  8
LAYER_2
  2
AIGNBL02020145
 70
64
 10
0
 20
0
 30
0
  3
AIGNBL02020145
  0
LINE
  8
LAYER_2
 10
-36.1963
 20
89.5381
 11
-36.1915
 21
89.5343
  0
LINE
  8
LAYER_2
 10
-36.1915
 20
89.5343
 11
-36.1859
 21
89.5308
  0
LINE
  8
LAYER_2
 10
-36.1859
 20
89.5308
 11
-36.1795
 21
89.5275
  0
LINE
  8
LAYER_2
 10
-36.1795
 20
89.5275
 11
-36.1724
 21
89.5244
  0
LINE
  8
LAYER_2
 10
-36.1724
 20
89.5244
 11
-36.1645
 21
89.5216
  0
LINE
  8
LAYER_2
 10
-36.1645
 20
89.5216
 11
-36.1559
 21
89.5191
  0
LINE
  8
LAYER_2
 10
-36.1559
 20
89.5191
 11
-36.1466
 21
89.5168
  0
LINE
  8
LAYER_2
 10
-36.1466
 20
89.5168
 11
-36.1365
 21
89.5147
  0
LINE
  8
LAYER_2
 10
-36.1365
 20
89.5147
 11
-36.1257
 21
89.513
  0
LINE
  8
LAYER_2
 10
-36.1257
 20
89.513
 11
-36.114
 21
89.5115
  0
LINE
  8
LAYER_2
 10
-36.114
 20
89.5115
 11
-36.1015
 21
89.5102
  0
LINE
  8
LAYER_2
 10
-36.1015
 20
89.5102
 11
-36.088
 21
89.5093
  0
LINE
  8
LAYER_2
 10
-36.088
 20
89.5093
 11
-36.0734
 21
89.5088
  0
LINE
  8
LAYER_2
 10
-36.0734
 20
89.5088
 11
-36.058
 21
89.5086
  0
LINE
  8
LAYER_2
 10
-36.058
 20
89.5086
 11
-36.0416
 21
89.5088
  0
LINE
  8
LAYER_2
 10
-36.0416
 20
89.5088
 11
-36.0248
 21
89.5094
  0
LINE
  8
LAYER_2
 10
-36.0248
 20
89.5094
 11
-36.0084
 21
89.5104
  0
LINE
  8
LAYER_2
 10
-36.0084
 20
89.5104
 11
-35.9927
 21
89.5116
  0
LINE
  8
LAYER_2
 10
-35.9927
 20
89.5116
 11
-35.9782
 21
89.5131
  0
LINE
  8
LAYER_2
 10
-35.9782
 20
89.5131
 11
-35.9645
 21
89.5146
  0
LINE
  8
LAYER_2
 10
-35.9645
 20
89.5146
 11
-35.9514
 21
89.5162
  0
LINE
  8
LAYER_2
 10
-35.9514
 20
89.5162
 11
-35.9387
 21
89.518
  0
LINE
  8
LAYER_2
 10
-35.9387
 20
89.518
 11
-35.9261
 21
89.5198
  0
LINE
  8
LAYER_2
 10
-35.9261
 20
89.5198
 11
-35.9137
 21
89.522
  0
LINE
  8
LAYER_2
 10
-35.9137
 20
89.522
 11
-35.901
 21
89.5243
  0
LINE
  8
LAYER_2
 10
-35.901
 20
89.5243
 11
-35.8883
 21
89.5266
  0
LINE
  8
LAYER_2
 10
-35.8883
 20
89.5266
 11
-35.8755
 21
89.5293
  0
LINE
  8
LAYER_2
 10
-35.8755
 20
89.5293
 11
-35.8627
 21
89.5321
  0
LINE
  8
LAYER_2
 10
-35.8627
 20
89.5321
 11
-35.8501
 21
89.535
  0
LINE
  8
LAYER_2
 10
-35.8501
 20
89.535
 11
-35.824
 21
89.5415
  0
ENDBLK
  0
BLOCK
  8
LAYER_2
  2
AIGNBL02020146
 70
64
 10
0
 20
0
 30
0
  3
AIGNBL02020146
  0
LINE
  8
LAYER_2
 10
-43.0615
 20
96.8531
 11
-29.5615
 21
96.8531
  0
ENDBLK
  0
BLOCK
  8
LAYER_2
  2
AIGNBL02020147
 70
64
 10
0
 20
0
 30
0
  3
AIGNBL02020147
  0
LINE
  8
LAYER_2
 10
-43.0615
 20
97.3531
 11
-29.5615
 21
97.3531
  0
ENDBLK
  0
BLOCK
  8
LAYER_2
  2
AIGNBL02020148
 70
64
 10
0
 20
0
 30
0
  3
AIGNBL02020148
  0
LINE
  8
LAYER_2
 10
-42.3115
 20
97.8531
 11
-30.3115
 21
97.8531
  0
ENDBLK
  0
BLOCK
  8
LAYER_2
  2
AIGNBL02020149
 70
64
 10
0
 20
0
 30
0
  3
AIGNBL02020149
  0
LINE
  8
LAYER_2
 10
-43.0615
 20
97.3531
 11
-43.0615
 21
96.8531
  0
ENDBLK
  0
BLOCK
  8
LAYER_2
  2
AIGNBL0202014A
 70
64
 10
0
 20
0
 30
0
  3
AIGNBL0202014A
  0
LINE
  8
LAYER_2
 10
-42.3115
 20
97.8531
 11
-42.3115
 21
97.3531
  0
ENDBLK
  0
BLOCK
  8
LAYER_2
  2
AIGNBL0202014B
 70
64
 10
0
 20
0
 30
0
  3
AIGNBL0202014B
  0
LINE
  8
LAYER_2
 10
-41.8115
 20
95.6031
 11
-41.8115
 21
94.6031
  0
ENDBLK
  0
BLOCK
  8
LAYER_2
  2
AIGNBL0202014C
 70
64
 10
0
 20
0
 30
0
  3
AIGNBL0202014C
  0
LINE
  8
LAYER_2
 10
-41.3115
 20
92.8531
 11
-41.3115
 21
94.1031
  0
ENDBLK
  0
BLOCK
  8
LAYER_2
  2
AIGNBL0202014D
 70
64
 10
0
 20
0
 30
0
  3
AIGNBL0202014D
  0
LINE
  8
LAYER_2
 10
-37.8115
 20
90.0581
 11
-37.8115
 21
90.6032
  0
ENDBLK
  0
BLOCK
  8
LAYER_2
  2
AIGNBL0202014E
 70
64
 10
0
 20
0
 30
0
  3
AIGNBL0202014E
  0
LINE
  8
LAYER_2
 10
-37.0615
 20
90.6031
 11
-37.0615
 21
94.3531
  0
ENDBLK
  0
BLOCK
  8
LAYER_2
  2
AIGNBL0202014F
 70
64
 10
0
 20
0
 30
0
  3
AIGNBL0202014F
  0
LINE
  8
LAYER_2
 10
-37.0615
 20
95.6031
 11
-37.0615
 21
96.7281
  0
ENDBLK
  0
BLOCK
  8
LAYER_2
  2
AIGNBL02020150
 70
64
 10
0
 20
0
 30
0
  3
AIGNBL02020150
  0
LINE
  8
LAYER_2
 10
-36.9007
 20
89.5381
 11
-36.9007
 21
89.5595
  0
ENDBLK
  0
BLOCK
  8
LAYER_2
  2
AIGNBL02020151
 70
64
 10
0
 20
0
 30
0
  3
AIGNBL02020151
  0
LINE
  8
LAYER_2
 10
-35.7224
 20
89.5381
 11
-35.7224
 21
89.5595
  0
ENDBLK
  0
BLOCK
  8
LAYER_2
  2
AIGNBL02020152
 70
64
 10
0
 20
0
 30
0
  3
AIGNBL02020152
  0
LINE
  8
LAYER_2
 10
-35.5615
 20
90.6031
 11
-35.5615
 21
94.3531
  0
ENDBLK
  0
BLOCK
  8
LAYER_2
  2
AIGNBL02020153
 70
64
 10
0
 20
0
 30
0
  3
AIGNBL02020153
  0
LINE
  8
LAYER_2
 10
-35.5615
 20
95.6031
 11
-35.5615
 21
96.7281
  0
ENDBLK
  0
BLOCK
  8
LAYER_2
  2
AIGNBL02020154
 70
64
 10
0
 20
0
 30
0
  3
AIGNBL02020154
  0
LINE
  8
LAYER_2
 10
-34.8115
 20
90.0581
 11
-34.8115
 21
90.6032
  0
ENDBLK
  0
BLOCK
  8
LAYER_2
  2
AIGNBL02020155
 70
64
 10
0
 20
0
 30
0
  3
AIGNBL02020155
  0
LINE
  8
LAYER_2
 10
-31.3115
 20
92.8531
 11
-31.3115
 21
94.1031
  0
ENDBLK
  0
BLOCK
  8
LAYER_2
  2
AIGNBL02020156
 70
64
 10
0
 20
0
 30
0
  3
AIGNBL02020156
  0
LINE
  8
LAYER_2
 10
-30.8115
 20
95.6031
 11
-30.8115
 21
94.6031
  0
ENDBLK
  0
BLOCK
  8
LAYER_2
  2
AIGNBL02020157
 70
64
 10
0
 20
0
 30
0
  3
AIGNBL02020157
  0
LINE
  8
LAYER_2
 10
-30.3115
 20
97.8531
 11
-30.3115
 21
97.3531
  0
ENDBLK
  0
BLOCK
  8
LAYER_2
  2
AIGNBL02020158
 70
64
 10
0
 20
0
 30
0
  3
AIGNBL02020158
  0
LINE
  8
LAYER_2
 10
-36.9338
 20
89.5562
 11
-36.9337
 21
89.557
  0
LINE
  8
LAYER_2
 10
-36.9337
 20
89.557
 11
-36.9321
 21
89.5585
  0
LINE
  8
LAYER_2
 10
-36.9321
 20
89.5585
 11
-36.9289
 21
89.5596
  0
LINE
  8
LAYER_2
 10
-36.9289
 20
89.5596
 11
-36.9241
 21
89.5602
  0
LINE
  8
LAYER_2
 10
-36.9241
 20
89.5602
 11
-36.9177
 21
89.5604
  0
LINE
  8
LAYER_2
 10
-36.9177
 20
89.5604
 11
-36.9099
 21
89.5602
  0
LINE
  8
LAYER_2
 10
-36.9099
 20
89.5602
 11
-36.9008
 21
89.5596
  0
LINE
  8
LAYER_2
 10
-36.9008
 20
89.5596
 11
-36.8905
 21
89.5584
  0
LINE
  8
LAYER_2
 10
-36.8905
 20
89.5584
 11
-36.8791
 21
89.557
  0
LINE
  8
LAYER_2
 10
-36.8791
 20
89.557
 11
-36.8669
 21
89.5552
  0
ENDBLK
  0
BLOCK
  8
LAYER_2
  2
AIGNBL02020159
 70
64
 10
0
 20
0
 30
0
  3
AIGNBL02020159
  0
LINE
  8
LAYER_2
 10
-29.5615
 20
97.3531
 11
-29.5615
 21
96.8531
  0
ENDBLK
  0
BLOCK
  8
LAYER_2
  2
AIGNBL0202015A
 70
64
 10
0
 20
0
 30
0
  3
AIGNBL0202015A
  0
LINE
  8
LAYER_2
 10
-35.6892
 20
89.5562
 11
-35.6895
 21
89.5552
  0
LINE
  8
LAYER_2
 10
-35.6895
 20
89.5552
 11
-35.6912
 21
89.553
  0
LINE
  8
LAYER_2
 10
-35.6912
 20
89.553
 11
-35.6945
 21
89.5505
  0
LINE
  8
LAYER_2
 10
-35.6945
 20
89.5505
 11
-35.6994
 21
89.5477
  0
LINE
  8
LAYER_2
 10
-35.6994
 20
89.5477
 11
-35.7057
 21
89.5447
  0
LINE
  8
LAYER_2
 10
-35.7057
 20
89.5447
 11
-35.7134
 21
89.5415
  0
LINE
  8
LAYER_2
 10
-35.7134
 20
89.5415
 11
-35.7224
 21
89.5381
  0
ENDBLK
  0
BLOCK
  8
LAYER_2
  2
AIGNBL0202015C
 70
64
 10
0
 20
0
 30
0
  3
AIGNBL0202015C
  0
LINE
  8
LAYER_2
 10
64.6229
 20
89.5381
 11
64.6335
 21
89.5347
  0
LINE
  8
LAYER_2
 10
64.6335
 20
89.5347
 11
64.6445
 21
89.5314
  0
LINE
  8
LAYER_2
 10
64.6445
 20
89.5314
 11
64.6558
 21
89.5284
  0
LINE
  8
LAYER_2
 10
64.6558
 20
89.5284
 11
64.6674
 21
89.5256
  0
ENDBLK
  0
BLOCK
  8
LAYER_2
  2
AIGNBL0202015D
 70
64
 10
0
 20
0
 30
0
  3
AIGNBL0202015D
  0
LINE
  8
LAYER_2
 10
64.1846
 20
89.5463
 11
64.1485
 21
89.5556
  0
ENDBLK
  0
BLOCK
  8
LAYER_2
  2
AIGNBL0202015E
 70
64
 10
0
 20
0
 30
0
  3
AIGNBL0202015E
  0
LINE
  8
LAYER_2
 10
64.1485
 20
89.5556
 11
64.1299
 21
89.5604
  0
ENDBLK
  0
BLOCK
  8
LAYER_2
  2
AIGNBL0202015F
 70
64
 10
0
 20
0
 30
0
  3
AIGNBL0202015F
  0
LINE
  8
LAYER_2
 10
64.2162
 20
89.5381
 11
64.1998
 21
89.5423
  0
LINE
  8
LAYER_2
 10
64.1998
 20
89.5423
 11
64.1846
 21
89.5463
  0
ENDBLK
  0
BLOCK
  8
LAYER_2
  2
AIGNBL02020160
 70
64
 10
0
 20
0
 30
0
  3
AIGNBL02020160
  0
LINE
  8
LAYER_2
 10
63.3299
 20
89.9981
 11
64.6674
 21
89.9981
  0
ENDBLK
  0
BLOCK
  8
LAYER_2
  2
AIGNBL02020161
 70
64
 10
0
 20
0
 30
0
  3
AIGNBL02020161
  0
LINE
  8
LAYER_2
 10
64.9924
 20
89.9981
 11
66.3299
 21
89.9981
  0
ENDBLK
  0
BLOCK
  8
LAYER_2
  2
AIGNBL02020162
 70
64
 10
0
 20
0
 30
0
  3
AIGNBL02020162
  0
LINE
  8
LAYER_2
 10
74.8299
 20
89.9981
 11
76.1674
 21
89.9981
  0
ENDBLK
  0
BLOCK
  8
LAYER_2
  2
AIGNBL02020163
 70
64
 10
0
 20
0
 30
0
  3
AIGNBL02020163
  0
LINE
  8
LAYER_2
 10
76.4924
 20
89.9981
 11
77.8299
 21
89.9981
  0
ENDBLK
  0
BLOCK
  8
LAYER_2
  2
AIGNBL02020164
 70
64
 10
0
 20
0
 30
0
  3
AIGNBL02020164
  0
LINE
  8
LAYER_2
 10
64.6674
 20
90.0581
 11
64.9924
 21
90.0581
  0
ENDBLK
  0
BLOCK
  8
LAYER_2
  2
AIGNBL02020165
 70
64
 10
0
 20
0
 30
0
  3
AIGNBL02020165
  0
LINE
  8
LAYER_2
 10
76.1674
 20
90.0581
 11
76.4924
 21
90.0581
  0
ENDBLK
  0
BLOCK
  8
LAYER_2
  2
AIGNBL02020166
 70
64
 10
0
 20
0
 30
0
  3
AIGNBL02020166
  0
LINE
  8
LAYER_2
 10
75.6846
 20
89.5463
 11
75.6485
 21
89.5556
  0
ENDBLK
  0
BLOCK
  8
LAYER_2
  2
AIGNBL02020167
 70
64
 10
0
 20
0
 30
0
  3
AIGNBL02020167
  0
LINE
  8
LAYER_2
 10
75.6486
 20
89.5556
 11
75.6299
 21
89.5604
  0
ENDBLK
  0
BLOCK
  8
LAYER_2
  2
AIGNBL02020168
 70
64
 10
0
 20
0
 30
0
  3
AIGNBL02020168
  0
LINE
  8
LAYER_2
 10
75.7162
 20
89.5381
 11
75.6998
 21
89.5423
  0
LINE
  8
LAYER_2
 10
75.6998
 20
89.5423
 11
75.6846
 21
89.5463
  0
ENDBLK
  0
BLOCK
  8
LAYER_2
  2
AIGNBL02020169
 70
64
 10
0
 20
0
 30
0
  3
AIGNBL02020169
  0
LINE
  8
LAYER_2
 10
76.1229
 20
89.5381
 11
76.1335
 21
89.5347
  0
LINE
  8
LAYER_2
 10
76.1335
 20
89.5347
 11
76.1445
 21
89.5314
  0
LINE
  8
LAYER_2
 10
76.1445
 20
89.5314
 11
76.1558
 21
89.5284
  0
LINE
  8
LAYER_2
 10
76.1558
 20
89.5284
 11
76.1674
 21
89.5256
  0
ENDBLK
  0
BLOCK
  8
LAYER_2
  2
AIGNBL0202016A
 70
64
 10
0
 20
0
 30
0
  3
AIGNBL0202016A
  0
LINE
  8
LAYER_2
 10
65.5799
 20
96.7281
 11
65.4549
 21
96.8531
  0
ENDBLK
  0
BLOCK
  8
LAYER_2
  2
AIGNBL0202016B
 70
64
 10
0
 20
0
 30
0
  3
AIGNBL0202016B
  0
LINE
  8
LAYER_2
 10
77.0299
 20
89.5604
 11
77.0113
 21
89.5556
  0
ENDBLK
  0
BLOCK
  8
LAYER_2
  2
AIGNBL0202016C
 70
64
 10
0
 20
0
 30
0
  3
AIGNBL0202016C
  0
LINE
  8
LAYER_2
 10
77.0113
 20
89.5556
 11
76.9752
 21
89.5462
  0
ENDBLK
  0
BLOCK
  8
LAYER_2
  2
AIGNBL0202016D
 70
64
 10
0
 20
0
 30
0
  3
AIGNBL0202016D
  0
LINE
  8
LAYER_2
 10
76.9752
 20
89.5463
 11
76.96
 21
89.5424
  0
LINE
  8
LAYER_2
 10
76.96
 20
89.5424
 11
76.9436
 21
89.5381
  0
ENDBLK
  0
BLOCK
  8
LAYER_2
  2
AIGNBL0202016E
 70
64
 10
0
 20
0
 30
0
  3
AIGNBL0202016E
  0
LINE
  8
LAYER_2
 10
76.4924
 20
89.5256
 11
76.5041
 21
89.5284
  0
LINE
  8
LAYER_2
 10
76.5041
 20
89.5284
 11
76.5154
 21
89.5314
  0
LINE
  8
LAYER_2
 10
76.5154
 20
89.5314
 11
76.5264
 21
89.5347
  0
LINE
  8
LAYER_2
 10
76.5264
 20
89.5347
 11
76.537
 21
89.5381
  0
ENDBLK
  0
BLOCK
  8
LAYER_2
  2
AIGNBL0202016F
 70
64
 10
0
 20
0
 30
0
  3
AIGNBL0202016F
  0
LINE
  8
LAYER_2
 10
66.3299
 20
92.6031
 11
74.8299
 21
92.6031
  0
ENDBLK
  0
BLOCK
  8
LAYER_2
  2
AIGNBL02020170
 70
64
 10
0
 20
0
 30
0
  3
AIGNBL02020170
  0
LINE
  8
LAYER_2
 10
63.7049
 20
94.6031
 11
63.7049
 21
95.6032
  0
ENDBLK
  0
BLOCK
  8
LAYER_2
  2
AIGNBL02020171
 70
64
 10
0
 20
0
 30
0
  3
AIGNBL02020171
  0
LINE
  8
LAYER_2
 10
64.0799
 20
94.3531
 11
64.0799
 21
90.6032
  0
ENDBLK
  0
BLOCK
  8
LAYER_2
  2
AIGNBL02020172
 70
64
 10
0
 20
0
 30
0
  3
AIGNBL02020172
  0
LINE
  8
LAYER_2
 10
64.2049
 20
94.3531
 11
64.2049
 21
90.6031
  0
ENDBLK
  0
BLOCK
  8
LAYER_2
  2
AIGNBL02020173
 70
64
 10
0
 20
0
 30
0
  3
AIGNBL02020173
  0
LINE
  8
LAYER_2
 10
64.6674
 20
89.5256
 11
64.6674
 21
90.0581
  0
ENDBLK
  0
BLOCK
  8
LAYER_2
  2
AIGNBL02020174
 70
64
 10
0
 20
0
 30
0
  3
AIGNBL02020174
  0
LINE
  8
LAYER_2
 10
64.9924
 20
89.5256
 11
64.9924
 21
90.0581
  0
ENDBLK
  0
BLOCK
  8
LAYER_2
  2
AIGNBL02020175
 70
64
 10
0
 20
0
 30
0
  3
AIGNBL02020175
  0
LINE
  8
LAYER_2
 10
65.4549
 20
94.3531
 11
65.4549
 21
90.6031
  0
ENDBLK
  0
BLOCK
  8
LAYER_2
  2
AIGNBL02020176
 70
64
 10
0
 20
0
 30
0
  3
AIGNBL02020176
  0
LINE
  8
LAYER_2
 10
65.5799
 20
94.3531
 11
65.5799
 21
90.6032
  0
ENDBLK
  0
BLOCK
  8
LAYER_2
  2
AIGNBL02020177
 70
64
 10
0
 20
0
 30
0
  3
AIGNBL02020177
  0
LINE
  8
LAYER_2
 10
66.0799
 20
94.1031
 11
66.0799
 21
92.8531
  0
ENDBLK
  0
BLOCK
  8
LAYER_2
  2
AIGNBL02020178
 70
64
 10
0
 20
0
 30
0
  3
AIGNBL02020178
  0
LINE
  8
LAYER_2
 10
65.5299
 20
89.5604
 11
65.5113
 21
89.5556
  0
ENDBLK
  0
BLOCK
  8
LAYER_2
  2
AIGNBL02020179
 70
64
 10
0
 20
0
 30
0
  3
AIGNBL02020179
  0
LINE
  8
LAYER_2
 10
65.5113
 20
89.5556
 11
65.4752
 21
89.5462
  0
ENDBLK
  0
BLOCK
  8
LAYER_2
  2
AIGNBL0202017A
 70
64
 10
0
 20
0
 30
0
  3
AIGNBL0202017A
  0
LINE
  8
LAYER_2
 10
65.4752
 20
89.5463
 11
65.46
 21
89.5424
  0
LINE
  8
LAYER_2
 10
65.46
 20
89.5424
 11
65.4436
 21
89.5381
  0
ENDBLK
  0
BLOCK
  8
LAYER_2
  2
AIGNBL0202017B
 70
64
 10
0
 20
0
 30
0
  3
AIGNBL0202017B
  0
LINE
  8
LAYER_2
 10
64.9924
 20
89.5256
 11
65.0041
 21
89.5284
  0
LINE
  8
LAYER_2
 10
65.0041
 20
89.5284
 11
65.0154
 21
89.5314
  0
LINE
  8
LAYER_2
 10
65.0154
 20
89.5314
 11
65.0264
 21
89.5347
  0
LINE
  8
LAYER_2
 10
65.0264
 20
89.5347
 11
65.037
 21
89.5381
  0
ENDBLK
  0
BLOCK
  8
LAYER_2
  2
AIGNBL0202017C
 70
64
 10
0
 20
0
 30
0
  3
AIGNBL0202017C
  0
LINE
  8
LAYER_2
 10
77.2049
 20
94.3531
 11
77.0799
 21
94.3531
  0
ENDBLK
  0
BLOCK
  8
LAYER_2
  2
AIGNBL0202017D
 70
64
 10
0
 20
0
 30
0
  3
AIGNBL0202017D
  0
LINE
  8
LAYER_2
 10
75.5799
 20
94.3531
 11
75.3299
 21
94.3531
  0
ENDBLK
  0
BLOCK
  8
LAYER_2
  2
AIGNBL0202017E
 70
64
 10
0
 20
0
 30
0
  3
AIGNBL0202017E
  0
LINE
  8
LAYER_2
 10
77.1424
 20
94.3531
 11
63.955
 21
94.3531
  0
ENDBLK
  0
BLOCK
  8
LAYER_2
  2
AIGNBL0202017F
 70
64
 10
0
 20
0
 30
0
  3
AIGNBL0202017F
  0
LINE
  8
LAYER_2
 10
64.0799
 20
94.3531
 11
63.9549
 21
94.3531
  0
ENDBLK
  0
BLOCK
  8
LAYER_2
  2
AIGNBL02020180
 70
64
 10
0
 20
0
 30
0
  3
AIGNBL02020180
  0
LINE
  8
LAYER_2
 10
66.4549
 20
95.6031
 11
63.8924
 21
95.6031
  0
ENDBLK
  0
BLOCK
  8
LAYER_2
  2
AIGNBL02020181
 70
64
 10
0
 20
0
 30
0
  3
AIGNBL02020181
  0
LINE
  8
LAYER_2
 10
64.0799
 20
95.6031
 11
63.7049
 21
95.6031
  0
ENDBLK
  0
BLOCK
  8
LAYER_2
  2
AIGNBL02020182
 70
64
 10
0
 20
0
 30
0
  3
AIGNBL02020182
  0
LINE
  8
LAYER_2
 10
66.4549
 20
95.6031
 11
77.0799
 21
95.6031
  0
ENDBLK
  0
BLOCK
  8
LAYER_2
  2
AIGNBL02020183
 70
64
 10
0
 20
0
 30
0
  3
AIGNBL02020183
  0
LINE
  8
LAYER_2
 10
77.0799
 20
95.6031
 11
77.4549
 21
95.6031
  0
ENDBLK
  0
BLOCK
  8
LAYER_2
  2
AIGNBL02020184
 70
64
 10
0
 20
0
 30
0
  3
AIGNBL02020184
  0
LINE
  8
LAYER_2
 10
77.0799
 20
96.7281
 11
75.5799
 21
96.7281
  0
ENDBLK
  0
BLOCK
  8
LAYER_2
  2
AIGNBL02020185
 70
64
 10
0
 20
0
 30
0
  3
AIGNBL02020185
  0
LINE
  8
LAYER_2
 10
65.5799
 20
96.7281
 11
64.0799
 21
96.7281
  0
ENDBLK
  0
BLOCK
  8
LAYER_2
  2
AIGNBL02020186
 70
64
 10
0
 20
0
 30
0
  3
AIGNBL02020186
  0
LINE
  8
LAYER_2
 10
77.0799
 20
96.7281
 11
76.9549
 21
96.8531
  0
ENDBLK
  0
BLOCK
  8
LAYER_2
  2
AIGNBL02020187
 70
64
 10
0
 20
0
 30
0
  3
AIGNBL02020187
  0
LINE
  8
LAYER_2
 10
75.0799
 20
94.1031
 11
75.0799
 21
92.8531
  0
ENDBLK
  0
BLOCK
  8
LAYER_2
  2
AIGNBL02020188
 70
64
 10
0
 20
0
 30
0
  3
AIGNBL02020188
  0
LINE
  8
LAYER_2
 10
75.5799
 20
94.3531
 11
75.5799
 21
90.6032
  0
ENDBLK
  0
BLOCK
  8
LAYER_2
  2
AIGNBL02020189
 70
64
 10
0
 20
0
 30
0
  3
AIGNBL02020189
  0
LINE
  8
LAYER_2
 10
75.7049
 20
94.3531
 11
75.7049
 21
90.6031
  0
ENDBLK
  0
BLOCK
  8
LAYER_2
  2
AIGNBL0202018A
 70
64
 10
0
 20
0
 30
0
  3
AIGNBL0202018A
  0
LINE
  8
LAYER_2
 10
76.1674
 20
89.5256
 11
76.1674
 21
90.0581
  0
ENDBLK
  0
BLOCK
  8
LAYER_2
  2
AIGNBL0202018B
 70
64
 10
0
 20
0
 30
0
  3
AIGNBL0202018B
  0
LINE
  8
LAYER_2
 10
76.4924
 20
89.5256
 11
76.4924
 21
90.0581
  0
ENDBLK
  0
BLOCK
  8
LAYER_2
  2
AIGNBL0202018C
 70
64
 10
0
 20
0
 30
0
  3
AIGNBL0202018C
  0
LINE
  8
LAYER_2
 10
76.9549
 20
94.3531
 11
76.9549
 21
90.6031
  0
ENDBLK
  0
BLOCK
  8
LAYER_2
  2
AIGNBL0202018D
 70
64
 10
0
 20
0
 30
0
  3
AIGNBL0202018D
  0
LINE
  8
LAYER_2
 10
77.0799
 20
94.3531
 11
77.0799
 21
90.6031
  0
ENDBLK
  0
BLOCK
  8
LAYER_2
  2
AIGNBL0202018E
 70
64
 10
0
 20
0
 30
0
  3
AIGNBL0202018E
  0
LINE
  8
LAYER_2
 10
77.4549
 20
94.6031
 11
77.4549
 21
95.6032
  0
ENDBLK
  0
BLOCK
  8
LAYER_2
  2
AIGNBL0202018F
 70
64
 10
0
 20
0
 30
0
  3
AIGNBL0202018F
  0
LINE
  8
LAYER_2
 10
64.0799
 20
96.7281
 11
64.2049
 21
96.8531
  0
ENDBLK
  0
BLOCK
  8
LAYER_2
  2
AIGNBL02020190
 70
64
 10
0
 20
0
 30
0
  3
AIGNBL02020190
  0
LINE
  8
LAYER_2
 10
75.5799
 20
96.7281
 11
75.7049
 21
96.8531
  0
ENDBLK
  0
BLOCK
  8
LAYER_2
  2
AIGNBL02020191
 70
64
 10
0
 20
0
 30
0
  3
AIGNBL02020191
  0
ARC
  8
LAYER_2
 10
63.9549
 20
94.6031
 40
0.25
 50
180.0075387
 51
269.9924613
  0
ENDBLK
  0
BLOCK
  8
LAYER_2
  2
AIGNBL02020192
 70
64
 10
0
 20
0
 30
0
  3
AIGNBL02020192
  0
ARC
  8
LAYER_2
 10
65.8299
 20
94.1032
 40
0.25
 50
359.9863026
 51
89.99078363
  0
ENDBLK
  0
BLOCK
  8
LAYER_2
  2
AIGNBL02020193
 70
64
 10
0
 20
0
 30
0
  3
AIGNBL02020193
  0
ARC
  8
LAYER_2
 10
66.3299
 20
92.8531
 40
0.25
 50
180.0087173
 51
270.0141965
  0
ENDBLK
  0
BLOCK
  8
LAYER_2
  2
AIGNBL02020194
 70
64
 10
0
 20
0
 30
0
  3
AIGNBL02020194
  0
ARC
  8
LAYER_2
 10
75.3299
 20
94.1031
 40
0.25
 50
90.00404068
 51
179.9959593
  0
ENDBLK
  0
BLOCK
  8
LAYER_2
  2
AIGNBL02020195
 70
64
 10
0
 20
0
 30
0
  3
AIGNBL02020195
  0
ARC
  8
LAYER_2
 10
77.2049
 20
94.6032
 40
0.2501
 50
269.9910339
 51
359.9860524
  0
ENDBLK
  0
BLOCK
  8
LAYER_2
  2
AIGNBL02020196
 70
64
 10
0
 20
0
 30
0
  3
AIGNBL02020196
  0
ARC
  8
LAYER_2
 10
74.8299
 20
92.8531
 40
0.25
 50
270.0036698
 51
0.01924394214
  0
ENDBLK
  0
BLOCK
  8
LAYER_2
  2
AIGNBL02020197
 70
64
 10
0
 20
0
 30
0
  3
AIGNBL02020197
  0
LINE
  8
LAYER_2
 10
65.2276
 20
89.5552
 11
65.2331
 21
89.553
  0
LINE
  8
LAYER_2
 10
65.2331
 20
89.553
 11
65.2369
 21
89.5505
  0
LINE
  8
LAYER_2
 10
65.2369
 20
89.5505
 11
65.2392
 21
89.5477
  0
LINE
  8
LAYER_2
 10
65.2392
 20
89.5477
 11
65.24
 21
89.5449
  0
ENDBLK
  0
BLOCK
  8
LAYER_2
  2
AIGNBL02020198
 70
64
 10
0
 20
0
 30
0
  3
AIGNBL02020198
  0
LINE
  8
LAYER_2
 10
64.4232
 20
89.5381
 11
64.4208
 21
89.5415
  0
LINE
  8
LAYER_2
 10
64.4208
 20
89.5415
 11
64.4199
 21
89.5449
  0
ENDBLK
  0
BLOCK
  8
LAYER_2
  2
AIGNBL02020199
 70
64
 10
0
 20
0
 30
0
  3
AIGNBL02020199
  0
LINE
  8
LAYER_2
 10
64.2162
 20
89.5381
 11
64.2311
 21
89.5343
  0
LINE
  8
LAYER_2
 10
64.2311
 20
89.5343
 11
64.2458
 21
89.5308
  0
LINE
  8
LAYER_2
 10
64.2458
 20
89.5308
 11
64.2601
 21
89.5275
  0
LINE
  8
LAYER_2
 10
64.2601
 20
89.5275
 11
64.2743
 21
89.5244
  0
LINE
  8
LAYER_2
 10
64.2743
 20
89.5244
 11
64.2879
 21
89.5216
  0
LINE
  8
LAYER_2
 10
64.2879
 20
89.5216
 11
64.3012
 21
89.5191
  0
LINE
  8
LAYER_2
 10
64.3012
 20
89.5191
 11
64.3141
 21
89.5168
  0
LINE
  8
LAYER_2
 10
64.3141
 20
89.5168
 11
64.3266
 21
89.5147
  0
LINE
  8
LAYER_2
 10
64.3266
 20
89.5147
 11
64.3385
 21
89.513
  0
LINE
  8
LAYER_2
 10
64.3385
 20
89.513
 11
64.3502
 21
89.5115
  0
LINE
  8
LAYER_2
 10
64.3502
 20
89.5115
 11
64.3613
 21
89.5102
  0
LINE
  8
LAYER_2
 10
64.3613
 20
89.5102
 11
64.372
 21
89.5093
  0
LINE
  8
LAYER_2
 10
64.372
 20
89.5093
 11
64.3822
 21
89.5088
  0
LINE
  8
LAYER_2
 10
64.3822
 20
89.5088
 11
64.3917
 21
89.5086
  0
LINE
  8
LAYER_2
 10
64.3917
 20
89.5086
 11
64.4005
 21
89.5088
  0
LINE
  8
LAYER_2
 10
64.4005
 20
89.5088
 11
64.4082
 21
89.5094
  0
LINE
  8
LAYER_2
 10
64.4082
 20
89.5094
 11
64.4146
 21
89.5104
  0
LINE
  8
LAYER_2
 10
64.4146
 20
89.5104
 11
64.4196
 21
89.5116
  0
LINE
  8
LAYER_2
 10
64.4196
 20
89.5116
 11
64.4235
 21
89.5131
  0
LINE
  8
LAYER_2
 10
64.4235
 20
89.5131
 11
64.4264
 21
89.5146
  0
LINE
  8
LAYER_2
 10
64.4264
 20
89.5146
 11
64.4286
 21
89.5162
  0
LINE
  8
LAYER_2
 10
64.4286
 20
89.5162
 11
64.4302
 21
89.518
  0
LINE
  8
LAYER_2
 10
64.4302
 20
89.518
 11
64.4311
 21
89.5198
  0
LINE
  8
LAYER_2
 10
64.4311
 20
89.5198
 11
64.4317
 21
89.522
  0
LINE
  8
LAYER_2
 10
64.4317
 20
89.522
 11
64.4317
 21
89.5228
  0
ENDBLK
  0
BLOCK
  8
LAYER_2
  2
AIGNBL0202019A
 70
64
 10
0
 20
0
 30
0
  3
AIGNBL0202019A
  0
LINE
  8
LAYER_2
 10
75.7162
 20
89.5381
 11
75.7311
 21
89.5343
  0
LINE
  8
LAYER_2
 10
75.7311
 20
89.5343
 11
75.7458
 21
89.5308
  0
LINE
  8
LAYER_2
 10
75.7458
 20
89.5308
 11
75.7601
 21
89.5275
  0
LINE
  8
LAYER_2
 10
75.7601
 20
89.5275
 11
75.7742
 21
89.5244
  0
LINE
  8
LAYER_2
 10
75.7742
 20
89.5244
 11
75.7879
 21
89.5216
  0
LINE
  8
LAYER_2
 10
75.7879
 20
89.5216
 11
75.8012
 21
89.5191
  0
LINE
  8
LAYER_2
 10
75.8012
 20
89.5191
 11
75.8141
 21
89.5168
  0
LINE
  8
LAYER_2
 10
75.8141
 20
89.5168
 11
75.8265
 21
89.5147
  0
LINE
  8
LAYER_2
 10
75.8265
 20
89.5147
 11
75.8385
 21
89.513
  0
LINE
  8
LAYER_2
 10
75.8385
 20
89.513
 11
75.8502
 21
89.5115
  0
LINE
  8
LAYER_2
 10
75.8502
 20
89.5115
 11
75.8613
 21
89.5102
  0
LINE
  8
LAYER_2
 10
75.8613
 20
89.5102
 11
75.872
 21
89.5093
  0
LINE
  8
LAYER_2
 10
75.872
 20
89.5093
 11
75.8822
 21
89.5088
  0
LINE
  8
LAYER_2
 10
75.8822
 20
89.5088
 11
75.8917
 21
89.5086
  0
LINE
  8
LAYER_2
 10
75.8917
 20
89.5086
 11
75.9005
 21
89.5088
  0
LINE
  8
LAYER_2
 10
75.9005
 20
89.5088
 11
75.9082
 21
89.5094
  0
LINE
  8
LAYER_2
 10
75.9082
 20
89.5094
 11
75.9146
 21
89.5104
  0
LINE
  8
LAYER_2
 10
75.9146
 20
89.5104
 11
75.9196
 21
89.5116
  0
LINE
  8
LAYER_2
 10
75.9196
 20
89.5116
 11
75.9235
 21
89.5131
  0
LINE
  8
LAYER_2
 10
75.9235
 20
89.5131
 11
75.9264
 21
89.5146
  0
LINE
  8
LAYER_2
 10
75.9264
 20
89.5146
 11
75.9286
 21
89.5162
  0
LINE
  8
LAYER_2
 10
75.9286
 20
89.5162
 11
75.9302
 21
89.518
  0
LINE
  8
LAYER_2
 10
75.9302
 20
89.518
 11
75.9311
 21
89.5198
  0
LINE
  8
LAYER_2
 10
75.9311
 20
89.5198
 11
75.9317
 21
89.522
  0
LINE
  8
LAYER_2
 10
75.9317
 20
89.522
 11
75.9317
 21
89.5228
  0
ENDBLK
  0
BLOCK
  8
LAYER_2
  2
AIGNBL0202019B
 70
64
 10
0
 20
0
 30
0
  3
AIGNBL0202019B
  0
LINE
  8
LAYER_2
 10
76.7276
 20
89.5552
 11
76.733
 21
89.553
  0
LINE
  8
LAYER_2
 10
76.733
 20
89.553
 11
76.7369
 21
89.5505
  0
LINE
  8
LAYER_2
 10
76.7369
 20
89.5505
 11
76.7392
 21
89.5477
  0
LINE
  8
LAYER_2
 10
76.7392
 20
89.5477
 11
76.74
 21
89.5449
  0
ENDBLK
  0
BLOCK
  8
LAYER_2
  2
AIGNBL0202019C
 70
64
 10
0
 20
0
 30
0
  3
AIGNBL0202019C
  0
LINE
  8
LAYER_2
 10
65.2282
 20
89.5229
 11
65.2289
 21
89.5194
  0
LINE
  8
LAYER_2
 10
65.2289
 20
89.5194
 11
65.2313
 21
89.5161
  0
LINE
  8
LAYER_2
 10
65.2313
 20
89.5161
 11
65.2357
 21
89.5134
  0
LINE
  8
LAYER_2
 10
65.2357
 20
89.5134
 11
65.2417
 21
89.5112
  0
LINE
  8
LAYER_2
 10
65.2417
 20
89.5112
 11
65.2492
 21
89.5097
  0
LINE
  8
LAYER_2
 10
65.2492
 20
89.5097
 11
65.2581
 21
89.5089
  0
LINE
  8
LAYER_2
 10
65.2581
 20
89.5089
 11
65.268
 21
89.5086
  0
LINE
  8
LAYER_2
 10
65.268
 20
89.5086
 11
65.2784
 21
89.5089
  0
LINE
  8
LAYER_2
 10
65.2784
 20
89.5089
 11
65.2892
 21
89.5095
  0
LINE
  8
LAYER_2
 10
65.2892
 20
89.5095
 11
65.3003
 21
89.5104
  0
LINE
  8
LAYER_2
 10
65.3003
 20
89.5104
 11
65.3117
 21
89.5117
  0
LINE
  8
LAYER_2
 10
65.3117
 20
89.5117
 11
65.3232
 21
89.5132
  0
LINE
  8
LAYER_2
 10
65.3232
 20
89.5132
 11
65.3351
 21
89.515
  0
LINE
  8
LAYER_2
 10
65.3351
 20
89.515
 11
65.3473
 21
89.5171
  0
LINE
  8
LAYER_2
 10
65.3473
 20
89.5171
 11
65.3599
 21
89.5193
  0
LINE
  8
LAYER_2
 10
65.3599
 20
89.5193
 11
65.373
 21
89.5218
  0
LINE
  8
LAYER_2
 10
65.373
 20
89.5218
 11
65.3865
 21
89.5246
  0
LINE
  8
LAYER_2
 10
65.3865
 20
89.5246
 11
65.4004
 21
89.5276
  0
LINE
  8
LAYER_2
 10
65.4004
 20
89.5276
 11
65.4146
 21
89.5309
  0
LINE
  8
LAYER_2
 10
65.4146
 20
89.5309
 11
65.4289
 21
89.5343
  0
ENDBLK
  0
BLOCK
  8
LAYER_2
  2
AIGNBL0202019D
 70
64
 10
0
 20
0
 30
0
  3
AIGNBL0202019D
  0
LINE
  8
LAYER_2
 10
64.4317
 20
89.5229
 11
64.4316
 21
89.5242
  0
LINE
  8
LAYER_2
 10
64.4316
 20
89.5242
 11
64.431
 21
89.5267
  0
LINE
  8
LAYER_2
 10
64.431
 20
89.5267
 11
64.4298
 21
89.5293
  0
LINE
  8
LAYER_2
 10
64.4298
 20
89.5293
 11
64.4282
 21
89.5321
  0
LINE
  8
LAYER_2
 10
64.4282
 20
89.5321
 11
64.426
 21
89.535
  0
LINE
  8
LAYER_2
 10
64.426
 20
89.535
 11
64.4232
 21
89.5381
  0
ENDBLK
  0
BLOCK
  8
LAYER_2
  2
AIGNBL0202019E
 70
64
 10
0
 20
0
 30
0
  3
AIGNBL0202019E
  0
LINE
  8
LAYER_2
 10
63.3299
 20
90.6031
 11
63.3299
 21
89.9981
  0
ENDBLK
  0
BLOCK
  8
LAYER_2
  2
AIGNBL0202019F
 70
64
 10
0
 20
0
 30
0
  3
AIGNBL0202019F
  0
LINE
  8
LAYER_2
 10
76.9289
 20
89.5344
 11
76.9436
 21
89.5381
  0
ENDBLK
  0
BLOCK
  8
LAYER_2
  2
AIGNBL020201A0
 70
64
 10
0
 20
0
 30
0
  3
AIGNBL020201A0
  0
LINE
  8
LAYER_2
 10
63.3299
 20
90.6031
 11
66.3299
 21
90.6031
  0
ENDBLK
  0
BLOCK
  8
LAYER_2
  2
AIGNBL020201A1
 70
64
 10
0
 20
0
 30
0
  3
AIGNBL020201A1
  0
LINE
  8
LAYER_2
 10
74.8299
 20
90.6031
 11
77.8299
 21
90.6031
  0
ENDBLK
  0
BLOCK
  8
LAYER_2
  2
AIGNBL020201A2
 70
64
 10
0
 20
0
 30
0
  3
AIGNBL020201A2
  0
LINE
  8
LAYER_2
 10
75.9232
 20
89.5381
 11
75.9208
 21
89.5415
  0
LINE
  8
LAYER_2
 10
75.9208
 20
89.5415
 11
75.9199
 21
89.5449
  0
ENDBLK
  0
BLOCK
  8
LAYER_2
  2
AIGNBL020201A3
 70
64
 10
0
 20
0
 30
0
  3
AIGNBL020201A3
  0
LINE
  8
LAYER_2
 10
64.4232
 20
89.5381
 11
64.4232
 21
89.5507
  0
ENDBLK
  0
BLOCK
  8
LAYER_2
  2
AIGNBL020201A4
 70
64
 10
0
 20
0
 30
0
  3
AIGNBL020201A4
  0
LINE
  8
LAYER_2
 10
64.4317
 20
89.5549
 11
64.4317
 21
89.5228
  0
ENDBLK
  0
BLOCK
  8
LAYER_2
  2
AIGNBL020201A5
 70
64
 10
0
 20
0
 30
0
  3
AIGNBL020201A5
  0
LINE
  8
LAYER_2
 10
65.2282
 20
89.555
 11
65.2282
 21
89.5229
  0
ENDBLK
  0
BLOCK
  8
LAYER_2
  2
AIGNBL020201A6
 70
64
 10
0
 20
0
 30
0
  3
AIGNBL020201A6
  0
LINE
  8
LAYER_2
 10
65.2366
 20
89.5381
 11
65.2366
 21
89.5507
  0
ENDBLK
  0
BLOCK
  8
LAYER_2
  2
AIGNBL020201A7
 70
64
 10
0
 20
0
 30
0
  3
AIGNBL020201A7
  0
LINE
  8
LAYER_2
 10
65.4289
 20
89.5344
 11
65.4436
 21
89.5381
  0
ENDBLK
  0
BLOCK
  8
LAYER_2
  2
AIGNBL020201A8
 70
64
 10
0
 20
0
 30
0
  3
AIGNBL020201A8
  0
LINE
  8
LAYER_2
 10
66.3299
 20
90.6031
 11
66.3299
 21
89.9981
  0
ENDBLK
  0
BLOCK
  8
LAYER_2
  2
AIGNBL020201A9
 70
64
 10
0
 20
0
 30
0
  3
AIGNBL020201A9
  0
LINE
  8
LAYER_2
 10
64.4199
 20
89.5449
 11
64.4206
 21
89.5478
  0
LINE
  8
LAYER_2
 10
64.4206
 20
89.5478
 11
64.4229
 21
89.5505
  0
LINE
  8
LAYER_2
 10
64.4229
 20
89.5505
 11
64.4269
 21
89.553
  0
ENDBLK
  0
BLOCK
  8
LAYER_2
  2
AIGNBL020201AA
 70
64
 10
0
 20
0
 30
0
  3
AIGNBL020201AA
  0
LINE
  8
LAYER_2
 10
65.24
 20
89.5449
 11
65.2391
 21
89.5415
  0
LINE
  8
LAYER_2
 10
65.2391
 20
89.5415
 11
65.2366
 21
89.5381
  0
ENDBLK
  0
BLOCK
  8
LAYER_2
  2
AIGNBL020201AB
 70
64
 10
0
 20
0
 30
0
  3
AIGNBL020201AB
  0
LINE
  8
LAYER_2
 10
76.7282
 20
89.5229
 11
76.7289
 21
89.5194
  0
LINE
  8
LAYER_2
 10
76.7289
 20
89.5194
 11
76.7314
 21
89.5161
  0
LINE
  8
LAYER_2
 10
76.7314
 20
89.5161
 11
76.7357
 21
89.5134
  0
LINE
  8
LAYER_2
 10
76.7357
 20
89.5134
 11
76.7417
 21
89.5112
  0
LINE
  8
LAYER_2
 10
76.7417
 20
89.5112
 11
76.7492
 21
89.5097
  0
LINE
  8
LAYER_2
 10
76.7492
 20
89.5097
 11
76.7581
 21
89.5089
  0
LINE
  8
LAYER_2
 10
76.7581
 20
89.5089
 11
76.768
 21
89.5086
  0
LINE
  8
LAYER_2
 10
76.768
 20
89.5086
 11
76.7784
 21
89.5089
  0
LINE
  8
LAYER_2
 10
76.7784
 20
89.5089
 11
76.7892
 21
89.5095
  0
LINE
  8
LAYER_2
 10
76.7892
 20
89.5095
 11
76.8003
 21
89.5104
  0
LINE
  8
LAYER_2
 10
76.8003
 20
89.5104
 11
76.8117
 21
89.5117
  0
LINE
  8
LAYER_2
 10
76.8117
 20
89.5117
 11
76.8232
 21
89.5132
  0
LINE
  8
LAYER_2
 10
76.8232
 20
89.5132
 11
76.8351
 21
89.515
  0
LINE
  8
LAYER_2
 10
76.8351
 20
89.515
 11
76.8473
 21
89.5171
  0
LINE
  8
LAYER_2
 10
76.8473
 20
89.5171
 11
76.8599
 21
89.5193
  0
LINE
  8
LAYER_2
 10
76.8599
 20
89.5193
 11
76.873
 21
89.5218
  0
LINE
  8
LAYER_2
 10
76.873
 20
89.5218
 11
76.8865
 21
89.5246
  0
LINE
  8
LAYER_2
 10
76.8865
 20
89.5246
 11
76.9004
 21
89.5276
  0
LINE
  8
LAYER_2
 10
76.9004
 20
89.5276
 11
76.9146
 21
89.5309
  0
LINE
  8
LAYER_2
 10
76.9146
 20
89.5309
 11
76.9289
 21
89.5343
  0
ENDBLK
  0
BLOCK
  8
LAYER_2
  2
AIGNBL020201AC
 70
64
 10
0
 20
0
 30
0
  3
AIGNBL020201AC
  0
LINE
  8
LAYER_2
 10
75.9317
 20
89.5229
 11
75.9316
 21
89.5242
  0
LINE
  8
LAYER_2
 10
75.9316
 20
89.5242
 11
75.931
 21
89.5267
  0
LINE
  8
LAYER_2
 10
75.931
 20
89.5267
 11
75.9298
 21
89.5293
  0
LINE
  8
LAYER_2
 10
75.9298
 20
89.5293
 11
75.9282
 21
89.5321
  0
LINE
  8
LAYER_2
 10
75.9282
 20
89.5321
 11
75.926
 21
89.535
  0
LINE
  8
LAYER_2
 10
75.926
 20
89.535
 11
75.9232
 21
89.5381
  0
ENDBLK
  0
BLOCK
  8
LAYER_2
  2
AIGNBL020201AD
 70
64
 10
0
 20
0
 30
0
  3
AIGNBL020201AD
  0
LINE
  8
LAYER_2
 10
74.8299
 20
90.6031
 11
74.8299
 21
89.9981
  0
ENDBLK
  0
BLOCK
  8
LAYER_2
  2
AIGNBL020201AE
 70
64
 10
0
 20
0
 30
0
  3
AIGNBL020201AE
  0
LINE
  8
LAYER_2
 10
75.9232
 20
89.5381
 11
75.9232
 21
89.5507
  0
ENDBLK
  0
BLOCK
  8
LAYER_2
  2
AIGNBL020201AF
 70
64
 10
0
 20
0
 30
0
  3
AIGNBL020201AF
  0
LINE
  8
LAYER_2
 10
75.9317
 20
89.5549
 11
75.9317
 21
89.5228
  0
ENDBLK
  0
BLOCK
  8
LAYER_2
  2
AIGNBL020201B0
 70
64
 10
0
 20
0
 30
0
  3
AIGNBL020201B0
  0
LINE
  8
LAYER_2
 10
76.7282
 20
89.555
 11
76.7282
 21
89.5229
  0
ENDBLK
  0
BLOCK
  8
LAYER_2
  2
AIGNBL020201B1
 70
64
 10
0
 20
0
 30
0
  3
AIGNBL020201B1
  0
LINE
  8
LAYER_2
 10
76.7366
 20
89.5381
 11
76.7366
 21
89.5507
  0
ENDBLK
  0
BLOCK
  8
LAYER_2
  2
AIGNBL020201B2
 70
64
 10
0
 20
0
 30
0
  3
AIGNBL020201B2
  0
LINE
  8
LAYER_2
 10
77.8299
 20
90.6031
 11
77.8299
 21
89.9981
  0
ENDBLK
  0
BLOCK
  8
LAYER_2
  2
AIGNBL020201B3
 70
64
 10
0
 20
0
 30
0
  3
AIGNBL020201B3
  0
LINE
  8
LAYER_2
 10
65.2321
 20
89.5327
 11
65.2293
 21
89.5279
  0
LINE
  8
LAYER_2
 10
65.2293
 20
89.5279
 11
65.2282
 21
89.5234
  0
LINE
  8
LAYER_2
 10
65.2282
 20
89.5234
 11
65.2282
 21
89.5229
  0
ENDBLK
  0
BLOCK
  8
LAYER_2
  2
AIGNBL020201B4
 70
64
 10
0
 20
0
 30
0
  3
AIGNBL020201B4
  0
LINE
  8
LAYER_2
 10
75.9199
 20
89.5449
 11
75.9206
 21
89.5478
  0
LINE
  8
LAYER_2
 10
75.9206
 20
89.5478
 11
75.9229
 21
89.5505
  0
LINE
  8
LAYER_2
 10
75.9229
 20
89.5505
 11
75.9269
 21
89.553
  0
ENDBLK
  0
BLOCK
  8
LAYER_2
  2
AIGNBL020201B5
 70
64
 10
0
 20
0
 30
0
  3
AIGNBL020201B5
  0
LINE
  8
LAYER_2
 10
76.74
 20
89.5449
 11
76.7391
 21
89.5415
  0
LINE
  8
LAYER_2
 10
76.7391
 20
89.5415
 11
76.7366
 21
89.5381
  0
ENDBLK
  0
BLOCK
  8
LAYER_2
  2
AIGNBL020201B6
 70
64
 10
0
 20
0
 30
0
  3
AIGNBL020201B6
  0
LINE
  8
LAYER_2
 10
65.2366
 20
89.5381
 11
65.2321
 21
89.5327
  0
ENDBLK
  0
BLOCK
  8
LAYER_2
  2
AIGNBL020201B7
 70
64
 10
0
 20
0
 30
0
  3
AIGNBL020201B7
  0
LINE
  8
LAYER_2
 10
76.7321
 20
89.5327
 11
76.7293
 21
89.5279
  0
LINE
  8
LAYER_2
 10
76.7293
 20
89.5279
 11
76.7282
 21
89.5234
  0
LINE
  8
LAYER_2
 10
76.7282
 20
89.5234
 11
76.7282
 21
89.5229
  0
ENDBLK
  0
BLOCK
  8
LAYER_2
  2
AIGNBL020201B8
 70
64
 10
0
 20
0
 30
0
  3
AIGNBL020201B8
  0
LINE
  8
LAYER_2
 10
76.7366
 20
89.5381
 11
76.7321
 21
89.5327
  0
ENDBLK
  0
BLOCK
  8
LAYER_2
  2
AIGNBL020201B9
 70
64
 10
0
 20
0
 30
0
  3
AIGNBL020201B9
  0
LINE
  8
LAYER_2
 10
64.4269
 20
89.553
 11
64.4323
 21
89.5552
  0
LINE
  8
LAYER_2
 10
64.4323
 20
89.5552
 11
64.4393
 21
89.5571
  0
LINE
  8
LAYER_2
 10
64.4393
 20
89.5571
 11
64.4477
 21
89.5585
  0
LINE
  8
LAYER_2
 10
64.4477
 20
89.5585
 11
64.4574
 21
89.5596
  0
LINE
  8
LAYER_2
 10
64.4574
 20
89.5596
 11
64.4682
 21
89.5603
  0
LINE
  8
LAYER_2
 10
64.4682
 20
89.5603
 11
64.4801
 21
89.5604
  0
LINE
  8
LAYER_2
 10
64.4801
 20
89.5604
 11
64.4927
 21
89.5603
  0
LINE
  8
LAYER_2
 10
64.4927
 20
89.5603
 11
64.506
 21
89.5596
  0
LINE
  8
LAYER_2
 10
64.506
 20
89.5596
 11
64.5197
 21
89.5585
  0
LINE
  8
LAYER_2
 10
64.5197
 20
89.5585
 11
64.5338
 21
89.557
  0
LINE
  8
LAYER_2
 10
64.5338
 20
89.557
 11
64.5478
 21
89.5551
  0
LINE
  8
LAYER_2
 10
64.5478
 20
89.5551
 11
64.5617
 21
89.553
  0
LINE
  8
LAYER_2
 10
64.5617
 20
89.553
 11
64.5752
 21
89.5505
  0
LINE
  8
LAYER_2
 10
64.5752
 20
89.5505
 11
64.5883
 21
89.5477
  0
LINE
  8
LAYER_2
 10
64.5883
 20
89.5477
 11
64.6007
 21
89.5447
  0
LINE
  8
LAYER_2
 10
64.6007
 20
89.5447
 11
64.6123
 21
89.5415
  0
LINE
  8
LAYER_2
 10
64.6123
 20
89.5415
 11
64.6229
 21
89.5381
  0
ENDBLK
  0
BLOCK
  8
LAYER_2
  2
AIGNBL020201BA
 70
64
 10
0
 20
0
 30
0
  3
AIGNBL020201BA
  0
LINE
  8
LAYER_2
 10
65.037
 20
89.5381
 11
65.0476
 21
89.5415
  0
LINE
  8
LAYER_2
 10
65.0476
 20
89.5415
 11
65.0593
 21
89.5447
  0
LINE
  8
LAYER_2
 10
65.0593
 20
89.5447
 11
65.0716
 21
89.5477
  0
LINE
  8
LAYER_2
 10
65.0716
 20
89.5477
 11
65.0848
 21
89.5505
  0
LINE
  8
LAYER_2
 10
65.0848
 20
89.5505
 11
65.0983
 21
89.553
  0
LINE
  8
LAYER_2
 10
65.0983
 20
89.553
 11
65.1123
 21
89.5552
  0
LINE
  8
LAYER_2
 10
65.1123
 20
89.5552
 11
65.1263
 21
89.5571
  0
LINE
  8
LAYER_2
 10
65.1263
 20
89.5571
 11
65.1403
 21
89.5585
  0
LINE
  8
LAYER_2
 10
65.1403
 20
89.5585
 11
65.1541
 21
89.5595
  0
LINE
  8
LAYER_2
 10
65.1541
 20
89.5595
 11
65.1674
 21
89.5602
  0
LINE
  8
LAYER_2
 10
65.1674
 20
89.5602
 11
65.18
 21
89.5604
  0
LINE
  8
LAYER_2
 10
65.18
 20
89.5604
 11
65.1918
 21
89.5602
  0
LINE
  8
LAYER_2
 10
65.1918
 20
89.5602
 11
65.2027
 21
89.5595
  0
LINE
  8
LAYER_2
 10
65.2027
 20
89.5595
 11
65.2123
 21
89.5585
  0
LINE
  8
LAYER_2
 10
65.2123
 20
89.5585
 11
65.2207
 21
89.5571
  0
LINE
  8
LAYER_2
 10
65.2207
 20
89.5571
 11
65.2276
 21
89.5552
  0
ENDBLK
  0
BLOCK
  8
LAYER_2
  2
AIGNBL020201BB
 70
64
 10
0
 20
0
 30
0
  3
AIGNBL020201BB
  0
LINE
  8
LAYER_2
 10
75.9269
 20
89.553
 11
75.9323
 21
89.5552
  0
LINE
  8
LAYER_2
 10
75.9323
 20
89.5552
 11
75.9393
 21
89.5571
  0
LINE
  8
LAYER_2
 10
75.9393
 20
89.5571
 11
75.9477
 21
89.5585
  0
LINE
  8
LAYER_2
 10
75.9477
 20
89.5585
 11
75.9574
 21
89.5596
  0
LINE
  8
LAYER_2
 10
75.9574
 20
89.5596
 11
75.9682
 21
89.5603
  0
LINE
  8
LAYER_2
 10
75.9682
 20
89.5603
 11
75.98
 21
89.5604
  0
LINE
  8
LAYER_2
 10
75.98
 20
89.5604
 11
75.9927
 21
89.5603
  0
LINE
  8
LAYER_2
 10
75.9927
 20
89.5603
 11
76.006
 21
89.5596
  0
LINE
  8
LAYER_2
 10
76.006
 20
89.5596
 11
76.0198
 21
89.5585
  0
LINE
  8
LAYER_2
 10
76.0198
 20
89.5585
 11
76.0338
 21
89.557
  0
LINE
  8
LAYER_2
 10
76.0338
 20
89.557
 11
76.0478
 21
89.5551
  0
LINE
  8
LAYER_2
 10
76.0478
 20
89.5551
 11
76.0617
 21
89.553
  0
LINE
  8
LAYER_2
 10
76.0617
 20
89.553
 11
76.0752
 21
89.5505
  0
LINE
  8
LAYER_2
 10
76.0752
 20
89.5505
 11
76.0883
 21
89.5477
  0
LINE
  8
LAYER_2
 10
76.0883
 20
89.5477
 11
76.1007
 21
89.5447
  0
LINE
  8
LAYER_2
 10
76.1007
 20
89.5447
 11
76.1123
 21
89.5415
  0
LINE
  8
LAYER_2
 10
76.1123
 20
89.5415
 11
76.1229
 21
89.5381
  0
ENDBLK
  0
BLOCK
  8
LAYER_2
  2
AIGNBL020201BC
 70
64
 10
0
 20
0
 30
0
  3
AIGNBL020201BC
  0
LINE
  8
LAYER_2
 10
76.5369
 20
89.5381
 11
76.5476
 21
89.5415
  0
LINE
  8
LAYER_2
 10
76.5476
 20
89.5415
 11
76.5593
 21
89.5447
  0
LINE
  8
LAYER_2
 10
76.5593
 20
89.5447
 11
76.5717
 21
89.5477
  0
LINE
  8
LAYER_2
 10
76.5717
 20
89.5477
 11
76.5847
 21
89.5505
  0
LINE
  8
LAYER_2
 10
76.5847
 20
89.5505
 11
76.5983
 21
89.553
  0
LINE
  8
LAYER_2
 10
76.5983
 20
89.553
 11
76.6123
 21
89.5552
  0
LINE
  8
LAYER_2
 10
76.6123
 20
89.5552
 11
76.6263
 21
89.5571
  0
LINE
  8
LAYER_2
 10
76.6263
 20
89.5571
 11
76.6403
 21
89.5585
  0
LINE
  8
LAYER_2
 10
76.6403
 20
89.5585
 11
76.6541
 21
89.5595
  0
LINE
  8
LAYER_2
 10
76.6541
 20
89.5595
 11
76.6674
 21
89.5602
  0
LINE
  8
LAYER_2
 10
76.6674
 20
89.5602
 11
76.68
 21
89.5604
  0
LINE
  8
LAYER_2
 10
76.68
 20
89.5604
 11
76.6918
 21
89.5602
  0
LINE
  8
LAYER_2
 10
76.6918
 20
89.5602
 11
76.7027
 21
89.5595
  0
LINE
  8
LAYER_2
 10
76.7027
 20
89.5595
 11
76.7123
 21
89.5585
  0
LINE
  8
LAYER_2
 10
76.7123
 20
89.5585
 11
76.7206
 21
89.5571
  0
LINE
  8
LAYER_2
 10
76.7206
 20
89.5571
 11
76.7276
 21
89.5552
  0
ENDBLK
  0
BLOCK
  8
LAYER_2
  2
AIGNBL020201BD
 70
64
 10
0
 20
0
 30
0
  3
AIGNBL020201BD
  0
ARC
  8
LAYER_2
 10
64.8301
 20
91.7901
 40
2.3371
 50
230.0656163
 51
252.5660405
  0
ENDBLK
  0
BLOCK
  8
LAYER_2
  2
AIGNBL020201BE
 70
64
 10
0
 20
0
 30
0
  3
AIGNBL020201BE
  0
ARC
  8
LAYER_2
 10
64.8299
 20
91.7898
 40
2.3367
 50
287.4318399
 51
309.9365034
  0
ENDBLK
  0
BLOCK
  8
LAYER_2
  2
AIGNBL020201BF
 70
64
 10
0
 20
0
 30
0
  3
AIGNBL020201BF
  0
ARC
  8
LAYER_2
 10
76.3301
 20
91.7902
 40
2.3371
 50
230.0657115
 51
252.5659453
  0
ENDBLK
  0
BLOCK
  8
LAYER_2
  2
AIGNBL020201C0
 70
64
 10
0
 20
0
 30
0
  3
AIGNBL020201C0
  0
ARC
  8
LAYER_2
 10
76.3299
 20
91.7897
 40
2.3366
 50
287.4314717
 51
309.9368716
  0
ENDBLK
  0
BLOCK
  8
LAYER_2
  2
AIGNBL020201C1
 70
64
 10
0
 20
0
 30
0
  3
AIGNBL020201C1
  0
LINE
  8
LAYER_2
 10
63.8068
 20
96.8531
 11
77.3068
 21
96.8531
  0
ENDBLK
  0
BLOCK
  8
LAYER_2
  2
AIGNBL020201C2
 70
64
 10
0
 20
0
 30
0
  3
AIGNBL020201C2
  0
LINE
  8
LAYER_2
 10
63.8068
 20
97.3531
 11
77.3068
 21
97.3531
  0
ENDBLK
  0
BLOCK
  8
LAYER_2
  2
AIGNBL020201C3
 70
64
 10
0
 20
0
 30
0
  3
AIGNBL020201C3
  0
LINE
  8
LAYER_2
 10
64.5568
 20
97.8531
 11
76.5568
 21
97.8531
  0
ENDBLK
  0
BLOCK
  8
LAYER_2
  2
AIGNBL020201C4
 70
64
 10
0
 20
0
 30
0
  3
AIGNBL020201C4
  0
LINE
  8
LAYER_2
 10
76.5568
 20
97.8531
 11
76.5568
 21
97.3531
  0
ENDBLK
  0
BLOCK
  8
LAYER_2
  2
AIGNBL020201C5
 70
64
 10
0
 20
0
 30
0
  3
AIGNBL020201C5
  0
LINE
  8
LAYER_2
 10
77.3068
 20
97.3531
 11
77.3068
 21
96.8531
  0
ENDBLK
  0
BLOCK
  8
LAYER_2
  2
AIGNBL020201C6
 70
64
 10
0
 20
0
 30
0
  3
AIGNBL020201C6
  0
LINE
  8
LAYER_2
 10
64.2049
 20
96.8531
 11
65.4549
 21
96.8531
  0
ENDBLK
  0
BLOCK
  8
LAYER_2
  2
AIGNBL020201C7
 70
64
 10
0
 20
0
 30
0
  3
AIGNBL020201C7
  0
LINE
  8
LAYER_2
 10
75.7049
 20
96.8531
 11
76.9549
 21
96.8531
  0
ENDBLK
  0
BLOCK
  8
LAYER_2
  2
AIGNBL020201C8
 70
64
 10
0
 20
0
 30
0
  3
AIGNBL020201C8
  0
LINE
  8
LAYER_2
 10
75.5799
 20
96.7281
 11
75.5799
 21
95.6031
  0
ENDBLK
  0
BLOCK
  8
LAYER_2
  2
AIGNBL020201C9
 70
64
 10
0
 20
0
 30
0
  3
AIGNBL020201C9
  0
LINE
  8
LAYER_2
 10
75.7049
 20
96.7281
 11
75.7049
 21
95.6031
  0
ENDBLK
  0
BLOCK
  8
LAYER_2
  2
AIGNBL020201CA
 70
64
 10
0
 20
0
 30
0
  3
AIGNBL020201CA
  0
LINE
  8
LAYER_2
 10
76.9549
 20
96.7281
 11
76.9549
 21
95.6031
  0
ENDBLK
  0
BLOCK
  8
LAYER_2
  2
AIGNBL020201CB
 70
64
 10
0
 20
0
 30
0
  3
AIGNBL020201CB
  0
LINE
  8
LAYER_2
 10
77.0799
 20
96.7281
 11
77.0799
 21
95.6031
  0
ENDBLK
  0
BLOCK
  8
LAYER_2
  2
AIGNBL020201CC
 70
64
 10
0
 20
0
 30
0
  3
AIGNBL020201CC
  0
LINE
  8
LAYER_2
 10
64.0799
 20
96.7281
 11
64.0799
 21
95.6031
  0
ENDBLK
  0
BLOCK
  8
LAYER_2
  2
AIGNBL020201CD
 70
64
 10
0
 20
0
 30
0
  3
AIGNBL020201CD
  0
LINE
  8
LAYER_2
 10
64.2049
 20
96.7281
 11
64.2049
 21
95.6031
  0
ENDBLK
  0
BLOCK
  8
LAYER_2
  2
AIGNBL020201CE
 70
64
 10
0
 20
0
 30
0
  3
AIGNBL020201CE
  0
LINE
  8
LAYER_2
 10
65.4549
 20
96.7281
 11
65.4549
 21
95.6031
  0
ENDBLK
  0
BLOCK
  8
LAYER_2
  2
AIGNBL020201CF
 70
64
 10
0
 20
0
 30
0
  3
AIGNBL020201CF
  0
LINE
  8
LAYER_2
 10
65.5799
 20
96.7281
 11
65.5799
 21
95.6031
  0
ENDBLK
  0
BLOCK
  8
LAYER_2
  2
AIGNBL020201D0
 70
64
 10
0
 20
0
 30
0
  3
AIGNBL020201D0
  0
LINE
  8
LAYER_2
 10
70.9549
 20
92.6031
 11
70.2049
 21
92.6031
  0
LINE
  8
LAYER_2
 10
70.2049
 20
92.6031
 11
70.2049
 21
94.3531
  0
LINE
  8
LAYER_2
 10
70.2049
 20
94.3531
 11
70.9549
 21
94.3531
  0
LINE
  8
LAYER_2
 10
70.9549
 20
94.3531
 11
70.9549
 21
92.6031
  0
ENDBLK
  0
BLOCK
  8
LAYER_2
  2
AIGNBL020201D1
 70
64
 10
0
 20
0
 30
0
  3
AIGNBL020201D1
  0
LINE
  8
LAYER_2
 10
74.3219
 20
92.6031
 11
74.3219
 21
94.3531
  0
ENDBLK
  0
BLOCK
  8
LAYER_2
  2
AIGNBL020201D2
 70
64
 10
0
 20
0
 30
0
  3
AIGNBL020201D2
  0
LINE
  8
LAYER_2
 10
66.8299
 20
94.3531
 11
66.8299
 21
92.6031
  0
ENDBLK
  0
BLOCK
  8
LAYER_2
  2
AIGNBL020201D3
 70
64
 10
0
 20
0
 30
0
  3
AIGNBL020201D3
  0
LINE
  8
LAYER_2
 10
63.8068
 20
96.8531
 11
63.8068
 21
97.3531
  0
ENDBLK
  0
BLOCK
  8
LAYER_2
  2
AIGNBL020201D4
 70
64
 10
0
 20
0
 30
0
  3
AIGNBL020201D4
  0
LINE
  8
LAYER_2
 10
64.5568
 20
97.8531
 11
64.5568
 21
97.3531
  0
ENDBLK
  0
BLOCK
  8
LAYER_2
  2
AIGNBL02010002
 70
64
 10
0
 20
0
 30
0
  3
AIGNBL02010002
  0
LINE
  8
LAYER_2
 10
58.8942
 20
105.3531
 11
58.8942
 21
97.8531
  0
LINE
  8
LAYER_2
 10
58.3161
 20
100.0645
 11
58.9086
 21
97.8531
  0
LINE
  8
LAYER_2
 10
58.9086
 20
97.8531
 11
59.5012
 21
100.0645
  0
LINE
  8
LAYER_2
 10
59.5012
 20
100.0645
 11
58.3161
 21
100.0645
  0
LINE
  8
LAYER_2
 10
59.4867
 20
103.1417
 11
58.8942
 21
105.3531
  0
LINE
  8
LAYER_2
 10
58.8942
 20
105.3531
 11
58.3016
 21
103.1417
  0
LINE
  8
LAYER_2
 10
58.3016
 20
103.1417
 11
59.4867
 21
103.1417
  0
ENDBLK
  0
BLOCK
  8
LAYER_2
  2
AIGNBL02010003
 70
64
 10
0
 20
0
 30
0
  3
AIGNBL02010003
  0
LINE
  8
LAYER_2
 10
13.4066
 20
105.3526
 11
13.4066
 21
54.278
  0
LINE
  8
LAYER_2
 10
12.8286
 20
56.4894
 11
13.4211
 21
54.278
  0
LINE
  8
LAYER_2
 10
13.4211
 20
54.278
 11
14.0137
 21
56.4894
  0
LINE
  8
LAYER_2
 10
14.0137
 20
56.4894
 11
12.8286
 21
56.4894
  0
LINE
  8
LAYER_2
 10
13.9992
 20
103.1412
 11
13.4066
 21
105.3526
  0
LINE
  8
LAYER_2
 10
13.4066
 20
105.3526
 11
12.8141
 21
103.1412
  0
LINE
  8
LAYER_2
 10
12.8141
 20
103.1412
 11
13.9992
 21
103.1412
  0
ENDBLK
  0
BLOCK
  8
LAYER_2
  2
AIGNBL02010004
 70
64
 10
0
 20
0
 30
0
  3
AIGNBL02010004
  0
LINE
  8
LAYER_2
 10
77.6927
 20
256.3176
 11
63.5071
 21
242.1324
  0
LINE
  8
LAYER_2
 10
74.8188
 20
254.2816
 11
73.6736
 21
252.2989
  0
LINE
  8
LAYER_2
 10
73.6736
 20
252.2989
 11
75.6566
 21
253.4435
  0
LINE
  8
LAYER_2
 10
75.6566
 20
253.4435
 11
74.8188
 21
254.2816
  0
LINE
  8
LAYER_2
 10
66.3418
 20
244.1289
 11
67.4862
 21
246.1115
  0
LINE
  8
LAYER_2
 10
67.4862
 20
246.1115
 11
65.5032
 21
244.9667
  0
LINE
  8
LAYER_2
 10
65.5032
 20
244.9667
 11
66.3418
 21
244.1289
  0
ENDBLK
  0
BLOCK
  8
LAYER_2
  2
AIGNBL02010005
 70
64
 10
0
 20
0
 30
0
  3
AIGNBL02010005
  0
INSERT
  8
LAYER_2
  2
AIGNBL02020006
 10
0
 20
0
 30
0
  0
LINE
  8
LAYER_2
  6
AIGENLINE001
 10
-36.3116
 20
87.6234
 11
-36.3116
 21
110.9389
  0
LINE
  8
LAYER_2
 10
-30.2613
 20
111.8219
 11
-42.3063
 21
111.8219
  0
LINE
  8
LAYER_2
 10
-40.095
 20
112.4145
 11
-42.3063
 21
111.8219
  0
LINE
  8
LAYER_2
 10
-42.3063
 20
111.8219
 11
-40.095
 21
111.2294
  0
LINE
  8
LAYER_2
 10
-40.095
 20
111.2294
 11
-40.095
 21
112.4145
  0
LINE
  8
LAYER_2
 10
-40.4363
 20
97.8531
 11
-40.4363
 21
105.3531
  0
LINE
  8
LAYER_2
 10
-32.1867
 20
105.3531
 11
-32.1867
 21
97.8531
  0
LINE
  8
LAYER_2
 10
-40.1866
 20
105.3531
 11
-40.1866
 21
97.8531
  0
LINE
  8
LAYER_2
 10
-32.4365
 20
105.3531
 11
-32.4365
 21
97.8531
  0
LINE
  8
LAYER_2
 10
-37.0615
 20
91.6032
 11
-40.1866
 21
91.6032
  0
LINE
  8
LAYER_2
 10
-40.1866
 20
91.6032
 11
-40.4363
 21
91.8531
  0
LINE
  8
LAYER_2
 10
-40.4363
 20
91.8531
 11
-40.4363
 21
92.6031
  0
LINE
  8
LAYER_2
 10
-32.1867
 20
92.6031
 11
-32.1867
 21
91.8531
  0
LINE
  8
LAYER_2
 10
-32.1867
 20
91.8531
 11
-32.4365
 21
91.6032
  0
LINE
  8
LAYER_2
 10
-32.4365
 20
91.6032
 11
-35.5615
 21
91.6032
  0
LINE
  8
LAYER_2
 10
-37.0615
 20
91.8531
 11
-40.4363
 21
91.8531
  0
LINE
  8
LAYER_2
 10
-32.1867
 20
91.8531
 11
-35.5615
 21
91.8531
  0
LINE
  8
LAYER_2
 10
-40.1866
 20
92.6031
 11
-40.1866
 21
91.6032
  0
LINE
  8
LAYER_2
 10
-32.4365
 20
92.6031
 11
-32.4365
 21
91.6032
  0
LINE
  8
LAYER_2
 10
-42.3063
 20
112.5907
 11
-42.3063
 21
106.903
  0
LINE
  8
LAYER_2
 10
-30.2613
 20
112.5907
 11
-30.2613
 21
106.903
  0
ENDBLK
  0
BLOCK
  8
LAYER_2
  2
AIGNBL02010007
 70
64
 10
0
 20
0
 30
0
  3
AIGNBL02010007
  0
LINE
  8
LAYER_2
 10
21.7782
 20
142.6207
 11
23.8852
 21
152.5334
  0
ENDBLK
  0
BLOCK
  8
LAYER_2
  2
AIGNBL02010008
 70
64
 10
0
 20
0
 30
0
  3
AIGNBL02010008
  0
LINE
  8
LAYER_2
 10
-17.2339
 20
233.1971
 11
-19.4085
 21
235.0219
  0
ENDBLK
  0
BLOCK
  8
LAYER_2
  2
AIGNBL02010009
 70
64
 10
0
 20
0
 30
0
  3
AIGNBL02010009
  0
LINE
  8
LAYER_2
  6
AIGENLINE002
 10
-32.4701
 20
244.0575
 11
-22.1792
 21
235.4224
  0
ARC
  8
LAYER_2
  6
AIGENLINE002
 10
-21.9877
 20
235.6685
 40
0.3119
 50
232.1090961
 51
316.539421
  0
LINE
  8
LAYER_2
  6
AIGENLINE002
 10
-21.7613
 20
235.454
 11
-20.9908
 21
236.3502
  0
LINE
  8
LAYER_2
  6
AIGENLINE002
 10
-20.9908
 20
236.3502
 11
-20.242
 21
237.2646
  0
ARC
  8
LAYER_2
  6
AIGENLINE002
 10
-20.4923
 20
237.4503
 40
0.3117
 50
323.4277377
 51
47.9363228
  0
LINE
  8
LAYER_2
  6
AIGENLINE002
 10
-20.2835
 20
237.6817
 11
-30.5744
 21
246.3167
  0
ENDBLK
  0
BLOCK
  8
LAYER_2
  2
AIGNBL0201000A
 70
64
 10
0
 20
0
 30
0
  3
AIGNBL0201000A
  0
LINE
  8
LAYER_2
 10
-42.3111
 20
105.3531
 11
-30.3111
 21
105.3531
  0
LINE
  8
LAYER_2
 10
-42.0611
 20
106.3531
 11
-30.5611
 21
106.3531
  0
LINE
  8
LAYER_2
 10
-40.8203
 20
168.4781
 11
-40.4826
 21
168.7712
  0
LINE
  8
LAYER_2
 10
-42.3111
 20
106.1031
 11
-42.3111
 21
105.3531
  0
LINE
  8
LAYER_2
 10
-41.3111
 20
170.5781
 11
-41.3111
 21
168.8156
  0
LINE
  8
LAYER_2
 10
-41.3111
 20
168.4031
 11
-41.3111
 21
106.3531
  0
LINE
  8
LAYER_2
 10
-40.4829
 20
168.8156
 11
-40.4826
 21
168.7712
  0
LINE
  8
LAYER_2
 10
-32.1393
 20
168.8156
 11
-32.1395
 21
168.7712
  0
LINE
  8
LAYER_2
 10
-31.3111
 20
170.5781
 11
-31.3111
 21
168.8156
  0
LINE
  8
LAYER_2
 10
-31.3111
 20
168.4031
 11
-31.3111
 21
106.3531
  0
LINE
  8
LAYER_2
 10
-30.3111
 20
106.1031
 11
-30.3111
 21
105.3531
  0
LINE
  8
LAYER_2
 10
-31.8018
 20
168.4781
 11
-32.1395
 21
168.7712
  0
LINE
  8
LAYER_2
 10
-31.3861
 20
168.4781
 11
-41.2361
 21
168.4781
  0
LINE
  8
LAYER_2
 10
-32.1395
 20
168.7712
 11
-40.4826
 21
168.7712
  0
LINE
  8
LAYER_2
 10
-41.3111
 20
168.8156
 11
-31.3111
 21
168.8156
  0
LINE
  8
LAYER_2
 10
-36.3053
 20
171.1906
 11
-36.4743
 21
171.1904
  0
ARC
  8
LAYER_2
 10
-42.0611
 20
106.1031
 40
0.25
 50
90.00760327
 51
179.9923967
  0
ARC
  8
LAYER_2
 10
-40.8361
 20
170.5781
 40
0.475
 50
93.4785215
 51
179.9943955
  0
ARC
  8
LAYER_2
 10
-41.2361
 20
168.4031
 40
0.075
 50
90.02533054
 51
179.9746694
  0
ARC
  8
LAYER_2
 10
-39.4611
 20
170.0656
 40
4.625
 50
351.9790749
 51
8.020925111
  0
ARC
  8
LAYER_2
 10
-37.2704
 20
170.6447
 40
0.475
 50
98.45681524
 51
171.9849607
  0
ARC
  8
LAYER_2
 10
-37.2704
 20
169.4864
 40
0.475
 50
188.016725
 51
261.541499
  0
ARC
  8
LAYER_2
 10
-36.3111
 20
96.1906
 40
75
 50
86.51897425
 51
93.48102573
  0
ARC
  8
LAYER_2
 10
-30.5611
 20
106.1031
 40
0.25
 50
6.10147275e-05
 51
89.99993897
  0
ARC
  8
LAYER_2
 10
-36.311
 20
175.9406
 40
7
 50
261.5448774
 51
278.4551226
  0
ARC
  8
LAYER_2
 10
-36.311
 20
164.1906
 40
7
 50
81.5448375
 51
98.45516247
  0
ARC
  8
LAYER_2
 10
-33.1611
 20
170.0656
 40
4.625
 50
171.9790158
 51
188.0209842
  0
ARC
  8
LAYER_2
 10
-35.3517
 20
170.6447
 40
0.475
 50
8.016789866
 51
81.54143413
  0
ARC
  8
LAYER_2
 10
-35.3517
 20
169.4865
 40
0.475
 50
278.4602513
 51
351.9815247
  0
ARC
  8
LAYER_2
 10
-31.7861
 20
170.5781
 40
0.475
 50
0.001252033881
 51
86.51301229
  0
ARC
  8
LAYER_2
 10
-31.3861
 20
168.4031
 40
0.075
 50
0.0002053297108
 51
89.99979466
  0
ENDBLK
  0
BLOCK
  8
LAYER_2
  2
AIGNBL0201000B
 70
64
 10
0
 20
0
 30
0
  3
AIGNBL0201000B
  0
LINE
  8
LAYER_2
 10
74.3315
 20
168.7675
 11
74.6991
 21
168.4781
  0
LINE
  8
LAYER_2
 10
76.5804
 20
105.3531
 11
64.5804
 21
105.3531
  0
LINE
  8
LAYER_2
 10
76.3304
 20
106.3531
 11
64.8304
 21
106.3531
  0
LINE
  8
LAYER_2
 10
74.7522
 20
168.8156
 11
74.7503
 21
168.4781
  0
LINE
  8
LAYER_2
 10
76.5804
 20
105.3531
 11
76.5804
 21
106.1031
  0
LINE
  8
LAYER_2
 10
75.5804
 20
170.5781
 11
75.5804
 21
169.8031
  0
LINE
  8
LAYER_2
 10
75.5804
 20
168.4031
 11
75.5804
 21
106.3531
  0
LINE
  8
LAYER_2
 10
75.5329
 20
169.1156
 11
75.5329
 21
168.8156
  0
LINE
  8
LAYER_2
 10
75.5804
 20
169.8031
 11
75.5802
 21
169.8018
  0
LINE
  8
LAYER_2
 10
65.5804
 20
168.4031
 11
65.5804
 21
163.2281
  0
LINE
  8
LAYER_2
 10
65.5804
 20
106.3531
 11
65.5804
 21
152.9781
  0
LINE
  8
LAYER_2
 10
66.4086
 20
168.8156
 11
66.4089
 21
168.7712
  0
LINE
  8
LAYER_2
 10
64.5804
 20
105.3531
 11
64.5804
 21
106.1031
  0
LINE
  8
LAYER_2
 10
21.8981
 20
155.1311
 11
22.0451
 21
154.9988
  0
LINE
  8
LAYER_2
 10
22.0451
 20
154.9988
 11
26.569
 21
154.0372
  0
LINE
  8
LAYER_2
 10
21.8981
 20
155.1311
 11
23.6166
 21
154.7659
  0
LINE
  8
LAYER_2
 10
25.0386
 20
154.4636
 11
26.757
 21
154.0983
  0
LINE
  8
LAYER_2
 10
25.2156
 20
155.2961
 11
23.7935
 21
155.5984
  0
LINE
  8
LAYER_2
 10
63.4054
 20
155.2156
 11
30.8956
 21
155.3291
  0
LINE
  8
LAYER_2
 10
21.0662
 20
156.5055
 11
20.9244
 21
157.1558
  0
LINE
  8
LAYER_2
 10
63.4054
 20
161.213
 11
21.3756
 21
161.125
  0
LINE
  8
LAYER_2
 10
26.757
 20
154.0983
 11
26.569
 21
154.0372
  0
LINE
  8
LAYER_2
 10
26.757
 20
154.0983
 11
27.0406
 21
155.4325
  0
LINE
  8
LAYER_2
 10
25.0386
 20
154.4636
 11
25.2156
 21
155.2961
  0
LINE
  8
LAYER_2
 10
23.7935
 20
155.5984
 11
23.6166
 21
154.7659
  0
LINE
  8
LAYER_2
 10
65.6554
 20
168.4781
 11
75.5054
 21
168.4781
  0
LINE
  8
LAYER_2
 10
66.4089
 20
168.7712
 11
74.3213
 21
168.7712
  0
LINE
  8
LAYER_2
 10
75.5329
 20
168.8156
 11
65.3721
 21
168.8156
  0
LINE
  8
LAYER_2
 10
64.3304
 20
168.9406
 11
50.8873
 21
168.9406
  0
LINE
  8
LAYER_2
 10
21.8981
 20
155.1311
 11
22.096
 21
156.0624
  0
LINE
  8
LAYER_2
 10
20.9101
 20
160.1586
 11
21.0663
 21
160.8979
  0
LINE
  8
LAYER_2
 10
65.3721
 20
168.8156
 11
64.3304
 21
168.9406
  0
LINE
  8
LAYER_2
 10
75.1342
 20
171.0522
 11
70.5804
 21
171.1906
  0
LINE
  8
LAYER_2
 10
50.8873
 20
171.1906
 11
70.5804
 21
171.1906
  0
LINE
  8
LAYER_2
 10
50.5873
 20
169.2356
 11
50.5873
 21
170.8955
  0
ARC
  8
LAYER_2
 10
80.6317
 20
169.1089
 40
5.0988
 50
172.1892646
 51
179.9243747
  0
ARC
  8
LAYER_2
 10
75.1054
 20
170.5781
 40
0.475
 50
0.003227472996
 51
86.52385545
  0
ARC
  8
LAYER_2
 10
76.3304
 20
106.1031
 40
0.25
 50
0.003079853398
 51
89.99692013
  0
ARC
  8
LAYER_2
 10
75.5054
 20
168.4031
 40
0.075
 50
0.01026076667
 51
89.98973922
  0
LINE
  8
LAYER_2
 10
22.019
 20
156.0788
 11
21.2787
 21
156.2943
  0
ARC
  8
LAYER_2
 10
33.8746
 20
158.7189
 40
13.0442
 50
173.663346
 51
186.8823603
  0
LINE
  8
LAYER_2
 10
66.0711
 20
168.4781
 11
66.4089
 21
168.7712
  0
ARC
  8
LAYER_2
 10
21.3829
 20
160.7909
 40
0.3341
 50
91.2435682
 51
161.3315367
  0
ARC
  8
LAYER_2
 10
21.3757
 20
156.6044
 40
0.325
 50
197.7253731
 51
252.6262167
  0
ARC
  8
LAYER_2
 10
50.8872
 20
169.2406
 40
0.3
 50
180.9514097
 51
270.0115219
  0
ARC
  8
LAYER_2
 10
50.8873
 20
170.8906
 40
0.3
 50
89.99502243
 51
179.0614622
  0
ARC
  8
LAYER_2
 10
64.8304
 20
106.1031
 40
0.25
 50
90.00458466
 51
179.9954153
  0
ARC
  8
LAYER_2
 10
65.6554
 20
168.4031
 40
0.075
 50
90.01527585
 51
179.9847241
  0
ARC
  8
LAYER_2
 10
31.3353
 20
280.541
 40
125.2127
 50
268.068084
 51
269.798817
  0
ARC
  8
LAYER_2
 10
63.3821
 20
153.6112
 40
1.6046
 50
74.03751152
 51
89.16916088
  0
ARC
  8
LAYER_2
 10
63.2327
 20
153.1401
 40
2.0986
 50
62.08145979
 51
73.65180881
  0
ARC
  8
LAYER_2
 10
62.9696
 20
152.6742
 40
2.6335
 50
47.93795344
 51
61.7701282
  0
LINE
  8
LAYER_2
 10
64.7339
 20
154.6294
 11
64.9583
 21
154.4044
  0
LINE
  8
LAYER_2
 10
64.9583
 20
154.4044
 11
65.1566
 21
154.1562
  0
ARC
  8
LAYER_2
 10
63.3944
 20
152.857
 40
2.1894
 50
3.170935004
 51
36.3996051
  0
LINE
  8
LAYER_2
 10
27.1141
 20
155.3995
 11
27.1134
 21
155.3998
  0
LINE
  8
LAYER_2
 10
27.1134
 20
155.3998
 11
27.1111
 21
155.4007
  0
LINE
  8
LAYER_2
 10
27.1111
 20
155.4007
 11
27.1074
 21
155.4023
  0
LINE
  8
LAYER_2
 10
27.1074
 20
155.4023
 11
27.1022
 21
155.4045
  0
LINE
  8
LAYER_2
 10
27.1022
 20
155.4045
 11
27.0955
 21
155.4075
  0
LINE
  8
LAYER_2
 10
27.0955
 20
155.4075
 11
27.0873
 21
155.4111
  0
LINE
  8
LAYER_2
 10
27.0873
 20
155.4111
 11
27.0666
 21
155.4204
  0
LINE
  8
LAYER_2
 10
27.0666
 20
155.4204
 11
27.0402
 21
155.4327
  0
LINE
  8
LAYER_2
 10
27.0402
 20
155.4327
 11
27.0081
 21
155.448
  0
LINE
  8
LAYER_2
 10
27.0081
 20
155.448
 11
26.9705
 21
155.4662
  0
LINE
  8
LAYER_2
 10
26.9705
 20
155.4662
 11
26.9275
 21
155.4873
  0
LINE
  8
LAYER_2
 10
26.9275
 20
155.4873
 11
26.8258
 21
155.538
  0
LINE
  8
LAYER_2
 10
26.8258
 20
155.538
 11
26.7042
 21
155.5993
  0
LINE
  8
LAYER_2
 10
26.7042
 20
155.5993
 11
26.564
 21
155.6702
  0
LINE
  8
LAYER_2
 10
26.564
 20
155.6702
 11
26.4065
 21
155.7493
  0
LINE
  8
LAYER_2
 10
26.4065
 20
155.7493
 11
25.8982
 21
155.9984
  0
LINE
  8
LAYER_2
 10
25.8982
 20
155.9984
 11
25.3729
 21
156.2086
  0
LINE
  8
LAYER_2
 10
25.3729
 20
156.2086
 11
25.0989
 21
156.2789
  0
LINE
  8
LAYER_2
 10
25.0989
 20
156.2789
 11
24.8183
 21
156.3144
  0
LINE
  8
LAYER_2
 10
24.8183
 20
156.3144
 11
24.5354
 21
156.3122
  0
LINE
  8
LAYER_2
 10
24.5354
 20
156.3122
 11
24.2546
 21
156.2776
  0
LINE
  8
LAYER_2
 10
24.2546
 20
156.2776
 11
23.977
 21
156.2224
  0
LINE
  8
LAYER_2
 10
23.977
 20
156.2224
 11
23.7011
 21
156.1592
  0
LINE
  8
LAYER_2
 10
23.7011
 20
156.1592
 11
23.4244
 21
156.0995
  0
LINE
  8
LAYER_2
 10
23.4244
 20
156.0995
 11
23.1454
 21
156.052
  0
LINE
  8
LAYER_2
 10
23.1454
 20
156.052
 11
22.8639
 21
156.023
  0
LINE
  8
LAYER_2
 10
22.8639
 20
156.023
 11
22.7225
 21
156.0169
  0
LINE
  8
LAYER_2
 10
22.7225
 20
156.0169
 11
22.581
 21
156.0167
  0
LINE
  8
LAYER_2
 10
22.581
 20
156.0167
 11
22.4396
 21
156.0228
  0
LINE
  8
LAYER_2
 10
22.4396
 20
156.0228
 11
22.2986
 21
156.0351
  0
LINE
  8
LAYER_2
 10
22.2986
 20
156.0351
 11
22.2283
 21
156.0435
  0
LINE
  8
LAYER_2
 10
22.2283
 20
156.0435
 11
22.1583
 21
156.0536
  0
LINE
  8
LAYER_2
 10
22.1583
 20
156.0536
 11
22.1233
 21
156.0592
  0
LINE
  8
LAYER_2
 10
22.1233
 20
156.0592
 11
22.0885
 21
156.0653
  0
LINE
  8
LAYER_2
 10
22.0885
 20
156.0653
 11
22.0537
 21
156.0718
  0
LINE
  8
LAYER_2
 10
22.0537
 20
156.0718
 11
22.0363
 21
156.0752
  0
LINE
  8
LAYER_2
 10
22.0363
 20
156.0752
 11
22.0277
 21
156.0769
  0
LINE
  8
LAYER_2
 10
22.0277
 20
156.0769
 11
22.019
 21
156.0788
  0
LINE
  8
LAYER_2
 10
65.5804
 20
163.2281
 11
65.5492
 21
162.8082
  0
ARC
  8
LAYER_2
 10
63.513
 20
163.1089
 40
2.0583
 50
339.8659321
 51
351.5992278
  0
ARC
  8
LAYER_2
 10
63.8236
 20
162.9842
 40
1.7238
 50
326.1918747
 51
340.2026937
  0
ARC
  8
LAYER_2
 10
63.9115
 20
162.9252
 40
1.6179
 50
311.2705179
 51
326.1960402
  0
ARC
  8
LAYER_2
 10
63.8165
 20
163.0484
 40
1.7732
 50
297.3343064
 51
310.9528669
  0
ARC
  8
LAYER_2
 10
63.6406
 20
163.4264
 40
2.1898
 50
285.856321
 51
296.8816152
  0
LINE
  8
LAYER_2
 10
64.2389
 20
161.3199
 11
63.8259
 21
161.238
  0
LINE
  8
LAYER_2
 10
63.8259
 20
161.238
 11
63.4054
 21
161.213
  0
ARC
  8
LAYER_2
 10
25.2011
 20
158.7198
 40
4.2596
 50
248.1621427
 51
257.9880575
  0
ARC
  8
LAYER_2
 10
25.206
 20
158.7722
 40
4.3119
 50
258.0687792
 51
267.774702
  0
LINE
  8
LAYER_2
 10
74.3315
 20
168.7675
 11
74.3213
 21
168.7712
  0
ARC
  8
LAYER_2
 10
23.6492
 20
151.4235
 40
4.1773
 50
67.97752487
 51
88.02067773
  0
ENDBLK
  0
BLOCK
  8
LAYER_2
  2
AIGNBL0201000C
 70
64
 10
0
 20
0
 30
0
  3
AIGNBL0201000C
  0
LINE
  8
LAYER_2
 10
-38.7317
 20
244.8302
 11
-38.6758
 21
244.7975
  0
LINE
  8
LAYER_2
 10
-33.9531
 20
244.7933
 11
-33.8905
 21
244.8302
  0
LINE
  8
LAYER_2
 10
-38.6758
 20
244.7975
 11
-38.5375
 21
244.6998
  0
LINE
  8
LAYER_2
 10
-38.5375
 20
244.6998
 11
-38.4072
 21
244.5828
  0
LINE
  8
LAYER_2
 10
-38.4072
 20
244.5828
 11
-38.2865
 21
244.4478
  0
LINE
  8
LAYER_2
 10
-38.2865
 20
244.4478
 11
-38.177
 21
244.297
  0
LINE
  8
LAYER_2
 10
-38.177
 20
244.297
 11
-38.0787
 21
244.1308
  0
LINE
  8
LAYER_2
 10
-38.0787
 20
244.1308
 11
-37.9926
 21
243.9507
  0
LINE
  8
LAYER_2
 10
-37.9926
 20
243.9507
 11
-37.9192
 21
243.7568
  0
LINE
  8
LAYER_2
 10
-37.9192
 20
243.7568
 11
-37.8598
 21
243.5505
  0
LINE
  8
LAYER_2
 10
-37.8598
 20
243.5505
 11
-37.816
 21
243.3314
  0
LINE
  8
LAYER_2
 10
-37.816
 20
243.3314
 11
-37.7906
 21
243.0994
  0
LINE
  8
LAYER_2
 10
-37.7906
 20
243.0994
 11
-37.7861
 21
242.9552
  0
LINE
  8
LAYER_2
 10
-34.0966
 20
244.6901
 11
-33.9531
 21
244.7933
  0
LINE
  8
LAYER_2
 10
-34.8374
 20
233.2534
 11
-34.8611
 21
233.2534
  0
LINE
  8
LAYER_2
 10
-34.8531
 20
232.924
 11
-34.8361
 21
232.924
  0
LINE
  8
LAYER_2
 10
-40.4647
 20
246.4218
 11
-40.4526
 21
246.4037
  0
LINE
  8
LAYER_2
 10
-40.4526
 20
246.4037
 11
-40.4356
 21
246.3777
  0
LINE
  8
LAYER_2
 10
-40.4353
 20
246.3773
 11
-40.4266
 21
246.3638
  0
LINE
  8
LAYER_2
 10
-40.4266
 20
246.3638
 11
-40.4169
 21
246.3486
  0
LINE
  8
LAYER_2
 10
-40.4169
 20
246.3486
 11
-40.4013
 21
246.324
  0
LINE
  8
LAYER_2
 10
-40.4013
 20
246.324
 11
-40.3901
 21
246.3059
  0
LINE
  8
LAYER_2
 10
-40.3901
 20
246.3059
 11
-40.3757
 21
246.2824
  0
LINE
  8
LAYER_2
 10
-40.3757
 20
246.2824
 11
-40.3578
 21
246.2524
  0
LINE
  8
LAYER_2
 10
-40.3578
 20
246.2524
 11
-40.3354
 21
246.2143
  0
LINE
  8
LAYER_2
 10
-40.3354
 20
246.2143
 11
-40.3097
 21
246.169
  0
LINE
  8
LAYER_2
 10
-40.3097
 20
246.169
 11
-40.281
 21
246.1168
  0
LINE
  8
LAYER_2
 10
-40.281
 20
246.1168
 11
-40.2503
 21
246.0587
  0
LINE
  8
LAYER_2
 10
-40.2503
 20
246.0587
 11
-40.2184
 21
245.9959
  0
LINE
  8
LAYER_2
 10
-40.2184
 20
245.9959
 11
-40.1857
 21
245.9286
  0
LINE
  8
LAYER_2
 10
-40.1857
 20
245.9286
 11
-40.1527
 21
245.8574
  0
LINE
  8
LAYER_2
 10
-40.1527
 20
245.8574
 11
-40.1196
 21
245.7826
  0
LINE
  8
LAYER_2
 10
-40.1196
 20
245.7826
 11
-40.0868
 21
245.7048
  0
LINE
  8
LAYER_2
 10
-40.0868
 20
245.7048
 11
-40.0545
 21
245.6243
  0
LINE
  8
LAYER_2
 10
-40.0545
 20
245.6243
 11
-40.0232
 21
245.5419
  0
LINE
  8
LAYER_2
 10
-40.0232
 20
245.5419
 11
-39.9926
 21
245.4573
  0
LINE
  8
LAYER_2
 10
-39.9926
 20
245.4573
 11
-39.9629
 21
245.3707
  0
LINE
  8
LAYER_2
 10
-39.9629
 20
245.3707
 11
-39.9341
 21
245.2821
  0
LINE
  8
LAYER_2
 10
-39.9341
 20
245.2821
 11
-39.9063
 21
245.1916
  0
LINE
  8
LAYER_2
 10
-39.9063
 20
245.1916
 11
-39.8795
 21
245.0993
  0
LINE
  8
LAYER_2
 10
-39.8795
 20
245.0993
 11
-39.8537
 21
245.0053
  0
LINE
  8
LAYER_2
 10
-39.8537
 20
245.0053
 11
-39.8289
 21
244.9097
  0
LINE
  8
LAYER_2
 10
-39.8289
 20
244.9097
 11
-39.8052
 21
244.8125
  0
LINE
  8
LAYER_2
 10
-39.8052
 20
244.8125
 11
-39.7824
 21
244.7138
  0
LINE
  8
LAYER_2
 10
-39.7824
 20
244.7138
 11
-39.7607
 21
244.6135
  0
LINE
  8
LAYER_2
 10
-39.7607
 20
244.6135
 11
-39.7401
 21
244.5117
  0
LINE
  8
LAYER_2
 10
-39.7401
 20
244.5117
 11
-39.7204
 21
244.4084
  0
LINE
  8
LAYER_2
 10
-39.7204
 20
244.4084
 11
-39.7018
 21
244.3037
  0
LINE
  8
LAYER_2
 10
-39.7018
 20
244.3037
 11
-39.6841
 21
244.1976
  0
LINE
  8
LAYER_2
 10
-39.6841
 20
244.1976
 11
-39.6675
 21
244.0901
  0
LINE
  8
LAYER_2
 10
-39.6675
 20
244.0901
 11
-39.6519
 21
243.9812
  0
LINE
  8
LAYER_2
 10
-39.6519
 20
243.9812
 11
-39.6373
 21
243.871
  0
LINE
  8
LAYER_2
 10
-39.6373
 20
243.871
 11
-39.6237
 21
243.7594
  0
LINE
  8
LAYER_2
 10
-39.6237
 20
243.7594
 11
-39.6112
 21
243.6466
  0
LINE
  8
LAYER_2
 10
-39.6112
 20
243.6466
 11
-39.5996
 21
243.5325
  0
LINE
  8
LAYER_2
 10
-39.5996
 20
243.5325
 11
-39.589
 21
243.4173
  0
LINE
  8
LAYER_2
 10
-39.589
 20
243.4173
 11
-39.5794
 21
243.3009
  0
LINE
  8
LAYER_2
 10
-39.5794
 20
243.3009
 11
-39.5708
 21
243.1835
  0
LINE
  8
LAYER_2
 10
-39.5708
 20
243.1835
 11
-39.5632
 21
243.0649
  0
LINE
  8
LAYER_2
 10
-39.5632
 20
243.0649
 11
-39.5564
 21
242.9451
  0
LINE
  8
LAYER_2
 10
-39.5564
 20
242.9451
 11
-39.5506
 21
242.8241
  0
LINE
  8
LAYER_2
 10
-39.5506
 20
242.8241
 11
-39.5457
 21
242.7019
  0
LINE
  8
LAYER_2
 10
-39.5457
 20
242.7019
 11
-39.5415
 21
242.5785
  0
LINE
  8
LAYER_2
 10
-39.5415
 20
242.5785
 11
-39.5382
 21
242.4539
  0
LINE
  8
LAYER_2
 10
-39.5382
 20
242.4539
 11
-39.5356
 21
242.3281
  0
LINE
  8
LAYER_2
 10
-39.5356
 20
242.3281
 11
-39.5337
 21
242.2012
  0
LINE
  8
LAYER_2
 10
-32.2415
 20
246.2905
 11
-32.2283
 21
246.312
  0
LINE
  8
LAYER_2
 10
-32.2283
 20
246.312
 11
-32.2177
 21
246.3289
  0
LINE
  8
LAYER_2
 10
-32.2177
 20
246.3289
 11
-32.2028
 21
246.3524
  0
LINE
  8
LAYER_2
 10
-32.2028
 20
246.3524
 11
-32.1935
 21
246.367
  0
LINE
  8
LAYER_2
 10
-32.1935
 20
246.367
 11
-32.1818
 21
246.385
  0
LINE
  8
LAYER_2
 10
-32.1866
 20
246.3777
 11
-32.1695
 21
246.4037
  0
LINE
  8
LAYER_2
 10
-32.1695
 20
246.4037
 11
-32.1635
 21
246.4127
  0
LINE
  8
LAYER_2
 10
-32.1606
 20
246.4171
 11
-32.1574
 21
246.4218
  0
LINE
  8
LAYER_2
 10
-34.8361
 20
232.0876
 11
-34.8611
 21
232.0876
  0
LINE
  8
LAYER_2
 10
-34.8361
 20
232.0739
 11
-34.8611
 21
232.0739
  0
LINE
  8
LAYER_2
 10
-34.8437
 20
231.4786
 11
-34.8611
 21
231.4786
  0
LINE
  8
LAYER_2
 10
-34.8362
 20
231.2854
 11
-34.8611
 21
231.2854
  0
LINE
  8
LAYER_2
 10
-34.8589
 20
230.9619
 11
-34.8365
 21
230.9619
  0
LINE
  8
LAYER_2
 10
-39.3445
 20
199.9584
 11
-39.3408
 21
199.9109
  0
LINE
  8
LAYER_2
 10
-39.3408
 20
199.9109
 11
-39.3294
 21
199.8617
  0
LINE
  8
LAYER_2
 10
-39.3294
 20
199.8617
 11
-39.3104
 21
199.8148
  0
LINE
  8
LAYER_2
 10
-39.3104
 20
199.8148
 11
-39.2843
 21
199.7714
  0
LINE
  8
LAYER_2
 10
-39.2843
 20
199.7714
 11
-39.2519
 21
199.7325
  0
LINE
  8
LAYER_2
 10
-39.2519
 20
199.7325
 11
-39.2138
 21
199.6992
  0
LINE
  8
LAYER_2
 10
-39.2138
 20
199.6992
 11
-39.1712
 21
199.6723
  0
LINE
  8
LAYER_2
 10
-39.1712
 20
199.6723
 11
-39.1253
 21
199.6524
  0
LINE
  8
LAYER_2
 10
-39.1253
 20
199.6524
 11
-39.0833
 21
199.641
  0
LINE
  8
LAYER_2
 10
-35.129
 20
229.2192
 11
-36.3111
 21
229.2052
  0
LINE
  8
LAYER_2
 10
-34.8589
 20
230.6802
 11
-34.8361
 21
230.6802
  0
LINE
  8
LAYER_2
 10
-37.4932
 20
229.2192
 11
-36.3111
 21
229.2052
  0
LINE
  8
LAYER_2
 10
-39.5337
 20
242.2012
 11
-39.5323
 21
242.0314
  0
LINE
  8
LAYER_2
 10
-39.5323
 20
242.0314
 11
-39.3445
 21
199.9584
  0
LINE
  8
LAYER_2
 10
-37.7861
 20
242.9552
 11
-37.7861
 21
229.5191
  0
LINE
  8
LAYER_2
 10
-34.8611
 20
230.6802
 11
-34.8611
 21
230.9619
  0
LINE
  8
LAYER_2
 10
-34.8611
 20
231.2243
 11
-34.8611
 21
231.7118
  0
LINE
  8
LAYER_2
 10
-34.8611
 20
231.9733
 11
-34.8611
 21
232.1856
  0
LINE
  8
LAYER_2
 10
-34.8611
 20
232.435
 11
-34.8611
 21
232.7167
  0
LINE
  8
LAYER_2
 10
-34.8365
 20
230.9619
 11
-34.8365
 21
230.9744
  0
LINE
  8
LAYER_2
 10
-34.8361
 20
229.5191
 11
-34.8361
 21
230.6802
  0
LINE
  8
LAYER_2
 10
-34.8361
 20
231.8089
 11
-34.8361
 21
231.8649
  0
LINE
  8
LAYER_2
 10
-34.8361
 20
232.0739
 11
-34.8361
 21
232.0876
  0
LINE
  8
LAYER_2
 10
-34.8361
 20
232.2987
 11
-34.8361
 21
232.3525
  0
LINE
  8
LAYER_2
 10
-34.8361
 20
233.4602
 11
-34.8361
 21
242.9552
  0
LINE
  8
LAYER_2
 10
-34.8362
 20
242.9552
 11
-34.8326
 21
243.0835
  0
LINE
  8
LAYER_2
 10
-34.8326
 20
243.0835
 11
-34.8104
 21
243.3034
  0
LINE
  8
LAYER_2
 10
-34.8104
 20
243.3034
 11
-34.7708
 21
243.5151
  0
LINE
  8
LAYER_2
 10
-34.7708
 20
243.5151
 11
-34.7156
 21
243.7181
  0
LINE
  8
LAYER_2
 10
-34.7156
 20
243.7181
 11
-34.6458
 21
243.9118
  0
LINE
  8
LAYER_2
 10
-34.6458
 20
243.9118
 11
-34.5622
 21
244.0948
  0
LINE
  8
LAYER_2
 10
-34.5622
 20
244.0948
 11
-34.4645
 21
244.2669
  0
LINE
  8
LAYER_2
 10
-34.4645
 20
244.2669
 11
-34.3538
 21
244.4248
  0
LINE
  8
LAYER_2
 10
-34.3538
 20
244.4248
 11
-34.2308
 21
244.5667
  0
LINE
  8
LAYER_2
 10
-34.2308
 20
244.5667
 11
-34.0966
 21
244.6901
  0
LINE
  8
LAYER_2
 10
-33.2776
 20
199.9584
 11
-33.0886
 21
242.1845
  0
LINE
  8
LAYER_2
 10
-33.0886
 20
242.1845
 11
-33.087
 21
242.303
  0
LINE
  8
LAYER_2
 10
-33.087
 20
242.303
 11
-33.0847
 21
242.4205
  0
LINE
  8
LAYER_2
 10
-33.0847
 20
242.4205
 11
-33.0818
 21
242.5369
  0
LINE
  8
LAYER_2
 10
-33.0818
 20
242.5369
 11
-33.0782
 21
242.6521
  0
LINE
  8
LAYER_2
 10
-33.0782
 20
242.6521
 11
-33.074
 21
242.7662
  0
LINE
  8
LAYER_2
 10
-33.074
 20
242.7662
 11
-33.069
 21
242.8792
  0
LINE
  8
LAYER_2
 10
-33.069
 20
242.8792
 11
-33.0632
 21
242.9911
  0
LINE
  8
LAYER_2
 10
-33.0632
 20
242.9911
 11
-33.0567
 21
243.1019
  0
LINE
  8
LAYER_2
 10
-33.0567
 20
243.1019
 11
-33.0494
 21
243.2117
  0
LINE
  8
LAYER_2
 10
-33.0494
 20
243.2117
 11
-33.0412
 21
243.3204
  0
LINE
  8
LAYER_2
 10
-33.0412
 20
243.3204
 11
-33.0322
 21
243.4282
  0
LINE
  8
LAYER_2
 10
-33.0322
 20
243.4282
 11
-33.0223
 21
243.5349
  0
LINE
  8
LAYER_2
 10
-33.0223
 20
243.5349
 11
-33.0116
 21
243.6407
  0
LINE
  8
LAYER_2
 10
-33.0116
 20
243.6407
 11
-33
 21
243.7453
  0
LINE
  8
LAYER_2
 10
-33
 20
243.7453
 11
-32.9876
 21
243.8489
  0
LINE
  8
LAYER_2
 10
-32.9876
 20
243.8489
 11
-32.9743
 21
243.9514
  0
LINE
  8
LAYER_2
 10
-32.9743
 20
243.9514
 11
-32.9601
 21
244.0528
  0
LINE
  8
LAYER_2
 10
-32.9601
 20
244.0528
 11
-32.945
 21
244.153
  0
LINE
  8
LAYER_2
 10
-32.945
 20
244.153
 11
-32.9291
 21
244.2521
  0
LINE
  8
LAYER_2
 10
-32.9291
 20
244.2521
 11
-32.9123
 21
244.35
  0
LINE
  8
LAYER_2
 10
-32.9123
 20
244.35
 11
-32.8946
 21
244.4468
  0
LINE
  8
LAYER_2
 10
-32.8946
 20
244.4468
 11
-32.876
 21
244.5424
  0
LINE
  8
LAYER_2
 10
-32.876
 20
244.5424
 11
-32.8565
 21
244.6368
  0
LINE
  8
LAYER_2
 10
-32.8565
 20
244.6368
 11
-32.8361
 21
244.73
  0
LINE
  8
LAYER_2
 10
-32.8361
 20
244.73
 11
-32.8147
 21
244.822
  0
LINE
  8
LAYER_2
 10
-32.8147
 20
244.822
 11
-32.7925
 21
244.9127
  0
LINE
  8
LAYER_2
 10
-32.7925
 20
244.9127
 11
-32.7693
 21
245.0022
  0
LINE
  8
LAYER_2
 10
-32.7693
 20
245.0022
 11
-32.7451
 21
245.0904
  0
LINE
  8
LAYER_2
 10
-32.7451
 20
245.0904
 11
-32.72
 21
245.1774
  0
LINE
  8
LAYER_2
 10
-32.72
 20
245.1774
 11
-32.694
 21
245.263
  0
LINE
  8
LAYER_2
 10
-32.694
 20
245.263
 11
-32.667
 21
245.3472
  0
LINE
  8
LAYER_2
 10
-32.667
 20
245.3472
 11
-32.6391
 21
245.43
  0
LINE
  8
LAYER_2
 10
-32.6391
 20
245.43
 11
-32.6102
 21
245.5112
  0
LINE
  8
LAYER_2
 10
-32.6102
 20
245.5112
 11
-32.5806
 21
245.5907
  0
LINE
  8
LAYER_2
 10
-32.5806
 20
245.5907
 11
-32.55
 21
245.6686
  0
LINE
  8
LAYER_2
 10
-32.55
 20
245.6686
 11
-32.5187
 21
245.7447
  0
LINE
  8
LAYER_2
 10
-32.5187
 20
245.7447
 11
-32.4865
 21
245.8193
  0
LINE
  8
LAYER_2
 10
-32.4865
 20
245.8193
 11
-32.4537
 21
245.8917
  0
LINE
  8
LAYER_2
 10
-32.4537
 20
245.8917
 11
-32.4203
 21
245.9621
  0
LINE
  8
LAYER_2
 10
-32.4203
 20
245.9621
 11
-32.3873
 21
246.0286
  0
LINE
  8
LAYER_2
 10
-32.3873
 20
246.0286
 11
-32.3556
 21
246.0897
  0
LINE
  8
LAYER_2
 10
-32.3556
 20
246.0897
 11
-32.3261
 21
246.1444
  0
LINE
  8
LAYER_2
 10
-32.3261
 20
246.1444
 11
-32.2999
 21
246.1913
  0
LINE
  8
LAYER_2
 10
-32.2999
 20
246.1913
 11
-32.277
 21
246.2311
  0
LINE
  8
LAYER_2
 10
-32.277
 20
246.2311
 11
-32.2576
 21
246.2638
  0
LINE
  8
LAYER_2
 10
-32.2576
 20
246.2638
 11
-32.2415
 21
246.2905
  0
LINE
  8
LAYER_2
 10
-38.3667
 20
199.5398
 11
-39.0833
 21
199.641
  0
LINE
  8
LAYER_2
 10
-33.5388
 20
199.641
 11
-33.4968
 21
199.6524
  0
LINE
  8
LAYER_2
 10
-33.4968
 20
199.6524
 11
-33.4509
 21
199.6723
  0
LINE
  8
LAYER_2
 10
-33.4509
 20
199.6723
 11
-33.4083
 21
199.6993
  0
LINE
  8
LAYER_2
 10
-33.4083
 20
199.6993
 11
-33.3702
 21
199.7325
  0
LINE
  8
LAYER_2
 10
-33.3702
 20
199.7325
 11
-33.3378
 21
199.7714
  0
LINE
  8
LAYER_2
 10
-33.3378
 20
199.7714
 11
-33.3117
 21
199.8149
  0
LINE
  8
LAYER_2
 10
-33.3117
 20
199.8149
 11
-33.2927
 21
199.8618
  0
LINE
  8
LAYER_2
 10
-33.2927
 20
199.8618
 11
-33.2813
 21
199.911
  0
LINE
  8
LAYER_2
 10
-33.2813
 20
199.911
 11
-33.2776
 21
199.9584
  0
LINE
  8
LAYER_2
 10
-33.5388
 20
199.641
 11
-34.2554
 21
199.5398
  0
ARC
  8
LAYER_2
 10
-36.3111
 20
249.2052
 40
6
 50
304.3268052
 51
34.32728212
  0
ARC
  8
LAYER_2
 10
-36.3111
 20
249.2052
 40
6
 50
34.32710894
 51
124.3269783
  0
ARC
  8
LAYER_2
 10
-36.3111
 20
249.2052
 40
6
 50
124.3272821
 51
214.3268052
  0
ARC
  8
LAYER_2
 10
-36.3111
 20
249.2053
 40
6
 50
214.3277283
 51
235.6722717
  0
ARC
  8
LAYER_2
 10
-36.3111
 20
249.2052
 40
5
 50
298.9558659
 51
28.95544771
  0
ARC
  8
LAYER_2
 10
-36.3111
 20
249.2052
 40
5
 50
28.95492929
 51
118.9548268
  0
ARC
  8
LAYER_2
 10
-36.3111
 20
249.2052
 40
5
 50
118.9548929
 51
208.9553111
  0
ARC
  8
LAYER_2
 10
-36.3112
 20
249.2053
 40
5
 50
208.9568831
 51
241.0460487
  0
LINE
  8
LAYER_2
 10
-40.4408
 20
246.3857
 11
-40.4495
 21
246.399
  0
LINE
  8
LAYER_2
 10
-40.4495
 20
246.399
 11
-40.4591
 21
246.4134
  0
LINE
  8
LAYER_2
 10
-38.5888
 20
244.7397
 11
-38.7317
 21
244.8302
  0
ARC
  8
LAYER_2
 10
-37.4861
 20
229.5191
 40
0.3
 50
180.0024189
 51
268.6445048
  0
ARC
  8
LAYER_2
 10
-36.3111
 20
224.4552
 40
25
 50
265.28348
 51
274.71652
  0
LINE
  8
LAYER_2
 10
-34.8376
 20
233.2462
 11
-34.8375
 21
232.9752
  0
LINE
  8
LAYER_2
 10
-34.8544
 20
232.9584
 11
-34.8445
 21
232.7664
  0
LINE
  8
LAYER_2
 10
-34.844
 20
233.4602
 11
-34.8569
 21
233.1116
  0
LINE
  8
LAYER_2
 10
-34.8562
 20
233.0329
 11
-34.8544
 21
232.9584
  0
LINE
  8
LAYER_2
 10
-34.8569
 20
233.1116
 11
-34.8562
 21
233.0329
  0
LINE
  8
LAYER_2
 10
-32.1726
 20
246.399
 11
-32.1813
 21
246.3857
  0
LINE
  8
LAYER_2
 10
-32.1606
 20
246.4171
 11
-32.1726
 21
246.399
  0
LINE
  8
LAYER_2
 10
-33.8905
 20
244.8302
 11
-34.0334
 21
244.7396
  0
LINE
  8
LAYER_2
 10
-34.849
 20
232.1903
 11
-34.8527
 21
232.2037
  0
ARC
  8
LAYER_2
 10
-35.1361
 20
229.5191
 40
0.3
 50
271.3492092
 51
0.003867071508
  0
LINE
  8
LAYER_2
 10
-34.836
 20
232.289
 11
-34.8359
 21
232.2987
  0
LINE
  8
LAYER_2
 10
-32.1834
 20
246.3825
 11
-32.1813
 21
246.3857
  0
LINE
  8
LAYER_2
 10
-34.8589
 20
232.435
 11
-34.8416
 21
232.3938
  0
LINE
  8
LAYER_2
 10
-34.8416
 20
232.3938
 11
-34.8359
 21
232.3525
  0
LINE
  8
LAYER_2
 10
-34.8589
 20
232.1856
 11
-34.8427
 21
232.2372
  0
LINE
  8
LAYER_2
 10
-34.8427
 20
232.2372
 11
-34.836
 21
232.289
  0
LINE
  8
LAYER_2
 10
-34.8589
 20
231.9733
 11
-34.8528
 21
231.9568
  0
LINE
  8
LAYER_2
 10
-34.8528
 20
231.9568
 11
-34.8392
 21
231.9073
  0
LINE
  8
LAYER_2
 10
-34.8392
 20
231.9073
 11
-34.8359
 21
231.8649
  0
LINE
  8
LAYER_2
 10
-34.8589
 20
231.7118
 11
-34.8416
 21
231.7603
  0
LINE
  8
LAYER_2
 10
-34.8416
 20
231.7603
 11
-34.8359
 21
231.8089
  0
LINE
  8
LAYER_2
 10
-34.8589
 20
231.2243
 11
-34.8429
 21
231.0996
  0
LINE
  8
LAYER_2
 10
-34.8429
 20
231.0996
 11
-34.8385
 21
231.0371
  0
LINE
  8
LAYER_2
 10
-34.8385
 20
231.0371
 11
-34.8365
 21
230.9744
  0
LINE
  8
LAYER_2
 10
-40.4386
 20
246.3823
 11
-40.4408
 21
246.3857
  0
LINE
  8
LAYER_2
 10
-34.8365
 20
230.9744
 11
-34.8385
 21
231.0343
  0
LINE
  8
LAYER_2
 10
-34.8385
 20
231.0343
 11
-34.8429
 21
231.0942
  0
LINE
  8
LAYER_2
 10
-34.8361
 20
232.0739
 11
-34.8372
 21
232.0449
  0
LINE
  8
LAYER_2
 10
-34.8372
 20
232.0449
 11
-34.8394
 21
232.0264
  0
LINE
  8
LAYER_2
 10
-34.8394
 20
232.0264
 11
-34.8544
 21
231.9709
  0
LINE
  8
LAYER_2
 10
-34.8361
 20
232.0876
 11
-34.8372
 21
232.1219
  0
LINE
  8
LAYER_2
 10
-34.8372
 20
232.1219
 11
-34.849
 21
232.1903
  0
LINE
  8
LAYER_2
 10
-34.8421
 20
232.7191
 11
-34.8405
 21
232.701
  0
LINE
  8
LAYER_2
 10
-34.8405
 20
232.701
 11
-34.8369
 21
232.666
  0
LINE
  8
LAYER_2
 10
-34.8366
 20
232.6666
 11
-34.8378
 21
232.6809
  0
LINE
  8
LAYER_2
 10
-34.8378
 20
232.6809
 11
-34.8445
 21
232.7664
  0
LINE
  8
LAYER_2
 10
-34.8361
 20
232.6169
 11
-34.8377
 21
232.5919
  0
LINE
  8
LAYER_2
 10
-34.8377
 20
232.5919
 11
-34.8589
 21
232.517
  0
LINE
  8
LAYER_2
 10
-34.8358
 20
231.5492
 11
-34.8447
 21
231.6189
  0
LINE
  8
LAYER_2
 10
-34.8447
 20
231.6189
 11
-34.8589
 21
231.6657
  0
LINE
  8
LAYER_2
 10
-34.8374
 20
233.2534
 11
-34.8376
 21
233.2462
  0
LINE
  8
LAYER_2
 10
-34.8375
 20
232.9752
 11
-34.8369
 21
232.9553
  0
LINE
  8
LAYER_2
 10
-34.8369
 20
232.9553
 11
-34.8361
 21
232.9245
  0
LINE
  8
LAYER_2
 10
-34.8437
 20
231.4786
 11
-34.8358
 21
231.5492
  0
LINE
  8
LAYER_2
 10
-34.8589
 20
232.7167
 11
-34.8533
 21
232.7023
  0
LINE
  8
LAYER_2
 10
-34.8533
 20
232.7023
 11
-34.8406
 21
232.659
  0
LINE
  8
LAYER_2
 10
-34.8406
 20
232.659
 11
-34.8361
 21
232.6169
  0
LINE
  8
LAYER_2
 10
-34.8374
 20
233.2534
 11
-34.844
 21
233.4602
  0
LINE
  8
LAYER_2
 10
-34.8362
 20
231.2854
 11
-34.8437
 21
231.4786
  0
ENDBLK
  0
BLOCK
  8
LAYER_2
  2
AIGNBL0201000D
 70
64
 10
0
 20
0
 30
0
  3
AIGNBL0201000D
  0
LINE
  8
LAYER_2
 10
-33.7094
 20
156.7463
 11
-33.7065
 21
156.7491
  0
ENDBLK
  0
BLOCK
  8
LAYER_2
  2
AIGNBL0201000E
 70
64
 10
0
 20
0
 30
0
  3
AIGNBL0201000E
  0
LINE
  8
LAYER_2
 10
-33.7095
 20
156.7464
 11
-33.7065
 21
156.7491
  0
ENDBLK
  0
BLOCK
  8
LAYER_2
  2
AIGNBL0201000F
 70
64
 10
0
 20
0
 30
0
  3
AIGNBL0201000F
  0
LINE
  8
LAYER_2
 10
-34.0023
 20
154.8871
 11
-33.9366
 21
154.9261
  0
ENDBLK
  0
BLOCK
  8
LAYER_2
  2
AIGNBL02010010
 70
64
 10
0
 20
0
 30
0
  3
AIGNBL02010010
  0
LINE
  8
LAYER_2
 10
-34.1615
 20
154.8035
 11
-34.0023
 21
154.8871
  0
ENDBLK
  0
BLOCK
  8
LAYER_2
  2
AIGNBL02010011
 70
64
 10
0
 20
0
 30
0
  3
AIGNBL02010011
  0
LINE
  8
LAYER_2
 10
-39.2632
 20
160.6667
 11
-39.2641
 21
160.6593
  0
ENDBLK
  0
BLOCK
  8
LAYER_2
  2
AIGNBL02010012
 70
64
 10
0
 20
0
 30
0
  3
AIGNBL02010012
  0
LINE
  8
LAYER_2
 10
-33.6734
 20
156.8859
 11
-33.6671
 21
156.895
  0
ENDBLK
  0
BLOCK
  8
LAYER_2
  2
AIGNBL02010013
 70
64
 10
0
 20
0
 30
0
  3
AIGNBL02010013
  0
LINE
  8
LAYER_2
 10
-33.6777
 20
156.8797
 11
-33.6734
 21
156.8859
  0
ENDBLK
  0
BLOCK
  8
LAYER_2
  2
AIGNBL02010014
 70
64
 10
0
 20
0
 30
0
  3
AIGNBL02010014
  0
LINE
  8
LAYER_2
 10
-33.6821
 20
156.8735
 11
-33.6777
 21
156.8797
  0
ENDBLK
  0
BLOCK
  8
LAYER_2
  2
AIGNBL02010015
 70
64
 10
0
 20
0
 30
0
  3
AIGNBL02010015
  0
LINE
  8
LAYER_2
 10
-33.6866
 20
156.8673
 11
-33.6821
 21
156.8735
  0
ENDBLK
  0
BLOCK
  8
LAYER_2
  2
AIGNBL02010016
 70
64
 10
0
 20
0
 30
0
  3
AIGNBL02010016
  0
LINE
  8
LAYER_2
 10
-33.6911
 20
156.8609
 11
-33.6866
 21
156.8673
  0
ENDBLK
  0
BLOCK
  8
LAYER_2
  2
AIGNBL02010017
 70
64
 10
0
 20
0
 30
0
  3
AIGNBL02010017
  0
LINE
  8
LAYER_2
 10
-33.6958
 20
156.8545
 11
-33.6911
 21
156.8609
  0
ENDBLK
  0
BLOCK
  8
LAYER_2
  2
AIGNBL02010018
 70
64
 10
0
 20
0
 30
0
  3
AIGNBL02010018
  0
LINE
  8
LAYER_2
 10
-33.7005
 20
156.8481
 11
-33.6958
 21
156.8545
  0
ENDBLK
  0
BLOCK
  8
LAYER_2
  2
AIGNBL02010019
 70
64
 10
0
 20
0
 30
0
  3
AIGNBL02010019
  0
LINE
  8
LAYER_2
 10
-33.7053
 20
156.8415
 11
-33.7005
 21
156.8481
  0
ENDBLK
  0
BLOCK
  8
LAYER_2
  2
AIGNBL0201001A
 70
64
 10
0
 20
0
 30
0
  3
AIGNBL0201001A
  0
LINE
  8
LAYER_2
 10
-33.7102
 20
156.835
 11
-33.7053
 21
156.8415
  0
ENDBLK
  0
BLOCK
  8
LAYER_2
  2
AIGNBL0201001B
 70
64
 10
0
 20
0
 30
0
  3
AIGNBL0201001B
  0
LINE
  8
LAYER_2
 10
-33.7153
 20
156.8283
 11
-33.7102
 21
156.835
  0
ENDBLK
  0
BLOCK
  8
LAYER_2
  2
AIGNBL0201001C
 70
64
 10
0
 20
0
 30
0
  3
AIGNBL0201001C
  0
LINE
  8
LAYER_2
 10
-33.7204
 20
156.8216
 11
-33.7153
 21
156.8283
  0
ENDBLK
  0
BLOCK
  8
LAYER_2
  2
AIGNBL0201001D
 70
64
 10
0
 20
0
 30
0
  3
AIGNBL0201001D
  0
LINE
  8
LAYER_2
 10
-33.7256
 20
156.8148
 11
-33.7204
 21
156.8216
  0
ENDBLK
  0
BLOCK
  8
LAYER_2
  2
AIGNBL0201001E
 70
64
 10
0
 20
0
 30
0
  3
AIGNBL0201001E
  0
LINE
  8
LAYER_2
 10
-33.731
 20
156.8079
 11
-33.7256
 21
156.8148
  0
ENDBLK
  0
BLOCK
  8
LAYER_2
  2
AIGNBL0201001F
 70
64
 10
0
 20
0
 30
0
  3
AIGNBL0201001F
  0
LINE
  8
LAYER_2
 10
-33.7364
 20
156.8009
 11
-33.731
 21
156.8079
  0
ENDBLK
  0
BLOCK
  8
LAYER_2
  2
AIGNBL02010020
 70
64
 10
0
 20
0
 30
0
  3
AIGNBL02010020
  0
LINE
  8
LAYER_2
 10
-33.742
 20
156.7939
 11
-33.7364
 21
156.8009
  0
ENDBLK
  0
BLOCK
  8
LAYER_2
  2
AIGNBL02010021
 70
64
 10
0
 20
0
 30
0
  3
AIGNBL02010021
  0
LINE
  8
LAYER_2
 10
-33.7477
 20
156.7868
 11
-33.742
 21
156.7939
  0
ENDBLK
  0
BLOCK
  8
LAYER_2
  2
AIGNBL02010022
 70
64
 10
0
 20
0
 30
0
  3
AIGNBL02010022
  0
LINE
  8
LAYER_2
 10
-33.7535
 20
156.7796
 11
-33.7477
 21
156.7868
  0
ENDBLK
  0
BLOCK
  8
LAYER_2
  2
AIGNBL02010023
 70
64
 10
0
 20
0
 30
0
  3
AIGNBL02010023
  0
LINE
  8
LAYER_2
 10
-33.7595
 20
156.7724
 11
-33.7535
 21
156.7796
  0
ENDBLK
  0
BLOCK
  8
LAYER_2
  2
AIGNBL02010024
 70
64
 10
0
 20
0
 30
0
  3
AIGNBL02010024
  0
LINE
  8
LAYER_2
 10
-33.7655
 20
156.765
 11
-33.7595
 21
156.7724
  0
ENDBLK
  0
BLOCK
  8
LAYER_2
  2
AIGNBL02010025
 70
64
 10
0
 20
0
 30
0
  3
AIGNBL02010025
  0
LINE
  8
LAYER_2
 10
-33.7717
 20
156.7576
 11
-33.7655
 21
156.765
  0
ENDBLK
  0
BLOCK
  8
LAYER_2
  2
AIGNBL02010026
 70
64
 10
0
 20
0
 30
0
  3
AIGNBL02010026
  0
LINE
  8
LAYER_2
 10
-33.7781
 20
156.7501
 11
-33.7717
 21
156.7576
  0
ENDBLK
  0
BLOCK
  8
LAYER_2
  2
AIGNBL02010027
 70
64
 10
0
 20
0
 30
0
  3
AIGNBL02010027
  0
LINE
  8
LAYER_2
 10
-33.7846
 20
156.7425
 11
-33.7781
 21
156.7501
  0
ENDBLK
  0
BLOCK
  8
LAYER_2
  2
AIGNBL02010028
 70
64
 10
0
 20
0
 30
0
  3
AIGNBL02010028
  0
LINE
  8
LAYER_2
 10
-33.7946
 20
156.731
 11
-33.7912
 21
156.7349
  0
LINE
  8
LAYER_2
 10
-33.7912
 20
156.7349
 11
-33.7846
 21
156.7425
  0
ENDBLK
  0
BLOCK
  8
LAYER_2
  2
AIGNBL02010029
 70
64
 10
0
 20
0
 30
0
  3
AIGNBL02010029
  0
LINE
  8
LAYER_2
 10
-38.7953
 20
156.6952
 11
-38.7953
 21
155.9712
  0
ENDBLK
  0
BLOCK
  8
LAYER_2
  2
AIGNBL0201002A
 70
64
 10
0
 20
0
 30
0
  3
AIGNBL0201002A
  0
LINE
  8
LAYER_2
 10
-38.6866
 20
156.0609
 11
-38.6866
 21
154.9261
  0
ENDBLK
  0
BLOCK
  8
LAYER_2
  2
AIGNBL0201002B
 70
64
 10
0
 20
0
 30
0
  3
AIGNBL0201002B
  0
LINE
  8
LAYER_2
 10
-33.5268
 20
157.1414
 11
-33.5232
 21
157.1491
  0
ENDBLK
  0
BLOCK
  8
LAYER_2
  2
AIGNBL0201002C
 70
64
 10
0
 20
0
 30
0
  3
AIGNBL0201002C
  0
LINE
  8
LAYER_2
 10
-33.5305
 20
157.1336
 11
-33.5268
 21
157.1414
  0
ENDBLK
  0
BLOCK
  8
LAYER_2
  2
AIGNBL0201002D
 70
64
 10
0
 20
0
 30
0
  3
AIGNBL0201002D
  0
LINE
  8
LAYER_2
 10
-33.5343
 20
157.1256
 11
-33.5305
 21
157.1336
  0
ENDBLK
  0
BLOCK
  8
LAYER_2
  2
AIGNBL0201002E
 70
64
 10
0
 20
0
 30
0
  3
AIGNBL0201002E
  0
LINE
  8
LAYER_2
 10
-33.5382
 20
157.1173
 11
-33.5343
 21
157.1256
  0
ENDBLK
  0
BLOCK
  8
LAYER_2
  2
AIGNBL0201002F
 70
64
 10
0
 20
0
 30
0
  3
AIGNBL0201002F
  0
LINE
  8
LAYER_2
 10
-33.5423
 20
157.1089
 11
-33.5382
 21
157.1173
  0
ENDBLK
  0
BLOCK
  8
LAYER_2
  2
AIGNBL02010030
 70
64
 10
0
 20
0
 30
0
  3
AIGNBL02010030
  0
LINE
  8
LAYER_2
 10
-33.5466
 20
157.1003
 11
-33.5423
 21
157.1089
  0
ENDBLK
  0
BLOCK
  8
LAYER_2
  2
AIGNBL02010031
 70
64
 10
0
 20
0
 30
0
  3
AIGNBL02010031
  0
LINE
  8
LAYER_2
 10
-33.551
 20
157.0915
 11
-33.5466
 21
157.1003
  0
ENDBLK
  0
BLOCK
  8
LAYER_2
  2
AIGNBL02010032
 70
64
 10
0
 20
0
 30
0
  3
AIGNBL02010032
  0
LINE
  8
LAYER_2
 10
-33.5544
 20
157.0848
 11
-33.551
 21
157.0915
  0
ENDBLK
  0
BLOCK
  8
LAYER_2
  2
AIGNBL02010033
 70
64
 10
0
 20
0
 30
0
  3
AIGNBL02010033
  0
LINE
  8
LAYER_2
 10
-33.5578
 20
157.078
 11
-33.5544
 21
157.0848
  0
ENDBLK
  0
BLOCK
  8
LAYER_2
  2
AIGNBL02010034
 70
64
 10
0
 20
0
 30
0
  3
AIGNBL02010034
  0
LINE
  8
LAYER_2
 10
-33.5614
 20
157.0712
 11
-33.5578
 21
157.078
  0
ENDBLK
  0
BLOCK
  8
LAYER_2
  2
AIGNBL02010035
 70
64
 10
0
 20
0
 30
0
  3
AIGNBL02010035
  0
LINE
  8
LAYER_2
 10
-33.565
 20
157.0642
 11
-33.5614
 21
157.0712
  0
ENDBLK
  0
BLOCK
  8
LAYER_2
  2
AIGNBL02010036
 70
64
 10
0
 20
0
 30
0
  3
AIGNBL02010036
  0
LINE
  8
LAYER_2
 10
-33.5687
 20
157.0572
 11
-33.565
 21
157.0642
  0
ENDBLK
  0
BLOCK
  8
LAYER_2
  2
AIGNBL02010037
 70
64
 10
0
 20
0
 30
0
  3
AIGNBL02010037
  0
LINE
  8
LAYER_2
 10
-33.5725
 20
157.0501
 11
-33.5687
 21
157.0572
  0
ENDBLK
  0
BLOCK
  8
LAYER_2
  2
AIGNBL02010038
 70
64
 10
0
 20
0
 30
0
  3
AIGNBL02010038
  0
LINE
  8
LAYER_2
 10
-33.5764
 20
157.0429
 11
-33.5725
 21
157.0501
  0
ENDBLK
  0
BLOCK
  8
LAYER_2
  2
AIGNBL02010039
 70
64
 10
0
 20
0
 30
0
  3
AIGNBL02010039
  0
LINE
  8
LAYER_2
 10
-33.5804
 20
157.0357
 11
-33.5764
 21
157.0429
  0
ENDBLK
  0
BLOCK
  8
LAYER_2
  2
AIGNBL0201003A
 70
64
 10
0
 20
0
 30
0
  3
AIGNBL0201003A
  0
LINE
  8
LAYER_2
 10
-33.5845
 20
157.0283
 11
-33.5804
 21
157.0357
  0
ENDBLK
  0
BLOCK
  8
LAYER_2
  2
AIGNBL0201003B
 70
64
 10
0
 20
0
 30
0
  3
AIGNBL0201003B
  0
LINE
  8
LAYER_2
 10
-33.5887
 20
157.0209
 11
-33.5845
 21
157.0283
  0
ENDBLK
  0
BLOCK
  8
LAYER_2
  2
AIGNBL0201003C
 70
64
 10
0
 20
0
 30
0
  3
AIGNBL0201003C
  0
LINE
  8
LAYER_2
 10
-33.5929
 20
157.0134
 11
-33.5887
 21
157.0209
  0
ENDBLK
  0
BLOCK
  8
LAYER_2
  2
AIGNBL0201003D
 70
64
 10
0
 20
0
 30
0
  3
AIGNBL0201003D
  0
LINE
  8
LAYER_2
 10
-33.5973
 20
157.0058
 11
-33.5929
 21
157.0134
  0
ENDBLK
  0
BLOCK
  8
LAYER_2
  2
AIGNBL0201003E
 70
64
 10
0
 20
0
 30
0
  3
AIGNBL0201003E
  0
LINE
  8
LAYER_2
 10
-33.6018
 20
156.9981
 11
-33.5973
 21
157.0058
  0
ENDBLK
  0
BLOCK
  8
LAYER_2
  2
AIGNBL0201003F
 70
64
 10
0
 20
0
 30
0
  3
AIGNBL0201003F
  0
LINE
  8
LAYER_2
 10
-33.6063
 20
156.9903
 11
-33.6018
 21
156.9981
  0
ENDBLK
  0
BLOCK
  8
LAYER_2
  2
AIGNBL02010040
 70
64
 10
0
 20
0
 30
0
  3
AIGNBL02010040
  0
LINE
  8
LAYER_2
 10
-33.611
 20
156.9825
 11
-33.6063
 21
156.9903
  0
ENDBLK
  0
BLOCK
  8
LAYER_2
  2
AIGNBL02010041
 70
64
 10
0
 20
0
 30
0
  3
AIGNBL02010041
  0
LINE
  8
LAYER_2
 10
-33.6158
 20
156.9745
 11
-33.611
 21
156.9825
  0
ENDBLK
  0
BLOCK
  8
LAYER_2
  2
AIGNBL02010042
 70
64
 10
0
 20
0
 30
0
  3
AIGNBL02010042
  0
LINE
  8
LAYER_2
 10
-33.6208
 20
156.9664
 11
-33.6158
 21
156.9745
  0
ENDBLK
  0
BLOCK
  8
LAYER_2
  2
AIGNBL02010043
 70
64
 10
0
 20
0
 30
0
  3
AIGNBL02010043
  0
LINE
  8
LAYER_2
 10
-33.6258
 20
156.9582
 11
-33.6208
 21
156.9664
  0
ENDBLK
  0
BLOCK
  8
LAYER_2
  2
AIGNBL02010044
 70
64
 10
0
 20
0
 30
0
  3
AIGNBL02010044
  0
LINE
  8
LAYER_2
 10
-33.631
 20
156.95
 11
-33.6258
 21
156.9582
  0
ENDBLK
  0
BLOCK
  8
LAYER_2
  2
AIGNBL02010045
 70
64
 10
0
 20
0
 30
0
  3
AIGNBL02010045
  0
LINE
  8
LAYER_2
 10
-33.6363
 20
156.9416
 11
-33.631
 21
156.95
  0
ENDBLK
  0
BLOCK
  8
LAYER_2
  2
AIGNBL02010046
 70
64
 10
0
 20
0
 30
0
  3
AIGNBL02010046
  0
LINE
  8
LAYER_2
 10
-33.6418
 20
156.9331
 11
-33.6363
 21
156.9416
  0
ENDBLK
  0
BLOCK
  8
LAYER_2
  2
AIGNBL02010047
 70
64
 10
0
 20
0
 30
0
  3
AIGNBL02010047
  0
LINE
  8
LAYER_2
 10
-33.6474
 20
156.9245
 11
-33.6418
 21
156.9331
  0
ENDBLK
  0
BLOCK
  8
LAYER_2
  2
AIGNBL02010048
 70
64
 10
0
 20
0
 30
0
  3
AIGNBL02010048
  0
LINE
  8
LAYER_2
 10
-33.6531
 20
156.9158
 11
-33.6474
 21
156.9245
  0
ENDBLK
  0
BLOCK
  8
LAYER_2
  2
AIGNBL02010049
 70
64
 10
0
 20
0
 30
0
  3
AIGNBL02010049
  0
LINE
  8
LAYER_2
 10
-33.659
 20
156.907
 11
-33.6531
 21
156.9158
  0
ENDBLK
  0
BLOCK
  8
LAYER_2
  2
AIGNBL0201004A
 70
64
 10
0
 20
0
 30
0
  3
AIGNBL0201004A
  0
LINE
  8
LAYER_2
 10
-33.6671
 20
156.895
 11
-33.6651
 21
156.898
  0
LINE
  8
LAYER_2
 10
-33.6651
 20
156.898
 11
-33.659
 21
156.907
  0
ENDBLK
  0
BLOCK
  8
LAYER_2
  2
AIGNBL0201004B
 70
64
 10
0
 20
0
 30
0
  3
AIGNBL0201004B
  0
LINE
  8
LAYER_2
 10
-33.4792
 20
157.2545
 11
-33.4766
 21
157.2613
  0
ENDBLK
  0
BLOCK
  8
LAYER_2
  2
AIGNBL0201004C
 70
64
 10
0
 20
0
 30
0
  3
AIGNBL0201004C
  0
LINE
  8
LAYER_2
 10
-33.4832
 20
157.244
 11
-33.4797
 21
157.2531
  0
ENDBLK
  0
BLOCK
  8
LAYER_2
  2
AIGNBL0201004D
 70
64
 10
0
 20
0
 30
0
  3
AIGNBL0201004D
  0
LINE
  8
LAYER_2
 10
-33.487
 20
157.2344
 11
-33.4832
 21
157.244
  0
ENDBLK
  0
BLOCK
  8
LAYER_2
  2
AIGNBL0201004E
 70
64
 10
0
 20
0
 30
0
  3
AIGNBL0201004E
  0
LINE
  8
LAYER_2
 10
-33.4902
 20
157.2262
 11
-33.487
 21
157.2344
  0
ENDBLK
  0
BLOCK
  8
LAYER_2
  2
AIGNBL0201004F
 70
64
 10
0
 20
0
 30
0
  3
AIGNBL0201004F
  0
LINE
  8
LAYER_2
 10
-33.4938
 20
157.2174
 11
-33.4902
 21
157.2262
  0
ENDBLK
  0
BLOCK
  8
LAYER_2
  2
AIGNBL02010050
 70
64
 10
0
 20
0
 30
0
  3
AIGNBL02010050
  0
LINE
  8
LAYER_2
 10
-33.497
 20
157.2094
 11
-33.4938
 21
157.2174
  0
ENDBLK
  0
BLOCK
  8
LAYER_2
  2
AIGNBL02010051
 70
64
 10
0
 20
0
 30
0
  3
AIGNBL02010051
  0
LINE
  8
LAYER_2
 10
-33.5001
 20
157.2019
 11
-33.497
 21
157.2094
  0
ENDBLK
  0
BLOCK
  8
LAYER_2
  2
AIGNBL02010052
 70
64
 10
0
 20
0
 30
0
  3
AIGNBL02010052
  0
LINE
  8
LAYER_2
 10
-33.5032
 20
157.1946
 11
-33.5001
 21
157.2019
  0
ENDBLK
  0
BLOCK
  8
LAYER_2
  2
AIGNBL02010053
 70
64
 10
0
 20
0
 30
0
  3
AIGNBL02010053
  0
LINE
  8
LAYER_2
 10
-33.5062
 20
157.1875
 11
-33.5032
 21
157.1946
  0
ENDBLK
  0
BLOCK
  8
LAYER_2
  2
AIGNBL02010054
 70
64
 10
0
 20
0
 30
0
  3
AIGNBL02010054
  0
LINE
  8
LAYER_2
 10
-33.5093
 20
157.1804
 11
-33.5062
 21
157.1875
  0
ENDBLK
  0
BLOCK
  8
LAYER_2
  2
AIGNBL02010055
 70
64
 10
0
 20
0
 30
0
  3
AIGNBL02010055
  0
LINE
  8
LAYER_2
 10
-33.5124
 20
157.1732
 11
-33.5093
 21
157.1804
  0
ENDBLK
  0
BLOCK
  8
LAYER_2
  2
AIGNBL02010056
 70
64
 10
0
 20
0
 30
0
  3
AIGNBL02010056
  0
LINE
  8
LAYER_2
 10
-33.5156
 20
157.166
 11
-33.5124
 21
157.1732
  0
ENDBLK
  0
BLOCK
  8
LAYER_2
  2
AIGNBL02010057
 70
64
 10
0
 20
0
 30
0
  3
AIGNBL02010057
  0
LINE
  8
LAYER_2
 10
-33.519
 20
157.1586
 11
-33.5156
 21
157.166
  0
ENDBLK
  0
BLOCK
  8
LAYER_2
  2
AIGNBL02010058
 70
64
 10
0
 20
0
 30
0
  3
AIGNBL02010058
  0
LINE
  8
LAYER_2
 10
-33.5232
 20
157.1491
 11
-33.5224
 21
157.151
  0
LINE
  8
LAYER_2
 10
-33.5224
 20
157.151
 11
-33.519
 21
157.1586
  0
ENDBLK
  0
BLOCK
  8
LAYER_2
  2
AIGNBL02010059
 70
64
 10
0
 20
0
 30
0
  3
AIGNBL02010059
  0
LINE
  8
LAYER_2
 10
-33.4099
 20
157.4662
 11
-33.4081
 21
157.4744
  0
ENDBLK
  0
BLOCK
  8
LAYER_2
  2
AIGNBL0201005A
 70
64
 10
0
 20
0
 30
0
  3
AIGNBL0201005A
  0
LINE
  8
LAYER_2
 10
-39.0704
 20
157.088
 11
-39.0666
 21
157.0806
  0
ENDBLK
  0
BLOCK
  8
LAYER_2
  2
AIGNBL0201005B
 70
64
 10
0
 20
0
 30
0
  3
AIGNBL0201005B
  0
LINE
  8
LAYER_2
 10
-39.0741
 20
157.0953
 11
-39.0704
 21
157.088
  0
ENDBLK
  0
BLOCK
  8
LAYER_2
  2
AIGNBL0201005C
 70
64
 10
0
 20
0
 30
0
  3
AIGNBL0201005C
  0
LINE
  8
LAYER_2
 10
-39.0777
 20
157.1027
 11
-39.0741
 21
157.0953
  0
ENDBLK
  0
BLOCK
  8
LAYER_2
  2
AIGNBL0201005D
 70
64
 10
0
 20
0
 30
0
  3
AIGNBL0201005D
  0
LINE
  8
LAYER_2
 10
-39.0813
 20
157.11
 11
-39.0777
 21
157.1027
  0
ENDBLK
  0
BLOCK
  8
LAYER_2
  2
AIGNBL0201005E
 70
64
 10
0
 20
0
 30
0
  3
AIGNBL0201005E
  0
LINE
  8
LAYER_2
 10
-39.0849
 20
157.1173
 11
-39.0813
 21
157.11
  0
ENDBLK
  0
BLOCK
  8
LAYER_2
  2
AIGNBL0201005F
 70
64
 10
0
 20
0
 30
0
  3
AIGNBL0201005F
  0
LINE
  8
LAYER_2
 10
-39.0884
 20
157.1246
 11
-39.0849
 21
157.1173
  0
ENDBLK
  0
BLOCK
  8
LAYER_2
  2
AIGNBL02010060
 70
64
 10
0
 20
0
 30
0
  3
AIGNBL02010060
  0
LINE
  8
LAYER_2
 10
-39.0919
 20
157.1319
 11
-39.0884
 21
157.1246
  0
ENDBLK
  0
BLOCK
  8
LAYER_2
  2
AIGNBL02010061
 70
64
 10
0
 20
0
 30
0
  3
AIGNBL02010061
  0
LINE
  8
LAYER_2
 10
-39.0953
 20
157.1393
 11
-39.0919
 21
157.1319
  0
ENDBLK
  0
BLOCK
  8
LAYER_2
  2
AIGNBL02010062
 70
64
 10
0
 20
0
 30
0
  3
AIGNBL02010062
  0
LINE
  8
LAYER_2
 10
-39.0987
 20
157.1466
 11
-39.0953
 21
157.1393
  0
ENDBLK
  0
BLOCK
  8
LAYER_2
  2
AIGNBL02010063
 70
64
 10
0
 20
0
 30
0
  3
AIGNBL02010063
  0
LINE
  8
LAYER_2
 10
-39.1021
 20
157.1541
 11
-39.0987
 21
157.1466
  0
ENDBLK
  0
BLOCK
  8
LAYER_2
  2
AIGNBL02010064
 70
64
 10
0
 20
0
 30
0
  3
AIGNBL02010064
  0
LINE
  8
LAYER_2
 10
-39.1055
 20
157.1615
 11
-39.1021
 21
157.1541
  0
ENDBLK
  0
BLOCK
  8
LAYER_2
  2
AIGNBL02010065
 70
64
 10
0
 20
0
 30
0
  3
AIGNBL02010065
  0
LINE
  8
LAYER_2
 10
-39.1089
 20
157.1691
 11
-39.1055
 21
157.1615
  0
ENDBLK
  0
BLOCK
  8
LAYER_2
  2
AIGNBL02010066
 70
64
 10
0
 20
0
 30
0
  3
AIGNBL02010066
  0
LINE
  8
LAYER_2
 10
-39.1122
 20
157.1767
 11
-39.1089
 21
157.1691
  0
ENDBLK
  0
BLOCK
  8
LAYER_2
  2
AIGNBL02010067
 70
64
 10
0
 20
0
 30
0
  3
AIGNBL02010067
  0
LINE
  8
LAYER_2
 10
-39.1156
 20
157.1844
 11
-39.1122
 21
157.1767
  0
ENDBLK
  0
BLOCK
  8
LAYER_2
  2
AIGNBL02010068
 70
64
 10
0
 20
0
 30
0
  3
AIGNBL02010068
  0
LINE
  8
LAYER_2
 10
-39.1189
 20
157.1922
 11
-39.1156
 21
157.1844
  0
ENDBLK
  0
BLOCK
  8
LAYER_2
  2
AIGNBL02010069
 70
64
 10
0
 20
0
 30
0
  3
AIGNBL02010069
  0
LINE
  8
LAYER_2
 10
-39.1222
 20
157.2001
 11
-39.1189
 21
157.1922
  0
ENDBLK
  0
BLOCK
  8
LAYER_2
  2
AIGNBL0201006A
 70
64
 10
0
 20
0
 30
0
  3
AIGNBL0201006A
  0
LINE
  8
LAYER_2
 10
-39.1256
 20
157.2081
 11
-39.1222
 21
157.2001
  0
ENDBLK
  0
BLOCK
  8
LAYER_2
  2
AIGNBL0201006B
 70
64
 10
0
 20
0
 30
0
  3
AIGNBL0201006B
  0
LINE
  8
LAYER_2
 10
-39.129
 20
157.2166
 11
-39.1256
 21
157.2081
  0
ENDBLK
  0
BLOCK
  8
LAYER_2
  2
AIGNBL0201006C
 70
64
 10
0
 20
0
 30
0
  3
AIGNBL0201006C
  0
LINE
  8
LAYER_2
 10
-39.1328
 20
157.2259
 11
-39.129
 21
157.2166
  0
ENDBLK
  0
BLOCK
  8
LAYER_2
  2
AIGNBL0201006D
 70
64
 10
0
 20
0
 30
0
  3
AIGNBL0201006D
  0
LINE
  8
LAYER_2
 10
-39.1359
 20
157.2337
 11
-39.1328
 21
157.2259
  0
ENDBLK
  0
BLOCK
  8
LAYER_2
  2
AIGNBL0201006E
 70
64
 10
0
 20
0
 30
0
  3
AIGNBL0201006E
  0
LINE
  8
LAYER_2
 10
-39.1398
 20
157.2437
 11
-39.1359
 21
157.2337
  0
ENDBLK
  0
BLOCK
  8
LAYER_2
  2
AIGNBL0201006F
 70
64
 10
0
 20
0
 30
0
  3
AIGNBL0201006F
  0
LINE
  8
LAYER_2
 10
-39.1436
 20
157.2536
 11
-39.1398
 21
157.2437
  0
ENDBLK
  0
BLOCK
  8
LAYER_2
  2
AIGNBL02010070
 70
64
 10
0
 20
0
 30
0
  3
AIGNBL02010070
  0
LINE
  8
LAYER_2
 10
-39.1475
 20
157.2638
 11
-39.1436
 21
157.2536
  0
ENDBLK
  0
BLOCK
  8
LAYER_2
  2
AIGNBL02010071
 70
64
 10
0
 20
0
 30
0
  3
AIGNBL02010071
  0
LINE
  8
LAYER_2
 10
-33.9366
 20
154.9261
 11
-33.9366
 21
156.0609
  0
ENDBLK
  0
BLOCK
  8
LAYER_2
  2
AIGNBL02010072
 70
64
 10
0
 20
0
 30
0
  3
AIGNBL02010072
  0
LINE
  8
LAYER_2
 10
-33.8278
 20
156.6952
 11
-33.8278
 21
155.9712
  0
ENDBLK
  0
BLOCK
  8
LAYER_2
  2
AIGNBL02010073
 70
64
 10
0
 20
0
 30
0
  3
AIGNBL02010073
  0
LINE
  8
LAYER_2
 10
-38.9136
 20
156.8359
 11
-38.9069
 21
156.8271
  0
ENDBLK
  0
BLOCK
  8
LAYER_2
  2
AIGNBL02010074
 70
64
 10
0
 20
0
 30
0
  3
AIGNBL02010074
  0
LINE
  8
LAYER_2
 10
-38.9201
 20
156.8447
 11
-38.9136
 21
156.8359
  0
ENDBLK
  0
BLOCK
  8
LAYER_2
  2
AIGNBL02010075
 70
64
 10
0
 20
0
 30
0
  3
AIGNBL02010075
  0
LINE
  8
LAYER_2
 10
-38.9265
 20
156.8533
 11
-38.9201
 21
156.8447
  0
ENDBLK
  0
BLOCK
  8
LAYER_2
  2
AIGNBL02010076
 70
64
 10
0
 20
0
 30
0
  3
AIGNBL02010076
  0
LINE
  8
LAYER_2
 10
-38.9327
 20
156.8619
 11
-38.9265
 21
156.8533
  0
ENDBLK
  0
BLOCK
  8
LAYER_2
  2
AIGNBL02010077
 70
64
 10
0
 20
0
 30
0
  3
AIGNBL02010077
  0
LINE
  8
LAYER_2
 10
-38.9387
 20
156.8703
 11
-38.9327
 21
156.8619
  0
ENDBLK
  0
BLOCK
  8
LAYER_2
  2
AIGNBL02010078
 70
64
 10
0
 20
0
 30
0
  3
AIGNBL02010078
  0
LINE
  8
LAYER_2
 10
-38.9446
 20
156.8787
 11
-38.9387
 21
156.8703
  0
ENDBLK
  0
BLOCK
  8
LAYER_2
  2
AIGNBL02010079
 70
64
 10
0
 20
0
 30
0
  3
AIGNBL02010079
  0
LINE
  8
LAYER_2
 10
-38.9503
 20
156.8869
 11
-38.9446
 21
156.8787
  0
ENDBLK
  0
BLOCK
  8
LAYER_2
  2
AIGNBL0201007A
 70
64
 10
0
 20
0
 30
0
  3
AIGNBL0201007A
  0
LINE
  8
LAYER_2
 10
-38.9559
 20
156.8949
 11
-38.9503
 21
156.8869
  0
ENDBLK
  0
BLOCK
  8
LAYER_2
  2
AIGNBL0201007B
 70
64
 10
0
 20
0
 30
0
  3
AIGNBL0201007B
  0
LINE
  8
LAYER_2
 10
-38.9612
 20
156.9028
 11
-38.9559
 21
156.8949
  0
ENDBLK
  0
BLOCK
  8
LAYER_2
  2
AIGNBL0201007C
 70
64
 10
0
 20
0
 30
0
  3
AIGNBL0201007C
  0
LINE
  8
LAYER_2
 10
-38.9664
 20
156.9104
 11
-38.9612
 21
156.9028
  0
ENDBLK
  0
BLOCK
  8
LAYER_2
  2
AIGNBL0201007D
 70
64
 10
0
 20
0
 30
0
  3
AIGNBL0201007D
  0
LINE
  8
LAYER_2
 10
-38.9714
 20
156.9179
 11
-38.9664
 21
156.9104
  0
ENDBLK
  0
BLOCK
  8
LAYER_2
  2
AIGNBL0201007E
 70
64
 10
0
 20
0
 30
0
  3
AIGNBL0201007E
  0
LINE
  8
LAYER_2
 10
-38.9761
 20
156.9251
 11
-38.9714
 21
156.9179
  0
ENDBLK
  0
BLOCK
  8
LAYER_2
  2
AIGNBL0201007F
 70
64
 10
0
 20
0
 30
0
  3
AIGNBL0201007F
  0
LINE
  8
LAYER_2
 10
-38.9807
 20
156.9321
 11
-38.9761
 21
156.9251
  0
ENDBLK
  0
BLOCK
  8
LAYER_2
  2
AIGNBL02010080
 70
64
 10
0
 20
0
 30
0
  3
AIGNBL02010080
  0
LINE
  8
LAYER_2
 10
-38.9851
 20
156.9389
 11
-38.9807
 21
156.9321
  0
ENDBLK
  0
BLOCK
  8
LAYER_2
  2
AIGNBL02010081
 70
64
 10
0
 20
0
 30
0
  3
AIGNBL02010081
  0
LINE
  8
LAYER_2
 10
-38.9893
 20
156.9456
 11
-38.9851
 21
156.9389
  0
ENDBLK
  0
BLOCK
  8
LAYER_2
  2
AIGNBL02010082
 70
64
 10
0
 20
0
 30
0
  3
AIGNBL02010082
  0
LINE
  8
LAYER_2
 10
-38.9935
 20
156.9521
 11
-38.9893
 21
156.9456
  0
ENDBLK
  0
BLOCK
  8
LAYER_2
  2
AIGNBL02010083
 70
64
 10
0
 20
0
 30
0
  3
AIGNBL02010083
  0
LINE
  8
LAYER_2
 10
-38.9975
 20
156.9586
 11
-38.9935
 21
156.9521
  0
ENDBLK
  0
BLOCK
  8
LAYER_2
  2
AIGNBL02010084
 70
64
 10
0
 20
0
 30
0
  3
AIGNBL02010084
  0
LINE
  8
LAYER_2
 10
-39.0014
 20
156.9649
 11
-38.9975
 21
156.9586
  0
ENDBLK
  0
BLOCK
  8
LAYER_2
  2
AIGNBL02010085
 70
64
 10
0
 20
0
 30
0
  3
AIGNBL02010085
  0
LINE
  8
LAYER_2
 10
-39.0065
 20
156.9733
 11
-39.0014
 21
156.9649
  0
ENDBLK
  0
BLOCK
  8
LAYER_2
  2
AIGNBL02010086
 70
64
 10
0
 20
0
 30
0
  3
AIGNBL02010086
  0
LINE
  8
LAYER_2
 10
-39.0115
 20
156.9815
 11
-39.0065
 21
156.9733
  0
ENDBLK
  0
BLOCK
  8
LAYER_2
  2
AIGNBL02010087
 70
64
 10
0
 20
0
 30
0
  3
AIGNBL02010087
  0
LINE
  8
LAYER_2
 10
-39.0163
 20
156.9896
 11
-39.0115
 21
156.9815
  0
ENDBLK
  0
BLOCK
  8
LAYER_2
  2
AIGNBL02010088
 70
64
 10
0
 20
0
 30
0
  3
AIGNBL02010088
  0
LINE
  8
LAYER_2
 10
-39.021
 20
156.9976
 11
-39.0163
 21
156.9896
  0
ENDBLK
  0
BLOCK
  8
LAYER_2
  2
AIGNBL02010089
 70
64
 10
0
 20
0
 30
0
  3
AIGNBL02010089
  0
LINE
  8
LAYER_2
 10
-39.0256
 20
157.0054
 11
-39.021
 21
156.9976
  0
ENDBLK
  0
BLOCK
  8
LAYER_2
  2
AIGNBL0201008A
 70
64
 10
0
 20
0
 30
0
  3
AIGNBL0201008A
  0
LINE
  8
LAYER_2
 10
-39.0301
 20
157.0132
 11
-39.0256
 21
157.0054
  0
ENDBLK
  0
BLOCK
  8
LAYER_2
  2
AIGNBL0201008B
 70
64
 10
0
 20
0
 30
0
  3
AIGNBL0201008B
  0
LINE
  8
LAYER_2
 10
-39.0344
 20
157.0209
 11
-39.0301
 21
157.0132
  0
ENDBLK
  0
BLOCK
  8
LAYER_2
  2
AIGNBL0201008C
 70
64
 10
0
 20
0
 30
0
  3
AIGNBL0201008C
  0
LINE
  8
LAYER_2
 10
-39.0387
 20
157.0285
 11
-39.0344
 21
157.0209
  0
ENDBLK
  0
BLOCK
  8
LAYER_2
  2
AIGNBL0201008D
 70
64
 10
0
 20
0
 30
0
  3
AIGNBL0201008D
  0
LINE
  8
LAYER_2
 10
-39.0429
 20
157.0361
 11
-39.0387
 21
157.0285
  0
ENDBLK
  0
BLOCK
  8
LAYER_2
  2
AIGNBL0201008E
 70
64
 10
0
 20
0
 30
0
  3
AIGNBL0201008E
  0
LINE
  8
LAYER_2
 10
-39.047
 20
157.0436
 11
-39.0429
 21
157.0361
  0
ENDBLK
  0
BLOCK
  8
LAYER_2
  2
AIGNBL0201008F
 70
64
 10
0
 20
0
 30
0
  3
AIGNBL0201008F
  0
LINE
  8
LAYER_2
 10
-39.0511
 20
157.051
 11
-39.047
 21
157.0436
  0
ENDBLK
  0
BLOCK
  8
LAYER_2
  2
AIGNBL02010090
 70
64
 10
0
 20
0
 30
0
  3
AIGNBL02010090
  0
LINE
  8
LAYER_2
 10
-39.055
 20
157.0585
 11
-39.0511
 21
157.051
  0
ENDBLK
  0
BLOCK
  8
LAYER_2
  2
AIGNBL02010091
 70
64
 10
0
 20
0
 30
0
  3
AIGNBL02010091
  0
LINE
  8
LAYER_2
 10
-39.059
 20
157.0659
 11
-39.055
 21
157.0585
  0
ENDBLK
  0
BLOCK
  8
LAYER_2
  2
AIGNBL02010092
 70
64
 10
0
 20
0
 30
0
  3
AIGNBL02010092
  0
LINE
  8
LAYER_2
 10
-39.0628
 20
157.0733
 11
-39.059
 21
157.0659
  0
ENDBLK
  0
BLOCK
  8
LAYER_2
  2
AIGNBL02010093
 70
64
 10
0
 20
0
 30
0
  3
AIGNBL02010093
  0
LINE
  8
LAYER_2
 10
-39.0666
 20
157.0806
 11
-39.0628
 21
157.0733
  0
ENDBLK
  0
BLOCK
  8
LAYER_2
  2
AIGNBL02010094
 70
64
 10
0
 20
0
 30
0
  3
AIGNBL02010094
  0
LINE
  8
LAYER_2
 10
-38.6866
 20
154.9261
 11
-38.6209
 21
154.8871
  0
ENDBLK
  0
BLOCK
  8
LAYER_2
  2
AIGNBL02010095
 70
64
 10
0
 20
0
 30
0
  3
AIGNBL02010095
  0
LINE
  8
LAYER_2
 10
-38.9166
 20
156.7491
 11
-38.9136
 21
156.7464
  0
ENDBLK
  0
BLOCK
  8
LAYER_2
  2
AIGNBL02010096
 70
64
 10
0
 20
0
 30
0
  3
AIGNBL02010096
  0
LINE
  8
LAYER_2
 10
-38.9166
 20
156.7491
 11
-38.9137
 21
156.7463
  0
ENDBLK
  0
BLOCK
  8
LAYER_2
  2
AIGNBL02010097
 70
64
 10
0
 20
0
 30
0
  3
AIGNBL02010097
  0
LINE
  8
LAYER_2
 10
-38.8345
 20
156.7379
 11
-38.8286
 21
156.731
  0
ENDBLK
  0
BLOCK
  8
LAYER_2
  2
AIGNBL02010098
 70
64
 10
0
 20
0
 30
0
  3
AIGNBL02010098
  0
LINE
  8
LAYER_2
 10
-38.8404
 20
156.7447
 11
-38.8345
 21
156.7379
  0
ENDBLK
  0
BLOCK
  8
LAYER_2
  2
AIGNBL02010099
 70
64
 10
0
 20
0
 30
0
  3
AIGNBL02010099
  0
LINE
  8
LAYER_2
 10
-38.8461
 20
156.7514
 11
-38.8404
 21
156.7447
  0
ENDBLK
  0
BLOCK
  8
LAYER_2
  2
AIGNBL0201009A
 70
64
 10
0
 20
0
 30
0
  3
AIGNBL0201009A
  0
LINE
  8
LAYER_2
 10
-38.8518
 20
156.7581
 11
-38.8461
 21
156.7514
  0
ENDBLK
  0
BLOCK
  8
LAYER_2
  2
AIGNBL0201009B
 70
64
 10
0
 20
0
 30
0
  3
AIGNBL0201009B
  0
LINE
  8
LAYER_2
 10
-38.8573
 20
156.7647
 11
-38.8518
 21
156.7581
  0
ENDBLK
  0
BLOCK
  8
LAYER_2
  2
AIGNBL0201009C
 70
64
 10
0
 20
0
 30
0
  3
AIGNBL0201009C
  0
LINE
  8
LAYER_2
 10
-38.8627
 20
156.7712
 11
-38.8573
 21
156.7647
  0
ENDBLK
  0
BLOCK
  8
LAYER_2
  2
AIGNBL0201009D
 70
64
 10
0
 20
0
 30
0
  3
AIGNBL0201009D
  0
LINE
  8
LAYER_2
 10
-38.868
 20
156.7776
 11
-38.8627
 21
156.7712
  0
ENDBLK
  0
BLOCK
  8
LAYER_2
  2
AIGNBL0201009E
 70
64
 10
0
 20
0
 30
0
  3
AIGNBL0201009E
  0
LINE
  8
LAYER_2
 10
-38.8732
 20
156.784
 11
-38.868
 21
156.7776
  0
ENDBLK
  0
BLOCK
  8
LAYER_2
  2
AIGNBL0201009F
 70
64
 10
0
 20
0
 30
0
  3
AIGNBL0201009F
  0
LINE
  8
LAYER_2
 10
-38.8783
 20
156.7904
 11
-38.8732
 21
156.784
  0
ENDBLK
  0
BLOCK
  8
LAYER_2
  2
AIGNBL020100A0
 70
64
 10
0
 20
0
 30
0
  3
AIGNBL020100A0
  0
LINE
  8
LAYER_2
 10
-38.8833
 20
156.7966
 11
-38.8783
 21
156.7904
  0
ENDBLK
  0
BLOCK
  8
LAYER_2
  2
AIGNBL020100A1
 70
64
 10
0
 20
0
 30
0
  3
AIGNBL020100A1
  0
LINE
  8
LAYER_2
 10
-38.8882
 20
156.8028
 11
-38.8833
 21
156.7966
  0
ENDBLK
  0
BLOCK
  8
LAYER_2
  2
AIGNBL020100A2
 70
64
 10
0
 20
0
 30
0
  3
AIGNBL020100A2
  0
LINE
  8
LAYER_2
 10
-38.893
 20
156.809
 11
-38.8882
 21
156.8028
  0
ENDBLK
  0
BLOCK
  8
LAYER_2
  2
AIGNBL020100A3
 70
64
 10
0
 20
0
 30
0
  3
AIGNBL020100A3
  0
LINE
  8
LAYER_2
 10
-38.8977
 20
156.8151
 11
-38.893
 21
156.809
  0
ENDBLK
  0
BLOCK
  8
LAYER_2
  2
AIGNBL020100A4
 70
64
 10
0
 20
0
 30
0
  3
AIGNBL020100A4
  0
LINE
  8
LAYER_2
 10
-38.9069
 20
156.8271
 11
-38.9047
 21
156.8241
  0
LINE
  8
LAYER_2
 10
-38.9047
 20
156.8241
 11
-38.8977
 21
156.8151
  0
ENDBLK
  0
BLOCK
  8
LAYER_2
  2
AIGNBL020100A5
 70
64
 10
0
 20
0
 30
0
  3
AIGNBL020100A5
  0
LINE
  8
LAYER_2
 10
-38.4616
 20
154.8035
 11
-38.6209
 21
154.8871
  0
ENDBLK
  0
BLOCK
  8
LAYER_2
  2
AIGNBL020100A6
 70
64
 10
0
 20
0
 30
0
  3
AIGNBL020100A6
  0
LINE
  8
LAYER_2
 10
-38.8579
 20
156.7654
 11
-38.858
 21
156.7655
  0
ENDBLK
  0
BLOCK
  8
LAYER_2
  2
AIGNBL020100A7
 70
64
 10
0
 20
0
 30
0
  3
AIGNBL020100A7
  0
LINE
  8
LAYER_2
 10
-39.4325
 20
157.6908
 11
-39.4322
 21
157.6908
  0
ENDBLK
  0
BLOCK
  8
LAYER_2
  2
AIGNBL020100A8
 70
64
 10
0
 20
0
 30
0
  3
AIGNBL020100A8
  0
LINE
  8
LAYER_2
 10
-39.4312
 20
157.6908
 11
-39.431
 21
157.6908
  0
ENDBLK
  0
BLOCK
  8
LAYER_2
  2
AIGNBL020100A9
 70
64
 10
0
 20
0
 30
0
  3
AIGNBL020100A9
  0
LINE
  8
LAYER_2
 10
-39.4308
 20
157.6908
 11
-39.4307
 21
157.6908
  0
LINE
  8
LAYER_2
 10
-39.4307
 20
157.6908
 11
-39.4305
 21
157.6908
  0
ENDBLK
  0
BLOCK
  8
LAYER_2
  2
AIGNBL020100AA
 70
64
 10
0
 20
0
 30
0
  3
AIGNBL020100AA
  0
LINE
  8
LAYER_2
 10
-34.2685
 20
161.543
 11
-34.2931
 21
161.5453
  0
ENDBLK
  0
BLOCK
  8
LAYER_2
  2
AIGNBL020100AB
 70
64
 10
0
 20
0
 30
0
  3
AIGNBL020100AB
  0
ARC
  8
LAYER_2
 10
-36.3115
 20
139.5916
 40
22.0463
 50
84.74714367
 51
95.31774713
  0
ENDBLK
  0
BLOCK
  8
LAYER_2
  2
AIGNBL020100AC
 70
64
 10
0
 20
0
 30
0
  3
AIGNBL020100AC
  0
ARC
  8
LAYER_2
 10
-36.3124
 20
139.702
 40
22.0073
 50
84.10955112
 51
89.99781465
  0
ENDBLK
  0
BLOCK
  8
LAYER_2
  2
AIGNBL020100AD
 70
64
 10
0
 20
0
 30
0
  3
AIGNBL020100AD
  0
LINE
  8
LAYER_2
 10
-38.8309
 20
155.8737
 11
-38.8443
 21
156.0705
  0
ENDBLK
  0
BLOCK
  8
LAYER_2
  2
AIGNBL020100AE
 70
64
 10
0
 20
0
 30
0
  3
AIGNBL020100AE
  0
LINE
  8
LAYER_2
 10
-33.3954
 20
157.5591
 11
-33.3866
 21
157.6061
  0
ENDBLK
  0
BLOCK
  8
LAYER_2
  2
AIGNBL020100AF
 70
64
 10
0
 20
0
 30
0
  3
AIGNBL020100AF
  0
LINE
  8
LAYER_2
 10
-39.2324
 20
157.584
 11
-39.2277
 21
157.5591
  0
ENDBLK
  0
BLOCK
  8
LAYER_2
  2
AIGNBL020100B0
 70
64
 10
0
 20
0
 30
0
  3
AIGNBL020100B0
  0
LINE
  8
LAYER_2
 10
-39.2465
 20
157.6695
 11
-39.2378
 21
157.6138
  0
ENDBLK
  0
BLOCK
  8
LAYER_2
  2
AIGNBL020100B1
 70
64
 10
0
 20
0
 30
0
  3
AIGNBL020100B1
  0
LINE
  8
LAYER_2
 10
-39.2378
 20
157.6138
 11
-39.2365
 21
157.6061
  0
ENDBLK
  0
BLOCK
  8
LAYER_2
  2
AIGNBL020100B2
 70
64
 10
0
 20
0
 30
0
  3
AIGNBL020100B2
  0
ARC
  8
LAYER_2
 10
-37.9447
 20
157.8959
 40
1.4999
 50
187.8611797
 51
224.7615015
  0
ENDBLK
  0
BLOCK
  8
LAYER_2
  2
AIGNBL020100B3
 70
64
 10
0
 20
0
 30
0
  3
AIGNBL020100B3
  0
LINE
  8
LAYER_2
 10
-39.2365
 20
157.6061
 11
-39.2132
 21
157.4662
  0
ENDBLK
  0
BLOCK
  8
LAYER_2
  2
AIGNBL020100B4
 70
64
 10
0
 20
0
 30
0
  3
AIGNBL020100B4
  0
LINE
  8
LAYER_2
 10
-39.0963
 20
157.1325
 11
-39.0722
 21
157.0915
  0
ENDBLK
  0
BLOCK
  8
LAYER_2
  2
AIGNBL020100B5
 70
64
 10
0
 20
0
 30
0
  3
AIGNBL020100B5
  0
LINE
  8
LAYER_2
 10
-39.2132
 20
157.4662
 11
-39.114
 21
157.1694
  0
ENDBLK
  0
BLOCK
  8
LAYER_2
  2
AIGNBL020100B6
 70
64
 10
0
 20
0
 30
0
  3
AIGNBL020100B6
  0
LINE
  8
LAYER_2
 10
-39.114
 20
157.1694
 11
-39.0963
 21
157.1325
  0
ENDBLK
  0
BLOCK
  8
LAYER_2
  2
AIGNBL020100B7
 70
64
 10
0
 20
0
 30
0
  3
AIGNBL020100B7
  0
LINE
  8
LAYER_2
 10
-39.0963
 20
157.1325
 11
-39.0439
 21
157.0367
  0
ENDBLK
  0
BLOCK
  8
LAYER_2
  2
AIGNBL020100B8
 70
64
 10
0
 20
0
 30
0
  3
AIGNBL020100B8
  0
LINE
  8
LAYER_2
 10
-38.9894
 20
157.6739
 11
-38.9811
 21
157.6189
  0
ENDBLK
  0
BLOCK
  8
LAYER_2
  2
AIGNBL020100B9
 70
64
 10
0
 20
0
 30
0
  3
AIGNBL020100B9
  0
ARC
  8
LAYER_2
 10
-44.918
 20
159.2326
 40
11.6467
 50
352.3736403
 51
7.0365214
  0
ENDBLK
  0
BLOCK
  8
LAYER_2
  2
AIGNBL020100BA
 70
64
 10
0
 20
0
 30
0
  3
AIGNBL020100BA
  0
ARC
  8
LAYER_2
 10
-44.6763
 20
159.2771
 40
11.5927
 50
352.1353148
 51
7.224767917
  0
ENDBLK
  0
BLOCK
  8
LAYER_2
  2
AIGNBL020100BB
 70
64
 10
0
 20
0
 30
0
  3
AIGNBL020100BB
  0
ARC
  8
LAYER_2
 10
-44.8256
 20
159.2341
 40
11.2999
 50
352.1600111
 51
7.233035431
  0
ENDBLK
  0
BLOCK
  8
LAYER_2
  2
AIGNBL020100BC
 70
64
 10
0
 20
0
 30
0
  3
AIGNBL020100BC
  0
LINE
  8
LAYER_2
 10
-33.8087
 20
156.6563
 11
-33.7094
 21
156.7463
  0
ENDBLK
  0
BLOCK
  8
LAYER_2
  2
AIGNBL020100BD
 70
64
 10
0
 20
0
 30
0
  3
AIGNBL020100BD
  0
LINE
  8
LAYER_2
 10
-33.7065
 20
156.7491
 11
-33.6134
 21
156.8398
  0
ENDBLK
  0
BLOCK
  8
LAYER_2
  2
AIGNBL020100BE
 70
64
 10
0
 20
0
 30
0
  3
AIGNBL020100BE
  0
LINE
  8
LAYER_2
 10
-38.8144
 20
156.6563
 11
-38.7956
 21
156.6399
  0
ENDBLK
  0
BLOCK
  8
LAYER_2
  2
AIGNBL020100BF
 70
64
 10
0
 20
0
 30
0
  3
AIGNBL020100BF
  0
LINE
  8
LAYER_2
 10
-39.2567
 20
160.7142
 11
-39.2614
 21
160.6814
  0
ENDBLK
  0
BLOCK
  8
LAYER_2
  2
AIGNBL020100C0
 70
64
 10
0
 20
0
 30
0
  3
AIGNBL020100C0
  0
ARC
  8
LAYER_2
 10
-38.4679
 20
160.6108
 40
0.9875
 50
95.88972839
 51
172.7772578
  0
ENDBLK
  0
BLOCK
  8
LAYER_2
  2
AIGNBL020100C1
 70
64
 10
0
 20
0
 30
0
  3
AIGNBL020100C1
  0
ARC
  8
LAYER_2
 10
-38.2822
 20
160.5585
 40
0.9869
 50
95.36330581
 51
170.9237579
  0
ENDBLK
  0
BLOCK
  8
LAYER_2
  2
AIGNBL020100C2
 70
64
 10
0
 20
0
 30
0
  3
AIGNBL020100C2
  0
ARC
  8
LAYER_2
 10
-36.3107
 20
139.702
 40
22.0073
 50
90.00244568
 51
95.89044906
  0
ENDBLK
  0
BLOCK
  8
LAYER_2
  2
AIGNBL020100C3
 70
64
 10
0
 20
0
 30
0
  3
AIGNBL020100C3
  0
ARC
  8
LAYER_2
 10
-36.3116
 20
140.2609
 40
21.144
 50
84.4499442
 51
95.55005578
  0
ENDBLK
  0
BLOCK
  8
LAYER_2
  2
AIGNBL020100C4
 70
64
 10
0
 20
0
 30
0
  3
AIGNBL020100C4
  0
LINE
  8
LAYER_2
 10
-39.2365
 20
157.6061
 11
-39.2324
 21
157.584
  0
ENDBLK
  0
BLOCK
  8
LAYER_2
  2
AIGNBL020100C5
 70
64
 10
0
 20
0
 30
0
  3
AIGNBL020100C5
  0
LINE
  8
LAYER_2
 10
-33.3853
 20
157.6138
 11
-33.3767
 21
157.6695
  0
ENDBLK
  0
BLOCK
  8
LAYER_2
  2
AIGNBL020100C6
 70
64
 10
0
 20
0
 30
0
  3
AIGNBL020100C6
  0
LINE
  8
LAYER_2
 10
-33.3866
 20
157.6061
 11
-33.3853
 21
157.6138
  0
ENDBLK
  0
BLOCK
  8
LAYER_2
  2
AIGNBL020100C7
 70
64
 10
0
 20
0
 30
0
  3
AIGNBL020100C7
  0
ARC
  8
LAYER_2
 10
-34.6784
 20
157.8959
 40
1.4999
 50
315.2387091
 51
352.1386097
  0
ENDBLK
  0
BLOCK
  8
LAYER_2
  2
AIGNBL020100C8
 70
64
 10
0
 20
0
 30
0
  3
AIGNBL020100C8
  0
LINE
  8
LAYER_2
 10
-33.4081
 20
157.4744
 11
-33.3866
 21
157.6061
  0
ENDBLK
  0
BLOCK
  8
LAYER_2
  2
AIGNBL020100C9
 70
64
 10
0
 20
0
 30
0
  3
AIGNBL020100C9
  0
LINE
  8
LAYER_2
 10
-33.551
 20
157.0915
 11
-33.5268
 21
157.1325
  0
ENDBLK
  0
BLOCK
  8
LAYER_2
  2
AIGNBL020100CA
 70
64
 10
0
 20
0
 30
0
  3
AIGNBL020100CA
  0
LINE
  8
LAYER_2
 10
-33.5091
 20
157.1694
 11
-33.4099
 21
157.4662
  0
ENDBLK
  0
BLOCK
  8
LAYER_2
  2
AIGNBL020100CB
 70
64
 10
0
 20
0
 30
0
  3
AIGNBL020100CB
  0
LINE
  8
LAYER_2
 10
-33.5268
 20
157.1325
 11
-33.5091
 21
157.1694
  0
ENDBLK
  0
BLOCK
  8
LAYER_2
  2
AIGNBL020100CC
 70
64
 10
0
 20
0
 30
0
  3
AIGNBL020100CC
  0
LINE
  8
LAYER_2
 10
-33.5793
 20
157.0367
 11
-33.5268
 21
157.1325
  0
ENDBLK
  0
BLOCK
  8
LAYER_2
  2
AIGNBL020100CD
 70
64
 10
0
 20
0
 30
0
  3
AIGNBL020100CD
  0
LINE
  8
LAYER_2
 10
-33.642
 20
157.6189
 11
-33.6337
 21
157.6739
  0
ENDBLK
  0
BLOCK
  8
LAYER_2
  2
AIGNBL020100CE
 70
64
 10
0
 20
0
 30
0
  3
AIGNBL020100CE
  0
LINE
  8
LAYER_2
 10
-33.7788
 20
156.0706
 11
-33.7922
 21
155.8737
  0
ENDBLK
  0
BLOCK
  8
LAYER_2
  2
AIGNBL020100CF
 70
64
 10
0
 20
0
 30
0
  3
AIGNBL020100CF
  0
ARC
  8
LAYER_2
 10
-27.7052
 20
159.2326
 40
11.6467
 50
172.9634697
 51
187.6263686
  0
ENDBLK
  0
BLOCK
  8
LAYER_2
  2
AIGNBL020100D0
 70
64
 10
0
 20
0
 30
0
  3
AIGNBL020100D0
  0
ARC
  8
LAYER_2
 10
-27.9468
 20
159.2771
 40
11.5927
 50
172.7752229
 51
187.8646944
  0
ENDBLK
  0
BLOCK
  8
LAYER_2
  2
AIGNBL020100D1
 70
64
 10
0
 20
0
 30
0
  3
AIGNBL020100D1
  0
ARC
  8
LAYER_2
 10
-27.7975
 20
159.2341
 40
11.2999
 50
172.7669548
 51
187.8399987
  0
ENDBLK
  0
BLOCK
  8
LAYER_2
  2
AIGNBL020100D2
 70
64
 10
0
 20
0
 30
0
  3
AIGNBL020100D2
  0
LINE
  8
LAYER_2
 10
-38.9137
 20
156.7463
 11
-38.8144
 21
156.6563
  0
ENDBLK
  0
BLOCK
  8
LAYER_2
  2
AIGNBL020100D3
 70
64
 10
0
 20
0
 30
0
  3
AIGNBL020100D3
  0
LINE
  8
LAYER_2
 10
-39.0097
 20
156.8398
 11
-38.9166
 21
156.7491
  0
ENDBLK
  0
BLOCK
  8
LAYER_2
  2
AIGNBL020100D4
 70
64
 10
0
 20
0
 30
0
  3
AIGNBL020100D4
  0
LINE
  8
LAYER_2
 10
-33.8275
 20
156.6399
 11
-33.8087
 21
156.6563
  0
ENDBLK
  0
BLOCK
  8
LAYER_2
  2
AIGNBL020100D5
 70
64
 10
0
 20
0
 30
0
  3
AIGNBL020100D5
  0
LINE
  8
LAYER_2
 10
-33.3617
 20
160.6814
 11
-33.3664
 21
160.7142
  0
ENDBLK
  0
BLOCK
  8
LAYER_2
  2
AIGNBL020100D6
 70
64
 10
0
 20
0
 30
0
  3
AIGNBL020100D6
  0
ARC
  8
LAYER_2
 10
-34.1552
 20
160.6108
 40
0.9875
 50
7.223095561
 51
84.10991818
  0
ENDBLK
  0
BLOCK
  8
LAYER_2
  2
AIGNBL020100D7
 70
64
 10
0
 20
0
 30
0
  3
AIGNBL020100D7
  0
ARC
  8
LAYER_2
 10
-34.341
 20
160.5585
 40
0.9869
 50
9.07658327
 51
84.63635294
  0
ENDBLK
  0
BLOCK
  8
LAYER_2
  2
AIGNBL020100D8
 70
64
 10
0
 20
0
 30
0
  3
AIGNBL020100D8
  0
LINE
  8
LAYER_2
 10
-38.4616
 20
154.8035
 11
-38.3112
 21
154.739
  0
LINE
  8
LAYER_2
 10
-38.3112
 20
154.739
 11
-38.1163
 21
154.6799
  0
LINE
  8
LAYER_2
 10
-38.1163
 20
154.6799
 11
-37.8812
 21
154.6275
  0
LINE
  8
LAYER_2
 10
-37.8812
 20
154.6275
 11
-37.6113
 21
154.5829
  0
LINE
  8
LAYER_2
 10
-37.6113
 20
154.5829
 11
-36.9915
 21
154.521
  0
LINE
  8
LAYER_2
 10
-36.9915
 20
154.521
 11
-36.3116
 21
154.4997
  0
ENDBLK
  0
BLOCK
  8
LAYER_2
  2
AIGNBL020100D9
 70
64
 10
0
 20
0
 30
0
  3
AIGNBL020100D9
  0
LINE
  8
LAYER_2
 10
-39.2277
 20
157.5591
 11
-39.1812
 21
157.37
  0
ENDBLK
  0
BLOCK
  8
LAYER_2
  2
AIGNBL020100DA
 70
64
 10
0
 20
0
 30
0
  3
AIGNBL020100DA
  0
LINE
  8
LAYER_2
 10
-33.4396
 20
157.3773
 11
-33.3954
 21
157.5591
  0
ENDBLK
  0
BLOCK
  8
LAYER_2
  2
AIGNBL020100DB
 70
64
 10
0
 20
0
 30
0
  3
AIGNBL020100DB
  0
LINE
  8
LAYER_2
 10
-38.8279
 20
156.7302
 11
-38.7169
 21
156.6252
  0
LINE
  8
LAYER_2
 10
-38.7169
 20
156.6252
 11
-38.5415
 21
156.5232
  0
LINE
  8
LAYER_2
 10
-38.5415
 20
156.5232
 11
-38.2972
 21
156.4559
  0
LINE
  8
LAYER_2
 10
-38.2972
 20
156.4559
 11
-37.986
 21
156.4298
  0
LINE
  8
LAYER_2
 10
-37.986
 20
156.4298
 11
-37.6178
 21
156.4339
  0
LINE
  8
LAYER_2
 10
-37.6178
 20
156.4339
 11
-37.2065
 21
156.4519
  0
LINE
  8
LAYER_2
 10
-37.2065
 20
156.4519
 11
-36.7663
 21
156.4694
  0
LINE
  8
LAYER_2
 10
-36.7663
 20
156.4694
 11
-36.3116
 21
156.4766
  0
ENDBLK
  0
BLOCK
  8
LAYER_2
  2
AIGNBL020100DC
 70
64
 10
0
 20
0
 30
0
  3
AIGNBL020100DC
  0
LINE
  8
LAYER_2
 10
-36.3116
 20
156.4766
 11
-35.8568
 21
156.4694
  0
LINE
  8
LAYER_2
 10
-35.8568
 20
156.4694
 11
-35.4166
 21
156.4519
  0
LINE
  8
LAYER_2
 10
-35.4166
 20
156.4519
 11
-35.0053
 21
156.4339
  0
LINE
  8
LAYER_2
 10
-35.0053
 20
156.4339
 11
-34.6371
 21
156.4298
  0
LINE
  8
LAYER_2
 10
-34.6371
 20
156.4298
 11
-34.3259
 21
156.4559
  0
LINE
  8
LAYER_2
 10
-34.3259
 20
156.4559
 11
-34.0816
 21
156.5232
  0
LINE
  8
LAYER_2
 10
-34.0816
 20
156.5232
 11
-33.9062
 21
156.6252
  0
LINE
  8
LAYER_2
 10
-33.9062
 20
156.6252
 11
-33.7952
 21
156.7302
  0
ENDBLK
  0
BLOCK
  8
LAYER_2
  2
AIGNBL020100DD
 70
64
 10
0
 20
0
 30
0
  3
AIGNBL020100DD
  0
LINE
  8
LAYER_2
 10
-36.3116
 20
154.4997
 11
-35.6316
 21
154.521
  0
LINE
  8
LAYER_2
 10
-35.6316
 20
154.521
 11
-35.0118
 21
154.5829
  0
LINE
  8
LAYER_2
 10
-35.0118
 20
154.5829
 11
-34.7419
 21
154.6275
  0
LINE
  8
LAYER_2
 10
-34.7419
 20
154.6275
 11
-34.5069
 21
154.6799
  0
LINE
  8
LAYER_2
 10
-34.5069
 20
154.6799
 11
-34.3119
 21
154.739
  0
LINE
  8
LAYER_2
 10
-34.3119
 20
154.739
 11
-34.1615
 21
154.8035
  0
ENDBLK
  0
BLOCK
  8
LAYER_2
  2
AIGNBL020100DE
 70
64
 10
0
 20
0
 30
0
  3
AIGNBL020100DE
  0
LINE
  8
LAYER_2
 10
-34.1615
 20
154.8035
 11
-34.1277
 21
154.8224
  0
LINE
  8
LAYER_2
 10
-34.1277
 20
154.8224
 11
-34.0496
 21
154.8806
  0
ENDBLK
  0
BLOCK
  8
LAYER_2
  2
AIGNBL020100DF
 70
64
 10
0
 20
0
 30
0
  3
AIGNBL020100DF
  0
LINE
  8
LAYER_2
 10
-34.0496
 20
154.8806
 11
-34.0102
 21
154.9334
  0
LINE
  8
LAYER_2
 10
-34.0102
 20
154.9334
 11
-33.9993
 21
154.9868
  0
LINE
  8
LAYER_2
 10
-33.9993
 20
154.9868
 11
-34.0169
 21
155.0402
  0
LINE
  8
LAYER_2
 10
-34.0169
 20
155.0402
 11
-34.063
 21
155.0928
  0
LINE
  8
LAYER_2
 10
-34.063
 20
155.0928
 11
-34.1368
 21
155.144
  0
LINE
  8
LAYER_2
 10
-34.1368
 20
155.144
 11
-34.2375
 21
155.1932
  0
LINE
  8
LAYER_2
 10
-34.2375
 20
155.1932
 11
-34.3639
 21
155.2397
  0
LINE
  8
LAYER_2
 10
-34.3639
 20
155.2397
 11
-34.5144
 21
155.2831
  0
LINE
  8
LAYER_2
 10
-34.5144
 20
155.2831
 11
-34.6871
 21
155.3227
  0
LINE
  8
LAYER_2
 10
-34.6871
 20
155.3227
 11
-34.8799
 21
155.3581
  0
LINE
  8
LAYER_2
 10
-34.8799
 20
155.3581
 11
-35.316
 21
155.4145
  0
LINE
  8
LAYER_2
 10
-35.316
 20
155.4145
 11
-35.8012
 21
155.4495
  0
LINE
  8
LAYER_2
 10
-35.8012
 20
155.4495
 11
-36.3116
 21
155.4613
  0
ENDBLK
  0
BLOCK
  8
LAYER_2
  2
AIGNBL020100E0
 70
64
 10
0
 20
0
 30
0
  3
AIGNBL020100E0
  0
ARC
  8
LAYER_2
 10
-38.4972
 20
157.5554
 40
0.7087
 50
195.1679414
 51
216.3063858
  0
LINE
  8
LAYER_2
 10
-39.0683
 20
157.1358
 11
-38.9796
 21
157.0405
  0
LINE
  8
LAYER_2
 10
-38.9796
 20
157.0405
 11
-38.8725
 21
156.9669
  0
LINE
  8
LAYER_2
 10
-38.8725
 20
156.9669
 11
-38.7543
 21
156.9131
  0
LINE
  8
LAYER_2
 10
-38.7543
 20
156.9131
 11
-38.6303
 21
156.8744
  0
LINE
  8
LAYER_2
 10
-38.6303
 20
156.8744
 11
-38.3751
 21
156.8252
  0
ENDBLK
  0
BLOCK
  8
LAYER_2
  2
AIGNBL020100E1
 70
64
 10
0
 20
0
 30
0
  3
AIGNBL020100E1
  0
LINE
  8
LAYER_2
 10
-36.3116
 20
155.4613
 11
-36.8219
 21
155.4495
  0
LINE
  8
LAYER_2
 10
-36.8219
 20
155.4495
 11
-37.3071
 21
155.4145
  0
LINE
  8
LAYER_2
 10
-37.3071
 20
155.4145
 11
-37.7432
 21
155.3581
  0
LINE
  8
LAYER_2
 10
-37.7432
 20
155.3581
 11
-37.936
 21
155.3227
  0
LINE
  8
LAYER_2
 10
-37.936
 20
155.3227
 11
-38.1087
 21
155.2831
  0
LINE
  8
LAYER_2
 10
-38.1087
 20
155.2831
 11
-38.2592
 21
155.2397
  0
LINE
  8
LAYER_2
 10
-38.2592
 20
155.2397
 11
-38.3856
 21
155.1932
  0
LINE
  8
LAYER_2
 10
-38.3856
 20
155.1932
 11
-38.4863
 21
155.144
  0
LINE
  8
LAYER_2
 10
-38.4863
 20
155.144
 11
-38.5602
 21
155.0928
  0
LINE
  8
LAYER_2
 10
-38.5602
 20
155.0928
 11
-38.6062
 21
155.0402
  0
LINE
  8
LAYER_2
 10
-38.6062
 20
155.0402
 11
-38.6238
 21
154.9868
  0
LINE
  8
LAYER_2
 10
-38.6238
 20
154.9868
 11
-38.6129
 21
154.9334
  0
LINE
  8
LAYER_2
 10
-38.6129
 20
154.9334
 11
-38.5735
 21
154.8806
  0
ENDBLK
  0
BLOCK
  8
LAYER_2
  2
AIGNBL020100E2
 70
64
 10
0
 20
0
 30
0
  3
AIGNBL020100E2
  0
LINE
  8
LAYER_2
 10
-38.5735
 20
154.8806
 11
-38.5514
 21
154.861
  0
LINE
  8
LAYER_2
 10
-38.5514
 20
154.861
 11
-38.4616
 21
154.8035
  0
ENDBLK
  0
BLOCK
  8
LAYER_2
  2
AIGNBL020100E3
 70
64
 10
0
 20
0
 30
0
  3
AIGNBL020100E3
  0
LINE
  8
LAYER_2
 10
-39.2614
 20
160.6814
 11
-39.2632
 21
160.6667
  0
ENDBLK
  0
BLOCK
  8
LAYER_2
  2
AIGNBL020100E4
 70
64
 10
0
 20
0
 30
0
  3
AIGNBL020100E4
  0
LINE
  8
LAYER_2
 10
-39.2488
 20
157.6869
 11
-39.2465
 21
157.6695
  0
ENDBLK
  0
BLOCK
  8
LAYER_2
  2
AIGNBL020100E5
 70
64
 10
0
 20
0
 30
0
  3
AIGNBL020100E5
  0
LINE
  8
LAYER_2
 10
-33.3767
 20
157.6695
 11
-33.3743
 21
157.6869
  0
ENDBLK
  0
BLOCK
  8
LAYER_2
  2
AIGNBL020100E6
 70
64
 10
0
 20
0
 30
0
  3
AIGNBL020100E6
  0
LINE
  8
LAYER_2
 10
-33.359
 20
160.6593
 11
-33.3617
 21
160.6814
  0
ENDBLK
  0
BLOCK
  8
LAYER_2
  2
AIGNBL020100E7
 70
64
 10
0
 20
0
 30
0
  3
AIGNBL020100E7
  0
LINE
  8
LAYER_2
 10
-34.2487
 20
161.5412
 11
-34.2685
 21
161.543
  0
ENDBLK
  0
BLOCK
  8
LAYER_2
  2
AIGNBL020100E8
 70
64
 10
0
 20
0
 30
0
  3
AIGNBL020100E8
  0
LINE
  8
LAYER_2
 10
-38.3547
 20
161.543
 11
-38.3744
 21
161.5412
  0
ENDBLK
  0
BLOCK
  8
LAYER_2
  2
AIGNBL020100E9
 70
64
 10
0
 20
0
 30
0
  3
AIGNBL020100E9
  0
LINE
  8
LAYER_2
 10
-38.9918
 20
157.6927
 11
-38.9894
 21
157.6739
  0
ENDBLK
  0
BLOCK
  8
LAYER_2
  2
AIGNBL020100EA
 70
64
 10
0
 20
0
 30
0
  3
AIGNBL020100EA
  0
LINE
  8
LAYER_2
 10
-38.9811
 20
157.6189
 11
-38.9587
 21
157.5018
  0
LINE
  8
LAYER_2
 10
-38.9587
 20
157.5018
 11
-38.9287
 21
157.3867
  0
LINE
  8
LAYER_2
 10
-38.9287
 20
157.3867
 11
-38.9088
 21
157.3307
  0
LINE
  8
LAYER_2
 10
-38.9088
 20
157.3307
 11
-38.8836
 21
157.2769
  0
LINE
  8
LAYER_2
 10
-38.8836
 20
157.2769
 11
-38.8504
 21
157.2273
  0
LINE
  8
LAYER_2
 10
-38.8504
 20
157.2273
 11
-38.8076
 21
157.1855
  0
LINE
  8
LAYER_2
 10
-38.8076
 20
157.1855
 11
-38.7578
 21
157.152
  0
LINE
  8
LAYER_2
 10
-38.7578
 20
157.152
 11
-38.7041
 21
157.1253
  0
LINE
  8
LAYER_2
 10
-38.7041
 20
157.1253
 11
-38.5911
 21
157.0852
  0
LINE
  8
LAYER_2
 10
-38.5911
 20
157.0852
 11
-38.4746
 21
157.0568
  0
LINE
  8
LAYER_2
 10
-38.4746
 20
157.0568
 11
-38.3565
 21
157.0357
  0
ENDBLK
  0
BLOCK
  8
LAYER_2
  2
AIGNBL020100EB
 70
64
 10
0
 20
0
 30
0
  3
AIGNBL020100EB
  0
LINE
  8
LAYER_2
 10
-38.3565
 20
157.0357
 11
-38.1025
 21
157.0059
  0
LINE
  8
LAYER_2
 10
-38.1025
 20
157.0059
 11
-37.8474
 21
156.9901
  0
LINE
  8
LAYER_2
 10
-37.8474
 20
156.9901
 11
-37.3359
 21
156.9785
  0
LINE
  8
LAYER_2
 10
-37.3359
 20
156.9785
 11
-36.8239
 21
156.9776
  0
LINE
  8
LAYER_2
 10
-36.8239
 20
156.9776
 11
-36.3116
 21
156.9783
  0
ENDBLK
  0
BLOCK
  8
LAYER_2
  2
AIGNBL020100EC
 70
64
 10
0
 20
0
 30
0
  3
AIGNBL020100EC
  0
LINE
  8
LAYER_2
 10
-36.3116
 20
156.9783
 11
-35.7992
 21
156.9776
  0
LINE
  8
LAYER_2
 10
-35.7992
 20
156.9776
 11
-35.2872
 21
156.9785
  0
LINE
  8
LAYER_2
 10
-35.2872
 20
156.9785
 11
-34.7758
 21
156.9901
  0
LINE
  8
LAYER_2
 10
-34.7758
 20
156.9901
 11
-34.5206
 21
157.0059
  0
LINE
  8
LAYER_2
 10
-34.5206
 20
157.0059
 11
-34.2666
 21
157.0357
  0
ENDBLK
  0
BLOCK
  8
LAYER_2
  2
AIGNBL020100ED
 70
64
 10
0
 20
0
 30
0
  3
AIGNBL020100ED
  0
LINE
  8
LAYER_2
 10
-34.2666
 20
157.0357
 11
-34.1485
 21
157.0568
  0
LINE
  8
LAYER_2
 10
-34.1485
 20
157.0568
 11
-34.032
 21
157.0852
  0
LINE
  8
LAYER_2
 10
-34.032
 20
157.0852
 11
-33.919
 21
157.1253
  0
LINE
  8
LAYER_2
 10
-33.919
 20
157.1253
 11
-33.8653
 21
157.152
  0
LINE
  8
LAYER_2
 10
-33.8653
 20
157.152
 11
-33.8155
 21
157.1855
  0
LINE
  8
LAYER_2
 10
-33.8155
 20
157.1855
 11
-33.7727
 21
157.2274
  0
LINE
  8
LAYER_2
 10
-33.7727
 20
157.2274
 11
-33.7395
 21
157.2769
  0
LINE
  8
LAYER_2
 10
-33.7395
 20
157.2769
 11
-33.7143
 21
157.3307
  0
LINE
  8
LAYER_2
 10
-33.7143
 20
157.3307
 11
-33.6944
 21
157.3867
  0
LINE
  8
LAYER_2
 10
-33.6944
 20
157.3867
 11
-33.6644
 21
157.5018
  0
LINE
  8
LAYER_2
 10
-33.6644
 20
157.5018
 11
-33.642
 21
157.6189
  0
ENDBLK
  0
BLOCK
  8
LAYER_2
  2
AIGNBL020100EE
 70
64
 10
0
 20
0
 30
0
  3
AIGNBL020100EE
  0
LINE
  8
LAYER_2
 10
-33.6337
 20
157.6739
 11
-33.6313
 21
157.6927
  0
ENDBLK
  0
BLOCK
  8
LAYER_2
  2
AIGNBL020100EF
 70
64
 10
0
 20
0
 30
0
  3
AIGNBL020100EF
  0
LINE
  8
LAYER_2
 10
-38.3565
 20
161.3058
 11
-38.377
 21
161.3038
  0
ENDBLK
  0
BLOCK
  8
LAYER_2
  2
AIGNBL020100F0
 70
64
 10
0
 20
0
 30
0
  3
AIGNBL020100F0
  0
LINE
  8
LAYER_2
 10
-39.0047
 20
160.68
 11
-39.0075
 21
160.6568
  0
ENDBLK
  0
BLOCK
  8
LAYER_2
  2
AIGNBL020100F1
 70
64
 10
0
 20
0
 30
0
  3
AIGNBL020100F1
  0
ARC
  8
LAYER_2
 10
-38.3105
 20
160.6176
 40
0.6894
 50
95.53205339
 51
115.4130885
  0
ARC
  8
LAYER_2
 10
-38.3049
 20
160.6097
 40
0.6989
 50
115.5507138
 51
135.1780056
  0
LINE
  8
LAYER_2
 10
-38.8007
 20
161.1024
 11
-38.938
 21
160.908
  0
LINE
  8
LAYER_2
 10
-38.938
 20
160.908
 11
-39.0047
 21
160.68
  0
ENDBLK
  0
BLOCK
  8
LAYER_2
  2
AIGNBL020100F2
 70
64
 10
0
 20
0
 30
0
  3
AIGNBL020100F2
  0
LINE
  8
LAYER_2
 10
-33.6156
 20
160.6568
 11
-33.6184
 21
160.68
  0
ENDBLK
  0
BLOCK
  8
LAYER_2
  2
AIGNBL020100F3
 70
64
 10
0
 20
0
 30
0
  3
AIGNBL020100F3
  0
LINE
  8
LAYER_2
 10
-34.2461
 20
161.3038
 11
-34.2666
 21
161.3058
  0
ENDBLK
  0
BLOCK
  8
LAYER_2
  2
AIGNBL020100F4
 70
64
 10
0
 20
0
 30
0
  3
AIGNBL020100F4
  0
LINE
  8
LAYER_2
 10
-33.6184
 20
160.68
 11
-33.6851
 21
160.908
  0
LINE
  8
LAYER_2
 10
-33.6851
 20
160.908
 11
-33.8224
 21
161.1024
  0
ARC
  8
LAYER_2
 10
-34.3168
 20
160.6115
 40
0.6967
 50
44.80069564
 51
64.49841138
  0
ARC
  8
LAYER_2
 10
-34.3123
 20
160.6188
 40
0.6882
 50
64.56607167
 51
84.4759379
  0
ENDBLK
  0
BLOCK
  8
LAYER_2
  2
AIGNBL020100F5
 70
64
 10
0
 20
0
 30
0
  3
AIGNBL020100F5
  0
LINE
  8
LAYER_2
 10
-38.3751
 20
156.8252
 11
-38.1189
 21
156.7985
  0
LINE
  8
LAYER_2
 10
-38.1189
 20
156.7985
 11
-37.8616
 21
156.7841
  0
LINE
  8
LAYER_2
 10
-37.8616
 20
156.7841
 11
-37.3456
 21
156.7739
  0
LINE
  8
LAYER_2
 10
-37.3456
 20
156.7739
 11
-36.8288
 21
156.7734
  0
LINE
  8
LAYER_2
 10
-36.8288
 20
156.7734
 11
-36.3116
 21
156.7742
  0
ENDBLK
  0
BLOCK
  8
LAYER_2
  2
AIGNBL020100F6
 70
64
 10
0
 20
0
 30
0
  3
AIGNBL020100F6
  0
LINE
  8
LAYER_2
 10
-36.3116
 20
156.7742
 11
-35.7943
 21
156.7734
  0
LINE
  8
LAYER_2
 10
-35.7943
 20
156.7734
 11
-35.2775
 21
156.7739
  0
LINE
  8
LAYER_2
 10
-35.2775
 20
156.7739
 11
-34.7615
 21
156.7841
  0
LINE
  8
LAYER_2
 10
-34.7615
 20
156.7841
 11
-34.5042
 21
156.7985
  0
LINE
  8
LAYER_2
 10
-34.5042
 20
156.7985
 11
-34.248
 21
156.8252
  0
ENDBLK
  0
BLOCK
  8
LAYER_2
  2
AIGNBL020100F7
 70
64
 10
0
 20
0
 30
0
  3
AIGNBL020100F7
  0
LINE
  8
LAYER_2
 10
-34.248
 20
156.8252
 11
-33.9909
 21
156.8748
  0
LINE
  8
LAYER_2
 10
-33.9909
 20
156.8748
 11
-33.8661
 21
156.9142
  0
LINE
  8
LAYER_2
 10
-33.8661
 20
156.9142
 11
-33.7473
 21
156.9688
  0
LINE
  8
LAYER_2
 10
-33.7473
 20
156.9688
 11
-33.6399
 21
157.0436
  0
LINE
  8
LAYER_2
 10
-33.6399
 20
157.0436
 11
-33.5514
 21
157.1404
  0
ARC
  8
LAYER_2
 10
-34.3071
 20
157.6419
 40
0.9069
 50
326.4321863
 51
343.0398387
  0
ENDBLK
  0
BLOCK
  8
LAYER_2
  2
AIGNBL020100F8
 70
64
 10
0
 20
0
 30
0
  3
AIGNBL020100F8
  0
LINE
  8
LAYER_2
 10
-39.0097
 20
156.8398
 11
-39.0055
 21
156.8321
  0
LINE
  8
LAYER_2
 10
-39.0055
 20
156.8321
 11
-38.999
 21
156.8164
  0
LINE
  8
LAYER_2
 10
-38.999
 20
156.8164
 11
-38.9906
 21
156.7936
  0
LINE
  8
LAYER_2
 10
-38.9906
 20
156.7936
 11
-38.9806
 21
156.7642
  0
LINE
  8
LAYER_2
 10
-38.9806
 20
156.7642
 11
-38.9694
 21
156.7289
  0
LINE
  8
LAYER_2
 10
-38.9694
 20
156.7289
 11
-38.9573
 21
156.6883
  0
LINE
  8
LAYER_2
 10
-38.9573
 20
156.6883
 11
-38.9319
 21
156.5929
  0
LINE
  8
LAYER_2
 10
-38.9319
 20
156.5929
 11
-38.9063
 21
156.4815
  0
LINE
  8
LAYER_2
 10
-38.9063
 20
156.4815
 11
-38.8823
 21
156.3562
  0
LINE
  8
LAYER_2
 10
-38.8823
 20
156.3562
 11
-38.8612
 21
156.2188
  0
LINE
  8
LAYER_2
 10
-38.8612
 20
156.2188
 11
-38.8443
 21
156.0705
  0
ENDBLK
  0
BLOCK
  8
LAYER_2
  2
AIGNBL020100F9
 70
64
 10
0
 20
0
 30
0
  3
AIGNBL020100F9
  0
LINE
  8
LAYER_2
 10
-33.6134
 20
156.8398
 11
-33.6176
 21
156.8321
  0
LINE
  8
LAYER_2
 10
-33.6176
 20
156.8321
 11
-33.6241
 21
156.8164
  0
LINE
  8
LAYER_2
 10
-33.6241
 20
156.8164
 11
-33.6325
 21
156.7936
  0
LINE
  8
LAYER_2
 10
-33.6325
 20
156.7936
 11
-33.6425
 21
156.7642
  0
LINE
  8
LAYER_2
 10
-33.6425
 20
156.7642
 11
-33.6537
 21
156.7289
  0
LINE
  8
LAYER_2
 10
-33.6537
 20
156.7289
 11
-33.6658
 21
156.6883
  0
LINE
  8
LAYER_2
 10
-33.6658
 20
156.6883
 11
-33.6912
 21
156.593
  0
LINE
  8
LAYER_2
 10
-33.6912
 20
156.593
 11
-33.7168
 21
156.4815
  0
LINE
  8
LAYER_2
 10
-33.7168
 20
156.4815
 11
-33.7408
 21
156.3562
  0
LINE
  8
LAYER_2
 10
-33.7408
 20
156.3562
 11
-33.7619
 21
156.2188
  0
LINE
  8
LAYER_2
 10
-33.7619
 20
156.2188
 11
-33.7788
 21
156.0706
  0
ENDBLK
  0
BLOCK
  8
LAYER_2
  2
AIGNBL020100FA
 70
64
 10
0
 20
0
 30
0
  3
AIGNBL020100FA
  0
LINE
  8
LAYER_2
 10
-36.3116
 20
155.5936
 11
-37.0892
 21
155.5677
  0
LINE
  8
LAYER_2
 10
-37.0892
 20
155.5677
 11
-37.7886
 21
155.4924
  0
LINE
  8
LAYER_2
 10
-37.7886
 20
155.4924
 11
-38.0866
 21
155.4384
  0
LINE
  8
LAYER_2
 10
-38.0866
 20
155.4384
 11
-38.3396
 21
155.3754
  0
LINE
  8
LAYER_2
 10
-38.3396
 20
155.3754
 11
-38.5413
 21
155.3047
  0
LINE
  8
LAYER_2
 10
-38.5413
 20
155.3047
 11
-38.6866
 21
155.2284
  0
ENDBLK
  0
BLOCK
  8
LAYER_2
  2
AIGNBL020100FB
 70
64
 10
0
 20
0
 30
0
  3
AIGNBL020100FB
  0
LINE
  8
LAYER_2
 10
-33.9366
 20
155.2284
 11
-34.0818
 21
155.3047
  0
LINE
  8
LAYER_2
 10
-34.0818
 20
155.3047
 11
-34.2836
 21
155.3754
  0
LINE
  8
LAYER_2
 10
-34.2836
 20
155.3754
 11
-34.5366
 21
155.4384
  0
LINE
  8
LAYER_2
 10
-34.5366
 20
155.4384
 11
-34.8345
 21
155.4924
  0
LINE
  8
LAYER_2
 10
-34.8345
 20
155.4924
 11
-35.5339
 21
155.5677
  0
LINE
  8
LAYER_2
 10
-35.5339
 20
155.5677
 11
-36.3116
 21
155.5936
  0
ENDBLK
  0
BLOCK
  8
LAYER_2
  2
AIGNBL020100FC
 70
64
 10
0
 20
0
 30
0
  3
AIGNBL020100FC
  0
ARC
  8
LAYER_2
 10
-34.0723
 20
155.9551
 40
0.2388
 50
304.6151646
 51
15.28465902
  0
ARC
  8
LAYER_2
 10
-33.9545
 20
155.8951
 40
0.1668
 50
47.52120435
 51
83.83297512
  0
ENDBLK
  0
BLOCK
  8
LAYER_2
  2
AIGNBL020100FD
 70
64
 10
0
 20
0
 30
0
  3
AIGNBL020100FD
  0
ARC
  8
LAYER_2
 10
-38.6946
 20
155.9619
 40
0.0993
 50
85.38858375
 51
192.5306014
  0
ARC
  8
LAYER_2
 10
-38.1704
 20
156.1778
 40
0.665
 50
200.9161814
 51
219.0759338
  0
ENDBLK
  0
BLOCK
  8
LAYER_2
  2
AIGNBL020100FE
 70
64
 10
0
 20
0
 30
0
  3
AIGNBL020100FE
  0
LINE
  8
LAYER_2
 10
41.668
 20
46.2749
 11
60.2205
 21
46.2749
  0
LINE
  8
LAYER_2
 10
50.1691
 20
45.6892
 11
52.3795
 21
46.2817
  0
LINE
  8
LAYER_2
 10
52.3795
 20
46.2817
 11
50.1691
 21
46.8743
  0
LINE
  8
LAYER_2
 10
50.1691
 20
46.8743
 11
50.1691
 21
45.6892
  0
LINE
  8
LAYER_2
 10
58.7157
 20
46.8598
 11
56.5046
 21
46.2673
  0
LINE
  8
LAYER_2
 10
56.5046
 20
46.2673
 11
58.7157
 21
45.6754
  0
LINE
  8
LAYER_2
 10
58.7157
 20
45.6754
 11
58.7157
 21
46.8598
  0
ENDBLK
  0
BLOCK
  8
LAYER_2
  2
AIGNBL020100FF
 70
64
 10
0
 20
0
 30
0
  3
AIGNBL020100FF
  0
INSERT
  8
LAYER_2
  2
AIGNBL02020100
 10
0
 20
0
 30
0
  0
INSERT
  8
LAYER_2
  2
AIGNBL02020101
 10
0
 20
0
 30
0
  0
INSERT
  8
LAYER_2
  2
AIGNBL02020102
 10
0
 20
0
 30
0
  0
INSERT
  8
LAYER_2
  2
AIGNBL02020103
 10
0
 20
0
 30
0
  0
INSERT
  8
LAYER_2
  2
AIGNBL02020104
 10
0
 20
0
 30
0
  0
INSERT
  8
LAYER_2
  2
AIGNBL02020105
 10
0
 20
0
 30
0
  0
INSERT
  8
LAYER_2
  2
AIGNBL02020106
 10
0
 20
0
 30
0
  0
INSERT
  8
LAYER_2
  2
AIGNBL02020107
 10
0
 20
0
 30
0
  0
INSERT
  8
LAYER_2
  2
AIGNBL02020108
 10
0
 20
0
 30
0
  0
INSERT
  8
LAYER_2
  2
AIGNBL02020109
 10
0
 20
0
 30
0
  0
INSERT
  8
LAYER_2
  2
AIGNBL0202010A
 10
0
 20
0
 30
0
  0
INSERT
  8
LAYER_2
  2
AIGNBL0202010B
 10
0
 20
0
 30
0
  0
INSERT
  8
LAYER_2
  2
AIGNBL0202010C
 10
0
 20
0
 30
0
  0
INSERT
  8
LAYER_2
  2
AIGNBL0202010D
 10
0
 20
0
 30
0
  0
INSERT
  8
LAYER_2
  2
AIGNBL0202010E
 10
0
 20
0
 30
0
  0
INSERT
  8
LAYER_2
  2
AIGNBL0202010F
 10
0
 20
0
 30
0
  0
INSERT
  8
LAYER_2
  2
AIGNBL02020110
 10
0
 20
0
 30
0
  0
INSERT
  8
LAYER_2
  2
AIGNBL02020111
 10
0
 20
0
 30
0
  0
INSERT
  8
LAYER_2
  2
AIGNBL02020112
 10
0
 20
0
 30
0
  0
INSERT
  8
LAYER_2
  2
AIGNBL02020113
 10
0
 20
0
 30
0
  0
INSERT
  8
LAYER_2
  2
AIGNBL02020114
 10
0
 20
0
 30
0
  0
INSERT
  8
LAYER_2
  2
AIGNBL02020115
 10
0
 20
0
 30
0
  0
INSERT
  8
LAYER_2
  2
AIGNBL02020116
 10
0
 20
0
 30
0
  0
INSERT
  8
LAYER_2
  2
AIGNBL02020117
 10
0
 20
0
 30
0
  0
INSERT
  8
LAYER_2
  2
AIGNBL02020118
 10
0
 20
0
 30
0
  0
INSERT
  8
LAYER_2
  2
AIGNBL02020119
 10
0
 20
0
 30
0
  0
INSERT
  8
LAYER_2
  2
AIGNBL0202011A
 10
0
 20
0
 30
0
  0
INSERT
  8
LAYER_2
  2
AIGNBL0202011B
 10
0
 20
0
 30
0
  0
INSERT
  8
LAYER_2
  2
AIGNBL0202011C
 10
0
 20
0
 30
0
  0
INSERT
  8
LAYER_2
  2
AIGNBL0202011D
 10
0
 20
0
 30
0
  0
INSERT
  8
LAYER_2
  2
AIGNBL0202011E
 10
0
 20
0
 30
0
  0
INSERT
  8
LAYER_2
  2
AIGNBL0202011F
 10
0
 20
0
 30
0
  0
INSERT
  8
LAYER_2
  2
AIGNBL02020120
 10
0
 20
0
 30
0
  0
INSERT
  8
LAYER_2
  2
AIGNBL02020121
 10
0
 20
0
 30
0
  0
INSERT
  8
LAYER_2
  2
AIGNBL02020122
 10
0
 20
0
 30
0
  0
INSERT
  8
LAYER_2
  2
AIGNBL02020123
 10
0
 20
0
 30
0
  0
INSERT
  8
LAYER_2
  2
AIGNBL02020124
 10
0
 20
0
 30
0
  0
INSERT
  8
LAYER_2
  2
AIGNBL02020125
 10
0
 20
0
 30
0
  0
INSERT
  8
LAYER_2
  2
AIGNBL02020126
 10
0
 20
0
 30
0
  0
INSERT
  8
LAYER_2
  2
AIGNBL02020127
 10
0
 20
0
 30
0
  0
INSERT
  8
LAYER_2
  2
AIGNBL02020128
 10
0
 20
0
 30
0
  0
INSERT
  8
LAYER_2
  2
AIGNBL02020129
 10
0
 20
0
 30
0
  0
INSERT
  8
LAYER_2
  2
AIGNBL0202012A
 10
0
 20
0
 30
0
  0
INSERT
  8
LAYER_2
  2
AIGNBL0202012B
 10
0
 20
0
 30
0
  0
INSERT
  8
LAYER_2
  2
AIGNBL0202012C
 10
0
 20
0
 30
0
  0
INSERT
  8
LAYER_2
  2
AIGNBL0202012D
 10
0
 20
0
 30
0
  0
INSERT
  8
LAYER_2
  2
AIGNBL0202012E
 10
0
 20
0
 30
0
  0
INSERT
  8
LAYER_2
  2
AIGNBL0202012F
 10
0
 20
0
 30
0
  0
INSERT
  8
LAYER_2
  2
AIGNBL02020130
 10
0
 20
0
 30
0
  0
INSERT
  8
LAYER_2
  2
AIGNBL02020131
 10
0
 20
0
 30
0
  0
INSERT
  8
LAYER_2
  2
AIGNBL02020132
 10
0
 20
0
 30
0
  0
INSERT
  8
LAYER_2
  2
AIGNBL02020133
 10
0
 20
0
 30
0
  0
INSERT
  8
LAYER_2
  2
AIGNBL02020134
 10
0
 20
0
 30
0
  0
INSERT
  8
LAYER_2
  2
AIGNBL02020135
 10
0
 20
0
 30
0
  0
INSERT
  8
LAYER_2
  2
AIGNBL02020136
 10
0
 20
0
 30
0
  0
INSERT
  8
LAYER_2
  2
AIGNBL02020137
 10
0
 20
0
 30
0
  0
INSERT
  8
LAYER_2
  2
AIGNBL02020138
 10
0
 20
0
 30
0
  0
INSERT
  8
LAYER_2
  2
AIGNBL02020139
 10
0
 20
0
 30
0
  0
INSERT
  8
LAYER_2
  2
AIGNBL0202013A
 10
0
 20
0
 30
0
  0
INSERT
  8
LAYER_2
  2
AIGNBL0202013B
 10
0
 20
0
 30
0
  0
INSERT
  8
LAYER_2
  2
AIGNBL0202013C
 10
0
 20
0
 30
0
  0
INSERT
  8
LAYER_2
  2
AIGNBL0202013D
 10
0
 20
0
 30
0
  0
INSERT
  8
LAYER_2
  2
AIGNBL0202013E
 10
0
 20
0
 30
0
  0
INSERT
  8
LAYER_2
  2
AIGNBL0202013F
 10
0
 20
0
 30
0
  0
INSERT
  8
LAYER_2
  2
AIGNBL02020140
 10
0
 20
0
 30
0
  0
INSERT
  8
LAYER_2
  2
AIGNBL02020141
 10
0
 20
0
 30
0
  0
INSERT
  8
LAYER_2
  2
AIGNBL02020142
 10
0
 20
0
 30
0
  0
INSERT
  8
LAYER_2
  2
AIGNBL02020143
 10
0
 20
0
 30
0
  0
INSERT
  8
LAYER_2
  2
AIGNBL02020144
 10
0
 20
0
 30
0
  0
INSERT
  8
LAYER_2
  2
AIGNBL02020145
 10
0
 20
0
 30
0
  0
INSERT
  8
LAYER_2
  2
AIGNBL02020146
 10
0
 20
0
 30
0
  0
INSERT
  8
LAYER_2
  2
AIGNBL02020147
 10
0
 20
0
 30
0
  0
INSERT
  8
LAYER_2
  2
AIGNBL02020148
 10
0
 20
0
 30
0
  0
INSERT
  8
LAYER_2
  2
AIGNBL02020149
 10
0
 20
0
 30
0
  0
INSERT
  8
LAYER_2
  2
AIGNBL0202014A
 10
0
 20
0
 30
0
  0
INSERT
  8
LAYER_2
  2
AIGNBL0202014B
 10
0
 20
0
 30
0
  0
INSERT
  8
LAYER_2
  2
AIGNBL0202014C
 10
0
 20
0
 30
0
  0
INSERT
  8
LAYER_2
  2
AIGNBL0202014D
 10
0
 20
0
 30
0
  0
INSERT
  8
LAYER_2
  2
AIGNBL0202014E
 10
0
 20
0
 30
0
  0
INSERT
  8
LAYER_2
  2
AIGNBL0202014F
 10
0
 20
0
 30
0
  0
INSERT
  8
LAYER_2
  2
AIGNBL02020150
 10
0
 20
0
 30
0
  0
INSERT
  8
LAYER_2
  2
AIGNBL02020151
 10
0
 20
0
 30
0
  0
INSERT
  8
LAYER_2
  2
AIGNBL02020152
 10
0
 20
0
 30
0
  0
INSERT
  8
LAYER_2
  2
AIGNBL02020153
 10
0
 20
0
 30
0
  0
INSERT
  8
LAYER_2
  2
AIGNBL02020154
 10
0
 20
0
 30
0
  0
INSERT
  8
LAYER_2
  2
AIGNBL02020155
 10
0
 20
0
 30
0
  0
INSERT
  8
LAYER_2
  2
AIGNBL02020156
 10
0
 20
0
 30
0
  0
INSERT
  8
LAYER_2
  2
AIGNBL02020157
 10
0
 20
0
 30
0
  0
INSERT
  8
LAYER_2
  2
AIGNBL02020158
 10
0
 20
0
 30
0
  0
INSERT
  8
LAYER_2
  2
AIGNBL02020159
 10
0
 20
0
 30
0
  0
INSERT
  8
LAYER_2
  2
AIGNBL0202015A
 10
0
 20
0
 30
0
  0
ENDBLK
  0
BLOCK
  8
LAYER_2
  2
AIGNBL0201015B
 70
64
 10
0
 20
0
 30
0
  3
AIGNBL0201015B
  0
INSERT
  8
LAYER_2
  2
AIGNBL0202015C
 10
0
 20
0
 30
0
  0
INSERT
  8
LAYER_2
  2
AIGNBL0202015D
 10
0
 20
0
 30
0
  0
INSERT
  8
LAYER_2
  2
AIGNBL0202015E
 10
0
 20
0
 30
0
  0
INSERT
  8
LAYER_2
  2
AIGNBL0202015F
 10
0
 20
0
 30
0
  0
INSERT
  8
LAYER_2
  2
AIGNBL02020160
 10
0
 20
0
 30
0
  0
INSERT
  8
LAYER_2
  2
AIGNBL02020161
 10
0
 20
0
 30
0
  0
INSERT
  8
LAYER_2
  2
AIGNBL02020162
 10
0
 20
0
 30
0
  0
INSERT
  8
LAYER_2
  2
AIGNBL02020163
 10
0
 20
0
 30
0
  0
INSERT
  8
LAYER_2
  2
AIGNBL02020164
 10
0
 20
0
 30
0
  0
INSERT
  8
LAYER_2
  2
AIGNBL02020165
 10
0
 20
0
 30
0
  0
INSERT
  8
LAYER_2
  2
AIGNBL02020166
 10
0
 20
0
 30
0
  0
INSERT
  8
LAYER_2
  2
AIGNBL02020167
 10
0
 20
0
 30
0
  0
INSERT
  8
LAYER_2
  2
AIGNBL02020168
 10
0
 20
0
 30
0
  0
INSERT
  8
LAYER_2
  2
AIGNBL02020169
 10
0
 20
0
 30
0
  0
INSERT
  8
LAYER_2
  2
AIGNBL0202016A
 10
0
 20
0
 30
0
  0
INSERT
  8
LAYER_2
  2
AIGNBL0202016B
 10
0
 20
0
 30
0
  0
INSERT
  8
LAYER_2
  2
AIGNBL0202016C
 10
0
 20
0
 30
0
  0
INSERT
  8
LAYER_2
  2
AIGNBL0202016D
 10
0
 20
0
 30
0
  0
INSERT
  8
LAYER_2
  2
AIGNBL0202016E
 10
0
 20
0
 30
0
  0
INSERT
  8
LAYER_2
  2
AIGNBL0202016F
 10
0
 20
0
 30
0
  0
INSERT
  8
LAYER_2
  2
AIGNBL02020170
 10
0
 20
0
 30
0
  0
INSERT
  8
LAYER_2
  2
AIGNBL02020171
 10
0
 20
0
 30
0
  0
INSERT
  8
LAYER_2
  2
AIGNBL02020172
 10
0
 20
0
 30
0
  0
INSERT
  8
LAYER_2
  2
AIGNBL02020173
 10
0
 20
0
 30
0
  0
INSERT
  8
LAYER_2
  2
AIGNBL02020174
 10
0
 20
0
 30
0
  0
INSERT
  8
LAYER_2
  2
AIGNBL02020175
 10
0
 20
0
 30
0
  0
INSERT
  8
LAYER_2
  2
AIGNBL02020176
 10
0
 20
0
 30
0
  0
INSERT
  8
LAYER_2
  2
AIGNBL02020177
 10
0
 20
0
 30
0
  0
INSERT
  8
LAYER_2
  2
AIGNBL02020178
 10
0
 20
0
 30
0
  0
INSERT
  8
LAYER_2
  2
AIGNBL02020179
 10
0
 20
0
 30
0
  0
INSERT
  8
LAYER_2
  2
AIGNBL0202017A
 10
0
 20
0
 30
0
  0
INSERT
  8
LAYER_2
  2
AIGNBL0202017B
 10
0
 20
0
 30
0
  0
INSERT
  8
LAYER_2
  2
AIGNBL0202017C
 10
0
 20
0
 30
0
  0
INSERT
  8
LAYER_2
  2
AIGNBL0202017D
 10
0
 20
0
 30
0
  0
INSERT
  8
LAYER_2
  2
AIGNBL0202017E
 10
0
 20
0
 30
0
  0
INSERT
  8
LAYER_2
  2
AIGNBL0202017F
 10
0
 20
0
 30
0
  0
INSERT
  8
LAYER_2
  2
AIGNBL02020180
 10
0
 20
0
 30
0
  0
INSERT
  8
LAYER_2
  2
AIGNBL02020181
 10
0
 20
0
 30
0
  0
INSERT
  8
LAYER_2
  2
AIGNBL02020182
 10
0
 20
0
 30
0
  0
INSERT
  8
LAYER_2
  2
AIGNBL02020183
 10
0
 20
0
 30
0
  0
INSERT
  8
LAYER_2
  2
AIGNBL02020184
 10
0
 20
0
 30
0
  0
INSERT
  8
LAYER_2
  2
AIGNBL02020185
 10
0
 20
0
 30
0
  0
INSERT
  8
LAYER_2
  2
AIGNBL02020186
 10
0
 20
0
 30
0
  0
INSERT
  8
LAYER_2
  2
AIGNBL02020187
 10
0
 20
0
 30
0
  0
INSERT
  8
LAYER_2
  2
AIGNBL02020188
 10
0
 20
0
 30
0
  0
INSERT
  8
LAYER_2
  2
AIGNBL02020189
 10
0
 20
0
 30
0
  0
INSERT
  8
LAYER_2
  2
AIGNBL0202018A
 10
0
 20
0
 30
0
  0
INSERT
  8
LAYER_2
  2
AIGNBL0202018B
 10
0
 20
0
 30
0
  0
INSERT
  8
LAYER_2
  2
AIGNBL0202018C
 10
0
 20
0
 30
0
  0
INSERT
  8
LAYER_2
  2
AIGNBL0202018D
 10
0
 20
0
 30
0
  0
INSERT
  8
LAYER_2
  2
AIGNBL0202018E
 10
0
 20
0
 30
0
  0
INSERT
  8
LAYER_2
  2
AIGNBL0202018F
 10
0
 20
0
 30
0
  0
INSERT
  8
LAYER_2
  2
AIGNBL02020190
 10
0
 20
0
 30
0
  0
INSERT
  8
LAYER_2
  2
AIGNBL02020191
 10
0
 20
0
 30
0
  0
INSERT
  8
LAYER_2
  2
AIGNBL02020192
 10
0
 20
0
 30
0
  0
INSERT
  8
LAYER_2
  2
AIGNBL02020193
 10
0
 20
0
 30
0
  0
INSERT
  8
LAYER_2
  2
AIGNBL02020194
 10
0
 20
0
 30
0
  0
INSERT
  8
LAYER_2
  2
AIGNBL02020195
 10
0
 20
0
 30
0
  0
INSERT
  8
LAYER_2
  2
AIGNBL02020196
 10
0
 20
0
 30
0
  0
INSERT
  8
LAYER_2
  2
AIGNBL02020197
 10
0
 20
0
 30
0
  0
INSERT
  8
LAYER_2
  2
AIGNBL02020198
 10
0
 20
0
 30
0
  0
INSERT
  8
LAYER_2
  2
AIGNBL02020199
 10
0
 20
0
 30
0
  0
INSERT
  8
LAYER_2
  2
AIGNBL0202019A
 10
0
 20
0
 30
0
  0
INSERT
  8
LAYER_2
  2
AIGNBL0202019B
 10
0
 20
0
 30
0
  0
INSERT
  8
LAYER_2
  2
AIGNBL0202019C
 10
0
 20
0
 30
0
  0
INSERT
  8
LAYER_2
  2
AIGNBL0202019D
 10
0
 20
0
 30
0
  0
INSERT
  8
LAYER_2
  2
AIGNBL0202019E
 10
0
 20
0
 30
0
  0
INSERT
  8
LAYER_2
  2
AIGNBL0202019F
 10
0
 20
0
 30
0
  0
INSERT
  8
LAYER_2
  2
AIGNBL020201A0
 10
0
 20
0
 30
0
  0
INSERT
  8
LAYER_2
  2
AIGNBL020201A1
 10
0
 20
0
 30
0
  0
INSERT
  8
LAYER_2
  2
AIGNBL020201A2
 10
0
 20
0
 30
0
  0
INSERT
  8
LAYER_2
  2
AIGNBL020201A3
 10
0
 20
0
 30
0
  0
INSERT
  8
LAYER_2
  2
AIGNBL020201A4
 10
0
 20
0
 30
0
  0
INSERT
  8
LAYER_2
  2
AIGNBL020201A5
 10
0
 20
0
 30
0
  0
INSERT
  8
LAYER_2
  2
AIGNBL020201A6
 10
0
 20
0
 30
0
  0
INSERT
  8
LAYER_2
  2
AIGNBL020201A7
 10
0
 20
0
 30
0
  0
INSERT
  8
LAYER_2
  2
AIGNBL020201A8
 10
0
 20
0
 30
0
  0
INSERT
  8
LAYER_2
  2
AIGNBL020201A9
 10
0
 20
0
 30
0
  0
INSERT
  8
LAYER_2
  2
AIGNBL020201AA
 10
0
 20
0
 30
0
  0
INSERT
  8
LAYER_2
  2
AIGNBL020201AB
 10
0
 20
0
 30
0
  0
INSERT
  8
LAYER_2
  2
AIGNBL020201AC
 10
0
 20
0
 30
0
  0
INSERT
  8
LAYER_2
  2
AIGNBL020201AD
 10
0
 20
0
 30
0
  0
INSERT
  8
LAYER_2
  2
AIGNBL020201AE
 10
0
 20
0
 30
0
  0
INSERT
  8
LAYER_2
  2
AIGNBL020201AF
 10
0
 20
0
 30
0
  0
INSERT
  8
LAYER_2
  2
AIGNBL020201B0
 10
0
 20
0
 30
0
  0
INSERT
  8
LAYER_2
  2
AIGNBL020201B1
 10
0
 20
0
 30
0
  0
INSERT
  8
LAYER_2
  2
AIGNBL020201B2
 10
0
 20
0
 30
0
  0
INSERT
  8
LAYER_2
  2
AIGNBL020201B3
 10
0
 20
0
 30
0
  0
INSERT
  8
LAYER_2
  2
AIGNBL020201B4
 10
0
 20
0
 30
0
  0
INSERT
  8
LAYER_2
  2
AIGNBL020201B5
 10
0
 20
0
 30
0
  0
INSERT
  8
LAYER_2
  2
AIGNBL020201B6
 10
0
 20
0
 30
0
  0
INSERT
  8
LAYER_2
  2
AIGNBL020201B7
 10
0
 20
0
 30
0
  0
INSERT
  8
LAYER_2
  2
AIGNBL020201B8
 10
0
 20
0
 30
0
  0
INSERT
  8
LAYER_2
  2
AIGNBL020201B9
 10
0
 20
0
 30
0
  0
INSERT
  8
LAYER_2
  2
AIGNBL020201BA
 10
0
 20
0
 30
0
  0
INSERT
  8
LAYER_2
  2
AIGNBL020201BB
 10
0
 20
0
 30
0
  0
INSERT
  8
LAYER_2
  2
AIGNBL020201BC
 10
0
 20
0
 30
0
  0
INSERT
  8
LAYER_2
  2
AIGNBL020201BD
 10
0
 20
0
 30
0
  0
INSERT
  8
LAYER_2
  2
AIGNBL020201BE
 10
0
 20
0
 30
0
  0
INSERT
  8
LAYER_2
  2
AIGNBL020201BF
 10
0
 20
0
 30
0
  0
INSERT
  8
LAYER_2
  2
AIGNBL020201C0
 10
0
 20
0
 30
0
  0
INSERT
  8
LAYER_2
  2
AIGNBL020201C1
 10
0
 20
0
 30
0
  0
INSERT
  8
LAYER_2
  2
AIGNBL020201C2
 10
0
 20
0
 30
0
  0
INSERT
  8
LAYER_2
  2
AIGNBL020201C3
 10
0
 20
0
 30
0
  0
INSERT
  8
LAYER_2
  2
AIGNBL020201C4
 10
0
 20
0
 30
0
  0
INSERT
  8
LAYER_2
  2
AIGNBL020201C5
 10
0
 20
0
 30
0
  0
INSERT
  8
LAYER_2
  2
AIGNBL020201C6
 10
0
 20
0
 30
0
  0
INSERT
  8
LAYER_2
  2
AIGNBL020201C7
 10
0
 20
0
 30
0
  0
INSERT
  8
LAYER_2
  2
AIGNBL020201C8
 10
0
 20
0
 30
0
  0
INSERT
  8
LAYER_2
  2
AIGNBL020201C9
 10
0
 20
0
 30
0
  0
INSERT
  8
LAYER_2
  2
AIGNBL020201CA
 10
0
 20
0
 30
0
  0
INSERT
  8
LAYER_2
  2
AIGNBL020201CB
 10
0
 20
0
 30
0
  0
INSERT
  8
LAYER_2
  2
AIGNBL020201CC
 10
0
 20
0
 30
0
  0
INSERT
  8
LAYER_2
  2
AIGNBL020201CD
 10
0
 20
0
 30
0
  0
INSERT
  8
LAYER_2
  2
AIGNBL020201CE
 10
0
 20
0
 30
0
  0
INSERT
  8
LAYER_2
  2
AIGNBL020201CF
 10
0
 20
0
 30
0
  0
INSERT
  8
LAYER_2
  2
AIGNBL020201D0
 10
0
 20
0
 30
0
  0
INSERT
  8
LAYER_2
  2
AIGNBL020201D1
 10
0
 20
0
 30
0
  0
INSERT
  8
LAYER_2
  2
AIGNBL020201D2
 10
0
 20
0
 30
0
  0
INSERT
  8
LAYER_2
  2
AIGNBL020201D3
 10
0
 20
0
 30
0
  0
INSERT
  8
LAYER_2
  2
AIGNBL020201D4
 10
0
 20
0
 30
0
  0
ENDBLK
  0
BLOCK
  8
LAYER_2
  2
AIGNBL020101D5
 70
64
 10
0
 20
0
 30
0
  3
AIGNBL020101D5
  0
LINE
  8
LAYER_2
 10
-55.3892
 20
233.1971
 11
-53.2146
 21
235.0219
  0
ENDBLK
  0
BLOCK
  8
LAYER_2
  2
AIGNBL020101D6
 70
64
 10
0
 20
0
 30
0
  3
AIGNBL020101D6
  0
LINE
  8
LAYER_2
  6
AIGENLINE002
 10
-40.153
 20
244.0575
 11
-50.4439
 21
235.4224
  0
ARC
  8
LAYER_2
  6
AIGENLINE002
 10
-50.6354
 20
235.6685
 40
0.3119
 50
223.460579
 51
307.8909039
  0
LINE
  8
LAYER_2
  6
AIGENLINE002
 10
-50.8618
 20
235.454
 11
-51.6323
 21
236.3502
  0
LINE
  8
LAYER_2
  6
AIGENLINE002
 10
-51.6323
 20
236.3502
 11
-52.3811
 21
237.2646
  0
ARC
  8
LAYER_2
  6
AIGENLINE002
 10
-52.1308
 20
237.4503
 40
0.3117
 50
132.0636772
 51
216.5722623
  0
LINE
  8
LAYER_2
  6
AIGENLINE002
 10
-52.3396
 20
237.6817
 11
-42.0488
 21
246.3167
  0
ENDBLK
  0
BLOCK
  8
LAYER_3
  2
AIGNBL03010002
 70
64
 10
0
 20
0
 30
0
  3
AIGNBL03010002
  0
ARC
  8
LAYER_3
 10
181.2361
 20
51.0518
 40
2.085
 50
359.9990616
 51
90.00093841
  0
ARC
  8
LAYER_3
 10
181.2364
 20
51.0522
 40
2.0846
 50
90.00927268
 51
180.0099666
  0
ARC
  8
LAYER_3
 10
181.2361
 20
51.0519
 40
2.0843
 50
180.0023133
 51
270.0004358
  0
ARC
  8
LAYER_3
 10
181.2365
 20
51.0522
 40
2.0846
 50
269.9893525
 51
359.9886593
  0
ARC
  8
LAYER_3
 10
181.2365
 20
51.0515
 40
1.2199
 50
0.01483428533
 51
90.01804168
  0
ARC
  8
LAYER_3
 10
181.2361
 20
51.0519
 40
1.2195
 50
90.00175626
 51
180.0029419
  0
ARC
  8
LAYER_3
 10
181.2361
 20
51.0518
 40
1.2195
 50
180.0016044
 51
269.9983956
  0
ARC
  8
LAYER_3
 10
181.2365
 20
51.0522
 40
1.2199
 50
269.9818051
 51
359.9806209
  0
LINE
  8
LAYER_3
 10
184.9472
 20
49.8323
 11
184.9472
 21
52.2714
  0
LINE
  8
LAYER_3
 10
190.1252
 20
48.9676
 11
190.1252
 21
53.1368
  0
LINE
  8
LAYER_3
 10
184.9472
 20
52.2714
 11
190.1252
 21
53.1368
  0
LINE
  8
LAYER_3
 10
184.9472
 20
49.8323
 11
190.1252
 21
48.9676
  0
LINE
  8
LAYER_3
 10
181.2361
 20
51.0518
 11
181.2361
 21
50.8004
  0
LINE
  8
LAYER_3
 10
181.2361
 20
50.5599
 11
181.2361
 21
48.3729
  0
LINE
  8
LAYER_3
 10
181.2361
 20
51.0518
 11
181.4883
 21
51.0518
  0
LINE
  8
LAYER_3
 10
181.7288
 20
51.0518
 11
183.9157
 21
51.0518
  0
LINE
  8
LAYER_3
 10
181.2361
 20
51.0518
 11
181.2361
 21
51.304
  0
LINE
  8
LAYER_3
 10
181.2361
 20
51.5445
 11
181.2361
 21
53.7314
  0
LINE
  8
LAYER_3
 10
181.2361
 20
51.0518
 11
180.9846
 21
51.0518
  0
LINE
  8
LAYER_3
 10
180.7442
 20
51.0518
 11
178.5572
 21
51.0518
  0
LINE
  8
LAYER_3
 10
187.1404
 20
51.0518
 11
187.3925
 21
51.0518
  0
LINE
  8
LAYER_3
 10
187.633
 20
51.0518
 11
190.5579
 21
51.0518
  0
LINE
  8
LAYER_3
 10
187.1404
 20
51.0518
 11
186.8882
 21
51.0518
  0
LINE
  8
LAYER_3
 10
186.6477
 20
51.0518
 11
184.4614
 21
51.0518
  0
ENDBLK
  0
ENDSEC
  0
SECTION
  2
ENTITIES
  0
TEXT
  8
LAYER_1
 10
12.6554
 20
79.8153
 11
12.6554
 21
79.8153
 40
3.0923
 41
0.5
 50
89.99999999
 72
1
  1
410
  0
TEXT
  8
LAYER_1
 10
57.7911
 20
104.9679
 11
57.7911
 21
104.9679
 40
3.0923
 41
0.5
 50
89.99999999
 72
2
  1
max.45
  0
TEXT
  8
LAYER_1
 10
49.417
 20
168.6982
 11
49.417
 21
168.6982
 40
3.0923
 41
0.5
 72
2
  1
閉
  0
TEXT
  8
LAYER_1
 10
56.995
 20
179.7379
 11
56.995
 21
179.7379
 40
3.0923
 41
0.5
 72
2
  1
開
  0
TEXT
  8
LAYER_1
 10
21.1388
 20
138.7833
 11
21.1388
 21
138.7833
 40
3.0923
 41
0.5
 72
1
  1
12%%d%%p}10%%d
  0
TEXT
  8
LAYER_1
 10
47.3492
 20
143.9016
 11
47.3492
 21
143.9016
 40
3.0923
 41
0.5
 72
1
  1
185
  0
TEXT
  8
LAYER_1
 10
86.8128
 20
137.9272
 11
86.8128
 21
137.9272
 40
3.0923
 41
0.5
 50
89.99999999
 72
1
  1
263
  0
TEXT
  8
LAYER_1
 10
12.6483
 20
129.8522
 11
12.6483
 21
129.8522
 40
3.0923
 41
0.5
 50
89.99999999
 72
1
  1
197
  0
TEXT
  8
LAYER_1
 10
5.1628
 20
141.9269
 11
5.1628
 21
141.9269
 40
3.0923
 41
0.5
 50
89.99999999
 72
1
  1
308
  0
TEXT
  8
LAYER_1
 10
-37.077
 20
117.6727
 11
-37.077
 21
117.6727
 40
3.0923
 41
0.5
 72
1
  1
%%c40
  0
TEXT
  8
LAYER_1
 10
-37.0904
 20
112.5216
 11
-37.0904
 21
112.5216
 40
3.0923
 41
0.5
 72
1
  1
%%c48
  0
TEXT
  8
LAYER_1
 10
-47.8023
 20
101.6579
 11
-47.8023
 21
101.6579
 40
3.0923
 41
0.5
  1
M33
  0
TEXT
  8
LAYER_1
 10
-53.5573
 20
236.0297
 11
-53.5573
 21
236.0297
 40
3.0923
 41
0.5
 72
2
  1
湯
  0
TEXT
  8
LAYER_1
 10
-46.5591
 20
222.6484
 11
-46.5591
 21
222.6484
 40
3.0923
 41
0.5
 72
1
  1
50%%d
  0
TEXT
  8
LAYER_1
 10
-25.6525
 20
222.6484
 11
-25.6525
 21
222.6484
 40
3.0923
 41
0.5
 72
1
  1
50%%d
  0
TEXT
  8
LAYER_1
 10
-19.1539
 20
235.9842
 11
-19.1539
 21
235.9842
 40
3.0923
 41
0.5
  1
水
  0
TEXT
  8
LAYER_1
 10
70.5802
 20
236.5235
 11
70.5802
 21
236.5235
 40
3.0923
 41
0.5
 72
1
  1
水栓取付穴
  0
TEXT
  8
LAYER_1
 10
82.3318
 20
257.0177
 11
82.3318
 21
257.0177
 40
3.0923
 41
0.5
 72
2
  1
%%c35
  0
TEXT
  8
LAYER_1
 10
41.6684
 20
46.9746
 11
41.6684
 21
46.9746
 40
3.0923
 41
0.5
  1
PF 3/8
  0
TEXT
  8
LAYER_1
 10
-23.3712
 20
48.8732
 11
-23.3712
 21
48.8732
 40
3.0923
 41
0.5
 72
1
  1
水側
  0
TEXT
  8
LAYER_1
 10
-49.1934
 20
48.8732
 11
-49.1934
 21
48.8732
 40
3.0923
 41
0.5
 72
1
  1
湯側
  0
LINE
  8
LAYER_2
 10
63.9963
 20
97.8531
 11
58.1941
 21
97.8531
  0
INSERT
  8
LAYER_2
  2
AIGNBL02010002
 10
0
 20
0
 30
0
  0
LINE
  8
LAYER_2
 10
49.3003
 20
54.2785
 11
12.7066
 21
54.278
  0
INSERT
  8
LAYER_2
  2
AIGNBL02010003
 10
0
 20
0
 30
0
  0
LINE
  8
LAYER_2
 10
66.4551
 20
97.8531
 11
66.4551
 21
105.3531
  0
LINE
  8
LAYER_2
 10
66.4551
 20
105.3531
 11
74.7047
 21
105.3531
  0
LINE
  8
LAYER_2
 10
74.7047
 20
105.3531
 11
74.7047
 21
97.8531
  0
LINE
  8
LAYER_2
 10
66.7049
 20
105.3531
 11
66.7049
 21
97.8531
  0
LINE
  8
LAYER_2
 10
74.455
 20
105.3531
 11
74.455
 21
97.8531
  0
LINE
  8
LAYER_2
 10
74.7047
 20
92.6031
 11
74.7047
 21
91.8531
  0
LINE
  8
LAYER_2
 10
74.7047
 20
91.8531
 11
74.455
 21
91.6032
  0
LINE
  8
LAYER_2
 10
74.455
 20
91.6032
 11
66.7049
 21
91.6032
  0
LINE
  8
LAYER_2
 10
66.7049
 20
91.6032
 11
66.4551
 21
91.8531
  0
LINE
  8
LAYER_2
 10
66.4551
 20
91.8531
 11
66.4551
 21
92.6031
  0
LINE
  8
LAYER_2
 10
74.7047
 20
91.8531
 11
66.4551
 21
91.8531
  0
LINE
  8
LAYER_2
 10
66.7049
 20
92.6031
 11
66.7049
 21
91.6032
  0
LINE
  8
LAYER_2
 10
74.455
 20
92.6031
 11
74.455
 21
91.6032
  0
LINE
  8
LAYER_2
  6
AIGENLINE001
 10
70.5799
 20
175.2167
 11
70.5799
 21
66.8352
  0
LINE
  8
LAYER_2
  6
AIGENLINE001
 10
63.6415
 20
249.2052
 11
77.3571
 21
249.2052
  0
CIRCLE
  8
LAYER_2
 10
70.5799
 20
249.2052
 40
4.3751
  0
LINE
  8
LAYER_2
  6
AIGENLINE001
 10
70.5799
 20
255.5259
 11
70.5799
 21
242.3739
  0
INSERT
  8
LAYER_2
  2
AIGNBL02010004
 10
0
 20
0
 30
0
  0
LINE
  8
LAYER_2
 10
77.6927
 20
256.3176
 11
83.4797
 21
256.3176
  0
INSERT
  8
LAYER_2
  2
AIGNBL02010005
 10
0
 20
0
 30
0
  0
LINE
  8
LAYER_2
 10
87.5642
 20
105.3531
 11
87.5642
 21
170.7286
  0
LINE
  8
LAYER_2
 10
88.1568
 20
168.517
 11
87.5642
 21
170.7286
  0
LINE
  8
LAYER_2
 10
87.5642
 20
170.7286
 11
86.9717
 21
168.517
  0
LINE
  8
LAYER_2
 10
86.9717
 20
168.517
 11
88.1568
 21
168.517
  0
LINE
  8
LAYER_2
 10
86.9862
 20
107.5645
 11
87.5787
 21
105.3531
  0
LINE
  8
LAYER_2
 10
87.5787
 20
105.3531
 11
88.1713
 21
107.5645
  0
LINE
  8
LAYER_2
 10
88.1713
 20
107.5645
 11
86.9862
 21
107.5645
  0
LINE
  8
LAYER_2
 10
77.2951
 20
170.7286
 11
88.7094
 21
170.7286
  0
LINE
  8
LAYER_2
 10
13.3997
 20
105.3526
 11
13.3997
 21
154.518
  0
LINE
  8
LAYER_2
 10
13.9923
 20
152.3064
 11
13.3997
 21
154.518
  0
LINE
  8
LAYER_2
 10
13.3997
 20
154.518
 11
12.8072
 21
152.3064
  0
LINE
  8
LAYER_2
 10
12.8072
 20
152.3064
 11
13.9923
 21
152.3064
  0
LINE
  8
LAYER_2
 10
12.8217
 20
107.564
 11
13.4142
 21
105.3526
  0
LINE
  8
LAYER_2
 10
13.4142
 20
105.3526
 11
14.0068
 21
107.564
  0
LINE
  8
LAYER_2
 10
14.0068
 20
107.564
 11
12.8217
 21
107.564
  0
LINE
  8
LAYER_2
 10
5.9143
 20
105.3526
 11
5.9143
 21
178.5156
  0
LINE
  8
LAYER_2
 10
6.5068
 20
176.304
 11
5.9143
 21
178.5156
  0
LINE
  8
LAYER_2
 10
5.9143
 20
178.5156
 11
5.3217
 21
176.304
  0
LINE
  8
LAYER_2
 10
5.3217
 20
176.304
 11
6.5068
 21
176.304
  0
LINE
  8
LAYER_2
 10
5.3362
 20
107.564
 11
5.9287
 21
105.3526
  0
LINE
  8
LAYER_2
 10
5.9287
 20
105.3526
 11
6.5213
 21
107.564
  0
LINE
  8
LAYER_2
 10
6.5213
 20
107.564
 11
5.3362
 21
107.564
  0
LINE
  8
LAYER_2
 10
12.6997
 20
154.518
 11
22.5102
 21
154.518
  0
LINE
  8
LAYER_2
 10
5.2142
 20
178.5156
 11
54.3718
 21
178.5161
  0
ARC
  8
LAYER_2
 10
24.3766
 20
152.5781
 40
9.5842
 50
226.0108549
 51
256.4031752
  0
ARC
  8
LAYER_2
 10
24.3361
 20
152.5481
 40
9.5455
 50
256.5972095
 51
270.0379013
  0
LINE
  8
LAYER_2
 10
18.8233
 20
144.1469
 11
21.0395
 21
143.573
  0
LINE
  8
LAYER_2
 10
21.0395
 20
143.573
 11
19.4069
 21
145.1786
  0
LINE
  8
LAYER_2
 10
19.4069
 20
145.1786
 11
18.8233
 21
144.1469
  0
LINE
  8
LAYER_2
 10
70.5799
 20
143.0031
 11
24.3306
 21
143.0026
  0
LINE
  8
LAYER_2
 10
26.542
 20
143.5952
 11
24.3306
 21
143.0026
  0
LINE
  8
LAYER_2
 10
24.3306
 20
143.0026
 11
26.542
 21
142.4101
  0
LINE
  8
LAYER_2
 10
26.542
 20
142.4101
 11
26.542
 21
143.5952
  0
LINE
  8
LAYER_2
 10
68.3685
 20
142.425
 11
70.5799
 21
143.0176
  0
LINE
  8
LAYER_2
 10
70.5799
 20
143.0176
 11
68.3685
 21
143.6102
  0
LINE
  8
LAYER_2
 10
68.3685
 20
143.6102
 11
68.3685
 21
142.425
  0
LINE
  8
LAYER_2
 10
24.3306
 20
153.0518
 11
24.3306
 21
142.3026
  0
LINE
  8
LAYER_2
 10
5.2287
 20
105.3526
 11
63.4252
 21
105.3531
  0
LINE
  8
LAYER_2
 10
77.6417
 20
105.3531
 11
88.9071
 21
105.3531
  0
LINE
  8
LAYER_2
  6
AIGENLINE003
 10
24.0006
 20
153.0764
 11
24.9963
 21
157.7608
  0
INSERT
  8
LAYER_2
  2
AIGNBL02010007
 10
0
 20
0
 30
0
  0
LINE
  8
LAYER_2
  6
AIGENLINE002
 10
78.2993
 20
169.6232
 11
74.101
 21
171.3939
  0
LINE
  8
LAYER_2
  6
AIGENLINE002
 10
74.101
 20
171.3939
 11
55.7339
 21
178.495
  0
ARC
  8
LAYER_2
  6
AIGENLINE002
 10
55.6305
 20
178.2041
 40
0.3087
 50
70.43019543
 51
155.9346769
  0
LINE
  8
LAYER_2
  6
AIGENLINE002
 10
55.3486
 20
178.33
 11
54.7494
 21
176.7802
  0
ARC
  8
LAYER_2
  6
AIGENLINE002
 10
55.0395
 20
176.6823
 40
0.3061
 50
161.3532024
 51
247.74064
  0
LINE
  8
LAYER_2
  6
AIGENLINE002
 10
54.9235
 20
176.399
 11
67.46
 21
171.5521
  0
LINE
  8
LAYER_2
  6
AIGENLINE002
 10
67.46
 20
171.5521
 11
68.3882
 21
171.0571
  0
LINE
  8
LAYER_2
  6
AIGENLINE002
 10
68.3882
 20
171.0571
 11
77.8646
 21
167.3933
  0
LINE
  8
LAYER_2
  6
AIGENLINE002
 10
77.8646
 20
167.3933
 11
77.9727
 21
167.673
  0
ARC
  8
LAYER_2
  6
AIGENLINE002
 10
82.5481
 20
165.924
 40
4.8983
 50
151.0086075
 51
159.080101
  0
LINE
  8
LAYER_2
  6
AIGENLINE002
 10
78.2636
 20
168.2981
 11
78.5434
 21
169.022
  0
ARC
  8
LAYER_2
  6
AIGENLINE002
 10
78.0809
 20
169.1844
 40
0.4902
 50
340.6550248
 51
63.54137462
  0
LINE
  8
LAYER_2
  6
AIGENLINE001
 10
-28.3823
 20
249.2052
 11
-44.8109
 21
249.2052
  0
LINE
  8
LAYER_2
  6
AIGENLINE001
 10
-36.3116
 20
197.203
 11
-36.3116
 21
257.9999
  0
LINE
  8
LAYER_2
  6
AIGENLINE001
 10
-36.3116
 20
121.5175
 11
-36.3116
 21
173.7593
  0
LINE
  8
LAYER_2
  6
AIGENLINE001
 10
-19.7371
 20
235.2976
 11
-36.3116
 21
249.2052
  0
INSERT
  8
LAYER_2
  2
AIGNBL02010008
 10
0
 20
0
 30
0
  0
INSERT
  8
LAYER_2
  2
AIGNBL02010009
 10
0
 20
0
 30
0
  0
INSERT
  8
LAYER_2
  2
AIGNBL0201000A
 10
0
 20
0
 30
0
  0
INSERT
  8
LAYER_2
  2
AIGNBL0201000B
 10
0
 20
0
 30
0
  0
INSERT
  8
LAYER_2
  2
AIGNBL0201000C
 10
0
 20
0
 30
0
  0
LINE
  8
LAYER_2
 10
-34.1405
 20
225.4943
 11
-36.3116
 21
224.7674
  0
LINE
  8
LAYER_2
 10
-36.3116
 20
224.7674
 11
-34.0681
 21
224.3116
  0
LINE
  8
LAYER_2
 10
-34.0681
 20
224.3116
 11
-34.1405
 21
225.4943
  0
LINE
  8
LAYER_2
 10
-18.6439
 20
231.4636
 11
-17.5907
 21
233.4965
  0
LINE
  8
LAYER_2
 10
-17.5907
 20
233.4965
 11
-19.5189
 21
232.2626
  0
LINE
  8
LAYER_2
 10
-19.5189
 20
232.2626
 11
-18.6439
 21
231.4636
  0
INSERT
  8
LAYER_2
  2
AIGNBL0201000D
 10
0
 20
0
 30
0
  0
INSERT
  8
LAYER_2
  2
AIGNBL0201000E
 10
0
 20
0
 30
0
  0
INSERT
  8
LAYER_2
  2
AIGNBL0201000F
 10
0
 20
0
 30
0
  0
INSERT
  8
LAYER_2
  2
AIGNBL02010010
 10
0
 20
0
 30
0
  0
INSERT
  8
LAYER_2
  2
AIGNBL02010011
 10
0
 20
0
 30
0
  0
INSERT
  8
LAYER_2
  2
AIGNBL02010012
 10
0
 20
0
 30
0
  0
INSERT
  8
LAYER_2
  2
AIGNBL02010013
 10
0
 20
0
 30
0
  0
INSERT
  8
LAYER_2
  2
AIGNBL02010014
 10
0
 20
0
 30
0
  0
INSERT
  8
LAYER_2
  2
AIGNBL02010015
 10
0
 20
0
 30
0
  0
INSERT
  8
LAYER_2
  2
AIGNBL02010016
 10
0
 20
0
 30
0
  0
INSERT
  8
LAYER_2
  2
AIGNBL02010017
 10
0
 20
0
 30
0
  0
INSERT
  8
LAYER_2
  2
AIGNBL02010018
 10
0
 20
0
 30
0
  0
INSERT
  8
LAYER_2
  2
AIGNBL02010019
 10
0
 20
0
 30
0
  0
INSERT
  8
LAYER_2
  2
AIGNBL0201001A
 10
0
 20
0
 30
0
  0
INSERT
  8
LAYER_2
  2
AIGNBL0201001B
 10
0
 20
0
 30
0
  0
INSERT
  8
LAYER_2
  2
AIGNBL0201001C
 10
0
 20
0
 30
0
  0
INSERT
  8
LAYER_2
  2
AIGNBL0201001D
 10
0
 20
0
 30
0
  0
INSERT
  8
LAYER_2
  2
AIGNBL0201001E
 10
0
 20
0
 30
0
  0
INSERT
  8
LAYER_2
  2
AIGNBL0201001F
 10
0
 20
0
 30
0
  0
INSERT
  8
LAYER_2
  2
AIGNBL02010020
 10
0
 20
0
 30
0
  0
INSERT
  8
LAYER_2
  2
AIGNBL02010021
 10
0
 20
0
 30
0
  0
INSERT
  8
LAYER_2
  2
AIGNBL02010022
 10
0
 20
0
 30
0
  0
INSERT
  8
LAYER_2
  2
AIGNBL02010023
 10
0
 20
0
 30
0
  0
INSERT
  8
LAYER_2
  2
AIGNBL02010024
 10
0
 20
0
 30
0
  0
INSERT
  8
LAYER_2
  2
AIGNBL02010025
 10
0
 20
0
 30
0
  0
INSERT
  8
LAYER_2
  2
AIGNBL02010026
 10
0
 20
0
 30
0
  0
INSERT
  8
LAYER_2
  2
AIGNBL02010027
 10
0
 20
0
 30
0
  0
INSERT
  8
LAYER_2
  2
AIGNBL02010028
 10
0
 20
0
 30
0
  0
INSERT
  8
LAYER_2
  2
AIGNBL02010029
 10
0
 20
0
 30
0
  0
INSERT
  8
LAYER_2
  2
AIGNBL0201002A
 10
0
 20
0
 30
0
  0
INSERT
  8
LAYER_2
  2
AIGNBL0201002B
 10
0
 20
0
 30
0
  0
INSERT
  8
LAYER_2
  2
AIGNBL0201002C
 10
0
 20
0
 30
0
  0
INSERT
  8
LAYER_2
  2
AIGNBL0201002D
 10
0
 20
0
 30
0
  0
INSERT
  8
LAYER_2
  2
AIGNBL0201002E
 10
0
 20
0
 30
0
  0
INSERT
  8
LAYER_2
  2
AIGNBL0201002F
 10
0
 20
0
 30
0
  0
INSERT
  8
LAYER_2
  2
AIGNBL02010030
 10
0
 20
0
 30
0
  0
INSERT
  8
LAYER_2
  2
AIGNBL02010031
 10
0
 20
0
 30
0
  0
INSERT
  8
LAYER_2
  2
AIGNBL02010032
 10
0
 20
0
 30
0
  0
INSERT
  8
LAYER_2
  2
AIGNBL02010033
 10
0
 20
0
 30
0
  0
INSERT
  8
LAYER_2
  2
AIGNBL02010034
 10
0
 20
0
 30
0
  0
INSERT
  8
LAYER_2
  2
AIGNBL02010035
 10
0
 20
0
 30
0
  0
INSERT
  8
LAYER_2
  2
AIGNBL02010036
 10
0
 20
0
 30
0
  0
INSERT
  8
LAYER_2
  2
AIGNBL02010037
 10
0
 20
0
 30
0
  0
INSERT
  8
LAYER_2
  2
AIGNBL02010038
 10
0
 20
0
 30
0
  0
INSERT
  8
LAYER_2
  2
AIGNBL02010039
 10
0
 20
0
 30
0
  0
INSERT
  8
LAYER_2
  2
AIGNBL0201003A
 10
0
 20
0
 30
0
  0
INSERT
  8
LAYER_2
  2
AIGNBL0201003B
 10
0
 20
0
 30
0
  0
INSERT
  8
LAYER_2
  2
AIGNBL0201003C
 10
0
 20
0
 30
0
  0
INSERT
  8
LAYER_2
  2
AIGNBL0201003D
 10
0
 20
0
 30
0
  0
INSERT
  8
LAYER_2
  2
AIGNBL0201003E
 10
0
 20
0
 30
0
  0
INSERT
  8
LAYER_2
  2
AIGNBL0201003F
 10
0
 20
0
 30
0
  0
INSERT
  8
LAYER_2
  2
AIGNBL02010040
 10
0
 20
0
 30
0
  0
INSERT
  8
LAYER_2
  2
AIGNBL02010041
 10
0
 20
0
 30
0
  0
INSERT
  8
LAYER_2
  2
AIGNBL02010042
 10
0
 20
0
 30
0
  0
INSERT
  8
LAYER_2
  2
AIGNBL02010043
 10
0
 20
0
 30
0
  0
INSERT
  8
LAYER_2
  2
AIGNBL02010044
 10
0
 20
0
 30
0
  0
INSERT
  8
LAYER_2
  2
AIGNBL02010045
 10
0
 20
0
 30
0
  0
INSERT
  8
LAYER_2
  2
AIGNBL02010046
 10
0
 20
0
 30
0
  0
INSERT
  8
LAYER_2
  2
AIGNBL02010047
 10
0
 20
0
 30
0
  0
INSERT
  8
LAYER_2
  2
AIGNBL02010048
 10
0
 20
0
 30
0
  0
INSERT
  8
LAYER_2
  2
AIGNBL02010049
 10
0
 20
0
 30
0
  0
INSERT
  8
LAYER_2
  2
AIGNBL0201004A
 10
0
 20
0
 30
0
  0
INSERT
  8
LAYER_2
  2
AIGNBL0201004B
 10
0
 20
0
 30
0
  0
INSERT
  8
LAYER_2
  2
AIGNBL0201004C
 10
0
 20
0
 30
0
  0
INSERT
  8
LAYER_2
  2
AIGNBL0201004D
 10
0
 20
0
 30
0
  0
INSERT
  8
LAYER_2
  2
AIGNBL0201004E
 10
0
 20
0
 30
0
  0
INSERT
  8
LAYER_2
  2
AIGNBL0201004F
 10
0
 20
0
 30
0
  0
INSERT
  8
LAYER_2
  2
AIGNBL02010050
 10
0
 20
0
 30
0
  0
INSERT
  8
LAYER_2
  2
AIGNBL02010051
 10
0
 20
0
 30
0
  0
INSERT
  8
LAYER_2
  2
AIGNBL02010052
 10
0
 20
0
 30
0
  0
INSERT
  8
LAYER_2
  2
AIGNBL02010053
 10
0
 20
0
 30
0
  0
INSERT
  8
LAYER_2
  2
AIGNBL02010054
 10
0
 20
0
 30
0
  0
INSERT
  8
LAYER_2
  2
AIGNBL02010055
 10
0
 20
0
 30
0
  0
INSERT
  8
LAYER_2
  2
AIGNBL02010056
 10
0
 20
0
 30
0
  0
INSERT
  8
LAYER_2
  2
AIGNBL02010057
 10
0
 20
0
 30
0
  0
INSERT
  8
LAYER_2
  2
AIGNBL02010058
 10
0
 20
0
 30
0
  0
INSERT
  8
LAYER_2
  2
AIGNBL02010059
 10
0
 20
0
 30
0
  0
INSERT
  8
LAYER_2
  2
AIGNBL0201005A
 10
0
 20
0
 30
0
  0
INSERT
  8
LAYER_2
  2
AIGNBL0201005B
 10
0
 20
0
 30
0
  0
INSERT
  8
LAYER_2
  2
AIGNBL0201005C
 10
0
 20
0
 30
0
  0
INSERT
  8
LAYER_2
  2
AIGNBL0201005D
 10
0
 20
0
 30
0
  0
INSERT
  8
LAYER_2
  2
AIGNBL0201005E
 10
0
 20
0
 30
0
  0
INSERT
  8
LAYER_2
  2
AIGNBL0201005F
 10
0
 20
0
 30
0
  0
INSERT
  8
LAYER_2
  2
AIGNBL02010060
 10
0
 20
0
 30
0
  0
INSERT
  8
LAYER_2
  2
AIGNBL02010061
 10
0
 20
0
 30
0
  0
INSERT
  8
LAYER_2
  2
AIGNBL02010062
 10
0
 20
0
 30
0
  0
INSERT
  8
LAYER_2
  2
AIGNBL02010063
 10
0
 20
0
 30
0
  0
INSERT
  8
LAYER_2
  2
AIGNBL02010064
 10
0
 20
0
 30
0
  0
INSERT
  8
LAYER_2
  2
AIGNBL02010065
 10
0
 20
0
 30
0
  0
INSERT
  8
LAYER_2
  2
AIGNBL02010066
 10
0
 20
0
 30
0
  0
INSERT
  8
LAYER_2
  2
AIGNBL02010067
 10
0
 20
0
 30
0
  0
INSERT
  8
LAYER_2
  2
AIGNBL02010068
 10
0
 20
0
 30
0
  0
INSERT
  8
LAYER_2
  2
AIGNBL02010069
 10
0
 20
0
 30
0
  0
INSERT
  8
LAYER_2
  2
AIGNBL0201006A
 10
0
 20
0
 30
0
  0
INSERT
  8
LAYER_2
  2
AIGNBL0201006B
 10
0
 20
0
 30
0
  0
INSERT
  8
LAYER_2
  2
AIGNBL0201006C
 10
0
 20
0
 30
0
  0
INSERT
  8
LAYER_2
  2
AIGNBL0201006D
 10
0
 20
0
 30
0
  0
INSERT
  8
LAYER_2
  2
AIGNBL0201006E
 10
0
 20
0
 30
0
  0
INSERT
  8
LAYER_2
  2
AIGNBL0201006F
 10
0
 20
0
 30
0
  0
INSERT
  8
LAYER_2
  2
AIGNBL02010070
 10
0
 20
0
 30
0
  0
INSERT
  8
LAYER_2
  2
AIGNBL02010071
 10
0
 20
0
 30
0
  0
INSERT
  8
LAYER_2
  2
AIGNBL02010072
 10
0
 20
0
 30
0
  0
INSERT
  8
LAYER_2
  2
AIGNBL02010073
 10
0
 20
0
 30
0
  0
INSERT
  8
LAYER_2
  2
AIGNBL02010074
 10
0
 20
0
 30
0
  0
INSERT
  8
LAYER_2
  2
AIGNBL02010075
 10
0
 20
0
 30
0
  0
INSERT
  8
LAYER_2
  2
AIGNBL02010076
 10
0
 20
0
 30
0
  0
INSERT
  8
LAYER_2
  2
AIGNBL02010077
 10
0
 20
0
 30
0
  0
INSERT
  8
LAYER_2
  2
AIGNBL02010078
 10
0
 20
0
 30
0
  0
INSERT
  8
LAYER_2
  2
AIGNBL02010079
 10
0
 20
0
 30
0
  0
INSERT
  8
LAYER_2
  2
AIGNBL0201007A
 10
0
 20
0
 30
0
  0
INSERT
  8
LAYER_2
  2
AIGNBL0201007B
 10
0
 20
0
 30
0
  0
INSERT
  8
LAYER_2
  2
AIGNBL0201007C
 10
0
 20
0
 30
0
  0
INSERT
  8
LAYER_2
  2
AIGNBL0201007D
 10
0
 20
0
 30
0
  0
INSERT
  8
LAYER_2
  2
AIGNBL0201007E
 10
0
 20
0
 30
0
  0
INSERT
  8
LAYER_2
  2
AIGNBL0201007F
 10
0
 20
0
 30
0
  0
INSERT
  8
LAYER_2
  2
AIGNBL02010080
 10
0
 20
0
 30
0
  0
INSERT
  8
LAYER_2
  2
AIGNBL02010081
 10
0
 20
0
 30
0
  0
INSERT
  8
LAYER_2
  2
AIGNBL02010082
 10
0
 20
0
 30
0
  0
INSERT
  8
LAYER_2
  2
AIGNBL02010083
 10
0
 20
0
 30
0
  0
INSERT
  8
LAYER_2
  2
AIGNBL02010084
 10
0
 20
0
 30
0
  0
INSERT
  8
LAYER_2
  2
AIGNBL02010085
 10
0
 20
0
 30
0
  0
INSERT
  8
LAYER_2
  2
AIGNBL02010086
 10
0
 20
0
 30
0
  0
INSERT
  8
LAYER_2
  2
AIGNBL02010087
 10
0
 20
0
 30
0
  0
INSERT
  8
LAYER_2
  2
AIGNBL02010088
 10
0
 20
0
 30
0
  0
INSERT
  8
LAYER_2
  2
AIGNBL02010089
 10
0
 20
0
 30
0
  0
INSERT
  8
LAYER_2
  2
AIGNBL0201008A
 10
0
 20
0
 30
0
  0
INSERT
  8
LAYER_2
  2
AIGNBL0201008B
 10
0
 20
0
 30
0
  0
INSERT
  8
LAYER_2
  2
AIGNBL0201008C
 10
0
 20
0
 30
0
  0
INSERT
  8
LAYER_2
  2
AIGNBL0201008D
 10
0
 20
0
 30
0
  0
INSERT
  8
LAYER_2
  2
AIGNBL0201008E
 10
0
 20
0
 30
0
  0
INSERT
  8
LAYER_2
  2
AIGNBL0201008F
 10
0
 20
0
 30
0
  0
INSERT
  8
LAYER_2
  2
AIGNBL02010090
 10
0
 20
0
 30
0
  0
INSERT
  8
LAYER_2
  2
AIGNBL02010091
 10
0
 20
0
 30
0
  0
INSERT
  8
LAYER_2
  2
AIGNBL02010092
 10
0
 20
0
 30
0
  0
INSERT
  8
LAYER_2
  2
AIGNBL02010093
 10
0
 20
0
 30
0
  0
INSERT
  8
LAYER_2
  2
AIGNBL02010094
 10
0
 20
0
 30
0
  0
INSERT
  8
LAYER_2
  2
AIGNBL02010095
 10
0
 20
0
 30
0
  0
INSERT
  8
LAYER_2
  2
AIGNBL02010096
 10
0
 20
0
 30
0
  0
INSERT
  8
LAYER_2
  2
AIGNBL02010097
 10
0
 20
0
 30
0
  0
INSERT
  8
LAYER_2
  2
AIGNBL02010098
 10
0
 20
0
 30
0
  0
INSERT
  8
LAYER_2
  2
AIGNBL02010099
 10
0
 20
0
 30
0
  0
INSERT
  8
LAYER_2
  2
AIGNBL0201009A
 10
0
 20
0
 30
0
  0
INSERT
  8
LAYER_2
  2
AIGNBL0201009B
 10
0
 20
0
 30
0
  0
INSERT
  8
LAYER_2
  2
AIGNBL0201009C
 10
0
 20
0
 30
0
  0
INSERT
  8
LAYER_2
  2
AIGNBL0201009D
 10
0
 20
0
 30
0
  0
INSERT
  8
LAYER_2
  2
AIGNBL0201009E
 10
0
 20
0
 30
0
  0
INSERT
  8
LAYER_2
  2
AIGNBL0201009F
 10
0
 20
0
 30
0
  0
INSERT
  8
LAYER_2
  2
AIGNBL020100A0
 10
0
 20
0
 30
0
  0
INSERT
  8
LAYER_2
  2
AIGNBL020100A1
 10
0
 20
0
 30
0
  0
INSERT
  8
LAYER_2
  2
AIGNBL020100A2
 10
0
 20
0
 30
0
  0
INSERT
  8
LAYER_2
  2
AIGNBL020100A3
 10
0
 20
0
 30
0
  0
INSERT
  8
LAYER_2
  2
AIGNBL020100A4
 10
0
 20
0
 30
0
  0
INSERT
  8
LAYER_2
  2
AIGNBL020100A5
 10
0
 20
0
 30
0
  0
INSERT
  8
LAYER_2
  2
AIGNBL020100A6
 10
0
 20
0
 30
0
  0
INSERT
  8
LAYER_2
  2
AIGNBL020100A7
 10
0
 20
0
 30
0
  0
INSERT
  8
LAYER_2
  2
AIGNBL020100A8
 10
0
 20
0
 30
0
  0
INSERT
  8
LAYER_2
  2
AIGNBL020100A9
 10
0
 20
0
 30
0
  0
INSERT
  8
LAYER_2
  2
AIGNBL020100AA
 10
0
 20
0
 30
0
  0
INSERT
  8
LAYER_2
  2
AIGNBL020100AB
 10
0
 20
0
 30
0
  0
INSERT
  8
LAYER_2
  2
AIGNBL020100AC
 10
0
 20
0
 30
0
  0
INSERT
  8
LAYER_2
  2
AIGNBL020100AD
 10
0
 20
0
 30
0
  0
INSERT
  8
LAYER_2
  2
AIGNBL020100AE
 10
0
 20
0
 30
0
  0
INSERT
  8
LAYER_2
  2
AIGNBL020100AF
 10
0
 20
0
 30
0
  0
INSERT
  8
LAYER_2
  2
AIGNBL020100B0
 10
0
 20
0
 30
0
  0
INSERT
  8
LAYER_2
  2
AIGNBL020100B1
 10
0
 20
0
 30
0
  0
INSERT
  8
LAYER_2
  2
AIGNBL020100B2
 10
0
 20
0
 30
0
  0
INSERT
  8
LAYER_2
  2
AIGNBL020100B3
 10
0
 20
0
 30
0
  0
INSERT
  8
LAYER_2
  2
AIGNBL020100B4
 10
0
 20
0
 30
0
  0
INSERT
  8
LAYER_2
  2
AIGNBL020100B5
 10
0
 20
0
 30
0
  0
INSERT
  8
LAYER_2
  2
AIGNBL020100B6
 10
0
 20
0
 30
0
  0
INSERT
  8
LAYER_2
  2
AIGNBL020100B7
 10
0
 20
0
 30
0
  0
INSERT
  8
LAYER_2
  2
AIGNBL020100B8
 10
0
 20
0
 30
0
  0
INSERT
  8
LAYER_2
  2
AIGNBL020100B9
 10
0
 20
0
 30
0
  0
INSERT
  8
LAYER_2
  2
AIGNBL020100BA
 10
0
 20
0
 30
0
  0
INSERT
  8
LAYER_2
  2
AIGNBL020100BB
 10
0
 20
0
 30
0
  0
INSERT
  8
LAYER_2
  2
AIGNBL020100BC
 10
0
 20
0
 30
0
  0
INSERT
  8
LAYER_2
  2
AIGNBL020100BD
 10
0
 20
0
 30
0
  0
INSERT
  8
LAYER_2
  2
AIGNBL020100BE
 10
0
 20
0
 30
0
  0
INSERT
  8
LAYER_2
  2
AIGNBL020100BF
 10
0
 20
0
 30
0
  0
INSERT
  8
LAYER_2
  2
AIGNBL020100C0
 10
0
 20
0
 30
0
  0
INSERT
  8
LAYER_2
  2
AIGNBL020100C1
 10
0
 20
0
 30
0
  0
INSERT
  8
LAYER_2
  2
AIGNBL020100C2
 10
0
 20
0
 30
0
  0
INSERT
  8
LAYER_2
  2
AIGNBL020100C3
 10
0
 20
0
 30
0
  0
INSERT
  8
LAYER_2
  2
AIGNBL020100C4
 10
0
 20
0
 30
0
  0
INSERT
  8
LAYER_2
  2
AIGNBL020100C5
 10
0
 20
0
 30
0
  0
INSERT
  8
LAYER_2
  2
AIGNBL020100C6
 10
0
 20
0
 30
0
  0
INSERT
  8
LAYER_2
  2
AIGNBL020100C7
 10
0
 20
0
 30
0
  0
INSERT
  8
LAYER_2
  2
AIGNBL020100C8
 10
0
 20
0
 30
0
  0
INSERT
  8
LAYER_2
  2
AIGNBL020100C9
 10
0
 20
0
 30
0
  0
INSERT
  8
LAYER_2
  2
AIGNBL020100CA
 10
0
 20
0
 30
0
  0
INSERT
  8
LAYER_2
  2
AIGNBL020100CB
 10
0
 20
0
 30
0
  0
INSERT
  8
LAYER_2
  2
AIGNBL020100CC
 10
0
 20
0
 30
0
  0
INSERT
  8
LAYER_2
  2
AIGNBL020100CD
 10
0
 20
0
 30
0
  0
INSERT
  8
LAYER_2
  2
AIGNBL020100CE
 10
0
 20
0
 30
0
  0
INSERT
  8
LAYER_2
  2
AIGNBL020100CF
 10
0
 20
0
 30
0
  0
INSERT
  8
LAYER_2
  2
AIGNBL020100D0
 10
0
 20
0
 30
0
  0
INSERT
  8
LAYER_2
  2
AIGNBL020100D1
 10
0
 20
0
 30
0
  0
INSERT
  8
LAYER_2
  2
AIGNBL020100D2
 10
0
 20
0
 30
0
  0
INSERT
  8
LAYER_2
  2
AIGNBL020100D3
 10
0
 20
0
 30
0
  0
INSERT
  8
LAYER_2
  2
AIGNBL020100D4
 10
0
 20
0
 30
0
  0
INSERT
  8
LAYER_2
  2
AIGNBL020100D5
 10
0
 20
0
 30
0
  0
INSERT
  8
LAYER_2
  2
AIGNBL020100D6
 10
0
 20
0
 30
0
  0
INSERT
  8
LAYER_2
  2
AIGNBL020100D7
 10
0
 20
0
 30
0
  0
INSERT
  8
LAYER_2
  2
AIGNBL020100D8
 10
0
 20
0
 30
0
  0
INSERT
  8
LAYER_2
  2
AIGNBL020100D9
 10
0
 20
0
 30
0
  0
INSERT
  8
LAYER_2
  2
AIGNBL020100DA
 10
0
 20
0
 30
0
  0
INSERT
  8
LAYER_2
  2
AIGNBL020100DB
 10
0
 20
0
 30
0
  0
INSERT
  8
LAYER_2
  2
AIGNBL020100DC
 10
0
 20
0
 30
0
  0
INSERT
  8
LAYER_2
  2
AIGNBL020100DD
 10
0
 20
0
 30
0
  0
INSERT
  8
LAYER_2
  2
AIGNBL020100DE
 10
0
 20
0
 30
0
  0
INSERT
  8
LAYER_2
  2
AIGNBL020100DF
 10
0
 20
0
 30
0
  0
INSERT
  8
LAYER_2
  2
AIGNBL020100E0
 10
0
 20
0
 30
0
  0
INSERT
  8
LAYER_2
  2
AIGNBL020100E1
 10
0
 20
0
 30
0
  0
INSERT
  8
LAYER_2
  2
AIGNBL020100E2
 10
0
 20
0
 30
0
  0
INSERT
  8
LAYER_2
  2
AIGNBL020100E3
 10
0
 20
0
 30
0
  0
INSERT
  8
LAYER_2
  2
AIGNBL020100E4
 10
0
 20
0
 30
0
  0
INSERT
  8
LAYER_2
  2
AIGNBL020100E5
 10
0
 20
0
 30
0
  0
INSERT
  8
LAYER_2
  2
AIGNBL020100E6
 10
0
 20
0
 30
0
  0
INSERT
  8
LAYER_2
  2
AIGNBL020100E7
 10
0
 20
0
 30
0
  0
INSERT
  8
LAYER_2
  2
AIGNBL020100E8
 10
0
 20
0
 30
0
  0
INSERT
  8
LAYER_2
  2
AIGNBL020100E9
 10
0
 20
0
 30
0
  0
INSERT
  8
LAYER_2
  2
AIGNBL020100EA
 10
0
 20
0
 30
0
  0
INSERT
  8
LAYER_2
  2
AIGNBL020100EB
 10
0
 20
0
 30
0
  0
INSERT
  8
LAYER_2
  2
AIGNBL020100EC
 10
0
 20
0
 30
0
  0
INSERT
  8
LAYER_2
  2
AIGNBL020100ED
 10
0
 20
0
 30
0
  0
INSERT
  8
LAYER_2
  2
AIGNBL020100EE
 10
0
 20
0
 30
0
  0
INSERT
  8
LAYER_2
  2
AIGNBL020100EF
 10
0
 20
0
 30
0
  0
INSERT
  8
LAYER_2
  2
AIGNBL020100F0
 10
0
 20
0
 30
0
  0
INSERT
  8
LAYER_2
  2
AIGNBL020100F1
 10
0
 20
0
 30
0
  0
INSERT
  8
LAYER_2
  2
AIGNBL020100F2
 10
0
 20
0
 30
0
  0
INSERT
  8
LAYER_2
  2
AIGNBL020100F3
 10
0
 20
0
 30
0
  0
INSERT
  8
LAYER_2
  2
AIGNBL020100F4
 10
0
 20
0
 30
0
  0
INSERT
  8
LAYER_2
  2
AIGNBL020100F5
 10
0
 20
0
 30
0
  0
INSERT
  8
LAYER_2
  2
AIGNBL020100F6
 10
0
 20
0
 30
0
  0
INSERT
  8
LAYER_2
  2
AIGNBL020100F7
 10
0
 20
0
 30
0
  0
INSERT
  8
LAYER_2
  2
AIGNBL020100F8
 10
0
 20
0
 30
0
  0
INSERT
  8
LAYER_2
  2
AIGNBL020100F9
 10
0
 20
0
 30
0
  0
INSERT
  8
LAYER_2
  2
AIGNBL020100FA
 10
0
 20
0
 30
0
  0
INSERT
  8
LAYER_2
  2
AIGNBL020100FB
 10
0
 20
0
 30
0
  0
INSERT
  8
LAYER_2
  2
AIGNBL020100FC
 10
0
 20
0
 30
0
  0
INSERT
  8
LAYER_2
  2
AIGNBL020100FD
 10
0
 20
0
 30
0
  0
LINE
  8
LAYER_2
 10
-51.9468
 20
54.5355
 11
-51.4968
 21
54.2861
  0
LINE
  8
LAYER_2
 10
-46.4463
 20
54.5355
 11
-46.8956
 21
54.2861
  0
LINE
  8
LAYER_2
 10
-50.7465
 20
57.5362
 11
-50.7465
 21
57.4115
  0
LINE
  8
LAYER_2
 10
-47.6459
 20
57.5362
 11
-47.6459
 21
57.4115
  0
LINE
  8
LAYER_2
 10
-50.6218
 20
60.787
 11
-50.6218
 21
58.7868
  0
LINE
  8
LAYER_2
 10
-47.7462
 20
60.787
 11
-47.7462
 21
58.7868
  0
LINE
  8
LAYER_2
 10
-50.6218
 20
58.7868
 11
-50.8216
 21
58.3616
  0
LINE
  8
LAYER_2
 10
-50.7964
 20
61.0867
 11
-50.6218
 21
60.787
  0
LINE
  8
LAYER_2
 10
-47.7462
 20
58.7868
 11
-47.5708
 21
58.3616
  0
LINE
  8
LAYER_2
 10
-47.5708
 20
61.0867
 11
-47.7462
 21
60.787
  0
LINE
  8
LAYER_2
 10
-46.8956
 20
57.4115
 11
-46.4463
 21
57.1614
  0
LINE
  8
LAYER_2
 10
-51.4968
 20
57.4115
 11
-51.9468
 21
57.1614
  0
LINE
  8
LAYER_2
 10
-50.8712
 20
62.0375
 11
-50.8712
 21
61.3368
  0
LINE
  8
LAYER_2
 10
-47.4961
 20
62.0375
 11
-47.4961
 21
61.3368
  0
LINE
  8
LAYER_2
 10
-47.4961
 20
62.0375
 11
-50.8712
 21
62.0375
  0
LINE
  8
LAYER_2
 10
-47.5212
 20
61.2121
 11
-47.5708
 21
61.0867
  0
LINE
  8
LAYER_2
 10
-47.4961
 20
61.3368
 11
-47.5212
 21
61.2121
  0
LINE
  8
LAYER_2
 10
-50.8712
 20
61.2121
 11
-50.7964
 21
61.0867
  0
LINE
  8
LAYER_2
 10
-50.8712
 20
61.3368
 11
-50.8712
 21
61.2121
  0
LINE
  8
LAYER_2
 10
-49.1962
 20
60.787
 11
-50.6218
 21
60.787
  0
LINE
  8
LAYER_2
 10
-47.7462
 20
60.787
 11
-49.1962
 21
60.787
  0
LINE
  8
LAYER_2
 10
-47.7462
 20
58.7868
 11
-50.6218
 21
58.7868
  0
LINE
  8
LAYER_2
 10
-47.546
 20
58.3616
 11
-47.5212
 21
58.1866
  0
LINE
  8
LAYER_2
 10
-47.5212
 20
58.1866
 11
-47.5212
 21
58.0364
  0
LINE
  8
LAYER_2
 10
-47.5212
 20
58.0364
 11
-47.5536
 21
57.9365
  0
ARC
  8
LAYER_2
 10
-48.0072
 20
58.0409
 40
0.4654
 50
296.3118522
 51
347.041966
  0
ARC
  8
LAYER_2
 10
-48.2475
 20
58.3538
 40
0.8559
 50
292.3884238
 51
301.4539858
  0
LINE
  8
LAYER_2
 10
-47.9215
 20
57.5624
 11
-47.9463
 21
57.5624
  0
LINE
  8
LAYER_2
 10
-47.546
 20
58.3616
 11
-47.5708
 21
58.3616
  0
ARC
  8
LAYER_2
 10
-50.2274
 20
58.1834
 40
0.6585
 50
202.0184272
 51
250.5708564
  0
LINE
  8
LAYER_2
 10
-50.8378
 20
57.9365
 11
-50.8712
 21
58.0364
  0
LINE
  8
LAYER_2
 10
-50.8712
 20
58.0364
 11
-50.8712
 21
58.1866
  0
LINE
  8
LAYER_2
 10
-50.8712
 20
58.1866
 11
-50.8216
 21
58.3616
  0
LINE
  8
LAYER_2
 10
-47.6459
 20
57.5362
 11
-50.7465
 21
57.5362
  0
LINE
  8
LAYER_2
 10
-46.8956
 20
57.4115
 11
-51.4968
 21
57.4115
  0
LINE
  8
LAYER_2
 10
-46.4463
 20
54.5355
 11
-46.8956
 21
54.2861
  0
LINE
  8
LAYER_2
 10
-51.9468
 20
54.5355
 11
-51.4968
 21
54.3109
  0
LINE
  8
LAYER_2
 10
-51.7969
 20
54.4859
 11
-51.4968
 21
54.3109
  0
LINE
  8
LAYER_2
 10
-51.4968
 20
54.3109
 11
-51.4968
 21
54.2861
  0
LINE
  8
LAYER_2
 10
-49.1962
 20
54.2861
 11
-51.4968
 21
54.2861
  0
LINE
  8
LAYER_2
 10
-46.8956
 20
54.2861
 11
-49.1962
 21
54.2861
  0
LINE
  8
LAYER_2
 10
-47.9463
 20
57.5624
 11
-49.1962
 21
57.5624
  0
LINE
  8
LAYER_2
 10
-50.4464
 20
57.5624
 11
-49.1962
 21
57.5624
  0
ARC
  8
LAYER_2
 10
-49.1935
 20
53.0617
 40
4.325
 50
90.03597863
 51
108.5749875
  0
ARC
  8
LAYER_2
 10
-49.2043
 20
53.0269
 40
4.3598
 50
71.49958198
 51
89.89344056
  0
ARC
  8
LAYER_2
 10
-49.2455
 20
58.757
 40
4.4247
 50
252.5653742
 51
267.7290761
  0
LINE
  8
LAYER_2
 10
-49.4208
 20
54.3357
 11
-48.9716
 21
54.3357
  0
ARC
  8
LAYER_2
 10
-49.3
 20
59.6406
 40
5.315
 50
273.5424677
 51
286.1580452
  0
ARC
  8
LAYER_2
 10
-47.2308
 20
55.9242
 40
1.4649
 50
57.62142596
 51
86.68196143
  0
ARC
  8
LAYER_2
 10
-47.0453
 20
55.9615
 40
1.4288
 50
94.04230503
 51
122.8785222
  0
ARC
  8
LAYER_2
 10
-47.0143
 20
56.0203
 40
1.6897
 50
241.4876102
 51
265.5302615
  0
ARC
  8
LAYER_2
 10
-47.2651
 20
56.0779
 40
1.7463
 50
273.9111695
 51
297.9623173
  0
LINE
  8
LAYER_2
 10
-47.8209
 20
57.1614
 11
-47.8209
 21
54.5355
  0
LINE
  8
LAYER_2
 10
-46.4463
 20
57.1614
 11
-46.4463
 21
54.5355
  0
ARC
  8
LAYER_2
 10
-51.3008
 20
56.0992
 40
1.2887
 50
55.51614895
 51
87.59359783
  0
ARC
  8
LAYER_2
 10
-51.1759
 20
55.9664
 40
1.4221
 50
92.85251363
 51
122.8249968
  0
ARC
  8
LAYER_2
 10
-51.1454
 20
56.0173
 40
1.6846
 50
241.5924799
 51
266.5513201
  0
ARC
  8
LAYER_2
 10
-51.3368
 20
55.882
 40
1.5489
 50
273.3336165
 51
299.6208054
  0
LINE
  8
LAYER_2
 10
-50.5712
 20
57.1614
 11
-50.5712
 21
54.5355
  0
LINE
  8
LAYER_2
 10
-51.9468
 20
57.1614
 11
-51.9468
 21
54.5355
  0
LINE
  8
LAYER_2
  6
AIGENLINE001
 10
-49.1934
 20
84.1027
 11
-49.1934
 21
53.0738
  0
LINE
  8
LAYER_2
 10
-47.8809
 20
80.094
 11
-47.8809
 21
62.0375
  0
LINE
  8
LAYER_2
 10
-50.506
 20
62.0375
 11
-50.506
 21
80.094
  0
LINE
  8
LAYER_2
  6
AIGENLINE001
 10
-38.0392
 20
66.8352
 11
-49.1934
 21
84.1027
  0
LINE
  8
LAYER_2
 10
-20.6767
 20
54.5355
 11
-21.1266
 21
54.2861
  0
LINE
  8
LAYER_2
 10
-26.1771
 20
54.5355
 11
-25.7279
 21
54.2861
  0
LINE
  8
LAYER_2
 10
-21.8769
 20
57.5362
 11
-21.8769
 21
57.4115
  0
LINE
  8
LAYER_2
 10
-24.9775
 20
57.5362
 11
-24.9775
 21
57.4115
  0
LINE
  8
LAYER_2
 10
-22.0017
 20
60.787
 11
-22.0017
 21
58.7868
  0
LINE
  8
LAYER_2
 10
-24.8773
 20
60.787
 11
-24.8773
 21
58.7868
  0
LINE
  8
LAYER_2
 10
-22.0017
 20
58.7868
 11
-21.8018
 21
58.3616
  0
LINE
  8
LAYER_2
 10
-21.827
 20
61.0867
 11
-22.0017
 21
60.787
  0
LINE
  8
LAYER_2
 10
-24.8773
 20
58.7868
 11
-25.0526
 21
58.3616
  0
LINE
  8
LAYER_2
 10
-25.0526
 20
61.0867
 11
-24.8773
 21
60.787
  0
LINE
  8
LAYER_2
 10
-25.7279
 20
57.4115
 11
-26.1771
 21
57.1614
  0
LINE
  8
LAYER_2
 10
-21.1266
 20
57.4115
 11
-20.6767
 21
57.1614
  0
LINE
  8
LAYER_2
 10
-21.7522
 20
62.0375
 11
-21.7522
 21
61.3368
  0
LINE
  8
LAYER_2
 10
-25.1274
 20
62.0375
 11
-25.1274
 21
61.3368
  0
LINE
  8
LAYER_2
 10
-25.1274
 20
62.0375
 11
-21.7522
 21
62.0375
  0
LINE
  8
LAYER_2
 10
-25.1022
 20
61.2121
 11
-25.0526
 21
61.0867
  0
LINE
  8
LAYER_2
 10
-25.1274
 20
61.3368
 11
-25.1022
 21
61.2121
  0
LINE
  8
LAYER_2
 10
-21.7522
 20
61.2121
 11
-21.827
 21
61.0867
  0
LINE
  8
LAYER_2
 10
-21.7522
 20
61.3368
 11
-21.7522
 21
61.2121
  0
LINE
  8
LAYER_2
 10
-23.4272
 20
60.787
 11
-22.0017
 21
60.787
  0
LINE
  8
LAYER_2
 10
-24.8773
 20
60.787
 11
-23.4272
 21
60.787
  0
LINE
  8
LAYER_2
 10
-24.8773
 20
58.7868
 11
-22.0017
 21
58.7868
  0
LINE
  8
LAYER_2
 10
-25.0774
 20
58.3616
 11
-25.1022
 21
58.1866
  0
LINE
  8
LAYER_2
 10
-25.1022
 20
58.1866
 11
-25.1022
 21
58.0364
  0
LINE
  8
LAYER_2
 10
-25.1022
 20
58.0364
 11
-25.0698
 21
57.9365
  0
ARC
  8
LAYER_2
 10
-24.6162
 20
58.0409
 40
0.4654
 50
192.958034
 51
243.6881478
  0
ARC
  8
LAYER_2
 10
-24.3759
 20
58.3538
 40
0.8559
 50
238.5460143
 51
247.6115763
  0
LINE
  8
LAYER_2
 10
-24.7019
 20
57.5624
 11
-24.6771
 21
57.5624
  0
LINE
  8
LAYER_2
 10
-25.0774
 20
58.3616
 11
-25.0526
 21
58.3616
  0
ARC
  8
LAYER_2
 10
-22.3964
 20
58.1837
 40
0.6589
 50
289.4478754
 51
337.962841
  0
LINE
  8
LAYER_2
 10
-21.7856
 20
57.9365
 11
-21.7522
 21
58.0364
  0
LINE
  8
LAYER_2
 10
-21.7522
 20
58.0364
 11
-21.7522
 21
58.1866
  0
LINE
  8
LAYER_2
 10
-21.7522
 20
58.1866
 11
-21.8018
 21
58.3616
  0
LINE
  8
LAYER_2
 10
-24.9775
 20
57.5362
 11
-21.8769
 21
57.5362
  0
LINE
  8
LAYER_2
 10
-25.7279
 20
57.4115
 11
-21.1266
 21
57.4115
  0
LINE
  8
LAYER_2
 10
-26.1771
 20
54.5355
 11
-25.7279
 21
54.2861
  0
LINE
  8
LAYER_2
 10
-20.6767
 20
54.5355
 11
-21.1266
 21
54.3109
  0
LINE
  8
LAYER_2
 10
-20.8265
 20
54.4859
 11
-21.1266
 21
54.3109
  0
LINE
  8
LAYER_2
 10
-21.1266
 20
54.3109
 11
-21.1266
 21
54.2861
  0
LINE
  8
LAYER_2
 10
-23.4272
 20
54.2861
 11
-21.1266
 21
54.2861
  0
LINE
  8
LAYER_2
 10
-25.7279
 20
54.2861
 11
-23.4272
 21
54.2861
  0
LINE
  8
LAYER_2
 10
-24.6771
 20
57.5624
 11
-23.4272
 21
57.5624
  0
LINE
  8
LAYER_2
 10
-22.177
 20
57.5624
 11
-23.4272
 21
57.5624
  0
ARC
  8
LAYER_2
 10
-23.4299
 20
53.0621
 40
4.3246
 50
71.42400175
 51
89.96370215
  0
ARC
  8
LAYER_2
 10
-23.4192
 20
53.0275
 40
4.3592
 50
90.10530722
 51
108.5016702
  0
ARC
  8
LAYER_2
 10
-23.3779
 20
58.7561
 40
4.4239
 50
272.270876
 51
287.4363532
  0
LINE
  8
LAYER_2
 10
-23.2026
 20
54.3357
 11
-23.6518
 21
54.3357
  0
ARC
  8
LAYER_2
 10
-23.3236
 20
59.6395
 40
5.3139
 50
253.8406409
 51
266.4588462
  0
ARC
  8
LAYER_2
 10
-25.3927
 20
55.9245
 40
1.4646
 50
93.31486209
 51
122.3817505
  0
ARC
  8
LAYER_2
 10
-25.5801
 20
55.9556
 40
1.4348
 50
57.18355914
 51
85.89561361
  0
ARC
  8
LAYER_2
 10
-25.6093
 20
56.021
 40
1.6904
 50
274.4747564
 51
298.5073719
  0
ARC
  8
LAYER_2
 10
-25.3583
 20
56.0779
 40
1.7463
 50
242.0376827
 51
266.0888305
  0
LINE
  8
LAYER_2
 10
-24.8025
 20
57.1614
 11
-24.8025
 21
54.5355
  0
LINE
  8
LAYER_2
 10
-26.1771
 20
57.1614
 11
-26.1771
 21
54.5355
  0
ARC
  8
LAYER_2
 10
-21.3226
 20
56.0988
 40
1.289
 50
92.40633948
 51
124.4788228
  0
ARC
  8
LAYER_2
 10
-21.4475
 20
55.9668
 40
1.4217
 50
57.17031213
 51
87.14740371
  0
ARC
  8
LAYER_2
 10
-21.4781
 20
56.017
 40
1.6843
 50
273.4502257
 51
298.4102944
  0
ARC
  8
LAYER_2
 10
-21.2867
 20
55.8821
 40
1.549
 50
240.3801745
 51
266.6700169
  0
LINE
  8
LAYER_2
 10
-22.0523
 20
57.1614
 11
-22.0523
 21
54.5355
  0
LINE
  8
LAYER_2
 10
-20.6767
 20
57.1614
 11
-20.6767
 21
54.5355
  0
LINE
  8
LAYER_2
  6
AIGENLINE001
 10
-23.43
 20
84.1027
 11
-23.43
 21
53.0738
  0
LINE
  8
LAYER_2
 10
-24.7426
 20
80.094
 11
-24.7426
 21
62.0375
  0
LINE
  8
LAYER_2
 10
-22.1174
 20
62.0375
 11
-22.1174
 21
80.094
  0
LINE
  8
LAYER_2
  6
AIGENLINE001
 10
-34.5842
 20
66.8352
 11
-23.43
 21
84.1027
  0
LINE
  8
LAYER_2
  6
AIGENLINE001
 10
-38.0392
 20
66.8352
 11
-38.0392
 21
93.4157
  0
LINE
  8
LAYER_2
 10
-36.7266
 20
71.4116
 11
-36.7266
 21
89.5234
  0
LINE
  8
LAYER_2
 10
-39.3515
 20
71.4116
 11
-39.3515
 21
91.6032
  0
LINE
  8
LAYER_2
  6
AIGENLINE001
 10
-34.5842
 20
66.8352
 11
-34.5842
 21
93.4157
  0
LINE
  8
LAYER_2
 10
-33.2716
 20
71.4116
 11
-33.2716
 21
91.6032
  0
LINE
  8
LAYER_2
 10
-35.8965
 20
71.4116
 11
-35.8965
 21
89.5266
  0
INSERT
  8
LAYER_2
  2
AIGNBL020100FE
 10
0
 20
0
 30
0
  0
LINE
  8
LAYER_2
 10
50.8002
 20
54.2785
 11
27.7061
 21
54.2785
  0
LINE
  8
LAYER_2
 10
71.8925
 20
71.4113
 11
71.8925
 21
91.6032
  0
LINE
  8
LAYER_2
 10
69.2677
 20
71.4113
 11
69.2677
 21
91.6032
  0
LINE
  8
LAYER_2
  6
AIGENLINE001
 10
70.5799
 20
66.8352
 11
54.5123
 21
84.1027
  0
LINE
  8
LAYER_2
 10
52.837
 20
61.3368
 11
52.837
 21
62.0375
  0
LINE
  8
LAYER_2
 10
56.2125
 20
61.3368
 11
56.2125
 21
62.0375
  0
LINE
  8
LAYER_2
 10
56.2125
 20
62.0375
 11
52.837
 21
62.0375
  0
ARC
  8
LAYER_2
 10
55.4973
 20
61.4162
 40
0.7196
 50
332.8152837
 51
353.6682356
  0
LINE
  8
LAYER_2
 10
52.8873
 20
61.0874
 11
52.837
 21
61.2121
  0
LINE
  8
LAYER_2
 10
52.837
 20
61.2121
 11
52.837
 21
61.3368
  0
LINE
  8
LAYER_2
 10
56.1374
 20
61.0874
 11
55.9627
 21
60.787
  0
LINE
  8
LAYER_2
 10
53.063
 20
60.787
 11
52.8873
 21
61.0874
  0
LINE
  8
LAYER_2
 10
55.9627
 20
58.7868
 11
55.9627
 21
60.787
  0
LINE
  8
LAYER_2
 10
53.063
 20
58.7868
 11
53.063
 21
60.787
  0
LINE
  8
LAYER_2
 10
56.5749
 20
45.8856
 11
56.5749
 21
53.8458
  0
LINE
  8
LAYER_2
 10
52.4497
 20
45.8856
 11
52.4497
 21
53.8458
  0
LINE
  8
LAYER_2
 10
55.9627
 20
60.787
 11
53.063
 21
60.787
  0
LINE
  8
LAYER_2
 10
56.1635
 20
58.3616
 11
55.9627
 21
58.7868
  0
LINE
  8
LAYER_2
 10
53.063
 20
58.7868
 11
52.8621
 21
58.3616
  0
LINE
  8
LAYER_2
 10
55.9627
 20
58.7868
 11
53.063
 21
58.7868
  0
LINE
  8
LAYER_2
 10
56.1635
 20
58.3616
 11
56.1374
 21
57.8621
  0
LINE
  8
LAYER_2
 10
56.1374
 20
57.8621
 11
55.7629
 21
57.561
  0
LINE
  8
LAYER_2
 10
53.2628
 20
57.561
 11
52.8873
 21
57.8621
  0
LINE
  8
LAYER_2
 10
52.8873
 20
57.8621
 11
52.8621
 21
58.3616
  0
LINE
  8
LAYER_2
 10
52.962
 20
57.4115
 11
52.962
 21
57.5362
  0
LINE
  8
LAYER_2
 10
56.0626
 20
57.4115
 11
56.0626
 21
57.5362
  0
LINE
  8
LAYER_2
 10
56.0626
 20
57.5362
 11
52.962
 21
57.5362
  0
LINE
  8
LAYER_2
 10
52.212
 20
57.4115
 11
52.1369
 21
57.3867
  0
ARC
  8
LAYER_2
 10
54.1631
 20
-15.5265
 40
72.9641
 50
87.85994508
 51
91.53226483
  0
LINE
  8
LAYER_2
 10
52.212
 20
54.2861
 11
52.1369
 21
54.3357
  0
LINE
  8
LAYER_2
 10
56.8877
 20
54.3357
 11
56.8126
 21
54.2861
  0
LINE
  8
LAYER_2
 10
56.8126
 20
54.2861
 11
52.212
 21
54.2861
  0
LINE
  8
LAYER_2
 10
54.5123
 20
57.561
 11
53.2628
 21
57.561
  0
LINE
  8
LAYER_2
 10
55.7629
 20
57.561
 11
54.5123
 21
57.561
  0
LINE
  8
LAYER_2
 10
52.1369
 20
57.1607
 11
52.1369
 21
57.3867
  0
LINE
  8
LAYER_2
 10
52.1369
 20
54.3357
 11
52.1369
 21
54.5355
  0
LINE
  8
LAYER_2
 10
56.8877
 20
57.1607
 11
56.8877
 21
57.3867
  0
LINE
  8
LAYER_2
 10
56.8877
 20
54.3357
 11
56.8877
 21
54.5355
  0
ARC
  8
LAYER_2
 10
55.6052
 20
53.6602
 40
3.7281
 50
69.87875003
 51
88.35561936
  0
ARC
  8
LAYER_2
 10
55.7866
 20
53.6934
 40
3.6941
 50
91.15407289
 51
110.1792105
  0
ARC
  8
LAYER_2
 10
55.8574
 20
58.9103
 40
4.5769
 50
252.9098055
 51
268.1825858
  0
ARC
  8
LAYER_2
 10
55.5397
 20
58.9083
 40
4.5759
 50
272.1601804
 51
287.1325941
  0
LINE
  8
LAYER_2
 10
56.8877
 20
54.5355
 11
56.8877
 21
57.1607
  0
ARC
  8
LAYER_2
 10
53.2303
 20
53.6629
 40
3.7254
 50
69.87092953
 51
88.34897122
  0
ARC
  8
LAYER_2
 10
53.4115
 20
53.6914
 40
3.696
 50
91.14592149
 51
110.1734738
  0
ARC
  8
LAYER_2
 10
53.4814
 20
58.9076
 40
4.5741
 50
252.9063078
 51
268.1984541
  0
ARC
  8
LAYER_2
 10
53.1652
 20
58.9024
 40
4.57
 50
272.1618646
 51
287.1438017
  0
LINE
  8
LAYER_2
 10
52.1369
 20
54.5355
 11
52.1369
 21
57.1607
  0
LINE
  8
LAYER_2
 10
54.5123
 20
54.5355
 11
54.5123
 21
57.1607
  0
LINE
  8
LAYER_2
  6
AIGENLINE001
 10
54.5123
 20
84.1027
 11
54.5123
 21
53.0738
  0
LINE
  8
LAYER_2
 10
53.1998
 20
80.094
 11
53.1998
 21
62.0375
  0
LINE
  8
LAYER_2
 10
55.8249
 20
62.0375
 11
55.8249
 21
80.094
  0
LINE
  8
LAYER_2
 10
74.7047
 20
96.8531
 11
74.7047
 21
95.6031
  0
LINE
  8
LAYER_2
 10
66.4551
 20
95.6031
 11
66.4551
 21
96.8531
  0
LINE
  8
LAYER_2
 10
66.7049
 20
96.8531
 11
66.7049
 21
95.6031
  0
LINE
  8
LAYER_2
 10
74.455
 20
96.8531
 11
74.455
 21
95.6031
  0
INSERT
  8
LAYER_2
  2
AIGNBL020100FF
 10
0
 20
0
 30
0
  0
INSERT
  8
LAYER_2
  2
AIGNBL0201015B
 10
0
 20
0
 30
0
  0
LINE
  8
LAYER_2
 10
-40.4363
 20
95.6031
 11
-40.4363
 21
96.8531
  0
LINE
  8
LAYER_2
 10
-32.1867
 20
96.8531
 11
-32.1867
 21
95.6031
  0
LINE
  8
LAYER_2
 10
-40.1866
 20
96.8531
 11
-40.1866
 21
95.6031
  0
LINE
  8
LAYER_2
 10
-32.4365
 20
96.8531
 11
-32.4365
 21
95.6031
  0
ARC
  8
LAYER_2
 10
-36.4465
 20
249.3597
 40
24.6411
 50
295.5624765
 51
319.926444
  0
ARC
  8
LAYER_2
 10
-36.2918
 20
249.1769
 40
24.4095
 50
269.9536143
 51
295.4201659
  0
LINE
  8
LAYER_2
  6
AIGENLINE001
 10
-52.886
 20
235.2976
 11
-36.3116
 21
249.2052
  0
INSERT
  8
LAYER_2
  2
AIGNBL020101D5
 10
0
 20
0
 30
0
  0
INSERT
  8
LAYER_2
  2
AIGNBL020101D6
 10
0
 20
0
 30
0
  0
LINE
  8
LAYER_2
 10
-38.4827
 20
225.4943
 11
-36.3116
 21
224.7674
  0
LINE
  8
LAYER_2
 10
-36.3116
 20
224.7674
 11
-38.555
 21
224.3116
  0
LINE
  8
LAYER_2
 10
-38.555
 20
224.3116
 11
-38.4827
 21
225.4943
  0
LINE
  8
LAYER_2
 10
-53.9792
 20
231.4636
 11
-55.0324
 21
233.4965
  0
LINE
  8
LAYER_2
 10
-55.0324
 20
233.4965
 11
-53.1042
 21
232.2626
  0
LINE
  8
LAYER_2
 10
-53.1042
 20
232.2626
 11
-53.9792
 21
231.4636
  0
ARC
  8
LAYER_2
 10
-36.1766
 20
249.3597
 40
24.6411
 50
220.0735588
 51
244.4374364
  0
ARC
  8
LAYER_2
 10
-36.3313
 20
249.1767
 40
24.4093
 50
244.5797349
 51
270.0462804
  0
LINE
  8
LAYER_3
 10
126.9566
 20
57.1559
 11
293.4567
 21
57.1559
  0
LINE
  8
LAYER_3
 10
126.9566
 20
99.5543
 11
290.1597
 21
99.5543
  0
LINE
  8
LAYER_3
 10
126.9566
 20
113.1283
 11
290.1597
 21
113.1283
  0
LINE
  8
LAYER_3
 10
213.4567
 20
37.1557
 11
293.4567
 21
37.1557
  0
LINE
  8
LAYER_3
 10
126.9566
 20
44.6564
 11
213.4567
 21
44.6564
  0
LINE
  8
LAYER_3
 10
126.9566
 20
30.6562
 11
213.4567
 21
30.6562
  0
LINE
  8
LAYER_3
 10
138.4563
 20
30.6562
 11
138.4563
 21
44.6564
  0
LINE
  8
LAYER_3
 10
213.4567
 20
17.1562
 11
213.4567
 21
57.1559
  0
LINE
  8
LAYER_3
 10
126.9566
 20
17.1562
 11
126.9566
 21
57.1559
  0
LINE
  8
LAYER_3
 10
194.4563
 20
30.6562
 11
194.4563
 21
57.1559
  0
LINE
  8
LAYER_3
 10
175.4566
 20
30.6562
 11
175.4566
 21
57.1559
  0
LINE
  8
LAYER_3
 10
293.4567
 20
17.1562
 11
-83.0433
 21
17.1562
  0
LINE
  8
LAYER_3
 10
-83.0433
 20
17.1562
 11
-83.0433
 21
280.1562
  0
LINE
  8
LAYER_3
 10
-83.0433
 20
280.1562
 11
293.4567
 21
280.1562
  0
LINE
  8
LAYER_3
 10
293.4567
 20
280.1562
 11
293.4567
 21
17.1562
  0
TEXT
  8
LAYER_3
 10
153.4949
 20
49.1839
 11
153.4949
 21
49.1839
 40
4.4979
 41
0.5
 72
1
  1
セラトレーディング株式会社
  0
TEXT
  8
LAYER_3
 10
127.9281
 20
40.658
 11
127.9281
 21
40.658
 40
3.0923
 41
0.5
  1
製図
  0
TEXT
  8
LAYER_3
 10
127.9281
 20
26.4587
 11
127.9281
 21
26.4587
 40
3.0923
 41
0.5
  1
備考
  0
TEXT
  8
LAYER_3
 10
139.5463
 20
40.658
 11
139.5463
 21
40.658
 40
3.0923
 41
0.5
  1
検図
  0
TEXT
  8
LAYER_3
 10
176.4998
 20
40.658
 11
176.4998
 21
40.658
 40
3.0923
 41
0.5
  1
日付
  0
TEXT
  8
LAYER_3
 10
219.0853
 20
45.4728
 11
219.0853
 21
45.4728
 40
3.9357
 41
0.5
  1
AVA 2.0 湯水混合水栓
  0
TEXT
  8
LAYER_3
 10
169.5094
 20
81.9175
 11
169.5094
 21
81.9175
 40
3.9357
 41
0.5
  1
（3）フレキホース寸法公差%%p}20
  0
TEXT
  8
LAYER_3
 10
169.5094
 20
87.9147
 11
169.5094
 21
87.9147
 40
3.9357
 41
0.5
  1
（2）湯水を逆に配管しないでください。
  0
TEXT
  8
LAYER_3
 10
169.5094
 20
69.923
 11
169.5094
 21
69.923
 40
3.9357
 41
0.5
  1
（5）吐水方法：泡沫
  0
TEXT
  8
LAYER_3
 10
169.5094
 20
75.9203
 11
169.5094
 21
75.9203
 40
3.9357
 41
0.5
  1
（4）流量上限：約5L/min（定量節水仕様）
  0
TEXT
  8
LAYER_3
 10
169.5094
 20
93.9119
 11
169.5094
 21
93.9119
 40
3.9357
 41
0.5
  1
（1）水圧は湯水ほぼ同圧、且つ湯圧が水圧より高くならないように設定してください。
  0
TEXT
  8
LAYER_3
 10
169.5094
 20
101.6172
 11
169.5094
 21
101.6172
 40
3.9357
 41
0.5
  1
※安全のため給湯温度は60℃以下でのご使用をおすすめします。
  0
TEXT
  8
LAYER_3
 10
169.5094
 20
107.6144
 11
169.5094
 21
107.6144
 40
3.9357
 41
0.5
  1
70℃
  0
LINE
  8
LAYER_3
 10
126.9566
 20
126.7024
 11
290.1597
 21
126.7024
  0
TEXT
  8
LAYER_3
 10
169.5094
 20
115.1912
 11
169.5094
 21
115.1912
 40
3.9357
 41
0.5
  1
※寒冷地仕様ではありません、凍結が予想される場合は凍結予防をしてください。
  0
TEXT
  8
LAYER_3
 10
169.5094
 20
121.1885
 11
169.5094
 21
121.1885
 40
3.9357
 41
0.5
  1
1～40℃
  0
TEXT
  8
LAYER_3
 10
129.4953
 20
93.9119
 11
129.4953
 21
93.9119
 40
3.9357
 41
0.5
  1
特記事項
  0
TEXT
  8
LAYER_3
 10
129.4953
 20
107.6144
 11
129.4953
 21
107.6144
 40
3.9357
 41
0.5
  1
最高給湯温度
  0
TEXT
  8
LAYER_3
 10
129.4953
 20
121.1885
 11
129.4953
 21
121.1885
 40
3.9357
 41
0.5
  1
使用環境温度
  0
LINE
  8
LAYER_3
 10
145.6397
 20
142.2273
 11
290.1597
 21
142.2273
  0
TEXT
  8
LAYER_3
 10
169.5094
 20
136.7134
 11
169.5094
 21
136.7134
 40
3.9357
 41
0.5
  1
0.5MPa（静水圧）
  0
TEXT
  8
LAYER_3
 10
147.4139
 20
136.7134
 11
147.4139
 21
136.7134
 40
3.9357
 41
0.5
  1
最高水圧
  0
LINE
  8
LAYER_3
 10
126.9566
 20
134.4648
 11
290.1597
 21
134.4648
  0
TEXT
  8
LAYER_3
 10
169.5094
 20
128.8104
 11
169.5094
 21
128.8104
 40
3.9357
 41
0.5
  1
水道水
  0
TEXT
  8
LAYER_3
 10
129.4953
 20
128.8104
 11
129.4953
 21
128.8104
 40
3.9357
 41
0.5
  1
使用可能水質
  0
LINE
  8
LAYER_3
 10
126.9566
 20
149.9898
 11
290.1597
 21
149.9898
  0
TEXT
  8
LAYER_3
 10
169.5094
 20
144.3354
 11
169.5094
 21
144.3354
 40
3.9357
 41
0.5
  1
0.1MPa（流動圧）
  0
TEXT
  8
LAYER_3
 10
147.4139
 20
144.3354
 11
147.4139
 21
144.3354
 40
3.9357
 41
0.5
  1
最低必要水圧
  0
LINE
  8
LAYER_3
 10
290.1597
 20
157.7523
 11
126.9566
 21
157.7523
  0
LINE
  8
LAYER_3
 10
126.9566
 20
157.7523
 11
126.9566
 21
61.9804
  0
LINE
  8
LAYER_3
 10
126.9566
 20
61.9804
 11
290.1597
 21
61.9804
  0
LINE
  8
LAYER_3
 10
290.1597
 20
61.9804
 11
290.1597
 21
157.7523
  0
LINE
  8
LAYER_3
 10
166.9707
 20
157.7523
 11
166.9707
 21
61.9804
  0
LINE
  8
LAYER_3
 10
145.6397
 20
149.9898
 11
145.6397
 21
134.4648
  0
TEXT
  8
LAYER_3
 10
169.5094
 20
152.0979
 11
169.5094
 21
152.0979
 40
3.9357
 41
0.5
  1
一般住宅用（屋内用）
  0
TEXT
  8
LAYER_3
 10
129.4953
 20
152.0979
 11
129.4953
 21
152.0979
 40
3.9357
 41
0.5
  1
用途
  0
TEXT
  8
LAYER_3
 10
129.4953
 20
144.3354
 11
129.4953
 21
144.3354
 40
3.9357
 41
0.5
  1
給水圧力
  0
TEXT
  8
LAYER_3
 10
253.4564
 20
20.3547
 11
253.4564
 21
20.3547
 40
3.9357
 41
0.5
 72
1
  1
KW2468093
  0
TEXT
  8
LAYER_3
 10
195.5498
 20
40.658
 11
195.5498
 21
40.658
 40
3.0923
 41
0.5
  1
尺度
  0
TEXT
  8
LAYER_3
 10
195.5498
 20
53.0652
 11
195.5498
 21
53.0652
 40
3.0923
 41
0.5
  1
単位
  0
TEXT
  8
LAYER_3
 10
203.2744
 20
48.0691
 11
203.2744
 21
48.0691
 40
3.6546
 41
0.5
 72
1
  1
mm
  0
TEXT
  8
LAYER_3
 10
214.5116
 20
53.0652
 11
214.5116
 21
53.0652
 40
3.0923
 41
0.5
  1
名称
  0
TEXT
  8
LAYER_3
 10
214.5116
 20
32.9265
 11
214.5116
 21
32.9265
 40
3.0923
 41
0.5
  1
品番
  0
LINE
  8
LAYER_3
 10
213.4567
 20
27.156
 11
293.4567
 21
27.156
  0
TEXT
  8
LAYER_3
 10
214.5116
 20
22.9268
 11
214.5116
 21
22.9268
 40
3.0923
 41
0.5
  1
図番
  0
INSERT
  8
LAYER_3
  2
AIGNBL03010002
 10
0
 20
0
 30
0
  0
LINE
  8
LAYER_3
 10
-83.0433
 20
148.6576
 11
-104.7936
 21
148.6576
  0
LINE
  8
LAYER_3
 10
105.2067
 20
297.1763
 11
105.2067
 21
280.1562
  0
LINE
  8
LAYER_3
 10
105.2067
 20
17.1562
 11
105.2067
 21
0.176
  0
LINE
  8
LAYER_3
 10
315.2069
 20
148.6576
 11
293.4567
 21
148.6576
  0
TEXT
  8
LAYER_3
 10
134.4938
 20
21.9546
 11
134.4938
 21
21.9546
 40
3.9357
 41
0.5
  1
（社）日本水道協会認証品
  0
TEXT
  8
LAYER_3
 10
293.4567
 20
12.8082
 11
293.4567
 21
12.8082
 40
3.3734
 41
0.5
 72
2
  1
A3
  0
TEXT
  8
LAYER_3
 10
177.6925
 20
34.4651
 11
177.6925
 21
34.4651
 40
3.6546
 41
0.5
  1
23.07.12
  0
TEXT
  8
LAYER_3
 10
132.6465
 20
34.8502
 11
132.6465
 21
34.8502
 40
3.6546
 41
0.5
 72
1
  1
福田
  0
TEXT
  8
LAYER_3
 10
151.2204
 20
34.8502
 11
151.2204
 21
34.8502
 40
3.6546
 41
0.5
 72
1
  1
井田
  0
TEXT
  8
LAYER_3
 10
253.4564
 20
30.3551
 11
253.4564
 21
30.3551
 40
3.9357
 41
0.5
 72
1
  1
KW2468093
  0
TEXT
  8
LAYER_3
 10
203.8663
 20
34.4651
 11
203.8663
 21
34.4651
 40
3.6546
 41
0.5
 72
1
  1
1 ： 4
  0
TEXT
  8
LAYER_3
 10
169.5094
 20
63.9258
 11
169.5094
 21
63.9258
 40
3.9357
 41
0.5
  1
（6）吐水角度可変式：12%%d%%p}10%%d
  0
ENDSEC
  0
EOF
