  0
SECTION
  2
HEADER
  9
$ACADVER
  1
AC1009
  9
$INSBASE
 10
0.0
 20
0.0
 30
0.0
  9
$EXTMIN
 10
-4.7012099999999988
 20
-21.070999999999991
 30
0.0
  9
$EXTMAX
 10
205.30099999999999
 20
275.93099999999993
 30
0.0
  9
$LIMMIN
 10
0.0
 20
0.0
  9
$LIMMAX
 10
12.0
 20
9.0
  9
$ORTHOMODE
 70
     0
  9
$REGENMODE
 70
     1
  9
$FILLMODE
 70
     1
  9
$QTEXTMODE
 70
     0
  9
$MIRRTEXT
 70
     1
  9
$DRAGMODE
 70
     2
  9
$LTSCALE
 40
1.0
  9
$OSMODE
 70
    37
  9
$ATTMODE
 70
     1
  9
$TEXTSIZE
 40
0.0
  9
$TRACEWID
 40
0.05
  9
$TEXTSTYLE
  7
STANDARD
  9
$CLAYER
  8
0
  9
$CELTYPE
  6
CONTINUOUS
  9
$CECOLOR
 62
   256
  9
$DIMSCALE
 40
1.0
  9
$DIMASZ
 40
0.18
  9
$DIMEXO
 40
0.0625
  9
$DIMDLI
 40
0.38
  9
$DIMRND
 40
0.0
  9
$DIMDLE
 40
0.0
  9
$DIMEXE
 40
0.18
  9
$DIMTP
 40
0.0
  9
$DIMTM
 40
0.0
  9
$DIMTXT
 40
0.18
  9
$DIMCEN
 40
0.09
  9
$DIMTSZ
 40
0.0
  9
$DIMTOL
 70
     0
  9
$DIMLIM
 70
     0
  9
$DIMTIH
 70
     1
  9
$DIMTOH
 70
     1
  9
$DIMSE1
 70
     0
  9
$DIMSE2
 70
     0
  9
$DIMTAD
 70
     0
  9
$DIMZIN
 70
     0
  9
$DIMBLK
  1

  9
$DIMASO
 70
     1
  9
$DIMSHO
 70
     1
  9
$DIMPOST
  1

  9
$DIMAPOST
  1

  9
$DIMALT
 70
     0
  9
$DIMALTD
 70
     2
  9
$DIMALTF
 40
25.399999999999999
  9
$DIMLFAC
 40
1.0
  9
$DIMTOFL
 70
     0
  9
$DIMTVP
 40
0.0
  9
$DIMTIX
 70
     0
  9
$DIMSOXD
 70
     0
  9
$DIMSAH
 70
     0
  9
$DIMBLK1
  1

  9
$DIMBLK2
  1

  9
$DIMSTYLE
  2
STANDARD
  9
$DIMCLRD
 70
     0
  9
$DIMCLRE
 70
     0
  9
$DIMCLRT
 70
     0
  9
$DIMTFAC
 40
1.0
  9
$DIMGAP
 40
0.09
  9
$LUNITS
 70
     2
  9
$LUPREC
 70
     4
  9
$SKETCHINC
 40
0.1
  9
$FILLETRAD
 40
0.0
  9
$AUNITS
 70
     0
  9
$AUPREC
 70
     0
  9
$MENU
  1
.
  9
$ELEVATION
 40
0.0
  9
$PELEVATION
 40
0.0
  9
$THICKNESS
 40
0.0
  9
$LIMCHECK
 70
     0
  9
$BLIPMODE
 70
     0
  9
$CHAMFERA
 40
0.0
  9
$CHAMFERB
 40
0.0
  9
$SKPOLY
 70
     0
  9
$TDCREATE
 40
2444972.375
  9
$TDUPDATE
 40
2455980.3600703469
  9
$TDINDWG
 40
0.0000077199
  9
$TDUSRTIMER
 40
0.0000077199
  9
$USRTIMER
 70
     1
  9
$ANGBASE
 50
0.0
  9
$ANGDIR
 70
     0
  9
$PDMODE
 70
     0
  9
$PDSIZE
 40
0.0
  9
$PLINEWID
 40
0.0
  9
$COORDS
 70
     1
  9
$SPLFRAME
 70
     0
  9
$SPLINETYPE
 70
     6
  9
$SPLINESEGS
 70
     8
  9
$ATTDIA
 70
     0
  9
$ATTREQ
 70
     1
  9
$HANDLING
 70
     1
  9
$HANDSEED
  5
1D1
  9
$SURFTAB1
 70
     6
  9
$SURFTAB2
 70
     6
  9
$SURFTYPE
 70
     6
  9
$SURFU
 70
     6
  9
$SURFV
 70
     6
  9
$UCSNAME
  2

  9
$UCSORG
 10
0.0
 20
0.0
 30
0.0
  9
$UCSXDIR
 10
1.0
 20
0.0
 30
0.0
  9
$UCSYDIR
 10
0.0
 20
1.0
 30
0.0
  9
$PUCSNAME
  2

  9
$PUCSORG
 10
0.0
 20
0.0
 30
0.0
  9
$PUCSXDIR
 10
1.0
 20
0.0
 30
0.0
  9
$PUCSYDIR
 10
0.0
 20
1.0
 30
0.0
  9
$USERI1
 70
     0
  9
$USERI2
 70
     0
  9
$USERI3
 70
     0
  9
$USERI4
 70
     0
  9
$USERI5
 70
     0
  9
$USERR1
 40
0.0
  9
$USERR2
 40
0.0
  9
$USERR3
 40
0.0
  9
$USERR4
 40
0.0
  9
$USERR5
 40
0.0
  9
$WORLDVIEW
 70
     1
  9
$SHADEDGE
 70
     3
  9
$SHADEDIF
 70
    70
  9
$TILEMODE
 70
     1
  9
$MAXACTVP
 70
    48
  9
$PLIMCHECK
 70
     0
  9
$PEXTMIN
 10
1.0000000000000000E+020
 20
1.0000000000000000E+020
 30
1.0000000000000000E+020
  9
$PEXTMAX
 10
-1.0000000000000000E+020
 20
-1.0000000000000000E+020
 30
-1.0000000000000000E+020
  9
$PLIMMIN
 10
0.0
 20
0.0
  9
$PLIMMAX
 10
12.0
 20
9.0
  9
$UNITMODE
 70
     0
  9
$VISRETAIN
 70
     1
  9
$PLINEGEN
 70
     0
  9
$PSLTSCALE
 70
     1
  0
ENDSEC
  0
SECTION
  2
TABLES
  0
TABLE
  2
VPORT
 70
     2
  0
VPORT
  2
*ACTIVE
 70
     0
 10
0.0
 20
0.0
 11
1.0
 21
1.0
 12
205.31019906752431
 22
127.42999999999989
 13
0.0
 23
0.0
 14
1.0
 24
1.0
 15
0.0
 25
0.0
 16
0.0
 26
0.0
 36
1.0
 17
0.0
 27
0.0
 37
0.0
 40
299.24634760705283
 41
2.2894736842105261
 42
50.0
 43
0.0
 44
0.0
 50
0.0
 51
0.0
 71
     0
 72
   100
 73
     1
 74
     1
 75
     0
 76
     0
 77
     0
 78
     0
  0
ENDTAB
  0
TABLE
  2
LTYPE
 70
     3
  0
LTYPE
  2
CONTINUOUS
 70
     0
  3
Solid line
 72
    65
 73
     0
 40
0.0
  0
LTYPE
  2
AIGENLINE001
 70
     0
  3
generate AI->DXF Converter
 72
    65
 73
     6
 40
7.4083750000000004
 49
3.5278
 49
-0.776115
 49
0.776115
 49
-0.776115
 49
0.776115
 49
-0.776115
  0
LTYPE
  2
AIGENLINE002
 70
     0
  3
generate AI->DXF Converter
 72
    65
 73
     4
 40
5.8561449999999988
 49
3.5278
 49
-0.776115
 49
0.776115
 49
-0.776115
  0
ENDTAB
  0
TABLE
  2
LAYER
 70
     2
  0
LAYER
  2
0
 70
     0
 62
     7
  6
CONTINUOUS
  0
LAYER
  2
_________2
 70
     0
 62
     7
  6
CONTINUOUS
  0
ENDTAB
  0
TABLE
  2
STYLE
 70
     1
  0
STYLE
  2
STANDARD
 70
     0
 40
0.0
 41
0.0
 50
0.0
 71
     0
 42
0.0
  3
TXT
  4
EXTFONT.SHX
  0
ENDTAB
  0
TABLE
  2
VIEW
 70
     0
  0
ENDTAB
  0
TABLE
  2
UCS
 70
     0
  0
ENDTAB
  0
TABLE
  2
APPID
 70
     1
  0
APPID
  2
ACAD
 70
     0
  0
ENDTAB
  0
TABLE
  2
DIMSTYLE
 70
     1
  0
DIMSTYLE
  2
STANDARD
 70
     0
  3

  4

  5

  6

  7

 40
1.0
 41
0.18
 42
0.0625
 43
0.38
 44
0.18
 45
0.0
 46
0.0
 47
0.0
 48
0.0
140
0.18
141
0.09
142
0.0
143
25.399999999999999
144
1.0
145
0.0
146
1.0
147
0.09
 71
     0
 72
     0
 73
     1
 74
     1
 75
     0
 76
     0
 77
     0
 78
     0
170
     0
171
     2
172
     0
173
     0
174
     0
175
     0
176
     0
177
     0
178
     0
  0
ENDTAB
  0
ENDSEC
  0
SECTION
  2
BLOCKS
  0
BLOCK
  8
0
  2
$MODEL_SPACE
 70
     0
 10
0.0
 20
0.0
 30
0.0
  3
$MODEL_SPACE
  1

  0
ENDBLK
  5
1A
  8
0
  0
BLOCK
 67
     1
  8
0
  2
$PAPER_SPACE
 70
     0
 10
0.0
 20
0.0
 30
0.0
  3
$PAPER_SPACE
  1

  0
ENDBLK
  5
17
 67
     1
  8
0
  0
ENDSEC
  0
SECTION
  2
ENTITIES
  0
TEXT
  5
23
  8
0
 62
     7
 10
156.50288
 20
132.328
 30
0.0
 40
3.0923400000000001
  1
M24
 41
0.5
 72
     2
 11
160.62599999999989
 21
132.328
 31
0.0
  0
TEXT
  5
24
  8
0
 62
     7
 10
41.076799999999999
 20
76.486435
 30
0.0
 40
3.0923400000000001
  1
155
 50
90.0
 41
0.5
 72
     1
 11
41.076799999999999
 21
78.290300000000002
 31
0.0
  0
TEXT
  5
25
  8
0
 62
     7
 10
41.076799999999999
 20
119.29483
 30
0.0
 40
3.0923400000000001
  1
100
 50
90.0
 41
0.5
 72
     1
 11
41.076799999999999
 21
120.84099999999999
 31
0.0
  0
TEXT
  5
26
  8
0
 62
     7
 10
41.076799999999999
 20
150.38852499999999
 30
0.0
 40
3.0923400000000001
  1
84
 50
90.0
 41
0.5
 72
     1
 11
41.076799999999999
 21
151.67699999999999
 31
0.0
  0
TEXT
  5
27
  8
0
 62
     7
 10
58.580100000000002
 20
60.727800000000002
 30
0.0
 40
3.0923400000000001
  1
%%c72
 41
0.5
  0
TEXT
  5
28
  8
0
 62
     7
 10
98.139651999999998
 20
207.87299999999991
 30
0.0
 40
3.0923400000000001
  1
台座
 41
0.5
 72
     1
 11
99.788899999999984
 21
207.87299999999991
 31
0.0
  0
TEXT
  5
29
  8
0
 62
     7
 10
97.727339999999984
 20
216.32899999999989
 30
0.0
 40
3.0923400000000001
  1
%%c24
 41
0.5
 72
     1
 11
99.788899999999984
 21
216.32899999999989
 31
0.0
  0
TEXT
  5
2A
  8
0
 62
     7
 10
97.856787500000024
 20
244.029
 30
0.0
 40
3.0923400000000001
  1
%%c50
 41
0.5
 72
     1
 11
99.789500000000004
 21
244.029
 31
0.0
  0
TEXT
  5
2B
  8
0
 62
     7
 10
60.220434999999988
 20
172.54599999999991
 30
0.0
 40
3.0923400000000001
  1
%%c31
 41
0.5
 72
     1
 11
62.02429999999999
 21
172.54599999999991
 31
0.0
  0
TEXT
  5
2C
  8
0
 62
     7
 10
128.78183000000001
 20
183.417
 30
0.0
 40
3.0923400000000001
  1
100
 41
0.5
 72
     1
 11
130.32799999999989
 21
183.417
 31
0.0
  0
TEXT
  5
2D
  8
0
 62
     7
 10
129.59452499999989
 20
177.64500000000001
 30
0.0
 40
3.0923400000000001
  1
96
 41
0.5
 72
     1
 11
130.8829999999999
 21
177.64500000000001
 31
0.0
  0
TEXT
  5
2E
  8
0
 62
     7
 10
106.78100000000001
 20
168.93021999999999
 30
0.0
 40
3.0923400000000001
  1
8
 50
90.0
 41
0.5
 72
     2
 11
106.78100000000001
 21
169.9609999999999
 31
0.0
  0
TEXT
  5
2F
  8
0
 62
     7
 10
48.884500000000003
 20
127.1785749999999
 30
0.0
 40
3.0923400000000001
  1
max.55
 50
90.0
 41
0.5
 72
     1
 11
48.884500000000003
 21
131.0439999999999
 31
0.0
  0
TEXT
  5
30
  8
0
 62
     7
 10
132.017
 20
147.51352499999999
 30
0.0
 40
3.0923400000000001
  1
68
 50
90.0
 41
0.5
 72
     1
 11
132.017
 21
148.80199999999999
 31
0.0
  0
TEXT
  5
31
  8
0
 62
     7
 10
105.29600000000001
 20
139.54599999999991
 30
0.0
 40
3.0923400000000001
  1
吐出時の高さ
 41
0.5
  0
TEXT
  5
32
  8
0
 62
     7
 10
110.44164599999991
 20
218.32599999999999
 30
0.0
 40
3.0923400000000001
  1
t＝3
 41
0.5
 72
     2
 11
114.8739999999999
 21
218.32599999999999
 31
0.0
  0
TEXT
  5
33
  8
0
 62
     7
 10
109.28999999999991
 20
152.80199999999999
 30
0.0
 40
3.0923400000000001
  1
吐出口
 41
0.5
  0
TEXT
  5
34
  8
0
 62
     7
 10
132.464
 20
223.41
 30
0.0
 40
3.0923400000000001
  1
%%c26
 41
0.5
  0
TEXT
  5
35
  8
0
 62
     7
 10
144.48005000000001
 20
216.5979999999999
 30
0.0
 40
3.0923400000000001
  1
取付穴
 41
0.5
 72
     1
 11
147.05699999999999
 21
216.5979999999999
 31
0.0
  0
TEXT
  5
36
  8
0
 62
     7
 10
138.44998699999999
 20
212.732
 30
0.0
 40
3.0923400000000001
  1
（台座使用時%%c35）
 41
0.5
 72
     1
 11
147.05699999999999
 21
212.732
 31
0.0
  0
TEXT
  5
37
  8
0
 62
     7
 10
65.768999999999991
 20
216.18299999999999
 30
0.0
 40
3.0923400000000001
  1
スパウト回転
 41
0.5
  0
TEXT
  5
38
  8
0
 62
     7
 10
65.768999999999991
 20
212.31700000000001
 30
0.0
 40
3.0923400000000001
  1
360%%d
 41
0.5
  0
LINE
  5
39
  8
0
 62
     7
 10
134.928
 20
70.331400000000002
 30
0.0
 11
134.928
 21
55.043300000000002
 31
0.0
  0
LINE
  5
3A
  8
0
 62
     7
 10
137.74399999999989
 20
81.013300000000001
 30
0.0
 11
138.04300000000001
 21
81.541799999999995
 31
0.0
  0
ARC
  5
3B
  8
0
 62
     7
 10
156.69959399999991
 20
70.303351000000006
 30
0.0
 40
21.771939
 50
150.53132600000001
 51
179.926219
  0
LINE
  5
3C
  8
0
 62
     7
 10
141.42699999999999
 20
103.877
 30
0.0
 11
140.83600000000001
 21
91.212199999999996
 31
0.0
  0
ARC
  5
3D
  8
0
 62
     7
 10
119.1056169999999
 20
92.249649000000005
 30
0.0
 40
21.755181
 50
330.51276300000001
 51
357.26676800000001
  0
LINE
  5
3E
  8
0
 62
     7
 10
136.59399999999991
 20
52.710299999999989
 30
0.0
 11
134.928
 21
55.043300000000002
 31
0.0
  0
LINE
  5
3F
  8
0
 62
     7
 10
157.261
 20
52.710299999999989
 30
0.0
 11
158.928
 21
55.043300000000002
 31
0.0
  0
LINE
  5
40
  8
0
 62
     7
 10
156.11199999999999
 20
81.013300000000001
 30
0.0
 11
155.81200000000001
 21
81.541799999999995
 31
0.0
  0
LINE
  5
41
  8
0
 62
     7
 10
152.42699999999999
 20
103.877
 30
0.0
 11
153.01900000000001
 21
91.212199999999996
 31
0.0
  0
ARC
  5
42
  8
0
 62
     7
 10
174.75743
 20
92.251855000000006
 30
0.0
 40
21.762913999999999
 50
182.7380939999999
 51
209.482416
  0
LINE
  5
43
  8
0
 62
     7
 10
158.928
 20
70.331400000000002
 30
0.0
 11
158.928
 21
55.043300000000002
 31
0.0
  0
ARC
  5
44
  8
0
 62
     7
 10
137.14671100000001
 20
70.30095
 30
0.0
 40
21.781048999999999
 50
0.080046
 51
29.462367999999991
  0
LINE
  5
45
  8
0
 62
     7
 10
136.59399999999991
 20
52.710299999999989
 30
0.0
 11
146.92799999999991
 21
52.710299999999989
 31
0.0
  0
LINE
  5
46
  8
0
 62
     7
 10
146.92799999999991
 20
52.710299999999989
 30
0.0
 11
157.261
 21
52.710299999999989
 31
0.0
  0
LINE
  5
47
  8
0
 62
     7
 10
49.880800000000001
 20
70.331400000000002
 30
0.0
 11
49.880800000000001
 21
55.043300000000002
 31
0.0
  0
LINE
  5
48
  8
0
 62
     7
 10
52.696899999999999
 20
81.013300000000001
 30
0.0
 11
52.995899999999999
 21
81.541799999999995
 31
0.0
  0
ARC
  5
49
  8
0
 62
     7
 10
71.65848299999999
 20
70.302448999999996
 30
0.0
 40
21.777682999999989
 50
150.53713699999989
 51
179.9238639999999
  0
LINE
  5
4A
  8
0
 62
     7
 10
56.380400000000002
 20
103.877
 30
0.0
 11
55.788899999999998
 21
91.212199999999996
 31
0.0
  0
ARC
  5
4B
  8
0
 62
     7
 10
34.063456000000002
 20
92.248193999999984
 30
0.0
 40
21.750080000000001
 50
330.509567
 51
357.2699629999999
  0
LINE
  5
4C
  8
0
 62
     7
 10
51.547199999999997
 20
52.710299999999989
 30
0.0
 11
49.880800000000001
 21
55.043300000000002
 31
0.0
  0
LINE
  5
4D
  8
0
 62
     7
 10
72.214100000000002
 20
52.710299999999989
 30
0.0
 11
73.880899999999997
 21
55.043300000000002
 31
0.0
  0
LINE
  5
4E
  8
0
 62
     7
 10
71.064499999999995
 20
81.013300000000001
 30
0.0
 11
70.765100000000004
 21
81.541799999999995
 31
0.0
  0
LINE
  5
4F
  8
0
 62
     7
 10
67.380600000000001
 20
103.877
 30
0.0
 11
67.972499999999997
 21
91.212199999999996
 31
0.0
  0
ARC
  5
50
  8
0
 62
     7
 10
89.704802000000001
 20
92.250186999999997
 30
0.0
 40
21.757065999999998
 50
182.734433
 51
209.48607699999991
  0
LINE
  5
51
  8
0
 62
     7
 10
73.880899999999997
 20
70.331400000000002
 30
0.0
 11
73.880899999999997
 21
55.043300000000002
 31
0.0
  0
ARC
  5
52
  8
0
 62
     7
 10
52.10216599999999
 20
70.300947999999991
 30
0.0
 40
21.778739000000002
 50
0.080062
 51
29.465807999999988
  0
LINE
  5
53
  8
0
 62
     7
 10
51.547199999999997
 20
52.710299999999989
 30
0.0
 11
61.88089999999999
 21
52.710299999999989
 31
0.0
  0
LINE
  5
54
  8
0
 62
     7
 10
61.88089999999999
 20
52.710299999999989
 30
0.0
 11
72.214100000000002
 21
52.710299999999989
 31
0.0
  0
ARC
  5
55
  8
0
 62
     7
 10
99.789199000000011
 20
230.90777999999989
 30
0.0
 40
3.9997820000000002
 50
270.00248699999997
 51
0.002458
  0
ARC
  5
56
  8
0
 62
     7
 10
99.789285000000007
 20
230.90803700000001
 30
0.0
 40
4.0000390000000001
 50
180.0012439999999
 51
270.00125400000002
  0
ARC
  5
57
  8
0
 62
     7
 10
99.789286000000004
 20
230.90786399999999
 30
0.0
 40
4.0000400000000003
 50
89.998766000000003
 51
179.99873700000001
  0
ARC
  5
58
  8
0
 62
     7
 10
99.789199000000011
 20
230.9081229999999
 30
0.0
 40
3.9997820000000002
 50
359.99754200000001
 51
89.997512999999984
  0
ARC
  5
59
  8
0
 62
     7
 10
99.789456999999999
 20
230.908039
 30
0.0
 40
8.3334820000000001
 50
269.99942799999991
 51
359.99939799999993
  0
ARC
  5
5A
  8
0
 62
     7
 10
99.789370000000005
 20
230.90795
 30
0.0
 40
8.3333929999999992
 50
179.99996999999991
 51
270.00002000000001
  0
ARC
  5
5B
  8
0
 62
     7
 10
99.789372999999998
 20
230.90795
 30
0.0
 40
8.3333960000000005
 50
90.0
 51
179.99996999999991
  0
ARC
  5
5C
  8
0
 62
     7
 10
99.789456999999999
 20
230.90786399999999
 30
0.0
 40
8.3334820000000001
 50
0.000602
 51
90.000572000000005
  0
LINE
  5
5D
  8
0
 62
     7
 10
140.71700000000001
 20
132.12100000000001
 30
0.0
 11
142.92899999999989
 21
131.529
 31
0.0
  0
LINE
  5
5E
  8
0
 62
     7
 10
142.92899999999989
 20
131.529
 30
0.0
 11
140.71700000000001
 21
130.93600000000001
 31
0.0
  0
LINE
  5
5F
  8
0
 62
     7
 10
140.71700000000001
 20
130.93600000000001
 30
0.0
 11
140.71700000000001
 21
132.12100000000001
 31
0.0
  0
LINE
  5
60
  8
0
 62
     7
 10
142.928
 20
131.529
 30
0.0
 11
138.8189999999999
 21
131.529
 31
0.0
  0
LINE
  5
61
  8
0
 62
     7
 10
153.13900000000001
 20
130.95099999999991
 30
0.0
 11
150.92699999999999
 21
131.54300000000001
 31
0.0
  0
LINE
  5
62
  8
0
 62
     7
 10
150.92699999999999
 20
131.54300000000001
 30
0.0
 11
153.13900000000001
 21
132.136
 31
0.0
  0
LINE
  5
63
  8
0
 62
     7
 10
153.13900000000001
 20
132.136
 30
0.0
 11
153.13900000000001
 21
130.95099999999991
 31
0.0
  0
LINE
  5
64
  8
0
 62
     7
 10
160.7229999999999
 20
131.529
 30
0.0
 11
150.92799999999991
 21
131.529
 31
0.0
  0
LINE
  5
65
  8
0
 62
     7
 10
150.92699999999999
 20
131.529
 30
0.0
 11
142.92899999999989
 21
131.529
 31
0.0
  0
LINE
  5
66
  8
0
 62
     7
 10
42.369399999999992
 20
102.166
 30
0.0
 11
41.776899999999998
 21
104.377
 31
0.0
  0
LINE
  5
67
  8
0
 62
     7
 10
41.776899999999998
 20
104.377
 30
0.0
 11
41.1843
 21
102.166
 31
0.0
  0
LINE
  5
68
  8
0
 62
     7
 10
41.1843
 20
102.166
 30
0.0
 11
42.369399999999992
 21
102.166
 31
0.0
  0
LINE
  5
69
  8
0
 62
     7
 10
41.1843
 20
54.9221
 30
0.0
 11
41.776899999999998
 21
52.710299999999989
 31
0.0
  0
LINE
  5
6A
  8
0
 62
     7
 10
41.776899999999998
 20
52.710299999999989
 30
0.0
 11
42.369399999999992
 21
54.9221
 31
0.0
  0
LINE
  5
6B
  8
0
 62
     7
 10
42.369399999999992
 20
54.9221
 30
0.0
 11
41.1843
 21
54.9221
 31
0.0
  0
LINE
  5
6C
  8
0
 62
     7
 10
41.776899999999998
 20
104.377
 30
0.0
 11
41.776899999999998
 21
52.710299999999989
 31
0.0
  0
LINE
  5
6D
  8
0
 62
     7
 10
50.147100000000002
 20
52.710299999999989
 30
0.0
 11
41.076799999999999
 21
52.710299999999989
 31
0.0
  0
LINE
  5
6E
  8
0
 62
     7
 10
42.369399999999992
 20
135.49899999999991
 30
0.0
 11
41.776899999999998
 21
137.71000000000001
 31
0.0
  0
LINE
  5
6F
  8
0
 62
     7
 10
41.776899999999998
 20
137.71000000000001
 30
0.0
 11
41.1843
 21
135.49899999999991
 31
0.0
  0
LINE
  5
70
  8
0
 62
     7
 10
41.1843
 20
135.49899999999991
 30
0.0
 11
42.369399999999992
 21
135.49899999999991
 31
0.0
  0
LINE
  5
71
  8
0
 62
     7
 10
41.1843
 20
106.589
 30
0.0
 11
41.776899999999998
 21
104.377
 31
0.0
  0
LINE
  5
72
  8
0
 62
     7
 10
41.776899999999998
 20
104.377
 30
0.0
 11
42.369399999999992
 21
106.589
 31
0.0
  0
LINE
  5
73
  8
0
 62
     7
 10
42.369399999999992
 20
106.589
 30
0.0
 11
41.1843
 21
106.589
 31
0.0
  0
LINE
  5
74
  8
0
 62
     7
 10
41.776899999999998
 20
137.71000000000001
 30
0.0
 11
41.776899999999998
 21
104.377
 31
0.0
  0
LINE
  5
75
  8
0
 62
     7
 10
42.369399999999992
 20
163.49799999999991
 30
0.0
 11
41.776899999999998
 21
165.70999999999989
 31
0.0
  0
LINE
  5
76
  8
0
 62
     7
 10
41.776899999999998
 20
165.70999999999989
 30
0.0
 11
41.1843
 21
163.49799999999991
 31
0.0
  0
LINE
  5
77
  8
0
 62
     7
 10
41.1843
 20
163.49799999999991
 30
0.0
 11
42.369399999999992
 21
163.49799999999991
 31
0.0
  0
LINE
  5
78
  8
0
 62
     7
 10
41.1843
 20
139.92199999999991
 30
0.0
 11
41.776899999999998
 21
137.71000000000001
 31
0.0
  0
LINE
  5
79
  8
0
 62
     7
 10
41.776899999999998
 20
137.71000000000001
 30
0.0
 11
42.369399999999992
 21
139.92199999999991
 31
0.0
  0
LINE
  5
7A
  8
0
 62
     7
 10
42.369399999999992
 20
139.92199999999991
 30
0.0
 11
41.1843
 21
139.92199999999991
 31
0.0
  0
LINE
  5
7B
  8
0
 62
     7
 10
41.776899999999998
 20
165.709
 30
0.0
 11
41.776899999999998
 21
137.71000000000001
 31
0.0
  0
LINE
  5
7C
  8
0
 62
     7
 10
71.6691
 20
58.732999999999997
 30
0.0
 11
73.880899999999997
 21
59.325600000000001
 31
0.0
  0
LINE
  5
7D
  8
0
 62
     7
 10
73.880899999999997
 20
59.325600000000001
 30
0.0
 11
71.6691
 21
59.918199999999999
 31
0.0
  0
LINE
  5
7E
  8
0
 62
     7
 10
71.6691
 20
59.918199999999999
 30
0.0
 11
71.6691
 21
58.732999999999997
 31
0.0
  0
LINE
  5
7F
  8
0
 62
     7
 10
52.092599999999997
 20
59.918199999999999
 30
0.0
 11
49.880800000000001
 21
59.325600000000001
 31
0.0
  0
LINE
  5
80
  8
0
 62
     7
 10
49.880800000000001
 20
59.325600000000001
 30
0.0
 11
52.092599999999997
 21
58.732999999999997
 31
0.0
  0
LINE
  5
81
  8
0
 62
     7
 10
52.092599999999997
 20
58.732999999999997
 30
0.0
 11
52.092599999999997
 21
59.918199999999999
 31
0.0
  0
LINE
  5
82
  8
0
 62
     7
 10
73.880899999999997
 20
59.325600000000001
 30
0.0
 11
49.880800000000001
 21
59.325600000000001
 31
0.0
  0
LINE
  5
83
  8
0
 62
     7
 10
141.42699999999999
 20
103.877
 30
0.0
 11
152.42699999999999
 21
103.877
 31
0.0
  0
LINE
  5
84
  8
0
 62
     7
 10
151.261
 20
104.377
 30
0.0
 11
142.59399999999991
 21
104.377
 31
0.0
  0
LINE
  5
85
  8
0
 62
     7
 10
151.261
 20
103.877
 30
0.0
 11
142.59399999999991
 21
103.877
 31
0.0
  0
LINE
  5
86
  8
0
 62
     7
 10
142.59399999999991
 20
103.877
 30
0.0
 11
142.59399999999991
 21
112.70999999999989
 31
0.0
  0
LINE
  5
87
  8
0
 62
     7
 10
142.59399999999991
 20
112.70999999999989
 30
0.0
 11
151.261
 21
112.70999999999989
 31
0.0
  0
LINE
  5
88
  8
0
 62
     7
 10
151.261
 20
112.70999999999989
 30
0.0
 11
151.261
 21
103.877
 31
0.0
  0
LINE
  5
89
  8
0
 62
     7
 10
150.59399999999999
 20
120.377
 30
0.0
 11
150.59399999999999
 21
112.70999999999989
 31
0.0
  0
LINE
  5
8A
  8
0
 62
     7
 10
143.25999999999991
 20
120.377
 30
0.0
 11
143.25999999999991
 21
112.70999999999989
 31
0.0
  0
LINE
  5
8B
  8
0
 62
     7
 10
142.928
 20
112.70999999999989
 30
0.0
 11
142.928
 21
120.377
 31
0.0
  0
LINE
  5
8C
  8
0
 62
     7
 10
150.92699999999999
 20
120.377
 30
0.0
 11
150.92699999999999
 21
112.70999999999989
 31
0.0
  0
LINE
  5
8D
  8
0
 62
     7
 10
101.5779999999999
 20
213.98500000000001
 30
0.0
 11
103.7889999999999
 21
214.577
 31
0.0
  0
LINE
  5
8E
  8
0
 62
     7
 10
103.7889999999999
 20
214.577
 30
0.0
 11
101.5779999999999
 21
215.1699999999999
 31
0.0
  0
LINE
  5
8F
  8
0
 62
     7
 10
101.5779999999999
 20
215.1699999999999
 30
0.0
 11
101.5779999999999
 21
213.98500000000001
 31
0.0
  0
LINE
  5
90
  8
0
 62
     7
 10
98.000800000000012
 20
215.1699999999999
 30
0.0
 11
95.788899999999984
 21
214.577
 31
0.0
  0
LINE
  5
91
  8
0
 62
     7
 10
95.788899999999984
 20
214.577
 30
0.0
 11
98.000800000000012
 21
213.98500000000001
 31
0.0
  0
LINE
  5
92
  8
0
 62
     7
 10
98.000800000000012
 20
213.98500000000001
 30
0.0
 11
98.000800000000012
 21
215.1699999999999
 31
0.0
  0
LINE
  5
93
  8
0
 62
     7
 10
103.7889999999999
 20
214.577
 30
0.0
 11
95.788899999999984
 21
214.577
 31
0.0
  0
LINE
  5
94
  8
0
 62
     7
 10
103.7889999999999
 20
228.43799999999999
 30
0.0
 11
103.7889999999999
 21
213.87700000000001
 31
0.0
  0
LINE
  5
95
  8
0
 62
     7
 10
95.788899999999984
 20
213.85400000000001
 30
0.0
 11
95.788899999999984
 21
228.43799999999999
 31
0.0
  0
LINE
  5
96
  8
0
 62
     7
 10
105.91200000000001
 20
242.035
 30
0.0
 11
108.12299999999991
 21
242.6279999999999
 31
0.0
  0
LINE
  5
97
  8
0
 62
     7
 10
108.12299999999991
 20
242.6279999999999
 30
0.0
 11
105.91200000000001
 21
243.21999999999991
 31
0.0
  0
LINE
  5
98
  8
0
 62
     7
 10
105.91200000000001
 20
243.21999999999991
 30
0.0
 11
105.91200000000001
 21
242.035
 31
0.0
  0
LINE
  5
99
  8
0
 62
     7
 10
93.667899999999989
 20
243.21999999999991
 30
0.0
 11
91.456100000000006
 21
242.6279999999999
 31
0.0
  0
LINE
  5
9A
  8
0
 62
     7
 10
91.456100000000006
 20
242.6279999999999
 30
0.0
 11
93.667899999999989
 21
242.035
 31
0.0
  0
LINE
  5
9B
  8
0
 62
     7
 10
93.667899999999989
 20
242.035
 30
0.0
 11
93.667899999999989
 21
243.21999999999991
 31
0.0
  0
LINE
  5
9C
  8
0
 62
     7
 10
108.12299999999991
 20
242.6279999999999
 30
0.0
 11
91.456100000000006
 21
242.6279999999999
 31
0.0
  0
LINE
  5
9D
  8
0
 62
     7
 10
108.12299999999991
 20
243.32799999999989
 30
0.0
 11
108.12299999999991
 21
233.81399999999999
 31
0.0
  0
LINE
  5
9E
  8
0
 62
     7
 10
91.456100000000006
 20
233.79099999999991
 30
0.0
 11
91.456100000000006
 21
243.32799999999989
 31
0.0
  0
LINE
  5
9F
  8
0
 62
     7
 10
64.835700000000003
 20
170.55199999999999
 30
0.0
 11
67.047499999999999
 21
171.14400000000001
 31
0.0
  0
LINE
  5
A0
  8
0
 62
     7
 10
67.047499999999999
 20
171.14400000000001
 30
0.0
 11
64.835700000000003
 21
171.73699999999999
 31
0.0
  0
LINE
  5
A1
  8
0
 62
     7
 10
64.835700000000003
 20
171.73699999999999
 30
0.0
 11
64.835700000000003
 21
170.55199999999999
 31
0.0
  0
LINE
  5
A2
  8
0
 62
     7
 10
58.9253
 20
171.73699999999999
 30
0.0
 11
56.713500000000003
 21
171.14400000000001
 31
0.0
  0
LINE
  5
A3
  8
0
 62
     7
 10
56.713500000000003
 20
171.14400000000001
 30
0.0
 11
58.9253
 21
170.55199999999999
 31
0.0
  0
LINE
  5
A4
  8
0
 62
     7
 10
58.9253
 20
170.55199999999999
 30
0.0
 11
58.9253
 21
171.73699999999999
 31
0.0
  0
LINE
  5
A5
  8
0
 62
     7
 10
67.0471
 20
171.14400000000001
 30
0.0
 11
56.713500000000003
 21
171.14400000000001
 31
0.0
  0
LINE
  5
A6
  8
0
 62
     7
 10
67.0471
 20
171.84399999999999
 30
0.0
 11
67.0471
 21
166.51599999999999
 31
0.0
  0
LINE
  5
A7
  8
0
 62
     7
 10
56.713500000000003
 20
166.49299999999999
 30
0.0
 11
56.713500000000003
 21
171.84399999999999
 31
0.0
  0
LINE
  5
A8
  8
0
 62
     7
 10
144.71600000000001
 20
182.125
 30
0.0
 11
146.92799999999991
 21
182.71700000000001
 31
0.0
  0
LINE
  5
A9
  8
0
 62
     7
 10
146.92799999999991
 20
182.71700000000001
 30
0.0
 11
144.71600000000001
 21
183.30999999999989
 31
0.0
  0
LINE
  5
AA
  8
0
 62
     7
 10
144.71600000000001
 20
183.30999999999989
 30
0.0
 11
144.71600000000001
 21
182.125
 31
0.0
  0
LINE
  5
AB
  8
0
 62
     7
 10
115.806
 20
183.30999999999989
 30
0.0
 11
113.59399999999989
 21
182.71700000000001
 31
0.0
  0
LINE
  5
AC
  8
0
 62
     7
 10
113.59399999999989
 20
182.71700000000001
 30
0.0
 11
115.806
 21
182.125
 31
0.0
  0
LINE
  5
AD
  8
0
 62
     7
 10
115.806
 20
182.125
 30
0.0
 11
115.806
 21
183.30999999999989
 31
0.0
  0
LINE
  5
AE
  8
0
 62
     7
 10
146.92799999999991
 20
182.71700000000001
 30
0.0
 11
113.59399999999989
 21
182.71700000000001
 31
0.0
  0
LINE
  5
AF
  8
0
 62
     7
 10
113.59399999999989
 20
165.92699999999999
 30
0.0
 11
113.59399999999989
 21
183.417
 31
0.0
  0
LINE
  5
B0
  8
0
 62
     7
 10
146.92799999999991
 20
183.417
 30
0.0
 11
146.92799999999991
 21
166.97099999999989
 31
0.0
  0
LINE
  5
B1
  8
0
 62
     7
 10
144.71600000000001
 20
176.35199999999989
 30
0.0
 11
146.92799999999991
 21
176.94499999999991
 31
0.0
  0
LINE
  5
B2
  8
0
 62
     7
 10
146.92799999999991
 20
176.94499999999991
 30
0.0
 11
144.71600000000001
 21
177.53700000000001
 31
0.0
  0
LINE
  5
B3
  8
0
 62
     7
 10
144.71600000000001
 20
177.53700000000001
 30
0.0
 11
144.71600000000001
 21
176.35199999999989
 31
0.0
  0
LINE
  5
B4
  8
0
 62
     7
 10
117.1389999999999
 20
177.53700000000001
 30
0.0
 11
114.92700000000001
 21
176.94499999999991
 31
0.0
  0
LINE
  5
B5
  8
0
 62
     7
 10
114.92700000000001
 20
176.94499999999991
 30
0.0
 11
117.1389999999999
 21
176.35199999999989
 31
0.0
  0
LINE
  5
B6
  8
0
 62
     7
 10
117.1389999999999
 20
176.35199999999989
 30
0.0
 11
117.1389999999999
 21
177.53700000000001
 31
0.0
  0
LINE
  5
B7
  8
0
 62
     7
 10
146.92799999999991
 20
176.94499999999991
 30
0.0
 11
114.92700000000001
 21
176.94499999999991
 31
0.0
  0
LINE
  5
B8
  8
0
 62
     7
 10
114.92700000000001
 20
166.9379999999999
 30
0.0
 11
114.92700000000001
 21
177.64500000000001
 31
0.0
  0
LINE
  5
B9
  8
0
 62
     7
 10
106.78100000000001
 20
165.37999999999991
 30
0.0
 11
112.84399999999989
 21
165.37999999999991
 31
0.0
  0
LINE
  5
BA
  8
0
 62
     7
 10
106.77799999999991
 20
162.71399999999991
 30
0.0
 11
112.89399999999991
 21
162.71399999999991
 31
0.0
  0
LINE
  5
BB
  8
0
 62
     7
 10
106.90000000000001
 20
160.50200000000001
 30
0.0
 11
107.492
 21
162.71399999999991
 31
0.0
  0
LINE
  5
BC
  8
0
 62
     7
 10
107.492
 20
162.71399999999991
 30
0.0
 11
108.08499999999989
 21
160.50200000000001
 31
0.0
  0
LINE
  5
BD
  8
0
 62
     7
 10
108.08499999999989
 20
160.50200000000001
 30
0.0
 11
106.90000000000001
 21
160.50200000000001
 31
0.0
  0
LINE
  5
BE
  8
0
 62
     7
 10
107.492
 20
162.71399999999991
 30
0.0
 11
107.492
 21
159.11299999999989
 31
0.0
  0
LINE
  5
BF
  8
0
 62
     7
 10
108.071
 20
167.59200000000001
 30
0.0
 11
107.47799999999999
 21
165.37999999999991
 31
0.0
  0
LINE
  5
C0
  8
0
 62
     7
 10
107.47799999999999
 20
165.37999999999991
 30
0.0
 11
106.88500000000001
 21
167.59200000000001
 31
0.0
  0
LINE
  5
C1
  8
0
 62
     7
 10
106.88500000000001
 20
167.59200000000001
 30
0.0
 11
108.071
 21
167.59200000000001
 31
0.0
  0
LINE
  5
C2
  8
0
 62
     7
 10
107.492
 20
169.9609999999999
 30
0.0
 11
107.492
 21
165.38099999999989
 31
0.0
  0
LINE
  5
C3
  8
0
 62
     7
 10
107.492
 20
165.37999999999991
 30
0.0
 11
107.492
 21
162.71399999999991
 31
0.0
  0
LINE
  5
C4
  8
0
 62
     7
 10
143.41699999999989
 20
227.39699999999999
 30
0.0
 11
150.499
 21
234.4559999999999
 31
0.0
  0
LINE
  5
C5
  8
0
 62
     7
 10
151.1699999999999
 20
235.96700000000001
 30
0.0
 11
150.02600000000001
 21
233.98500000000001
 31
0.0
  0
LINE
  5
C6
  8
0
 62
     7
 10
150.02600000000001
 20
233.98500000000001
 30
0.0
 11
152.0089999999999
 21
235.12899999999999
 31
0.0
  0
LINE
  5
C7
  8
0
 62
     7
 10
152.0089999999999
 20
235.12899999999999
 30
0.0
 11
151.1699999999999
 21
235.96700000000001
 31
0.0
  0
LINE
  5
C8
  8
0
 62
     7
 10
150.499
 20
234.4559999999999
 30
0.0
 11
152.988
 21
236.92299999999989
 31
0.0
  0
LINE
  5
C9
  8
0
 62
     7
 10
56.380400000000002
 20
103.877
 30
0.0
 11
67.380300000000005
 21
103.877
 31
0.0
  0
LINE
  5
CA
  8
0
 62
     7
 10
66.213800000000006
 20
104.377
 30
0.0
 11
57.546900000000001
 21
104.377
 31
0.0
  0
LINE
  5
CB
  8
0
 62
     7
 10
66.213800000000006
 20
103.877
 30
0.0
 11
57.546900000000001
 21
103.877
 31
0.0
  0
LINE
  5
CC
  8
0
 62
     7
 10
57.546900000000001
 20
103.877
 30
0.0
 11
57.546900000000001
 21
112.70999999999989
 31
0.0
  0
LINE
  5
CD
  8
0
 62
     7
 10
57.546900000000001
 20
112.70999999999989
 30
0.0
 11
66.213800000000006
 21
112.70999999999989
 31
0.0
  0
LINE
  5
CE
  8
0
 62
     7
 10
66.213800000000006
 20
112.70999999999989
 30
0.0
 11
66.213800000000006
 21
103.877
 31
0.0
  0
LINE
  5
CF
  8
0
 62
     7
 10
56.713500000000003
 20
123.7109999999999
 30
0.0
 11
56.713500000000003
 21
120.377
 31
0.0
  0
LINE
  5
D0
  8
0
 62
     7
 10
67.0471
 20
123.7109999999999
 30
0.0
 11
67.0471
 21
120.377
 31
0.0
  0
LINE
  5
D1
  8
0
 62
     7
 10
62.213700000000003
 20
123.7109999999999
 30
0.0
 11
62.213700000000003
 21
120.377
 31
0.0
  0
LINE
  5
D2
  8
0
 62
     7
 10
61.546999999999997
 20
123.7109999999999
 30
0.0
 11
61.546999999999997
 21
120.377
 31
0.0
  0
LINE
  5
D3
  8
0
 62
     7
 10
68.7136
 20
120.377
 30
0.0
 11
55.0471
 21
120.377
 31
0.0
  0
LINE
  5
D4
  8
0
 62
     7
 10
55.0471
 20
120.377
 30
0.0
 11
54.380499999999998
 21
123.7109999999999
 31
0.0
  0
LINE
  5
D5
  8
0
 62
     7
 10
54.380499999999998
 20
123.7109999999999
 30
0.0
 11
69.380499999999998
 21
123.7109999999999
 31
0.0
  0
LINE
  5
D6
  8
0
 62
     7
 10
69.380499999999998
 20
123.7109999999999
 30
0.0
 11
68.7136
 21
120.377
 31
0.0
  0
LINE
  5
D7
  8
0
 62
     7
 10
69.380499999999998
 20
123.7109999999999
 30
0.0
 11
54.380499999999998
 21
123.7109999999999
 31
0.0
  0
LINE
  5
D8
  8
0
 62
     7
 10
54.380499999999998
 20
123.7109999999999
 30
0.0
 11
54.380499999999998
 21
124.377
 31
0.0
  0
LINE
  5
D9
  8
0
 62
     7
 10
54.380499999999998
 20
124.377
 30
0.0
 11
69.380499999999998
 21
124.377
 31
0.0
  0
LINE
  5
DA
  8
0
 62
     7
 10
69.380499999999998
 20
124.377
 30
0.0
 11
69.380499999999998
 21
123.7109999999999
 31
0.0
  0
LINE
  5
DB
  8
0
 62
     7
 10
65.5471
 20
120.377
 30
0.0
 11
65.5471
 21
112.70999999999989
 31
0.0
  0
LINE
  5
DC
  8
0
 62
     7
 10
58.213200000000001
 20
120.377
 30
0.0
 11
58.213200000000001
 21
112.70999999999989
 31
0.0
  0
LINE
  5
DD
  8
0
 62
     7
 10
57.880699999999997
 20
112.70999999999989
 30
0.0
 11
57.880699999999997
 21
120.377
 31
0.0
  0
LINE
  5
DE
  8
0
 62
     7
 10
65.880300000000005
 20
120.377
 30
0.0
 11
65.880300000000005
 21
112.70999999999989
 31
0.0
  0
LINE
  5
DF
  8
0
 62
     7
 10
65.5471
 20
137.71000000000001
 30
0.0
 11
65.5471
 21
124.377
 31
0.0
  0
LINE
  5
E0
  8
0
 62
     7
 10
58.213200000000001
 20
137.71000000000001
 30
0.0
 11
58.213200000000001
 21
124.377
 31
0.0
  0
LINE
  5
E1
  8
0
 62
     7
 10
57.880699999999997
 20
124.377
 30
0.0
 11
57.880699999999997
 21
137.71000000000001
 31
0.0
  0
LINE
  5
E2
  8
0
 62
     7
 10
65.880300000000005
 20
137.71000000000001
 30
0.0
 11
65.880300000000005
 21
124.377
 31
0.0
  0
LINE
  5
E3
  8
0
 62
     7
 10
56.846800000000002
 20
104.377
 30
0.0
 11
41.076799999999999
 21
104.377
 31
0.0
  0
LINE
  5
E4
  8
0
 62
     7
 10
141.76099999999991
 20
123.7109999999999
 30
0.0
 11
141.76099999999991
 21
120.377
 31
0.0
  0
LINE
  5
E5
  8
0
 62
     7
 10
152.09399999999991
 20
123.7109999999999
 30
0.0
 11
152.09399999999991
 21
120.377
 31
0.0
  0
LINE
  5
E6
  8
0
 62
     7
 10
147.26099999999991
 20
123.7109999999999
 30
0.0
 11
147.26099999999991
 21
120.377
 31
0.0
  0
LINE
  5
E7
  8
0
 62
     7
 10
146.59399999999991
 20
123.7109999999999
 30
0.0
 11
146.59399999999991
 21
120.377
 31
0.0
  0
LINE
  5
E8
  8
0
 62
     7
 10
153.76099999999991
 20
120.377
 30
0.0
 11
140.09399999999999
 21
120.377
 31
0.0
  0
LINE
  5
E9
  8
0
 62
     7
 10
140.09399999999999
 20
120.377
 30
0.0
 11
139.42799999999991
 21
123.7109999999999
 31
0.0
  0
LINE
  5
EA
  8
0
 62
     7
 10
139.42799999999991
 20
123.7109999999999
 30
0.0
 11
154.428
 21
123.7109999999999
 31
0.0
  0
LINE
  5
EB
  8
0
 62
     7
 10
154.428
 20
123.7109999999999
 30
0.0
 11
153.76099999999991
 21
120.377
 31
0.0
  0
LINE
  5
EC
  8
0
 62
     7
 10
154.428
 20
123.7109999999999
 30
0.0
 11
139.42799999999991
 21
123.7109999999999
 31
0.0
  0
LINE
  5
ED
  8
0
 62
     7
 10
139.42799999999991
 20
123.7109999999999
 30
0.0
 11
139.42799999999991
 21
124.377
 31
0.0
  0
LINE
  5
EE
  8
0
 62
     7
 10
139.42799999999991
 20
124.377
 30
0.0
 11
154.428
 21
124.377
 31
0.0
  0
LINE
  5
EF
  8
0
 62
     7
 10
154.428
 20
124.377
 30
0.0
 11
154.428
 21
123.7109999999999
 31
0.0
  0
LINE
  5
F0
  8
0
 62
     7
 10
150.59399999999999
 20
137.71000000000001
 30
0.0
 11
150.59399999999999
 21
124.377
 31
0.0
  0
LINE
  5
F1
  8
0
 62
     7
 10
143.25999999999991
 20
137.71000000000001
 30
0.0
 11
143.25999999999991
 21
124.377
 31
0.0
  0
LINE
  5
F2
  8
0
 62
     7
 10
142.928
 20
124.377
 30
0.0
 11
142.928
 21
137.71000000000001
 31
0.0
  0
LINE
  5
F3
  8
0
 62
     7
 10
150.92699999999999
 20
137.71000000000001
 30
0.0
 11
150.92699999999999
 21
124.377
 31
0.0
  0
LINE
  5
F4
  8
0
  6
AIGENLINE002
 62
     7
 10
89.481599999999986
 20
230.9079999999999
 30
0.0
 11
110.294
 21
230.9079999999999
 31
0.0
  0
LINE
  5
F5
  8
0
  6
AIGENLINE002
 62
     7
 10
99.789400000000015
 20
241.17799999999991
 30
0.0
 11
99.789400000000015
 21
220.48099999999999
 31
0.0
  0
LINE
  5
F6
  8
0
  6
AIGENLINE002
 62
     7
 10
54.027700000000003
 20
230.9079999999999
 30
0.0
 11
69.658199999999994
 21
230.9079999999999
 31
0.0
  0
LINE
  5
F7
  8
0
  6
AIGENLINE002
 62
     7
 10
112.914
 20
161.71100000000001
 30
0.0
 11
143.018
 21
161.71100000000001
 31
0.0
  0
ARC
  5
F8
  8
0
 62
     7
 10
146.9332169999999
 20
230.95135999999999
 30
0.0
 40
4.3332689999999996
 50
270.00002000000001
 51
359.99998999999991
  0
ARC
  5
F9
  8
0
 62
     7
 10
146.93304499999991
 20
230.95153099999999
 30
0.0
 40
4.3334400000000004
 50
180.002287
 51
270.002297
  0
ARC
  5
FA
  8
0
 62
     7
 10
146.933132
 20
230.9512729999999
 30
0.0
 40
4.3335280000000003
 50
89.998861000000019
 51
179.99883099999991
  0
ARC
  5
FB
  8
0
 62
     7
 10
146.933131
 20
230.95144499999989
 30
0.0
 40
4.3333550000000001
 50
359.99887100000001
 51
89.998840999999999
  0
ARC
  5
FC
  8
0
 62
     7
 10
61.878095000000002
 20
230.90760800000001
 30
0.0
 40
5.1666429999999988
 50
270.00002000000001
 51
359.99998999999991
  0
ARC
  5
FD
  8
0
 62
     7
 10
61.878095000000002
 20
230.90760599999999
 30
0.0
 40
5.1666410000000003
 50
179.99996999999991
 51
270.00002000000001
  0
ARC
  5
FE
  8
0
 62
     7
 10
61.87809699999999
 20
230.90760599999999
 30
0.0
 40
5.1666429999999988
 50
90.0
 51
179.99996999999991
  0
ARC
  5
FF
  8
0
 62
     7
 10
61.878095000000002
 20
230.90760599999999
 30
0.0
 40
5.1666429999999988
 50
0.00001
 51
89.999980000000008
  0
LINE
  5
100
  8
0
 62
     7
 10
55.745100000000001
 20
165.70999999999989
 30
0.0
 11
41.076799999999999
 21
165.70999999999989
 31
0.0
  0
LINE
  5
101
  8
0
 62
     7
 10
152.09399999999991
 20
137.71000000000001
 30
0.0
 11
141.76099999999991
 21
137.71000000000001
 31
0.0
  0
LINE
  5
102
  8
0
 62
     7
 10
67.0471
 20
137.71000000000001
 30
0.0
 11
56.713500000000003
 21
137.71000000000001
 31
0.0
  0
LINE
  5
103
  8
0
 62
     7
 10
55.432600000000001
 20
137.71000000000001
 30
0.0
 11
41.076799999999999
 21
137.71000000000001
 31
0.0
  0
LINE
  5
104
  8
0
  6
AIGENLINE001
 62
     7
 10
141.76099999999991
 20
160.37700000000001
 30
0.0
 11
113.727
 21
160.37700000000001
 31
0.0
  0
ARC
  5
105
  8
0
  6
AIGENLINE001
 62
     7
 10
113.7320499999999
 20
160.51554400000001
 30
0.0
 40
0.138361
 50
182.12018399999999
 51
267.95391999999998
  0
LINE
  5
106
  8
0
  6
AIGENLINE001
 62
     7
 10
113.59399999999989
 20
160.50999999999999
 30
0.0
 11
113.59399999999989
 21
162.91
 31
0.0
  0
ARC
  5
107
  8
0
  6
AIGENLINE001
 62
     7
 10
113.732095
 20
162.90548200000001
 30
0.0
 40
0.1384
 50
92.063773999999995
 51
177.93619599999991
  0
LINE
  5
108
  8
0
  6
AIGENLINE001
 62
     7
 10
113.727
 20
163.0439999999999
 30
0.0
 11
141.76099999999991
 21
163.0439999999999
 31
0.0
  0
ARC
  5
109
  8
0
 62
     7
 10
63.075448000000002
 20
162.85189700000001
 30
0.0
 40
0.13841
 50
272.06773299999998
 51
357.932277
  0
LINE
  5
10A
  8
0
 62
     7
 10
63.080399999999997
 20
162.71399999999991
 30
0.0
 11
60.680199999999999
 21
162.71399999999991
 31
0.0
  0
ARC
  5
10B
  8
0
 62
     7
 10
60.685244999999988
 20
162.851563
 30
0.0
 40
0.138076
 50
181.9337679999999
 51
267.91801900000002
  0
LINE
  5
10C
  8
0
 62
     7
 10
60.547199999999989
 20
162.84700000000001
 30
0.0
 11
60.547199999999989
 21
165.24700000000001
 31
0.0
  0
ARC
  5
10D
  8
0
 62
     7
 10
60.685588000000003
 20
165.24194299999991
 30
0.0
 40
0.138431
 50
92.218796999999995
 51
177.929416
  0
LINE
  5
10E
  8
0
 62
     7
 10
60.680199999999999
 20
165.37999999999991
 30
0.0
 11
63.080399999999997
 21
165.37999999999991
 31
0.0
  0
ARC
  5
10F
  8
0
 62
     7
 10
63.075381000000007
 20
165.24188399999991
 30
0.0
 40
0.138479
 50
2.0941099999999988
 51
87.90588000000001
  0
LINE
  5
110
  8
0
 62
     7
 10
63.213799999999999
 20
165.24700000000001
 30
0.0
 11
63.213799999999999
 21
162.84700000000001
 31
0.0
  0
LINE
  5
111
  8
0
 62
     7
 10
141.88
 20
165.37999999999991
 30
0.0
 11
141.887
 21
165.37599999999989
 31
0.0
  0
LINE
  5
112
  8
0
 62
     7
 10
141.887
 20
165.37599999999989
 30
0.0
 11
141.89500000000001
 21
165.364
 31
0.0
  0
ARC
  5
113
  8
0
 62
     7
 10
141.77002599999989
 20
165.303471
 30
0.0
 40
0.138816
 50
17.166025000000001
 51
25.729442999999989
  0
ARC
  5
114
  8
0
 62
     7
 10
141.5262449999999
 20
165.24146499999989
 30
0.0
 40
0.390244
 50
11.34887299999999
 51
15.300186
  0
ARC
  5
115
  8
0
 62
     7
 10
141.35480799999999
 20
165.21883199999999
 30
0.0
 40
0.5629020000000001
 50
6.8579100000000004
 51
10.173653
  0
ARC
  5
116
  8
0
 62
     7
 10
141.5964929999999
 20
165.243627
 30
0.0
 40
0.320013
 50
1.180064999999999
 51
7.6173449999999994
  0
ARC
  5
117
  8
0
 62
     7
 10
141.21852699999991
 20
165.205634
 30
0.0
 40
0.6993330000000001
 50
0.6467000000000001
 51
3.655186
  0
ARC
  5
118
  8
0
 62
     7
 10
141.242537
 20
162.88719
 30
0.0
 40
0.6753070000000001
 50
356.30167499999999
 51
359.47566399999988
  0
ARC
  5
119
  8
0
 62
     7
 10
141.66086299999989
 20
162.84693999999999
 30
0.0
 40
0.2555969999999999
 50
351.03559799999988
 51
359.25821000000002
  0
ARC
  5
11A
  8
0
 62
     7
 10
141.42702700000001
 20
162.859666
 30
0.0
 40
0.489142
 50
350.08202599999993
 51
353.83218699999998
  0
ARC
  5
11B
  8
0
 62
     7
 10
141.64706200000001
 20
162.827471
 30
0.0
 40
0.266921
 50
342.99461099999991
 51
348.754414
  0
ARC
  5
11C
  8
0
 62
     7
 10
141.7186209999999
 20
162.80660399999999
 30
0.0
 40
0.192391
 50
336.51718899999997
 51
342.70448599999992
  0
LINE
  5
11D
  8
0
 62
     7
 10
141.89500000000001
 20
162.7299999999999
 30
0.0
 11
141.887
 21
162.7179999999999
 31
0.0
  0
LINE
  5
11E
  8
0
 62
     7
 10
141.887
 20
162.7179999999999
 30
0.0
 11
141.88
 21
162.71399999999991
 31
0.0
  0
ARC
  5
11F
  8
0
 62
     7
 10
60.720525000000002
 20
197.74763999999999
 30
0.0
 40
0.173388
 50
182.0415679999999
 51
267.84020400000003
  0
ARC
  5
120
  8
0
 62
     7
 10
63.040466000000002
 20
197.74767600000001
 30
0.0
 40
0.173413
 50
272.05340699999988
 51
357.94660299999993
  0
LINE
  5
121
  8
0
  6
AIGENLINE001
 62
     7
 10
113.761
 20
163.0439999999999
 30
0.0
 11
141.88
 21
163.0439999999999
 31
0.0
  0
ARC
  5
122
  8
0
 62
     7
 10
113.76678200000001
 20
165.2072729999999
 30
0.0
 40
0.17311
 50
92.070297999999994
 51
177.92967200000001
  0
ARC
  5
123
  8
0
 62
     7
 10
113.766819
 20
162.886765
 30
0.0
 40
0.17313
 50
181.90494499999991
 51
267.91778999999991
  0
ARC
  5
124
  8
0
 62
     7
 10
142.00381100000001
 20
162.612357
 30
0.0
 40
0.243279
 50
182.247467
 51
267.92132700000002
  0
ARC
  5
125
  8
0
 62
     7
 10
141.88762500000001
 20
165.57115400000001
 30
0.0
 40
0.126909
 50
105.9922489999999
 51
180.39979600000001
  0
ARC
  5
126
  8
0
 62
     7
 10
141.970448
 20
165.09315900000001
 30
0.0
 40
0.611445
 50
87.699927000000017
 51
101.10674299999999
  0
ARC
  5
127
  8
0
 62
     7
 10
142.12427099999999
 20
162.264971
 30
0.0
 40
0.104359
 50
2.0148820000000001
 51
87.591324
  0
ARC
  5
128
  8
0
 62
     7
 10
151.73053100000001
 20
162.265221
 30
0.0
 40
0.104086
 50
92.079416999999992
 51
178.117108
  0
ARC
  5
129
  8
0
 62
     7
 10
141.93442499999989
 20
159.52280999999999
 30
0.0
 40
0.173475
 50
92.072500000000005
 51
177.92747
  0
ARC
  5
12A
  8
0
 62
     7
 10
151.92065299999999
 20
159.52283399999999
 30
0.0
 40
0.173463
 50
2.0646200000000001
 51
87.817113000000006
  0
ARC
  5
12B
  8
0
 62
     7
 10
151.85147000000001
 20
162.61176499999991
 30
0.0
 40
0.242692
 50
272.11443500000001
 51
357.92781200000002
  0
ARC
  5
12C
  8
0
 62
     7
 10
151.85140000000001
 20
165.4673709999999
 30
0.0
 40
0.242765
 50
2.0881620000000001
 51
87.869590000000017
  0
LINE
  5
12D
  8
0
 62
     7
 10
141.995
 20
165.70999999999989
 30
0.0
 11
151.86000000000001
 21
165.70999999999989
 31
0.0
  0
LINE
  5
12E
  8
0
 62
     7
 10
141.995
 20
162.369
 30
0.0
 11
151.86000000000001
 21
162.369
 31
0.0
  0
LINE
  5
12F
  8
0
 62
     7
 10
141.928
 20
159.69599999999991
 30
0.0
 11
151.92699999999999
 21
159.69599999999991
 31
0.0
  0
LINE
  5
130
  8
0
 62
     7
 10
152.09399999999991
 20
165.476
 30
0.0
 11
152.09399999999991
 21
162.60299999999989
 31
0.0
  0
LINE
  5
131
  8
0
 62
     7
 10
151.62700000000001
 20
162.26900000000001
 30
0.0
 11
151.62700000000001
 21
159.69599999999991
 31
0.0
  0
LINE
  5
132
  8
0
 62
     7
 10
142.2289999999999
 20
162.26900000000001
 30
0.0
 11
142.2289999999999
 21
159.69599999999991
 31
0.0
  0
LINE
  5
133
  8
0
 62
     7
 10
141.76099999999991
 20
159.529
 30
0.0
 11
141.76099999999991
 21
137.71000000000001
 31
0.0
  0
ARC
  5
134
  8
0
 62
     7
 10
57.077039999999997
 20
162.264938
 30
0.0
 40
0.104393
 50
2.0322740000000001
 51
87.573931999999999
  0
ARC
  5
135
  8
0
 62
     7
 10
66.683338000000006
 20
162.2652149999999
 30
0.0
 40
0.104091
 50
92.082305000000005
 51
178.1142199999999
  0
ARC
  5
136
  8
0
 62
     7
 10
56.887232999999988
 20
159.522446
 30
0.0
 40
0.173839
 50
92.070154000000016
 51
177.811803
  0
ARC
  5
137
  8
0
 62
     7
 10
66.873788000000005
 20
159.52280999999999
 30
0.0
 40
0.173475
 50
2.072527
 51
87.927463000000003
  0
ARC
  5
138
  8
0
 62
     7
 10
56.956147000000001
 20
162.611884
 30
0.0
 40
0.24279
 50
182.099469
 51
268.02708799999999
  0
ARC
  5
139
  8
0
 62
     7
 10
66.804430000000011
 20
162.61196399999989
 30
0.0
 40
0.242886
 50
272.07549399999988
 51
357.88230899999991
  0
ARC
  5
13A
  8
0
 62
     7
 10
56.956594000000003
 20
165.4668749999999
 30
0.0
 40
0.243253
 50
92.074484999999996
 51
177.798958
  0
ARC
  5
13B
  8
0
 62
     7
 10
66.804535000000001
 20
165.4673469999999
 30
0.0
 40
0.242777
 50
2.0938119999999998
 51
87.948385000000002
  0
LINE
  5
13C
  8
0
 62
     7
 10
63.046700000000001
 20
197.57400000000001
 30
0.0
 11
60.713999999999999
 21
197.57400000000001
 31
0.0
  0
LINE
  5
13D
  8
0
 62
     7
 10
63.213799999999999
 20
197.7409999999999
 30
0.0
 11
63.213799999999999
 21
225.91800000000001
 31
0.0
  0
LINE
  5
13E
  8
0
 62
     7
 10
60.547199999999989
 20
197.7409999999999
 30
0.0
 11
60.547199999999989
 21
225.917
 31
0.0
  0
LINE
  5
13F
  8
0
  6
AIGENLINE002
 62
     7
 10
114.92700000000001
 20
165.95099999999999
 30
0.0
 11
114.92700000000001
 21
161.37
 31
0.0
  0
LINE
  5
140
  8
0
 62
     7
 10
113.59399999999989
 20
165.21000000000001
 30
0.0
 11
113.59399999999989
 21
162.8779999999999
 31
0.0
  0
LINE
  5
141
  8
0
 62
     7
 10
113.761
 20
165.37999999999991
 30
0.0
 11
141.88
 21
165.37999999999991
 31
0.0
  0
LINE
  5
142
  8
0
 62
     7
 10
113.761
 20
162.71399999999991
 30
0.0
 11
141.88
 21
162.71399999999991
 31
0.0
  0
LINE
  5
143
  8
0
 62
     7
 10
141.76099999999991
 20
162.71399999999991
 30
0.0
 11
141.76099999999991
 21
162.60299999999989
 31
0.0
  0
LINE
  5
144
  8
0
 62
     7
 10
141.76099999999991
 20
165.56999999999991
 30
0.0
 11
141.76099999999991
 21
165.37999999999991
 31
0.0
  0
LINE
  5
145
  8
0
 62
     7
 10
141.91800000000001
 20
165.214
 30
0.0
 11
141.91800000000001
 21
162.881
 31
0.0
  0
LINE
  5
146
  8
0
 62
     7
 10
56.947800000000001
 20
165.70999999999989
 30
0.0
 11
66.813199999999995
 21
165.70999999999989
 31
0.0
  0
LINE
  5
147
  8
0
 62
     7
 10
56.947800000000001
 20
162.369
 30
0.0
 11
66.813199999999995
 21
162.369
 31
0.0
  0
LINE
  5
148
  8
0
 62
     7
 10
56.881
 20
159.69599999999991
 30
0.0
 11
66.880099999999999
 21
159.69599999999991
 31
0.0
  0
LINE
  5
149
  8
0
 62
     7
 10
152.09399999999991
 20
159.529
 30
0.0
 11
152.09399999999991
 21
137.71000000000001
 31
0.0
  0
LINE
  5
14A
  8
0
 62
     7
 10
67.0471
 20
159.529
 30
0.0
 11
67.0471
 21
137.71000000000001
 31
0.0
  0
LINE
  5
14B
  8
0
 62
     7
 10
67.0471
 20
165.476
 30
0.0
 11
67.0471
 21
162.60299999999989
 31
0.0
  0
LINE
  5
14C
  8
0
 62
     7
 10
66.579300000000003
 20
162.26900000000001
 30
0.0
 11
66.579300000000003
 21
159.69599999999991
 31
0.0
  0
LINE
  5
14D
  8
0
 62
     7
 10
57.181399999999996
 20
162.26900000000001
 30
0.0
 11
57.181399999999996
 21
159.69599999999991
 31
0.0
  0
LINE
  5
14E
  8
0
 62
     7
 10
56.713500000000003
 20
159.529
 30
0.0
 11
56.713500000000003
 21
137.71000000000001
 31
0.0
  0
LINE
  5
14F
  8
0
 62
     7
 10
56.713500000000003
 20
165.476
 30
0.0
 11
56.713500000000003
 21
162.60299999999989
 31
0.0
  0
LINE
  5
150
  8
0
  6
AIGENLINE002
 62
     7
 10
61.880499999999998
 20
237.9799999999999
 30
0.0
 11
61.880499999999998
 21
195.53299999999999
 31
0.0
  0
LINE
  5
151
  8
0
  6
AIGENLINE002
 62
     7
 10
146.92799999999991
 20
166.2709999999999
 30
0.0
 11
146.92799999999991
 21
51.153100000000002
 31
0.0
  0
LINE
  5
152
  8
0
  6
AIGENLINE002
 62
     7
 10
61.880499999999998
 20
167.3059999999999
 30
0.0
 11
61.880499999999998
 21
65.160300000000007
 31
0.0
  0
LINE
  5
153
  8
0
  6
AIGENLINE002
 62
     7
 10
61.880499999999998
 20
58.327199999999998
 30
0.0
 11
61.880499999999998
 21
51.115900000000003
 31
0.0
  0
LINE
  5
154
  8
0
 62
     7
 10
77.602000000000004
 20
211.92199999999991
 30
0.0
 11
78.876999999999995
 21
213.822
 31
0.0
  0
LINE
  5
155
  8
0
 62
     7
 10
78.876999999999995
 20
213.822
 30
0.0
 11
76.822699999999983
 21
212.81399999999999
 31
0.0
  0
LINE
  5
156
  8
0
 62
     7
 10
76.822699999999983
 20
212.81399999999999
 30
0.0
 11
77.602000000000004
 21
211.92199999999991
 31
0.0
  0
LINE
  5
157
  8
0
 62
     7
 10
46.919400000000003
 20
212.75999999999999
 30
0.0
 11
44.907099999999993
 21
213.84899999999999
 31
0.0
  0
LINE
  5
158
  8
0
 62
     7
 10
44.907099999999993
 20
213.84899999999999
 30
0.0
 11
46.105299999999993
 21
211.899
 31
0.0
  0
LINE
  5
159
  8
0
 62
     7
 10
46.105299999999993
 20
211.899
 30
0.0
 11
46.919400000000003
 21
212.75999999999999
 31
0.0
  0
ARC
  5
15A
  8
0
 62
     7
 10
61.759107999999998
 20
231.10654099999999
 30
0.0
 40
24.286967000000001
 50
270.27990399999987
 51
314.720956
  0
ARC
  5
15B
  8
0
 62
     7
 10
61.996549999999992
 20
231.10692299999999
 30
0.0
 40
24.287351000000001
 50
225.28058799999999
 51
269.71975400000002
  0
LINE
  5
15C
  8
0
 62
     7
 10
132.464
 20
222.71000000000001
 30
0.0
 11
138.70599999999999
 21
222.71000000000001
 31
0.0
  0
LINE
  5
15D
  8
0
 62
     7
 10
142.74399999999989
 20
225.88499999999991
 30
0.0
 11
143.88900000000001
 21
227.86799999999999
 31
0.0
  0
LINE
  5
15E
  8
0
 62
     7
 10
143.88900000000001
 20
227.86799999999999
 30
0.0
 11
141.90599999999989
 21
226.72300000000001
 31
0.0
  0
LINE
  5
15F
  8
0
 62
     7
 10
141.90599999999989
 20
226.72300000000001
 30
0.0
 11
142.74399999999989
 21
225.88499999999991
 31
0.0
  0
LINE
  5
160
  8
0
 62
     7
 10
143.41699999999989
 20
227.39699999999999
 30
0.0
 11
138.70599999999999
 21
222.71000000000001
 31
0.0
  0
LINE
  5
161
  8
0
  6
AIGENLINE002
 62
     7
 10
146.92699999999999
 20
237.38
 30
0.0
 11
146.92699999999999
 21
224.42199999999991
 31
0.0
  0
LINE
  5
162
  8
0
  6
AIGENLINE002
 62
     7
 10
140.2649999999999
 20
230.9079999999999
 30
0.0
 11
153.429
 21
230.9079999999999
 31
0.0
  0
LINE
  5
163
  8
0
 62
     7
 10
50.17710000000001
 20
135.49899999999991
 30
0.0
 11
49.584499999999998
 21
137.71000000000001
 31
0.0
  0
LINE
  5
164
  8
0
 62
     7
 10
49.584499999999998
 20
137.71000000000001
 30
0.0
 11
48.991999999999997
 21
135.49899999999991
 31
0.0
  0
LINE
  5
165
  8
0
 62
     7
 10
48.991999999999997
 20
135.49899999999991
 30
0.0
 11
50.17710000000001
 21
135.49899999999991
 31
0.0
  0
LINE
  5
166
  8
0
 62
     7
 10
48.991999999999997
 20
126.5889999999999
 30
0.0
 11
49.584499999999998
 21
124.377
 31
0.0
  0
LINE
  5
167
  8
0
 62
     7
 10
49.584499999999998
 20
124.377
 30
0.0
 11
50.17710000000001
 21
126.5889999999999
 31
0.0
  0
LINE
  5
168
  8
0
 62
     7
 10
50.17710000000001
 20
126.5889999999999
 30
0.0
 11
48.991999999999997
 21
126.5889999999999
 31
0.0
  0
LINE
  5
169
  8
0
 62
     7
 10
49.584499999999998
 20
137.71000000000001
 30
0.0
 11
49.584499999999998
 21
124.377
 31
0.0
  0
LINE
  5
16A
  8
0
 62
     7
 10
53.571199999999997
 20
124.377
 30
0.0
 11
48.884500000000003
 21
124.377
 31
0.0
  0
LINE
  5
16B
  8
0
 62
     7
 10
133.30999999999989
 20
158.166
 30
0.0
 11
132.71700000000001
 21
160.37700000000001
 31
0.0
  0
LINE
  5
16C
  8
0
 62
     7
 10
132.71700000000001
 20
160.37700000000001
 30
0.0
 11
132.125
 21
158.166
 31
0.0
  0
LINE
  5
16D
  8
0
 62
     7
 10
132.125
 20
158.166
 30
0.0
 11
133.30999999999989
 21
158.166
 31
0.0
  0
LINE
  5
16E
  8
0
 62
     7
 10
132.125
 20
139.92199999999991
 30
0.0
 11
132.71700000000001
 21
137.71000000000001
 31
0.0
  0
LINE
  5
16F
  8
0
 62
     7
 10
132.71700000000001
 20
137.71000000000001
 30
0.0
 11
133.30999999999989
 21
139.92199999999991
 31
0.0
  0
LINE
  5
170
  8
0
 62
     7
 10
133.30999999999989
 20
139.92199999999991
 30
0.0
 11
132.125
 21
139.92199999999991
 31
0.0
  0
LINE
  5
171
  8
0
 62
     7
 10
132.71700000000001
 20
160.37700000000001
 30
0.0
 11
132.71700000000001
 21
137.71000000000001
 31
0.0
  0
LINE
  5
172
  8
0
 62
     7
 10
141.06100000000001
 20
137.71000000000001
 30
0.0
 11
132.017
 21
137.71000000000001
 31
0.0
  0
LINE
  5
173
  8
0
 62
     7
 10
121.97499999999989
 20
138.74100000000001
 30
0.0
 11
105.29600000000001
 21
138.74100000000001
 31
0.0
  0
LINE
  5
174
  8
0
 62
     7
 10
106.6689999999999
 20
222.81699999999989
 30
0.0
 11
105.1299999999999
 21
224.512
 31
0.0
  0
LINE
  5
175
  8
0
 62
     7
 10
105.1299999999999
 20
224.512
 30
0.0
 11
105.6149999999999
 21
222.27399999999989
 31
0.0
  0
LINE
  5
176
  8
0
 62
     7
 10
105.6149999999999
 20
222.27399999999989
 30
0.0
 11
106.6689999999999
 21
222.81699999999989
 31
0.0
  0
LINE
  5
177
  8
0
 62
     7
 10
108.682
 20
217.62599999999989
 30
0.0
 11
105.1299999999999
 21
224.512
 31
0.0
  0
LINE
  5
178
  8
0
 62
     7
 10
114.8739999999999
 20
217.62599999999989
 30
0.0
 11
108.682
 21
217.62599999999989
 31
0.0
  0
LINE
  5
179
  8
0
 62
     7
 10
116.46599999999999
 20
161.01900000000001
 30
0.0
 11
114.92700000000001
 21
162.71399999999991
 31
0.0
  0
LINE
  5
17A
  8
0
 62
     7
 10
114.92700000000001
 20
162.71399999999991
 30
0.0
 11
115.41200000000001
 21
160.47599999999991
 31
0.0
  0
LINE
  5
17B
  8
0
 62
     7
 10
115.41200000000001
 20
160.47599999999991
 30
0.0
 11
116.46599999999999
 21
161.01900000000001
 31
0.0
  0
LINE
  5
17C
  8
0
 62
     7
 10
120.401
 20
152.102
 30
0.0
 11
114.92700000000001
 21
162.71399999999991
 31
0.0
  0
LINE
  5
17D
  8
0
 62
     7
 10
128.13499999999991
 20
144.077
 30
0.0
 11
129.27999999999989
 21
146.06
 31
0.0
  0
LINE
  5
17E
  8
0
 62
     7
 10
129.27999999999989
 20
146.06
 30
0.0
 11
127.297
 21
144.91499999999991
 31
0.0
  0
LINE
  5
17F
  8
0
 62
     7
 10
127.297
 20
144.91499999999991
 30
0.0
 11
128.13499999999991
 21
144.077
 31
0.0
  0
LINE
  5
180
  8
0
 62
     7
 10
121.97499999999989
 20
138.74100000000001
 30
0.0
 11
129.27999999999989
 21
146.06
 31
0.0
  0
LINE
  5
181
  8
0
 62
     7
 10
120.401
 20
152.102
 30
0.0
 11
109.28999999999991
 21
152.102
 31
0.0
  0
TEXT
  5
182
  8
_________2
 62
     7
 10
109.179
 20
24.226099999999999
 30
0.0
 40
3.9357000000000002
  1
アヴァ ソープディスペンサー（カウンタータイプ）
 41
0.5
  0
LINE
  5
183
  8
_________2
 62
     7
 10
205.30099999999999
 20
127.411
 30
0.0
 11
183.55099999999999
 21
127.411
 31
0.0
  0
LINE
  5
184
  8
_________2
 62
     7
 10
100.2999999999999
 20
-4.0910799999999998
 30
0.0
 11
100.2999999999999
 21
-21.070999999999991
 31
0.0
  0
LINE
  5
185
  8
_________2
 62
     7
 10
100.2999999999999
 20
275.93099999999993
 30
0.0
 11
100.2999999999999
 21
258.911
 31
0.0
  0
LINE
  5
186
  8
_________2
 62
     7
 10
17.049199999999988
 20
127.411
 30
0.0
 11
-4.7012099999999988
 21
127.411
 31
0.0
  0
LINE
  5
187
  8
_________2
 62
     7
 10
76.740700000000004
 20
29.8047
 30
0.0
 11
74.554400000000001
 21
29.8047
 31
0.0
  0
LINE
  5
188
  8
_________2
 62
     7
 10
77.2333
 20
29.8047
 30
0.0
 11
76.981099999999984
 21
29.8047
 31
0.0
  0
LINE
  5
189
  8
_________2
 62
     7
 10
77.725999999999999
 20
29.8047
 30
0.0
 11
80.650899999999993
 21
29.8047
 31
0.0
  0
LINE
  5
18A
  8
_________2
 62
     7
 10
77.2333
 20
29.8047
 30
0.0
 11
77.485500000000002
 21
29.8047
 31
0.0
  0
LINE
  5
18B
  8
_________2
 62
     7
 10
70.837100000000007
 20
29.8047
 30
0.0
 11
68.650199999999998
 21
29.8047
 31
0.0
  0
LINE
  5
18C
  8
_________2
 62
     7
 10
71.329099999999997
 20
29.8047
 30
0.0
 11
71.077600000000004
 21
29.8047
 31
0.0
  0
LINE
  5
18D
  8
_________2
 62
     7
 10
71.329099999999997
 20
30.2974
 30
0.0
 11
71.329099999999997
 21
32.484400000000001
 31
0.0
  0
LINE
  5
18E
  8
_________2
 62
     7
 10
71.329099999999997
 20
29.8047
 30
0.0
 11
71.329099999999997
 21
30.057300000000001
 31
0.0
  0
LINE
  5
18F
  8
_________2
 62
     7
 10
71.821700000000007
 20
29.8047
 30
0.0
 11
74.008700000000005
 21
29.8047
 31
0.0
  0
LINE
  5
190
  8
_________2
 62
     7
 10
71.329099999999997
 20
29.8047
 30
0.0
 11
71.581299999999985
 21
29.8047
 31
0.0
  0
LINE
  5
191
  8
_________2
 62
     7
 10
71.329099999999997
 20
29.312799999999999
 30
0.0
 11
71.329099999999997
 21
27.126200000000001
 31
0.0
  0
LINE
  5
192
  8
_________2
 62
     7
 10
71.329099999999997
 20
29.8047
 30
0.0
 11
71.329099999999997
 21
29.5532
 31
0.0
  0
LINE
  5
193
  8
_________2
 62
     7
 10
75.040199999999999
 20
28.5852
 30
0.0
 11
80.218199999999996
 21
27.720400000000001
 31
0.0
  0
LINE
  5
194
  8
_________2
 62
     7
 10
75.040199999999999
 20
31.024699999999999
 30
0.0
 11
80.218199999999996
 21
31.8901
 31
0.0
  0
LINE
  5
195
  8
_________2
 62
     7
 10
80.218199999999996
 20
27.720400000000001
 30
0.0
 11
80.218199999999996
 21
31.8901
 31
0.0
  0
LINE
  5
196
  8
_________2
 62
     7
 10
75.040199999999999
 20
28.5852
 30
0.0
 11
75.040199999999999
 21
31.024699999999999
 31
0.0
  0
ARC
  5
197
  8
_________2
 62
     7
 10
71.282501999999994
 20
29.757801000000001
 30
0.0
 40
1.267714
 50
2.1220840000000001
 51
87.894083999999992
  0
ARC
  5
198
  8
_________2
 62
     7
 10
71.375640000000004
 20
29.758545999999999
 30
0.0
 40
1.2669680000000001
 50
92.105782999999988
 51
177.91037
  0
ARC
  5
199
  8
_________2
 62
     7
 10
71.376013999999998
 20
29.851671
 30
0.0
 40
1.2673680000000001
 50
182.12203600000001
 51
267.877993
  0
ARC
  5
19A
  8
_________2
 62
     7
 10
71.282195999999999
 20
29.852347999999999
 30
0.0
 40
1.2680439999999991
 50
272.11916400000001
 51
357.84848499999993
  0
ARC
  5
19B
  8
_________2
 62
     7
 10
71.248716999999985
 20
29.724731999999989
 30
0.0
 40
2.1668310000000002
 50
2.1161439999999989
 51
87.874379000000005
  0
ARC
  5
19C
  8
_________2
 62
     7
 10
71.408756000000011
 20
29.726146
 30
0.0
 40
2.165392999999999
 50
92.108508999999998
 51
177.91986499999999
  0
ARC
  5
19D
  8
_________2
 62
     7
 10
71.409094999999994
 20
29.884751999999999
 30
0.0
 40
2.1657829999999998
 50
182.117133
 51
267.88289700000001
  0
ARC
  5
19E
  8
_________2
 62
     7
 10
71.249115000000003
 20
29.885429999999989
 30
0.0
 40
2.1664590000000001
 50
272.11546800000002
 51
357.86560400000002
  0
TEXT
  5
19F
  8
_________2
 62
     7
 10
104.605
 20
1.6794899999999999
 30
0.0
 40
3.0923400000000001
  1
図番
 41
0.5
  0
LINE
  5
1A0
  8
_________2
 62
     7
 10
103.55
 20
5.9087199999999989
 30
0.0
 11
183.55099999999999
 21
5.9087199999999989
 31
0.0
  0
TEXT
  5
1A1
  8
_________2
 62
     7
 10
104.605
 20
11.679299999999991
 30
0.0
 40
3.0923400000000001
  1
品番
 41
0.5
  0
TEXT
  5
1A2
  8
_________2
 62
     7
 10
104.605
 20
31.8184
 30
0.0
 40
3.0923400000000001
  1
名称
 41
0.5
  0
TEXT
  5
1A3
  8
_________2
 62
     7
 10
91.844758333333345
 20
26.822299999999998
 30
0.0
 40
3.6545800000000002
  1
mm
 41
0.5
 72
     1
 11
93.367500000000007
 21
26.822299999999998
 31
0.0
  0
TEXT
  5
1A4
  8
_________2
 62
     7
 10
85.642899999999983
 20
31.8184
 30
0.0
 40
3.0923400000000001
  1
単位
 41
0.5
  0
TEXT
  5
1A5
  8
_________2
 62
     7
 10
85.642899999999983
 20
19.410799999999991
 30
0.0
 40
3.0923400000000001
  1
尺度
 41
0.5
  0
TEXT
  5
1A6
  8
_________2
 62
     7
 10
90.548458666666676
 20
13.218199999999991
 30
0.0
 40
3.6545800000000002
  1
1 ： 3
 41
0.5
 72
     1
 11
93.959400000000016
 21
13.218199999999991
 31
0.0
  0
TEXT
  5
1A7
  8
_________2
 62
     7
 10
136.00657499999991
 20
9.1082000000000001
 30
0.0
 40
3.9357000000000002
  1
KW536159
 41
0.5
 72
     1
 11
143.55000000000001
 21
9.1082000000000001
 31
0.0
  0
TEXT
  5
1A8
  8
_________2
 62
     7
 10
136.00657499999991
 20
-0.8926299999999999
 30
0.0
 40
3.9357000000000002
  1
KW536159
 41
0.5
 72
     1
 11
143.55000000000001
 21
-0.8926299999999999
 31
0.0
  0
TEXT
  5
1A9
  8
_________2
 62
     7
 10
39.303181000000002
 20
13.603400000000001
 30
0.0
 40
3.6545800000000002
  1
田尻
 41
0.5
 72
     1
 11
41.313200000000002
 21
13.603400000000001
 31
0.0
  0
TEXT
  5
1AA
  8
_________2
 62
     7
 10
20.851000333333332
 20
13.603400000000001
 30
0.0
 40
3.6545800000000002
  1
西田
 41
0.5
 72
     1
 11
22.73919999999999
 21
13.603400000000001
 31
0.0
  0
TEXT
  5
1AB
  8
_________2
 62
     7
 10
67.785399999999996
 20
13.218199999999991
 30
0.0
 40
3.6545800000000002
  1
12.01.20
 41
0.5
  0
TEXT
  5
1AC
  8
_________2
 62
     7
 10
66.592699999999994
 20
19.410799999999991
 30
0.0
 40
3.0923400000000001
  1
日付
 41
0.5
  0
TEXT
  5
1AD
  8
_________2
 62
     7
 10
29.638999999999999
 20
19.410799999999991
 30
0.0
 40
3.0923400000000001
  1
検図
 41
0.5
  0
TEXT
  5
1AE
  8
_________2
 62
     7
 10
18.020700000000001
 20
5.21143
 30
0.0
 40
3.0923400000000001
  1
備考
 41
0.5
  0
TEXT
  5
1AF
  8
_________2
 62
     7
 10
18.020700000000001
 20
19.410799999999991
 30
0.0
 40
3.0923400000000001
  1
製図
 41
0.5
  0
TEXT
  5
1B0
  8
_________2
 62
     7
 10
23.788165333333328
 20
27.936800000000002
 30
0.0
 40
4.4979399999999989
  1
セラトレーディング株式会社
 41
0.5
 72
     1
 11
41.180199999999999
 21
27.936800000000002
 31
0.0
  0
LINE
  5
1B1
  8
_________2
 62
     7
 10
183.55099999999999
 20
-4.0910799999999998
 30
0.0
 11
17.049199999999988
 21
-4.0910799999999998
 31
0.0
  0
LINE
  5
1B2
  8
_________2
 62
     7
 10
17.049199999999988
 20
-4.0910799999999998
 30
0.0
 11
17.049199999999988
 21
258.911
 31
0.0
  0
LINE
  5
1B3
  8
_________2
 62
     7
 10
17.049199999999988
 20
258.911
 30
0.0
 11
183.55099999999999
 21
258.911
 31
0.0
  0
LINE
  5
1B4
  8
_________2
 62
     7
 10
183.55099999999999
 20
258.911
 30
0.0
 11
183.55099999999999
 21
-4.0910799999999998
 31
0.0
  0
LINE
  5
1B5
  8
_________2
 62
     7
 10
65.549599999999998
 20
9.4092999999999982
 30
0.0
 11
65.549599999999998
 21
35.909100000000002
 31
0.0
  0
LINE
  5
1B6
  8
_________2
 62
     7
 10
84.549400000000006
 20
9.4092999999999982
 30
0.0
 11
84.549400000000006
 21
35.909100000000002
 31
0.0
  0
LINE
  5
1B7
  8
_________2
 62
     7
 10
103.55
 20
-4.0910799999999998
 30
0.0
 11
103.55
 21
35.909100000000002
 31
0.0
  0
LINE
  5
1B8
  8
_________2
 62
     7
 10
28.548999999999999
 20
9.4092999999999982
 30
0.0
 11
28.548999999999999
 21
23.409199999999998
 31
0.0
  0
LINE
  5
1B9
  8
_________2
 62
     7
 10
17.049199999999988
 20
9.4092999999999982
 30
0.0
 11
103.55
 21
9.4092999999999982
 31
0.0
  0
LINE
  5
1BA
  8
_________2
 62
     7
 10
17.049199999999988
 20
23.409199999999998
 30
0.0
 11
103.55
 21
23.409199999999998
 31
0.0
  0
LINE
  5
1BB
  8
_________2
 62
     7
 10
103.55
 20
15.9085
 30
0.0
 11
183.55099999999999
 21
15.9085
 31
0.0
  0
LINE
  5
1BC
  8
_________2
 62
     7
 10
17.049199999999988
 20
35.909100000000002
 30
0.0
 11
183.55099999999999
 21
35.909100000000002
 31
0.0
  0
ENDSEC
  0
EOF
