  0
SECTION
  2
HEADER
  9
$ACADVER
  1
AC1009
  9
$INSBASE
 10
0.0
 20
0.0
 30
0.0
  9
$EXTMIN
 10
-4.7012099999999988
 20
-21.070999999999991
 30
0.0
  9
$EXTMAX
 10
205.30099999999999
 20
275.93099999999993
 30
0.0
  9
$LIMMIN
 10
0.0
 20
0.0
  9
$LIMMAX
 10
12.0
 20
9.0
  9
$ORTHOMODE
 70
     0
  9
$REGENMODE
 70
     1
  9
$FILLMODE
 70
     1
  9
$QTEXTMODE
 70
     0
  9
$MIRRTEXT
 70
     1
  9
$DRAGMODE
 70
     2
  9
$LTSCALE
 40
1.0
  9
$OSMODE
 70
    37
  9
$ATTMODE
 70
     1
  9
$TEXTSIZE
 40
0.0
  9
$TRACEWID
 40
0.05
  9
$TEXTSTYLE
  7
STANDARD
  9
$CLAYER
  8
0
  9
$CELTYPE
  6
CONTINUOUS
  9
$CECOLOR
 62
   256
  9
$DIMSCALE
 40
1.0
  9
$DIMASZ
 40
0.18
  9
$DIMEXO
 40
0.0625
  9
$DIMDLI
 40
0.38
  9
$DIMRND
 40
0.0
  9
$DIMDLE
 40
0.0
  9
$DIMEXE
 40
0.18
  9
$DIMTP
 40
0.0
  9
$DIMTM
 40
0.0
  9
$DIMTXT
 40
0.18
  9
$DIMCEN
 40
0.09
  9
$DIMTSZ
 40
0.0
  9
$DIMTOL
 70
     0
  9
$DIMLIM
 70
     0
  9
$DIMTIH
 70
     1
  9
$DIMTOH
 70
     1
  9
$DIMSE1
 70
     0
  9
$DIMSE2
 70
     0
  9
$DIMTAD
 70
     0
  9
$DIMZIN
 70
     0
  9
$DIMBLK
  1

  9
$DIMASO
 70
     1
  9
$DIMSHO
 70
     1
  9
$DIMPOST
  1

  9
$DIMAPOST
  1

  9
$DIMALT
 70
     0
  9
$DIMALTD
 70
     2
  9
$DIMALTF
 40
25.399999999999999
  9
$DIMLFAC
 40
1.0
  9
$DIMTOFL
 70
     0
  9
$DIMTVP
 40
0.0
  9
$DIMTIX
 70
     0
  9
$DIMSOXD
 70
     0
  9
$DIMSAH
 70
     0
  9
$DIMBLK1
  1

  9
$DIMBLK2
  1

  9
$DIMSTYLE
  2
STANDARD
  9
$DIMCLRD
 70
     0
  9
$DIMCLRE
 70
     0
  9
$DIMCLRT
 70
     0
  9
$DIMTFAC
 40
1.0
  9
$DIMGAP
 40
0.09
  9
$LUNITS
 70
     2
  9
$LUPREC
 70
     4
  9
$SKETCHINC
 40
0.1
  9
$FILLETRAD
 40
0.0
  9
$AUNITS
 70
     0
  9
$AUPREC
 70
     0
  9
$MENU
  1
.
  9
$ELEVATION
 40
0.0
  9
$PELEVATION
 40
0.0
  9
$THICKNESS
 40
0.0
  9
$LIMCHECK
 70
     0
  9
$BLIPMODE
 70
     0
  9
$CHAMFERA
 40
0.0
  9
$CHAMFERB
 40
0.0
  9
$SKPOLY
 70
     0
  9
$TDCREATE
 40
2444972.375
  9
$TDUPDATE
 40
2456177.2479892359
  9
$TDINDWG
 40
0.0000109606
  9
$TDUSRTIMER
 40
0.0000109606
  9
$USRTIMER
 70
     1
  9
$ANGBASE
 50
0.0
  9
$ANGDIR
 70
     0
  9
$PDMODE
 70
     0
  9
$PDSIZE
 40
0.0
  9
$PLINEWID
 40
0.0
  9
$COORDS
 70
     1
  9
$SPLFRAME
 70
     0
  9
$SPLINETYPE
 70
     6
  9
$SPLINESEGS
 70
     8
  9
$ATTDIA
 70
     0
  9
$ATTREQ
 70
     1
  9
$HANDLING
 70
     1
  9
$HANDSEED
  5
471
  9
$SURFTAB1
 70
     6
  9
$SURFTAB2
 70
     6
  9
$SURFTYPE
 70
     6
  9
$SURFU
 70
     6
  9
$SURFV
 70
     6
  9
$UCSNAME
  2

  9
$UCSORG
 10
0.0
 20
0.0
 30
0.0
  9
$UCSXDIR
 10
1.0
 20
0.0
 30
0.0
  9
$UCSYDIR
 10
0.0
 20
1.0
 30
0.0
  9
$PUCSNAME
  2

  9
$PUCSORG
 10
0.0
 20
0.0
 30
0.0
  9
$PUCSXDIR
 10
1.0
 20
0.0
 30
0.0
  9
$PUCSYDIR
 10
0.0
 20
1.0
 30
0.0
  9
$USERI1
 70
     0
  9
$USERI2
 70
     0
  9
$USERI3
 70
     0
  9
$USERI4
 70
     0
  9
$USERI5
 70
     0
  9
$USERR1
 40
0.0
  9
$USERR2
 40
0.0
  9
$USERR3
 40
0.0
  9
$USERR4
 40
0.0
  9
$USERR5
 40
0.0
  9
$WORLDVIEW
 70
     1
  9
$SHADEDGE
 70
     3
  9
$SHADEDIF
 70
    70
  9
$TILEMODE
 70
     1
  9
$MAXACTVP
 70
    48
  9
$PLIMCHECK
 70
     0
  9
$PEXTMIN
 10
1.0000000000000000E+020
 20
1.0000000000000000E+020
 30
1.0000000000000000E+020
  9
$PEXTMAX
 10
-1.0000000000000000E+020
 20
-1.0000000000000000E+020
 30
-1.0000000000000000E+020
  9
$PLIMMIN
 10
0.0
 20
0.0
  9
$PLIMMAX
 10
12.0
 20
9.0
  9
$UNITMODE
 70
     0
  9
$VISRETAIN
 70
     1
  9
$PLINEGEN
 70
     0
  9
$PSLTSCALE
 70
     1
  0
ENDSEC
  0
SECTION
  2
TABLES
  0
TABLE
  2
VPORT
 70
     2
  0
VPORT
  2
*ACTIVE
 70
     0
 10
0.0
 20
0.0
 11
1.0
 21
1.0
 12
205.31019906752431
 22
127.42999999999989
 13
0.0
 23
0.0
 14
1.0
 24
1.0
 15
0.0
 25
0.0
 16
0.0
 26
0.0
 36
1.0
 17
0.0
 27
0.0
 37
0.0
 40
299.24634760705283
 41
2.2894736842105261
 42
50.0
 43
0.0
 44
0.0
 50
0.0
 51
0.0
 71
     0
 72
   100
 73
     1
 74
     1
 75
     0
 76
     0
 77
     0
 78
     0
  0
ENDTAB
  0
TABLE
  2
LTYPE
 70
     2
  0
LTYPE
  2
CONTINUOUS
 70
     0
  3
Solid line
 72
    65
 73
     0
 40
0.0
  0
LTYPE
  2
AIGENLINE001
 70
     0
  3
generate AI->DXF Converter
 72
    65
 73
     4
 40
5.8561449999999988
 49
3.5278
 49
-0.776115
 49
0.776115
 49
-0.776115
  0
ENDTAB
  0
TABLE
  2
LAYER
 70
     2
  0
LAYER
  2
0
 70
     0
 62
     7
  6
CONTINUOUS
  0
LAYER
  2
_________2
 70
     0
 62
     7
  6
CONTINUOUS
  0
ENDTAB
  0
TABLE
  2
STYLE
 70
     1
  0
STYLE
  2
STANDARD
 70
     0
 40
0.0
 41
0.0
 50
0.0
 71
     0
 42
0.0
  3
TXT
  4
EXTFONT.SHX
  0
ENDTAB
  0
TABLE
  2
VIEW
 70
     0
  0
ENDTAB
  0
TABLE
  2
UCS
 70
     0
  0
ENDTAB
  0
TABLE
  2
APPID
 70
     1
  0
APPID
  2
ACAD
 70
     0
  0
ENDTAB
  0
TABLE
  2
DIMSTYLE
 70
     1
  0
DIMSTYLE
  2
STANDARD
 70
     0
  3

  4

  5

  6

  7

 40
1.0
 41
0.18
 42
0.0625
 43
0.38
 44
0.18
 45
0.0
 46
0.0
 47
0.0
 48
0.0
140
0.18
141
0.09
142
0.0
143
25.399999999999999
144
1.0
145
0.0
146
1.0
147
0.09
 71
     0
 72
     0
 73
     1
 74
     1
 75
     0
 76
     0
 77
     0
 78
     0
170
     0
171
     2
172
     0
173
     0
174
     0
175
     0
176
     0
177
     0
178
     0
  0
ENDTAB
  0
ENDSEC
  0
SECTION
  2
BLOCKS
  0
BLOCK
  8
0
  2
$MODEL_SPACE
 70
     0
 10
0.0
 20
0.0
 30
0.0
  3
$MODEL_SPACE
  1

  0
ENDBLK
  5
1A
  8
0
  0
BLOCK
 67
     1
  8
0
  2
$PAPER_SPACE
 70
     0
 10
0.0
 20
0.0
 30
0.0
  3
$PAPER_SPACE
  1

  0
ENDBLK
  5
17
 67
     1
  8
0
  0
ENDSEC
  0
SECTION
  2
ENTITIES
  0
TEXT
  5
22
  8
0
 62
     7
 10
70.867599999999996
 20
192.077
 30
0.0
 40
3.0923400000000001
  1
KW6000823
 41
0.5
  0
TEXT
  5
23
  8
0
 62
     7
 10
64.051999999999992
 20
181.42400000000001
 30
0.0
 40
3.0923400000000001
  1
KW6000212
 41
0.5
  0
TEXT
  5
24
  8
0
 62
     7
 10
114.9740799999999
 20
147.05600000000001
 30
0.0
 40
3.0923400000000001
  1
散水盤首振り角度
 41
0.5
 72
     2
 11
129.405
 21
147.05600000000001
 31
0.0
  0
TEXT
  5
25
  8
0
 62
     7
 10
94.947050000000004
 20
154.59499999999991
 30
0.0
 40
3.0923400000000001
  1
%%c300
 41
0.5
 72
     1
 11
97.524000000000015
 21
154.59499999999991
 31
0.0
  0
TEXT
  5
26
  8
0
 62
     7
 10
133.43899999999991
 20
187.72998250000001
 30
0.0
 40
3.0923400000000001
  1
180
 50
90.0
 41
0.5
 72
     1
 11
133.43899999999991
 21
189.405
 31
0.0
  0
TEXT
  5
27
  8
0
 62
     7
 10
60.96759999999999
 20
176.60921999999991
 30
0.0
 40
3.0923400000000001
  1
7
 50
90.0
 41
0.5
 72
     2
 11
60.96759999999999
 21
177.6399999999999
 31
0.0
  0
TEXT
  5
28
  8
0
 62
     7
 10
93.687182500000006
 20
161.60199999999989
 30
0.0
 40
3.0923400000000001
  1
20%%d
 41
0.5
 72
     1
 11
95.362200000000001
 21
161.60199999999989
 31
0.0
  0
TEXT
  5
29
  8
0
 62
     7
 10
98.424982499999999
 20
161.60199999999989
 30
0.0
 40
3.0923400000000001
  1
20%%d
 41
0.5
 72
     1
 11
100.09999999999989
 21
161.60199999999989
 31
0.0
  0
TEXT
  5
2A
  8
0
 62
     7
 10
103.4668799999999
 20
193.40000000000001
 30
0.0
 40
3.0923400000000001
  1
%%c25
 41
0.5
 72
     2
 11
107.59
 21
193.40000000000001
 31
0.0
  0
TEXT
  5
2B
  8
0
 62
     7
 10
81.784999999999997
 20
218.37499999999989
 30
0.0
 40
3.0923400000000001
  1
PJ 1/2
 41
0.5
  0
TEXT
  5
2C
  8
0
 62
     7
 10
96.469152500000007
 20
226.494
 30
0.0
 40
1.686729999999999
  1
□75
 41
0.5
 72
     1
 11
97.734200000000016
 21
226.494
 31
0.0
  0
TEXT
  5
2D
  8
0
 62
     7
 10
82.132999999999996
 20
211.38021999999989
 30
0.0
 40
3.0923400000000001
  1
7
 50
90.0
 41
0.5
 72
     2
 11
82.132999999999996
 21
212.41099999999989
 31
0.0
  0
LINE
  5
2E
  8
0
 62
     7
 10
95.533799999999999
 20
182.20400000000001
 30
0.0
 11
99.933599999999998
 21
182.20400000000001
 31
0.0
  0
LINE
  5
2F
  8
0
 62
     7
 10
99.933599999999998
 20
182.20400000000001
 30
0.0
 11
100.03400000000001
 21
182.10400000000001
 31
0.0
  0
LINE
  5
30
  8
0
 62
     7
 10
95.433499999999995
 20
182.10400000000001
 30
0.0
 11
100.03400000000001
 21
182.10400000000001
 31
0.0
  0
LINE
  5
31
  8
0
 62
     7
 10
95.633700000000005
 20
179.81899999999999
 30
0.0
 11
99.834299999999999
 21
179.81899999999999
 31
0.0
  0
LINE
  5
32
  8
0
 62
     7
 10
95.633700000000005
 20
181.005
 30
0.0
 11
95.433499999999995
 21
181.20500000000001
 31
0.0
  0
LINE
  5
33
  8
0
 62
     7
 10
99.834299999999999
 20
179.619
 30
0.0
 11
99.834299999999999
 21
181.005
 31
0.0
  0
LINE
  5
34
  8
0
 62
     7
 10
100.03400000000001
 20
181.20500000000001
 30
0.0
 11
99.834299999999999
 21
181.005
 31
0.0
  0
LINE
  5
35
  8
0
 62
     7
 10
95.633700000000005
 20
181.005
 30
0.0
 11
95.633700000000005
 21
179.619
 31
0.0
  0
LINE
  5
36
  8
0
 62
     7
 10
95.533799999999999
 20
182.20400000000001
 30
0.0
 11
95.433899999999994
 21
182.10400000000001
 31
0.0
  0
ARC
  5
37
  8
0
 62
     7
 10
96.924808999999996
 20
178.22819499999989
 30
0.0
 40
1.328546999999999
 50
131.965441
 51
142.34416399999989
  0
ARC
  5
38
  8
0
 62
     7
 10
97.844094000000013
 20
177.46952399999989
 30
0.0
 40
2.520127
 50
141.4567769999999
 51
163.04254599999999
  0
ARC
  5
39
  8
0
 62
     7
 10
98.937719999999999
 20
177.940303
 30
0.0
 40
1.12782
 50
13.550151
 51
18.498989999999988
  0
ARC
  5
3A
  8
0
 62
     7
 10
98.155961000000005
 20
177.6809199999999
 30
0.0
 40
1.951484999999999
 50
18.438441000000001
 51
27.746449999999989
  0
ARC
  5
3B
  8
0
 62
     7
 10
97.449168999999983
 20
177.343851
 30
0.0
 40
2.7341060000000001
 50
27.102198999999999
 51
39.107514000000002
  0
ARC
  5
3C
  8
0
 62
     7
 10
98.442672000000002
 20
178.1372979999999
 30
0.0
 40
1.462737
 50
39.538145999999998
 51
47.516992000000002
  0
LINE
  5
3D
  8
0
 62
     7
 10
96.0364
 20
179.21599999999989
 30
0.0
 11
99.430599999999998
 21
179.21599999999989
 31
0.0
  0
LINE
  5
3E
  8
0
 62
     7
 10
101.334
 20
178.20500000000001
 30
0.0
 11
101.334
 21
174.20400000000001
 31
0.0
  0
LINE
  5
3F
  8
0
 62
     7
 10
101.2329999999999
 20
174.20400000000001
 30
0.0
 11
101.2329999999999
 21
172.804
 31
0.0
  0
LINE
  5
40
  8
0
 62
     7
 10
95.626099999999994
 20
179.6269999999999
 30
0.0
 11
96.0364
 21
179.21599999999989
 31
0.0
  0
LINE
  5
41
  8
0
 62
     7
 10
94.133700000000005
 20
178.20500000000001
 30
0.0
 11
101.334
 21
178.20500000000001
 31
0.0
  0
LINE
  5
42
  8
0
 62
     7
 10
100.03400000000001
 20
182.10400000000001
 30
0.0
 11
100.03400000000001
 21
181.197
 31
0.0
  0
LINE
  5
43
  8
0
 62
     7
 10
99.841200000000001
 20
179.6269999999999
 30
0.0
 11
99.430599999999998
 21
179.21599999999989
 31
0.0
  0
LINE
  5
44
  8
0
 62
     7
 10
94.133700000000005
 20
174.20400000000001
 30
0.0
 11
101.334
 21
174.20400000000001
 31
0.0
  0
LINE
  5
45
  8
0
 62
     7
 10
95.433499999999995
 20
182.10400000000001
 30
0.0
 11
95.433499999999995
 21
181.197
 31
0.0
  0
LINE
  5
46
  8
0
 62
     7
 10
94.233599999999996
 20
174.20400000000001
 30
0.0
 11
94.233599999999996
 21
172.804
 31
0.0
  0
LINE
  5
47
  8
0
 62
     7
 10
94.133700000000005
 20
178.20500000000001
 30
0.0
 11
94.133700000000005
 21
174.20400000000001
 31
0.0
  0
LINE
  5
48
  8
0
 62
     7
 10
105.23399999999999
 20
207.405
 30
0.0
 11
105.23399999999999
 21
206.00499999999991
 31
0.0
  0
LINE
  5
49
  8
0
 62
     7
 10
105.23399999999999
 20
206.00499999999991
 30
0.0
 11
90.234199999999987
 21
206.00499999999991
 31
0.0
  0
LINE
  5
4A
  8
0
 62
     7
 10
90.234199999999987
 20
206.00499999999991
 30
0.0
 11
90.234199999999987
 21
207.405
 31
0.0
  0
LINE
  5
4B
  8
0
 62
     7
 10
90.234199999999987
 20
207.405
 30
0.0
 11
105.23399999999999
 21
207.405
 31
0.0
  0
LINE
  5
4C
  8
0
 62
     7
 10
100.23399999999999
 20
182.40499999999989
 30
0.0
 11
100.03400000000001
 21
182.20500000000001
 31
0.0
  0
LINE
  5
4D
  8
0
 62
     7
 10
95.433899999999994
 20
182.20500000000001
 30
0.0
 11
95.234099999999998
 21
182.40499999999989
 31
0.0
  0
LINE
  5
4E
  8
0
 62
     7
 10
95.234099999999998
 20
182.40499999999989
 30
0.0
 11
100.23399999999999
 21
182.40499999999989
 31
0.0
  0
LINE
  5
4F
  8
0
 62
     7
 10
95.234099999999998
 20
182.40499999999989
 30
0.0
 11
95.234099999999998
 21
206.00499999999991
 31
0.0
  0
LINE
  5
50
  8
0
 62
     7
 10
100.23399999999999
 20
182.40499999999989
 30
0.0
 11
100.23399999999999
 21
206.00499999999991
 31
0.0
  0
LINE
  5
51
  8
0
 62
     7
 10
95.433899999999994
 20
182.20500000000001
 30
0.0
 11
100.03400000000001
 21
182.20500000000001
 31
0.0
  0
LINE
  5
52
  8
0
 62
     7
 10
95.834000000000003
 20
211.2049999999999
 30
0.0
 11
95.633899999999997
 21
211.005
 31
0.0
  0
LINE
  5
53
  8
0
 62
     7
 10
99.633799999999994
 20
211.2049999999999
 30
0.0
 11
99.834000000000003
 21
211.005
 31
0.0
  0
LINE
  5
54
  8
0
 62
     7
 10
99.834000000000003
 20
211.005
 30
0.0
 11
95.633899999999997
 21
211.005
 31
0.0
  0
LINE
  5
55
  8
0
 62
     7
 10
99.633799999999994
 20
211.2049999999999
 30
0.0
 11
95.834000000000003
 21
211.2049999999999
 31
0.0
  0
LINE
  5
56
  8
0
 62
     7
 10
95.834000000000003
 20
207.405
 30
0.0
 11
95.834000000000003
 21
211.2049999999999
 31
0.0
  0
LINE
  5
57
  8
0
 62
     7
 10
99.633799999999994
 20
207.405
 30
0.0
 11
99.633799999999994
 21
211.2049999999999
 31
0.0
  0
LINE
  5
58
  8
0
 62
     7
 10
99.834000000000003
 20
207.405
 30
0.0
 11
99.834000000000003
 21
211.005
 31
0.0
  0
LINE
  5
59
  8
0
 62
     7
 10
95.633899999999997
 20
207.405
 30
0.0
 11
95.633899999999997
 21
211.005
 31
0.0
  0
ARC
  5
5A
  8
0
 62
     7
 10
97.713657999999995
 20
176.36385200000001
 30
0.0
 40
15.883241
 50
250.02309999999991
 51
270.07406500000002
  0
ARC
  5
5B
  8
0
 62
     7
 10
97.726570999999993
 20
176.516347
 30
0.0
 40
16.035723999999998
 50
270.02722399999999
 51
289.88786199999993
  0
ARC
  5
5C
  8
0
 62
     7
 10
101.0322359999999
 20
122.76811599999991
 30
0.0
 40
0.5210270000000001
 50
264.72239399999989
 51
350.33321699999999
  0
ARC
  5
5D
  8
0
 62
     7
 10
101.0719219999999
 20
122.7617469999999
 30
0.0
 40
0.519886
 50
174.58025000000001
 51
260.29827
  0
ARC
  5
5E
  8
0
 62
     7
 10
101.0660359999999
 20
122.72417299999999
 30
0.0
 40
0.518966
 50
84.561156000000025
 51
170.38526399999989
  0
ARC
  5
5F
  8
0
 62
     7
 10
101.028541
 20
122.72854599999999
 30
0.0
 40
0.5195390000000001
 50
354.70775299999991
 51
80.395356000000007
  0
ARC
  5
60
  8
0
 62
     7
 10
100.45973599999989
 20
118.404157
 30
0.0
 40
0.5187340000000001
 50
264.53740099999987
 51
350.40905800000002
  0
ARC
  5
61
  8
0
 62
     7
 10
100.4952999999999
 20
118.398698
 30
0.0
 40
0.5179330000000001
 50
174.54275999999999
 51
260.56034899999997
  0
ARC
  5
62
  8
0
 62
     7
 10
100.49255100000001
 20
118.3605919999999
 30
0.0
 40
0.520224
 50
84.702706999999975
 51
170.33232899999999
  0
ARC
  5
63
  8
0
 62
     7
 10
100.454087
 20
118.366426
 30
0.0
 40
0.5194200000000001
 50
354.620521
 51
80.414535999999998
  0
ARC
  5
64
  8
0
 62
     7
 10
104.2949169999999
 20
122.1208679999999
 30
0.0
 40
0.519867
 50
257.15153599999991
 51
342.91956599999997
  0
ARC
  5
65
  8
0
 62
     7
 10
104.331861
 20
122.110302
 30
0.0
 40
0.519201
 50
167.06087099999991
 51
252.91355899999999
  0
ARC
  5
66
  8
0
 62
     7
 10
104.32174599999991
 20
122.074673
 30
0.0
 40
0.5186410000000001
 50
77.003313000000006
 51
162.97109800000001
  0
ARC
  5
67
  8
0
 62
     7
 10
104.286075
 20
122.084012
 30
0.0
 40
0.518875
 50
347.10030299999988
 51
72.929974999999999
  0
ARC
  5
68
  8
0
 62
     7
 10
103.156492
 20
117.869383
 30
0.0
 40
0.5184370000000002
 50
257.055318
 51
342.9749799999999
  0
ARC
  5
69
  8
0
 62
     7
 10
103.193309
 20
117.861208
 30
0.0
 40
0.520087
 50
167.17400900000001
 51
252.897074
  0
ARC
  5
6A
  8
0
 62
     7
 10
103.1837019999999
 20
117.8220019999999
 30
0.0
 40
0.5209890000000002
 50
77.243530000000007
 51
162.73088100000001
  0
ARC
  5
6B
  8
0
 62
     7
 10
103.1461919999999
 20
117.83384699999991
 30
0.0
 40
0.519201
 50
347.06090799999998
 51
72.913522
  0
ARC
  5
6C
  8
0
 62
     7
 10
107.4443679999999
 20
121.054028
 30
0.0
 40
0.519203
 50
249.59918399999989
 51
335.434415
  0
ARC
  5
6D
  8
0
 62
     7
 10
107.479232
 20
121.0395979999999
 30
0.0
 40
0.519203
 50
159.59913700000001
 51
245.43444199999999
  0
ARC
  5
6E
  8
0
 62
     7
 10
107.46561199999989
 20
121.003243
 30
0.0
 40
0.520559
 50
69.668714000000008
 51
155.32212100000001
  0
ARC
  5
6F
  8
0
 62
     7
 10
107.42949399999991
 20
121.01920800000001
 30
0.0
 40
0.5196350000000001
 50
339.61171000000002
 51
65.318681000000012
  0
ARC
  5
70
  8
0
 62
     7
 10
105.7603949999999
 20
116.9887889999999
 30
0.0
 40
0.519203
 50
249.59918399999989
 51
335.434415
  0
ARC
  5
71
  8
0
 62
     7
 10
105.79566199999999
 20
116.9745269999999
 30
0.0
 40
0.5195220000000002
 50
159.63190700000001
 51
245.40167199999999
  0
ARC
  5
72
  8
0
 62
     7
 10
105.78138799999989
 20
116.93814999999989
 30
0.0
 40
0.5202710000000002
 50
69.708421999999985
 51
155.32513700000001
  0
ARC
  5
73
  8
0
 62
     7
 10
105.745025
 20
116.953536
 30
0.0
 40
0.519949
 50
339.67554799999988
 51
65.358031000000011
  0
ARC
  5
74
  8
0
 62
     7
 10
110.427526
 20
119.58609300000001
 30
0.0
 40
0.5196060000000001
 50
242.156643
 51
327.89324900000003
  0
ARC
  5
75
  8
0
 62
     7
 10
110.4600919999999
 20
119.56653300000001
 30
0.0
 40
0.5189090000000001
 50
152.08514199999991
 51
237.96472999999989
  0
ARC
  5
76
  8
0
 62
     7
 10
110.4415979999999
 20
119.5336689999999
 30
0.0
 40
0.519323
 50
62.127598999999996
 51
147.92225300000001
  0
ARC
  5
77
  8
0
 62
     7
 10
110.408587
 20
119.552708
 30
0.0
 40
0.519323
 50
332.12760900000001
 51
57.922263000000001
  0
ARC
  5
78
  8
0
 62
     7
 10
108.227861
 20
115.7753889999999
 30
0.0
 40
0.5194300000000001
 50
242.09808499999991
 51
327.84391899999991
  0
ARC
  5
79
  8
0
 62
     7
 10
108.26058499999991
 20
115.75637999999999
 30
0.0
 40
0.519323
 50
152.12757199999999
 51
237.92230000000001
  0
ARC
  5
7A
  8
0
 62
     7
 10
108.2410129999999
 20
115.72363
 30
0.0
 40
0.5187330000000001
 50
62.026546000000003
 51
147.9154179999999
  0
ARC
  5
7B
  8
0
 62
     7
 10
108.208535
 20
115.74172
 30
0.0
 40
0.519323
 50
332.12760900000001
 51
57.922263000000001
  0
ARC
  5
7C
  8
0
 62
     7
 10
113.193545
 20
117.742305
 30
0.0
 40
0.520733
 50
234.70913200000001
 51
320.28842500000002
  0
ARC
  5
7D
  8
0
 62
     7
 10
113.223392
 20
117.71728999999991
 30
0.0
 40
0.5190120000000001
 50
144.59178899999989
 51
230.42032699999999
  0
ARC
  5
7E
  8
0
 62
     7
 10
113.200731
 20
117.68702399999989
 30
0.0
 40
0.519455
 50
54.578483999999989
 51
140.41903300000001
  0
ARC
  5
7F
  8
0
 62
     7
 10
113.1697459999999
 20
117.710131
 30
0.0
 40
0.520021
 50
324.69507599999991
 51
50.317039999999999
  0
ARC
  5
80
  8
0
 62
     7
 10
110.515637
 20
114.248711
 30
0.0
 40
0.5184760000000001
 50
234.488135
 51
320.41323299999999
  0
ARC
  5
81
  8
0
 62
     7
 10
110.54458700000001
 20
114.22703799999999
 30
0.0
 40
0.5189110000000001
 50
144.629985
 51
230.49287000000001
  0
ARC
  5
82
  8
0
 62
     7
 10
110.5220349999999
 20
114.194703
 30
0.0
 40
0.520733
 50
54.70911199999999
 51
140.28840500000001
  0
ARC
  5
83
  8
0
 62
     7
 10
110.4918969999999
 20
114.21938400000001
 30
0.0
 40
0.519455
 50
324.57849399999998
 51
50.419043000000002
  0
ARC
  5
84
  8
0
 62
     7
 10
115.6953059999999
 20
115.5502009999999
 30
0.0
 40
0.5196690000000001
 50
227.09034700000001
 51
312.909673
  0
ARC
  5
85
  8
0
 62
     7
 10
115.7209659999999
 20
115.52305
 30
0.0
 40
0.518595
 50
137.03195700000001
 51
222.96804299999999
  0
ARC
  5
86
  8
0
 62
     7
 10
115.694962
 20
115.4970459999999
 30
0.0
 40
0.518595
 50
47.031983999999987
 51
132.96799599999991
  0
ARC
  5
87
  8
0
 62
     7
 10
115.668654
 20
115.52267999999999
 30
0.0
 40
0.519069
 50
317.13651399999998
 51
42.975173999999988
  0
ARC
  5
88
  8
0
 62
     7
 10
112.583676
 20
112.41107599999989
 30
0.0
 40
0.499394
 50
225.00002499999991
 51
314.99999500000001
  0
ARC
  5
89
  8
0
 62
     7
 10
112.6114749999999
 20
112.4121359999999
 30
0.0
 40
0.5201440000000001
 50
137.19473799999989
 51
222.91684100000001
  0
ARC
  5
8A
  8
0
 62
     7
 10
112.583332
 20
112.38374399999989
 30
0.0
 40
0.5203250000000002
 50
47.209177000000011
 51
132.79080300000001
  0
ARC
  5
8B
  8
0
 62
     7
 10
112.556181
 20
112.4117649999999
 30
0.0
 40
0.5196690000000001
 50
317.09033699999998
 51
42.909663000000002
  0
ARC
  5
8C
  8
0
 62
     7
 10
117.88977
 20
113.0535559999999
 30
0.0
 40
0.520774
 50
219.7158529999999
 51
305.28663
  0
ARC
  5
8D
  8
0
 62
     7
 10
117.91315399999991
 20
113.02137999999999
 30
0.0
 40
0.5197189999999999
 50
129.65214399999999
 51
215.3357399999999
  0
ARC
  5
8E
  8
0
 62
     7
 10
117.8820959999999
 20
112.997553
 30
0.0
 40
0.5197189999999999
 50
39.652171000000003
 51
125.33569299999991
  0
ARC
  5
8F
  8
0
 62
     7
 10
117.85929399999991
 20
113.02815099999989
 30
0.0
 40
0.51915
 50
309.65605899999991
 51
35.442591999999991
  0
ARC
  5
90
  8
0
 62
     7
 10
114.39821599999991
 20
110.3727379999999
 30
0.0
 40
0.518825
 50
219.622668
 51
305.47600299999999
  0
ARC
  5
91
  8
0
 62
     7
 10
114.421553
 20
110.34330799999999
 30
0.0
 40
0.5193909999999999
 50
129.63647900000001
 51
215.4766459999999
  0
ARC
  5
92
  8
0
 62
     7
 10
114.391147
 20
110.318859
 30
0.0
 40
0.5202869999999999
 50
39.666129999999988
 51
125.3363129999999
  0
ARC
  5
93
  8
0
 62
     7
 10
114.367677
 20
110.35037699999999
 30
0.0
 40
0.5197189999999999
 50
309.65218099999998
 51
35.335703000000002
  0
ARC
  5
94
  8
0
 62
     7
 10
119.7386199999999
 20
110.28895899999991
 30
0.0
 40
0.519837
 50
212.1621549999999
 51
297.924712
  0
ARC
  5
95
  8
0
 62
     7
 10
119.7576039999999
 20
110.255477
 30
0.0
 40
0.51951
 50
122.0613
 51
207.91775200000001
  0
ARC
  5
96
  8
0
 62
     7
 10
119.72441000000001
 20
110.235894
 30
0.0
 40
0.519916
 50
32.138410999999991
 51
117.811697
  0
ARC
  5
97
  8
0
 62
     7
 10
119.704537
 20
110.26968599999999
 30
0.0
 40
0.520245
 50
302.23934700000001
 51
27.818670000000001
  0
ARC
  5
98
  8
0
 62
     7
 10
115.927931
 20
108.08837
 30
0.0
 40
0.5192230000000001
 50
212.13486499999991
 51
297.92317099999991
  0
ARC
  5
99
  8
0
 62
     7
 10
115.9470399999999
 20
108.0557739999999
 30
0.0
 40
0.51944
 50
122.12142900000001
 51
207.96541699999989
  0
ARC
  5
9A
  8
0
 62
     7
 10
115.9134209999999
 20
108.0358419999999
 30
0.0
 40
0.519916
 50
32.138410999999991
 51
117.811697
  0
ARC
  5
9B
  8
0
 62
     7
 10
115.89541800000001
 20
108.069135
 30
0.0
 40
0.518826
 50
302.09417999999999
 51
27.963836000000001
  0
ARC
  5
9C
  8
0
 62
     7
 10
121.2118269999999
 20
107.30808499999991
 30
0.0
 40
0.519809
 50
204.62769999999989
 51
290.33874100000003
  0
ARC
  5
9D
  8
0
 62
     7
 10
121.2253739999999
 20
107.2726909999999
 30
0.0
 40
0.518755
 50
114.5195989999999
 51
200.446822
  0
ARC
  5
9E
  8
0
 62
     7
 10
121.1909149999999
 20
107.2576429999999
 30
0.0
 40
0.519508
 50
24.596876999999989
 51
110.3695239999999
  0
ARC
  5
9F
  8
0
 62
     7
 10
121.176261
 20
107.29305100000001
 30
0.0
 40
0.519508
 50
294.59688699999998
 51
20.369533999999991
  0
ARC
  5
A0
  8
0
 62
     7
 10
117.14658799999989
 20
105.624112
 30
0.0
 40
0.519809
 50
204.62769999999989
 51
290.33874100000003
  0
ARC
  5
A1
  8
0
 62
     7
 10
117.1603419999999
 20
105.58886
 30
0.0
 40
0.518998
 50
114.616046
 51
200.45356399999989
  0
ARC
  5
A2
  8
0
 62
     7
 10
117.1248309999999
 20
105.5732899999999
 30
0.0
 40
0.519809
 50
24.627680000000002
 51
110.33872100000001
  0
ARC
  5
A3
  8
0
 62
     7
 10
117.11107699999999
 20
105.6085419999999
 30
0.0
 40
0.518998
 50
294.616083
 51
20.453527000000001
  0
ARC
  5
A4
  8
0
 62
     7
 10
122.28295300000001
 20
104.160543
 30
0.0
 40
0.520285
 50
197.19745599999999
 51
282.82813299999992
  0
ARC
  5
A5
  8
0
 62
     7
 10
122.29253300000001
 20
104.122631
 30
0.0
 40
0.5196970000000001
 50
107.137241
 51
192.888328
  0
ARC
  5
A6
  8
0
 62
     7
 10
122.255453
 20
104.112887
 30
0.0
 40
0.519497
 50
17.116765999999998
 51
102.908783
  0
ARC
  5
A7
  8
0
 62
     7
 10
122.2455719999999
 20
104.14973000000001
 30
0.0
 40
0.519497
 50
287.1167759999999
 51
12.908792999999999
  0
ARC
  5
A8
  8
0
 62
     7
 10
118.03201
 20
103.020689
 30
0.0
 40
0.518818
 50
197.06424399999989
 51
282.90549800000002
  0
ARC
  5
A9
  8
0
 62
     7
 10
118.0423989999999
 20
102.98450099999999
 30
0.0
 40
0.519496
 50
107.116739
 51
192.90882999999999
  0
ARC
  5
AA
  8
0
 62
     7
 10
118.00474800000001
 20
102.9744849999999
 30
0.0
 40
0.5194479999999999
 50
17.054514000000001
 51
102.81848100000001
  0
ARC
  5
AB
  8
0
 62
     7
 10
117.99564099999991
 20
103.010955
 30
0.0
 40
0.518818
 50
287.06423399999989
 51
12.905488
  0
ARC
  5
AC
  8
0
 62
     7
 10
122.9344259999999
 20
100.900183
 30
0.0
 40
0.5206710000000001
 50
189.7062159999999
 51
275.32669599999991
  0
ARC
  5
AD
  8
0
 62
     7
 10
122.9389429999999
 20
100.86063399999991
 30
0.0
 40
0.519976
 50
99.642306999999974
 51
185.3226369999999
  0
ARC
  5
AE
  8
0
 62
     7
 10
122.90158
 20
100.85748
 30
0.0
 40
0.5181770000000001
 50
9.4575169999999993
 51
95.507407000000015
  0
ARC
  5
AF
  8
0
 62
     7
 10
122.896869
 20
100.89283399999989
 30
0.0
 40
0.518242
 50
279.54024700000002
 51
5.5133130000000001
  0
ARC
  5
B0
  8
0
 62
     7
 10
118.571631
 20
100.3255369999999
 30
0.0
 40
0.519976
 50
189.64235400000001
 51
275.322609
  0
ARC
  5
B1
  8
0
 62
     7
 10
118.57652899999999
 20
100.28683599999989
 30
0.0
 40
0.519786
 50
99.622869000000023
 51
185.34207499999991
  0
ARC
  5
B2
  8
0
 62
     7
 10
118.538033
 20
100.2817789999999
 30
0.0
 40
0.519786
 50
9.6228960000000008
 51
95.342027999999999
  0
ARC
  5
B3
  8
0
 62
     7
 10
118.532977
 20
100.32027600000001
 30
0.0
 40
0.519786
 50
279.62290599999989
 51
5.3420379999999987
  0
ARC
  5
B4
  8
0
 62
     7
 10
123.15361899999991
 20
97.582262999999998
 30
0.0
 40
0.519887
 50
182.2033429999999
 51
267.87566099999992
  0
ARC
  5
B5
  8
0
 62
     7
 10
123.134348
 20
97.562275999999997
 30
0.0
 40
0.5002310000000002
 50
90.0
 51
179.99996999999991
  0
ARC
  5
B6
  8
0
 62
     7
 10
123.134348
 20
97.562275999999997
 30
0.0
 40
0.5002310000000002
 50
0.00001
 51
89.999980000000008
  0
ARC
  5
B7
  8
0
 62
     7
 10
123.11570399999999
 20
97.581633999999994
 30
0.0
 40
0.5192350000000001
 50
272.05767200000003
 51
357.86336299999999
  0
ARC
  5
B8
  8
0
 62
     7
 10
118.753533
 20
97.581564999999998
 30
0.0
 40
0.51919
 50
182.1291919999999
 51
267.87083799999988
  0
ARC
  5
B9
  8
0
 62
     7
 10
118.752667
 20
97.544567000000001
 30
0.0
 40
0.518267
 50
92.037081999999984
 51
178.04186200000001
  0
ARC
  5
BA
  8
0
 62
     7
 10
118.7342439999999
 20
97.562275999999997
 30
0.0
 40
0.5002310000000002
 50
0.00001
 51
89.999980000000008
  0
ARC
  5
BB
  8
0
 62
     7
 10
118.71560100000001
 20
97.581633999999994
 30
0.0
 40
0.5192350000000001
 50
272.05767200000003
 51
357.86336299999999
  0
ARC
  5
BC
  8
0
 62
     7
 10
122.93834099999999
 20
94.263455000000008
 30
0.0
 40
0.5194200000000001
 50
174.620484
 51
260.41457300000002
  0
ARC
  5
BD
  8
0
 62
     7
 10
122.933483
 20
94.225599000000017
 30
0.0
 40
0.5195350000000002
 50
84.557167000000007
 51
170.40992199999991
  0
ARC
  5
BE
  8
0
 62
     7
 10
122.896084
 20
94.231116
 30
0.0
 40
0.518966
 50
354.56116600000001
 51
80.385273999999995
  0
ARC
  5
BF
  8
0
 62
     7
 10
122.900352
 20
94.268670999999998
 30
0.0
 40
0.519653
 50
264.64431000000002
 51
350.39076699999993
  0
ARC
  5
C0
  8
0
 62
     7
 10
118.576134
 20
94.838100999999995
 30
0.0
 40
0.5194200000000001
 50
174.620484
 51
260.41457300000002
  0
ARC
  5
C1
  8
0
 62
     7
 10
118.57136199999999
 20
94.800053000000005
 30
0.0
 40
0.519653
 50
84.644289999999998
 51
170.390747
  0
ARC
  5
C2
  8
0
 62
     7
 10
118.53218799999991
 20
94.804299999999998
 30
0.0
 40
0.520574
 50
354.663408
 51
80.303700000000006
  0
ARC
  5
C3
  8
0
 62
     7
 10
118.538161
 20
94.843434000000002
 30
0.0
 40
0.519771
 50
264.64362799999992
 51
350.30283199999991
  0
ARC
  5
C4
  8
0
 62
     7
 10
122.29220599999999
 20
91.001731999999976
 30
0.0
 40
0.5194200000000001
 50
167.08338499999999
 51
252.89104599999999
  0
ARC
  5
C5
  8
0
 62
     7
 10
122.2823629999999
 20
90.96503100000001
 30
0.0
 40
0.519421
 50
77.083411999999996
 51
162.89099899999991
  0
ARC
  5
C6
  8
0
 62
     7
 10
122.246585
 20
90.975406000000007
 30
0.0
 40
0.5186410000000001
 50
347.00332300000002
 51
72.971108000000001
  0
ARC
  5
C7
  8
0
 62
     7
 10
122.2555049999999
 20
91.011574999999993
 30
0.0
 40
0.519421
 50
257.08343100000002
 51
342.89101899999991
  0
ARC
  5
C8
  8
0
 62
     7
 10
118.04205
 20
92.140538000000006
 30
0.0
 40
0.519201
 50
167.06087099999991
 51
252.91355899999999
  0
ARC
  5
C9
  8
0
 62
     7
 10
118.03175
 20
92.105001999999999
 30
0.0
 40
0.5184370000000002
 50
77.055299000000005
 51
162.97496000000001
  0
ARC
  5
CA
  8
0
 62
     7
 10
117.99507699999999
 20
92.113830000000007
 30
0.0
 40
0.519421
 50
347.08342199999998
 51
72.891008999999997
  0
ARC
  5
CB
  8
0
 62
     7
 10
118.005636
 20
92.149515000000008
 30
0.0
 40
0.5184370000000002
 50
257.055318
 51
342.9749799999999
  0
ARC
  5
CC
  8
0
 62
     7
 10
121.225679
 20
87.853189
 30
0.0
 40
0.519463
 50
159.65754599999991
 51
245.47914499999999
  0
ARC
  5
CD
  8
0
 62
     7
 10
121.211112
 20
87.816436999999993
 30
0.0
 40
0.520085
 50
69.588544999999996
 51
155.29917900000001
  0
ARC
  5
CE
  8
0
 62
     7
 10
121.176923
 20
87.832286999999994
 30
0.0
 40
0.5185170000000001
 50
339.49699299999997
 51
65.433396999999999
  0
ARC
  5
CF
  8
0
 62
     7
 10
121.19098700000001
 20
87.866772999999995
 30
0.0
 40
0.51876
 50
249.59137200000001
 51
335.38176199999998
  0
ARC
  5
D0
  8
0
 62
     7
 10
117.159735
 20
89.53613
 30
0.0
 40
0.5185170000000001
 50
159.49695600000001
 51
245.43343399999989
  0
ARC
  5
D1
  8
0
 62
     7
 10
117.14652199999991
 20
89.501287999999988
 30
0.0
 40
0.5196830000000001
 50
69.648358999999999
 51
155.3852
  0
ARC
  5
D2
  8
0
 62
     7
 10
117.110128
 20
89.516114999999999
 30
0.0
 40
0.5199240000000001
 50
339.57208100000003
 51
65.315663000000001
  0
ARC
  5
D3
  8
0
 62
     7
 10
117.1254969999999
 20
89.550892000000005
 30
0.0
 40
0.519049
 50
249.55167599999999
 51
335.37873400000001
  0
ARC
  5
D4
  8
0
 62
     7
 10
119.7570849999999
 20
84.869378999999995
 30
0.0
 40
0.5189090000000001
 50
152.08514199999991
 51
237.96472999999989
  0
ARC
  5
D5
  8
0
 62
     7
 10
119.7385909999999
 20
84.836515000000006
 30
0.0
 40
0.519323
 50
62.127598999999996
 51
147.92225300000001
  0
ARC
  5
D6
  8
0
 62
     7
 10
119.730835
 20
84.862081000000003
 30
0.0
 40
0.5007010000000001
 50
330.04613000000001
 51
59.974817999999999
  0
ARC
  5
D7
  8
0
 62
     7
 10
119.724907
 20
84.888535000000005
 30
0.0
 40
0.5194300000000001
 50
242.09808499999991
 51
327.84391899999991
  0
ARC
  5
D8
  8
0
 62
     7
 10
115.946381
 20
87.069044999999974
 30
0.0
 40
0.5187330000000001
 50
152.02651900000001
 51
237.9154649999999
  0
ARC
  5
D9
  8
0
 62
     7
 10
115.9282909999999
 20
87.036567000000005
 30
0.0
 40
0.519323
 50
62.127598999999996
 51
147.92225300000001
  0
ARC
  5
DA
  8
0
 62
     7
 10
115.893058
 20
87.055474999999987
 30
0.0
 40
0.520618
 50
332.21929799999998
 51
57.722686000000003
  0
ARC
  5
DB
  8
0
 62
     7
 10
115.91385
 20
87.087800000000001
 30
0.0
 40
0.518703
 50
242.06402299999999
 51
327.98586899999992
  0
ARC
  5
DC
  8
0
 62
     7
 10
117.912533
 20
82.103802000000016
 30
0.0
 40
0.519809
 50
144.6633149999999
 51
230.44485599999999
  0
ARC
  5
DD
  8
0
 62
     7
 10
117.888846
 20
82.073468999999989
 30
0.0
 40
0.519455
 50
54.578483999999989
 51
140.41903300000001
  0
ARC
  5
DE
  8
0
 62
     7
 10
117.858504
 20
82.096363999999994
 30
0.0
 40
0.519774
 50
324.61118999999991
 51
50.386347000000001
  0
ARC
  5
DF
  8
0
 62
     7
 10
117.882222
 20
82.126041000000001
 30
0.0
 40
0.5190120000000001
 50
234.591836
 51
320.4203
  0
ARC
  5
E0
  8
0
 62
     7
 10
114.421346
 20
84.782026000000016
 30
0.0
 40
0.5193310000000001
 50
144.62448699999999
 51
230.38762899999989
  0
ARC
  5
E1
  8
0
 62
     7
 10
114.3982529999999
 20
84.751703000000006
 30
0.0
 40
0.519455
 50
54.578483999999989
 51
140.41903300000001
  0
ARC
  5
E2
  8
0
 62
     7
 10
114.3671309999999
 20
84.775209000000004
 30
0.0
 40
0.5198020000000002
 50
324.62408399999998
 51
50.277264999999993
  0
ARC
  5
E3
  8
0
 62
     7
 10
114.391054
 20
84.804101999999986
 30
0.0
 40
0.518375
 50
234.52636299999989
 51
320.48577299999999
  0
ARC
  5
E4
  8
0
 62
     7
 10
115.722112
 20
79.601845999999995
 30
0.0
 40
0.5196690000000001
 50
137.09030000000001
 51
222.9096999999999
  0
ARC
  5
E5
  8
0
 62
     7
 10
115.694962
 20
79.574600000000004
 30
0.0
 40
0.5197560000000001
 50
47.151105999999999
 51
132.848874
  0
ARC
  5
E6
  8
0
 62
     7
 10
115.6662199999999
 20
79.601845999999995
 30
0.0
 40
0.5208350000000001
 50
317.20950099999999
 51
42.79049899999999
  0
ARC
  5
E7
  8
0
 62
     7
 10
115.694962
 20
79.629092
 30
0.0
 40
0.5197560000000001
 50
227.151126
 51
312.84889399999992
  0
ARC
  5
E8
  8
0
 62
     7
 10
112.61169699999989
 20
82.713131000000004
 30
0.0
 40
0.5203250000000002
 50
137.20914999999999
 51
222.79085000000001
  0
ARC
  5
E9
  8
0
 62
     7
 10
112.583332
 20
82.685958999999997
 30
0.0
 40
0.51945
 50
47.119741999999988
 51
132.88023799999991
  0
ARC
  5
EA
  8
0
 62
     7
 10
112.556129
 20
82.713131000000004
 30
0.0
 40
0.519472
 50
317.12203699999998
 51
42.877963000000001
  0
ARC
  5
EB
  8
0
 62
     7
 10
112.583332
 20
82.740720999999994
 30
0.0
 40
0.5197560000000001
 50
227.151126
 51
312.84889399999992
  0
ARC
  5
EC
  8
0
 62
     7
 10
113.224479
 20
77.407511999999997
 30
0.0
 40
0.5200430000000001
 50
129.64120800000001
 51
215.36125399999989
  0
ARC
  5
ED
  8
0
 62
     7
 10
113.1933489999999
 20
77.384439
 30
0.0
 40
0.519393
 50
39.618825000000001
 51
125.3690389999999
  0
ARC
  5
EE
  8
0
 62
     7
 10
113.16933399999991
 20
77.414680000000004
 30
0.0
 40
0.5200430000000001
 50
309.64124600000002
 51
35.361216999999989
  0
ARC
  5
EF
  8
0
 62
     7
 10
113.2006389999999
 20
77.439078000000009
 30
0.0
 40
0.520374
 50
219.71900400000001
 51
305.26889999999992
  0
ARC
  5
F0
  8
0
 62
     7
 10
110.5450969999999
 20
80.898460999999998
 30
0.0
 40
0.5194760000000001
 50
129.62725
 51
215.36063399999989
  0
ARC
  5
F1
  8
0
 62
     7
 10
110.514759
 20
80.874572000000015
 30
0.0
 40
0.519961
 50
39.632783000000003
 51
125.369659
  0
ARC
  5
F2
  8
0
 62
     7
 10
110.49067599999999
 20
80.905721999999997
 30
0.0
 40
0.52013
 50
309.69410800000003
 51
35.293776000000001
  0
ARC
  5
F3
  8
0
 62
     7
 10
110.52189799999989
 20
80.929494000000005
 30
0.0
 40
0.519961
 50
219.63280299999991
 51
305.36967900000002
  0
ARC
  5
F4
  8
0
 62
     7
 10
110.46008399999999
 20
75.558742000000009
 30
0.0
 40
0.5192420000000001
 50
122.1010499999999
 51
207.98579699999999
  0
ARC
  5
F5
  8
0
 62
     7
 10
110.427153
 20
75.538669999999996
 30
0.0
 40
0.5201760000000001
 50
32.129452000000001
 51
117.84958
  0
ARC
  5
F6
  8
0
 62
     7
 10
110.4080669999999
 20
75.572671999999997
 30
0.0
 40
0.519717
 50
302.11810099999991
 51
27.832027
  0
ARC
  5
F7
  8
0
 62
     7
 10
110.4412219999999
 20
75.591211000000001
 30
0.0
 40
0.519179
 50
212.130424
 51
297.92761200000001
  0
ARC
  5
F8
  8
0
 62
     7
 10
108.2594969999999
 20
79.369430000000008
 30
0.0
 40
0.518628
 50
122.07376599999991
 51
207.984251
  0
ARC
  5
F9
  8
0
 62
     7
 10
108.22756099999999
 20
79.349644999999995
 30
0.0
 40
0.519794
 50
32.157693000000002
 51
117.929134
  0
ARC
  5
FA
  8
0
 62
     7
 10
108.2080149999999
 20
79.383659999999992
 30
0.0
 40
0.519717
 50
302.11810099999991
 51
27.832027
  0
ARC
  5
FB
  8
0
 62
     7
 10
108.2410459999999
 20
79.40173399999999
 30
0.0
 40
0.518826
 50
212.09419
 51
297.96384599999988
  0
ARC
  5
FC
  8
0
 62
     7
 10
107.478478
 20
74.085954999999998
 30
0.0
 40
0.518605
 50
114.50412300000001
 51
200.462298
  0
ARC
  5
FD
  8
0
 62
     7
 10
107.444011
 20
74.070352
 30
0.0
 40
0.519886
 50
24.635553999999988
 51
110.33084699999991
  0
ARC
  5
FE
  8
0
 62
     7
 10
107.429744
 20
74.106157999999994
 30
0.0
 40
0.519357
 50
294.58145200000001
 51
20.384969000000002
  0
ARC
  5
FF
  8
0
 62
     7
 10
107.46516
 20
74.121367000000006
 30
0.0
 40
0.519886
 50
204.63557399999999
 51
290.33086700000001
  0
ARC
  5
100
  8
0
 62
     7
 10
105.79545400000001
 20
78.150800000000004
 30
0.0
 40
0.519357
 50
114.58141499999989
 51
200.38500599999989
  0
ARC
  5
101
  8
0
 62
     7
 10
105.76003799999999
 20
78.135590000000008
 30
0.0
 40
0.519886
 50
24.635553999999988
 51
110.33084699999991
  0
ARC
  5
102
  8
0
 62
     7
 10
105.74577099999991
 20
78.171396000000001
 30
0.0
 40
0.519357
 50
294.58145200000001
 51
20.384969000000002
  0
ARC
  5
103
  8
0
 62
     7
 10
105.781187
 20
78.186606000000012
 30
0.0
 40
0.519886
 50
204.63557399999999
 51
290.33086700000001
  0
ARC
  5
104
  8
0
 62
     7
 10
104.3324139999999
 20
73.014092000000005
 30
0.0
 40
0.5203760000000001
 50
107.18970299999999
 51
192.8916199999999
  0
ARC
  5
105
  8
0
 62
     7
 10
104.293871
 20
73.003455999999986
 30
0.0
 40
0.520682
 50
17.237812999999989
 51
102.7877359999999
  0
ARC
  5
106
  8
0
 62
     7
 10
104.284561
 20
73.041834999999992
 30
0.0
 40
0.5196970000000001
 50
287.13727799999992
 51
12.888291000000001
  0
ARC
  5
107
  8
0
 62
     7
 10
104.32155
 20
73.051719999999975
 30
0.0
 40
0.519654
 50
197.207187
 51
282.91514899999999
  0
ARC
  5
108
  8
0
 62
     7
 10
103.19323900000001
 20
77.264072999999996
 30
0.0
 40
0.5200280000000001
 50
107.0968679999999
 51
192.83204900000001
  0
ARC
  5
109
  8
0
 62
     7
 10
103.15623099999991
 20
77.255406999999991
 30
0.0
 40
0.518818
 50
17.064223999999999
 51
102.905478
  0
ARC
  5
10A
  8
0
 62
     7
 10
103.1459609999999
 20
77.291527000000002
 30
0.0
 40
0.519396
 50
287.10650099999992
 51
12.919067999999999
  0
ARC
  5
10B
  8
0
 62
     7
 10
103.18268499999991
 20
77.301475999999994
 30
0.0
 40
0.519497
 50
197.11678599999999
 51
282.90880299999992
  0
ARC
  5
10C
  8
0
 62
     7
 10
101.071354
 20
72.362663999999995
 30
0.0
 40
0.519929
 50
99.637460000000019
 51
185.327484
  0
ARC
  5
10D
  8
0
 62
     7
 10
101.03376799999999
 20
72.358975000000001
 30
0.0
 40
0.5186430000000001
 50
9.5815629999999992
 51
95.471978000000007
  0
ARC
  5
10E
  8
0
 62
     7
 10
101.0285499999999
 20
72.395589999999984
 30
0.0
 40
0.5190120000000001
 50
279.53632799999991
 51
5.4965640000000002
  0
ARC
  5
10F
  8
0
 62
     7
 10
101.06614399999999
 20
72.401278000000005
 30
0.0
 40
0.519786
 50
189.622916
 51
275.34204799999992
  0
ARC
  5
110
  8
0
 62
     7
 10
100.494816
 20
76.726914000000008
 30
0.0
 40
0.5174870000000001
 50
99.393574000000001
 51
185.5033159999999
  0
ARC
  5
111
  8
0
 62
     7
 10
100.459812
 20
76.721181999999985
 30
0.0
 40
0.5186430000000001
 50
9.5815629999999992
 51
95.471978000000007
  0
ARC
  5
112
  8
0
 62
     7
 10
100.45369100000001
 20
76.759118999999998
 30
0.0
 40
0.519786
 50
279.62290599999989
 51
5.3420379999999987
  0
ARC
  5
113
  8
0
 62
     7
 10
100.49118199999999
 20
76.762865000000005
 30
0.0
 40
0.5185770000000001
 50
189.498851
 51
275.46611300000001
  0
ARC
  5
114
  8
0
 62
     7
 10
97.753345999999993
 20
72.142778000000007
 30
0.0
 40
0.519921
 50
92.111744999999985
 51
177.8684989999999
  0
ARC
  5
115
  8
0
 62
     7
 10
97.714916000000002
 20
72.142816999999994
 30
0.0
 40
0.519887
 50
2.2033230000000001
 51
87.875641000000002
  0
ARC
  5
116
  8
0
 62
     7
 10
97.734187000000006
 20
72.162804000000008
 30
0.0
 40
0.5002310000000002
 50
270.00002000000001
 51
359.99998999999991
  0
ARC
  5
117
  8
0
 62
     7
 10
97.753454000000005
 20
72.182276999999985
 30
0.0
 40
0.5200610000000001
 50
182.22186600000001
 51
267.87686500000001
  0
ARC
  5
118
  8
0
 62
     7
 10
97.752663999999996
 20
76.543537000000001
 30
0.0
 40
0.5192420000000001
 50
92.039245999999977
 51
177.86202399999991
  0
ARC
  5
119
  8
0
 62
     7
 10
97.734187000000006
 20
76.562218999999999
 30
0.0
 40
0.5002310000000002
 50
0.00001
 51
89.999980000000008
  0
ARC
  5
11A
  8
0
 62
     7
 10
97.715543999999994
 20
76.581578000000007
 30
0.0
 40
0.5192350000000001
 50
272.05767200000003
 51
357.86336299999999
  0
ARC
  5
11B
  8
0
 62
     7
 10
97.753503000000009
 20
76.582402999999999
 30
0.0
 40
0.520084
 50
182.14815899999999
 51
267.87159800000001
  0
ARC
  5
11C
  8
0
 62
     7
 10
94.435242999999986
 20
72.358058999999983
 30
0.0
 40
0.519478
 50
84.626441
 51
170.40859499999991
  0
ARC
  5
11D
  8
0
 62
     7
 10
94.397582999999983
 20
72.363228000000007
 30
0.0
 40
0.51925
 50
354.60306600000001
 51
80.431990999999996
  0
ARC
  5
11E
  8
0
 62
     7
 10
94.402062999999984
 20
72.40119399999999
 30
0.0
 40
0.519767
 50
264.58096
 51
350.38616799999988
  0
ARC
  5
11F
  8
0
 62
     7
 10
94.440527000000003
 20
72.396093999999991
 30
0.0
 40
0.519771
 50
174.64358100000001
 51
260.30285900000001
  0
ARC
  5
120
  8
0
 62
     7
 10
95.009287000000015
 20
76.720092000000008
 30
0.0
 40
0.519709
 50
84.562227000000007
 51
170.316273
  0
ARC
  5
121
  8
0
 62
     7
 10
94.972352999999984
 20
76.726225999999997
 30
0.0
 40
0.5184490000000001
 50
354.58335299999987
 51
80.431111999999999
  0
ARC
  5
122
  8
0
 62
     7
 10
94.976126000000008
 20
76.764030000000005
 30
0.0
 40
0.519653
 50
264.64431000000002
 51
350.39076699999993
  0
ARC
  5
123
  8
0
 62
     7
 10
95.013930999999985
 20
76.758673000000002
 30
0.0
 40
0.51925
 50
174.60302899999999
 51
260.432028
  0
ARC
  5
124
  8
0
 62
     7
 10
91.173973999999987
 20
73.004373000000001
 30
0.0
 40
0.519867
 50
77.151516999999984
 51
162.919546
  0
ARC
  5
125
  8
0
 62
     7
 10
91.136308000000014
 20
73.014521999999985
 30
0.0
 40
0.5198120000000001
 50
347.12346099999991
 51
72.850969000000006
  0
ARC
  5
126
  8
0
 62
     7
 10
91.146538000000007
 20
73.05162
 30
0.0
 40
0.5195310000000001
 50
257.09471600000001
 51
342.87973399999998
  0
ARC
  5
127
  8
0
 62
     7
 10
91.182297999999989
 20
73.040930000000003
 30
0.0
 40
0.5184370000000002
 50
167.055271
 51
252.97500699999989
  0
ARC
  5
128
  8
0
 62
     7
 10
92.312501999999995
 20
77.254711999999998
 30
0.0
 40
0.5195310000000001
 50
77.094695999999999
 51
162.87971399999989
  0
ARC
  5
129
  8
0
 62
     7
 10
92.275264000000007
 20
77.264418000000006
 30
0.0
 40
0.5198120000000001
 50
347.12346099999991
 51
72.850969000000006
  0
ARC
  5
12A
  8
0
 62
     7
 10
92.285494
 20
77.301517000000004
 30
0.0
 40
0.5195310000000001
 50
257.09471600000001
 51
342.87973399999998
  0
ARC
  5
12B
  8
0
 62
     7
 10
92.322731999999988
 20
77.291809999999998
 30
0.0
 40
0.5198109999999999
 50
167.12342399999989
 51
252.85100600000001
  0
ARC
  5
12C
  8
0
 62
     7
 10
88.024474999999995
 20
74.070127999999997
 30
0.0
 40
0.520237
 50
69.635835999999983
 51
155.3549999999999
  0
ARC
  5
12D
  8
0
 62
     7
 10
87.989734999999996
 20
74.086185999999998
 30
0.0
 40
0.5186760000000001
 50
339.51338500000003
 51
65.417006000000015
  0
ARC
  5
12E
  8
0
 62
     7
 10
88.003343999999998
 20
74.120639999999995
 30
0.0
 40
0.519309
 50
249.61008499999991
 51
335.42351400000001
  0
ARC
  5
12F
  8
0
 62
     7
 10
88.039811999999998
 20
74.106718999999998
 30
0.0
 40
0.520432
 50
159.72487599999999
 51
245.30870299999989
  0
ARC
  5
130
  8
0
 62
     7
 10
89.708196999999984
 20
78.135510999999994
 30
0.0
 40
0.519949
 50
69.675538000000003
 51
155.35802099999989
  0
ARC
  5
131
  8
0
 62
     7
 10
89.673412999999996
 20
78.151075000000006
 30
0.0
 40
0.5188310000000002
 50
339.56096500000001
 51
65.472613999999993
  0
ARC
  5
132
  8
0
 62
     7
 10
89.687317000000007
 20
78.185879
 30
0.0
 40
0.519309
 50
249.61008499999991
 51
335.42351400000001
  0
ARC
  5
133
  8
0
 62
     7
 10
89.723786000000004
 20
78.171957999999989
 30
0.0
 40
0.520432
 50
159.72487599999999
 51
245.30870299999989
  0
ARC
  5
134
  8
0
 62
     7
 10
85.041264999999996
 20
75.539520999999993
 30
0.0
 40
0.519323
 50
62.127598999999996
 51
147.92225300000001
  0
ARC
  5
135
  8
0
 62
     7
 10
85.006658000000002
 20
75.557888000000005
 30
0.0
 40
0.5207410000000001
 50
332.20811299999991
 51
57.812835
  0
ARC
  5
136
  8
0
 62
     7
 10
85.027154999999993
 20
75.592214999999996
 30
0.0
 40
0.520149
 50
242.10712699999999
 51
327.80604599999992
  0
ARC
  5
137
  8
0
 62
     7
 10
85.059353999999999
 20
75.571999000000005
 30
0.0
 40
0.5187330000000001
 50
152.02651900000001
 51
237.9154649999999
  0
ARC
  5
138
  8
0
 62
     7
 10
87.240783999999991
 20
79.350770999999995
 30
0.0
 40
0.5187330000000001
 50
62.026546000000003
 51
147.9154179999999
  0
ARC
  5
139
  8
0
 62
     7
 10
87.208306000000007
 20
79.368860999999995
 30
0.0
 40
0.519323
 50
332.12760900000001
 51
57.922263000000001
  0
ARC
  5
13A
  8
0
 62
     7
 10
87.227206999999993
 20
79.403204000000002
 30
0.0
 40
0.520149
 50
242.10712699999999
 51
327.80604599999992
  0
ARC
  5
13B
  8
0
 62
     7
 10
87.259406000000013
 20
79.382987999999997
 30
0.0
 40
0.5187330000000001
 50
152.02651900000001
 51
237.9154649999999
  0
ARC
  5
13C
  8
0
 62
     7
 10
82.275176000000002
 20
77.384232999999995
 30
0.0
 40
0.519774
 50
54.61117999999999
 51
140.386337
  0
ARC
  5
13D
  8
0
 62
     7
 10
82.243752000000001
 20
77.407425000000003
 30
0.0
 40
0.5205310000000001
 50
324.68860899999987
 51
50.308928999999999
  0
ARC
  5
13E
  8
0
 62
     7
 10
82.268253999999999
 20
77.439987999999985
 30
0.0
 40
0.5209540000000001
 50
234.68300699999989
 51
320.2038869999999
  0
ARC
  5
13F
  8
0
 62
     7
 10
82.298210999999995
 20
77.414986999999996
 30
0.0
 40
0.5193310000000001
 50
144.62448699999999
 51
230.38762899999989
  0
ARC
  5
140
  8
0
 62
     7
 10
84.953631000000001
 20
80.876132999999996
 30
0.0
 40
0.5185800000000002
 50
54.547431999999993
 51
140.46466399999991
  0
ARC
  5
141
  8
0
 62
     7
 10
84.923302000000007
 20
80.898487000000003
 30
0.0
 40
0.5193310000000001
 50
324.62452400000001
 51
50.387592000000012
  0
ARC
  5
142
  8
0
 62
     7
 10
84.946672000000007
 20
80.92895
 30
0.0
 40
0.5193310000000001
 50
234.6245339999999
 51
320.38760200000002
  0
ARC
  5
143
  8
0
 62
     7
 10
84.977135000000004
 20
80.905579999999986
 30
0.0
 40
0.5193310000000001
 50
144.62448699999999
 51
230.38762899999989
  0
ARC
  5
144
  8
0
 62
     7
 10
79.773584999999997
 20
79.573448999999997
 30
0.0
 40
0.5208350000000001
 50
47.209491
 51
132.79048899999989
  0
ARC
  5
145
  8
0
 62
     7
 10
79.745187999999999
 20
79.601845999999995
 30
0.0
 40
0.5208350000000001
 50
317.20950099999999
 51
42.79049899999999
  0
ARC
  5
146
  8
0
 62
     7
 10
79.773956999999996
 20
79.629936999999998
 30
0.0
 40
0.520358
 50
227.10505000000001
 51
312.78339099999999
  0
ARC
  5
147
  8
0
 62
     7
 10
79.800443000000001
 20
79.602190000000007
 30
0.0
 40
0.519472
 50
137.12200000000001
 51
222.8779999999999
  0
ARC
  5
148
  8
0
 62
     7
 10
82.884869999999992
 20
82.687117999999998
 30
0.0
 40
0.518601
 50
47.032641999999989
 51
132.9673389999999
  0
ARC
  5
149
  8
0
 62
     7
 10
82.857668000000004
 20
82.713131000000004
 30
0.0
 40
0.519472
 50
317.12203699999998
 51
42.877963000000001
  0
ARC
  5
14A
  8
0
 62
     7
 10
82.884869999999992
 20
82.740333999999976
 30
0.0
 40
0.519472
 50
227.12204700000001
 51
312.877973
  0
ARC
  5
14B
  8
0
 62
     7
 10
82.912042000000014
 20
82.713131000000004
 30
0.0
 40
0.5194490000000001
 50
137.1197149999999
 51
222.88028499999999
  0
ARC
  5
14C
  8
0
 62
     7
 10
77.579308999999995
 20
82.073113000000006
 30
0.0
 40
0.519717
 50
39.607884999999989
 51
125.3945579999999
  0
ARC
  5
14D
  8
0
 62
     7
 10
77.556048000000004
 20
82.103426999999996
 30
0.0
 40
0.519717
 50
309.60789499999998
 51
35.394567999999992
  0
ARC
  5
14E
  8
0
 62
     7
 10
77.586646999999999
 20
82.126396000000014
 30
0.0
 40
0.5193140000000001
 50
219.50440399999991
 51
305.38744400000002
  0
ARC
  5
14F
  8
0
 62
     7
 10
77.608176
 20
82.096861000000004
 30
0.0
 40
0.5184220000000001
 50
129.519036
 51
215.46884800000001
  0
ARC
  5
150
  8
0
 62
     7
 10
81.070430999999999
 20
84.753120999999993
 30
0.0
 40
0.51818
 50
39.49412499999999
 51
125.4937399999999
  0
ARC
  5
151
  8
0
 62
     7
 10
81.0471
 20
84.781993999999983
 30
0.0
 40
0.519151
 50
309.59393799999992
 51
35.393946
  0
ARC
  5
152
  8
0
 62
     7
 10
81.077286999999998
 20
84.805152000000007
 30
0.0
 40
0.519151
 50
219.59394800000001
 51
305.39395599999989
  0
ARC
  5
153
  8
0
 62
     7
 10
81.100444999999979
 20
84.774964999999995
 30
0.0
 40
0.51915
 50
129.5939009999999
 51
215.39398299999999
  0
ARC
  5
154
  8
0
 62
     7
 10
75.730271999999999
 20
84.837325000000007
 30
0.0
 40
0.518916
 50
32.00029
 51
117.97874299999999
  0
ARC
  5
155
  8
0
 62
     7
 10
75.711208999999997
 20
84.869540000000001
 30
0.0
 40
0.5193620000000001
 50
302.08175
 51
27.868378
  0
ARC
  5
156
  8
0
 62
     7
 10
75.744284999999991
 20
84.888617000000011
 30
0.0
 40
0.5193620000000001
 50
212.08176
 51
297.86838699999993
  0
ARC
  5
157
  8
0
 62
     7
 10
75.762222999999992
 20
84.856123999999994
 30
0.0
 40
0.518628
 50
122.07376599999991
 51
207.984251
  0
ARC
  5
158
  8
0
 62
     7
 10
79.540960999999996
 20
87.037912000000006
 30
0.0
 40
0.518303
 50
31.97292199999999
 51
117.977186
  0
ARC
  5
159
  8
0
 62
     7
 10
79.521507999999997
 20
87.069591000000003
 30
0.0
 40
0.5193620000000001
 50
302.08175
 51
27.868378
  0
ARC
  5
15A
  8
0
 62
     7
 10
79.554585000000003
 20
87.088668999999996
 30
0.0
 40
0.5193620000000001
 50
212.08176
 51
297.86838699999993
  0
ARC
  5
15B
  8
0
 62
     7
 10
79.573661999999999
 20
87.055593000000002
 30
0.0
 40
0.5193620000000001
 50
122.08171299999989
 51
207.86841499999991
  0
ARC
  5
15C
  8
0
 62
     7
 10
74.257103000000001
 20
87.817249000000004
 30
0.0
 40
0.5197350000000001
 50
24.620139999999989
 51
110.346262
  0
ARC
  5
15D
  8
0
 62
     7
 10
74.242281000000006
 20
87.853061999999994
 30
0.0
 40
0.5197350000000001
 50
294.62015000000002
 51
20.346271999999999
  0
ARC
  5
15E
  8
0
 62
     7
 10
74.277502999999996
 20
87.866458999999992
 30
0.0
 40
0.518605
 50
204.50416999999999
 51
290.46227099999987
  0
ARC
  5
15F
  8
0
 62
     7
 10
74.292916000000005
 20
87.832070999999999
 30
0.0
 40
0.5197350000000001
 50
114.6201129999999
 51
200.34630899999999
  0
ARC
  5
160
  8
0
 62
     7
 10
78.321415999999985
 20
89.500653
 30
0.0
 40
0.520187
 50
24.666315999999998
 51
110.300085
  0
ARC
  5
161
  8
0
 62
     7
 10
78.307479999999984
 20
89.536538000000007
 30
0.0
 40
0.5193
 50
294.64697799999999
 51
20.422632
  0
ARC
  5
162
  8
0
 62
     7
 10
78.342742000000001
 20
89.550432000000001
 30
0.0
 40
0.518605
 50
204.50416999999999
 51
290.46227099999987
  0
ARC
  5
163
  8
0
 62
     7
 10
78.356934999999993
 20
89.516777000000005
 30
0.0
 40
0.5188480000000001
 50
114.60056400000001
 51
200.46904499999991
  0
ARC
  5
164
  8
0
 62
     7
 10
73.185649999999995
 20
90.964704999999995
 30
0.0
 40
0.5196970000000001
 50
17.137267999999992
 51
102.88828100000001
  0
ARC
  5
165
  8
0
 62
     7
 10
73.175906000000012
 20
91.001784000000001
 30
0.0
 40
0.519497
 50
287.1167759999999
 51
12.908792999999999
  0
ARC
  5
166
  8
0
 62
     7
 10
73.213309999999993
 20
91.012338000000014
 30
0.0
 40
0.5200280000000001
 50
197.09691499999991
 51
282.83202199999999
  0
ARC
  5
167
  8
0
 62
     7
 10
73.223371999999983
 20
90.974523999999988
 30
0.0
 40
0.5200010000000001
 50
107.18522399999991
 51
192.7844979999999
  0
ARC
  5
168
  8
0
 62
     7
 10
77.436260000000004
 20
92.104669999999984
 30
0.0
 40
0.518718
 50
17.053951000000001
 51
102.915751
  0
ARC
  5
169
  8
0
 62
     7
 10
77.425662000000003
 20
92.140648999999996
 30
0.0
 40
0.519654
 50
287.207177
 51
12.915139
  0
ARC
  5
16A
  8
0
 62
     7
 10
77.463894999999994
 20
92.151293999999993
 30
0.0
 40
0.5200280000000001
 50
197.09691499999991
 51
282.83202199999999
  0
ARC
  5
16B
  8
0
 62
     7
 10
77.472560999999999
 20
92.114285999999993
 30
0.0
 40
0.518818
 50
107.06419699999999
 51
192.90552500000001
  0
ARC
  5
16C
  8
0
 62
     7
 10
72.53586
 20
94.227007
 30
0.0
 40
0.5181770000000001
 50
9.4575169999999993
 51
95.507407000000015
  0
ARC
  5
16D
  8
0
 62
     7
 10
72.529465000000002
 20
94.263759999999991
 30
0.0
 40
0.519786
 50
279.62290599999989
 51
5.3420379999999987
  0
ARC
  5
16E
  8
0
 62
     7
 10
72.567960999999997
 20
94.268815999999987
 30
0.0
 40
0.519786
 50
189.622916
 51
275.34204799999992
  0
ARC
  5
16F
  8
0
 62
     7
 10
72.573017000000007
 20
94.230319999999992
 30
0.0
 40
0.519786
 50
99.622869000000023
 51
185.34207499999991
  0
ARC
  5
170
  8
0
 62
     7
 10
76.896609999999995
 20
94.799753999999993
 30
0.0
 40
0.519929
 50
9.6374870000000001
 51
95.327437000000018
  0
ARC
  5
171
  8
0
 62
     7
 10
76.892921999999999
 20
94.837339999999998
 30
0.0
 40
0.5186430000000001
 50
279.58157299999999
 51
5.4719879999999987
  0
ARC
  5
172
  8
0
 62
     7
 10
76.930976000000001
 20
94.843615999999983
 30
0.0
 40
0.519929
 50
189.63750699999991
 51
275.32745699999992
  0
ARC
  5
173
  8
0
 62
     7
 10
76.934664999999995
 20
94.806030000000007
 30
0.0
 40
0.5186430000000001
 50
99.581536000000014
 51
185.472025
  0
ARC
  5
174
  8
0
 62
     7
 10
72.333854000000002
 20
97.562275999999997
 30
0.0
 40
0.5002310000000002
 50
0.00001
 51
89.999980000000008
  0
ARC
  5
175
  8
0
 62
     7
 10
72.315211000000005
 20
97.581633999999994
 30
0.0
 40
0.5192350000000001
 50
272.05767200000003
 51
357.86336299999999
  0
ARC
  5
176
  8
0
 62
     7
 10
72.353196999999994
 20
97.581592999999998
 30
0.0
 40
0.519219
 50
182.05602499999989
 51
267.86503099999999
  0
ARC
  5
177
  8
0
 62
     7
 10
72.353164000000007
 20
97.543655000000001
 30
0.0
 40
0.519211
 50
92.131348999999986
 51
177.86862099999999
  0
ARC
  5
178
  8
0
 62
     7
 10
76.714681999999996
 20
97.542971999999992
 30
0.0
 40
0.5198920000000001
 50
2.2038690000000001
 51
87.875095999999985
  0
ARC
  5
179
  8
0
 62
     7
 10
76.733958000000001
 20
97.562965000000005
 30
0.0
 40
0.5002310000000002
 50
270.00002000000001
 51
359.99998999999991
  0
ARC
  5
17A
  8
0
 62
     7
 10
76.753315999999984
 20
97.581608000000003
 30
0.0
 40
0.5192350000000001
 50
182.05766499999999
 51
267.86338999999992
  0
ARC
  5
17B
  8
0
 62
     7
 10
76.753268000000006
 20
97.543655000000001
 30
0.0
 40
0.519211
 50
92.131348999999986
 51
177.86862099999999
  0
ARC
  5
17C
  8
0
 62
     7
 10
72.528867000000005
 20
100.860963
 30
0.0
 40
0.520397
 50
354.645354
 51
80.321753999999984
  0
ARC
  5
17D
  8
0
 62
     7
 10
72.535651000000001
 20
100.89864299999989
 30
0.0
 40
0.5185649999999999
 50
264.51995299999987
 51
350.42650700000002
  0
ARC
  5
17E
  8
0
 62
     7
 10
72.572873000000001
 20
100.89481000000001
 30
0.0
 40
0.519652
 50
174.64426299999991
 51
260.39079399999991
  0
ARC
  5
17F
  8
0
 62
     7
 10
72.56852099999999
 20
100.8556959999999
 30
0.0
 40
0.5204600000000001
 50
84.726765
 51
170.30827199999999
  0
ARC
  5
180
  8
0
 62
     7
 10
76.892572000000001
 20
100.2876319999999
 30
0.0
 40
0.518966
 50
354.56116600000001
 51
80.385273999999995
  0
ARC
  5
181
  8
0
 62
     7
 10
76.897173999999993
 20
100.3247519999999
 30
0.0
 40
0.51925
 50
264.60307599999987
 51
350.4320009999999
  0
ARC
  5
182
  8
0
 62
     7
 10
76.935015000000007
 20
100.319479
 30
0.0
 40
0.518966
 50
174.56112899999999
 51
260.385311
  0
ARC
  5
183
  8
0
 62
     7
 10
76.930221000000003
 20
100.28260899999989
 30
0.0
 40
0.5190200000000002
 50
84.579416000000009
 51
170.45562099999989
  0
ARC
  5
184
  8
0
 62
     7
 10
73.175865999999999
 20
104.12343299999991
 30
0.0
 40
0.5195310000000001
 50
347.09470599999997
 51
72.879723999999996
  0
ARC
  5
185
  8
0
 62
     7
 10
73.185756000000012
 20
104.1605789999999
 30
0.0
 40
0.519608
 50
257.175478
 51
342.85482000000002
  0
ARC
  5
186
  8
0
 62
     7
 10
73.222048999999998
 20
104.149686
 30
0.0
 40
0.518424
 50
166.98090300000001
 51
252.993527
  0
ARC
  5
187
  8
0
 62
     7
 10
73.212668999999991
 20
104.114681
 30
0.0
 40
0.5184370000000002
 50
77.055299000000005
 51
162.97496000000001
  0
ARC
  5
188
  8
0
 62
     7
 10
77.426451
 20
102.9844779999999
 30
0.0
 40
0.5195310000000001
 50
347.09470599999997
 51
72.879723999999996
  0
ARC
  5
189
  8
0
 62
     7
 10
77.436157999999992
 20
103.021716
 30
0.0
 40
0.5198120000000001
 50
257.123471
 51
342.850979
  0
ARC
  5
18A
  8
0
 62
     7
 10
77.472331999999994
 20
103.010953
 30
0.0
 40
0.51875
 50
167.01450500000001
 51
252.95992599999991
  0
ARC
  5
18B
  8
0
 62
     7
 10
77.463549
 20
102.974248
 30
0.0
 40
0.5198120000000001
 50
77.123451000000003
 51
162.85095899999999
  0
ARC
  5
18C
  8
0
 62
     7
 10
74.242346999999995
 20
107.272206
 30
0.0
 40
0.5196830000000001
 50
339.648369
 51
65.385210000000001
  0
ARC
  5
18D
  8
0
 62
     7
 10
74.256822999999997
 20
107.3086669999999
 30
0.0
 40
0.5202710000000002
 50
249.70844099999991
 51
335.32515699999988
  0
ARC
  5
18E
  8
0
 62
     7
 10
74.293330000000012
 20
107.293532
 30
0.0
 40
0.520237
 50
159.63580899999999
 51
245.35504700000001
  0
ARC
  5
18F
  8
0
 62
     7
 10
74.277189000000007
 20
107.2589929999999
 30
0.0
 40
0.5185170000000001
 50
69.496983
 51
155.43338700000001
  0
ARC
  5
190
  8
0
 62
     7
 10
78.307585000000003
 20
105.5882329999999
 30
0.0
 40
0.5196830000000001
 50
339.648369
 51
65.385210000000001
  0
ARC
  5
191
  8
0
 62
     7
 10
78.322062000000003
 20
105.62469299999989
 30
0.0
 40
0.5202710000000002
 50
249.70844099999991
 51
335.32515699999988
  0
ARC
  5
192
  8
0
 62
     7
 10
78.358568999999989
 20
105.6095589999999
 30
0.0
 40
0.520237
 50
159.63580899999999
 51
245.35504700000001
  0
ARC
  5
193
  8
0
 62
     7
 10
78.342427000000001
 20
105.5750199999999
 30
0.0
 40
0.5185170000000001
 50
69.496983
 51
155.43338700000001
  0
ARC
  5
194
  8
0
 62
     7
 10
75.711259999999996
 20
110.2557149999999
 30
0.0
 40
0.519323
 50
332.12760900000001
 51
57.922263000000001
  0
ARC
  5
195
  8
0
 62
     7
 10
75.729627000000008
 20
110.29032100000001
 30
0.0
 40
0.5207410000000001
 50
242.20812299999989
 51
327.81284499999998
  0
ARC
  5
196
  8
0
 62
     7
 10
75.762360999999999
 20
110.269154
 30
0.0
 40
0.5187330000000001
 50
152.02651900000001
 51
237.9154649999999
  0
ARC
  5
197
  8
0
 62
     7
 10
75.744270999999998
 20
110.23667500000001
 30
0.0
 40
0.519323
 50
62.127598999999996
 51
147.92225300000001
  0
ARC
  5
198
  8
0
 62
     7
 10
79.521559999999994
 20
108.055663
 30
0.0
 40
0.519323
 50
332.12760900000001
 51
57.922263000000001
  0
ARC
  5
199
  8
0
 62
     7
 10
79.540599999999998
 20
108.0886739999999
 30
0.0
 40
0.519323
 50
242.1276189999999
 51
327.92227300000002
  0
ARC
  5
19A
  8
0
 62
     7
 10
79.573610000000002
 20
108.06963399999999
 30
0.0
 40
0.519323
 50
152.12757199999999
 51
237.92230000000001
  0
ARC
  5
19B
  8
0
 62
     7
 10
79.554794999999999
 20
108.03578999999991
 30
0.0
 40
0.5199550000000001
 50
62.192318000000007
 51
147.85753399999999
  0
ARC
  5
19C
  8
0
 62
     7
 10
77.556404000000001
 20
113.021861
 30
0.0
 40
0.519455
 50
324.57849399999998
 51
50.419043000000002
  0
ARC
  5
19D
  8
0
 62
     7
 10
77.579299000000006
 20
113.05220300000001
 30
0.0
 40
0.519774
 50
234.6112
 51
320.38635699999992
  0
ARC
  5
19E
  8
0
 62
     7
 10
77.609266000000005
 20
113.0288189999999
 30
0.0
 40
0.519454
 50
144.57845699999999
 51
230.41907999999989
  0
ARC
  5
19F
  8
0
 62
     7
 10
77.586371
 20
112.99847699999999
 30
0.0
 40
0.519774
 50
54.61117999999999
 51
140.386337
  0
ARC
  5
1A0
  8
0
 62
     7
 10
81.047286999999997
 20
110.343272
 30
0.0
 40
0.5190120000000001
 50
324.59182599999991
 51
50.420290000000001
  0
ARC
  5
1A1
  8
0
 62
     7
 10
81.070226000000005
 20
110.3736779999999
 30
0.0
 40
0.5193310000000001
 50
234.6245339999999
 51
320.38760200000002
  0
ARC
  5
1A2
  8
0
 62
     7
 10
81.100256999999985
 20
110.3502509999999
 30
0.0
 40
0.5190120000000001
 50
144.59178899999989
 51
230.42032699999999
  0
ARC
  5
1A3
  8
0
 62
     7
 10
81.077318999999989
 20
110.319845
 30
0.0
 40
0.5193310000000001
 50
54.624513999999991
 51
140.38758200000001
  0
ARC
  5
1A4
  8
0
 62
     7
 10
79.745187999999999
 20
115.52339499999989
 30
0.0
 40
0.5208350000000001
 50
317.20950099999999
 51
42.79049899999999
  0
ARC
  5
1A5
  8
0
 62
     7
 10
79.773584999999997
 20
115.55179199999991
 30
0.0
 40
0.5208350000000001
 50
227.20951099999991
 51
312.79050899999999
  0
ARC
  5
1A6
  8
0
 62
     7
 10
79.800830000000005
 20
115.52305
 30
0.0
 40
0.5197560000000001
 50
137.15107900000001
 51
222.8489209999999
  0
ARC
  5
1A7
  8
0
 62
     7
 10
79.773956000000013
 20
115.49559499999989
 30
0.0
 40
0.5201440000000001
 50
47.194764999999997
 51
132.91679400000001
  0
ARC
  5
1A8
  8
0
 62
     7
 10
82.857698999999997
 20
112.412109
 30
0.0
 40
0.51945
 50
317.11975200000001
 51
42.880247999999987
  0
ARC
  5
1A9
  8
0
 62
     7
 10
82.884869999999992
 20
112.43772800000001
 30
0.0
 40
0.5183130000000001
 50
227.00294700000001
 51
312.997073
  0
ARC
  5
1AA
  8
0
 62
     7
 10
82.912459999999996
 20
112.412109
 30
0.0
 40
0.5197560000000001
 50
137.15107900000001
 51
222.8489209999999
  0
ARC
  5
1AB
  8
0
 62
     7
 10
82.884869999999992
 20
112.384907
 30
0.0
 40
0.519472
 50
47.122027000000003
 51
132.87795299999999
  0
ARC
  5
1AC
  8
0
 62
     7
 10
82.243864999999985
 20
117.71780099999989
 30
0.0
 40
0.520447
 50
309.682503
 51
35.319958999999997
  0
ARC
  5
1AD
  8
0
 62
     7
 10
82.275223999999994
 20
117.741373
 30
0.0
 40
0.5200430000000001
 50
219.64125499999989
 51
305.36122699999987
  0
ARC
  5
1AE
  8
0
 62
     7
 10
82.298295999999993
 20
117.71024299999991
 30
0.0
 40
0.519393
 50
129.618798
 51
215.3690859999999
  0
ARC
  5
1AF
  8
0
 62
     7
 10
82.268343000000002
 20
117.685934
 30
0.0
 40
0.52045
 50
39.744790999999992
 51
125.3683139999999
  0
ARC
  5
1B0
  8
0
 62
     7
 10
84.923217000000008
 20
114.2267649999999
 30
0.0
 40
0.519393
 50
309.61883499999988
 51
35.36904899999999
  0
ARC
  5
1B1
  8
0
 62
     7
 10
84.953790999999995
 20
114.250321
 30
0.0
 40
0.5194760000000001
 50
219.627297
 51
305.3606069999999
  0
ARC
  5
1B2
  8
0
 62
     7
 10
84.975903999999986
 20
114.21982299999991
 30
0.0
 40
0.5184220000000001
 50
129.519036
 51
215.46884800000001
  0
ARC
  5
1B3
  8
0
 62
     7
 10
84.946646000000001
 20
114.1960939999999
 30
0.0
 40
0.5194760000000001
 50
39.627276999999999
 51
125.360587
  0
ARC
  5
1B4
  8
0
 62
     7
 10
85.006878999999998
 20
119.56729299999991
 30
0.0
 40
0.520573
 50
302.170052
 51
27.809000000000001
  0
ARC
  5
1B5
  8
0
 62
     7
 10
85.041404
 20
119.58623900000001
 30
0.0
 40
0.519717
 50
212.11811
 51
297.83203700000001
  0
ARC
  5
1B6
  8
0
 62
     7
 10
85.059219999999996
 20
119.5529999999999
 30
0.0
 40
0.5185010000000001
 50
121.99326499999999
 51
207.95686299999991
  0
ARC
  5
1B7
  8
0
 62
     7
 10
85.027362999999994
 20
119.5328879999999
 30
0.0
 40
0.520045
 50
32.219009
 51
117.838987
  0
ARC
  5
1B8
  8
0
 62
     7
 10
87.207992000000004
 20
115.75646399999989
 30
0.0
 40
0.5195600000000001
 50
302.10208299999988
 51
27.848044000000002
  0
ARC
  5
1B9
  8
0
 62
     7
 10
87.240746999999999
 20
115.774332
 30
0.0
 40
0.518628
 50
212.07381299999989
 51
297.98422299999999
  0
ARC
  5
1BA
  8
0
 62
     7
 10
87.259806999999995
 20
115.742311
 30
0.0
 40
0.5191140000000001
 50
122.020635
 51
207.95841699999991
  0
ARC
  5
1BB
  8
0
 62
     7
 10
87.227205999999995
 20
115.72284999999989
 30
0.0
 40
0.519717
 50
32.118090999999993
 51
117.83201699999989
  0
ARC
  5
1BC
  8
0
 62
     7
 10
87.988797999999989
 20
121.039956
 30
0.0
 40
0.519886
 50
294.63556399999987
 51
20.330857000000002
  0
ARC
  5
1BD
  8
0
 62
     7
 10
88.024839999999983
 20
121.05479199999991
 30
0.0
 40
0.519809
 50
204.62769999999989
 51
290.33874100000003
  0
ARC
  5
1BE
  8
0
 62
     7
 10
88.038593999999975
 20
121.01953999999991
 30
0.0
 40
0.518998
 50
114.616046
 51
200.45356399999989
  0
ARC
  5
1BF
  8
0
 62
     7
 10
88.003330000000005
 20
121.0033649999999
 30
0.0
 40
0.5204620000000001
 50
24.667964999999999
 51
110.34116
  0
ARC
  5
1C0
  8
0
 62
     7
 10
89.673300999999995
 20
116.973984
 30
0.0
 40
0.518998
 50
294.616083
 51
20.453527000000001
  0
ARC
  5
1C1
  8
0
 62
     7
 10
89.708565000000007
 20
116.99015799999999
 30
0.0
 40
0.5204620000000001
 50
204.66798499999999
 51
290.34117900000001
  0
ARC
  5
1C2
  8
0
 62
     7
 10
89.723096999999996
 20
116.9535679999999
 30
0.0
 40
0.519886
 50
114.6355269999999
 51
200.330894
  0
ARC
  5
1C3
  8
0
 62
     7
 10
89.687056000000013
 20
116.938732
 30
0.0
 40
0.519809
 50
24.627680000000002
 51
110.33872100000001
  0
ARC
  5
1C4
  8
0
 62
     7
 10
91.136679999999998
 20
122.11050400000001
 30
0.0
 40
0.519497
 50
287.1167759999999
 51
12.908792999999999
  0
ARC
  5
1C5
  8
0
 62
     7
 10
91.174152000000007
 20
122.12117600000001
 30
0.0
 40
0.5201279999999999
 50
197.107133
 51
282.82180399999987
  0
ARC
  5
1C6
  8
0
 62
     7
 10
91.183678999999998
 20
122.0835129999999
 30
0.0
 40
0.519605
 50
107.144854
 51
192.82486800000001
  0
ARC
  5
1C7
  8
0
 62
     7
 10
91.146424999999994
 20
122.073424
 30
0.0
 40
0.5196970000000001
 50
17.137267999999992
 51
102.88828100000001
  0
ARC
  5
1C8
  8
0
 62
     7
 10
92.275635999999992
 20
117.860607
 30
0.0
 40
0.519497
 50
287.1167759999999
 51
12.908792999999999
  0
ARC
  5
1C9
  8
0
 62
     7
 10
92.31247900000001
 20
117.8704879999999
 30
0.0
 40
0.519497
 50
197.11678599999999
 51
282.90880299999992
  0
ARC
  5
1CA
  8
0
 62
     7
 10
92.322360000000003
 20
117.8336449999999
 30
0.0
 40
0.519496
 50
107.116739
 51
192.90882999999999
  0
ARC
  5
1CB
  8
0
 62
     7
 10
92.285516999999999
 20
117.8237639999999
 30
0.0
 40
0.519497
 50
17.116765999999998
 51
102.908783
  0
ARC
  5
1CC
  8
0
 62
     7
 10
94.396796999999992
 20
122.76261599999999
 30
0.0
 40
0.519976
 50
279.64234399999992
 51
5.3226000000000004
  0
ARC
  5
1CD
  8
0
 62
     7
 10
94.434100000000001
 20
122.76582999999999
 30
0.0
 40
0.518242
 50
189.54025699999991
 51
275.51332300000001
  0
ARC
  5
1CE
  8
0
 62
     7
 10
94.440759999999997
 20
122.728172
 30
0.0
 40
0.519976
 50
99.642306999999974
 51
185.3226369999999
  0
ARC
  5
1CF
  8
0
 62
     7
 10
94.403456999999989
 20
122.724958
 30
0.0
 40
0.518242
 50
9.5402369999999994
 51
95.513303000000008
  0
ARC
  5
1D0
  8
0
 62
     7
 10
94.970753999999985
 20
118.400308
 30
0.0
 40
0.5206710000000001
 50
279.70620600000001
 51
5.3266859999999996
  0
ARC
  5
1D1
  8
0
 62
     7
 10
95.010143999999997
 20
118.4046179999999
 30
0.0
 40
0.519786
 50
189.622916
 51
275.34204799999992
  0
ARC
  5
1D2
  8
0
 62
     7
 10
95.01351600000001
 20
118.367521
 30
0.0
 40
0.518241
 50
99.540210000000016
 51
185.51334999999989
  0
ARC
  5
1D3
  8
0
 62
     7
 10
94.97601800000001
 20
118.360108
 30
0.0
 40
0.52074
 50
9.7889490000000006
 51
95.332511000000011
  0
ARC
  5
1D4
  8
0
 62
     7
 10
97.715543999999994
 20
122.98179499999991
 30
0.0
 40
0.5192350000000001
 50
272.05767200000003
 51
357.86336299999999
  0
ARC
  5
1D5
  8
0
 62
     7
 10
97.75349300000002
 20
122.981921
 30
0.0
 40
0.519385
 50
182.149925
 51
267.86985800000002
  0
ARC
  5
1D6
  8
0
 62
     7
 10
97.754007999999985
 20
122.943153
 30
0.0
 40
0.5198930000000001
 50
92.184876000000017
 51
177.874314
  0
ARC
  5
1D7
  8
0
 62
     7
 10
97.734187000000006
 20
122.962436
 30
0.0
 40
0.5002310000000002
 50
0.00001
 51
89.999980000000008
  0
ARC
  5
1D8
  8
0
 62
     7
 10
97.734187000000006
 20
118.5630219999999
 30
0.0
 40
0.5002310000000002
 50
270.00002000000001
 51
359.99998999999991
  0
ARC
  5
1D9
  8
0
 62
     7
 10
97.753541000000013
 20
118.5818389999999
 30
0.0
 40
0.519409
 50
182.07620900000001
 51
267.8646
  0
ARC
  5
1DA
  8
0
 62
     7
 10
97.753330000000005
 20
118.5437
 30
0.0
 40
0.5192170000000002
 50
92.112915000000015
 51
177.867302
  0
ARC
  5
1DB
  8
0
 62
     7
 10
97.714916000000002
 20
118.54303400000001
 30
0.0
 40
0.519887
 50
2.2033230000000001
 51
87.875641000000002
  0
ARC
  5
1DC
  8
0
 62
     7
 10
101.991356
 20
113.5229999999999
 30
0.0
 40
0.519087
 50
257.07154500000001
 51
342.99955799999992
  0
ARC
  5
1DD
  8
0
 62
     7
 10
102.02812
 20
113.51369099999989
 30
0.0
 40
0.519624
 50
167.031477
 51
252.88720000000001
  0
ARC
  5
1DE
  8
0
 62
     7
 10
102.0175319999999
 20
113.4776379999999
 30
0.0
 40
0.518756
 50
76.992711
 51
162.884953
  0
ARC
  5
1DF
  8
0
 62
     7
 10
101.98249799999989
 20
113.487365
 30
0.0
 40
0.5184370000000002
 50
347.05530899999991
 51
72.974969999999985
  0
ARC
  5
1E0
  8
0
 62
     7
 10
105.977757
 20
111.877353
 30
0.0
 40
0.5187330000000001
 50
242.026566
 51
327.91543799999999
  0
ARC
  5
1E1
  8
0
 62
     7
 10
106.01023499999999
 20
111.8592629999999
 30
0.0
 40
0.519323
 50
152.12757199999999
 51
237.92230000000001
  0
ARC
  5
1E2
  8
0
 62
     7
 10
105.9909649999999
 20
111.8263009999999
 30
0.0
 40
0.5191020000000001
 50
61.999870999999999
 51
147.913263
  0
ARC
  5
1E3
  8
0
 62
     7
 10
105.95913400000001
 20
111.845136
 30
0.0
 40
0.5187330000000001
 50
332.02655600000003
 51
57.915428000000013
  0
ARC
  5
1E4
  8
0
 62
     7
 10
109.40176599999999
 20
109.258252
 30
0.0
 40
0.5208350000000001
 50
227.20951099999991
 51
312.79050899999999
  0
ARC
  5
1E5
  8
0
 62
     7
 10
109.43016299999989
 20
109.229854
 30
0.0
 40
0.5208350000000001
 50
137.209464
 51
222.79053599999989
  0
ARC
  5
1E6
  8
0
 62
     7
 10
109.401421
 20
109.202609
 30
0.0
 40
0.5197560000000001
 50
47.151105999999999
 51
132.848874
  0
ARC
  5
1E7
  8
0
 62
     7
 10
109.3739659999999
 20
109.2294829999999
 30
0.0
 40
0.5201440000000001
 50
317.19477499999999
 51
42.916803999999992
  0
ARC
  5
1E8
  8
0
 62
     7
 10
112.031384
 20
105.8391049999999
 30
0.0
 40
0.519916
 50
212.13843099999991
 51
297.81171699999987
  0
ARC
  5
1E9
  8
0
 62
     7
 10
112.04992299999989
 20
105.8061129999999
 30
0.0
 40
0.51944
 50
122.12142900000001
 51
207.96541699999989
  0
ARC
  5
1EA
  8
0
 62
     7
 10
112.016305
 20
105.7861809999999
 30
0.0
 40
0.519916
 50
32.138410999999991
 51
117.811697
  0
ARC
  5
1EB
  8
0
 62
     7
 10
111.9977649999999
 20
105.81917299999991
 30
0.0
 40
0.51944
 50
302.121466
 51
27.96538
  0
ARC
  5
1EC
  8
0
 62
     7
 10
113.6860079999999
 20
101.8571369999999
 30
0.0
 40
0.520285
 50
197.19745599999999
 51
282.82813299999992
  0
ARC
  5
1ED
  8
0
 62
     7
 10
113.6970339999999
 20
101.8187769999999
 30
0.0
 40
0.521007
 50
107.1799909999999
 51
192.80473399999991
  0
ARC
  5
1EE
  8
0
 62
     7
 10
113.6583879999999
 20
101.810035
 30
0.0
 40
0.5194479999999999
 50
17.054514000000001
 51
102.81848100000001
  0
ARC
  5
1EF
  8
0
 62
     7
 10
113.648627
 20
101.8463239999999
 30
0.0
 40
0.519497
 50
287.1167759999999
 51
12.908792999999999
  0
ARC
  5
1F0
  8
0
 62
     7
 10
114.25352099999991
 20
97.581564999999998
 30
0.0
 40
0.51919
 50
182.1291919999999
 51
267.87083799999988
  0
ARC
  5
1F1
  8
0
 62
     7
 10
114.234921
 20
97.562275999999997
 30
0.0
 40
0.5002310000000002
 50
90.0
 51
179.99996999999991
  0
ARC
  5
1F2
  8
0
 62
     7
 10
114.21556200000001
 20
97.543633000000014
 30
0.0
 40
0.5192350000000001
 50
2.0576620000000001
 51
87.863353000000004
  0
ARC
  5
1F3
  8
0
 62
     7
 10
114.21558899999989
 20
97.581633999999994
 30
0.0
 40
0.5192350000000001
 50
272.05767200000003
 51
357.86336299999999
  0
ARC
  5
1F4
  8
0
 62
     7
 10
113.69583299999999
 20
93.305639999999997
 30
0.0
 40
0.519867
 50
167.151489
 51
252.91959299999999
  0
ARC
  5
1F5
  8
0
 62
     7
 10
113.6859199999999
 20
93.268552999999997
 30
0.0
 40
0.519867
 50
77.151516999999984
 51
162.919546
  0
ARC
  5
1F6
  8
0
 62
     7
 10
113.64871699999991
 20
93.278968000000006
 30
0.0
 40
0.519421
 50
347.08342199999998
 51
72.891008999999997
  0
ARC
  5
1F7
  8
0
 62
     7
 10
113.658625
 20
93.314795999999987
 30
0.0
 40
0.5191020000000001
 50
257.1459779999999
 51
342.98102699999993
  0
ARC
  5
1F8
  8
0
 62
     7
 10
112.0511209999999
 20
89.319912000000002
 30
0.0
 40
0.5207410000000001
 50
152.20807600000001
 51
237.812872
  0
ARC
  5
1F9
  8
0
 62
     7
 10
112.030501
 20
89.286045999999985
 30
0.0
 40
0.519799
 50
62.071382999999997
 51
147.84174999999991
  0
ARC
  5
1FA
  8
0
 62
     7
 10
111.9984249999999
 20
89.305801000000002
 30
0.0
 40
0.5187330000000001
 50
332.02655600000003
 51
57.915428000000013
  0
ARC
  5
1FB
  8
0
 62
     7
 10
112.0165139999999
 20
89.338279
 30
0.0
 40
0.519323
 50
242.1276189999999
 51
327.92227300000002
  0
ARC
  5
1FC
  8
0
 62
     7
 10
109.429787
 20
85.895042000000004
 30
0.0
 40
0.5203250000000002
 50
137.20914999999999
 51
222.79085000000001
  0
ARC
  5
1FD
  8
0
 62
     7
 10
109.40176599999999
 20
85.867494999999991
 30
0.0
 40
0.5199590000000001
 50
47.120056999999989
 51
132.87992299999991
  0
ARC
  5
1FE
  8
0
 62
     7
 10
109.37521199999991
 20
85.895411999999993
 30
0.0
 40
0.5189970000000002
 50
317.01750399999997
 51
42.870807999999997
  0
ARC
  5
1FF
  8
0
 62
     7
 10
109.401421
 20
85.922631999999993
 30
0.0
 40
0.5197560000000001
 50
227.151126
 51
312.84889399999992
  0
ARC
  5
200
  8
0
 62
     7
 10
106.01075400000001
 20
83.265837999999988
 30
0.0
 40
0.519717
 50
122.11806299999991
 51
207.832064
  0
ARC
  5
201
  8
0
 62
     7
 10
105.97781499999989
 20
83.247485999999995
 30
0.0
 40
0.5191140000000001
 50
32.020662000000002
 51
117.95837
  0
ARC
  5
202
  8
0
 62
     7
 10
105.95913999999991
 20
83.279876999999985
 30
0.0
 40
0.5191200000000001
 50
302.0569779999999
 51
27.893149999999999
  0
ARC
  5
203
  8
0
 62
     7
 10
105.991809
 20
83.300363000000004
 30
0.0
 40
0.520573
 50
212.170062
 51
297.80901
  0
ARC
  5
204
  8
0
 62
     7
 10
102.028353
 20
81.610856999999996
 30
0.0
 40
0.5196970000000001
 50
107.137241
 51
192.888328
  0
ARC
  5
205
  8
0
 62
     7
 10
101.9911369999999
 20
81.600876
 30
0.0
 40
0.5196970000000001
 50
17.137267999999992
 51
102.88828100000001
  0
ARC
  5
206
  8
0
 62
     7
 10
101.98216499999999
 20
81.638068000000004
 30
0.0
 40
0.518718
 50
287.05396100000002
 51
12.915761
  0
ARC
  5
207
  8
0
 62
     7
 10
102.01814399999989
 20
81.648666000000006
 30
0.0
 40
0.519654
 50
197.207187
 51
282.91514899999999
  0
ARC
  5
208
  8
0
 62
     7
 10
97.754131000000015
 20
81.042107999999999
 30
0.0
 40
0.520737
 50
92.194964000000013
 51
177.78527999999989
  0
ARC
  5
209
  8
0
 62
     7
 10
97.734187000000006
 20
81.062231000000011
 30
0.0
 40
0.5002310000000002
 50
0.00001
 51
89.999980000000008
  0
ARC
  5
20A
  8
0
 62
     7
 10
97.715543999999994
 20
81.081590000000006
 30
0.0
 40
0.5192350000000001
 50
272.05767200000003
 51
357.86336299999999
  0
ARC
  5
20B
  8
0
 62
     7
 10
97.753454000000005
 20
81.08239300000001
 30
0.0
 40
0.5200610000000001
 50
182.22186600000001
 51
267.87686500000001
  0
ARC
  5
20C
  8
0
 62
     7
 10
93.476951999999997
 20
81.601072000000002
 30
0.0
 40
0.5195310000000001
 50
77.094695999999999
 51
162.87971399999989
  0
ARC
  5
20D
  8
0
 62
     7
 10
93.441097999999997
 20
81.611576999999997
 30
0.0
 40
0.5186410000000001
 50
347.00332300000002
 51
72.971108000000001
  0
ARC
  5
20E
  8
0
 62
     7
 10
93.451312000000001
 20
81.646718000000007
 30
0.0
 40
0.517882
 50
256.97580099999999
 51
342.95769599999988
  0
ARC
  5
20F
  8
0
 62
     7
 10
93.486276999999987
 20
81.638378000000003
 30
0.0
 40
0.518884
 50
167.12353799999991
 51
253.00344699999991
  0
ARC
  5
210
  8
0
 62
     7
 10
89.491117000000017
 20
83.246294999999975
 30
0.0
 40
0.520149
 50
62.107106999999992
 51
147.806026
  0
ARC
  5
211
  8
0
 62
     7
 10
89.458917
 20
83.266509999999997
 30
0.0
 40
0.5187330000000001
 50
332.02655600000003
 51
57.915428000000013
  0
ARC
  5
212
  8
0
 62
     7
 10
89.477007
 20
83.298987999999994
 30
0.0
 40
0.519323
 50
242.1276189999999
 51
327.92227300000002
  0
ARC
  5
213
  8
0
 62
     7
 10
89.511612999999997
 20
83.280620999999996
 30
0.0
 40
0.5207410000000001
 50
152.20807600000001
 51
237.812872
  0
ARC
  5
214
  8
0
 62
     7
 10
86.066781000000006
 20
85.868527999999998
 30
0.0
 40
0.519472
 50
47.122027000000003
 51
132.87795299999999
  0
ARC
  5
215
  8
0
 62
     7
 10
86.039233999999993
 20
85.895386000000002
 30
0.0
 40
0.5199590000000001
 50
317.12006700000001
 51
42.879933000000001
  0
ARC
  5
216
  8
0
 62
     7
 10
86.066781000000006
 20
85.922243999999992
 30
0.0
 40
0.519472
 50
227.12204700000001
 51
312.877973
  0
ARC
  5
217
  8
0
 62
     7
 10
86.095522000000017
 20
85.895386000000002
 30
0.0
 40
0.5208350000000001
 50
137.209464
 51
222.79053599999989
  0
ARC
  5
218
  8
0
 62
     7
 10
83.437702999999999
 20
89.286866000000003
 30
0.0
 40
0.5193620000000001
 50
32.081740000000003
 51
117.8683679999999
  0
ARC
  5
219
  8
0
 62
     7
 10
83.418087999999997
 20
89.319642000000016
 30
0.0
 40
0.519977
 50
302.10912699999989
 51
27.869924999999999
  0
ARC
  5
21A
  8
0
 62
     7
 10
83.451701
 20
89.338329999999985
 30
0.0
 40
0.5193620000000001
 50
212.08176
 51
297.86838699999993
  0
ARC
  5
21B
  8
0
 62
     7
 10
83.471316000000002
 20
89.305554000000015
 30
0.0
 40
0.519977
 50
122.10908999999999
 51
207.86996300000001
  0
ARC
  5
21C
  8
0
 62
     7
 10
81.781966999999995
 20
93.268009000000006
 30
0.0
 40
0.5203270000000001
 50
17.127500000000001
 51
102.80139800000001
  0
ARC
  5
21D
  8
0
 62
     7
 10
81.772852
 20
93.305188999999984
 30
0.0
 40
0.519497
 50
287.1167759999999
 51
12.908792999999999
  0
ARC
  5
21E
  8
0
 62
     7
 10
81.810254999999998
 20
93.315743000000012
 30
0.0
 40
0.5200280000000001
 50
197.09691499999991
 51
282.83202199999999
  0
ARC
  5
21F
  8
0
 62
     7
 10
81.819575000000015
 20
93.278917000000007
 30
0.0
 40
0.519496
 50
107.116739
 51
192.90882999999999
  0
ARC
  5
220
  8
0
 62
     7
 10
81.214693999999994
 20
97.542971999999992
 30
0.0
 40
0.5198920000000001
 50
2.2038690000000001
 51
87.875095999999985
  0
ARC
  5
221
  8
0
 62
     7
 10
81.233969999999999
 20
97.562965000000005
 30
0.0
 40
0.5002310000000002
 50
270.00002000000001
 51
359.99998999999991
  0
ARC
  5
222
  8
0
 62
     7
 10
81.253280000000004
 20
97.581586000000016
 30
0.0
 40
0.519211
 50
182.1313789999999
 51
267.86865099999989
  0
ARC
  5
223
  8
0
 62
     7
 10
81.253957999999983
 20
97.54300400000001
 30
0.0
 40
0.519887
 50
92.203312999999994
 51
177.875631
  0
ARC
  5
224
  8
0
 62
     7
 10
81.773828000000009
 20
101.82005699999991
 30
0.0
 40
0.518546
 50
347.06652899999989
 51
72.963748999999993
  0
ARC
  5
225
  8
0
 62
     7
 10
81.782015000000001
 20
101.8571499999999
 30
0.0
 40
0.5202580000000001
 50
257.19152200000002
 51
342.87957999999992
  0
ARC
  5
226
  8
0
 62
     7
 10
81.819614999999985
 20
101.84634699999989
 30
0.0
 40
0.5195310000000001
 50
167.0946689999999
 51
252.879761
  0
ARC
  5
227
  8
0
 62
     7
 10
81.80990899999999
 20
101.80910899999991
 30
0.0
 40
0.5198120000000001
 50
77.123451000000003
 51
162.85095899999999
  0
ARC
  5
228
  8
0
 62
     7
 10
83.419494
 20
105.805532
 30
0.0
 40
0.518703
 50
332.06401299999999
 51
57.985858999999991
  0
ARC
  5
229
  8
0
 62
     7
 10
83.438248999999985
 20
105.83806299999991
 30
0.0
 40
0.5187330000000001
 50
242.026566
 51
327.91543799999999
  0
ARC
  5
22A
  8
0
 62
     7
 10
83.470726999999997
 20
105.819973
 30
0.0
 40
0.519323
 50
152.12757199999999
 51
237.92230000000001
  0
ARC
  5
22B
  8
0
 62
     7
 10
83.451523999999992
 20
105.785843
 30
0.0
 40
0.519779
 50
62.133792000000007
 51
147.8081719999999
  0
ARC
  5
22C
  8
0
 62
     7
 10
86.039233999999993
 20
109.229854
 30
0.0
 40
0.5199590000000001
 50
317.12006700000001
 51
42.879933000000001
  0
ARC
  5
22D
  8
0
 62
     7
 10
86.067150999999996
 20
109.25640899999991
 30
0.0
 40
0.5189970000000002
 50
227.01751400000001
 51
312.87081799999999
  0
ARC
  5
22E
  8
0
 62
     7
 10
86.094370999999995
 20
109.2301989999999
 30
0.0
 40
0.5197560000000001
 50
137.15107900000001
 51
222.8489209999999
  0
ARC
  5
22F
  8
0
 62
     7
 10
86.066781000000006
 20
109.20183299999999
 30
0.0
 40
0.5203250000000002
 50
47.209177000000011
 51
132.79080300000001
  0
ARC
  5
230
  8
0
 62
     7
 10
89.458793999999997
 20
111.85876399999989
 30
0.0
 40
0.518826
 50
302.09417999999999
 51
27.963836000000001
  0
ARC
  5
231
  8
0
 62
     7
 10
89.490797000000001
 20
111.87774999999991
 30
0.0
 40
0.5192420000000001
 50
212.10109700000001
 51
297.98577
  0
ARC
  5
232
  8
0
 62
     7
 10
89.510868999999985
 20
111.844819
 30
0.0
 40
0.5201760000000001
 50
122.1294249999999
 51
207.849627
  0
ARC
  5
233
  8
0
 62
     7
 10
89.47686800000001
 20
111.825733
 30
0.0
 40
0.519717
 50
32.118090999999993
 51
117.83201699999989
  0
ARC
  5
234
  8
0
 62
     7
 10
93.440740000000005
 20
113.5137389999999
 30
0.0
 40
0.518818
 50
287.06423399999989
 51
12.905488
  0
ARC
  5
235
  8
0
 62
     7
 10
93.476928999999998
 20
113.524128
 30
0.0
 40
0.519497
 50
197.11678599999999
 51
282.90880299999992
  0
ARC
  5
236
  8
0
 62
     7
 10
93.486944999999977
 20
113.48647699999999
 30
0.0
 40
0.5194479999999999
 50
107.05448699999999
 51
192.81852799999999
  0
ARC
  5
237
  8
0
 62
     7
 10
93.450474999999983
 20
113.47736999999989
 30
0.0
 40
0.518818
 50
17.064223999999999
 51
102.905478
  0
ARC
  5
238
  8
0
 62
     7
 10
97.734187000000006
 20
114.06301000000001
 30
0.0
 40
0.5002310000000002
 50
270.00002000000001
 51
359.99998999999991
  0
ARC
  5
239
  8
0
 62
     7
 10
97.753541000000013
 20
114.081827
 30
0.0
 40
0.519409
 50
182.07620900000001
 51
267.8646
  0
ARC
  5
23A
  8
0
 62
     7
 10
97.753330000000005
 20
114.04368700000001
 30
0.0
 40
0.5192170000000002
 50
92.112915000000015
 51
177.867302
  0
ARC
  5
23B
  8
0
 62
     7
 10
97.714916000000002
 20
114.04302199999999
 30
0.0
 40
0.519887
 50
2.2033230000000001
 51
87.875641000000002
  0
ARC
  5
23C
  8
0
 62
     7
 10
100.930413
 20
109.56343799999991
 30
0.0
 40
0.5192170000000002
 50
257.13543099999993
 51
342.89486699999998
  0
ARC
  5
23D
  8
0
 62
     7
 10
100.966488
 20
109.55347399999989
 30
0.0
 40
0.518884
 50
167.12353799999991
 51
253.00344699999991
  0
ARC
  5
23E
  8
0
 62
     7
 10
100.9577409999999
 20
109.516155
 30
0.0
 40
0.520087
 50
77.174036000000001
 51
162.89702700000001
  0
ARC
  5
23F
  8
0
 62
     7
 10
100.92038599999989
 20
109.52683
 30
0.0
 40
0.519421
 50
347.08342199999998
 51
72.891008999999997
  0
ARC
  5
240
  8
0
 62
     7
 10
103.92791200000001
 20
108.326815
 30
0.0
 40
0.5187330000000001
 50
242.026566
 51
327.91543799999999
  0
ARC
  5
241
  8
0
 62
     7
 10
103.96039
 20
108.3087249999999
 30
0.0
 40
0.519323
 50
152.12757199999999
 51
237.92230000000001
  0
ARC
  5
242
  8
0
 62
     7
 10
103.9411199999999
 20
108.2757629999999
 30
0.0
 40
0.5191020000000001
 50
61.999870999999999
 51
147.913263
  0
ARC
  5
243
  8
0
 62
     7
 10
103.909289
 20
108.29459799999989
 30
0.0
 40
0.5187330000000001
 50
332.02655600000003
 51
57.915428000000013
  0
ARC
  5
244
  8
0
 62
     7
 10
106.50306999999989
 20
106.35738499999999
 30
0.0
 40
0.519281
 50
227.046583
 51
312.84174899999999
  0
ARC
  5
245
  8
0
 62
     7
 10
106.528704
 20
106.3307879999999
 30
0.0
 40
0.518595
 50
137.03195700000001
 51
222.96804299999999
  0
ARC
  5
246
  8
0
 62
     7
 10
106.5027
 20
106.3031979999999
 30
0.0
 40
0.5197560000000001
 50
47.151105999999999
 51
132.848874
  0
ARC
  5
247
  8
0
 62
     7
 10
106.474734
 20
106.330444
 30
0.0
 40
0.520266
 50
317.15143
 51
42.848570000000002
  0
ARC
  5
248
  8
0
 62
     7
 10
108.480847
 20
103.7892599999999
 30
0.0
 40
0.519916
 50
212.13843099999991
 51
297.81171699999987
  0
ARC
  5
249
  8
0
 62
     7
 10
108.49885
 20
103.755967
 30
0.0
 40
0.518826
 50
122.0941429999999
 51
207.96387300000001
  0
ARC
  5
24A
  8
0
 62
     7
 10
108.466268
 20
103.7375119999999
 30
0.0
 40
0.5185010000000001
 50
31.99329199999999
 51
117.9568159999999
  0
ARC
  5
24B
  8
0
 62
     7
 10
108.44881100000001
 20
103.768659
 30
0.0
 40
0.518033
 50
302.01251000000002
 51
28.045507000000001
  0
ARC
  5
24C
  8
0
 62
     7
 10
109.7251439999999
 20
100.7944549999999
 30
0.0
 40
0.518818
 50
197.06424399999989
 51
282.90549800000002
  0
ARC
  5
24D
  8
0
 62
     7
 10
109.735533
 20
100.75826600000001
 30
0.0
 40
0.519496
 50
107.116739
 51
192.90882999999999
  0
ARC
  5
24E
  8
0
 62
     7
 10
109.6986899999999
 20
100.748385
 30
0.0
 40
0.519497
 50
17.116765999999998
 51
102.908783
  0
ARC
  5
24F
  8
0
 62
     7
 10
109.688018
 20
100.78585699999999
 30
0.0
 40
0.5201279999999999
 50
287.107123
 51
12.821794000000001
  0
ARC
  5
250
  8
0
 62
     7
 10
110.1538139999999
 20
97.582262999999998
 30
0.0
 40
0.519887
 50
182.2033429999999
 51
267.87566099999992
  0
ARC
  5
251
  8
0
 62
     7
 10
110.1345419999999
 20
97.562275999999997
 30
0.0
 40
0.5002310000000002
 50
90.0
 51
179.99996999999991
  0
ARC
  5
252
  8
0
 62
     7
 10
110.115202
 20
97.542935000000014
 30
0.0
 40
0.5199310000000001
 50
2.1318029999999988
 51
87.868187000000006
  0
ARC
  5
253
  8
0
 62
     7
 10
110.115899
 20
97.581633999999994
 30
0.0
 40
0.5192350000000001
 50
272.05767200000003
 51
357.86336299999999
  0
ARC
  5
254
  8
0
 62
     7
 10
109.735443
 20
94.366234000000006
 30
0.0
 40
0.5194200000000001
 50
167.08338499999999
 51
252.89104599999999
  0
ARC
  5
255
  8
0
 62
     7
 10
109.72488300000001
 20
94.330547999999979
 30
0.0
 40
0.5184370000000002
 50
77.055299000000005
 51
162.97496000000001
  0
ARC
  5
256
  8
0
 62
     7
 10
109.689083
 20
94.339441000000008
 30
0.0
 40
0.5191020000000001
 50
347.14596799999998
 51
72.981017000000023
  0
ARC
  5
257
  8
0
 62
     7
 10
109.6980889999999
 20
94.376908999999984
 30
0.0
 40
0.520087
 50
257.17405600000001
 51
342.89704699999999
  0
ARC
  5
258
  8
0
 62
     7
 10
108.498987
 20
91.369772999999995
 30
0.0
 40
0.519323
 50
152.12757199999999
 51
237.92230000000001
  0
ARC
  5
259
  8
0
 62
     7
 10
108.47966099999999
 20
91.336102999999994
 30
0.0
 40
0.5194300000000001
 50
62.098065000000013
 51
147.84389899999991
  0
ARC
  5
25A
  8
0
 62
     7
 10
108.44748199999999
 20
91.355259000000004
 30
0.0
 40
0.5189090000000001
 50
332.08517899999993
 51
57.964692999999997
  0
ARC
  5
25B
  8
0
 62
     7
 10
108.466509
 20
91.387862999999996
 30
0.0
 40
0.5187330000000001
 50
242.026566
 51
327.91543799999999
  0
ARC
  5
25C
  8
0
 62
     7
 10
106.528909
 20
88.794081999999975
 30
0.0
 40
0.5189970000000002
 50
137.0174669999999
 51
222.870845
  0
ARC
  5
25D
  8
0
 62
     7
 10
106.5027
 20
88.766861999999989
 30
0.0
 40
0.5197560000000001
 50
47.151105999999999
 51
132.848874
  0
ARC
  5
25E
  8
0
 62
     7
 10
106.475497
 20
88.794452000000007
 30
0.0
 40
0.519472
 50
317.12203699999998
 51
42.877963000000001
  0
ARC
  5
25F
  8
0
 62
     7
 10
106.50235499999999
 20
88.822000000000003
 30
0.0
 40
0.5199590000000001
 50
227.12007700000001
 51
312.87994300000003
  0
ARC
  5
260
  8
0
 62
     7
 10
103.960909
 20
86.816376000000005
 30
0.0
 40
0.519717
 50
122.11806299999991
 51
207.832064
  0
ARC
  5
261
  8
0
 62
     7
 10
103.927879
 20
86.798302000000007
 30
0.0
 40
0.518826
 50
32.094169999999998
 51
117.963826
  0
ARC
  5
262
  8
0
 62
     7
 10
103.9072819999999
 20
86.831015000000008
 30
0.0
 40
0.520332
 50
302.14547999999991
 51
27.83357199999999
  0
ARC
  5
263
  8
0
 62
     7
 10
103.9414339999999
 20
86.849839000000003
 30
0.0
 40
0.5195600000000001
 50
212.102093
 51
297.84805399999988
  0
ARC
  5
264
  8
0
 62
     7
 10
100.967834
 20
85.571031000000005
 30
0.0
 40
0.5201850000000001
 50
107.1871889999999
 51
192.83838099999991
  0
ARC
  5
265
  8
0
 62
     7
 10
100.9301769999999
 20
85.561618999999993
 30
0.0
 40
0.519497
 50
17.116765999999998
 51
102.908783
  0
ARC
  5
266
  8
0
 62
     7
 10
100.92041499999991
 20
85.598393999999985
 30
0.0
 40
0.519396
 50
287.10650099999992
 51
12.919067999999999
  0
ARC
  5
267
  8
0
 62
     7
 10
100.957139
 20
85.608343000000005
 30
0.0
 40
0.519497
 50
197.11678599999999
 51
282.90880299999992
  0
ARC
  5
268
  8
0
 62
     7
 10
97.753432000000004
 20
85.142469999999989
 30
0.0
 40
0.520038
 50
92.120805000000018
 51
177.78046499999999
  0
ARC
  5
269
  8
0
 62
     7
 10
97.716088999999997
 20
85.143796999999992
 30
0.0
 40
0.518671
 50
2.078644999999999
 51
88.000318999999976
  0
ARC
  5
26A
  8
0
 62
     7
 10
97.734187000000006
 20
85.162610000000001
 30
0.0
 40
0.5002310000000002
 50
270.00002000000001
 51
359.99998999999991
  0
ARC
  5
26B
  8
0
 62
     7
 10
97.753503000000009
 20
85.182103999999995
 30
0.0
 40
0.520084
 50
182.14815899999999
 51
267.87159800000001
  0
ARC
  5
26C
  8
0
 62
     7
 10
94.538048000000003
 20
85.561578999999995
 30
0.0
 40
0.5195310000000001
 50
77.094695999999999
 51
162.87971399999989
  0
ARC
  5
26D
  8
0
 62
     7
 10
94.500809000000004
 20
85.571285000000003
 30
0.0
 40
0.5198120000000001
 50
347.12346099999991
 51
72.850969000000006
  0
ARC
  5
26E
  8
0
 62
     7
 10
94.511572000000001
 20
85.607459999999989
 30
0.0
 40
0.51875
 50
257.01455199999998
 51
342.95989900000001
  0
ARC
  5
26F
  8
0
 62
     7
 10
94.548277999999996
 20
85.598676999999995
 30
0.0
 40
0.5198109999999999
 50
167.12342399999989
 51
252.85100600000001
  0
ARC
  5
270
  8
0
 62
     7
 10
91.541371999999996
 20
86.797030000000007
 30
0.0
 40
0.5203910000000001
 50
62.172366999999987
 51
147.84856099999999
  0
ARC
  5
271
  8
0
 62
     7
 10
91.50716899999999
 20
86.817065999999997
 30
0.0
 40
0.520149
 50
332.10711700000002
 51
57.806035999999999
  0
ARC
  5
272
  8
0
 62
     7
 10
91.527383999999998
 20
86.849265000000017
 30
0.0
 40
0.5187330000000001
 50
242.026566
 51
327.91543799999999
  0
ARC
  5
273
  8
0
 62
     7
 10
91.559861999999995
 20
86.831174999999988
 30
0.0
 40
0.519323
 50
152.12757199999999
 51
237.92230000000001
  0
ARC
  5
274
  8
0
 62
     7
 10
88.966190999999995
 20
88.767250000000004
 30
0.0
 40
0.519472
 50
47.122027000000003
 51
132.87795299999999
  0
ARC
  5
275
  8
0
 62
     7
 10
88.938989000000007
 20
88.794452000000007
 30
0.0
 40
0.519472
 50
317.12203699999998
 51
42.877963000000001
  0
ARC
  5
276
  8
0
 62
     7
 10
88.966190999999995
 20
88.820465999999996
 30
0.0
 40
0.518601
 50
227.03266099999999
 51
312.96735799999988
  0
ARC
  5
277
  8
0
 62
     7
 10
88.992204999999998
 20
88.794452000000007
 30
0.0
 40
0.518601
 50
137.03261399999991
 51
222.967386
  0
ARC
  5
278
  8
0
 62
     7
 10
86.988115000000008
 20
91.336241999999984
 30
0.0
 40
0.519717
 50
32.118090999999993
 51
117.83201699999989
  0
ARC
  5
279
  8
0
 62
     7
 10
86.970040999999995
 20
91.369272999999993
 30
0.0
 40
0.518826
 50
302.09417999999999
 51
27.963836000000001
  0
ARC
  5
27A
  8
0
 62
     7
 10
87.002044999999995
 20
91.388259999999988
 30
0.0
 40
0.5192420000000001
 50
212.10109700000001
 51
297.98577
  0
ARC
  5
27B
  8
0
 62
     7
 10
87.022115999999997
 20
91.355328999999983
 30
0.0
 40
0.5201760000000001
 50
122.1294249999999
 51
207.849627
  0
ARC
  5
27C
  8
0
 62
     7
 10
85.742769999999993
 20
94.329318000000001
 30
0.0
 40
0.5201850000000001
 50
17.187215999999999
 51
102.8383339999999
  0
ARC
  5
27D
  8
0
 62
     7
 10
85.733121999999995
 20
94.367110999999994
 30
0.0
 40
0.5196970000000001
 50
287.13727799999992
 51
12.888291000000001
  0
ARC
  5
27E
  8
0
 62
     7
 10
85.770133000000001
 20
94.376737000000006
 30
0.0
 40
0.519396
 50
197.1065109999999
 51
282.9190779999999
  0
ARC
  5
27F
  8
0
 62
     7
 10
85.780081999999993
 20
94.340012999999999
 30
0.0
 40
0.519496
 50
107.116739
 51
192.90882999999999
  0
ARC
  5
280
  8
0
 62
     7
 10
85.315054999999987
 20
97.543670000000006
 30
0.0
 40
0.519195
 50
2.1297179999999991
 51
87.870272
  0
ARC
  5
281
  8
0
 62
     7
 10
85.314361000000005
 20
97.582235999999995
 30
0.0
 40
0.519887
 50
272.20333299999987
 51
357.875651
  0
ARC
  5
282
  8
0
 62
     7
 10
85.334349000000003
 20
97.562965000000005
 30
0.0
 40
0.5002310000000002
 50
179.99996999999991
 51
270.00002000000001
  0
ARC
  5
283
  8
0
 62
     7
 10
85.352992
 20
97.543606000000011
 30
0.0
 40
0.5192350000000001
 50
92.057652999999988
 51
177.86334299999999
  0
ARC
  5
284
  8
0
 62
     7
 10
85.734335000000002
 20
100.7589599999999
 30
0.0
 40
0.518546
 50
347.06652899999989
 51
72.963748999999993
  0
ARC
  5
285
  8
0
 62
     7
 10
85.742520999999996
 20
100.796054
 30
0.0
 40
0.5202580000000001
 50
257.19152200000002
 51
342.87957999999992
  0
ARC
  5
286
  8
0
 62
     7
 10
85.780121999999992
 20
100.7852509999999
 30
0.0
 40
0.5195310000000001
 50
167.0946689999999
 51
252.879761
  0
ARC
  5
287
  8
0
 62
     7
 10
85.770415999999983
 20
100.748013
 30
0.0
 40
0.5198120000000001
 50
77.123451000000003
 51
162.85095899999999
  0
ARC
  5
288
  8
0
 62
     7
 10
86.970163999999997
 20
103.756
 30
0.0
 40
0.5187330000000001
 50
332.02655600000003
 51
57.915428000000013
  0
ARC
  5
289
  8
0
 62
     7
 10
86.988253999999998
 20
103.788479
 30
0.0
 40
0.519323
 50
242.1276189999999
 51
327.92227300000002
  0
ARC
  5
28A
  8
0
 62
     7
 10
87.022398999999993
 20
103.7699879999999
 30
0.0
 40
0.5203910000000001
 50
152.17233999999991
 51
237.84860800000001
  0
ARC
  5
28B
  8
0
 62
     7
 10
87.002363999999986
 20
103.73578500000001
 30
0.0
 40
0.520149
 50
62.107106999999992
 51
147.806026
  0
ARC
  5
28C
  8
0
 62
     7
 10
88.938601000000006
 20
106.3307879999999
 30
0.0
 40
0.5197560000000001
 50
317.151116
 51
42.848883999999998
  0
ARC
  5
28D
  8
0
 62
     7
 10
88.966190999999995
 20
106.3564069999999
 30
0.0
 40
0.5183130000000001
 50
227.00294700000001
 51
312.997073
  0
ARC
  5
28E
  8
0
 62
     7
 10
88.992591000000004
 20
106.3307879999999
 30
0.0
 40
0.518884
 50
137.061677
 51
222.938323
  0
ARC
  5
28F
  8
0
 62
     7
 10
88.966190999999995
 20
106.30516899999991
 30
0.0
 40
0.5183130000000001
 50
47.002927
 51
132.99705299999991
  0
ARC
  5
290
  8
0
 62
     7
 10
91.507719999999992
 20
108.30893500000001
 30
0.0
 40
0.519916
 50
302.13842099999988
 51
27.811706999999998
  0
ARC
  5
291
  8
0
 62
     7
 10
91.541011999999995
 20
108.3269389999999
 30
0.0
 40
0.518826
 50
212.09419
 51
297.96384599999988
  0
ARC
  5
292
  8
0
 62
     7
 10
91.559725
 20
108.29456499999991
 30
0.0
 40
0.518826
 50
122.0941429999999
 51
207.96387300000001
  0
ARC
  5
293
  8
0
 62
     7
 10
91.527652000000003
 20
108.275316
 30
0.0
 40
0.51944
 50
32.121456000000002
 51
117.96536999999999
  0
ARC
  5
294
  8
0
 62
     7
 10
94.500945000000002
 20
109.553877
 30
0.0
 40
0.5196970000000001
 50
287.13727799999992
 51
12.888291000000001
  0
ARC
  5
295
  8
0
 62
     7
 10
94.538205000000005
 20
109.5629669999999
 30
0.0
 40
0.518818
 50
197.06424399999989
 51
282.90549800000002
  0
ARC
  5
296
  8
0
 62
     7
 10
94.548593999999994
 20
109.526779
 30
0.0
 40
0.519496
 50
107.116739
 51
192.90882999999999
  0
ARC
  5
297
  8
0
 62
     7
 10
94.511033999999995
 20
109.516622
 30
0.0
 40
0.519605
 50
17.144880999999991
 51
102.824821
  0
ARC
  5
298
  8
0
 62
     7
 10
97.734187000000006
 20
109.962631
 30
0.0
 40
0.5002310000000002
 50
270.00002000000001
 51
359.99998999999991
  0
ARC
  5
299
  8
0
 62
     7
 10
97.753541000000013
 20
109.981448
 30
0.0
 40
0.519409
 50
182.07620900000001
 51
267.8646
  0
ARC
  5
29A
  8
0
 62
     7
 10
97.754007999999985
 20
109.943347
 30
0.0
 40
0.5198930000000001
 50
92.184876000000017
 51
177.874314
  0
ARC
  5
29B
  8
0
 62
     7
 10
97.734187000000006
 20
109.962631
 30
0.0
 40
0.5002310000000002
 50
0.00001
 51
89.999980000000008
  0
ARC
  5
29C
  8
0
 62
     7
 10
101.827236
 20
104.68972100000001
 30
0.0
 40
0.519323
 50
242.1276189999999
 51
327.92227300000002
  0
ARC
  5
29D
  8
0
 62
     7
 10
101.86138
 20
104.67123099999991
 30
0.0
 40
0.5203910000000001
 50
152.17233999999991
 51
237.84860800000001
  0
ARC
  5
29E
  8
0
 62
     7
 10
101.841756
 20
104.637226
 30
0.0
 40
0.5203910000000001
 50
62.172366999999987
 51
147.84856099999999
  0
ARC
  5
29F
  8
0
 62
     7
 10
101.8080129999999
 20
104.65738399999989
 30
0.0
 40
0.519799
 50
332.071393
 51
57.841760000000001
  0
ARC
  5
2A0
  8
0
 62
     7
 10
104.843192
 20
101.689655
 30
0.0
 40
0.5205320000000001
 50
212.16581199999999
 51
297.81326000000001
  0
ARC
  5
2A1
  8
0
 62
     7
 10
104.86295199999989
 20
101.65541399999989
 30
0.0
 40
0.5205310000000001
 50
122.16576499999999
 51
207.813287
  0
ARC
  5
2A2
  8
0
 62
     7
 10
104.8284119999999
 20
101.63619199999999
 30
0.0
 40
0.519916
 50
32.138410999999991
 51
117.811697
  0
ARC
  5
2A3
  8
0
 62
     7
 10
104.8098729999999
 20
101.6691849999999
 30
0.0
 40
0.51944
 50
302.121466
 51
27.96538
  0
ARC
  5
2A4
  8
0
 62
     7
 10
105.9535649999999
 20
97.581586000000016
 30
0.0
 40
0.519211
 50
182.1313789999999
 51
267.86865099999989
  0
ARC
  5
2A5
  8
0
 62
     7
 10
105.95424300000001
 20
97.54300400000001
 30
0.0
 40
0.519887
 50
92.203312999999994
 51
177.875631
  0
ARC
  5
2A6
  8
0
 62
     7
 10
105.914984
 20
97.542977000000022
 30
0.0
 40
0.519887
 50
2.2033230000000001
 51
87.875641000000002
  0
ARC
  5
2A7
  8
0
 62
     7
 10
105.93425499999989
 20
97.562965000000005
 30
0.0
 40
0.5002310000000002
 50
270.00002000000001
 51
359.99998999999991
  0
ARC
  5
2A8
  8
0
 62
     7
 10
104.86276699999991
 20
93.469777000000008
 30
0.0
 40
0.5203910000000001
 50
152.17233999999991
 51
237.84860800000001
  0
ARC
  5
2A9
  8
0
 62
     7
 10
104.843142
 20
93.435771000000003
 30
0.0
 40
0.5203910000000001
 50
62.172366999999987
 51
147.84856099999999
  0
ARC
  5
2AA
  8
0
 62
     7
 10
104.8093989999999
 20
93.455929999999995
 30
0.0
 40
0.519799
 50
332.071393
 51
57.841760000000001
  0
ARC
  5
2AB
  8
0
 62
     7
 10
104.828622
 20
93.488267000000008
 30
0.0
 40
0.519323
 50
242.1276189999999
 51
327.92227300000002
  0
ARC
  5
2AC
  8
0
 62
     7
 10
101.860766
 20
90.453731000000005
 30
0.0
 40
0.519717
 50
122.11806299999991
 51
207.832064
  0
ARC
  5
2AD
  8
0
 62
     7
 10
101.8280359999999
 20
90.435120999999995
 30
0.0
 40
0.51944
 50
32.121456000000002
 51
117.96536999999999
  0
ARC
  5
2AE
  8
0
 62
     7
 10
101.8081039999999
 20
90.468739999999997
 30
0.0
 40
0.519916
 50
302.13842099999988
 51
27.811706999999998
  0
ARC
  5
2AF
  8
0
 62
     7
 10
101.84109599999989
 20
90.487279000000015
 30
0.0
 40
0.51944
 50
212.12147599999989
 51
297.96539000000001
  0
ARC
  5
2B0
  8
0
 62
     7
 10
97.754013
 20
89.342918999999995
 30
0.0
 40
0.519898
 50
92.185421999999988
 51
177.8737679999999
  0
ARC
  5
2B1
  8
0
 62
     7
 10
97.734187000000006
 20
89.362207999999995
 30
0.0
 40
0.5002310000000002
 50
0.00001
 51
89.999980000000008
  0
ARC
  5
2B2
  8
0
 62
     7
 10
97.715566000000024
 20
89.381517999999986
 30
0.0
 40
0.519211
 50
272.13136900000001
 51
357.86864100000003
  0
ARC
  5
2B3
  8
0
 62
     7
 10
97.754143000000013
 20
89.382369999999995
 30
0.0
 40
0.5200610000000001
 50
182.22186600000001
 51
267.87686500000001
  0
ARC
  5
2B4
  8
0
 62
     7
 10
93.640981999999994
 20
90.434647999999996
 30
0.0
 40
0.519799
 50
62.071382999999997
 51
147.84174999999991
  0
ARC
  5
2B5
  8
0
 62
     7
 10
93.608905000000007
 20
90.454402999999999
 30
0.0
 40
0.5187330000000001
 50
332.02655600000003
 51
57.915428000000013
  0
ARC
  5
2B6
  8
0
 62
     7
 10
93.626994999999994
 20
90.486881000000011
 30
0.0
 40
0.519323
 50
242.1276189999999
 51
327.92227300000002
  0
ARC
  5
2B7
  8
0
 62
     7
 10
93.661601000000005
 20
90.468513999999985
 30
0.0
 40
0.5207410000000001
 50
152.20807600000001
 51
237.812872
  0
ARC
  5
2B8
  8
0
 62
     7
 10
90.626109000000014
 20
93.437043000000003
 30
0.0
 40
0.518826
 50
32.094169999999998
 51
117.963826
  0
ARC
  5
2B9
  8
0
 62
     7
 10
90.606859999999998
 20
93.469116
 30
0.0
 40
0.51944
 50
302.121466
 51
27.96538
  0
ARC
  5
2BA
  8
0
 62
     7
 10
90.640478999999999
 20
93.489047999999997
 30
0.0
 40
0.519916
 50
212.13843099999991
 51
297.81171699999987
  0
ARC
  5
2BB
  8
0
 62
     7
 10
90.658481999999992
 20
93.455756000000008
 30
0.0
 40
0.518826
 50
122.0941429999999
 51
207.96387300000001
  0
ARC
  5
2BC
  8
0
 62
     7
 10
89.533946999999998
 20
97.562275999999997
 30
0.0
 40
0.5002310000000002
 50
0.00001
 51
89.999980000000008
  0
ARC
  5
2BD
  8
0
 62
     7
 10
89.515304000000015
 20
97.581633999999994
 30
0.0
 40
0.5192350000000001
 50
272.05767200000003
 51
357.86336299999999
  0
ARC
  5
2BE
  8
0
 62
     7
 10
89.553256999999988
 20
97.581586000000016
 30
0.0
 40
0.519211
 50
182.1313789999999
 51
267.86865099999989
  0
ARC
  5
2BF
  8
0
 62
     7
 10
89.553933999999998
 20
97.54300400000001
 30
0.0
 40
0.519887
 50
92.203312999999994
 51
177.875631
  0
ARC
  5
2C0
  8
0
 62
     7
 10
90.607518999999996
 20
101.6558569999999
 30
0.0
 40
0.5187330000000001
 50
332.02655600000003
 51
57.915428000000013
  0
ARC
  5
2C1
  8
0
 62
     7
 10
90.625608999999983
 20
101.688335
 30
0.0
 40
0.519323
 50
242.1276189999999
 51
327.92227300000002
  0
ARC
  5
2C2
  8
0
 62
     7
 10
90.659754000000007
 20
101.669845
 30
0.0
 40
0.5203910000000001
 50
152.17233999999991
 51
237.84860800000001
  0
ARC
  5
2C3
  8
0
 62
     7
 10
90.639718999999999
 20
101.635642
 30
0.0
 40
0.520149
 50
62.107106999999992
 51
147.806026
  0
ARC
  5
2C4
  8
0
 62
     7
 10
93.608245999999994
 20
104.6705709999999
 30
0.0
 40
0.51944
 50
302.121466
 51
27.96538
  0
ARC
  5
2C5
  8
0
 62
     7
 10
93.641564999999986
 20
104.6910409999999
 30
0.0
 40
0.5205320000000001
 50
212.16581199999999
 51
297.81326000000001
  0
ARC
  5
2C6
  8
0
 62
     7
 10
93.660786999999999
 20
104.65650100000001
 30
0.0
 40
0.5199150000000001
 50
122.138384
 51
207.811744
  0
ARC
  5
2C7
  8
0
 62
     7
 10
93.627494999999996
 20
104.638497
 30
0.0
 40
0.518826
 50
32.094169999999998
 51
117.963826
  0
ARC
  5
2C8
  8
0
 62
     7
 10
97.715543999999994
 20
105.7817019999999
 30
0.0
 40
0.5192350000000001
 50
272.05767200000003
 51
357.86336299999999
  0
ARC
  5
2C9
  8
0
 62
     7
 10
97.75349300000002
 20
105.7818279999999
 30
0.0
 40
0.519385
 50
182.149925
 51
267.86985800000002
  0
ARC
  5
2CA
  8
0
 62
     7
 10
97.754007999999985
 20
105.74306
 30
0.0
 40
0.5198930000000001
 50
92.184876000000017
 51
177.874314
  0
ARC
  5
2CB
  8
0
 62
     7
 10
97.734187000000006
 20
105.7623439999999
 30
0.0
 40
0.5002310000000002
 50
0.00001
 51
89.999980000000008
  0
ARC
  5
2CC
  8
0
 62
     7
 10
101.205127
 20
99.588589999999996
 30
0.0
 40
0.51944
 50
212.12147599999989
 51
297.96539000000001
  0
ARC
  5
2CD
  8
0
 62
     7
 10
101.22559699999999
 20
99.555270999999991
 30
0.0
 40
0.5205310000000001
 50
122.16576499999999
 51
207.813287
  0
ARC
  5
2CE
  8
0
 62
     7
 10
101.1910569999999
 20
99.536049000000006
 30
0.0
 40
0.519916
 50
32.138410999999991
 51
117.811697
  0
ARC
  5
2CF
  8
0
 62
     7
 10
101.17305399999999
 20
99.569341000000009
 30
0.0
 40
0.518826
 50
302.09417999999999
 51
27.963836000000001
  0
ARC
  5
2D0
  8
0
 62
     7
 10
101.225149
 20
95.569385999999994
 30
0.0
 40
0.519799
 50
152.07135600000001
 51
237.84179700000001
  0
ARC
  5
2D1
  8
0
 62
     7
 10
101.2053949999999
 20
95.537309999999991
 30
0.0
 40
0.5187330000000001
 50
62.026546000000003
 51
147.9154179999999
  0
ARC
  5
2D2
  8
0
 62
     7
 10
101.1731769999999
 20
95.555931999999999
 30
0.0
 40
0.5187330000000001
 50
332.02655600000003
 51
57.915428000000013
  0
ARC
  5
2D3
  8
0
 62
     7
 10
101.191267
 20
95.588410999999994
 30
0.0
 40
0.519323
 50
242.1276189999999
 51
327.92227300000002
  0
ARC
  5
2D4
  8
0
 62
     7
 10
97.754007999999985
 20
93.543210999999985
 30
0.0
 40
0.5198930000000001
 50
92.184876000000017
 51
177.874314
  0
ARC
  5
2D5
  8
0
 62
     7
 10
97.734187000000006
 20
93.562494999999998
 30
0.0
 40
0.5002310000000002
 50
0.00001
 51
89.999980000000008
  0
ARC
  5
2D6
  8
0
 62
     7
 10
97.715564000000015
 20
93.581832999999975
 30
0.0
 40
0.5192140000000001
 50
272.05548599999992
 51
357.86554999999993
  0
ARC
  5
2D7
  8
0
 62
     7
 10
97.75349300000002
 20
93.581979000000004
 30
0.0
 40
0.519385
 50
182.149925
 51
267.86985800000002
  0
ARC
  5
2D8
  8
0
 62
     7
 10
94.263463999999985
 20
95.537186000000005
 30
0.0
 40
0.518826
 50
32.094169999999998
 51
117.963826
  0
ARC
  5
2D9
  8
0
 62
     7
 10
94.244214999999997
 20
95.56926
 30
0.0
 40
0.51944
 50
302.121466
 51
27.96538
  0
ARC
  5
2DA
  8
0
 62
     7
 10
94.277833999999999
 20
95.589192000000011
 30
0.0
 40
0.519916
 50
212.13843099999991
 51
297.81171699999987
  0
ARC
  5
2DB
  8
0
 62
     7
 10
94.295837000000006
 20
95.555898999999997
 30
0.0
 40
0.518826
 50
122.0941429999999
 51
207.96387300000001
  0
ARC
  5
2DC
  8
0
 62
     7
 10
94.243741999999997
 20
99.555854000000025
 30
0.0
 40
0.519799
 50
332.071393
 51
57.841760000000001
  0
ARC
  5
2DD
  8
0
 62
     7
 10
94.263497000000015
 20
99.587931000000012
 30
0.0
 40
0.5187330000000001
 50
242.026566
 51
327.91543799999999
  0
ARC
  5
2DE
  8
0
 62
     7
 10
94.295714000000004
 20
99.569308000000007
 30
0.0
 40
0.5187330000000001
 50
152.02651900000001
 51
237.9154649999999
  0
ARC
  5
2DF
  8
0
 62
     7
 10
94.277624000000003
 20
99.536830000000009
 30
0.0
 40
0.519323
 50
62.127598999999996
 51
147.92225300000001
  0
ARC
  5
2E0
  8
0
 62
     7
 10
97.734187000000006
 20
101.5627459999999
 30
0.0
 40
0.5002310000000002
 50
270.00002000000001
 51
359.99998999999991
  0
ARC
  5
2E1
  8
0
 62
     7
 10
97.753541000000013
 20
101.581563
 30
0.0
 40
0.519409
 50
182.07620900000001
 51
267.8646
  0
ARC
  5
2E2
  8
0
 62
     7
 10
97.753330000000005
 20
101.543424
 30
0.0
 40
0.5192170000000002
 50
92.112915000000015
 51
177.867302
  0
ARC
  5
2E3
  8
0
 62
     7
 10
97.714916000000002
 20
101.542759
 30
0.0
 40
0.519887
 50
2.2033230000000001
 51
87.875641000000002
  0
LINE
  5
2E4
  8
0
 62
     7
 10
60.96759999999999
 20
172.804
 30
0.0
 11
67.094200000000001
 21
172.804
 31
0.0
  0
LINE
  5
2E5
  8
0
 62
     7
 10
105.9339999999999
 20
207.405
 30
0.0
 11
134.84599999999989
 21
207.405
 31
0.0
  0
LINE
  5
2E6
  8
0
 62
     7
 10
128.37399999999991
 20
171.405
 30
0.0
 11
134.84599999999989
 21
171.405
 31
0.0
  0
LINE
  5
2E7
  8
0
 62
     7
 10
60.96759999999999
 20
171.405
 30
0.0
 11
67.094200000000001
 21
171.405
 31
0.0
  0
LINE
  5
2E8
  8
0
 62
     7
 10
95.234099999999998
 20
186.3479999999999
 30
0.0
 11
86.282399999999996
 21
191.30699999999999
 31
0.0
  0
LINE
  5
2E9
  8
0
 62
     7
 10
70.867599999999996
 20
191.30699999999999
 30
0.0
 11
86.282399999999996
 21
191.30699999999999
 31
0.0
  0
LINE
  5
2EA
  8
0
 62
     7
 10
82.175899999999984
 20
172.804
 30
0.0
 11
79.466800000000006
 21
180.654
 31
0.0
  0
LINE
  5
2EB
  8
0
 62
     7
 10
64.051999999999992
 20
180.654
 30
0.0
 11
79.466800000000006
 21
180.654
 31
0.0
  0
LINE
  5
2EC
  8
0
 62
     7
 10
106.898
 20
146.25099999999989
 30
0.0
 11
100.621
 21
160.74199999999999
 31
0.0
  0
LINE
  5
2ED
  8
0
 62
     7
 10
69.944500000000005
 20
154.023
 30
0.0
 11
67.732699999999994
 21
153.43100000000001
 31
0.0
  0
LINE
  5
2EE
  8
0
 62
     7
 10
67.732699999999994
 20
153.43100000000001
 30
0.0
 11
69.944500000000005
 21
152.83799999999999
 31
0.0
  0
LINE
  5
2EF
  8
0
 62
     7
 10
69.944500000000005
 20
152.83799999999999
 30
0.0
 11
69.944500000000005
 21
154.023
 31
0.0
  0
LINE
  5
2F0
  8
0
 62
     7
 10
125.524
 20
152.852
 30
0.0
 11
127.7349999999999
 21
153.44499999999991
 31
0.0
  0
LINE
  5
2F1
  8
0
 62
     7
 10
127.7349999999999
 20
153.44499999999991
 30
0.0
 11
125.524
 21
154.0379999999999
 31
0.0
  0
LINE
  5
2F2
  8
0
 62
     7
 10
125.524
 20
154.0379999999999
 30
0.0
 11
125.524
 21
152.852
 31
0.0
  0
LINE
  5
2F3
  8
0
 62
     7
 10
106.898
 20
146.25099999999989
 30
0.0
 11
129.405
 21
146.25099999999989
 31
0.0
  0
LINE
  5
2F4
  8
0
 62
     7
 10
67.733800000000002
 20
153.4379999999999
 30
0.0
 11
127.7339999999999
 21
153.4379999999999
 31
0.0
  0
LINE
  5
2F5
  8
0
  6
AIGENLINE001
 62
     7
 10
64.598500000000001
 20
97.562299999999993
 30
0.0
 11
130.797
 21
97.562299999999993
 31
0.0
  0
LINE
  5
2F6
  8
0
  6
AIGENLINE001
 62
     7
 10
97.734200000000016
 20
130.4199999999999
 30
0.0
 11
97.734200000000016
 21
64.221800000000002
 31
0.0
  0
ARC
  5
2F7
  8
0
 62
     7
 10
97.734526000000002
 20
97.562625999999995
 30
0.0
 40
30.000430999999999
 50
269.99936200000002
 51
359.99933199999992
  0
ARC
  5
2F8
  8
0
 62
     7
 10
97.734095999999994
 20
97.562356999999992
 30
0.0
 40
30.000162
 50
180.0001739999999
 51
270.00018399999999
  0
ARC
  5
2F9
  8
0
 62
     7
 10
97.734364999999997
 20
97.562443000000002
 30
0.0
 40
30.000430999999999
 50
90.000329000000022
 51
180.000339
  0
ARC
  5
2FA
  8
0
 62
     7
 10
97.734268000000014
 20
97.562184000000016
 30
0.0
 40
30.000689000000001
 50
0.000174
 51
90.000144999999975
  0
LINE
  5
2FB
  8
0
 62
     7
 10
97.734200000000016
 20
176.404
 30
0.0
 11
92.067300000000003
 21
160.83500000000001
 31
0.0
  0
LINE
  5
2FC
  8
0
 62
     7
 10
97.734200000000016
 20
176.404
 30
0.0
 11
103.401
 21
160.83500000000001
 31
0.0
  0
LINE
  5
2FD
  8
0
 62
     7
 10
134.7239999999999
 20
205.19300000000001
 30
0.0
 11
134.13200000000001
 21
207.405
 31
0.0
  0
LINE
  5
2FE
  8
0
 62
     7
 10
134.13200000000001
 20
207.405
 30
0.0
 11
133.5389999999999
 21
205.19300000000001
 31
0.0
  0
LINE
  5
2FF
  8
0
 62
     7
 10
133.5389999999999
 20
205.19300000000001
 30
0.0
 11
134.7239999999999
 21
205.19300000000001
 31
0.0
  0
LINE
  5
300
  8
0
 62
     7
 10
133.553
 20
173.61500000000001
 30
0.0
 11
134.14599999999999
 21
171.404
 31
0.0
  0
LINE
  5
301
  8
0
 62
     7
 10
134.14599999999999
 20
171.404
 30
0.0
 11
134.739
 21
173.61500000000001
 31
0.0
  0
LINE
  5
302
  8
0
 62
     7
 10
134.739
 20
173.61500000000001
 30
0.0
 11
133.553
 21
173.61500000000001
 31
0.0
  0
LINE
  5
303
  8
0
 62
     7
 10
134.13900000000001
 20
207.404
 30
0.0
 11
134.13900000000001
 21
171.405
 31
0.0
  0
LINE
  5
304
  8
0
 62
     7
 10
97.734200000000016
 20
168.7579999999999
 30
0.0
 11
97.734200000000016
 21
159.77600000000001
 31
0.0
  0
LINE
  5
305
  8
0
  6
AIGENLINE001
 62
     7
 10
97.734200000000016
 20
212.22699999999989
 30
0.0
 11
97.734200000000016
 21
169.268
 31
0.0
  0
LINE
  5
306
  8
0
 62
     7
 10
127.67399999999989
 20
171.405
 30
0.0
 11
127.7339999999999
 21
171.46499999999989
 31
0.0
  0
LINE
  5
307
  8
0
 62
     7
 10
127.67399999999989
 20
172.804
 30
0.0
 11
127.7339999999999
 21
172.744
 31
0.0
  0
LINE
  5
308
  8
0
 62
     7
 10
95.534300000000002
 20
182.20500000000001
 30
0.0
 11
99.933599999999998
 21
182.20500000000001
 31
0.0
  0
LINE
  5
309
  8
0
 62
     7
 10
67.794200000000004
 20
172.804
 30
0.0
 11
127.67399999999989
 21
172.804
 31
0.0
  0
LINE
  5
30A
  8
0
 62
     7
 10
67.733800000000002
 20
172.744
 30
0.0
 11
127.7339999999999
 21
172.744
 31
0.0
  0
LINE
  5
30B
  8
0
 62
     7
 10
67.733800000000002
 20
171.46499999999989
 30
0.0
 11
127.7339999999999
 21
171.46499999999989
 31
0.0
  0
LINE
  5
30C
  8
0
 62
     7
 10
67.794200000000004
 20
171.405
 30
0.0
 11
127.67399999999989
 21
171.405
 31
0.0
  0
LINE
  5
30D
  8
0
 62
     7
 10
67.7941
 20
172.804
 30
0.0
 11
67.733800000000002
 21
172.744
 31
0.0
  0
LINE
  5
30E
  8
0
 62
     7
 10
67.7941
 20
171.405
 30
0.0
 11
67.733800000000002
 21
171.46499999999989
 31
0.0
  0
LINE
  5
30F
  8
0
 62
     7
 10
95.566199999999995
 20
161.2179999999999
 30
0.0
 11
97.734200000000016
 21
160.48099999999999
 31
0.0
  0
LINE
  5
310
  8
0
 62
     7
 10
97.734200000000016
 20
160.48099999999999
 30
0.0
 11
95.487799999999979
 21
160.036
 31
0.0
  0
LINE
  5
311
  8
0
 62
     7
 10
95.487799999999979
 20
160.036
 30
0.0
 11
95.566199999999995
 21
161.2179999999999
 31
0.0
  0
LINE
  5
312
  8
0
 62
     7
 10
94.242000000000004
 20
160.24600000000001
 30
0.0
 11
92.286299999999997
 21
161.43700000000001
 31
0.0
  0
LINE
  5
313
  8
0
 62
     7
 10
92.286299999999997
 20
161.43700000000001
 30
0.0
 11
94.575500000000005
 21
161.3839999999999
 31
0.0
  0
LINE
  5
314
  8
0
 62
     7
 10
94.575500000000005
 20
161.3839999999999
 30
0.0
 11
94.242000000000004
 21
160.24600000000001
 31
0.0
  0
LINE
  5
315
  8
0
 62
     7
 10
99.901899999999998
 20
161.2179999999999
 30
0.0
 11
97.734200000000016
 21
160.48099999999999
 31
0.0
  0
LINE
  5
316
  8
0
 62
     7
 10
97.734200000000016
 20
160.48099999999999
 30
0.0
 11
99.980400000000003
 21
160.036
 31
0.0
  0
LINE
  5
317
  8
0
 62
     7
 10
99.980400000000003
 20
160.036
 30
0.0
 11
99.901899999999998
 21
161.2179999999999
 31
0.0
  0
LINE
  5
318
  8
0
 62
     7
 10
101.2259999999999
 20
160.24600000000001
 30
0.0
 11
103.1819999999999
 21
161.43700000000001
 31
0.0
  0
LINE
  5
319
  8
0
 62
     7
 10
103.1819999999999
 20
161.43700000000001
 30
0.0
 11
100.8929999999999
 21
161.3839999999999
 31
0.0
  0
LINE
  5
31A
  8
0
 62
     7
 10
100.8929999999999
 20
161.3839999999999
 30
0.0
 11
101.2259999999999
 21
160.24600000000001
 31
0.0
  0
LINE
  5
31B
  8
0
 62
     7
 10
62.259799999999991
 20
169.1929999999999
 30
0.0
 11
61.6676
 21
171.405
 31
0.0
  0
LINE
  5
31C
  8
0
 62
     7
 10
61.6676
 20
171.405
 30
0.0
 11
61.0747
 21
169.1929999999999
 31
0.0
  0
LINE
  5
31D
  8
0
 62
     7
 10
61.0747
 20
169.1929999999999
 30
0.0
 11
62.259799999999991
 21
169.1929999999999
 31
0.0
  0
LINE
  5
31E
  8
0
 62
     7
 10
61.075400000000002
 20
175.01599999999991
 30
0.0
 11
61.6676
 21
172.804
 31
0.0
  0
LINE
  5
31F
  8
0
 62
     7
 10
61.6676
 20
172.804
 30
0.0
 11
62.2605
 21
175.01599999999991
 31
0.0
  0
LINE
  5
320
  8
0
 62
     7
 10
62.2605
 20
175.01599999999991
 30
0.0
 11
61.075400000000002
 21
175.01599999999991
 31
0.0
  0
LINE
  5
321
  8
0
 62
     7
 10
61.6676
 20
177.6399999999999
 30
0.0
 11
61.6676
 21
167.96199999999999
 31
0.0
  0
LINE
  5
322
  8
0
 62
     7
 10
127.7339999999999
 20
170.70500000000001
 30
0.0
 11
127.7339999999999
 21
152.73799999999989
 31
0.0
  0
LINE
  5
323
  8
0
 62
     7
 10
67.733800000000002
 20
170.70500000000001
 30
0.0
 11
67.733800000000002
 21
152.73799999999989
 31
0.0
  0
LINE
  5
324
  8
0
 62
     7
 10
127.7339999999999
 20
172.744
 30
0.0
 11
127.7339999999999
 21
171.46499999999989
 31
0.0
  0
LINE
  5
325
  8
0
 62
     7
 10
122.53399999999991
 20
170.90499999999989
 30
0.0
 11
122.34699999999999
 21
170.50399999999999
 31
0.0
  0
LINE
  5
326
  8
0
 62
     7
 10
122.53399999999991
 20
171.405
 30
0.0
 11
122.53399999999991
 21
170.90499999999989
 31
0.0
  0
LINE
  5
327
  8
0
 62
     7
 10
121.7029999999999
 20
170.90499999999989
 30
0.0
 11
121.51600000000001
 21
170.50399999999999
 31
0.0
  0
LINE
  5
328
  8
0
 62
     7
 10
121.7339999999999
 20
171.405
 30
0.0
 11
121.7339999999999
 21
170.90499999999989
 31
0.0
  0
LINE
  5
329
  8
0
 62
     7
 10
121.7029999999999
 20
171.405
 30
0.0
 11
121.7029999999999
 21
170.90499999999989
 31
0.0
  0
LINE
  5
32A
  8
0
 62
     7
 10
120.90300000000001
 20
171.405
 30
0.0
 11
120.90300000000001
 21
170.90499999999989
 31
0.0
  0
LINE
  5
32B
  8
0
 62
     7
 10
119.2649999999999
 20
170.90499999999989
 30
0.0
 11
119.07899999999999
 21
170.50399999999999
 31
0.0
  0
LINE
  5
32C
  8
0
 62
     7
 10
119.2649999999999
 20
171.405
 30
0.0
 11
119.2649999999999
 21
170.90499999999989
 31
0.0
  0
LINE
  5
32D
  8
0
 62
     7
 10
118.4649999999999
 20
171.405
 30
0.0
 11
118.4649999999999
 21
170.90499999999989
 31
0.0
  0
LINE
  5
32E
  8
0
 62
     7
 10
121.7339999999999
 20
170.90499999999989
 30
0.0
 11
121.92100000000001
 21
170.50399999999999
 31
0.0
  0
LINE
  5
32F
  8
0
 62
     7
 10
116.8129999999999
 20
170.90499999999989
 30
0.0
 11
116.626
 21
170.50399999999999
 31
0.0
  0
LINE
  5
330
  8
0
 62
     7
 10
116.176
 20
170.90499999999989
 30
0.0
 11
115.9889999999999
 21
170.50399999999999
 31
0.0
  0
LINE
  5
331
  8
0
 62
     7
 10
116.8129999999999
 20
171.405
 30
0.0
 11
116.8129999999999
 21
170.90499999999989
 31
0.0
  0
LINE
  5
332
  8
0
 62
     7
 10
120.90300000000001
 20
170.90499999999989
 30
0.0
 11
121.089
 21
170.50399999999999
 31
0.0
  0
LINE
  5
333
  8
0
 62
     7
 10
115.38800000000001
 20
170.90499999999989
 30
0.0
 11
115.20099999999999
 21
170.50399999999999
 31
0.0
  0
LINE
  5
334
  8
0
 62
     7
 10
114.31
 20
170.90499999999989
 30
0.0
 11
114.12299999999991
 21
170.50399999999999
 31
0.0
  0
LINE
  5
335
  8
0
 62
     7
 10
116.176
 20
171.405
 30
0.0
 11
116.176
 21
170.90499999999989
 31
0.0
  0
LINE
  5
336
  8
0
 62
     7
 10
115.38800000000001
 20
171.405
 30
0.0
 11
115.38800000000001
 21
170.90499999999989
 31
0.0
  0
LINE
  5
337
  8
0
 62
     7
 10
114.587
 20
171.405
 30
0.0
 11
114.587
 21
170.90499999999989
 31
0.0
  0
LINE
  5
338
  8
0
 62
     7
 10
118.4649999999999
 20
170.90499999999989
 30
0.0
 11
118.652
 21
170.50399999999999
 31
0.0
  0
LINE
  5
339
  8
0
 62
     7
 10
111.34099999999999
 20
170.90499999999989
 30
0.0
 11
111.155
 21
170.50399999999999
 31
0.0
  0
LINE
  5
33A
  8
0
 62
     7
 10
114.31
 20
171.405
 30
0.0
 11
114.31
 21
170.90499999999989
 31
0.0
  0
LINE
  5
33B
  8
0
 62
     7
 10
113.50999999999991
 20
171.405
 30
0.0
 11
113.50999999999991
 21
170.90499999999989
 31
0.0
  0
LINE
  5
33C
  8
0
 62
     7
 10
116.09399999999989
 20
170.72900000000001
 30
0.0
 11
116.199
 21
170.50399999999999
 31
0.0
  0
LINE
  5
33D
  8
0
 62
     7
 10
115.38200000000001
 20
170.89199999999991
 30
0.0
 11
115.562
 21
170.50399999999999
 31
0.0
  0
LINE
  5
33E
  8
0
 62
     7
 10
114.587
 20
170.90499999999989
 30
0.0
 11
114.7739999999999
 21
170.50399999999999
 31
0.0
  0
LINE
  5
33F
  8
0
 62
     7
 10
110.5949999999999
 20
170.78999999999991
 30
0.0
 11
110.46299999999999
 21
170.50399999999999
 31
0.0
  0
LINE
  5
340
  8
0
 62
     7
 10
110.3339999999999
 20
170.90499999999989
 30
0.0
 11
110.148
 21
170.50399999999999
 31
0.0
  0
LINE
  5
341
  8
0
 62
     7
 10
109.355
 20
170.90499999999989
 30
0.0
 11
109.16799999999991
 21
170.50399999999999
 31
0.0
  0
LINE
  5
342
  8
0
 62
     7
 10
111.34099999999999
 20
171.405
 30
0.0
 11
111.34099999999999
 21
170.90499999999989
 31
0.0
  0
LINE
  5
343
  8
0
 62
     7
 10
110.542
 20
171.405
 30
0.0
 11
110.542
 21
170.90499999999989
 31
0.0
  0
LINE
  5
344
  8
0
 62
     7
 10
110.3339999999999
 20
171.405
 30
0.0
 11
110.3339999999999
 21
170.90499999999989
 31
0.0
  0
LINE
  5
345
  8
0
 62
     7
 10
113.50999999999991
 20
170.90499999999989
 30
0.0
 11
113.6959999999999
 21
170.50399999999999
 31
0.0
  0
LINE
  5
346
  8
0
 62
     7
 10
107.4729999999999
 20
170.90499999999989
 30
0.0
 11
107.286
 21
170.50399999999999
 31
0.0
  0
LINE
  5
347
  8
0
 62
     7
 10
109.53399999999991
 20
171.405
 30
0.0
 11
109.53399999999991
 21
170.90499999999989
 31
0.0
  0
LINE
  5
348
  8
0
 62
     7
 10
109.355
 20
171.405
 30
0.0
 11
109.355
 21
170.90499999999989
 31
0.0
  0
LINE
  5
349
  8
0
 62
     7
 10
108.55500000000001
 20
171.405
 30
0.0
 11
108.55500000000001
 21
170.90499999999989
 31
0.0
  0
LINE
  5
34A
  8
0
 62
     7
 10
110.542
 20
170.90499999999989
 30
0.0
 11
110.72799999999999
 21
170.50399999999999
 31
0.0
  0
LINE
  5
34B
  8
0
 62
     7
 10
110.47
 20
170.52000000000001
 30
0.0
 11
110.477
 21
170.50399999999999
 31
0.0
  0
LINE
  5
34C
  8
0
 62
     7
 10
105.369
 20
170.90499999999989
 30
0.0
 11
105.1819999999999
 21
170.50399999999999
 31
0.0
  0
LINE
  5
34D
  8
0
 62
     7
 10
105.122
 20
170.90499999999989
 30
0.0
 11
104.93600000000001
 21
170.50399999999999
 31
0.0
  0
LINE
  5
34E
  8
0
 62
     7
 10
104.61199999999999
 20
170.90499999999989
 30
0.0
 11
104.4259999999999
 21
170.50399999999999
 31
0.0
  0
LINE
  5
34F
  8
0
 62
     7
 10
104.4489999999999
 20
170.90499999999989
 30
0.0
 11
104.26299999999991
 21
170.50399999999999
 31
0.0
  0
LINE
  5
350
  8
0
 62
     7
 10
107.4729999999999
 20
171.405
 30
0.0
 11
107.4729999999999
 21
170.90499999999989
 31
0.0
  0
LINE
  5
351
  8
0
 62
     7
 10
106.6729999999999
 20
171.405
 30
0.0
 11
106.6729999999999
 21
170.90499999999989
 31
0.0
  0
LINE
  5
352
  8
0
 62
     7
 10
106.496
 20
171.405
 30
0.0
 11
106.496
 21
170.90499999999989
 31
0.0
  0
LINE
  5
353
  8
0
 62
     7
 10
109.53399999999991
 20
170.90499999999989
 30
0.0
 11
109.7199999999999
 21
170.50399999999999
 31
0.0
  0
LINE
  5
354
  8
0
 62
     7
 10
108.55500000000001
 20
170.90499999999989
 30
0.0
 11
108.7409999999999
 21
170.50399999999999
 31
0.0
  0
LINE
  5
355
  8
0
 62
     7
 10
103.2499999999999
 20
170.90499999999989
 30
0.0
 11
103.0629999999999
 21
170.50399999999999
 31
0.0
  0
LINE
  5
356
  8
0
 62
     7
 10
102.9679999999999
 20
170.90499999999989
 30
0.0
 11
102.782
 21
170.50399999999999
 31
0.0
  0
LINE
  5
357
  8
0
 62
     7
 10
105.369
 20
171.405
 30
0.0
 11
105.369
 21
170.90499999999989
 31
0.0
  0
LINE
  5
358
  8
0
 62
     7
 10
105.122
 20
171.405
 30
0.0
 11
105.122
 21
170.90499999999989
 31
0.0
  0
LINE
  5
359
  8
0
 62
     7
 10
104.61199999999999
 20
171.405
 30
0.0
 11
104.61199999999999
 21
170.90499999999989
 31
0.0
  0
LINE
  5
35A
  8
0
 62
     7
 10
104.4489999999999
 20
171.405
 30
0.0
 11
104.4489999999999
 21
170.90499999999989
 31
0.0
  0
LINE
  5
35B
  8
0
 62
     7
 10
106.6729999999999
 20
170.90499999999989
 30
0.0
 11
106.8599999999999
 21
170.50399999999999
 31
0.0
  0
LINE
  5
35C
  8
0
 62
     7
 10
106.496
 20
170.90499999999989
 30
0.0
 11
106.682
 21
170.50399999999999
 31
0.0
  0
LINE
  5
35D
  8
0
 62
     7
 10
101.751
 20
170.90499999999989
 30
0.0
 11
101.5649999999999
 21
170.50399999999999
 31
0.0
  0
LINE
  5
35E
  8
0
 62
     7
 10
101.48699999999999
 20
170.90499999999989
 30
0.0
 11
101.3009999999999
 21
170.50399999999999
 31
0.0
  0
LINE
  5
35F
  8
0
 62
     7
 10
100.00700000000001
 20
170.90499999999989
 30
0.0
 11
99.819900000000004
 21
170.50399999999999
 31
0.0
  0
LINE
  5
360
  8
0
 62
     7
 10
103.649
 20
171.405
 30
0.0
 11
103.649
 21
170.90499999999989
 31
0.0
  0
LINE
  5
361
  8
0
 62
     7
 10
103.5989999999999
 20
171.405
 30
0.0
 11
103.5989999999999
 21
170.90499999999989
 31
0.0
  0
LINE
  5
362
  8
0
 62
     7
 10
103.2499999999999
 20
171.405
 30
0.0
 11
103.2499999999999
 21
170.90499999999989
 31
0.0
  0
LINE
  5
363
  8
0
 62
     7
 10
102.9679999999999
 20
171.405
 30
0.0
 11
102.9679999999999
 21
170.90499999999989
 31
0.0
  0
LINE
  5
364
  8
0
 62
     7
 10
102.16799999999991
 20
171.405
 30
0.0
 11
102.16799999999991
 21
170.90499999999989
 31
0.0
  0
LINE
  5
365
  8
0
 62
     7
 10
104.465
 20
170.59899999999999
 30
0.0
 11
104.509
 21
170.50399999999999
 31
0.0
  0
LINE
  5
366
  8
0
 62
     7
 10
103.649
 20
170.90499999999989
 30
0.0
 11
103.83499999999989
 21
170.50399999999999
 31
0.0
  0
LINE
  5
367
  8
0
 62
     7
 10
103.5989999999999
 20
170.90499999999989
 30
0.0
 11
103.786
 21
170.50399999999999
 31
0.0
  0
LINE
  5
368
  8
0
 62
     7
 10
98.133799999999994
 20
170.90499999999989
 30
0.0
 11
97.947400000000002
 21
170.50399999999999
 31
0.0
  0
LINE
  5
369
  8
0
 62
     7
 10
101.751
 20
171.405
 30
0.0
 11
101.751
 21
170.90499999999989
 31
0.0
  0
LINE
  5
36A
  8
0
 62
     7
 10
101.48699999999999
 20
171.405
 30
0.0
 11
101.48699999999999
 21
170.90499999999989
 31
0.0
  0
LINE
  5
36B
  8
0
 62
     7
 10
100.687
 20
171.405
 30
0.0
 11
100.687
 21
170.90499999999989
 31
0.0
  0
LINE
  5
36C
  8
0
 62
     7
 10
102.16799999999991
 20
170.90499999999989
 30
0.0
 11
102.3549999999999
 21
170.50399999999999
 31
0.0
  0
LINE
  5
36D
  8
0
 62
     7
 10
96.261600000000001
 20
170.90499999999989
 30
0.0
 11
96.075000000000017
 21
170.50399999999999
 31
0.0
  0
LINE
  5
36E
  8
0
 62
     7
 10
100.00700000000001
 20
171.405
 30
0.0
 11
100.00700000000001
 21
170.90499999999989
 31
0.0
  0
LINE
  5
36F
  8
0
 62
     7
 10
99.206599999999995
 20
171.405
 30
0.0
 11
99.206599999999995
 21
170.90499999999989
 31
0.0
  0
LINE
  5
370
  8
0
 62
     7
 10
98.133799999999994
 20
171.405
 30
0.0
 11
98.133799999999994
 21
170.90499999999989
 31
0.0
  0
LINE
  5
371
  8
0
 62
     7
 10
100.687
 20
170.90499999999989
 30
0.0
 11
100.8739999999999
 21
170.50399999999999
 31
0.0
  0
LINE
  5
372
  8
0
 62
     7
 10
99.206599999999995
 20
170.90499999999989
 30
0.0
 11
99.392700000000005
 21
170.50399999999999
 31
0.0
  0
LINE
  5
373
  8
0
 62
     7
 10
94.780500000000004
 20
170.90499999999989
 30
0.0
 11
94.593999999999994
 21
170.50399999999999
 31
0.0
  0
LINE
  5
374
  8
0
 62
     7
 10
93.299599999999984
 20
170.90499999999989
 30
0.0
 11
93.113100000000003
 21
170.50399999999999
 31
0.0
  0
LINE
  5
375
  8
0
 62
     7
 10
97.333899999999986
 20
171.405
 30
0.0
 11
97.333899999999986
 21
170.90499999999989
 31
0.0
  0
LINE
  5
376
  8
0
 62
     7
 10
96.261600000000001
 20
171.405
 30
0.0
 11
96.261600000000001
 21
170.90499999999989
 31
0.0
  0
LINE
  5
377
  8
0
 62
     7
 10
97.333899999999986
 20
170.90499999999989
 30
0.0
 11
97.520600000000002
 21
170.50399999999999
 31
0.0
  0
LINE
  5
378
  8
0
 62
     7
 10
91.868700000000004
 20
170.90499999999989
 30
0.0
 11
91.682100000000005
 21
170.50399999999999
 31
0.0
  0
LINE
  5
379
  8
0
 62
     7
 10
91.818700000000007
 20
170.90499999999989
 30
0.0
 11
91.632199999999997
 21
170.50399999999999
 31
0.0
  0
LINE
  5
37A
  8
0
 62
     7
 10
91.000699999999995
 20
170.5929999999999
 30
0.0
 11
90.959400000000002
 21
170.50399999999999
 31
0.0
  0
LINE
  5
37B
  8
0
 62
     7
 10
95.461399999999983
 20
171.405
 30
0.0
 11
95.461399999999983
 21
170.90499999999989
 31
0.0
  0
LINE
  5
37C
  8
0
 62
     7
 10
94.780500000000004
 20
171.405
 30
0.0
 11
94.780500000000004
 21
170.90499999999989
 31
0.0
  0
LINE
  5
37D
  8
0
 62
     7
 10
93.980399999999989
 20
171.405
 30
0.0
 11
93.980399999999989
 21
170.90499999999989
 31
0.0
  0
LINE
  5
37E
  8
0
 62
     7
 10
95.461399999999983
 20
170.90499999999989
 30
0.0
 11
95.647800000000004
 21
170.50399999999999
 31
0.0
  0
LINE
  5
37F
  8
0
 62
     7
 10
88.972399999999993
 20
170.90499999999989
 30
0.0
 11
88.785799999999995
 21
170.50399999999999
 31
0.0
  0
LINE
  5
380
  8
0
 62
     7
 10
88.794799999999995
 20
170.90499999999989
 30
0.0
 11
88.608099999999979
 21
170.50399999999999
 31
0.0
  0
LINE
  5
381
  8
0
 62
     7
 10
93.716499999999996
 20
171.405
 30
0.0
 11
93.716499999999996
 21
170.90499999999989
 31
0.0
  0
LINE
  5
382
  8
0
 62
     7
 10
93.299599999999984
 20
171.405
 30
0.0
 11
93.299599999999984
 21
170.90499999999989
 31
0.0
  0
LINE
  5
383
  8
0
 62
     7
 10
92.499700000000004
 20
171.405
 30
0.0
 11
92.499700000000004
 21
170.90499999999989
 31
0.0
  0
LINE
  5
384
  8
0
 62
     7
 10
92.218199999999996
 20
171.405
 30
0.0
 11
92.218199999999996
 21
170.90499999999989
 31
0.0
  0
LINE
  5
385
  8
0
 62
     7
 10
93.980399999999989
 20
170.90499999999989
 30
0.0
 11
94.167100000000005
 21
170.50399999999999
 31
0.0
  0
LINE
  5
386
  8
0
 62
     7
 10
93.716499999999996
 20
170.90499999999989
 30
0.0
 11
93.903199999999998
 21
170.50399999999999
 31
0.0
  0
LINE
  5
387
  8
0
 62
     7
 10
92.499700000000004
 20
170.90499999999989
 30
0.0
 11
92.686099999999996
 21
170.50399999999999
 31
0.0
  0
LINE
  5
388
  8
0
 62
     7
 10
92.218199999999996
 20
170.90499999999989
 30
0.0
 11
92.404600000000002
 21
170.50399999999999
 31
0.0
  0
LINE
  5
389
  8
0
 62
     7
 10
121.7339999999999
 20
170.90499999999989
 30
0.0
 11
122.53399999999991
 21
170.90499999999989
 31
0.0
  0
LINE
  5
38A
  8
0
 62
     7
 10
120.90300000000001
 20
170.90499999999989
 30
0.0
 11
121.7029999999999
 21
170.90499999999989
 31
0.0
  0
LINE
  5
38B
  8
0
 62
     7
 10
118.4649999999999
 20
170.90499999999989
 30
0.0
 11
119.2649999999999
 21
170.90499999999989
 31
0.0
  0
LINE
  5
38C
  8
0
 62
     7
 10
114.587
 20
170.90499999999989
 30
0.0
 11
116.8129999999999
 21
170.90499999999989
 31
0.0
  0
LINE
  5
38D
  8
0
 62
     7
 10
113.50999999999991
 20
170.90499999999989
 30
0.0
 11
114.31
 21
170.90499999999989
 31
0.0
  0
LINE
  5
38E
  8
0
 62
     7
 10
109.53399999999991
 20
170.90499999999989
 30
0.0
 11
111.34099999999999
 21
170.90499999999989
 31
0.0
  0
LINE
  5
38F
  8
0
 62
     7
 10
108.55500000000001
 20
170.90499999999989
 30
0.0
 11
109.355
 21
170.90499999999989
 31
0.0
  0
LINE
  5
390
  8
0
 62
     7
 10
106.496
 20
170.90499999999989
 30
0.0
 11
107.4729999999999
 21
170.90499999999989
 31
0.0
  0
LINE
  5
391
  8
0
 62
     7
 10
104.6179999999999
 20
170.90499999999989
 30
0.0
 11
105.369
 21
170.90499999999989
 31
0.0
  0
LINE
  5
392
  8
0
 62
     7
 10
103.5989999999999
 20
170.90499999999989
 30
0.0
 11
104.61199999999999
 21
170.90499999999989
 31
0.0
  0
LINE
  5
393
  8
0
 62
     7
 10
102.982
 20
170.90499999999989
 30
0.0
 11
103.2499999999999
 21
170.90499999999989
 31
0.0
  0
LINE
  5
394
  8
0
 62
     7
 10
102.16799999999991
 20
170.90499999999989
 30
0.0
 11
102.9679999999999
 21
170.90499999999989
 31
0.0
  0
LINE
  5
395
  8
0
 62
     7
 10
100.687
 20
170.90499999999989
 30
0.0
 11
101.751
 21
170.90499999999989
 31
0.0
  0
LINE
  5
396
  8
0
 62
     7
 10
99.206599999999995
 20
170.90499999999989
 30
0.0
 11
100.00700000000001
 21
170.90499999999989
 31
0.0
  0
LINE
  5
397
  8
0
 62
     7
 10
97.333899999999986
 20
170.90499999999989
 30
0.0
 11
98.133799999999994
 21
170.90499999999989
 31
0.0
  0
LINE
  5
398
  8
0
 62
     7
 10
95.461399999999983
 20
170.90499999999989
 30
0.0
 11
96.261600000000001
 21
170.90499999999989
 31
0.0
  0
LINE
  5
399
  8
0
 62
     7
 10
93.716499999999996
 20
170.90499999999989
 30
0.0
 11
94.780500000000004
 21
170.90499999999989
 31
0.0
  0
LINE
  5
39A
  8
0
 62
     7
 10
92.218199999999996
 20
170.90499999999989
 30
0.0
 11
93.299599999999984
 21
170.90499999999989
 31
0.0
  0
LINE
  5
39B
  8
0
 62
     7
 10
90.855699999999999
 20
170.90499999999989
 30
0.0
 11
91.868700000000004
 21
170.90499999999989
 31
0.0
  0
LINE
  5
39C
  8
0
 62
     7
 10
90.099299999999999
 20
170.90499999999989
 30
0.0
 11
90.849500000000006
 21
170.90499999999989
 31
0.0
  0
LINE
  5
39D
  8
0
 62
     7
 10
87.995000000000005
 20
170.90499999999989
 30
0.0
 11
88.972399999999993
 21
170.90499999999989
 31
0.0
  0
LINE
  5
39E
  8
0
 62
     7
 10
86.113499999999988
 20
170.90499999999989
 30
0.0
 11
86.913600000000017
 21
170.90499999999989
 31
0.0
  0
LINE
  5
39F
  8
0
 62
     7
 10
84.126499999999993
 20
170.90499999999989
 30
0.0
 11
85.933800000000005
 21
170.90499999999989
 31
0.0
  0
LINE
  5
3A0
  8
0
 62
     7
 10
81.158299999999997
 20
170.90499999999989
 30
0.0
 11
81.957999999999998
 21
170.90499999999989
 31
0.0
  0
LINE
  5
3A1
  8
0
 62
     7
 10
78.655500000000004
 20
170.90499999999989
 30
0.0
 11
80.880499999999998
 21
170.90499999999989
 31
0.0
  0
LINE
  5
3A2
  8
0
 62
     7
 10
76.202699999999993
 20
170.90499999999989
 30
0.0
 11
77.002799999999993
 21
170.90499999999989
 31
0.0
  0
LINE
  5
3A3
  8
0
 62
     7
 10
73.765100000000004
 20
170.90499999999989
 30
0.0
 11
74.565100000000001
 21
170.90499999999989
 31
0.0
  0
LINE
  5
3A4
  8
0
 62
     7
 10
72.933999999999997
 20
170.90499999999989
 30
0.0
 11
73.734099999999984
 21
170.90499999999989
 31
0.0
  0
LINE
  5
3A5
  8
0
 62
     7
 10
121.92100000000001
 20
170.50399999999999
 30
0.0
 11
122.34699999999999
 21
170.50399999999999
 31
0.0
  0
LINE
  5
3A6
  8
0
 62
     7
 10
121.09
 20
170.50399999999999
 30
0.0
 11
121.51600000000001
 21
170.50399999999999
 31
0.0
  0
LINE
  5
3A7
  8
0
 62
     7
 10
118.652
 20
170.50399999999999
 30
0.0
 11
119.07899999999999
 21
170.50399999999999
 31
0.0
  0
LINE
  5
3A8
  8
0
 62
     7
 10
116.199
 20
170.50399999999999
 30
0.0
 11
116.626
 21
170.50399999999999
 31
0.0
  0
LINE
  5
3A9
  8
0
 62
     7
 10
115.5629999999999
 20
170.50399999999999
 30
0.0
 11
115.9889999999999
 21
170.50399999999999
 31
0.0
  0
LINE
  5
3AA
  8
0
 62
     7
 10
114.7739999999999
 20
170.50399999999999
 30
0.0
 11
115.20099999999999
 21
170.50399999999999
 31
0.0
  0
LINE
  5
3AB
  8
0
 62
     7
 10
113.6959999999999
 20
170.50399999999999
 30
0.0
 11
114.12299999999991
 21
170.50399999999999
 31
0.0
  0
LINE
  5
3AC
  8
0
 62
     7
 10
110.477
 20
170.50399999999999
 30
0.0
 11
111.1539999999999
 21
170.50399999999999
 31
0.0
  0
LINE
  5
3AD
  8
0
 62
     7
 10
110.194
 20
170.50399999999999
 30
0.0
 11
110.46299999999999
 21
170.50399999999999
 31
0.0
  0
LINE
  5
3AE
  8
0
 62
     7
 10
109.7199999999999
 20
170.50399999999999
 30
0.0
 11
110.148
 21
170.50399999999999
 31
0.0
  0
LINE
  5
3AF
  8
0
 62
     7
 10
108.7409999999999
 20
170.50399999999999
 30
0.0
 11
109.16799999999991
 21
170.50399999999999
 31
0.0
  0
LINE
  5
3B0
  8
0
 62
     7
 10
106.68299999999989
 20
170.50399999999999
 30
0.0
 11
107.286
 21
170.50399999999999
 31
0.0
  0
LINE
  5
3B1
  8
0
 62
     7
 10
104.9679999999999
 20
170.50399999999999
 30
0.0
 11
105.1819999999999
 21
170.50399999999999
 31
0.0
  0
LINE
  5
3B2
  8
0
 62
     7
 10
103.8359999999999
 20
170.50399999999999
 30
0.0
 11
104.4259999999999
 21
170.50399999999999
 31
0.0
  0
LINE
  5
3B3
  8
0
 62
     7
 10
104.509
 20
170.50399999999999
 30
0.0
 11
104.935
 21
170.50399999999999
 31
0.0
  0
LINE
  5
3B4
  8
0
 62
     7
 10
102.3549999999999
 20
170.50399999999999
 30
0.0
 11
103.0629999999999
 21
170.50399999999999
 31
0.0
  0
LINE
  5
3B5
  8
0
 62
     7
 10
100.8739999999999
 20
170.50399999999999
 30
0.0
 11
101.5649999999999
 21
170.50399999999999
 31
0.0
  0
LINE
  5
3B6
  8
0
 62
     7
 10
99.393400000000014
 20
170.50399999999999
 30
0.0
 11
99.819500000000005
 21
170.50399999999999
 31
0.0
  0
LINE
  5
3B7
  8
0
 62
     7
 10
97.520600000000002
 20
170.50399999999999
 30
0.0
 11
97.947400000000002
 21
170.50399999999999
 31
0.0
  0
LINE
  5
3B8
  8
0
 62
     7
 10
95.648499999999984
 20
170.50399999999999
 30
0.0
 11
96.0745
 21
170.50399999999999
 31
0.0
  0
LINE
  5
3B9
  8
0
 62
     7
 10
93.903199999999998
 20
170.50399999999999
 30
0.0
 11
94.593599999999995
 21
170.50399999999999
 31
0.0
  0
LINE
  5
3BA
  8
0
 62
     7
 10
92.405299999999997
 20
170.50399999999999
 30
0.0
 11
93.112899999999996
 21
170.50399999999999
 31
0.0
  0
LINE
  5
3BB
  8
0
 62
     7
 10
91.042400000000001
 20
170.50399999999999
 30
0.0
 11
91.682100000000005
 21
170.50399999999999
 31
0.0
  0
LINE
  5
3BC
  8
0
 62
     7
 10
90.286000000000001
 20
170.50399999999999
 30
0.0
 11
90.958799999999997
 21
170.50399999999999
 31
0.0
  0
LINE
  5
3BD
  8
0
 62
     7
 10
88.181399999999996
 20
170.50399999999999
 30
0.0
 11
88.785700000000006
 21
170.50399999999999
 31
0.0
  0
LINE
  5
3BE
  8
0
 62
     7
 10
86.299800000000005
 20
170.50399999999999
 30
0.0
 11
86.727000000000004
 21
170.50399999999999
 31
0.0
  0
LINE
  5
3BF
  8
0
 62
     7
 10
85.006
 20
170.50399999999999
 30
0.0
 11
85.747399999999999
 21
170.50399999999999
 31
0.0
  0
LINE
  5
3C0
  8
0
 62
     7
 10
84.313400000000001
 20
170.50399999999999
 30
0.0
 11
84.991
 21
170.50399999999999
 31
0.0
  0
LINE
  5
3C1
  8
0
 62
     7
 10
81.3446
 20
170.50399999999999
 30
0.0
 11
81.771399999999986
 21
170.50399999999999
 31
0.0
  0
LINE
  5
3C2
  8
0
 62
     7
 10
80.267399999999995
 20
170.50399999999999
 30
0.0
 11
80.693399999999997
 21
170.50399999999999
 31
0.0
  0
LINE
  5
3C3
  8
0
 62
     7
 10
79.479200000000006
 20
170.50399999999999
 30
0.0
 11
79.905199999999994
 21
170.50399999999999
 31
0.0
  0
LINE
  5
3C4
  8
0
 62
     7
 10
78.841999999999985
 20
170.50399999999999
 30
0.0
 11
79.269199999999984
 21
170.50399999999999
 31
0.0
  0
LINE
  5
3C5
  8
0
 62
     7
 10
76.389399999999995
 20
170.50399999999999
 30
0.0
 11
76.816299999999998
 21
170.50399999999999
 31
0.0
  0
LINE
  5
3C6
  8
0
 62
     7
 10
73.952200000000005
 20
170.50399999999999
 30
0.0
 11
74.378399999999999
 21
170.50399999999999
 31
0.0
  0
LINE
  5
3C7
  8
0
 62
     7
 10
73.120199999999997
 20
170.50399999999999
 30
0.0
 11
73.547399999999996
 21
170.50399999999999
 31
0.0
  0
LINE
  5
3C8
  8
0
 62
     7
 10
103.79300000000001
 20
170.50399999999999
 30
0.0
 11
103.786
 21
170.50399999999999
 31
0.0
  0
LINE
  5
3C9
  8
0
 62
     7
 10
86.913600000000017
 20
170.90499999999989
 30
0.0
 11
86.727000000000004
 21
170.50399999999999
 31
0.0
  0
LINE
  5
3CA
  8
0
 62
     7
 10
91.868700000000004
 20
171.405
 30
0.0
 11
91.868700000000004
 21
170.90499999999989
 31
0.0
  0
LINE
  5
3CB
  8
0
 62
     7
 10
91.818700000000007
 20
171.405
 30
0.0
 11
91.818700000000007
 21
170.90499999999989
 31
0.0
  0
LINE
  5
3CC
  8
0
 62
     7
 10
91.018600000000006
 20
171.405
 30
0.0
 11
91.018600000000006
 21
170.90499999999989
 31
0.0
  0
LINE
  5
3CD
  8
0
 62
     7
 10
90.855699999999999
 20
171.405
 30
0.0
 11
90.855699999999999
 21
170.90499999999989
 31
0.0
  0
LINE
  5
3CE
  8
0
 62
     7
 10
90.345799999999997
 20
171.405
 30
0.0
 11
90.345799999999997
 21
170.90499999999989
 31
0.0
  0
LINE
  5
3CF
  8
0
 62
     7
 10
90.099299999999999
 20
171.405
 30
0.0
 11
90.099299999999999
 21
170.90499999999989
 31
0.0
  0
LINE
  5
3D0
  8
0
 62
     7
 10
91.018600000000006
 20
170.90499999999989
 30
0.0
 11
91.205299999999994
 21
170.50399999999999
 31
0.0
  0
LINE
  5
3D1
  8
0
 62
     7
 10
90.855699999999999
 20
170.90499999999989
 30
0.0
 11
91.042400000000001
 21
170.50399999999999
 31
0.0
  0
LINE
  5
3D2
  8
0
 62
     7
 10
90.345799999999997
 20
170.90499999999989
 30
0.0
 11
90.532200000000003
 21
170.50399999999999
 31
0.0
  0
LINE
  5
3D3
  8
0
 62
     7
 10
90.099299999999999
 20
170.90499999999989
 30
0.0
 11
90.286000000000001
 21
170.50399999999999
 31
0.0
  0
LINE
  5
3D4
  8
0
 62
     7
 10
85.933800000000005
 20
170.90499999999989
 30
0.0
 11
85.747399999999999
 21
170.50399999999999
 31
0.0
  0
LINE
  5
3D5
  8
0
 62
     7
 10
84.998099999999994
 20
170.52000000000001
 30
0.0
 11
84.991
 21
170.50399999999999
 31
0.0
  0
LINE
  5
3D6
  8
0
 62
     7
 10
84.926299999999998
 20
170.90499999999989
 30
0.0
 11
84.739900000000006
 21
170.50399999999999
 31
0.0
  0
LINE
  5
3D7
  8
0
 62
     7
 10
88.972399999999993
 20
171.405
 30
0.0
 11
88.972399999999993
 21
170.90499999999989
 31
0.0
  0
LINE
  5
3D8
  8
0
 62
     7
 10
88.794799999999995
 20
171.405
 30
0.0
 11
88.794799999999995
 21
170.90499999999989
 31
0.0
  0
LINE
  5
3D9
  8
0
 62
     7
 10
87.995000000000005
 20
171.405
 30
0.0
 11
87.995000000000005
 21
170.90499999999989
 31
0.0
  0
LINE
  5
3DA
  8
0
 62
     7
 10
87.995000000000005
 20
170.90499999999989
 30
0.0
 11
88.181399999999996
 21
170.50399999999999
 31
0.0
  0
LINE
  5
3DB
  8
0
 62
     7
 10
81.957999999999998
 20
170.90499999999989
 30
0.0
 11
81.771399999999986
 21
170.50399999999999
 31
0.0
  0
LINE
  5
3DC
  8
0
 62
     7
 10
86.913600000000017
 20
171.405
 30
0.0
 11
86.913600000000017
 21
170.90499999999989
 31
0.0
  0
LINE
  5
3DD
  8
0
 62
     7
 10
86.113499999999988
 20
171.405
 30
0.0
 11
86.113499999999988
 21
170.90499999999989
 31
0.0
  0
LINE
  5
3DE
  8
0
 62
     7
 10
85.933800000000005
 20
171.405
 30
0.0
 11
85.933800000000005
 21
170.90499999999989
 31
0.0
  0
LINE
  5
3DF
  8
0
 62
     7
 10
86.113499999999988
 20
170.90499999999989
 30
0.0
 11
86.299800000000005
 21
170.50399999999999
 31
0.0
  0
LINE
  5
3E0
  8
0
 62
     7
 10
85.134
 20
170.90499999999989
 30
0.0
 11
85.320200000000014
 21
170.50399999999999
 31
0.0
  0
LINE
  5
3E1
  8
0
 62
     7
 10
80.880499999999998
 20
170.90499999999989
 30
0.0
 11
80.694100000000006
 21
170.50399999999999
 31
0.0
  0
LINE
  5
3E2
  8
0
 62
     7
 10
80.086200000000005
 20
170.89199999999991
 30
0.0
 11
79.905699999999996
 21
170.50399999999999
 31
0.0
  0
LINE
  5
3E3
  8
0
 62
     7
 10
79.373999999999995
 20
170.72900000000001
 30
0.0
 11
79.269199999999984
 21
170.50399999999999
 31
0.0
  0
LINE
  5
3E4
  8
0
 62
     7
 10
85.134
 20
171.405
 30
0.0
 11
85.134
 21
170.90499999999989
 31
0.0
  0
LINE
  5
3E5
  8
0
 62
     7
 10
84.926299999999998
 20
171.405
 30
0.0
 11
84.926299999999998
 21
170.90499999999989
 31
0.0
  0
LINE
  5
3E6
  8
0
 62
     7
 10
84.126499999999993
 20
171.405
 30
0.0
 11
84.126499999999993
 21
170.90499999999989
 31
0.0
  0
LINE
  5
3E7
  8
0
 62
     7
 10
84.872500000000016
 20
170.78999999999991
 30
0.0
 11
85.005300000000005
 21
170.50399999999999
 31
0.0
  0
LINE
  5
3E8
  8
0
 62
     7
 10
84.126499999999993
 20
170.90499999999989
 30
0.0
 11
84.312700000000007
 21
170.50399999999999
 31
0.0
  0
LINE
  5
3E9
  8
0
 62
     7
 10
81.957999999999998
 20
171.405
 30
0.0
 11
81.957999999999998
 21
170.90499999999989
 31
0.0
  0
LINE
  5
3EA
  8
0
 62
     7
 10
81.158299999999997
 20
170.90499999999989
 30
0.0
 11
81.3446
 21
170.50399999999999
 31
0.0
  0
LINE
  5
3EB
  8
0
 62
     7
 10
77.002799999999993
 20
170.90499999999989
 30
0.0
 11
76.816299999999998
 21
170.50399999999999
 31
0.0
  0
LINE
  5
3EC
  8
0
 62
     7
 10
81.158299999999997
 20
171.405
 30
0.0
 11
81.158299999999997
 21
170.90499999999989
 31
0.0
  0
LINE
  5
3ED
  8
0
 62
     7
 10
80.880499999999998
 20
171.405
 30
0.0
 11
80.880499999999998
 21
170.90499999999989
 31
0.0
  0
LINE
  5
3EE
  8
0
 62
     7
 10
80.080399999999983
 20
171.405
 30
0.0
 11
80.080399999999983
 21
170.90499999999989
 31
0.0
  0
LINE
  5
3EF
  8
0
 62
     7
 10
80.080399999999983
 20
170.90499999999989
 30
0.0
 11
80.266900000000007
 21
170.50399999999999
 31
0.0
  0
LINE
  5
3F0
  8
0
 62
     7
 10
79.292100000000005
 20
170.90499999999989
 30
0.0
 11
79.478499999999997
 21
170.50399999999999
 31
0.0
  0
LINE
  5
3F1
  8
0
 62
     7
 10
78.655500000000004
 20
170.90499999999989
 30
0.0
 11
78.841999999999985
 21
170.50399999999999
 31
0.0
  0
LINE
  5
3F2
  8
0
 62
     7
 10
74.565100000000001
 20
170.90499999999989
 30
0.0
 11
74.378900000000002
 21
170.50399999999999
 31
0.0
  0
LINE
  5
3F3
  8
0
 62
     7
 10
73.734099999999984
 20
170.90499999999989
 30
0.0
 11
73.547399999999996
 21
170.50399999999999
 31
0.0
  0
LINE
  5
3F4
  8
0
 62
     7
 10
79.292100000000005
 20
171.405
 30
0.0
 11
79.292100000000005
 21
170.90499999999989
 31
0.0
  0
LINE
  5
3F5
  8
0
 62
     7
 10
78.655500000000004
 20
171.405
 30
0.0
 11
78.655500000000004
 21
170.90499999999989
 31
0.0
  0
LINE
  5
3F6
  8
0
 62
     7
 10
76.202699999999993
 20
170.90499999999989
 30
0.0
 11
76.389399999999995
 21
170.50399999999999
 31
0.0
  0
LINE
  5
3F7
  8
0
 62
     7
 10
77.002799999999993
 20
171.405
 30
0.0
 11
77.002799999999993
 21
170.90499999999989
 31
0.0
  0
LINE
  5
3F8
  8
0
 62
     7
 10
76.202699999999993
 20
171.405
 30
0.0
 11
76.202699999999993
 21
170.90499999999989
 31
0.0
  0
LINE
  5
3F9
  8
0
 62
     7
 10
74.565100000000001
 20
171.405
 30
0.0
 11
74.565100000000001
 21
170.90499999999989
 31
0.0
  0
LINE
  5
3FA
  8
0
 62
     7
 10
73.765100000000004
 20
171.405
 30
0.0
 11
73.765100000000004
 21
170.90499999999989
 31
0.0
  0
LINE
  5
3FB
  8
0
 62
     7
 10
73.734099999999984
 20
171.405
 30
0.0
 11
73.734099999999984
 21
170.90499999999989
 31
0.0
  0
LINE
  5
3FC
  8
0
 62
     7
 10
73.765100000000004
 20
170.90499999999989
 30
0.0
 11
73.951700000000002
 21
170.50399999999999
 31
0.0
  0
LINE
  5
3FD
  8
0
 62
     7
 10
72.933999999999997
 20
170.90499999999989
 30
0.0
 11
73.120199999999997
 21
170.50399999999999
 31
0.0
  0
LINE
  5
3FE
  8
0
 62
     7
 10
72.933999999999997
 20
171.405
 30
0.0
 11
72.933999999999997
 21
170.90499999999989
 31
0.0
  0
LINE
  5
3FF
  8
0
 62
     7
 10
67.733800000000002
 20
172.744
 30
0.0
 11
67.733800000000002
 21
171.46499999999989
 31
0.0
  0
LINE
  5
400
  8
0
 62
     7
 10
102.04600000000001
 20
218.26699999999991
 30
0.0
 11
99.834199999999996
 21
217.67500000000001
 31
0.0
  0
LINE
  5
401
  8
0
 62
     7
 10
99.834199999999996
 20
217.67500000000001
 30
0.0
 11
102.04600000000001
 21
217.08199999999991
 31
0.0
  0
LINE
  5
402
  8
0
 62
     7
 10
102.04600000000001
 20
217.08199999999991
 30
0.0
 11
102.04600000000001
 21
218.26699999999991
 31
0.0
  0
LINE
  5
403
  8
0
 62
     7
 10
93.422799999999995
 20
217.08199999999991
 30
0.0
 11
95.634200000000007
 21
217.67500000000001
 31
0.0
  0
LINE
  5
404
  8
0
 62
     7
 10
95.634200000000007
 20
217.67500000000001
 30
0.0
 11
93.422799999999995
 21
218.26699999999991
 31
0.0
  0
LINE
  5
405
  8
0
 62
     7
 10
93.422799999999995
 20
218.26699999999991
 30
0.0
 11
93.422799999999995
 21
217.08199999999991
 31
0.0
  0
LINE
  5
406
  8
0
 62
     7
 10
81.784999999999997
 20
217.67500000000001
 30
0.0
 11
103.458
 21
217.67500000000001
 31
0.0
  0
LINE
  5
407
  8
0
 62
     7
 10
103.024
 20
225.20899999999989
 30
0.0
 11
105.23399999999999
 21
225.80099999999999
 31
0.0
  0
LINE
  5
408
  8
0
 62
     7
 10
105.23399999999999
 20
225.80099999999999
 30
0.0
 11
103.024
 21
226.393
 31
0.0
  0
LINE
  5
409
  8
0
 62
     7
 10
103.024
 20
226.393
 30
0.0
 11
103.024
 21
225.20899999999989
 31
0.0
  0
LINE
  5
40A
  8
0
 62
     7
 10
92.444599999999994
 20
226.37899999999999
 30
0.0
 11
90.233500000000006
 21
225.78599999999989
 31
0.0
  0
LINE
  5
40B
  8
0
 62
     7
 10
90.233500000000006
 20
225.78599999999989
 30
0.0
 11
92.444599999999994
 21
225.19399999999999
 31
0.0
  0
LINE
  5
40C
  8
0
 62
     7
 10
92.444599999999994
 20
225.19399999999999
 30
0.0
 11
92.444599999999994
 21
226.37899999999999
 31
0.0
  0
LINE
  5
40D
  8
0
 62
     7
 10
105.23399999999999
 20
225.79400000000001
 30
0.0
 11
90.233800000000016
 21
225.79400000000001
 31
0.0
  0
LINE
  5
40E
  8
0
 62
     7
 10
90.233800000000016
 20
226.494
 30
0.0
 11
90.233800000000016
 21
208.1049999999999
 31
0.0
  0
LINE
  5
40F
  8
0
 62
     7
 10
105.23399999999999
 20
226.494
 30
0.0
 11
105.23399999999999
 21
208.1049999999999
 31
0.0
  0
LINE
  5
410
  8
0
 62
     7
 10
95.634200000000007
 20
218.37499999999989
 30
0.0
 11
95.634200000000007
 21
211.63799999999989
 31
0.0
  0
LINE
  5
411
  8
0
 62
     7
 10
99.834199999999996
 20
218.37499999999989
 30
0.0
 11
99.834199999999996
 21
211.63799999999989
 31
0.0
  0
LINE
  5
412
  8
0
 62
     7
 10
82.240499999999997
 20
209.61699999999999
 30
0.0
 11
82.832999999999998
 21
207.405
 31
0.0
  0
LINE
  5
413
  8
0
 62
     7
 10
82.832999999999998
 20
207.405
 30
0.0
 11
83.425600000000003
 21
209.61699999999999
 31
0.0
  0
LINE
  5
414
  8
0
 62
     7
 10
83.425600000000003
 20
209.61699999999999
 30
0.0
 11
82.240499999999997
 21
209.61699999999999
 31
0.0
  0
LINE
  5
415
  8
0
 62
     7
 10
83.425600000000003
 20
203.79300000000001
 30
0.0
 11
82.832999999999998
 21
206.00499999999991
 31
0.0
  0
LINE
  5
416
  8
0
 62
     7
 10
82.832999999999998
 20
206.00499999999991
 30
0.0
 11
82.240499999999997
 21
203.79300000000001
 31
0.0
  0
LINE
  5
417
  8
0
 62
     7
 10
82.240499999999997
 20
203.79300000000001
 30
0.0
 11
83.425600000000003
 21
203.79300000000001
 31
0.0
  0
LINE
  5
418
  8
0
 62
     7
 10
82.832999999999998
 20
202.38399999999999
 30
0.0
 11
82.832999999999998
 21
212.41099999999989
 31
0.0
  0
LINE
  5
419
  8
0
 62
     7
 10
82.132999999999996
 20
206.00499999999991
 30
0.0
 11
89.534099999999995
 21
206.00499999999991
 31
0.0
  0
LINE
  5
41A
  8
0
 62
     7
 10
82.132999999999996
 20
207.405
 30
0.0
 11
89.534099999999995
 21
207.405
 31
0.0
  0
LINE
  5
41B
  8
0
 62
     7
 10
93.022299999999987
 20
192.107
 30
0.0
 11
95.234099999999998
 21
192.6999999999999
 31
0.0
  0
LINE
  5
41C
  8
0
 62
     7
 10
95.234099999999998
 20
192.6999999999999
 30
0.0
 11
93.022299999999987
 21
193.29299999999989
 31
0.0
  0
LINE
  5
41D
  8
0
 62
     7
 10
93.022299999999987
 20
193.29299999999989
 30
0.0
 11
93.022299999999987
 21
192.107
 31
0.0
  0
LINE
  5
41E
  8
0
 62
     7
 10
102.4459999999999
 20
193.292
 30
0.0
 11
100.23399999999999
 21
192.6999999999999
 31
0.0
  0
LINE
  5
41F
  8
0
 62
     7
 10
100.23399999999999
 20
192.6999999999999
 30
0.0
 11
102.4459999999999
 21
192.107
 31
0.0
  0
LINE
  5
420
  8
0
 62
     7
 10
102.4459999999999
 20
192.107
 30
0.0
 11
102.4459999999999
 21
193.292
 31
0.0
  0
LINE
  5
421
  8
0
 62
     7
 10
107.59
 20
192.6999999999999
 30
0.0
 11
90.648600000000016
 21
192.6999999999999
 31
0.0
  0
TEXT
  5
422
  8
_________2
 62
     7
 10
109.179
 20
24.226099999999999
 30
0.0
 40
3.9357000000000002
  1
アヴァ 天付式オーバーヘッドシャワー（%%c300mm）
 41
0.5
  0
LINE
  5
423
  8
_________2
 62
     7
 10
205.30099999999999
 20
127.411
 30
0.0
 11
183.55099999999999
 21
127.411
 31
0.0
  0
LINE
  5
424
  8
_________2
 62
     7
 10
100.2999999999999
 20
-4.0910799999999998
 30
0.0
 11
100.2999999999999
 21
-21.070999999999991
 31
0.0
  0
LINE
  5
425
  8
_________2
 62
     7
 10
100.2999999999999
 20
275.93099999999993
 30
0.0
 11
100.2999999999999
 21
258.911
 31
0.0
  0
LINE
  5
426
  8
_________2
 62
     7
 10
17.049199999999988
 20
127.411
 30
0.0
 11
-4.7012099999999988
 21
127.411
 31
0.0
  0
LINE
  5
427
  8
_________2
 62
     7
 10
76.740700000000004
 20
29.8047
 30
0.0
 11
74.554400000000001
 21
29.8047
 31
0.0
  0
LINE
  5
428
  8
_________2
 62
     7
 10
77.2333
 20
29.8047
 30
0.0
 11
76.981099999999984
 21
29.8047
 31
0.0
  0
LINE
  5
429
  8
_________2
 62
     7
 10
77.725999999999999
 20
29.8047
 30
0.0
 11
80.650899999999993
 21
29.8047
 31
0.0
  0
LINE
  5
42A
  8
_________2
 62
     7
 10
77.2333
 20
29.8047
 30
0.0
 11
77.485500000000002
 21
29.8047
 31
0.0
  0
LINE
  5
42B
  8
_________2
 62
     7
 10
70.837100000000007
 20
29.8047
 30
0.0
 11
68.650199999999998
 21
29.8047
 31
0.0
  0
LINE
  5
42C
  8
_________2
 62
     7
 10
71.329099999999997
 20
29.8047
 30
0.0
 11
71.077600000000004
 21
29.8047
 31
0.0
  0
LINE
  5
42D
  8
_________2
 62
     7
 10
71.329099999999997
 20
30.2974
 30
0.0
 11
71.329099999999997
 21
32.484400000000001
 31
0.0
  0
LINE
  5
42E
  8
_________2
 62
     7
 10
71.329099999999997
 20
29.8047
 30
0.0
 11
71.329099999999997
 21
30.057300000000001
 31
0.0
  0
LINE
  5
42F
  8
_________2
 62
     7
 10
71.821700000000007
 20
29.8047
 30
0.0
 11
74.008700000000005
 21
29.8047
 31
0.0
  0
LINE
  5
430
  8
_________2
 62
     7
 10
71.329099999999997
 20
29.8047
 30
0.0
 11
71.581299999999985
 21
29.8047
 31
0.0
  0
LINE
  5
431
  8
_________2
 62
     7
 10
71.329099999999997
 20
29.312799999999999
 30
0.0
 11
71.329099999999997
 21
27.126200000000001
 31
0.0
  0
LINE
  5
432
  8
_________2
 62
     7
 10
71.329099999999997
 20
29.8047
 30
0.0
 11
71.329099999999997
 21
29.5532
 31
0.0
  0
LINE
  5
433
  8
_________2
 62
     7
 10
75.040199999999999
 20
28.5852
 30
0.0
 11
80.218199999999996
 21
27.720400000000001
 31
0.0
  0
LINE
  5
434
  8
_________2
 62
     7
 10
75.040199999999999
 20
31.024699999999999
 30
0.0
 11
80.218199999999996
 21
31.8901
 31
0.0
  0
LINE
  5
435
  8
_________2
 62
     7
 10
80.218199999999996
 20
27.720400000000001
 30
0.0
 11
80.218199999999996
 21
31.8901
 31
0.0
  0
LINE
  5
436
  8
_________2
 62
     7
 10
75.040199999999999
 20
28.5852
 30
0.0
 11
75.040199999999999
 21
31.024699999999999
 31
0.0
  0
ARC
  5
437
  8
_________2
 62
     7
 10
71.282501999999994
 20
29.757801000000001
 30
0.0
 40
1.267714
 50
2.1220840000000001
 51
87.894083999999992
  0
ARC
  5
438
  8
_________2
 62
     7
 10
71.375640000000004
 20
29.758545999999999
 30
0.0
 40
1.2669680000000001
 50
92.105782999999988
 51
177.91037
  0
ARC
  5
439
  8
_________2
 62
     7
 10
71.376013999999998
 20
29.851671
 30
0.0
 40
1.2673680000000001
 50
182.12203600000001
 51
267.877993
  0
ARC
  5
43A
  8
_________2
 62
     7
 10
71.282195999999999
 20
29.852347999999999
 30
0.0
 40
1.2680439999999991
 50
272.11916400000001
 51
357.84848499999993
  0
ARC
  5
43B
  8
_________2
 62
     7
 10
71.248716999999985
 20
29.724731999999989
 30
0.0
 40
2.1668310000000002
 50
2.1161439999999989
 51
87.874379000000005
  0
ARC
  5
43C
  8
_________2
 62
     7
 10
71.408756000000011
 20
29.726146
 30
0.0
 40
2.165392999999999
 50
92.108508999999998
 51
177.91986499999999
  0
ARC
  5
43D
  8
_________2
 62
     7
 10
71.409094999999994
 20
29.884751999999999
 30
0.0
 40
2.1657829999999998
 50
182.117133
 51
267.88289700000001
  0
ARC
  5
43E
  8
_________2
 62
     7
 10
71.249115000000003
 20
29.885429999999989
 30
0.0
 40
2.1664590000000001
 50
272.11546800000002
 51
357.86560400000002
  0
TEXT
  5
43F
  8
_________2
 62
     7
 10
104.605
 20
1.6794899999999999
 30
0.0
 40
3.0923400000000001
  1
図番
 41
0.5
  0
LINE
  5
440
  8
_________2
 62
     7
 10
103.55
 20
5.9087199999999989
 30
0.0
 11
183.55099999999999
 21
5.9087199999999989
 31
0.0
  0
TEXT
  5
441
  8
_________2
 62
     7
 10
104.605
 20
11.679299999999991
 30
0.0
 40
3.0923400000000001
  1
品番
 41
0.5
  0
TEXT
  5
442
  8
_________2
 62
     7
 10
104.605
 20
31.8184
 30
0.0
 40
3.0923400000000001
  1
名称
 41
0.5
  0
TEXT
  5
443
  8
_________2
 62
     7
 10
91.844758333333345
 20
26.822299999999998
 30
0.0
 40
3.6545800000000002
  1
mm
 41
0.5
 72
     1
 11
93.367500000000007
 21
26.822299999999998
 31
0.0
  0
TEXT
  5
444
  8
_________2
 62
     7
 10
85.642899999999983
 20
31.8184
 30
0.0
 40
3.0923400000000001
  1
単位
 41
0.5
  0
TEXT
  5
445
  8
_________2
 62
     7
 10
85.642899999999983
 20
19.410799999999991
 30
0.0
 40
3.0923400000000001
  1
尺度
 41
0.5
  0
TEXT
  5
446
  8
_________2
 62
     7
 10
90.548458666666676
 20
13.218199999999991
 30
0.0
 40
3.6545800000000002
  1
1 ： 5
 41
0.5
 72
     1
 11
93.959400000000016
 21
13.218199999999991
 31
0.0
  0
TEXT
  5
447
  8
_________2
 62
     7
 10
125.642565
 20
9.1082000000000001
 30
0.0
 40
3.9357000000000002
  1
KW6000212＋KW6000823
 41
0.5
 72
     1
 11
143.55000000000001
 21
9.1082000000000001
 31
0.0
  0
TEXT
  5
448
  8
_________2
 62
     7
 10
133.54676249999989
 20
-0.8926299999999999
 30
0.0
 40
3.9357000000000002
  1
KW6000212CB
 41
0.5
 72
     1
 11
143.55000000000001
 21
-0.8926299999999999
 31
0.0
  0
TEXT
  5
449
  8
_________2
 62
     7
 10
39.42500033333333
 20
13.603400000000001
 30
0.0
 40
3.6545800000000002
  1
早川
 41
0.5
 72
     1
 11
41.313200000000002
 21
13.603400000000001
 31
0.0
  0
TEXT
  5
44A
  8
_________2
 62
     7
 10
20.790090666666661
 20
13.603400000000001
 30
0.0
 40
3.6545800000000002
  1
石原
 41
0.5
 72
     1
 11
22.73919999999999
 21
13.603400000000001
 31
0.0
  0
TEXT
  5
44B
  8
_________2
 62
     7
 10
67.785399999999996
 20
13.218199999999991
 30
0.0
 40
3.6545800000000002
  1
12.08.31
 41
0.5
  0
TEXT
  5
44C
  8
_________2
 62
     7
 10
66.592699999999994
 20
19.410799999999991
 30
0.0
 40
3.0923400000000001
  1
日付
 41
0.5
  0
TEXT
  5
44D
  8
_________2
 62
     7
 10
29.638999999999999
 20
19.410799999999991
 30
0.0
 40
3.0923400000000001
  1
検図
 41
0.5
  0
TEXT
  5
44E
  8
_________2
 62
     7
 10
18.020700000000001
 20
5.21143
 30
0.0
 40
3.0923400000000001
  1
備考
 41
0.5
  0
TEXT
  5
44F
  8
_________2
 62
     7
 10
18.020700000000001
 20
19.410799999999991
 30
0.0
 40
3.0923400000000001
  1
製図
 41
0.5
  0
TEXT
  5
450
  8
_________2
 62
     7
 10
23.788165333333328
 20
27.936800000000002
 30
0.0
 40
4.4979399999999989
  1
セラトレーディング株式会社
 41
0.5
 72
     1
 11
41.180199999999999
 21
27.936800000000002
 31
0.0
  0
LINE
  5
451
  8
_________2
 62
     7
 10
183.55099999999999
 20
-4.0910799999999998
 30
0.0
 11
17.049199999999988
 21
-4.0910799999999998
 31
0.0
  0
LINE
  5
452
  8
_________2
 62
     7
 10
17.049199999999988
 20
-4.0910799999999998
 30
0.0
 11
17.049199999999988
 21
258.911
 31
0.0
  0
LINE
  5
453
  8
_________2
 62
     7
 10
17.049199999999988
 20
258.911
 30
0.0
 11
183.55099999999999
 21
258.911
 31
0.0
  0
LINE
  5
454
  8
_________2
 62
     7
 10
183.55099999999999
 20
258.911
 30
0.0
 11
183.55099999999999
 21
-4.0910799999999998
 31
0.0
  0
LINE
  5
455
  8
_________2
 62
     7
 10
65.549599999999998
 20
9.4092999999999982
 30
0.0
 11
65.549599999999998
 21
35.909100000000002
 31
0.0
  0
LINE
  5
456
  8
_________2
 62
     7
 10
84.549400000000006
 20
9.4092999999999982
 30
0.0
 11
84.549400000000006
 21
35.909100000000002
 31
0.0
  0
LINE
  5
457
  8
_________2
 62
     7
 10
103.55
 20
-4.0910799999999998
 30
0.0
 11
103.55
 21
35.909100000000002
 31
0.0
  0
LINE
  5
458
  8
_________2
 62
     7
 10
28.548999999999999
 20
9.4092999999999982
 30
0.0
 11
28.548999999999999
 21
23.409199999999998
 31
0.0
  0
LINE
  5
459
  8
_________2
 62
     7
 10
17.049199999999988
 20
9.4092999999999982
 30
0.0
 11
103.55
 21
9.4092999999999982
 31
0.0
  0
LINE
  5
45A
  8
_________2
 62
     7
 10
17.049199999999988
 20
23.409199999999998
 30
0.0
 11
103.55
 21
23.409199999999998
 31
0.0
  0
LINE
  5
45B
  8
_________2
 62
     7
 10
103.55
 20
15.9085
 30
0.0
 11
183.55099999999999
 21
15.9085
 31
0.0
  0
LINE
  5
45C
  8
_________2
 62
     7
 10
17.049199999999988
 20
35.909100000000002
 30
0.0
 11
183.55099999999999
 21
35.909100000000002
 31
0.0
  0
ENDSEC
  0
EOF
