  0
SECTION
  2
HEADER
  9
$ACADVER
  1
AC1009
  9
$INSBASE
 10
0.0
 20
0.0
 30
0.0
  9
$EXTMIN
 10
-4.7012099999999988
 20
-21.071000000000002
 30
0.0
  9
$EXTMAX
 10
205.30099999999999
 20
275.93099999999998
 30
0.0
  9
$LIMMIN
 10
0.0
 20
0.0
  9
$LIMMAX
 10
12.0
 20
9.0
  9
$ORTHOMODE
 70
     0
  9
$REGENMODE
 70
     1
  9
$FILLMODE
 70
     1
  9
$QTEXTMODE
 70
     0
  9
$MIRRTEXT
 70
     1
  9
$DRAGMODE
 70
     2
  9
$LTSCALE
 40
1.0
  9
$OSMODE
 70
    37
  9
$ATTMODE
 70
     1
  9
$TEXTSIZE
 40
0.0
  9
$TRACEWID
 40
0.05
  9
$TEXTSTYLE
  7
STANDARD
  9
$CLAYER
  8
0
  9
$CELTYPE
  6
CONTINUOUS
  9
$CECOLOR
 62
   256
  9
$DIMSCALE
 40
1.0
  9
$DIMASZ
 40
0.18
  9
$DIMEXO
 40
0.0625
  9
$DIMDLI
 40
0.38
  9
$DIMRND
 40
0.0
  9
$DIMDLE
 40
0.0
  9
$DIMEXE
 40
0.18
  9
$DIMTP
 40
0.0
  9
$DIMTM
 40
0.0
  9
$DIMTXT
 40
0.18
  9
$DIMCEN
 40
0.09
  9
$DIMTSZ
 40
0.0
  9
$DIMTOL
 70
     0
  9
$DIMLIM
 70
     0
  9
$DIMTIH
 70
     1
  9
$DIMTOH
 70
     1
  9
$DIMSE1
 70
     0
  9
$DIMSE2
 70
     0
  9
$DIMTAD
 70
     0
  9
$DIMZIN
 70
     0
  9
$DIMBLK
  1

  9
$DIMASO
 70
     1
  9
$DIMSHO
 70
     1
  9
$DIMPOST
  1

  9
$DIMAPOST
  1

  9
$DIMALT
 70
     0
  9
$DIMALTD
 70
     2
  9
$DIMALTF
 40
25.399999999999999
  9
$DIMLFAC
 40
1.0
  9
$DIMTOFL
 70
     0
  9
$DIMTVP
 40
0.0
  9
$DIMTIX
 70
     0
  9
$DIMSOXD
 70
     0
  9
$DIMSAH
 70
     0
  9
$DIMBLK1
  1

  9
$DIMBLK2
  1

  9
$DIMSTYLE
  2
STANDARD
  9
$DIMCLRD
 70
     0
  9
$DIMCLRE
 70
     0
  9
$DIMCLRT
 70
     0
  9
$DIMTFAC
 40
1.0
  9
$DIMGAP
 40
0.09
  9
$LUNITS
 70
     2
  9
$LUPREC
 70
     4
  9
$SKETCHINC
 40
0.1
  9
$FILLETRAD
 40
0.0
  9
$AUNITS
 70
     0
  9
$AUPREC
 70
     0
  9
$MENU
  1
.
  9
$ELEVATION
 40
0.0
  9
$PELEVATION
 40
0.0
  9
$THICKNESS
 40
0.0
  9
$LIMCHECK
 70
     0
  9
$BLIPMODE
 70
     0
  9
$CHAMFERA
 40
0.0
  9
$CHAMFERB
 40
0.0
  9
$SKPOLY
 70
     0
  9
$TDCREATE
 40
2444972.375
  9
$TDUPDATE
 40
2457715.248069433
  9
$TDINDWG
 40
0.0000296296
  9
$TDUSRTIMER
 40
0.0000296296
  9
$USRTIMER
 70
     1
  9
$ANGBASE
 50
0.0
  9
$ANGDIR
 70
     0
  9
$PDMODE
 70
     0
  9
$PDSIZE
 40
0.0
  9
$PLINEWID
 40
0.0
  9
$COORDS
 70
     1
  9
$SPLFRAME
 70
     0
  9
$SPLINETYPE
 70
     6
  9
$SPLINESEGS
 70
     8
  9
$ATTDIA
 70
     1
  9
$ATTREQ
 70
     1
  9
$HANDLING
 70
     1
  9
$HANDSEED
  5
284
  9
$SURFTAB1
 70
     6
  9
$SURFTAB2
 70
     6
  9
$SURFTYPE
 70
     6
  9
$SURFU
 70
     6
  9
$SURFV
 70
     6
  9
$UCSNAME
  2

  9
$UCSORG
 10
0.0
 20
0.0
 30
0.0
  9
$UCSXDIR
 10
1.0
 20
0.0
 30
0.0
  9
$UCSYDIR
 10
0.0
 20
1.0
 30
0.0
  9
$PUCSNAME
  2

  9
$PUCSORG
 10
0.0
 20
0.0
 30
0.0
  9
$PUCSXDIR
 10
1.0
 20
0.0
 30
0.0
  9
$PUCSYDIR
 10
0.0
 20
1.0
 30
0.0
  9
$USERI1
 70
     0
  9
$USERI2
 70
     0
  9
$USERI3
 70
     0
  9
$USERI4
 70
     0
  9
$USERI5
 70
     0
  9
$USERR1
 40
0.0
  9
$USERR2
 40
0.0
  9
$USERR3
 40
0.0
  9
$USERR4
 40
0.0
  9
$USERR5
 40
0.0
  9
$WORLDVIEW
 70
     1
  9
$SHADEDGE
 70
     3
  9
$SHADEDIF
 70
    70
  9
$TILEMODE
 70
     1
  9
$MAXACTVP
 70
    48
  9
$PLIMCHECK
 70
     0
  9
$PEXTMIN
 10
1.0000000000000000E+020
 20
1.0000000000000000E+020
 30
1.0000000000000000E+020
  9
$PEXTMAX
 10
-1.0000000000000000E+020
 20
-1.0000000000000000E+020
 30
-1.0000000000000000E+020
  9
$PLIMMIN
 10
0.0
 20
0.0
  9
$PLIMMAX
 10
12.0
 20
9.0
  9
$UNITMODE
 70
     0
  9
$VISRETAIN
 70
     1
  9
$PLINEGEN
 70
     0
  9
$PSLTSCALE
 70
     1
  0
ENDSEC
  0
SECTION
  2
TABLES
  0
TABLE
  2
VPORT
 70
     1
  0
VPORT
  2
*ACTIVE
 70
     0
 10
0.0
 20
0.0
 11
1.0
 21
1.0
 12
173.05850873675899
 22
127.42999999999989
 13
0.0
 23
0.0
 14
1.0
 24
1.0
 15
0.0
 25
0.0
 16
0.0
 26
0.0
 36
1.0
 17
0.0
 27
0.0
 37
0.0
 40
289.64129411868203
 41
2.1063583815028899
 42
50.0
 43
0.0
 44
0.0
 50
0.0
 51
0.0
 71
     0
 72
   100
 73
     1
 74
     1
 75
     0
 76
     0
 77
     0
 78
     0
  0
ENDTAB
  0
TABLE
  2
LTYPE
 70
     2
  0
LTYPE
  2
CONTINUOUS
 70
     0
  3
Solid line
 72
    65
 73
     0
 40
0.0
  0
LTYPE
  2
AIGENLINE001
 70
     0
  3
generate AI->DXF Converter
 72
    65
 73
     4
 40
5.8561449999999988
 49
3.5278
 49
-0.776115
 49
0.776115
 49
-0.776115
  0
ENDTAB
  0
TABLE
  2
LAYER
 70
     2
  0
LAYER
  2
0
 70
     0
 62
     7
  6
CONTINUOUS
  0
LAYER
  2
_________2
 70
     0
 62
     7
  6
CONTINUOUS
  0
ENDTAB
  0
TABLE
  2
STYLE
 70
     1
  0
STYLE
  2
STANDARD
 70
     0
 40
0.0
 41
0.0
 50
0.0
 71
     0
 42
0.0
  3
TXT
  4
EXTFONT.SHX
  0
ENDTAB
  0
TABLE
  2
VIEW
 70
     0
  0
ENDTAB
  0
TABLE
  2
UCS
 70
     0
  0
ENDTAB
  0
TABLE
  2
APPID
 70
     3
  0
APPID
  2
ACAD
 70
     0
  0
APPID
  2
ACAD_NAV_VCDISPLAY
 70
     0
  0
APPID
  2
ACAD_MLEADERVER
 70
     0
  0
ENDTAB
  0
TABLE
  2
DIMSTYLE
 70
     1
  0
DIMSTYLE
  2
STANDARD
 70
     0
  3

  4

  5

  6

  7

 40
1.0
 41
0.18
 42
0.0625
 43
0.38
 44
0.18
 45
0.0
 46
0.0
 47
0.0
 48
0.0
140
0.18
141
0.09
142
0.0
143
25.399999999999999
144
1.0
145
0.0
146
1.0
147
0.09
 71
     0
 72
     0
 73
     1
 74
     1
 75
     0
 76
     0
 77
     0
 78
     0
170
     0
171
     2
172
     0
173
     0
174
     0
175
     0
176
     0
177
     0
178
     0
  0
ENDTAB
  0
ENDSEC
  0
SECTION
  2
BLOCKS
  0
BLOCK
  8
0
  2
$MODEL_SPACE
 70
     0
 10
0.0
 20
0.0
 30
0.0
  3
$MODEL_SPACE
  1

  0
ENDBLK
  5
1A
  8
0
  0
BLOCK
 67
     1
  8
0
  2
$PAPER_SPACE
 70
     0
 10
0.0
 20
0.0
 30
0.0
  3
$PAPER_SPACE
  1

  0
ENDBLK
  5
17
 67
     1
  8
0
  0
ENDSEC
  0
SECTION
  2
ENTITIES
  0
TEXT
  5
22
  8
0
 62
     7
 10
118.653525
 20
208.346
 30
0.0
 40
3.0923400000000001
  1
63
 41
0.5
 72
     1
 11
119.94199999999999
 21
208.346
 31
0.0
  0
TEXT
  5
23
  8
0
 62
     7
 10
127.19422
 20
186.40000000000001
 30
0.0
 40
3.0923400000000001
  1
7
 41
0.5
 72
     2
 11
128.22499999999999
 21
186.40000000000001
 31
0.0
  0
TEXT
  5
24
  8
0
 62
     7
 10
147.87100000000001
 20
126.673745
 30
0.0
 40
3.0923400000000001
  1
1175
 50
90.0
 41
0.5
 72
     1
 11
147.87100000000001
 21
128.99299999999999
 31
0.0
  0
TEXT
  5
25
  8
0
 62
     7
 10
139.07900000000001
 20
126.93143999999999
 30
0.0
 40
3.0923400000000001
  1
1100
 50
90.0
 41
0.5
 72
     1
 11
139.07900000000001
 21
128.99299999999999
 31
0.0
  0
TEXT
  5
26
  8
0
 62
     7
 10
134.435
 20
196.45452499999999
 30
0.0
 40
3.0923400000000001
  1
75
 50
90.0
 41
0.5
 72
     1
 11
134.435
 21
197.74299999999999
 31
0.0
  0
ARC
  5
27
  8
0
 62
     7
 10
72.860055000000003
 20
220.89746500000001
 30
0.0
 40
2.2807230000000001
 50
307.4239
 51
341.39166399999999
  0
ARC
  5
28
  8
0
 62
     7
 10
73.305171000000001
 20
220.70087899999999
 30
0.0
 40
1.7966919999999991
 50
342.80369100000001
 51
359.67204199999998
  0
ARC
  5
29
  8
0
 62
     7
 10
73.006782999999999
 20
220.68121400000001
 30
0.0
 40
2.095070999999999
 50
0.256528
 51
41.391911
  0
ARC
  5
2A
  8
0
 62
     7
 10
72.858620999999999
 20
220.59050400000001
 30
0.0
 40
2.2663999999999991
 50
40.635635999999998
 51
62.046108999999987
  0
ARC
  5
2B
  8
0
 62
     7
 10
81.694632999999996
 20
237.19864699999999
 30
0.0
 40
16.545978999999999
 50
240.791
 51
241.977475
  0
ARC
  5
2C
  8
0
 62
     7
 10
74.555688000000004
 20
224.35476
 30
0.0
 40
1.851829999999999
 50
234.921156
 51
239.659018
  0
ARC
  5
2D
  8
0
 62
     7
 10
73.922154000000006
 20
223.46081100000001
 30
0.0
 40
0.7561770000000001
 50
220.294511
 51
235.27766600000001
  0
ARC
  5
2E
  8
0
 62
     7
 10
73.544662000000002
 20
223.13226599999999
 30
0.0
 40
0.255858
 50
183.77050500000001
 51
218.84735900000001
  0
LINE
  5
2F
  8
0
 62
     7
 10
73.289400000000001
 20
223.11500000000001
 30
0.0
 11
73.289400000000001
 21
223.64699999999999
 31
0.0
  0
ARC
  5
30
  8
0
 62
     7
 10
72.731313
 20
222.05149
 30
0.0
 40
1.763466
 50
309.44771400000002
 51
311.4407470000001
  0
ARC
  5
31
  8
0
 62
     7
 10
72.770883999999995
 20
221.81116900000001
 30
0.0
 40
1.449999
 50
228.24180100000001
 51
230.66057599999999
  0
ARC
  5
32
  8
0
 62
     7
 10
72.550795999999991
 20
220.188345
 30
0.0
 40
1.111685
 50
207.55182400000001
 51
231.01165800000001
  0
ARC
  5
33
  8
0
 62
     7
 10
72.329646999999994
 20
220.05246299999999
 30
0.0
 40
0.8529569999999999
 50
180.38698600000001
 51
206.33058800000001
  0
ARC
  5
34
  8
0
 62
     7
 10
72.338274999999996
 20
220.04301799999999
 30
0.0
 40
0.8615729999999999
 50
138.465058
 51
179.754966
  0
ARC
  5
35
  8
0
 62
     7
 10
72.625993999999992
 20
219.82769999999999
 30
0.0
 40
1.2200779999999991
 50
115.70735999999999
 51
139.85539499999999
  0
ARC
  5
36
  8
0
 62
     7
 10
72.829537999999999
 20
219.46167500000001
 30
0.0
 40
1.6383509999999999
 50
89.220456000000027
 51
116.568562
  0
ARC
  5
37
  8
0
 62
     7
 10
72.850166999999985
 20
219.37185199999999
 30
0.0
 40
1.728024
 50
61.509496999999989
 51
89.944941
  0
ARC
  5
38
  8
0
 62
     7
 10
73.047709999999995
 20
219.79204300000001
 30
0.0
 40
1.264772999999999
 50
37.375711000000003
 51
60.294573
  0
ARC
  5
39
  8
0
 62
     7
 10
73.323328000000004
 20
220.02641299999999
 30
0.0
 40
0.9036739999999999
 50
1.2864759999999991
 51
36.174946000000013
  0
ARC
  5
3A
  8
0
 62
     7
 10
73.379593
 20
220.048911
 30
0.0
 40
0.8471840000000001
 50
324.89325400000001
 51
359.85060399999998
  0
ARC
  5
3B
  8
0
 62
     7
 10
73.173106000000004
 20
220.175365
 30
0.0
 40
1.0889379999999991
 50
308.56451700000002
 51
325.69838500000009
  0
ARC
  5
3C
  8
0
 62
     7
 10
72.842978000000002
 20
220.89687499999999
 30
0.0
 40
2.2799809999999998
 50
198.598984
 51
232.57607899999999
  0
ARC
  5
3D
  8
0
 62
     7
 10
72.399185000000003
 20
220.700862
 30
0.0
 40
1.797391999999999
 50
180.3273309999999
 51
197.18887799999999
  0
ARC
  5
3E
  8
0
 62
     7
 10
72.697477000000006
 20
220.681218
 30
0.0
 40
2.0956759999999992
 50
138.62277800000001
 51
179.74362600000001
  0
ARC
  5
3F
  8
0
 62
     7
 10
72.844222000000002
 20
220.59119799999999
 30
0.0
 40
2.2654860000000001
 50
117.947805
 51
139.36766399999999
  0
ARC
  5
40
  8
0
 62
     7
 10
63.961391999999996
 20
237.287766
 30
0.0
 40
16.646947000000001
 50
298.02262999999999
 51
299.20203800000002
  0
ARC
  5
41
  8
0
 62
     7
 10
71.146648999999996
 20
224.35716600000001
 30
0.0
 40
1.854506999999999
 50
300.33515599999998
 51
305.067295
  0
ARC
  5
42
  8
0
 62
     7
 10
71.781318999999996
 20
223.461152
 30
0.0
 40
0.756512
 50
304.71365900000001
 51
319.69318900000002
  0
ARC
  5
43
  8
0
 62
     7
 10
72.159153000000003
 20
223.132248
 30
0.0
 40
0.255697
 50
321.12868900000001
 51
356.2311279999999
  0
ARC
  5
44
  8
0
 62
     7
 10
72.656664000000006
 20
220.49178800000001
 30
0.0
 40
1.844952999999999
 50
221.61957899999999
 51
244.12597600000001
  0
ARC
  5
45
  8
0
 62
     7
 10
72.247116000000005
 20
220.08802700000001
 30
0.0
 40
1.270964999999999
 50
181.863294
 51
220.27489399999999
  0
ARC
  5
46
  8
0
 62
     7
 10
72.132447999999997
 20
220.04379900000009
 30
0.0
 40
1.155629
 50
144.43397400000001
 51
179.85602700000001
  0
ARC
  5
47
  8
0
 62
     7
 10
72.446535999999995
 20
219.84733900000001
 30
0.0
 40
1.525563
 50
122.59352699999999
 51
145.293215
  0
ARC
  5
48
  8
0
 62
     7
 10
72.758293999999992
 20
219.41289699999999
 30
0.0
 40
2.0597209999999988
 50
99.217449000000016
 51
123.39014299999999
  0
ARC
  5
49
  8
0
 62
     7
 10
72.848876000000004
 20
219.060416
 30
0.0
 40
2.4223849999999989
 50
89.930165000000017
 51
99.996848999999997
  0
ARC
  5
4A
  8
0
 62
     7
 10
72.851453000000006
 20
219.10705899999999
 30
0.0
 40
2.3757399999999991
 50
65.323347999999996
 51
89.990945999999994
  0
ARC
  5
4B
  8
0
 62
     7
 10
73.045893000000007
 20
219.592544
 30
0.0
 40
1.8535950000000001
 50
44.514946999999999
 51
64.519491000000002
  0
ARC
  5
4C
  8
0
 62
     7
 10
73.391090000000005
 20
219.95874599999999
 30
0.0
 40
1.3508379999999991
 50
15.449154
 51
43.704361999999989
  0
ARC
  5
4D
  8
0
 62
     7
 10
73.606217999999998
 20
220.04648800000001
 30
0.0
 40
1.120441999999999
 50
0.010945
 51
14.054754000000001
  0
ARC
  5
4E
  8
0
 62
     7
 10
73.56937099999999
 20
220.04985500000001
 30
0.0
 40
1.157294
 50
324.15752300000003
 51
359.84391900000003
  0
ARC
  5
4F
  8
0
 62
     7
 10
73.250629000000004
 20
220.25257500000001
 30
0.0
 40
1.534543
 50
302.43649900000003
 51
324.99058400000001
  0
ARC
  5
50
  8
0
 62
     7
 10
73.017143000000004
 20
220.56463400000001
 30
0.0
 40
1.9233779999999989
 50
295.71784300000002
 51
303.32073500000013
  0
ARC
  5
51
  8
0
 62
     7
 10
73.483575999999985
 20
224.28139300000001
 30
0.0
 40
0.259344
 50
271.92231500000003
 51
354.44562100000002
  0
LINE
  5
52
  8
0
 62
     7
 10
73.741699999999994
 20
224.256
 30
0.0
 11
74.039400000000001
 21
228.89699999999999
 31
0.0
  0
LINE
  5
53
  8
0
 62
     7
 10
73.926999999999992
 20
227.14699999999999
 30
0.0
 11
74.164400000000001
 21
227.14699999999999
 31
0.0
  0
LINE
  5
54
  8
0
 62
     7
 10
73.983199999999997
 20
228.02199999999999
 30
0.0
 11
74.164400000000001
 21
228.02199999999999
 31
0.0
  0
LINE
  5
55
  8
0
 62
     7
 10
74.164199999999994
 20
223.89699999999999
 30
0.0
 11
74.164400000000001
 21
228.02199999999999
 31
0.0
  0
LINE
  5
56
  8
0
 62
     7
 10
72.851799999999997
 20
224.02199999999999
 30
0.0
 11
73.4923
 21
224.02199999999999
 31
0.0
  0
ARC
  5
57
  8
0
 62
     7
 10
72.220076000000006
 20
224.28157899999999
 30
0.0
 40
0.259529
 50
185.591655
 51
268.07992400000001
  0
LINE
  5
58
  8
0
 62
     7
 10
71.961799999999997
 20
224.256
 30
0.0
 11
71.664299999999997
 21
228.89699999999999
 31
0.0
  0
ARC
  5
59
  8
0
 62
     7
 10
73.220143999999991
 20
159.18090699999999
 30
0.0
 40
2.0369160000000002
 50
288.06980900000002
 51
304.13110499999999
  0
ARC
  5
5A
  8
0
 62
     7
 10
73.418584999999993
 20
158.83831900000001
 30
0.0
 40
1.642231
 50
305.106695
 51
342.42751199999998
  0
ARC
  5
5B
  8
0
 62
     7
 10
72.765918999999997
 20
159.076356
 30
0.0
 40
2.3364979999999989
 50
341.69474200000002
 51
1.2809509999999991
  0
ARC
  5
5C
  8
0
 62
     7
 10
73.166156000000001
 20
159.11413200000001
 30
0.0
 40
1.9357319999999989
 50
0.4279070000000001
 51
51.749124999999999
  0
ARC
  5
5D
  8
0
 62
     7
 10
72.483941000000002
 20
159.18306000000001
 30
0.0
 40
2.0388209999999991
 50
235.88532699999999
 51
251.92989
  0
ARC
  5
5E
  8
0
 62
     7
 10
72.284249000000003
 20
158.838008
 30
0.0
 40
1.6413919999999991
 50
197.56802200000001
 51
234.90108499999999
  0
ARC
  5
5F
  8
0
 62
     7
 10
72.937016999999983
 20
159.076142
 30
0.0
 40
2.335785
 50
178.71337800000001
 51
198.303864
  0
ARC
  5
60
  8
0
 62
     7
 10
72.537767000000002
 20
159.114138
 30
0.0
 40
1.935999
 50
128.26118099999999
 51
179.57232300000001
  0
ARC
  5
61
  8
0
 62
     7
 10
72.58381700000001
 20
160.708179
 30
0.0
 40
1.9482389999999989
 50
230.80436599999999
 51
247.93848
  0
ARC
  5
62
  8
0
 62
     7
 10
72.158026000000007
 20
160.14752300000001
 30
0.0
 40
1.244885
 50
211.6836660000001
 51
229.68437299999991
  0
ARC
  5
63
  8
0
 62
     7
 10
71.846591000000004
 20
159.938288
 30
0.0
 40
0.8700899999999998
 50
181.0613919999999
 51
210.73035400000001
  0
ARC
  5
64
  8
0
 62
     7
 10
71.804352000000009
 20
159.919815
 30
0.0
 40
0.8277049999999999
 50
145.2784
 51
179.83689899999999
  0
ARC
  5
65
  8
0
 62
     7
 10
72.130064000000004
 20
159.72270800000001
 30
0.0
 40
1.2079159999999991
 50
126.893466
 51
146.39378600000001
  0
ARC
  5
66
  8
0
 62
     7
 10
72.532067999999995
 20
159.22995499999999
 30
0.0
 40
1.8435109999999999
 50
108.14048200000001
 51
127.691941
  0
ARC
  5
67
  8
0
 62
     7
 10
72.822869999999995
 20
158.48644999999999
 30
0.0
 40
2.6409820000000002
 50
89.371746999999985
 51
109.113748
  0
ARC
  5
68
  8
0
 62
     7
 10
72.851272999999992
 20
158.34527199999999
 30
0.0
 40
2.782001999999999
 50
68.266791999999995
 51
89.988558999999995
  0
ARC
  5
69
  8
0
 62
     7
 10
73.158090000000001
 20
159.20769300000001
 30
0.0
 40
1.8675889999999991
 50
48.569924999999998
 51
67.213418000000004
  0
ARC
  5
6A
  8
0
 62
     7
 10
73.624362000000005
 20
159.77139299999999
 30
0.0
 40
1.1366529999999999
 50
22.636958
 51
47.389803999999991
  0
ARC
  5
6B
  8
0
 62
     7
 10
73.912715000000006
 20
159.918913
 30
0.0
 40
0.8141239999999999
 50
0.229323
 51
20.865243
  0
ARC
  5
6C
  8
0
 62
     7
 10
73.89903000000001
 20
159.92437899999999
 30
0.0
 40
0.8278059999999999
 50
325.01335499999999
 51
359.84717699999999
  0
ARC
  5
6D
  8
0
 62
     7
 10
73.575381999999991
 20
160.12033199999999
 30
0.0
 40
1.2055830000000001
 50
307.31812500000001
 51
326.203191
  0
ARC
  5
6E
  8
0
 62
     7
 10
73.203494999999975
 20
160.56816499999999
 30
0.0
 40
1.7873529999999991
 50
291.27220399999999
 51
308.095842
  0
ARC
  5
6F
  8
0
 62
     7
 10
72.637422000000001
 20
157.76050000000001
 30
0.0
 40
1.3970169999999991
 50
108.37492
 51
124.231921
  0
ARC
  5
70
  8
0
 62
     7
 10
72.830918999999994
 20
157.25295800000001
 30
0.0
 40
1.939822999999999
 50
89.382390999999998
 51
109.07308
  0
ARC
  5
71
  8
0
 62
     7
 10
72.850543999999985
 20
157.14600300000001
 30
0.0
 40
2.0466649999999991
 50
68.443246000000002
 51
89.964051999999995
  0
ARC
  5
72
  8
0
 62
     7
 10
73.044882999999999
 20
157.71302700000001
 30
0.0
 40
1.4481599999999999
 50
56.146993000000002
 51
67.351515000000006
  0
ARC
  5
73
  8
0
 62
     7
 10
72.462035
 20
160.21073200000001
 30
0.0
 40
1.0834950000000001
 50
219.00210100000001
 51
235.71619799999999
  0
ARC
  5
74
  8
0
 62
     7
 10
72.155767999999995
 20
159.94651999999999
 30
0.0
 40
0.6793230000000001
 50
182.05413100000001
 51
217.941327
  0
ARC
  5
75
  8
0
 62
     7
 10
72.079768000000001
 20
159.920795
 30
0.0
 40
0.6028890000000001
 50
147.334371
 51
179.86919800000001
  0
ARC
  5
76
  8
0
 62
     7
 10
72.308621000000002
 20
159.78965199999999
 30
0.0
 40
0.866427
 50
126.700424
 51
148.20198500000001
  0
ARC
  5
77
  8
0
 62
     7
 10
72.606477999999996
 20
159.429948
 30
0.0
 40
1.333048999999999
 50
109.88582100000001
 51
127.72521500000001
  0
ARC
  5
78
  8
0
 62
     7
 10
72.826824999999985
 20
158.894431
 30
0.0
 40
1.911748
 50
89.250621999999993
 51
110.636726
  0
ARC
  5
79
  8
0
 62
     7
 10
72.850920000000002
 20
158.76441600000001
 30
0.0
 40
2.041599999999999
 50
68.270484999999994
 51
89.974506000000005
  0
ARC
  5
7A
  8
0
 62
     7
 10
73.07402900000001
 20
159.39133200000001
 30
0.0
 40
1.3768549999999991
 50
49.762317000000003
 51
67.236559
  0
ARC
  5
7B
  8
0
 62
     7
 10
73.405321000000001
 20
159.80381299999999
 30
0.0
 40
0.8480859999999999
 50
22.015865999999999
 51
48.847021000000012
  0
ARC
  5
7C
  8
0
 62
     7
 10
73.632388000000006
 20
159.92018300000001
 30
0.0
 40
0.5943890000000001
 50
0.191659
 51
19.820948000000001
  0
ARC
  5
7D
  8
0
 62
     7
 10
73.623526999999996
 20
159.9234919999999
 30
0.0
 40
0.603248
 50
327.5420410000001
 51
359.87453199999999
  0
ARC
  5
7E
  8
0
 62
     7
 10
73.372993999999991
 20
160.069344
 30
0.0
 40
0.892993
 50
302.43509
 51
328.27277900000001
  0
LINE
  5
7F
  8
0
 62
     7
 10
72.851799999999997
 20
162.691
 30
0.0
 11
73.535700000000006
 21
162.691
 31
0.0
  0
LINE
  5
80
  8
0
 62
     7
 10
73.897400000000005
 20
162.595
 30
0.0
 11
73.730500000000006
 21
162.661
 31
0.0
  0
LINE
  5
81
  8
0
 62
     7
 10
73.555000000000007
 20
163.31299999999999
 30
0.0
 11
73.633899999999997
 21
162.822
 31
0.0
  0
LINE
  5
82
  8
0
 62
     7
 10
73.416799999999995
 20
163.43299999999999
 30
0.0
 11
72.851799999999997
 21
163.43299999999999
 31
0.0
  0
LINE
  5
83
  8
0
 62
     7
 10
73.579800000000006
 20
163.48699999999999
 30
0.0
 11
73.642700000000005
 21
163.56299999999999
 31
0.0
  0
LINE
  5
84
  8
0
 62
     7
 10
72.851799999999997
 20
162.488
 30
0.0
 11
73.911500000000004
 21
162.488
 31
0.0
  0
LINE
  5
85
  8
0
 62
     7
 10
72.851799999999997
 20
162.691
 30
0.0
 11
72.167799999999986
 21
162.691
 31
0.0
  0
LINE
  5
86
  8
0
 62
     7
 10
71.806100000000001
 20
162.595
 30
0.0
 11
71.972999999999999
 21
162.661
 31
0.0
  0
LINE
  5
87
  8
0
 62
     7
 10
72.148700000000005
 20
163.31299999999999
 30
0.0
 11
72.069800000000001
 21
162.822
 31
0.0
  0
LINE
  5
88
  8
0
 62
     7
 10
72.286699999999996
 20
163.43299999999999
 30
0.0
 11
72.851799999999997
 21
163.43299999999999
 31
0.0
  0
LINE
  5
89
  8
0
 62
     7
 10
72.123500000000007
 20
163.48699999999999
 30
0.0
 11
72.0608
 21
163.56299999999999
 31
0.0
  0
LINE
  5
8A
  8
0
 62
     7
 10
72.851799999999997
 20
162.488
 30
0.0
 11
71.791799999999995
 21
162.488
 31
0.0
  0
LINE
  5
8B
  8
0
 62
     7
 10
71.664500000000004
 20
162.488
 30
0.0
 11
71.226799999999983
 21
162.488
 31
0.0
  0
LINE
  5
8C
  8
0
 62
     7
 10
74.476699999999994
 20
162.488
 30
0.0
 11
74.039000000000001
 21
162.488
 31
0.0
  0
LINE
  5
8D
  8
0
 62
     7
 10
71.9358
 20
163.19399999999999
 30
0.0
 11
71.965699999999998
 21
163.54400000000001
 31
0.0
  0
ARC
  5
8E
  8
0
 62
     7
 10
72.06554100000001
 20
163.532905
 30
0.0
 40
0.100434
 50
97.128613999999985
 51
173.54541599999999
  0
ARC
  5
8F
  8
0
 62
     7
 10
72.848787000000002
 20
155.69676299999989
 30
0.0
 40
7.9757629999999997
 50
89.978150000000014
 51
95.725687000000008
  0
LINE
  5
90
  8
0
 62
     7
 10
71.9358
 20
163.19399999999999
 30
0.0
 11
71.725300000000004
 21
163.19399999999999
 31
0.0
  0
LINE
  5
91
  8
0
 62
     7
 10
71.517200000000003
 20
160.76900000000001
 30
0.0
 11
71.725300000000004
 21
163.19399999999999
 31
0.0
  0
LINE
  5
92
  8
0
 62
     7
 10
73.767700000000005
 20
163.19399999999999
 30
0.0
 11
73.737700000000004
 21
163.54400000000001
 31
0.0
  0
ARC
  5
93
  8
0
 62
     7
 10
73.638079000000005
 20
163.53304
 30
0.0
 40
0.100283
 50
6.3867010000000013
 51
82.939228999999997
  0
ARC
  5
94
  8
0
 62
     7
 10
72.857664999999997
 20
155.756338
 30
0.0
 40
7.9161899999999994
 50
84.252657999999997
 51
90.042237999999998
  0
LINE
  5
95
  8
0
 62
     7
 10
73.767700000000005
 20
163.19399999999999
 30
0.0
 11
73.9786
 21
163.19399999999999
 31
0.0
  0
LINE
  5
96
  8
0
 62
     7
 10
74.186300000000003
 20
160.76900000000001
 30
0.0
 11
73.9786
 21
163.19399999999999
 31
0.0
  0
ARC
  5
97
  8
0
 62
     7
 10
72.853549999999998
 20
160.244462
 30
0.0
 40
1.3820099999999991
 50
238.70924100000011
 51
269.92859600000003
  0
ARC
  5
98
  8
0
 62
     7
 10
72.850149000000002
 20
160.24369200000001
 30
0.0
 40
1.38124
 50
270.06966
 51
301.2997180000001
  0
ARC
  5
99
  8
0
 62
     7
 10
72.832291999999995
 20
160.20645500000001
 30
0.0
 40
1.4063709999999989
 50
26.043658000000001
 51
89.204082000000014
  0
ARC
  5
9A
  8
0
 62
     7
 10
72.871362000000005
 20
160.20618200000001
 30
0.0
 40
1.406644
 50
90.795681999999999
 51
153.94936300000001
  0
LINE
  5
9B
  8
0
 62
     7
 10
71.226799999999983
 20
160.53999999999999
 30
0.0
 11
71.226799999999983
 21
162.488
 31
0.0
  0
LINE
  5
9C
  8
0
 62
     7
 10
74.476699999999994
 20
160.53999999999999
 30
0.0
 11
74.476699999999994
 21
162.488
 31
0.0
  0
LINE
  5
9D
  8
0
 62
     7
 10
71.851699999999994
 20
157.988
 30
0.0
 11
73.851900000000001
 21
157.988
 31
0.0
  0
LINE
  5
9E
  8
0
 62
     7
 10
71.851699999999994
 20
218.83199999999999
 30
0.0
 11
71.851699999999994
 21
220.69
 31
0.0
  0
LINE
  5
9F
  8
0
 62
     7
 10
73.851799999999997
 20
218.83199999999999
 30
0.0
 11
73.851799999999997
 21
220.69
 31
0.0
  0
LINE
  5
A0
  8
0
 62
     7
 10
71.851699999999994
 20
157.245
 30
0.0
 11
71.851699999999994
 21
159.316
 31
0.0
  0
LINE
  5
A1
  8
0
 62
     7
 10
73.851900000000001
 20
157.245
 30
0.0
 11
73.851900000000001
 21
159.316
 31
0.0
  0
ARC
  5
A2
  8
0
 62
     7
 10
72.850957999999991
 20
160.23402100000001
 30
0.0
 40
1.309038999999999
 50
240.79557800000001
 51
270.03809100000001
  0
ARC
  5
A3
  8
0
 62
     7
 10
72.850156000000013
 20
160.24445299999999
 30
0.0
 40
1.3194719999999991
 50
270.07258200000001
 51
299.08627100000001
  0
ARC
  5
A4
  8
0
 62
     7
 10
72.834727000000001
 20
160.208293
 30
0.0
 40
1.3419769999999991
 50
29.802057000000001
 51
89.269846999999999
  0
ARC
  5
A5
  8
0
 62
     7
 10
72.86827199999999
 20
160.209112
 30
0.0
 40
1.3411500000000001
 50
90.702535000000012
 51
150.21800400000001
  0
LINE
  5
A6
  8
0
 62
     7
 10
71.776399999999995
 20
227.14699999999999
 30
0.0
 11
71.539199999999994
 21
227.14699999999999
 31
0.0
  0
LINE
  5
A7
  8
0
 62
     7
 10
71.720500000000001
 20
228.02199999999999
 30
0.0
 11
71.539199999999994
 21
228.02199999999999
 31
0.0
  0
LINE
  5
A8
  8
0
 62
     7
 10
71.539199999999994
 20
223.89699999999999
 30
0.0
 11
71.539199999999994
 21
228.02199999999999
 31
0.0
  0
LINE
  5
A9
  8
0
 62
     7
 10
72.851799999999997
 20
224.02199999999999
 30
0.0
 11
72.211399999999998
 21
224.02199999999999
 31
0.0
  0
LINE
  5
AA
  8
0
 62
     7
 10
74.039400000000001
 20
228.89699999999999
 30
0.0
 11
71.664299999999997
 21
228.89699999999999
 31
0.0
  0
LINE
  5
AB
  8
0
 62
     7
 10
73.914299999999983
 20
223.64699999999999
 30
0.0
 11
71.789400000000001
 21
223.64699999999999
 31
0.0
  0
ARC
  5
AC
  8
0
 62
     7
 10
73.904648999999992
 20
223.90714199999999
 30
0.0
 40
0.259955
 50
272.128085
 51
357.83245099999999
  0
ARC
  5
AD
  8
0
 62
     7
 10
71.798843999999974
 20
223.90697900000001
 30
0.0
 40
0.259786
 50
182.1331439999999
 51
267.90635900000001
  0
LINE
  5
AE
  8
0
 62
     7
 10
72.414299999999997
 20
223.11500000000001
 30
0.0
 11
72.414299999999997
 21
223.64699999999999
 31
0.0
  0
LINE
  5
AF
  8
0
 62
     7
 10
109.877
 20
162.16200000000001
 30
0.0
 11
112.678
 21
161.72399999999999
 31
0.0
  0
LINE
  5
B0
  8
0
 62
     7
 10
108.446
 20
163.167
 30
0.0
 11
108.687
 21
162.86000000000001
 31
0.0
  0
ARC
  5
B1
  8
0
 62
     7
 10
110.18226
 20
164.045762
 30
0.0
 40
1.908061
 50
218.41561600000011
 51
260.77888799999999
  0
LINE
  5
B2
  8
0
 62
     7
 10
113.432
 20
162.49600000000001
 30
0.0
 11
109.663
 21
163.08600000000001
 31
0.0
  0
LINE
  5
B3
  8
0
 62
     7
 10
108.938
 20
163.553
 30
0.0
 11
108.999
 21
163.47499999999999
 31
0.0
  0
ARC
  5
B4
  8
0
 62
     7
 10
109.830804
 20
164.132228
 30
0.0
 40
1.05996
 50
218.33521500000001
 51
260.88594899999998
  0
LINE
  5
B5
  8
0
 62
     7
 10
112.43000000000001
 20
159.32900000000001
 30
0.0
 11
112.783
 21
161.58099999999999
 31
0.0
  0
ARC
  5
B6
  8
0
 62
     7
 10
112.55436
 20
161.60700800000001
 30
0.0
 40
0.22992
 50
353.50369899999998
 51
358.32506799999999
  0
ARC
  5
B7
  8
0
 62
     7
 10
112.655118
 20
161.5967389999999
 30
0.0
 40
0.129113
 50
1.574929
 51
79.759139000000005
  0
LINE
  5
B8
  8
0
 62
     7
 10
113.541
 20
159.155
 30
0.0
 11
113.953
 21
161.78200000000001
 31
0.0
  0
ARC
  5
B9
  8
0
 62
     7
 10
113.343447
 20
161.87351000000001
 30
0.0
 40
0.6162260000000001
 50
351.413073
 51
0.4302100000000001
  0
ARC
  5
BA
  8
0
 62
     7
 10
113.313794
 20
161.86027200000001
 30
0.0
 40
0.6461090000000002
 50
1.5843809999999989
 51
79.470584000000002
  0
LINE
  5
BB
  8
0
 62
     7
 10
114.379
 20
162.488
 30
0.0
 11
114.285
 21
161.82499999999999
 31
0.0
  0
ARC
  5
BC
  8
0
 62
     7
 10
114.029821
 20
161.86867699999999
 30
0.0
 40
0.258782
 50
272.31441000000001
 51
350.26280200000002
  0
LINE
  5
BD
  8
0
 62
     7
 10
111.505
 20
158.89099999999999
 30
0.0
 11
111.505
 21
161.584
 31
0.0
  0
LINE
  5
BE
  8
0
 62
     7
 10
112.38
 20
158.88200000000001
 30
0.0
 11
112.38
 21
161.59299999999999
 31
0.0
  0
LINE
  5
BF
  8
0
 62
     7
 10
113.40900000000001
 20
158.87200000000001
 30
0.0
 11
114.04000000000001
 21
158.86500000000001
 31
0.0
  0
LINE
  5
C0
  8
0
 62
     7
 10
108.255
 20
158.92500000000001
 30
0.0
 11
112.554
 21
158.88
 31
0.0
  0
ARC
  5
C1
  8
0
 62
     7
 10
113.00969499999999
 20
159.259387
 30
0.0
 40
0.5838270000000002
 50
173.15969699999999
 51
259.02641899999998
  0
ARC
  5
C2
  8
0
 62
     7
 10
112.967555
 20
159.266817
 30
0.0
 40
0.5846670000000001
 50
263.22289599999999
 51
348.96867200000003
  0
ARC
  5
C3
  8
0
 62
     7
 10
108.69011
 20
163.342975
 30
0.0
 40
0.324927
 50
40.264308999999997
 51
125.995154
  0
ARC
  5
C4
  8
0
 62
     7
 10
108.708293
 20
163.35799600000001
 30
0.0
 40
0.324316
 50
130.15733299999999
 51
216.05246199999999
  0
LINE
  5
C5
  8
0
 62
     7
 10
114.379
 20
157.988
 30
0.0
 11
114.285
 21
158.65000000000001
 31
0.0
  0
ARC
  5
C6
  8
0
 62
     7
 10
114.030528
 20
158.607237
 30
0.0
 40
0.257984
 50
9.6328209999999999
 51
87.835544999999996
  0
LINE
  5
C7
  8
0
 62
     7
 10
113.926
 20
161.60900000000001
 30
0.0
 11
114.04000000000001
 21
161.61000000000001
 31
0.0
  0
LINE
  5
C8
  8
0
 62
     7
 10
108.255
 20
161.55000000000001
 30
0.0
 11
112.78400000000001
 21
161.59700000000001
 31
0.0
  0
LINE
  5
C9
  8
0
 62
     7
 10
114.379
 20
157.988
 30
0.0
 11
117.629
 21
157.988
 31
0.0
  0
LINE
  5
CA
  8
0
 62
     7
 10
114.379
 20
162.488
 30
0.0
 11
117.629
 21
162.488
 31
0.0
  0
LINE
  5
CB
  8
0
 62
     7
 10
117.629
 20
157.988
 30
0.0
 11
117.629
 21
162.488
 31
0.0
  0
ARC
  5
CC
  8
0
 62
     7
 10
112.99782
 20
159.35583399999999
 30
0.0
 40
0.194385
 50
2.0194259999999988
 51
87.980564000000001
  0
ARC
  5
CD
  8
0
 62
     7
 10
113.01149100000001
 20
159.35514699999999
 30
0.0
 40
0.195071
 50
92.004105000000024
 51
177.785606
  0
ARC
  5
CE
  8
0
 62
     7
 10
113.011028
 20
159.36957799999999
 30
0.0
 40
0.194584
 50
182.03032099999999
 51
268.12733100000003
  0
ARC
  5
CF
  8
0
 62
     7
 10
112.99780699999999
 20
159.36936800000001
 30
0.0
 40
0.194391
 50
272.02297099999998
 51
358.02967699999999
  0
LINE
  5
D0
  8
0
  6
AIGENLINE001
 62
     7
 10
106.708
 20
160.238
 30
0.0
 11
118.03400000000001
 21
160.238
 31
0.0
  0
LINE
  5
D1
  8
0
 62
     7
 10
108.004
 20
159.17500000000001
 30
0.0
 11
108.004
 21
161.30000000000001
 31
0.0
  0
ARC
  5
D2
  8
0
 62
     7
 10
108.264207
 20
159.184763
 30
0.0
 40
0.25996
 50
182.13073
 51
267.86930000000001
  0
ARC
  5
D3
  8
0
 62
     7
 10
108.264207
 20
161.290381
 30
0.0
 40
0.25996
 50
92.130700000000004
 51
177.86927
  0
LINE
  5
D4
  8
0
 62
     7
 10
107.307
 20
160.67500000000001
 30
0.0
 11
108.004
 21
160.67500000000001
 31
0.0
  0
ARC
  5
D5
  8
0
 62
     7
 10
107.309178
 20
162.558536
 30
0.0
 40
1.8834349999999991
 50
239.94620499999999
 51
269.92737599999998
  0
LINE
  5
D6
  8
0
 62
     7
 10
107.396
 20
159.80000000000001
 30
0.0
 11
108.004
 21
159.80000000000001
 31
0.0
  0
LINE
  5
D7
  8
0
 62
     7
 10
107.194
 20
159.52099999999999
 30
0.0
 11
107.248
 21
159.691
 31
0.0
  0
ARC
  5
D8
  8
0
 62
     7
 10
107.399553
 20
159.63977
 30
0.0
 40
0.160476
 50
91.139137000000034
 51
161.31674599999999
  0
LINE
  5
D9
  8
0
  6
AIGENLINE001
 62
     7
 10
104.14100000000001
 20
160.23500000000001
 30
0.0
 11
105.97799999999999
 21
158.04599999999999
 31
0.0
  0
ARC
  5
DA
  8
0
 62
     7
 10
107.04600499999999
 20
159.56752700000001
 30
0.0
 40
0.154888
 50
309.66478899999998
 51
342.58080699999999
  0
ARC
  5
DB
  8
0
 62
     7
 10
105.87996699999999
 20
160.954836
 30
0.0
 40
0.157661
 50
76.789734999999993
 51
129.71541300000001
  0
ARC
  5
DC
  8
0
 62
     7
 10
105.525477
 20
159.48266899999999
 30
0.0
 40
1.6719040000000001
 50
59.821780000000011
 51
76.49220600000001
  0
LINE
  5
DD
  8
0
 62
     7
 10
104.51900000000001
 20
157.244
 30
0.0
 11
107.145
 21
159.44800000000001
 31
0.0
  0
LINE
  5
DE
  8
0
 62
     7
 10
103.18899999999999
 20
158.90299999999999
 30
0.0
 11
105.779
 21
161.07599999999999
 31
0.0
  0
ARC
  5
DF
  8
0
 62
     7
 10
105.229507
 20
159.131844
 30
0.0
 40
2.0535030000000001
 50
186.40994599999999
 51
235.86110400000001
  0
ARC
  5
E0
  8
0
 62
     7
 10
104.88498
 20
158.71919800000001
 30
0.0
 40
1.51956
 50
237.88180500000001
 51
256.05019900000008
  0
LINE
  5
E1
  8
0
 62
     7
 10
120.794
 20
185.12200000000001
 30
0.0
 11
123.004
 21
185.714
 31
0.0
  0
LINE
  5
E2
  8
0
 62
     7
 10
123.004
 20
185.714
 30
0.0
 11
120.794
 21
186.30699999999999
 31
0.0
  0
LINE
  5
E3
  8
0
 62
     7
 10
120.794
 20
186.30699999999999
 30
0.0
 11
120.794
 21
185.12200000000001
 31
0.0
  0
LINE
  5
E4
  8
0
 62
     7
 10
126.09
 20
186.292
 30
0.0
 11
123.88
 21
185.69999999999999
 31
0.0
  0
LINE
  5
E5
  8
0
 62
     7
 10
123.88
 20
185.69999999999999
 30
0.0
 11
126.09
 21
185.107
 31
0.0
  0
LINE
  5
E6
  8
0
 62
     7
 10
126.09
 20
185.107
 30
0.0
 11
126.09
 21
186.292
 31
0.0
  0
LINE
  5
E7
  8
0
 62
     7
 10
128.22499999999999
 20
185.69999999999999
 30
0.0
 11
119.505
 21
185.69999999999999
 31
0.0
  0
LINE
  5
E8
  8
0
 62
     7
 10
121.669
 20
206.99100000000001
 30
0.0
 11
123.88
 21
207.583
 31
0.0
  0
LINE
  5
E9
  8
0
 62
     7
 10
123.88
 20
207.583
 30
0.0
 11
121.669
 21
208.17500000000001
 31
0.0
  0
LINE
  5
EA
  8
0
 62
     7
 10
121.669
 20
208.17500000000001
 30
0.0
 11
121.669
 21
206.99100000000001
 31
0.0
  0
LINE
  5
EB
  8
0
 62
     7
 10
118.215
 20
208.161
 30
0.0
 11
116.005
 21
207.56800000000001
 31
0.0
  0
LINE
  5
EC
  8
0
 62
     7
 10
116.005
 20
207.56800000000001
 30
0.0
 11
118.215
 21
206.976
 31
0.0
  0
LINE
  5
ED
  8
0
 62
     7
 10
118.215
 20
206.976
 30
0.0
 11
118.215
 21
208.161
 31
0.0
  0
LINE
  5
EE
  8
0
 62
     7
 10
123.88
 20
207.57599999999999
 30
0.0
 11
116.005
 21
207.57599999999999
 31
0.0
  0
LINE
  5
EF
  8
0
 62
     7
 10
116.005
 20
201.905
 30
0.0
 11
116.005
 21
208.27600000000001
 31
0.0
  0
LINE
  5
F0
  8
0
 62
     7
 10
123.004
 20
185.04300000000001
 30
0.0
 11
123.004
 21
192.53
 31
0.0
  0
LINE
  5
F1
  8
0
 62
     7
 10
123.88
 20
185.04300000000001
 30
0.0
 11
123.88
 21
192.53
 31
0.0
  0
LINE
  5
F2
  8
0
 62
     7
 10
123.88
 20
202.95699999999999
 30
0.0
 11
123.88
 21
208.27600000000001
 31
0.0
  0
LINE
  5
F3
  8
0
 62
     7
 10
134.375
 20
195.26499999999999
 30
0.0
 11
134.96799999999999
 21
193.05500000000001
 31
0.0
  0
LINE
  5
F4
  8
0
 62
     7
 10
134.96799999999999
 20
193.05500000000001
 30
0.0
 11
135.56
 21
195.26499999999999
 31
0.0
  0
LINE
  5
F5
  8
0
 62
     7
 10
135.56
 20
195.26499999999999
 30
0.0
 11
134.375
 21
195.26499999999999
 31
0.0
  0
LINE
  5
F6
  8
0
 62
     7
 10
135.54499999999999
 20
200.221
 30
0.0
 11
134.953
 21
202.43100000000001
 31
0.0
  0
LINE
  5
F7
  8
0
 62
     7
 10
134.953
 20
202.43100000000001
 30
0.0
 11
134.36099999999999
 21
200.221
 31
0.0
  0
LINE
  5
F8
  8
0
 62
     7
 10
134.36099999999999
 20
200.221
 30
0.0
 11
135.54499999999999
 21
200.221
 31
0.0
  0
LINE
  5
F9
  8
0
 62
     7
 10
134.96000000000001
 20
193.05500000000001
 30
0.0
 11
134.96000000000001
 21
202.43100000000001
 31
0.0
  0
LINE
  5
FA
  8
0
 62
     7
 10
149.15600000000001
 20
200.221
 30
0.0
 11
148.56299999999999
 21
202.43100000000001
 31
0.0
  0
LINE
  5
FB
  8
0
 62
     7
 10
148.56299999999999
 20
202.43100000000001
 30
0.0
 11
147.971
 21
200.221
 31
0.0
  0
LINE
  5
FC
  8
0
 62
     7
 10
147.971
 20
200.221
 30
0.0
 11
149.15600000000001
 21
200.221
 31
0.0
  0
LINE
  5
FD
  8
0
 62
     7
 10
147.98599999999999
 20
57.765700000000002
 30
0.0
 11
148.578
 21
55.555300000000003
 31
0.0
  0
LINE
  5
FE
  8
0
 62
     7
 10
148.578
 20
55.555300000000003
 30
0.0
 11
149.1699999999999
 21
57.765700000000002
 31
0.0
  0
LINE
  5
FF
  8
0
 62
     7
 10
149.1699999999999
 20
57.765700000000002
 30
0.0
 11
147.98599999999999
 21
57.765700000000002
 31
0.0
  0
LINE
  5
100
  8
0
 62
     7
 10
148.571
 20
202.43100000000001
 30
0.0
 11
148.571
 21
55.555300000000003
 31
0.0
  0
LINE
  5
101
  8
0
 62
     7
 10
135.66
 20
193.05500000000001
 30
0.0
 11
124.405
 21
193.05500000000001
 31
0.0
  0
LINE
  5
102
  8
0
 62
     7
 10
149.27099999999999
 20
202.43100000000001
 30
0.0
 11
124.405
 21
202.43100000000001
 31
0.0
  0
LINE
  5
103
  8
0
 62
     7
 10
149.27099999999999
 20
55.555300000000003
 30
0.0
 11
124.405
 21
55.555300000000003
 31
0.0
  0
LINE
  5
104
  8
0
 62
     7
 10
140.364
 20
195.53299999999999
 30
0.0
 11
139.77199999999999
 21
197.74299999999999
 31
0.0
  0
LINE
  5
105
  8
0
 62
     7
 10
139.77199999999999
 20
197.74299999999999
 30
0.0
 11
139.18000000000001
 21
195.53299999999999
 31
0.0
  0
LINE
  5
106
  8
0
 62
     7
 10
139.18000000000001
 20
195.53299999999999
 30
0.0
 11
140.364
 21
195.53299999999999
 31
0.0
  0
LINE
  5
107
  8
0
 62
     7
 10
139.19399999999999
 20
62.453800000000001
 30
0.0
 11
139.78700000000001
 21
60.243400000000001
 31
0.0
  0
LINE
  5
108
  8
0
 62
     7
 10
139.78700000000001
 20
60.243400000000001
 30
0.0
 11
140.37899999999999
 21
62.453800000000001
 31
0.0
  0
LINE
  5
109
  8
0
 62
     7
 10
140.37899999999999
 20
62.453800000000001
 30
0.0
 11
139.19399999999999
 21
62.453800000000001
 31
0.0
  0
LINE
  5
10A
  8
0
 62
     7
 10
139.779
 20
197.74299999999999
 30
0.0
 11
139.779
 21
60.243400000000001
 31
0.0
  0
LINE
  5
10B
  8
0
 62
     7
 10
72.650499999999994
 20
241.512
 30
0.0
 11
72.851799999999997
 21
242.02199999999999
 31
0.0
  0
LINE
  5
10C
  8
0
 62
     7
 10
73.052700000000002
 20
241.512
 30
0.0
 11
72.851799999999997
 21
242.02199999999999
 31
0.0
  0
LINE
  5
10D
  8
0
  6
AIGENLINE001
 62
     7
 10
72.851799999999997
 20
242.45599999999999
 30
0.0
 11
72.851799999999997
 21
218.328
 31
0.0
  0
LINE
  5
10E
  8
0
 62
     7
 10
73.052700000000002
 20
241.512
 30
0.0
 11
73.052700000000002
 21
239.52199999999999
 31
0.0
  0
LINE
  5
10F
  8
0
 62
     7
 10
72.650499999999994
 20
241.512
 30
0.0
 11
72.650499999999994
 21
239.52199999999999
 31
0.0
  0
LINE
  5
110
  8
0
 62
     7
 10
73.226699999999994
 20
239.99199999999999
 30
0.0
 11
72.476699999999994
 21
239.666
 31
0.0
  0
LINE
  5
111
  8
0
 62
     7
 10
73.226699999999994
 20
240.28800000000001
 30
0.0
 11
72.476699999999994
 21
239.96199999999999
 31
0.0
  0
LINE
  5
112
  8
0
 62
     7
 10
73.226699999999994
 20
240.583
 30
0.0
 11
72.476699999999994
 21
240.25800000000001
 31
0.0
  0
LINE
  5
113
  8
0
 62
     7
 10
73.226699999999994
 20
240.87899999999999
 30
0.0
 11
72.476699999999994
 21
240.553
 31
0.0
  0
LINE
  5
114
  8
0
 62
     7
 10
73.226699999999994
 20
241.17500000000001
 30
0.0
 11
72.476699999999994
 21
240.84899999999999
 31
0.0
  0
LINE
  5
115
  8
0
 62
     7
 10
73.226699999999994
 20
241.471
 30
0.0
 11
72.476699999999994
 21
241.14500000000001
 31
0.0
  0
LINE
  5
116
  8
0
 62
     7
 10
73.103300000000004
 20
241.71299999999999
 30
0.0
 11
72.526300000000006
 21
241.46199999999999
 31
0.0
  0
LINE
  5
117
  8
0
 62
     7
 10
125.869
 20
197.94399999999999
 30
0.0
 11
126.38
 21
197.74299999999999
 31
0.0
  0
LINE
  5
118
  8
0
 62
     7
 10
125.869
 20
197.542
 30
0.0
 11
126.38
 21
197.74299999999999
 31
0.0
  0
LINE
  5
119
  8
0
 62
     7
 10
140.47900000000001
 20
197.74299999999999
 30
0.0
 11
135.626
 21
197.74299999999999
 31
0.0
  0
LINE
  5
11A
  8
0
 62
     7
 10
131.02000000000001
 20
197.74299999999999
 30
0.0
 11
127.33799999999999
 21
197.74299999999999
 31
0.0
  0
LINE
  5
11B
  8
0
 62
     7
 10
140.47900000000001
 20
60.243400000000001
 30
0.0
 11
127.33799999999999
 21
60.243400000000001
 31
0.0
  0
LINE
  5
11C
  8
0
  6
AIGENLINE001
 62
     7
 10
126.813
 20
197.74299999999999
 30
0.0
 11
112.23399999999999
 21
197.74299999999999
 31
0.0
  0
LINE
  5
11D
  8
0
 62
     7
 10
125.869
 20
197.542
 30
0.0
 11
123.88
 21
197.542
 31
0.0
  0
LINE
  5
11E
  8
0
 62
     7
 10
125.869
 20
197.94399999999999
 30
0.0
 11
123.88
 21
197.94399999999999
 31
0.0
  0
LINE
  5
11F
  8
0
 62
     7
 10
124.349
 20
197.36799999999999
 30
0.0
 11
124.024
 21
198.11799999999999
 31
0.0
  0
LINE
  5
120
  8
0
 62
     7
 10
124.645
 20
197.36799999999999
 30
0.0
 11
124.319
 21
198.11799999999999
 31
0.0
  0
LINE
  5
121
  8
0
 62
     7
 10
124.941
 20
197.36799999999999
 30
0.0
 11
124.61499999999999
 21
198.11799999999999
 31
0.0
  0
LINE
  5
122
  8
0
 62
     7
 10
125.23699999999999
 20
197.36799999999999
 30
0.0
 11
124.911
 21
198.11799999999999
 31
0.0
  0
LINE
  5
123
  8
0
 62
     7
 10
125.532
 20
197.36799999999999
 30
0.0
 11
125.20699999999999
 21
198.11799999999999
 31
0.0
  0
LINE
  5
124
  8
0
 62
     7
 10
125.828
 20
197.36799999999999
 30
0.0
 11
125.502
 21
198.11799999999999
 31
0.0
  0
LINE
  5
125
  8
0
 62
     7
 10
126.071
 20
197.49100000000001
 30
0.0
 11
125.81999999999999
 21
198.06899999999999
 31
0.0
  0
LINE
  5
126
  8
0
 62
     7
 10
125.869
 20
60.444600000000001
 30
0.0
 11
126.38
 21
60.243400000000001
 31
0.0
  0
LINE
  5
127
  8
0
 62
     7
 10
125.869
 20
60.042200000000001
 30
0.0
 11
126.38
 21
60.243400000000001
 31
0.0
  0
LINE
  5
128
  8
0
  6
AIGENLINE001
 62
     7
 10
126.813
 20
60.243400000000001
 30
0.0
 11
112.23399999999999
 21
60.243400000000001
 31
0.0
  0
LINE
  5
129
  8
0
 62
     7
 10
125.869
 20
60.042200000000001
 30
0.0
 11
123.88
 21
60.042200000000001
 31
0.0
  0
LINE
  5
12A
  8
0
 62
     7
 10
125.869
 20
60.444600000000001
 30
0.0
 11
123.88
 21
60.444600000000001
 31
0.0
  0
LINE
  5
12B
  8
0
 62
     7
 10
124.349
 20
59.868600000000001
 30
0.0
 11
124.024
 21
60.618200000000002
 31
0.0
  0
LINE
  5
12C
  8
0
 62
     7
 10
124.645
 20
59.868600000000001
 30
0.0
 11
124.319
 21
60.618200000000002
 31
0.0
  0
LINE
  5
12D
  8
0
 62
     7
 10
124.941
 20
59.868600000000001
 30
0.0
 11
124.61499999999999
 21
60.618200000000002
 31
0.0
  0
LINE
  5
12E
  8
0
 62
     7
 10
125.23699999999999
 20
59.868600000000001
 30
0.0
 11
124.911
 21
60.618200000000002
 31
0.0
  0
LINE
  5
12F
  8
0
 62
     7
 10
125.532
 20
59.868600000000001
 30
0.0
 11
125.20699999999999
 21
60.618200000000002
 31
0.0
  0
LINE
  5
130
  8
0
 62
     7
 10
125.828
 20
59.868600000000001
 30
0.0
 11
125.502
 21
60.618200000000002
 31
0.0
  0
LINE
  5
131
  8
0
 62
     7
 10
126.071
 20
59.991500000000002
 30
0.0
 11
125.81999999999999
 21
60.568600000000004
 31
0.0
  0
ARC
  5
132
  8
0
 62
     7
 10
115.321252
 20
195.490207
 30
0.0
 40
0.333157
 50
118.302384
 51
139.765691
  0
ARC
  5
133
  8
0
 62
     7
 10
115.53590800000001
 20
195.132137
 30
0.0
 40
0.7504430000000001
 50
104.43172
 51
119.77039000000001
  0
ARC
  5
134
  8
0
 62
     7
 10
115.820891
 20
194.16524999999999
 30
0.0
 40
1.7581939999999989
 50
95.188633999999979
 51
105.57291600000001
  0
ARC
  5
135
  8
0
 62
     7
 10
116.000562
 20
192.693209
 30
0.0
 40
3.240775999999999
 50
89.927233999999999
 51
95.998579000000007
  0
ARC
  5
136
  8
0
 62
     7
 10
116.688103
 20
195.490207
 30
0.0
 40
0.333157
 50
40.234288999999997
 51
61.697597000000002
  0
ARC
  5
137
  8
0
 62
     7
 10
116.47344699999999
 20
195.132137
 30
0.0
 40
0.7504430000000001
 50
60.229591000000013
 51
75.568259999999995
  0
ARC
  5
138
  8
0
 62
     7
 10
116.188464
 20
194.16524999999999
 30
0.0
 40
1.7581939999999989
 50
74.427064000000001
 51
84.811346
  0
ARC
  5
139
  8
0
 62
     7
 10
116.008793
 20
192.693209
 30
0.0
 40
3.240775999999999
 50
84.001401999999999
 51
90.072745999999995
  0
ARC
  5
13A
  8
0
 62
     7
 10
115.32129999999999
 20
62.496244999999988
 30
0.0
 40
0.332894
 50
220.167832
 51
241.663757
  0
ARC
  5
13B
  8
0
 62
     7
 10
115.53674599999999
 20
62.855144999999993
 30
0.0
 40
0.7512970000000001
 50
240.193252
 51
255.51906600000001
  0
ARC
  5
13C
  8
0
 62
     7
 10
115.821517
 20
63.820512000000001
 30
0.0
 40
1.7575400000000001
 50
254.399946
 51
264.78893299999999
  0
ARC
  5
13D
  8
0
 62
     7
 10
116.000114
 20
65.270939999999996
 30
0.0
 40
3.2185250000000001
 50
263.96781800000002
 51
270.08124500000002
  0
ARC
  5
13E
  8
0
 62
     7
 10
116.68805500000001
 20
62.496244999999988
 30
0.0
 40
0.332894
 50
298.33626199999998
 51
319.83218799999997
  0
ARC
  5
13F
  8
0
 62
     7
 10
116.47260900000001
 20
62.855144999999993
 30
0.0
 40
0.7512970000000001
 50
284.480954
 51
299.80676800000009
  0
ARC
  5
140
  8
0
 62
     7
 10
116.187838
 20
63.820512000000001
 30
0.0
 40
1.7575400000000001
 50
275.21108700000002
 51
285.60007400000001
  0
ARC
  5
141
  8
0
 62
     7
 10
116.009241
 20
65.270939999999996
 30
0.0
 40
3.2185250000000001
 50
269.91877499999998
 51
276.03220199999998
  0
ARC
  5
142
  8
0
 62
     7
 10
74.850517000000011
 20
229.48357200000001
 30
0.0
 40
0.038777
 50
2.029510999999999
 51
87.970478999999997
  0
ARC
  5
143
  8
0
 62
     7
 10
74.850588000000002
 20
228.93606299999999
 30
0.0
 40
0.038704
 50
271.928675
 51
358.07133499999998
  0
ARC
  5
144
  8
0
 62
     7
 10
70.852684999999994
 20
229.483509
 30
0.0
 40
0.038843
 50
92.119906999999984
 51
177.88006300000001
  0
ARC
  5
145
  8
0
 62
     7
 10
70.852620999999999
 20
228.93613300000001
 30
0.0
 40
0.038777
 50
182.02951399999989
 51
267.97051600000009
  0
ARC
  5
146
  8
0
 62
     7
 10
77.422186999999994
 20
238.737574
 30
0.0
 40
0.090207
 50
271.7085120000001
 51
356.33776899999998
  0
ARC
  5
147
  8
0
 62
     7
 10
68.281637000000003
 20
238.73829599999999
 30
0.0
 40
0.09094
 50
184.088695
 51
268.0904910000001
  0
ARC
  5
148
  8
0
 62
     7
 10
77.280343000000002
 20
193.31449799999999
 30
0.0
 40
0.25978
 50
272.1304970000001
 51
357.86951299999998
  0
ARC
  5
149
  8
0
 62
     7
 10
77.280517000000003
 20
202.17186799999999
 30
0.0
 40
0.259606
 50
2.132903999999999
 51
87.906586999999988
  0
ARC
  5
14A
  8
0
 62
     7
 10
72.851655000000008
 20
197.743357
 30
0.0
 40
2.0376150000000002
 50
359.9951660000001
 51
89.995136000000002
  0
ARC
  5
14B
  8
0
 62
     7
 10
72.851742000000002
 20
197.743099
 30
0.0
 40
2.0378729999999989
 50
89.997578000000004
 51
179.99754899999999
  0
ARC
  5
14C
  8
0
 62
     7
 10
72.851741000000004
 20
197.74327099999999
 30
0.0
 40
2.0378729999999989
 50
180.002431
 51
270.00244100000009
  0
ARC
  5
14D
  8
0
 62
     7
 10
72.851655000000008
 20
197.74301299999999
 30
0.0
 40
2.0376150000000002
 50
270.004864
 51
0.004834
  0
ARC
  5
14E
  8
0
 62
     7
 10
77.280379000000011
 20
55.814856999999989
 30
0.0
 40
0.259763
 50
272.122589
 51
357.75883700000003
  0
LINE
  5
14F
  8
0
 62
     7
 10
77.539900000000003
 20
55.804699999999997
 30
0.0
 11
77.539900000000003
 21
55.805399999999999
 31
0.0
  0
ARC
  5
150
  8
0
 62
     7
 10
77.280521999999991
 20
64.672075000000007
 30
0.0
 40
0.259601
 50
2.131810999999999
 51
87.907679999999985
  0
ARC
  5
151
  8
0
 62
     7
 10
72.773042000000004
 20
60.165317000000002
 30
0.0
 40
2.1176680000000001
 50
2.1127579999999999
 51
87.867858999999996
  0
ARC
  5
152
  8
0
 62
     7
 10
72.929946000000001
 20
60.165447999999998
 30
0.0
 40
2.1175120000000001
 50
92.114190999999977
 51
177.89062200000001
  0
ARC
  5
153
  8
0
 62
     7
 10
72.929749000000001
 20
60.321488000000002
 30
0.0
 40
2.117321
 50
182.11393200000001
 51
267.890941
  0
ARC
  5
154
  8
0
 62
     7
 10
72.773714999999996
 20
60.321142999999999
 30
0.0
 40
2.1169839999999991
 50
272.11460099999999
 51
357.89509700000002
  0
ARC
  5
155
  8
0
 62
     7
 10
68.422962999999996
 20
193.31448599999999
 30
0.0
 40
0.259774
 50
182.127871
 51
267.83265799999998
  0
ARC
  5
156
  8
0
 62
     7
 10
68.422798999999998
 20
202.17187000000001
 30
0.0
 40
0.259611
 50
92.132445999999987
 51
177.867525
  0
ARC
  5
157
  8
0
 62
     7
 10
68.422798999999998
 20
64.672072
 30
0.0
 40
0.259611
 50
92.132445999999987
 51
177.867525
  0
ARC
  5
158
  8
0
 62
     7
 10
68.423131999999995
 20
55.815022999999997
 30
0.0
 40
0.259943
 50
182.124369
 51
267.79668700000002
  0
ARC
  5
159
  8
0
 62
     7
 10
113.84074
 20
195.74439899999999
 30
0.0
 40
0.039016
 50
271.60550699999999
 51
357.87125700000001
  0
ARC
  5
15A
  8
0
 62
     7
 10
113.840317
 20
199.741545
 30
0.0
 40
0.039457
 50
2.7248739999999998
 51
87.798361999999997
  0
ARC
  5
15B
  8
0
 62
     7
 10
113.29344500000001
 20
195.744046
 30
0.0
 40
0.038675
 50
181.624123
 51
267.84783800000002
  0
ARC
  5
15C
  8
0
 62
     7
 10
113.293773
 20
199.74199899999999
 30
0.0
 40
0.039014
 50
92.616254999999995
 51
177.91178400000001
  0
ARC
  5
15D
  8
0
 62
     7
 10
113.841071
 20
58.24428000000001
 30
0.0
 40
0.038687
 50
271.12923599999999
 51
357.81950499999999
  0
ARC
  5
15E
  8
0
 62
     7
 10
113.840164
 20
62.241953000000002
 30
0.0
 40
0.039601
 50
2.4157790000000001
 51
87.584210999999996
  0
ARC
  5
15F
  8
0
 62
     7
 10
113.293362
 20
58.244177999999998
 30
0.0
 40
0.038601
 50
182.033411
 51
267.96661899999998
  0
ARC
  5
160
  8
0
 62
     7
 10
113.2941399999999
 20
62.24219699999999
 30
0.0
 40
0.039381
 50
93.126579000000007
 51
177.92465999999999
  0
ARC
  5
161
  8
0
 62
     7
 10
123.09536
 20
202.312996
 30
0.0
 40
0.090951
 50
93.873242000000005
 51
177.960036
  0
ARC
  5
162
  8
0
 62
     7
 10
123.094871
 20
193.1729
 30
0.0
 40
0.090446
 50
181.75067300000001
 51
266.41604899999999
  0
ARC
  5
163
  8
0
 62
     7
 10
123.09535
 20
64.813209000000001
 30
0.0
 40
0.09094
 50
93.866864000000021
 51
177.96641500000001
  0
ARC
  5
164
  8
0
 62
     7
 10
123.095151
 20
55.673374000000003
 30
0.0
 40
0.090735
 50
181.91682399999999
 51
266.24989799999997
  0
LINE
  5
165
  8
0
 62
     7
 10
77.512200000000007
 20
238.732
 30
0.0
 11
77.539900000000003
 21
239.52199999999999
 31
0.0
  0
LINE
  5
166
  8
0
 62
     7
 10
74.889300000000006
 20
238.64699999999999
 30
0.0
 11
74.889300000000006
 21
228.935
 31
0.0
  0
LINE
  5
167
  8
0
 62
     7
 10
74.851900000000001
 20
228.89699999999999
 30
0.0
 11
70.851200000000006
 21
228.89699999999999
 31
0.0
  0
LINE
  5
168
  8
0
 62
     7
 10
70.813900000000004
 20
229.52199999999999
 30
0.0
 11
74.889300000000006
 21
229.52199999999999
 31
0.0
  0
LINE
  5
169
  8
0
 62
     7
 10
70.813900000000004
 20
238.64699999999999
 30
0.0
 11
70.813900000000004
 21
228.935
 31
0.0
  0
LINE
  5
16A
  8
0
 62
     7
 10
68.163700000000006
 20
239.52199999999999
 30
0.0
 11
68.190899999999999
 21
238.732
 31
0.0
  0
LINE
  5
16B
  8
0
 62
     7
 10
68.278599999999997
 20
238.64699999999999
 30
0.0
 11
77.424899999999994
 21
238.64699999999999
 31
0.0
  0
LINE
  5
16C
  8
0
 62
     7
 10
77.539900000000003
 20
239.52199999999999
 30
0.0
 11
68.163700000000006
 21
239.52199999999999
 31
0.0
  0
LINE
  5
16D
  8
0
 62
     7
 10
77.290000000000006
 20
202.43100000000001
 30
0.0
 11
68.4131
 21
202.43100000000001
 31
0.0
  0
LINE
  5
16E
  8
0
 62
     7
 10
73.789199999999994
 20
193.05500000000001
 30
0.0
 11
77.290000000000006
 21
193.05500000000001
 31
0.0
  0
LINE
  5
16F
  8
0
 62
     7
 10
68.4131
 20
193.05500000000001
 30
0.0
 11
71.914100000000005
 21
193.05500000000001
 31
0.0
  0
LINE
  5
170
  8
0
 62
     7
 10
77.539900000000003
 20
193.30500000000001
 30
0.0
 11
77.539900000000003
 21
202.18199999999999
 31
0.0
  0
LINE
  5
171
  8
0
 62
     7
 10
77.539900000000003
 20
55.805399999999999
 30
0.0
 11
77.539900000000003
 21
64.681700000000006
 31
0.0
  0
LINE
  5
172
  8
0
 62
     7
 10
73.789199999999994
 20
163.19399999999999
 30
0.0
 11
73.789199999999994
 21
195.934
 31
0.0
  0
LINE
  5
173
  8
0
 62
     7
 10
73.789199999999994
 20
62.052799999999998
 30
0.0
 11
73.789199999999994
 21
157.988
 31
0.0
  0
LINE
  5
174
  8
0
 62
     7
 10
71.914100000000005
 20
163.19399999999999
 30
0.0
 11
71.914100000000005
 21
195.934
 31
0.0
  0
LINE
  5
175
  8
0
 62
     7
 10
71.914100000000005
 20
62.052799999999998
 30
0.0
 11
71.914100000000005
 21
157.988
 31
0.0
  0
LINE
  5
176
  8
0
 62
     7
 10
68.163399999999996
 20
64.681700000000006
 30
0.0
 11
68.163399999999996
 21
55.805399999999999
 31
0.0
  0
LINE
  5
177
  8
0
 62
     7
 10
68.163399999999996
 20
202.18199999999999
 30
0.0
 11
68.163399999999996
 21
193.30500000000001
 31
0.0
  0
LINE
  5
178
  8
0
 62
     7
 10
71.914100000000005
 20
64.931499999999986
 30
0.0
 11
68.4131
 21
64.931499999999986
 31
0.0
  0
LINE
  5
179
  8
0
  6
AIGENLINE001
 62
     7
 10
66.764499999999984
 20
197.74299999999999
 30
0.0
 11
78.579999999999998
 21
197.74299999999999
 31
0.0
  0
LINE
  5
17A
  8
0
  6
AIGENLINE001
 62
     7
 10
66.764499999999984
 20
60.243400000000001
 30
0.0
 11
78.579999999999998
 21
60.243400000000001
 31
0.0
  0
LINE
  5
17B
  8
0
 62
     7
 10
77.290000000000006
 20
64.931499999999986
 30
0.0
 11
73.789199999999994
 21
64.931499999999986
 31
0.0
  0
LINE
  5
17C
  8
0
 62
     7
 10
68.4131
 20
55.555300000000003
 30
0.0
 11
77.290000000000006
 21
55.555300000000003
 31
0.0
  0
LINE
  5
17D
  8
0
 62
     7
 10
123.089
 20
202.404
 30
0.0
 11
123.88
 21
202.43100000000001
 31
0.0
  0
LINE
  5
17E
  8
0
 62
     7
 10
113.842
 20
199.78100000000001
 30
0.0
 11
113.292
 21
199.78100000000001
 31
0.0
  0
LINE
  5
17F
  8
0
 62
     7
 10
113.88
 20
199.78100000000001
 30
0.0
 11
123.004
 21
199.78100000000001
 31
0.0
  0
LINE
  5
180
  8
0
 62
     7
 10
113.842
 20
195.70500000000001
 30
0.0
 11
113.292
 21
195.70500000000001
 31
0.0
  0
LINE
  5
181
  8
0
 62
     7
 10
116.94199999999999
 20
195.70500000000001
 30
0.0
 11
123.004
 21
195.70500000000001
 31
0.0
  0
LINE
  5
182
  8
0
 62
     7
 10
113.88
 20
195.70500000000001
 30
0.0
 11
115.06699999999999
 21
195.70500000000001
 31
0.0
  0
LINE
  5
183
  8
0
 62
     7
 10
123.88
 20
193.05500000000001
 30
0.0
 11
123.089
 21
193.083
 31
0.0
  0
LINE
  5
184
  8
0
 62
     7
 10
113.255
 20
195.74299999999999
 30
0.0
 11
113.255
 21
199.74299999999999
 31
0.0
  0
LINE
  5
185
  8
0
 62
     7
 10
113.255
 20
58.242800000000003
 30
0.0
 11
113.255
 21
62.243600000000001
 31
0.0
  0
LINE
  5
186
  8
0
 62
     7
 10
113.88
 20
195.70500000000001
 30
0.0
 11
113.88
 21
199.78100000000001
 31
0.0
  0
LINE
  5
187
  8
0
 62
     7
 10
113.88
 20
62.281500000000001
 30
0.0
 11
113.88
 21
58.205599999999997
 31
0.0
  0
LINE
  5
188
  8
0
 62
     7
 10
115.06699999999999
 20
162.488
 30
0.0
 11
115.06699999999999
 21
195.70500000000001
 31
0.0
  0
LINE
  5
189
  8
0
  6
AIGENLINE001
 62
     7
 10
72.851799999999997
 20
54.23919999999999
 30
0.0
 11
72.851799999999997
 21
203.64500000000001
 31
0.0
  0
LINE
  5
18A
  8
0
  6
AIGENLINE001
 62
     7
 10
116.005
 20
56.889200000000002
 30
0.0
 11
116.005
 21
201.38
 31
0.0
  0
LINE
  5
18B
  8
0
 62
     7
 10
115.06699999999999
 20
62.281500000000001
 30
0.0
 11
115.06699999999999
 21
157.988
 31
0.0
  0
LINE
  5
18C
  8
0
 62
     7
 10
116.94199999999999
 20
162.488
 30
0.0
 11
116.94199999999999
 21
195.70500000000001
 31
0.0
  0
LINE
  5
18D
  8
0
 62
     7
 10
116.94199999999999
 20
62.281500000000001
 30
0.0
 11
116.94199999999999
 21
157.988
 31
0.0
  0
LINE
  5
18E
  8
0
 62
     7
 10
123.004
 20
193.16999999999999
 30
0.0
 11
123.004
 21
202.316
 31
0.0
  0
LINE
  5
18F
  8
0
 62
     7
 10
123.004
 20
55.67029999999999
 30
0.0
 11
123.004
 21
64.816400000000002
 31
0.0
  0
LINE
  5
190
  8
0
 62
     7
 10
123.88
 20
64.931499999999986
 30
0.0
 11
123.88
 21
55.555300000000003
 31
0.0
  0
LINE
  5
191
  8
0
 62
     7
 10
123.88
 20
202.43100000000001
 30
0.0
 11
123.88
 21
193.05500000000001
 31
0.0
  0
LINE
  5
192
  8
0
 62
     7
 10
123.089
 20
64.903899999999993
 30
0.0
 11
123.88
 21
64.931499999999986
 31
0.0
  0
LINE
  5
193
  8
0
 62
     7
 10
113.842
 20
62.281500000000001
 30
0.0
 11
113.292
 21
62.281500000000001
 31
0.0
  0
LINE
  5
194
  8
0
 62
     7
 10
116.94199999999999
 20
62.281500000000001
 30
0.0
 11
123.004
 21
62.281500000000001
 31
0.0
  0
LINE
  5
195
  8
0
 62
     7
 10
113.88
 20
62.281500000000001
 30
0.0
 11
115.06699999999999
 21
62.281500000000001
 31
0.0
  0
LINE
  5
196
  8
0
 62
     7
 10
113.842
 20
58.205599999999997
 30
0.0
 11
113.292
 21
58.205599999999997
 31
0.0
  0
LINE
  5
197
  8
0
 62
     7
 10
113.88
 20
58.205599999999997
 30
0.0
 11
123.004
 21
58.205599999999997
 31
0.0
  0
LINE
  5
198
  8
0
 62
     7
 10
123.88
 20
55.555300000000003
 30
0.0
 11
123.089
 21
55.582799999999992
 31
0.0
  0
TEXT
  5
199
  8
_________2
 62
     7
 10
109.179
 20
24.226099999999999
 30
0.0
 40
3.9357000000000002
  1
アヴァ ウォールバー
 41
0.5
  0
LINE
  5
19A
  8
_________2
 62
     7
 10
205.30099999999999
 20
127.411
 30
0.0
 11
183.55099999999999
 21
127.411
 31
0.0
  0
LINE
  5
19B
  8
_________2
 62
     7
 10
100.3
 20
-4.0910799999999998
 30
0.0
 11
100.3
 21
-21.071000000000002
 31
0.0
  0
LINE
  5
19C
  8
_________2
 62
     7
 10
100.3
 20
275.93099999999998
 30
0.0
 11
100.3
 21
258.911
 31
0.0
  0
LINE
  5
19D
  8
_________2
 62
     7
 10
17.049199999999999
 20
127.411
 30
0.0
 11
-4.7012099999999988
 21
127.411
 31
0.0
  0
LINE
  5
19E
  8
_________2
 62
     7
 10
76.740700000000004
 20
29.8047
 30
0.0
 11
74.554400000000001
 21
29.8047
 31
0.0
  0
LINE
  5
19F
  8
_________2
 62
     7
 10
77.2333
 20
29.8047
 30
0.0
 11
76.981099999999984
 21
29.8047
 31
0.0
  0
LINE
  5
1A0
  8
_________2
 62
     7
 10
77.725999999999999
 20
29.8047
 30
0.0
 11
80.650899999999993
 21
29.8047
 31
0.0
  0
LINE
  5
1A1
  8
_________2
 62
     7
 10
77.2333
 20
29.8047
 30
0.0
 11
77.485500000000002
 21
29.8047
 31
0.0
  0
LINE
  5
1A2
  8
_________2
 62
     7
 10
70.837100000000007
 20
29.8047
 30
0.0
 11
68.650199999999998
 21
29.8047
 31
0.0
  0
LINE
  5
1A3
  8
_________2
 62
     7
 10
71.329099999999997
 20
29.8047
 30
0.0
 11
71.077600000000004
 21
29.8047
 31
0.0
  0
LINE
  5
1A4
  8
_________2
 62
     7
 10
71.329099999999997
 20
30.2974
 30
0.0
 11
71.329099999999997
 21
32.484400000000001
 31
0.0
  0
LINE
  5
1A5
  8
_________2
 62
     7
 10
71.329099999999997
 20
29.8047
 30
0.0
 11
71.329099999999997
 21
30.057300000000001
 31
0.0
  0
LINE
  5
1A6
  8
_________2
 62
     7
 10
71.821700000000007
 20
29.8047
 30
0.0
 11
74.008700000000005
 21
29.8047
 31
0.0
  0
LINE
  5
1A7
  8
_________2
 62
     7
 10
71.329099999999997
 20
29.8047
 30
0.0
 11
71.581299999999985
 21
29.8047
 31
0.0
  0
LINE
  5
1A8
  8
_________2
 62
     7
 10
71.329099999999997
 20
29.312799999999999
 30
0.0
 11
71.329099999999997
 21
27.126200000000001
 31
0.0
  0
LINE
  5
1A9
  8
_________2
 62
     7
 10
71.329099999999997
 20
29.8047
 30
0.0
 11
71.329099999999997
 21
29.5532
 31
0.0
  0
LINE
  5
1AA
  8
_________2
 62
     7
 10
75.040199999999999
 20
28.5852
 30
0.0
 11
80.218199999999996
 21
27.720400000000001
 31
0.0
  0
LINE
  5
1AB
  8
_________2
 62
     7
 10
75.040199999999999
 20
31.024699999999999
 30
0.0
 11
80.218199999999996
 21
31.8901
 31
0.0
  0
LINE
  5
1AC
  8
_________2
 62
     7
 10
80.218199999999996
 20
27.720400000000001
 30
0.0
 11
80.218199999999996
 21
31.8901
 31
0.0
  0
LINE
  5
1AD
  8
_________2
 62
     7
 10
75.040199999999999
 20
28.5852
 30
0.0
 11
75.040199999999999
 21
31.024699999999999
 31
0.0
  0
ARC
  5
1AE
  8
_________2
 62
     7
 10
71.282501999999994
 20
29.757801000000001
 30
0.0
 40
1.267714
 50
2.1220840000000001
 51
87.894083999999992
  0
ARC
  5
1AF
  8
_________2
 62
     7
 10
71.375640000000004
 20
29.758545999999999
 30
0.0
 40
1.2669680000000001
 50
92.105782999999988
 51
177.91037
  0
ARC
  5
1B0
  8
_________2
 62
     7
 10
71.376013999999998
 20
29.851671
 30
0.0
 40
1.2673680000000001
 50
182.12203600000001
 51
267.877993
  0
ARC
  5
1B1
  8
_________2
 62
     7
 10
71.282195999999999
 20
29.852347999999999
 30
0.0
 40
1.2680439999999991
 50
272.11916400000001
 51
357.84848499999998
  0
ARC
  5
1B2
  8
_________2
 62
     7
 10
71.248716999999985
 20
29.724731999999999
 30
0.0
 40
2.1668310000000002
 50
2.1161439999999989
 51
87.874379000000005
  0
ARC
  5
1B3
  8
_________2
 62
     7
 10
71.408756000000011
 20
29.726146
 30
0.0
 40
2.165392999999999
 50
92.108508999999998
 51
177.91986499999999
  0
ARC
  5
1B4
  8
_________2
 62
     7
 10
71.409094999999994
 20
29.884751999999999
 30
0.0
 40
2.1657829999999998
 50
182.117133
 51
267.88289700000001
  0
ARC
  5
1B5
  8
_________2
 62
     7
 10
71.249115000000003
 20
29.885429999999999
 30
0.0
 40
2.1664590000000001
 50
272.11546800000002
 51
357.86560400000002
  0
TEXT
  5
1B6
  8
_________2
 62
     7
 10
104.605
 20
1.6794899999999999
 30
0.0
 40
3.0923400000000001
  1
図番
 41
0.5
  0
LINE
  5
1B7
  8
_________2
 62
     7
 10
103.55
 20
5.9087199999999989
 30
0.0
 11
183.55099999999999
 21
5.9087199999999989
 31
0.0
  0
TEXT
  5
1B8
  8
_________2
 62
     7
 10
104.605
 20
11.6793
 30
0.0
 40
3.0923400000000001
  1
品番
 41
0.5
  0
TEXT
  5
1B9
  8
_________2
 62
     7
 10
104.605
 20
31.8184
 30
0.0
 40
3.0923400000000001
  1
名称
 41
0.5
  0
TEXT
  5
1BA
  8
_________2
 62
     7
 10
91.844758333333345
 20
26.822299999999998
 30
0.0
 40
3.6545800000000002
  1
mm
 41
0.5
 72
     1
 11
93.367500000000007
 21
26.822299999999998
 31
0.0
  0
TEXT
  5
1BB
  8
_________2
 62
     7
 10
85.642899999999983
 20
31.8184
 30
0.0
 40
3.0923400000000001
  1
単位
 41
0.5
  0
TEXT
  5
1BC
  8
_________2
 62
     7
 10
85.642899999999983
 20
19.410799999999998
 30
0.0
 40
3.0923400000000001
  1
尺度
 41
0.5
  0
TEXT
  5
1BD
  8
_________2
 62
     7
 10
90.548458666666676
 20
13.2182
 30
0.0
 40
3.6545800000000002
  1
1 ： 8
 41
0.5
 72
     1
 11
93.959400000000016
 21
13.2182
 31
0.0
  0
TEXT
  5
1BE
  8
_________2
 62
     7
 10
134.36670000000001
 20
9.1082000000000001
 30
0.0
 40
3.9357000000000002
  1
KW6000505R
 41
0.5
 72
     1
 11
143.55000000000001
 21
9.1082000000000001
 31
0.0
  0
TEXT
  5
1BF
  8
_________2
 62
     7
 10
134.36670000000001
 20
-0.8926299999999999
 30
0.0
 40
3.9357000000000002
  1
KW6000505R
 41
0.5
 72
     1
 11
143.55000000000001
 21
-0.8926299999999999
 31
0.0
  0
TEXT
  5
1C0
  8
_________2
 62
     7
 10
39.364090666666669
 20
13.603400000000001
 30
0.0
 40
3.6545800000000002
  1
平井
 41
0.5
 72
     1
 11
41.313200000000002
 21
13.603400000000001
 31
0.0
  0
TEXT
  5
1C1
  8
_________2
 62
     7
 10
20.851000333333339
 20
13.603400000000001
 30
0.0
 40
3.6545800000000002
  1
福田
 41
0.5
 72
     1
 11
22.7392
 21
13.603400000000001
 31
0.0
  0
TEXT
  5
1C2
  8
_________2
 62
     7
 10
67.785399999999996
 20
13.2182
 30
0.0
 40
3.6545800000000002
  1
16.11.21
 41
0.5
  0
TEXT
  5
1C3
  8
_________2
 62
     7
 10
66.592699999999994
 20
19.410799999999998
 30
0.0
 40
3.0923400000000001
  1
日付
 41
0.5
  0
TEXT
  5
1C4
  8
_________2
 62
     7
 10
29.638999999999999
 20
19.410799999999998
 30
0.0
 40
3.0923400000000001
  1
検図
 41
0.5
  0
TEXT
  5
1C5
  8
_________2
 62
     7
 10
18.020700000000001
 20
5.21143
 30
0.0
 40
3.0923400000000001
  1
備考
 41
0.5
  0
TEXT
  5
1C6
  8
_________2
 62
     7
 10
18.020700000000001
 20
19.410799999999998
 30
0.0
 40
3.0923400000000001
  1
製図
 41
0.5
  0
TEXT
  5
1C7
  8
_________2
 62
     7
 10
23.788165333333339
 20
27.936800000000002
 30
0.0
 40
4.4979399999999989
  1
セラトレーディング株式会社
 41
0.5
 72
     1
 11
41.180199999999999
 21
27.936800000000002
 31
0.0
  0
LINE
  5
1C8
  8
_________2
 62
     7
 10
183.55099999999999
 20
-4.0910799999999998
 30
0.0
 11
17.049199999999999
 21
-4.0910799999999998
 31
0.0
  0
LINE
  5
1C9
  8
_________2
 62
     7
 10
17.049199999999999
 20
-4.0910799999999998
 30
0.0
 11
17.049199999999999
 21
258.911
 31
0.0
  0
LINE
  5
1CA
  8
_________2
 62
     7
 10
17.049199999999999
 20
258.911
 30
0.0
 11
183.55099999999999
 21
258.911
 31
0.0
  0
LINE
  5
1CB
  8
_________2
 62
     7
 10
183.55099999999999
 20
258.911
 30
0.0
 11
183.55099999999999
 21
-4.0910799999999998
 31
0.0
  0
LINE
  5
1CC
  8
_________2
 62
     7
 10
65.549599999999998
 20
9.4092999999999982
 30
0.0
 11
65.549599999999998
 21
35.909100000000002
 31
0.0
  0
LINE
  5
1CD
  8
_________2
 62
     7
 10
84.549400000000006
 20
9.4092999999999982
 30
0.0
 11
84.549400000000006
 21
35.909100000000002
 31
0.0
  0
LINE
  5
1CE
  8
_________2
 62
     7
 10
103.55
 20
-4.0910799999999998
 30
0.0
 11
103.55
 21
35.909100000000002
 31
0.0
  0
LINE
  5
1CF
  8
_________2
 62
     7
 10
28.548999999999999
 20
9.4092999999999982
 30
0.0
 11
28.548999999999999
 21
23.409199999999998
 31
0.0
  0
LINE
  5
1D0
  8
_________2
 62
     7
 10
17.049199999999999
 20
9.4092999999999982
 30
0.0
 11
103.55
 21
9.4092999999999982
 31
0.0
  0
LINE
  5
1D1
  8
_________2
 62
     7
 10
17.049199999999999
 20
23.409199999999998
 30
0.0
 11
103.55
 21
23.409199999999998
 31
0.0
  0
LINE
  5
1D2
  8
_________2
 62
     7
 10
103.55
 20
15.9085
 30
0.0
 11
183.55099999999999
 21
15.9085
 31
0.0
  0
LINE
  5
1D3
  8
_________2
 62
     7
 10
17.049199999999999
 20
35.909100000000002
 30
0.0
 11
183.55099999999999
 21
35.909100000000002
 31
0.0
  0
ENDSEC
  0
EOF
