  0
SECTION
  2
HEADER
  9
$ACADVER
  1
AC1009
  9
$INSBASE
 10
0.0
 20
0.0
 30
0.0
  9
$EXTMIN
 10
-4.70052
 20
-21.071000000000002
 30
0.0
  9
$EXTMAX
 10
205.30099999999999
 20
275.93099999999998
 30
0.0
  9
$LIMMIN
 10
0.0
 20
0.0
  9
$LIMMAX
 10
12.0
 20
9.0
  9
$ORTHOMODE
 70
     0
  9
$REGENMODE
 70
     1
  9
$FILLMODE
 70
     1
  9
$QTEXTMODE
 70
     0
  9
$MIRRTEXT
 70
     1
  9
$DRAGMODE
 70
     2
  9
$LTSCALE
 40
1.0
  9
$OSMODE
 70
    37
  9
$ATTMODE
 70
     1
  9
$TEXTSIZE
 40
0.0
  9
$TRACEWID
 40
0.05
  9
$TEXTSTYLE
  7
STANDARD
  9
$CLAYER
  8
0
  9
$CELTYPE
  6
CONTINUOUS
  9
$CECOLOR
 62
   256
  9
$DIMSCALE
 40
1.0
  9
$DIMASZ
 40
0.18
  9
$DIMEXO
 40
0.0625
  9
$DIMDLI
 40
0.38
  9
$DIMRND
 40
0.0
  9
$DIMDLE
 40
0.0
  9
$DIMEXE
 40
0.18
  9
$DIMTP
 40
0.0
  9
$DIMTM
 40
0.0
  9
$DIMTXT
 40
0.18
  9
$DIMCEN
 40
0.09
  9
$DIMTSZ
 40
0.0
  9
$DIMTOL
 70
     0
  9
$DIMLIM
 70
     0
  9
$DIMTIH
 70
     1
  9
$DIMTOH
 70
     1
  9
$DIMSE1
 70
     0
  9
$DIMSE2
 70
     0
  9
$DIMTAD
 70
     0
  9
$DIMZIN
 70
     0
  9
$DIMBLK
  1

  9
$DIMASO
 70
     1
  9
$DIMSHO
 70
     1
  9
$DIMPOST
  1

  9
$DIMAPOST
  1

  9
$DIMALT
 70
     0
  9
$DIMALTD
 70
     2
  9
$DIMALTF
 40
25.399999999999999
  9
$DIMLFAC
 40
1.0
  9
$DIMTOFL
 70
     0
  9
$DIMTVP
 40
0.0
  9
$DIMTIX
 70
     0
  9
$DIMSOXD
 70
     0
  9
$DIMSAH
 70
     0
  9
$DIMBLK1
  1

  9
$DIMBLK2
  1

  9
$DIMSTYLE
  2
STANDARD
  9
$DIMCLRD
 70
     0
  9
$DIMCLRE
 70
     0
  9
$DIMCLRT
 70
     0
  9
$DIMTFAC
 40
1.0
  9
$DIMGAP
 40
0.09
  9
$LUNITS
 70
     2
  9
$LUPREC
 70
     4
  9
$SKETCHINC
 40
0.1
  9
$FILLETRAD
 40
0.0
  9
$AUNITS
 70
     0
  9
$AUPREC
 70
     0
  9
$MENU
  1
.
  9
$ELEVATION
 40
0.0
  9
$PELEVATION
 40
0.0
  9
$THICKNESS
 40
0.0
  9
$LIMCHECK
 70
     0
  9
$BLIPMODE
 70
     0
  9
$CHAMFERA
 40
0.0
  9
$CHAMFERB
 40
0.0
  9
$SKPOLY
 70
     0
  9
$TDCREATE
 40
2444972.375
  9
$TDUPDATE
 40
2457449.2523079282
  9
$TDINDWG
 40
0.0000262963
  9
$TDUSRTIMER
 40
0.0000262963
  9
$USRTIMER
 70
     1
  9
$ANGBASE
 50
0.0
  9
$ANGDIR
 70
     0
  9
$PDMODE
 70
     0
  9
$PDSIZE
 40
0.0
  9
$PLINEWID
 40
0.0
  9
$COORDS
 70
     1
  9
$SPLFRAME
 70
     0
  9
$SPLINETYPE
 70
     6
  9
$SPLINESEGS
 70
     8
  9
$ATTDIA
 70
     1
  9
$ATTREQ
 70
     1
  9
$HANDLING
 70
     1
  9
$HANDSEED
  5
181
  9
$SURFTAB1
 70
     6
  9
$SURFTAB2
 70
     6
  9
$SURFTYPE
 70
     6
  9
$SURFU
 70
     6
  9
$SURFV
 70
     6
  9
$UCSNAME
  2

  9
$UCSORG
 10
0.0
 20
0.0
 30
0.0
  9
$UCSXDIR
 10
1.0
 20
0.0
 30
0.0
  9
$UCSYDIR
 10
0.0
 20
1.0
 30
0.0
  9
$PUCSNAME
  2

  9
$PUCSORG
 10
0.0
 20
0.0
 30
0.0
  9
$PUCSXDIR
 10
1.0
 20
0.0
 30
0.0
  9
$PUCSYDIR
 10
0.0
 20
1.0
 30
0.0
  9
$USERI1
 70
     0
  9
$USERI2
 70
     0
  9
$USERI3
 70
     0
  9
$USERI4
 70
     0
  9
$USERI5
 70
     0
  9
$USERR1
 40
0.0
  9
$USERR2
 40
0.0
  9
$USERR3
 40
0.0
  9
$USERR4
 40
0.0
  9
$USERR5
 40
0.0
  9
$WORLDVIEW
 70
     1
  9
$SHADEDGE
 70
     3
  9
$SHADEDIF
 70
    70
  9
$TILEMODE
 70
     1
  9
$MAXACTVP
 70
    48
  9
$PLIMCHECK
 70
     0
  9
$PEXTMIN
 10
1.0000000000000000E+020
 20
1.0000000000000000E+020
 30
1.0000000000000000E+020
  9
$PEXTMAX
 10
-1.0000000000000000E+020
 20
-1.0000000000000000E+020
 30
-1.0000000000000000E+020
  9
$PLIMMIN
 10
0.0
 20
0.0
  9
$PLIMMAX
 10
12.0
 20
9.0
  9
$UNITMODE
 70
     0
  9
$VISRETAIN
 70
     1
  9
$PLINEGEN
 70
     0
  9
$PSLTSCALE
 70
     1
  0
ENDSEC
  0
SECTION
  2
TABLES
  0
TABLE
  2
VPORT
 70
     1
  0
VPORT
  2
*ACTIVE
 70
     0
 10
0.0
 20
0.0
 11
1.0
 21
1.0
 12
165.72796880251471
 22
127.42999999999989
 13
0.0
 23
0.0
 14
1.0
 24
1.0
 15
0.0
 25
0.0
 16
0.0
 26
0.0
 36
1.0
 17
0.0
 27
0.0
 37
0.0
 40
283.528435666853
 41
2.1001926782273599
 42
50.0
 43
0.0
 44
0.0
 50
0.0
 51
0.0
 71
     0
 72
   100
 73
     1
 74
     1
 75
     0
 76
     0
 77
     0
 78
     0
  0
ENDTAB
  0
TABLE
  2
LTYPE
 70
     2
  0
LTYPE
  2
CONTINUOUS
 70
     0
  3
Solid line
 72
    65
 73
     0
 40
0.0
  0
LTYPE
  2
AIGENLINE001
 70
     0
  3
generate AI->DXF Converter
 72
    65
 73
     4
 40
5.8561449999999988
 49
3.5278
 49
-0.776115
 49
0.776115
 49
-0.776115
  0
ENDTAB
  0
TABLE
  2
LAYER
 70
     2
  0
LAYER
  2
0
 70
     0
 62
     7
  6
CONTINUOUS
  0
LAYER
  2
_________2
 70
     0
 62
     7
  6
CONTINUOUS
  0
ENDTAB
  0
TABLE
  2
STYLE
 70
     1
  0
STYLE
  2
STANDARD
 70
     0
 40
0.0
 41
0.0
 50
0.0
 71
     0
 42
0.0
  3
TXT
  4
EXTFONT.SHX
  0
ENDTAB
  0
TABLE
  2
VIEW
 70
     0
  0
ENDTAB
  0
TABLE
  2
UCS
 70
     0
  0
ENDTAB
  0
TABLE
  2
APPID
 70
     3
  0
APPID
  2
ACAD
 70
     0
  0
APPID
  2
ACAD_NAV_VCDISPLAY
 70
     0
  0
APPID
  2
ACAD_MLEADERVER
 70
     0
  0
ENDTAB
  0
TABLE
  2
DIMSTYLE
 70
     1
  0
DIMSTYLE
  2
STANDARD
 70
     0
  3

  4

  5

  6

  7

 40
1.0
 41
0.18
 42
0.0625
 43
0.38
 44
0.18
 45
0.0
 46
0.0
 47
0.0
 48
0.0
140
0.18
141
0.09
142
0.0
143
25.399999999999999
144
1.0
145
0.0
146
1.0
147
0.09
 71
     0
 72
     0
 73
     1
 74
     1
 75
     0
 76
     0
 77
     0
 78
     0
170
     0
171
     2
172
     0
173
     0
174
     0
175
     0
176
     0
177
     0
178
     0
  0
ENDTAB
  0
ENDSEC
  0
SECTION
  2
BLOCKS
  0
BLOCK
  8
0
  2
$MODEL_SPACE
 70
     0
 10
0.0
 20
0.0
 30
0.0
  3
$MODEL_SPACE
  1

  0
ENDBLK
  5
1A
  8
0
  0
BLOCK
 67
     1
  8
0
  2
$PAPER_SPACE
 70
     0
 10
0.0
 20
0.0
 30
0.0
  3
$PAPER_SPACE
  1

  0
ENDBLK
  5
17
 67
     1
  8
0
  0
ENDSEC
  0
SECTION
  2
ENTITIES
  0
TEXT
  5
22
  8
0
 62
     7
 10
79.855900000000005
 20
60.975099999999991
 30
0.0
 40
3.0923400000000001
  1
G1/2
 41
0.5
  0
TEXT
  5
23
  8
0
 62
     7
 10
81.979299999999995
 20
233.58000000000001
 30
0.0
 40
3.0923400000000001
  1
G1/2
 41
0.5
  0
TEXT
  5
24
  8
0
 62
     7
 10
113.95914999999999
 20
146.90199999999999
 30
0.0
 40
3.0923400000000001
  1
L=1800
 41
0.5
 72
     2
 11
121.69
 21
146.90199999999999
 31
0.0
  0
LINE
  5
25
  8
0
 62
     7
 10
105.05
 20
233.94200000000001
 30
0.0
 11
95.549999999999983
 21
233.94200000000001
 31
0.0
  0
LINE
  5
26
  8
0
 62
     7
 10
95.549999999999983
 20
233.94200000000001
 30
0.0
 11
95.549999999999983
 21
234.941
 31
0.0
  0
LINE
  5
27
  8
0
 62
     7
 10
95.549999999999983
 20
234.941
 30
0.0
 11
105.05
 21
234.941
 31
0.0
  0
LINE
  5
28
  8
0
 62
     7
 10
105.05
 20
234.941
 30
0.0
 11
105.05
 21
233.94200000000001
 31
0.0
  0
LINE
  5
29
  8
0
 62
     7
 10
105.05
 20
60.410099999999993
 30
0.0
 11
95.549999999999983
 21
60.410099999999993
 31
0.0
  0
LINE
  5
2A
  8
0
 62
     7
 10
95.549999999999983
 20
60.410099999999993
 30
0.0
 11
95.549999999999983
 21
61.4099
 31
0.0
  0
LINE
  5
2B
  8
0
 62
     7
 10
95.549999999999983
 20
61.4099
 30
0.0
 11
105.05
 21
61.4099
 31
0.0
  0
LINE
  5
2C
  8
0
 62
     7
 10
105.05
 20
61.4099
 30
0.0
 11
105.05
 21
60.410099999999993
 31
0.0
  0
LINE
  5
2D
  8
0
 62
     7
 10
88.746899999999997
 20
60.275100000000002
 30
0.0
 11
79.855900000000005
 21
60.275100000000002
 31
0.0
  0
LINE
  5
2E
  8
0
 62
     7
 10
90.474500000000006
 20
232.88
 30
0.0
 11
81.979299999999995
 21
232.88
 31
0.0
  0
LINE
  5
2F
  8
0
  6
AIGENLINE001
 62
     7
 10
100.3
 20
238.46700000000001
 30
0.0
 11
100.3
 21
57.903500000000001
 31
0.0
  0
LINE
  5
30
  8
0
 62
     7
 10
96.522199999999984
 20
67.563599999999994
 30
0.0
 11
97.620300000000015
 21
69.572800000000001
 31
0.0
  0
LINE
  5
31
  8
0
 62
     7
 10
97.620300000000015
 20
69.572800000000001
 30
0.0
 11
95.664500000000004
 21
68.382099999999994
 31
0.0
  0
LINE
  5
32
  8
0
 62
     7
 10
95.664500000000004
 20
68.382099999999994
 30
0.0
 11
96.522199999999984
 21
67.563599999999994
 31
0.0
  0
LINE
  5
33
  8
0
 62
     7
 10
97.620300000000015
 20
69.572800000000001
 30
0.0
 11
88.746899999999997
 21
60.275100000000002
 31
0.0
  0
LINE
  5
34
  8
0
 62
     7
 10
93.750900000000001
 20
227.25299999999999
 30
0.0
 11
95.515900000000002
 21
225.79400000000001
 31
0.0
  0
LINE
  5
35
  8
0
 62
     7
 10
95.515900000000002
 20
225.79400000000001
 30
0.0
 11
94.716599999999985
 21
227.94
 31
0.0
  0
LINE
  5
36
  8
0
 62
     7
 10
94.716599999999985
 20
227.94
 30
0.0
 11
93.750900000000001
 21
227.25299999999999
 31
0.0
  0
LINE
  5
37
  8
0
 62
     7
 10
95.515900000000002
 20
225.79400000000001
 30
0.0
 11
90.474500000000006
 21
232.88
 31
0.0
  0
LINE
  5
38
  8
0
 62
     7
 10
104.05
 20
84.572800000000001
 30
0.0
 11
104.05
 21
103.81
 31
0.0
  0
LINE
  5
39
  8
0
 62
     7
 10
104.05
 20
103.81
 30
0.0
 11
104.05
 21
144.54900000000001
 31
0.0
  0
LINE
  5
3A
  8
0
 62
     7
 10
104.05
 20
148.28999999999999
 30
0.0
 11
104.05
 21
187.29400000000001
 31
0.0
  0
LINE
  5
3B
  8
0
 62
     7
 10
104.05
 20
187.29400000000001
 30
0.0
 11
104.05
 21
208.29400000000001
 31
0.0
  0
LINE
  5
3C
  8
0
 62
     7
 10
96.5501
 20
84.572800000000001
 30
0.0
 11
96.5501
 21
104.31
 31
0.0
  0
LINE
  5
3D
  8
0
 62
     7
 10
96.5501
 20
104.31
 30
0.0
 11
96.5501
 21
144.54900000000001
 31
0.0
  0
LINE
  5
3E
  8
0
 62
     7
 10
96.5501
 20
148.28999999999999
 30
0.0
 11
96.5501
 21
187.79400000000001
 31
0.0
  0
LINE
  5
3F
  8
0
 62
     7
 10
96.5501
 20
187.79400000000001
 30
0.0
 11
96.5501
 21
208.29400000000001
 31
0.0
  0
LINE
  5
40
  8
0
 62
     7
 10
106.05
 20
69.572800000000001
 30
0.0
 11
105.55
 21
84.572800000000001
 31
0.0
  0
LINE
  5
41
  8
0
 62
     7
 10
95.0501
 20
84.572800000000001
 30
0.0
 11
94.549899999999994
 21
69.572800000000001
 31
0.0
  0
LINE
  5
42
  8
0
 62
     7
 10
95.0501
 20
84.572800000000001
 30
0.0
 11
105.55
 21
84.572800000000001
 31
0.0
  0
LINE
  5
43
  8
0
 62
     7
 10
94.549899999999994
 20
69.572800000000001
 30
0.0
 11
106.05
 21
69.572800000000001
 31
0.0
  0
LINE
  5
44
  8
0
 62
     7
 10
106.05
 20
225.79400000000001
 30
0.0
 11
105.55
 21
208.29400000000001
 31
0.0
  0
LINE
  5
45
  8
0
 62
     7
 10
95.0501
 20
208.29400000000001
 30
0.0
 11
94.549899999999994
 21
225.79400000000001
 31
0.0
  0
LINE
  5
46
  8
0
 62
     7
 10
95.0501
 20
208.29400000000001
 30
0.0
 11
105.55
 21
208.29400000000001
 31
0.0
  0
LINE
  5
47
  8
0
 62
     7
 10
94.549899999999994
 20
225.79400000000001
 30
0.0
 11
106.05
 21
225.79400000000001
 31
0.0
  0
ARC
  5
48
  8
0
 62
     7
 10
100.051329
 20
148.28915699999999
 30
0.0
 40
0.248783
 50
0.251555
 51
38.235046999999987
  0
ARC
  5
49
  8
0
 62
     7
 10
99.835886000000002
 20
148.14353
 30
0.0
 40
0.5084900000000001
 50
36.099457999999998
 51
55.347473999999998
  0
ARC
  5
4A
  8
0
 62
     7
 10
99.491882000000004
 20
147.68721099999999
 30
0.0
 40
1.079720999999999
 50
54.099229000000008
 51
66.980785999999995
  0
ARC
  5
4B
  8
0
 62
     7
 10
99.058495999999991
 20
146.7467
 30
0.0
 40
2.115043
 50
66.138257999999993
 51
75.152727999999996
  0
ARC
  5
4C
  8
0
 62
     7
 10
98.668582999999998
 20
145.38259199999999
 30
0.0
 40
3.5336249999999989
 50
74.709246999999991
 51
82.086005000000014
  0
ARC
  5
4D
  8
0
 62
     7
 10
98.446984999999984
 20
143.95220800000001
 30
0.0
 40
4.9809479999999997
 50
81.826683000000017
 51
90.249684999999985
  0
ARC
  5
4E
  8
0
 62
     7
 10
98.424896000000004
 20
143.81388200000001
 30
0.0
 40
5.1192260000000003
 50
89.995714000000007
 51
100.94474200000001
  0
ARC
  5
4F
  8
0
 62
     7
 10
98.056972999999999
 20
145.90106
 30
0.0
 40
3.0003630000000001
 50
101.613998
 51
109.24754900000001
  0
ARC
  5
50
  8
0
 62
     7
 10
97.621516999999997
 20
147.171505
 30
0.0
 40
1.657400999999999
 50
109.513311
 51
119.77148
  0
ARC
  5
51
  8
0
 62
     7
 10
97.195600000000013
 20
147.93315000000001
 30
0.0
 40
0.784845
 50
120.391132
 51
134.92221699999999
  0
ARC
  5
52
  8
0
 62
     7
 10
96.905927000000005
 20
148.232936
 30
0.0
 40
0.368083
 50
135.94725800000001
 51
157.78653199999999
  0
ARC
  5
53
  8
0
 62
     7
 10
96.78620699999999
 20
148.289106
 30
0.0
 40
0.23611
 50
159.42246800000001
 51
179.72249500000001
  0
ARC
  5
54
  8
0
 62
     7
 10
96.799515999999997
 20
148.29132999999999
 30
0.0
 40
0.249418
 50
180.24831
 51
218.19252499999999
  0
ARC
  5
55
  8
0
 62
     7
 10
97.014434999999992
 20
148.43633800000001
 30
0.0
 40
0.508342
 50
216.05965
 51
235.32970399999999
  0
ARC
  5
56
  8
0
 62
     7
 10
97.357418999999993
 20
148.89029600000001
 30
0.0
 40
1.0770669999999991
 50
234.06101899999999
 51
246.98087100000001
  0
ARC
  5
57
  8
0
 62
     7
 10
97.792649999999995
 20
149.834316
 30
0.0
 40
2.1163430000000001
 50
246.13000199999999
 51
255.141628
  0
ARC
  5
58
  8
0
 62
     7
 10
98.181302000000002
 20
151.19350299999999
 30
0.0
 40
3.529849
 50
254.701427
 51
262.08760000000001
  0
ARC
  5
59
  8
0
 62
     7
 10
98.403786999999994
 20
152.63042899999999
 30
0.0
 40
4.9837730000000002
 50
261.82823200000001
 51
270.24707599999999
  0
ARC
  5
5A
  8
0
 62
     7
 10
98.425665000000009
 20
152.763227
 30
0.0
 40
5.1165250000000002
 50
269.99566800000002
 51
280.94956300000001
  0
ARC
  5
5B
  8
0
 62
     7
 10
98.795615000000012
 20
150.66849199999999
 30
0.0
 40
2.9898569999999989
 50
281.61394999999999
 51
289.27290099999999
  0
ARC
  5
5C
  8
0
 62
     7
 10
99.229693999999995
 20
149.40482299999999
 30
0.0
 40
1.6537470000000001
 50
289.527377
 51
299.80744800000002
  0
ARC
  5
5D
  8
0
 62
     7
 10
99.654678000000004
 20
148.64595399999999
 30
0.0
 40
0.7840689999999999
 50
300.42601999999999
 51
314.97521
  0
ARC
  5
5E
  8
0
 62
     7
 10
99.943856999999994
 20
148.347204
 30
0.0
 40
0.368396
 50
315.999774
 51
337.84320500000001
  0
ARC
  5
5F
  8
0
 62
     7
 10
100.063419
 20
148.291358
 30
0.0
 40
0.236694
 50
339.44828200000001
 51
359.73154399999999
  0
ARC
  5
60
  8
0
 62
     7
 10
100.54987
 20
148.29132999999999
 30
0.0
 40
0.249418
 50
180.24831
 51
218.19252499999999
  0
ARC
  5
61
  8
0
 62
     7
 10
100.76479
 20
148.43633800000001
 30
0.0
 40
0.508342
 50
216.05965
 51
235.32970399999999
  0
ARC
  5
62
  8
0
 62
     7
 10
101.10777400000001
 20
148.89029600000001
 30
0.0
 40
1.0770669999999991
 50
234.06101899999999
 51
246.98087100000001
  0
ARC
  5
63
  8
0
 62
     7
 10
101.54300499999999
 20
149.834316
 30
0.0
 40
2.1163430000000001
 50
246.13000199999999
 51
255.141628
  0
ARC
  5
64
  8
0
 62
     7
 10
101.931657
 20
151.19350299999999
 30
0.0
 40
3.529849
 50
254.701427
 51
262.08760000000001
  0
ARC
  5
65
  8
0
 62
     7
 10
102.15414199999999
 20
152.63042899999999
 30
0.0
 40
4.9837730000000002
 50
261.82823200000001
 51
270.24707599999999
  0
ARC
  5
66
  8
0
 62
     7
 10
102.176022
 20
152.762192
 30
0.0
 40
5.1154909999999996
 50
269.99564199999998
 51
280.95067400000011
  0
ARC
  5
67
  8
0
 62
     7
 10
102.546116
 20
150.66681399999999
 30
0.0
 40
2.9881639999999989
 50
281.6158660000001
 51
289.27756699999998
  0
ARC
  5
68
  8
0
 62
     7
 10
102.979935
 20
149.40417099999999
 30
0.0
 40
1.6531109999999991
 50
289.53266600000001
 51
299.814325
  0
ARC
  5
69
  8
0
 62
     7
 10
103.404425
 20
148.64616000000001
 30
0.0
 40
0.784423
 50
300.44038999999998
 51
314.97984200000002
  0
ARC
  5
6A
  8
0
 62
     7
 10
103.693713
 20
148.347263
 30
0.0
 40
0.368571
 50
316.013372
 51
337.84441800000002
  0
ARC
  5
6B
  8
0
 62
     7
 10
103.813716
 20
148.29127700000001
 30
0.0
 40
0.236407
 50
339.443354
 51
359.75103000000001
  0
ARC
  5
6C
  8
0
 62
     7
 10
100.549155
 20
144.54994400000001
 30
0.0
 40
0.248702
 50
180.25145800000001
 51
218.24957000000001
  0
ARC
  5
6D
  8
0
 62
     7
 10
100.764831
 20
144.69580999999999
 30
0.0
 40
0.508736
 50
216.11255
 51
235.354681
  0
ARC
  5
6E
  8
0
 62
     7
 10
101.10874800000001
 20
145.152119
 30
0.0
 40
1.079906
 50
234.10636500000001
 51
246.98871500000001
  0
ARC
  5
6F
  8
0
 62
     7
 10
101.54261099999999
 20
146.09394599999999
 30
0.0
 40
2.116622
 50
246.14498599999999
 51
255.15464700000001
  0
ARC
  5
70
  8
0
 62
     7
 10
101.93270099999999
 20
147.459473
 30
0.0
 40
3.536619
 50
254.71389099999999
 51
262.08576599999998
  0
ARC
  5
71
  8
0
 62
     7
 10
102.15398500000001
 20
148.888508
 30
0.0
 40
4.9825619999999997
 50
261.82805200000001
 51
270.24893900000012
  0
ARC
  5
72
  8
0
 62
     7
 10
102.176019
 20
149.02326500000001
 30
0.0
 40
5.1172709999999988
 50
269.99568499999998
 51
280.94685800000002
  0
ARC
  5
73
  8
0
 62
     7
 10
102.543992
 20
146.93547699999999
 30
0.0
 40
2.9978029999999989
 50
281.61943100000002
 51
289.25613199999998
  0
ARC
  5
74
  8
0
 62
     7
 10
102.979702
 20
145.66512299999999
 30
0.0
 40
1.6548439999999991
 50
289.51992200000001
 51
299.789222
  0
ARC
  5
75
  8
0
 62
     7
 10
103.404695
 20
144.905587
 30
0.0
 40
0.7845800000000001
 50
300.41081400000002
 51
314.9405569999999
  0
ARC
  5
76
  8
0
 62
     7
 10
103.694131
 20
144.606157
 30
0.0
 40
0.368241
 50
315.97287299999999
 51
337.79800499999999
  0
ARC
  5
77
  8
0
 62
     7
 10
103.8143
 20
144.549914
 30
0.0
 40
0.235823
 50
339.41754800000001
 51
359.74203499999999
  0
ARC
  5
78
  8
0
 62
     7
 10
103.800583
 20
144.54777000000001
 30
0.0
 40
0.24954
 50
0.248467
 51
38.170777000000008
  0
ARC
  5
79
  8
0
 62
     7
 10
103.586539
 20
144.40373700000001
 30
0.0
 40
0.5071870000000001
 50
36.018644999999999
 51
55.325074999999998
  0
ARC
  5
7A
  8
0
 62
     7
 10
103.242931
 20
143.94926000000001
 30
0.0
 40
1.0766990000000001
 50
54.046756999999992
 51
66.965019999999996
  0
ARC
  5
7B
  8
0
 62
     7
 10
102.807941
 20
143.005898
 30
0.0
 40
2.1152820000000001
 50
66.12055500000001
 51
75.132574000000005
  0
ARC
  5
7C
  8
0
 62
     7
 10
102.419768
 20
141.64854800000001
 30
0.0
 40
3.5268919999999988
 50
74.695498000000001
 51
82.085299000000006
  0
ARC
  5
7D
  8
0
 62
     7
 10
102.197187
 20
140.21110899999999
 30
0.0
 40
4.981338
 50
81.826185999999993
 51
90.247917000000015
  0
ARC
  5
7E
  8
0
 62
     7
 10
102.175247
 20
140.07495499999999
 30
0.0
 40
5.117445
 50
89.995671000000002
 51
100.94855699999999
  0
ARC
  5
7F
  8
0
 62
     7
 10
101.80520300000001
 20
142.16973100000001
 30
0.0
 40
2.990715999999999
 50
101.610434
 51
109.26897599999999
  0
ARC
  5
80
  8
0
 62
     7
 10
101.371638
 20
143.43245999999999
 30
0.0
 40
1.6556639999999989
 50
109.52605200000001
 51
119.796573
  0
ARC
  5
81
  8
0
 62
     7
 10
100.946224
 20
144.192578
 30
0.0
 40
0.784687
 50
120.42069600000001
 51
134.961501
  0
ARC
  5
82
  8
0
 62
     7
 10
100.656699
 20
144.49182999999999
 30
0.0
 40
0.368413
 50
135.98776000000001
 51
157.832967
  0
ARC
  5
83
  8
0
 62
     7
 10
100.53714600000001
 20
144.547743
 30
0.0
 40
0.236694
 50
159.448262
 51
179.73152400000001
  0
ARC
  5
84
  8
0
 62
     7
 10
100.050614
 20
144.54777000000001
 30
0.0
 40
0.249499
 50
0.248408
 51
38.178019999999997
  0
ARC
  5
85
  8
0
 62
     7
 10
99.835926999999998
 20
144.40300199999999
 30
0.0
 40
0.5080970000000001
 50
36.046563999999996
 51
55.322491000000007
  0
ARC
  5
86
  8
0
 62
     7
 10
99.492856000000003
 20
143.94903299999999
 30
0.0
 40
1.076883
 50
54.053879000000002
 51
66.972937999999999
  0
ARC
  5
87
  8
0
 62
     7
 10
99.058102000000005
 20
143.00632999999999
 30
0.0
 40
2.1147640000000001
 50
66.123269999999991
 51
75.139706000000004
  0
ARC
  5
88
  8
0
 62
     7
 10
98.669625999999994
 20
141.64855399999999
 30
0.0
 40
3.5268639999999989
 50
74.696779000000006
 51
82.087839999999986
  0
ARC
  5
89
  8
0
 62
     7
 10
98.446828000000011
 20
140.21028799999999
 30
0.0
 40
4.9821580000000001
 50
81.826863000000003
 51
90.247823000000011
  0
ARC
  5
8A
  8
0
 62
     7
 10
98.424892000000014
 20
140.07495499999999
 30
0.0
 40
5.117445
 50
89.995671000000002
 51
100.94855699999999
  0
ARC
  5
8B
  8
0
 62
     7
 10
98.054848000000007
 20
142.16973100000001
 30
0.0
 40
2.990715999999999
 50
101.610434
 51
109.26897599999999
  0
ARC
  5
8C
  8
0
 62
     7
 10
97.621283000000005
 20
143.43245999999999
 30
0.0
 40
1.6556639999999989
 50
109.52605200000001
 51
119.796573
  0
ARC
  5
8D
  8
0
 62
     7
 10
97.195869999999999
 20
144.192578
 30
0.0
 40
0.784687
 50
120.42069600000001
 51
134.961501
  0
ARC
  5
8E
  8
0
 62
     7
 10
96.906344000000004
 20
144.49182999999999
 30
0.0
 40
0.368413
 50
135.98776000000001
 51
157.832967
  0
ARC
  5
8F
  8
0
 62
     7
 10
96.786792000000005
 20
144.547743
 30
0.0
 40
0.236694
 50
159.448262
 51
179.73152400000001
  0
LINE
  5
90
  8
0
 62
     7
 10
110.919
 20
146.202
 30
0.0
 11
121.69
 21
146.202
 31
0.0
  0
LINE
  5
91
  8
0
 62
     7
 10
105.101
 20
140.69499999999999
 30
0.0
 11
104.05
 21
138.66300000000001
 31
0.0
  0
LINE
  5
92
  8
0
 62
     7
 10
104.05
 20
138.66300000000001
 30
0.0
 11
105.977
 21
139.898
 31
0.0
  0
LINE
  5
93
  8
0
 62
     7
 10
105.977
 20
139.898
 30
0.0
 11
105.101
 21
140.69499999999999
 31
0.0
  0
LINE
  5
94
  8
0
 62
     7
 10
110.919
 20
146.202
 30
0.0
 11
104.05
 21
138.66300000000001
 31
0.0
  0
LINE
  5
95
  8
_________2
 62
     7
 10
205.30099999999999
 20
127.411
 30
0.0
 11
183.55000000000001
 21
127.411
 31
0.0
  0
LINE
  5
96
  8
_________2
 62
     7
 10
100.3
 20
-4.0907299999999998
 30
0.0
 11
100.3
 21
-21.071000000000002
 31
0.0
  0
LINE
  5
97
  8
_________2
 62
     7
 10
100.3
 20
275.93099999999998
 30
0.0
 11
100.3
 21
258.911
 31
0.0
  0
LINE
  5
98
  8
_________2
 62
     7
 10
17.049499999999998
 20
127.411
 30
0.0
 11
-4.70052
 21
127.411
 31
0.0
  0
LINE
  5
99
  8
_________2
 62
     7
 10
76.741
 20
29.805099999999999
 30
0.0
 11
74.554699999999997
 21
29.805099999999999
 31
0.0
  0
LINE
  5
9A
  8
_________2
 62
     7
 10
77.233699999999999
 20
29.805099999999999
 30
0.0
 11
76.981499999999997
 21
29.805099999999999
 31
0.0
  0
LINE
  5
9B
  8
_________2
 62
     7
 10
77.726299999999995
 20
29.805099999999999
 30
0.0
 11
80.651200000000003
 21
29.805099999999999
 31
0.0
  0
LINE
  5
9C
  8
_________2
 62
     7
 10
77.233699999999999
 20
29.805099999999999
 30
0.0
 11
77.485500000000002
 21
29.805099999999999
 31
0.0
  0
LINE
  5
9D
  8
_________2
 62
     7
 10
70.837100000000007
 20
29.805099999999999
 30
0.0
 11
68.650499999999994
 21
29.805099999999999
 31
0.0
  0
LINE
  5
9E
  8
_________2
 62
     7
 10
71.329400000000007
 20
29.805099999999999
 30
0.0
 11
71.077600000000004
 21
29.805099999999999
 31
0.0
  0
LINE
  5
9F
  8
_________2
 62
     7
 10
71.329400000000007
 20
30.297699999999999
 30
0.0
 11
71.329400000000007
 21
32.484699999999997
 31
0.0
  0
LINE
  5
A0
  8
_________2
 62
     7
 10
71.329400000000007
 20
29.805099999999999
 30
0.0
 11
71.329400000000007
 21
30.057300000000001
 31
0.0
  0
LINE
  5
A1
  8
_________2
 62
     7
 10
71.822100000000006
 20
29.805099999999999
 30
0.0
 11
74.009
 21
29.805099999999999
 31
0.0
  0
LINE
  5
A2
  8
_________2
 62
     7
 10
71.329400000000007
 20
29.805099999999999
 30
0.0
 11
71.581599999999995
 21
29.805099999999999
 31
0.0
  0
LINE
  5
A3
  8
_________2
 62
     7
 10
71.329400000000007
 20
29.313099999999999
 30
0.0
 11
71.329400000000007
 21
27.126200000000001
 31
0.0
  0
LINE
  5
A4
  8
_________2
 62
     7
 10
71.329400000000007
 20
29.805099999999999
 30
0.0
 11
71.329400000000007
 21
29.553599999999999
 31
0.0
  0
LINE
  5
A5
  8
_________2
 62
     7
 10
75.040499999999994
 20
28.5855
 30
0.0
 11
80.218500000000006
 21
27.720800000000001
 31
0.0
  0
LINE
  5
A6
  8
_________2
 62
     7
 10
75.040499999999994
 20
31.024699999999999
 30
0.0
 11
80.218500000000006
 21
31.8901
 31
0.0
  0
LINE
  5
A7
  8
_________2
 62
     7
 10
80.218500000000006
 20
27.720800000000001
 30
0.0
 11
80.218500000000006
 21
31.8901
 31
0.0
  0
LINE
  5
A8
  8
_________2
 62
     7
 10
75.040499999999994
 20
28.5855
 30
0.0
 11
75.040499999999994
 21
31.024699999999999
 31
0.0
  0
ARC
  5
A9
  8
_________2
 62
     7
 10
71.28285600000001
 20
29.758156
 30
0.0
 40
1.2673589999999999
 50
2.122214
 51
87.893958999999995
  0
ARC
  5
AA
  8
_________2
 62
     7
 10
71.375959999999992
 20
29.758557
 30
0.0
 40
1.2669559999999991
 50
92.104701000000006
 51
177.89526900000001
  0
ARC
  5
AB
  8
_________2
 62
     7
 10
71.376357999999996
 20
29.852015000000002
 30
0.0
 40
1.2673680000000001
 50
182.12203600000001
 51
267.877993
  0
ARC
  5
AC
  8
_________2
 62
     7
 10
71.282531999999989
 20
29.852343999999999
 30
0.0
 40
1.267695999999999
 50
272.12015300000002
 51
357.863674
  0
ARC
  5
AD
  8
_________2
 62
     7
 10
71.329430000000002
 20
29.805087
 30
0.0
 40
2.0849849999999992
 50
0.00001
 51
89.999980000000008
  0
ARC
  5
AE
  8
_________2
 62
     7
 10
71.329603000000006
 20
29.805259
 30
0.0
 40
2.084813
 50
90.004733999999999
 51
180.00474399999999
  0
ARC
  5
AF
  8
_________2
 62
     7
 10
71.409106000000008
 20
29.885121000000002
 30
0.0
 40
2.1657950000000001
 50
182.11776599999999
 51
267.89173399999999
  0
ARC
  5
B0
  8
_________2
 62
     7
 10
71.249459000000002
 20
29.885774000000001
 30
0.0
 40
2.1664590000000001
 50
272.11546800000002
 51
357.86560400000002
  0
TEXT
  5
B1
  8
_________2
 62
     7
 10
104.605
 20
1.67984
 30
0.0
 40
3.0923400000000001
  1
図番
 41
0.5
  0
LINE
  5
B2
  8
_________2
 62
     7
 10
103.55
 20
5.9090699999999989
 30
0.0
 11
183.55099999999999
 21
5.9090699999999989
 31
0.0
  0
TEXT
  5
B3
  8
_________2
 62
     7
 10
104.605
 20
11.679600000000001
 30
0.0
 40
3.0923400000000001
  1
品番
 41
0.5
  0
TEXT
  5
B4
  8
_________2
 62
     7
 10
104.605
 20
31.8184
 30
0.0
 40
3.0923400000000001
  1
名称
 41
0.5
  0
TEXT
  5
B5
  8
_________2
 62
     7
 10
91.845058333333341
 20
26.822299999999998
 30
0.0
 40
3.6545800000000002
  1
mm
 41
0.5
 72
     1
 11
93.367800000000003
 21
26.822299999999998
 31
0.0
  0
TEXT
  5
B6
  8
_________2
 62
     7
 10
85.643199999999993
 20
31.8184
 30
0.0
 40
3.0923400000000001
  1
単位
 41
0.5
  0
TEXT
  5
B7
  8
_________2
 62
     7
 10
85.643199999999993
 20
19.411200000000001
 30
0.0
 40
3.0923400000000001
  1
尺度
 41
0.5
  0
TEXT
  5
B8
  8
_________2
 62
     7
 10
90.548758666666686
 20
13.2182
 30
0.0
 40
3.6545800000000002
  1
1 ： 2
 41
0.5
 72
     1
 11
93.959699999999998
 21
13.2182
 31
0.0
  0
TEXT
  5
B9
  8
_________2
 62
     7
 10
134.69467499999999
 20
9.1082000000000001
 30
0.0
 40
3.9357000000000002
  1
KW6001004R
 41
0.5
 72
     1
 11
143.55000000000001
 21
9.1082000000000001
 31
0.0
  0
TEXT
  5
BA
  8
_________2
 62
     7
 10
134.69467499999999
 20
-0.892285
 30
0.0
 40
3.9357000000000002
  1
KW6001004R
 41
0.5
 72
     1
 11
143.55000000000001
 21
-0.892285
 31
0.0
  0
TEXT
  5
BB
  8
_________2
 62
     7
 10
109.179
 20
24.226099999999999
 30
0.0
 40
3.9357000000000002
  1
シャワーホース（L＝1800）
 41
0.5
  0
TEXT
  5
BC
  8
_________2
 62
     7
 10
39.425300333333333
 20
13.603400000000001
 30
0.0
 40
3.6545800000000002
  1
早川
 41
0.5
 72
     1
 11
41.313499999999998
 21
13.603400000000001
 31
0.0
  0
TEXT
  5
BD
  8
_________2
 62
     7
 10
20.790090666666661
 20
13.603400000000001
 30
0.0
 40
3.6545800000000002
  1
石原
 41
0.5
 72
     1
 11
22.7392
 21
13.603400000000001
 31
0.0
  0
TEXT
  5
BE
  8
_________2
 62
     7
 10
67.785399999999996
 20
13.2182
 30
0.0
 40
3.6545800000000002
  1
16.02.26
 41
0.5
  0
TEXT
  5
BF
  8
_________2
 62
     7
 10
66.593100000000007
 20
19.411200000000001
 30
0.0
 40
3.0923400000000001
  1
日付
 41
0.5
  0
TEXT
  5
C0
  8
_________2
 62
     7
 10
29.639399999999998
 20
19.411200000000001
 30
0.0
 40
3.0923400000000001
  1
検図
 41
0.5
  0
TEXT
  5
C1
  8
_________2
 62
     7
 10
18.021100000000001
 20
5.2117699999999987
 30
0.0
 40
3.0923400000000001
  1
備考
 41
0.5
  0
TEXT
  5
C2
  8
_________2
 62
     7
 10
18.021100000000001
 20
19.411200000000001
 30
0.0
 40
3.0923400000000001
  1
製図
 41
0.5
  0
TEXT
  5
C3
  8
_________2
 62
     7
 10
23.788465333333338
 20
27.937100000000001
 30
0.0
 40
4.4979399999999989
  1
セラトレーディング株式会社
 41
0.5
 72
     1
 11
41.180500000000002
 21
27.937100000000001
 31
0.0
  0
LINE
  5
C4
  8
_________2
 62
     7
 10
183.55099999999999
 20
-4.0907299999999998
 30
0.0
 11
17.049499999999998
 21
-4.0907299999999998
 31
0.0
  0
LINE
  5
C5
  8
_________2
 62
     7
 10
17.049499999999998
 20
-4.0907299999999998
 30
0.0
 11
17.049499999999998
 21
258.911
 31
0.0
  0
LINE
  5
C6
  8
_________2
 62
     7
 10
17.049499999999998
 20
258.911
 30
0.0
 11
183.55099999999999
 21
258.911
 31
0.0
  0
LINE
  5
C7
  8
_________2
 62
     7
 10
183.55099999999999
 20
258.911
 30
0.0
 11
183.55099999999999
 21
-4.0907299999999998
 31
0.0
  0
LINE
  5
C8
  8
_________2
 62
     7
 10
65.549599999999998
 20
9.4092999999999982
 30
0.0
 11
65.549599999999998
 21
35.909100000000002
 31
0.0
  0
LINE
  5
C9
  8
_________2
 62
     7
 10
84.549700000000016
 20
9.4092999999999982
 30
0.0
 11
84.549700000000016
 21
35.909100000000002
 31
0.0
  0
LINE
  5
CA
  8
_________2
 62
     7
 10
103.55
 20
-4.0907299999999998
 30
0.0
 11
103.55
 21
35.909100000000002
 31
0.0
  0
LINE
  5
CB
  8
_________2
 62
     7
 10
28.549299999999999
 20
9.4092999999999982
 30
0.0
 11
28.549299999999999
 21
23.409600000000001
 31
0.0
  0
LINE
  5
CC
  8
_________2
 62
     7
 10
17.049499999999998
 20
9.4092999999999982
 30
0.0
 11
103.55
 21
9.4092999999999982
 31
0.0
  0
LINE
  5
CD
  8
_________2
 62
     7
 10
17.049499999999998
 20
23.409600000000001
 30
0.0
 11
103.55
 21
23.409600000000001
 31
0.0
  0
LINE
  5
CE
  8
_________2
 62
     7
 10
103.55
 20
15.908899999999999
 30
0.0
 11
183.55099999999999
 21
15.908899999999999
 31
0.0
  0
LINE
  5
CF
  8
_________2
 62
     7
 10
17.049499999999998
 20
35.909100000000002
 30
0.0
 11
183.55099999999999
 21
35.909100000000002
 31
0.0
  0
ENDSEC
  0
EOF
