  0
SECTION
  2
HEADER
  9
$ACADVER
  1
AC1009
  9
$INSBASE
 10
0.0
 20
0.0
 30
0.0
  9
$EXTMIN
 10
-4.7012099999999988
 20
-21.070999999999991
 30
0.0
  9
$EXTMAX
 10
205.30099999999999
 20
275.93099999999993
 30
0.0
  9
$LIMMIN
 10
0.0
 20
0.0
  9
$LIMMAX
 10
12.0
 20
9.0
  9
$ORTHOMODE
 70
     0
  9
$REGENMODE
 70
     1
  9
$FILLMODE
 70
     1
  9
$QTEXTMODE
 70
     0
  9
$MIRRTEXT
 70
     1
  9
$DRAGMODE
 70
     2
  9
$LTSCALE
 40
1.0
  9
$OSMODE
 70
    37
  9
$ATTMODE
 70
     1
  9
$TEXTSIZE
 40
0.0
  9
$TRACEWID
 40
0.05
  9
$TEXTSTYLE
  7
STANDARD
  9
$CLAYER
  8
0
  9
$CELTYPE
  6
CONTINUOUS
  9
$CECOLOR
 62
   256
  9
$DIMSCALE
 40
1.0
  9
$DIMASZ
 40
0.18
  9
$DIMEXO
 40
0.0625
  9
$DIMDLI
 40
0.38
  9
$DIMRND
 40
0.0
  9
$DIMDLE
 40
0.0
  9
$DIMEXE
 40
0.18
  9
$DIMTP
 40
0.0
  9
$DIMTM
 40
0.0
  9
$DIMTXT
 40
0.18
  9
$DIMCEN
 40
0.09
  9
$DIMTSZ
 40
0.0
  9
$DIMTOL
 70
     0
  9
$DIMLIM
 70
     0
  9
$DIMTIH
 70
     1
  9
$DIMTOH
 70
     1
  9
$DIMSE1
 70
     0
  9
$DIMSE2
 70
     0
  9
$DIMTAD
 70
     0
  9
$DIMZIN
 70
     0
  9
$DIMBLK
  1

  9
$DIMASO
 70
     1
  9
$DIMSHO
 70
     1
  9
$DIMPOST
  1

  9
$DIMAPOST
  1

  9
$DIMALT
 70
     0
  9
$DIMALTD
 70
     2
  9
$DIMALTF
 40
25.399999999999999
  9
$DIMLFAC
 40
1.0
  9
$DIMTOFL
 70
     0
  9
$DIMTVP
 40
0.0
  9
$DIMTIX
 70
     0
  9
$DIMSOXD
 70
     0
  9
$DIMSAH
 70
     0
  9
$DIMBLK1
  1

  9
$DIMBLK2
  1

  9
$DIMSTYLE
  2
STANDARD
  9
$DIMCLRD
 70
     0
  9
$DIMCLRE
 70
     0
  9
$DIMCLRT
 70
     0
  9
$DIMTFAC
 40
1.0
  9
$DIMGAP
 40
0.09
  9
$LUNITS
 70
     2
  9
$LUPREC
 70
     4
  9
$SKETCHINC
 40
0.1
  9
$FILLETRAD
 40
0.0
  9
$AUNITS
 70
     0
  9
$AUPREC
 70
     0
  9
$MENU
  1
.
  9
$ELEVATION
 40
0.0
  9
$PELEVATION
 40
0.0
  9
$THICKNESS
 40
0.0
  9
$LIMCHECK
 70
     0
  9
$BLIPMODE
 70
     0
  9
$CHAMFERA
 40
0.0
  9
$CHAMFERB
 40
0.0
  9
$SKPOLY
 70
     0
  9
$TDCREATE
 40
2444972.375
  9
$TDUPDATE
 40
2455980.3613114809
  9
$TDINDWG
 40
0.0000065972
  9
$TDUSRTIMER
 40
0.0000065972
  9
$USRTIMER
 70
     1
  9
$ANGBASE
 50
0.0
  9
$ANGDIR
 70
     0
  9
$PDMODE
 70
     0
  9
$PDSIZE
 40
0.0
  9
$PLINEWID
 40
0.0
  9
$COORDS
 70
     1
  9
$SPLFRAME
 70
     0
  9
$SPLINETYPE
 70
     6
  9
$SPLINESEGS
 70
     8
  9
$ATTDIA
 70
     0
  9
$ATTREQ
 70
     1
  9
$HANDLING
 70
     1
  9
$HANDSEED
  5
122
  9
$SURFTAB1
 70
     6
  9
$SURFTAB2
 70
     6
  9
$SURFTYPE
 70
     6
  9
$SURFU
 70
     6
  9
$SURFV
 70
     6
  9
$UCSNAME
  2

  9
$UCSORG
 10
0.0
 20
0.0
 30
0.0
  9
$UCSXDIR
 10
1.0
 20
0.0
 30
0.0
  9
$UCSYDIR
 10
0.0
 20
1.0
 30
0.0
  9
$PUCSNAME
  2

  9
$PUCSORG
 10
0.0
 20
0.0
 30
0.0
  9
$PUCSXDIR
 10
1.0
 20
0.0
 30
0.0
  9
$PUCSYDIR
 10
0.0
 20
1.0
 30
0.0
  9
$USERI1
 70
     0
  9
$USERI2
 70
     0
  9
$USERI3
 70
     0
  9
$USERI4
 70
     0
  9
$USERI5
 70
     0
  9
$USERR1
 40
0.0
  9
$USERR2
 40
0.0
  9
$USERR3
 40
0.0
  9
$USERR4
 40
0.0
  9
$USERR5
 40
0.0
  9
$WORLDVIEW
 70
     1
  9
$SHADEDGE
 70
     3
  9
$SHADEDIF
 70
    70
  9
$TILEMODE
 70
     1
  9
$MAXACTVP
 70
    48
  9
$PLIMCHECK
 70
     0
  9
$PEXTMIN
 10
1.0000000000000000E+020
 20
1.0000000000000000E+020
 30
1.0000000000000000E+020
  9
$PEXTMAX
 10
-1.0000000000000000E+020
 20
-1.0000000000000000E+020
 30
-1.0000000000000000E+020
  9
$PLIMMIN
 10
0.0
 20
0.0
  9
$PLIMMAX
 10
12.0
 20
9.0
  9
$UNITMODE
 70
     0
  9
$VISRETAIN
 70
     1
  9
$PLINEGEN
 70
     0
  9
$PSLTSCALE
 70
     1
  0
ENDSEC
  0
SECTION
  2
TABLES
  0
TABLE
  2
VPORT
 70
     2
  0
VPORT
  2
*ACTIVE
 70
     0
 10
0.0
 20
0.0
 11
1.0
 21
1.0
 12
205.31019906752431
 22
127.42999999999989
 13
0.0
 23
0.0
 14
1.0
 24
1.0
 15
0.0
 25
0.0
 16
0.0
 26
0.0
 36
1.0
 17
0.0
 27
0.0
 37
0.0
 40
299.24634760705283
 41
2.2894736842105261
 42
50.0
 43
0.0
 44
0.0
 50
0.0
 51
0.0
 71
     0
 72
   100
 73
     1
 74
     1
 75
     0
 76
     0
 77
     0
 78
     0
  0
ENDTAB
  0
TABLE
  2
LTYPE
 70
     2
  0
LTYPE
  2
CONTINUOUS
 70
     0
  3
Solid line
 72
    65
 73
     0
 40
0.0
  0
LTYPE
  2
AIGENLINE001
 70
     0
  3
generate AI->DXF Converter
 72
    65
 73
     4
 40
5.8561449999999988
 49
3.5278
 49
-0.776115
 49
0.776115
 49
-0.776115
  0
ENDTAB
  0
TABLE
  2
LAYER
 70
     2
  0
LAYER
  2
0
 70
     0
 62
     7
  6
CONTINUOUS
  0
LAYER
  2
_________2
 70
     0
 62
     7
  6
CONTINUOUS
  0
ENDTAB
  0
TABLE
  2
STYLE
 70
     1
  0
STYLE
  2
STANDARD
 70
     0
 40
0.0
 41
0.0
 50
0.0
 71
     0
 42
0.0
  3
TXT
  4
EXTFONT.SHX
  0
ENDTAB
  0
TABLE
  2
VIEW
 70
     0
  0
ENDTAB
  0
TABLE
  2
UCS
 70
     0
  0
ENDTAB
  0
TABLE
  2
APPID
 70
     1
  0
APPID
  2
ACAD
 70
     0
  0
ENDTAB
  0
TABLE
  2
DIMSTYLE
 70
     1
  0
DIMSTYLE
  2
STANDARD
 70
     0
  3

  4

  5

  6

  7

 40
1.0
 41
0.18
 42
0.0625
 43
0.38
 44
0.18
 45
0.0
 46
0.0
 47
0.0
 48
0.0
140
0.18
141
0.09
142
0.0
143
25.399999999999999
144
1.0
145
0.0
146
1.0
147
0.09
 71
     0
 72
     0
 73
     1
 74
     1
 75
     0
 76
     0
 77
     0
 78
     0
170
     0
171
     2
172
     0
173
     0
174
     0
175
     0
176
     0
177
     0
178
     0
  0
ENDTAB
  0
ENDSEC
  0
SECTION
  2
BLOCKS
  0
BLOCK
  8
0
  2
$MODEL_SPACE
 70
     0
 10
0.0
 20
0.0
 30
0.0
  3
$MODEL_SPACE
  1

  0
ENDBLK
  5
1A
  8
0
  0
BLOCK
 67
     1
  8
0
  2
$PAPER_SPACE
 70
     0
 10
0.0
 20
0.0
 30
0.0
  3
$PAPER_SPACE
  1

  0
ENDBLK
  5
17
 67
     1
  8
0
  0
ENDSEC
  0
SECTION
  2
ENTITIES
  0
TEXT
  5
22
  8
0
 62
     7
 10
154.93960999999999
 20
129.6279999999999
 30
0.0
 40
3.0923400000000001
  1
7
 41
0.5
 72
     1
 11
155.45500000000001
 21
129.6279999999999
 31
0.0
  0
TEXT
  5
23
  8
0
 62
     7
 10
118.8651349999999
 20
83.074200000000005
 30
0.0
 40
3.0923400000000001
  1
216
 41
0.5
 72
     1
 11
120.669
 21
83.074200000000005
 31
0.0
  0
TEXT
  5
24
  8
0
 62
     7
 10
122.3651349999999
 20
89.394900000000007
 30
0.0
 40
3.0923400000000001
  1
195
 41
0.5
 72
     1
 11
124.1689999999999
 21
89.394900000000007
 31
0.0
  0
TEXT
  5
25
  8
0
 62
     7
 10
49.230525
 20
128.066
 30
0.0
 40
3.0923400000000001
  1
34
 41
0.5
 72
     1
 11
50.518999999999991
 21
128.066
 31
0.0
  0
TEXT
  5
26
  8
0
 62
     7
 10
49.230724999999993
 20
88.572900000000004
 30
0.0
 40
3.0923400000000001
  1
75
 41
0.5
 72
     1
 11
50.519199999999991
 21
88.572900000000004
 31
0.0
  0
TEXT
  5
27
  8
0
 62
     7
 10
171.6809999999999
 20
97.342100000000002
 30
0.0
 40
3.0923400000000001
  1
PJ 1/2
 50
90.0
 41
0.5
  0
TEXT
  5
28
  8
0
 62
     7
 10
71.917500000000004
 20
107.91052500000001
 30
0.0
 40
3.0923400000000001
  1
75
 50
90.0
 41
0.5
 72
     1
 11
71.917500000000004
 21
109.199
 31
0.0
  0
LINE
  5
29
  8
0
 62
     7
 10
93.879400000000004
 20
88.109599999999986
 30
0.0
 11
91.667699999999996
 21
88.702100000000002
 31
0.0
  0
LINE
  5
2A
  8
0
 62
     7
 10
91.667699999999996
 20
88.702100000000002
 30
0.0
 11
93.879400000000004
 21
89.295000000000002
 31
0.0
  0
LINE
  5
2B
  8
0
 62
     7
 10
93.879400000000004
 20
89.295000000000002
 30
0.0
 11
93.879400000000004
 21
88.109599999999986
 31
0.0
  0
LINE
  5
2C
  8
0
 62
     7
 10
154.459
 20
89.280199999999994
 30
0.0
 11
156.67099999999999
 21
88.687700000000007
 31
0.0
  0
LINE
  5
2D
  8
0
 62
     7
 10
156.67099999999999
 20
88.687700000000007
 30
0.0
 11
154.459
 21
88.095100000000016
 31
0.0
  0
LINE
  5
2E
  8
0
 62
     7
 10
154.459
 20
88.095100000000016
 30
0.0
 11
154.459
 21
89.280199999999994
 31
0.0
  0
LINE
  5
2F
  8
0
 62
     7
 10
91.669099999999986
 20
88.694900000000004
 30
0.0
 11
156.6689999999999
 21
88.694900000000004
 31
0.0
  0
LINE
  5
30
  8
0
 62
     7
 10
86.879699999999985
 20
81.789199999999994
 30
0.0
 11
84.667900000000003
 21
82.381699999999995
 31
0.0
  0
LINE
  5
31
  8
0
 62
     7
 10
84.667900000000003
 20
82.381699999999995
 30
0.0
 11
86.879699999999985
 21
82.974299999999999
 31
0.0
  0
LINE
  5
32
  8
0
 62
     7
 10
86.879699999999985
 20
82.974299999999999
 30
0.0
 11
86.879699999999985
 21
81.789199999999994
 31
0.0
  0
LINE
  5
33
  8
0
 62
     7
 10
154.459
 20
82.959800000000001
 30
0.0
 11
156.67099999999999
 21
82.367199999999997
 31
0.0
  0
LINE
  5
34
  8
0
 62
     7
 10
156.67099999999999
 20
82.367199999999997
 30
0.0
 11
154.459
 21
81.774299999999997
 31
0.0
  0
LINE
  5
35
  8
0
 62
     7
 10
154.459
 20
81.774299999999997
 30
0.0
 11
154.459
 21
82.959800000000001
 31
0.0
  0
LINE
  5
36
  8
0
 62
     7
 10
84.668899999999994
 20
82.374099999999999
 30
0.0
 11
156.6689999999999
 21
82.374099999999999
 31
0.0
  0
LINE
  5
37
  8
0
  6
AIGENLINE001
 62
     7
 10
91.669099999999986
 20
109.1129999999999
 30
0.0
 11
91.669099999999986
 21
102.99799999999991
 31
0.0
  0
LINE
  5
38
  8
0
 62
     7
 10
47.519199999999998
 20
227.64199999999991
 30
0.0
 11
47.186399999999992
 21
227.309
 31
0.0
  0
LINE
  5
39
  8
0
 62
     7
 10
53.5199
 20
227.64199999999991
 30
0.0
 11
53.852699999999999
 21
227.309
 31
0.0
  0
LINE
  5
3A
  8
0
 62
     7
 10
53.852699999999999
 20
227.309
 30
0.0
 11
47.186399999999992
 21
227.309
 31
0.0
  0
LINE
  5
3B
  8
0
 62
     7
 10
53.5199
 20
227.64199999999991
 30
0.0
 11
47.519199999999998
 21
227.64199999999991
 31
0.0
  0
LINE
  5
3C
  8
0
 62
     7
 10
47.519199999999998
 20
221.64199999999991
 30
0.0
 11
47.519199999999998
 21
227.64199999999991
 31
0.0
  0
LINE
  5
3D
  8
0
 62
     7
 10
53.5199
 20
221.64199999999991
 30
0.0
 11
53.5199
 21
227.64199999999991
 31
0.0
  0
LINE
  5
3E
  8
0
 62
     7
 10
47.186399999999992
 20
221.64199999999991
 30
0.0
 11
47.186399999999992
 21
227.309
 31
0.0
  0
LINE
  5
3F
  8
0
 62
     7
 10
53.852699999999999
 20
221.64199999999991
 30
0.0
 11
53.852699999999999
 21
227.309
 31
0.0
  0
LINE
  5
40
  8
0
  6
AIGENLINE001
 62
     7
 10
50.519199999999991
 20
229.7759999999999
 30
0.0
 11
50.519199999999991
 21
147.3609999999999
 31
0.0
  0
LINE
  5
41
  8
0
 62
     7
 10
172.96599999999989
 20
108.07599999999999
 30
0.0
 11
172.37299999999991
 21
105.864
 31
0.0
  0
LINE
  5
42
  8
0
 62
     7
 10
172.37299999999991
 20
105.864
 30
0.0
 11
171.78099999999989
 21
108.07599999999999
 31
0.0
  0
LINE
  5
43
  8
0
 62
     7
 10
171.78099999999989
 20
108.07599999999999
 30
0.0
 11
172.96599999999989
 21
108.07599999999999
 31
0.0
  0
LINE
  5
44
  8
0
 62
     7
 10
171.7949999999999
 20
110.321
 30
0.0
 11
172.38800000000001
 21
112.5329999999999
 31
0.0
  0
LINE
  5
45
  8
0
 62
     7
 10
172.38800000000001
 20
112.5329999999999
 30
0.0
 11
172.97999999999999
 21
110.321
 31
0.0
  0
LINE
  5
46
  8
0
 62
     7
 10
172.97999999999999
 20
110.321
 30
0.0
 11
171.7949999999999
 21
110.321
 31
0.0
  0
LINE
  5
47
  8
0
 62
     7
 10
172.38099999999989
 20
97.342100000000002
 30
0.0
 11
172.38099999999989
 21
112.532
 31
0.0
  0
LINE
  5
48
  8
0
 62
     7
 10
162.6689999999999
 20
106.19799999999989
 30
0.0
 11
162.33600000000001
 21
105.8649999999999
 31
0.0
  0
LINE
  5
49
  8
0
 62
     7
 10
162.6689999999999
 20
112.199
 30
0.0
 11
162.33600000000001
 21
112.532
 31
0.0
  0
LINE
  5
4A
  8
0
 62
     7
 10
162.33600000000001
 20
112.532
 30
0.0
 11
162.33600000000001
 21
105.8649999999999
 31
0.0
  0
LINE
  5
4B
  8
0
 62
     7
 10
162.6689999999999
 20
112.199
 30
0.0
 11
162.6689999999999
 21
106.19799999999989
 31
0.0
  0
LINE
  5
4C
  8
0
 62
     7
 10
156.6689999999999
 20
106.19799999999989
 30
0.0
 11
162.6689999999999
 21
106.19799999999989
 31
0.0
  0
LINE
  5
4D
  8
0
 62
     7
 10
156.6689999999999
 20
112.199
 30
0.0
 11
162.6689999999999
 21
112.199
 31
0.0
  0
LINE
  5
4E
  8
0
 62
     7
 10
163.40600000000001
 20
105.8649999999999
 30
0.0
 11
173.0809999999999
 21
105.8649999999999
 31
0.0
  0
LINE
  5
4F
  8
0
 62
     7
 10
158.881
 20
127.93000000000001
 30
0.0
 11
156.6689999999999
 21
128.52199999999999
 31
0.0
  0
LINE
  5
50
  8
0
 62
     7
 10
156.6689999999999
 20
128.52199999999999
 30
0.0
 11
158.881
 21
129.11500000000001
 31
0.0
  0
LINE
  5
51
  8
0
 62
     7
 10
158.881
 20
129.11500000000001
 30
0.0
 11
158.881
 21
127.93000000000001
 31
0.0
  0
LINE
  5
52
  8
0
 62
     7
 10
152.12399999999991
 20
129.11500000000001
 30
0.0
 11
154.33600000000001
 21
128.52199999999999
 31
0.0
  0
LINE
  5
53
  8
0
 62
     7
 10
154.33600000000001
 20
128.52199999999999
 30
0.0
 11
152.12399999999991
 21
127.929
 31
0.0
  0
LINE
  5
54
  8
0
 62
     7
 10
152.12399999999991
 20
127.929
 30
0.0
 11
152.12399999999991
 21
129.11500000000001
 31
0.0
  0
LINE
  5
55
  8
0
 62
     7
 10
149.6689999999999
 20
128.52199999999999
 30
0.0
 11
160.64500000000001
 21
128.52199999999999
 31
0.0
  0
LINE
  5
56
  8
0
 62
     7
 10
163.40600000000001
 20
112.532
 30
0.0
 11
173.0809999999999
 21
112.532
 31
0.0
  0
LINE
  5
57
  8
0
 62
     7
 10
156.6689999999999
 20
105.8649999999999
 30
0.0
 11
162.33600000000001
 21
105.8649999999999
 31
0.0
  0
LINE
  5
58
  8
0
 62
     7
 10
156.6689999999999
 20
112.532
 30
0.0
 11
162.33600000000001
 21
112.532
 31
0.0
  0
LINE
  5
59
  8
0
 62
     7
 10
73.202899999999985
 20
119.489
 30
0.0
 11
72.610299999999995
 21
121.7
 31
0.0
  0
LINE
  5
5A
  8
0
 62
     7
 10
72.610299999999995
 20
121.7
 30
0.0
 11
72.017799999999994
 21
119.489
 31
0.0
  0
LINE
  5
5B
  8
0
 62
     7
 10
72.017799999999994
 20
119.489
 30
0.0
 11
73.202899999999985
 21
119.489
 31
0.0
  0
LINE
  5
5C
  8
0
 62
     7
 10
72.032200000000003
 20
98.908600000000007
 30
0.0
 11
72.624799999999993
 21
96.696900000000014
 31
0.0
  0
LINE
  5
5D
  8
0
 62
     7
 10
72.624799999999993
 20
96.696900000000014
 30
0.0
 11
73.217399999999998
 21
98.908600000000007
 31
0.0
  0
LINE
  5
5E
  8
0
 62
     7
 10
73.217399999999998
 20
98.908600000000007
 30
0.0
 11
72.032200000000003
 21
98.908600000000007
 31
0.0
  0
LINE
  5
5F
  8
0
 62
     7
 10
72.617599999999996
 20
121.699
 30
0.0
 11
72.617599999999996
 21
96.697900000000004
 31
0.0
  0
LINE
  5
60
  8
0
 62
     7
 10
53.975000000000001
 20
126.78100000000001
 30
0.0
 11
56.186799999999998
 21
127.373
 31
0.0
  0
LINE
  5
61
  8
0
 62
     7
 10
56.186799999999998
 20
127.373
 30
0.0
 11
53.975000000000001
 21
127.96599999999999
 31
0.0
  0
LINE
  5
62
  8
0
 62
     7
 10
53.975000000000001
 20
127.96599999999999
 30
0.0
 11
53.975000000000001
 21
126.78100000000001
 31
0.0
  0
LINE
  5
63
  8
0
 62
     7
 10
47.063099999999999
 20
127.95099999999999
 30
0.0
 11
44.851300000000002
 21
127.3589999999999
 31
0.0
  0
LINE
  5
64
  8
0
 62
     7
 10
44.851300000000002
 20
127.3589999999999
 30
0.0
 11
47.063099999999999
 21
126.76600000000001
 31
0.0
  0
LINE
  5
65
  8
0
 62
     7
 10
47.063099999999999
 20
126.76600000000001
 30
0.0
 11
47.063099999999999
 21
127.95099999999999
 31
0.0
  0
LINE
  5
66
  8
0
 62
     7
 10
56.185699999999997
 20
127.366
 30
0.0
 11
44.8523
 21
127.366
 31
0.0
  0
LINE
  5
67
  8
0
 62
     7
 10
56.185699999999997
 20
115.06
 30
0.0
 11
56.185699999999997
 21
128.07299999999989
 31
0.0
  0
LINE
  5
68
  8
0
 62
     7
 10
44.8523
 20
128.07299999999989
 30
0.0
 11
44.8523
 21
115.06
 31
0.0
  0
LINE
  5
69
  8
0
 62
     7
 10
60.809399999999997
 20
87.287599999999983
 30
0.0
 11
63.0212
 21
87.880099999999985
 31
0.0
  0
LINE
  5
6A
  8
0
 62
     7
 10
63.0212
 20
87.880099999999985
 30
0.0
 11
60.809399999999997
 21
88.472699999999989
 31
0.0
  0
LINE
  5
6B
  8
0
 62
     7
 10
60.809399999999997
 20
88.472699999999989
 30
0.0
 11
60.809399999999997
 21
87.287599999999983
 31
0.0
  0
LINE
  5
6C
  8
0
 62
     7
 10
40.228999999999992
 20
88.458200000000005
 30
0.0
 11
38.017200000000003
 21
87.865599999999986
 31
0.0
  0
LINE
  5
6D
  8
0
 62
     7
 10
38.017200000000003
 20
87.865599999999986
 30
0.0
 11
40.228999999999992
 21
87.273100000000014
 31
0.0
  0
LINE
  5
6E
  8
0
 62
     7
 10
40.228999999999992
 20
87.273100000000014
 30
0.0
 11
40.228999999999992
 21
88.458200000000005
 31
0.0
  0
LINE
  5
6F
  8
0
 62
     7
 10
63.020200000000003
 20
87.872900000000001
 30
0.0
 11
38.0182
 21
87.872900000000001
 31
0.0
  0
ARC
  5
70
  8
0
 62
     7
 10
55.322502
 20
106.57884799999989
 30
0.0
 40
0.8770759999999999
 50
308.15063800000001
 51
321.43667900000003
  0
ARC
  5
71
  8
0
 62
     7
 10
55.348343999999997
 20
106.55417
 30
0.0
 40
0.841492
 50
321.653659
 51
333.69554499999998
  0
ARC
  5
72
  8
0
 62
     7
 10
55.389294999999997
 20
106.532985
 30
0.0
 40
0.7953940000000001
 50
333.75635499999999
 51
346.37391099999991
  0
ARC
  5
73
  8
0
 62
     7
 10
55.365581999999989
 20
106.54022499999989
 30
0.0
 40
0.8201459999999999
 50
346.272603
 51
359.97776199999993
  0
ARC
  5
74
  8
0
 62
     7
 10
47.445307
 20
108.8002279999999
 30
0.0
 40
3.6922769999999989
 50
232.03909999999991
 51
237.69197700000001
  0
ARC
  5
75
  8
0
 62
     7
 10
53.388398999999993
 20
118.23629
 30
0.0
 40
14.84393599999999
 50
237.77024599999999
 51
241.46970999999999
  0
ARC
  5
76
  8
0
 62
     7
 10
50.572651999999998
 20
112.6198
 30
0.0
 40
8.567164
 50
240.073475
 51
249.37610199999989
  0
ARC
  5
77
  8
0
 62
     7
 10
50.531335999999989
 20
112.51289300000001
 30
0.0
 40
8.4525550000000003
 50
249.38296299999999
 51
259.48077299999989
  0
ARC
  5
78
  8
0
 62
     7
 10
50.524982999999992
 20
112.533108
 30
0.0
 40
8.4712759999999996
 50
259.54798
 51
269.960894
  0
ARC
  5
79
  8
0
 62
     7
 10
50.517134999999989
 20
112.48884199999991
 30
0.0
 40
8.4270080000000007
 50
270.01404400000001
 51
280.47946899999988
  0
ARC
  5
7A
  8
0
 62
     7
 10
50.504942999999997
 20
112.52183599999999
 30
0.0
 40
8.4616720000000001
 50
280.52001300000001
 51
290.609171
  0
ARC
  5
7B
  8
0
 62
     7
 10
50.523671999999991
 20
112.494674
 30
0.0
 40
8.4296589999999991
 50
290.55500399999988
 51
300.00759299999999
  0
ARC
  5
7C
  8
0
 62
     7
 10
44.302886999999998
 20
123.364223
 30
0.0
 40
20.953409000000001
 50
299.87339900000001
 51
303.48836699999993
  0
ARC
  5
7D
  8
0
 62
     7
 10
45.672370000000001
 20
106.54021299999999
 30
0.0
 40
0.820044
 50
180.02139500000001
 51
193.72827899999999
  0
ARC
  5
7E
  8
0
 62
     7
 10
45.650658
 20
106.53367299999989
 30
0.0
 40
0.797401
 50
193.64204699999991
 51
206.22772699999999
  0
ARC
  5
7F
  8
0
 62
     7
 10
45.659914999999998
 20
106.5367699999999
 30
0.0
 40
0.807075
 50
206.134503
 51
218.70511099999999
  0
ARC
  5
80
  8
0
 62
     7
 10
45.701442
 20
106.56428799999991
 30
0.0
 40
0.8567
 50
218.404606
 51
232.00811699999991
  0
LINE
  5
81
  8
0
 62
     7
 10
45.819400000000002
 20
114.366
 30
0.0
 11
45.661900000000003
 21
114.3639999999999
 31
0.0
  0
LINE
  5
82
  8
0
 62
     7
 10
45.865900000000003
 20
114.3669999999999
 30
0.0
 11
45.819400000000002
 21
114.366
 31
0.0
  0
LINE
  5
83
  8
0
 62
     7
 10
45.941999999999993
 20
114.369
 30
0.0
 11
45.865900000000003
 21
114.3669999999999
 31
0.0
  0
LINE
  5
84
  8
0
 62
     7
 10
46.035699999999999
 20
114.372
 30
0.0
 11
45.941999999999993
 21
114.369
 31
0.0
  0
LINE
  5
85
  8
0
 62
     7
 10
46.161799999999992
 20
114.375
 30
0.0
 11
46.035699999999999
 21
114.372
 31
0.0
  0
LINE
  5
86
  8
0
 62
     7
 10
50.5364
 20
114.432
 30
0.0
 11
50.526800000000001
 21
114.432
 31
0.0
  0
LINE
  5
87
  8
0
 62
     7
 10
55.095999999999997
 20
114.369
 30
0.0
 11
55.002699999999997
 21
114.372
 31
0.0
  0
LINE
  5
88
  8
0
 62
     7
 10
55.172199999999997
 20
114.3669999999999
 30
0.0
 11
55.095999999999997
 21
114.369
 31
0.0
  0
LINE
  5
89
  8
0
 62
     7
 10
55.218699999999991
 20
114.366
 30
0.0
 11
55.172199999999997
 21
114.3669999999999
 31
0.0
  0
LINE
  5
8A
  8
0
 62
     7
 10
55.376100000000001
 20
114.3639999999999
 30
0.0
 11
55.218699999999991
 21
114.366
 31
0.0
  0
ARC
  5
8B
  8
0
 62
     7
 10
62.705407999999998
 20
219.55017699999991
 30
0.0
 40
0.241556
 50
271.92841800000002
 51
356.17626599999988
  0
ARC
  5
8C
  8
0
 62
     7
 10
38.333328999999999
 20
219.5505509999999
 30
0.0
 40
0.241918
 50
183.906789
 51
268.1577299999999
  0
ARC
  5
8D
  8
0
 62
     7
 10
55.342391999999997
 20
149.987886
 30
0.0
 40
0.346166
 50
272.04852799999998
 51
357.59523999999988
  0
ARC
  5
8E
  8
0
 62
     7
 10
45.69606799999999
 20
149.98722900000001
 30
0.0
 40
0.345512
 50
182.30031
 51
267.93746199999998
  0
ARC
  5
8F
  8
0
 62
     7
 10
62.3294
 20
97.388660999999999
 30
0.0
 40
0.691198
 50
272.02852299999989
 51
357.94185399999992
  0
LINE
  5
90
  8
0
 62
     7
 10
63.020200000000003
 20
97.363799999999998
 30
0.0
 11
63.020200000000003
 21
97.364199999999997
 31
0.0
  0
ARC
  5
91
  8
0
 62
     7
 10
38.710093999999998
 20
97.389730000000014
 30
0.0
 40
0.6923189999999999
 50
182.11483799999991
 51
267.85555899999991
  0
LINE
  5
92
  8
0
 62
     7
 10
38.684199999999997
 20
96.697900000000004
 30
0.0
 11
38.6845
 21
96.697900000000004
 31
0.0
  0
ARC
  5
93
  8
0
 62
     7
 10
38.709882999999998
 20
121.007807
 30
0.0
 40
0.6921140000000001
 50
92.099085000000002
 51
177.871252
  0
LINE
  5
94
  8
0
 62
     7
 10
38.0182
 20
121.03399999999991
 30
0.0
 11
38.0182
 21
121.0329999999999
 31
0.0
  0
ARC
  5
95
  8
0
 62
     7
 10
62.353865999999996
 20
121.0331709999999
 30
0.0
 40
0.666286
 50
0.00001
 51
89.999980000000008
  0
ARC
  5
96
  8
0
 62
     7
 10
46.214488000000003
 20
106.9618419999999
 30
0.0
 40
0.864933
 50
182.11682999999999
 51
267.78825999999998
  0
ARC
  5
97
  8
0
 62
     7
 10
54.824026000000003
 20
106.9617269999999
 30
0.0
 40
0.8648130000000001
 50
272.20441799999998
 51
357.89053100000001
  0
ARC
  5
98
  8
0
 62
     7
 10
54.826220999999997
 20
113.51444600000001
 30
0.0
 40
0.8624870000000001
 50
1.860801999999999
 51
86.675376000000014
  0
ARC
  5
99
  8
0
 62
     7
 10
46.212665999999999
 20
113.514003
 30
0.0
 40
0.862978
 50
93.378056000000015
 51
178.13371499999991
  0
ARC
  5
9A
  8
0
 62
     7
 10
45.714508000000002
 20
113.50343599999999
 30
0.0
 40
0.8622809999999999
 50
93.495894999999976
 51
178.1626159999999
  0
ARC
  5
9B
  8
0
 62
     7
 10
55.323366
 20
113.50326099999999
 30
0.0
 40
0.8624659999999998
 50
1.8485979999999991
 51
86.492851000000002
  0
ARC
  5
9C
  8
0
 62
     7
 10
51.388717
 20
-8.1675070000000005
 30
0.0
 40
122.592185
 50
88.405408999999977
 51
89.323540000000008
  0
ARC
  5
9D
  8
0
 62
     7
 10
49.708247
 20
-11.139545999999999
 30
0.0
 40
125.56471499999989
 50
90.687308000000016
 51
91.583703999999997
  0
ARC
  5
9E
  8
0
 62
     7
 10
51.125188999999999
 20
20.225522000000002
 30
0.0
 40
94.206147999999999
 50
88.959400000000016
 51
90.072997000000015
  0
ARC
  5
9F
  8
0
 62
     7
 10
50.426200000000001
 20
-34.72976899999999
 30
0.0
 40
149.162487
 50
89.777604999999994
 51
90.854368000000008
  0
ARC
  5
A0
  8
0
 62
     7
 10
50.519199999999991
 20
927.99229200000002
 30
0.0
 40
821.90584199999989
 50
269.69759599999992
 51
270.30242299999998
  0
ARC
  5
A1
  8
0
 62
     7
 10
154.57686299999989
 20
97.011996999999994
 30
0.0
 40
0.241238
 50
181.77808999999991
 51
266.24196699999987
  0
ARC
  5
A2
  8
0
 62
     7
 10
154.57725799999989
 20
121.3846299999999
 30
0.0
 40
0.241645
 50
93.845442000000006
 51
178.134501
  0
ARC
  5
A3
  8
0
 62
     7
 10
85.015113999999997
 20
114.086136
 30
0.0
 40
0.346423
 50
92.101325000000003
 51
177.8986449999999
  0
ARC
  5
A4
  8
0
 62
     7
 10
85.013287000000005
 20
106.4328389999999
 30
0.0
 40
0.34453
 50
181.78890899999999
 51
266.52784100000002
  0
LINE
  5
A5
  8
0
 62
     7
 10
45.642299999999999
 20
149.64500000000001
 30
0.0
 11
45.668500000000002
 21
149.642
 31
0.0
  0
LINE
  5
A6
  8
0
 62
     7
 10
45.668500000000002
 20
149.642
 30
0.0
 11
45.683599999999998
 21
149.642
 31
0.0
  0
LINE
  5
A7
  8
0
 62
     7
 10
55.35479999999999
 20
149.642
 30
0.0
 11
45.683599999999998
 21
149.642
 31
0.0
  0
LINE
  5
A8
  8
0
 62
     7
 10
45.375599999999999
 20
149.8479999999999
 30
0.0
 11
45.394199999999991
 21
149.81100000000001
 31
0.0
  0
LINE
  5
A9
  8
0
 62
     7
 10
62.946399999999997
 20
219.53399999999999
 30
0.0
 11
63.020200000000003
 21
221.64199999999991
 31
0.0
  0
LINE
  5
AA
  8
0
 62
     7
 10
55.688299999999998
 20
149.9729999999999
 30
0.0
 11
56.185699999999997
 21
219.309
 31
0.0
  0
LINE
  5
AB
  8
0
 62
     7
 10
45.350799999999992
 20
149.9729999999999
 30
0.0
 11
44.8523
 21
219.309
 31
0.0
  0
LINE
  5
AC
  8
0
 62
     7
 10
45.350799999999992
 20
149.9729999999999
 30
0.0
 11
45.353599999999993
 21
149.93100000000001
 31
0.0
  0
LINE
  5
AD
  8
0
 62
     7
 10
38.018900000000002
 20
221.64199999999991
 30
0.0
 11
38.091999999999999
 21
219.53399999999999
 31
0.0
  0
LINE
  5
AE
  8
0
 62
     7
 10
45.353599999999993
 20
149.93100000000001
 30
0.0
 11
45.361899999999999
 21
149.88799999999989
 31
0.0
  0
LINE
  5
AF
  8
0
 62
     7
 10
45.361899999999999
 20
149.88799999999989
 30
0.0
 11
45.375599999999999
 21
149.8479999999999
 31
0.0
  0
LINE
  5
B0
  8
0
 62
     7
 10
38.325600000000001
 20
219.309
 30
0.0
 11
62.713500000000003
 21
219.309
 31
0.0
  0
LINE
  5
B1
  8
0
 62
     7
 10
63.020200000000003
 20
221.64199999999991
 30
0.0
 11
38.018900000000002
 21
221.64199999999991
 31
0.0
  0
LINE
  5
B2
  8
0
  6
AIGENLINE001
 62
     7
 10
164.803
 20
109.199
 30
0.0
 11
150.2879999999999
 21
109.199
 31
0.0
  0
LINE
  5
B3
  8
0
  6
AIGENLINE001
 62
     7
 10
35.13539999999999
 20
109.199
 30
0.0
 11
65.474500000000006
 21
109.199
 31
0.0
  0
LINE
  5
B4
  8
0
  6
AIGENLINE001
 62
     7
 10
50.519199999999991
 20
123.93000000000001
 30
0.0
 11
50.519199999999991
 21
94.414100000000005
 31
0.0
  0
LINE
  5
B5
  8
0
 62
     7
 10
73.317599999999999
 20
121.699
 30
0.0
 11
63.735399999999998
 21
121.699
 31
0.0
  0
LINE
  5
B6
  8
0
 62
     7
 10
63.735399999999998
 20
96.697900000000004
 30
0.0
 11
73.317599999999999
 21
96.697900000000004
 31
0.0
  0
LINE
  5
B7
  8
0
 62
     7
 10
62.353900000000003
 20
121.699
 30
0.0
 11
38.6845
 21
121.699
 31
0.0
  0
LINE
  5
B8
  8
0
 62
     7
 10
63.020200000000003
 20
87.172799999999995
 30
0.0
 11
63.020200000000003
 21
95.858699999999985
 31
0.0
  0
LINE
  5
B9
  8
0
 62
     7
 10
38.0182
 20
95.858699999999985
 30
0.0
 11
38.0182
 21
87.172799999999995
 31
0.0
  0
LINE
  5
BA
  8
0
 62
     7
 10
63.020200000000003
 20
97.364199999999997
 30
0.0
 11
63.020200000000003
 21
121.0329999999999
 31
0.0
  0
LINE
  5
BB
  8
0
 62
     7
 10
55.280700000000003
 20
114.3639999999999
 30
0.0
 11
54.960000000000001
 21
114.37299999999991
 31
0.0
  0
LINE
  5
BC
  8
0
 62
     7
 10
53.567100000000003
 20
114.4039999999999
 30
0.0
 11
55.002699999999997
 21
114.372
 31
0.0
  0
LINE
  5
BD
  8
0
 62
     7
 10
53.567100000000003
 20
114.4039999999999
 30
0.0
 11
52.835999999999999
 21
114.416
 31
0.0
  0
LINE
  5
BE
  8
0
 62
     7
 10
48.201999999999991
 20
114.416
 30
0.0
 11
48.0456
 21
114.4139999999999
 31
0.0
  0
LINE
  5
BF
  8
0
 62
     7
 10
48.0456
 20
114.4139999999999
 30
0.0
 11
47.258400000000002
 21
114.401
 31
0.0
  0
LINE
  5
C0
  8
0
 62
     7
 10
47.258400000000002
 20
114.401
 30
0.0
 11
45.75739999999999
 21
114.3639999999999
 31
0.0
  0
LINE
  5
C1
  8
0
 62
     7
 10
56.185699999999997
 20
106.54000000000001
 30
0.0
 11
56.185699999999997
 21
113.53100000000001
 31
0.0
  0
LINE
  5
C2
  8
0
 62
     7
 10
55.688299999999998
 20
106.93000000000001
 30
0.0
 11
55.688299999999998
 21
113.542
 31
0.0
  0
LINE
  5
C3
  8
0
 62
     7
 10
45.350099999999991
 20
113.542
 30
0.0
 11
45.350099999999991
 21
106.93000000000001
 31
0.0
  0
LINE
  5
C4
  8
0
 62
     7
 10
44.8523
 20
113.53100000000001
 30
0.0
 11
44.8523
 21
106.54000000000001
 31
0.0
  0
LINE
  5
C5
  8
0
 62
     7
 10
38.6845
 20
96.697900000000004
 30
0.0
 11
62.353900000000003
 21
96.697900000000004
 31
0.0
  0
LINE
  5
C6
  8
0
 62
     7
 10
38.0182
 20
121.0329999999999
 30
0.0
 11
38.0182
 21
97.364199999999997
 31
0.0
  0
LINE
  5
C7
  8
0
 62
     7
 10
84.668899999999994
 20
114.0989999999999
 30
0.0
 11
84.668899999999994
 21
106.4229999999999
 31
0.0
  0
LINE
  5
C8
  8
0
 62
     7
 10
154.56100000000001
 20
121.626
 30
0.0
 11
156.6689999999999
 21
121.699
 31
0.0
  0
LINE
  5
C9
  8
0
 62
     7
 10
85.002399999999994
 20
114.432
 30
0.0
 11
154.33600000000001
 21
114.432
 31
0.0
  0
LINE
  5
CA
  8
0
 62
     7
 10
154.33600000000001
 20
104.062
 30
0.0
 11
84.992400000000004
 21
106.089
 31
0.0
  0
LINE
  5
CB
  8
0
 62
     7
 10
154.56100000000001
 20
96.771299999999997
 30
0.0
 11
156.6689999999999
 21
96.697900000000004
 31
0.0
  0
LINE
  5
CC
  8
0
 62
     7
 10
91.669099999999986
 20
87.994799999999998
 30
0.0
 11
91.669099999999986
 21
102.298
 31
0.0
  0
LINE
  5
CD
  8
0
 62
     7
 10
84.668899999999994
 20
81.674099999999996
 30
0.0
 11
84.668899999999994
 21
105.35599999999999
 31
0.0
  0
LINE
  5
CE
  8
0
 62
     7
 10
156.6689999999999
 20
81.674099999999996
 30
0.0
 11
156.6689999999999
 21
95.997799999999998
 31
0.0
  0
LINE
  5
CF
  8
0
 62
     7
 10
156.6689999999999
 20
122.39999999999991
 30
0.0
 11
156.6689999999999
 21
129.22200000000001
 31
0.0
  0
LINE
  5
D0
  8
0
 62
     7
 10
154.33600000000001
 20
129.22200000000001
 30
0.0
 11
154.33600000000001
 21
122.209
 31
0.0
  0
LINE
  5
D1
  8
0
 62
     7
 10
154.33600000000001
 20
97.004499999999993
 30
0.0
 11
154.33600000000001
 21
121.392
 31
0.0
  0
LINE
  5
D2
  8
0
 62
     7
 10
156.6689999999999
 20
121.699
 30
0.0
 11
156.6689999999999
 21
96.697900000000004
 31
0.0
  0
TEXT
  5
D3
  8
_________2
 62
     7
 10
109.179
 20
24.226099999999999
 30
0.0
 40
3.9357000000000002
  1
アヴァ バススパウト
 41
0.5
  0
LINE
  5
D4
  8
_________2
 62
     7
 10
205.30099999999999
 20
127.411
 30
0.0
 11
183.55099999999999
 21
127.411
 31
0.0
  0
LINE
  5
D5
  8
_________2
 62
     7
 10
100.2999999999999
 20
-4.0910799999999998
 30
0.0
 11
100.2999999999999
 21
-21.070999999999991
 31
0.0
  0
LINE
  5
D6
  8
_________2
 62
     7
 10
100.2999999999999
 20
275.93099999999993
 30
0.0
 11
100.2999999999999
 21
258.911
 31
0.0
  0
LINE
  5
D7
  8
_________2
 62
     7
 10
17.049199999999988
 20
127.411
 30
0.0
 11
-4.7012099999999988
 21
127.411
 31
0.0
  0
LINE
  5
D8
  8
_________2
 62
     7
 10
76.740700000000004
 20
29.8047
 30
0.0
 11
74.554400000000001
 21
29.8047
 31
0.0
  0
LINE
  5
D9
  8
_________2
 62
     7
 10
77.2333
 20
29.8047
 30
0.0
 11
76.981099999999984
 21
29.8047
 31
0.0
  0
LINE
  5
DA
  8
_________2
 62
     7
 10
77.725999999999999
 20
29.8047
 30
0.0
 11
80.650899999999993
 21
29.8047
 31
0.0
  0
LINE
  5
DB
  8
_________2
 62
     7
 10
77.2333
 20
29.8047
 30
0.0
 11
77.485500000000002
 21
29.8047
 31
0.0
  0
LINE
  5
DC
  8
_________2
 62
     7
 10
70.837100000000007
 20
29.8047
 30
0.0
 11
68.650199999999998
 21
29.8047
 31
0.0
  0
LINE
  5
DD
  8
_________2
 62
     7
 10
71.329099999999997
 20
29.8047
 30
0.0
 11
71.077600000000004
 21
29.8047
 31
0.0
  0
LINE
  5
DE
  8
_________2
 62
     7
 10
71.329099999999997
 20
30.2974
 30
0.0
 11
71.329099999999997
 21
32.484400000000001
 31
0.0
  0
LINE
  5
DF
  8
_________2
 62
     7
 10
71.329099999999997
 20
29.8047
 30
0.0
 11
71.329099999999997
 21
30.057300000000001
 31
0.0
  0
LINE
  5
E0
  8
_________2
 62
     7
 10
71.821700000000007
 20
29.8047
 30
0.0
 11
74.008700000000005
 21
29.8047
 31
0.0
  0
LINE
  5
E1
  8
_________2
 62
     7
 10
71.329099999999997
 20
29.8047
 30
0.0
 11
71.581299999999985
 21
29.8047
 31
0.0
  0
LINE
  5
E2
  8
_________2
 62
     7
 10
71.329099999999997
 20
29.312799999999999
 30
0.0
 11
71.329099999999997
 21
27.126200000000001
 31
0.0
  0
LINE
  5
E3
  8
_________2
 62
     7
 10
71.329099999999997
 20
29.8047
 30
0.0
 11
71.329099999999997
 21
29.5532
 31
0.0
  0
LINE
  5
E4
  8
_________2
 62
     7
 10
75.040199999999999
 20
28.5852
 30
0.0
 11
80.218199999999996
 21
27.720400000000001
 31
0.0
  0
LINE
  5
E5
  8
_________2
 62
     7
 10
75.040199999999999
 20
31.024699999999999
 30
0.0
 11
80.218199999999996
 21
31.8901
 31
0.0
  0
LINE
  5
E6
  8
_________2
 62
     7
 10
80.218199999999996
 20
27.720400000000001
 30
0.0
 11
80.218199999999996
 21
31.8901
 31
0.0
  0
LINE
  5
E7
  8
_________2
 62
     7
 10
75.040199999999999
 20
28.5852
 30
0.0
 11
75.040199999999999
 21
31.024699999999999
 31
0.0
  0
ARC
  5
E8
  8
_________2
 62
     7
 10
71.282501999999994
 20
29.757801000000001
 30
0.0
 40
1.267714
 50
2.1220840000000001
 51
87.894083999999992
  0
ARC
  5
E9
  8
_________2
 62
     7
 10
71.375640000000004
 20
29.758545999999999
 30
0.0
 40
1.2669680000000001
 50
92.105782999999988
 51
177.91037
  0
ARC
  5
EA
  8
_________2
 62
     7
 10
71.376013999999998
 20
29.851671
 30
0.0
 40
1.2673680000000001
 50
182.12203600000001
 51
267.877993
  0
ARC
  5
EB
  8
_________2
 62
     7
 10
71.282195999999999
 20
29.852347999999999
 30
0.0
 40
1.2680439999999991
 50
272.11916400000001
 51
357.84848499999993
  0
ARC
  5
EC
  8
_________2
 62
     7
 10
71.248716999999985
 20
29.724731999999989
 30
0.0
 40
2.1668310000000002
 50
2.1161439999999989
 51
87.874379000000005
  0
ARC
  5
ED
  8
_________2
 62
     7
 10
71.408756000000011
 20
29.726146
 30
0.0
 40
2.165392999999999
 50
92.108508999999998
 51
177.91986499999999
  0
ARC
  5
EE
  8
_________2
 62
     7
 10
71.409094999999994
 20
29.884751999999999
 30
0.0
 40
2.1657829999999998
 50
182.117133
 51
267.88289700000001
  0
ARC
  5
EF
  8
_________2
 62
     7
 10
71.249115000000003
 20
29.885429999999989
 30
0.0
 40
2.1664590000000001
 50
272.11546800000002
 51
357.86560400000002
  0
TEXT
  5
F0
  8
_________2
 62
     7
 10
104.605
 20
1.6794899999999999
 30
0.0
 40
3.0923400000000001
  1
図番
 41
0.5
  0
LINE
  5
F1
  8
_________2
 62
     7
 10
103.55
 20
5.9087199999999989
 30
0.0
 11
183.55099999999999
 21
5.9087199999999989
 31
0.0
  0
TEXT
  5
F2
  8
_________2
 62
     7
 10
104.605
 20
11.679299999999991
 30
0.0
 40
3.0923400000000001
  1
品番
 41
0.5
  0
TEXT
  5
F3
  8
_________2
 62
     7
 10
104.605
 20
31.8184
 30
0.0
 40
3.0923400000000001
  1
名称
 41
0.5
  0
TEXT
  5
F4
  8
_________2
 62
     7
 10
91.844758333333345
 20
26.822299999999998
 30
0.0
 40
3.6545800000000002
  1
mm
 41
0.5
 72
     1
 11
93.367500000000007
 21
26.822299999999998
 31
0.0
  0
TEXT
  5
F5
  8
_________2
 62
     7
 10
85.642899999999983
 20
31.8184
 30
0.0
 40
3.0923400000000001
  1
単位
 41
0.5
  0
TEXT
  5
F6
  8
_________2
 62
     7
 10
85.642899999999983
 20
19.410799999999991
 30
0.0
 40
3.0923400000000001
  1
尺度
 41
0.5
  0
TEXT
  5
F7
  8
_________2
 62
     7
 10
90.548458666666676
 20
13.218199999999991
 30
0.0
 40
3.6545800000000002
  1
1 ： 3
 41
0.5
 72
     1
 11
93.959400000000016
 21
13.218199999999991
 31
0.0
  0
TEXT
  5
F8
  8
_________2
 62
     7
 10
135.5146125
 20
9.1082000000000001
 30
0.0
 40
3.9357000000000002
  1
KW6191073
 41
0.5
 72
     1
 11
143.55000000000001
 21
9.1082000000000001
 31
0.0
  0
TEXT
  5
F9
  8
_________2
 62
     7
 10
135.5146125
 20
-0.8926299999999999
 30
0.0
 40
3.9357000000000002
  1
KW6191073
 41
0.5
 72
     1
 11
143.55000000000001
 21
-0.8926299999999999
 31
0.0
  0
TEXT
  5
FA
  8
_________2
 62
     7
 10
39.364090666666669
 20
13.603400000000001
 30
0.0
 40
3.6545800000000002
  1
石原
 41
0.5
 72
     1
 11
41.313200000000002
 21
13.603400000000001
 31
0.0
  0
TEXT
  5
FB
  8
_________2
 62
     7
 10
20.790090666666661
 20
13.603400000000001
 30
0.0
 40
3.6545800000000002
  1
菅原
 41
0.5
 72
     1
 11
22.73919999999999
 21
13.603400000000001
 31
0.0
  0
TEXT
  5
FC
  8
_________2
 62
     7
 10
67.785399999999996
 20
13.218199999999991
 30
0.0
 40
3.6545800000000002
  1
11.10.28
 41
0.5
  0
TEXT
  5
FD
  8
_________2
 62
     7
 10
66.592699999999994
 20
19.410799999999991
 30
0.0
 40
3.0923400000000001
  1
日付
 41
0.5
  0
TEXT
  5
FE
  8
_________2
 62
     7
 10
29.638999999999999
 20
19.410799999999991
 30
0.0
 40
3.0923400000000001
  1
検図
 41
0.5
  0
TEXT
  5
FF
  8
_________2
 62
     7
 10
18.020700000000001
 20
5.21143
 30
0.0
 40
3.0923400000000001
  1
備考
 41
0.5
  0
TEXT
  5
100
  8
_________2
 62
     7
 10
18.020700000000001
 20
19.410799999999991
 30
0.0
 40
3.0923400000000001
  1
製図
 41
0.5
  0
TEXT
  5
101
  8
_________2
 62
     7
 10
23.788165333333328
 20
27.936800000000002
 30
0.0
 40
4.4979399999999989
  1
セラトレーディング株式会社
 41
0.5
 72
     1
 11
41.180199999999999
 21
27.936800000000002
 31
0.0
  0
LINE
  5
102
  8
_________2
 62
     7
 10
183.55099999999999
 20
-4.0910799999999998
 30
0.0
 11
17.049199999999988
 21
-4.0910799999999998
 31
0.0
  0
LINE
  5
103
  8
_________2
 62
     7
 10
17.049199999999988
 20
-4.0910799999999998
 30
0.0
 11
17.049199999999988
 21
258.911
 31
0.0
  0
LINE
  5
104
  8
_________2
 62
     7
 10
17.049199999999988
 20
258.911
 30
0.0
 11
183.55099999999999
 21
258.911
 31
0.0
  0
LINE
  5
105
  8
_________2
 62
     7
 10
183.55099999999999
 20
258.911
 30
0.0
 11
183.55099999999999
 21
-4.0910799999999998
 31
0.0
  0
LINE
  5
106
  8
_________2
 62
     7
 10
65.549599999999998
 20
9.4092999999999982
 30
0.0
 11
65.549599999999998
 21
35.909100000000002
 31
0.0
  0
LINE
  5
107
  8
_________2
 62
     7
 10
84.549400000000006
 20
9.4092999999999982
 30
0.0
 11
84.549400000000006
 21
35.909100000000002
 31
0.0
  0
LINE
  5
108
  8
_________2
 62
     7
 10
103.55
 20
-4.0910799999999998
 30
0.0
 11
103.55
 21
35.909100000000002
 31
0.0
  0
LINE
  5
109
  8
_________2
 62
     7
 10
28.548999999999999
 20
9.4092999999999982
 30
0.0
 11
28.548999999999999
 21
23.409199999999998
 31
0.0
  0
LINE
  5
10A
  8
_________2
 62
     7
 10
17.049199999999988
 20
9.4092999999999982
 30
0.0
 11
103.55
 21
9.4092999999999982
 31
0.0
  0
LINE
  5
10B
  8
_________2
 62
     7
 10
17.049199999999988
 20
23.409199999999998
 30
0.0
 11
103.55
 21
23.409199999999998
 31
0.0
  0
LINE
  5
10C
  8
_________2
 62
     7
 10
103.55
 20
15.9085
 30
0.0
 11
183.55099999999999
 21
15.9085
 31
0.0
  0
LINE
  5
10D
  8
_________2
 62
     7
 10
17.049199999999988
 20
35.909100000000002
 30
0.0
 11
183.55099999999999
 21
35.909100000000002
 31
0.0
  0
ENDSEC
  0
EOF
