  0
SECTION
  2
HEADER
  9
$ACADVER
  1
AC1009
  9
$INSBASE
 10
0.0
 20
0.0
 30
0.0
  9
$EXTMIN
 10
-4.7012099999999988
 20
-21.070999999999991
 30
0.0
  9
$EXTMAX
 10
205.30099999999999
 20
275.93099999999993
 30
0.0
  9
$LIMMIN
 10
0.0
 20
0.0
  9
$LIMMAX
 10
12.0
 20
9.0
  9
$ORTHOMODE
 70
     0
  9
$REGENMODE
 70
     1
  9
$FILLMODE
 70
     1
  9
$QTEXTMODE
 70
     0
  9
$MIRRTEXT
 70
     1
  9
$DRAGMODE
 70
     2
  9
$LTSCALE
 40
1.0
  9
$OSMODE
 70
    37
  9
$ATTMODE
 70
     1
  9
$TEXTSIZE
 40
0.0
  9
$TRACEWID
 40
0.05
  9
$TEXTSTYLE
  7
STANDARD
  9
$CLAYER
  8
0
  9
$CELTYPE
  6
CONTINUOUS
  9
$CECOLOR
 62
   256
  9
$DIMSCALE
 40
1.0
  9
$DIMASZ
 40
0.18
  9
$DIMEXO
 40
0.0625
  9
$DIMDLI
 40
0.38
  9
$DIMRND
 40
0.0
  9
$DIMDLE
 40
0.0
  9
$DIMEXE
 40
0.18
  9
$DIMTP
 40
0.0
  9
$DIMTM
 40
0.0
  9
$DIMTXT
 40
0.18
  9
$DIMCEN
 40
0.09
  9
$DIMTSZ
 40
0.0
  9
$DIMTOL
 70
     0
  9
$DIMLIM
 70
     0
  9
$DIMTIH
 70
     1
  9
$DIMTOH
 70
     1
  9
$DIMSE1
 70
     0
  9
$DIMSE2
 70
     0
  9
$DIMTAD
 70
     0
  9
$DIMZIN
 70
     0
  9
$DIMBLK
  1

  9
$DIMASO
 70
     1
  9
$DIMSHO
 70
     1
  9
$DIMPOST
  1

  9
$DIMAPOST
  1

  9
$DIMALT
 70
     0
  9
$DIMALTD
 70
     2
  9
$DIMALTF
 40
25.399999999999999
  9
$DIMLFAC
 40
1.0
  9
$DIMTOFL
 70
     0
  9
$DIMTVP
 40
0.0
  9
$DIMTIX
 70
     0
  9
$DIMSOXD
 70
     0
  9
$DIMSAH
 70
     0
  9
$DIMBLK1
  1

  9
$DIMBLK2
  1

  9
$DIMSTYLE
  2
STANDARD
  9
$DIMCLRD
 70
     0
  9
$DIMCLRE
 70
     0
  9
$DIMCLRT
 70
     0
  9
$DIMTFAC
 40
1.0
  9
$DIMGAP
 40
0.09
  9
$LUNITS
 70
     2
  9
$LUPREC
 70
     4
  9
$SKETCHINC
 40
0.1
  9
$FILLETRAD
 40
0.0
  9
$AUNITS
 70
     0
  9
$AUPREC
 70
     0
  9
$MENU
  1
.
  9
$ELEVATION
 40
0.0
  9
$PELEVATION
 40
0.0
  9
$THICKNESS
 40
0.0
  9
$LIMCHECK
 70
     0
  9
$BLIPMODE
 70
     0
  9
$CHAMFERA
 40
0.0
  9
$CHAMFERB
 40
0.0
  9
$SKPOLY
 70
     0
  9
$TDCREATE
 40
2444972.375
  9
$TDUPDATE
 40
2455980.3618287039
  9
$TDINDWG
 40
0.0000079051
  9
$TDUSRTIMER
 40
0.0000079051
  9
$USRTIMER
 70
     1
  9
$ANGBASE
 50
0.0
  9
$ANGDIR
 70
     0
  9
$PDMODE
 70
     0
  9
$PDSIZE
 40
0.0
  9
$PLINEWID
 40
0.0
  9
$COORDS
 70
     1
  9
$SPLFRAME
 70
     0
  9
$SPLINETYPE
 70
     6
  9
$SPLINESEGS
 70
     8
  9
$ATTDIA
 70
     0
  9
$ATTREQ
 70
     1
  9
$HANDLING
 70
     1
  9
$HANDSEED
  5
17D
  9
$SURFTAB1
 70
     6
  9
$SURFTAB2
 70
     6
  9
$SURFTYPE
 70
     6
  9
$SURFU
 70
     6
  9
$SURFV
 70
     6
  9
$UCSNAME
  2

  9
$UCSORG
 10
0.0
 20
0.0
 30
0.0
  9
$UCSXDIR
 10
1.0
 20
0.0
 30
0.0
  9
$UCSYDIR
 10
0.0
 20
1.0
 30
0.0
  9
$PUCSNAME
  2

  9
$PUCSORG
 10
0.0
 20
0.0
 30
0.0
  9
$PUCSXDIR
 10
1.0
 20
0.0
 30
0.0
  9
$PUCSYDIR
 10
0.0
 20
1.0
 30
0.0
  9
$USERI1
 70
     0
  9
$USERI2
 70
     0
  9
$USERI3
 70
     0
  9
$USERI4
 70
     0
  9
$USERI5
 70
     0
  9
$USERR1
 40
0.0
  9
$USERR2
 40
0.0
  9
$USERR3
 40
0.0
  9
$USERR4
 40
0.0
  9
$USERR5
 40
0.0
  9
$WORLDVIEW
 70
     1
  9
$SHADEDGE
 70
     3
  9
$SHADEDIF
 70
    70
  9
$TILEMODE
 70
     1
  9
$MAXACTVP
 70
    48
  9
$PLIMCHECK
 70
     0
  9
$PEXTMIN
 10
1.0000000000000000E+020
 20
1.0000000000000000E+020
 30
1.0000000000000000E+020
  9
$PEXTMAX
 10
-1.0000000000000000E+020
 20
-1.0000000000000000E+020
 30
-1.0000000000000000E+020
  9
$PLIMMIN
 10
0.0
 20
0.0
  9
$PLIMMAX
 10
12.0
 20
9.0
  9
$UNITMODE
 70
     0
  9
$VISRETAIN
 70
     1
  9
$PLINEGEN
 70
     0
  9
$PSLTSCALE
 70
     1
  0
ENDSEC
  0
SECTION
  2
TABLES
  0
TABLE
  2
VPORT
 70
     2
  0
VPORT
  2
*ACTIVE
 70
     0
 10
0.0
 20
0.0
 11
1.0
 21
1.0
 12
205.31019906752431
 22
127.42999999999989
 13
0.0
 23
0.0
 14
1.0
 24
1.0
 15
0.0
 25
0.0
 16
0.0
 26
0.0
 36
1.0
 17
0.0
 27
0.0
 37
0.0
 40
299.24634760705283
 41
2.2894736842105261
 42
50.0
 43
0.0
 44
0.0
 50
0.0
 51
0.0
 71
     0
 72
   100
 73
     1
 74
     1
 75
     0
 76
     0
 77
     0
 78
     0
  0
ENDTAB
  0
TABLE
  2
LTYPE
 70
     2
  0
LTYPE
  2
CONTINUOUS
 70
     0
  3
Solid line
 72
    65
 73
     0
 40
0.0
  0
LTYPE
  2
AIGENLINE001
 70
     0
  3
generate AI->DXF Converter
 72
    65
 73
     4
 40
5.8561449999999988
 49
3.5278
 49
-0.776115
 49
0.776115
 49
-0.776115
  0
ENDTAB
  0
TABLE
  2
LAYER
 70
     2
  0
LAYER
  2
0
 70
     0
 62
     7
  6
CONTINUOUS
  0
LAYER
  2
_________2
 70
     0
 62
     7
  6
CONTINUOUS
  0
ENDTAB
  0
TABLE
  2
STYLE
 70
     1
  0
STYLE
  2
STANDARD
 70
     0
 40
0.0
 41
0.0
 50
0.0
 71
     0
 42
0.0
  3
TXT
  4
EXTFONT.SHX
  0
ENDTAB
  0
TABLE
  2
VIEW
 70
     0
  0
ENDTAB
  0
TABLE
  2
UCS
 70
     0
  0
ENDTAB
  0
TABLE
  2
APPID
 70
     1
  0
APPID
  2
ACAD
 70
     0
  0
ENDTAB
  0
TABLE
  2
DIMSTYLE
 70
     1
  0
DIMSTYLE
  2
STANDARD
 70
     0
  3

  4

  5

  6

  7

 40
1.0
 41
0.18
 42
0.0625
 43
0.38
 44
0.18
 45
0.0
 46
0.0
 47
0.0
 48
0.0
140
0.18
141
0.09
142
0.0
143
25.399999999999999
144
1.0
145
0.0
146
1.0
147
0.09
 71
     0
 72
     0
 73
     1
 74
     1
 75
     0
 76
     0
 77
     0
 78
     0
170
     0
171
     2
172
     0
173
     0
174
     0
175
     0
176
     0
177
     0
178
     0
  0
ENDTAB
  0
ENDSEC
  0
SECTION
  2
BLOCKS
  0
BLOCK
  8
0
  2
$MODEL_SPACE
 70
     0
 10
0.0
 20
0.0
 30
0.0
  3
$MODEL_SPACE
  1

  0
ENDBLK
  5
1A
  8
0
  0
BLOCK
 67
     1
  8
0
  2
$PAPER_SPACE
 70
     0
 10
0.0
 20
0.0
 30
0.0
  3
$PAPER_SPACE
  1

  0
ENDBLK
  5
17
 67
     1
  8
0
  0
ENDSEC
  0
SECTION
  2
ENTITIES
  0
TEXT
  5
22
  8
0
 62
     7
 10
130.8045249999999
 20
144.554
 30
0.0
 40
3.0923400000000001
  1
66
 41
0.5
 72
     1
 11
132.0929999999999
 21
144.554
 31
0.0
  0
TEXT
  5
23
  8
0
 62
     7
 10
134.35952499999991
 20
83.567899999999995
 30
0.0
 40
3.0923400000000001
  1
48
 41
0.5
 72
     1
 11
135.64799999999991
 21
83.567899999999995
 31
0.0
  0
TEXT
  5
24
  8
0
 62
     7
 10
145.54561000000001
 20
90.973500000000001
 30
0.0
 40
3.0923400000000001
  1
7
 41
0.5
 72
     1
 11
146.06100000000001
 21
90.973500000000001
 31
0.0
  0
TEXT
  5
25
  8
0
 62
     7
 10
120.77019900000001
 20
90.973500000000001
 30
0.0
 40
3.0923400000000001
  1
G 1/2
 41
0.5
 72
     1
 11
123.81100000000001
 21
90.973500000000001
 31
0.0
  0
TEXT
  5
26
  8
0
 62
     7
 10
62.911987500000002
 20
159.67400000000001
 30
0.0
 40
3.0923400000000001
  1
%%c30
 41
0.5
 72
     1
 11
64.844700000000003
 21
159.67400000000001
 31
0.0
  0
TEXT
  5
27
  8
0
 62
     7
 10
63.556224999999998
 20
86.086900000000014
 30
0.0
 40
3.0923400000000001
  1
75
 41
0.5
 72
     1
 11
64.844700000000003
 21
86.086900000000014
 31
0.0
  0
TEXT
  5
28
  8
0
 62
     7
 10
166.94799999999989
 20
113.299114
 30
0.0
 40
3.0923400000000001
  1
PJ 1/2
 50
90.0
 41
0.5
 72
     1
 11
166.94799999999989
 21
117.113
 31
0.0
  0
TEXT
  5
29
  8
0
 62
     7
 10
94.720100000000002
 20
115.82452499999999
 30
0.0
 40
3.0923400000000001
  1
75
 50
90.0
 41
0.5
 72
     1
 11
94.720100000000002
 21
117.113
 31
0.0
  0
LINE
  5
2A
  8
0
 62
     7
 10
150.02199999999999
 20
90.620000000000005
 30
0.0
 11
147.81100000000001
 21
90.027500000000003
 31
0.0
  0
LINE
  5
2B
  8
0
 62
     7
 10
147.81100000000001
 20
90.027500000000003
 30
0.0
 11
150.02199999999999
 21
89.434899999999999
 31
0.0
  0
LINE
  5
2C
  8
0
 62
     7
 10
150.02199999999999
 20
89.434899999999999
 30
0.0
 11
150.02199999999999
 21
90.620000000000005
 31
0.0
  0
LINE
  5
2D
  8
0
 62
     7
 10
126.021
 20
83.453100000000006
 30
0.0
 11
123.8099999999999
 21
82.860600000000005
 31
0.0
  0
LINE
  5
2E
  8
0
 62
     7
 10
123.8099999999999
 20
82.860600000000005
 30
0.0
 11
126.021
 21
82.267999999999986
 31
0.0
  0
LINE
  5
2F
  8
0
 62
     7
 10
126.021
 20
82.267999999999986
 30
0.0
 11
126.021
 21
83.453100000000006
 31
0.0
  0
LINE
  5
30
  8
0
 62
     7
 10
145.59999999999991
 20
82.282499999999999
 30
0.0
 11
147.81200000000001
 21
82.875100000000003
 31
0.0
  0
LINE
  5
31
  8
0
 62
     7
 10
147.81200000000001
 20
82.875100000000003
 30
0.0
 11
145.59999999999991
 21
83.467600000000004
 31
0.0
  0
LINE
  5
32
  8
0
 62
     7
 10
145.59999999999991
 20
83.467600000000004
 30
0.0
 11
145.59999999999991
 21
82.282499999999999
 31
0.0
  0
LINE
  5
33
  8
0
 62
     7
 10
123.81100000000001
 20
82.867800000000003
 30
0.0
 11
147.81100000000001
 21
82.867800000000003
 31
0.0
  0
LINE
  5
34
  8
0
 62
     7
 10
48.305700000000002
 20
85.972200000000001
 30
0.0
 11
46.093899999999998
 21
85.379699999999985
 31
0.0
  0
LINE
  5
35
  8
0
 62
     7
 10
46.093899999999998
 20
85.379699999999985
 30
0.0
 11
48.305700000000002
 21
84.787099999999995
 31
0.0
  0
LINE
  5
36
  8
0
 62
     7
 10
48.305700000000002
 20
84.787099999999995
 30
0.0
 11
48.305700000000002
 21
85.972200000000001
 31
0.0
  0
LINE
  5
37
  8
0
 62
     7
 10
81.384299999999996
 20
84.801599999999993
 30
0.0
 11
83.596100000000007
 21
85.394099999999995
 31
0.0
  0
LINE
  5
38
  8
0
 62
     7
 10
83.596100000000007
 20
85.394099999999995
 30
0.0
 11
81.384299999999996
 21
85.986699999999999
 31
0.0
  0
LINE
  5
39
  8
0
 62
     7
 10
81.384299999999996
 20
85.986699999999999
 30
0.0
 11
81.384299999999996
 21
84.801599999999993
 31
0.0
  0
LINE
  5
3A
  8
0
 62
     7
 10
46.094999999999992
 20
85.386899999999997
 30
0.0
 11
83.595100000000002
 21
85.386899999999997
 31
0.0
  0
LINE
  5
3B
  8
0
 62
     7
 10
83.595100000000002
 20
97.627399999999994
 30
0.0
 11
83.595100000000002
 21
84.686800000000005
 31
0.0
  0
LINE
  5
3C
  8
0
 62
     7
 10
46.094999999999992
 20
97.627399999999994
 30
0.0
 11
46.094999999999992
 21
84.686800000000005
 31
0.0
  0
LINE
  5
3D
  8
0
 62
     7
 10
59.555399999999999
 20
159.559
 30
0.0
 11
57.343600000000002
 21
158.96600000000001
 31
0.0
  0
LINE
  5
3E
  8
0
 62
     7
 10
57.343600000000002
 20
158.96600000000001
 30
0.0
 11
59.555399999999999
 21
158.37399999999991
 31
0.0
  0
LINE
  5
3F
  8
0
 62
     7
 10
59.555399999999999
 20
158.37399999999991
 30
0.0
 11
59.555399999999999
 21
159.559
 31
0.0
  0
LINE
  5
40
  8
0
 62
     7
 10
70.134
 20
158.38800000000001
 30
0.0
 11
72.345699999999994
 21
158.98099999999991
 31
0.0
  0
LINE
  5
41
  8
0
 62
     7
 10
72.345699999999994
 20
158.98099999999991
 30
0.0
 11
70.134
 21
159.5739999999999
 31
0.0
  0
LINE
  5
42
  8
0
 62
     7
 10
70.134
 20
159.5739999999999
 30
0.0
 11
70.134
 21
158.38800000000001
 31
0.0
  0
LINE
  5
43
  8
0
 62
     7
 10
57.344700000000003
 20
158.9739999999999
 30
0.0
 11
72.344700000000003
 21
158.9739999999999
 31
0.0
  0
LINE
  5
44
  8
0
 62
     7
 10
72.344700000000003
 20
167.92199999999991
 30
0.0
 11
72.344700000000003
 21
158.274
 31
0.0
  0
LINE
  5
45
  8
0
 62
     7
 10
57.344700000000003
 20
167.92199999999991
 30
0.0
 11
57.344700000000003
 21
158.274
 31
0.0
  0
LINE
  5
46
  8
0
 62
     7
 10
94.834800000000001
 20
100.57299999999999
 30
0.0
 11
95.427300000000002
 21
98.361900000000006
 31
0.0
  0
LINE
  5
47
  8
0
 62
     7
 10
95.427300000000002
 20
98.361900000000006
 30
0.0
 11
96.019900000000007
 21
100.57299999999999
 31
0.0
  0
LINE
  5
48
  8
0
 62
     7
 10
96.019900000000007
 20
100.57299999999999
 30
0.0
 11
94.834800000000001
 21
100.57299999999999
 31
0.0
  0
LINE
  5
49
  8
0
 62
     7
 10
96.005399999999995
 20
133.65199999999999
 30
0.0
 11
95.412899999999993
 21
135.864
 31
0.0
  0
LINE
  5
4A
  8
0
 62
     7
 10
95.412899999999993
 20
135.864
 30
0.0
 11
94.820299999999989
 21
133.65199999999999
 31
0.0
  0
LINE
  5
4B
  8
0
 62
     7
 10
94.820299999999989
 20
133.65199999999999
 30
0.0
 11
96.005399999999995
 21
133.65199999999999
 31
0.0
  0
LINE
  5
4C
  8
0
 62
     7
 10
95.420100000000005
 20
98.362600000000015
 30
0.0
 11
95.420100000000005
 21
135.863
 31
0.0
  0
LINE
  5
4D
  8
0
 62
     7
 10
84.172500000000014
 20
135.863
 30
0.0
 11
96.120099999999994
 21
135.863
 31
0.0
  0
LINE
  5
4E
  8
0
 62
     7
 10
84.172500000000014
 20
98.362600000000015
 30
0.0
 11
96.120099999999994
 21
98.362600000000015
 31
0.0
  0
LINE
  5
4F
  8
0
 62
     7
 10
142.0989999999999
 20
89.434899999999999
 30
0.0
 11
144.31100000000001
 21
90.027500000000003
 31
0.0
  0
LINE
  5
50
  8
0
 62
     7
 10
144.31100000000001
 20
90.027500000000003
 30
0.0
 11
142.0989999999999
 21
90.620000000000005
 31
0.0
  0
LINE
  5
51
  8
0
 62
     7
 10
142.0989999999999
 20
90.620000000000005
 30
0.0
 11
142.0989999999999
 21
89.434899999999999
 31
0.0
  0
LINE
  5
52
  8
0
 62
     7
 10
151.24100000000001
 20
90.027500000000003
 30
0.0
 11
140.5079999999999
 21
90.027500000000003
 31
0.0
  0
LINE
  5
53
  8
0
 62
     7
 10
126.59999999999999
 20
89.442099999999996
 30
0.0
 11
128.81200000000001
 21
90.034700000000001
 31
0.0
  0
LINE
  5
54
  8
0
 62
     7
 10
128.81200000000001
 20
90.034700000000001
 30
0.0
 11
126.59999999999999
 21
90.627300000000005
 31
0.0
  0
LINE
  5
55
  8
0
 62
     7
 10
126.59999999999999
 20
90.627300000000005
 30
0.0
 11
126.59999999999999
 21
89.442099999999996
 31
0.0
  0
LINE
  5
56
  8
0
 62
     7
 10
121.02200000000001
 20
90.612799999999993
 30
0.0
 11
118.81
 21
90.020199999999988
 31
0.0
  0
LINE
  5
57
  8
0
 62
     7
 10
118.81
 20
90.020199999999988
 30
0.0
 11
121.02200000000001
 21
89.427700000000016
 31
0.0
  0
LINE
  5
58
  8
0
 62
     7
 10
121.02200000000001
 20
89.427700000000016
 30
0.0
 11
121.02200000000001
 21
90.612799999999993
 31
0.0
  0
LINE
  5
59
  8
0
 62
     7
 10
128.81100000000001
 20
90.027500000000003
 30
0.0
 11
118.81099999999989
 21
90.027500000000003
 31
0.0
  0
LINE
  5
5A
  8
0
 62
     7
 10
145.59999999999991
 20
143.26799999999989
 30
0.0
 11
147.81200000000001
 21
143.8609999999999
 31
0.0
  0
LINE
  5
5B
  8
0
 62
     7
 10
147.81200000000001
 20
143.8609999999999
 30
0.0
 11
145.59999999999991
 21
144.45400000000001
 31
0.0
  0
LINE
  5
5C
  8
0
 62
     7
 10
145.59999999999991
 20
144.45400000000001
 30
0.0
 11
145.59999999999991
 21
143.26799999999989
 31
0.0
  0
LINE
  5
5D
  8
0
 62
     7
 10
117.0209999999999
 20
144.43899999999999
 30
0.0
 11
114.81
 21
143.846
 31
0.0
  0
LINE
  5
5E
  8
0
 62
     7
 10
114.81
 20
143.846
 30
0.0
 11
117.0209999999999
 21
143.25399999999991
 31
0.0
  0
LINE
  5
5F
  8
0
 62
     7
 10
117.0209999999999
 20
143.25399999999991
 30
0.0
 11
117.0209999999999
 21
144.43899999999999
 31
0.0
  0
LINE
  5
60
  8
0
 62
     7
 10
147.81100000000001
 20
143.8539999999999
 30
0.0
 11
114.81100000000001
 21
143.8539999999999
 31
0.0
  0
LINE
  5
61
  8
0
 62
     7
 10
123.81100000000001
 20
82.167799999999986
 30
0.0
 11
123.81100000000001
 21
88.874399999999994
 31
0.0
  0
LINE
  5
62
  8
0
 62
     7
 10
123.81100000000001
 20
94.496099999999984
 30
0.0
 11
123.81100000000001
 21
97.78100000000002
 31
0.0
  0
LINE
  5
63
  8
0
 62
     7
 10
147.81100000000001
 20
82.167799999999986
 30
0.0
 11
147.81100000000001
 21
97.662199999999999
 31
0.0
  0
LINE
  5
64
  8
0
 62
     7
 10
147.81100000000001
 20
136.5629999999999
 30
0.0
 11
147.81100000000001
 21
144.554
 31
0.0
  0
LINE
  5
65
  8
0
 62
     7
 10
114.81100000000001
 20
125.3749999999999
 30
0.0
 11
114.81100000000001
 21
144.554
 31
0.0
  0
LINE
  5
66
  8
0
 62
     7
 10
167.34399999999999
 20
114.324
 30
0.0
 11
167.93700000000001
 21
112.11199999999999
 31
0.0
  0
LINE
  5
67
  8
0
 62
     7
 10
167.93700000000001
 20
112.11199999999999
 30
0.0
 11
168.529
 21
114.324
 31
0.0
  0
LINE
  5
68
  8
0
 62
     7
 10
168.529
 20
114.324
 30
0.0
 11
167.34399999999999
 21
114.324
 31
0.0
  0
LINE
  5
69
  8
0
 62
     7
 10
168.5149999999999
 20
119.9019999999999
 30
0.0
 11
167.92199999999991
 21
122.1139999999999
 31
0.0
  0
LINE
  5
6A
  8
0
 62
     7
 10
167.92199999999991
 20
122.1139999999999
 30
0.0
 11
167.33000000000001
 21
119.9019999999999
 31
0.0
  0
LINE
  5
6B
  8
0
 62
     7
 10
167.33000000000001
 20
119.9019999999999
 30
0.0
 11
168.5149999999999
 21
119.9019999999999
 31
0.0
  0
LINE
  5
6C
  8
0
 62
     7
 10
167.92899999999989
 20
112.1129999999999
 30
0.0
 11
167.92899999999989
 21
122.113
 31
0.0
  0
LINE
  5
6D
  8
0
 62
     7
 10
69.344700000000003
 20
99.874300000000005
 30
0.0
 11
69.844200000000001
 21
100.374
 31
0.0
  0
LINE
  5
6E
  8
0
 62
     7
 10
60.343999999999987
 20
99.874300000000005
 30
0.0
 11
59.8444
 21
100.374
 31
0.0
  0
LINE
  5
6F
  8
0
 62
     7
 10
59.8444
 20
100.374
 30
0.0
 11
69.844200000000001
 21
100.374
 31
0.0
  0
LINE
  5
70
  8
0
 62
     7
 10
60.343999999999987
 20
99.874300000000005
 30
0.0
 11
69.344700000000003
 21
99.874300000000005
 31
0.0
  0
LINE
  5
71
  8
0
 62
     7
 10
69.344700000000003
 20
103.3739999999999
 30
0.0
 11
69.344700000000003
 21
99.874300000000005
 31
0.0
  0
LINE
  5
72
  8
0
 62
     7
 10
60.343999999999987
 20
103.3739999999999
 30
0.0
 11
60.343999999999987
 21
99.874300000000005
 31
0.0
  0
LINE
  5
73
  8
0
 62
     7
 10
69.844200000000001
 20
103.3739999999999
 30
0.0
 11
69.844200000000001
 21
100.374
 31
0.0
  0
LINE
  5
74
  8
0
 62
     7
 10
59.8444
 20
103.3739999999999
 30
0.0
 11
59.8444
 21
100.374
 31
0.0
  0
LINE
  5
75
  8
0
 62
     7
 10
119.31100000000001
 20
99.874300000000005
 30
0.0
 11
118.81099999999989
 21
100.374
 31
0.0
  0
LINE
  5
76
  8
0
 62
     7
 10
128.31100000000001
 20
99.874300000000005
 30
0.0
 11
128.81100000000001
 21
100.374
 31
0.0
  0
LINE
  5
77
  8
0
 62
     7
 10
128.81100000000001
 20
100.374
 30
0.0
 11
118.81099999999989
 21
100.374
 31
0.0
  0
LINE
  5
78
  8
0
 62
     7
 10
128.31100000000001
 20
99.874300000000005
 30
0.0
 11
119.31100000000001
 21
99.874300000000005
 31
0.0
  0
LINE
  5
79
  8
0
 62
     7
 10
119.31100000000001
 20
103.3739999999999
 30
0.0
 11
119.31100000000001
 21
99.874300000000005
 31
0.0
  0
LINE
  5
7A
  8
0
 62
     7
 10
128.31100000000001
 20
103.3739999999999
 30
0.0
 11
128.31100000000001
 21
99.874300000000005
 31
0.0
  0
LINE
  5
7B
  8
0
 62
     7
 10
118.81099999999989
 20
99.028899999999993
 30
0.0
 11
118.81099999999989
 21
89.327399999999997
 31
0.0
  0
LINE
  5
7C
  8
0
 62
     7
 10
144.31100000000001
 20
97.844100000000012
 30
0.0
 11
144.31100000000001
 21
88.842699999999994
 31
0.0
  0
LINE
  5
7D
  8
0
 62
     7
 10
128.81100000000001
 20
99.028899999999993
 30
0.0
 11
128.81100000000001
 21
89.327399999999997
 31
0.0
  0
LINE
  5
7E
  8
0
 62
     7
 10
118.81099999999989
 20
103.3739999999999
 30
0.0
 11
118.81099999999989
 21
100.374
 31
0.0
  0
LINE
  5
7F
  8
0
 62
     7
 10
128.81100000000001
 20
103.3739999999999
 30
0.0
 11
128.81100000000001
 21
100.374
 31
0.0
  0
LINE
  5
80
  8
0
  6
AIGENLINE001
 62
     7
 10
123.81100000000001
 20
98.481099999999998
 30
0.0
 11
123.81100000000001
 21
113.20999999999989
 31
0.0
  0
LINE
  5
81
  8
0
 62
     7
 10
139.31399999999999
 20
109.6189999999999
 30
0.0
 11
139.31700000000001
 21
109.6189999999999
 31
0.0
  0
LINE
  5
82
  8
0
 62
     7
 10
139.31700000000001
 20
109.6189999999999
 30
0.0
 11
139.327
 21
109.621
 31
0.0
  0
LINE
  5
83
  8
0
 62
     7
 10
139.327
 20
109.621
 30
0.0
 11
139.3429999999999
 21
109.623
 31
0.0
  0
LINE
  5
84
  8
0
 62
     7
 10
139.3429999999999
 20
109.623
 30
0.0
 11
139.36500000000001
 21
109.626
 31
0.0
  0
LINE
  5
85
  8
0
 62
     7
 10
139.36500000000001
 20
109.626
 30
0.0
 11
139.392
 21
109.63
 31
0.0
  0
LINE
  5
86
  8
0
 62
     7
 10
139.392
 20
109.63
 30
0.0
 11
139.42500000000001
 21
109.63500000000001
 31
0.0
  0
LINE
  5
87
  8
0
 62
     7
 10
139.42500000000001
 20
109.63500000000001
 30
0.0
 11
139.464
 21
109.64
 31
0.0
  0
LINE
  5
88
  8
0
 62
     7
 10
139.464
 20
109.64
 30
0.0
 11
139.50700000000001
 21
109.6449999999999
 31
0.0
  0
LINE
  5
89
  8
0
 62
     7
 10
139.50700000000001
 20
109.6449999999999
 30
0.0
 11
139.554
 21
109.651
 31
0.0
  0
LINE
  5
8A
  8
0
 62
     7
 10
139.554
 20
109.651
 30
0.0
 11
139.60499999999999
 21
109.65599999999991
 31
0.0
  0
LINE
  5
8B
  8
0
 62
     7
 10
139.60499999999999
 20
109.65599999999991
 30
0.0
 11
139.66
 21
109.66200000000001
 31
0.0
  0
LINE
  5
8C
  8
0
 62
     7
 10
139.66
 20
109.66200000000001
 30
0.0
 11
139.71700000000001
 21
109.667
 31
0.0
  0
LINE
  5
8D
  8
0
 62
     7
 10
139.71700000000001
 20
109.667
 30
0.0
 11
139.77500000000001
 21
109.672
 31
0.0
  0
LINE
  5
8E
  8
0
 62
     7
 10
139.77500000000001
 20
109.672
 30
0.0
 11
139.83600000000001
 21
109.6759999999999
 31
0.0
  0
LINE
  5
8F
  8
0
 62
     7
 10
139.83600000000001
 20
109.6759999999999
 30
0.0
 11
139.89799999999991
 21
109.67999999999989
 31
0.0
  0
LINE
  5
90
  8
0
 62
     7
 10
139.89799999999991
 20
109.67999999999989
 30
0.0
 11
139.96100000000001
 21
109.684
 31
0.0
  0
LINE
  5
91
  8
0
 62
     7
 10
139.96100000000001
 20
109.684
 30
0.0
 11
140.02399999999989
 21
109.68600000000001
 31
0.0
  0
LINE
  5
92
  8
0
 62
     7
 10
140.02399999999989
 20
109.68600000000001
 30
0.0
 11
140.08799999999991
 21
109.6879999999999
 31
0.0
  0
LINE
  5
93
  8
0
 62
     7
 10
140.08799999999991
 20
109.6879999999999
 30
0.0
 11
140.15299999999991
 21
109.68899999999989
 31
0.0
  0
LINE
  5
94
  8
0
 62
     7
 10
140.15299999999991
 20
109.68899999999989
 30
0.0
 11
140.21700000000001
 21
109.68899999999989
 31
0.0
  0
LINE
  5
95
  8
0
 62
     7
 10
140.21700000000001
 20
109.68899999999989
 30
0.0
 11
140.28200000000001
 21
109.68899999999989
 31
0.0
  0
LINE
  5
96
  8
0
 62
     7
 10
140.28200000000001
 20
109.68899999999989
 30
0.0
 11
140.346
 21
109.6879999999999
 31
0.0
  0
LINE
  5
97
  8
0
 62
     7
 10
140.346
 20
109.6879999999999
 30
0.0
 11
140.40999999999991
 21
109.68600000000001
 31
0.0
  0
LINE
  5
98
  8
0
 62
     7
 10
140.40999999999991
 20
109.68600000000001
 30
0.0
 11
140.4729999999999
 21
109.684
 31
0.0
  0
LINE
  5
99
  8
0
 62
     7
 10
140.4729999999999
 20
109.684
 30
0.0
 11
140.53599999999989
 21
109.67999999999989
 31
0.0
  0
LINE
  5
9A
  8
0
 62
     7
 10
140.53599999999989
 20
109.67999999999989
 30
0.0
 11
140.5979999999999
 21
109.6759999999999
 31
0.0
  0
LINE
  5
9B
  8
0
 62
     7
 10
140.5979999999999
 20
109.6759999999999
 30
0.0
 11
140.65599999999989
 21
109.672
 31
0.0
  0
LINE
  5
9C
  8
0
 62
     7
 10
140.65599999999989
 20
109.672
 30
0.0
 11
140.714
 21
109.667
 31
0.0
  0
LINE
  5
9D
  8
0
 62
     7
 10
140.714
 20
109.667
 30
0.0
 11
140.77199999999999
 21
109.66200000000001
 31
0.0
  0
LINE
  5
9E
  8
0
 62
     7
 10
140.77199999999999
 20
109.66200000000001
 30
0.0
 11
140.82599999999999
 21
109.65599999999991
 31
0.0
  0
LINE
  5
9F
  8
0
 62
     7
 10
140.82599999999999
 20
109.65599999999991
 30
0.0
 11
140.87700000000001
 21
109.651
 31
0.0
  0
LINE
  5
A0
  8
0
 62
     7
 10
140.87700000000001
 20
109.651
 30
0.0
 11
140.92400000000001
 21
109.6449999999999
 31
0.0
  0
LINE
  5
A1
  8
0
 62
     7
 10
140.92400000000001
 20
109.6449999999999
 30
0.0
 11
140.96700000000001
 21
109.64
 31
0.0
  0
LINE
  5
A2
  8
0
 62
     7
 10
140.96700000000001
 20
109.64
 30
0.0
 11
141.006
 21
109.63500000000001
 31
0.0
  0
LINE
  5
A3
  8
0
 62
     7
 10
141.006
 20
109.63500000000001
 30
0.0
 11
141.0389999999999
 21
109.63
 31
0.0
  0
LINE
  5
A4
  8
0
 62
     7
 10
141.0389999999999
 20
109.63
 30
0.0
 11
141.06700000000001
 21
109.626
 31
0.0
  0
LINE
  5
A5
  8
0
 62
     7
 10
141.06700000000001
 20
109.626
 30
0.0
 11
141.089
 21
109.623
 31
0.0
  0
LINE
  5
A6
  8
0
 62
     7
 10
141.089
 20
109.623
 30
0.0
 11
141.1039999999999
 21
109.621
 31
0.0
  0
LINE
  5
A7
  8
0
 62
     7
 10
141.1039999999999
 20
109.621
 30
0.0
 11
141.114
 21
109.6189999999999
 31
0.0
  0
LINE
  5
A8
  8
0
 62
     7
 10
141.114
 20
109.6189999999999
 30
0.0
 11
141.11699999999999
 21
109.6189999999999
 31
0.0
  0
LINE
  5
A9
  8
0
 62
     7
 10
129.10599999999991
 20
109.6189999999999
 30
0.0
 11
129.10099999999991
 21
109.623
 31
0.0
  0
ARC
  5
AA
  8
0
 62
     7
 10
128.88462999999999
 20
109.31603699999999
 30
0.0
 40
0.375196
 50
54.792245000000001
 51
57.827607999999998
  0
ARC
  5
AB
  8
0
 62
     7
 10
128.76180999999991
 20
109.215412
 30
0.0
 40
0.5281760000000001
 50
52.354047999999999
 51
55.86060899999999
  0
LINE
  5
AC
  8
0
 62
     7
 10
129.05799999999999
 20
109.65300000000001
 30
0.0
 11
129.02099999999999
 21
109.679
 31
0.0
  0
LINE
  5
AD
  8
0
 62
     7
 10
129.02099999999999
 20
109.679
 30
0.0
 11
128.97200000000001
 21
109.71299999999989
 31
0.0
  0
ARC
  5
AE
  8
0
 62
     7
 10
126.83889499999999
 20
106.718405
 30
0.0
 40
3.6765910000000002
 50
54.53450200000001
 51
55.660494999999997
  0
LINE
  5
AF
  8
0
 62
     7
 10
128.9129999999999
 20
109.75399999999991
 30
0.0
 11
128.84100000000001
 21
109.803
 31
0.0
  0
LINE
  5
B0
  8
0
 62
     7
 10
128.84100000000001
 20
109.803
 30
0.0
 11
128.7589999999999
 21
109.86
 31
0.0
  0
ARC
  5
B1
  8
0
 62
     7
 10
139.83869799999991
 20
126.34805299999999
 30
0.0
 40
19.864954000000001
 50
235.764399
 51
236.09787399999999
  0
ARC
  5
B2
  8
0
 62
     7
 10
123.0321379999999
 20
101.662746
 30
0.0
 40
9.9984839999999995
 50
55.726467
 51
56.473330000000011
  0
ARC
  5
B3
  8
0
 62
     7
 10
122.51152399999999
 20
101.0001289999999
 30
0.0
 40
10.838622000000001
 50
56.113762000000001
 51
56.882540000000013
  0
ARC
  5
B4
  8
0
 62
     7
 10
103.09050499999999
 20
71.312806999999992
 30
0.0
 40
46.314143000000001
 50
56.82533699999999
 51
57.023699000000001
  0
ARC
  5
B5
  8
0
 62
     7
 10
113.713207
 20
87.604367999999994
 30
0.0
 40
26.865404999999988
 50
57.117481999999988
 51
57.492902000000001
  0
ARC
  5
B6
  8
0
 62
     7
 10
122.0109649999999
 20
100.58468499999989
 30
0.0
 40
11.459552
 50
57.603059000000002
 51
58.560910000000007
  0
ARC
  5
B7
  8
0
 62
     7
 10
123.9549809999999
 20
103.96654699999991
 30
0.0
 40
7.5609149999999987
 50
57.762729999999991
 51
59.323610000000002
  0
ARC
  5
B8
  8
0
 62
     7
 10
119.274136
 20
96.331455000000005
 30
0.0
 40
16.516200999999999
 50
58.870947999999991
 51
59.633014000000003
  0
ARC
  5
B9
  8
0
 62
     7
 10
120.5404069999999
 20
98.42111899999999
 30
0.0
 40
14.073128000000001
 50
59.780163000000002
 51
60.730060999999999
  0
ARC
  5
BA
  8
0
 62
     7
 10
122.2059209999999
 20
101.524818
 30
0.0
 40
10.551577
 50
60.379258
 51
61.700614999999999
  0
ARC
  5
BB
  8
0
 62
     7
 10
121.3612139999999
 20
99.942936000000003
 30
0.0
 40
12.344856
 50
61.729325999999993
 51
62.899443999999988
  0
ARC
  5
BC
  8
0
 62
     7
 10
120.833437
 20
98.953272999999996
 30
0.0
 40
13.466305999999999
 50
62.818660999999999
 51
63.914070000000002
  0
ARC
  5
BD
  8
0
 62
     7
 10
121.000803
 20
99.130770000000012
 30
0.0
 40
13.233492999999999
 50
64.226966000000004
 51
65.354636999999997
  0
ARC
  5
BE
  8
0
 62
     7
 10
122.08758899999999
 20
101.362222
 30
0.0
 40
10.752274999999999
 50
65.659817000000004
 51
67.046669999999992
  0
ARC
  5
BF
  8
0
 62
     7
 10
122.8021889999999
 20
103.01557699999999
 30
0.0
 40
8.9511579999999995
 50
67.131433000000001
 51
68.782587000000007
  0
ARC
  5
C0
  8
0
 62
     7
 10
123.30091
 20
104.328935
 30
0.0
 40
7.5463429999999994
 50
68.703628000000009
 51
70.622962000000001
  0
ARC
  5
C1
  8
0
 62
     7
 10
123.449986
 20
104.79513799999989
 30
0.0
 40
7.0571009999999994
 50
70.508917000000011
 51
72.520385000000005
  0
ARC
  5
C2
  8
0
 62
     7
 10
123.59980299999999
 20
105.2851949999999
 30
0.0
 40
6.5446739999999988
 50
72.48276899999999
 51
74.590035
  0
ARC
  5
C3
  8
0
 62
     7
 10
123.6510269999999
 20
105.512411
 30
0.0
 40
6.3120250000000002
 50
74.490228999999999
 51
76.62168299999999
  0
ARC
  5
C4
  8
0
 62
     7
 10
123.817365
 20
106.2813519999999
 30
0.0
 40
5.525485999999999
 50
76.454813999999999
 51
78.824806999999993
  0
ARC
  5
C5
  8
0
 62
     7
 10
123.64056599999989
 20
105.3540659999999
 30
0.0
 40
6.4694589999999987
 50
78.880332999999993
 51
80.857873999999995
  0
ARC
  5
C6
  8
0
 62
     7
 10
123.8300659999999
 20
106.57621499999991
 30
0.0
 40
5.2327309999999994
 50
80.780275000000003
 51
83.188024999999996
  0
ARC
  5
C7
  8
0
 62
     7
 10
123.8448999999999
 20
106.779758
 30
0.0
 40
5.0288740000000001
 50
83.080775000000017
 51
85.534502000000003
  0
ARC
  5
C8
  8
0
 62
     7
 10
123.8514829999999
 20
107.1386879999999
 30
0.0
 40
4.6705690000000004
 50
85.272188999999983
 51
87.897365000000008
  0
ARC
  5
C9
  8
0
 62
     7
 10
123.8111729999999
 20
106.3894029999999
 30
0.0
 40
5.4208439999999998
 50
87.762167000000005
 51
90.005793000000011
  0
ARC
  5
CA
  8
0
 62
     7
 10
123.809325
 20
106.39273
 30
0.0
 40
5.4175170000000001
 50
89.986243999999999
 51
92.238534999999999
  0
ARC
  5
CB
  8
0
 62
     7
 10
123.79232399999989
 20
106.74915
 30
0.0
 40
5.0607059999999988
 50
92.203819999999979
 51
94.626587000000015
  0
ARC
  5
CC
  8
0
 62
     7
 10
123.886698
 20
105.6657949999999
 30
0.0
 40
6.1481479999999991
 50
94.688854000000006
 51
96.695828000000006
  0
ARC
  5
CD
  8
0
 62
     7
 10
123.758071
 20
106.824555
 30
0.0
 40
4.9822989999999994
 50
96.780473000000015
 51
99.301417000000001
  0
ARC
  5
CE
  8
0
 62
     7
 10
123.8514909999999
 20
106.077083
 30
0.0
 40
5.7351140000000003
 50
99.015484999999984
 51
101.246268
  0
ARC
  5
CF
  8
0
 62
     7
 10
123.851861
 20
106.043505
 30
0.0
 40
5.7681219999999991
 50
101.1848159999999
 51
103.461788
  0
ARC
  5
D0
  8
0
 62
     7
 10
123.9015629999999
 20
105.77629499999991
 30
0.0
 40
6.0395769999999986
 50
103.33021599999989
 51
105.55783199999991
  0
ARC
  5
D1
  8
0
 62
     7
 10
124.1001989999999
 20
105.0163739999999
 30
0.0
 40
6.8249420000000001
 50
105.45321799999989
 51
107.473938
  0
ARC
  5
D2
  8
0
 62
     7
 10
124.278716
 20
104.47166
 30
0.0
 40
7.3981259999999986
 50
107.52596
 51
109.444698
  0
ARC
  5
D3
  8
0
 62
     7
 10
124.4351259999999
 20
104.0173739999999
 30
0.0
 40
7.878571
 50
109.4174899999999
 51
111.2558809999999
  0
ARC
  5
D4
  8
0
 62
     7
 10
124.692021
 20
103.327628
 30
0.0
 40
8.614533999999999
 50
111.18513
 51
112.90081000000001
  0
ARC
  5
D5
  8
0
 62
     7
 10
125.241806
 20
102.0271909999999
 30
0.0
 40
10.026412000000001
 50
112.90310700000001
 51
114.390367
  0
ARC
  5
D6
  8
0
 62
     7
 10
127.64550199999989
 20
96.951856000000021
 30
0.0
 40
15.641677
 50
114.7321529999999
 51
115.686204
  0
ARC
  5
D7
  8
0
 62
     7
 10
125.6359649999999
 20
101.248716
 30
0.0
 40
10.898529999999999
 50
115.9568609999999
 51
117.310368
  0
ARC
  5
D8
  8
0
 62
     7
 10
125.36985300000001
 20
101.638206
 30
0.0
 40
10.43052
 50
116.993154
 51
118.37803599999999
  0
ARC
  5
D9
  8
0
 62
     7
 10
128.41390000000001
 20
96.105098999999996
 30
0.0
 40
16.745584000000001
 50
118.54374799999999
 51
119.3763389999999
  0
ARC
  5
DA
  8
0
 62
     7
 10
126.1398879999999
 20
100.10314700000001
 30
0.0
 40
12.146133000000001
 50
119.280142
 51
120.37792499999991
  0
ARC
  5
DB
  8
0
 62
     7
 10
126.786371
 20
98.912222999999997
 30
0.0
 40
13.50055499999999
 50
120.18896100000001
 51
121.1237689999999
  0
ARC
  5
DC
  8
0
 62
     7
 10
127.57821799999989
 20
97.529757000000004
 30
0.0
 40
15.093358999999991
 50
120.98438299999999
 51
121.76559499999991
  0
ARC
  5
DD
  8
0
 62
     7
 10
129.782926
 20
94.010415000000009
 30
0.0
 40
19.246206000000001
 50
121.83025600000001
 51
122.399378
  0
ARC
  5
DE
  8
0
 62
     7
 10
128.2384989999999
 20
96.387428000000014
 30
0.0
 40
16.411709999999989
 50
122.2933689999999
 51
122.90727099999989
  0
ARC
  5
DF
  8
0
 62
     7
 10
128.3525139999999
 20
96.136463000000006
 30
0.0
 40
16.6844
 50
122.7677679999999
 51
123.321031
  0
ARC
  5
E0
  8
0
 62
     7
 10
126.555401
 20
98.815061000000014
 30
0.0
 40
13.458975000000001
 50
123.192278
 51
123.81138
  0
LINE
  5
E1
  8
0
 62
     7
 10
119.066
 20
109.99799999999991
 30
0.0
 11
118.958
 21
109.925
 31
0.0
  0
ARC
  5
E2
  8
0
 62
     7
 10
126.456216
 20
98.814631999999975
 30
0.0
 40
13.40402099999999
 50
124.01519999999989
 51
124.506978
  0
ARC
  5
E3
  8
0
 62
     7
 10
122.9880129999999
 20
103.72035799999991
 30
0.0
 40
7.3970830000000003
 50
123.8960629999999
 51
124.67766399999989
  0
LINE
  5
E4
  8
0
 62
     7
 10
118.7789999999999
 20
109.803
 30
0.0
 11
118.7079999999999
 21
109.75399999999991
 31
0.0
  0
ARC
  5
E5
  8
0
 62
     7
 10
116.5745129999999
 20
112.748656
 30
0.0
 40
3.6765910000000002
 50
304.33950499999992
 51
305.46549800000003
  0
LINE
  5
E6
  8
0
 62
     7
 10
118.6479999999999
 20
109.71299999999989
 30
0.0
 11
118.59999999999989
 21
109.679
 31
0.0
  0
LINE
  5
E7
  8
0
 62
     7
 10
118.59999999999989
 20
109.679
 30
0.0
 11
118.562
 21
109.65300000000001
 31
0.0
  0
ARC
  5
E8
  8
0
 62
     7
 10
119.288724
 20
108.62126499999999
 30
0.0
 40
1.2614419999999991
 50
125.15863299999999
 51
126.626671
  0
ARC
  5
E9
  8
0
 62
     7
 10
118.62739599999991
 20
109.48555399999999
 30
0.0
 40
0.173926
 50
121.64305400000001
 51
128.005897
  0
LINE
  5
EA
  8
0
 62
     7
 10
118.52
 20
109.623
 30
0.0
 11
118.5149999999999
 21
109.6189999999999
 31
0.0
  0
ARC
  5
EB
  8
0
 62
     7
 10
83.123478000000006
 20
198.5094499999999
 30
0.0
 40
0.36218
 50
271.90262999999987
 51
356.14365099999998
  0
ARC
  5
EC
  8
0
 62
     7
 10
46.565908
 20
198.50912
 30
0.0
 40
0.361828
 50
183.80773999999991
 51
268.20246200000003
  0
ARC
  5
ED
  8
0
 62
     7
 10
57.863227999999999
 20
169.16583700000001
 30
0.0
 40
0.5189110000000001
 50
182.10058699999999
 51
267.89944199999991
  0
ARC
  5
EE
  8
0
 62
     7
 10
71.82650799999999
 20
169.1654739999999
 30
0.0
 40
0.5185340000000001
 50
272.06193899999988
 51
357.93807099999992
  0
ARC
  5
EF
  8
0
 62
     7
 10
47.131142999999987
 20
134.8266679999999
 30
0.0
 40
1.03687
 50
92.087426000000022
 51
177.88288
  0
LINE
  5
F0
  8
0
 62
     7
 10
46.094999999999992
 20
134.86500000000001
 30
0.0
 11
46.094999999999992
 21
134.864
 31
0.0
  0
ARC
  5
F1
  8
0
 62
     7
 10
47.131157000000002
 20
99.398727000000022
 30
0.0
 40
1.036864
 50
182.086795
 51
267.87367999999992
  0
LINE
  5
F2
  8
0
 62
     7
 10
47.092700000000001
 20
98.362600000000015
 30
0.0
 11
47.093400000000003
 21
98.362600000000015
 31
0.0
  0
ARC
  5
F3
  8
0
 62
     7
 10
82.558903999999998
 20
134.8266999999999
 30
0.0
 40
1.036864999999999
 50
2.0867919999999991
 51
87.873643000000001
  0
LINE
  5
F4
  8
0
 62
     7
 10
82.597399999999979
 20
135.863
 30
0.0
 11
82.596699999999984
 21
135.863
 31
0.0
  0
ARC
  5
F5
  8
0
 62
     7
 10
82.559713999999985
 20
99.397970000000001
 30
0.0
 40
1.0360529999999999
 50
272.04510900000002
 51
357.915346
  0
LINE
  5
F6
  8
0
 62
     7
 10
83.595100000000002
 20
99.360299999999995
 30
0.0
 11
83.595100000000002
 21
99.361000000000004
 31
0.0
  0
ARC
  5
F7
  8
0
 62
     7
 10
64.845373999999993
 20
117.11262600000001
 30
0.0
 40
7.4938199999999986
 50
0.00001
 51
89.999980000000008
  0
ARC
  5
F8
  8
0
 62
     7
 10
64.845376000000002
 20
117.11262600000001
 30
0.0
 40
7.4938199999999986
 50
90.0
 51
179.99996999999991
  0
ARC
  5
F9
  8
0
 62
     7
 10
64.845373999999993
 20
117.11262600000001
 30
0.0
 40
7.4938179999999992
 50
179.99996999999991
 51
270.00002000000001
  0
ARC
  5
FA
  8
0
 62
     7
 10
64.845373999999993
 20
117.1126289999999
 30
0.0
 40
7.4938199999999986
 50
270.00002000000001
 51
359.99998999999991
  0
ARC
  5
FB
  8
0
 62
     7
 10
144.67154500000001
 20
98.833325000000016
 30
0.0
 40
0.361268
 50
181.771793
 51
266.27450800000003
  0
ARC
  5
FC
  8
0
 62
     7
 10
144.67200600000001
 20
135.39166299999999
 30
0.0
 40
0.361736
 50
93.793697999999964
 51
178.18823
  0
ARC
  5
FD
  8
0
 62
     7
 10
115.3288419999999
 20
110.137382
 30
0.0
 40
0.518923
 50
182.063729
 51
267.89679999999993
  0
ARC
  5
FE
  8
0
 62
     7
 10
115.32915800000001
 20
124.087557
 30
0.0
 40
0.51925
 50
92.136798999999982
 51
177.902672
  0
LINE
  5
FF
  8
0
 62
     7
 10
83.484800000000007
 20
198.48500000000001
 30
0.0
 11
83.595100000000002
 21
201.64699999999999
 31
0.0
  0
LINE
  5
100
  8
0
 62
     7
 10
71.845200000000006
 20
168.64699999999999
 30
0.0
 11
57.844200000000001
 21
168.64699999999999
 31
0.0
  0
LINE
  5
101
  8
0
 62
     7
 10
72.344700000000003
 20
198.14699999999999
 30
0.0
 11
72.344700000000003
 21
169.14699999999999
 31
0.0
  0
LINE
  5
102
  8
0
 62
     7
 10
57.344700000000003
 20
198.14699999999999
 30
0.0
 11
57.344700000000003
 21
169.14699999999999
 31
0.0
  0
LINE
  5
103
  8
0
 62
     7
 10
46.554600000000001
 20
198.14699999999999
 30
0.0
 11
83.135499999999993
 21
198.14699999999999
 31
0.0
  0
LINE
  5
104
  8
0
 62
     7
 10
46.09429999999999
 20
201.64699999999999
 30
0.0
 11
83.595100000000002
 21
201.64699999999999
 31
0.0
  0
LINE
  5
105
  8
0
 62
     7
 10
46.09429999999999
 20
201.64699999999999
 30
0.0
 11
46.204900000000002
 21
198.48500000000001
 31
0.0
  0
LINE
  5
106
  8
0
  6
AIGENLINE001
 62
     7
 10
41.457199999999993
 20
117.113
 30
0.0
 11
87.756799999999984
 21
117.113
 31
0.0
  0
LINE
  5
107
  8
0
  6
AIGENLINE001
 62
     7
 10
64.844700000000003
 20
94.142999999999986
 30
0.0
 11
64.844700000000003
 21
139.38499999999999
 31
0.0
  0
LINE
  5
108
  8
0
 62
     7
 10
47.093400000000003
 20
135.863
 30
0.0
 11
82.596699999999984
 21
135.863
 31
0.0
  0
LINE
  5
109
  8
0
 62
     7
 10
83.595100000000002
 20
99.361000000000004
 30
0.0
 11
83.595100000000002
 21
134.864
 31
0.0
  0
LINE
  5
10A
  8
0
 62
     7
 10
69.966200000000001
 20
111.64100000000001
 30
0.0
 11
69.966200000000001
 21
103.3739999999999
 31
0.0
  0
LINE
  5
10B
  8
0
 62
     7
 10
59.724600000000002
 20
111.64100000000001
 30
0.0
 11
59.724600000000002
 21
103.3739999999999
 31
0.0
  0
LINE
  5
10C
  8
0
 62
     7
 10
59.724600000000002
 20
103.3739999999999
 30
0.0
 11
69.966200000000001
 21
103.3739999999999
 31
0.0
  0
LINE
  5
10D
  8
0
 62
     7
 10
47.093400000000003
 20
98.362200000000001
 30
0.0
 11
82.596699999999984
 21
98.362200000000001
 31
0.0
  0
LINE
  5
10E
  8
0
 62
     7
 10
46.094999999999992
 20
99.361000000000004
 30
0.0
 11
46.094999999999992
 21
134.864
 31
0.0
  0
LINE
  5
10F
  8
0
 62
     7
 10
144.648
 20
135.7529999999999
 30
0.0
 11
147.81100000000001
 21
135.863
 31
0.0
  0
LINE
  5
110
  8
0
 62
     7
 10
114.81
 20
110.119
 30
0.0
 11
114.81
 21
124.107
 31
0.0
  0
LINE
  5
111
  8
0
 62
     7
 10
118.69
 20
109.7409999999999
 30
0.0
 11
118.69
 21
103.3739999999999
 31
0.0
  0
LINE
  5
112
  8
0
 62
     7
 10
144.31
 20
124.60599999999999
 30
0.0
 11
115.31
 21
124.60599999999999
 31
0.0
  0
LINE
  5
113
  8
0
 62
     7
 10
128.93100000000001
 20
109.7409999999999
 30
0.0
 11
128.93100000000001
 21
103.3739999999999
 31
0.0
  0
LINE
  5
114
  8
0
 62
     7
 10
118.5149999999999
 20
109.6189999999999
 30
0.0
 11
115.31
 21
109.6189999999999
 31
0.0
  0
LINE
  5
115
  8
0
 62
     7
 10
144.31
 20
109.6189999999999
 30
0.0
 11
129.10599999999991
 21
109.6189999999999
 31
0.0
  0
LINE
  5
116
  8
0
 62
     7
 10
144.31
 20
98.822199999999995
 30
0.0
 11
144.31
 21
135.40299999999991
 31
0.0
  0
LINE
  5
117
  8
0
 62
     7
 10
118.69
 20
103.3739999999999
 30
0.0
 11
128.93100000000001
 21
103.3739999999999
 31
0.0
  0
LINE
  5
118
  8
0
 62
     7
 10
147.81100000000001
 20
98.362200000000001
 30
0.0
 11
147.81100000000001
 21
135.863
 31
0.0
  0
LINE
  5
119
  8
0
 62
     7
 10
147.81100000000001
 20
98.362200000000001
 30
0.0
 11
144.648
 21
98.472800000000007
 31
0.0
  0
LINE
  5
11A
  8
0
 62
     7
 10
60.344700000000003
 20
210.64699999999999
 30
0.0
 11
59.845100000000002
 21
210.148
 31
0.0
  0
LINE
  5
11B
  8
0
 62
     7
 10
69.345399999999998
 20
210.64699999999999
 30
0.0
 11
69.844899999999996
 21
210.148
 31
0.0
  0
LINE
  5
11C
  8
0
 62
     7
 10
69.844899999999996
 20
210.148
 30
0.0
 11
59.845100000000002
 21
210.148
 31
0.0
  0
LINE
  5
11D
  8
0
 62
     7
 10
69.345399999999998
 20
210.64699999999999
 30
0.0
 11
60.344700000000003
 21
210.64699999999999
 31
0.0
  0
LINE
  5
11E
  8
0
 62
     7
 10
60.344700000000003
 20
201.64699999999999
 30
0.0
 11
60.344700000000003
 21
210.64699999999999
 31
0.0
  0
LINE
  5
11F
  8
0
 62
     7
 10
69.345399999999998
 20
201.64699999999999
 30
0.0
 11
69.345399999999998
 21
210.64699999999999
 31
0.0
  0
LINE
  5
120
  8
0
 62
     7
 10
59.845100000000002
 20
201.64699999999999
 30
0.0
 11
59.845100000000002
 21
210.148
 31
0.0
  0
LINE
  5
121
  8
0
 62
     7
 10
69.844899999999996
 20
201.64699999999999
 30
0.0
 11
69.844899999999996
 21
210.148
 31
0.0
  0
LINE
  5
122
  8
0
  6
AIGENLINE001
 62
     7
 10
64.844700000000003
 20
213.84700000000001
 30
0.0
 11
64.844700000000003
 21
165.3129999999999
 31
0.0
  0
LINE
  5
123
  8
0
 62
     7
 10
156.81100000000001
 20
112.613
 30
0.0
 11
156.31099999999989
 21
112.1129999999999
 31
0.0
  0
LINE
  5
124
  8
0
 62
     7
 10
156.81100000000001
 20
121.6129999999999
 30
0.0
 11
156.31099999999989
 21
122.113
 31
0.0
  0
LINE
  5
125
  8
0
 62
     7
 10
156.31099999999989
 20
122.113
 30
0.0
 11
156.31099999999989
 21
112.1129999999999
 31
0.0
  0
LINE
  5
126
  8
0
 62
     7
 10
156.81100000000001
 20
121.6129999999999
 30
0.0
 11
156.81100000000001
 21
112.613
 31
0.0
  0
LINE
  5
127
  8
0
 62
     7
 10
147.81100000000001
 20
112.613
 30
0.0
 11
156.81100000000001
 21
112.613
 31
0.0
  0
LINE
  5
128
  8
0
 62
     7
 10
147.81100000000001
 20
121.6129999999999
 30
0.0
 11
156.81100000000001
 21
121.6129999999999
 31
0.0
  0
LINE
  5
129
  8
0
 62
     7
 10
157.6399999999999
 20
112.1129999999999
 30
0.0
 11
168.62999999999991
 21
112.1129999999999
 31
0.0
  0
LINE
  5
12A
  8
0
 62
     7
 10
157.6399999999999
 20
122.113
 30
0.0
 11
168.62999999999991
 21
122.113
 31
0.0
  0
LINE
  5
12B
  8
0
 62
     7
 10
147.81100000000001
 20
112.1129999999999
 30
0.0
 11
156.31099999999989
 21
112.1129999999999
 31
0.0
  0
LINE
  5
12C
  8
0
 62
     7
 10
147.81100000000001
 20
122.113
 30
0.0
 11
156.31099999999989
 21
122.113
 31
0.0
  0
LINE
  5
12D
  8
0
  6
AIGENLINE001
 62
     7
 10
160.01099999999991
 20
117.113
 30
0.0
 11
111.4759999999999
 21
117.113
 31
0.0
  0
TEXT
  5
12E
  8
_________2
 62
     7
 10
109.179
 20
24.226099999999999
 30
0.0
 40
3.9357000000000002
  1
アヴァ シャワー取出金具（逆止弁付）
 41
0.5
  0
LINE
  5
12F
  8
_________2
 62
     7
 10
205.30099999999999
 20
127.411
 30
0.0
 11
183.55099999999999
 21
127.411
 31
0.0
  0
LINE
  5
130
  8
_________2
 62
     7
 10
100.2999999999999
 20
-4.0910799999999998
 30
0.0
 11
100.2999999999999
 21
-21.070999999999991
 31
0.0
  0
LINE
  5
131
  8
_________2
 62
     7
 10
100.2999999999999
 20
275.93099999999993
 30
0.0
 11
100.2999999999999
 21
258.911
 31
0.0
  0
LINE
  5
132
  8
_________2
 62
     7
 10
17.049199999999988
 20
127.411
 30
0.0
 11
-4.7012099999999988
 21
127.411
 31
0.0
  0
LINE
  5
133
  8
_________2
 62
     7
 10
76.740700000000004
 20
29.8047
 30
0.0
 11
74.554400000000001
 21
29.8047
 31
0.0
  0
LINE
  5
134
  8
_________2
 62
     7
 10
77.2333
 20
29.8047
 30
0.0
 11
76.981099999999984
 21
29.8047
 31
0.0
  0
LINE
  5
135
  8
_________2
 62
     7
 10
77.725999999999999
 20
29.8047
 30
0.0
 11
80.650899999999993
 21
29.8047
 31
0.0
  0
LINE
  5
136
  8
_________2
 62
     7
 10
77.2333
 20
29.8047
 30
0.0
 11
77.485500000000002
 21
29.8047
 31
0.0
  0
LINE
  5
137
  8
_________2
 62
     7
 10
70.837100000000007
 20
29.8047
 30
0.0
 11
68.650199999999998
 21
29.8047
 31
0.0
  0
LINE
  5
138
  8
_________2
 62
     7
 10
71.329099999999997
 20
29.8047
 30
0.0
 11
71.077600000000004
 21
29.8047
 31
0.0
  0
LINE
  5
139
  8
_________2
 62
     7
 10
71.329099999999997
 20
30.2974
 30
0.0
 11
71.329099999999997
 21
32.484400000000001
 31
0.0
  0
LINE
  5
13A
  8
_________2
 62
     7
 10
71.329099999999997
 20
29.8047
 30
0.0
 11
71.329099999999997
 21
30.057300000000001
 31
0.0
  0
LINE
  5
13B
  8
_________2
 62
     7
 10
71.821700000000007
 20
29.8047
 30
0.0
 11
74.008700000000005
 21
29.8047
 31
0.0
  0
LINE
  5
13C
  8
_________2
 62
     7
 10
71.329099999999997
 20
29.8047
 30
0.0
 11
71.581299999999985
 21
29.8047
 31
0.0
  0
LINE
  5
13D
  8
_________2
 62
     7
 10
71.329099999999997
 20
29.312799999999999
 30
0.0
 11
71.329099999999997
 21
27.126200000000001
 31
0.0
  0
LINE
  5
13E
  8
_________2
 62
     7
 10
71.329099999999997
 20
29.8047
 30
0.0
 11
71.329099999999997
 21
29.5532
 31
0.0
  0
LINE
  5
13F
  8
_________2
 62
     7
 10
75.040199999999999
 20
28.5852
 30
0.0
 11
80.218199999999996
 21
27.720400000000001
 31
0.0
  0
LINE
  5
140
  8
_________2
 62
     7
 10
75.040199999999999
 20
31.024699999999999
 30
0.0
 11
80.218199999999996
 21
31.8901
 31
0.0
  0
LINE
  5
141
  8
_________2
 62
     7
 10
80.218199999999996
 20
27.720400000000001
 30
0.0
 11
80.218199999999996
 21
31.8901
 31
0.0
  0
LINE
  5
142
  8
_________2
 62
     7
 10
75.040199999999999
 20
28.5852
 30
0.0
 11
75.040199999999999
 21
31.024699999999999
 31
0.0
  0
ARC
  5
143
  8
_________2
 62
     7
 10
71.282501999999994
 20
29.757801000000001
 30
0.0
 40
1.267714
 50
2.1220840000000001
 51
87.894083999999992
  0
ARC
  5
144
  8
_________2
 62
     7
 10
71.375640000000004
 20
29.758545999999999
 30
0.0
 40
1.2669680000000001
 50
92.105782999999988
 51
177.91037
  0
ARC
  5
145
  8
_________2
 62
     7
 10
71.376013999999998
 20
29.851671
 30
0.0
 40
1.2673680000000001
 50
182.12203600000001
 51
267.877993
  0
ARC
  5
146
  8
_________2
 62
     7
 10
71.282195999999999
 20
29.852347999999999
 30
0.0
 40
1.2680439999999991
 50
272.11916400000001
 51
357.84848499999993
  0
ARC
  5
147
  8
_________2
 62
     7
 10
71.248716999999985
 20
29.724731999999989
 30
0.0
 40
2.1668310000000002
 50
2.1161439999999989
 51
87.874379000000005
  0
ARC
  5
148
  8
_________2
 62
     7
 10
71.408756000000011
 20
29.726146
 30
0.0
 40
2.165392999999999
 50
92.108508999999998
 51
177.91986499999999
  0
ARC
  5
149
  8
_________2
 62
     7
 10
71.409094999999994
 20
29.884751999999999
 30
0.0
 40
2.1657829999999998
 50
182.117133
 51
267.88289700000001
  0
ARC
  5
14A
  8
_________2
 62
     7
 10
71.249115000000003
 20
29.885429999999989
 30
0.0
 40
2.1664590000000001
 50
272.11546800000002
 51
357.86560400000002
  0
TEXT
  5
14B
  8
_________2
 62
     7
 10
104.605
 20
1.6794899999999999
 30
0.0
 40
3.0923400000000001
  1
図番
 41
0.5
  0
LINE
  5
14C
  8
_________2
 62
     7
 10
103.55
 20
5.9087199999999989
 30
0.0
 11
183.55099999999999
 21
5.9087199999999989
 31
0.0
  0
TEXT
  5
14D
  8
_________2
 62
     7
 10
104.605
 20
11.679299999999991
 30
0.0
 40
3.0923400000000001
  1
品番
 41
0.5
  0
TEXT
  5
14E
  8
_________2
 62
     7
 10
104.605
 20
31.8184
 30
0.0
 40
3.0923400000000001
  1
名称
 41
0.5
  0
TEXT
  5
14F
  8
_________2
 62
     7
 10
91.844758333333345
 20
26.822299999999998
 30
0.0
 40
3.6545800000000002
  1
mm
 41
0.5
 72
     1
 11
93.367500000000007
 21
26.822299999999998
 31
0.0
  0
TEXT
  5
150
  8
_________2
 62
     7
 10
85.642899999999983
 20
31.8184
 30
0.0
 40
3.0923400000000001
  1
単位
 41
0.5
  0
TEXT
  5
151
  8
_________2
 62
     7
 10
85.642899999999983
 20
19.410799999999991
 30
0.0
 40
3.0923400000000001
  1
尺度
 41
0.5
  0
TEXT
  5
152
  8
_________2
 62
     7
 10
90.548458666666676
 20
13.218199999999991
 30
0.0
 40
3.6545800000000002
  1
1 ： 2
 41
0.5
 72
     1
 11
93.959400000000016
 21
13.218199999999991
 31
0.0
  0
TEXT
  5
153
  8
_________2
 62
     7
 10
135.84258750000001
 20
9.1082000000000001
 30
0.0
 40
3.9357000000000002
  1
KW6191610
 41
0.5
 72
     1
 11
143.55000000000001
 21
9.1082000000000001
 31
0.0
  0
TEXT
  5
154
  8
_________2
 62
     7
 10
135.84258750000001
 20
-0.8926299999999999
 30
0.0
 40
3.9357000000000002
  1
KW6191610
 41
0.5
 72
     1
 11
143.55000000000001
 21
-0.8926299999999999
 31
0.0
  0
TEXT
  5
155
  8
_________2
 62
     7
 10
39.364090666666669
 20
13.603400000000001
 30
0.0
 40
3.6545800000000002
  1
石原
 41
0.5
 72
     1
 11
41.313200000000002
 21
13.603400000000001
 31
0.0
  0
TEXT
  5
156
  8
_________2
 62
     7
 10
20.790090666666661
 20
13.603400000000001
 30
0.0
 40
3.6545800000000002
  1
菅原
 41
0.5
 72
     1
 11
22.73919999999999
 21
13.603400000000001
 31
0.0
  0
TEXT
  5
157
  8
_________2
 62
     7
 10
67.785399999999996
 20
13.218199999999991
 30
0.0
 40
3.6545800000000002
  1
11.10.28
 41
0.5
  0
TEXT
  5
158
  8
_________2
 62
     7
 10
66.592699999999994
 20
19.410799999999991
 30
0.0
 40
3.0923400000000001
  1
日付
 41
0.5
  0
TEXT
  5
159
  8
_________2
 62
     7
 10
29.638999999999999
 20
19.410799999999991
 30
0.0
 40
3.0923400000000001
  1
検図
 41
0.5
  0
TEXT
  5
15A
  8
_________2
 62
     7
 10
18.020700000000001
 20
5.21143
 30
0.0
 40
3.0923400000000001
  1
備考
 41
0.5
  0
TEXT
  5
15B
  8
_________2
 62
     7
 10
18.020700000000001
 20
19.410799999999991
 30
0.0
 40
3.0923400000000001
  1
製図
 41
0.5
  0
TEXT
  5
15C
  8
_________2
 62
     7
 10
23.788165333333328
 20
27.936800000000002
 30
0.0
 40
4.4979399999999989
  1
セラトレーディング株式会社
 41
0.5
 72
     1
 11
41.180199999999999
 21
27.936800000000002
 31
0.0
  0
LINE
  5
15D
  8
_________2
 62
     7
 10
183.55099999999999
 20
-4.0910799999999998
 30
0.0
 11
17.049199999999988
 21
-4.0910799999999998
 31
0.0
  0
LINE
  5
15E
  8
_________2
 62
     7
 10
17.049199999999988
 20
-4.0910799999999998
 30
0.0
 11
17.049199999999988
 21
258.911
 31
0.0
  0
LINE
  5
15F
  8
_________2
 62
     7
 10
17.049199999999988
 20
258.911
 30
0.0
 11
183.55099999999999
 21
258.911
 31
0.0
  0
LINE
  5
160
  8
_________2
 62
     7
 10
183.55099999999999
 20
258.911
 30
0.0
 11
183.55099999999999
 21
-4.0910799999999998
 31
0.0
  0
LINE
  5
161
  8
_________2
 62
     7
 10
65.549599999999998
 20
9.4092999999999982
 30
0.0
 11
65.549599999999998
 21
35.909100000000002
 31
0.0
  0
LINE
  5
162
  8
_________2
 62
     7
 10
84.549400000000006
 20
9.4092999999999982
 30
0.0
 11
84.549400000000006
 21
35.909100000000002
 31
0.0
  0
LINE
  5
163
  8
_________2
 62
     7
 10
103.55
 20
-4.0910799999999998
 30
0.0
 11
103.55
 21
35.909100000000002
 31
0.0
  0
LINE
  5
164
  8
_________2
 62
     7
 10
28.548999999999999
 20
9.4092999999999982
 30
0.0
 11
28.548999999999999
 21
23.409199999999998
 31
0.0
  0
LINE
  5
165
  8
_________2
 62
     7
 10
17.049199999999988
 20
9.4092999999999982
 30
0.0
 11
103.55
 21
9.4092999999999982
 31
0.0
  0
LINE
  5
166
  8
_________2
 62
     7
 10
17.049199999999988
 20
23.409199999999998
 30
0.0
 11
103.55
 21
23.409199999999998
 31
0.0
  0
LINE
  5
167
  8
_________2
 62
     7
 10
103.55
 20
15.9085
 30
0.0
 11
183.55099999999999
 21
15.9085
 31
0.0
  0
LINE
  5
168
  8
_________2
 62
     7
 10
17.049199999999988
 20
35.909100000000002
 30
0.0
 11
183.55099999999999
 21
35.909100000000002
 31
0.0
  0
ENDSEC
  0
EOF
