  0
SECTION
  2
HEADER
  9
$ACADVER
  1
AC1009
  9
$DWGCODEPAGE
  3
dos932
  9
$INSBASE
 10
0.0
 20
0.0
 30
0.0
  9
$EXTMIN
 10
-660.09249238
 20
-921.0
 30
0.0
  9
$EXTMAX
 10
660.04624619
 20
921.0
 30
0.0
  9
$LIMMIN
 10
-210.0
 20
-297.0
  9
$LIMMAX
 10
210.0
 20
297.0
  9
$ORTHOMODE
 70
       0
  9
$REGENMODE
 70
       1
  9
$FILLMODE
 70
       1
  9
$QTEXTMODE
 70
       0
  9
$MIRRTEXT
 70
       1
  9
$DRAGMODE
 70
       2
  9
$LTSCALE
 40
2.0
  9
$OSMODE
 70
       0
  9
$ATTMODE
 70
       1
  9
$TEXTSIZE
 40
0.2
  9
$TRACEWID
 40
0.05
  9
$TEXTSTYLE
  7
STANDARD
  9
$CLAYER
  8
0
  9
$CELTYPE
  6
CONTINUOUS
  9
$CECOLOR
 62
     256
  9
$DIMSCALE
 40
1.0
  9
$DIMASZ
 40
4.0
  9
$DIMEXO
 40
0.0625
  9
$DIMDLI
 40
0.38
  9
$DIMRND
 40
0.0
  9
$DIMDLE
 40
0.0
  9
$DIMEXE
 40
0.18
  9
$DIMTP
 40
0.0
  9
$DIMTM
 40
0.0
  9
$DIMTXT
 40
4.0
  9
$DIMCEN
 40
0.09
  9
$DIMTSZ
 40
0.0
  9
$DIMTOL
 70
       0
  9
$DIMLIM
 70
       0
  9
$DIMTIH
 70
       1
  9
$DIMTOH
 70
       1
  9
$DIMSE1
 70
       0
  9
$DIMSE2
 70
       0
  9
$DIMTAD
 70
       0
  9
$DIMZIN
 70
       0
  9
$DIMBLK
  1

  9
$DIMASO
 70
       1
  9
$DIMSHO
 70
       1
  9
$DIMPOST
  1

  9
$DIMAPOST
  1

  9
$DIMALT
 70
       0
  9
$DIMALTD
 70
       2
  9
$DIMALTF
 40
25.4
  9
$DIMLFAC
 40
1.0
  9
$DIMTOFL
 70
       0
  9
$DIMTVP
 40
0.0
  9
$DIMTIX
 70
       0
  9
$DIMSOXD
 70
       0
  9
$DIMSAH
 70
       0
  9
$DIMBLK1
  1

  9
$DIMBLK2
  1

  9
$DIMSTYLE
  2
STANDARD
  9
$DIMCLRD
 70
       0
  9
$DIMCLRE
 70
       0
  9
$DIMCLRT
 70
       0
  9
$DIMTFAC
 40
1.0
  9
$DIMGAP
 40
0.09
  9
$LUNITS
 70
       2
  9
$LUPREC
 70
       4
  9
$AXISMODE
 70
       0
  9
$AXISUNIT
 10
0.0
 20
0.0
  9
$SKETCHINC
 40
0.1
  9
$FILLETRAD
 40
0.0
  9
$AUNITS
 70
       0
  9
$AUPREC
 70
       0
  9
$MENU
  1
acad
  9
$ELEVATION
 40
0.0
  9
$PELEVATION
 40
0.0
  9
$THICKNESS
 40
0.0
  9
$LIMCHECK
 70
       0
  9
$BLIPMODE
 70
       1
  9
$CHAMFERA
 40
0.0
  9
$CHAMFERB
 40
0.0
  9
$SKPOLY
 70
       0
  9
$TDCREATE
 40
0.000000000
  9
$TDUPDATE
 40
0.000000000
  9
$TDINDWG
 40
0.0000000000
  9
$TDUSRTIMER
 40
0.0000000000
  9
$USRTIMER
 70
       1
  9
$ANGBASE
 50
0.0
  9
$ANGDIR
 70
       0
  9
$PDMODE
 70
       0
  9
$PDSIZE
 40
1.0
  9
$PLINEWID
 40
0.0
  9
$COORDS
 70
       1
  9
$SPLFRAME
 70
       0
  9
$SPLINETYPE
 70
       6
  9
$SPLINESEGS
 70
       8
  9
$ATTDIA
 70
       0
  9
$ATTREQ
 70
       1
  9
$HANDLING
 70
       1
  9
$HANDSEED
  5
B51
  9
$SURFTAB1
 70
       6
  9
$SURFTAB2
 70
       6
  9
$SURFTYPE
 70
       6
  9
$SURFU
 70
       6
  9
$SURFV
 70
       6
  9
$UCSNAME
  2

  9
$UCSORG
 10
0.0
 20
0.0
 30
0.0
  9
$UCSXDIR
 10
1.0
 20
0.0
 30
0.0
  9
$UCSYDIR
 10
0.0
 20
1.0
 30
0.0
  9
$PUCSNAME
  2

  9
$PUCSORG
 10
0.0
 20
0.0
 30
0.0
  9
$PUCSXDIR
 10
1.0
 20
0.0
 30
0.0
  9
$PUCSYDIR
 10
0.0
 20
1.0
 30
0.0
  9
$USERI1
 70
       0
  9
$USERI2
 70
       0
  9
$USERI3
 70
       0
  9
$USERI4
 70
       0
  9
$USERI5
 70
       0
  9
$USERR1
 40
0.0
  9
$USERR2
 40
0.0
  9
$USERR3
 40
0.0
  9
$USERR4
 40
0.0
  9
$USERR5
 40
0.0
  9
$WORLDVIEW
 70
       1
  9
$SHADEDGE
 70
       3
  9
$SHADEDIF
 70
      70
  9
$TILEMODE
 70
       1
  9
$MAXACTVP
 70
      16
  9
$PINSBASE
 10
0.0
 20
0.0
 30
0.0
  9
$PLIMCHECK
 70
       0
  9
$PEXTMIN
 10
1.00000000E+20
 20
1.00000000E+20
 30
1.00000000E+20
  9
$PEXTMAX
 10
-1.00000000E+20
 20
-1.00000000E+20
 30
-1.00000000E+20
  9
$PLIMMIN
 10
0.0
 20
0.0
  9
$PLIMMAX
 10
12.0
 20
9.0
  9
$UNITMODE
 70
       0
  9
$VISRETAIN
 70
       0
  9
$PLINEGEN
 70
       1
  9
$PSLTSCALE
 70
       0
  9
$TREEDEPTH
 70
    3020
  0
ENDSEC
  0
SECTION
  2
TABLES
  0
TABLE
  2
VPORT
 70
       1
  0
VPORT
  2
*ACTIVE
 70
       0
 10
0.0
 20
0.0
 11
1.0
 21
1.0
 12
0.0
 22
0.0
 13
0.0
 23
0.0
 14
1.0
 24
1.0
 15
0.0
 25
0.0
 16
0.0
 26
0.0
 36
1.0
 17
0.0
 27
0.0
 37
0.0
 40
594.0
 41
0.70707071
 42
50.0
 43
0.0
 44
0.0
 50
0.0
 51
0.0
 71
       0
 72
     100
 73
       1
 74
       1
 75
       0
 76
       0
 77
       0
 78
       0
  0
ENDTAB
  0
TABLE
  2
LTYPE
 70
      28
  0
LTYPE
  2
CONTINUOUS
 70
      64
  3
Solid line
 72
      65
 73
       0
 40
0.0
  0
LTYPE
  2
HIDDENX2
 70
      64
  3
CADPAC LINETYPE
 72
      65
 73
       2
 40
19.01560624
 49
14.26170468
 49
-4.75390156
  0
LTYPE
  2
HIDDEN
 70
      64
  3
CADPAC LINETYPE
 72
      65
 73
       2
 40
14.26170468
 49
9.50780312
 49
-4.75390156
  0
LTYPE
  2
HIDDEN2
 70
      64
  3
CADPAC LINETYPE
 72
      65
 73
       2
 40
11.8847539
 49
7.13085234
 49
-4.75390156
  0
LTYPE
  2
DASHED
 70
      64
  3
CADPAC LINETYPE
 72
      65
 73
       2
 40
13.31092437
 49
9.50780312
 49
-3.80312125
  0
LTYPE
  2
DASHED2
 70
      64
  3
CADPAC LINETYPE
 72
      65
 73
       2
 40
8.55702281
 49
5.70468187
 49
-2.85234094
  0
LTYPE
  2
DASHEDX2
 70
      64
  3
CADPAC LINETYPE
 72
      65
 73
       2
 40
22.81872749
 49
19.01560624
 49
-3.80312125
  0
LTYPE
  2
DOTX2
 70
      64
  3
CADPAC LINETYPE
 72
      65
 73
       2
 40
8.31932773
 49
0.0
 49
-8.31932773
  0
LTYPE
  2
DOT
 70
      64
  3
CADPAC LINETYPE
 72
      65
 73
       2
 40
6.65546218
 49
0.0
 49
-6.65546218
  0
LTYPE
  2
DOT2
 70
      64
  3
CADPAC LINETYPE
 72
      65
 73
       2
 40
4.99159664
 49
0.0
 49
-4.99159664
  0
LTYPE
  2
CENTERX2
 70
      64
  3
CADPAC LINETYPE
 72
      65
 73
       4
 40
28.52340936
 49
11.8847539
 49
-5.94237695
 49
4.75390156
 49
-5.94237695
  0
LTYPE
  2
CENTER
 70
      64
  3
CADPAC LINETYPE
 72
      65
 73
       4
 40
21.86794718
 49
9.50780312
 49
-4.75390156
 49
2.85234094
 49
-4.75390156
  0
LTYPE
  2
CENTER2
 70
      64
  3
CADPAC LINETYPE
 72
      65
 73
       4
 40
15.21248499
 49
7.13085234
 49
-3.56542617
 49
0.95078031
 49
-3.56542617
  0
LTYPE
  2
DASHDOTX2
 70
      64
  3
CADPAC LINETYPE
 72
      65
 73
       4
 40
45.63745498
 49
22.81872749
 49
-7.6062425
 49
7.6062425
 49
-7.6062425
  0
LTYPE
  2
DASHDOT
 70
      64
  3
CADPAC LINETYPE
 72
      65
 73
       4
 40
22.81872749
 49
11.40936375
 49
-3.80312125
 49
3.80312125
 49
-3.80312125
  0
LTYPE
  2
DASHDOT2
 70
      64
  3
CADPAC LINETYPE
 72
      65
 73
       4
 40
14.64201681
 49
8.55702281
 49
-2.85234094
 49
0.38031212
 49
-2.85234094
  0
LTYPE
  2
DIVIDEX2
 70
      64
  3
CADPAC LINETYPE
 72
      65
 73
       6
 40
60.84993998
 49
22.81872749
 49
-7.6062425
 49
7.6062425
 49
-7.6062425
 49
7.6062425
 49
-7.6062425
  0
LTYPE
  2
DIVIDE
 70
      64
  3
CADPAC LINETYPE
 72
      65
 73
       6
 40
30.42496999
 49
11.40936375
 49
-3.80312125
 49
3.80312125
 49
-3.80312125
 49
3.80312125
 49
-3.80312125
  0
LTYPE
  2
DIVIDE2
 70
      64
  3
CADPAC LINETYPE
 72
      65
 73
       6
 40
22.81872749
 49
8.55702281
 49
-2.85234094
 49
2.85234094
 49
-2.85234094
 49
2.85234094
 49
-2.85234094
  0
LTYPE
  2
BORDERX2
 70
      64
  3
CADPAC LINETYPE
 72
      65
 73
       6
 40
41.59663866
 49
11.8847539
 49
-5.94237695
 49
11.8847539
 49
-5.94237695
 49
0.0
 49
-5.94237695
  0
LTYPE
  2
BORDER
 70
      64
  3
CADPAC LINETYPE
 72
      65
 73
       6
 40
33.27731092
 49
9.50780312
 49
-4.75390156
 49
9.50780312
 49
-4.75390156
 49
0.0
 49
-4.75390156
  0
LTYPE
  2
BORDER2
 70
      64
  3
CADPAC LINETYPE
 72
      65
 73
       6
 40
24.72028812
 49
7.6062425
 49
-4.75390156
 49
2.85234094
 49
-4.75390156
 49
0.0
 49
-4.75390156
  0
LTYPE
  2
PHANTOMX2
 70
      64
  3
CADPAC LINETYPE
 72
      65
 73
       6
 40
35.6542617
 49
11.8847539
 49
-4.75390156
 49
4.75390156
 49
-4.75390156
 49
4.75390156
 49
-4.75390156
  0
LTYPE
  2
PHANTOM
 70
      64
  3
CADPAC LINETYPE
 72
      65
 73
       6
 40
29.47418968
 49
9.50780312
 49
-4.75390156
 49
2.85234094
 49
-4.75390156
 49
2.85234094
 49
-4.75390156
  0
LTYPE
  2
PHANTOM2
 70
      64
  3
CADPAC LINETYPE
 72
      65
 73
       6
 40
25.19567827
 49
7.13085234
 49
-4.75390156
 49
1.90156062
 49
-4.75390156
 49
1.90156062
 49
-4.75390156
  0
LTYPE
  2
ACAD_ISO06W100
 70
      64
  3
CADPAC LINETYPE
 72
      65
 73
       8
 40
50.39135654
 49
22.81872749
 49
-4.75390156
 49
2.85234094
 49
-4.75390156
 49
2.85234094
 49
-4.75390156
 49
2.85234094
 49
-4.75390156
  0
LTYPE
  2
ACAD_ISO13W100
 70
      64
  3
CADPAC LINETYPE
 72
      65
 73
       8
 40
38.03121248
 49
9.50780312
 49
-4.75390156
 49
9.50780312
 49
-4.75390156
 49
0.0
 49
-4.75390156
 49
0.0
 49
-4.75390156
  0
LTYPE
  2
ACAD_ISO14W100
 70
      64
  3
CADPAC LINETYPE
 72
      65
 73
       8
 40
28.52340936
 49
9.50780312
 49
-4.75390156
 49
0.0
 49
-4.75390156
 49
0.0
 49
-4.75390156
 49
0.0
 49
-4.75390156
  0
ENDTAB
  0
TABLE
  2
LAYER
 70
       6
  0
LAYER
  2
0
 70
       0
 62
       7
  6
CONTINUOUS
  0
LAYER
  2
1
 70
       0
 62
       7
  6
CONTINUOUS
  0
LAYER
  2
4
 70
       0
 62
       7
  6
CONTINUOUS
  0
LAYER
  2
LAYER0240
 70
       0
 62
       7
  6
CONTINUOUS
  0
LAYER
  2
LAYER0241
 70
       0
 62
       7
  6
CONTINUOUS
  0
LAYER
  2
ZUWAKU
 70
       0
 62
       7
  6
CONTINUOUS
  0
ENDTAB
  0
TABLE
  2
STYLE
 70
       2
  0
STYLE
  2
STANDARD
 70
       0
 40
6.8
 41
0.8
 50
0.0
 71
       0
 42
6.8
  3
txt.shx
  4
bigfont.shx
  0
STYLE
  2
FDASTYLE1
 70
       4
 40
6.0
 41
0.8
 50
0.0
 71
       0
 42
6.0
  3
txt.shx
  4
bigfont.shx
  0
ENDTAB
  0
TABLE
  2
VIEW
 70
       0
  0
VIEW
  2
QQQQ
 70
       0
 40
594.0
 10
0.0
 20
0.0
 41
420.0
 11
0.0
 21
0.0
 31
1.0
 12
100.0
 22
100.0
 32
0.0
 42
50.0
 43
0.0
 44
0.0
 50
0.0
 71
       0
  0
ENDTAB
  0
TABLE
  2
UCS
 70
       0
  0
ENDTAB
  0
TABLE
  2
APPID
 70
       1
  0
APPID
  2
ACAD
 70
       0
  0
ENDTAB
  0
TABLE
  2
DIMSTYLE
 70
       1
  0
DIMSTYLE
  2
STANDARD
 70
       0
  3

  4

  5

  6

  7

 40
1.0
 41
0.18
 42
0.0625
 43
0.38
 44
0.18
 45
0.0
 46
0.0
 47
0.0
 48
0.0
 71
       0
 72
       0
 73
       1
 74
       1
 75
       0
 76
       0
 77
       0
 78
       0
140
0.18
141
0.09
142
0.0
143
25.4
144
1.0
145
0.0
146
1.0
147
0.09
170
       0
171
       2
172
       0
173
       0
174
       0
175
       0
176
       0
177
       0
178
       0
  0
ENDTAB
  0
ENDSEC
  0
SECTION
  2
BLOCKS
  0
BLOCK
  8
0
  5
4C
  2
DA_IMAGEDIMGROUP_1
 70
       0
 10
0.0
 20
0.0
 30
0.0
  3
DA_IMAGEDIMGROUP_1
  0
LINE
  8
0
  6
CONTINUOUS
 62
       9
  5
4D
 10
18.92986078
 20
209.10019644
 30
0.0
 11
83.92986078
 21
209.10019644
 31
0.0
  0
INSERT
  8
0
  6
CONTINUOUS
 62
       9
  5
4E
  2
_OPEN30
 10
18.92986078
 20
209.10019644
 30
0.0
 41
6.00000558
 42
5.99997855
 50
180.0
  0
INSERT
  8
0
  6
CONTINUOUS
 62
       9
  5
4F
  2
_OPEN30
 10
83.92986078
 20
209.10019644
 30
0.0
 41
6.00000558
 42
5.99997855
 50
360.0
  0
LINE
  8
0
  6
CONTINUOUS
 62
       9
  5
50
 10
18.92986078
 20
172.9397891
 30
0.0
 11
18.92986078
 21
211.10019644
 31
0.0
  0
LINE
  8
0
  6
CONTINUOUS
 62
       9
  5
51
 10
83.92986078
 20
172.9397891
 30
0.0
 11
83.92986078
 21
211.10019644
 31
0.0
  0
TEXT
  8
0
 62
       7
  5
52
 10
45.02986078
 20
210.10019644
 30
0.0
 40
8.0
  1
65
 41
0.8
 72
       5
 11
57.82986078
 21
210.10019644
 31
0.0
  0
ENDBLK
  8
0
  5
53
  0
BLOCK
  8
0
  5
54
  2
_OPEN30
 70
       0
 10
0.0
 20
0.0
 30
0.0
  3
_OPEN30
  0
LINE
  8
0
  6
CONTINUOUS
 62
       0
  5
55
 10
0.0
 20
0.0
 30
0.0
 11
-0.96592583
 21
0.25881905
 31
0.0
  0
LINE
  8
0
  6
CONTINUOUS
 62
       0
  5
56
 10
0.0
 20
0.0
 30
0.0
 11
-0.96592583
 21
-0.25881905
 31
0.0
  0
LINE
  8
0
  6
CONTINUOUS
 62
       0
  5
57
 10
0.0
 20
0.0
 30
0.0
 11
-1.0
 21
0.0
 31
0.0
  0
ENDBLK
  8
0
  5
58
  0
BLOCK
  8
0
  5
59
  2
DA_IMAGEDIMGROUP_2
 70
       0
 10
0.0
 20
0.0
 30
0.0
  3
DA_IMAGEDIMGROUP_2
  0
LINE
  8
0
  6
CONTINUOUS
 62
       9
  5
5A
 10
-0.56954828
 20
37.70707858
 30
0.0
 11
-0.56954828
 21
82.70707858
 31
0.0
  0
INSERT
  8
0
  6
CONTINUOUS
 62
       9
  5
5B
  2
_OPEN30
 10
-0.56954828
 20
37.70707858
 30
0.0
 41
6.00000558
 42
5.99997855
 50
270.0
  0
INSERT
  8
0
  6
CONTINUOUS
 62
       9
  5
5C
  2
_OPEN30
 10
-0.56954828
 20
82.70707858
 30
0.0
 41
6.00000558
 42
5.99997855
 50
90.0
  0
LINE
  8
0
  6
CONTINUOUS
 62
       9
  5
5D
 10
50.42986078
 20
37.70707858
 30
0.0
 11
-2.56954828
 21
37.70707858
 31
0.0
  0
LINE
  8
0
  6
CONTINUOUS
 62
       9
  5
5E
 10
50.42986078
 20
82.70707858
 30
0.0
 11
-2.56954828
 21
82.70707858
 31
0.0
  0
TEXT
  8
0
 62
       7
  5
5F
 10
-1.56954828
 20
53.80707858
 30
0.0
 40
8.0
  1
45
 50
90.0
 41
0.8
 72
       5
 11
-1.56954828
 21
66.60707858
 31
0.0
  0
ENDBLK
  8
0
  5
60
  0
BLOCK
  8
0
  5
61
  2
DA_IMAGEDIMGROUP_3
 70
       0
 10
0.0
 20
0.0
 30
0.0
  3
DA_IMAGEDIMGROUP_3
  0
LINE
  8
0
  6
CONTINUOUS
 62
       9
  5
62
 10
-0.56954828
 20
123.97437587
 30
0.0
 11
-0.56954828
 21
171.9397891
 31
0.0
  0
INSERT
  8
0
  6
CONTINUOUS
 62
       9
  5
63
  2
_OPEN30
 10
-0.56954828
 20
123.97437587
 30
0.0
 41
6.00000558
 42
5.99997855
 50
270.0
  0
INSERT
  8
0
  6
CONTINUOUS
 62
       9
  5
64
  2
_OPEN30
 10
-0.56954828
 20
171.9397891
 30
0.0
 41
6.00000558
 42
5.99997855
 50
90.0
  0
LINE
  8
0
  6
CONTINUOUS
 62
       9
  5
65
 10
50.42986078
 20
123.97437587
 30
0.0
 11
-2.56954828
 21
123.97437587
 31
0.0
  0
LINE
  8
0
  6
CONTINUOUS
 62
       9
  5
66
 10
17.92986078
 20
171.9397891
 30
0.0
 11
-2.56954828
 21
171.9397891
 31
0.0
  0
TEXT
  8
0
 62
       7
  5
67
 10
-1.56954828
 20
141.55708249
 30
0.0
 40
8.0
  1
48
 50
90.0
 41
0.8
 72
       5
 11
-1.56954828
 21
154.35708249
 31
0.0
  0
ENDBLK
  8
0
  5
68
  0
BLOCK
  8
0
  5
69
  2
GROUP_1
 70
       0
 10
0.0
 20
0.0
 30
0.0
  3
GROUP_1
  0
POINT
  8
LAYER0240
  6
CONTINUOUS
 62
       9
  5
6A
 10
55.375
 20
-209.74108659
 30
0.0
  0
CIRCLE
  8
LAYER0240
  6
CONTINUOUS
 62
       4
  5
6B
 10
58.72819828
 20
-209.74108659
 30
0.0
 40
3.35319828
  0
LINE
  8
LAYER0240
  6
CONTINUOUS
 62
       4
  5
6C
 10
61.28680283
 20
-209.74108659
 30
0.0
 11
56.16959372
 21
-209.74108659
 31
0.0
  0
LINE
  8
LAYER0240
  6
CONTINUOUS
 62
       4
  5
6D
 10
58.72819828
 20
-207.18248203
 30
0.0
 11
58.72819828
 21
-212.29969115
 31
0.0
  0
POINT
  8
LAYER0240
  6
CONTINUOUS
 62
       7
  5
6E
 10
62.08139655
 20
-209.74108659
 30
0.0
  0
ENDBLK
  8
0
  5
6F
  0
BLOCK
  8
0
  5
70
  2
DA_IMAGEDIMGROUP_4
 70
       0
 10
0.0
 20
0.0
 30
0.0
  3
DA_IMAGEDIMGROUP_4
  0
LINE
  8
0
  6
CONTINUOUS
 62
       9
  5
71
 10
-126.01741949
 20
37.70707858
 30
0.0
 11
-126.01741949
 21
77.70707858
 31
0.0
  0
INSERT
  8
0
  6
CONTINUOUS
 62
       9
  5
72
  2
_OPEN30
 10
-126.01741949
 20
37.70707858
 30
0.0
 41
6.00000558
 42
5.99997855
 50
270.0
  0
INSERT
  8
0
  6
CONTINUOUS
 62
       9
  5
73
  2
_OPEN30
 10
-126.01741949
 20
77.70707858
 30
0.0
 41
6.00000558
 42
5.99997855
 50
90.0
  0
LINE
  8
0
  6
CONTINUOUS
 62
       9
  5
74
 10
-56.46560995
 20
37.70707858
 30
0.0
 11
-128.01741949
 21
37.70707858
 31
0.0
  0
LINE
  8
0
  6
CONTINUOUS
 62
       9
  5
75
 10
-101.13102318
 20
77.70707858
 30
0.0
 11
-128.01741949
 21
77.70707858
 31
0.0
  0
TEXT
  8
0
 62
       7
  5
76
 10
-127.01741949
 20
51.30707858
 30
0.0
 40
8.0
  1
40
 50
90.0
 41
0.8
 72
       5
 11
-127.01741949
 21
64.10707858
 31
0.0
  0
ENDBLK
  8
0
  5
77
  0
BLOCK
  8
0
  5
78
  2
DA_IMAGEDIMGROUP_5
 70
       0
 10
0.0
 20
0.0
 30
0.0
  3
DA_IMAGEDIMGROUP_5
  0
LINE
  8
0
  6
CONTINUOUS
 62
       9
  5
79
 10
103.0222499
 20
60.20707858
 30
0.0
 11
103.0222499
 21
62.20707858
 31
0.0
  0
LINE
  8
0
  6
CONTINUOUS
 62
       9
  5
7A
 10
87.92986078
 20
60.20707858
 30
0.0
 11
105.0222499
 21
60.20707858
 31
0.0
  0
LINE
  8
0
  6
CONTINUOUS
 62
       9
  5
7B
 10
69.12096433
 20
62.20707858
 30
0.0
 11
105.0222499
 21
62.20707858
 31
0.0
  0
LINE
  8
0
  6
CONTINUOUS
 62
       9
  5
7C
 10
103.0222499
 20
76.70485858
 30
0.0
 11
103.0222499
 21
62.20707858
 31
0.0
  0
INSERT
  8
0
  6
CONTINUOUS
 62
       9
  5
7D
  2
_OPEN30
 10
103.0222499
 20
62.20707858
 30
0.0
 41
6.00000558
 42
5.99997855
 50
270.0
  0
LINE
  8
0
  6
CONTINUOUS
 62
       9
  5
7E
 10
103.0222499
 20
55.20707858
 30
0.0
 11
103.0222499
 21
60.20707858
 31
0.0
  0
INSERT
  8
0
  6
CONTINUOUS
 62
       9
  5
7F
  2
_OPEN30
 10
103.0222499
 20
60.20707858
 30
0.0
 41
6.00000558
 42
5.99997855
 50
90.0
  0
TEXT
  8
0
 62
       7
  5
80
 10
102.0222499
 20
66.10485858
 30
0.0
 40
8.0
  1
(2)
 50
90.0
 41
0.8
 72
       5
 11
102.0222499
 21
85.30485858
 31
0.0
  0
ENDBLK
  8
0
  5
81
  0
BLOCK
  8
0
  5
82
  2
GROUP_2
 70
       0
 10
0.0
 20
0.0
 30
0.0
  3
GROUP_2
  0
CIRCLE
  8
0
  6
CONTINUOUS
 62
       9
  5
83
 10
-107.97332735
 20
-49.37948673
 30
0.0
 40
9.0
  0
TEXT
  8
0
 62
       4
  5
84
 10
-111.17332735
 20
-53.37948673
 30
0.0
 40
8.0
  1
2
 41
0.8
 72
       5
 11
-104.77332735
 21
-53.37948673
 31
0.0
  0
ENDBLK
  8
0
  5
85
  0
BLOCK
  8
0
  5
86
  2
GROUP_3
 70
       0
 10
0.0
 20
0.0
 30
0.0
  3
GROUP_3
  0
CIRCLE
  8
0
  6
CONTINUOUS
 62
       9
  5
87
 10
66.57043344
 20
-48.27883356
 30
0.0
 40
9.0
  0
TEXT
  8
0
 62
       4
  5
88
 10
63.37043344
 20
-52.27883356
 30
0.0
 40
8.0
  1
5
 41
0.8
 72
       5
 11
69.77043344
 21
-52.27883356
 31
0.0
  0
ENDBLK
  8
0
  5
89
  0
BLOCK
  8
0
  5
8A
  2
GROUP_4
 70
       0
 10
0.0
 20
0.0
 30
0.0
  3
GROUP_4
  0
LINE
  8
1
  6
CONTINUOUS
 62
       9
  5
8B
 10
-53.80354336
 20
-96.86527642
 30
0.0
 11
-43.14179151
 21
-124.70440891
 31
0.0
  0
LINE
  8
1
  6
CONTINUOUS
 62
       9
  5
8C
 10
-53.80354336
 20
-96.86527642
 30
0.0
 11
-53.02518971
 21
-101.80432143
 31
0.0
  0
LINE
  8
1
  6
CONTINUOUS
 62
       9
  5
8D
 10
-53.80354336
 20
-96.86527642
 30
0.0
 11
-51.08359133
 21
-101.0607336
 31
0.0
  0
LINE
  8
1
  6
CONTINUOUS
 62
       9
  5
8E
 10
-43.14179151
 20
-124.70440891
 30
0.0
 11
33.65820849
 21
-124.70440891
 31
0.0
  0
TEXT
  8
1
 62
       9
  5
8F
 10
-43.1417915
 20
-124.20440892
 30
0.0
 40
8.0
  1
２－長穴φ９．５Ｘ４．８
 41
0.6667
 72
       5
 11
33.6582085
 21
-124.2044087
 31
0.0
  0
ENDBLK
  8
0
  5
90
  0
BLOCK
  8
0
  5
91
  2
DA_IMAGEDIMGROUP_6
 70
       0
 10
0.0
 20
0.0
 30
0.0
  3
DA_IMAGEDIMGROUP_6
  0
LINE
  8
0
  6
CONTINUOUS
 62
       9
  5
92
 10
39.42986078
 20
177.93399265
 30
0.0
 11
39.42986078
 21
195.91904718
 31
0.0
  0
LINE
  8
0
  6
CONTINUOUS
 62
       9
  5
93
 10
63.42986078
 20
177.93399265
 30
0.0
 11
63.42986078
 21
195.91904718
 31
0.0
  0
LINE
  8
0
  6
CONTINUOUS
 62
       9
  5
94
 10
39.42986078
 20
193.91904718
 30
0.0
 11
63.42986078
 21
193.91904718
 31
0.0
  0
INSERT
  8
0
  6
CONTINUOUS
 62
       9
  5
95
  2
_OPEN30
 10
39.42986078
 20
193.91904718
 30
0.0
 41
6.00000558
 42
5.99997855
 50
180.0
  0
INSERT
  8
0
  6
CONTINUOUS
 62
       9
  5
96
  2
_OPEN30
 10
63.42986078
 20
193.91904718
 30
0.0
 41
6.00000558
 42
5.99997855
 50
360.0
  0
TEXT
  8
0
 62
       7
  5
97
 10
45.02986078
 20
195.91904718
 30
0.0
 40
8.0
  1
24
 41
0.8
 72
       5
 11
57.82986078
 21
195.91904718
 31
0.0
  0
ENDBLK
  8
0
  5
98
  0
BLOCK
  8
0
  5
99
  2
GROUP_5
 70
       0
 10
0.0
 20
0.0
 30
0.0
  3
GROUP_5
  0
LINE
  8
0
  6
CONTINUOUS
 62
       9
  5
9A
 10
73.05717836
 20
43.36877673
 30
0.0
 11
93.69642857
 21
26.16428571
 31
0.0
  0
INSERT
  8
0
  6
CONTINUOUS
 62
       9
  5
9B
  2
_OPEN30
 10
73.05717836
 20
43.36877673
 30
0.0
 41
6.00000558
 42
5.99997855
 50
140.1860485
  0
CIRCLE
  8
0
  6
CONTINUOUS
 62
       9
  5
9C
 10
100.60957728
 20
20.4016149
 30
0.0
 40
9.0
  0
TEXT
  8
0
 62
       4
  5
9D
 10
97.40957728
 20
16.4016149
 30
0.0
 40
8.0
  1
1
 41
0.8
 72
       5
 11
103.80957728
 21
16.4016149
 31
0.0
  0
ENDBLK
  8
0
  5
9E
  0
BLOCK
  8
0
  5
9F
  2
GROUP_6
 70
       0
 10
0.0
 20
0.0
 30
0.0
  3
GROUP_6
  0
LINE
  8
0
  6
CONTINUOUS
 62
       9
  5
A0
 10
51.42986078
 20
37.70707858
 30
0.0
 11
63.89577779
 21
17.40312158
 31
0.0
  0
INSERT
  8
0
  6
CONTINUOUS
 62
       9
  5
A1
  2
_OPEN30
 10
51.42986078
 20
37.70707858
 30
0.0
 41
6.00000558
 42
5.99997855
 50
121.54846467
  0
CIRCLE
  8
0
  6
CONTINUOUS
 62
       9
  5
A2
 10
68.60475418
 20
9.73334053
 30
0.0
 40
9.0
  0
TEXT
  8
0
 62
       4
  5
A3
 10
65.40475418
 20
5.73334053
 30
0.0
 40
8.0
  1
3
 41
0.8
 72
       5
 11
71.80475418
 21
5.73334053
 31
0.0
  0
ENDBLK
  8
0
  5
A4
  0
ENDSEC
  0
SECTION
  2
ENTITIES
  0
LINE
  8
ZUWAKU
  6
CONTINUOUS
 62
      32
  5
A5
 10
-113.275
 20
-277.11608659
 30
0.0
 11
-112.15
 21
-273.99108659
 31
0.0
  0
LINE
  8
ZUWAKU
  6
CONTINUOUS
 62
      32
  5
A6
 10
-121.6
 20
-277.11608659
 30
0.0
 11
-119.85
 21
-272.36608659
 31
0.0
  0
LINE
  8
ZUWAKU
  6
CONTINUOUS
 62
      32
  5
A7
 10
-123.225
 20
-270.61608659
 30
0.0
 11
-123.85
 21
-272.36608659
 31
0.0
  0
LINE
  8
ZUWAKU
  6
CONTINUOUS
 62
      32
  5
A8
 10
-117.475
 20
-277.11608659
 30
0.0
 11
-115.6
 21
-271.61608659
 31
0.0
  0
LINE
  8
ZUWAKU
  6
CONTINUOUS
 62
      32
  5
A9
 10
-91.25
 20
-277.11608659
 30
0.0
 11
-93.375
 21
-273.61608659
 31
0.0
  0
LINE
  8
ZUWAKU
  6
CONTINUOUS
 62
      32
  5
AA
 10
-123.225
 20
-270.61608659
 30
0.0
 11
-120.85
 21
-270.61608659
 31
0.0
  0
LINE
  8
ZUWAKU
  6
CONTINUOUS
 62
      32
  5
AB
 10
-110.525
 20
-269.49108659
 30
0.0
 11
-106.4
 21
-269.49108659
 31
0.0
  0
LINE
  8
ZUWAKU
  6
CONTINUOUS
 62
      32
  5
AC
 10
-101.65
 20
-269.11608659
 30
0.0
 11
-100.4
 21
-269.11608659
 31
0.0
  0
LINE
  8
ZUWAKU
  6
CONTINUOUS
 62
      32
  5
AD
 10
-109.65
 20
-267.24108659
 30
0.0
 11
-110.525
 21
-269.49108659
 31
0.0
  0
LINE
  8
ZUWAKU
  6
CONTINUOUS
 62
      32
  5
AE
 10
-105.65
 20
-267.24108659
 30
0.0
 11
-106.4
 21
-269.49108659
 31
0.0
  0
LINE
  8
ZUWAKU
  6
CONTINUOUS
 62
      32
  5
AF
 10
-121.6
 20
-277.11608659
 30
0.0
 11
-117.475
 21
-277.11608659
 31
0.0
  0
LINE
  8
ZUWAKU
  6
CONTINUOUS
 62
      32
  5
B0
 10
-115.225
 20
-267.24108659
 30
0.0
 11
-110.6
 21
-267.24108659
 31
0.0
  0
LINE
  8
ZUWAKU
  6
CONTINUOUS
 62
      32
  5
B1
 10
-94.83514872
 20
-269.49108659
 30
0.0
 11
-99.25
 21
-269.49108659
 31
0.0
  0
LINE
  8
ZUWAKU
  6
CONTINUOUS
 62
      32
  5
B2
 10
-90.0
 20
-267.24108659
 30
0.0
 11
-98.5
 21
-267.24108659
 31
0.0
  0
LINE
  8
ZUWAKU
  6
CONTINUOUS
 62
      32
  5
B3
 10
-123.85
 20
-272.36608659
 30
0.0
 11
-119.85
 21
-272.36608659
 31
0.0
  0
LINE
  8
ZUWAKU
  6
CONTINUOUS
 62
      32
  5
B4
 10
-113.275
 20
-277.11608659
 30
0.0
 11
-106.65
 21
-277.11608659
 31
0.0
  0
LINE
  8
ZUWAKU
  6
CONTINUOUS
 62
      32
  5
B5
 10
-112.15
 20
-273.99108659
 30
0.0
 11
-106.15
 21
-273.99108659
 31
0.0
  0
LINE
  8
ZUWAKU
  6
CONTINUOUS
 62
      32
  5
B6
 10
-91.25
 20
-277.11608659
 30
0.0
 11
-94.375
 21
-277.11608659
 31
0.0
  0
LINE
  8
ZUWAKU
  6
CONTINUOUS
 62
      32
  5
B7
 10
-99.25
 20
-269.49108659
 30
0.0
 11
-98.5
 21
-267.24108659
 31
0.0
  0
LINE
  8
ZUWAKU
  6
CONTINUOUS
 62
      32
  5
B8
 10
-142.725
 20
-267.24108659
 30
0.0
 11
-144.85
 21
-273.24108659
 31
0.0
  0
LINE
  8
ZUWAKU
  6
CONTINUOUS
 62
      32
  5
B9
 10
-144.85
 20
-273.24108659
 30
0.0
 11
-141.975
 21
-273.24108659
 31
0.0
  0
LINE
  8
ZUWAKU
  6
CONTINUOUS
 62
      32
  5
BA
 10
-141.975
 20
-273.24108659
 30
0.0
 11
-139.725
 21
-267.24108659
 31
0.0
  0
LINE
  8
ZUWAKU
  6
CONTINUOUS
 62
      32
  5
BB
 10
-139.725
 20
-267.24108659
 30
0.0
 11
-142.725
 21
-267.24108659
 31
0.0
  0
LINE
  8
ZUWAKU
  6
CONTINUOUS
 62
      32
  5
BC
 10
-104.65
 20
-273.24108659
 30
0.0
 11
-103.275
 21
-272.11608659
 31
0.0
  0
LINE
  8
ZUWAKU
  6
CONTINUOUS
 62
      32
  5
BD
 10
-103.275
 20
-272.11608659
 30
0.0
 11
-102.275
 21
-270.74108659
 31
0.0
  0
LINE
  8
ZUWAKU
  6
CONTINUOUS
 62
      32
  5
BE
 10
-102.275
 20
-270.74108659
 30
0.0
 11
-101.65
 21
-269.11608659
 31
0.0
  0
LINE
  8
ZUWAKU
  6
CONTINUOUS
 62
      32
  5
BF
 10
-132.45
 20
-267.24108659
 30
0.0
 11
-123.325
 21
-267.24108659
 31
0.0
  0
LINE
  8
ZUWAKU
  6
CONTINUOUS
 62
      32
  5
C0
 10
-123.325
 20
-267.24108659
 30
0.0
 11
-124.075
 21
-269.49108659
 31
0.0
  0
LINE
  8
ZUWAKU
  6
CONTINUOUS
 62
      32
  5
C1
 10
-123.325
 20
-267.24108659
 30
0.0
 11
-124.075
 21
-269.49108659
 31
0.0
  0
LINE
  8
ZUWAKU
  6
CONTINUOUS
 62
      32
  5
C2
 10
-124.075
 20
-269.49108659
 30
0.0
 11
-133.2
 21
-269.49108659
 31
0.0
  0
LINE
  8
ZUWAKU
  6
CONTINUOUS
 62
      32
  5
C3
 10
-133.2
 20
-269.49108659
 30
0.0
 11
-132.45
 21
-267.24108659
 31
0.0
  0
LINE
  8
ZUWAKU
  6
CONTINUOUS
 62
      32
  5
C4
 10
-133.2
 20
-269.49108659
 30
0.0
 11
-132.45
 21
-267.24108659
 31
0.0
  0
LINE
  8
ZUWAKU
  6
CONTINUOUS
 62
      32
  5
C5
 10
-123.325
 20
-267.24108659
 30
0.0
 11
-132.45
 21
-267.24108659
 31
0.0
  0
LINE
  8
ZUWAKU
  6
CONTINUOUS
 62
      32
  5
C6
 10
-132.45
 20
-267.24108659
 30
0.0
 11
-133.2
 21
-269.49108659
 31
0.0
  0
LINE
  8
ZUWAKU
  6
CONTINUOUS
 62
      32
  5
C7
 10
-133.2
 20
-269.49108659
 30
0.0
 11
-124.075
 21
-269.49108659
 31
0.0
  0
LINE
  8
ZUWAKU
  6
CONTINUOUS
 62
      32
  5
C8
 10
-128.575
 20
-276.86608659
 30
0.0
 11
-127.575
 21
-276.36608659
 31
0.0
  0
LINE
  8
ZUWAKU
  6
CONTINUOUS
 62
      32
  5
C9
 10
-127.575
 20
-276.36608659
 30
0.0
 11
-126.825
 21
-275.61608659
 31
0.0
  0
LINE
  8
ZUWAKU
  6
CONTINUOUS
 62
      32
  5
CA
 10
-126.825
 20
-275.61608659
 30
0.0
 11
-125.95
 21
-274.74108659
 31
0.0
  0
LINE
  8
ZUWAKU
  6
CONTINUOUS
 62
      32
  5
CB
 10
-125.95
 20
-274.74108659
 30
0.0
 11
-124.45
 21
-270.61608659
 31
0.0
  0
LINE
  8
ZUWAKU
  6
CONTINUOUS
 62
      32
  5
CC
 10
-124.45
 20
-270.61608659
 30
0.0
 11
-133.45
 21
-270.61608659
 31
0.0
  0
LINE
  8
ZUWAKU
  6
CONTINUOUS
 62
      32
  5
CD
 10
-133.45
 20
-270.61608659
 30
0.0
 11
-133.95
 21
-272.36608659
 31
0.0
  0
LINE
  8
ZUWAKU
  6
CONTINUOUS
 62
      32
  5
CE
 10
-133.95
 20
-272.36608659
 30
0.0
 11
-128.7
 21
-272.36608659
 31
0.0
  0
LINE
  8
ZUWAKU
  6
CONTINUOUS
 62
      32
  5
CF
 10
-128.7
 20
-272.36608659
 30
0.0
 11
-128.95
 21
-273.24108659
 31
0.0
  0
LINE
  8
ZUWAKU
  6
CONTINUOUS
 62
      32
  5
D0
 10
-128.95
 20
-273.24108659
 30
0.0
 11
-129.575
 21
-273.99108659
 31
0.0
  0
LINE
  8
ZUWAKU
  6
CONTINUOUS
 62
      32
  5
D1
 10
-129.575
 20
-273.99108659
 30
0.0
 11
-130.2
 21
-274.61608659
 31
0.0
  0
LINE
  8
ZUWAKU
  6
CONTINUOUS
 62
      32
  5
D2
 10
-130.2
 20
-274.61608659
 30
0.0
 11
-131.075
 21
-275.24108659
 31
0.0
  0
LINE
  8
ZUWAKU
  6
CONTINUOUS
 62
      32
  5
D3
 10
-131.075
 20
-275.24108659
 30
0.0
 11
-135.2
 21
-275.24108659
 31
0.0
  0
LINE
  8
ZUWAKU
  6
CONTINUOUS
 62
      32
  5
D4
 10
-135.2
 20
-275.24108659
 30
0.0
 11
-135.95
 21
-277.11608659
 31
0.0
  0
LINE
  8
ZUWAKU
  6
CONTINUOUS
 62
      32
  5
D5
 10
-143.975
 20
-277.11608659
 30
0.0
 11
-143.35
 21
-275.24108659
 31
0.0
  0
LINE
  8
ZUWAKU
  6
CONTINUOUS
 62
      32
  5
D6
 10
-143.35
 20
-275.24108659
 30
0.0
 11
-142.225
 21
-275.24108659
 31
0.0
  0
LINE
  8
ZUWAKU
  6
CONTINUOUS
 62
      32
  5
D7
 10
-142.225
 20
-275.24108659
 30
0.0
 11
-141.225
 21
-275.11608659
 31
0.0
  0
LINE
  8
ZUWAKU
  6
CONTINUOUS
 62
      32
  5
D8
 10
-141.225
 20
-275.11608659
 30
0.0
 11
-140.225
 21
-274.61608659
 31
0.0
  0
LINE
  8
ZUWAKU
  6
CONTINUOUS
 62
      32
  5
D9
 10
-140.225
 20
-274.61608659
 30
0.0
 11
-139.6
 21
-273.61608659
 31
0.0
  0
LINE
  8
ZUWAKU
  6
CONTINUOUS
 62
      32
  5
DA
 10
-139.6
 20
-273.61608659
 30
0.0
 11
-137.225
 21
-267.24108659
 31
0.0
  0
LINE
  8
ZUWAKU
  6
CONTINUOUS
 62
      32
  5
DB
 10
-137.225
 20
-267.24108659
 30
0.0
 11
-133.85
 21
-267.24108659
 31
0.0
  0
LINE
  8
ZUWAKU
  6
CONTINUOUS
 62
      32
  5
DC
 10
-133.85
 20
-267.24108659
 30
0.0
 11
-136.35
 21
-274.61608659
 31
0.0
  0
LINE
  8
ZUWAKU
  6
CONTINUOUS
 62
      32
  5
DD
 10
-136.35
 20
-274.61608659
 30
0.0
 11
-137.35
 21
-275.61608659
 31
0.0
  0
LINE
  8
ZUWAKU
  6
CONTINUOUS
 62
      32
  5
DE
 10
-137.35
 20
-275.61608659
 30
0.0
 11
-138.35
 21
-276.49108659
 31
0.0
  0
LINE
  8
ZUWAKU
  6
CONTINUOUS
 62
      32
  5
DF
 10
-138.35
 20
-276.49108659
 30
0.0
 11
-139.6
 21
-276.99108659
 31
0.0
  0
LINE
  8
ZUWAKU
  6
CONTINUOUS
 62
      32
  5
E0
 10
-110.6
 20
-267.24108659
 30
0.0
 11
-111.35
 21
-268.86608659
 31
0.0
  0
LINE
  8
ZUWAKU
  6
CONTINUOUS
 62
      32
  5
E1
 10
-111.35
 20
-268.86608659
 30
0.0
 11
-112.6
 21
-270.11608659
 31
0.0
  0
LINE
  8
ZUWAKU
  6
CONTINUOUS
 62
      32
  5
E2
 10
-111.35
 20
-268.86608659
 30
0.0
 11
-112.6
 21
-270.11608659
 31
0.0
  0
LINE
  8
ZUWAKU
  6
CONTINUOUS
 62
      32
  5
E3
 10
-112.6
 20
-270.11608659
 30
0.0
 11
-113.975
 21
-271.11608659
 31
0.0
  0
LINE
  8
ZUWAKU
  6
CONTINUOUS
 62
      32
  5
E4
 10
-113.975
 20
-271.11608659
 30
0.0
 11
-115.6
 21
-271.61608659
 31
0.0
  0
LINE
  8
ZUWAKU
  6
CONTINUOUS
 62
      32
  5
E5
 10
-113.975
 20
-271.11608659
 30
0.0
 11
-115.6
 21
-271.61608659
 31
0.0
  0
LINE
  8
ZUWAKU
  6
CONTINUOUS
 62
      32
  5
E6
 10
-115.6
 20
-271.61608659
 30
0.0
 11
-117.475
 21
-277.11608659
 31
0.0
  0
LINE
  8
ZUWAKU
  6
CONTINUOUS
 62
      32
  5
E7
 10
-117.475
 20
-277.11608659
 30
0.0
 11
-121.6
 21
-277.11608659
 31
0.0
  0
LINE
  8
ZUWAKU
  6
CONTINUOUS
 62
      32
  5
E8
 10
-117.475
 20
-277.11608659
 30
0.0
 11
-121.6
 21
-277.11608659
 31
0.0
  0
LINE
  8
ZUWAKU
  6
CONTINUOUS
 62
      32
  5
E9
 10
-120.05
 20
-272.36608659
 30
0.0
 11
-123.85
 21
-272.36608659
 31
0.0
  0
LINE
  8
ZUWAKU
  6
CONTINUOUS
 62
      32
  5
EA
 10
-123.85
 20
-272.36608659
 30
0.0
 11
-123.225
 21
-270.61608659
 31
0.0
  0
LINE
  8
ZUWAKU
  6
CONTINUOUS
 62
      32
  5
EB
 10
-121.6
 20
-277.11608659
 30
0.0
 11
-119.85
 21
-272.36608659
 31
0.0
  0
LINE
  8
ZUWAKU
  6
CONTINUOUS
 62
      32
  5
EC
 10
-121.6
 20
-277.11608659
 30
0.0
 11
-119.85
 21
-272.36608659
 31
0.0
  0
LINE
  8
ZUWAKU
  6
CONTINUOUS
 62
      32
  5
ED
 10
-123.225
 20
-270.61608659
 30
0.0
 11
-120.85
 21
-270.61608659
 31
0.0
  0
LINE
  8
ZUWAKU
  6
CONTINUOUS
 62
      32
  5
EE
 10
-123.225
 20
-270.61608659
 30
0.0
 11
-120.85
 21
-270.61608659
 31
0.0
  0
LINE
  8
ZUWAKU
  6
CONTINUOUS
 62
      32
  5
EF
 10
-120.85
 20
-270.61608659
 30
0.0
 11
-119.225
 21
-270.49108659
 31
0.0
  0
LINE
  8
ZUWAKU
  6
CONTINUOUS
 62
      32
  5
F0
 10
-120.85
 20
-270.61608659
 30
0.0
 11
-119.225
 21
-270.49108659
 31
0.0
  0
LINE
  8
ZUWAKU
  6
CONTINUOUS
 62
      32
  5
F1
 10
-119.225
 20
-270.49108659
 30
0.0
 11
-117.475
 21
-269.74108659
 31
0.0
  0
LINE
  8
ZUWAKU
  6
CONTINUOUS
 62
      32
  5
F2
 10
-119.225
 20
-270.49108659
 30
0.0
 11
-117.475
 21
-269.74108659
 31
0.0
  0
LINE
  8
ZUWAKU
  6
CONTINUOUS
 62
      32
  5
F3
 10
-117.475
 20
-269.74108659
 30
0.0
 11
-116.225
 21
-268.61608659
 31
0.0
  0
LINE
  8
ZUWAKU
  6
CONTINUOUS
 62
      32
  5
F4
 10
-117.475
 20
-269.74108659
 30
0.0
 11
-116.225
 21
-268.61608659
 31
0.0
  0
LINE
  8
ZUWAKU
  6
CONTINUOUS
 62
      32
  5
F5
 10
-139.725
 20
-267.24108659
 30
0.0
 11
-141.975
 21
-273.24108659
 31
0.0
  0
LINE
  8
ZUWAKU
  6
CONTINUOUS
 62
      32
  5
F6
 10
-141.975
 20
-273.24108659
 30
0.0
 11
-144.85
 21
-273.24108659
 31
0.0
  0
LINE
  8
ZUWAKU
  6
CONTINUOUS
 62
      32
  5
F7
 10
-141.975
 20
-273.24108659
 30
0.0
 11
-144.85
 21
-273.24108659
 31
0.0
  0
LINE
  8
ZUWAKU
  6
CONTINUOUS
 62
      32
  5
F8
 10
-144.85
 20
-273.24108659
 30
0.0
 11
-142.725
 21
-267.24108659
 31
0.0
  0
LINE
  8
ZUWAKU
  6
CONTINUOUS
 62
      32
  5
F9
 10
-142.725
 20
-267.24108659
 30
0.0
 11
-139.725
 21
-267.24108659
 31
0.0
  0
LINE
  8
ZUWAKU
  6
CONTINUOUS
 62
      32
  5
FA
 10
-142.725
 20
-267.24108659
 30
0.0
 11
-139.725
 21
-267.24108659
 31
0.0
  0
LINE
  8
ZUWAKU
  6
CONTINUOUS
 62
      32
  5
FB
 10
-98.5
 20
-267.24108659
 30
0.0
 11
-99.25
 21
-269.49108659
 31
0.0
  0
LINE
  8
ZUWAKU
  6
CONTINUOUS
 62
      32
  5
FC
 10
-99.25
 20
-269.49108659
 30
0.0
 11
-95.25
 21
-269.49108659
 31
0.0
  0
LINE
  8
ZUWAKU
  6
CONTINUOUS
 62
      32
  5
FD
 10
-99.25
 20
-269.49108659
 30
0.0
 11
-95.25
 21
-269.49108659
 31
0.0
  0
LINE
  8
ZUWAKU
  6
CONTINUOUS
 62
      32
  5
FE
 10
-102.0
 20
-275.11608659
 30
0.0
 11
-102.75
 21
-277.24108659
 31
0.0
  0
LINE
  8
ZUWAKU
  6
CONTINUOUS
 62
      32
  5
FF
 10
-102.0
 20
-275.11608659
 30
0.0
 11
-102.75
 21
-277.24108659
 31
0.0
  0
LINE
  8
ZUWAKU
  6
CONTINUOUS
 62
      32
  5
100
 10
-102.75
 20
-277.24108659
 30
0.0
 11
-99.0
 21
-276.61608659
 31
0.0
  0
LINE
  8
ZUWAKU
  6
CONTINUOUS
 62
      32
  5
101
 10
-99.0
 20
-276.61608659
 30
0.0
 11
-97.25
 21
-276.11608659
 31
0.0
  0
LINE
  8
ZUWAKU
  6
CONTINUOUS
 62
      32
  5
102
 10
-99.0
 20
-276.61608659
 30
0.0
 11
-97.25
 21
-276.11608659
 31
0.0
  0
LINE
  8
ZUWAKU
  6
CONTINUOUS
 62
      32
  5
103
 10
-95.375
 20
-275.49108659
 30
0.0
 11
-94.375
 21
-277.11608659
 31
0.0
  0
LINE
  8
ZUWAKU
  6
CONTINUOUS
 62
      32
  5
104
 10
-94.375
 20
-277.11608659
 30
0.0
 11
-91.25
 21
-277.11608659
 31
0.0
  0
LINE
  8
ZUWAKU
  6
CONTINUOUS
 62
      32
  5
105
 10
-94.375
 20
-277.11608659
 30
0.0
 11
-91.25
 21
-277.11608659
 31
0.0
  0
LINE
  8
ZUWAKU
  6
CONTINUOUS
 62
      32
  5
106
 10
-93.375
 20
-273.61608659
 30
0.0
 11
-92.25
 21
-272.11608659
 31
0.0
  0
LINE
  8
ZUWAKU
  6
CONTINUOUS
 62
      32
  5
107
 10
-92.25
 20
-272.11608659
 30
0.0
 11
-91.25
 21
-270.61608659
 31
0.0
  0
LINE
  8
ZUWAKU
  6
CONTINUOUS
 62
      32
  5
108
 10
-91.25
 20
-270.61608659
 30
0.0
 11
-90.5
 21
-268.99108659
 31
0.0
  0
LINE
  8
ZUWAKU
  6
CONTINUOUS
 62
      32
  5
109
 10
-90.5
 20
-268.99108659
 30
0.0
 11
-90.0
 21
-267.24108659
 31
0.0
  0
LINE
  8
ZUWAKU
  6
CONTINUOUS
 62
      32
  5
10A
 10
-90.5
 20
-268.99108659
 30
0.0
 11
-90.0
 21
-267.24108659
 31
0.0
  0
LINE
  8
ZUWAKU
  6
CONTINUOUS
 62
      32
  5
10B
 10
-90.0
 20
-267.24108659
 30
0.0
 11
-98.5
 21
-267.24108659
 31
0.0
  0
LINE
  8
ZUWAKU
  6
CONTINUOUS
 62
      32
  5
10C
 10
-97.625
 20
-273.49108659
 30
0.0
 11
-99.625
 21
-274.61608659
 31
0.0
  0
LINE
  8
ZUWAKU
  6
CONTINUOUS
 62
      32
  5
10D
 10
-97.25
 20
-276.11608659
 30
0.0
 11
-95.375
 21
-275.49108659
 31
0.0
  0
LINE
  8
ZUWAKU
  6
CONTINUOUS
 62
      32
  5
10E
 10
-97.25
 20
-276.11608659
 30
0.0
 11
-95.375
 21
-275.49108659
 31
0.0
  0
LINE
  8
ZUWAKU
  6
CONTINUOUS
 62
      32
  5
10F
 10
-91.25
 20
-277.11608659
 30
0.0
 11
-93.375
 21
-273.61608659
 31
0.0
  0
LINE
  8
ZUWAKU
  6
CONTINUOUS
 62
      32
  5
110
 10
-91.25
 20
-277.11608659
 30
0.0
 11
-93.375
 21
-273.61608659
 31
0.0
  0
LINE
  8
ZUWAKU
  6
CONTINUOUS
 62
      32
  5
111
 10
-96.0
 20
-271.61608659
 30
0.0
 11
-97.625
 21
-273.49108659
 31
0.0
  0
LINE
  8
ZUWAKU
  6
CONTINUOUS
 62
      32
  5
112
 10
-96.0
 20
-271.61608659
 30
0.0
 11
-97.625
 21
-273.49108659
 31
0.0
  0
LINE
  8
ZUWAKU
  6
CONTINUOUS
 62
      32
  5
113
 10
-120.85
 20
-270.61608659
 30
0.0
 11
-119.225
 21
-270.49108659
 31
0.0
  0
LINE
  8
ZUWAKU
  6
CONTINUOUS
 62
      32
  5
114
 10
-119.225
 20
-270.49108659
 30
0.0
 11
-117.475
 21
-269.74108659
 31
0.0
  0
LINE
  8
ZUWAKU
  6
CONTINUOUS
 62
      32
  5
115
 10
-117.475
 20
-269.74108659
 30
0.0
 11
-116.225
 21
-268.61608659
 31
0.0
  0
LINE
  8
ZUWAKU
  6
CONTINUOUS
 62
      32
  5
116
 10
-116.225
 20
-268.61608659
 30
0.0
 11
-115.225
 21
-267.24108659
 31
0.0
  0
LINE
  8
ZUWAKU
  6
CONTINUOUS
 62
      32
  5
117
 10
-106.65
 20
-277.11608659
 30
0.0
 11
-104.4
 21
-276.11608659
 31
0.0
  0
LINE
  8
ZUWAKU
  6
CONTINUOUS
 62
      32
  5
118
 10
-104.4
 20
-276.11608659
 30
0.0
 11
-102.4
 21
-274.24108659
 31
0.0
  0
LINE
  8
ZUWAKU
  6
CONTINUOUS
 62
      32
  5
119
 10
-102.4
 20
-274.24108659
 30
0.0
 11
-100.9
 21
-271.74108659
 31
0.0
  0
LINE
  8
ZUWAKU
  6
CONTINUOUS
 62
      32
  5
11A
 10
-100.9
 20
-271.74108659
 30
0.0
 11
-100.4
 21
-269.11608659
 31
0.0
  0
LINE
  8
ZUWAKU
  6
CONTINUOUS
 62
      32
  5
11B
 10
-102.0
 20
-275.11608659
 30
0.0
 11
-99.625
 21
-274.61608659
 31
0.0
  0
LINE
  8
ZUWAKU
  6
CONTINUOUS
 62
      32
  5
11C
 10
-99.625
 20
-274.61608659
 30
0.0
 11
-97.625
 21
-273.49108659
 31
0.0
  0
LINE
  8
ZUWAKU
  6
CONTINUOUS
 62
      32
  5
11D
 10
-97.625
 20
-273.49108659
 30
0.0
 11
-96.0
 21
-271.61608659
 31
0.0
  0
LINE
  8
ZUWAKU
  6
CONTINUOUS
 62
      32
  5
11E
 10
-115.6
 20
-271.61608659
 30
0.0
 11
-113.975
 21
-271.11608659
 31
0.0
  0
LINE
  8
ZUWAKU
  6
CONTINUOUS
 62
      32
  5
11F
 10
-113.975
 20
-271.11608659
 30
0.0
 11
-112.6
 21
-270.11608659
 31
0.0
  0
LINE
  8
ZUWAKU
  6
CONTINUOUS
 62
      32
  5
120
 10
-112.6
 20
-270.11608659
 30
0.0
 11
-111.35
 21
-268.86608659
 31
0.0
  0
LINE
  8
ZUWAKU
  6
CONTINUOUS
 62
      32
  5
121
 10
-111.35
 20
-268.86608659
 30
0.0
 11
-110.6
 21
-267.24108659
 31
0.0
  0
LINE
  8
ZUWAKU
  6
CONTINUOUS
 62
      32
  5
122
 10
-93.375
 20
-273.61608659
 30
0.0
 11
-92.25
 21
-272.11608659
 31
0.0
  0
LINE
  8
ZUWAKU
  6
CONTINUOUS
 62
      32
  5
123
 10
-92.25
 20
-272.11608659
 30
0.0
 11
-91.25
 21
-270.61608659
 31
0.0
  0
LINE
  8
ZUWAKU
  6
CONTINUOUS
 62
      32
  5
124
 10
-91.25
 20
-270.61608659
 30
0.0
 11
-90.5
 21
-268.99108659
 31
0.0
  0
LINE
  8
ZUWAKU
  6
CONTINUOUS
 62
      32
  5
125
 10
-90.5
 20
-268.99108659
 30
0.0
 11
-90.0
 21
-267.24108659
 31
0.0
  0
LINE
  8
ZUWAKU
  6
CONTINUOUS
 62
      32
  5
126
 10
-99.0
 20
-276.61608659
 30
0.0
 11
-97.25
 21
-276.11608659
 31
0.0
  0
LINE
  8
ZUWAKU
  6
CONTINUOUS
 62
      32
  5
127
 10
-97.25
 20
-276.11608659
 30
0.0
 11
-95.375
 21
-275.49108659
 31
0.0
  0
LINE
  8
ZUWAKU
  6
CONTINUOUS
 62
      32
  5
128
 10
-102.275
 20
-270.74108659
 30
0.0
 11
-101.65
 21
-269.11608659
 31
0.0
  0
LINE
  8
ZUWAKU
  6
CONTINUOUS
 62
      32
  5
129
 10
-101.65
 20
-269.11608659
 30
0.0
 11
-100.4
 21
-269.11608659
 31
0.0
  0
LINE
  8
ZUWAKU
  6
CONTINUOUS
 62
      32
  5
12A
 10
-101.65
 20
-269.11608659
 30
0.0
 11
-100.4
 21
-269.11608659
 31
0.0
  0
LINE
  8
ZUWAKU
  6
CONTINUOUS
 62
      32
  5
12B
 10
-100.4
 20
-269.11608659
 30
0.0
 11
-100.9
 21
-271.74108659
 31
0.0
  0
LINE
  8
ZUWAKU
  6
CONTINUOUS
 62
      32
  5
12C
 10
-100.9
 20
-271.74108659
 30
0.0
 11
-102.4
 21
-274.24108659
 31
0.0
  0
LINE
  8
ZUWAKU
  6
CONTINUOUS
 62
      32
  5
12D
 10
-100.9
 20
-271.74108659
 30
0.0
 11
-102.4
 21
-274.24108659
 31
0.0
  0
LINE
  8
ZUWAKU
  6
CONTINUOUS
 62
      32
  5
12E
 10
-102.4
 20
-274.24108659
 30
0.0
 11
-104.4
 21
-276.11608659
 31
0.0
  0
LINE
  8
ZUWAKU
  6
CONTINUOUS
 62
      32
  5
12F
 10
-106.9
 20
-277.11608659
 30
0.0
 11
-113.275
 21
-277.11608659
 31
0.0
  0
LINE
  8
ZUWAKU
  6
CONTINUOUS
 62
      32
  5
130
 10
-113.275
 20
-277.11608659
 30
0.0
 11
-112.15
 21
-273.99108659
 31
0.0
  0
LINE
  8
ZUWAKU
  6
CONTINUOUS
 62
      32
  5
131
 10
-113.275
 20
-277.11608659
 30
0.0
 11
-112.15
 21
-273.99108659
 31
0.0
  0
LINE
  8
ZUWAKU
  6
CONTINUOUS
 62
      32
  5
132
 10
-103.275
 20
-272.11608659
 30
0.0
 11
-102.275
 21
-270.74108659
 31
0.0
  0
LINE
  8
ZUWAKU
  6
CONTINUOUS
 62
      32
  5
133
 10
-112.15
 20
-273.99108659
 30
0.0
 11
-106.15
 21
-273.99108659
 31
0.0
  0
LINE
  8
ZUWAKU
  6
CONTINUOUS
 62
      32
  5
134
 10
-112.15
 20
-273.99108659
 30
0.0
 11
-106.15
 21
-273.99108659
 31
0.0
  0
LINE
  8
ZUWAKU
  6
CONTINUOUS
 62
      32
  5
135
 10
-106.15
 20
-273.99108659
 30
0.0
 11
-104.65
 21
-273.24108659
 31
0.0
  0
LINE
  8
ZUWAKU
  6
CONTINUOUS
 62
      32
  5
136
 10
-106.15
 20
-273.99108659
 30
0.0
 11
-104.65
 21
-273.24108659
 31
0.0
  0
LINE
  8
ZUWAKU
  6
CONTINUOUS
 62
      32
  5
137
 10
-104.65
 20
-273.24108659
 30
0.0
 11
-103.275
 21
-272.11608659
 31
0.0
  0
LINE
  8
ZUWAKU
  6
CONTINUOUS
 62
      32
  5
138
 10
-124.45
 20
-270.61608659
 30
0.0
 11
-125.95
 21
-274.74108659
 31
0.0
  0
LINE
  8
ZUWAKU
  6
CONTINUOUS
 62
      32
  5
139
 10
-125.95
 20
-274.74108659
 30
0.0
 11
-126.825
 21
-275.61608659
 31
0.0
  0
LINE
  8
ZUWAKU
  6
CONTINUOUS
 62
      32
  5
13A
 10
-125.95
 20
-274.74108659
 30
0.0
 11
-126.825
 21
-275.61608659
 31
0.0
  0
LINE
  8
ZUWAKU
  6
CONTINUOUS
 62
      32
  5
13B
 10
-126.825
 20
-275.61608659
 30
0.0
 11
-127.575
 21
-276.36608659
 31
0.0
  0
LINE
  8
ZUWAKU
  6
CONTINUOUS
 62
      32
  5
13C
 10
-127.575
 20
-276.36608659
 30
0.0
 11
-128.575
 21
-276.86608659
 31
0.0
  0
LINE
  8
ZUWAKU
  6
CONTINUOUS
 62
      32
  5
13D
 10
-127.575
 20
-276.36608659
 30
0.0
 11
-128.575
 21
-276.86608659
 31
0.0
  0
LINE
  8
ZUWAKU
  6
CONTINUOUS
 62
      32
  5
13E
 10
-128.575
 20
-276.86608659
 30
0.0
 11
-129.575
 21
-277.11608659
 31
0.0
  0
LINE
  8
ZUWAKU
  6
CONTINUOUS
 62
      32
  5
13F
 10
-129.575
 20
-277.11608659
 30
0.0
 11
-135.95
 21
-277.11608659
 31
0.0
  0
LINE
  8
ZUWAKU
  6
CONTINUOUS
 62
      32
  5
140
 10
-129.575
 20
-277.11608659
 30
0.0
 11
-135.95
 21
-277.11608659
 31
0.0
  0
LINE
  8
ZUWAKU
  6
CONTINUOUS
 62
      32
  5
141
 10
-135.95
 20
-277.11608659
 30
0.0
 11
-135.2
 21
-275.24108659
 31
0.0
  0
LINE
  8
ZUWAKU
  6
CONTINUOUS
 62
      32
  5
142
 10
-135.2
 20
-275.24108659
 30
0.0
 11
-131.075
 21
-275.24108659
 31
0.0
  0
LINE
  8
ZUWAKU
  6
CONTINUOUS
 62
      32
  5
143
 10
-135.2
 20
-275.24108659
 30
0.0
 11
-131.075
 21
-275.24108659
 31
0.0
  0
LINE
  8
ZUWAKU
  6
CONTINUOUS
 62
      32
  5
144
 10
-128.7
 20
-272.36608659
 30
0.0
 11
-133.95
 21
-272.36608659
 31
0.0
  0
LINE
  8
ZUWAKU
  6
CONTINUOUS
 62
      32
  5
145
 10
-133.95
 20
-272.36608659
 30
0.0
 11
-133.45
 21
-270.61608659
 31
0.0
  0
LINE
  8
ZUWAKU
  6
CONTINUOUS
 62
      32
  5
146
 10
-133.95
 20
-272.36608659
 30
0.0
 11
-133.45
 21
-270.61608659
 31
0.0
  0
LINE
  8
ZUWAKU
  6
CONTINUOUS
 62
      32
  5
147
 10
-131.075
 20
-275.24108659
 30
0.0
 11
-130.2
 21
-274.61608659
 31
0.0
  0
LINE
  8
ZUWAKU
  6
CONTINUOUS
 62
      32
  5
148
 10
-131.075
 20
-275.24108659
 30
0.0
 11
-130.2
 21
-274.61608659
 31
0.0
  0
LINE
  8
ZUWAKU
  6
CONTINUOUS
 62
      32
  5
149
 10
-130.2
 20
-274.61608659
 30
0.0
 11
-129.575
 21
-273.99108659
 31
0.0
  0
LINE
  8
ZUWAKU
  6
CONTINUOUS
 62
      32
  5
14A
 10
-130.2
 20
-274.61608659
 30
0.0
 11
-129.575
 21
-273.99108659
 31
0.0
  0
LINE
  8
ZUWAKU
  6
CONTINUOUS
 62
      32
  5
14B
 10
-129.575
 20
-273.99108659
 30
0.0
 11
-128.95
 21
-273.24108659
 31
0.0
  0
LINE
  8
ZUWAKU
  6
CONTINUOUS
 62
      32
  5
14C
 10
-129.575
 20
-273.99108659
 30
0.0
 11
-128.95
 21
-273.24108659
 31
0.0
  0
LINE
  8
ZUWAKU
  6
CONTINUOUS
 62
      32
  5
14D
 10
-128.95
 20
-273.24108659
 30
0.0
 11
-128.7
 21
-272.36608659
 31
0.0
  0
LINE
  8
ZUWAKU
  6
CONTINUOUS
 62
      32
  5
14E
 10
-128.95
 20
-273.24108659
 30
0.0
 11
-128.7
 21
-272.36608659
 31
0.0
  0
LINE
  8
ZUWAKU
  6
CONTINUOUS
 62
      32
  5
14F
 10
-136.825
 20
-267.24108659
 30
0.0
 11
-134.07599253
 21
-267.24108659
 31
0.0
  0
LINE
  8
ZUWAKU
  6
CONTINUOUS
 62
      32
  5
150
 10
-136.35
 20
-274.61608659
 30
0.0
 11
-137.35
 21
-275.61608659
 31
0.0
  0
LINE
  8
ZUWAKU
  6
CONTINUOUS
 62
      32
  5
151
 10
-137.35
 20
-275.61608659
 30
0.0
 11
-138.35
 21
-276.49108659
 31
0.0
  0
LINE
  8
ZUWAKU
  6
CONTINUOUS
 62
      32
  5
152
 10
-137.35
 20
-275.61608659
 30
0.0
 11
-138.35
 21
-276.49108659
 31
0.0
  0
LINE
  8
ZUWAKU
  6
CONTINUOUS
 62
      32
  5
153
 10
-138.35
 20
-276.49108659
 30
0.0
 11
-139.6
 21
-276.99108659
 31
0.0
  0
LINE
  8
ZUWAKU
  6
CONTINUOUS
 62
      32
  5
154
 10
-139.6
 20
-276.99108659
 30
0.0
 11
-140.85
 21
-277.11608659
 31
0.0
  0
LINE
  8
ZUWAKU
  6
CONTINUOUS
 62
      32
  5
155
 10
-140.85
 20
-277.11608659
 30
0.0
 11
-143.975
 21
-277.11608659
 31
0.0
  0
LINE
  8
ZUWAKU
  6
CONTINUOUS
 62
      32
  5
156
 10
-143.975
 20
-277.11608659
 30
0.0
 11
-143.35
 21
-275.24108659
 31
0.0
  0
LINE
  8
ZUWAKU
  6
CONTINUOUS
 62
      32
  5
157
 10
-143.975
 20
-277.11608659
 30
0.0
 11
-143.35
 21
-275.24108659
 31
0.0
  0
LINE
  8
ZUWAKU
  6
CONTINUOUS
 62
      32
  5
158
 10
-139.6
 20
-273.61608659
 30
0.0
 11
-137.225
 21
-267.24108659
 31
0.0
  0
LINE
  8
ZUWAKU
  6
CONTINUOUS
 62
      32
  5
159
 10
-143.35
 20
-275.24108659
 30
0.0
 11
-142.225
 21
-275.24108659
 31
0.0
  0
LINE
  8
ZUWAKU
  6
CONTINUOUS
 62
      32
  5
15A
 10
-143.35
 20
-275.24108659
 30
0.0
 11
-142.225
 21
-275.24108659
 31
0.0
  0
LINE
  8
ZUWAKU
  6
CONTINUOUS
 62
      32
  5
15B
 10
-140.225
 20
-274.61608659
 30
0.0
 11
-139.6
 21
-273.61608659
 31
0.0
  0
LINE
  8
ZUWAKU
  6
CONTINUOUS
 62
      32
  5
15C
 10
-141.225
 20
-275.11608659
 30
0.0
 11
-140.225
 21
-274.61608659
 31
0.0
  0
LINE
  8
ZUWAKU
  6
CONTINUOUS
 62
      32
  5
15D
 10
-142.225
 20
-275.24108659
 30
0.0
 11
-141.225
 21
-275.11608659
 31
0.0
  0
LINE
  8
ZUWAKU
  6
CONTINUOUS
 62
      32
  5
15E
 10
-142.225
 20
-275.24108659
 30
0.0
 11
-141.225
 21
-275.11608659
 31
0.0
  0
LINE
  8
ZUWAKU
  6
CONTINUOUS
 62
      32
  5
15F
 10
-109.65
 20
-267.24108659
 30
0.0
 11
-105.65
 21
-267.24108659
 31
0.0
  0
LINE
  8
ZUWAKU
  6
CONTINUOUS
 62
      32
  5
160
 10
-105.65
 20
-267.24108659
 30
0.0
 11
-106.4
 21
-269.49108659
 31
0.0
  0
LINE
  8
ZUWAKU
  6
CONTINUOUS
 62
      32
  5
161
 10
-105.65
 20
-267.24108659
 30
0.0
 11
-106.4
 21
-269.49108659
 31
0.0
  0
LINE
  8
ZUWAKU
  6
CONTINUOUS
 62
      32
  5
162
 10
-106.6
 20
-269.49108659
 30
0.0
 11
-110.525
 21
-269.49108659
 31
0.0
  0
LINE
  8
ZUWAKU
  6
CONTINUOUS
 62
      32
  5
163
 10
-94.83514872
 20
-269.47445764
 30
0.0
 11
-96.0
 21
-271.61608659
 31
0.0
  0
LINE
  8
ZUWAKU
  6
CONTINUOUS
 62
      32
  5
164
 10
-91.375
 20
-267.24108659
 30
0.0
 11
-97.625
 21
-273.49108659
 31
0.0
  0
LINE
  8
ZUWAKU
  6
CONTINUOUS
 62
      32
  5
165
 10
-97.625
 20
-273.49108659
 30
0.0
 11
-101.1
 21
-276.96608659
 31
0.0
  0
LINE
  8
ZUWAKU
  6
CONTINUOUS
 62
      32
  5
166
 10
-91.94068542
 20
-267.24108659
 30
0.0
 11
-95.62353094
 21
-270.9239321
 31
0.0
  0
LINE
  8
ZUWAKU
  6
CONTINUOUS
 62
      32
  5
167
 10
-98.91799526
 20
-274.21839642
 30
0.0
 11
-101.77882251
 21
-277.07922367
 31
0.0
  0
LINE
  8
ZUWAKU
  6
CONTINUOUS
 62
      32
  5
168
 10
-92.50637085
 20
-267.24108659
 30
0.0
 11
-94.94892564
 21
-269.68364137
 31
0.0
  0
LINE
  8
ZUWAKU
  6
CONTINUOUS
 62
      32
  5
169
 10
-99.94973641
 20
-274.68445215
 30
0.0
 11
-102.45764502
 21
-277.19236076
 31
0.0
  0
LINE
  8
ZUWAKU
  6
CONTINUOUS
 62
      32
  5
16A
 10
-93.07205627
 20
-267.24108659
 30
0.0
 11
-95.32205627
 21
-269.49108659
 31
0.0
  0
LINE
  8
ZUWAKU
  6
CONTINUOUS
 62
      32
  5
16B
 10
-100.66627128
 20
-274.83530159
 30
0.0
 11
-102.57433294
 21
-276.74336325
 31
0.0
  0
LINE
  8
ZUWAKU
  6
CONTINUOUS
 62
      32
  5
16C
 10
-93.6377417
 20
-267.24108659
 30
0.0
 11
-95.8877417
 21
-269.49108659
 31
0.0
  0
LINE
  8
ZUWAKU
  6
CONTINUOUS
 62
      32
  5
16D
 10
-101.38280615
 20
-274.98615104
 30
0.0
 11
-102.26577725
 21
-275.86912214
 31
0.0
  0
LINE
  8
ZUWAKU
  6
CONTINUOUS
 62
      32
  5
16E
 10
-94.20342712
 20
-267.24108659
 30
0.0
 11
-96.45342712
 21
-269.49108659
 31
0.0
  0
LINE
  8
ZUWAKU
  6
CONTINUOUS
 62
      32
  5
16F
 10
-94.76911255
 20
-267.24108659
 30
0.0
 11
-97.01911255
 21
-269.49108659
 31
0.0
  0
LINE
  8
ZUWAKU
  6
CONTINUOUS
 62
      32
  5
170
 10
-95.33479797
 20
-267.24108659
 30
0.0
 11
-97.58479797
 21
-269.49108659
 31
0.0
  0
LINE
  8
ZUWAKU
  6
CONTINUOUS
 62
      32
  5
171
 10
-95.9004834
 20
-267.24108659
 30
0.0
 11
-98.1504834
 21
-269.49108659
 31
0.0
  0
LINE
  8
ZUWAKU
  6
CONTINUOUS
 62
      32
  5
172
 10
-96.46616882
 20
-267.24108659
 30
0.0
 11
-98.71616882
 21
-269.49108659
 31
0.0
  0
LINE
  8
ZUWAKU
  6
CONTINUOUS
 62
      32
  5
173
 10
-97.03185425
 20
-267.24108659
 30
0.0
 11
-99.23407288
 21
-269.44330521
 31
0.0
  0
LINE
  8
ZUWAKU
  6
CONTINUOUS
 62
      32
  5
174
 10
-97.59753967
 20
-267.24108659
 30
0.0
 11
-98.95123016
 21
-268.59477708
 31
0.0
  0
LINE
  8
ZUWAKU
  6
CONTINUOUS
 62
      32
  5
175
 10
-98.1632251
 20
-267.24108659
 30
0.0
 11
-98.66838745
 21
-267.74624894
 31
0.0
  0
LINE
  8
ZUWAKU
  6
CONTINUOUS
 62
      32
  5
176
 10
-90.80931458
 20
-267.24108659
 30
0.0
 11
-100.42117749
 21
-276.8529495
 31
0.0
  0
LINE
  8
ZUWAKU
  6
CONTINUOUS
 62
      32
  5
177
 10
-90.24362915
 20
-267.24108659
 30
0.0
 11
-99.74235498
 21
-276.73981242
 31
0.0
  0
LINE
  8
ZUWAKU
  6
CONTINUOUS
 62
      32
  5
178
 10
-90.12882251
 20
-267.69196537
 30
0.0
 11
-99.06353247
 21
-276.62667533
 31
0.0
  0
LINE
  8
ZUWAKU
  6
CONTINUOUS
 62
      32
  5
179
 10
-90.35509668
 20
-268.48392497
 30
0.0
 11
-98.28216162
 21
-276.41098991
 31
0.0
  0
LINE
  8
ZUWAKU
  6
CONTINUOUS
 62
      32
  5
17A
 10
-90.67436611
 20
-269.36887982
 30
0.0
 11
-97.49020203
 21
-276.18471574
 31
0.0
  0
LINE
  8
ZUWAKU
  6
CONTINUOUS
 62
      32
  5
17B
 10
-91.15923933
 20
-270.41943847
 30
0.0
 11
-96.65883118
 21
-275.91903031
 31
0.0
  0
LINE
  8
ZUWAKU
  6
CONTINUOUS
 62
      32
  5
17C
 10
-92.16959595
 20
-271.99548051
 30
0.0
 11
-95.81030304
 21
-275.6361876
 31
0.0
  0
LINE
  8
ZUWAKU
  6
CONTINUOUS
 62
      32
  5
17D
 10
-93.31815072
 20
-273.7097207
 30
0.0
 11
-95.27005394
 21
-275.66162393
 31
0.0
  0
LINE
  8
ZUWAKU
  6
CONTINUOUS
 62
      32
  5
17E
 10
-93.10444733
 20
-274.06170274
 30
0.0
 11
-95.05455473
 21
-276.01181015
 31
0.0
  0
LINE
  8
ZUWAKU
  6
CONTINUOUS
 62
      32
  5
17F
 10
-92.89074395
 20
-274.41368479
 30
0.0
 11
-94.83905552
 21
-276.36199636
 31
0.0
  0
LINE
  8
ZUWAKU
  6
CONTINUOUS
 62
      32
  5
180
 10
-92.67704057
 20
-274.76566683
 30
0.0
 11
-94.62355631
 21
-276.71218258
 31
0.0
  0
LINE
  8
ZUWAKU
  6
CONTINUOUS
 62
      32
  5
181
 10
-92.46333718
 20
-275.11764887
 30
0.0
 11
-94.4080571
 21
-277.06236879
 31
0.0
  0
LINE
  8
ZUWAKU
  6
CONTINUOUS
 62
      32
  5
182
 10
-92.2496338
 20
-275.46963091
 30
0.0
 11
-93.89608948
 21
-277.11608659
 31
0.0
  0
LINE
  8
ZUWAKU
  6
CONTINUOUS
 62
      32
  5
183
 10
-92.03593042
 20
-275.82161296
 30
0.0
 11
-93.33040405
 21
-277.11608659
 31
0.0
  0
LINE
  8
ZUWAKU
  6
CONTINUOUS
 62
      32
  5
184
 10
-91.82222704
 20
-276.173595
 30
0.0
 11
-92.76471863
 21
-277.11608659
 31
0.0
  0
LINE
  8
ZUWAKU
  6
CONTINUOUS
 62
      32
  5
185
 10
-91.60852365
 20
-276.52557704
 30
0.0
 11
-92.1990332
 21
-277.11608659
 31
0.0
  0
LINE
  8
ZUWAKU
  6
CONTINUOUS
 62
      32
  5
186
 10
-91.39482027
 20
-276.87755908
 30
0.0
 11
-91.63334778
 21
-277.11608659
 31
0.0
  0
LINE
  8
ZUWAKU
  6
CONTINUOUS
 62
      32
  5
187
 10
-106.9625
 20
-267.24108659
 30
0.0
 11
-109.2125
 21
-269.49108659
 31
0.0
  0
LINE
  8
ZUWAKU
  6
CONTINUOUS
 62
      32
  5
188
 10
-107.52818542
 20
-267.24108659
 30
0.0
 11
-109.77818542
 21
-269.49108659
 31
0.0
  0
LINE
  8
ZUWAKU
  6
CONTINUOUS
 62
      32
  5
189
 10
-108.09387085
 20
-267.24108659
 30
0.0
 11
-110.34387085
 21
-269.49108659
 31
0.0
  0
LINE
  8
ZUWAKU
  6
CONTINUOUS
 62
      32
  5
18A
 10
-108.65955627
 20
-267.24108659
 30
0.0
 11
-110.28028237
 21
-268.86181268
 31
0.0
  0
LINE
  8
ZUWAKU
  6
CONTINUOUS
 62
      32
  5
18B
 10
-109.2252417
 20
-267.24108659
 30
0.0
 11
-109.92030074
 21
-267.93614562
 31
0.0
  0
LINE
  8
ZUWAKU
  6
CONTINUOUS
 62
      32
  5
18C
 10
-106.39681458
 20
-267.24108659
 30
0.0
 11
-108.64681458
 21
-269.49108659
 31
0.0
  0
LINE
  8
ZUWAKU
  6
CONTINUOUS
 62
      32
  5
18D
 10
-105.83112915
 20
-267.24108659
 30
0.0
 11
-108.08112915
 21
-269.49108659
 31
0.0
  0
LINE
  8
ZUWAKU
  6
CONTINUOUS
 62
      32
  5
18E
 10
-105.84227814
 20
-267.817921
 30
0.0
 11
-107.51544373
 21
-269.49108659
 31
0.0
  0
LINE
  8
ZUWAKU
  6
CONTINUOUS
 62
      32
  5
18F
 10
-106.12512085
 20
-268.66644914
 30
0.0
 11
-106.9497583
 21
-269.49108659
 31
0.0
  0
LINE
  8
ZUWAKU
  6
CONTINUOUS
 62
      32
  5
190
 10
-106.38407288
 20
-269.49108659
 30
0.0
 11
-106.40796356
 21
-269.51497727
 31
0.0
  0
LINE
  8
ZUWAKU
  6
CONTINUOUS
 62
      32
  5
191
 10
-107.7125
 20
-273.99108659
 30
0.0
 11
-110.8375
 21
-277.11608659
 31
0.0
  0
LINE
  8
ZUWAKU
  6
CONTINUOUS
 62
      32
  5
192
 10
-108.27818542
 20
-273.99108659
 30
0.0
 11
-111.40318542
 21
-277.11608659
 31
0.0
  0
LINE
  8
ZUWAKU
  6
CONTINUOUS
 62
      32
  5
193
 10
-108.84387085
 20
-273.99108659
 30
0.0
 11
-111.96887085
 21
-277.11608659
 31
0.0
  0
LINE
  8
ZUWAKU
  6
CONTINUOUS
 62
      32
  5
194
 10
-109.40955627
 20
-273.99108659
 30
0.0
 11
-112.53455627
 21
-277.11608659
 31
0.0
  0
LINE
  8
ZUWAKU
  6
CONTINUOUS
 62
      32
  5
195
 10
-109.9752417
 20
-273.99108659
 30
0.0
 11
-113.1002417
 21
-277.11608659
 31
0.0
  0
LINE
  8
ZUWAKU
  6
CONTINUOUS
 62
      32
  5
196
 10
-110.54092712
 20
-273.99108659
 30
0.0
 11
-113.05510349
 21
-276.50526296
 31
0.0
  0
LINE
  8
ZUWAKU
  6
CONTINUOUS
 62
      32
  5
197
 10
-111.10661255
 20
-273.99108659
 30
0.0
 11
-112.73690544
 21
-275.62137948
 31
0.0
  0
LINE
  8
ZUWAKU
  6
CONTINUOUS
 62
      32
  5
198
 10
-111.67229797
 20
-273.99108659
 30
0.0
 11
-112.41870739
 21
-274.737496
 31
0.0
  0
LINE
  8
ZUWAKU
  6
CONTINUOUS
 62
      32
  5
199
 10
-107.14681458
 20
-273.99108659
 30
0.0
 11
-110.27181458
 21
-277.11608659
 31
0.0
  0
LINE
  8
ZUWAKU
  6
CONTINUOUS
 62
      32
  5
19A
 10
-106.58112915
 20
-273.99108659
 30
0.0
 11
-109.70612915
 21
-277.11608659
 31
0.0
  0
LINE
  8
ZUWAKU
  6
CONTINUOUS
 62
      32
  5
19B
 10
-101.14044373
 20
-269.11608659
 30
0.0
 11
-101.96847267
 21
-269.94411553
 31
0.0
  0
LINE
  8
ZUWAKU
  6
CONTINUOUS
 62
      32
  5
19C
 10
-105.88088745
 20
-273.85653031
 30
0.0
 11
-109.14044373
 21
-277.11608659
 31
0.0
  0
LINE
  8
ZUWAKU
  6
CONTINUOUS
 62
      32
  5
19D
 10
-100.5747583
 20
-269.11608659
 30
0.0
 11
-102.47564453
 21
-271.01697282
 31
0.0
  0
LINE
  8
ZUWAKU
  6
CONTINUOUS
 62
      32
  5
19E
 10
-104.7495166
 20
-273.29084489
 30
0.0
 11
-108.5747583
 21
-277.11608659
 31
0.0
  0
LINE
  8
ZUWAKU
  6
CONTINUOUS
 62
      32
  5
19F
 10
-100.49198285
 20
-269.59899657
 30
0.0
 11
-108.00907288
 21
-277.11608659
 31
0.0
  0
LINE
  8
ZUWAKU
  6
CONTINUOUS
 62
      32
  5
1A0
 10
-100.62508531
 20
-270.29778444
 30
0.0
 11
-107.44338745
 21
-277.11608659
 31
0.0
  0
LINE
  8
ZUWAKU
  6
CONTINUOUS
 62
      32
  5
1A1
 10
-100.75818776
 20
-270.99657232
 30
0.0
 11
-106.87770203
 21
-277.11608659
 31
0.0
  0
LINE
  8
ZUWAKU
  6
CONTINUOUS
 62
      32
  5
1A2
 10
-100.89129021
 20
-271.6953602
 30
0.0
 11
-106.04162988
 21
-276.84569987
 31
0.0
  0
LINE
  8
ZUWAKU
  6
CONTINUOUS
 62
      32
  5
1A3
 10
-101.69300324
 20
-273.06275865
 30
0.0
 11
-105.02339612
 21
-276.39315153
 31
0.0
  0
LINE
  8
ZUWAKU
  6
CONTINUOUS
 62
      32
  5
1A4
 10
-112.2875
 20
-267.24108659
 30
0.0
 11
-121.271875
 21
-276.22546159
 31
0.0
  0
LINE
  8
ZUWAKU
  6
CONTINUOUS
 62
      32
  5
1A5
 10
-112.85318542
 20
-267.24108659
 30
0.0
 11
-120.94189184
 21
-275.329793
 31
0.0
  0
LINE
  8
ZUWAKU
  6
CONTINUOUS
 62
      32
  5
1A6
 10
-113.41887085
 20
-267.24108659
 30
0.0
 11
-120.61190867
 21
-274.43412441
 31
0.0
  0
LINE
  8
ZUWAKU
  6
CONTINUOUS
 62
      32
  5
1A7
 10
-113.98455627
 20
-267.24108659
 30
0.0
 11
-120.28192551
 21
-273.53845582
 31
0.0
  0
LINE
  8
ZUWAKU
  6
CONTINUOUS
 62
      32
  5
1A8
 10
-114.5502417
 20
-267.24108659
 30
0.0
 11
-119.95194234
 21
-272.64278723
 31
0.0
  0
LINE
  8
ZUWAKU
  6
CONTINUOUS
 62
      32
  5
1A9
 10
-115.11592712
 20
-267.24108659
 30
0.0
 11
-115.515861
 21
-267.64102046
 31
0.0
  0
LINE
  8
ZUWAKU
  6
CONTINUOUS
 62
      32
  5
1AA
 10
-117.72162247
 20
-269.84678193
 30
0.0
 11
-120.24092712
 21
-272.36608659
 31
0.0
  0
LINE
  8
ZUWAKU
  6
CONTINUOUS
 62
      32
  5
1AB
 10
-118.71157196
 20
-270.271046
 30
0.0
 11
-120.80661255
 21
-272.36608659
 31
0.0
  0
LINE
  8
ZUWAKU
  6
CONTINUOUS
 62
      32
  5
1AC
 10
-119.51998947
 20
-270.51377809
 30
0.0
 11
-121.37229797
 21
-272.36608659
 31
0.0
  0
LINE
  8
ZUWAKU
  6
CONTINUOUS
 62
      32
  5
1AD
 10
-120.13281535
 20
-270.56091854
 30
0.0
 11
-121.9379834
 21
-272.36608659
 31
0.0
  0
LINE
  8
ZUWAKU
  6
CONTINUOUS
 62
      32
  5
1AE
 10
-120.74564123
 20
-270.60805899
 30
0.0
 11
-122.50366882
 21
-272.36608659
 31
0.0
  0
LINE
  8
ZUWAKU
  6
CONTINUOUS
 62
      32
  5
1AF
 10
-121.31935425
 20
-270.61608659
 30
0.0
 11
-123.06935425
 21
-272.36608659
 31
0.0
  0
LINE
  8
ZUWAKU
  6
CONTINUOUS
 62
      32
  5
1B0
 10
-121.88503967
 20
-270.61608659
 30
0.0
 11
-123.63503967
 21
-272.36608659
 31
0.0
  0
LINE
  8
ZUWAKU
  6
CONTINUOUS
 62
      32
  5
1B1
 10
-122.4507251
 20
-270.61608659
 30
0.0
 11
-123.65515272
 21
-271.82051421
 31
0.0
  0
LINE
  8
ZUWAKU
  6
CONTINUOUS
 62
      32
  5
1B2
 10
-123.01641052
 20
-270.61608659
 30
0.0
 11
-123.34088304
 21
-270.94055911
 31
0.0
  0
LINE
  8
ZUWAKU
  6
CONTINUOUS
 62
      32
  5
1B3
 10
-111.72181458
 20
-267.24108659
 30
0.0
 11
-121.60185816
 21
-277.12113018
 31
0.0
  0
LINE
  8
ZUWAKU
  6
CONTINUOUS
 62
      32
  5
1B4
 10
-111.15612915
 20
-267.24108659
 30
0.0
 11
-115.50051988
 21
-271.58547732
 31
0.0
  0
LINE
  8
ZUWAKU
  6
CONTINUOUS
 62
      32
  5
1B5
 10
-115.63562285
 20
-271.72058029
 30
0.0
 11
-121.03112915
 21
-277.11608659
 31
0.0
  0
LINE
  8
ZUWAKU
  6
CONTINUOUS
 62
      32
  5
1B6
 10
-110.59044373
 20
-267.24108659
 30
0.0
 11
-114.68341871
 21
-271.33406158
 31
0.0
  0
LINE
  8
ZUWAKU
  6
CONTINUOUS
 62
      32
  5
1B7
 10
-115.92821876
 20
-272.57886163
 30
0.0
 11
-120.46544373
 21
-277.11608659
 31
0.0
  0
LINE
  8
ZUWAKU
  6
CONTINUOUS
 62
      32
  5
1B8
 10
-111.09306431
 20
-268.3093926
 30
0.0
 11
-113.69911377
 21
-270.91544205
 31
0.0
  0
LINE
  8
ZUWAKU
  6
CONTINUOUS
 62
      32
  5
1B9
 10
-116.22081467
 20
-273.43714296
 30
0.0
 11
-119.8997583
 21
-277.11608659
 31
0.0
  0
LINE
  8
ZUWAKU
  6
CONTINUOUS
 62
      32
  5
1BA
 10
-116.51341058
 20
-274.29542429
 30
0.0
 11
-119.33407288
 21
-277.11608659
 31
0.0
  0
LINE
  8
ZUWAKU
  6
CONTINUOUS
 62
      32
  5
1BB
 10
-116.80600649
 20
-275.15370563
 30
0.0
 11
-118.76838745
 21
-277.11608659
 31
0.0
  0
LINE
  8
ZUWAKU
  6
CONTINUOUS
 62
      32
  5
1BC
 10
-117.0986024
 20
-276.01198696
 30
0.0
 11
-118.20270203
 21
-277.11608659
 31
0.0
  0
LINE
  8
ZUWAKU
  6
CONTINUOUS
 62
      32
  5
1BD
 10
-117.39119831
 20
-276.8702683
 30
0.0
 11
-117.6370166
 21
-277.11608659
 31
0.0
  0
LINE
  8
ZUWAKU
  6
CONTINUOUS
 62
      32
  5
1BE
 10
-127.1375
 20
-267.24108659
 30
0.0
 11
-129.3875
 21
-269.49108659
 31
0.0
  0
LINE
  8
ZUWAKU
  6
CONTINUOUS
 62
      32
  5
1BF
 10
-127.70318542
 20
-267.24108659
 30
0.0
 11
-129.95318542
 21
-269.49108659
 31
0.0
  0
LINE
  8
ZUWAKU
  6
CONTINUOUS
 62
      32
  5
1C0
 10
-128.26887085
 20
-267.24108659
 30
0.0
 11
-130.51887085
 21
-269.49108659
 31
0.0
  0
LINE
  8
ZUWAKU
  6
CONTINUOUS
 62
      32
  5
1C1
 10
-128.83455627
 20
-267.24108659
 30
0.0
 11
-131.08455627
 21
-269.49108659
 31
0.0
  0
LINE
  8
ZUWAKU
  6
CONTINUOUS
 62
      32
  5
1C2
 10
-129.4002417
 20
-267.24108659
 30
0.0
 11
-131.6502417
 21
-269.49108659
 31
0.0
  0
LINE
  8
ZUWAKU
  6
CONTINUOUS
 62
      32
  5
1C3
 10
-129.96592712
 20
-267.24108659
 30
0.0
 11
-132.21592712
 21
-269.49108659
 31
0.0
  0
LINE
  8
ZUWAKU
  6
CONTINUOUS
 62
      32
  5
1C4
 10
-130.53161255
 20
-267.24108659
 30
0.0
 11
-132.78161255
 21
-269.49108659
 31
0.0
  0
LINE
  8
ZUWAKU
  6
CONTINUOUS
 62
      32
  5
1C5
 10
-131.09729797
 20
-267.24108659
 30
0.0
 11
-133.12635101
 21
-269.27013963
 31
0.0
  0
LINE
  8
ZUWAKU
  6
CONTINUOUS
 62
      32
  5
1C6
 10
-131.6629834
 20
-267.24108659
 30
0.0
 11
-132.8435083
 21
-268.42161149
 31
0.0
  0
LINE
  8
ZUWAKU
  6
CONTINUOUS
 62
      32
  5
1C7
 10
-132.22866882
 20
-267.24108659
 30
0.0
 11
-132.56066559
 21
-267.57308335
 31
0.0
  0
LINE
  8
ZUWAKU
  6
CONTINUOUS
 62
      32
  5
1C8
 10
-126.57181458
 20
-267.24108659
 30
0.0
 11
-128.82181458
 21
-269.49108659
 31
0.0
  0
LINE
  8
ZUWAKU
  6
CONTINUOUS
 62
      32
  5
1C9
 10
-126.00612915
 20
-267.24108659
 30
0.0
 11
-128.25612915
 21
-269.49108659
 31
0.0
  0
LINE
  8
ZUWAKU
  6
CONTINUOUS
 62
      32
  5
1CA
 10
-125.44044373
 20
-267.24108659
 30
0.0
 11
-127.69044373
 21
-269.49108659
 31
0.0
  0
LINE
  8
ZUWAKU
  6
CONTINUOUS
 62
      32
  5
1CB
 10
-124.8747583
 20
-267.24108659
 30
0.0
 11
-127.1247583
 21
-269.49108659
 31
0.0
  0
LINE
  8
ZUWAKU
  6
CONTINUOUS
 62
      32
  5
1CC
 10
-124.30907288
 20
-267.24108659
 30
0.0
 11
-126.55907288
 21
-269.49108659
 31
0.0
  0
LINE
  8
ZUWAKU
  6
CONTINUOUS
 62
      32
  5
1CD
 10
-123.74338745
 20
-267.24108659
 30
0.0
 11
-125.99338745
 21
-269.49108659
 31
0.0
  0
LINE
  8
ZUWAKU
  6
CONTINUOUS
 62
      32
  5
1CE
 10
-123.39864899
 20
-267.46203355
 30
0.0
 11
-125.42770203
 21
-269.49108659
 31
0.0
  0
LINE
  8
ZUWAKU
  6
CONTINUOUS
 62
      32
  5
1CF
 10
-123.6814917
 20
-268.31056169
 30
0.0
 11
-124.8620166
 21
-269.49108659
 31
0.0
  0
LINE
  8
ZUWAKU
  6
CONTINUOUS
 62
      32
  5
1D0
 10
-123.96433441
 20
-269.15908982
 30
0.0
 11
-124.29633118
 21
-269.49108659
 31
0.0
  0
LINE
  8
ZUWAKU
  6
CONTINUOUS
 62
      32
  5
1D1
 10
-126.95
 20
-270.61608659
 30
0.0
 11
-128.7
 21
-272.36608659
 31
0.0
  0
LINE
  8
ZUWAKU
  6
CONTINUOUS
 62
      32
  5
1D2
 10
-131.575
 20
-275.24108659
 30
0.0
 11
-133.45
 21
-277.11608659
 31
0.0
  0
LINE
  8
ZUWAKU
  6
CONTINUOUS
 62
      32
  5
1D3
 10
-127.51568542
 20
-270.61608659
 30
0.0
 11
-129.26568542
 21
-272.36608659
 31
0.0
  0
LINE
  8
ZUWAKU
  6
CONTINUOUS
 62
      32
  5
1D4
 10
-132.14068542
 20
-275.24108659
 30
0.0
 11
-134.01568542
 21
-277.11608659
 31
0.0
  0
LINE
  8
ZUWAKU
  6
CONTINUOUS
 62
      32
  5
1D5
 10
-128.08137085
 20
-270.61608659
 30
0.0
 11
-129.83137085
 21
-272.36608659
 31
0.0
  0
LINE
  8
ZUWAKU
  6
CONTINUOUS
 62
      32
  5
1D6
 10
-132.70637085
 20
-275.24108659
 30
0.0
 11
-134.58137085
 21
-277.11608659
 31
0.0
  0
LINE
  8
ZUWAKU
  6
CONTINUOUS
 62
      32
  5
1D7
 10
-128.64705627
 20
-270.61608659
 30
0.0
 11
-130.39705627
 21
-272.36608659
 31
0.0
  0
LINE
  8
ZUWAKU
  6
CONTINUOUS
 62
      32
  5
1D8
 10
-133.27205627
 20
-275.24108659
 30
0.0
 11
-135.14705627
 21
-277.11608659
 31
0.0
  0
LINE
  8
ZUWAKU
  6
CONTINUOUS
 62
      32
  5
1D9
 10
-129.2127417
 20
-270.61608659
 30
0.0
 11
-130.9627417
 21
-272.36608659
 31
0.0
  0
LINE
  8
ZUWAKU
  6
CONTINUOUS
 62
      32
  5
1DA
 10
-133.8377417
 20
-275.24108659
 30
0.0
 11
-135.7127417
 21
-277.11608659
 31
0.0
  0
LINE
  8
ZUWAKU
  6
CONTINUOUS
 62
      32
  5
1DB
 10
-129.77842712
 20
-270.61608659
 30
0.0
 11
-131.52842712
 21
-272.36608659
 31
0.0
  0
LINE
  8
ZUWAKU
  6
CONTINUOUS
 62
      32
  5
1DC
 10
-134.40342712
 20
-275.24108659
 30
0.0
 11
-135.73104858
 21
-276.56870805
 31
0.0
  0
LINE
  8
ZUWAKU
  6
CONTINUOUS
 62
      32
  5
1DD
 10
-130.34411255
 20
-270.61608659
 30
0.0
 11
-132.09411255
 21
-272.36608659
 31
0.0
  0
LINE
  8
ZUWAKU
  6
CONTINUOUS
 62
      32
  5
1DE
 10
-134.96911255
 20
-275.24108659
 30
0.0
 11
-135.35392497
 21
-275.625899
 31
0.0
  0
LINE
  8
ZUWAKU
  6
CONTINUOUS
 62
      32
  5
1DF
 10
-130.90979797
 20
-270.61608659
 30
0.0
 11
-132.65979797
 21
-272.36608659
 31
0.0
  0
LINE
  8
ZUWAKU
  6
CONTINUOUS
 62
      32
  5
1E0
 10
-131.4754834
 20
-270.61608659
 30
0.0
 11
-133.2254834
 21
-272.36608659
 31
0.0
  0
LINE
  8
ZUWAKU
  6
CONTINUOUS
 62
      32
  5
1E1
 10
-132.04116882
 20
-270.61608659
 30
0.0
 11
-133.79116882
 21
-272.36608659
 31
0.0
  0
LINE
  8
ZUWAKU
  6
CONTINUOUS
 62
      32
  5
1E2
 10
-132.60685425
 20
-270.61608659
 30
0.0
 11
-133.7872583
 21
-271.79649064
 31
0.0
  0
LINE
  8
ZUWAKU
  6
CONTINUOUS
 62
      32
  5
1E3
 10
-133.17253967
 20
-270.61608659
 30
0.0
 11
-133.56098413
 21
-271.00453104
 31
0.0
  0
LINE
  8
ZUWAKU
  6
CONTINUOUS
 62
      32
  5
1E4
 10
-126.38431458
 20
-270.61608659
 30
0.0
 11
-128.92627417
 21
-273.15804618
 31
0.0
  0
LINE
  8
ZUWAKU
  6
CONTINUOUS
 62
      32
  5
1E5
 10
-130.84510101
 20
-275.07687303
 30
0.0
 11
-132.88431458
 21
-277.11608659
 31
0.0
  0
LINE
  8
ZUWAKU
  6
CONTINUOUS
 62
      32
  5
1E6
 10
-125.81862915
 20
-270.61608659
 30
0.0
 11
-132.31862915
 21
-277.11608659
 31
0.0
  0
LINE
  8
ZUWAKU
  6
CONTINUOUS
 62
      32
  5
1E7
 10
-125.25294373
 20
-270.61608659
 30
0.0
 11
-131.75294373
 21
-277.11608659
 31
0.0
  0
LINE
  8
ZUWAKU
  6
CONTINUOUS
 62
      32
  5
1E8
 10
-124.6872583
 20
-270.61608659
 30
0.0
 11
-131.1872583
 21
-277.11608659
 31
0.0
  0
LINE
  8
ZUWAKU
  6
CONTINUOUS
 62
      32
  5
1E9
 10
-124.63767264
 20
-271.13218635
 30
0.0
 11
-130.62157288
 21
-277.11608659
 31
0.0
  0
LINE
  8
ZUWAKU
  6
CONTINUOUS
 62
      32
  5
1EA
 10
-124.96092146
 20
-272.02112059
 30
0.0
 11
-130.05588745
 21
-277.11608659
 31
0.0
  0
LINE
  8
ZUWAKU
  6
CONTINUOUS
 62
      32
  5
1EB
 10
-125.28417027
 20
-272.91005483
 30
0.0
 11
-129.46193603
 21
-277.0878206
 31
0.0
  0
LINE
  8
ZUWAKU
  6
CONTINUOUS
 62
      32
  5
1EC
 10
-125.60741909
 20
-273.79898907
 30
0.0
 11
-128.7076888
 21
-276.89925879
 31
0.0
  0
LINE
  8
ZUWAKU
  6
CONTINUOUS
 62
      32
  5
1ED
 10
-125.9306679
 20
-274.68792331
 30
0.0
 11
-127.64266235
 21
-276.39991776
 31
0.0
  0
LINE
  8
ZUWAKU
  6
CONTINUOUS
 62
      32
  5
1EE
 10
-133.975
 20
-267.24108659
 30
0.0
 11
-139.1546875
 21
-272.42077409
 31
0.0
  0
LINE
  8
ZUWAKU
  6
CONTINUOUS
 62
      32
  5
1EF
 10
-141.93928571
 20
-275.2053723
 30
0.0
 11
-143.85
 21
-277.11608659
 31
0.0
  0
LINE
  8
ZUWAKU
  6
CONTINUOUS
 62
      32
  5
1F0
 10
-134.54068542
 20
-267.24108659
 30
0.0
 11
-138.81881178
 21
-271.51921294
 31
0.0
  0
LINE
  8
ZUWAKU
  6
CONTINUOUS
 62
      32
  5
1F1
 10
-142.54068542
 20
-275.24108659
 30
0.0
 11
-143.75465729
 21
-276.45505845
 31
0.0
  0
LINE
  8
ZUWAKU
  6
CONTINUOUS
 62
      32
  5
1F2
 10
-135.10637085
 20
-267.24108659
 30
0.0
 11
-138.48293606
 21
-270.6176518
 31
0.0
  0
LINE
  8
ZUWAKU
  6
CONTINUOUS
 62
      32
  5
1F3
 10
-143.10637085
 20
-275.24108659
 30
0.0
 11
-143.47181458
 21
-275.60653031
 31
0.0
  0
LINE
  8
ZUWAKU
  6
CONTINUOUS
 62
      32
  5
1F4
 10
-135.67205627
 20
-267.24108659
 30
0.0
 11
-138.14706034
 21
-269.71609065
 31
0.0
  0
LINE
  8
ZUWAKU
  6
CONTINUOUS
 62
      32
  5
1F5
 10
-136.2377417
 20
-267.24108659
 30
0.0
 11
-137.81118462
 21
-268.8145295
 31
0.0
  0
LINE
  8
ZUWAKU
  6
CONTINUOUS
 62
      32
  5
1F6
 10
-136.80342712
 20
-267.24108659
 30
0.0
 11
-137.47530889
 21
-267.91296836
 31
0.0
  0
LINE
  8
ZUWAKU
  6
CONTINUOUS
 62
      32
  5
1F7
 10
-134.07599253
 20
-267.90776454
 30
0.0
 11
-139.49056322
 21
-273.32233523
 31
0.0
  0
LINE
  8
ZUWAKU
  6
CONTINUOUS
 62
      32
  5
1F8
 10
-141.29278809
 20
-275.1245601
 30
0.0
 11
-143.28431458
 21
-277.11608659
 31
0.0
  0
LINE
  8
ZUWAKU
  6
CONTINUOUS
 62
      32
  5
1F9
 10
-134.36608762
 20
-268.76354505
 30
0.0
 11
-140.2122583
 21
-274.60971574
 31
0.0
  0
LINE
  8
ZUWAKU
  6
CONTINUOUS
 62
      32
  5
1FA
 10
-140.23561808
 20
-274.63307552
 30
0.0
 11
-142.71862915
 21
-277.11608659
 31
0.0
  0
LINE
  8
ZUWAKU
  6
CONTINUOUS
 62
      32
  5
1FB
 10
-134.65618271
 20
-269.61932557
 30
0.0
 11
-142.15294373
 21
-277.11608659
 31
0.0
  0
LINE
  8
ZUWAKU
  6
CONTINUOUS
 62
      32
  5
1FC
 10
-134.94627779
 20
-270.47510608
 30
0.0
 11
-141.5872583
 21
-277.11608659
 31
0.0
  0
LINE
  8
ZUWAKU
  6
CONTINUOUS
 62
      32
  5
1FD
 10
-135.23637288
 20
-271.3308866
 30
0.0
 11
-141.02157288
 21
-277.11608659
 31
0.0
  0
LINE
  8
ZUWAKU
  6
CONTINUOUS
 62
      32
  5
1FE
 10
-135.52646797
 20
-272.18666711
 30
0.0
 11
-140.41209717
 21
-277.0722963
 31
0.0
  0
LINE
  8
ZUWAKU
  6
CONTINUOUS
 62
      32
  5
1FF
 10
-135.81656306
 20
-273.04244763
 30
0.0
 11
-139.78355781
 21
-277.00944237
 31
0.0
  0
LINE
  8
ZUWAKU
  6
CONTINUOUS
 62
      32
  5
200
 10
-136.10665815
 20
-273.89822814
 30
0.0
 11
-138.93252767
 21
-276.72409765
 31
0.0
  0
LINE
  8
ZUWAKU
  6
CONTINUOUS
 62
      32
  5
201
 10
-139.9875
 20
-267.94108659
 30
0.0
 11
-144.61008065
 21
-272.56366723
 31
0.0
  0
LINE
  8
ZUWAKU
  6
CONTINUOUS
 62
      32
  5
202
 10
-139.85318542
 20
-267.24108659
 30
0.0
 11
-144.29986606
 21
-271.68776722
 31
0.0
  0
LINE
  8
ZUWAKU
  6
CONTINUOUS
 62
      32
  5
203
 10
-140.41887085
 20
-267.24108659
 30
0.0
 11
-143.98965147
 21
-270.81186721
 31
0.0
  0
LINE
  8
ZUWAKU
  6
CONTINUOUS
 62
      32
  5
204
 10
-140.98455627
 20
-267.24108659
 30
0.0
 11
-143.67943688
 21
-269.93596719
 31
0.0
  0
LINE
  8
ZUWAKU
  6
CONTINUOUS
 62
      32
  5
205
 10
-141.5502417
 20
-267.24108659
 30
0.0
 11
-143.36922229
 21
-269.06006718
 31
0.0
  0
LINE
  8
ZUWAKU
  6
CONTINUOUS
 62
      32
  5
206
 10
-142.11592712
 20
-267.24108659
 30
0.0
 11
-143.05900771
 21
-268.18416717
 31
0.0
  0
LINE
  8
ZUWAKU
  6
CONTINUOUS
 62
      32
  5
207
 10
-142.68161255
 20
-267.24108659
 30
0.0
 11
-142.74879312
 21
-267.30826716
 31
0.0
  0
LINE
  8
ZUWAKU
  6
CONTINUOUS
 62
      32
  5
208
 10
-140.32691125
 20
-268.84618327
 30
0.0
 11
-144.72181458
 21
-273.24108659
 31
0.0
  0
LINE
  8
ZUWAKU
  6
CONTINUOUS
 62
      32
  5
209
 10
-140.66632251
 20
-269.75127995
 30
0.0
 11
-144.15612915
 21
-273.24108659
 31
0.0
  0
LINE
  8
ZUWAKU
  6
CONTINUOUS
 62
      32
  5
20A
 10
-141.00573376
 20
-270.65637663
 30
0.0
 11
-143.59044373
 21
-273.24108659
 31
0.0
  0
LINE
  8
ZUWAKU
  6
CONTINUOUS
 62
      32
  5
20B
 10
-141.34514502
 20
-271.56147331
 30
0.0
 11
-143.0247583
 21
-273.24108659
 31
0.0
  0
LINE
  8
ZUWAKU
  6
CONTINUOUS
 62
      32
  5
20C
 10
-141.68455627
 20
-272.46656999
 30
0.0
 11
-142.45907288
 21
-273.24108659
 31
0.0
  0
LINE
  8
ZUWAKU
  6
CONTINUOUS
 62
      32
  5
20D
 10
199.0
 20
-0.74108659
 30
0.0
 11
210.0
 21
-0.74108659
 31
0.0
  0
LINE
  8
ZUWAKU
  6
CONTINUOUS
 62
      32
  5
20E
 10
199.0
 20
-10.74108659
 30
0.0
 11
210.0
 21
-10.74108659
 31
0.0
  0
LINE
  8
ZUWAKU
  6
CONTINUOUS
 62
      32
  5
20F
 10
210.0
 20
-0.74108659
 30
0.0
 11
210.0
 21
-10.74108659
 31
0.0
  0
LINE
  8
ZUWAKU
  6
CONTINUOUS
 62
      32
  5
210
 10
199.0
 20
-0.74108659
 30
0.0
 11
199.0
 21
-10.74108659
 31
0.0
  0
LINE
  8
ZUWAKU
  6
CONTINUOUS
 62
      32
  5
211
 10
210.0
 20
-10.70626695
 30
0.0
 11
209.96518036
 21
-10.74108659
 31
0.0
  0
LINE
  8
ZUWAKU
  6
CONTINUOUS
 62
      32
  5
212
 10
204.13077635
 20
-0.74108659
 30
0.0
 11
199.0
 21
-5.87186294
 31
0.0
  0
LINE
  8
ZUWAKU
  6
CONTINUOUS
 62
      32
  5
213
 10
203.56509093
 20
-0.74108659
 30
0.0
 11
199.0
 21
-5.30617752
 31
0.0
  0
LINE
  8
ZUWAKU
  6
CONTINUOUS
 62
      32
  5
214
 10
202.9994055
 20
-0.74108659
 30
0.0
 11
199.0
 21
-4.74049209
 31
0.0
  0
LINE
  8
ZUWAKU
  6
CONTINUOUS
 62
      32
  5
215
 10
202.43372008
 20
-0.74108659
 30
0.0
 11
199.0
 21
-4.17480667
 31
0.0
  0
LINE
  8
ZUWAKU
  6
CONTINUOUS
 62
      32
  5
216
 10
201.86803465
 20
-0.74108659
 30
0.0
 11
199.0
 21
-3.60912124
 31
0.0
  0
LINE
  8
ZUWAKU
  6
CONTINUOUS
 62
      32
  5
217
 10
201.30234923
 20
-0.74108659
 30
0.0
 11
199.0
 21
-3.04343582
 31
0.0
  0
LINE
  8
ZUWAKU
  6
CONTINUOUS
 62
      32
  5
218
 10
200.7366638
 20
-0.74108659
 30
0.0
 11
199.0
 21
-2.47775039
 31
0.0
  0
LINE
  8
ZUWAKU
  6
CONTINUOUS
 62
      32
  5
219
 10
200.17097838
 20
-0.74108659
 30
0.0
 11
199.0
 21
-1.91206497
 31
0.0
  0
LINE
  8
ZUWAKU
  6
CONTINUOUS
 62
      32
  5
21A
 10
199.60529295
 20
-0.74108659
 30
0.0
 11
199.0
 21
-1.34637954
 31
0.0
  0
LINE
  8
ZUWAKU
  6
CONTINUOUS
 62
      32
  5
21B
 10
204.69646178
 20
-0.74108659
 30
0.0
 11
199.0
 21
-6.43754837
 31
0.0
  0
LINE
  8
ZUWAKU
  6
CONTINUOUS
 62
      32
  5
21C
 10
205.2621472
 20
-0.74108659
 30
0.0
 11
199.0
 21
-7.00323379
 31
0.0
  0
LINE
  8
ZUWAKU
  6
CONTINUOUS
 62
      32
  5
21D
 10
205.82783263
 20
-0.74108659
 30
0.0
 11
199.0
 21
-7.56891922
 31
0.0
  0
LINE
  8
ZUWAKU
  6
CONTINUOUS
 62
      32
  5
21E
 10
206.39351805
 20
-0.74108659
 30
0.0
 11
199.0
 21
-8.13460464
 31
0.0
  0
LINE
  8
ZUWAKU
  6
CONTINUOUS
 62
      32
  5
21F
 10
206.95920348
 20
-0.74108659
 30
0.0
 11
199.0
 21
-8.70029007
 31
0.0
  0
LINE
  8
ZUWAKU
  6
CONTINUOUS
 62
      32
  5
220
 10
207.5248889
 20
-0.74108659
 30
0.0
 11
199.0
 21
-9.26597549
 31
0.0
  0
LINE
  8
ZUWAKU
  6
CONTINUOUS
 62
      32
  5
221
 10
208.09057433
 20
-0.74108659
 30
0.0
 11
199.0
 21
-9.83166092
 31
0.0
  0
LINE
  8
ZUWAKU
  6
CONTINUOUS
 62
      32
  5
222
 10
208.65625975
 20
-0.74108659
 30
0.0
 11
199.0
 21
-10.39734634
 31
0.0
  0
LINE
  8
ZUWAKU
  6
CONTINUOUS
 62
      32
  5
223
 10
209.22194518
 20
-0.74108659
 30
0.0
 11
199.22194518
 21
-10.74108659
 31
0.0
  0
LINE
  8
ZUWAKU
  6
CONTINUOUS
 62
      32
  5
224
 10
209.7876306
 20
-0.74108659
 30
0.0
 11
199.7876306
 21
-10.74108659
 31
0.0
  0
LINE
  8
ZUWAKU
  6
CONTINUOUS
 62
      32
  5
225
 10
210.0
 20
-1.09440262
 30
0.0
 11
200.35331603
 21
-10.74108659
 31
0.0
  0
LINE
  8
ZUWAKU
  6
CONTINUOUS
 62
      32
  5
226
 10
210.0
 20
-1.66008804
 30
0.0
 11
200.91900145
 21
-10.74108659
 31
0.0
  0
LINE
  8
ZUWAKU
  6
CONTINUOUS
 62
      32
  5
227
 10
210.0
 20
-2.22577347
 30
0.0
 11
201.48468688
 21
-10.74108659
 31
0.0
  0
LINE
  8
ZUWAKU
  6
CONTINUOUS
 62
      32
  5
228
 10
210.0
 20
-2.79145889
 30
0.0
 11
202.0503723
 21
-10.74108659
 31
0.0
  0
LINE
  8
ZUWAKU
  6
CONTINUOUS
 62
      32
  5
229
 10
210.0
 20
-3.35714432
 30
0.0
 11
202.61605773
 21
-10.74108659
 31
0.0
  0
LINE
  8
ZUWAKU
  6
CONTINUOUS
 62
      32
  5
22A
 10
210.0
 20
-3.92282974
 30
0.0
 11
203.18174315
 21
-10.74108659
 31
0.0
  0
LINE
  8
ZUWAKU
  6
CONTINUOUS
 62
      32
  5
22B
 10
210.0
 20
-4.48851517
 30
0.0
 11
203.74742858
 21
-10.74108659
 31
0.0
  0
LINE
  8
ZUWAKU
  6
CONTINUOUS
 62
      32
  5
22C
 10
210.0
 20
-5.05420059
 30
0.0
 11
204.313114
 21
-10.74108659
 31
0.0
  0
LINE
  8
ZUWAKU
  6
CONTINUOUS
 62
      32
  5
22D
 10
210.0
 20
-5.61988602
 30
0.0
 11
204.87879943
 21
-10.74108659
 31
0.0
  0
LINE
  8
ZUWAKU
  6
CONTINUOUS
 62
      32
  5
22E
 10
210.0
 20
-6.18557144
 30
0.0
 11
205.44448485
 21
-10.74108659
 31
0.0
  0
LINE
  8
ZUWAKU
  6
CONTINUOUS
 62
      32
  5
22F
 10
210.0
 20
-6.75125687
 30
0.0
 11
206.01017028
 21
-10.74108659
 31
0.0
  0
LINE
  8
ZUWAKU
  6
CONTINUOUS
 62
      32
  5
230
 10
210.0
 20
-7.31694229
 30
0.0
 11
206.5758557
 21
-10.74108659
 31
0.0
  0
LINE
  8
ZUWAKU
  6
CONTINUOUS
 62
      32
  5
231
 10
210.0
 20
-7.88262772
 30
0.0
 11
207.14154113
 21
-10.74108659
 31
0.0
  0
LINE
  8
ZUWAKU
  6
CONTINUOUS
 62
      32
  5
232
 10
210.0
 20
-8.44831314
 30
0.0
 11
207.70722655
 21
-10.74108659
 31
0.0
  0
LINE
  8
ZUWAKU
  6
CONTINUOUS
 62
      32
  5
233
 10
210.0
 20
-9.01399857
 30
0.0
 11
208.27291198
 21
-10.74108659
 31
0.0
  0
LINE
  8
ZUWAKU
  6
CONTINUOUS
 62
      32
  5
234
 10
210.0
 20
-9.57968399
 30
0.0
 11
208.8385974
 21
-10.74108659
 31
0.0
  0
LINE
  8
ZUWAKU
  6
CONTINUOUS
 62
      32
  5
235
 10
210.0
 20
-10.14536942
 30
0.0
 11
209.40428283
 21
-10.74108659
 31
0.0
  0
LINE
  8
ZUWAKU
  6
CONTINUOUS
 62
      32
  5
236
 10
210.0
 20
-10.71105484
 30
0.0
 11
209.96996825
 21
-10.74108659
 31
0.0
  0
LINE
  8
ZUWAKU
  6
CONTINUOUS
 62
      32
  5
237
 10
-161.5
 20
278.38391341
 30
0.0
 11
-163.19508696
 21
281.38291341
 31
0.0
  0
LINE
  8
ZUWAKU
  6
CONTINUOUS
 62
      32
  5
238
 10
-169.95111165
 20
284.00891341
 30
0.0
 11
-169.74277832
 21
284.63391341
 31
0.0
  0
LINE
  8
ZUWAKU
  6
CONTINUOUS
 62
      32
  5
239
 10
-154.02059538
 20
279.12361572
 30
0.0
 11
-154.248
 21
279.00991341
 31
0.0
  0
LINE
  8
ZUWAKU
  6
CONTINUOUS
 62
      32
  5
23A
 10
-153.875
 20
278.38391341
 30
0.0
 11
-152.825
 21
279.43391341
 31
0.0
  0
LINE
  8
ZUWAKU
  6
CONTINUOUS
 62
      32
  5
23B
 10
-153.0
 20
278.38391341
 30
0.0
 11
-152.825
 21
279.43391341
 31
0.0
  0
LINE
  8
ZUWAKU
  6
CONTINUOUS
 62
      32
  5
23C
 10
-148.375
 20
279.25891341
 30
0.0
 11
-148.375
 21
279.00991341
 31
0.0
  0
LINE
  8
ZUWAKU
  6
CONTINUOUS
 62
      32
  5
23D
 10
-142.84495891
 20
278.38391341
 30
0.0
 11
-145.125
 21
278.38391341
 31
0.0
  0
LINE
  8
ZUWAKU
  6
CONTINUOUS
 62
      32
  5
23E
 10
-146.35693505
 20
279.27472025
 30
0.0
 11
-147.375
 21
278.38391341
 31
0.0
  0
LINE
  8
ZUWAKU
  6
CONTINUOUS
 62
      32
  5
23F
 10
-139.13350399
 20
278.38391341
 30
0.0
 11
-141.75
 21
278.38391341
 31
0.0
  0
LINE
  8
ZUWAKU
  6
CONTINUOUS
 62
      32
  5
240
 10
-165.20275
 20
279.00991341
 30
0.0
 11
-163.328125
 21
284.00891341
 31
0.0
  0
LINE
  8
ZUWAKU
  6
CONTINUOUS
 62
      32
  5
241
 10
-163.40955671
 20
282.00891341
 30
0.0
 11
-160.48364431
 21
282.00891341
 31
0.0
  0
LINE
  8
ZUWAKU
  6
CONTINUOUS
 62
      32
  5
242
 10
-144.57954545
 20
279.88391341
 30
0.0
 11
-145.0
 21
279.88391341
 31
0.0
  0
LINE
  8
ZUWAKU
  6
CONTINUOUS
 62
      32
  5
243
 10
-145.0
 20
279.88391341
 30
0.0
 11
-145.41322822
 21
279.88391341
 31
0.0
  0
LINE
  8
ZUWAKU
  6
CONTINUOUS
 62
      32
  5
244
 10
-149.0694896
 20
278.38391341
 30
0.0
 11
-147.375
 21
278.38391341
 31
0.0
  0
CIRCLE
  8
ZUWAKU
  6
CONTINUOUS
 62
      32
  5
245
 10
-151.81615048
 20
281.88391341
 30
0.0
 40
0.37865048
  0
LINE
  8
ZUWAKU
  6
CONTINUOUS
 62
      32
  5
246
 10
-164.734375
 20
284.00891341
 30
0.0
 11
-163.328125
 21
284.00891341
 31
0.0
  0
LINE
  8
ZUWAKU
  6
CONTINUOUS
 62
      32
  5
247
 10
-162.65955671
 20
284.00891341
 30
0.0
 11
-160.48364431
 21
284.00891341
 31
0.0
  0
LINE
  8
ZUWAKU
  6
CONTINUOUS
 62
      32
  5
248
 10
-166.875
 20
278.38391341
 30
0.0
 11
-166.64025
 21
279.00991341
 31
0.0
  0
LINE
  8
ZUWAKU
  6
CONTINUOUS
 62
      32
  5
249
 10
-164.734375
 20
284.00891341
 30
0.0
 11
-164.5
 21
284.63391341
 31
0.0
  0
LINE
  8
ZUWAKU
  6
CONTINUOUS
 62
      32
  5
24A
 10
-165.04717694
 20
284.00891341
 30
0.0
 11
-164.81280194
 21
284.63391341
 31
0.0
  0
LINE
  8
ZUWAKU
  6
CONTINUOUS
 62
      32
  5
24B
 10
-160.48364431
 20
284.63391341
 30
0.0
 11
-164.5
 21
284.63391341
 31
0.0
  0
LINE
  8
ZUWAKU
  6
CONTINUOUS
 62
      32
  5
24C
 10
-164.81280194
 20
284.63391341
 30
0.0
 11
-165.4066207
 21
284.63391341
 31
0.0
  0
LINE
  8
ZUWAKU
  6
CONTINUOUS
 62
      32
  5
24D
 10
-165.6409957
 20
284.00891341
 30
0.0
 11
-165.04717694
 21
284.00891341
 31
0.0
  0
LINE
  8
ZUWAKU
  6
CONTINUOUS
 62
      32
  5
24E
 10
-165.86870059
 20
284.00891341
 30
0.0
 11
-165.63432559
 21
284.63391341
 31
0.0
  0
LINE
  8
ZUWAKU
  6
CONTINUOUS
 62
      32
  5
24F
 10
-165.63432559
 20
284.63391341
 30
0.0
 11
-166.1320847
 21
284.63391341
 31
0.0
  0
LINE
  8
ZUWAKU
  6
CONTINUOUS
 62
      32
  5
250
 10
-166.3664597
 20
284.00891341
 30
0.0
 11
-165.86870059
 21
284.00891341
 31
0.0
  0
LINE
  8
ZUWAKU
  6
CONTINUOUS
 62
      32
  5
251
 10
-166.3664597
 20
284.00891341
 30
0.0
 11
-166.1320847
 21
284.63391341
 31
0.0
  0
LINE
  8
ZUWAKU
  6
CONTINUOUS
 62
      32
  5
252
 10
-166.55705836
 20
284.63391341
 30
0.0
 11
-167.0448246
 21
284.63391341
 31
0.0
  0
LINE
  8
ZUWAKU
  6
CONTINUOUS
 62
      32
  5
253
 10
-167.2791996
 20
284.00891341
 30
0.0
 11
-166.79143336
 21
284.00891341
 31
0.0
  0
LINE
  8
ZUWAKU
  6
CONTINUOUS
 62
      32
  5
254
 10
-167.2791996
 20
284.00891341
 30
0.0
 11
-167.0448246
 21
284.63391341
 31
0.0
  0
LINE
  8
ZUWAKU
  6
CONTINUOUS
 62
      32
  5
255
 10
-165.6409957
 20
284.00891341
 30
0.0
 11
-165.4066207
 21
284.63391341
 31
0.0
  0
LINE
  8
ZUWAKU
  6
CONTINUOUS
 62
      32
  5
256
 10
-166.79143336
 20
284.00891341
 30
0.0
 11
-166.55705836
 21
284.63391341
 31
0.0
  0
LINE
  8
ZUWAKU
  6
CONTINUOUS
 62
      32
  5
257
 10
-167.64452903
 20
284.00891341
 30
0.0
 11
-167.41015403
 21
284.63391341
 31
0.0
  0
LINE
  8
ZUWAKU
  6
CONTINUOUS
 62
      32
  5
258
 10
-167.41015403
 20
284.63391341
 30
0.0
 11
-167.8611413
 21
284.63391341
 31
0.0
  0
LINE
  8
ZUWAKU
  6
CONTINUOUS
 62
      32
  5
259
 10
-168.0955163
 20
284.00891341
 30
0.0
 11
-167.64452903
 21
284.00891341
 31
0.0
  0
LINE
  8
ZUWAKU
  6
CONTINUOUS
 62
      32
  5
25A
 10
-168.0955163
 20
284.00891341
 30
0.0
 11
-167.8611413
 21
284.63391341
 31
0.0
  0
LINE
  8
ZUWAKU
  6
CONTINUOUS
 62
      32
  5
25B
 10
-168.47728507
 20
284.00891341
 30
0.0
 11
-168.24291007
 21
284.63391341
 31
0.0
  0
LINE
  8
ZUWAKU
  6
CONTINUOUS
 62
      32
  5
25C
 10
-168.24291007
 20
284.63391341
 30
0.0
 11
-168.64395174
 21
284.63391341
 31
0.0
  0
LINE
  8
ZUWAKU
  6
CONTINUOUS
 62
      32
  5
25D
 10
-168.85228507
 20
284.00891341
 30
0.0
 11
-168.47728507
 21
284.00891341
 31
0.0
  0
LINE
  8
ZUWAKU
  6
CONTINUOUS
 62
      32
  5
25E
 10
-168.85228507
 20
284.00891341
 30
0.0
 11
-168.64395174
 21
284.63391341
 31
0.0
  0
LINE
  8
ZUWAKU
  6
CONTINUOUS
 62
      32
  5
25F
 10
-169.2516301
 20
284.00891341
 30
0.0
 11
-169.04329677
 21
284.63391341
 31
0.0
  0
LINE
  8
ZUWAKU
  6
CONTINUOUS
 62
      32
  5
260
 10
-169.57611165
 20
284.00891341
 30
0.0
 11
-169.36777832
 21
284.63391341
 31
0.0
  0
LINE
  8
ZUWAKU
  6
CONTINUOUS
 62
      32
  5
261
 10
-170.18027832
 20
284.00891341
 30
0.0
 11
-169.97194498
 21
284.63391341
 31
0.0
  0
LINE
  8
ZUWAKU
  6
CONTINUOUS
 62
      32
  5
262
 10
-170.57611165
 20
284.00891341
 30
0.0
 11
-170.36777832
 21
284.63391341
 31
0.0
  0
LINE
  8
ZUWAKU
  6
CONTINUOUS
 62
      32
  5
263
 10
-170.68027832
 20
284.00891341
 30
0.0
 11
-170.47194498
 21
284.63391341
 31
0.0
  0
LINE
  8
ZUWAKU
  6
CONTINUOUS
 62
      32
  5
264
 10
-169.04329677
 20
284.63391341
 30
0.0
 11
-169.36777832
 21
284.63391341
 31
0.0
  0
LINE
  8
ZUWAKU
  6
CONTINUOUS
 62
      32
  5
265
 10
-169.57611165
 20
284.00891341
 30
0.0
 11
-169.2516301
 21
284.00891341
 31
0.0
  0
LINE
  8
ZUWAKU
  6
CONTINUOUS
 62
      32
  5
266
 10
-169.74277832
 20
284.63391341
 30
0.0
 11
-169.97194498
 21
284.63391341
 31
0.0
  0
LINE
  8
ZUWAKU
  6
CONTINUOUS
 62
      32
  5
267
 10
-170.36777832
 20
284.63391341
 30
0.0
 11
-170.47194498
 21
284.63391341
 31
0.0
  0
LINE
  8
ZUWAKU
  6
CONTINUOUS
 62
      32
  5
268
 10
-170.18027832
 20
284.00891341
 30
0.0
 11
-169.95111165
 21
284.00891341
 31
0.0
  0
LINE
  8
ZUWAKU
  6
CONTINUOUS
 62
      32
  5
269
 10
-170.57611165
 20
284.00891341
 30
0.0
 11
-170.68027832
 21
284.00891341
 31
0.0
  0
ARC
  8
ZUWAKU
  6
CONTINUOUS
 62
      32
  5
26A
 10
-160.48364431
 20
283.00891341
 30
0.0
 40
1.0
 50
270.0
 51
450.0
  0
LINE
  8
ZUWAKU
  6
CONTINUOUS
 62
      32
  5
26B
 10
-166.64025
 20
279.00991341
 30
0.0
 11
-165.20275
 21
279.00991341
 31
0.0
  0
LINE
  8
ZUWAKU
  6
CONTINUOUS
 62
      32
  5
26C
 10
-166.875
 20
278.38391341
 30
0.0
 11
-164.76893171
 21
278.38391341
 31
0.0
  0
LINE
  8
ZUWAKU
  6
CONTINUOUS
 62
      32
  5
26D
 10
-164.76893171
 20
278.38391341
 30
0.0
 11
-163.64430671
 21
281.38291341
 31
0.0
  0
LINE
  8
ZUWAKU
  6
CONTINUOUS
 62
      32
  5
26E
 10
-163.40955671
 20
282.00891341
 30
0.0
 11
-162.65955671
 21
284.00891341
 31
0.0
  0
LINE
  8
ZUWAKU
  6
CONTINUOUS
 62
      32
  5
26F
 10
-163.64430671
 20
281.38291341
 30
0.0
 11
-163.19508696
 21
281.38291341
 31
0.0
  0
LINE
  8
ZUWAKU
  6
CONTINUOUS
 62
      32
  5
270
 10
-162.47601193
 20
281.38291341
 30
0.0
 11
-160.48364431
 21
281.38291341
 31
0.0
  0
LINE
  8
ZUWAKU
  6
CONTINUOUS
 62
      32
  5
271
 10
-161.13475106
 20
279.00991341
 30
0.0
 11
-162.47601193
 21
281.38291341
 31
0.0
  0
ARC
  8
ZUWAKU
  6
CONTINUOUS
 62
      32
  5
272
 10
-160.48364431
 20
283.00891341
 30
0.0
 40
1.625
 50
270.0
 51
450.0
  0
POLYLINE
  8
ZUWAKU
  6
CONTINUOUS
 62
      32
  5
273
 66
       1
 10
0.0
 20
0.0
 30
0.0
 70
     129
  0
VERTEX
  8
ZUWAKU
  6
CONTINUOUS
 62
      32
  5
565
 10
-158.57786846
 20
279.49119814
 30
0.0
  0
VERTEX
  8
ZUWAKU
  6
CONTINUOUS
 62
      32
  5
566
 10
-158.56821786
 20
279.48627771
 30
0.0
  0
VERTEX
  8
ZUWAKU
  6
CONTINUOUS
 62
      32
  5
567
 10
-158.55829536
 20
279.48189543
 30
0.0
  0
VERTEX
  8
ZUWAKU
  6
CONTINUOUS
 62
      32
  5
568
 10
-158.54811837
 20
279.47805899
 30
0.0
  0
VERTEX
  8
ZUWAKU
  6
CONTINUOUS
 62
      32
  5
569
 10
-158.53770474
 20
279.47477513
 30
0.0
  0
VERTEX
  8
ZUWAKU
  6
CONTINUOUS
 62
      32
  5
56A
 10
-158.52707274
 20
279.4720496
 30
0.0
  0
VERTEX
  8
ZUWAKU
  6
CONTINUOUS
 62
      32
  5
56B
 10
-158.51624103
 20
279.46988718
 30
0.0
  0
VERTEX
  8
ZUWAKU
  6
CONTINUOUS
 62
      32
  5
56C
 10
-158.5052286
 20
279.46829167
 30
0.0
  0
VERTEX
  8
ZUWAKU
  6
CONTINUOUS
 62
      32
  5
56D
 10
-158.49405478
 20
279.46726587
 30
0.0
  0
VERTEX
  8
ZUWAKU
  6
CONTINUOUS
 62
      32
  5
56E
 10
-158.48273916
 20
279.46681158
 30
0.0
  0
VERTEX
  8
ZUWAKU
  6
CONTINUOUS
 62
      32
  5
56F
 10
-158.47130161
 20
279.46692959
 30
0.0
  0
VERTEX
  8
ZUWAKU
  6
CONTINUOUS
 62
      32
  5
570
 10
-158.45976218
 20
279.46761969
 30
0.0
  0
VERTEX
  8
ZUWAKU
  6
CONTINUOUS
 62
      32
  5
571
 10
-158.44814111
 20
279.46888068
 30
0.0
  0
VERTEX
  8
ZUWAKU
  6
CONTINUOUS
 62
      32
  5
572
 10
-158.43645881
 20
279.47071035
 30
0.0
  0
VERTEX
  8
ZUWAKU
  6
CONTINUOUS
 62
      32
  5
573
 10
-158.42473575
 20
279.47310548
 30
0.0
  0
VERTEX
  8
ZUWAKU
  6
CONTINUOUS
 62
      32
  5
574
 10
-158.41299251
 20
279.47606187
 30
0.0
  0
VERTEX
  8
ZUWAKU
  6
CONTINUOUS
 62
      32
  5
575
 10
-158.40124969
 20
279.47957433
 30
0.0
  0
VERTEX
  8
ZUWAKU
  6
CONTINUOUS
 62
      32
  5
576
 10
-158.38952789
 20
279.48363671
 30
0.0
  0
VERTEX
  8
ZUWAKU
  6
CONTINUOUS
 62
      32
  5
577
 10
-158.37784767
 20
279.48824188
 30
0.0
  0
VERTEX
  8
ZUWAKU
  6
CONTINUOUS
 62
      32
  5
578
 10
-158.36622953
 20
279.49338175
 30
0.0
  0
VERTEX
  8
ZUWAKU
  6
CONTINUOUS
 62
      32
  5
579
 10
-158.35469385
 20
279.49904732
 30
0.0
  0
VERTEX
  8
ZUWAKU
  6
CONTINUOUS
 62
      32
  5
57A
 10
-158.34326085
 20
279.50522864
 30
0.0
  0
VERTEX
  8
ZUWAKU
  6
CONTINUOUS
 62
      32
  5
57B
 10
-158.33195061
 20
279.51191486
 30
0.0
  0
VERTEX
  8
ZUWAKU
  6
CONTINUOUS
 62
      32
  5
57C
 10
-158.32078297
 20
279.51909426
 30
0.0
  0
VERTEX
  8
ZUWAKU
  6
CONTINUOUS
 62
      32
  5
57D
 10
-158.30977751
 20
279.52675424
 30
0.0
  0
VERTEX
  8
ZUWAKU
  6
CONTINUOUS
 62
      32
  5
57E
 10
-158.29895354
 20
279.53488137
 30
0.0
  0
VERTEX
  8
ZUWAKU
  6
CONTINUOUS
 62
      32
  5
57F
 10
-158.28833005
 20
279.54346138
 30
0.0
  0
VERTEX
  8
ZUWAKU
  6
CONTINUOUS
 62
      32
  5
580
 10
-158.27792569
 20
279.55247922
 30
0.0
  0
VERTEX
  8
ZUWAKU
  6
CONTINUOUS
 62
      32
  5
581
 10
-158.26775869
 20
279.56191908
 30
0.0
  0
VERTEX
  8
ZUWAKU
  6
CONTINUOUS
 62
      32
  5
582
 10
-158.2578469
 20
279.5717644
 30
0.0
  0
VERTEX
  8
ZUWAKU
  6
CONTINUOUS
 62
      32
  5
583
 10
-158.24820771
 20
279.58199789
 30
0.0
  0
VERTEX
  8
ZUWAKU
  6
CONTINUOUS
 62
      32
  5
584
 10
-158.23885803
 20
279.59260161
 30
0.0
  0
VERTEX
  8
ZUWAKU
  6
CONTINUOUS
 62
      32
  5
585
 10
-158.22981426
 20
279.60355695
 30
0.0
  0
VERTEX
  8
ZUWAKU
  6
CONTINUOUS
 62
      32
  5
586
 10
-158.22109226
 20
279.61484471
 30
0.0
  0
VERTEX
  8
ZUWAKU
  6
CONTINUOUS
 62
      32
  5
587
 10
-158.21270734
 20
279.62644506
 30
0.0
  0
VERTEX
  8
ZUWAKU
  6
CONTINUOUS
 62
      32
  5
588
 10
-158.2046742
 20
279.63833767
 30
0.0
  0
VERTEX
  8
ZUWAKU
  6
CONTINUOUS
 62
      32
  5
589
 10
-158.19700695
 20
279.65050166
 30
0.0
  0
VERTEX
  8
ZUWAKU
  6
CONTINUOUS
 62
      32
  5
58A
 10
-158.18971902
 20
279.66291571
 30
0.0
  0
VERTEX
  8
ZUWAKU
  6
CONTINUOUS
 62
      32
  5
58B
 10
-158.18282321
 20
279.67555802
 30
0.0
  0
VERTEX
  8
ZUWAKU
  6
CONTINUOUS
 62
      32
  5
58C
 10
-158.17633162
 20
279.68840643
 30
0.0
  0
VERTEX
  8
ZUWAKU
  6
CONTINUOUS
 62
      32
  5
58D
 10
-158.17025563
 20
279.70143839
 30
0.0
  0
VERTEX
  8
ZUWAKU
  6
CONTINUOUS
 62
      32
  5
58E
 10
-158.1646059
 20
279.71463103
 30
0.0
  0
VERTEX
  8
ZUWAKU
  6
CONTINUOUS
 62
      32
  5
58F
 10
-158.15939234
 20
279.72796122
 30
0.0
  0
VERTEX
  8
ZUWAKU
  6
CONTINUOUS
 62
      32
  5
590
 10
-158.1546241
 20
279.74140557
 30
0.0
  0
VERTEX
  8
ZUWAKU
  6
CONTINUOUS
 62
      32
  5
591
 10
-158.15030955
 20
279.75494049
 30
0.0
  0
VERTEX
  8
ZUWAKU
  6
CONTINUOUS
 62
      32
  5
592
 10
-158.14645625
 20
279.76854224
 30
0.0
  0
VERTEX
  8
ZUWAKU
  6
CONTINUOUS
 62
      32
  5
593
 10
-158.14307096
 20
279.78218695
 30
0.0
  0
VERTEX
  8
ZUWAKU
  6
CONTINUOUS
 62
      32
  5
594
 10
-158.14015963
 20
279.79585069
 30
0.0
  0
VERTEX
  8
ZUWAKU
  6
CONTINUOUS
 62
      32
  5
595
 10
-158.13772736
 20
279.80950949
 30
0.0
  0
VERTEX
  8
ZUWAKU
  6
CONTINUOUS
 62
      32
  5
596
 10
-158.13577841
 20
279.82313939
 30
0.0
  0
VERTEX
  8
ZUWAKU
  6
CONTINUOUS
 62
      32
  5
597
 10
-158.13431621
 20
279.83671646
 30
0.0
  0
VERTEX
  8
ZUWAKU
  6
CONTINUOUS
 62
      32
  5
598
 10
-158.13334333
 20
279.85021691
 30
0.0
  0
VERTEX
  8
ZUWAKU
  6
CONTINUOUS
 62
      32
  5
599
 10
-158.13286146
 20
279.86361703
 30
0.0
  0
VERTEX
  8
ZUWAKU
  6
CONTINUOUS
 62
      32
  5
59A
 10
-158.13287145
 20
279.87689332
 30
0.0
  0
VERTEX
  8
ZUWAKU
  6
CONTINUOUS
 62
      32
  5
59B
 10
-158.13337329
 20
279.8900225
 30
0.0
  0
VERTEX
  8
ZUWAKU
  6
CONTINUOUS
 62
      32
  5
59C
 10
-158.1343661
 20
279.90298152
 30
0.0
  0
VERTEX
  8
ZUWAKU
  6
CONTINUOUS
 62
      32
  5
59D
 10
-158.13584813
 20
279.91574766
 30
0.0
  0
VERTEX
  8
ZUWAKU
  6
CONTINUOUS
 62
      32
  5
59E
 10
-158.13781678
 20
279.92829852
 30
0.0
  0
VERTEX
  8
ZUWAKU
  6
CONTINUOUS
 62
      32
  5
59F
 10
-158.14026861
 20
279.94061207
 30
0.0
  0
VERTEX
  8
ZUWAKU
  6
CONTINUOUS
 62
      32
  5
5A0
 10
-158.1431993
 20
279.95266672
 30
0.0
  0
VERTEX
  8
ZUWAKU
  6
CONTINUOUS
 62
      32
  5
5A1
 10
-158.14660372
 20
279.96444132
 30
0.0
  0
VERTEX
  8
ZUWAKU
  6
CONTINUOUS
 62
      32
  5
5A2
 10
-158.1504759
 20
279.97591521
 30
0.0
  0
VERTEX
  8
ZUWAKU
  6
CONTINUOUS
 62
      32
  5
5A3
 10
-158.15480904
 20
279.98706826
 30
0.0
  0
VERTEX
  8
ZUWAKU
  6
CONTINUOUS
 62
      32
  5
5A4
 10
-158.15959554
 20
279.99788091
 30
0.0
  0
VERTEX
  8
ZUWAKU
  6
CONTINUOUS
 62
      32
  5
5A5
 10
-158.164827
 20
280.00833419
 30
0.0
  0
VERTEX
  8
ZUWAKU
  6
CONTINUOUS
 62
      32
  5
5A6
 10
-158.17049424
 20
280.01840975
 30
0.0
  0
VERTEX
  8
ZUWAKU
  6
CONTINUOUS
 62
      32
  5
5A7
 10
-158.17658733
 20
280.02808993
 30
0.0
  0
VERTEX
  8
ZUWAKU
  6
CONTINUOUS
 62
      32
  5
5A8
 10
-158.18309558
 20
280.03735774
 30
0.0
  0
VERTEX
  8
ZUWAKU
  6
CONTINUOUS
 62
      32
  5
5A9
 10
-158.19000756
 20
280.04619692
 30
0.0
  0
VERTEX
  8
ZUWAKU
  6
CONTINUOUS
 62
      32
  5
5AA
 10
-158.19731115
 20
280.05459197
 30
0.0
  0
VERTEX
  8
ZUWAKU
  6
CONTINUOUS
 62
      32
  5
5AB
 10
-158.20499353
 20
280.06252815
 30
0.0
  0
VERTEX
  8
ZUWAKU
  6
CONTINUOUS
 62
      32
  5
5AC
 10
-158.21304124
 20
280.06999155
 30
0.0
  0
VERTEX
  8
ZUWAKU
  6
CONTINUOUS
 62
      32
  5
5AD
 10
-158.22144015
 20
280.07696907
 30
0.0
  0
VERTEX
  8
ZUWAKU
  6
CONTINUOUS
 62
      32
  5
5AE
 10
-158.23017552
 20
280.08344847
 30
0.0
  0
VERTEX
  8
ZUWAKU
  6
CONTINUOUS
 62
      32
  5
5AF
 10
-158.23923203
 20
280.08941838
 30
0.0
  0
VERTEX
  8
ZUWAKU
  6
CONTINUOUS
 62
      32
  5
5B0
 10
-158.2485938
 20
280.09486833
 30
0.0
  0
VERTEX
  8
ZUWAKU
  6
CONTINUOUS
 62
      32
  5
5B1
 10
-158.2582444
 20
280.09978876
 30
0.0
  0
VERTEX
  8
ZUWAKU
  6
CONTINUOUS
 62
      32
  5
5B2
 10
-158.2681669
 20
280.10417104
 30
0.0
  0
VERTEX
  8
ZUWAKU
  6
CONTINUOUS
 62
      32
  5
5B3
 10
-158.27834389
 20
280.10800748
 30
0.0
  0
VERTEX
  8
ZUWAKU
  6
CONTINUOUS
 62
      32
  5
5B4
 10
-158.28875752
 20
280.11129134
 30
0.0
  0
VERTEX
  8
ZUWAKU
  6
CONTINUOUS
 62
      32
  5
5B5
 10
-158.29938951
 20
280.11401687
 30
0.0
  0
VERTEX
  8
ZUWAKU
  6
CONTINUOUS
 62
      32
  5
5B6
 10
-158.31022123
 20
280.11617929
 30
0.0
  0
VERTEX
  8
ZUWAKU
  6
CONTINUOUS
 62
      32
  5
5B7
 10
-158.32123366
 20
280.1177748
 30
0.0
  0
VERTEX
  8
ZUWAKU
  6
CONTINUOUS
 62
      32
  5
5B8
 10
-158.33240748
 20
280.1188006
 30
0.0
  0
VERTEX
  8
ZUWAKU
  6
CONTINUOUS
 62
      32
  5
5B9
 10
-158.3437231
 20
280.11925489
 30
0.0
  0
VERTEX
  8
ZUWAKU
  6
CONTINUOUS
 62
      32
  5
5BA
 10
-158.35516065
 20
280.11913688
 30
0.0
  0
VERTEX
  8
ZUWAKU
  6
CONTINUOUS
 62
      32
  5
5BB
 10
-158.36670008
 20
280.11844678
 30
0.0
  0
VERTEX
  8
ZUWAKU
  6
CONTINUOUS
 62
      32
  5
5BC
 10
-158.37832115
 20
280.11718579
 30
0.0
  0
VERTEX
  8
ZUWAKU
  6
CONTINUOUS
 62
      32
  5
5BD
 10
-158.39000345
 20
280.11535612
 30
0.0
  0
VERTEX
  8
ZUWAKU
  6
CONTINUOUS
 62
      32
  5
5BE
 10
-158.40172651
 20
280.11296099
 30
0.0
  0
VERTEX
  8
ZUWAKU
  6
CONTINUOUS
 62
      32
  5
5BF
 10
-158.41346975
 20
280.1100046
 30
0.0
  0
VERTEX
  8
ZUWAKU
  6
CONTINUOUS
 62
      32
  5
5C0
 10
-158.42521257
 20
280.10649214
 30
0.0
  0
VERTEX
  8
ZUWAKU
  6
CONTINUOUS
 62
      32
  5
5C1
 10
-158.43693437
 20
280.10242976
 30
0.0
  0
VERTEX
  8
ZUWAKU
  6
CONTINUOUS
 62
      32
  5
5C2
 10
-158.44861458
 20
280.09782459
 30
0.0
  0
VERTEX
  8
ZUWAKU
  6
CONTINUOUS
 62
      32
  5
5C3
 10
-158.46023273
 20
280.09268472
 30
0.0
  0
VERTEX
  8
ZUWAKU
  6
CONTINUOUS
 62
      32
  5
5C4
 10
-158.47176841
 20
280.08701915
 30
0.0
  0
VERTEX
  8
ZUWAKU
  6
CONTINUOUS
 62
      32
  5
5C5
 10
-158.4832014
 20
280.08083783
 30
0.0
  0
VERTEX
  8
ZUWAKU
  6
CONTINUOUS
 62
      32
  5
5C6
 10
-158.49451164
 20
280.07415161
 30
0.0
  0
VERTEX
  8
ZUWAKU
  6
CONTINUOUS
 62
      32
  5
5C7
 10
-158.50567929
 20
280.06697221
 30
0.0
  0
VERTEX
  8
ZUWAKU
  6
CONTINUOUS
 62
      32
  5
5C8
 10
-158.51668475
 20
280.05931223
 30
0.0
  0
VERTEX
  8
ZUWAKU
  6
CONTINUOUS
 62
      32
  5
5C9
 10
-158.52750872
 20
280.0511851
 30
0.0
  0
VERTEX
  8
ZUWAKU
  6
CONTINUOUS
 62
      32
  5
5CA
 10
-158.53813221
 20
280.04260509
 30
0.0
  0
VERTEX
  8
ZUWAKU
  6
CONTINUOUS
 62
      32
  5
5CB
 10
-158.54853657
 20
280.03358725
 30
0.0
  0
VERTEX
  8
ZUWAKU
  6
CONTINUOUS
 62
      32
  5
5CC
 10
-158.55870357
 20
280.02414739
 30
0.0
  0
VERTEX
  8
ZUWAKU
  6
CONTINUOUS
 62
      32
  5
5CD
 10
-158.56861536
 20
280.01430207
 30
0.0
  0
VERTEX
  8
ZUWAKU
  6
CONTINUOUS
 62
      32
  5
5CE
 10
-158.57825455
 20
280.00406858
 30
0.0
  0
VERTEX
  8
ZUWAKU
  6
CONTINUOUS
 62
      32
  5
5CF
 10
-158.58760423
 20
279.99346486
 30
0.0
  0
VERTEX
  8
ZUWAKU
  6
CONTINUOUS
 62
      32
  5
5D0
 10
-158.596648
 20
279.98250952
 30
0.0
  0
VERTEX
  8
ZUWAKU
  6
CONTINUOUS
 62
      32
  5
5D1
 10
-158.60537
 20
279.97122176
 30
0.0
  0
VERTEX
  8
ZUWAKU
  6
CONTINUOUS
 62
      32
  5
5D2
 10
-158.61375492
 20
279.95962141
 30
0.0
  0
VERTEX
  8
ZUWAKU
  6
CONTINUOUS
 62
      32
  5
5D3
 10
-158.62178806
 20
279.9477288
 30
0.0
  0
VERTEX
  8
ZUWAKU
  6
CONTINUOUS
 62
      32
  5
5D4
 10
-158.62945531
 20
279.93556481
 30
0.0
  0
VERTEX
  8
ZUWAKU
  6
CONTINUOUS
 62
      32
  5
5D5
 10
-158.63674324
 20
279.92315076
 30
0.0
  0
VERTEX
  8
ZUWAKU
  6
CONTINUOUS
 62
      32
  5
5D6
 10
-158.64363905
 20
279.91050845
 30
0.0
  0
VERTEX
  8
ZUWAKU
  6
CONTINUOUS
 62
      32
  5
5D7
 10
-158.65013064
 20
279.89766004
 30
0.0
  0
VERTEX
  8
ZUWAKU
  6
CONTINUOUS
 62
      32
  5
5D8
 10
-158.65620663
 20
279.88462808
 30
0.0
  0
VERTEX
  8
ZUWAKU
  6
CONTINUOUS
 62
      32
  5
5D9
 10
-158.66185636
 20
279.87143544
 30
0.0
  0
VERTEX
  8
ZUWAKU
  6
CONTINUOUS
 62
      32
  5
5DA
 10
-158.66706992
 20
279.85810525
 30
0.0
  0
VERTEX
  8
ZUWAKU
  6
CONTINUOUS
 62
      32
  5
5DB
 10
-158.67183816
 20
279.8446609
 30
0.0
  0
VERTEX
  8
ZUWAKU
  6
CONTINUOUS
 62
      32
  5
5DC
 10
-158.67615271
 20
279.83112598
 30
0.0
  0
VERTEX
  8
ZUWAKU
  6
CONTINUOUS
 62
      32
  5
5DD
 10
-158.68000601
 20
279.81752423
 30
0.0
  0
VERTEX
  8
ZUWAKU
  6
CONTINUOUS
 62
      32
  5
5DE
 10
-158.6833913
 20
279.80387952
 30
0.0
  0
VERTEX
  8
ZUWAKU
  6
CONTINUOUS
 62
      32
  5
5DF
 10
-158.68630263
 20
279.79021578
 30
0.0
  0
VERTEX
  8
ZUWAKU
  6
CONTINUOUS
 62
      32
  5
5E0
 10
-158.6887349
 20
279.77655698
 30
0.0
  0
VERTEX
  8
ZUWAKU
  6
CONTINUOUS
 62
      32
  5
5E1
 10
-158.69068385
 20
279.76292708
 30
0.0
  0
VERTEX
  8
ZUWAKU
  6
CONTINUOUS
 62
      32
  5
5E2
 10
-158.69214605
 20
279.74935001
 30
0.0
  0
VERTEX
  8
ZUWAKU
  6
CONTINUOUS
 62
      32
  5
5E3
 10
-158.69311893
 20
279.73584956
 30
0.0
  0
VERTEX
  8
ZUWAKU
  6
CONTINUOUS
 62
      32
  5
5E4
 10
-158.6936008
 20
279.72244944
 30
0.0
  0
VERTEX
  8
ZUWAKU
  6
CONTINUOUS
 62
      32
  5
5E5
 10
-158.69359081
 20
279.70917314
 30
0.0
  0
VERTEX
  8
ZUWAKU
  6
CONTINUOUS
 62
      32
  5
5E6
 10
-158.69308897
 20
279.69604397
 30
0.0
  0
VERTEX
  8
ZUWAKU
  6
CONTINUOUS
 62
      32
  5
5E7
 10
-158.69209616
 20
279.68308495
 30
0.0
  0
VERTEX
  8
ZUWAKU
  6
CONTINUOUS
 62
      32
  5
5E8
 10
-158.69061413
 20
279.67031881
 30
0.0
  0
VERTEX
  8
ZUWAKU
  6
CONTINUOUS
 62
      32
  5
5E9
 10
-158.68864548
 20
279.65776795
 30
0.0
  0
VERTEX
  8
ZUWAKU
  6
CONTINUOUS
 62
      32
  5
5EA
 10
-158.68619365
 20
279.6454544
 30
0.0
  0
VERTEX
  8
ZUWAKU
  6
CONTINUOUS
 62
      32
  5
5EB
 10
-158.68326296
 20
279.63339975
 30
0.0
  0
VERTEX
  8
ZUWAKU
  6
CONTINUOUS
 62
      32
  5
5EC
 10
-158.67985854
 20
279.62162515
 30
0.0
  0
VERTEX
  8
ZUWAKU
  6
CONTINUOUS
 62
      32
  5
5ED
 10
-158.67598636
 20
279.61015126
 30
0.0
  0
VERTEX
  8
ZUWAKU
  6
CONTINUOUS
 62
      32
  5
5EE
 10
-158.67165322
 20
279.59899821
 30
0.0
  0
VERTEX
  8
ZUWAKU
  6
CONTINUOUS
 62
      32
  5
5EF
 10
-158.66686672
 20
279.58818556
 30
0.0
  0
VERTEX
  8
ZUWAKU
  6
CONTINUOUS
 62
      32
  5
5F0
 10
-158.66163526
 20
279.57773228
 30
0.0
  0
VERTEX
  8
ZUWAKU
  6
CONTINUOUS
 62
      32
  5
5F1
 10
-158.65596801
 20
279.56765672
 30
0.0
  0
VERTEX
  8
ZUWAKU
  6
CONTINUOUS
 62
      32
  5
5F2
 10
-158.64987493
 20
279.55797654
 30
0.0
  0
VERTEX
  8
ZUWAKU
  6
CONTINUOUS
 62
      32
  5
5F3
 10
-158.64336668
 20
279.54870873
 30
0.0
  0
VERTEX
  8
ZUWAKU
  6
CONTINUOUS
 62
      32
  5
5F4
 10
-158.6364547
 20
279.53986955
 30
0.0
  0
VERTEX
  8
ZUWAKU
  6
CONTINUOUS
 62
      32
  5
5F5
 10
-158.62915111
 20
279.5314745
 30
0.0
  0
VERTEX
  8
ZUWAKU
  6
CONTINUOUS
 62
      32
  5
5F6
 10
-158.62146873
 20
279.52353832
 30
0.0
  0
VERTEX
  8
ZUWAKU
  6
CONTINUOUS
 62
      32
  5
5F7
 10
-158.61342102
 20
279.51607492
 30
0.0
  0
VERTEX
  8
ZUWAKU
  6
CONTINUOUS
 62
      32
  5
5F8
 10
-158.60502211
 20
279.5090974
 30
0.0
  0
VERTEX
  8
ZUWAKU
  6
CONTINUOUS
 62
      32
  5
5F9
 10
-158.59628674
 20
279.502618
 30
0.0
  0
VERTEX
  8
ZUWAKU
  6
CONTINUOUS
 62
      32
  5
5FA
 10
-158.58723022
 20
279.49664809
 30
0.0
  0
SEQEND
  8
ZUWAKU
  6
CONTINUOUS
 62
      32
  5
5FB
  0
LINE
  8
ZUWAKU
  6
CONTINUOUS
 62
      32
  5
274
 10
-161.5
 20
278.38391341
 30
0.0
 11
-159.25
 21
278.38391341
 31
0.0
  0
POLYLINE
  8
ZUWAKU
  6
CONTINUOUS
 62
      32
  5
275
 66
       1
 10
0.0
 20
0.0
 30
0.0
 70
     128
  0
VERTEX
  8
ZUWAKU
  6
CONTINUOUS
 62
      32
  5
5FC
 10
-157.95574573
 20
279.04770769
 30
0.0
  0
VERTEX
  8
ZUWAKU
  6
CONTINUOUS
 62
      32
  5
5FD
 10
-157.93185364
 20
279.07088451
 30
0.0
  0
VERTEX
  8
ZUWAKU
  6
CONTINUOUS
 62
      32
  5
5FE
 10
-157.90843347
 20
279.09476929
 30
0.0
  0
VERTEX
  8
ZUWAKU
  6
CONTINUOUS
 62
      32
  5
5FF
 10
-157.88550818
 20
279.11933862
 30
0.0
  0
VERTEX
  8
ZUWAKU
  6
CONTINUOUS
 62
      32
  5
600
 10
-157.86310025
 20
279.14456841
 30
0.0
  0
VERTEX
  8
ZUWAKU
  6
CONTINUOUS
 62
      32
  5
601
 10
-157.84123164
 20
279.17043392
 30
0.0
  0
VERTEX
  8
ZUWAKU
  6
CONTINUOUS
 62
      32
  5
602
 10
-157.81992379
 20
279.1969098
 30
0.0
  0
VERTEX
  8
ZUWAKU
  6
CONTINUOUS
 62
      32
  5
603
 10
-157.79919759
 20
279.22397009
 30
0.0
  0
VERTEX
  8
ZUWAKU
  6
CONTINUOUS
 62
      32
  5
604
 10
-157.77907336
 20
279.25158826
 30
0.0
  0
VERTEX
  8
ZUWAKU
  6
CONTINUOUS
 62
      32
  5
605
 10
-157.75957083
 20
279.27973724
 30
0.0
  0
VERTEX
  8
ZUWAKU
  6
CONTINUOUS
 62
      32
  5
606
 10
-157.74070911
 20
279.30838943
 30
0.0
  0
VERTEX
  8
ZUWAKU
  6
CONTINUOUS
 62
      32
  5
607
 10
-157.72250671
 20
279.33751674
 30
0.0
  0
VERTEX
  8
ZUWAKU
  6
CONTINUOUS
 62
      32
  5
608
 10
-157.70498146
 20
279.36709062
 30
0.0
  0
VERTEX
  8
ZUWAKU
  6
CONTINUOUS
 62
      32
  5
609
 10
-157.68815054
 20
279.39708207
 30
0.0
  0
VERTEX
  8
ZUWAKU
  6
CONTINUOUS
 62
      32
  5
60A
 10
-157.67203046
 20
279.4274617
 30
0.0
  0
VERTEX
  8
ZUWAKU
  6
CONTINUOUS
 62
      32
  5
60B
 10
-157.65663702
 20
279.45819972
 30
0.0
  0
VERTEX
  8
ZUWAKU
  6
CONTINUOUS
 62
      32
  5
60C
 10
-157.64198531
 20
279.48926599
 30
0.0
  0
VERTEX
  8
ZUWAKU
  6
CONTINUOUS
 62
      32
  5
60D
 10
-157.62808969
 20
279.52063005
 30
0.0
  0
VERTEX
  8
ZUWAKU
  6
CONTINUOUS
 62
      32
  5
60E
 10
-157.61496378
 20
279.55226118
 30
0.0
  0
VERTEX
  8
ZUWAKU
  6
CONTINUOUS
 62
      32
  5
60F
 10
-157.60262046
 20
279.58412834
 30
0.0
  0
VERTEX
  8
ZUWAKU
  6
CONTINUOUS
 62
      32
  5
610
 10
-157.59107183
 20
279.6162003
 30
0.0
  0
VERTEX
  8
ZUWAKU
  6
CONTINUOUS
 62
      32
  5
611
 10
-157.5803292
 20
279.64844562
 30
0.0
  0
VERTEX
  8
ZUWAKU
  6
CONTINUOUS
 62
      32
  5
612
 10
-157.57040311
 20
279.68083269
 30
0.0
  0
VERTEX
  8
ZUWAKU
  6
CONTINUOUS
 62
      32
  5
613
 10
-157.56130329
 20
279.71332975
 30
0.0
  0
VERTEX
  8
ZUWAKU
  6
CONTINUOUS
 62
      32
  5
614
 10
-157.55303866
 20
279.74590496
 30
0.0
  0
VERTEX
  8
ZUWAKU
  6
CONTINUOUS
 62
      32
  5
615
 10
-157.54561732
 20
279.77852636
 30
0.0
  0
VERTEX
  8
ZUWAKU
  6
CONTINUOUS
 62
      32
  5
616
 10
-157.53904654
 20
279.81116199
 30
0.0
  0
VERTEX
  8
ZUWAKU
  6
CONTINUOUS
 62
      32
  5
617
 10
-157.53333278
 20
279.84377984
 30
0.0
  0
VERTEX
  8
ZUWAKU
  6
CONTINUOUS
 62
      32
  5
618
 10
-157.52848163
 20
279.87634795
 30
0.0
  0
VERTEX
  8
ZUWAKU
  6
CONTINUOUS
 62
      32
  5
619
 10
-157.52449785
 20
279.90883437
 30
0.0
  0
VERTEX
  8
ZUWAKU
  6
CONTINUOUS
 62
      32
  5
61A
 10
-157.52138534
 20
279.94120727
 30
0.0
  0
VERTEX
  8
ZUWAKU
  6
CONTINUOUS
 62
      32
  5
61B
 10
-157.51914715
 20
279.97343491
 30
0.0
  0
VERTEX
  8
ZUWAKU
  6
CONTINUOUS
 62
      32
  5
61C
 10
-157.51778548
 20
280.00548569
 30
0.0
  0
VERTEX
  8
ZUWAKU
  6
CONTINUOUS
 62
      32
  5
61D
 10
-157.51730166
 20
280.03732819
 30
0.0
  0
VERTEX
  8
ZUWAKU
  6
CONTINUOUS
 62
      32
  5
61E
 10
-157.51769617
 20
280.0689312
 30
0.0
  0
VERTEX
  8
ZUWAKU
  6
CONTINUOUS
 62
      32
  5
61F
 10
-157.51896862
 20
280.10026373
 30
0.0
  0
VERTEX
  8
ZUWAKU
  6
CONTINUOUS
 62
      32
  5
620
 10
-157.52111776
 20
280.13129506
 30
0.0
  0
VERTEX
  8
ZUWAKU
  6
CONTINUOUS
 62
      32
  5
621
 10
-157.52414149
 20
280.16199478
 30
0.0
  0
VERTEX
  8
ZUWAKU
  6
CONTINUOUS
 62
      32
  5
622
 10
-157.52803685
 20
280.19233279
 30
0.0
  0
VERTEX
  8
ZUWAKU
  6
CONTINUOUS
 62
      32
  5
623
 10
-157.5328
 20
280.22227934
 30
0.0
  0
VERTEX
  8
ZUWAKU
  6
CONTINUOUS
 62
      32
  5
624
 10
-157.53842629
 20
280.25180508
 30
0.0
  0
VERTEX
  8
ZUWAKU
  6
CONTINUOUS
 62
      32
  5
625
 10
-157.54491019
 20
280.28088106
 30
0.0
  0
VERTEX
  8
ZUWAKU
  6
CONTINUOUS
 62
      32
  5
626
 10
-157.55224536
 20
280.30947877
 30
0.0
  0
VERTEX
  8
ZUWAKU
  6
CONTINUOUS
 62
      32
  5
627
 10
-157.5604246
 20
280.33757019
 30
0.0
  0
VERTEX
  8
ZUWAKU
  6
CONTINUOUS
 62
      32
  5
628
 10
-157.56943988
 20
280.36512777
 30
0.0
  0
VERTEX
  8
ZUWAKU
  6
CONTINUOUS
 62
      32
  5
629
 10
-157.57928239
 20
280.3921245
 30
0.0
  0
VERTEX
  8
ZUWAKU
  6
CONTINUOUS
 62
      32
  5
62A
 10
-157.58994245
 20
280.4185339
 30
0.0
  0
VERTEX
  8
ZUWAKU
  6
CONTINUOUS
 62
      32
  5
62B
 10
-157.60140963
 20
280.44433009
 30
0.0
  0
VERTEX
  8
ZUWAKU
  6
CONTINUOUS
 62
      32
  5
62C
 10
-157.61367268
 20
280.46948778
 30
0.0
  0
VERTEX
  8
ZUWAKU
  6
CONTINUOUS
 62
      32
  5
62D
 10
-157.62671958
 20
280.49398231
 30
0.0
  0
VERTEX
  8
ZUWAKU
  6
CONTINUOUS
 62
      32
  5
62E
 10
-157.64053754
 20
280.51778966
 30
0.0
  0
VERTEX
  8
ZUWAKU
  6
CONTINUOUS
 62
      32
  5
62F
 10
-157.65511301
 20
280.54088649
 30
0.0
  0
VERTEX
  8
ZUWAKU
  6
CONTINUOUS
 62
      32
  5
630
 10
-157.67043171
 20
280.56325017
 30
0.0
  0
VERTEX
  8
ZUWAKU
  6
CONTINUOUS
 62
      32
  5
631
 10
-157.68647861
 20
280.58485875
 30
0.0
  0
VERTEX
  8
ZUWAKU
  6
CONTINUOUS
 62
      32
  5
632
 10
-157.70323799
 20
280.60569107
 30
0.0
  0
VERTEX
  8
ZUWAKU
  6
CONTINUOUS
 62
      32
  5
633
 10
-157.72069341
 20
280.6257267
 30
0.0
  0
VERTEX
  8
ZUWAKU
  6
CONTINUOUS
 62
      32
  5
634
 10
-157.73882776
 20
280.644946
 30
0.0
  0
VERTEX
  8
ZUWAKU
  6
CONTINUOUS
 62
      32
  5
635
 10
-157.75762326
 20
280.66333011
 30
0.0
  0
VERTEX
  8
ZUWAKU
  6
CONTINUOUS
 62
      32
  5
636
 10
-157.77706149
 20
280.68086103
 30
0.0
  0
VERTEX
  8
ZUWAKU
  6
CONTINUOUS
 62
      32
  5
637
 10
-157.79712339
 20
280.69752157
 30
0.0
  0
VERTEX
  8
ZUWAKU
  6
CONTINUOUS
 62
      32
  5
638
 10
-157.8177893
 20
280.71329539
 30
0.0
  0
VERTEX
  8
ZUWAKU
  6
CONTINUOUS
 62
      32
  5
639
 10
-157.83903895
 20
280.72816702
 30
0.0
  0
VERTEX
  8
ZUWAKU
  6
CONTINUOUS
 62
      32
  5
63A
 10
-157.86085151
 20
280.7421219
 30
0.0
  0
VERTEX
  8
ZUWAKU
  6
CONTINUOUS
 62
      32
  5
63B
 10
-157.8832056
 20
280.75514633
 30
0.0
  0
VERTEX
  8
ZUWAKU
  6
CONTINUOUS
 62
      32
  5
63C
 10
-157.90607929
 20
280.76722755
 30
0.0
  0
VERTEX
  8
ZUWAKU
  6
CONTINUOUS
 62
      32
  5
63D
 10
-157.92945018
 20
280.77835372
 30
0.0
  0
VERTEX
  8
ZUWAKU
  6
CONTINUOUS
 62
      32
  5
63E
 10
-157.95329534
 20
280.78851393
 30
0.0
  0
VERTEX
  8
ZUWAKU
  6
CONTINUOUS
 62
      32
  5
63F
 10
-157.97759141
 20
280.79769821
 30
0.0
  0
VERTEX
  8
ZUWAKU
  6
CONTINUOUS
 62
      32
  5
640
 10
-158.00231455
 20
280.80589757
 30
0.0
  0
VERTEX
  8
ZUWAKU
  6
CONTINUOUS
 62
      32
  5
641
 10
-158.02744054
 20
280.81310396
 30
0.0
  0
VERTEX
  8
ZUWAKU
  6
CONTINUOUS
 62
      32
  5
642
 10
-158.05294473
 20
280.81931032
 30
0.0
  0
VERTEX
  8
ZUWAKU
  6
CONTINUOUS
 62
      32
  5
643
 10
-158.07880214
 20
280.82451057
 30
0.0
  0
VERTEX
  8
ZUWAKU
  6
CONTINUOUS
 62
      32
  5
644
 10
-158.1049874
 20
280.82869961
 30
0.0
  0
VERTEX
  8
ZUWAKU
  6
CONTINUOUS
 62
      32
  5
645
 10
-158.13147485
 20
280.83187333
 30
0.0
  0
VERTEX
  8
ZUWAKU
  6
CONTINUOUS
 62
      32
  5
646
 10
-158.15823853
 20
280.83402861
 30
0.0
  0
VERTEX
  8
ZUWAKU
  6
CONTINUOUS
 62
      32
  5
647
 10
-158.18525218
 20
280.83516336
 30
0.0
  0
VERTEX
  8
ZUWAKU
  6
CONTINUOUS
 62
      32
  5
648
 10
-158.21248934
 20
280.83527645
 30
0.0
  0
VERTEX
  8
ZUWAKU
  6
CONTINUOUS
 62
      32
  5
649
 10
-158.23992329
 20
280.83436777
 30
0.0
  0
VERTEX
  8
ZUWAKU
  6
CONTINUOUS
 62
      32
  5
64A
 10
-158.26752714
 20
280.83243822
 30
0.0
  0
VERTEX
  8
ZUWAKU
  6
CONTINUOUS
 62
      32
  5
64B
 10
-158.29527384
 20
280.82948968
 30
0.0
  0
VERTEX
  8
ZUWAKU
  6
CONTINUOUS
 62
      32
  5
64C
 10
-158.32313618
 20
280.82552505
 30
0.0
  0
VERTEX
  8
ZUWAKU
  6
CONTINUOUS
 62
      32
  5
64D
 10
-158.35108684
 20
280.82054822
 30
0.0
  0
VERTEX
  8
ZUWAKU
  6
CONTINUOUS
 62
      32
  5
64E
 10
-158.37909842
 20
280.81456405
 30
0.0
  0
VERTEX
  8
ZUWAKU
  6
CONTINUOUS
 62
      32
  5
64F
 10
-158.40714347
 20
280.80757843
 30
0.0
  0
VERTEX
  8
ZUWAKU
  6
CONTINUOUS
 62
      32
  5
650
 10
-158.43519449
 20
280.79959819
 30
0.0
  0
VERTEX
  8
ZUWAKU
  6
CONTINUOUS
 62
      32
  5
651
 10
-158.46322397
 20
280.79063117
 30
0.0
  0
VERTEX
  8
ZUWAKU
  6
CONTINUOUS
 62
      32
  5
652
 10
-158.49120444
 20
280.78068614
 30
0.0
  0
VERTEX
  8
ZUWAKU
  6
CONTINUOUS
 62
      32
  5
653
 10
-158.51910847
 20
280.76977287
 30
0.0
  0
VERTEX
  8
ZUWAKU
  6
CONTINUOUS
 62
      32
  5
654
 10
-158.54690871
 20
280.75790205
 30
0.0
  0
VERTEX
  8
ZUWAKU
  6
CONTINUOUS
 62
      32
  5
655
 10
-158.57457789
 20
280.74508531
 30
0.0
  0
VERTEX
  8
ZUWAKU
  6
CONTINUOUS
 62
      32
  5
656
 10
-158.6020889
 20
280.73133523
 30
0.0
  0
VERTEX
  8
ZUWAKU
  6
CONTINUOUS
 62
      32
  5
657
 10
-158.62941476
 20
280.71666528
 30
0.0
  0
VERTEX
  8
ZUWAKU
  6
CONTINUOUS
 62
      32
  5
658
 10
-158.65652868
 20
280.70108985
 30
0.0
  0
VERTEX
  8
ZUWAKU
  6
CONTINUOUS
 62
      32
  5
659
 10
-158.68340408
 20
280.6846242
 30
0.0
  0
VERTEX
  8
ZUWAKU
  6
CONTINUOUS
 62
      32
  5
65A
 10
-158.71001462
 20
280.66728447
 30
0.0
  0
VERTEX
  8
ZUWAKU
  6
CONTINUOUS
 62
      32
  5
65B
 10
-158.73633421
 20
280.64908767
 30
0.0
  0
VERTEX
  8
ZUWAKU
  6
CONTINUOUS
 62
      32
  5
65C
 10
-158.76233704
 20
280.63005164
 30
0.0
  0
VERTEX
  8
ZUWAKU
  6
CONTINUOUS
 62
      32
  5
65D
 10
-158.78799763
 20
280.61019503
 30
0.0
  0
VERTEX
  8
ZUWAKU
  6
CONTINUOUS
 62
      32
  5
65E
 10
-158.81329081
 20
280.58953731
 30
0.0
  0
VERTEX
  8
ZUWAKU
  6
CONTINUOUS
 62
      32
  5
65F
 10
-158.83819179
 20
280.56809874
 30
0.0
  0
VERTEX
  8
ZUWAKU
  6
CONTINUOUS
 62
      32
  5
660
 10
-158.86267616
 20
280.54590033
 30
0.0
  0
VERTEX
  8
ZUWAKU
  6
CONTINUOUS
 62
      32
  5
661
 10
-158.88671992
 20
280.52296385
 30
0.0
  0
VERTEX
  8
ZUWAKU
  6
CONTINUOUS
 62
      32
  5
662
 10
-158.91029949
 20
280.49931177
 30
0.0
  0
VERTEX
  8
ZUWAKU
  6
CONTINUOUS
 62
      32
  5
663
 10
-158.93339175
 20
280.4749673
 30
0.0
  0
VERTEX
  8
ZUWAKU
  6
CONTINUOUS
 62
      32
  5
664
 10
-158.95597408
 20
280.44995428
 30
0.0
  0
VERTEX
  8
ZUWAKU
  6
CONTINUOUS
 62
      32
  5
665
 10
-158.97802433
 20
280.42429726
 30
0.0
  0
VERTEX
  8
ZUWAKU
  6
CONTINUOUS
 62
      32
  5
666
 10
-158.99952088
 20
280.39802137
 30
0.0
  0
VERTEX
  8
ZUWAKU
  6
CONTINUOUS
 62
      32
  5
667
 10
-159.02044265
 20
280.37115238
 30
0.0
  0
VERTEX
  8
ZUWAKU
  6
CONTINUOUS
 62
      32
  5
668
 10
-159.04076915
 20
280.34371662
 30
0.0
  0
VERTEX
  8
ZUWAKU
  6
CONTINUOUS
 62
      32
  5
669
 10
-159.06048044
 20
280.31574101
 30
0.0
  0
VERTEX
  8
ZUWAKU
  6
CONTINUOUS
 62
      32
  5
66A
 10
-159.07955719
 20
280.28725295
 30
0.0
  0
VERTEX
  8
ZUWAKU
  6
CONTINUOUS
 62
      32
  5
66B
 10
-159.09798071
 20
280.25828039
 30
0.0
  0
VERTEX
  8
ZUWAKU
  6
CONTINUOUS
 62
      32
  5
66C
 10
-159.11573294
 20
280.22885172
 30
0.0
  0
VERTEX
  8
ZUWAKU
  6
CONTINUOUS
 62
      32
  5
66D
 10
-159.13279646
 20
280.19899579
 30
0.0
  0
VERTEX
  8
ZUWAKU
  6
CONTINUOUS
 62
      32
  5
66E
 10
-159.14915456
 20
280.16874188
 30
0.0
  0
VERTEX
  8
ZUWAKU
  6
CONTINUOUS
 62
      32
  5
66F
 10
-159.16479119
 20
280.13811964
 30
0.0
  0
VERTEX
  8
ZUWAKU
  6
CONTINUOUS
 62
      32
  5
670
 10
-159.17969103
 20
280.10715909
 30
0.0
  0
VERTEX
  8
ZUWAKU
  6
CONTINUOUS
 62
      32
  5
671
 10
-159.19383946
 20
280.07589059
 30
0.0
  0
VERTEX
  8
ZUWAKU
  6
CONTINUOUS
 62
      32
  5
672
 10
-159.20722263
 20
280.04434479
 30
0.0
  0
VERTEX
  8
ZUWAKU
  6
CONTINUOUS
 62
      32
  5
673
 10
-159.2198274
 20
280.01255262
 30
0.0
  0
VERTEX
  8
ZUWAKU
  6
CONTINUOUS
 62
      32
  5
674
 10
-159.23164142
 20
279.98054524
 30
0.0
  0
VERTEX
  8
ZUWAKU
  6
CONTINUOUS
 62
      32
  5
675
 10
-159.24265311
 20
279.94835403
 30
0.0
  0
VERTEX
  8
ZUWAKU
  6
CONTINUOUS
 62
      32
  5
676
 10
-159.25285168
 20
279.91601055
 30
0.0
  0
VERTEX
  8
ZUWAKU
  6
CONTINUOUS
 62
      32
  5
677
 10
-159.26222712
 20
279.88354651
 30
0.0
  0
VERTEX
  8
ZUWAKU
  6
CONTINUOUS
 62
      32
  5
678
 10
-159.27077024
 20
279.85099373
 30
0.0
  0
VERTEX
  8
ZUWAKU
  6
CONTINUOUS
 62
      32
  5
679
 10
-159.27847268
 20
279.81838413
 30
0.0
  0
VERTEX
  8
ZUWAKU
  6
CONTINUOUS
 62
      32
  5
67A
 10
-159.28532687
 20
279.78574969
 30
0.0
  0
VERTEX
  8
ZUWAKU
  6
CONTINUOUS
 62
      32
  5
67B
 10
-159.2913261
 20
279.75312238
 30
0.0
  0
VERTEX
  8
ZUWAKU
  6
CONTINUOUS
 62
      32
  5
67C
 10
-159.29646449
 20
279.72053419
 30
0.0
  0
VERTEX
  8
ZUWAKU
  6
CONTINUOUS
 62
      32
  5
67D
 10
-159.30073699
 20
279.68801709
 30
0.0
  0
VERTEX
  8
ZUWAKU
  6
CONTINUOUS
 62
      32
  5
67E
 10
-159.30413943
 20
279.65560293
 30
0.0
  0
VERTEX
  8
ZUWAKU
  6
CONTINUOUS
 62
      32
  5
67F
 10
-159.30666846
 20
279.62332351
 30
0.0
  0
VERTEX
  8
ZUWAKU
  6
CONTINUOUS
 62
      32
  5
680
 10
-159.30832161
 20
279.59121046
 30
0.0
  0
VERTEX
  8
ZUWAKU
  6
CONTINUOUS
 62
      32
  5
681
 10
-159.30909725
 20
279.55929527
 30
0.0
  0
VERTEX
  8
ZUWAKU
  6
CONTINUOUS
 62
      32
  5
682
 10
-159.30899463
 20
279.52760922
 30
0.0
  0
VERTEX
  8
ZUWAKU
  6
CONTINUOUS
 62
      32
  5
683
 10
-159.30801385
 20
279.49618338
 30
0.0
  0
VERTEX
  8
ZUWAKU
  6
CONTINUOUS
 62
      32
  5
684
 10
-159.30615586
 20
279.46504856
 30
0.0
  0
VERTEX
  8
ZUWAKU
  6
CONTINUOUS
 62
      32
  5
685
 10
-159.30342249
 20
279.43423529
 30
0.0
  0
VERTEX
  8
ZUWAKU
  6
CONTINUOUS
 62
      32
  5
686
 10
-159.29981641
 20
279.40377376
 30
0.0
  0
VERTEX
  8
ZUWAKU
  6
CONTINUOUS
 62
      32
  5
687
 10
-159.29534117
 20
279.37369384
 30
0.0
  0
VERTEX
  8
ZUWAKU
  6
CONTINUOUS
 62
      32
  5
688
 10
-159.29000116
 20
279.34402502
 30
0.0
  0
VERTEX
  8
ZUWAKU
  6
CONTINUOUS
 62
      32
  5
689
 10
-159.28380159
 20
279.31479639
 30
0.0
  0
VERTEX
  8
ZUWAKU
  6
CONTINUOUS
 62
      32
  5
68A
 10
-159.27674856
 20
279.2860366
 30
0.0
  0
VERTEX
  8
ZUWAKU
  6
CONTINUOUS
 62
      32
  5
68B
 10
-159.26884898
 20
279.25777385
 30
0.0
  0
VERTEX
  8
ZUWAKU
  6
CONTINUOUS
 62
      32
  5
68C
 10
-159.26011059
 20
279.23003584
 30
0.0
  0
VERTEX
  8
ZUWAKU
  6
CONTINUOUS
 62
      32
  5
68D
 10
-159.25054197
 20
279.20284976
 30
0.0
  0
VERTEX
  8
ZUWAKU
  6
CONTINUOUS
 62
      32
  5
68E
 10
-159.24015248
 20
279.17624228
 30
0.0
  0
VERTEX
  8
ZUWAKU
  6
CONTINUOUS
 62
      32
  5
68F
 10
-159.22895231
 20
279.15023946
 30
0.0
  0
VERTEX
  8
ZUWAKU
  6
CONTINUOUS
 62
      32
  5
690
 10
-159.21695245
 20
279.12486682
 30
0.0
  0
VERTEX
  8
ZUWAKU
  6
CONTINUOUS
 62
      32
  5
691
 10
-159.20416466
 20
279.10014921
 30
0.0
  0
VERTEX
  8
ZUWAKU
  6
CONTINUOUS
 62
      32
  5
692
 10
-159.19060148
 20
279.07611087
 30
0.0
  0
SEQEND
  8
ZUWAKU
  6
CONTINUOUS
 62
      32
  5
693
  0
LINE
  8
ZUWAKU
  6
CONTINUOUS
 62
      32
  5
276
 10
-161.13475106
 20
279.00991341
 30
0.0
 11
-159.28754807
 21
279.00991341
 31
0.0
  0
ARC
  8
ZUWAKU
  6
CONTINUOUS
 62
      32
  5
277
 10
-159.47375881
 20
280.41384847
 30
0.0
 40
1.41623024
 50
277.55531967
 51
282.61004677
  0
ARC
  8
ZUWAKU
  6
CONTINUOUS
 62
      32
  5
278
 10
-159.47375881
 20
280.41384847
 30
0.0
 40
2.04223024
 50
276.29029269
 51
293.79815684
  0
ARC
  8
ZUWAKU
  6
CONTINUOUS
 62
      32
  5
279
 10
-159.47375881
 20
280.41384847
 30
0.0
 40
2.04223024
 50
316.57125834
 51
318.01426788
  0
ARC
  8
ZUWAKU
  6
CONTINUOUS
 62
      32
  5
27A
 10
-158.00692939
 20
279.74122139
 30
0.0
 40
1.35773768
 50
209.3318227
 51
211.50126528
  0
ARC
  8
ZUWAKU
  6
CONTINUOUS
 62
      32
  5
27B
 10
-158.00692939
 20
279.74122139
 30
0.0
 40
1.35773768
 50
241.74457829
 51
270.0
  0
POLYLINE
  8
ZUWAKU
  6
CONTINUOUS
 62
      32
  5
27C
 66
       1
 10
0.0
 20
0.0
 30
0.0
 70
     129
  0
VERTEX
  8
ZUWAKU
  6
CONTINUOUS
 62
      32
  5
694
 10
-155.49065728
 20
280.06829998
 30
0.0
  0
VERTEX
  8
ZUWAKU
  6
CONTINUOUS
 62
      32
  5
695
 10
-155.47994912
 20
280.06372058
 30
0.0
  0
VERTEX
  8
ZUWAKU
  6
CONTINUOUS
 62
      32
  5
696
 10
-155.4687789
 20
280.06014095
 30
0.0
  0
VERTEX
  8
ZUWAKU
  6
CONTINUOUS
 62
      32
  5
697
 10
-155.45716623
 20
280.05756736
 30
0.0
  0
VERTEX
  8
ZUWAKU
  6
CONTINUOUS
 62
      32
  5
698
 10
-155.44513147
 20
280.05600433
 30
0.0
  0
VERTEX
  8
ZUWAKU
  6
CONTINUOUS
 62
      32
  5
699
 10
-155.43269574
 20
280.0554546
 30
0.0
  0
VERTEX
  8
ZUWAKU
  6
CONTINUOUS
 62
      32
  5
69A
 10
-155.41988085
 20
280.05591915
 30
0.0
  0
VERTEX
  8
ZUWAKU
  6
CONTINUOUS
 62
      32
  5
69B
 10
-155.40670929
 20
280.05739715
 30
0.0
  0
VERTEX
  8
ZUWAKU
  6
CONTINUOUS
 62
      32
  5
69C
 10
-155.39320416
 20
280.059886
 30
0.0
  0
VERTEX
  8
ZUWAKU
  6
CONTINUOUS
 62
      32
  5
69D
 10
-155.37938915
 20
280.06338135
 30
0.0
  0
VERTEX
  8
ZUWAKU
  6
CONTINUOUS
 62
      32
  5
69E
 10
-155.36528851
 20
280.06787707
 30
0.0
  0
VERTEX
  8
ZUWAKU
  6
CONTINUOUS
 62
      32
  5
69F
 10
-155.35092697
 20
280.07336525
 30
0.0
  0
VERTEX
  8
ZUWAKU
  6
CONTINUOUS
 62
      32
  5
6A0
 10
-155.33632972
 20
280.07983629
 30
0.0
  0
VERTEX
  8
ZUWAKU
  6
CONTINUOUS
 62
      32
  5
6A1
 10
-155.32152238
 20
280.08727881
 30
0.0
  0
VERTEX
  8
ZUWAKU
  6
CONTINUOUS
 62
      32
  5
6A2
 10
-155.30653091
 20
280.09567978
 30
0.0
  0
VERTEX
  8
ZUWAKU
  6
CONTINUOUS
 62
      32
  5
6A3
 10
-155.29138163
 20
280.10502444
 30
0.0
  0
VERTEX
  8
ZUWAKU
  6
CONTINUOUS
 62
      32
  5
6A4
 10
-155.2761011
 20
280.11529641
 30
0.0
  0
VERTEX
  8
ZUWAKU
  6
CONTINUOUS
 62
      32
  5
6A5
 10
-155.26071613
 20
280.12647767
 30
0.0
  0
VERTEX
  8
ZUWAKU
  6
CONTINUOUS
 62
      32
  5
6A6
 10
-155.24525373
 20
280.13854859
 30
0.0
  0
VERTEX
  8
ZUWAKU
  6
CONTINUOUS
 62
      32
  5
6A7
 10
-155.229741
 20
280.15148801
 30
0.0
  0
VERTEX
  8
ZUWAKU
  6
CONTINUOUS
 62
      32
  5
6A8
 10
-155.21420517
 20
280.16527322
 30
0.0
  0
VERTEX
  8
ZUWAKU
  6
CONTINUOUS
 62
      32
  5
6A9
 10
-155.19867348
 20
280.17988004
 30
0.0
  0
VERTEX
  8
ZUWAKU
  6
CONTINUOUS
 62
      32
  5
6AA
 10
-155.1831732
 20
280.19528284
 30
0.0
  0
VERTEX
  8
ZUWAKU
  6
CONTINUOUS
 62
      32
  5
6AB
 10
-155.16773151
 20
280.21145461
 30
0.0
  0
VERTEX
  8
ZUWAKU
  6
CONTINUOUS
 62
      32
  5
6AC
 10
-155.1523755
 20
280.22836696
 30
0.0
  0
VERTEX
  8
ZUWAKU
  6
CONTINUOUS
 62
      32
  5
6AD
 10
-155.13713211
 20
280.24599024
 30
0.0
  0
VERTEX
  8
ZUWAKU
  6
CONTINUOUS
 62
      32
  5
6AE
 10
-155.12202809
 20
280.26429352
 30
0.0
  0
VERTEX
  8
ZUWAKU
  6
CONTINUOUS
 62
      32
  5
6AF
 10
-155.10708992
 20
280.28324469
 30
0.0
  0
VERTEX
  8
ZUWAKU
  6
CONTINUOUS
 62
      32
  5
6B0
 10
-155.09234382
 20
280.30281051
 30
0.0
  0
VERTEX
  8
ZUWAKU
  6
CONTINUOUS
 62
      32
  5
6B1
 10
-155.07781566
 20
280.32295665
 30
0.0
  0
VERTEX
  8
ZUWAKU
  6
CONTINUOUS
 62
      32
  5
6B2
 10
-155.06353093
 20
280.34364777
 30
0.0
  0
VERTEX
  8
ZUWAKU
  6
CONTINUOUS
 62
      32
  5
6B3
 10
-155.04951468
 20
280.36484757
 30
0.0
  0
VERTEX
  8
ZUWAKU
  6
CONTINUOUS
 62
      32
  5
6B4
 10
-155.0357915
 20
280.38651886
 30
0.0
  0
VERTEX
  8
ZUWAKU
  6
CONTINUOUS
 62
      32
  5
6B5
 10
-155.02238547
 20
280.40862362
 30
0.0
  0
VERTEX
  8
ZUWAKU
  6
CONTINUOUS
 62
      32
  5
6B6
 10
-155.00932011
 20
280.43112306
 30
0.0
  0
VERTEX
  8
ZUWAKU
  6
CONTINUOUS
 62
      32
  5
6B7
 10
-154.99661834
 20
280.45397772
 30
0.0
  0
VERTEX
  8
ZUWAKU
  6
CONTINUOUS
 62
      32
  5
6B8
 10
-154.98430244
 20
280.47714751
 30
0.0
  0
VERTEX
  8
ZUWAKU
  6
CONTINUOUS
 62
      32
  5
6B9
 10
-154.97239401
 20
280.50059177
 30
0.0
  0
VERTEX
  8
ZUWAKU
  6
CONTINUOUS
 62
      32
  5
6BA
 10
-154.96091396
 20
280.52426938
 30
0.0
  0
VERTEX
  8
ZUWAKU
  6
CONTINUOUS
 62
      32
  5
6BB
 10
-154.94988242
 20
280.54813879
 30
0.0
  0
VERTEX
  8
ZUWAKU
  6
CONTINUOUS
 62
      32
  5
6BC
 10
-154.93931874
 20
280.57215814
 30
0.0
  0
VERTEX
  8
ZUWAKU
  6
CONTINUOUS
 62
      32
  5
6BD
 10
-154.92924146
 20
280.59628528
 30
0.0
  0
VERTEX
  8
ZUWAKU
  6
CONTINUOUS
 62
      32
  5
6BE
 10
-154.91966825
 20
280.62047789
 30
0.0
  0
VERTEX
  8
ZUWAKU
  6
CONTINUOUS
 62
      32
  5
6BF
 10
-154.9106159
 20
280.64469353
 30
0.0
  0
VERTEX
  8
ZUWAKU
  6
CONTINUOUS
 62
      32
  5
6C0
 10
-154.90210031
 20
280.6688897
 30
0.0
  0
VERTEX
  8
ZUWAKU
  6
CONTINUOUS
 62
      32
  5
6C1
 10
-154.89413641
 20
280.69302397
 30
0.0
  0
VERTEX
  8
ZUWAKU
  6
CONTINUOUS
 62
      32
  5
6C2
 10
-154.88673816
 20
280.717054
 30
0.0
  0
VERTEX
  8
ZUWAKU
  6
CONTINUOUS
 62
      32
  5
6C3
 10
-154.87991856
 20
280.74093762
 30
0.0
  0
VERTEX
  8
ZUWAKU
  6
CONTINUOUS
 62
      32
  5
6C4
 10
-154.87368956
 20
280.76463294
 30
0.0
  0
VERTEX
  8
ZUWAKU
  6
CONTINUOUS
 62
      32
  5
6C5
 10
-154.86806209
 20
280.78809839
 30
0.0
  0
VERTEX
  8
ZUWAKU
  6
CONTINUOUS
 62
      32
  5
6C6
 10
-154.86304602
 20
280.8112928
 30
0.0
  0
VERTEX
  8
ZUWAKU
  6
CONTINUOUS
 62
      32
  5
6C7
 10
-154.85865016
 20
280.83417549
 30
0.0
  0
VERTEX
  8
ZUWAKU
  6
CONTINUOUS
 62
      32
  5
6C8
 10
-154.85488221
 20
280.8567063
 30
0.0
  0
VERTEX
  8
ZUWAKU
  6
CONTINUOUS
 62
      32
  5
6C9
 10
-154.85174878
 20
280.8788457
 30
0.0
  0
VERTEX
  8
ZUWAKU
  6
CONTINUOUS
 62
      32
  5
6CA
 10
-154.84925538
 20
280.90055487
 30
0.0
  0
VERTEX
  8
ZUWAKU
  6
CONTINUOUS
 62
      32
  5
6CB
 10
-154.84740638
 20
280.92179572
 30
0.0
  0
VERTEX
  8
ZUWAKU
  6
CONTINUOUS
 62
      32
  5
6CC
 10
-154.84620502
 20
280.94253097
 30
0.0
  0
VERTEX
  8
ZUWAKU
  6
CONTINUOUS
 62
      32
  5
6CD
 10
-154.8456534
 20
280.96272426
 30
0.0
  0
VERTEX
  8
ZUWAKU
  6
CONTINUOUS
 62
      32
  5
6CE
 10
-154.8457525
 20
280.98234016
 30
0.0
  0
VERTEX
  8
ZUWAKU
  6
CONTINUOUS
 62
      32
  5
6CF
 10
-154.84650214
 20
281.00134426
 30
0.0
  0
VERTEX
  8
ZUWAKU
  6
CONTINUOUS
 62
      32
  5
6D0
 10
-154.84790101
 20
281.01970321
 30
0.0
  0
VERTEX
  8
ZUWAKU
  6
CONTINUOUS
 62
      32
  5
6D1
 10
-154.84994666
 20
281.03738481
 30
0.0
  0
VERTEX
  8
ZUWAKU
  6
CONTINUOUS
 62
      32
  5
6D2
 10
-154.85263548
 20
281.05435803
 30
0.0
  0
VERTEX
  8
ZUWAKU
  6
CONTINUOUS
 62
      32
  5
6D3
 10
-154.85596277
 20
281.07059311
 30
0.0
  0
VERTEX
  8
ZUWAKU
  6
CONTINUOUS
 62
      32
  5
6D4
 10
-154.8599227
 20
281.08606156
 30
0.0
  0
VERTEX
  8
ZUWAKU
  6
CONTINUOUS
 62
      32
  5
6D5
 10
-154.8645083
 20
281.10073625
 30
0.0
  0
VERTEX
  8
ZUWAKU
  6
CONTINUOUS
 62
      32
  5
6D6
 10
-154.86971155
 20
281.11459142
 30
0.0
  0
VERTEX
  8
ZUWAKU
  6
CONTINUOUS
 62
      32
  5
6D7
 10
-154.8755233
 20
281.12760277
 30
0.0
  0
VERTEX
  8
ZUWAKU
  6
CONTINUOUS
 62
      32
  5
6D8
 10
-154.88193336
 20
281.13974748
 30
0.0
  0
VERTEX
  8
ZUWAKU
  6
CONTINUOUS
 62
      32
  5
6D9
 10
-154.8889305
 20
281.15100424
 30
0.0
  0
VERTEX
  8
ZUWAKU
  6
CONTINUOUS
 62
      32
  5
6DA
 10
-154.89650243
 20
281.1613533
 30
0.0
  0
VERTEX
  8
ZUWAKU
  6
CONTINUOUS
 62
      32
  5
6DB
 10
-154.90463587
 20
281.17077651
 30
0.0
  0
VERTEX
  8
ZUWAKU
  6
CONTINUOUS
 62
      32
  5
6DC
 10
-154.91331654
 20
281.17925733
 30
0.0
  0
VERTEX
  8
ZUWAKU
  6
CONTINUOUS
 62
      32
  5
6DD
 10
-154.92252923
 20
281.18678089
 30
0.0
  0
VERTEX
  8
ZUWAKU
  6
CONTINUOUS
 62
      32
  5
6DE
 10
-154.93225777
 20
281.19333398
 30
0.0
  0
VERTEX
  8
ZUWAKU
  6
CONTINUOUS
 62
      32
  5
6DF
 10
-154.9424851
 20
281.19890512
 30
0.0
  0
VERTEX
  8
ZUWAKU
  6
CONTINUOUS
 62
      32
  5
6E0
 10
-154.95319326
 20
281.20348452
 30
0.0
  0
VERTEX
  8
ZUWAKU
  6
CONTINUOUS
 62
      32
  5
6E1
 10
-154.96436347
 20
281.20706415
 30
0.0
  0
VERTEX
  8
ZUWAKU
  6
CONTINUOUS
 62
      32
  5
6E2
 10
-154.97597615
 20
281.20963774
 30
0.0
  0
VERTEX
  8
ZUWAKU
  6
CONTINUOUS
 62
      32
  5
6E3
 10
-154.98801091
 20
281.21120077
 30
0.0
  0
VERTEX
  8
ZUWAKU
  6
CONTINUOUS
 62
      32
  5
6E4
 10
-155.00044664
 20
281.21175049
 30
0.0
  0
VERTEX
  8
ZUWAKU
  6
CONTINUOUS
 62
      32
  5
6E5
 10
-155.01326153
 20
281.21128595
 30
0.0
  0
VERTEX
  8
ZUWAKU
  6
CONTINUOUS
 62
      32
  5
6E6
 10
-155.02643309
 20
281.20980795
 30
0.0
  0
VERTEX
  8
ZUWAKU
  6
CONTINUOUS
 62
      32
  5
6E7
 10
-155.03993822
 20
281.2073191
 30
0.0
  0
VERTEX
  8
ZUWAKU
  6
CONTINUOUS
 62
      32
  5
6E8
 10
-155.05375322
 20
281.20382375
 30
0.0
  0
VERTEX
  8
ZUWAKU
  6
CONTINUOUS
 62
      32
  5
6E9
 10
-155.06785386
 20
281.19932803
 30
0.0
  0
VERTEX
  8
ZUWAKU
  6
CONTINUOUS
 62
      32
  5
6EA
 10
-155.08221541
 20
281.19383985
 30
0.0
  0
VERTEX
  8
ZUWAKU
  6
CONTINUOUS
 62
      32
  5
6EB
 10
-155.09681265
 20
281.18736881
 30
0.0
  0
VERTEX
  8
ZUWAKU
  6
CONTINUOUS
 62
      32
  5
6EC
 10
-155.11162
 20
281.17992629
 30
0.0
  0
VERTEX
  8
ZUWAKU
  6
CONTINUOUS
 62
      32
  5
6ED
 10
-155.12661146
 20
281.17152532
 30
0.0
  0
VERTEX
  8
ZUWAKU
  6
CONTINUOUS
 62
      32
  5
6EE
 10
-155.14176075
 20
281.16218066
 30
0.0
  0
VERTEX
  8
ZUWAKU
  6
CONTINUOUS
 62
      32
  5
6EF
 10
-155.15704128
 20
281.15190869
 30
0.0
  0
VERTEX
  8
ZUWAKU
  6
CONTINUOUS
 62
      32
  5
6F0
 10
-155.17242624
 20
281.14072743
 30
0.0
  0
VERTEX
  8
ZUWAKU
  6
CONTINUOUS
 62
      32
  5
6F1
 10
-155.18788865
 20
281.12865651
 30
0.0
  0
VERTEX
  8
ZUWAKU
  6
CONTINUOUS
 62
      32
  5
6F2
 10
-155.20340138
 20
281.11571709
 30
0.0
  0
VERTEX
  8
ZUWAKU
  6
CONTINUOUS
 62
      32
  5
6F3
 10
-155.21893721
 20
281.10193188
 30
0.0
  0
VERTEX
  8
ZUWAKU
  6
CONTINUOUS
 62
      32
  5
6F4
 10
-155.23446889
 20
281.08732506
 30
0.0
  0
VERTEX
  8
ZUWAKU
  6
CONTINUOUS
 62
      32
  5
6F5
 10
-155.24996917
 20
281.07192226
 30
0.0
  0
VERTEX
  8
ZUWAKU
  6
CONTINUOUS
 62
      32
  5
6F6
 10
-155.26541086
 20
281.05575049
 30
0.0
  0
VERTEX
  8
ZUWAKU
  6
CONTINUOUS
 62
      32
  5
6F7
 10
-155.28076687
 20
281.03883814
 30
0.0
  0
VERTEX
  8
ZUWAKU
  6
CONTINUOUS
 62
      32
  5
6F8
 10
-155.29601026
 20
281.02121486
 30
0.0
  0
VERTEX
  8
ZUWAKU
  6
CONTINUOUS
 62
      32
  5
6F9
 10
-155.31111429
 20
281.00291158
 30
0.0
  0
VERTEX
  8
ZUWAKU
  6
CONTINUOUS
 62
      32
  5
6FA
 10
-155.32605245
 20
280.98396041
 30
0.0
  0
VERTEX
  8
ZUWAKU
  6
CONTINUOUS
 62
      32
  5
6FB
 10
-155.34079855
 20
280.96439459
 30
0.0
  0
VERTEX
  8
ZUWAKU
  6
CONTINUOUS
 62
      32
  5
6FC
 10
-155.35532671
 20
280.94424845
 30
0.0
  0
VERTEX
  8
ZUWAKU
  6
CONTINUOUS
 62
      32
  5
6FD
 10
-155.36961145
 20
280.92355733
 30
0.0
  0
VERTEX
  8
ZUWAKU
  6
CONTINUOUS
 62
      32
  5
6FE
 10
-155.3836277
 20
280.90235753
 30
0.0
  0
VERTEX
  8
ZUWAKU
  6
CONTINUOUS
 62
      32
  5
6FF
 10
-155.39735088
 20
280.88068624
 30
0.0
  0
VERTEX
  8
ZUWAKU
  6
CONTINUOUS
 62
      32
  5
700
 10
-155.41075691
 20
280.85858148
 30
0.0
  0
VERTEX
  8
ZUWAKU
  6
CONTINUOUS
 62
      32
  5
701
 10
-155.42382227
 20
280.83608204
 30
0.0
  0
VERTEX
  8
ZUWAKU
  6
CONTINUOUS
 62
      32
  5
702
 10
-155.43652404
 20
280.81322738
 30
0.0
  0
VERTEX
  8
ZUWAKU
  6
CONTINUOUS
 62
      32
  5
703
 10
-155.44883994
 20
280.79005759
 30
0.0
  0
VERTEX
  8
ZUWAKU
  6
CONTINUOUS
 62
      32
  5
704
 10
-155.46074836
 20
280.76661333
 30
0.0
  0
VERTEX
  8
ZUWAKU
  6
CONTINUOUS
 62
      32
  5
705
 10
-155.47222841
 20
280.74293572
 30
0.0
  0
VERTEX
  8
ZUWAKU
  6
CONTINUOUS
 62
      32
  5
706
 10
-155.48325996
 20
280.71906631
 30
0.0
  0
VERTEX
  8
ZUWAKU
  6
CONTINUOUS
 62
      32
  5
707
 10
-155.49382363
 20
280.69504696
 30
0.0
  0
VERTEX
  8
ZUWAKU
  6
CONTINUOUS
 62
      32
  5
708
 10
-155.50390092
 20
280.67091982
 30
0.0
  0
VERTEX
  8
ZUWAKU
  6
CONTINUOUS
 62
      32
  5
709
 10
-155.51347413
 20
280.64672721
 30
0.0
  0
VERTEX
  8
ZUWAKU
  6
CONTINUOUS
 62
      32
  5
70A
 10
-155.52252647
 20
280.62251157
 30
0.0
  0
VERTEX
  8
ZUWAKU
  6
CONTINUOUS
 62
      32
  5
70B
 10
-155.53104206
 20
280.5983154
 30
0.0
  0
VERTEX
  8
ZUWAKU
  6
CONTINUOUS
 62
      32
  5
70C
 10
-155.53900597
 20
280.57418113
 30
0.0
  0
VERTEX
  8
ZUWAKU
  6
CONTINUOUS
 62
      32
  5
70D
 10
-155.54640421
 20
280.5501511
 30
0.0
  0
VERTEX
  8
ZUWAKU
  6
CONTINUOUS
 62
      32
  5
70E
 10
-155.55322382
 20
280.52626748
 30
0.0
  0
VERTEX
  8
ZUWAKU
  6
CONTINUOUS
 62
      32
  5
70F
 10
-155.55945282
 20
280.50257216
 30
0.0
  0
VERTEX
  8
ZUWAKU
  6
CONTINUOUS
 62
      32
  5
710
 10
-155.56508029
 20
280.47910671
 30
0.0
  0
VERTEX
  8
ZUWAKU
  6
CONTINUOUS
 62
      32
  5
711
 10
-155.57009636
 20
280.4559123
 30
0.0
  0
VERTEX
  8
ZUWAKU
  6
CONTINUOUS
 62
      32
  5
712
 10
-155.57449222
 20
280.43302961
 30
0.0
  0
VERTEX
  8
ZUWAKU
  6
CONTINUOUS
 62
      32
  5
713
 10
-155.57826017
 20
280.4104988
 30
0.0
  0
VERTEX
  8
ZUWAKU
  6
CONTINUOUS
 62
      32
  5
714
 10
-155.58139359
 20
280.3883594
 30
0.0
  0
VERTEX
  8
ZUWAKU
  6
CONTINUOUS
 62
      32
  5
715
 10
-155.58388699
 20
280.36665023
 30
0.0
  0
VERTEX
  8
ZUWAKU
  6
CONTINUOUS
 62
      32
  5
716
 10
-155.585736
 20
280.34540938
 30
0.0
  0
VERTEX
  8
ZUWAKU
  6
CONTINUOUS
 62
      32
  5
717
 10
-155.58693736
 20
280.32467413
 30
0.0
  0
VERTEX
  8
ZUWAKU
  6
CONTINUOUS
 62
      32
  5
718
 10
-155.58748897
 20
280.30448084
 30
0.0
  0
VERTEX
  8
ZUWAKU
  6
CONTINUOUS
 62
      32
  5
719
 10
-155.58738987
 20
280.28486494
 30
0.0
  0
VERTEX
  8
ZUWAKU
  6
CONTINUOUS
 62
      32
  5
71A
 10
-155.58664023
 20
280.26586084
 30
0.0
  0
VERTEX
  8
ZUWAKU
  6
CONTINUOUS
 62
      32
  5
71B
 10
-155.58524136
 20
280.24750189
 30
0.0
  0
VERTEX
  8
ZUWAKU
  6
CONTINUOUS
 62
      32
  5
71C
 10
-155.58319572
 20
280.22982029
 30
0.0
  0
VERTEX
  8
ZUWAKU
  6
CONTINUOUS
 62
      32
  5
71D
 10
-155.58050689
 20
280.21284706
 30
0.0
  0
VERTEX
  8
ZUWAKU
  6
CONTINUOUS
 62
      32
  5
71E
 10
-155.5771796
 20
280.19661199
 30
0.0
  0
VERTEX
  8
ZUWAKU
  6
CONTINUOUS
 62
      32
  5
71F
 10
-155.57321968
 20
280.18114354
 30
0.0
  0
VERTEX
  8
ZUWAKU
  6
CONTINUOUS
 62
      32
  5
720
 10
-155.56863407
 20
280.16646885
 30
0.0
  0
VERTEX
  8
ZUWAKU
  6
CONTINUOUS
 62
      32
  5
721
 10
-155.56343083
 20
280.15261368
 30
0.0
  0
VERTEX
  8
ZUWAKU
  6
CONTINUOUS
 62
      32
  5
722
 10
-155.55761908
 20
280.13960233
 30
0.0
  0
VERTEX
  8
ZUWAKU
  6
CONTINUOUS
 62
      32
  5
723
 10
-155.55120901
 20
280.12745762
 30
0.0
  0
VERTEX
  8
ZUWAKU
  6
CONTINUOUS
 62
      32
  5
724
 10
-155.54421188
 20
280.11620086
 30
0.0
  0
VERTEX
  8
ZUWAKU
  6
CONTINUOUS
 62
      32
  5
725
 10
-155.53663995
 20
280.1058518
 30
0.0
  0
VERTEX
  8
ZUWAKU
  6
CONTINUOUS
 62
      32
  5
726
 10
-155.52850651
 20
280.09642859
 30
0.0
  0
VERTEX
  8
ZUWAKU
  6
CONTINUOUS
 62
      32
  5
727
 10
-155.51982583
 20
280.08794777
 30
0.0
  0
VERTEX
  8
ZUWAKU
  6
CONTINUOUS
 62
      32
  5
728
 10
-155.51061314
 20
280.08042421
 30
0.0
  0
VERTEX
  8
ZUWAKU
  6
CONTINUOUS
 62
      32
  5
729
 10
-155.5008846
 20
280.07387112
 30
0.0
  0
SEQEND
  8
ZUWAKU
  6
CONTINUOUS
 62
      32
  5
72A
  0
ARC
  8
ZUWAKU
  6
CONTINUOUS
 62
      32
  5
27D
 10
-154.64011141
 20
280.79901687
 30
0.0
 40
2.42821367
 50
241.28311564
 51
264.0434522
  0
LINE
  8
ZUWAKU
  6
CONTINUOUS
 62
      32
  5
27E
 10
-158.00692939
 20
278.38391341
 30
0.0
 11
-156.59823553
 21
278.38391341
 31
0.0
  0
ARC
  8
ZUWAKU
  6
CONTINUOUS
 62
      32
  5
27F
 10
-154.64011141
 20
280.79901687
 30
0.0
 40
1.80221367
 50
251.08708107
 51
263.08482824
  0
ARC
  8
ZUWAKU
  6
CONTINUOUS
 62
      32
  5
280
 10
-157.12959748
 20
281.09609636
 30
0.0
 40
2.13774418
 50
282.60950936
 51
291.93126974
  0
POLYLINE
  8
ZUWAKU
  6
CONTINUOUS
 62
      32
  5
281
 66
       1
 10
0.0
 20
0.0
 30
0.0
 70
     128
  0
VERTEX
  8
ZUWAKU
  6
CONTINUOUS
 62
      32
  5
72B
 10
-154.83164446
 20
279.56061801
 30
0.0
  0
VERTEX
  8
ZUWAKU
  6
CONTINUOUS
 62
      32
  5
72C
 10
-154.79650698
 20
279.60853848
 30
0.0
  0
VERTEX
  8
ZUWAKU
  6
CONTINUOUS
 62
      32
  5
72D
 10
-154.76178689
 20
279.65747748
 30
0.0
  0
VERTEX
  8
ZUWAKU
  6
CONTINUOUS
 62
      32
  5
72E
 10
-154.72751867
 20
279.70738637
 30
0.0
  0
VERTEX
  8
ZUWAKU
  6
CONTINUOUS
 62
      32
  5
72F
 10
-154.69373638
 20
279.75821556
 30
0.0
  0
VERTEX
  8
ZUWAKU
  6
CONTINUOUS
 62
      32
  5
730
 10
-154.66047359
 20
279.80991455
 30
0.0
  0
VERTEX
  8
ZUWAKU
  6
CONTINUOUS
 62
      32
  5
731
 10
-154.62776335
 20
279.86243196
 30
0.0
  0
VERTEX
  8
ZUWAKU
  6
CONTINUOUS
 62
      32
  5
732
 10
-154.59563816
 20
279.91571563
 30
0.0
  0
VERTEX
  8
ZUWAKU
  6
CONTINUOUS
 62
      32
  5
733
 10
-154.56412993
 20
279.96971259
 30
0.0
  0
VERTEX
  8
ZUWAKU
  6
CONTINUOUS
 62
      32
  5
734
 10
-154.53326998
 20
280.02436921
 30
0.0
  0
VERTEX
  8
ZUWAKU
  6
CONTINUOUS
 62
      32
  5
735
 10
-154.50308896
 20
280.07963116
 30
0.0
  0
VERTEX
  8
ZUWAKU
  6
CONTINUOUS
 62
      32
  5
736
 10
-154.47361687
 20
280.13544356
 30
0.0
  0
VERTEX
  8
ZUWAKU
  6
CONTINUOUS
 62
      32
  5
737
 10
-154.44488299
 20
280.19175093
 30
0.0
  0
VERTEX
  8
ZUWAKU
  6
CONTINUOUS
 62
      32
  5
738
 10
-154.41691588
 20
280.24849733
 30
0.0
  0
VERTEX
  8
ZUWAKU
  6
CONTINUOUS
 62
      32
  5
739
 10
-154.38974331
 20
280.30562637
 30
0.0
  0
VERTEX
  8
ZUWAKU
  6
CONTINUOUS
 62
      32
  5
73A
 10
-154.36339229
 20
280.3630813
 30
0.0
  0
VERTEX
  8
ZUWAKU
  6
CONTINUOUS
 62
      32
  5
73B
 10
-154.337889
 20
280.42080502
 30
0.0
  0
VERTEX
  8
ZUWAKU
  6
CONTINUOUS
 62
      32
  5
73C
 10
-154.31325878
 20
280.47874018
 30
0.0
  0
VERTEX
  8
ZUWAKU
  6
CONTINUOUS
 62
      32
  5
73D
 10
-154.2895261
 20
280.53682922
 30
0.0
  0
VERTEX
  8
ZUWAKU
  6
CONTINUOUS
 62
      32
  5
73E
 10
-154.26671456
 20
280.59501441
 30
0.0
  0
VERTEX
  8
ZUWAKU
  6
CONTINUOUS
 62
      32
  5
73F
 10
-154.2448468
 20
280.65323794
 30
0.0
  0
VERTEX
  8
ZUWAKU
  6
CONTINUOUS
 62
      32
  5
740
 10
-154.22394456
 20
280.71144196
 30
0.0
  0
VERTEX
  8
ZUWAKU
  6
CONTINUOUS
 62
      32
  5
741
 10
-154.20402861
 20
280.76956864
 30
0.0
  0
VERTEX
  8
ZUWAKU
  6
CONTINUOUS
 62
      32
  5
742
 10
-154.18511874
 20
280.82756022
 30
0.0
  0
VERTEX
  8
ZUWAKU
  6
CONTINUOUS
 62
      32
  5
743
 10
-154.16723373
 20
280.88535908
 30
0.0
  0
VERTEX
  8
ZUWAKU
  6
CONTINUOUS
 62
      32
  5
744
 10
-154.15039136
 20
280.9429078
 30
0.0
  0
VERTEX
  8
ZUWAKU
  6
CONTINUOUS
 62
      32
  5
745
 10
-154.13460836
 20
281.00014918
 30
0.0
  0
VERTEX
  8
ZUWAKU
  6
CONTINUOUS
 62
      32
  5
746
 10
-154.11990041
 20
281.05702636
 30
0.0
  0
VERTEX
  8
ZUWAKU
  6
CONTINUOUS
 62
      32
  5
747
 10
-154.10628214
 20
281.11348281
 30
0.0
  0
VERTEX
  8
ZUWAKU
  6
CONTINUOUS
 62
      32
  5
748
 10
-154.09376706
 20
281.16946245
 30
0.0
  0
VERTEX
  8
ZUWAKU
  6
CONTINUOUS
 62
      32
  5
749
 10
-154.08236761
 20
281.22490966
 30
0.0
  0
VERTEX
  8
ZUWAKU
  6
CONTINUOUS
 62
      32
  5
74A
 10
-154.07209513
 20
281.27976933
 30
0.0
  0
VERTEX
  8
ZUWAKU
  6
CONTINUOUS
 62
      32
  5
74B
 10
-154.06295982
 20
281.33398696
 30
0.0
  0
VERTEX
  8
ZUWAKU
  6
CONTINUOUS
 62
      32
  5
74C
 10
-154.05497075
 20
281.38750868
 30
0.0
  0
VERTEX
  8
ZUWAKU
  6
CONTINUOUS
 62
      32
  5
74D
 10
-154.04813586
 20
281.44028131
 30
0.0
  0
VERTEX
  8
ZUWAKU
  6
CONTINUOUS
 62
      32
  5
74E
 10
-154.04246195
 20
281.49225241
 30
0.0
  0
VERTEX
  8
ZUWAKU
  6
CONTINUOUS
 62
      32
  5
74F
 10
-154.03795465
 20
281.54337034
 30
0.0
  0
VERTEX
  8
ZUWAKU
  6
CONTINUOUS
 62
      32
  5
750
 10
-154.03461844
 20
281.59358431
 30
0.0
  0
VERTEX
  8
ZUWAKU
  6
CONTINUOUS
 62
      32
  5
751
 10
-154.03245663
 20
281.64284443
 30
0.0
  0
VERTEX
  8
ZUWAKU
  6
CONTINUOUS
 62
      32
  5
752
 10
-154.03147138
 20
281.69110176
 30
0.0
  0
VERTEX
  8
ZUWAKU
  6
CONTINUOUS
 62
      32
  5
753
 10
-154.03166366
 20
281.73830834
 30
0.0
  0
VERTEX
  8
ZUWAKU
  6
CONTINUOUS
 62
      32
  5
754
 10
-154.03303328
 20
281.78441727
 30
0.0
  0
VERTEX
  8
ZUWAKU
  6
CONTINUOUS
 62
      32
  5
755
 10
-154.03557888
 20
281.82938273
 30
0.0
  0
VERTEX
  8
ZUWAKU
  6
CONTINUOUS
 62
      32
  5
756
 10
-154.03929794
 20
281.87316004
 30
0.0
  0
VERTEX
  8
ZUWAKU
  6
CONTINUOUS
 62
      32
  5
757
 10
-154.04418674
 20
281.91570572
 30
0.0
  0
VERTEX
  8
ZUWAKU
  6
CONTINUOUS
 62
      32
  5
758
 10
-154.05024045
 20
281.95697748
 30
0.0
  0
VERTEX
  8
ZUWAKU
  6
CONTINUOUS
 62
      32
  5
759
 10
-154.05745304
 20
281.99693431
 30
0.0
  0
VERTEX
  8
ZUWAKU
  6
CONTINUOUS
 62
      32
  5
75A
 10
-154.06581735
 20
282.03553652
 30
0.0
  0
VERTEX
  8
ZUWAKU
  6
CONTINUOUS
 62
      32
  5
75B
 10
-154.07532506
 20
282.07274574
 30
0.0
  0
VERTEX
  8
ZUWAKU
  6
CONTINUOUS
 62
      32
  5
75C
 10
-154.08596673
 20
282.10852502
 30
0.0
  0
VERTEX
  8
ZUWAKU
  6
CONTINUOUS
 62
      32
  5
75D
 10
-154.09773178
 20
282.14283878
 30
0.0
  0
VERTEX
  8
ZUWAKU
  6
CONTINUOUS
 62
      32
  5
75E
 10
-154.11060853
 20
282.17565295
 30
0.0
  0
VERTEX
  8
ZUWAKU
  6
CONTINUOUS
 62
      32
  5
75F
 10
-154.12458418
 20
282.20693492
 30
0.0
  0
VERTEX
  8
ZUWAKU
  6
CONTINUOUS
 62
      32
  5
760
 10
-154.13964485
 20
282.2366536
 30
0.0
  0
VERTEX
  8
ZUWAKU
  6
CONTINUOUS
 62
      32
  5
761
 10
-154.15577556
 20
282.26477947
 30
0.0
  0
VERTEX
  8
ZUWAKU
  6
CONTINUOUS
 62
      32
  5
762
 10
-154.1729603
 20
282.29128457
 30
0.0
  0
VERTEX
  8
ZUWAKU
  6
CONTINUOUS
 62
      32
  5
763
 10
-154.19118198
 20
282.31614258
 30
0.0
  0
VERTEX
  8
ZUWAKU
  6
CONTINUOUS
 62
      32
  5
764
 10
-154.2104225
 20
282.33932879
 30
0.0
  0
VERTEX
  8
ZUWAKU
  6
CONTINUOUS
 62
      32
  5
765
 10
-154.23066275
 20
282.36082017
 30
0.0
  0
VERTEX
  8
ZUWAKU
  6
CONTINUOUS
 62
      32
  5
766
 10
-154.25188261
 20
282.38059536
 30
0.0
  0
VERTEX
  8
ZUWAKU
  6
CONTINUOUS
 62
      32
  5
767
 10
-154.274061
 20
282.39863471
 30
0.0
  0
VERTEX
  8
ZUWAKU
  6
CONTINUOUS
 62
      32
  5
768
 10
-154.29717588
 20
282.4149203
 30
0.0
  0
VERTEX
  8
ZUWAKU
  6
CONTINUOUS
 62
      32
  5
769
 10
-154.32120429
 20
282.42943595
 30
0.0
  0
VERTEX
  8
ZUWAKU
  6
CONTINUOUS
 62
      32
  5
76A
 10
-154.34612234
 20
282.44216723
 30
0.0
  0
VERTEX
  8
ZUWAKU
  6
CONTINUOUS
 62
      32
  5
76B
 10
-154.37190529
 20
282.4531015
 30
0.0
  0
VERTEX
  8
ZUWAKU
  6
CONTINUOUS
 62
      32
  5
76C
 10
-154.39852751
 20
282.46222788
 30
0.0
  0
VERTEX
  8
ZUWAKU
  6
CONTINUOUS
 62
      32
  5
76D
 10
-154.42596254
 20
282.46953732
 30
0.0
  0
VERTEX
  8
ZUWAKU
  6
CONTINUOUS
 62
      32
  5
76E
 10
-154.45418314
 20
282.47502255
 30
0.0
  0
VERTEX
  8
ZUWAKU
  6
CONTINUOUS
 62
      32
  5
76F
 10
-154.48316126
 20
282.47867811
 30
0.0
  0
VERTEX
  8
ZUWAKU
  6
CONTINUOUS
 62
      32
  5
770
 10
-154.5128681
 20
282.48050038
 30
0.0
  0
VERTEX
  8
ZUWAKU
  6
CONTINUOUS
 62
      32
  5
771
 10
-154.54327416
 20
282.48048755
 30
0.0
  0
VERTEX
  8
ZUWAKU
  6
CONTINUOUS
 62
      32
  5
772
 10
-154.57434921
 20
282.47863963
 30
0.0
  0
VERTEX
  8
ZUWAKU
  6
CONTINUOUS
 62
      32
  5
773
 10
-154.60606238
 20
282.47495845
 30
0.0
  0
VERTEX
  8
ZUWAKU
  6
CONTINUOUS
 62
      32
  5
774
 10
-154.63838216
 20
282.46944767
 30
0.0
  0
VERTEX
  8
ZUWAKU
  6
CONTINUOUS
 62
      32
  5
775
 10
-154.67127644
 20
282.46211277
 30
0.0
  0
VERTEX
  8
ZUWAKU
  6
CONTINUOUS
 62
      32
  5
776
 10
-154.70471253
 20
282.45296103
 30
0.0
  0
VERTEX
  8
ZUWAKU
  6
CONTINUOUS
 62
      32
  5
777
 10
-154.73865721
 20
282.44200156
 30
0.0
  0
VERTEX
  8
ZUWAKU
  6
CONTINUOUS
 62
      32
  5
778
 10
-154.77307676
 20
282.42924523
 30
0.0
  0
VERTEX
  8
ZUWAKU
  6
CONTINUOUS
 62
      32
  5
779
 10
-154.80793697
 20
282.41470473
 30
0.0
  0
VERTEX
  8
ZUWAKU
  6
CONTINUOUS
 62
      32
  5
77A
 10
-154.8432032
 20
282.3983945
 30
0.0
  0
VERTEX
  8
ZUWAKU
  6
CONTINUOUS
 62
      32
  5
77B
 10
-154.87884041
 20
282.38033074
 30
0.0
  0
VERTEX
  8
ZUWAKU
  6
CONTINUOUS
 62
      32
  5
77C
 10
-154.9148132
 20
282.36053142
 30
0.0
  0
VERTEX
  8
ZUWAKU
  6
CONTINUOUS
 62
      32
  5
77D
 10
-154.95108582
 20
282.33901619
 30
0.0
  0
VERTEX
  8
ZUWAKU
  6
CONTINUOUS
 62
      32
  5
77E
 10
-154.98762224
 20
282.31580643
 30
0.0
  0
VERTEX
  8
ZUWAKU
  6
CONTINUOUS
 62
      32
  5
77F
 10
-155.02438613
 20
282.29092522
 30
0.0
  0
VERTEX
  8
ZUWAKU
  6
CONTINUOUS
 62
      32
  5
780
 10
-155.06134099
 20
282.26439726
 30
0.0
  0
VERTEX
  8
ZUWAKU
  6
CONTINUOUS
 62
      32
  5
781
 10
-155.09845008
 20
282.23624893
 30
0.0
  0
VERTEX
  8
ZUWAKU
  6
CONTINUOUS
 62
      32
  5
782
 10
-155.13567655
 20
282.20650818
 30
0.0
  0
VERTEX
  8
ZUWAKU
  6
CONTINUOUS
 62
      32
  5
783
 10
-155.17298339
 20
282.17520457
 30
0.0
  0
VERTEX
  8
ZUWAKU
  6
CONTINUOUS
 62
      32
  5
784
 10
-155.21033353
 20
282.1423692
 30
0.0
  0
VERTEX
  8
ZUWAKU
  6
CONTINUOUS
 62
      32
  5
785
 10
-155.24768988
 20
282.1080347
 30
0.0
  0
VERTEX
  8
ZUWAKU
  6
CONTINUOUS
 62
      32
  5
786
 10
-155.28501531
 20
282.07223518
 30
0.0
  0
VERTEX
  8
ZUWAKU
  6
CONTINUOUS
 62
      32
  5
787
 10
-155.32227273
 20
282.03500622
 30
0.0
  0
VERTEX
  8
ZUWAKU
  6
CONTINUOUS
 62
      32
  5
788
 10
-155.35942512
 20
281.9963848
 30
0.0
  0
VERTEX
  8
ZUWAKU
  6
CONTINUOUS
 62
      32
  5
789
 10
-155.39643557
 20
281.9564093
 30
0.0
  0
VERTEX
  8
ZUWAKU
  6
CONTINUOUS
 62
      32
  5
78A
 10
-155.43326731
 20
281.91511944
 30
0.0
  0
VERTEX
  8
ZUWAKU
  6
CONTINUOUS
 62
      32
  5
78B
 10
-155.46988373
 20
281.87255625
 30
0.0
  0
VERTEX
  8
ZUWAKU
  6
CONTINUOUS
 62
      32
  5
78C
 10
-155.50624846
 20
281.82876201
 30
0.0
  0
VERTEX
  8
ZUWAKU
  6
CONTINUOUS
 62
      32
  5
78D
 10
-155.54232536
 20
281.78378025
 30
0.0
  0
VERTEX
  8
ZUWAKU
  6
CONTINUOUS
 62
      32
  5
78E
 10
-155.57807859
 20
281.73765566
 30
0.0
  0
VERTEX
  8
ZUWAKU
  6
CONTINUOUS
 62
      32
  5
78F
 10
-155.61347262
 20
281.69043406
 30
0.0
  0
VERTEX
  8
ZUWAKU
  6
CONTINUOUS
 62
      32
  5
790
 10
-155.64847228
 20
281.64216238
 30
0.0
  0
VERTEX
  8
ZUWAKU
  6
CONTINUOUS
 62
      32
  5
791
 10
-155.68304279
 20
281.59288857
 30
0.0
  0
VERTEX
  8
ZUWAKU
  6
CONTINUOUS
 62
      32
  5
792
 10
-155.71714982
 20
281.54266161
 30
0.0
  0
VERTEX
  8
ZUWAKU
  6
CONTINUOUS
 62
      32
  5
793
 10
-155.75075946
 20
281.4915314
 30
0.0
  0
VERTEX
  8
ZUWAKU
  6
CONTINUOUS
 62
      32
  5
794
 10
-155.78383833
 20
281.43954873
 30
0.0
  0
VERTEX
  8
ZUWAKU
  6
CONTINUOUS
 62
      32
  5
795
 10
-155.81635355
 20
281.38676527
 30
0.0
  0
VERTEX
  8
ZUWAKU
  6
CONTINUOUS
 62
      32
  5
796
 10
-155.84827282
 20
281.33323345
 30
0.0
  0
VERTEX
  8
ZUWAKU
  6
CONTINUOUS
 62
      32
  5
797
 10
-155.87956442
 20
281.27900647
 30
0.0
  0
VERTEX
  8
ZUWAKU
  6
CONTINUOUS
 62
      32
  5
798
 10
-155.91019726
 20
281.2241382
 30
0.0
  0
VERTEX
  8
ZUWAKU
  6
CONTINUOUS
 62
      32
  5
799
 10
-155.9401409
 20
281.16868317
 30
0.0
  0
VERTEX
  8
ZUWAKU
  6
CONTINUOUS
 62
      32
  5
79A
 10
-155.9693656
 20
281.11269648
 30
0.0
  0
VERTEX
  8
ZUWAKU
  6
CONTINUOUS
 62
      32
  5
79B
 10
-155.9978423
 20
281.05623375
 30
0.0
  0
VERTEX
  8
ZUWAKU
  6
CONTINUOUS
 62
      32
  5
79C
 10
-156.02554273
 20
280.99935109
 30
0.0
  0
VERTEX
  8
ZUWAKU
  6
CONTINUOUS
 62
      32
  5
79D
 10
-156.05243935
 20
280.94210501
 30
0.0
  0
VERTEX
  8
ZUWAKU
  6
CONTINUOUS
 62
      32
  5
79E
 10
-156.07850544
 20
280.88455241
 30
0.0
  0
VERTEX
  8
ZUWAKU
  6
CONTINUOUS
 62
      32
  5
79F
 10
-156.1037151
 20
280.82675045
 30
0.0
  0
VERTEX
  8
ZUWAKU
  6
CONTINUOUS
 62
      32
  5
7A0
 10
-156.12804327
 20
280.76875659
 30
0.0
  0
VERTEX
  8
ZUWAKU
  6
CONTINUOUS
 62
      32
  5
7A1
 10
-156.1514658
 20
280.71062843
 30
0.0
  0
VERTEX
  8
ZUWAKU
  6
CONTINUOUS
 62
      32
  5
7A2
 10
-156.17395941
 20
280.65242373
 30
0.0
  0
VERTEX
  8
ZUWAKU
  6
CONTINUOUS
 62
      32
  5
7A3
 10
-156.19550173
 20
280.59420034
 30
0.0
  0
VERTEX
  8
ZUWAKU
  6
CONTINUOUS
 62
      32
  5
7A4
 10
-156.21607138
 20
280.5360161
 30
0.0
  0
VERTEX
  8
ZUWAKU
  6
CONTINUOUS
 62
      32
  5
7A5
 10
-156.23564791
 20
280.47792882
 30
0.0
  0
VERTEX
  8
ZUWAKU
  6
CONTINUOUS
 62
      32
  5
7A6
 10
-156.25421187
 20
280.41999622
 30
0.0
  0
VERTEX
  8
ZUWAKU
  6
CONTINUOUS
 62
      32
  5
7A7
 10
-156.27174482
 20
280.36227586
 30
0.0
  0
VERTEX
  8
ZUWAKU
  6
CONTINUOUS
 62
      32
  5
7A8
 10
-156.28822933
 20
280.30482509
 30
0.0
  0
VERTEX
  8
ZUWAKU
  6
CONTINUOUS
 62
      32
  5
7A9
 10
-156.30364903
 20
280.24770101
 30
0.0
  0
VERTEX
  8
ZUWAKU
  6
CONTINUOUS
 62
      32
  5
7AA
 10
-156.31798859
 20
280.19096036
 30
0.0
  0
VERTEX
  8
ZUWAKU
  6
CONTINUOUS
 62
      32
  5
7AB
 10
-156.33123376
 20
280.13465953
 30
0.0
  0
VERTEX
  8
ZUWAKU
  6
CONTINUOUS
 62
      32
  5
7AC
 10
-156.3433714
 20
280.07885445
 30
0.0
  0
VERTEX
  8
ZUWAKU
  6
CONTINUOUS
 62
      32
  5
7AD
 10
-156.35438942
 20
280.02360058
 30
0.0
  0
VERTEX
  8
ZUWAKU
  6
CONTINUOUS
 62
      32
  5
7AE
 10
-156.36427689
 20
279.96895282
 30
0.0
  0
VERTEX
  8
ZUWAKU
  6
CONTINUOUS
 62
      32
  5
7AF
 10
-156.37302399
 20
279.91496546
 30
0.0
  0
VERTEX
  8
ZUWAKU
  6
CONTINUOUS
 62
      32
  5
7B0
 10
-156.38062202
 20
279.86169215
 30
0.0
  0
VERTEX
  8
ZUWAKU
  6
CONTINUOUS
 62
      32
  5
7B1
 10
-156.38706343
 20
279.80918582
 30
0.0
  0
VERTEX
  8
ZUWAKU
  6
CONTINUOUS
 62
      32
  5
7B2
 10
-156.39234182
 20
279.75749864
 30
0.0
  0
VERTEX
  8
ZUWAKU
  6
CONTINUOUS
 62
      32
  5
7B3
 10
-156.39645195
 20
279.70668198
 30
0.0
  0
VERTEX
  8
ZUWAKU
  6
CONTINUOUS
 62
      32
  5
7B4
 10
-156.39938974
 20
279.65678631
 30
0.0
  0
VERTEX
  8
ZUWAKU
  6
CONTINUOUS
 62
      32
  5
7B5
 10
-156.40115226
 20
279.60786122
 30
0.0
  0
VERTEX
  8
ZUWAKU
  6
CONTINUOUS
 62
      32
  5
7B6
 10
-156.40173776
 20
279.55995533
 30
0.0
  0
VERTEX
  8
ZUWAKU
  6
CONTINUOUS
 62
      32
  5
7B7
 10
-156.40114566
 20
279.51311623
 30
0.0
  0
VERTEX
  8
ZUWAKU
  6
CONTINUOUS
 62
      32
  5
7B8
 10
-156.39937655
 20
279.46739045
 30
0.0
  0
VERTEX
  8
ZUWAKU
  6
CONTINUOUS
 62
      32
  5
7B9
 10
-156.39643219
 20
279.42282345
 30
0.0
  0
VERTEX
  8
ZUWAKU
  6
CONTINUOUS
 62
      32
  5
7BA
 10
-156.3923155
 20
279.37945949
 30
0.0
  0
VERTEX
  8
ZUWAKU
  6
CONTINUOUS
 62
      32
  5
7BB
 10
-156.38703058
 20
279.33734166
 30
0.0
  0
VERTEX
  8
ZUWAKU
  6
CONTINUOUS
 62
      32
  5
7BC
 10
-156.38058267
 20
279.29651182
 30
0.0
  0
VERTEX
  8
ZUWAKU
  6
CONTINUOUS
 62
      32
  5
7BD
 10
-156.37297818
 20
279.25701053
 30
0.0
  0
VERTEX
  8
ZUWAKU
  6
CONTINUOUS
 62
      32
  5
7BE
 10
-156.36422467
 20
279.21887704
 30
0.0
  0
VERTEX
  8
ZUWAKU
  6
CONTINUOUS
 62
      32
  5
7BF
 10
-156.35433084
 20
279.18214925
 30
0.0
  0
VERTEX
  8
ZUWAKU
  6
CONTINUOUS
 62
      32
  5
7C0
 10
-156.34330651
 20
279.14686364
 30
0.0
  0
VERTEX
  8
ZUWAKU
  6
CONTINUOUS
 62
      32
  5
7C1
 10
-156.33116264
 20
279.11305527
 30
0.0
  0
SEQEND
  8
ZUWAKU
  6
CONTINUOUS
 62
      32
  5
7C2
  0
LINE
  8
ZUWAKU
  6
CONTINUOUS
 62
      32
  5
282
 10
-157.99063012
 20
279.00991341
 30
0.0
 11
-156.66291679
 21
279.00991341
 31
0.0
  0
ARC
  8
ZUWAKU
  6
CONTINUOUS
 62
      32
  5
283
 10
-157.12959748
 20
281.09609636
 30
0.0
 40
2.76374418
 50
313.58286141
 51
326.24939265
  0
ARC
  8
ZUWAKU
  6
CONTINUOUS
 62
      32
  5
284
 10
-157.12959748
 20
281.09609636
 30
0.0
 40
2.76374418
 50
281.08479974
 51
298.5950739
  0
LINE
  8
ZUWAKU
  6
CONTINUOUS
 62
      32
  5
285
 10
-154.89209735
 20
278.38391341
 30
0.0
 11
-153.875
 21
278.38391341
 31
0.0
  0
LINE
  8
ZUWAKU
  6
CONTINUOUS
 62
      32
  5
286
 10
-154.02059538
 20
279.12361572
 30
0.0
 11
-152.31963505
 21
280.82457605
 31
0.0
  0
LINE
  8
ZUWAKU
  6
CONTINUOUS
 62
      32
  5
287
 10
-152.26103178
 20
279.00991341
 30
0.0
 11
-151.98600295
 21
280.6600864
 31
0.0
  0
LINE
  8
ZUWAKU
  6
CONTINUOUS
 62
      32
  5
288
 10
-154.85709742
 20
279.00991341
 30
0.0
 11
-154.248
 21
279.00991341
 31
0.0
  0
ARC
  8
ZUWAKU
  6
CONTINUOUS
 62
      32
  5
289
 10
-152.17759649
 20
280.69201865
 30
0.0
 40
0.19428437
 50
350.53767779
 51
496.97750576
  0
POLYLINE
  8
ZUWAKU
  6
CONTINUOUS
 62
      32
  5
28A
 66
       1
 10
0.0
 20
0.0
 30
0.0
 70
     129
  0
VERTEX
  8
ZUWAKU
  6
CONTINUOUS
 62
      32
  5
7C3
 10
-149.70766291
 20
279.25273795
 30
0.0
  0
VERTEX
  8
ZUWAKU
  6
CONTINUOUS
 62
      32
  5
7C4
 10
-149.69993777
 20
279.24851554
 30
0.0
  0
VERTEX
  8
ZUWAKU
  6
CONTINUOUS
 62
      32
  5
7C5
 10
-149.69190626
 20
279.24483936
 30
0.0
  0
VERTEX
  8
ZUWAKU
  6
CONTINUOUS
 62
      32
  5
7C6
 10
-149.68358246
 20
279.24171586
 30
0.0
  0
VERTEX
  8
ZUWAKU
  6
CONTINUOUS
 62
      32
  5
7C7
 10
-149.67498098
 20
279.23915053
 30
0.0
  0
VERTEX
  8
ZUWAKU
  6
CONTINUOUS
 62
      32
  5
7C8
 10
-149.66611691
 20
279.23714785
 30
0.0
  0
VERTEX
  8
ZUWAKU
  6
CONTINUOUS
 62
      32
  5
7C9
 10
-149.6570058
 20
279.23571135
 30
0.0
  0
VERTEX
  8
ZUWAKU
  6
CONTINUOUS
 62
      32
  5
7CA
 10
-149.64766363
 20
279.23484355
 30
0.0
  0
VERTEX
  8
ZUWAKU
  6
CONTINUOUS
 62
      32
  5
7CB
 10
-149.63810679
 20
279.23454596
 30
0.0
  0
VERTEX
  8
ZUWAKU
  6
CONTINUOUS
 62
      32
  5
7CC
 10
-149.62835205
 20
279.23481911
 30
0.0
  0
VERTEX
  8
ZUWAKU
  6
CONTINUOUS
 62
      32
  5
7CD
 10
-149.61841652
 20
279.23566253
 30
0.0
  0
VERTEX
  8
ZUWAKU
  6
CONTINUOUS
 62
      32
  5
7CE
 10
-149.60831763
 20
279.23707472
 30
0.0
  0
VERTEX
  8
ZUWAKU
  6
CONTINUOUS
 62
      32
  5
7CF
 10
-149.5980731
 20
279.23905322
 30
0.0
  0
VERTEX
  8
ZUWAKU
  6
CONTINUOUS
 62
      32
  5
7D0
 10
-149.5877009
 20
279.24159455
 30
0.0
  0
VERTEX
  8
ZUWAKU
  6
CONTINUOUS
 62
      32
  5
7D1
 10
-149.57721922
 20
279.24469425
 30
0.0
  0
VERTEX
  8
ZUWAKU
  6
CONTINUOUS
 62
      32
  5
7D2
 10
-149.56664647
 20
279.24834689
 30
0.0
  0
VERTEX
  8
ZUWAKU
  6
CONTINUOUS
 62
      32
  5
7D3
 10
-149.55600117
 20
279.25254606
 30
0.0
  0
VERTEX
  8
ZUWAKU
  6
CONTINUOUS
 62
      32
  5
7D4
 10
-149.54530202
 20
279.25728438
 30
0.0
  0
VERTEX
  8
ZUWAKU
  6
CONTINUOUS
 62
      32
  5
7D5
 10
-149.53456777
 20
279.26255356
 30
0.0
  0
VERTEX
  8
ZUWAKU
  6
CONTINUOUS
 62
      32
  5
7D6
 10
-149.52381727
 20
279.26834434
 30
0.0
  0
VERTEX
  8
ZUWAKU
  6
CONTINUOUS
 62
      32
  5
7D7
 10
-149.51306937
 20
279.27464657
 30
0.0
  0
VERTEX
  8
ZUWAKU
  6
CONTINUOUS
 62
      32
  5
7D8
 10
-149.50234292
 20
279.28144919
 30
0.0
  0
VERTEX
  8
ZUWAKU
  6
CONTINUOUS
 62
      32
  5
7D9
 10
-149.49165674
 20
279.28874026
 30
0.0
  0
VERTEX
  8
ZUWAKU
  6
CONTINUOUS
 62
      32
  5
7DA
 10
-149.48102959
 20
279.296507
 30
0.0
  0
VERTEX
  8
ZUWAKU
  6
CONTINUOUS
 62
      32
  5
7DB
 10
-149.4704801
 20
279.30473577
 30
0.0
  0
VERTEX
  8
ZUWAKU
  6
CONTINUOUS
 62
      32
  5
7DC
 10
-149.46002679
 20
279.31341215
 30
0.0
  0
VERTEX
  8
ZUWAKU
  6
CONTINUOUS
 62
      32
  5
7DD
 10
-149.44968798
 20
279.32252091
 30
0.0
  0
VERTEX
  8
ZUWAKU
  6
CONTINUOUS
 62
      32
  5
7DE
 10
-149.43948182
 20
279.33204607
 30
0.0
  0
VERTEX
  8
ZUWAKU
  6
CONTINUOUS
 62
      32
  5
7DF
 10
-149.42942622
 20
279.34197093
 30
0.0
  0
VERTEX
  8
ZUWAKU
  6
CONTINUOUS
 62
      32
  5
7E0
 10
-149.41953881
 20
279.35227806
 30
0.0
  0
VERTEX
  8
ZUWAKU
  6
CONTINUOUS
 62
      32
  5
7E1
 10
-149.40983694
 20
279.36294939
 30
0.0
  0
VERTEX
  8
ZUWAKU
  6
CONTINUOUS
 62
      32
  5
7E2
 10
-149.40033764
 20
279.37396619
 30
0.0
  0
VERTEX
  8
ZUWAKU
  6
CONTINUOUS
 62
      32
  5
7E3
 10
-149.39105755
 20
279.38530915
 30
0.0
  0
VERTEX
  8
ZUWAKU
  6
CONTINUOUS
 62
      32
  5
7E4
 10
-149.38201298
 20
279.39695835
 30
0.0
  0
VERTEX
  8
ZUWAKU
  6
CONTINUOUS
 62
      32
  5
7E5
 10
-149.37321978
 20
279.40889337
 30
0.0
  0
VERTEX
  8
ZUWAKU
  6
CONTINUOUS
 62
      32
  5
7E6
 10
-149.36469338
 20
279.42109326
 30
0.0
  0
VERTEX
  8
ZUWAKU
  6
CONTINUOUS
 62
      32
  5
7E7
 10
-149.35644873
 20
279.43353663
 30
0.0
  0
VERTEX
  8
ZUWAKU
  6
CONTINUOUS
 62
      32
  5
7E8
 10
-149.34850031
 20
279.44620164
 30
0.0
  0
VERTEX
  8
ZUWAKU
  6
CONTINUOUS
 62
      32
  5
7E9
 10
-149.34086205
 20
279.45906607
 30
0.0
  0
VERTEX
  8
ZUWAKU
  6
CONTINUOUS
 62
      32
  5
7EA
 10
-149.33354736
 20
279.47210735
 30
0.0
  0
VERTEX
  8
ZUWAKU
  6
CONTINUOUS
 62
      32
  5
7EB
 10
-149.32656907
 20
279.48530262
 30
0.0
  0
VERTEX
  8
ZUWAKU
  6
CONTINUOUS
 62
      32
  5
7EC
 10
-149.31993942
 20
279.49862871
 30
0.0
  0
VERTEX
  8
ZUWAKU
  6
CONTINUOUS
 62
      32
  5
7ED
 10
-149.31367004
 20
279.51206224
 30
0.0
  0
VERTEX
  8
ZUWAKU
  6
CONTINUOUS
 62
      32
  5
7EE
 10
-149.30777194
 20
279.52557966
 30
0.0
  0
VERTEX
  8
ZUWAKU
  6
CONTINUOUS
 62
      32
  5
7EF
 10
-149.30225545
 20
279.53915725
 30
0.0
  0
VERTEX
  8
ZUWAKU
  6
CONTINUOUS
 62
      32
  5
7F0
 10
-149.29713025
 20
279.55277119
 30
0.0
  0
VERTEX
  8
ZUWAKU
  6
CONTINUOUS
 62
      32
  5
7F1
 10
-149.29240534
 20
279.56639759
 30
0.0
  0
VERTEX
  8
ZUWAKU
  6
CONTINUOUS
 62
      32
  5
7F2
 10
-149.28808901
 20
279.58001254
 30
0.0
  0
VERTEX
  8
ZUWAKU
  6
CONTINUOUS
 62
      32
  5
7F3
 10
-149.28418882
 20
279.59359218
 30
0.0
  0
VERTEX
  8
ZUWAKU
  6
CONTINUOUS
 62
      32
  5
7F4
 10
-149.28071163
 20
279.60711266
 30
0.0
  0
VERTEX
  8
ZUWAKU
  6
CONTINUOUS
 62
      32
  5
7F5
 10
-149.27766353
 20
279.62055027
 30
0.0
  0
VERTEX
  8
ZUWAKU
  6
CONTINUOUS
 62
      32
  5
7F6
 10
-149.27504986
 20
279.63388144
 30
0.0
  0
VERTEX
  8
ZUWAKU
  6
CONTINUOUS
 62
      32
  5
7F7
 10
-149.27287522
 20
279.64708278
 30
0.0
  0
VERTEX
  8
ZUWAKU
  6
CONTINUOUS
 62
      32
  5
7F8
 10
-149.27114341
 20
279.66013113
 30
0.0
  0
VERTEX
  8
ZUWAKU
  6
CONTINUOUS
 62
      32
  5
7F9
 10
-149.26985748
 20
279.6730036
 30
0.0
  0
VERTEX
  8
ZUWAKU
  6
CONTINUOUS
 62
      32
  5
7FA
 10
-149.26901969
 20
279.68567761
 30
0.0
  0
VERTEX
  8
ZUWAKU
  6
CONTINUOUS
 62
      32
  5
7FB
 10
-149.26863149
 20
279.69813091
 30
0.0
  0
VERTEX
  8
ZUWAKU
  6
CONTINUOUS
 62
      32
  5
7FC
 10
-149.26869358
 20
279.71034167
 30
0.0
  0
VERTEX
  8
ZUWAKU
  6
CONTINUOUS
 62
      32
  5
7FD
 10
-149.26920585
 20
279.72228846
 30
0.0
  0
VERTEX
  8
ZUWAKU
  6
CONTINUOUS
 62
      32
  5
7FE
 10
-149.27016739
 20
279.73395033
 30
0.0
  0
VERTEX
  8
ZUWAKU
  6
CONTINUOUS
 62
      32
  5
7FF
 10
-149.27157651
 20
279.74530681
 30
0.0
  0
VERTEX
  8
ZUWAKU
  6
CONTINUOUS
 62
      32
  5
800
 10
-149.27343076
 20
279.75633798
 30
0.0
  0
VERTEX
  8
ZUWAKU
  6
CONTINUOUS
 62
      32
  5
801
 10
-149.27572687
 20
279.76702449
 30
0.0
  0
VERTEX
  8
ZUWAKU
  6
CONTINUOUS
 62
      32
  5
802
 10
-149.27846081
 20
279.77734759
 30
0.0
  0
VERTEX
  8
ZUWAKU
  6
CONTINUOUS
 62
      32
  5
803
 10
-149.28162779
 20
279.78728918
 30
0.0
  0
VERTEX
  8
ZUWAKU
  6
CONTINUOUS
 62
      32
  5
804
 10
-149.28522226
 20
279.7968318
 30
0.0
  0
VERTEX
  8
ZUWAKU
  6
CONTINUOUS
 62
      32
  5
805
 10
-149.2892379
 20
279.80595872
 30
0.0
  0
VERTEX
  8
ZUWAKU
  6
CONTINUOUS
 62
      32
  5
806
 10
-149.29366768
 20
279.81465393
 30
0.0
  0
VERTEX
  8
ZUWAKU
  6
CONTINUOUS
 62
      32
  5
807
 10
-149.29850382
 20
279.82290217
 30
0.0
  0
VERTEX
  8
ZUWAKU
  6
CONTINUOUS
 62
      32
  5
808
 10
-149.30373783
 20
279.83068898
 30
0.0
  0
VERTEX
  8
ZUWAKU
  6
CONTINUOUS
 62
      32
  5
809
 10
-149.30936054
 20
279.83800069
 30
0.0
  0
VERTEX
  8
ZUWAKU
  6
CONTINUOUS
 62
      32
  5
80A
 10
-149.31536208
 20
279.84482447
 30
0.0
  0
VERTEX
  8
ZUWAKU
  6
CONTINUOUS
 62
      32
  5
80B
 10
-149.32173192
 20
279.85114836
 30
0.0
  0
VERTEX
  8
ZUWAKU
  6
CONTINUOUS
 62
      32
  5
80C
 10
-149.32845889
 20
279.85696125
 30
0.0
  0
VERTEX
  8
ZUWAKU
  6
CONTINUOUS
 62
      32
  5
80D
 10
-149.33553118
 20
279.86225296
 30
0.0
  0
VERTEX
  8
ZUWAKU
  6
CONTINUOUS
 62
      32
  5
80E
 10
-149.34293639
 20
279.86701419
 30
0.0
  0
VERTEX
  8
ZUWAKU
  6
CONTINUOUS
 62
      32
  5
80F
 10
-149.35066153
 20
279.8712366
 30
0.0
  0
VERTEX
  8
ZUWAKU
  6
CONTINUOUS
 62
      32
  5
810
 10
-149.35869305
 20
279.87491278
 30
0.0
  0
VERTEX
  8
ZUWAKU
  6
CONTINUOUS
 62
      32
  5
811
 10
-149.36701685
 20
279.87803628
 30
0.0
  0
VERTEX
  8
ZUWAKU
  6
CONTINUOUS
 62
      32
  5
812
 10
-149.37561833
 20
279.88060162
 30
0.0
  0
VERTEX
  8
ZUWAKU
  6
CONTINUOUS
 62
      32
  5
813
 10
-149.3844824
 20
279.88260429
 30
0.0
  0
VERTEX
  8
ZUWAKU
  6
CONTINUOUS
 62
      32
  5
814
 10
-149.39359351
 20
279.88404079
 30
0.0
  0
VERTEX
  8
ZUWAKU
  6
CONTINUOUS
 62
      32
  5
815
 10
-149.40293568
 20
279.88490859
 30
0.0
  0
VERTEX
  8
ZUWAKU
  6
CONTINUOUS
 62
      32
  5
816
 10
-149.41249252
 20
279.88520618
 30
0.0
  0
VERTEX
  8
ZUWAKU
  6
CONTINUOUS
 62
      32
  5
817
 10
-149.42224726
 20
279.88493303
 30
0.0
  0
VERTEX
  8
ZUWAKU
  6
CONTINUOUS
 62
      32
  5
818
 10
-149.43218279
 20
279.88408962
 30
0.0
  0
VERTEX
  8
ZUWAKU
  6
CONTINUOUS
 62
      32
  5
819
 10
-149.44228168
 20
279.88267742
 30
0.0
  0
VERTEX
  8
ZUWAKU
  6
CONTINUOUS
 62
      32
  5
81A
 10
-149.45252621
 20
279.88069893
 30
0.0
  0
VERTEX
  8
ZUWAKU
  6
CONTINUOUS
 62
      32
  5
81B
 10
-149.46289841
 20
279.8781576
 30
0.0
  0
VERTEX
  8
ZUWAKU
  6
CONTINUOUS
 62
      32
  5
81C
 10
-149.47338008
 20
279.87505789
 30
0.0
  0
VERTEX
  8
ZUWAKU
  6
CONTINUOUS
 62
      32
  5
81D
 10
-149.48395284
 20
279.87140525
 30
0.0
  0
VERTEX
  8
ZUWAKU
  6
CONTINUOUS
 62
      32
  5
81E
 10
-149.49459813
 20
279.86720609
 30
0.0
  0
VERTEX
  8
ZUWAKU
  6
CONTINUOUS
 62
      32
  5
81F
 10
-149.50529729
 20
279.86246776
 30
0.0
  0
VERTEX
  8
ZUWAKU
  6
CONTINUOUS
 62
      32
  5
820
 10
-149.51603153
 20
279.85719858
 30
0.0
  0
VERTEX
  8
ZUWAKU
  6
CONTINUOUS
 62
      32
  5
821
 10
-149.52678204
 20
279.8514078
 30
0.0
  0
VERTEX
  8
ZUWAKU
  6
CONTINUOUS
 62
      32
  5
822
 10
-149.53752994
 20
279.84510557
 30
0.0
  0
VERTEX
  8
ZUWAKU
  6
CONTINUOUS
 62
      32
  5
823
 10
-149.54825639
 20
279.83830295
 30
0.0
  0
VERTEX
  8
ZUWAKU
  6
CONTINUOUS
 62
      32
  5
824
 10
-149.55894257
 20
279.83101188
 30
0.0
  0
VERTEX
  8
ZUWAKU
  6
CONTINUOUS
 62
      32
  5
825
 10
-149.56956972
 20
279.82324515
 30
0.0
  0
VERTEX
  8
ZUWAKU
  6
CONTINUOUS
 62
      32
  5
826
 10
-149.58011921
 20
279.81501637
 30
0.0
  0
VERTEX
  8
ZUWAKU
  6
CONTINUOUS
 62
      32
  5
827
 10
-149.59057252
 20
279.80633999
 30
0.0
  0
VERTEX
  8
ZUWAKU
  6
CONTINUOUS
 62
      32
  5
828
 10
-149.60091133
 20
279.79723123
 30
0.0
  0
VERTEX
  8
ZUWAKU
  6
CONTINUOUS
 62
      32
  5
829
 10
-149.61111749
 20
279.78770607
 30
0.0
  0
VERTEX
  8
ZUWAKU
  6
CONTINUOUS
 62
      32
  5
82A
 10
-149.62117309
 20
279.77778122
 30
0.0
  0
VERTEX
  8
ZUWAKU
  6
CONTINUOUS
 62
      32
  5
82B
 10
-149.6310605
 20
279.76747408
 30
0.0
  0
VERTEX
  8
ZUWAKU
  6
CONTINUOUS
 62
      32
  5
82C
 10
-149.64076237
 20
279.75680275
 30
0.0
  0
VERTEX
  8
ZUWAKU
  6
CONTINUOUS
 62
      32
  5
82D
 10
-149.65026167
 20
279.74578595
 30
0.0
  0
VERTEX
  8
ZUWAKU
  6
CONTINUOUS
 62
      32
  5
82E
 10
-149.65954175
 20
279.73444299
 30
0.0
  0
VERTEX
  8
ZUWAKU
  6
CONTINUOUS
 62
      32
  5
82F
 10
-149.66858633
 20
279.72279379
 30
0.0
  0
VERTEX
  8
ZUWAKU
  6
CONTINUOUS
 62
      32
  5
830
 10
-149.67737953
 20
279.71085877
 30
0.0
  0
VERTEX
  8
ZUWAKU
  6
CONTINUOUS
 62
      32
  5
831
 10
-149.68590593
 20
279.69865888
 30
0.0
  0
VERTEX
  8
ZUWAKU
  6
CONTINUOUS
 62
      32
  5
832
 10
-149.69415058
 20
279.68621551
 30
0.0
  0
VERTEX
  8
ZUWAKU
  6
CONTINUOUS
 62
      32
  5
833
 10
-149.702099
 20
279.67355051
 30
0.0
  0
VERTEX
  8
ZUWAKU
  6
CONTINUOUS
 62
      32
  5
834
 10
-149.70973726
 20
279.66068607
 30
0.0
  0
VERTEX
  8
ZUWAKU
  6
CONTINUOUS
 62
      32
  5
835
 10
-149.71705194
 20
279.64764479
 30
0.0
  0
VERTEX
  8
ZUWAKU
  6
CONTINUOUS
 62
      32
  5
836
 10
-149.72403024
 20
279.63444953
 30
0.0
  0
VERTEX
  8
ZUWAKU
  6
CONTINUOUS
 62
      32
  5
837
 10
-149.73065989
 20
279.62112344
 30
0.0
  0
VERTEX
  8
ZUWAKU
  6
CONTINUOUS
 62
      32
  5
838
 10
-149.73692926
 20
279.6076899
 30
0.0
  0
VERTEX
  8
ZUWAKU
  6
CONTINUOUS
 62
      32
  5
839
 10
-149.74282737
 20
279.59417248
 30
0.0
  0
VERTEX
  8
ZUWAKU
  6
CONTINUOUS
 62
      32
  5
83A
 10
-149.74834386
 20
279.58059489
 30
0.0
  0
VERTEX
  8
ZUWAKU
  6
CONTINUOUS
 62
      32
  5
83B
 10
-149.75346906
 20
279.56698096
 30
0.0
  0
VERTEX
  8
ZUWAKU
  6
CONTINUOUS
 62
      32
  5
83C
 10
-149.75819397
 20
279.55335456
 30
0.0
  0
VERTEX
  8
ZUWAKU
  6
CONTINUOUS
 62
      32
  5
83D
 10
-149.7625103
 20
279.5397396
 30
0.0
  0
VERTEX
  8
ZUWAKU
  6
CONTINUOUS
 62
      32
  5
83E
 10
-149.76641048
 20
279.52615997
 30
0.0
  0
VERTEX
  8
ZUWAKU
  6
CONTINUOUS
 62
      32
  5
83F
 10
-149.76988768
 20
279.51263948
 30
0.0
  0
VERTEX
  8
ZUWAKU
  6
CONTINUOUS
 62
      32
  5
840
 10
-149.77293578
 20
279.49920187
 30
0.0
  0
VERTEX
  8
ZUWAKU
  6
CONTINUOUS
 62
      32
  5
841
 10
-149.77554945
 20
279.4858707
 30
0.0
  0
VERTEX
  8
ZUWAKU
  6
CONTINUOUS
 62
      32
  5
842
 10
-149.77772409
 20
279.47266936
 30
0.0
  0
VERTEX
  8
ZUWAKU
  6
CONTINUOUS
 62
      32
  5
843
 10
-149.7794559
 20
279.45962101
 30
0.0
  0
VERTEX
  8
ZUWAKU
  6
CONTINUOUS
 62
      32
  5
844
 10
-149.78074182
 20
279.44674854
 30
0.0
  0
VERTEX
  8
ZUWAKU
  6
CONTINUOUS
 62
      32
  5
845
 10
-149.78157962
 20
279.43407454
 30
0.0
  0
VERTEX
  8
ZUWAKU
  6
CONTINUOUS
 62
      32
  5
846
 10
-149.78196781
 20
279.42162123
 30
0.0
  0
VERTEX
  8
ZUWAKU
  6
CONTINUOUS
 62
      32
  5
847
 10
-149.78190573
 20
279.40941047
 30
0.0
  0
VERTEX
  8
ZUWAKU
  6
CONTINUOUS
 62
      32
  5
848
 10
-149.78139346
 20
279.39746368
 30
0.0
  0
VERTEX
  8
ZUWAKU
  6
CONTINUOUS
 62
      32
  5
849
 10
-149.78043192
 20
279.38580181
 30
0.0
  0
VERTEX
  8
ZUWAKU
  6
CONTINUOUS
 62
      32
  5
84A
 10
-149.77902279
 20
279.37444533
 30
0.0
  0
VERTEX
  8
ZUWAKU
  6
CONTINUOUS
 62
      32
  5
84B
 10
-149.77716855
 20
279.36341416
 30
0.0
  0
VERTEX
  8
ZUWAKU
  6
CONTINUOUS
 62
      32
  5
84C
 10
-149.77487244
 20
279.35272765
 30
0.0
  0
VERTEX
  8
ZUWAKU
  6
CONTINUOUS
 62
      32
  5
84D
 10
-149.7721385
 20
279.34240455
 30
0.0
  0
VERTEX
  8
ZUWAKU
  6
CONTINUOUS
 62
      32
  5
84E
 10
-149.76897151
 20
279.33246297
 30
0.0
  0
VERTEX
  8
ZUWAKU
  6
CONTINUOUS
 62
      32
  5
84F
 10
-149.76537705
 20
279.32292034
 30
0.0
  0
VERTEX
  8
ZUWAKU
  6
CONTINUOUS
 62
      32
  5
850
 10
-149.76136141
 20
279.31379342
 30
0.0
  0
VERTEX
  8
ZUWAKU
  6
CONTINUOUS
 62
      32
  5
851
 10
-149.75693163
 20
279.30509821
 30
0.0
  0
VERTEX
  8
ZUWAKU
  6
CONTINUOUS
 62
      32
  5
852
 10
-149.75209549
 20
279.29684997
 30
0.0
  0
VERTEX
  8
ZUWAKU
  6
CONTINUOUS
 62
      32
  5
853
 10
-149.74686148
 20
279.28906316
 30
0.0
  0
VERTEX
  8
ZUWAKU
  6
CONTINUOUS
 62
      32
  5
854
 10
-149.74123877
 20
279.28175146
 30
0.0
  0
VERTEX
  8
ZUWAKU
  6
CONTINUOUS
 62
      32
  5
855
 10
-149.73523723
 20
279.27492767
 30
0.0
  0
VERTEX
  8
ZUWAKU
  6
CONTINUOUS
 62
      32
  5
856
 10
-149.72886739
 20
279.26860379
 30
0.0
  0
VERTEX
  8
ZUWAKU
  6
CONTINUOUS
 62
      32
  5
857
 10
-149.72214042
 20
279.26279089
 30
0.0
  0
VERTEX
  8
ZUWAKU
  6
CONTINUOUS
 62
      32
  5
858
 10
-149.71506813
 20
279.25749918
 30
0.0
  0
SEQEND
  8
ZUWAKU
  6
CONTINUOUS
 62
      32
  5
859
  0
LINE
  8
ZUWAKU
  6
CONTINUOUS
 62
      32
  5
28B
 10
-151.60093184
 20
279.00991341
 30
0.0
 11
-150.55905199
 21
279.51034389
 31
0.0
  0
LINE
  8
ZUWAKU
  6
CONTINUOUS
 62
      32
  5
28C
 10
-151.5
 20
278.38391341
 30
0.0
 11
-150.62770117
 21
278.77043988
 31
0.0
  0
LINE
  8
ZUWAKU
  6
CONTINUOUS
 62
      32
  5
28D
 10
-152.26103178
 20
279.00991341
 30
0.0
 11
-151.60093184
 21
279.00991341
 31
0.0
  0
LINE
  8
ZUWAKU
  6
CONTINUOUS
 62
      32
  5
28E
 10
-149.36125176
 20
278.66595016
 30
0.0
 11
-149.0694896
 21
278.38391341
 31
0.0
  0
LINE
  8
ZUWAKU
  6
CONTINUOUS
 62
      32
  5
28F
 10
-148.375
 20
279.00991341
 30
0.0
 11
-147.49557552
 21
279.00991341
 31
0.0
  0
LINE
  8
ZUWAKU
  6
CONTINUOUS
 62
      32
  5
290
 10
-145.49671837
 20
280.75891341
 30
0.0
 11
-147.49557552
 21
279.00991341
 31
0.0
  0
POLYLINE
  8
ZUWAKU
  6
CONTINUOUS
 62
      32
  5
291
 66
       1
 10
0.0
 20
0.0
 30
0.0
 70
     128
  0
VERTEX
  8
ZUWAKU
  6
CONTINUOUS
 62
      32
  5
85A
 10
-148.69078926
 20
280.22227849
 30
0.0
  0
VERTEX
  8
ZUWAKU
  6
CONTINUOUS
 62
      32
  5
85B
 10
-148.69554395
 20
280.23529091
 30
0.0
  0
VERTEX
  8
ZUWAKU
  6
CONTINUOUS
 62
      32
  5
85C
 10
-148.70054228
 20
280.24811318
 30
0.0
  0
VERTEX
  8
ZUWAKU
  6
CONTINUOUS
 62
      32
  5
85D
 10
-148.70578299
 20
280.26074205
 30
0.0
  0
VERTEX
  8
ZUWAKU
  6
CONTINUOUS
 62
      32
  5
85E
 10
-148.71126474
 20
280.2731743
 30
0.0
  0
VERTEX
  8
ZUWAKU
  6
CONTINUOUS
 62
      32
  5
85F
 10
-148.71698615
 20
280.2854068
 30
0.0
  0
VERTEX
  8
ZUWAKU
  6
CONTINUOUS
 62
      32
  5
860
 10
-148.72294577
 20
280.29743642
 30
0.0
  0
VERTEX
  8
ZUWAKU
  6
CONTINUOUS
 62
      32
  5
861
 10
-148.72914207
 20
280.30926013
 30
0.0
  0
VERTEX
  8
ZUWAKU
  6
CONTINUOUS
 62
      32
  5
862
 10
-148.7355735
 20
280.32087492
 30
0.0
  0
VERTEX
  8
ZUWAKU
  6
CONTINUOUS
 62
      32
  5
863
 10
-148.74223841
 20
280.33227784
 30
0.0
  0
VERTEX
  8
ZUWAKU
  6
CONTINUOUS
 62
      32
  5
864
 10
-148.74913512
 20
280.34346599
 30
0.0
  0
VERTEX
  8
ZUWAKU
  6
CONTINUOUS
 62
      32
  5
865
 10
-148.75626187
 20
280.35443655
 30
0.0
  0
VERTEX
  8
ZUWAKU
  6
CONTINUOUS
 62
      32
  5
866
 10
-148.76361686
 20
280.36518673
 30
0.0
  0
VERTEX
  8
ZUWAKU
  6
CONTINUOUS
 62
      32
  5
867
 10
-148.77119823
 20
280.37571379
 30
0.0
  0
VERTEX
  8
ZUWAKU
  6
CONTINUOUS
 62
      32
  5
868
 10
-148.77900404
 20
280.38601507
 30
0.0
  0
VERTEX
  8
ZUWAKU
  6
CONTINUOUS
 62
      32
  5
869
 10
-148.78703232
 20
280.39608796
 30
0.0
  0
VERTEX
  8
ZUWAKU
  6
CONTINUOUS
 62
      32
  5
86A
 10
-148.79528103
 20
280.40592989
 30
0.0
  0
VERTEX
  8
ZUWAKU
  6
CONTINUOUS
 62
      32
  5
86B
 10
-148.80374807
 20
280.41553838
 30
0.0
  0
VERTEX
  8
ZUWAKU
  6
CONTINUOUS
 62
      32
  5
86C
 10
-148.81243131
 20
280.42491097
 30
0.0
  0
VERTEX
  8
ZUWAKU
  6
CONTINUOUS
 62
      32
  5
86D
 10
-148.82132853
 20
280.4340453
 30
0.0
  0
VERTEX
  8
ZUWAKU
  6
CONTINUOUS
 62
      32
  5
86E
 10
-148.83043747
 20
280.44293905
 30
0.0
  0
VERTEX
  8
ZUWAKU
  6
CONTINUOUS
 62
      32
  5
86F
 10
-148.83975584
 20
280.45158996
 30
0.0
  0
VERTEX
  8
ZUWAKU
  6
CONTINUOUS
 62
      32
  5
870
 10
-148.84928125
 20
280.45999583
 30
0.0
  0
VERTEX
  8
ZUWAKU
  6
CONTINUOUS
 62
      32
  5
871
 10
-148.8590113
 20
280.46815453
 30
0.0
  0
VERTEX
  8
ZUWAKU
  6
CONTINUOUS
 62
      32
  5
872
 10
-148.86894352
 20
280.476064
 30
0.0
  0
VERTEX
  8
ZUWAKU
  6
CONTINUOUS
 62
      32
  5
873
 10
-148.87907538
 20
280.48372221
 30
0.0
  0
VERTEX
  8
ZUWAKU
  6
CONTINUOUS
 62
      32
  5
874
 10
-148.88940431
 20
280.49112724
 30
0.0
  0
VERTEX
  8
ZUWAKU
  6
CONTINUOUS
 62
      32
  5
875
 10
-148.8999277
 20
280.49827721
 30
0.0
  0
VERTEX
  8
ZUWAKU
  6
CONTINUOUS
 62
      32
  5
876
 10
-148.91064287
 20
280.50517029
 30
0.0
  0
VERTEX
  8
ZUWAKU
  6
CONTINUOUS
 62
      32
  5
877
 10
-148.92154711
 20
280.51180474
 30
0.0
  0
VERTEX
  8
ZUWAKU
  6
CONTINUOUS
 62
      32
  5
878
 10
-148.93263765
 20
280.51817887
 30
0.0
  0
VERTEX
  8
ZUWAKU
  6
CONTINUOUS
 62
      32
  5
879
 10
-148.94391167
 20
280.52429107
 30
0.0
  0
VERTEX
  8
ZUWAKU
  6
CONTINUOUS
 62
      32
  5
87A
 10
-148.95536631
 20
280.53013979
 30
0.0
  0
VERTEX
  8
ZUWAKU
  6
CONTINUOUS
 62
      32
  5
87B
 10
-148.96699867
 20
280.53572355
 30
0.0
  0
VERTEX
  8
ZUWAKU
  6
CONTINUOUS
 62
      32
  5
87C
 10
-148.97880579
 20
280.54104092
 30
0.0
  0
VERTEX
  8
ZUWAKU
  6
CONTINUOUS
 62
      32
  5
87D
 10
-148.99078468
 20
280.54609055
 30
0.0
  0
VERTEX
  8
ZUWAKU
  6
CONTINUOUS
 62
      32
  5
87E
 10
-149.0029323
 20
280.55087118
 30
0.0
  0
VERTEX
  8
ZUWAKU
  6
CONTINUOUS
 62
      32
  5
87F
 10
-149.01524557
 20
280.55538157
 30
0.0
  0
VERTEX
  8
ZUWAKU
  6
CONTINUOUS
 62
      32
  5
880
 10
-149.02772136
 20
280.55962059
 30
0.0
  0
VERTEX
  8
ZUWAKU
  6
CONTINUOUS
 62
      32
  5
881
 10
-149.0403565
 20
280.56358717
 30
0.0
  0
VERTEX
  8
ZUWAKU
  6
CONTINUOUS
 62
      32
  5
882
 10
-149.0531478
 20
280.56728029
 30
0.0
  0
VERTEX
  8
ZUWAKU
  6
CONTINUOUS
 62
      32
  5
883
 10
-149.066092
 20
280.57069902
 30
0.0
  0
VERTEX
  8
ZUWAKU
  6
CONTINUOUS
 62
      32
  5
884
 10
-149.07918583
 20
280.57384249
 30
0.0
  0
VERTEX
  8
ZUWAKU
  6
CONTINUOUS
 62
      32
  5
885
 10
-149.09242595
 20
280.57670991
 30
0.0
  0
VERTEX
  8
ZUWAKU
  6
CONTINUOUS
 62
      32
  5
886
 10
-149.10580901
 20
280.57930054
 30
0.0
  0
VERTEX
  8
ZUWAKU
  6
CONTINUOUS
 62
      32
  5
887
 10
-149.11933161
 20
280.58161373
 30
0.0
  0
VERTEX
  8
ZUWAKU
  6
CONTINUOUS
 62
      32
  5
888
 10
-149.13299032
 20
280.58364889
 30
0.0
  0
VERTEX
  8
ZUWAKU
  6
CONTINUOUS
 62
      32
  5
889
 10
-149.14678168
 20
280.58540551
 30
0.0
  0
VERTEX
  8
ZUWAKU
  6
CONTINUOUS
 62
      32
  5
88A
 10
-149.16070218
 20
280.58688314
 30
0.0
  0
VERTEX
  8
ZUWAKU
  6
CONTINUOUS
 62
      32
  5
88B
 10
-149.1747483
 20
280.5880814
 30
0.0
  0
VERTEX
  8
ZUWAKU
  6
CONTINUOUS
 62
      32
  5
88C
 10
-149.18891647
 20
280.589
 30
0.0
  0
VERTEX
  8
ZUWAKU
  6
CONTINUOUS
 62
      32
  5
88D
 10
-149.20320309
 20
280.58963869
 30
0.0
  0
VERTEX
  8
ZUWAKU
  6
CONTINUOUS
 62
      32
  5
88E
 10
-149.21760454
 20
280.58999732
 30
0.0
  0
VERTEX
  8
ZUWAKU
  6
CONTINUOUS
 62
      32
  5
88F
 10
-149.23211717
 20
280.59007579
 30
0.0
  0
VERTEX
  8
ZUWAKU
  6
CONTINUOUS
 62
      32
  5
890
 10
-149.24673729
 20
280.58987409
 30
0.0
  0
VERTEX
  8
ZUWAKU
  6
CONTINUOUS
 62
      32
  5
891
 10
-149.26146119
 20
280.58939226
 30
0.0
  0
VERTEX
  8
ZUWAKU
  6
CONTINUOUS
 62
      32
  5
892
 10
-149.27628514
 20
280.58863043
 30
0.0
  0
VERTEX
  8
ZUWAKU
  6
CONTINUOUS
 62
      32
  5
893
 10
-149.29120537
 20
280.58758879
 30
0.0
  0
VERTEX
  8
ZUWAKU
  6
CONTINUOUS
 62
      32
  5
894
 10
-149.30621811
 20
280.58626761
 30
0.0
  0
VERTEX
  8
ZUWAKU
  6
CONTINUOUS
 62
      32
  5
895
 10
-149.32131953
 20
280.58466722
 30
0.0
  0
VERTEX
  8
ZUWAKU
  6
CONTINUOUS
 62
      32
  5
896
 10
-149.33650581
 20
280.58278802
 30
0.0
  0
VERTEX
  8
ZUWAKU
  6
CONTINUOUS
 62
      32
  5
897
 10
-149.3517731
 20
280.5806305
 30
0.0
  0
VERTEX
  8
ZUWAKU
  6
CONTINUOUS
 62
      32
  5
898
 10
-149.36711752
 20
280.57819521
 30
0.0
  0
VERTEX
  8
ZUWAKU
  6
CONTINUOUS
 62
      32
  5
899
 10
-149.38253517
 20
280.57548275
 30
0.0
  0
VERTEX
  8
ZUWAKU
  6
CONTINUOUS
 62
      32
  5
89A
 10
-149.39802215
 20
280.57249381
 30
0.0
  0
VERTEX
  8
ZUWAKU
  6
CONTINUOUS
 62
      32
  5
89B
 10
-149.41357452
 20
280.56922917
 30
0.0
  0
VERTEX
  8
ZUWAKU
  6
CONTINUOUS
 62
      32
  5
89C
 10
-149.42918835
 20
280.56568964
 30
0.0
  0
VERTEX
  8
ZUWAKU
  6
CONTINUOUS
 62
      32
  5
89D
 10
-149.44485966
 20
280.56187612
 30
0.0
  0
VERTEX
  8
ZUWAKU
  6
CONTINUOUS
 62
      32
  5
89E
 10
-149.46058448
 20
280.55778958
 30
0.0
  0
VERTEX
  8
ZUWAKU
  6
CONTINUOUS
 62
      32
  5
89F
 10
-149.47635882
 20
280.55343106
 30
0.0
  0
VERTEX
  8
ZUWAKU
  6
CONTINUOUS
 62
      32
  5
8A0
 10
-149.49217868
 20
280.54880166
 30
0.0
  0
VERTEX
  8
ZUWAKU
  6
CONTINUOUS
 62
      32
  5
8A1
 10
-149.50804005
 20
280.54390256
 30
0.0
  0
VERTEX
  8
ZUWAKU
  6
CONTINUOUS
 62
      32
  5
8A2
 10
-149.52393889
 20
280.538735
 30
0.0
  0
VERTEX
  8
ZUWAKU
  6
CONTINUOUS
 62
      32
  5
8A3
 10
-149.53987118
 20
280.5333003
 30
0.0
  0
VERTEX
  8
ZUWAKU
  6
CONTINUOUS
 62
      32
  5
8A4
 10
-149.55583287
 20
280.52759982
 30
0.0
  0
VERTEX
  8
ZUWAKU
  6
CONTINUOUS
 62
      32
  5
8A5
 10
-149.57181991
 20
280.52163502
 30
0.0
  0
VERTEX
  8
ZUWAKU
  6
CONTINUOUS
 62
      32
  5
8A6
 10
-149.58782825
 20
280.51540741
 30
0.0
  0
VERTEX
  8
ZUWAKU
  6
CONTINUOUS
 62
      32
  5
8A7
 10
-149.60385382
 20
280.50891858
 30
0.0
  0
VERTEX
  8
ZUWAKU
  6
CONTINUOUS
 62
      32
  5
8A8
 10
-149.61989256
 20
280.50217016
 30
0.0
  0
VERTEX
  8
ZUWAKU
  6
CONTINUOUS
 62
      32
  5
8A9
 10
-149.63594039
 20
280.49516387
 30
0.0
  0
VERTEX
  8
ZUWAKU
  6
CONTINUOUS
 62
      32
  5
8AA
 10
-149.65199325
 20
280.48790149
 30
0.0
  0
VERTEX
  8
ZUWAKU
  6
CONTINUOUS
 62
      32
  5
8AB
 10
-149.66804706
 20
280.48038486
 30
0.0
  0
VERTEX
  8
ZUWAKU
  6
CONTINUOUS
 62
      32
  5
8AC
 10
-149.68409775
 20
280.47261589
 30
0.0
  0
VERTEX
  8
ZUWAKU
  6
CONTINUOUS
 62
      32
  5
8AD
 10
-149.70014125
 20
280.46459655
 30
0.0
  0
VERTEX
  8
ZUWAKU
  6
CONTINUOUS
 62
      32
  5
8AE
 10
-149.71617348
 20
280.45632887
 30
0.0
  0
VERTEX
  8
ZUWAKU
  6
CONTINUOUS
 62
      32
  5
8AF
 10
-149.73219038
 20
280.44781496
 30
0.0
  0
VERTEX
  8
ZUWAKU
  6
CONTINUOUS
 62
      32
  5
8B0
 10
-149.74818788
 20
280.43905696
 30
0.0
  0
VERTEX
  8
ZUWAKU
  6
CONTINUOUS
 62
      32
  5
8B1
 10
-149.76416192
 20
280.43005712
 30
0.0
  0
VERTEX
  8
ZUWAKU
  6
CONTINUOUS
 62
      32
  5
8B2
 10
-149.78010845
 20
280.4208177
 30
0.0
  0
VERTEX
  8
ZUWAKU
  6
CONTINUOUS
 62
      32
  5
8B3
 10
-149.79602343
 20
280.41134105
 30
0.0
  0
VERTEX
  8
ZUWAKU
  6
CONTINUOUS
 62
      32
  5
8B4
 10
-149.81190281
 20
280.40162958
 30
0.0
  0
VERTEX
  8
ZUWAKU
  6
CONTINUOUS
 62
      32
  5
8B5
 10
-149.82774257
 20
280.39168575
 30
0.0
  0
VERTEX
  8
ZUWAKU
  6
CONTINUOUS
 62
      32
  5
8B6
 10
-149.84353868
 20
280.38151209
 30
0.0
  0
VERTEX
  8
ZUWAKU
  6
CONTINUOUS
 62
      32
  5
8B7
 10
-149.85928714
 20
280.37111117
 30
0.0
  0
VERTEX
  8
ZUWAKU
  6
CONTINUOUS
 62
      32
  5
8B8
 10
-149.87498396
 20
280.36048564
 30
0.0
  0
VERTEX
  8
ZUWAKU
  6
CONTINUOUS
 62
      32
  5
8B9
 10
-149.89062514
 20
280.34963819
 30
0.0
  0
VERTEX
  8
ZUWAKU
  6
CONTINUOUS
 62
      32
  5
8BA
 10
-149.90620672
 20
280.33857158
 30
0.0
  0
VERTEX
  8
ZUWAKU
  6
CONTINUOUS
 62
      32
  5
8BB
 10
-149.92172476
 20
280.32728861
 30
0.0
  0
VERTEX
  8
ZUWAKU
  6
CONTINUOUS
 62
      32
  5
8BC
 10
-149.9371753
 20
280.31579214
 30
0.0
  0
VERTEX
  8
ZUWAKU
  6
CONTINUOUS
 62
      32
  5
8BD
 10
-149.95255443
 20
280.30408509
 30
0.0
  0
VERTEX
  8
ZUWAKU
  6
CONTINUOUS
 62
      32
  5
8BE
 10
-149.96785824
 20
280.29217044
 30
0.0
  0
VERTEX
  8
ZUWAKU
  6
CONTINUOUS
 62
      32
  5
8BF
 10
-149.98308286
 20
280.28005121
 30
0.0
  0
VERTEX
  8
ZUWAKU
  6
CONTINUOUS
 62
      32
  5
8C0
 10
-149.99822442
 20
280.26773046
 30
0.0
  0
VERTEX
  8
ZUWAKU
  6
CONTINUOUS
 62
      32
  5
8C1
 10
-150.01327908
 20
280.25521134
 30
0.0
  0
VERTEX
  8
ZUWAKU
  6
CONTINUOUS
 62
      32
  5
8C2
 10
-150.02824301
 20
280.242497
 30
0.0
  0
VERTEX
  8
ZUWAKU
  6
CONTINUOUS
 62
      32
  5
8C3
 10
-150.04311243
 20
280.22959069
 30
0.0
  0
VERTEX
  8
ZUWAKU
  6
CONTINUOUS
 62
      32
  5
8C4
 10
-150.05788355
 20
280.21649568
 30
0.0
  0
VERTEX
  8
ZUWAKU
  6
CONTINUOUS
 62
      32
  5
8C5
 10
-150.07255264
 20
280.20321528
 30
0.0
  0
VERTEX
  8
ZUWAKU
  6
CONTINUOUS
 62
      32
  5
8C6
 10
-150.08711596
 20
280.18975287
 30
0.0
  0
VERTEX
  8
ZUWAKU
  6
CONTINUOUS
 62
      32
  5
8C7
 10
-150.10156982
 20
280.17611186
 30
0.0
  0
VERTEX
  8
ZUWAKU
  6
CONTINUOUS
 62
      32
  5
8C8
 10
-150.11591056
 20
280.16229572
 30
0.0
  0
VERTEX
  8
ZUWAKU
  6
CONTINUOUS
 62
      32
  5
8C9
 10
-150.13013454
 20
280.14830795
 30
0.0
  0
VERTEX
  8
ZUWAKU
  6
CONTINUOUS
 62
      32
  5
8CA
 10
-150.14423814
 20
280.1341521
 30
0.0
  0
VERTEX
  8
ZUWAKU
  6
CONTINUOUS
 62
      32
  5
8CB
 10
-150.15821779
 20
280.11983177
 30
0.0
  0
VERTEX
  8
ZUWAKU
  6
CONTINUOUS
 62
      32
  5
8CC
 10
-150.17206994
 20
280.10535058
 30
0.0
  0
VERTEX
  8
ZUWAKU
  6
CONTINUOUS
 62
      32
  5
8CD
 10
-150.18579108
 20
280.09071221
 30
0.0
  0
VERTEX
  8
ZUWAKU
  6
CONTINUOUS
 62
      32
  5
8CE
 10
-150.19937772
 20
280.07592037
 30
0.0
  0
VERTEX
  8
ZUWAKU
  6
CONTINUOUS
 62
      32
  5
8CF
 10
-150.21282641
 20
280.06097882
 30
0.0
  0
VERTEX
  8
ZUWAKU
  6
CONTINUOUS
 62
      32
  5
8D0
 10
-150.22613376
 20
280.04589136
 30
0.0
  0
VERTEX
  8
ZUWAKU
  6
CONTINUOUS
 62
      32
  5
8D1
 10
-150.23929636
 20
280.0306618
 30
0.0
  0
VERTEX
  8
ZUWAKU
  6
CONTINUOUS
 62
      32
  5
8D2
 10
-150.2523109
 20
280.01529401
 30
0.0
  0
VERTEX
  8
ZUWAKU
  6
CONTINUOUS
 62
      32
  5
8D3
 10
-150.26517406
 20
279.9997919
 30
0.0
  0
VERTEX
  8
ZUWAKU
  6
CONTINUOUS
 62
      32
  5
8D4
 10
-150.27788259
 20
279.98415939
 30
0.0
  0
VERTEX
  8
ZUWAKU
  6
CONTINUOUS
 62
      32
  5
8D5
 10
-150.29043325
 20
279.96840045
 30
0.0
  0
VERTEX
  8
ZUWAKU
  6
CONTINUOUS
 62
      32
  5
8D6
 10
-150.30282286
 20
279.95251908
 30
0.0
  0
VERTEX
  8
ZUWAKU
  6
CONTINUOUS
 62
      32
  5
8D7
 10
-150.31504828
 20
279.93651931
 30
0.0
  0
VERTEX
  8
ZUWAKU
  6
CONTINUOUS
 62
      32
  5
8D8
 10
-150.3271064
 20
279.92040521
 30
0.0
  0
VERTEX
  8
ZUWAKU
  6
CONTINUOUS
 62
      32
  5
8D9
 10
-150.33899418
 20
279.90418085
 30
0.0
  0
VERTEX
  8
ZUWAKU
  6
CONTINUOUS
 62
      32
  5
8DA
 10
-150.35070858
 20
279.88785036
 30
0.0
  0
VERTEX
  8
ZUWAKU
  6
CONTINUOUS
 62
      32
  5
8DB
 10
-150.36224664
 20
279.87141788
 30
0.0
  0
VERTEX
  8
ZUWAKU
  6
CONTINUOUS
 62
      32
  5
8DC
 10
-150.37360543
 20
279.85488758
 30
0.0
  0
VERTEX
  8
ZUWAKU
  6
CONTINUOUS
 62
      32
  5
8DD
 10
-150.38478206
 20
279.83826365
 30
0.0
  0
VERTEX
  8
ZUWAKU
  6
CONTINUOUS
 62
      32
  5
8DE
 10
-150.39577371
 20
279.82155031
 30
0.0
  0
VERTEX
  8
ZUWAKU
  6
CONTINUOUS
 62
      32
  5
8DF
 10
-150.40657758
 20
279.80475181
 30
0.0
  0
VERTEX
  8
ZUWAKU
  6
CONTINUOUS
 62
      32
  5
8E0
 10
-150.41719094
 20
279.7878724
 30
0.0
  0
VERTEX
  8
ZUWAKU
  6
CONTINUOUS
 62
      32
  5
8E1
 10
-150.42761108
 20
279.77091637
 30
0.0
  0
VERTEX
  8
ZUWAKU
  6
CONTINUOUS
 62
      32
  5
8E2
 10
-150.43783536
 20
279.75388803
 30
0.0
  0
VERTEX
  8
ZUWAKU
  6
CONTINUOUS
 62
      32
  5
8E3
 10
-150.4478612
 20
279.73679168
 30
0.0
  0
VERTEX
  8
ZUWAKU
  6
CONTINUOUS
 62
      32
  5
8E4
 10
-150.45768604
 20
279.71963167
 30
0.0
  0
VERTEX
  8
ZUWAKU
  6
CONTINUOUS
 62
      32
  5
8E5
 10
-150.46730739
 20
279.70241236
 30
0.0
  0
VERTEX
  8
ZUWAKU
  6
CONTINUOUS
 62
      32
  5
8E6
 10
-150.47672281
 20
279.68513811
 30
0.0
  0
VERTEX
  8
ZUWAKU
  6
CONTINUOUS
 62
      32
  5
8E7
 10
-150.48592992
 20
279.66781331
 30
0.0
  0
VERTEX
  8
ZUWAKU
  6
CONTINUOUS
 62
      32
  5
8E8
 10
-150.49492637
 20
279.65044235
 30
0.0
  0
VERTEX
  8
ZUWAKU
  6
CONTINUOUS
 62
      32
  5
8E9
 10
-150.50370988
 20
279.63302964
 30
0.0
  0
VERTEX
  8
ZUWAKU
  6
CONTINUOUS
 62
      32
  5
8EA
 10
-150.51227823
 20
279.6155796
 30
0.0
  0
VERTEX
  8
ZUWAKU
  6
CONTINUOUS
 62
      32
  5
8EB
 10
-150.52062924
 20
279.59809666
 30
0.0
  0
VERTEX
  8
ZUWAKU
  6
CONTINUOUS
 62
      32
  5
8EC
 10
-150.52876079
 20
279.58058525
 30
0.0
  0
VERTEX
  8
ZUWAKU
  6
CONTINUOUS
 62
      32
  5
8ED
 10
-150.53667082
 20
279.56304982
 30
0.0
  0
VERTEX
  8
ZUWAKU
  6
CONTINUOUS
 62
      32
  5
8EE
 10
-150.54435732
 20
279.54549481
 30
0.0
  0
VERTEX
  8
ZUWAKU
  6
CONTINUOUS
 62
      32
  5
8EF
 10
-150.55181834
 20
279.52792468
 30
0.0
  0
VERTEX
  8
ZUWAKU
  6
CONTINUOUS
 62
      32
  5
8F0
 10
-150.55905199
 20
279.51034389
 30
0.0
  0
SEQEND
  8
ZUWAKU
  6
CONTINUOUS
 62
      32
  5
8F1
  0
POLYLINE
  8
ZUWAKU
  6
CONTINUOUS
 62
      32
  5
292
 66
       1
 10
0.0
 20
0.0
 30
0.0
 70
     128
  0
VERTEX
  8
ZUWAKU
  6
CONTINUOUS
 62
      32
  5
8F2
 10
-150.62770117
 20
278.77043988
 30
0.0
  0
VERTEX
  8
ZUWAKU
  6
CONTINUOUS
 62
      32
  5
8F3
 10
-150.624804
 20
278.76151137
 30
0.0
  0
VERTEX
  8
ZUWAKU
  6
CONTINUOUS
 62
      32
  5
8F4
 10
-150.6217966
 20
278.75266524
 30
0.0
  0
VERTEX
  8
ZUWAKU
  6
CONTINUOUS
 62
      32
  5
8F5
 10
-150.61867933
 20
278.74390252
 30
0.0
  0
VERTEX
  8
ZUWAKU
  6
CONTINUOUS
 62
      32
  5
8F6
 10
-150.61545253
 20
278.7352242
 30
0.0
  0
VERTEX
  8
ZUWAKU
  6
CONTINUOUS
 62
      32
  5
8F7
 10
-150.61211657
 20
278.72663125
 30
0.0
  0
VERTEX
  8
ZUWAKU
  6
CONTINUOUS
 62
      32
  5
8F8
 10
-150.60867184
 20
278.71812467
 30
0.0
  0
VERTEX
  8
ZUWAKU
  6
CONTINUOUS
 62
      32
  5
8F9
 10
-150.60511872
 20
278.70970541
 30
0.0
  0
VERTEX
  8
ZUWAKU
  6
CONTINUOUS
 62
      32
  5
8FA
 10
-150.60145762
 20
278.70137444
 30
0.0
  0
VERTEX
  8
ZUWAKU
  6
CONTINUOUS
 62
      32
  5
8FB
 10
-150.59768896
 20
278.6931327
 30
0.0
  0
VERTEX
  8
ZUWAKU
  6
CONTINUOUS
 62
      32
  5
8FC
 10
-150.59381316
 20
278.68498113
 30
0.0
  0
VERTEX
  8
ZUWAKU
  6
CONTINUOUS
 62
      32
  5
8FD
 10
-150.58983066
 20
278.67692066
 30
0.0
  0
VERTEX
  8
ZUWAKU
  6
CONTINUOUS
 62
      32
  5
8FE
 10
-150.58574192
 20
278.6689522
 30
0.0
  0
VERTEX
  8
ZUWAKU
  6
CONTINUOUS
 62
      32
  5
8FF
 10
-150.5815474
 20
278.66107667
 30
0.0
  0
VERTEX
  8
ZUWAKU
  6
CONTINUOUS
 62
      32
  5
900
 10
-150.57724758
 20
278.65329495
 30
0.0
  0
VERTEX
  8
ZUWAKU
  6
CONTINUOUS
 62
      32
  5
901
 10
-150.57284295
 20
278.64560793
 30
0.0
  0
VERTEX
  8
ZUWAKU
  6
CONTINUOUS
 62
      32
  5
902
 10
-150.56833401
 20
278.63801648
 30
0.0
  0
VERTEX
  8
ZUWAKU
  6
CONTINUOUS
 62
      32
  5
903
 10
-150.56372128
 20
278.63052148
 30
0.0
  0
VERTEX
  8
ZUWAKU
  6
CONTINUOUS
 62
      32
  5
904
 10
-150.55900527
 20
278.62312376
 30
0.0
  0
VERTEX
  8
ZUWAKU
  6
CONTINUOUS
 62
      32
  5
905
 10
-150.55418652
 20
278.61582418
 30
0.0
  0
VERTEX
  8
ZUWAKU
  6
CONTINUOUS
 62
      32
  5
906
 10
-150.54926558
 20
278.60862356
 30
0.0
  0
VERTEX
  8
ZUWAKU
  6
CONTINUOUS
 62
      32
  5
907
 10
-150.54424302
 20
278.60152273
 30
0.0
  0
VERTEX
  8
ZUWAKU
  6
CONTINUOUS
 62
      32
  5
908
 10
-150.5391194
 20
278.59452248
 30
0.0
  0
VERTEX
  8
ZUWAKU
  6
CONTINUOUS
 62
      32
  5
909
 10
-150.5338953
 20
278.58762362
 30
0.0
  0
VERTEX
  8
ZUWAKU
  6
CONTINUOUS
 62
      32
  5
90A
 10
-150.52857132
 20
278.58082693
 30
0.0
  0
VERTEX
  8
ZUWAKU
  6
CONTINUOUS
 62
      32
  5
90B
 10
-150.52314807
 20
278.57413318
 30
0.0
  0
VERTEX
  8
ZUWAKU
  6
CONTINUOUS
 62
      32
  5
90C
 10
-150.51762616
 20
278.56754314
 30
0.0
  0
VERTEX
  8
ZUWAKU
  6
CONTINUOUS
 62
      32
  5
90D
 10
-150.51200622
 20
278.56105755
 30
0.0
  0
VERTEX
  8
ZUWAKU
  6
CONTINUOUS
 62
      32
  5
90E
 10
-150.50628889
 20
278.55467716
 30
0.0
  0
VERTEX
  8
ZUWAKU
  6
CONTINUOUS
 62
      32
  5
90F
 10
-150.50047482
 20
278.54840268
 30
0.0
  0
VERTEX
  8
ZUWAKU
  6
CONTINUOUS
 62
      32
  5
910
 10
-150.49456466
 20
278.54223484
 30
0.0
  0
VERTEX
  8
ZUWAKU
  6
CONTINUOUS
 62
      32
  5
911
 10
-150.48855911
 20
278.53617433
 30
0.0
  0
VERTEX
  8
ZUWAKU
  6
CONTINUOUS
 62
      32
  5
912
 10
-150.48245882
 20
278.53022184
 30
0.0
  0
VERTEX
  8
ZUWAKU
  6
CONTINUOUS
 62
      32
  5
913
 10
-150.47626451
 20
278.52437805
 30
0.0
  0
VERTEX
  8
ZUWAKU
  6
CONTINUOUS
 62
      32
  5
914
 10
-150.46997687
 20
278.51864362
 30
0.0
  0
VERTEX
  8
ZUWAKU
  6
CONTINUOUS
 62
      32
  5
915
 10
-150.46359662
 20
278.51301921
 30
0.0
  0
VERTEX
  8
ZUWAKU
  6
CONTINUOUS
 62
      32
  5
916
 10
-150.45712449
 20
278.50750546
 30
0.0
  0
VERTEX
  8
ZUWAKU
  6
CONTINUOUS
 62
      32
  5
917
 10
-150.4505612
 20
278.50210299
 30
0.0
  0
VERTEX
  8
ZUWAKU
  6
CONTINUOUS
 62
      32
  5
918
 10
-150.44390752
 20
278.49681241
 30
0.0
  0
VERTEX
  8
ZUWAKU
  6
CONTINUOUS
 62
      32
  5
919
 10
-150.43716419
 20
278.49163434
 30
0.0
  0
VERTEX
  8
ZUWAKU
  6
CONTINUOUS
 62
      32
  5
91A
 10
-150.43033198
 20
278.48656936
 30
0.0
  0
VERTEX
  8
ZUWAKU
  6
CONTINUOUS
 62
      32
  5
91B
 10
-150.42341167
 20
278.48161804
 30
0.0
  0
VERTEX
  8
ZUWAKU
  6
CONTINUOUS
 62
      32
  5
91C
 10
-150.41640404
 20
278.47678094
 30
0.0
  0
VERTEX
  8
ZUWAKU
  6
CONTINUOUS
 62
      32
  5
91D
 10
-150.4093099
 20
278.47205863
 30
0.0
  0
VERTEX
  8
ZUWAKU
  6
CONTINUOUS
 62
      32
  5
91E
 10
-150.40213005
 20
278.46745163
 30
0.0
  0
VERTEX
  8
ZUWAKU
  6
CONTINUOUS
 62
      32
  5
91F
 10
-150.3948653
 20
278.46296047
 30
0.0
  0
VERTEX
  8
ZUWAKU
  6
CONTINUOUS
 62
      32
  5
920
 10
-150.38751649
 20
278.45858566
 30
0.0
  0
VERTEX
  8
ZUWAKU
  6
CONTINUOUS
 62
      32
  5
921
 10
-150.38008445
 20
278.45432769
 30
0.0
  0
VERTEX
  8
ZUWAKU
  6
CONTINUOUS
 62
      32
  5
922
 10
-150.37257002
 20
278.45018706
 30
0.0
  0
VERTEX
  8
ZUWAKU
  6
CONTINUOUS
 62
      32
  5
923
 10
-150.36497405
 20
278.44616423
 30
0.0
  0
VERTEX
  8
ZUWAKU
  6
CONTINUOUS
 62
      32
  5
924
 10
-150.35729742
 20
278.44225966
 30
0.0
  0
VERTEX
  8
ZUWAKU
  6
CONTINUOUS
 62
      32
  5
925
 10
-150.349541
 20
278.43847379
 30
0.0
  0
VERTEX
  8
ZUWAKU
  6
CONTINUOUS
 62
      32
  5
926
 10
-150.34170566
 20
278.43480706
 30
0.0
  0
VERTEX
  8
ZUWAKU
  6
CONTINUOUS
 62
      32
  5
927
 10
-150.33379231
 20
278.43125989
 30
0.0
  0
VERTEX
  8
ZUWAKU
  6
CONTINUOUS
 62
      32
  5
928
 10
-150.32580183
 20
278.42783266
 30
0.0
  0
VERTEX
  8
ZUWAKU
  6
CONTINUOUS
 62
      32
  5
929
 10
-150.31773514
 20
278.42452578
 30
0.0
  0
VERTEX
  8
ZUWAKU
  6
CONTINUOUS
 62
      32
  5
92A
 10
-150.30959315
 20
278.42133963
 30
0.0
  0
VERTEX
  8
ZUWAKU
  6
CONTINUOUS
 62
      32
  5
92B
 10
-150.3013768
 20
278.41827456
 30
0.0
  0
VERTEX
  8
ZUWAKU
  6
CONTINUOUS
 62
      32
  5
92C
 10
-150.29308701
 20
278.41533091
 30
0.0
  0
VERTEX
  8
ZUWAKU
  6
CONTINUOUS
 62
      32
  5
92D
 10
-150.28472473
 20
278.41250904
 30
0.0
  0
VERTEX
  8
ZUWAKU
  6
CONTINUOUS
 62
      32
  5
92E
 10
-150.27629091
 20
278.40980926
 30
0.0
  0
VERTEX
  8
ZUWAKU
  6
CONTINUOUS
 62
      32
  5
92F
 10
-150.26778651
 20
278.40723186
 30
0.0
  0
VERTEX
  8
ZUWAKU
  6
CONTINUOUS
 62
      32
  5
930
 10
-150.2592125
 20
278.40477716
 30
0.0
  0
VERTEX
  8
ZUWAKU
  6
CONTINUOUS
 62
      32
  5
931
 10
-150.25056985
 20
278.40244543
 30
0.0
  0
VERTEX
  8
ZUWAKU
  6
CONTINUOUS
 62
      32
  5
932
 10
-150.24185954
 20
278.40023693
 30
0.0
  0
VERTEX
  8
ZUWAKU
  6
CONTINUOUS
 62
      32
  5
933
 10
-150.23308257
 20
278.39815191
 30
0.0
  0
VERTEX
  8
ZUWAKU
  6
CONTINUOUS
 62
      32
  5
934
 10
-150.22423993
 20
278.39619061
 30
0.0
  0
VERTEX
  8
ZUWAKU
  6
CONTINUOUS
 62
      32
  5
935
 10
-150.21533264
 20
278.39435326
 30
0.0
  0
VERTEX
  8
ZUWAKU
  6
CONTINUOUS
 62
      32
  5
936
 10
-150.20636169
 20
278.39264006
 30
0.0
  0
VERTEX
  8
ZUWAKU
  6
CONTINUOUS
 62
      32
  5
937
 10
-150.19732812
 20
278.39105121
 30
0.0
  0
VERTEX
  8
ZUWAKU
  6
CONTINUOUS
 62
      32
  5
938
 10
-150.18823295
 20
278.38958688
 30
0.0
  0
VERTEX
  8
ZUWAKU
  6
CONTINUOUS
 62
      32
  5
939
 10
-150.17907721
 20
278.38824726
 30
0.0
  0
VERTEX
  8
ZUWAKU
  6
CONTINUOUS
 62
      32
  5
93A
 10
-150.16986195
 20
278.38703248
 30
0.0
  0
VERTEX
  8
ZUWAKU
  6
CONTINUOUS
 62
      32
  5
93B
 10
-150.16058821
 20
278.38594268
 30
0.0
  0
VERTEX
  8
ZUWAKU
  6
CONTINUOUS
 62
      32
  5
93C
 10
-150.15125706
 20
278.384978
 30
0.0
  0
VERTEX
  8
ZUWAKU
  6
CONTINUOUS
 62
      32
  5
93D
 10
-150.14186954
 20
278.38413853
 30
0.0
  0
VERTEX
  8
ZUWAKU
  6
CONTINUOUS
 62
      32
  5
93E
 10
-150.13242673
 20
278.38342438
 30
0.0
  0
VERTEX
  8
ZUWAKU
  6
CONTINUOUS
 62
      32
  5
93F
 10
-150.12292971
 20
278.38283563
 30
0.0
  0
VERTEX
  8
ZUWAKU
  6
CONTINUOUS
 62
      32
  5
940
 10
-150.11337954
 20
278.38237234
 30
0.0
  0
VERTEX
  8
ZUWAKU
  6
CONTINUOUS
 62
      32
  5
941
 10
-150.10377733
 20
278.38203456
 30
0.0
  0
VERTEX
  8
ZUWAKU
  6
CONTINUOUS
 62
      32
  5
942
 10
-150.09412415
 20
278.38182234
 30
0.0
  0
VERTEX
  8
ZUWAKU
  6
CONTINUOUS
 62
      32
  5
943
 10
-150.08442112
 20
278.3817357
 30
0.0
  0
VERTEX
  8
ZUWAKU
  6
CONTINUOUS
 62
      32
  5
944
 10
-150.07466933
 20
278.38177464
 30
0.0
  0
VERTEX
  8
ZUWAKU
  6
CONTINUOUS
 62
      32
  5
945
 10
-150.06486989
 20
278.38193917
 30
0.0
  0
VERTEX
  8
ZUWAKU
  6
CONTINUOUS
 62
      32
  5
946
 10
-150.05502391
 20
278.38222927
 30
0.0
  0
VERTEX
  8
ZUWAKU
  6
CONTINUOUS
 62
      32
  5
947
 10
-150.04513252
 20
278.3826449
 30
0.0
  0
VERTEX
  8
ZUWAKU
  6
CONTINUOUS
 62
      32
  5
948
 10
-150.03519685
 20
278.38318601
 30
0.0
  0
VERTEX
  8
ZUWAKU
  6
CONTINUOUS
 62
      32
  5
949
 10
-150.02521801
 20
278.38385254
 30
0.0
  0
VERTEX
  8
ZUWAKU
  6
CONTINUOUS
 62
      32
  5
94A
 10
-150.01519715
 20
278.38464442
 30
0.0
  0
VERTEX
  8
ZUWAKU
  6
CONTINUOUS
 62
      32
  5
94B
 10
-150.00513541
 20
278.38556156
 30
0.0
  0
VERTEX
  8
ZUWAKU
  6
CONTINUOUS
 62
      32
  5
94C
 10
-149.99503392
 20
278.38660386
 30
0.0
  0
VERTEX
  8
ZUWAKU
  6
CONTINUOUS
 62
      32
  5
94D
 10
-149.98489385
 20
278.38777118
 30
0.0
  0
VERTEX
  8
ZUWAKU
  6
CONTINUOUS
 62
      32
  5
94E
 10
-149.97471634
 20
278.38906341
 30
0.0
  0
VERTEX
  8
ZUWAKU
  6
CONTINUOUS
 62
      32
  5
94F
 10
-149.96450255
 20
278.3904804
 30
0.0
  0
VERTEX
  8
ZUWAKU
  6
CONTINUOUS
 62
      32
  5
950
 10
-149.95425364
 20
278.39202197
 30
0.0
  0
VERTEX
  8
ZUWAKU
  6
CONTINUOUS
 62
      32
  5
951
 10
-149.94397078
 20
278.39368797
 30
0.0
  0
VERTEX
  8
ZUWAKU
  6
CONTINUOUS
 62
      32
  5
952
 10
-149.93365513
 20
278.39547819
 30
0.0
  0
VERTEX
  8
ZUWAKU
  6
CONTINUOUS
 62
      32
  5
953
 10
-149.92330788
 20
278.39739244
 30
0.0
  0
VERTEX
  8
ZUWAKU
  6
CONTINUOUS
 62
      32
  5
954
 10
-149.91293019
 20
278.3994305
 30
0.0
  0
VERTEX
  8
ZUWAKU
  6
CONTINUOUS
 62
      32
  5
955
 10
-149.90252325
 20
278.40159213
 30
0.0
  0
VERTEX
  8
ZUWAKU
  6
CONTINUOUS
 62
      32
  5
956
 10
-149.89208825
 20
278.4038771
 30
0.0
  0
VERTEX
  8
ZUWAKU
  6
CONTINUOUS
 62
      32
  5
957
 10
-149.88162636
 20
278.40628513
 30
0.0
  0
VERTEX
  8
ZUWAKU
  6
CONTINUOUS
 62
      32
  5
958
 10
-149.87113878
 20
278.40881596
 30
0.0
  0
VERTEX
  8
ZUWAKU
  6
CONTINUOUS
 62
      32
  5
959
 10
-149.8606267
 20
278.41146929
 30
0.0
  0
VERTEX
  8
ZUWAKU
  6
CONTINUOUS
 62
      32
  5
95A
 10
-149.85009131
 20
278.41424483
 30
0.0
  0
VERTEX
  8
ZUWAKU
  6
CONTINUOUS
 62
      32
  5
95B
 10
-149.83953383
 20
278.41714227
 30
0.0
  0
VERTEX
  8
ZUWAKU
  6
CONTINUOUS
 62
      32
  5
95C
 10
-149.82895544
 20
278.42016126
 30
0.0
  0
VERTEX
  8
ZUWAKU
  6
CONTINUOUS
 62
      32
  5
95D
 10
-149.81835734
 20
278.42330148
 30
0.0
  0
VERTEX
  8
ZUWAKU
  6
CONTINUOUS
 62
      32
  5
95E
 10
-149.80774075
 20
278.42656255
 30
0.0
  0
VERTEX
  8
ZUWAKU
  6
CONTINUOUS
 62
      32
  5
95F
 10
-149.79710688
 20
278.42994411
 30
0.0
  0
VERTEX
  8
ZUWAKU
  6
CONTINUOUS
 62
      32
  5
960
 10
-149.78645692
 20
278.43344578
 30
0.0
  0
VERTEX
  8
ZUWAKU
  6
CONTINUOUS
 62
      32
  5
961
 10
-149.7757921
 20
278.43706715
 30
0.0
  0
VERTEX
  8
ZUWAKU
  6
CONTINUOUS
 62
      32
  5
962
 10
-149.76511363
 20
278.44080782
 30
0.0
  0
VERTEX
  8
ZUWAKU
  6
CONTINUOUS
 62
      32
  5
963
 10
-149.75442271
 20
278.44466736
 30
0.0
  0
VERTEX
  8
ZUWAKU
  6
CONTINUOUS
 62
      32
  5
964
 10
-149.74372057
 20
278.44864533
 30
0.0
  0
VERTEX
  8
ZUWAKU
  6
CONTINUOUS
 62
      32
  5
965
 10
-149.73300843
 20
278.45274127
 30
0.0
  0
VERTEX
  8
ZUWAKU
  6
CONTINUOUS
 62
      32
  5
966
 10
-149.72228749
 20
278.45695473
 30
0.0
  0
VERTEX
  8
ZUWAKU
  6
CONTINUOUS
 62
      32
  5
967
 10
-149.71155899
 20
278.46128523
 30
0.0
  0
VERTEX
  8
ZUWAKU
  6
CONTINUOUS
 62
      32
  5
968
 10
-149.70082414
 20
278.46573226
 30
0.0
  0
VERTEX
  8
ZUWAKU
  6
CONTINUOUS
 62
      32
  5
969
 10
-149.69008416
 20
278.47029532
 30
0.0
  0
VERTEX
  8
ZUWAKU
  6
CONTINUOUS
 62
      32
  5
96A
 10
-149.67934028
 20
278.47497391
 30
0.0
  0
VERTEX
  8
ZUWAKU
  6
CONTINUOUS
 62
      32
  5
96B
 10
-149.66859371
 20
278.47976747
 30
0.0
  0
VERTEX
  8
ZUWAKU
  6
CONTINUOUS
 62
      32
  5
96C
 10
-149.65784568
 20
278.48467547
 30
0.0
  0
VERTEX
  8
ZUWAKU
  6
CONTINUOUS
 62
      32
  5
96D
 10
-149.64709741
 20
278.48969736
 30
0.0
  0
VERTEX
  8
ZUWAKU
  6
CONTINUOUS
 62
      32
  5
96E
 10
-149.63635013
 20
278.49483255
 30
0.0
  0
VERTEX
  8
ZUWAKU
  6
CONTINUOUS
 62
      32
  5
96F
 10
-149.62560505
 20
278.50008047
 30
0.0
  0
VERTEX
  8
ZUWAKU
  6
CONTINUOUS
 62
      32
  5
970
 10
-149.6148634
 20
278.50544051
 30
0.0
  0
VERTEX
  8
ZUWAKU
  6
CONTINUOUS
 62
      32
  5
971
 10
-149.6041264
 20
278.51091207
 30
0.0
  0
VERTEX
  8
ZUWAKU
  6
CONTINUOUS
 62
      32
  5
972
 10
-149.59339527
 20
278.51649453
 30
0.0
  0
VERTEX
  8
ZUWAKU
  6
CONTINUOUS
 62
      32
  5
973
 10
-149.58267123
 20
278.52218725
 30
0.0
  0
VERTEX
  8
ZUWAKU
  6
CONTINUOUS
 62
      32
  5
974
 10
-149.57195551
 20
278.52798958
 30
0.0
  0
VERTEX
  8
ZUWAKU
  6
CONTINUOUS
 62
      32
  5
975
 10
-149.56124931
 20
278.53390087
 30
0.0
  0
VERTEX
  8
ZUWAKU
  6
CONTINUOUS
 62
      32
  5
976
 10
-149.55055386
 20
278.53992043
 30
0.0
  0
VERTEX
  8
ZUWAKU
  6
CONTINUOUS
 62
      32
  5
977
 10
-149.53987038
 20
278.5460476
 30
0.0
  0
VERTEX
  8
ZUWAKU
  6
CONTINUOUS
 62
      32
  5
978
 10
-149.52920007
 20
278.55228166
 30
0.0
  0
VERTEX
  8
ZUWAKU
  6
CONTINUOUS
 62
      32
  5
979
 10
-149.51854416
 20
278.55862191
 30
0.0
  0
VERTEX
  8
ZUWAKU
  6
CONTINUOUS
 62
      32
  5
97A
 10
-149.50790386
 20
278.56506763
 30
0.0
  0
VERTEX
  8
ZUWAKU
  6
CONTINUOUS
 62
      32
  5
97B
 10
-149.49728037
 20
278.57161809
 30
0.0
  0
VERTEX
  8
ZUWAKU
  6
CONTINUOUS
 62
      32
  5
97C
 10
-149.4866749
 20
278.57827254
 30
0.0
  0
VERTEX
  8
ZUWAKU
  6
CONTINUOUS
 62
      32
  5
97D
 10
-149.47608866
 20
278.58503023
 30
0.0
  0
VERTEX
  8
ZUWAKU
  6
CONTINUOUS
 62
      32
  5
97E
 10
-149.46552286
 20
278.59189037
 30
0.0
  0
VERTEX
  8
ZUWAKU
  6
CONTINUOUS
 62
      32
  5
97F
 10
-149.45497869
 20
278.59885221
 30
0.0
  0
VERTEX
  8
ZUWAKU
  6
CONTINUOUS
 62
      32
  5
980
 10
-149.44445736
 20
278.60591494
 30
0.0
  0
VERTEX
  8
ZUWAKU
  6
CONTINUOUS
 62
      32
  5
981
 10
-149.43396006
 20
278.61307775
 30
0.0
  0
VERTEX
  8
ZUWAKU
  6
CONTINUOUS
 62
      32
  5
982
 10
-149.42348798
 20
278.62033985
 30
0.0
  0
VERTEX
  8
ZUWAKU
  6
CONTINUOUS
 62
      32
  5
983
 10
-149.41304232
 20
278.62770039
 30
0.0
  0
VERTEX
  8
ZUWAKU
  6
CONTINUOUS
 62
      32
  5
984
 10
-149.40262427
 20
278.63515855
 30
0.0
  0
VERTEX
  8
ZUWAKU
  6
CONTINUOUS
 62
      32
  5
985
 10
-149.39223501
 20
278.64271346
 30
0.0
  0
VERTEX
  8
ZUWAKU
  6
CONTINUOUS
 62
      32
  5
986
 10
-149.38187572
 20
278.65036429
 30
0.0
  0
VERTEX
  8
ZUWAKU
  6
CONTINUOUS
 62
      32
  5
987
 10
-149.37154757
 20
278.65811015
 30
0.0
  0
VERTEX
  8
ZUWAKU
  6
CONTINUOUS
 62
      32
  5
988
 10
-149.36125176
 20
278.66595016
 30
0.0
  0
SEQEND
  8
ZUWAKU
  6
CONTINUOUS
 62
      32
  5
989
  0
LINE
  8
ZUWAKU
  6
CONTINUOUS
 62
      32
  5
293
 10
-148.53957958
 20
280.6381051
 30
0.0
 11
-147.87347575
 21
280.6381051
 31
0.0
  0
LINE
  8
ZUWAKU
  6
CONTINUOUS
 62
      32
  5
294
 10
-148.69078926
 20
280.22227849
 30
0.0
 11
-148.53957958
 21
280.6381051
 31
0.0
  0
LINE
  8
ZUWAKU
  6
CONTINUOUS
 62
      32
  5
295
 10
-148.375
 20
279.25891341
 30
0.0
 11
-147.87347575
 21
280.6381051
 31
0.0
  0
LINE
  8
ZUWAKU
  6
CONTINUOUS
 62
      32
  5
296
 10
-146.6737039
 20
278.40360591
 30
0.0
 11
-146.35693505
 21
279.27472025
 31
0.0
  0
LINE
  8
ZUWAKU
  6
CONTINUOUS
 62
      32
  5
297
 10
-145.41322822
 20
279.88391341
 30
0.0
 11
-145.95868276
 21
278.38391341
 31
0.0
  0
LINE
  8
ZUWAKU
  6
CONTINUOUS
 62
      32
  5
298
 10
-145.125
 20
278.38391341
 30
0.0
 11
-144.57954545
 21
279.88391341
 31
0.0
  0
LINE
  8
ZUWAKU
  6
CONTINUOUS
 62
      32
  5
299
 10
-143.66758062
 20
280.36056671
 30
0.0
 11
-144.15872727
 21
279.00991341
 31
0.0
  0
LINE
  8
ZUWAKU
  6
CONTINUOUS
 62
      32
  5
29A
 10
-143.87541369
 20
280.75891341
 30
0.0
 11
-143.66758062
 21
280.36056671
 31
0.0
  0
LINE
  8
ZUWAKU
  6
CONTINUOUS
 62
      32
  5
29B
 10
-145.24680263
 20
280.38711078
 30
0.0
 11
-145.12383404
 21
280.75891341
 31
0.0
  0
LINE
  8
ZUWAKU
  6
CONTINUOUS
 62
      32
  5
29C
 10
-145.24680263
 20
280.38711078
 30
0.0
 11
-144.58090546
 21
280.75891341
 31
0.0
  0
LINE
  8
ZUWAKU
  6
CONTINUOUS
 62
      32
  5
29D
 10
-143.87541369
 20
280.75891341
 30
0.0
 11
-144.58090546
 21
280.75891341
 31
0.0
  0
LINE
  8
ZUWAKU
  6
CONTINUOUS
 62
      32
  5
29E
 10
-145.12383404
 20
280.75891341
 30
0.0
 11
-145.49671837
 21
280.75891341
 31
0.0
  0
POLYLINE
  8
ZUWAKU
  6
CONTINUOUS
 62
      32
  5
29F
 66
       1
 10
0.0
 20
0.0
 30
0.0
 70
     129
  0
VERTEX
  8
ZUWAKU
  6
CONTINUOUS
 62
      32
  5
98A
 10
-138.46137245
 20
279.49119814
 30
0.0
  0
VERTEX
  8
ZUWAKU
  6
CONTINUOUS
 62
      32
  5
98B
 10
-138.45172185
 20
279.48627771
 30
0.0
  0
VERTEX
  8
ZUWAKU
  6
CONTINUOUS
 62
      32
  5
98C
 10
-138.44179935
 20
279.48189543
 30
0.0
  0
VERTEX
  8
ZUWAKU
  6
CONTINUOUS
 62
      32
  5
98D
 10
-138.43162236
 20
279.47805899
 30
0.0
  0
VERTEX
  8
ZUWAKU
  6
CONTINUOUS
 62
      32
  5
98E
 10
-138.42120874
 20
279.47477513
 30
0.0
  0
VERTEX
  8
ZUWAKU
  6
CONTINUOUS
 62
      32
  5
98F
 10
-138.41057674
 20
279.4720496
 30
0.0
  0
VERTEX
  8
ZUWAKU
  6
CONTINUOUS
 62
      32
  5
990
 10
-138.39974502
 20
279.46988718
 30
0.0
  0
VERTEX
  8
ZUWAKU
  6
CONTINUOUS
 62
      32
  5
991
 10
-138.3887326
 20
279.46829167
 30
0.0
  0
VERTEX
  8
ZUWAKU
  6
CONTINUOUS
 62
      32
  5
992
 10
-138.37755877
 20
279.46726587
 30
0.0
  0
VERTEX
  8
ZUWAKU
  6
CONTINUOUS
 62
      32
  5
993
 10
-138.36624316
 20
279.46681158
 30
0.0
  0
VERTEX
  8
ZUWAKU
  6
CONTINUOUS
 62
      32
  5
994
 10
-138.3548056
 20
279.46692959
 30
0.0
  0
VERTEX
  8
ZUWAKU
  6
CONTINUOUS
 62
      32
  5
995
 10
-138.34326617
 20
279.46761969
 30
0.0
  0
VERTEX
  8
ZUWAKU
  6
CONTINUOUS
 62
      32
  5
996
 10
-138.33164511
 20
279.46888068
 30
0.0
  0
VERTEX
  8
ZUWAKU
  6
CONTINUOUS
 62
      32
  5
997
 10
-138.3199628
 20
279.47071035
 30
0.0
  0
VERTEX
  8
ZUWAKU
  6
CONTINUOUS
 62
      32
  5
998
 10
-138.30823975
 20
279.47310548
 30
0.0
  0
VERTEX
  8
ZUWAKU
  6
CONTINUOUS
 62
      32
  5
999
 10
-138.29649651
 20
279.47606187
 30
0.0
  0
VERTEX
  8
ZUWAKU
  6
CONTINUOUS
 62
      32
  5
99A
 10
-138.28475369
 20
279.47957433
 30
0.0
  0
VERTEX
  8
ZUWAKU
  6
CONTINUOUS
 62
      32
  5
99B
 10
-138.27303189
 20
279.48363671
 30
0.0
  0
VERTEX
  8
ZUWAKU
  6
CONTINUOUS
 62
      32
  5
99C
 10
-138.26135167
 20
279.48824188
 30
0.0
  0
VERTEX
  8
ZUWAKU
  6
CONTINUOUS
 62
      32
  5
99D
 10
-138.24973353
 20
279.49338175
 30
0.0
  0
VERTEX
  8
ZUWAKU
  6
CONTINUOUS
 62
      32
  5
99E
 10
-138.23819784
 20
279.49904732
 30
0.0
  0
VERTEX
  8
ZUWAKU
  6
CONTINUOUS
 62
      32
  5
99F
 10
-138.22676485
 20
279.50522864
 30
0.0
  0
VERTEX
  8
ZUWAKU
  6
CONTINUOUS
 62
      32
  5
9A0
 10
-138.21545461
 20
279.51191486
 30
0.0
  0
VERTEX
  8
ZUWAKU
  6
CONTINUOUS
 62
      32
  5
9A1
 10
-138.20428696
 20
279.51909426
 30
0.0
  0
VERTEX
  8
ZUWAKU
  6
CONTINUOUS
 62
      32
  5
9A2
 10
-138.1932815
 20
279.52675424
 30
0.0
  0
VERTEX
  8
ZUWAKU
  6
CONTINUOUS
 62
      32
  5
9A3
 10
-138.18245753
 20
279.53488137
 30
0.0
  0
VERTEX
  8
ZUWAKU
  6
CONTINUOUS
 62
      32
  5
9A4
 10
-138.17183405
 20
279.54346138
 30
0.0
  0
VERTEX
  8
ZUWAKU
  6
CONTINUOUS
 62
      32
  5
9A5
 10
-138.16142968
 20
279.55247922
 30
0.0
  0
VERTEX
  8
ZUWAKU
  6
CONTINUOUS
 62
      32
  5
9A6
 10
-138.15126269
 20
279.56191908
 30
0.0
  0
VERTEX
  8
ZUWAKU
  6
CONTINUOUS
 62
      32
  5
9A7
 10
-138.1413509
 20
279.5717644
 30
0.0
  0
VERTEX
  8
ZUWAKU
  6
CONTINUOUS
 62
      32
  5
9A8
 10
-138.13171171
 20
279.58199789
 30
0.0
  0
VERTEX
  8
ZUWAKU
  6
CONTINUOUS
 62
      32
  5
9A9
 10
-138.12236202
 20
279.59260161
 30
0.0
  0
VERTEX
  8
ZUWAKU
  6
CONTINUOUS
 62
      32
  5
9AA
 10
-138.11331825
 20
279.60355695
 30
0.0
  0
VERTEX
  8
ZUWAKU
  6
CONTINUOUS
 62
      32
  5
9AB
 10
-138.10459625
 20
279.61484471
 30
0.0
  0
VERTEX
  8
ZUWAKU
  6
CONTINUOUS
 62
      32
  5
9AC
 10
-138.09621133
 20
279.62644506
 30
0.0
  0
VERTEX
  8
ZUWAKU
  6
CONTINUOUS
 62
      32
  5
9AD
 10
-138.0881782
 20
279.63833767
 30
0.0
  0
VERTEX
  8
ZUWAKU
  6
CONTINUOUS
 62
      32
  5
9AE
 10
-138.08051094
 20
279.65050166
 30
0.0
  0
VERTEX
  8
ZUWAKU
  6
CONTINUOUS
 62
      32
  5
9AF
 10
-138.07322302
 20
279.66291571
 30
0.0
  0
VERTEX
  8
ZUWAKU
  6
CONTINUOUS
 62
      32
  5
9B0
 10
-138.06632721
 20
279.67555802
 30
0.0
  0
VERTEX
  8
ZUWAKU
  6
CONTINUOUS
 62
      32
  5
9B1
 10
-138.05983561
 20
279.68840643
 30
0.0
  0
VERTEX
  8
ZUWAKU
  6
CONTINUOUS
 62
      32
  5
9B2
 10
-138.05375962
 20
279.70143839
 30
0.0
  0
VERTEX
  8
ZUWAKU
  6
CONTINUOUS
 62
      32
  5
9B3
 10
-138.04810989
 20
279.71463103
 30
0.0
  0
VERTEX
  8
ZUWAKU
  6
CONTINUOUS
 62
      32
  5
9B4
 10
-138.04289633
 20
279.72796122
 30
0.0
  0
VERTEX
  8
ZUWAKU
  6
CONTINUOUS
 62
      32
  5
9B5
 10
-138.0381281
 20
279.74140557
 30
0.0
  0
VERTEX
  8
ZUWAKU
  6
CONTINUOUS
 62
      32
  5
9B6
 10
-138.03381354
 20
279.75494049
 30
0.0
  0
VERTEX
  8
ZUWAKU
  6
CONTINUOUS
 62
      32
  5
9B7
 10
-138.02996024
 20
279.76854224
 30
0.0
  0
VERTEX
  8
ZUWAKU
  6
CONTINUOUS
 62
      32
  5
9B8
 10
-138.02657496
 20
279.78218695
 30
0.0
  0
VERTEX
  8
ZUWAKU
  6
CONTINUOUS
 62
      32
  5
9B9
 10
-138.02366363
 20
279.79585069
 30
0.0
  0
VERTEX
  8
ZUWAKU
  6
CONTINUOUS
 62
      32
  5
9BA
 10
-138.02123135
 20
279.80950949
 30
0.0
  0
VERTEX
  8
ZUWAKU
  6
CONTINUOUS
 62
      32
  5
9BB
 10
-138.01928241
 20
279.82313939
 30
0.0
  0
VERTEX
  8
ZUWAKU
  6
CONTINUOUS
 62
      32
  5
9BC
 10
-138.01782021
 20
279.83671646
 30
0.0
  0
VERTEX
  8
ZUWAKU
  6
CONTINUOUS
 62
      32
  5
9BD
 10
-138.01684732
 20
279.85021691
 30
0.0
  0
VERTEX
  8
ZUWAKU
  6
CONTINUOUS
 62
      32
  5
9BE
 10
-138.01636545
 20
279.86361703
 30
0.0
  0
VERTEX
  8
ZUWAKU
  6
CONTINUOUS
 62
      32
  5
9BF
 10
-138.01637545
 20
279.87689332
 30
0.0
  0
VERTEX
  8
ZUWAKU
  6
CONTINUOUS
 62
      32
  5
9C0
 10
-138.01687729
 20
279.8900225
 30
0.0
  0
VERTEX
  8
ZUWAKU
  6
CONTINUOUS
 62
      32
  5
9C1
 10
-138.01787009
 20
279.90298152
 30
0.0
  0
VERTEX
  8
ZUWAKU
  6
CONTINUOUS
 62
      32
  5
9C2
 10
-138.01935212
 20
279.91574766
 30
0.0
  0
VERTEX
  8
ZUWAKU
  6
CONTINUOUS
 62
      32
  5
9C3
 10
-138.02132078
 20
279.92829852
 30
0.0
  0
VERTEX
  8
ZUWAKU
  6
CONTINUOUS
 62
      32
  5
9C4
 10
-138.0237726
 20
279.94061207
 30
0.0
  0
VERTEX
  8
ZUWAKU
  6
CONTINUOUS
 62
      32
  5
9C5
 10
-138.0267033
 20
279.95266672
 30
0.0
  0
VERTEX
  8
ZUWAKU
  6
CONTINUOUS
 62
      32
  5
9C6
 10
-138.03010772
 20
279.96444132
 30
0.0
  0
VERTEX
  8
ZUWAKU
  6
CONTINUOUS
 62
      32
  5
9C7
 10
-138.03397989
 20
279.97591521
 30
0.0
  0
VERTEX
  8
ZUWAKU
  6
CONTINUOUS
 62
      32
  5
9C8
 10
-138.03831303
 20
279.98706826
 30
0.0
  0
VERTEX
  8
ZUWAKU
  6
CONTINUOUS
 62
      32
  5
9C9
 10
-138.04309953
 20
279.99788091
 30
0.0
  0
VERTEX
  8
ZUWAKU
  6
CONTINUOUS
 62
      32
  5
9CA
 10
-138.04833099
 20
280.00833419
 30
0.0
  0
VERTEX
  8
ZUWAKU
  6
CONTINUOUS
 62
      32
  5
9CB
 10
-138.05399824
 20
280.01840975
 30
0.0
  0
VERTEX
  8
ZUWAKU
  6
CONTINUOUS
 62
      32
  5
9CC
 10
-138.06009133
 20
280.02808993
 30
0.0
  0
VERTEX
  8
ZUWAKU
  6
CONTINUOUS
 62
      32
  5
9CD
 10
-138.06659957
 20
280.03735774
 30
0.0
  0
VERTEX
  8
ZUWAKU
  6
CONTINUOUS
 62
      32
  5
9CE
 10
-138.07351155
 20
280.04619692
 30
0.0
  0
VERTEX
  8
ZUWAKU
  6
CONTINUOUS
 62
      32
  5
9CF
 10
-138.08081514
 20
280.05459197
 30
0.0
  0
VERTEX
  8
ZUWAKU
  6
CONTINUOUS
 62
      32
  5
9D0
 10
-138.08849753
 20
280.06252815
 30
0.0
  0
VERTEX
  8
ZUWAKU
  6
CONTINUOUS
 62
      32
  5
9D1
 10
-138.09654523
 20
280.06999155
 30
0.0
  0
VERTEX
  8
ZUWAKU
  6
CONTINUOUS
 62
      32
  5
9D2
 10
-138.10494414
 20
280.07696907
 30
0.0
  0
VERTEX
  8
ZUWAKU
  6
CONTINUOUS
 62
      32
  5
9D3
 10
-138.11367951
 20
280.08344847
 30
0.0
  0
VERTEX
  8
ZUWAKU
  6
CONTINUOUS
 62
      32
  5
9D4
 10
-138.12273603
 20
280.08941838
 30
0.0
  0
VERTEX
  8
ZUWAKU
  6
CONTINUOUS
 62
      32
  5
9D5
 10
-138.1320978
 20
280.09486833
 30
0.0
  0
VERTEX
  8
ZUWAKU
  6
CONTINUOUS
 62
      32
  5
9D6
 10
-138.1417484
 20
280.09978876
 30
0.0
  0
VERTEX
  8
ZUWAKU
  6
CONTINUOUS
 62
      32
  5
9D7
 10
-138.15167089
 20
280.10417104
 30
0.0
  0
VERTEX
  8
ZUWAKU
  6
CONTINUOUS
 62
      32
  5
9D8
 10
-138.16184788
 20
280.10800748
 30
0.0
  0
VERTEX
  8
ZUWAKU
  6
CONTINUOUS
 62
      32
  5
9D9
 10
-138.17226151
 20
280.11129134
 30
0.0
  0
VERTEX
  8
ZUWAKU
  6
CONTINUOUS
 62
      32
  5
9DA
 10
-138.18289351
 20
280.11401687
 30
0.0
  0
VERTEX
  8
ZUWAKU
  6
CONTINUOUS
 62
      32
  5
9DB
 10
-138.19372522
 20
280.11617929
 30
0.0
  0
VERTEX
  8
ZUWAKU
  6
CONTINUOUS
 62
      32
  5
9DC
 10
-138.20473765
 20
280.1177748
 30
0.0
  0
VERTEX
  8
ZUWAKU
  6
CONTINUOUS
 62
      32
  5
9DD
 10
-138.21591147
 20
280.1188006
 30
0.0
  0
VERTEX
  8
ZUWAKU
  6
CONTINUOUS
 62
      32
  5
9DE
 10
-138.22722709
 20
280.11925489
 30
0.0
  0
VERTEX
  8
ZUWAKU
  6
CONTINUOUS
 62
      32
  5
9DF
 10
-138.23866465
 20
280.11913688
 30
0.0
  0
VERTEX
  8
ZUWAKU
  6
CONTINUOUS
 62
      32
  5
9E0
 10
-138.25020408
 20
280.11844678
 30
0.0
  0
VERTEX
  8
ZUWAKU
  6
CONTINUOUS
 62
      32
  5
9E1
 10
-138.26182514
 20
280.11718579
 30
0.0
  0
VERTEX
  8
ZUWAKU
  6
CONTINUOUS
 62
      32
  5
9E2
 10
-138.27350745
 20
280.11535612
 30
0.0
  0
VERTEX
  8
ZUWAKU
  6
CONTINUOUS
 62
      32
  5
9E3
 10
-138.2852305
 20
280.11296099
 30
0.0
  0
VERTEX
  8
ZUWAKU
  6
CONTINUOUS
 62
      32
  5
9E4
 10
-138.29697374
 20
280.1100046
 30
0.0
  0
VERTEX
  8
ZUWAKU
  6
CONTINUOUS
 62
      32
  5
9E5
 10
-138.30871656
 20
280.10649214
 30
0.0
  0
VERTEX
  8
ZUWAKU
  6
CONTINUOUS
 62
      32
  5
9E6
 10
-138.32043836
 20
280.10242976
 30
0.0
  0
VERTEX
  8
ZUWAKU
  6
CONTINUOUS
 62
      32
  5
9E7
 10
-138.33211858
 20
280.09782459
 30
0.0
  0
VERTEX
  8
ZUWAKU
  6
CONTINUOUS
 62
      32
  5
9E8
 10
-138.34373672
 20
280.09268472
 30
0.0
  0
VERTEX
  8
ZUWAKU
  6
CONTINUOUS
 62
      32
  5
9E9
 10
-138.35527241
 20
280.08701915
 30
0.0
  0
VERTEX
  8
ZUWAKU
  6
CONTINUOUS
 62
      32
  5
9EA
 10
-138.3667054
 20
280.08083783
 30
0.0
  0
VERTEX
  8
ZUWAKU
  6
CONTINUOUS
 62
      32
  5
9EB
 10
-138.37801564
 20
280.07415161
 30
0.0
  0
VERTEX
  8
ZUWAKU
  6
CONTINUOUS
 62
      32
  5
9EC
 10
-138.38918328
 20
280.06697221
 30
0.0
  0
VERTEX
  8
ZUWAKU
  6
CONTINUOUS
 62
      32
  5
9ED
 10
-138.40018875
 20
280.05931223
 30
0.0
  0
VERTEX
  8
ZUWAKU
  6
CONTINUOUS
 62
      32
  5
9EE
 10
-138.41101271
 20
280.0511851
 30
0.0
  0
VERTEX
  8
ZUWAKU
  6
CONTINUOUS
 62
      32
  5
9EF
 10
-138.4216362
 20
280.04260509
 30
0.0
  0
VERTEX
  8
ZUWAKU
  6
CONTINUOUS
 62
      32
  5
9F0
 10
-138.43204057
 20
280.03358725
 30
0.0
  0
VERTEX
  8
ZUWAKU
  6
CONTINUOUS
 62
      32
  5
9F1
 10
-138.44220756
 20
280.02414739
 30
0.0
  0
VERTEX
  8
ZUWAKU
  6
CONTINUOUS
 62
      32
  5
9F2
 10
-138.45211935
 20
280.01430207
 30
0.0
  0
VERTEX
  8
ZUWAKU
  6
CONTINUOUS
 62
      32
  5
9F3
 10
-138.46175854
 20
280.00406858
 30
0.0
  0
VERTEX
  8
ZUWAKU
  6
CONTINUOUS
 62
      32
  5
9F4
 10
-138.47110822
 20
279.99346486
 30
0.0
  0
VERTEX
  8
ZUWAKU
  6
CONTINUOUS
 62
      32
  5
9F5
 10
-138.480152
 20
279.98250952
 30
0.0
  0
VERTEX
  8
ZUWAKU
  6
CONTINUOUS
 62
      32
  5
9F6
 10
-138.488874
 20
279.97122176
 30
0.0
  0
VERTEX
  8
ZUWAKU
  6
CONTINUOUS
 62
      32
  5
9F7
 10
-138.49725892
 20
279.95962141
 30
0.0
  0
VERTEX
  8
ZUWAKU
  6
CONTINUOUS
 62
      32
  5
9F8
 10
-138.50529205
 20
279.9477288
 30
0.0
  0
VERTEX
  8
ZUWAKU
  6
CONTINUOUS
 62
      32
  5
9F9
 10
-138.51295931
 20
279.93556481
 30
0.0
  0
VERTEX
  8
ZUWAKU
  6
CONTINUOUS
 62
      32
  5
9FA
 10
-138.52024723
 20
279.92315076
 30
0.0
  0
VERTEX
  8
ZUWAKU
  6
CONTINUOUS
 62
      32
  5
9FB
 10
-138.52714304
 20
279.91050845
 30
0.0
  0
VERTEX
  8
ZUWAKU
  6
CONTINUOUS
 62
      32
  5
9FC
 10
-138.53363463
 20
279.89766004
 30
0.0
  0
VERTEX
  8
ZUWAKU
  6
CONTINUOUS
 62
      32
  5
9FD
 10
-138.53971063
 20
279.88462808
 30
0.0
  0
VERTEX
  8
ZUWAKU
  6
CONTINUOUS
 62
      32
  5
9FE
 10
-138.54536036
 20
279.87143544
 30
0.0
  0
VERTEX
  8
ZUWAKU
  6
CONTINUOUS
 62
      32
  5
9FF
 10
-138.55057391
 20
279.85810525
 30
0.0
  0
VERTEX
  8
ZUWAKU
  6
CONTINUOUS
 62
      32
  5
A00
 10
-138.55534215
 20
279.8446609
 30
0.0
  0
VERTEX
  8
ZUWAKU
  6
CONTINUOUS
 62
      32
  5
A01
 10
-138.5596567
 20
279.83112598
 30
0.0
  0
VERTEX
  8
ZUWAKU
  6
CONTINUOUS
 62
      32
  5
A02
 10
-138.56351
 20
279.81752423
 30
0.0
  0
VERTEX
  8
ZUWAKU
  6
CONTINUOUS
 62
      32
  5
A03
 10
-138.56689529
 20
279.80387952
 30
0.0
  0
VERTEX
  8
ZUWAKU
  6
CONTINUOUS
 62
      32
  5
A04
 10
-138.56980662
 20
279.79021578
 30
0.0
  0
VERTEX
  8
ZUWAKU
  6
CONTINUOUS
 62
      32
  5
A05
 10
-138.5722389
 20
279.77655698
 30
0.0
  0
VERTEX
  8
ZUWAKU
  6
CONTINUOUS
 62
      32
  5
A06
 10
-138.57418784
 20
279.76292708
 30
0.0
  0
VERTEX
  8
ZUWAKU
  6
CONTINUOUS
 62
      32
  5
A07
 10
-138.57565004
 20
279.74935001
 30
0.0
  0
VERTEX
  8
ZUWAKU
  6
CONTINUOUS
 62
      32
  5
A08
 10
-138.57662293
 20
279.73584956
 30
0.0
  0
VERTEX
  8
ZUWAKU
  6
CONTINUOUS
 62
      32
  5
A09
 10
-138.5771048
 20
279.72244944
 30
0.0
  0
VERTEX
  8
ZUWAKU
  6
CONTINUOUS
 62
      32
  5
A0A
 10
-138.5770948
 20
279.70917314
 30
0.0
  0
VERTEX
  8
ZUWAKU
  6
CONTINUOUS
 62
      32
  5
A0B
 10
-138.57659296
 20
279.69604397
 30
0.0
  0
VERTEX
  8
ZUWAKU
  6
CONTINUOUS
 62
      32
  5
A0C
 10
-138.57560016
 20
279.68308495
 30
0.0
  0
VERTEX
  8
ZUWAKU
  6
CONTINUOUS
 62
      32
  5
A0D
 10
-138.57411813
 20
279.67031881
 30
0.0
  0
VERTEX
  8
ZUWAKU
  6
CONTINUOUS
 62
      32
  5
A0E
 10
-138.57214947
 20
279.65776795
 30
0.0
  0
VERTEX
  8
ZUWAKU
  6
CONTINUOUS
 62
      32
  5
A0F
 10
-138.56969765
 20
279.6454544
 30
0.0
  0
VERTEX
  8
ZUWAKU
  6
CONTINUOUS
 62
      32
  5
A10
 10
-138.56676695
 20
279.63339975
 30
0.0
  0
VERTEX
  8
ZUWAKU
  6
CONTINUOUS
 62
      32
  5
A11
 10
-138.56336253
 20
279.62162515
 30
0.0
  0
VERTEX
  8
ZUWAKU
  6
CONTINUOUS
 62
      32
  5
A12
 10
-138.55949035
 20
279.61015126
 30
0.0
  0
VERTEX
  8
ZUWAKU
  6
CONTINUOUS
 62
      32
  5
A13
 10
-138.55515722
 20
279.59899821
 30
0.0
  0
VERTEX
  8
ZUWAKU
  6
CONTINUOUS
 62
      32
  5
A14
 10
-138.55037072
 20
279.58818556
 30
0.0
  0
VERTEX
  8
ZUWAKU
  6
CONTINUOUS
 62
      32
  5
A15
 10
-138.54513926
 20
279.57773228
 30
0.0
  0
VERTEX
  8
ZUWAKU
  6
CONTINUOUS
 62
      32
  5
A16
 10
-138.53947201
 20
279.56765672
 30
0.0
  0
VERTEX
  8
ZUWAKU
  6
CONTINUOUS
 62
      32
  5
A17
 10
-138.53337892
 20
279.55797654
 30
0.0
  0
VERTEX
  8
ZUWAKU
  6
CONTINUOUS
 62
      32
  5
A18
 10
-138.52687068
 20
279.54870873
 30
0.0
  0
VERTEX
  8
ZUWAKU
  6
CONTINUOUS
 62
      32
  5
A19
 10
-138.5199587
 20
279.53986955
 30
0.0
  0
VERTEX
  8
ZUWAKU
  6
CONTINUOUS
 62
      32
  5
A1A
 10
-138.51265511
 20
279.5314745
 30
0.0
  0
VERTEX
  8
ZUWAKU
  6
CONTINUOUS
 62
      32
  5
A1B
 10
-138.50497272
 20
279.52353832
 30
0.0
  0
VERTEX
  8
ZUWAKU
  6
CONTINUOUS
 62
      32
  5
A1C
 10
-138.49692502
 20
279.51607492
 30
0.0
  0
VERTEX
  8
ZUWAKU
  6
CONTINUOUS
 62
      32
  5
A1D
 10
-138.48852611
 20
279.5090974
 30
0.0
  0
VERTEX
  8
ZUWAKU
  6
CONTINUOUS
 62
      32
  5
A1E
 10
-138.47979073
 20
279.502618
 30
0.0
  0
VERTEX
  8
ZUWAKU
  6
CONTINUOUS
 62
      32
  5
A1F
 10
-138.47073422
 20
279.49664809
 30
0.0
  0
SEQEND
  8
ZUWAKU
  6
CONTINUOUS
 62
      32
  5
A20
  0
POLYLINE
  8
ZUWAKU
  6
CONTINUOUS
 62
      32
  5
2A0
 66
       1
 10
0.0
 20
0.0
 30
0.0
 70
     128
  0
VERTEX
  8
ZUWAKU
  6
CONTINUOUS
 62
      32
  5
A21
 10
-137.83924972
 20
279.04770769
 30
0.0
  0
VERTEX
  8
ZUWAKU
  6
CONTINUOUS
 62
      32
  5
A22
 10
-137.81535764
 20
279.07088451
 30
0.0
  0
VERTEX
  8
ZUWAKU
  6
CONTINUOUS
 62
      32
  5
A23
 10
-137.79193747
 20
279.09476929
 30
0.0
  0
VERTEX
  8
ZUWAKU
  6
CONTINUOUS
 62
      32
  5
A24
 10
-137.76901218
 20
279.11933862
 30
0.0
  0
VERTEX
  8
ZUWAKU
  6
CONTINUOUS
 62
      32
  5
A25
 10
-137.74660424
 20
279.14456841
 30
0.0
  0
VERTEX
  8
ZUWAKU
  6
CONTINUOUS
 62
      32
  5
A26
 10
-137.72473563
 20
279.17043392
 30
0.0
  0
VERTEX
  8
ZUWAKU
  6
CONTINUOUS
 62
      32
  5
A27
 10
-137.70342778
 20
279.1969098
 30
0.0
  0
VERTEX
  8
ZUWAKU
  6
CONTINUOUS
 62
      32
  5
A28
 10
-137.68270158
 20
279.22397009
 30
0.0
  0
VERTEX
  8
ZUWAKU
  6
CONTINUOUS
 62
      32
  5
A29
 10
-137.66257735
 20
279.25158826
 30
0.0
  0
VERTEX
  8
ZUWAKU
  6
CONTINUOUS
 62
      32
  5
A2A
 10
-137.64307482
 20
279.27973724
 30
0.0
  0
VERTEX
  8
ZUWAKU
  6
CONTINUOUS
 62
      32
  5
A2B
 10
-137.62421311
 20
279.30838943
 30
0.0
  0
VERTEX
  8
ZUWAKU
  6
CONTINUOUS
 62
      32
  5
A2C
 10
-137.6060107
 20
279.33751674
 30
0.0
  0
VERTEX
  8
ZUWAKU
  6
CONTINUOUS
 62
      32
  5
A2D
 10
-137.58848545
 20
279.36709062
 30
0.0
  0
VERTEX
  8
ZUWAKU
  6
CONTINUOUS
 62
      32
  5
A2E
 10
-137.57165454
 20
279.39708207
 30
0.0
  0
VERTEX
  8
ZUWAKU
  6
CONTINUOUS
 62
      32
  5
A2F
 10
-137.55553446
 20
279.4274617
 30
0.0
  0
VERTEX
  8
ZUWAKU
  6
CONTINUOUS
 62
      32
  5
A30
 10
-137.54014102
 20
279.45819972
 30
0.0
  0
VERTEX
  8
ZUWAKU
  6
CONTINUOUS
 62
      32
  5
A31
 10
-137.5254893
 20
279.48926599
 30
0.0
  0
VERTEX
  8
ZUWAKU
  6
CONTINUOUS
 62
      32
  5
A32
 10
-137.51159368
 20
279.52063005
 30
0.0
  0
VERTEX
  8
ZUWAKU
  6
CONTINUOUS
 62
      32
  5
A33
 10
-137.49846778
 20
279.55226118
 30
0.0
  0
VERTEX
  8
ZUWAKU
  6
CONTINUOUS
 62
      32
  5
A34
 10
-137.48612446
 20
279.58412834
 30
0.0
  0
VERTEX
  8
ZUWAKU
  6
CONTINUOUS
 62
      32
  5
A35
 10
-137.47457582
 20
279.6162003
 30
0.0
  0
VERTEX
  8
ZUWAKU
  6
CONTINUOUS
 62
      32
  5
A36
 10
-137.46383319
 20
279.64844562
 30
0.0
  0
VERTEX
  8
ZUWAKU
  6
CONTINUOUS
 62
      32
  5
A37
 10
-137.4539071
 20
279.68083269
 30
0.0
  0
VERTEX
  8
ZUWAKU
  6
CONTINUOUS
 62
      32
  5
A38
 10
-137.44480728
 20
279.71332975
 30
0.0
  0
VERTEX
  8
ZUWAKU
  6
CONTINUOUS
 62
      32
  5
A39
 10
-137.43654265
 20
279.74590496
 30
0.0
  0
VERTEX
  8
ZUWAKU
  6
CONTINUOUS
 62
      32
  5
A3A
 10
-137.42912131
 20
279.77852636
 30
0.0
  0
VERTEX
  8
ZUWAKU
  6
CONTINUOUS
 62
      32
  5
A3B
 10
-137.42255054
 20
279.81116199
 30
0.0
  0
VERTEX
  8
ZUWAKU
  6
CONTINUOUS
 62
      32
  5
A3C
 10
-137.41683678
 20
279.84377984
 30
0.0
  0
VERTEX
  8
ZUWAKU
  6
CONTINUOUS
 62
      32
  5
A3D
 10
-137.41198563
 20
279.87634795
 30
0.0
  0
VERTEX
  8
ZUWAKU
  6
CONTINUOUS
 62
      32
  5
A3E
 10
-137.40800184
 20
279.90883437
 30
0.0
  0
VERTEX
  8
ZUWAKU
  6
CONTINUOUS
 62
      32
  5
A3F
 10
-137.40488933
 20
279.94120727
 30
0.0
  0
VERTEX
  8
ZUWAKU
  6
CONTINUOUS
 62
      32
  5
A40
 10
-137.40265114
 20
279.97343491
 30
0.0
  0
VERTEX
  8
ZUWAKU
  6
CONTINUOUS
 62
      32
  5
A41
 10
-137.40128947
 20
280.00548569
 30
0.0
  0
VERTEX
  8
ZUWAKU
  6
CONTINUOUS
 62
      32
  5
A42
 10
-137.40080565
 20
280.03732819
 30
0.0
  0
VERTEX
  8
ZUWAKU
  6
CONTINUOUS
 62
      32
  5
A43
 10
-137.40120017
 20
280.0689312
 30
0.0
  0
VERTEX
  8
ZUWAKU
  6
CONTINUOUS
 62
      32
  5
A44
 10
-137.40247262
 20
280.10026373
 30
0.0
  0
VERTEX
  8
ZUWAKU
  6
CONTINUOUS
 62
      32
  5
A45
 10
-137.40462176
 20
280.13129506
 30
0.0
  0
VERTEX
  8
ZUWAKU
  6
CONTINUOUS
 62
      32
  5
A46
 10
-137.40764549
 20
280.16199478
 30
0.0
  0
VERTEX
  8
ZUWAKU
  6
CONTINUOUS
 62
      32
  5
A47
 10
-137.41154084
 20
280.19233279
 30
0.0
  0
VERTEX
  8
ZUWAKU
  6
CONTINUOUS
 62
      32
  5
A48
 10
-137.41630399
 20
280.22227934
 30
0.0
  0
VERTEX
  8
ZUWAKU
  6
CONTINUOUS
 62
      32
  5
A49
 10
-137.42193028
 20
280.25180508
 30
0.0
  0
VERTEX
  8
ZUWAKU
  6
CONTINUOUS
 62
      32
  5
A4A
 10
-137.42841419
 20
280.28088106
 30
0.0
  0
VERTEX
  8
ZUWAKU
  6
CONTINUOUS
 62
      32
  5
A4B
 10
-137.43574935
 20
280.30947877
 30
0.0
  0
VERTEX
  8
ZUWAKU
  6
CONTINUOUS
 62
      32
  5
A4C
 10
-137.44392859
 20
280.33757019
 30
0.0
  0
VERTEX
  8
ZUWAKU
  6
CONTINUOUS
 62
      32
  5
A4D
 10
-137.45294388
 20
280.36512777
 30
0.0
  0
VERTEX
  8
ZUWAKU
  6
CONTINUOUS
 62
      32
  5
A4E
 10
-137.46278638
 20
280.3921245
 30
0.0
  0
VERTEX
  8
ZUWAKU
  6
CONTINUOUS
 62
      32
  5
A4F
 10
-137.47344645
 20
280.4185339
 30
0.0
  0
VERTEX
  8
ZUWAKU
  6
CONTINUOUS
 62
      32
  5
A50
 10
-137.48491363
 20
280.44433009
 30
0.0
  0
VERTEX
  8
ZUWAKU
  6
CONTINUOUS
 62
      32
  5
A51
 10
-137.49717668
 20
280.46948778
 30
0.0
  0
VERTEX
  8
ZUWAKU
  6
CONTINUOUS
 62
      32
  5
A52
 10
-137.51022358
 20
280.49398231
 30
0.0
  0
VERTEX
  8
ZUWAKU
  6
CONTINUOUS
 62
      32
  5
A53
 10
-137.52404154
 20
280.51778966
 30
0.0
  0
VERTEX
  8
ZUWAKU
  6
CONTINUOUS
 62
      32
  5
A54
 10
-137.53861701
 20
280.54088649
 30
0.0
  0
VERTEX
  8
ZUWAKU
  6
CONTINUOUS
 62
      32
  5
A55
 10
-137.5539357
 20
280.56325017
 30
0.0
  0
VERTEX
  8
ZUWAKU
  6
CONTINUOUS
 62
      32
  5
A56
 10
-137.56998261
 20
280.58485875
 30
0.0
  0
VERTEX
  8
ZUWAKU
  6
CONTINUOUS
 62
      32
  5
A57
 10
-137.58674198
 20
280.60569107
 30
0.0
  0
VERTEX
  8
ZUWAKU
  6
CONTINUOUS
 62
      32
  5
A58
 10
-137.6041974
 20
280.6257267
 30
0.0
  0
VERTEX
  8
ZUWAKU
  6
CONTINUOUS
 62
      32
  5
A59
 10
-137.62233175
 20
280.644946
 30
0.0
  0
VERTEX
  8
ZUWAKU
  6
CONTINUOUS
 62
      32
  5
A5A
 10
-137.64112726
 20
280.66333011
 30
0.0
  0
VERTEX
  8
ZUWAKU
  6
CONTINUOUS
 62
      32
  5
A5B
 10
-137.66056549
 20
280.68086103
 30
0.0
  0
VERTEX
  8
ZUWAKU
  6
CONTINUOUS
 62
      32
  5
A5C
 10
-137.68062739
 20
280.69752157
 30
0.0
  0
VERTEX
  8
ZUWAKU
  6
CONTINUOUS
 62
      32
  5
A5D
 10
-137.70129329
 20
280.71329539
 30
0.0
  0
VERTEX
  8
ZUWAKU
  6
CONTINUOUS
 62
      32
  5
A5E
 10
-137.72254294
 20
280.72816702
 30
0.0
  0
VERTEX
  8
ZUWAKU
  6
CONTINUOUS
 62
      32
  5
A5F
 10
-137.7443555
 20
280.7421219
 30
0.0
  0
VERTEX
  8
ZUWAKU
  6
CONTINUOUS
 62
      32
  5
A60
 10
-137.76670959
 20
280.75514633
 30
0.0
  0
VERTEX
  8
ZUWAKU
  6
CONTINUOUS
 62
      32
  5
A61
 10
-137.78958329
 20
280.76722755
 30
0.0
  0
VERTEX
  8
ZUWAKU
  6
CONTINUOUS
 62
      32
  5
A62
 10
-137.81295418
 20
280.77835372
 30
0.0
  0
VERTEX
  8
ZUWAKU
  6
CONTINUOUS
 62
      32
  5
A63
 10
-137.83679934
 20
280.78851393
 30
0.0
  0
VERTEX
  8
ZUWAKU
  6
CONTINUOUS
 62
      32
  5
A64
 10
-137.8610954
 20
280.79769821
 30
0.0
  0
VERTEX
  8
ZUWAKU
  6
CONTINUOUS
 62
      32
  5
A65
 10
-137.88581854
 20
280.80589757
 30
0.0
  0
VERTEX
  8
ZUWAKU
  6
CONTINUOUS
 62
      32
  5
A66
 10
-137.91094453
 20
280.81310396
 30
0.0
  0
VERTEX
  8
ZUWAKU
  6
CONTINUOUS
 62
      32
  5
A67
 10
-137.93644873
 20
280.81931032
 30
0.0
  0
VERTEX
  8
ZUWAKU
  6
CONTINUOUS
 62
      32
  5
A68
 10
-137.96230613
 20
280.82451057
 30
0.0
  0
VERTEX
  8
ZUWAKU
  6
CONTINUOUS
 62
      32
  5
A69
 10
-137.9884914
 20
280.82869961
 30
0.0
  0
VERTEX
  8
ZUWAKU
  6
CONTINUOUS
 62
      32
  5
A6A
 10
-138.01497885
 20
280.83187333
 30
0.0
  0
VERTEX
  8
ZUWAKU
  6
CONTINUOUS
 62
      32
  5
A6B
 10
-138.04174252
 20
280.83402861
 30
0.0
  0
VERTEX
  8
ZUWAKU
  6
CONTINUOUS
 62
      32
  5
A6C
 10
-138.06875618
 20
280.83516336
 30
0.0
  0
VERTEX
  8
ZUWAKU
  6
CONTINUOUS
 62
      32
  5
A6D
 10
-138.09599333
 20
280.83527645
 30
0.0
  0
VERTEX
  8
ZUWAKU
  6
CONTINUOUS
 62
      32
  5
A6E
 10
-138.12342728
 20
280.83436777
 30
0.0
  0
VERTEX
  8
ZUWAKU
  6
CONTINUOUS
 62
      32
  5
A6F
 10
-138.15103114
 20
280.83243822
 30
0.0
  0
VERTEX
  8
ZUWAKU
  6
CONTINUOUS
 62
      32
  5
A70
 10
-138.17877784
 20
280.82948968
 30
0.0
  0
VERTEX
  8
ZUWAKU
  6
CONTINUOUS
 62
      32
  5
A71
 10
-138.20664017
 20
280.82552505
 30
0.0
  0
VERTEX
  8
ZUWAKU
  6
CONTINUOUS
 62
      32
  5
A72
 10
-138.23459083
 20
280.82054822
 30
0.0
  0
VERTEX
  8
ZUWAKU
  6
CONTINUOUS
 62
      32
  5
A73
 10
-138.26260242
 20
280.81456405
 30
0.0
  0
VERTEX
  8
ZUWAKU
  6
CONTINUOUS
 62
      32
  5
A74
 10
-138.29064747
 20
280.80757843
 30
0.0
  0
VERTEX
  8
ZUWAKU
  6
CONTINUOUS
 62
      32
  5
A75
 10
-138.31869848
 20
280.79959819
 30
0.0
  0
VERTEX
  8
ZUWAKU
  6
CONTINUOUS
 62
      32
  5
A76
 10
-138.34672796
 20
280.79063117
 30
0.0
  0
VERTEX
  8
ZUWAKU
  6
CONTINUOUS
 62
      32
  5
A77
 10
-138.37470844
 20
280.78068614
 30
0.0
  0
VERTEX
  8
ZUWAKU
  6
CONTINUOUS
 62
      32
  5
A78
 10
-138.40261247
 20
280.76977287
 30
0.0
  0
VERTEX
  8
ZUWAKU
  6
CONTINUOUS
 62
      32
  5
A79
 10
-138.4304127
 20
280.75790205
 30
0.0
  0
VERTEX
  8
ZUWAKU
  6
CONTINUOUS
 62
      32
  5
A7A
 10
-138.45808188
 20
280.74508531
 30
0.0
  0
VERTEX
  8
ZUWAKU
  6
CONTINUOUS
 62
      32
  5
A7B
 10
-138.48559289
 20
280.73133523
 30
0.0
  0
VERTEX
  8
ZUWAKU
  6
CONTINUOUS
 62
      32
  5
A7C
 10
-138.51291875
 20
280.71666528
 30
0.0
  0
VERTEX
  8
ZUWAKU
  6
CONTINUOUS
 62
      32
  5
A7D
 10
-138.54003267
 20
280.70108985
 30
0.0
  0
VERTEX
  8
ZUWAKU
  6
CONTINUOUS
 62
      32
  5
A7E
 10
-138.56690808
 20
280.6846242
 30
0.0
  0
VERTEX
  8
ZUWAKU
  6
CONTINUOUS
 62
      32
  5
A7F
 10
-138.59351862
 20
280.66728447
 30
0.0
  0
VERTEX
  8
ZUWAKU
  6
CONTINUOUS
 62
      32
  5
A80
 10
-138.6198382
 20
280.64908767
 30
0.0
  0
VERTEX
  8
ZUWAKU
  6
CONTINUOUS
 62
      32
  5
A81
 10
-138.64584104
 20
280.63005164
 30
0.0
  0
VERTEX
  8
ZUWAKU
  6
CONTINUOUS
 62
      32
  5
A82
 10
-138.67150162
 20
280.61019503
 30
0.0
  0
VERTEX
  8
ZUWAKU
  6
CONTINUOUS
 62
      32
  5
A83
 10
-138.6967948
 20
280.58953731
 30
0.0
  0
VERTEX
  8
ZUWAKU
  6
CONTINUOUS
 62
      32
  5
A84
 10
-138.72169579
 20
280.56809874
 30
0.0
  0
VERTEX
  8
ZUWAKU
  6
CONTINUOUS
 62
      32
  5
A85
 10
-138.74618016
 20
280.54590033
 30
0.0
  0
VERTEX
  8
ZUWAKU
  6
CONTINUOUS
 62
      32
  5
A86
 10
-138.77022391
 20
280.52296385
 30
0.0
  0
VERTEX
  8
ZUWAKU
  6
CONTINUOUS
 62
      32
  5
A87
 10
-138.79380348
 20
280.49931177
 30
0.0
  0
VERTEX
  8
ZUWAKU
  6
CONTINUOUS
 62
      32
  5
A88
 10
-138.81689575
 20
280.4749673
 30
0.0
  0
VERTEX
  8
ZUWAKU
  6
CONTINUOUS
 62
      32
  5
A89
 10
-138.83947807
 20
280.44995428
 30
0.0
  0
VERTEX
  8
ZUWAKU
  6
CONTINUOUS
 62
      32
  5
A8A
 10
-138.86152832
 20
280.42429726
 30
0.0
  0
VERTEX
  8
ZUWAKU
  6
CONTINUOUS
 62
      32
  5
A8B
 10
-138.88302487
 20
280.39802137
 30
0.0
  0
VERTEX
  8
ZUWAKU
  6
CONTINUOUS
 62
      32
  5
A8C
 10
-138.90394665
 20
280.37115238
 30
0.0
  0
VERTEX
  8
ZUWAKU
  6
CONTINUOUS
 62
      32
  5
A8D
 10
-138.92427315
 20
280.34371662
 30
0.0
  0
VERTEX
  8
ZUWAKU
  6
CONTINUOUS
 62
      32
  5
A8E
 10
-138.94398443
 20
280.31574101
 30
0.0
  0
VERTEX
  8
ZUWAKU
  6
CONTINUOUS
 62
      32
  5
A8F
 10
-138.96306119
 20
280.28725295
 30
0.0
  0
VERTEX
  8
ZUWAKU
  6
CONTINUOUS
 62
      32
  5
A90
 10
-138.98148471
 20
280.25828039
 30
0.0
  0
VERTEX
  8
ZUWAKU
  6
CONTINUOUS
 62
      32
  5
A91
 10
-138.99923693
 20
280.22885172
 30
0.0
  0
VERTEX
  8
ZUWAKU
  6
CONTINUOUS
 62
      32
  5
A92
 10
-139.01630046
 20
280.19899579
 30
0.0
  0
VERTEX
  8
ZUWAKU
  6
CONTINUOUS
 62
      32
  5
A93
 10
-139.03265855
 20
280.16874188
 30
0.0
  0
VERTEX
  8
ZUWAKU
  6
CONTINUOUS
 62
      32
  5
A94
 10
-139.04829518
 20
280.13811964
 30
0.0
  0
VERTEX
  8
ZUWAKU
  6
CONTINUOUS
 62
      32
  5
A95
 10
-139.06319502
 20
280.10715909
 30
0.0
  0
VERTEX
  8
ZUWAKU
  6
CONTINUOUS
 62
      32
  5
A96
 10
-139.07734346
 20
280.07589059
 30
0.0
  0
VERTEX
  8
ZUWAKU
  6
CONTINUOUS
 62
      32
  5
A97
 10
-139.09072662
 20
280.04434479
 30
0.0
  0
VERTEX
  8
ZUWAKU
  6
CONTINUOUS
 62
      32
  5
A98
 10
-139.10333139
 20
280.01255262
 30
0.0
  0
VERTEX
  8
ZUWAKU
  6
CONTINUOUS
 62
      32
  5
A99
 10
-139.11514542
 20
279.98054524
 30
0.0
  0
VERTEX
  8
ZUWAKU
  6
CONTINUOUS
 62
      32
  5
A9A
 10
-139.12615711
 20
279.94835403
 30
0.0
  0
VERTEX
  8
ZUWAKU
  6
CONTINUOUS
 62
      32
  5
A9B
 10
-139.13635567
 20
279.91601055
 30
0.0
  0
VERTEX
  8
ZUWAKU
  6
CONTINUOUS
 62
      32
  5
A9C
 10
-139.14573111
 20
279.88354651
 30
0.0
  0
VERTEX
  8
ZUWAKU
  6
CONTINUOUS
 62
      32
  5
A9D
 10
-139.15427424
 20
279.85099373
 30
0.0
  0
VERTEX
  8
ZUWAKU
  6
CONTINUOUS
 62
      32
  5
A9E
 10
-139.16197667
 20
279.81838413
 30
0.0
  0
VERTEX
  8
ZUWAKU
  6
CONTINUOUS
 62
      32
  5
A9F
 10
-139.16883086
 20
279.78574969
 30
0.0
  0
VERTEX
  8
ZUWAKU
  6
CONTINUOUS
 62
      32
  5
AA0
 10
-139.17483009
 20
279.75312238
 30
0.0
  0
VERTEX
  8
ZUWAKU
  6
CONTINUOUS
 62
      32
  5
AA1
 10
-139.17996848
 20
279.72053419
 30
0.0
  0
VERTEX
  8
ZUWAKU
  6
CONTINUOUS
 62
      32
  5
AA2
 10
-139.18424099
 20
279.68801709
 30
0.0
  0
VERTEX
  8
ZUWAKU
  6
CONTINUOUS
 62
      32
  5
AA3
 10
-139.18764342
 20
279.65560293
 30
0.0
  0
VERTEX
  8
ZUWAKU
  6
CONTINUOUS
 62
      32
  5
AA4
 10
-139.19017246
 20
279.62332351
 30
0.0
  0
VERTEX
  8
ZUWAKU
  6
CONTINUOUS
 62
      32
  5
AA5
 10
-139.1918256
 20
279.59121046
 30
0.0
  0
VERTEX
  8
ZUWAKU
  6
CONTINUOUS
 62
      32
  5
AA6
 10
-139.19260125
 20
279.55929527
 30
0.0
  0
VERTEX
  8
ZUWAKU
  6
CONTINUOUS
 62
      32
  5
AA7
 10
-139.19249863
 20
279.52760922
 30
0.0
  0
VERTEX
  8
ZUWAKU
  6
CONTINUOUS
 62
      32
  5
AA8
 10
-139.19151784
 20
279.49618338
 30
0.0
  0
VERTEX
  8
ZUWAKU
  6
CONTINUOUS
 62
      32
  5
AA9
 10
-139.18965985
 20
279.46504856
 30
0.0
  0
VERTEX
  8
ZUWAKU
  6
CONTINUOUS
 62
      32
  5
AAA
 10
-139.18692648
 20
279.43423529
 30
0.0
  0
VERTEX
  8
ZUWAKU
  6
CONTINUOUS
 62
      32
  5
AAB
 10
-139.18332041
 20
279.40377376
 30
0.0
  0
VERTEX
  8
ZUWAKU
  6
CONTINUOUS
 62
      32
  5
AAC
 10
-139.17884517
 20
279.37369384
 30
0.0
  0
VERTEX
  8
ZUWAKU
  6
CONTINUOUS
 62
      32
  5
AAD
 10
-139.17350515
 20
279.34402502
 30
0.0
  0
VERTEX
  8
ZUWAKU
  6
CONTINUOUS
 62
      32
  5
AAE
 10
-139.16730559
 20
279.31479639
 30
0.0
  0
VERTEX
  8
ZUWAKU
  6
CONTINUOUS
 62
      32
  5
AAF
 10
-139.16025256
 20
279.2860366
 30
0.0
  0
VERTEX
  8
ZUWAKU
  6
CONTINUOUS
 62
      32
  5
AB0
 10
-139.15235298
 20
279.25777385
 30
0.0
  0
VERTEX
  8
ZUWAKU
  6
CONTINUOUS
 62
      32
  5
AB1
 10
-139.14361459
 20
279.23003584
 30
0.0
  0
VERTEX
  8
ZUWAKU
  6
CONTINUOUS
 62
      32
  5
AB2
 10
-139.13404596
 20
279.20284976
 30
0.0
  0
VERTEX
  8
ZUWAKU
  6
CONTINUOUS
 62
      32
  5
AB3
 10
-139.12365647
 20
279.17624228
 30
0.0
  0
VERTEX
  8
ZUWAKU
  6
CONTINUOUS
 62
      32
  5
AB4
 10
-139.11245631
 20
279.15023946
 30
0.0
  0
VERTEX
  8
ZUWAKU
  6
CONTINUOUS
 62
      32
  5
AB5
 10
-139.10045645
 20
279.12486682
 30
0.0
  0
VERTEX
  8
ZUWAKU
  6
CONTINUOUS
 62
      32
  5
AB6
 10
-139.08766866
 20
279.10014921
 30
0.0
  0
VERTEX
  8
ZUWAKU
  6
CONTINUOUS
 62
      32
  5
AB7
 10
-139.07410547
 20
279.07611087
 30
0.0
  0
SEQEND
  8
ZUWAKU
  6
CONTINUOUS
 62
      32
  5
AB8
  0
ARC
  8
ZUWAKU
  6
CONTINUOUS
 62
      32
  5
2A1
 10
-139.35726281
 20
280.41384847
 30
0.0
 40
1.41623024
 50
277.55531967
 51
282.61004677
  0
ARC
  8
ZUWAKU
  6
CONTINUOUS
 62
      32
  5
2A2
 10
-139.35726281
 20
280.41384847
 30
0.0
 40
2.04223024
 50
276.29029269
 51
293.79815684
  0
ARC
  8
ZUWAKU
  6
CONTINUOUS
 62
      32
  5
2A3
 10
-139.35726281
 20
280.41384847
 30
0.0
 40
2.04223024
 50
316.57125834
 51
318.01426788
  0
ARC
  8
ZUWAKU
  6
CONTINUOUS
 62
      32
  5
2A4
 10
-137.89043339
 20
279.74122139
 30
0.0
 40
1.35773768
 50
209.3318227
 51
211.50126528
  0
ARC
  8
ZUWAKU
  6
CONTINUOUS
 62
      32
  5
2A5
 10
-137.89043339
 20
279.74122139
 30
0.0
 40
1.35773768
 50
241.74457829
 51
270.0
  0
LINE
  8
ZUWAKU
  6
CONTINUOUS
 62
      32
  5
2A6
 10
-141.34540389
 20
279.00991341
 30
0.0
 11
-139.17105206
 21
279.00991341
 31
0.0
  0
LINE
  8
ZUWAKU
  6
CONTINUOUS
 62
      32
  5
2A7
 10
-137.89043339
 20
278.38391341
 30
0.0
 11
-136.68668483
 21
278.38391341
 31
0.0
  0
LINE
  8
ZUWAKU
  6
CONTINUOUS
 62
      32
  5
2A8
 10
-137.87413412
 20
279.00991341
 30
0.0
 11
-136.54642079
 21
279.00991341
 31
0.0
  0
LINE
  8
ZUWAKU
  6
CONTINUOUS
 62
      32
  5
2A9
 10
-153.0
 20
278.38391341
 30
0.0
 11
-151.5
 21
278.38391341
 31
0.0
  0
LINE
  8
ZUWAKU
  6
CONTINUOUS
 62
      32
  5
2AA
 10
-146.6737039
 20
278.40360591
 30
0.0
 11
-145.95868276
 21
278.38391341
 31
0.0
  0
LINE
  8
ZUWAKU
  6
CONTINUOUS
 62
      32
  5
2AB
 10
-144.15872727
 20
279.00991341
 30
0.0
 11
-143.00282144
 21
279.00991341
 31
0.0
  0
LINE
  8
ZUWAKU
  6
CONTINUOUS
 62
      32
  5
2AC
 10
-140.86965896
 20
279.91110284
 30
0.0
 11
-140.40269166
 21
280.28856808
 31
0.0
  0
ARC
  8
ZUWAKU
  6
CONTINUOUS
 62
      32
  5
2AD
 10
-141.34540389
 20
279.58991341
 30
0.0
 40
0.58
 50
34.07537472
 51
270.0
  0
ARC
  8
ZUWAKU
  6
CONTINUOUS
 62
      32
  5
2AE
 10
-141.34540389
 20
279.58991341
 30
0.0
 40
1.17338174
 50
36.54256145
 51
190.98612084
  0
LINE
  8
ZUWAKU
  6
CONTINUOUS
 62
      32
  5
2AF
 10
-142.84495891
 20
278.38391341
 30
0.0
 11
-142.25060792
 21
278.82126603
 31
0.0
  0
LINE
  8
ZUWAKU
  6
CONTINUOUS
 62
      32
  5
2B0
 10
-142.50473504
 20
279.37642982
 30
0.0
 11
-143.00282144
 21
279.00991341
 31
0.0
  0
LINE
  8
ZUWAKU
  6
CONTINUOUS
 62
      32
  5
2B1
 10
-142.25060792
 20
278.82126603
 30
0.0
 11
-141.75
 21
278.38391341
 31
0.0
  0
LINE
  8
ZUWAKU
  6
CONTINUOUS
 62
      32
  5
2B2
 10
-136.54642079
 20
279.00991341
 30
0.0
 11
-136.68668483
 21
278.38391341
 31
0.0
  0
LINE
  8
ZUWAKU
  6
CONTINUOUS
 62
      32
  5
2B3
 10
-169.78965332
 20
284.49328841
 30
0.0
 11
-170.13340332
 21
284.14953841
 31
0.0
  0
LINE
  8
ZUWAKU
  6
CONTINUOUS
 62
      32
  5
2B4
 10
-169.06634305
 20
284.56477457
 30
0.0
 11
-169.55306537
 21
284.07805225
 31
0.0
  0
LINE
  8
ZUWAKU
  6
CONTINUOUS
 62
      32
  5
2B5
 10
-168.24759757
 20
284.62141341
 30
0.0
 11
-168.84837882
 21
284.02063216
 31
0.0
  0
LINE
  8
ZUWAKU
  6
CONTINUOUS
 62
      32
  5
2B6
 10
-167.44033516
 20
284.63391341
 30
0.0
 11
-168.06533516
 21
284.00891341
 31
0.0
  0
LINE
  8
ZUWAKU
  6
CONTINUOUS
 62
      32
  5
2B7
 10
-166.60562898
 20
284.63391341
 30
0.0
 11
-167.23062898
 21
284.00891341
 31
0.0
  0
LINE
  8
ZUWAKU
  6
CONTINUOUS
 62
      32
  5
2B8
 10
-165.68789265
 20
284.63391341
 30
0.0
 11
-166.31289265
 21
284.00891341
 31
0.0
  0
LINE
  8
ZUWAKU
  6
CONTINUOUS
 62
      32
  5
2B9
 10
-164.91439882
 20
284.63391341
 30
0.0
 11
-165.53939882
 21
284.00891341
 31
0.0
  0
LINE
  8
ZUWAKU
  6
CONTINUOUS
 62
      32
  5
2BA
 10
-164.69816213
 20
278.57263229
 30
0.0
 11
-164.88688101
 21
278.38391341
 31
0.0
  0
LINE
  8
ZUWAKU
  6
CONTINUOUS
 62
      32
  5
2BB
 10
-164.35875087
 20
279.47772897
 30
0.0
 11
-165.45256643
 21
278.38391341
 31
0.0
  0
LINE
  8
ZUWAKU
  6
CONTINUOUS
 62
      32
  5
2BC
 10
-164.01933962
 20
280.38282565
 30
0.0
 11
-165.08904889
 21
279.31311638
 31
0.0
  0
LINE
  8
ZUWAKU
  6
CONTINUOUS
 62
      32
  5
2BD
 10
-165.39225186
 20
279.00991341
 30
0.0
 11
-166.01825186
 21
278.38391341
 31
0.0
  0
LINE
  8
ZUWAKU
  6
CONTINUOUS
 62
      32
  5
2BE
 10
-163.67992836
 20
281.28792233
 30
0.0
 11
-164.74963763
 21
280.21821306
 31
0.0
  0
LINE
  8
ZUWAKU
  6
CONTINUOUS
 62
      32
  5
2BF
 10
-165.95793728
 20
279.00991341
 30
0.0
 11
-166.58393728
 21
278.38391341
 31
0.0
  0
LINE
  8
ZUWAKU
  6
CONTINUOUS
 62
      32
  5
2C0
 10
-166.52362271
 20
279.00991341
 30
0.0
 11
-166.71022638
 21
278.82330974
 31
0.0
  0
LINE
  8
ZUWAKU
  6
CONTINUOUS
 62
      32
  5
2C1
 10
-162.59667898
 20
284.63391341
 30
0.0
 11
-163.39199261
 21
283.83859978
 31
0.0
  0
LINE
  8
ZUWAKU
  6
CONTINUOUS
 62
      32
  5
2C2
 10
-163.16236441
 20
284.63391341
 30
0.0
 11
-163.78736441
 21
284.00891341
 31
0.0
  0
LINE
  8
ZUWAKU
  6
CONTINUOUS
 62
      32
  5
2C3
 10
-163.72804983
 20
284.63391341
 30
0.0
 11
-164.35304983
 21
284.00891341
 31
0.0
  0
LINE
  8
ZUWAKU
  6
CONTINUOUS
 62
      32
  5
2C4
 10
-164.29373526
 20
284.63391341
 30
0.0
 11
-164.62375885
 21
284.30388982
 31
0.0
  0
LINE
  8
ZUWAKU
  6
CONTINUOUS
 62
      32
  5
2C5
 10
-158.55820581
 20
280.75279064
 30
0.0
 11
-159.15658581
 21
280.15441063
 31
0.0
  0
LINE
  8
ZUWAKU
  6
CONTINUOUS
 62
      32
  5
2C6
 10
-157.95579778
 20
280.78951324
 30
0.0
 11
-159.30411887
 21
279.44119215
 31
0.0
  0
LINE
  8
ZUWAKU
  6
CONTINUOUS
 62
      32
  5
2C7
 10
-157.51870436
 20
280.09523581
 30
0.0
 11
-159.22740919
 21
278.38653098
 31
0.0
  0
LINE
  8
ZUWAKU
  6
CONTINUOUS
 62
      32
  5
2C8
 10
-161.46530813
 20
284.63391341
 30
0.0
 11
-162.09030813
 21
284.00891341
 31
0.0
  0
LINE
  8
ZUWAKU
  6
CONTINUOUS
 62
      32
  5
2C9
 10
-163.00110585
 20
283.09811569
 30
0.0
 11
-164.07081512
 21
282.02840642
 31
0.0
  0
LINE
  8
ZUWAKU
  6
CONTINUOUS
 62
      32
  5
2CA
 10
-160.89962271
 20
284.63391341
 30
0.0
 11
-161.52462271
 21
284.00891341
 31
0.0
  0
LINE
  8
ZUWAKU
  6
CONTINUOUS
 62
      32
  5
2CB
 10
-163.34051711
 20
282.19301901
 30
0.0
 11
-164.41022638
 21
281.12330974
 31
0.0
  0
LINE
  8
ZUWAKU
  6
CONTINUOUS
 62
      32
  5
2CC
 10
-160.34027425
 20
284.62757645
 30
0.0
 11
-160.95893728
 21
284.00891341
 31
0.0
  0
LINE
  8
ZUWAKU
  6
CONTINUOUS
 62
      32
  5
2CD
 10
-162.95893728
 20
282.00891341
 30
0.0
 11
-163.58493728
 21
281.38291341
 31
0.0
  0
LINE
  8
ZUWAKU
  6
CONTINUOUS
 62
      32
  5
2CE
 10
-159.88323909
 20
284.51892618
 30
0.0
 11
-160.39701154
 21
284.00515373
 31
0.0
  0
LINE
  8
ZUWAKU
  6
CONTINUOUS
 62
      32
  5
2CF
 10
-162.39325186
 20
282.00891341
 30
0.0
 11
-163.13159095
 21
281.27057432
 31
0.0
  0
LINE
  8
ZUWAKU
  6
CONTINUOUS
 62
      32
  5
2D0
 10
-159.51949715
 20
284.3169827
 30
0.0
 11
-159.96972681
 21
283.86675303
 31
0.0
  0
LINE
  8
ZUWAKU
  6
CONTINUOUS
 62
      32
  5
2D1
 10
-159.22907662
 20
284.0417178
 30
0.0
 11
-159.67440368
 21
283.59639074
 31
0.0
  0
LINE
  8
ZUWAKU
  6
CONTINUOUS
 62
      32
  5
2D2
 10
-159.01043228
 20
283.69467672
 30
0.0
 11
-159.502569
 21
283.20253999
 31
0.0
  0
LINE
  8
ZUWAKU
  6
CONTINUOUS
 62
      32
  5
2D3
 10
-158.87833104
 20
283.26109253
 30
0.0
 11
-159.60151217
 21
282.53791139
 31
0.0
  0
LINE
  8
ZUWAKU
  6
CONTINUOUS
 62
      32
  5
2D4
 10
-162.03099356
 20
284.63391341
 30
0.0
 11
-162.65599356
 21
284.00891341
 31
0.0
  0
LINE
  8
ZUWAKU
  6
CONTINUOUS
 62
      32
  5
2D5
 10
-162.6616946
 20
284.00321237
 30
0.0
 11
-163.73140387
 21
282.9335031
 31
0.0
  0
LINE
  8
ZUWAKU
  6
CONTINUOUS
 62
      32
  5
2D6
 10
-161.26188101
 20
282.00891341
 30
0.0
 11
-161.88788101
 21
281.38291341
 31
0.0
  0
LINE
  8
ZUWAKU
  6
CONTINUOUS
 62
      32
  5
2D7
 10
-162.26363132
 20
281.0071631
 30
0.0
 11
-162.72304036
 21
280.54775406
 31
0.0
  0
LINE
  8
ZUWAKU
  6
CONTINUOUS
 62
      32
  5
2D8
 10
-161.82756643
 20
282.00891341
 30
0.0
 11
-162.45356643
 21
281.38291341
 31
0.0
  0
LINE
  8
ZUWAKU
  6
CONTINUOUS
 62
      32
  5
2D9
 10
-162.46790661
 20
281.36857324
 30
0.0
 11
-162.92731566
 21
280.90916419
 31
0.0
  0
LINE
  8
ZUWAKU
  6
CONTINUOUS
 62
      32
  5
2DA
 10
-160.69619558
 20
282.00891341
 30
0.0
 11
-161.32219558
 21
281.38291341
 31
0.0
  0
LINE
  8
ZUWAKU
  6
CONTINUOUS
 62
      32
  5
2DB
 10
-162.05935602
 20
280.64575297
 30
0.0
 11
-162.51876507
 21
280.18634392
 31
0.0
  0
LINE
  8
ZUWAKU
  6
CONTINUOUS
 62
      32
  5
2DC
 10
-160.01264229
 20
282.12678128
 30
0.0
 11
-160.75651016
 21
281.38291341
 31
0.0
  0
LINE
  8
ZUWAKU
  6
CONTINUOUS
 62
      32
  5
2DD
 10
-161.85508073
 20
280.28434284
 30
0.0
 11
-162.31448978
 21
279.82493379
 31
0.0
  0
LINE
  8
ZUWAKU
  6
CONTINUOUS
 62
      32
  5
2DE
 10
-158.89190125
 20
282.68183689
 30
0.0
 11
-160.15656779
 21
281.41717036
 31
0.0
  0
LINE
  8
ZUWAKU
  6
CONTINUOUS
 62
      32
  5
2DF
 10
-161.65080544
 20
279.92293271
 30
0.0
 11
-162.11021449
 21
279.46352366
 31
0.0
  0
LINE
  8
ZUWAKU
  6
CONTINUOUS
 62
      32
  5
2E0
 10
-161.44653015
 20
279.56152257
 30
0.0
 11
-161.90593919
 21
279.10211353
 31
0.0
  0
LINE
  8
ZUWAKU
  6
CONTINUOUS
 62
      32
  5
2E1
 10
-161.24225485
 20
279.20011244
 30
0.0
 11
-161.7016639
 21
278.74070339
 31
0.0
  0
LINE
  8
ZUWAKU
  6
CONTINUOUS
 62
      32
  5
2E2
 10
-160.86676846
 20
279.00991341
 30
0.0
 11
-161.49276846
 21
278.38391341
 31
0.0
  0
LINE
  8
ZUWAKU
  6
CONTINUOUS
 62
      32
  5
2E3
 10
-160.30108303
 20
279.00991341
 30
0.0
 11
-160.92708303
 21
278.38391341
 31
0.0
  0
LINE
  8
ZUWAKU
  6
CONTINUOUS
 62
      32
  5
2E4
 10
-159.73539761
 20
279.00991341
 30
0.0
 11
-160.36139761
 21
278.38391341
 31
0.0
  0
LINE
  8
ZUWAKU
  6
CONTINUOUS
 62
      32
  5
2E5
 10
-157.64868707
 20
280.53093852
 30
0.0
 11
-158.16710388
 21
280.01252171
 31
0.0
  0
LINE
  8
ZUWAKU
  6
CONTINUOUS
 62
      32
  5
2E6
 10
-158.63793779
 20
279.5416878
 30
0.0
 11
-159.79571218
 21
278.38391341
 31
0.0
  0
LINE
  8
ZUWAKU
  6
CONTINUOUS
 62
      32
  5
2E7
 10
-154.56918443
 20
282.47907031
 30
0.0
 11
-156.00352256
 21
281.04473218
 31
0.0
  0
LINE
  8
ZUWAKU
  6
CONTINUOUS
 62
      32
  5
2E8
 10
-157.74222784
 20
279.3060269
 30
0.0
 11
-158.55099602
 21
278.49725872
 31
0.0
  0
LINE
  8
ZUWAKU
  6
CONTINUOUS
 62
      32
  5
2E9
 10
-154.18055298
 20
282.30201634
 30
0.0
 11
-156.32625725
 21
280.15631207
 31
0.0
  0
LINE
  8
ZUWAKU
  6
CONTINUOUS
 62
      32
  5
2EA
 10
-157.47265591
 20
279.00991341
 30
0.0
 11
-158.09615091
 21
278.38641841
 31
0.0
  0
LINE
  8
ZUWAKU
  6
CONTINUOUS
 62
      32
  5
2EB
 10
-156.90697048
 20
279.00991341
 30
0.0
 11
-157.53297048
 21
278.38391341
 31
0.0
  0
LINE
  8
ZUWAKU
  6
CONTINUOUS
 62
      32
  5
2EC
 10
-154.03970436
 20
281.87717953
 30
0.0
 11
-154.85423575
 21
281.06264814
 31
0.0
  0
LINE
  8
ZUWAKU
  6
CONTINUOUS
 62
      32
  5
2ED
 10
-155.5866777
 20
280.3302062
 30
0.0
 11
-156.40120909
 21
279.51567481
 31
0.0
  0
LINE
  8
ZUWAKU
  6
CONTINUOUS
 62
      32
  5
2EE
 10
-154.07223941
 20
281.27895906
 30
0.0
 11
-156.96728506
 21
278.38391341
 31
0.0
  0
LINE
  8
ZUWAKU
  6
CONTINUOUS
 62
      32
  5
2EF
 10
-154.31792526
 20
280.46758779
 30
0.0
 11
-156.33710072
 21
278.44841233
 31
0.0
  0
LINE
  8
ZUWAKU
  6
CONTINUOUS
 62
      32
  5
2F0
 10
-152.20347767
 20
280.88457145
 30
0.0
 11
-154.70413571
 21
278.38391341
 31
0.0
  0
LINE
  8
ZUWAKU
  6
CONTINUOUS
 62
      32
  5
2F1
 10
-152.01059503
 20
282.20882494
 30
0.0
 11
-152.14106201
 21
282.07835796
 31
0.0
  0
LINE
  8
ZUWAKU
  6
CONTINUOUS
 62
      32
  5
2F2
 10
-155.14921434
 20
279.07020563
 30
0.0
 11
-155.63530826
 21
278.58411171
 31
0.0
  0
LINE
  8
ZUWAKU
  6
CONTINUOUS
 62
      32
  5
2F3
 10
-151.52624344
 20
282.12749111
 30
0.0
 11
-152.05972817
 21
281.59400637
 31
0.0
  0
LINE
  8
ZUWAKU
  6
CONTINUOUS
 62
      32
  5
2F4
 10
-154.64382113
 20
279.00991341
 30
0.0
 11
-155.21411258
 21
278.43962197
 31
0.0
  0
LINE
  8
ZUWAKU
  6
CONTINUOUS
 62
      32
  5
2F5
 10
-149.11331488
 20
280.58062169
 30
0.0
 11
-151.15885961
 21
278.53507697
 31
0.0
  0
LINE
  8
ZUWAKU
  6
CONTINUOUS
 62
      32
  5
2F6
 10
-151.81539401
 20
279.00991341
 30
0.0
 11
-152.44139401
 21
278.38391341
 31
0.0
  0
LINE
  8
ZUWAKU
  6
CONTINUOUS
 62
      32
  5
2F7
 10
-152.23702224
 20
279.1539706
 30
0.0
 11
-153.00707943
 21
278.38391341
 31
0.0
  0
LINE
  8
ZUWAKU
  6
CONTINUOUS
 62
      32
  5
2F8
 10
-152.12388516
 20
279.83279311
 30
0.0
 11
-152.88544703
 21
279.07123124
 31
0.0
  0
LINE
  8
ZUWAKU
  6
CONTINUOUS
 62
      32
  5
2F9
 10
-154.13845028
 20
278.38391341
 30
0.0
 11
-152.01074807
 21
280.51161562
 31
0.0
  0
LINE
  8
ZUWAKU
  6
CONTINUOUS
 62
      32
  5
2FA
 10
-147.92446063
 20
280.6381051
 30
0.0
 11
-150.17488725
 21
278.38767847
 31
0.0
  0
LINE
  8
ZUWAKU
  6
CONTINUOUS
 62
      32
  5
2FB
 10
-148.16759035
 20
279.82928995
 30
0.0
 11
-149.34583398
 21
278.65104631
 31
0.0
  0
LINE
  8
ZUWAKU
  6
CONTINUOUS
 62
      32
  5
2FC
 10
-148.375
 20
279.05619487
 30
0.0
 11
-149.04728146
 21
278.38391341
 31
0.0
  0
LINE
  8
ZUWAKU
  6
CONTINUOUS
 62
      32
  5
2FD
 10
-147.85559603
 20
279.00991341
 30
0.0
 11
-148.48159603
 21
278.38391341
 31
0.0
  0
LINE
  8
ZUWAKU
  6
CONTINUOUS
 62
      32
  5
2FE
 10
-145.85025627
 20
280.44956775
 30
0.0
 11
-147.91591061
 21
278.38391341
 31
0.0
  0
LINE
  8
ZUWAKU
  6
CONTINUOUS
 62
      32
  5
2FF
 10
-149.96595629
 20
280.29366571
 30
0.0
 11
-150.2874645
 21
279.9721575
 31
0.0
  0
LINE
  8
ZUWAKU
  6
CONTINUOUS
 62
      32
  5
300
 10
-150.92509315
 20
279.33452885
 30
0.0
 11
-151.87570858
 21
278.38391341
 31
0.0
  0
LINE
  8
ZUWAKU
  6
CONTINUOUS
 62
      32
  5
301
 10
-149.77499768
 20
279.35325347
 30
0.0
 11
-150.53680885
 21
278.5914423
 31
0.0
  0
LINE
  8
ZUWAKU
  6
CONTINUOUS
 62
      32
  5
302
 10
-148.49014605
 20
280.6381051
 30
0.0
 11
-148.56782732
 21
280.56042383
 31
0.0
  0
LINE
  8
ZUWAKU
  6
CONTINUOUS
 62
      32
  5
303
 10
-148.76338911
 20
280.36486203
 30
0.0
 11
-149.30120257
 21
279.82704858
 31
0.0
  0
LINE
  8
ZUWAKU
  6
CONTINUOUS
 62
      32
  5
304
 10
-141.04907876
 20
280.72526187
 30
0.0
 11
-143.39042721
 21
278.38391341
 31
0.0
  0
LINE
  8
ZUWAKU
  6
CONTINUOUS
 62
      32
  5
305
 10
-136.54974351
 20
278.99508408
 30
0.0
 11
-137.16091417
 21
278.38391341
 31
0.0
  0
LINE
  8
ZUWAKU
  6
CONTINUOUS
 62
      32
  5
306
 10
-137.10757296
 20
279.00991341
 30
0.0
 11
-137.73357296
 21
278.38391341
 31
0.0
  0
LINE
  8
ZUWAKU
  6
CONTINUOUS
 62
      32
  5
307
 10
-137.68178602
 20
280.69844206
 30
0.0
 11
-138.26323311
 21
280.11699496
 31
0.0
  0
LINE
  8
ZUWAKU
  6
CONTINUOUS
 62
      32
  5
308
 10
-137.45027719
 20
280.35729209
 30
0.0
 11
-138.02693638
 21
279.7806329
 31
0.0
  0
LINE
  8
ZUWAKU
  6
CONTINUOUS
 62
      32
  5
309
 10
-138.33961394
 20
279.46795534
 30
0.0
 11
-139.42365587
 21
278.38391341
 31
0.0
  0
LINE
  8
ZUWAKU
  6
CONTINUOUS
 62
      32
  5
30A
 10
-138.10381923
 20
280.8351209
 30
0.0
 11
-139.17248103
 21
279.7664591
 31
0.0
  0
LINE
  8
ZUWAKU
  6
CONTINUOUS
 62
      32
  5
30B
 10
-139.92902672
 20
279.00991341
 30
0.0
 11
-140.55502672
 21
278.38391341
 31
0.0
  0
LINE
  8
ZUWAKU
  6
CONTINUOUS
 62
      32
  5
30C
 10
-138.56379955
 20
279.81642852
 30
0.0
 11
-139.14524665
 21
279.23498143
 31
0.0
  0
LINE
  8
ZUWAKU
  6
CONTINUOUS
 62
      32
  5
30D
 10
-139.37031466
 20
279.00991341
 30
0.0
 11
-139.99631466
 21
278.38391341
 31
0.0
  0
LINE
  8
ZUWAKU
  6
CONTINUOUS
 62
      32
  5
30E
 10
-137.41920705
 20
279.82965017
 30
0.0
 11
-138.79963475
 21
278.44922248
 31
0.0
  0
LINE
  8
ZUWAKU
  6
CONTINUOUS
 62
      32
  5
30F
 10
-137.66628502
 20
279.00991341
 30
0.0
 11
-138.24547265
 21
278.43072578
 31
0.0
  0
LINE
  8
ZUWAKU
  6
CONTINUOUS
 62
      32
  5
310
 10
-140.50168551
 20
279.00991341
 30
0.0
 11
-141.12768551
 21
278.38391341
 31
0.0
  0
LINE
  8
ZUWAKU
  6
CONTINUOUS
 62
      32
  5
311
 10
-141.06039757
 20
279.00991341
 30
0.0
 11
-141.68639757
 21
278.38391341
 31
0.0
  0
LINE
  8
ZUWAKU
  6
CONTINUOUS
 62
      32
  5
312
 10
-140.66481667
 20
280.53686516
 30
0.0
 11
-141.09069121
 21
280.11099062
 31
0.0
  0
LINE
  8
ZUWAKU
  6
CONTINUOUS
 62
      32
  5
313
 10
-141.58241837
 20
279.0605514
 30
0.0
 11
-142.02169336
 21
278.62127642
 31
0.0
  0
LINE
  8
ZUWAKU
  6
CONTINUOUS
 62
      32
  5
314
 10
-141.86648109
 20
279.33520074
 30
0.0
 11
-142.74202349
 21
278.45965835
 31
0.0
  0
LINE
  8
ZUWAKU
  6
CONTINUOUS
 62
      32
  5
315
 10
-141.59706212
 20
280.73599056
 30
0.0
 11
-142.49148104
 21
279.84157164
 31
0.0
  0
LINE
  8
ZUWAKU
  6
CONTINUOUS
 62
      32
  5
316
 10
-143.32313927
 20
279.00991341
 30
0.0
 11
-143.94913927
 21
278.38391341
 31
0.0
  0
LINE
  8
ZUWAKU
  6
CONTINUOUS
 62
      32
  5
317
 10
-143.89579806
 20
279.00991341
 30
0.0
 11
-144.52179806
 21
278.38391341
 31
0.0
  0
LINE
  8
ZUWAKU
  6
CONTINUOUS
 62
      32
  5
318
 10
-143.9897085
 20
279.47471503
 30
0.0
 11
-145.08051012
 21
278.38391341
 31
0.0
  0
LINE
  8
ZUWAKU
  6
CONTINUOUS
 62
      32
  5
319
 10
-143.67064405
 20
280.36643827
 30
0.0
 11
-144.82318919
 21
279.21389313
 31
0.0
  0
LINE
  8
ZUWAKU
  6
CONTINUOUS
 62
      32
  5
31A
 10
-143.86459334
 20
280.73817441
 30
0.0
 11
-144.71885433
 21
279.88391341
 31
0.0
  0
LINE
  8
ZUWAKU
  6
CONTINUOUS
 62
      32
  5
31B
 10
-145.81001329
 20
278.79275445
 30
0.0
 11
-146.21885433
 21
278.38391341
 31
0.0
  0
LINE
  8
ZUWAKU
  6
CONTINUOUS
 62
      32
  5
31C
 10
-144.40953976
 20
280.75891341
 30
0.0
 11
-145.28453976
 21
279.88391341
 31
0.0
  0
LINE
  8
ZUWAKU
  6
CONTINUOUS
 62
      32
  5
31D
 10
-145.48676448
 20
279.68168869
 30
0.0
 11
-146.62162197
 21
278.5468312
 31
0.0
  0
LINE
  8
ZUWAKU
  6
CONTINUOUS
 62
      32
  5
31E
 10
-145.19727344
 20
280.53686516
 30
0.0
 11
-147.17680148
 21
278.55733712
 31
0.0
  0
TEXT
  8
ZUWAKU
 62
      32
  5
31F
 10
-168.10237531
 20
-277.11608659
 30
0.0
 40
6.8
  1
株式会社
 41
0.6667
 72
       5
 11
-146.34237531
 21
-277.11608659
 31
0.0
  0
LINE
  8
ZUWAKU
  6
CONTINUOUS
 62
      43
  5
320
 10
-182.625
 20
266.82163914
 30
0.0
 11
188.75
 21
266.82163914
 31
0.0
  0
LINE
  8
ZUWAKU
  6
CONTINUOUS
 62
      43
  5
321
 10
-182.125
 20
-282.24108659
 30
0.0
 11
186.75
 21
-282.24108659
 31
0.0
  0
LINE
  8
ZUWAKU
  6
CONTINUOUS
 62
      43
  5
322
 10
-182.125
 20
-258.11608659
 30
0.0
 11
186.75
 21
-258.11608659
 31
0.0
  0
LINE
  8
ZUWAKU
  6
CONTINUOUS
 62
      43
  5
323
 10
-182.125
 20
-254.74108659
 30
0.0
 11
186.75
 21
-254.74108659
 31
0.0
  0
LINE
  8
ZUWAKU
  6
CONTINUOUS
 62
      43
  5
324
 10
-182.125
 20
-254.74108659
 30
0.0
 11
-182.125
 21
-174.74108659
 31
0.0
  0
LINE
  8
ZUWAKU
  6
CONTINUOUS
 62
      43
  5
325
 10
186.75
 20
-254.74108659
 30
0.0
 11
186.75
 21
-174.74108659
 31
0.0
  0
LINE
  8
ZUWAKU
  6
CONTINUOUS
 62
      43
  5
326
 10
-182.125
 20
-174.74108659
 30
0.0
 11
186.75
 21
-174.74108659
 31
0.0
  0
POLYLINE
  8
ZUWAKU
  6
CONTINUOUS
 62
      43
  5
327
 66
       1
 10
0.0
 20
0.0
 30
0.0
 70
     129
  0
VERTEX
  8
ZUWAKU
  6
CONTINUOUS
 62
      43
  5
AB9
 10
-179.25
 20
280.81698873
 30
0.0
  0
VERTEX
  8
ZUWAKU
  6
CONTINUOUS
 62
      43
  5
ABA
 10
-179.22757734
 20
280.38489964
 30
0.0
  0
VERTEX
  8
ZUWAKU
  6
CONTINUOUS
 62
      43
  5
ABB
 10
-179.16034871
 20
279.95356859
 30
0.0
  0
VERTEX
  8
ZUWAKU
  6
CONTINUOUS
 62
      43
  5
ABC
 10
-179.04843205
 20
279.52375227
 30
0.0
  0
VERTEX
  8
ZUWAKU
  6
CONTINUOUS
 62
      43
  5
ABD
 10
-178.8920237
 20
279.09620473
 30
0.0
  0
VERTEX
  8
ZUWAKU
  6
CONTINUOUS
 62
      43
  5
ABE
 10
-178.69139804
 20
278.67167602
 30
0.0
  0
VERTEX
  8
ZUWAKU
  6
CONTINUOUS
 62
      43
  5
ABF
 10
-178.44690706
 20
278.25091093
 30
0.0
  0
VERTEX
  8
ZUWAKU
  6
CONTINUOUS
 62
      43
  5
AC0
 10
-178.15897966
 20
277.8346476
 30
0.0
  0
VERTEX
  8
ZUWAKU
  6
CONTINUOUS
 62
      43
  5
AC1
 10
-177.82812096
 20
277.42361632
 30
0.0
  0
VERTEX
  8
ZUWAKU
  6
CONTINUOUS
 62
      43
  5
AC2
 10
-177.45491142
 20
277.01853816
 30
0.0
  0
VERTEX
  8
ZUWAKU
  6
CONTINUOUS
 62
      43
  5
AC3
 10
-177.04000576
 20
276.62012378
 30
0.0
  0
VERTEX
  8
ZUWAKU
  6
CONTINUOUS
 62
      43
  5
AC4
 10
-176.58413187
 20
276.22907212
 30
0.0
  0
VERTEX
  8
ZUWAKU
  6
CONTINUOUS
 62
      43
  5
AC5
 10
-176.08808951
 20
275.84606923
 30
0.0
  0
VERTEX
  8
ZUWAKU
  6
CONTINUOUS
 62
      43
  5
AC6
 10
-175.5527489
 20
275.47178702
 30
0.0
  0
VERTEX
  8
ZUWAKU
  6
CONTINUOUS
 62
      43
  5
AC7
 10
-174.97904922
 20
275.10688211
 30
0.0
  0
VERTEX
  8
ZUWAKU
  6
CONTINUOUS
 62
      43
  5
AC8
 10
-174.36799692
 20
274.75199467
 30
0.0
  0
VERTEX
  8
ZUWAKU
  6
CONTINUOUS
 62
      43
  5
AC9
 10
-173.720664
 20
274.40774729
 30
0.0
  0
VERTEX
  8
ZUWAKU
  6
CONTINUOUS
 62
      43
  5
ACA
 10
-173.03818611
 20
274.0747439
 30
0.0
  0
VERTEX
  8
ZUWAKU
  6
CONTINUOUS
 62
      43
  5
ACB
 10
-172.32176054
 20
273.75356869
 30
0.0
  0
VERTEX
  8
ZUWAKU
  6
CONTINUOUS
 62
      43
  5
ACC
 10
-171.57264414
 20
273.44478513
 30
0.0
  0
VERTEX
  8
ZUWAKU
  6
CONTINUOUS
 62
      43
  5
ACD
 10
-170.79215113
 20
273.14893491
 30
0.0
  0
VERTEX
  8
ZUWAKU
  6
CONTINUOUS
 62
      43
  5
ACE
 10
-169.98165074
 20
272.86653706
 30
0.0
  0
VERTEX
  8
ZUWAKU
  6
CONTINUOUS
 62
      43
  5
ACF
 10
-169.14256487
 20
272.59808701
 30
0.0
  0
VERTEX
  8
ZUWAKU
  6
CONTINUOUS
 62
      43
  5
AD0
 10
-168.27636557
 20
272.34405571
 30
0.0
  0
VERTEX
  8
ZUWAKU
  6
CONTINUOUS
 62
      43
  5
AD1
 10
-167.38457245
 20
272.10488881
 30
0.0
  0
VERTEX
  8
ZUWAKU
  6
CONTINUOUS
 62
      43
  5
AD2
 10
-166.46875
 20
271.88100589
 30
0.0
  0
VERTEX
  8
ZUWAKU
  6
CONTINUOUS
 62
      43
  5
AD3
 10
-165.5305049
 20
271.67279973
 30
0.0
  0
VERTEX
  8
ZUWAKU
  6
CONTINUOUS
 62
      43
  5
AD4
 10
-164.57148314
 20
271.48063557
 30
0.0
  0
VERTEX
  8
ZUWAKU
  6
CONTINUOUS
 62
      43
  5
AD5
 10
-163.59336718
 20
271.30485056
 30
0.0
  0
VERTEX
  8
ZUWAKU
  6
CONTINUOUS
 62
      43
  5
AD6
 10
-162.59787296
 20
271.14575306
 30
0.0
  0
VERTEX
  8
ZUWAKU
  6
CONTINUOUS
 62
      43
  5
AD7
 10
-161.58674692
 20
271.00362221
 30
0.0
  0
VERTEX
  8
ZUWAKU
  6
CONTINUOUS
 62
      43
  5
AD8
 10
-160.56176291
 20
270.87870733
 30
0.0
  0
VERTEX
  8
ZUWAKU
  6
CONTINUOUS
 62
      43
  5
AD9
 10
-159.52471912
 20
270.77122757
 30
0.0
  0
VERTEX
  8
ZUWAKU
  6
CONTINUOUS
 62
      43
  5
ADA
 10
-158.47743485
 20
270.68137149
 30
0.0
  0
VERTEX
  8
ZUWAKU
  6
CONTINUOUS
 62
      43
  5
ADB
 10
-157.42174742
 20
270.60929673
 30
0.0
  0
VERTEX
  8
ZUWAKU
  6
CONTINUOUS
 62
      43
  5
ADC
 10
-156.35950884
 20
270.55512972
 30
0.0
  0
VERTEX
  8
ZUWAKU
  6
CONTINUOUS
 62
      43
  5
ADD
 10
-155.29258266
 20
270.51896551
 30
0.0
  0
VERTEX
  8
ZUWAKU
  6
CONTINUOUS
 62
      43
  5
ADE
 10
-154.22284061
 20
270.50086753
 30
0.0
  0
VERTEX
  8
ZUWAKU
  6
CONTINUOUS
 62
      43
  5
ADF
 10
-153.15215939
 20
270.50086753
 30
0.0
  0
VERTEX
  8
ZUWAKU
  6
CONTINUOUS
 62
      43
  5
AE0
 10
-152.08241734
 20
270.51896551
 30
0.0
  0
VERTEX
  8
ZUWAKU
  6
CONTINUOUS
 62
      43
  5
AE1
 10
-151.01549116
 20
270.55512972
 30
0.0
  0
VERTEX
  8
ZUWAKU
  6
CONTINUOUS
 62
      43
  5
AE2
 10
-149.95325258
 20
270.60929673
 30
0.0
  0
VERTEX
  8
ZUWAKU
  6
CONTINUOUS
 62
      43
  5
AE3
 10
-148.89756515
 20
270.68137149
 30
0.0
  0
VERTEX
  8
ZUWAKU
  6
CONTINUOUS
 62
      43
  5
AE4
 10
-147.85028088
 20
270.77122757
 30
0.0
  0
VERTEX
  8
ZUWAKU
  6
CONTINUOUS
 62
      43
  5
AE5
 10
-146.81323709
 20
270.87870733
 30
0.0
  0
VERTEX
  8
ZUWAKU
  6
CONTINUOUS
 62
      43
  5
AE6
 10
-145.78825308
 20
271.00362221
 30
0.0
  0
VERTEX
  8
ZUWAKU
  6
CONTINUOUS
 62
      43
  5
AE7
 10
-144.77712704
 20
271.14575306
 30
0.0
  0
VERTEX
  8
ZUWAKU
  6
CONTINUOUS
 62
      43
  5
AE8
 10
-143.78163282
 20
271.30485056
 30
0.0
  0
VERTEX
  8
ZUWAKU
  6
CONTINUOUS
 62
      43
  5
AE9
 10
-142.80351686
 20
271.48063557
 30
0.0
  0
VERTEX
  8
ZUWAKU
  6
CONTINUOUS
 62
      43
  5
AEA
 10
-141.8444951
 20
271.67279973
 30
0.0
  0
VERTEX
  8
ZUWAKU
  6
CONTINUOUS
 62
      43
  5
AEB
 10
-140.90625
 20
271.88100589
 30
0.0
  0
VERTEX
  8
ZUWAKU
  6
CONTINUOUS
 62
      43
  5
AEC
 10
-139.99042755
 20
272.10488881
 30
0.0
  0
VERTEX
  8
ZUWAKU
  6
CONTINUOUS
 62
      43
  5
AED
 10
-139.09863443
 20
272.34405571
 30
0.0
  0
VERTEX
  8
ZUWAKU
  6
CONTINUOUS
 62
      43
  5
AEE
 10
-138.23243513
 20
272.59808701
 30
0.0
  0
VERTEX
  8
ZUWAKU
  6
CONTINUOUS
 62
      43
  5
AEF
 10
-137.39334926
 20
272.86653706
 30
0.0
  0
VERTEX
  8
ZUWAKU
  6
CONTINUOUS
 62
      43
  5
AF0
 10
-136.58284887
 20
273.14893491
 30
0.0
  0
VERTEX
  8
ZUWAKU
  6
CONTINUOUS
 62
      43
  5
AF1
 10
-135.80235586
 20
273.44478513
 30
0.0
  0
VERTEX
  8
ZUWAKU
  6
CONTINUOUS
 62
      43
  5
AF2
 10
-135.05323946
 20
273.75356869
 30
0.0
  0
VERTEX
  8
ZUWAKU
  6
CONTINUOUS
 62
      43
  5
AF3
 10
-134.33681389
 20
274.0747439
 30
0.0
  0
VERTEX
  8
ZUWAKU
  6
CONTINUOUS
 62
      43
  5
AF4
 10
-133.654336
 20
274.40774729
 30
0.0
  0
VERTEX
  8
ZUWAKU
  6
CONTINUOUS
 62
      43
  5
AF5
 10
-133.00700308
 20
274.75199467
 30
0.0
  0
VERTEX
  8
ZUWAKU
  6
CONTINUOUS
 62
      43
  5
AF6
 10
-132.39595078
 20
275.10688211
 30
0.0
  0
VERTEX
  8
ZUWAKU
  6
CONTINUOUS
 62
      43
  5
AF7
 10
-131.8222511
 20
275.47178702
 30
0.0
  0
VERTEX
  8
ZUWAKU
  6
CONTINUOUS
 62
      43
  5
AF8
 10
-131.28691049
 20
275.84606923
 30
0.0
  0
VERTEX
  8
ZUWAKU
  6
CONTINUOUS
 62
      43
  5
AF9
 10
-130.79086813
 20
276.22907212
 30
0.0
  0
VERTEX
  8
ZUWAKU
  6
CONTINUOUS
 62
      43
  5
AFA
 10
-130.33499424
 20
276.62012378
 30
0.0
  0
VERTEX
  8
ZUWAKU
  6
CONTINUOUS
 62
      43
  5
AFB
 10
-129.92008858
 20
277.01853816
 30
0.0
  0
VERTEX
  8
ZUWAKU
  6
CONTINUOUS
 62
      43
  5
AFC
 10
-129.54687904
 20
277.42361632
 30
0.0
  0
VERTEX
  8
ZUWAKU
  6
CONTINUOUS
 62
      43
  5
AFD
 10
-129.21602034
 20
277.8346476
 30
0.0
  0
VERTEX
  8
ZUWAKU
  6
CONTINUOUS
 62
      43
  5
AFE
 10
-128.92809294
 20
278.25091093
 30
0.0
  0
VERTEX
  8
ZUWAKU
  6
CONTINUOUS
 62
      43
  5
AFF
 10
-128.68360196
 20
278.67167602
 30
0.0
  0
VERTEX
  8
ZUWAKU
  6
CONTINUOUS
 62
      43
  5
B00
 10
-128.4829763
 20
279.09620473
 30
0.0
  0
VERTEX
  8
ZUWAKU
  6
CONTINUOUS
 62
      43
  5
B01
 10
-128.32656795
 20
279.52375227
 30
0.0
  0
VERTEX
  8
ZUWAKU
  6
CONTINUOUS
 62
      43
  5
B02
 10
-128.21465129
 20
279.95356859
 30
0.0
  0
VERTEX
  8
ZUWAKU
  6
CONTINUOUS
 62
      43
  5
B03
 10
-128.14742266
 20
280.38489964
 30
0.0
  0
VERTEX
  8
ZUWAKU
  6
CONTINUOUS
 62
      43
  5
B04
 10
-128.125
 20
280.81698873
 30
0.0
  0
VERTEX
  8
ZUWAKU
  6
CONTINUOUS
 62
      43
  5
B05
 10
-128.14742266
 20
281.24907781
 30
0.0
  0
VERTEX
  8
ZUWAKU
  6
CONTINUOUS
 62
      43
  5
B06
 10
-128.21465129
 20
281.68040886
 30
0.0
  0
VERTEX
  8
ZUWAKU
  6
CONTINUOUS
 62
      43
  5
B07
 10
-128.32656795
 20
282.11022518
 30
0.0
  0
VERTEX
  8
ZUWAKU
  6
CONTINUOUS
 62
      43
  5
B08
 10
-128.4829763
 20
282.53777273
 30
0.0
  0
VERTEX
  8
ZUWAKU
  6
CONTINUOUS
 62
      43
  5
B09
 10
-128.68360196
 20
282.96230143
 30
0.0
  0
VERTEX
  8
ZUWAKU
  6
CONTINUOUS
 62
      43
  5
B0A
 10
-128.92809294
 20
283.38306653
 30
0.0
  0
VERTEX
  8
ZUWAKU
  6
CONTINUOUS
 62
      43
  5
B0B
 10
-129.21602034
 20
283.79932985
 30
0.0
  0
VERTEX
  8
ZUWAKU
  6
CONTINUOUS
 62
      43
  5
B0C
 10
-129.54687904
 20
284.21036114
 30
0.0
  0
VERTEX
  8
ZUWAKU
  6
CONTINUOUS
 62
      43
  5
B0D
 10
-129.92008858
 20
284.61543929
 30
0.0
  0
VERTEX
  8
ZUWAKU
  6
CONTINUOUS
 62
      43
  5
B0E
 10
-130.33499424
 20
285.01385368
 30
0.0
  0
VERTEX
  8
ZUWAKU
  6
CONTINUOUS
 62
      43
  5
B0F
 10
-130.79086813
 20
285.40490533
 30
0.0
  0
VERTEX
  8
ZUWAKU
  6
CONTINUOUS
 62
      43
  5
B10
 10
-131.28691049
 20
285.78790822
 30
0.0
  0
VERTEX
  8
ZUWAKU
  6
CONTINUOUS
 62
      43
  5
B11
 10
-131.8222511
 20
286.16219043
 30
0.0
  0
VERTEX
  8
ZUWAKU
  6
CONTINUOUS
 62
      43
  5
B12
 10
-132.39595078
 20
286.52709534
 30
0.0
  0
VERTEX
  8
ZUWAKU
  6
CONTINUOUS
 62
      43
  5
B13
 10
-133.00700308
 20
286.88198278
 30
0.0
  0
VERTEX
  8
ZUWAKU
  6
CONTINUOUS
 62
      43
  5
B14
 10
-133.654336
 20
287.22623016
 30
0.0
  0
VERTEX
  8
ZUWAKU
  6
CONTINUOUS
 62
      43
  5
B15
 10
-134.33681389
 20
287.55923356
 30
0.0
  0
VERTEX
  8
ZUWAKU
  6
CONTINUOUS
 62
      43
  5
B16
 10
-135.05323946
 20
287.88040876
 30
0.0
  0
VERTEX
  8
ZUWAKU
  6
CONTINUOUS
 62
      43
  5
B17
 10
-135.80235586
 20
288.18919233
 30
0.0
  0
VERTEX
  8
ZUWAKU
  6
CONTINUOUS
 62
      43
  5
B18
 10
-136.58284887
 20
288.48504255
 30
0.0
  0
VERTEX
  8
ZUWAKU
  6
CONTINUOUS
 62
      43
  5
B19
 10
-137.39334926
 20
288.76744039
 30
0.0
  0
VERTEX
  8
ZUWAKU
  6
CONTINUOUS
 62
      43
  5
B1A
 10
-138.23243513
 20
289.03589044
 30
0.0
  0
VERTEX
  8
ZUWAKU
  6
CONTINUOUS
 62
      43
  5
B1B
 10
-139.09863443
 20
289.28992175
 30
0.0
  0
VERTEX
  8
ZUWAKU
  6
CONTINUOUS
 62
      43
  5
B1C
 10
-139.99042755
 20
289.52908865
 30
0.0
  0
VERTEX
  8
ZUWAKU
  6
CONTINUOUS
 62
      43
  5
B1D
 10
-140.90625
 20
289.75297156
 30
0.0
  0
VERTEX
  8
ZUWAKU
  6
CONTINUOUS
 62
      43
  5
B1E
 10
-141.8444951
 20
289.96117773
 30
0.0
  0
VERTEX
  8
ZUWAKU
  6
CONTINUOUS
 62
      43
  5
B1F
 10
-142.80351686
 20
290.15334188
 30
0.0
  0
VERTEX
  8
ZUWAKU
  6
CONTINUOUS
 62
      43
  5
B20
 10
-143.78163282
 20
290.3291269
 30
0.0
  0
VERTEX
  8
ZUWAKU
  6
CONTINUOUS
 62
      43
  5
B21
 10
-144.77712704
 20
290.48822439
 30
0.0
  0
VERTEX
  8
ZUWAKU
  6
CONTINUOUS
 62
      43
  5
B22
 10
-145.78825308
 20
290.63035525
 30
0.0
  0
VERTEX
  8
ZUWAKU
  6
CONTINUOUS
 62
      43
  5
B23
 10
-146.81323709
 20
290.75527013
 30
0.0
  0
VERTEX
  8
ZUWAKU
  6
CONTINUOUS
 62
      43
  5
B24
 10
-147.85028088
 20
290.86274989
 30
0.0
  0
VERTEX
  8
ZUWAKU
  6
CONTINUOUS
 62
      43
  5
B25
 10
-148.89756515
 20
290.95260597
 30
0.0
  0
VERTEX
  8
ZUWAKU
  6
CONTINUOUS
 62
      43
  5
B26
 10
-149.95325258
 20
291.02468073
 30
0.0
  0
VERTEX
  8
ZUWAKU
  6
CONTINUOUS
 62
      43
  5
B27
 10
-151.01549116
 20
291.07884773
 30
0.0
  0
VERTEX
  8
ZUWAKU
  6
CONTINUOUS
 62
      43
  5
B28
 10
-152.08241734
 20
291.11501195
 30
0.0
  0
VERTEX
  8
ZUWAKU
  6
CONTINUOUS
 62
      43
  5
B29
 10
-153.15215939
 20
291.13310993
 30
0.0
  0
VERTEX
  8
ZUWAKU
  6
CONTINUOUS
 62
      43
  5
B2A
 10
-154.22284061
 20
291.13310993
 30
0.0
  0
VERTEX
  8
ZUWAKU
  6
CONTINUOUS
 62
      43
  5
B2B
 10
-155.29258266
 20
291.11501195
 30
0.0
  0
VERTEX
  8
ZUWAKU
  6
CONTINUOUS
 62
      43
  5
B2C
 10
-156.35950884
 20
291.07884773
 30
0.0
  0
VERTEX
  8
ZUWAKU
  6
CONTINUOUS
 62
      43
  5
B2D
 10
-157.42174742
 20
291.02468073
 30
0.0
  0
VERTEX
  8
ZUWAKU
  6
CONTINUOUS
 62
      43
  5
B2E
 10
-158.47743485
 20
290.95260597
 30
0.0
  0
VERTEX
  8
ZUWAKU
  6
CONTINUOUS
 62
      43
  5
B2F
 10
-159.52471912
 20
290.86274989
 30
0.0
  0
VERTEX
  8
ZUWAKU
  6
CONTINUOUS
 62
      43
  5
B30
 10
-160.56176291
 20
290.75527013
 30
0.0
  0
VERTEX
  8
ZUWAKU
  6
CONTINUOUS
 62
      43
  5
B31
 10
-161.58674692
 20
290.63035525
 30
0.0
  0
VERTEX
  8
ZUWAKU
  6
CONTINUOUS
 62
      43
  5
B32
 10
-162.59787296
 20
290.48822439
 30
0.0
  0
VERTEX
  8
ZUWAKU
  6
CONTINUOUS
 62
      43
  5
B33
 10
-163.59336718
 20
290.3291269
 30
0.0
  0
VERTEX
  8
ZUWAKU
  6
CONTINUOUS
 62
      43
  5
B34
 10
-164.57148314
 20
290.15334188
 30
0.0
  0
VERTEX
  8
ZUWAKU
  6
CONTINUOUS
 62
      43
  5
B35
 10
-165.5305049
 20
289.96117773
 30
0.0
  0
VERTEX
  8
ZUWAKU
  6
CONTINUOUS
 62
      43
  5
B36
 10
-166.46875
 20
289.75297156
 30
0.0
  0
VERTEX
  8
ZUWAKU
  6
CONTINUOUS
 62
      43
  5
B37
 10
-167.38457245
 20
289.52908865
 30
0.0
  0
VERTEX
  8
ZUWAKU
  6
CONTINUOUS
 62
      43
  5
B38
 10
-168.27636557
 20
289.28992175
 30
0.0
  0
VERTEX
  8
ZUWAKU
  6
CONTINUOUS
 62
      43
  5
B39
 10
-169.14256487
 20
289.03589044
 30
0.0
  0
VERTEX
  8
ZUWAKU
  6
CONTINUOUS
 62
      43
  5
B3A
 10
-169.98165074
 20
288.76744039
 30
0.0
  0
VERTEX
  8
ZUWAKU
  6
CONTINUOUS
 62
      43
  5
B3B
 10
-170.79215113
 20
288.48504255
 30
0.0
  0
VERTEX
  8
ZUWAKU
  6
CONTINUOUS
 62
      43
  5
B3C
 10
-171.57264414
 20
288.18919233
 30
0.0
  0
VERTEX
  8
ZUWAKU
  6
CONTINUOUS
 62
      43
  5
B3D
 10
-172.32176054
 20
287.88040876
 30
0.0
  0
VERTEX
  8
ZUWAKU
  6
CONTINUOUS
 62
      43
  5
B3E
 10
-173.03818611
 20
287.55923356
 30
0.0
  0
VERTEX
  8
ZUWAKU
  6
CONTINUOUS
 62
      43
  5
B3F
 10
-173.720664
 20
287.22623016
 30
0.0
  0
VERTEX
  8
ZUWAKU
  6
CONTINUOUS
 62
      43
  5
B40
 10
-174.36799692
 20
286.88198278
 30
0.0
  0
VERTEX
  8
ZUWAKU
  6
CONTINUOUS
 62
      43
  5
B41
 10
-174.97904922
 20
286.52709534
 30
0.0
  0
VERTEX
  8
ZUWAKU
  6
CONTINUOUS
 62
      43
  5
B42
 10
-175.5527489
 20
286.16219043
 30
0.0
  0
VERTEX
  8
ZUWAKU
  6
CONTINUOUS
 62
      43
  5
B43
 10
-176.08808951
 20
285.78790822
 30
0.0
  0
VERTEX
  8
ZUWAKU
  6
CONTINUOUS
 62
      43
  5
B44
 10
-176.58413187
 20
285.40490533
 30
0.0
  0
VERTEX
  8
ZUWAKU
  6
CONTINUOUS
 62
      43
  5
B45
 10
-177.04000576
 20
285.01385368
 30
0.0
  0
VERTEX
  8
ZUWAKU
  6
CONTINUOUS
 62
      43
  5
B46
 10
-177.45491142
 20
284.61543929
 30
0.0
  0
VERTEX
  8
ZUWAKU
  6
CONTINUOUS
 62
      43
  5
B47
 10
-177.82812096
 20
284.21036114
 30
0.0
  0
VERTEX
  8
ZUWAKU
  6
CONTINUOUS
 62
      43
  5
B48
 10
-178.15897966
 20
283.79932985
 30
0.0
  0
VERTEX
  8
ZUWAKU
  6
CONTINUOUS
 62
      43
  5
B49
 10
-178.44690706
 20
283.38306653
 30
0.0
  0
VERTEX
  8
ZUWAKU
  6
CONTINUOUS
 62
      43
  5
B4A
 10
-178.69139804
 20
282.96230143
 30
0.0
  0
VERTEX
  8
ZUWAKU
  6
CONTINUOUS
 62
      43
  5
B4B
 10
-178.8920237
 20
282.53777273
 30
0.0
  0
VERTEX
  8
ZUWAKU
  6
CONTINUOUS
 62
      43
  5
B4C
 10
-179.04843205
 20
282.11022518
 30
0.0
  0
VERTEX
  8
ZUWAKU
  6
CONTINUOUS
 62
      43
  5
B4D
 10
-179.16034871
 20
281.68040886
 30
0.0
  0
VERTEX
  8
ZUWAKU
  6
CONTINUOUS
 62
      43
  5
B4E
 10
-179.22757734
 20
281.24907781
 30
0.0
  0
SEQEND
  8
ZUWAKU
  6
CONTINUOUS
 62
      43
  5
B4F
  0
LINE
  8
ZUWAKU
  6
CONTINUOUS
 62
      43
  5
328
 10
-174.25
 20
285.75891341
 30
0.0
 11
-174.25
 21
276.00891341
 31
0.0
  0
LINE
  8
ZUWAKU
  6
CONTINUOUS
 62
      43
  5
329
 10
-133.0
 20
285.75891341
 30
0.0
 11
-133.0
 21
276.00891341
 31
0.0
  0
LINE
  8
ZUWAKU
  6
CONTINUOUS
 62
      43
  5
32A
 10
-174.25
 20
285.75891341
 30
0.0
 11
-133.0
 21
285.75891341
 31
0.0
  0
LINE
  8
ZUWAKU
  6
CONTINUOUS
 62
      43
  5
32B
 10
-174.25
 20
276.00891341
 30
0.0
 11
-133.0
 21
276.00891341
 31
0.0
  0
LINE
  8
ZUWAKU
  6
CONTINUOUS
 62
      43
  5
32C
 10
-156.23520357
 20
291.0839975
 30
0.0
 11
-161.56028766
 21
285.75891341
 31
0.0
  0
LINE
  8
ZUWAKU
  6
CONTINUOUS
 62
      43
  5
32D
 10
-156.82766327
 20
291.05722323
 30
0.0
 11
-162.12597308
 21
285.75891341
 31
0.0
  0
LINE
  8
ZUWAKU
  6
CONTINUOUS
 62
      43
  5
32E
 10
-157.42615401
 20
291.02441791
 30
0.0
 11
-162.69165851
 21
285.75891341
 31
0.0
  0
LINE
  8
ZUWAKU
  6
CONTINUOUS
 62
      43
  5
32F
 10
-158.03092503
 20
290.98533232
 30
0.0
 11
-163.25734393
 21
285.75891341
 31
0.0
  0
LINE
  8
ZUWAKU
  6
CONTINUOUS
 62
      43
  5
330
 10
-158.64225467
 20
290.9396881
 30
0.0
 11
-163.82302936
 21
285.75891341
 31
0.0
  0
LINE
  8
ZUWAKU
  6
CONTINUOUS
 62
      43
  5
331
 10
-159.26045486
 20
290.88717334
 30
0.0
 11
-164.38871478
 21
285.75891341
 31
0.0
  0
LINE
  8
ZUWAKU
  6
CONTINUOUS
 62
      43
  5
332
 10
-159.88587652
 20
290.8274371
 30
0.0
 11
-164.95440021
 21
285.75891341
 31
0.0
  0
LINE
  8
ZUWAKU
  6
CONTINUOUS
 62
      43
  5
333
 10
-160.51891622
 20
290.76008282
 30
0.0
 11
-165.52008563
 21
285.75891341
 31
0.0
  0
LINE
  8
ZUWAKU
  6
CONTINUOUS
 62
      43
  5
334
 10
-161.16002442
 20
290.68466005
 30
0.0
 11
-166.08577106
 21
285.75891341
 31
0.0
  0
LINE
  8
ZUWAKU
  6
CONTINUOUS
 62
      43
  5
335
 10
-161.80971576
 20
290.60065413
 30
0.0
 11
-166.65145648
 21
285.75891341
 31
0.0
  0
LINE
  8
ZUWAKU
  6
CONTINUOUS
 62
      43
  5
336
 10
-162.46858211
 20
290.50747321
 30
0.0
 11
-167.21714191
 21
285.75891341
 31
0.0
  0
LINE
  8
ZUWAKU
  6
CONTINUOUS
 62
      43
  5
337
 10
-163.1373093
 20
290.40443145
 30
0.0
 11
-167.78282733
 21
285.75891341
 31
0.0
  0
LINE
  8
ZUWAKU
  6
CONTINUOUS
 62
      43
  5
338
 10
-163.81669893
 20
290.29072724
 30
0.0
 11
-168.34851276
 21
285.75891341
 31
0.0
  0
LINE
  8
ZUWAKU
  6
CONTINUOUS
 62
      43
  5
339
 10
-164.50769722
 20
290.16541438
 30
0.0
 11
-168.91419818
 21
285.75891341
 31
0.0
  0
LINE
  8
ZUWAKU
  6
CONTINUOUS
 62
      43
  5
33A
 10
-165.21143396
 20
290.02736306
 30
0.0
 11
-169.47988361
 21
285.75891341
 31
0.0
  0
LINE
  8
ZUWAKU
  6
CONTINUOUS
 62
      43
  5
33B
 10
-174.25
 20
280.98879702
 30
0.0
 11
-174.35488361
 21
280.88391341
 31
0.0
  0
LINE
  8
ZUWAKU
  6
CONTINUOUS
 62
      43
  5
33C
 10
-165.92927622
 20
289.87520622
 30
0.0
 11
-170.04556903
 21
285.75891341
 31
0.0
  0
LINE
  8
ZUWAKU
  6
CONTINUOUS
 62
      43
  5
33D
 10
-174.25
 20
281.55448244
 30
0.0
 11
-174.92056903
 21
280.88391341
 31
0.0
  0
LINE
  8
ZUWAKU
  6
CONTINUOUS
 62
      43
  5
33E
 10
-166.66290442
 20
289.70726345
 30
0.0
 11
-170.61125446
 21
285.75891341
 31
0.0
  0
LINE
  8
ZUWAKU
  6
CONTINUOUS
 62
      43
  5
33F
 10
-174.25
 20
282.12016787
 30
0.0
 11
-175.48625446
 21
280.88391341
 31
0.0
  0
LINE
  8
ZUWAKU
  6
CONTINUOUS
 62
      43
  5
340
 10
-167.41442306
 20
289.52143023
 30
0.0
 11
-171.17693988
 21
285.75891341
 31
0.0
  0
LINE
  8
ZUWAKU
  6
CONTINUOUS
 62
      43
  5
341
 10
-174.25
 20
282.68585329
 30
0.0
 11
-176.05193988
 21
280.88391341
 31
0.0
  0
LINE
  8
ZUWAKU
  6
CONTINUOUS
 62
      43
  5
342
 10
-168.18652817
 20
289.31501055
 30
0.0
 11
-171.74262531
 21
285.75891341
 31
0.0
  0
LINE
  8
ZUWAKU
  6
CONTINUOUS
 62
      43
  5
343
 10
-174.25
 20
283.25153872
 30
0.0
 11
-176.61762531
 21
280.88391341
 31
0.0
  0
LINE
  8
ZUWAKU
  6
CONTINUOUS
 62
      43
  5
344
 10
-168.98277117
 20
289.08445298
 30
0.0
 11
-172.30831073
 21
285.75891341
 31
0.0
  0
LINE
  8
ZUWAKU
  6
CONTINUOUS
 62
      43
  5
345
 10
-174.25
 20
283.81722414
 30
0.0
 11
-177.18331073
 21
280.88391341
 31
0.0
  0
LINE
  8
ZUWAKU
  6
CONTINUOUS
 62
      43
  5
346
 10
-169.80799782
 20
288.82491175
 30
0.0
 11
-172.87399616
 21
285.75891341
 31
0.0
  0
LINE
  8
ZUWAKU
  6
CONTINUOUS
 62
      43
  5
347
 10
-174.25
 20
284.38290957
 30
0.0
 11
-177.74899616
 21
280.88391341
 31
0.0
  0
LINE
  8
ZUWAKU
  6
CONTINUOUS
 62
      43
  5
348
 10
-170.66912964
 20
288.52946536
 30
0.0
 11
-173.43968158
 21
285.75891341
 31
0.0
  0
LINE
  8
ZUWAKU
  6
CONTINUOUS
 62
      43
  5
349
 10
-174.25
 20
284.94859499
 30
0.0
 11
-178.31468158
 21
280.88391341
 31
0.0
  0
LINE
  8
ZUWAKU
  6
CONTINUOUS
 62
      43
  5
34A
 10
-171.57668622
 20
288.1875942
 30
0.0
 11
-174.00536701
 21
285.75891341
 31
0.0
  0
LINE
  8
ZUWAKU
  6
CONTINUOUS
 62
      43
  5
34B
 10
-174.25
 20
285.51428042
 30
0.0
 11
-178.88036701
 21
280.88391341
 31
0.0
  0
LINE
  8
ZUWAKU
  6
CONTINUOUS
 62
      43
  5
34C
 10
-172.54814842
 20
287.78181743
 30
0.0
 11
-179.2411267
 21
281.08883915
 31
0.0
  0
LINE
  8
ZUWAKU
  6
CONTINUOUS
 62
      43
  5
34D
 10
-173.61695554
 20
287.27869572
 30
0.0
 11
-179.14517703
 21
281.75047424
 31
0.0
  0
LINE
  8
ZUWAKU
  6
CONTINUOUS
 62
      43
  5
34E
 10
-174.866365
 20
286.5949717
 30
0.0
 11
-178.86862504
 21
282.59271166
 31
0.0
  0
LINE
  8
ZUWAKU
  6
CONTINUOUS
 62
      43
  5
34F
 10
-176.81389684
 20
285.21312527
 30
0.0
 11
-177.89395065
 21
284.13307147
 31
0.0
  0
LINE
  8
ZUWAKU
  6
CONTINUOUS
 62
      43
  5
350
 10
-155.64855111
 20
291.10496454
 30
0.0
 11
-160.99460223
 21
285.75891341
 31
0.0
  0
LINE
  8
ZUWAKU
  6
CONTINUOUS
 62
      43
  5
351
 10
-155.0675044
 20
291.12032582
 30
0.0
 11
-160.42891681
 21
285.75891341
 31
0.0
  0
LINE
  8
ZUWAKU
  6
CONTINUOUS
 62
      43
  5
352
 10
-154.49188171
 20
291.13026308
 30
0.0
 11
-159.86323138
 21
285.75891341
 31
0.0
  0
LINE
  8
ZUWAKU
  6
CONTINUOUS
 62
      43
  5
353
 10
-153.92151885
 20
291.13494052
 30
0.0
 11
-159.29754596
 21
285.75891341
 31
0.0
  0
LINE
  8
ZUWAKU
  6
CONTINUOUS
 62
      43
  5
354
 10
-153.35626731
 20
291.13450664
 30
0.0
 11
-158.73186053
 21
285.75891341
 31
0.0
  0
LINE
  8
ZUWAKU
  6
CONTINUOUS
 62
      43
  5
355
 10
-152.79599267
 20
291.12909585
 30
0.0
 11
-158.16617511
 21
285.75891341
 31
0.0
  0
LINE
  8
ZUWAKU
  6
CONTINUOUS
 62
      43
  5
356
 10
-152.24057326
 20
291.11882984
 30
0.0
 11
-157.60048968
 21
285.75891341
 31
0.0
  0
LINE
  8
ZUWAKU
  6
CONTINUOUS
 62
      43
  5
357
 10
-151.68989895
 20
291.10381872
 30
0.0
 11
-157.03480426
 21
285.75891341
 31
0.0
  0
LINE
  8
ZUWAKU
  6
CONTINUOUS
 62
      43
  5
358
 10
-151.14387017
 20
291.08416208
 30
0.0
 11
-156.46911883
 21
285.75891341
 31
0.0
  0
LINE
  8
ZUWAKU
  6
CONTINUOUS
 62
      43
  5
359
 10
-150.60239703
 20
291.05994979
 30
0.0
 11
-155.90343341
 21
285.75891341
 31
0.0
  0
LINE
  8
ZUWAKU
  6
CONTINUOUS
 62
      43
  5
35A
 10
-150.06539856
 20
291.03126284
 30
0.0
 11
-155.33774798
 21
285.75891341
 31
0.0
  0
LINE
  8
ZUWAKU
  6
CONTINUOUS
 62
      43
  5
35B
 10
-149.53280204
 20
290.99817393
 30
0.0
 11
-154.77206256
 21
285.75891341
 31
0.0
  0
LINE
  8
ZUWAKU
  6
CONTINUOUS
 62
      43
  5
35C
 10
-149.00454248
 20
290.96074807
 30
0.0
 11
-154.20637713
 21
285.75891341
 31
0.0
  0
LINE
  8
ZUWAKU
  6
CONTINUOUS
 62
      43
  5
35D
 10
-148.48056206
 20
290.91904306
 30
0.0
 11
-153.64069171
 21
285.75891341
 31
0.0
  0
LINE
  8
ZUWAKU
  6
CONTINUOUS
 62
      43
  5
35E
 10
-147.96080979
 20
290.87310991
 30
0.0
 11
-153.07500628
 21
285.75891341
 31
0.0
  0
LINE
  8
ZUWAKU
  6
CONTINUOUS
 62
      43
  5
35F
 10
-147.44524105
 20
290.82299322
 30
0.0
 11
-152.50932086
 21
285.75891341
 31
0.0
  0
LINE
  8
ZUWAKU
  6
CONTINUOUS
 62
      43
  5
360
 10
-146.93381738
 20
290.76873147
 30
0.0
 11
-151.94363543
 21
285.75891341
 31
0.0
  0
LINE
  8
ZUWAKU
  6
CONTINUOUS
 62
      43
  5
361
 10
-146.42650613
 20
290.71035729
 30
0.0
 11
-151.37795001
 21
285.75891341
 31
0.0
  0
LINE
  8
ZUWAKU
  6
CONTINUOUS
 62
      43
  5
362
 10
-145.92328031
 20
290.64789769
 30
0.0
 11
-150.81226458
 21
285.75891341
 31
0.0
  0
LINE
  8
ZUWAKU
  6
CONTINUOUS
 62
      43
  5
363
 10
-145.42411836
 20
290.58137421
 30
0.0
 11
-150.24657916
 21
285.75891341
 31
0.0
  0
LINE
  8
ZUWAKU
  6
CONTINUOUS
 62
      43
  5
364
 10
-144.92900406
 20
290.51080309
 30
0.0
 11
-149.68089373
 21
285.75891341
 31
0.0
  0
LINE
  8
ZUWAKU
  6
CONTINUOUS
 62
      43
  5
365
 10
-144.43792637
 20
290.43619535
 30
0.0
 11
-149.11520831
 21
285.75891341
 31
0.0
  0
LINE
  8
ZUWAKU
  6
CONTINUOUS
 62
      43
  5
366
 10
-143.95087942
 20
290.35755687
 30
0.0
 11
-148.54952288
 21
285.75891341
 31
0.0
  0
LINE
  8
ZUWAKU
  6
CONTINUOUS
 62
      43
  5
367
 10
-143.46786243
 20
290.27488845
 30
0.0
 11
-147.98383746
 21
285.75891341
 31
0.0
  0
LINE
  8
ZUWAKU
  6
CONTINUOUS
 62
      43
  5
368
 10
-142.9888797
 20
290.18818575
 30
0.0
 11
-147.41815203
 21
285.75891341
 31
0.0
  0
LINE
  8
ZUWAKU
  6
CONTINUOUS
 62
      43
  5
369
 10
-142.51394068
 20
290.09743934
 30
0.0
 11
-146.85246661
 21
285.75891341
 31
0.0
  0
LINE
  8
ZUWAKU
  6
CONTINUOUS
 62
      43
  5
36A
 10
-142.04306
 20
290.00263459
 30
0.0
 11
-146.28678118
 21
285.75891341
 31
0.0
  0
LINE
  8
ZUWAKU
  6
CONTINUOUS
 62
      43
  5
36B
 10
-141.57625756
 20
289.90375161
 30
0.0
 11
-145.72109576
 21
285.75891341
 31
0.0
  0
LINE
  8
ZUWAKU
  6
CONTINUOUS
 62
      43
  5
36C
 10
-141.11355867
 20
289.80076507
 30
0.0
 11
-145.15541033
 21
285.75891341
 31
0.0
  0
LINE
  8
ZUWAKU
  6
CONTINUOUS
 62
      43
  5
36D
 10
-140.65499422
 20
289.6936441
 30
0.0
 11
-144.58972491
 21
285.75891341
 31
0.0
  0
LINE
  8
ZUWAKU
  6
CONTINUOUS
 62
      43
  5
36E
 10
-140.20060086
 20
289.58235204
 30
0.0
 11
-144.02403948
 21
285.75891341
 31
0.0
  0
LINE
  8
ZUWAKU
  6
CONTINUOUS
 62
      43
  5
36F
 10
-139.75042129
 20
289.46684618
 30
0.0
 11
-143.45835406
 21
285.75891341
 31
0.0
  0
LINE
  8
ZUWAKU
  6
CONTINUOUS
 62
      43
  5
370
 10
-139.30450451
 20
289.34707754
 30
0.0
 11
-142.89266863
 21
285.75891341
 31
0.0
  0
LINE
  8
ZUWAKU
  6
CONTINUOUS
 62
      43
  5
371
 10
-138.8629062
 20
289.22299042
 30
0.0
 11
-142.32698321
 21
285.75891341
 31
0.0
  0
LINE
  8
ZUWAKU
  6
CONTINUOUS
 62
      43
  5
372
 10
-138.4256891
 20
289.09452209
 30
0.0
 11
-141.76129778
 21
285.75891341
 31
0.0
  0
LINE
  8
ZUWAKU
  6
CONTINUOUS
 62
      43
  5
373
 10
-137.99292352
 20
288.96160226
 30
0.0
 11
-141.19561236
 21
285.75891341
 31
0.0
  0
LINE
  8
ZUWAKU
  6
CONTINUOUS
 62
      43
  5
374
 10
-137.5646878
 20
288.82415254
 30
0.0
 11
-140.62992693
 21
285.75891341
 31
0.0
  0
LINE
  8
ZUWAKU
  6
CONTINUOUS
 62
      43
  5
375
 10
-137.14106905
 20
288.68208588
 30
0.0
 11
-140.06424151
 21
285.75891341
 31
0.0
  0
LINE
  8
ZUWAKU
  6
CONTINUOUS
 62
      43
  5
376
 10
-136.72216376
 20
288.53530574
 30
0.0
 11
-139.49855608
 21
285.75891341
 31
0.0
  0
LINE
  8
ZUWAKU
  6
CONTINUOUS
 62
      43
  5
377
 10
-136.30807873
 20
288.38370534
 30
0.0
 11
-138.93287066
 21
285.75891341
 31
0.0
  0
LINE
  8
ZUWAKU
  6
CONTINUOUS
 62
      43
  5
378
 10
-135.89893197
 20
288.22716668
 30
0.0
 11
-138.36718523
 21
285.75891341
 31
0.0
  0
LINE
  8
ZUWAKU
  6
CONTINUOUS
 62
      43
  5
379
 10
-135.49485385
 20
288.06555937
 30
0.0
 11
-137.80149981
 21
285.75891341
 31
0.0
  0
LINE
  8
ZUWAKU
  6
CONTINUOUS
 62
      43
  5
37A
 10
-135.0959884
 20
287.8987394
 30
0.0
 11
-137.23581438
 21
285.75891341
 31
0.0
  0
LINE
  8
ZUWAKU
  6
CONTINUOUS
 62
      43
  5
37B
 10
-134.70249481
 20
287.72654757
 30
0.0
 11
-136.67012896
 21
285.75891341
 31
0.0
  0
LINE
  8
ZUWAKU
  6
CONTINUOUS
 62
      43
  5
37C
 10
-134.31454922
 20
287.54880773
 30
0.0
 11
-136.10444353
 21
285.75891341
 31
0.0
  0
LINE
  8
ZUWAKU
  6
CONTINUOUS
 62
      43
  5
37D
 10
-133.93234679
 20
287.36532473
 30
0.0
 11
-135.53875811
 21
285.75891341
 31
0.0
  0
LINE
  8
ZUWAKU
  6
CONTINUOUS
 62
      43
  5
37E
 10
-133.55610419
 20
287.17588191
 30
0.0
 11
-134.97307269
 21
285.75891341
 31
0.0
  0
LINE
  8
ZUWAKU
  6
CONTINUOUS
 62
      43
  5
37F
 10
-133.18606247
 20
286.9802382
 30
0.0
 11
-134.40738726
 21
285.75891341
 31
0.0
  0
LINE
  8
ZUWAKU
  6
CONTINUOUS
 62
      43
  5
380
 10
-132.82249062
 20
286.77812463
 30
0.0
 11
-133.84170184
 21
285.75891341
 31
0.0
  0
LINE
  8
ZUWAKU
  6
CONTINUOUS
 62
      43
  5
381
 10
-132.46568973
 20
286.5692401
 30
0.0
 11
-133.27601641
 21
285.75891341
 31
0.0
  0
LINE
  8
ZUWAKU
  6
CONTINUOUS
 62
      43
  5
382
 10
-132.1159981
 20
286.3532463
 30
0.0
 11
-133.0
 21
285.4692444
 31
0.0
  0
LINE
  8
ZUWAKU
  6
CONTINUOUS
 62
      43
  5
383
 10
-131.77379752
 20
286.12976145
 30
0.0
 11
-133.0
 21
284.90355897
 31
0.0
  0
LINE
  8
ZUWAKU
  6
CONTINUOUS
 62
      43
  5
384
 10
-131.43952091
 20
285.89835263
 30
0.0
 11
-133.0
 21
284.33787355
 31
0.0
  0
LINE
  8
ZUWAKU
  6
CONTINUOUS
 62
      43
  5
385
 10
-131.11366198
 20
285.65852614
 30
0.0
 11
-133.0
 21
283.77218812
 31
0.0
  0
LINE
  8
ZUWAKU
  6
CONTINUOUS
 62
      43
  5
386
 10
-130.79678731
 20
285.40971539
 30
0.0
 11
-133.0
 21
283.2065027
 31
0.0
  0
LINE
  8
ZUWAKU
  6
CONTINUOUS
 62
      43
  5
387
 10
-130.48955184
 20
285.15126543
 30
0.0
 11
-133.0
 21
282.64081727
 31
0.0
  0
LINE
  8
ZUWAKU
  6
CONTINUOUS
 62
      43
  5
388
 10
-130.19271897
 20
284.88241287
 30
0.0
 11
-133.0
 21
282.07513185
 31
0.0
  0
LINE
  8
ZUWAKU
  6
CONTINUOUS
 62
      43
  5
389
 10
-129.90718694
 20
284.60225949
 30
0.0
 11
-133.0
 21
281.50944642
 31
0.0
  0
LINE
  8
ZUWAKU
  6
CONTINUOUS
 62
      43
  5
38A
 10
-129.63402428
 20
284.30973672
 30
0.0
 11
-133.0
 21
280.943761
 31
0.0
  0
LINE
  8
ZUWAKU
  6
CONTINUOUS
 62
      43
  5
38B
 10
-129.37451841
 20
284.00355716
 30
0.0
 11
-132.49416216
 21
280.88391341
 31
0.0
  0
LINE
  8
ZUWAKU
  6
CONTINUOUS
 62
      43
  5
38C
 10
-129.13024373
 20
283.68214642
 30
0.0
 11
-131.92847674
 21
280.88391341
 31
0.0
  0
LINE
  8
ZUWAKU
  6
CONTINUOUS
 62
      43
  5
38D
 10
-128.90316
 20
283.34354473
 30
0.0
 11
-131.36279131
 21
280.88391341
 31
0.0
  0
LINE
  8
ZUWAKU
  6
CONTINUOUS
 62
      43
  5
38E
 10
-128.69575922
 20
282.98526008
 30
0.0
 11
-130.79710589
 21
280.88391341
 31
0.0
  0
LINE
  8
ZUWAKU
  6
CONTINUOUS
 62
      43
  5
38F
 10
-128.51129392
 20
282.60403995
 30
0.0
 11
-130.23142046
 21
280.88391341
 31
0.0
  0
LINE
  8
ZUWAKU
  6
CONTINUOUS
 62
      43
  5
390
 10
-128.35415028
 20
282.19549817
 30
0.0
 11
-129.66573504
 21
280.88391341
 31
0.0
  0
LINE
  8
ZUWAKU
  6
CONTINUOUS
 62
      43
  5
391
 10
-128.23049728
 20
281.75346574
 30
0.0
 11
-129.10004961
 21
280.88391341
 31
0.0
  0
LINE
  8
ZUWAKU
  6
CONTINUOUS
 62
      43
  5
392
 10
-128.1495134
 20
281.2687642
 30
0.0
 11
-128.53436419
 21
280.88391341
 31
0.0
  0
LINE
  8
ZUWAKU
  6
CONTINUOUS
 62
      43
  5
393
 10
-145.74778825
 20
276.00891341
 30
0.0
 11
-151.20950105
 21
270.54720061
 31
0.0
  0
LINE
  8
ZUWAKU
  6
CONTINUOUS
 62
      43
  5
394
 10
-146.31347367
 20
276.00891341
 30
0.0
 11
-151.7954802
 21
270.52690688
 31
0.0
  0
LINE
  8
ZUWAKU
  6
CONTINUOUS
 62
      43
  5
395
 10
-146.8791591
 20
276.00891341
 30
0.0
 11
-152.37587608
 21
270.51219643
 31
0.0
  0
LINE
  8
ZUWAKU
  6
CONTINUOUS
 62
      43
  5
396
 10
-147.44484452
 20
276.00891341
 30
0.0
 11
-152.95086825
 21
270.50288969
 31
0.0
  0
LINE
  8
ZUWAKU
  6
CONTINUOUS
 62
      43
  5
397
 10
-148.01052995
 20
276.00891341
 30
0.0
 11
-153.52061894
 21
270.49882442
 31
0.0
  0
LINE
  8
ZUWAKU
  6
CONTINUOUS
 62
      43
  5
398
 10
-148.57621537
 20
276.00891341
 30
0.0
 11
-154.08527492
 21
270.49985386
 31
0.0
  0
LINE
  8
ZUWAKU
  6
CONTINUOUS
 62
      43
  5
399
 10
-149.1419008
 20
276.00891341
 30
0.0
 11
-154.64496903
 21
270.50584518
 31
0.0
  0
LINE
  8
ZUWAKU
  6
CONTINUOUS
 62
      43
  5
39A
 10
-149.70758622
 20
276.00891341
 30
0.0
 11
-155.19982153
 21
270.5166781
 31
0.0
  0
LINE
  8
ZUWAKU
  6
CONTINUOUS
 62
      43
  5
39B
 10
-150.27327165
 20
276.00891341
 30
0.0
 11
-155.74994124
 21
270.53224382
 31
0.0
  0
LINE
  8
ZUWAKU
  6
CONTINUOUS
 62
      43
  5
39C
 10
-150.83895707
 20
276.00891341
 30
0.0
 11
-156.29542654
 21
270.55244394
 31
0.0
  0
LINE
  8
ZUWAKU
  6
CONTINUOUS
 62
      43
  5
39D
 10
-151.4046425
 20
276.00891341
 30
0.0
 11
-156.83636623
 21
270.57718968
 31
0.0
  0
LINE
  8
ZUWAKU
  6
CONTINUOUS
 62
      43
  5
39E
 10
-151.97032792
 20
276.00891341
 30
0.0
 11
-157.37284028
 21
270.60640105
 31
0.0
  0
LINE
  8
ZUWAKU
  6
CONTINUOUS
 62
      43
  5
39F
 10
-152.53601335
 20
276.00891341
 30
0.0
 11
-157.90492045
 21
270.64000631
 31
0.0
  0
LINE
  8
ZUWAKU
  6
CONTINUOUS
 62
      43
  5
3A0
 10
-153.10169877
 20
276.00891341
 30
0.0
 11
-158.43267088
 21
270.67794131
 31
0.0
  0
LINE
  8
ZUWAKU
  6
CONTINUOUS
 62
      43
  5
3A1
 10
-153.6673842
 20
276.00891341
 30
0.0
 11
-158.95614853
 21
270.72014907
 31
0.0
  0
LINE
  8
ZUWAKU
  6
CONTINUOUS
 62
      43
  5
3A2
 10
-154.23306962
 20
276.00891341
 30
0.0
 11
-159.47540366
 21
270.76657938
 31
0.0
  0
LINE
  8
ZUWAKU
  6
CONTINUOUS
 62
      43
  5
3A3
 10
-154.79875505
 20
276.00891341
 30
0.0
 11
-159.99048011
 21
270.81718835
 31
0.0
  0
LINE
  8
ZUWAKU
  6
CONTINUOUS
 62
      43
  5
3A4
 10
-155.36444047
 20
276.00891341
 30
0.0
 11
-160.50141566
 21
270.87193823
 31
0.0
  0
LINE
  8
ZUWAKU
  6
CONTINUOUS
 62
      43
  5
3A5
 10
-155.9301259
 20
276.00891341
 30
0.0
 11
-161.00824226
 21
270.93079704
 31
0.0
  0
LINE
  8
ZUWAKU
  6
CONTINUOUS
 62
      43
  5
3A6
 10
-156.49581132
 20
276.00891341
 30
0.0
 11
-161.51098628
 21
270.99373846
 31
0.0
  0
LINE
  8
ZUWAKU
  6
CONTINUOUS
 62
      43
  5
3A7
 10
-157.06149675
 20
276.00891341
 30
0.0
 11
-162.00966861
 21
271.06074155
 31
0.0
  0
LINE
  8
ZUWAKU
  6
CONTINUOUS
 62
      43
  5
3A8
 10
-157.62718217
 20
276.00891341
 30
0.0
 11
-162.50430488
 21
271.13179071
 31
0.0
  0
LINE
  8
ZUWAKU
  6
CONTINUOUS
 62
      43
  5
3A9
 10
-158.1928676
 20
276.00891341
 30
0.0
 11
-162.99490548
 21
271.20687552
 31
0.0
  0
LINE
  8
ZUWAKU
  6
CONTINUOUS
 62
      43
  5
3AA
 10
-158.75855302
 20
276.00891341
 30
0.0
 11
-163.48147571
 21
271.28599072
 31
0.0
  0
LINE
  8
ZUWAKU
  6
CONTINUOUS
 62
      43
  5
3AB
 10
-159.32423845
 20
276.00891341
 30
0.0
 11
-163.96401575
 21
271.36913611
 31
0.0
  0
LINE
  8
ZUWAKU
  6
CONTINUOUS
 62
      43
  5
3AC
 10
-159.88992387
 20
276.00891341
 30
0.0
 11
-164.44252066
 21
271.45631662
 31
0.0
  0
LINE
  8
ZUWAKU
  6
CONTINUOUS
 62
      43
  5
3AD
 10
-160.4556093
 20
276.00891341
 30
0.0
 11
-164.91698041
 21
271.5475423
 31
0.0
  0
LINE
  8
ZUWAKU
  6
CONTINUOUS
 62
      43
  5
3AE
 10
-161.02129472
 20
276.00891341
 30
0.0
 11
-165.38737974
 21
271.64282839
 31
0.0
  0
LINE
  8
ZUWAKU
  6
CONTINUOUS
 62
      43
  5
3AF
 10
-161.58698015
 20
276.00891341
 30
0.0
 11
-165.85369812
 21
271.74219543
 31
0.0
  0
LINE
  8
ZUWAKU
  6
CONTINUOUS
 62
      43
  5
3B0
 10
-162.15266557
 20
276.00891341
 30
0.0
 11
-166.3159096
 21
271.84566939
 31
0.0
  0
LINE
  8
ZUWAKU
  6
CONTINUOUS
 62
      43
  5
3B1
 10
-162.718351
 20
276.00891341
 30
0.0
 11
-166.7739826
 21
271.95328181
 31
0.0
  0
LINE
  8
ZUWAKU
  6
CONTINUOUS
 62
      43
  5
3B2
 10
-163.28403642
 20
276.00891341
 30
0.0
 11
-167.22787978
 21
272.06507005
 31
0.0
  0
LINE
  8
ZUWAKU
  6
CONTINUOUS
 62
      43
  5
3B3
 10
-163.84972185
 20
276.00891341
 30
0.0
 11
-167.67755771
 21
272.18107755
 31
0.0
  0
LINE
  8
ZUWAKU
  6
CONTINUOUS
 62
      43
  5
3B4
 10
-164.41540727
 20
276.00891341
 30
0.0
 11
-168.12296662
 21
272.30135406
 31
0.0
  0
LINE
  8
ZUWAKU
  6
CONTINUOUS
 62
      43
  5
3B5
 10
-164.9810927
 20
276.00891341
 30
0.0
 11
-168.56405001
 21
272.4259561
 31
0.0
  0
LINE
  8
ZUWAKU
  6
CONTINUOUS
 62
      43
  5
3B6
 10
-165.54677812
 20
276.00891341
 30
0.0
 11
-169.00074427
 21
272.55494726
 31
0.0
  0
LINE
  8
ZUWAKU
  6
CONTINUOUS
 62
      43
  5
3B7
 10
-166.11246355
 20
276.00891341
 30
0.0
 11
-169.43297819
 21
272.68839877
 31
0.0
  0
LINE
  8
ZUWAKU
  6
CONTINUOUS
 62
      43
  5
3B8
 10
-166.67814897
 20
276.00891341
 30
0.0
 11
-169.86067239
 21
272.82638999
 31
0.0
  0
LINE
  8
ZUWAKU
  6
CONTINUOUS
 62
      43
  5
3B9
 10
-167.24383439
 20
276.00891341
 30
0.0
 11
-170.28373873
 21
272.96900907
 31
0.0
  0
LINE
  8
ZUWAKU
  6
CONTINUOUS
 62
      43
  5
3BA
 10
-167.80951982
 20
276.00891341
 30
0.0
 11
-170.70207952
 21
273.11635371
 31
0.0
  0
LINE
  8
ZUWAKU
  6
CONTINUOUS
 62
      43
  5
3BB
 10
-168.37520524
 20
276.00891341
 30
0.0
 11
-171.1155867
 21
273.26853196
 31
0.0
  0
LINE
  8
ZUWAKU
  6
CONTINUOUS
 62
      43
  5
3BC
 10
-168.94089067
 20
276.00891341
 30
0.0
 11
-171.52414085
 21
273.42566323
 31
0.0
  0
LINE
  8
ZUWAKU
  6
CONTINUOUS
 62
      43
  5
3BD
 10
-169.50657609
 20
276.00891341
 30
0.0
 11
-171.92761006
 21
273.58787945
 31
0.0
  0
LINE
  8
ZUWAKU
  6
CONTINUOUS
 62
      43
  5
3BE
 10
-170.07226152
 20
276.00891341
 30
0.0
 11
-172.32584859
 21
273.75532634
 31
0.0
  0
LINE
  8
ZUWAKU
  6
CONTINUOUS
 62
      43
  5
3BF
 10
-170.63794694
 20
276.00891341
 30
0.0
 11
-172.71869534
 21
273.92816501
 31
0.0
  0
LINE
  8
ZUWAKU
  6
CONTINUOUS
 62
      43
  5
3C0
 10
-171.20363237
 20
276.00891341
 30
0.0
 11
-173.10597204
 21
274.10657374
 31
0.0
  0
LINE
  8
ZUWAKU
  6
CONTINUOUS
 62
      43
  5
3C1
 10
-171.76931779
 20
276.00891341
 30
0.0
 11
-173.48748111
 21
274.29075009
 31
0.0
  0
LINE
  8
ZUWAKU
  6
CONTINUOUS
 62
      43
  5
3C2
 10
-172.33500322
 20
276.00891341
 30
0.0
 11
-173.86300318
 21
274.48091345
 31
0.0
  0
LINE
  8
ZUWAKU
  6
CONTINUOUS
 62
      43
  5
3C3
 10
-172.90068864
 20
276.00891341
 30
0.0
 11
-174.23229407
 21
274.67730798
 31
0.0
  0
LINE
  8
ZUWAKU
  6
CONTINUOUS
 62
      43
  5
3C4
 10
-173.46637407
 20
276.00891341
 30
0.0
 11
-174.59508124
 21
274.88020624
 31
0.0
  0
LINE
  8
ZUWAKU
  6
CONTINUOUS
 62
      43
  5
3C5
 10
-174.03205949
 20
276.00891341
 30
0.0
 11
-174.95105948
 21
275.08991343
 31
0.0
  0
LINE
  8
ZUWAKU
  6
CONTINUOUS
 62
      43
  5
3C6
 10
-174.25
 20
276.35665833
 30
0.0
 11
-175.29988568
 21
275.30677265
 31
0.0
  0
LINE
  8
ZUWAKU
  6
CONTINUOUS
 62
      43
  5
3C7
 10
-174.25
 20
276.92234376
 30
0.0
 11
-175.64117245
 21
275.5311713
 31
0.0
  0
LINE
  8
ZUWAKU
  6
CONTINUOUS
 62
      43
  5
3C8
 10
-174.25
 20
277.48802918
 30
0.0
 11
-175.97448022
 21
275.76354896
 31
0.0
  0
LINE
  8
ZUWAKU
  6
CONTINUOUS
 62
      43
  5
3C9
 10
-174.25
 20
278.05371461
 30
0.0
 11
-176.29930736
 21
276.00440725
 31
0.0
  0
LINE
  8
ZUWAKU
  6
CONTINUOUS
 62
      43
  5
3CA
 10
-174.25
 20
278.61940003
 30
0.0
 11
-176.6150777
 21
276.25432234
 31
0.0
  0
LINE
  8
ZUWAKU
  6
CONTINUOUS
 62
      43
  5
3CB
 10
-174.25
 20
279.18508546
 30
0.0
 11
-176.92112461
 21
276.51396084
 31
0.0
  0
LINE
  8
ZUWAKU
  6
CONTINUOUS
 62
      43
  5
3CC
 10
-174.25
 20
279.75077088
 30
0.0
 11
-177.21667029
 21
276.78410059
 31
0.0
  0
LINE
  8
ZUWAKU
  6
CONTINUOUS
 62
      43
  5
3CD
 10
-174.25
 20
280.31645631
 30
0.0
 11
-177.50079841
 21
277.0656579
 31
0.0
  0
LINE
  8
ZUWAKU
  6
CONTINUOUS
 62
      43
  5
3CE
 10
-174.24822832
 20
280.88391341
 30
0.0
 11
-177.77241736
 21
277.35972437
 31
0.0
  0
LINE
  8
ZUWAKU
  6
CONTINUOUS
 62
      43
  5
3CF
 10
-174.81391374
 20
280.88391341
 30
0.0
 11
-178.03020982
 21
277.66761734
 31
0.0
  0
LINE
  8
ZUWAKU
  6
CONTINUOUS
 62
      43
  5
3D0
 10
-175.37959917
 20
280.88391341
 30
0.0
 11
-178.27256165
 21
277.99095093
 31
0.0
  0
LINE
  8
ZUWAKU
  6
CONTINUOUS
 62
      43
  5
3D1
 10
-175.94528459
 20
280.88391341
 30
0.0
 11
-178.49745899
 21
278.33173902
 31
0.0
  0
LINE
  8
ZUWAKU
  6
CONTINUOUS
 62
      43
  5
3D2
 10
-176.51097002
 20
280.88391341
 30
0.0
 11
-178.70233383
 21
278.6925496
 31
0.0
  0
LINE
  8
ZUWAKU
  6
CONTINUOUS
 62
      43
  5
3D3
 10
-177.07665544
 20
280.88391341
 30
0.0
 11
-178.88382277
 21
279.07674609
 31
0.0
  0
LINE
  8
ZUWAKU
  6
CONTINUOUS
 62
      43
  5
3D4
 10
-177.64234087
 20
280.88391341
 30
0.0
 11
-179.03737005
 21
279.48888423
 31
0.0
  0
LINE
  8
ZUWAKU
  6
CONTINUOUS
 62
      43
  5
3D5
 10
-178.20802629
 20
280.88391341
 30
0.0
 11
-179.1565309
 21
279.9354088
 31
0.0
  0
LINE
  8
ZUWAKU
  6
CONTINUOUS
 62
      43
  5
3D6
 10
-178.77371172
 20
280.88391341
 30
0.0
 11
-179.2316402
 21
280.42598493
 31
0.0
  0
LINE
  8
ZUWAKU
  6
CONTINUOUS
 62
      43
  5
3D7
 10
-145.18210282
 20
276.00891341
 30
0.0
 11
-150.61773961
 21
270.57327663
 31
0.0
  0
LINE
  8
ZUWAKU
  6
CONTINUOUS
 62
      43
  5
3D8
 10
-144.6164174
 20
276.00891341
 30
0.0
 11
-150.01997486
 21
270.60535595
 31
0.0
  0
LINE
  8
ZUWAKU
  6
CONTINUOUS
 62
      43
  5
3D9
 10
-144.05073197
 20
276.00891341
 30
0.0
 11
-149.41596076
 21
270.64368462
 31
0.0
  0
LINE
  8
ZUWAKU
  6
CONTINUOUS
 62
      43
  5
3DA
 10
-143.48504655
 20
276.00891341
 30
0.0
 11
-148.80542263
 21
270.68853733
 31
0.0
  0
LINE
  8
ZUWAKU
  6
CONTINUOUS
 62
      43
  5
3DB
 10
-142.91936112
 20
276.00891341
 30
0.0
 11
-148.18805278
 21
270.74022176
 31
0.0
  0
LINE
  8
ZUWAKU
  6
CONTINUOUS
 62
      43
  5
3DC
 10
-142.3536757
 20
276.00891341
 30
0.0
 11
-147.5635052
 21
270.79908391
 31
0.0
  0
LINE
  8
ZUWAKU
  6
CONTINUOUS
 62
      43
  5
3DD
 10
-141.78799027
 20
276.00891341
 30
0.0
 11
-146.93138914
 21
270.86551454
 31
0.0
  0
LINE
  8
ZUWAKU
  6
CONTINUOUS
 62
      43
  5
3DE
 10
-141.22230485
 20
276.00891341
 30
0.0
 11
-146.291261
 21
270.93995726
 31
0.0
  0
LINE
  8
ZUWAKU
  6
CONTINUOUS
 62
      43
  5
3DF
 10
-140.65661942
 20
276.00891341
 30
0.0
 11
-145.64261434
 21
271.02291849
 31
0.0
  0
LINE
  8
ZUWAKU
  6
CONTINUOUS
 62
      43
  5
3E0
 10
-140.090934
 20
276.00891341
 30
0.0
 11
-144.98486724
 21
271.11498017
 31
0.0
  0
LINE
  8
ZUWAKU
  6
CONTINUOUS
 62
      43
  5
3E1
 10
-139.52524857
 20
276.00891341
 30
0.0
 11
-144.317346
 21
271.21681599
 31
0.0
  0
LINE
  8
ZUWAKU
  6
CONTINUOUS
 62
      43
  5
3E2
 10
-138.95956315
 20
276.00891341
 30
0.0
 11
-143.63926405
 21
271.32921251
 31
0.0
  0
LINE
  8
ZUWAKU
  6
CONTINUOUS
 62
      43
  5
3E3
 10
-138.39387772
 20
276.00891341
 30
0.0
 11
-142.9496941
 21
271.45309704
 31
0.0
  0
LINE
  8
ZUWAKU
  6
CONTINUOUS
 62
      43
  5
3E4
 10
-132.9531923
 20
280.88391341
 30
0.0
 11
-133.0
 21
280.83710571
 31
0.0
  0
LINE
  8
ZUWAKU
  6
CONTINUOUS
 62
      43
  5
3E5
 10
-137.8281923
 20
276.00891341
 30
0.0
 11
-142.24753052
 21
271.58957519
 31
0.0
  0
LINE
  8
ZUWAKU
  6
CONTINUOUS
 62
      43
  5
3E6
 10
-132.38750687
 20
280.88391341
 30
0.0
 11
-133.0
 21
280.27142029
 31
0.0
  0
LINE
  8
ZUWAKU
  6
CONTINUOUS
 62
      43
  5
3E7
 10
-137.26250687
 20
276.00891341
 30
0.0
 11
-141.53143775
 21
271.73998253
 31
0.0
  0
LINE
  8
ZUWAKU
  6
CONTINUOUS
 62
      43
  5
3E8
 10
-131.82182145
 20
280.88391341
 30
0.0
 11
-133.0
 21
279.70573486
 31
0.0
  0
LINE
  8
ZUWAKU
  6
CONTINUOUS
 62
      43
  5
3E9
 10
-136.69682145
 20
276.00891341
 30
0.0
 11
-140.79977742
 21
271.90595744
 31
0.0
  0
LINE
  8
ZUWAKU
  6
CONTINUOUS
 62
      43
  5
3EA
 10
-131.25613602
 20
280.88391341
 30
0.0
 11
-133.0
 21
279.14004944
 31
0.0
  0
LINE
  8
ZUWAKU
  6
CONTINUOUS
 62
      43
  5
3EB
 10
-136.13113602
 20
276.00891341
 30
0.0
 11
-140.05050255
 21
272.08954689
 31
0.0
  0
LINE
  8
ZUWAKU
  6
CONTINUOUS
 62
      43
  5
3EC
 10
-130.6904506
 20
280.88391341
 30
0.0
 11
-133.0
 21
278.57436401
 31
0.0
  0
LINE
  8
ZUWAKU
  6
CONTINUOUS
 62
      43
  5
3ED
 10
-135.5654506
 20
276.00891341
 30
0.0
 11
-139.28099845
 21
272.29336556
 31
0.0
  0
LINE
  8
ZUWAKU
  6
CONTINUOUS
 62
      43
  5
3EE
 10
-130.12476517
 20
280.88391341
 30
0.0
 11
-133.0
 21
278.00867859
 31
0.0
  0
LINE
  8
ZUWAKU
  6
CONTINUOUS
 62
      43
  5
3EF
 10
-134.99976517
 20
276.00891341
 30
0.0
 11
-138.48783337
 21
272.52084521
 31
0.0
  0
LINE
  8
ZUWAKU
  6
CONTINUOUS
 62
      43
  5
3F0
 10
-129.55907975
 20
280.88391341
 30
0.0
 11
-133.0
 21
277.44299316
 31
0.0
  0
LINE
  8
ZUWAKU
  6
CONTINUOUS
 62
      43
  5
3F1
 10
-134.43407975
 20
276.00891341
 30
0.0
 11
-137.66634647
 21
272.7766467
 31
0.0
  0
LINE
  8
ZUWAKU
  6
CONTINUOUS
 62
      43
  5
3F2
 10
-128.99339432
 20
280.88391341
 30
0.0
 11
-133.0
 21
276.87730774
 31
0.0
  0
LINE
  8
ZUWAKU
  6
CONTINUOUS
 62
      43
  5
3F3
 10
-133.86839432
 20
276.00891341
 30
0.0
 11
-136.80992096
 21
273.06738678
 31
0.0
  0
LINE
  8
ZUWAKU
  6
CONTINUOUS
 62
      43
  5
3F4
 10
-128.4277089
 20
280.88391341
 30
0.0
 11
-133.0
 21
276.31162231
 31
0.0
  0
LINE
  8
ZUWAKU
  6
CONTINUOUS
 62
      43
  5
3F5
 10
-133.3027089
 20
276.00891341
 30
0.0
 11
-135.90858534
 21
273.40303697
 31
0.0
  0
LINE
  8
ZUWAKU
  6
CONTINUOUS
 62
      43
  5
3F6
 10
-128.12984551
 20
280.61609138
 30
0.0
 11
-134.94597648
 21
273.79996041
 31
0.0
  0
LINE
  8
ZUWAKU
  6
CONTINUOUS
 62
      43
  5
3F7
 10
-128.21152607
 20
279.96872539
 30
0.0
 11
-133.89143846
 21
274.288813
 31
0.0
  0
LINE
  8
ZUWAKU
  6
CONTINUOUS
 62
      43
  5
3F8
 10
-128.45823447
 20
279.15633157
 30
0.0
 11
-132.6718726
 21
274.94269344
 31
0.0
  0
LINE
  8
ZUWAKU
  6
CONTINUOUS
 62
      43
  5
3F9
 10
-129.22135211
 20
277.8275285
 30
0.0
 11
-130.9358975
 21
276.11298311
 31
0.0
  0
LINE
  8
ZUWAKU
  6
CONTINUOUS
 62
       3
  5
3FA
 10
62.5
 20
286.63391341
 30
0.0
 11
188.75
 21
286.63391341
 31
0.0
  0
LINE
  8
ZUWAKU
  6
CONTINUOUS
 62
       3
  5
3FB
 10
62.5
 20
286.63391341
 30
0.0
 11
62.5
 21
266.82163914
 31
0.0
  0
LINE
  8
ZUWAKU
  6
CONTINUOUS
 62
       3
  5
3FC
 10
188.75
 20
286.63391341
 30
0.0
 11
188.75
 21
266.82163914
 31
0.0
  0
LINE
  8
ZUWAKU
  6
CONTINUOUS
 62
       3
  5
3FD
 10
-168.25
 20
-254.74108659
 30
0.0
 11
-168.25
 21
-174.74108659
 31
0.0
  0
LINE
  8
ZUWAKU
  6
CONTINUOUS
 62
       3
  5
3FE
 10
-75.125
 20
-254.74108659
 30
0.0
 11
-75.125
 21
-174.74108659
 31
0.0
  0
LINE
  8
ZUWAKU
  6
CONTINUOUS
 62
       3
  5
3FF
 10
31.125
 20
-254.74108659
 30
0.0
 11
31.125
 21
-174.74108659
 31
0.0
  0
LINE
  8
ZUWAKU
  6
CONTINUOUS
 62
       3
  5
400
 10
53.375
 20
-254.74108659
 30
0.0
 11
53.375
 21
-174.74108659
 31
0.0
  0
LINE
  8
ZUWAKU
  6
CONTINUOUS
 62
       3
  5
401
 10
62.0
 20
-282.24108659
 30
0.0
 11
62.0
 21
-258.11608659
 31
0.0
  0
LINE
  8
ZUWAKU
  6
CONTINUOUS
 62
       3
  5
402
 10
52.0
 20
-282.24108659
 30
0.0
 11
52.0
 21
-258.11608659
 31
0.0
  0
LINE
  8
ZUWAKU
  6
CONTINUOUS
 62
       3
  5
403
 10
-73.125
 20
-282.24108659
 30
0.0
 11
-73.125
 21
-258.11608659
 31
0.0
  0
LINE
  8
ZUWAKU
  6
CONTINUOUS
 62
       3
  5
404
 10
-83.125
 20
-282.24108659
 30
0.0
 11
-83.125
 21
-258.11608659
 31
0.0
  0
LINE
  8
ZUWAKU
  6
CONTINUOUS
 62
       3
  5
405
 10
-182.125
 20
-244.74108659
 30
0.0
 11
186.75
 21
-244.74108659
 31
0.0
  0
LINE
  8
ZUWAKU
  6
CONTINUOUS
 62
       3
  5
406
 10
-182.125
 20
-234.74108659
 30
0.0
 11
186.75
 21
-234.74108659
 31
0.0
  0
LINE
  8
ZUWAKU
  6
CONTINUOUS
 62
       3
  5
407
 10
-182.125
 20
-224.74108659
 30
0.0
 11
186.75
 21
-224.74108659
 31
0.0
  0
LINE
  8
ZUWAKU
  6
CONTINUOUS
 62
       3
  5
408
 10
-182.125
 20
-214.74108659
 30
0.0
 11
186.75
 21
-214.74108659
 31
0.0
  0
LINE
  8
ZUWAKU
  6
CONTINUOUS
 62
       3
  5
409
 10
-182.125
 20
-204.74108659
 30
0.0
 11
186.75
 21
-204.74108659
 31
0.0
  0
LINE
  8
ZUWAKU
  6
CONTINUOUS
 62
       3
  5
40A
 10
-182.125
 20
-194.74108659
 30
0.0
 11
186.75
 21
-194.74108659
 31
0.0
  0
LINE
  8
ZUWAKU
  6
CONTINUOUS
 62
       3
  5
40B
 10
-182.125
 20
-184.74108659
 30
0.0
 11
186.75
 21
-184.74108659
 31
0.0
  0
POINT
  8
ZUWAKU
  6
CONTINUOUS
 62
       3
  5
40C
 10
-182.125
 20
-79.9309787
 30
0.0
  0
POINT
  8
ZUWAKU
  6
CONTINUOUS
 62
       3
  5
40D
 10
-182.125
 20
80.0690213
 30
0.0
  0
POINT
  8
ZUWAKU
  6
CONTINUOUS
 62
       3
  5
40E
 10
-210.0
 20
0.0690213
 30
0.0
  0
TEXT
  8
ZUWAKU
 62
       4
  5
40F
 10
-78.12598937
 20
-259.83180473
 30
0.0
 40
4.998
  1
品 名
 41
0.8
  7
FDASTYLE1
  0
TEXT
  8
ZUWAKU
 62
       4
  5
410
 10
56.87848738
 20
-259.86699767
 30
0.0
 40
4.998
  1
品　番
 41
0.8
  7
FDASTYLE1
  0
TEXT
  8
ZUWAKU
 62
       4
  5
411
 10
-178.70149266
 20
-243.66115339
 30
0.0
 40
8.0
  1
1
 41
0.8
 72
       5
 11
-172.30149266
 21
-243.66115339
 31
0.0
  0
TEXT
  8
ZUWAKU
 62
       4
  5
412
 10
-178.70149266
 20
-233.66115339
 30
0.0
 40
8.0
  1
2
 41
0.8
 72
       5
 11
-172.30149266
 21
-233.66115339
 31
0.0
  0
TEXT
  8
ZUWAKU
 62
       4
  5
413
 10
-178.70149266
 20
-223.66115339
 30
0.0
 40
8.0
  1
3
 41
0.8
 72
       5
 11
-172.30149266
 21
-223.66115339
 31
0.0
  0
TEXT
  8
ZUWAKU
 62
       4
  5
414
 10
-178.70149266
 20
-213.66115339
 30
0.0
 40
8.0
  1
4
 41
0.8
 72
       5
 11
-172.30149266
 21
-213.66115339
 31
0.0
  0
TEXT
  8
ZUWAKU
 62
       4
  5
415
 10
-178.70149266
 20
-203.66115339
 30
0.0
 40
8.0
  1
5
 41
0.8
 72
       5
 11
-172.30149266
 21
-203.66115339
 31
0.0
  0
TEXT
  8
ZUWAKU
 62
       4
  5
416
 10
-178.70149266
 20
-193.66115339
 30
0.0
 40
8.0
  1
6
 41
0.8
 72
       5
 11
-172.30149266
 21
-193.66115339
 31
0.0
  0
TEXT
  8
ZUWAKU
 62
       4
  5
417
 10
-178.70149266
 20
-183.66115339
 30
0.0
 40
8.0
  1
7
 41
0.8
 72
       5
 11
-172.30149266
 21
-183.66115339
 31
0.0
  0
TEXT
  8
ZUWAKU
 62
       4
  5
418
 10
103.7442024
 20
-253.6216861
 30
0.0
 40
8.0
  1
摘要・仕上
 41
0.7143
 72
       5
 11
135.7442024
 21
-253.6216861
 31
0.0
  0
TEXT
  8
ZUWAKU
 62
       4
  5
419
 10
32.47292259
 20
-253.6216861
 30
0.0
 40
8.0
  1
個　数
 41
0.75
 72
       5
 11
51.67292259
 21
-253.6216861
 31
0.0
  0
TEXT
  8
ZUWAKU
 62
       4
  5
41A
 10
-34.71889602
 20
-253.6216861
 30
0.0
 40
8.0
  1
材　　質
 41
0.6667
 72
       5
 11
-9.11889602
 21
-253.6216861
 31
0.0
  0
TEXT
  8
ZUWAKU
 62
       4
  5
41B
 10
-137.75373553
 20
-253.6216861
 30
0.0
 40
8.0
  1
部　品　名
 41
0.7143
 72
       5
 11
-105.75373553
 21
-253.6216861
 31
0.0
  0
TEXT
  8
ZUWAKU
 62
       4
  5
41C
 10
-181.8379621
 20
-253.6216861
 30
0.0
 40
8.0
  1
部番
 41
0.6667
 72
       5
 11
-169.0379621
 21
-253.6216861
 31
0.0
  0
TEXT
  8
ZUWAKU
 62
       4
  5
41D
 10
199.60618537
 20
-11.77791433
 30
0.0
 40
8.0
  1
フック
 50
-90.0
 41
0.75
 72
       5
 11
199.60618537
 21
-30.97791433
 31
0.0
  0
TEXT
  8
ZUWAKU
 62
       4
  5
41E
 10
149.62524567
 20
-292.37239282
 30
0.0
 40
8.0
  1
090214
 41
0.8
 72
       5
 11
188.02524567
 21
-292.37239282
 31
0.0
  0
POINT
  8
ZUWAKU
  6
CONTINUOUS
 62
       9
  5
41F
 10
125.625
 20
276.72777628
 30
0.0
  0
POINT
  8
ZUWAKU
  6
CONTINUOUS
 62
       9
  5
420
 10
-29.80552326
 20
276.72777628
 30
0.0
  0
POINT
  8
ZUWAKU
  6
CONTINUOUS
 62
       9
  5
421
 10
124.375
 20
-270.17858659
 30
0.0
  0
POINT
  8
ZUWAKU
  6
CONTINUOUS
 62
       9
  5
422
 10
-10.5625
 20
-270.17858659
 30
0.0
  0
POINT
  8
ZUWAKU
  6
CONTINUOUS
 62
       9
  5
423
 10
42.25
 20
-239.74108659
 30
0.0
  0
POINT
  8
ZUWAKU
  6
CONTINUOUS
 62
       9
  5
424
 10
-166.25
 20
-239.74108659
 30
0.0
  0
POINT
  8
ZUWAKU
  6
CONTINUOUS
 62
       9
  5
425
 10
-73.125
 20
-239.74108659
 30
0.0
  0
POINT
  8
ZUWAKU
  6
CONTINUOUS
 62
       9
  5
426
 10
55.375
 20
-239.74108659
 30
0.0
  0
LINE
  8
ZUWAKU
  6
CONTINUOUS
 62
       9
  5
427
 10
-210.0
 20
307.0
 30
0.0
 11
-210.0
 21
297.0
 31
0.0
  0
LINE
  8
ZUWAKU
  6
CONTINUOUS
 62
       9
  5
428
 10
-210.0
 20
297.0
 30
0.0
 11
-220.0
 21
297.0
 31
0.0
  0
LINE
  8
ZUWAKU
  6
CONTINUOUS
 62
       9
  5
429
 10
210.0
 20
297.0
 30
0.0
 11
220.0
 21
297.0
 31
0.0
  0
LINE
  8
ZUWAKU
  6
CONTINUOUS
 62
       9
  5
42A
 10
210.0
 20
297.0
 30
0.0
 11
210.0
 21
307.0
 31
0.0
  0
LINE
  8
ZUWAKU
  6
CONTINUOUS
 62
       9
  5
42B
 10
210.0
 20
-307.0
 30
0.0
 11
210.0
 21
-297.0
 31
0.0
  0
LINE
  8
ZUWAKU
  6
CONTINUOUS
 62
       9
  5
42C
 10
210.0
 20
-297.0
 30
0.0
 11
220.0
 21
-297.0
 31
0.0
  0
LINE
  8
ZUWAKU
  6
CONTINUOUS
 62
       9
  5
42D
 10
-220.04624619
 20
-297.0
 30
0.0
 11
-210.0
 21
-297.0
 31
0.0
  0
LINE
  8
ZUWAKU
  6
CONTINUOUS
 62
       9
  5
42E
 10
-210.0
 20
-297.0690213
 30
0.0
 11
-210.0
 21
-306.99989306
 31
0.0
  0
POINT
  8
ZUWAKU
  6
CONTINUOUS
 62
       9
  5
42F
 10
42.25
 20
-229.74108659
 30
0.0
  0
POINT
  8
ZUWAKU
  6
CONTINUOUS
 62
       9
  5
430
 10
-166.25
 20
-229.74108659
 30
0.0
  0
POINT
  8
ZUWAKU
  6
CONTINUOUS
 62
       9
  5
431
 10
-73.125
 20
-229.74108659
 30
0.0
  0
POINT
  8
ZUWAKU
  6
CONTINUOUS
 62
       9
  5
432
 10
55.375
 20
-229.74108659
 30
0.0
  0
POINT
  8
ZUWAKU
  6
CONTINUOUS
 62
       9
  5
433
 10
42.25
 20
-219.74108659
 30
0.0
  0
POINT
  8
ZUWAKU
  6
CONTINUOUS
 62
       9
  5
434
 10
-166.25
 20
-219.74108659
 30
0.0
  0
POINT
  8
ZUWAKU
  6
CONTINUOUS
 62
       9
  5
435
 10
-73.125
 20
-219.74108659
 30
0.0
  0
POINT
  8
ZUWAKU
  6
CONTINUOUS
 62
       9
  5
436
 10
55.375
 20
-219.74108659
 30
0.0
  0
POINT
  8
ZUWAKU
  6
CONTINUOUS
 62
       9
  5
437
 10
42.25
 20
-209.74108659
 30
0.0
  0
POINT
  8
ZUWAKU
  6
CONTINUOUS
 62
       9
  5
438
 10
-166.25
 20
-209.74108659
 30
0.0
  0
POINT
  8
ZUWAKU
  6
CONTINUOUS
 62
       9
  5
439
 10
-73.125
 20
-209.74108659
 30
0.0
  0
POINT
  8
ZUWAKU
  6
CONTINUOUS
 62
       9
  5
43A
 10
55.375
 20
-209.74108659
 30
0.0
  0
POINT
  8
ZUWAKU
  6
CONTINUOUS
 62
       9
  5
43B
 10
42.25
 20
-199.74108659
 30
0.0
  0
POINT
  8
ZUWAKU
  6
CONTINUOUS
 62
       9
  5
43C
 10
-166.25
 20
-199.74108659
 30
0.0
  0
POINT
  8
ZUWAKU
  6
CONTINUOUS
 62
       9
  5
43D
 10
-73.125
 20
-199.74108659
 30
0.0
  0
POINT
  8
ZUWAKU
  6
CONTINUOUS
 62
       9
  5
43E
 10
55.375
 20
-199.74108659
 30
0.0
  0
POINT
  8
ZUWAKU
  6
CONTINUOUS
 62
       9
  5
43F
 10
42.25
 20
-189.74108659
 30
0.0
  0
POINT
  8
ZUWAKU
  6
CONTINUOUS
 62
       9
  5
440
 10
-166.25
 20
-189.74108659
 30
0.0
  0
POINT
  8
ZUWAKU
  6
CONTINUOUS
 62
       9
  5
441
 10
-73.125
 20
-189.74108659
 30
0.0
  0
POINT
  8
ZUWAKU
  6
CONTINUOUS
 62
       9
  5
442
 10
55.375
 20
-189.74108659
 30
0.0
  0
POINT
  8
ZUWAKU
  6
CONTINUOUS
 62
       9
  5
443
 10
42.25
 20
-179.74108659
 30
0.0
  0
POINT
  8
ZUWAKU
  6
CONTINUOUS
 62
       9
  5
444
 10
-166.25
 20
-179.74108659
 30
0.0
  0
POINT
  8
ZUWAKU
  6
CONTINUOUS
 62
       9
  5
445
 10
-73.125
 20
-179.74108659
 30
0.0
  0
POINT
  8
ZUWAKU
  6
CONTINUOUS
 62
       9
  5
446
 10
55.375
 20
-179.74108659
 30
0.0
  0
LINE
  8
4
  6
CENTER
 62
       9
  5
447
 10
-56.91203295
 20
48.20296719
 30
0.0
 11
-57.61702161
 21
34.75098228
 31
0.0
  0
LINE
  8
4
  6
CENTER
 62
       9
  5
448
 10
-104.70534655
 20
60.20707858
 30
0.0
 11
-47.32138672
 21
60.20707858
 31
0.0
  0
LINE
  8
4
  6
CENTER
 62
       9
  5
449
 10
15.92986078
 20
60.20707858
 30
0.0
 11
86.92986078
 21
60.20707858
 31
0.0
  0
LINE
  8
4
  6
CENTER
 62
       9
  5
44A
 10
51.42986078
 20
85.70707858
 30
0.0
 11
51.42986078
 21
34.70707858
 31
0.0
  0
LINE
  8
4
  6
CENTER
 62
       9
  5
44B
 10
51.42986078
 20
120.97437587
 30
0.0
 11
51.42986078
 21
181.94017418
 31
0.0
  0
LINE
  8
4
  6
CENTER
 62
       9
  5
44C
 10
45.92986078
 20
168.14538532
 30
0.0
 11
56.92986078
 21
168.14538532
 31
0.0
  0
LINE
  8
4
  6
CENTER
 62
       9
  5
44D
 10
82.2856719
 20
-87.54239029
 30
0.0
 11
82.2856719
 21
-106.74239029
 31
0.0
  0
LINE
  8
4
  6
CENTER
 62
       9
  5
44E
 10
91.8856719
 20
-97.14239029
 30
0.0
 11
72.6856719
 21
-97.14239029
 31
0.0
  0
LINE
  8
4
  6
CENTER
 62
       9
  5
44F
 10
142.8856719
 20
-97.14239029
 30
0.0
 11
101.8856719
 21
-97.14239029
 31
0.0
  0
ARC
  8
0
  6
CONTINUOUS
 62
       3
  5
450
 10
-55.46560995
 20
87.70707858
 30
0.0
 40
50.0
 50
221.69750678
 51
270.0
  0
LINE
  8
0
  6
CONTINUOUS
 62
       3
  5
451
 10
-53.66560995
 20
82.70707858
 30
0.0
 11
-53.66560995
 21
37.70707858
 31
0.0
  0
LINE
  8
0
  6
CONTINUOUS
 62
       3
  5
452
 10
-55.46560995
 20
37.70707858
 30
0.0
 11
-53.66560995
 21
37.70707858
 31
0.0
  0
ARC
  8
0
  6
CONTINUOUS
 62
       3
  5
453
 10
-121.80807504
 20
131.49997316
 30
0.0
 40
80.0
 50
305.49322207
 51
319.21257973
  0
ARC
  8
0
  6
CONTINUOUS
 62
       3
  5
454
 10
-81.16560995
 20
74.50707858
 30
0.0
 40
10.0
 50
187.40507994
 51
305.49322207
  0
ARC
  8
0
  6
CONTINUOUS
 62
       3
  5
455
 10
-66.66561689
 20
77.72911062
 30
0.0
 40
35.0
 50
182.60406096
 51
221.69750678
  0
ARC
  8
0
  6
CONTINUOUS
 62
       3
  5
456
 10
-100.13102318
 20
76.20707858
 30
0.0
 40
1.5
 50
90.0
 51
182.60406096
  0
LINE
  8
0
  6
CONTINUOUS
 62
       3
  5
457
 10
-100.13102318
 20
77.70707858
 30
0.0
 11
-92.98327434
 21
77.70707858
 31
0.0
  0
LINE
  8
0
  6
CONTINUOUS
 62
       3
  5
458
 10
-91.49578473
 20
76.40040386
 30
0.0
 11
-91.08220735
 21
73.21824339
 31
0.0
  0
ARC
  8
0
  6
CONTINUOUS
 62
       3
  5
459
 10
-92.98327434
 20
76.20707858
 30
0.0
 40
1.5
 50
7.40507994
 51
90.0
  0
ARC
  8
0
  6
CONTINUOUS
 62
       3
  5
45A
 10
-53.66560995
 20
72.70707858
 30
0.0
 40
10.0
 50
90.0
 51
139.21257973
  0
ARC
  8
0
  6
CONTINUOUS
 62
       3
  5
45B
 10
51.42986078
 20
39.09596747
 30
0.0
 40
43.61111111
 50
55.5170812
 51
124.4829188
  0
ARC
  8
0
  6
CONTINUOUS
 62
       3
  5
45C
 10
51.42986078
 20
81.3181897
 30
0.0
 40
43.61111111
 50
235.5170812
 51
304.4829188
  0
ARC
  8
0
  6
CONTINUOUS
 62
       3
  5
45D
 10
36.92986078
 20
60.20707858
 30
0.0
 40
18.0
 50
124.4829188
 51
235.5170812
  0
ARC
  8
0
  6
CONTINUOUS
 62
       3
  5
45E
 10
65.92986078
 20
60.20707858
 30
0.0
 40
18.0
 50
304.4829188
 51
415.5170812
  0
LINE
  8
0
  6
CONTINUOUS
 62
       3
  5
45F
 10
51.42986078
 20
77.70707858
 30
0.0
 11
60.01113433
 21
77.70707858
 31
0.0
  0
ARC
  8
0
  6
CONTINUOUS
 62
       3
  5
460
 10
-8.79545581
 20
125.28359456
 30
0.0
 40
50.0
 50
9.14103843
 51
51.04165133
  0
LINE
  8
0
  6
CONTINUOUS
 62
       3
  5
461
 10
83.92986078
 20
171.9397891
 30
0.0
 11
18.92986078
 21
171.9397891
 31
0.0
  0
ARC
  8
0
  6
CONTINUOUS
 62
       3
  5
462
 10
111.65517736
 20
125.28359456
 30
0.0
 40
50.0
 50
128.95834867
 51
170.85896157
  0
LINE
  8
0
  6
CONTINUOUS
 62
       3
  5
463
 10
58.43440346
 20
134.10961432
 30
0.0
 11
44.42531809
 21
134.10961432
 31
0.0
  0
ARC
  8
0
  6
CONTINUOUS
 62
       3
  5
464
 10
51.42986078
 20
134.97437587
 30
0.0
 40
11.0
 50
189.14103843
 51
350.85896157
  0
ARC
  8
0
  6
CONTINUOUS
 62
       3
  5
465
 10
58.43440346
 20
131.10961432
 30
0.0
 40
3.0
 50
331.11225013
 51
450.0
  0
ARC
  8
0
  6
CONTINUOUS
 62
       3
  5
466
 10
44.42531809
 20
131.10961432
 30
0.0
 40
3.0
 50
90.0
 51
208.88774987
  0
ARC
  8
0
  6
CONTINUOUS
 62
       3
  5
467
 10
73.92986078
 20
171.9397891
 30
0.0
 40
10.0
 50
308.95834867
 51
360.0
  0
ARC
  8
0
  6
CONTINUOUS
 62
       3
  5
468
 10
28.92986078
 20
171.9397891
 30
0.0
 40
10.0
 50
180.0
 51
231.04165133
  0
ARC
  8
0
  6
CONTINUOUS
 62
       3
  5
469
 10
74.63440346
 20
77.70707858
 30
0.0
 40
13.2
 50
185.85670191
 51
270.0
  0
ARC
  8
0
  6
CONTINUOUS
 62
       3
  5
46A
 10
60.01113433
 20
76.20707858
 30
0.0
 40
1.5
 50
5.85670191
 51
90.0
  0
ARC
  8
0
  6
CONTINUOUS
 62
       3
  5
46B
 10
42.84858722
 20
76.20707858
 30
0.0
 40
1.5
 50
90.0
 51
174.14329809
  0
LINE
  8
0
  6
CONTINUOUS
 62
       3
  5
46C
 10
51.42986078
 20
77.70707858
 30
0.0
 11
42.84858722
 21
77.70707858
 31
0.0
  0
ARC
  8
0
  6
CONTINUOUS
 62
       3
  5
46D
 10
28.22531809
 20
77.70707858
 30
0.0
 40
13.2
 50
270.0
 51
354.14329809
  0
ARC
  8
0
  6
CONTINUOUS
 62
       3
  5
46E
 10
82.2856719
 20
-97.14239029
 30
0.0
 40
2.9
 50
189.92819184
 51
260.07180816
  0
ARC
  8
0
  6
CONTINUOUS
 62
       3
  5
46F
 10
82.2856719
 20
-97.14239029
 30
0.0
 40
2.9
 50
99.92819184
 51
170.07180816
  0
LINE
  8
0
  6
CONTINUOUS
 62
       3
  5
470
 10
79.42910053
 20
-97.64239029
 30
0.0
 11
78.6856719
 21
-97.14239029
 31
0.0
  0
LINE
  8
0
  6
CONTINUOUS
 62
       3
  5
471
 10
78.6856719
 20
-97.14239029
 30
0.0
 11
79.42910053
 21
-96.64239029
 31
0.0
  0
CIRCLE
  8
0
  6
CONTINUOUS
 62
       3
  5
472
 10
82.2856719
 20
-97.14239029
 30
0.0
 40
2.1
  0
ARC
  8
0
  6
CONTINUOUS
 62
       3
  5
473
 10
82.2856719
 20
-97.14239029
 30
0.0
 40
2.9
 50
279.92819184
 51
350.07180816
  0
LINE
  8
0
  6
CONTINUOUS
 62
       3
  5
474
 10
82.7856719
 20
-99.99896166
 30
0.0
 11
82.2856719
 21
-100.74239029
 31
0.0
  0
LINE
  8
0
  6
CONTINUOUS
 62
       3
  5
475
 10
82.2856719
 20
-100.74239029
 30
0.0
 11
81.7856719
 21
-99.99896166
 31
0.0
  0
ARC
  8
0
  6
CONTINUOUS
 62
       3
  5
476
 10
82.2856719
 20
-97.14239029
 30
0.0
 40
2.9
 50
9.92819184
 51
80.07180816
  0
LINE
  8
0
  6
CONTINUOUS
 62
       3
  5
477
 10
82.2856719
 20
-93.54239029
 30
0.0
 11
82.7856719
 21
-94.28581892
 31
0.0
  0
LINE
  8
0
  6
CONTINUOUS
 62
       3
  5
478
 10
81.7856719
 20
-94.28581892
 30
0.0
 11
82.2856719
 21
-93.54239029
 31
0.0
  0
LINE
  8
0
  6
CONTINUOUS
 62
       3
  5
479
 10
85.14224327
 20
-97.64239029
 30
0.0
 11
85.8856719
 21
-97.14239029
 31
0.0
  0
LINE
  8
0
  6
CONTINUOUS
 62
       3
  5
47A
 10
85.8856719
 20
-97.14239029
 30
0.0
 11
85.14224327
 21
-96.64239029
 31
0.0
  0
LINE
  8
0
  6
CONTINUOUS
 62
       3
  5
47B
 10
129.3856719
 20
-98.64239029
 30
0.0
 11
127.8856719
 21
-98.64239029
 31
0.0
  0
LINE
  8
0
  6
CONTINUOUS
 62
       3
  5
47C
 10
129.3856719
 20
-95.64239029
 30
0.0
 11
127.8856719
 21
-95.64239029
 31
0.0
  0
LINE
  8
0
  6
CONTINUOUS
 62
       3
  5
47D
 10
136.8856719
 20
-96.64239029
 30
0.0
 11
116.3856719
 21
-96.64239029
 31
0.0
  0
LINE
  8
0
  6
CONTINUOUS
 62
       3
  5
47E
 10
136.8856719
 20
-97.64239029
 30
0.0
 11
116.3856719
 21
-97.64239029
 31
0.0
  0
LINE
  8
0
  6
CONTINUOUS
 62
       3
  5
47F
 10
110.8856719
 20
-94.24239029
 30
0.0
 11
116.3856719
 21
-94.24239029
 31
0.0
  0
LINE
  8
0
  6
CONTINUOUS
 62
       3
  5
480
 10
110.8856719
 20
-100.04239029
 30
0.0
 11
116.3856719
 21
-100.04239029
 31
0.0
  0
LINE
  8
0
  6
CONTINUOUS
 62
       3
  5
481
 10
107.8856719
 20
-100.74239029
 30
0.0
 11
107.8856719
 21
-93.54239029
 31
0.0
  0
LINE
  8
0
  6
CONTINUOUS
 62
       3
  5
482
 10
107.8856719
 20
-100.74239029
 30
0.0
 11
110.8856719
 21
-100.04239029
 31
0.0
  0
LINE
  8
0
  6
CONTINUOUS
 62
       3
  5
483
 10
107.8856719
 20
-99.99896166
 30
0.0
 11
110.8856719
 21
-100.04239029
 31
0.0
  0
LINE
  8
0
  6
CONTINUOUS
 62
       3
  5
484
 10
107.8856719
 20
-96.64239029
 30
0.0
 11
110.8856719
 21
-97.14239029
 31
0.0
  0
LINE
  8
0
  6
CONTINUOUS
 62
       3
  5
485
 10
110.8856719
 20
-97.14239029
 30
0.0
 11
107.8856719
 21
-97.64239029
 31
0.0
  0
LINE
  8
0
  6
CONTINUOUS
 62
       3
  5
486
 10
107.8856719
 20
-94.28581892
 30
0.0
 11
110.8856719
 21
-94.24239029
 31
0.0
  0
LINE
  8
0
  6
CONTINUOUS
 62
       3
  5
487
 10
107.8856719
 20
-93.54239029
 30
0.0
 11
110.8856719
 21
-94.24239029
 31
0.0
  0
LINE
  8
0
  6
CONTINUOUS
 62
       3
  5
488
 10
122.55888713
 20
-98.64239029
 30
0.0
 11
119.85554222
 21
-98.64239029
 31
0.0
  0
LINE
  8
0
  6
CONTINUOUS
 62
       3
  5
489
 10
122.55888713
 20
-95.64239029
 30
0.0
 11
119.85554222
 21
-95.64239029
 31
0.0
  0
LINE
  8
0
  6
CONTINUOUS
 62
       3
  5
48A
 10
118.0273943
 20
-100.92973695
 30
0.0
 11
122.95709796
 21
-100.04239029
 31
0.0
  0
LINE
  8
0
  6
CONTINUOUS
 62
       3
  5
48B
 10
117.8856719
 20
-100.14239029
 30
0.0
 11
122.61677803
 21
-99.29079119
 31
0.0
  0
LINE
  8
0
  6
CONTINUOUS
 62
       3
  5
48C
 10
117.8856719
 20
-94.14239029
 30
0.0
 11
122.61677803
 21
-94.99398939
 31
0.0
  0
LINE
  8
0
  6
CONTINUOUS
 62
       3
  5
48D
 10
118.0273943
 20
-93.35504363
 30
0.0
 11
122.95709796
 21
-94.24239029
 31
0.0
  0
LINE
  8
0
  6
CONTINUOUS
 62
       3
  5
48E
 10
117.8856719
 20
-100.14239029
 30
0.0
 11
118.0273943
 21
-100.92973695
 31
0.0
  0
ARC
  8
0
  6
CONTINUOUS
 62
       3
  5
48F
 10
119.85554222
 20
-103.64239029
 30
0.0
 40
5.0
 50
90.0
 51
133.94551956
  0
ARC
  8
0
  6
CONTINUOUS
 62
       3
  5
490
 10
116.3856719
 20
-97.14239029
 30
0.0
 40
0.5
 50
90.0
 51
270.0
  0
ARC
  8
0
  6
CONTINUOUS
 62
       3
  5
491
 10
119.85554222
 20
-90.64239029
 30
0.0
 40
5.0
 50
226.05448044
 51
270.0
  0
LINE
  8
0
  6
CONTINUOUS
 62
       3
  5
492
 10
117.8856719
 20
-94.14239029
 30
0.0
 11
118.0273943
 21
-93.35504363
 31
0.0
  0
LINE
  8
0
  6
CONTINUOUS
 62
       3
  5
493
 10
124.8856719
 20
-98.64239029
 30
0.0
 11
123.3856719
 21
-98.64239029
 31
0.0
  0
ARC
  8
0
  6
CONTINUOUS
 62
       3
  5
494
 10
122.55888713
 20
-98.96917506
 30
0.0
 40
0.32678477
 50
280.20397372
 51
450.0
  0
LINE
  8
0
  6
CONTINUOUS
 62
       3
  5
495
 10
122.95709796
 20
-100.04239029
 30
0.0
 11
123.3856719
 21
-100.04239029
 31
0.0
  0
LINE
  8
0
  6
CONTINUOUS
 62
       3
  5
496
 10
123.3856719
 20
-98.64239029
 30
0.0
 11
123.3856719
 21
-100.04239029
 31
0.0
  0
LINE
  8
0
  6
CONTINUOUS
 62
       3
  5
497
 10
127.8856719
 20
-98.64239029
 30
0.0
 11
127.8856719
 21
-100.04239029
 31
0.0
  0
LINE
  8
0
  6
CONTINUOUS
 62
       3
  5
498
 10
124.8856719
 20
-98.64239029
 30
0.0
 11
124.8856719
 21
-100.04239029
 31
0.0
  0
LINE
  8
0
  6
CONTINUOUS
 62
       3
  5
499
 10
124.8856719
 20
-100.04239029
 30
0.0
 11
127.8856719
 21
-100.04239029
 31
0.0
  0
LINE
  8
0
  6
CONTINUOUS
 62
       3
  5
49A
 10
124.8856719
 20
-95.64239029
 30
0.0
 11
123.3856719
 21
-95.64239029
 31
0.0
  0
LINE
  8
0
  6
CONTINUOUS
 62
       3
  5
49B
 10
123.3856719
 20
-95.64239029
 30
0.0
 11
123.3856719
 21
-94.24239029
 31
0.0
  0
ARC
  8
0
  6
CONTINUOUS
 62
       3
  5
49C
 10
122.55888713
 20
-95.31560552
 30
0.0
 40
0.32678477
 50
270.0
 51
439.79602628
  0
LINE
  8
0
  6
CONTINUOUS
 62
       3
  5
49D
 10
122.95709796
 20
-94.24239029
 30
0.0
 11
123.3856719
 21
-94.24239029
 31
0.0
  0
LINE
  8
0
  6
CONTINUOUS
 62
       3
  5
49E
 10
127.8856719
 20
-95.64239029
 30
0.0
 11
127.8856719
 21
-94.24239029
 31
0.0
  0
LINE
  8
0
  6
CONTINUOUS
 62
       3
  5
49F
 10
124.8856719
 20
-95.64239029
 30
0.0
 11
124.8856719
 21
-94.24239029
 31
0.0
  0
LINE
  8
0
  6
CONTINUOUS
 62
       3
  5
4A0
 10
124.8856719
 20
-94.24239029
 30
0.0
 11
127.8856719
 21
-94.24239029
 31
0.0
  0
LINE
  8
0
  6
CONTINUOUS
 62
       3
  5
4A1
 10
136.8856719
 20
-99.14239029
 30
0.0
 11
133.8856719
 21
-100.04239029
 31
0.0
  0
LINE
  8
0
  6
CONTINUOUS
 62
       3
  5
4A2
 10
136.8856719
 20
-95.14239029
 30
0.0
 11
133.8856719
 21
-94.24239029
 31
0.0
  0
LINE
  8
0
  6
CONTINUOUS
 62
       3
  5
4A3
 10
129.3856719
 20
-100.04239029
 30
0.0
 11
132.3856719
 21
-100.04239029
 31
0.0
  0
LINE
  8
0
  6
CONTINUOUS
 62
       3
  5
4A4
 10
129.3856719
 20
-98.64239029
 30
0.0
 11
129.3856719
 21
-100.04239029
 31
0.0
  0
LINE
  8
0
  6
CONTINUOUS
 62
       3
  5
4A5
 10
133.8856719
 20
-98.64239029
 30
0.0
 11
132.3856719
 21
-98.64239029
 31
0.0
  0
LINE
  8
0
  6
CONTINUOUS
 62
       3
  5
4A6
 10
133.8856719
 20
-98.64239029
 30
0.0
 11
133.8856719
 21
-100.04239029
 31
0.0
  0
LINE
  8
0
  6
CONTINUOUS
 62
       3
  5
4A7
 10
132.3856719
 20
-98.64239029
 30
0.0
 11
132.3856719
 21
-100.04239029
 31
0.0
  0
LINE
  8
0
  6
CONTINUOUS
 62
       3
  5
4A8
 10
129.3856719
 20
-94.24239029
 30
0.0
 11
132.3856719
 21
-94.24239029
 31
0.0
  0
LINE
  8
0
  6
CONTINUOUS
 62
       3
  5
4A9
 10
129.3856719
 20
-95.64239029
 30
0.0
 11
129.3856719
 21
-94.24239029
 31
0.0
  0
LINE
  8
0
  6
CONTINUOUS
 62
       3
  5
4AA
 10
135.3856719
 20
-96.64239029
 30
0.0
 11
135.3856719
 21
-97.64239029
 31
0.0
  0
LINE
  8
0
  6
CONTINUOUS
 62
       3
  5
4AB
 10
133.8856719
 20
-95.64239029
 30
0.0
 11
132.3856719
 21
-95.64239029
 31
0.0
  0
LINE
  8
0
  6
CONTINUOUS
 62
       3
  5
4AC
 10
133.8856719
 20
-95.64239029
 30
0.0
 11
133.8856719
 21
-94.24239029
 31
0.0
  0
LINE
  8
0
  6
CONTINUOUS
 62
       3
  5
4AD
 10
132.3856719
 20
-95.64239029
 30
0.0
 11
132.3856719
 21
-94.24239029
 31
0.0
  0
LINE
  8
0
  6
CONTINUOUS
 62
       3
  5
4AE
 10
136.8856719
 20
-99.14239029
 30
0.0
 11
136.8856719
 21
-95.14239029
 31
0.0
  0
POINT
  8
0
  6
CONTINUOUS
 62
       3
  5
4AF
 10
78.6856719
 20
-97.14239029
 30
0.0
  0
POINT
  8
0
  6
CONTINUOUS
 62
       3
  5
4B0
 10
80.1856719
 20
-97.14239029
 30
0.0
  0
POINT
  8
0
  6
CONTINUOUS
 62
       3
  5
4B1
 10
84.3856719
 20
-97.14239029
 30
0.0
  0
POINT
  8
0
  6
CONTINUOUS
 62
       3
  5
4B2
 10
85.8856719
 20
-97.14239029
 30
0.0
  0
POINT
  8
0
  6
CONTINUOUS
 62
       3
  5
4B3
 10
116.3856719
 20
-100.04239029
 30
0.0
  0
POINT
  8
0
  6
CONTINUOUS
 62
       3
  5
4B4
 10
116.3856719
 20
-94.24239029
 30
0.0
  0
LINE
  8
0
  6
CONTINUOUS
 62
       3
  5
4B5
 10
-89.8438443
 20
-89.96527642
 30
0.0
 11
-89.8438443
 21
-98.96527642
 31
0.0
  0
LINE
  8
0
  6
CONTINUOUS
 62
       3
  5
4B6
 10
-43.8438443
 20
-89.96527642
 30
0.0
 11
-43.8438443
 21
-98.96527642
 31
0.0
  0
LINE
  8
0
  6
CONTINUOUS
 62
       3
  5
4B7
 10
-72.32131509
 20
-79.46527642
 30
0.0
 11
-61.36637351
 21
-79.46527642
 31
0.0
  0
LINE
  8
0
  6
CONTINUOUS
 62
       3
  5
4B8
 10
-59.20940838
 20
-80.38021013
 30
0.0
 11
-53.72828022
 21
-86.05034271
 31
0.0
  0
LINE
  8
0
  6
CONTINUOUS
 62
       3
  5
4B9
 10
-74.47828022
 20
-80.38021013
 30
0.0
 11
-79.95940838
 21
-86.05034271
 31
0.0
  0
LINE
  8
0
  6
CONTINUOUS
 62
       3
  5
4BA
 10
-72.32131509
 20
-109.46527642
 30
0.0
 11
-61.36637351
 21
-109.46527642
 31
0.0
  0
LINE
  8
0
  6
CONTINUOUS
 62
       3
  5
4BB
 10
-59.20940838
 20
-108.55034271
 30
0.0
 11
-53.72828022
 21
-102.88021013
 31
0.0
  0
LINE
  8
0
  6
CONTINUOUS
 62
       3
  5
4BC
 10
-74.47828022
 20
-108.55034271
 30
0.0
 11
-79.95940838
 21
-102.88021013
 31
0.0
  0
LINE
  8
0
  6
CONTINUOUS
 62
       3
  5
4BD
 10
-86.8438443
 20
-86.96527642
 30
0.0
 11
-82.11637351
 21
-86.96527642
 31
0.0
  0
LINE
  8
0
  6
CONTINUOUS
 62
       3
  5
4BE
 10
-51.57131509
 20
-86.96527642
 30
0.0
 11
-46.8438443
 21
-86.96527642
 31
0.0
  0
LINE
  8
0
  6
CONTINUOUS
 62
       3
  5
4BF
 10
-86.8438443
 20
-101.96527642
 30
0.0
 11
-82.11637351
 21
-101.96527642
 31
0.0
  0
LINE
  8
0
  6
CONTINUOUS
 62
       3
  5
4C0
 10
-51.57131509
 20
-101.96527642
 30
0.0
 11
-46.8438443
 21
-101.96527642
 31
0.0
  0
CIRCLE
  8
0
  6
CONTINUOUS
 62
       3
  5
4C1
 10
-66.8438443
 20
-94.46527642
 30
0.0
 40
2.4
  0
LINE
  8
0
  6
CONTINUOUS
 62
       3
  5
4C2
 10
-58.94292957
 20
-92.06527642
 30
0.0
 11
-50.74475904
 21
-92.06527642
 31
0.0
  0
LINE
  8
0
  6
CONTINUOUS
 62
       3
  5
4C3
 10
-58.94292957
 20
-96.86527642
 30
0.0
 11
-50.74475904
 21
-96.86527642
 31
0.0
  0
ARC
  8
0
  6
CONTINUOUS
 62
       3
  5
4C4
 10
-54.8438443
 20
-94.46527642
 30
0.0
 40
4.75
 50
149.65117963
 51
210.34882037
  0
ARC
  8
0
  6
CONTINUOUS
 62
       3
  5
4C5
 10
-54.8438443
 20
-94.46527642
 30
0.0
 40
4.75
 50
329.65117655
 51
390.34882345
  0
LINE
  8
0
  6
CONTINUOUS
 62
       3
  5
4C6
 10
-74.74475904
 20
-96.86527642
 30
0.0
 11
-82.94292957
 21
-96.86527642
 31
0.0
  0
ARC
  8
0
  6
CONTINUOUS
 62
       3
  5
4C7
 10
-78.8438443
 20
-94.46527642
 30
0.0
 40
4.75
 50
149.65117963
 51
210.34882037
  0
LINE
  8
0
  6
CONTINUOUS
 62
       3
  5
4C8
 10
-74.74475904
 20
-92.06527642
 30
0.0
 11
-82.94292957
 21
-92.06527642
 31
0.0
  0
ARC
  8
0
  6
CONTINUOUS
 62
       3
  5
4C9
 10
-78.8438443
 20
-94.46527642
 30
0.0
 40
4.75
 50
329.65117655
 51
390.34882345
  0
ARC
  8
0
  6
CONTINUOUS
 62
       3
  5
4CA
 10
-72.32131509
 20
-82.46527642
 30
0.0
 40
3.0
 50
90.00000154
 51
135.97102425
  0
ARC
  8
0
  6
CONTINUOUS
 62
       3
  5
4CB
 10
-82.11637351
 20
-83.96527642
 30
0.0
 40
3.0
 50
269.99999846
 51
315.97102118
  0
ARC
  8
0
  6
CONTINUOUS
 62
       3
  5
4CC
 10
-86.8438443
 20
-89.96527642
 30
0.0
 40
3.0
 50
90.00000154
 51
180.00000307
  0
ARC
  8
0
  6
CONTINUOUS
 62
       3
  5
4CD
 10
-86.8438443
 20
-98.96527642
 30
0.0
 40
3.0
 50
180.00000307
 51
269.99999846
  0
ARC
  8
0
  6
CONTINUOUS
 62
       3
  5
4CE
 10
-82.11637351
 20
-104.96527642
 30
0.0
 40
3.0
 50
44.02897882
 51
90.00000154
  0
ARC
  8
0
  6
CONTINUOUS
 62
       3
  5
4CF
 10
-72.32131509
 20
-106.46527642
 30
0.0
 40
3.0
 50
224.02897575
 51
269.99999846
  0
ARC
  8
0
  6
CONTINUOUS
 62
       3
  5
4D0
 10
-61.36637351
 20
-106.46527642
 30
0.0
 40
3.0
 50
269.99999846
 51
315.97102118
  0
ARC
  8
0
  6
CONTINUOUS
 62
       3
  5
4D1
 10
-51.57131509
 20
-104.96527642
 30
0.0
 40
3.0
 50
90.00000154
 51
135.97102425
  0
ARC
  8
0
  6
CONTINUOUS
 62
       3
  5
4D2
 10
-46.8438443
 20
-98.96527642
 30
0.0
 40
3.0
 50
269.99999846
 51
360.0
  0
ARC
  8
0
  6
CONTINUOUS
 62
       3
  5
4D3
 10
-46.8438443
 20
-89.96527642
 30
0.0
 40
3.0
 50
360.0
 51
450.00000154
  0
ARC
  8
0
  6
CONTINUOUS
 62
       3
  5
4D4
 10
-51.57131509
 20
-83.96527642
 30
0.0
 40
3.0
 50
224.02897575
 51
269.99999846
  0
ARC
  8
0
  6
CONTINUOUS
 62
       3
  5
4D5
 10
-61.36637351
 20
-82.46527642
 30
0.0
 40
3.0
 50
44.02897882
 51
90.00000154
  0
LINE
  8
0
  6
CONTINUOUS
 62
       3
  5
4D6
 10
-79.09662233
 20
-86.88436923
 30
0.0
 11
-73.61549417
 21
-81.21423665
 31
0.0
  0
ARC
  8
0
  6
CONTINUOUS
 62
       3
  5
4D7
 10
-72.32131509
 20
-82.46527642
 30
0.0
 40
1.8
 50
90.00000154
 51
135.97102425
  0
LINE
  8
0
  6
CONTINUOUS
 62
       3
  5
4D8
 10
-72.32131509
 20
-80.66527642
 30
0.0
 11
-61.36637351
 21
-80.66527642
 31
0.0
  0
ARC
  8
0
  6
CONTINUOUS
 62
       3
  5
4D9
 10
-61.36637351
 20
-82.46527642
 30
0.0
 40
1.8
 50
44.02897882
 51
90.00000154
  0
LINE
  8
0
  6
CONTINUOUS
 62
       3
  5
4DA
 10
-60.07219444
 20
-81.21423665
 30
0.0
 11
-54.59106627
 21
-86.88436923
 31
0.0
  0
ARC
  8
0
  6
CONTINUOUS
 62
       3
  5
4DB
 10
-51.57131509
 20
-83.96527642
 30
0.0
 40
4.2
 50
224.02897575
 51
269.99999846
  0
LINE
  8
0
  6
CONTINUOUS
 62
       3
  5
4DC
 10
-51.57131509
 20
-88.16527642
 30
0.0
 11
-46.8438443
 21
-88.16527642
 31
0.0
  0
ARC
  8
0
  6
CONTINUOUS
 62
       3
  5
4DD
 10
-46.8438443
 20
-89.96527642
 30
0.0
 40
1.8
 50
360.0
 51
450.00000154
  0
LINE
  8
0
  6
CONTINUOUS
 62
       3
  5
4DE
 10
-45.0438443
 20
-89.96527642
 30
0.0
 11
-45.0438443
 21
-98.96527642
 31
0.0
  0
ARC
  8
0
  6
CONTINUOUS
 62
       3
  5
4DF
 10
-46.8438443
 20
-98.96527642
 30
0.0
 40
1.8
 50
269.99999846
 51
360.0
  0
LINE
  8
0
  6
CONTINUOUS
 62
       3
  5
4E0
 10
-46.8438443
 20
-100.76527642
 30
0.0
 11
-51.57131509
 21
-100.76527642
 31
0.0
  0
ARC
  8
0
  6
CONTINUOUS
 62
       3
  5
4E1
 10
-51.57131509
 20
-104.96527642
 30
0.0
 40
4.2
 50
90.00000154
 51
135.97102425
  0
LINE
  8
0
  6
CONTINUOUS
 62
       3
  5
4E2
 10
-54.59106627
 20
-102.04618362
 30
0.0
 11
-60.07219444
 21
-107.7163162
 31
0.0
  0
ARC
  8
0
  6
CONTINUOUS
 62
       3
  5
4E3
 10
-61.36637351
 20
-106.46527642
 30
0.0
 40
1.8
 50
269.99999846
 51
315.97102118
  0
LINE
  8
0
  6
CONTINUOUS
 62
       3
  5
4E4
 10
-61.36637351
 20
-108.26527642
 30
0.0
 11
-72.32131509
 21
-108.26527642
 31
0.0
  0
ARC
  8
0
  6
CONTINUOUS
 62
       3
  5
4E5
 10
-72.32131509
 20
-106.46527642
 30
0.0
 40
1.8
 50
224.02897575
 51
269.99999846
  0
LINE
  8
0
  6
CONTINUOUS
 62
       3
  5
4E6
 10
-73.61549417
 20
-107.7163162
 30
0.0
 11
-79.09662233
 21
-102.04618362
 31
0.0
  0
ARC
  8
0
  6
CONTINUOUS
 62
       3
  5
4E7
 10
-82.11637351
 20
-104.96527642
 30
0.0
 40
4.2
 50
44.02897882
 51
90.00000154
  0
LINE
  8
0
  6
CONTINUOUS
 62
       3
  5
4E8
 10
-82.11637351
 20
-100.76527642
 30
0.0
 11
-86.8438443
 21
-100.76527642
 31
0.0
  0
ARC
  8
0
  6
CONTINUOUS
 62
       3
  5
4E9
 10
-86.8438443
 20
-98.96527642
 30
0.0
 40
1.8
 50
180.00000307
 51
269.99999846
  0
LINE
  8
0
  6
CONTINUOUS
 62
       3
  5
4EA
 10
-88.6438443
 20
-98.96527642
 30
0.0
 11
-88.6438443
 21
-89.96527642
 31
0.0
  0
ARC
  8
0
  6
CONTINUOUS
 62
       3
  5
4EB
 10
-86.8438443
 20
-89.96527642
 30
0.0
 40
1.8
 50
90.00000154
 51
180.00000307
  0
LINE
  8
0
  6
CONTINUOUS
 62
       3
  5
4EC
 10
-86.8438443
 20
-88.16527642
 30
0.0
 11
-82.11637351
 21
-88.16527642
 31
0.0
  0
ARC
  8
0
  6
CONTINUOUS
 62
       3
  5
4ED
 10
-82.11637351
 20
-83.96527642
 30
0.0
 40
4.2
 50
269.99999846
 51
315.97102118
  0
LINE
  8
0
  6
CONTINUOUS
 62
       3
  5
4EE
 10
-21.59186659
 20
-79.46527642
 30
0.0
 11
-21.59186659
 21
-109.46527642
 31
0.0
  0
LINE
  8
0
  6
CONTINUOUS
 62
       3
  5
4EF
 10
-15.59186659
 20
-82.76527642
 30
0.0
 11
-15.59186659
 21
-106.16527642
 31
0.0
  0
LINE
  8
0
  6
CONTINUOUS
 62
       3
  5
4F0
 10
-21.59186659
 20
-79.46527642
 30
0.0
 11
-16.33032813
 21
-81.65758412
 31
0.0
  0
LINE
  8
0
  6
CONTINUOUS
 62
       3
  5
4F1
 10
-16.33032813
 20
-107.27296873
 30
0.0
 11
-21.59186659
 21
-109.46527642
 31
0.0
  0
LINE
  8
0
  6
CONTINUOUS
 62
       3
  5
4F2
 10
-16.33032813
 20
-89.15758412
 30
0.0
 11
-21.59186659
 21
-86.96527642
 31
0.0
  0
LINE
  8
0
  6
CONTINUOUS
 62
       3
  5
4F3
 10
-21.59186659
 20
-101.96527642
 30
0.0
 11
-16.33032813
 21
-99.77296873
 31
0.0
  0
ARC
  8
0
  6
CONTINUOUS
 62
       3
  5
4F4
 10
-16.79186659
 20
-82.76527642
 30
0.0
 40
1.2
 50
360.0
 51
427.3801362
  0
ARC
  8
0
  6
CONTINUOUS
 62
       3
  5
4F5
 10
-16.79186659
 20
-106.16527642
 30
0.0
 40
1.2
 50
292.6198638
 51
360.0
  0
ARC
  8
0
  6
CONTINUOUS
 62
       3
  5
4F6
 10
-16.79186659
 20
-98.66527642
 30
0.0
 40
1.2
 50
292.6198638
 51
360.0
  0
ARC
  8
0
  6
CONTINUOUS
 62
       3
  5
4F7
 10
-16.79186659
 20
-90.26527642
 30
0.0
 40
1.2
 50
360.0
 51
427.3801362
  0
LINE
  8
0
  6
CONTINUOUS
 62
       3
  5
4F8
 10
-60.8438443
 20
-85.71527642
 30
0.0
 11
-60.8438443
 21
-103.21527642
 31
0.0
  0
LINE
  8
0
  6
CONTINUOUS
 62
       3
  5
4F9
 10
-72.8438443
 20
-85.71527642
 30
0.0
 11
-72.8438443
 21
-103.21527642
 31
0.0
  0
ARC
  8
0
  6
CONTINUOUS
 62
       3
  5
4FA
 10
-70.8438443
 20
-85.71527642
 30
0.0
 40
2.0
 50
360.0
 51
540.00000307
  0
ARC
  8
0
  6
CONTINUOUS
 62
       3
  5
4FB
 10
-62.8438443
 20
-85.71527642
 30
0.0
 40
2.0
 50
360.0
 51
540.00000307
  0
ARC
  8
0
  6
CONTINUOUS
 62
       3
  5
4FC
 10
-62.8438443
 20
-103.21527642
 30
0.0
 40
2.0
 50
180.00000307
 51
360.0
  0
ARC
  8
0
  6
CONTINUOUS
 62
       3
  5
4FD
 10
-70.8438443
 20
-103.21527642
 30
0.0
 40
2.0
 50
180.00000307
 51
360.0
  0
LINE
  8
0
  6
CONTINUOUS
 62
       3
  5
4FE
 10
-64.8438443
 20
-85.71527642
 30
0.0
 11
-64.8438443
 21
-93.13862651
 31
0.0
  0
LINE
  8
0
  6
CONTINUOUS
 62
       3
  5
4FF
 10
-64.8438443
 20
-95.79192634
 30
0.0
 11
-64.8438443
 21
-103.21527642
 31
0.0
  0
LINE
  8
0
  6
CONTINUOUS
 62
       3
  5
500
 10
-68.8438443
 20
-85.71527642
 30
0.0
 11
-68.8438443
 21
-93.13862651
 31
0.0
  0
LINE
  8
0
  6
CONTINUOUS
 62
       3
  5
501
 10
-68.8438443
 20
-95.79192634
 30
0.0
 11
-68.8438443
 21
-103.21527642
 31
0.0
  0
LINE
  8
0
  6
CENTERX2
 62
       3
  5
502
 10
-26.92793729
 20
-94.46527642
 30
0.0
 11
-13.42032942
 21
-94.46527642
 31
0.0
  0
TEXT
  8
LAYER0240
 62
       4
  5
503
 10
97.6129621
 20
271.60837579
 30
0.0
 40
12.0
  1
L16754
 41
0.8
 72
       5
 11
155.2129621
 21
271.60837579
 31
0.0
  0
TEXT
  8
LAYER0240
 62
       4
  5
504
 10
-96.21756116
 20
271.60837579
 30
0.0
 40
12.0
  1
LCM16700シリーズ フック
 41
0.6
 72
       5
 11
38.18243884
 21
271.60837579
 31
0.0
  0
TEXT
  8
LAYER0240
 62
       4
  5
505
 10
96.3629621
 20
-275.29798708
 30
0.0
 40
12.0
  1
L16754
 41
0.8
 72
       5
 11
153.9629621
 21
-275.29798708
 31
0.0
  0
TEXT
  8
LAYER0240
 62
       4
  5
506
 10
-165.4620379
 20
-242.86048708
 30
0.0
 40
8.0
  1
本体
 41
0.4667
 72
       5
 11
-155.8620379
 21
-242.86048708
 31
0.0
  0
TEXT
  8
LAYER0240
 62
       4
  5
507
 10
-165.4620379
 20
-232.86048708
 30
0.0
 40
8.0
  1
取付座
 41
0.55
 72
       5
 11
-151.0620379
 21
-232.86048708
 31
0.0
  0
TEXT
  8
LAYER0240
 62
       4
  5
508
 10
-165.4620379
 20
-222.86048708
 30
0.0
 40
8.0
  1
ブラケット固定ねじ M5x8
 41
0.5368
 72
       5
 11
-98.2620379
 21
-222.86048708
 31
0.0
  0
TEXT
  8
LAYER0240
 62
       4
  5
509
 10
-165.4620379
 20
-212.86048708
 30
0.0
 40
8.0
  1
取付ねじ 4x30
 41
0.6
 72
       5
 11
-122.2620379
 21
-212.86048708
 31
0.0
  0
TEXT
  8
LAYER0240
 62
       4
  5
50A
 10
-165.4620379
 20
-202.86048708
 30
0.0
 40
8.0
  1
樹脂プラグ
 41
0.5143
 72
       5
 11
-141.4620379
 21
-202.86048708
 31
0.0
  0
TEXT
  8
LAYER0240
 62
       4
  5
50B
 10
-63.3625
 20
-276.17858659
 30
0.0
 40
12.0
  1
LCM16700シリーズ フック
 41
0.55
 72
       5
 11
42.2375
 21
-276.17858659
 31
0.0
  0
TEXT
  8
LAYER0240
 62
       4
  5
50C
 10
55.375
 20
-233.74108659
 30
0.0
 40
8.0
  1
亜鉛めっき
 41
0.5143
 72
       5
 11
79.375
 21
-233.74108659
 31
0.0
  0
TEXT
  8
LAYER0240
 62
       4
  5
50D
 10
-73.125
 20
-233.74108659
 30
0.0
 40
8.0
  1
スチール
 41
0.4667
 72
       5
 11
-53.925
 21
-233.74108659
 31
0.0
  0
TEXT
  8
LAYER0240
 62
       4
  5
50E
 10
-73.125
 20
-213.74108659
 30
0.0
 40
8.0
  1
スチール
 41
0.4667
 72
       5
 11
-53.925
 21
-213.74108659
 31
0.0
  0
TEXT
  8
LAYER0240
 62
       4
  5
50F
 10
-73.125
 20
-203.74108659
 30
0.0
 40
8.0
  1
PP
 41
0.6
 72
       5
 11
-63.525
 21
-203.74108659
 31
0.0
  0
TEXT
  8
LAYER0240
 62
       4
  5
510
 10
62.08139655
 20
-213.74108659
 30
0.0
 40
8.0
  1
ナべタッピンねじ・亜鉛めっき
 41
0.4667
 72
       5
 11
129.28139655
 21
-213.74108659
 31
0.0
  0
TEXT
  8
LAYER0240
 62
       4
  5
511
 10
39.85
 20
-233.74108659
 30
0.0
 40
8.0
  1
1
 41
0.6
 72
       5
 11
44.65
 21
-233.74108659
 31
0.0
  0
TEXT
  8
LAYER0240
 62
       4
  5
512
 10
39.85
 20
-223.74108659
 30
0.0
 40
8.0
  1
1
 41
0.6
 72
       5
 11
44.65
 21
-223.74108659
 31
0.0
  0
TEXT
  8
LAYER0240
 62
       4
  5
513
 10
39.85
 20
-213.74108659
 30
0.0
 40
8.0
  1
2
 41
0.6
 72
       5
 11
44.65
 21
-213.74108659
 31
0.0
  0
TEXT
  8
LAYER0240
 62
       4
  5
514
 10
39.85
 20
-203.74108659
 30
0.0
 40
8.0
  1
2
 41
0.6
 72
       5
 11
44.65
 21
-203.74108659
 31
0.0
  0
TEXT
  8
LAYER0240
 62
       4
  5
515
 10
55.375
 20
-243.74108659
 30
0.0
 40
8.0
  1
クロムめっき
 41
0.4667
 72
       5
 11
84.175
 21
-243.74108659
 31
0.0
  0
TEXT
  8
LAYER0240
 62
       4
  5
516
 10
-73.125
 20
-243.74108659
 30
0.0
 40
8.0
  1
亜鉛ダイキャスト
 41
0.4667
 72
       5
 11
-34.725
 21
-243.74108659
 31
0.0
  0
TEXT
  8
LAYER0240
 62
       4
  5
517
 10
39.85
 20
-243.74108659
 30
0.0
 40
8.0
  1
1
 41
0.6
 72
       5
 11
44.65
 21
-243.74108659
 31
0.0
  0
TEXT
  8
LAYER0240
 62
       4
  5
518
 10
-166.25
 20
-193.74108659
 30
0.0
 40
8.0
  1
専用工具
 41
0.4667
 72
       5
 11
-147.05
 21
-193.74108659
 31
0.0
  0
TEXT
  8
LAYER0240
 62
       4
  5
519
 10
39.85
 20
-193.74108659
 30
0.0
 40
8.0
  1
1
 41
0.6
 72
       5
 11
44.65
 21
-193.74108659
 31
0.0
  0
TEXT
  8
LAYER0240
 62
       4
  5
51A
 10
55.375
 20
-223.74108659
 30
0.0
 40
8.0
  1
六角穴付き止ねじ(くぼみ先)
 41
0.5
 72
       5
 11
122.575
 21
-223.74108659
 31
0.0
  0
TEXT
  8
LAYER0240
 62
       4
  5
51B
 10
-73.125
 20
-223.74108659
 30
0.0
 40
8.0
  1
ステンレス
 41
0.5143
 72
       5
 11
-49.125
 21
-223.74108659
 31
0.0
  0
TEXT
  8
LAYER0241
 62
       4
  5
51C
 10
1.34124369
 20
-171.2946855
 30
0.0
 40
8.0
  1
※本製品は輸入品の為、本図と若干寸法が異なる場合があります。
 41
0.6667
 72
       5
 11
193.34124369
 21
-171.2946855
 31
0.0
  0
INSERT
  8
0
  6
CONTINUOUS
  5
51D
  2
DA_IMAGEDIMGROUP_1
 10
0.0
 20
0.0
 30
0.0
  0
INSERT
  8
0
  6
CONTINUOUS
  5
51E
  2
DA_IMAGEDIMGROUP_2
 10
0.0
 20
0.0
 30
0.0
  0
INSERT
  8
0
  6
CONTINUOUS
  5
51F
  2
DA_IMAGEDIMGROUP_3
 10
0.0
 20
0.0
 30
0.0
  0
INSERT
  8
0
  6
CONTINUOUS
  5
520
  2
GROUP_1
 10
0.0
 20
0.0
 30
0.0
  0
INSERT
  8
0
  6
CONTINUOUS
  5
521
  2
DA_IMAGEDIMGROUP_4
 10
0.0
 20
0.0
 30
0.0
  0
INSERT
  8
0
  6
CONTINUOUS
  5
522
  2
DA_IMAGEDIMGROUP_5
 10
0.0
 20
0.0
 30
0.0
  0
INSERT
  8
0
  6
CONTINUOUS
  5
523
  2
GROUP_2
 10
0.0
 20
0.0
 30
0.0
  0
INSERT
  8
0
  6
CONTINUOUS
  5
524
  2
GROUP_3
 10
0.0
 20
0.0
 30
0.0
  0
INSERT
  8
0
  6
CONTINUOUS
  5
525
  2
GROUP_4
 10
0.0
 20
0.0
 30
0.0
  0
INSERT
  8
0
  6
CONTINUOUS
  5
526
  2
DA_IMAGEDIMGROUP_6
 10
0.0
 20
0.0
 30
0.0
  0
INSERT
  8
0
  6
CONTINUOUS
  5
527
  2
GROUP_5
 10
0.0
 20
0.0
 30
0.0
  0
INSERT
  8
0
  6
CONTINUOUS
  5
528
  2
GROUP_6
 10
0.0
 20
0.0
 30
0.0
  0
LINE
  8
0
  6
CENTER
 62
       9
  5
529
 10
35.38647178
 20
62.20707858
 30
0.0
 11
68.12096433
 21
62.20707858
 31
0.0
  0
LINE
  8
0
  6
CENTER
 62
       9
  5
52A
 10
-51.06810575
 20
62.08322041
 30
0.0
 11
-60.33630545
 21
62.08322041
 31
0.0
  0
LINE
  8
0
  6
CENTER
 62
       9
  5
52B
 10
63.42986078
 20
161.3061483
 30
0.0
 11
63.42986078
 21
175.93399265
 31
0.0
  0
LINE
  8
0
  6
CENTER
 62
       9
  5
52C
 10
39.42986078
 20
161.3061483
 30
0.0
 11
39.42986078
 21
175.93399265
 31
0.0
  0
LINE
  8
0
  6
CENTER
 62
       9
  5
52D
 10
63.42986078
 20
66.82466186
 30
0.0
 11
63.42986078
 21
56.03362914
 31
0.0
  0
LINE
  8
0
  6
CENTER
 62
       9
  5
52E
 10
39.42986078
 20
66.82466186
 30
0.0
 11
39.42986078
 21
56.03362914
 31
0.0
  0
LINE
  8
0
  6
CENTERX2
 62
       9
  5
52F
 10
-66.8438443
 20
-76.85590136
 30
0.0
 11
-66.8438443
 21
-111.19561127
 31
0.0
  0
LINE
  8
0
  6
CENTERX2
 62
       9
  5
530
 10
-78.8438443
 20
-89.85362879
 30
0.0
 11
-78.8438443
 21
-99.14500067
 31
0.0
  0
LINE
  8
0
  6
CENTERX2
 62
       9
  5
531
 10
-54.8438443
 20
-89.96830213
 30
0.0
 11
-54.8438443
 21
-98.32954582
 31
0.0
  0
LINE
  8
0
  6
CENTERX2
 62
       9
  5
532
 10
-91.54260319
 20
-94.46527642
 30
0.0
 11
-43.8438443
 21
-94.46527642
 31
0.0
  0
POINT
  8
1
  6
CONTINUOUS
 62
       4
  5
533
 10
85.8856719
 20
-97.14239029
 30
0.0
  0
POINT
  8
1
  6
CONTINUOUS
 62
       4
  5
534
 10
78.6856719
 20
-97.14239029
 30
0.0
  0
POINT
  8
1
  6
CONTINUOUS
 62
       4
  5
535
 10
84.3856719
 20
-97.14239029
 30
0.0
  0
POINT
  8
1
  6
CONTINUOUS
 62
       4
  5
536
 10
80.1856719
 20
-97.14239029
 30
0.0
  0
POINT
  8
1
  6
CONTINUOUS
 62
       4
  5
537
 10
136.8856719
 20
-95.14239029
 30
0.0
  0
POINT
  8
1
  6
CONTINUOUS
 62
       4
  5
538
 10
107.8856719
 20
-93.54239029
 30
0.0
  0
POINT
  8
1
  6
CONTINUOUS
 62
       4
  5
539
 10
114.6356719
 20
-94.24239029
 30
0.0
  0
POINT
  8
1
  6
CONTINUOUS
 62
       4
  5
53A
 10
114.6356719
 20
-100.04239029
 30
0.0
  0
POINT
  8
1
  6
CONTINUOUS
 62
       4
  5
53B
 10
114.6356719
 20
-100.04239029
 30
0.0
  0
LINE
  8
1
  6
CONTINUOUS
 62
       9
  5
53C
 10
-78.8438443
 20
-66.48669399
 30
0.0
 11
-54.8438443
 21
-66.48669399
 31
0.0
  0
LINE
  8
1
  6
CONTINUOUS
 62
       9
  5
53D
 10
-78.8438443
 20
-66.48669399
 30
0.0
 11
-73.9531063
 21
-67.52625245
 31
0.0
  0
LINE
  8
1
  6
CONTINUOUS
 62
       9
  5
53E
 10
-78.8438443
 20
-66.48669399
 30
0.0
 11
-73.9531063
 21
-65.44713554
 31
0.0
  0
LINE
  8
1
  6
CONTINUOUS
 62
       9
  5
53F
 10
-54.8438443
 20
-66.48669399
 30
0.0
 11
-59.73458231
 21
-65.44713554
 31
0.0
  0
LINE
  8
1
  6
CONTINUOUS
 62
       9
  5
540
 10
-54.8438443
 20
-66.48669399
 30
0.0
 11
-59.73458231
 21
-67.52625245
 31
0.0
  0
LINE
  8
1
  6
CONTINUOUS
 62
       9
  5
541
 10
-78.8438443
 20
-88.85362879
 30
0.0
 11
-78.8438443
 21
-64.48669399
 31
0.0
  0
LINE
  8
1
  6
CONTINUOUS
 62
       9
  5
542
 10
-54.8438443
 20
-88.96830213
 30
0.0
 11
-54.8438443
 21
-64.48669399
 31
0.0
  0
LINE
  8
1
  6
CONTINUOUS
 62
       9
  5
543
 10
-60.36637351
 20
-79.46527642
 30
0.0
 11
-30.17093321
 21
-79.46527642
 31
0.0
  0
LINE
  8
1
  6
CONTINUOUS
 62
       9
  5
544
 10
-60.36637351
 20
-109.46527642
 30
0.0
 11
-30.17093321
 21
-109.46527642
 31
0.0
  0
LINE
  8
1
  6
CONTINUOUS
 62
       9
  5
545
 10
-31.17093321
 20
-79.46527642
 30
0.0
 11
-31.17093321
 21
-109.46527642
 31
0.0
  0
LINE
  8
1
  6
CONTINUOUS
 62
       9
  5
546
 10
-31.17093321
 20
-79.46527642
 30
0.0
 11
-32.21049167
 21
-84.35601443
 31
0.0
  0
LINE
  8
1
  6
CONTINUOUS
 62
       9
  5
547
 10
-31.17093321
 20
-79.46527642
 30
0.0
 11
-30.13137476
 21
-84.35601443
 31
0.0
  0
LINE
  8
1
  6
CONTINUOUS
 62
       9
  5
548
 10
-31.17093321
 20
-109.46527642
 30
0.0
 11
-30.13137476
 21
-104.57453842
 31
0.0
  0
LINE
  8
1
  6
CONTINUOUS
 62
       9
  5
549
 10
-31.17093321
 20
-109.46527642
 30
0.0
 11
-32.21049167
 21
-104.57453842
 31
0.0
  0
LINE
  8
1
  6
CONTINUOUS
 62
       9
  5
54A
 10
-78.83212471
 20
-124.72436797
 30
0.0
 11
-67.72784416
 21
-96.69654159
 31
0.0
  0
LINE
  8
1
  6
CONTINUOUS
 62
       9
  5
54B
 10
-67.72784416
 20
-96.69654159
 30
0.0
 11
-70.49573676
 21
-100.86052653
 31
0.0
  0
LINE
  8
1
  6
CONTINUOUS
 62
       9
  5
54C
 10
-67.72784416
 20
-96.69654159
 30
0.0
 11
-68.56279462
 21
-101.62633446
 31
0.0
  0
LINE
  8
1
  6
CONTINUOUS
 62
       9
  5
54D
 10
-108.43212471
 20
-124.72436797
 30
0.0
 11
-78.83212471
 21
-124.72436797
 31
0.0
  0
LINE
  8
1
  6
CONTINUOUS
 62
       9
  5
54E
 10
-89.8438443
 20
-46.48669399
 30
0.0
 11
-43.8438443
 21
-46.48669399
 31
0.0
  0
LINE
  8
1
  6
CONTINUOUS
 62
       9
  5
54F
 10
-89.8438443
 20
-46.48669399
 30
0.0
 11
-84.9531063
 21
-47.52625245
 31
0.0
  0
LINE
  8
1
  6
CONTINUOUS
 62
       9
  5
550
 10
-89.8438443
 20
-46.48669399
 30
0.0
 11
-84.9531063
 21
-45.44713554
 31
0.0
  0
LINE
  8
1
  6
CONTINUOUS
 62
       9
  5
551
 10
-43.8438443
 20
-46.48669399
 30
0.0
 11
-48.73458231
 21
-45.44713554
 31
0.0
  0
LINE
  8
1
  6
CONTINUOUS
 62
       9
  5
552
 10
-43.8438443
 20
-46.48669399
 30
0.0
 11
-48.73458231
 21
-47.52625245
 31
0.0
  0
LINE
  8
1
  6
CONTINUOUS
 62
       9
  5
553
 10
-89.8438443
 20
-88.96527642
 30
0.0
 11
-89.8438443
 21
-44.48669399
 31
0.0
  0
LINE
  8
1
  6
CONTINUOUS
 62
       9
  5
554
 10
-43.8438443
 20
-88.96527642
 30
0.0
 11
-43.8438443
 21
-44.48669399
 31
0.0
  0
LINE
  8
1
  6
CONTINUOUS
 62
       9
  5
555
 10
-21.59186659
 20
-66.48669399
 30
0.0
 11
-15.59186659
 21
-66.48669399
 31
0.0
  0
LINE
  8
1
  6
CONTINUOUS
 62
       9
  5
556
 10
0.80813341
 20
-66.48669399
 30
0.0
 11
-15.59186659
 21
-66.48669399
 31
0.0
  0
LINE
  8
1
  6
CONTINUOUS
 62
       9
  5
557
 10
-15.59186659
 20
-66.48669399
 30
0.0
 11
-10.70112858
 21
-67.52625245
 31
0.0
  0
LINE
  8
1
  6
CONTINUOUS
 62
       9
  5
558
 10
-15.59186659
 20
-66.48669399
 30
0.0
 11
-10.70112858
 21
-65.44713554
 31
0.0
  0
LINE
  8
1
  6
CONTINUOUS
 62
       9
  5
559
 10
-31.59186659
 20
-66.48669399
 30
0.0
 11
-21.59186659
 21
-66.48669399
 31
0.0
  0
LINE
  8
1
  6
CONTINUOUS
 62
       9
  5
55A
 10
-21.59186659
 20
-66.48669399
 30
0.0
 11
-26.48260459
 21
-65.44713554
 31
0.0
  0
LINE
  8
1
  6
CONTINUOUS
 62
       9
  5
55B
 10
-21.59186659
 20
-66.48669399
 30
0.0
 11
-26.48260459
 21
-67.52625245
 31
0.0
  0
LINE
  8
1
  6
CONTINUOUS
 62
       9
  5
55C
 10
-21.59186659
 20
-78.46527642
 30
0.0
 11
-21.59186659
 21
-64.48669399
 31
0.0
  0
LINE
  8
1
  6
CONTINUOUS
 62
       9
  5
55D
 10
-15.59186659
 20
-81.76527642
 30
0.0
 11
-15.59186659
 21
-64.48669399
 31
0.0
  0
TEXT
  8
1
 62
       9
  5
55E
 10
-73.24384431
 20
-64.486694
 30
0.0
 40
8.0
  1
24
 41
0.8
 72
       5
 11
-60.44384431
 21
-64.486694
 31
0.0
  0
TEXT
  8
1
 62
       9
  5
55F
 10
-32.17093321
 20
-100.86527641
 30
0.0
 40
8.0
  1
30
 50
90.00000018
 41
0.8
 72
       5
 11
-32.17093325
 21
-88.06527641
 31
0.0
  0
TEXT
  8
1
 62
       9
  5
560
 10
-106.43212469
 20
-122.72436798
 30
0.0
 40
8.0
  1
φ4.8
 41
0.8
 72
       5
 11
-80.83212469
 21
-122.7243679
 31
0.0
  0
TEXT
  8
1
 62
       9
  5
561
 10
-73.24384431
 20
-44.486694
 30
0.0
 40
8.0
  1
46
 41
0.8
 72
       5
 11
-60.44384431
 21
-44.486694
 31
0.0
  0
TEXT
  8
1
 62
       9
  5
562
 10
-7.59186659
 20
-64.486694
 30
0.0
 40
8.0
  1
6
 41
0.8
 72
       5
 11
-1.19186659
 21
-64.486694
 31
0.0
  0
POINT
  8
LAYER0240
  6
CONTINUOUS
 62
       5
  5
563
 10
-18.36304337
 20
22.90758352
 30
0.0
  0
ENDSEC
  0
EOF
