  0
SECTION
  2
HEADER
  9
$ACADVER
  1
AC1014
  9
$ACADMAINTVER
 70
       0
  9
$DWGCODEPAGE
  3
ANSI_932
  9
$INSBASE
 10
0.0
 20
0.0
 30
0.0
  9
$EXTMIN
 10
-990.10405392
 20
-1381.5
 30
0.0
  9
$EXTMAX
 10
990.10405392
 20
1381.5
 30
0.0
  9
$LIMMIN
 10
-315.0
 20
-445.5
  9
$LIMMAX
 10
315.0
 20
445.5
  9
$ORTHOMODE
 70
       0
  9
$REGENMODE
 70
       1
  9
$FILLMODE
 70
       1
  9
$QTEXTMODE
 70
       0
  9
$MIRRTEXT
 70
       1
  9
$DRAGMODE
 70
       2
  9
$LTSCALE
 40
3.0
  9
$OSMODE
 70
       0
  9
$ATTMODE
 70
       1
  9
$TEXTSIZE
 40
0.2
  9
$TRACEWID
 40
0.05
  9
$TEXTSTYLE
  7
STANDARD
  9
$CLAYER
  8
0
  9
$CELTYPE
  6
CONTINUOUS
  9
$CECOLOR
 62
     256
  9
$CELTSCALE
 40
1.0
  9
$DELOBJ
 70
       1
  9
$DISPSILH
 70
       0
  9
$DIMSCALE
 40
1.0
  9
$DIMASZ
 40
6.0
  9
$DIMEXO
 40
0.0625
  9
$DIMDLI
 40
0.38
  9
$DIMRND
 40
0.0
  9
$DIMDLE
 40
0.0
  9
$DIMEXE
 40
0.18
  9
$DIMTP
 40
0.0
  9
$DIMTM
 40
0.0
  9
$DIMTXT
 40
6.0
  9
$DIMCEN
 40
0.09
  9
$DIMTSZ
 40
0.0
  9
$DIMTOL
 70
       0
  9
$DIMLIM
 70
       0
  9
$DIMTIH
 70
       1
  9
$DIMTOH
 70
       1
  9
$DIMSE1
 70
       0
  9
$DIMSE2
 70
       0
  9
$DIMTAD
 70
       0
  9
$DIMZIN
 70
       0
  9
$DIMBLK
  1

  9
$DIMASO
 70
       1
  9
$DIMSHO
 70
       1
  9
$DIMPOST
  1

  9
$DIMAPOST
  1

  9
$DIMALT
 70
       0
  9
$DIMALTD
 70
       2
  9
$DIMALTF
 40
25.4
  9
$DIMLFAC
 40
1.0
  9
$DIMTOFL
 70
       0
  9
$DIMTVP
 40
0.0
  9
$DIMTIX
 70
       0
  9
$DIMSOXD
 70
       0
  9
$DIMSAH
 70
       0
  9
$DIMBLK1
  1

  9
$DIMBLK2
  1

  9
$DIMSTYLE
  2
STANDARD
  9
$DIMCLRD
 70
       0
  9
$DIMCLRE
 70
       0
  9
$DIMCLRT
 70
       0
  9
$DIMTFAC
 40
1.0
  9
$DIMGAP
 40
0.09
  9
$DIMJUST
 70
       0
  9
$DIMSD1
 70
       0
  9
$DIMSD2
 70
       0
  9
$DIMTOLJ
 70
       1
  9
$DIMTZIN
 70
       0
  9
$DIMALTZ
 70
       0
  9
$DIMALTTZ
 70
       0
  9
$DIMFIT
 70
       3
  9
$DIMUPT
 70
       0
  9
$DIMUNIT
 70
       2
  9
$DIMDEC
 70
       4
  9
$DIMTDEC
 70
       4
  9
$DIMALTU
 70
       2
  9
$DIMALTTD
 70
       2
  9
$DIMTXSTY
  7
STANDARD
  9
$DIMAUNIT
 70
       0
  9
$LUNITS
 70
       2
  9
$LUPREC
 70
       4
  9
$SKETCHINC
 40
0.1
  9
$FILLETRAD
 40
0.0
  9
$AUNITS
 70
       0
  9
$AUPREC
 70
       0
  9
$MENU
  1
acad
  9
$ELEVATION
 40
0.0
  9
$PELEVATION
 40
0.0
  9
$THICKNESS
 40
0.0
  9
$LIMCHECK
 70
       0
  9
$BLIPMODE
 70
       1
  9
$CHAMFERA
 40
0.0
  9
$CHAMFERB
 40
0.0
  9
$CHAMFERC
 40
0.0
  9
$CHAMFERD
 40
0.0
  9
$SKPOLY
 70
       0
  9
$TDCREATE
 40
0.000000000
  9
$TDUPDATE
 40
0.000000000
  9
$TDINDWG
 40
0.0000000000
  9
$TDUSRTIMER
 40
0.0000000000
  9
$USRTIMER
 70
       1
  9
$ANGBASE
 50
0.0
  9
$ANGDIR
 70
       0
  9
$PDMODE
 70
       0
  9
$PDSIZE
 40
1.0
  9
$PLINEWID
 40
0.0
  9
$COORDS
 70
       1
  9
$SPLFRAME
 70
       0
  9
$SPLINETYPE
 70
       6
  9
$SPLINESEGS
 70
       8
  9
$ATTDIA
 70
       0
  9
$ATTREQ
 70
       1
  9
$HANDLING
 70
       1
  9
$HANDSEED
  5
694
  9
$SURFTAB1
 70
       6
  9
$SURFTAB2
 70
       6
  9
$SURFTYPE
 70
       6
  9
$SURFU
 70
       6
  9
$SURFV
 70
       6
  9
$UCSNAME
  2

  9
$UCSORG
 10
0.0
 20
0.0
 30
0.0
  9
$UCSXDIR
 10
1.0
 20
0.0
 30
0.0
  9
$UCSYDIR
 10
0.0
 20
1.0
 30
0.0
  9
$PUCSNAME
  2

  9
$PUCSORG
 10
0.0
 20
0.0
 30
0.0
  9
$PUCSXDIR
 10
1.0
 20
0.0
 30
0.0
  9
$PUCSYDIR
 10
0.0
 20
1.0
 30
0.0
  9
$USERI1
 70
       0
  9
$USERI2
 70
       0
  9
$USERI3
 70
       0
  9
$USERI4
 70
       0
  9
$USERI5
 70
       0
  9
$USERR1
 40
0.0
  9
$USERR2
 40
0.0
  9
$USERR3
 40
0.0
  9
$USERR4
 40
0.0
  9
$USERR5
 40
0.0
  9
$WORLDVIEW
 70
       1
  9
$SHADEDGE
 70
       3
  9
$SHADEDIF
 70
      70
  9
$TILEMODE
 70
       1
  9
$MAXACTVP
 70
      16
  9
$PINSBASE
 10
0.0
 20
0.0
 30
0.0
  9
$PLIMCHECK
 70
       0
  9
$PEXTMIN
 10
1.00000000E+20
 20
1.00000000E+20
 30
1.00000000E+20
  9
$PEXTMAX
 10
-1.00000000E+20
 20
-1.00000000E+20
 30
-1.00000000E+20
  9
$PLIMMIN
 10
0.0
 20
0.0
  9
$PLIMMAX
 10
12.0
 20
9.0
  9
$UNITMODE
 70
       0
  9
$VISRETAIN
 70
       0
  9
$PLINEGEN
 70
       1
  9
$PSLTSCALE
 70
       0
  9
$TREEDEPTH
 70
    3020
  9
$PICKSTYLE
 70
       1
  9
$CMLSTYLE
  2
STANDARD
  9
$CMLJUST
 70
       0
  9
$CMLSCALE
 40
1.0
  9
$PROXYGRAPHICS
 70
       0
  9
$MEASUREMENT
 70
       0
  0
ENDSEC
  0
SECTION
  2
CLASSES
  0
CLASS
  1
LWPOLYLINE
  2
AcDbPolyline
  3
"AutoCAD"
 90
        0
280
       0
281
       1
  0
CLASS
  1
IMAGE
  2
AcDbRasterImage
  3
ISM
 90
      127
280
       0
281
       1
  0
CLASS
  1
OLE2FRAME
  2
AcDbOle2Frame
  3
""
 90
        0
280
       0
281
       1
  0
CLASS
  1
HATCH
  2
AcDbHatch
  3
"ACAD_SEDONA"
 90
        0
280
       0
281
       1
  0
CLASS
  1
DICTIONARYVAR
  2
AcDbDictionaryVar
  3
"AutoCAD"
 90
        0
280
       0
281
       0
  0
CLASS
  1
RASTERVARIABLES
  2
AcDbRasterVariables
  3
ISM
 90
        0
280
       0
281
       0
  0
CLASS
  1
IMAGEDEF
  2
AcDbRasterImageDef
  3
ISM
 90
        0
280
       0
281
       0
  0
CLASS
  1
IMAGEDEF_REACTOR
  2
AcDbRasterImageDefReactor
  3
ISM
 90
        1
280
       0
281
       0
  0
CLASS
  1
IDBUFFER
  2
AcDbIdBuffer
  3
"Acad"
 90
        0
280
       0
281
       0
  0
CLASS
  1
SPATIAL_FILTER
  2
AcDbSpatialFilter
  3
"Acad"
 90
        0
280
       0
281
       0
  0
CLASS
  1
XRECORD
  2
AcDbXrecord
  3
"<Built In>"
 90
        0
280
       0
281
       0
  0
CLASS
  1
SORTENTSTABLE
  2
AcDbSortentsTable
  3
"AutoCAD"
 90
        0
280
       0
281
       0
  0
CLASS
  1
LAYER_INDEX
  2
AcDbLayerIndex
  3
"Acad"
 90
        0
280
       0
281
       0
  0
CLASS
  1
SPATIAL_INDEX
  2
AcDbSpatialIndex
  3
"Acad"
 90
        0
280
       0
281
       0
  0
CLASS
  1
OBJECT_PTR
  2
CAseDLPNTableRecord
  3
"ASE-LPNTableRecord"
 90
        1
280
       0
281
       0
  0
CLASS
  1
LAYOUT
  2
AcDbLayout
  3
"AutoCAD 2000"
 90
        0
280
       0
281
       0
  0
CLASS
  1
PLOTSETTINGS
  2
AcDbPlotSettings
  3
"AutoCAD 2000"
 90
        0
280
       0
281
       0
  0
CLASS
  1
ACDBDICTIONARYWDFLT
  2
AcDbDictionaryWithDefault
  3
"AutoCAD 2000"
 90
        0
280
       0
281
       0
  0
CLASS
  1
ACDBPLACEHOLDER
  2
AcDbPlaceHolder
  3
"AutoCAD 2000"
 90
        0
280
       0
281
       0
  0
CLASS
  1
VBA_PROJECT
  2
AcDbVbaProject
  3
"acadvba"
 90
        0
280
       0
281
       0
  0
CLASS
  1
WIPEOUT
  2
AcDbWipeout
  3
WipeOut|AutoCAD Express Tool|expresstools@autodesk.com
 90
      127
280
       0
281
       1
  0
CLASS
  1
WIPEOUTVARIABLES
  2
AcDbWipeoutVariables
  3
WipeOut|AutoCAD Express Tool|expresstools@autodesk.com
 90
        0
280
       0
281
       0
  0
CLASS
  1
RTEXT
  2
RText
  3
RText|AutoCAD Express Tool|expresstools@autodesk.com
 90
        0
280
       0
281
       1
  0
CLASS
  1
ARCALIGNEDTEXT
  2
AcDbArcAlignedText
  3
ATEXT|AutoCAD Express Tool|expresstools@autodesk.com
 90
        0
280
       0
281
       1
  0
ENDSEC
  0
SECTION
  2
TABLES
  0
TABLE
  2
VPORT
  5
7
100
AcDbSymbolTable
 70
       1
  0
VPORT
  5
15
100
AcDbSymbolTableRecord
100
AcDbViewportTableRecord
  2
*ACTIVE
 70
       0
 10
0.0
 20
0.0
 11
1.0
 21
1.0
 12
0.0
 22
0.0
 13
0.0
 23
0.0
 14
1.0
 24
1.0
 15
0.0
 25
0.0
 16
0.0
 26
0.0
 36
1.0
 17
0.0
 27
0.0
 37
0.0
 40
891.0
 41
0.70707071
 42
50.0
 43
0.0
 44
0.0
 50
0.0
 51
0.0
 71
       0
 72
     100
 73
       1
 74
       1
 75
       0
 76
       0
 77
       0
 78
       0
  0
ENDTAB
  0
TABLE
  2
LTYPE
  5
4
100
AcDbSymbolTable
 70
      30
  0
LTYPE
  5
11
100
AcDbSymbolTableRecord
100
AcDbLinetypeTableRecord
  2
BYBLOCK
 70
      64
  3

 72
      65
 73
       0
 40
0.0
  0
LTYPE
  5
12
100
AcDbSymbolTableRecord
100
AcDbLinetypeTableRecord
  2
BYLAYER
 70
      64
  3

 72
      65
 73
       0
 40
0.0
  0
LTYPE
  5
13
100
AcDbSymbolTableRecord
100
AcDbLinetypeTableRecord
  2
CONTINUOUS
 70
      64
  3
Solid line
 72
      65
 73
       0
 40
0.0
  0
LTYPE
  5
1D
100
AcDbSymbolTableRecord
100
AcDbLinetypeTableRecord
  2
HIDDENX2
 70
      64
  3
CADPAC LINETYPE
 72
      65
 73
       2
 40
13.46938776
 49
10.10204082
 74
       0
 49
-3.36734694
 74
       0
  0
LTYPE
  5
1E
100
AcDbSymbolTableRecord
100
AcDbLinetypeTableRecord
  2
HIDDEN
 70
      64
  3
CADPAC LINETYPE
 72
      65
 73
       2
 40
10.10204082
 49
6.73469388
 74
       0
 49
-3.36734694
 74
       0
  0
LTYPE
  5
1F
100
AcDbSymbolTableRecord
100
AcDbLinetypeTableRecord
  2
HIDDEN2
 70
      64
  3
CADPAC LINETYPE
 72
      65
 73
       2
 40
8.41836735
 49
5.05102041
 74
       0
 49
-3.36734694
 74
       0
  0
LTYPE
  5
20
100
AcDbSymbolTableRecord
100
AcDbLinetypeTableRecord
  2
DASHED
 70
      64
  3
CADPAC LINETYPE
 72
      65
 73
       2
 40
9.42857143
 49
6.73469388
 74
       0
 49
-2.69387755
 74
       0
  0
LTYPE
  5
21
100
AcDbSymbolTableRecord
100
AcDbLinetypeTableRecord
  2
DASHED2
 70
      64
  3
CADPAC LINETYPE
 72
      65
 73
       2
 40
6.06122449
 49
4.04081633
 74
       0
 49
-2.02040816
 74
       0
  0
LTYPE
  5
22
100
AcDbSymbolTableRecord
100
AcDbLinetypeTableRecord
  2
DASHEDX2
 70
      64
  3
CADPAC LINETYPE
 72
      65
 73
       2
 40
16.16326531
 49
13.46938776
 74
       0
 49
-2.69387755
 74
       0
  0
LTYPE
  5
23
100
AcDbSymbolTableRecord
100
AcDbLinetypeTableRecord
  2
DOTX2
 70
      64
  3
CADPAC LINETYPE
 72
      65
 73
       2
 40
5.89285714
 49
0.0
 74
       0
 49
-5.89285714
 74
       0
  0
LTYPE
  5
24
100
AcDbSymbolTableRecord
100
AcDbLinetypeTableRecord
  2
DOT
 70
      64
  3
CADPAC LINETYPE
 72
      65
 73
       2
 40
4.71428571
 49
0.0
 74
       0
 49
-4.71428571
 74
       0
  0
LTYPE
  5
25
100
AcDbSymbolTableRecord
100
AcDbLinetypeTableRecord
  2
DOT2
 70
      64
  3
CADPAC LINETYPE
 72
      65
 73
       2
 40
3.53571429
 49
0.0
 74
       0
 49
-3.53571429
 74
       0
  0
LTYPE
  5
26
100
AcDbSymbolTableRecord
100
AcDbLinetypeTableRecord
  2
CENTERX2
 70
      64
  3
CADPAC LINETYPE
 72
      65
 73
       4
 40
20.20408163
 49
8.41836735
 74
       0
 49
-4.20918367
 74
       0
 49
3.36734694
 74
       0
 49
-4.20918367
 74
       0
  0
LTYPE
  5
27
100
AcDbSymbolTableRecord
100
AcDbLinetypeTableRecord
  2
CENTER
 70
      64
  3
CADPAC LINETYPE
 72
      65
 73
       4
 40
15.48979592
 49
6.73469388
 74
       0
 49
-3.36734694
 74
       0
 49
2.02040816
 74
       0
 49
-3.36734694
 74
       0
  0
LTYPE
  5
28
100
AcDbSymbolTableRecord
100
AcDbLinetypeTableRecord
  2
CENTER2
 70
      64
  3
CADPAC LINETYPE
 72
      65
 73
       4
 40
10.7755102
 49
5.05102041
 74
       0
 49
-2.5255102
 74
       0
 49
0.67346939
 74
       0
 49
-2.5255102
 74
       0
  0
LTYPE
  5
29
100
AcDbSymbolTableRecord
100
AcDbLinetypeTableRecord
  2
DASHDOTX2
 70
      64
  3
CADPAC LINETYPE
 72
      65
 73
       4
 40
32.32653061
 49
16.16326531
 74
       0
 49
-5.3877551
 74
       0
 49
5.3877551
 74
       0
 49
-5.3877551
 74
       0
  0
LTYPE
  5
2A
100
AcDbSymbolTableRecord
100
AcDbLinetypeTableRecord
  2
DASHDOT
 70
      64
  3
CADPAC LINETYPE
 72
      65
 73
       4
 40
16.16326531
 49
8.08163265
 74
       0
 49
-2.69387755
 74
       0
 49
2.69387755
 74
       0
 49
-2.69387755
 74
       0
  0
LTYPE
  5
2B
100
AcDbSymbolTableRecord
100
AcDbLinetypeTableRecord
  2
DASHDOT2
 70
      64
  3
CADPAC LINETYPE
 72
      65
 73
       4
 40
10.37142857
 49
6.06122449
 74
       0
 49
-2.02040816
 74
       0
 49
0.26938776
 74
       0
 49
-2.02040816
 74
       0
  0
LTYPE
  5
2C
100
AcDbSymbolTableRecord
100
AcDbLinetypeTableRecord
  2
DIVIDEX2
 70
      64
  3
CADPAC LINETYPE
 72
      65
 73
       6
 40
43.10204082
 49
16.16326531
 74
       0
 49
-5.3877551
 74
       0
 49
5.3877551
 74
       0
 49
-5.3877551
 74
       0
 49
5.3877551
 74
       0
 49
-5.3877551
 74
       0
  0
LTYPE
  5
2D
100
AcDbSymbolTableRecord
100
AcDbLinetypeTableRecord
  2
DIVIDE
 70
      64
  3
CADPAC LINETYPE
 72
      65
 73
       6
 40
21.55102041
 49
8.08163265
 74
       0
 49
-2.69387755
 74
       0
 49
2.69387755
 74
       0
 49
-2.69387755
 74
       0
 49
2.69387755
 74
       0
 49
-2.69387755
 74
       0
  0
LTYPE
  5
2E
100
AcDbSymbolTableRecord
100
AcDbLinetypeTableRecord
  2
DIVIDE2
 70
      64
  3
CADPAC LINETYPE
 72
      65
 73
       6
 40
16.16326531
 49
6.06122449
 74
       0
 49
-2.02040816
 74
       0
 49
2.02040816
 74
       0
 49
-2.02040816
 74
       0
 49
2.02040816
 74
       0
 49
-2.02040816
 74
       0
  0
LTYPE
  5
2F
100
AcDbSymbolTableRecord
100
AcDbLinetypeTableRecord
  2
BORDERX2
 70
      64
  3
CADPAC LINETYPE
 72
      65
 73
       6
 40
29.46428571
 49
8.41836735
 74
       0
 49
-4.20918367
 74
       0
 49
8.41836735
 74
       0
 49
-4.20918367
 74
       0
 49
0.0
 74
       0
 49
-4.20918367
 74
       0
  0
LTYPE
  5
30
100
AcDbSymbolTableRecord
100
AcDbLinetypeTableRecord
  2
BORDER
 70
      64
  3
CADPAC LINETYPE
 72
      65
 73
       6
 40
23.57142857
 49
6.73469388
 74
       0
 49
-3.36734694
 74
       0
 49
6.73469388
 74
       0
 49
-3.36734694
 74
       0
 49
0.0
 74
       0
 49
-3.36734694
 74
       0
  0
LTYPE
  5
31
100
AcDbSymbolTableRecord
100
AcDbLinetypeTableRecord
  2
BORDER2
 70
      64
  3
CADPAC LINETYPE
 72
      65
 73
       6
 40
17.51020408
 49
5.3877551
 74
       0
 49
-3.36734694
 74
       0
 49
2.02040816
 74
       0
 49
-3.36734694
 74
       0
 49
0.0
 74
       0
 49
-3.36734694
 74
       0
  0
LTYPE
  5
32
100
AcDbSymbolTableRecord
100
AcDbLinetypeTableRecord
  2
PHANTOMX2
 70
      64
  3
CADPAC LINETYPE
 72
      65
 73
       6
 40
25.25510204
 49
8.41836735
 74
       0
 49
-3.36734694
 74
       0
 49
3.36734694
 74
       0
 49
-3.36734694
 74
       0
 49
3.36734694
 74
       0
 49
-3.36734694
 74
       0
  0
LTYPE
  5
33
100
AcDbSymbolTableRecord
100
AcDbLinetypeTableRecord
  2
PHANTOM
 70
      64
  3
CADPAC LINETYPE
 72
      65
 73
       6
 40
20.87755102
 49
6.73469388
 74
       0
 49
-3.36734694
 74
       0
 49
2.02040816
 74
       0
 49
-3.36734694
 74
       0
 49
2.02040816
 74
       0
 49
-3.36734694
 74
       0
  0
LTYPE
  5
34
100
AcDbSymbolTableRecord
100
AcDbLinetypeTableRecord
  2
PHANTOM2
 70
      64
  3
CADPAC LINETYPE
 72
      65
 73
       6
 40
17.84693878
 49
5.05102041
 74
       0
 49
-3.36734694
 74
       0
 49
1.34693878
 74
       0
 49
-3.36734694
 74
       0
 49
1.34693878
 74
       0
 49
-3.36734694
 74
       0
  0
LTYPE
  5
35
100
AcDbSymbolTableRecord
100
AcDbLinetypeTableRecord
  2
ACAD_ISO06W100
 70
      64
  3
CADPAC LINETYPE
 72
      65
 73
       8
 40
35.69387755
 49
16.16326531
 74
       0
 49
-3.36734694
 74
       0
 49
2.02040816
 74
       0
 49
-3.36734694
 74
       0
 49
2.02040816
 74
       0
 49
-3.36734694
 74
       0
 49
2.02040816
 74
       0
 49
-3.36734694
 74
       0
  0
LTYPE
  5
36
100
AcDbSymbolTableRecord
100
AcDbLinetypeTableRecord
  2
ACAD_ISO13W100
 70
      64
  3
CADPAC LINETYPE
 72
      65
 73
       8
 40
26.93877551
 49
6.73469388
 74
       0
 49
-3.36734694
 74
       0
 49
6.73469388
 74
       0
 49
-3.36734694
 74
       0
 49
0.0
 74
       0
 49
-3.36734694
 74
       0
 49
0.0
 74
       0
 49
-3.36734694
 74
       0
  0
LTYPE
  5
37
100
AcDbSymbolTableRecord
100
AcDbLinetypeTableRecord
  2
ACAD_ISO14W100
 70
      64
  3
CADPAC LINETYPE
 72
      65
 73
       8
 40
20.20408163
 49
6.73469388
 74
       0
 49
-3.36734694
 74
       0
 49
0.0
 74
       0
 49
-3.36734694
 74
       0
 49
0.0
 74
       0
 49
-3.36734694
 74
       0
 49
0.0
 74
       0
 49
-3.36734694
 74
       0
  0
ENDTAB
  0
TABLE
  2
LAYER
  5
2
100
AcDbSymbolTable
 70
       7
  0
LAYER
  5
14
100
AcDbSymbolTableRecord
100
AcDbLayerTableRecord
  2
0
 70
       0
 62
       7
  6
CONTINUOUS
  0
LAYER
  5
38
100
AcDbSymbolTableRecord
100
AcDbLayerTableRecord
  2
16
 70
       0
 62
       7
  6
CONTINUOUS
  0
LAYER
  5
39
100
AcDbSymbolTableRecord
100
AcDbLayerTableRecord
  2
17
 70
       0
 62
       7
  6
CONTINUOUS
  0
LAYER
  5
3A
100
AcDbSymbolTableRecord
100
AcDbLayerTableRecord
  2
20
 70
       0
 62
       7
  6
CONTINUOUS
  0
LAYER
  5
3B
100
AcDbSymbolTableRecord
100
AcDbLayerTableRecord
  2
21
 70
       0
 62
       7
  6
CONTINUOUS
  0
LAYER
  5
3C
100
AcDbSymbolTableRecord
100
AcDbLayerTableRecord
  2
240
 70
       0
 62
       7
  6
CONTINUOUS
  0
LAYER
  5
3D
100
AcDbSymbolTableRecord
100
AcDbLayerTableRecord
  2
241
 70
       0
 62
       7
  6
CONTINUOUS
  0
ENDTAB
  0
TABLE
  2
STYLE
  5
3
100
AcDbSymbolTable
 70
       1
  0
STYLE
  5
17
100
AcDbSymbolTableRecord
100
AcDbTextStyleTableRecord
  2
STANDARD
 70
       0
 40
10.2
 41
0.8
 50
0.0
 71
       0
 42
10.2
  3
txt.shx
  4
bigfont.shx
  0
ENDTAB
  0
TABLE
  2
VIEW
  5
5
100
AcDbSymbolTable
 70
       1
  0
VIEW
  5
3E
100
AcDbSymbolTableRecord
100
AcDbViewTableRecord
  2
QQQQ
 70
       0
 40
891.0
 10
0.0
 20
0.0
 41
630.0
 11
0.0
 21
0.0
 31
1.0
 12
100.0
 22
100.0
 32
0.0
 42
50.0
 43
0.0
 44
0.0
 50
0.0
 71
       0
  0
ENDTAB
  0
TABLE
  2
UCS
  5
6
100
AcDbSymbolTable
 70
       0
  0
ENDTAB
  0
TABLE
  2
APPID
  5
8
100
AcDbSymbolTable
 70
       1
  0
APPID
  5
16
100
AcDbSymbolTableRecord
100
AcDbRegAppTableRecord
  2
ACAD
 70
       0
  0
ENDTAB
  0
TABLE
  2
DIMSTYLE
  5
9
100
AcDbSymbolTable
 70
       1
  0
DIMSTYLE
105
18
100
AcDbSymbolTableRecord
100
AcDbDimStyleTableRecord
  2
STANDARD
 70
       0
  3

  4

  5

  6

  7

 40
1.0
 41
0.18
 42
0.0625
 43
0.38
 44
0.18
 45
0.0
 46
0.0
 47
0.0
 48
0.0
 71
       0
 72
       0
 73
       1
 74
       1
 75
       0
 76
       0
 77
       0
 78
       0
140
0.18
141
0.09
142
0.0
143
25.4
144
1.0
145
0.0
146
1.0
147
0.09
170
       0
171
       2
172
       0
173
       0
174
       0
175
       0
176
       0
177
       0
178
       0
270
       2
271
       4
272
       4
273
       2
274
       2
275
       0
280
       0
281
       0
282
       0
283
       1
284
       0
285
       0
286
       0
287
       3
288
       0
340
17
  0
ENDTAB
  0
TABLE
  2
BLOCK_RECORD
  5
1
100
AcDbSymbolTable
 70
      41
  0
BLOCK_RECORD
  5
A
100
AcDbSymbolTableRecord
100
AcDbBlockTableRecord
  2
*MODEL_SPACE
  0
BLOCK_RECORD
  5
B
100
AcDbSymbolTableRecord
100
AcDbBlockTableRecord
  2
*PAPER_SPACE
  0
BLOCK_RECORD
  5
3F
100
AcDbSymbolTableRecord
100
AcDbBlockTableRecord
  2
GROUP_1
  0
BLOCK_RECORD
  5
40
100
AcDbSymbolTableRecord
100
AcDbBlockTableRecord
  2
GROUP_2
  0
BLOCK_RECORD
  5
41
100
AcDbSymbolTableRecord
100
AcDbBlockTableRecord
  2
GROUP_3
  0
BLOCK_RECORD
  5
42
100
AcDbSymbolTableRecord
100
AcDbBlockTableRecord
  2
GROUP_4
  0
BLOCK_RECORD
  5
43
100
AcDbSymbolTableRecord
100
AcDbBlockTableRecord
  2
GROUP_5
  0
BLOCK_RECORD
  5
44
100
AcDbSymbolTableRecord
100
AcDbBlockTableRecord
  2
GROUP_6
  0
BLOCK_RECORD
  5
45
100
AcDbSymbolTableRecord
100
AcDbBlockTableRecord
  2
GROUP_7
  0
BLOCK_RECORD
  5
46
100
AcDbSymbolTableRecord
100
AcDbBlockTableRecord
  2
GROUP_8
  0
BLOCK_RECORD
  5
47
100
AcDbSymbolTableRecord
100
AcDbBlockTableRecord
  2
GROUP_9
  0
BLOCK_RECORD
  5
48
100
AcDbSymbolTableRecord
100
AcDbBlockTableRecord
  2
GROUP_10
  0
BLOCK_RECORD
  5
49
100
AcDbSymbolTableRecord
100
AcDbBlockTableRecord
  2
GROUP_11
  0
BLOCK_RECORD
  5
4A
100
AcDbSymbolTableRecord
100
AcDbBlockTableRecord
  2
GROUP_12
  0
BLOCK_RECORD
  5
4B
100
AcDbSymbolTableRecord
100
AcDbBlockTableRecord
  2
GROUP_13
  0
BLOCK_RECORD
  5
4C
100
AcDbSymbolTableRecord
100
AcDbBlockTableRecord
  2
GROUP_14
  0
BLOCK_RECORD
  5
4D
100
AcDbSymbolTableRecord
100
AcDbBlockTableRecord
  2
GROUP_15
  0
BLOCK_RECORD
  5
4E
100
AcDbSymbolTableRecord
100
AcDbBlockTableRecord
  2
GROUP_16
  0
BLOCK_RECORD
  5
4F
100
AcDbSymbolTableRecord
100
AcDbBlockTableRecord
  2
GROUP_17
  0
BLOCK_RECORD
  5
50
100
AcDbSymbolTableRecord
100
AcDbBlockTableRecord
  2
GROUP_18
  0
BLOCK_RECORD
  5
51
100
AcDbSymbolTableRecord
100
AcDbBlockTableRecord
  2
GROUP_19
  0
BLOCK_RECORD
  5
52
100
AcDbSymbolTableRecord
100
AcDbBlockTableRecord
  2
GROUP_20
  0
BLOCK_RECORD
  5
53
100
AcDbSymbolTableRecord
100
AcDbBlockTableRecord
  2
GROUP_21
  0
BLOCK_RECORD
  5
54
100
AcDbSymbolTableRecord
100
AcDbBlockTableRecord
  2
GROUP_22
  0
BLOCK_RECORD
  5
55
100
AcDbSymbolTableRecord
100
AcDbBlockTableRecord
  2
GROUP_23
  0
BLOCK_RECORD
  5
56
100
AcDbSymbolTableRecord
100
AcDbBlockTableRecord
  2
GROUP_24
  0
BLOCK_RECORD
  5
57
100
AcDbSymbolTableRecord
100
AcDbBlockTableRecord
  2
GROUP_25
  0
BLOCK_RECORD
  5
58
100
AcDbSymbolTableRecord
100
AcDbBlockTableRecord
  2
DA_IMAGEDIMGROUP_1
  0
BLOCK_RECORD
  5
59
100
AcDbSymbolTableRecord
100
AcDbBlockTableRecord
  2
_OPEN30
  0
BLOCK_RECORD
  5
5A
100
AcDbSymbolTableRecord
100
AcDbBlockTableRecord
  2
DA_IMAGEDIMGROUP_2
  0
BLOCK_RECORD
  5
5B
100
AcDbSymbolTableRecord
100
AcDbBlockTableRecord
  2
DA_IMAGEDIMGROUP_3
  0
BLOCK_RECORD
  5
5C
100
AcDbSymbolTableRecord
100
AcDbBlockTableRecord
  2
DA_IMAGEDIMGROUP_4
  0
BLOCK_RECORD
  5
5D
100
AcDbSymbolTableRecord
100
AcDbBlockTableRecord
  2
DA_IMAGEDIMGROUP_5
  0
BLOCK_RECORD
  5
5E
100
AcDbSymbolTableRecord
100
AcDbBlockTableRecord
  2
DA_IMAGEDIMGROUP_6
  0
BLOCK_RECORD
  5
5F
100
AcDbSymbolTableRecord
100
AcDbBlockTableRecord
  2
GROUP_26
  0
BLOCK_RECORD
  5
60
100
AcDbSymbolTableRecord
100
AcDbBlockTableRecord
  2
DA_IMAGEDIMGROUP_7
  0
BLOCK_RECORD
  5
61
100
AcDbSymbolTableRecord
100
AcDbBlockTableRecord
  2
GROUP_27
  0
BLOCK_RECORD
  5
62
100
AcDbSymbolTableRecord
100
AcDbBlockTableRecord
  2
GROUP_28
  0
BLOCK_RECORD
  5
63
100
AcDbSymbolTableRecord
100
AcDbBlockTableRecord
  2
GROUP_29
  0
BLOCK_RECORD
  5
64
100
AcDbSymbolTableRecord
100
AcDbBlockTableRecord
  2
DA_IMAGEDIMGROUP_8
  0
BLOCK_RECORD
  5
65
100
AcDbSymbolTableRecord
100
AcDbBlockTableRecord
  2
DA_IMAGEDIMGROUP_9
  0
BLOCK_RECORD
  5
66
100
AcDbSymbolTableRecord
100
AcDbBlockTableRecord
  2
GROUP_30
  0
BLOCK_RECORD
  5
67
100
AcDbSymbolTableRecord
100
AcDbBlockTableRecord
  2
DA_IMAGEDIMGROUP_10
  0
ENDTAB
  0
ENDSEC
  0
SECTION
  2
BLOCKS
  0
BLOCK
  5
D
100
AcDbEntity
  8
0
100
AcDbBlockBegin
  2
*MODEL_SPACE
 70
       0
 10
0.0
 20
0.0
 30
0.0
  3
*MODEL_SPACE
  1

  0
ENDBLK
  5
E
100
AcDbEntity
  8
0
100
AcDbBlockEnd
  0
BLOCK
  5
F
100
AcDbEntity
 67
       1
  8
0
100
AcDbBlockBegin
  2
*PAPER_SPACE
 70
       0
 10
0.0
 20
0.0
 30
0.0
  3
*PAPER_SPACE
  1

  0
ENDBLK
  5
10
100
AcDbEntity
 67
       1
  8
0
100
AcDbBlockEnd
  0
BLOCK
  5
68
100
AcDbEntity
  8
0
100
AcDbBlockBegin
  2
GROUP_1
 70
       0
 10
0.0
 20
0.0
 30
0.0
  3
GROUP_1
  1

  0
ARC
  5
69
100
AcDbEntity
  8
0
  6
CONTINUOUS
 62
       7
100
AcDbCircle
 10
-260.77723584
 20
421.22548309
 30
0.0
 40
8.06307952
100
AcDbArc
 50
117.5173678
 51
242.4826322
  0
ARC
  5
6A
100
AcDbEntity
  8
0
  6
CONTINUOUS
 62
       7
100
AcDbCircle
 10
-230.49656536
 20
479.35108957
 30
0.0
 40
73.60318276
100
AcDbArc
 50
242.4826322
 51
297.51736473
  0
ARC
  5
6B
100
AcDbEntity
  8
0
  6
CONTINUOUS
 62
       7
100
AcDbCircle
 10
-200.21589488
 20
421.22548309
 30
0.0
 40
8.06307952
100
AcDbArc
 50
297.51736473
 51
422.48263527
  0
ARC
  5
6C
100
AcDbEntity
  8
0
  6
CONTINUOUS
 62
       7
100
AcDbCircle
 10
-230.49656536
 20
363.09987661
 30
0.0
 40
73.60318276
100
AcDbArc
 50
62.48263527
 51
117.5173678
  0
ENDBLK
  5
6D
100
AcDbEntity
  8
0
100
AcDbBlockEnd
  0
BLOCK
  5
6E
100
AcDbEntity
  8
0
100
AcDbBlockBegin
  2
GROUP_2
 70
       0
 10
0.0
 20
0.0
 30
0.0
  3
GROUP_2
  1

  0
ARC
  5
6F
100
AcDbEntity
  8
0
  6
CONTINUOUS
 62
       7
100
AcDbCircle
 10
-237.68032211
 20
419.51508975
 30
0.0
 40
0.3169996
100
AcDbArc
 50
190.64764618
 51
292.13143044
  0
ARC
  5
70
100
AcDbEntity
  8
0
  6
CONTINUOUS
 62
       7
100
AcDbCircle
 10
-237.79862888
 20
419.80598631
 30
0.0
 40
0.63103352
100
AcDbArc
 50
292.13143044
 51
370.64764925
  0
ARC
  5
71
100
AcDbEntity
  8
0
  6
CONTINUOUS
 62
       7
100
AcDbCircle
 10
-237.490002
 20
419.86400995
 30
0.0
 40
0.3169996
100
AcDbArc
 50
10.64764925
 51
112.13143351
  0
ARC
  5
72
100
AcDbEntity
  8
0
  6
CONTINUOUS
 62
       7
100
AcDbCircle
 10
-237.37169522
 20
419.5731134
 30
0.0
 40
0.63103352
100
AcDbArc
 50
112.13143351
 51
190.64764618
  0
ENDBLK
  5
73
100
AcDbEntity
  8
0
100
AcDbBlockEnd
  0
BLOCK
  5
74
100
AcDbEntity
  8
0
100
AcDbBlockBegin
  2
GROUP_3
 70
       0
 10
0.0
 20
0.0
 30
0.0
  3
GROUP_3
  1

  0
ARC
  5
75
100
AcDbEntity
  8
0
  6
CONTINUOUS
 62
       7
100
AcDbCircle
 10
-237.88918779
 20
419.13216934
 30
0.0
 40
1.01277828
100
AcDbArc
 50
190.64764618
 51
211.08494823
  0
ARC
  5
76
100
AcDbEntity
  8
0
  6
CONTINUOUS
 62
       7
100
AcDbCircle
 10
-238.26716471
 20
420.0615513
 30
0.0
 40
2.01608152
100
AcDbArc
 50
312.59843321
 51
370.64764925
  0
ARC
  5
77
100
AcDbEntity
  8
0
  6
CONTINUOUS
 62
       7
100
AcDbCircle
 10
-237.28113632
 20
420.24693036
 30
0.0
 40
1.01277828
100
AcDbArc
 50
10.64764925
 51
112.13143351
  0
ARC
  5
78
100
AcDbEntity
  8
0
  6
CONTINUOUS
 62
       7
100
AcDbCircle
 10
-236.9031594
 20
419.3175484
 30
0.0
 40
2.01608152
100
AcDbArc
 50
112.13143351
 51
190.64764618
  0
ENDBLK
  5
79
100
AcDbEntity
  8
0
100
AcDbBlockEnd
  0
BLOCK
  5
7A
100
AcDbEntity
  8
0
100
AcDbBlockBegin
  2
GROUP_4
 70
       0
 10
0.0
 20
0.0
 30
0.0
  3
GROUP_4
  1

  0
ARC
  5
7B
100
AcDbEntity
  8
0
  6
CONTINUOUS
 62
       7
100
AcDbCircle
 10
-233.09999859
 20
420.31138677
 30
0.0
 40
0.23219995
100
AcDbArc
 50
183.26137873
 51
305.00590373
  0
ARC
  5
7C
100
AcDbEntity
  8
0
  6
CONTINUOUS
 62
       7
100
AcDbCircle
 10
-233.93695235
 20
421.50641847
 30
0.0
 40
1.69116957
100
AcDbArc
 50
305.00590373
 51
363.2613818
  0
ARC
  5
7D
100
AcDbEntity
  8
0
  6
CONTINUOUS
 62
       7
100
AcDbCircle
 10
-232.48034569
 20
421.58942088
 30
0.0
 40
0.23219995
100
AcDbArc
 50
3.2613818
 51
125.0059068
  0
ARC
  5
7E
100
AcDbEntity
  8
0
  6
CONTINUOUS
 62
       7
100
AcDbCircle
 10
-231.64339193
 20
420.39438918
 30
0.0
 40
1.69116957
100
AcDbArc
 50
125.0059068
 51
183.26137873
  0
ENDBLK
  5
7F
100
AcDbEntity
  8
0
100
AcDbBlockEnd
  0
BLOCK
  5
80
100
AcDbEntity
  8
0
100
AcDbBlockBegin
  2
GROUP_5
 70
       0
 10
0.0
 20
0.0
 30
0.0
  3
GROUP_5
  1

  0
ARC
  5
81
100
AcDbEntity
  8
0
  6
CONTINUOUS
 62
       7
100
AcDbCircle
 10
-233.78003301
 20
418.90881579
 30
0.0
 40
0.74185288
100
AcDbArc
 50
183.26137873
 51
200.33363428
  0
ARC
  5
82
100
AcDbEntity
  8
0
  6
CONTINUOUS
 62
       7
100
AcDbCircle
 10
-236.45400667
 20
422.72680844
 30
0.0
 40
5.40309768
100
AcDbArc
 50
321.55507259
 51
363.2613818
  0
ARC
  5
83
100
AcDbEntity
  8
0
  6
CONTINUOUS
 62
       7
100
AcDbCircle
 10
-231.80031127
 20
422.99199186
 30
0.0
 40
0.74185288
100
AcDbArc
 50
3.2613818
 51
125.0059068
  0
ARC
  5
84
100
AcDbEntity
  8
0
  6
CONTINUOUS
 62
       7
100
AcDbCircle
 10
-229.12633761
 20
419.17399921
 30
0.0
 40
5.40309768
100
AcDbArc
 50
125.0059068
 51
183.26137873
  0
ENDBLK
  5
85
100
AcDbEntity
  8
0
100
AcDbBlockEnd
  0
BLOCK
  5
86
100
AcDbEntity
  8
0
100
AcDbBlockBegin
  2
GROUP_6
 70
       0
 10
0.0
 20
0.0
 30
0.0
  3
GROUP_6
  1

  0
ARC
  5
87
100
AcDbEntity
  8
0
  6
CONTINUOUS
 62
       7
100
AcDbCircle
 10
-224.41649425
 20
419.06490141
 30
0.0
 40
0.2160766
100
AcDbArc
 50
183.73563025
 51
294.86492053
  0
ARC
  5
88
100
AcDbEntity
  8
0
  6
CONTINUOUS
 62
       7
100
AcDbCircle
 10
-224.6542337
 20
419.57788937
 30
0.0
 40
0.78147618
100
AcDbArc
 50
294.86492053
 51
363.73563332
  0
ARC
  5
89
100
AcDbEntity
  8
0
  6
CONTINUOUS
 62
       7
100
AcDbCircle
 10
-224.09003543
 20
419.6147268
 30
0.0
 40
0.2160766
100
AcDbArc
 50
3.73563332
 51
114.8649236
  0
ARC
  5
8A
100
AcDbEntity
  8
0
  6
CONTINUOUS
 62
       7
100
AcDbCircle
 10
-223.85229598
 20
419.10173885
 30
0.0
 40
0.78147618
100
AcDbArc
 50
114.8649236
 51
183.73563025
  0
ENDBLK
  5
8B
100
AcDbEntity
  8
0
100
AcDbBlockEnd
  0
BLOCK
  5
8C
100
AcDbEntity
  8
0
100
AcDbBlockBegin
  2
GROUP_7
 70
       0
 10
0.0
 20
0.0
 30
0.0
  3
GROUP_7
  1

  0
ARC
  5
8D
100
AcDbEntity
  8
0
  6
CONTINUOUS
 62
       7
100
AcDbCircle
 10
-223.79836634
 20
420.03486454
 30
0.0
 40
0.8613358
100
AcDbArc
 50
20.74730473
 51
105.32121283
  0
ARC
  5
8E
100
AcDbEntity
  8
0
  6
CONTINUOUS
 62
       7
100
AcDbCircle
 10
-223.33014848
 20
418.32583435
 30
0.0
 40
2.63334374
100
AcDbArc
 50
105.32121283
 51
159.10235176
  0
ENDBLK
  5
8F
100
AcDbEntity
  8
0
100
AcDbBlockEnd
  0
BLOCK
  5
90
100
AcDbEntity
  8
0
100
AcDbBlockBegin
  2
GROUP_8
 70
       0
 10
0.0
 20
0.0
 30
0.0
  3
GROUP_8
  1

  0
ARC
  5
91
100
AcDbEntity
  8
0
  6
CONTINUOUS
 62
       7
100
AcDbCircle
 10
-225.09949815
 20
418.42285946
 30
0.0
 40
0.8613358
100
AcDbArc
 50
198.54808739
 51
285.32120976
  0
ARC
  5
92
100
AcDbEntity
  8
0
  6
CONTINUOUS
 62
       7
100
AcDbCircle
 10
-225.56771601
 20
420.13188965
 30
0.0
 40
2.63334374
100
AcDbArc
 50
285.32120976
 51
306.25116607
  0
ENDBLK
  5
93
100
AcDbEntity
  8
0
100
AcDbBlockEnd
  0
BLOCK
  5
94
100
AcDbEntity
  8
0
100
AcDbBlockBegin
  2
GROUP_9
 70
       0
 10
0.0
 20
0.0
 30
0.0
  3
GROUP_9
  1

  0
ARC
  5
95
100
AcDbEntity
  8
0
  6
CONTINUOUS
 62
       7
100
AcDbCircle
 10
-207.5055781
 20
419.51508975
 30
0.0
 40
0.3169996
100
AcDbArc
 50
190.64764618
 51
292.13143044
  0
ARC
  5
96
100
AcDbEntity
  8
0
  6
CONTINUOUS
 62
       7
100
AcDbCircle
 10
-207.62388488
 20
419.80598631
 30
0.0
 40
0.63103352
100
AcDbArc
 50
292.13143044
 51
370.64764925
  0
ARC
  5
97
100
AcDbEntity
  8
0
  6
CONTINUOUS
 62
       7
100
AcDbCircle
 10
-207.31525799
 20
419.86400995
 30
0.0
 40
0.3169996
100
AcDbArc
 50
10.64764925
 51
112.13143351
  0
ARC
  5
98
100
AcDbEntity
  8
0
  6
CONTINUOUS
 62
       7
100
AcDbCircle
 10
-207.19695121
 20
419.5731134
 30
0.0
 40
0.63103352
100
AcDbArc
 50
112.13143351
 51
190.64764618
  0
ENDBLK
  5
99
100
AcDbEntity
  8
0
100
AcDbBlockEnd
  0
BLOCK
  5
9A
100
AcDbEntity
  8
0
100
AcDbBlockBegin
  2
GROUP_10
 70
       0
 10
0.0
 20
0.0
 30
0.0
  3
GROUP_10
  1

  0
ARC
  5
9B
100
AcDbEntity
  8
0
  6
CONTINUOUS
 62
       7
100
AcDbCircle
 10
-207.71444378
 20
419.13216934
 30
0.0
 40
1.01277828
100
AcDbArc
 50
190.64764618
 51
211.08494823
  0
ARC
  5
9C
100
AcDbEntity
  8
0
  6
CONTINUOUS
 62
       7
100
AcDbCircle
 10
-208.0924207
 20
420.0615513
 30
0.0
 40
2.01608152
100
AcDbArc
 50
312.59843321
 51
370.64764925
  0
ARC
  5
9D
100
AcDbEntity
  8
0
  6
CONTINUOUS
 62
       7
100
AcDbCircle
 10
-207.10639231
 20
420.24693036
 30
0.0
 40
1.01277828
100
AcDbArc
 50
10.64764925
 51
112.13143351
  0
ARC
  5
9E
100
AcDbEntity
  8
0
  6
CONTINUOUS
 62
       7
100
AcDbCircle
 10
-206.72841539
 20
419.3175484
 30
0.0
 40
2.01608152
100
AcDbArc
 50
112.13143351
 51
190.64764618
  0
ENDBLK
  5
9F
100
AcDbEntity
  8
0
100
AcDbBlockEnd
  0
BLOCK
  5
A0
100
AcDbEntity
  8
0
100
AcDbBlockBegin
  2
GROUP_11
 70
       0
 10
0.0
 20
0.0
 30
0.0
  3
GROUP_11
  1

  0
LINE
  5
A1
100
AcDbEntity
  8
21
  6
CONTINUOUS
 62
       7
100
AcDbLine
 10
-199.55973081
 20
-3.21596532
 30
0.0
 11
-200.32411906
 21
-3.68076602
 31
0.0
  0
LINE
  5
A2
100
AcDbEntity
  8
21
  6
CONTINUOUS
 62
       7
100
AcDbLine
 10
-200.32411906
 20
-3.68076602
 30
0.0
 11
-201.21145488
 21
-4.38844792
 31
0.0
  0
LINE
  5
A3
100
AcDbEntity
  8
21
  6
CONTINUOUS
 62
       7
100
AcDbLine
 10
-201.21145488
 20
-4.38844792
 30
0.0
 11
-202.0535525
 21
-5.09572655
 31
0.0
  0
LINE
  5
A4
100
AcDbEntity
  8
21
  6
CONTINUOUS
 62
       7
100
AcDbLine
 10
-202.0535525
 20
-5.09572655
 30
0.0
 11
-203.24582369
 21
-6.11281666
 31
0.0
  0
LINE
  5
A5
100
AcDbEntity
  8
21
  6
CONTINUOUS
 62
       7
100
AcDbLine
 10
-203.24582369
 20
-6.11281666
 30
0.0
 11
-203.93077983
 21
-6.68736408
 31
0.0
  0
LINE
  5
A6
100
AcDbEntity
  8
21
  6
CONTINUOUS
 62
       7
100
AcDbLine
 10
-203.93077983
 20
-6.68736408
 30
0.0
 11
-204.20917287
 21
-6.8994999
 31
0.0
  0
LINE
  5
A7
100
AcDbEntity
  8
21
  6
CONTINUOUS
 62
       7
100
AcDbLine
 10
-204.20917287
 20
-6.8994999
 30
0.0
 11
-204.22458985
 21
-6.90437383
 31
0.0
  0
ENDBLK
  5
A8
100
AcDbEntity
  8
0
100
AcDbBlockEnd
  0
BLOCK
  5
A9
100
AcDbEntity
  8
0
100
AcDbBlockBegin
  2
GROUP_12
 70
       0
 10
0.0
 20
0.0
 30
0.0
  3
GROUP_12
  1

  0
LINE
  5
AA
100
AcDbEntity
  8
21
  6
CONTINUOUS
 62
       7
100
AcDbLine
 10
-202.85291077
 20
-11.27612158
 30
0.0
 11
-198.98907425
 21
-11.44355711
 31
0.0
  0
LINE
  5
AB
100
AcDbEntity
  8
21
  6
CONTINUOUS
 62
       7
100
AcDbLine
 10
-198.98907425
 20
-11.44355711
 30
0.0
 11
-195.09626912
 21
-11.27612158
 31
0.0
  0
ENDBLK
  5
AC
100
AcDbEntity
  8
0
100
AcDbBlockEnd
  0
BLOCK
  5
AD
100
AcDbEntity
  8
0
100
AcDbBlockBegin
  2
GROUP_13
 70
       0
 10
0.0
 20
0.0
 30
0.0
  3
GROUP_13
  1

  0
LINE
  5
AE
100
AcDbEntity
  8
21
  6
CONTINUOUS
 62
       7
100
AcDbLine
 10
-193.72458994
 20
-9.22756575
 30
0.0
 11
-193.72458994
 21
-8.11145626
 31
0.0
  0
LINE
  5
AF
100
AcDbEntity
  8
21
  6
CONTINUOUS
 62
       7
100
AcDbLine
 10
-193.72458994
 20
-8.11145626
 30
0.0
 11
-193.72459009
 21
-6.90437384
 31
0.0
  0
ENDBLK
  5
B0
100
AcDbEntity
  8
0
100
AcDbBlockEnd
  0
BLOCK
  5
B1
100
AcDbEntity
  8
0
100
AcDbBlockBegin
  2
GROUP_14
 70
       0
 10
0.0
 20
0.0
 30
0.0
  3
GROUP_14
  1

  0
LINE
  5
B2
100
AcDbEntity
  8
21
  6
CONTINUOUS
 62
       7
100
AcDbLine
 10
-195.09626912
 20
-9.91141018
 30
0.0
 11
-194.82262106
 21
-9.86241398
 31
0.0
  0
LINE
  5
B3
100
AcDbEntity
  8
21
  6
CONTINUOUS
 62
       7
100
AcDbLine
 10
-194.82262106
 20
-9.86241398
 30
0.0
 11
-194.56278645
 21
-9.76412656
 31
0.0
  0
LINE
  5
B4
100
AcDbEntity
  8
21
  6
CONTINUOUS
 62
       7
100
AcDbLine
 10
-194.56278645
 20
-9.76412656
 30
0.0
 11
-194.32569438
 21
-9.61992553
 31
0.0
  0
LINE
  5
B5
100
AcDbEntity
  8
21
  6
CONTINUOUS
 62
       7
100
AcDbLine
 10
-194.32569438
 20
-9.61992553
 30
0.0
 11
-194.11949238
 21
-9.43476628
 31
0.0
  0
LINE
  5
B6
100
AcDbEntity
  8
21
  6
CONTINUOUS
 62
       7
100
AcDbLine
 10
-194.11949238
 20
-9.43476628
 30
0.0
 11
-193.95126649
 21
-9.2150117
 31
0.0
  0
LINE
  5
B7
100
AcDbEntity
  8
21
  6
CONTINUOUS
 62
       7
100
AcDbLine
 10
-193.95126649
 20
-9.2150117
 30
0.0
 11
-193.82679769
 21
-8.96821355
 31
0.0
  0
LINE
  5
B8
100
AcDbEntity
  8
21
  6
CONTINUOUS
 62
       7
100
AcDbLine
 10
-193.82679769
 20
-8.96821355
 30
0.0
 11
-193.7503633
 21
-8.70285292
 31
0.0
  0
LINE
  5
B9
100
AcDbEntity
  8
21
  6
CONTINUOUS
 62
       7
100
AcDbLine
 10
-193.7503633
 20
-8.70285292
 30
0.0
 11
-193.72458994
 21
-8.42804879
 31
0.0
  0
ENDBLK
  5
BA
100
AcDbEntity
  8
0
100
AcDbBlockEnd
  0
BLOCK
  5
BB
100
AcDbEntity
  8
0
100
AcDbBlockBegin
  2
GROUP_15
 70
       0
 10
0.0
 20
0.0
 30
0.0
  3
GROUP_15
  1

  0
LINE
  5
BC
100
AcDbEntity
  8
21
  6
CONTINUOUS
 62
       7
100
AcDbLine
 10
-204.22458985
 20
-6.90437383
 30
0.0
 11
-204.22458994
 21
-8.56670266
 31
0.0
  0
LINE
  5
BD
100
AcDbEntity
  8
21
  6
CONTINUOUS
 62
       7
100
AcDbLine
 10
-204.22458994
 20
-8.56670266
 30
0.0
 11
-204.22458994
 21
-9.21745873
 31
0.0
  0
ENDBLK
  5
BE
100
AcDbEntity
  8
0
100
AcDbBlockEnd
  0
BLOCK
  5
BF
100
AcDbEntity
  8
0
100
AcDbBlockBegin
  2
GROUP_16
 70
       0
 10
0.0
 20
0.0
 30
0.0
  3
GROUP_16
  1

  0
LINE
  5
C0
100
AcDbEntity
  8
21
  6
CONTINUOUS
 62
       7
100
AcDbLine
 10
-202.85291077
 20
-9.91141018
 30
0.0
 11
-203.12655883
 21
-9.86241398
 31
0.0
  0
LINE
  5
C1
100
AcDbEntity
  8
21
  6
CONTINUOUS
 62
       7
100
AcDbLine
 10
-203.12655883
 20
-9.86241398
 30
0.0
 11
-203.38639343
 21
-9.76412656
 31
0.0
  0
LINE
  5
C2
100
AcDbEntity
  8
21
  6
CONTINUOUS
 62
       7
100
AcDbLine
 10
-203.38639343
 20
-9.76412656
 30
0.0
 11
-203.62348551
 21
-9.61992553
 31
0.0
  0
LINE
  5
C3
100
AcDbEntity
  8
21
  6
CONTINUOUS
 62
       7
100
AcDbLine
 10
-203.62348551
 20
-9.61992553
 30
0.0
 11
-203.8296875
 21
-9.43476628
 31
0.0
  0
LINE
  5
C4
100
AcDbEntity
  8
21
  6
CONTINUOUS
 62
       7
100
AcDbLine
 10
-203.8296875
 20
-9.43476628
 30
0.0
 11
-203.9979134
 21
-9.2150117
 31
0.0
  0
LINE
  5
C5
100
AcDbEntity
  8
21
  6
CONTINUOUS
 62
       7
100
AcDbLine
 10
-203.9979134
 20
-9.2150117
 30
0.0
 11
-204.12238219
 21
-8.96821355
 31
0.0
  0
LINE
  5
C6
100
AcDbEntity
  8
21
  6
CONTINUOUS
 62
       7
100
AcDbLine
 10
-204.12238219
 20
-8.96821355
 30
0.0
 11
-204.19881658
 21
-8.70285292
 31
0.0
  0
LINE
  5
C7
100
AcDbEntity
  8
21
  6
CONTINUOUS
 62
       7
100
AcDbLine
 10
-204.19881658
 20
-8.70285292
 30
0.0
 11
-204.22458994
 21
-8.42804879
 31
0.0
  0
ENDBLK
  5
C8
100
AcDbEntity
  8
0
100
AcDbBlockEnd
  0
BLOCK
  5
C9
100
AcDbEntity
  8
0
100
AcDbBlockBegin
  2
GROUP_17
 70
       0
 10
0.0
 20
0.0
 30
0.0
  3
GROUP_17
  1

  0
LINE
  5
CA
100
AcDbEntity
  8
21
  6
CONTINUOUS
 62
       7
100
AcDbLine
 10
70.89373194
 20
-9.91141018
 30
0.0
 11
71.16737999
 21
-9.86241398
 31
0.0
  0
LINE
  5
CB
100
AcDbEntity
  8
21
  6
CONTINUOUS
 62
       7
100
AcDbLine
 10
71.16737999
 20
-9.86241398
 30
0.0
 11
71.4272146
 21
-9.76412656
 31
0.0
  0
LINE
  5
CC
100
AcDbEntity
  8
21
  6
CONTINUOUS
 62
       7
100
AcDbLine
 10
71.4272146
 20
-9.76412656
 30
0.0
 11
71.66430668
 21
-9.61992553
 31
0.0
  0
LINE
  5
CD
100
AcDbEntity
  8
21
  6
CONTINUOUS
 62
       7
100
AcDbLine
 10
71.66430668
 20
-9.61992553
 30
0.0
 11
71.87050867
 21
-9.43476628
 31
0.0
  0
LINE
  5
CE
100
AcDbEntity
  8
21
  6
CONTINUOUS
 62
       7
100
AcDbLine
 10
71.87050867
 20
-9.43476628
 30
0.0
 11
72.03873456
 21
-9.2150117
 31
0.0
  0
LINE
  5
CF
100
AcDbEntity
  8
21
  6
CONTINUOUS
 62
       7
100
AcDbLine
 10
72.03873456
 20
-9.2150117
 30
0.0
 11
72.16320336
 21
-8.96821355
 31
0.0
  0
LINE
  5
D0
100
AcDbEntity
  8
21
  6
CONTINUOUS
 62
       7
100
AcDbLine
 10
72.16320336
 20
-8.96821355
 30
0.0
 11
72.23963775
 21
-8.70285292
 31
0.0
  0
LINE
  5
D1
100
AcDbEntity
  8
21
  6
CONTINUOUS
 62
       7
100
AcDbLine
 10
72.23963775
 20
-8.70285292
 30
0.0
 11
72.26541111
 21
-8.42804879
 31
0.0
  0
ENDBLK
  5
D2
100
AcDbEntity
  8
0
100
AcDbBlockEnd
  0
BLOCK
  5
D3
100
AcDbEntity
  8
0
100
AcDbBlockBegin
  2
GROUP_18
 70
       0
 10
0.0
 20
0.0
 30
0.0
  3
GROUP_18
  1

  0
LINE
  5
D4
100
AcDbEntity
  8
21
  6
CONTINUOUS
 62
       7
100
AcDbLine
 10
72.26541102
 20
-6.90437383
 30
0.0
 11
72.26541111
 21
-8.56670266
 31
0.0
  0
LINE
  5
D5
100
AcDbEntity
  8
21
  6
CONTINUOUS
 62
       7
100
AcDbLine
 10
72.26541111
 20
-8.56670266
 30
0.0
 11
72.26541111
 21
-9.21745873
 31
0.0
  0
ENDBLK
  5
D6
100
AcDbEntity
  8
0
100
AcDbBlockEnd
  0
BLOCK
  5
D7
100
AcDbEntity
  8
0
100
AcDbBlockBegin
  2
GROUP_19
 70
       0
 10
0.0
 20
0.0
 30
0.0
  3
GROUP_19
  1

  0
LINE
  5
D8
100
AcDbEntity
  8
21
  6
CONTINUOUS
 62
       7
100
AcDbLine
 10
63.13709029
 20
-9.91141018
 30
0.0
 11
62.86344223
 21
-9.86241398
 31
0.0
  0
LINE
  5
D9
100
AcDbEntity
  8
21
  6
CONTINUOUS
 62
       7
100
AcDbLine
 10
62.86344223
 20
-9.86241398
 30
0.0
 11
62.60360762
 21
-9.76412656
 31
0.0
  0
LINE
  5
DA
100
AcDbEntity
  8
21
  6
CONTINUOUS
 62
       7
100
AcDbLine
 10
62.60360762
 20
-9.76412656
 30
0.0
 11
62.36651555
 21
-9.61992553
 31
0.0
  0
LINE
  5
DB
100
AcDbEntity
  8
21
  6
CONTINUOUS
 62
       7
100
AcDbLine
 10
62.36651555
 20
-9.61992553
 30
0.0
 11
62.16031355
 21
-9.43476628
 31
0.0
  0
LINE
  5
DC
100
AcDbEntity
  8
21
  6
CONTINUOUS
 62
       7
100
AcDbLine
 10
62.16031355
 20
-9.43476628
 30
0.0
 11
61.99208766
 21
-9.2150117
 31
0.0
  0
LINE
  5
DD
100
AcDbEntity
  8
21
  6
CONTINUOUS
 62
       7
100
AcDbLine
 10
61.99208766
 20
-9.2150117
 30
0.0
 11
61.86761886
 21
-8.96821355
 31
0.0
  0
LINE
  5
DE
100
AcDbEntity
  8
21
  6
CONTINUOUS
 62
       7
100
AcDbLine
 10
61.86761886
 20
-8.96821355
 30
0.0
 11
61.79118447
 21
-8.70285292
 31
0.0
  0
LINE
  5
DF
100
AcDbEntity
  8
21
  6
CONTINUOUS
 62
       7
100
AcDbLine
 10
61.79118447
 20
-8.70285292
 30
0.0
 11
61.76541111
 21
-8.42804879
 31
0.0
  0
ENDBLK
  5
E0
100
AcDbEntity
  8
0
100
AcDbBlockEnd
  0
BLOCK
  5
E1
100
AcDbEntity
  8
0
100
AcDbBlockBegin
  2
GROUP_20
 70
       0
 10
0.0
 20
0.0
 30
0.0
  3
GROUP_20
  1

  0
LINE
  5
E2
100
AcDbEntity
  8
21
  6
CONTINUOUS
 62
       7
100
AcDbLine
 10
61.76541111
 20
-9.22756575
 30
0.0
 11
61.76541111
 21
-8.11145626
 31
0.0
  0
LINE
  5
E3
100
AcDbEntity
  8
21
  6
CONTINUOUS
 62
       7
100
AcDbLine
 10
61.76541111
 20
-8.11145626
 30
0.0
 11
61.76541126
 21
-6.90437384
 31
0.0
  0
ENDBLK
  5
E4
100
AcDbEntity
  8
0
100
AcDbBlockEnd
  0
BLOCK
  5
E5
100
AcDbEntity
  8
0
100
AcDbBlockBegin
  2
GROUP_21
 70
       0
 10
0.0
 20
0.0
 30
0.0
  3
GROUP_21
  1

  0
LINE
  5
E6
100
AcDbEntity
  8
21
  6
CONTINUOUS
 62
       7
100
AcDbLine
 10
70.89373194
 20
-11.27612158
 30
0.0
 11
67.02989542
 21
-11.44355711
 31
0.0
  0
LINE
  5
E7
100
AcDbEntity
  8
21
  6
CONTINUOUS
 62
       7
100
AcDbLine
 10
67.02989542
 20
-11.44355711
 30
0.0
 11
63.13709029
 21
-11.27612158
 31
0.0
  0
ENDBLK
  5
E8
100
AcDbEntity
  8
0
100
AcDbBlockEnd
  0
BLOCK
  5
E9
100
AcDbEntity
  8
0
100
AcDbBlockBegin
  2
GROUP_22
 70
       0
 10
0.0
 20
0.0
 30
0.0
  3
GROUP_22
  1

  0
LINE
  5
EA
100
AcDbEntity
  8
21
  6
CONTINUOUS
 62
       7
100
AcDbLine
 10
67.60055198
 20
-3.21596532
 30
0.0
 11
68.36494023
 21
-3.68076602
 31
0.0
  0
LINE
  5
EB
100
AcDbEntity
  8
21
  6
CONTINUOUS
 62
       7
100
AcDbLine
 10
68.36494023
 20
-3.68076602
 30
0.0
 11
69.25227605
 21
-4.38844792
 31
0.0
  0
LINE
  5
EC
100
AcDbEntity
  8
21
  6
CONTINUOUS
 62
       7
100
AcDbLine
 10
69.25227605
 20
-4.38844792
 30
0.0
 11
70.09437367
 21
-5.09572655
 31
0.0
  0
LINE
  5
ED
100
AcDbEntity
  8
21
  6
CONTINUOUS
 62
       7
100
AcDbLine
 10
70.09437367
 20
-5.09572655
 30
0.0
 11
71.28664486
 21
-6.11281666
 31
0.0
  0
LINE
  5
EE
100
AcDbEntity
  8
21
  6
CONTINUOUS
 62
       7
100
AcDbLine
 10
71.28664486
 20
-6.11281666
 30
0.0
 11
71.971601
 21
-6.68736408
 31
0.0
  0
LINE
  5
EF
100
AcDbEntity
  8
21
  6
CONTINUOUS
 62
       7
100
AcDbLine
 10
71.971601
 20
-6.68736408
 30
0.0
 11
72.24999404
 21
-6.8994999
 31
0.0
  0
LINE
  5
F0
100
AcDbEntity
  8
21
  6
CONTINUOUS
 62
       7
100
AcDbLine
 10
72.24999404
 20
-6.8994999
 30
0.0
 11
72.26541102
 21
-6.90437383
 31
0.0
  0
ENDBLK
  5
F1
100
AcDbEntity
  8
0
100
AcDbBlockEnd
  0
BLOCK
  5
F2
100
AcDbEntity
  8
0
100
AcDbBlockBegin
  2
GROUP_23
 70
       0
 10
0.0
 20
0.0
 30
0.0
  3
GROUP_23
  1

  0
ARC
  5
F3
100
AcDbEntity
  8
21
  6
CONTINUOUS
 62
       7
100
AcDbCircle
 10
-79.80080321
 20
27.59611861
 30
0.0
 40
7.73998858
100
AcDbArc
 50
309.58938142
 51
410.36004692
  0
ARC
  5
F4
100
AcDbEntity
  8
21
  6
CONTINUOUS
 62
       7
100
AcDbCircle
 10
-67.39251842
 20
27.59394056
 30
0.0
 40
7.73972797
100
AcDbArc
 50
309.61234249
 51
410.38765751
  0
ARC
  5
F5
100
AcDbEntity
  8
21
  6
CONTINUOUS
 62
       7
100
AcDbCircle
 10
-57.51529938
 20
27.59394056
 30
0.0
 40
7.74462271
100
AcDbArc
 50
129.65607588
 51
230.34392412
  0
ARC
  5
F6
100
AcDbEntity
  8
21
  6
CONTINUOUS
 62
       7
100
AcDbCircle
 10
-57.51993371
 20
39.51676243
 30
0.0
 40
7.73998858
100
AcDbArc
 50
129.58937931
 51
230.36004606
  0
ARC
  5
F7
100
AcDbEntity
  8
21
  6
CONTINUOUS
 62
       7
100
AcDbCircle
 10
-69.92821865
 20
39.51894056
 30
0.0
 40
7.73972792
100
AcDbArc
 50
129.61234208
 51
230.38765792
  0
ARC
  5
F8
100
AcDbEntity
  8
21
  6
CONTINUOUS
 62
       7
100
AcDbCircle
 10
-79.80543866
 20
39.51894056
 30
0.0
 40
7.74462337
100
AcDbArc
 50
309.65608174
 51
410.34391826
  0
ENDBLK
  5
F9
100
AcDbEntity
  8
0
100
AcDbBlockEnd
  0
BLOCK
  5
FA
100
AcDbEntity
  8
0
100
AcDbBlockBegin
  2
GROUP_24
 70
       0
 10
0.0
 20
0.0
 30
0.0
  3
GROUP_24
  1

  0
ARC
  5
FB
100
AcDbEntity
  8
21
  6
CONTINUOUS
 62
       7
100
AcDbCircle
 10
-79.80080321
 20
161.36361976
 30
0.0
 40
7.73998858
100
AcDbArc
 50
309.58938142
 51
410.36004692
  0
ARC
  5
FC
100
AcDbEntity
  8
21
  6
CONTINUOUS
 62
       7
100
AcDbCircle
 10
-67.39251842
 20
161.36144171
 30
0.0
 40
7.73972797
100
AcDbArc
 50
309.61234249
 51
410.38765751
  0
ARC
  5
FD
100
AcDbEntity
  8
21
  6
CONTINUOUS
 62
       7
100
AcDbCircle
 10
-57.51529938
 20
161.36144171
 30
0.0
 40
7.74462271
100
AcDbArc
 50
129.65607588
 51
230.34392412
  0
ARC
  5
FE
100
AcDbEntity
  8
21
  6
CONTINUOUS
 62
       7
100
AcDbCircle
 10
-57.51993371
 20
173.28426359
 30
0.0
 40
7.73998858
100
AcDbArc
 50
129.58937931
 51
230.36004606
  0
ARC
  5
FF
100
AcDbEntity
  8
21
  6
CONTINUOUS
 62
       7
100
AcDbCircle
 10
-69.92821865
 20
173.28644171
 30
0.0
 40
7.73972792
100
AcDbArc
 50
129.61234208
 51
230.38765792
  0
ARC
  5
100
100
AcDbEntity
  8
21
  6
CONTINUOUS
 62
       7
100
AcDbCircle
 10
-79.80543866
 20
173.28644171
 30
0.0
 40
7.74462337
100
AcDbArc
 50
309.65608174
 51
410.34391826
  0
ENDBLK
  5
101
100
AcDbEntity
  8
0
100
AcDbBlockEnd
  0
BLOCK
  5
102
100
AcDbEntity
  8
0
100
AcDbBlockBegin
  2
GROUP_25
 70
       0
 10
0.0
 20
0.0
 30
0.0
  3
GROUP_25
  1

  0
LINE
  5
103
100
AcDbEntity
  8
17
  6
CONTINUOUS
 62
       7
100
AcDbLine
 10
199.60524344
 20
-196.28457815
 30
0.0
 11
197.94155804
 21
-194.62089275
 31
0.0
  0
LINE
  5
104
100
AcDbEntity
  8
17
  6
CONTINUOUS
 62
       7
100
AcDbLine
 10
201.30584591
 20
-195.33353019
 30
0.0
 11
199.6727287
 21
-193.70041298
 31
0.0
  0
LINE
  5
105
100
AcDbEntity
  8
17
  6
CONTINUOUS
 62
       7
100
AcDbLine
 10
202.13986622
 20
-193.51590007
 30
0.0
 11
200.65959581
 21
-192.03562966
 31
0.0
  0
LINE
  5
106
100
AcDbEntity
  8
17
  6
CONTINUOUS
 62
       7
100
AcDbLine
 10
197.87407278
 20
-197.20505791
 30
0.0
 11
196.21038738
 21
-195.54137252
 31
0.0
  0
LINE
  5
107
100
AcDbEntity
  8
17
  6
CONTINUOUS
 62
       7
100
AcDbLine
 10
196.14290211
 20
-198.12553768
 30
0.0
 11
194.47921672
 21
-196.46185228
 31
0.0
  0
LINE
  5
108
100
AcDbEntity
  8
17
  6
CONTINUOUS
 62
       7
100
AcDbLine
 10
194.41173145
 20
-199.04601745
 30
0.0
 11
193.82129758
 21
-198.45558358
 31
0.0
  0
ENDBLK
  5
109
100
AcDbEntity
  8
0
100
AcDbBlockEnd
  0
BLOCK
  5
10A
100
AcDbEntity
  8
0
100
AcDbBlockBegin
  2
DA_IMAGEDIMGROUP_1
 70
       0
 10
0.0
 20
0.0
 30
0.0
  3
DA_IMAGEDIMGROUP_1
  1

  0
LINE
  5
10B
100
AcDbEntity
  8
16
  6
CONTINUOUS
 62
       7
100
AcDbLine
 10
-102.5856344
 20
155.39894171
 30
0.0
 11
-102.5856344
 21
179.24894171
 31
0.0
  0
LINE
  5
10C
100
AcDbEntity
  8
16
  6
CONTINUOUS
 62
       7
100
AcDbLine
 10
-102.5856344
 20
243.88910422
 30
0.0
 11
-102.5856344
 21
179.24894171
 31
0.0
  0
INSERT
  5
10D
100
AcDbEntity
  8
16
  6
CONTINUOUS
 62
       7
100
AcDbBlockReference
  2
_OPEN30
 10
-102.5856344
 20
179.24894171
 30
0.0
 41
9.00000836
 42
8.99996782
 50
270.0
  0
LINE
  5
10E
100
AcDbEntity
  8
16
  6
CONTINUOUS
 62
       7
100
AcDbLine
 10
-102.5856344
 20
140.39894171
 30
0.0
 11
-102.5856344
 21
155.39894171
 31
0.0
  0
INSERT
  5
10F
100
AcDbEntity
  8
16
  6
CONTINUOUS
 62
       7
100
AcDbBlockReference
  2
_OPEN30
 10
-102.5856344
 20
155.39894171
 30
0.0
 41
9.00000836
 42
8.99996782
 50
90.0
  0
TEXT
  5
110
100
AcDbEntity
  8
16
 62
       7
100
AcDbText
 10
-105.5856344
 20
192.88910422
 30
0.0
 40
12.0
  1
φ15.9
 50
90.0
 41
0.8
 72
       5
 11
-105.5856344
 21
240.88910422
 31
0.0
100
AcDbText
  0
ENDBLK
  5
111
100
AcDbEntity
  8
0
100
AcDbBlockEnd
  0
BLOCK
  5
112
100
AcDbEntity
  8
0
100
AcDbBlockBegin
  2
_OPEN30
 70
       0
 10
0.0
 20
0.0
 30
0.0
  3
_OPEN30
  1

  0
LINE
  5
113
100
AcDbEntity
  8
0
  6
CONTINUOUS
 62
       0
100
AcDbLine
 10
0.0
 20
0.0
 30
0.0
 11
-0.96592583
 21
0.25881905
 31
0.0
  0
LINE
  5
114
100
AcDbEntity
  8
0
  6
CONTINUOUS
 62
       0
100
AcDbLine
 10
0.0
 20
0.0
 30
0.0
 11
-0.96592583
 21
-0.25881905
 31
0.0
  0
LINE
  5
115
100
AcDbEntity
  8
0
  6
CONTINUOUS
 62
       0
100
AcDbLine
 10
0.0
 20
0.0
 30
0.0
 11
-1.0
 21
0.0
 31
0.0
  0
ENDBLK
  5
116
100
AcDbEntity
  8
0
100
AcDbBlockEnd
  0
BLOCK
  5
117
100
AcDbEntity
  8
0
100
AcDbBlockBegin
  2
DA_IMAGEDIMGROUP_2
 70
       0
 10
0.0
 20
0.0
 30
0.0
  3
DA_IMAGEDIMGROUP_2
  1

  0
LINE
  5
118
100
AcDbEntity
  8
16
  6
CONTINUOUS
 62
       7
100
AcDbLine
 10
149.11579127
 20
147.07394171
 30
0.0
 11
149.11579127
 21
282.82394171
 31
0.0
  0
INSERT
  5
119
100
AcDbEntity
  8
16
  6
CONTINUOUS
 62
       7
100
AcDbBlockReference
  2
_OPEN30
 10
149.11579127
 20
147.07394171
 30
0.0
 41
9.00000836
 42
8.99996782
 50
270.0
  0
INSERT
  5
11A
100
AcDbEntity
  8
16
  6
CONTINUOUS
 62
       7
100
AcDbBlockReference
  2
_OPEN30
 10
149.11579127
 20
282.82394171
 30
0.0
 41
9.00000836
 42
8.99996782
 50
90.0
  0
LINE
  5
11B
100
AcDbEntity
  8
16
  6
CONTINUOUS
 62
       7
100
AcDbLine
 10
67.01541111
 20
147.07394171
 30
0.0
 11
152.11579127
 21
147.07394171
 31
0.0
  0
LINE
  5
11C
100
AcDbEntity
  8
16
  6
CONTINUOUS
 62
       7
100
AcDbLine
 10
115.01541111
 20
282.82394171
 30
0.0
 11
152.11579127
 21
282.82394171
 31
0.0
  0
TEXT
  5
11D
100
AcDbEntity
  8
16
 62
       7
100
AcDbText
 10
146.11579127
 20
195.74894171
 30
0.0
 40
12.0
  1
90.5
 50
90.0
 41
0.8
 72
       5
 11
146.11579127
 21
234.14894171
 31
0.0
100
AcDbText
  0
ENDBLK
  5
11E
100
AcDbEntity
  8
0
100
AcDbBlockEnd
  0
BLOCK
  5
11F
100
AcDbEntity
  8
0
100
AcDbBlockBegin
  2
DA_IMAGEDIMGROUP_3
 70
       0
 10
0.0
 20
0.0
 30
0.0
  3
DA_IMAGEDIMGROUP_3
  1

  0
LINE
  5
120
100
AcDbEntity
  8
16
  6
CONTINUOUS
 62
       7
100
AcDbLine
 10
62.47773981
 20
-186.03562966
 30
0.0
 11
62.47773981
 21
-152.28562966
 31
0.0
  0
LINE
  5
121
100
AcDbEntity
  8
16
  6
CONTINUOUS
 62
       7
100
AcDbLine
 10
93.64728029
 20
-186.03562966
 30
0.0
 11
57.97773981
 21
-186.03562966
 31
0.0
  0
LINE
  5
122
100
AcDbEntity
  8
16
  6
CONTINUOUS
 62
       7
100
AcDbLine
 10
93.64728029
 20
-152.28562966
 30
0.0
 11
57.97773981
 21
-152.28562966
 31
0.0
  0
LINE
  5
123
100
AcDbEntity
  8
16
  6
CONTINUOUS
 62
       7
100
AcDbLine
 10
62.47773981
 20
-129.78562966
 30
0.0
 11
62.47773981
 21
-152.28562966
 31
0.0
  0
INSERT
  5
124
100
AcDbEntity
  8
16
  6
CONTINUOUS
 62
       7
100
AcDbBlockReference
  2
_OPEN30
 10
62.47773981
 20
-152.28562966
 30
0.0
 41
9.00000836
 42
8.99996782
 50
270.0
  0
LINE
  5
125
100
AcDbEntity
  8
16
  6
CONTINUOUS
 62
       7
100
AcDbLine
 10
62.47773981
 20
-208.53562966
 30
0.0
 11
62.47773981
 21
-186.03562966
 31
0.0
  0
INSERT
  5
126
100
AcDbEntity
  8
16
  6
CONTINUOUS
 62
       7
100
AcDbBlockReference
  2
_OPEN30
 10
62.47773981
 20
-186.03562966
 30
0.0
 41
9.00000836
 42
8.99996782
 50
90.0
  0
TEXT
  5
127
100
AcDbEntity
  8
16
 62
       7
100
AcDbText
 10
57.97773981
 20
-188.36062966
 30
0.0
 40
12.0
  1
22.5
 50
90.0
 41
0.8
 72
       5
 11
57.97773981
 21
-149.96062966
 31
0.0
100
AcDbText
  0
ENDBLK
  5
128
100
AcDbEntity
  8
0
100
AcDbBlockEnd
  0
BLOCK
  5
129
100
AcDbEntity
  8
0
100
AcDbBlockBegin
  2
DA_IMAGEDIMGROUP_4
 70
       0
 10
0.0
 20
0.0
 30
0.0
  3
DA_IMAGEDIMGROUP_4
  1

  0
LINE
  5
12A
100
AcDbEntity
  8
16
  6
CONTINUOUS
 62
       7
100
AcDbLine
 10
28.96818483
 20
-199.16062966
 30
0.0
 11
28.96818483
 21
-139.16062966
 31
0.0
  0
INSERT
  5
12B
100
AcDbEntity
  8
16
  6
CONTINUOUS
 62
       7
100
AcDbBlockReference
  2
_OPEN30
 10
28.96818483
 20
-199.16062966
 30
0.0
 41
9.00000836
 42
8.99996782
 50
270.0
  0
INSERT
  5
12C
100
AcDbEntity
  8
16
  6
CONTINUOUS
 62
       7
100
AcDbBlockReference
  2
_OPEN30
 10
28.96818483
 20
-139.16062966
 30
0.0
 41
9.00000836
 42
8.99996782
 50
90.0
  0
LINE
  5
12D
100
AcDbEntity
  8
16
  6
CONTINUOUS
 62
       7
100
AcDbLine
 10
88.61124132
 20
-199.16062966
 30
0.0
 11
24.46818483
 21
-199.16062966
 31
0.0
  0
LINE
  5
12E
100
AcDbEntity
  8
16
  6
CONTINUOUS
 62
       7
100
AcDbLine
 10
88.61124132
 20
-139.16062966
 30
0.0
 11
24.46818483
 21
-139.16062966
 31
0.0
  0
TEXT
  5
12F
100
AcDbEntity
  8
16
 62
       7
100
AcDbText
 10
24.46818483
 20
-178.76062966
 30
0.0
 40
12.0
  1
40
 50
90.0
 41
0.8
 72
       5
 11
24.46818483
 21
-159.56062966
 31
0.0
100
AcDbText
  0
ENDBLK
  5
130
100
AcDbEntity
  8
0
100
AcDbBlockEnd
  0
BLOCK
  5
131
100
AcDbEntity
  8
0
100
AcDbBlockBegin
  2
DA_IMAGEDIMGROUP_5
 70
       0
 10
0.0
 20
0.0
 30
0.0
  3
DA_IMAGEDIMGROUP_5
  1

  0
LINE
  5
132
100
AcDbEntity
  8
16
  6
CONTINUOUS
 62
       7
100
AcDbLine
 10
127.24728029
 20
-104.3422936
 30
0.0
 11
82.24728029
 21
-104.3422936
 31
0.0
  0
INSERT
  5
133
100
AcDbEntity
  8
16
  6
CONTINUOUS
 62
       7
100
AcDbBlockReference
  2
_OPEN30
 10
127.24728029
 20
-104.3422936
 30
0.0
 41
9.00000836
 42
8.99996782
 50
360.0
  0
INSERT
  5
134
100
AcDbEntity
  8
16
  6
CONTINUOUS
 62
       7
100
AcDbBlockReference
  2
_OPEN30
 10
82.24728029
 20
-104.3422936
 30
0.0
 41
9.00000836
 42
8.99996782
 50
180.0
  0
LINE
  5
135
100
AcDbEntity
  8
16
  6
CONTINUOUS
 62
       7
100
AcDbLine
 10
127.24728029
 20
-145.52459069
 30
0.0
 11
127.24728029
 21
-99.8422936
 31
0.0
  0
LINE
  5
136
100
AcDbEntity
  8
16
  6
CONTINUOUS
 62
       7
100
AcDbLine
 10
82.24728029
 20
-145.52459069
 30
0.0
 11
82.24728029
 21
-99.8422936
 31
0.0
  0
TEXT
  5
137
100
AcDbEntity
  8
16
 62
       7
100
AcDbText
 10
95.14728029
 20
-99.8422936
 30
0.0
 40
12.0
  1
30
 41
0.8
 72
       5
 11
114.34728029
 21
-99.8422936
 31
0.0
100
AcDbText
  0
ENDBLK
  5
138
100
AcDbEntity
  8
0
100
AcDbBlockEnd
  0
BLOCK
  5
139
100
AcDbEntity
  8
0
100
AcDbBlockBegin
  2
DA_IMAGEDIMGROUP_6
 70
       0
 10
0.0
 20
0.0
 30
0.0
  3
DA_IMAGEDIMGROUP_6
  1

  0
LINE
  5
13A
100
AcDbEntity
  8
16
  6
CONTINUOUS
 62
       7
100
AcDbLine
 10
202.13986622
 20
-104.3422936
 30
0.0
 11
193.13986622
 21
-104.3422936
 31
0.0
  0
LINE
  5
13B
100
AcDbEntity
  8
16
  6
CONTINUOUS
 62
       7
100
AcDbLine
 10
202.13986622
 20
-140.23630041
 30
0.0
 11
202.13986622
 21
-99.8422936
 31
0.0
  0
LINE
  5
13C
100
AcDbEntity
  8
16
  6
CONTINUOUS
 62
       7
100
AcDbLine
 10
193.13986622
 20
-136.64726175
 30
0.0
 11
193.13986622
 21
-99.8422936
 31
0.0
  0
LINE
  5
13D
100
AcDbEntity
  8
16
  6
CONTINUOUS
 62
       7
100
AcDbLine
 10
232.27987622
 20
-104.3422936
 30
0.0
 11
202.13986622
 21
-104.3422936
 31
0.0
  0
INSERT
  5
13E
100
AcDbEntity
  8
16
  6
CONTINUOUS
 62
       7
100
AcDbBlockReference
  2
_OPEN30
 10
202.13986622
 20
-104.3422936
 30
0.0
 41
9.00000836
 42
8.99996782
 50
180.0
  0
LINE
  5
13F
100
AcDbEntity
  8
16
  6
CONTINUOUS
 62
       7
100
AcDbLine
 10
170.63986622
 20
-104.3422936
 30
0.0
 11
193.13986622
 21
-104.3422936
 31
0.0
  0
INSERT
  5
140
100
AcDbEntity
  8
16
  6
CONTINUOUS
 62
       7
100
AcDbBlockReference
  2
_OPEN30
 10
193.13986622
 20
-104.3422936
 30
0.0
 41
9.00000836
 42
8.99996782
 50
360.0
  0
TEXT
  5
141
100
AcDbEntity
  8
16
 62
       7
100
AcDbText
 10
219.67987622
 20
-99.8422936
 30
0.0
 40
12.0
  1
6
 41
0.8
 72
       5
 11
229.27987622
 21
-99.8422936
 31
0.0
100
AcDbText
  0
ENDBLK
  5
142
100
AcDbEntity
  8
0
100
AcDbBlockEnd
  0
BLOCK
  5
143
100
AcDbEntity
  8
0
100
AcDbBlockBegin
  2
GROUP_26
 70
       0
 10
0.0
 20
0.0
 30
0.0
  3
GROUP_26
  1

  0
LINE
  5
144
100
AcDbEntity
  8
16
  6
CONTINUOUS
 62
       7
100
AcDbLine
 10
101.59130875
 20
-148.15362398
 30
0.0
 11
62.47282806
 21
-96.93713405
 31
0.0
  0
INSERT
  5
145
100
AcDbEntity
  8
16
  6
CONTINUOUS
 62
       7
100
AcDbBlockReference
  2
_OPEN30
 10
101.59130875
 20
-148.15362398
 30
0.0
 41
9.00000836
 42
8.99996782
 50
307.37211472
  0
LINE
  5
146
100
AcDbEntity
  8
16
  6
CONTINUOUS
 62
       7
100
AcDbLine
 10
62.47282806
 20
-96.93713405
 30
0.0
 11
-23.92717194
 21
-96.93713405
 31
0.0
  0
TEXT
  5
147
100
AcDbEntity
  8
16
 62
       7
100
AcDbText
 10
-23.92717194
 20
-96.93713405
 30
0.0
 40
12.0
  1
2-4.8X8長穴
 41
0.7
 72
       5
 11
62.47282806
 21
-96.93713405
 31
0.0
100
AcDbText
  0
ENDBLK
  5
148
100
AcDbEntity
  8
0
100
AcDbBlockEnd
  0
BLOCK
  5
149
100
AcDbEntity
  8
0
100
AcDbBlockBegin
  2
DA_IMAGEDIMGROUP_7
 70
       0
 10
0.0
 20
0.0
 30
0.0
  3
DA_IMAGEDIMGROUP_7
  1

  0
LINE
  5
14A
100
AcDbEntity
  8
16
  6
CONTINUOUS
 62
       7
100
AcDbLine
 10
132.68261645
 20
-218.26484075
 30
0.0
 11
106.49032428
 21
-172.22451978
 31
0.0
  0
INSERT
  5
14B
100
AcDbEntity
  8
16
  6
CONTINUOUS
 62
       7
100
AcDbBlockReference
  2
_OPEN30
 10
106.49032428
 20
-172.22451978
 30
0.0
 41
9.00000836
 42
8.99996782
 50
119.63550411
  0
LINE
  5
14C
100
AcDbEntity
  8
16
  6
CONTINUOUS
 62
       7
100
AcDbLine
 10
188.81524445
 20
-218.26484075
 30
0.0
 11
132.68261645
 21
-218.26484075
 31
0.0
  0
LINE
  5
14D
100
AcDbEntity
  8
16
  6
CONTINUOUS
 62
       7
100
AcDbLine
 10
104.74728029
 20
-169.16062966
 30
0.0
 11
106.49032428
 21
-172.22451978
 31
0.0
  0
TEXT
  5
14E
100
AcDbEntity
  8
16
 62
       7
100
AcDbText
 10
141.54893045
 20
-215.26484075
 30
0.0
 40
12.0
  1
φ4.7
 41
0.8
 72
       5
 11
179.94893045
 21
-215.26484075
 31
0.0
100
AcDbText
  0
ENDBLK
  5
14F
100
AcDbEntity
  8
0
100
AcDbBlockEnd
  0
BLOCK
  5
150
100
AcDbEntity
  8
0
100
AcDbBlockBegin
  2
GROUP_27
 70
       0
 10
0.0
 20
0.0
 30
0.0
  3
GROUP_27
  1

  0
LINE
  5
151
100
AcDbEntity
  8
240
  6
CONTINUOUS
 62
       7
100
AcDbLine
 10
-163.25292991
 20
179.24894171
 30
0.0
 11
-145.95373792
 21
210.520558
 31
0.0
  0
INSERT
  5
152
100
AcDbEntity
  8
240
  6
CONTINUOUS
 62
       7
100
AcDbBlockReference
  2
_OPEN30
 10
-163.25292991
 20
179.24894171
 30
0.0
 41
9.00000836
 42
8.99996782
 50
241.04900479
  0
CIRCLE
  5
153
100
AcDbEntity
  8
240
  6
CONTINUOUS
 62
       7
100
AcDbCircle
 10
-140.1450013
 20
221.02096651
 30
0.0
 40
12.0
  0
TEXT
  5
154
100
AcDbEntity
  8
240
 62
       7
100
AcDbText
 10
-144.9450013
 20
215.02096651
 30
0.0
 40
12.0
  1
2
 41
0.8
 72
       5
 11
-135.3450013
 21
215.02096651
 31
0.0
100
AcDbText
  0
ENDBLK
  5
155
100
AcDbEntity
  8
0
100
AcDbBlockEnd
  0
BLOCK
  5
156
100
AcDbEntity
  8
0
100
AcDbBlockBegin
  2
GROUP_28
 70
       0
 10
0.0
 20
0.0
 30
0.0
  3
GROUP_28
  1

  0
CIRCLE
  5
157
100
AcDbEntity
  8
240
  6
CONTINUOUS
 62
       7
100
AcDbCircle
 10
-5.17923244
 20
-202.85680466
 30
0.0
 40
12.0
  0
TEXT
  5
158
100
AcDbEntity
  8
240
 62
       7
100
AcDbText
 10
-9.97923244
 20
-208.85680466
 30
0.0
 40
12.0
  1
3
 41
0.8
 72
       5
 11
-0.37923244
 21
-208.85680466
 31
0.0
100
AcDbText
  0
ENDBLK
  5
159
100
AcDbEntity
  8
0
100
AcDbBlockEnd
  0
BLOCK
  5
15A
100
AcDbEntity
  8
0
100
AcDbBlockBegin
  2
GROUP_29
 70
       0
 10
0.0
 20
0.0
 30
0.0
  3
GROUP_29
  1

  0
LINE
  5
15B
100
AcDbEntity
  8
240
  6
CONTINUOUS
 62
       7
100
AcDbLine
 10
67.01541111
 20
-11.09531378
 30
0.0
 11
95.65384189
 21
-38.0439403
 31
0.0
  0
INSERT
  5
15C
100
AcDbEntity
  8
240
  6
CONTINUOUS
 62
       7
100
AcDbBlockReference
  2
_OPEN30
 10
67.01541111
 20
-11.09531378
 30
0.0
 41
9.00000836
 42
8.99996782
 50
136.74121189
  0
CIRCLE
  5
15D
100
AcDbEntity
  8
240
  6
CONTINUOUS
 62
       7
100
AcDbCircle
 10
104.39303229
 20
-46.26747671
 30
0.0
 40
12.0
  0
TEXT
  5
15E
100
AcDbEntity
  8
240
 62
       7
100
AcDbText
 10
99.59303229
 20
-52.26747671
 30
0.0
 40
12.0
  1
4
 41
0.8
 72
       5
 11
109.19303229
 21
-52.26747671
 31
0.0
100
AcDbText
  0
ENDBLK
  5
15F
100
AcDbEntity
  8
0
100
AcDbBlockEnd
  0
BLOCK
  5
160
100
AcDbEntity
  8
0
100
AcDbBlockBegin
  2
DA_IMAGEDIMGROUP_8
 70
       0
 10
0.0
 20
0.0
 30
0.0
  3
DA_IMAGEDIMGROUP_8
  1

  0
LINE
  5
161
100
AcDbEntity
  8
16
  6
CONTINUOUS
 62
       7
100
AcDbLine
 10
123.98305085
 20
167.32394171
 30
0.0
 11
123.98305085
 21
282.82394171
 31
0.0
  0
INSERT
  5
162
100
AcDbEntity
  8
16
  6
CONTINUOUS
 62
       7
100
AcDbBlockReference
  2
_OPEN30
 10
123.98305085
 20
167.32394171
 30
0.0
 41
9.00000836
 42
8.99996782
 50
270.0
  0
INSERT
  5
163
100
AcDbEntity
  8
16
  6
CONTINUOUS
 62
       7
100
AcDbBlockReference
  2
_OPEN30
 10
123.98305085
 20
282.82394171
 30
0.0
 41
9.00000836
 42
8.99996782
 50
90.0
  0
LINE
  5
164
100
AcDbEntity
  8
16
  6
CONTINUOUS
 62
       7
100
AcDbLine
 10
91.67771171
 20
167.32394171
 30
0.0
 11
126.98305085
 21
167.32394171
 31
0.0
  0
LINE
  5
165
100
AcDbEntity
  8
16
  6
CONTINUOUS
 62
       7
100
AcDbLine
 10
112.01647836
 20
282.82394171
 30
0.0
 11
126.98305085
 21
282.82394171
 31
0.0
  0
TEXT
  5
166
100
AcDbEntity
  8
16
 62
       7
100
AcDbText
 10
120.98305085
 20
215.47394171
 30
0.0
 40
12.0
  1
77
 50
90.0
 41
0.8
 72
       5
 11
120.98305085
 21
234.67394171
 31
0.0
100
AcDbText
  0
ENDBLK
  5
167
100
AcDbEntity
  8
0
100
AcDbBlockEnd
  0
BLOCK
  5
168
100
AcDbEntity
  8
0
100
AcDbBlockBegin
  2
DA_IMAGEDIMGROUP_9
 70
       0
 10
0.0
 20
0.0
 30
0.0
  3
DA_IMAGEDIMGROUP_9
  1

  0
LINE
  5
169
100
AcDbEntity
  8
16
  6
CONTINUOUS
 62
       7
100
AcDbLine
 10
172.9828172
 20
309.76915219
 30
0.0
 11
262.98388445
 21
309.76915219
 31
0.0
  0
INSERT
  5
16A
100
AcDbEntity
  8
16
  6
CONTINUOUS
 62
       7
100
AcDbBlockReference
  2
_OPEN30
 10
172.9828172
 20
309.76915219
 30
0.0
 41
9.00000836
 42
8.99996782
 50
180.0
  0
INSERT
  5
16B
100
AcDbEntity
  8
16
  6
CONTINUOUS
 62
       7
100
AcDbBlockReference
  2
_OPEN30
 10
262.98388445
 20
309.76915219
 30
0.0
 41
9.00000836
 42
8.99996782
 50
360.0
  0
LINE
  5
16C
100
AcDbEntity
  8
16
  6
CONTINUOUS
 62
       7
100
AcDbLine
 10
172.9828172
 20
287.32394171
 30
0.0
 11
172.9828172
 21
314.26915219
 31
0.0
  0
LINE
  5
16D
100
AcDbEntity
  8
16
  6
CONTINUOUS
 62
       7
100
AcDbLine
 10
262.98388445
 20
287.21808791
 30
0.0
 11
262.98388445
 21
314.26915219
 31
0.0
  0
TEXT
  5
16E
100
AcDbEntity
  8
16
 62
       7
100
AcDbText
 10
203.87248912
 20
312.76915219
 30
0.0
 40
12.0
  1
φ60
 41
0.8
 72
       5
 11
232.67248912
 21
312.76915219
 31
0.0
100
AcDbText
  0
ENDBLK
  5
16F
100
AcDbEntity
  8
0
100
AcDbBlockEnd
  0
BLOCK
  5
170
100
AcDbEntity
  8
0
100
AcDbBlockBegin
  2
GROUP_30
 70
       0
 10
0.0
 20
0.0
 30
0.0
  3
GROUP_30
  1

  0
LINE
  5
171
100
AcDbEntity
  8
240
  6
CONTINUOUS
 62
       7
100
AcDbLine
 10
51.23395057
 20
211.77528588
 30
0.0
 11
31.82129211
 21
217.58204852
 31
0.0
  0
INSERT
  5
172
100
AcDbEntity
  8
240
  6
CONTINUOUS
 62
       7
100
AcDbBlockReference
  2
_OPEN30
 10
51.23395057
 20
211.77528588
 30
0.0
 41
9.00000836
 42
8.99996782
 50
343.34689343
  0
CIRCLE
  5
173
100
AcDbEntity
  8
240
  6
CONTINUOUS
 62
       7
100
AcDbCircle
 10
20.32460376
 20
221.02096651
 30
0.0
 40
12.0
  0
TEXT
  5
174
100
AcDbEntity
  8
240
 62
       7
100
AcDbText
 10
15.52460376
 20
215.02096651
 30
0.0
 40
12.0
  1
1
 41
0.8
 72
       5
 11
25.12460376
 21
215.02096651
 31
0.0
100
AcDbText
  0
ENDBLK
  5
175
100
AcDbEntity
  8
0
100
AcDbBlockEnd
  0
BLOCK
  5
176
100
AcDbEntity
  8
0
100
AcDbBlockBegin
  2
DA_IMAGEDIMGROUP_10
 70
       0
 10
0.0
 20
0.0
 30
0.0
  3
DA_IMAGEDIMGROUP_10
  1

  0
LINE
  5
177
100
AcDbEntity
  8
16
  6
CONTINUOUS
 62
       7
100
AcDbLine
 10
-198.97458994
 20
309.76915219
 30
0.0
 11
67.01541111
 21
309.76915219
 31
0.0
  0
INSERT
  5
178
100
AcDbEntity
  8
16
  6
CONTINUOUS
 62
       7
100
AcDbBlockReference
  2
_OPEN30
 10
-198.97458994
 20
309.76915219
 30
0.0
 41
9.00000836
 42
8.99996782
 50
180.0
  0
INSERT
  5
179
100
AcDbEntity
  8
16
  6
CONTINUOUS
 62
       7
100
AcDbBlockReference
  2
_OPEN30
 10
67.01541111
 20
309.76915219
 30
0.0
 41
9.00000836
 42
8.99996782
 50
360.0
  0
LINE
  5
17A
100
AcDbEntity
  8
16
  6
CONTINUOUS
 62
       7
100
AcDbLine
 10
-198.97458994
 20
290.32394171
 30
0.0
 11
-198.97458994
 21
312.76915219
 31
0.0
  0
LINE
  5
17B
100
AcDbEntity
  8
16
  6
CONTINUOUS
 62
       7
100
AcDbLine
 10
67.01541111
 20
290.32394171
 30
0.0
 11
67.01541111
 21
312.76915219
 31
0.0
  0
TEXT
  5
17C
100
AcDbEntity
  8
16
 62
       7
100
AcDbText
 10
-80.37958942
 20
312.76915219
 30
0.0
 40
12.0
  1
390
 41
0.8
 72
       5
 11
-51.57958942
 21
312.76915219
 31
0.0
100
AcDbText
  0
ENDBLK
  5
17D
100
AcDbEntity
  8
0
100
AcDbBlockEnd
  0
ENDSEC
  0
SECTION
  2
ENTITIES
  0
LINE
  5
17E
100
AcDbEntity
  8
0
  6
CONTINUOUS
 62
       7
100
AcDbLine
 10
-169.87781536
 20
-415.67412988
 30
0.0
 11
-168.19031536
 21
-410.98662988
 31
0.0
  0
LINE
  5
17F
100
AcDbEntity
  8
0
  6
CONTINUOUS
 62
       7
100
AcDbLine
 10
-182.36531536
 20
-415.67412988
 30
0.0
 11
-179.74031536
 21
-408.54912988
 31
0.0
  0
LINE
  5
180
100
AcDbEntity
  8
0
  6
CONTINUOUS
 62
       7
100
AcDbLine
 10
-184.80281536
 20
-405.92412988
 30
0.0
 11
-185.74031536
 21
-408.54912988
 31
0.0
  0
LINE
  5
181
100
AcDbEntity
  8
0
  6
CONTINUOUS
 62
       7
100
AcDbLine
 10
-176.17781536
 20
-415.67412988
 30
0.0
 11
-173.36531536
 21
-407.42412988
 31
0.0
  0
LINE
  5
182
100
AcDbEntity
  8
0
  6
CONTINUOUS
 62
       7
100
AcDbLine
 10
-136.84031536
 20
-415.67412988
 30
0.0
 11
-140.02781536
 21
-410.42412988
 31
0.0
  0
LINE
  5
183
100
AcDbEntity
  8
0
  6
CONTINUOUS
 62
       7
100
AcDbLine
 10
-184.80281536
 20
-405.92412988
 30
0.0
 11
-181.24031536
 21
-405.92412988
 31
0.0
  0
LINE
  5
184
100
AcDbEntity
  8
0
  6
CONTINUOUS
 62
       7
100
AcDbLine
 10
-165.75281536
 20
-404.23662988
 30
0.0
 11
-159.56531536
 21
-404.23662988
 31
0.0
  0
LINE
  5
185
100
AcDbEntity
  8
0
  6
CONTINUOUS
 62
       7
100
AcDbLine
 10
-152.44031536
 20
-403.67412988
 30
0.0
 11
-150.56531536
 21
-403.67412988
 31
0.0
  0
LINE
  5
186
100
AcDbEntity
  8
0
  6
CONTINUOUS
 62
       7
100
AcDbLine
 10
-164.44031536
 20
-400.86162988
 30
0.0
 11
-165.75281536
 21
-404.23662988
 31
0.0
  0
LINE
  5
187
100
AcDbEntity
  8
0
  6
CONTINUOUS
 62
       7
100
AcDbLine
 10
-158.44031536
 20
-400.86162988
 30
0.0
 11
-159.56531536
 21
-404.23662988
 31
0.0
  0
LINE
  5
188
100
AcDbEntity
  8
0
  6
CONTINUOUS
 62
       7
100
AcDbLine
 10
-182.36531536
 20
-415.67412988
 30
0.0
 11
-176.17781536
 21
-415.67412988
 31
0.0
  0
LINE
  5
189
100
AcDbEntity
  8
0
  6
CONTINUOUS
 62
       7
100
AcDbLine
 10
-172.80281536
 20
-400.86162988
 30
0.0
 11
-165.86531536
 21
-400.86162988
 31
0.0
  0
LINE
  5
18A
100
AcDbEntity
  8
0
  6
CONTINUOUS
 62
       7
100
AcDbLine
 10
-142.21803844
 20
-404.23662988
 30
0.0
 11
-148.84031536
 21
-404.23662988
 31
0.0
  0
LINE
  5
18B
100
AcDbEntity
  8
0
  6
CONTINUOUS
 62
       7
100
AcDbLine
 10
-134.96531536
 20
-400.86162988
 30
0.0
 11
-147.71531536
 21
-400.86162988
 31
0.0
  0
LINE
  5
18C
100
AcDbEntity
  8
0
  6
CONTINUOUS
 62
       7
100
AcDbLine
 10
-185.74031536
 20
-408.54912988
 30
0.0
 11
-179.74031536
 21
-408.54912988
 31
0.0
  0
LINE
  5
18D
100
AcDbEntity
  8
0
  6
CONTINUOUS
 62
       7
100
AcDbLine
 10
-169.87781536
 20
-415.67412988
 30
0.0
 11
-159.94031536
 21
-415.67412988
 31
0.0
  0
LINE
  5
18E
100
AcDbEntity
  8
0
  6
CONTINUOUS
 62
       7
100
AcDbLine
 10
-168.19031536
 20
-410.98662988
 30
0.0
 11
-159.19031536
 21
-410.98662988
 31
0.0
  0
LINE
  5
18F
100
AcDbEntity
  8
0
  6
CONTINUOUS
 62
       7
100
AcDbLine
 10
-136.84031536
 20
-415.67412988
 30
0.0
 11
-141.52781536
 21
-415.67412988
 31
0.0
  0
LINE
  5
190
100
AcDbEntity
  8
0
  6
CONTINUOUS
 62
       7
100
AcDbLine
 10
-148.84031536
 20
-404.23662988
 30
0.0
 11
-147.71531536
 21
-400.86162988
 31
0.0
  0
LINE
  5
191
100
AcDbEntity
  8
0
  6
CONTINUOUS
 62
       7
100
AcDbLine
 10
-214.05281536
 20
-400.86162988
 30
0.0
 11
-217.24031536
 21
-409.86162988
 31
0.0
  0
LINE
  5
192
100
AcDbEntity
  8
0
  6
CONTINUOUS
 62
       7
100
AcDbLine
 10
-217.24031536
 20
-409.86162988
 30
0.0
 11
-212.92781536
 21
-409.86162988
 31
0.0
  0
LINE
  5
193
100
AcDbEntity
  8
0
  6
CONTINUOUS
 62
       7
100
AcDbLine
 10
-212.92781536
 20
-409.86162988
 30
0.0
 11
-209.55281536
 21
-400.86162988
 31
0.0
  0
LINE
  5
194
100
AcDbEntity
  8
0
  6
CONTINUOUS
 62
       7
100
AcDbLine
 10
-209.55281536
 20
-400.86162988
 30
0.0
 11
-214.05281536
 21
-400.86162988
 31
0.0
  0
LINE
  5
195
100
AcDbEntity
  8
0
  6
CONTINUOUS
 62
       7
100
AcDbLine
 10
-156.94031536
 20
-409.86162988
 30
0.0
 11
-154.87781536
 21
-408.17412988
 31
0.0
  0
LINE
  5
196
100
AcDbEntity
  8
0
  6
CONTINUOUS
 62
       7
100
AcDbLine
 10
-154.87781536
 20
-408.17412988
 30
0.0
 11
-153.37781536
 21
-406.11162988
 31
0.0
  0
LINE
  5
197
100
AcDbEntity
  8
0
  6
CONTINUOUS
 62
       7
100
AcDbLine
 10
-153.37781536
 20
-406.11162988
 30
0.0
 11
-152.44031536
 21
-403.67412988
 31
0.0
  0
LINE
  5
198
100
AcDbEntity
  8
0
  6
CONTINUOUS
 62
       7
100
AcDbLine
 10
-198.64031536
 20
-400.86162988
 30
0.0
 11
-184.95281536
 21
-400.86162988
 31
0.0
  0
LINE
  5
199
100
AcDbEntity
  8
0
  6
CONTINUOUS
 62
       7
100
AcDbLine
 10
-184.95281536
 20
-400.86162988
 30
0.0
 11
-186.07781536
 21
-404.23662988
 31
0.0
  0
LINE
  5
19A
100
AcDbEntity
  8
0
  6
CONTINUOUS
 62
       7
100
AcDbLine
 10
-184.95281536
 20
-400.86162988
 30
0.0
 11
-186.07781536
 21
-404.23662988
 31
0.0
  0
LINE
  5
19B
100
AcDbEntity
  8
0
  6
CONTINUOUS
 62
       7
100
AcDbLine
 10
-186.07781536
 20
-404.23662988
 30
0.0
 11
-199.76531536
 21
-404.23662988
 31
0.0
  0
LINE
  5
19C
100
AcDbEntity
  8
0
  6
CONTINUOUS
 62
       7
100
AcDbLine
 10
-199.76531536
 20
-404.23662988
 30
0.0
 11
-198.64031536
 21
-400.86162988
 31
0.0
  0
LINE
  5
19D
100
AcDbEntity
  8
0
  6
CONTINUOUS
 62
       7
100
AcDbLine
 10
-199.76531536
 20
-404.23662988
 30
0.0
 11
-198.64031536
 21
-400.86162988
 31
0.0
  0
LINE
  5
19E
100
AcDbEntity
  8
0
  6
CONTINUOUS
 62
       7
100
AcDbLine
 10
-184.95281536
 20
-400.86162988
 30
0.0
 11
-198.64031536
 21
-400.86162988
 31
0.0
  0
LINE
  5
19F
100
AcDbEntity
  8
0
  6
CONTINUOUS
 62
       7
100
AcDbLine
 10
-198.64031536
 20
-400.86162988
 30
0.0
 11
-199.76531536
 21
-404.23662988
 31
0.0
  0
LINE
  5
1A0
100
AcDbEntity
  8
0
  6
CONTINUOUS
 62
       7
100
AcDbLine
 10
-199.76531536
 20
-404.23662988
 30
0.0
 11
-186.07781536
 21
-404.23662988
 31
0.0
  0
LINE
  5
1A1
100
AcDbEntity
  8
0
  6
CONTINUOUS
 62
       7
100
AcDbLine
 10
-192.82781536
 20
-415.29912988
 30
0.0
 11
-191.32781536
 21
-414.54912988
 31
0.0
  0
LINE
  5
1A2
100
AcDbEntity
  8
0
  6
CONTINUOUS
 62
       7
100
AcDbLine
 10
-191.32781536
 20
-414.54912988
 30
0.0
 11
-190.20281536
 21
-413.42412988
 31
0.0
  0
LINE
  5
1A3
100
AcDbEntity
  8
0
  6
CONTINUOUS
 62
       7
100
AcDbLine
 10
-190.20281536
 20
-413.42412988
 30
0.0
 11
-188.89031536
 21
-412.11162988
 31
0.0
  0
LINE
  5
1A4
100
AcDbEntity
  8
0
  6
CONTINUOUS
 62
       7
100
AcDbLine
 10
-188.89031536
 20
-412.11162988
 30
0.0
 11
-186.64031536
 21
-405.92412988
 31
0.0
  0
LINE
  5
1A5
100
AcDbEntity
  8
0
  6
CONTINUOUS
 62
       7
100
AcDbLine
 10
-186.64031536
 20
-405.92412988
 30
0.0
 11
-200.14031536
 21
-405.92412988
 31
0.0
  0
LINE
  5
1A6
100
AcDbEntity
  8
0
  6
CONTINUOUS
 62
       7
100
AcDbLine
 10
-200.14031536
 20
-405.92412988
 30
0.0
 11
-200.89031536
 21
-408.54912988
 31
0.0
  0
LINE
  5
1A7
100
AcDbEntity
  8
0
  6
CONTINUOUS
 62
       7
100
AcDbLine
 10
-200.89031536
 20
-408.54912988
 30
0.0
 11
-193.01531536
 21
-408.54912988
 31
0.0
  0
LINE
  5
1A8
100
AcDbEntity
  8
0
  6
CONTINUOUS
 62
       7
100
AcDbLine
 10
-193.01531536
 20
-408.54912988
 30
0.0
 11
-193.39031536
 21
-409.86162988
 31
0.0
  0
LINE
  5
1A9
100
AcDbEntity
  8
0
  6
CONTINUOUS
 62
       7
100
AcDbLine
 10
-193.39031536
 20
-409.86162988
 30
0.0
 11
-194.32781536
 21
-410.98662988
 31
0.0
  0
LINE
  5
1AA
100
AcDbEntity
  8
0
  6
CONTINUOUS
 62
       7
100
AcDbLine
 10
-194.32781536
 20
-410.98662988
 30
0.0
 11
-195.26531536
 21
-411.92412988
 31
0.0
  0
LINE
  5
1AB
100
AcDbEntity
  8
0
  6
CONTINUOUS
 62
       7
100
AcDbLine
 10
-195.26531536
 20
-411.92412988
 30
0.0
 11
-196.57781536
 21
-412.86162988
 31
0.0
  0
LINE
  5
1AC
100
AcDbEntity
  8
0
  6
CONTINUOUS
 62
       7
100
AcDbLine
 10
-196.57781536
 20
-412.86162988
 30
0.0
 11
-202.76531536
 21
-412.86162988
 31
0.0
  0
LINE
  5
1AD
100
AcDbEntity
  8
0
  6
CONTINUOUS
 62
       7
100
AcDbLine
 10
-202.76531536
 20
-412.86162988
 30
0.0
 11
-203.89031536
 21
-415.67412988
 31
0.0
  0
LINE
  5
1AE
100
AcDbEntity
  8
0
  6
CONTINUOUS
 62
       7
100
AcDbLine
 10
-215.92781536
 20
-415.67412988
 30
0.0
 11
-214.99031536
 21
-412.86162988
 31
0.0
  0
LINE
  5
1AF
100
AcDbEntity
  8
0
  6
CONTINUOUS
 62
       7
100
AcDbLine
 10
-214.99031536
 20
-412.86162988
 30
0.0
 11
-213.30281536
 21
-412.86162988
 31
0.0
  0
LINE
  5
1B0
100
AcDbEntity
  8
0
  6
CONTINUOUS
 62
       7
100
AcDbLine
 10
-213.30281536
 20
-412.86162988
 30
0.0
 11
-211.80281536
 21
-412.67412988
 31
0.0
  0
LINE
  5
1B1
100
AcDbEntity
  8
0
  6
CONTINUOUS
 62
       7
100
AcDbLine
 10
-211.80281536
 20
-412.67412988
 30
0.0
 11
-210.30281536
 21
-411.92412988
 31
0.0
  0
LINE
  5
1B2
100
AcDbEntity
  8
0
  6
CONTINUOUS
 62
       7
100
AcDbLine
 10
-210.30281536
 20
-411.92412988
 30
0.0
 11
-209.36531536
 21
-410.42412988
 31
0.0
  0
LINE
  5
1B3
100
AcDbEntity
  8
0
  6
CONTINUOUS
 62
       7
100
AcDbLine
 10
-209.36531536
 20
-410.42412988
 30
0.0
 11
-205.80281536
 21
-400.86162988
 31
0.0
  0
LINE
  5
1B4
100
AcDbEntity
  8
0
  6
CONTINUOUS
 62
       7
100
AcDbLine
 10
-205.80281536
 20
-400.86162988
 30
0.0
 11
-200.74031536
 21
-400.86162988
 31
0.0
  0
LINE
  5
1B5
100
AcDbEntity
  8
0
  6
CONTINUOUS
 62
       7
100
AcDbLine
 10
-200.74031536
 20
-400.86162988
 30
0.0
 11
-204.49031536
 21
-411.92412988
 31
0.0
  0
LINE
  5
1B6
100
AcDbEntity
  8
0
  6
CONTINUOUS
 62
       7
100
AcDbLine
 10
-204.49031536
 20
-411.92412988
 30
0.0
 11
-205.99031536
 21
-413.42412988
 31
0.0
  0
LINE
  5
1B7
100
AcDbEntity
  8
0
  6
CONTINUOUS
 62
       7
100
AcDbLine
 10
-205.99031536
 20
-413.42412988
 30
0.0
 11
-207.49031536
 21
-414.73662988
 31
0.0
  0
LINE
  5
1B8
100
AcDbEntity
  8
0
  6
CONTINUOUS
 62
       7
100
AcDbLine
 10
-207.49031536
 20
-414.73662988
 30
0.0
 11
-209.36531536
 21
-415.48662988
 31
0.0
  0
LINE
  5
1B9
100
AcDbEntity
  8
0
  6
CONTINUOUS
 62
       7
100
AcDbLine
 10
-165.86531536
 20
-400.86162988
 30
0.0
 11
-166.99031536
 21
-403.29912988
 31
0.0
  0
LINE
  5
1BA
100
AcDbEntity
  8
0
  6
CONTINUOUS
 62
       7
100
AcDbLine
 10
-166.99031536
 20
-403.29912988
 30
0.0
 11
-168.86531536
 21
-405.17412988
 31
0.0
  0
LINE
  5
1BB
100
AcDbEntity
  8
0
  6
CONTINUOUS
 62
       7
100
AcDbLine
 10
-166.99031536
 20
-403.29912988
 30
0.0
 11
-168.86531536
 21
-405.17412988
 31
0.0
  0
LINE
  5
1BC
100
AcDbEntity
  8
0
  6
CONTINUOUS
 62
       7
100
AcDbLine
 10
-168.86531536
 20
-405.17412988
 30
0.0
 11
-170.92781536
 21
-406.67412988
 31
0.0
  0
LINE
  5
1BD
100
AcDbEntity
  8
0
  6
CONTINUOUS
 62
       7
100
AcDbLine
 10
-170.92781536
 20
-406.67412988
 30
0.0
 11
-173.36531536
 21
-407.42412988
 31
0.0
  0
LINE
  5
1BE
100
AcDbEntity
  8
0
  6
CONTINUOUS
 62
       7
100
AcDbLine
 10
-170.92781536
 20
-406.67412988
 30
0.0
 11
-173.36531536
 21
-407.42412988
 31
0.0
  0
LINE
  5
1BF
100
AcDbEntity
  8
0
  6
CONTINUOUS
 62
       7
100
AcDbLine
 10
-173.36531536
 20
-407.42412988
 30
0.0
 11
-176.17781536
 21
-415.67412988
 31
0.0
  0
LINE
  5
1C0
100
AcDbEntity
  8
0
  6
CONTINUOUS
 62
       7
100
AcDbLine
 10
-176.17781536
 20
-415.67412988
 30
0.0
 11
-182.36531536
 21
-415.67412988
 31
0.0
  0
LINE
  5
1C1
100
AcDbEntity
  8
0
  6
CONTINUOUS
 62
       7
100
AcDbLine
 10
-176.17781536
 20
-415.67412988
 30
0.0
 11
-182.36531536
 21
-415.67412988
 31
0.0
  0
LINE
  5
1C2
100
AcDbEntity
  8
0
  6
CONTINUOUS
 62
       7
100
AcDbLine
 10
-180.04031536
 20
-408.54912988
 30
0.0
 11
-185.74031536
 21
-408.54912988
 31
0.0
  0
LINE
  5
1C3
100
AcDbEntity
  8
0
  6
CONTINUOUS
 62
       7
100
AcDbLine
 10
-185.74031536
 20
-408.54912988
 30
0.0
 11
-184.80281536
 21
-405.92412988
 31
0.0
  0
LINE
  5
1C4
100
AcDbEntity
  8
0
  6
CONTINUOUS
 62
       7
100
AcDbLine
 10
-182.36531536
 20
-415.67412988
 30
0.0
 11
-179.74031536
 21
-408.54912988
 31
0.0
  0
LINE
  5
1C5
100
AcDbEntity
  8
0
  6
CONTINUOUS
 62
       7
100
AcDbLine
 10
-182.36531536
 20
-415.67412988
 30
0.0
 11
-179.74031536
 21
-408.54912988
 31
0.0
  0
LINE
  5
1C6
100
AcDbEntity
  8
0
  6
CONTINUOUS
 62
       7
100
AcDbLine
 10
-184.80281536
 20
-405.92412988
 30
0.0
 11
-181.24031536
 21
-405.92412988
 31
0.0
  0
LINE
  5
1C7
100
AcDbEntity
  8
0
  6
CONTINUOUS
 62
       7
100
AcDbLine
 10
-184.80281536
 20
-405.92412988
 30
0.0
 11
-181.24031536
 21
-405.92412988
 31
0.0
  0
LINE
  5
1C8
100
AcDbEntity
  8
0
  6
CONTINUOUS
 62
       7
100
AcDbLine
 10
-181.24031536
 20
-405.92412988
 30
0.0
 11
-178.80281536
 21
-405.73662988
 31
0.0
  0
LINE
  5
1C9
100
AcDbEntity
  8
0
  6
CONTINUOUS
 62
       7
100
AcDbLine
 10
-181.24031536
 20
-405.92412988
 30
0.0
 11
-178.80281536
 21
-405.73662988
 31
0.0
  0
LINE
  5
1CA
100
AcDbEntity
  8
0
  6
CONTINUOUS
 62
       7
100
AcDbLine
 10
-178.80281536
 20
-405.73662988
 30
0.0
 11
-176.17781536
 21
-404.61162988
 31
0.0
  0
LINE
  5
1CB
100
AcDbEntity
  8
0
  6
CONTINUOUS
 62
       7
100
AcDbLine
 10
-178.80281536
 20
-405.73662988
 30
0.0
 11
-176.17781536
 21
-404.61162988
 31
0.0
  0
LINE
  5
1CC
100
AcDbEntity
  8
0
  6
CONTINUOUS
 62
       7
100
AcDbLine
 10
-176.17781536
 20
-404.61162988
 30
0.0
 11
-174.30281536
 21
-402.92412988
 31
0.0
  0
LINE
  5
1CD
100
AcDbEntity
  8
0
  6
CONTINUOUS
 62
       7
100
AcDbLine
 10
-176.17781536
 20
-404.61162988
 30
0.0
 11
-174.30281536
 21
-402.92412988
 31
0.0
  0
LINE
  5
1CE
100
AcDbEntity
  8
0
  6
CONTINUOUS
 62
       7
100
AcDbLine
 10
-209.55281536
 20
-400.86162988
 30
0.0
 11
-212.92781536
 21
-409.86162988
 31
0.0
  0
LINE
  5
1CF
100
AcDbEntity
  8
0
  6
CONTINUOUS
 62
       7
100
AcDbLine
 10
-212.92781536
 20
-409.86162988
 30
0.0
 11
-217.24031536
 21
-409.86162988
 31
0.0
  0
LINE
  5
1D0
100
AcDbEntity
  8
0
  6
CONTINUOUS
 62
       7
100
AcDbLine
 10
-212.92781536
 20
-409.86162988
 30
0.0
 11
-217.24031536
 21
-409.86162988
 31
0.0
  0
LINE
  5
1D1
100
AcDbEntity
  8
0
  6
CONTINUOUS
 62
       7
100
AcDbLine
 10
-217.24031536
 20
-409.86162988
 30
0.0
 11
-214.05281536
 21
-400.86162988
 31
0.0
  0
LINE
  5
1D2
100
AcDbEntity
  8
0
  6
CONTINUOUS
 62
       7
100
AcDbLine
 10
-214.05281536
 20
-400.86162988
 30
0.0
 11
-209.55281536
 21
-400.86162988
 31
0.0
  0
LINE
  5
1D3
100
AcDbEntity
  8
0
  6
CONTINUOUS
 62
       7
100
AcDbLine
 10
-214.05281536
 20
-400.86162988
 30
0.0
 11
-209.55281536
 21
-400.86162988
 31
0.0
  0
LINE
  5
1D4
100
AcDbEntity
  8
0
  6
CONTINUOUS
 62
       7
100
AcDbLine
 10
-147.71531536
 20
-400.86162988
 30
0.0
 11
-148.84031536
 21
-404.23662988
 31
0.0
  0
LINE
  5
1D5
100
AcDbEntity
  8
0
  6
CONTINUOUS
 62
       7
100
AcDbLine
 10
-148.84031536
 20
-404.23662988
 30
0.0
 11
-142.84031536
 21
-404.23662988
 31
0.0
  0
LINE
  5
1D6
100
AcDbEntity
  8
0
  6
CONTINUOUS
 62
       7
100
AcDbLine
 10
-148.84031536
 20
-404.23662988
 30
0.0
 11
-142.84031536
 21
-404.23662988
 31
0.0
  0
LINE
  5
1D7
100
AcDbEntity
  8
0
  6
CONTINUOUS
 62
       7
100
AcDbLine
 10
-152.96531536
 20
-412.67412988
 30
0.0
 11
-154.09031536
 21
-415.86162988
 31
0.0
  0
LINE
  5
1D8
100
AcDbEntity
  8
0
  6
CONTINUOUS
 62
       7
100
AcDbLine
 10
-152.96531536
 20
-412.67412988
 30
0.0
 11
-154.09031536
 21
-415.86162988
 31
0.0
  0
LINE
  5
1D9
100
AcDbEntity
  8
0
  6
CONTINUOUS
 62
       7
100
AcDbLine
 10
-154.09031536
 20
-415.86162988
 30
0.0
 11
-148.46531536
 21
-414.92412988
 31
0.0
  0
LINE
  5
1DA
100
AcDbEntity
  8
0
  6
CONTINUOUS
 62
       7
100
AcDbLine
 10
-148.46531536
 20
-414.92412988
 30
0.0
 11
-145.84031536
 21
-414.17412988
 31
0.0
  0
LINE
  5
1DB
100
AcDbEntity
  8
0
  6
CONTINUOUS
 62
       7
100
AcDbLine
 10
-148.46531536
 20
-414.92412988
 30
0.0
 11
-145.84031536
 21
-414.17412988
 31
0.0
  0
LINE
  5
1DC
100
AcDbEntity
  8
0
  6
CONTINUOUS
 62
       7
100
AcDbLine
 10
-143.02781536
 20
-413.23662988
 30
0.0
 11
-141.52781536
 21
-415.67412988
 31
0.0
  0
LINE
  5
1DD
100
AcDbEntity
  8
0
  6
CONTINUOUS
 62
       7
100
AcDbLine
 10
-141.52781536
 20
-415.67412988
 30
0.0
 11
-136.84031536
 21
-415.67412988
 31
0.0
  0
LINE
  5
1DE
100
AcDbEntity
  8
0
  6
CONTINUOUS
 62
       7
100
AcDbLine
 10
-141.52781536
 20
-415.67412988
 30
0.0
 11
-136.84031536
 21
-415.67412988
 31
0.0
  0
LINE
  5
1DF
100
AcDbEntity
  8
0
  6
CONTINUOUS
 62
       7
100
AcDbLine
 10
-140.02781536
 20
-410.42412988
 30
0.0
 11
-138.34031536
 21
-408.17412988
 31
0.0
  0
LINE
  5
1E0
100
AcDbEntity
  8
0
  6
CONTINUOUS
 62
       7
100
AcDbLine
 10
-138.34031536
 20
-408.17412988
 30
0.0
 11
-136.84031536
 21
-405.92412988
 31
0.0
  0
LINE
  5
1E1
100
AcDbEntity
  8
0
  6
CONTINUOUS
 62
       7
100
AcDbLine
 10
-136.84031536
 20
-405.92412988
 30
0.0
 11
-135.71531536
 21
-403.48662988
 31
0.0
  0
LINE
  5
1E2
100
AcDbEntity
  8
0
  6
CONTINUOUS
 62
       7
100
AcDbLine
 10
-135.71531536
 20
-403.48662988
 30
0.0
 11
-134.96531536
 21
-400.86162988
 31
0.0
  0
LINE
  5
1E3
100
AcDbEntity
  8
0
  6
CONTINUOUS
 62
       7
100
AcDbLine
 10
-135.71531536
 20
-403.48662988
 30
0.0
 11
-134.96531536
 21
-400.86162988
 31
0.0
  0
LINE
  5
1E4
100
AcDbEntity
  8
0
  6
CONTINUOUS
 62
       7
100
AcDbLine
 10
-134.96531536
 20
-400.86162988
 30
0.0
 11
-147.71531536
 21
-400.86162988
 31
0.0
  0
LINE
  5
1E5
100
AcDbEntity
  8
0
  6
CONTINUOUS
 62
       7
100
AcDbLine
 10
-146.40281536
 20
-410.23662988
 30
0.0
 11
-149.40281536
 21
-411.92412988
 31
0.0
  0
LINE
  5
1E6
100
AcDbEntity
  8
0
  6
CONTINUOUS
 62
       7
100
AcDbLine
 10
-145.84031536
 20
-414.17412988
 30
0.0
 11
-143.02781536
 21
-413.23662988
 31
0.0
  0
LINE
  5
1E7
100
AcDbEntity
  8
0
  6
CONTINUOUS
 62
       7
100
AcDbLine
 10
-145.84031536
 20
-414.17412988
 30
0.0
 11
-143.02781536
 21
-413.23662988
 31
0.0
  0
LINE
  5
1E8
100
AcDbEntity
  8
0
  6
CONTINUOUS
 62
       7
100
AcDbLine
 10
-136.84031536
 20
-415.67412988
 30
0.0
 11
-140.02781536
 21
-410.42412988
 31
0.0
  0
LINE
  5
1E9
100
AcDbEntity
  8
0
  6
CONTINUOUS
 62
       7
100
AcDbLine
 10
-136.84031536
 20
-415.67412988
 30
0.0
 11
-140.02781536
 21
-410.42412988
 31
0.0
  0
LINE
  5
1EA
100
AcDbEntity
  8
0
  6
CONTINUOUS
 62
       7
100
AcDbLine
 10
-143.96531536
 20
-407.42412988
 30
0.0
 11
-146.40281536
 21
-410.23662988
 31
0.0
  0
LINE
  5
1EB
100
AcDbEntity
  8
0
  6
CONTINUOUS
 62
       7
100
AcDbLine
 10
-143.96531536
 20
-407.42412988
 30
0.0
 11
-146.40281536
 21
-410.23662988
 31
0.0
  0
LINE
  5
1EC
100
AcDbEntity
  8
0
  6
CONTINUOUS
 62
       7
100
AcDbLine
 10
-181.24031536
 20
-405.92412988
 30
0.0
 11
-178.80281536
 21
-405.73662988
 31
0.0
  0
LINE
  5
1ED
100
AcDbEntity
  8
0
  6
CONTINUOUS
 62
       7
100
AcDbLine
 10
-178.80281536
 20
-405.73662988
 30
0.0
 11
-176.17781536
 21
-404.61162988
 31
0.0
  0
LINE
  5
1EE
100
AcDbEntity
  8
0
  6
CONTINUOUS
 62
       7
100
AcDbLine
 10
-176.17781536
 20
-404.61162988
 30
0.0
 11
-174.30281536
 21
-402.92412988
 31
0.0
  0
LINE
  5
1EF
100
AcDbEntity
  8
0
  6
CONTINUOUS
 62
       7
100
AcDbLine
 10
-174.30281536
 20
-402.92412988
 30
0.0
 11
-172.80281536
 21
-400.86162988
 31
0.0
  0
LINE
  5
1F0
100
AcDbEntity
  8
0
  6
CONTINUOUS
 62
       7
100
AcDbLine
 10
-159.94031536
 20
-415.67412988
 30
0.0
 11
-156.56531536
 21
-414.17412988
 31
0.0
  0
LINE
  5
1F1
100
AcDbEntity
  8
0
  6
CONTINUOUS
 62
       7
100
AcDbLine
 10
-156.56531536
 20
-414.17412988
 30
0.0
 11
-153.56531536
 21
-411.36162988
 31
0.0
  0
LINE
  5
1F2
100
AcDbEntity
  8
0
  6
CONTINUOUS
 62
       7
100
AcDbLine
 10
-153.56531536
 20
-411.36162988
 30
0.0
 11
-151.31531536
 21
-407.61162988
 31
0.0
  0
LINE
  5
1F3
100
AcDbEntity
  8
0
  6
CONTINUOUS
 62
       7
100
AcDbLine
 10
-151.31531536
 20
-407.61162988
 30
0.0
 11
-150.56531536
 21
-403.67412988
 31
0.0
  0
LINE
  5
1F4
100
AcDbEntity
  8
0
  6
CONTINUOUS
 62
       7
100
AcDbLine
 10
-152.96531536
 20
-412.67412988
 30
0.0
 11
-149.40281536
 21
-411.92412988
 31
0.0
  0
LINE
  5
1F5
100
AcDbEntity
  8
0
  6
CONTINUOUS
 62
       7
100
AcDbLine
 10
-149.40281536
 20
-411.92412988
 30
0.0
 11
-146.40281536
 21
-410.23662988
 31
0.0
  0
LINE
  5
1F6
100
AcDbEntity
  8
0
  6
CONTINUOUS
 62
       7
100
AcDbLine
 10
-146.40281536
 20
-410.23662988
 30
0.0
 11
-143.96531536
 21
-407.42412988
 31
0.0
  0
LINE
  5
1F7
100
AcDbEntity
  8
0
  6
CONTINUOUS
 62
       7
100
AcDbLine
 10
-173.36531536
 20
-407.42412988
 30
0.0
 11
-170.92781536
 21
-406.67412988
 31
0.0
  0
LINE
  5
1F8
100
AcDbEntity
  8
0
  6
CONTINUOUS
 62
       7
100
AcDbLine
 10
-170.92781536
 20
-406.67412988
 30
0.0
 11
-168.86531536
 21
-405.17412988
 31
0.0
  0
LINE
  5
1F9
100
AcDbEntity
  8
0
  6
CONTINUOUS
 62
       7
100
AcDbLine
 10
-168.86531536
 20
-405.17412988
 30
0.0
 11
-166.99031536
 21
-403.29912988
 31
0.0
  0
LINE
  5
1FA
100
AcDbEntity
  8
0
  6
CONTINUOUS
 62
       7
100
AcDbLine
 10
-166.99031536
 20
-403.29912988
 30
0.0
 11
-165.86531536
 21
-400.86162988
 31
0.0
  0
LINE
  5
1FB
100
AcDbEntity
  8
0
  6
CONTINUOUS
 62
       7
100
AcDbLine
 10
-140.02781536
 20
-410.42412988
 30
0.0
 11
-138.34031536
 21
-408.17412988
 31
0.0
  0
LINE
  5
1FC
100
AcDbEntity
  8
0
  6
CONTINUOUS
 62
       7
100
AcDbLine
 10
-138.34031536
 20
-408.17412988
 30
0.0
 11
-136.84031536
 21
-405.92412988
 31
0.0
  0
LINE
  5
1FD
100
AcDbEntity
  8
0
  6
CONTINUOUS
 62
       7
100
AcDbLine
 10
-136.84031536
 20
-405.92412988
 30
0.0
 11
-135.71531536
 21
-403.48662988
 31
0.0
  0
LINE
  5
1FE
100
AcDbEntity
  8
0
  6
CONTINUOUS
 62
       7
100
AcDbLine
 10
-135.71531536
 20
-403.48662988
 30
0.0
 11
-134.96531536
 21
-400.86162988
 31
0.0
  0
LINE
  5
1FF
100
AcDbEntity
  8
0
  6
CONTINUOUS
 62
       7
100
AcDbLine
 10
-148.46531536
 20
-414.92412988
 30
0.0
 11
-145.84031536
 21
-414.17412988
 31
0.0
  0
LINE
  5
200
100
AcDbEntity
  8
0
  6
CONTINUOUS
 62
       7
100
AcDbLine
 10
-145.84031536
 20
-414.17412988
 30
0.0
 11
-143.02781536
 21
-413.23662988
 31
0.0
  0
LINE
  5
201
100
AcDbEntity
  8
0
  6
CONTINUOUS
 62
       7
100
AcDbLine
 10
-153.37781536
 20
-406.11162988
 30
0.0
 11
-152.44031536
 21
-403.67412988
 31
0.0
  0
LINE
  5
202
100
AcDbEntity
  8
0
  6
CONTINUOUS
 62
       7
100
AcDbLine
 10
-152.44031536
 20
-403.67412988
 30
0.0
 11
-150.56531536
 21
-403.67412988
 31
0.0
  0
LINE
  5
203
100
AcDbEntity
  8
0
  6
CONTINUOUS
 62
       7
100
AcDbLine
 10
-152.44031536
 20
-403.67412988
 30
0.0
 11
-150.56531536
 21
-403.67412988
 31
0.0
  0
LINE
  5
204
100
AcDbEntity
  8
0
  6
CONTINUOUS
 62
       7
100
AcDbLine
 10
-150.56531536
 20
-403.67412988
 30
0.0
 11
-151.31531536
 21
-407.61162988
 31
0.0
  0
LINE
  5
205
100
AcDbEntity
  8
0
  6
CONTINUOUS
 62
       7
100
AcDbLine
 10
-151.31531536
 20
-407.61162988
 30
0.0
 11
-153.56531536
 21
-411.36162988
 31
0.0
  0
LINE
  5
206
100
AcDbEntity
  8
0
  6
CONTINUOUS
 62
       7
100
AcDbLine
 10
-151.31531536
 20
-407.61162988
 30
0.0
 11
-153.56531536
 21
-411.36162988
 31
0.0
  0
LINE
  5
207
100
AcDbEntity
  8
0
  6
CONTINUOUS
 62
       7
100
AcDbLine
 10
-153.56531536
 20
-411.36162988
 30
0.0
 11
-156.56531536
 21
-414.17412988
 31
0.0
  0
LINE
  5
208
100
AcDbEntity
  8
0
  6
CONTINUOUS
 62
       7
100
AcDbLine
 10
-160.31531536
 20
-415.67412988
 30
0.0
 11
-169.87781536
 21
-415.67412988
 31
0.0
  0
LINE
  5
209
100
AcDbEntity
  8
0
  6
CONTINUOUS
 62
       7
100
AcDbLine
 10
-169.87781536
 20
-415.67412988
 30
0.0
 11
-168.19031536
 21
-410.98662988
 31
0.0
  0
LINE
  5
20A
100
AcDbEntity
  8
0
  6
CONTINUOUS
 62
       7
100
AcDbLine
 10
-169.87781536
 20
-415.67412988
 30
0.0
 11
-168.19031536
 21
-410.98662988
 31
0.0
  0
LINE
  5
20B
100
AcDbEntity
  8
0
  6
CONTINUOUS
 62
       7
100
AcDbLine
 10
-154.87781536
 20
-408.17412988
 30
0.0
 11
-153.37781536
 21
-406.11162988
 31
0.0
  0
LINE
  5
20C
100
AcDbEntity
  8
0
  6
CONTINUOUS
 62
       7
100
AcDbLine
 10
-168.19031536
 20
-410.98662988
 30
0.0
 11
-159.19031536
 21
-410.98662988
 31
0.0
  0
LINE
  5
20D
100
AcDbEntity
  8
0
  6
CONTINUOUS
 62
       7
100
AcDbLine
 10
-168.19031536
 20
-410.98662988
 30
0.0
 11
-159.19031536
 21
-410.98662988
 31
0.0
  0
LINE
  5
20E
100
AcDbEntity
  8
0
  6
CONTINUOUS
 62
       7
100
AcDbLine
 10
-159.19031536
 20
-410.98662988
 30
0.0
 11
-156.94031536
 21
-409.86162988
 31
0.0
  0
LINE
  5
20F
100
AcDbEntity
  8
0
  6
CONTINUOUS
 62
       7
100
AcDbLine
 10
-159.19031536
 20
-410.98662988
 30
0.0
 11
-156.94031536
 21
-409.86162988
 31
0.0
  0
LINE
  5
210
100
AcDbEntity
  8
0
  6
CONTINUOUS
 62
       7
100
AcDbLine
 10
-156.94031536
 20
-409.86162988
 30
0.0
 11
-154.87781536
 21
-408.17412988
 31
0.0
  0
LINE
  5
211
100
AcDbEntity
  8
0
  6
CONTINUOUS
 62
       7
100
AcDbLine
 10
-186.64031536
 20
-405.92412988
 30
0.0
 11
-188.89031536
 21
-412.11162988
 31
0.0
  0
LINE
  5
212
100
AcDbEntity
  8
0
  6
CONTINUOUS
 62
       7
100
AcDbLine
 10
-188.89031536
 20
-412.11162988
 30
0.0
 11
-190.20281536
 21
-413.42412988
 31
0.0
  0
LINE
  5
213
100
AcDbEntity
  8
0
  6
CONTINUOUS
 62
       7
100
AcDbLine
 10
-188.89031536
 20
-412.11162988
 30
0.0
 11
-190.20281536
 21
-413.42412988
 31
0.0
  0
LINE
  5
214
100
AcDbEntity
  8
0
  6
CONTINUOUS
 62
       7
100
AcDbLine
 10
-190.20281536
 20
-413.42412988
 30
0.0
 11
-191.32781536
 21
-414.54912988
 31
0.0
  0
LINE
  5
215
100
AcDbEntity
  8
0
  6
CONTINUOUS
 62
       7
100
AcDbLine
 10
-191.32781536
 20
-414.54912988
 30
0.0
 11
-192.82781536
 21
-415.29912988
 31
0.0
  0
LINE
  5
216
100
AcDbEntity
  8
0
  6
CONTINUOUS
 62
       7
100
AcDbLine
 10
-191.32781536
 20
-414.54912988
 30
0.0
 11
-192.82781536
 21
-415.29912988
 31
0.0
  0
LINE
  5
217
100
AcDbEntity
  8
0
  6
CONTINUOUS
 62
       7
100
AcDbLine
 10
-192.82781536
 20
-415.29912988
 30
0.0
 11
-194.32781536
 21
-415.67412988
 31
0.0
  0
LINE
  5
218
100
AcDbEntity
  8
0
  6
CONTINUOUS
 62
       7
100
AcDbLine
 10
-194.32781536
 20
-415.67412988
 30
0.0
 11
-203.89031536
 21
-415.67412988
 31
0.0
  0
LINE
  5
219
100
AcDbEntity
  8
0
  6
CONTINUOUS
 62
       7
100
AcDbLine
 10
-194.32781536
 20
-415.67412988
 30
0.0
 11
-203.89031536
 21
-415.67412988
 31
0.0
  0
LINE
  5
21A
100
AcDbEntity
  8
0
  6
CONTINUOUS
 62
       7
100
AcDbLine
 10
-203.89031536
 20
-415.67412988
 30
0.0
 11
-202.76531536
 21
-412.86162988
 31
0.0
  0
LINE
  5
21B
100
AcDbEntity
  8
0
  6
CONTINUOUS
 62
       7
100
AcDbLine
 10
-202.76531536
 20
-412.86162988
 30
0.0
 11
-196.57781536
 21
-412.86162988
 31
0.0
  0
LINE
  5
21C
100
AcDbEntity
  8
0
  6
CONTINUOUS
 62
       7
100
AcDbLine
 10
-202.76531536
 20
-412.86162988
 30
0.0
 11
-196.57781536
 21
-412.86162988
 31
0.0
  0
LINE
  5
21D
100
AcDbEntity
  8
0
  6
CONTINUOUS
 62
       7
100
AcDbLine
 10
-193.01531536
 20
-408.54912988
 30
0.0
 11
-200.89031536
 21
-408.54912988
 31
0.0
  0
LINE
  5
21E
100
AcDbEntity
  8
0
  6
CONTINUOUS
 62
       7
100
AcDbLine
 10
-200.89031536
 20
-408.54912988
 30
0.0
 11
-200.14031536
 21
-405.92412988
 31
0.0
  0
LINE
  5
21F
100
AcDbEntity
  8
0
  6
CONTINUOUS
 62
       7
100
AcDbLine
 10
-200.89031536
 20
-408.54912988
 30
0.0
 11
-200.14031536
 21
-405.92412988
 31
0.0
  0
LINE
  5
220
100
AcDbEntity
  8
0
  6
CONTINUOUS
 62
       7
100
AcDbLine
 10
-196.57781536
 20
-412.86162988
 30
0.0
 11
-195.26531536
 21
-411.92412988
 31
0.0
  0
LINE
  5
221
100
AcDbEntity
  8
0
  6
CONTINUOUS
 62
       7
100
AcDbLine
 10
-196.57781536
 20
-412.86162988
 30
0.0
 11
-195.26531536
 21
-411.92412988
 31
0.0
  0
LINE
  5
222
100
AcDbEntity
  8
0
  6
CONTINUOUS
 62
       7
100
AcDbLine
 10
-195.26531536
 20
-411.92412988
 30
0.0
 11
-194.32781536
 21
-410.98662988
 31
0.0
  0
LINE
  5
223
100
AcDbEntity
  8
0
  6
CONTINUOUS
 62
       7
100
AcDbLine
 10
-195.26531536
 20
-411.92412988
 30
0.0
 11
-194.32781536
 21
-410.98662988
 31
0.0
  0
LINE
  5
224
100
AcDbEntity
  8
0
  6
CONTINUOUS
 62
       7
100
AcDbLine
 10
-194.32781536
 20
-410.98662988
 30
0.0
 11
-193.39031536
 21
-409.86162988
 31
0.0
  0
LINE
  5
225
100
AcDbEntity
  8
0
  6
CONTINUOUS
 62
       7
100
AcDbLine
 10
-194.32781536
 20
-410.98662988
 30
0.0
 11
-193.39031536
 21
-409.86162988
 31
0.0
  0
LINE
  5
226
100
AcDbEntity
  8
0
  6
CONTINUOUS
 62
       7
100
AcDbLine
 10
-193.39031536
 20
-409.86162988
 30
0.0
 11
-193.01531536
 21
-408.54912988
 31
0.0
  0
LINE
  5
227
100
AcDbEntity
  8
0
  6
CONTINUOUS
 62
       7
100
AcDbLine
 10
-193.39031536
 20
-409.86162988
 30
0.0
 11
-193.01531536
 21
-408.54912988
 31
0.0
  0
LINE
  5
228
100
AcDbEntity
  8
0
  6
CONTINUOUS
 62
       7
100
AcDbLine
 10
-205.20281536
 20
-400.86162988
 30
0.0
 11
-201.07930415
 21
-400.86162988
 31
0.0
  0
LINE
  5
229
100
AcDbEntity
  8
0
  6
CONTINUOUS
 62
       7
100
AcDbLine
 10
-204.49031536
 20
-411.92412988
 30
0.0
 11
-205.99031536
 21
-413.42412988
 31
0.0
  0
LINE
  5
22A
100
AcDbEntity
  8
0
  6
CONTINUOUS
 62
       7
100
AcDbLine
 10
-205.99031536
 20
-413.42412988
 30
0.0
 11
-207.49031536
 21
-414.73662988
 31
0.0
  0
LINE
  5
22B
100
AcDbEntity
  8
0
  6
CONTINUOUS
 62
       7
100
AcDbLine
 10
-205.99031536
 20
-413.42412988
 30
0.0
 11
-207.49031536
 21
-414.73662988
 31
0.0
  0
LINE
  5
22C
100
AcDbEntity
  8
0
  6
CONTINUOUS
 62
       7
100
AcDbLine
 10
-207.49031536
 20
-414.73662988
 30
0.0
 11
-209.36531536
 21
-415.48662988
 31
0.0
  0
LINE
  5
22D
100
AcDbEntity
  8
0
  6
CONTINUOUS
 62
       7
100
AcDbLine
 10
-209.36531536
 20
-415.48662988
 30
0.0
 11
-211.24031536
 21
-415.67412988
 31
0.0
  0
LINE
  5
22E
100
AcDbEntity
  8
0
  6
CONTINUOUS
 62
       7
100
AcDbLine
 10
-211.24031536
 20
-415.67412988
 30
0.0
 11
-215.92781536
 21
-415.67412988
 31
0.0
  0
LINE
  5
22F
100
AcDbEntity
  8
0
  6
CONTINUOUS
 62
       7
100
AcDbLine
 10
-215.92781536
 20
-415.67412988
 30
0.0
 11
-214.99031536
 21
-412.86162988
 31
0.0
  0
LINE
  5
230
100
AcDbEntity
  8
0
  6
CONTINUOUS
 62
       7
100
AcDbLine
 10
-215.92781536
 20
-415.67412988
 30
0.0
 11
-214.99031536
 21
-412.86162988
 31
0.0
  0
LINE
  5
231
100
AcDbEntity
  8
0
  6
CONTINUOUS
 62
       7
100
AcDbLine
 10
-209.36531536
 20
-410.42412988
 30
0.0
 11
-205.80281536
 21
-400.86162988
 31
0.0
  0
LINE
  5
232
100
AcDbEntity
  8
0
  6
CONTINUOUS
 62
       7
100
AcDbLine
 10
-214.99031536
 20
-412.86162988
 30
0.0
 11
-213.30281536
 21
-412.86162988
 31
0.0
  0
LINE
  5
233
100
AcDbEntity
  8
0
  6
CONTINUOUS
 62
       7
100
AcDbLine
 10
-214.99031536
 20
-412.86162988
 30
0.0
 11
-213.30281536
 21
-412.86162988
 31
0.0
  0
LINE
  5
234
100
AcDbEntity
  8
0
  6
CONTINUOUS
 62
       7
100
AcDbLine
 10
-210.30281536
 20
-411.92412988
 30
0.0
 11
-209.36531536
 21
-410.42412988
 31
0.0
  0
LINE
  5
235
100
AcDbEntity
  8
0
  6
CONTINUOUS
 62
       7
100
AcDbLine
 10
-211.80281536
 20
-412.67412988
 30
0.0
 11
-210.30281536
 21
-411.92412988
 31
0.0
  0
LINE
  5
236
100
AcDbEntity
  8
0
  6
CONTINUOUS
 62
       7
100
AcDbLine
 10
-213.30281536
 20
-412.86162988
 30
0.0
 11
-211.80281536
 21
-412.67412988
 31
0.0
  0
LINE
  5
237
100
AcDbEntity
  8
0
  6
CONTINUOUS
 62
       7
100
AcDbLine
 10
-213.30281536
 20
-412.86162988
 30
0.0
 11
-211.80281536
 21
-412.67412988
 31
0.0
  0
LINE
  5
238
100
AcDbEntity
  8
0
  6
CONTINUOUS
 62
       7
100
AcDbLine
 10
-164.44031536
 20
-400.86162988
 30
0.0
 11
-158.44031536
 21
-400.86162988
 31
0.0
  0
LINE
  5
239
100
AcDbEntity
  8
0
  6
CONTINUOUS
 62
       7
100
AcDbLine
 10
-158.44031536
 20
-400.86162988
 30
0.0
 11
-159.56531536
 21
-404.23662988
 31
0.0
  0
LINE
  5
23A
100
AcDbEntity
  8
0
  6
CONTINUOUS
 62
       7
100
AcDbLine
 10
-158.44031536
 20
-400.86162988
 30
0.0
 11
-159.56531536
 21
-404.23662988
 31
0.0
  0
LINE
  5
23B
100
AcDbEntity
  8
0
  6
CONTINUOUS
 62
       7
100
AcDbLine
 10
-159.86531536
 20
-404.23662988
 30
0.0
 11
-165.75281536
 21
-404.23662988
 31
0.0
  0
LINE
  5
23C
100
AcDbEntity
  8
0
  6
CONTINUOUS
 62
       7
100
AcDbLine
 10
-142.21803844
 20
-404.21168646
 30
0.0
 11
-143.96531536
 21
-407.42412988
 31
0.0
  0
LINE
  5
23D
100
AcDbEntity
  8
0
  6
CONTINUOUS
 62
       7
100
AcDbLine
 10
-137.02781536
 20
-400.86162988
 30
0.0
 11
-146.40281536
 21
-410.23662988
 31
0.0
  0
LINE
  5
23E
100
AcDbEntity
  8
0
  6
CONTINUOUS
 62
       7
100
AcDbLine
 10
-146.40281536
 20
-410.23662988
 30
0.0
 11
-151.61531536
 21
-415.44912988
 31
0.0
  0
LINE
  5
23F
100
AcDbEntity
  8
0
  6
CONTINUOUS
 62
       7
100
AcDbLine
 10
-137.8763435
 20
-400.86162988
 30
0.0
 11
-143.40061177
 21
-406.38589815
 31
0.0
  0
LINE
  5
240
100
AcDbEntity
  8
0
  6
CONTINUOUS
 62
       7
100
AcDbLine
 10
-148.34230824
 20
-411.32759463
 30
0.0
 11
-152.63354912
 21
-415.61883551
 31
0.0
  0
LINE
  5
241
100
AcDbEntity
  8
0
  6
CONTINUOUS
 62
       7
100
AcDbLine
 10
-138.72487163
 20
-400.86162988
 30
0.0
 11
-142.38870381
 21
-404.52546206
 31
0.0
  0
LINE
  5
242
100
AcDbEntity
  8
0
  6
CONTINUOUS
 62
       7
100
AcDbLine
 10
-149.88991997
 20
-412.02667822
 30
0.0
 11
-153.65178289
 21
-415.78854114
 31
0.0
  0
LINE
  5
243
100
AcDbEntity
  8
0
  6
CONTINUOUS
 62
       7
100
AcDbLine
 10
-139.57339977
 20
-400.86162988
 30
0.0
 11
-142.94839977
 21
-404.23662988
 31
0.0
  0
LINE
  5
244
100
AcDbEntity
  8
0
  6
CONTINUOUS
 62
       7
100
AcDbLine
 10
-150.96472228
 20
-412.25295239
 30
0.0
 11
-153.82681477
 21
-415.11504488
 31
0.0
  0
LINE
  5
245
100
AcDbEntity
  8
0
  6
CONTINUOUS
 62
       7
100
AcDbLine
 10
-140.42192791
 20
-400.86162988
 30
0.0
 11
-143.79692791
 21
-404.23662988
 31
0.0
  0
LINE
  5
246
100
AcDbEntity
  8
0
  6
CONTINUOUS
 62
       7
100
AcDbLine
 10
-152.03952459
 20
-412.47922656
 30
0.0
 11
-153.36398124
 21
-413.80368321
 31
0.0
  0
LINE
  5
247
100
AcDbEntity
  8
0
  6
CONTINUOUS
 62
       7
100
AcDbLine
 10
-141.27045605
 20
-400.86162988
 30
0.0
 11
-144.64545605
 21
-404.23662988
 31
0.0
  0
LINE
  5
248
100
AcDbEntity
  8
0
  6
CONTINUOUS
 62
       7
100
AcDbLine
 10
-142.11898418
 20
-400.86162988
 30
0.0
 11
-145.49398418
 21
-404.23662988
 31
0.0
  0
LINE
  5
249
100
AcDbEntity
  8
0
  6
CONTINUOUS
 62
       7
100
AcDbLine
 10
-142.96751232
 20
-400.86162988
 30
0.0
 11
-146.34251232
 21
-404.23662988
 31
0.0
  0
LINE
  5
24A
100
AcDbEntity
  8
0
  6
CONTINUOUS
 62
       7
100
AcDbLine
 10
-143.81604046
 20
-400.86162988
 30
0.0
 11
-147.19104046
 21
-404.23662988
 31
0.0
  0
LINE
  5
24B
100
AcDbEntity
  8
0
  6
CONTINUOUS
 62
       7
100
AcDbLine
 10
-144.6645686
 20
-400.86162988
 30
0.0
 11
-148.0395686
 21
-404.23662988
 31
0.0
  0
LINE
  5
24C
100
AcDbEntity
  8
0
  6
CONTINUOUS
 62
       7
100
AcDbLine
 10
-145.51309673
 20
-400.86162988
 30
0.0
 11
-148.81642467
 21
-404.16495782
 31
0.0
  0
LINE
  5
24D
100
AcDbEntity
  8
0
  6
CONTINUOUS
 62
       7
100
AcDbLine
 10
-146.36162487
 20
-400.86162988
 30
0.0
 11
-148.3921606
 21
-402.89216561
 31
0.0
  0
LINE
  5
24E
100
AcDbEntity
  8
0
  6
CONTINUOUS
 62
       7
100
AcDbLine
 10
-147.21015301
 20
-400.86162988
 30
0.0
 11
-147.96789653
 21
-401.61937341
 31
0.0
  0
LINE
  5
24F
100
AcDbEntity
  8
0
  6
CONTINUOUS
 62
       7
100
AcDbLine
 10
-136.17928722
 20
-400.86162988
 30
0.0
 11
-150.59708159
 21
-415.27942425
 31
0.0
  0
LINE
  5
250
100
AcDbEntity
  8
0
  6
CONTINUOUS
 62
       7
100
AcDbLine
 10
-135.33075908
 20
-400.86162988
 30
0.0
 11
-149.57884783
 21
-415.10971863
 31
0.0
  0
LINE
  5
251
100
AcDbEntity
  8
0
  6
CONTINUOUS
 62
       7
100
AcDbLine
 10
-135.15854912
 20
-401.53794806
 30
0.0
 11
-148.56061406
 21
-414.940013
 31
0.0
  0
LINE
  5
252
100
AcDbEntity
  8
0
  6
CONTINUOUS
 62
       7
100
AcDbLine
 10
-135.49796038
 20
-402.72588745
 30
0.0
 11
-147.38855779
 21
-414.61648486
 31
0.0
  0
LINE
  5
253
100
AcDbEntity
  8
0
  6
CONTINUOUS
 62
       7
100
AcDbLine
 10
-135.97686452
 20
-404.05331973
 30
0.0
 11
-146.2006184
 21
-414.27707361
 31
0.0
  0
LINE
  5
254
100
AcDbEntity
  8
0
  6
CONTINUOUS
 62
       7
100
AcDbLine
 10
-136.70417435
 20
-405.6291577
 30
0.0
 11
-144.95356212
 21
-413.87854547
 31
0.0
  0
LINE
  5
255
100
AcDbEntity
  8
0
  6
CONTINUOUS
 62
       7
100
AcDbLine
 10
-138.21970928
 20
-407.99322077
 30
0.0
 11
-143.68076992
 21
-413.4542814
 31
0.0
  0
LINE
  5
256
100
AcDbEntity
  8
0
  6
CONTINUOUS
 62
       7
100
AcDbLine
 10
-139.94254143
 20
-410.56458105
 30
0.0
 11
-142.87039627
 21
-413.4924359
 31
0.0
  0
LINE
  5
257
100
AcDbEntity
  8
0
  6
CONTINUOUS
 62
       7
100
AcDbLine
 10
-139.62198636
 20
-411.09255412
 30
0.0
 11
-142.54714746
 21
-414.01771522
 31
0.0
  0
LINE
  5
258
100
AcDbEntity
  8
0
  6
CONTINUOUS
 62
       7
100
AcDbLine
 10
-139.30143128
 20
-411.62052718
 30
0.0
 11
-142.22389865
 21
-414.54299454
 31
0.0
  0
LINE
  5
259
100
AcDbEntity
  8
0
  6
CONTINUOUS
 62
       7
100
AcDbLine
 10
-138.98087621
 20
-412.14850024
 30
0.0
 11
-141.90064983
 21
-415.06827386
 31
0.0
  0
LINE
  5
25A
100
AcDbEntity
  8
0
  6
CONTINUOUS
 62
       7
100
AcDbLine
 10
-138.66032114
 20
-412.67647331
 30
0.0
 11
-141.57740102
 21
-415.59355319
 31
0.0
  0
LINE
  5
25B
100
AcDbEntity
  8
0
  6
CONTINUOUS
 62
       7
100
AcDbLine
 10
-138.33976606
 20
-413.20444637
 30
0.0
 11
-140.80944957
 21
-415.67412988
 31
0.0
  0
LINE
  5
25C
100
AcDbEntity
  8
0
  6
CONTINUOUS
 62
       7
100
AcDbLine
 10
-138.01921099
 20
-413.73241943
 30
0.0
 11
-139.96092144
 21
-415.67412988
 31
0.0
  0
LINE
  5
25D
100
AcDbEntity
  8
0
  6
CONTINUOUS
 62
       7
100
AcDbLine
 10
-137.69865591
 20
-414.2603925
 30
0.0
 11
-139.1123933
 21
-415.67412988
 31
0.0
  0
LINE
  5
25E
100
AcDbEntity
  8
0
  6
CONTINUOUS
 62
       7
100
AcDbLine
 10
-137.37810084
 20
-414.78836556
 30
0.0
 11
-138.26386516
 21
-415.67412988
 31
0.0
  0
LINE
  5
25F
100
AcDbEntity
  8
0
  6
CONTINUOUS
 62
       7
100
AcDbLine
 10
-137.05754577
 20
-415.31633862
 30
0.0
 11
-137.41533702
 21
-415.67412988
 31
0.0
  0
LINE
  5
260
100
AcDbEntity
  8
0
  6
CONTINUOUS
 62
       7
100
AcDbLine
 10
-160.40906536
 20
-400.86162988
 30
0.0
 11
-163.78406536
 21
-404.23662988
 31
0.0
  0
LINE
  5
261
100
AcDbEntity
  8
0
  6
CONTINUOUS
 62
       7
100
AcDbLine
 10
-161.2575935
 20
-400.86162988
 30
0.0
 11
-164.6325935
 21
-404.23662988
 31
0.0
  0
LINE
  5
262
100
AcDbEntity
  8
0
  6
CONTINUOUS
 62
       7
100
AcDbLine
 10
-162.10612163
 20
-400.86162988
 30
0.0
 11
-165.48112163
 21
-404.23662988
 31
0.0
  0
LINE
  5
263
100
AcDbEntity
  8
0
  6
CONTINUOUS
 62
       7
100
AcDbLine
 10
-162.95464977
 20
-400.86162988
 30
0.0
 11
-165.38573891
 21
-403.29271902
 31
0.0
  0
LINE
  5
264
100
AcDbEntity
  8
0
  6
CONTINUOUS
 62
       7
100
AcDbLine
 10
-163.80317791
 20
-400.86162988
 30
0.0
 11
-164.84576646
 21
-401.90421844
 31
0.0
  0
LINE
  5
265
100
AcDbEntity
  8
0
  6
CONTINUOUS
 62
       7
100
AcDbLine
 10
-159.56053722
 20
-400.86162988
 30
0.0
 11
-162.93553722
 21
-404.23662988
 31
0.0
  0
LINE
  5
266
100
AcDbEntity
  8
0
  6
CONTINUOUS
 62
       7
100
AcDbLine
 10
-158.71200908
 20
-400.86162988
 30
0.0
 11
-162.08700908
 21
-404.23662988
 31
0.0
  0
LINE
  5
267
100
AcDbEntity
  8
0
  6
CONTINUOUS
 62
       7
100
AcDbLine
 10
-158.72873257
 20
-401.7268815
 30
0.0
 11
-161.23848095
 21
-404.23662988
 31
0.0
  0
LINE
  5
268
100
AcDbEntity
  8
0
  6
CONTINUOUS
 62
       7
100
AcDbLine
 10
-159.15299663
 20
-402.99967371
 30
0.0
 11
-160.38995281
 21
-404.23662988
 31
0.0
  0
LINE
  5
269
100
AcDbEntity
  8
0
  6
CONTINUOUS
 62
       7
100
AcDbLine
 10
-159.54142467
 20
-404.23662988
 30
0.0
 11
-159.5772607
 21
-404.27246591
 31
0.0
  0
LINE
  5
26A
100
AcDbEntity
  8
0
  6
CONTINUOUS
 62
       7
100
AcDbLine
 10
-161.53406536
 20
-410.98662988
 30
0.0
 11
-166.22156536
 21
-415.67412988
 31
0.0
  0
LINE
  5
26B
100
AcDbEntity
  8
0
  6
CONTINUOUS
 62
       7
100
AcDbLine
 10
-162.3825935
 20
-410.98662988
 30
0.0
 11
-167.0700935
 21
-415.67412988
 31
0.0
  0
LINE
  5
26C
100
AcDbEntity
  8
0
  6
CONTINUOUS
 62
       7
100
AcDbLine
 10
-163.23112163
 20
-410.98662988
 30
0.0
 11
-167.91862163
 21
-415.67412988
 31
0.0
  0
LINE
  5
26D
100
AcDbEntity
  8
0
  6
CONTINUOUS
 62
       7
100
AcDbLine
 10
-164.07964977
 20
-410.98662988
 30
0.0
 11
-168.76714977
 21
-415.67412988
 31
0.0
  0
LINE
  5
26E
100
AcDbEntity
  8
0
  6
CONTINUOUS
 62
       7
100
AcDbLine
 10
-164.92817791
 20
-410.98662988
 30
0.0
 11
-169.61567791
 21
-415.67412988
 31
0.0
  0
LINE
  5
26F
100
AcDbEntity
  8
0
  6
CONTINUOUS
 62
       7
100
AcDbLine
 10
-165.77670605
 20
-410.98662988
 30
0.0
 11
-169.5479706
 21
-414.75789443
 31
0.0
  0
LINE
  5
270
100
AcDbEntity
  8
0
  6
CONTINUOUS
 62
       7
100
AcDbLine
 10
-166.62523418
 20
-410.98662988
 30
0.0
 11
-169.07067352
 21
-413.43206922
 31
0.0
  0
LINE
  5
271
100
AcDbEntity
  8
0
  6
CONTINUOUS
 62
       7
100
AcDbLine
 10
-167.47376232
 20
-410.98662988
 30
0.0
 11
-168.59337644
 21
-412.106244
 31
0.0
  0
LINE
  5
272
100
AcDbEntity
  8
0
  6
CONTINUOUS
 62
       7
100
AcDbLine
 10
-160.68553722
 20
-410.98662988
 30
0.0
 11
-165.37303722
 21
-415.67412988
 31
0.0
  0
LINE
  5
273
100
AcDbEntity
  8
0
  6
CONTINUOUS
 62
       7
100
AcDbLine
 10
-159.83700908
 20
-410.98662988
 30
0.0
 11
-164.52450908
 21
-415.67412988
 31
0.0
  0
LINE
  5
274
100
AcDbEntity
  8
0
  6
CONTINUOUS
 62
       7
100
AcDbLine
 10
-151.67598095
 20
-403.67412988
 30
0.0
 11
-152.91802437
 21
-404.9161733
 31
0.0
  0
LINE
  5
275
100
AcDbEntity
  8
0
  6
CONTINUOUS
 62
       7
100
AcDbLine
 10
-158.78664653
 20
-410.78479547
 30
0.0
 11
-163.67598095
 21
-415.67412988
 31
0.0
  0
LINE
  5
276
100
AcDbEntity
  8
0
  6
CONTINUOUS
 62
       7
100
AcDbLine
 10
-150.82745281
 20
-403.67412988
 30
0.0
 11
-153.67878216
 21
-406.52545923
 31
0.0
  0
LINE
  5
277
100
AcDbEntity
  8
0
  6
CONTINUOUS
 62
       7
100
AcDbLine
 10
-157.08959026
 20
-409.93626733
 30
0.0
 11
-162.82745281
 21
-415.67412988
 31
0.0
  0
LINE
  5
278
100
AcDbEntity
  8
0
  6
CONTINUOUS
 62
       7
100
AcDbLine
 10
-150.70328964
 20
-404.39849485
 30
0.0
 11
-161.97892467
 21
-415.67412988
 31
0.0
  0
LINE
  5
279
100
AcDbEntity
  8
0
  6
CONTINUOUS
 62
       7
100
AcDbLine
 10
-150.90294332
 20
-405.44667666
 30
0.0
 11
-161.13039653
 21
-415.67412988
 31
0.0
  0
LINE
  5
27A
100
AcDbEntity
  8
0
  6
CONTINUOUS
 62
       7
100
AcDbLine
 10
-151.102597
 20
-406.49485848
 30
0.0
 11
-160.2818684
 21
-415.67412988
 31
0.0
  0
LINE
  5
27B
100
AcDbEntity
  8
0
  6
CONTINUOUS
 62
       7
100
AcDbLine
 10
-151.30225068
 20
-407.5430403
 30
0.0
 11
-159.02776018
 21
-415.2685498
 31
0.0
  0
LINE
  5
27C
100
AcDbEntity
  8
0
  6
CONTINUOUS
 62
       7
100
AcDbLine
 10
-152.50482021
 20
-409.59413797
 30
0.0
 11
-157.50040953
 21
-414.58972729
 31
0.0
  0
LINE
  5
27D
100
AcDbEntity
  8
0
  6
CONTINUOUS
 62
       7
100
AcDbLine
 10
-168.39656536
 20
-400.86162988
 30
0.0
 11
-181.87312786
 21
-414.33819238
 31
0.0
  0
LINE
  5
27E
100
AcDbEntity
  8
0
  6
CONTINUOUS
 62
       7
100
AcDbLine
 10
-169.2450935
 20
-400.86162988
 30
0.0
 11
-181.37815311
 21
-412.9946895
 31
0.0
  0
LINE
  5
27F
100
AcDbEntity
  8
0
  6
CONTINUOUS
 62
       7
100
AcDbLine
 10
-170.09362163
 20
-400.86162988
 30
0.0
 11
-180.88317837
 21
-411.65118661
 31
0.0
  0
LINE
  5
280
100
AcDbEntity
  8
0
  6
CONTINUOUS
 62
       7
100
AcDbLine
 10
-170.94214977
 20
-400.86162988
 30
0.0
 11
-180.38820362
 21
-410.30768373
 31
0.0
  0
LINE
  5
281
100
AcDbEntity
  8
0
  6
CONTINUOUS
 62
       7
100
AcDbLine
 10
-171.79067791
 20
-400.86162988
 30
0.0
 11
-179.89322887
 21
-408.96418084
 31
0.0
  0
LINE
  5
282
100
AcDbEntity
  8
0
  6
CONTINUOUS
 62
       7
100
AcDbLine
 10
-172.63920605
 20
-400.86162988
 30
0.0
 11
-173.23910686
 21
-401.4615307
 31
0.0
  0
LINE
  5
283
100
AcDbEntity
  8
0
  6
CONTINUOUS
 62
       7
100
AcDbLine
 10
-176.54774906
 20
-404.7701729
 30
0.0
 11
-180.32670605
 21
-408.54912988
 31
0.0
  0
LINE
  5
284
100
AcDbEntity
  8
0
  6
CONTINUOUS
 62
       7
100
AcDbLine
 10
-178.0326733
 20
-405.406569
 30
0.0
 11
-181.17523418
 21
-408.54912988
 31
0.0
  0
LINE
  5
285
100
AcDbEntity
  8
0
  6
CONTINUOUS
 62
       7
100
AcDbLine
 10
-179.24529957
 20
-405.77066713
 30
0.0
 11
-182.02376232
 21
-408.54912988
 31
0.0
  0
LINE
  5
286
100
AcDbEntity
  8
0
  6
CONTINUOUS
 62
       7
100
AcDbLine
 10
-180.16453838
 20
-405.84137781
 30
0.0
 11
-182.87229046
 21
-408.54912988
 31
0.0
  0
LINE
  5
287
100
AcDbEntity
  8
0
  6
CONTINUOUS
 62
       7
100
AcDbLine
 10
-181.0837772
 20
-405.91208848
 30
0.0
 11
-183.7208186
 21
-408.54912988
 31
0.0
  0
LINE
  5
288
100
AcDbEntity
  8
0
  6
CONTINUOUS
 62
       7
100
AcDbLine
 10
-181.94434673
 20
-405.92412988
 30
0.0
 11
-184.56934673
 21
-408.54912988
 31
0.0
  0
LINE
  5
289
100
AcDbEntity
  8
0
  6
CONTINUOUS
 62
       7
100
AcDbLine
 10
-182.79287487
 20
-405.92412988
 30
0.0
 11
-185.41787487
 21
-408.54912988
 31
0.0
  0
LINE
  5
28A
100
AcDbEntity
  8
0
  6
CONTINUOUS
 62
       7
100
AcDbLine
 10
-183.64140301
 20
-405.92412988
 30
0.0
 11
-185.44804444
 21
-407.73077132
 31
0.0
  0
LINE
  5
28B
100
AcDbEntity
  8
0
  6
CONTINUOUS
 62
       7
100
AcDbLine
 10
-184.48993115
 20
-405.92412988
 30
0.0
 11
-184.97663992
 21
-406.41083866
 31
0.0
  0
LINE
  5
28C
100
AcDbEntity
  8
0
  6
CONTINUOUS
 62
       7
100
AcDbLine
 10
-167.54803722
 20
-400.86162988
 30
0.0
 11
-182.36810261
 21
-415.68169527
 31
0.0
  0
LINE
  5
28D
100
AcDbEntity
  8
0
  6
CONTINUOUS
 62
       7
100
AcDbLine
 10
-166.69950908
 20
-400.86162988
 30
0.0
 11
-173.21609518
 21
-407.37821598
 31
0.0
  0
LINE
  5
28E
100
AcDbEntity
  8
0
  6
CONTINUOUS
 62
       7
100
AcDbLine
 10
-173.41874964
 20
-407.58087044
 30
0.0
 11
-181.51200908
 21
-415.67412988
 31
0.0
  0
LINE
  5
28F
100
AcDbEntity
  8
0
  6
CONTINUOUS
 62
       7
100
AcDbLine
 10
-165.85098095
 20
-400.86162988
 30
0.0
 11
-171.99044343
 21
-407.00109236
 31
0.0
  0
LINE
  5
290
100
AcDbEntity
  8
0
  6
CONTINUOUS
 62
       7
100
AcDbLine
 10
-173.8576435
 20
-408.86829244
 30
0.0
 11
-180.66348095
 21
-415.67412988
 31
0.0
  0
LINE
  5
291
100
AcDbEntity
  8
0
  6
CONTINUOUS
 62
       7
100
AcDbLine
 10
-166.60491183
 20
-402.4640889
 30
0.0
 11
-170.51398601
 21
-406.37316308
 31
0.0
  0
LINE
  5
292
100
AcDbEntity
  8
0
  6
CONTINUOUS
 62
       7
100
AcDbLine
 10
-174.29653737
 20
-410.15571444
 30
0.0
 11
-179.81495281
 21
-415.67412988
 31
0.0
  0
LINE
  5
293
100
AcDbEntity
  8
0
  6
CONTINUOUS
 62
       7
100
AcDbLine
 10
-174.73543123
 20
-411.44313644
 30
0.0
 11
-178.96642467
 21
-415.67412988
 31
0.0
  0
LINE
  5
294
100
AcDbEntity
  8
0
  6
CONTINUOUS
 62
       7
100
AcDbLine
 10
-175.1743251
 20
-412.73055844
 30
0.0
 11
-178.11789653
 21
-415.67412988
 31
0.0
  0
LINE
  5
295
100
AcDbEntity
  8
0
  6
CONTINUOUS
 62
       7
100
AcDbLine
 10
-175.61321896
 20
-414.01798044
 30
0.0
 11
-177.2693684
 21
-415.67412988
 31
0.0
  0
LINE
  5
296
100
AcDbEntity
  8
0
  6
CONTINUOUS
 62
       7
100
AcDbLine
 10
-176.05211282
 20
-415.30540245
 30
0.0
 11
-176.42084026
 21
-415.67412988
 31
0.0
  0
LINE
  5
297
100
AcDbEntity
  8
0
  6
CONTINUOUS
 62
       7
100
AcDbLine
 10
-190.67156536
 20
-400.86162988
 30
0.0
 11
-194.04656536
 21
-404.23662988
 31
0.0
  0
LINE
  5
298
100
AcDbEntity
  8
0
  6
CONTINUOUS
 62
       7
100
AcDbLine
 10
-191.5200935
 20
-400.86162988
 30
0.0
 11
-194.8950935
 21
-404.23662988
 31
0.0
  0
LINE
  5
299
100
AcDbEntity
  8
0
  6
CONTINUOUS
 62
       7
100
AcDbLine
 10
-192.36862163
 20
-400.86162988
 30
0.0
 11
-195.74362163
 21
-404.23662988
 31
0.0
  0
LINE
  5
29A
100
AcDbEntity
  8
0
  6
CONTINUOUS
 62
       7
100
AcDbLine
 10
-193.21714977
 20
-400.86162988
 30
0.0
 11
-196.59214977
 21
-404.23662988
 31
0.0
  0
LINE
  5
29B
100
AcDbEntity
  8
0
  6
CONTINUOUS
 62
       7
100
AcDbLine
 10
-194.06567791
 20
-400.86162988
 30
0.0
 11
-197.44067791
 21
-404.23662988
 31
0.0
  0
LINE
  5
29C
100
AcDbEntity
  8
0
  6
CONTINUOUS
 62
       7
100
AcDbLine
 10
-194.91420605
 20
-400.86162988
 30
0.0
 11
-198.28920605
 21
-404.23662988
 31
0.0
  0
LINE
  5
29D
100
AcDbEntity
  8
0
  6
CONTINUOUS
 62
       7
100
AcDbLine
 10
-195.76273418
 20
-400.86162988
 30
0.0
 11
-199.13773418
 21
-404.23662988
 31
0.0
  0
LINE
  5
29E
100
AcDbEntity
  8
0
  6
CONTINUOUS
 62
       7
100
AcDbLine
 10
-196.61126232
 20
-400.86162988
 30
0.0
 11
-199.65484188
 21
-403.90520944
 31
0.0
  0
LINE
  5
29F
100
AcDbEntity
  8
0
  6
CONTINUOUS
 62
       7
100
AcDbLine
 10
-197.45979046
 20
-400.86162988
 30
0.0
 11
-199.23057781
 21
-402.63241723
 31
0.0
  0
LINE
  5
2A0
100
AcDbEntity
  8
0
  6
CONTINUOUS
 62
       7
100
AcDbLine
 10
-198.3083186
 20
-400.86162988
 30
0.0
 11
-198.80631374
 21
-401.35962503
 31
0.0
  0
LINE
  5
2A1
100
AcDbEntity
  8
0
  6
CONTINUOUS
 62
       7
100
AcDbLine
 10
-189.82303722
 20
-400.86162988
 30
0.0
 11
-193.19803722
 21
-404.23662988
 31
0.0
  0
LINE
  5
2A2
100
AcDbEntity
  8
0
  6
CONTINUOUS
 62
       7
100
AcDbLine
 10
-188.97450908
 20
-400.86162988
 30
0.0
 11
-192.34950908
 21
-404.23662988
 31
0.0
  0
LINE
  5
2A3
100
AcDbEntity
  8
0
  6
CONTINUOUS
 62
       7
100
AcDbLine
 10
-188.12598095
 20
-400.86162988
 30
0.0
 11
-191.50098095
 21
-404.23662988
 31
0.0
  0
LINE
  5
2A4
100
AcDbEntity
  8
0
  6
CONTINUOUS
 62
       7
100
AcDbLine
 10
-187.27745281
 20
-400.86162988
 30
0.0
 11
-190.65245281
 21
-404.23662988
 31
0.0
  0
LINE
  5
2A5
100
AcDbEntity
  8
0
  6
CONTINUOUS
 62
       7
100
AcDbLine
 10
-186.42892467
 20
-400.86162988
 30
0.0
 11
-189.80392467
 21
-404.23662988
 31
0.0
  0
LINE
  5
2A6
100
AcDbEntity
  8
0
  6
CONTINUOUS
 62
       7
100
AcDbLine
 10
-185.58039653
 20
-400.86162988
 30
0.0
 11
-188.95539653
 21
-404.23662988
 31
0.0
  0
LINE
  5
2A7
100
AcDbEntity
  8
0
  6
CONTINUOUS
 62
       7
100
AcDbLine
 10
-185.06328884
 20
-401.19305032
 30
0.0
 11
-188.1068684
 21
-404.23662988
 31
0.0
  0
LINE
  5
2A8
100
AcDbEntity
  8
0
  6
CONTINUOUS
 62
       7
100
AcDbLine
 10
-185.48755291
 20
-402.46584253
 30
0.0
 11
-187.25834026
 21
-404.23662988
 31
0.0
  0
LINE
  5
2A9
100
AcDbEntity
  8
0
  6
CONTINUOUS
 62
       7
100
AcDbLine
 10
-185.91181698
 20
-403.73863474
 30
0.0
 11
-186.40981212
 21
-404.23662988
 31
0.0
  0
LINE
  5
2AA
100
AcDbEntity
  8
0
  6
CONTINUOUS
 62
       7
100
AcDbLine
 10
-190.39031536
 20
-405.92412988
 30
0.0
 11
-193.01531536
 21
-408.54912988
 31
0.0
  0
LINE
  5
2AB
100
AcDbEntity
  8
0
  6
CONTINUOUS
 62
       7
100
AcDbLine
 10
-197.32781536
 20
-412.86162988
 30
0.0
 11
-200.14031536
 21
-415.67412988
 31
0.0
  0
LINE
  5
2AC
100
AcDbEntity
  8
0
  6
CONTINUOUS
 62
       7
100
AcDbLine
 10
-191.2388435
 20
-405.92412988
 30
0.0
 11
-193.8638435
 21
-408.54912988
 31
0.0
  0
LINE
  5
2AD
100
AcDbEntity
  8
0
  6
CONTINUOUS
 62
       7
100
AcDbLine
 10
-198.1763435
 20
-412.86162988
 30
0.0
 11
-200.9888435
 21
-415.67412988
 31
0.0
  0
LINE
  5
2AE
100
AcDbEntity
  8
0
  6
CONTINUOUS
 62
       7
100
AcDbLine
 10
-192.08737163
 20
-405.92412988
 30
0.0
 11
-194.71237163
 21
-408.54912988
 31
0.0
  0
LINE
  5
2AF
100
AcDbEntity
  8
0
  6
CONTINUOUS
 62
       7
100
AcDbLine
 10
-199.02487163
 20
-412.86162988
 30
0.0
 11
-201.83737163
 21
-415.67412988
 31
0.0
  0
LINE
  5
2B0
100
AcDbEntity
  8
0
  6
CONTINUOUS
 62
       7
100
AcDbLine
 10
-192.93589977
 20
-405.92412988
 30
0.0
 11
-195.56089977
 21
-408.54912988
 31
0.0
  0
LINE
  5
2B1
100
AcDbEntity
  8
0
  6
CONTINUOUS
 62
       7
100
AcDbLine
 10
-199.87339977
 20
-412.86162988
 30
0.0
 11
-202.68589977
 21
-415.67412988
 31
0.0
  0
LINE
  5
2B2
100
AcDbEntity
  8
0
  6
CONTINUOUS
 62
       7
100
AcDbLine
 10
-193.78442791
 20
-405.92412988
 30
0.0
 11
-196.40942791
 21
-408.54912988
 31
0.0
  0
LINE
  5
2B3
100
AcDbEntity
  8
0
  6
CONTINUOUS
 62
       7
100
AcDbLine
 10
-200.72192791
 20
-412.86162988
 30
0.0
 11
-203.53442791
 21
-415.67412988
 31
0.0
  0
LINE
  5
2B4
100
AcDbEntity
  8
0
  6
CONTINUOUS
 62
       7
100
AcDbLine
 10
-194.63295605
 20
-405.92412988
 30
0.0
 11
-197.25795605
 21
-408.54912988
 31
0.0
  0
LINE
  5
2B5
100
AcDbEntity
  8
0
  6
CONTINUOUS
 62
       7
100
AcDbLine
 10
-201.57045605
 20
-412.86162988
 30
0.0
 11
-203.56188823
 21
-414.85306207
 31
0.0
  0
LINE
  5
2B6
100
AcDbEntity
  8
0
  6
CONTINUOUS
 62
       7
100
AcDbLine
 10
-195.48148418
 20
-405.92412988
 30
0.0
 11
-198.10648418
 21
-408.54912988
 31
0.0
  0
LINE
  5
2B7
100
AcDbEntity
  8
0
  6
CONTINUOUS
 62
       7
100
AcDbLine
 10
-202.41898418
 20
-412.86162988
 30
0.0
 11
-202.99620281
 21
-413.43884851
 31
0.0
  0
LINE
  5
2B8
100
AcDbEntity
  8
0
  6
CONTINUOUS
 62
       7
100
AcDbLine
 10
-196.33001232
 20
-405.92412988
 30
0.0
 11
-198.95501232
 21
-408.54912988
 31
0.0
  0
LINE
  5
2B9
100
AcDbEntity
  8
0
  6
CONTINUOUS
 62
       7
100
AcDbLine
 10
-197.17854046
 20
-405.92412988
 30
0.0
 11
-199.80354046
 21
-408.54912988
 31
0.0
  0
LINE
  5
2BA
100
AcDbEntity
  8
0
  6
CONTINUOUS
 62
       7
100
AcDbLine
 10
-198.0270686
 20
-405.92412988
 30
0.0
 11
-200.6520686
 21
-408.54912988
 31
0.0
  0
LINE
  5
2BB
100
AcDbEntity
  8
0
  6
CONTINUOUS
 62
       7
100
AcDbLine
 10
-198.87559673
 20
-405.92412988
 30
0.0
 11
-200.64620281
 21
-407.69473596
 31
0.0
  0
LINE
  5
2BC
100
AcDbEntity
  8
0
  6
CONTINUOUS
 62
       7
100
AcDbLine
 10
-199.72412487
 20
-405.92412988
 30
0.0
 11
-200.30679155
 21
-406.50679656
 31
0.0
  0
LINE
  5
2BD
100
AcDbEntity
  8
0
  6
CONTINUOUS
 62
       7
100
AcDbLine
 10
-189.54178722
 20
-405.92412988
 30
0.0
 11
-193.35472661
 21
-409.73706927
 31
0.0
  0
LINE
  5
2BE
100
AcDbEntity
  8
0
  6
CONTINUOUS
 62
       7
100
AcDbLine
 10
-196.23296688
 20
-412.61530954
 30
0.0
 11
-199.29178722
 21
-415.67412988
 31
0.0
  0
LINE
  5
2BF
100
AcDbEntity
  8
0
  6
CONTINUOUS
 62
       7
100
AcDbLine
 10
-188.69325908
 20
-405.92412988
 30
0.0
 11
-198.44325908
 21
-415.67412988
 31
0.0
  0
LINE
  5
2C0
100
AcDbEntity
  8
0
  6
CONTINUOUS
 62
       7
100
AcDbLine
 10
-187.84473095
 20
-405.92412988
 30
0.0
 11
-197.59473095
 21
-415.67412988
 31
0.0
  0
LINE
  5
2C1
100
AcDbEntity
  8
0
  6
CONTINUOUS
 62
       7
100
AcDbLine
 10
-186.99620281
 20
-405.92412988
 30
0.0
 11
-196.74620281
 21
-415.67412988
 31
0.0
  0
LINE
  5
2C2
100
AcDbEntity
  8
0
  6
CONTINUOUS
 62
       7
100
AcDbLine
 10
-186.92182432
 20
-406.69827953
 30
0.0
 11
-195.89767467
 21
-415.67412988
 31
0.0
  0
LINE
  5
2C3
100
AcDbEntity
  8
0
  6
CONTINUOUS
 62
       7
100
AcDbLine
 10
-187.40669754
 20
-408.03168089
 30
0.0
 11
-195.04914653
 21
-415.67412988
 31
0.0
  0
LINE
  5
2C4
100
AcDbEntity
  8
0
  6
CONTINUOUS
 62
       7
100
AcDbLine
 10
-187.89157077
 20
-409.36508225
 30
0.0
 11
-194.15821941
 21
-415.63173089
 31
0.0
  0
LINE
  5
2C5
100
AcDbEntity
  8
0
  6
CONTINUOUS
 62
       7
100
AcDbLine
 10
-188.37644399
 20
-410.69848361
 30
0.0
 11
-193.02684856
 21
-415.34888818
 31
0.0
  0
LINE
  5
2C6
100
AcDbEntity
  8
0
  6
CONTINUOUS
 62
       7
100
AcDbLine
 10
-188.86131721
 20
-412.03188497
 30
0.0
 11
-191.42930889
 21
-414.59987664
 31
0.0
  0
LINE
  5
2C7
100
AcDbEntity
  8
0
  6
CONTINUOUS
 62
       7
100
AcDbLine
 10
-200.92781536
 20
-400.86162988
 30
0.0
 11
-208.69734661
 21
-408.63116113
 31
0.0
  0
LINE
  5
2C8
100
AcDbEntity
  8
0
  6
CONTINUOUS
 62
       7
100
AcDbLine
 10
-212.87424393
 20
-412.80805845
 30
0.0
 11
-215.74031536
 21
-415.67412988
 31
0.0
  0
LINE
  5
2C9
100
AcDbEntity
  8
0
  6
CONTINUOUS
 62
       7
100
AcDbLine
 10
-201.7763435
 20
-400.86162988
 30
0.0
 11
-208.19353303
 21
-407.27881941
 31
0.0
  0
LINE
  5
2CA
100
AcDbEntity
  8
0
  6
CONTINUOUS
 62
       7
100
AcDbLine
 10
-213.7763435
 20
-412.86162988
 30
0.0
 11
-215.59730129
 21
-414.68258768
 31
0.0
  0
LINE
  5
2CB
100
AcDbEntity
  8
0
  6
CONTINUOUS
 62
       7
100
AcDbLine
 10
-202.62487163
 20
-400.86162988
 30
0.0
 11
-207.68971945
 21
-405.92647769
 31
0.0
  0
LINE
  5
2CC
100
AcDbEntity
  8
0
  6
CONTINUOUS
 62
       7
100
AcDbLine
 10
-214.62487163
 20
-412.86162988
 30
0.0
 11
-215.17303722
 21
-413.40979547
 31
0.0
  0
LINE
  5
2CD
100
AcDbEntity
  8
0
  6
CONTINUOUS
 62
       7
100
AcDbLine
 10
-203.47339977
 20
-400.86162988
 30
0.0
 11
-207.18590586
 21
-404.57413597
 31
0.0
  0
LINE
  5
2CE
100
AcDbEntity
  8
0
  6
CONTINUOUS
 62
       7
100
AcDbLine
 10
-204.32192791
 20
-400.86162988
 30
0.0
 11
-206.68209228
 21
-403.22179426
 31
0.0
  0
LINE
  5
2CF
100
AcDbEntity
  8
0
  6
CONTINUOUS
 62
       7
100
AcDbLine
 10
-205.17045605
 20
-400.86162988
 30
0.0
 11
-206.1782787
 21
-401.86945254
 31
0.0
  0
LINE
  5
2D0
100
AcDbEntity
  8
0
  6
CONTINUOUS
 62
       7
100
AcDbLine
 10
-201.07930415
 20
-401.86164681
 30
0.0
 11
-209.20116019
 21
-409.98350285
 31
0.0
  0
LINE
  5
2D1
100
AcDbEntity
  8
0
  6
CONTINUOUS
 62
       7
100
AcDbLine
 10
-211.90449749
 20
-412.68684015
 30
0.0
 11
-214.89178722
 21
-415.67412988
 31
0.0
  0
LINE
  5
2D2
100
AcDbEntity
  8
0
  6
CONTINUOUS
 62
       7
100
AcDbLine
 10
-201.51444678
 20
-403.14531758
 30
0.0
 11
-210.28370281
 21
-411.91457361
 31
0.0
  0
LINE
  5
2D3
100
AcDbEntity
  8
0
  6
CONTINUOUS
 62
       7
100
AcDbLine
 10
-210.31874248
 20
-411.94961328
 30
0.0
 11
-214.04325908
 21
-415.67412988
 31
0.0
  0
LINE
  5
2D4
100
AcDbEntity
  8
0
  6
CONTINUOUS
 62
       7
100
AcDbLine
 10
-201.94958942
 20
-404.42898835
 30
0.0
 11
-213.19473095
 21
-415.67412988
 31
0.0
  0
LINE
  5
2D5
100
AcDbEntity
  8
0
  6
CONTINUOUS
 62
       7
100
AcDbLine
 10
-202.38473205
 20
-405.71265912
 30
0.0
 11
-212.34620281
 21
-415.67412988
 31
0.0
  0
LINE
  5
2D6
100
AcDbEntity
  8
0
  6
CONTINUOUS
 62
       7
100
AcDbLine
 10
-202.81987469
 20
-406.9963299
 30
0.0
 11
-211.49767467
 21
-415.67412988
 31
0.0
  0
LINE
  5
2D7
100
AcDbEntity
  8
0
  6
CONTINUOUS
 62
       7
100
AcDbLine
 10
-203.25501732
 20
-408.28000067
 30
0.0
 11
-210.58346111
 21
-415.60844446
 31
0.0
  0
LINE
  5
2D8
100
AcDbEntity
  8
0
  6
CONTINUOUS
 62
       7
100
AcDbLine
 10
-203.69015995
 20
-409.56367144
 30
0.0
 11
-209.64065207
 21
-415.51416355
 31
0.0
  0
LINE
  5
2D9
100
AcDbEntity
  8
0
  6
CONTINUOUS
 62
       7
100
AcDbLine
 10
-204.12530259
 20
-410.84734221
 30
0.0
 11
-208.36410686
 21
-415.08614648
 31
0.0
  0
LINE
  5
2DA
100
AcDbEntity
  8
0
  6
CONTINUOUS
 62
       7
100
AcDbLine
 10
-209.94656536
 20
-401.91162988
 30
0.0
 11
-216.88043633
 21
-408.84550085
 31
0.0
  0
LINE
  5
2DB
100
AcDbEntity
  8
0
  6
CONTINUOUS
 62
       7
100
AcDbLine
 10
-209.7450935
 20
-400.86162988
 30
0.0
 11
-216.41511444
 21
-407.53165083
 31
0.0
  0
LINE
  5
2DC
100
AcDbEntity
  8
0
  6
CONTINUOUS
 62
       7
100
AcDbLine
 10
-210.59362163
 20
-400.86162988
 30
0.0
 11
-215.94979256
 21
-406.21780081
 31
0.0
  0
LINE
  5
2DD
100
AcDbEntity
  8
0
  6
CONTINUOUS
 62
       7
100
AcDbLine
 10
-211.44214977
 20
-400.86162988
 30
0.0
 11
-215.48447068
 21
-404.90395079
 31
0.0
  0
LINE
  5
2DE
100
AcDbEntity
  8
0
  6
CONTINUOUS
 62
       7
100
AcDbLine
 10
-212.29067791
 20
-400.86162988
 30
0.0
 11
-215.0191488
 21
-403.59010077
 31
0.0
  0
LINE
  5
2DF
100
AcDbEntity
  8
0
  6
CONTINUOUS
 62
       7
100
AcDbLine
 10
-213.13920605
 20
-400.86162988
 30
0.0
 11
-214.55382692
 21
-402.27625075
 31
0.0
  0
LINE
  5
2E0
100
AcDbEntity
  8
0
  6
CONTINUOUS
 62
       7
100
AcDbLine
 10
-213.98773418
 20
-400.86162988
 30
0.0
 11
-214.08850504
 21
-400.96240073
 31
0.0
  0
LINE
  5
2E1
100
AcDbEntity
  8
0
  6
CONTINUOUS
 62
       7
100
AcDbLine
 10
-210.45568224
 20
-403.2692749
 30
0.0
 11
-217.04803722
 21
-409.86162988
 31
0.0
  0
LINE
  5
2E2
100
AcDbEntity
  8
0
  6
CONTINUOUS
 62
       7
100
AcDbLine
 10
-210.96479912
 20
-404.62691992
 30
0.0
 11
-216.19950908
 21
-409.86162988
 31
0.0
  0
LINE
  5
2E3
100
AcDbEntity
  8
0
  6
CONTINUOUS
 62
       7
100
AcDbLine
 10
-211.47391601
 20
-405.98456494
 30
0.0
 11
-215.35098095
 21
-409.86162988
 31
0.0
  0
LINE
  5
2E4
100
AcDbEntity
  8
0
  6
CONTINUOUS
 62
       7
100
AcDbLine
 10
-211.98303289
 20
-407.34220996
 30
0.0
 11
-214.50245281
 21
-409.86162988
 31
0.0
  0
LINE
  5
2E5
100
AcDbEntity
  8
0
  6
CONTINUOUS
 62
       7
100
AcDbLine
 10
-212.49214977
 20
-408.69985498
 30
0.0
 11
-213.65392467
 21
-409.86162988
 31
0.0
  0
LINE
  5
2E6
100
AcDbEntity
  8
0
  6
CONTINUOUS
 62
       7
100
AcDbLine
 10
-273.90281536
 20
400.23245871
 30
0.0
 11
283.15968464
 21
400.23245871
 31
0.0
  0
LINE
  5
2E7
100
AcDbEntity
  8
0
  6
CONTINUOUS
 62
       7
100
AcDbLine
 10
93.78468464
 20
429.95087012
 30
0.0
 11
283.15968464
 21
429.95087012
 31
0.0
  0
LINE
  5
2E8
100
AcDbEntity
  8
0
  6
CONTINUOUS
 62
       7
100
AcDbLine
 10
93.78468464
 20
429.95087012
 30
0.0
 11
93.78468464
 21
400.23245871
 31
0.0
  0
LINE
  5
2E9
100
AcDbEntity
  8
0
  6
CONTINUOUS
 62
       7
100
AcDbLine
 10
283.15968464
 20
429.95087012
 30
0.0
 11
283.15968464
 21
400.23245871
 31
0.0
  0
LINE
  5
2EA
100
AcDbEntity
  8
0
  6
CONTINUOUS
 62
       7
100
AcDbLine
 10
-273.15281536
 20
-423.36162988
 30
0.0
 11
280.15968464
 21
-423.36162988
 31
0.0
  0
LINE
  5
2EB
100
AcDbEntity
  8
0
  6
CONTINUOUS
 62
       7
100
AcDbLine
 10
-273.15281536
 20
-387.17412988
 30
0.0
 11
280.15968464
 21
-387.17412988
 31
0.0
  0
LINE
  5
2EC
100
AcDbEntity
  8
0
  6
CONTINUOUS
 62
       7
100
AcDbLine
 10
-273.15281536
 20
-382.11162988
 30
0.0
 11
280.15968464
 21
-382.11162988
 31
0.0
  0
LINE
  5
2ED
100
AcDbEntity
  8
0
  6
CONTINUOUS
 62
       7
100
AcDbLine
 10
-273.15281536
 20
-382.11162988
 30
0.0
 11
-273.15281536
 21
-262.11162988
 31
0.0
  0
LINE
  5
2EE
100
AcDbEntity
  8
0
  6
CONTINUOUS
 62
       7
100
AcDbLine
 10
-252.34031536
 20
-382.11162988
 30
0.0
 11
-252.34031536
 21
-262.11162988
 31
0.0
  0
LINE
  5
2EF
100
AcDbEntity
  8
0
  6
CONTINUOUS
 62
       7
100
AcDbLine
 10
-112.65281536
 20
-382.11162988
 30
0.0
 11
-112.65281536
 21
-262.11162988
 31
0.0
  0
LINE
  5
2F0
100
AcDbEntity
  8
0
  6
CONTINUOUS
 62
       7
100
AcDbLine
 10
46.72218464
 20
-382.11162988
 30
0.0
 11
46.72218464
 21
-262.11162988
 31
0.0
  0
LINE
  5
2F1
100
AcDbEntity
  8
0
  6
CONTINUOUS
 62
       7
100
AcDbLine
 10
80.09718464
 20
-382.11162988
 30
0.0
 11
80.09718464
 21
-262.11162988
 31
0.0
  0
LINE
  5
2F2
100
AcDbEntity
  8
0
  6
CONTINUOUS
 62
       7
100
AcDbLine
 10
280.15968464
 20
-382.11162988
 30
0.0
 11
280.15968464
 21
-262.11162988
 31
0.0
  0
LINE
  5
2F3
100
AcDbEntity
  8
0
  6
CONTINUOUS
 62
       7
100
AcDbLine
 10
93.03468464
 20
-423.36162988
 30
0.0
 11
93.03468464
 21
-387.17412988
 31
0.0
  0
LINE
  5
2F4
100
AcDbEntity
  8
0
  6
CONTINUOUS
 62
       7
100
AcDbLine
 10
78.03468464
 20
-423.36162988
 30
0.0
 11
78.03468464
 21
-387.17412988
 31
0.0
  0
LINE
  5
2F5
100
AcDbEntity
  8
0
  6
CONTINUOUS
 62
       7
100
AcDbLine
 10
-109.65281536
 20
-423.36162988
 30
0.0
 11
-109.65281536
 21
-387.17412988
 31
0.0
  0
LINE
  5
2F6
100
AcDbEntity
  8
0
  6
CONTINUOUS
 62
       7
100
AcDbLine
 10
-124.65281536
 20
-423.36162988
 30
0.0
 11
-124.65281536
 21
-387.17412988
 31
0.0
  0
LINE
  5
2F7
100
AcDbEntity
  8
0
  6
CONTINUOUS
 62
       7
100
AcDbLine
 10
-273.15281536
 20
-367.11162988
 30
0.0
 11
280.15968464
 21
-367.11162988
 31
0.0
  0
LINE
  5
2F8
100
AcDbEntity
  8
0
  6
CONTINUOUS
 62
       7
100
AcDbLine
 10
-273.15281536
 20
-352.11162988
 30
0.0
 11
280.15968464
 21
-352.11162988
 31
0.0
  0
LINE
  5
2F9
100
AcDbEntity
  8
0
  6
CONTINUOUS
 62
       7
100
AcDbLine
 10
-273.15281536
 20
-337.11162988
 30
0.0
 11
280.15968464
 21
-337.11162988
 31
0.0
  0
LINE
  5
2FA
100
AcDbEntity
  8
0
  6
CONTINUOUS
 62
       7
100
AcDbLine
 10
-273.15281536
 20
-322.11162988
 30
0.0
 11
280.15968464
 21
-322.11162988
 31
0.0
  0
LINE
  5
2FB
100
AcDbEntity
  8
0
  6
CONTINUOUS
 62
       7
100
AcDbLine
 10
-273.15281536
 20
-307.11162988
 30
0.0
 11
280.15968464
 21
-307.11162988
 31
0.0
  0
LINE
  5
2FC
100
AcDbEntity
  8
0
  6
CONTINUOUS
 62
       7
100
AcDbLine
 10
-273.15281536
 20
-292.11162988
 30
0.0
 11
280.15968464
 21
-292.11162988
 31
0.0
  0
LINE
  5
2FD
100
AcDbEntity
  8
0
  6
CONTINUOUS
 62
       7
100
AcDbLine
 10
-273.15281536
 20
-277.11162988
 30
0.0
 11
280.15968464
 21
-277.11162988
 31
0.0
  0
LINE
  5
2FE
100
AcDbEntity
  8
0
  6
CONTINUOUS
 62
       7
100
AcDbLine
 10
-273.15281536
 20
-262.11162988
 30
0.0
 11
280.15968464
 21
-262.11162988
 31
0.0
  0
LINE
  5
2FF
100
AcDbEntity
  8
0
  6
CONTINUOUS
 62
       7
100
AcDbLine
 10
-242.21531536
 20
417.57587012
 30
0.0
 11
-244.75794579
 21
422.07437012
 31
0.0
  0
LINE
  5
300
100
AcDbEntity
  8
0
  6
CONTINUOUS
 62
       7
100
AcDbLine
 10
-254.89198283
 20
426.01337012
 30
0.0
 11
-254.57948283
 21
426.95087012
 31
0.0
  0
LINE
  5
301
100
AcDbEntity
  8
0
  6
CONTINUOUS
 62
       7
100
AcDbLine
 10
-230.99620843
 20
418.68542358
 30
0.0
 11
-231.33731536
 21
418.51487012
 31
0.0
  0
LINE
  5
302
100
AcDbEntity
  8
0
  6
CONTINUOUS
 62
       7
100
AcDbLine
 10
-230.77781536
 20
417.57587012
 30
0.0
 11
-229.20281536
 21
419.15087012
 31
0.0
  0
LINE
  5
303
100
AcDbEntity
  8
0
  6
CONTINUOUS
 62
       7
100
AcDbLine
 10
-229.46531536
 20
417.57587012
 30
0.0
 11
-229.20281536
 21
419.15087012
 31
0.0
  0
LINE
  5
304
100
AcDbEntity
  8
0
  6
CONTINUOUS
 62
       7
100
AcDbLine
 10
-222.52781536
 20
418.88837012
 30
0.0
 11
-222.52781536
 21
418.51487012
 31
0.0
  0
LINE
  5
305
100
AcDbEntity
  8
0
  6
CONTINUOUS
 62
       7
100
AcDbLine
 10
-214.23275372
 20
417.57587012
 30
0.0
 11
-217.65281536
 21
417.57587012
 31
0.0
  0
LINE
  5
306
100
AcDbEntity
  8
0
  6
CONTINUOUS
 62
       7
100
AcDbLine
 10
-219.50071793
 20
418.91208037
 30
0.0
 11
-221.02781536
 21
417.57587012
 31
0.0
  0
LINE
  5
307
100
AcDbEntity
  8
0
  6
CONTINUOUS
 62
       7
100
AcDbLine
 10
-208.66557135
 20
417.57587012
 30
0.0
 11
-212.59031536
 21
417.57587012
 31
0.0
  0
LINE
  5
308
100
AcDbEntity
  8
0
  6
CONTINUOUS
 62
       7
100
AcDbLine
 10
-247.76944036
 20
418.51487012
 30
0.0
 11
-244.95750286
 21
426.01337012
 31
0.0
  0
LINE
  5
309
100
AcDbEntity
  8
0
  6
CONTINUOUS
 62
       7
100
AcDbLine
 10
-245.07965042
 20
423.01337012
 30
0.0
 11
-240.69078182
 21
423.01337012
 31
0.0
  0
LINE
  5
30A
100
AcDbEntity
  8
0
  6
CONTINUOUS
 62
       7
100
AcDbLine
 10
-216.83463354
 20
419.82587012
 30
0.0
 11
-217.46531536
 21
419.82587012
 31
0.0
  0
LINE
  5
30B
100
AcDbEntity
  8
0
  6
CONTINUOUS
 62
       7
100
AcDbLine
 10
-217.46531536
 20
419.82587012
 30
0.0
 11
-218.08515769
 21
419.82587012
 31
0.0
  0
LINE
  5
30C
100
AcDbEntity
  8
0
  6
CONTINUOUS
 62
       7
100
AcDbLine
 10
-223.56954977
 20
417.57587012
 30
0.0
 11
-221.02781536
 21
417.57587012
 31
0.0
  0
CIRCLE
  5
30D
100
AcDbEntity
  8
0
  6
CONTINUOUS
 62
       7
100
AcDbCircle
 10
-227.68954108
 20
422.82587012
 30
0.0
 40
0.56797572
  0
LINE
  5
30E
100
AcDbEntity
  8
0
  6
CONTINUOUS
 62
       7
100
AcDbLine
 10
-247.06687786
 20
426.01337012
 30
0.0
 11
-244.95750286
 21
426.01337012
 31
0.0
  0
LINE
  5
30F
100
AcDbEntity
  8
0
  6
CONTINUOUS
 62
       7
100
AcDbLine
 10
-243.95465042
 20
426.01337012
 30
0.0
 11
-240.69078182
 21
426.01337012
 31
0.0
  0
LINE
  5
310
100
AcDbEntity
  8
0
  6
CONTINUOUS
 62
       7
100
AcDbLine
 10
-250.27781536
 20
417.57587012
 30
0.0
 11
-249.92569036
 21
418.51487012
 31
0.0
  0
LINE
  5
311
100
AcDbEntity
  8
0
  6
CONTINUOUS
 62
       7
100
AcDbLine
 10
-247.06687786
 20
426.01337012
 30
0.0
 11
-246.71531536
 21
426.95087012
 31
0.0
  0
LINE
  5
312
100
AcDbEntity
  8
0
  6
CONTINUOUS
 62
       7
100
AcDbLine
 10
-247.53608077
 20
426.01337012
 30
0.0
 11
-247.18451827
 21
426.95087012
 31
0.0
  0
LINE
  5
313
100
AcDbEntity
  8
0
  6
CONTINUOUS
 62
       7
100
AcDbLine
 10
-240.69078182
 20
426.95087012
 30
0.0
 11
-246.71531536
 21
426.95087012
 31
0.0
  0
LINE
  5
314
100
AcDbEntity
  8
0
  6
CONTINUOUS
 62
       7
100
AcDbLine
 10
-247.18451827
 20
426.95087012
 30
0.0
 11
-248.07524641
 21
426.95087012
 31
0.0
  0
LINE
  5
315
100
AcDbEntity
  8
0
  6
CONTINUOUS
 62
       7
100
AcDbLine
 10
-248.42680891
 20
426.01337012
 30
0.0
 11
-247.53608077
 21
426.01337012
 31
0.0
  0
LINE
  5
316
100
AcDbEntity
  8
0
  6
CONTINUOUS
 62
       7
100
AcDbLine
 10
-248.76836624
 20
426.01337012
 30
0.0
 11
-248.41680374
 21
426.95087012
 31
0.0
  0
LINE
  5
317
100
AcDbEntity
  8
0
  6
CONTINUOUS
 62
       7
100
AcDbLine
 10
-248.41680374
 20
426.95087012
 30
0.0
 11
-249.16344241
 21
426.95087012
 31
0.0
  0
LINE
  5
318
100
AcDbEntity
  8
0
  6
CONTINUOUS
 62
       7
100
AcDbLine
 10
-249.51500491
 20
426.01337012
 30
0.0
 11
-248.76836624
 21
426.01337012
 31
0.0
  0
LINE
  5
319
100
AcDbEntity
  8
0
  6
CONTINUOUS
 62
       7
100
AcDbLine
 10
-249.51500491
 20
426.01337012
 30
0.0
 11
-249.16344241
 21
426.95087012
 31
0.0
  0
LINE
  5
31A
100
AcDbEntity
  8
0
  6
CONTINUOUS
 62
       7
100
AcDbLine
 10
-249.8009029
 20
426.95087012
 30
0.0
 11
-250.53255226
 21
426.95087012
 31
0.0
  0
LINE
  5
31B
100
AcDbEntity
  8
0
  6
CONTINUOUS
 62
       7
100
AcDbLine
 10
-250.88411476
 20
426.01337012
 30
0.0
 11
-250.1524654
 21
426.01337012
 31
0.0
  0
LINE
  5
31C
100
AcDbEntity
  8
0
  6
CONTINUOUS
 62
       7
100
AcDbLine
 10
-250.88411476
 20
426.01337012
 30
0.0
 11
-250.53255226
 21
426.95087012
 31
0.0
  0
LINE
  5
31D
100
AcDbEntity
  8
0
  6
CONTINUOUS
 62
       7
100
AcDbLine
 10
-248.42680891
 20
426.01337012
 30
0.0
 11
-248.07524641
 21
426.95087012
 31
0.0
  0
LINE
  5
31E
100
AcDbEntity
  8
0
  6
CONTINUOUS
 62
       7
100
AcDbLine
 10
-250.1524654
 20
426.01337012
 30
0.0
 11
-249.8009029
 21
426.95087012
 31
0.0
  0
LINE
  5
31F
100
AcDbEntity
  8
0
  6
CONTINUOUS
 62
       7
100
AcDbLine
 10
-251.43210891
 20
426.01337012
 30
0.0
 11
-251.08054641
 21
426.95087012
 31
0.0
  0
LINE
  5
320
100
AcDbEntity
  8
0
  6
CONTINUOUS
 62
       7
100
AcDbLine
 10
-251.08054641
 20
426.95087012
 30
0.0
 11
-251.7570273
 21
426.95087012
 31
0.0
  0
LINE
  5
321
100
AcDbEntity
  8
0
  6
CONTINUOUS
 62
       7
100
AcDbLine
 10
-252.1085898
 20
426.01337012
 30
0.0
 11
-251.43210891
 21
426.01337012
 31
0.0
  0
LINE
  5
322
100
AcDbEntity
  8
0
  6
CONTINUOUS
 62
       7
100
AcDbLine
 10
-252.1085898
 20
426.01337012
 30
0.0
 11
-251.7570273
 21
426.95087012
 31
0.0
  0
LINE
  5
323
100
AcDbEntity
  8
0
  6
CONTINUOUS
 62
       7
100
AcDbLine
 10
-252.68124296
 20
426.01337012
 30
0.0
 11
-252.32968046
 21
426.95087012
 31
0.0
  0
LINE
  5
324
100
AcDbEntity
  8
0
  6
CONTINUOUS
 62
       7
100
AcDbLine
 10
-252.32968046
 20
426.95087012
 30
0.0
 11
-252.93124296
 21
426.95087012
 31
0.0
  0
LINE
  5
325
100
AcDbEntity
  8
0
  6
CONTINUOUS
 62
       7
100
AcDbLine
 10
-253.24374296
 20
426.01337012
 30
0.0
 11
-252.68124296
 21
426.01337012
 31
0.0
  0
LINE
  5
326
100
AcDbEntity
  8
0
  6
CONTINUOUS
 62
       7
100
AcDbLine
 10
-253.24374296
 20
426.01337012
 30
0.0
 11
-252.93124296
 21
426.95087012
 31
0.0
  0
LINE
  5
327
100
AcDbEntity
  8
0
  6
CONTINUOUS
 62
       7
100
AcDbLine
 10
-253.84276052
 20
426.01337012
 30
0.0
 11
-253.53026052
 21
426.95087012
 31
0.0
  0
LINE
  5
328
100
AcDbEntity
  8
0
  6
CONTINUOUS
 62
       7
100
AcDbLine
 10
-254.32948283
 20
426.01337012
 30
0.0
 11
-254.01698283
 21
426.95087012
 31
0.0
  0
LINE
  5
329
100
AcDbEntity
  8
0
  6
CONTINUOUS
 62
       7
100
AcDbLine
 10
-255.23573283
 20
426.01337012
 30
0.0
 11
-254.92323283
 21
426.95087012
 31
0.0
  0
LINE
  5
32A
100
AcDbEntity
  8
0
  6
CONTINUOUS
 62
       7
100
AcDbLine
 10
-255.82948283
 20
426.01337012
 30
0.0
 11
-255.51698283
 21
426.95087012
 31
0.0
  0
LINE
  5
32B
100
AcDbEntity
  8
0
  6
CONTINUOUS
 62
       7
100
AcDbLine
 10
-255.98573283
 20
426.01337012
 30
0.0
 11
-255.67323283
 21
426.95087012
 31
0.0
  0
LINE
  5
32C
100
AcDbEntity
  8
0
  6
CONTINUOUS
 62
       7
100
AcDbLine
 10
-253.53026052
 20
426.95087012
 30
0.0
 11
-254.01698283
 21
426.95087012
 31
0.0
  0
LINE
  5
32D
100
AcDbEntity
  8
0
  6
CONTINUOUS
 62
       7
100
AcDbLine
 10
-254.32948283
 20
426.01337012
 30
0.0
 11
-253.84276052
 21
426.01337012
 31
0.0
  0
LINE
  5
32E
100
AcDbEntity
  8
0
  6
CONTINUOUS
 62
       7
100
AcDbLine
 10
-254.57948283
 20
426.95087012
 30
0.0
 11
-254.92323283
 21
426.95087012
 31
0.0
  0
LINE
  5
32F
100
AcDbEntity
  8
0
  6
CONTINUOUS
 62
       7
100
AcDbLine
 10
-255.51698283
 20
426.95087012
 30
0.0
 11
-255.67323283
 21
426.95087012
 31
0.0
  0
LINE
  5
330
100
AcDbEntity
  8
0
  6
CONTINUOUS
 62
       7
100
AcDbLine
 10
-255.23573283
 20
426.01337012
 30
0.0
 11
-254.89198283
 21
426.01337012
 31
0.0
  0
LINE
  5
331
100
AcDbEntity
  8
0
  6
CONTINUOUS
 62
       7
100
AcDbLine
 10
-255.82948283
 20
426.01337012
 30
0.0
 11
-255.98573283
 21
426.01337012
 31
0.0
  0
LINE
  5
332
100
AcDbEntity
  8
0
  6
CONTINUOUS
 62
       7
100
AcDbLine
 10
-261.34031536
 20
428.63837012
 30
0.0
 11
-261.34031536
 21
414.01337012
 31
0.0
  0
LINE
  5
333
100
AcDbEntity
  8
0
  6
CONTINUOUS
 62
       7
100
AcDbLine
 10
-199.46531536
 20
428.63837012
 30
0.0
 11
-199.46531536
 21
414.01337012
 31
0.0
  0
LINE
  5
334
100
AcDbEntity
  8
0
  6
CONTINUOUS
 62
       7
100
AcDbLine
 10
-261.34031536
 20
428.63837012
 30
0.0
 11
-199.46531536
 21
428.63837012
 31
0.0
  0
LINE
  5
335
100
AcDbEntity
  8
0
  6
CONTINUOUS
 62
       7
100
AcDbLine
 10
-261.34031536
 20
414.01337012
 30
0.0
 11
-199.46531536
 21
414.01337012
 31
0.0
  0
LINE
  5
336
100
AcDbEntity
  8
0
  6
CONTINUOUS
 62
       7
100
AcDbLine
 10
-234.31812071
 20
436.62599625
 30
0.0
 11
-242.30574685
 21
428.63837012
 31
0.0
  0
LINE
  5
337
100
AcDbEntity
  8
0
  6
CONTINUOUS
 62
       7
100
AcDbLine
 10
-235.20681026
 20
436.58583484
 30
0.0
 11
-243.15427498
 21
428.63837012
 31
0.0
  0
LINE
  5
338
100
AcDbEntity
  8
0
  6
CONTINUOUS
 62
       7
100
AcDbLine
 10
-236.10454637
 20
436.53662687
 30
0.0
 11
-244.00280312
 21
428.63837012
 31
0.0
  0
LINE
  5
339
100
AcDbEntity
  8
0
  6
CONTINUOUS
 62
       7
100
AcDbLine
 10
-237.0117029
 20
436.47799847
 30
0.0
 11
-244.85133126
 21
428.63837012
 31
0.0
  0
LINE
  5
33A
100
AcDbEntity
  8
0
  6
CONTINUOUS
 62
       7
100
AcDbLine
 10
-237.92869736
 20
436.40953215
 30
0.0
 11
-245.6998594
 21
428.63837012
 31
0.0
  0
LINE
  5
33B
100
AcDbEntity
  8
0
  6
CONTINUOUS
 62
       7
100
AcDbLine
 10
-238.85599765
 20
436.33076
 30
0.0
 11
-246.54838753
 21
428.63837012
 31
0.0
  0
LINE
  5
33C
100
AcDbEntity
  8
0
  6
CONTINUOUS
 62
       7
100
AcDbLine
 10
-239.79413014
 20
436.24115565
 30
0.0
 11
-247.39691567
 21
428.63837012
 31
0.0
  0
LINE
  5
33D
100
AcDbEntity
  8
0
  6
CONTINUOUS
 62
       7
100
AcDbLine
 10
-240.74368969
 20
436.14012424
 30
0.0
 11
-248.24544381
 21
428.63837012
 31
0.0
  0
LINE
  5
33E
100
AcDbEntity
  8
0
  6
CONTINUOUS
 62
       7
100
AcDbLine
 10
-241.70535199
 20
436.02699007
 30
0.0
 11
-249.09397194
 21
428.63837012
 31
0.0
  0
LINE
  5
33F
100
AcDbEntity
  8
0
  6
CONTINUOUS
 62
       7
100
AcDbLine
 10
-242.679889
 20
435.9009812
 30
0.0
 11
-249.94250008
 21
428.63837012
 31
0.0
  0
LINE
  5
340
100
AcDbEntity
  8
0
  6
CONTINUOUS
 62
       7
100
AcDbLine
 10
-243.66818852
 20
435.76120982
 30
0.0
 11
-250.79102822
 21
428.63837012
 31
0.0
  0
LINE
  5
341
100
AcDbEntity
  8
0
  6
CONTINUOUS
 62
       7
100
AcDbLine
 10
-244.6712793
 20
435.60664717
 30
0.0
 11
-251.63955636
 21
428.63837012
 31
0.0
  0
LINE
  5
342
100
AcDbEntity
  8
0
  6
CONTINUOUS
 62
       7
100
AcDbLine
 10
-245.69036375
 20
435.43609086
 30
0.0
 11
-252.48808449
 21
428.63837012
 31
0.0
  0
LINE
  5
343
100
AcDbEntity
  8
0
  6
CONTINUOUS
 62
       7
100
AcDbLine
 10
-246.72686119
 20
435.24812156
 30
0.0
 11
-253.33661263
 21
428.63837012
 31
0.0
  0
LINE
  5
344
100
AcDbEntity
  8
0
  6
CONTINUOUS
 62
       7
100
AcDbLine
 10
-247.78246629
 20
435.04104459
 30
0.0
 11
-254.18514077
 21
428.63837012
 31
0.0
  0
LINE
  5
345
100
AcDbEntity
  8
0
  6
CONTINUOUS
 62
       7
100
AcDbLine
 10
-261.34031536
 20
421.48319553
 30
0.0
 11
-261.49764077
 21
421.32587012
 31
0.0
  0
LINE
  5
346
100
AcDbEntity
  8
0
  6
CONTINUOUS
 62
       7
100
AcDbLine
 10
-248.8592297
 20
434.81280933
 30
0.0
 11
-255.03366891
 21
428.63837012
 31
0.0
  0
LINE
  5
347
100
AcDbEntity
  8
0
  6
CONTINUOUS
 62
       7
100
AcDbLine
 10
-261.34031536
 20
422.33172367
 30
0.0
 11
-262.34616891
 21
421.32587012
 31
0.0
  0
LINE
  5
348
100
AcDbEntity
  8
0
  6
CONTINUOUS
 62
       7
100
AcDbLine
 10
-249.95967199
 20
434.56089518
 30
0.0
 11
-255.88219704
 21
428.63837012
 31
0.0
  0
LINE
  5
349
100
AcDbEntity
  8
0
  6
CONTINUOUS
 62
       7
100
AcDbLine
 10
-261.34031536
 20
423.1802518
 30
0.0
 11
-263.19469704
 21
421.32587012
 31
0.0
  0
LINE
  5
34A
100
AcDbEntity
  8
0
  6
CONTINUOUS
 62
       7
100
AcDbLine
 10
-251.08694995
 20
434.28214535
 30
0.0
 11
-256.73072518
 21
428.63837012
 31
0.0
  0
LINE
  5
34B
100
AcDbEntity
  8
0
  6
CONTINUOUS
 62
       7
100
AcDbLine
 10
-261.34031536
 20
424.02877994
 30
0.0
 11
-264.04322518
 21
421.32587012
 31
0.0
  0
LINE
  5
34C
100
AcDbEntity
  8
0
  6
CONTINUOUS
 62
       7
100
AcDbLine
 10
-252.24510762
 20
433.97251582
 30
0.0
 11
-257.57925332
 21
428.63837012
 31
0.0
  0
LINE
  5
34D
100
AcDbEntity
  8
0
  6
CONTINUOUS
 62
       7
100
AcDbLine
 10
-261.34031536
 20
424.87730808
 30
0.0
 11
-264.89175332
 21
421.32587012
 31
0.0
  0
LINE
  5
34E
100
AcDbEntity
  8
0
  6
CONTINUOUS
 62
       7
100
AcDbLine
 10
-253.43947211
 20
433.62667946
 30
0.0
 11
-258.42778146
 21
428.63837012
 31
0.0
  0
LINE
  5
34F
100
AcDbEntity
  8
0
  6
CONTINUOUS
 62
       7
100
AcDbLine
 10
-261.34031536
 20
425.72583622
 30
0.0
 11
-265.74028146
 21
421.32587012
 31
0.0
  0
LINE
  5
350
100
AcDbEntity
  8
0
  6
CONTINUOUS
 62
       7
100
AcDbLine
 10
-254.67731208
 20
433.23736763
 30
0.0
 11
-259.27630959
 21
428.63837012
 31
0.0
  0
LINE
  5
351
100
AcDbEntity
  8
0
  6
CONTINUOUS
 62
       7
100
AcDbLine
 10
-261.34031536
 20
426.57436435
 30
0.0
 11
-266.58880959
 21
421.32587012
 31
0.0
  0
LINE
  5
352
100
AcDbEntity
  8
0
  6
CONTINUOUS
 62
       7
100
AcDbLine
 10
-255.96900982
 20
432.79419803
 30
0.0
 11
-260.12483773
 21
428.63837012
 31
0.0
  0
LINE
  5
353
100
AcDbEntity
  8
0
  6
CONTINUOUS
 62
       7
100
AcDbLine
 10
-261.34031536
 20
427.42289249
 30
0.0
 11
-267.43733773
 21
421.32587012
 31
0.0
  0
LINE
  5
354
100
AcDbEntity
  8
0
  6
CONTINUOUS
 62
       7
100
AcDbLine
 10
-257.33034469
 20
432.2813913
 30
0.0
 11
-260.97336587
 21
428.63837012
 31
0.0
  0
LINE
  5
355
100
AcDbEntity
  8
0
  6
CONTINUOUS
 62
       7
100
AcDbLine
 10
-261.34031536
 20
428.27142063
 30
0.0
 11
-268.28586587
 21
421.32587012
 31
0.0
  0
LINE
  5
356
100
AcDbEntity
  8
0
  6
CONTINUOUS
 62
       7
100
AcDbLine
 10
-258.78753798
 20
431.67272614
 30
0.0
 11
-268.8270054
 21
421.63325872
 31
0.0
  0
LINE
  5
357
100
AcDbEntity
  8
0
  6
CONTINUOUS
 62
       7
100
AcDbLine
 10
-260.39074868
 20
430.91804359
 30
0.0
 11
-268.6830809
 21
422.62571136
 31
0.0
  0
LINE
  5
358
100
AcDbEntity
  8
0
  6
CONTINUOUS
 62
       7
100
AcDbLine
 10
-262.26486285
 20
429.89245755
 30
0.0
 11
-268.26825292
 21
423.88906748
 31
0.0
  0
LINE
  5
359
100
AcDbEntity
  8
0
  6
CONTINUOUS
 62
       7
100
AcDbLine
 10
-265.18616063
 20
427.81968791
 30
0.0
 11
-266.80624134
 21
426.1996072
 31
0.0
  0
LINE
  5
35A
100
AcDbEntity
  8
0
  6
CONTINUOUS
 62
       7
100
AcDbLine
 10
-233.43814202
 20
436.65744681
 30
0.0
 11
-241.45721871
 21
428.63837012
 31
0.0
  0
LINE
  5
35B
100
AcDbEntity
  8
0
  6
CONTINUOUS
 62
       7
100
AcDbLine
 10
-232.56657196
 20
436.68048873
 30
0.0
 11
-240.60869057
 21
428.63837012
 31
0.0
  0
LINE
  5
35C
100
AcDbEntity
  8
0
  6
CONTINUOUS
 62
       7
100
AcDbLine
 10
-231.70313793
 20
436.69539462
 30
0.0
 11
-239.76016243
 21
428.63837012
 31
0.0
  0
LINE
  5
35D
100
AcDbEntity
  8
0
  6
CONTINUOUS
 62
       7
100
AcDbLine
 10
-230.84759364
 20
436.70241078
 30
0.0
 11
-238.9116343
 21
428.63837012
 31
0.0
  0
LINE
  5
35E
100
AcDbEntity
  8
0
  6
CONTINUOUS
 62
       7
100
AcDbLine
 10
-229.99971632
 20
436.70175995
 30
0.0
 11
-238.06310616
 21
428.63837012
 31
0.0
  0
LINE
  5
35F
100
AcDbEntity
  8
0
  6
CONTINUOUS
 62
       7
100
AcDbLine
 10
-229.15930437
 20
436.69364377
 30
0.0
 11
-237.21457802
 21
428.63837012
 31
0.0
  0
LINE
  5
360
100
AcDbEntity
  8
0
  6
CONTINUOUS
 62
       7
100
AcDbLine
 10
-228.32617525
 20
436.67824476
 30
0.0
 11
-236.36604988
 21
428.63837012
 31
0.0
  0
LINE
  5
361
100
AcDbEntity
  8
0
  6
CONTINUOUS
 62
       7
100
AcDbLine
 10
-227.50016378
 20
436.65572808
 30
0.0
 11
-235.51752175
 21
428.63837012
 31
0.0
  0
LINE
  5
362
100
AcDbEntity
  8
0
  6
CONTINUOUS
 62
       7
100
AcDbLine
 10
-226.68112061
 20
436.62624311
 30
0.0
 11
-234.66899361
 21
428.63837012
 31
0.0
  0
LINE
  5
363
100
AcDbEntity
  8
0
  6
CONTINUOUS
 62
       7
100
AcDbLine
 10
-225.8689109
 20
436.58992469
 30
0.0
 11
-233.82046547
 21
428.63837012
 31
0.0
  0
LINE
  5
364
100
AcDbEntity
  8
0
  6
CONTINUOUS
 62
       7
100
AcDbLine
 10
-225.06341319
 20
436.54689426
 30
0.0
 11
-232.97193733
 21
428.63837012
 31
0.0
  0
LINE
  5
365
100
AcDbEntity
  8
0
  6
CONTINUOUS
 62
       7
100
AcDbLine
 10
-224.26451842
 20
436.49726089
 30
0.0
 11
-232.1234092
 21
428.63837012
 31
0.0
  0
LINE
  5
366
100
AcDbEntity
  8
0
  6
CONTINUOUS
 62
       7
100
AcDbLine
 10
-223.47212908
 20
436.4411221
 30
0.0
 11
-231.27488106
 21
428.63837012
 31
0.0
  0
LINE
  5
367
100
AcDbEntity
  8
0
  6
CONTINUOUS
 62
       7
100
AcDbLine
 10
-222.68615846
 20
436.37856458
 30
0.0
 11
-230.42635292
 21
428.63837012
 31
0.0
  0
LINE
  5
368
100
AcDbEntity
  8
0
  6
CONTINUOUS
 62
       7
100
AcDbLine
 10
-221.90653004
 20
436.30966486
 30
0.0
 11
-229.57782478
 21
428.63837012
 31
0.0
  0
LINE
  5
369
100
AcDbEntity
  8
0
  6
CONTINUOUS
 62
       7
100
AcDbLine
 10
-221.13317694
 20
436.23448983
 30
0.0
 11
-228.72929665
 21
428.63837012
 31
0.0
  0
LINE
  5
36A
100
AcDbEntity
  8
0
  6
CONTINUOUS
 62
       7
100
AcDbLine
 10
-220.36604143
 20
436.1530972
 30
0.0
 11
-227.88076851
 21
428.63837012
 31
0.0
  0
LINE
  5
36B
100
AcDbEntity
  8
0
  6
CONTINUOUS
 62
       7
100
AcDbLine
 10
-219.60507456
 20
436.06553593
 30
0.0
 11
-227.03224037
 21
428.63837012
 31
0.0
  0
LINE
  5
36C
100
AcDbEntity
  8
0
  6
CONTINUOUS
 62
       7
100
AcDbLine
 10
-218.85023582
 20
435.97184653
 30
0.0
 11
-226.18371223
 21
428.63837012
 31
0.0
  0
LINE
  5
36D
100
AcDbEntity
  8
0
  6
CONTINUOUS
 62
       7
100
AcDbLine
 10
-218.1014929
 20
435.87206132
 30
0.0
 11
-225.3351841
 21
428.63837012
 31
0.0
  0
LINE
  5
36E
100
AcDbEntity
  8
0
  6
CONTINUOUS
 62
       7
100
AcDbLine
 10
-217.35882144
 20
435.76620464
 30
0.0
 11
-224.48665596
 21
428.63837012
 31
0.0
  0
LINE
  5
36F
100
AcDbEntity
  8
0
  6
CONTINUOUS
 62
       7
100
AcDbLine
 10
-216.62220492
 20
435.65429303
 30
0.0
 11
-223.63812782
 21
428.63837012
 31
0.0
  0
LINE
  5
370
100
AcDbEntity
  8
0
  6
CONTINUOUS
 62
       7
100
AcDbLine
 10
-215.89163449
 20
435.53633531
 30
0.0
 11
-222.78959968
 21
428.63837012
 31
0.0
  0
LINE
  5
371
100
AcDbEntity
  8
0
  6
CONTINUOUS
 62
       7
100
AcDbLine
 10
-215.167109
 20
435.41233267
 30
0.0
 11
-221.94107155
 21
428.63837012
 31
0.0
  0
LINE
  5
372
100
AcDbEntity
  8
0
  6
CONTINUOUS
 62
       7
100
AcDbLine
 10
-214.44863491
 20
435.28227862
 30
0.0
 11
-221.09254341
 21
428.63837012
 31
0.0
  0
LINE
  5
373
100
AcDbEntity
  8
0
  6
CONTINUOUS
 62
       7
100
AcDbLine
 10
-213.73622638
 20
435.14615901
 30
0.0
 11
-220.24401527
 21
428.63837012
 31
0.0
  0
LINE
  5
374
100
AcDbEntity
  8
0
  6
CONTINUOUS
 62
       7
100
AcDbLine
 10
-213.02990536
 20
435.00395189
 30
0.0
 11
-219.39548714
 21
428.63837012
 31
0.0
  0
LINE
  5
375
100
AcDbEntity
  8
0
  6
CONTINUOUS
 62
       7
100
AcDbLine
 10
-212.3297017
 20
434.85562741
 30
0.0
 11
-218.546959
 21
428.63837012
 31
0.0
  0
LINE
  5
376
100
AcDbEntity
  8
0
  6
CONTINUOUS
 62
       7
100
AcDbLine
 10
-211.63565337
 20
434.70114761
 30
0.0
 11
-217.69843086
 21
428.63837012
 31
0.0
  0
LINE
  5
377
100
AcDbEntity
  8
0
  6
CONTINUOUS
 62
       7
100
AcDbLine
 10
-210.94780669
 20
434.54046616
 30
0.0
 11
-216.84990272
 21
428.63837012
 31
0.0
  0
LINE
  5
378
100
AcDbEntity
  8
0
  6
CONTINUOUS
 62
       7
100
AcDbLine
 10
-210.26621665
 20
434.37352806
 30
0.0
 11
-216.00137459
 21
428.63837012
 31
0.0
  0
LINE
  5
379
100
AcDbEntity
  8
0
  6
CONTINUOUS
 62
       7
100
AcDbLine
 10
-209.59094729
 20
434.20026928
 30
0.0
 11
-215.15284645
 21
428.63837012
 31
0.0
  0
LINE
  5
37A
100
AcDbEntity
  8
0
  6
CONTINUOUS
 62
       7
100
AcDbLine
 10
-208.92207212
 20
434.02061631
 30
0.0
 11
-214.30431831
 21
428.63837012
 31
0.0
  0
LINE
  5
37B
100
AcDbEntity
  8
0
  6
CONTINUOUS
 62
       7
100
AcDbLine
 10
-208.25967466
 20
433.83448564
 30
0.0
 11
-213.45579017
 21
428.63837012
 31
0.0
  0
LINE
  5
37C
100
AcDbEntity
  8
0
  6
CONTINUOUS
 62
       7
100
AcDbLine
 10
-207.60384902
 20
433.64178314
 30
0.0
 11
-212.60726204
 21
428.63837012
 31
0.0
  0
LINE
  5
37D
100
AcDbEntity
  8
0
  6
CONTINUOUS
 62
       7
100
AcDbLine
 10
-206.95470063
 20
433.44240338
 30
0.0
 11
-211.7587339
 21
428.63837012
 31
0.0
  0
LINE
  5
37E
100
AcDbEntity
  8
0
  6
CONTINUOUS
 62
       7
100
AcDbLine
 10
-206.31234706
 20
433.23622882
 30
0.0
 11
-210.91020576
 21
428.63837012
 31
0.0
  0
LINE
  5
37F
100
AcDbEntity
  8
0
  6
CONTINUOUS
 62
       7
100
AcDbLine
 10
-205.67691893
 20
433.02312881
 30
0.0
 11
-210.06167762
 21
428.63837012
 31
0.0
  0
LINE
  5
380
100
AcDbEntity
  8
0
  6
CONTINUOUS
 62
       7
100
AcDbLine
 10
-205.048561
 20
432.8029586
 30
0.0
 11
-209.21314949
 21
428.63837012
 31
0.0
  0
LINE
  5
381
100
AcDbEntity
  8
0
  6
CONTINUOUS
 62
       7
100
AcDbLine
 10
-204.42743345
 20
432.57555802
 30
0.0
 11
-208.36462135
 21
428.63837012
 31
0.0
  0
LINE
  5
382
100
AcDbEntity
  8
0
  6
CONTINUOUS
 62
       7
100
AcDbLine
 10
-203.81371331
 20
432.34075002
 30
0.0
 11
-207.51609321
 21
428.63837012
 31
0.0
  0
LINE
  5
383
100
AcDbEntity
  8
0
  6
CONTINUOUS
 62
       7
100
AcDbLine
 10
-203.20759613
 20
432.09833906
 30
0.0
 11
-206.66756507
 21
428.63837012
 31
0.0
  0
LINE
  5
384
100
AcDbEntity
  8
0
  6
CONTINUOUS
 62
       7
100
AcDbLine
 10
-202.60929795
 20
431.8481091
 30
0.0
 11
-205.81903694
 21
428.63837012
 31
0.0
  0
LINE
  5
385
100
AcDbEntity
  8
0
  6
CONTINUOUS
 62
       7
100
AcDbLine
 10
-202.01905757
 20
431.58982135
 30
0.0
 11
-204.9705088
 21
428.63837012
 31
0.0
  0
LINE
  5
386
100
AcDbEntity
  8
0
  6
CONTINUOUS
 62
       7
100
AcDbLine
 10
-201.43713919
 20
431.32321159
 30
0.0
 11
-204.12198066
 21
428.63837012
 31
0.0
  0
LINE
  5
387
100
AcDbEntity
  8
0
  6
CONTINUOUS
 62
       7
100
AcDbLine
 10
-200.86383555
 20
431.04798709
 30
0.0
 11
-203.27345252
 21
428.63837012
 31
0.0
  0
LINE
  5
388
100
AcDbEntity
  8
0
  6
CONTINUOUS
 62
       7
100
AcDbLine
 10
-200.29947164
 20
430.76382286
 30
0.0
 11
-202.42492439
 21
428.63837012
 31
0.0
  0
LINE
  5
389
100
AcDbEntity
  8
0
  6
CONTINUOUS
 62
       7
100
AcDbLine
 10
-199.74440907
 20
430.4703573
 30
0.0
 11
-201.57639625
 21
428.63837012
 31
0.0
  0
LINE
  5
38A
100
AcDbEntity
  8
0
  6
CONTINUOUS
 62
       7
100
AcDbLine
 10
-199.19905129
 20
430.16718694
 30
0.0
 11
-200.72786811
 21
428.63837012
 31
0.0
  0
LINE
  5
38B
100
AcDbEntity
  8
0
  6
CONTINUOUS
 62
       7
100
AcDbLine
 10
-198.66384995
 20
429.85386015
 30
0.0
 11
-199.87933997
 21
428.63837012
 31
0.0
  0
LINE
  5
38C
100
AcDbEntity
  8
0
  6
CONTINUOUS
 62
       7
100
AcDbLine
 10
-198.13931251
 20
429.52986944
 30
0.0
 11
-199.46531536
 21
428.2038666
 31
0.0
  0
LINE
  5
38D
100
AcDbEntity
  8
0
  6
CONTINUOUS
 62
       7
100
AcDbLine
 10
-197.62601164
 20
429.19464218
 30
0.0
 11
-199.46531536
 21
427.35533846
 31
0.0
  0
LINE
  5
38E
100
AcDbEntity
  8
0
  6
CONTINUOUS
 62
       7
100
AcDbLine
 10
-197.12459673
 20
428.84752895
 30
0.0
 11
-199.46531536
 21
426.50681032
 31
0.0
  0
LINE
  5
38F
100
AcDbEntity
  8
0
  6
CONTINUOUS
 62
       7
100
AcDbLine
 10
-196.63580833
 20
428.48778921
 30
0.0
 11
-199.46531536
 21
425.65828218
 31
0.0
  0
LINE
  5
390
100
AcDbEntity
  8
0
  6
CONTINUOUS
 62
       7
100
AcDbLine
 10
-196.16049632
 20
428.11457309
 30
0.0
 11
-199.46531536
 21
424.80975405
 31
0.0
  0
LINE
  5
391
100
AcDbEntity
  8
0
  6
CONTINUOUS
 62
       7
100
AcDbLine
 10
-195.69964312
 20
427.72689814
 30
0.0
 11
-199.46531536
 21
423.96122591
 31
0.0
  0
LINE
  5
392
100
AcDbEntity
  8
0
  6
CONTINUOUS
 62
       7
100
AcDbLine
 10
-195.25439382
 20
427.32361931
 30
0.0
 11
-199.46531536
 21
423.11269777
 31
0.0
  0
LINE
  5
393
100
AcDbEntity
  8
0
  6
CONTINUOUS
 62
       7
100
AcDbLine
 10
-194.82609577
 20
426.90338923
 30
0.0
 11
-199.46531536
 21
422.26416963
 31
0.0
  0
LINE
  5
394
100
AcDbEntity
  8
0
  6
CONTINUOUS
 62
       7
100
AcDbLine
 10
-194.41635178
 20
426.46460507
 30
0.0
 11
-199.46531536
 21
421.4156415
 31
0.0
  0
LINE
  5
395
100
AcDbEntity
  8
0
  6
CONTINUOUS
 62
       7
100
AcDbLine
 10
-194.02709298
 20
426.00533574
 30
0.0
 11
-198.7065586
 21
421.32587012
 31
0.0
  0
LINE
  5
396
100
AcDbEntity
  8
0
  6
CONTINUOUS
 62
       7
100
AcDbLine
 10
-193.66068095
 20
425.52321963
 30
0.0
 11
-197.85803046
 21
421.32587012
 31
0.0
  0
LINE
  5
397
100
AcDbEntity
  8
0
  6
CONTINUOUS
 62
       7
100
AcDbLine
 10
-193.32005536
 20
425.01531709
 30
0.0
 11
-197.00950233
 21
421.32587012
 31
0.0
  0
LINE
  5
398
100
AcDbEntity
  8
0
  6
CONTINUOUS
 62
       7
100
AcDbLine
 10
-193.00895418
 20
424.47789012
 30
0.0
 11
-196.16097419
 21
421.32587012
 31
0.0
  0
LINE
  5
399
100
AcDbEntity
  8
0
  6
CONTINUOUS
 62
       7
100
AcDbLine
 10
-192.73225624
 20
423.90605993
 30
0.0
 11
-195.31244605
 21
421.32587012
 31
0.0
  0
LINE
  5
39A
100
AcDbEntity
  8
0
  6
CONTINUOUS
 62
       7
100
AcDbLine
 10
-192.49654077
 20
423.29324726
 30
0.0
 11
-194.46391791
 21
421.32587012
 31
0.0
  0
LINE
  5
39B
100
AcDbEntity
  8
0
  6
CONTINUOUS
 62
       7
100
AcDbLine
 10
-192.31106129
 20
422.63019861
 30
0.0
 11
-193.61538978
 21
421.32587012
 31
0.0
  0
LINE
  5
39C
100
AcDbEntity
  8
0
  6
CONTINUOUS
 62
       7
100
AcDbLine
 10
-192.18958546
 20
421.9031463
 30
0.0
 11
-192.76686164
 21
421.32587012
 31
0.0
  0
LINE
  5
39D
100
AcDbEntity
  8
0
  6
CONTINUOUS
 62
       7
100
AcDbLine
 10
-218.58699773
 20
414.01337012
 30
0.0
 11
-226.77956693
 21
405.82080092
 31
0.0
  0
LINE
  5
39E
100
AcDbEntity
  8
0
  6
CONTINUOUS
 62
       7
100
AcDbLine
 10
-219.43552587
 20
414.01337012
 30
0.0
 11
-227.65853566
 21
405.79036032
 31
0.0
  0
LINE
  5
39F
100
AcDbEntity
  8
0
  6
CONTINUOUS
 62
       7
100
AcDbLine
 10
-220.284054
 20
414.01337012
 30
0.0
 11
-228.52912948
 21
405.76829464
 31
0.0
  0
LINE
  5
3A0
100
AcDbEntity
  8
0
  6
CONTINUOUS
 62
       7
100
AcDbLine
 10
-221.13258214
 20
414.01337012
 30
0.0
 11
-229.39161773
 21
405.75433453
 31
0.0
  0
LINE
  5
3A1
100
AcDbEntity
  8
0
  6
CONTINUOUS
 62
       7
100
AcDbLine
 10
-221.98111028
 20
414.01337012
 30
0.0
 11
-230.24624377
 21
405.74823663
 31
0.0
  0
LINE
  5
3A2
100
AcDbEntity
  8
0
  6
CONTINUOUS
 62
       7
100
AcDbLine
 10
-222.82963842
 20
414.01337012
 30
0.0
 11
-231.09322774
 21
405.7497808
 31
0.0
  0
LINE
  5
3A3
100
AcDbEntity
  8
0
  6
CONTINUOUS
 62
       7
100
AcDbLine
 10
-223.67816655
 20
414.01337012
 30
0.0
 11
-231.93276891
 21
405.75876776
 31
0.0
  0
LINE
  5
3A4
100
AcDbEntity
  8
0
  6
CONTINUOUS
 62
       7
100
AcDbLine
 10
-224.52669469
 20
414.01337012
 30
0.0
 11
-232.76504766
 21
405.77501715
 31
0.0
  0
LINE
  5
3A5
100
AcDbEntity
  8
0
  6
CONTINUOUS
 62
       7
100
AcDbLine
 10
-225.37522283
 20
414.01337012
 30
0.0
 11
-233.59022722
 21
405.79836573
 31
0.0
  0
LINE
  5
3A6
100
AcDbEntity
  8
0
  6
CONTINUOUS
 62
       7
100
AcDbLine
 10
-226.22375097
 20
414.01337012
 30
0.0
 11
-234.40845517
 21
405.82866592
 31
0.0
  0
LINE
  5
3A7
100
AcDbEntity
  8
0
  6
CONTINUOUS
 62
       7
100
AcDbLine
 10
-227.0722791
 20
414.01337012
 30
0.0
 11
-235.21986471
 21
405.86578451
 31
0.0
  0
LINE
  5
3A8
100
AcDbEntity
  8
0
  6
CONTINUOUS
 62
       7
100
AcDbLine
 10
-227.92080724
 20
414.01337012
 30
0.0
 11
-236.02457578
 21
405.90960158
 31
0.0
  0
LINE
  5
3A9
100
AcDbEntity
  8
0
  6
CONTINUOUS
 62
       7
100
AcDbLine
 10
-228.76933538
 20
414.01337012
 30
0.0
 11
-236.82269604
 21
405.96000946
 31
0.0
  0
LINE
  5
3AA
100
AcDbEntity
  8
0
  6
CONTINUOUS
 62
       7
100
AcDbLine
 10
-229.61786352
 20
414.01337012
 30
0.0
 11
-237.61432168
 21
406.01691196
 31
0.0
  0
LINE
  5
3AB
100
AcDbEntity
  8
0
  6
CONTINUOUS
 62
       7
100
AcDbLine
 10
-230.46639165
 20
414.01337012
 30
0.0
 11
-238.39953816
 21
406.08022361
 31
0.0
  0
LINE
  5
3AC
100
AcDbEntity
  8
0
  6
CONTINUOUS
 62
       7
100
AcDbLine
 10
-231.31491979
 20
414.01337012
 30
0.0
 11
-239.17842085
 21
406.14986906
 31
0.0
  0
LINE
  5
3AD
100
AcDbEntity
  8
0
  6
CONTINUOUS
 62
       7
100
AcDbLine
 10
-232.16344793
 20
414.01337012
 30
0.0
 11
-239.95103552
 21
406.22578253
 31
0.0
  0
LINE
  5
3AE
100
AcDbEntity
  8
0
  6
CONTINUOUS
 62
       7
100
AcDbLine
 10
-233.01197607
 20
414.01337012
 30
0.0
 11
-240.71743884
 21
406.30790734
 31
0.0
  0
LINE
  5
3AF
100
AcDbEntity
  8
0
  6
CONTINUOUS
 62
       7
100
AcDbLine
 10
-233.8605042
 20
414.01337012
 30
0.0
 11
-241.47767876
 21
406.39619557
 31
0.0
  0
LINE
  5
3B0
100
AcDbEntity
  8
0
  6
CONTINUOUS
 62
       7
100
AcDbLine
 10
-234.70903234
 20
414.01337012
 30
0.0
 11
-242.23179478
 21
406.49060768
 31
0.0
  0
LINE
  5
3B1
100
AcDbEntity
  8
0
  6
CONTINUOUS
 62
       7
100
AcDbLine
 10
-235.55756048
 20
414.01337012
 30
0.0
 11
-242.97981828
 21
406.59111232
 31
0.0
  0
LINE
  5
3B2
100
AcDbEntity
  8
0
  6
CONTINUOUS
 62
       7
100
AcDbLine
 10
-236.40608862
 20
414.01337012
 30
0.0
 11
-243.72177267
 21
406.69768606
 31
0.0
  0
LINE
  5
3B3
100
AcDbEntity
  8
0
  6
CONTINUOUS
 62
       7
100
AcDbLine
 10
-237.25461675
 20
414.01337012
 30
0.0
 11
-244.45767358
 21
406.81031329
 31
0.0
  0
LINE
  5
3B4
100
AcDbEntity
  8
0
  6
CONTINUOUS
 62
       7
100
AcDbLine
 10
-238.10314489
 20
414.01337012
 30
0.0
 11
-245.18752893
 21
406.92898608
 31
0.0
  0
LINE
  5
3B5
100
AcDbEntity
  8
0
  6
CONTINUOUS
 62
       7
100
AcDbLine
 10
-238.95167303
 20
414.01337012
 30
0.0
 11
-245.91133898
 21
407.05370417
 31
0.0
  0
LINE
  5
3B6
100
AcDbEntity
  8
0
  6
CONTINUOUS
 62
       7
100
AcDbLine
 10
-239.80020116
 20
414.01337012
 30
0.0
 11
-246.62909635
 21
407.18447493
 31
0.0
  0
LINE
  5
3B7
100
AcDbEntity
  8
0
  6
CONTINUOUS
 62
       7
100
AcDbLine
 10
-240.6487293
 20
414.01337012
 30
0.0
 11
-247.34078597
 21
407.32131345
 31
0.0
  0
LINE
  5
3B8
100
AcDbEntity
  8
0
  6
CONTINUOUS
 62
       7
100
AcDbLine
 10
-241.49725744
 20
414.01337012
 30
0.0
 11
-248.04638497
 21
407.46424259
 31
0.0
  0
LINE
  5
3B9
100
AcDbEntity
  8
0
  6
CONTINUOUS
 62
       7
100
AcDbLine
 10
-242.34578558
 20
414.01337012
 30
0.0
 11
-248.74586254
 21
407.61329315
 31
0.0
  0
LINE
  5
3BA
100
AcDbEntity
  8
0
  6
CONTINUOUS
 62
       7
100
AcDbLine
 10
-243.19431371
 20
414.01337012
 30
0.0
 11
-249.43917975
 21
407.76850408
 31
0.0
  0
LINE
  5
3BB
100
AcDbEntity
  8
0
  6
CONTINUOUS
 62
       7
100
AcDbLine
 10
-244.04284185
 20
414.01337012
 30
0.0
 11
-250.12628926
 21
407.92992271
 31
0.0
  0
LINE
  5
3BC
100
AcDbEntity
  8
0
  6
CONTINUOUS
 62
       7
100
AcDbLine
 10
-244.89136999
 20
414.01337012
 30
0.0
 11
-250.80713503
 21
408.09760508
 31
0.0
  0
LINE
  5
3BD
100
AcDbEntity
  8
0
  6
CONTINUOUS
 62
       7
100
AcDbLine
 10
-245.73989813
 20
414.01337012
 30
0.0
 11
-251.48165193
 21
408.27161632
 31
0.0
  0
LINE
  5
3BE
100
AcDbEntity
  8
0
  6
CONTINUOUS
 62
       7
100
AcDbLine
 10
-246.58842626
 20
414.01337012
 30
0.0
 11
-252.14976529
 21
408.4520311
 31
0.0
  0
LINE
  5
3BF
100
AcDbEntity
  8
0
  6
CONTINUOUS
 62
       7
100
AcDbLine
 10
-247.4369544
 20
414.01337012
 30
0.0
 11
-252.81139037
 21
408.63893415
 31
0.0
  0
LINE
  5
3C0
100
AcDbEntity
  8
0
  6
CONTINUOUS
 62
       7
100
AcDbLine
 10
-248.28548254
 20
414.01337012
 30
0.0
 11
-253.46643176
 21
408.83242089
 31
0.0
  0
LINE
  5
3C1
100
AcDbEntity
  8
0
  6
CONTINUOUS
 62
       7
100
AcDbLine
 10
-249.13401068
 20
414.01337012
 30
0.0
 11
-254.11478264
 21
409.03259816
 31
0.0
  0
LINE
  5
3C2
100
AcDbEntity
  8
0
  6
CONTINUOUS
 62
       7
100
AcDbLine
 10
-249.98253881
 20
414.01337012
 30
0.0
 11
-254.75632395
 21
409.23958498
 31
0.0
  0
LINE
  5
3C3
100
AcDbEntity
  8
0
  6
CONTINUOUS
 62
       7
100
AcDbLine
 10
-250.83106695
 20
414.01337012
 30
0.0
 11
-255.39092346
 21
409.45351361
 31
0.0
  0
LINE
  5
3C4
100
AcDbEntity
  8
0
  6
CONTINUOUS
 62
       7
100
AcDbLine
 10
-251.67959509
 20
414.01337012
 30
0.0
 11
-256.01843464
 21
409.67453057
 31
0.0
  0
LINE
  5
3C5
100
AcDbEntity
  8
0
  6
CONTINUOUS
 62
       7
100
AcDbLine
 10
-252.52812323
 20
414.01337012
 30
0.0
 11
-256.63869541
 21
409.90279794
 31
0.0
  0
LINE
  5
3C6
100
AcDbEntity
  8
0
  6
CONTINUOUS
 62
       7
100
AcDbLine
 10
-253.37665136
 20
414.01337012
 30
0.0
 11
-257.25152664
 21
410.13849485
 31
0.0
  0
LINE
  5
3C7
100
AcDbEntity
  8
0
  6
CONTINUOUS
 62
       7
100
AcDbLine
 10
-254.2251795
 20
414.01337012
 30
0.0
 11
-257.85673045
 21
410.38181917
 31
0.0
  0
LINE
  5
3C8
100
AcDbEntity
  8
0
  6
CONTINUOUS
 62
       7
100
AcDbLine
 10
-255.07370764
 20
414.01337012
 30
0.0
 11
-258.45408825
 21
410.63298951
 31
0.0
  0
LINE
  5
3C9
100
AcDbEntity
  8
0
  6
CONTINUOUS
 62
       7
100
AcDbLine
 10
-255.92223578
 20
414.01337012
 30
0.0
 11
-259.04335837
 21
410.89224752
 31
0.0
  0
LINE
  5
3CA
100
AcDbEntity
  8
0
  6
CONTINUOUS
 62
       7
100
AcDbLine
 10
-256.77076391
 20
414.01337012
 30
0.0
 11
-259.62427342
 21
411.15986061
 31
0.0
  0
LINE
  5
3CB
100
AcDbEntity
  8
0
  6
CONTINUOUS
 62
       7
100
AcDbLine
 10
-257.61929205
 20
414.01337012
 30
0.0
 11
-260.19653703
 21
411.43612514
 31
0.0
  0
LINE
  5
3CC
100
AcDbEntity
  8
0
  6
CONTINUOUS
 62
       7
100
AcDbLine
 10
-258.46782019
 20
414.01337012
 30
0.0
 11
-260.75982013
 21
411.72137017
 31
0.0
  0
LINE
  5
3CD
100
AcDbEntity
  8
0
  6
CONTINUOUS
 62
       7
100
AcDbLine
 10
-259.31634833
 20
414.01337012
 30
0.0
 11
-261.31375647
 21
412.01596198
 31
0.0
  0
LINE
  5
3CE
100
AcDbEntity
  8
0
  6
CONTINUOUS
 62
       7
100
AcDbLine
 10
-260.16487646
 20
414.01337012
 30
0.0
 11
-261.85793722
 21
412.32030936
 31
0.0
  0
LINE
  5
3CF
100
AcDbEntity
  8
0
  6
CONTINUOUS
 62
       7
100
AcDbLine
 10
-261.0134046
 20
414.01337012
 30
0.0
 11
-262.39190458
 21
412.63487014
 31
0.0
  0
LINE
  5
3D0
100
AcDbEntity
  8
0
  6
CONTINUOUS
 62
       7
100
AcDbLine
 10
-261.34031536
 20
414.5349875
 30
0.0
 11
-262.91514388
 21
412.96015898
 31
0.0
  0
LINE
  5
3D1
100
AcDbEntity
  8
0
  6
CONTINUOUS
 62
       7
100
AcDbLine
 10
-261.34031536
 20
415.38351564
 30
0.0
 11
-263.42707404
 21
413.29675695
 31
0.0
  0
LINE
  5
3D2
100
AcDbEntity
  8
0
  6
CONTINUOUS
 62
       7
100
AcDbLine
 10
-261.34031536
 20
416.23204377
 30
0.0
 11
-263.9270357
 21
413.64532344
 31
0.0
  0
LINE
  5
3D3
100
AcDbEntity
  8
0
  6
CONTINUOUS
 62
       7
100
AcDbLine
 10
-261.34031536
 20
417.08057191
 30
0.0
 11
-264.4142764
 21
414.00661087
 31
0.0
  0
LINE
  5
3D4
100
AcDbEntity
  8
0
  6
CONTINUOUS
 62
       7
100
AcDbLine
 10
-261.34031536
 20
417.92910005
 30
0.0
 11
-264.8879319
 21
414.3814835
 31
0.0
  0
LINE
  5
3D5
100
AcDbEntity
  8
0
  6
CONTINUOUS
 62
       7
100
AcDbLine
 10
-261.34031536
 20
418.77762818
 30
0.0
 11
-265.34700228
 21
414.77094127
 31
0.0
  0
LINE
  5
3D6
100
AcDbEntity
  8
0
  6
CONTINUOUS
 62
       7
100
AcDbLine
 10
-261.34031536
 20
419.62615632
 30
0.0
 11
-265.7903208
 21
415.17615088
 31
0.0
  0
LINE
  5
3D7
100
AcDbEntity
  8
0
  6
CONTINUOUS
 62
       7
100
AcDbLine
 10
-261.34031536
 20
420.47468446
 30
0.0
 11
-266.21651297
 21
415.59848685
 31
0.0
  0
LINE
  5
3D8
100
AcDbEntity
  8
0
  6
CONTINUOUS
 62
       7
100
AcDbLine
 10
-261.33765784
 20
421.32587012
 30
0.0
 11
-266.6239414
 21
416.03958655
 31
0.0
  0
LINE
  5
3D9
100
AcDbEntity
  8
0
  6
CONTINUOUS
 62
       7
100
AcDbLine
 10
-262.18618597
 20
421.32587012
 30
0.0
 11
-267.01063009
 21
416.501426
 31
0.0
  0
LINE
  5
3DA
100
AcDbEntity
  8
0
  6
CONTINUOUS
 62
       7
100
AcDbLine
 10
-263.03471411
 20
421.32587012
 30
0.0
 11
-267.37415784
 21
416.98642639
 31
0.0
  0
LINE
  5
3DB
100
AcDbEntity
  8
0
  6
CONTINUOUS
 62
       7
100
AcDbLine
 10
-263.88324225
 20
421.32587012
 30
0.0
 11
-267.71150384
 21
417.49760853
 31
0.0
  0
LINE
  5
3DC
100
AcDbEntity
  8
0
  6
CONTINUOUS
 62
       7
100
AcDbLine
 10
-264.73177039
 20
421.32587012
 30
0.0
 11
-268.01881611
 21
418.0388244
 31
0.0
  0
LINE
  5
3DD
100
AcDbEntity
  8
0
  6
CONTINUOUS
 62
       7
100
AcDbLine
 10
-265.58029852
 20
421.32587012
 30
0.0
 11
-268.29104952
 21
418.61511913
 31
0.0
  0
LINE
  5
3DE
100
AcDbEntity
  8
0
  6
CONTINUOUS
 62
       7
100
AcDbLine
 10
-266.42882666
 20
421.32587012
 30
0.0
 11
-268.52137043
 21
419.23332635
 31
0.0
  0
LINE
  5
3DF
100
AcDbEntity
  8
0
  6
CONTINUOUS
 62
       7
100
AcDbLine
 10
-267.2773548
 20
421.32587012
 30
0.0
 11
-268.70011171
 21
419.90311321
 31
0.0
  0
LINE
  5
3E0
100
AcDbEntity
  8
0
  6
CONTINUOUS
 62
       7
100
AcDbLine
 10
-268.12588294
 20
421.32587012
 30
0.0
 11
-268.81277566
 21
420.63897739
 31
0.0
  0
LINE
  5
3E1
100
AcDbEntity
  8
0
  6
CONTINUOUS
 62
       7
100
AcDbLine
 10
-217.73846959
 20
414.01337012
 30
0.0
 11
-225.89192477
 21
405.85991494
 31
0.0
  0
LINE
  5
3E2
100
AcDbEntity
  8
0
  6
CONTINUOUS
 62
       7
100
AcDbLine
 10
-216.88994145
 20
414.01337012
 30
0.0
 11
-224.99527765
 21
405.90803392
 31
0.0
  0
LINE
  5
3E3
100
AcDbEntity
  8
0
  6
CONTINUOUS
 62
       7
100
AcDbLine
 10
-216.04141332
 20
414.01337012
 30
0.0
 11
-224.08925651
 21
405.96552693
 31
0.0
  0
LINE
  5
3E4
100
AcDbEntity
  8
0
  6
CONTINUOUS
 62
       7
100
AcDbLine
 10
-215.19288518
 20
414.01337012
 30
0.0
 11
-223.17344931
 21
406.03280599
 31
0.0
  0
LINE
  5
3E5
100
AcDbEntity
  8
0
  6
CONTINUOUS
 62
       7
100
AcDbLine
 10
-214.34435704
 20
414.01337012
 30
0.0
 11
-222.24739452
 21
406.11033264
 31
0.0
  0
LINE
  5
3E6
100
AcDbEntity
  8
0
  6
CONTINUOUS
 62
       7
100
AcDbLine
 10
-213.4958289
 20
414.01337012
 30
0.0
 11
-221.31057317
 21
406.19862586
 31
0.0
  0
LINE
  5
3E7
100
AcDbEntity
  8
0
  6
CONTINUOUS
 62
       7
100
AcDbLine
 10
-212.64730077
 20
414.01337012
 30
0.0
 11
-220.36239907
 21
406.29827182
 31
0.0
  0
LINE
  5
3E8
100
AcDbEntity
  8
0
  6
CONTINUOUS
 62
       7
100
AcDbLine
 10
-211.79877263
 20
414.01337012
 30
0.0
 11
-219.40220685
 21
406.4099359
 31
0.0
  0
LINE
  5
3E9
100
AcDbEntity
  8
0
  6
CONTINUOUS
 62
       7
100
AcDbLine
 10
-210.95024449
 20
414.01337012
 30
0.0
 11
-218.42923688
 21
406.53437774
 31
0.0
  0
LINE
  5
3EA
100
AcDbEntity
  8
0
  6
CONTINUOUS
 62
       7
100
AcDbLine
 10
-210.10171636
 20
414.01337012
 30
0.0
 11
-217.44261623
 21
406.67247025
 31
0.0
  0
LINE
  5
3EB
100
AcDbEntity
  8
0
  6
CONTINUOUS
 62
       7
100
AcDbLine
 10
-209.25318822
 20
414.01337012
 30
0.0
 11
-216.44133436
 21
406.82522398
 31
0.0
  0
LINE
  5
3EC
100
AcDbEntity
  8
0
  6
CONTINUOUS
 62
       7
100
AcDbLine
 10
-208.40466008
 20
414.01337012
 30
0.0
 11
-215.42421144
 21
406.99381876
 31
0.0
  0
LINE
  5
3ED
100
AcDbEntity
  8
0
  6
CONTINUOUS
 62
       7
100
AcDbLine
 10
-207.55613194
 20
414.01337012
 30
0.0
 11
-214.3898565
 21
407.17964556
 31
0.0
  0
LINE
  5
3EE
100
AcDbEntity
  8
0
  6
CONTINUOUS
 62
       7
100
AcDbLine
 10
-199.39510381
 20
421.32587012
 30
0.0
 11
-199.46531536
 21
421.25565857
 31
0.0
  0
LINE
  5
3EF
100
AcDbEntity
  8
0
  6
CONTINUOUS
 62
       7
100
AcDbLine
 10
-206.70760381
 20
414.01337012
 30
0.0
 11
-213.33661114
 21
407.38436279
 31
0.0
  0
LINE
  5
3F0
100
AcDbEntity
  8
0
  6
CONTINUOUS
 62
       7
100
AcDbLine
 10
-198.54657567
 20
421.32587012
 30
0.0
 11
-199.46531536
 21
420.40713043
 31
0.0
  0
LINE
  5
3F1
100
AcDbEntity
  8
0
  6
CONTINUOUS
 62
       7
100
AcDbLine
 10
-205.85907567
 20
414.01337012
 30
0.0
 11
-212.26247199
 21
407.6099738
 31
0.0
  0
LINE
  5
3F2
100
AcDbEntity
  8
0
  6
CONTINUOUS
 62
       7
100
AcDbLine
 10
-197.69804753
 20
421.32587012
 30
0.0
 11
-199.46531536
 21
419.55860229
 31
0.0
  0
LINE
  5
3F3
100
AcDbEntity
  8
0
  6
CONTINUOUS
 62
       7
100
AcDbLine
 10
-205.01054753
 20
414.01337012
 30
0.0
 11
-211.1649815
 21
407.85893615
 31
0.0
  0
LINE
  5
3F4
100
AcDbEntity
  8
0
  6
CONTINUOUS
 62
       7
100
AcDbLine
 10
-196.84951939
 20
421.32587012
 30
0.0
 11
-199.46531536
 21
418.71007415
 31
0.0
  0
LINE
  5
3F5
100
AcDbEntity
  8
0
  6
CONTINUOUS
 62
       7
100
AcDbLine
 10
-204.16201939
 20
414.01337012
 30
0.0
 11
-210.04106918
 21
408.13432034
 31
0.0
  0
LINE
  5
3F6
100
AcDbEntity
  8
0
  6
CONTINUOUS
 62
       7
100
AcDbLine
 10
-196.00099126
 20
421.32587012
 30
0.0
 11
-199.46531536
 21
417.86154602
 31
0.0
  0
LINE
  5
3F7
100
AcDbEntity
  8
0
  6
CONTINUOUS
 62
       7
100
AcDbLine
 10
-203.31349126
 20
414.01337012
 30
0.0
 11
-208.88681304
 21
408.44004834
 31
0.0
  0
LINE
  5
3F8
100
AcDbEntity
  8
0
  6
CONTINUOUS
 62
       7
100
AcDbLine
 10
-195.15246312
 20
421.32587012
 30
0.0
 11
-199.46531536
 21
417.01301788
 31
0.0
  0
LINE
  5
3F9
100
AcDbEntity
  8
0
  6
CONTINUOUS
 62
       7
100
AcDbLine
 10
-202.46496312
 20
414.01337012
 30
0.0
 11
-207.69706542
 21
408.78126782
 31
0.0
  0
LINE
  5
3FA
100
AcDbEntity
  8
0
  6
CONTINUOUS
 62
       7
100
AcDbLine
 10
-194.30393498
 20
421.32587012
 30
0.0
 11
-199.46531536
 21
416.16448974
 31
0.0
  0
LINE
  5
3FB
100
AcDbEntity
  8
0
  6
CONTINUOUS
 62
       7
100
AcDbLine
 10
-201.61643498
 20
414.01337012
 30
0.0
 11
-206.46483506
 21
409.16497004
 31
0.0
  0
LINE
  5
3FC
100
AcDbEntity
  8
0
  6
CONTINUOUS
 62
       7
100
AcDbLine
 10
-193.45540684
 20
421.32587012
 30
0.0
 11
-199.46531536
 21
415.3159616
 31
0.0
  0
LINE
  5
3FD
100
AcDbEntity
  8
0
  6
CONTINUOUS
 62
       7
100
AcDbLine
 10
-200.76790684
 20
414.01337012
 30
0.0
 11
-205.1801968
 21
409.60108017
 31
0.0
  0
LINE
  5
3FE
100
AcDbEntity
  8
0
  6
CONTINUOUS
 62
       7
100
AcDbLine
 10
-192.60687871
 20
421.32587012
 30
0.0
 11
-199.46531536
 21
414.46743347
 31
0.0
  0
LINE
  5
3FF
100
AcDbEntity
  8
0
  6
CONTINUOUS
 62
       7
100
AcDbLine
 10
-199.91937871
 20
414.01337012
 30
0.0
 11
-203.82819337
 21
410.10455545
 31
0.0
  0
LINE
  5
400
100
AcDbEntity
  8
0
  6
CONTINUOUS
 62
       7
100
AcDbLine
 10
-192.16008362
 20
420.92413706
 30
0.0
 11
-202.38428007
 21
410.69994061
 31
0.0
  0
LINE
  5
401
100
AcDbEntity
  8
0
  6
CONTINUOUS
 62
       7
100
AcDbLine
 10
-192.28260446
 20
419.95308809
 30
0.0
 11
-200.80247305
 21
411.4332195
 31
0.0
  0
LINE
  5
402
100
AcDbEntity
  8
0
  6
CONTINUOUS
 62
       7
100
AcDbLine
 10
-192.65266706
 20
418.73449735
 30
0.0
 11
-198.97312425
 21
412.41404016
 31
0.0
  0
LINE
  5
403
100
AcDbEntity
  8
0
  6
CONTINUOUS
 62
       7
100
AcDbLine
 10
-193.79734352
 20
416.74129276
 30
0.0
 11
-196.36916161
 21
414.16947467
 31
0.0
  0
ARC
  5
404
100
AcDbEntity
  8
0
  6
CONTINUOUS
 62
       7
100
AcDbCircle
 10
-240.69078182
 20
424.51337012
 30
0.0
 40
1.5
100
AcDbArc
 50
269.99999846
 51
450.00000154
  0
LINE
  5
405
100
AcDbEntity
  8
0
  6
CONTINUOUS
 62
       7
100
AcDbLine
 10
-249.92569036
 20
418.51487012
 30
0.0
 11
-247.76944036
 21
418.51487012
 31
0.0
  0
LINE
  5
406
100
AcDbEntity
  8
0
  6
CONTINUOUS
 62
       7
100
AcDbLine
 10
-250.27781536
 20
417.57587012
 30
0.0
 11
-247.11871292
 21
417.57587012
 31
0.0
  0
LINE
  5
407
100
AcDbEntity
  8
0
  6
CONTINUOUS
 62
       7
100
AcDbLine
 10
-247.11871292
 20
417.57587012
 30
0.0
 11
-245.43177542
 21
422.07437012
 31
0.0
  0
LINE
  5
408
100
AcDbEntity
  8
0
  6
CONTINUOUS
 62
       7
100
AcDbLine
 10
-245.07965042
 20
423.01337012
 30
0.0
 11
-243.95465042
 21
426.01337012
 31
0.0
  0
LINE
  5
409
100
AcDbEntity
  8
0
  6
CONTINUOUS
 62
       7
100
AcDbLine
 10
-245.43177542
 20
422.07437012
 30
0.0
 11
-244.75794579
 21
422.07437012
 31
0.0
  0
LINE
  5
40A
100
AcDbEntity
  8
0
  6
CONTINUOUS
 62
       7
100
AcDbLine
 10
-243.67933325
 20
422.07437012
 30
0.0
 11
-240.69078182
 21
422.07437012
 31
0.0
  0
LINE
  5
40B
100
AcDbEntity
  8
0
  6
CONTINUOUS
 62
       7
100
AcDbLine
 10
-241.66744194
 20
418.51487012
 30
0.0
 11
-243.67933325
 21
422.07437012
 31
0.0
  0
ARC
  5
40C
100
AcDbEntity
  8
0
  6
CONTINUOUS
 62
       7
100
AcDbCircle
 10
-240.69078182
 20
424.51337012
 30
0.0
 40
2.4375
100
AcDbArc
 50
269.99999846
 51
450.00000154
  0
LINE
  5
40D
100
AcDbEntity
  8
0
  6
CONTINUOUS
 62
       7
100
AcDbLine
 10
-242.21531536
 20
417.57587012
 30
0.0
 11
-238.84031536
 21
417.57587012
 31
0.0
  0
LINE
  5
40E
100
AcDbEntity
  8
0
  6
CONTINUOUS
 62
       7
100
AcDbLine
 10
-241.66744194
 20
418.51487012
 30
0.0
 11
-238.89663746
 21
418.51487012
 31
0.0
  0
ARC
  5
40F
100
AcDbEntity
  8
0
  6
CONTINUOUS
 62
       7
100
AcDbCircle
 10
-239.17595358
 20
420.62077271
 30
0.0
 40
2.12434536
100
AcDbArc
 50
277.55531826
 51
282.61004545
  0
ARC
  5
410
100
AcDbEntity
  8
0
  6
CONTINUOUS
 62
       7
100
AcDbCircle
 10
-239.17595358
 20
420.62077271
 30
0.0
 40
3.06334536
100
AcDbArc
 50
276.29029126
 51
293.79815571
  0
ARC
  5
411
100
AcDbEntity
  8
0
  6
CONTINUOUS
 62
       7
100
AcDbCircle
 10
-239.17595358
 20
420.62077271
 30
0.0
 40
3.06334536
100
AcDbArc
 50
316.5712576
 51
318.01426716
  0
ARC
  5
412
100
AcDbEntity
  8
0
  6
CONTINUOUS
 62
       7
100
AcDbCircle
 10
-236.97570945
 20
419.61183208
 30
0.0
 40
2.03660652
100
AcDbArc
 50
209.33182013
 51
211.50126274
  0
ARC
  5
413
100
AcDbEntity
  8
0
  6
CONTINUOUS
 62
       7
100
AcDbCircle
 10
-236.97570945
 20
419.61183208
 30
0.0
 40
2.03660652
100
AcDbArc
 50
241.74457628
 51
269.99999846
  0
ARC
  5
414
100
AcDbEntity
  8
0
  6
CONTINUOUS
 62
       7
100
AcDbCircle
 10
-231.92548248
 20
421.19852531
 30
0.0
 40
3.64232051
100
AcDbArc
 50
241.28311362
 51
264.04345057
  0
LINE
  5
415
100
AcDbEntity
  8
0
  6
CONTINUOUS
 62
       7
100
AcDbLine
 10
-236.97570945
 20
417.57587012
 30
0.0
 11
-234.86266865
 21
417.57587012
 31
0.0
  0
ARC
  5
416
100
AcDbEntity
  8
0
  6
CONTINUOUS
 62
       7
100
AcDbCircle
 10
-231.92548248
 20
421.19852531
 30
0.0
 40
2.70332051
100
AcDbArc
 50
251.08707921
 51
263.08482659
  0
ARC
  5
417
100
AcDbEntity
  8
0
  6
CONTINUOUS
 62
       7
100
AcDbCircle
 10
-235.65971159
 20
421.64414454
 30
0.0
 40
3.20661627
100
AcDbArc
 50
282.60950804
 51
291.93126858
  0
LINE
  5
418
100
AcDbEntity
  8
0
  6
CONTINUOUS
 62
       7
100
AcDbLine
 10
-236.95126055
 20
418.51487012
 30
0.0
 11
-234.95969055
 21
418.51487012
 31
0.0
  0
ARC
  5
419
100
AcDbEntity
  8
0
  6
CONTINUOUS
 62
       7
100
AcDbCircle
 10
-235.65971159
 20
421.64414454
 30
0.0
 40
4.14561627
100
AcDbArc
 50
313.58286062
 51
326.24939208
  0
ARC
  5
41A
100
AcDbEntity
  8
0
  6
CONTINUOUS
 62
       7
100
AcDbCircle
 10
-235.65971159
 20
421.64414454
 30
0.0
 40
4.14561627
100
AcDbArc
 50
281.08479839
 51
298.59507286
  0
LINE
  5
41B
100
AcDbEntity
  8
0
  6
CONTINUOUS
 62
       7
100
AcDbLine
 10
-232.30346139
 20
417.57587012
 30
0.0
 11
-230.77781536
 21
417.57587012
 31
0.0
  0
LINE
  5
41C
100
AcDbEntity
  8
0
  6
CONTINUOUS
 62
       7
100
AcDbLine
 10
-230.99620843
 20
418.68542358
 30
0.0
 11
-228.44476794
 21
421.23686407
 31
0.0
  0
LINE
  5
41D
100
AcDbEntity
  8
0
  6
CONTINUOUS
 62
       7
100
AcDbLine
 10
-228.35686302
 20
418.51487012
 30
0.0
 11
-227.94431978
 21
420.99012959
 31
0.0
  0
LINE
  5
41E
100
AcDbEntity
  8
0
  6
CONTINUOUS
 62
       7
100
AcDbLine
 10
-232.25096149
 20
418.51487012
 30
0.0
 11
-231.33731536
 21
418.51487012
 31
0.0
  0
ARC
  5
41F
100
AcDbEntity
  8
0
  6
CONTINUOUS
 62
       7
100
AcDbCircle
 10
-228.2317101
 20
421.03802798
 30
0.0
 40
0.29142656
100
AcDbArc
 50
350.53767763
 51
496.97750809
  0
LINE
  5
420
100
AcDbEntity
  8
0
  6
CONTINUOUS
 62
       7
100
AcDbLine
 10
-227.36671312
 20
418.51487012
 30
0.0
 11
-225.80389334
 21
419.26551584
 31
0.0
  0
LINE
  5
421
100
AcDbEntity
  8
0
  6
CONTINUOUS
 62
       7
100
AcDbLine
 10
-227.21531536
 20
417.57587012
 30
0.0
 11
-225.90686712
 21
418.15565982
 31
0.0
  0
LINE
  5
422
100
AcDbEntity
  8
0
  6
CONTINUOUS
 62
       7
100
AcDbLine
 10
-228.35686302
 20
418.51487012
 30
0.0
 11
-227.36671312
 21
418.51487012
 31
0.0
  0
LINE
  5
423
100
AcDbEntity
  8
0
  6
CONTINUOUS
 62
       7
100
AcDbLine
 10
-224.00719299
 20
417.99892524
 30
0.0
 11
-223.56954977
 21
417.57587012
 31
0.0
  0
LINE
  5
424
100
AcDbEntity
  8
0
  6
CONTINUOUS
 62
       7
100
AcDbLine
 10
-222.52781536
 20
418.51487012
 30
0.0
 11
-221.20867863
 21
418.51487012
 31
0.0
  0
LINE
  5
425
100
AcDbEntity
  8
0
  6
CONTINUOUS
 62
       7
100
AcDbLine
 10
-218.21039292
 20
421.13837012
 30
0.0
 11
-221.20867863
 21
418.51487012
 31
0.0
  0
LINE
  5
426
100
AcDbEntity
  8
0
  6
CONTINUOUS
 62
       7
100
AcDbLine
 10
-222.77468473
 20
420.95715764
 30
0.0
 11
-221.77552899
 21
420.95715764
 31
0.0
  0
LINE
  5
427
100
AcDbEntity
  8
0
  6
CONTINUOUS
 62
       7
100
AcDbLine
 10
-223.00149925
 20
420.33341773
 30
0.0
 11
-222.77468473
 21
420.95715764
 31
0.0
  0
LINE
  5
428
100
AcDbEntity
  8
0
  6
CONTINUOUS
 62
       7
100
AcDbLine
 10
-222.52781536
 20
418.88837012
 30
0.0
 11
-221.77552899
 21
420.95715764
 31
0.0
  0
LINE
  5
429
100
AcDbEntity
  8
0
  6
CONTINUOUS
 62
       7
100
AcDbLine
 10
-219.97587121
 20
417.60540886
 30
0.0
 11
-219.50071793
 21
418.91208037
 31
0.0
  0
LINE
  5
42A
100
AcDbEntity
  8
0
  6
CONTINUOUS
 62
       7
100
AcDbLine
 10
-218.08515769
 20
419.82587012
 30
0.0
 11
-218.9033395
 21
417.57587012
 31
0.0
  0
LINE
  5
42B
100
AcDbEntity
  8
0
  6
CONTINUOUS
 62
       7
100
AcDbLine
 10
-217.65281536
 20
417.57587012
 30
0.0
 11
-216.83463354
 21
419.82587012
 31
0.0
  0
LINE
  5
42C
100
AcDbEntity
  8
0
  6
CONTINUOUS
 62
       7
100
AcDbLine
 10
-215.46668629
 20
420.54085006
 30
0.0
 11
-216.20340627
 21
418.51487012
 31
0.0
  0
LINE
  5
42D
100
AcDbEntity
  8
0
  6
CONTINUOUS
 62
       7
100
AcDbLine
 10
-215.77843589
 20
421.13837012
 30
0.0
 11
-215.46668629
 21
420.54085006
 31
0.0
  0
LINE
  5
42E
100
AcDbEntity
  8
0
  6
CONTINUOUS
 62
       7
100
AcDbLine
 10
-217.83551931
 20
420.58066617
 30
0.0
 11
-217.65106642
 21
421.13837012
 31
0.0
  0
LINE
  5
42F
100
AcDbEntity
  8
0
  6
CONTINUOUS
 62
       7
100
AcDbLine
 10
-217.83551931
 20
420.58066617
 30
0.0
 11
-216.83667355
 21
421.13837012
 31
0.0
  0
LINE
  5
430
100
AcDbEntity
  8
0
  6
CONTINUOUS
 62
       7
100
AcDbLine
 10
-215.77843589
 20
421.13837012
 30
0.0
 11
-216.83667355
 21
421.13837012
 31
0.0
  0
LINE
  5
431
100
AcDbEntity
  8
0
  6
CONTINUOUS
 62
       7
100
AcDbLine
 10
-217.65106642
 20
421.13837012
 30
0.0
 11
-218.21039292
 21
421.13837012
 31
0.0
  0
ARC
  5
432
100
AcDbEntity
  8
0
  6
CONTINUOUS
 62
       7
100
AcDbCircle
 10
-209.00120957
 20
420.62077271
 30
0.0
 40
2.12434536
100
AcDbArc
 50
277.55531826
 51
282.61004545
  0
ARC
  5
433
100
AcDbEntity
  8
0
  6
CONTINUOUS
 62
       7
100
AcDbCircle
 10
-209.00120957
 20
420.62077271
 30
0.0
 40
3.06334536
100
AcDbArc
 50
276.29029126
 51
293.79815571
  0
ARC
  5
434
100
AcDbEntity
  8
0
  6
CONTINUOUS
 62
       7
100
AcDbCircle
 10
-209.00120957
 20
420.62077271
 30
0.0
 40
3.06334536
100
AcDbArc
 50
316.5712576
 51
318.01426716
  0
ARC
  5
435
100
AcDbEntity
  8
0
  6
CONTINUOUS
 62
       7
100
AcDbCircle
 10
-206.80096544
 20
419.61183208
 30
0.0
 40
2.03660652
100
AcDbArc
 50
209.33182013
 51
211.50126274
  0
ARC
  5
436
100
AcDbEntity
  8
0
  6
CONTINUOUS
 62
       7
100
AcDbCircle
 10
-206.80096544
 20
419.61183208
 30
0.0
 40
2.03660652
100
AcDbArc
 50
241.74457628
 51
269.99999846
  0
LINE
  5
437
100
AcDbEntity
  8
0
  6
CONTINUOUS
 62
       7
100
AcDbLine
 10
-211.98342119
 20
418.51487012
 30
0.0
 11
-208.72189346
 21
418.51487012
 31
0.0
  0
LINE
  5
438
100
AcDbEntity
  8
0
  6
CONTINUOUS
 62
       7
100
AcDbLine
 10
-206.80096544
 20
417.57587012
 30
0.0
 11
-204.99534261
 21
417.57587012
 31
0.0
  0
LINE
  5
439
100
AcDbEntity
  8
0
  6
CONTINUOUS
 62
       7
100
AcDbLine
 10
-206.77651654
 20
418.51487012
 30
0.0
 11
-204.78494654
 21
418.51487012
 31
0.0
  0
LINE
  5
43A
100
AcDbEntity
  8
0
  6
CONTINUOUS
 62
       7
100
AcDbLine
 10
-229.46531536
 20
417.57587012
 30
0.0
 11
-227.21531536
 21
417.57587012
 31
0.0
  0
LINE
  5
43B
100
AcDbEntity
  8
0
  6
CONTINUOUS
 62
       7
100
AcDbLine
 10
-219.97587121
 20
417.60540886
 30
0.0
 11
-218.9033395
 21
417.57587012
 31
0.0
  0
LINE
  5
43C
100
AcDbEntity
  8
0
  6
CONTINUOUS
 62
       7
100
AcDbLine
 10
-216.20340627
 20
418.51487012
 30
0.0
 11
-214.46954752
 21
418.51487012
 31
0.0
  0
LINE
  5
43D
100
AcDbEntity
  8
0
  6
CONTINUOUS
 62
       7
100
AcDbLine
 10
-211.26980381
 20
419.86665426
 30
0.0
 11
-210.56935285
 21
420.43285212
 31
0.0
  0
ARC
  5
43E
100
AcDbEntity
  8
0
  6
CONTINUOUS
 62
       7
100
AcDbCircle
 10
-211.98342119
 20
419.38487012
 30
0.0
 40
0.87
100
AcDbArc
 50
34.0753753
 51
269.99999846
  0
ARC
  5
43F
100
AcDbEntity
  8
0
  6
CONTINUOUS
 62
       7
100
AcDbCircle
 10
-211.98342119
 20
419.38487012
 30
0.0
 40
1.7600726
100
AcDbArc
 50
36.54256208
 51
190.98611795
  0
LINE
  5
440
100
AcDbEntity
  8
0
  6
CONTINUOUS
 62
       7
100
AcDbLine
 10
-214.23275372
 20
417.57587012
 30
0.0
 11
-213.34122723
 21
418.23189904
 31
0.0
  0
LINE
  5
441
100
AcDbEntity
  8
0
  6
CONTINUOUS
 62
       7
100
AcDbLine
 10
-213.72241792
 20
419.06464473
 30
0.0
 11
-214.46954752
 21
418.51487012
 31
0.0
  0
LINE
  5
442
100
AcDbEntity
  8
0
  6
CONTINUOUS
 62
       7
100
AcDbLine
 10
-213.34122723
 20
418.23189904
 30
0.0
 11
-212.59031536
 21
417.57587012
 31
0.0
  0
LINE
  5
443
100
AcDbEntity
  8
0
  6
CONTINUOUS
 62
       7
100
AcDbLine
 10
-204.78494654
 20
418.51487012
 30
0.0
 11
-204.99534261
 21
417.57587012
 31
0.0
  0
LINE
  5
444
100
AcDbEntity
  8
0
  6
CONTINUOUS
 62
       7
100
AcDbLine
 10
-254.64979533
 20
426.73993262
 30
0.0
 11
-255.16542033
 21
426.22430762
 31
0.0
  0
LINE
  5
445
100
AcDbEntity
  8
0
  6
CONTINUOUS
 62
       7
100
AcDbLine
 10
-253.56482994
 20
426.84716186
 30
0.0
 11
-254.29491341
 21
426.11707838
 31
0.0
  0
LINE
  5
446
100
AcDbEntity
  8
0
  6
CONTINUOUS
 62
       7
100
AcDbLine
 10
-252.33671171
 20
426.93212012
 30
0.0
 11
-253.23788359
 21
426.03094824
 31
0.0
  0
LINE
  5
447
100
AcDbEntity
  8
0
  6
CONTINUOUS
 62
       7
100
AcDbLine
 10
-251.1258181
 20
426.95087012
 30
0.0
 11
-252.0633181
 21
426.01337012
 31
0.0
  0
LINE
  5
448
100
AcDbEntity
  8
0
  6
CONTINUOUS
 62
       7
100
AcDbLine
 10
-249.87375883
 20
426.95087012
 30
0.0
 11
-250.81125883
 21
426.01337012
 31
0.0
  0
LINE
  5
449
100
AcDbEntity
  8
0
  6
CONTINUOUS
 62
       7
100
AcDbLine
 10
-248.49715433
 20
426.95087012
 30
0.0
 11
-249.43465433
 21
426.01337012
 31
0.0
  0
LINE
  5
44A
100
AcDbEntity
  8
0
  6
CONTINUOUS
 62
       7
100
AcDbLine
 10
-247.33691359
 20
426.95087012
 30
0.0
 11
-248.27441359
 21
426.01337012
 31
0.0
  0
LINE
  5
44B
100
AcDbEntity
  8
0
  6
CONTINUOUS
 62
       7
100
AcDbLine
 10
-247.01255855
 20
417.85894844
 30
0.0
 11
-247.29563687
 21
417.57587012
 31
0.0
  0
LINE
  5
44C
100
AcDbEntity
  8
0
  6
CONTINUOUS
 62
       7
100
AcDbLine
 10
-246.50344167
 20
419.21659346
 30
0.0
 11
-248.14416501
 21
417.57587012
 31
0.0
  0
LINE
  5
44D
100
AcDbEntity
  8
0
  6
CONTINUOUS
 62
       7
100
AcDbLine
 10
-245.99432478
 20
420.57423848
 30
0.0
 11
-247.59888869
 21
418.96967457
 31
0.0
  0
LINE
  5
44E
100
AcDbEntity
  8
0
  6
CONTINUOUS
 62
       7
100
AcDbLine
 10
-248.05369314
 20
418.51487012
 30
0.0
 11
-248.99269314
 21
417.57587012
 31
0.0
  0
LINE
  5
44F
100
AcDbEntity
  8
0
  6
CONTINUOUS
 62
       7
100
AcDbLine
 10
-245.4852079
 20
421.9318835
 30
0.0
 11
-247.08977181
 21
420.32731959
 31
0.0
  0
LINE
  5
450
100
AcDbEntity
  8
0
  6
CONTINUOUS
 62
       7
100
AcDbLine
 10
-248.90222128
 20
418.51487012
 30
0.0
 11
-249.84122128
 21
417.57587012
 31
0.0
  0
LINE
  5
451
100
AcDbEntity
  8
0
  6
CONTINUOUS
 62
       7
100
AcDbLine
 10
-249.75074942
 20
418.51487012
 30
0.0
 11
-250.03065492
 21
418.23496461
 31
0.0
  0
LINE
  5
452
100
AcDbEntity
  8
0
  6
CONTINUOUS
 62
       7
100
AcDbLine
 10
-243.86033383
 20
426.95087012
 30
0.0
 11
-245.05330428
 21
425.75789967
 31
0.0
  0
LINE
  5
453
100
AcDbEntity
  8
0
  6
CONTINUOUS
 62
       7
100
AcDbLine
 10
-244.70886197
 20
426.95087012
 30
0.0
 11
-245.64636197
 21
426.01337012
 31
0.0
  0
LINE
  5
454
100
AcDbEntity
  8
0
  6
CONTINUOUS
 62
       7
100
AcDbLine
 10
-245.55739011
 20
426.95087012
 30
0.0
 11
-246.49489011
 21
426.01337012
 31
0.0
  0
LINE
  5
455
100
AcDbEntity
  8
0
  6
CONTINUOUS
 62
       7
100
AcDbLine
 10
-246.40591824
 20
426.95087012
 30
0.0
 11
-246.90095363
 21
426.45583473
 31
0.0
  0
LINE
  5
456
100
AcDbEntity
  8
0
  6
CONTINUOUS
 62
       7
100
AcDbLine
 10
-237.80262407
 20
421.12918596
 30
0.0
 11
-238.70019407
 21
420.23161595
 31
0.0
  0
LINE
  5
457
100
AcDbEntity
  8
0
  6
CONTINUOUS
 62
       7
100
AcDbLine
 10
-236.89901203
 20
421.18426986
 30
0.0
 11
-238.92149366
 21
419.16178823
 31
0.0
  0
LINE
  5
458
100
AcDbEntity
  8
0
  6
CONTINUOUS
 62
       7
100
AcDbLine
 10
-236.24337189
 20
420.14285372
 30
0.0
 11
-238.80642914
 21
417.57979647
 31
0.0
  0
LINE
  5
459
100
AcDbEntity
  8
0
  6
CONTINUOUS
 62
       7
100
AcDbLine
 10
-242.16327756
 20
426.95087012
 30
0.0
 11
-243.10077756
 21
426.01337012
 31
0.0
  0
LINE
  5
45A
100
AcDbEntity
  8
0
  6
CONTINUOUS
 62
       7
100
AcDbLine
 10
-244.46697414
 20
424.64717354
 30
0.0
 11
-246.07153804
 21
423.04260963
 31
0.0
  0
LINE
  5
45B
100
AcDbEntity
  8
0
  6
CONTINUOUS
 62
       7
100
AcDbLine
 10
-241.31474942
 20
426.95087012
 30
0.0
 11
-242.25224942
 21
426.01337012
 31
0.0
  0
LINE
  5
45C
100
AcDbEntity
  8
0
  6
CONTINUOUS
 62
       7
100
AcDbLine
 10
-244.97609102
 20
423.28952852
 30
0.0
 11
-246.58065492
 21
421.68496461
 31
0.0
  0
LINE
  5
45D
100
AcDbEntity
  8
0
  6
CONTINUOUS
 62
       7
100
AcDbLine
 10
-240.47572673
 20
426.94136467
 30
0.0
 11
-241.40372128
 21
426.01337012
 31
0.0
  0
LINE
  5
45E
100
AcDbEntity
  8
0
  6
CONTINUOUS
 62
       7
100
AcDbLine
 10
-244.40372128
 20
423.01337012
 30
0.0
 11
-245.34272128
 21
422.07437012
 31
0.0
  0
LINE
  5
45F
100
AcDbEntity
  8
0
  6
CONTINUOUS
 62
       7
100
AcDbLine
 10
-239.79017399
 20
426.77838928
 30
0.0
 11
-240.56083267
 21
426.00773059
 31
0.0
  0
LINE
  5
460
100
AcDbEntity
  8
0
  6
CONTINUOUS
 62
       7
100
AcDbLine
 10
-243.55519314
 20
423.01337012
 30
0.0
 11
-244.66270178
 21
421.90586148
 31
0.0
  0
LINE
  5
461
100
AcDbEntity
  8
0
  6
CONTINUOUS
 62
       7
100
AcDbLine
 10
-239.24456108
 20
426.47547405
 30
0.0
 11
-239.91990558
 21
425.80012955
 31
0.0
  0
LINE
  5
462
100
AcDbEntity
  8
0
  6
CONTINUOUS
 62
       7
100
AcDbLine
 10
-238.80893028
 20
426.0625767
 30
0.0
 11
-239.47692088
 21
425.39458611
 31
0.0
  0
LINE
  5
463
100
AcDbEntity
  8
0
  6
CONTINUOUS
 62
       7
100
AcDbLine
 10
-238.48096377
 20
425.54201508
 30
0.0
 11
-239.21916887
 21
424.80380998
 31
0.0
  0
LINE
  5
464
100
AcDbEntity
  8
0
  6
CONTINUOUS
 62
       7
100
AcDbLine
 10
-238.28281192
 20
424.8916388
 30
0.0
 11
-239.36758362
 21
423.80686709
 31
0.0
  0
LINE
  5
465
100
AcDbEntity
  8
0
  6
CONTINUOUS
 62
       7
100
AcDbLine
 10
-243.01180569
 20
426.95087012
 30
0.0
 11
-243.94930569
 21
426.01337012
 31
0.0
  0
LINE
  5
466
100
AcDbEntity
  8
0
  6
CONTINUOUS
 62
       7
100
AcDbLine
 10
-243.95785725
 20
426.00481856
 30
0.0
 11
-245.56242116
 21
424.40025465
 31
0.0
  0
LINE
  5
467
100
AcDbEntity
  8
0
  6
CONTINUOUS
 62
       7
100
AcDbLine
 10
-241.85813687
 20
423.01337012
 30
0.0
 11
-242.79713687
 21
422.07437012
 31
0.0
  0
LINE
  5
468
100
AcDbEntity
  8
0
  6
CONTINUOUS
 62
       7
100
AcDbLine
 10
-243.36076233
 20
421.51074465
 30
0.0
 11
-244.0498759
 21
420.82163108
 31
0.0
  0
LINE
  5
469
100
AcDbEntity
  8
0
  6
CONTINUOUS
 62
       7
100
AcDbLine
 10
-242.70666501
 20
423.01337012
 30
0.0
 11
-243.64566501
 21
422.07437012
 31
0.0
  0
LINE
  5
46A
100
AcDbEntity
  8
0
  6
CONTINUOUS
 62
       7
100
AcDbLine
 10
-243.66717527
 20
422.05285985
 30
0.0
 11
-244.35628884
 21
421.36374628
 31
0.0
  0
LINE
  5
46B
100
AcDbEntity
  8
0
  6
CONTINUOUS
 62
       7
100
AcDbLine
 10
-241.00960873
 20
423.01337012
 30
0.0
 11
-241.94860873
 21
422.07437012
 31
0.0
  0
LINE
  5
46C
100
AcDbEntity
  8
0
  6
CONTINUOUS
 62
       7
100
AcDbLine
 10
-243.05434939
 20
420.96862946
 30
0.0
 11
-243.74346297
 21
420.27951588
 31
0.0
  0
LINE
  5
46D
100
AcDbEntity
  8
0
  6
CONTINUOUS
 62
       7
100
AcDbLine
 10
-239.98427879
 20
423.19017192
 30
0.0
 11
-241.10008059
 21
422.07437012
 31
0.0
  0
LINE
  5
46E
100
AcDbEntity
  8
0
  6
CONTINUOUS
 62
       7
100
AcDbLine
 10
-242.74793646
 20
420.42651426
 30
0.0
 11
-243.43705003
 21
419.73740069
 31
0.0
  0
LINE
  5
46F
100
AcDbEntity
  8
0
  6
CONTINUOUS
 62
       7
100
AcDbLine
 10
-238.30316724
 20
424.02275534
 30
0.0
 11
-240.20016704
 21
422.12575554
 31
0.0
  0
LINE
  5
470
100
AcDbEntity
  8
0
  6
CONTINUOUS
 62
       7
100
AcDbLine
 10
-242.44152352
 20
419.88439906
 30
0.0
 11
-243.13063709
 21
419.19528549
 31
0.0
  0
LINE
  5
471
100
AcDbEntity
  8
0
  6
CONTINUOUS
 62
       7
100
AcDbLine
 10
-242.13511058
 20
419.34228386
 30
0.0
 11
-242.82422415
 21
418.65317029
 31
0.0
  0
LINE
  5
472
100
AcDbEntity
  8
0
  6
CONTINUOUS
 62
       7
100
AcDbLine
 10
-241.82869764
 20
418.80016866
 30
0.0
 11
-242.51781121
 21
418.11105509
 31
0.0
  0
LINE
  5
473
100
AcDbEntity
  8
0
  6
CONTINUOUS
 62
       7
100
AcDbLine
 10
-241.26546804
 20
418.51487012
 30
0.0
 11
-242.20446804
 21
417.57587012
 31
0.0
  0
LINE
  5
474
100
AcDbEntity
  8
0
  6
CONTINUOUS
 62
       7
100
AcDbLine
 10
-240.41693991
 20
418.51487012
 30
0.0
 11
-241.35593991
 21
417.57587012
 31
0.0
  0
LINE
  5
475
100
AcDbEntity
  8
0
  6
CONTINUOUS
 62
       7
100
AcDbLine
 10
-239.56841177
 20
418.51487012
 30
0.0
 11
-240.50741177
 21
417.57587012
 31
0.0
  0
LINE
  5
476
100
AcDbEntity
  8
0
  6
CONTINUOUS
 62
       7
100
AcDbLine
 10
-236.43834597
 20
420.79640778
 30
0.0
 11
-237.21597119
 21
420.01878256
 31
0.0
  0
LINE
  5
477
100
AcDbEntity
  8
0
  6
CONTINUOUS
 62
       7
100
AcDbLine
 10
-237.92222205
 20
419.3125317
 30
0.0
 11
-239.65888363
 21
417.57587012
 31
0.0
  0
LINE
  5
478
100
AcDbEntity
  8
0
  6
CONTINUOUS
 62
       7
100
AcDbLine
 10
-231.81909201
 20
423.71860547
 30
0.0
 11
-233.9705992
 21
421.56709827
 31
0.0
  0
LINE
  5
479
100
AcDbEntity
  8
0
  6
CONTINUOUS
 62
       7
100
AcDbLine
 10
-236.57865712
 20
418.95904035
 30
0.0
 11
-237.79180939
 21
417.74588809
 31
0.0
  0
LINE
  5
47A
100
AcDbEntity
  8
0
  6
CONTINUOUS
 62
       7
100
AcDbLine
 10
-231.23614483
 20
423.45302451
 30
0.0
 11
-234.45470123
 21
420.23446811
 31
0.0
  0
LINE
  5
47B
100
AcDbEntity
  8
0
  6
CONTINUOUS
 62
       7
100
AcDbLine
 10
-236.17429922
 20
418.51487012
 30
0.0
 11
-237.10954173
 21
417.57962761
 31
0.0
  0
LINE
  5
47C
100
AcDbEntity
  8
0
  6
CONTINUOUS
 62
       7
100
AcDbLine
 10
-235.32577108
 20
418.51487012
 30
0.0
 11
-236.26477108
 21
417.57587012
 31
0.0
  0
LINE
  5
47D
100
AcDbEntity
  8
0
  6
CONTINUOUS
 62
       7
100
AcDbLine
 10
-231.02487191
 20
422.8157693
 30
0.0
 11
-232.24666899
 21
421.59397221
 31
0.0
  0
LINE
  5
47E
100
AcDbEntity
  8
0
  6
CONTINUOUS
 62
       7
100
AcDbLine
 10
-233.34533191
 20
420.4953093
 30
0.0
 11
-234.56712899
 21
419.27351221
 31
0.0
  0
LINE
  5
47F
100
AcDbEntity
  8
0
  6
CONTINUOUS
 62
       7
100
AcDbLine
 10
-231.07367448
 20
421.91843858
 30
0.0
 11
-235.41624295
 21
417.57587012
 31
0.0
  0
LINE
  5
480
100
AcDbEntity
  8
0
  6
CONTINUOUS
 62
       7
100
AcDbLine
 10
-231.44220325
 20
420.70138168
 30
0.0
 11
-234.47096644
 21
417.67261849
 31
0.0
  0
LINE
  5
481
100
AcDbEntity
  8
0
  6
CONTINUOUS
 62
       7
100
AcDbLine
 10
-228.27053186
 20
421.32685718
 30
0.0
 11
-232.02151892
 21
417.57587012
 31
0.0
  0
LINE
  5
482
100
AcDbEntity
  8
0
  6
CONTINUOUS
 62
       7
100
AcDbLine
 10
-227.9812079
 20
423.31323742
 30
0.0
 11
-228.17690838
 21
423.11753694
 31
0.0
  0
LINE
  5
483
100
AcDbEntity
  8
0
  6
CONTINUOUS
 62
       7
100
AcDbLine
 10
-232.68913688
 20
418.60530844
 30
0.0
 11
-233.41827775
 21
417.87616757
 31
0.0
  0
LINE
  5
484
100
AcDbEntity
  8
0
  6
CONTINUOUS
 62
       7
100
AcDbLine
 10
-227.25468052
 20
423.19123666
 30
0.0
 11
-228.05490762
 21
422.39100956
 31
0.0
  0
LINE
  5
485
100
AcDbEntity
  8
0
  6
CONTINUOUS
 62
       7
100
AcDbLine
 10
-231.93104706
 20
418.51487012
 30
0.0
 11
-232.78648422
 21
417.65943296
 31
0.0
  0
LINE
  5
486
100
AcDbEntity
  8
0
  6
CONTINUOUS
 62
       7
100
AcDbLine
 10
-223.63528768
 20
420.87093254
 30
0.0
 11
-226.70360477
 21
417.80261545
 31
0.0
  0
LINE
  5
487
100
AcDbEntity
  8
0
  6
CONTINUOUS
 62
       7
100
AcDbLine
 10
-227.68840637
 20
418.51487012
 30
0.0
 11
-228.62740637
 21
417.57587012
 31
0.0
  0
LINE
  5
488
100
AcDbEntity
  8
0
  6
CONTINUOUS
 62
       7
100
AcDbLine
 10
-228.32084873
 20
418.7309559
 30
0.0
 11
-229.47593451
 21
417.57587012
 31
0.0
  0
LINE
  5
489
100
AcDbEntity
  8
0
  6
CONTINUOUS
 62
       7
100
AcDbLine
 10
-228.1511431
 20
419.74918967
 30
0.0
 11
-229.2934859
 21
418.60684687
 31
0.0
  0
LINE
  5
48A
100
AcDbEntity
  8
0
  6
CONTINUOUS
 62
       7
100
AcDbLine
 10
-231.17299079
 20
417.57587012
 30
0.0
 11
-227.98143747
 21
420.76742343
 31
0.0
  0
LINE
  5
48B
100
AcDbEntity
  8
0
  6
CONTINUOUS
 62
       7
100
AcDbLine
 10
-221.8520063
 20
420.95715764
 30
0.0
 11
-225.22764624
 21
417.58151771
 31
0.0
  0
LINE
  5
48C
100
AcDbEntity
  8
0
  6
CONTINUOUS
 62
       7
100
AcDbLine
 10
-222.21670089
 20
419.74393492
 30
0.0
 11
-223.98406634
 21
417.97656947
 31
0.0
  0
LINE
  5
48D
100
AcDbEntity
  8
0
  6
CONTINUOUS
 62
       7
100
AcDbLine
 10
-222.52781536
 20
418.58429231
 30
0.0
 11
-223.53623755
 21
417.57587012
 31
0.0
  0
LINE
  5
48E
100
AcDbEntity
  8
0
  6
CONTINUOUS
 62
       7
100
AcDbLine
 10
-221.74870941
 20
418.51487012
 30
0.0
 11
-222.68770941
 21
417.57587012
 31
0.0
  0
LINE
  5
48F
100
AcDbEntity
  8
0
  6
CONTINUOUS
 62
       7
100
AcDbLine
 10
-218.74069977
 20
420.67435163
 30
0.0
 11
-221.83918127
 21
417.57587012
 31
0.0
  0
LINE
  5
490
100
AcDbEntity
  8
0
  6
CONTINUOUS
 62
       7
100
AcDbLine
 10
-224.91424979
 20
420.44049856
 30
0.0
 11
-225.39651211
 21
419.95823625
 31
0.0
  0
LINE
  5
491
100
AcDbEntity
  8
0
  6
CONTINUOUS
 62
       7
100
AcDbLine
 10
-226.35295508
 20
419.00179327
 30
0.0
 11
-227.77887824
 21
417.57587012
 31
0.0
  0
LINE
  5
492
100
AcDbEntity
  8
0
  6
CONTINUOUS
 62
       7
100
AcDbLine
 10
-224.62781187
 20
419.02988021
 30
0.0
 11
-225.77052863
 21
417.88716345
 31
0.0
  0
LINE
  5
493
100
AcDbEntity
  8
0
  6
CONTINUOUS
 62
       7
100
AcDbLine
 10
-222.70053444
 20
420.95715764
 30
0.0
 11
-222.81705633
 21
420.84063575
 31
0.0
  0
LINE
  5
494
100
AcDbEntity
  8
0
  6
CONTINUOUS
 62
       7
100
AcDbLine
 10
-223.11039903
 20
420.54729305
 30
0.0
 11
-223.91711921
 21
419.74057287
 31
0.0
  0
POINT
  5
495
100
AcDbEntity
  8
0
  6
CONTINUOUS
 62
       7
100
AcDbPoint
 10
188.47218464
 20
415.09166442
 30
0.0
  0
POINT
  5
496
100
AcDbEntity
  8
0
  6
CONTINUOUS
 62
       7
100
AcDbPoint
 10
186.59718464
 20
-405.26787988
 30
0.0
  0
POINT
  5
497
100
AcDbEntity
  8
0
  6
CONTINUOUS
 62
       7
100
AcDbPoint
 10
-15.80906536
 20
-405.26787988
 30
0.0
  0
POINT
  5
498
100
AcDbEntity
  8
0
  6
CONTINUOUS
 62
       7
100
AcDbPoint
 10
63.40968464
 20
-359.61162988
 30
0.0
  0
POINT
  5
499
100
AcDbEntity
  8
0
  6
CONTINUOUS
 62
       7
100
AcDbPoint
 10
-249.34031536
 20
-359.61162988
 30
0.0
  0
POINT
  5
49A
100
AcDbEntity
  8
0
  6
CONTINUOUS
 62
       7
100
AcDbPoint
 10
-109.65281536
 20
-359.61162988
 30
0.0
  0
POINT
  5
49B
100
AcDbEntity
  8
0
  6
CONTINUOUS
 62
       7
100
AcDbPoint
 10
83.09718464
 20
-359.61162988
 30
0.0
  0
LINE
  5
49C
100
AcDbEntity
  8
0
  6
CONTINUOUS
 62
       7
100
AcDbLine
 10
-314.96531536
 20
460.5
 30
0.0
 11
-314.96531536
 21
445.5
 31
0.0
  0
LINE
  5
49D
100
AcDbEntity
  8
0
  6
CONTINUOUS
 62
       7
100
AcDbLine
 10
-314.96531536
 20
445.5
 30
0.0
 11
-329.96531536
 21
445.5
 31
0.0
  0
LINE
  5
49E
100
AcDbEntity
  8
0
  6
CONTINUOUS
 62
       7
100
AcDbLine
 10
315.03468464
 20
445.5
 30
0.0
 11
330.03468464
 21
445.5
 31
0.0
  0
LINE
  5
49F
100
AcDbEntity
  8
0
  6
CONTINUOUS
 62
       7
100
AcDbLine
 10
315.03468464
 20
445.5
 30
0.0
 11
315.03468464
 21
460.5
 31
0.0
  0
LINE
  5
4A0
100
AcDbEntity
  8
0
  6
CONTINUOUS
 62
       7
100
AcDbLine
 10
315.03468464
 20
-460.5
 30
0.0
 11
315.03468464
 21
-445.5
 31
0.0
  0
LINE
  5
4A1
100
AcDbEntity
  8
0
  6
CONTINUOUS
 62
       7
100
AcDbLine
 10
315.03468464
 20
-445.5
 30
0.0
 11
330.03468464
 21
-445.5
 31
0.0
  0
LINE
  5
4A2
100
AcDbEntity
  8
0
  6
CONTINUOUS
 62
       7
100
AcDbLine
 10
-330.03468464
 20
-445.5
 30
0.0
 11
-314.96531536
 21
-445.5
 31
0.0
  0
LINE
  5
4A3
100
AcDbEntity
  8
0
  6
CONTINUOUS
 62
       7
100
AcDbLine
 10
-314.96531536
 20
-445.60353195
 30
0.0
 11
-314.96531536
 21
-460.4998396
 31
0.0
  0
POINT
  5
4A4
100
AcDbEntity
  8
0
  6
CONTINUOUS
 62
       7
100
AcDbPoint
 10
-273.15281536
 20
-119.89646805
 30
0.0
  0
POINT
  5
4A5
100
AcDbEntity
  8
0
  6
CONTINUOUS
 62
       7
100
AcDbPoint
 10
-273.15281536
 20
120.10353195
 30
0.0
  0
POINT
  5
4A6
100
AcDbEntity
  8
0
  6
CONTINUOUS
 62
       7
100
AcDbPoint
 10
-314.96531536
 20
0.10353195
 30
0.0
  0
POINT
  5
4A7
100
AcDbEntity
  8
0
  6
CONTINUOUS
 62
       7
100
AcDbPoint
 10
63.40968464
 20
-344.61162988
 30
0.0
  0
POINT
  5
4A8
100
AcDbEntity
  8
0
  6
CONTINUOUS
 62
       7
100
AcDbPoint
 10
-249.34031536
 20
-344.61162988
 30
0.0
  0
POINT
  5
4A9
100
AcDbEntity
  8
0
  6
CONTINUOUS
 62
       7
100
AcDbPoint
 10
-109.65281536
 20
-344.61162988
 30
0.0
  0
POINT
  5
4AA
100
AcDbEntity
  8
0
  6
CONTINUOUS
 62
       7
100
AcDbPoint
 10
83.09718464
 20
-344.61162988
 30
0.0
  0
POINT
  5
4AB
100
AcDbEntity
  8
0
  6
CONTINUOUS
 62
       7
100
AcDbPoint
 10
63.40968464
 20
-329.61162988
 30
0.0
  0
POINT
  5
4AC
100
AcDbEntity
  8
0
  6
CONTINUOUS
 62
       7
100
AcDbPoint
 10
-249.34031536
 20
-329.61162988
 30
0.0
  0
POINT
  5
4AD
100
AcDbEntity
  8
0
  6
CONTINUOUS
 62
       7
100
AcDbPoint
 10
-109.65281536
 20
-329.61162988
 30
0.0
  0
POINT
  5
4AE
100
AcDbEntity
  8
0
  6
CONTINUOUS
 62
       7
100
AcDbPoint
 10
83.09718464
 20
-329.61162988
 30
0.0
  0
POINT
  5
4AF
100
AcDbEntity
  8
0
  6
CONTINUOUS
 62
       7
100
AcDbPoint
 10
63.40968464
 20
-314.61162988
 30
0.0
  0
POINT
  5
4B0
100
AcDbEntity
  8
0
  6
CONTINUOUS
 62
       7
100
AcDbPoint
 10
-249.34031536
 20
-314.61162988
 30
0.0
  0
POINT
  5
4B1
100
AcDbEntity
  8
0
  6
CONTINUOUS
 62
       7
100
AcDbPoint
 10
-109.65281536
 20
-314.61162988
 30
0.0
  0
POINT
  5
4B2
100
AcDbEntity
  8
0
  6
CONTINUOUS
 62
       7
100
AcDbPoint
 10
83.09718464
 20
-314.61162988
 30
0.0
  0
POINT
  5
4B3
100
AcDbEntity
  8
0
  6
CONTINUOUS
 62
       7
100
AcDbPoint
 10
63.40968464
 20
-299.61162988
 30
0.0
  0
POINT
  5
4B4
100
AcDbEntity
  8
0
  6
CONTINUOUS
 62
       7
100
AcDbPoint
 10
-249.34031536
 20
-299.61162988
 30
0.0
  0
POINT
  5
4B5
100
AcDbEntity
  8
0
  6
CONTINUOUS
 62
       7
100
AcDbPoint
 10
-109.65281536
 20
-299.61162988
 30
0.0
  0
POINT
  5
4B6
100
AcDbEntity
  8
0
  6
CONTINUOUS
 62
       7
100
AcDbPoint
 10
83.09718464
 20
-299.61162988
 30
0.0
  0
POINT
  5
4B7
100
AcDbEntity
  8
0
  6
CONTINUOUS
 62
       7
100
AcDbPoint
 10
63.40968464
 20
-284.61162988
 30
0.0
  0
POINT
  5
4B8
100
AcDbEntity
  8
0
  6
CONTINUOUS
 62
       7
100
AcDbPoint
 10
-249.34031536
 20
-284.61162988
 30
0.0
  0
POINT
  5
4B9
100
AcDbEntity
  8
0
  6
CONTINUOUS
 62
       7
100
AcDbPoint
 10
-109.65281536
 20
-284.61162988
 30
0.0
  0
POINT
  5
4BA
100
AcDbEntity
  8
0
  6
CONTINUOUS
 62
       7
100
AcDbPoint
 10
83.09718464
 20
-284.61162988
 30
0.0
  0
POINT
  5
4BB
100
AcDbEntity
  8
0
  6
CONTINUOUS
 62
       7
100
AcDbPoint
 10
63.40968464
 20
-269.61162988
 30
0.0
  0
POINT
  5
4BC
100
AcDbEntity
  8
0
  6
CONTINUOUS
 62
       7
100
AcDbPoint
 10
-249.34031536
 20
-269.61162988
 30
0.0
  0
POINT
  5
4BD
100
AcDbEntity
  8
0
  6
CONTINUOUS
 62
       7
100
AcDbPoint
 10
-109.65281536
 20
-269.61162988
 30
0.0
  0
POINT
  5
4BE
100
AcDbEntity
  8
0
  6
CONTINUOUS
 62
       7
100
AcDbPoint
 10
83.09718464
 20
-269.61162988
 30
0.0
  0
LINE
  5
4BF
100
AcDbEntity
  8
0
  6
CONTINUOUS
 62
       7
100
AcDbLine
 10
-211.53893349
 20
421.0878928
 30
0.0
 11
-215.05095617
 21
417.57587012
 31
0.0
  0
LINE
  5
4C0
100
AcDbEntity
  8
0
  6
CONTINUOUS
 62
       7
100
AcDbLine
 10
-204.78993062
 20
418.49262612
 30
0.0
 11
-205.70668661
 21
417.57587012
 31
0.0
  0
LINE
  5
4C1
100
AcDbEntity
  8
0
  6
CONTINUOUS
 62
       7
100
AcDbLine
 10
-205.6266748
 20
418.51487012
 30
0.0
 11
-206.5656748
 21
417.57587012
 31
0.0
  0
LINE
  5
4C2
100
AcDbEntity
  8
0
  6
CONTINUOUS
 62
       7
100
AcDbLine
 10
-206.48799438
 20
421.04766308
 30
0.0
 11
-207.36016502
 21
420.17549245
 31
0.0
  0
LINE
  5
4C3
100
AcDbEntity
  8
0
  6
CONTINUOUS
 62
       7
100
AcDbLine
 10
-206.14073115
 20
420.53593813
 30
0.0
 11
-207.00571993
 21
419.67094935
 31
0.0
  0
LINE
  5
4C4
100
AcDbEntity
  8
0
  6
CONTINUOUS
 62
       7
100
AcDbLine
 10
-207.47473627
 20
419.20193301
 30
0.0
 11
-209.10079916
 21
417.57587012
 31
0.0
  0
LINE
  5
4C5
100
AcDbEntity
  8
0
  6
CONTINUOUS
 62
       7
100
AcDbLine
 10
-207.1210442
 20
421.25268136
 30
0.0
 11
-208.7240369
 21
419.64968865
 31
0.0
  0
LINE
  5
4C6
100
AcDbEntity
  8
0
  6
CONTINUOUS
 62
       7
100
AcDbLine
 10
-209.85885544
 20
418.51487012
 30
0.0
 11
-210.79785544
 21
417.57587012
 31
0.0
  0
LINE
  5
4C7
100
AcDbEntity
  8
0
  6
CONTINUOUS
 62
       7
100
AcDbLine
 10
-207.81101469
 20
419.72464278
 30
0.0
 11
-208.68318533
 21
418.85247214
 31
0.0
  0
LINE
  5
4C8
100
AcDbEntity
  8
0
  6
CONTINUOUS
 62
       7
100
AcDbLine
 10
-209.02078735
 20
418.51487012
 30
0.0
 11
-209.95978735
 21
417.57587012
 31
0.0
  0
LINE
  5
4C9
100
AcDbEntity
  8
0
  6
CONTINUOUS
 62
       7
100
AcDbLine
 10
-206.09412594
 20
419.74447525
 30
0.0
 11
-208.16476748
 21
417.67383372
 31
0.0
  0
LINE
  5
4CA
100
AcDbEntity
  8
0
  6
CONTINUOUS
 62
       7
100
AcDbLine
 10
-206.46474289
 20
418.51487012
 30
0.0
 11
-207.33352433
 21
417.64608868
 31
0.0
  0
LINE
  5
4CB
100
AcDbEntity
  8
0
  6
CONTINUOUS
 62
       7
100
AcDbLine
 10
-210.71784362
 20
418.51487012
 30
0.0
 11
-211.65684362
 21
417.57587012
 31
0.0
  0
LINE
  5
4CC
100
AcDbEntity
  8
0
  6
CONTINUOUS
 62
       7
100
AcDbLine
 10
-211.55591171
 20
418.51487012
 30
0.0
 11
-212.49491171
 21
417.57587012
 31
0.0
  0
LINE
  5
4CD
100
AcDbEntity
  8
0
  6
CONTINUOUS
 62
       7
100
AcDbLine
 10
-210.96254037
 20
420.80529774
 30
0.0
 11
-211.60135218
 21
420.16648593
 31
0.0
  0
LINE
  5
4CE
100
AcDbEntity
  8
0
  6
CONTINUOUS
 62
       7
100
AcDbLine
 10
-212.33894291
 20
418.59082711
 30
0.0
 11
-212.99785539
 21
417.93191463
 31
0.0
  0
LINE
  5
4CF
100
AcDbEntity
  8
0
  6
CONTINUOUS
 62
       7
100
AcDbLine
 10
-212.765037
 20
419.00280111
 30
0.0
 11
-214.07835059
 21
417.68948752
 31
0.0
  0
LINE
  5
4D0
100
AcDbEntity
  8
0
  6
CONTINUOUS
 62
       7
100
AcDbLine
 10
-212.36090854
 20
421.10398584
 30
0.0
 11
-213.70253692
 21
419.76235746
 31
0.0
  0
LINE
  5
4D1
100
AcDbEntity
  8
0
  6
CONTINUOUS
 62
       7
100
AcDbLine
 10
-214.95002426
 20
418.51487012
 30
0.0
 11
-215.88902426
 21
417.57587012
 31
0.0
  0
LINE
  5
4D2
100
AcDbEntity
  8
0
  6
CONTINUOUS
 62
       7
100
AcDbLine
 10
-215.80901245
 20
418.51487012
 30
0.0
 11
-216.74801245
 21
417.57587012
 31
0.0
  0
LINE
  5
4D3
100
AcDbEntity
  8
0
  6
CONTINUOUS
 62
       7
100
AcDbLine
 10
-215.94987811
 20
419.21207254
 30
0.0
 11
-217.58608054
 21
417.57587012
 31
0.0
  0
LINE
  5
4D4
100
AcDbEntity
  8
0
  6
CONTINUOUS
 62
       7
100
AcDbLine
 10
-215.47128143
 20
420.54965741
 30
0.0
 11
-217.20009915
 21
418.82083969
 31
0.0
  0
LINE
  5
4D5
100
AcDbEntity
  8
0
  6
CONTINUOUS
 62
       7
100
AcDbLine
 10
-215.76220536
 20
421.10726162
 30
0.0
 11
-217.04359686
 21
419.82587012
 31
0.0
  0
LINE
  5
4D6
100
AcDbEntity
  8
0
  6
CONTINUOUS
 62
       7
100
AcDbLine
 10
-218.6803353
 20
418.18913168
 30
0.0
 11
-219.29359686
 21
417.57587012
 31
0.0
  0
LINE
  5
4D7
100
AcDbEntity
  8
0
  6
CONTINUOUS
 62
       7
100
AcDbLine
 10
-216.579625
 20
421.13837012
 30
0.0
 11
-217.892125
 21
419.82587012
 31
0.0
  0
LINE
  5
4D8
100
AcDbEntity
  8
0
  6
CONTINUOUS
 62
       7
100
AcDbLine
 10
-218.19546208
 20
419.52253304
 30
0.0
 11
-219.89774832
 21
417.8202468
 31
0.0
  0
LINE
  5
4D9
100
AcDbEntity
  8
0
  6
CONTINUOUS
 62
       7
100
AcDbLine
 10
-217.76122551
 20
420.80529774
 30
0.0
 11
-220.73051758
 21
417.83600568
 31
0.0
  0
LINE
  5
4DA
100
AcDbEntity
  8
0
  6
CONTINUOUS
 62
       7
100
AcDbLine
 10
298.53468464
 20
358.88837012
 30
0.0
 11
315.03468464
 21
358.88837012
 31
0.0
  0
LINE
  5
4DB
100
AcDbEntity
  8
0
  6
CONTINUOUS
 62
       7
100
AcDbLine
 10
298.53468464
 20
343.88837012
 30
0.0
 11
315.03468464
 21
343.88837012
 31
0.0
  0
LINE
  5
4DC
100
AcDbEntity
  8
0
  6
CONTINUOUS
 62
       7
100
AcDbLine
 10
315.03468464
 20
358.88837012
 30
0.0
 11
315.03468464
 21
343.88837012
 31
0.0
  0
LINE
  5
4DD
100
AcDbEntity
  8
0
  6
CONTINUOUS
 62
       7
100
AcDbLine
 10
298.53468464
 20
358.88837012
 30
0.0
 11
298.53468464
 21
343.88837012
 31
0.0
  0
LINE
  5
4DE
100
AcDbEntity
  8
0
  6
CONTINUOUS
 62
       7
100
AcDbLine
 10
315.03468464
 20
343.94059958
 30
0.0
 11
314.98245518
 21
343.88837012
 31
0.0
  0
LINE
  5
4DF
100
AcDbEntity
  8
0
  6
CONTINUOUS
 62
       7
100
AcDbLine
 10
306.23084917
 20
358.88837012
 30
0.0
 11
298.53468464
 21
351.19220559
 31
0.0
  0
LINE
  5
4E0
100
AcDbEntity
  8
0
  6
CONTINUOUS
 62
       7
100
AcDbLine
 10
305.38232104
 20
358.88837012
 30
0.0
 11
298.53468464
 21
352.04073372
 31
0.0
  0
LINE
  5
4E1
100
AcDbEntity
  8
0
  6
CONTINUOUS
 62
       7
100
AcDbLine
 10
304.5337929
 20
358.88837012
 30
0.0
 11
298.53468464
 21
352.88926186
 31
0.0
  0
LINE
  5
4E2
100
AcDbEntity
  8
0
  6
CONTINUOUS
 62
       7
100
AcDbLine
 10
303.68526476
 20
358.88837012
 30
0.0
 11
298.53468464
 21
353.73779
 31
0.0
  0
LINE
  5
4E3
100
AcDbEntity
  8
0
  6
CONTINUOUS
 62
       7
100
AcDbLine
 10
302.83673662
 20
358.88837012
 30
0.0
 11
298.53468464
 21
354.58631814
 31
0.0
  0
LINE
  5
4E4
100
AcDbEntity
  8
0
  6
CONTINUOUS
 62
       7
100
AcDbLine
 10
301.98820849
 20
358.88837012
 30
0.0
 11
298.53468464
 21
355.43484627
 31
0.0
  0
LINE
  5
4E5
100
AcDbEntity
  8
0
  6
CONTINUOUS
 62
       7
100
AcDbLine
 10
301.13968035
 20
358.88837012
 30
0.0
 11
298.53468464
 21
356.28337441
 31
0.0
  0
LINE
  5
4E6
100
AcDbEntity
  8
0
  6
CONTINUOUS
 62
       7
100
AcDbLine
 10
300.29115221
 20
358.88837012
 30
0.0
 11
298.53468464
 21
357.13190255
 31
0.0
  0
LINE
  5
4E7
100
AcDbEntity
  8
0
  6
CONTINUOUS
 62
       7
100
AcDbLine
 10
299.44262407
 20
358.88837012
 30
0.0
 11
298.53468464
 21
357.98043069
 31
0.0
  0
LINE
  5
4E8
100
AcDbEntity
  8
0
  6
CONTINUOUS
 62
       7
100
AcDbLine
 10
307.07937731
 20
358.88837012
 30
0.0
 11
298.53468464
 21
350.34367745
 31
0.0
  0
LINE
  5
4E9
100
AcDbEntity
  8
0
  6
CONTINUOUS
 62
       7
100
AcDbLine
 10
307.92790545
 20
358.88837012
 30
0.0
 11
298.53468464
 21
349.49514931
 31
0.0
  0
LINE
  5
4EA
100
AcDbEntity
  8
0
  6
CONTINUOUS
 62
       7
100
AcDbLine
 10
308.77643358
 20
358.88837012
 30
0.0
 11
298.53468464
 21
348.64662118
 31
0.0
  0
LINE
  5
4EB
100
AcDbEntity
  8
0
  6
CONTINUOUS
 62
       7
100
AcDbLine
 10
309.62496172
 20
358.88837012
 30
0.0
 11
298.53468464
 21
347.79809304
 31
0.0
  0
LINE
  5
4EC
100
AcDbEntity
  8
0
  6
CONTINUOUS
 62
       7
100
AcDbLine
 10
310.47348986
 20
358.88837012
 30
0.0
 11
298.53468464
 21
346.9495649
 31
0.0
  0
LINE
  5
4ED
100
AcDbEntity
  8
0
  6
CONTINUOUS
 62
       7
100
AcDbLine
 10
311.322018
 20
358.88837012
 30
0.0
 11
298.53468464
 21
346.10103676
 31
0.0
  0
LINE
  5
4EE
100
AcDbEntity
  8
0
  6
CONTINUOUS
 62
       7
100
AcDbLine
 10
312.17054613
 20
358.88837012
 30
0.0
 11
298.53468464
 21
345.25250863
 31
0.0
  0
LINE
  5
4EF
100
AcDbEntity
  8
0
  6
CONTINUOUS
 62
       7
100
AcDbLine
 10
313.01907427
 20
358.88837012
 30
0.0
 11
298.53468464
 21
344.40398049
 31
0.0
  0
LINE
  5
4F0
100
AcDbEntity
  8
0
  6
CONTINUOUS
 62
       7
100
AcDbLine
 10
313.86760241
 20
358.88837012
 30
0.0
 11
298.86760241
 21
343.88837012
 31
0.0
  0
LINE
  5
4F1
100
AcDbEntity
  8
0
  6
CONTINUOUS
 62
       7
100
AcDbLine
 10
314.71613055
 20
358.88837012
 30
0.0
 11
299.71613055
 21
343.88837012
 31
0.0
  0
LINE
  5
4F2
100
AcDbEntity
  8
0
  6
CONTINUOUS
 62
       7
100
AcDbLine
 10
315.03468464
 20
358.35839608
 30
0.0
 11
300.56465868
 21
343.88837012
 31
0.0
  0
LINE
  5
4F3
100
AcDbEntity
  8
0
  6
CONTINUOUS
 62
       7
100
AcDbLine
 10
315.03468464
 20
357.50986794
 30
0.0
 11
301.41318682
 21
343.88837012
 31
0.0
  0
LINE
  5
4F4
100
AcDbEntity
  8
0
  6
CONTINUOUS
 62
       7
100
AcDbLine
 10
315.03468464
 20
356.6613398
 30
0.0
 11
302.26171496
 21
343.88837012
 31
0.0
  0
LINE
  5
4F5
100
AcDbEntity
  8
0
  6
CONTINUOUS
 62
       7
100
AcDbLine
 10
315.03468464
 20
355.81281166
 30
0.0
 11
303.1102431
 21
343.88837012
 31
0.0
  0
LINE
  5
4F6
100
AcDbEntity
  8
0
  6
CONTINUOUS
 62
       7
100
AcDbLine
 10
315.03468464
 20
354.96428353
 30
0.0
 11
303.95877123
 21
343.88837012
 31
0.0
  0
LINE
  5
4F7
100
AcDbEntity
  8
0
  6
CONTINUOUS
 62
       7
100
AcDbLine
 10
315.03468464
 20
354.11575539
 30
0.0
 11
304.80729937
 21
343.88837012
 31
0.0
  0
LINE
  5
4F8
100
AcDbEntity
  8
0
  6
CONTINUOUS
 62
       7
100
AcDbLine
 10
315.03468464
 20
353.26722725
 30
0.0
 11
305.65582751
 21
343.88837012
 31
0.0
  0
LINE
  5
4F9
100
AcDbEntity
  8
0
  6
CONTINUOUS
 62
       7
100
AcDbLine
 10
315.03468464
 20
352.41869911
 30
0.0
 11
306.50435565
 21
343.88837012
 31
0.0
  0
LINE
  5
4FA
100
AcDbEntity
  8
0
  6
CONTINUOUS
 62
       7
100
AcDbLine
 10
315.03468464
 20
351.57017098
 30
0.0
 11
307.35288378
 21
343.88837012
 31
0.0
  0
LINE
  5
4FB
100
AcDbEntity
  8
0
  6
CONTINUOUS
 62
       7
100
AcDbLine
 10
315.03468464
 20
350.72164284
 30
0.0
 11
308.20141192
 21
343.88837012
 31
0.0
  0
LINE
  5
4FC
100
AcDbEntity
  8
0
  6
CONTINUOUS
 62
       7
100
AcDbLine
 10
315.03468464
 20
349.8731147
 30
0.0
 11
309.04994006
 21
343.88837012
 31
0.0
  0
LINE
  5
4FD
100
AcDbEntity
  8
0
  6
CONTINUOUS
 62
       7
100
AcDbLine
 10
315.03468464
 20
349.02458656
 30
0.0
 11
309.8984682
 21
343.88837012
 31
0.0
  0
LINE
  5
4FE
100
AcDbEntity
  8
0
  6
CONTINUOUS
 62
       7
100
AcDbLine
 10
315.03468464
 20
348.17605843
 30
0.0
 11
310.74699633
 21
343.88837012
 31
0.0
  0
LINE
  5
4FF
100
AcDbEntity
  8
0
  6
CONTINUOUS
 62
       7
100
AcDbLine
 10
315.03468464
 20
347.32753029
 30
0.0
 11
311.59552447
 21
343.88837012
 31
0.0
  0
LINE
  5
500
100
AcDbEntity
  8
0
  6
CONTINUOUS
 62
       7
100
AcDbLine
 10
315.03468464
 20
346.47900215
 30
0.0
 11
312.44405261
 21
343.88837012
 31
0.0
  0
LINE
  5
501
100
AcDbEntity
  8
0
  6
CONTINUOUS
 62
       7
100
AcDbLine
 10
315.03468464
 20
345.63047401
 30
0.0
 11
313.29258075
 21
343.88837012
 31
0.0
  0
LINE
  5
502
100
AcDbEntity
  8
0
  6
CONTINUOUS
 62
       7
100
AcDbLine
 10
315.03468464
 20
344.78194588
 30
0.0
 11
314.14110888
 21
343.88837012
 31
0.0
  0
LINE
  5
503
100
AcDbEntity
  8
0
  6
CONTINUOUS
 62
       7
100
AcDbLine
 10
315.03468464
 20
343.93341774
 30
0.0
 11
314.98963702
 21
343.88837012
 31
0.0
  0
TEXT
  5
504
100
AcDbEntity
  8
0
 62
       7
100
AcDbText
 10
-252.11887833
 20
-415.67412988
 30
0.0
 40
10.2
  1
株式会社
 41
0.6667
 72
       5
 11
-219.47887833
 21
-415.67412988
 31
0.0
100
AcDbText
  0
TEXT
  5
505
100
AcDbEntity
  8
0
 62
       7
100
AcDbText
 10
-120.75429941
 20
-398.7477071
 30
0.0
 40
9.0
  1
品
 41
0.8
 72
       5
 11
-113.55429941
 21
-398.7477071
 31
0.0
100
AcDbText
  0
TEXT
  5
506
100
AcDbEntity
  8
0
 62
       7
100
AcDbText
 10
-120.75429941
 20
-407.7477071
 30
0.0
 40
9.0
  1
 
 41
0.8
 72
       5
 11
-113.55429941
 21
-407.7477071
 31
0.0
100
AcDbText
  0
TEXT
  5
507
100
AcDbEntity
  8
0
 62
       7
100
AcDbText
 10
-120.75429941
 20
-416.7477071
 30
0.0
 40
9.0
  1
名
 41
0.8
 72
       5
 11
-113.55429941
 21
-416.7477071
 31
0.0
100
AcDbText
  0
TEXT
  5
508
100
AcDbEntity
  8
0
 62
       7
100
AcDbText
 10
81.75241571
 20
-398.80049651
 30
0.0
 40
9.0
  1
品
 41
0.8
 72
       5
 11
88.95241571
 21
-398.80049651
 31
0.0
100
AcDbText
  0
TEXT
  5
509
100
AcDbEntity
  8
0
 62
       7
100
AcDbText
 10
81.75241571
 20
-407.80049651
 30
0.0
 40
9.0
  1
　
 41
0.8
 72
       5
 11
88.95241571
 21
-407.80049651
 31
0.0
100
AcDbText
  0
TEXT
  5
50A
100
AcDbEntity
  8
0
 62
       7
100
AcDbText
 10
81.75241571
 20
-416.80049651
 30
0.0
 40
9.0
  1
番
 41
0.8
 72
       5
 11
88.95241571
 21
-416.80049651
 31
0.0
100
AcDbText
  0
TEXT
  5
50B
100
AcDbEntity
  8
0
 62
       7
100
AcDbText
 10
-268.01755435
 20
-365.49173009
 30
0.0
 40
12.0
  1
1
 41
0.8
 72
       5
 11
-258.41755435
 21
-365.49173009
 31
0.0
100
AcDbText
  0
TEXT
  5
50C
100
AcDbEntity
  8
0
 62
       7
100
AcDbText
 10
-268.01755435
 20
-350.49173009
 30
0.0
 40
12.0
  1
2
 41
0.8
 72
       5
 11
-258.41755435
 21
-350.49173009
 31
0.0
100
AcDbText
  0
TEXT
  5
50D
100
AcDbEntity
  8
0
 62
       7
100
AcDbText
 10
-268.01755435
 20
-335.49173009
 30
0.0
 40
12.0
  1
3
 41
0.8
 72
       5
 11
-258.41755435
 21
-335.49173009
 31
0.0
100
AcDbText
  0
TEXT
  5
50E
100
AcDbEntity
  8
0
 62
       7
100
AcDbText
 10
-268.01755435
 20
-320.49173009
 30
0.0
 40
12.0
  1
4
 41
0.8
 72
       5
 11
-258.41755435
 21
-320.49173009
 31
0.0
100
AcDbText
  0
TEXT
  5
50F
100
AcDbEntity
  8
0
 62
       7
100
AcDbText
 10
-268.01755435
 20
-305.49173009
 30
0.0
 40
12.0
  1
5
 41
0.8
 72
       5
 11
-258.41755435
 21
-305.49173009
 31
0.0
100
AcDbText
  0
TEXT
  5
510
100
AcDbEntity
  8
0
 62
       7
100
AcDbText
 10
-268.01755435
 20
-290.49173009
 30
0.0
 40
12.0
  1
6
 41
0.8
 72
       5
 11
-258.41755435
 21
-290.49173009
 31
0.0
100
AcDbText
  0
TEXT
  5
511
100
AcDbEntity
  8
0
 62
       7
100
AcDbText
 10
155.65098826
 20
-380.43252916
 30
0.0
 40
12.0
  1
摘要・仕上
 41
0.7143
 72
       5
 11
203.65098826
 21
-380.43252903
 31
0.0
100
AcDbText
  0
TEXT
  5
512
100
AcDbEntity
  8
0
 62
       7
100
AcDbText
 10
48.74406852
 20
-380.43252915
 30
0.0
 40
12.0
  1
個　数
 41
0.75
 72
       5
 11
77.54406852
 21
-380.43252915
 31
0.0
100
AcDbText
  0
TEXT
  5
513
100
AcDbEntity
  8
0
 62
       7
100
AcDbText
 10
-52.04365938
 20
-380.43252915
 30
0.0
 40
12.0
  1
材　　質
 41
0.6667
 72
       5
 11
-13.64365938
 21
-380.43252915
 31
0.0
100
AcDbText
  0
TEXT
  5
514
100
AcDbEntity
  8
0
 62
       7
100
AcDbText
 10
-206.59591864
 20
-380.43252916
 30
0.0
 40
12.0
  1
部　品　名
 41
0.7143
 72
       5
 11
-158.59591864
 21
-380.43252903
 31
0.0
100
AcDbText
  0
TEXT
  5
515
100
AcDbEntity
  8
0
 62
       7
100
AcDbText
 10
-272.72225851
 20
-380.43252915
 30
0.0
 40
12.0
  1
部番
 41
0.6667
 72
       5
 11
-253.52225851
 21
-380.43252915
 31
0.0
100
AcDbText
  0
TEXT
  5
516
100
AcDbEntity
  8
0
 62
       7
100
AcDbText
 10
-268.01755435
 20
-275.49173009
 30
0.0
 40
12.0
  1
7
 41
0.8
 72
       5
 11
-258.41755435
 21
-275.49173009
 31
0.0
100
AcDbText
  0
TEXT
  5
517
100
AcDbEntity
  8
0
 62
       7
100
AcDbText
 10
299.44396269
 20
341.81751814
 30
0.0
 40
12.0
  1
タオル掛
 50
-90.00000002
 41
0.6667
 72
       5
 11
299.44396268
 21
303.41751814
 31
0.0
100
AcDbText
  0
TEXT
  5
518
100
AcDbEntity
  8
0
 62
       7
100
AcDbText
 10
223.29061002
 20
-439.87948851
 30
0.0
 40
12.0
  1
110421
 41
0.8
 72
       5
 11
280.89061002
 21
-439.87948835
 31
0.0
100
AcDbText
  0
INSERT
  5
519
100
AcDbEntity
  8
0
  6
CONTINUOUS
100
AcDbBlockReference
  2
GROUP_1
 10
0.0
 20
0.0
 30
0.0
  0
INSERT
  5
51A
100
AcDbEntity
  8
0
  6
CONTINUOUS
100
AcDbBlockReference
  2
GROUP_2
 10
0.0
 20
0.0
 30
0.0
  0
INSERT
  5
51B
100
AcDbEntity
  8
0
  6
CONTINUOUS
100
AcDbBlockReference
  2
GROUP_3
 10
0.0
 20
0.0
 30
0.0
  0
INSERT
  5
51C
100
AcDbEntity
  8
0
  6
CONTINUOUS
100
AcDbBlockReference
  2
GROUP_4
 10
0.0
 20
0.0
 30
0.0
  0
INSERT
  5
51D
100
AcDbEntity
  8
0
  6
CONTINUOUS
100
AcDbBlockReference
  2
GROUP_5
 10
0.0
 20
0.0
 30
0.0
  0
INSERT
  5
51E
100
AcDbEntity
  8
0
  6
CONTINUOUS
100
AcDbBlockReference
  2
GROUP_6
 10
0.0
 20
0.0
 30
0.0
  0
INSERT
  5
51F
100
AcDbEntity
  8
0
  6
CONTINUOUS
100
AcDbBlockReference
  2
GROUP_7
 10
0.0
 20
0.0
 30
0.0
  0
INSERT
  5
520
100
AcDbEntity
  8
0
  6
CONTINUOUS
100
AcDbBlockReference
  2
GROUP_8
 10
0.0
 20
0.0
 30
0.0
  0
INSERT
  5
521
100
AcDbEntity
  8
0
  6
CONTINUOUS
100
AcDbBlockReference
  2
GROUP_9
 10
0.0
 20
0.0
 30
0.0
  0
INSERT
  5
522
100
AcDbEntity
  8
0
  6
CONTINUOUS
100
AcDbBlockReference
  2
GROUP_10
 10
0.0
 20
0.0
 30
0.0
  0
INSERT
  5
523
100
AcDbEntity
  8
0
  6
CONTINUOUS
100
AcDbBlockReference
  2
GROUP_11
 10
0.0
 20
0.0
 30
0.0
  0
INSERT
  5
524
100
AcDbEntity
  8
0
  6
CONTINUOUS
100
AcDbBlockReference
  2
GROUP_12
 10
0.0
 20
0.0
 30
0.0
  0
INSERT
  5
525
100
AcDbEntity
  8
0
  6
CONTINUOUS
100
AcDbBlockReference
  2
GROUP_13
 10
0.0
 20
0.0
 30
0.0
  0
INSERT
  5
526
100
AcDbEntity
  8
0
  6
CONTINUOUS
100
AcDbBlockReference
  2
GROUP_14
 10
0.0
 20
0.0
 30
0.0
  0
INSERT
  5
527
100
AcDbEntity
  8
0
  6
CONTINUOUS
100
AcDbBlockReference
  2
GROUP_15
 10
0.0
 20
0.0
 30
0.0
  0
INSERT
  5
528
100
AcDbEntity
  8
0
  6
CONTINUOUS
100
AcDbBlockReference
  2
GROUP_16
 10
0.0
 20
0.0
 30
0.0
  0
INSERT
  5
529
100
AcDbEntity
  8
0
  6
CONTINUOUS
100
AcDbBlockReference
  2
GROUP_17
 10
0.0
 20
0.0
 30
0.0
  0
INSERT
  5
52A
100
AcDbEntity
  8
0
  6
CONTINUOUS
100
AcDbBlockReference
  2
GROUP_18
 10
0.0
 20
0.0
 30
0.0
  0
INSERT
  5
52B
100
AcDbEntity
  8
0
  6
CONTINUOUS
100
AcDbBlockReference
  2
GROUP_19
 10
0.0
 20
0.0
 30
0.0
  0
INSERT
  5
52C
100
AcDbEntity
  8
0
  6
CONTINUOUS
100
AcDbBlockReference
  2
GROUP_20
 10
0.0
 20
0.0
 30
0.0
  0
INSERT
  5
52D
100
AcDbEntity
  8
0
  6
CONTINUOUS
100
AcDbBlockReference
  2
GROUP_21
 10
0.0
 20
0.0
 30
0.0
  0
INSERT
  5
52E
100
AcDbEntity
  8
0
  6
CONTINUOUS
100
AcDbBlockReference
  2
GROUP_22
 10
0.0
 20
0.0
 30
0.0
  0
INSERT
  5
52F
100
AcDbEntity
  8
0
  6
CONTINUOUS
100
AcDbBlockReference
  2
GROUP_23
 10
0.0
 20
0.0
 30
0.0
  0
INSERT
  5
530
100
AcDbEntity
  8
0
  6
CONTINUOUS
100
AcDbBlockReference
  2
GROUP_24
 10
0.0
 20
0.0
 30
0.0
  0
INSERT
  5
531
100
AcDbEntity
  8
0
  6
CONTINUOUS
100
AcDbBlockReference
  2
GROUP_25
 10
0.0
 20
0.0
 30
0.0
  0
INSERT
  5
532
100
AcDbEntity
  8
0
  6
CONTINUOUS
100
AcDbBlockReference
  2
GROUP_26
 10
0.0
 20
0.0
 30
0.0
  0
INSERT
  5
533
100
AcDbEntity
  8
0
  6
CONTINUOUS
100
AcDbBlockReference
  2
GROUP_27
 10
0.0
 20
0.0
 30
0.0
  0
INSERT
  5
534
100
AcDbEntity
  8
0
  6
CONTINUOUS
100
AcDbBlockReference
  2
GROUP_28
 10
0.0
 20
0.0
 30
0.0
  0
INSERT
  5
535
100
AcDbEntity
  8
0
  6
CONTINUOUS
100
AcDbBlockReference
  2
GROUP_29
 10
0.0
 20
0.0
 30
0.0
  0
INSERT
  5
536
100
AcDbEntity
  8
0
  6
CONTINUOUS
100
AcDbBlockReference
  2
GROUP_30
 10
0.0
 20
0.0
 30
0.0
  0
TEXT
  5
537
100
AcDbEntity
  8
240
 62
       7
100
AcDbText
 10
152.47218464
 20
406.09166442
 30
0.0
 40
18.0
  1
L22918
 41
0.8
 72
       5
 11
238.87218464
 21
406.09166442
 31
0.0
100
AcDbText
  0
TEXT
  5
538
100
AcDbEntity
  8
240
 62
       7
100
AcDbText
 10
150.59718464
 20
-414.26787988
 30
0.0
 40
18.0
  1
L22918
 41
0.8
 72
       5
 11
236.99718464
 21
-414.26787988
 31
0.0
100
AcDbText
  0
TEXT
  5
539
100
AcDbEntity
  8
240
 62
       7
100
AcDbText
 10
-86.67360022
 20
420.60446007
 30
0.0
 40
15.0
  1
ＬＣＭシリーズ
 41
0.7
 72
       5
 11
-2.67360022
 21
420.60446031
 31
0.0
100
AcDbText
  0
TEXT
  5
53A
100
AcDbEntity
  8
240
 62
       7
100
AcDbText
 10
-80.67360024
 20
401.85446009
 30
0.0
 40
18.0
  1
タオル掛け
 41
0.7143
 72
       5
 11
-8.67360024
 21
401.85446009
 31
0.0
100
AcDbText
  0
TEXT
  5
53B
100
AcDbEntity
  8
240
 62
       7
100
AcDbText
 10
-51.80906536
 20
-422.43336085
 30
0.0
 40
18.0
  1
タオル掛け
 41
0.7143
 72
       5
 11
20.19093464
 21
-422.43336085
 31
0.0
100
AcDbText
  0
TEXT
  5
53C
100
AcDbEntity
  8
240
 62
       7
100
AcDbText
 10
-57.80906534
 20
-403.68336087
 30
0.0
 40
15.0
  1
ＬＣＭシリーズ
 41
0.7
 72
       5
 11
26.19093466
 21
-403.68336063
 31
0.0
100
AcDbText
  0
TEXT
  5
53D
100
AcDbEntity
  8
240
 62
       7
100
AcDbText
 10
-249.34031534
 20
-365.61162989
 30
0.0
 40
12.0
  1
ブラケット
 41
0.7143
 72
       5
 11
-201.34031534
 21
-365.61162976
 31
0.0
100
AcDbText
  0
TEXT
  5
53E
100
AcDbEntity
  8
240
 62
       7
100
AcDbText
 10
-249.34031536
 20
-350.61162988
 30
0.0
 40
12.0
  1
パイプ
 41
0.75
 72
       5
 11
-220.54031536
 21
-350.61162988
 31
0.0
100
AcDbText
  0
TEXT
  5
53F
100
AcDbEntity
  8
240
 62
       7
100
AcDbText
 10
-249.34031536
 20
-335.61162988
 30
0.0
 40
12.0
  1
取付座
 41
0.75
 72
       5
 11
-220.54031536
 21
-335.61162988
 31
0.0
100
AcDbText
  0
TEXT
  5
540
100
AcDbEntity
  8
240
 62
       7
100
AcDbText
 10
-249.34031534
 20
-320.61162989
 30
0.0
 40
12.0
  1
ブラケット固定ネジＭ５Ｘ９
 41
0.6842
 72
       5
 11
-124.54031534
 21
-320.61162954
 31
0.0
100
AcDbText
  0
TEXT
  5
541
100
AcDbEntity
  8
240
 62
       7
100
AcDbText
 10
-249.34031536
 20
-305.61162988
 30
0.0
 40
12.0
  1
樹脂プラグ
 41
0.7143
 72
       5
 11
-201.34031536
 21
-305.61162988
 31
0.0
100
AcDbText
  0
TEXT
  5
542
100
AcDbEntity
  8
240
 62
       7
100
AcDbText
 10
-249.34031534
 20
-290.61162989
 30
0.0
 40
12.0
  1
取付ネジ　４Ｘ３２
 41
0.6923
 72
       5
 11
-162.94031534
 21
-290.61162965
 31
0.0
100
AcDbText
  0
TEXT
  5
543
100
AcDbEntity
  8
240
 62
       7
100
AcDbText
 10
-109.65281534
 20
-365.61162989
 30
0.0
 40
12.0
  1
ＺＤＣ
 41
0.75
 72
       5
 11
-80.85281534
 21
-365.61162981
 31
0.0
100
AcDbText
  0
TEXT
  5
544
100
AcDbEntity
  8
240
 62
       7
100
AcDbText
 10
-109.65281534
 20
-350.61162989
 30
0.0
 40
12.0
  1
ＢＳ
 41
0.6667
 72
       5
 11
-90.45281534
 21
-350.61162984
 31
0.0
100
AcDbText
  0
TEXT
  5
545
100
AcDbEntity
  8
240
 62
       7
100
AcDbText
 10
-109.65281536
 20
-335.61162988
 30
0.0
 40
12.0
  1
スチール
 41
0.6667
 72
       5
 11
-71.25281536
 21
-335.61162988
 31
0.0
100
AcDbText
  0
TEXT
  5
546
100
AcDbEntity
  8
240
 62
       7
100
AcDbText
 10
-109.65281534
 20
-320.61162989
 30
0.0
 40
12.0
  1
ステンレス
 41
0.7143
 72
       5
 11
-61.65281534
 21
-320.61162976
 31
0.0
100
AcDbText
  0
TEXT
  5
547
100
AcDbEntity
  8
240
 62
       7
100
AcDbText
 10
-109.65281536
 20
-305.61162988
 30
0.0
 40
12.0
  1
ＰＰ
 41
0.6667
 72
       5
 11
-90.45281536
 21
-305.61162988
 31
0.0
100
AcDbText
  0
TEXT
  5
548
100
AcDbEntity
  8
240
 62
       7
100
AcDbText
 10
-109.65281536
 20
-290.61162988
 30
0.0
 40
12.0
  1
スチール
 41
0.6667
 72
       5
 11
-71.25281536
 21
-290.61162988
 31
0.0
100
AcDbText
  0
TEXT
  5
549
100
AcDbEntity
  8
240
 62
       7
100
AcDbText
 10
58.60968464
 20
-365.61162988
 30
0.0
 40
12.0
  1
２
 41
0.8
 72
       5
 11
68.20968464
 21
-365.61162988
 31
0.0
100
AcDbText
  0
TEXT
  5
54A
100
AcDbEntity
  8
240
 62
       7
100
AcDbText
 10
58.60968464
 20
-350.61162988
 30
0.0
 40
12.0
  1
１
 41
0.8
 72
       5
 11
68.20968464
 21
-350.61162988
 31
0.0
100
AcDbText
  0
TEXT
  5
54B
100
AcDbEntity
  8
240
 62
       7
100
AcDbText
 10
58.60968464
 20
-335.61162988
 30
0.0
 40
12.0
  1
２
 41
0.8
 72
       5
 11
68.20968464
 21
-335.61162988
 31
0.0
100
AcDbText
  0
TEXT
  5
54C
100
AcDbEntity
  8
240
 62
       7
100
AcDbText
 10
58.60968464
 20
-320.61162988
 30
0.0
 40
12.0
  1
２
 41
0.8
 72
       5
 11
68.20968464
 21
-320.61162988
 31
0.0
100
AcDbText
  0
TEXT
  5
54D
100
AcDbEntity
  8
240
 62
       7
100
AcDbText
 10
58.60968464
 20
-305.61162988
 30
0.0
 40
12.0
  1
４
 41
0.8
 72
       5
 11
68.20968464
 21
-305.61162988
 31
0.0
100
AcDbText
  0
TEXT
  5
54E
100
AcDbEntity
  8
240
 62
       7
100
AcDbText
 10
58.60968464
 20
-290.61162988
 30
0.0
 40
12.0
  1
４
 41
0.8
 72
       5
 11
68.20968464
 21
-290.61162988
 31
0.0
100
AcDbText
  0
TEXT
  5
54F
100
AcDbEntity
  8
240
 62
       7
100
AcDbText
 10
83.09718466
 20
-365.61162989
 30
0.0
 40
12.0
  1
クロムメッキ
 41
0.6667
 72
       5
 11
140.69718466
 21
-365.61162973
 31
0.0
100
AcDbText
  0
TEXT
  5
550
100
AcDbEntity
  8
240
 62
       7
100
AcDbText
 10
83.09718466
 20
-350.61162989
 30
0.0
 40
12.0
  1
クロムメッキ
 41
0.6667
 72
       5
 11
140.69718466
 21
-350.61162973
 31
0.0
100
AcDbText
  0
TEXT
  5
551
100
AcDbEntity
  8
240
 62
       7
100
AcDbText
 10
83.09718466
 20
-320.61162989
 30
0.0
 40
12.0
  1
六角穴付止めネジ（とがり先）
 41
0.6667
 72
       5
 11
217.49718466
 21
-320.61162951
 31
0.0
100
AcDbText
  0
TEXT
  5
552
100
AcDbEntity
  8
240
 62
       7
100
AcDbText
 10
83.09718464
 20
-305.61162988
 30
0.0
 40
12.0
  1
Ｐ－６
 41
0.75
 72
       5
 11
111.89718464
 21
-305.61162988
 31
0.0
100
AcDbText
  0
TEXT
  5
553
100
AcDbEntity
  8
240
 62
       7
100
AcDbText
 10
83.09718466
 20
-290.61162989
 30
0.0
 40
12.0
  1
＋トラスタッピンネジ（ユニクロメッキ）
 41
0.6786
 72
       5
 11
265.49718466
 21
-290.61162938
 31
0.0
100
AcDbText
  0
CIRCLE
  5
554
100
AcDbEntity
  8
240
  6
CONTINUOUS
 62
       7
100
AcDbCircle
 10
87.89718464
 20
-284.61162988
 30
0.0
 40
5.10624731
  0
TEXT
  5
555
100
AcDbEntity
  8
241
 62
       7
100
AcDbText
 10
-6.22361496
 20
-252.28947368
 30
0.0
 40
12.0
  1
※本製品は輸入品の為、本図と若干寸法が違う場合があります。
 41
0.6744
 72
       5
 11
272.17638504
 21
-252.28947368
 31
0.0
100
AcDbText
  0
ARC
  5
556
100
AcDbEntity
  8
21
  6
CONTINUOUS
 62
       7
100
AcDbCircle
 10
-198.97458994
 20
33.55644056
 30
0.0
 40
23.14545061
100
AcDbArc
 50
31.01216393
 51
328.98783607
  0
ARC
  5
557
100
AcDbEntity
  8
21
  6
CONTINUOUS
 62
       7
100
AcDbCircle
 10
-198.97458994
 20
33.55644056
 30
0.0
 40
32.22592033
100
AcDbArc
 50
21.7183147
 51
338.2816853
  0
ARC
  5
558
100
AcDbEntity
  8
21
  6
CONTINUOUS
 62
       7
100
AcDbCircle
 10
-201.57937457
 20
-9.08970755
 30
0.0
 40
2.65978413
100
AcDbArc
 50
185.99962524
 51
232.77487423
  0
ELLIPSE
  5
559
100
AcDbEntity
  8
21
  6
CONTINUOUS
 62
       7
100
AcDbEllipse
 10
-198.97458994
 20
-10.53981904
 30
0.0
 11
3.75
 21
0.0
 31
0.0
210
0.0
220
0.0
230
1.0
 40
0.17616657
 41
4.8625402435787759
 42
10.154696687469
  0
ARC
  5
55A
100
AcDbEntity
  8
21
  6
CONTINUOUS
 62
       7
100
AcDbCircle
 10
-198.97458994
 20
-14.26394098
 30
0.0
 40
5.82974243
100
AcDbArc
 50
48.29737779
 51
131.70262221
  0
LINE
  5
55B
100
AcDbEntity
  8
21
  6
CONTINUOUS
 62
       7
100
AcDbLine
 10
-195.09626912
 20
-11.27612158
 30
0.0
 11
-194.76077327
 21
-11.20759978
 31
0.0
  0
LINE
  5
55C
100
AcDbEntity
  8
21
  6
CONTINUOUS
 62
       7
100
AcDbLine
 10
-193.72458994
 20
-9.3677134
 30
0.0
 11
-193.72458994
 21
-9.23761771
 31
0.0
  0
ARC
  5
55D
100
AcDbEntity
  8
21
  6
CONTINUOUS
 62
       7
100
AcDbCircle
 10
-196.12826777
 20
-9.22573615
 30
0.0
 40
2.40786724
100
AcDbArc
 50
304.60584387
 51
356.61965666
  0
LINE
  5
55E
100
AcDbEntity
  8
21
  6
CONTINUOUS
 62
       7
100
AcDbLine
 10
-195.09626912
 20
-9.91141018
 30
0.0
 11
-195.09626912
 21
-11.27612158
 31
0.0
  0
ARC
  5
55F
100
AcDbEntity
  8
21
  6
CONTINUOUS
 62
       7
100
AcDbCircle
 10
-214.72160293
 20
-28.39262253
 30
0.0
 40
30.04362461
100
AcDbArc
 50
45.66245294
 51
56.8591185
  0
ARC
  5
560
100
AcDbEntity
  8
21
  6
CONTINUOUS
 62
       7
100
AcDbCircle
 10
-198.94432435
 20
-4.22803235
 30
0.0
 40
1.18448502
100
AcDbArc
 50
56.8591185
 51
121.30248247
  0
LINE
  5
561
100
AcDbEntity
  8
21
  6
CONTINUOUS
 62
       7
100
AcDbLine
 10
-203.18840661
 20
-11.20759978
 30
0.0
 11
-202.85291077
 21
-11.27612158
 31
0.0
  0
LINE
  5
562
100
AcDbEntity
  8
21
  6
CONTINUOUS
 62
       7
100
AcDbLine
 10
-204.22458994
 20
-9.23761831
 30
0.0
 11
-204.22458994
 21
-9.3677134
 31
0.0
  0
LINE
  5
563
100
AcDbEntity
  8
21
  6
CONTINUOUS
 62
       7
100
AcDbLine
 10
-202.85291077
 20
-11.27612158
 30
0.0
 11
-202.85291077
 21
-9.91141018
 31
0.0
  0
LINE
  5
564
100
AcDbEntity
  8
21
  6
CONTINUOUS
 62
       7
100
AcDbLine
 10
-212.09958994
 20
185.32394171
 30
0.0
 11
-185.84958994
 21
185.32394171
 31
0.0
  0
LINE
  5
565
100
AcDbEntity
  8
21
  6
CONTINUOUS
 62
       7
100
AcDbLine
 10
-212.09958994
 20
188.32394171
 30
0.0
 11
-185.87217329
 21
188.32394171
 31
0.0
  0
LINE
  5
566
100
AcDbEntity
  8
21
  6
CONTINUOUS
 62
       7
100
AcDbLine
 10
-231.22458994
 20
267.82394171
 30
0.0
 11
-166.72458994
 21
267.82394171
 31
0.0
  0
ARC
  5
567
100
AcDbEntity
  8
21
  6
CONTINUOUS
 62
       7
100
AcDbCircle
 10
67.01541111
 20
33.55644056
 30
0.0
 40
23.14545061
100
AcDbArc
 50
211.01216393
 51
508.98783607
  0
ARC
  5
568
100
AcDbEntity
  8
21
  6
CONTINUOUS
 62
       7
100
AcDbCircle
 10
67.01541111
 20
33.55644056
 30
0.0
 40
32.22592033
100
AcDbArc
 50
201.7183147
 51
518.2816853
  0
LINE
  5
569
100
AcDbEntity
  8
21
  6
CONTINUOUS
 62
       7
100
AcDbLine
 10
70.89373194
 20
-11.27612158
 30
0.0
 11
70.89373194
 21
-9.91141018
 31
0.0
  0
LINE
  5
56A
100
AcDbEntity
  8
21
  6
CONTINUOUS
 62
       7
100
AcDbLine
 10
72.26541111
 20
-9.23761831
 30
0.0
 11
72.26541111
 21
-9.3677134
 31
0.0
  0
LINE
  5
56B
100
AcDbEntity
  8
21
  6
CONTINUOUS
 62
       7
100
AcDbLine
 10
71.22922778
 20
-11.20759978
 30
0.0
 11
70.89373194
 21
-11.27612158
 31
0.0
  0
ARC
  5
56C
100
AcDbEntity
  8
21
  6
CONTINUOUS
 62
       7
100
AcDbCircle
 10
66.98514552
 20
-4.22803235
 30
0.0
 40
1.18448502
100
AcDbArc
 50
58.69751753
 51
123.1408815
  0
ARC
  5
56D
100
AcDbEntity
  8
21
  6
CONTINUOUS
 62
       7
100
AcDbCircle
 10
82.7624241
 20
-28.39262253
 30
0.0
 40
30.04362461
100
AcDbArc
 50
123.1408815
 51
134.33754706
  0
LINE
  5
56E
100
AcDbEntity
  8
21
  6
CONTINUOUS
 62
       7
100
AcDbLine
 10
63.13709029
 20
-9.91141018
 30
0.0
 11
63.13709029
 21
-11.27612158
 31
0.0
  0
ARC
  5
56F
100
AcDbEntity
  8
21
  6
CONTINUOUS
 62
       7
100
AcDbCircle
 10
64.16908894
 20
-9.22573615
 30
0.0
 40
2.40786724
100
AcDbArc
 50
183.38034334
 51
235.39415613
  0
LINE
  5
570
100
AcDbEntity
  8
21
  6
CONTINUOUS
 62
       7
100
AcDbLine
 10
61.76541111
 20
-9.3677134
 30
0.0
 11
61.76541111
 21
-9.23761771
 31
0.0
  0
LINE
  5
571
100
AcDbEntity
  8
21
  6
CONTINUOUS
 62
       7
100
AcDbLine
 10
63.13709029
 20
-11.27612158
 30
0.0
 11
62.80159444
 21
-11.20759978
 31
0.0
  0
ARC
  5
572
100
AcDbEntity
  8
21
  6
CONTINUOUS
 62
       7
100
AcDbCircle
 10
67.01541111
 20
-14.26394098
 30
0.0
 40
5.82974243
100
AcDbArc
 50
48.29737779
 51
131.70262221
  0
ELLIPSE
  5
573
100
AcDbEntity
  8
21
  6
CONTINUOUS
 62
       7
100
AcDbEllipse
 10
67.01541111
 20
-10.53981904
 30
0.0
 11
-3.75
 21
0.0
 31
0.0
210
0.0
220
0.0
230
1.0
 40
0.17616657
 41
2.4116739268901743
 42
7.7038303707803912
  0
ARC
  5
574
100
AcDbEntity
  8
21
  6
CONTINUOUS
 62
       7
100
AcDbCircle
 10
69.62019574
 20
-9.08970755
 30
0.0
 40
2.65978413
100
AcDbArc
 50
307.22512577
 51
354.00037476
  0
LINE
  5
575
100
AcDbEntity
  8
21
  6
CONTINUOUS
 62
       7
100
AcDbLine
 10
80.14041111
 20
188.32394171
 30
0.0
 11
53.91299446
 21
188.32394171
 31
0.0
  0
LINE
  5
576
100
AcDbEntity
  8
21
  6
CONTINUOUS
 62
       7
100
AcDbLine
 10
80.14041111
 20
185.32394171
 30
0.0
 11
53.89041111
 21
185.32394171
 31
0.0
  0
LINE
  5
577
100
AcDbEntity
  8
21
  6
CONTINUOUS
 62
       7
100
AcDbLine
 10
99.26541111
 20
267.82394171
 30
0.0
 11
34.76541111
 21
267.82394171
 31
0.0
  0
LINE
  5
578
100
AcDbEntity
  8
21
  6
CONTINUOUS
 62
       7
100
AcDbLine
 10
115.93776185
 20
-144.73630041
 30
0.0
 11
93.55679873
 21
-144.73630041
 31
0.0
  0
LINE
  5
579
100
AcDbEntity
  8
21
  6
CONTINUOUS
 62
       7
100
AcDbLine
 10
121.67160954
 20
-160.16062966
 30
0.0
 11
87.82295103
 21
-160.16062966
 31
0.0
  0
LINE
  5
57A
100
AcDbEntity
  8
21
  6
CONTINUOUS
 62
       7
100
AcDbLine
 10
115.93776185
 20
-193.58495892
 30
0.0
 11
93.55679873
 21
-193.58495892
 31
0.0
  0
LINE
  5
57B
100
AcDbEntity
  8
21
  6
CONTINUOUS
 62
       7
100
AcDbLine
 10
121.67160954
 20
-178.16062966
 30
0.0
 11
87.82295103
 21
-178.16062966
 31
0.0
  0
LINE
  5
57C
100
AcDbEntity
  8
21
  6
CONTINUOUS
 62
       7
100
AcDbLine
 10
102.89643589
 20
-172.16062966
 30
0.0
 11
87.82295103
 21
-172.16062966
 31
0.0
  0
LINE
  5
57D
100
AcDbEntity
  8
21
  6
CONTINUOUS
 62
       7
100
AcDbLine
 10
102.89643589
 20
-166.16062966
 30
0.0
 11
87.82295103
 21
-166.16062966
 31
0.0
  0
LINE
  5
57E
100
AcDbEntity
  8
21
  6
CONTINUOUS
 62
       7
100
AcDbLine
 10
121.67160954
 20
-172.16062966
 30
0.0
 11
121.67160954
 21
-166.16062966
 31
0.0
  0
LINE
  5
57F
100
AcDbEntity
  8
21
  6
CONTINUOUS
 62
       7
100
AcDbLine
 10
121.67160954
 20
-172.16062966
 30
0.0
 11
106.59812469
 21
-172.16062966
 31
0.0
  0
LINE
  5
580
100
AcDbEntity
  8
21
  6
CONTINUOUS
 62
       7
100
AcDbLine
 10
121.67160954
 20
-187.85111122
 30
0.0
 11
121.67160954
 21
-178.16062966
 31
0.0
  0
LINE
  5
581
100
AcDbEntity
  8
21
  6
CONTINUOUS
 62
       7
100
AcDbLine
 10
121.67160954
 20
-187.85111122
 30
0.0
 11
115.93776185
 21
-193.58495892
 31
0.0
  0
ARC
  5
582
100
AcDbEntity
  8
21
  6
CONTINUOUS
 62
       7
100
AcDbCircle
 10
110.59301212
 20
-175.16062966
 30
0.0
 40
11.47760084
100
AcDbArc
 50
344.84811694
 51
375.15188306
  0
LINE
  5
583
100
AcDbEntity
  8
21
  6
CONTINUOUS
 62
       7
100
AcDbLine
 10
121.67160954
 20
-160.16062966
 30
0.0
 11
121.67160954
 21
-150.4701481
 31
0.0
  0
LINE
  5
584
100
AcDbEntity
  8
21
  6
CONTINUOUS
 62
       7
100
AcDbLine
 10
121.67160954
 20
-150.4701481
 30
0.0
 11
115.93776185
 21
-144.73630041
 31
0.0
  0
LINE
  5
585
100
AcDbEntity
  8
21
  6
CONTINUOUS
 62
       7
100
AcDbLine
 10
121.67160954
 20
-166.16062966
 30
0.0
 11
106.59812469
 21
-166.16062966
 31
0.0
  0
ARC
  5
586
100
AcDbEntity
  8
21
  6
CONTINUOUS
 62
       7
100
AcDbCircle
 10
110.59301212
 20
-163.16062966
 30
0.0
 40
11.47760084
100
AcDbArc
 50
344.84811694
 51
375.15188306
  0
LINE
  5
587
100
AcDbEntity
  8
21
  6
CONTINUOUS
 62
       7
100
AcDbLine
 10
87.82295103
 20
-172.16062966
 30
0.0
 11
87.82295103
 21
-166.16062966
 31
0.0
  0
LINE
  5
588
100
AcDbEntity
  8
21
  6
CONTINUOUS
 62
       7
100
AcDbLine
 10
87.82295103
 20
-187.85111122
 30
0.0
 11
87.82295103
 21
-178.16062966
 31
0.0
  0
LINE
  5
589
100
AcDbEntity
  8
21
  6
CONTINUOUS
 62
       7
100
AcDbLine
 10
87.82295103
 20
-187.85111122
 30
0.0
 11
93.55679873
 21
-193.58495892
 31
0.0
  0
ARC
  5
58A
100
AcDbEntity
  8
21
  6
CONTINUOUS
 62
       7
100
AcDbCircle
 10
98.90154846
 20
-175.16062966
 30
0.0
 40
11.47760084
100
AcDbArc
 50
164.84811694
 51
195.15188306
  0
LINE
  5
58B
100
AcDbEntity
  8
21
  6
CONTINUOUS
 62
       7
100
AcDbLine
 10
87.82295103
 20
-160.16062966
 30
0.0
 11
87.82295103
 21
-150.4701481
 31
0.0
  0
LINE
  5
58C
100
AcDbEntity
  8
21
  6
CONTINUOUS
 62
       7
100
AcDbLine
 10
87.82295103
 20
-150.4701481
 30
0.0
 11
93.55679873
 21
-144.73630041
 31
0.0
  0
ARC
  5
58D
100
AcDbEntity
  8
21
  6
CONTINUOUS
 62
       7
100
AcDbCircle
 10
98.90154846
 20
-163.16062966
 30
0.0
 40
11.47760084
100
AcDbArc
 50
164.84811694
 51
195.15188306
  0
LINE
  5
58E
100
AcDbEntity
  8
21
  6
CONTINUOUS
 62
       7
100
AcDbLine
 10
231.1078172
 20
188.32394171
 30
0.0
 11
204.88040054
 21
188.32394171
 31
0.0
  0
LINE
  5
58F
100
AcDbEntity
  8
21
  6
CONTINUOUS
 62
       7
100
AcDbLine
 10
231.1078172
 20
185.32394171
 30
0.0
 11
204.8578172
 21
185.32394171
 31
0.0
  0
LINE
  5
590
100
AcDbEntity
  8
21
  6
CONTINUOUS
 62
       7
100
AcDbLine
 10
250.2328172
 20
267.82394171
 30
0.0
 11
185.7328172
 21
267.82394171
 31
0.0
  0
LINE
  5
591
100
AcDbEntity
  8
16
  6
CONTINUOUS
 62
       7
100
AcDbLine
 10
50.81541111
 20
21.63144056
 30
0.0
 11
-62.4577456
 21
21.63144056
 31
0.0
  0
LINE
  5
592
100
AcDbEntity
  8
16
  6
CONTINUOUS
 62
       7
100
AcDbLine
 10
50.81541111
 20
45.48144056
 30
0.0
 11
-62.45248254
 21
45.48144056
 31
0.0
  0
LINE
  5
593
100
AcDbEntity
  8
16
  6
CONTINUOUS
 62
       7
100
AcDbLine
 10
50.81541111
 20
155.39894171
 30
0.0
 11
-62.4577456
 21
155.39894171
 31
0.0
  0
LINE
  5
594
100
AcDbEntity
  8
16
  6
CONTINUOUS
 62
       7
100
AcDbLine
 10
50.81541111
 20
179.24894171
 30
0.0
 11
-62.45248254
 21
179.24894171
 31
0.0
  0
LINE
  5
595
100
AcDbEntity
  8
16
  6
CONTINUOUS
 62
       7
100
AcDbLine
 10
-74.86825429
 20
21.63144056
 30
0.0
 11
-182.77458994
 21
21.63144056
 31
0.0
  0
LINE
  5
596
100
AcDbEntity
  8
16
  6
CONTINUOUS
 62
       7
100
AcDbLine
 10
-74.8629914
 20
45.48144056
 30
0.0
 11
-182.77458994
 21
45.48144056
 31
0.0
  0
ARC
  5
597
100
AcDbEntity
  8
16
  6
CONTINUOUS
 62
       7
100
AcDbCircle
 10
-198.97458994
 20
33.55644056
 30
0.0
 40
20.25
100
AcDbArc
 50
36.86989765
 51
323.13010235
  0
ARC
  5
598
100
AcDbEntity
  8
16
  6
CONTINUOUS
 62
       7
100
AcDbCircle
 10
-198.97458994
 20
33.55644056
 30
0.0
 40
40.8
100
AcDbArc
 50
16.99447047
 51
262.60688281
  0
ARC
  5
599
100
AcDbEntity
  8
16
  6
CONTINUOUS
 62
       7
100
AcDbCircle
 10
-198.97458994
 20
33.55644056
 30
0.0
 40
45.0
100
AcDbArc
 50
15.3669528
 51
344.6330472
  0
ARC
  5
59A
100
AcDbEntity
  8
16
  6
CONTINUOUS
 62
       7
100
AcDbCircle
 10
-198.97458994
 20
33.55644056
 30
0.0
 40
36.6
100
AcDbArc
 50
19.01524197
 51
340.98475803
  0
ARC
  5
59B
100
AcDbEntity
  8
16
  6
CONTINUOUS
 62
       7
100
AcDbCircle
 10
-198.97458994
 20
33.55644056
 30
0.0
 40
26.25
100
AcDbArc
 50
27.01898524
 51
332.98101476
  0
ARC
  5
59C
100
AcDbEntity
  8
16
  6
CONTINUOUS
 62
       7
100
AcDbCircle
 10
-198.97458994
 20
33.55644056
 30
0.0
 40
40.8
100
AcDbArc
 50
277.3931171
 51
343.00552953
  0
ELLIPSE
  5
59D
100
AcDbEntity
  8
16
  6
CONTINUOUS
 62
       7
100
AcDbEllipse
 10
-198.97458994
 20
-10.54338183
 30
0.0
 11
3.1500000000002046
 21
-0.0000000000000853
 31
0.0
210
0.0
220
0.0
230
1.0
 40
0.17521649
 41
0.0
 42
6.2831853071796004
  0
ARC
  5
59E
100
AcDbEntity
  8
16
  6
CONTINUOUS
 62
       7
100
AcDbCircle
 10
-167.5803946
 20
273.00371954
 30
0.0
 40
5.25
100
AcDbArc
 50
282.98179862
 51
352.56036925
  0
ARC
  5
59F
100
AcDbEntity
  8
16
  6
CONTINUOUS
 62
       7
100
AcDbCircle
 10
-230.36878529
 20
273.00371954
 30
0.0
 40
5.25
100
AcDbArc
 50
187.43963075
 51
257.01820138
  0
LINE
  5
5A0
100
AcDbEntity
  8
16
  6
CONTINUOUS
 62
       7
100
AcDbLine
 10
-74.86825429
 20
155.39894171
 30
0.0
 11
-182.77458994
 21
155.39894171
 31
0.0
  0
LINE
  5
5A1
100
AcDbEntity
  8
16
  6
CONTINUOUS
 62
       7
100
AcDbLine
 10
-74.8629914
 20
179.24894171
 30
0.0
 11
-182.77458994
 21
179.24894171
 31
0.0
  0
ARC
  5
5A2
100
AcDbEntity
  8
16
  6
CONTINUOUS
 62
       7
100
AcDbCircle
 10
-361.53298662
 20
180.84745026
 30
0.0
 40
150.0
100
AcDbArc
 50
3.14529866
 51
16.10638011
  0
ARC
  5
5A3
100
AcDbEntity
  8
16
  6
CONTINUOUS
 62
       7
100
AcDbCircle
 10
-36.41619326
 20
180.84745026
 30
0.0
 40
150.0
100
AcDbArc
 50
163.89361989
 51
176.85467766
  0
ARC
  5
5A4
100
AcDbEntity
  8
16
  6
CONTINUOUS
 62
       7
100
AcDbCircle
 10
-198.97458994
 20
167.32394171
 30
0.0
 40
20.25
100
AcDbArc
 50
131.40232662
 51
323.13010235
  0
ARC
  5
5A5
100
AcDbEntity
  8
16
  6
CONTINUOUS
 62
       7
100
AcDbCircle
 10
-212.09958994
 20
186.82394171
 30
0.0
 40
1.5
100
AcDbArc
 50
100.45338341
 51
243.78782902
  0
ARC
  5
5A6
100
AcDbEntity
  8
16
  6
CONTINUOUS
 62
       7
100
AcDbCircle
 10
-212.09958994
 20
186.82394171
 30
0.0
 40
1.5
100
AcDbArc
 50
89.63540997
 51
90.0
  0
ARC
  5
5A7
100
AcDbEntity
  8
16
  6
CONTINUOUS
 62
       7
100
AcDbCircle
 10
-213.5571882
 20
183.86329865
 30
0.0
 40
1.8
100
AcDbArc
 50
311.40232662
 51
423.78782902
  0
ARC
  5
5A8
100
AcDbEntity
  8
16
  6
CONTINUOUS
 62
       7
100
AcDbCircle
 10
-212.50781976
 20
189.03659813
 30
0.0
 40
0.75
100
AcDbArc
 50
280.45338341
 51
363.14532234
  0
ARC
  5
5A9
100
AcDbEntity
  8
16
  6
CONTINUOUS
 62
       7
100
AcDbCircle
 10
-185.84958994
 20
186.82394171
 30
0.0
 40
1.5
100
AcDbArc
 50
296.21217098
 51
439.54661659
  0
ARC
  5
5AA
100
AcDbEntity
  8
16
  6
CONTINUOUS
 62
       7
100
AcDbCircle
 10
-184.39199168
 20
183.86329865
 30
0.0
 40
1.8
100
AcDbArc
 50
116.21217098
 51
228.59767338
  0
ARC
  5
5AB
100
AcDbEntity
  8
16
  6
CONTINUOUS
 62
       7
100
AcDbCircle
 10
-185.44136012
 20
189.03659813
 30
0.0
 40
0.75
100
AcDbArc
 50
176.85467766
 51
259.54661659
  0
ARC
  5
5AC
100
AcDbEntity
  8
16
  6
CONTINUOUS
 62
       7
100
AcDbCircle
 10
-198.97458994
 20
167.32394171
 30
0.0
 40
20.25
100
AcDbArc
 50
36.86989765
 51
48.59767338
  0
LINE
  5
5AD
100
AcDbEntity
  8
16
  6
CONTINUOUS
 62
       7
100
AcDbLine
 10
-182.77458994
 20
155.17394171
 30
0.0
 11
-182.77458994
 21
179.47394171
 31
0.0
  0
LINE
  5
5AE
100
AcDbEntity
  8
16
  6
CONTINUOUS
 62
       7
100
AcDbLine
 10
-225.22458994
 20
249.82394171
 30
0.0
 11
-172.72458994
 21
249.82394171
 31
0.0
  0
LINE
  5
5AF
100
AcDbEntity
  8
16
  6
CONTINUOUS
 62
       7
100
AcDbLine
 10
-223.72458994
 20
246.07394171
 30
0.0
 11
-174.22458994
 21
246.07394171
 31
0.0
  0
LINE
  5
5B0
100
AcDbEntity
  8
16
  6
CONTINUOUS
 62
       7
100
AcDbLine
 10
-225.22458994
 20
247.57394171
 30
0.0
 11
-225.22458994
 21
249.82394171
 31
0.0
  0
ARC
  5
5B1
100
AcDbEntity
  8
16
  6
CONTINUOUS
 62
       7
100
AcDbCircle
 10
-193.80620822
 20
270.29673562
 30
0.0
 40
37.5
100
AcDbArc
 50
184.30286123
 51
213.08900344
  0
ARC
  5
5B2
100
AcDbEntity
  8
16
  6
CONTINUOUS
 62
       7
100
AcDbCircle
 10
-231.6492419
 20
267.44940313
 30
0.0
 40
0.45
100
AcDbArc
 50
4.30286123
 51
77.01820138
  0
ARC
  5
5B3
100
AcDbEntity
  8
16
  6
CONTINUOUS
 62
       7
100
AcDbCircle
 10
-223.72458994
 20
247.57394171
 30
0.0
 40
1.5
100
AcDbArc
 50
180.0
 51
270.0
  0
ARC
  5
5B4
100
AcDbEntity
  8
16
  6
CONTINUOUS
 62
       7
100
AcDbCircle
 10
-222.62293952
 20
245.62394171
 30
0.0
 40
0.45
100
AcDbArc
 50
7.04403323
 51
90.0
  0
ARC
  5
5B5
100
AcDbEntity
  8
16
  6
CONTINUOUS
 62
       7
100
AcDbCircle
 10
-73.30850619
 20
264.07394171
 30
0.0
 40
150.0
100
AcDbArc
 50
187.04403323
 51
196.10638011
  0
LINE
  5
5B6
100
AcDbEntity
  8
16
  6
CONTINUOUS
 62
       7
100
AcDbLine
 10
-172.72458994
 20
247.57394171
 30
0.0
 11
-172.72458994
 21
249.82394171
 31
0.0
  0
ARC
  5
5B7
100
AcDbEntity
  8
16
  6
CONTINUOUS
 62
       7
100
AcDbCircle
 10
-166.29993798
 20
267.44940313
 30
0.0
 40
0.45
100
AcDbArc
 50
102.98179862
 51
175.69713877
  0
ARC
  5
5B8
100
AcDbEntity
  8
16
  6
CONTINUOUS
 62
       7
100
AcDbCircle
 10
-204.14297166
 20
270.29673562
 30
0.0
 40
37.5
100
AcDbArc
 50
326.91099656
 51
355.69713877
  0
ARC
  5
5B9
100
AcDbEntity
  8
16
  6
CONTINUOUS
 62
       7
100
AcDbCircle
 10
-174.22458994
 20
247.57394171
 30
0.0
 40
1.5
100
AcDbArc
 50
270.0
 51
360.0
  0
ARC
  5
5BA
100
AcDbEntity
  8
16
  6
CONTINUOUS
 62
       7
100
AcDbCircle
 10
-175.32624037
 20
245.62394171
 30
0.0
 40
0.45
100
AcDbArc
 50
90.0
 51
172.95596677
  0
ARC
  5
5BB
100
AcDbEntity
  8
16
  6
CONTINUOUS
 62
       7
100
AcDbCircle
 10
-324.64067369
 20
264.07394171
 30
0.0
 40
150.0
100
AcDbArc
 50
343.89361989
 51
352.95596677
  0
LINE
  5
5BC
100
AcDbEntity
  8
16
  6
CONTINUOUS
 62
       7
100
AcDbLine
 10
-239.77458994
 20
277.57394171
 30
0.0
 11
-158.17458994
 21
277.57394171
 31
0.0
  0
LINE
  5
5BD
100
AcDbEntity
  8
16
  6
CONTINUOUS
 62
       7
100
AcDbLine
 10
-235.57458994
 20
272.32394171
 30
0.0
 11
-162.37458994
 21
272.32394171
 31
0.0
  0
LINE
  5
5BE
100
AcDbEntity
  8
16
  6
CONTINUOUS
 62
       7
100
AcDbLine
 10
-153.97458994
 20
282.82394171
 30
0.0
 11
-243.97458994
 21
282.82394171
 31
0.0
  0
ARC
  5
5BF
100
AcDbEntity
  8
16
  6
CONTINUOUS
 62
       7
100
AcDbCircle
 10
-234.5256572
 20
277.46808791
 30
0.0
 40
5.25
100
AcDbArc
 50
178.84468816
 51
258.47492835
  0
ARC
  5
5C0
100
AcDbEntity
  8
16
  6
CONTINUOUS
 62
       7
100
AcDbCircle
 10
-238.7256572
 20
282.71808791
 30
0.0
 40
5.25
100
AcDbArc
 50
178.84468816
 51
258.47492835
  0
ARC
  5
5C1
100
AcDbEntity
  8
16
  6
CONTINUOUS
 62
       7
100
AcDbCircle
 10
-163.42352269
 20
277.46808791
 30
0.0
 40
5.25
100
AcDbArc
 50
281.52507165
 51
361.15531184
  0
ARC
  5
5C2
100
AcDbEntity
  8
16
  6
CONTINUOUS
 62
       7
100
AcDbCircle
 10
-163.42352269
 20
277.46808791
 30
0.0
 40
5.25
100
AcDbArc
 50
281.52507165
 51
361.15531184
  0
ARC
  5
5C3
100
AcDbEntity
  8
16
  6
CONTINUOUS
 62
       7
100
AcDbCircle
 10
-159.22352269
 20
282.71808791
 30
0.0
 40
5.25
100
AcDbArc
 50
281.52507165
 51
361.15531184
  0
ARC
  5
5C4
100
AcDbEntity
  8
16
  6
CONTINUOUS
 62
       7
100
AcDbCircle
 10
-159.22352269
 20
282.71808791
 30
0.0
 40
5.25
100
AcDbArc
 50
281.52507165
 51
361.15531184
  0
ARC
  5
5C5
100
AcDbEntity
  8
16
  6
CONTINUOUS
 62
       7
100
AcDbCircle
 10
67.01541111
 20
33.55644056
 30
0.0
 40
20.25
100
AcDbArc
 50
216.86989765
 51
503.13010235
  0
ARC
  5
5C6
100
AcDbEntity
  8
16
  6
CONTINUOUS
 62
       7
100
AcDbCircle
 10
67.01541111
 20
33.55644056
 30
0.0
 40
26.25
100
AcDbArc
 50
207.01898524
 51
512.98101476
  0
ARC
  5
5C7
100
AcDbEntity
  8
16
  6
CONTINUOUS
 62
       7
100
AcDbCircle
 10
67.01541111
 20
33.55644056
 30
0.0
 40
36.6
100
AcDbArc
 50
199.01524197
 51
520.98475803
  0
ARC
  5
5C8
100
AcDbEntity
  8
16
  6
CONTINUOUS
 62
       7
100
AcDbCircle
 10
67.01541111
 20
33.55644056
 30
0.0
 40
40.8
100
AcDbArc
 50
277.39311719
 51
523.00552953
  0
ARC
  5
5C9
100
AcDbEntity
  8
16
  6
CONTINUOUS
 62
       7
100
AcDbCircle
 10
67.01541111
 20
33.55644056
 30
0.0
 40
45.0
100
AcDbArc
 50
195.3669528
 51
524.6330472
  0
ARC
  5
5CA
100
AcDbEntity
  8
16
  6
CONTINUOUS
 62
       7
100
AcDbCircle
 10
67.01541111
 20
33.55644056
 30
0.0
 40
40.8
100
AcDbArc
 50
196.99447047
 51
262.6068829
  0
ELLIPSE
  5
5CB
100
AcDbEntity
  8
16
  6
CONTINUOUS
 62
       7
100
AcDbEllipse
 10
67.01541111
 20
-10.54338183
 30
0.0
 11
-3.1500000000000341
 21
-0.0000000000000853
 31
0.0
210
0.0
220
0.0
230
1.0
 40
0.17521649
 41
0.0
 42
6.2831853071796004
  0
ARC
  5
5CC
100
AcDbEntity
  8
16
  6
CONTINUOUS
 62
       7
100
AcDbCircle
 10
98.40960646
 20
273.00371954
 30
0.0
 40
5.25
100
AcDbArc
 50
282.98179862
 51
352.56036925
  0
ARC
  5
5CD
100
AcDbEntity
  8
16
  6
CONTINUOUS
 62
       7
100
AcDbCircle
 10
35.62121577
 20
273.00371954
 30
0.0
 40
5.25
100
AcDbArc
 50
187.43963075
 51
257.01820138
  0
ARC
  5
5CE
100
AcDbEntity
  8
16
  6
CONTINUOUS
 62
       7
100
AcDbCircle
 10
229.57380779
 20
180.84745026
 30
0.0
 40
150.0
100
AcDbArc
 50
163.89361989
 51
176.85467766
  0
ARC
  5
5CF
100
AcDbEntity
  8
16
  6
CONTINUOUS
 62
       7
100
AcDbCircle
 10
-95.54298557
 20
180.84745026
 30
0.0
 40
150.0
100
AcDbArc
 50
3.14532234
 51
16.10638011
  0
ARC
  5
5D0
100
AcDbEntity
  8
16
  6
CONTINUOUS
 62
       7
100
AcDbCircle
 10
81.59800937
 20
183.86329865
 30
0.0
 40
1.8
100
AcDbArc
 50
116.21217098
 51
228.59767338
  0
ARC
  5
5D1
100
AcDbEntity
  8
16
  6
CONTINUOUS
 62
       7
100
AcDbCircle
 10
80.14041111
 20
186.82394171
 30
0.0
 40
1.5
100
AcDbArc
 50
296.21217098
 51
439.54661659
  0
ARC
  5
5D2
100
AcDbEntity
  8
16
  6
CONTINUOUS
 62
       7
100
AcDbCircle
 10
80.14041111
 20
186.82394171
 30
0.0
 40
1.5
100
AcDbArc
 50
90.0
 51
90.36459003
  0
ARC
  5
5D3
100
AcDbEntity
  8
16
  6
CONTINUOUS
 62
       7
100
AcDbCircle
 10
80.54864093
 20
189.03659813
 30
0.0
 40
0.75
100
AcDbArc
 50
176.85467766
 51
259.54661659
  0
ARC
  5
5D4
100
AcDbEntity
  8
16
  6
CONTINUOUS
 62
       7
100
AcDbCircle
 10
52.43281285
 20
183.86329865
 30
0.0
 40
1.8
100
AcDbArc
 50
311.40232662
 51
423.78782902
  0
ARC
  5
5D5
100
AcDbEntity
  8
16
  6
CONTINUOUS
 62
       7
100
AcDbCircle
 10
53.89041111
 20
186.82394171
 30
0.0
 40
1.5
100
AcDbArc
 50
100.45338341
 51
243.78782902
  0
ARC
  5
5D6
100
AcDbEntity
  8
16
  6
CONTINUOUS
 62
       7
100
AcDbCircle
 10
53.48218129
 20
189.03659813
 30
0.0
 40
0.75
100
AcDbArc
 50
280.45338341
 51
363.14532234
  0
ARC
  5
5D7
100
AcDbEntity
  8
16
  6
CONTINUOUS
 62
       7
100
AcDbCircle
 10
67.01541111
 20
167.32394171
 30
0.0
 40
20.25
100
AcDbArc
 50
131.40232662
 51
143.13010235
  0
ARC
  5
5D8
100
AcDbEntity
  8
16
  6
CONTINUOUS
 62
       7
100
AcDbCircle
 10
67.01541111
 20
167.32394171
 30
0.0
 40
20.25
100
AcDbArc
 50
216.86989765
 51
408.59767338
  0
LINE
  5
5D9
100
AcDbEntity
  8
16
  6
CONTINUOUS
 62
       7
100
AcDbLine
 10
91.76541111
 20
246.07394171
 30
0.0
 11
42.26541111
 21
246.07394171
 31
0.0
  0
LINE
  5
5DA
100
AcDbEntity
  8
16
  6
CONTINUOUS
 62
       7
100
AcDbLine
 10
93.26541111
 20
249.82394171
 30
0.0
 11
40.76541111
 21
249.82394171
 31
0.0
  0
ARC
  5
5DB
100
AcDbEntity
  8
16
  6
CONTINUOUS
 62
       7
100
AcDbCircle
 10
-58.65067264
 20
264.07394171
 30
0.0
 40
150.0
100
AcDbArc
 50
343.89361989
 51
352.95596677
  0
ARC
  5
5DC
100
AcDbEntity
  8
16
  6
CONTINUOUS
 62
       7
100
AcDbCircle
 10
43.36706154
 20
245.62394171
 30
0.0
 40
0.45
100
AcDbArc
 50
7.04403323
 51
90.0
  0
LINE
  5
5DD
100
AcDbEntity
  8
16
  6
CONTINUOUS
 62
       7
100
AcDbLine
 10
40.76541111
 20
247.57394171
 30
0.0
 11
40.76541111
 21
249.82394171
 31
0.0
  0
ARC
  5
5DE
100
AcDbEntity
  8
16
  6
CONTINUOUS
 62
       7
100
AcDbCircle
 10
72.18379283
 20
270.29673562
 30
0.0
 40
37.5
100
AcDbArc
 50
184.30286123
 51
213.08900344
  0
ARC
  5
5DF
100
AcDbEntity
  8
16
  6
CONTINUOUS
 62
       7
100
AcDbCircle
 10
34.34075915
 20
267.44940313
 30
0.0
 40
0.45
100
AcDbArc
 50
4.30286123
 51
77.01820138
  0
ARC
  5
5E0
100
AcDbEntity
  8
16
  6
CONTINUOUS
 62
       7
100
AcDbCircle
 10
42.26541111
 20
247.57394171
 30
0.0
 40
1.5
100
AcDbArc
 50
180.0
 51
270.0
  0
ARC
  5
5E1
100
AcDbEntity
  8
16
  6
CONTINUOUS
 62
       7
100
AcDbCircle
 10
192.68149486
 20
264.07394171
 30
0.0
 40
150.0
100
AcDbArc
 50
187.04403323
 51
196.10638011
  0
ARC
  5
5E2
100
AcDbEntity
  8
16
  6
CONTINUOUS
 62
       7
100
AcDbCircle
 10
99.69006307
 20
267.44940313
 30
0.0
 40
0.45
100
AcDbArc
 50
102.98179862
 51
175.69713877
  0
LINE
  5
5E3
100
AcDbEntity
  8
16
  6
CONTINUOUS
 62
       7
100
AcDbLine
 10
93.26541111
 20
247.57394171
 30
0.0
 11
93.26541111
 21
249.82394171
 31
0.0
  0
ARC
  5
5E4
100
AcDbEntity
  8
16
  6
CONTINUOUS
 62
       7
100
AcDbCircle
 10
91.76541111
 20
247.57394171
 30
0.0
 40
1.5
100
AcDbArc
 50
270.0
 51
360.0
  0
ARC
  5
5E5
100
AcDbEntity
  8
16
  6
CONTINUOUS
 62
       7
100
AcDbCircle
 10
90.66376069
 20
245.62394171
 30
0.0
 40
0.45
100
AcDbArc
 50
90.0
 51
172.95596677
  0
ARC
  5
5E6
100
AcDbEntity
  8
16
  6
CONTINUOUS
 62
       7
100
AcDbCircle
 10
61.84702939
 20
270.29673562
 30
0.0
 40
37.5
100
AcDbArc
 50
326.91099656
 51
355.69713877
  0
LINE
  5
5E7
100
AcDbEntity
  8
16
  6
CONTINUOUS
 62
       7
100
AcDbLine
 10
107.81541111
 20
277.57394171
 30
0.0
 11
26.21541111
 21
277.57394171
 31
0.0
  0
LINE
  5
5E8
100
AcDbEntity
  8
16
  6
CONTINUOUS
 62
       7
100
AcDbLine
 10
103.61541111
 20
272.32394171
 30
0.0
 11
30.41541111
 21
272.32394171
 31
0.0
  0
LINE
  5
5E9
100
AcDbEntity
  8
16
  6
CONTINUOUS
 62
       7
100
AcDbLine
 10
22.01541111
 20
282.82394171
 30
0.0
 11
112.01541111
 21
282.82394171
 31
0.0
  0
ARC
  5
5EA
100
AcDbEntity
  8
16
  6
CONTINUOUS
 62
       7
100
AcDbCircle
 10
31.46434386
 20
277.46808791
 30
0.0
 40
5.25
100
AcDbArc
 50
178.84468816
 51
258.47492835
  0
ARC
  5
5EB
100
AcDbEntity
  8
16
  6
CONTINUOUS
 62
       7
100
AcDbCircle
 10
31.46434386
 20
277.46808791
 30
0.0
 40
5.25
100
AcDbArc
 50
178.84468816
 51
258.47492835
  0
ARC
  5
5EC
100
AcDbEntity
  8
16
  6
CONTINUOUS
 62
       7
100
AcDbCircle
 10
27.26434386
 20
282.71808791
 30
0.0
 40
5.25
100
AcDbArc
 50
178.84468816
 51
258.47492835
  0
ARC
  5
5ED
100
AcDbEntity
  8
16
  6
CONTINUOUS
 62
       7
100
AcDbCircle
 10
27.26434386
 20
282.71808791
 30
0.0
 40
5.25
100
AcDbArc
 50
178.84468816
 51
258.47492835
  0
ARC
  5
5EE
100
AcDbEntity
  8
16
  6
CONTINUOUS
 62
       7
100
AcDbCircle
 10
102.56647836
 20
277.46808791
 30
0.0
 40
5.25
100
AcDbArc
 50
281.52507165
 51
361.15531184
  0
ARC
  5
5EF
100
AcDbEntity
  8
16
  6
CONTINUOUS
 62
       7
100
AcDbCircle
 10
106.76647836
 20
282.71808791
 30
0.0
 40
5.25
100
AcDbArc
 50
281.52507165
 51
361.15531184
  0
LINE
  5
5F0
100
AcDbEntity
  8
16
  6
CONTINUOUS
 62
       7
100
AcDbLine
 10
50.81541111
 20
155.17394171
 30
0.0
 11
50.81541111
 21
179.47394171
 31
0.0
  0
LINE
  5
5F1
100
AcDbEntity
  8
16
  6
CONTINUOUS
 62
       7
100
AcDbLine
 10
-182.77458994
 20
21.40644056
 30
0.0
 11
-182.77458994
 21
45.70644056
 31
0.0
  0
LINE
  5
5F2
100
AcDbEntity
  8
16
  6
CONTINUOUS
 62
       7
100
AcDbLine
 10
50.81541111
 20
21.40644056
 30
0.0
 11
50.81541111
 21
45.70644056
 31
0.0
  0
LINE
  5
5F3
100
AcDbEntity
  8
16
  6
CONTINUOUS
 62
       7
100
AcDbLine
 10
202.13986622
 20
-165.53233791
 30
0.0
 11
202.13986622
 21
-172.78892142
 31
0.0
  0
LINE
  5
5F4
100
AcDbEntity
  8
16
  6
CONTINUOUS
 62
       7
100
AcDbLine
 10
199.88986622
 20
-172.16062966
 30
0.0
 11
199.88986622
 21
-166.16062966
 31
0.0
  0
LINE
  5
5F5
100
AcDbEntity
  8
16
  6
CONTINUOUS
 62
       7
100
AcDbLine
 10
193.13986622
 20
-197.17399758
 30
0.0
 11
193.13986622
 21
-141.14726175
 31
0.0
  0
LINE
  5
5F6
100
AcDbEntity
  8
16
  6
CONTINUOUS
 62
       7
100
AcDbLine
 10
194.19617723
 20
-199.16062966
 30
0.0
 11
193.13986622
 21
-197.17399758
 31
0.0
  0
LINE
  5
5F7
100
AcDbEntity
  8
16
  6
CONTINUOUS
 62
       7
100
AcDbLine
 10
193.13986622
 20
-197.17399758
 30
0.0
 11
199.88986622
 21
-193.58495891
 31
0.0
  0
LINE
  5
5F8
100
AcDbEntity
  8
16
  6
CONTINUOUS
 62
       7
100
AcDbLine
 10
199.88986622
 20
-193.58495891
 30
0.0
 11
199.88986622
 21
-178.16062966
 31
0.0
  0
LINE
  5
5F9
100
AcDbEntity
  8
16
  6
CONTINUOUS
 62
       7
100
AcDbLine
 10
202.13986622
 20
-193.58495891
 30
0.0
 11
202.13986622
 21
-177.53233791
 31
0.0
  0
LINE
  5
5FA
100
AcDbEntity
  8
16
  6
CONTINUOUS
 62
       7
100
AcDbLine
 10
194.19617723
 20
-199.16062966
 30
0.0
 11
200.94617723
 21
-195.571591
 31
0.0
  0
ARC
  5
5FB
100
AcDbEntity
  8
16
  6
CONTINUOUS
 62
       7
100
AcDbCircle
 10
199.88986622
 20
-193.58495891
 30
0.0
 40
2.25
100
AcDbArc
 50
298.0
 51
360.0
  0
LINE
  5
5FC
100
AcDbEntity
  8
16
  6
CONTINUOUS
 62
       7
100
AcDbLine
 10
199.88986622
 20
-192.03562966
 30
0.0
 11
202.13986622
 21
-192.03562966
 31
0.0
  0
ARC
  5
5FD
100
AcDbEntity
  8
16
  6
CONTINUOUS
 62
       7
100
AcDbCircle
 10
205.51486622
 20
-175.16062966
 30
0.0
 40
4.125
100
AcDbArc
 50
144.90319877
 51
215.09680123
  0
ARC
  5
5FE
100
AcDbEntity
  8
16
  6
CONTINUOUS
 62
       7
100
AcDbCircle
 10
205.51486622
 20
-175.16062966
 30
0.0
 40
6.375
100
AcDbArc
 50
151.92751306
 51
208.07248694
  0
LINE
  5
5FF
100
AcDbEntity
  8
16
  6
CONTINUOUS
 62
       7
100
AcDbLine
 10
199.88986622
 20
-180.03562966
 30
0.0
 11
202.13986622
 21
-180.03562966
 31
0.0
  0
LINE
  5
600
100
AcDbEntity
  8
16
  6
CONTINUOUS
 62
       7
100
AcDbLine
 10
202.13986622
 20
-172.68562966
 30
0.0
 11
199.63952829
 21
-172.68562966
 31
0.0
  0
LINE
  5
601
100
AcDbEntity
  8
16
  6
CONTINUOUS
 62
       7
100
AcDbLine
 10
193.13986622
 20
-141.14726175
 30
0.0
 11
199.88986622
 21
-144.73630041
 31
0.0
  0
LINE
  5
602
100
AcDbEntity
  8
16
  6
CONTINUOUS
 62
       7
100
AcDbLine
 10
194.19617723
 20
-139.16062966
 30
0.0
 11
193.13986622
 21
-141.14726175
 31
0.0
  0
LINE
  5
603
100
AcDbEntity
  8
16
  6
CONTINUOUS
 62
       7
100
AcDbLine
 10
202.13986622
 20
-144.73630041
 30
0.0
 11
202.13986622
 21
-160.78892142
 31
0.0
  0
LINE
  5
604
100
AcDbEntity
  8
16
  6
CONTINUOUS
 62
       7
100
AcDbLine
 10
199.88986622
 20
-144.73630041
 30
0.0
 11
199.88986622
 21
-160.16062966
 31
0.0
  0
LINE
  5
605
100
AcDbEntity
  8
16
  6
CONTINUOUS
 62
       7
100
AcDbLine
 10
199.88986622
 20
-158.28562966
 30
0.0
 11
202.13986622
 21
-158.28562966
 31
0.0
  0
LINE
  5
606
100
AcDbEntity
  8
16
  6
CONTINUOUS
 62
       7
100
AcDbLine
 10
199.88986622
 20
-146.28562966
 30
0.0
 11
202.13986622
 21
-146.28562966
 31
0.0
  0
LINE
  5
607
100
AcDbEntity
  8
16
  6
CONTINUOUS
 62
       7
100
AcDbLine
 10
194.19617723
 20
-139.16062966
 30
0.0
 11
200.94617723
 21
-142.74966833
 31
0.0
  0
ARC
  5
608
100
AcDbEntity
  8
16
  6
CONTINUOUS
 62
       7
100
AcDbCircle
 10
199.88986622
 20
-144.73630041
 30
0.0
 40
2.25
100
AcDbArc
 50
0.0
 51
62.0
  0
LINE
  5
609
100
AcDbEntity
  8
16
  6
CONTINUOUS
 62
       7
100
AcDbLine
 10
202.13986622
 20
-165.63562966
 30
0.0
 11
199.63952829
 21
-165.63562966
 31
0.0
  0
ARC
  5
60A
100
AcDbEntity
  8
16
  6
CONTINUOUS
 62
       7
100
AcDbCircle
 10
205.51486622
 20
-163.16062966
 30
0.0
 40
4.125
100
AcDbArc
 50
144.90319877
 51
215.09680123
  0
ARC
  5
60B
100
AcDbEntity
  8
16
  6
CONTINUOUS
 62
       7
100
AcDbCircle
 10
205.51486622
 20
-163.16062966
 30
0.0
 40
6.375
100
AcDbArc
 50
151.92751306
 51
208.07248694
  0
LINE
  5
60C
100
AcDbEntity
  8
16
  6
CONTINUOUS
 62
       7
100
AcDbLine
 10
116.38331926
 20
-141.14726175
 30
0.0
 11
93.11124132
 21
-141.14726175
 31
0.0
  0
LINE
  5
60D
100
AcDbEntity
  8
16
  6
CONTINUOUS
 62
       7
100
AcDbLine
 10
116.38331926
 20
-139.16062966
 30
0.0
 11
93.11124132
 21
-139.16062966
 31
0.0
  0
LINE
  5
60E
100
AcDbEntity
  8
16
  6
CONTINUOUS
 62
       7
100
AcDbLine
 10
116.38331926
 20
-197.17399758
 30
0.0
 11
93.11124132
 21
-197.17399758
 31
0.0
  0
LINE
  5
60F
100
AcDbEntity
  8
16
  6
CONTINUOUS
 62
       7
100
AcDbLine
 10
116.38331926
 20
-199.16062966
 30
0.0
 11
93.11124132
 21
-199.16062966
 31
0.0
  0
CIRCLE
  5
610
100
AcDbEntity
  8
16
  6
CONTINUOUS
 62
       7
100
AcDbCircle
 10
104.74728029
 20
-169.16062966
 30
0.0
 40
3.525
  0
LINE
  5
611
100
AcDbEntity
  8
16
  6
CONTINUOUS
 62
       7
100
AcDbLine
 10
125.2606482
 20
-188.29666863
 30
0.0
 11
125.2606482
 21
-150.02459069
 31
0.0
  0
LINE
  5
612
100
AcDbEntity
  8
16
  6
CONTINUOUS
 62
       7
100
AcDbLine
 10
127.24728029
 20
-188.29666863
 30
0.0
 11
127.24728029
 21
-150.02459069
 31
0.0
  0
ARC
  5
613
100
AcDbEntity
  8
16
  6
CONTINUOUS
 62
       7
100
AcDbCircle
 10
104.74728029
 20
-183.63562966
 30
0.0
 40
3.6
100
AcDbArc
 50
0.0
 51
180.0
  0
ARC
  5
614
100
AcDbEntity
  8
16
  6
CONTINUOUS
 62
       7
100
AcDbCircle
 10
104.74728029
 20
-188.43562966
 30
0.0
 40
3.6
100
AcDbArc
 50
180.0
 51
360.0
  0
LINE
  5
615
100
AcDbEntity
  8
16
  6
CONTINUOUS
 62
       7
100
AcDbLine
 10
108.34728029
 20
-183.63562966
 30
0.0
 11
108.34728029
 21
-188.43562966
 31
0.0
  0
LINE
  5
616
100
AcDbEntity
  8
16
  6
CONTINUOUS
 62
       7
100
AcDbLine
 10
124.52449978
 20
-190.07388813
 30
0.0
 11
118.16053875
 21
-196.43784916
 31
0.0
  0
ARC
  5
617
100
AcDbEntity
  8
16
  6
CONTINUOUS
 62
       7
100
AcDbCircle
 10
116.38331926
 20
-194.66062966
 30
0.0
 40
4.5
100
AcDbArc
 50
270.0
 51
315.0
  0
LINE
  5
618
100
AcDbEntity
  8
16
  6
CONTINUOUS
 62
       7
100
AcDbLine
 10
125.9292608
 20
-191.47864915
 30
0.0
 11
119.56529977
 21
-197.84261018
 31
0.0
  0
ARC
  5
619
100
AcDbEntity
  8
16
  6
CONTINUOUS
 62
       7
100
AcDbCircle
 10
122.74728029
 20
-188.29666863
 30
0.0
 40
2.51336791
100
AcDbArc
 50
315.0
 51
360.0
  0
ARC
  5
61A
100
AcDbEntity
  8
16
  6
CONTINUOUS
 62
       7
100
AcDbCircle
 10
122.74728029
 20
-188.29666863
 30
0.0
 40
4.5
100
AcDbArc
 50
315.0
 51
360.0
  0
ARC
  5
61B
100
AcDbEntity
  8
16
  6
CONTINUOUS
 62
       7
100
AcDbCircle
 10
116.38331926
 20
-194.66062966
 30
0.0
 40
2.51336791
100
AcDbArc
 50
270.0
 51
315.0
  0
LINE
  5
61C
100
AcDbEntity
  8
16
  6
CONTINUOUS
 62
       7
100
AcDbLine
 10
101.14728029
 20
-183.63562966
 30
0.0
 11
101.14728029
 21
-188.43562966
 31
0.0
  0
ARC
  5
61D
100
AcDbEntity
  8
16
  6
CONTINUOUS
 62
       7
100
AcDbCircle
 10
104.74728029
 20
-149.88562966
 30
0.0
 40
3.6
100
AcDbArc
 50
0.0
 51
180.0
  0
ARC
  5
61E
100
AcDbEntity
  8
16
  6
CONTINUOUS
 62
       7
100
AcDbCircle
 10
104.74728029
 20
-154.68562966
 30
0.0
 40
3.6
100
AcDbArc
 50
180.0
 51
360.0
  0
LINE
  5
61F
100
AcDbEntity
  8
16
  6
CONTINUOUS
 62
       7
100
AcDbLine
 10
108.34728029
 20
-154.68562966
 30
0.0
 11
108.34728029
 21
-149.88562966
 31
0.0
  0
LINE
  5
620
100
AcDbEntity
  8
16
  6
CONTINUOUS
 62
       7
100
AcDbLine
 10
124.52449978
 20
-148.2473712
 30
0.0
 11
118.16053875
 21
-141.88341017
 31
0.0
  0
ARC
  5
621
100
AcDbEntity
  8
16
  6
CONTINUOUS
 62
       7
100
AcDbCircle
 10
116.38331926
 20
-143.66062966
 30
0.0
 40
4.5
100
AcDbArc
 50
45.0
 51
90.0
  0
LINE
  5
622
100
AcDbEntity
  8
16
  6
CONTINUOUS
 62
       7
100
AcDbLine
 10
125.9292608
 20
-146.84261018
 30
0.0
 11
119.56529977
 21
-140.47864915
 31
0.0
  0
ARC
  5
623
100
AcDbEntity
  8
16
  6
CONTINUOUS
 62
       7
100
AcDbCircle
 10
122.74728029
 20
-150.02459069
 30
0.0
 40
2.51336791
100
AcDbArc
 50
0.0
 51
45.0
  0
ARC
  5
624
100
AcDbEntity
  8
16
  6
CONTINUOUS
 62
       7
100
AcDbCircle
 10
122.74728029
 20
-150.02459069
 30
0.0
 40
4.5
100
AcDbArc
 50
0.0
 51
45.0
  0
ARC
  5
625
100
AcDbEntity
  8
16
  6
CONTINUOUS
 62
       7
100
AcDbCircle
 10
116.38331926
 20
-143.66062966
 30
0.0
 40
2.51336791
100
AcDbArc
 50
45.0
 51
90.0
  0
LINE
  5
626
100
AcDbEntity
  8
16
  6
CONTINUOUS
 62
       7
100
AcDbLine
 10
101.14728029
 20
-154.68562966
 30
0.0
 11
101.14728029
 21
-149.88562966
 31
0.0
  0
LINE
  5
627
100
AcDbEntity
  8
16
  6
CONTINUOUS
 62
       7
100
AcDbLine
 10
84.23391237
 20
-188.29666863
 30
0.0
 11
84.23391237
 21
-150.02459069
 31
0.0
  0
LINE
  5
628
100
AcDbEntity
  8
16
  6
CONTINUOUS
 62
       7
100
AcDbLine
 10
82.24728029
 20
-188.29666863
 30
0.0
 11
82.24728029
 21
-150.02459069
 31
0.0
  0
ARC
  5
629
100
AcDbEntity
  8
16
  6
CONTINUOUS
 62
       7
100
AcDbCircle
 10
86.74728029
 20
-188.29666863
 30
0.0
 40
2.51336791
100
AcDbArc
 50
180.0
 51
225.0
  0
LINE
  5
62A
100
AcDbEntity
  8
16
  6
CONTINUOUS
 62
       7
100
AcDbLine
 10
83.56529977
 20
-191.47864915
 30
0.0
 11
89.9292608
 21
-197.84261018
 31
0.0
  0
LINE
  5
62B
100
AcDbEntity
  8
16
  6
CONTINUOUS
 62
       7
100
AcDbLine
 10
84.97006079
 20
-190.07388813
 30
0.0
 11
91.33402182
 21
-196.43784916
 31
0.0
  0
ARC
  5
62C
100
AcDbEntity
  8
16
  6
CONTINUOUS
 62
       7
100
AcDbCircle
 10
93.11124132
 20
-194.66062966
 30
0.0
 40
4.5
100
AcDbArc
 50
225.0
 51
270.0
  0
ARC
  5
62D
100
AcDbEntity
  8
16
  6
CONTINUOUS
 62
       7
100
AcDbCircle
 10
93.11124132
 20
-194.66062966
 30
0.0
 40
2.51336791
100
AcDbArc
 50
225.0
 51
270.0
  0
ARC
  5
62E
100
AcDbEntity
  8
16
  6
CONTINUOUS
 62
       7
100
AcDbCircle
 10
86.74728029
 20
-188.29666863
 30
0.0
 40
4.5
100
AcDbArc
 50
180.0
 51
225.0
  0
ARC
  5
62F
100
AcDbEntity
  8
16
  6
CONTINUOUS
 62
       7
100
AcDbCircle
 10
86.74728029
 20
-150.02459069
 30
0.0
 40
2.51336791
100
AcDbArc
 50
135.0
 51
180.0
  0
LINE
  5
630
100
AcDbEntity
  8
16
  6
CONTINUOUS
 62
       7
100
AcDbLine
 10
83.56529977
 20
-146.84261018
 30
0.0
 11
89.9292608
 21
-140.47864915
 31
0.0
  0
LINE
  5
631
100
AcDbEntity
  8
16
  6
CONTINUOUS
 62
       7
100
AcDbLine
 10
84.97006079
 20
-148.2473712
 30
0.0
 11
91.33402182
 21
-141.88341017
 31
0.0
  0
ARC
  5
632
100
AcDbEntity
  8
16
  6
CONTINUOUS
 62
       7
100
AcDbCircle
 10
93.11124132
 20
-143.66062966
 30
0.0
 40
4.5
100
AcDbArc
 50
90.0
 51
135.0
  0
ARC
  5
633
100
AcDbEntity
  8
16
  6
CONTINUOUS
 62
       7
100
AcDbCircle
 10
93.11124132
 20
-143.66062966
 30
0.0
 40
2.51336791
100
AcDbArc
 50
90.0
 51
135.0
  0
ARC
  5
634
100
AcDbEntity
  8
16
  6
CONTINUOUS
 62
       7
100
AcDbCircle
 10
86.74728029
 20
-150.02459069
 30
0.0
 40
4.5
100
AcDbArc
 50
135.0
 51
180.0
  0
ARC
  5
635
100
AcDbEntity
  8
16
  6
CONTINUOUS
 62
       7
100
AcDbCircle
 10
249.37701254
 20
273.00371954
 30
0.0
 40
5.25
100
AcDbArc
 50
282.98179862
 51
352.56036925
  0
ARC
  5
636
100
AcDbEntity
  8
16
  6
CONTINUOUS
 62
       7
100
AcDbCircle
 10
186.58862185
 20
273.00371954
 30
0.0
 40
5.25
100
AcDbArc
 50
187.43963075
 51
257.01820138
  0
ARC
  5
637
100
AcDbEntity
  8
16
  6
CONTINUOUS
 62
       7
100
AcDbCircle
 10
380.54121388
 20
180.84745026
 30
0.0
 40
150.0
100
AcDbArc
 50
163.89361989
 51
176.85467766
  0
ARC
  5
638
100
AcDbEntity
  8
16
  6
CONTINUOUS
 62
       7
100
AcDbCircle
 10
55.42442052
 20
180.84745026
 30
0.0
 40
150.0
100
AcDbArc
 50
3.14532234
 51
16.10638011
  0
ARC
  5
639
100
AcDbEntity
  8
16
  6
CONTINUOUS
 62
       7
100
AcDbCircle
 10
232.56541545
 20
183.86329865
 30
0.0
 40
1.8
100
AcDbArc
 50
116.21217098
 51
228.59767338
  0
ARC
  5
63A
100
AcDbEntity
  8
16
  6
CONTINUOUS
 62
       7
100
AcDbCircle
 10
231.1078172
 20
186.82394171
 30
0.0
 40
1.5
100
AcDbArc
 50
296.21217098
 51
439.54661659
  0
ARC
  5
63B
100
AcDbEntity
  8
16
  6
CONTINUOUS
 62
       7
100
AcDbCircle
 10
231.1078172
 20
186.82394171
 30
0.0
 40
1.5
100
AcDbArc
 50
90.0
 51
90.36459003
  0
ARC
  5
63C
100
AcDbEntity
  8
16
  6
CONTINUOUS
 62
       7
100
AcDbCircle
 10
231.51604702
 20
189.03659813
 30
0.0
 40
0.75
100
AcDbArc
 50
176.85467766
 51
259.54661659
  0
ARC
  5
63D
100
AcDbEntity
  8
16
  6
CONTINUOUS
 62
       7
100
AcDbCircle
 10
203.40021894
 20
183.86329865
 30
0.0
 40
1.8
100
AcDbArc
 50
311.40232662
 51
423.78782902
  0
ARC
  5
63E
100
AcDbEntity
  8
16
  6
CONTINUOUS
 62
       7
100
AcDbCircle
 10
204.8578172
 20
186.82394171
 30
0.0
 40
1.5
100
AcDbArc
 50
100.45338341
 51
243.78782902
  0
ARC
  5
63F
100
AcDbEntity
  8
16
  6
CONTINUOUS
 62
       7
100
AcDbCircle
 10
204.44958737
 20
189.03659813
 30
0.0
 40
0.75
100
AcDbArc
 50
280.45338341
 51
363.14532234
  0
ARC
  5
640
100
AcDbEntity
  8
16
  6
CONTINUOUS
 62
       7
100
AcDbCircle
 10
217.9828172
 20
167.32394171
 30
0.0
 40
20.25
100
AcDbArc
 50
131.40232662
 51
408.59767338
  0
LINE
  5
641
100
AcDbEntity
  8
16
  6
CONTINUOUS
 62
       7
100
AcDbLine
 10
242.7328172
 20
246.07394171
 30
0.0
 11
193.2328172
 21
246.07394171
 31
0.0
  0
LINE
  5
642
100
AcDbEntity
  8
16
  6
CONTINUOUS
 62
       7
100
AcDbLine
 10
244.2328172
 20
249.82394171
 30
0.0
 11
191.7328172
 21
249.82394171
 31
0.0
  0
ARC
  5
643
100
AcDbEntity
  8
16
  6
CONTINUOUS
 62
       7
100
AcDbCircle
 10
92.31673344
 20
264.07394171
 30
0.0
 40
150.0
100
AcDbArc
 50
343.89361989
 51
352.95596677
  0
ARC
  5
644
100
AcDbEntity
  8
16
  6
CONTINUOUS
 62
       7
100
AcDbCircle
 10
194.33446762
 20
245.62394171
 30
0.0
 40
0.45
100
AcDbArc
 50
7.04403323
 51
90.0
  0
LINE
  5
645
100
AcDbEntity
  8
16
  6
CONTINUOUS
 62
       7
100
AcDbLine
 10
191.7328172
 20
247.57394171
 30
0.0
 11
191.7328172
 21
249.82394171
 31
0.0
  0
ARC
  5
646
100
AcDbEntity
  8
16
  6
CONTINUOUS
 62
       7
100
AcDbCircle
 10
223.15119891
 20
270.29673562
 30
0.0
 40
37.5
100
AcDbArc
 50
184.30286123
 51
213.08900344
  0
ARC
  5
647
100
AcDbEntity
  8
16
  6
CONTINUOUS
 62
       7
100
AcDbCircle
 10
185.30816524
 20
267.44940313
 30
0.0
 40
0.45
100
AcDbArc
 50
4.30286123
 51
77.01820138
  0
ARC
  5
648
100
AcDbEntity
  8
16
  6
CONTINUOUS
 62
       7
100
AcDbCircle
 10
193.2328172
 20
247.57394171
 30
0.0
 40
1.5
100
AcDbArc
 50
180.0
 51
270.0
  0
ARC
  5
649
100
AcDbEntity
  8
16
  6
CONTINUOUS
 62
       7
100
AcDbCircle
 10
343.64890095
 20
264.07394171
 30
0.0
 40
150.0
100
AcDbArc
 50
187.04403323
 51
196.10638011
  0
ARC
  5
64A
100
AcDbEntity
  8
16
  6
CONTINUOUS
 62
       7
100
AcDbCircle
 10
250.65746915
 20
267.44940313
 30
0.0
 40
0.45
100
AcDbArc
 50
102.98179862
 51
175.69713877
  0
LINE
  5
64B
100
AcDbEntity
  8
16
  6
CONTINUOUS
 62
       7
100
AcDbLine
 10
244.2328172
 20
247.57394171
 30
0.0
 11
244.2328172
 21
249.82394171
 31
0.0
  0
ARC
  5
64C
100
AcDbEntity
  8
16
  6
CONTINUOUS
 62
       7
100
AcDbCircle
 10
242.7328172
 20
247.57394171
 30
0.0
 40
1.5
100
AcDbArc
 50
270.0
 51
360.0
  0
ARC
  5
64D
100
AcDbEntity
  8
16
  6
CONTINUOUS
 62
       7
100
AcDbCircle
 10
241.63116677
 20
245.62394171
 30
0.0
 40
0.45
100
AcDbArc
 50
90.0
 51
172.95596677
  0
ARC
  5
64E
100
AcDbEntity
  8
16
  6
CONTINUOUS
 62
       7
100
AcDbCircle
 10
212.81443548
 20
270.29673562
 30
0.0
 40
37.5
100
AcDbArc
 50
326.91099656
 51
355.69713877
  0
LINE
  5
64F
100
AcDbEntity
  8
16
  6
CONTINUOUS
 62
       7
100
AcDbLine
 10
258.7828172
 20
277.57394171
 30
0.0
 11
177.1828172
 21
277.57394171
 31
0.0
  0
LINE
  5
650
100
AcDbEntity
  8
16
  6
CONTINUOUS
 62
       7
100
AcDbLine
 10
254.5828172
 20
272.32394171
 30
0.0
 11
181.3828172
 21
272.32394171
 31
0.0
  0
LINE
  5
651
100
AcDbEntity
  8
16
  6
CONTINUOUS
 62
       7
100
AcDbLine
 10
172.9828172
 20
282.82394171
 30
0.0
 11
262.9828172
 21
282.82394171
 31
0.0
  0
ARC
  5
652
100
AcDbEntity
  8
16
  6
CONTINUOUS
 62
       7
100
AcDbCircle
 10
182.43174994
 20
277.46808791
 30
0.0
 40
5.25
100
AcDbArc
 50
178.84468816
 51
258.47492835
  0
ARC
  5
653
100
AcDbEntity
  8
16
  6
CONTINUOUS
 62
       7
100
AcDbCircle
 10
182.43174994
 20
277.46808791
 30
0.0
 40
5.25
100
AcDbArc
 50
178.84468816
 51
258.47492835
  0
ARC
  5
654
100
AcDbEntity
  8
16
  6
CONTINUOUS
 62
       7
100
AcDbCircle
 10
178.23174994
 20
282.71808791
 30
0.0
 40
5.25
100
AcDbArc
 50
178.84468816
 51
258.47492835
  0
ARC
  5
655
100
AcDbEntity
  8
16
  6
CONTINUOUS
 62
       7
100
AcDbCircle
 10
178.23174994
 20
282.71808791
 30
0.0
 40
5.25
100
AcDbArc
 50
178.84468816
 51
258.47492835
  0
ARC
  5
656
100
AcDbEntity
  8
16
  6
CONTINUOUS
 62
       7
100
AcDbCircle
 10
253.53388445
 20
277.46808791
 30
0.0
 40
5.25
100
AcDbArc
 50
281.52507165
 51
361.15531184
  0
ARC
  5
657
100
AcDbEntity
  8
16
  6
CONTINUOUS
 62
       7
100
AcDbCircle
 10
257.73388445
 20
282.71808791
 30
0.0
 40
5.25
100
AcDbArc
 50
281.52507165
 51
361.15531184
  0
LINE
  5
658
100
AcDbEntity
  8
20
  6
CENTER
 62
       7
100
AcDbLine
 10
-248.47458994
 20
33.55644056
 30
0.0
 11
116.51541111
 21
33.55644056
 31
0.0
  0
LINE
  5
659
100
AcDbEntity
  8
20
  6
CENTER
 62
       7
100
AcDbLine
 10
91.67771171
 20
167.32394171
 30
0.0
 11
-223.72458994
 21
167.32394171
 31
0.0
  0
LINE
  5
65A
100
AcDbEntity
  8
20
  6
CENTER
 62
       7
100
AcDbLine
 10
-198.97458994
 20
83.05644056
 30
0.0
 11
-198.97458994
 21
-15.94355944
 31
0.0
  0
LINE
  5
65B
100
AcDbEntity
  8
20
  6
CENTER
 62
       7
100
AcDbLine
 10
-198.97458994
 20
287.32394171
 30
0.0
 11
-198.97458994
 21
142.57394171
 31
0.0
  0
LINE
  5
65C
100
AcDbEntity
  8
20
  6
CENTER
 62
       7
100
AcDbLine
 10
67.01541111
 20
83.05644056
 30
0.0
 11
67.01541111
 21
-15.94355944
 31
0.0
  0
LINE
  5
65D
100
AcDbEntity
  8
20
  6
CENTER
 62
       7
100
AcDbLine
 10
67.01541111
 20
287.32394171
 30
0.0
 11
67.01541111
 21
142.57394171
 31
0.0
  0
LINE
  5
65E
100
AcDbEntity
  8
20
  6
CENTER
 62
       7
100
AcDbLine
 10
206.94236855
 20
-169.16062966
 30
0.0
 11
189.10534262
 21
-169.16062966
 31
0.0
  0
LINE
  5
65F
100
AcDbEntity
  8
20
  6
CENTER
 62
       7
100
AcDbLine
 10
86.28733221
 20
-163.16062966
 30
0.0
 11
123.49023213
 21
-163.16062966
 31
0.0
  0
LINE
  5
660
100
AcDbEntity
  8
20
  6
CENTER
 62
       7
100
AcDbLine
 10
131.74728029
 20
-169.16062966
 30
0.0
 11
77.74728029
 21
-169.16062966
 31
0.0
  0
LINE
  5
661
100
AcDbEntity
  8
20
  6
CENTER
 62
       7
100
AcDbLine
 10
86.16249137
 20
-175.16062966
 30
0.0
 11
123.88541271
 21
-175.16062966
 31
0.0
  0
LINE
  5
662
100
AcDbEntity
  8
20
  6
CENTER
 62
       7
100
AcDbLine
 10
104.74728029
 20
-134.66062966
 30
0.0
 11
104.74728029
 21
-203.66062966
 31
0.0
  0
LINE
  5
663
100
AcDbEntity
  8
20
  6
CENTER
 62
       7
100
AcDbLine
 10
111.34728029
 20
-186.03562966
 30
0.0
 11
98.14728029
 21
-186.03562966
 31
0.0
  0
LINE
  5
664
100
AcDbEntity
  8
20
  6
CENTER
 62
       7
100
AcDbLine
 10
111.34728029
 20
-152.28562966
 30
0.0
 11
98.14728029
 21
-152.28562966
 31
0.0
  0
LINE
  5
665
100
AcDbEntity
  8
20
  6
CENTER
 62
       7
100
AcDbLine
 10
217.9828172
 20
287.32394171
 30
0.0
 11
217.9828172
 21
142.57394171
 31
0.0
  0
LINE
  5
666
100
AcDbEntity
  8
20
  6
CENTER
 62
       7
100
AcDbLine
 10
208.2338533
 20
-152.28562966
 30
0.0
 11
195.0338533
 21
-152.28562966
 31
0.0
  0
LINE
  5
667
100
AcDbEntity
  8
20
  6
CENTER
 62
       7
100
AcDbLine
 10
208.2338533
 20
-186.03562966
 30
0.0
 11
195.0338533
 21
-186.03562966
 31
0.0
  0
LINE
  5
668
100
AcDbEntity
  8
20
  6
CENTER
 62
       7
100
AcDbLine
 10
246.91627358
 20
167.32394171
 30
0.0
 11
188.15276855
 21
167.32394171
 31
0.0
  0
ARC
  5
669
100
AcDbEntity
  8
17
  6
CONTINUOUS
 62
       7
100
AcDbCircle
 10
-361.53298662
 20
180.84745026
 30
0.0
 40
150.0
100
AcDbArc
 50
2.85699317
 51
2.93771331
  0
ARC
  5
66A
100
AcDbEntity
  8
17
  6
CONTINUOUS
 62
       7
100
AcDbCircle
 10
-36.41619326
 20
180.84745026
 30
0.0
 40
150.0
100
AcDbArc
 50
177.06228669
 51
177.14300683
  0
ARC
  5
66B
100
AcDbEntity
  8
17
  6
CONTINUOUS
 62
       7
100
AcDbCircle
 10
-230.36878529
 20
273.00371954
 30
0.0
 40
5.25
100
AcDbArc
 50
259.44561168
 51
260.61832538
  0
ARC
  5
66C
100
AcDbEntity
  8
17
  6
CONTINUOUS
 62
       7
100
AcDbCircle
 10
-193.80620822
 20
270.29673562
 30
0.0
 40
37.5
100
AcDbArc
 50
183.78089421
 51
183.9466684
  0
ARC
  5
66D
100
AcDbEntity
  8
17
  6
CONTINUOUS
 62
       7
100
AcDbCircle
 10
-73.30850619
 20
264.07394171
 30
0.0
 40
150.0
100
AcDbArc
 50
186.89210258
 51
186.9549903
  0
ARC
  5
66E
100
AcDbEntity
  8
17
  6
CONTINUOUS
 62
       7
100
AcDbCircle
 10
-204.14297166
 20
270.29673562
 30
0.0
 40
37.5
100
AcDbArc
 50
356.0533316
 51
356.21910579
  0
ARC
  5
66F
100
AcDbEntity
  8
17
  6
CONTINUOUS
 62
       7
100
AcDbCircle
 10
-167.5803946
 20
273.00371954
 30
0.0
 40
5.25
100
AcDbArc
 50
279.38167462
 51
280.55438832
  0
ARC
  5
670
100
AcDbEntity
  8
17
  6
CONTINUOUS
 62
       7
100
AcDbCircle
 10
-324.64067369
 20
264.07394171
 30
0.0
 40
150.0
100
AcDbArc
 50
353.0450097
 51
353.10789742
  0
ARC
  5
671
100
AcDbEntity
  8
17
  6
CONTINUOUS
 62
       7
100
AcDbCircle
 10
35.62121577
 20
273.00371954
 30
0.0
 40
5.25
100
AcDbArc
 50
259.44561168
 51
260.61832538
  0
ARC
  5
672
100
AcDbEntity
  8
17
  6
CONTINUOUS
 62
       7
100
AcDbCircle
 10
72.18379283
 20
270.29673562
 30
0.0
 40
37.5
100
AcDbArc
 50
183.78089421
 51
183.9466684
  0
ARC
  5
673
100
AcDbEntity
  8
17
  6
CONTINUOUS
 62
       7
100
AcDbCircle
 10
192.68149486
 20
264.07394171
 30
0.0
 40
150.0
100
AcDbArc
 50
186.89210258
 51
186.9549903
  0
ARC
  5
674
100
AcDbEntity
  8
17
  6
CONTINUOUS
 62
       7
100
AcDbCircle
 10
61.84702939
 20
270.29673562
 30
0.0
 40
37.5
100
AcDbArc
 50
356.0533316
 51
356.21910579
  0
ARC
  5
675
100
AcDbEntity
  8
17
  6
CONTINUOUS
 62
       7
100
AcDbCircle
 10
98.40960646
 20
273.00371954
 30
0.0
 40
5.25
100
AcDbArc
 50
279.38167462
 51
280.55438832
  0
ARC
  5
676
100
AcDbEntity
  8
17
  6
CONTINUOUS
 62
       7
100
AcDbCircle
 10
-58.65067264
 20
264.07394171
 30
0.0
 40
150.0
100
AcDbArc
 50
353.0450097
 51
353.10789742
  0
LINE
  5
677
100
AcDbEntity
  8
17
  6
CONTINUOUS
 62
       7
100
AcDbLine
 10
127.24728029
 20
-190.16062966
 30
0.0
 11
127.24728029
 21
-189.73737158
 31
0.0
  0
LINE
  5
678
100
AcDbEntity
  8
17
  6
CONTINUOUS
 62
       7
100
AcDbLine
 10
127.24728029
 20
-190.16062966
 30
0.0
 11
126.94799163
 21
-190.45991832
 31
0.0
  0
LINE
  5
679
100
AcDbEntity
  8
17
  6
CONTINUOUS
 62
       7
100
AcDbLine
 10
118.54656894
 20
-198.86134101
 30
0.0
 11
118.24728029
 21
-199.16062966
 31
0.0
  0
LINE
  5
67A
100
AcDbEntity
  8
17
  6
CONTINUOUS
 62
       7
100
AcDbLine
 10
117.82402221
 20
-199.16062966
 30
0.0
 11
118.24728029
 21
-199.16062966
 31
0.0
  0
LINE
  5
67B
100
AcDbEntity
  8
17
  6
CONTINUOUS
 62
       7
100
AcDbLine
 10
127.24728029
 20
-148.16062966
 30
0.0
 11
126.94799163
 21
-147.86134101
 31
0.0
  0
LINE
  5
67C
100
AcDbEntity
  8
17
  6
CONTINUOUS
 62
       7
100
AcDbLine
 10
127.24728029
 20
-148.16062966
 30
0.0
 11
127.24728029
 21
-148.58388774
 31
0.0
  0
LINE
  5
67D
100
AcDbEntity
  8
17
  6
CONTINUOUS
 62
       7
100
AcDbLine
 10
91.67053836
 20
-199.16062966
 30
0.0
 11
91.24728029
 21
-199.16062966
 31
0.0
  0
LINE
  5
67E
100
AcDbEntity
  8
17
  6
CONTINUOUS
 62
       7
100
AcDbLine
 10
90.94799163
 20
-198.86134101
 30
0.0
 11
91.24728029
 21
-199.16062966
 31
0.0
  0
LINE
  5
67F
100
AcDbEntity
  8
17
  6
CONTINUOUS
 62
       7
100
AcDbLine
 10
82.24728029
 20
-190.16062966
 30
0.0
 11
82.54656894
 21
-190.45991832
 31
0.0
  0
LINE
  5
680
100
AcDbEntity
  8
17
  6
CONTINUOUS
 62
       7
100
AcDbLine
 10
82.24728029
 20
-190.16062966
 30
0.0
 11
82.24728029
 21
-189.73737158
 31
0.0
  0
LINE
  5
681
100
AcDbEntity
  8
17
  6
CONTINUOUS
 62
       7
100
AcDbLine
 10
82.24728029
 20
-148.16062966
 30
0.0
 11
82.24728029
 21
-148.58388774
 31
0.0
  0
LINE
  5
682
100
AcDbEntity
  8
17
  6
CONTINUOUS
 62
       7
100
AcDbLine
 10
82.24728029
 20
-148.16062966
 30
0.0
 11
82.54656894
 21
-147.86134101
 31
0.0
  0
ARC
  5
683
100
AcDbEntity
  8
17
  6
CONTINUOUS
 62
       7
100
AcDbCircle
 10
186.58862185
 20
273.00371954
 30
0.0
 40
5.25
100
AcDbArc
 50
259.44561168
 51
260.61832538
  0
ARC
  5
684
100
AcDbEntity
  8
17
  6
CONTINUOUS
 62
       7
100
AcDbCircle
 10
223.15119891
 20
270.29673562
 30
0.0
 40
37.5
100
AcDbArc
 50
183.78089421
 51
183.9466684
  0
ARC
  5
685
100
AcDbEntity
  8
17
  6
CONTINUOUS
 62
       7
100
AcDbCircle
 10
343.64890095
 20
264.07394171
 30
0.0
 40
150.0
100
AcDbArc
 50
186.89210258
 51
186.9549903
  0
ARC
  5
686
100
AcDbEntity
  8
17
  6
CONTINUOUS
 62
       7
100
AcDbCircle
 10
212.81443548
 20
270.29673562
 30
0.0
 40
37.5
100
AcDbArc
 50
356.0533316
 51
356.21910579
  0
ARC
  5
687
100
AcDbEntity
  8
17
  6
CONTINUOUS
 62
       7
100
AcDbCircle
 10
249.37701254
 20
273.00371954
 30
0.0
 40
5.25
100
AcDbArc
 50
279.38167462
 51
280.55438832
  0
ARC
  5
688
100
AcDbEntity
  8
17
  6
CONTINUOUS
 62
       7
100
AcDbCircle
 10
92.31673344
 20
264.07394171
 30
0.0
 40
150.0
100
AcDbArc
 50
353.0450097
 51
353.10789742
  0
INSERT
  5
689
100
AcDbEntity
  8
16
  6
CONTINUOUS
100
AcDbBlockReference
  2
DA_IMAGEDIMGROUP_1
 10
0.0
 20
0.0
 30
0.0
  0
INSERT
  5
68A
100
AcDbEntity
  8
16
  6
CONTINUOUS
100
AcDbBlockReference
  2
DA_IMAGEDIMGROUP_2
 10
0.0
 20
0.0
 30
0.0
  0
INSERT
  5
68B
100
AcDbEntity
  8
16
  6
CONTINUOUS
100
AcDbBlockReference
  2
DA_IMAGEDIMGROUP_3
 10
0.0
 20
0.0
 30
0.0
  0
INSERT
  5
68C
100
AcDbEntity
  8
16
  6
CONTINUOUS
100
AcDbBlockReference
  2
DA_IMAGEDIMGROUP_4
 10
0.0
 20
0.0
 30
0.0
  0
INSERT
  5
68D
100
AcDbEntity
  8
16
  6
CONTINUOUS
100
AcDbBlockReference
  2
DA_IMAGEDIMGROUP_5
 10
0.0
 20
0.0
 30
0.0
  0
INSERT
  5
68E
100
AcDbEntity
  8
16
  6
CONTINUOUS
100
AcDbBlockReference
  2
DA_IMAGEDIMGROUP_6
 10
0.0
 20
0.0
 30
0.0
  0
INSERT
  5
68F
100
AcDbEntity
  8
16
  6
CONTINUOUS
100
AcDbBlockReference
  2
DA_IMAGEDIMGROUP_7
 10
0.0
 20
0.0
 30
0.0
  0
INSERT
  5
690
100
AcDbEntity
  8
16
  6
CONTINUOUS
100
AcDbBlockReference
  2
DA_IMAGEDIMGROUP_8
 10
0.0
 20
0.0
 30
0.0
  0
INSERT
  5
691
100
AcDbEntity
  8
16
  6
CONTINUOUS
100
AcDbBlockReference
  2
DA_IMAGEDIMGROUP_9
 10
0.0
 20
0.0
 30
0.0
  0
INSERT
  5
692
100
AcDbEntity
  8
16
  6
CONTINUOUS
100
AcDbBlockReference
  2
DA_IMAGEDIMGROUP_10
 10
0.0
 20
0.0
 30
0.0
  0
TEXT
  5
693
100
AcDbEntity
  8
16
 62
       7
100
AcDbText
 10
83.09718464
 20
-335.61162988
 30
0.0
 40
12.0
  1
ユニクロメッキ
 41
0.7
 72
       5
 11
150.29718464
 21
-335.61162988
 31
0.0
100
AcDbText
  0
ENDSEC
  0
SECTION
  2
OBJECTS
  0
DICTIONARY
  5
19
100
AcDbDictionary
  3
ACAD_GROUP
350
1A
  3
ACAD_MLINESTYLE
350
1B
  0
DICTIONARY
  5
1A
102
{ACAD_REACTORS
330
19
102
}
100
AcDbDictionary
  0
DICTIONARY
  5
1B
102
{ACAD_REACTORS
330
19
102
}
100
AcDbDictionary
  3
STANDARD
350
1C
  0
MLINESTYLE
  5
1C
102
{ACAD_REACTORS
330
1B
102
}
100
AcDbMlineStyle
  2
STANDARD
 70
       0
  3

 62
       0
 51
90.0
 52
90.0
 71
       2
 49
0.5
 62
     256
  6
BYLAYER
 49
-0.5
 62
     256
  6
BYLAYER
  0
ENDSEC
  0
EOF
