  0
SECTION
  2
HEADER
  9
$ACADVER
  1
AC1014
  9
$ACADMAINTVER
 70
       0
  9
$DWGCODEPAGE
  3
ANSI_932
  9
$INSBASE
 10
0.0
 20
0.0
 30
0.0
  9
$EXTMIN
 10
-3301.46246188
 20
-4606.0
 30
0.0
  9
$EXTMAX
 10
3299.23123094
 20
4604.0
 30
0.0
  9
$LIMMIN
 10
-1050.0
 20
-1485.0
  9
$LIMMAX
 10
1050.0
 20
1485.0
  9
$ORTHOMODE
 70
       0
  9
$REGENMODE
 70
       1
  9
$FILLMODE
 70
       1
  9
$QTEXTMODE
 70
       0
  9
$MIRRTEXT
 70
       1
  9
$DRAGMODE
 70
       2
  9
$LTSCALE
 40
10.0
  9
$OSMODE
 70
       0
  9
$ATTMODE
 70
       1
  9
$TEXTSIZE
 40
0.2
  9
$TRACEWID
 40
0.05
  9
$TEXTSTYLE
  7
STANDARD
  9
$CLAYER
  8
0
  9
$CELTYPE
  6
CONTINUOUS
  9
$CECOLOR
 62
     256
  9
$CELTSCALE
 40
1.0
  9
$DELOBJ
 70
       1
  9
$DISPSILH
 70
       0
  9
$DIMSCALE
 40
1.0
  9
$DIMASZ
 40
20.0
  9
$DIMEXO
 40
0.0625
  9
$DIMDLI
 40
0.38
  9
$DIMRND
 40
0.0
  9
$DIMDLE
 40
0.0
  9
$DIMEXE
 40
0.18
  9
$DIMTP
 40
0.0
  9
$DIMTM
 40
0.0
  9
$DIMTXT
 40
20.0
  9
$DIMCEN
 40
0.09
  9
$DIMTSZ
 40
0.0
  9
$DIMTOL
 70
       0
  9
$DIMLIM
 70
       0
  9
$DIMTIH
 70
       1
  9
$DIMTOH
 70
       1
  9
$DIMSE1
 70
       0
  9
$DIMSE2
 70
       0
  9
$DIMTAD
 70
       0
  9
$DIMZIN
 70
       0
  9
$DIMBLK
  1

  9
$DIMASO
 70
       1
  9
$DIMSHO
 70
       1
  9
$DIMPOST
  1

  9
$DIMAPOST
  1

  9
$DIMALT
 70
       0
  9
$DIMALTD
 70
       2
  9
$DIMALTF
 40
25.4
  9
$DIMLFAC
 40
1.0
  9
$DIMTOFL
 70
       0
  9
$DIMTVP
 40
0.0
  9
$DIMTIX
 70
       0
  9
$DIMSOXD
 70
       0
  9
$DIMSAH
 70
       0
  9
$DIMBLK1
  1

  9
$DIMBLK2
  1

  9
$DIMSTYLE
  2
STANDARD
  9
$DIMCLRD
 70
       0
  9
$DIMCLRE
 70
       0
  9
$DIMCLRT
 70
       0
  9
$DIMTFAC
 40
1.0
  9
$DIMGAP
 40
0.09
  9
$DIMJUST
 70
       0
  9
$DIMSD1
 70
       0
  9
$DIMSD2
 70
       0
  9
$DIMTOLJ
 70
       1
  9
$DIMTZIN
 70
       0
  9
$DIMALTZ
 70
       0
  9
$DIMALTTZ
 70
       0
  9
$DIMFIT
 70
       3
  9
$DIMUPT
 70
       0
  9
$DIMUNIT
 70
       2
  9
$DIMDEC
 70
       4
  9
$DIMTDEC
 70
       4
  9
$DIMALTU
 70
       2
  9
$DIMALTTD
 70
       2
  9
$DIMTXSTY
  7
STANDARD
  9
$DIMAUNIT
 70
       0
  9
$LUNITS
 70
       2
  9
$LUPREC
 70
       4
  9
$SKETCHINC
 40
0.1
  9
$FILLETRAD
 40
0.0
  9
$AUNITS
 70
       0
  9
$AUPREC
 70
       0
  9
$MENU
  1
acad
  9
$ELEVATION
 40
0.0
  9
$PELEVATION
 40
0.0
  9
$THICKNESS
 40
0.0
  9
$LIMCHECK
 70
       0
  9
$BLIPMODE
 70
       1
  9
$CHAMFERA
 40
0.0
  9
$CHAMFERB
 40
0.0
  9
$CHAMFERC
 40
0.0
  9
$CHAMFERD
 40
0.0
  9
$SKPOLY
 70
       0
  9
$TDCREATE
 40
0.000000000
  9
$TDUPDATE
 40
0.000000000
  9
$TDINDWG
 40
0.0000000000
  9
$TDUSRTIMER
 40
0.0000000000
  9
$USRTIMER
 70
       1
  9
$ANGBASE
 50
0.0
  9
$ANGDIR
 70
       0
  9
$PDMODE
 70
       0
  9
$PDSIZE
 40
1.0
  9
$PLINEWID
 40
0.0
  9
$COORDS
 70
       1
  9
$SPLFRAME
 70
       0
  9
$SPLINETYPE
 70
       6
  9
$SPLINESEGS
 70
       8
  9
$ATTDIA
 70
       0
  9
$ATTREQ
 70
       1
  9
$HANDLING
 70
       1
  9
$HANDSEED
  5
507
  9
$SURFTAB1
 70
       6
  9
$SURFTAB2
 70
       6
  9
$SURFTYPE
 70
       6
  9
$SURFU
 70
       6
  9
$SURFV
 70
       6
  9
$UCSNAME
  2

  9
$UCSORG
 10
0.0
 20
0.0
 30
0.0
  9
$UCSXDIR
 10
1.0
 20
0.0
 30
0.0
  9
$UCSYDIR
 10
0.0
 20
1.0
 30
0.0
  9
$PUCSNAME
  2

  9
$PUCSORG
 10
0.0
 20
0.0
 30
0.0
  9
$PUCSXDIR
 10
1.0
 20
0.0
 30
0.0
  9
$PUCSYDIR
 10
0.0
 20
1.0
 30
0.0
  9
$USERI1
 70
       0
  9
$USERI2
 70
       0
  9
$USERI3
 70
       0
  9
$USERI4
 70
       0
  9
$USERI5
 70
       0
  9
$USERR1
 40
0.0
  9
$USERR2
 40
0.0
  9
$USERR3
 40
0.0
  9
$USERR4
 40
0.0
  9
$USERR5
 40
0.0
  9
$WORLDVIEW
 70
       1
  9
$SHADEDGE
 70
       3
  9
$SHADEDIF
 70
      70
  9
$TILEMODE
 70
       1
  9
$MAXACTVP
 70
      16
  9
$PINSBASE
 10
0.0
 20
0.0
 30
0.0
  9
$PLIMCHECK
 70
       0
  9
$PEXTMIN
 10
1.00000000E+20
 20
1.00000000E+20
 30
1.00000000E+20
  9
$PEXTMAX
 10
-1.00000000E+20
 20
-1.00000000E+20
 30
-1.00000000E+20
  9
$PLIMMIN
 10
0.0
 20
0.0
  9
$PLIMMAX
 10
12.0
 20
9.0
  9
$UNITMODE
 70
       0
  9
$VISRETAIN
 70
       0
  9
$PLINEGEN
 70
       1
  9
$PSLTSCALE
 70
       0
  9
$TREEDEPTH
 70
    3020
  9
$PICKSTYLE
 70
       1
  9
$CMLSTYLE
  2
STANDARD
  9
$CMLJUST
 70
       0
  9
$CMLSCALE
 40
1.0
  9
$PROXYGRAPHICS
 70
       0
  9
$MEASUREMENT
 70
       0
  0
ENDSEC
  0
SECTION
  2
CLASSES
  0
CLASS
  1
LWPOLYLINE
  2
AcDbPolyline
  3
"AutoCAD"
 90
        0
280
       0
281
       1
  0
CLASS
  1
IMAGE
  2
AcDbRasterImage
  3
ISM
 90
      127
280
       0
281
       1
  0
CLASS
  1
OLE2FRAME
  2
AcDbOle2Frame
  3
""
 90
        0
280
       0
281
       1
  0
CLASS
  1
HATCH
  2
AcDbHatch
  3
"ACAD_SEDONA"
 90
        0
280
       0
281
       1
  0
CLASS
  1
DICTIONARYVAR
  2
AcDbDictionaryVar
  3
"AutoCAD"
 90
        0
280
       0
281
       0
  0
CLASS
  1
RASTERVARIABLES
  2
AcDbRasterVariables
  3
ISM
 90
        0
280
       0
281
       0
  0
CLASS
  1
IMAGEDEF
  2
AcDbRasterImageDef
  3
ISM
 90
        0
280
       0
281
       0
  0
CLASS
  1
IMAGEDEF_REACTOR
  2
AcDbRasterImageDefReactor
  3
ISM
 90
        1
280
       0
281
       0
  0
CLASS
  1
IDBUFFER
  2
AcDbIdBuffer
  3
"Acad"
 90
        0
280
       0
281
       0
  0
CLASS
  1
SPATIAL_FILTER
  2
AcDbSpatialFilter
  3
"Acad"
 90
        0
280
       0
281
       0
  0
CLASS
  1
XRECORD
  2
AcDbXrecord
  3
"<Built In>"
 90
        0
280
       0
281
       0
  0
CLASS
  1
SORTENTSTABLE
  2
AcDbSortentsTable
  3
"AutoCAD"
 90
        0
280
       0
281
       0
  0
CLASS
  1
LAYER_INDEX
  2
AcDbLayerIndex
  3
"Acad"
 90
        0
280
       0
281
       0
  0
CLASS
  1
SPATIAL_INDEX
  2
AcDbSpatialIndex
  3
"Acad"
 90
        0
280
       0
281
       0
  0
CLASS
  1
OBJECT_PTR
  2
CAseDLPNTableRecord
  3
"ASE-LPNTableRecord"
 90
        1
280
       0
281
       0
  0
CLASS
  1
LAYOUT
  2
AcDbLayout
  3
"AutoCAD 2000"
 90
        0
280
       0
281
       0
  0
CLASS
  1
PLOTSETTINGS
  2
AcDbPlotSettings
  3
"AutoCAD 2000"
 90
        0
280
       0
281
       0
  0
CLASS
  1
ACDBDICTIONARYWDFLT
  2
AcDbDictionaryWithDefault
  3
"AutoCAD 2000"
 90
        0
280
       0
281
       0
  0
CLASS
  1
ACDBPLACEHOLDER
  2
AcDbPlaceHolder
  3
"AutoCAD 2000"
 90
        0
280
       0
281
       0
  0
CLASS
  1
VBA_PROJECT
  2
AcDbVbaProject
  3
"acadvba"
 90
        0
280
       0
281
       0
  0
CLASS
  1
WIPEOUT
  2
AcDbWipeout
  3
WipeOut|AutoCAD Express Tool|expresstools@autodesk.com
 90
      127
280
       0
281
       1
  0
CLASS
  1
WIPEOUTVARIABLES
  2
AcDbWipeoutVariables
  3
WipeOut|AutoCAD Express Tool|expresstools@autodesk.com
 90
        0
280
       0
281
       0
  0
CLASS
  1
RTEXT
  2
RText
  3
RText|AutoCAD Express Tool|expresstools@autodesk.com
 90
        0
280
       0
281
       1
  0
CLASS
  1
ARCALIGNEDTEXT
  2
AcDbArcAlignedText
  3
ATEXT|AutoCAD Express Tool|expresstools@autodesk.com
 90
        0
280
       0
281
       1
  0
ENDSEC
  0
SECTION
  2
TABLES
  0
TABLE
  2
VPORT
  5
7
100
AcDbSymbolTable
 70
       1
  0
VPORT
  5
15
100
AcDbSymbolTableRecord
100
AcDbViewportTableRecord
  2
*ACTIVE
 70
       0
 10
0.0
 20
0.0
 11
1.0
 21
1.0
 12
0.0
 22
0.0
 13
0.0
 23
0.0
 14
1.0
 24
1.0
 15
0.0
 25
0.0
 16
0.0
 26
0.0
 36
1.0
 17
0.0
 27
0.0
 37
0.0
 40
2970.0
 41
0.70707071
 42
50.0
 43
0.0
 44
0.0
 50
0.0
 51
0.0
 71
       0
 72
     100
 73
       1
 74
       1
 75
       0
 76
       0
 77
       0
 78
       0
  0
ENDTAB
  0
TABLE
  2
LTYPE
  5
4
100
AcDbSymbolTable
 70
      30
  0
LTYPE
  5
11
100
AcDbSymbolTableRecord
100
AcDbLinetypeTableRecord
  2
BYBLOCK
 70
      64
  3

 72
      65
 73
       0
 40
0.0
  0
LTYPE
  5
12
100
AcDbSymbolTableRecord
100
AcDbLinetypeTableRecord
  2
BYLAYER
 70
      64
  3

 72
      65
 73
       0
 40
0.0
  0
LTYPE
  5
13
100
AcDbSymbolTableRecord
100
AcDbLinetypeTableRecord
  2
CONTINUOUS
 70
      64
  3
Solid line
 72
      65
 73
       0
 40
0.0
  0
LTYPE
  5
1D
100
AcDbSymbolTableRecord
100
AcDbLinetypeTableRecord
  2
HIDDENX2
 70
      64
  3
CADPAC LINETYPE
 72
      65
 73
       2
 40
6.68918919
 49
5.01689189
 74
       0
 49
-1.6722973
 74
       0
  0
LTYPE
  5
1E
100
AcDbSymbolTableRecord
100
AcDbLinetypeTableRecord
  2
HIDDEN
 70
      64
  3
CADPAC LINETYPE
 72
      65
 73
       2
 40
5.01689189
 49
3.34459459
 74
       0
 49
-1.6722973
 74
       0
  0
LTYPE
  5
1F
100
AcDbSymbolTableRecord
100
AcDbLinetypeTableRecord
  2
HIDDEN2
 70
      64
  3
CADPAC LINETYPE
 72
      65
 73
       2
 40
4.18074324
 49
2.50844595
 74
       0
 49
-1.6722973
 74
       0
  0
LTYPE
  5
20
100
AcDbSymbolTableRecord
100
AcDbLinetypeTableRecord
  2
DASHED
 70
      64
  3
CADPAC LINETYPE
 72
      65
 73
       2
 40
4.68243243
 49
3.34459459
 74
       0
 49
-1.33783784
 74
       0
  0
LTYPE
  5
21
100
AcDbSymbolTableRecord
100
AcDbLinetypeTableRecord
  2
DASHED2
 70
      64
  3
CADPAC LINETYPE
 72
      65
 73
       2
 40
3.01013514
 49
2.00675676
 74
       0
 49
-1.00337838
 74
       0
  0
LTYPE
  5
22
100
AcDbSymbolTableRecord
100
AcDbLinetypeTableRecord
  2
DASHEDX2
 70
      64
  3
CADPAC LINETYPE
 72
      65
 73
       2
 40
8.02702703
 49
6.68918919
 74
       0
 49
-1.33783784
 74
       0
  0
LTYPE
  5
23
100
AcDbSymbolTableRecord
100
AcDbLinetypeTableRecord
  2
DOTX2
 70
      64
  3
CADPAC LINETYPE
 72
      65
 73
       2
 40
2.92652027
 49
0.0
 74
       0
 49
-2.92652027
 74
       0
  0
LTYPE
  5
24
100
AcDbSymbolTableRecord
100
AcDbLinetypeTableRecord
  2
DOT
 70
      64
  3
CADPAC LINETYPE
 72
      65
 73
       2
 40
2.34121622
 49
0.0
 74
       0
 49
-2.34121622
 74
       0
  0
LTYPE
  5
25
100
AcDbSymbolTableRecord
100
AcDbLinetypeTableRecord
  2
DOT2
 70
      64
  3
CADPAC LINETYPE
 72
      65
 73
       2
 40
1.75591216
 49
0.0
 74
       0
 49
-1.75591216
 74
       0
  0
LTYPE
  5
26
100
AcDbSymbolTableRecord
100
AcDbLinetypeTableRecord
  2
CENTERX2
 70
      64
  3
CADPAC LINETYPE
 72
      65
 73
       4
 40
10.03378378
 49
4.18074324
 74
       0
 49
-2.09037162
 74
       0
 49
1.6722973
 74
       0
 49
-2.09037162
 74
       0
  0
LTYPE
  5
27
100
AcDbSymbolTableRecord
100
AcDbLinetypeTableRecord
  2
CENTER
 70
      64
  3
CADPAC LINETYPE
 72
      65
 73
       4
 40
7.69256757
 49
3.34459459
 74
       0
 49
-1.6722973
 74
       0
 49
1.00337838
 74
       0
 49
-1.6722973
 74
       0
  0
LTYPE
  5
28
100
AcDbSymbolTableRecord
100
AcDbLinetypeTableRecord
  2
CENTER2
 70
      64
  3
CADPAC LINETYPE
 72
      65
 73
       4
 40
5.35135135
 49
2.50844595
 74
       0
 49
-1.25422297
 74
       0
 49
0.33445946
 74
       0
 49
-1.25422297
 74
       0
  0
LTYPE
  5
29
100
AcDbSymbolTableRecord
100
AcDbLinetypeTableRecord
  2
DASHDOTX2
 70
      64
  3
CADPAC LINETYPE
 72
      65
 73
       4
 40
16.05405405
 49
8.02702703
 74
       0
 49
-2.67567568
 74
       0
 49
2.67567568
 74
       0
 49
-2.67567568
 74
       0
  0
LTYPE
  5
2A
100
AcDbSymbolTableRecord
100
AcDbLinetypeTableRecord
  2
DASHDOT
 70
      64
  3
CADPAC LINETYPE
 72
      65
 73
       4
 40
8.02702703
 49
4.01351351
 74
       0
 49
-1.33783784
 74
       0
 49
1.33783784
 74
       0
 49
-1.33783784
 74
       0
  0
LTYPE
  5
2B
100
AcDbSymbolTableRecord
100
AcDbLinetypeTableRecord
  2
DASHDOT2
 70
      64
  3
CADPAC LINETYPE
 72
      65
 73
       4
 40
5.15067568
 49
3.01013514
 74
       0
 49
-1.00337838
 74
       0
 49
0.13378378
 74
       0
 49
-1.00337838
 74
       0
  0
LTYPE
  5
2C
100
AcDbSymbolTableRecord
100
AcDbLinetypeTableRecord
  2
DIVIDEX2
 70
      64
  3
CADPAC LINETYPE
 72
      65
 73
       6
 40
21.40540541
 49
8.02702703
 74
       0
 49
-2.67567568
 74
       0
 49
2.67567568
 74
       0
 49
-2.67567568
 74
       0
 49
2.67567568
 74
       0
 49
-2.67567568
 74
       0
  0
LTYPE
  5
2D
100
AcDbSymbolTableRecord
100
AcDbLinetypeTableRecord
  2
DIVIDE
 70
      64
  3
CADPAC LINETYPE
 72
      65
 73
       6
 40
10.7027027
 49
4.01351351
 74
       0
 49
-1.33783784
 74
       0
 49
1.33783784
 74
       0
 49
-1.33783784
 74
       0
 49
1.33783784
 74
       0
 49
-1.33783784
 74
       0
  0
LTYPE
  5
2E
100
AcDbSymbolTableRecord
100
AcDbLinetypeTableRecord
  2
DIVIDE2
 70
      64
  3
CADPAC LINETYPE
 72
      65
 73
       6
 40
8.02702703
 49
3.01013514
 74
       0
 49
-1.00337838
 74
       0
 49
1.00337838
 74
       0
 49
-1.00337838
 74
       0
 49
1.00337838
 74
       0
 49
-1.00337838
 74
       0
  0
LTYPE
  5
2F
100
AcDbSymbolTableRecord
100
AcDbLinetypeTableRecord
  2
BORDERX2
 70
      64
  3
CADPAC LINETYPE
 72
      65
 73
       6
 40
14.63260135
 49
4.18074324
 74
       0
 49
-2.09037162
 74
       0
 49
4.18074324
 74
       0
 49
-2.09037162
 74
       0
 49
0.0
 74
       0
 49
-2.09037162
 74
       0
  0
LTYPE
  5
30
100
AcDbSymbolTableRecord
100
AcDbLinetypeTableRecord
  2
BORDER
 70
      64
  3
CADPAC LINETYPE
 72
      65
 73
       6
 40
11.70608108
 49
3.34459459
 74
       0
 49
-1.6722973
 74
       0
 49
3.34459459
 74
       0
 49
-1.6722973
 74
       0
 49
0.0
 74
       0
 49
-1.6722973
 74
       0
  0
LTYPE
  5
31
100
AcDbSymbolTableRecord
100
AcDbLinetypeTableRecord
  2
BORDER2
 70
      64
  3
CADPAC LINETYPE
 72
      65
 73
       6
 40
8.69594595
 49
2.67567568
 74
       0
 49
-1.6722973
 74
       0
 49
1.00337838
 74
       0
 49
-1.6722973
 74
       0
 49
0.0
 74
       0
 49
-1.6722973
 74
       0
  0
LTYPE
  5
32
100
AcDbSymbolTableRecord
100
AcDbLinetypeTableRecord
  2
PHANTOMX2
 70
      64
  3
CADPAC LINETYPE
 72
      65
 73
       6
 40
12.54222973
 49
4.18074324
 74
       0
 49
-1.6722973
 74
       0
 49
1.6722973
 74
       0
 49
-1.6722973
 74
       0
 49
1.6722973
 74
       0
 49
-1.6722973
 74
       0
  0
LTYPE
  5
33
100
AcDbSymbolTableRecord
100
AcDbLinetypeTableRecord
  2
PHANTOM
 70
      64
  3
CADPAC LINETYPE
 72
      65
 73
       6
 40
10.36824324
 49
3.34459459
 74
       0
 49
-1.6722973
 74
       0
 49
1.00337838
 74
       0
 49
-1.6722973
 74
       0
 49
1.00337838
 74
       0
 49
-1.6722973
 74
       0
  0
LTYPE
  5
34
100
AcDbSymbolTableRecord
100
AcDbLinetypeTableRecord
  2
PHANTOM2
 70
      64
  3
CADPAC LINETYPE
 72
      65
 73
       6
 40
8.86317568
 49
2.50844595
 74
       0
 49
-1.6722973
 74
       0
 49
0.66891892
 74
       0
 49
-1.6722973
 74
       0
 49
0.66891892
 74
       0
 49
-1.6722973
 74
       0
  0
LTYPE
  5
35
100
AcDbSymbolTableRecord
100
AcDbLinetypeTableRecord
  2
ACAD_ISO06W100
 70
      64
  3
CADPAC LINETYPE
 72
      65
 73
       8
 40
17.72635135
 49
8.02702703
 74
       0
 49
-1.6722973
 74
       0
 49
1.00337838
 74
       0
 49
-1.6722973
 74
       0
 49
1.00337838
 74
       0
 49
-1.6722973
 74
       0
 49
1.00337838
 74
       0
 49
-1.6722973
 74
       0
  0
LTYPE
  5
36
100
AcDbSymbolTableRecord
100
AcDbLinetypeTableRecord
  2
ACAD_ISO13W100
 70
      64
  3
CADPAC LINETYPE
 72
      65
 73
       8
 40
13.37837838
 49
3.34459459
 74
       0
 49
-1.6722973
 74
       0
 49
3.34459459
 74
       0
 49
-1.6722973
 74
       0
 49
0.0
 74
       0
 49
-1.6722973
 74
       0
 49
0.0
 74
       0
 49
-1.6722973
 74
       0
  0
LTYPE
  5
37
100
AcDbSymbolTableRecord
100
AcDbLinetypeTableRecord
  2
ACAD_ISO14W100
 70
      64
  3
CADPAC LINETYPE
 72
      65
 73
       8
 40
10.03378378
 49
3.34459459
 74
       0
 49
-1.6722973
 74
       0
 49
0.0
 74
       0
 49
-1.6722973
 74
       0
 49
0.0
 74
       0
 49
-1.6722973
 74
       0
 49
0.0
 74
       0
 49
-1.6722973
 74
       0
  0
ENDTAB
  0
TABLE
  2
LAYER
  5
2
100
AcDbSymbolTable
 70
       3
  0
LAYER
  5
14
100
AcDbSymbolTableRecord
100
AcDbLayerTableRecord
  2
0
 70
       0
 62
       7
  6
CONTINUOUS
  0
LAYER
  5
38
100
AcDbSymbolTableRecord
100
AcDbLayerTableRecord
  2
LAYER0240
 70
       0
 62
       7
  6
CONTINUOUS
  0
LAYER
  5
39
100
AcDbSymbolTableRecord
100
AcDbLayerTableRecord
  2
ZUWAKU
 70
       0
 62
       7
  6
CONTINUOUS
  0
ENDTAB
  0
TABLE
  2
STYLE
  5
3
100
AcDbSymbolTable
 70
       2
  0
STYLE
  5
17
100
AcDbSymbolTableRecord
100
AcDbTextStyleTableRecord
  2
STANDARD
 70
       0
 40
34.0
 41
0.8
 50
0.0
 71
       0
 42
34.0
  3
txt.shx
  4
bigfont.shx
  0
STYLE
  5
3A
100
AcDbSymbolTableRecord
100
AcDbTextStyleTableRecord
  2
FDASTYLE1
 70
       4
 40
30.0
 41
0.8
 50
0.0
 71
       0
 42
30.0
  3
txt.shx
  4
bigfont.shx
  0
ENDTAB
  0
TABLE
  2
VIEW
  5
5
100
AcDbSymbolTable
 70
       1
  0
VIEW
  5
3B
100
AcDbSymbolTableRecord
100
AcDbViewTableRecord
  2
QQQQ
 70
       0
 40
2970.0
 10
0.0
 20
0.0
 41
2100.0
 11
0.0
 21
0.0
 31
1.0
 12
100.0
 22
100.0
 32
0.0
 42
50.0
 43
0.0
 44
0.0
 50
0.0
 71
       0
  0
ENDTAB
  0
TABLE
  2
UCS
  5
6
100
AcDbSymbolTable
 70
       0
  0
ENDTAB
  0
TABLE
  2
APPID
  5
8
100
AcDbSymbolTable
 70
       1
  0
APPID
  5
16
100
AcDbSymbolTableRecord
100
AcDbRegAppTableRecord
  2
ACAD
 70
       0
  0
ENDTAB
  0
TABLE
  2
DIMSTYLE
  5
9
100
AcDbSymbolTable
 70
       1
  0
DIMSTYLE
105
18
100
AcDbSymbolTableRecord
100
AcDbDimStyleTableRecord
  2
STANDARD
 70
       0
  3

  4

  5

  6

  7

 40
1.0
 41
0.18
 42
0.0625
 43
0.38
 44
0.18
 45
0.0
 46
0.0
 47
0.0
 48
0.0
 71
       0
 72
       0
 73
       1
 74
       1
 75
       0
 76
       0
 77
       0
 78
       0
140
0.18
141
0.09
142
0.0
143
25.4
144
1.0
145
0.0
146
1.0
147
0.09
170
       0
171
       2
172
       0
173
       0
174
       0
175
       0
176
       0
177
       0
178
       0
270
       2
271
       4
272
       4
273
       2
274
       2
275
       0
280
       0
281
       0
282
       0
283
       1
284
       0
285
       0
286
       0
287
       3
288
       0
340
17
  0
ENDTAB
  0
TABLE
  2
BLOCK_RECORD
  5
1
100
AcDbSymbolTable
 70
      17
  0
BLOCK_RECORD
  5
A
100
AcDbSymbolTableRecord
100
AcDbBlockTableRecord
  2
*MODEL_SPACE
  0
BLOCK_RECORD
  5
B
100
AcDbSymbolTableRecord
100
AcDbBlockTableRecord
  2
*PAPER_SPACE
  0
BLOCK_RECORD
  5
3C
100
AcDbSymbolTableRecord
100
AcDbBlockTableRecord
  2
_OPEN30
  0
BLOCK_RECORD
  5
3D
100
AcDbSymbolTableRecord
100
AcDbBlockTableRecord
  2
DA_IMAGEDIMGROUP_1
  0
BLOCK_RECORD
  5
3E
100
AcDbSymbolTableRecord
100
AcDbBlockTableRecord
  2
DA_IMAGEDIMGROUP_2
  0
BLOCK_RECORD
  5
3F
100
AcDbSymbolTableRecord
100
AcDbBlockTableRecord
  2
DA_IMAGEDIMGROUP_3
  0
BLOCK_RECORD
  5
40
100
AcDbSymbolTableRecord
100
AcDbBlockTableRecord
  2
DA_IMAGEDIMGROUP_4
  0
BLOCK_RECORD
  5
41
100
AcDbSymbolTableRecord
100
AcDbBlockTableRecord
  2
DA_IMAGEDIMGROUP_5
  0
BLOCK_RECORD
  5
42
100
AcDbSymbolTableRecord
100
AcDbBlockTableRecord
  2
DA_IMAGEDIMGROUP_6
  0
BLOCK_RECORD
  5
43
100
AcDbSymbolTableRecord
100
AcDbBlockTableRecord
  2
DA_IMAGEDIMGROUP_7
  0
BLOCK_RECORD
  5
44
100
AcDbSymbolTableRecord
100
AcDbBlockTableRecord
  2
DA_IMAGEDIMGROUP_8
  0
BLOCK_RECORD
  5
45
100
AcDbSymbolTableRecord
100
AcDbBlockTableRecord
  2
GROUP_1
  0
BLOCK_RECORD
  5
46
100
AcDbSymbolTableRecord
100
AcDbBlockTableRecord
  2
_ORIGIN
  0
BLOCK_RECORD
  5
47
100
AcDbSymbolTableRecord
100
AcDbBlockTableRecord
  2
_DOT
  0
BLOCK_RECORD
  5
48
100
AcDbSymbolTableRecord
100
AcDbBlockTableRecord
  2
GROUP_2
  0
BLOCK_RECORD
  5
49
100
AcDbSymbolTableRecord
100
AcDbBlockTableRecord
  2
GROUP_3
  0
BLOCK_RECORD
  5
4A
100
AcDbSymbolTableRecord
100
AcDbBlockTableRecord
  2
GROUP_4
  0
BLOCK_RECORD
  5
4B
100
AcDbSymbolTableRecord
100
AcDbBlockTableRecord
  2
GROUP_5
  0
BLOCK_RECORD
  5
4C
100
AcDbSymbolTableRecord
100
AcDbBlockTableRecord
  2
GROUP_6
  0
ENDTAB
  0
ENDSEC
  0
SECTION
  2
BLOCKS
  0
BLOCK
  5
D
100
AcDbEntity
  8
0
100
AcDbBlockBegin
  2
*MODEL_SPACE
 70
       0
 10
0.0
 20
0.0
 30
0.0
  3
*MODEL_SPACE
  1

  0
ENDBLK
  5
E
100
AcDbEntity
  8
0
100
AcDbBlockEnd
  0
BLOCK
  5
F
100
AcDbEntity
 67
       1
  8
0
100
AcDbBlockBegin
  2
*PAPER_SPACE
 70
       0
 10
0.0
 20
0.0
 30
0.0
  3
*PAPER_SPACE
  1

  0
ENDBLK
  5
10
100
AcDbEntity
 67
       1
  8
0
100
AcDbBlockEnd
  0
BLOCK
  5
4D
100
AcDbEntity
  8
0
100
AcDbBlockBegin
  2
_OPEN30
 70
       0
 10
0.0
 20
0.0
 30
0.0
  3
_OPEN30
  1

  0
LINE
  5
4E
100
AcDbEntity
  8
0
  6
CONTINUOUS
 62
       0
100
AcDbLine
 10
0.0
 20
0.0
 30
0.0
 11
-0.96592583
 21
0.25881905
 31
0.0
  0
LINE
  5
4F
100
AcDbEntity
  8
0
  6
CONTINUOUS
 62
       0
100
AcDbLine
 10
0.0
 20
0.0
 30
0.0
 11
-0.96592583
 21
-0.25881905
 31
0.0
  0
LINE
  5
50
100
AcDbEntity
  8
0
  6
CONTINUOUS
 62
       0
100
AcDbLine
 10
0.0
 20
0.0
 30
0.0
 11
-1.0
 21
0.0
 31
0.0
  0
ENDBLK
  5
51
100
AcDbEntity
  8
0
100
AcDbBlockEnd
  0
BLOCK
  5
52
100
AcDbEntity
  8
0
100
AcDbBlockBegin
  2
DA_IMAGEDIMGROUP_1
 70
       0
 10
0.0
 20
0.0
 30
0.0
  3
DA_IMAGEDIMGROUP_1
  1

  0
LINE
  5
53
100
AcDbEntity
  8
0
  6
CONTINUOUS
 62
       9
100
AcDbLine
 10
-454.88947199
 20
-302.96144681
 30
0.0
 11
-400.76431902
 21
-302.96144681
 31
0.0
  0
LINE
  5
54
100
AcDbEntity
  8
0
  6
CONTINUOUS
 62
       9
100
AcDbLine
 10
-434.88947199
 20
-282.96144681
 30
0.0
 11
-400.76431902
 21
-282.96144681
 31
0.0
  0
LINE
  5
55
100
AcDbEntity
  8
0
  6
CONTINUOUS
 62
       9
100
AcDbLine
 10
-407.76431902
 20
-282.96144681
 30
0.0
 11
-407.76431902
 21
-302.96144681
 31
0.0
  0
LINE
  5
56
100
AcDbEntity
  8
0
  6
CONTINUOUS
 62
       9
100
AcDbLine
 10
-407.76431902
 20
-415.42560681
 30
0.0
 11
-407.76431902
 21
-302.96144681
 31
0.0
  0
INSERT
  5
57
100
AcDbEntity
  8
0
  6
CONTINUOUS
 62
       9
100
AcDbBlockReference
  2
_OPEN30
 10
-407.76431902
 20
-302.96144681
 30
0.0
 41
30.00002788
 42
29.99989274
 50
90.0
  0
LINE
  5
58
100
AcDbEntity
  8
0
  6
CONTINUOUS
 62
       9
100
AcDbLine
 10
-407.76431902
 20
-247.96144681
 30
0.0
 11
-407.76431902
 21
-282.96144681
 31
0.0
  0
INSERT
  5
59
100
AcDbEntity
  8
0
  6
CONTINUOUS
 62
       9
100
AcDbBlockReference
  2
_OPEN30
 10
-407.76431902
 20
-282.96144681
 30
0.0
 41
30.00002788
 42
29.99989274
 50
270.0
  0
TEXT
  5
5A
100
AcDbEntity
  8
0
 62
       7
100
AcDbText
 10
-414.76431902
 20
-394.96144681
 30
0.0
 40
40.0
  1
20
 50
90.0
 41
0.8
 72
       5
 11
-414.76431902
 21
-330.96144681
 31
0.0
100
AcDbText
  0
ENDBLK
  5
5B
100
AcDbEntity
  8
0
100
AcDbBlockEnd
  0
BLOCK
  5
5C
100
AcDbEntity
  8
0
100
AcDbBlockBegin
  2
DA_IMAGEDIMGROUP_2
 70
       0
 10
0.0
 20
0.0
 30
0.0
  3
DA_IMAGEDIMGROUP_2
  1

  0
LINE
  5
5D
100
AcDbEntity
  8
0
  6
CONTINUOUS
 62
       9
100
AcDbLine
 10
577.62462864
 20
-497.59241128
 30
0.0
 11
705.12462864
 21
-497.59241128
 31
0.0
  0
INSERT
  5
5E
100
AcDbEntity
  8
0
  6
CONTINUOUS
 62
       9
100
AcDbBlockReference
  2
_OPEN30
 10
577.62462864
 20
-497.59241128
 30
0.0
 41
30.00002788
 42
29.99989274
 50
180.0
  0
INSERT
  5
5F
100
AcDbEntity
  8
0
  6
CONTINUOUS
 62
       9
100
AcDbBlockReference
  2
_OPEN30
 10
705.12462864
 20
-497.59241128
 30
0.0
 41
30.00002788
 42
29.99989274
 50
360.0
  0
LINE
  5
60
100
AcDbEntity
  8
0
  6
CONTINUOUS
 62
       9
100
AcDbLine
 10
577.62462864
 20
-302.96144681
 30
0.0
 11
577.62462864
 21
-509.59241128
 31
0.0
  0
LINE
  5
61
100
AcDbEntity
  8
0
  6
CONTINUOUS
 62
       9
100
AcDbLine
 10
705.12462864
 20
-307.96144681
 30
0.0
 11
705.12462864
 21
-509.59241128
 31
0.0
  0
TEXT
  5
62
100
AcDbEntity
  8
0
 62
       7
100
AcDbText
 10
593.37462864
 20
-492.59241128
 30
0.0
 40
40.0
  1
127
 41
0.8
 72
       5
 11
689.37462864
 21
-492.59241128
 31
0.0
100
AcDbText
  0
ENDBLK
  5
63
100
AcDbEntity
  8
0
100
AcDbBlockEnd
  0
BLOCK
  5
64
100
AcDbEntity
  8
0
100
AcDbBlockBegin
  2
DA_IMAGEDIMGROUP_3
 70
       0
 10
0.0
 20
0.0
 30
0.0
  3
DA_IMAGEDIMGROUP_3
  1

  0
LINE
  5
65
100
AcDbEntity
  8
0
  6
CONTINUOUS
 62
       9
100
AcDbLine
 10
599.12462864
 20
-406.46550773
 30
0.0
 11
705.12462864
 21
-406.46550773
 31
0.0
  0
INSERT
  5
66
100
AcDbEntity
  8
0
  6
CONTINUOUS
 62
       9
100
AcDbBlockReference
  2
_OPEN30
 10
599.12462864
 20
-406.46550773
 30
0.0
 41
30.00002788
 42
29.99989274
 50
180.0
  0
INSERT
  5
67
100
AcDbEntity
  8
0
  6
CONTINUOUS
 62
       9
100
AcDbBlockReference
  2
_OPEN30
 10
705.12462864
 20
-406.46550773
 30
0.0
 41
30.00002788
 42
29.99989274
 50
360.0
  0
LINE
  5
68
100
AcDbEntity
  8
0
  6
CONTINUOUS
 62
       9
100
AcDbLine
 10
599.12462864
 20
-307.96144681
 30
0.0
 11
599.12462864
 21
-418.46550773
 31
0.0
  0
LINE
  5
69
100
AcDbEntity
  8
0
  6
CONTINUOUS
 62
       9
100
AcDbLine
 10
705.12462864
 20
-307.96144681
 30
0.0
 11
705.12462864
 21
-418.46550773
 31
0.0
  0
TEXT
  5
6A
100
AcDbEntity
  8
0
 62
       7
100
AcDbText
 10
604.12462864
 20
-401.46550773
 30
0.0
 40
40.0
  1
106
 41
0.8
 72
       5
 11
700.12462864
 21
-401.46550773
 31
0.0
100
AcDbText
  0
ENDBLK
  5
6B
100
AcDbEntity
  8
0
100
AcDbBlockEnd
  0
BLOCK
  5
6C
100
AcDbEntity
  8
0
100
AcDbBlockBegin
  2
DA_IMAGEDIMGROUP_4
 70
       0
 10
0.0
 20
0.0
 30
0.0
  3
DA_IMAGEDIMGROUP_4
  1

  0
LINE
  5
6D
100
AcDbEntity
  8
0
  6
CONTINUOUS
 62
       9
100
AcDbLine
 10
-522.34747402
 20
-474.85678392
 30
0.0
 11
242.65252598
 21
-474.85678392
 31
0.0
  0
INSERT
  5
6E
100
AcDbEntity
  8
0
  6
CONTINUOUS
 62
       9
100
AcDbBlockReference
  2
_OPEN30
 10
-522.34747402
 20
-474.85678392
 30
0.0
 41
30.00002788
 42
29.99989274
 50
180.0
  0
INSERT
  5
6F
100
AcDbEntity
  8
0
  6
CONTINUOUS
 62
       9
100
AcDbBlockReference
  2
_OPEN30
 10
242.65252598
 20
-474.85678392
 30
0.0
 41
30.00002788
 42
29.99989274
 50
360.0
  0
LINE
  5
70
100
AcDbEntity
  8
0
  6
CONTINUOUS
 62
       9
100
AcDbLine
 10
-522.34747402
 20
-307.96144681
 30
0.0
 11
-522.34747402
 21
-484.85678392
 31
0.0
  0
LINE
  5
71
100
AcDbEntity
  8
0
  6
CONTINUOUS
 62
       9
100
AcDbLine
 10
242.65252598
 20
-307.96144681
 30
0.0
 11
242.65252598
 21
-484.85678392
 31
0.0
  0
TEXT
  5
72
100
AcDbEntity
  8
0
 62
       7
100
AcDbText
 10
-187.84747402
 20
-469.85678392
 30
0.0
 40
40.0
  1
765
 41
0.8
 72
       5
 11
-91.84747402
 21
-469.85678392
 31
0.0
100
AcDbText
  0
ENDBLK
  5
73
100
AcDbEntity
  8
0
100
AcDbBlockEnd
  0
BLOCK
  5
74
100
AcDbEntity
  8
0
100
AcDbBlockBegin
  2
DA_IMAGEDIMGROUP_5
 70
       0
 10
0.0
 20
0.0
 30
0.0
  3
DA_IMAGEDIMGROUP_5
  1

  0
LINE
  5
75
100
AcDbEntity
  8
0
  6
CONTINUOUS
 62
       9
100
AcDbLine
 10
385.17462312
 20
-302.96144681
 30
0.0
 11
385.17462312
 21
422.03855319
 31
0.0
  0
INSERT
  5
76
100
AcDbEntity
  8
0
  6
CONTINUOUS
 62
       9
100
AcDbBlockReference
  2
_OPEN30
 10
385.17462312
 20
-302.96144681
 30
0.0
 41
30.00002788
 42
29.99989274
 50
270.0
  0
INSERT
  5
77
100
AcDbEntity
  8
0
  6
CONTINUOUS
 62
       9
100
AcDbBlockReference
  2
_OPEN30
 10
385.17462312
 20
422.03855319
 30
0.0
 41
30.00002788
 42
29.99989274
 50
90.0
  0
LINE
  5
78
100
AcDbEntity
  8
0
  6
CONTINUOUS
 62
       9
100
AcDbLine
 10
247.65252598
 20
-302.96144681
 30
0.0
 11
395.17462312
 21
-302.96144681
 31
0.0
  0
LINE
  5
79
100
AcDbEntity
  8
0
  6
CONTINUOUS
 62
       9
100
AcDbLine
 10
247.65252598
 20
422.03855319
 30
0.0
 11
395.17462312
 21
422.03855319
 31
0.0
  0
TEXT
  5
7A
100
AcDbEntity
  8
0
 62
       7
100
AcDbText
 10
380.17462312
 20
11.53855319
 30
0.0
 40
40.0
  1
725
 50
90.0
 41
0.8
 72
       5
 11
380.17462312
 21
107.53855319
 31
0.0
100
AcDbText
  0
ENDBLK
  5
7B
100
AcDbEntity
  8
0
100
AcDbBlockEnd
  0
BLOCK
  5
7C
100
AcDbEntity
  8
0
100
AcDbBlockBegin
  2
DA_IMAGEDIMGROUP_6
 70
       0
 10
0.0
 20
0.0
 30
0.0
  3
DA_IMAGEDIMGROUP_6
  1

  0
LINE
  5
7D
100
AcDbEntity
  8
0
  6
CONTINUOUS
 62
       9
100
AcDbLine
 10
-522.34747402
 20
853.62812376
 30
0.0
 11
-522.34747402
 21
921.27002443
 31
0.0
  0
LINE
  5
7E
100
AcDbEntity
  8
0
  6
CONTINUOUS
 62
       9
100
AcDbLine
 10
-439.84747402
 20
902.52821851
 30
0.0
 11
-439.84747402
 21
921.27002443
 31
0.0
  0
LINE
  5
7F
100
AcDbEntity
  8
0
  6
CONTINUOUS
 62
       9
100
AcDbLine
 10
-522.34747402
 20
916.27002443
 30
0.0
 11
-439.84747402
 21
916.27002443
 31
0.0
  0
LINE
  5
80
100
AcDbEntity
  8
0
  6
CONTINUOUS
 62
       9
100
AcDbLine
 10
-139.84747402
 20
905.33420393
 30
0.0
 11
-139.84747402
 21
921.27002443
 31
0.0
  0
LINE
  5
81
100
AcDbEntity
  8
0
  6
CONTINUOUS
 62
       9
100
AcDbLine
 10
160.15252598
 20
915.40394106
 30
0.0
 11
160.15252598
 21
921.27002443
 31
0.0
  0
LINE
  5
82
100
AcDbEntity
  8
0
  6
CONTINUOUS
 62
       9
100
AcDbLine
 10
242.65252598
 20
853.62812376
 30
0.0
 11
242.65252598
 21
921.27002443
 31
0.0
  0
LINE
  5
83
100
AcDbEntity
  8
0
  6
CONTINUOUS
 62
       9
100
AcDbLine
 10
160.15252598
 20
916.27002443
 30
0.0
 11
242.65252598
 21
916.27002443
 31
0.0
  0
LINE
  5
84
100
AcDbEntity
  8
0
  6
CONTINUOUS
 62
       9
100
AcDbLine
 10
-439.84747402
 20
916.27002443
 30
0.0
 11
-139.84747402
 21
916.27002443
 31
0.0
  0
INSERT
  5
85
100
AcDbEntity
  8
0
  6
CONTINUOUS
 62
       9
100
AcDbBlockReference
  2
_OPEN30
 10
-439.84747402
 20
916.27002443
 30
0.0
 41
30.00002788
 42
29.99989274
 50
180.0
  0
INSERT
  5
86
100
AcDbEntity
  8
0
  6
CONTINUOUS
 62
       9
100
AcDbBlockReference
  2
_OPEN30
 10
-139.84747402
 20
916.27002443
 30
0.0
 41
30.00002788
 42
29.99989274
 50
360.0
  0
LINE
  5
87
100
AcDbEntity
  8
0
  6
CONTINUOUS
 62
       9
100
AcDbLine
 10
-139.84747402
 20
916.27002443
 30
0.0
 11
160.15252598
 21
916.27002443
 31
0.0
  0
INSERT
  5
88
100
AcDbEntity
  8
0
  6
CONTINUOUS
 62
       9
100
AcDbBlockReference
  2
_OPEN30
 10
-139.84747402
 20
916.27002443
 30
0.0
 41
30.00002788
 42
29.99989274
 50
180.0
  0
INSERT
  5
89
100
AcDbEntity
  8
0
  6
CONTINUOUS
 62
       9
100
AcDbBlockReference
  2
_OPEN30
 10
160.15252598
 20
916.27002443
 30
0.0
 41
30.00002788
 42
29.99989274
 50
360.0
  0
LINE
  5
8A
100
AcDbEntity
  8
0
  6
CONTINUOUS
 62
       9
100
AcDbLine
 10
-718.81163402
 20
916.27002443
 30
0.0
 11
-522.34747402
 21
916.27002443
 31
0.0
  0
INSERT
  5
8B
100
AcDbEntity
  8
0
  6
CONTINUOUS
 62
       9
100
AcDbBlockReference
  2
_OPEN30
 10
-522.34747402
 20
916.27002443
 30
0.0
 41
30.00002788
 42
29.99989274
 50
360.0
  0
LINE
  5
8C
100
AcDbEntity
  8
0
  6
CONTINUOUS
 62
       9
100
AcDbLine
 10
441.73533398
 20
916.27002443
 30
0.0
 11
242.65252598
 21
916.27002443
 31
0.0
  0
INSERT
  5
8D
100
AcDbEntity
  8
0
  6
CONTINUOUS
 62
       9
100
AcDbBlockReference
  2
_OPEN30
 10
242.65252598
 20
916.27002443
 30
0.0
 41
30.00002788
 42
29.99989274
 50
180.0
  0
TEXT
  5
8E
100
AcDbEntity
  8
0
 62
       7
100
AcDbText
 10
-698.34747402
 20
928.27002443
 30
0.0
 40
40.0
  1
82.5
 41
0.8
 72
       5
 11
-570.34747402
 21
928.27002443
 31
0.0
100
AcDbText
  0
TEXT
  5
8F
100
AcDbEntity
  8
0
 62
       7
100
AcDbText
 10
-337.84747402
 20
918.77002443
 30
0.0
 40
40.0
  1
300
 41
0.8
 72
       5
 11
-241.84747402
 21
918.77002443
 31
0.0
100
AcDbText
  0
TEXT
  5
90
100
AcDbEntity
  8
0
 62
       7
100
AcDbText
 10
-37.84747402
 20
918.77002443
 30
0.0
 40
40.0
  1
300
 41
0.8
 72
       5
 11
58.15252598
 21
918.77002443
 31
0.0
100
AcDbText
  0
TEXT
  5
91
100
AcDbEntity
  8
0
 62
       7
100
AcDbText
 10
293.27117398
 20
928.27002443
 30
0.0
 40
40.0
  1
82.5
 41
0.8
 72
       5
 11
421.27117398
 21
928.27002443
 31
0.0
100
AcDbText
  0
ENDBLK
  5
92
100
AcDbEntity
  8
0
100
AcDbBlockEnd
  0
BLOCK
  5
93
100
AcDbEntity
  8
0
100
AcDbBlockBegin
  2
DA_IMAGEDIMGROUP_7
 70
       0
 10
0.0
 20
0.0
 30
0.0
  3
DA_IMAGEDIMGROUP_7
  1

  0
LINE
  5
94
100
AcDbEntity
  8
0
  6
CONTINUOUS
 62
       9
100
AcDbLine
 10
710.12462864
 20
-302.96144681
 30
0.0
 11
799.13639439
 21
-302.96144681
 31
0.0
  0
LINE
  5
95
100
AcDbEntity
  8
0
  6
CONTINUOUS
 62
       9
100
AcDbLine
 10
745.48755046
 20
-247.96144681
 30
0.0
 11
799.13639439
 21
-247.96144681
 31
0.0
  0
LINE
  5
96
100
AcDbEntity
  8
0
  6
CONTINUOUS
 62
       9
100
AcDbLine
 10
794.13639439
 20
-302.96144681
 30
0.0
 11
794.13639439
 21
-247.96144681
 31
0.0
  0
LINE
  5
97
100
AcDbEntity
  8
0
  6
CONTINUOUS
 62
       9
100
AcDbLine
 10
734.75778167
 20
367.03855319
 30
0.0
 11
799.13639439
 21
367.03855319
 31
0.0
  0
LINE
  5
98
100
AcDbEntity
  8
0
  6
CONTINUOUS
 62
       9
100
AcDbLine
 10
710.12462864
 20
422.03855319
 30
0.0
 11
799.13639439
 21
422.03855319
 31
0.0
  0
LINE
  5
99
100
AcDbEntity
  8
0
  6
CONTINUOUS
 62
       9
100
AcDbLine
 10
794.13639439
 20
367.03855319
 30
0.0
 11
794.13639439
 21
422.03855319
 31
0.0
  0
LINE
  5
9A
100
AcDbEntity
  8
0
  6
CONTINUOUS
 62
       9
100
AcDbLine
 10
794.13639439
 20
-247.96144681
 30
0.0
 11
794.13639439
 21
367.03855319
 31
0.0
  0
INSERT
  5
9B
100
AcDbEntity
  8
0
  6
CONTINUOUS
 62
       9
100
AcDbBlockReference
  2
_OPEN30
 10
794.13639439
 20
-247.96144681
 30
0.0
 41
30.00002788
 42
29.99989274
 50
270.0
  0
INSERT
  5
9C
100
AcDbEntity
  8
0
  6
CONTINUOUS
 62
       9
100
AcDbBlockReference
  2
_OPEN30
 10
794.13639439
 20
367.03855319
 30
0.0
 41
30.00002788
 42
29.99989274
 50
90.0
  0
LINE
  5
9D
100
AcDbEntity
  8
0
  6
CONTINUOUS
 62
       9
100
AcDbLine
 10
794.13639439
 20
554.50271319
 30
0.0
 11
794.13639439
 21
422.03855319
 31
0.0
  0
INSERT
  5
9E
100
AcDbEntity
  8
0
  6
CONTINUOUS
 62
       9
100
AcDbBlockReference
  2
_OPEN30
 10
794.13639439
 20
422.03855319
 30
0.0
 41
30.00002788
 42
29.99989274
 50
270.0
  0
LINE
  5
9F
100
AcDbEntity
  8
0
  6
CONTINUOUS
 62
       9
100
AcDbLine
 10
794.13639439
 20
-435.42560681
 30
0.0
 11
794.13639439
 21
-302.96144681
 31
0.0
  0
INSERT
  5
A0
100
AcDbEntity
  8
0
  6
CONTINUOUS
 62
       9
100
AcDbBlockReference
  2
_OPEN30
 10
794.13639439
 20
-302.96144681
 30
0.0
 41
30.00002788
 42
29.99989274
 50
90.0
  0
TEXT
  5
A1
100
AcDbEntity
  8
0
 62
       7
100
AcDbText
 10
782.13639439
 20
-414.96144681
 30
0.0
 40
40.0
  1
55
 50
90.0
 41
0.8
 72
       5
 11
782.13639439
 21
-350.96144681
 31
0.0
100
AcDbText
  0
TEXT
  5
A2
100
AcDbEntity
  8
0
 62
       7
100
AcDbText
 10
791.63639439
 20
11.53855319
 30
0.0
 40
40.0
  1
615
 50
90.0
 41
0.8
 72
       5
 11
791.63639439
 21
107.53855319
 31
0.0
100
AcDbText
  0
TEXT
  5
A3
100
AcDbEntity
  8
0
 62
       7
100
AcDbText
 10
782.13639439
 20
470.03855319
 30
0.0
 40
40.0
  1
55
 50
90.0
 41
0.8
 72
       5
 11
782.13639439
 21
534.03855319
 31
0.0
100
AcDbText
  0
ENDBLK
  5
A4
100
AcDbEntity
  8
0
100
AcDbBlockEnd
  0
BLOCK
  5
A5
100
AcDbEntity
  8
0
100
AcDbBlockBegin
  2
DA_IMAGEDIMGROUP_8
 70
       0
 10
0.0
 20
0.0
 30
0.0
  3
DA_IMAGEDIMGROUP_8
  1

  0
LINE
  5
A6
100
AcDbEntity
  8
0
  6
CONTINUOUS
 62
       9
100
AcDbLine
 10
-522.34747402
 20
-292.96144681
 30
0.0
 11
-522.34747402
 21
-205.6893344
 31
0.0
  0
LINE
  5
A7
100
AcDbEntity
  8
0
  6
CONTINUOUS
 62
       9
100
AcDbLine
 10
-502.34747402
 20
-272.96144681
 30
0.0
 11
-502.34747402
 21
-205.6893344
 31
0.0
  0
LINE
  5
A8
100
AcDbEntity
  8
0
  6
CONTINUOUS
 62
       9
100
AcDbLine
 10
-502.34747402
 20
-215.6893344
 30
0.0
 11
-522.34747402
 21
-215.6893344
 31
0.0
  0
LINE
  5
A9
100
AcDbEntity
  8
0
  6
CONTINUOUS
 62
       9
100
AcDbLine
 10
-646.81163402
 20
-215.6893344
 30
0.0
 11
-522.34747402
 21
-215.6893344
 31
0.0
  0
INSERT
  5
AA
100
AcDbEntity
  8
0
  6
CONTINUOUS
 62
       9
100
AcDbBlockReference
  2
_OPEN30
 10
-522.34747402
 20
-215.6893344
 30
0.0
 41
30.00002788
 42
29.99989274
 50
360.0
  0
LINE
  5
AB
100
AcDbEntity
  8
0
  6
CONTINUOUS
 62
       9
100
AcDbLine
 10
-452.34747402
 20
-215.6893344
 30
0.0
 11
-502.34747402
 21
-215.6893344
 31
0.0
  0
INSERT
  5
AC
100
AcDbEntity
  8
0
  6
CONTINUOUS
 62
       9
100
AcDbBlockReference
  2
_OPEN30
 10
-502.34747402
 20
-215.6893344
 30
0.0
 41
30.00002788
 42
29.99989274
 50
180.0
  0
TEXT
  5
AD
100
AcDbEntity
  8
0
 62
       7
100
AcDbText
 10
-626.34747402
 20
-205.6893344
 30
0.0
 40
40.0
  1
20
 41
0.8
 72
       5
 11
-562.34747402
 21
-205.6893344
 31
0.0
100
AcDbText
  0
ENDBLK
  5
AE
100
AcDbEntity
  8
0
100
AcDbBlockEnd
  0
BLOCK
  5
AF
100
AcDbEntity
  8
0
100
AcDbBlockBegin
  2
GROUP_1
 70
       0
 10
0.0
 20
0.0
 30
0.0
  3
GROUP_1
  1

  0
LINE
  5
B0
100
AcDbEntity
  8
LAYER0240
  6
CONTINUOUS
 62
       4
100
AcDbLine
 10
-478.76954633
 20
-87.48809116
 30
0.0
 11
-593.68428114
 21
543.86698122
 31
0.0
  0
INSERT
  5
B1
100
AcDbEntity
  8
LAYER0240
  6
CONTINUOUS
 62
       4
100
AcDbBlockReference
  2
_DOT
 10
-478.76954633
 20
-87.48809116
 30
0.0
 41
25.0
 42
25.0
 50
280.31564273
  0
CIRCLE
  5
B2
100
AcDbEntity
  8
LAYER0240
  6
CONTINUOUS
 62
       4
100
AcDbCircle
 10
-601.51862977
 20
586.90981432
 30
0.0
 40
43.75
  0
TEXT
  5
B3
100
AcDbEntity
  8
LAYER0240
 62
       4
100
AcDbText
 10
-617.51862977
 20
566.90981432
 30
0.0
 40
40.0
  1
3
 41
0.8
 72
       5
 11
-585.51862977
 21
566.90981432
 31
0.0
100
AcDbText
  0
ENDBLK
  5
B4
100
AcDbEntity
  8
0
100
AcDbBlockEnd
  0
BLOCK
  5
B5
100
AcDbEntity
  8
0
100
AcDbBlockBegin
  2
_ORIGIN
 70
       0
 10
0.0
 20
0.0
 30
0.0
  3
_ORIGIN
  1

  0
CIRCLE
  5
B6
100
AcDbEntity
  8
0
  6
CONTINUOUS
 62
       0
100
AcDbCircle
 10
0.0
 20
0.0
 30
0.0
 40
0.5
  0
ENDBLK
  5
B7
100
AcDbEntity
  8
0
100
AcDbBlockEnd
  0
BLOCK
  5
B8
100
AcDbEntity
  8
0
100
AcDbBlockBegin
  2
_DOT
 70
       0
 10
0.0
 20
0.0
 30
0.0
  3
_DOT
  1

  0
HATCH
  5
B9
100
AcDbEntity
  8
0
  6
CONTINUOUS
 62
       0
100
AcDbHatch
 10
0.0
 20
0.0
 30
0.0
210
0.0
220
0.0
230
1.0
  2
SOLID
 70
       1
 71
       1
 91
        1
 92
        1
 93
        1
 72
       2
 10
0.0
 20
0.0
 40
0.5
 50
0.0
 51
360.0
 73
       1
 97
        0
 75
       0
 76
       1
 98
        0
  0
ENDBLK
  5
BA
100
AcDbEntity
  8
0
100
AcDbBlockEnd
  0
BLOCK
  5
BB
100
AcDbEntity
  8
0
100
AcDbBlockBegin
  2
GROUP_2
 70
       0
 10
0.0
 20
0.0
 30
0.0
  3
GROUP_2
  1

  0
LINE
  5
BC
100
AcDbEntity
  8
LAYER0240
  6
CONTINUOUS
 62
       4
100
AcDbLine
 10
-193.3555201
 20
254.80831422
 30
0.0
 11
-340.43286732
 21
547.80946084
 31
0.0
  0
INSERT
  5
BD
100
AcDbEntity
  8
LAYER0240
  6
CONTINUOUS
 62
       4
100
AcDbBlockReference
  2
_DOT
 10
-193.3555201
 20
254.80831422
 30
0.0
 41
25.0
 42
25.0
 50
296.65520969
  0
CIRCLE
  5
BE
100
AcDbEntity
  8
LAYER0240
  6
CONTINUOUS
 62
       4
100
AcDbCircle
 10
-360.06001326
 20
586.90981432
 30
0.0
 40
43.75
  0
TEXT
  5
BF
100
AcDbEntity
  8
LAYER0240
 62
       4
100
AcDbText
 10
-376.06001326
 20
566.90981432
 30
0.0
 40
40.0
  1
2
 41
0.8
 72
       5
 11
-344.06001326
 21
566.90981432
 31
0.0
100
AcDbText
  0
ENDBLK
  5
C0
100
AcDbEntity
  8
0
100
AcDbBlockEnd
  0
BLOCK
  5
C1
100
AcDbEntity
  8
0
100
AcDbBlockBegin
  2
GROUP_3
 70
       0
 10
0.0
 20
0.0
 30
0.0
  3
GROUP_3
  1

  0
LINE
  5
C2
100
AcDbEntity
  8
LAYER0240
  6
CONTINUOUS
 62
       4
100
AcDbLine
 10
634.34525349
 20
422.03855319
 30
0.0
 11
612.17091434
 21
543.86698122
 31
0.0
  0
INSERT
  5
C3
100
AcDbEntity
  8
LAYER0240
  6
CONTINUOUS
 62
       4
100
AcDbBlockReference
  2
_OPEN30
 10
634.34525349
 20
422.03855319
 30
0.0
 41
30.00002788
 42
29.99989274
 50
280.31564273
  0
CIRCLE
  5
C4
100
AcDbEntity
  8
LAYER0240
  6
CONTINUOUS
 62
       4
100
AcDbCircle
 10
604.3365657
 20
586.90981432
 30
0.0
 40
43.75
  0
TEXT
  5
C5
100
AcDbEntity
  8
LAYER0240
 62
       4
100
AcDbText
 10
588.3365657
 20
566.90981432
 30
0.0
 40
40.0
  1
1
 41
0.8
 72
       5
 11
620.3365657
 21
566.90981432
 31
0.0
100
AcDbText
  0
ENDBLK
  5
C6
100
AcDbEntity
  8
0
100
AcDbBlockEnd
  0
BLOCK
  5
C7
100
AcDbEntity
  8
0
100
AcDbBlockBegin
  2
GROUP_4
 70
       0
 10
0.0
 20
0.0
 30
0.0
  3
GROUP_4
  1

  0
LINE
  5
C8
100
AcDbEntity
  8
LAYER0240
  6
CONTINUOUS
 62
       9
100
AcDbLine
 10
-494.00469757
 20
8.84553859
 30
0.0
 11
-468.37370851
 21
-6.40633448
 31
0.0
  0
LINE
  5
C9
100
AcDbEntity
  8
LAYER0240
  6
CONTINUOUS
 62
       9
100
AcDbLine
 10
-468.37370851
 20
-6.40633448
 30
0.0
 11
-447.86497879
 21
-24.51884099
 31
0.0
  0
LINE
  5
CA
100
AcDbEntity
  8
LAYER0240
  6
CONTINUOUS
 62
       9
100
AcDbLine
 10
-447.86497879
 20
-24.51884099
 30
0.0
 11
-431.77967276
 21
-45.10896736
 31
0.0
  0
LINE
  5
CB
100
AcDbEntity
  8
LAYER0240
  6
CONTINUOUS
 62
       9
100
AcDbLine
 10
-431.77967276
 20
-45.10896736
 30
0.0
 11
-419.41895481
 21
-67.79370002
 31
0.0
  0
LINE
  5
CC
100
AcDbEntity
  8
LAYER0240
  6
CONTINUOUS
 62
       9
100
AcDbLine
 10
-419.41895481
 20
-67.79370002
 30
0.0
 11
-410.08398931
 21
-92.19002541
 31
0.0
  0
LINE
  5
CD
100
AcDbEntity
  8
LAYER0240
  6
CONTINUOUS
 62
       9
100
AcDbLine
 10
-410.08398931
 20
-92.19002541
 30
0.0
 11
-403.07594062
 21
-117.91492997
 31
0.0
  0
LINE
  5
CE
100
AcDbEntity
  8
LAYER0240
  6
CONTINUOUS
 62
       9
100
AcDbLine
 10
-403.07594062
 20
-117.91492997
 30
0.0
 11
-397.69597312
 21
-144.58540012
 31
0.0
  0
LINE
  5
CF
100
AcDbEntity
  8
LAYER0240
  6
CONTINUOUS
 62
       9
100
AcDbLine
 10
-397.69597312
 20
-144.58540012
 30
0.0
 11
-393.24525118
 21
-171.8184223
 31
0.0
  0
LINE
  5
D0
100
AcDbEntity
  8
LAYER0240
  6
CONTINUOUS
 62
       9
100
AcDbLine
 10
-393.24525118
 20
-171.8184223
 30
0.0
 11
-389.02493917
 21
-199.23098294
 31
0.0
  0
LINE
  5
D1
100
AcDbEntity
  8
LAYER0240
  6
CONTINUOUS
 62
       9
100
AcDbLine
 10
-389.02493917
 20
-199.23098294
 30
0.0
 11
-384.33620146
 21
-226.44006847
 31
0.0
  0
LINE
  5
D2
100
AcDbEntity
  8
LAYER0240
  6
CONTINUOUS
 62
       9
100
AcDbLine
 10
-384.33620146
 20
-226.44006847
 30
0.0
 11
-378.48020243
 21
-253.06266533
 31
0.0
  0
LINE
  5
D3
100
AcDbEntity
  8
LAYER0240
  6
CONTINUOUS
 62
       9
100
AcDbLine
 10
-378.48020243
 20
-253.06266533
 30
0.0
 11
-370.75810644
 21
-278.71575994
 31
0.0
  0
LINE
  5
D4
100
AcDbEntity
  8
LAYER0240
  6
CONTINUOUS
 62
       9
100
AcDbLine
 10
-370.75810644
 20
-278.71575994
 30
0.0
 11
-360.47107787
 21
-303.01633874
 31
0.0
  0
LINE
  5
D5
100
AcDbEntity
  8
LAYER0240
  6
CONTINUOUS
 62
       9
100
AcDbLine
 10
-522.34747402
 20
19.66664879
 30
0.0
 11
-494.00469757
 21
8.84553859
 31
0.0
  0
ENDBLK
  5
D6
100
AcDbEntity
  8
0
100
AcDbBlockEnd
  0
BLOCK
  5
D7
100
AcDbEntity
  8
0
100
AcDbBlockBegin
  2
GROUP_5
 70
       0
 10
0.0
 20
0.0
 30
0.0
  3
GROUP_5
  1

  0
CIRCLE
  5
D8
100
AcDbEntity
  8
LAYER0240
  6
CONTINUOUS
 62
       4
100
AcDbCircle
 10
-514.01862977
 20
586.90981432
 30
0.0
 40
43.75
  0
TEXT
  5
D9
100
AcDbEntity
  8
LAYER0240
 62
       4
100
AcDbText
 10
-530.01862977
 20
566.90981432
 30
0.0
 40
40.0
  1
4
 41
0.8
 72
       5
 11
-498.01862977
 21
566.90981432
 31
0.0
100
AcDbText
  0
ENDBLK
  5
DA
100
AcDbEntity
  8
0
100
AcDbBlockEnd
  0
BLOCK
  5
DB
100
AcDbEntity
  8
0
100
AcDbBlockBegin
  2
GROUP_6
 70
       0
 10
0.0
 20
0.0
 30
0.0
  3
GROUP_6
  1

  0
CIRCLE
  5
DC
100
AcDbEntity
  8
LAYER0240
  6
CONTINUOUS
 62
       4
100
AcDbCircle
 10
888.34893363
 20
586.90981432
 30
0.0
 40
43.75
  0
TEXT
  5
DD
100
AcDbEntity
  8
LAYER0240
 62
       4
100
AcDbText
 10
872.34893363
 20
566.90981432
 30
0.0
 40
40.0
  1
5
 41
0.8
 72
       5
 11
904.34893363
 21
566.90981432
 31
0.0
100
AcDbText
  0
ENDBLK
  5
DE
100
AcDbEntity
  8
0
100
AcDbBlockEnd
  0
ENDSEC
  0
SECTION
  2
ENTITIES
  0
LINE
  5
DF
100
AcDbEntity
  8
ZUWAKU
  6
CONTINUOUS
 62
      32
100
AcDbLine
 10
-567.375
 20
-1386.58043294
 30
0.0
 11
-561.75
 21
-1370.95543294
 31
0.0
  0
LINE
  5
E0
100
AcDbEntity
  8
ZUWAKU
  6
CONTINUOUS
 62
      32
100
AcDbLine
 10
-609.0
 20
-1386.58043294
 30
0.0
 11
-600.25
 21
-1362.83043294
 31
0.0
  0
LINE
  5
E1
100
AcDbEntity
  8
ZUWAKU
  6
CONTINUOUS
 62
      32
100
AcDbLine
 10
-617.125
 20
-1354.08043294
 30
0.0
 11
-620.25
 21
-1362.83043294
 31
0.0
  0
LINE
  5
E2
100
AcDbEntity
  8
ZUWAKU
  6
CONTINUOUS
 62
      32
100
AcDbLine
 10
-588.375
 20
-1386.58043294
 30
0.0
 11
-579.0
 21
-1359.08043294
 31
0.0
  0
LINE
  5
E3
100
AcDbEntity
  8
ZUWAKU
  6
CONTINUOUS
 62
      32
100
AcDbLine
 10
-457.25
 20
-1386.58043294
 30
0.0
 11
-467.875
 21
-1369.08043294
 31
0.0
  0
LINE
  5
E4
100
AcDbEntity
  8
ZUWAKU
  6
CONTINUOUS
 62
      32
100
AcDbLine
 10
-617.125
 20
-1354.08043294
 30
0.0
 11
-605.25
 21
-1354.08043294
 31
0.0
  0
LINE
  5
E5
100
AcDbEntity
  8
ZUWAKU
  6
CONTINUOUS
 62
      32
100
AcDbLine
 10
-553.625
 20
-1348.45543294
 30
0.0
 11
-533.0
 21
-1348.45543294
 31
0.0
  0
LINE
  5
E6
100
AcDbEntity
  8
ZUWAKU
  6
CONTINUOUS
 62
      32
100
AcDbLine
 10
-509.25
 20
-1346.58043294
 30
0.0
 11
-503.0
 21
-1346.58043294
 31
0.0
  0
LINE
  5
E7
100
AcDbEntity
  8
ZUWAKU
  6
CONTINUOUS
 62
      32
100
AcDbLine
 10
-549.25
 20
-1337.20543294
 30
0.0
 11
-553.625
 21
-1348.45543294
 31
0.0
  0
LINE
  5
E8
100
AcDbEntity
  8
ZUWAKU
  6
CONTINUOUS
 62
      32
100
AcDbLine
 10
-529.25
 20
-1337.20543294
 30
0.0
 11
-533.0
 21
-1348.45543294
 31
0.0
  0
LINE
  5
E9
100
AcDbEntity
  8
ZUWAKU
  6
CONTINUOUS
 62
      32
100
AcDbLine
 10
-609.0
 20
-1386.58043294
 30
0.0
 11
-588.375
 21
-1386.58043294
 31
0.0
  0
LINE
  5
EA
100
AcDbEntity
  8
ZUWAKU
  6
CONTINUOUS
 62
      32
100
AcDbLine
 10
-577.125
 20
-1337.20543294
 30
0.0
 11
-554.0
 21
-1337.20543294
 31
0.0
  0
LINE
  5
EB
100
AcDbEntity
  8
ZUWAKU
  6
CONTINUOUS
 62
      32
100
AcDbLine
 10
-475.17574359
 20
-1348.45543294
 30
0.0
 11
-497.25
 21
-1348.45543294
 31
0.0
  0
LINE
  5
EC
100
AcDbEntity
  8
ZUWAKU
  6
CONTINUOUS
 62
      32
100
AcDbLine
 10
-451.0
 20
-1337.20543294
 30
0.0
 11
-493.5
 21
-1337.20543294
 31
0.0
  0
LINE
  5
ED
100
AcDbEntity
  8
ZUWAKU
  6
CONTINUOUS
 62
      32
100
AcDbLine
 10
-620.25
 20
-1362.83043294
 30
0.0
 11
-600.25
 21
-1362.83043294
 31
0.0
  0
LINE
  5
EE
100
AcDbEntity
  8
ZUWAKU
  6
CONTINUOUS
 62
      32
100
AcDbLine
 10
-567.375
 20
-1386.58043294
 30
0.0
 11
-534.25
 21
-1386.58043294
 31
0.0
  0
LINE
  5
EF
100
AcDbEntity
  8
ZUWAKU
  6
CONTINUOUS
 62
      32
100
AcDbLine
 10
-561.75
 20
-1370.95543294
 30
0.0
 11
-531.75
 21
-1370.95543294
 31
0.0
  0
LINE
  5
F0
100
AcDbEntity
  8
ZUWAKU
  6
CONTINUOUS
 62
      32
100
AcDbLine
 10
-457.25
 20
-1386.58043294
 30
0.0
 11
-472.875
 21
-1386.58043294
 31
0.0
  0
LINE
  5
F1
100
AcDbEntity
  8
ZUWAKU
  6
CONTINUOUS
 62
      32
100
AcDbLine
 10
-497.25
 20
-1348.45543294
 30
0.0
 11
-493.5
 21
-1337.20543294
 31
0.0
  0
LINE
  5
F2
100
AcDbEntity
  8
ZUWAKU
  6
CONTINUOUS
 62
      32
100
AcDbLine
 10
-714.625
 20
-1337.20543294
 30
0.0
 11
-725.25
 21
-1367.20543294
 31
0.0
  0
LINE
  5
F3
100
AcDbEntity
  8
ZUWAKU
  6
CONTINUOUS
 62
      32
100
AcDbLine
 10
-725.25
 20
-1367.20543294
 30
0.0
 11
-710.875
 21
-1367.20543294
 31
0.0
  0
LINE
  5
F4
100
AcDbEntity
  8
ZUWAKU
  6
CONTINUOUS
 62
      32
100
AcDbLine
 10
-710.875
 20
-1367.20543294
 30
0.0
 11
-699.625
 21
-1337.20543294
 31
0.0
  0
LINE
  5
F5
100
AcDbEntity
  8
ZUWAKU
  6
CONTINUOUS
 62
      32
100
AcDbLine
 10
-699.625
 20
-1337.20543294
 30
0.0
 11
-714.625
 21
-1337.20543294
 31
0.0
  0
LINE
  5
F6
100
AcDbEntity
  8
ZUWAKU
  6
CONTINUOUS
 62
      32
100
AcDbLine
 10
-524.25
 20
-1367.20543294
 30
0.0
 11
-517.375
 21
-1361.58043294
 31
0.0
  0
LINE
  5
F7
100
AcDbEntity
  8
ZUWAKU
  6
CONTINUOUS
 62
      32
100
AcDbLine
 10
-517.375
 20
-1361.58043294
 30
0.0
 11
-512.375
 21
-1354.70543294
 31
0.0
  0
LINE
  5
F8
100
AcDbEntity
  8
ZUWAKU
  6
CONTINUOUS
 62
      32
100
AcDbLine
 10
-512.375
 20
-1354.70543294
 30
0.0
 11
-509.25
 21
-1346.58043294
 31
0.0
  0
LINE
  5
F9
100
AcDbEntity
  8
ZUWAKU
  6
CONTINUOUS
 62
      32
100
AcDbLine
 10
-663.25
 20
-1337.20543294
 30
0.0
 11
-617.625
 21
-1337.20543294
 31
0.0
  0
LINE
  5
FA
100
AcDbEntity
  8
ZUWAKU
  6
CONTINUOUS
 62
      32
100
AcDbLine
 10
-617.625
 20
-1337.20543294
 30
0.0
 11
-621.375
 21
-1348.45543294
 31
0.0
  0
LINE
  5
FB
100
AcDbEntity
  8
ZUWAKU
  6
CONTINUOUS
 62
      32
100
AcDbLine
 10
-617.625
 20
-1337.20543294
 30
0.0
 11
-621.375
 21
-1348.45543294
 31
0.0
  0
LINE
  5
FC
100
AcDbEntity
  8
ZUWAKU
  6
CONTINUOUS
 62
      32
100
AcDbLine
 10
-621.375
 20
-1348.45543294
 30
0.0
 11
-667.0
 21
-1348.45543294
 31
0.0
  0
LINE
  5
FD
100
AcDbEntity
  8
ZUWAKU
  6
CONTINUOUS
 62
      32
100
AcDbLine
 10
-667.0
 20
-1348.45543294
 30
0.0
 11
-663.25
 21
-1337.20543294
 31
0.0
  0
LINE
  5
FE
100
AcDbEntity
  8
ZUWAKU
  6
CONTINUOUS
 62
      32
100
AcDbLine
 10
-667.0
 20
-1348.45543294
 30
0.0
 11
-663.25
 21
-1337.20543294
 31
0.0
  0
LINE
  5
FF
100
AcDbEntity
  8
ZUWAKU
  6
CONTINUOUS
 62
      32
100
AcDbLine
 10
-617.625
 20
-1337.20543294
 30
0.0
 11
-663.25
 21
-1337.20543294
 31
0.0
  0
LINE
  5
100
100
AcDbEntity
  8
ZUWAKU
  6
CONTINUOUS
 62
      32
100
AcDbLine
 10
-663.25
 20
-1337.20543294
 30
0.0
 11
-667.0
 21
-1348.45543294
 31
0.0
  0
LINE
  5
101
100
AcDbEntity
  8
ZUWAKU
  6
CONTINUOUS
 62
      32
100
AcDbLine
 10
-667.0
 20
-1348.45543294
 30
0.0
 11
-621.375
 21
-1348.45543294
 31
0.0
  0
LINE
  5
102
100
AcDbEntity
  8
ZUWAKU
  6
CONTINUOUS
 62
      32
100
AcDbLine
 10
-643.875
 20
-1385.33043294
 30
0.0
 11
-638.875
 21
-1382.83043294
 31
0.0
  0
LINE
  5
103
100
AcDbEntity
  8
ZUWAKU
  6
CONTINUOUS
 62
      32
100
AcDbLine
 10
-638.875
 20
-1382.83043294
 30
0.0
 11
-635.125
 21
-1379.08043294
 31
0.0
  0
LINE
  5
104
100
AcDbEntity
  8
ZUWAKU
  6
CONTINUOUS
 62
      32
100
AcDbLine
 10
-635.125
 20
-1379.08043294
 30
0.0
 11
-630.75
 21
-1374.70543294
 31
0.0
  0
LINE
  5
105
100
AcDbEntity
  8
ZUWAKU
  6
CONTINUOUS
 62
      32
100
AcDbLine
 10
-630.75
 20
-1374.70543294
 30
0.0
 11
-623.25
 21
-1354.08043294
 31
0.0
  0
LINE
  5
106
100
AcDbEntity
  8
ZUWAKU
  6
CONTINUOUS
 62
      32
100
AcDbLine
 10
-623.25
 20
-1354.08043294
 30
0.0
 11
-668.25
 21
-1354.08043294
 31
0.0
  0
LINE
  5
107
100
AcDbEntity
  8
ZUWAKU
  6
CONTINUOUS
 62
      32
100
AcDbLine
 10
-668.25
 20
-1354.08043294
 30
0.0
 11
-670.75
 21
-1362.83043294
 31
0.0
  0
LINE
  5
108
100
AcDbEntity
  8
ZUWAKU
  6
CONTINUOUS
 62
      32
100
AcDbLine
 10
-670.75
 20
-1362.83043294
 30
0.0
 11
-644.5
 21
-1362.83043294
 31
0.0
  0
LINE
  5
109
100
AcDbEntity
  8
ZUWAKU
  6
CONTINUOUS
 62
      32
100
AcDbLine
 10
-644.5
 20
-1362.83043294
 30
0.0
 11
-645.75
 21
-1367.20543294
 31
0.0
  0
LINE
  5
10A
100
AcDbEntity
  8
ZUWAKU
  6
CONTINUOUS
 62
      32
100
AcDbLine
 10
-645.75
 20
-1367.20543294
 30
0.0
 11
-648.875
 21
-1370.95543294
 31
0.0
  0
LINE
  5
10B
100
AcDbEntity
  8
ZUWAKU
  6
CONTINUOUS
 62
      32
100
AcDbLine
 10
-648.875
 20
-1370.95543294
 30
0.0
 11
-652.0
 21
-1374.08043294
 31
0.0
  0
LINE
  5
10C
100
AcDbEntity
  8
ZUWAKU
  6
CONTINUOUS
 62
      32
100
AcDbLine
 10
-652.0
 20
-1374.08043294
 30
0.0
 11
-656.375
 21
-1377.20543294
 31
0.0
  0
LINE
  5
10D
100
AcDbEntity
  8
ZUWAKU
  6
CONTINUOUS
 62
      32
100
AcDbLine
 10
-656.375
 20
-1377.20543294
 30
0.0
 11
-677.0
 21
-1377.20543294
 31
0.0
  0
LINE
  5
10E
100
AcDbEntity
  8
ZUWAKU
  6
CONTINUOUS
 62
      32
100
AcDbLine
 10
-677.0
 20
-1377.20543294
 30
0.0
 11
-680.75
 21
-1386.58043294
 31
0.0
  0
LINE
  5
10F
100
AcDbEntity
  8
ZUWAKU
  6
CONTINUOUS
 62
      32
100
AcDbLine
 10
-720.875
 20
-1386.58043294
 30
0.0
 11
-717.75
 21
-1377.20543294
 31
0.0
  0
LINE
  5
110
100
AcDbEntity
  8
ZUWAKU
  6
CONTINUOUS
 62
      32
100
AcDbLine
 10
-717.75
 20
-1377.20543294
 30
0.0
 11
-712.125
 21
-1377.20543294
 31
0.0
  0
LINE
  5
111
100
AcDbEntity
  8
ZUWAKU
  6
CONTINUOUS
 62
      32
100
AcDbLine
 10
-712.125
 20
-1377.20543294
 30
0.0
 11
-707.125
 21
-1376.58043294
 31
0.0
  0
LINE
  5
112
100
AcDbEntity
  8
ZUWAKU
  6
CONTINUOUS
 62
      32
100
AcDbLine
 10
-707.125
 20
-1376.58043294
 30
0.0
 11
-702.125
 21
-1374.08043294
 31
0.0
  0
LINE
  5
113
100
AcDbEntity
  8
ZUWAKU
  6
CONTINUOUS
 62
      32
100
AcDbLine
 10
-702.125
 20
-1374.08043294
 30
0.0
 11
-699.0
 21
-1369.08043294
 31
0.0
  0
LINE
  5
114
100
AcDbEntity
  8
ZUWAKU
  6
CONTINUOUS
 62
      32
100
AcDbLine
 10
-699.0
 20
-1369.08043294
 30
0.0
 11
-687.125
 21
-1337.20543294
 31
0.0
  0
LINE
  5
115
100
AcDbEntity
  8
ZUWAKU
  6
CONTINUOUS
 62
      32
100
AcDbLine
 10
-687.125
 20
-1337.20543294
 30
0.0
 11
-670.25
 21
-1337.20543294
 31
0.0
  0
LINE
  5
116
100
AcDbEntity
  8
ZUWAKU
  6
CONTINUOUS
 62
      32
100
AcDbLine
 10
-670.25
 20
-1337.20543294
 30
0.0
 11
-682.75
 21
-1374.08043294
 31
0.0
  0
LINE
  5
117
100
AcDbEntity
  8
ZUWAKU
  6
CONTINUOUS
 62
      32
100
AcDbLine
 10
-682.75
 20
-1374.08043294
 30
0.0
 11
-687.75
 21
-1379.08043294
 31
0.0
  0
LINE
  5
118
100
AcDbEntity
  8
ZUWAKU
  6
CONTINUOUS
 62
      32
100
AcDbLine
 10
-687.75
 20
-1379.08043294
 30
0.0
 11
-692.75
 21
-1383.45543294
 31
0.0
  0
LINE
  5
119
100
AcDbEntity
  8
ZUWAKU
  6
CONTINUOUS
 62
      32
100
AcDbLine
 10
-692.75
 20
-1383.45543294
 30
0.0
 11
-699.0
 21
-1385.95543294
 31
0.0
  0
LINE
  5
11A
100
AcDbEntity
  8
ZUWAKU
  6
CONTINUOUS
 62
      32
100
AcDbLine
 10
-554.0
 20
-1337.20543294
 30
0.0
 11
-557.75
 21
-1345.33043294
 31
0.0
  0
LINE
  5
11B
100
AcDbEntity
  8
ZUWAKU
  6
CONTINUOUS
 62
      32
100
AcDbLine
 10
-557.75
 20
-1345.33043294
 30
0.0
 11
-564.0
 21
-1351.58043294
 31
0.0
  0
LINE
  5
11C
100
AcDbEntity
  8
ZUWAKU
  6
CONTINUOUS
 62
      32
100
AcDbLine
 10
-557.75
 20
-1345.33043294
 30
0.0
 11
-564.0
 21
-1351.58043294
 31
0.0
  0
LINE
  5
11D
100
AcDbEntity
  8
ZUWAKU
  6
CONTINUOUS
 62
      32
100
AcDbLine
 10
-564.0
 20
-1351.58043294
 30
0.0
 11
-570.875
 21
-1356.58043294
 31
0.0
  0
LINE
  5
11E
100
AcDbEntity
  8
ZUWAKU
  6
CONTINUOUS
 62
      32
100
AcDbLine
 10
-570.875
 20
-1356.58043294
 30
0.0
 11
-579.0
 21
-1359.08043294
 31
0.0
  0
LINE
  5
11F
100
AcDbEntity
  8
ZUWAKU
  6
CONTINUOUS
 62
      32
100
AcDbLine
 10
-570.875
 20
-1356.58043294
 30
0.0
 11
-579.0
 21
-1359.08043294
 31
0.0
  0
LINE
  5
120
100
AcDbEntity
  8
ZUWAKU
  6
CONTINUOUS
 62
      32
100
AcDbLine
 10
-579.0
 20
-1359.08043294
 30
0.0
 11
-588.375
 21
-1386.58043294
 31
0.0
  0
LINE
  5
121
100
AcDbEntity
  8
ZUWAKU
  6
CONTINUOUS
 62
      32
100
AcDbLine
 10
-588.375
 20
-1386.58043294
 30
0.0
 11
-609.0
 21
-1386.58043294
 31
0.0
  0
LINE
  5
122
100
AcDbEntity
  8
ZUWAKU
  6
CONTINUOUS
 62
      32
100
AcDbLine
 10
-588.375
 20
-1386.58043294
 30
0.0
 11
-609.0
 21
-1386.58043294
 31
0.0
  0
LINE
  5
123
100
AcDbEntity
  8
ZUWAKU
  6
CONTINUOUS
 62
      32
100
AcDbLine
 10
-601.25
 20
-1362.83043294
 30
0.0
 11
-620.25
 21
-1362.83043294
 31
0.0
  0
LINE
  5
124
100
AcDbEntity
  8
ZUWAKU
  6
CONTINUOUS
 62
      32
100
AcDbLine
 10
-620.25
 20
-1362.83043294
 30
0.0
 11
-617.125
 21
-1354.08043294
 31
0.0
  0
LINE
  5
125
100
AcDbEntity
  8
ZUWAKU
  6
CONTINUOUS
 62
      32
100
AcDbLine
 10
-609.0
 20
-1386.58043294
 30
0.0
 11
-600.25
 21
-1362.83043294
 31
0.0
  0
LINE
  5
126
100
AcDbEntity
  8
ZUWAKU
  6
CONTINUOUS
 62
      32
100
AcDbLine
 10
-609.0
 20
-1386.58043294
 30
0.0
 11
-600.25
 21
-1362.83043294
 31
0.0
  0
LINE
  5
127
100
AcDbEntity
  8
ZUWAKU
  6
CONTINUOUS
 62
      32
100
AcDbLine
 10
-617.125
 20
-1354.08043294
 30
0.0
 11
-605.25
 21
-1354.08043294
 31
0.0
  0
LINE
  5
128
100
AcDbEntity
  8
ZUWAKU
  6
CONTINUOUS
 62
      32
100
AcDbLine
 10
-617.125
 20
-1354.08043294
 30
0.0
 11
-605.25
 21
-1354.08043294
 31
0.0
  0
LINE
  5
129
100
AcDbEntity
  8
ZUWAKU
  6
CONTINUOUS
 62
      32
100
AcDbLine
 10
-605.25
 20
-1354.08043294
 30
0.0
 11
-597.125
 21
-1353.45543294
 31
0.0
  0
LINE
  5
12A
100
AcDbEntity
  8
ZUWAKU
  6
CONTINUOUS
 62
      32
100
AcDbLine
 10
-605.25
 20
-1354.08043294
 30
0.0
 11
-597.125
 21
-1353.45543294
 31
0.0
  0
LINE
  5
12B
100
AcDbEntity
  8
ZUWAKU
  6
CONTINUOUS
 62
      32
100
AcDbLine
 10
-597.125
 20
-1353.45543294
 30
0.0
 11
-588.375
 21
-1349.70543294
 31
0.0
  0
LINE
  5
12C
100
AcDbEntity
  8
ZUWAKU
  6
CONTINUOUS
 62
      32
100
AcDbLine
 10
-597.125
 20
-1353.45543294
 30
0.0
 11
-588.375
 21
-1349.70543294
 31
0.0
  0
LINE
  5
12D
100
AcDbEntity
  8
ZUWAKU
  6
CONTINUOUS
 62
      32
100
AcDbLine
 10
-588.375
 20
-1349.70543294
 30
0.0
 11
-582.125
 21
-1344.08043294
 31
0.0
  0
LINE
  5
12E
100
AcDbEntity
  8
ZUWAKU
  6
CONTINUOUS
 62
      32
100
AcDbLine
 10
-588.375
 20
-1349.70543294
 30
0.0
 11
-582.125
 21
-1344.08043294
 31
0.0
  0
LINE
  5
12F
100
AcDbEntity
  8
ZUWAKU
  6
CONTINUOUS
 62
      32
100
AcDbLine
 10
-699.625
 20
-1337.20543294
 30
0.0
 11
-710.875
 21
-1367.20543294
 31
0.0
  0
LINE
  5
130
100
AcDbEntity
  8
ZUWAKU
  6
CONTINUOUS
 62
      32
100
AcDbLine
 10
-710.875
 20
-1367.20543294
 30
0.0
 11
-725.25
 21
-1367.20543294
 31
0.0
  0
LINE
  5
131
100
AcDbEntity
  8
ZUWAKU
  6
CONTINUOUS
 62
      32
100
AcDbLine
 10
-710.875
 20
-1367.20543294
 30
0.0
 11
-725.25
 21
-1367.20543294
 31
0.0
  0
LINE
  5
132
100
AcDbEntity
  8
ZUWAKU
  6
CONTINUOUS
 62
      32
100
AcDbLine
 10
-725.25
 20
-1367.20543294
 30
0.0
 11
-714.625
 21
-1337.20543294
 31
0.0
  0
LINE
  5
133
100
AcDbEntity
  8
ZUWAKU
  6
CONTINUOUS
 62
      32
100
AcDbLine
 10
-714.625
 20
-1337.20543294
 30
0.0
 11
-699.625
 21
-1337.20543294
 31
0.0
  0
LINE
  5
134
100
AcDbEntity
  8
ZUWAKU
  6
CONTINUOUS
 62
      32
100
AcDbLine
 10
-714.625
 20
-1337.20543294
 30
0.0
 11
-699.625
 21
-1337.20543294
 31
0.0
  0
LINE
  5
135
100
AcDbEntity
  8
ZUWAKU
  6
CONTINUOUS
 62
      32
100
AcDbLine
 10
-493.5
 20
-1337.20543294
 30
0.0
 11
-497.25
 21
-1348.45543294
 31
0.0
  0
LINE
  5
136
100
AcDbEntity
  8
ZUWAKU
  6
CONTINUOUS
 62
      32
100
AcDbLine
 10
-497.25
 20
-1348.45543294
 30
0.0
 11
-477.25
 21
-1348.45543294
 31
0.0
  0
LINE
  5
137
100
AcDbEntity
  8
ZUWAKU
  6
CONTINUOUS
 62
      32
100
AcDbLine
 10
-497.25
 20
-1348.45543294
 30
0.0
 11
-477.25
 21
-1348.45543294
 31
0.0
  0
LINE
  5
138
100
AcDbEntity
  8
ZUWAKU
  6
CONTINUOUS
 62
      32
100
AcDbLine
 10
-511.0
 20
-1376.58043294
 30
0.0
 11
-514.75
 21
-1387.20543294
 31
0.0
  0
LINE
  5
139
100
AcDbEntity
  8
ZUWAKU
  6
CONTINUOUS
 62
      32
100
AcDbLine
 10
-511.0
 20
-1376.58043294
 30
0.0
 11
-514.75
 21
-1387.20543294
 31
0.0
  0
LINE
  5
13A
100
AcDbEntity
  8
ZUWAKU
  6
CONTINUOUS
 62
      32
100
AcDbLine
 10
-514.75
 20
-1387.20543294
 30
0.0
 11
-496.0
 21
-1384.08043294
 31
0.0
  0
LINE
  5
13B
100
AcDbEntity
  8
ZUWAKU
  6
CONTINUOUS
 62
      32
100
AcDbLine
 10
-496.0
 20
-1384.08043294
 30
0.0
 11
-487.25
 21
-1381.58043294
 31
0.0
  0
LINE
  5
13C
100
AcDbEntity
  8
ZUWAKU
  6
CONTINUOUS
 62
      32
100
AcDbLine
 10
-496.0
 20
-1384.08043294
 30
0.0
 11
-487.25
 21
-1381.58043294
 31
0.0
  0
LINE
  5
13D
100
AcDbEntity
  8
ZUWAKU
  6
CONTINUOUS
 62
      32
100
AcDbLine
 10
-477.875
 20
-1378.45543294
 30
0.0
 11
-472.875
 21
-1386.58043294
 31
0.0
  0
LINE
  5
13E
100
AcDbEntity
  8
ZUWAKU
  6
CONTINUOUS
 62
      32
100
AcDbLine
 10
-472.875
 20
-1386.58043294
 30
0.0
 11
-457.25
 21
-1386.58043294
 31
0.0
  0
LINE
  5
13F
100
AcDbEntity
  8
ZUWAKU
  6
CONTINUOUS
 62
      32
100
AcDbLine
 10
-472.875
 20
-1386.58043294
 30
0.0
 11
-457.25
 21
-1386.58043294
 31
0.0
  0
LINE
  5
140
100
AcDbEntity
  8
ZUWAKU
  6
CONTINUOUS
 62
      32
100
AcDbLine
 10
-467.875
 20
-1369.08043294
 30
0.0
 11
-462.25
 21
-1361.58043294
 31
0.0
  0
LINE
  5
141
100
AcDbEntity
  8
ZUWAKU
  6
CONTINUOUS
 62
      32
100
AcDbLine
 10
-462.25
 20
-1361.58043294
 30
0.0
 11
-457.25
 21
-1354.08043294
 31
0.0
  0
LINE
  5
142
100
AcDbEntity
  8
ZUWAKU
  6
CONTINUOUS
 62
      32
100
AcDbLine
 10
-457.25
 20
-1354.08043294
 30
0.0
 11
-453.5
 21
-1345.95543294
 31
0.0
  0
LINE
  5
143
100
AcDbEntity
  8
ZUWAKU
  6
CONTINUOUS
 62
      32
100
AcDbLine
 10
-453.5
 20
-1345.95543294
 30
0.0
 11
-451.0
 21
-1337.20543294
 31
0.0
  0
LINE
  5
144
100
AcDbEntity
  8
ZUWAKU
  6
CONTINUOUS
 62
      32
100
AcDbLine
 10
-453.5
 20
-1345.95543294
 30
0.0
 11
-451.0
 21
-1337.20543294
 31
0.0
  0
LINE
  5
145
100
AcDbEntity
  8
ZUWAKU
  6
CONTINUOUS
 62
      32
100
AcDbLine
 10
-451.0
 20
-1337.20543294
 30
0.0
 11
-493.5
 21
-1337.20543294
 31
0.0
  0
LINE
  5
146
100
AcDbEntity
  8
ZUWAKU
  6
CONTINUOUS
 62
      32
100
AcDbLine
 10
-489.125
 20
-1368.45543294
 30
0.0
 11
-499.125
 21
-1374.08043294
 31
0.0
  0
LINE
  5
147
100
AcDbEntity
  8
ZUWAKU
  6
CONTINUOUS
 62
      32
100
AcDbLine
 10
-487.25
 20
-1381.58043294
 30
0.0
 11
-477.875
 21
-1378.45543294
 31
0.0
  0
LINE
  5
148
100
AcDbEntity
  8
ZUWAKU
  6
CONTINUOUS
 62
      32
100
AcDbLine
 10
-487.25
 20
-1381.58043294
 30
0.0
 11
-477.875
 21
-1378.45543294
 31
0.0
  0
LINE
  5
149
100
AcDbEntity
  8
ZUWAKU
  6
CONTINUOUS
 62
      32
100
AcDbLine
 10
-457.25
 20
-1386.58043294
 30
0.0
 11
-467.875
 21
-1369.08043294
 31
0.0
  0
LINE
  5
14A
100
AcDbEntity
  8
ZUWAKU
  6
CONTINUOUS
 62
      32
100
AcDbLine
 10
-457.25
 20
-1386.58043294
 30
0.0
 11
-467.875
 21
-1369.08043294
 31
0.0
  0
LINE
  5
14B
100
AcDbEntity
  8
ZUWAKU
  6
CONTINUOUS
 62
      32
100
AcDbLine
 10
-481.0
 20
-1359.08043294
 30
0.0
 11
-489.125
 21
-1368.45543294
 31
0.0
  0
LINE
  5
14C
100
AcDbEntity
  8
ZUWAKU
  6
CONTINUOUS
 62
      32
100
AcDbLine
 10
-481.0
 20
-1359.08043294
 30
0.0
 11
-489.125
 21
-1368.45543294
 31
0.0
  0
LINE
  5
14D
100
AcDbEntity
  8
ZUWAKU
  6
CONTINUOUS
 62
      32
100
AcDbLine
 10
-605.25
 20
-1354.08043294
 30
0.0
 11
-597.125
 21
-1353.45543294
 31
0.0
  0
LINE
  5
14E
100
AcDbEntity
  8
ZUWAKU
  6
CONTINUOUS
 62
      32
100
AcDbLine
 10
-597.125
 20
-1353.45543294
 30
0.0
 11
-588.375
 21
-1349.70543294
 31
0.0
  0
LINE
  5
14F
100
AcDbEntity
  8
ZUWAKU
  6
CONTINUOUS
 62
      32
100
AcDbLine
 10
-588.375
 20
-1349.70543294
 30
0.0
 11
-582.125
 21
-1344.08043294
 31
0.0
  0
LINE
  5
150
100
AcDbEntity
  8
ZUWAKU
  6
CONTINUOUS
 62
      32
100
AcDbLine
 10
-582.125
 20
-1344.08043294
 30
0.0
 11
-577.125
 21
-1337.20543294
 31
0.0
  0
LINE
  5
151
100
AcDbEntity
  8
ZUWAKU
  6
CONTINUOUS
 62
      32
100
AcDbLine
 10
-534.25
 20
-1386.58043294
 30
0.0
 11
-523.0
 21
-1381.58043294
 31
0.0
  0
LINE
  5
152
100
AcDbEntity
  8
ZUWAKU
  6
CONTINUOUS
 62
      32
100
AcDbLine
 10
-523.0
 20
-1381.58043294
 30
0.0
 11
-513.0
 21
-1372.20543294
 31
0.0
  0
LINE
  5
153
100
AcDbEntity
  8
ZUWAKU
  6
CONTINUOUS
 62
      32
100
AcDbLine
 10
-513.0
 20
-1372.20543294
 30
0.0
 11
-505.5
 21
-1359.70543294
 31
0.0
  0
LINE
  5
154
100
AcDbEntity
  8
ZUWAKU
  6
CONTINUOUS
 62
      32
100
AcDbLine
 10
-505.5
 20
-1359.70543294
 30
0.0
 11
-503.0
 21
-1346.58043294
 31
0.0
  0
LINE
  5
155
100
AcDbEntity
  8
ZUWAKU
  6
CONTINUOUS
 62
      32
100
AcDbLine
 10
-511.0
 20
-1376.58043294
 30
0.0
 11
-499.125
 21
-1374.08043294
 31
0.0
  0
LINE
  5
156
100
AcDbEntity
  8
ZUWAKU
  6
CONTINUOUS
 62
      32
100
AcDbLine
 10
-499.125
 20
-1374.08043294
 30
0.0
 11
-489.125
 21
-1368.45543294
 31
0.0
  0
LINE
  5
157
100
AcDbEntity
  8
ZUWAKU
  6
CONTINUOUS
 62
      32
100
AcDbLine
 10
-489.125
 20
-1368.45543294
 30
0.0
 11
-481.0
 21
-1359.08043294
 31
0.0
  0
LINE
  5
158
100
AcDbEntity
  8
ZUWAKU
  6
CONTINUOUS
 62
      32
100
AcDbLine
 10
-579.0
 20
-1359.08043294
 30
0.0
 11
-570.875
 21
-1356.58043294
 31
0.0
  0
LINE
  5
159
100
AcDbEntity
  8
ZUWAKU
  6
CONTINUOUS
 62
      32
100
AcDbLine
 10
-570.875
 20
-1356.58043294
 30
0.0
 11
-564.0
 21
-1351.58043294
 31
0.0
  0
LINE
  5
15A
100
AcDbEntity
  8
ZUWAKU
  6
CONTINUOUS
 62
      32
100
AcDbLine
 10
-564.0
 20
-1351.58043294
 30
0.0
 11
-557.75
 21
-1345.33043294
 31
0.0
  0
LINE
  5
15B
100
AcDbEntity
  8
ZUWAKU
  6
CONTINUOUS
 62
      32
100
AcDbLine
 10
-557.75
 20
-1345.33043294
 30
0.0
 11
-554.0
 21
-1337.20543294
 31
0.0
  0
LINE
  5
15C
100
AcDbEntity
  8
ZUWAKU
  6
CONTINUOUS
 62
      32
100
AcDbLine
 10
-467.875
 20
-1369.08043294
 30
0.0
 11
-462.25
 21
-1361.58043294
 31
0.0
  0
LINE
  5
15D
100
AcDbEntity
  8
ZUWAKU
  6
CONTINUOUS
 62
      32
100
AcDbLine
 10
-462.25
 20
-1361.58043294
 30
0.0
 11
-457.25
 21
-1354.08043294
 31
0.0
  0
LINE
  5
15E
100
AcDbEntity
  8
ZUWAKU
  6
CONTINUOUS
 62
      32
100
AcDbLine
 10
-457.25
 20
-1354.08043294
 30
0.0
 11
-453.5
 21
-1345.95543294
 31
0.0
  0
LINE
  5
15F
100
AcDbEntity
  8
ZUWAKU
  6
CONTINUOUS
 62
      32
100
AcDbLine
 10
-453.5
 20
-1345.95543294
 30
0.0
 11
-451.0
 21
-1337.20543294
 31
0.0
  0
LINE
  5
160
100
AcDbEntity
  8
ZUWAKU
  6
CONTINUOUS
 62
      32
100
AcDbLine
 10
-496.0
 20
-1384.08043294
 30
0.0
 11
-487.25
 21
-1381.58043294
 31
0.0
  0
LINE
  5
161
100
AcDbEntity
  8
ZUWAKU
  6
CONTINUOUS
 62
      32
100
AcDbLine
 10
-487.25
 20
-1381.58043294
 30
0.0
 11
-477.875
 21
-1378.45543294
 31
0.0
  0
LINE
  5
162
100
AcDbEntity
  8
ZUWAKU
  6
CONTINUOUS
 62
      32
100
AcDbLine
 10
-512.375
 20
-1354.70543294
 30
0.0
 11
-509.25
 21
-1346.58043294
 31
0.0
  0
LINE
  5
163
100
AcDbEntity
  8
ZUWAKU
  6
CONTINUOUS
 62
      32
100
AcDbLine
 10
-509.25
 20
-1346.58043294
 30
0.0
 11
-503.0
 21
-1346.58043294
 31
0.0
  0
LINE
  5
164
100
AcDbEntity
  8
ZUWAKU
  6
CONTINUOUS
 62
      32
100
AcDbLine
 10
-509.25
 20
-1346.58043294
 30
0.0
 11
-503.0
 21
-1346.58043294
 31
0.0
  0
LINE
  5
165
100
AcDbEntity
  8
ZUWAKU
  6
CONTINUOUS
 62
      32
100
AcDbLine
 10
-503.0
 20
-1346.58043294
 30
0.0
 11
-505.5
 21
-1359.70543294
 31
0.0
  0
LINE
  5
166
100
AcDbEntity
  8
ZUWAKU
  6
CONTINUOUS
 62
      32
100
AcDbLine
 10
-505.5
 20
-1359.70543294
 30
0.0
 11
-513.0
 21
-1372.20543294
 31
0.0
  0
LINE
  5
167
100
AcDbEntity
  8
ZUWAKU
  6
CONTINUOUS
 62
      32
100
AcDbLine
 10
-505.5
 20
-1359.70543294
 30
0.0
 11
-513.0
 21
-1372.20543294
 31
0.0
  0
LINE
  5
168
100
AcDbEntity
  8
ZUWAKU
  6
CONTINUOUS
 62
      32
100
AcDbLine
 10
-513.0
 20
-1372.20543294
 30
0.0
 11
-523.0
 21
-1381.58043294
 31
0.0
  0
LINE
  5
169
100
AcDbEntity
  8
ZUWAKU
  6
CONTINUOUS
 62
      32
100
AcDbLine
 10
-535.5
 20
-1386.58043294
 30
0.0
 11
-567.375
 21
-1386.58043294
 31
0.0
  0
LINE
  5
16A
100
AcDbEntity
  8
ZUWAKU
  6
CONTINUOUS
 62
      32
100
AcDbLine
 10
-567.375
 20
-1386.58043294
 30
0.0
 11
-561.75
 21
-1370.95543294
 31
0.0
  0
LINE
  5
16B
100
AcDbEntity
  8
ZUWAKU
  6
CONTINUOUS
 62
      32
100
AcDbLine
 10
-567.375
 20
-1386.58043294
 30
0.0
 11
-561.75
 21
-1370.95543294
 31
0.0
  0
LINE
  5
16C
100
AcDbEntity
  8
ZUWAKU
  6
CONTINUOUS
 62
      32
100
AcDbLine
 10
-517.375
 20
-1361.58043294
 30
0.0
 11
-512.375
 21
-1354.70543294
 31
0.0
  0
LINE
  5
16D
100
AcDbEntity
  8
ZUWAKU
  6
CONTINUOUS
 62
      32
100
AcDbLine
 10
-561.75
 20
-1370.95543294
 30
0.0
 11
-531.75
 21
-1370.95543294
 31
0.0
  0
LINE
  5
16E
100
AcDbEntity
  8
ZUWAKU
  6
CONTINUOUS
 62
      32
100
AcDbLine
 10
-561.75
 20
-1370.95543294
 30
0.0
 11
-531.75
 21
-1370.95543294
 31
0.0
  0
LINE
  5
16F
100
AcDbEntity
  8
ZUWAKU
  6
CONTINUOUS
 62
      32
100
AcDbLine
 10
-531.75
 20
-1370.95543294
 30
0.0
 11
-524.25
 21
-1367.20543294
 31
0.0
  0
LINE
  5
170
100
AcDbEntity
  8
ZUWAKU
  6
CONTINUOUS
 62
      32
100
AcDbLine
 10
-531.75
 20
-1370.95543294
 30
0.0
 11
-524.25
 21
-1367.20543294
 31
0.0
  0
LINE
  5
171
100
AcDbEntity
  8
ZUWAKU
  6
CONTINUOUS
 62
      32
100
AcDbLine
 10
-524.25
 20
-1367.20543294
 30
0.0
 11
-517.375
 21
-1361.58043294
 31
0.0
  0
LINE
  5
172
100
AcDbEntity
  8
ZUWAKU
  6
CONTINUOUS
 62
      32
100
AcDbLine
 10
-623.25
 20
-1354.08043294
 30
0.0
 11
-630.75
 21
-1374.70543294
 31
0.0
  0
LINE
  5
173
100
AcDbEntity
  8
ZUWAKU
  6
CONTINUOUS
 62
      32
100
AcDbLine
 10
-630.75
 20
-1374.70543294
 30
0.0
 11
-635.125
 21
-1379.08043294
 31
0.0
  0
LINE
  5
174
100
AcDbEntity
  8
ZUWAKU
  6
CONTINUOUS
 62
      32
100
AcDbLine
 10
-630.75
 20
-1374.70543294
 30
0.0
 11
-635.125
 21
-1379.08043294
 31
0.0
  0
LINE
  5
175
100
AcDbEntity
  8
ZUWAKU
  6
CONTINUOUS
 62
      32
100
AcDbLine
 10
-635.125
 20
-1379.08043294
 30
0.0
 11
-638.875
 21
-1382.83043294
 31
0.0
  0
LINE
  5
176
100
AcDbEntity
  8
ZUWAKU
  6
CONTINUOUS
 62
      32
100
AcDbLine
 10
-638.875
 20
-1382.83043294
 30
0.0
 11
-643.875
 21
-1385.33043294
 31
0.0
  0
LINE
  5
177
100
AcDbEntity
  8
ZUWAKU
  6
CONTINUOUS
 62
      32
100
AcDbLine
 10
-638.875
 20
-1382.83043294
 30
0.0
 11
-643.875
 21
-1385.33043294
 31
0.0
  0
LINE
  5
178
100
AcDbEntity
  8
ZUWAKU
  6
CONTINUOUS
 62
      32
100
AcDbLine
 10
-643.875
 20
-1385.33043294
 30
0.0
 11
-648.875
 21
-1386.58043294
 31
0.0
  0
LINE
  5
179
100
AcDbEntity
  8
ZUWAKU
  6
CONTINUOUS
 62
      32
100
AcDbLine
 10
-648.875
 20
-1386.58043294
 30
0.0
 11
-680.75
 21
-1386.58043294
 31
0.0
  0
LINE
  5
17A
100
AcDbEntity
  8
ZUWAKU
  6
CONTINUOUS
 62
      32
100
AcDbLine
 10
-648.875
 20
-1386.58043294
 30
0.0
 11
-680.75
 21
-1386.58043294
 31
0.0
  0
LINE
  5
17B
100
AcDbEntity
  8
ZUWAKU
  6
CONTINUOUS
 62
      32
100
AcDbLine
 10
-680.75
 20
-1386.58043294
 30
0.0
 11
-677.0
 21
-1377.20543294
 31
0.0
  0
LINE
  5
17C
100
AcDbEntity
  8
ZUWAKU
  6
CONTINUOUS
 62
      32
100
AcDbLine
 10
-677.0
 20
-1377.20543294
 30
0.0
 11
-656.375
 21
-1377.20543294
 31
0.0
  0
LINE
  5
17D
100
AcDbEntity
  8
ZUWAKU
  6
CONTINUOUS
 62
      32
100
AcDbLine
 10
-677.0
 20
-1377.20543294
 30
0.0
 11
-656.375
 21
-1377.20543294
 31
0.0
  0
LINE
  5
17E
100
AcDbEntity
  8
ZUWAKU
  6
CONTINUOUS
 62
      32
100
AcDbLine
 10
-644.5
 20
-1362.83043294
 30
0.0
 11
-670.75
 21
-1362.83043294
 31
0.0
  0
LINE
  5
17F
100
AcDbEntity
  8
ZUWAKU
  6
CONTINUOUS
 62
      32
100
AcDbLine
 10
-670.75
 20
-1362.83043294
 30
0.0
 11
-668.25
 21
-1354.08043294
 31
0.0
  0
LINE
  5
180
100
AcDbEntity
  8
ZUWAKU
  6
CONTINUOUS
 62
      32
100
AcDbLine
 10
-670.75
 20
-1362.83043294
 30
0.0
 11
-668.25
 21
-1354.08043294
 31
0.0
  0
LINE
  5
181
100
AcDbEntity
  8
ZUWAKU
  6
CONTINUOUS
 62
      32
100
AcDbLine
 10
-656.375
 20
-1377.20543294
 30
0.0
 11
-652.0
 21
-1374.08043294
 31
0.0
  0
LINE
  5
182
100
AcDbEntity
  8
ZUWAKU
  6
CONTINUOUS
 62
      32
100
AcDbLine
 10
-656.375
 20
-1377.20543294
 30
0.0
 11
-652.0
 21
-1374.08043294
 31
0.0
  0
LINE
  5
183
100
AcDbEntity
  8
ZUWAKU
  6
CONTINUOUS
 62
      32
100
AcDbLine
 10
-652.0
 20
-1374.08043294
 30
0.0
 11
-648.875
 21
-1370.95543294
 31
0.0
  0
LINE
  5
184
100
AcDbEntity
  8
ZUWAKU
  6
CONTINUOUS
 62
      32
100
AcDbLine
 10
-652.0
 20
-1374.08043294
 30
0.0
 11
-648.875
 21
-1370.95543294
 31
0.0
  0
LINE
  5
185
100
AcDbEntity
  8
ZUWAKU
  6
CONTINUOUS
 62
      32
100
AcDbLine
 10
-648.875
 20
-1370.95543294
 30
0.0
 11
-645.75
 21
-1367.20543294
 31
0.0
  0
LINE
  5
186
100
AcDbEntity
  8
ZUWAKU
  6
CONTINUOUS
 62
      32
100
AcDbLine
 10
-648.875
 20
-1370.95543294
 30
0.0
 11
-645.75
 21
-1367.20543294
 31
0.0
  0
LINE
  5
187
100
AcDbEntity
  8
ZUWAKU
  6
CONTINUOUS
 62
      32
100
AcDbLine
 10
-645.75
 20
-1367.20543294
 30
0.0
 11
-644.5
 21
-1362.83043294
 31
0.0
  0
LINE
  5
188
100
AcDbEntity
  8
ZUWAKU
  6
CONTINUOUS
 62
      32
100
AcDbLine
 10
-645.75
 20
-1367.20543294
 30
0.0
 11
-644.5
 21
-1362.83043294
 31
0.0
  0
LINE
  5
189
100
AcDbEntity
  8
ZUWAKU
  6
CONTINUOUS
 62
      32
100
AcDbLine
 10
-685.125
 20
-1337.20543294
 30
0.0
 11
-671.37996263
 21
-1337.20543294
 31
0.0
  0
LINE
  5
18A
100
AcDbEntity
  8
ZUWAKU
  6
CONTINUOUS
 62
      32
100
AcDbLine
 10
-682.75
 20
-1374.08043294
 30
0.0
 11
-687.75
 21
-1379.08043294
 31
0.0
  0
LINE
  5
18B
100
AcDbEntity
  8
ZUWAKU
  6
CONTINUOUS
 62
      32
100
AcDbLine
 10
-687.75
 20
-1379.08043294
 30
0.0
 11
-692.75
 21
-1383.45543294
 31
0.0
  0
LINE
  5
18C
100
AcDbEntity
  8
ZUWAKU
  6
CONTINUOUS
 62
      32
100
AcDbLine
 10
-687.75
 20
-1379.08043294
 30
0.0
 11
-692.75
 21
-1383.45543294
 31
0.0
  0
LINE
  5
18D
100
AcDbEntity
  8
ZUWAKU
  6
CONTINUOUS
 62
      32
100
AcDbLine
 10
-692.75
 20
-1383.45543294
 30
0.0
 11
-699.0
 21
-1385.95543294
 31
0.0
  0
LINE
  5
18E
100
AcDbEntity
  8
ZUWAKU
  6
CONTINUOUS
 62
      32
100
AcDbLine
 10
-699.0
 20
-1385.95543294
 30
0.0
 11
-705.25
 21
-1386.58043294
 31
0.0
  0
LINE
  5
18F
100
AcDbEntity
  8
ZUWAKU
  6
CONTINUOUS
 62
      32
100
AcDbLine
 10
-705.25
 20
-1386.58043294
 30
0.0
 11
-720.875
 21
-1386.58043294
 31
0.0
  0
LINE
  5
190
100
AcDbEntity
  8
ZUWAKU
  6
CONTINUOUS
 62
      32
100
AcDbLine
 10
-720.875
 20
-1386.58043294
 30
0.0
 11
-717.75
 21
-1377.20543294
 31
0.0
  0
LINE
  5
191
100
AcDbEntity
  8
ZUWAKU
  6
CONTINUOUS
 62
      32
100
AcDbLine
 10
-720.875
 20
-1386.58043294
 30
0.0
 11
-717.75
 21
-1377.20543294
 31
0.0
  0
LINE
  5
192
100
AcDbEntity
  8
ZUWAKU
  6
CONTINUOUS
 62
      32
100
AcDbLine
 10
-699.0
 20
-1369.08043294
 30
0.0
 11
-687.125
 21
-1337.20543294
 31
0.0
  0
LINE
  5
193
100
AcDbEntity
  8
ZUWAKU
  6
CONTINUOUS
 62
      32
100
AcDbLine
 10
-717.75
 20
-1377.20543294
 30
0.0
 11
-712.125
 21
-1377.20543294
 31
0.0
  0
LINE
  5
194
100
AcDbEntity
  8
ZUWAKU
  6
CONTINUOUS
 62
      32
100
AcDbLine
 10
-717.75
 20
-1377.20543294
 30
0.0
 11
-712.125
 21
-1377.20543294
 31
0.0
  0
LINE
  5
195
100
AcDbEntity
  8
ZUWAKU
  6
CONTINUOUS
 62
      32
100
AcDbLine
 10
-702.125
 20
-1374.08043294
 30
0.0
 11
-699.0
 21
-1369.08043294
 31
0.0
  0
LINE
  5
196
100
AcDbEntity
  8
ZUWAKU
  6
CONTINUOUS
 62
      32
100
AcDbLine
 10
-707.125
 20
-1376.58043294
 30
0.0
 11
-702.125
 21
-1374.08043294
 31
0.0
  0
LINE
  5
197
100
AcDbEntity
  8
ZUWAKU
  6
CONTINUOUS
 62
      32
100
AcDbLine
 10
-712.125
 20
-1377.20543294
 30
0.0
 11
-707.125
 21
-1376.58043294
 31
0.0
  0
LINE
  5
198
100
AcDbEntity
  8
ZUWAKU
  6
CONTINUOUS
 62
      32
100
AcDbLine
 10
-712.125
 20
-1377.20543294
 30
0.0
 11
-707.125
 21
-1376.58043294
 31
0.0
  0
LINE
  5
199
100
AcDbEntity
  8
ZUWAKU
  6
CONTINUOUS
 62
      32
100
AcDbLine
 10
-549.25
 20
-1337.20543294
 30
0.0
 11
-529.25
 21
-1337.20543294
 31
0.0
  0
LINE
  5
19A
100
AcDbEntity
  8
ZUWAKU
  6
CONTINUOUS
 62
      32
100
AcDbLine
 10
-529.25
 20
-1337.20543294
 30
0.0
 11
-533.0
 21
-1348.45543294
 31
0.0
  0
LINE
  5
19B
100
AcDbEntity
  8
ZUWAKU
  6
CONTINUOUS
 62
      32
100
AcDbLine
 10
-529.25
 20
-1337.20543294
 30
0.0
 11
-533.0
 21
-1348.45543294
 31
0.0
  0
LINE
  5
19C
100
AcDbEntity
  8
ZUWAKU
  6
CONTINUOUS
 62
      32
100
AcDbLine
 10
-534.0
 20
-1348.45543294
 30
0.0
 11
-553.625
 21
-1348.45543294
 31
0.0
  0
LINE
  5
19D
100
AcDbEntity
  8
ZUWAKU
  6
CONTINUOUS
 62
      32
100
AcDbLine
 10
-475.17574359
 20
-1348.3722882
 30
0.0
 11
-481.0
 21
-1359.08043294
 31
0.0
  0
LINE
  5
19E
100
AcDbEntity
  8
ZUWAKU
  6
CONTINUOUS
 62
      32
100
AcDbLine
 10
-457.875
 20
-1337.20543294
 30
0.0
 11
-489.125
 21
-1368.45543294
 31
0.0
  0
LINE
  5
19F
100
AcDbEntity
  8
ZUWAKU
  6
CONTINUOUS
 62
      32
100
AcDbLine
 10
-489.125
 20
-1368.45543294
 30
0.0
 11
-506.5
 21
-1385.83043294
 31
0.0
  0
LINE
  5
1A0
100
AcDbEntity
  8
ZUWAKU
  6
CONTINUOUS
 62
      32
100
AcDbLine
 10
-460.70342712
 20
-1337.20543294
 30
0.0
 11
-479.11765469
 21
-1355.6196605
 31
0.0
  0
LINE
  5
1A1
100
AcDbEntity
  8
ZUWAKU
  6
CONTINUOUS
 62
      32
100
AcDbLine
 10
-495.58997629
 20
-1372.0919821
 30
0.0
 11
-509.89411255
 21
-1386.39611836
 31
0.0
  0
LINE
  5
1A2
100
AcDbEntity
  8
ZUWAKU
  6
CONTINUOUS
 62
      32
100
AcDbLine
 10
-463.53185425
 20
-1337.20543294
 30
0.0
 11
-475.74462818
 21
-1349.41820687
 31
0.0
  0
LINE
  5
1A3
100
AcDbEntity
  8
ZUWAKU
  6
CONTINUOUS
 62
      32
100
AcDbLine
 10
-500.74868205
 20
-1374.42226074
 30
0.0
 11
-513.2882251
 21
-1386.96180379
 31
0.0
  0
LINE
  5
1A4
100
AcDbEntity
  8
ZUWAKU
  6
CONTINUOUS
 62
      32
100
AcDbLine
 10
-466.36028137
 20
-1337.20543294
 30
0.0
 11
-477.61028137
 21
-1348.45543294
 31
0.0
  0
LINE
  5
1A5
100
AcDbEntity
  8
ZUWAKU
  6
CONTINUOUS
 62
      32
100
AcDbLine
 10
-504.33135641
 20
-1375.17650797
 30
0.0
 11
-513.8716647
 21
-1384.71681627
 31
0.0
  0
LINE
  5
1A6
100
AcDbEntity
  8
ZUWAKU
  6
CONTINUOUS
 62
      32
100
AcDbLine
 10
-469.1887085
 20
-1337.20543294
 30
0.0
 11
-480.4387085
 21
-1348.45543294
 31
0.0
  0
LINE
  5
1A7
100
AcDbEntity
  8
ZUWAKU
  6
CONTINUOUS
 62
      32
100
AcDbLine
 10
-507.91403077
 20
-1375.9307552
 30
0.0
 11
-512.32888627
 21
-1380.34561071
 31
0.0
  0
LINE
  5
1A8
100
AcDbEntity
  8
ZUWAKU
  6
CONTINUOUS
 62
      32
100
AcDbLine
 10
-472.01713562
 20
-1337.20543294
 30
0.0
 11
-483.26713562
 21
-1348.45543294
 31
0.0
  0
LINE
  5
1A9
100
AcDbEntity
  8
ZUWAKU
  6
CONTINUOUS
 62
      32
100
AcDbLine
 10
-474.84556275
 20
-1337.20543294
 30
0.0
 11
-486.09556275
 21
-1348.45543294
 31
0.0
  0
LINE
  5
1AA
100
AcDbEntity
  8
ZUWAKU
  6
CONTINUOUS
 62
      32
100
AcDbLine
 10
-477.67398987
 20
-1337.20543294
 30
0.0
 11
-488.92398987
 21
-1348.45543294
 31
0.0
  0
LINE
  5
1AB
100
AcDbEntity
  8
ZUWAKU
  6
CONTINUOUS
 62
      32
100
AcDbLine
 10
-480.502417
 20
-1337.20543294
 30
0.0
 11
-491.752417
 21
-1348.45543294
 31
0.0
  0
LINE
  5
1AC
100
AcDbEntity
  8
ZUWAKU
  6
CONTINUOUS
 62
      32
100
AcDbLine
 10
-483.33084412
 20
-1337.20543294
 30
0.0
 11
-494.58084412
 21
-1348.45543294
 31
0.0
  0
LINE
  5
1AD
100
AcDbEntity
  8
ZUWAKU
  6
CONTINUOUS
 62
      32
100
AcDbLine
 10
-486.15927125
 20
-1337.20543294
 30
0.0
 11
-497.17036438
 21
-1348.21652607
 31
0.0
  0
LINE
  5
1AE
100
AcDbEntity
  8
ZUWAKU
  6
CONTINUOUS
 62
      32
100
AcDbLine
 10
-488.98769837
 20
-1337.20543294
 30
0.0
 11
-495.75615081
 21
-1343.97388538
 31
0.0
  0
LINE
  5
1AF
100
AcDbEntity
  8
ZUWAKU
  6
CONTINUOUS
 62
      32
100
AcDbLine
 10
-491.8161255
 20
-1337.20543294
 30
0.0
 11
-494.34193725
 21
-1339.73124469
 31
0.0
  0
LINE
  5
1B0
100
AcDbEntity
  8
ZUWAKU
  6
CONTINUOUS
 62
      32
100
AcDbLine
 10
-455.04657288
 20
-1337.20543294
 30
0.0
 11
-503.10588745
 21
-1385.26474751
 31
0.0
  0
LINE
  5
1B1
100
AcDbEntity
  8
ZUWAKU
  6
CONTINUOUS
 62
      32
100
AcDbLine
 10
-452.21814575
 20
-1337.20543294
 30
0.0
 11
-499.7117749
 21
-1384.69906209
 31
0.0
  0
LINE
  5
1B2
100
AcDbEntity
  8
ZUWAKU
  6
CONTINUOUS
 62
      32
100
AcDbLine
 10
-451.64411255
 20
-1339.45982686
 30
0.0
 11
-496.31766235
 21
-1384.13337666
 31
0.0
  0
LINE
  5
1B3
100
AcDbEntity
  8
ZUWAKU
  6
CONTINUOUS
 62
      32
100
AcDbLine
 10
-452.7754834
 20
-1343.41962484
 30
0.0
 11
-492.4108081
 21
-1383.05494954
 31
0.0
  0
LINE
  5
1B4
100
AcDbEntity
  8
ZUWAKU
  6
CONTINUOUS
 62
      32
100
AcDbLine
 10
-454.37183053
 20
-1347.8443991
 30
0.0
 11
-488.45101013
 21
-1381.92357869
 31
0.0
  0
LINE
  5
1B5
100
AcDbEntity
  8
ZUWAKU
  6
CONTINUOUS
 62
      32
100
AcDbLine
 10
-456.79619664
 20
-1353.09719233
 30
0.0
 11
-484.29415588
 21
-1380.59515156
 31
0.0
  0
LINE
  5
1B6
100
AcDbEntity
  8
ZUWAKU
  6
CONTINUOUS
 62
      32
100
AcDbLine
 10
-461.84797975
 20
-1360.97740256
 30
0.0
 11
-480.05151519
 21
-1379.180938
 31
0.0
  0
LINE
  5
1B7
100
AcDbEntity
  8
ZUWAKU
  6
CONTINUOUS
 62
      32
100
AcDbLine
 10
-467.59075358
 20
-1369.54860351
 30
0.0
 11
-477.35026972
 21
-1379.30811965
 31
0.0
  0
LINE
  5
1B8
100
AcDbEntity
  8
ZUWAKU
  6
CONTINUOUS
 62
      32
100
AcDbLine
 10
-466.52223666
 20
-1371.30851372
 30
0.0
 11
-476.27277367
 21
-1381.05905073
 31
0.0
  0
LINE
  5
1B9
100
AcDbEntity
  8
ZUWAKU
  6
CONTINUOUS
 62
      32
100
AcDbLine
 10
-465.45371975
 20
-1373.06842394
 30
0.0
 11
-475.19527762
 21
-1382.8099818
 31
0.0
  0
LINE
  5
1BA
100
AcDbEntity
  8
ZUWAKU
  6
CONTINUOUS
 62
      32
100
AcDbLine
 10
-464.38520284
 20
-1374.82833415
 30
0.0
 11
-474.11778157
 21
-1384.56091288
 31
0.0
  0
LINE
  5
1BB
100
AcDbEntity
  8
ZUWAKU
  6
CONTINUOUS
 62
      32
100
AcDbLine
 10
-463.31668592
 20
-1376.58824436
 30
0.0
 11
-473.04028552
 21
-1386.31184396
 31
0.0
  0
LINE
  5
1BC
100
AcDbEntity
  8
ZUWAKU
  6
CONTINUOUS
 62
      32
100
AcDbLine
 10
-462.24816901
 20
-1378.34815457
 30
0.0
 11
-470.48044738
 21
-1386.58043294
 31
0.0
  0
LINE
  5
1BD
100
AcDbEntity
  8
ZUWAKU
  6
CONTINUOUS
 62
      32
100
AcDbLine
 10
-461.1796521
 20
-1380.10806478
 30
0.0
 11
-467.65202025
 21
-1386.58043294
 31
0.0
  0
LINE
  5
1BE
100
AcDbEntity
  8
ZUWAKU
  6
CONTINUOUS
 62
      32
100
AcDbLine
 10
-460.11113518
 20
-1381.86797499
 30
0.0
 11
-464.82359313
 21
-1386.58043294
 31
0.0
  0
LINE
  5
1BF
100
AcDbEntity
  8
ZUWAKU
  6
CONTINUOUS
 62
      32
100
AcDbLine
 10
-459.04261827
 20
-1383.6278852
 30
0.0
 11
-461.995166
 21
-1386.58043294
 31
0.0
  0
LINE
  5
1C0
100
AcDbEntity
  8
ZUWAKU
  6
CONTINUOUS
 62
      32
100
AcDbLine
 10
-457.97410135
 20
-1385.38779541
 30
0.0
 11
-459.16673888
 21
-1386.58043294
 31
0.0
  0
LINE
  5
1C1
100
AcDbEntity
  8
ZUWAKU
  6
CONTINUOUS
 62
      32
100
AcDbLine
 10
-535.8125
 20
-1337.20543294
 30
0.0
 11
-547.0625
 21
-1348.45543294
 31
0.0
  0
LINE
  5
1C2
100
AcDbEntity
  8
ZUWAKU
  6
CONTINUOUS
 62
      32
100
AcDbLine
 10
-538.64092712
 20
-1337.20543294
 30
0.0
 11
-549.89092712
 21
-1348.45543294
 31
0.0
  0
LINE
  5
1C3
100
AcDbEntity
  8
ZUWAKU
  6
CONTINUOUS
 62
      32
100
AcDbLine
 10
-541.46935425
 20
-1337.20543294
 30
0.0
 11
-552.71935425
 21
-1348.45543294
 31
0.0
  0
LINE
  5
1C4
100
AcDbEntity
  8
ZUWAKU
  6
CONTINUOUS
 62
      32
100
AcDbLine
 10
-544.29778137
 20
-1337.20543294
 30
0.0
 11
-552.40141185
 21
-1345.30906342
 31
0.0
  0
LINE
  5
1C5
100
AcDbEntity
  8
ZUWAKU
  6
CONTINUOUS
 62
      32
100
AcDbLine
 10
-547.1262085
 20
-1337.20543294
 30
0.0
 11
-550.60150368
 21
-1340.68072812
 31
0.0
  0
LINE
  5
1C6
100
AcDbEntity
  8
ZUWAKU
  6
CONTINUOUS
 62
      32
100
AcDbLine
 10
-532.98407288
 20
-1337.20543294
 30
0.0
 11
-544.23407288
 21
-1348.45543294
 31
0.0
  0
LINE
  5
1C7
100
AcDbEntity
  8
ZUWAKU
  6
CONTINUOUS
 62
      32
100
AcDbLine
 10
-530.15564575
 20
-1337.20543294
 30
0.0
 11
-541.40564575
 21
-1348.45543294
 31
0.0
  0
LINE
  5
1C8
100
AcDbEntity
  8
ZUWAKU
  6
CONTINUOUS
 62
      32
100
AcDbLine
 10
-530.21139069
 20
-1340.089605
 30
0.0
 11
-538.57721863
 21
-1348.45543294
 31
0.0
  0
LINE
  5
1C9
100
AcDbEntity
  8
ZUWAKU
  6
CONTINUOUS
 62
      32
100
AcDbLine
 10
-531.62560425
 20
-1344.33224569
 30
0.0
 11
-535.7487915
 21
-1348.45543294
 31
0.0
  0
LINE
  5
1CA
100
AcDbEntity
  8
ZUWAKU
  6
CONTINUOUS
 62
      32
100
AcDbLine
 10
-532.92036438
 20
-1348.45543294
 30
0.0
 11
-533.03981781
 21
-1348.57488637
 31
0.0
  0
LINE
  5
1CB
100
AcDbEntity
  8
ZUWAKU
  6
CONTINUOUS
 62
      32
100
AcDbLine
 10
-539.5625
 20
-1370.95543294
 30
0.0
 11
-555.1875
 21
-1386.58043294
 31
0.0
  0
LINE
  5
1CC
100
AcDbEntity
  8
ZUWAKU
  6
CONTINUOUS
 62
      32
100
AcDbLine
 10
-542.39092712
 20
-1370.95543294
 30
0.0
 11
-558.01592712
 21
-1386.58043294
 31
0.0
  0
LINE
  5
1CD
100
AcDbEntity
  8
ZUWAKU
  6
CONTINUOUS
 62
      32
100
AcDbLine
 10
-545.21935425
 20
-1370.95543294
 30
0.0
 11
-560.84435425
 21
-1386.58043294
 31
0.0
  0
LINE
  5
1CE
100
AcDbEntity
  8
ZUWAKU
  6
CONTINUOUS
 62
      32
100
AcDbLine
 10
-548.04778137
 20
-1370.95543294
 30
0.0
 11
-563.67278137
 21
-1386.58043294
 31
0.0
  0
LINE
  5
1CF
100
AcDbEntity
  8
ZUWAKU
  6
CONTINUOUS
 62
      32
100
AcDbLine
 10
-550.8762085
 20
-1370.95543294
 30
0.0
 11
-566.5012085
 21
-1386.58043294
 31
0.0
  0
LINE
  5
1D0
100
AcDbEntity
  8
ZUWAKU
  6
CONTINUOUS
 62
      32
100
AcDbLine
 10
-553.70463562
 20
-1370.95543294
 30
0.0
 11
-566.27551746
 21
-1383.52631478
 31
0.0
  0
LINE
  5
1D1
100
AcDbEntity
  8
ZUWAKU
  6
CONTINUOUS
 62
      32
100
AcDbLine
 10
-556.53306275
 20
-1370.95543294
 30
0.0
 11
-564.6845272
 21
-1379.10689739
 31
0.0
  0
LINE
  5
1D2
100
AcDbEntity
  8
ZUWAKU
  6
CONTINUOUS
 62
      32
100
AcDbLine
 10
-559.36148987
 20
-1370.95543294
 30
0.0
 11
-563.09353695
 21
-1374.68748001
 31
0.0
  0
LINE
  5
1D3
100
AcDbEntity
  8
ZUWAKU
  6
CONTINUOUS
 62
      32
100
AcDbLine
 10
-536.73407288
 20
-1370.95543294
 30
0.0
 11
-552.35907288
 21
-1386.58043294
 31
0.0
  0
LINE
  5
1D4
100
AcDbEntity
  8
ZUWAKU
  6
CONTINUOUS
 62
      32
100
AcDbLine
 10
-533.90564575
 20
-1370.95543294
 30
0.0
 11
-549.53064575
 21
-1386.58043294
 31
0.0
  0
LINE
  5
1D5
100
AcDbEntity
  8
ZUWAKU
  6
CONTINUOUS
 62
      32
100
AcDbLine
 10
-506.70221863
 20
-1346.58043294
 30
0.0
 11
-510.84236336
 21
-1350.72057767
 31
0.0
  0
LINE
  5
1D6
100
AcDbEntity
  8
ZUWAKU
  6
CONTINUOUS
 62
      32
100
AcDbLine
 10
-530.40443725
 20
-1370.28265156
 30
0.0
 11
-546.70221863
 21
-1386.58043294
 31
0.0
  0
LINE
  5
1D7
100
AcDbEntity
  8
ZUWAKU
  6
CONTINUOUS
 62
      32
100
AcDbLine
 10
-503.8737915
 20
-1346.58043294
 30
0.0
 11
-513.37822266
 21
-1356.0848641
 31
0.0
  0
LINE
  5
1D8
100
AcDbEntity
  8
ZUWAKU
  6
CONTINUOUS
 62
      32
100
AcDbLine
 10
-524.747583
 20
-1367.45422444
 30
0.0
 11
-543.8737915
 21
-1386.58043294
 31
0.0
  0
LINE
  5
1D9
100
AcDbEntity
  8
ZUWAKU
  6
CONTINUOUS
 62
      32
100
AcDbLine
 10
-503.45991426
 20
-1348.99498283
 30
0.0
 11
-541.04536438
 21
-1386.58043294
 31
0.0
  0
LINE
  5
1DA
100
AcDbEntity
  8
ZUWAKU
  6
CONTINUOUS
 62
      32
100
AcDbLine
 10
-504.12542653
 20
-1352.48892221
 30
0.0
 11
-538.21693725
 21
-1386.58043294
 31
0.0
  0
LINE
  5
1DB
100
AcDbEntity
  8
ZUWAKU
  6
CONTINUOUS
 62
      32
100
AcDbLine
 10
-504.79093879
 20
-1355.9828616
 30
0.0
 11
-535.38851013
 21
-1386.58043294
 31
0.0
  0
LINE
  5
1DC
100
AcDbEntity
  8
ZUWAKU
  6
CONTINUOUS
 62
      32
100
AcDbLine
 10
-505.45645106
 20
-1359.47680099
 30
0.0
 11
-531.2081494
 21
-1385.22849934
 31
0.0
  0
LINE
  5
1DD
100
AcDbEntity
  8
ZUWAKU
  6
CONTINUOUS
 62
      32
100
AcDbLine
 10
-509.46501618
 20
-1366.31379324
 30
0.0
 11
-526.11698058
 21
-1382.96575764
 31
0.0
  0
LINE
  5
1DE
100
AcDbEntity
  8
ZUWAKU
  6
CONTINUOUS
 62
      32
100
AcDbLine
 10
-562.4375
 20
-1337.20543294
 30
0.0
 11
-607.359375
 21
-1382.12730794
 31
0.0
  0
LINE
  5
1DF
100
AcDbEntity
  8
ZUWAKU
  6
CONTINUOUS
 62
      32
100
AcDbLine
 10
-565.26592712
 20
-1337.20543294
 30
0.0
 11
-605.70945918
 21
-1377.64896499
 31
0.0
  0
LINE
  5
1E0
100
AcDbEntity
  8
ZUWAKU
  6
CONTINUOUS
 62
      32
100
AcDbLine
 10
-568.09435425
 20
-1337.20543294
 30
0.0
 11
-604.05954335
 21
-1373.17062204
 31
0.0
  0
LINE
  5
1E1
100
AcDbEntity
  8
ZUWAKU
  6
CONTINUOUS
 62
      32
100
AcDbLine
 10
-570.92278137
 20
-1337.20543294
 30
0.0
 11
-602.40962753
 21
-1368.69227909
 31
0.0
  0
LINE
  5
1E2
100
AcDbEntity
  8
ZUWAKU
  6
CONTINUOUS
 62
      32
100
AcDbLine
 10
-573.7512085
 20
-1337.20543294
 30
0.0
 11
-600.75971171
 21
-1364.21393615
 31
0.0
  0
LINE
  5
1E3
100
AcDbEntity
  8
ZUWAKU
  6
CONTINUOUS
 62
      32
100
AcDbLine
 10
-576.57963562
 20
-1337.20543294
 30
0.0
 11
-578.579305
 21
-1339.20510232
 31
0.0
  0
LINE
  5
1E4
100
AcDbEntity
  8
ZUWAKU
  6
CONTINUOUS
 62
      32
100
AcDbLine
 10
-589.60811234
 20
-1350.23390965
 30
0.0
 11
-602.20463562
 21
-1362.83043294
 31
0.0
  0
LINE
  5
1E5
100
AcDbEntity
  8
ZUWAKU
  6
CONTINUOUS
 62
      32
100
AcDbLine
 10
-594.55785981
 20
-1352.35523
 30
0.0
 11
-605.03306275
 21
-1362.83043294
 31
0.0
  0
LINE
  5
1E6
100
AcDbEntity
  8
ZUWAKU
  6
CONTINUOUS
 62
      32
100
AcDbLine
 10
-598.59994736
 20
-1353.56889043
 30
0.0
 11
-607.86148987
 21
-1362.83043294
 31
0.0
  0
LINE
  5
1E7
100
AcDbEntity
  8
ZUWAKU
  6
CONTINUOUS
 62
      32
100
AcDbLine
 10
-601.66407675
 20
-1353.80459269
 30
0.0
 11
-610.689917
 21
-1362.83043294
 31
0.0
  0
LINE
  5
1E8
100
AcDbEntity
  8
ZUWAKU
  6
CONTINUOUS
 62
      32
100
AcDbLine
 10
-604.72820613
 20
-1354.04029495
 30
0.0
 11
-613.51834412
 21
-1362.83043294
 31
0.0
  0
LINE
  5
1E9
100
AcDbEntity
  8
ZUWAKU
  6
CONTINUOUS
 62
      32
100
AcDbLine
 10
-607.59677125
 20
-1354.08043294
 30
0.0
 11
-616.34677125
 21
-1362.83043294
 31
0.0
  0
LINE
  5
1EA
100
AcDbEntity
  8
ZUWAKU
  6
CONTINUOUS
 62
      32
100
AcDbLine
 10
-610.42519837
 20
-1354.08043294
 30
0.0
 11
-619.17519837
 21
-1362.83043294
 31
0.0
  0
LINE
  5
1EB
100
AcDbEntity
  8
ZUWAKU
  6
CONTINUOUS
 62
      32
100
AcDbLine
 10
-613.2536255
 20
-1354.08043294
 30
0.0
 11
-619.27576361
 21
-1360.10257105
 31
0.0
  0
LINE
  5
1EC
100
AcDbEntity
  8
ZUWAKU
  6
CONTINUOUS
 62
      32
100
AcDbLine
 10
-616.08205262
 20
-1354.08043294
 30
0.0
 11
-617.70441521
 21
-1355.70279553
 31
0.0
  0
LINE
  5
1ED
100
AcDbEntity
  8
ZUWAKU
  6
CONTINUOUS
 62
      32
100
AcDbLine
 10
-559.60907288
 20
-1337.20543294
 30
0.0
 11
-609.00929082
 21
-1386.60565088
 31
0.0
  0
LINE
  5
1EE
100
AcDbEntity
  8
ZUWAKU
  6
CONTINUOUS
 62
      32
100
AcDbLine
 10
-556.78064575
 20
-1337.20543294
 30
0.0
 11
-578.50259942
 21
-1358.9273866
 31
0.0
  0
LINE
  5
1EF
100
AcDbEntity
  8
ZUWAKU
  6
CONTINUOUS
 62
      32
100
AcDbLine
 10
-579.17811427
 20
-1359.60290145
 30
0.0
 11
-606.15564575
 21
-1386.58043294
 31
0.0
  0
LINE
  5
1F0
100
AcDbEntity
  8
ZUWAKU
  6
CONTINUOUS
 62
      32
100
AcDbLine
 10
-553.95221863
 20
-1337.20543294
 30
0.0
 11
-574.41709357
 21
-1357.67030788
 31
0.0
  0
LINE
  5
1F1
100
AcDbEntity
  8
ZUWAKU
  6
CONTINUOUS
 62
      32
100
AcDbLine
 10
-580.64109381
 20
-1363.89430813
 30
0.0
 11
-603.32721863
 21
-1386.58043294
 31
0.0
  0
LINE
  5
1F2
100
AcDbEntity
  8
ZUWAKU
  6
CONTINUOUS
 62
      32
100
AcDbLine
 10
-556.46532157
 20
-1342.54696301
 30
0.0
 11
-569.49556884
 21
-1355.57721027
 31
0.0
  0
LINE
  5
1F3
100
AcDbEntity
  8
ZUWAKU
  6
CONTINUOUS
 62
      32
100
AcDbLine
 10
-582.10407336
 20
-1368.1857148
 30
0.0
 11
-600.4987915
 21
-1386.58043294
 31
0.0
  0
LINE
  5
1F4
100
AcDbEntity
  8
ZUWAKU
  6
CONTINUOUS
 62
      32
100
AcDbLine
 10
-583.56705291
 20
-1372.47712147
 30
0.0
 11
-597.67036438
 21
-1386.58043294
 31
0.0
  0
LINE
  5
1F5
100
AcDbEntity
  8
ZUWAKU
  6
CONTINUOUS
 62
      32
100
AcDbLine
 10
-585.03003246
 20
-1376.76852814
 30
0.0
 11
-594.84193725
 21
-1386.58043294
 31
0.0
  0
LINE
  5
1F6
100
AcDbEntity
  8
ZUWAKU
  6
CONTINUOUS
 62
      32
100
AcDbLine
 10
-586.493012
 20
-1381.05993481
 30
0.0
 11
-592.01351013
 21
-1386.58043294
 31
0.0
  0
LINE
  5
1F7
100
AcDbEntity
  8
ZUWAKU
  6
CONTINUOUS
 62
      32
100
AcDbLine
 10
-587.95599155
 20
-1385.35134149
 30
0.0
 11
-589.185083
 21
-1386.58043294
 31
0.0
  0
LINE
  5
1F8
100
AcDbEntity
  8
ZUWAKU
  6
CONTINUOUS
 62
      32
100
AcDbLine
 10
-636.6875
 20
-1337.20543294
 30
0.0
 11
-647.9375
 21
-1348.45543294
 31
0.0
  0
LINE
  5
1F9
100
AcDbEntity
  8
ZUWAKU
  6
CONTINUOUS
 62
      32
100
AcDbLine
 10
-639.51592712
 20
-1337.20543294
 30
0.0
 11
-650.76592712
 21
-1348.45543294
 31
0.0
  0
LINE
  5
1FA
100
AcDbEntity
  8
ZUWAKU
  6
CONTINUOUS
 62
      32
100
AcDbLine
 10
-642.34435425
 20
-1337.20543294
 30
0.0
 11
-653.59435425
 21
-1348.45543294
 31
0.0
  0
LINE
  5
1FB
100
AcDbEntity
  8
ZUWAKU
  6
CONTINUOUS
 62
      32
100
AcDbLine
 10
-645.17278137
 20
-1337.20543294
 30
0.0
 11
-656.42278137
 21
-1348.45543294
 31
0.0
  0
LINE
  5
1FC
100
AcDbEntity
  8
ZUWAKU
  6
CONTINUOUS
 62
      32
100
AcDbLine
 10
-648.0012085
 20
-1337.20543294
 30
0.0
 11
-659.2512085
 21
-1348.45543294
 31
0.0
  0
LINE
  5
1FD
100
AcDbEntity
  8
ZUWAKU
  6
CONTINUOUS
 62
      32
100
AcDbLine
 10
-650.82963562
 20
-1337.20543294
 30
0.0
 11
-662.07963562
 21
-1348.45543294
 31
0.0
  0
LINE
  5
1FE
100
AcDbEntity
  8
ZUWAKU
  6
CONTINUOUS
 62
      32
100
AcDbLine
 10
-653.65806275
 20
-1337.20543294
 30
0.0
 11
-664.90806275
 21
-1348.45543294
 31
0.0
  0
LINE
  5
1FF
100
AcDbEntity
  8
ZUWAKU
  6
CONTINUOUS
 62
      32
100
AcDbLine
 10
-656.48648987
 20
-1337.20543294
 30
0.0
 11
-666.63175506
 21
-1347.35069813
 31
0.0
  0
LINE
  5
200
100
AcDbEntity
  8
ZUWAKU
  6
CONTINUOUS
 62
      32
100
AcDbLine
 10
-659.314917
 20
-1337.20543294
 30
0.0
 11
-665.2175415
 21
-1343.10805744
 31
0.0
  0
LINE
  5
201
100
AcDbEntity
  8
ZUWAKU
  6
CONTINUOUS
 62
      32
100
AcDbLine
 10
-662.14334412
 20
-1337.20543294
 30
0.0
 11
-663.80332794
 21
-1338.86541675
 31
0.0
  0
LINE
  5
202
100
AcDbEntity
  8
ZUWAKU
  6
CONTINUOUS
 62
      32
100
AcDbLine
 10
-633.85907288
 20
-1337.20543294
 30
0.0
 11
-645.10907288
 21
-1348.45543294
 31
0.0
  0
LINE
  5
203
100
AcDbEntity
  8
ZUWAKU
  6
CONTINUOUS
 62
      32
100
AcDbLine
 10
-631.03064575
 20
-1337.20543294
 30
0.0
 11
-642.28064575
 21
-1348.45543294
 31
0.0
  0
LINE
  5
204
100
AcDbEntity
  8
ZUWAKU
  6
CONTINUOUS
 62
      32
100
AcDbLine
 10
-628.20221863
 20
-1337.20543294
 30
0.0
 11
-639.45221863
 21
-1348.45543294
 31
0.0
  0
LINE
  5
205
100
AcDbEntity
  8
ZUWAKU
  6
CONTINUOUS
 62
      32
100
AcDbLine
 10
-625.3737915
 20
-1337.20543294
 30
0.0
 11
-636.6237915
 21
-1348.45543294
 31
0.0
  0
LINE
  5
206
100
AcDbEntity
  8
ZUWAKU
  6
CONTINUOUS
 62
      32
100
AcDbLine
 10
-622.54536438
 20
-1337.20543294
 30
0.0
 11
-633.79536438
 21
-1348.45543294
 31
0.0
  0
LINE
  5
207
100
AcDbEntity
  8
ZUWAKU
  6
CONTINUOUS
 62
      32
100
AcDbLine
 10
-619.71693725
 20
-1337.20543294
 30
0.0
 11
-630.96693725
 21
-1348.45543294
 31
0.0
  0
LINE
  5
208
100
AcDbEntity
  8
ZUWAKU
  6
CONTINUOUS
 62
      32
100
AcDbLine
 10
-617.99324494
 20
-1338.31016775
 30
0.0
 11
-628.13851013
 21
-1348.45543294
 31
0.0
  0
LINE
  5
209
100
AcDbEntity
  8
ZUWAKU
  6
CONTINUOUS
 62
      32
100
AcDbLine
 10
-619.4074585
 20
-1342.55280843
 30
0.0
 11
-625.310083
 21
-1348.45543294
 31
0.0
  0
LINE
  5
20A
100
AcDbEntity
  8
ZUWAKU
  6
CONTINUOUS
 62
      32
100
AcDbLine
 10
-620.82167206
 20
-1346.79544912
 30
0.0
 11
-622.48165588
 21
-1348.45543294
 31
0.0
  0
LINE
  5
20B
100
AcDbEntity
  8
ZUWAKU
  6
CONTINUOUS
 62
      32
100
AcDbLine
 10
-635.75
 20
-1354.08043294
 30
0.0
 11
-644.5
 21
-1362.83043294
 31
0.0
  0
LINE
  5
20C
100
AcDbEntity
  8
ZUWAKU
  6
CONTINUOUS
 62
      32
100
AcDbLine
 10
-658.875
 20
-1377.20543294
 30
0.0
 11
-668.25
 21
-1386.58043294
 31
0.0
  0
LINE
  5
20D
100
AcDbEntity
  8
ZUWAKU
  6
CONTINUOUS
 62
      32
100
AcDbLine
 10
-638.57842712
 20
-1354.08043294
 30
0.0
 11
-647.32842712
 21
-1362.83043294
 31
0.0
  0
LINE
  5
20E
100
AcDbEntity
  8
ZUWAKU
  6
CONTINUOUS
 62
      32
100
AcDbLine
 10
-661.70342712
 20
-1377.20543294
 30
0.0
 11
-671.07842712
 21
-1386.58043294
 31
0.0
  0
LINE
  5
20F
100
AcDbEntity
  8
ZUWAKU
  6
CONTINUOUS
 62
      32
100
AcDbLine
 10
-641.40685425
 20
-1354.08043294
 30
0.0
 11
-650.15685425
 21
-1362.83043294
 31
0.0
  0
LINE
  5
210
100
AcDbEntity
  8
ZUWAKU
  6
CONTINUOUS
 62
      32
100
AcDbLine
 10
-664.53185425
 20
-1377.20543294
 30
0.0
 11
-673.90685425
 21
-1386.58043294
 31
0.0
  0
LINE
  5
211
100
AcDbEntity
  8
ZUWAKU
  6
CONTINUOUS
 62
      32
100
AcDbLine
 10
-644.23528137
 20
-1354.08043294
 30
0.0
 11
-652.98528137
 21
-1362.83043294
 31
0.0
  0
LINE
  5
212
100
AcDbEntity
  8
ZUWAKU
  6
CONTINUOUS
 62
      32
100
AcDbLine
 10
-667.36028137
 20
-1377.20543294
 30
0.0
 11
-676.73528137
 21
-1386.58043294
 31
0.0
  0
LINE
  5
213
100
AcDbEntity
  8
ZUWAKU
  6
CONTINUOUS
 62
      32
100
AcDbLine
 10
-647.0637085
 20
-1354.08043294
 30
0.0
 11
-655.8137085
 21
-1362.83043294
 31
0.0
  0
LINE
  5
214
100
AcDbEntity
  8
ZUWAKU
  6
CONTINUOUS
 62
      32
100
AcDbLine
 10
-670.1887085
 20
-1377.20543294
 30
0.0
 11
-679.5637085
 21
-1386.58043294
 31
0.0
  0
LINE
  5
215
100
AcDbEntity
  8
ZUWAKU
  6
CONTINUOUS
 62
      32
100
AcDbLine
 10
-649.89213562
 20
-1354.08043294
 30
0.0
 11
-658.64213562
 21
-1362.83043294
 31
0.0
  0
LINE
  5
216
100
AcDbEntity
  8
ZUWAKU
  6
CONTINUOUS
 62
      32
100
AcDbLine
 10
-673.01713562
 20
-1377.20543294
 30
0.0
 11
-679.65524292
 21
-1383.84354023
 31
0.0
  0
LINE
  5
217
100
AcDbEntity
  8
ZUWAKU
  6
CONTINUOUS
 62
      32
100
AcDbLine
 10
-652.72056275
 20
-1354.08043294
 30
0.0
 11
-661.47056275
 21
-1362.83043294
 31
0.0
  0
LINE
  5
218
100
AcDbEntity
  8
ZUWAKU
  6
CONTINUOUS
 62
      32
100
AcDbLine
 10
-675.84556275
 20
-1377.20543294
 30
0.0
 11
-677.76962483
 21
-1379.12949502
 31
0.0
  0
LINE
  5
219
100
AcDbEntity
  8
ZUWAKU
  6
CONTINUOUS
 62
      32
100
AcDbLine
 10
-655.54898987
 20
-1354.08043294
 30
0.0
 11
-664.29898987
 21
-1362.83043294
 31
0.0
  0
LINE
  5
21A
100
AcDbEntity
  8
ZUWAKU
  6
CONTINUOUS
 62
      32
100
AcDbLine
 10
-658.377417
 20
-1354.08043294
 30
0.0
 11
-667.127417
 21
-1362.83043294
 31
0.0
  0
LINE
  5
21B
100
AcDbEntity
  8
ZUWAKU
  6
CONTINUOUS
 62
      32
100
AcDbLine
 10
-661.20584412
 20
-1354.08043294
 30
0.0
 11
-669.95584412
 21
-1362.83043294
 31
0.0
  0
LINE
  5
21C
100
AcDbEntity
  8
ZUWAKU
  6
CONTINUOUS
 62
      32
100
AcDbLine
 10
-664.03427125
 20
-1354.08043294
 30
0.0
 11
-669.9362915
 21
-1359.98245319
 31
0.0
  0
LINE
  5
21D
100
AcDbEntity
  8
ZUWAKU
  6
CONTINUOUS
 62
      32
100
AcDbLine
 10
-666.86269837
 20
-1354.08043294
 30
0.0
 11
-668.80492065
 21
-1356.02265522
 31
0.0
  0
LINE
  5
21E
100
AcDbEntity
  8
ZUWAKU
  6
CONTINUOUS
 62
      32
100
AcDbLine
 10
-632.92157288
 20
-1354.08043294
 30
0.0
 11
-645.63137085
 21
-1366.79023091
 31
0.0
  0
LINE
  5
21F
100
AcDbEntity
  8
ZUWAKU
  6
CONTINUOUS
 62
      32
100
AcDbLine
 10
-655.22550506
 20
-1376.38436513
 30
0.0
 11
-665.42157288
 21
-1386.58043294
 31
0.0
  0
LINE
  5
220
100
AcDbEntity
  8
ZUWAKU
  6
CONTINUOUS
 62
      32
100
AcDbLine
 10
-630.09314575
 20
-1354.08043294
 30
0.0
 11
-662.59314575
 21
-1386.58043294
 31
0.0
  0
LINE
  5
221
100
AcDbEntity
  8
ZUWAKU
  6
CONTINUOUS
 62
      32
100
AcDbLine
 10
-627.26471863
 20
-1354.08043294
 30
0.0
 11
-659.76471863
 21
-1386.58043294
 31
0.0
  0
LINE
  5
222
100
AcDbEntity
  8
ZUWAKU
  6
CONTINUOUS
 62
      32
100
AcDbLine
 10
-624.4362915
 20
-1354.08043294
 30
0.0
 11
-656.9362915
 21
-1386.58043294
 31
0.0
  0
LINE
  5
223
100
AcDbEntity
  8
ZUWAKU
  6
CONTINUOUS
 62
      32
100
AcDbLine
 10
-624.18836321
 20
-1356.66093177
 30
0.0
 11
-654.10786438
 21
-1386.58043294
 31
0.0
  0
LINE
  5
224
100
AcDbEntity
  8
ZUWAKU
  6
CONTINUOUS
 62
      32
100
AcDbLine
 10
-625.80460728
 20
-1361.10560297
 30
0.0
 11
-651.27943725
 21
-1386.58043294
 31
0.0
  0
LINE
  5
225
100
AcDbEntity
  8
ZUWAKU
  6
CONTINUOUS
 62
      32
100
AcDbLine
 10
-627.42085136
 20
-1365.55027417
 30
0.0
 11
-648.30968017
 21
-1386.43910298
 31
0.0
  0
LINE
  5
226
100
AcDbEntity
  8
ZUWAKU
  6
CONTINUOUS
 62
      32
100
AcDbLine
 10
-629.03709543
 20
-1369.99494536
 30
0.0
 11
-644.538444
 21
-1385.49629394
 31
0.0
  0
LINE
  5
227
100
AcDbEntity
  8
ZUWAKU
  6
CONTINUOUS
 62
      32
100
AcDbLine
 10
-630.6533395
 20
-1374.43961656
 30
0.0
 11
-639.21331175
 21
-1382.99958881
 31
0.0
  0
LINE
  5
228
100
AcDbEntity
  8
ZUWAKU
  6
CONTINUOUS
 62
      32
100
AcDbLine
 10
-670.875
 20
-1337.20543294
 30
0.0
 11
-696.7734375
 21
-1363.10387044
 31
0.0
  0
LINE
  5
229
100
AcDbEntity
  8
ZUWAKU
  6
CONTINUOUS
 62
      32
100
AcDbLine
 10
-710.69642857
 20
-1377.02686151
 30
0.0
 11
-720.25
 21
-1386.58043294
 31
0.0
  0
LINE
  5
22A
100
AcDbEntity
  8
ZUWAKU
  6
CONTINUOUS
 62
      32
100
AcDbLine
 10
-673.70342712
 20
-1337.20543294
 30
0.0
 11
-695.09405889
 21
-1358.59606471
 31
0.0
  0
LINE
  5
22B
100
AcDbEntity
  8
ZUWAKU
  6
CONTINUOUS
 62
      32
100
AcDbLine
 10
-713.70342712
 20
-1377.20543294
 30
0.0
 11
-719.77328644
 21
-1383.27529225
 31
0.0
  0
LINE
  5
22C
100
AcDbEntity
  8
ZUWAKU
  6
CONTINUOUS
 62
      32
100
AcDbLine
 10
-676.53185425
 20
-1337.20543294
 30
0.0
 11
-693.41468029
 21
-1354.08825898
 31
0.0
  0
LINE
  5
22D
100
AcDbEntity
  8
ZUWAKU
  6
CONTINUOUS
 62
      32
100
AcDbLine
 10
-716.53185425
 20
-1377.20543294
 30
0.0
 11
-718.35907288
 21
-1379.03265156
 31
0.0
  0
LINE
  5
22E
100
AcDbEntity
  8
ZUWAKU
  6
CONTINUOUS
 62
      32
100
AcDbLine
 10
-679.36028137
 20
-1337.20543294
 30
0.0
 11
-691.73530168
 21
-1349.58045325
 31
0.0
  0
LINE
  5
22F
100
AcDbEntity
  8
ZUWAKU
  6
CONTINUOUS
 62
      32
100
AcDbLine
 10
-682.1887085
 20
-1337.20543294
 30
0.0
 11
-690.05592308
 21
-1345.07264752
 31
0.0
  0
LINE
  5
230
100
AcDbEntity
  8
ZUWAKU
  6
CONTINUOUS
 62
      32
100
AcDbLine
 10
-685.01713562
 20
-1337.20543294
 30
0.0
 11
-688.37654447
 21
-1340.56484179
 31
0.0
  0
LINE
  5
231
100
AcDbEntity
  8
ZUWAKU
  6
CONTINUOUS
 62
      32
100
AcDbLine
 10
-671.37996263
 20
-1340.53882269
 30
0.0
 11
-698.45281611
 21
-1367.61167617
 31
0.0
  0
LINE
  5
232
100
AcDbEntity
  8
ZUWAKU
  6
CONTINUOUS
 62
      32
100
AcDbLine
 10
-707.46394043
 20
-1376.62280049
 30
0.0
 11
-717.42157288
 21
-1386.58043294
 31
0.0
  0
LINE
  5
233
100
AcDbEntity
  8
ZUWAKU
  6
CONTINUOUS
 62
      32
100
AcDbLine
 10
-672.83043808
 20
-1344.81772526
 30
0.0
 11
-702.0612915
 21
-1374.04857869
 31
0.0
  0
LINE
  5
234
100
AcDbEntity
  8
ZUWAKU
  6
CONTINUOUS
 62
      32
100
AcDbLine
 10
-702.17809042
 20
-1374.1653776
 30
0.0
 11
-714.59314575
 21
-1386.58043294
 31
0.0
  0
LINE
  5
235
100
AcDbEntity
  8
ZUWAKU
  6
CONTINUOUS
 62
      32
100
AcDbLine
 10
-674.28091353
 20
-1349.09662784
 30
0.0
 11
-711.76471863
 21
-1386.58043294
 31
0.0
  0
LINE
  5
236
100
AcDbEntity
  8
ZUWAKU
  6
CONTINUOUS
 62
      32
100
AcDbLine
 10
-675.73138897
 20
-1353.37553041
 30
0.0
 11
-708.9362915
 21
-1386.58043294
 31
0.0
  0
LINE
  5
237
100
AcDbEntity
  8
ZUWAKU
  6
CONTINUOUS
 62
      32
100
AcDbLine
 10
-677.18186442
 20
-1357.65443298
 30
0.0
 11
-706.10786438
 21
-1386.58043294
 31
0.0
  0
LINE
  5
238
100
AcDbEntity
  8
ZUWAKU
  6
CONTINUOUS
 62
      32
100
AcDbLine
 10
-678.63233987
 20
-1361.93333556
 30
0.0
 11
-703.06048584
 21
-1386.36148152
 31
0.0
  0
LINE
  5
239
100
AcDbEntity
  8
ZUWAKU
  6
CONTINUOUS
 62
      32
100
AcDbLine
 10
-680.08281532
 20
-1366.21223813
 30
0.0
 11
-699.91778903
 21
-1386.04721184
 31
0.0
  0
LINE
  5
23A
100
AcDbEntity
  8
ZUWAKU
  6
CONTINUOUS
 62
      32
100
AcDbLine
 10
-681.53329077
 20
-1370.4911407
 30
0.0
 11
-695.66263834
 21
-1384.62048827
 31
0.0
  0
LINE
  5
23B
100
AcDbEntity
  8
ZUWAKU
  6
CONTINUOUS
 62
      32
100
AcDbLine
 10
-700.9375
 20
-1340.70543294
 30
0.0
 11
-724.05040323
 21
-1363.81833616
 31
0.0
  0
LINE
  5
23C
100
AcDbEntity
  8
ZUWAKU
  6
CONTINUOUS
 62
      32
100
AcDbLine
 10
-700.26592712
 20
-1337.20543294
 30
0.0
 11
-722.49933029
 21
-1359.4388361
 31
0.0
  0
LINE
  5
23D
100
AcDbEntity
  8
ZUWAKU
  6
CONTINUOUS
 62
      32
100
AcDbLine
 10
-703.09435425
 20
-1337.20543294
 30
0.0
 11
-720.94825735
 21
-1355.05933603
 31
0.0
  0
LINE
  5
23E
100
AcDbEntity
  8
ZUWAKU
  6
CONTINUOUS
 62
      32
100
AcDbLine
 10
-705.92278137
 20
-1337.20543294
 30
0.0
 11
-719.39718441
 21
-1350.67983597
 31
0.0
  0
LINE
  5
23F
100
AcDbEntity
  8
ZUWAKU
  6
CONTINUOUS
 62
      32
100
AcDbLine
 10
-708.7512085
 20
-1337.20543294
 30
0.0
 11
-717.84611147
 21
-1346.30033591
 31
0.0
  0
LINE
  5
240
100
AcDbEntity
  8
ZUWAKU
  6
CONTINUOUS
 62
      32
100
AcDbLine
 10
-711.57963562
 20
-1337.20543294
 30
0.0
 11
-716.29503853
 21
-1341.92083584
 31
0.0
  0
LINE
  5
241
100
AcDbEntity
  8
ZUWAKU
  6
CONTINUOUS
 62
      32
100
AcDbLine
 10
-714.40806275
 20
-1337.20543294
 30
0.0
 11
-714.74396559
 21
-1337.54133578
 31
0.0
  0
LINE
  5
242
100
AcDbEntity
  8
ZUWAKU
  6
CONTINUOUS
 62
      32
100
AcDbLine
 10
-702.63455627
 20
-1345.23091634
 30
0.0
 11
-724.60907288
 21
-1367.20543294
 31
0.0
  0
LINE
  5
243
100
AcDbEntity
  8
ZUWAKU
  6
CONTINUOUS
 62
      32
100
AcDbLine
 10
-704.33161255
 20
-1349.75639974
 30
0.0
 11
-721.78064575
 21
-1367.20543294
 31
0.0
  0
LINE
  5
244
100
AcDbEntity
  8
ZUWAKU
  6
CONTINUOUS
 62
      32
100
AcDbLine
 10
-706.02866882
 20
-1354.28188314
 30
0.0
 11
-718.95221863
 21
-1367.20543294
 31
0.0
  0
LINE
  5
245
100
AcDbEntity
  8
ZUWAKU
  6
CONTINUOUS
 62
      32
100
AcDbLine
 10
-707.7257251
 20
-1358.80736654
 30
0.0
 11
-716.1237915
 21
-1367.20543294
 31
0.0
  0
LINE
  5
246
100
AcDbEntity
  8
ZUWAKU
  6
CONTINUOUS
 62
      32
100
AcDbLine
 10
-709.42278137
 20
-1363.33284994
 30
0.0
 11
-713.29536438
 21
-1367.20543294
 31
0.0
  0
LINE
  5
247
100
AcDbEntity
  8
ZUWAKU
  6
CONTINUOUS
 62
      32
100
AcDbLine
 10
-808.5
 20
1390.91956706
 30
0.0
 11
-816.97543478
 21
1405.91456706
 31
0.0
  0
LINE
  5
248
100
AcDbEntity
  8
ZUWAKU
  6
CONTINUOUS
 62
      32
100
AcDbLine
 10
-850.75555825
 20
1419.04456706
 30
0.0
 11
-849.71389158
 21
1422.16956706
 31
0.0
  0
LINE
  5
249
100
AcDbEntity
  8
ZUWAKU
  6
CONTINUOUS
 62
      32
100
AcDbLine
 10
-771.1029769
 20
1394.61807861
 30
0.0
 11
-772.24
 21
1394.04956706
 31
0.0
  0
LINE
  5
24A
100
AcDbEntity
  8
ZUWAKU
  6
CONTINUOUS
 62
      32
100
AcDbLine
 10
-770.375
 20
1390.91956706
 30
0.0
 11
-765.125
 21
1396.16956706
 31
0.0
  0
LINE
  5
24B
100
AcDbEntity
  8
ZUWAKU
  6
CONTINUOUS
 62
      32
100
AcDbLine
 10
-766.0
 20
1390.91956706
 30
0.0
 11
-765.125
 21
1396.16956706
 31
0.0
  0
LINE
  5
24C
100
AcDbEntity
  8
ZUWAKU
  6
CONTINUOUS
 62
      32
100
AcDbLine
 10
-742.875
 20
1395.29456706
 30
0.0
 11
-742.875
 21
1394.04956706
 31
0.0
  0
LINE
  5
24D
100
AcDbEntity
  8
ZUWAKU
  6
CONTINUOUS
 62
      32
100
AcDbLine
 10
-715.22479454
 20
1390.91956706
 30
0.0
 11
-726.625
 21
1390.91956706
 31
0.0
  0
LINE
  5
24E
100
AcDbEntity
  8
ZUWAKU
  6
CONTINUOUS
 62
      32
100
AcDbLine
 10
-732.78467523
 20
1395.37360123
 30
0.0
 11
-737.875
 21
1390.91956706
 31
0.0
  0
LINE
  5
24F
100
AcDbEntity
  8
ZUWAKU
  6
CONTINUOUS
 62
      32
100
AcDbLine
 10
-696.66751997
 20
1390.91956706
 30
0.0
 11
-709.75
 21
1390.91956706
 31
0.0
  0
LINE
  5
250
100
AcDbEntity
  8
ZUWAKU
  6
CONTINUOUS
 62
      32
100
AcDbLine
 10
-827.01375
 20
1394.04956706
 30
0.0
 11
-817.640625
 21
1419.04456706
 31
0.0
  0
LINE
  5
251
100
AcDbEntity
  8
ZUWAKU
  6
CONTINUOUS
 62
      32
100
AcDbLine
 10
-818.04778353
 20
1409.04456706
 30
0.0
 11
-803.41822154
 21
1409.04456706
 31
0.0
  0
LINE
  5
252
100
AcDbEntity
  8
ZUWAKU
  6
CONTINUOUS
 62
      32
100
AcDbLine
 10
-723.89772727
 20
1398.41956706
 30
0.0
 11
-726.0
 21
1398.41956706
 31
0.0
  0
LINE
  5
253
100
AcDbEntity
  8
ZUWAKU
  6
CONTINUOUS
 62
      32
100
AcDbLine
 10
-726.0
 20
1398.41956706
 30
0.0
 11
-728.06614109
 21
1398.41956706
 31
0.0
  0
LINE
  5
254
100
AcDbEntity
  8
ZUWAKU
  6
CONTINUOUS
 62
      32
100
AcDbLine
 10
-746.34744802
 20
1390.91956706
 30
0.0
 11
-737.875
 21
1390.91956706
 31
0.0
  0
CIRCLE
  5
255
100
AcDbEntity
  8
ZUWAKU
  6
CONTINUOUS
 62
      32
100
AcDbCircle
 10
-760.0807524
 20
1408.41956706
 30
0.0
 40
1.8932524
  0
LINE
  5
256
100
AcDbEntity
  8
ZUWAKU
  6
CONTINUOUS
 62
      32
100
AcDbLine
 10
-824.671875
 20
1419.04456706
 30
0.0
 11
-817.640625
 21
1419.04456706
 31
0.0
  0
LINE
  5
257
100
AcDbEntity
  8
ZUWAKU
  6
CONTINUOUS
 62
      32
100
AcDbLine
 10
-814.29778353
 20
1419.04456706
 30
0.0
 11
-803.41822154
 21
1419.04456706
 31
0.0
  0
LINE
  5
258
100
AcDbEntity
  8
ZUWAKU
  6
CONTINUOUS
 62
      32
100
AcDbLine
 10
-835.375
 20
1390.91956706
 30
0.0
 11
-834.20125
 21
1394.04956706
 31
0.0
  0
LINE
  5
259
100
AcDbEntity
  8
ZUWAKU
  6
CONTINUOUS
 62
      32
100
AcDbLine
 10
-824.671875
 20
1419.04456706
 30
0.0
 11
-823.5
 21
1422.16956706
 31
0.0
  0
LINE
  5
25A
100
AcDbEntity
  8
ZUWAKU
  6
CONTINUOUS
 62
      32
100
AcDbLine
 10
-826.2358847
 20
1419.04456706
 30
0.0
 11
-825.0640097
 21
1422.16956706
 31
0.0
  0
LINE
  5
25B
100
AcDbEntity
  8
ZUWAKU
  6
CONTINUOUS
 62
      32
100
AcDbLine
 10
-803.41822154
 20
1422.16956706
 30
0.0
 11
-823.5
 21
1422.16956706
 31
0.0
  0
LINE
  5
25C
100
AcDbEntity
  8
ZUWAKU
  6
CONTINUOUS
 62
      32
100
AcDbLine
 10
-825.0640097
 20
1422.16956706
 30
0.0
 11
-828.03310351
 21
1422.16956706
 31
0.0
  0
LINE
  5
25D
100
AcDbEntity
  8
ZUWAKU
  6
CONTINUOUS
 62
      32
100
AcDbLine
 10
-829.20497851
 20
1419.04456706
 30
0.0
 11
-826.2358847
 21
1419.04456706
 31
0.0
  0
LINE
  5
25E
100
AcDbEntity
  8
ZUWAKU
  6
CONTINUOUS
 62
      32
100
AcDbLine
 10
-830.34350295
 20
1419.04456706
 30
0.0
 11
-829.17162795
 21
1422.16956706
 31
0.0
  0
LINE
  5
25F
100
AcDbEntity
  8
ZUWAKU
  6
CONTINUOUS
 62
      32
100
AcDbLine
 10
-829.17162795
 20
1422.16956706
 30
0.0
 11
-831.6604235
 21
1422.16956706
 31
0.0
  0
LINE
  5
260
100
AcDbEntity
  8
ZUWAKU
  6
CONTINUOUS
 62
      32
100
AcDbLine
 10
-832.8322985
 20
1419.04456706
 30
0.0
 11
-830.34350295
 21
1419.04456706
 31
0.0
  0
LINE
  5
261
100
AcDbEntity
  8
ZUWAKU
  6
CONTINUOUS
 62
      32
100
AcDbLine
 10
-832.8322985
 20
1419.04456706
 30
0.0
 11
-831.6604235
 21
1422.16956706
 31
0.0
  0
LINE
  5
262
100
AcDbEntity
  8
ZUWAKU
  6
CONTINUOUS
 62
      32
100
AcDbLine
 10
-833.78529181
 20
1422.16956706
 30
0.0
 11
-836.22412299
 21
1422.16956706
 31
0.0
  0
LINE
  5
263
100
AcDbEntity
  8
ZUWAKU
  6
CONTINUOUS
 62
      32
100
AcDbLine
 10
-837.39599799
 20
1419.04456706
 30
0.0
 11
-834.95716681
 21
1419.04456706
 31
0.0
  0
LINE
  5
264
100
AcDbEntity
  8
ZUWAKU
  6
CONTINUOUS
 62
      32
100
AcDbLine
 10
-837.39599799
 20
1419.04456706
 30
0.0
 11
-836.22412299
 21
1422.16956706
 31
0.0
  0
LINE
  5
265
100
AcDbEntity
  8
ZUWAKU
  6
CONTINUOUS
 62
      32
100
AcDbLine
 10
-829.20497851
 20
1419.04456706
 30
0.0
 11
-828.03310351
 21
1422.16956706
 31
0.0
  0
LINE
  5
266
100
AcDbEntity
  8
ZUWAKU
  6
CONTINUOUS
 62
      32
100
AcDbLine
 10
-834.95716681
 20
1419.04456706
 30
0.0
 11
-833.78529181
 21
1422.16956706
 31
0.0
  0
LINE
  5
267
100
AcDbEntity
  8
ZUWAKU
  6
CONTINUOUS
 62
      32
100
AcDbLine
 10
-839.22264516
 20
1419.04456706
 30
0.0
 11
-838.05077016
 21
1422.16956706
 31
0.0
  0
LINE
  5
268
100
AcDbEntity
  8
ZUWAKU
  6
CONTINUOUS
 62
      32
100
AcDbLine
 10
-838.05077016
 20
1422.16956706
 30
0.0
 11
-840.30570648
 21
1422.16956706
 31
0.0
  0
LINE
  5
269
100
AcDbEntity
  8
ZUWAKU
  6
CONTINUOUS
 62
      32
100
AcDbLine
 10
-841.47758148
 20
1419.04456706
 30
0.0
 11
-839.22264516
 21
1419.04456706
 31
0.0
  0
LINE
  5
26A
100
AcDbEntity
  8
ZUWAKU
  6
CONTINUOUS
 62
      32
100
AcDbLine
 10
-841.47758148
 20
1419.04456706
 30
0.0
 11
-840.30570648
 21
1422.16956706
 31
0.0
  0
LINE
  5
26B
100
AcDbEntity
  8
ZUWAKU
  6
CONTINUOUS
 62
      32
100
AcDbLine
 10
-843.38642535
 20
1419.04456706
 30
0.0
 11
-842.21455035
 21
1422.16956706
 31
0.0
  0
LINE
  5
26C
100
AcDbEntity
  8
ZUWAKU
  6
CONTINUOUS
 62
      32
100
AcDbLine
 10
-842.21455035
 20
1422.16956706
 30
0.0
 11
-844.21975868
 21
1422.16956706
 31
0.0
  0
LINE
  5
26D
100
AcDbEntity
  8
ZUWAKU
  6
CONTINUOUS
 62
      32
100
AcDbLine
 10
-845.26142535
 20
1419.04456706
 30
0.0
 11
-843.38642535
 21
1419.04456706
 31
0.0
  0
LINE
  5
26E
100
AcDbEntity
  8
ZUWAKU
  6
CONTINUOUS
 62
      32
100
AcDbLine
 10
-845.26142535
 20
1419.04456706
 30
0.0
 11
-844.21975868
 21
1422.16956706
 31
0.0
  0
LINE
  5
26F
100
AcDbEntity
  8
ZUWAKU
  6
CONTINUOUS
 62
      32
100
AcDbLine
 10
-847.25815052
 20
1419.04456706
 30
0.0
 11
-846.21648386
 21
1422.16956706
 31
0.0
  0
LINE
  5
270
100
AcDbEntity
  8
ZUWAKU
  6
CONTINUOUS
 62
      32
100
AcDbLine
 10
-848.88055825
 20
1419.04456706
 30
0.0
 11
-847.83889158
 21
1422.16956706
 31
0.0
  0
LINE
  5
271
100
AcDbEntity
  8
ZUWAKU
  6
CONTINUOUS
 62
      32
100
AcDbLine
 10
-851.90139158
 20
1419.04456706
 30
0.0
 11
-850.85972492
 21
1422.16956706
 31
0.0
  0
LINE
  5
272
100
AcDbEntity
  8
ZUWAKU
  6
CONTINUOUS
 62
      32
100
AcDbLine
 10
-853.88055825
 20
1419.04456706
 30
0.0
 11
-852.83889158
 21
1422.16956706
 31
0.0
  0
LINE
  5
273
100
AcDbEntity
  8
ZUWAKU
  6
CONTINUOUS
 62
      32
100
AcDbLine
 10
-854.40139158
 20
1419.04456706
 30
0.0
 11
-853.35972492
 21
1422.16956706
 31
0.0
  0
LINE
  5
274
100
AcDbEntity
  8
ZUWAKU
  6
CONTINUOUS
 62
      32
100
AcDbLine
 10
-846.21648386
 20
1422.16956706
 30
0.0
 11
-847.83889158
 21
1422.16956706
 31
0.0
  0
LINE
  5
275
100
AcDbEntity
  8
ZUWAKU
  6
CONTINUOUS
 62
      32
100
AcDbLine
 10
-848.88055825
 20
1419.04456706
 30
0.0
 11
-847.25815052
 21
1419.04456706
 31
0.0
  0
LINE
  5
276
100
AcDbEntity
  8
ZUWAKU
  6
CONTINUOUS
 62
      32
100
AcDbLine
 10
-849.71389158
 20
1422.16956706
 30
0.0
 11
-850.85972492
 21
1422.16956706
 31
0.0
  0
LINE
  5
277
100
AcDbEntity
  8
ZUWAKU
  6
CONTINUOUS
 62
      32
100
AcDbLine
 10
-852.83889158
 20
1422.16956706
 30
0.0
 11
-853.35972492
 21
1422.16956706
 31
0.0
  0
LINE
  5
278
100
AcDbEntity
  8
ZUWAKU
  6
CONTINUOUS
 62
      32
100
AcDbLine
 10
-851.90139158
 20
1419.04456706
 30
0.0
 11
-850.75555825
 21
1419.04456706
 31
0.0
  0
LINE
  5
279
100
AcDbEntity
  8
ZUWAKU
  6
CONTINUOUS
 62
      32
100
AcDbLine
 10
-853.88055825
 20
1419.04456706
 30
0.0
 11
-854.40139158
 21
1419.04456706
 31
0.0
  0
ARC
  5
27A
100
AcDbEntity
  8
ZUWAKU
  6
CONTINUOUS
 62
      32
100
AcDbCircle
 10
-803.41822154
 20
1414.04456706
 30
0.0
 40
5.0
100
AcDbArc
 50
270.0
 51
450.0
  0
LINE
  5
27B
100
AcDbEntity
  8
ZUWAKU
  6
CONTINUOUS
 62
      32
100
AcDbLine
 10
-834.20125
 20
1394.04956706
 30
0.0
 11
-827.01375
 21
1394.04956706
 31
0.0
  0
LINE
  5
27C
100
AcDbEntity
  8
ZUWAKU
  6
CONTINUOUS
 62
      32
100
AcDbLine
 10
-835.375
 20
1390.91956706
 30
0.0
 11
-824.84465853
 21
1390.91956706
 31
0.0
  0
LINE
  5
27D
100
AcDbEntity
  8
ZUWAKU
  6
CONTINUOUS
 62
      32
100
AcDbLine
 10
-824.84465853
 20
1390.91956706
 30
0.0
 11
-819.22153353
 21
1405.91456706
 31
0.0
  0
LINE
  5
27E
100
AcDbEntity
  8
ZUWAKU
  6
CONTINUOUS
 62
      32
100
AcDbLine
 10
-818.04778353
 20
1409.04456706
 30
0.0
 11
-814.29778353
 21
1419.04456706
 31
0.0
  0
LINE
  5
27F
100
AcDbEntity
  8
ZUWAKU
  6
CONTINUOUS
 62
      32
100
AcDbLine
 10
-819.22153353
 20
1405.91456706
 30
0.0
 11
-816.97543478
 21
1405.91456706
 31
0.0
  0
LINE
  5
280
100
AcDbEntity
  8
ZUWAKU
  6
CONTINUOUS
 62
      32
100
AcDbLine
 10
-813.38005963
 20
1405.91456706
 30
0.0
 11
-803.41822154
 21
1405.91456706
 31
0.0
  0
LINE
  5
281
100
AcDbEntity
  8
ZUWAKU
  6
CONTINUOUS
 62
      32
100
AcDbLine
 10
-806.67375528
 20
1394.04956706
 30
0.0
 11
-813.38005963
 21
1405.91456706
 31
0.0
  0
ARC
  5
282
100
AcDbEntity
  8
ZUWAKU
  6
CONTINUOUS
 62
      32
100
AcDbCircle
 10
-803.41822154
 20
1414.04456706
 30
0.0
 40
8.125
100
AcDbArc
 50
270.0
 51
450.0
  0
ELLIPSE
  5
283
100
AcDbEntity
  8
ZUWAKU
  6
CONTINUOUS
 62
      32
100
AcDbEllipse
 10
-793.06615565
 20
1397.96516617
 30
0.0
 11
-0.823186632749298
 21
-1.5091754933732773
 31
0.0
210
0.0
220
0.0
230
1.0
 40
0.75209874
 41
0.0
 42
6.2831853071796004
  0
LINE
  5
284
100
AcDbEntity
  8
ZUWAKU
  6
CONTINUOUS
 62
      32
100
AcDbLine
 10
-808.5
 20
1390.91956706
 30
0.0
 11
-797.25
 21
1390.91956706
 31
0.0
  0
ELLIPSE
  5
285
100
AcDbEntity
  8
ZUWAKU
  6
CONTINUOUS
 62
      32
100
AcDbEllipse
 10
-793.06615565
 20
1397.96516617
 30
0.0
 11
-2.6299892420104243
 21
-4.8216469436840725
 31
0.0
210
0.0
220
0.0
230
1.0
 40
0.75209874
 41
1.163380251178052
 42
5.8601607076995661
  0
LINE
  5
286
100
AcDbEntity
  8
ZUWAKU
  6
CONTINUOUS
 62
      32
100
AcDbLine
 10
-806.67375528
 20
1394.04956706
 30
0.0
 11
-797.43774035
 21
1394.04956706
 31
0.0
  0
ARC
  5
287
100
AcDbEntity
  8
ZUWAKU
  6
CONTINUOUS
 62
      32
100
AcDbCircle
 10
-798.36879406
 20
1401.06924237
 30
0.0
 40
7.08115121
100
AcDbArc
 50
277.55531967
 51
282.61004677
  0
ARC
  5
288
100
AcDbEntity
  8
ZUWAKU
  6
CONTINUOUS
 62
      32
100
AcDbCircle
 10
-798.36879406
 20
1401.06924237
 30
0.0
 40
10.21115121
100
AcDbArc
 50
276.29029269
 51
293.79815684
  0
ARC
  5
289
100
AcDbEntity
  8
ZUWAKU
  6
CONTINUOUS
 62
      32
100
AcDbCircle
 10
-798.36879406
 20
1401.06924237
 30
0.0
 40
10.21115121
100
AcDbArc
 50
316.57125834
 51
318.01426788
  0
ARC
  5
28A
100
AcDbEntity
  8
ZUWAKU
  6
CONTINUOUS
 62
      32
100
AcDbCircle
 10
-791.03464697
 20
1397.70610695
 30
0.0
 40
6.7886884
100
AcDbArc
 50
209.3318227
 51
211.50126528
  0
ARC
  5
28B
100
AcDbEntity
  8
ZUWAKU
  6
CONTINUOUS
 62
      32
100
AcDbCircle
 10
-791.03464697
 20
1397.70610695
 30
0.0
 40
6.7886884
100
AcDbArc
 50
241.74457829
 51
270.0
  0
ELLIPSE
  5
28C
100
AcDbEntity
  8
ZUWAKU
  6
CONTINUOUS
 62
      32
100
AcDbEllipse
 10
-777.08285594
 20
1402.16801275
 30
0.0
 11
-1.3704304616221634
 21
-2.8265128270963942
 31
0.0
210
0.0
220
0.0
230
1.0
 40
0.44219156
 41
0.0
 42
6.2831853071796004
  0
ARC
  5
28D
100
AcDbEntity
  8
ZUWAKU
  6
CONTINUOUS
 62
      32
100
AcDbCircle
 10
-774.20055705
 20
1402.99508437
 30
0.0
 40
12.14106837
100
AcDbArc
 50
241.28311564
 51
264.0434522
  0
LINE
  5
28E
100
AcDbEntity
  8
ZUWAKU
  6
CONTINUOUS
 62
      32
100
AcDbLine
 10
-791.03464697
 20
1390.91956706
 30
0.0
 11
-783.99117765
 21
1390.91956706
 31
0.0
  0
ARC
  5
28F
100
AcDbEntity
  8
ZUWAKU
  6
CONTINUOUS
 62
      32
100
AcDbCircle
 10
-774.20055705
 20
1402.99508437
 30
0.0
 40
9.01106837
100
AcDbArc
 50
251.08708107
 51
263.08482824
  0
ARC
  5
290
100
AcDbEntity
  8
ZUWAKU
  6
CONTINUOUS
 62
      32
100
AcDbCircle
 10
-786.64798742
 20
1404.48048181
 30
0.0
 40
10.68872089
100
AcDbArc
 50
282.60950936
 51
291.93126974
  0
ELLIPSE
  5
291
100
AcDbEntity
  8
ZUWAKU
  6
CONTINUOUS
 62
      32
100
AcDbEllipse
 10
-777.08285594
 20
1402.16801275
 30
0.0
 11
-4.3783720818601068
 21
-9.0303924188381188
 31
0.0
210
0.0
220
0.0
230
1.0
 40
0.44219156
 41
1.1621663820477974
 42
5.8906096214263153
  0
LINE
  5
292
100
AcDbEntity
  8
ZUWAKU
  6
CONTINUOUS
 62
      32
100
AcDbLine
 10
-790.95315062
 20
1394.04956706
 30
0.0
 11
-784.31458395
 21
1394.04956706
 31
0.0
  0
ARC
  5
293
100
AcDbEntity
  8
ZUWAKU
  6
CONTINUOUS
 62
      32
100
AcDbCircle
 10
-786.64798742
 20
1404.48048181
 30
0.0
 40
13.81872089
100
AcDbArc
 50
313.58286141
 51
326.24939265
  0
ARC
  5
294
100
AcDbEntity
  8
ZUWAKU
  6
CONTINUOUS
 62
      32
100
AcDbCircle
 10
-786.64798742
 20
1404.48048181
 30
0.0
 40
13.81872089
100
AcDbArc
 50
281.08479974
 51
298.5950739
  0
LINE
  5
295
100
AcDbEntity
  8
ZUWAKU
  6
CONTINUOUS
 62
      32
100
AcDbLine
 10
-775.46048676
 20
1390.91956706
 30
0.0
 11
-770.375
 21
1390.91956706
 31
0.0
  0
LINE
  5
296
100
AcDbEntity
  8
ZUWAKU
  6
CONTINUOUS
 62
      32
100
AcDbLine
 10
-771.1029769
 20
1394.61807861
 30
0.0
 11
-762.59817527
 21
1403.12288025
 31
0.0
  0
LINE
  5
297
100
AcDbEntity
  8
ZUWAKU
  6
CONTINUOUS
 62
      32
100
AcDbLine
 10
-762.30515888
 20
1394.04956706
 30
0.0
 11
-760.93001473
 21
1402.30043198
 31
0.0
  0
LINE
  5
298
100
AcDbEntity
  8
ZUWAKU
  6
CONTINUOUS
 62
      32
100
AcDbLine
 10
-775.28548711
 20
1394.04956706
 30
0.0
 11
-772.24
 21
1394.04956706
 31
0.0
  0
ARC
  5
299
100
AcDbEntity
  8
ZUWAKU
  6
CONTINUOUS
 62
      32
100
AcDbCircle
 10
-761.88798246
 20
1402.46009326
 30
0.0
 40
0.97142185
100
AcDbArc
 50
350.53767779
 51
496.97750576
  0
ELLIPSE
  5
29A
100
AcDbEntity
  8
ZUWAKU
  6
CONTINUOUS
 62
      32
100
AcDbEllipse
 10
-748.62649827
 20
1396.79938036
 30
0.0
 11
-0.911816299767338
 21
-1.5356906101342247
 31
0.0
210
0.0
220
0.0
230
1.0
 40
0.58819821
 41
0.0
 42
6.2831853071796004
  0
LINE
  5
29B
100
AcDbEntity
  8
ZUWAKU
  6
CONTINUOUS
 62
      32
100
AcDbLine
 10
-759.00465921
 20
1394.04956706
 30
0.0
 11
-753.79525995
 21
1396.55171946
 31
0.0
  0
LINE
  5
29C
100
AcDbEntity
  8
ZUWAKU
  6
CONTINUOUS
 62
      32
100
AcDbLine
 10
-758.5
 20
1390.91956706
 30
0.0
 11
-754.13850585
 21
1392.85219939
 31
0.0
  0
LINE
  5
29D
100
AcDbEntity
  8
ZUWAKU
  6
CONTINUOUS
 62
      32
100
AcDbLine
 10
-762.30515888
 20
1394.04956706
 30
0.0
 11
-759.00465921
 21
1394.04956706
 31
0.0
  0
LINE
  5
29E
100
AcDbEntity
  8
ZUWAKU
  6
CONTINUOUS
 62
      32
100
AcDbLine
 10
-747.80625878
 20
1392.32975079
 30
0.0
 11
-746.34744802
 21
1390.91956706
 31
0.0
  0
LINE
  5
29F
100
AcDbEntity
  8
ZUWAKU
  6
CONTINUOUS
 62
      32
100
AcDbLine
 10
-742.875
 20
1394.04956706
 30
0.0
 11
-738.47787758
 21
1394.04956706
 31
0.0
  0
LINE
  5
2A0
100
AcDbEntity
  8
ZUWAKU
  6
CONTINUOUS
 62
      32
100
AcDbLine
 10
-728.48359186
 20
1402.79456706
 30
0.0
 11
-738.47787758
 21
1394.04956706
 31
0.0
  0
ELLIPSE
  5
2A1
100
AcDbEntity
  8
ZUWAKU
  6
CONTINUOUS
 62
      32
100
AcDbEllipse
 10
-749.27872296
 20
1396.42954
 30
0.0
 11
-3.9718520938696429
 21
-4.9208278972669177
 31
0.0
210
0.0
220
0.0
230
1.0
 40
0.63020876
 41
2.7713952963881345
 42
5.1608192210644246
  0
ELLIPSE
  5
2A2
100
AcDbEntity
  8
ZUWAKU
  6
CONTINUOUS
 62
      32
100
AcDbEllipse
 10
-749.27872296
 20
1396.42954
 30
0.0
 11
-3.9718520938696429
 21
-4.9208278972669177
 31
0.0
210
0.0
220
0.0
230
1.0
 40
0.63020876
 41
5.8878630804447214
 42
7.4876029260781589
  0
LINE
  5
2A3
100
AcDbEntity
  8
ZUWAKU
  6
CONTINUOUS
 62
      32
100
AcDbLine
 10
-743.69789791
 20
1402.19052548
 30
0.0
 11
-740.36737876
 21
1402.19052548
 31
0.0
  0
LINE
  5
2A4
100
AcDbEntity
  8
ZUWAKU
  6
CONTINUOUS
 62
      32
100
AcDbLine
 10
-744.45394629
 20
1400.11139244
 30
0.0
 11
-743.69789791
 21
1402.19052548
 31
0.0
  0
LINE
  5
2A5
100
AcDbEntity
  8
ZUWAKU
  6
CONTINUOUS
 62
      32
100
AcDbLine
 10
-742.875
 20
1395.29456706
 30
0.0
 11
-740.36737876
 21
1402.19052548
 31
0.0
  0
LINE
  5
2A6
100
AcDbEntity
  8
ZUWAKU
  6
CONTINUOUS
 62
      32
100
AcDbLine
 10
-734.36851949
 20
1391.01802954
 30
0.0
 11
-732.78467523
 21
1395.37360123
 31
0.0
  0
LINE
  5
2A7
100
AcDbEntity
  8
ZUWAKU
  6
CONTINUOUS
 62
      32
100
AcDbLine
 10
-728.06614109
 20
1398.41956706
 30
0.0
 11
-730.79341382
 21
1390.91956706
 31
0.0
  0
LINE
  5
2A8
100
AcDbEntity
  8
ZUWAKU
  6
CONTINUOUS
 62
      32
100
AcDbLine
 10
-726.625
 20
1390.91956706
 30
0.0
 11
-723.89772727
 21
1398.41956706
 31
0.0
  0
LINE
  5
2A9
100
AcDbEntity
  8
ZUWAKU
  6
CONTINUOUS
 62
      32
100
AcDbLine
 10
-719.3379031
 20
1400.80283353
 30
0.0
 11
-721.79363636
 21
1394.04956706
 31
0.0
  0
LINE
  5
2AA
100
AcDbEntity
  8
ZUWAKU
  6
CONTINUOUS
 62
      32
100
AcDbLine
 10
-720.37706843
 20
1402.79456706
 30
0.0
 11
-719.3379031
 21
1400.80283353
 31
0.0
  0
LINE
  5
2AB
100
AcDbEntity
  8
ZUWAKU
  6
CONTINUOUS
 62
      32
100
AcDbLine
 10
-727.23401316
 20
1400.93555391
 30
0.0
 11
-726.61917021
 21
1402.79456706
 31
0.0
  0
LINE
  5
2AC
100
AcDbEntity
  8
ZUWAKU
  6
CONTINUOUS
 62
      32
100
AcDbLine
 10
-727.23401316
 20
1400.93555391
 30
0.0
 11
-723.9045273
 21
1402.79456706
 31
0.0
  0
LINE
  5
2AD
100
AcDbEntity
  8
ZUWAKU
  6
CONTINUOUS
 62
      32
100
AcDbLine
 10
-720.37706843
 20
1402.79456706
 30
0.0
 11
-723.9045273
 21
1402.79456706
 31
0.0
  0
LINE
  5
2AE
100
AcDbEntity
  8
ZUWAKU
  6
CONTINUOUS
 62
      32
100
AcDbLine
 10
-726.61917021
 20
1402.79456706
 30
0.0
 11
-728.48359186
 21
1402.79456706
 31
0.0
  0
ELLIPSE
  5
2AF
100
AcDbEntity
  8
ZUWAKU
  6
CONTINUOUS
 62
      32
100
AcDbEllipse
 10
-692.48367562
 20
1397.96516617
 30
0.0
 11
-0.823186632749298
 21
-1.5091754933732773
 31
0.0
210
0.0
220
0.0
230
1.0
 40
0.75209874
 41
0.0
 42
6.2831853071796004
  0
ELLIPSE
  5
2B0
100
AcDbEntity
  8
ZUWAKU
  6
CONTINUOUS
 62
      32
100
AcDbEllipse
 10
-692.48367562
 20
1397.96516617
 30
0.0
 11
-2.6299892420104243
 21
-4.8216469436840725
 31
0.0
210
0.0
220
0.0
230
1.0
 40
0.75209874
 41
1.163380251178052
 42
5.8601607076995661
  0
ARC
  5
2B1
100
AcDbEntity
  8
ZUWAKU
  6
CONTINUOUS
 62
      32
100
AcDbCircle
 10
-697.78631403
 20
1401.06924237
 30
0.0
 40
7.08115121
100
AcDbArc
 50
277.55531967
 51
282.61004677
  0
ARC
  5
2B2
100
AcDbEntity
  8
ZUWAKU
  6
CONTINUOUS
 62
      32
100
AcDbCircle
 10
-697.78631403
 20
1401.06924237
 30
0.0
 40
10.21115121
100
AcDbArc
 50
276.29029269
 51
293.79815684
  0
ARC
  5
2B3
100
AcDbEntity
  8
ZUWAKU
  6
CONTINUOUS
 62
      32
100
AcDbCircle
 10
-697.78631403
 20
1401.06924237
 30
0.0
 40
10.21115121
100
AcDbArc
 50
316.57125834
 51
318.01426788
  0
ARC
  5
2B4
100
AcDbEntity
  8
ZUWAKU
  6
CONTINUOUS
 62
      32
100
AcDbCircle
 10
-690.45216695
 20
1397.70610695
 30
0.0
 40
6.7886884
100
AcDbArc
 50
209.3318227
 51
211.50126528
  0
ARC
  5
2B5
100
AcDbEntity
  8
ZUWAKU
  6
CONTINUOUS
 62
      32
100
AcDbCircle
 10
-690.45216695
 20
1397.70610695
 30
0.0
 40
6.7886884
100
AcDbArc
 50
241.74457829
 51
270.0
  0
LINE
  5
2B6
100
AcDbEntity
  8
ZUWAKU
  6
CONTINUOUS
 62
      32
100
AcDbLine
 10
-707.72701945
 20
1394.04956706
 30
0.0
 11
-696.85526032
 21
1394.04956706
 31
0.0
  0
LINE
  5
2B7
100
AcDbEntity
  8
ZUWAKU
  6
CONTINUOUS
 62
      32
100
AcDbLine
 10
-690.45216695
 20
1390.91956706
 30
0.0
 11
-684.43342416
 21
1390.91956706
 31
0.0
  0
LINE
  5
2B8
100
AcDbEntity
  8
ZUWAKU
  6
CONTINUOUS
 62
      32
100
AcDbLine
 10
-690.37067059
 20
1394.04956706
 30
0.0
 11
-683.73210393
 21
1394.04956706
 31
0.0
  0
LINE
  5
2B9
100
AcDbEntity
  8
ZUWAKU
  6
CONTINUOUS
 62
      32
100
AcDbLine
 10
-766.0
 20
1390.91956706
 30
0.0
 11
-758.5
 21
1390.91956706
 31
0.0
  0
LINE
  5
2BA
100
AcDbEntity
  8
ZUWAKU
  6
CONTINUOUS
 62
      32
100
AcDbLine
 10
-734.36851949
 20
1391.01802954
 30
0.0
 11
-730.79341382
 21
1390.91956706
 31
0.0
  0
LINE
  5
2BB
100
AcDbEntity
  8
ZUWAKU
  6
CONTINUOUS
 62
      32
100
AcDbLine
 10
-721.79363636
 20
1394.04956706
 30
0.0
 11
-716.0141072
 21
1394.04956706
 31
0.0
  0
LINE
  5
2BC
100
AcDbEntity
  8
ZUWAKU
  6
CONTINUOUS
 62
      32
100
AcDbLine
 10
-705.34829482
 20
1398.55551421
 30
0.0
 11
-703.01345829
 21
1400.44284041
 31
0.0
  0
ARC
  5
2BD
100
AcDbEntity
  8
ZUWAKU
  6
CONTINUOUS
 62
      32
100
AcDbCircle
 10
-707.72701945
 20
1396.94956706
 30
0.0
 40
2.9
100
AcDbArc
 50
34.07537472
 51
270.0
  0
ARC
  5
2BE
100
AcDbEntity
  8
ZUWAKU
  6
CONTINUOUS
 62
      32
100
AcDbCircle
 10
-707.72701945
 20
1396.94956706
 30
0.0
 40
5.86690868
100
AcDbArc
 50
36.54256145
 51
190.98612084
  0
LINE
  5
2BF
100
AcDbEntity
  8
ZUWAKU
  6
CONTINUOUS
 62
      32
100
AcDbLine
 10
-715.22479454
 20
1390.91956706
 30
0.0
 11
-712.25303959
 21
1393.10633014
 31
0.0
  0
LINE
  5
2C0
100
AcDbEntity
  8
ZUWAKU
  6
CONTINUOUS
 62
      32
100
AcDbLine
 10
-713.52367522
 20
1395.88214909
 30
0.0
 11
-716.0141072
 21
1394.04956706
 31
0.0
  0
LINE
  5
2C1
100
AcDbEntity
  8
ZUWAKU
  6
CONTINUOUS
 62
      32
100
AcDbLine
 10
-712.25303959
 20
1393.10633014
 30
0.0
 11
-709.75
 21
1390.91956706
 31
0.0
  0
LINE
  5
2C2
100
AcDbEntity
  8
ZUWAKU
  6
CONTINUOUS
 62
      32
100
AcDbLine
 10
-683.73210393
 20
1394.04956706
 30
0.0
 11
-684.43342416
 21
1390.91956706
 31
0.0
  0
LINE
  5
2C3
100
AcDbEntity
  8
ZUWAKU
  6
CONTINUOUS
 62
      32
100
AcDbLine
 10
-849.94826658
 20
1421.46644206
 30
0.0
 11
-851.66701658
 21
1419.74769206
 31
0.0
  0
LINE
  5
2C4
100
AcDbEntity
  8
ZUWAKU
  6
CONTINUOUS
 62
      32
100
AcDbLine
 10
-846.33171526
 20
1421.82387286
 30
0.0
 11
-848.76532685
 21
1419.39026127
 31
0.0
  0
LINE
  5
2C5
100
AcDbEntity
  8
ZUWAKU
  6
CONTINUOUS
 62
      32
100
AcDbLine
 10
-842.23798785
 20
1422.10706706
 30
0.0
 11
-845.2418941
 21
1419.10316081
 31
0.0
  0
LINE
  5
2C6
100
AcDbEntity
  8
ZUWAKU
  6
CONTINUOUS
 62
      32
100
AcDbLine
 10
-838.20167582
 20
1422.16956706
 30
0.0
 11
-841.32667582
 21
1419.04456706
 31
0.0
  0
LINE
  5
2C7
100
AcDbEntity
  8
ZUWAKU
  6
CONTINUOUS
 62
      32
100
AcDbLine
 10
-834.0281449
 20
1422.16956706
 30
0.0
 11
-837.1531449
 21
1419.04456706
 31
0.0
  0
LINE
  5
2C8
100
AcDbEntity
  8
ZUWAKU
  6
CONTINUOUS
 62
      32
100
AcDbLine
 10
-829.43946323
 20
1422.16956706
 30
0.0
 11
-832.56446323
 21
1419.04456706
 31
0.0
  0
LINE
  5
2C9
100
AcDbEntity
  8
ZUWAKU
  6
CONTINUOUS
 62
      32
100
AcDbLine
 10
-825.57199411
 20
1422.16956706
 30
0.0
 11
-828.69699411
 21
1419.04456706
 31
0.0
  0
LINE
  5
2CA
100
AcDbEntity
  8
ZUWAKU
  6
CONTINUOUS
 62
      32
100
AcDbLine
 10
-824.49081063
 20
1391.86316146
 30
0.0
 11
-825.43440503
 21
1390.91956706
 31
0.0
  0
LINE
  5
2CB
100
AcDbEntity
  8
ZUWAKU
  6
CONTINUOUS
 62
      32
100
AcDbLine
 10
-822.79375436
 20
1396.38864486
 30
0.0
 11
-828.26283216
 21
1390.91956706
 31
0.0
  0
LINE
  5
2CC
100
AcDbEntity
  8
ZUWAKU
  6
CONTINUOUS
 62
      32
100
AcDbLine
 10
-821.09669809
 20
1400.91412826
 30
0.0
 11
-826.44524443
 21
1395.56558192
 31
0.0
  0
LINE
  5
2CD
100
AcDbEntity
  8
ZUWAKU
  6
CONTINUOUS
 62
      32
100
AcDbLine
 10
-827.96125928
 20
1394.04956706
 30
0.0
 11
-831.09125928
 21
1390.91956706
 31
0.0
  0
LINE
  5
2CE
100
AcDbEntity
  8
ZUWAKU
  6
CONTINUOUS
 62
      32
100
AcDbLine
 10
-819.39964181
 20
1405.43961166
 30
0.0
 11
-824.74818815
 21
1400.09106532
 31
0.0
  0
LINE
  5
2CF
100
AcDbEntity
  8
ZUWAKU
  6
CONTINUOUS
 62
      32
100
AcDbLine
 10
-830.78968641
 20
1394.04956706
 30
0.0
 11
-833.91968641
 21
1390.91956706
 31
0.0
  0
LINE
  5
2D0
100
AcDbEntity
  8
ZUWAKU
  6
CONTINUOUS
 62
      32
100
AcDbLine
 10
-833.61811353
 20
1394.04956706
 30
0.0
 11
-834.55113188
 21
1393.11654872
 31
0.0
  0
LINE
  5
2D1
100
AcDbEntity
  8
ZUWAKU
  6
CONTINUOUS
 62
      32
100
AcDbLine
 10
-813.98339491
 20
1422.16956706
 30
0.0
 11
-817.95996306
 21
1418.19299891
 31
0.0
  0
LINE
  5
2D2
100
AcDbEntity
  8
ZUWAKU
  6
CONTINUOUS
 62
      32
100
AcDbLine
 10
-816.81182203
 20
1422.16956706
 30
0.0
 11
-819.93682203
 21
1419.04456706
 31
0.0
  0
LINE
  5
2D3
100
AcDbEntity
  8
ZUWAKU
  6
CONTINUOUS
 62
      32
100
AcDbLine
 10
-819.64024916
 20
1422.16956706
 30
0.0
 11
-822.76524916
 21
1419.04456706
 31
0.0
  0
LINE
  5
2D4
100
AcDbEntity
  8
ZUWAKU
  6
CONTINUOUS
 62
      32
100
AcDbLine
 10
-822.46867628
 20
1422.16956706
 30
0.0
 11
-824.11879423
 21
1420.51944911
 31
0.0
  0
LINE
  5
2D5
100
AcDbEntity
  8
ZUWAKU
  6
CONTINUOUS
 62
      32
100
AcDbLine
 10
-793.79102904
 20
1402.76395319
 30
0.0
 11
-796.78292905
 21
1399.77205317
 31
0.0
  0
LINE
  5
2D6
100
AcDbEntity
  8
ZUWAKU
  6
CONTINUOUS
 62
      32
100
AcDbLine
 10
-790.77898891
 20
1402.94756619
 30
0.0
 11
-797.52059433
 21
1396.20596077
 31
0.0
  0
LINE
  5
2D7
100
AcDbEntity
  8
ZUWAKU
  6
CONTINUOUS
 62
      32
100
AcDbLine
 10
-788.59352178
 20
1399.47617907
 30
0.0
 11
-797.13704595
 21
1390.9326549
 31
0.0
  0
LINE
  5
2D8
100
AcDbEntity
  8
ZUWAKU
  6
CONTINUOUS
 62
      32
100
AcDbLine
 10
-808.32654066
 20
1422.16956706
 30
0.0
 11
-811.45154066
 21
1419.04456706
 31
0.0
  0
LINE
  5
2D9
100
AcDbEntity
  8
ZUWAKU
  6
CONTINUOUS
 62
      32
100
AcDbLine
 10
-816.00552926
 20
1414.49057846
 30
0.0
 11
-821.35407561
 21
1409.14203212
 31
0.0
  0
LINE
  5
2DA
100
AcDbEntity
  8
ZUWAKU
  6
CONTINUOUS
 62
      32
100
AcDbLine
 10
-805.49811353
 20
1422.16956706
 30
0.0
 11
-808.62311353
 21
1419.04456706
 31
0.0
  0
LINE
  5
2DB
100
AcDbEntity
  8
ZUWAKU
  6
CONTINUOUS
 62
      32
100
AcDbLine
 10
-817.70258554
 20
1409.96509506
 30
0.0
 11
-823.05113188
 21
1404.61654872
 31
0.0
  0
LINE
  5
2DC
100
AcDbEntity
  8
ZUWAKU
  6
CONTINUOUS
 62
      32
100
AcDbLine
 10
-802.70137123
 20
1422.13788224
 30
0.0
 11
-805.79468641
 21
1419.04456706
 31
0.0
  0
LINE
  5
2DD
100
AcDbEntity
  8
ZUWAKU
  6
CONTINUOUS
 62
      32
100
AcDbLine
 10
-815.79468641
 20
1409.04456706
 30
0.0
 11
-818.92468641
 21
1405.91456706
 31
0.0
  0
LINE
  5
2DE
100
AcDbEntity
  8
ZUWAKU
  6
CONTINUOUS
 62
      32
100
AcDbLine
 10
-800.41619543
 20
1421.59463092
 30
0.0
 11
-802.98505771
 21
1419.02576863
 31
0.0
  0
LINE
  5
2DF
100
AcDbEntity
  8
ZUWAKU
  6
CONTINUOUS
 62
      32
100
AcDbLine
 10
-812.96625928
 20
1409.04456706
 30
0.0
 11
-816.65795474
 21
1405.35287161
 31
0.0
  0
LINE
  5
2E0
100
AcDbEntity
  8
ZUWAKU
  6
CONTINUOUS
 62
      32
100
AcDbLine
 10
-798.59748574
 20
1420.58491349
 30
0.0
 11
-800.84863407
 21
1418.33376515
 31
0.0
  0
LINE
  5
2E1
100
AcDbEntity
  8
ZUWAKU
  6
CONTINUOUS
 62
      32
100
AcDbLine
 10
-797.14538308
 20
1419.20858902
 30
0.0
 11
-799.3720184
 21
1416.98195369
 31
0.0
  0
LINE
  5
2E2
100
AcDbEntity
  8
ZUWAKU
  6
CONTINUOUS
 62
      32
100
AcDbLine
 10
-796.05216138
 20
1417.47338359
 30
0.0
 11
-798.51284502
 21
1415.01269995
 31
0.0
  0
LINE
  5
2E3
100
AcDbEntity
  8
ZUWAKU
  6
CONTINUOUS
 62
      32
100
AcDbLine
 10
-795.39165519
 20
1415.30546266
 30
0.0
 11
-799.00756087
 21
1411.68955697
 31
0.0
  0
LINE
  5
2E4
100
AcDbEntity
  8
ZUWAKU
  6
CONTINUOUS
 62
      32
100
AcDbLine
 10
-811.15496778
 20
1422.16956706
 30
0.0
 11
-814.27996778
 21
1419.04456706
 31
0.0
  0
LINE
  5
2E5
100
AcDbEntity
  8
ZUWAKU
  6
CONTINUOUS
 62
      32
100
AcDbLine
 10
-814.30847299
 20
1419.01606186
 30
0.0
 11
-819.65701933
 21
1413.66751551
 31
0.0
  0
LINE
  5
2E6
100
AcDbEntity
  8
ZUWAKU
  6
CONTINUOUS
 62
      32
100
AcDbLine
 10
-807.30940503
 20
1409.04456706
 30
0.0
 11
-810.43940503
 21
1405.91456706
 31
0.0
  0
LINE
  5
2E7
100
AcDbEntity
  8
ZUWAKU
  6
CONTINUOUS
 62
      32
100
AcDbLine
 10
-812.31815658
 20
1404.03581552
 30
0.0
 11
-814.61520182
 21
1401.73877028
 31
0.0
  0
LINE
  5
2E8
100
AcDbEntity
  8
ZUWAKU
  6
CONTINUOUS
 62
      32
100
AcDbLine
 10
-810.13783216
 20
1409.04456706
 30
0.0
 11
-813.26783216
 21
1405.91456706
 31
0.0
  0
LINE
  5
2E9
100
AcDbEntity
  8
ZUWAKU
  6
CONTINUOUS
 62
      32
100
AcDbLine
 10
-813.33953304
 20
1405.84286618
 30
0.0
 11
-815.63657828
 21
1403.54582094
 31
0.0
  0
LINE
  5
2EA
100
AcDbEntity
  8
ZUWAKU
  6
CONTINUOUS
 62
      32
100
AcDbLine
 10
-804.48097791
 20
1409.04456706
 30
0.0
 11
-807.61097791
 21
1405.91456706
 31
0.0
  0
LINE
  5
2EB
100
AcDbEntity
  8
ZUWAKU
  6
CONTINUOUS
 62
      32
100
AcDbLine
 10
-811.29678012
 20
1402.22876485
 30
0.0
 11
-813.59382536
 21
1399.93171962
 31
0.0
  0
LINE
  5
2EC
100
AcDbEntity
  8
ZUWAKU
  6
CONTINUOUS
 62
      32
100
AcDbLine
 10
-801.06321145
 20
1409.6339064
 30
0.0
 11
-804.78255078
 21
1405.91456706
 31
0.0
  0
LINE
  5
2ED
100
AcDbEntity
  8
ZUWAKU
  6
CONTINUOUS
 62
      32
100
AcDbLine
 10
-810.27540366
 20
1400.42171419
 30
0.0
 11
-812.57244889
 21
1398.12466895
 31
0.0
  0
LINE
  5
2EE
100
AcDbEntity
  8
ZUWAKU
  6
CONTINUOUS
 62
      32
100
AcDbLine
 10
-795.45950627
 20
1412.40918446
 30
0.0
 11
-801.78283893
 21
1406.08585179
 31
0.0
  0
LINE
  5
2EF
100
AcDbEntity
  8
ZUWAKU
  6
CONTINUOUS
 62
      32
100
AcDbLine
 10
-809.2540272
 20
1398.61466353
 30
0.0
 11
-811.55107243
 21
1396.31761829
 31
0.0
  0
LINE
  5
2F0
100
AcDbEntity
  8
ZUWAKU
  6
CONTINUOUS
 62
      32
100
AcDbLine
 10
-808.23265073
 20
1396.80761286
 30
0.0
 11
-810.52969597
 21
1394.51056763
 31
0.0
  0
LINE
  5
2F1
100
AcDbEntity
  8
ZUWAKU
  6
CONTINUOUS
 62
      32
100
AcDbLine
 10
-807.21127427
 20
1395.0005622
 30
0.0
 11
-809.50831951
 21
1392.70351696
 31
0.0
  0
LINE
  5
2F2
100
AcDbEntity
  8
ZUWAKU
  6
CONTINUOUS
 62
      32
100
AcDbLine
 10
-805.33384229
 20
1394.04956706
 30
0.0
 11
-808.46384229
 21
1390.91956706
 31
0.0
  0
LINE
  5
2F3
100
AcDbEntity
  8
ZUWAKU
  6
CONTINUOUS
 62
      32
100
AcDbLine
 10
-802.50541516
 20
1394.04956706
 30
0.0
 11
-805.63541516
 21
1390.91956706
 31
0.0
  0
LINE
  5
2F4
100
AcDbEntity
  8
ZUWAKU
  6
CONTINUOUS
 62
      32
100
AcDbLine
 10
-799.67698804
 20
1394.04956706
 30
0.0
 11
-802.80698804
 21
1390.91956706
 31
0.0
  0
LINE
  5
2F5
100
AcDbEntity
  8
ZUWAKU
  6
CONTINUOUS
 62
      32
100
AcDbLine
 10
-789.24343536
 20
1401.65469261
 30
0.0
 11
-791.83551942
 21
1399.06260855
 31
0.0
  0
LINE
  5
2F6
100
AcDbEntity
  8
ZUWAKU
  6
CONTINUOUS
 62
      32
100
AcDbLine
 10
-794.18968897
 20
1396.708439
 30
0.0
 11
-799.97856091
 21
1390.91956706
 31
0.0
  0
LINE
  5
2F7
100
AcDbEntity
  8
ZUWAKU
  6
CONTINUOUS
 62
      32
100
AcDbLine
 10
-773.84592217
 20
1411.39535155
 30
0.0
 11
-781.01761282
 21
1404.22366091
 31
0.0
  0
LINE
  5
2F8
100
AcDbEntity
  8
ZUWAKU
  6
CONTINUOUS
 62
      32
100
AcDbLine
 10
-789.71113922
 20
1395.53013451
 30
0.0
 11
-793.7549801
 21
1391.48629362
 31
0.0
  0
LINE
  5
2F9
100
AcDbEntity
  8
ZUWAKU
  6
CONTINUOUS
 62
      32
100
AcDbLine
 10
-771.90276489
 20
1410.51008171
 30
0.0
 11
-782.63128623
 21
1399.78156037
 31
0.0
  0
LINE
  5
2FA
100
AcDbEntity
  8
ZUWAKU
  6
CONTINUOUS
 62
      32
100
AcDbLine
 10
-788.36327954
 20
1394.04956706
 30
0.0
 11
-791.48075457
 21
1390.93209203
 31
0.0
  0
LINE
  5
2FB
100
AcDbEntity
  8
ZUWAKU
  6
CONTINUOUS
 62
      32
100
AcDbLine
 10
-785.53485241
 20
1394.04956706
 30
0.0
 11
-788.66485241
 21
1390.91956706
 31
0.0
  0
LINE
  5
2FC
100
AcDbEntity
  8
ZUWAKU
  6
CONTINUOUS
 62
      32
100
AcDbLine
 10
-771.19852182
 20
1408.38589765
 30
0.0
 11
-775.27117876
 21
1404.31324071
 31
0.0
  0
LINE
  5
2FD
100
AcDbEntity
  8
ZUWAKU
  6
CONTINUOUS
 62
      32
100
AcDbLine
 10
-778.93338849
 20
1400.65103099
 30
0.0
 11
-783.00604543
 21
1396.57837405
 31
0.0
  0
LINE
  5
2FE
100
AcDbEntity
  8
ZUWAKU
  6
CONTINUOUS
 62
      32
100
AcDbLine
 10
-771.36119707
 20
1405.39479528
 30
0.0
 11
-785.83642529
 21
1390.91956706
 31
0.0
  0
LINE
  5
2FF
100
AcDbEntity
  8
ZUWAKU
  6
CONTINUOUS
 62
      32
100
AcDbLine
 10
-772.58962629
 20
1401.33793893
 30
0.0
 11
-782.6855036
 21
1391.24206163
 31
0.0
  0
LINE
  5
300
100
AcDbEntity
  8
ZUWAKU
  6
CONTINUOUS
 62
      32
100
AcDbLine
 10
-762.01738834
 20
1403.42285727
 30
0.0
 11
-774.52067855
 21
1390.91956706
 31
0.0
  0
LINE
  5
301
100
AcDbEntity
  8
ZUWAKU
  6
CONTINUOUS
 62
      32
100
AcDbLine
 10
-761.05297514
 20
1410.04412472
 30
0.0
 11
-761.70531006
 21
1409.3917898
 31
0.0
  0
LINE
  5
302
100
AcDbEntity
  8
ZUWAKU
  6
CONTINUOUS
 62
      32
100
AcDbLine
 10
-776.74607172
 20
1394.35102814
 30
0.0
 11
-779.1765413
 21
1391.92055856
 31
0.0
  0
LINE
  5
303
100
AcDbEntity
  8
ZUWAKU
  6
CONTINUOUS
 62
      32
100
AcDbLine
 10
-758.6312172
 20
1409.63745554
 30
0.0
 11
-761.29864087
 21
1406.97003186
 31
0.0
  0
LINE
  5
304
100
AcDbEntity
  8
ZUWAKU
  6
CONTINUOUS
 62
      32
100
AcDbLine
 10
-774.21910567
 20
1394.04956706
 30
0.0
 11
-777.07056288
 21
1391.19810986
 31
0.0
  0
LINE
  5
305
100
AcDbEntity
  8
ZUWAKU
  6
CONTINUOUS
 62
      32
100
AcDbLine
 10
-746.5665744
 20
1401.90310846
 30
0.0
 11
-756.79429803
 21
1391.67538483
 31
0.0
  0
LINE
  5
306
100
AcDbEntity
  8
ZUWAKU
  6
CONTINUOUS
 62
      32
100
AcDbLine
 10
-760.07697005
 20
1394.04956706
 30
0.0
 11
-763.20697005
 21
1390.91956706
 31
0.0
  0
LINE
  5
307
100
AcDbEntity
  8
ZUWAKU
  6
CONTINUOUS
 62
      32
100
AcDbLine
 10
-762.18511122
 20
1394.76985301
 30
0.0
 11
-766.03539717
 21
1390.91956706
 31
0.0
  0
LINE
  5
308
100
AcDbEntity
  8
ZUWAKU
  6
CONTINUOUS
 62
      32
100
AcDbLine
 10
-761.6194258
 20
1398.16396556
 30
0.0
 11
-765.42723514
 21
1394.35615622
 31
0.0
  0
LINE
  5
309
100
AcDbEntity
  8
ZUWAKU
  6
CONTINUOUS
 62
      32
100
AcDbLine
 10
-771.69225142
 20
1390.91956706
 30
0.0
 11
-761.05374037
 21
1401.55807811
 31
0.0
  0
LINE
  5
30A
100
AcDbEntity
  8
ZUWAKU
  6
CONTINUOUS
 62
      32
100
AcDbLine
 10
-740.62230313
 20
1402.19052548
 30
0.0
 11
-751.87443626
 21
1390.93839235
 31
0.0
  0
LINE
  5
30B
100
AcDbEntity
  8
ZUWAKU
  6
CONTINUOUS
 62
      32
100
AcDbLine
 10
-741.83795176
 20
1398.14644973
 30
0.0
 11
-747.72916992
 21
1392.25523156
 31
0.0
  0
LINE
  5
30C
100
AcDbEntity
  8
ZUWAKU
  6
CONTINUOUS
 62
      32
100
AcDbLine
 10
-742.875
 20
1394.28097436
 30
0.0
 11
-746.2364073
 21
1390.91956706
 31
0.0
  0
LINE
  5
30D
100
AcDbEntity
  8
ZUWAKU
  6
CONTINUOUS
 62
      32
100
AcDbLine
 10
-740.27798017
 20
1394.04956706
 30
0.0
 11
-743.40798017
 21
1390.91956706
 31
0.0
  0
LINE
  5
30E
100
AcDbEntity
  8
ZUWAKU
  6
CONTINUOUS
 62
      32
100
AcDbLine
 10
-730.25128136
 20
1401.24783875
 30
0.0
 11
-740.57955305
 21
1390.91956706
 31
0.0
  0
LINE
  5
30F
100
AcDbEntity
  8
ZUWAKU
  6
CONTINUOUS
 62
      32
100
AcDbLine
 10
-750.82978145
 20
1400.46832853
 30
0.0
 11
-752.43732249
 21
1398.86078749
 31
0.0
  0
LINE
  5
310
100
AcDbEntity
  8
ZUWAKU
  6
CONTINUOUS
 62
      32
100
AcDbLine
 10
-755.62546575
 20
1395.67264424
 30
0.0
 11
-760.37854292
 21
1390.91956706
 31
0.0
  0
LINE
  5
311
100
AcDbEntity
  8
ZUWAKU
  6
CONTINUOUS
 62
      32
100
AcDbLine
 10
-749.87498838
 20
1395.76626736
 30
0.0
 11
-753.68404423
 21
1391.9572115
 31
0.0
  0
LINE
  5
312
100
AcDbEntity
  8
ZUWAKU
  6
CONTINUOUS
 62
      32
100
AcDbLine
 10
-743.45073026
 20
1402.19052548
 30
0.0
 11
-743.83913658
 21
1401.80211916
 31
0.0
  0
LINE
  5
313
100
AcDbEntity
  8
ZUWAKU
  6
CONTINUOUS
 62
      32
100
AcDbLine
 10
-744.81694556
 20
1400.82431017
 30
0.0
 11
-747.50601285
 21
1398.13524289
 31
0.0
  0
LINE
  5
314
100
AcDbEntity
  8
ZUWAKU
  6
CONTINUOUS
 62
      32
100
AcDbLine
 10
-706.24539378
 20
1402.62630934
 30
0.0
 11
-717.95213605
 21
1390.91956706
 31
0.0
  0
LINE
  5
315
100
AcDbEntity
  8
ZUWAKU
  6
CONTINUOUS
 62
      32
100
AcDbLine
 10
-683.74871753
 20
1393.97542038
 30
0.0
 11
-686.80457085
 21
1390.91956706
 31
0.0
  0
LINE
  5
316
100
AcDbEntity
  8
ZUWAKU
  6
CONTINUOUS
 62
      32
100
AcDbLine
 10
-686.5378648
 20
1394.04956706
 30
0.0
 11
-689.6678648
 21
1390.91956706
 31
0.0
  0
LINE
  5
317
100
AcDbEntity
  8
ZUWAKU
  6
CONTINUOUS
 62
      32
100
AcDbLine
 10
-689.40893008
 20
1402.49221028
 30
0.0
 11
-692.31616554
 21
1399.58497482
 31
0.0
  0
LINE
  5
318
100
AcDbEntity
  8
ZUWAKU
  6
CONTINUOUS
 62
      32
100
AcDbLine
 10
-688.25138596
 20
1400.78646045
 30
0.0
 11
-691.13468189
 21
1397.90316452
 31
0.0
  0
LINE
  5
319
100
AcDbEntity
  8
ZUWAKU
  6
CONTINUOUS
 62
      32
100
AcDbLine
 10
-692.6980697
 20
1396.33977671
 30
0.0
 11
-698.11827935
 21
1390.91956706
 31
0.0
  0
LINE
  5
31A
100
AcDbEntity
  8
ZUWAKU
  6
CONTINUOUS
 62
      32
100
AcDbLine
 10
-691.51909614
 20
1403.17560452
 30
0.0
 11
-696.86240515
 21
1397.83229551
 31
0.0
  0
LINE
  5
31B
100
AcDbEntity
  8
ZUWAKU
  6
CONTINUOUS
 62
      32
100
AcDbLine
 10
-700.6451336
 20
1394.04956706
 30
0.0
 11
-703.7751336
 21
1390.91956706
 31
0.0
  0
LINE
  5
31C
100
AcDbEntity
  8
ZUWAKU
  6
CONTINUOUS
 62
      32
100
AcDbLine
 10
-693.81899777
 20
1398.0821426
 30
0.0
 11
-696.72623323
 21
1395.17490714
 31
0.0
  0
LINE
  5
31D
100
AcDbEntity
  8
ZUWAKU
  6
CONTINUOUS
 62
      32
100
AcDbLine
 10
-697.8515733
 20
1394.04956706
 30
0.0
 11
-700.9815733
 21
1390.91956706
 31
0.0
  0
LINE
  5
31E
100
AcDbEntity
  8
ZUWAKU
  6
CONTINUOUS
 62
      32
100
AcDbLine
 10
-688.09603527
 20
1398.14825085
 30
0.0
 11
-694.99817373
 21
1391.24611239
 31
0.0
  0
LINE
  5
31F
100
AcDbEntity
  8
ZUWAKU
  6
CONTINUOUS
 62
      32
100
AcDbLine
 10
-689.3314251
 20
1394.04956706
 30
0.0
 11
-692.22736324
 21
1391.15362892
 31
0.0
  0
LINE
  5
320
100
AcDbEntity
  8
ZUWAKU
  6
CONTINUOUS
 62
      32
100
AcDbLine
 10
-703.50842755
 20
1394.04956706
 30
0.0
 11
-706.63842755
 21
1390.91956706
 31
0.0
  0
LINE
  5
321
100
AcDbEntity
  8
ZUWAKU
  6
CONTINUOUS
 62
      32
100
AcDbLine
 10
-706.30198784
 20
1394.04956706
 30
0.0
 11
-709.43198784
 21
1390.91956706
 31
0.0
  0
LINE
  5
322
100
AcDbEntity
  8
ZUWAKU
  6
CONTINUOUS
 62
      32
100
AcDbLine
 10
-704.32408335
 20
1401.6843258
 30
0.0
 11
-706.45345607
 21
1399.55495309
 31
0.0
  0
LINE
  5
323
100
AcDbEntity
  8
ZUWAKU
  6
CONTINUOUS
 62
      32
100
AcDbLine
 10
-708.91209185
 20
1394.30275702
 30
0.0
 11
-711.10846678
 21
1392.10638209
 31
0.0
  0
LINE
  5
324
100
AcDbEntity
  8
ZUWAKU
  6
CONTINUOUS
 62
      32
100
AcDbLine
 10
-710.33240547
 20
1395.67600369
 30
0.0
 11
-714.71011743
 21
1391.29829173
 31
0.0
  0
LINE
  5
325
100
AcDbEntity
  8
ZUWAKU
  6
CONTINUOUS
 62
      32
100
AcDbLine
 10
-708.98531059
 20
1402.67995282
 30
0.0
 11
-713.4574052
 21
1398.20785821
 31
0.0
  0
LINE
  5
326
100
AcDbEntity
  8
ZUWAKU
  6
CONTINUOUS
 62
      32
100
AcDbLine
 10
-717.61569634
 20
1394.04956706
 30
0.0
 11
-720.74569634
 21
1390.91956706
 31
0.0
  0
LINE
  5
327
100
AcDbEntity
  8
ZUWAKU
  6
CONTINUOUS
 62
      32
100
AcDbLine
 10
-720.4789903
 20
1394.04956706
 30
0.0
 11
-723.6089903
 21
1390.91956706
 31
0.0
  0
LINE
  5
328
100
AcDbEntity
  8
ZUWAKU
  6
CONTINUOUS
 62
      32
100
AcDbLine
 10
-720.94854252
 20
1396.37357514
 30
0.0
 11
-726.40255059
 21
1390.91956706
 31
0.0
  0
LINE
  5
329
100
AcDbEntity
  8
ZUWAKU
  6
CONTINUOUS
 62
      32
100
AcDbLine
 10
-719.35322024
 20
1400.83219137
 30
0.0
 11
-725.11594597
 21
1395.06946564
 31
0.0
  0
LINE
  5
32A
100
AcDbEntity
  8
ZUWAKU
  6
CONTINUOUS
 62
      32
100
AcDbLine
 10
-720.32296668
 20
1402.69087205
 30
0.0
 11
-724.59427167
 21
1398.41956706
 31
0.0
  0
LINE
  5
32B
100
AcDbEntity
  8
ZUWAKU
  6
CONTINUOUS
 62
      32
100
AcDbLine
 10
-730.05006647
 20
1392.96377227
 30
0.0
 11
-732.09427167
 21
1390.91956706
 31
0.0
  0
LINE
  5
32C
100
AcDbEntity
  8
ZUWAKU
  6
CONTINUOUS
 62
      32
100
AcDbLine
 10
-723.0476988
 20
1402.79456706
 30
0.0
 11
-727.4226988
 21
1398.41956706
 31
0.0
  0
LINE
  5
32D
100
AcDbEntity
  8
ZUWAKU
  6
CONTINUOUS
 62
      32
100
AcDbLine
 10
-728.4338224
 20
1397.40844346
 30
0.0
 11
-734.10810986
 21
1391.734156
 31
0.0
  0
LINE
  5
32E
100
AcDbEntity
  8
ZUWAKU
  6
CONTINUOUS
 62
      32
100
AcDbLine
 10
-726.98636718
 20
1401.6843258
 30
0.0
 11
-736.88400739
 21
1391.78668559
 31
0.0
  0
LINE
  5
32F
100
AcDbEntity
  8
ZUWAKU
  6
CONTINUOUS
 62
      32
100
AcDbLine
 10
994.0
 20
-554.70543294
 30
0.0
 11
1049.0
 21
-554.70543294
 31
0.0
  0
LINE
  5
330
100
AcDbEntity
  8
ZUWAKU
  6
CONTINUOUS
 62
      32
100
AcDbLine
 10
994.0
 20
-504.70543294
 30
0.0
 11
1049.0
 21
-504.70543294
 31
0.0
  0
LINE
  5
331
100
AcDbEntity
  8
ZUWAKU
  6
CONTINUOUS
 62
      32
100
AcDbLine
 10
1049.0
 20
-504.70543294
 30
0.0
 11
1049.0
 21
-554.70543294
 31
0.0
  0
LINE
  5
332
100
AcDbEntity
  8
ZUWAKU
  6
CONTINUOUS
 62
      32
100
AcDbLine
 10
994.0
 20
-504.70543294
 30
0.0
 11
994.0
 21
-554.70543294
 31
0.0
  0
LINE
  5
333
100
AcDbEntity
  8
ZUWAKU
  6
CONTINUOUS
 62
      32
100
AcDbLine
 10
1049.0
 20
-554.53133474
 30
0.0
 11
1048.82590181
 21
-554.70543294
 31
0.0
  0
LINE
  5
334
100
AcDbEntity
  8
ZUWAKU
  6
CONTINUOUS
 62
      32
100
AcDbLine
 10
1019.65388177
 20
-504.70543294
 30
0.0
 11
994.0
 21
-530.35931471
 31
0.0
  0
LINE
  5
335
100
AcDbEntity
  8
ZUWAKU
  6
CONTINUOUS
 62
      32
100
AcDbLine
 10
1016.82545465
 20
-504.70543294
 30
0.0
 11
994.0
 21
-527.53088758
 31
0.0
  0
LINE
  5
336
100
AcDbEntity
  8
ZUWAKU
  6
CONTINUOUS
 62
      32
100
AcDbLine
 10
1013.99702752
 20
-504.70543294
 30
0.0
 11
994.0
 21
-524.70246046
 31
0.0
  0
LINE
  5
337
100
AcDbEntity
  8
ZUWAKU
  6
CONTINUOUS
 62
      32
100
AcDbLine
 10
1011.1686004
 20
-504.70543294
 30
0.0
 11
994.0
 21
-521.87403333
 31
0.0
  0
LINE
  5
338
100
AcDbEntity
  8
ZUWAKU
  6
CONTINUOUS
 62
      32
100
AcDbLine
 10
1008.34017327
 20
-504.70543294
 30
0.0
 11
994.0
 21
-519.04560621
 31
0.0
  0
LINE
  5
339
100
AcDbEntity
  8
ZUWAKU
  6
CONTINUOUS
 62
      32
100
AcDbLine
 10
1005.51174615
 20
-504.70543294
 30
0.0
 11
994.0
 21
-516.21717909
 31
0.0
  0
LINE
  5
33A
100
AcDbEntity
  8
ZUWAKU
  6
CONTINUOUS
 62
      32
100
AcDbLine
 10
1002.68331902
 20
-504.70543294
 30
0.0
 11
994.0
 21
-513.38875196
 31
0.0
  0
LINE
  5
33B
100
AcDbEntity
  8
ZUWAKU
  6
CONTINUOUS
 62
      32
100
AcDbLine
 10
999.8548919
 20
-504.70543294
 30
0.0
 11
994.0
 21
-510.56032484
 31
0.0
  0
LINE
  5
33C
100
AcDbEntity
  8
ZUWAKU
  6
CONTINUOUS
 62
      32
100
AcDbLine
 10
997.02646477
 20
-504.70543294
 30
0.0
 11
994.0
 21
-507.73189771
 31
0.0
  0
LINE
  5
33D
100
AcDbEntity
  8
ZUWAKU
  6
CONTINUOUS
 62
      32
100
AcDbLine
 10
1022.4823089
 20
-504.70543294
 30
0.0
 11
994.0
 21
-533.18774183
 31
0.0
  0
LINE
  5
33E
100
AcDbEntity
  8
ZUWAKU
  6
CONTINUOUS
 62
      32
100
AcDbLine
 10
1025.31073602
 20
-504.70543294
 30
0.0
 11
994.0
 21
-536.01616896
 31
0.0
  0
LINE
  5
33F
100
AcDbEntity
  8
ZUWAKU
  6
CONTINUOUS
 62
      32
100
AcDbLine
 10
1028.13916315
 20
-504.70543294
 30
0.0
 11
994.0
 21
-538.84459608
 31
0.0
  0
LINE
  5
340
100
AcDbEntity
  8
ZUWAKU
  6
CONTINUOUS
 62
      32
100
AcDbLine
 10
1030.96759027
 20
-504.70543294
 30
0.0
 11
994.0
 21
-541.67302321
 31
0.0
  0
LINE
  5
341
100
AcDbEntity
  8
ZUWAKU
  6
CONTINUOUS
 62
      32
100
AcDbLine
 10
1033.7960174
 20
-504.70543294
 30
0.0
 11
994.0
 21
-544.50145033
 31
0.0
  0
LINE
  5
342
100
AcDbEntity
  8
ZUWAKU
  6
CONTINUOUS
 62
      32
100
AcDbLine
 10
1036.62444452
 20
-504.70543294
 30
0.0
 11
994.0
 21
-547.32987746
 31
0.0
  0
LINE
  5
343
100
AcDbEntity
  8
ZUWAKU
  6
CONTINUOUS
 62
      32
100
AcDbLine
 10
1039.45287165
 20
-504.70543294
 30
0.0
 11
994.0
 21
-550.15830458
 31
0.0
  0
LINE
  5
344
100
AcDbEntity
  8
ZUWAKU
  6
CONTINUOUS
 62
      32
100
AcDbLine
 10
1042.28129877
 20
-504.70543294
 30
0.0
 11
994.0
 21
-552.98673171
 31
0.0
  0
LINE
  5
345
100
AcDbEntity
  8
ZUWAKU
  6
CONTINUOUS
 62
      32
100
AcDbLine
 10
1045.10972589
 20
-504.70543294
 30
0.0
 11
995.10972589
 21
-554.70543294
 31
0.0
  0
LINE
  5
346
100
AcDbEntity
  8
ZUWAKU
  6
CONTINUOUS
 62
      32
100
AcDbLine
 10
1047.93815302
 20
-504.70543294
 30
0.0
 11
997.93815302
 21
-554.70543294
 31
0.0
  0
LINE
  5
347
100
AcDbEntity
  8
ZUWAKU
  6
CONTINUOUS
 62
      32
100
AcDbLine
 10
1049.0
 20
-506.47201308
 30
0.0
 11
1000.76658014
 21
-554.70543294
 31
0.0
  0
LINE
  5
348
100
AcDbEntity
  8
ZUWAKU
  6
CONTINUOUS
 62
      32
100
AcDbLine
 10
1049.0
 20
-509.30044021
 30
0.0
 11
1003.59500727
 21
-554.70543294
 31
0.0
  0
LINE
  5
349
100
AcDbEntity
  8
ZUWAKU
  6
CONTINUOUS
 62
      32
100
AcDbLine
 10
1049.0
 20
-512.12886733
 30
0.0
 11
1006.42343439
 21
-554.70543294
 31
0.0
  0
LINE
  5
34A
100
AcDbEntity
  8
ZUWAKU
  6
CONTINUOUS
 62
      32
100
AcDbLine
 10
1049.0
 20
-514.95729446
 30
0.0
 11
1009.25186152
 21
-554.70543294
 31
0.0
  0
LINE
  5
34B
100
AcDbEntity
  8
ZUWAKU
  6
CONTINUOUS
 62
      32
100
AcDbLine
 10
1049.0
 20
-517.78572158
 30
0.0
 11
1012.08028864
 21
-554.70543294
 31
0.0
  0
LINE
  5
34C
100
AcDbEntity
  8
ZUWAKU
  6
CONTINUOUS
 62
      32
100
AcDbLine
 10
1049.0
 20
-520.61414871
 30
0.0
 11
1014.90871577
 21
-554.70543294
 31
0.0
  0
LINE
  5
34D
100
AcDbEntity
  8
ZUWAKU
  6
CONTINUOUS
 62
      32
100
AcDbLine
 10
1049.0
 20
-523.44257583
 30
0.0
 11
1017.73714289
 21
-554.70543294
 31
0.0
  0
LINE
  5
34E
100
AcDbEntity
  8
ZUWAKU
  6
CONTINUOUS
 62
      32
100
AcDbLine
 10
1049.0
 20
-526.27100295
 30
0.0
 11
1020.56557002
 21
-554.70543294
 31
0.0
  0
LINE
  5
34F
100
AcDbEntity
  8
ZUWAKU
  6
CONTINUOUS
 62
      32
100
AcDbLine
 10
1049.0
 20
-529.09943008
 30
0.0
 11
1023.39399714
 21
-554.70543294
 31
0.0
  0
LINE
  5
350
100
AcDbEntity
  8
ZUWAKU
  6
CONTINUOUS
 62
      32
100
AcDbLine
 10
1049.0
 20
-531.9278572
 30
0.0
 11
1026.22242427
 21
-554.70543294
 31
0.0
  0
LINE
  5
351
100
AcDbEntity
  8
ZUWAKU
  6
CONTINUOUS
 62
      32
100
AcDbLine
 10
1049.0
 20
-534.75628433
 30
0.0
 11
1029.05085139
 21
-554.70543294
 31
0.0
  0
LINE
  5
352
100
AcDbEntity
  8
ZUWAKU
  6
CONTINUOUS
 62
      32
100
AcDbLine
 10
1049.0
 20
-537.58471145
 30
0.0
 11
1031.87927852
 21
-554.70543294
 31
0.0
  0
LINE
  5
353
100
AcDbEntity
  8
ZUWAKU
  6
CONTINUOUS
 62
      32
100
AcDbLine
 10
1049.0
 20
-540.41313858
 30
0.0
 11
1034.70770564
 21
-554.70543294
 31
0.0
  0
LINE
  5
354
100
AcDbEntity
  8
ZUWAKU
  6
CONTINUOUS
 62
      32
100
AcDbLine
 10
1049.0
 20
-543.2415657
 30
0.0
 11
1037.53613277
 21
-554.70543294
 31
0.0
  0
LINE
  5
355
100
AcDbEntity
  8
ZUWAKU
  6
CONTINUOUS
 62
      32
100
AcDbLine
 10
1049.0
 20
-546.06999283
 30
0.0
 11
1040.36455989
 21
-554.70543294
 31
0.0
  0
LINE
  5
356
100
AcDbEntity
  8
ZUWAKU
  6
CONTINUOUS
 62
      32
100
AcDbLine
 10
1049.0
 20
-548.89841995
 30
0.0
 11
1043.19298702
 21
-554.70543294
 31
0.0
  0
LINE
  5
357
100
AcDbEntity
  8
ZUWAKU
  6
CONTINUOUS
 62
      32
100
AcDbLine
 10
1049.0
 20
-551.72684708
 30
0.0
 11
1046.02141414
 21
-554.70543294
 31
0.0
  0
LINE
  5
358
100
AcDbEntity
  8
ZUWAKU
  6
CONTINUOUS
 62
      32
100
AcDbLine
 10
1049.0
 20
-554.5552742
 30
0.0
 11
1048.84984126
 21
-554.70543294
 31
0.0
  0
TEXT
  5
359
100
AcDbEntity
  8
ZUWAKU
 62
      32
100
AcDbText
 10
-841.51187656
 20
-1386.58043294
 30
0.0
 40
34.0
  1
株式会社
 41
0.6667
 72
       5
 11
-732.71187656
 21
-1386.58043294
 31
0.0
100
AcDbText
  0
LINE
  5
35A
100
AcDbEntity
  8
ZUWAKU
  6
CONTINUOUS
 62
      43
100
AcDbLine
 10
-914.125
 20
1333.10819571
 30
0.0
 11
942.75
 21
1333.10819571
 31
0.0
  0
LINE
  5
35B
100
AcDbEntity
  8
ZUWAKU
  6
CONTINUOUS
 62
      43
100
AcDbLine
 10
-911.625
 20
-1412.20543294
 30
0.0
 11
932.75
 21
-1412.20543294
 31
0.0
  0
LINE
  5
35C
100
AcDbEntity
  8
ZUWAKU
  6
CONTINUOUS
 62
      43
100
AcDbLine
 10
-911.625
 20
-1291.58043294
 30
0.0
 11
932.75
 21
-1291.58043294
 31
0.0
  0
LINE
  5
35D
100
AcDbEntity
  8
ZUWAKU
  6
CONTINUOUS
 62
      43
100
AcDbLine
 10
-911.625
 20
-1274.70543294
 30
0.0
 11
932.75
 21
-1274.70543294
 31
0.0
  0
LINE
  5
35E
100
AcDbEntity
  8
ZUWAKU
  6
CONTINUOUS
 62
      43
100
AcDbLine
 10
-911.625
 20
-1274.70543294
 30
0.0
 11
-911.625
 21
-874.70543294
 31
0.0
  0
LINE
  5
35F
100
AcDbEntity
  8
ZUWAKU
  6
CONTINUOUS
 62
      43
100
AcDbLine
 10
932.75
 20
-1274.70543294
 30
0.0
 11
932.75
 21
-874.70543294
 31
0.0
  0
LINE
  5
360
100
AcDbEntity
  8
ZUWAKU
  6
CONTINUOUS
 62
      43
100
AcDbLine
 10
-911.625
 20
-874.70543294
 30
0.0
 11
932.75
 21
-874.70543294
 31
0.0
  0
ELLIPSE
  5
361
100
AcDbEntity
  8
ZUWAKU
  6
CONTINUOUS
 62
      43
100
AcDbEllipse
 10
-769.4375
 20
1403.08494364
 30
0.0
 11
-127.8125
 21
0.0
 31
0.0
210
0.0
220
0.0
230
1.0
 40
0.40365317
 41
0.0
 42
6.2831853071796004
  0
LINE
  5
362
100
AcDbEntity
  8
ZUWAKU
  6
CONTINUOUS
 62
      43
100
AcDbLine
 10
-872.25
 20
1427.79456706
 30
0.0
 11
-872.25
 21
1379.04456706
 31
0.0
  0
LINE
  5
363
100
AcDbEntity
  8
ZUWAKU
  6
CONTINUOUS
 62
      43
100
AcDbLine
 10
-666.0
 20
1427.79456706
 30
0.0
 11
-666.0
 21
1379.04456706
 31
0.0
  0
LINE
  5
364
100
AcDbEntity
  8
ZUWAKU
  6
CONTINUOUS
 62
      43
100
AcDbLine
 10
-872.25
 20
1427.79456706
 30
0.0
 11
-666.0
 21
1427.79456706
 31
0.0
  0
LINE
  5
365
100
AcDbEntity
  8
ZUWAKU
  6
CONTINUOUS
 62
      43
100
AcDbLine
 10
-872.25
 20
1379.04456706
 30
0.0
 11
-666.0
 21
1379.04456706
 31
0.0
  0
LINE
  5
366
100
AcDbEntity
  8
ZUWAKU
  6
CONTINUOUS
 62
      43
100
AcDbLine
 10
-782.17601784
 20
1454.41998751
 30
0.0
 11
-808.80143829
 21
1427.79456706
 31
0.0
  0
LINE
  5
367
100
AcDbEntity
  8
ZUWAKU
  6
CONTINUOUS
 62
      43
100
AcDbLine
 10
-785.13831633
 20
1454.28611614
 30
0.0
 11
-811.62986541
 21
1427.79456706
 31
0.0
  0
LINE
  5
368
100
AcDbEntity
  8
ZUWAKU
  6
CONTINUOUS
 62
      43
100
AcDbLine
 10
-788.13077005
 20
1454.12208955
 30
0.0
 11
-814.45829254
 21
1427.79456706
 31
0.0
  0
LINE
  5
369
100
AcDbEntity
  8
ZUWAKU
  6
CONTINUOUS
 62
      43
100
AcDbLine
 10
-791.15462514
 20
1453.92666158
 30
0.0
 11
-817.28671966
 21
1427.79456706
 31
0.0
  0
LINE
  5
36A
100
AcDbEntity
  8
ZUWAKU
  6
CONTINUOUS
 62
      43
100
AcDbLine
 10
-794.21127335
 20
1453.6984405
 30
0.0
 11
-820.11514679
 21
1427.79456706
 31
0.0
  0
LINE
  5
36B
100
AcDbEntity
  8
ZUWAKU
  6
CONTINUOUS
 62
      43
100
AcDbLine
 10
-797.30227429
 20
1453.43586668
 30
0.0
 11
-822.94357391
 21
1427.79456706
 31
0.0
  0
LINE
  5
36C
100
AcDbEntity
  8
ZUWAKU
  6
CONTINUOUS
 62
      43
100
AcDbLine
 10
-800.42938259
 20
1453.13718551
 30
0.0
 11
-825.77200104
 21
1427.79456706
 31
0.0
  0
LINE
  5
36D
100
AcDbEntity
  8
ZUWAKU
  6
CONTINUOUS
 62
      43
100
AcDbLine
 10
-803.5945811
 20
1452.80041412
 30
0.0
 11
-828.60042816
 21
1427.79456706
 31
0.0
  0
LINE
  5
36E
100
AcDbEntity
  8
ZUWAKU
  6
CONTINUOUS
 62
      43
100
AcDbLine
 10
-806.80012211
 20
1452.42330024
 30
0.0
 11
-831.42885529
 21
1427.79456706
 31
0.0
  0
LINE
  5
36F
100
AcDbEntity
  8
ZUWAKU
  6
CONTINUOUS
 62
      43
100
AcDbLine
 10
-810.0485788
 20
1452.00327067
 30
0.0
 11
-834.25728241
 21
1427.79456706
 31
0.0
  0
LINE
  5
370
100
AcDbEntity
  8
ZUWAKU
  6
CONTINUOUS
 62
      43
100
AcDbLine
 10
-813.34291053
 20
1451.53736607
 30
0.0
 11
-837.08570954
 21
1427.79456706
 31
0.0
  0
LINE
  5
371
100
AcDbEntity
  8
ZUWAKU
  6
CONTINUOUS
 62
      43
100
AcDbLine
 10
-816.68654648
 20
1451.02215724
 30
0.0
 11
-839.91413666
 21
1427.79456706
 31
0.0
  0
LINE
  5
372
100
AcDbEntity
  8
ZUWAKU
  6
CONTINUOUS
 62
      43
100
AcDbLine
 10
-820.08349464
 20
1450.45363621
 30
0.0
 11
-842.74256379
 21
1427.79456706
 31
0.0
  0
LINE
  5
373
100
AcDbEntity
  8
ZUWAKU
  6
CONTINUOUS
 62
      43
100
AcDbLine
 10
-823.53848609
 20
1449.82707188
 30
0.0
 11
-845.57099091
 21
1427.79456706
 31
0.0
  0
LINE
  5
374
100
AcDbEntity
  8
ZUWAKU
  6
CONTINUOUS
 62
      43
100
AcDbLine
 10
-827.05716978
 20
1449.13681531
 30
0.0
 11
-848.39941803
 21
1427.79456706
 31
0.0
  0
LINE
  5
375
100
AcDbEntity
  8
ZUWAKU
  6
CONTINUOUS
 62
      43
100
AcDbLine
 10
-872.25
 20
1403.9439851
 30
0.0
 11
-872.77441803
 21
1403.41956706
 31
0.0
  0
LINE
  5
376
100
AcDbEntity
  8
ZUWAKU
  6
CONTINUOUS
 62
      43
100
AcDbLine
 10
-830.64638112
 20
1448.3760311
 30
0.0
 11
-851.22784516
 21
1427.79456706
 31
0.0
  0
LINE
  5
377
100
AcDbEntity
  8
ZUWAKU
  6
CONTINUOUS
 62
      43
100
AcDbLine
 10
-872.25
 20
1406.77241222
 30
0.0
 11
-875.60284516
 21
1403.41956706
 31
0.0
  0
LINE
  5
378
100
AcDbEntity
  8
ZUWAKU
  6
CONTINUOUS
 62
      43
100
AcDbLine
 10
-834.31452209
 20
1447.53631725
 30
0.0
 11
-854.05627228
 21
1427.79456706
 31
0.0
  0
LINE
  5
379
100
AcDbEntity
  8
ZUWAKU
  6
CONTINUOUS
 62
      43
100
AcDbLine
 10
-872.25
 20
1409.60083935
 30
0.0
 11
-878.43127228
 21
1403.41956706
 31
0.0
  0
LINE
  5
37A
100
AcDbEntity
  8
ZUWAKU
  6
CONTINUOUS
 62
      43
100
AcDbLine
 10
-838.07211531
 20
1446.60715116
 30
0.0
 11
-856.88469941
 21
1427.79456706
 31
0.0
  0
LINE
  5
37B
100
AcDbEntity
  8
ZUWAKU
  6
CONTINUOUS
 62
      43
100
AcDbLine
 10
-872.25
 20
1412.42926647
 30
0.0
 11
-881.25969941
 21
1403.41956706
 31
0.0
  0
LINE
  5
37C
100
AcDbEntity
  8
ZUWAKU
  6
CONTINUOUS
 62
      43
100
AcDbLine
 10
-841.93264086
 20
1445.57505274
 30
0.0
 11
-859.71312653
 21
1427.79456706
 31
0.0
  0
LINE
  5
37D
100
AcDbEntity
  8
ZUWAKU
  6
CONTINUOUS
 62
      43
100
AcDbLine
 10
-872.25
 20
1415.2576936
 30
0.0
 11
-884.08812653
 21
1403.41956706
 31
0.0
  0
LINE
  5
37E
100
AcDbEntity
  8
ZUWAKU
  6
CONTINUOUS
 62
      43
100
AcDbLine
 10
-845.91385585
 20
1444.42226488
 30
0.0
 11
-862.54155366
 21
1427.79456706
 31
0.0
  0
LINE
  5
37F
100
AcDbEntity
  8
ZUWAKU
  6
CONTINUOUS
 62
      43
100
AcDbLine
 10
-872.25
 20
1418.08612072
 30
0.0
 11
-886.91655366
 21
1403.41956706
 31
0.0
  0
LINE
  5
380
100
AcDbEntity
  8
ZUWAKU
  6
CONTINUOUS
 62
      43
100
AcDbLine
 10
-850.03998908
 20
1443.12455877
 30
0.0
 11
-865.36998078
 21
1427.79456706
 31
0.0
  0
LINE
  5
381
100
AcDbEntity
  8
ZUWAKU
  6
CONTINUOUS
 62
      43
100
AcDbLine
 10
-872.25
 20
1420.91454785
 30
0.0
 11
-889.74498078
 21
1403.41956706
 31
0.0
  0
LINE
  5
382
100
AcDbEntity
  8
ZUWAKU
  6
CONTINUOUS
 62
      43
100
AcDbLine
 10
-854.34564819
 20
1441.64732678
 30
0.0
 11
-868.19840791
 21
1427.79456706
 31
0.0
  0
LINE
  5
383
100
AcDbEntity
  8
ZUWAKU
  6
CONTINUOUS
 62
      43
100
AcDbLine
 10
-872.25
 20
1423.74297497
 30
0.0
 11
-892.57340791
 21
1403.41956706
 31
0.0
  0
LINE
  5
384
100
AcDbEntity
  8
ZUWAKU
  6
CONTINUOUS
 62
      43
100
AcDbLine
 10
-858.88343111
 20
1439.93797099
 30
0.0
 11
-871.02683503
 21
1427.79456706
 31
0.0
  0
LINE
  5
385
100
AcDbEntity
  8
ZUWAKU
  6
CONTINUOUS
 62
      43
100
AcDbLine
 10
-872.25
 20
1426.5714021
 30
0.0
 11
-895.40183503
 21
1403.41956706
 31
0.0
  0
LINE
  5
386
100
AcDbEntity
  8
ZUWAKU
  6
CONTINUOUS
 62
      43
100
AcDbLine
 10
-863.74074208
 20
1437.90908714
 30
0.0
 11
-897.20563348
 21
1404.44419574
 31
0.0
  0
LINE
  5
387
100
AcDbEntity
  8
ZUWAKU
  6
CONTINUOUS
 62
      43
100
AcDbLine
 10
-869.08477772
 20
1435.39347862
 30
0.0
 11
-896.72588514
 21
1407.7523712
 31
0.0
  0
LINE
  5
388
100
AcDbEntity
  8
ZUWAKU
  6
CONTINUOUS
 62
      43
100
AcDbLine
 10
-875.33182498
 20
1431.97485849
 30
0.0
 11
-895.34312519
 21
1411.96355828
 31
0.0
  0
LINE
  5
389
100
AcDbEntity
  8
ZUWAKU
  6
CONTINUOUS
 62
      43
100
AcDbLine
 10
-885.06948422
 20
1425.06562637
 30
0.0
 11
-890.46975325
 21
1419.66535734
 31
0.0
  0
LINE
  5
38A
100
AcDbEntity
  8
ZUWAKU
  6
CONTINUOUS
 62
      43
100
AcDbLine
 10
-779.24275553
 20
1454.5248227
 30
0.0
 11
-805.97301116
 21
1427.79456706
 31
0.0
  0
LINE
  5
38B
100
AcDbEntity
  8
ZUWAKU
  6
CONTINUOUS
 62
      43
100
AcDbLine
 10
-776.337522
 20
1454.6016291
 30
0.0
 11
-803.14458404
 21
1427.79456706
 31
0.0
  0
LINE
  5
38C
100
AcDbEntity
  8
ZUWAKU
  6
CONTINUOUS
 62
      43
100
AcDbLine
 10
-773.45940856
 20
1454.65131542
 30
0.0
 11
-800.31615691
 21
1427.79456706
 31
0.0
  0
LINE
  5
38D
100
AcDbEntity
  8
ZUWAKU
  6
CONTINUOUS
 62
      43
100
AcDbLine
 10
-770.60759426
 20
1454.6747026
 30
0.0
 11
-797.48772979
 21
1427.79456706
 31
0.0
  0
LINE
  5
38E
100
AcDbEntity
  8
ZUWAKU
  6
CONTINUOUS
 62
      43
100
AcDbLine
 10
-767.78133654
 20
1454.67253318
 30
0.0
 11
-794.65930266
 21
1427.79456706
 31
0.0
  0
LINE
  5
38F
100
AcDbEntity
  8
ZUWAKU
  6
CONTINUOUS
 62
      43
100
AcDbLine
 10
-764.97996336
 20
1454.64547924
 30
0.0
 11
-791.83087554
 21
1427.79456706
 31
0.0
  0
LINE
  5
390
100
AcDbEntity
  8
ZUWAKU
  6
CONTINUOUS
 62
      43
100
AcDbLine
 10
-762.20286629
 20
1454.59414919
 30
0.0
 11
-789.00244842
 21
1427.79456706
 31
0.0
  0
LINE
  5
391
100
AcDbEntity
  8
ZUWAKU
  6
CONTINUOUS
 62
      43
100
AcDbLine
 10
-759.44949474
 20
1454.51909362
 30
0.0
 11
-786.17402129
 21
1427.79456706
 31
0.0
  0
LINE
  5
392
100
AcDbEntity
  8
ZUWAKU
  6
CONTINUOUS
 62
      43
100
AcDbLine
 10
-756.71935085
 20
1454.42081038
 30
0.0
 11
-783.34559417
 21
1427.79456706
 31
0.0
  0
LINE
  5
393
100
AcDbEntity
  8
ZUWAKU
  6
CONTINUOUS
 62
      43
100
AcDbLine
 10
-754.01198515
 20
1454.29974896
 30
0.0
 11
-780.51716704
 21
1427.79456706
 31
0.0
  0
LINE
  5
394
100
AcDbEntity
  8
ZUWAKU
  6
CONTINUOUS
 62
      43
100
AcDbLine
 10
-751.32699278
 20
1454.1563142
 30
0.0
 11
-777.68873992
 21
1427.79456706
 31
0.0
  0
LINE
  5
395
100
AcDbEntity
  8
ZUWAKU
  6
CONTINUOUS
 62
      43
100
AcDbLine
 10
-748.66401021
 20
1453.99086965
 30
0.0
 11
-774.86031279
 21
1427.79456706
 31
0.0
  0
LINE
  5
396
100
AcDbEntity
  8
ZUWAKU
  6
CONTINUOUS
 62
      43
100
AcDbLine
 10
-746.02271239
 20
1453.80374034
 30
0.0
 11
-772.03188567
 21
1427.79456706
 31
0.0
  0
LINE
  5
397
100
AcDbEntity
  8
ZUWAKU
  6
CONTINUOUS
 62
      43
100
AcDbLine
 10
-743.40281032
 20
1453.59521528
 30
0.0
 11
-769.20345854
 21
1427.79456706
 31
0.0
  0
LINE
  5
398
100
AcDbEntity
  8
ZUWAKU
  6
CONTINUOUS
 62
      43
100
AcDbLine
 10
-740.80404894
 20
1453.36554954
 30
0.0
 11
-766.37503142
 21
1427.79456706
 31
0.0
  0
LINE
  5
399
100
AcDbEntity
  8
ZUWAKU
  6
CONTINUOUS
 62
      43
100
AcDbLine
 10
-738.22620527
 20
1453.11496608
 30
0.0
 11
-763.54660429
 21
1427.79456706
 31
0.0
  0
LINE
  5
39A
100
AcDbEntity
  8
ZUWAKU
  6
CONTINUOUS
 62
      43
100
AcDbLine
 10
-735.6690869
 20
1452.84365733
 30
0.0
 11
-760.71817717
 21
1427.79456706
 31
0.0
  0
LINE
  5
39B
100
AcDbEntity
  8
ZUWAKU
  6
CONTINUOUS
 62
      43
100
AcDbLine
 10
-733.13253066
 20
1452.55178645
 30
0.0
 11
-757.88975004
 21
1427.79456706
 31
0.0
  0
LINE
  5
39C
100
AcDbEntity
  8
ZUWAKU
  6
CONTINUOUS
 62
      43
100
AcDbLine
 10
-730.61640154
 20
1452.23948844
 30
0.0
 11
-755.06132292
 21
1427.79456706
 31
0.0
  0
LINE
  5
39D
100
AcDbEntity
  8
ZUWAKU
  6
CONTINUOUS
 62
      43
100
AcDbLine
 10
-728.1205918
 20
1451.90687106
 30
0.0
 11
-752.23289579
 21
1427.79456706
 31
0.0
  0
LINE
  5
39E
100
AcDbEntity
  8
ZUWAKU
  6
CONTINUOUS
 62
      43
100
AcDbLine
 10
-725.64502028
 20
1451.55401545
 30
0.0
 11
-749.40446867
 21
1427.79456706
 31
0.0
  0
LINE
  5
39F
100
AcDbEntity
  8
ZUWAKU
  6
CONTINUOUS
 62
      43
100
AcDbLine
 10
-723.18963186
 20
1451.18097675
 30
0.0
 11
-746.57604154
 21
1427.79456706
 31
0.0
  0
LINE
  5
3A0
100
AcDbEntity
  8
ZUWAKU
  6
CONTINUOUS
 62
      43
100
AcDbLine
 10
-720.75439711
 20
1450.78778437
 30
0.0
 11
-743.74761442
 21
1427.79456706
 31
0.0
  0
LINE
  5
3A1
100
AcDbEntity
  8
ZUWAKU
  6
CONTINUOUS
 62
      43
100
AcDbLine
 10
-718.33931213
 20
1450.37444223
 30
0.0
 11
-740.91918729
 21
1427.79456706
 31
0.0
  0
LINE
  5
3A2
100
AcDbEntity
  8
ZUWAKU
  6
CONTINUOUS
 62
      43
100
AcDbLine
 10
-715.9443985
 20
1449.94092874
 30
0.0
 11
-738.09076017
 21
1427.79456706
 31
0.0
  0
LINE
  5
3A3
100
AcDbEntity
  8
ZUWAKU
  6
CONTINUOUS
 62
      43
100
AcDbLine
 10
-713.56970342
 20
1449.48719669
 30
0.0
 11
-735.26233305
 21
1427.79456706
 31
0.0
  0
LINE
  5
3A4
100
AcDbEntity
  8
ZUWAKU
  6
CONTINUOUS
 62
      43
100
AcDbLine
 10
-711.21530001
 20
1449.01317297
 30
0.0
 11
-732.43390592
 21
1427.79456706
 31
0.0
  0
LINE
  5
3A5
100
AcDbEntity
  8
ZUWAKU
  6
CONTINUOUS
 62
      43
100
AcDbLine
 10
-708.88128781
 20
1448.51875805
 30
0.0
 11
-729.6054788
 21
1427.79456706
 31
0.0
  0
LINE
  5
3A6
100
AcDbEntity
  8
ZUWAKU
  6
CONTINUOUS
 62
      43
100
AcDbLine
 10
-706.56779336
 20
1448.00382537
 30
0.0
 11
-726.77705167
 21
1427.79456706
 31
0.0
  0
LINE
  5
3A7
100
AcDbEntity
  8
ZUWAKU
  6
CONTINUOUS
 62
      43
100
AcDbLine
 10
-704.27497109
 20
1447.46822052
 30
0.0
 11
-723.94862455
 21
1427.79456706
 31
0.0
  0
LINE
  5
3A8
100
AcDbEntity
  8
ZUWAKU
  6
CONTINUOUS
 62
      43
100
AcDbLine
 10
-702.0030043
 20
1446.91176018
 30
0.0
 11
-721.12019742
 21
1427.79456706
 31
0.0
  0
LINE
  5
3A9
100
AcDbEntity
  8
ZUWAKU
  6
CONTINUOUS
 62
      43
100
AcDbLine
 10
-699.75210643
 20
1446.33423092
 30
0.0
 11
-718.2917703
 21
1427.79456706
 31
0.0
  0
LINE
  5
3AA
100
AcDbEntity
  8
ZUWAKU
  6
CONTINUOUS
 62
      43
100
AcDbLine
 10
-697.52252254
 20
1445.7353877
 30
0.0
 11
-715.46334317
 21
1427.79456706
 31
0.0
  0
LINE
  5
3AB
100
AcDbEntity
  8
ZUWAKU
  6
CONTINUOUS
 62
      43
100
AcDbLine
 10
-695.31453099
 20
1445.11495212
 30
0.0
 11
-712.63491605
 21
1427.79456706
 31
0.0
  0
LINE
  5
3AC
100
AcDbEntity
  8
ZUWAKU
  6
CONTINUOUS
 62
      43
100
AcDbLine
 10
-693.12844552
 20
1444.47261046
 30
0.0
 11
-709.80648892
 21
1427.79456706
 31
0.0
  0
LINE
  5
3AD
100
AcDbEntity
  8
ZUWAKU
  6
CONTINUOUS
 62
      43
100
AcDbLine
 10
-690.96461758
 20
1443.80801128
 30
0.0
 11
-706.9780618
 21
1427.79456706
 31
0.0
  0
LINE
  5
3AE
100
AcDbEntity
  8
ZUWAKU
  6
CONTINUOUS
 62
      43
100
AcDbLine
 10
-688.82343902
 20
1443.12076272
 30
0.0
 11
-704.14963467
 21
1427.79456706
 31
0.0
  0
LINE
  5
3AF
100
AcDbEntity
  8
ZUWAKU
  6
CONTINUOUS
 62
      43
100
AcDbLine
 10
-686.70534523
 20
1442.41042938
 30
0.0
 11
-701.32120755
 21
1427.79456706
 31
0.0
  0
LINE
  5
3B0
100
AcDbEntity
  8
ZUWAKU
  6
CONTINUOUS
 62
      43
100
AcDbLine
 10
-684.61081881
 20
1441.67652868
 30
0.0
 11
-698.49278042
 21
1427.79456706
 31
0.0
  0
LINE
  5
3B1
100
AcDbEntity
  8
ZUWAKU
  6
CONTINUOUS
 62
      43
100
AcDbLine
 10
-682.54039364
 20
1440.91852672
 30
0.0
 11
-695.6643533
 21
1427.79456706
 31
0.0
  0
LINE
  5
3B2
100
AcDbEntity
  8
ZUWAKU
  6
CONTINUOUS
 62
      43
100
AcDbLine
 10
-680.49465984
 20
1440.1358334
 30
0.0
 11
-692.83592617
 21
1427.79456706
 31
0.0
  0
LINE
  5
3B3
100
AcDbEntity
  8
ZUWAKU
  6
CONTINUOUS
 62
      43
100
AcDbLine
 10
-678.47426924
 20
1439.32779687
 30
0.0
 11
-690.00749905
 21
1427.79456706
 31
0.0
  0
LINE
  5
3B4
100
AcDbEntity
  8
ZUWAKU
  6
CONTINUOUS
 62
      43
100
AcDbLine
 10
-676.47994198
 20
1438.49369701
 30
0.0
 11
-687.17907192
 21
1427.79456706
 31
0.0
  0
LINE
  5
3B5
100
AcDbEntity
  8
ZUWAKU
  6
CONTINUOUS
 62
      43
100
AcDbLine
 10
-674.51247403
 20
1437.63273783
 30
0.0
 11
-684.3506448
 21
1427.79456706
 31
0.0
  0
LINE
  5
3B6
100
AcDbEntity
  8
ZUWAKU
  6
CONTINUOUS
 62
      43
100
AcDbLine
 10
-672.57274609
 20
1436.74403865
 30
0.0
 11
-681.52221767
 21
1427.79456706
 31
0.0
  0
LINE
  5
3B7
100
AcDbEntity
  8
ZUWAKU
  6
CONTINUOUS
 62
      43
100
AcDbLine
 10
-670.66173397
 20
1435.82662364
 30
0.0
 11
-678.69379055
 21
1427.79456706
 31
0.0
  0
LINE
  5
3B8
100
AcDbEntity
  8
ZUWAKU
  6
CONTINUOUS
 62
      43
100
AcDbLine
 10
-668.78052095
 20
1434.87940954
 30
0.0
 11
-675.86536343
 21
1427.79456706
 31
0.0
  0
LINE
  5
3B9
100
AcDbEntity
  8
ZUWAKU
  6
CONTINUOUS
 62
      43
100
AcDbLine
 10
-666.93031236
 20
1433.901191
 30
0.0
 11
-673.0369363
 21
1427.79456706
 31
0.0
  0
LINE
  5
3BA
100
AcDbEntity
  8
ZUWAKU
  6
CONTINUOUS
 62
      43
100
AcDbLine
 10
-665.1124531
 20
1432.89062314
 30
0.0
 11
-670.20850918
 21
1427.79456706
 31
0.0
  0
LINE
  5
3BB
100
AcDbEntity
  8
ZUWAKU
  6
CONTINUOUS
 62
      43
100
AcDbLine
 10
-663.32844863
 20
1431.84620049
 30
0.0
 11
-667.38008205
 21
1427.79456706
 31
0.0
  0
LINE
  5
3BC
100
AcDbEntity
  8
ZUWAKU
  6
CONTINUOUS
 62
      43
100
AcDbLine
 10
-661.57999051
 20
1430.76623148
 30
0.0
 11
-666.0
 21
1426.34622199
 31
0.0
  0
LINE
  5
3BD
100
AcDbEntity
  8
ZUWAKU
  6
CONTINUOUS
 62
      43
100
AcDbLine
 10
-659.8689876
 20
1429.64880726
 30
0.0
 11
-666.0
 21
1423.51779486
 31
0.0
  0
LINE
  5
3BE
100
AcDbEntity
  8
ZUWAKU
  6
CONTINUOUS
 62
      43
100
AcDbLine
 10
-658.19760457
 20
1428.49176317
 30
0.0
 11
-666.0
 21
1420.68936774
 31
0.0
  0
LINE
  5
3BF
100
AcDbEntity
  8
ZUWAKU
  6
CONTINUOUS
 62
      43
100
AcDbLine
 10
-656.5683099
 20
1427.29263071
 30
0.0
 11
-666.0
 21
1417.86094062
 31
0.0
  0
LINE
  5
3C0
100
AcDbEntity
  8
ZUWAKU
  6
CONTINUOUS
 62
      43
100
AcDbLine
 10
-654.98393653
 20
1426.04857696
 30
0.0
 11
-666.0
 21
1415.03251349
 31
0.0
  0
LINE
  5
3C1
100
AcDbEntity
  8
ZUWAKU
  6
CONTINUOUS
 62
      43
100
AcDbLine
 10
-653.44775922
 20
1424.75632715
 30
0.0
 11
-666.0
 21
1412.20408637
 31
0.0
  0
LINE
  5
3C2
100
AcDbEntity
  8
ZUWAKU
  6
CONTINUOUS
 62
      43
100
AcDbLine
 10
-651.96359487
 20
1423.41206437
 30
0.0
 11
-666.0
 21
1409.37565924
 31
0.0
  0
LINE
  5
3C3
100
AcDbEntity
  8
ZUWAKU
  6
CONTINUOUS
 62
      43
100
AcDbLine
 10
-650.53593469
 20
1422.01129743
 30
0.0
 11
-666.0
 21
1406.54723212
 31
0.0
  0
LINE
  5
3C4
100
AcDbEntity
  8
ZUWAKU
  6
CONTINUOUS
 62
      43
100
AcDbLine
 10
-649.17012141
 20
1420.54868358
 30
0.0
 11
-666.0
 21
1403.71880499
 31
0.0
  0
LINE
  5
3C5
100
AcDbEntity
  8
ZUWAKU
  6
CONTINUOUS
 62
      43
100
AcDbLine
 10
-647.87259206
 20
1419.01778581
 30
0.0
 11
-663.4708108
 21
1403.41956706
 31
0.0
  0
LINE
  5
3C6
100
AcDbEntity
  8
ZUWAKU
  6
CONTINUOUS
 62
      43
100
AcDbLine
 10
-646.65121863
 20
1417.41073211
 30
0.0
 11
-660.64238368
 21
1403.41956706
 31
0.0
  0
LINE
  5
3C7
100
AcDbEntity
  8
ZUWAKU
  6
CONTINUOUS
 62
      43
100
AcDbLine
 10
-645.51579999
 20
1415.71772363
 30
0.0
 11
-657.81395655
 21
1403.41956706
 31
0.0
  0
LINE
  5
3C8
100
AcDbEntity
  8
ZUWAKU
  6
CONTINUOUS
 62
      43
100
AcDbLine
 10
-644.47879609
 20
1413.92630041
 30
0.0
 11
-654.98552943
 21
1403.41956706
 31
0.0
  0
LINE
  5
3C9
100
AcDbEntity
  8
ZUWAKU
  6
CONTINUOUS
 62
      43
100
AcDbLine
 10
-643.55646962
 20
1412.02019975
 30
0.0
 11
-652.1571023
 21
1403.41956706
 31
0.0
  0
LINE
  5
3CA
100
AcDbEntity
  8
ZUWAKU
  6
CONTINUOUS
 62
      43
100
AcDbLine
 10
-642.77075138
 20
1409.97749086
 30
0.0
 11
-649.32867518
 21
1403.41956706
 31
0.0
  0
LINE
  5
3CB
100
AcDbEntity
  8
ZUWAKU
  6
CONTINUOUS
 62
      43
100
AcDbLine
 10
-642.15248642
 20
1407.76732869
 30
0.0
 11
-646.50024806
 21
1403.41956706
 31
0.0
  0
LINE
  5
3CC
100
AcDbEntity
  8
ZUWAKU
  6
CONTINUOUS
 62
      43
100
AcDbLine
 10
-641.74756699
 20
1405.343821
 30
0.0
 11
-643.67182093
 21
1403.41956706
 31
0.0
  0
LINE
  5
3CD
100
AcDbEntity
  8
ZUWAKU
  6
CONTINUOUS
 62
      43
100
AcDbLine
 10
-729.73894123
 20
1379.04456706
 30
0.0
 11
-757.04750525
 21
1351.73600305
 31
0.0
  0
LINE
  5
3CE
100
AcDbEntity
  8
ZUWAKU
  6
CONTINUOUS
 62
      43
100
AcDbLine
 10
-732.56736836
 20
1379.04456706
 30
0.0
 11
-759.97740101
 21
1351.63453441
 31
0.0
  0
LINE
  5
3CF
100
AcDbEntity
  8
ZUWAKU
  6
CONTINUOUS
 62
      43
100
AcDbLine
 10
-735.39579548
 20
1379.04456706
 30
0.0
 11
-762.87938042
 21
1351.56098213
 31
0.0
  0
LINE
  5
3D0
100
AcDbEntity
  8
ZUWAKU
  6
CONTINUOUS
 62
      43
100
AcDbLine
 10
-738.22422261
 20
1379.04456706
 30
0.0
 11
-765.75434123
 21
1351.51444844
 31
0.0
  0
LINE
  5
3D1
100
AcDbEntity
  8
ZUWAKU
  6
CONTINUOUS
 62
      43
100
AcDbLine
 10
-741.05264973
 20
1379.04456706
 30
0.0
 11
-768.60309469
 21
1351.4941221
 31
0.0
  0
LINE
  5
3D2
100
AcDbEntity
  8
ZUWAKU
  6
CONTINUOUS
 62
      43
100
AcDbLine
 10
-743.88107686
 20
1379.04456706
 30
0.0
 11
-771.4263746
 21
1351.49926932
 31
0.0
  0
LINE
  5
3D3
100
AcDbEntity
  8
ZUWAKU
  6
CONTINUOUS
 62
      43
100
AcDbLine
 10
-746.70950398
 20
1379.04456706
 30
0.0
 11
-774.22484516
 21
1351.52922588
 31
0.0
  0
LINE
  5
3D4
100
AcDbEntity
  8
ZUWAKU
  6
CONTINUOUS
 62
      43
100
AcDbLine
 10
-749.53793111
 20
1379.04456706
 30
0.0
 11
-776.99910766
 21
1351.58339051
 31
0.0
  0
LINE
  5
3D5
100
AcDbEntity
  8
ZUWAKU
  6
CONTINUOUS
 62
      43
100
AcDbLine
 10
-752.36635823
 20
1379.04456706
 30
0.0
 11
-779.7497062
 21
1351.6612191
 31
0.0
  0
LINE
  5
3D6
100
AcDbEntity
  8
ZUWAKU
  6
CONTINUOUS
 62
      43
100
AcDbLine
 10
-755.19478536
 20
1379.04456706
 30
0.0
 11
-782.4771327
 21
1351.76221972
 31
0.0
  0
LINE
  5
3D7
100
AcDbEntity
  8
ZUWAKU
  6
CONTINUOUS
 62
      43
100
AcDbLine
 10
-758.02321248
 20
1379.04456706
 30
0.0
 11
-785.18183116
 21
1351.88594838
 31
0.0
  0
LINE
  5
3D8
100
AcDbEntity
  8
ZUWAKU
  6
CONTINUOUS
 62
      43
100
AcDbLine
 10
-760.85163961
 20
1379.04456706
 30
0.0
 11
-787.8642014
 21
1352.03200527
 31
0.0
  0
LINE
  5
3D9
100
AcDbEntity
  8
ZUWAKU
  6
CONTINUOUS
 62
      43
100
AcDbLine
 10
-763.68006673
 20
1379.04456706
 30
0.0
 11
-790.52460226
 21
1352.20003153
 31
0.0
  0
LINE
  5
3DA
100
AcDbEntity
  8
ZUWAKU
  6
CONTINUOUS
 62
      43
100
AcDbLine
 10
-766.50849386
 20
1379.04456706
 30
0.0
 11
-793.16335439
 21
1352.38970653
 31
0.0
  0
LINE
  5
3DB
100
AcDbEntity
  8
ZUWAKU
  6
CONTINUOUS
 62
      43
100
AcDbLine
 10
-769.33692098
 20
1379.04456706
 30
0.0
 11
-795.78074267
 21
1352.60074537
 31
0.0
  0
LINE
  5
3DC
100
AcDbEntity
  8
ZUWAKU
  6
CONTINUOUS
 62
      43
100
AcDbLine
 10
-772.16534811
 20
1379.04456706
 30
0.0
 11
-798.37701829
 21
1352.83289688
 31
0.0
  0
LINE
  5
3DD
100
AcDbEntity
  8
ZUWAKU
  6
CONTINUOUS
 62
      43
100
AcDbLine
 10
-774.99377523
 20
1379.04456706
 30
0.0
 11
-800.95240053
 21
1353.08594176
 31
0.0
  0
LINE
  5
3DE
100
AcDbEntity
  8
ZUWAKU
  6
CONTINUOUS
 62
      43
100
AcDbLine
 10
-777.82220236
 20
1379.04456706
 30
0.0
 11
-803.50707828
 21
1353.35969114
 31
0.0
  0
LINE
  5
3DF
100
AcDbEntity
  8
ZUWAKU
  6
CONTINUOUS
 62
      43
100
AcDbLine
 10
-780.65062948
 20
1379.04456706
 30
0.0
 11
-806.04121132
 21
1353.65398522
 31
0.0
  0
LINE
  5
3E0
100
AcDbEntity
  8
ZUWAKU
  6
CONTINUOUS
 62
      43
100
AcDbLine
 10
-783.4790566
 20
1379.04456706
 30
0.0
 11
-808.55493139
 21
1353.96869228
 31
0.0
  0
LINE
  5
3E1
100
AcDbEntity
  8
ZUWAKU
  6
CONTINUOUS
 62
      43
100
AcDbLine
 10
-786.30748373
 20
1379.04456706
 30
0.0
 11
-811.04834306
 21
1354.30370774
 31
0.0
  0
LINE
  5
3E2
100
AcDbEntity
  8
ZUWAKU
  6
CONTINUOUS
 62
      43
100
AcDbLine
 10
-789.13591085
 20
1379.04456706
 30
0.0
 11
-813.52152438
 21
1354.65895354
 31
0.0
  0
LINE
  5
3E3
100
AcDbEntity
  8
ZUWAKU
  6
CONTINUOUS
 62
      43
100
AcDbLine
 10
-791.96433798
 20
1379.04456706
 30
0.0
 11
-815.97452742
 21
1355.03437762
 31
0.0
  0
LINE
  5
3E4
100
AcDbEntity
  8
ZUWAKU
  6
CONTINUOUS
 62
      43
100
AcDbLine
 10
-794.7927651
 20
1379.04456706
 30
0.0
 11
-818.40737857
 21
1355.42995359
 31
0.0
  0
LINE
  5
3E5
100
AcDbEntity
  8
ZUWAKU
  6
CONTINUOUS
 62
      43
100
AcDbLine
 10
-797.62119223
 20
1379.04456706
 30
0.0
 11
-820.82007874
 21
1355.84568056
 31
0.0
  0
LINE
  5
3E6
100
AcDbEntity
  8
ZUWAKU
  6
CONTINUOUS
 62
      43
100
AcDbLine
 10
-800.44961935
 20
1379.04456706
 30
0.0
 11
-823.21260331
 21
1356.28158311
 31
0.0
  0
LINE
  5
3E7
100
AcDbEntity
  8
ZUWAKU
  6
CONTINUOUS
 62
      43
100
AcDbLine
 10
-803.27804648
 20
1379.04456706
 30
0.0
 11
-825.58490204
 21
1356.7377115
 31
0.0
  0
LINE
  5
3E8
100
AcDbEntity
  8
ZUWAKU
  6
CONTINUOUS
 62
      43
100
AcDbLine
 10
-806.1064736
 20
1379.04456706
 30
0.0
 11
-827.9368987
 21
1357.21414197
 31
0.0
  0
LINE
  5
3E9
100
AcDbEntity
  8
ZUWAKU
  6
CONTINUOUS
 62
      43
100
AcDbLine
 10
-808.93490073
 20
1379.04456706
 30
0.0
 11
-830.26849062
 21
1357.71097717
 31
0.0
  0
LINE
  5
3EA
100
AcDbEntity
  8
ZUWAKU
  6
CONTINUOUS
 62
      43
100
AcDbLine
 10
-811.76332785
 20
1379.04456706
 30
0.0
 11
-832.57954798
 21
1358.22834693
 31
0.0
  0
LINE
  5
3EB
100
AcDbEntity
  8
ZUWAKU
  6
CONTINUOUS
 62
      43
100
AcDbLine
 10
-814.59175498
 20
1379.04456706
 30
0.0
 11
-834.86991301
 21
1358.76640903
 31
0.0
  0
LINE
  5
3EC
100
AcDbEntity
  8
ZUWAKU
  6
CONTINUOUS
 62
      43
100
AcDbLine
 10
-817.4201821
 20
1379.04456706
 30
0.0
 11
-837.13939891
 21
1359.32535026
 31
0.0
  0
LINE
  5
3ED
100
AcDbEntity
  8
ZUWAKU
  6
CONTINUOUS
 62
      43
100
AcDbLine
 10
-820.24860923
 20
1379.04456706
 30
0.0
 11
-839.38778856
 21
1359.90538773
 31
0.0
  0
LINE
  5
3EE
100
AcDbEntity
  8
ZUWAKU
  6
CONTINUOUS
 62
      43
100
AcDbLine
 10
-823.07703635
 20
1379.04456706
 30
0.0
 11
-841.61483309
 21
1360.50677032
 31
0.0
  0
LINE
  5
3EF
100
AcDbEntity
  8
ZUWAKU
  6
CONTINUOUS
 62
      43
100
AcDbLine
 10
-825.90546348
 20
1379.04456706
 30
0.0
 11
-843.82025004
 21
1361.12978049
 31
0.0
  0
LINE
  5
3F0
100
AcDbEntity
  8
ZUWAKU
  6
CONTINUOUS
 62
      43
100
AcDbLine
 10
-828.7338906
 20
1379.04456706
 30
0.0
 11
-846.00372135
 21
1361.77473631
 31
0.0
  0
LINE
  5
3F1
100
AcDbEntity
  8
ZUWAKU
  6
CONTINUOUS
 62
      43
100
AcDbLine
 10
-831.56231773
 20
1379.04456706
 30
0.0
 11
-848.16489094
 21
1362.44199385
 31
0.0
  0
LINE
  5
3F2
100
AcDbEntity
  8
ZUWAKU
  6
CONTINUOUS
 62
      43
100
AcDbLine
 10
-834.39074485
 20
1379.04456706
 30
0.0
 11
-850.30336197
 21
1363.13194994
 31
0.0
  0
LINE
  5
3F3
100
AcDbEntity
  8
ZUWAKU
  6
CONTINUOUS
 62
      43
100
AcDbLine
 10
-837.21917197
 20
1379.04456706
 30
0.0
 11
-852.41869367
 21
1363.84504537
 31
0.0
  0
LINE
  5
3F4
100
AcDbEntity
  8
ZUWAKU
  6
CONTINUOUS
 62
      43
100
AcDbLine
 10
-840.0475991
 20
1379.04456706
 30
0.0
 11
-854.51039761
 21
1364.58176856
 31
0.0
  0
LINE
  5
3F5
100
AcDbEntity
  8
ZUWAKU
  6
CONTINUOUS
 62
      43
100
AcDbLine
 10
-842.87602622
 20
1379.04456706
 30
0.0
 11
-856.5779335
 21
1365.34265979
 31
0.0
  0
LINE
  5
3F6
100
AcDbEntity
  8
ZUWAKU
  6
CONTINUOUS
 62
      43
100
AcDbLine
 10
-845.70445335
 20
1379.04456706
 30
0.0
 11
-858.62070426
 21
1366.12831616
 31
0.0
  0
LINE
  5
3F7
100
AcDbEntity
  8
ZUWAKU
  6
CONTINUOUS
 62
      43
100
AcDbLine
 10
-848.53288047
 20
1379.04456706
 30
0.0
 11
-860.6380503
 21
1366.93939723
 31
0.0
  0
LINE
  5
3F8
100
AcDbEntity
  8
ZUWAKU
  6
CONTINUOUS
 62
      43
100
AcDbLine
 10
-851.3613076
 20
1379.04456706
 30
0.0
 11
-862.62924296
 21
1367.7766317
 31
0.0
  0
LINE
  5
3F9
100
AcDbEntity
  8
ZUWAKU
  6
CONTINUOUS
 62
      43
100
AcDbLine
 10
-854.18973472
 20
1379.04456706
 30
0.0
 11
-864.59347671
 21
1368.64082507
 31
0.0
  0
LINE
  5
3FA
100
AcDbEntity
  8
ZUWAKU
  6
CONTINUOUS
 62
      43
100
AcDbLine
 10
-857.01816185
 20
1379.04456706
 30
0.0
 11
-866.5298602
 21
1369.53286871
 31
0.0
  0
LINE
  5
3FB
100
AcDbEntity
  8
ZUWAKU
  6
CONTINUOUS
 62
      43
100
AcDbLine
 10
-859.84658897
 20
1379.04456706
 30
0.0
 11
-868.43740557
 21
1370.45375046
 31
0.0
  0
LINE
  5
3FC
100
AcDbEntity
  8
ZUWAKU
  6
CONTINUOUS
 62
      43
100
AcDbLine
 10
-862.6750161
 20
1379.04456706
 30
0.0
 11
-870.31501592
 21
1371.40456724
 31
0.0
  0
LINE
  5
3FD
100
AcDbEntity
  8
ZUWAKU
  6
CONTINUOUS
 62
      43
100
AcDbLine
 10
-865.50344322
 20
1379.04456706
 30
0.0
 11
-872.16147037
 21
1372.38653992
 31
0.0
  0
LINE
  5
3FE
100
AcDbEntity
  8
ZUWAKU
  6
CONTINUOUS
 62
      43
100
AcDbLine
 10
-868.33187035
 20
1379.04456706
 30
0.0
 11
-873.97540621
 21
1373.4010312
 31
0.0
  0
LINE
  5
3FF
100
AcDbEntity
  8
ZUWAKU
  6
CONTINUOUS
 62
      43
100
AcDbLine
 10
-871.16029747
 20
1379.04456706
 30
0.0
 11
-875.75529739
 21
1374.44956714
 31
0.0
  0
LINE
  5
400
100
AcDbEntity
  8
ZUWAKU
  6
CONTINUOUS
 62
      43
100
AcDbLine
 10
-872.25
 20
1380.78329166
 30
0.0
 11
-877.4994284
 21
1375.53386326
 31
0.0
  0
LINE
  5
401
100
AcDbEntity
  8
ZUWAKU
  6
CONTINUOUS
 62
      43
100
AcDbLine
 10
-872.25
 20
1383.61171878
 30
0.0
 11
-879.20586227
 21
1376.65585651
 31
0.0
  0
LINE
  5
402
100
AcDbEntity
  8
ZUWAKU
  6
CONTINUOUS
 62
      43
100
AcDbLine
 10
-872.25
 20
1386.44014591
 30
0.0
 11
-880.87240112
 21
1377.81774478
 31
0.0
  0
LINE
  5
403
100
AcDbEntity
  8
ZUWAKU
  6
CONTINUOUS
 62
      43
100
AcDbLine
 10
-872.25
 20
1389.26857303
 30
0.0
 11
-882.49653679
 21
1379.02203625
 31
0.0
  0
LINE
  5
404
100
AcDbEntity
  8
ZUWAKU
  6
CONTINUOUS
 62
      43
100
AcDbLine
 10
-872.25
 20
1392.09700016
 30
0.0
 11
-884.07538848
 21
1380.27161168
 31
0.0
  0
LINE
  5
405
100
AcDbEntity
  8
ZUWAKU
  6
CONTINUOUS
 62
      43
100
AcDbLine
 10
-872.25
 20
1394.92542728
 30
0.0
 11
-885.60562306
 21
1381.56980422
 31
0.0
  0
LINE
  5
406
100
AcDbEntity
  8
ZUWAKU
  6
CONTINUOUS
 62
      43
100
AcDbLine
 10
-872.25
 20
1397.75385441
 30
0.0
 11
-887.08335147
 21
1382.92050294
 31
0.0
  0
LINE
  5
407
100
AcDbEntity
  8
ZUWAKU
  6
CONTINUOUS
 62
      43
100
AcDbLine
 10
-872.25
 20
1400.58228153
 30
0.0
 11
-888.50399204
 21
1384.32828949
 31
0.0
  0
LINE
  5
408
100
AcDbEntity
  8
ZUWAKU
  6
CONTINUOUS
 62
      43
100
AcDbLine
 10
-872.24114159
 20
1403.41956706
 30
0.0
 11
-889.86208682
 21
1385.79862184
 31
0.0
  0
LINE
  5
409
100
AcDbEntity
  8
ZUWAKU
  6
CONTINUOUS
 62
      43
100
AcDbLine
 10
-875.06956872
 20
1403.41956706
 30
0.0
 11
-891.1510491
 21
1387.33808668
 31
0.0
  0
LINE
  5
40A
100
AcDbEntity
  8
ZUWAKU
  6
CONTINUOUS
 62
      43
100
AcDbLine
 10
-877.89799584
 20
1403.41956706
 30
0.0
 11
-892.36280826
 21
1388.95475465
 31
0.0
  0
LINE
  5
40B
100
AcDbEntity
  8
ZUWAKU
  6
CONTINUOUS
 62
      43
100
AcDbLine
 10
-880.72642297
 20
1403.41956706
 30
0.0
 11
-893.48729494
 21
1390.6586951
 31
0.0
  0
LINE
  5
40C
100
AcDbEntity
  8
ZUWAKU
  6
CONTINUOUS
 62
      43
100
AcDbLine
 10
-883.55485009
 20
1403.41956706
 30
0.0
 11
-894.51166916
 21
1392.462748
 31
0.0
  0
LINE
  5
40D
100
AcDbEntity
  8
ZUWAKU
  6
CONTINUOUS
 62
      43
100
AcDbLine
 10
-886.38327722
 20
1403.41956706
 30
0.0
 11
-895.41911385
 21
1394.38373043
 31
0.0
  0
LINE
  5
40E
100
AcDbEntity
  8
ZUWAKU
  6
CONTINUOUS
 62
      43
100
AcDbLine
 10
-889.21170434
 20
1403.41956706
 30
0.0
 11
-896.18685024
 21
1396.44442116
 31
0.0
  0
LINE
  5
40F
100
AcDbEntity
  8
ZUWAKU
  6
CONTINUOUS
 62
      43
100
AcDbLine
 10
-892.04013147
 20
1403.41956706
 30
0.0
 11
-896.78265451
 21
1398.67704402
 31
0.0
  0
LINE
  5
410
100
AcDbEntity
  8
ZUWAKU
  6
CONTINUOUS
 62
      43
100
AcDbLine
 10
-894.86855859
 20
1403.41956706
 30
0.0
 11
-897.15820101
 21
1401.12992464
 31
0.0
  0
LINE
  5
411
100
AcDbEntity
  8
ZUWAKU
  6
CONTINUOUS
 62
      43
100
AcDbLine
 10
-726.91051411
 20
1379.04456706
 30
0.0
 11
-754.08869804
 21
1351.86638313
 31
0.0
  0
LINE
  5
412
100
AcDbEntity
  8
ZUWAKU
  6
CONTINUOUS
 62
      43
100
AcDbLine
 10
-724.08208698
 20
1379.04456706
 30
0.0
 11
-751.0998743
 21
1352.02677974
 31
0.0
  0
LINE
  5
413
100
AcDbEntity
  8
ZUWAKU
  6
CONTINUOUS
 62
      43
100
AcDbLine
 10
-721.25365986
 20
1379.04456706
 30
0.0
 11
-748.07980382
 21
1352.2184231
 31
0.0
  0
LINE
  5
414
100
AcDbEntity
  8
ZUWAKU
  6
CONTINUOUS
 62
      43
100
AcDbLine
 10
-718.42523274
 20
1379.04456706
 30
0.0
 11
-745.02711317
 21
1352.44268663
 31
0.0
  0
LINE
  5
415
100
AcDbEntity
  8
ZUWAKU
  6
CONTINUOUS
 62
      43
100
AcDbLine
 10
-715.59680561
 20
1379.04456706
 30
0.0
 11
-741.94026388
 21
1352.70110879
 31
0.0
  0
LINE
  5
416
100
AcDbEntity
  8
ZUWAKU
  6
CONTINUOUS
 62
      43
100
AcDbLine
 10
-712.76837849
 20
1379.04456706
 30
0.0
 11
-738.81752602
 21
1352.99541953
 31
0.0
  0
LINE
  5
417
100
AcDbEntity
  8
ZUWAKU
  6
CONTINUOUS
 62
      43
100
AcDbLine
 10
-709.93995136
 20
1379.04456706
 30
0.0
 11
-735.6569457
 21
1353.32757272
 31
0.0
  0
LINE
  5
418
100
AcDbEntity
  8
ZUWAKU
  6
CONTINUOUS
 62
      43
100
AcDbLine
 10
-707.11152424
 20
1379.04456706
 30
0.0
 11
-732.45630498
 21
1353.69978632
 31
0.0
  0
LINE
  5
419
100
AcDbEntity
  8
ZUWAKU
  6
CONTINUOUS
 62
      43
100
AcDbLine
 10
-704.28309711
 20
1379.04456706
 30
0.0
 11
-729.21307172
 21
1354.11459245
 31
0.0
  0
LINE
  5
41A
100
AcDbEntity
  8
ZUWAKU
  6
CONTINUOUS
 62
      43
100
AcDbLine
 10
-701.45466999
 20
1379.04456706
 30
0.0
 11
-725.92433622
 21
1354.57490083
 31
0.0
  0
LINE
  5
41B
100
AcDbEntity
  8
ZUWAKU
  6
CONTINUOUS
 62
      43
100
AcDbLine
 10
-698.62624286
 20
1379.04456706
 30
0.0
 11
-722.58673
 21
1355.08407993
 31
0.0
  0
LINE
  5
41C
100
AcDbEntity
  8
ZUWAKU
  6
CONTINUOUS
 62
      43
100
AcDbLine
 10
-695.79781574
 20
1379.04456706
 30
0.0
 11
-719.19632026
 21
1355.64606254
 31
0.0
  0
LINE
  5
41D
100
AcDbEntity
  8
ZUWAKU
  6
CONTINUOUS
 62
      43
100
AcDbLine
 10
-692.96938861
 20
1379.04456706
 30
0.0
 11
-715.74847048
 21
1356.2654852
 31
0.0
  0
LINE
  5
41E
100
AcDbEntity
  8
ZUWAKU
  6
CONTINUOUS
 62
      43
100
AcDbLine
 10
-665.76596149
 20
1403.41956706
 30
0.0
 11
-666.0
 21
1403.18552855
 31
0.0
  0
LINE
  5
41F
100
AcDbEntity
  8
ZUWAKU
  6
CONTINUOUS
 62
      43
100
AcDbLine
 10
-690.14096149
 20
1379.04456706
 30
0.0
 11
-712.23765259
 21
1356.94787596
 31
0.0
  0
LINE
  5
420
100
AcDbEntity
  8
ZUWAKU
  6
CONTINUOUS
 62
      43
100
AcDbLine
 10
-662.93753436
 20
1403.41956706
 30
0.0
 11
-666.0
 21
1400.35710143
 31
0.0
  0
LINE
  5
421
100
AcDbEntity
  8
ZUWAKU
  6
CONTINUOUS
 62
      43
100
AcDbLine
 10
-687.31253436
 20
1379.04456706
 30
0.0
 11
-708.65718877
 21
1357.69991266
 31
0.0
  0
LINE
  5
422
100
AcDbEntity
  8
ZUWAKU
  6
CONTINUOUS
 62
      43
100
AcDbLine
 10
-660.10910724
 20
1403.41956706
 30
0.0
 11
-666.0
 21
1397.5286743
 31
0.0
  0
LINE
  5
423
100
AcDbEntity
  8
ZUWAKU
  6
CONTINUOUS
 62
      43
100
AcDbLine
 10
-684.48410724
 20
1379.04456706
 30
0.0
 11
-704.99888712
 21
1358.52978718
 31
0.0
  0
LINE
  5
424
100
AcDbEntity
  8
ZUWAKU
  6
CONTINUOUS
 62
      43
100
AcDbLine
 10
-657.28068011
 20
1403.41956706
 30
0.0
 11
-666.0
 21
1394.70024718
 31
0.0
  0
LINE
  5
425
100
AcDbEntity
  8
ZUWAKU
  6
CONTINUOUS
 62
      43
100
AcDbLine
 10
-681.65568011
 20
1379.04456706
 30
0.0
 11
-701.25251273
 21
1359.44773445
 31
0.0
  0
LINE
  5
426
100
AcDbEntity
  8
ZUWAKU
  6
CONTINUOUS
 62
      43
100
AcDbLine
 10
-654.45225299
 20
1403.41956706
 30
0.0
 11
-666.0
 21
1391.87182005
 31
0.0
  0
LINE
  5
427
100
AcDbEntity
  8
ZUWAKU
  6
CONTINUOUS
 62
      43
100
AcDbLine
 10
-678.82725299
 20
1379.04456706
 30
0.0
 11
-697.40499226
 21
1360.46682779
 31
0.0
  0
LINE
  5
428
100
AcDbEntity
  8
ZUWAKU
  6
CONTINUOUS
 62
      43
100
AcDbLine
 10
-651.62382586
 20
1403.41956706
 30
0.0
 11
-666.0
 21
1389.04339293
 31
0.0
  0
LINE
  5
429
100
AcDbEntity
  8
ZUWAKU
  6
CONTINUOUS
 62
      43
100
AcDbLine
 10
-675.99882586
 20
1379.04456706
 30
0.0
 11
-693.43916687
 21
1361.60422606
 31
0.0
  0
LINE
  5
42A
100
AcDbEntity
  8
ZUWAKU
  6
CONTINUOUS
 62
      43
100
AcDbLine
 10
-648.79539874
 20
1403.41956706
 30
0.0
 11
-666.0
 21
1386.2149658
 31
0.0
  0
LINE
  5
42B
100
AcDbEntity
  8
ZUWAKU
  6
CONTINUOUS
 62
      43
100
AcDbLine
 10
-673.17039874
 20
1379.04456706
 30
0.0
 11
-689.33173233
 21
1362.88323348
 31
0.0
  0
LINE
  5
42C
100
AcDbEntity
  8
ZUWAKU
  6
CONTINUOUS
 62
      43
100
AcDbLine
 10
-645.96697161
 20
1403.41956706
 30
0.0
 11
-666.0
 21
1383.38653868
 31
0.0
  0
LINE
  5
42D
100
AcDbEntity
  8
ZUWAKU
  6
CONTINUOUS
 62
      43
100
AcDbLine
 10
-670.34197161
 20
1379.04456706
 30
0.0
 11
-685.04960479
 21
1364.33693389
 31
0.0
  0
LINE
  5
42E
100
AcDbEntity
  8
ZUWAKU
  6
CONTINUOUS
 62
      43
100
AcDbLine
 10
-643.13854449
 20
1403.41956706
 30
0.0
 11
-666.0
 21
1380.55811155
 31
0.0
  0
LINE
  5
42F
100
AcDbEntity
  8
ZUWAKU
  6
CONTINUOUS
 62
      43
100
AcDbLine
 10
-667.51354449
 20
1379.04456706
 30
0.0
 11
-680.54292671
 21
1366.01518484
 31
0.0
  0
LINE
  5
430
100
AcDbEntity
  8
ZUWAKU
  6
CONTINUOUS
 62
      43
100
AcDbLine
 10
-641.64922755
 20
1402.08045688
 30
0.0
 11
-675.72988239
 21
1367.99980204
 31
0.0
  0
LINE
  5
431
100
AcDbEntity
  8
ZUWAKU
  6
CONTINUOUS
 62
      43
100
AcDbLine
 10
-642.05763035
 20
1398.84362696
 30
0.0
 11
-670.45719229
 21
1370.44406502
 31
0.0
  0
LINE
  5
432
100
AcDbEntity
  8
ZUWAKU
  6
CONTINUOUS
 62
      43
100
AcDbLine
 10
-643.29117235
 20
1394.78165783
 30
0.0
 11
-664.35936298
 21
1373.7134672
 31
0.0
  0
LINE
  5
433
100
AcDbEntity
  8
ZUWAKU
  6
CONTINUOUS
 62
      43
100
AcDbLine
 10
-647.10676053
 20
1388.13764252
 30
0.0
 11
-655.6794875
 21
1379.56491556
 31
0.0
  0
LINE
  5
434
100
AcDbEntity
  8
ZUWAKU
  6
CONTINUOUS
 62
       3
100
AcDbLine
 10
311.5
 20
1432.16956706
 30
0.0
 11
942.75
 21
1432.16956706
 31
0.0
  0
LINE
  5
435
100
AcDbEntity
  8
ZUWAKU
  6
CONTINUOUS
 62
       3
100
AcDbLine
 10
311.5
 20
1432.16956706
 30
0.0
 11
311.5
 21
1333.10819571
 31
0.0
  0
LINE
  5
436
100
AcDbEntity
  8
ZUWAKU
  6
CONTINUOUS
 62
       3
100
AcDbLine
 10
942.75
 20
1432.16956706
 30
0.0
 11
942.75
 21
1333.10819571
 31
0.0
  0
LINE
  5
437
100
AcDbEntity
  8
ZUWAKU
  6
CONTINUOUS
 62
       3
100
AcDbLine
 10
-842.25
 20
-1274.70543294
 30
0.0
 11
-842.25
 21
-874.70543294
 31
0.0
  0
LINE
  5
438
100
AcDbEntity
  8
ZUWAKU
  6
CONTINUOUS
 62
       3
100
AcDbLine
 10
-376.625
 20
-1274.70543294
 30
0.0
 11
-376.625
 21
-874.70543294
 31
0.0
  0
LINE
  5
439
100
AcDbEntity
  8
ZUWAKU
  6
CONTINUOUS
 62
       3
100
AcDbLine
 10
154.625
 20
-1274.70543294
 30
0.0
 11
154.625
 21
-874.70543294
 31
0.0
  0
LINE
  5
43A
100
AcDbEntity
  8
ZUWAKU
  6
CONTINUOUS
 62
       3
100
AcDbLine
 10
265.875
 20
-1274.70543294
 30
0.0
 11
265.875
 21
-874.70543294
 31
0.0
  0
LINE
  5
43B
100
AcDbEntity
  8
ZUWAKU
  6
CONTINUOUS
 62
       3
100
AcDbLine
 10
309.0
 20
-1412.20543294
 30
0.0
 11
309.0
 21
-1291.58043294
 31
0.0
  0
LINE
  5
43C
100
AcDbEntity
  8
ZUWAKU
  6
CONTINUOUS
 62
       3
100
AcDbLine
 10
259.0
 20
-1412.20543294
 30
0.0
 11
259.0
 21
-1291.58043294
 31
0.0
  0
LINE
  5
43D
100
AcDbEntity
  8
ZUWAKU
  6
CONTINUOUS
 62
       3
100
AcDbLine
 10
-366.625
 20
-1412.20543294
 30
0.0
 11
-366.625
 21
-1291.58043294
 31
0.0
  0
LINE
  5
43E
100
AcDbEntity
  8
ZUWAKU
  6
CONTINUOUS
 62
       3
100
AcDbLine
 10
-416.625
 20
-1412.20543294
 30
0.0
 11
-416.625
 21
-1291.58043294
 31
0.0
  0
LINE
  5
43F
100
AcDbEntity
  8
ZUWAKU
  6
CONTINUOUS
 62
       3
100
AcDbLine
 10
-911.625
 20
-1224.70543294
 30
0.0
 11
932.75
 21
-1224.70543294
 31
0.0
  0
LINE
  5
440
100
AcDbEntity
  8
ZUWAKU
  6
CONTINUOUS
 62
       3
100
AcDbLine
 10
-911.625
 20
-1174.70543294
 30
0.0
 11
932.75
 21
-1174.70543294
 31
0.0
  0
LINE
  5
441
100
AcDbEntity
  8
ZUWAKU
  6
CONTINUOUS
 62
       3
100
AcDbLine
 10
-911.625
 20
-1124.70543294
 30
0.0
 11
932.75
 21
-1124.70543294
 31
0.0
  0
LINE
  5
442
100
AcDbEntity
  8
ZUWAKU
  6
CONTINUOUS
 62
       3
100
AcDbLine
 10
-911.625
 20
-1074.70543294
 30
0.0
 11
932.75
 21
-1074.70543294
 31
0.0
  0
LINE
  5
443
100
AcDbEntity
  8
ZUWAKU
  6
CONTINUOUS
 62
       3
100
AcDbLine
 10
-911.625
 20
-1024.70543294
 30
0.0
 11
932.75
 21
-1024.70543294
 31
0.0
  0
LINE
  5
444
100
AcDbEntity
  8
ZUWAKU
  6
CONTINUOUS
 62
       3
100
AcDbLine
 10
-911.625
 20
-974.70543294
 30
0.0
 11
932.75
 21
-974.70543294
 31
0.0
  0
LINE
  5
445
100
AcDbEntity
  8
ZUWAKU
  6
CONTINUOUS
 62
       3
100
AcDbLine
 10
-911.625
 20
-924.70543294
 30
0.0
 11
932.75
 21
-924.70543294
 31
0.0
  0
POINT
  5
446
100
AcDbEntity
  8
ZUWAKU
  6
CONTINUOUS
 62
       3
100
AcDbPoint
 10
-1051.0
 20
-0.65489349
 30
0.0
  0
TEXT
  5
447
100
AcDbEntity
  8
ZUWAKU
 62
       4
100
AcDbText
 10
740.8276519
 20
-1467.26496168
 30
0.0
 40
40.0
  1
101001
 41
0.8
 72
       5
 11
932.8276519
 21
-1467.26496168
 31
0.0
100
AcDbText
  0
TEXT
  5
448
100
AcDbEntity
  8
ZUWAKU
 62
       4
100
AcDbText
 10
-391.62994685
 20
-1300.15902367
 30
0.0
 40
24.99
  1
品 名
 41
0.8
  7
FDASTYLE1
100
AcDbText
  0
TEXT
  5
449
100
AcDbEntity
  8
ZUWAKU
 62
       4
100
AcDbText
 10
283.39243692
 20
-1300.33498836
 30
0.0
 40
24.99
  1
品　番
 41
0.8
  7
FDASTYLE1
100
AcDbText
  0
TEXT
  5
44A
100
AcDbEntity
  8
ZUWAKU
 62
       4
100
AcDbText
 10
-894.50746331
 20
-1219.30576695
 30
0.0
 40
40.0
  1
1
 41
0.8
 72
       5
 11
-862.50746331
 21
-1219.30576695
 31
0.0
100
AcDbText
  0
TEXT
  5
44B
100
AcDbEntity
  8
ZUWAKU
 62
       4
100
AcDbText
 10
-894.50746331
 20
-1169.30576695
 30
0.0
 40
40.0
  1
2
 41
0.8
 72
       5
 11
-862.50746331
 21
-1169.30576695
 31
0.0
100
AcDbText
  0
TEXT
  5
44C
100
AcDbEntity
  8
ZUWAKU
 62
       4
100
AcDbText
 10
-894.50746331
 20
-1119.30576695
 30
0.0
 40
40.0
  1
3
 41
0.8
 72
       5
 11
-862.50746331
 21
-1119.30576695
 31
0.0
100
AcDbText
  0
TEXT
  5
44D
100
AcDbEntity
  8
ZUWAKU
 62
       4
100
AcDbText
 10
-894.50746331
 20
-1069.30576695
 30
0.0
 40
40.0
  1
4
 41
0.8
 72
       5
 11
-862.50746331
 21
-1069.30576695
 31
0.0
100
AcDbText
  0
TEXT
  5
44E
100
AcDbEntity
  8
ZUWAKU
 62
       4
100
AcDbText
 10
-894.50746331
 20
-1019.30576695
 30
0.0
 40
40.0
  1
5
 41
0.8
 72
       5
 11
-862.50746331
 21
-1019.30576695
 31
0.0
100
AcDbText
  0
TEXT
  5
44F
100
AcDbEntity
  8
ZUWAKU
 62
       4
100
AcDbText
 10
-894.50746331
 20
-969.30576695
 30
0.0
 40
40.0
  1
6
 41
0.8
 72
       5
 11
-862.50746331
 21
-969.30576695
 31
0.0
100
AcDbText
  0
TEXT
  5
450
100
AcDbEntity
  8
ZUWAKU
 62
       4
100
AcDbText
 10
-894.50746331
 20
-919.30576695
 30
0.0
 40
40.0
  1
7
 41
0.8
 72
       5
 11
-862.50746331
 21
-919.30576695
 31
0.0
100
AcDbText
  0
TEXT
  5
451
100
AcDbEntity
  8
ZUWAKU
 62
       4
100
AcDbText
 10
517.72101199
 20
-1269.1084305
 30
0.0
 40
40.0
  1
摘要・仕上
 41
0.7143
 72
       5
 11
677.72101199
 21
-1269.1084305
 31
0.0
100
AcDbText
  0
TEXT
  5
452
100
AcDbEntity
  8
ZUWAKU
 62
       4
100
AcDbText
 10
161.36461294
 20
-1269.1084305
 30
0.0
 40
40.0
  1
個　数
 41
0.75
 72
       5
 11
257.36461294
 21
-1269.1084305
 31
0.0
100
AcDbText
  0
TEXT
  5
453
100
AcDbEntity
  8
ZUWAKU
 62
       4
100
AcDbText
 10
-174.59448008
 20
-1269.1084305
 30
0.0
 40
40.0
  1
材　　質
 41
0.6667
 72
       5
 11
-46.59448008
 21
-1269.1084305
 31
0.0
100
AcDbText
  0
TEXT
  5
454
100
AcDbEntity
  8
ZUWAKU
 62
       4
100
AcDbText
 10
-689.76867767
 20
-1269.1084305
 30
0.0
 40
40.0
  1
部　品　名
 41
0.7143
 72
       5
 11
-529.76867767
 21
-1269.1084305
 31
0.0
100
AcDbText
  0
TEXT
  5
455
100
AcDbEntity
  8
ZUWAKU
 62
       4
100
AcDbText
 10
-910.18981049
 20
-1269.1084305
 30
0.0
 40
40.0
  1
部番
 41
0.6667
 72
       5
 11
-846.18981049
 21
-1269.1084305
 31
0.0
100
AcDbText
  0
TEXT
  5
456
100
AcDbEntity
  8
ZUWAKU
 62
       4
100
AcDbText
 10
994.07241832
 20
-561.60827288
 30
0.0
 40
40.0
  1
洗面台
 50
-90.0
 41
0.75
 72
       5
 11
994.07241832
 21
-657.60827288
 31
0.0
100
AcDbText
  0
POINT
  5
457
100
AcDbEntity
  8
ZUWAKU
  6
CONTINUOUS
 62
       9
100
AcDbPoint
 10
627.125
 20
1382.63888139
 30
0.0
  0
POINT
  5
458
100
AcDbEntity
  8
ZUWAKU
  6
CONTINUOUS
 62
       9
100
AcDbPoint
 10
-150.02761628
 20
1382.63888139
 30
0.0
  0
POINT
  5
459
100
AcDbEntity
  8
ZUWAKU
  6
CONTINUOUS
 62
       9
100
AcDbPoint
 10
620.875
 20
-1351.89293294
 30
0.0
  0
POINT
  5
45A
100
AcDbEntity
  8
ZUWAKU
  6
CONTINUOUS
 62
       9
100
AcDbPoint
 10
-53.8125
 20
-1351.89293294
 30
0.0
  0
POINT
  5
45B
100
AcDbEntity
  8
ZUWAKU
  6
CONTINUOUS
 62
       9
100
AcDbPoint
 10
210.25
 20
-1199.70543294
 30
0.0
  0
POINT
  5
45C
100
AcDbEntity
  8
ZUWAKU
  6
CONTINUOUS
 62
       9
100
AcDbPoint
 10
-832.25
 20
-1199.70543294
 30
0.0
  0
POINT
  5
45D
100
AcDbEntity
  8
ZUWAKU
  6
CONTINUOUS
 62
       9
100
AcDbPoint
 10
-366.625
 20
-1199.70543294
 30
0.0
  0
POINT
  5
45E
100
AcDbEntity
  8
ZUWAKU
  6
CONTINUOUS
 62
       9
100
AcDbPoint
 10
275.875
 20
-1199.70543294
 30
0.0
  0
LINE
  5
45F
100
AcDbEntity
  8
ZUWAKU
  6
CONTINUOUS
 62
       9
100
AcDbLine
 10
-1051.0
 20
1534.0
 30
0.0
 11
-1051.0
 21
1484.0
 31
0.0
  0
LINE
  5
460
100
AcDbEntity
  8
ZUWAKU
  6
CONTINUOUS
 62
       9
100
AcDbLine
 10
-1051.0
 20
1484.0
 30
0.0
 11
-1101.0
 21
1484.0
 31
0.0
  0
LINE
  5
461
100
AcDbEntity
  8
ZUWAKU
  6
CONTINUOUS
 62
       9
100
AcDbLine
 10
1049.0
 20
1484.0
 30
0.0
 11
1099.0
 21
1484.0
 31
0.0
  0
LINE
  5
462
100
AcDbEntity
  8
ZUWAKU
  6
CONTINUOUS
 62
       9
100
AcDbLine
 10
1049.0
 20
1484.0
 30
0.0
 11
1049.0
 21
1534.0
 31
0.0
  0
LINE
  5
463
100
AcDbEntity
  8
ZUWAKU
  6
CONTINUOUS
 62
       9
100
AcDbLine
 10
1049.0
 20
-1536.0
 30
0.0
 11
1049.0
 21
-1486.0
 31
0.0
  0
LINE
  5
464
100
AcDbEntity
  8
ZUWAKU
  6
CONTINUOUS
 62
       9
100
AcDbLine
 10
1049.0
 20
-1486.0
 30
0.0
 11
1099.0
 21
-1486.0
 31
0.0
  0
LINE
  5
465
100
AcDbEntity
  8
ZUWAKU
  6
CONTINUOUS
 62
       9
100
AcDbLine
 10
-1101.23123094
 20
-1486.0
 30
0.0
 11
-1051.0
 21
-1486.0
 31
0.0
  0
LINE
  5
466
100
AcDbEntity
  8
ZUWAKU
  6
CONTINUOUS
 62
       9
100
AcDbLine
 10
-1051.0
 20
-1486.34510651
 30
0.0
 11
-1051.0
 21
-1535.99946532
 31
0.0
  0
POINT
  5
467
100
AcDbEntity
  8
ZUWAKU
  6
CONTINUOUS
 62
       9
100
AcDbPoint
 10
210.25
 20
-1149.70543294
 30
0.0
  0
POINT
  5
468
100
AcDbEntity
  8
ZUWAKU
  6
CONTINUOUS
 62
       9
100
AcDbPoint
 10
-832.25
 20
-1149.70543294
 30
0.0
  0
POINT
  5
469
100
AcDbEntity
  8
ZUWAKU
  6
CONTINUOUS
 62
       9
100
AcDbPoint
 10
-366.625
 20
-1149.70543294
 30
0.0
  0
POINT
  5
46A
100
AcDbEntity
  8
ZUWAKU
  6
CONTINUOUS
 62
       9
100
AcDbPoint
 10
275.875
 20
-1149.70543294
 30
0.0
  0
POINT
  5
46B
100
AcDbEntity
  8
ZUWAKU
  6
CONTINUOUS
 62
       9
100
AcDbPoint
 10
210.25
 20
-1099.70543294
 30
0.0
  0
POINT
  5
46C
100
AcDbEntity
  8
ZUWAKU
  6
CONTINUOUS
 62
       9
100
AcDbPoint
 10
-832.25
 20
-1099.70543294
 30
0.0
  0
POINT
  5
46D
100
AcDbEntity
  8
ZUWAKU
  6
CONTINUOUS
 62
       9
100
AcDbPoint
 10
-366.625
 20
-1099.70543294
 30
0.0
  0
POINT
  5
46E
100
AcDbEntity
  8
ZUWAKU
  6
CONTINUOUS
 62
       9
100
AcDbPoint
 10
275.875
 20
-1099.70543294
 30
0.0
  0
POINT
  5
46F
100
AcDbEntity
  8
ZUWAKU
  6
CONTINUOUS
 62
       9
100
AcDbPoint
 10
210.25
 20
-1049.70543294
 30
0.0
  0
POINT
  5
470
100
AcDbEntity
  8
ZUWAKU
  6
CONTINUOUS
 62
       9
100
AcDbPoint
 10
-832.25
 20
-1049.70543294
 30
0.0
  0
POINT
  5
471
100
AcDbEntity
  8
ZUWAKU
  6
CONTINUOUS
 62
       9
100
AcDbPoint
 10
-366.625
 20
-1049.70543294
 30
0.0
  0
POINT
  5
472
100
AcDbEntity
  8
ZUWAKU
  6
CONTINUOUS
 62
       9
100
AcDbPoint
 10
275.875
 20
-1049.70543294
 30
0.0
  0
POINT
  5
473
100
AcDbEntity
  8
ZUWAKU
  6
CONTINUOUS
 62
       9
100
AcDbPoint
 10
210.25
 20
-1049.70543294
 30
0.0
  0
POINT
  5
474
100
AcDbEntity
  8
ZUWAKU
  6
CONTINUOUS
 62
       9
100
AcDbPoint
 10
-832.25
 20
-999.70543294
 30
0.0
  0
POINT
  5
475
100
AcDbEntity
  8
ZUWAKU
  6
CONTINUOUS
 62
       9
100
AcDbPoint
 10
-366.625
 20
-999.70543294
 30
0.0
  0
POINT
  5
476
100
AcDbEntity
  8
ZUWAKU
  6
CONTINUOUS
 62
       9
100
AcDbPoint
 10
275.875
 20
-999.70543294
 30
0.0
  0
POINT
  5
477
100
AcDbEntity
  8
ZUWAKU
  6
CONTINUOUS
 62
       9
100
AcDbPoint
 10
210.25
 20
-999.70543294
 30
0.0
  0
POINT
  5
478
100
AcDbEntity
  8
ZUWAKU
  6
CONTINUOUS
 62
       9
100
AcDbPoint
 10
-832.25
 20
-949.70543294
 30
0.0
  0
POINT
  5
479
100
AcDbEntity
  8
ZUWAKU
  6
CONTINUOUS
 62
       9
100
AcDbPoint
 10
-366.625
 20
-949.70543294
 30
0.0
  0
POINT
  5
47A
100
AcDbEntity
  8
ZUWAKU
  6
CONTINUOUS
 62
       9
100
AcDbPoint
 10
275.875
 20
-949.70543294
 30
0.0
  0
POINT
  5
47B
100
AcDbEntity
  8
ZUWAKU
  6
CONTINUOUS
 62
       9
100
AcDbPoint
 10
210.25
 20
-899.70543294
 30
0.0
  0
POINT
  5
47C
100
AcDbEntity
  8
ZUWAKU
  6
CONTINUOUS
 62
       9
100
AcDbPoint
 10
-832.25
 20
-899.70543294
 30
0.0
  0
POINT
  5
47D
100
AcDbEntity
  8
ZUWAKU
  6
CONTINUOUS
 62
       9
100
AcDbPoint
 10
-366.625
 20
-899.70543294
 30
0.0
  0
POINT
  5
47E
100
AcDbEntity
  8
ZUWAKU
  6
CONTINUOUS
 62
       9
100
AcDbPoint
 10
275.875
 20
-899.70543294
 30
0.0
  0
TEXT
  5
47F
100
AcDbEntity
  8
LAYER0240
 62
       7
100
AcDbText
 10
508.875
 20
-1371.89293294
 30
0.0
 40
40.0
  1
MAN７６５Ｆ
 41
0.7778
 72
       5
 11
732.875
 21
-1371.89293294
 31
0.0
100
AcDbText
  0
TEXT
  5
480
100
AcDbEntity
  8
LAYER0240
 62
       7
100
AcDbText
 10
-357.8125
 20
-1371.89293294
 30
0.0
 40
40.0
  1
アメリカンナチュラルミラーキャビネット
 41
0.6786
 72
       5
 11
250.1875
 21
-1371.89293294
 31
0.0
100
AcDbText
  0
TEXT
  5
481
100
AcDbEntity
  8
LAYER0240
 62
       7
100
AcDbText
 10
-832.25
 20
-1219.70543294
 30
0.0
 40
40.0
  1
キャビネット本体
 41
0.6667
 72
       5
 11
-576.25
 21
-1219.70543294
 31
0.0
100
AcDbText
  0
TEXT
  5
482
100
AcDbEntity
  8
LAYER0240
 62
       7
100
AcDbText
 10
-366.625
 20
-1219.70543294
 30
0.0
 40
40.0
  1
プリント紙化粧合板
 41
0.6923
 72
       5
 11
-78.625
 21
-1219.70543294
 31
0.0
100
AcDbText
  0
TEXT
  5
483
100
AcDbEntity
  8
LAYER0240
 62
       7
100
AcDbText
 10
194.25
 20
-1219.70543294
 30
0.0
 40
40.0
  1
１
 41
0.8
 72
       5
 11
226.25
 21
-1219.70543294
 31
0.0
100
AcDbText
  0
TEXT
  5
484
100
AcDbEntity
  8
LAYER0240
 62
       7
100
AcDbText
 10
275.875
 20
-1219.70543294
 30
0.0
 40
40.0
  1
オーク調
 41
0.6667
 72
       5
 11
403.875
 21
-1219.70543294
 31
0.0
100
AcDbText
  0
TEXT
  5
485
100
AcDbEntity
  8
LAYER0240
 62
       7
100
AcDbText
 10
-832.25
 20
-1169.70543294
 30
0.0
 40
40.0
  1
扉
 41
0.8
 72
       5
 11
-800.25
 21
-1169.70543294
 31
0.0
100
AcDbText
  0
TEXT
  5
486
100
AcDbEntity
  8
LAYER0240
 62
       7
100
AcDbText
 10
-366.625
 20
-1169.70543294
 30
0.0
 40
40.0
  1
天然木／鏡
 41
0.7143
 72
       5
 11
-206.625
 21
-1169.70543294
 31
0.0
100
AcDbText
  0
TEXT
  5
487
100
AcDbEntity
  8
LAYER0240
 62
       7
100
AcDbText
 10
275.875
 20
-1169.70543294
 30
0.0
 40
40.0
  1
ナラ材
 41
0.75
 72
       5
 11
371.875
 21
-1169.70543294
 31
0.0
100
AcDbText
  0
TEXT
  5
488
100
AcDbEntity
  8
LAYER0240
 62
       7
100
AcDbText
 10
-832.25
 20
-1019.70543294
 30
0.0
 40
40.0
  1
取付ネジ ４X50
 41
0.75
 72
       5
 11
-544.25
 21
-1019.70543294
 31
0.0
100
AcDbText
  0
TEXT
  5
489
100
AcDbEntity
  8
LAYER0240
 62
       7
100
AcDbText
 10
275.875
 20
-1119.70543294
 30
0.0
 40
40.0
  1
オーク調
 41
0.6667
 72
       5
 11
403.875
 21
-1119.70543294
 31
0.0
100
AcDbText
  0
TEXT
  5
48A
100
AcDbEntity
  8
LAYER0240
 62
       7
100
AcDbText
 10
194.25
 20
-1169.70543294
 30
0.0
 40
40.0
  1
３
 41
0.8
 72
       5
 11
226.25
 21
-1169.70543294
 31
0.0
100
AcDbText
  0
TEXT
  5
48B
100
AcDbEntity
  8
LAYER0240
 62
       7
100
AcDbText
 10
-366.625
 20
-1119.70543294
 30
0.0
 40
40.0
  1
プリント紙化粧合板
 41
0.6923
 72
       5
 11
-78.625
 21
-1119.70543294
 31
0.0
100
AcDbText
  0
TEXT
  5
48C
100
AcDbEntity
  8
LAYER0240
 62
       7
100
AcDbText
 10
194.25
 20
-1019.70543294
 30
0.0
 40
40.0
  1
６
 41
0.8
 72
       5
 11
226.25
 21
-1019.70543294
 31
0.0
100
AcDbText
  0
TEXT
  5
48D
100
AcDbEntity
  8
LAYER0240
 62
       7
100
AcDbText
 10
-357.8125
 20
1361.60028545
 30
0.0
 40
40.0
  1
アメリカンナチュラルミラーキャビネット
 41
0.6786
 72
       5
 11
250.1875
 21
1361.60028545
 31
0.0
100
AcDbText
  0
TEXT
  5
48E
100
AcDbEntity
  8
LAYER0240
 62
       7
100
AcDbText
 10
508.875
 20
1361.60028545
 30
0.0
 40
40.0
  1
MAN７６５Ｆ
 41
0.7778
 72
       5
 11
732.875
 21
1361.60028545
 31
0.0
100
AcDbText
  0
TEXT
  5
48F
100
AcDbEntity
  8
LAYER0240
 62
       7
100
AcDbText
 10
-832.25
 20
-1069.70543294
 30
0.0
 40
40.0
  1
ダボピン
 41
0.6667
 72
       5
 11
-704.25
 21
-1069.70543294
 31
0.0
100
AcDbText
  0
TEXT
  5
490
100
AcDbEntity
  8
LAYER0240
 62
       7
100
AcDbText
 10
-366.625
 20
-1069.70543294
 30
0.0
 40
40.0
  1
SUS３０４
 41
0.75
 72
       5
 11
-174.625
 21
-1069.70543294
 31
0.0
100
AcDbText
  0
TEXT
  5
491
100
AcDbEntity
  8
LAYER0240
 62
       7
100
AcDbText
 10
178.36731528
 20
-1069.70543294
 30
0.0
 40
40.0
  1
24
 41
0.8
 72
       5
 11
242.36731528
 21
-1069.70543294
 31
0.0
100
AcDbText
  0
TEXT
  5
492
100
AcDbEntity
  8
LAYER0240
 62
       7
100
AcDbText
 10
543.01648712
 20
-838.16099533
 30
0.0
 40
40.0
  1
※棚板は2段可動式×３列
 41
0.7059
 72
       5
 11
927.01648712
 21
-838.16099533
 31
0.0
100
AcDbText
  0
TEXT
  5
493
100
AcDbEntity
  8
LAYER0240
 62
       7
100
AcDbText
 10
162.25
 20
-1119.70543294
 30
0.0
 40
40.0
  1
2/4
 41
0.8
 72
       5
 11
258.25
 21
-1119.70543294
 31
0.0
100
AcDbText
  0
TEXT
  5
494
100
AcDbEntity
  8
LAYER0240
 62
       7
100
AcDbText
 10
-832.25
 20
-1119.70543294
 30
0.0
 40
40.0
  1
中棚板/左右棚板
 41
0.7273
 72
       5
 11
-576.25
 21
-1119.70543294
 31
0.0
100
AcDbText
  0
TEXT
  5
495
100
AcDbEntity
  8
LAYER0240
 62
       7
100
AcDbText
 10
-366.625
 20
-1019.70543294
 30
0.0
 40
40.0
  1
鋼材
 41
0.6667
 72
       5
 11
-302.625
 21
-1019.70543294
 31
0.0
100
AcDbText
  0
TEXT
  5
496
100
AcDbEntity
  8
LAYER0240
 62
       7
100
AcDbText
 10
275.875
 20
-1019.70543294
 30
0.0
 40
40.0
  1
+コーススレッド
 41
0.7273
 72
       5
 11
531.875
 21
-1019.70543294
 31
0.0
100
AcDbText
  0
LINE
  5
497
100
AcDbEntity
  8
0
  6
CONTINUOUS
 62
       3
100
AcDbLine
 10
-522.34747402
 20
-302.96144681
 30
0.0
 11
-136.34747402
 21
-302.96144681
 31
0.0
  0
LINE
  5
498
100
AcDbEntity
  8
0
  6
CONTINUOUS
 62
       3
100
AcDbLine
 10
-502.34747402
 20
12.36955627
 30
0.0
 11
-502.34747402
 21
-302.96144681
 31
0.0
  0
LINE
  5
499
100
AcDbEntity
  8
0
  6
CONTINUOUS
 62
       3
100
AcDbLine
 10
-502.34747402
 20
-282.96144681
 30
0.0
 11
-370.15899591
 21
-282.96144681
 31
0.0
  0
LINE
  5
49A
100
AcDbEntity
  8
0
  6
CONTINUOUS
 62
       3
100
AcDbLine
 10
-502.34747402
 20
-102.41063721
 30
0.0
 11
-406.50627665
 21
-102.41063721
 31
0.0
  0
LINE
  5
49B
100
AcDbEntity
  8
0
  6
CONTINUOUS
 62
       3
100
AcDbLine
 10
-502.34747402
 20
-87.41063721
 30
0.0
 11
-411.15890229
 21
-87.41063721
 31
0.0
  0
LINE
  5
49C
100
AcDbEntity
  8
0
  6
CONTINUOUS
 62
       3
100
AcDbLine
 10
242.65252598
 20
422.03855319
 30
0.0
 11
-522.34747402
 21
422.03855319
 31
0.0
  0
LINE
  5
49D
100
AcDbEntity
  8
0
  6
CONTINUOUS
 62
       3
100
AcDbLine
 10
-522.34747402
 20
422.03855319
 30
0.0
 11
-522.34747402
 21
-302.96144681
 31
0.0
  0
LINE
  5
49E
100
AcDbEntity
  8
0
  6
CONTINUOUS
 62
       3
100
AcDbLine
 10
705.12462864
 20
422.03855319
 30
0.0
 11
705.12462864
 21
-302.96144681
 31
0.0
  0
LINE
  5
49F
100
AcDbEntity
  8
0
  6
CONTINUOUS
 62
       3
100
AcDbLine
 10
-522.34747402
 20
848.62812376
 30
0.0
 11
242.65252598
 21
848.62812376
 31
0.0
  0
LINE
  5
4A0
100
AcDbEntity
  8
0
  6
CONTINUOUS
 62
       3
100
AcDbLine
 10
242.65252598
 20
742.62812376
 30
0.0
 11
-522.34747402
 21
742.62812376
 31
0.0
  0
LINE
  5
4A1
100
AcDbEntity
  8
0
  6
CONTINUOUS
 62
       3
100
AcDbLine
 10
-265.84747402
 20
721.12812376
 30
0.0
 11
-265.84747402
 21
741.12812376
 31
0.0
  0
LINE
  5
4A2
100
AcDbEntity
  8
0
  6
CONTINUOUS
 62
       3
100
AcDbLine
 10
-13.84747402
 20
721.12812376
 30
0.0
 11
-13.84747402
 21
741.12812376
 31
0.0
  0
LINE
  5
4A3
100
AcDbEntity
  8
0
  6
CONTINUOUS
 62
       3
100
AcDbLine
 10
-9.34747402
 20
721.12812376
 30
0.0
 11
-9.34747402
 21
741.12812376
 31
0.0
  0
LINE
  5
4A4
100
AcDbEntity
  8
0
  6
CONTINUOUS
 62
       3
100
AcDbLine
 10
61.65252598
 20
742.62812376
 30
0.0
 11
61.65252598
 21
741.12812376
 31
0.0
  0
LINE
  5
4A5
100
AcDbEntity
  8
0
  6
CONTINUOUS
 62
       3
100
AcDbLine
 10
14.65252598
 20
741.12812376
 30
0.0
 11
14.65252598
 21
742.62812376
 31
0.0
  0
LINE
  5
4A6
100
AcDbEntity
  8
0
  6
CONTINUOUS
 62
       3
100
AcDbLine
 10
242.65252598
 20
741.12812376
 30
0.0
 11
-9.34747402
 21
741.12812376
 31
0.0
  0
LINE
  5
4A7
100
AcDbEntity
  8
0
  6
CONTINUOUS
 62
       3
100
AcDbLine
 10
242.65252598
 20
725.62812376
 30
0.0
 11
242.65252598
 21
741.12812376
 31
0.0
  0
LINE
  5
4A8
100
AcDbEntity
  8
0
  6
CONTINUOUS
 62
       3
100
AcDbLine
 10
236.65252598
 20
721.12812376
 30
0.0
 11
-9.34747402
 21
721.12812376
 31
0.0
  0
LINE
  5
4A9
100
AcDbEntity
  8
0
  6
CONTINUOUS
 62
       3
100
AcDbLine
 10
-13.84747402
 20
721.12812376
 30
0.0
 11
-265.84747402
 21
721.12812376
 31
0.0
  0
LINE
  5
4AA
100
AcDbEntity
  8
0
  6
CONTINUOUS
 62
       3
100
AcDbLine
 10
-194.84747402
 20
742.62812376
 30
0.0
 11
-194.84747402
 21
741.12812376
 31
0.0
  0
LINE
  5
4AB
100
AcDbEntity
  8
0
  6
CONTINUOUS
 62
       3
100
AcDbLine
 10
-241.84747402
 20
741.12812376
 30
0.0
 11
-241.84747402
 21
742.62812376
 31
0.0
  0
LINE
  5
4AC
100
AcDbEntity
  8
0
  6
CONTINUOUS
 62
       3
100
AcDbLine
 10
-265.84747402
 20
741.12812376
 30
0.0
 11
-13.84747402
 21
741.12812376
 31
0.0
  0
LINE
  5
4AD
100
AcDbEntity
  8
0
  6
CONTINUOUS
 62
       3
100
AcDbLine
 10
-270.34747402
 20
721.12812376
 30
0.0
 11
-270.34747402
 21
741.12812376
 31
0.0
  0
LINE
  5
4AE
100
AcDbEntity
  8
0
  6
CONTINUOUS
 62
       3
100
AcDbLine
 10
-522.34747402
 20
725.62812376
 30
0.0
 11
-522.34747402
 21
741.12812376
 31
0.0
  0
LINE
  5
4AF
100
AcDbEntity
  8
0
  6
CONTINUOUS
 62
       3
100
AcDbLine
 10
-516.34747402
 20
721.12812376
 30
0.0
 11
-270.34747402
 21
721.12812376
 31
0.0
  0
LINE
  5
4B0
100
AcDbEntity
  8
0
  6
CONTINUOUS
 62
       3
100
AcDbLine
 10
-341.34747402
 20
742.62812376
 30
0.0
 11
-341.34747402
 21
741.12812376
 31
0.0
  0
LINE
  5
4B1
100
AcDbEntity
  8
0
  6
CONTINUOUS
 62
       3
100
AcDbLine
 10
-294.34747402
 20
741.12812376
 30
0.0
 11
-294.34747402
 21
742.62812376
 31
0.0
  0
LINE
  5
4B2
100
AcDbEntity
  8
0
  6
CONTINUOUS
 62
       3
100
AcDbLine
 10
-270.34747402
 20
741.12812376
 30
0.0
 11
-522.34747402
 21
741.12812376
 31
0.0
  0
LINE
  5
4B3
100
AcDbEntity
  8
0
  6
CONTINUOUS
 62
       3
100
AcDbLine
 10
210.65252598
 20
721.12812376
 30
0.0
 11
210.65252598
 21
727.12812376
 31
0.0
  0
LINE
  5
4B4
100
AcDbEntity
  8
0
  6
CONTINUOUS
 62
       3
100
AcDbLine
 10
-490.34747402
 20
727.12812376
 30
0.0
 11
-490.34747402
 21
721.12812376
 31
0.0
  0
LINE
  5
4B5
100
AcDbEntity
  8
0
  6
CONTINUOUS
 62
       3
100
AcDbLine
 10
242.65252598
 20
727.12812376
 30
0.0
 11
-9.34747402
 21
727.12812376
 31
0.0
  0
LINE
  5
4B6
100
AcDbEntity
  8
0
  6
CONTINUOUS
 62
       3
100
AcDbLine
 10
-270.34747402
 20
727.12812376
 30
0.0
 11
-522.34747402
 21
727.12812376
 31
0.0
  0
LINE
  5
4B7
100
AcDbEntity
  8
0
  6
CONTINUOUS
 62
       3
100
AcDbLine
 10
-13.84747402
 20
727.12812376
 30
0.0
 11
-265.84747402
 21
727.12812376
 31
0.0
  0
LINE
  5
4B8
100
AcDbEntity
  8
0
  6
CONTINUOUS
 62
       3
100
AcDbLine
 10
-522.34747402
 20
725.62812376
 30
0.0
 11
-520.84747402
 21
725.62812376
 31
0.0
  0
ARC
  5
4B9
100
AcDbEntity
  8
0
  6
CONTINUOUS
 62
       3
100
AcDbCircle
 10
-516.45967321
 20
726.6267248
 30
0.0
 40
4.5
100
AcDbArc
 50
192.8213202
 51
271.4287125
  0
LINE
  5
4BA
100
AcDbEntity
  8
0
  6
CONTINUOUS
 62
       3
100
AcDbLine
 10
-516.34747402
 20
721.12812376
 30
0.0
 11
-516.34747402
 21
722.12812376
 31
0.0
  0
ARC
  5
4BB
100
AcDbEntity
  8
0
  6
CONTINUOUS
 62
       3
100
AcDbCircle
 10
236.76472517
 20
726.6267248
 30
0.0
 40
4.5
100
AcDbArc
 50
268.5712875
 51
347.1786798
  0
LINE
  5
4BC
100
AcDbEntity
  8
0
  6
CONTINUOUS
 62
       3
100
AcDbLine
 10
242.65252598
 20
725.62812376
 30
0.0
 11
241.15252598
 21
725.62812376
 31
0.0
  0
LINE
  5
4BD
100
AcDbEntity
  8
0
  6
CONTINUOUS
 62
       3
100
AcDbLine
 10
236.65252598
 20
721.12812376
 30
0.0
 11
236.65252598
 21
722.12812376
 31
0.0
  0
LINE
  5
4BE
100
AcDbEntity
  8
0
  6
CONTINUOUS
 62
       3
100
AcDbLine
 10
-522.34747402
 20
742.62812376
 30
0.0
 11
-522.34747402
 21
848.62812376
 31
0.0
  0
LINE
  5
4BF
100
AcDbEntity
  8
0
  6
CONTINUOUS
 62
       3
100
AcDbLine
 10
242.65252598
 20
742.62812376
 30
0.0
 11
242.65252598
 21
848.62812376
 31
0.0
  0
LINE
  5
4C0
100
AcDbEntity
  8
0
  6
CONTINUOUS
 62
       3
100
AcDbLine
 10
-502.34747402
 20
742.62812376
 30
0.0
 11
-502.34747402
 21
848.62812376
 31
0.0
  0
LINE
  5
4C1
100
AcDbEntity
  8
0
  6
CONTINUOUS
 62
       3
100
AcDbLine
 10
222.65252598
 20
742.62812376
 30
0.0
 11
222.65252598
 21
848.62812376
 31
0.0
  0
LINE
  5
4C2
100
AcDbEntity
  8
0
  6
CONTINUOUS
 62
       3
100
AcDbLine
 10
210.65252598
 20
398.03855319
 30
0.0
 11
-9.34747402
 21
398.03855319
 31
0.0
  0
LINE
  5
4C3
100
AcDbEntity
  8
0
  6
CONTINUOUS
 62
       3
100
AcDbLine
 10
-13.84747402
 20
398.03855319
 30
0.0
 11
-265.84747402
 21
398.03855319
 31
0.0
  0
LINE
  5
4C4
100
AcDbEntity
  8
0
  6
CONTINUOUS
 62
       3
100
AcDbLine
 10
-270.34747402
 20
398.03855319
 30
0.0
 11
-490.34747402
 21
398.03855319
 31
0.0
  0
LINE
  5
4C5
100
AcDbEntity
  8
0
  6
CONTINUOUS
 62
       3
100
AcDbLine
 10
-370.65410118
 20
-278.96144681
 30
0.0
 11
-270.34747402
 21
-278.96144681
 31
0.0
  0
LINE
  5
4C6
100
AcDbEntity
  8
0
  6
CONTINUOUS
 62
       3
100
AcDbLine
 10
-265.84747402
 20
-278.96144681
 30
0.0
 11
-13.84747402
 21
-278.96144681
 31
0.0
  0
LINE
  5
4C7
100
AcDbEntity
  8
0
  6
CONTINUOUS
 62
       3
100
AcDbLine
 10
-9.34747402
 20
-278.96144681
 30
0.0
 11
210.65252598
 21
-278.96144681
 31
0.0
  0
LINE
  5
4C8
100
AcDbEntity
  8
0
  6
CONTINUOUS
 62
       3
100
AcDbLine
 10
-522.34747402
 20
-302.96144681
 30
0.0
 11
242.65252598
 21
-302.96144681
 31
0.0
  0
LINE
  5
4C9
100
AcDbEntity
  8
0
  6
CONTINUOUS
 62
       3
100
AcDbLine
 10
-522.34747402
 20
422.03855319
 30
0.0
 11
-522.34747402
 21
-302.96144681
 31
0.0
  0
LINE
  5
4CA
100
AcDbEntity
  8
0
  6
CONTINUOUS
 62
       3
100
AcDbLine
 10
242.65252598
 20
-302.96144681
 30
0.0
 11
242.65252598
 21
422.03855319
 31
0.0
  0
LINE
  5
4CB
100
AcDbEntity
  8
0
  6
CONTINUOUS
 62
       3
100
AcDbLine
 10
-270.34747402
 20
422.03855319
 30
0.0
 11
-270.34747402
 21
-302.96144681
 31
0.0
  0
LINE
  5
4CC
100
AcDbEntity
  8
0
  6
CONTINUOUS
 62
       3
100
AcDbLine
 10
-9.34747402
 20
422.03855319
 30
0.0
 11
-9.34747402
 21
-302.96144681
 31
0.0
  0
LINE
  5
4CD
100
AcDbEntity
  8
0
  6
CONTINUOUS
 62
       3
100
AcDbLine
 10
-265.84747402
 20
422.03855319
 30
0.0
 11
-265.84747402
 21
-302.96144681
 31
0.0
  0
LINE
  5
4CE
100
AcDbEntity
  8
0
  6
CONTINUOUS
 62
       3
100
AcDbLine
 10
-13.84747402
 20
422.03855319
 30
0.0
 11
-13.84747402
 21
-302.96144681
 31
0.0
  0
LINE
  5
4CF
100
AcDbEntity
  8
0
  6
CONTINUOUS
 62
       3
100
AcDbLine
 10
210.65252598
 20
422.03855319
 30
0.0
 11
210.65252598
 21
-302.96144681
 31
0.0
  0
LINE
  5
4D0
100
AcDbEntity
  8
0
  6
CONTINUOUS
 62
       3
100
AcDbLine
 10
-490.34747402
 20
6.66928588
 30
0.0
 11
-490.34747402
 21
422.03855319
 31
0.0
  0
LINE
  5
4D1
100
AcDbEntity
  8
0
  6
CONTINUOUS
 62
       3
100
AcDbLine
 10
-520.84747402
 20
422.03855319
 30
0.0
 11
-520.84747402
 21
19.09395735
 31
0.0
  0
LINE
  5
4D2
100
AcDbEntity
  8
0
  6
CONTINUOUS
 62
       3
100
AcDbLine
 10
-516.34747402
 20
422.03855319
 30
0.0
 11
-516.34747402
 21
17.37588305
 31
0.0
  0
LINE
  5
4D3
100
AcDbEntity
  8
0
  6
CONTINUOUS
 62
       3
100
AcDbLine
 10
236.65252598
 20
422.03855319
 30
0.0
 11
236.65252598
 21
-302.96144681
 31
0.0
  0
LINE
  5
4D4
100
AcDbEntity
  8
0
  6
CONTINUOUS
 62
       3
100
AcDbLine
 10
241.15252598
 20
422.03855319
 30
0.0
 11
241.15252598
 21
-302.96144681
 31
0.0
  0
LINE
  5
4D5
100
AcDbEntity
  8
0
  6
CONTINUOUS
 62
       3
100
AcDbLine
 10
242.65252598
 20
422.03855319
 30
0.0
 11
-522.34747402
 21
422.03855319
 31
0.0
  0
LINE
  5
4D6
100
AcDbEntity
  8
0
  6
CONTINUOUS
 62
       3
100
AcDbLine
 10
599.12462864
 20
422.03855319
 30
0.0
 11
599.12462864
 21
-302.96144681
 31
0.0
  0
LINE
  5
4D7
100
AcDbEntity
  8
0
  6
CONTINUOUS
 62
       3
100
AcDbLine
 10
597.62462864
 20
422.03855319
 30
0.0
 11
597.62462864
 21
-302.96144681
 31
0.0
  0
LINE
  5
4D8
100
AcDbEntity
  8
0
  6
CONTINUOUS
 62
       3
100
AcDbLine
 10
577.62462864
 20
422.03855319
 30
0.0
 11
577.62462864
 21
-302.96144681
 31
0.0
  0
LINE
  5
4D9
100
AcDbEntity
  8
0
  6
CONTINUOUS
 62
       3
100
AcDbLine
 10
583.62462864
 20
422.03855319
 30
0.0
 11
583.62462864
 21
-302.96144681
 31
0.0
  0
LINE
  5
4DA
100
AcDbEntity
  8
0
  6
CONTINUOUS
 62
       3
100
AcDbLine
 10
582.12462864
 20
422.03855319
 30
0.0
 11
582.12462864
 21
-302.96144681
 31
0.0
  0
LINE
  5
4DB
100
AcDbEntity
  8
0
  6
CONTINUOUS
 62
       3
100
AcDbLine
 10
578.62462864
 20
422.03855319
 30
0.0
 11
578.62462864
 21
-302.96144681
 31
0.0
  0
LINE
  5
4DC
100
AcDbEntity
  8
0
  6
CONTINUOUS
 62
       3
100
AcDbLine
 10
577.62462864
 20
422.03855319
 30
0.0
 11
597.62462864
 21
422.03855319
 31
0.0
  0
LINE
  5
4DD
100
AcDbEntity
  8
0
  6
CONTINUOUS
 62
       3
100
AcDbLine
 10
599.12462864
 20
422.03855319
 30
0.0
 11
705.12462864
 21
422.03855319
 31
0.0
  0
LINE
  5
4DE
100
AcDbEntity
  8
0
  6
CONTINUOUS
 62
       3
100
AcDbLine
 10
599.12462864
 20
-302.96144681
 30
0.0
 11
705.12462864
 21
-302.96144681
 31
0.0
  0
LINE
  5
4DF
100
AcDbEntity
  8
0
  6
CONTINUOUS
 62
       3
100
AcDbLine
 10
577.62462864
 20
-302.96144681
 30
0.0
 11
597.62462864
 21
-302.96144681
 31
0.0
  0
LINE
  5
4E0
100
AcDbEntity
  8
0
  6
CENTERX2
 62
       9
100
AcDbLine
 10
-439.84747402
 20
826.9058509
 30
0.0
 11
-439.84747402
 21
897.52821851
 31
0.0
  0
LINE
  5
4E1
100
AcDbEntity
  8
0
  6
CENTERX2
 62
       9
100
AcDbLine
 10
160.15252598
 20
831.19775841
 30
0.0
 11
160.15252598
 21
910.40394106
 31
0.0
  0
LINE
  5
4E2
100
AcDbEntity
  8
0
  6
CENTERX2
 62
       9
100
AcDbLine
 10
729.75778167
 20
367.03855319
 30
0.0
 11
678.2548915
 21
367.03855319
 31
0.0
  0
LINE
  5
4E3
100
AcDbEntity
  8
0
  6
CENTERX2
 62
       9
100
AcDbLine
 10
740.48755046
 20
-247.96144681
 30
0.0
 11
673.96298398
 21
-247.96144681
 31
0.0
  0
LINE
  5
4E4
100
AcDbEntity
  8
0
  6
CENTERX2
 62
       9
100
AcDbLine
 10
178.82760081
 20
367.03855319
 30
0.0
 11
140.36596566
 21
367.03855319
 31
0.0
  0
LINE
  5
4E5
100
AcDbEntity
  8
0
  6
CENTERX2
 62
       9
100
AcDbLine
 10
160.15252598
 20
349.09993704
 30
0.0
 11
160.15252598
 21
385.10657421
 31
0.0
  0
LINE
  5
4E6
100
AcDbEntity
  8
0
  6
CENTERX2
 62
       9
100
AcDbLine
 10
160.15252598
 20
-263.44405934
 30
0.0
 11
160.15252598
 21
-229.7692303
 31
0.0
  0
LINE
  5
4E7
100
AcDbEntity
  8
0
  6
CENTERX2
 62
       9
100
AcDbLine
 10
178.82760081
 20
-247.96144681
 30
0.0
 11
140.36596566
 21
-247.96144681
 31
0.0
  0
LINE
  5
4E8
100
AcDbEntity
  8
0
  6
CENTERX2
 62
       9
100
AcDbLine
 10
-121.12356227
 20
-247.96144681
 30
0.0
 11
-163.06301274
 21
-247.96144681
 31
0.0
  0
LINE
  5
4E9
100
AcDbEntity
  8
0
  6
CENTERX2
 62
       9
100
AcDbLine
 10
-419.65646593
 20
-247.96144681
 30
0.0
 11
-456.31267353
 21
-247.96144681
 31
0.0
  0
LINE
  5
4EA
100
AcDbEntity
  8
0
  6
CENTERX2
 62
       9
100
AcDbLine
 10
-439.84747402
 20
-263.44405934
 30
0.0
 11
-439.84747402
 21
-229.7692303
 31
0.0
  0
LINE
  5
4EB
100
AcDbEntity
  8
0
  6
CENTERX2
 62
       9
100
AcDbLine
 10
-439.84747402
 20
349.09993704
 30
0.0
 11
-439.84747402
 21
385.10657421
 31
0.0
  0
LINE
  5
4EC
100
AcDbEntity
  8
0
  6
CENTERX2
 62
       9
100
AcDbLine
 10
-419.65646593
 20
367.03855319
 30
0.0
 11
-456.31267353
 21
367.03855319
 31
0.0
  0
LINE
  5
4ED
100
AcDbEntity
  8
0
  6
CENTERX2
 62
       9
100
AcDbLine
 10
-121.12356227
 20
367.03855319
 30
0.0
 11
-163.06301274
 21
367.03855319
 31
0.0
  0
LINE
  5
4EE
100
AcDbEntity
  8
0
  6
CENTER
 62
       9
100
AcDbLine
 10
-139.84747402
 20
831.19775841
 30
0.0
 11
-139.84747402
 21
962.17535863
 31
0.0
  0
LINE
  5
4EF
100
AcDbEntity
  8
0
  6
CENTER
 62
       9
100
AcDbLine
 10
-139.84747402
 20
-357.87162162
 30
0.0
 11
-139.84747402
 21
491.65540541
 31
0.0
  0
LINE
  5
4F0
100
AcDbEntity
  8
0
  6
DIVIDE
 62
       6
100
AcDbLine
 10
-522.34747402
 20
422.03855319
 30
0.0
 11
-270.34747402
 21
59.53855319
 31
0.0
  0
LINE
  5
4F1
100
AcDbEntity
  8
0
  6
DIVIDE
 62
       6
100
AcDbLine
 10
-270.34747402
 20
59.53855319
 30
0.0
 11
-522.34747402
 21
-302.96144681
 31
0.0
  0
LINE
  5
4F2
100
AcDbEntity
  8
0
  6
DIVIDE
 62
       6
100
AcDbLine
 10
-13.84747402
 20
422.03855319
 30
0.0
 11
-265.84747402
 21
59.53855319
 31
0.0
  0
LINE
  5
4F3
100
AcDbEntity
  8
0
  6
DIVIDE
 62
       6
100
AcDbLine
 10
-265.84747402
 20
59.53855319
 30
0.0
 11
-13.84747402
 21
-302.96144681
 31
0.0
  0
LINE
  5
4F4
100
AcDbEntity
  8
0
  6
DIVIDE
 62
       6
100
AcDbLine
 10
242.65252598
 20
422.03855319
 30
0.0
 11
-9.34747402
 21
59.53855319
 31
0.0
  0
LINE
  5
4F5
100
AcDbEntity
  8
0
  6
DIVIDE
 62
       6
100
AcDbLine
 10
-9.34747402
 20
59.53855319
 30
0.0
 11
242.65252598
 21
-302.96144681
 31
0.0
  0
LINE
  5
4F6
100
AcDbEntity
  8
LAYER0240
  6
CONTINUOUS
 62
       4
100
AcDbLine
 10
705.12462864
 20
367.03855319
 30
0.0
 11
861.81027266
 21
553.01243722
 31
0.0
  0
INSERT
  5
4F7
100
AcDbEntity
  8
LAYER0240
  6
CONTINUOUS
 62
       4
100
AcDbBlockReference
  2
_OPEN30
 10
705.12462864
 20
367.03855319
 30
0.0
 41
30.00002788
 42
29.99989274
 50
229.88538531
  0
INSERT
  5
4F8
100
AcDbEntity
  8
0
  6
CONTINUOUS
100
AcDbBlockReference
  2
DA_IMAGEDIMGROUP_1
 10
0.0
 20
0.0
 30
0.0
  0
INSERT
  5
4F9
100
AcDbEntity
  8
0
  6
CONTINUOUS
100
AcDbBlockReference
  2
DA_IMAGEDIMGROUP_2
 10
0.0
 20
0.0
 30
0.0
  0
INSERT
  5
4FA
100
AcDbEntity
  8
0
  6
CONTINUOUS
100
AcDbBlockReference
  2
DA_IMAGEDIMGROUP_3
 10
0.0
 20
0.0
 30
0.0
  0
INSERT
  5
4FB
100
AcDbEntity
  8
0
  6
CONTINUOUS
100
AcDbBlockReference
  2
DA_IMAGEDIMGROUP_4
 10
0.0
 20
0.0
 30
0.0
  0
INSERT
  5
4FC
100
AcDbEntity
  8
0
  6
CONTINUOUS
100
AcDbBlockReference
  2
DA_IMAGEDIMGROUP_5
 10
0.0
 20
0.0
 30
0.0
  0
INSERT
  5
4FD
100
AcDbEntity
  8
0
  6
CONTINUOUS
100
AcDbBlockReference
  2
DA_IMAGEDIMGROUP_6
 10
0.0
 20
0.0
 30
0.0
  0
INSERT
  5
4FE
100
AcDbEntity
  8
0
  6
CONTINUOUS
100
AcDbBlockReference
  2
DA_IMAGEDIMGROUP_7
 10
0.0
 20
0.0
 30
0.0
  0
INSERT
  5
4FF
100
AcDbEntity
  8
0
  6
CONTINUOUS
100
AcDbBlockReference
  2
DA_IMAGEDIMGROUP_8
 10
0.0
 20
0.0
 30
0.0
  0
INSERT
  5
500
100
AcDbEntity
  8
LAYER0240
  6
CENTER
100
AcDbBlockReference
  2
GROUP_1
 10
0.0
 20
0.0
 30
0.0
  0
INSERT
  5
501
100
AcDbEntity
  8
LAYER0240
  6
CENTER
100
AcDbBlockReference
  2
GROUP_2
 10
0.0
 20
0.0
 30
0.0
  0
INSERT
  5
502
100
AcDbEntity
  8
LAYER0240
  6
CENTER
100
AcDbBlockReference
  2
GROUP_3
 10
0.0
 20
0.0
 30
0.0
  0
INSERT
  5
503
100
AcDbEntity
  8
LAYER0240
  6
CENTER
100
AcDbBlockReference
  2
GROUP_5
 10
0.0
 20
0.0
 30
0.0
  0
INSERT
  5
504
100
AcDbEntity
  8
LAYER0240
  6
CENTER
100
AcDbBlockReference
  2
GROUP_6
 10
0.0
 20
0.0
 30
0.0
  0
INSERT
  5
505
100
AcDbEntity
  8
LAYER0240
  6
CONTINUOUS
100
AcDbBlockReference
  2
GROUP_4
 10
0.0
 20
0.0
 30
0.0
  0
CIRCLE
  5
506
100
AcDbEntity
  8
LAYER0240
  6
CONTINUOUS
 62
       9
100
AcDbCircle
 10
291.875
 20
-999.70543294
 30
0.0
 40
14.80221067
  0
ENDSEC
  0
SECTION
  2
OBJECTS
  0
DICTIONARY
  5
19
100
AcDbDictionary
  3
ACAD_GROUP
350
1A
  3
ACAD_MLINESTYLE
350
1B
  0
DICTIONARY
  5
1A
102
{ACAD_REACTORS
330
19
102
}
100
AcDbDictionary
  0
DICTIONARY
  5
1B
102
{ACAD_REACTORS
330
19
102
}
100
AcDbDictionary
  3
STANDARD
350
1C
  0
MLINESTYLE
  5
1C
102
{ACAD_REACTORS
330
1B
102
}
100
AcDbMlineStyle
  2
STANDARD
 70
       0
  3

 62
       0
 51
90.0
 52
90.0
 71
       2
 49
0.5
 62
     256
  6
BYLAYER
 49
-0.5
 62
     256
  6
BYLAYER
  0
ENDSEC
  0
EOF
