  0
SECTION
  2
HEADER
  9
$ACADVER
  1
AC1009
  9
$INSBASE
 10
0
 20
0
 30
0
  9
$EXTMIN
 10
0
 20
0
  9
$EXTMAX
 10
12600
 20
8910
  9
$LIMMIN
 10
0
 20
0
  9
$LIMMAX
 10
12600
 20
8910
  9
$LTSCALE
 40
30
  0
ENDSEC
  0
SECTION
  2
TABLES
  0
TABLE
  2
LTYPE
 70
     9
  0
LTYPE
  2
CONTINUOUS
 70
    64
  3
実線
 72
    65
 73
     0
 40
0.0
  0
LTYPE
  2
DASHED1
 70
    64
  3
--  --  --  --  --  --  --  --  
 72
    65
 73
     2
 40
2.5
 49
1.25
 49
-1.25
  0
LTYPE
  2
DASHED2
 70
    64
  3
----    ----    ----    ----    
 72
    65
 73
     2
 40
5.0
 49
2.5
 49
-2.5
  0
LTYPE
  2
DASHED3
 70
    64
  3
------  ------  ------  ------  
 72
    65
 73
     2
 40
5.0
 49
3.75
 49
-1.25
  0
LTYPE
  2
CENTER1
 70
    64
  3
----- - ----- - ----- - ----- - 
 72
    65
 73
     4
 40
10.0
 49
6.25
 49
-1.25
 49
1.25
 49
-1.25
  0
LTYPE
  2
CENTER2
 70
    64
  3
----------  --  ----------  --  
 72
    65
 73
     4
 40
20.0
 49
12.5
 49
-2.5
 49
2.5
 49
-2.5
  0
LTYPE
  2
PHANTOM1
 70
    64
  3
--- - - --- - - --- - - --- - - 
 72
    65
 73
     6
 40
10.0
 49
3.25
 49
-1.25
 49
1.25
 49
-1.25
 49
1.25
 49
-1.25
  0
LTYPE
  2
PHANTOM2
 70
    64
  3
--------  -  -  --------  -  -  
 72
    65
 73
     6
 40
20.0
 49
10.0
 49
-2.5
 49
1.25
 49
-2.5
 49
1.25
 49
-2.5
  0
LTYPE
  2
DOT
 70
    64
  3
-   -   -   -   -   -   -   -   
 72
    65
 73
     2
 40
2.5
 49
0.625
 49
-1.875
  0
LTYPE
  2
DUMMY
 70
    64
  3
ダミー
 72
    65
 73
     0
 40
0.0
  0
LTYPE
  2
RAND1
 70
    64
  3
ランダム線1
 72
    65
 73
     4
 40
10.0
 49
1.0
 49
-2.0
 49
3.0
 49
-4.0
  0
LTYPE
  2
RAND2
 70
    64
  3
ランダム線2
 72
    65
 73
     4
 40
14.0
 49
2.0
 49
-3.0
 49
4.0
 49
-5.0
  0
LTYPE
  2
RAND3
 70
    64
  3
ランダム線3
 72
    65
 73
     4
 40
18.0
 49
3.0
 49
-4.0
 49
5.0
 49
-6.0
  0
LTYPE
  2
RAND4
 70
    64
  3
ランダム線4
 72
    65
 73
     4
 40
22.0
 49
4.0
 49
-5.0
 49
6.0
 49
-7.0
  0
LTYPE
  2
RAND5
 70
    64
  3
ランダム線5
 72
    65
 73
     4
 40
26.0
 49
5.0
 49
-6.0
 49
7.0
 49
-8.0
  0
LTYPE
  2
LONG1
 70
    64
  3
----------  --  ----------  --  
 72
    65
 73
     4
 40
40.0
 49
32.5
 49
-2.5
 49
2.5
 49
-2.5
  0
LTYPE
  2
LONG2
 70
    64
  3
--------  -  -  --------  -  -  
 72
    65
 73
     6
 40
40.0
 49
30.0
 49
-2.5
 49
1.25
 49
-2.5
 49
1.25
 49
-2.5
  0
LTYPE
  2
LONG3
 70
    64
  3
+++++++++++++++..+++++++++++++++
 72
    65
 73
     2
 40
40.0
 49
37.5
 49
-2.5
  0
LTYPE
  2
LONG4
 70
    64
  3
+++++++++++++++..+++++++++++++++
 72
    65
 73
     2
 40
80.0
 49
75.0
 49
-5.0
  0
LTYPE
  2
LONG5
 70
    64
  3
----------  --  ----------  --  
 72
    65
 73
     4
 40
60.0
 49
37.5
 49
-7.5
 49
7.5
 49
-7.5
  0
LTYPE
  2
dashed
 70
   64
  3
-------   -------------   ------
 72
   65
 73
    2
 40
7.5
 49
6
 49
-1.5
  0
LTYPE
  2
dashed_spaced
 70
   64
  3
----        --------        ----
 72
   65
 73
    2
 40
12
 49
6
 49
-6
  0
LTYPE
  2
long_dashed_dotted
 70
   64
  3
------------- --- --------------
 72
   65
 73
    4
 40
15.25
 49
12
 49
-1.5
 49
0.25
 49
-1.5
  0
LTYPE
  2
long_dashed_double-dotted
 70
   64
  3
----------- --- --- ------------
 72
   65
 73
    6
 40
17
 49
12
 49
-1.5
 49
0.25
 49
-1.5
 49
0.25
 49
-1.5
  0
LTYPE
  2
long_dashed_triplicate-dotted
 70
   64
  3
--------- --- --- --- ----------
 72
   65
 73
    8
 40
18.75
 49
12
 49
-1.5
 49
0.25
 49
-1.5
 49
0.25
 49
-1.5
 49
0.25
 49
-1.5
  0
LTYPE
  2
dotted
 70
   64
  3
   -       -       -       -    
 72
   65
 73
    2
 40
1.75
 49
0.25
 49
-1.5
  0
LTYPE
  2
chain
 70
   64
  3
-------------- -- --------------
 72
   65
 73
    4
 40
18.5
 49
12
 49
-1.5
 49
3.5
 49
-1.5
  0
LTYPE
  2
chain_double_dash
 70
   64
  3
------------ -- -- -------------
 72
   65
 73
    6
 40
23.5
 49
12
 49
-1.5
 49
3.5
 49
-1.5
 49
3.5
 49
-1.5
  0
LTYPE
  2
dashed_dotted
 70
   64
  3
-----------     -     ----------
 72
   65
 73
    4
 40
9.25
 49
6
 49
-1.5
 49
0.25
 49
-1.5
  0
LTYPE
  2
double-dashed_dotted
 70
   64
  3
------   -----------   -   -----
 72
   65
 73
    6
 40
16.75
 49
6
 49
-1.5
 49
6
 49
-1.5
 49
0.25
 49
-1.5
  0
LTYPE
  2
dashed_double-dotted
 70
   64
  3
---------    -    -    ---------
 72
   65
 73
    6
 40
11
 49
6
 49
-1.5
 49
0.25
 49
-1.5
 49
0.25
 49
-1.5
  0
LTYPE
  2
double-dashed_double-dotted
 70
   64
  3
-----   ---------   -   -   ----
 72
   65
 73
    8
 40
18.5
 49
6
 49
-1.5
 49
6
 49
-1.5
 49
0.25
 49
-1.5
 49
0.25
 49
-1.5
  0
LTYPE
  2
dashed_triplicate-dotted
 70
   64
  3
-------    -    -    -    ------
 72
   65
 73
    8
 40
12.75
 49
6
 49
-1.5
 49
0.25
 49
-1.5
 49
0.25
 49
-1.5
 49
0.25
 49
-1.5
  0
LTYPE
  2
double-dashed_triplicate-dotted
 70
   64
  3
-----  ---------  -  -  -  -----
 72
   65
 73
   10
 40
20.25
 49
6
 49
-1.5
 49
6
 49
-1.5
 49
0.25
 49
-1.5
 49
0.25
 49
-1.5
 49
0.25
 49
-1.5
  0
LTYPE
  2
undefined
 70
   64
  3
--------------------------------
 72
   65
 73
    0
 40
0
  0
ENDTAB
  0
TABLE
  2
STYLE
  5
3
100
AcDbSymbolTable
 70
     1
  0
STYLE
  5
10
100
AcDbSymbolTableRecord
100
AcDbTextStyleTableRecord
  2
STANDARD
 70
     0
 40
0.0
 41
1.0
 50
0.0
 71
     0
 42
0.2
  3
txt
  4
bigfont.shx
  0
STYLE
  5
26
100
AcDbSymbolTableRecord
100
AcDbTextStyleTableRecord
  2
TATEGAKI
 70
    68
 40
0.0
 41
1.0
 50
0.0
 71
     0
 42
1.0
  3
txt
  4
bigfont.shx
  0
ENDTAB
  0
TABLE
  2
LAYER
 70
    2
  0
LAYER
  2
_0-0_通り芯
 70
   64
 62
    7
  6
CONTINUOUS
  0
LAYER
  2
ADD_LINE
 70
   64
 62
    7
  6
CONTINUOUS
  0
ENDTAB
  0
ENDSEC
  0
SECTION
  2
BLOCKS
  0
ENDSEC
  0
SECTION
  2
ENTITIES
  0
LINE
  8
_0-0_通り芯
  6
CONTINUOUS
 62
    4
 10
10966.442128774283
 20
447.81377637708516
 11
10991.977176150762
 21
473.34242124815233
  0
LINE
  8
_0-0_通り芯
  6
CONTINUOUS
 62
    4
 10
10967.634293839739
 20
453.24695174758517
 11
10987.734078072213
 21
473.34242124815233
  0
LINE
  8
_0-0_通り芯
  6
CONTINUOUS
 62
    4
 10
10965.250706028293
 20
442.38148251095311
 11
10996.219531909841
 21
473.34242124815233
  0
LINE
  8
_0-0_通り芯
  6
CONTINUOUS
 62
    4
 10
10962.867860536318
 20
431.51596687935466
 11
11004.703501108532
 21
473.34242124815233
  0
LINE
  8
_0-0_通り芯
  6
CONTINUOUS
 62
    4
 10
10964.058540962838
 20
436.9483071404531
 11
11000.461887668918
 21
473.34242124815233
  0
LINE
  8
_0-0_通り芯
  6
CONTINUOUS
 62
    4
 10
10968.824974266259
 20
458.67924561371638
 11
10983.491722313134
 21
473.34242124815233
  0
LINE
  8
_0-0_通り芯
  6
CONTINUOUS
 62
    4
 10
11141.789121885558
 20
198.97230766914959
 11
11148.525671056799
 21
205.70727941152228
  0
LINE
  8
_0-0_通り芯
  6
CONTINUOUS
 62
    4
 10
11137.546766126477
 20
198.97230766914959
 11
11147.775928394216
 21
209.19910379358242
  0
LINE
  8
_0-0_通り芯
  6
CONTINUOUS
 62
    4
 10
11146.031477644638
 20
198.97230766914959
 11
11149.276156038852
 21
202.21635973131328
  0
LINE
  8
_0-0_通り芯
  6
CONTINUOUS
 62
    4
 10
10970.017139331716
 20
464.11246737918361
 11
10979.249366554055
 21
473.34242124815233
  0
LINE
  8
_0-0_通り芯
  6
CONTINUOUS
 62
    4
 10
10971.207819758236
 20
469.54471485034844
 11
10975.007010794976
 21
473.34242124815233
  0
LINE
  8
_0-0_通り芯
  6
CONTINUOUS
 62
    4
 10
10953.334993929477
 20
388.05404353786173
 11
11031.077369483743
 21
465.77758273562893
  0
LINE
  8
_0-0_通り芯
  6
CONTINUOUS
 62
    4
 10
10954.527158994933
 20
393.48726530332812
 11
11031.077369483743
 21
470.01905699033983
  0
LINE
  8
_0-0_通り芯
  6
CONTINUOUS
 62
    4
 10
10952.144313502957
 20
382.62177286921286
 11
11031.077369483743
 21
461.53610848091716
  0
LINE
  8
_0-0_通り芯
  6
CONTINUOUS
 62
    4
 10
10949.760725691513
 20
371.75625723761527
 11
11031.077369483743
 21
453.05315997149535
  0
LINE
  8
_0-0_通り芯
  6
CONTINUOUS
 62
    4
 10
10950.9521484375
 20
377.18857430122966
 11
11031.077369483743
 21
457.29463422620626
  0
LINE
  8
_0-0_通り芯
  6
CONTINUOUS
 62
    4
 10
10955.718581740923
 20
398.91951277449294
 11
11030.159120301943
 21
473.34242124815233
  0
LINE
  8
_0-0_通り芯
  6
CONTINUOUS
 62
    4
 10
10960.484272724874
 20
420.65049764272345
 11
11013.188954946158
 21
473.34242124815233
  0
LINE
  8
_0-0_通り芯
  6
CONTINUOUS
 62
    4
 10
10961.675695470862
 20
426.08279150885551
 11
11008.945856867611
 21
473.34242124815233
  0
LINE
  8
_0-0_通り芯
  6
CONTINUOUS
 62
    4
 10
10959.292849978887
 20
415.21732227222344
 11
11017.431310705237
 21
473.34242124815233
  0
LINE
  8
_0-0_通り芯
  6
CONTINUOUS
 62
    4
 10
10956.910746806376
 20
404.35273453996018
 11
11025.916764542864
 21
473.34242124815233
  0
LINE
  8
_0-0_通り芯
  6
CONTINUOUS
 62
    4
 10
10958.101427232898
 20
409.78502840609139
 11
11021.673666464318
 21
473.34242124815233
  0
LINE
  8
_0-0_通り芯
  6
CONTINUOUS
 62
    4
 10
11073.909202781884
 20
198.97230766914959
 11
11136.523107580237
 21
261.57111090582816
  0
LINE
  8
_0-0_通り芯
  6
CONTINUOUS
 62
    4
 10
11069.666847022805
 20
198.97230766914959
 11
11135.773364917653
 21
265.0629584853715
  0
LINE
  8
_0-0_通り芯
  6
CONTINUOUS
 62
    4
 10
11078.151558540963
 20
198.97230766914959
 11
11137.273592562289
 21
258.08021442310235
  0
LINE
  8
_0-0_通り芯
  6
CONTINUOUS
 62
    4
 10
11086.637012378591
 20
198.97230766914959
 11
11138.774562526394
 21
251.09744716335001
  0
LINE
  8
_0-0_通り芯
  6
CONTINUOUS
 62
    4
 10
11082.394656619512
 20
198.97230766914959
 11
11138.023335224874
 21
254.5883900410422
  0
LINE
  8
_0-0_通り芯
  6
CONTINUOUS
 62
    4
 10
11065.424491263726
 20
198.97230766914959
 11
11135.023622255068
 21
268.55478286743164
  0
LINE
  8
_0-0_通り芯
  6
CONTINUOUS
 62
    4
 10
11054.839015651394
 20
205.35497923155077
 11
11132.022424646326
 21
282.52029418945312
  0
LINE
  8
_0-0_通り芯
  6
CONTINUOUS
 62
    4
 10
11054.14940086571
 20
208.9072098603117
 11
11131.272681983743
 21
286.01211857151327
  0
LINE
  8
_0-0_通り芯
  6
CONTINUOUS
 62
    4
 10
11055.527888117611
 20
201.80272540530666
 11
11132.77290962838
 21
279.02935131176093
  0
LINE
  8
_0-0_通り芯
  6
CONTINUOUS
 62
    4
 10
11061.182877824114
 20
198.97230766914959
 11
11134.272394953548
 21
272.04572574512383
  0
LINE
  8
_0-0_通り芯
  6
CONTINUOUS
 62
    4
 10
11056.939779745568
 20
198.97230766914959
 11
11133.522652290963
 21
275.53752692970079
  0
LINE
  8
_0-0_通り芯
  6
CONTINUOUS
 62
    4
 10
11120.576600770693
 20
198.97230766914959
 11
11144.775473104943
 21
223.16551981745505
  0
LINE
  8
_0-0_通り芯
  6
CONTINUOUS
 62
    4
 10
11116.334245011614
 20
198.97230766914959
 11
11144.024988122888
 21
226.65643949766405
  0
LINE
  8
_0-0_通り芯
  6
CONTINUOUS
 62
    4
 10
11124.818956529773
 20
198.97230766914959
 11
11145.525215767526
 21
219.6736954353949
  0
LINE
  8
_0-0_通り芯
  6
CONTINUOUS
 62
    4
 10
11133.304410367398
 20
198.97230766914959
 11
11147.026185731631
 21
212.69095137312576
  0
LINE
  8
_0-0_通り芯
  6
CONTINUOUS
 62
    4
 10
11129.061312288852
 20
198.97230766914959
 11
11146.274958430111
 21
216.18187105333476
  0
LINE
  8
_0-0_通り芯
  6
CONTINUOUS
 62
    4
 10
11112.091146933068
 20
198.97230766914959
 11
11143.275245460305
 21
230.14828707720824
  0
LINE
  8
_0-0_通り芯
  6
CONTINUOUS
 62
    4
 10
11095.121723896749
 20
198.97230766914959
 11
11140.274047851563
 21
244.11377520174568
  0
LINE
  8
_0-0_通り芯
  6
CONTINUOUS
 62
    4
 10
11090.879368137668
 20
198.97230766914959
 11
11139.524305188977
 21
247.60562278128987
  0
LINE
  8
_0-0_通り芯
  6
CONTINUOUS
 62
    4
 10
11099.364821975298
 20
198.97230766914959
 11
11141.024532833615
 21
240.62287871902072
  0
LINE
  8
_0-0_通り芯
  6
CONTINUOUS
 62
    4
 10
11107.849533493454
 20
198.97230766914959
 11
11142.524760478251
 21
233.63920675741639
  0
LINE
  8
_0-0_通り芯
  6
CONTINUOUS
 62
    4
 10
11103.607177734375
 20
198.97230766914959
 11
11141.7742754962
 21
237.13103113947653
  0
LINE
  8
_0-0_通り芯
  6
CONTINUOUS
 62
    4
 10
10948.569302945523
 20
366.32305866963122
 11
11031.077369483743
 21
448.81168571678359
  0
LINE
  8
_0-0_通り芯
  6
CONTINUOUS
 62
    4
 10
10912.822908968539
 20
203.34153046479059
 11
11012.604007205449
 21
303.09845692402575
  0
LINE
  8
_0-0_通り芯
  6
CONTINUOUS
 62
    4
 10
10914.014331714528
 20
208.77382433092265
 11
11013.532648859798
 21
308.26899038778748
  0
LINE
  8
_0-0_通り芯
  6
CONTINUOUS
 62
    4
 10
10912.695230020059
 20
198.97230766914959
 11
11011.673880912163
 21
297.92704195589607
  0
LINE
  8
_0-0_通り芯
  6
CONTINUOUS
 62
    4
 10
10921.179941538219
 20
198.97230766914959
 11
11015.986757020693
 21
293.75648240785353
  0
LINE
  8
_0-0_通り芯
  6
CONTINUOUS
 62
    4
 10
10916.937585779138
 20
198.97230766914959
 11
11011.744401261614
 21
293.75648240785353
  0
LINE
  8
_0-0_通り芯
  6
CONTINUOUS
 62
    4
 10
10915.206496779985
 20
214.20702289890585
 11
11014.463517472552
 21
313.44040535591716
  0
LINE
  8
_0-0_通り芯
  6
CONTINUOUS
 62
    4
 10
10919.972187763937
 20
235.93803096461954
 11
11018.181795687289
 21
334.1242790222168
  0
LINE
  8
_0-0_通り芯
  6
CONTINUOUS
 62
    4
 10
10921.163610509924
 20
241.37032483075075
 11
11019.111921980575
 21
339.29571718782967
  0
LINE
  8
_0-0_通り芯
  6
CONTINUOUS
 62
    4
 10
10918.780765017949
 20
230.50483239663635
 11
11017.253154032938
 21
328.9537919534223
  0
LINE
  8
_0-0_通り芯
  6
CONTINUOUS
 62
    4
 10
10916.397177206505
 20
219.63933996252109
 11
11015.392159126901
 21
318.61091562219571
  0
LINE
  8
_0-0_通り芯
  6
CONTINUOUS
 62
    4
 10
10917.58934227196
 20
225.07253853050429
 11
11016.322285420187
 21
323.78233059032539
  0
LINE
  8
_0-0_通り芯
  6
CONTINUOUS
 62
    4
 10
10955.120272249789
 20
198.97230766914959
 11
11031.077369483743
 21
274.91140365600586
  0
LINE
  8
_0-0_通り芯
  6
CONTINUOUS
 62
    4
 10
10950.87791649071
 20
198.97230766914959
 11
11031.077369483743
 21
279.15290110820081
  0
LINE
  8
_0-0_通り芯
  6
CONTINUOUS
 62
    4
 10
10959.363370328336
 20
198.97230766914959
 11
11031.077369483743
 21
270.66992940129495
  0
LINE
  8
_0-0_通り芯
  6
CONTINUOUS
 62
    4
 10
10967.847339527028
 20
198.97230766914959
 11
11031.077369483743
 21
262.18700408935547
  0
LINE
  8
_0-0_通り芯
  6
CONTINUOUS
 62
    4
 10
10963.604983767949
 20
198.97230766914959
 11
11031.077369483743
 21
266.42847834406638
  0
LINE
  8
_0-0_通り芯
  6
CONTINUOUS
 62
    4
 10
10946.635560731631
 20
198.97230766914959
 11
11031.077369483743
 21
283.39437536291172
  0
LINE
  8
_0-0_通り芯
  6
CONTINUOUS
 62
    4
 10
10929.665395375845
 20
198.97230766914959
 11
11024.471468538852
 21
293.75648240785353
  0
LINE
  8
_0-0_通り芯
  6
CONTINUOUS
 62
    4
 10
10925.422297297298
 20
198.97230766914959
 11
11020.229112779773
 21
293.75648240785353
  0
LINE
  8
_0-0_通り芯
  6
CONTINUOUS
 62
    4
 10
10933.907751134924
 20
198.97230766914959
 11
11028.714566617398
 21
293.75648240785353
  0
LINE
  8
_0-0_通り芯
  6
CONTINUOUS
 62
    4
 10
10942.393204972552
 20
198.97230766914959
 11
11031.077369483743
 21
287.63582642013944
  0
LINE
  8
_0-0_通り芯
  6
CONTINUOUS
 62
    4
 10
10938.150106894005
 20
198.97230766914959
 11
11031.077369483743
 21
291.8773006748512
  0
LINE
  8
_0-0_通り芯
  6
CONTINUOUS
 62
    4
 10
10939.036436338683
 20
322.86108893317191
 11
11031.077369483743
 21
414.87993807406014
  0
LINE
  8
_0-0_通り芯
  6
CONTINUOUS
 62
    4
 10
10940.228601404138
 20
328.29428750115511
 11
11031.077369483743
 21
419.1214123287719
  0
LINE
  8
_0-0_通り芯
  6
CONTINUOUS
 62
    4
 10
10937.845755912163
 20
317.42881826452304
 11
11031.077369483743
 21
410.63846381934923
  0
LINE
  8
_0-0_通り芯
  6
CONTINUOUS
 62
    4
 10
10935.462168100719
 20
306.5633026329246
 11
11030.269725902661
 21
401.3482428885797
  0
LINE
  8
_0-0_通り芯
  6
CONTINUOUS
 62
    4
 10
10936.653590846707
 20
311.99561969653985
 11
11031.077369483743
 21
406.39698956463747
  0
LINE
  8
_0-0_通り芯
  6
CONTINUOUS
 62
    4
 10
10941.420024150126
 20
333.7266045647695
 11
11031.077369483743
 21
423.3628865834828
  0
LINE
  8
_0-0_通り芯
  6
CONTINUOUS
 62
    4
 10
10946.185715134079
 20
355.45758943300001
 11
11031.077369483743
 21
440.32873720736092
  0
LINE
  8
_0-0_通り芯
  6
CONTINUOUS
 62
    4
 10
10947.377880199536
 20
360.89078800098321
 11
11031.077369483743
 21
444.57025785703905
  0
LINE
  8
_0-0_通り芯
  6
CONTINUOUS
 62
    4
 10
10944.995034707559
 20
350.02527236938477
 11
11031.077369483743
 21
436.08726295265001
  0
LINE
  8
_0-0_通り芯
  6
CONTINUOUS
 62
    4
 10
10942.611446896115
 20
339.1598031327527
 11
11031.077369483743
 21
427.60436083819457
  0
LINE
  8
_0-0_通り芯
  6
CONTINUOUS
 62
    4
 10
10943.802869642102
 20
344.59207380140157
 11
11031.077369483743
 21
431.84578869793825
  0
LINE
  8
_0-0_通り芯
  6
CONTINUOUS
 62
    4
 10
10925.930043813345
 20
263.10133289646444
 11
11022.830942514782
 21
359.97956765664611
  0
LINE
  8
_0-0_通り芯
  6
CONTINUOUS
 62
    4
 10
10927.120724239865
 20
268.53360356511331
 11
11023.761068808068
 21
365.15100582225898
  0
LINE
  8
_0-0_通り芯
  6
CONTINUOUS
 62
    4
 10
10924.737878747888
 20
257.66813432848124
 11
11021.901558540963
 21
354.80908058785076
  0
LINE
  8
_0-0_通り芯
  6
CONTINUOUS
 62
    4
 10
10922.355033255913
 20
246.8026186968828
 11
11020.041305954392
 21
344.46622745410821
  0
LINE
  8
_0-0_通り芯
  6
CONTINUOUS
 62
    4
 10
10923.546456001901
 20
252.235817264866
 11
11020.971432247678
 21
349.63764242223789
  0
LINE
  8
_0-0_通り芯
  6
CONTINUOUS
 62
    4
 10
10928.312889305322
 20
273.9668253305797
 11
11024.690452781884
 21
370.32151608853752
  0
LINE
  8
_0-0_通り芯
  6
CONTINUOUS
 62
    4
 10
10933.079322608743
 20
295.69783339629339
 11
11028.410215635558
 21
391.00629445668829
  0
LINE
  8
_0-0_通り芯
  6
CONTINUOUS
 62
    4
 10
10934.270003035263
 20
301.13010406494141
 11
11029.339599609375
 21
396.17682792045002
  0
LINE
  8
_0-0_通り芯
  6
CONTINUOUS
 62
    4
 10
10931.887157543286
 20
290.26458843334296
 11
11027.480089342273
 21
385.83485629107543
  0
LINE
  8
_0-0_通り芯
  6
CONTINUOUS
 62
    4
 10
10929.504312051309
 20
279.39911919671175
 11
11025.620579075168
 21
375.49295425415039
  0
LINE
  8
_0-0_通り芯
  6
CONTINUOUS
 62
    4
 10
10930.695734797298
 20
284.83231776469495
 11
11026.549963048987
 21
380.66344132294489
  0
LINE
  8
_0-0_通り芯
  6
CONTINUOUS
 62
    4
 10
11053.461270718961
 20
212.4603683884078
 11
11130.522939321158
 21
289.50396615105745
  0
LINE
  8
_0-0_通り芯
  6
CONTINUOUS
 62
    4
 10
11031.077369483743
 20
423.3628865834828
 11
11081.068874049832
 21
473.34242124815233
  0
LINE
  8
_0-0_通り芯
  6
CONTINUOUS
 62
    4
 10
11031.077369483743
 20
427.60436083819457
 11
11076.826518290751
 21
473.34242124815233
  0
LINE
  8
_0-0_通り芯
  6
CONTINUOUS
 62
    4
 10
11031.077369483743
 20
419.1214123287719
 11
11085.311229808911
 21
473.34242124815233
  0
LINE
  8
_0-0_通り芯
  6
CONTINUOUS
 62
    4
 10
11031.077369483743
 20
410.63846381934923
 11
11091.514051282727
 21
471.06080957361172
  0
LINE
  8
_0-0_通り芯
  6
CONTINUOUS
 62
    4
 10
11031.077369483743
 20
414.87993807406014
 11
11089.55358556799
 21
473.34242124815233
  0
LINE
  8
_0-0_通り芯
  6
CONTINUOUS
 62
    4
 10
11031.077369483743
 20
431.84578869793825
 11
11072.583420212204
 21
473.34242124815233
  0
LINE
  8
_0-0_通り芯
  6
CONTINUOUS
 62
    4
 10
11031.077369483743
 20
448.81168571678359
 11
11055.613254856418
 21
473.34242124815233
  0
LINE
  8
_0-0_通り芯
  6
CONTINUOUS
 62
    4
 10
11031.077369483743
 20
453.05315997149535
 11
11051.371641416808
 21
473.34242124815233
  0
LINE
  8
_0-0_通り芯
  6
CONTINUOUS
 62
    4
 10
11031.077369483743
 20
444.57025785703905
 11
11059.855610615499
 21
473.34242124815233
  0
LINE
  8
_0-0_通り芯
  6
CONTINUOUS
 62
    4
 10
11031.077369483743
 20
436.08726295265001
 11
11068.341064453125
 21
473.34242124815233
  0
LINE
  8
_0-0_通り芯
  6
CONTINUOUS
 62
    4
 10
11031.077369483743
 20
440.32873720736092
 11
11064.098708694048
 21
473.34242124815233
  0
LINE
  8
_0-0_通り芯
  6
CONTINUOUS
 62
    4
 10
11035.488231762036
 20
381.11669695055156
 11
11097.514961861276
 21
443.12895182016717
  0
LINE
  8
_0-0_通り芯
  6
CONTINUOUS
 62
    4
 10
11034.846125422298
 20
384.71652881519219
 11
11096.765219198693
 21
446.62077620222732
  0
LINE
  8
_0-0_通り芯
  6
CONTINUOUS
 62
    4
 10
11036.131080421243
 20
377.51774659027888
 11
11098.266189162798
 21
439.63805533744221
  0
LINE
  8
_0-0_通り芯
  6
CONTINUOUS
 62
    4
 10
11037.415293100719
 20
370.3189875628496
 11
11099.765674487966
 21
432.65436017835469
  0
LINE
  8
_0-0_通り芯
  6
CONTINUOUS
 62
    4
 10
11036.773929080449
 20
373.91884262497342
 11
11099.015931825381
 21
436.14623095538207
  0
LINE
  8
_0-0_通り芯
  6
CONTINUOUS
 62
    4
 10
11034.204019082559
 20
388.31543278049764
 11
11096.015476536106
 21
450.11260058428832
  0
LINE
  8
_0-0_通り芯
  6
CONTINUOUS
 62
    4
 10
11031.634851404138
 20
402.71295083535705
 11
11093.014278927365
 21
464.07808870882576
  0
LINE
  8
_0-0_通り芯
  6
CONTINUOUS
 62
    4
 10
11031.077369483743
 20
406.39698956463747
 11
11092.264536264782
 21
467.56991309088676
  0
LINE
  8
_0-0_通り芯
  6
CONTINUOUS
 62
    4
 10
11032.277700063345
 20
399.1140468700516
 11
11093.76402158995
 21
460.58626432676562
  0
LINE
  8
_0-0_通り芯
  6
CONTINUOUS
 62
    4
 10
11033.561912742822
 20
391.91526464513828
 11
11095.264991554055
 21
453.60349706701328
  0
LINE
  8
_0-0_通り芯
  6
CONTINUOUS
 62
    4
 10
11032.919064083615
 20
395.51421500541096
 11
11094.51524889147
 21
457.09532144907342
  0
LINE
  8
_0-0_通り芯
  6
CONTINUOUS
 62
    4
 10
11243.608629381335
 20
198.97230766914959
 11
11287.994137325803
 21
243.34779430080118
  0
LINE
  8
_0-0_通り芯
  6
CONTINUOUS
 62
    4
 10
11239.366273622256
 20
198.97230766914959
 11
11287.994137325803
 21
247.58926855551209
  0
LINE
  8
_0-0_通り芯
  6
CONTINUOUS
 62
    4
 10
11247.850985140414
 20
198.97230766914959
 11
11287.994137325803
 21
239.10632004608942
  0
LINE
  8
_0-0_通り芯
  6
CONTINUOUS
 62
    4
 10
11256.335696658574
 20
198.97230766914959
 11
11287.994137325803
 21
230.62337153666761
  0
LINE
  8
_0-0_通り芯
  6
CONTINUOUS
 62
    4
 10
11252.094083218963
 20
198.97230766914959
 11
11287.994137325803
 21
234.86484579137851
  0
LINE
  8
_0-0_通り芯
  6
CONTINUOUS
 62
    4
 10
11235.123917863177
 20
198.97230766914959
 11
11287.994137325803
 21
251.83071961273981
  0
LINE
  8
_0-0_通り芯
  6
CONTINUOUS
 62
    4
 10
11218.153010187923
 20
198.97230766914959
 11
11287.994137325803
 21
268.79661663158515
  0
LINE
  8
_0-0_通り芯
  6
CONTINUOUS
 62
    4
 10
11213.910654428844
 20
198.97230766914959
 11
11287.994137325803
 21
273.03809088629691
  0
LINE
  8
_0-0_通り芯
  6
CONTINUOUS
 62
    4
 10
11222.39610826647
 20
198.97230766914959
 11
11287.994137325803
 21
264.55516557435743
  0
LINE
  8
_0-0_通り芯
  6
CONTINUOUS
 62
    4
 10
11230.88081978463
 20
198.97230766914959
 11
11287.994137325803
 21
256.07221706493476
  0
LINE
  8
_0-0_通り芯
  6
CONTINUOUS
 62
    4
 10
11226.638464025549
 20
198.97230766914959
 11
11287.994137325803
 21
260.31369131964652
  0
LINE
  8
_0-0_通り芯
  6
CONTINUOUS
 62
    4
 10
11031.077369483743
 20
470.01905699033983
 11
11034.401476061023
 21
473.34242124815233
  0
LINE
  8
_0-0_通り芯
  6
CONTINUOUS
 62
    4
 10
11286.033671611063
 20
198.97230766914959
 11
11287.994137325803
 21
200.93305175368869
  0
LINE
  8
_0-0_通り芯
  6
CONTINUOUS
 62
    4
 10
11031.077369483743
 20
465.77758273562893
 11
11038.643831820102
 21
473.34242124815233
  0
LINE
  8
_0-0_通り芯
  6
CONTINUOUS
 62
    4
 10
11031.077369483743
 20
457.29463422620626
 11
11047.129285657727
 21
473.34242124815233
  0
LINE
  8
_0-0_通り芯
  6
CONTINUOUS
 62
    4
 10
11031.077369483743
 20
461.53610848091716
 11
11042.886929898648
 21
473.34242124815233
  0
LINE
  8
_0-0_通り芯
  6
CONTINUOUS
 62
    4
 10
11281.790573532517
 20
198.97230766914959
 11
11287.994137325803
 21
205.1745260083996
  0
LINE
  8
_0-0_通り芯
  6
CONTINUOUS
 62
    4
 10
11264.820408176731
 20
198.97230766914959
 11
11287.994137325803
 21
222.14042302724494
  0
LINE
  8
_0-0_通り芯
  6
CONTINUOUS
 62
    4
 10
11260.578052417653
 20
198.97230766914959
 11
11287.994137325803
 21
226.38189728195584
  0
LINE
  8
_0-0_通り芯
  6
CONTINUOUS
 62
    4
 10
11269.062763935812
 20
198.97230766914959
 11
11287.994137325803
 21
217.89894877253317
  0
LINE
  8
_0-0_通り芯
  6
CONTINUOUS
 62
    4
 10
11277.548217773438
 20
198.97230766914959
 11
11287.994137325803
 21
209.41600026311136
  0
LINE
  8
_0-0_通り芯
  6
CONTINUOUS
 62
    4
 10
11273.30586201436
 20
198.97230766914959
 11
11287.994137325803
 21
213.65747451782227
  0
LINE
  8
_0-0_通り芯
  6
CONTINUOUS
 62
    4
 10
11038.058141759924
 20
366.72008359754415
 11
11100.516159470017
 21
429.16346369562888
  0
LINE
  8
_0-0_通り芯
  6
CONTINUOUS
 62
    4
 10
11031.077369483743
 20
253.70403238244961
 11
11119.27011850718
 21
341.87592686833597
  0
LINE
  8
_0-0_通り芯
  6
CONTINUOUS
 62
    4
 10
11031.077369483743
 20
257.94550663716052
 11
11118.520375844595
 21
345.36775125039611
  0
LINE
  8
_0-0_通り芯
  6
CONTINUOUS
 62
    4
 10
11031.077369483743
 20
249.46258132522189
 11
11120.019861169763
 21
338.38410248627497
  0
LINE
  8
_0-0_通り芯
  6
CONTINUOUS
 62
    4
 10
11035.872753246411
 20
245.77422786403361
 11
11121.520088814401
 21
331.40135842400667
  0
LINE
  8
_0-0_通り芯
  6
CONTINUOUS
 62
    4
 10
11031.630397487332
 20
245.77422786403361
 11
11120.770346151818
 21
334.89318280606682
  0
LINE
  8
_0-0_通り芯
  6
CONTINUOUS
 62
    4
 10
11031.077369483743
 20
262.18700408935547
 11
11117.769148543075
 21
348.8586941280883
  0
LINE
  8
_0-0_通り芯
  6
CONTINUOUS
 62
    4
 10
11050.903237832559
 20
294.73244692828246
 11
11115.519178235852
 21
359.3332625724176
  0
LINE
  8
_0-0_通り芯
  6
CONTINUOUS
 62
    4
 10
11031.077369483743
 20
279.15290110820081
 11
11045.684731973184
 21
293.75648240785353
  0
LINE
  8
_0-0_通り芯
  6
CONTINUOUS
 62
    4
 10
11031.077369483743
 20
274.91140365600586
 11
11049.927087732263
 21
293.75648240785353
  0
LINE
  8
_0-0_通り芯
  6
CONTINUOUS
 62
    4
 10
11031.077369483743
 20
266.42847834406638
 11
11117.01940588049
 21
352.35051851014845
  0
LINE
  8
_0-0_通り芯
  6
CONTINUOUS
 62
    4
 10
11031.077369483743
 20
270.66992940129495
 11
11116.269663217907
 21
355.84234289220859
  0
LINE
  8
_0-0_通り芯
  6
CONTINUOUS
 62
    4
 10
11050.70503853463
 20
226.67119309708909
 11
11127.521741712415
 21
303.4694542755949
  0
LINE
  8
_0-0_通り芯
  6
CONTINUOUS
 62
    4
 10
11050.016166068413
 20
230.2234469233332
 11
11126.771999049832
 21
306.96127865765504
  0
LINE
  8
_0-0_通り芯
  6
CONTINUOUS
 62
    4
 10
11051.393911000845
 20
223.11803456899298
 11
11128.271484375
 21
299.97762989353475
  0
LINE
  8
_0-0_通り芯
  6
CONTINUOUS
 62
    4
 10
11052.771655933278
 20
216.01262221465277
 11
11129.771712019638
 21
292.99486263378242
  0
LINE
  8
_0-0_通り芯
  6
CONTINUOUS
 62
    4
 10
11052.082783467062
 20
219.56578074274802
 11
11129.021969357053
 21
296.48668701584256
  0
LINE
  8
_0-0_通り芯
  6
CONTINUOUS
 62
    4
 10
11049.327293602197
 20
233.7766054514293
 11
11126.020771748312
 21
310.45219833786405
  0
LINE
  8
_0-0_通り芯
  6
CONTINUOUS
 62
    4
 10
11044.358207084038
 20
245.77422786403361
 11
11123.021058778506
 21
324.41859116425348
  0
LINE
  8
_0-0_通り芯
  6
CONTINUOUS
 62
    4
 10
11040.11510900549
 20
245.77422786403361
 11
11122.269831476986
 21
327.90953404194568
  0
LINE
  8
_0-0_通り芯
  6
CONTINUOUS
 62
    4
 10
11047.259933884079
 20
244.43424843453045
 11
11123.770801441091
 21
320.92678997967653
  0
LINE
  8
_0-0_通り芯
  6
CONTINUOUS
 62
    4
 10
11048.637678816513
 20
237.32883608019023
 11
11125.271029085727
 21
313.94402271992419
  0
LINE
  8
_0-0_通り芯
  6
CONTINUOUS
 62
    4
 10
11047.948806350298
 20
240.88108990643434
 11
11124.521286423142
 21
317.43587029946838
  0
LINE
  8
_0-0_通り芯
  6
CONTINUOUS
 62
    4
 10
11043.195734797298
 20
337.925024290343
 11
11106.517812368033
 21
401.23155954721796
  0
LINE
  8
_0-0_通り芯
  6
CONTINUOUS
 62
    4
 10
11042.553628457559
 20
341.52397465061483
 11
11105.766585066513
 21
404.72250242491015
  0
LINE
  8
_0-0_通り芯
  6
CONTINUOUS
 62
    4
 10
11043.837841137036
 20
334.32521562318556
 11
11107.267555030618
 21
397.73973516515781
  0
LINE
  8
_0-0_通り芯
  6
CONTINUOUS
 62
    4
 10
11045.122053816513
 20
327.12645659575628
 11
11108.767782675255
 21
390.75701430037185
  0
LINE
  8
_0-0_通り芯
  6
CONTINUOUS
 62
    4
 10
11044.480689796243
 20
330.72626526291288
 11
11108.017297693201
 21
394.24791078309767
  0
LINE
  8
_0-0_通り芯
  6
CONTINUOUS
 62
    4
 10
11041.911522117822
 20
345.12380651525547
 11
11105.016842403928
 21
408.21428041200392
  0
LINE
  8
_0-0_通り芯
  6
CONTINUOUS
 62
    4
 10
11039.342354439401
 20
359.52132457011487
 11
11102.017129434122
 21
422.18069643587654
  0
LINE
  8
_0-0_通り芯
  6
CONTINUOUS
 62
    4
 10
11038.700248099663
 20
363.12022853542032
 11
11101.265902132602
 21
425.67163931356873
  0
LINE
  8
_0-0_通り芯
  6
CONTINUOUS
 62
    4
 10
11039.984460779138
 20
355.92146950799105
 11
11102.766872096707
 21
418.6888720538164
  0
LINE
  8
_0-0_通り芯
  6
CONTINUOUS
 62
    4
 10
11041.268673458615
 20
348.72273367804496
 11
11104.267099741344
 21
411.70615118903129
  0
LINE
  8
_0-0_通り芯
  6
CONTINUOUS
 62
    4
 10
11040.627309438345
 20
352.32256554268474
 11
11103.51661475929
 21
415.19704767175625
  0
LINE
  8
_0-0_通り芯
  6
CONTINUOUS
 62
    4
 10
11031.077369483743
 20
287.63582642013944
 11
11037.199278135558
 21
293.75648240785353
  0
LINE
  8
_0-0_通り芯
  6
CONTINUOUS
 62
    4
 10
11048.976176493876
 20
305.53015631598441
 11
11113.268465609164
 21
369.80785421423008
  0
LINE
  8
_0-0_通り芯
  6
CONTINUOUS
 62
    4
 10
11049.618282833615
 20
301.93122915319492
 11
11114.018208271749
 21
366.3159834372027
  0
LINE
  8
_0-0_通り芯
  6
CONTINUOUS
 62
    4
 10
11050.260389173352
 20
298.33139728855429
 11
11114.769435573269
 21
362.82508695447774
  0
LINE
  8
_0-0_通り芯
  6
CONTINUOUS
 62
    4
 10
11031.077369483743
 20
283.39437536291172
 11
11041.441633894638
 21
293.75648240785353
  0
LINE
  8
_0-0_通り芯
  6
CONTINUOUS
 62
    4
 10
11031.077369483743
 20
291.8773006748512
 11
11032.956922376477
 21
293.75648240785353
  0
LINE
  8
_0-0_通り芯
  6
CONTINUOUS
 62
    4
 10
11046.407008815457
 20
319.92767437084296
 11
11110.26875263936
 21
383.77424704061951
  0
LINE
  8
_0-0_通り芯
  6
CONTINUOUS
 62
    4
 10
11045.764902475719
 20
323.5275062354836
 11
11109.517525337838
 21
387.26514352334533
  0
LINE
  8
_0-0_通り芯
  6
CONTINUOUS
 62
    4
 10
11047.049857474663
 20
316.32874720805432
 11
11111.018495301943
 21
380.28242265855937
  0
LINE
  8
_0-0_通り芯
  6
CONTINUOUS
 62
    4
 10
11048.334070154138
 20
309.1299881806242
 11
11112.518722946579
 21
373.29965539880703
  0
LINE
  8
_0-0_通り芯
  6
CONTINUOUS
 62
    4
 10
11047.691221494933
 20
312.72891534341369
 11
11111.768237964528
 21
376.79057507901604
  0
LINE
  8
_0-0_通り芯
  6
CONTINUOUS
 62
    4
 10
11018.903330210094
 20
245.77422786403361
 11
11031.077369483743
 21
257.94550663716052
  0
LINE
  8
_0-0_通り芯
  6
CONTINUOUS
 62
    4
 10
10572.958621463262
 20
202.87556261629646
 11
10656.84517525338
 21
286.74253773044882
  0
LINE
  8
_0-0_通り芯
  6
CONTINUOUS
 62
    4
 10
10671.738330737966
 20
301.63186563027892
 11
10717.900951488598
 21
347.78353716876097
  0
LINE
  8
_0-0_通り芯
  6
CONTINUOUS
 62
    4
 10
10720.54063951647
 20
346.18091583251953
 11
10847.731884105786
 21
473.34242124815233
  0
LINE
  8
_0-0_通り芯
  6
CONTINUOUS
 62
    4
 10
10573.297119140625
 20
198.97230766914959
 11
10656.84517525338
 21
282.50106347573791
  0
LINE
  8
_0-0_通り芯
  6
CONTINUOUS
 62
    4
 10
10672.481392525338
 20
298.13361554532463
 11
10718.531923036318
 21
344.17270969700155
  0
LINE
  8
_0-0_通り芯
  6
CONTINUOUS
 62
    4
 10
10721.365356445313
 20
351.24706062110704
 11
10843.490270666174
 21
473.34242124815233
  0
LINE
  8
_0-0_通り芯
  6
CONTINUOUS
 62
    4
 10
10572.958621463262
 20
211.35851112571913
 11
10656.84517525338
 21
295.2254630423883
  0
LINE
  8
_0-0_通り芯
  6
CONTINUOUS
 62
    4
 10
10670.25146484375
 20
308.62831940522028
 11
10716.638266073693
 21
355.00428741042697
  0
LINE
  8
_0-0_通り芯
  6
CONTINUOUS
 62
    4
 10
10722.190073374157
 20
356.31322860717773
 11
10839.247914907095
 21
473.34242124815233
  0
LINE
  8
_0-0_通り芯
  6
CONTINUOUS
 62
    4
 10
10572.958621463262
 20
207.11703687100822
 11
10656.84517525338
 21
290.98401198516058
  0
LINE
  8
_0-0_通り芯
  6
CONTINUOUS
 62
    4
 10
10670.994526631124
 20
305.13009251775003
 11
10717.26997994088
 21
351.39436464051954
  0
LINE
  8
_0-0_通り芯
  6
CONTINUOUS
 62
    4
 10
10675.455866633236
 20
284.14154310484179
 11
10864.347963075381
 21
472.98801009719455
  0
LINE
  8
_0-0_通り芯
  6
CONTINUOUS
 62
    4
 10
10586.024186417864
 20
198.97230766914959
 11
10656.84517525338
 21
269.77664071160433
  0
LINE
  8
_0-0_通り芯
  6
CONTINUOUS
 62
    4
 10
10590.266542176943
 20
198.97230766914959
 11
10656.84517525338
 21
265.53516645689257
  0
LINE
  8
_0-0_通り芯
  6
CONTINUOUS
 62
    4
 10
10594.508897936023
 20
198.97230766914959
 11
10656.84517525338
 21
261.29371539966485
  0
LINE
  8
_0-0_通り芯
  6
CONTINUOUS
 62
    4
 10
10676.199670740076
 20
280.64331621737068
 11
10864.347963075381
 21
468.74658223745001
  0
LINE
  8
_0-0_通り芯
  6
CONTINUOUS
 62
    4
 10
10674.712804845862
 20
287.63981638727927
 11
10860.459693702493
 21
473.34242124815233
  0
LINE
  8
_0-0_通り芯
  6
CONTINUOUS
 62
    4
 10
10673.22519663218
 20
294.63538865785353
 11
10719.162894584038
 21
340.56190542272617
  0
LINE
  8
_0-0_通り芯
  6
CONTINUOUS
 62
    4
 10
10719.715922587626
 20
341.11472464896565
 11
10851.974239864865
 21
473.34242124815233
  0
LINE
  8
_0-0_通り芯
  6
CONTINUOUS
 62
    4
 10
10577.538732580237
 20
198.97230766914959
 11
10656.84517525338
 21
278.25961241851019
  0
LINE
  8
_0-0_通り芯
  6
CONTINUOUS
 62
    4
 10
10581.781088339318
 20
198.97230766914959
 11
10656.84517525338
 21
274.01811496631524
  0
LINE
  8
_0-0_通り芯
  6
CONTINUOUS
 62
    4
 10
10673.969743058489
 20
291.13804327475037
 11
10856.217337943413
 21
473.34242124815233
  0
LINE
  8
_0-0_通り芯
  6
CONTINUOUS
 62
    4
 10
10666.533186629013
 20
326.11861873317423
 11
10713.483408335094
 21
373.05747367240315
  0
LINE
  8
_0-0_通り芯
  6
CONTINUOUS
 62
    4
 10
10727.138374947213
 20
386.70928542678439
 11
10813.792295713683
 21
473.34242124815233
  0
LINE
  8
_0-0_通り芯
  6
CONTINUOUS
 62
    4
 10
10572.958621463262
 20
232.56588239927538
 11
10656.84517525338
 21
316.43283431594455
  0
LINE
  8
_0-0_通り芯
  6
CONTINUOUS
 62
    4
 10
10667.276990735852
 20
322.62039184570313
 11
10714.115122202282
 21
369.44755090249572
  0
LINE
  8
_0-0_通り芯
  6
CONTINUOUS
 62
    4
 10
10726.313658018371
 20
381.6431174407137
 11
10818.034651472763
 21
473.34242124815233
  0
LINE
  8
_0-0_通り芯
  6
CONTINUOUS
 62
    4
 10
10572.958621463262
 20
236.80735665398714
 11
10656.84517525338
 21
320.67428537317227
  0
LINE
  8
_0-0_通り芯
  6
CONTINUOUS
 62
    4
 10
10665.045578415329
 20
333.11419100374764
 11
10712.222207559122
 21
380.2791054184371
  0
LINE
  8
_0-0_通り芯
  6
CONTINUOUS
 62
    4
 10
10728.788551124368
 20
396.84162139892578
 11
10805.307584195523
 21
473.34242124815233
  0
LINE
  8
_0-0_通り芯
  6
CONTINUOUS
 62
    4
 10
10572.958621463262
 20
241.04883090869805
 11
10656.84517525338
 21
324.91578282536722
  0
LINE
  8
_0-0_通り芯
  6
CONTINUOUS
 62
    4
 10
10665.790124841638
 20
329.61686881812852
 11
10712.852436787374
 21
376.66830114416172
  0
LINE
  8
_0-0_通り芯
  6
CONTINUOUS
 62
    4
 10
10727.963834195523
 20
391.77547661033827
 11
10809.549939954602
 21
473.34242124815233
  0
LINE
  8
_0-0_通り芯
  6
CONTINUOUS
 62
    4
 10
10723.840249551309
 20
366.44556457931913
 11
10830.762461069469
 21
473.34242124815233
  0
LINE
  8
_0-0_通り芯
  6
CONTINUOUS
 62
    4
 10
10572.958621463262
 20
219.8414596351418
 11
10656.84517525338
 21
303.70843474929416
  0
LINE
  8
_0-0_通り芯
  6
CONTINUOUS
 62
    4
 10
10669.506918417443
 20
312.12566478832343
 11
10716.008036845438
 21
358.61509168470235
  0
LINE
  8
_0-0_通り芯
  6
CONTINUOUS
 62
    4
 10
10723.014790302999
 20
361.37937339576524
 11
10835.004816828548
 21
473.34242124815233
  0
LINE
  8
_0-0_通り芯
  6
CONTINUOUS
 62
    4
 10
10572.958621463262
 20
215.59998538043089
 11
10656.84517525338
 21
299.46696049458239
  0
LINE
  8
_0-0_通り芯
  6
CONTINUOUS
 62
    4
 10
10668.763856630068
 20
315.62389167579454
 11
10715.37706529772
 21
362.22589595897773
  0
LINE
  8
_0-0_通り芯
  6
CONTINUOUS
 62
    4
 10
10725.489683408996
 20
376.57787735397733
 11
10822.277749551309
 21
473.34242124815233
  0
LINE
  8
_0-0_通り芯
  6
CONTINUOUS
 62
    4
 10
10572.958621463262
 20
228.32440814456447
 11
10656.84517525338
 21
312.19136006123279
  0
LINE
  8
_0-0_通り芯
  6
CONTINUOUS
 62
    4
 10
10668.020052523227
 20
319.12214176074883
 11
10714.74609375
 21
365.83674662822034
  0
LINE
  8
_0-0_通り芯
  6
CONTINUOUS
 62
    4
 10
10724.664966480153
 20
371.51173256538982
 11
10826.520105310388
 21
473.34242124815233
  0
LINE
  8
_0-0_通り芯
  6
CONTINUOUS
 62
    4
 10
10572.958621463262
 20
224.08293388985271
 11
10656.84517525338
 21
307.94988580652188
  0
LINE
  8
_0-0_通り芯
  6
CONTINUOUS
 62
    4
 10
10676.94273252745
 20
277.14508932990043
 11
10864.347963075381
 21
464.50510798273825
  0
LINE
  8
_0-0_通り芯
  6
CONTINUOUS
 62
    4
 10
10784.50630806588
 20
338.02667566247891
 11
10864.347963075381
 21
417.84898397084845
  0
LINE
  8
_0-0_通り芯
  6
CONTINUOUS
 62
    4
 10
10641.176295924832
 20
198.97230766914959
 11
10656.84517525338
 21
214.63749859784059
  0
LINE
  8
_0-0_通り芯
  6
CONTINUOUS
 62
    4
 10
10685.122350744299
 20
238.66624058903909
 11
10776.048320048563
 21
329.57014908661677
  0
LINE
  8
_0-0_通り芯
  6
CONTINUOUS
 62
    4
 10
10784.50630806588
 20
333.78522460525119
 11
10864.347963075381
 21
413.60746332117031
  0
LINE
  8
_0-0_通り芯
  6
CONTINUOUS
 62
    4
 10
10645.418651683911
 20
198.97230766914959
 11
10656.84517525338
 21
210.39602434312968
  0
LINE
  8
_0-0_通り芯
  6
CONTINUOUS
 62
    4
 10
10684.379288956927
 20
242.16446747650934
 11
10777.005912162163
 21
334.7690298750598
  0
LINE
  8
_0-0_通り芯
  6
CONTINUOUS
 62
    4
 10
10784.50630806588
 20
346.50964736938477
 11
10864.347963075381
 21
426.33188608530389
  0
LINE
  8
_0-0_通り芯
  6
CONTINUOUS
 62
    4
 10
10632.691584406673
 20
198.97230766914959
 11
10656.84517525338
 21
223.12044710726326
  0
LINE
  8
_0-0_通り芯
  6
CONTINUOUS
 62
    4
 10
10683.635484850085
 20
245.66274075894768
 11
10777.963504275762
 21
339.96791066350198
  0
LINE
  8
_0-0_通り芯
  6
CONTINUOUS
 62
    4
 10
10784.50630806588
 20
342.26814991718982
 11
10864.347963075381
 21
422.09041183059298
  0
LINE
  8
_0-0_通り芯
  6
CONTINUOUS
 62
    4
 10
10636.933940165751
 20
198.97230766914959
 11
10656.84517525338
 21
218.87897285255235
  0
LINE
  8
_0-0_通り芯
  6
CONTINUOUS
 62
    4
 10
10784.50630806588
 20
321.0608250386008
 11
10864.347963075381
 21
400.88308695200311
  0
LINE
  8
_0-0_通り芯
  6
CONTINUOUS
 62
    4
 10
10687.353763064824
 20
228.17244143099373
 11
10773.174801388303
 21
313.97348352380703
  0
LINE
  8
_0-0_通り芯
  6
CONTINUOUS
 62
    4
 10
10688.096824852197
 20
224.67419134603944
 11
10772.217209274704
 21
308.77460273536485
  0
LINE
  8
_0-0_通り芯
  6
CONTINUOUS
 62
    4
 10
10688.840628959038
 20
221.17594126108514
 11
10771.259617161106
 21
303.57574514440586
  0
LINE
  8
_0-0_通り芯
  6
CONTINUOUS
 62
    4
 10
10784.50630806588
 20
316.81932758640585
 11
10864.347963075381
 21
396.6416126972922
  0
LINE
  8
_0-0_通り芯
  6
CONTINUOUS
 62
    4
 10
10784.50630806588
 20
325.30227609582852
 11
10864.347963075381
 21
405.12456120671487
  0
LINE
  8
_0-0_通り芯
  6
CONTINUOUS
 62
    4
 10
10649.66100744299
 20
198.97230766914959
 11
10656.84517525338
 21
206.15455008841877
  0
LINE
  8
_0-0_通り芯
  6
CONTINUOUS
 62
    4
 10
10685.865412531673
 20
235.16801370156799
 11
10775.089985615499
 21
324.37129149565862
  0
LINE
  8
_0-0_通り芯
  6
CONTINUOUS
 62
    4
 10
10784.50630806588
 20
329.54375035053943
 11
10864.347963075381
 21
409.36598906645941
  0
LINE
  8
_0-0_通り芯
  6
CONTINUOUS
 62
    4
 10
10653.904105521538
 20
198.97230766914959
 11
10656.84517525338
 21
201.91305263622382
  0
LINE
  8
_0-0_通り芯
  6
CONTINUOUS
 62
    4
 10
10686.609216638513
 20
231.66976361661369
 11
10774.132393501901
 21
319.17236431224921
  0
LINE
  8
_0-0_通り芯
  6
CONTINUOUS
 62
    4
 10
10611.479063291808
 20
198.97230766914959
 11
10656.84517525338
 21
244.32781838081951
  0
LINE
  8
_0-0_通り芯
  6
CONTINUOUS
 62
    4
 10
10679.174144847973
 20
266.65126697437188
 11
10783.709799276818
 21
371.16214649097344
  0
LINE
  8
_0-0_通り芯
  6
CONTINUOUS
 62
    4
 10
10784.50630806588
 20
367.71697224797464
 11
10864.347963075381
 21
447.53921096389377
  0
LINE
  8
_0-0_通り芯
  6
CONTINUOUS
 62
    4
 10
10615.721419050888
 20
198.97230766914959
 11
10656.84517525338
 21
240.0863441261086
  0
LINE
  8
_0-0_通り芯
  6
CONTINUOUS
 62
    4
 10
10679.917948954813
 20
263.15301688941759
 11
10782.752207163219
 21
365.96326570253126
  0
LINE
  8
_0-0_通り芯
  6
CONTINUOUS
 62
    4
 10
10784.50630806588
 20
371.95844650268555
 11
10864.347963075381
 21
451.78068521860467
  0
LINE
  8
_0-0_通り芯
  6
CONTINUOUS
 62
    4
 10
10677.68653663429
 20
273.64683924494528
 11
10864.347963075381
 21
460.26363372802734
  0
LINE
  8
_0-0_通り芯
  6
CONTINUOUS
 62
    4
 10
10598.751253695102
 20
198.97230766914959
 11
10656.84517525338
 21
257.0522179474699
  0
LINE
  8
_0-0_通り芯
  6
CONTINUOUS
 62
    4
 10
10602.994351773648
 20
198.97230766914959
 11
10656.84517525338
 21
252.81074369275899
  0
LINE
  8
_0-0_通り芯
  6
CONTINUOUS
 62
    4
 10
10607.236707532727
 20
198.97230766914959
 11
10656.84517525338
 21
248.56926943804808
  0
LINE
  8
_0-0_通り芯
  6
CONTINUOUS
 62
    4
 10
10678.431083060601
 20
270.14951705932617
 11
10864.347963075381
 21
456.02215947331644
  0
LINE
  8
_0-0_通り芯
  6
CONTINUOUS
 62
    4
 10
10682.147876636403
 20
252.65831302952108
 11
10779.878688502957
 21
350.36567224038635
  0
LINE
  8
_0-0_通り芯
  6
CONTINUOUS
 62
    4
 10
10784.50630806588
 20
354.99257268132425
 11
10864.347963075381
 21
434.81483459472656
  0
LINE
  8
_0-0_通り芯
  6
CONTINUOUS
 62
    4
 10
10628.449228647594
 20
198.97230766914959
 11
10656.84517525338
 21
227.36192136197502
  0
LINE
  8
_0-0_通り芯
  6
CONTINUOUS
 62
    4
 10
10682.892423062711
 20
249.16096764641878
 11
10778.92109638936
 21
345.16679145194416
  0
LINE
  8
_0-0_通り芯
  6
CONTINUOUS
 62
    4
 10
10784.50630806588
 20
350.75112162409567
 11
10864.347963075381
 21
430.57336034001565
  0
LINE
  8
_0-0_通り芯
  6
CONTINUOUS
 62
    4
 10
10624.206872888513
 20
198.97230766914959
 11
10656.84517525338
 21
231.60337241920274
  0
LINE
  8
_0-0_通り芯
  6
CONTINUOUS
 62
    4
 10
10680.661010742188
 20
259.65479000194648
 11
10781.794615049621
 21
360.76438491408908
  0
LINE
  8
_0-0_通り芯
  6
CONTINUOUS
 62
    4
 10
10784.50630806588
 20
363.47552119074606
 11
10864.347963075381
 21
443.29778310414923
  0
LINE
  8
_0-0_通り芯
  6
CONTINUOUS
 62
    4
 10
10619.964517129434
 20
198.97230766914959
 11
10656.84517525338
 21
235.84486987139769
  0
LINE
  8
_0-0_通り芯
  6
CONTINUOUS
 62
    4
 10
10681.404072529562
 20
256.15653991699219
 11
10780.837022936023
 21
355.5655041256469
  0
LINE
  8
_0-0_通り芯
  6
CONTINUOUS
 62
    4
 10
10784.50630806588
 20
359.23404693603516
 11
10864.347963075381
 21
439.05630884943747
  0
LINE
  8
_0-0_通り芯
  6
CONTINUOUS
 62
    4
 10
10572.958621463262
 20
245.29028196592577
 11
10656.84517525338
 21
329.15725708007813
  0
LINE
  8
_0-0_通り芯
  6
CONTINUOUS
 62
    4
 10
10572.958621463262
 20
389.500313836175
 11
10656.820678710938
 21
473.34242124815233
  0
LINE
  8
_0-0_通り芯
  6
CONTINUOUS
 62
    4
 10
10572.958621463262
 20
393.74178809088676
 11
10652.57832295186
 21
473.34242124815233
  0
LINE
  8
_0-0_通り芯
  6
CONTINUOUS
 62
    4
 10
10572.958621463262
 20
385.25886277894728
 11
10661.063034470017
 21
473.34242124815233
  0
LINE
  8
_0-0_通り芯
  6
CONTINUOUS
 62
    4
 10
10572.958621463262
 20
376.77591426952461
 11
10669.548488307644
 21
473.34242124815233
  0
LINE
  8
_0-0_通り芯
  6
CONTINUOUS
 62
    4
 10
10572.958621463262
 20
381.01738852423637
 11
10665.306132548563
 21
473.34242124815233
  0
LINE
  8
_0-0_通り芯
  6
CONTINUOUS
 62
    4
 10
10572.958621463262
 20
397.98326234559767
 11
10648.335224873312
 21
473.34242124815233
  0
LINE
  8
_0-0_通り芯
  6
CONTINUOUS
 62
    4
 10
10572.958621463262
 20
414.94915936444215
 11
10631.365059517526
 21
473.34242124815233
  0
LINE
  8
_0-0_通り芯
  6
CONTINUOUS
 62
    4
 10
10572.958621463262
 20
419.19063361915391
 11
10627.122703758447
 21
473.34242124815233
  0
LINE
  8
_0-0_通り芯
  6
CONTINUOUS
 62
    4
 10
10572.958621463262
 20
410.70768510973124
 11
10635.608157596074
 21
473.34242124815233
  0
LINE
  8
_0-0_通り芯
  6
CONTINUOUS
 62
    4
 10
10572.958621463262
 20
402.22473660030857
 11
10644.092869114231
 21
473.34242124815233
  0
LINE
  8
_0-0_通り芯
  6
CONTINUOUS
 62
    4
 10
10572.958621463262
 20
406.46621085502034
 11
10639.850513355153
 21
473.34242124815233
  0
LINE
  8
_0-0_通り芯
  6
CONTINUOUS
 62
    4
 10
10572.958621463262
 20
342.84416662680115
 11
10697.078148094384
 21
466.9342556515258
  0
LINE
  8
_0-0_通り芯
  6
CONTINUOUS
 62
    4
 10
10572.958621463262
 20
347.08561768402888
 11
10696.447176546664
 21
470.54508312328437
  0
LINE
  8
_0-0_通り芯
  6
CONTINUOUS
 62
    4
 10
10572.958621463262
 20
338.60269237209025
 11
10697.709119642102
 21
463.32342817976638
  0
LINE
  8
_0-0_通り芯
  6
CONTINUOUS
 62
    4
 10
10572.958621463262
 20
330.11974386266758
 11
10698.971805057012
 21
456.10270113558357
  0
LINE
  8
_0-0_通り芯
  6
CONTINUOUS
 62
    4
 10
10572.958621463262
 20
334.3611949198953
 11
10698.34083350929
 21
459.71352860734299
  0
LINE
  8
_0-0_通り芯
  6
CONTINUOUS
 62
    4
 10
10572.958621463262
 20
351.32709193874064
 11
10695.002622862121
 21
473.34242124815233
  0
LINE
  8
_0-0_通り芯
  6
CONTINUOUS
 62
    4
 10
10572.958621463262
 20
368.29298895758598
 11
10678.033199825803
 21
473.34242124815233
  0
LINE
  8
_0-0_通り芯
  6
CONTINUOUS
 62
    4
 10
10572.958621463262
 20
372.53446321229688
 11
10673.790844066723
 21
473.34242124815233
  0
LINE
  8
_0-0_通り芯
  6
CONTINUOUS
 62
    4
 10
10572.958621463262
 20
364.05149150539103
 11
10682.274813265414
 21
473.34242124815233
  0
LINE
  8
_0-0_通り芯
  6
CONTINUOUS
 62
    4
 10
10572.958621463262
 20
355.56856619345155
 11
10690.76026710304
 21
473.34242124815233
  0
LINE
  8
_0-0_通り芯
  6
CONTINUOUS
 62
    4
 10
10572.958621463262
 20
359.81001725067927
 11
10686.517911343961
 21
473.34242124815233
  0
LINE
  8
_0-0_通り芯
  6
CONTINUOUS
 62
    4
 10
10993.302958720438
 20
198.97230766914959
 11
11008.9599609375
 21
214.62606223853868
  0
LINE
  8
_0-0_通り芯
  6
CONTINUOUS
 62
    4
 10
10989.059860641892
 20
198.97230766914959
 11
11009.979907886403
 21
219.88720507235115
  0
LINE
  8
_0-0_通り芯
  6
CONTINUOUS
 62
    4
 10
10997.545314479519
 20
198.97230766914959
 11
11007.939271669131
 21
209.36401470287421
  0
LINE
  8
_0-0_通り芯
  6
CONTINUOUS
 62
    4
 10
10572.958621463262
 20
470.08823188575548
 11
10576.212950010558
 21
473.34242124815233
  0
LINE
  8
_0-0_通り芯
  6
CONTINUOUS
 62
    4
 10
11001.787670238598
 20
198.97230766914959
 11
11006.919324720227
 21
204.10289506654493
  0
LINE
  8
_0-0_通り芯
  6
CONTINUOUS
 62
    4
 10
10984.817504882813
 20
198.97230766914959
 11
11011.000597154773
 21
225.14925260801562
  0
LINE
  8
_0-0_通り芯
  6
CONTINUOUS
 62
    4
 10
11023.144943649704
 20
245.77422786403361
 11
11031.077369483743
 21
253.70403238244961
  0
LINE
  8
_0-0_通り芯
  6
CONTINUOUS
 62
    4
 10
10972.089695286106
 20
198.97230766914959
 11
11014.061922640414
 21
240.93446731567383
  0
LINE
  8
_0-0_通り芯
  6
CONTINUOUS
 62
    4
 10
10976.332051045187
 20
198.97230766914959
 11
11013.041233372043
 21
235.67241978000936
  0
LINE
  8
_0-0_通り芯
  6
CONTINUOUS
 62
    4
 10
10980.575149123735
 20
198.97230766914959
 11
11012.021286423142
 21
230.41130014368008
  0
LINE
  8
_0-0_通り芯
  6
CONTINUOUS
 62
    4
 10
11027.388041728251
 20
245.77422786403361
 11
11031.077369483743
 21
249.46258132522189
  0
LINE
  8
_0-0_通り芯
  6
CONTINUOUS
 62
    4
 10
10572.958621463262
 20
436.15648424303203
 11
10610.15328072213
 21
473.34242124815233
  0
LINE
  8
_0-0_通り芯
  6
CONTINUOUS
 62
    4
 10
10572.958621463262
 20
440.39795849774293
 11
10605.910924963049
 21
473.34242124815233
  0
LINE
  8
_0-0_通り芯
  6
CONTINUOUS
 62
    4
 10
10572.958621463262
 20
431.91500998832112
 11
10614.396378800677
 21
473.34242124815233
  0
LINE
  8
_0-0_通り芯
  6
CONTINUOUS
 62
    4
 10
10572.958621463262
 20
423.43206147889845
 11
10622.880347999368
 21
473.34242124815233
  0
LINE
  8
_0-0_通り芯
  6
CONTINUOUS
 62
    4
 10
10572.958621463262
 20
427.67353573360936
 11
10618.638734559756
 21
473.34242124815233
  0
LINE
  8
_0-0_通り芯
  6
CONTINUOUS
 62
    4
 10
10572.958621463262
 20
444.6394327524547
 11
10601.66856920397
 21
473.34242124815233
  0
LINE
  8
_0-0_通り芯
  6
CONTINUOUS
 62
    4
 10
10572.958621463262
 20
461.60528337633281
 11
10584.698403848184
 21
473.34242124815233
  0
LINE
  8
_0-0_通り芯
  6
CONTINUOUS
 62
    4
 10
10572.958621463262
 20
465.84675763104372
 11
10580.455305769638
 21
473.34242124815233
  0
LINE
  8
_0-0_通り芯
  6
CONTINUOUS
 62
    4
 10
10572.958621463262
 20
457.3638091216219
 11
10588.940759607263
 21
473.34242124815233
  0
LINE
  8
_0-0_通り芯
  6
CONTINUOUS
 62
    4
 10
10572.958621463262
 20
448.88086061219923
 11
10597.425471125423
 21
473.34242124815233
  0
LINE
  8
_0-0_通り芯
  6
CONTINUOUS
 62
    4
 10
10572.958621463262
 20
453.12233486691014
 11
10593.183115366344
 21
473.34242124815233
  0
LINE
  8
_0-0_通り芯
  6
CONTINUOUS
 62
    4
 10
10572.958621463262
 20
325.87826960795667
 11
10699.602034285263
 21
452.491873663825
  0
LINE
  8
_0-0_通り芯
  6
CONTINUOUS
 62
    4
 10
10572.958621463262
 20
266.49765323948202
 11
10656.84517525338
 21
350.364581958668
  0
LINE
  8
_0-0_通り芯
  6
CONTINUOUS
 62
    4
 10
10660.584238413219
 20
354.10271721917269
 11
10708.436378272805
 21
401.94311915217185
  0
LINE
  8
_0-0_通り芯
  6
CONTINUOUS
 62
    4
 10
10732.912135768582
 20
422.17151023246174
 11
10784.095805400126
 21
473.34242124815233
  0
LINE
  8
_0-0_通り芯
  6
CONTINUOUS
 62
    4
 10
10572.958621463262
 20
262.25617898477111
 11
10656.84517525338
 21
346.12313090143942
  0
LINE
  8
_0-0_通り芯
  6
CONTINUOUS
 62
    4
 10
10661.328784839528
 20
350.60539503355272
 11
10709.067349820523
 21
398.33229168041328
  0
LINE
  8
_0-0_通り芯
  6
CONTINUOUS
 62
    4
 10
10733.736852697424
 20
427.23765502104925
 11
10779.852707321579
 21
473.34242124815233
  0
LINE
  8
_0-0_通り芯
  6
CONTINUOUS
 62
    4
 10
10572.958621463262
 20
274.98060174890469
 11
10656.84517525338
 21
358.84755366557386
  0
LINE
  8
_0-0_通り芯
  6
CONTINUOUS
 62
    4
 10
10659.097372519005
 20
361.09919419159723
 11
10707.173692857898
 21
409.16384619635551
  0
LINE
  8
_0-0_通り芯
  6
CONTINUOUS
 62
    4
 10
10734.561569626267
 20
432.30384620460313
 11
10775.6103515625
 21
473.34242124815233
  0
LINE
  8
_0-0_通り芯
  6
CONTINUOUS
 62
    4
 10
10572.958621463262
 20
270.73915069167697
 11
10656.84517525338
 21
354.60607941086209
  0
LINE
  8
_0-0_通り芯
  6
CONTINUOUS
 62
    4
 10
10659.841176625845
 20
357.60096730412698
 11
10707.805406725085
 21
405.55394662393127
  0
LINE
  8
_0-0_通り芯
  6
CONTINUOUS
 62
    4
 10
10663.558712521115
 20
340.11069117365622
 11
10710.960264463683
 21
387.50076036195509
  0
LINE
  8
_0-0_通り芯
  6
CONTINUOUS
 62
    4
 10
10730.437984982053
 20
406.9739109761008
 11
10796.822130357898
 21
473.34242124815233
  0
LINE
  8
_0-0_通り芯
  6
CONTINUOUS
 62
    4
 10
10572.958621463262
 20
249.53177941812072
 11
10656.84517525338
 21
333.39873133478903
  0
LINE
  8
_0-0_通り芯
  6
CONTINUOUS
 62
    4
 10
10664.302516627957
 20
336.61241789121874
 11
10711.591236011403
 21
383.88993289019652
  0
LINE
  8
_0-0_通り芯
  6
CONTINUOUS
 62
    4
 10
10729.61326805321
 20
401.90776618751329
 11
10801.064486116977
 21
473.34242124815233
  0
LINE
  8
_0-0_通り芯
  6
CONTINUOUS
 62
    4
 10
10572.958621463262
 20
253.77325367283163
 11
10656.84517525338
 21
337.64018239201761
  0
LINE
  8
_0-0_通り芯
  6
CONTINUOUS
 62
    4
 10
10662.071846626901
 20
347.10714494859843
 11
10709.697579048776
 21
394.72151060362108
  0
LINE
  8
_0-0_通り芯
  6
CONTINUOUS
 62
    4
 10
10732.088161159207
 20
417.10629334320856
 11
10788.338161159207
 21
473.34242124815233
  0
LINE
  8
_0-0_通り芯
  6
CONTINUOUS
 62
    4
 10
10572.958621463262
 20
258.01472792754339
 11
10656.84517525338
 21
341.88165664672852
  0
LINE
  8
_0-0_通り芯
  6
CONTINUOUS
 62
    4
 10
10662.815650733743
 20
343.60891806112733
 11
10710.328550596496
 21
391.11068313186252
  0
LINE
  8
_0-0_通り芯
  6
CONTINUOUS
 62
    4
 10
10731.263444230364
 20
412.04010215965468
 11
10792.579774598818
 21
473.34242124815233
  0
LINE
  8
_0-0_通り芯
  6
CONTINUOUS
 62
    4
 10
10572.958621463262
 20
300.42944727717185
 11
10703.387863571579
 21
430.82788312757344
  0
LINE
  8
_0-0_通り芯
  6
CONTINUOUS
 62
    4
 10
10740.335330447637
 20
467.76602461531326
 11
10745.912376610009
 21
473.34242124815233
  0
LINE
  8
_0-0_通り芯
  6
CONTINUOUS
 62
    4
 10
10739.511355838262
 20
462.70080772606093
 11
10750.154732369088
 21
473.34242124815233
  0
LINE
  8
_0-0_通り芯
  6
CONTINUOUS
 62
    4
 10
10738.68589658995
 20
457.63461654250705
 11
10754.397830447637
 21
473.34242124815233
  0
LINE
  8
_0-0_通り芯
  6
CONTINUOUS
 62
    4
 10
10572.958621463262
 20
296.18797302246094
 11
10704.018835119299
 21
427.21705565581487
  0
LINE
  8
_0-0_通り芯
  6
CONTINUOUS
 62
    4
 10
10572.958621463262
 20
304.67089833440042
 11
10702.756892023861
 21
434.43871059933201
  0
LINE
  8
_0-0_通り芯
  6
CONTINUOUS
 62
    4
 10
10572.958621463262
 20
317.39534429601719
 11
10700.863977380701
 21
445.27026511527424
  0
LINE
  8
_0-0_通り芯
  6
CONTINUOUS
 62
    4
 10
10572.958621463262
 20
321.63679535324491
 11
10700.233005832981
 21
448.88104619206644
  0
LINE
  8
_0-0_通り芯
  6
CONTINUOUS
 62
    4
 10
10572.958621463262
 20
313.15387004130628
 11
10701.495691247888
 21
441.66036554285
  0
LINE
  8
_0-0_通り芯
  6
CONTINUOUS
 62
    4
 10
10741.160047376477
 20
472.83221579886799
 11
10741.67002085093
 21
473.34242124815233
  0
LINE
  8
_0-0_通り芯
  6
CONTINUOUS
 62
    4
 10
10572.958621463262
 20
308.91237258911133
 11
10702.12666279561
 21
438.04949167612421
  0
LINE
  8
_0-0_通り芯
  6
CONTINUOUS
 62
    4
 10
10736.211745803423
 20
442.43613578177815
 11
10767.124897724874
 21
473.34242124815233
  0
LINE
  8
_0-0_通り芯
  6
CONTINUOUS
 62
    4
 10
10572.958621463262
 20
283.46355025832736
 11
10656.84517525338
 21
367.33047897751248
  0
LINE
  8
_0-0_通り芯
  6
CONTINUOUS
 62
    4
 10
10658.354310731631
 20
364.59744427655153
 11
10706.542721310178
 21
412.77467366811408
  0
LINE
  8
_0-0_通り芯
  6
CONTINUOUS
 62
    4
 10
10735.386286555111
 20
437.36999099319064
 11
10771.367995803423
 21
473.34242124815233
  0
LINE
  8
_0-0_通り芯
  6
CONTINUOUS
 62
    4
 10
10572.958621463262
 20
279.2220760036156
 11
10656.84517525338
 21
363.08902792028476
  0
LINE
  8
_0-0_通り芯
  6
CONTINUOUS
 62
    4
 10
10657.610506624789
 20
368.09569436150667
 11
10705.912492081927
 21
416.38550113987264
  0
LINE
  8
_0-0_通り芯
  6
CONTINUOUS
 62
    4
 10
10737.861179661106
 20
452.56847175391954
 11
10758.640186206716
 21
473.34242124815233
  0
LINE
  8
_0-0_通り芯
  6
CONTINUOUS
 62
    4
 10
10572.958621463262
 20
291.94649876775003
 11
10704.650548986487
 21
423.60715608339063
  0
LINE
  8
_0-0_通り芯
  6
CONTINUOUS
 62
    4
 10
10656.867444837415
 20
371.59392124897693
 11
10705.281520534207
 21
419.99632861163207
  0
LINE
  8
_0-0_通り芯
  6
CONTINUOUS
 62
    4
 10
10737.036462732263
 20
447.50232696533203
 11
10762.882541965793
 21
473.34242124815233
  0
LINE
  8
_0-0_通り芯
  6
CONTINUOUS
 62
    4
 10
10572.958621463262
 20
287.70504771052146
 11
10656.84517525338
 21
371.57195323222425
  0
LINE
  8
_0-0_通り芯
  6
CONTINUOUS
 62
    4
 10
11209.668298669763
 20
198.97230766914959
 11
11287.994137325803
 21
277.27958833849101
  0
LINE
  8
_0-0_通り芯
  6
CONTINUOUS
 62
    4
 10
12139.951963682433
 20
242.57139772982185
 11
12205.806092958193
 21
308.41017027158983
  0
LINE
  8
_0-0_通り芯
  6
CONTINUOUS
 62
    4
 10
12092.100566142313
 20
198.97230766914959
 11
12114.663366369299
 21
221.53000444979256
  0
LINE
  8
_0-0_通り芯
  6
CONTINUOUS
 62
    4
 10
12096.342921901394
 20
198.97230766914959
 11
12114.663366369299
 21
217.28853019508165
  0
LINE
  8
_0-0_通り芯
  6
CONTINUOUS
 62
    4
 10
12100.585277660473
 20
198.97230766914959
 11
12114.663366369299
 21
213.04705594036989
  0
LINE
  8
_0-0_通り芯
  6
CONTINUOUS
 62
    4
 10
12141.06247360642
 20
239.44020142426325
 11
12206.996773384713
 21
305.35951562829922
  0
LINE
  8
_0-0_通り芯
  6
CONTINUOUS
 62
    4
 10
12138.842196077914
 20
245.70349873723245
 11
12204.613927892737
 21
311.45987381806208
  0
LINE
  8
_0-0_通り芯
  6
CONTINUOUS
 62
    4
 10
12136.622660868876
 20
251.96681924768399
 11
12202.231082400762
 21
317.56027840279216
  0
LINE
  8
_0-0_通り芯
  6
CONTINUOUS
 62
    4
 10
12079.373498865076
 20
198.97230766914959
 11
12114.663366369299
 21
234.25442721392699
  0
LINE
  8
_0-0_通り芯
  6
CONTINUOUS
 62
    4
 10
12083.615854624157
 20
198.97230766914959
 11
12114.663366369299
 21
230.01292976173204
  0
LINE
  8
_0-0_通り芯
  6
CONTINUOUS
 62
    4
 10
12087.857468063767
 20
198.97230766914959
 11
12114.663366369299
 21
225.77147870450432
  0
LINE
  8
_0-0_通り芯
  6
CONTINUOUS
 62
    4
 10
12137.731686153928
 20
248.83471824027424
 11
12203.421762827282
 21
314.50962375950155
  0
LINE
  8
_0-0_通り芯
  6
CONTINUOUS
 62
    4
 10
12146.612796267949
 20
223.78150579091681
 11
12212.955371753591
 21
290.10904930733318
  0
LINE
  8
_0-0_通り芯
  6
CONTINUOUS
 62
    4
 10
12145.502286343963
 20
226.91270209647541
 11
12211.763949007602
 21
293.15970395062379
  0
LINE
  8
_0-0_通り芯
  6
CONTINUOUS
 62
    4
 10
12147.721821552999
 20
220.64938158602303
 11
12214.147536819048
 21
287.05929936589456
  0
LINE
  8
_0-0_通り芯
  6
CONTINUOUS
 62
    4
 10
12149.942099081505
 20
214.38608427305468
 11
12216.530382311023
 21
280.95894117613085
  0
LINE
  8
_0-0_通り芯
  6
CONTINUOUS
 62
    4
 10
12148.831589157517
 20
217.51728057861328
 11
12215.339701884501
 21
284.00959581942146
  0
LINE
  8
_0-0_通り芯
  6
CONTINUOUS
 62
    4
 10
12113.31308725718
 20
198.97230766914959
 11
12114.663366369299
 21
200.32260997875312
  0
LINE
  8
_0-0_通り芯
  6
CONTINUOUS
 62
    4
 10
12104.827633419553
 20
198.97230766914959
 11
12114.663366369299
 21
208.80555848817579
  0
LINE
  8
_0-0_通り芯
  6
CONTINUOUS
 62
    4
 10
12142.172241210938
 20
236.30810041685351
 11
12208.18893845017
 21
302.30978888434379
  0
LINE
  8
_0-0_通り芯
  6
CONTINUOUS
 62
    4
 10
12143.282008815457
 20
233.17599940944376
 11
12209.380361196158
 21
299.25913424105232
  0
LINE
  8
_0-0_通り芯
  6
CONTINUOUS
 62
    4
 10
12144.392518739443
 20
230.04480310388516
 11
12210.572526261614
 21
296.20943069458008
  0
LINE
  8
_0-0_通り芯
  6
CONTINUOUS
 62
    4
 10
12109.070731498101
 20
198.97230766914959
 11
12114.663366369299
 21
204.56410743094807
  0
LINE
  8
_0-0_通り芯
  6
CONTINUOUS
 62
    4
 10
12127.742293074325
 20
277.02095959637575
 11
12192.697473474451
 21
341.96085285496054
  0
LINE
  8
_0-0_通り芯
  6
CONTINUOUS
 62
    4
 10
12045.433910472973
 20
198.97230766914959
 11
12114.663366369299
 21
268.18619805413363
  0
LINE
  8
_0-0_通り芯
  6
CONTINUOUS
 62
    4
 10
12049.675523912585
 20
198.97230766914959
 11
12114.663366369299
 21
263.94472379942187
  0
LINE
  8
_0-0_通り芯
  6
CONTINUOUS
 62
    4
 10
12053.917879671664
 20
198.97230766914959
 11
12114.663366369299
 21
259.70327274219414
  0
LINE
  8
_0-0_通り芯
  6
CONTINUOUS
 62
    4
 10
12128.852060678844
 20
273.88883539148281
 11
12193.888896220438
 21
338.91019821166992
  0
LINE
  8
_0-0_通り芯
  6
CONTINUOUS
 62
    4
 10
12126.633267789275
 20
280.15306060378634
 11
12191.505308408996
 21
345.01055640143363
  0
LINE
  8
_0-0_通り芯
  6
CONTINUOUS
 62
    4
 10
12124.412990260769
 20
286.41635791675469
 11
12189.122462917019
 21
351.11093778867968
  0
LINE
  8
_0-0_通り芯
  6
CONTINUOUS
 62
    4
 10
12032.706100876267
 20
198.97230766914959
 11
12114.663366369299
 21
280.9106208182672
  0
LINE
  8
_0-0_通り芯
  6
CONTINUOUS
 62
    4
 10
12036.949198954813
 20
198.97230766914959
 11
12114.663366369299
 21
276.66916976103948
  0
LINE
  8
_0-0_通り芯
  6
CONTINUOUS
 62
    4
 10
12041.191554713894
 20
198.97230766914959
 11
12114.663366369299
 21
272.42767230884454
  0
LINE
  8
_0-0_通り芯
  6
CONTINUOUS
 62
    4
 10
12125.522757865288
 20
283.28423371186091
 11
12190.314627982476
 21
348.06121104472425
  0
LINE
  8
_0-0_通り芯
  6
CONTINUOUS
 62
    4
 10
12070.88804502745
 20
198.97230766914959
 11
12114.663366369299
 21
242.7373757233488
  0
LINE
  8
_0-0_通り芯
  6
CONTINUOUS
 62
    4
 10
12133.292615735852
 20
261.36221756806208
 11
12198.655329523861
 21
326.71036333651131
  0
LINE
  8
_0-0_通り芯
  6
CONTINUOUS
 62
    4
 10
12134.402383340372
 20
258.23011656065233
 11
12199.846752269848
 21
323.65970869322069
  0
LINE
  8
_0-0_通り芯
  6
CONTINUOUS
 62
    4
 10
12135.51289326436
 20
255.09894345257692
 11
12201.038917335305
 21
320.61000514674845
  0
LINE
  8
_0-0_通り芯
  6
CONTINUOUS
 62
    4
 10
12075.131143105997
 20
198.97230766914959
 11
12114.663366369299
 21
238.49587827115471
  0
LINE
  8
_0-0_通り芯
  6
CONTINUOUS
 62
    4
 10
12066.645689268371
 20
198.97230766914959
 11
12114.663366369299
 21
246.97882678057738
  0
LINE
  8
_0-0_通り芯
  6
CONTINUOUS
 62
    4
 10
12058.160977750213
 20
198.97230766914959
 11
12114.663366369299
 21
255.4617752899992
  0
LINE
  8
_0-0_通り芯
  6
CONTINUOUS
 62
    4
 10
12129.962570602829
 20
270.7576622834074
 11
12195.080318966428
 21
335.86047146771364
  0
LINE
  8
_0-0_通り芯
  6
CONTINUOUS
 62
    4
 10
12131.072338207348
 20
267.62551488103128
 11
12196.272484031884
 21
332.81074472375821
  0
LINE
  8
_0-0_通り芯
  6
CONTINUOUS
 62
    4
 10
12132.182848131335
 20
264.49434177295586
 11
12197.463906777872
 21
329.76011327795078
  0
LINE
  8
_0-0_通り芯
  6
CONTINUOUS
 62
    4
 10
12062.40333350929
 20
198.97230766914959
 11
12114.663366369299
 21
251.22030103528829
  0
LINE
  8
_0-0_通り芯
  6
CONTINUOUS
 62
    4
 10
12151.051866686023
 20
211.25398326564493
 11
12217.722547376477
 21
277.90921443217542
  0
LINE
  8
_0-0_通り芯
  6
CONTINUOUS
 62
    4
 10
11642.524430558489
 20
207.01874913396097
 11
11678.094152502112
 21
242.59287859942503
  0
LINE
  8
_0-0_通り芯
  6
CONTINUOUS
 62
    4
 10
11652.118167361699
 20
211.80503948314765
 11
11675.366128457559
 21
235.05538991979648
  0
LINE
  8
_0-0_通り芯
  6
CONTINUOUS
 62
    4
 10
11634.985434042443
 20
204.28824295868708
 11
11679.647827148438
 21
248.95490440162462
  0
LINE
  8
_0-0_通り芯
  6
CONTINUOUS
 62
    4
 10
11621.953273463894
 20
200.87150883030233
 11
11679.985582506335
 21
258.90989561338671
  0
LINE
  8
_0-0_通り芯
  6
CONTINUOUS
 62
    4
 10
11628.200634105786
 20
202.31081988360472
 11
11679.985582506335
 21
254.10140527261291
  0
LINE
  8
_0-0_通り芯
  6
CONTINUOUS
 62
    4
 10
11566.42109638936
 20
425.39739866514452
 11
11613.53759765625
 21
472.50281153498435
  0
LINE
  8
_0-0_通り芯
  6
CONTINUOUS
 62
    4
 10
12240.585986987966
 20
198.97230766914959
 11
12246.322631835938
 21
204.70746787818712
  0
LINE
  8
_0-0_通り芯
  6
CONTINUOUS
 62
    4
 10
12236.343631228887
 20
198.97230766914959
 11
12245.130466770483
 21
207.75719462214255
  0
LINE
  8
_0-0_通り芯
  6
CONTINUOUS
 62
    4
 10
12244.828342747045
 20
198.97230766914959
 11
12247.514054581927
 21
201.6568132348965
  0
LINE
  8
_0-0_通り芯
  6
CONTINUOUS
 62
    4
 10
11561.611608556799
 20
425.39739866514452
 11
11609.108919710727
 21
472.8842709515547
  0
LINE
  8
_0-0_通り芯
  6
CONTINUOUS
 62
    4
 10
11605.980785472973
 20
473.09323388177035
 11
11558.707654798352
 21
425.83151636896872
  0
LINE
  8
_0-0_通り芯
  6
CONTINUOUS
 62
    4
 10
11581.591137035473
 20
198.97230766914959
 11
11679.985582506335
 21
297.37760956222928
  0
LINE
  8
_0-0_通り芯
  6
CONTINUOUS
 62
    4
 10
11586.39839790963
 20
198.97230766914959
 11
11679.985582506335
 21
292.56914241893867
  0
LINE
  8
_0-0_通り芯
  6
CONTINUOUS
 62
    4
 10
11576.783133841851
 20
198.97230766914959
 11
11679.985582506335
 21
302.18609990300394
  0
LINE
  8
_0-0_通り芯
  6
CONTINUOUS
 62
    4
 10
11567.167127454602
 20
198.97230766914959
 11
11679.985582506335
 21
311.80303418958516
  0
LINE
  8
_0-0_通り芯
  6
CONTINUOUS
 62
    4
 10
11571.975130648227
 20
198.97230766914959
 11
11679.985582506335
 21
306.99456704629455
  0
LINE
  8
_0-0_通り芯
  6
CONTINUOUS
 62
    4
 10
11591.144788587415
 20
198.91002242629611
 11
11679.985582506335
 21
287.76067527564805
  0
LINE
  8
_0-0_通り芯
  6
CONTINUOUS
 62
    4
 10
11611.051569758236
 20
199.58534756222264
 11
11679.985582506335
 21
268.52682989996879
  0
LINE
  8
_0-0_通り芯
  6
CONTINUOUS
 62
    4
 10
11616.385135135137
 20
200.11058498073282
 11
11679.985582506335
 21
263.71836275667732
  0
LINE
  8
_0-0_通り芯
  6
CONTINUOUS
 62
    4
 10
11605.873891469595
 20
199.21520851753826
 11
11679.985582506335
 21
273.3352970432594
  0
LINE
  8
_0-0_通り芯
  6
CONTINUOUS
 62
    4
 10
11595.93126451647
 20
198.88814719947618
 11
11679.985582506335
 21
282.95223132984063
  0
LINE
  8
_0-0_通り芯
  6
CONTINUOUS
 62
    4
 10
11600.837253879856
 20
198.98664371387383
 11
11679.985582506335
 21
278.14376418655002
  0
LINE
  8
_0-0_通り芯
  6
CONTINUOUS
 62
    4
 10
12172.706810203759
 20
198.97230766914959
 11
12227.256156302788
 21
253.50863998000705
  0
LINE
  8
_0-0_通り芯
  6
CONTINUOUS
 62
    4
 10
12168.46445444468
 20
198.97230766914959
 11
12226.063991237332
 21
256.55836672396248
  0
LINE
  8
_0-0_通り芯
  6
CONTINUOUS
 62
    4
 10
12176.949165962838
 20
198.97230766914959
 11
12228.446836729308
 21
250.45798533671643
  0
LINE
  8
_0-0_通り芯
  6
CONTINUOUS
 62
    4
 10
12185.434619800466
 20
198.97230766914959
 11
12230.83116686022
 21
244.35853184880472
  0
LINE
  8
_0-0_通り芯
  6
CONTINUOUS
 62
    4
 10
12181.192264041387
 20
198.97230766914959
 11
12229.639001794763
 21
247.40823539527696
  0
LINE
  8
_0-0_通り芯
  6
CONTINUOUS
 62
    4
 10
12164.222098685601
 20
198.97230766914959
 11
12224.871826171875
 21
259.60811666540195
  0
LINE
  8
_0-0_通り芯
  6
CONTINUOUS
 62
    4
 10
12153.272144214528
 20
204.99068595267659
 11
12220.105392868454
 21
271.80885624241171
  0
LINE
  8
_0-0_通り芯
  6
CONTINUOUS
 62
    4
 10
12152.162376610009
 20
208.12278696008633
 11
12218.913227802999
 21
274.8585597888848
  0
LINE
  8
_0-0_通り芯
  6
CONTINUOUS
 62
    4
 10
12154.381911819048
 20
201.8585617477828
 11
12221.297557933911
 21
268.75910630097223
  0
LINE
  8
_0-0_通り芯
  6
CONTINUOUS
 62
    4
 10
12159.979000607053
 20
198.97230766914959
 11
12223.680403425888
 21
262.65872491372619
  0
LINE
  8
_0-0_通り芯
  6
CONTINUOUS
 62
    4
 10
12155.737387167443
 20
198.97230766914959
 11
12222.4889806799
 21
265.70847485516481
  0
LINE
  8
_0-0_通り芯
  6
CONTINUOUS
 62
    4
 10
12219.374208192568
 20
198.97230766914959
 11
12240.364033467062
 21
219.95795739663635
  0
LINE
  8
_0-0_通り芯
  6
CONTINUOUS
 62
    4
 10
12215.131852433489
 20
198.97230766914959
 11
12239.172610721074
 21
223.00766094310859
  0
LINE
  8
_0-0_通り芯
  6
CONTINUOUS
 62
    4
 10
12223.616563951648
 20
198.97230766914959
 11
12241.555456213049
 21
216.90730275334573
  0
LINE
  8
_0-0_通り芯
  6
CONTINUOUS
 62
    4
 10
12232.100533150338
 20
198.97230766914959
 11
12243.938301705026
 21
210.80692136609883
  0
LINE
  8
_0-0_通り芯
  6
CONTINUOUS
 62
    4
 10
12227.858919710727
 20
198.97230766914959
 11
12242.747621278506
 21
213.85755281190626
  0
LINE
  8
_0-0_通り芯
  6
CONTINUOUS
 62
    4
 10
12210.888754354943
 20
198.97230766914959
 11
12237.980445655618
 21
226.05741088454806
  0
LINE
  8
_0-0_通り芯
  6
CONTINUOUS
 62
    4
 10
12193.919331318624
 20
198.97230766914959
 11
12233.214012352197
 21
238.25815046155782
  0
LINE
  8
_0-0_通り芯
  6
CONTINUOUS
 62
    4
 10
12189.676975559545
 20
198.97230766914959
 11
12232.02184728674
 21
241.30787720551325
  0
LINE
  8
_0-0_通り芯
  6
CONTINUOUS
 62
    4
 10
12198.160944758236
 20
198.97230766914959
 11
12234.405435098184
 21
235.20751901575039
  0
LINE
  8
_0-0_通り芯
  6
CONTINUOUS
 62
    4
 10
12206.646398595862
 20
198.97230766914959
 11
12236.78902290963
 21
229.10804233035549
  0
LINE
  8
_0-0_通り芯
  6
CONTINUOUS
 62
    4
 10
12202.404042836783
 20
198.97230766914959
 11
12235.596857844173
 21
232.15776907431092
  0
LINE
  8
_0-0_通り芯
  6
CONTINUOUS
 62
    4
 10
12123.302480336783
 20
289.54753102483011
 11
12192.654418945313
 21
358.8837185421508
  0
LINE
  8
_0-0_通り芯
  6
CONTINUOUS
 62
    4
 10
12018.957602011193
 20
350.64457558296795
 11
12114.663366369299
 21
446.32802396207268
  0
LINE
  8
_0-0_通り芯
  6
CONTINUOUS
 62
    4
 10
12018.957602011193
 20
354.88602664019652
 11
12114.663366369299
 21
450.56949821678359
  0
LINE
  8
_0-0_通り芯
  6
CONTINUOUS
 62
    4
 10
12018.957602011193
 20
346.40307813077385
 11
12114.663366369299
 21
442.08654970736092
  0
LINE
  8
_0-0_通り芯
  6
CONTINUOUS
 62
    4
 10
12018.957602011193
 20
337.92012962135118
 11
12114.663366369299
 21
433.60360119793825
  0
LINE
  8
_0-0_通り芯
  6
CONTINUOUS
 62
    4
 10
12018.957602011193
 20
342.16160387606209
 11
12114.663366369299
 21
437.84507545265001
  0
LINE
  8
_0-0_通り芯
  6
CONTINUOUS
 62
    4
 10
12018.957602011193
 20
359.12750089490743
 11
12114.663366369299
 21
454.81097247149535
  0
LINE
  8
_0-0_通り芯
  6
CONTINUOUS
 62
    4
 10
12018.957602011193
 20
376.09337471626873
 11
12114.663366369299
 21
471.77682309537346
  0
LINE
  8
_0-0_通り芯
  6
CONTINUOUS
 62
    4
 10
12018.957602011193
 20
380.3348257734973
 11
12111.9873046875
 21
473.34242124815233
  0
LINE
  8
_0-0_通り芯
  6
CONTINUOUS
 62
    4
 10
12018.957602011193
 20
371.85190046155782
 11
12114.663366369299
 21
467.5353488406617
  0
LINE
  8
_0-0_通り芯
  6
CONTINUOUS
 62
    4
 10
12018.957602011193
 20
363.36897514961834
 11
12114.663366369299
 21
459.05240033123903
  0
LINE
  8
_0-0_通り芯
  6
CONTINUOUS
 62
    4
 10
12018.957602011193
 20
367.61042620684691
 11
12114.663366369299
 21
463.29387458595079
  0
LINE
  8
_0-0_通り芯
  6
CONTINUOUS
 62
    4
 10
12018.957602011193
 20
320.95427899747307
 11
12114.663366369299
 21
416.63770417909376
  0
LINE
  8
_0-0_通り芯
  6
CONTINUOUS
 62
    4
 10
12145.671535182644
 20
447.63858898265937
 11
12171.381027634079
 21
473.34242124815233
  0
LINE
  8
_0-0_通り芯
  6
CONTINUOUS
 62
    4
 10
12142.628025364233
 20
440.35457920383749
 11
12175.624125712626
 21
473.34242124815233
  0
LINE
  8
_0-0_通り芯
  6
CONTINUOUS
 62
    4
 10
12139.585257865288
 20
433.07061581998283
 11
12179.866481471707
 21
473.34242124815233
  0
LINE
  8
_0-0_通り芯
  6
CONTINUOUS
 62
    4
 10
12018.957602011193
 20
316.71278154527812
 11
12114.663366369299
 21
412.39627631934923
  0
LINE
  8
_0-0_通り芯
  6
CONTINUOUS
 62
    4
 10
12018.957602011193
 20
325.19573005470079
 11
12114.663366369299
 21
420.87917843380467
  0
LINE
  8
_0-0_通り芯
  6
CONTINUOUS
 62
    4
 10
12018.957602011193
 20
333.67867856412346
 11
12114.663366369299
 21
429.36212694322734
  0
LINE
  8
_0-0_通り芯
  6
CONTINUOUS
 62
    4
 10
12154.801322318413
 20
469.49047913422419
 11
12158.653218037374
 21
473.34242124815233
  0
LINE
  8
_0-0_通り芯
  6
CONTINUOUS
 62
    4
 10
12151.7578125
 20
462.20651575036953
 11
12162.896316115923
 21
473.34242124815233
  0
LINE
  8
_0-0_通り芯
  6
CONTINUOUS
 62
    4
 10
12148.714302681588
 20
454.92255236651488
 11
12167.138671875
 21
473.34242124815233
  0
LINE
  8
_0-0_通り芯
  6
CONTINUOUS
 62
    4
 10
12018.957602011193
 20
329.4372043094117
 11
12114.663366369299
 21
425.12065268851643
  0
LINE
  8
_0-0_通り芯
  6
CONTINUOUS
 62
    4
 10
12018.957602011193
 20
443.95687000171563
 11
12048.349741342907
 21
473.34242124815233
  0
LINE
  8
_0-0_通り芯
  6
CONTINUOUS
 62
    4
 10
12018.957602011193
 20
448.19834425642654
 11
12044.107385583826
 21
473.34242124815233
  0
LINE
  8
_0-0_通り芯
  6
CONTINUOUS
 62
    4
 10
12018.957602011193
 20
439.7154421419711
 11
12052.592097101986
 21
473.34242124815233
  0
LINE
  8
_0-0_通り芯
  6
CONTINUOUS
 62
    4
 10
12018.957602011193
 20
431.23249363254843
 11
12061.077550939612
 21
473.34242124815233
  0
LINE
  8
_0-0_通り芯
  6
CONTINUOUS
 62
    4
 10
12018.957602011193
 20
435.47396788726019
 11
12056.835195180533
 21
473.34242124815233
  0
LINE
  8
_0-0_通り芯
  6
CONTINUOUS
 62
    4
 10
12018.957602011193
 20
452.4398185111383
 11
12039.865029824747
 21
473.34242124815233
  0
LINE
  8
_0-0_通り芯
  6
CONTINUOUS
 62
    4
 10
12018.957602011193
 20
469.40566913501641
 11
12022.89560678843
 21
473.34242124815233
  0
LINE
  8
_0-0_通り芯
  6
DASHED1
 62
    2
 10
8209.2248865076017
 20
2408.3814672521644
 11
8266.7249524915551
 21
2349.99154580606
  0
LINE
  8
_0-0_通り芯
  6
CONTINUOUS
 62
    4
 10
12018.957602011193
 20
465.16424127527188
 11
12027.137962547509
 21
473.34242124815233
  0
LINE
  8
_0-0_通り芯
  6
CONTINUOUS
 62
    4
 10
12018.957602011193
 20
456.68129276584921
 11
12035.623416385137
 21
473.34242124815233
  0
LINE
  8
_0-0_通り芯
  6
CONTINUOUS
 62
    4
 10
12018.957602011193
 20
460.92276702056097
 11
12031.380318306588
 21
473.34242124815233
  0
LINE
  8
_0-0_通り芯
  6
CONTINUOUS
 62
    4
 10
12018.957602011193
 20
397.30074598982497
 11
12095.017139331716
 21
473.34242124815233
  0
LINE
  8
_0-0_通り芯
  6
CONTINUOUS
 62
    4
 10
12018.957602011193
 20
401.54217384956951
 11
12090.774783572637
 21
473.34242124815233
  0
LINE
  8
_0-0_通り芯
  6
CONTINUOUS
 62
    4
 10
12018.957602011193
 20
393.05927173511407
 11
12099.259495090795
 21
473.34242124815233
  0
LINE
  8
_0-0_通り芯
  6
CONTINUOUS
 62
    4
 10
12018.957602011193
 20
384.5763232256914
 11
12107.744948928423
 21
473.34242124815233
  0
LINE
  8
_0-0_通り芯
  6
CONTINUOUS
 62
    4
 10
12018.957602011193
 20
388.81779748040316
 11
12103.501850849874
 21
473.34242124815233
  0
LINE
  8
_0-0_通り芯
  6
CONTINUOUS
 62
    4
 10
12018.957602011193
 20
405.78364810428127
 11
12086.531685494088
 21
473.34242124815233
  0
LINE
  8
_0-0_通り芯
  6
CONTINUOUS
 62
    4
 10
12018.957602011193
 20
422.74954512312576
 11
12069.563004777239
 21
473.34242124815233
  0
LINE
  8
_0-0_通り芯
  6
CONTINUOUS
 62
    4
 10
12018.957602011193
 20
426.99097298287029
 11
12065.319906698693
 21
473.34242124815233
  0
LINE
  8
_0-0_通り芯
  6
CONTINUOUS
 62
    4
 10
12018.957602011193
 20
418.50807086841485
 11
12073.805360536318
 21
473.34242124815233
  0
LINE
  8
_0-0_通り芯
  6
CONTINUOUS
 62
    4
 10
12018.957602011193
 20
410.02512235899218
 11
12082.289329735009
 21
473.34242124815233
  0
LINE
  8
_0-0_通り芯
  6
CONTINUOUS
 62
    4
 10
12018.957602011193
 20
414.26659661370394
 11
12078.04697397593
 21
473.34242124815233
  0
LINE
  8
_0-0_通り芯
  6
CONTINUOUS
 62
    4
 10
12018.957602011193
 20
312.47130729056721
 11
12114.663366369299
 21
408.15480206463747
  0
LINE
  8
_0-0_通り芯
  6
CONTINUOUS
 62
    4
 10
12018.957602011193
 20
219.15892008188592
 11
12221.619724582983
 21
421.77427652719842
  0
LINE
  8
_0-0_通り芯
  6
CONTINUOUS
 62
    4
 10
12018.957602011193
 20
223.40039433659769
 11
12225.240758947424
 21
429.63585724701716
  0
LINE
  8
_0-0_通り芯
  6
CONTINUOUS
 62
    4
 10
12115.533364785684
 20
311.47047506796326
 11
12217.998690218539
 21
413.91269580737969
  0
LINE
  8
_0-0_通り芯
  6
CONTINUOUS
 62
    4
 10
12116.642390070736
 20
308.33837406055352
 11
12214.379140493033
 21
406.05208938186252
  0
LINE
  8
_0-0_通り芯
  6
CONTINUOUS
 62
    4
 10
12018.957602011193
 20
214.91739943220779
 11
12114.663366369299
 21
310.60091740376208
  0
LINE
  8
_0-0_通り芯
  6
CONTINUOUS
 62
    4
 10
12018.957602011193
 20
227.64186859130859
 11
12228.8610509924
 21
437.49646367253519
  0
LINE
  8
_0-0_通り芯
  6
CONTINUOUS
 62
    4
 10
12018.957602011193
 20
244.60776561015393
 11
12243.343703811235
 21
468.94176586254218
  0
LINE
  8
_0-0_通り芯
  6
CONTINUOUS
 62
    4
 10
12018.957602011193
 20
248.84923986486484
 11
12243.502560177365
 21
473.34242124815233
  0
LINE
  8
_0-0_通り芯
  6
CONTINUOUS
 62
    4
 10
12018.957602011193
 20
240.36629135544217
 11
12239.723411766259
 21
461.08111304205863
  0
LINE
  8
_0-0_通り芯
  6
CONTINUOUS
 62
    4
 10
12018.957602011193
 20
231.8833428460195
 11
12232.481343037374
 21
445.35799799738669
  0
LINE
  8
_0-0_通り芯
  6
CONTINUOUS
 62
    4
 10
12018.957602011193
 20
236.12481710073126
 11
12236.102377401818
 21
453.21957871720628
  0
LINE
  8
_0-0_通り芯
  6
CONTINUOUS
 62
    4
 10
12121.082945127746
 20
295.81177943461682
 11
12199.896487674199
 21
374.6068103893387
  0
LINE
  8
_0-0_通り芯
  6
CONTINUOUS
 62
    4
 10
12019.978291279562
 20
198.97230766914959
 11
12114.663366369299
 21
293.6350203849176
  0
LINE
  8
_0-0_通り芯
  6
CONTINUOUS
 62
    4
 10
12024.22138935811
 20
198.97230766914959
 11
12114.663366369299
 21
289.39356932768987
  0
LINE
  8
_0-0_通り芯
  6
CONTINUOUS
 62
    4
 10
12028.463745117188
 20
198.97230766914959
 11
12114.663366369299
 21
285.15209507297811
  0
LINE
  8
_0-0_通り芯
  6
CONTINUOUS
 62
    4
 10
12122.192712732263
 20
292.67963203223985
 11
12196.275453309756
 21
366.74525286700316
  0
LINE
  8
_0-0_通り芯
  6
CONTINUOUS
 62
    4
 10
12119.972435203759
 20
298.94297574017457
 11
12203.516037399704
 21
382.46744001233907
  0
LINE
  8
_0-0_通り芯
  6
CONTINUOUS
 62
    4
 10
12117.752157675255
 20
305.20624985565973
 11
12210.758106128591
 21
398.19055505701016
  0
LINE
  8
_0-0_通り芯
  6
CONTINUOUS
 62
    4
 10
12018.957602011193
 20
210.67592517749688
 11
12114.663366369299
 21
306.35944314905117
  0
LINE
  8
_0-0_通り芯
  6
CONTINUOUS
 62
    4
 10
12018.957602011193
 20
206.43442772530193
 11
12114.663366369299
 21
302.11799209182345
  0
LINE
  8
_0-0_通り芯
  6
CONTINUOUS
 62
    4
 10
12018.957602011193
 20
202.19297666807421
 11
12114.663366369299
 21
297.87651783711169
  0
LINE
  8
_0-0_通り芯
  6
CONTINUOUS
 62
    4
 10
12118.86266759924
 20
302.07507674758517
 11
12207.137071764148
 21
390.32897433719143
  0
LINE
  8
_0-0_通り芯
  6
CONTINUOUS
 62
    4
 10
12018.957602011193
 20
295.50541027172187
 11
12114.663366369299
 21
391.18890504579298
  0
LINE
  8
_0-0_通り芯
  6
CONTINUOUS
 62
    4
 10
12127.411218591638
 20
403.93378799026095
 11
12196.835904508025
 21
473.34242124815233
  0
LINE
  8
_0-0_通り芯
  6
CONTINUOUS
 62
    4
 10
12124.367708773227
 20
396.64977821143907
 11
12201.078260267102
 21
473.34242124815233
  0
LINE
  8
_0-0_通り芯
  6
CONTINUOUS
 62
    4
 10
12121.324941274283
 20
389.36581482758356
 11
12205.320616026183
 21
473.34242124815233
  0
LINE
  8
_0-0_通り芯
  6
CONTINUOUS
 62
    4
 10
12018.957602011193
 20
291.26395921449415
 11
12114.663366369299
 21
386.94743079108207
  0
LINE
  8
_0-0_通り芯
  6
CONTINUOUS
 62
    4
 10
12018.957602011193
 20
299.74690772391682
 11
12114.663366369299
 21
395.43037930050389
  0
LINE
  8
_0-0_通り芯
  6
CONTINUOUS
 62
    4
 10
12018.957602011193
 20
308.22985623333864
 11
12114.663366369299
 21
403.91332780992656
  0
LINE
  8
_0-0_通り芯
  6
CONTINUOUS
 62
    4
 10
12136.541748046875
 20
425.78660604116095
 11
12184.108837230786
 21
473.34242124815233
  0
LINE
  8
_0-0_通り芯
  6
CONTINUOUS
 62
    4
 10
12133.498238228463
 20
418.50264265730544
 11
12188.350450670398
 21
473.34242124815233
  0
LINE
  8
_0-0_通り芯
  6
CONTINUOUS
 62
    4
 10
12130.454728410052
 20
411.21775137411561
 11
12192.592806429477
 21
473.34242124815233
  0
LINE
  8
_0-0_通り芯
  6
CONTINUOUS
 62
    4
 10
12018.957602011193
 20
303.98838197862773
 11
12114.663366369299
 21
399.67185355521565
  0
LINE
  8
_0-0_通り芯
  6
CONTINUOUS
 62
    4
 10
12018.957602011193
 20
265.81511368622614
 11
12226.532394821579
 21
473.34242124815233
  0
LINE
  8
_0-0_通り芯
  6
CONTINUOUS
 62
    4
 10
12018.957602011193
 20
270.0565879409379
 11
12222.290781381969
 21
473.34242124815233
  0
LINE
  8
_0-0_通り芯
  6
CONTINUOUS
 62
    4
 10
12018.957602011193
 20
261.57366262899842
 11
12230.775492900126
 21
473.34242124815233
  0
LINE
  8
_0-0_通り芯
  6
CONTINUOUS
 62
    4
 10
12018.957602011193
 20
253.09069092209256
 11
12239.260204418286
 21
473.34242124815233
  0
LINE
  8
_0-0_通り芯
  6
CONTINUOUS
 62
    4
 10
12018.957602011193
 20
257.33218837428751
 11
12235.017848659207
 21
473.34242124815233
  0
LINE
  8
_0-0_通り芯
  6
CONTINUOUS
 62
    4
 10
12018.957602011193
 20
274.29806219564881
 11
12218.048425622888
 21
473.34242124815233
  0
LINE
  8
_0-0_通り芯
  6
CONTINUOUS
 62
    4
 10
12118.281431455871
 20
382.08182824624572
 11
12209.562971785263
 21
473.34242124815233
  0
LINE
  8
_0-0_通り芯
  6
CONTINUOUS
 62
    4
 10
12018.957602011193
 20
287.02248495978324
 11
12114.663366369299
 21
382.70595653637031
  0
LINE
  8
_0-0_通り芯
  6
CONTINUOUS
 62
    4
 10
12018.957602011193
 20
282.78101070507148
 11
12114.663366369299
 21
378.46450547914259
  0
LINE
  8
_0-0_通り芯
  6
CONTINUOUS
 62
    4
 10
12018.957602011193
 20
278.53955964784376
 11
12114.663366369299
 21
374.22303122443168
  0
LINE
  8
_0-0_通り芯
  6
CONTINUOUS
 62
    4
 10
12115.238663956927
 20
374.79786486239021
 11
12213.806069863809
 21
473.34242124815233
  0
LINE
  8
_0-0_通り芯
  6
CONTINUOUS
 62
    4
 10
11562.359866580449
 20
198.97230766914959
 11
11679.985582506335
 21
316.61150133287578
  0
LINE
  8
_0-0_通り芯
  6
CONTINUOUS
 62
    4
 10
11195.528597445102
 20
413.87530146418356
 11
11255.009914088894
 21
473.34242124815233
  0
LINE
  8
_0-0_通り芯
  6
CONTINUOUS
 62
    4
 10
11195.528597445102
 20
418.11677571889533
 11
11250.767558329813
 21
473.34242124815233
  0
LINE
  8
_0-0_通り芯
  6
CONTINUOUS
 62
    4
 10
11195.528597445102
 20
409.63378081450628
 11
11259.252269847973
 21
473.34242124815233
  0
LINE
  8
_0-0_通り芯
  6
CONTINUOUS
 62
    4
 10
11195.528597445102
 20
401.15087870004999
 11
11267.737723685601
 21
473.34242124815233
  0
LINE
  8
_0-0_通り芯
  6
CONTINUOUS
 62
    4
 10
11195.528597445102
 20
405.39235295476175
 11
11263.494625607053
 21
473.34242124815233
  0
LINE
  8
_0-0_通り芯
  6
CONTINUOUS
 62
    4
 10
11195.528597445102
 20
422.35820357863986
 11
11246.524460251267
 21
473.34242124815233
  0
LINE
  8
_0-0_通り芯
  6
CONTINUOUS
 62
    4
 10
11195.528597445102
 20
439.32410059748435
 11
11229.55503721495
 21
473.34242124815233
  0
LINE
  8
_0-0_通り芯
  6
CONTINUOUS
 62
    4
 10
11195.528597445102
 20
443.56557485219611
 11
11225.312681455871
 21
473.34242124815233
  0
LINE
  8
_0-0_通り芯
  6
CONTINUOUS
 62
    4
 10
11195.528597445102
 20
435.08262634277344
 11
11233.798135293497
 21
473.34242124815233
  0
LINE
  8
_0-0_通り芯
  6
CONTINUOUS
 62
    4
 10
11195.528597445102
 20
426.59967783335077
 11
11242.282846811657
 21
473.34242124815233
  0
LINE
  8
_0-0_通り芯
  6
CONTINUOUS
 62
    4
 10
11195.528597445102
 20
430.84115208806253
 11
11238.040491052576
 21
473.34242124815233
  0
LINE
  8
_0-0_通り芯
  6
CONTINUOUS
 62
    4
 10
11195.528597445102
 20
367.21910785984335
 11
11301.676569758236
 21
473.34242124815233
  0
LINE
  8
_0-0_通り芯
  6
CONTINUOUS
 62
    4
 10
11195.528597445102
 20
371.46058211455511
 11
11297.434213999157
 21
473.34242124815233
  0
LINE
  8
_0-0_通り芯
  6
CONTINUOUS
 62
    4
 10
11195.528597445102
 20
362.97763360513244
 11
11305.919667836783
 21
473.34242124815233
  0
LINE
  8
_0-0_通り芯
  6
CONTINUOUS
 62
    4
 10
11195.528597445102
 20
354.49470829319296
 11
11314.404379354943
 21
473.34242124815233
  0
LINE
  8
_0-0_通り芯
  6
CONTINUOUS
 62
    4
 10
11195.528597445102
 20
358.73618254790472
 11
11310.162023595862
 21
473.34242124815233
  0
LINE
  8
_0-0_通り芯
  6
CONTINUOUS
 62
    4
 10
11195.528597445102
 20
375.70205636926602
 11
11293.191858240076
 21
473.34242124815233
  0
LINE
  8
_0-0_通り芯
  6
CONTINUOUS
 62
    4
 10
11195.528597445102
 20
392.66793019062732
 11
11276.222435203759
 21
473.34242124815233
  0
LINE
  8
_0-0_通り芯
  6
CONTINUOUS
 62
    4
 10
11195.528597445102
 20
396.90940444533908
 11
11271.98007944468
 21
473.34242124815233
  0
LINE
  8
_0-0_通り芯
  6
CONTINUOUS
 62
    4
 10
11195.528597445102
 20
388.42645593591641
 11
11280.464790962838
 21
473.34242124815233
  0
LINE
  8
_0-0_通り芯
  6
CONTINUOUS
 62
    4
 10
11195.528597445102
 20
379.94353062397693
 11
11288.950244800466
 21
473.34242124815233
  0
LINE
  8
_0-0_通り芯
  6
CONTINUOUS
 62
    4
 10
11195.528597445102
 20
384.18500487868869
 11
11284.707889041387
 21
473.34242124815233
  0
LINE
  8
_0-0_通り芯
  6
CONTINUOUS
 62
    4
 10
11317.675038930533
 20
273.80451253942539
 11
11377.697506466428
 21
333.81269042556369
  0
LINE
  8
_0-0_通り芯
  6
CONTINUOUS
 62
    4
 10
11317.675038930533
 20
268.99643975335238
 11
11381.136672561235
 21
332.44246147774334
  0
LINE
  8
_0-0_通り芯
  6
CONTINUOUS
 62
    4
 10
11317.675038930533
 20
278.61253893053203
 11
11373.970320418075
 21
334.89480662990275
  0
LINE
  8
_0-0_通り芯
  6
CONTINUOUS
 62
    4
 10
11384.056957347973
 20
344.97912381146364
 11
11400.089573215793
 21
361.00763372472812
  0
LINE
  8
_0-0_通り芯
  6
CONTINUOUS
 62
    4
 10
11317.675038930533
 20
283.42061171660589
 11
11369.903894372888
 21
335.63684772800741
  0
LINE
  8
_0-0_通り芯
  6
CONTINUOUS
 62
    4
 10
11317.675038930533
 20
264.18836696727851
 11
11384.319738439612
 21
330.81750096501565
  0
LINE
  8
_0-0_通り芯
  6
CONTINUOUS
 62
    4
 10
11317.675038930533
 20
244.95614541543517
 11
11394.83543602196
 21
322.09796132268167
  0
LINE
  8
_0-0_通り芯
  6
CONTINUOUS
 62
    4
 10
11317.675038930533
 20
240.1480958268445
 11
11396.936942435601
 21
319.3905366433637
  0
LINE
  8
_0-0_通り芯
  6
CONTINUOUS
 62
    4
 10
11317.675038930533
 20
249.76421820150819
 11
11392.523853198903
 21
324.59472965549764
  0
LINE
  8
_0-0_通り芯
  6
CONTINUOUS
 62
    4
 10
11317.675038930533
 20
259.38031737868869
 11
11387.271200644005
 21
328.95970731168205
  0
LINE
  8
_0-0_通り芯
  6
CONTINUOUS
 62
    4
 10
11317.675038930533
 20
254.57224459261482
 11
11390.002193966428
 21
326.88285982286601
  0
LINE
  8
_0-0_通り芯
  6
CONTINUOUS
 62
    4
 10
11195.528597445102
 20
460.53142547607422
 11
11208.342516100085
 21
473.34242124815233
  0
LINE
  8
_0-0_通り芯
  6
CONTINUOUS
 62
    4
 10
11195.528597445102
 20
464.77289973078513
 11
11204.100160341006
 21
473.34242124815233
  0
LINE
  8
_0-0_通り芯
  6
CONTINUOUS
 62
    4
 10
11195.528597445102
 20
456.28995122136331
 11
11212.584871859164
 21
473.34242124815233
  0
LINE
  8
_0-0_通り芯
  6
CONTINUOUS
 62
    4
 10
11195.528597445102
 20
447.80700271194064
 11
11221.07032569679
 21
473.34242124815233
  0
LINE
  8
_0-0_通り芯
  6
CONTINUOUS
 62
    4
 10
11195.528597445102
 20
452.04847696665155
 11
11216.827969937713
 21
473.34242124815233
  0
LINE
  8
_0-0_通り芯
  6
CONTINUOUS
 62
    4
 10
11195.528597445102
 20
469.01437398549689
 11
11199.857804581927
 21
473.34242124815233
  0
LINE
  8
_0-0_通り芯
  6
CONTINUOUS
 62
    4
 10
11370.046419710727
 20
340.58786340661953
 11
11402.530319626267
 21
373.06427053503086
  0
LINE
  8
_0-0_通り芯
  6
CONTINUOUS
 62
    4
 10
11376.025060705237
 20
341.75724854340388
 11
11402.530319626267
 21
368.25619774895785
  0
LINE
  8
_0-0_通り芯
  6
CONTINUOUS
 62
    4
 10
11364.980089342273
 20
340.33058011854024
 11
11402.530319626267
 21
377.87232012362068
  0
LINE
  8
_0-0_通り芯
  6
CONTINUOUS
 62
    4
 10
11195.528597445102
 20
473.25580184524142
 11
11195.616191142313
 21
473.34242124815233
  0
LINE
  8
_0-0_通り芯
  6
CONTINUOUS
 62
    4
 10
11388.82116369299
 20
450.18873472471483
 11
11316.432396141259
 21
377.81713331067891
  0
LINE
  8
_0-0_通り芯
  6
CONTINUOUS
 62
    4
 10
11195.528597445102
 20
350.25323403848205
 11
11318.647477433489
 21
473.34242124815233
  0
LINE
  8
_0-0_通り芯
  6
CONTINUOUS
 62
    4
 10
11195.528597445102
 20
235.73347555624451
 11
11398.095703125
 21
438.25242326066331
  0
LINE
  8
_0-0_通り芯
  6
CONTINUOUS
 62
    4
 10
11195.528597445102
 20
239.97497300843946
 11
11396.596217799832
 21
440.99441219020548
  0
LINE
  8
_0-0_通り芯
  6
CONTINUOUS
 62
    4
 10
11195.528597445102
 20
231.49202449901679
 11
11399.422228014148
 21
435.33733471019843
  0
LINE
  8
_0-0_通り芯
  6
CONTINUOUS
 62
    4
 10
11291.527577993033
 20
318.98520701640393
 11
11401.489587732263
 21
428.91924059068828
  0
LINE
  8
_0-0_通り芯
  6
CONTINUOUS
 62
    4
 10
11195.528597445102
 20
227.25052704682184
 11
11400.560203758447
 21
432.23397538468674
  0
LINE
  8
_0-0_通り芯
  6
CONTINUOUS
 62
    4
 10
11195.528597445102
 20
244.21642406566718
 11
11394.933422191723
 21
443.57415792104376
  0
LINE
  8
_0-0_通り芯
  6
CONTINUOUS
 62
    4
 10
11316.612037452493
 20
382.23713539742107
 11
11386.787950670398
 21
452.39685677193279
  0
LINE
  8
_0-0_通り芯
  6
CONTINUOUS
 62
    4
 10
11316.612037452493
 20
386.47761216034723
 11
11384.468202333193
 21
454.3173764203047
  0
LINE
  8
_0-0_通り芯
  6
CONTINUOUS
 62
    4
 10
11195.528597445102
 20
256.94087002728395
 11
11300.270616686023
 21
361.65799836854688
  0
LINE
  8
_0-0_通り芯
  6
CONTINUOUS
 62
    4
 10
11314.774796769427
 20
367.67598229485628
 11
11393.11622413429
 21
445.99899085792345
  0
LINE
  8
_0-0_通り芯
  6
CONTINUOUS
 62
    4
 10
11316.612037452493
 20
373.75416369051521
 11
11391.148335224874
 21
448.27350410255235
  0
LINE
  8
_0-0_通り芯
  6
CONTINUOUS
 62
    4
 10
11195.528597445102
 20
201.80170471603788
 11
11287.994137325803
 21
294.24546215985231
  0
LINE
  8
_0-0_通り芯
  6
CONTINUOUS
 62
    4
 10
11195.528597445102
 20
206.04317897074964
 11
11287.994137325803
 21
298.48693641456407
  0
LINE
  8
_0-0_通り芯
  6
CONTINUOUS
 62
    4
 10
11196.941231392526
 20
198.97230766914959
 11
11287.994137325803
 21
290.0039879051414
  0
LINE
  8
_0-0_通り芯
  6
CONTINUOUS
 62
    4
 10
11205.426685230153
 20
198.97230766914959
 11
11287.994137325803
 21
281.52106259320192
  0
LINE
  8
_0-0_通り芯
  6
CONTINUOUS
 62
    4
 10
11201.184329471074
 20
198.97230766914959
 11
11287.994137325803
 21
285.76251365043049
  0
LINE
  8
_0-0_通り芯
  6
CONTINUOUS
 62
    4
 10
11195.528597445102
 20
210.28465322546054
 11
11287.994137325803
 21
302.72841066927498
  0
LINE
  8
_0-0_通り芯
  6
CONTINUOUS
 62
    4
 10
11295.769933752112
 20
318.98520701640393
 11
11402.177717879013
 21
425.36594287769219
  0
LINE
  8
_0-0_通り芯
  6
CONTINUOUS
 62
    4
 10
11195.528597445102
 20
223.00907598959412
 11
11287.994137325803
 21
315.45281023592537
  0
LINE
  8
_0-0_通り芯
  6
CONTINUOUS
 62
    4
 10
11195.528597445102
 20
218.76760173488321
 11
11287.994137325803
 21
311.21133598121446
  0
LINE
  8
_0-0_通り芯
  6
CONTINUOUS
 62
    4
 10
11195.528597445102
 20
214.52612748017145
 11
11287.994137325803
 21
306.96988492398674
  0
LINE
  8
_0-0_通り芯
  6
CONTINUOUS
 62
    4
 10
11300.012289511193
 20
318.98520701640393
 11
11300.270616686023
 21
319.24330221640076
  0
LINE
  8
_0-0_通り芯
  6
CONTINUOUS
 62
    4
 10
11195.528597445102
 20
324.80441170769808
 11
11288.374947212838
 21
417.62888624861404
  0
LINE
  8
_0-0_通り芯
  6
CONTINUOUS
 62
    4
 10
11293.995047904351
 20
423.24666719178907
 11
11343.186332084038
 21
472.42922911772894
  0
LINE
  8
_0-0_通り芯
  6
CONTINUOUS
 62
    4
 10
11298.23740366343
 20
423.24666719178907
 11
11346.78955078125
 21
471.79760804047419
  0
LINE
  8
_0-0_通り芯
  6
CONTINUOUS
 62
    4
 10
11302.533948743665
 20
423.30150604248047
 11
11350.279194599874
 21
471.03570989660312
  0
LINE
  8
_0-0_通り芯
  6
CONTINUOUS
 62
    4
 10
11195.528597445102
 20
320.56293745298632
 11
11288.374947212838
 21
413.38741199390313
  0
LINE
  8
_0-0_通り芯
  6
CONTINUOUS
 62
    4
 10
11195.528597445102
 20
329.04588596240899
 11
11288.374947212838
 21
421.87031410835857
  0
LINE
  8
_0-0_通り芯
  6
CONTINUOUS
 62
    4
 10
11195.528597445102
 20
341.77030872654257
 11
11327.132188951648
 21
473.34242124815233
  0
LINE
  8
_0-0_通り芯
  6
CONTINUOUS
 62
    4
 10
11195.528597445102
 20
346.01178298125433
 11
11322.889833192568
 21
473.34242124815233
  0
LINE
  8
_0-0_通り芯
  6
CONTINUOUS
 62
    4
 10
11195.528597445102
 20
337.52881127434847
 11
11331.374544710727
 21
473.34242124815233
  0
LINE
  8
_0-0_通り芯
  6
CONTINUOUS
 62
    4
 10
11289.751949825803
 20
423.24666719178907
 11
11339.439103410052
 21
472.92301074878594
  0
LINE
  8
_0-0_通り芯
  6
CONTINUOUS
 62
    4
 10
11195.528597445102
 20
333.28733701963671
 11
11335.617642789275
 21
473.34242124815233
  0
LINE
  8
_0-0_通り芯
  6
CONTINUOUS
 62
    4
 10
11316.612037452493
 20
403.44408911627738
 11
11374.431300807644
 21
461.24961956127265
  0
LINE
  8
_0-0_通り芯
  6
CONTINUOUS
 62
    4
 10
11195.528597445102
 20
286.63114341529649
 11
11288.374947212838
 21
379.45584993104688
  0
LINE
  8
_0-0_通り芯
  6
CONTINUOUS
 62
    4
 10
11195.528597445102
 20
278.14821810335701
 11
11288.374947212838
 21
370.97257665685703
  0
LINE
  8
_0-0_通り芯
  6
CONTINUOUS
 62
    4
 10
11195.528597445102
 20
269.66526959393434
 11
11288.452890756969
 21
362.56796604878161
  0
LINE
  8
_0-0_通り芯
  6
CONTINUOUS
 62
    4
 10
11316.612037452493
 20
394.9614653716219
 11
11379.602298221074
 21
457.93678696091092
  0
LINE
  8
_0-0_通り芯
  6
CONTINUOUS
 62
    4
 10
11316.61277977196
 20
411.92815110490159
 11
11368.938879064612
 21
464.24158457163202
  0
LINE
  8
_0-0_通り芯
  6
CONTINUOUS
 62
    4
 10
11309.734447582348
 20
422.01701499320393
 11
11356.898457295187
 21
469.17026107375705
  0
LINE
  8
_0-0_通り芯
  6
CONTINUOUS
 62
    4
 10
11195.528597445102
 20
312.07998894356365
 11
11288.374947212838
 21
404.90441708951408
  0
LINE
  8
_0-0_通り芯
  6
CONTINUOUS
 62
    4
 10
11195.528597445102
 20
303.59704043414183
 11
11288.374947212838
 21
396.421700554925
  0
LINE
  8
_0-0_通り芯
  6
CONTINUOUS
 62
    4
 10
11195.528597445102
 20
295.11411512220235
 11
11288.374947212838
 21
387.93863605808554
  0
LINE
  8
_0-0_通り芯
  6
CONTINUOUS
 62
    4
 10
11314.482322899072
 20
418.28110669110231
 11
11363.104248046875
 21
466.89175786198831
  0
LINE
  8
_0-0_通り芯
  6
CONTINUOUS
 62
    4
 10
11317.675038930533
 20
235.34002304077148
 11
11398.820206925677
 21
316.46519480524802
  0
LINE
  8
_0-0_通り芯
  6
CONTINUOUS
 62
    4
 10
11463.512606234164
 20
346.72007174105232
 11
11590.164926889782
 21
473.34242124815233
  0
LINE
  8
_0-0_通り芯
  6
CONTINUOUS
 62
    4
 10
11463.512606234164
 20
350.96154599576408
 11
11585.922571130701
 21
473.34242124815233
  0
LINE
  8
_0-0_通り芯
  6
CONTINUOUS
 62
    4
 10
11463.512606234164
 20
342.47859748634141
 11
11594.407282648861
 21
473.34242124815233
  0
LINE
  8
_0-0_通り芯
  6
CONTINUOUS
 62
    4
 10
11463.512606234164
 20
333.99564897691874
 11
11602.803658150338
 21
473.25417802140549
  0
LINE
  8
_0-0_通り芯
  6
CONTINUOUS
 62
    4
 10
11463.512606234164
 20
338.23714642911369
 11
11598.650380727408
 21
473.34242124815233
  0
LINE
  8
_0-0_通り芯
  6
CONTINUOUS
 62
    4
 10
11463.512606234164
 20
355.2029970529918
 11
11581.680215371622
 21
473.34242124815233
  0
LINE
  8
_0-0_通り芯
  6
CONTINUOUS
 62
    4
 10
11463.512606234164
 20
372.16889407183714
 11
11564.710050015838
 21
473.34242124815233
  0
LINE
  8
_0-0_通り芯
  6
CONTINUOUS
 62
    4
 10
11463.512606234164
 20
376.41036832654805
 11
11560.466951937289
 21
473.34242124815233
  0
LINE
  8
_0-0_通り芯
  6
CONTINUOUS
 62
    4
 10
11463.512606234164
 20
367.92744301460857
 11
11568.952405774915
 21
473.34242124815233
  0
LINE
  8
_0-0_通り芯
  6
CONTINUOUS
 62
    4
 10
11463.512606234164
 20
359.44447130770271
 11
11577.437117293075
 21
473.34242124815233
  0
LINE
  8
_0-0_通り芯
  6
CONTINUOUS
 62
    4
 10
11463.512606234164
 20
363.68594556241447
 11
11573.194761533996
 21
473.34242124815233
  0
LINE
  8
_0-0_通り芯
  6
CONTINUOUS
 62
    4
 10
11463.512606234164
 20
300.06387813671211
 11
11558.958558778506
 21
395.48712034483202
  0
LINE
  8
_0-0_通り芯
  6
CONTINUOUS
 62
    4
 10
11463.512606234164
 20
304.30535239142387
 11
11558.958558778506
 21
399.72854820457655
  0
LINE
  8
_0-0_通り芯
  6
CONTINUOUS
 62
    4
 10
11463.512606234164
 20
295.82242707948438
 11
11558.958558778506
 21
391.24564609012111
  0
LINE
  8
_0-0_通り芯
  6
CONTINUOUS
 62
    4
 10
11463.512606234164
 20
287.33947857006171
 11
11558.958558778506
 21
382.76269758069844
  0
LINE
  8
_0-0_通り芯
  6
CONTINUOUS
 62
    4
 10
11463.512606234164
 20
291.58095282477348
 11
11558.958558778506
 21
387.00417183540935
  0
LINE
  8
_0-0_通り芯
  6
CONTINUOUS
 62
    4
 10
11463.512606234164
 20
308.54682664613478
 11
11558.958558778506
 21
403.97002245928832
  0
LINE
  8
_0-0_通り芯
  6
CONTINUOUS
 62
    4
 10
11463.512606234164
 20
325.51272366497926
 11
11558.958558778506
 21
420.9359194781328
  0
LINE
  8
_0-0_通り芯
  6
CONTINUOUS
 62
    4
 10
11463.512606234164
 20
329.75417472220784
 11
11558.958558778506
 21
425.17734733787734
  0
LINE
  8
_0-0_通り芯
  6
CONTINUOUS
 62
    4
 10
11463.512606234164
 20
321.27124941026835
 11
11558.958558778506
 21
416.69444522342189
  0
LINE
  8
_0-0_通り芯
  6
CONTINUOUS
 62
    4
 10
11463.512606234164
 20
312.78832409832887
 11
11558.958558778506
 21
408.21149671399922
  0
LINE
  8
_0-0_通り芯
  6
CONTINUOUS
 62
    4
 10
11463.512606234164
 20
317.02977515555745
 11
11558.958558778506
 21
412.45297096871013
  0
LINE
  8
_0-0_通り芯
  6
CONTINUOUS
 62
    4
 10
11463.512606234164
 20
440.03241255476638
 11
11496.830873231631
 21
473.34242124815233
  0
LINE
  8
_0-0_通り芯
  6
CONTINUOUS
 62
    4
 10
11463.512606234164
 20
444.27384041451091
 11
11492.588517472552
 21
473.34242124815233
  0
LINE
  8
_0-0_通り芯
  6
CONTINUOUS
 62
    4
 10
11463.512606234164
 20
435.79093830005547
 11
11501.07322899071
 21
473.34242124815233
  0
LINE
  8
_0-0_通り芯
  6
CONTINUOUS
 62
    4
 10
11463.512606234164
 20
427.3079897906328
 11
11509.558682828338
 21
473.34242124815233
  0
LINE
  8
_0-0_通り芯
  6
CONTINUOUS
 62
    4
 10
11463.512606234164
 20
431.54946404534456
 11
11505.315584749789
 21
473.34242124815233
  0
LINE
  8
_0-0_通り芯
  6
CONTINUOUS
 62
    4
 10
11463.512606234164
 20
448.51531466922268
 11
11488.345419394005
 21
473.34242124815233
  0
LINE
  8
_0-0_通り芯
  6
CONTINUOUS
 62
    4
 10
11463.512606234164
 20
465.48121168806716
 11
11471.375996357687
 21
473.34242124815233
  0
LINE
  8
_0-0_通り芯
  6
CONTINUOUS
 62
    4
 10
11463.512606234164
 20
469.7226395478117
 11
11467.133640598606
 21
473.34242124815233
  0
LINE
  8
_0-0_通り芯
  6
CONTINUOUS
 62
    4
 10
11463.512606234164
 20
461.23973743335625
 11
11475.617609797298
 21
473.34242124815233
  0
LINE
  8
_0-0_通り芯
  6
CONTINUOUS
 62
    4
 10
11463.512606234164
 20
452.75678892393358
 11
11484.103063634924
 21
473.34242124815233
  0
LINE
  8
_0-0_通り芯
  6
CONTINUOUS
 62
    4
 10
11463.512606234164
 20
456.99826317864535
 11
11479.860707875845
 21
473.34242124815233
  0
LINE
  8
_0-0_通り芯
  6
CONTINUOUS
 62
    4
 10
11463.512606234164
 20
393.37624214790935
 11
11543.498271220438
 21
473.34242124815233
  0
LINE
  8
_0-0_通り芯
  6
CONTINUOUS
 62
    4
 10
11463.512606234164
 20
397.61771640262111
 11
11539.255173141892
 21
473.34242124815233
  0
LINE
  8
_0-0_通り芯
  6
CONTINUOUS
 62
    4
 10
11463.512606234164
 20
389.13476789319844
 11
11547.740626979519
 21
473.34242124815233
  0
LINE
  8
_0-0_通り芯
  6
CONTINUOUS
 62
    4
 10
11463.512606234164
 20
380.65184258125896
 11
11556.225338497678
 21
473.34242124815233
  0
LINE
  8
_0-0_通り芯
  6
CONTINUOUS
 62
    4
 10
11463.512606234164
 20
384.89329363848753
 11
11551.982982738598
 21
473.34242124815233
  0
LINE
  8
_0-0_通り芯
  6
CONTINUOUS
 62
    4
 10
11463.512606234164
 20
401.85919065733202
 11
11535.012817382813
 21
473.34242124815233
  0
LINE
  8
_0-0_通り芯
  6
CONTINUOUS
 62
    4
 10
11463.512606234164
 20
418.82504128121013
 11
11518.042652027028
 21
473.34242124815233
  0
LINE
  8
_0-0_通り芯
  6
CONTINUOUS
 62
    4
 10
11463.512606234164
 20
423.06651553592189
 11
11513.801038587415
 21
473.34242124815233
  0
LINE
  8
_0-0_通り芯
  6
CONTINUOUS
 62
    4
 10
11463.512606234164
 20
414.5836134214656
 11
11522.285007786106
 21
473.34242124815233
  0
LINE
  8
_0-0_通り芯
  6
CONTINUOUS
 62
    4
 10
11463.512606234164
 20
406.10066491204378
 11
11530.770461623735
 21
473.34242124815233
  0
LINE
  8
_0-0_通り芯
  6
CONTINUOUS
 62
    4
 10
11463.512606234164
 20
410.34213916675469
 11
11526.527363545187
 21
473.34242124815233
  0
LINE
  8
_0-0_通り芯
  6
CONTINUOUS
 62
    4
 10
11463.512606234164
 20
283.09798111786677
 11
11558.958558778506
 21
378.52120012850349
  0
LINE
  8
_0-0_通り芯
  6
CONTINUOUS
 62
    4
 10
11506.641367319469
 20
198.97230766914959
 11
11558.958558778506
 21
251.27706527709961
  0
LINE
  8
_0-0_通り芯
  6
CONTINUOUS
 62
    4
 10
11502.399011560388
 20
198.97230766914959
 11
11558.958558778506
 21
255.51856272929456
  0
LINE
  8
_0-0_通り芯
  6
CONTINUOUS
 62
    4
 10
11510.883723078548
 20
198.97230766914959
 11
11558.958558778506
 21
247.0355910223887
  0
LINE
  8
_0-0_通り芯
  6
CONTINUOUS
 62
    4
 10
11519.369176916174
 20
198.97230766914959
 11
11563.770273569469
 21
243.36347579956055
  0
LINE
  8
_0-0_通り芯
  6
CONTINUOUS
 62
    4
 10
11515.126821157095
 20
198.97230766914959
 11
11559.527917810388
 21
243.36347579956055
  0
LINE
  8
_0-0_通り芯
  6
CONTINUOUS
 62
    4
 10
11498.156655801309
 20
198.97230766914959
 11
11558.958558778506
 21
259.76003698400547
  0
LINE
  8
_0-0_通り芯
  6
CONTINUOUS
 62
    4
 10
11481.187232764993
 20
198.97230766914959
 11
11558.958558778506
 21
276.72591080536677
  0
LINE
  8
_0-0_通り芯
  6
CONTINUOUS
 62
    4
 10
11476.944877005913
 20
198.97230766914959
 11
11558.958558778506
 21
280.96738506007853
  0
LINE
  8
_0-0_通り芯
  6
CONTINUOUS
 62
    4
 10
11485.428846204602
 20
198.97230766914959
 11
11558.958558778506
 21
272.48443655065586
  0
LINE
  8
_0-0_通り芯
  6
CONTINUOUS
 62
    4
 10
11493.913557722763
 20
198.97230766914959
 11
11558.958558778506
 21
264.00148804123319
  0
LINE
  8
_0-0_通り芯
  6
CONTINUOUS
 62
    4
 10
11489.671201963683
 20
198.97230766914959
 11
11558.958558778506
 21
268.24296229594495
  0
LINE
  8
_0-0_通り芯
  6
CONTINUOUS
 62
    4
 10
11553.308765308278
 20
198.97230766914959
 11
11679.985582506335
 21
325.62349164808126
  0
LINE
  8
_0-0_通り芯
  6
CONTINUOUS
 62
    4
 10
11549.066409549199
 20
198.97230766914959
 11
11679.985582506335
 21
329.86127750293633
  0
LINE
  8
_0-0_通り芯
  6
CONTINUOUS
 62
    4
 10
11557.551121067356
 20
198.97230766914959
 11
11679.985582506335
 21
321.41996847616639
  0
LINE
  8
_0-0_通り芯
  6
CONTINUOUS
 62
    4
 10
11317.675038930533
 20
230.53197345218166
 11
11400.471125422298
 21
313.30896841513123
  0
LINE
  8
_0-0_通り芯
  6
CONTINUOUS
 62
    4
 10
11317.675038930533
 20
225.7239006661078
 11
11401.871882258236
 21
309.90109572539495
  0
LINE
  8
_0-0_通り芯
  6
CONTINUOUS
 62
    4
 10
11544.823311470651
 20
198.97230766914959
 11
11679.985582506335
 21
334.10284454758084
  0
LINE
  8
_0-0_通り芯
  6
CONTINUOUS
 62
    4
 10
11527.853146114865
 20
198.97230766914959
 11
11572.735265783362
 21
243.84331574311091
  0
LINE
  8
_0-0_通り芯
  6
CONTINUOUS
 62
    4
 10
11523.611532675255
 20
198.97230766914959
 11
11568.012629328548
 21
243.36347579956055
  0
LINE
  8
_0-0_通り芯
  6
CONTINUOUS
 62
    4
 10
11587.413148622256
 20
254.27610551988749
 11
11679.985582506335
 21
346.83285790520785
  0
LINE
  8
_0-0_通り芯
  6
CONTINUOUS
 62
    4
 10
11540.580955711572
 20
198.97230766914959
 11
11679.985582506335
 21
338.34441159222536
  0
LINE
  8
_0-0_通り芯
  6
CONTINUOUS
 62
    4
 10
11536.338599952493
 20
198.97230766914959
 11
11679.985582506335
 21
342.5838444684004
  0
LINE
  8
_0-0_通り芯
  6
CONTINUOUS
 62
    4
 10
11463.512606234164
 20
249.16623347514417
 11
11558.958558778506
 21
344.58945248578004
  0
LINE
  8
_0-0_通り芯
  6
CONTINUOUS
 62
    4
 10
11463.512606234164
 20
253.40770772985508
 11
11558.958558778506
 21
348.8309267404918
  0
LINE
  8
_0-0_通り芯
  6
CONTINUOUS
 62
    4
 10
11463.512606234164
 20
244.92473602294922
 11
11558.958558778506
 21
340.34797823106913
  0
LINE
  8
_0-0_通り芯
  6
CONTINUOUS
 62
    4
 10
11463.512606234164
 20
236.44181071100974
 11
11558.958558778506
 21
331.86505291912965
  0
LINE
  8
_0-0_通り芯
  6
CONTINUOUS
 62
    4
 10
11463.512606234164
 20
240.68326176823831
 11
11558.958558778506
 21
336.10650397635823
  0
LINE
  8
_0-0_通り芯
  6
CONTINUOUS
 62
    4
 10
11463.512606234164
 20
257.6491587870828
 11
11558.958558778506
 21
353.07240099520271
  0
LINE
  8
_0-0_通り芯
  6
CONTINUOUS
 62
    4
 10
11463.512606234164
 20
274.61505580592814
 11
11558.958558778506
 21
370.03827481656486
  0
LINE
  8
_0-0_通り芯
  6
CONTINUOUS
 62
    4
 10
11463.512606234164
 20
278.85653006063905
 11
11558.958558778506
 21
374.27972587379259
  0
LINE
  8
_0-0_通り芯
  6
CONTINUOUS
 62
    4
 10
11463.512606234164
 20
270.37358155121638
 11
11558.958558778506
 21
365.7968005618531
  0
LINE
  8
_0-0_通り芯
  6
CONTINUOUS
 62
    4
 10
11463.512606234164
 20
261.89063304179456
 11
11558.958558778506
 21
357.31387524991447
  0
LINE
  8
_0-0_通り芯
  6
CONTINUOUS
 62
    4
 10
11463.512606234164
 20
266.13210729650547
 11
11558.958558778506
 21
361.5553263071422
  0
LINE
  8
_0-0_通り芯
  6
CONTINUOUS
 62
    4
 10
11463.512606234164
 20
202.51001667331991
 11
11558.958558778506
 21
297.93328207892387
  0
LINE
  8
_0-0_通り芯
  6
CONTINUOUS
 62
    4
 10
11463.512606234164
 20
206.75149092803167
 11
11558.958558778506
 21
302.17475633363478
  0
LINE
  8
_0-0_通り芯
  6
CONTINUOUS
 62
    4
 10
11464.217067409207
 20
198.97230766914959
 11
11558.958558778506
 21
293.69178462672892
  0
LINE
  8
_0-0_通り芯
  6
CONTINUOUS
 62
    4
 10
11472.701778927365
 20
198.97230766914959
 11
11558.958558778506
 21
285.20885931478944
  0
LINE
  8
_0-0_通り芯
  6
CONTINUOUS
 62
    4
 10
11468.459423168286
 20
198.97230766914959
 11
11558.958558778506
 21
289.45031037201716
  0
LINE
  8
_0-0_通り芯
  6
CONTINUOUS
 62
    4
 10
11463.512606234164
 20
210.99296518274258
 11
11558.958558778506
 21
306.4162073908625
  0
LINE
  8
_0-0_通り芯
  6
CONTINUOUS
 62
    4
 10
11463.512606234164
 20
227.95886220158792
 11
11558.958558778506
 21
323.38210440970784
  0
LINE
  8
_0-0_通り芯
  6
CONTINUOUS
 62
    4
 10
11463.512606234164
 20
232.20031325881564
 11
11558.958558778506
 21
327.62357866441874
  0
LINE
  8
_0-0_通り芯
  6
CONTINUOUS
 62
    4
 10
11463.512606234164
 20
223.71736474939297
 11
11558.958558778506
 21
319.14060695751289
  0
LINE
  8
_0-0_通り芯
  6
CONTINUOUS
 62
    4
 10
11463.512606234164
 20
215.2344162399703
 11
11558.958558778506
 21
310.65768164557426
  0
LINE
  8
_0-0_通り芯
  6
CONTINUOUS
 62
    4
 10
11463.512606234164
 20
219.47591369216525
 11
11558.958558778506
 21
314.89915590028517
  0
LINE
  8
_0-0_通り芯
  6
CONTINUOUS
 62
    4
 10
11380.879830025338
 20
198.97230766914959
 11
11404.054301493876
 21
222.14042302724494
  0
LINE
  8
_0-0_通り芯
  6
CONTINUOUS
 62
    4
 10
11376.637474266259
 20
198.97230766914959
 11
11404.054301493876
 21
226.38189728195584
  0
LINE
  8
_0-0_通り芯
  6
CONTINUOUS
 62
    4
 10
11385.122928103887
 20
198.97230766914959
 11
11404.054301493876
 21
217.89894877253317
  0
LINE
  8
_0-0_通り芯
  6
CONTINUOUS
 62
    4
 10
11393.607639622043
 20
198.97230766914959
 11
11404.054301493876
 21
209.41600026311136
  0
LINE
  8
_0-0_通り芯
  6
CONTINUOUS
 62
    4
 10
11389.365283862966
 20
198.97230766914959
 11
11404.054301493876
 21
213.65747451782227
  0
LINE
  8
_0-0_通り芯
  6
CONTINUOUS
 62
    4
 10
11372.39511850718
 20
198.97230766914959
 11
11404.054301493876
 21
230.62337153666761
  0
LINE
  8
_0-0_通り芯
  6
CONTINUOUS
 62
    4
 10
11355.425695470862
 20
198.97230766914959
 11
11404.054301493876
 21
247.58926855551209
  0
LINE
  8
_0-0_通り芯
  6
CONTINUOUS
 62
    4
 10
11351.183339711783
 20
198.97230766914959
 11
11404.054301493876
 21
251.83071961273981
  0
LINE
  8
_0-0_通り芯
  6
CONTINUOUS
 62
    4
 10
11359.668051229943
 20
198.97230766914959
 11
11404.054301493876
 21
243.34779430080118
  0
LINE
  8
_0-0_通り芯
  6
CONTINUOUS
 62
    4
 10
11368.153505067568
 20
198.97230766914959
 11
11404.054301493876
 21
234.86484579137851
  0
LINE
  8
_0-0_通り芯
  6
CONTINUOUS
 62
    4
 10
11363.911149308489
 20
198.97230766914959
 11
11404.054301493876
 21
239.10632004608942
  0
LINE
  8
_0-0_通り芯
  6
CONTINUOUS
 62
    4
 10
11590.44552364865
 20
333.53172250696133
 11
11679.828953098606
 21
422.89466857910156
  0
LINE
  8
_0-0_通り芯
  6
CONTINUOUS
 62
    4
 10
11590.44552364865
 20
337.77319676167224
 11
11679.007947767102
 21
426.3146735526422
  0
LINE
  8
_0-0_通り芯
  6
CONTINUOUS
 62
    4
 10
11590.44552364865
 20
329.29027144973361
 11
11679.828953098606
 21
418.65319432439065
  0
LINE
  8
_0-0_通り芯
  6
CONTINUOUS
 62
    4
 10
11590.44552364865
 20
320.80732294031094
 11
11679.828953098606
 21
410.17024581496798
  0
LINE
  8
_0-0_通り芯
  6
CONTINUOUS
 62
    4
 10
11590.44552364865
 20
325.04879719502185
 11
11679.828953098606
 21
414.41172006967889
  0
LINE
  8
_0-0_通り芯
  6
CONTINUOUS
 62
    4
 10
11590.44552364865
 20
342.01469421386719
 11
11678.112710488809
 21
429.66114250389296
  0
LINE
  8
_0-0_通り芯
  6
CONTINUOUS
 62
    4
 10
11402.093093459673
 20
198.97230766914959
 11
11404.054301493876
 21
200.93305175368869
  0
LINE
  8
_0-0_通り芯
  6
CONTINUOUS
 62
    4
 10
11397.849995381124
 20
198.97230766914959
 11
11404.054301493876
 21
205.1745260083996
  0
LINE
  8
_0-0_通り芯
  6
CONTINUOUS
 62
    4
 10
11532.096244193413
 20
198.97230766914959
 11
11579.292173643371
 21
246.15724151198947
  0
LINE
  8
_0-0_通り芯
  6
CONTINUOUS
 62
    4
 10
11590.44552364865
 20
346.2561684685781
 11
11677.077917150549
 21
432.86851934484531
  0
LINE
  8
_0-0_通り芯
  6
CONTINUOUS
 62
    4
 10
11590.44552364865
 20
350.49761952580667
 11
11675.913960224874
 21
435.94696457321561
  0
LINE
  8
_0-0_通り芯
  6
CONTINUOUS
 62
    4
 10
11317.675038930533
 20
293.03622374663519
 11
11360.340592667864
 21
335.69138501141481
  0
LINE
  8
_0-0_通り芯
  6
CONTINUOUS
 62
    4
 10
11317.675038930533
 20
297.84536361694336
 11
11358.008967219173
 21
338.17001291223477
  0
LINE
  8
_0-0_通り芯
  6
CONTINUOUS
 62
    4
 10
11317.675038930533
 20
288.22866130519571
 11
11365.411376953125
 21
335.95360936345315
  0
LINE
  8
_0-0_通り芯
  6
CONTINUOUS
 62
    4
 10
11317.675038930533
 20
216.36963148374804
 11
11403.741042678423
 21
302.41498947143555
  0
LINE
  8
_0-0_通り芯
  6
CONTINUOUS
 62
    4
 10
11317.675038930533
 20
220.61112893594299
 11
11403.049943253802
 21
305.96559627636054
  0
LINE
  8
_0-0_通り芯
  6
CONTINUOUS
 62
    4
 10
11360.492025839318
 20
340.65209723807698
 11
11402.530319626267
 21
382.68039290969455
  0
LINE
  8
_0-0_通り芯
  6
CONTINUOUS
 62
    4
 10
11315.252108187289
 20
312.38897942207927
 11
11402.530319626267
 21
399.64647550840624
  0
LINE
  8
_0-0_通り芯
  6
CONTINUOUS
 62
    4
 10
11313.814235377957
 20
315.19169936309027
 11
11402.530319626267
 21
403.88799615808438
  0
LINE
  8
_0-0_通り芯
  6
CONTINUOUS
 62
    4
 10
11316.575663798563
 20
309.46980811454182
 11
11402.530319626267
 21
395.40490846376173
  0
LINE
  8
_0-0_通り芯
  6
CONTINUOUS
 62
    4
 10
11317.678750527872
 20
302.089644767143
 11
11402.530319626267
 21
386.92191355937268
  0
LINE
  8
_0-0_通り芯
  6
CONTINUOUS
 62
    4
 10
11317.437496700803
 20
306.09107146392034
 11
11402.530319626267
 21
391.16338781408359
  0
LINE
  8
_0-0_通り芯
  6
CONTINUOUS
 62
    4
 10
11334.213174355997
 20
198.97230766914959
 11
11404.054301493876
 21
268.79661663158515
  0
LINE
  8
_0-0_通り芯
  6
CONTINUOUS
 62
    4
 10
11329.97007627745
 20
198.97230766914959
 11
11404.054301493876
 21
273.03809088629691
  0
LINE
  8
_0-0_通り芯
  6
CONTINUOUS
 62
    4
 10
11338.455530115076
 20
198.97230766914959
 11
11404.054301493876
 21
264.55516557435743
  0
LINE
  8
_0-0_通り芯
  6
CONTINUOUS
 62
    4
 10
11346.940241633236
 20
198.97230766914959
 11
11404.054301493876
 21
256.07221706493476
  0
LINE
  8
_0-0_通り芯
  6
CONTINUOUS
 62
    4
 10
11342.697885874157
 20
198.97230766914959
 11
11404.054301493876
 21
260.31369131964652
  0
LINE
  8
_0-0_通り芯
  6
CONTINUOUS
 62
    4
 10
11325.727720518371
 20
198.97230766914959
 11
11404.054301493876
 21
277.27958833849101
  0
LINE
  8
_0-0_通り芯
  6
CONTINUOUS
 62
    4
 10
11317.675038930533
 20
207.88668297432537
 11
11404.054301493876
 21
294.24546215985231
  0
LINE
  8
_0-0_通り芯
  6
CONTINUOUS
 62
    4
 10
11317.675038930533
 20
212.12818042652032
 11
11404.054301493876
 21
298.48693641456407
  0
LINE
  8
_0-0_通り芯
  6
CONTINUOUS
 62
    4
 10
11317.675038930533
 20
203.64499994226406
 11
11404.054301493876
 21
290.0039879051414
  0
LINE
  8
_0-0_通り芯
  6
CONTINUOUS
 62
    4
 10
11321.486107078759
 20
198.97230766914959
 11
11404.054301493876
 21
281.52106259320192
  0
LINE
  8
_0-0_通り芯
  6
CONTINUOUS
 62
    4
 10
11317.675038930533
 20
199.40343289761955
 11
11404.054301493876
 21
285.76251365043049
  0
LINE
  8
_0-0_通り芯
  6
CONTINUOUS
 62
    4
 10
11590.44552364865
 20
316.56587188308322
 11
11679.828953098606
 21
405.92881795522345
  0
LINE
  8
_0-0_通り芯
  6
CONTINUOUS
 62
    4
 10
11590.44552364865
 20
376.74482964180584
 11
11664.939509211361
 21
451.22241458377346
  0
LINE
  8
_0-0_通り芯
  6
CONTINUOUS
 62
    4
 10
11590.44552364865
 20
380.98628069903441
 11
11662.624214790963
 21
453.14854802312112
  0
LINE
  8
_0-0_通り芯
  6
CONTINUOUS
 62
    4
 10
11590.44552364865
 20
372.50335538709493
 11
11667.189479518582
 21
449.22937960238045
  0
LINE
  8
_0-0_通り芯
  6
CONTINUOUS
 62
    4
 10
11590.44552364865
 20
364.02038368018907
 11
11671.431092958193
 21
444.98716302820156
  0
LINE
  8
_0-0_通り芯
  6
CONTINUOUS
 62
    4
 10
11590.44552364865
 20
368.26185793489998
 11
11669.371898754223
 21
447.16981423867736
  0
LINE
  8
_0-0_通り芯
  6
CONTINUOUS
 62
    4
 10
11590.44552364865
 20
385.22775495374532
 11
11660.241369298987
 21
455.00713039088907
  0
LINE
  8
_0-0_通り芯
  6
CONTINUOUS
 62
    4
 10
11590.575429555533
 20
402.32360427444064
 11
11650.012949350719
 21
461.74720557960313
  0
LINE
  8
_0-0_通り芯
  6
CONTINUOUS
 62
    4
 10
11590.318587019638
 20
406.30916389259141
 11
11647.274532833615
 21
463.25170156118048
  0
LINE
  8
_0-0_通り芯
  6
CONTINUOUS
 62
    4
 10
11590.44552364865
 20
397.9521777178789
 11
11652.676391601563
 21
460.16889520593594
  0
LINE
  8
_0-0_通り芯
  6
CONTINUOUS
 62
    4
 10
11590.44552364865
 20
389.46922920845623
 11
11657.789488096496
 21
456.79746576257656
  0
LINE
  8
_0-0_通り芯
  6
CONTINUOUS
 62
    4
 10
11590.44552364865
 20
393.71070346316799
 11
11655.268571183489
 21
458.51848705394843
  0
LINE
  8
_0-0_通り芯
  6
CONTINUOUS
 62
    4
 10
11841.469017235009
 20
448.81168571678359
 11
11866.004902607687
 21
473.34242124815233
  0
LINE
  8
_0-0_通り芯
  6
CONTINUOUS
 62
    4
 10
11841.469017235009
 20
453.05315997149535
 11
11861.763289168075
 21
473.34242124815233
  0
LINE
  8
_0-0_通り芯
  6
CONTINUOUS
 62
    4
 10
11841.469017235009
 20
444.57025785703905
 11
11870.248000686235
 21
473.34242124815233
  0
LINE
  8
_0-0_通り芯
  6
CONTINUOUS
 62
    4
 10
11841.469017235009
 20
436.08726295265001
 11
11878.732712204392
 21
473.34242124815233
  0
LINE
  8
_0-0_通り芯
  6
CONTINUOUS
 62
    4
 10
11841.469017235009
 20
440.32873720736092
 11
11874.490356445313
 21
473.34242124815233
  0
LINE
  8
_0-0_通り芯
  6
CONTINUOUS
 62
    4
 10
11841.469017235009
 20
457.29463422620626
 11
11857.520933408996
 21
473.34242124815233
  0
LINE
  8
_0-0_通り芯
  6
CONTINUOUS
 62
    4
 10
11590.44552364865
 20
355.5374351707664
 11
11674.375874287374
 21
439.44867108319215
  0
LINE
  8
_0-0_通り芯
  6
CONTINUOUS
 62
    4
 10
11590.44552364865
 20
359.77893262296135
 11
11672.957301784207
 21
442.27175841460394
  0
LINE
  8
_0-0_通り芯
  6
CONTINUOUS
 62
    4
 10
11841.469017235009
 20
470.01905699033983
 11
11844.793123812289
 21
473.34242124815233
  0
LINE
  8
_0-0_通り芯
  6
CONTINUOUS
 62
    4
 10
11841.469017235009
 20
461.53610848091716
 11
11853.278577649915
 21
473.34242124815233
  0
LINE
  8
_0-0_通り芯
  6
CONTINUOUS
 62
    4
 10
11841.469017235009
 20
465.77758273562893
 11
11849.036221890838
 21
473.34242124815233
  0
LINE
  8
_0-0_通り芯
  6
CONTINUOUS
 62
    4
 10
11590.44552364865
 20
282.63407784539339
 11
11679.828953098606
 21
371.99704711501681
  0
LINE
  8
_0-0_通り芯
  6
CONTINUOUS
 62
    4
 10
11590.44552364865
 20
286.8755521001043
 11
11679.828953098606
 21
376.23849817224453
  0
LINE
  8
_0-0_通り芯
  6
CONTINUOUS
 62
    4
 10
11590.44552364865
 20
278.39260359068163
 11
11679.828953098606
 21
367.75554966282186
  0
LINE
  8
_0-0_通り芯
  6
CONTINUOUS
 62
    4
 10
11590.44552364865
 20
269.90965508125896
 11
11679.828953098606
 21
359.27262435088323
  0
LINE
  8
_0-0_通り芯
  6
CONTINUOUS
 62
    4
 10
11590.44552364865
 20
274.15110613848753
 11
11679.828953098606
 21
363.51407540811095
  0
LINE
  8
_0-0_通り芯
  6
CONTINUOUS
 62
    4
 10
11590.44552364865
 20
291.11700315733202
 11
11679.828953098606
 21
380.47997242695544
  0
LINE
  8
_0-0_通り芯
  6
CONTINUOUS
 62
    4
 10
11590.44552364865
 20
308.08290017617736
 11
11679.828953098606
 21
397.44582305083441
  0
LINE
  8
_0-0_通り芯
  6
CONTINUOUS
 62
    4
 10
11590.44552364865
 20
312.32437443088827
 11
11679.828953098606
 21
401.68729730554531
  0
LINE
  8
_0-0_通り芯
  6
CONTINUOUS
 62
    4
 10
11590.44552364865
 20
303.84144911894964
 11
11679.828953098606
 21
393.20439519108987
  0
LINE
  8
_0-0_通り芯
  6
CONTINUOUS
 62
    4
 10
11590.44552364865
 20
295.35847741204378
 11
11679.828953098606
 21
384.7214466816672
  0
LINE
  8
_0-0_通り芯
  6
CONTINUOUS
 62
    4
 10
11590.44552364865
 20
299.59997486423788
 11
11679.828953098606
 21
388.96289773889492
  0
LINE
  8
_0-0_通り芯
  6
CONTINUOUS
 62
    4
 10
11584.890747070313
 20
417.84754572687888
 11
11635.058181350298
 21
468.00310289537578
  0
LINE
  8
_0-0_通り芯
  6
CONTINUOUS
 62
    4
 10
11582.752867002746
 20
419.95183583852423
 11
11631.817214553423
 21
469.00481662234768
  0
LINE
  8
_0-0_通り芯
  6
CONTINUOUS
 62
    4
 10
11586.742834142737
 20
415.45815854459221
 11
11638.221946922509
 21
466.92516223804375
  0
LINE
  8
_0-0_通り芯
  6
CONTINUOUS
 62
    4
 10
11589.510201119088
 20
409.74243782662029
 11
11644.334205421243
 21
464.55252363875076
  0
LINE
  8
_0-0_通り芯
  6
CONTINUOUS
 62
    4
 10
11588.295766469595
 20
412.7685031375367
 11
11641.312965186868
 21
465.77401032318903
  0
LINE
  8
_0-0_通り芯
  6
CONTINUOUS
 62
    4
 10
11580.328451620568
 20
421.77019377012499
 11
11628.496077254013
 21
469.92677740148594
  0
LINE
  8
_0-0_通り芯
  6
CONTINUOUS
 62
    4
 10
11590.054321289063
 20
261.03615374178474
 11
11679.828953098606
 21
350.78967584146056
  0
LINE
  8
_0-0_通り芯
  6
CONTINUOUS
 62
    4
 10
11590.581368111276
 20
265.80486039857618
 11
11679.828953098606
 21
355.03115009617147
  0
LINE
  8
_0-0_通り芯
  6
CONTINUOUS
 62
    4
 10
11571.22984190245
 20
425.39739866514452
 11
11617.874227987755
 21
472.03111390809767
  0
LINE
  8
_0-0_通り芯
  6
CONTINUOUS
 62
    4
 10
11577.60191221495
 20
423.28512861921951
 11
11625.092542493665
 21
470.76467050088439
  0
LINE
  8
_0-0_通り芯
  6
CONTINUOUS
 62
    4
 10
11574.532421215161
 20
424.45748303387575
 11
11621.599929397173
 21
471.51408839870157
  0
LINE
  8
_0-0_通り芯
  6
CONTINUOUS
 62
    4
 10
11311.020887220227
 20
316.6411941115922
 11
11402.530319626267
 21
408.12951680776251
  0
LINE
  8
_0-0_通り芯
  6
CONTINUOUS
 62
    7
 10
12156.410670924832
 20
473.34242124815233
 11
12245.370235958615
 21
473.34242124815233
  0
LINE
  8
_0-0_通り芯
  6
CONTINUOUS
 62
    7
 10
12248.562951990076
 20
198.97230766914959
 11
12155.405570365288
 21
198.97230766914959
  0
LINE
  8
_0-0_通り芯
  6
CONTINUOUS
 62
    7
 10
12155.405570365288
 20
198.97230766914959
 11
12114.663366369299
 21
313.92282022012267
  0
LINE
  8
_0-0_通り芯
  6
CONTINUOUS
 62
    7
 10
12248.562951990076
 20
198.97230766914959
 11
12189.100193332983
 21
351.16682052612305
  0
LINE
  8
_0-0_通り芯
  6
CONTINUOUS
 62
    7
 10
12156.410670924832
 20
473.34242124815233
 11
12114.663366369299
 21
373.42174375379415
  0
LINE
  8
_0-0_通り芯
  6
CONTINUOUS
 62
    7
 10
12114.663366369299
 20
198.97230766914959
 11
12018.957602011193
 21
198.97230766914959
  0
LINE
  8
_0-0_通り芯
  6
CONTINUOUS
 62
    7
 10
10741.240217879013
 20
473.34242124815233
 11
10864.347963075381
 21
473.34242124815233
  0
LINE
  8
_0-0_通り芯
  6
CONTINUOUS
 62
    7
 10
10572.958621463262
 20
473.34242124815233
 11
10572.958621463262
 21
198.97230766914959
  0
LINE
  8
_0-0_通り芯
  6
CONTINUOUS
 62
    7
 10
10693.922548036318
 20
198.97230766914959
 11
10752.064720360009
 21
198.97230766914959
  0
LINE
  8
_0-0_通り芯
  6
CONTINUOUS
 62
    7
 10
12114.663366369299
 20
473.34242124815233
 11
12018.957602011193
 21
473.34242124815233
  0
LINE
  8
_0-0_通り芯
  6
CONTINUOUS
 62
    7
 10
10784.50630806588
 20
198.97230766914959
 11
10864.347963075381
 21
198.97230766914959
  0
LINE
  8
_0-0_通り芯
  6
CONTINUOUS
 62
    7
 10
11051.076940588049
 20
293.75648240785353
 11
11031.077369483743
 21
405.84006438384222
  0
LINE
  8
_0-0_通り芯
  6
CONTINUOUS
 62
    7
 10
11015.000956767313
 20
245.77422786403361
 11
11047.000122070313
 21
245.77422786403361
  0
LINE
  8
_0-0_通り芯
  6
CONTINUOUS
 62
    7
 10
11010.923395930111
 20
293.75648240785353
 11
11031.077369483743
 21
405.84006438384222
  0
LINE
  8
_0-0_通り芯
  6
CONTINUOUS
 62
    7
 10
10972.041444520693
 20
473.34242124815233
 11
10912.041246568835
 21
199.77821143897813
  0
LINE
  8
_0-0_通り芯
  6
CONTINUOUS
 62
    7
 10
11051.076940588049
 20
293.75648240785353
 11
11010.923395930111
 21
293.75648240785353
  0
LINE
  8
_0-0_通り芯
  6
CONTINUOUS
 62
    7
 10
11015.000956767313
 20
245.77422786403361
 11
11005.923874313767
 21
198.97230766914959
  0
LINE
  8
_0-0_通り芯
  6
CONTINUOUS
 62
    7
 10
12114.663366369299
 20
373.42174375379415
 11
12114.663366369299
 21
473.34242124815233
  0
LINE
  8
_0-0_通り芯
  6
CONTINUOUS
 62
    7
 10
12189.100193332983
 20
351.16682052612305
 11
12245.370235958615
 21
473.34242124815233
  0
LINE
  8
_0-0_通り芯
  6
CONTINUOUS
 62
    7
 10
12018.957602011193
 20
198.97230766914959
 11
12018.957602011193
 21
473.34242124815233
  0
LINE
  8
_0-0_通り芯
  6
CONTINUOUS
 62
    7
 10
11047.000122070313
 20
245.77422786403361
 11
11056.076462204392
 21
198.97230766914959
  0
LINE
  8
_0-0_通り芯
  6
CONTINUOUS
 62
    7
 10
12114.663366369299
 20
313.92282022012267
 11
12114.663366369299
 21
198.97230766914959
  0
LINE
  8
_0-0_通り芯
  6
CONTINUOUS
 62
    2
 10
8693.6447555954383
 20
1712.8954913165117
 11
8702.3677516627959
 21
1721.6164460053317
  0
LINE
  8
_0-0_通り芯
  6
CONTINUOUS
 62
    2
 10
8676.2358794341217
 20
1708.2153526512352
 11
8692.3382733319268
 21
1724.3134782120987
  0
LINE
  8
_0-0_通り芯
  6
CONTINUOUS
 62
    2
 10
8699.4482091955233
 20
1714.45640357765
 11
8705.7111585462426
 21
1720.7178682894321
  0
LINE
  8
_0-0_通り芯
  6
CONTINUOUS
 62
    2
 10
8687.8420443148243
 20
1711.3356925345759
 11
8699.0250870988184
 21
1722.5161372004327
  0
LINE
  8
_0-0_通り芯
  6
CONTINUOUS
 62
    2
 10
8682.0385907147393
 20
1709.7751514331715
 11
8695.6816802153717
 21
1723.4147149163325
  0
LINE
  8
_0-0_通り芯
  6
CONTINUOUS
 62
    2
 10
8652.4215285842492
 20
1731.0622756545608
 11
8655.5615399334893
 21
1734.2008023648648
  0
LINE
  8
_0-0_通り芯
  6
CONTINUOUS
 62
    2
 10
8670.4331681535059
 20
1706.6555538692992
 11
8688.9941241290126
 21
1725.2122415078657
  0
LINE
  8
_0-0_通り芯
  6
CONTINUOUS
 62
    2
 10
8664.6297145534209
 20
1705.0948271880281
 11
8685.6507172455658
 21
1726.1108192237648
  0
LINE
  8
_0-0_通り芯
  6
CONTINUOUS
 62
    2
 10
8653.0242919921875
 20
1701.9752296241554
 11
8678.9646457981416
 21
1727.9090881347656
  0
LINE
  8
_0-0_通り芯
  6
CONTINUOUS
 62
    2
 10
8652.4215285842492
 20
1726.8208477948165
 11
8658.9049468169342
 21
1733.3020390690986
  0
LINE
  8
_0-0_通り芯
  6
CONTINUOUS
 62
    2
 10
8658.8270032728051
 20
1703.5350284060919
 11
8682.3080526815866
 21
1727.0103248389992
  0
LINE
  8
_0-0_通り芯
  6
CONTINUOUS
 62
    7
 10
10695.958730336783
 20
473.34242124815233
 11
10718.387913059543
 21
344.99461973035665
  0
LINE
  8
_0-0_通り芯
  6
CONTINUOUS
 62
    7
 10
10720.347636454813
 20
344.99461973035665
 11
10741.240217879013
 21
473.32460558092265
  0
LINE
  8
_0-0_通り芯
  6
CONTINUOUS
 62
    7
 10
10864.347963075381
 20
473.34242124815233
 11
10864.347963075381
 21
198.55855735572618
  0
LINE
  8
_0-0_通り芯
  6
CONTINUOUS
 62
    7
 10
10572.958621463262
 20
473.34242124815233
 11
10695.958730336783
 21
473.34242124815233
  0
LINE
  8
_0-0_通り芯
  6
CONTINUOUS
 62
    7
 10
10572.958621463262
 20
198.97230766914959
 11
10656.84517525338
 21
198.97230766914959
  0
LINE
  8
_0-0_通り芯
  6
CONTINUOUS
 62
    7
 10
10656.84517525338
 20
371.69529425131287
 11
10656.84517525338
 21
198.95240422841681
  0
LINE
  8
_0-0_通り芯
  6
CONTINUOUS
 62
    2
 10
8711.0528894372892
 20
1717.5758155616554
 11
8712.3979723131342
 21
1718.9205272777665
  0
LINE
  8
_0-0_通り芯
  6
CONTINUOUS
 62
    2
 10
8705.2501781566734
 20
1716.0160167797196
 11
8709.0545654296875
 21
1719.8191049936656
  0
LINE
  8
_0-0_通り芯
  6
CONTINUOUS
 62
    7
 10
10784.50630806588
 20
375.48717808079061
 11
10752.064720360009
 21
199.37371692141994
  0
LINE
  8
_0-0_通り芯
  6
CONTINUOUS
 62
    7
 10
10784.50630806588
 20
375.48717808079061
 11
10784.50630806588
 21
199.37371692141994
  0
LINE
  8
_0-0_通り芯
  6
CONTINUOUS
 62
    7
 10
10656.84517525338
 20
371.69529425131287
 11
10693.922548036318
 21
197.26710706143791
  0
LINE
  8
_0-0_通り芯
  6
CONTINUOUS
 62
    7
 10
11091.024120433911
 20
473.34242124815233
 11
11149.973194019216
 21
198.97230766914959
  0
LINE
  8
_0-0_通り芯
  6
CONTINUOUS
 62
    4
 10
11195.528597445102
 20
299.35558937691326
 11
11288.374947212838
 21
392.18022630021409
  0
LINE
  8
_0-0_通り芯
  6
CONTINUOUS
 62
    4
 10
11312.501072239231
 20
420.5421190004094
 11
11360.050345755913
 21
468.07970098547031
  0
LINE
  8
_0-0_通り芯
  6
CONTINUOUS
 62
    4
 10
11315.910545555322
 20
415.46762311780782
 11
11366.066102723818
 21
465.61107119998439
  0
LINE
  8
_0-0_通り芯
  6
CONTINUOUS
 62
    4
 10
11316.612037452493
 20
407.68593453072185
 11
11371.72554634713
 21
462.78687038937107
  0
LINE
  8
_0-0_通り芯
  6
CONTINUOUS
 62
    4
 10
11195.528597445102
 20
290.87264086749144
 11
11288.374947212838
 21
383.69702261847465
  0
LINE
  8
_0-0_通り芯
  6
CONTINUOUS
 62
    4
 10
11195.528597445102
 20
307.83851468885274
 11
11288.374947212838
 21
400.66289643983595
  0
LINE
  8
_0-0_通り芯
  6
CONTINUOUS
 62
    7
 10
11588.476892419763
 20
198.97230766914959
 11
11463.512606234164
 21
198.97230766914959
  0
LINE
  8
_0-0_通り芯
  6
CONTINUOUS
 62
    7
 10
11463.512606234164
 20
473.34242124815233
 11
11588.476892419763
 21
473.34242124815233
  0
LINE
  8
_0-0_通り芯
  6
CONTINUOUS
 62
    7
 10
11567.297033361487
 20
243.36347579956055
 11
11558.958558778506
 21
243.36347579956055
  0
LINE
  8
_0-0_通り芯
  6
CONTINUOUS
 62
    4
 10
11306.407371727197
 20
422.93220210719767
 11
11353.644128747888
 21
470.15787073083828
  0
LINE
  8
_0-0_通り芯
  6
CONTINUOUS
 62
    4
 10
11195.528597445102
 20
316.3214863957586
 11
11288.374947212838
 21
409.1459841341586
  0
LINE
  8
_0-0_通り芯
  6
CONTINUOUS
 62
    4
 10
11195.528597445102
 20
248.45789832037894
 11
11310.635623416387
 21
363.53792242101719
  0
LINE
  8
_0-0_通り芯
  6
CONTINUOUS
 62
    4
 10
11195.528597445102
 20
252.69939577257304
 11
11305.362928235852
 21
362.50790776433206
  0
LINE
  8
_0-0_通り芯
  6
CONTINUOUS
 62
    4
 10
11300.439865524704
 20
318.7881675926414
 11
11402.612717087204
 21
420.93578029323282
  0
LINE
  8
_0-0_通り芯
  6
CONTINUOUS
 62
    4
 10
11307.746516047298
 20
317.60864515562304
 11
11402.530319626267
 21
412.37108385240703
  0
LINE
  8
_0-0_通り芯
  6
CONTINUOUS
 62
    4
 10
11304.206394504856
 20
318.31231761623087
 11
11402.599355336783
 21
416.68048033843206
  0
LINE
  8
_0-0_通り芯
  6
CONTINUOUS
 62
    4
 10
11195.528597445102
 20
261.18232108451252
 11
11296.734206740923
 21
362.36394418252502
  0
LINE
  8
_0-0_通り芯
  6
CONTINUOUS
 62
    4
 10
11316.612037452493
 20
399.20256846659925
 11
11377.056142446158
 21
459.63224462560703
  0
LINE
  8
_0-0_通り芯
  6
CONTINUOUS
 62
    4
 10
11195.528597445102
 20
282.38969235806877
 11
11288.374947212838
 21
375.21405091156794
  0
LINE
  8
_0-0_通り芯
  6
CONTINUOUS
 62
    4
 10
11195.528597445102
 20
273.9067438486461
 11
11288.374947212838
 21
366.73135757446289
  0
LINE
  8
_0-0_通り芯
  6
CONTINUOUS
 62
    4
 10
11195.528597445102
 20
265.42379533922343
 11
11292.492593301309
 21
362.36396738000821
  0
LINE
  8
_0-0_通り芯
  6
CONTINUOUS
 62
    4
 10
11316.612037452493
 20
390.71999111691014
 11
11382.071995090793
 21
456.16487039102111
  0
LINE
  8
_0-0_通り芯
  6
CONTINUOUS
 62
    7
 10
11402.530319626267
 20
415.63636161185627
 11
11402.530319626267
 21
366.54974447714295
  0
LINE
  8
_0-0_通り芯
  6
CONTINUOUS
 62
    7
 10
11287.994137325803
 20
318.98520701640393
 11
11296.923498205237
 21
318.98520701640393
  0
LINE
  8
_0-0_通り芯
  6
CONTINUOUS
 62
    7
 10
11358.008967219173
 20
341.05515351166559
 11
11358.008967219173
 21
335.34741272797419
  0
LINE
  8
_0-0_通り芯
  6
CONTINUOUS
 62
    7
 10
11317.675038930533
 20
198.97230766914959
 11
11317.675038930533
 21
303.38401794433594
  0
LINE
  8
_0-0_通り芯
  6
CONTINUOUS
 62
    7
 10
11404.052074535473
 20
198.97230766914959
 11
11404.052074535473
 21
299.57886515436911
  0
LINE
  8
_0-0_通り芯
  6
CONTINUOUS
 62
    7
 10
11300.94093116554
 20
423.24666719178907
 11
11288.374947212838
 21
423.24666719178907
  0
LINE
  8
_0-0_通り芯
  6
CONTINUOUS
 62
    7
 10
11149.973194019216
 20
198.97230766914959
 11
11056.076462204392
 21
198.97230766914959
  0
LINE
  8
_0-0_通り芯
  6
CONTINUOUS
 62
    7
 10
11005.923874313767
 20
198.97230766914959
 11
10912.041246568835
 21
198.97230766914959
  0
LINE
  8
_0-0_通り芯
  6
CONTINUOUS
 62
    7
 10
11091.024120433911
 20
473.34242124815233
 11
10972.041444520693
 21
473.34242124815233
  0
LINE
  8
_0-0_通り芯
  6
CONTINUOUS
 62
    7
 10
11300.94093116554
 20
362.36406016994181
 11
11288.374947212838
 21
362.36406016994181
  0
LINE
  8
_0-0_通り芯
  6
CONTINUOUS
 62
    7
 10
11316.612037452493
 20
410.6764612971125
 11
11316.612037452493
 21
371.71988358368708
  0
LINE
  8
_0-0_通り芯
  6
CONTINUOUS
 62
    7
 10
11590.44552364865
 20
400.39742444012575
 11
11590.44552364865
 21
268.40961301648946
  0
LINE
  8
_0-0_通り芯
  6
CONTINUOUS
 62
    7
 10
11567.297033361487
 20
425.39739866514452
 11
11558.958558778506
 21
425.39739866514452
  0
LINE
  8
_0-0_通り芯
  6
CONTINUOUS
 62
    7
 10
11558.958558778506
 20
425.39739866514452
 11
11558.958558778506
 21
243.36347579956055
  0
LINE
  8
_0-0_通り芯
  6
CONTINUOUS
 62
    7
 10
11463.512606234164
 20
473.34242124815233
 11
11463.512606234164
 21
198.97230766914959
  0
LINE
  8
_0-0_通り芯
  6
CONTINUOUS
 62
    7
 10
11679.985582506335
 20
421.46152805637655
 11
11679.985582506335
 21
250.6404335434371
  0
LINE
  8
_0-0_通り芯
  6
CONTINUOUS
 62
    7
 10
11404.052074535473
 20
198.97230766914959
 11
11317.675038930533
 21
198.97230766914959
  0
LINE
  8
_0-0_通り芯
  6
CONTINUOUS
 62
    7
 10
11288.374947212838
 20
423.24666719178907
 11
11288.374947212838
 21
362.36406016994181
  0
LINE
  8
_0-0_通り芯
  6
CONTINUOUS
 62
    7
 10
11287.994137325803
 20
198.97230766914959
 11
11287.994137325803
 21
318.98520701640393
  0
LINE
  8
_0-0_通り芯
  6
CONTINUOUS
 62
    7
 10
11195.528597445102
 20
473.34242124815233
 11
11325.665365683068
 21
473.34242124815233
  0
LINE
  8
_0-0_通り芯
  6
CONTINUOUS
 62
    7
 10
11195.528597445102
 20
473.34242124815233
 11
11195.528597445102
 21
198.97230766914959
  0
LINE
  8
_0-0_通り芯
  6
CONTINUOUS
 62
    7
 10
11287.994137325803
 20
198.97230766914959
 11
11195.528597445102
 21
198.97230766914959
  0
LINE
  8
_0-0_通り芯
  6
CONTINUOUS
 62
    4
 10
11841.469017235009
 20
431.84578869793825
 11
11882.975810282938
 21
473.34242124815233
  0
LINE
  8
_0-0_通り芯
  6
CONTINUOUS
 62
    4
 10
11743.470970360009
 20
295.69783339629339
 11
11838.801863386825
 21
391.00629445668829
  0
LINE
  8
_0-0_通り芯
  6
CONTINUOUS
 62
    4
 10
11744.662393105997
 20
301.13010406494141
 11
11839.731247360642
 21
396.17682792045002
  0
LINE
  8
_0-0_通り芯
  6
CONTINUOUS
 62
    4
 10
11742.278805294553
 20
290.26458843334296
 11
11837.871737093539
 21
385.83485629107543
  0
LINE
  8
_0-0_通り芯
  6
CONTINUOUS
 62
    4
 10
11739.895959802576
 20
279.39911919671175
 11
11836.012226826437
 21
375.49295425415039
  0
LINE
  8
_0-0_通り芯
  6
CONTINUOUS
 62
    4
 10
11741.088124868033
 20
284.83231776469495
 11
11836.941610800255
 21
380.66344132294489
  0
LINE
  8
_0-0_通り芯
  6
CONTINUOUS
 62
    4
 10
11745.853815851986
 20
306.5633026329246
 11
11840.661373653928
 21
401.3482428885797
  0
LINE
  8
_0-0_通り芯
  6
CONTINUOUS
 62
    4
 10
11750.620249155407
 20
328.29428750115511
 11
11841.469017235009
 21
419.1214123287719
  0
LINE
  8
_0-0_通り芯
  6
CONTINUOUS
 62
    4
 10
11751.811671901394
 20
333.7266045647695
 11
11841.469017235009
 21
423.3628865834828
  0
LINE
  8
_0-0_通り芯
  6
CONTINUOUS
 62
    4
 10
11749.42808408995
 20
322.86108893317191
 11
11841.469017235009
 21
414.87993807406014
  0
LINE
  8
_0-0_通り芯
  6
CONTINUOUS
 62
    4
 10
11747.045238597973
 20
311.99561969653985
 11
11841.469017235009
 21
406.39698956463747
  0
LINE
  8
_0-0_通り芯
  6
CONTINUOUS
 62
    4
 10
11748.23740366343
 20
317.42881826452304
 11
11841.469017235009
 21
410.63846381934923
  0
LINE
  8
_0-0_通り芯
  6
CONTINUOUS
 62
    4
 10
11730.364577834673
 20
235.93803096461954
 11
11828.574185758025
 21
334.1242790222168
  0
LINE
  8
_0-0_通り芯
  6
CONTINUOUS
 62
    4
 10
11731.555258261193
 20
241.37032483075075
 11
11829.504312051309
 21
339.29571718782967
  0
LINE
  8
_0-0_通り芯
  6
CONTINUOUS
 62
    4
 10
11729.172412769216
 20
230.50483239663635
 11
11827.644801784207
 21
328.9537919534223
  0
LINE
  8
_0-0_通り芯
  6
CONTINUOUS
 62
    4
 10
11726.789567277239
 20
219.63933996252109
 11
11825.784549197637
 21
318.61091562219571
  0
LINE
  8
_0-0_通り芯
  6
CONTINUOUS
 62
    4
 10
11727.980990023227
 20
225.07256172798748
 11
11826.714675490923
 21
323.78233059032539
  0
LINE
  8
_0-0_通り芯
  6
CONTINUOUS
 62
    4
 10
11732.74668100718
 20
246.8026186968828
 11
11830.433696025126
 21
344.46622745410821
  0
LINE
  8
_0-0_通り芯
  6
CONTINUOUS
 62
    4
 10
11737.513114310601
 20
268.53360356511331
 11
11834.153458878802
 21
365.15100582225898
  0
LINE
  8
_0-0_通り芯
  6
CONTINUOUS
 62
    4
 10
11738.704537056588
 20
273.9668253305797
 11
11835.082100533151
 21
370.32151608853752
  0
LINE
  8
_0-0_通り芯
  6
CONTINUOUS
 62
    4
 10
11736.321691564612
 20
263.10133289646444
 11
11833.222590266048
 21
359.97956765664611
  0
LINE
  8
_0-0_通り芯
  6
CONTINUOUS
 62
    4
 10
11733.938846072637
 20
252.235817264866
 11
11831.363822318413
 21
349.63764242223789
  0
LINE
  8
_0-0_通り芯
  6
CONTINUOUS
 62
    4
 10
11735.129526499157
 20
257.66813432848124
 11
11832.293948611699
 21
354.80908058785076
  0
LINE
  8
_0-0_通り芯
  6
CONTINUOUS
 62
    4
 10
11769.684497730153
 20
415.21732227222344
 11
11827.822958456505
 21
473.34242124815233
  0
LINE
  8
_0-0_通り芯
  6
CONTINUOUS
 62
    4
 10
11770.87666279561
 20
420.65049764272345
 11
11823.580602697424
 21
473.34242124815233
  0
LINE
  8
_0-0_通り芯
  6
CONTINUOUS
 62
    4
 10
11768.493074984164
 20
409.78502840609139
 11
11832.066056535052
 21
473.34242124815233
  0
LINE
  8
_0-0_通り芯
  6
CONTINUOUS
 62
    4
 10
11766.110229492188
 20
398.91951277449294
 11
11840.55076805321
 21
473.34242124815233
  0
LINE
  8
_0-0_通り芯
  6
CONTINUOUS
 62
    4
 10
11767.302394557644
 20
404.35273453996018
 11
11836.308412294131
 21
473.34242124815233
  0
LINE
  8
_0-0_通り芯
  6
CONTINUOUS
 62
    4
 10
11772.06734322213
 20
426.08279150885551
 11
11819.338246938345
 21
473.34242124815233
  0
LINE
  8
_0-0_通り芯
  6
CONTINUOUS
 62
    4
 10
11776.833776525549
 20
447.81377637708516
 11
11802.368823902028
 21
473.34242124815233
  0
LINE
  8
_0-0_通り芯
  6
CONTINUOUS
 62
    4
 10
11778.025941591006
 20
453.24695174758517
 11
11798.126468142949
 21
473.34242124815233
  0
LINE
  8
_0-0_通り芯
  6
CONTINUOUS
 62
    4
 10
11775.642353779562
 20
442.38148251095311
 11
11806.611179661106
 21
473.34242124815233
  0
LINE
  8
_0-0_通り芯
  6
CONTINUOUS
 62
    4
 10
11773.259508287585
 20
431.51596687935466
 11
11815.095148859798
 21
473.34242124815233
  0
LINE
  8
_0-0_通り芯
  6
CONTINUOUS
 62
    4
 10
11774.450931033574
 20
436.9483071404531
 11
11810.853535420187
 21
473.34242124815233
  0
LINE
  8
_0-0_通り芯
  6
CONTINUOUS
 62
    4
 10
11756.578105204813
 20
355.45758943300001
 11
11841.469017235009
 21
440.32873720736092
  0
LINE
  8
_0-0_通り芯
  6
CONTINUOUS
 62
    4
 10
11757.769527950803
 20
360.89078800098321
 11
11841.469017235009
 21
444.57025785703905
  0
LINE
  8
_0-0_通り芯
  6
CONTINUOUS
 62
    4
 10
11755.386682458826
 20
350.02527236938477
 11
11841.469017235009
 21
436.08726295265001
  0
LINE
  8
_0-0_通り芯
  6
CONTINUOUS
 62
    4
 10
11753.003836966851
 20
339.1598031327527
 11
11841.469017235009
 21
427.60436083819457
  0
LINE
  8
_0-0_通り芯
  6
CONTINUOUS
 62
    4
 10
11754.194517393371
 20
344.59207380140157
 11
11841.469017235009
 21
431.84578869793825
  0
LINE
  8
_0-0_通り芯
  6
CONTINUOUS
 62
    4
 10
11758.96095069679
 20
366.32305866963122
 11
11841.469017235009
 21
448.81168571678359
  0
LINE
  8
_0-0_通り芯
  6
CONTINUOUS
 62
    4
 10
11763.727384000213
 20
388.05404353786173
 11
11841.469017235009
 21
465.77758273562893
  0
LINE
  8
_0-0_通り芯
  6
CONTINUOUS
 62
    4
 10
11764.9188067462
 20
393.48726530332812
 11
11841.469017235009
 21
470.01905699033983
  0
LINE
  8
_0-0_通り芯
  6
CONTINUOUS
 62
    4
 10
11762.535961254223
 20
382.62177286921286
 11
11841.469017235009
 21
461.53610848091716
  0
LINE
  8
_0-0_通り芯
  6
CONTINUOUS
 62
    4
 10
11760.153115762247
 20
371.75625723761527
 11
11841.469017235009
 21
453.05315997149535
  0
LINE
  8
_0-0_通り芯
  6
CONTINUOUS
 62
    4
 10
11761.343796188767
 20
377.18857430122966
 11
11841.469017235009
 21
457.29463422620626
  0
LINE
  8
_0-0_通り芯
  6
CONTINUOUS
 62
    4
 10
11725.59814453125
 20
214.20702289890585
 11
11824.855165223818
 21
313.44040535591716
  0
LINE
  8
_0-0_通り芯
  6
CONTINUOUS
 62
    7
 10
11825.392604518582
 20
245.77422786403361
 11
11857.391769821579
 21
245.77422786403361
  0
LINE
  8
_0-0_通り芯
  6
CONTINUOUS
 62
    7
 10
11825.392604518582
 20
245.77422786403361
 11
11816.316264384501
 21
198.97230766914959
  0
LINE
  8
_0-0_通り芯
  6
CONTINUOUS
 62
    7
 10
11861.468588339318
 20
293.75648240785353
 11
11841.469017235009
 21
405.84006438384222
  0
LINE
  8
_0-0_通り芯
  6
CONTINUOUS
 62
    7
 10
11861.468588339318
 20
293.75648240785353
 11
11821.315786000845
 21
293.75648240785353
  0
LINE
  8
_0-0_通り芯
  6
CONTINUOUS
 62
    7
 10
11821.315786000845
 20
293.75648240785353
 11
11841.469017235009
 21
405.84006438384222
  0
LINE
  8
_0-0_通り芯
  6
CONTINUOUS
 62
    7
 10
11857.391769821579
 20
245.77422786403361
 11
11866.468852275126
 21
198.97230766914959
  0
LINE
  8
_0-0_通り芯
  6
CONTINUOUS
 62
    4
 10
11799.452250712626
 20
198.97230766914959
 11
11820.371555637668
 21
219.88720507235115
  0
LINE
  8
_0-0_通り芯
  6
CONTINUOUS
 62
    4
 10
11795.209152634079
 20
198.97230766914959
 11
11821.392244906039
 21
225.14922941053243
  0
LINE
  8
_0-0_通り芯
  6
CONTINUOUS
 62
    4
 10
11803.694606471707
 20
198.97230766914959
 11
11819.351608688767
 21
214.62606223853868
  0
LINE
  8
_0-0_通り芯
  6
CONTINUOUS
 62
    4
 10
11812.179317989865
 20
198.97230766914959
 11
11817.310972471496
 21
204.10291826402812
  0
LINE
  8
_0-0_通り芯
  6
CONTINUOUS
 62
    4
 10
11807.936962230786
 20
198.97230766914959
 11
11818.330919420398
 21
209.36401470287421
  0
LINE
  8
_0-0_通り芯
  6
DASHED1
 62
    2
 10
8304.2247050517308
 20
2349.99154580606
 11
8304.2247050517308
 21
2261.0562917348502
  0
LINE
  8
_0-0_通り芯
  6
CONTINUOUS
 62
    2
 10
8714.2255628431176
 20
2261.0562917348502
 11
8304.2247050517308
 21
2261.0562917348502
  0
LINE
  8
_0-0_通り芯
  6
DASHED1
 62
    2
 10
8809.2253813872467
 20
2408.3814672521644
 11
8751.7253154032933
 21
2349.99154580606
  0
LINE
  8
_0-0_通り芯
  6
DASHED1
 62
    2
 10
8714.2255628431176
 20
2349.99154580606
 11
8714.2255628431176
 21
2261.0562917348502
  0
LINE
  8
_0-0_通り芯
  6
DASHED1
 62
    2
 10
8714.2255628431176
 20
2349.99154580606
 11
8751.7253154032933
 21
2349.99154580606
  0
LINE
  8
_0-0_通り芯
  6
DASHED1
 62
    2
 10
8304.2247050517308
 20
2349.99154580606
 11
8266.7249524915551
 21
2349.99154580606
  0
LINE
  8
_0-0_通り芯
  6
CONTINUOUS
 62
    7
 10
11901.415768185178
 20
473.34242124815233
 11
11960.364841770481
 21
198.97230766914959
  0
LINE
  8
_0-0_通り芯
  6
CONTINUOUS
 62
    7
 10
11782.43309227196
 20
473.34242124815233
 11
11722.432894320102
 21
199.77818824149495
  0
LINE
  8
_0-0_通り芯
  6
CONTINUOUS
 62
    7
 10
11816.316264384501
 20
198.97230766914959
 11
11722.432894320102
 21
198.97230766914959
  0
LINE
  8
_0-0_通り芯
  6
CONTINUOUS
 62
    7
 10
11901.415768185178
 20
473.34242124815233
 11
11782.43309227196
 21
473.34242124815233
  0
LINE
  8
_0-0_通り芯
  6
CONTINUOUS
 62
    7
 10
11960.364841770481
 20
198.97230766914959
 11
11866.468852275126
 21
198.97230766914959
  0
LINE
  8
_0-0_通り芯
  6
CONTINUOUS
 62
    4
 10
11744.299398886193
 20
198.97230766914959
 11
11839.106214368665
 21
293.75648240785353
  0
LINE
  8
_0-0_通り芯
  6
CONTINUOUS
 62
    4
 10
11740.057043127112
 20
198.97230766914959
 11
11834.863858609588
 21
293.75648240785353
  0
LINE
  8
_0-0_通り芯
  6
CONTINUOUS
 62
    4
 10
11748.542496964739
 20
198.97230766914959
 11
11841.469017235009
 21
291.8773006748512
  0
LINE
  8
_0-0_通り芯
  6
CONTINUOUS
 62
    4
 10
11757.027208482898
 20
198.97230766914959
 11
11841.469017235009
 21
283.39437536291172
  0
LINE
  8
_0-0_通り芯
  6
CONTINUOUS
 62
    4
 10
11752.784852723818
 20
198.97230766914959
 11
11841.469017235009
 21
287.63582642013944
  0
LINE
  8
_0-0_通り芯
  6
CONTINUOUS
 62
    4
 10
11735.814687368033
 20
198.97230766914959
 11
11830.620760531039
 21
293.75648240785353
  0
LINE
  8
_0-0_通り芯
  6
CONTINUOUS
 62
    4
 10
11723.215299039275
 20
203.34153046479059
 11
11822.995654956716
 21
303.09845692402575
  0
LINE
  8
_0-0_通り芯
  6
CONTINUOUS
 62
    4
 10
11724.405979465793
 20
208.77382433092265
 11
11823.925038930533
 21
308.26899038778748
  0
LINE
  8
_0-0_通り芯
  6
CONTINUOUS
 62
    4
 10
11723.086877771326
 20
198.97230766914959
 11
11822.06552866343
 21
297.92704195589607
  0
LINE
  8
_0-0_通り芯
  6
CONTINUOUS
 62
    4
 10
11731.571589289486
 20
198.97230766914959
 11
11826.37840477196
 21
293.75648240785353
  0
LINE
  8
_0-0_通り芯
  6
CONTINUOUS
 62
    4
 10
11727.329233530407
 20
198.97230766914959
 11
11822.136049012881
 21
293.75648240785353
  0
LINE
  8
_0-0_通り芯
  6
CONTINUOUS
 62
    4
 10
11833.537333720438
 20
245.77422786403361
 11
11841.469017235009
 21
253.70403238244961
  0
LINE
  8
_0-0_通り芯
  6
CONTINUOUS
 62
    4
 10
11782.481343037374
 20
198.97230766914959
 11
11824.45431271115
 21
240.93446731567383
  0
LINE
  8
_0-0_通り芯
  6
CONTINUOUS
 62
    4
 10
11786.724441115923
 20
198.97230766914959
 11
11823.432881123312
 21
235.67241978000936
  0
LINE
  8
_0-0_通り芯
  6
CONTINUOUS
 62
    4
 10
11790.966796875
 20
198.97230766914959
 11
11822.413676493876
 21
230.41127694619689
  0
LINE
  8
_0-0_通り芯
  6
CONTINUOUS
 62
    4
 10
11837.779689479519
 20
245.77422786403361
 11
11841.469017235009
 21
249.46258132522189
  0
LINE
  8
_0-0_通り芯
  6
CONTINUOUS
 62
    4
 10
11829.294977961361
 20
245.77422786403361
 11
11841.469017235009
 21
257.94550663716052
  0
LINE
  8
_0-0_通り芯
  6
CONTINUOUS
 62
    4
 10
11765.512662320525
 20
198.97230766914959
 11
11841.469017235009
 21
274.91140365600586
  0
LINE
  8
_0-0_通り芯
  6
CONTINUOUS
 62
    4
 10
11761.269564241977
 20
198.97230766914959
 11
11841.469017235009
 21
279.15290110820081
  0
LINE
  8
_0-0_通り芯
  6
CONTINUOUS
 62
    4
 10
11769.755018079602
 20
198.97230766914959
 11
11841.469017235009
 21
270.66992940129495
  0
LINE
  8
_0-0_通り芯
  6
CONTINUOUS
 62
    4
 10
11778.238987278293
 20
198.97230766914959
 11
11841.469017235009
 21
262.18700408935547
  0
LINE
  8
_0-0_通り芯
  6
CONTINUOUS
 62
    4
 10
11773.996631519216
 20
198.97230766914959
 11
11841.469017235009
 21
266.42847834406638
  0
LINE
  8
_0-0_通り芯
  6
CONTINUOUS
 62
    4
 10
11779.216622017526
 20
458.67924561371638
 11
11793.883370064401
 21
473.34242124815233
  0
LINE
  8
_0-0_通り芯
  6
CONTINUOUS
 62
    4
 10
11856.798656566723
 20
319.92767437084296
 11
11920.660400390625
 21
383.77424704061951
  0
LINE
  8
_0-0_通り芯
  6
CONTINUOUS
 62
    4
 10
11856.156550226986
 20
323.5275062354836
 11
11919.909915408574
 21
387.26514352334533
  0
LINE
  8
_0-0_通り芯
  6
CONTINUOUS
 62
    4
 10
11857.44150522593
 20
316.32874720805432
 11
11921.41014305321
 21
380.28242265855937
  0
LINE
  8
_0-0_通り芯
  6
CONTINUOUS
 62
    4
 10
11858.725717905407
 20
309.1299881806242
 11
11922.911113017313
 21
373.29965539880703
  0
LINE
  8
_0-0_通り芯
  6
CONTINUOUS
 62
    4
 10
11858.0828692462
 20
312.72891534341369
 11
11922.159885715793
 21
376.79057507901604
  0
LINE
  8
_0-0_通り芯
  6
CONTINUOUS
 62
    4
 10
11855.514443887247
 20
327.12645659575628
 11
11919.160172745989
 21
390.75701430037185
  0
LINE
  8
_0-0_通り芯
  6
CONTINUOUS
 62
    4
 10
11852.945276208826
 20
341.52397465061483
 11
11916.158975137247
 21
404.72250242491015
  0
LINE
  8
_0-0_通り芯
  6
CONTINUOUS
 62
    4
 10
11852.303169869088
 20
345.12380651525547
 11
11915.409232474663
 21
408.21428041200392
  0
LINE
  8
_0-0_通り芯
  6
CONTINUOUS
 62
    4
 10
11853.588124868033
 20
337.925024290343
 11
11916.909460119299
 21
401.23155954721796
  0
LINE
  8
_0-0_通り芯
  6
CONTINUOUS
 62
    4
 10
11854.872337547509
 20
330.72626526291288
 11
11918.408945444469
 21
394.24791078309767
  0
LINE
  8
_0-0_通り芯
  6
CONTINUOUS
 62
    4
 10
11854.229488888303
 20
334.32521562318556
 11
11917.659202781884
 21
397.73973516515781
  0
LINE
  8
_0-0_通り芯
  6
CONTINUOUS
 62
    4
 10
11861.294885583826
 20
294.73244692828246
 11
11925.910825987121
 21
359.3332625724176
  0
LINE
  8
_0-0_通り芯
  6
CONTINUOUS
 62
    4
 10
11841.469017235009
 20
279.15290110820081
 11
11856.076379724451
 21
293.75648240785353
  0
LINE
  8
_0-0_通り芯
  6
CONTINUOUS
 62
    4
 10
11841.469017235009
 20
274.91140365600586
 11
11860.318735483532
 21
293.75648240785353
  0
LINE
  8
_0-0_通り芯
  6
CONTINUOUS
 62
    4
 10
11841.469017235009
 20
266.42847834406638
 11
11927.411795951226
 21
352.35051851014845
  0
LINE
  8
_0-0_通り芯
  6
CONTINUOUS
 62
    4
 10
11841.469017235009
 20
270.66992940129495
 11
11926.661310969173
 21
355.84234289220859
  0
LINE
  8
_0-0_通り芯
  6
CONTINUOUS
 62
    4
 10
11860.652036924621
 20
298.33139728855429
 11
11925.161083324536
 21
362.82508695447774
  0
LINE
  8
_0-0_通り芯
  6
CONTINUOUS
 62
    4
 10
11859.367824245144
 20
305.53015631598441
 11
11923.6608556799
 21
369.80785421423008
  0
LINE
  8
_0-0_通り芯
  6
CONTINUOUS
 62
    4
 10
11841.469017235009
 20
291.8773006748512
 11
11843.348570127746
 21
293.75648240785353
  0
LINE
  8
_0-0_通り芯
  6
CONTINUOUS
 62
    4
 10
11841.469017235009
 20
287.63582642013944
 11
11847.590925886825
 21
293.75648240785353
  0
LINE
  8
_0-0_通り芯
  6
CONTINUOUS
 62
    4
 10
11841.469017235009
 20
283.39437536291172
 11
11851.834023965372
 21
293.75648240785353
  0
LINE
  8
_0-0_通り芯
  6
CONTINUOUS
 62
    4
 10
11860.010672904351
 20
301.93122915319492
 11
11924.410598342485
 21
366.3159834372027
  0
LINE
  8
_0-0_通り芯
  6
CONTINUOUS
 62
    4
 10
11842.669347814612
 20
399.1140468700516
 11
11904.156411660684
 21
460.58626432676562
  0
LINE
  8
_0-0_通り芯
  6
CONTINUOUS
 62
    4
 10
11842.026499155407
 20
402.71295083535705
 11
11903.406668998101
 21
464.07808870882576
  0
LINE
  8
_0-0_通り芯
  6
CONTINUOUS
 62
    4
 10
11843.311454154351
 20
395.51421500541096
 11
11904.906896642737
 21
457.09532144907342
  0
LINE
  8
_0-0_通り芯
  6
CONTINUOUS
 62
    4
 10
11844.595666833826
 20
388.31543278049764
 11
11906.407124287374
 21
450.11260058428832
  0
LINE
  8
_0-0_通り芯
  6
CONTINUOUS
 62
    4
 10
11843.953560494088
 20
391.91526464513828
 11
11905.656639305322
 21
453.60349706701328
  0
LINE
  8
_0-0_通り芯
  6
CONTINUOUS
 62
    4
 10
11841.469017235009
 20
406.39698956463747
 11
11902.656184016048
 21
467.56991309088676
  0
LINE
  8
_0-0_通り芯
  6
CONTINUOUS
 62
    4
 10
11841.469017235009
 20
423.3628865834828
 11
11891.460521801098
 21
473.34242124815233
  0
LINE
  8
_0-0_通り芯
  6
CONTINUOUS
 62
    4
 10
11841.469017235009
 20
427.60436083819457
 11
11887.218166042019
 21
473.34242124815233
  0
LINE
  8
_0-0_通り芯
  6
CONTINUOUS
 62
    4
 10
11841.469017235009
 20
419.1214123287719
 11
11895.702877560178
 21
473.34242124815233
  0
LINE
  8
_0-0_通り芯
  6
CONTINUOUS
 62
    4
 10
11841.469017235009
 20
410.63846381934923
 11
11901.905699033996
 21
471.06080957361172
  0
LINE
  8
_0-0_通り芯
  6
CONTINUOUS
 62
    4
 10
11841.469017235009
 20
414.87993807406014
 11
11899.945975638726
 21
473.34242124815233
  0
LINE
  8
_0-0_通り芯
  6
CONTINUOUS
 62
    4
 10
11849.734744510137
 20
359.52132457011487
 11
11912.408777185388
 21
422.18069643587654
  0
LINE
  8
_0-0_通り芯
  6
CONTINUOUS
 62
    4
 10
11849.09189585093
 20
363.12022853542032
 11
11911.658292203338
 21
425.67163931356873
  0
LINE
  8
_0-0_通り芯
  6
CONTINUOUS
 62
    4
 10
11850.376108530407
 20
355.92146950799105
 11
11913.158519847973
 21
418.6888720538164
  0
LINE
  8
_0-0_通り芯
  6
CONTINUOUS
 62
    4
 10
11851.661063529351
 20
348.72273367804496
 11
11914.658747492611
 21
411.70615118903129
  0
LINE
  8
_0-0_通り芯
  6
CONTINUOUS
 62
    4
 10
11851.018957189612
 20
352.32256554268474
 11
11913.908262510558
 21
415.19704767175625
  0
LINE
  8
_0-0_通り芯
  6
CONTINUOUS
 62
    4
 10
11848.449789511193
 20
366.72008359754415
 11
11910.908549540751
 21
429.16346369562888
  0
LINE
  8
_0-0_通り芯
  6
CONTINUOUS
 62
    4
 10
11845.879879513303
 20
381.11669695055156
 11
11907.907351932012
 21
443.12895182016717
  0
LINE
  8
_0-0_通り芯
  6
CONTINUOUS
 62
    4
 10
11845.238515493033
 20
384.71652881519219
 11
11907.157609269427
 21
446.62077620222732
  0
LINE
  8
_0-0_通り芯
  6
CONTINUOUS
 62
    4
 10
11846.522728172509
 20
377.51774659027888
 11
11908.657836914063
 21
439.63805533744221
  0
LINE
  8
_0-0_通り芯
  6
CONTINUOUS
 62
    4
 10
11847.806940851986
 20
370.3189875628496
 11
11910.157322239231
 21
432.65436017835469
  0
LINE
  8
_0-0_通り芯
  6
CONTINUOUS
 62
    4
 10
11847.165576831716
 20
373.91884262497342
 11
11909.407579576648
 21
436.14623095538207
  0
LINE
  8
_0-0_通り芯
  6
CONTINUOUS
 62
    4
 10
11841.469017235009
 20
262.18700408935547
 11
11928.161538613809
 21
348.8586941280883
  0
LINE
  8
_0-0_通り芯
  6
CONTINUOUS
 62
    4
 10
11905.514113967485
 20
198.97230766914959
 11
11950.665695602829
 21
244.11377520174568
  0
LINE
  8
_0-0_通り芯
  6
CONTINUOUS
 62
    4
 10
11901.271015888937
 20
198.97230766914959
 11
11949.915952940246
 21
247.60562278128987
  0
LINE
  8
_0-0_通り芯
  6
CONTINUOUS
 62
    4
 10
11909.756469726563
 20
198.97230766914959
 11
11951.416922904351
 21
240.62287871902072
  0
LINE
  8
_0-0_通り芯
  6
CONTINUOUS
 62
    4
 10
11918.241923564188
 20
198.97230766914959
 11
11952.916408229519
 21
233.63920675741639
  0
LINE
  8
_0-0_通り芯
  6
CONTINUOUS
 62
    4
 10
11913.998825485642
 20
198.97230766914959
 11
11952.166665566934
 21
237.13103113947653
  0
LINE
  8
_0-0_通り芯
  6
CONTINUOUS
 62
    4
 10
11897.028660129856
 20
198.97230766914959
 11
11949.166210277661
 21
251.09744716335001
  0
LINE
  8
_0-0_通り芯
  6
CONTINUOUS
 62
    4
 10
11880.058494774072
 20
198.97230766914959
 11
11946.165012668918
 21
265.0629584853715
  0
LINE
  8
_0-0_通り芯
  6
CONTINUOUS
 62
    4
 10
11875.816139014993
 20
198.97230766914959
 11
11945.415270006335
 21
268.55478286743164
  0
LINE
  8
_0-0_通り芯
  6
CONTINUOUS
 62
    4
 10
11884.300850533151
 20
198.97230766914959
 11
11946.914755331505
 21
261.57111090582816
  0
LINE
  8
_0-0_通り芯
  6
CONTINUOUS
 62
    4
 10
11892.786304370778
 20
198.97230766914959
 11
11948.41572529561
 21
254.5883900410422
  0
LINE
  8
_0-0_通り芯
  6
CONTINUOUS
 62
    4
 10
11888.543948611699
 20
198.97230766914959
 11
11947.665982633025
 21
258.08021442310235
  0
LINE
  8
_0-0_通り芯
  6
CONTINUOUS
 62
    4
 10
11952.180769636825
 20
198.97230766914959
 11
11958.917318808068
 21
205.70725621403909
  0
LINE
  8
_0-0_通り芯
  6
CONTINUOUS
 62
    4
 10
11947.938413877746
 20
198.97230766914959
 11
11958.167576145481
 21
209.19910379358242
  0
LINE
  8
_0-0_通り芯
  6
CONTINUOUS
 62
    4
 10
11956.423867715372
 20
198.97230766914959
 11
11959.668546109588
 21
202.21635973131328
  0
LINE
  8
_0-0_通り芯
  6
CONTINUOUS
 62
    4
 10
11780.408787082981
 20
464.11246737918361
 11
11789.641014305322
 21
473.34242124815233
  0
LINE
  8
_0-0_通り芯
  6
CONTINUOUS
 62
    4
 10
11781.60020982897
 20
469.54471485034844
 11
11785.398658546243
 21
473.34242124815233
  0
LINE
  8
_0-0_通り芯
  6
CONTINUOUS
 62
    4
 10
11943.696058118665
 20
198.97230766914959
 11
11957.417833482898
 21
212.6909745706098
  0
LINE
  8
_0-0_通り芯
  6
CONTINUOUS
 62
    4
 10
11926.725892762881
 20
198.97230766914959
 11
11954.416635874157
 21
226.65643949766405
  0
LINE
  8
_0-0_通り芯
  6
CONTINUOUS
 62
    4
 10
11922.483537003802
 20
198.97230766914959
 11
11953.666893211572
 21
230.14828707720824
  0
LINE
  8
_0-0_通り芯
  6
CONTINUOUS
 62
    4
 10
11930.96824852196
 20
198.97230766914959
 11
11955.167863175677
 21
223.16551981745505
  0
LINE
  8
_0-0_通り芯
  6
CONTINUOUS
 62
    4
 10
11939.453702359588
 20
198.97230766914959
 11
11956.667348500845
 21
216.18187105333476
  0
LINE
  8
_0-0_通り芯
  6
CONTINUOUS
 62
    4
 10
11935.210604281039
 20
198.97230766914959
 11
11955.917605838262
 21
219.6736954353949
  0
LINE
  8
_0-0_通り芯
  6
CONTINUOUS
 62
    4
 10
11857.652323954813
 20
244.43424843453045
 11
11934.162449192356
 21
320.92678997967653
  0
LINE
  8
_0-0_通り芯
  6
CONTINUOUS
 62
    4
 10
11854.749854835305
 20
245.77422786403361
 11
11933.412706529773
 21
324.41859116425348
  0
LINE
  8
_0-0_通り芯
  6
CONTINUOUS
 62
    4
 10
11858.340454101563
 20
240.88108990643434
 11
11934.913676493876
 21
317.43587029946838
  0
LINE
  8
_0-0_通り芯
  6
CONTINUOUS
 62
    4
 10
11859.718941353463
 20
233.7766054514293
 11
11936.413161819048
 21
310.45219833786405
  0
LINE
  8
_0-0_通り芯
  6
CONTINUOUS
 62
    4
 10
11859.030068887247
 20
237.32883608019023
 11
11935.663419156463
 21
313.94402271992419
  0
LINE
  8
_0-0_通り芯
  6
CONTINUOUS
 62
    4
 10
11850.507499076226
 20
245.77422786403361
 11
11932.66222154772
 21
327.90953404194568
  0
LINE
  8
_0-0_通り芯
  6
CONTINUOUS
 62
    4
 10
11841.469017235009
 20
253.70403238244961
 11
11929.661766258447
 21
341.87592686833597
  0
LINE
  8
_0-0_通り芯
  6
CONTINUOUS
 62
    4
 10
11841.469017235009
 20
257.94550663716052
 11
11928.912023595862
 21
345.36775125039611
  0
LINE
  8
_0-0_通り芯
  6
CONTINUOUS
 62
    4
 10
11841.469017235009
 20
249.46258132522189
 11
11930.411508921032
 21
338.38410248627497
  0
LINE
  8
_0-0_通り芯
  6
CONTINUOUS
 62
    4
 10
11846.264400997678
 20
245.77422786403361
 11
11931.912478885137
 21
331.40135842400667
  0
LINE
  8
_0-0_通り芯
  6
CONTINUOUS
 62
    4
 10
11842.022045238598
 20
245.77422786403361
 11
11931.162736222552
 21
334.89318280606682
  0
LINE
  8
_0-0_通り芯
  6
CONTINUOUS
 62
    4
 10
11865.230663402661
 20
205.35495603406758
 11
11942.414072397594
 21
282.52029418945312
  0
LINE
  8
_0-0_通り芯
  6
CONTINUOUS
 62
    4
 10
11864.541048616977
 20
208.9072098603117
 11
11941.664329735009
 21
286.01211857151327
  0
LINE
  8
_0-0_通り芯
  6
CONTINUOUS
 62
    4
 10
11865.920278188345
 20
201.80270220782347
 11
11943.165299699114
 21
279.02935131176093
  0
LINE
  8
_0-0_通り芯
  6
CONTINUOUS
 62
    4
 10
11871.574525575381
 20
198.97230766914959
 11
11944.664785024283
 21
272.04572574512383
  0
LINE
  8
_0-0_通り芯
  6
CONTINUOUS
 62
    4
 10
11867.332169816302
 20
198.97230766914959
 11
11943.915042361699
 21
275.53752692970079
  0
LINE
  8
_0-0_通り芯
  6
CONTINUOUS
 62
    4
 10
11863.852918470227
 20
212.4603683884078
 11
11940.914587072424
 21
289.50396615105745
  0
LINE
  8
_0-0_通り芯
  6
CONTINUOUS
 62
    4
 10
11861.097428605364
 20
226.67116989960505
 11
11937.913389463683
 21
303.4694542755949
  0
LINE
  8
_0-0_通り芯
  6
CONTINUOUS
 62
    4
 10
11860.40781381968
 20
230.22342372585001
 11
11937.163646801098
 21
306.96127865765504
  0
LINE
  8
_0-0_通り芯
  6
CONTINUOUS
 62
    4
 10
11861.785558752112
 20
223.11801137150979
 11
11938.663132126267
 21
299.97762989353475
  0
LINE
  8
_0-0_通り芯
  6
CONTINUOUS
 62
    4
 10
11863.163303684543
 20
216.01262221465277
 11
11940.164102090372
 21
292.99486263378242
  0
LINE
  8
_0-0_通り芯
  6
CONTINUOUS
 62
    4
 10
11862.475173537798
 20
219.56578074274802
 11
11939.414359427788
 21
296.48668701584256
  0
LINE
  8
_0-0_通り芯
  6
CONTINUOUS
 62
    2
 10
8652.4215285842492
 20
1705.6142652356946
 11
8675.6212389146967
 21
1728.8078514305321
  0
LINE
  8
_0-0_通り芯
  6
CONTINUOUS
 62
    2
 10
2100.6243525324639
 20
1915.301884831609
 11
2112.286376953125
 21
1926.9611255542652
  0
LINE
  8
_0-0_通り芯
  6
CONTINUOUS
 62
    2
 10
2090.5924616633233
 20
1917.9989170383765
 11
2112.286376953125
 21
1939.6870793523017
  0
LINE
  8
_0-0_通り芯
  6
CONTINUOUS
 62
    2
 10
2110.6558722418704
 20
1912.604667044975
 11
2112.286376953125
 21
1914.2349861763616
  0
LINE
  8
_0-0_通り芯
  6
CONTINUOUS
 62
    2
 10
2107.3119086188235
 20
1913.503801500475
 11
2112.286376953125
 21
1918.4771563555742
  0
LINE
  8
_0-0_通り芯
  6
CONTINUOUS
 62
    2
 10
2103.9679449957766
 20
1914.4027503761085
 11
2112.286376953125
 21
1922.71914095492
  0
LINE
  8
_0-0_通り芯
  6
CONTINUOUS
 62
    2
 10
2087.2484980402764
 20
1918.8978659140098
 11
2112.286376953125
 21
1943.9290639516469
  0
LINE
  8
_0-0_通り芯
  6
CONTINUOUS
 62
    2
 10
4789.3668922218121
 20
1922.404583080395
 11
4807.4921066696579
 21
1940.5251580315669
  0
LINE
  8
_0-0_通り芯
  6
CONTINUOUS
 62
    2
 10
4789.3668922218121
 20
1926.6465676797402
 11
4804.1483286264784
 21
1941.4237357474665
  0
LINE
  8
_0-0_通り芯
  6
CONTINUOUS
 62
    2
 10
4850.8105303790117
 20
1928.6860904178106
 11
4850.9627058699325
 21
1928.8384514885981
  0
LINE
  8
_0-0_通り芯
  6
CONTINUOUS
 62
    2
 10
2097.2800177496829
 20
1916.2008337072425
 11
2112.286376953125
 21
1931.2031101536106
  0
LINE
  8
_0-0_通り芯
  6
CONTINUOUS
 62
    2
 10
2093.9364252863702
 20
1917.0999681627429
 11
2112.286376953125
 21
1935.4450947529563
  0
LINE
  8
_0-0_通り芯
  6
CONTINUOUS
 62
    2
 10
2080.5611275337842
 20
1920.6959492451438
 11
2102.6883718129748
 21
1942.8176261283259
  0
LINE
  8
_0-0_通り芯
  6
CONTINUOUS
 62
    2
 10
2077.2171639107373
 20
1921.5948981207769
 11
2096.884547053156
 21
1941.2574561866554
  0
LINE
  8
_0-0_通り芯
  6
CONTINUOUS
 62
    2
 10
2070.5292366646436
 20
1923.3929814519111
 11
2085.2774542731204
 21
1938.1371163033152
  0
LINE
  8
_0-0_通り芯
  6
CONTINUOUS
 62
    2
 10
2885.4844789247259
 20
4489.8498947555954
 11
3309.7486341321792
 21
4914.1140499630492
  0
LINE
  8
_0-0_通り芯
  6
CONTINUOUS
 62
    2
 10
2073.8735714474242
 20
1922.4938469964106
 11
2091.0809078732054
 21
1939.6971006651183
  0
LINE
  8
_0-0_通り芯
  6
CONTINUOUS
 62
    2
 10
2067.1856442013304
 20
1924.2919303275446
 11
2079.4728871938341
 21
1936.5765752019111
  0
LINE
  8
_0-0_通り芯
  6
CONTINUOUS
 62
    2
 10
2060.4977169552367
 20
1926.0900136586781
 11
2067.8659799936659
 21
1933.4560497387035
  0
LINE
  8
_0-0_通り芯
  6
CONTINUOUS
 62
    2
 10
2083.9050911568311
 20
1919.7968147896429
 11
2108.4923821526609
 21
1944.3781672297296
  0
LINE
  8
_0-0_通り芯
  6
CONTINUOUS
 62
    2
 10
2063.8416805782836
 20
1925.191064783045
 11
2073.66943359375
 21
1935.0160341005071
  0
LINE
  8
_0-0_通り芯
  6
CONTINUOUS
 62
    2
 10
2057.1543100717909
 20
1926.989148114179
 11
2062.0619696539798
 21
1931.8956942171665
  0
LINE
  8
_0-0_通り芯
  6
CONTINUOUS
 62
    2
 10
2053.810346448744
 20
1927.8880969898121
 11
2056.2579593142955
 21
1930.3351531157625
  0
LINE
  8
_0-0_通り芯
  6
CONTINUOUS
 62
    2
 10
4798.5749940614442
 20
1914.6421484045081
 11
4820.8679611618454
 21
1936.9295481089
  0
LINE
  8
_0-0_通り芯
  6
CONTINUOUS
 62
    2
 10
4815.9864683408996
 20
1919.3230293892523
 11
4830.8996664511196
 21
1934.2323303222656
  0
LINE
  8
_0-0_通り芯
  6
CONTINUOUS
 62
    2
 10
4804.3788188212629
 20
1916.2025039260452
 11
4824.2117392050259
 21
1936.0300424936656
  0
LINE
  8
_0-0_通り芯
  6
CONTINUOUS
 62
    2
 10
4839.2025096996413
 20
1925.5650082150023
 11
4844.2747786238388
 21
1930.6361636599981
  0
LINE
  8
_0-0_通り芯
  6
CONTINUOUS
 62
    2
 10
4821.7902931007184
 20
1920.8835704906567
 11
4834.2434444942992
 21
1933.3331958667652
  0
LINE
  8
_0-0_通り芯
  6
CONTINUOUS
 62
    2
 10
4810.1830147408155
 20
1917.7630450274492
 11
4827.5555172482054
 21
1935.1310936180321
  0
LINE
  8
_0-0_通り芯
  6
CONTINUOUS
 62
    2
 10
2894.35185612859
 20
4494.7770402238184
 11
2930.8754585884717
 21
4531.2909925306167
  0
LINE
  8
_0-0_通り芯
  6
CONTINUOUS
 62
    2
 10
2897.1377810916388
 20
4510.2892901446367
 11
2924.4872428275444
 21
4537.6315142657304
  0
LINE
  8
_0-0_通り芯
  6
CONTINUOUS
 62
    2
 10
2904.4889707823058
 20
4500.6692010003171
 11
2933.0044308224242
 21
4529.1772378457563
  0
LINE
  8
_0-0_通り芯
  6
CONTINUOUS
 62
    2
 10
2885.8383797310498
 20
4490.5079609638942
 11
2928.7459296149182
 21
4533.4043760557433
  0
LINE
  8
_0-0_通り芯
  6
CONTINUOUS
 62
    2
 10
2891.4879876214104
 20
4500.3982543945312
 11
2926.6167718010979
 21
4535.51775958087
  0
LINE
  8
_0-0_通り芯
  6
CONTINUOUS
 62
    2
 10
4789.3668922218121
 20
1943.6146916569892
 11
4790.7728452940246
 21
1945.019902409734
  0
LINE
  8
_0-0_通り芯
  6
CONTINUOUS
 62
    2
 10
7167.6831219647383
 20
4338.2875597154771
 11
7170.3413679793075
 21
4340.9454345703125
  0
LINE
  8
_0-0_通り芯
  6
CONTINUOUS
 62
    2
 10
4789.3668922218121
 20
1930.8885522790861
 11
4800.8049217430316
 21
1942.3232413627009
  0
LINE
  8
_0-0_通り芯
  6
CONTINUOUS
 62
    2
 10
4789.3668922218121
 20
1913.920613881704
 11
4814.1800339157517
 21
1938.7270747004327
  0
LINE
  8
_0-0_通り芯
  6
CONTINUOUS
 62
    2
 10
4789.3668922218121
 20
1918.1625984810491
 11
4810.8362558725721
 21
1939.6262091559331
  0
LINE
  8
_0-0_通り芯
  6
CONTINUOUS
 62
    2
 10
4789.3668922218121
 20
1935.1305368784313
 11
4797.4607725401183
 21
1943.2223758182013
  0
LINE
  8
_0-0_通り芯
  6
CONTINUOUS
 62
    2
 10
4827.59448902027
 20
1922.4439260121937
 11
4837.5875936972134
 21
1932.4344325709988
  0
LINE
  8
_0-0_通り芯
  6
CONTINUOUS
 62
    2
 10
4845.0063344594591
 20
1927.1255493164062
 11
4847.618927826753
 21
1929.7374003642317
  0
LINE
  8
_0-0_通り芯
  6
CONTINUOUS
 62
    2
 10
4833.3983137800888
 20
1924.0044671135981
 11
4840.9310005806592
 21
1931.5351125356312
  0
LINE
  8
_0-0_通り芯
  6
CONTINUOUS
 62
    2
 10
4789.3668922218121
 20
1939.3725214777764
 11
4794.1169944969379
 21
1944.1211391139675
  0
LINE
  8
_0-0_通り芯
  6
CONTINUOUS
 62
    2
 10
4792.7711693016254
 20
1913.081607303104
 11
4817.5241831186659
 21
1937.8283114046665
  0
LINE
  8
_0-0_通り芯
  6
CONTINUOUS
 62
    2
 10
11134.099434517526
 20
3198.16614099451
 11
11117.484097867398
 21
3259.9698040936446
  0
LINE
  8
_0-0_通り芯
  6
CONTINUOUS
 62
    2
 10
7170.3413679793075
 20
4370.80449284734
 11
7108.5380760399075
 21
4354.1891561972134
  0
LINE
  8
_0-0_通り芯
  6
CONTINUOUS
 62
    2
 10
11117.484097867398
 20
2261.0562917348502
 11
11117.484097867398
 21
3200.8511105099242
  0
LINE
  8
_0-0_通り芯
  6
CONTINUOUS
 62
    2
 10
9847.4222544077275
 20
4370.80449284734
 11
9847.4222544077275
 21
4337.5727060678846
  0
LINE
  8
_0-0_通り芯
  6
CONTINUOUS
 62
    2
 10
11117.484097867398
 20
2261.0562917348502
 11
9127.8340932485225
 21
2261.0562917348502
  0
LINE
  8
_0-0_通り芯
  6
CONTINUOUS
 62
    2
 10
2940.5868530273437
 20
4521.6512319203966
 11
2917.0009509937186
 21
4545.06176097973
  0
LINE
  8
_0-0_通り芯
  6
CONTINUOUS
 62
    2
 10
7170.3413679793075
 20
4337.5727060678846
 11
7108.5380760399075
 21
4354.1891561972134
  0
LINE
  8
_0-0_通り芯
  6
CONTINUOUS
 62
    2
 10
9847.4222544077275
 20
4370.80449284734
 11
9909.2248040276609
 21
4354.1891561972134
  0
LINE
  8
_0-0_通り芯
  6
CONTINUOUS
 62
    2
 10
11100.868018897805
 20
2322.8590269346496
 11
11117.484097867398
 21
2261.0562917348502
  0
LINE
  8
_0-0_通り芯
  6
CONTINUOUS
 62
    2
 10
11100.868018897805
 20
3198.16614099451
 11
11117.484097867398
 21
3259.9698040936446
  0
LINE
  8
_0-0_通り芯
  6
CONTINUOUS
 62
    2
 10
7109.22472154772
 20
4354.1891561972134
 11
9909.2248040276609
 21
4354.1891561972134
  0
LINE
  8
_0-0_通り芯
  6
CONTINUOUS
 62
    2
 10
11134.099434517526
 20
2322.8590269346496
 11
11100.868018897805
 21
2322.8590269346496
  0
LINE
  8
_0-0_通り芯
  6
CONTINUOUS
 62
    2
 10
2917.0009509937186
 20
4545.06176097973
 11
2885.2569580078125
 21
4489.4906121331296
  0
LINE
  8
_0-0_通り芯
  6
CONTINUOUS
 62
    2
 10
3659.7663673194679
 20
3849.9189222181162
 11
3905.9785172745992
 21
4096.1307010135142
  0
LINE
  8
_0-0_通り芯
  6
CONTINUOUS
 62
    2
 10
2940.5868530273437
 20
4521.6512319203966
 11
2885.2569580078125
 21
4489.4906121331296
  0
LINE
  8
_0-0_通り芯
  6
CONTINUOUS
 62
    2
 10
3277.9476681271117
 20
4859.0116758604308
 11
3254.5371390677788
 21
4882.5973923141892
  0
LINE
  8
_0-0_通り芯
  6
CONTINUOUS
 62
    2
 10
3239.0378797376479
 20
4984.8248043575804
 11
3663.3016637853675
 21
4560.5606491501267
  0
LINE
  8
_0-0_通り芯
  6
CONTINUOUS
 62
    2
 10
2814.7737245301946
 20
4560.5606491501267
 11
3239.0378797376479
 21
4136.2972362621413
  0
LINE
  8
_0-0_通り芯
  6
CONTINUOUS
 62
    2
 10
2112.286376953125
 20
1912.1663273991767
 11
2050.4827138539904
 21
1928.7825919486384
  0
LINE
  8
_0-0_通り芯
  6
CONTINUOUS
 62
    2
 10
3254.5371390677788
 20
4882.5973923141892
 11
3310.1082879143792
 21
4914.3415708799621
  0
LINE
  8
_0-0_通り芯
  6
CONTINUOUS
 62
    2
 10
2112.286376953125
 20
1945.3981141786321
 11
2050.4827138539904
 21
1928.7825919486384
  0
LINE
  8
_0-0_通り芯
  6
CONTINUOUS
 62
    2
 10
2051.1693593618029
 20
1928.7825919486384
 11
4851.1698130014784
 21
1928.7825919486384
  0
LINE
  8
_0-0_通り芯
  6
CONTINUOUS
 62
    2
 10
2112.286376953125
 20
1945.3981141786321
 11
2112.286376953125
 21
1912.1663273991767
  0
LINE
  8
_0-0_通り芯
  6
CONTINUOUS
 62
    2
 10
8747.4213471283783
 20
2847.8618724926096
 11
8809.2253813872467
 21
2831.2457935230154
  0
LINE
  8
_0-0_通り芯
  6
CONTINUOUS
 62
    2
 10
8271.0281784470008
 20
2847.8618724926096
 11
8209.2248865076017
 21
2831.2457935230154
  0
LINE
  8
_0-0_通り芯
  6
CONTINUOUS
 62
    2
 10
9909.2248040276609
 20
4454.1888675174205
 11
9909.2248040276609
 21
3449.3121172930746
  0
LINE
  8
_0-0_通り芯
  6
CONTINUOUS
 62
    2
 10
8209.2248865076017
 20
2831.2457935230154
 11
8809.2253813872467
 21
2831.2457935230154
  0
LINE
  8
_0-0_通り芯
  6
CONTINUOUS
 62
    2
 10
8304.2247050517308
 20
1718.4289262101456
 11
8714.2255628431176
 21
1718.4289262101456
  0
LINE
  8
_0-0_通り芯
  6
CONTINUOUS
 62
    2
 10
8271.0281784470008
 20
2814.6299001332877
 11
8209.2248865076017
 21
2831.2457935230154
  0
LINE
  8
_0-0_通り芯
  6
CONTINUOUS
 62
    2
 10
8747.4213471283783
 20
2814.6299001332877
 11
8809.2253813872467
 21
2831.2457935230154
  0
LINE
  8
_0-0_通り芯
  6
CONTINUOUS
 62
    2
 10
11134.099434517526
 20
3198.16614099451
 11
11100.868018897805
 21
3198.16614099451
  0
LINE
  8
_0-0_通り芯
  6
CONTINUOUS
 62
    2
 10
9847.4222544077275
 20
4337.5727060678846
 11
9909.2248040276609
 21
4354.1891561972134
  0
LINE
  8
_0-0_通り芯
  6
CONTINUOUS
 62
    2
 10
3277.9476681271117
 20
4859.0116758604308
 11
3310.1082879143792
 21
4914.3415708799621
  0
LINE
  8
_0-0_通り芯
  6
CONTINUOUS
 62
    2
 10
8271.0281784470008
 20
2814.6299001332877
 11
8271.0281784470008
 21
2847.8618724926096
  0
LINE
  8
_0-0_通り芯
  6
CONTINUOUS
 62
    2
 10
11316.697404191302
 20
2638.7981724094702
 11
11384.697579048776
 21
2638.7981724094702
  0
LINE
  8
_0-0_通り芯
  6
CONTINUOUS
 62
    2
 10
11350.696378140838
 20
2604.7982705605996
 11
11350.696378140838
 21
2672.7980742583404
  0
LINE
  8
_0-0_通り芯
  6
CONTINUOUS
 62
    2
 10
8592.9691623997041
 20
4458.9746011270063
 11
8660.9700795766475
 21
4458.9746011270063
  0
LINE
  8
_0-0_通り芯
  6
CONTINUOUS
 62
    2
 10
7170.3413679793075
 20
4370.80449284734
 11
7170.3413679793075
 21
4337.5727060678846
  0
LINE
  8
_0-0_通り芯
  6
CONTINUOUS
 62
    2
 10
11316.697404191302
 20
2589.8921244853254
 11
11384.697579048776
 21
2589.8921244853254
  0
LINE
  8
_0-0_通り芯
  6
CONTINUOUS
 62
    2
 10
8626.96813634924
 20
4424.974884858003
 11
8626.96813634924
 21
4492.9746885557433
  0
LINE
  8
_0-0_通り芯
  6
CONTINUOUS
 62
    2
 10
3484.368896484375
 20
1829.7200589566617
 11
3552.3698136613175
 21
1829.7200589566617
  0
LINE
  8
_0-0_通り芯
  6
CONTINUOUS
 62
    2
 10
11134.099434517526
 20
2322.8590269346496
 11
11117.484097867398
 21
2261.0562917348502
  0
LINE
  8
_0-0_通り芯
  6
CONTINUOUS
 62
    2
 10
8592.9691623997041
 20
4410.0687387827284
 11
8660.9700795766475
 21
4410.0687387827284
  0
LINE
  8
_0-0_通り芯
  6
CONTINUOUS
 62
    2
 10
3518.3682415936446
 20
1795.7201571077915
 11
3518.3682415936446
 21
1863.7199608055321
  0
LINE
  8
_0-0_通り芯
  6
CONTINUOUS
 62
    2
 10
3484.368896484375
 20
1780.8140110325171
 11
3552.3698136613175
 21
1780.8140110325171
  0
LINE
  8
_0-0_通り芯
  6
CONTINUOUS
 62
    2
 10
2914.0879038217909
 20
4539.9609127560179
 11
2918.0995838062186
 21
4543.9720360008441
  0
LINE
  8
_0-0_通り芯
  6
CONTINUOUS
 62
    4
 10
10730.268736143371
 20
198.97230766914959
 11
10756.894250818201
 21
225.59151262850349
  0
LINE
  8
_0-0_通り芯
  6
CONTINUOUS
 62
    4
 10
10784.50630806588
 20
253.19723696322029
 11
10864.347963075381
 21
333.01954527158983
  0
LINE
  8
_0-0_通り芯
  6
CONTINUOUS
 62
    4
 10
10784.50630806588
 20
248.95576270850938
 11
10864.347963075381
 21
328.77809421436211
  0
LINE
  8
_0-0_通り芯
  6
CONTINUOUS
 62
    4
 10
10784.50630806588
 20
244.71431165128166
 11
10864.347963075381
 21
324.5366199596512
  0
LINE
  8
_0-0_通り芯
  6
CONTINUOUS
 62
    4
 10
10734.51109190245
 20
198.97230766914959
 11
10755.936658704602
 21
220.39263184006131
  0
LINE
  8
_0-0_通り芯
  6
CONTINUOUS
 62
    4
 10
10726.02638038429
 20
198.97230766914959
 11
10757.851842931799
 21
230.79041661442972
  0
LINE
  8
_0-0_通り芯
  6
CONTINUOUS
 62
    4
 10
10717.540926546664
 20
198.97230766914959
 11
10759.767027158996
 21
241.18817819131408
  0
LINE
  8
_0-0_通り芯
  6
CONTINUOUS
 62
    4
 10
10784.50630806588
 20
265.92165972735472
 11
10864.347963075381
 21
345.74399123320745
  0
LINE
  8
_0-0_通り芯
  6
CONTINUOUS
 62
    4
 10
10784.50630806588
 20
261.68020867012615
 11
10864.347963075381
 21
341.5024937810125
  0
LINE
  8
_0-0_通り芯
  6
CONTINUOUS
 62
    4
 10
10784.50630806588
 20
257.43873441541524
 11
10864.347963075381
 21
337.2610195263016
  0
LINE
  8
_0-0_通り芯
  6
CONTINUOUS
 62
    4
 10
10721.784024625211
 20
198.97230766914959
 11
10758.809435045398
 21
235.9892974028719
  0
LINE
  8
_0-0_通り芯
  6
CONTINUOUS
 62
    4
 10
10784.50630806588
 20
227.74841463243632
 11
10864.347963075381
 21
307.57072294080587
  0
LINE
  8
_0-0_通り芯
  6
CONTINUOUS
 62
    4
 10
10751.480514938767
 20
198.97230766914959
 11
10752.106290250211
 21
199.5970854888094
  0
LINE
  8
_0-0_通り芯
  6
CONTINUOUS
 62
    4
 10
10784.50630806588
 20
223.50694037772541
 11
10864.347963075381
 21
303.32924868609496
  0
LINE
  8
_0-0_通り芯
  6
CONTINUOUS
 62
    4
 10
10784.50630806588
 20
215.02399186830274
 11
10864.347963075381
 21
294.84632337415547
  0
LINE
  8
_0-0_通り芯
  6
CONTINUOUS
 62
    4
 10
10784.50630806588
 20
219.26546612301365
 11
10864.347963075381
 21
299.08779762886638
  0
LINE
  8
_0-0_通り芯
  6
CONTINUOUS
 62
    4
 10
10784.50630806588
 20
231.98988888714723
 11
10864.347963075381
 21
311.81219719551677
  0
LINE
  8
_0-0_通り芯
  6
CONTINUOUS
 62
    4
 10
10784.50630806588
 20
240.4728373965699
 11
10864.347963075381
 21
320.29514570493944
  0
LINE
  8
_0-0_通り芯
  6
CONTINUOUS
 62
    4
 10
10738.754189980997
 20
198.97230766914959
 11
10754.979066591006
 21
215.19375105161913
  0
LINE
  8
_0-0_通り芯
  6
CONTINUOUS
 62
    4
 10
10742.996545740076
 20
198.97230766914959
 11
10754.021474477408
 21
209.99487026317695
  0
LINE
  8
_0-0_通り芯
  6
CONTINUOUS
 62
    4
 10
10747.238901499157
 20
198.97230766914959
 11
10753.063882363809
 21
204.79596627725158
  0
LINE
  8
_0-0_通り芯
  6
CONTINUOUS
 62
    4
 10
10784.50630806588
 20
236.23136314185899
 11
10864.347963075381
 21
316.05369464771172
  0
LINE
  8
_0-0_通り芯
  6
CONTINUOUS
 62
    4
 10
10691.815103066934
 20
207.18389201808634
 11
10767.429248706716
 21
282.78019879315309
  0
LINE
  8
_0-0_通り芯
  6
CONTINUOUS
 62
    4
 10
10784.50630806588
 20
299.85345376504455
 11
10864.347963075381
 21
379.67573887593005
  0
LINE
  8
_0-0_通り芯
  6
CONTINUOUS
 62
    4
 10
10784.50630806588
 20
295.61200270781683
 11
10864.347963075381
 21
375.43426462121914
  0
LINE
  8
_0-0_通り芯
  6
CONTINUOUS
 62
    4
 10
10784.50630806588
 20
291.37050525562188
 11
10864.347963075381
 21
371.19279036650823
  0
LINE
  8
_0-0_通り芯
  6
CONTINUOUS
 62
    4
 10
10692.558164854308
 20
203.68564193313205
 11
10766.471656593118
 21
277.58131800471091
  0
LINE
  8
_0-0_通り芯
  6
CONTINUOUS
 62
    4
 10
10691.070556640625
 20
210.68121420370545
 11
10768.386840820313
 21
287.97907958159612
  0
LINE
  8
_0-0_通り芯
  6
CONTINUOUS
 62
    4
 10
10689.583690746411
 20
217.67771437361404
 11
10770.302025047509
 21
298.37686435596368
  0
LINE
  8
_0-0_通り芯
  6
CONTINUOUS
 62
    4
 10
10784.50630806588
 20
312.57785333169494
 11
10864.347963075381
 21
392.40013844258044
  0
LINE
  8
_0-0_通り芯
  6
CONTINUOUS
 62
    4
 10
10784.50630806588
 20
308.33640227446722
 11
10864.347963075381
 21
388.15866418786953
  0
LINE
  8
_0-0_通り芯
  6
CONTINUOUS
 62
    4
 10
10784.50630806588
 20
304.09492801975546
 11
10864.347963075381
 21
383.91721313064181
  0
LINE
  8
_0-0_通り芯
  6
CONTINUOUS
 62
    4
 10
10690.327494853251
 20
214.17946428865974
 11
10769.344432933911
 21
293.17793717255427
  0
LINE
  8
_0-0_通り芯
  6
CONTINUOUS
 62
    4
 10
10784.50630806588
 20
274.40463143426058
 11
10864.347963075381
 21
354.22691654514608
  0
LINE
  8
_0-0_通り芯
  6
CONTINUOUS
 62
    4
 10
10704.813859269427
 20
198.97230766914959
 11
10762.639803499789
 21
256.78484375412381
  0
LINE
  8
_0-0_通り芯
  6
CONTINUOUS
 62
    4
 10
10709.056215028506
 20
198.97230766914959
 11
10761.682211386193
 21
251.58596296568163
  0
LINE
  8
_0-0_通り芯
  6
CONTINUOUS
 62
    4
 10
10713.298570787585
 20
198.97230766914959
 11
10760.724619272594
 21
246.38705897975626
  0
LINE
  8
_0-0_通り芯
  6
CONTINUOUS
 62
    4
 10
10784.50630806588
 20
270.16313398206563
 11
10864.347963075381
 21
349.98544229043517
  0
LINE
  8
_0-0_通り芯
  6
CONTINUOUS
 62
    4
 10
10784.50630806588
 20
278.64610568897149
 11
10864.347963075381
 21
358.46839079985784
  0
LINE
  8
_0-0_通り芯
  6
CONTINUOUS
 62
    4
 10
10784.50630806588
 20
287.12903100091097
 11
10864.347963075381
 21
366.95131611179647
  0
LINE
  8
_0-0_通り芯
  6
CONTINUOUS
 62
    4
 10
10693.301968961148
 20
200.18741504566094
 11
10765.514064479519
 21
272.38243721626873
  0
LINE
  8
_0-0_通り芯
  6
CONTINUOUS
 62
    4
 10
10696.328405431799
 20
198.97230766914959
 11
10764.554987726986
 21
267.18260533100818
  0
LINE
  8
_0-0_通り芯
  6
CONTINUOUS
 62
    4
 10
10700.57076119088
 20
198.97230766914959
 11
10763.597395613388
 21
261.98372454256599
  0
LINE
  8
_0-0_通り芯
  6
CONTINUOUS
 62
    4
 10
10784.50630806588
 20
282.88755674619921
 11
10864.347963075381
 21
362.70984185708556
  0
LINE
  8
_0-0_通り芯
  6
CONTINUOUS
 62
    4
 10
10784.50630806588
 20
210.78251761359098
 11
10864.347963075381
 21
290.60482592196053
  0
LINE
  8
_0-0_通り芯
  6
CONTINUOUS
 62
    2
 10
3264.124937315245
 20
4872.9375890783367
 11
3299.4489515149917
 21
4908.2526954444684
  0
LINE
  8
_0-0_通り芯
  6
CONTINUOUS
 62
    2
 10
3257.7840444203971
 20
4879.3259904191309
 11
3269.7483784443625
 21
4891.2866128457563
  0
LINE
  8
_0-0_通り芯
  6
CONTINUOUS
 62
    2
 10
3270.465087890625
 20
4866.5503012167446
 11
3298.78680254962
 21
4894.8638503615921
  0
LINE
  8
_0-0_通り芯
  6
CONTINUOUS
 62
    2
 10
3266.2379496806379
 20
4870.8086168443833
 11
3309.3488950987121
 21
4913.9080563107054
  0
LINE
  8
_0-0_通り芯
  6
CONTINUOUS
 62
    2
 10
3272.57921373522
 20
4864.4205866633238
 11
3292.90020916913
 21
4884.7367570206934
  0
LINE
  8
_0-0_通り芯
  6
CONTINUOUS
 62
    2
 10
3255.6710320550042
 20
4881.4553338128171
 11
3259.8480637009084
 21
4885.631623139253
  0
LINE
  8
ADD_LINE
  6
DOT
 62
    2
 10
-416.68029475856486
 20
-616.35949933851089
 11
-416.68020196863125
 21
9434.58350929054
  0
LINE
  8
ADD_LINE
  6
DOT
 62
    2
 10
13080.299996040963
 20
9434.58350929054
 11
13080.299996040963
 21
-616.35949933851089
  0
LINE
  8
ADD_LINE
  6
DOT
 62
    2
 10
-416.68020196863125
 20
9434.58350929054
 11
13080.299996040963
 21
9434.58350929054
  0
LINE
  8
_0-0_通り芯
  6
CONTINUOUS
 62
    2
 10
3262.0111826303846
 20
4875.0673036317567
 11
3289.5482656118033
 21
4902.5973345782304
  0
LINE
  8
_0-0_通り芯
  6
CONTINUOUS
 62
    2
 10
3259.8981702649917
 20
4877.1962758657091
 11
3279.6486931878167
 21
4896.9419737119933
  0
LINE
  8
_0-0_通り芯
  6
CONTINUOUS
 62
    2
 10
2914.6260854360221
 20
4506.5617329365505
 11
2935.1339597959777
 21
4527.0638543206296
  0
LINE
  8
_0-0_通り芯
  6
CONTINUOUS
 62
    2
 10
11117.484097867398
 20
3259.9698040936446
 11
10097.295152818835
 21
3259.9698040936446
  0
LINE
  8
_0-0_通り芯
  6
CONTINUOUS
 62
    2
 10
2908.4377391918283
 20
4530.0706193253809
 11
2920.2287416200384
 21
4541.8582813159846
  0
LINE
  8
_0-0_通り芯
  6
CONTINUOUS
 62
    2
 10
3276.8059807854729
 20
4860.1618998759504
 11
3281.1273935678846
 21
4864.4825703388942
  0
LINE
  8
_0-0_通り芯
  6
CONTINUOUS
 62
    2
 10
2902.7879457216009
 20
4520.1799547350083
 11
2922.3577138539908
 21
4539.744897790858
  0
LINE
  8
_0-0_通り芯
  6
CONTINUOUS
 62
    2
 10
2934.9005003233215
 20
4518.3456833298142
 11
2939.3924610034842
 21
4522.8370872703754
  0
LINE
  8
_0-0_通り芯
  6
CONTINUOUS
 62
    2
 10
3274.6922261006125
 20
4862.2912432696367
 11
3287.0136157886404
 21
4874.6096636797929
  0
LINE
  8
_0-0_通り芯
  6
CONTINUOUS
 62
    2
 10
3268.3520755252325
 20
4868.6792734506971
 11
3304.6730247703763
 21
4904.9909437024926
  0
LINE
  8
_0-0_通り芯
  6
CONTINUOUS
 62
    2
 10
4851.1698130014784
 20
1828.7828806284313
 11
4851.1698130014784
 21
3950.5388414537588
  0
LINE
  8
_0-0_通り芯
  6
CONTINUOUS
 62
    2
 10
2924.7633856696057
 20
4512.4538937130492
 11
2937.2634887695312
 21
4524.950470795503
  0
LINE
  8
_0-0_通り芯
  6
CONTINUOUS
 62
    2
 10
2051.1693593618029
 20
1828.7828806284313
 11
2051.1693593618029
 21
3950.5388414537588
  0
LINE
  8
_0-0_通り芯
  6
CONTINUOUS
 62
    4
 10
10806.632624445736
 20
198.97230766914959
 11
10864.347963075381
 21
256.67307827923707
  0
LINE
  8
_0-0_通り芯
  6
CONTINUOUS
 62
    4
 10
10802.391011006124
 20
198.97230766914959
 11
10864.347963075381
 21
260.91452933646565
  0
LINE
  8
_0-0_通り芯
  6
CONTINUOUS
 62
    4
 10
10810.875722524283
 20
198.97230766914959
 11
10864.347963075381
 21
252.43160402452617
  0
LINE
  8
_0-0_通り芯
  6
CONTINUOUS
 62
    4
 10
10819.360434042443
 20
198.97230766914959
 11
10864.347963075381
 21
243.94863231762031
  0
LINE
  8
_0-0_通り芯
  6
CONTINUOUS
 62
    4
 10
10815.118078283362
 20
198.97230766914959
 11
10864.347963075381
 21
248.19010657233207
  0
LINE
  8
_0-0_通り芯
  6
CONTINUOUS
 62
    4
 10
10798.148655247043
 20
198.97230766914959
 11
10864.347963075381
 21
265.15600359117656
  0
LINE
  8
_0-0_通り芯
  6
CONTINUOUS
 62
    4
 10
10784.50630806588
 20
202.29956910416917
 11
10864.347963075381
 21
282.1219006100219
  0
LINE
  8
_0-0_通り芯
  6
CONTINUOUS
 62
    4
 10
10784.50630806588
 20
206.54104335888007
 11
10864.347963075381
 21
286.36335166724962
  0
LINE
  8
_0-0_通り芯
  6
CONTINUOUS
 62
    4
 10
10785.420845650338
 20
198.97230766914959
 11
10864.347963075381
 21
277.88042635531014
  0
LINE
  8
_0-0_通り芯
  6
CONTINUOUS
 62
    4
 10
10793.906299487966
 20
198.97230766914959
 11
10864.347963075381
 21
269.39747784588747
  0
LINE
  8
_0-0_通り芯
  6
CONTINUOUS
 62
    4
 10
10789.663943728887
 20
198.97230766914959
 11
10864.347963075381
 21
273.63895210059923
  0
LINE
  8
_0-0_通り芯
  6
CONTINUOUS
 62
    4
 10
10853.300764754013
 20
198.97230766914959
 11
10864.347963075381
 21
210.01686147741367
  0
LINE
  8
_0-0_通り芯
  6
CONTINUOUS
 62
    4
 10
10849.058408994933
 20
198.97230766914959
 11
10864.347963075381
 21
214.25833573212458
  0
LINE
  8
_0-0_通り芯
  6
CONTINUOUS
 62
    4
 10
10857.542378193624
 20
198.97230766914959
 11
10864.347963075381
 21
205.77538722270276
  0
LINE
  8
ADD_LINE
  6
DOT
 62
    2
 10
13080.299996040963
 20
-616.35949933851089
 11
-416.68029475856486
 21
-616.35949933851089
  0
LINE
  8
_0-0_通り芯
  6
CONTINUOUS
 62
    4
 10
10861.785476272173
 20
198.97230766914959
 11
10864.347963075381
 21
201.533912967991
  0
LINE
  8
_0-0_通り芯
  6
CONTINUOUS
 62
    4
 10
10844.816053235852
 20
198.97230766914959
 11
10864.347963075381
 21
218.49980998683634
  0
LINE
  8
_0-0_通り芯
  6
CONTINUOUS
 62
    4
 10
10827.845887880068
 20
198.97230766914959
 11
10864.347963075381
 21
235.46568380819764
  0
LINE
  8
_0-0_通り芯
  6
CONTINUOUS
 62
    4
 10
10823.603532120989
 20
198.97230766914959
 11
10864.347963075381
 21
239.70718126039259
  0
LINE
  8
_0-0_通り芯
  6
CONTINUOUS
 62
    4
 10
10832.088243639148
 20
198.97230766914959
 11
10864.347963075381
 21
231.22423275096992
  0
LINE
  8
_0-0_通り芯
  6
CONTINUOUS
 62
    4
 10
10840.573697476773
 20
198.97230766914959
 11
10864.347963075381
 21
222.74128424154725
  0
LINE
  8
_0-0_通り芯
  6
CONTINUOUS
 62
    4
 10
10836.330599398227
 20
198.97230766914959
 11
10864.347963075381
 21
226.98273529877497
  0
LINE
  8
_0-0_通り芯
  6
CONTINUOUS
 62
    2
 10
4789.3668922218121
 20
1945.3981141786321
 11
4789.3668922218121
 21
1912.1663273991767
  0
LINE
  8
_0-0_通り芯
  6
CONTINUOUS
 62
    2
 10
3730.4771217139992
 20
3779.2081678235854
 11
3306.2133376662796
 21
4203.4715807115708
  0
LINE
  8
_0-0_通り芯
  6
CONTINUOUS
 62
    2
 10
3610.2688763592696
 20
4189.3300236882387
 11
3835.59661040435
 21
4414.6581288930529
  0
LINE
  8
_0-0_通り芯
  6
CONTINUOUS
 62
    2
 10
4020.3911033836571
 20
4069.1221494932438
 11
3596.12657701647
 21
4493.3859335409634
  0
LINE
  8
_0-0_通り芯
  6
CONTINUOUS
 62
    2
 10
3900.8902884818413
 20
4101.2571592588683
 11
3925.8734213339321
 21
4126.233611235748
  0
LINE
  8
_0-0_通り芯
  6
CONTINUOUS
 62
    2
 10
3915.6839731577284
 20
4086.3528689822642
 11
3922.6328256967909
 21
4093.2998657226562
  0
LINE
  8
_0-0_通り芯
  6
CONTINUOUS
 62
    2
 10
8220.1325287690033
 20
2828.3136316247892
 11
8228.1562598975943
 21
2836.3353213748419
  0
LINE
  8
_0-0_通り芯
  6
CONTINUOUS
 62
    2
 10
8213.4449726826442
 20
2830.1111582163221
 11
8216.5493526974242
 21
2833.2149814915015
  0
LINE
  8
_0-0_通り芯
  6
CONTINUOUS
 62
    2
 10
8802.5430215371634
 20
2829.4490092509504
 11
8805.3757126266883
 21
2832.2809580210096
  0
LINE
  8
_0-0_通り芯
  6
CONTINUOUS
 62
    2
 10
8223.4759356524501
 20
2827.4146827491554
 11
8233.9597134976775
 21
2837.8954913165121
  0
LINE
  8
_0-0_通り芯
  6
CONTINUOUS
 62
    2
 10
8216.788379566091
 20
2829.2120237608215
 11
8222.3528062975092
 21
2834.7751514331717
  0
LINE
  8
_0-0_通り芯
  6
CONTINUOUS
 62
    2
 10
8226.8200848553643
 20
2826.5155482936552
 11
8239.7646517366993
 21
2839.456774737384
  0
LINE
  8
_0-0_通り芯
  6
CONTINUOUS
 62
    2
 10
3909.3438225823484
 20
4092.74052800359
 11
3940.2911211993242
 21
4123.6792899466855
  0
LINE
  8
_0-0_通り芯
  6
CONTINUOUS
 62
    2
 10
3907.2304390572212
 20
4094.8695002375421
 11
3946.1773434200804
 21
4133.8063832875841
  0
LINE
  8
_0-0_通り芯
  6
CONTINUOUS
 62
    2
 10
3894.5501379064617
 20
4107.6448182801942
 11
3896.1743329022383
 21
4109.268642116238
  0
LINE
  8
_0-0_通り芯
  6
CONTINUOUS
 62
    2
 10
3917.5193580421242
 20
4084.5030088682438
 11
3894.1095713022596
 21
4108.0887253220017
  0
LINE
  8
_0-0_通り芯
  6
CONTINUOUS
 62
    2
 10
3917.5193580421242
 20
4084.5030088682438
 11
3949.6803489891258
 21
4139.8329038877746
  0
LINE
  8
_0-0_通り芯
  6
CONTINUOUS
 62
    2
 10
3913.570218472868
 20
4088.4818412162163
 11
3928.5186767578125
 21
4103.4262167440884
  0
LINE
  8
_0-0_通り芯
  6
CONTINUOUS
 62
    2
 10
3896.6638925913221
 20
4105.5158460462417
 11
3906.073905326225
 21
4114.9236318227404
  0
LINE
  8
_0-0_通り芯
  6
CONTINUOUS
 62
    2
 10
3903.0036720069679
 20
4099.1281870249159
 11
3935.77225143845
 21
4131.8878586227829
  0
LINE
  8
_0-0_通り芯
  6
CONTINUOUS
 62
    2
 10
3898.776904956715
 20
4103.3861314928208
 11
3915.9734777502117
 21
4120.5786215292446
  0
LINE
  8
_0-0_通り芯
  6
CONTINUOUS
 62
    2
 10
3911.4568349477404
 20
4090.6108134501687
 11
3934.4048989785688
 21
4113.553310084988
  0
LINE
  8
_0-0_通り芯
  6
CONTINUOUS
 62
    2
 10
3905.1170555320946
 20
4096.998472471495
 11
3945.6718238624367
 21
4137.54321948902
  0
LINE
  8
_0-0_通り芯
  6
CONTINUOUS
 62
    2
 10
8747.4213471283783
 20
2837.9687953639677
 11
8755.2201554581934
 21
2845.7651911555108
  0
LINE
  8
_0-0_通り芯
  6
CONTINUOUS
 62
    2
 10
8747.4213471283783
 20
2842.2107799633127
 11
8751.8767485747467
 21
2846.6645111908783
  0
LINE
  8
_0-0_通り芯
  6
CONTINUOUS
 62
    2
 10
8790.9353720175259
 20
2826.3286693676096
 11
8798.6881565403291
 21
2834.07922693201
  0
LINE
  8
_0-0_通り芯
  6
CONTINUOUS
 62
    2
 10
8243.5378615920617
 20
2822.0208039154877
 11
8268.7819197371209
 21
2847.2579956054687
  0
LINE
  8
_0-0_通り芯
  6
CONTINUOUS
 62
    2
 10
8240.194454708615
 20
2822.9197527911215
 11
8262.9784661370359
 21
2845.6976400839317
  0
LINE
  8
_0-0_通り芯
  6
CONTINUOUS
 62
    2
 10
8747.4213471283783
 20
2829.485382904878
 11
8761.906969225085
 21
2843.9671078243773
  0
LINE
  8
_0-0_通り芯
  6
CONTINUOUS
 62
    2
 10
8773.5250112172725
 20
2821.6477883828657
 11
8788.6571935705233
 21
2836.7757023991767
  0
LINE
  8
_0-0_通り芯
  6
CONTINUOUS
 62
    2
 10
8767.7215576171875
 20
2820.0876184411954
 11
8785.3130443676109
 21
2837.6750224345442
  0
LINE
  8
_0-0_通り芯
  6
CONTINUOUS
 62
    2
 10
8747.4213471283783
 20
2825.2433983055325
 11
8765.2503761085318
 21
2843.0677877890098
  0
LINE
  8
_0-0_通り芯
  6
CONTINUOUS
 62
    2
 10
8747.4213471283783
 20
2833.727181924356
 11
8758.5635623416383
 21
2844.866242279878
  0
LINE
  8
_0-0_通り芯
  6
CONTINUOUS
 62
    2
 10
8747.4213471283783
 20
2846.4525789827912
 11
8748.531857052365
 21
2847.5627177470442
  0
LINE
  8
_0-0_通り芯
  6
CONTINUOUS
 62
    2
 10
8230.1634917388092
 20
2825.6162282582877
 11
8245.5681053367825
 21
2841.017130258921
  0
LINE
  8
_0-0_通り芯
  6
CONTINUOUS
 62
    2
 10
8253.569566881335
 20
2819.3243284483215
 11
8271.0281784470008
 21
2836.7779293575804
  0
LINE
  8
_0-0_通り芯
  6
CONTINUOUS
 62
    2
 10
8808.3464751372467
 20
2831.0091791926202
 11
8808.7191195101368
 21
2831.381823565509
  0
LINE
  8
_0-0_通り芯
  6
CONTINUOUS
 62
    2
 10
8796.7388256176109
 20
2827.8888393092802
 11
8802.0315634237759
 21
2833.1800924765098
  0
LINE
  8
_0-0_通り芯
  6
CONTINUOUS
 62
    2
 10
8210.1015657991993
 20
2831.0102926718223
 11
8210.745899097341
 21
2831.6546259699639
  0
LINE
  8
_0-0_通り芯
  6
CONTINUOUS
 62
    2
 10
8250.2254176784209
 20
2820.2225350044873
 11
8271.0281784470008
 21
2841.0195427971917
  0
LINE
  8
_0-0_通り芯
  6
CONTINUOUS
 62
    2
 10
8236.8510478251683
 20
2823.8188872466217
 11
8257.1750125369508
 21
2844.1376557221283
  0
LINE
  8
_0-0_通り芯
  6
CONTINUOUS
 62
    2
 10
8233.5068986222559
 20
2824.7172793826544
 11
8251.3715589368676
 21
2842.5773002005913
  0
LINE
  8
_0-0_通り芯
  6
CONTINUOUS
 62
    2
 10
8246.8820107949759
 20
2821.1214838801202
 11
8271.0281784470008
 21
2845.2615273965375
  0
LINE
  8
_0-0_通り芯
  6
CONTINUOUS
 62
    2
 10
8260.2563806482267
 20
2817.5260595373206
 11
8271.0281784470008
 21
2828.2945168984907
  0
LINE
  8
_0-0_通り芯
  6
CONTINUOUS
 62
    2
 10
8256.9129737647818
 20
2818.4250084129544
 11
8271.0281784470008
 21
2832.5361303381019
  0
LINE
  8
_0-0_通り芯
  6
CONTINUOUS
 62
    2
 10
3894.1095713022596
 20
4108.0887253220017
 11
3949.6803489891258
 21
4139.8329038877746
  0
LINE
  8
_0-0_通り芯
  6
CONTINUOUS
 62
    2
 10
8312.6663620407508
 20
1716.159284437025
 11
8318.8758643897818
 21
1722.3676733068519
  0
LINE
  8
_0-0_通り芯
  6
CONTINUOUS
 62
    2
 10
8309.3222128378366
 20
1717.0578621529241
 11
8313.0731531091642
 21
1720.8078745249156
  0
LINE
  8
_0-0_通り芯
  6
CONTINUOUS
 62
    2
 10
8305.9795482738609
 20
1717.9575533480258
 11
8307.2704418285484
 21
1719.2480757429798
  0
LINE
  8
_0-0_通り芯
  6
CONTINUOUS
 62
    2
 10
8359.4725737700592
 20
1703.5749280774914
 11
8366.0272546716642
 21
1710.1283099200273
  0
LINE
  8
_0-0_通り芯
  6
CONTINUOUS
 62
    2
 10
8349.4430954391883
 20
1706.2717747043921
 11
8366.0272546716642
 21
1722.8522223395273
  0
LINE
  8
_0-0_通り芯
  6
CONTINUOUS
 62
    2
 10
8316.0097689241993
 20
1715.2607067211259
 11
8324.679317989865
 21
1723.9283999881231
  0
LINE
  8
_0-0_通り芯
  6
CONTINUOUS
 62
    2
 10
8342.7555393528291
 20
1708.069301295925
 11
8366.0272546716642
 21
1731.3350780590165
  0
LINE
  8
_0-0_通り芯
  6
CONTINUOUS
 62
    2
 10
8332.72606102196
 20
1710.766147922825
 11
8353.6943590318842
 21
1731.7290641166071
  0
LINE
  8
_0-0_通り芯
  6
CONTINUOUS
 62
    2
 10
8346.0989462362741
 20
1707.1705380001586
 11
8366.0272546716642
 21
1727.0936501992719
  0
LINE
  8
_0-0_通り芯
  6
CONTINUOUS
 62
    2
 10
8339.4128747888517
 20
1708.9688069111594
 11
8365.300523912585
 21
1734.8495895798142
  0
LINE
  8
_0-0_通り芯
  6
CONTINUOUS
 62
    2
 10
8336.0694679054068
 20
1709.8673846270585
 11
8359.4970703125
 21
1733.2888628985429
  0
LINE
  8
_0-0_通り芯
  6
CONTINUOUS
 62
    2
 10
8652.4215285842492
 20
1714.0969353753169
 11
8668.9344251478051
 21
1730.6050068623313
  0
LINE
  8
_0-0_通り芯
  6
CONTINUOUS
 62
    2
 10
8714.2255628431176
 20
1661.0563535948058
 11
8714.2255628431176
 21
2161.0562092549094
  0
LINE
  8
_0-0_通り芯
  6
CONTINUOUS
 62
    2
 10
8652.4215285842492
 20
1709.8555075155723
 11
8672.27783203125
 21
1729.7064291464317
  0
LINE
  8
_0-0_通り芯
  6
CONTINUOUS
 62
    2
 10
8652.4215285842492
 20
1718.3383632350613
 11
8665.5910182643584
 21
1731.5037701580977
  0
LINE
  8
_0-0_通り芯
  6
CONTINUOUS
 62
    2
 10
8652.4215285842492
 20
1722.579605514939
 11
8662.2483537003809
 21
1732.4034613531992
  0
LINE
  8
_0-0_通り芯
  6
CONTINUOUS
 62
    2
 10
8652.4215285842492
 20
1701.8130328204179
 11
8652.4215285842492
 21
1735.0448195998733
  0
LINE
  8
_0-0_通り芯
  6
CONTINUOUS
 62
    2
 10
8352.7865023226368
 20
1705.3731969884925
 11
8366.0272546716642
 21
1718.6109800596496
  0
LINE
  8
_0-0_通り芯
  6
CONTINUOUS
 62
    2
 10
8362.8159806535059
 20
1702.676164781725
 11
8366.0272546716642
 21
1705.88706764015
  0
LINE
  8
_0-0_通り芯
  6
CONTINUOUS
 62
    2
 10
8356.1299092060817
 20
1704.4744336927258
 11
8366.0272546716642
 21
1714.3697377797719
  0
LINE
  8
_0-0_通り芯
  6
CONTINUOUS
 62
    2
 10
8652.4215285842492
 20
1701.8130328204179
 11
8714.2255628431176
 21
1718.4289262101456
  0
LINE
  8
_0-0_通り芯
  6
CONTINUOUS
 62
    2
 10
8652.4215285842492
 20
1735.0448195998733
 11
8714.2255628431176
 21
1718.4289262101456
  0
LINE
  8
_0-0_通り芯
  6
CONTINUOUS
 62
    2
 10
3689.7197001689192
 20
3902.3559982712204
 11
3692.1853142815667
 21
3904.820127744933
  0
LINE
  8
_0-0_通り芯
  6
CONTINUOUS
 62
    2
 10
3672.7714332374367
 20
3872.6858602987759
 11
3698.5726021431592
 21
3898.4803483292867
  0
LINE
  8
_0-0_通り芯
  6
CONTINUOUS
 62
    2
 10
3684.0706490181592
 20
3892.4660760003171
 11
3694.3139153557854
 21
3902.70711537954
  0
LINE
  8
_0-0_通り芯
  6
CONTINUOUS
 62
    2
 10
3676.9785288217909
 20
3859.9235328468117
 11
3707.0892333984375
 21
3890.0271853885142
  0
LINE
  8
_0-0_通り芯
  6
CONTINUOUS
 62
    2
 10
3667.1220109269425
 20
3862.7955668681375
 11
3700.7015743771117
 21
3896.3673359638938
  0
LINE
  8
_0-0_通り芯
  6
CONTINUOUS
 62
    2
 10
3678.421226707665
 20
3882.5761537294134
 11
3696.4436299092063
 21
3900.5937318544134
  0
LINE
  8
_0-0_通り芯
  6
CONTINUOUS
 62
    2
 10
3715.0962623389992
 20
3882.0795420053846
 11
3659.7663673194679
 21
3849.9189222181162
  0
LINE
  8
_0-0_通り芯
  6
CONTINUOUS
 62
    2
 10
3715.0962623389992
 20
3882.0795420053846
 11
3691.5105458852408
 21
3905.4904422244517
  0
LINE
  8
_0-0_通り芯
  6
CONTINUOUS
 62
    2
 10
3691.5105458852408
 20
3905.4904422244517
 11
3659.7663673194679
 21
3849.9189222181162
  0
LINE
  8
_0-0_通り芯
  6
CONTINUOUS
 62
    2
 10
3697.2509023305533
 20
3871.7074832400767
 11
3711.3479201858108
 21
3885.8000471785267
  0
LINE
  8
_0-0_通り芯
  6
CONTINUOUS
 62
    2
 10
3707.3876458245354
 20
3877.598901697108
 11
3713.4768924197638
 21
3883.6870348131338
  0
LINE
  8
_0-0_通り芯
  6
CONTINUOUS
 62
    2
 10
8326.0392472550684
 20
1712.5636745143581
 11
8342.0881941511834
 21
1728.6087242332665
  0
LINE
  8
_0-0_通り芯
  6
CONTINUOUS
 62
    2
 10
8304.2247050517308
 20
1661.0563535948058
 11
8304.2247050517308
 21
2161.0562092549094
  0
LINE
  8
_0-0_通り芯
  6
CONTINUOUS
 62
    2
 10
8329.3826541385133
 20
1711.6649112185919
 11
8347.8909054317992
 21
1730.1683374353361
  0
LINE
  8
_0-0_通り芯
  6
CONTINUOUS
 62
    2
 10
8322.696582691091
 20
1713.4631801295925
 11
8336.2854828705658
 21
1727.0489254513304
  0
LINE
  8
_0-0_通り芯
  6
CONTINUOUS
 62
    2
 10
8319.3531758076442
 20
1714.361943425359
 11
8330.4820292704808
 21
1725.4880131901923
  0
LINE
  8
_0-0_通り芯
  6
CONTINUOUS
 62
    2
 10
8366.0272546716642
 20
1701.8130328204179
 11
8366.0272546716642
 21
1735.0448195998733
  0
LINE
  8
_0-0_通り芯
  6
CONTINUOUS
 62
    2
 10
3661.472217456715
 20
3852.9056445972346
 11
3702.8312889305325
 21
3894.2535812790329
  0
LINE
  8
_0-0_通り芯
  6
CONTINUOUS
 62
    2
 10
3687.114529996305
 20
3865.8149513038429
 11
3709.2185767921242
 21
3887.9130595439187
  0
LINE
  8
_0-0_通り芯
  6
CONTINUOUS
 62
    2
 10
3666.8417853278088
 20
3854.0313720703125
 11
3704.960261164485
 21
3892.1401977539062
  0
LINE
  8
_0-0_通り芯
  6
CONTINUOUS
 62
    2
 10
8366.0272546716642
 20
1735.0448195998733
 11
8304.2247050517308
 21
1718.4289262101456
  0
LINE
  8
_0-0_通り芯
  6
CONTINUOUS
 62
    2
 10
8366.0272546716642
 20
1701.8130328204179
 11
8304.2247050517308
 21
1718.4289262101456
  0
LINE
  8
_0-0_通り芯
  6
CONTINUOUS
 62
    2
 10
8785.1319184174408
 20
2824.7683138460725
 11
8795.344007337415
 21
2834.977247908309
  0
LINE
  8
_0-0_通り芯
  6
CONTINUOUS
 62
    2
 10
11108.362476245778
 20
3226.0424639727621
 11
11122.740462019638
 21
3240.4171093090163
  0
LINE
  8
_0-0_通り芯
  6
CONTINUOUS
 62
    2
 10
11113.040573532517
 20
3243.4439169394004
 11
11120.044357712204
 21
3250.4458453204184
  0
LINE
  8
_0-0_通り芯
  6
CONTINUOUS
 62
    2
 10
11103.684378959038
 20
3208.6410110061233
 11
11125.437308646538
 21
3230.3887444573479
  0
LINE
  8
_0-0_通り芯
  6
CONTINUOUS
 62
    2
 10
11106.803605363177
 20
3220.2423508102834
 11
11123.638668575803
 21
3237.0737024255704
  0
LINE
  8
_0-0_通り芯
  6
CONTINUOUS
 62
    2
 10
11102.124765756969
 20
3202.8408978436446
 11
11126.334772883236
 21
3227.0449664141684
  0
LINE
  8
_0-0_通り芯
  6
CONTINUOUS
 62
    2
 10
11114.600186734586
 20
3249.2440301018792
 11
11119.145408836572
 21
3253.7885098843963
  0
LINE
  8
_0-0_通り芯
  6
CONTINUOUS
 62
    2
 10
11106.209749788852
 20
2302.9871347788221
 11
11126.086838180954
 21
2322.8590269346496
  0
LINE
  8
_0-0_通り芯
  6
CONTINUOUS
 62
    2
 10
11105.311543232687
 20
2306.3305416622679
 11
11121.844482421875
 21
2322.8590269346496
  0
LINE
  8
_0-0_通り芯
  6
CONTINUOUS
 62
    2
 10
11108.90733873522
 20
2292.9593266667548
 11
11132.366860879434
 21
2316.4130958350929
  0
LINE
  8
_0-0_通り芯
  6
CONTINUOUS
 62
    2
 10
11109.92134712838
 20
3231.8425771352408
 11
11121.841513144005
 21
3243.7597738729942
  0
LINE
  8
_0-0_通り芯
  6
CONTINUOUS
 62
    2
 10
11111.481702649915
 20
3237.6438037769217
 11
11120.942564268371
 21
3247.1024384369721
  0
LINE
  8
_0-0_通り芯
  6
CONTINUOUS
 62
    2
 10
11116.096702781884
 20
2266.2157831965264
 11
11119.890697582348
 21
2270.0088500976562
  0
LINE
  8
_0-0_通り芯
  6
CONTINUOUS
 62
    2
 10
11113.400598474451
 20
2276.244519207929
 11
11124.568794869088
 21
2287.410303064295
  0
LINE
  8
_0-0_通り芯
  6
CONTINUOUS
 62
    2
 10
11116.995651657517
 20
2262.8733042124159
 11
11118.331826699747
 21
2264.2085513553106
  0
LINE
  8
_0-0_通り芯
  6
CONTINUOUS
 62
    2
 10
11115.19775390625
 20
2269.5584477605048
 11
11121.44956846495
 21
2275.808963260135
  0
LINE
  8
_0-0_通り芯
  6
CONTINUOUS
 62
    2
 10
11114.299547350085
 20
2272.9018546439506
 11
11123.009923986487
 21
2281.610004321949
  0
LINE
  8
_0-0_通り芯
  6
CONTINUOUS
 62
    2
 10
11110.704494167019
 20
2286.2732552193311
 11
11129.247634475298
 21
2304.8117560309333
  0
LINE
  8
_0-0_通り芯
  6
CONTINUOUS
 62
    2
 10
11116.159799936657
 20
3255.04525674356
 11
11118.246459960938
 21
3257.1311744483742
  0
LINE
  8
_0-0_通り芯
  6
CONTINUOUS
 62
    2
 10
11105.243249841638
 20
3214.4414953283363
 11
11124.537617451437
 21
3233.7310378615921
  0
LINE
  8
_0-0_通り芯
  6
CONTINUOUS
 62
    2
 10
11111.603443042653
 20
2282.9305906553527
 11
11127.688021273227
 21
2299.0116428684546
  0
LINE
  8
_0-0_通り芯
  6
CONTINUOUS
 62
    2
 10
11109.805545291387
 20
2289.6157342034417
 11
11130.807247677365
 21
2310.6127970927473
  0
LINE
  8
_0-0_通り芯
  6
CONTINUOUS
 62
    2
 10
11112.501649598818
 20
2279.5871837719064
 11
11126.129150390625
 21
2293.2113441261085
  0
LINE
  8
_0-0_通り芯
  6
CONTINUOUS
 62
    2
 10
4789.3668922218121
 20
1945.3981141786321
 11
4851.1698130014784
 21
1928.7825919486384
  0
LINE
  8
_0-0_通り芯
  6
CONTINUOUS
 62
    2
 10
8209.2248865076017
 20
2831.2457935230154
 11
8809.2253813872467
 21
2831.2457935230154
  0
LINE
  8
_0-0_通り芯
  6
CONTINUOUS
 62
    2
 10
11110.175962705871
 20
3198.16614099451
 11
11129.031619510137
 21
3217.0166015625
  0
LINE
  8
_0-0_通り芯
  6
CONTINUOUS
 62
    2
 10
11101.691251187711
 20
3198.16614099451
 11
11127.234464078336
 21
3223.7023018501905
  0
LINE
  8
_0-0_通り芯
  6
CONTINUOUS
 62
    2
 10
11114.41831846495
 20
3198.16614099451
 11
11129.930568385769
 21
3213.6739369985221
  0
LINE
  8
_0-0_通り芯
  6
CONTINUOUS
 62
    2
 10
8809.2253813872467
 20
2531.2459172429267
 11
8809.2253813872467
 21
2861.2458924989446
  0
LINE
  8
_0-0_通り芯
  6
CONTINUOUS
 62
    2
 10
8747.4213471283783
 20
2814.6299001332877
 11
8747.4213471283783
 21
2847.8618724926096
  0
LINE
  8
_0-0_通り芯
  6
CONTINUOUS
 62
    2
 10
7109.22472154772
 20
4454.1888675174205
 11
7109.22472154772
 21
3449.3121172930746
  0
LINE
  8
_0-0_通り芯
  6
CONTINUOUS
 62
    2
 10
7118.2698842641475
 20
3259.9698040936446
 11
9900.388233081716
 21
3259.9698040936446
  0
LINE
  8
_0-0_通り芯
  6
CONTINUOUS
 62
    2
 10
4789.3668922218121
 20
1912.1663273991767
 11
4851.1698130014784
 21
1928.7825919486384
  0
LINE
  8
_0-0_通り芯
  6
CONTINUOUS
 62
    2
 10
8209.2248865076017
 20
2861.2458924989446
 11
8209.2248865076017
 21
2531.2459172429267
  0
LINE
  8
_0-0_通り芯
  6
CONTINUOUS
 62
    2
 10
11101.716490049621
 20
2319.7017566577811
 11
11104.874317066091
 21
2322.8590269346496
  0
LINE
  8
_0-0_通り芯
  6
CONTINUOUS
 62
    2
 10
11103.513645481418
 20
2313.0156852103569
 11
11113.359028584249
 21
2322.8590269346496
  0
LINE
  8
_0-0_通り芯
  6
CONTINUOUS
 62
    2
 10
11104.412594357053
 20
2309.6732062262458
 11
11117.602126662798
 21
2322.8590269346496
  0
LINE
  8
_0-0_通り芯
  6
CONTINUOUS
 62
    2
 10
11108.008389859586
 20
2296.3018056508658
 11
11133.925731762036
 21
2322.2132089975721
  0
LINE
  8
_0-0_通り芯
  6
CONTINUOUS
 62
    2
 10
11107.108698664486
 20
2299.6444702148437
 11
11130.329936259501
 21
2322.8590269346496
  0
LINE
  8
_0-0_通り芯
  6
CONTINUOUS
 62
    2
 10
11102.615438925255
 20
2316.35927767367
 11
11109.116672825168
 21
2322.8590269346496
  0
LINE
  8
_0-0_通り芯
  6
CONTINUOUS
 62
    2
 10
11118.661416543497
 20
3198.16614099451
 11
11130.829517261403
 21
3210.3312724345442
  0
LINE
  8
_0-0_通り芯
  6
CONTINUOUS
 62
    2
 10
11105.93360694679
 20
3198.16614099451
 11
11128.13341295397
 21
3220.3600084459463
  0
LINE
  8
_0-0_通り芯
  6
CONTINUOUS
 62
    2
 10
11131.388483820736
 20
3198.16614099451
 11
11133.525621568835
 21
3200.3029075828763
  0
LINE
  8
_0-0_通り芯
  6
CONTINUOUS
 62
    2
 10
11127.146128061657
 20
3198.16614099451
 11
11132.626672693201
 21
3203.64520098712
  0
LINE
  8
_0-0_通り芯
  6
CONTINUOUS
 62
    2
 10
11122.903772302576
 20
3198.16614099451
 11
11131.727723817568
 21
3206.9878655510979
  0
LINE
  8
_0-0_通り芯
  6
CONTINUOUS
 62
    2
 10
9854.8135293496634
 20
4339.5591529639996
 11
9877.8759105785484
 21
4362.6163379566096
  0
LINE
  8
_0-0_通り芯
  6
CONTINUOUS
 62
    2
 10
7110.83703943201
 20
4353.5704329207138
 11
7112.5287854993676
 21
4355.2618078283367
  0
LINE
  8
_0-0_通り芯
  6
CONTINUOUS
 62
    2
 10
7134.2438568940042
 20
4347.2777907912796
 11
7153.1559299778301
 21
4366.1842964790967
  0
LINE
  8
_0-0_通り芯
  6
CONTINUOUS
 62
    2
 10
7114.1811886349242
 20
4352.6718552048142
 11
7118.3329814189192
 21
4356.8221633498733
  0
LINE
  8
_0-0_通り芯
  6
CONTINUOUS
 62
    2
 10
9907.0468387088258
 20
4353.6034661370359
 11
9907.9695418074334
 21
4354.5257980759079
  0
LINE
  8
_0-0_通り芯
  6
CONTINUOUS
 62
    2
 10
9901.2433851087426
 20
4352.0431106154983
 11
9904.6261349239867
 21
4355.4251181112759
  0
LINE
  8
_0-0_通り芯
  6
CONTINUOUS
 62
    2
 10
7157.651416675465
 20
4340.9847775021117
 11
7170.3413679793075
 21
4353.6717595280825
  0
LINE
  8
_0-0_通り芯
  6
CONTINUOUS
 62
    2
 10
7150.9631182696376
 20
4342.7823040936446
 11
7170.3413679793075
 21
4362.1553575670396
  0
LINE
  8
_0-0_通り芯
  6
CONTINUOUS
 62
    2
 10
7140.9321552998317
 20
4345.4795218802792
 11
7164.7628371779983
 21
4369.3046363624371
  0
LINE
  8
_0-0_通り芯
  6
CONTINUOUS
 62
    2
 10
7160.9948235589109
 20
4340.0854574667446
 11
7170.3413679793075
 21
4349.429774928738
  0
LINE
  8
_0-0_通り芯
  6
CONTINUOUS
 62
    2
 10
7154.3072674725508
 20
4341.8833552180113
 11
7170.3413679793075
 21
4357.9133729676942
  0
LINE
  8
_0-0_通り芯
  6
CONTINUOUS
 62
    2
 10
7164.3389727618251
 20
4339.1861374313767
 11
7170.3413679793075
 21
4345.1874191696579
  0
LINE
  8
_0-0_通り芯
  6
CONTINUOUS
 62
    2
 10
8747.4213471283783
 20
2821.0017848659209
 11
8768.5952676309134
 21
2842.1697668127113
  0
LINE
  8
_0-0_通り芯
  6
CONTINUOUS
 62
    2
 10
8756.1146504170192
 20
2816.9670929779877
 11
8778.62548828125
 21
2839.4723634462102
  0
LINE
  8
_0-0_通り芯
  6
CONTINUOUS
 62
    2
 10
8747.4213471283783
 20
2816.7599858464423
 11
8771.9386745143584
 21
2841.2704467773437
  0
LINE
  8
_0-0_通り芯
  6
CONTINUOUS
 62
    2
 10
8779.3284648173558
 20
2823.2079583245354
 11
8792.00060045397
 21
2835.876567943676
  0
LINE
  8
_0-0_通り芯
  6
CONTINUOUS
 62
    2
 10
8761.9181040171025
 20
2818.5274484995252
 11
8781.9696374841642
 21
2838.5739713101775
  0
LINE
  8
_0-0_通り芯
  6
CONTINUOUS
 62
    2
 10
8750.3111968169342
 20
2815.4067374564506
 11
8775.2820813978051
 21
2840.3713123218436
  0
LINE
  8
_0-0_通り芯
  6
CONTINUOUS
 62
    2
 10
7127.5563008076442
 20
4349.0756885425471
 11
7141.5482804581934
 21
4363.0635854360216
  0
LINE
  8
_0-0_通り芯
  6
CONTINUOUS
 62
    2
 10
7117.5253378378384
 20
4351.7729063291808
 11
7124.1364350190042
 21
4358.3825188714109
  0
LINE
  8
_0-0_通り芯
  6
CONTINUOUS
 62
    2
 10
7130.9004500105575
 20
4348.1767396669129
 11
7147.3517340582775
 21
4364.6235697978254
  0
LINE
  8
_0-0_通り芯
  6
CONTINUOUS
 62
    2
 10
7124.2128939241975
 20
4349.9746374181805
 11
7135.7440845386409
 21
4361.503229914485
  0
LINE
  8
_0-0_通り芯
  6
CONTINUOUS
 62
    2
 10
7120.8687447212842
 20
4350.8735862938129
 11
7129.9398886190884
 21
4359.9425032332138
  0
LINE
  8
_0-0_通り芯
  6
CONTINUOUS
 62
    2
 10
9878.0280860694693
 20
4345.8013173696154
 11
9891.2510227512666
 21
4359.0205424540754
  0
LINE
  8
_0-0_通り芯
  6
CONTINUOUS
 62
    2
 10
9872.2246324693842
 20
4344.2413330078125
 11
9887.9076158678217
 21
4359.9202336491762
  0
LINE
  8
_0-0_通り芯
  6
CONTINUOUS
 62
    2
 10
9847.4222544077275
 20
4344.8960587785059
 11
9867.84568992821
 21
4365.3139269029771
  0
LINE
  8
_0-0_通り芯
  6
CONTINUOUS
 62
    2
 10
9847.4222544077275
 20
4370.3468528953754
 11
9847.7830216691309
 21
4370.7072489970442
  0
LINE
  8
_0-0_通り芯
  6
CONTINUOUS
 62
    2
 10
8270.2873436180325
 20
2814.8286561708196
 11
8271.0281784470008
 21
2815.569119840055
  0
LINE
  8
_0-0_通り芯
  6
CONTINUOUS
 62
    2
 10
9889.6364779085743
 20
4348.9227707321579
 11
9897.939321157095
 21
4357.2233870222763
  0
LINE
  8
_0-0_通り芯
  6
CONTINUOUS
 62
    2
 10
9847.4222544077275
 20
4340.6537030194258
 11
9871.1890968116568
 21
4364.4149780273437
  0
LINE
  8
_0-0_通り芯
  6
CONTINUOUS
 62
    2
 10
9860.617725269216
 20
4341.1206219647383
 11
9881.2208021009301
 21
4361.7181314004438
  0
LINE
  8
_0-0_通り芯
  6
CONTINUOUS
 62
    2
 10
9849.0093334301109
 20
4337.9991686021958
 11
9874.5325036951017
 21
4363.5160291517104
  0
LINE
  8
_0-0_通り芯
  6
CONTINUOUS
 62
    2
 10
9883.8315396695525
 20
4347.3613017314183
 11
9894.5944296347134
 21
4358.1215935784421
  0
LINE
  8
_0-0_通り芯
  6
CONTINUOUS
 62
    2
 10
9866.4211788692992
 20
4342.6809774862759
 11
9884.564208984375
 21
4360.8191825248105
  0
LINE
  8
_0-0_通り芯
  6
CONTINUOUS
 62
    2
 10
9895.4399315086575
 20
4350.4827550939617
 11
9901.28272804054
 21
4356.3244381466429
  0
LINE
  8
_0-0_通り芯
  6
CONTINUOUS
 62
    2
 10
9847.4222544077275
 20
4357.6212702570738
 11
9857.8139846389367
 21
4368.010773529878
  0
LINE
  8
_0-0_通り芯
  6
CONTINUOUS
 62
    2
 10
7144.276304502745
 20
4344.580573004645
 11
7170.3413679793075
 21
4370.639697925465
  0
LINE
  8
_0-0_通り芯
  6
CONTINUOUS
 62
    2
 10
7137.5880060969184
 20
4346.3784707559125
 11
7158.9593835779142
 21
4367.7446520006333
  0
LINE
  8
_0-0_通り芯
  6
CONTINUOUS
 62
    2
 10
7147.6197113861917
 20
4343.6816241290117
 11
7170.3413679793075
 21
4366.3977133261196
  0
LINE
  8
_0-0_通り芯
  6
CONTINUOUS
 62
    2
 10
9847.4222544077275
 20
4361.8628836966855
 11
9854.47057775549
 21
4368.9097224055113
  0
LINE
  8
_0-0_通り芯
  6
CONTINUOUS
 62
    2
 10
8266.9439367345858
 20
2815.7276050464529
 11
8271.0281784470008
 21
2819.8107332796662
  0
LINE
  8
_0-0_通り芯
  6
CONTINUOUS
 62
    2
 10
8263.5997875316734
 20
2816.6267395019531
 11
8271.0281784470008
 21
2824.0525322991448
  0
LINE
  8
_0-0_通り芯
  6
CONTINUOUS
 62
    2
 10
9847.4222544077275
 20
4366.1048682960309
 11
9851.1264285525758
 21
4369.8079289616762
  0
LINE
  8
_0-0_通り芯
  6
CONTINUOUS
 62
    2
 10
9847.4222544077275
 20
4349.1376722181167
 11
9864.5015407252977
 21
4366.2121334591429
  0
LINE
  8
_0-0_通り芯
  6
CONTINUOUS
 62
    2
 10
9847.4222544077275
 20
4353.3792856577284
 11
9861.1581338418509
 21
4367.1118246542446
  0
CIRCLE
  8
_0-0_通り芯
  6
CONTINUOUS
 62
    2
 10
3451.2670156118033
 20
4348.4291282860004
 40
1400.0000412399704
  0
ARC
  8
_0-0_通り芯
  6
CONTINUOUS
 62
    7
 10
11302.464170713683
 20
402.0926965249555
 40
21.209098036224777
 50
64.020706176757813
 51
94.119125366210952
  0
ARC
  8
_0-0_通り芯
  6
CONTINUOUS
 62
    7
 10
11304.245737436657
 20
411.31295384587503
 40
12.382686138153076
 50
357.05335998535156
 51
52.669586181640632
  0
CIRCLE
  8
_0-0_通り芯
  6
CONTINUOUS
 62
    2
 10
3451.2670156118033
 20
4348.4291282860004
 40
1270.0000453639675
  0
ARC
  8
_0-0_通り芯
  6
CONTINUOUS
 62
    2
 10
8451.7874227987741
 20
7924.0420779666392
 40
1764.4514341612121
 50
242.80618286132812
 51
271.86546325683594
  0
ARC
  8
_0-0_通り芯
  6
CONTINUOUS
 62
    2
 10
8230.9072958456491
 20
7538.7240848025767
 40
1320.9386567811709
 50
224.51960754394531
 51
243.68994140625
  0
ARC
  8
_0-0_通り芯
  6
CONTINUOUS
 62
    2
 10
8509.2243916279567
 20
7153.0022698479734
 40
1419.0764452960041
 50
200.40940856933594
 51
339.46389770507812
  0
ARC
  8
_0-0_通り芯
  6
CONTINUOUS
 62
    7
 10
11359.544826198269
 20
418.94789515314841
 40
43.114117673925449
 50
355.59483337402344
 51
48.816513061523438
  0
ARC
  8
_0-0_通り芯
  6
CONTINUOUS
 62
    7
 10
11329.898071289063
 20
386.04091953586874
 40
87.40438255103858
 50
48.39422607421875
 51
92.775588989257813
  0
ARC
  8
_0-0_通り芯
  6
CONTINUOUS
 62
    7
 10
11365.53014806799
 20
379.5425621238914
 40
39.215693602690827
 50
258.94282531738281
 51
340.65101623535156
  0
ARC
  8
_0-0_通り芯
  6
CONTINUOUS
 62
    7
 10
11364.900661159207
 20
296.69861922393011
 40
39.258339276184905
 50
4.207489013671875
 51
100.10974121093749
  0
ARC
  8
_0-0_通り芯
  6
CONTINUOUS
 62
    7
 10
11306.665698902028
 20
307.91849961151911
 40
9.6718478041726197
 50
31.515197753906254
 51
72.856124877929688
  0
ARC
  8
_0-0_通り芯
  6
CONTINUOUS
 62
    7
 10
11295.749891126477
 20
266.518043827366
 40
52.48017697720914
 50
74.792526245117188
 51
88.718490600585938
  0
ARC
  8
_0-0_通り芯
  6
CONTINUOUS
 62
    7
 10
11298.571447423987
 20
303.07240615019964
 40
19.106607179383975
 50
0.934661865234375
 51
31.216323852539063
  0
CIRCLE
  8
_0-0_通り芯
  6
CONTINUOUS
 62
    2
 10
3451.1701429212417
 20
4348.4291282860004
 40
299.99999226750555
  0
ARC
  8
_0-0_通り芯
  6
CONTINUOUS
 62
    2
 10
8511.2301388302367
 20
6153.3280656144434
 40
147.89867529997954
 50
30.134155273437504
 51
151.44647216796875
  0
LINE
  8
_0-0_通り芯
  6
CONTINUOUS
 62
    2
 10
8684.2292248817594
 20
6259.9909119897056
 11
8684.2292248817594
 21
6259.9909119897056
  0
LINE
  8
_0-0_通り芯
  6
CONTINUOUS
 62
    2
 10
8684.2292248817594
 20
6259.9909119897056
 11
8688.6583566621066
 21
6278.5842245636395
  0
LINE
  8
_0-0_通り芯
  6
CONTINUOUS
 62
    2
 10
8688.6583566621066
 20
6278.5842245636395
 11
8687.6390419030795
 21
6297.3565293380116
  0
LINE
  8
_0-0_通り芯
  6
CONTINUOUS
 62
    2
 10
8687.6390419030795
 20
6297.3565293380116
 11
8681.2022519678321
 21
6315.7374393314967
  0
LINE
  8
_0-0_通り芯
  6
CONTINUOUS
 62
    2
 10
8681.2022519678321
 20
6315.7374393314967
 11
8669.5435654613757
 21
6333.1684598951324
  0
LINE
  8
_0-0_通り芯
  6
CONTINUOUS
 62
    2
 10
8669.5435654613757
 20
6333.1684598951324
 11
8653.0172256736296
 21
6349.1199582896134
  0
LINE
  8
_0-0_通り芯
  6
CONTINUOUS
 62
    2
 10
8653.0172256736296
 20
6349.1199582896134
 11
8632.1253770763105
 21
6363.1072563080725
  0
LINE
  8
_0-0_通り芯
  6
CONTINUOUS
 62
    2
 10
8632.1253770763105
 20
6363.1072563080725
 11
8607.5028079172644
 21
6374.7053569781328
  0
LINE
  8
_0-0_通り芯
  6
CONTINUOUS
 62
    2
 10
8607.5028079172644
 20
6374.7053569781328
 11
8579.8976625007672
 21
6383.5618578798567
  0
LINE
  8
_0-0_通り芯
  6
CONTINUOUS
 62
    2
 10
8579.8976625007672
 20
6383.5618578798567
 11
8550.1487092014213
 21
6389.4076587149511
  0
LINE
  8
_0-0_通り芯
  6
CONTINUOUS
 62
    2
 10
8550.1487092014213
 20
6389.4076587149511
 11
8519.1598549115315
 21
6392.0651377831582
  0
LINE
  8
_0-0_通り芯
  6
CONTINUOUS
 62
    2
 10
8519.1598549115315
 20
6392.0651377831582
 11
8487.872680287579
 21
6391.4535489277423
  0
LINE
  8
_0-0_通り芯
  6
CONTINUOUS
 62
    2
 10
8487.872680287579
 20
6391.4535489277423
 11
8457.2378302984362
 21
6387.5914749665935
  0
LINE
  8
_0-0_通り芯
  6
CONTINUOUS
 62
    2
 10
8457.2378302984362
 20
6387.5914749665935
 11
8428.1861293590446
 21
6380.59626306272
  0
LINE
  8
_0-0_通り芯
  6
CONTINUOUS
 62
    2
 10
8428.1861293590446
 20
6380.59626306272
 11
8401.6002987015745
 21
6370.6804591900718
  0
LINE
  8
_0-0_通り芯
  6
CONTINUOUS
 62
    2
 10
8401.6002987015745
 20
6370.6804591900718
 11
8378.288135337476
 21
6358.1453500316811
  0
LINE
  8
_0-0_通り芯
  6
CONTINUOUS
 62
    2
 10
8378.288135337476
 20
6358.1453500316811
 11
8358.9579675540426
 21
6343.3718085362534
  0
LINE
  8
_0-0_通り芯
  6
CONTINUOUS
 62
    2
 10
8358.9579675540426
 20
6343.3718085362534
 11
8344.1971327178362
 21
6326.8087212863547
  0
LINE
  8
_0-0_通り芯
  6
CONTINUOUS
 62
    2
 10
8344.1971327178362
 20
6326.8087212863547
 11
8334.4541313260142
 21
6308.9593493067478
  0
LINE
  8
_0-0_通り芯
  6
CONTINUOUS
 62
    2
 10
8334.4541313260142
 20
6308.9593493067478
 11
8330.024999545667
 21
6290.3660367328139
  0
LINE
  8
_0-0_通り芯
  6
CONTINUOUS
 62
    2
 10
8330.024999545667
 20
6290.3660367328139
 11
8331.0443143046941
 21
6271.5937319584418
  0
LINE
  8
_0-0_通り芯
  6
CONTINUOUS
 62
    2
 10
8331.0443143046941
 20
6271.5937319584418
 11
8337.4811042399415
 21
6253.2128219649567
  0
LINE
  8
_0-0_通り芯
  6
CONTINUOUS
 62
    2
 10
8337.4811042399415
 20
6253.2128219649567
 11
8349.1397907463979
 21
6235.7818014013219
  0
LINE
  8
_0-0_通り芯
  6
CONTINUOUS
 62
    2
 10
8349.1397907463979
 20
6235.7818014013219
 11
8357.5457764248349
 21
6226.8974098368599
  0
LINE
  8
_0-0_通り芯
  6
CONTINUOUS
 62
    2
 10
8733.3782825698181
 20
6337.8174591176612
 11
8733.3782825698181
 21
6337.8174591176612
  0
LINE
  8
_0-0_通り芯
  6
CONTINUOUS
 62
    2
 10
8733.3782825698181
 20
6337.8174591176612
 11
8729.4069084579569
 21
6361.089201927296
  0
LINE
  8
_0-0_通り芯
  6
CONTINUOUS
 62
    2
 10
8729.4069084579569
 20
6361.089201927296
 11
8718.7454225449455
 21
6383.4887872950976
  0
LINE
  8
_0-0_通り芯
  6
CONTINUOUS
 62
    2
 10
8718.7454225449455
 20
6383.4887872950976
 11
8701.717768685281
 21
6404.335615154404
  0
LINE
  8
_0-0_通り芯
  6
CONTINUOUS
 62
    2
 10
8701.717768685281
 20
6404.335615154404
 11
8678.8413235250791
 21
6422.996265189714
  0
LINE
  8
_0-0_通り芯
  6
CONTINUOUS
 62
    2
 10
8678.8413235250791
 20
6422.996265189714
 11
8650.8111762744938
 21
6438.9037429924483
  0
LINE
  8
_0-0_通り芯
  6
CONTINUOUS
 62
    2
 10
8650.8111762744938
 20
6438.9037429924483
 11
8618.4790087737947
 21
6451.5747078991426
  0
LINE
  8
_0-0_通り芯
  6
CONTINUOUS
 62
    2
 10
8618.4790087737947
 20
6451.5747078991426
 11
8582.8272175716247
 21
6460.6241590529262
  0
LINE
  8
_0-0_通り芯
  6
CONTINUOUS
 62
    2
 10
8582.8272175716247
 20
6460.6241590529262
 11
8544.9390643029856
 21
6465.7771334597346
  0
LINE
  8
_0-0_通り芯
  6
CONTINUOUS
 62
    2
 10
8544.9390643029856
 20
6465.7771334597346
 11
8505.9657613326126
 21
6466.8770605997461
  0
LINE
  8
_0-0_通り芯
  6
CONTINUOUS
 62
    2
 10
8505.9657613326126
 20
6466.8770605997461
 11
8467.0914927498179
 21
6463.8905197434024
  0
LINE
  8
_0-0_通り芯
  6
CONTINUOUS
 62
    2
 10
8467.0914927498179
 20
6463.8905197434024
 11
8429.4974335341631
 21
6456.908255423361
  0
LINE
  8
_0-0_通り芯
  6
CONTINUOUS
 62
    2
 10
8429.4974335341631
 20
6456.908255423361
 11
8394.3258601514008
 21
6446.1424202077906
  0
LINE
  8
_0-0_通り芯
  6
CONTINUOUS
 62
    2
 10
8394.3258601514008
 20
6446.1424202077906
 11
8362.6454430610938
 21
6431.9201285519403
  0
LINE
  8
_0-0_通り芯
  6
CONTINUOUS
 62
    2
 10
8362.6454430610938
 20
6431.9201285519403
 11
8335.4187757054642
 21
6414.6735175909453
  0
LINE
  8
_0-0_通り芯
  6
CONTINUOUS
 62
    2
 10
8335.4187757054642
 20
6414.6735175909453
 11
8313.4731265947557
 21
6394.9266168716513
  0
LINE
  8
_0-0_通り芯
  6
CONTINUOUS
 62
    2
 10
8313.4731265947557
 20
6394.9266168716513
 11
8297.475303172163
 21
6373.2794259799985
  0
LINE
  8
_0-0_通り芯
  6
CONTINUOUS
 62
    2
 10
8297.475303172163
 20
6373.2794259799985
 11
8287.9113912070934
 21
6350.3896838572227
  0
LINE
  8
_0-0_通り芯
  6
CONTINUOUS
 62
    2
 10
8287.9113912070934
 20
6350.3896838572227
 11
8285.0719853250303
 21
6326.9528837349571
  0
LINE
  8
_0-0_通り芯
  6
CONTINUOUS
 62
    2
 10
8285.0719853250303
 20
6326.9528837349571
 11
8289.0433594368915
 21
6303.6811409253223
  0
LINE
  8
_0-0_通り芯
  6
CONTINUOUS
 62
    2
 10
8289.0433594368915
 20
6303.6811409253223
 11
8299.7048453499028
 21
6281.2815555575207
  0
LINE
  8
_0-0_通り芯
  6
CONTINUOUS
 62
    2
 10
8299.7048453499028
 20
6281.2815555575207
 11
8316.7324992095673
 21
6260.4347276982144
  0
LINE
  8
_0-0_通り芯
  6
CONTINUOUS
 62
    2
 10
8316.7324992095673
 20
6260.4347276982144
 11
8339.6089443697692
 21
6241.7740776629053
  0
LINE
  8
_0-0_通り芯
  6
CONTINUOUS
 62
    2
 10
8339.6089443697692
 20
6241.7740776629053
 11
8367.6390916203545
 21
6225.8665998601709
  0
LINE
  8
_0-0_通り芯
  6
CONTINUOUS
 62
    2
 10
8367.6390916203545
 20
6225.8665998601709
 11
8399.9712591210518
 21
6213.1956349534757
  0
LINE
  8
_0-0_通り芯
  6
CONTINUOUS
 62
    2
 10
8399.9712591210518
 20
6213.1956349534757
 11
8435.6230503232218
 21
6204.1461837996922
  0
LINE
  8
_0-0_通り芯
  6
CONTINUOUS
 62
    2
 10
8435.6230503232218
 20
6204.1461837996922
 11
8473.5112035918628
 21
6198.9932093928837
  0
LINE
  8
_0-0_通り芯
  6
CONTINUOUS
 62
    2
 10
8473.5112035918628
 20
6198.9932093928837
 11
8512.4845065622358
 21
6197.8932822528723
  0
LINE
  8
_0-0_通り芯
  6
CONTINUOUS
 62
    2
 10
8512.4845065622358
 20
6197.8932822528723
 11
8551.3587751450286
 21
6200.879823109216
  0
LINE
  8
_0-0_通り芯
  6
CONTINUOUS
 62
    2
 10
8551.3587751450286
 20
6200.879823109216
 11
8588.9528343606853
 21
6207.8620874292565
  0
LINE
  8
_0-0_通り芯
  6
CONTINUOUS
 62
    2
 10
8588.9528343606853
 20
6207.8620874292565
 11
8624.1244077434476
 21
6218.6279226448278
  0
LINE
  8
_0-0_通り芯
  6
CONTINUOUS
 62
    2
 10
8624.1244077434476
 20
6218.6279226448278
 11
8655.8048248337545
 21
6232.8502143006781
  0
LINE
  8
_0-0_通り芯
  6
CONTINUOUS
 62
    2
 10
8655.8048248337545
 20
6232.8502143006781
 11
8683.0314921893842
 21
6250.0968252616722
  0
LINE
  8
_0-0_通り芯
  6
CONTINUOUS
 62
    2
 10
8683.0314921893842
 20
6250.0968252616722
 11
8704.9771413000926
 21
6269.8437259809671
  0
LINE
  8
_0-0_通り芯
  6
CONTINUOUS
 62
    2
 10
8704.9771413000926
 20
6269.8437259809671
 11
8720.9749647226854
 21
6291.4909168726199
  0
LINE
  8
_0-0_通り芯
  6
CONTINUOUS
 62
    2
 10
8720.9749647226854
 20
6291.4909168726199
 11
8730.538876687755
 21
6314.3806589953956
  0
LINE
  8
_0-0_通り芯
  6
CONTINUOUS
 62
    2
 10
8730.538876687755
 20
6314.3806589953956
 11
8733.3782825698181
 21
6337.8174591176612
  0
LINE
  8
_0-0_通り芯
  6
CONTINUOUS
 62
    2
 10
8733.3782825698181
 20
6337.8174591176612
 11
8733.3782825698181
 21
6337.8174591176612
  0
CIRCLE
  8
_0-0_通り芯
  6
CONTINUOUS
 62
    2
 10
3451.1701429212417
 20
4348.4291282860004
 40
205.00001134099188
  0
ARC
  8
_0-0_通り芯
  6
DASHED1
 62
    2
 10
8117.417041675466
 20
3342.7996661211996
 40
940.23789070748001
 50
185.60575866699216
 51
237.88139343261716
  0
ARC
  8
_0-0_通り芯
  6
DASHED1
 62
    2
 10
8161.9109282622467
 20
3542.4446312156888
 40
1135.049613746437
 50
241.33935546875
 51
272.38906860351562
  0
ARC
  8
_0-0_通り芯
  6
CONTINUOUS
 62
    2
 10
8401.9273087785059
 20
3883.8885745486705
 40
1625.7707544275233
 50
257.59115600585937
 51
266.5546875
  0
LINE
  8
_0-0_通り芯
  6
CONTINUOUS
 62
    2
 10
7172.2734505777426
 20
6921.5573962401304
 11
7172.2734505777426
 21
6921.5573962401304
  0
LINE
  8
_0-0_通り芯
  6
CONTINUOUS
 62
    2
 10
7172.2734505777426
 20
6921.5573962401304
 11
7201.6158264960341
 21
6776.181540478944
  0
LINE
  8
_0-0_通り芯
  6
CONTINUOUS
 62
    2
 10
7201.6158264960341
 20
6776.181540478944
 11
7272.588741536948
 21
6636.0841435159609
  0
LINE
  8
_0-0_通り芯
  6
CONTINUOUS
 62
    2
 10
7272.588741536948
 20
6636.0841435159609
 11
7289.0650414719621
 21
6612.5435360860156
  0
ARC
  8
_0-0_通り芯
  6
CONTINUOUS
 62
    2
 10
8566.6628450960743
 20
7924.0420779666392
 40
1764.4514341612121
 50
268.13453674316406
 51
297.19383239746094
  0
LINE
  8
_0-0_通り芯
  6
CONTINUOUS
 62
    2
 10
9909.4655302490773
 20
6920.4390165366704
 11
9909.4655302490773
 21
6920.4390165366704
  0
LINE
  8
_0-0_通り芯
  6
CONTINUOUS
 62
    2
 10
9909.4655302490773
 20
6920.4390165366704
 11
9888.2616959038915
 21
7066.3385882930379
  0
LINE
  8
_0-0_通り芯
  6
CONTINUOUS
 62
    2
 10
9888.2616959038915
 20
7066.3385882930379
 11
9825.1565334498282
 21
7207.8251871669872
  0
LINE
  8
_0-0_通り芯
  6
CONTINUOUS
 62
    2
 10
9825.1565334498282
 20
7207.8251871669872
 11
9722.0674613153024
 21
7340.5998144474042
  0
LINE
  8
_0-0_通り芯
  6
CONTINUOUS
 62
    2
 10
9722.0674613153024
 20
7340.5998144474042
 11
9582.1267887915346
 21
7460.6281802715794
  0
LINE
  8
_0-0_通り芯
  6
CONTINUOUS
 62
    2
 10
9582.1267887915346
 20
7460.6281802715794
 11
9409.586542399762
 21
7564.2632834812284
  0
LINE
  8
_0-0_通り芯
  6
CONTINUOUS
 62
    2
 10
9409.586542399762
 20
7564.2632834812284
 11
9209.6892702170207
 21
7648.3562239072171
  0
LINE
  8
_0-0_通り芯
  6
CONTINUOUS
 62
    2
 10
9209.6892702170207
 20
7648.3562239072171
 11
8988.5087497056829
 21
7710.3518801077844
  0
LINE
  8
_0-0_通り芯
  6
CONTINUOUS
 62
    2
 10
8988.5087497056829
 20
7710.3518801077844
 11
8752.7654390587431
 21
7748.3665454405909
  0
LINE
  8
_0-0_通り芯
  6
CONTINUOUS
 62
    2
 10
8752.7654390587431
 20
7748.3665454405909
 11
8509.6222794783353
 21
7761.2451635358493
  0
LINE
  8
_0-0_通り芯
  6
CONTINUOUS
 62
    2
 10
8509.6222794783353
 20
7761.2451635358493
 11
8266.4670528319384
 21
7748.5964240996291
  0
LINE
  8
_0-0_通り芯
  6
CONTINUOUS
 62
    2
 10
8266.4670528319384
 20
7748.5964240996291
 11
8030.6879076387168
 21
7710.8046526791295
  0
LINE
  8
_0-0_通り芯
  6
CONTINUOUS
 62
    2
 10
8030.6879076387168
 20
7710.8046526791295
 11
7809.4488739153667
 21
7649.0181331254034
  0
LINE
  8
_0-0_通り芯
  6
CONTINUOUS
 62
    2
 10
7809.4488739153667
 20
7649.0181331254034
 11
7609.4721877492166
 21
7565.1142175696023
  0
LINE
  8
_0-0_通り芯
  6
CONTINUOUS
 62
    2
 10
7609.4721877492166
 20
7565.1142175696023
 11
7436.8340395563391
 21
7461.6422840284613
  0
LINE
  8
_0-0_通り芯
  6
CONTINUOUS
 62
    2
 10
7436.8340395563391
 20
7461.6422840284613
 11
7296.779952110458
 21
7341.7462748433018
  0
LINE
  8
_0-0_通り芯
  6
CONTINUOUS
 62
    2
 10
7296.779952110458
 20
7341.7462748433018
 11
7193.565397987828
 21
7209.0691695829064
  0
LINE
  8
_0-0_通り芯
  6
CONTINUOUS
 62
    2
 10
7193.565397987828
 20
7209.0691695829064
 11
7130.3264991863807
 21
7067.6422949527587
  0
LINE
  8
_0-0_通り芯
  6
CONTINUOUS
 62
    2
 10
7130.3264991863807
 20
7067.6422949527587
 11
7108.9847376457701
 21
6921.7628349730439
  0
LINE
  8
_0-0_通り芯
  6
CONTINUOUS
 62
    2
 10
7108.9847376457701
 20
6921.7628349730439
 11
7130.1885719909569
 21
6775.8632632166764
  0
LINE
  8
_0-0_通り芯
  6
CONTINUOUS
 62
    2
 10
7130.1885719909569
 20
6775.8632632166764
 11
7193.2937344450202
 21
6634.376664342728
  0
LINE
  8
_0-0_通り芯
  6
CONTINUOUS
 62
    2
 10
7193.2937344450202
 20
6634.376664342728
 11
7296.3828065795442
 21
6501.60203706231
  0
LINE
  8
_0-0_通り芯
  6
CONTINUOUS
 62
    2
 10
7296.3828065795442
 20
6501.60203706231
 11
7436.3234791033119
 21
6381.5736712381349
  0
LINE
  8
_0-0_通り芯
  6
CONTINUOUS
 62
    2
 10
7436.3234791033119
 20
6381.5736712381349
 11
7608.8637254950845
 21
6277.9385680284868
  0
LINE
  8
_0-0_通り芯
  6
CONTINUOUS
 62
    2
 10
7608.8637254950845
 20
6277.9385680284868
 11
7808.7609976778258
 21
6193.8456276024972
  0
LINE
  8
_0-0_通り芯
  6
CONTINUOUS
 62
    2
 10
7808.7609976778258
 20
6193.8456276024972
 11
8029.9415181891627
 21
6131.8499714019299
  0
LINE
  8
_0-0_通り芯
  6
CONTINUOUS
 62
    2
 10
8029.9415181891627
 20
6131.8499714019299
 11
8265.6848288361016
 21
6093.8353060691225
  0
LINE
  8
_0-0_通り芯
  6
CONTINUOUS
 62
    2
 10
8265.6848288361016
 20
6093.8353060691225
 11
8508.8279884165095
 21
6080.9566879738641
  0
LINE
  8
_0-0_通り芯
  6
CONTINUOUS
 62
    2
 10
8508.8279884165095
 20
6080.9566879738641
 11
8751.9832150629063
 21
6093.6054274100843
  0
LINE
  8
_0-0_通り芯
  6
CONTINUOUS
 62
    2
 10
8751.9832150629063
 20
6093.6054274100843
 11
8987.7623602561271
 21
6131.397198830583
  0
LINE
  8
_0-0_通り芯
  6
CONTINUOUS
 62
    2
 10
8987.7623602561271
 20
6131.397198830583
 11
9209.0013939794771
 21
6193.183718384309
  0
LINE
  8
_0-0_通り芯
  6
CONTINUOUS
 62
    2
 10
9209.0013939794771
 20
6193.183718384309
 11
9408.9780801456291
 21
6277.0876339401093
  0
LINE
  8
_0-0_通り芯
  6
CONTINUOUS
 62
    2
 10
9408.9780801456291
 20
6277.0876339401093
 11
9581.6162283385056
 21
6380.5595674812503
  0
LINE
  8
_0-0_通り芯
  6
CONTINUOUS
 62
    2
 10
9581.6162283385056
 20
6380.5595674812503
 11
9721.6703157843876
 21
6500.4555766664089
  0
LINE
  8
_0-0_通り芯
  6
CONTINUOUS
 62
    2
 10
9721.6703157843876
 20
6500.4555766664089
 11
9824.8848699070186
 21
6633.1326819268043
  0
LINE
  8
_0-0_通り芯
  6
CONTINUOUS
 62
    2
 10
9824.8848699070186
 20
6633.1326819268043
 11
9888.1237687084667
 21
6774.559556556952
  0
LINE
  8
_0-0_通り芯
  6
CONTINUOUS
 62
    2
 10
9888.1237687084667
 20
6774.559556556952
 11
9909.4655302490773
 21
6920.4390165366667
  0
LINE
  8
_0-0_通り芯
  6
CONTINUOUS
 62
    2
 10
9909.4655302490773
 20
6920.4390165366667
 11
9909.4655302490773
 21
6920.4390165366704
  0
LINE
  8
_0-0_通り芯
  6
CONTINUOUS
 62
    2
 10
8506.4989463429501
 20
7731.5484006589058
 11
8506.4989463429501
 21
7731.5484006589058
  0
LINE
  8
_0-0_通り芯
  6
CONTINUOUS
 62
    2
 10
8506.4989463429501
 20
7731.5484006589058
 11
8264.6049766723991
 21
7712.0743355238837
  0
LINE
  8
_0-0_通り芯
  6
CONTINUOUS
 62
    2
 10
8264.6049766723991
 20
7712.0743355238837
 11
8032.0431586948225
 21
7667.6917418655421
  0
LINE
  8
_0-0_通り芯
  6
CONTINUOUS
 62
    2
 10
8032.0431586948225
 20
7667.6917418655421
 11
7815.8797655675135
 21
7599.7491623335154
  0
LINE
  8
_0-0_通り芯
  6
CONTINUOUS
 62
    2
 10
7815.8797655675135
 20
7599.7491623335154
 11
7622.6828126066894
 21
7510.3109978262783
  0
LINE
  8
_0-0_通り芯
  6
CONTINUOUS
 62
    2
 10
7622.6828126066894
 20
7510.3109978262783
 11
7458.3224914656912
 21
7402.0947817144888
  0
LINE
  8
_0-0_通り芯
  6
CONTINUOUS
 62
    2
 10
7458.3224914656912
 20
7402.0947817144888
 11
7327.79280733205
 21
7278.3886089646567
  0
LINE
  8
_0-0_通り芯
  6
CONTINUOUS
 62
    2
 10
7327.79280733205
 20
7278.3886089646567
 11
7235.0598386069623
 21
7142.9512290374414
  0
LINE
  8
_0-0_通り芯
  6
CONTINUOUS
 62
    2
 10
7235.0598386069623
 20
7142.9512290374414
 11
7182.9412296199907
 21
6999.8978381873103
  0
LINE
  8
_0-0_通り芯
  6
CONTINUOUS
 62
    2
 10
7182.9412296199907
 20
6999.8978381873103
 11
7172.2560077049347
 21
6920.326700185853
  0
ARC
  8
_0-0_通り芯
  6
CONTINUOUS
 62
    2
 10
8787.5429720491993
 20
7538.7240848025767
 40
1320.9386567811709
 50
296.31005859375
 51
315.48039245605469
  0
LINE
  8
_0-0_通り芯
  6
CONTINUOUS
 62
    2
 10
9846.1781181355891
 20
6920.6194908738698
 11
9846.1781181355891
 21
6920.6194908738698
  0
LINE
  8
_0-0_通り芯
  6
CONTINUOUS
 62
    2
 10
9846.1781181355891
 20
6920.6194908738698
 11
9816.84251792943
 21
7065.9958409309065
  0
LINE
  8
_0-0_通り芯
  6
CONTINUOUS
 62
    2
 10
9816.84251792943
 20
7065.9958409309065
 11
9745.8761331993555
 21
7206.094430591339
  0
LINE
  8
_0-0_通り芯
  6
CONTINUOUS
 62
    2
 10
9745.8761331993555
 20
7206.094430591339
 11
9635.4352416346628
 21
7336.6584351016418
  0
LINE
  8
_0-0_通り芯
  6
CONTINUOUS
 62
    2
 10
9635.4352416346628
 20
7336.6584351016418
 11
9488.8755338397568
 21
7453.7207332533435
  0
LINE
  8
_0-0_通り芯
  6
CONTINUOUS
 62
    2
 10
9488.8755338397568
 20
7453.7207332533435
 11
9310.6501523732004
 21
7553.7244463534862
  0
LINE
  8
_0-0_通り芯
  6
CONTINUOUS
 62
    2
 10
9310.6501523732004
 20
7553.7244463534862
 11
9106.174385264454
 21
7633.6310121838433
  0
LINE
  8
_0-0_通り芯
  6
CONTINUOUS
 62
    2
 10
9106.174385264454
 20
7633.6310121838433
 11
8881.6611252273906
 21
7691.0125101763306
  0
LINE
  8
_0-0_通り芯
  6
CONTINUOUS
 62
    2
 10
8881.6611252273906
 20
7691.0125101763306
 11
8643.9320940590424
 21
7724.125432550888
  0
LINE
  8
_0-0_通り芯
  6
CONTINUOUS
 62
    2
 10
8643.9320940590424
 20
7724.125432550888
 11
8511.9511725565462
 21
7731.5483935963221
  0
LINE
  8
_0-0_通り芯
  6
CONTINUOUS
 62
    2
 10
9729.3853759914018
 20
6612.5437409990855
 11
9729.3853759914018
 21
6612.5437409990855
  0
LINE
  8
_0-0_通り芯
  6
CONTINUOUS
 62
    2
 10
9729.3853759914018
 20
6612.5437409990855
 11
9807.4229549380798
 21
6751.2800768145598
  0
LINE
  8
_0-0_通り芯
  6
CONTINUOUS
 62
    2
 10
9807.4229549380798
 20
6751.2800768145598
 11
9844.1159580158037
 21
6896.0514898009314
  0
LINE
  8
_0-0_通り芯
  6
CONTINUOUS
 62
    2
 10
9844.1159580158037
 20
6896.0514898009314
 11
9846.1246301243773
 21
6920.6311936100101
  0
ARC
  8
_0-0_通り芯
  6
DASHED1
 62
    2
 10
8901.0332262193842
 20
3342.7996661211996
 40
940.23789070748001
 50
302.11860656738281
 51
354.39425659179687
  0
ARC
  8
_0-0_通り芯
  6
DASHED1
 62
    2
 10
8856.5393396326017
 20
3542.4446312156888
 40
1135.049613746437
 50
267.61093139648438
 51
298.66064453125
  0
ARC
  8
_0-0_通り芯
  6
CONTINUOUS
 62
    2
 10
8616.5229591163443
 20
3883.8885745486705
 40
1625.7707544275233
 50
273.4453125
 51
282.40884399414062
  0
ARC
  8
_0-0_通り芯
  6
CONTINUOUS
 62
    2
 10
7982.802602407095
 20
3295.8899008261192
 40
872.38580858385239
 50
183.21040344238284
 51
198.84150695800784
  0
ARC
  8
_0-0_通り芯
  6
CONTINUOUS
 62
    2
 10
8301.608028927365
 20
3535.22668786951
 40
1263.9069015915329
 50
245.89724731445315
 51
258.63626098632812
  0
ARC
  8
_0-0_通り芯
  6
CONTINUOUS
 62
    2
 10
8075.1835178684551
 20
3312.4785139754013
 40
965.27734704919772
 50
198.00247192382812
 51
216.72012329101562
  0
ARC
  8
_0-0_通り芯
  6
CONTINUOUS
 62
    2
 10
8100.0653241131768
 20
3319.841580777555
 40
989.66402620882593
 50
216.2005310058594
 51
251.46467590332034
  0
ARC
  8
_0-0_通り芯
  6
CONTINUOUS
 62
    2
 10
8943.2667500263942
 20
3312.4785139754013
 40
965.27734704919772
 50
323.27987670898437
 51
341.99751281738281
  0
ARC
  8
_0-0_通り芯
  6
CONTINUOUS
 62
    2
 10
8918.3849437816734
 20
3319.841580777555
 40
989.66402620882593
 50
288.53532409667969
 51
323.79948425292969
  0
ARC
  8
_0-0_通り芯
  6
CONTINUOUS
 62
    2
 10
9035.6476654877533
 20
3295.8899008261192
 40
872.38580858385239
 50
341.15849304199219
 51
356.78959655761719
  0
ARC
  8
_0-0_通り芯
  6
CONTINUOUS
 62
    2
 10
8716.8422389674834
 20
3535.2263167097763
 40
1263.9069015915329
 50
281.36373901367187
 51
294.10275268554688
  0
ARC
  8
_0-0_通り芯
  6
CONTINUOUS
 62
    2
 10
9905.5666536898243
 20
3255.32696698163
 40
3.6314333612854419
 50
354.15071105957031
 51
64.005020141601548
  0
ARC
  8
_0-0_通り芯
  6
CONTINUOUS
 62
    2
 10
9865.4865986592067
 20
3264.4656619510138
 40
44.716280859869876
 50
337.05587768554687
 51
347.72203063964844
  0
ARC
  8
_0-0_通り芯
  6
CONTINUOUS
 62
    2
 10
9900.8774216110633
 20
3244.9693834459463
 40
15.000000193312363
 50
65.24090576171875
 51
89.999984741210937
  0
ARC
  8
_0-0_通り芯
  6
CONTINUOUS
 62
    2
 10
7117.5735886032526
 20
3244.96975460568
 40
15.000000193312363
 50
90
 51
114.75909423828125
  0
ARC
  8
_0-0_通り芯
  6
CONTINUOUS
 62
    7
 10
11598.599903003591
 20
355.80436861192851
 40
117.9735041953422
 50
65.747802734374986
 51
79.04827880859375
  0
ARC
  8
_0-0_通り芯
  6
CONTINUOUS
 62
    7
 10
11602.456994958826
 20
378.44970548475118
 40
95.916797663714448
 50
44.176528930664055
 51
62.289947509765618
  0
ARC
  8
_0-0_通り芯
  6
CONTINUOUS
 62
    7
 10
11613.333459802576
 20
410.54024567475153
 40
67.541891175347416
 50
9.3054656982421875
 51
30.965438842773441
  0
ARC
  8
_0-0_通り芯
  6
CONTINUOUS
 62
    7
 10
11594.43623310811
 20
276.68536160443239
 40
196.7468802993362
 50
82.236679077148437
 51
91.73565673828125
  0
ARC
  8
_0-0_通り芯
  6
CONTINUOUS
 62
    7
 10
11302.464170713683
 20
383.51812362670898
 40
21.209098036224777
 50
265.88087463378906
 51
295.97930908203125
  0
ARC
  8
_0-0_通り芯
  6
CONTINUOUS
 62
    7
 10
11304.245737436657
 20
374.29784310830627
 40
12.382686138153076
 50
307.33042907714844
 51
2.9466400146484619
  0
ARC
  8
_0-0_通り芯
  6
CONTINUOUS
 62
    7
 10
11568.049745301943
 20
402.87765296729845
 40
22.532469517475853
 50
353.68035888671875
 51
91.914001464843736
  0
ARC
  8
_0-0_通り芯
  6
CONTINUOUS
 62
    7
 10
11568.049745301943
 20
265.88319829992344
 40
22.532469517475853
 50
268.08598327636719
 51
6.3196258544921911
  0
ARC
  8
_0-0_通り芯
  6
CONTINUOUS
 62
    2
 10
7112.8836142050259
 20
3255.32696698163
 40
3.6314333612854419
 50
115.99496459960939
 51
185.84928894042969
  0
ARC
  8
_0-0_通り芯
  6
CONTINUOUS
 62
    2
 10
7152.96441155511
 20
3264.4660331107475
 40
44.716280859869876
 50
192.2779541015625
 51
202.9441223144531
  0
ARC
  8
_0-0_通り芯
  6
CONTINUOUS
 62
    7
 10
11613.333459802576
 20
261.77448324255039
 40
67.541891175347416
 50
329.03456115722656
 51
350.69453430175781
  0
ARC
  8
_0-0_通り芯
  6
CONTINUOUS
 62
    7
 10
11594.43623310811
 20
395.62936731286953
 40
196.7468802993362
 50
268.26434326171875
 51
277.7633056640625
  0
ARC
  8
_0-0_通り芯
  6
CONTINUOUS
 62
    7
 10
11598.599903003591
 20
316.51038350285745
 40
117.9735041953422
 50
280.95172119140625
 51
294.252197265625
  0
ARC
  8
_0-0_通り芯
  6
CONTINUOUS
 62
    7
 10
11602.456994958826
 20
293.86504663003478
 40
95.916797663714448
 50
297.71005249023437
 51
315.82347106933594
  0
TEXT
  8
_0-0_通り芯
 62
    6
 10
11105.257655788115
 20
2548.7171482395484
 40
150
 41
1
 50
0
  1
 (  5mm )
  0
TEXT
  8
_0-0_通り芯
 62
    6
 10
8381.52978515625
 20
4368.8937625369517
 40
150
 41
1
 50
0
  1
 (  5mm )
  0
TEXT
  8
_0-0_通り芯
 62
    6
 10
8050.8122690561668
 20
4370.9407084697004
 40
150
 41
1
 50
0
  1
φ280
  0
TEXT
  8
_0-0_通り芯
 62
    6
 10
3272.9291480811867
 20
1739.6392203666071
 40
150
 41
1
 50
0
  1
 (  5mm )
  0
TEXT
  8
_0-0_通り芯
 62
    6
 10
2942.2115391911684
 20
1741.6863518792231
 40
150
 41
1
 50
0
  1
φ280
  0
TEXT
  8
_0-0_通り芯
 62
    6
 10
11176.667170344173
 20
2723.3804651208829
 40
150
 41
1
 50
0
  1
100
  0
TEXT
  8
_0-0_通り芯
 62
    6
 10
8342.0874567805113
 20
1522.5472424481368
 40
150
 41
1
 50
0
  1
φ41
  0
TEXT
  8
_0-0_通り芯
 62
    6
 10
3835.0515224535729
 20
3750.1268454337192
 40
150
 41
1
 50
44.999950025820318
  1
φ41
  0
TEXT
  8
_0-0_通り芯
 62
    6
 10
8422.8525126689201
 20
2834.9241720663535
 40
150
 41
1
 50
0
  1
60
  0
TEXT
  8
_0-0_通り芯
 62
    6
 10
2976.6533323933959
 20
4600.8338634869287
 40
150
 41
1
 50
44.999950025820318
  1
φ60
  0
TEXT
  8
_0-0_通り芯
 62
    7
 10
10542.275811593969
 20
29.510620420896885
 40
120
 41
1.125
 50
0
  1
ＩＮＴＥＲＮＡＴＩＯＮＡＬ
  0
ENDSEC
  0
EOF
