  0
SECTION
  2
HEADER
  9
$ACADVER
  1
AC1009
  9
$LUNITS
 70
2
  9
$LUPREC
 70
4
  9
$LTSCALE
 40
1.0
  9
$EXTMIN
 10
0
 20
-322.6091
 30
0
  9
$EXTMAX
 10
2328.3354
 20
286.8184
 30
0
  0
ENDSEC
  0
SECTION
  2
TABLES
  0
TABLE
  2
LTYPE
 70
256
  0
LTYPE
  2
AIGENLINE001
 70
64
  3
generate AI->DXF Converter
 72
65
 73
4
 40
10.16
 49
6.35
 49
-1.27
 49
1.27
 49
-1.27
  0
LTYPE
  2
AIGENLINE002
 70
64
  3
generate AI->DXF Converter
 72
65
 73
6
 40
6.35
 49
3.175
 49
-0.635
 49
0.635
 49
-0.635
 49
0.635
 49
-0.635
  0
ENDTAB
  0
TABLE
  2
LAYER
 70
16
  0
LAYER
  2
LAYER_1
 70
64
 62
7
  6
CONTINUOUS
  0
LAYER
  2
LAYER_2
 70
64
 62
7
  6
CONTINUOUS
  0
LAYER
  2
LAYER_3
 70
64
 62
7
  6
CONTINUOUS
  0
LAYER
  2
LAYER_4
 70
64
 62
7
  6
CONTINUOUS
  0
LAYER
  2
LAYER_5
 70
64
 62
7
  6
CONTINUOUS
  0
LAYER
  2
LAYER_6
 70
64
 62
7
  6
CONTINUOUS
  0
LAYER
  2
LAYER_7
 70
64
 62
7
  6
CONTINUOUS
  0
LAYER
  2
LAYER_8
 70
64
 62
7
  6
CONTINUOUS
  0
LAYER
  2
LAYER_9
 70
64
 62
7
  6
CONTINUOUS
  0
LAYER
  2
LAYER_10
 70
64
 62
7
  6
CONTINUOUS
  0
LAYER
  2
LAYER_11
 70
64
 62
7
  6
CONTINUOUS
  0
LAYER
  2
LAYER_12
 70
64
 62
7
  6
CONTINUOUS
  0
LAYER
  2
LAYER_13
 70
64
 62
7
  6
CONTINUOUS
  0
LAYER
  2
LAYER_14
 70
64
 62
7
  6
CONTINUOUS
  0
LAYER
  2
LAYER_15
 70
64
 62
7
  6
CONTINUOUS
  0
LAYER
  2
LAYER_16
 70
64
 62
7
  6
CONTINUOUS
  0
ENDTAB
  0
TABLE
  2
STYLE
 70
6
  0
STYLE
  2
STANDARD
 70
0
 40
0
 50
0
 71
0
 41
0
 42
0
  3
TXT
  4
BIGFONT
  0
ENDTAB
  0
ENDSEC
  0
SECTION
  2
BLOCKS
  0
BLOCK
  8
LAYER_10
  2
AIGNBL0A040005
 70
64
 10
0
 20
0
 30
0
  3
AIGNBL0A040005
  0
POLYLINE
  8
LAYER_10
 40
0.05
 41
0.05
 66
1
 10
0
 20
0
 30
0
 70
1
  0
VERTEX
  8
LAYER_10
 10
11.2324
 20
278.0499
  0
VERTEX
  8
LAYER_10
 10
10.7467
 20
276.8717
  0
VERTEX
  8
LAYER_10
 10
10.1221
 20
276.8717
  0
VERTEX
  8
LAYER_10
 10
11.7127
 20
280.6155
  0
VERTEX
  8
LAYER_10
 10
12.4417
 20
280.6155
  0
VERTEX
  8
LAYER_10
 10
14.0385
 20
276.8717
  0
VERTEX
  8
LAYER_10
 10
13.3922
 20
276.8717
  0
VERTEX
  8
LAYER_10
 10
12.8926
 20
278.0499
  0
SEQEND
  0
POLYLINE
  8
LAYER_10
 40
0.05
 41
0.05
 66
1
 10
0
 20
0
 30
0
 70
1
  0
VERTEX
  8
LAYER_10
 10
12.7672
 20
278.4265
  0
VERTEX
  8
LAYER_10
 10
12.309
 20
279.5051
 42
-0.02267506524
  0
VERTEX
  8
LAYER_10
 10
12.0658
 20
280.188
  0
VERTEX
  8
LAYER_10
 10
12.0524
 20
280.188
 42
-0.02084266043
  0
VERTEX
  8
LAYER_10
 10
11.816
 20
279.5096
  0
VERTEX
  8
LAYER_10
 10
11.3578
 20
278.4265
  0
SEQEND
  0
ENDBLK
  0
BLOCK
  8
LAYER_10
  2
AIGNBL0A040006
 70
64
 10
0
 20
0
 30
0
  3
AIGNBL0A040006
  0
POLYLINE
  8
LAYER_10
 40
0.05
 41
0.05
 66
1
 10
0
 20
0
 30
0
 70
1
  0
VERTEX
  8
LAYER_10
 10
18.3783
 20
276.3215
 42
-0.01550180985
  0
VERTEX
  8
LAYER_10
 10
16.5868
 20
276.7556
 42
0.09205782313
  0
VERTEX
  8
LAYER_10
 10
16.3022
 20
276.8104
 42
-0.09254301128
  0
VERTEX
  8
LAYER_10
 10
15.3538
 20
277.012
 42
-0.097935778
  0
VERTEX
  8
LAYER_10
 10
14.7199
 20
277.4442
 42
-0.1630979589
  0
VERTEX
  8
LAYER_10
 10
14.2567
 20
278.4318
 42
-0.03157958598
  0
VERTEX
  8
LAYER_10
 10
14.2396
 20
278.7041
 42
-0.1088294512
  0
VERTEX
  8
LAYER_10
 10
14.423
 20
279.5635
 42
-0.1618125291
  0
VERTEX
  8
LAYER_10
 10
15.2185
 20
280.3932
 42
-0.09174588849
  0
VERTEX
  8
LAYER_10
 10
16.0186
 20
280.6491
 42
-0.03453947229
  0
VERTEX
  8
LAYER_10
 10
16.4201
 20
280.6764
 42
-0.09526227577
  0
VERTEX
  8
LAYER_10
 10
17.3784
 20
280.4998
 42
-0.1001844142
  0
VERTEX
  8
LAYER_10
 10
18.012
 20
280.0796
 42
-0.1611534486
  0
VERTEX
  8
LAYER_10
 10
18.4959
 20
279.0846
 42
-0.03590965353
  0
VERTEX
  8
LAYER_10
 10
18.5174
 20
278.7823
 42
-0.1066654959
  0
VERTEX
  8
LAYER_10
 10
18.3421
 20
277.9323
 42
-0.218566399
  0
VERTEX
  8
LAYER_10
 10
17.2382
 20
277.004
 42
-0.006705170968
  0
VERTEX
  8
LAYER_10
 10
17.1838
 20
276.9882
  0
VERTEX
  8
LAYER_10
 10
17.1838
 20
276.9658
 42
0.01509534227
  0
VERTEX
  8
LAYER_10
 10
18.5522
 20
276.727
  0
SEQEND
  0
POLYLINE
  8
LAYER_10
 40
0.05
 41
0.05
 66
1
 10
0
 20
0
 30
0
 70
1
  0
VERTEX
  8
LAYER_10
 10
17.879
 20
278.761
 42
0.1175404168
  0
VERTEX
  8
LAYER_10
 10
17.6977
 20
279.5249
 42
0.1170585149
  0
VERTEX
  8
LAYER_10
 10
17.2747
 20
280.0199
 42
0.1200111465
  0
VERTEX
  8
LAYER_10
 10
16.6651
 20
280.2626
 42
0.0377207096
  0
VERTEX
  8
LAYER_10
 10
16.399
 20
280.2823
 42
0.1152954241
  0
VERTEX
  8
LAYER_10
 10
15.6611
 20
280.1186
 42
0.1853004926
  0
VERTEX
  8
LAYER_10
 10
15.0066
 20
279.3886
 42
0.09848637078
  0
VERTEX
  8
LAYER_10
 10
14.8853
 20
278.7166
 42
0.120860713
  0
VERTEX
  8
LAYER_10
 10
15.0602
 20
277.9661
 42
0.2836170694
  0
VERTEX
  8
LAYER_10
 10
16.3718
 20
277.2042
 42
0.1188766714
  0
VERTEX
  8
LAYER_10
 10
17.1162
 20
277.3753
 42
0.1796046283
  0
VERTEX
  8
LAYER_10
 10
17.7529
 20
278.088
 42
0.09851098502
  0
SEQEND
  0
ENDBLK
  0
BLOCK
  8
LAYER_10
  2
AIGNBL0A040007
 70
64
 10
0
 20
0
 30
0
  3
AIGNBL0A040007
  0
POLYLINE
  8
LAYER_10
 40
0.05
 41
0.05
 66
1
 10
0
 20
0
 30
0
 70
1
  0
VERTEX
  8
LAYER_10
 10
19.8372
 20
280.6155
  0
VERTEX
  8
LAYER_10
 10
19.8372
 20
278.3993
 42
0.1257910062
  0
VERTEX
  8
LAYER_10
 10
20.0032
 20
277.6758
 42
0.2217269733
  0
VERTEX
  8
LAYER_10
 10
20.6471
 20
277.2307
 42
0.04937688774
  0
VERTEX
  8
LAYER_10
 10
20.9273
 20
277.2042
 42
0.1302851362
  0
VERTEX
  8
LAYER_10
 10
21.5929
 20
277.364
 42
0.1509632316
  0
VERTEX
  8
LAYER_10
 10
21.9419
 20
277.7553
 42
0.1174446198
  0
VERTEX
  8
LAYER_10
 10
22.0662
 20
278.3993
  0
VERTEX
  8
LAYER_10
 10
22.0662
 20
280.6155
  0
VERTEX
  8
LAYER_10
 10
22.6774
 20
280.6155
  0
VERTEX
  8
LAYER_10
 10
22.6774
 20
278.4323
 42
-0.1106754032
  0
VERTEX
  8
LAYER_10
 10
22.5088
 20
277.6186
 42
-0.1857173489
  0
VERTEX
  8
LAYER_10
 10
21.8038
 20
276.9703
 42
-0.09649534417
  0
VERTEX
  8
LAYER_10
 10
21.0008
 20
276.8118
 42
-0.007938405653
  0
VERTEX
  8
LAYER_10
 10
20.9066
 20
276.8104
 42
-0.1023052479
  0
VERTEX
  8
LAYER_10
 10
20.0218
 20
276.9776
 42
-0.1218931498
  0
VERTEX
  8
LAYER_10
 10
19.5279
 20
277.3638
 42
-0.1186290709
  0
VERTEX
  8
LAYER_10
 10
19.2679
 20
277.9629
 42
-0.04986689536
  0
VERTEX
  8
LAYER_10
 10
19.2264
 20
278.4106
  0
VERTEX
  8
LAYER_10
 10
19.2264
 20
280.6155
  0
SEQEND
  0
ENDBLK
  0
BLOCK
  8
LAYER_10
  2
AIGNBL0A040008
 70
64
 10
0
 20
0
 30
0
  3
AIGNBL0A040008
  0
POLYLINE
  8
LAYER_10
 40
0.05
 41
0.05
 66
1
 10
0
 20
0
 30
0
 70
1
  0
VERTEX
  8
LAYER_10
 10
24.413
 20
278.0499
  0
VERTEX
  8
LAYER_10
 10
23.9266
 20
276.8717
  0
VERTEX
  8
LAYER_10
 10
23.3027
 20
276.8717
  0
VERTEX
  8
LAYER_10
 10
24.8922
 20
280.6155
  0
VERTEX
  8
LAYER_10
 10
25.6212
 20
280.6155
  0
VERTEX
  8
LAYER_10
 10
27.218
 20
276.8717
  0
VERTEX
  8
LAYER_10
 10
26.5724
 20
276.8717
  0
VERTEX
  8
LAYER_10
 10
26.0732
 20
278.0499
  0
SEQEND
  0
POLYLINE
  8
LAYER_10
 40
0.05
 41
0.05
 66
1
 10
0
 20
0
 30
0
 70
1
  0
VERTEX
  8
LAYER_10
 10
25.9478
 20
278.4265
  0
VERTEX
  8
LAYER_10
 10
25.4889
 20
279.5051
 42
-0.02235179902
  0
VERTEX
  8
LAYER_10
 10
25.2454
 20
280.188
  0
VERTEX
  8
LAYER_10
 10
25.2316
 20
280.188
 42
-0.02046417189
  0
VERTEX
  8
LAYER_10
 10
24.9959
 20
279.5096
  0
VERTEX
  8
LAYER_10
 10
24.5377
 20
278.4265
  0
SEQEND
  0
ENDBLK
  0
BLOCK
  8
LAYER_10
  2
AIGNBL0A040009
 70
64
 10
0
 20
0
 30
0
  3
AIGNBL0A040009
  0
POLYLINE
  8
LAYER_10
 40
0.05
 41
0.05
 66
1
 10
0
 20
0
 30
0
 70
1
  0
VERTEX
  8
LAYER_10
 10
28.2526
 20
280.571
 42
-0.03348292686
  0
VERTEX
  8
LAYER_10
 10
29.4133
 20
280.6437
 42
-0.09001253193
  0
VERTEX
  8
LAYER_10
 10
30.4614
 20
280.4761
 42
-0.05890890227
  0
VERTEX
  8
LAYER_10
 10
30.7248
 20
280.3326
 42
-0.2472492651
  0
VERTEX
  8
LAYER_10
 10
31.1347
 20
279.5492
 42
-0.1502534052
  0
VERTEX
  8
LAYER_10
 10
30.962
 20
278.9526
 42
-0.07033867127
  0
VERTEX
  8
LAYER_10
 10
30.7734
 20
278.7496
 42
-0.1211283655
  0
VERTEX
  8
LAYER_10
 10
30.0908
 20
278.423
 42
-0.06222086556
  0
VERTEX
  8
LAYER_10
 10
29.3429
 20
278.3383
 42
-0.05750856268
  0
VERTEX
  8
LAYER_10
 10
28.8572
 20
278.3717
  0
VERTEX
  8
LAYER_10
 10
28.8572
 20
276.8717
  0
VERTEX
  8
LAYER_10
 10
28.2526
 20
276.8717
  0
SEQEND
  0
POLYLINE
  8
LAYER_10
 40
0.05
 41
0.05
 66
1
 10
0
 20
0
 30
0
 70
1
  0
VERTEX
  8
LAYER_10
 10
28.8572
 20
278.7658
 42
0.04897120882
  0
VERTEX
  8
LAYER_10
 10
29.3567
 20
278.7265
 42
0.1137012619
  0
VERTEX
  8
LAYER_10
 10
30.1373
 20
278.8851
 42
0.1652714782
  0
VERTEX
  8
LAYER_10
 10
30.473
 20
279.2314
 42
0.1043893073
  0
VERTEX
  8
LAYER_10
 10
30.5308
 20
279.5268
 42
0.2865575132
  0
VERTEX
  8
LAYER_10
 10
30.1726
 20
280.1114
 42
0.06445375697
  0
VERTEX
  8
LAYER_10
 10
29.8933
 20
280.2121
 42
0.05785785436
  0
VERTEX
  8
LAYER_10
 10
29.427
 20
280.26
 42
0.05268039105
  0
VERTEX
  8
LAYER_10
 10
28.8572
 20
280.221
  0
SEQEND
  0
ENDBLK
  0
BLOCK
  8
LAYER_10
  2
AIGNBL0A04000A
 70
64
 10
0
 20
0
 30
0
  3
AIGNBL0A04000A
  0
POLYLINE
  8
LAYER_10
 40
0.05
 41
0.05
 66
1
 10
0
 20
0
 30
0
 70
1
  0
VERTEX
  8
LAYER_10
 10
32.6775
 20
280.3158
 42
-0.3038673111
  0
VERTEX
  8
LAYER_10
 10
32.5119
 20
280.0623
 42
-0.1153025312
  0
VERTEX
  8
LAYER_10
 10
32.2882
 20
280.0153
 42
-0.2445805376
  0
VERTEX
  8
LAYER_10
 10
31.9602
 20
280.1751
 42
-0.1392069373
  0
VERTEX
  8
LAYER_10
 10
31.9202
 20
280.3158
 42
-0.2871964131
  0
VERTEX
  8
LAYER_10
 10
32.0909
 20
280.5738
 42
-0.118108641
  0
VERTEX
  8
LAYER_10
 10
32.3016
 20
280.621
 42
-0.2414655549
  0
VERTEX
  8
LAYER_10
 10
32.6345
 20
280.4661
 42
-0.1427828857
  0
SEQEND
  0
POLYLINE
  8
LAYER_10
 40
0.05
 41
0.05
 66
1
 10
0
 20
0
 30
0
 70
1
  0
VERTEX
  8
LAYER_10
 10
31.9964
 20
276.8717
  0
VERTEX
  8
LAYER_10
 10
31.9964
 20
279.5603
  0
VERTEX
  8
LAYER_10
 10
32.6072
 20
279.5603
  0
VERTEX
  8
LAYER_10
 10
32.6072
 20
276.8717
  0
SEQEND
  0
ENDBLK
  0
BLOCK
  8
LAYER_10
  2
AIGNBL0A04000B
 70
64
 10
0
 20
0
 30
0
  3
AIGNBL0A04000B
  0
POLYLINE
  8
LAYER_10
 40
0.05
 41
0.05
 66
1
 10
0
 20
0
 30
0
 70
1
  0
VERTEX
  8
LAYER_10
 10
34.4675
 20
278.0499
  0
VERTEX
  8
LAYER_10
 10
33.9828
 20
276.8717
  0
VERTEX
  8
LAYER_10
 10
33.3572
 20
276.8717
  0
VERTEX
  8
LAYER_10
 10
34.9475
 20
280.6155
  0
VERTEX
  8
LAYER_10
 10
35.6768
 20
280.6155
  0
VERTEX
  8
LAYER_10
 10
37.2743
 20
276.8717
  0
VERTEX
  8
LAYER_10
 10
36.6276
 20
276.8717
  0
VERTEX
  8
LAYER_10
 10
36.1284
 20
278.0499
  0
SEQEND
  0
POLYLINE
  8
LAYER_10
 40
0.05
 41
0.05
 66
1
 10
0
 20
0
 30
0
 70
1
  0
VERTEX
  8
LAYER_10
 10
36.003
 20
278.4265
  0
VERTEX
  8
LAYER_10
 10
35.5448
 20
279.5051
 42
-0.02473673698
  0
VERTEX
  8
LAYER_10
 10
35.3023
 20
280.188
  0
VERTEX
  8
LAYER_10
 10
35.2878
 20
280.188
 42
-0.01905982629
  0
VERTEX
  8
LAYER_10
 10
35.0518
 20
279.5096
  0
VERTEX
  8
LAYER_10
 10
34.5936
 20
278.4265
  0
SEQEND
  0
ENDBLK
  0
BLOCK
  8
LAYER_10
  2
AIGNBL0A030004
 70
64
 10
0
 20
0
 30
0
  3
AIGNBL0A030004
  0
INSERT
  8
LAYER_10
  2
AIGNBL0A040005
 10
0
 20
0
 30
0
  0
INSERT
  8
LAYER_10
  2
AIGNBL0A040006
 10
0
 20
0
 30
0
  0
INSERT
  8
LAYER_10
  2
AIGNBL0A040007
 10
0
 20
0
 30
0
  0
INSERT
  8
LAYER_10
  2
AIGNBL0A040008
 10
0
 20
0
 30
0
  0
INSERT
  8
LAYER_10
  2
AIGNBL0A040009
 10
0
 20
0
 30
0
  0
INSERT
  8
LAYER_10
  2
AIGNBL0A04000A
 10
0
 20
0
 30
0
  0
INSERT
  8
LAYER_10
  2
AIGNBL0A04000B
 10
0
 20
0
 30
0
  0
ENDBLK
  0
BLOCK
  8
LAYER_5
  2
AIGNBL05020003
 70
64
 10
0
 20
0
 30
0
  3
AIGNBL05020003
  0
POLYLINE
  8
LAYER_5
 40
0.0353
 41
0.0353
 66
1
 10
0
 20
0
 30
0
  0
VERTEX
  8
LAYER_5
 10
174.6233
 20
105.8342
  0
VERTEX
  8
LAYER_5
 10
173.8195
 20
102.8342
  0
SEQEND
  0
POLYLINE
  8
LAYER_5
 40
0.0353
 41
0.0353
 66
1
 10
0
 20
0
 30
0
  0
VERTEX
  8
LAYER_5
 10
173.8195
 20
105.8342
  0
VERTEX
  8
LAYER_5
 10
173.8195
 20
102.8342
  0
VERTEX
  8
LAYER_5
 10
173.0156
 20
105.8342
  0
SEQEND
  0
ENDBLK
  0
BLOCK
  8
LAYER_5
  2
AIGNBL05020004
 70
64
 10
0
 20
0
 30
0
  3
AIGNBL05020004
  0
POLYLINE
  8
LAYER_5
 40
0.0353
 41
0.0353
 66
1
 10
0
 20
0
 30
0
  0
VERTEX
  8
LAYER_5
 10
173.0156
 20
115.5673
  0
VERTEX
  8
LAYER_5
 10
173.8195
 20
118.5673
  0
SEQEND
  0
POLYLINE
  8
LAYER_5
 40
0.0353
 41
0.0353
 66
1
 10
0
 20
0
 30
0
  0
VERTEX
  8
LAYER_5
 10
173.8195
 20
115.5673
  0
VERTEX
  8
LAYER_5
 10
173.8195
 20
118.5673
  0
VERTEX
  8
LAYER_5
 10
174.6233
 20
115.5673
  0
SEQEND
  0
ENDBLK
  0
BLOCK
  8
LAYER_5
  2
AIGNBL05020005
 70
64
 10
0
 20
0
 30
0
  3
AIGNBL05020005
  0
POLYLINE
  8
LAYER_5
 40
0.7056
 41
0.7056
 66
1
 10
0
 20
0
 30
0
  0
VERTEX
  8
LAYER_5
 10
157.496
 20
102.8342
  0
SEQEND
  0
ENDBLK
  0
BLOCK
  8
LAYER_5
  2
AIGNBL05020006
 70
64
 10
0
 20
0
 30
0
  3
AIGNBL05020006
  0
POLYLINE
  8
LAYER_5
 40
0.7056
 41
0.7056
 66
1
 10
0
 20
0
 30
0
  0
VERTEX
  8
LAYER_5
 10
157.4878
 20
118.5673
  0
SEQEND
  0
ENDBLK
  0
BLOCK
  8
LAYER_5
  2
AIGNBL05020007
 70
64
 10
0
 20
0
 30
0
  3
AIGNBL05020007
  0
POLYLINE
  8
LAYER_5
 40
0.7056
 41
0.7056
 66
1
 10
0
 20
0
 30
0
  0
VERTEX
  8
LAYER_5
 10
173.8195
 20
118.5673
  0
SEQEND
  0
ENDBLK
  0
BLOCK
  8
LAYER_5
  2
AIGNBL05020009
 70
64
 10
0
 20
0
 30
0
  3
AIGNBL05020009
  0
POLYLINE
  8
LAYER_5
 40
0.0353
 41
0.0353
 66
1
 10
0
 20
0
 30
0
  0
VERTEX
  8
LAYER_5
 10
144.7628
 20
83.1172
  0
VERTEX
  8
LAYER_5
 10
141.7628
 20
83.921
  0
SEQEND
  0
POLYLINE
  8
LAYER_5
 40
0.0353
 41
0.0353
 66
1
 10
0
 20
0
 30
0
  0
VERTEX
  8
LAYER_5
 10
144.7628
 20
83.921
  0
VERTEX
  8
LAYER_5
 10
141.7628
 20
83.921
  0
VERTEX
  8
LAYER_5
 10
144.7628
 20
84.7249
  0
SEQEND
  0
ENDBLK
  0
BLOCK
  8
LAYER_5
  2
AIGNBL0502000A
 70
64
 10
0
 20
0
 30
0
  3
AIGNBL0502000A
  0
POLYLINE
  8
LAYER_5
 40
0.0353
 41
0.0353
 66
1
 10
0
 20
0
 30
0
  0
VERTEX
  8
LAYER_5
 10
154.4878
 20
84.7249
  0
VERTEX
  8
LAYER_5
 10
157.4878
 20
83.921
  0
SEQEND
  0
POLYLINE
  8
LAYER_5
 40
0.0353
 41
0.0353
 66
1
 10
0
 20
0
 30
0
  0
VERTEX
  8
LAYER_5
 10
154.4878
 20
83.921
  0
VERTEX
  8
LAYER_5
 10
157.4878
 20
83.921
  0
VERTEX
  8
LAYER_5
 10
154.4878
 20
83.1172
  0
SEQEND
  0
ENDBLK
  0
BLOCK
  8
LAYER_5
  2
AIGNBL0502000B
 70
64
 10
0
 20
0
 30
0
  3
AIGNBL0502000B
  0
POLYLINE
  8
LAYER_5
 40
0.7056
 41
0.7056
 66
1
 10
0
 20
0
 30
0
  0
VERTEX
  8
LAYER_5
 10
141.7628
 20
102.826
  0
SEQEND
  0
ENDBLK
  0
BLOCK
  8
LAYER_5
  2
AIGNBL0502000C
 70
64
 10
0
 20
0
 30
0
  3
AIGNBL0502000C
  0
POLYLINE
  8
LAYER_5
 40
0.7056
 41
0.7056
 66
1
 10
0
 20
0
 30
0
  0
VERTEX
  8
LAYER_5
 10
157.4878
 20
102.826
  0
SEQEND
  0
ENDBLK
  0
BLOCK
  8
LAYER_5
  2
AIGNBL0502000D
 70
64
 10
0
 20
0
 30
0
  3
AIGNBL0502000D
  0
POLYLINE
  8
LAYER_5
 40
0.7056
 41
0.7056
 66
1
 10
0
 20
0
 30
0
  0
VERTEX
  8
LAYER_5
 10
157.4878
 20
83.921
  0
SEQEND
  0
ENDBLK
  0
BLOCK
  8
LAYER_5
  2
AIGNBL0502000F
 70
64
 10
0
 20
0
 30
0
  3
AIGNBL0502000F
  0
POLYLINE
  8
LAYER_5
 40
0.0353
 41
0.0353
 66
1
 10
0
 20
0
 30
0
  0
VERTEX
  8
LAYER_5
 10
18.6915
 20
140.2757
  0
VERTEX
  8
LAYER_5
 10
19.4953
 20
143.2757
  0
SEQEND
  0
POLYLINE
  8
LAYER_5
 40
0.0353
 41
0.0353
 66
1
 10
0
 20
0
 30
0
  0
VERTEX
  8
LAYER_5
 10
19.4953
 20
140.2757
  0
VERTEX
  8
LAYER_5
 10
19.4953
 20
143.2757
  0
VERTEX
  8
LAYER_5
 10
20.2992
 20
140.2757
  0
SEQEND
  0
ENDBLK
  0
BLOCK
  8
LAYER_5
  2
AIGNBL05020010
 70
64
 10
0
 20
0
 30
0
  3
AIGNBL05020010
  0
POLYLINE
  8
LAYER_5
 40
0.0353
 41
0.0353
 66
1
 10
0
 20
0
 30
0
  0
VERTEX
  8
LAYER_5
 10
20.2992
 20
95.5257
  0
VERTEX
  8
LAYER_5
 10
19.4953
 20
92.5257
  0
SEQEND
  0
POLYLINE
  8
LAYER_5
 40
0.0353
 41
0.0353
 66
1
 10
0
 20
0
 30
0
  0
VERTEX
  8
LAYER_5
 10
19.4953
 20
95.5257
  0
VERTEX
  8
LAYER_5
 10
19.4953
 20
92.5257
  0
VERTEX
  8
LAYER_5
 10
18.6915
 20
95.5257
  0
SEQEND
  0
ENDBLK
  0
BLOCK
  8
LAYER_5
  2
AIGNBL05020011
 70
64
 10
0
 20
0
 30
0
  3
AIGNBL05020011
  0
POLYLINE
  8
LAYER_5
 40
0.7056
 41
0.7056
 66
1
 10
0
 20
0
 30
0
  0
VERTEX
  8
LAYER_5
 10
30.3203
 20
143.2757
  0
SEQEND
  0
ENDBLK
  0
BLOCK
  8
LAYER_5
  2
AIGNBL05020012
 70
64
 10
0
 20
0
 30
0
  3
AIGNBL05020012
  0
POLYLINE
  8
LAYER_5
 40
0.7056
 41
0.7056
 66
1
 10
0
 20
0
 30
0
  0
VERTEX
  8
LAYER_5
 10
30.3203
 20
92.5257
  0
SEQEND
  0
ENDBLK
  0
BLOCK
  8
LAYER_5
  2
AIGNBL05020013
 70
64
 10
0
 20
0
 30
0
  3
AIGNBL05020013
  0
POLYLINE
  8
LAYER_5
 40
0.7056
 41
0.7056
 66
1
 10
0
 20
0
 30
0
  0
VERTEX
  8
LAYER_5
 10
19.4953
 20
92.5257
  0
SEQEND
  0
ENDBLK
  0
BLOCK
  8
LAYER_5
  2
AIGNBL05020015
 70
64
 10
0
 20
0
 30
0
  3
AIGNBL05020015
  0
POLYLINE
  8
LAYER_5
 40
0.0353
 41
0.0353
 66
1
 10
0
 20
0
 30
0
  0
VERTEX
  8
LAYER_5
 10
33.3203
 20
83.1172
  0
VERTEX
  8
LAYER_5
 10
30.3203
 20
83.921
  0
SEQEND
  0
POLYLINE
  8
LAYER_5
 40
0.0353
 41
0.0353
 66
1
 10
0
 20
0
 30
0
  0
VERTEX
  8
LAYER_5
 10
33.3203
 20
83.921
  0
VERTEX
  8
LAYER_5
 10
30.3203
 20
83.921
  0
VERTEX
  8
LAYER_5
 10
33.3203
 20
84.7249
  0
SEQEND
  0
ENDBLK
  0
BLOCK
  8
LAYER_5
  2
AIGNBL05020016
 70
64
 10
0
 20
0
 30
0
  3
AIGNBL05020016
  0
POLYLINE
  8
LAYER_5
 40
0.0353
 41
0.0353
 66
1
 10
0
 20
0
 30
0
  0
VERTEX
  8
LAYER_5
 10
119.8203
 20
84.7249
  0
VERTEX
  8
LAYER_5
 10
122.8203
 20
83.921
  0
SEQEND
  0
POLYLINE
  8
LAYER_5
 40
0.0353
 41
0.0353
 66
1
 10
0
 20
0
 30
0
  0
VERTEX
  8
LAYER_5
 10
119.8203
 20
83.921
  0
VERTEX
  8
LAYER_5
 10
122.8203
 20
83.921
  0
VERTEX
  8
LAYER_5
 10
119.8203
 20
83.1172
  0
SEQEND
  0
ENDBLK
  0
BLOCK
  8
LAYER_5
  2
AIGNBL05020017
 70
64
 10
0
 20
0
 30
0
  3
AIGNBL05020017
  0
POLYLINE
  8
LAYER_5
 40
0.7056
 41
0.7056
 66
1
 10
0
 20
0
 30
0
  0
VERTEX
  8
LAYER_5
 10
30.3203
 20
92.5257
  0
SEQEND
  0
ENDBLK
  0
BLOCK
  8
LAYER_5
  2
AIGNBL05020018
 70
64
 10
0
 20
0
 30
0
  3
AIGNBL05020018
  0
POLYLINE
  8
LAYER_5
 40
0.7056
 41
0.7056
 66
1
 10
0
 20
0
 30
0
  0
VERTEX
  8
LAYER_5
 10
122.8203
 20
95.1507
  0
SEQEND
  0
ENDBLK
  0
BLOCK
  8
LAYER_5
  2
AIGNBL05020019
 70
64
 10
0
 20
0
 30
0
  3
AIGNBL05020019
  0
POLYLINE
  8
LAYER_5
 40
0.7056
 41
0.7056
 66
1
 10
0
 20
0
 30
0
  0
VERTEX
  8
LAYER_5
 10
122.8203
 20
83.921
  0
SEQEND
  0
ENDBLK
  0
BLOCK
  8
LAYER_5
  2
AIGNBL0502001B
 70
64
 10
0
 20
0
 30
0
  3
AIGNBL0502001B
  0
POLYLINE
  8
LAYER_5
 40
0.0353
 41
0.0353
 66
1
 10
0
 20
0
 30
0
  0
VERTEX
  8
LAYER_5
 10
128.3477
 20
121.9007
  0
VERTEX
  8
LAYER_5
 10
129.1515
 20
124.9007
  0
SEQEND
  0
POLYLINE
  8
LAYER_5
 40
0.0353
 41
0.0353
 66
1
 10
0
 20
0
 30
0
  0
VERTEX
  8
LAYER_5
 10
129.1515
 20
121.9007
  0
VERTEX
  8
LAYER_5
 10
129.1515
 20
124.9007
  0
VERTEX
  8
LAYER_5
 10
129.9553
 20
121.9007
  0
SEQEND
  0
ENDBLK
  0
BLOCK
  8
LAYER_5
  2
AIGNBL0502001C
 70
64
 10
0
 20
0
 30
0
  3
AIGNBL0502001C
  0
POLYLINE
  8
LAYER_5
 40
0.0353
 41
0.0353
 66
1
 10
0
 20
0
 30
0
  0
VERTEX
  8
LAYER_5
 10
129.9553
 20
98.1507
  0
VERTEX
  8
LAYER_5
 10
129.1515
 20
95.1507
  0
SEQEND
  0
POLYLINE
  8
LAYER_5
 40
0.0353
 41
0.0353
 66
1
 10
0
 20
0
 30
0
  0
VERTEX
  8
LAYER_5
 10
129.1515
 20
98.1507
  0
VERTEX
  8
LAYER_5
 10
129.1515
 20
95.1507
  0
VERTEX
  8
LAYER_5
 10
128.3477
 20
98.1507
  0
SEQEND
  0
ENDBLK
  0
BLOCK
  8
LAYER_5
  2
AIGNBL0502001D
 70
64
 10
0
 20
0
 30
0
  3
AIGNBL0502001D
  0
POLYLINE
  8
LAYER_5
 40
0.7056
 41
0.7056
 66
1
 10
0
 20
0
 30
0
  0
VERTEX
  8
LAYER_5
 10
122.8203
 20
124.9007
  0
SEQEND
  0
ENDBLK
  0
BLOCK
  8
LAYER_5
  2
AIGNBL0502001E
 70
64
 10
0
 20
0
 30
0
  3
AIGNBL0502001E
  0
POLYLINE
  8
LAYER_5
 40
0.7056
 41
0.7056
 66
1
 10
0
 20
0
 30
0
  0
VERTEX
  8
LAYER_5
 10
122.8203
 20
95.1507
  0
SEQEND
  0
ENDBLK
  0
BLOCK
  8
LAYER_5
  2
AIGNBL0502001F
 70
64
 10
0
 20
0
 30
0
  3
AIGNBL0502001F
  0
POLYLINE
  8
LAYER_5
 40
0.7056
 41
0.7056
 66
1
 10
0
 20
0
 30
0
  0
VERTEX
  8
LAYER_5
 10
129.1515
 20
95.1507
  0
SEQEND
  0
ENDBLK
  0
BLOCK
  8
LAYER_5
  2
AIGNBL05020021
 70
64
 10
0
 20
0
 30
0
  3
AIGNBL05020021
  0
POLYLINE
  8
LAYER_5
 40
0.0353
 41
0.0353
 66
1
 10
0
 20
0
 30
0
  0
VERTEX
  8
LAYER_5
 10
125.8203
 20
88.5869
  0
VERTEX
  8
LAYER_5
 10
122.8203
 20
89.3908
  0
SEQEND
  0
POLYLINE
  8
LAYER_5
 40
0.0353
 41
0.0353
 66
1
 10
0
 20
0
 30
0
  0
VERTEX
  8
LAYER_5
 10
125.8203
 20
89.3908
  0
VERTEX
  8
LAYER_5
 10
122.8203
 20
89.3908
  0
VERTEX
  8
LAYER_5
 10
125.8203
 20
90.1946
  0
SEQEND
  0
ENDBLK
  0
BLOCK
  8
LAYER_5
  2
AIGNBL05020022
 70
64
 10
0
 20
0
 30
0
  3
AIGNBL05020022
  0
POLYLINE
  8
LAYER_5
 40
0.0353
 41
0.0353
 66
1
 10
0
 20
0
 30
0
  0
VERTEX
  8
LAYER_5
 10
112.8203
 20
90.1946
  0
VERTEX
  8
LAYER_5
 10
115.8203
 20
89.3908
  0
SEQEND
  0
POLYLINE
  8
LAYER_5
 40
0.0353
 41
0.0353
 66
1
 10
0
 20
0
 30
0
  0
VERTEX
  8
LAYER_5
 10
112.8203
 20
89.3908
  0
VERTEX
  8
LAYER_5
 10
115.8203
 20
89.3908
  0
VERTEX
  8
LAYER_5
 10
112.8203
 20
88.5869
  0
SEQEND
  0
ENDBLK
  0
BLOCK
  8
LAYER_5
  2
AIGNBL05020023
 70
64
 10
0
 20
0
 30
0
  3
AIGNBL05020023
  0
POLYLINE
  8
LAYER_5
 40
0.7056
 41
0.7056
 66
1
 10
0
 20
0
 30
0
  0
VERTEX
  8
LAYER_5
 10
122.8203
 20
95.1507
  0
SEQEND
  0
ENDBLK
  0
BLOCK
  8
LAYER_5
  2
AIGNBL05020024
 70
64
 10
0
 20
0
 30
0
  3
AIGNBL05020024
  0
POLYLINE
  8
LAYER_5
 40
0.7056
 41
0.7056
 66
1
 10
0
 20
0
 30
0
  0
VERTEX
  8
LAYER_5
 10
115.8203
 20
95.9007
  0
SEQEND
  0
ENDBLK
  0
BLOCK
  8
LAYER_5
  2
AIGNBL05020025
 70
64
 10
0
 20
0
 30
0
  3
AIGNBL05020025
  0
POLYLINE
  8
LAYER_5
 40
0.7056
 41
0.7056
 66
1
 10
0
 20
0
 30
0
  0
VERTEX
  8
LAYER_5
 10
115.8203
 20
89.3908
  0
SEQEND
  0
ENDBLK
  0
BLOCK
  8
LAYER_5
  2
AIGNBL05020027
 70
64
 10
0
 20
0
 30
0
  3
AIGNBL05020027
  0
POLYLINE
  8
LAYER_5
 40
0.0353
 41
0.0353
 66
1
 10
0
 20
0
 30
0
  0
VERTEX
  8
LAYER_5
 10
33.3203
 20
156.3912
  0
VERTEX
  8
LAYER_5
 10
30.3203
 20
157.1951
  0
SEQEND
  0
POLYLINE
  8
LAYER_5
 40
0.0353
 41
0.0353
 66
1
 10
0
 20
0
 30
0
  0
VERTEX
  8
LAYER_5
 10
33.3203
 20
157.1951
  0
VERTEX
  8
LAYER_5
 10
30.3203
 20
157.1951
  0
VERTEX
  8
LAYER_5
 10
33.3203
 20
157.9989
  0
SEQEND
  0
ENDBLK
  0
BLOCK
  8
LAYER_5
  2
AIGNBL05020028
 70
64
 10
0
 20
0
 30
0
  3
AIGNBL05020028
  0
POLYLINE
  8
LAYER_5
 40
0.0353
 41
0.0353
 66
1
 10
0
 20
0
 30
0
  0
VERTEX
  8
LAYER_5
 10
132.5703
 20
157.9989
  0
VERTEX
  8
LAYER_5
 10
135.5703
 20
157.1951
  0
SEQEND
  0
POLYLINE
  8
LAYER_5
 40
0.0353
 41
0.0353
 66
1
 10
0
 20
0
 30
0
  0
VERTEX
  8
LAYER_5
 10
132.5703
 20
157.1951
  0
VERTEX
  8
LAYER_5
 10
135.5703
 20
157.1951
  0
VERTEX
  8
LAYER_5
 10
132.5703
 20
156.3912
  0
SEQEND
  0
ENDBLK
  0
BLOCK
  8
LAYER_5
  2
AIGNBL05020029
 70
64
 10
0
 20
0
 30
0
  3
AIGNBL05020029
  0
POLYLINE
  8
LAYER_5
 40
0.7056
 41
0.7056
 66
1
 10
0
 20
0
 30
0
  0
VERTEX
  8
LAYER_5
 10
30.3203
 20
186.4377
  0
SEQEND
  0
ENDBLK
  0
BLOCK
  8
LAYER_5
  2
AIGNBL0502002A
 70
64
 10
0
 20
0
 30
0
  3
AIGNBL0502002A
  0
POLYLINE
  8
LAYER_5
 40
0.7056
 41
0.7056
 66
1
 10
0
 20
0
 30
0
  0
VERTEX
  8
LAYER_5
 10
135.5703
 20
178.5627
  0
SEQEND
  0
ENDBLK
  0
BLOCK
  8
LAYER_5
  2
AIGNBL0502002B
 70
64
 10
0
 20
0
 30
0
  3
AIGNBL0502002B
  0
POLYLINE
  8
LAYER_5
 40
0.7056
 41
0.7056
 66
1
 10
0
 20
0
 30
0
  0
VERTEX
  8
LAYER_5
 10
135.5703
 20
157.1951
  0
SEQEND
  0
ENDBLK
  0
BLOCK
  8
LAYER_10
  2
AIGNBL0A020003
 70
64
 10
0
 20
0
 30
0
  3
AIGNBL0A020003
  0
INSERT
  8
LAYER_10
  2
AIGNBL0A030004
 10
0
 20
0
 30
0
  0
ENDBLK
  0
BLOCK
  8
LAYER_15
  2
AIGNBL0F020003
 70
64
 10
0
 20
0
 30
0
  3
AIGNBL0F020003
  0
POLYLINE
  8
LAYER_15
 40
0.7056
 41
0.7056
 66
1
 10
0
 20
0
 30
0
  0
VERTEX
  8
LAYER_15
 10
156.5738
 20
215.0654
  0
SEQEND
  0
ENDBLK
  0
BLOCK
  8
LAYER_15
  2
AIGNBL0F020004
 70
64
 10
0
 20
0
 30
0
  3
AIGNBL0F020004
  0
POLYLINE
  8
LAYER_15
 40
0.7056
 41
0.7056
 66
1
 10
0
 20
0
 30
0
  0
VERTEX
  8
LAYER_15
 10
154.563
 20
210.5568
  0
SEQEND
  0
ENDBLK
  0
BLOCK
  8
LAYER_15
  2
AIGNBL0F020005
 70
64
 10
0
 20
0
 30
0
  3
AIGNBL0F020005
  0
POLYLINE
  8
LAYER_15
 40
0.7056
 41
0.7056
 66
1
 10
0
 20
0
 30
0
  0
VERTEX
  8
LAYER_15
 10
159.2461
 20
211.3808
  0
SEQEND
  0
ENDBLK
  0
BLOCK
  8
LAYER_15
  2
AIGNBL0F020006
 70
64
 10
0
 20
0
 30
0
  3
AIGNBL0F020006
  0
POLYLINE
  8
LAYER_15
 40
0.7056
 41
0.7056
 66
1
 10
0
 20
0
 30
0
  0
VERTEX
  8
LAYER_15
 10
150.6669
 20
192.9828
  0
SEQEND
  0
ENDBLK
  0
BLOCK
  8
LAYER_15
  2
AIGNBL0F020007
 70
64
 10
0
 20
0
 30
0
  3
AIGNBL0F020007
  0
POLYLINE
  8
LAYER_15
 40
0.7056
 41
0.7056
 66
1
 10
0
 20
0
 30
0
  0
VERTEX
  8
LAYER_15
 10
154.563
 20
190.2568
  0
SEQEND
  0
ENDBLK
  0
BLOCK
  8
LAYER_15
  2
AIGNBL0F020009
 70
64
 10
0
 20
0
 30
0
  3
AIGNBL0F020009
  0
POLYLINE
  8
LAYER_15
 40
0.7056
 41
0.7056
 66
1
 10
0
 20
0
 30
0
  0
VERTEX
  8
LAYER_15
 10
158.4394
 20
186.5275
  0
SEQEND
  0
ENDBLK
  0
BLOCK
  8
LAYER_15
  2
AIGNBL0F02000A
 70
64
 10
0
 20
0
 30
0
  3
AIGNBL0F02000A
  0
POLYLINE
  8
LAYER_15
 40
0.7056
 41
0.7056
 66
1
 10
0
 20
0
 30
0
  0
VERTEX
  8
LAYER_15
 10
154.563
 20
210.5568
  0
SEQEND
  0
ENDBLK
  0
BLOCK
  8
LAYER_15
  2
AIGNBL0F02000B
 70
64
 10
0
 20
0
 30
0
  3
AIGNBL0F02000B
  0
POLYLINE
  8
LAYER_15
 40
0.7056
 41
0.7056
 66
1
 10
0
 20
0
 30
0
  0
VERTEX
  8
LAYER_15
 10
150.6669
 20
207.8308
  0
SEQEND
  0
ENDBLK
  0
BLOCK
  8
LAYER_15
  2
AIGNBL0F02000C
 70
64
 10
0
 20
0
 30
0
  3
AIGNBL0F02000C
  0
POLYLINE
  8
LAYER_15
 40
0.7056
 41
0.7056
 66
1
 10
0
 20
0
 30
0
  0
VERTEX
  8
LAYER_15
 10
159.2461
 20
189.4328
  0
SEQEND
  0
ENDBLK
  0
BLOCK
  8
LAYER_15
  2
AIGNBL0F02000D
 70
64
 10
0
 20
0
 30
0
  3
AIGNBL0F02000D
  0
POLYLINE
  8
LAYER_15
 40
0.7056
 41
0.7056
 66
1
 10
0
 20
0
 30
0
  0
VERTEX
  8
LAYER_15
 10
154.563
 20
190.2568
  0
SEQEND
  0
ENDBLK
  0
BLOCK
  8
LAYER_5
  2
AIGNBL05010002
 70
64
 10
0
 20
0
 30
0
  3
AIGNBL05010002
  0
POLYLINE
  8
LAYER_5
 40
0.0353
 41
0.0353
 66
1
 10
0
 20
0
 30
0
  0
VERTEX
  8
LAYER_5
 10
159.496
 20
102.8342
  0
VERTEX
  8
LAYER_5
 10
174.8195
 20
102.8342
  0
SEQEND
  0
POLYLINE
  8
LAYER_5
 40
0.0353
 41
0.0353
 66
1
 10
0
 20
0
 30
0
  0
VERTEX
  8
LAYER_5
 10
159.4878
 20
118.5673
  0
VERTEX
  8
LAYER_5
 10
174.8195
 20
118.5673
  0
SEQEND
  0
POLYLINE
  8
LAYER_5
 40
0.0353
 41
0.0353
 66
1
 10
0
 20
0
 30
0
  0
VERTEX
  8
LAYER_5
 10
173.8195
 20
105.8342
  0
VERTEX
  8
LAYER_5
 10
173.8195
 20
115.5673
  0
SEQEND
  0
INSERT
  8
LAYER_5
  2
AIGNBL05020003
 10
0
 20
0
 30
0
  0
INSERT
  8
LAYER_5
  2
AIGNBL05020004
 10
0
 20
0
 30
0
  0
INSERT
  8
LAYER_5
  2
AIGNBL05020005
 10
0
 20
0
 30
0
  0
INSERT
  8
LAYER_5
  2
AIGNBL05020006
 10
0
 20
0
 30
0
  0
INSERT
  8
LAYER_5
  2
AIGNBL05020007
 10
0
 20
0
 30
0
  0
ENDBLK
  0
BLOCK
  8
LAYER_5
  2
AIGNBL05010008
 70
64
 10
0
 20
0
 30
0
  3
AIGNBL05010008
  0
POLYLINE
  8
LAYER_5
 40
0.0353
 41
0.0353
 66
1
 10
0
 20
0
 30
0
  0
VERTEX
  8
LAYER_5
 10
141.7628
 20
100.826
  0
VERTEX
  8
LAYER_5
 10
141.7628
 20
82.921
  0
SEQEND
  0
POLYLINE
  8
LAYER_5
 40
0.0353
 41
0.0353
 66
1
 10
0
 20
0
 30
0
  0
VERTEX
  8
LAYER_5
 10
157.4878
 20
100.826
  0
VERTEX
  8
LAYER_5
 10
157.4878
 20
82.921
  0
SEQEND
  0
POLYLINE
  8
LAYER_5
 40
0.0353
 41
0.0353
 66
1
 10
0
 20
0
 30
0
  0
VERTEX
  8
LAYER_5
 10
144.7628
 20
83.921
  0
VERTEX
  8
LAYER_5
 10
154.4878
 20
83.921
  0
SEQEND
  0
INSERT
  8
LAYER_5
  2
AIGNBL05020009
 10
0
 20
0
 30
0
  0
INSERT
  8
LAYER_5
  2
AIGNBL0502000A
 10
0
 20
0
 30
0
  0
INSERT
  8
LAYER_5
  2
AIGNBL0502000B
 10
0
 20
0
 30
0
  0
INSERT
  8
LAYER_5
  2
AIGNBL0502000C
 10
0
 20
0
 30
0
  0
INSERT
  8
LAYER_5
  2
AIGNBL0502000D
 10
0
 20
0
 30
0
  0
ENDBLK
  0
BLOCK
  8
LAYER_5
  2
AIGNBL0501000E
 70
64
 10
0
 20
0
 30
0
  3
AIGNBL0501000E
  0
POLYLINE
  8
LAYER_5
 40
0.0353
 41
0.0353
 66
1
 10
0
 20
0
 30
0
  0
VERTEX
  8
LAYER_5
 10
28.3203
 20
143.2757
  0
VERTEX
  8
LAYER_5
 10
18.4953
 20
143.2757
  0
SEQEND
  0
POLYLINE
  8
LAYER_5
 40
0.0353
 41
0.0353
 66
1
 10
0
 20
0
 30
0
  0
VERTEX
  8
LAYER_5
 10
28.3203
 20
92.5257
  0
VERTEX
  8
LAYER_5
 10
18.4953
 20
92.5257
  0
SEQEND
  0
POLYLINE
  8
LAYER_5
 40
0.0353
 41
0.0353
 66
1
 10
0
 20
0
 30
0
  0
VERTEX
  8
LAYER_5
 10
19.4953
 20
140.2757
  0
VERTEX
  8
LAYER_5
 10
19.4953
 20
95.5257
  0
SEQEND
  0
INSERT
  8
LAYER_5
  2
AIGNBL0502000F
 10
0
 20
0
 30
0
  0
INSERT
  8
LAYER_5
  2
AIGNBL05020010
 10
0
 20
0
 30
0
  0
TEXT
  8
LAYER_5
 10
17.9401
 20
122.8373
 11
17.9401
 21
122.8373
 40
5.5518
 41
0.5
 50
89.99999999
 72
1
  1
âË203
  0
INSERT
  8
LAYER_5
  2
AIGNBL05020011
 10
0
 20
0
 30
0
  0
INSERT
  8
LAYER_5
  2
AIGNBL05020012
 10
0
 20
0
 30
0
  0
INSERT
  8
LAYER_5
  2
AIGNBL05020013
 10
0
 20
0
 30
0
  0
ENDBLK
  0
BLOCK
  8
LAYER_5
  2
AIGNBL05010014
 70
64
 10
0
 20
0
 30
0
  3
AIGNBL05010014
  0
POLYLINE
  8
LAYER_5
 40
0.0353
 41
0.0353
 66
1
 10
0
 20
0
 30
0
  0
VERTEX
  8
LAYER_5
 10
30.3203
 20
90.5257
  0
VERTEX
  8
LAYER_5
 10
30.3203
 20
82.921
  0
SEQEND
  0
POLYLINE
  8
LAYER_5
 40
0.0353
 41
0.0353
 66
1
 10
0
 20
0
 30
0
  0
VERTEX
  8
LAYER_5
 10
122.8203
 20
93.1507
  0
VERTEX
  8
LAYER_5
 10
122.8203
 20
82.921
  0
SEQEND
  0
POLYLINE
  8
LAYER_5
 40
0.0353
 41
0.0353
 66
1
 10
0
 20
0
 30
0
  0
VERTEX
  8
LAYER_5
 10
33.3203
 20
83.921
  0
VERTEX
  8
LAYER_5
 10
119.8203
 20
83.921
  0
SEQEND
  0
INSERT
  8
LAYER_5
  2
AIGNBL05020015
 10
0
 20
0
 30
0
  0
INSERT
  8
LAYER_5
  2
AIGNBL05020016
 10
0
 20
0
 30
0
  0
INSERT
  8
LAYER_5
  2
AIGNBL05020017
 10
0
 20
0
 30
0
  0
INSERT
  8
LAYER_5
  2
AIGNBL05020018
 10
0
 20
0
 30
0
  0
INSERT
  8
LAYER_5
  2
AIGNBL05020019
 10
0
 20
0
 30
0
  0
ENDBLK
  0
BLOCK
  8
LAYER_5
  2
AIGNBL0501001A
 70
64
 10
0
 20
0
 30
0
  3
AIGNBL0501001A
  0
POLYLINE
  8
LAYER_5
 40
0.0353
 41
0.0353
 66
1
 10
0
 20
0
 30
0
  0
VERTEX
  8
LAYER_5
 10
124.8203
 20
124.9007
  0
VERTEX
  8
LAYER_5
 10
130.1515
 20
124.9007
  0
SEQEND
  0
POLYLINE
  8
LAYER_5
 40
0.0353
 41
0.0353
 66
1
 10
0
 20
0
 30
0
  0
VERTEX
  8
LAYER_5
 10
124.8203
 20
95.1507
  0
VERTEX
  8
LAYER_5
 10
130.1515
 20
95.1507
  0
SEQEND
  0
POLYLINE
  8
LAYER_5
 40
0.0353
 41
0.0353
 66
1
 10
0
 20
0
 30
0
  0
VERTEX
  8
LAYER_5
 10
129.1515
 20
121.9007
  0
VERTEX
  8
LAYER_5
 10
129.1515
 20
98.1507
  0
SEQEND
  0
INSERT
  8
LAYER_5
  2
AIGNBL0502001B
 10
0
 20
0
 30
0
  0
INSERT
  8
LAYER_5
  2
AIGNBL0502001C
 10
0
 20
0
 30
0
  0
TEXT
  8
LAYER_5
 10
127.5963
 20
114.9454
 11
127.5963
 21
114.9454
 40
5.5518
 41
0.5
 50
89.99999999
 72
1
  1
âË119
  0
INSERT
  8
LAYER_5
  2
AIGNBL0502001D
 10
0
 20
0
 30
0
  0
INSERT
  8
LAYER_5
  2
AIGNBL0502001E
 10
0
 20
0
 30
0
  0
INSERT
  8
LAYER_5
  2
AIGNBL0502001F
 10
0
 20
0
 30
0
  0
ENDBLK
  0
BLOCK
  8
LAYER_5
  2
AIGNBL05010020
 70
64
 10
0
 20
0
 30
0
  3
AIGNBL05010020
  0
POLYLINE
  8
LAYER_5
 40
0.0353
 41
0.0353
 66
1
 10
0
 20
0
 30
0
  0
VERTEX
  8
LAYER_5
 10
122.8203
 20
93.1507
  0
VERTEX
  8
LAYER_5
 10
122.8203
 20
88.3908
  0
SEQEND
  0
POLYLINE
  8
LAYER_5
 40
0.0353
 41
0.0353
 66
1
 10
0
 20
0
 30
0
  0
VERTEX
  8
LAYER_5
 10
115.8203
 20
93.9007
  0
VERTEX
  8
LAYER_5
 10
115.8203
 20
88.3908
  0
SEQEND
  0
POLYLINE
  8
LAYER_5
 40
0.0353
 41
0.0353
 66
1
 10
0
 20
0
 30
0
  0
VERTEX
  8
LAYER_5
 10
125.8203
 20
89.3908
  0
VERTEX
  8
LAYER_5
 10
128.8203
 20
89.3908
  0
SEQEND
  0
POLYLINE
  8
LAYER_5
 40
0.0353
 41
0.0353
 66
1
 10
0
 20
0
 30
0
  0
VERTEX
  8
LAYER_5
 10
112.8203
 20
89.3908
  0
VERTEX
  8
LAYER_5
 10
101.9869
 20
89.3908
  0
SEQEND
  0
POLYLINE
  8
LAYER_5
 40
0.0353
 41
0.0353
 66
1
 10
0
 20
0
 30
0
  0
VERTEX
  8
LAYER_5
 10
122.8203
 20
89.3908
  0
VERTEX
  8
LAYER_5
 10
115.8203
 20
89.3908
  0
SEQEND
  0
INSERT
  8
LAYER_5
  2
AIGNBL05020021
 10
0
 20
0
 30
0
  0
INSERT
  8
LAYER_5
  2
AIGNBL05020022
 10
0
 20
0
 30
0
  0
INSERT
  8
LAYER_5
  2
AIGNBL05020023
 10
0
 20
0
 30
0
  0
INSERT
  8
LAYER_5
  2
AIGNBL05020024
 10
0
 20
0
 30
0
  0
INSERT
  8
LAYER_5
  2
AIGNBL05020025
 10
0
 20
0
 30
0
  0
ENDBLK
  0
BLOCK
  8
LAYER_5
  2
AIGNBL05010026
 70
64
 10
0
 20
0
 30
0
  3
AIGNBL05010026
  0
POLYLINE
  8
LAYER_5
 40
0.0353
 41
0.0353
 66
1
 10
0
 20
0
 30
0
  0
VERTEX
  8
LAYER_5
 10
30.3203
 20
184.4377
  0
VERTEX
  8
LAYER_5
 10
30.3203
 20
156.1951
  0
SEQEND
  0
POLYLINE
  8
LAYER_5
 40
0.0353
 41
0.0353
 66
1
 10
0
 20
0
 30
0
  0
VERTEX
  8
LAYER_5
 10
135.5703
 20
176.5627
  0
VERTEX
  8
LAYER_5
 10
135.5703
 20
156.1951
  0
SEQEND
  0
POLYLINE
  8
LAYER_5
 40
0.0353
 41
0.0353
 66
1
 10
0
 20
0
 30
0
  0
VERTEX
  8
LAYER_5
 10
33.3203
 20
157.1951
  0
VERTEX
  8
LAYER_5
 10
132.5703
 20
157.1951
  0
SEQEND
  0
INSERT
  8
LAYER_5
  2
AIGNBL05020027
 10
0
 20
0
 30
0
  0
INSERT
  8
LAYER_5
  2
AIGNBL05020028
 10
0
 20
0
 30
0
  0
TEXT
  8
LAYER_5
 10
89.2674
 20
158.7503
 11
89.2674
 21
158.7503
 40
5.5518
 41
0.5
 72
1
  1
ì┼æÕ425
  0
INSERT
  8
LAYER_5
  2
AIGNBL05020029
 10
0
 20
0
 30
0
  0
INSERT
  8
LAYER_5
  2
AIGNBL0502002A
 10
0
 20
0
 30
0
  0
INSERT
  8
LAYER_5
  2
AIGNBL0502002B
 10
0
 20
0
 30
0
  0
ENDBLK
  0
BLOCK
  8
LAYER_10
  2
AIGNBL0A010002
 70
64
 10
0
 20
0
 30
0
  3
AIGNBL0A010002
  0
INSERT
  8
LAYER_10
  2
AIGNBL0A020003
 10
0
 20
0
 30
0
  0
ENDBLK
  0
BLOCK
  8
LAYER_15
  2
AIGNBL0F010002
 70
64
 10
0
 20
0
 30
0
  3
AIGNBL0F010002
  0
POLYLINE
  8
LAYER_15
 40
0.0353
 41
0.0353
 66
1
 10
0
 20
0
 30
0
  0
VERTEX
  8
LAYER_15
 10
159.4574
 20
211.834
  0
VERTEX
  8
LAYER_15
 10
160.849
 20
214.8183
  0
SEQEND
  0
POLYLINE
  8
LAYER_15
 40
0.0353
 41
0.0353
 66
1
 10
0
 20
0
 30
0
  0
VERTEX
  8
LAYER_15
 10
154.563
 20
211.0568
  0
VERTEX
  8
LAYER_15
 10
154.563
 20
216.2119
  0
SEQEND
  0
POLYLINE
  8
LAYER_15
 40
0.0353
 41
0.0353
 66
1
 10
0
 20
0
 30
0
  0
VERTEX
  8
LAYER_15
 10
169.448
 20
208.5436
  0
VERTEX
  8
LAYER_15
 10
161.7496
 20
213.2055
 42
0.02704879387
  0
VERTEX
  8
LAYER_15
 10
160.4264
 20
213.912
  0
SEQEND
  0
POLYLINE
  8
LAYER_15
 40
0.0353
 41
0.0353
 66
1
 10
0
 20
0
 30
0
  0
VERTEX
  8
LAYER_15
 10
159.0346
 20
214.4715
 42
0.0550534559
  0
VERTEX
  8
LAYER_15
 10
156.0608
 20
215.1308
  0
SEQEND
  0
POLYLINE
  8
LAYER_15
 40
0.05
 41
0.05
 66
1
 10
0
 20
0
 30
0
 70
1
  0
VERTEX
  8
LAYER_15
 10
159.1279
 20
214.7034
  0
VERTEX
  8
LAYER_15
 10
158.9414
 20
214.2395
  0
VERTEX
  8
LAYER_15
 10
160.4264
 20
213.912
  0
SEQEND
  0
POLYLINE
  8
LAYER_15
 40
0.05
 41
0.05
 66
1
 10
0
 20
0
 30
0
 70
1
  0
VERTEX
  8
LAYER_15
 10
156.0473
 20
214.8811
  0
VERTEX
  8
LAYER_15
 10
156.0743
 20
215.3804
  0
VERTEX
  8
LAYER_15
 10
154.563
 20
215.2119
  0
SEQEND
  0
TEXT
  8
LAYER_15
 10
168.2534
 20
210.63
 11
168.2534
 21
210.63
 40
5.5518
 41
0.5
 50
328.8025785
 72
1
  1
25üï
  0
INSERT
  8
LAYER_15
  2
AIGNBL0F020003
 10
0
 20
0
 30
0
  0
INSERT
  8
LAYER_15
  2
AIGNBL0F020004
 10
0
 20
0
 30
0
  0
INSERT
  8
LAYER_15
  2
AIGNBL0F020005
 10
0
 20
0
 30
0
  0
INSERT
  8
LAYER_15
  2
AIGNBL0F020006
 10
0
 20
0
 30
0
  0
INSERT
  8
LAYER_15
  2
AIGNBL0F020007
 10
0
 20
0
 30
0
  0
ENDBLK
  0
BLOCK
  8
LAYER_15
  2
AIGNBL0F010008
 70
64
 10
0
 20
0
 30
0
  3
AIGNBL0F010008
  0
POLYLINE
  8
LAYER_15
 40
0.0353
 41
0.0353
 66
1
 10
0
 20
0
 30
0
  0
VERTEX
  8
LAYER_15
 10
154.563
 20
189.7568
  0
VERTEX
  8
LAYER_15
 10
154.563
 20
184.9596
  0
SEQEND
  0
POLYLINE
  8
LAYER_15
 40
0.0353
 41
0.0353
 66
1
 10
0
 20
0
 30
0
  0
VERTEX
  8
LAYER_15
 10
159.4574
 20
188.9796
  0
VERTEX
  8
LAYER_15
 10
160.6977
 20
186.3197
  0
SEQEND
  0
POLYLINE
  8
LAYER_15
 40
0.0353
 41
0.0353
 66
1
 10
0
 20
0
 30
0
  0
VERTEX
  8
LAYER_15
 10
144.1208
 20
187.0401
  0
VERTEX
  8
LAYER_15
 10
153.0653
 20
186.0429
 42
0.0277664841
  0
VERTEX
  8
LAYER_15
 10
154.563
 20
185.9596
  0
SEQEND
  0
POLYLINE
  8
LAYER_15
 40
0.0353
 41
0.0353
 66
1
 10
0
 20
0
 30
0
  0
VERTEX
  8
LAYER_15
 10
156.0607
 20
186.0429
 42
0.05361648666
  0
VERTEX
  8
LAYER_15
 10
158.8826
 20
186.6685
  0
SEQEND
  0
POLYLINE
  8
LAYER_15
 40
0.05
 41
0.05
 66
1
 10
0
 20
0
 30
0
 70
1
  0
VERTEX
  8
LAYER_15
 10
156.0746
 20
185.7933
  0
VERTEX
  8
LAYER_15
 10
156.0468
 20
186.2925
  0
VERTEX
  8
LAYER_15
 10
154.563
 20
185.9596
  0
SEQEND
  0
POLYLINE
  8
LAYER_15
 40
0.05
 41
0.05
 66
1
 10
0
 20
0
 30
0
 70
1
  0
VERTEX
  8
LAYER_15
 10
158.7897
 20
186.9006
  0
VERTEX
  8
LAYER_15
 10
158.9755
 20
186.4364
  0
VERTEX
  8
LAYER_15
 10
160.2751
 20
187.226
  0
SEQEND
  0
TEXT
  8
LAYER_15
 10
151.0768
 20
187.4362
 11
151.0768
 21
187.4362
 40
5.5518
 41
0.5
 50
353.6379796
 72
1
  1
25üï
  0
INSERT
  8
LAYER_15
  2
AIGNBL0F020009
 10
0
 20
0
 30
0
  0
INSERT
  8
LAYER_15
  2
AIGNBL0F02000A
 10
0
 20
0
 30
0
  0
INSERT
  8
LAYER_15
  2
AIGNBL0F02000B
 10
0
 20
0
 30
0
  0
INSERT
  8
LAYER_15
  2
AIGNBL0F02000C
 10
0
 20
0
 30
0
  0
INSERT
  8
LAYER_15
  2
AIGNBL0F02000D
 10
0
 20
0
 30
0
  0
ENDBLK
  0
ENDSEC
  0
SECTION
  2
ENTITIES
  0
POLYLINE
  8
LAYER_2
 40
0.4974
 41
0.4974
 66
1
 10
0
 20
0
 30
0
 70
1
  0
VERTEX
  8
LAYER_2
 10
113.7568
 20
189.0108
  0
VERTEX
  8
LAYER_2
 10
116.0549
 20
186.7127
  0
VERTEX
  8
LAYER_2
 10
112.6077
 20
183.2656
  0
VERTEX
  8
LAYER_2
 10
110.3096
 20
185.5637
  0
SEQEND
  0
CIRCLE
  8
LAYER_2
 10
112.2709
 20
185.2269
 40
0.375
  0
POLYLINE
  8
LAYER_2
 40
0.0353
 41
0.0353
 66
1
 10
0
 20
0
 30
0
 70
1
  0
VERTEX
  8
LAYER_2
 10
113.8933
 20
186.7461
  0
VERTEX
  8
LAYER_2
 10
114.4389
 20
187.2917
  0
VERTEX
  8
LAYER_2
 10
114.3358
 20
187.3948
  0
VERTEX
  8
LAYER_2
 10
113.7902
 20
186.8493
  0
SEQEND
  0
CIRCLE
  8
LAYER_4
 10
149.6253
 20
110.6967
 40
13.75
  0
CIRCLE
  8
LAYER_4
 10
149.6253
 20
110.6967
 40
6.25
  0
CIRCLE
  8
LAYER_4
 10
149.6253
 20
99.5717
 40
0.5625
  0
POLYLINE
  8
LAYER_4
 40
0.0353
 41
0.0353
 66
1
 10
0
 20
0
 30
0
 70
1
  0
VERTEX
  8
LAYER_4
 10
150.1877
 20
122.3706
  0
VERTEX
  8
LAYER_4
 10
150.1877
 20
121.2727
  0
VERTEX
  8
LAYER_4
 10
150.1878
 20
121.2592
 42
-0.4142546456
  0
VERTEX
  8
LAYER_4
 10
149.6253
 20
120.6967
 42
-0.414217912
  0
VERTEX
  8
LAYER_4
 10
149.0628
 20
121.2592
  0
VERTEX
  8
LAYER_4
 10
149.063
 20
121.2727
  0
VERTEX
  8
LAYER_4
 10
149.063
 20
122.3706
  0
VERTEX
  8
LAYER_4
 10
149.0628
 20
122.3842
 42
-0.4141724861
  0
VERTEX
  8
LAYER_4
 10
149.6253
 20
122.9467
 42
-0.4142092072
  0
VERTEX
  8
LAYER_4
 10
150.1878
 20
122.3842
  0
SEQEND
  0
CIRCLE
  8
LAYER_4
 10
160.7503
 20
110.6967
 40
0.5625
  0
CIRCLE
  8
LAYER_4
 10
160.7503
 20
110.6967
 40
0.4375
  0
CIRCLE
  8
LAYER_4
 10
160.7503
 20
110.6967
 40
1.25
  0
CIRCLE
  8
LAYER_4
 10
138.5003
 20
110.6967
 40
0.5625
  0
CIRCLE
  8
LAYER_4
 10
138.5003
 20
110.6967
 40
0.4375
  0
CIRCLE
  8
LAYER_4
 10
138.5003
 20
110.6967
 40
1.25
  0
POLYLINE
  8
LAYER_4
 40
0.0353
 41
0.0353
 66
1
 10
0
 20
0
 30
0
 70
1
  0
VERTEX
  8
LAYER_4
 10
138.6427
 20
114.694
 42
0.08799922772
  0
VERTEX
  8
LAYER_4
 10
138.6088
 20
114.5016
 42
0.4142211986
  0
VERTEX
  8
LAYER_4
 10
139.1713
 20
113.9391
 42
0.3152511264
  0
VERTEX
  8
LAYER_4
 10
139.6998
 20
114.3092
 42
-0.2216951981
  0
VERTEX
  8
LAYER_4
 10
146.0127
 20
120.6222
 42
0.3152958918
  0
VERTEX
  8
LAYER_4
 10
146.3829
 20
121.1507
 42
0.4142124939
  0
VERTEX
  8
LAYER_4
 10
145.8204
 20
121.7132
 42
0.08802307351
  0
VERTEX
  8
LAYER_4
 10
145.628
 20
121.6793
 42
0.2216952719
  0
SEQEND
  0
POLYLINE
  8
LAYER_4
 40
0.0353
 41
0.0353
 66
1
 10
0
 20
0
 30
0
 70
1
  0
VERTEX
  8
LAYER_4
 10
160.608
 20
114.694
 42
-0.08799922751
  0
VERTEX
  8
LAYER_4
 10
160.6419
 20
114.5016
 42
-0.4142058579
  0
VERTEX
  8
LAYER_4
 10
160.0794
 20
113.9391
 42
-0.3152773121
  0
VERTEX
  8
LAYER_4
 10
159.5508
 20
114.3092
 42
0.2216962448
  0
VERTEX
  8
LAYER_4
 10
153.2379
 20
120.6222
 42
-0.3152635047
  0
VERTEX
  8
LAYER_4
 10
152.8678
 20
121.1507
 42
-0.4142278388
  0
VERTEX
  8
LAYER_4
 10
153.4303
 20
121.7132
 42
-0.08797604131
  0
VERTEX
  8
LAYER_4
 10
153.6227
 20
121.6793
 42
-0.2216948767
  0
SEQEND
  0
POLYLINE
  8
LAYER_4
 40
0.0353
 41
0.0353
 66
1
 10
0
 20
0
 30
0
 70
1
  0
VERTEX
  8
LAYER_4
 10
138.6427
 20
106.6993
 42
-0.08795194049
  0
VERTEX
  8
LAYER_4
 10
138.6088
 20
106.8917
 42
-0.4142278377
  0
VERTEX
  8
LAYER_4
 10
139.1713
 20
107.4542
 42
-0.315256979
  0
VERTEX
  8
LAYER_4
 10
139.6998
 20
107.0841
 42
0.2216941594
  0
VERTEX
  8
LAYER_4
 10
146.0127
 20
100.7712
 42
-0.3153167037
  0
VERTEX
  8
LAYER_4
 10
146.3829
 20
100.2426
 42
-0.4142058571
  0
VERTEX
  8
LAYER_4
 10
145.8204
 20
99.6801
 42
-0.08802307351
  0
VERTEX
  8
LAYER_4
 10
145.628
 20
99.714
 42
-0.2216951009
  0
SEQEND
  0
POLYLINE
  8
LAYER_4
 40
0.0353
 41
0.0353
 66
1
 10
0
 20
0
 30
0
  0
VERTEX
  8
LAYER_4
 10
153.2379
 20
100.7712
 42
0.3152843149
  0
VERTEX
  8
LAYER_4
 10
152.8678
 20
100.2426
 42
0.414221201
  0
VERTEX
  8
LAYER_4
 10
153.4303
 20
99.6801
 42
0.0879760413
  0
VERTEX
  8
LAYER_4
 10
153.6227
 20
99.714
  0
SEQEND
  0
POLYLINE
  8
LAYER_4
 40
0.0353
 41
0.0353
 66
1
 10
0
 20
0
 30
0
  0
VERTEX
  8
LAYER_4
 10
159.5508
 20
107.0841
 42
-0.2216952063
  0
VERTEX
  8
LAYER_4
 10
153.2379
 20
100.7712
 42
0.2216952065
  0
VERTEX
  8
LAYER_4
 10
159.5508
 20
107.0841
 42
-0.315283165
  0
VERTEX
  8
LAYER_4
 10
160.0794
 20
107.4542
 42
-0.414212496
  0
VERTEX
  8
LAYER_4
 10
160.6419
 20
106.8917
 42
-0.0879760413
  0
VERTEX
  8
LAYER_4
 10
160.608
 20
106.6993
 42
-0.2216947026
  0
VERTEX
  8
LAYER_4
 10
153.6227
 20
99.714
 42
0.2216947057
  0
VERTEX
  8
LAYER_4
 10
160.608
 20
106.6993
  0
SEQEND
  0
POLYLINE
  8
LAYER_4
 40
0.0353
 41
0.0353
 66
1
 10
0
 20
0
 30
0
 70
1
  0
VERTEX
  8
LAYER_4
 10
116.5703
 20
95.1507
  0
VERTEX
  8
LAYER_4
 10
122.8203
 20
95.1507
  0
VERTEX
  8
LAYER_4
 10
122.8203
 20
124.9007
  0
VERTEX
  8
LAYER_4
 10
116.5703
 20
124.9007
 42
0.4142457783
  0
VERTEX
  8
LAYER_4
 10
115.8203
 20
124.1507
  0
VERTEX
  8
LAYER_4
 10
115.8203
 20
95.9007
 42
0.4142174003
  0
SEQEND
  0
POLYLINE
  8
LAYER_4
 40
0.0353
 41
0.0353
 66
1
 10
0
 20
0
 30
0
  0
VERTEX
  8
LAYER_4
 10
115.8203
 20
108.9007
  0
VERTEX
  8
LAYER_4
 10
114.3203
 20
108.9007
  0
VERTEX
  8
LAYER_4
 10
114.3203
 20
111.1507
  0
VERTEX
  8
LAYER_4
 10
115.8203
 20
111.1507
  0
SEQEND
  0
POLYLINE
  8
LAYER_4
 40
0.0353
 41
0.0353
 66
1
 10
0
 20
0
 30
0
  0
VERTEX
  8
LAYER_4
 10
114.3203
 20
111.1507
 42
0.1517982484
  0
VERTEX
  8
LAYER_4
 10
114.1716
 20
111.1001
 42
0.09364356928
  0
VERTEX
  8
LAYER_4
 10
114.0407
 20
110.9586
 42
0.06437333832
  0
VERTEX
  8
LAYER_4
 10
113.9196
 20
110.6988
 42
0.0817284552
  0
VERTEX
  8
LAYER_4
 10
113.8203
 20
110.0257
 42
0.1059953112
  0
VERTEX
  8
LAYER_4
 10
113.9886
 20
109.1839
 42
0.09030434582
  0
VERTEX
  8
LAYER_4
 10
114.1313
 20
108.9838
 42
0.1836898295
  0
VERTEX
  8
LAYER_4
 10
114.3203
 20
108.9007
  0
SEQEND
  0
POLYLINE
  8
LAYER_4
 40
0.0353
 41
0.0353
 66
1
 10
0
 20
0
 30
0
  0
VERTEX
  8
LAYER_4
 10
108.3203
 20
108.6507
  0
VERTEX
  8
LAYER_4
 10
108.3203
 20
113.9632
  0
VERTEX
  8
LAYER_4
 10
114.5703
 20
113.9632
  0
VERTEX
  8
LAYER_4
 10
114.5703
 20
111.1507
  0
SEQEND
  0
POLYLINE
  8
LAYER_4
 40
0.0353
 41
0.0353
 66
1
 10
0
 20
0
 30
0
  0
VERTEX
  8
LAYER_4
 10
113.821
 20
110.0882
  0
VERTEX
  8
LAYER_4
 10
108.3203
 20
110.0882
  0
SEQEND
  0
POLYLINE
  8
LAYER_4
 40
0.0353
 41
0.0353
 66
1
 10
0
 20
0
 30
0
  0
VERTEX
  8
LAYER_4
 10
113.8272
 20
109.8382
  0
VERTEX
  8
LAYER_4
 10
108.3203
 20
109.8382
  0
SEQEND
  0
POLYLINE
  8
LAYER_4
 40
0.0353
 41
0.0353
 66
1
 10
0
 20
0
 30
0
  0
VERTEX
  8
LAYER_4
 10
114.5703
 20
103.7132
  0
VERTEX
  8
LAYER_4
 10
108.3203
 20
103.7132
  0
SEQEND
  0
POLYLINE
  8
LAYER_4
 40
0.0353
 41
0.0353
 66
1
 10
0
 20
0
 30
0
  0
VERTEX
  8
LAYER_4
 10
114.5703
 20
103.9632
  0
VERTEX
  8
LAYER_4
 10
108.3203
 20
103.9632
  0
SEQEND
  0
POLYLINE
  8
LAYER_4
 40
0.0353
 41
0.0353
 66
1
 10
0
 20
0
 30
0
  0
VERTEX
  8
LAYER_4
 10
114.5703
 20
103.4693
  0
VERTEX
  8
LAYER_4
 10
115.8203
 20
103.4693
  0
SEQEND
  0
POLYLINE
  8
LAYER_4
 40
0.0353
 41
0.0353
 66
1
 10
0
 20
0
 30
0
  0
VERTEX
  8
LAYER_4
 10
114.5703
 20
100.2193
  0
VERTEX
  8
LAYER_4
 10
115.8203
 20
100.2193
  0
SEQEND
  0
POLYLINE
  8
LAYER_4
 40
0.0353
 41
0.0353
 66
1
 10
0
 20
0
 30
0
  0
VERTEX
  8
LAYER_4
 10
114.5703
 20
113.5821
  0
VERTEX
  8
LAYER_4
 10
115.8203
 20
113.5821
  0
SEQEND
  0
POLYLINE
  8
LAYER_4
 40
0.0353
 41
0.0353
 66
1
 10
0
 20
0
 30
0
  0
VERTEX
  8
LAYER_4
 10
75.8203
 20
109.7757
  0
VERTEX
  8
LAYER_4
 10
69.5703
 20
109.7757
  0
SEQEND
  0
POLYLINE
  8
LAYER_4
 40
0.0353
 41
0.0353
 66
1
 10
0
 20
0
 30
0
  0
VERTEX
  8
LAYER_4
 10
75.8203
 20
109.5257
  0
VERTEX
  8
LAYER_4
 10
69.5703
 20
109.5257
  0
SEQEND
  0
POLYLINE
  8
LAYER_4
 40
0.0353
 41
0.0353
 66
1
 10
0
 20
0
 30
0
  0
VERTEX
  8
LAYER_4
 10
69.5703
 20
110.6507
  0
VERTEX
  8
LAYER_4
 10
69.5703
 20
104.2757
  0
VERTEX
  8
LAYER_4
 10
75.8203
 20
104.2757
  0
VERTEX
  8
LAYER_4
 10
75.8203
 20
105.1507
  0
SEQEND
  0
POLYLINE
  8
LAYER_4
 40
0.0353
 41
0.0353
 66
1
 10
0
 20
0
 30
0
  0
VERTEX
  8
LAYER_4
 10
49.5703
 20
115.2757
  0
VERTEX
  8
LAYER_4
 10
43.3203
 20
115.2757
  0
SEQEND
  0
POLYLINE
  8
LAYER_4
 40
0.0353
 41
0.0353
 66
1
 10
0
 20
0
 30
0
  0
VERTEX
  8
LAYER_4
 10
49.5703
 20
115.0257
  0
VERTEX
  8
LAYER_4
 10
43.3203
 20
115.0257
  0
SEQEND
  0
POLYLINE
  8
LAYER_4
 40
0.0353
 41
0.0353
 66
1
 10
0
 20
0
 30
0
  0
VERTEX
  8
LAYER_4
 10
31.6953
 20
143.2757
  0
VERTEX
  8
LAYER_4
 10
31.6953
 20
92.5257
  0
SEQEND
  0
POLYLINE
  8
LAYER_4
 40
0.0353
 41
0.0353
 66
1
 10
0
 20
0
 30
0
 70
1
  0
VERTEX
  8
LAYER_4
 10
36.3203
 20
92.5257
  0
VERTEX
  8
LAYER_4
 10
30.3203
 20
92.5257
  0
VERTEX
  8
LAYER_4
 10
30.3203
 20
143.2757
  0
VERTEX
  8
LAYER_4
 10
36.3203
 20
143.2757
 42
-0.414209721
  0
VERTEX
  8
LAYER_4
 10
37.0703
 20
142.5257
  0
VERTEX
  8
LAYER_4
 10
37.0703
 20
93.2757
 42
-0.4141813508
  0
SEQEND
  0
POLYLINE
  8
LAYER_4
 40
0.0353
 41
0.0353
 66
1
 10
0
 20
0
 30
0
  0
VERTEX
  8
LAYER_4
 10
39.8807
 20
120.4852
 42
0.315407052
  0
VERTEX
  8
LAYER_4
 10
38.0703
 20
117.9007
 42
0.4142146094
  0
VERTEX
  8
LAYER_4
 10
40.8203
 20
115.1507
 42
0.4142047772
  0
VERTEX
  8
LAYER_4
 10
43.5703
 20
117.9007
 42
0.3154077732
  0
VERTEX
  8
LAYER_4
 10
41.7598
 20
120.4852
  0
SEQEND
  0
POLYLINE
  8
LAYER_4
 40
0.0353
 41
0.0353
 66
1
 10
0
 20
0
 30
0
  0
VERTEX
  8
LAYER_4
 10
37.0703
 20
116.2757
  0
VERTEX
  8
LAYER_4
 10
38.6017
 20
116.2757
  0
SEQEND
  0
POLYLINE
  8
LAYER_4
 40
0.0353
 41
0.0353
 66
1
 10
0
 20
0
 30
0
  0
VERTEX
  8
LAYER_4
 10
37.0703
 20
119.5257
  0
VERTEX
  8
LAYER_4
 10
38.6017
 20
119.5257
  0
SEQEND
  0
CIRCLE
  8
LAYER_4
 10
40.8203
 20
117.9007
 40
1.125
  0
POLYLINE
  8
LAYER_4
 40
0.0353
 41
0.0353
 66
1
 10
0
 20
0
 30
0
  0
VERTEX
  8
LAYER_4
 10
39.6019
 20
121.5257
  0
VERTEX
  8
LAYER_4
 10
42.0386
 20
121.5257
  0
SEQEND
  0
POLYLINE
  8
LAYER_4
 40
0.0353
 41
0.0353
 66
1
 10
0
 20
0
 30
0
  0
VERTEX
  8
LAYER_4
 10
41.3353
 20
118.9009
  0
VERTEX
  8
LAYER_4
 10
42.0386
 20
121.5257
  0
VERTEX
  8
LAYER_4
 10
41.4613
 20
122.5257
  0
VERTEX
  8
LAYER_4
 10
40.1792
 20
122.5257
  0
VERTEX
  8
LAYER_4
 10
39.6019
 20
121.5257
  0
VERTEX
  8
LAYER_4
 10
40.3052
 20
118.9009
  0
SEQEND
  0
POLYLINE
  8
LAYER_4
 40
0.0353
 41
0.0353
 66
1
 10
0
 20
0
 30
0
  0
VERTEX
  8
LAYER_4
 10
49.5703
 20
114.1507
 42
0.1804309422
  0
VERTEX
  8
LAYER_4
 10
48.9175
 20
112.4007
 42
0.1804292278
  0
VERTEX
  8
LAYER_4
 10
49.5703
 20
110.6507
  0
SEQEND
  0
POLYLINE
  8
LAYER_4
 40
0.0353
 41
0.0353
 66
1
 10
0
 20
0
 30
0
  0
VERTEX
  8
LAYER_4
 10
75.8203
 20
108.6507
 42
0.1804309422
  0
VERTEX
  8
LAYER_4
 10
75.1675
 20
106.9007
 42
0.1804292278
  0
VERTEX
  8
LAYER_4
 10
75.8203
 20
105.1507
  0
VERTEX
  8
LAYER_4
 10
108.3203
 20
105.1507
  0
SEQEND
  0
POLYLINE
  8
LAYER_4
 40
0.0353
 41
0.0353
 66
1
 10
0
 20
0
 30
0
  0
VERTEX
  8
LAYER_4
 10
69.5703
 20
114.1507
 42
-0.1804251018
  0
VERTEX
  8
LAYER_4
 10
70.223
 20
112.4007
 42
-0.1804233873
  0
VERTEX
  8
LAYER_4
 10
69.5703
 20
110.6507
  0
VERTEX
  8
LAYER_4
 10
49.5703
 20
110.6507
  0
VERTEX
  8
LAYER_4
 10
49.5703
 20
109.7757
  0
VERTEX
  8
LAYER_4
 10
43.3203
 20
109.7757
  0
VERTEX
  8
LAYER_4
 10
43.3203
 20
116.7551
  0
SEQEND
  0
POLYLINE
  8
LAYER_4
 40
0.0353
 41
0.0353
 66
1
 10
0
 20
0
 30
0
  0
VERTEX
  8
LAYER_4
 10
114.5703
 20
108.9007
  0
VERTEX
  8
LAYER_4
 10
114.5703
 20
99.8382
  0
VERTEX
  8
LAYER_4
 10
108.3203
 20
99.8382
  0
VERTEX
  8
LAYER_4
 10
108.3203
 20
105.1507
 42
0.1804233672
  0
VERTEX
  8
LAYER_4
 10
108.973
 20
106.9007
 42
0.1804250937
  0
VERTEX
  8
LAYER_4
 10
108.3203
 20
108.6507
  0
VERTEX
  8
LAYER_4
 10
75.8203
 20
108.6507
  0
VERTEX
  8
LAYER_4
 10
75.8203
 20
115.0257
  0
VERTEX
  8
LAYER_4
 10
69.5703
 20
115.0257
  0
VERTEX
  8
LAYER_4
 10
69.5703
 20
114.1507
  0
VERTEX
  8
LAYER_4
 10
49.5703
 20
114.1507
  0
VERTEX
  8
LAYER_4
 10
49.5703
 20
120.5257
  0
VERTEX
  8
LAYER_4
 10
43.3203
 20
120.5257
  0
VERTEX
  8
LAYER_4
 10
43.3203
 20
119.0464
  0
SEQEND
  0
POLYLINE
  8
LAYER_4
 40
0.0353
 41
0.0353
 66
1
 10
0
 20
0
 30
0
  0
VERTEX
  8
LAYER_4
 10
123.8203
 20
178.6252
  0
VERTEX
  8
LAYER_4
 10
117.5703
 20
178.6252
  0
SEQEND
  0
POLYLINE
  8
LAYER_4
 40
0.0353
 41
0.0353
 66
1
 10
0
 20
0
 30
0
  0
VERTEX
  8
LAYER_4
 10
123.8203
 20
178.3752
  0
VERTEX
  8
LAYER_4
 10
117.5703
 20
178.3752
  0
SEQEND
  0
POLYLINE
  8
LAYER_4
 40
0.0353
 41
0.0353
 66
1
 10
0
 20
0
 30
0
  0
VERTEX
  8
LAYER_4
 10
123.8203
 20
172.2502
  0
VERTEX
  8
LAYER_4
 10
117.5703
 20
172.2502
  0
SEQEND
  0
POLYLINE
  8
LAYER_4
 40
0.0353
 41
0.0353
 66
1
 10
0
 20
0
 30
0
  0
VERTEX
  8
LAYER_4
 10
123.8203
 20
172.5002
  0
VERTEX
  8
LAYER_4
 10
117.5703
 20
172.5002
  0
SEQEND
  0
POLYLINE
  8
LAYER_4
 40
0.0353
 41
0.0353
 66
1
 10
0
 20
0
 30
0
  0
VERTEX
  8
LAYER_4
 10
80.9069
 20
183.5627
  0
VERTEX
  8
LAYER_4
 10
85.0703
 20
183.5627
  0
VERTEX
  8
LAYER_4
 10
85.0703
 20
177.1877
  0
SEQEND
  0
POLYLINE
  8
LAYER_4
 40
0.0353
 41
0.0353
 66
1
 10
0
 20
0
 30
0
  0
VERTEX
  8
LAYER_4
 10
85.0703
 20
178.3127
  0
VERTEX
  8
LAYER_4
 10
79.7343
 20
178.3127
  0
SEQEND
  0
POLYLINE
  8
LAYER_4
 40
0.0353
 41
0.0353
 66
1
 10
0
 20
0
 30
0
  0
VERTEX
  8
LAYER_4
 10
85.0703
 20
178.0627
  0
VERTEX
  8
LAYER_4
 10
79.6483
 20
178.0627
  0
SEQEND
  0
POLYLINE
  8
LAYER_4
 40
0.0353
 41
0.0353
 66
1
 10
0
 20
0
 30
0
  0
VERTEX
  8
LAYER_4
 10
78.8203
 20
175.9914
  0
VERTEX
  8
LAYER_4
 10
78.8203
 20
172.8127
  0
VERTEX
  8
LAYER_4
 10
85.0703
 20
172.8127
  0
VERTEX
  8
LAYER_4
 10
85.0703
 20
173.6877
  0
SEQEND
  0
POLYLINE
  8
LAYER_4
 40
0.0353
 41
0.0353
 66
1
 10
0
 20
0
 30
0
  0
VERTEX
  8
LAYER_4
 10
117.5703
 20
177.1877
  0
VERTEX
  8
LAYER_4
 10
85.0703
 20
177.1877
 42
0.1804299422
  0
VERTEX
  8
LAYER_4
 10
84.4175
 20
175.4377
 42
0.1804302278
  0
VERTEX
  8
LAYER_4
 10
85.0703
 20
173.6877
  0
VERTEX
  8
LAYER_4
 10
117.5703
 20
173.6877
  0
SEQEND
  0
POLYLINE
  8
LAYER_4
 40
0.0353
 41
0.0353
 66
1
 10
0
 20
0
 30
0
 70
1
  0
VERTEX
  8
LAYER_4
 10
117.5703
 20
177.1877
 42
-0.180424094
  0
VERTEX
  8
LAYER_4
 10
118.223
 20
175.4377
 42
-0.180424367
  0
VERTEX
  8
LAYER_4
 10
117.5703
 20
173.6877
  0
VERTEX
  8
LAYER_4
 10
117.5703
 20
168.3752
  0
VERTEX
  8
LAYER_4
 10
123.8203
 20
168.3752
  0
VERTEX
  8
LAYER_4
 10
123.8203
 20
182.5002
  0
VERTEX
  8
LAYER_4
 10
117.5703
 20
182.5002
  0
SEQEND
  0
POLYLINE
  8
LAYER_4
 40
0.0353
 41
0.0353
 66
1
 10
0
 20
0
 30
0
  0
VERTEX
  8
LAYER_4
 10
106.6418
 20
173.6877
 42
0.05724836131
  0
VERTEX
  8
LAYER_4
 10
108.0875
 20
170.6832
 42
0.03858355052
  0
VERTEX
  8
LAYER_4
 10
109.4542
 20
168.8468
 42
0.05664631951
  0
VERTEX
  8
LAYER_4
 10
111.9701
 20
166.546
 42
0.07542072531
  0
VERTEX
  8
LAYER_4
 10
116.004
 20
164.461
 42
0.0388381186
  0
VERTEX
  8
LAYER_4
 10
118.2304
 20
163.8978
 42
0.04242539732
  0
VERTEX
  8
LAYER_4
 10
120.6953
 20
163.6877
 42
0.4142127726
  0
VERTEX
  8
LAYER_4
 10
135.5703
 20
178.5627
 42
0.4142125344
  0
VERTEX
  8
LAYER_4
 10
120.6953
 20
193.4377
 42
0.4142143523
  0
VERTEX
  8
LAYER_4
 10
105.8203
 20
178.5627
 42
0.0235029592
  0
VERTEX
  8
LAYER_4
 10
105.8839
 20
177.1877
  0
SEQEND
  0
CIRCLE
  8
LAYER_4
 10
55.6953
 20
186.4377
 40
25.375
  0
CIRCLE
  8
LAYER_4
 10
131.8203
 20
179.2336
 40
1.25
  0
CIRCLE
  8
LAYER_4
 10
109.5703
 20
179.2336
 40
1.25
  0
CIRCLE
  8
LAYER_4
 10
55.6953
 20
186.4377
 40
18.258
  0
POLYLINE
  8
LAYER_4
 40
0.0353
 41
0.0353
 66
1
 10
0
 20
0
 30
0
 70
1
  0
VERTEX
  8
LAYER_4
 10
51.7449
 20
231.8327
 42
0.1002432196
  0
VERTEX
  8
LAYER_4
 10
54.8863
 20
232.4713
 42
0.04245789243
  0
VERTEX
  8
LAYER_4
 10
56.2039
 20
233.1624
 42
0.04275244401
  0
VERTEX
  8
LAYER_4
 10
57.5105
 20
234.1605
 42
0.04245081158
  0
VERTEX
  8
LAYER_4
 10
58.7534
 20
235.4963
 42
0.03956276282
  0
VERTEX
  8
LAYER_4
 10
59.8002
 20
237.0707
 42
0.03758272397
  0
VERTEX
  8
LAYER_4
 10
60.6247
 20
238.8509
 42
0.0364311376
  0
VERTEX
  8
LAYER_4
 10
61.2003
 20
240.8041
 42
0.03592681655
  0
VERTEX
  8
LAYER_4
 10
61.5008
 20
242.8977
 42
0.01785382657
  0
VERTEX
  8
LAYER_4
 10
61.5396
 20
243.9869
 42
0.03820081753
  0
VERTEX
  8
LAYER_4
 10
61.3643
 20
246.2877
 42
0.03588351244
  0
VERTEX
  8
LAYER_4
 10
60.9034
 20
248.3051
 42
0.03663821658
  0
VERTEX
  8
LAYER_4
 10
60.1823
 20
250.1635
 42
0.03812049383
  0
VERTEX
  8
LAYER_4
 10
59.2276
 20
251.83
 42
0.04048395455
  0
VERTEX
  8
LAYER_4
 10
58.0655
 20
253.2721
 42
0.04375081851
  0
VERTEX
  8
LAYER_4
 10
56.7224
 20
254.4569
 42
0.04419811152
  0
VERTEX
  8
LAYER_4
 10
55.3363
 20
255.298
 42
0.04380324927
  0
VERTEX
  8
LAYER_4
 10
53.9569
 20
255.8299
 42
0.06974261175
  0
VERTEX
  8
LAYER_4
 10
51.7449
 20
256.1411
 42
0.100244619
  0
VERTEX
  8
LAYER_4
 10
48.6035
 20
255.5025
 42
0.04245799681
  0
VERTEX
  8
LAYER_4
 10
47.2859
 20
254.8114
 42
0.04275233402
  0
VERTEX
  8
LAYER_4
 10
45.9794
 20
253.8133
 42
0.04245055179
  0
VERTEX
  8
LAYER_4
 10
44.7365
 20
252.4775
 42
0.03956246768
  0
VERTEX
  8
LAYER_4
 10
43.6897
 20
250.9031
 42
0.03758246259
  0
VERTEX
  8
LAYER_4
 10
42.8652
 20
249.1229
 42
0.03643094835
  0
VERTEX
  8
LAYER_4
 10
42.2896
 20
247.1697
 42
0.03592671719
  0
VERTEX
  8
LAYER_4
 10
41.9891
 20
245.0761
 42
0.01785381601
  0
VERTEX
  8
LAYER_4
 10
41.9503
 20
243.9869
 42
0.03820077111
  0
VERTEX
  8
LAYER_4
 10
42.1256
 20
241.6861
 42
0.0358833732
  0
VERTEX
  8
LAYER_4
 10
42.5865
 20
239.6687
 42
0.03663799161
  0
VERTEX
  8
LAYER_4
 10
43.3076
 20
237.8103
 42
0.03812020738
  0
VERTEX
  8
LAYER_4
 10
44.2623
 20
236.1438
 42
0.04048365485
  0
VERTEX
  8
LAYER_4
 10
45.4244
 20
234.7017
 42
0.04375058894
  0
VERTEX
  8
LAYER_4
 10
46.7675
 20
233.5169
 42
0.04419807518
  0
VERTEX
  8
LAYER_4
 10
48.1535
 20
232.6758
 42
0.04380346281
  0
VERTEX
  8
LAYER_4
 10
49.5329
 20
232.1439
 42
0.06974346621
  0
SEQEND
  0
POLYLINE
  8
LAYER_4
 40
0.0353
 41
0.0353
 66
1
 10
0
 20
0
 30
0
 70
1
  0
VERTEX
  8
LAYER_4
 10
52.0306
 20
235.014
 42
0.09509919763
  0
VERTEX
  8
LAYER_4
 10
54.1058
 20
235.4137
 42
0.0576547252
  0
VERTEX
  8
LAYER_4
 10
55.357
 20
236.0872
 42
0.05188033079
  0
VERTEX
  8
LAYER_4
 10
56.4697
 20
237.0444
 42
0.04688204833
  0
VERTEX
  8
LAYER_4
 10
57.4157
 20
238.2497
 42
0.04330275768
  0
VERTEX
  8
LAYER_4
 10
58.167
 20
239.6672
 42
0.04115087553
  0
VERTEX
  8
LAYER_4
 10
58.6955
 20
241.2613
 42
0.04015473012
  0
VERTEX
  8
LAYER_4
 10
58.9733
 20
242.9962
 42
0.01988527027
  0
VERTEX
  8
LAYER_4
 10
59.0093
 20
243.9053
 42
0.04465549282
  0
VERTEX
  8
LAYER_4
 10
58.8306
 20
245.9133
 42
0.04018803675
  0
VERTEX
  8
LAYER_4
 10
58.3928
 20
247.5644
 42
0.04165523492
  0
VERTEX
  8
LAYER_4
 10
57.7218
 20
249.0524
 42
0.04441537988
  0
VERTEX
  8
LAYER_4
 10
56.8455
 20
250.3415
 42
0.04866681737
  0
VERTEX
  8
LAYER_4
 10
55.792
 20
251.3959
 42
0.05421418738
  0
VERTEX
  8
LAYER_4
 10
54.5895
 20
252.18
 42
0.06005400195
  0
VERTEX
  8
LAYER_4
 10
53.2659
 20
252.6578
 42
0.05600960548
  0
VERTEX
  8
LAYER_4
 10
52.0306
 20
252.7967
 42
0.09509938126
  0
VERTEX
  8
LAYER_4
 10
49.9554
 20
252.397
 42
0.05765503354
  0
VERTEX
  8
LAYER_4
 10
48.7042
 20
251.7235
 42
0.05188064975
  0
VERTEX
  8
LAYER_4
 10
47.5915
 20
250.7663
 42
0.04688227652
  0
VERTEX
  8
LAYER_4
 10
46.6455
 20
249.561
 42
0.04330281882
  0
VERTEX
  8
LAYER_4
 10
45.8942
 20
248.1434
 42
0.04115070738
  0
VERTEX
  8
LAYER_4
 10
45.3657
 20
246.5493
 42
0.04015427888
  0
VERTEX
  8
LAYER_4
 10
45.0879
 20
244.8144
 42
0.0198849065
  0
VERTEX
  8
LAYER_4
 10
45.0519
 20
243.9053
 42
0.04465623136
  0
VERTEX
  8
LAYER_4
 10
45.2306
 20
241.8974
 42
0.04018837807
  0
VERTEX
  8
LAYER_4
 10
45.6684
 20
240.2463
 42
0.04165531697
  0
VERTEX
  8
LAYER_4
 10
46.3394
 20
238.7583
 42
0.04441525884
  0
VERTEX
  8
LAYER_4
 10
47.2157
 20
237.4692
 42
0.04866655852
  0
VERTEX
  8
LAYER_4
 10
48.2692
 20
236.4148
 42
0.05421387453
  0
VERTEX
  8
LAYER_4
 10
49.4717
 20
235.6307
 42
0.0600537449
  0
VERTEX
  8
LAYER_4
 10
50.7953
 20
235.1529
 42
0.05600951651
  0
SEQEND
  0
POLYLINE
  8
LAYER_4
 40
0.0353
 41
0.0353
 66
1
 10
0
 20
0
 30
0
  0
VERTEX
  8
LAYER_4
 10
51.5037
 20
256.1374
  0
VERTEX
  8
LAYER_4
 10
51.2624
 20
256.1411
 42
0.100244619
  0
VERTEX
  8
LAYER_4
 10
48.121
 20
255.5025
 42
0.04245799681
  0
VERTEX
  8
LAYER_4
 10
46.8034
 20
254.8114
 42
0.04275233402
  0
VERTEX
  8
LAYER_4
 10
45.4969
 20
253.8133
 42
0.04245055179
  0
VERTEX
  8
LAYER_4
 10
44.254
 20
252.4775
 42
0.03956246768
  0
VERTEX
  8
LAYER_4
 10
43.2072
 20
250.9031
 42
0.03758246259
  0
VERTEX
  8
LAYER_4
 10
42.3827
 20
249.1229
 42
0.03643094835
  0
VERTEX
  8
LAYER_4
 10
41.8071
 20
247.1697
 42
0.03592671719
  0
VERTEX
  8
LAYER_4
 10
41.5066
 20
245.0761
 42
0.01785381601
  0
VERTEX
  8
LAYER_4
 10
41.4678
 20
243.9869
 42
0.03820077111
  0
VERTEX
  8
LAYER_4
 10
41.6431
 20
241.6861
 42
0.0358833732
  0
VERTEX
  8
LAYER_4
 10
42.104
 20
239.6687
 42
0.03663799161
  0
VERTEX
  8
LAYER_4
 10
42.8251
 20
237.8103
 42
0.03812020738
  0
VERTEX
  8
LAYER_4
 10
43.7798
 20
236.1438
 42
0.04048365485
  0
VERTEX
  8
LAYER_4
 10
44.9419
 20
234.7017
 42
0.04375058894
  0
VERTEX
  8
LAYER_4
 10
46.285
 20
233.5169
 42
0.04419807518
  0
VERTEX
  8
LAYER_4
 10
47.671
 20
232.6758
 42
0.04380346281
  0
VERTEX
  8
LAYER_4
 10
49.0504
 20
232.1439
 42
0.06974346621
  0
VERTEX
  8
LAYER_4
 10
51.2624
 20
231.8327
  0
VERTEX
  8
LAYER_4
 10
51.5037
 20
231.8364
  0
SEQEND
  0
POLYLINE
  8
LAYER_4
 40
0.0353
 41
0.0353
 66
1
 10
0
 20
0
 30
0
  0
VERTEX
  8
LAYER_4
 10
51.0533
 20
256.1108
 42
0.02209325058
  0
VERTEX
  8
LAYER_4
 10
50.3617
 20
256.1411
 42
0.100244619
  0
VERTEX
  8
LAYER_4
 10
47.2203
 20
255.5025
 42
0.04245799681
  0
VERTEX
  8
LAYER_4
 10
45.9027
 20
254.8114
 42
0.04275233402
  0
VERTEX
  8
LAYER_4
 10
44.5962
 20
253.8133
 42
0.04245055179
  0
VERTEX
  8
LAYER_4
 10
43.3533
 20
252.4775
 42
0.03956246768
  0
VERTEX
  8
LAYER_4
 10
42.3065
 20
250.9031
 42
0.03758246259
  0
VERTEX
  8
LAYER_4
 10
41.482
 20
249.1229
 42
0.03643094835
  0
VERTEX
  8
LAYER_4
 10
40.9064
 20
247.1697
 42
0.03592671719
  0
VERTEX
  8
LAYER_4
 10
40.6059
 20
245.0761
 42
0.01785381601
  0
VERTEX
  8
LAYER_4
 10
40.5671
 20
243.9869
 42
0.03820077111
  0
VERTEX
  8
LAYER_4
 10
40.7424
 20
241.6861
 42
0.0358833732
  0
VERTEX
  8
LAYER_4
 10
41.2033
 20
239.6687
 42
0.03663799161
  0
VERTEX
  8
LAYER_4
 10
41.9244
 20
237.8103
 42
0.03812020738
  0
VERTEX
  8
LAYER_4
 10
42.8791
 20
236.1438
 42
0.04048365485
  0
VERTEX
  8
LAYER_4
 10
44.0412
 20
234.7017
 42
0.04375058894
  0
VERTEX
  8
LAYER_4
 10
45.3843
 20
233.5169
 42
0.04419807518
  0
VERTEX
  8
LAYER_4
 10
46.7703
 20
232.6758
 42
0.04380346281
  0
VERTEX
  8
LAYER_4
 10
48.1497
 20
232.1439
 42
0.06974346621
  0
VERTEX
  8
LAYER_4
 10
50.3617
 20
231.8327
 42
0.02218751526
  0
VERTEX
  8
LAYER_4
 10
51.0533
 20
231.8631
  0
SEQEND
  0
POLYLINE
  8
LAYER_4
 40
0.0353
 41
0.0353
 66
1
 10
0
 20
0
 30
0
 70
1
  0
VERTEX
  8
LAYER_4
 10
37.4543
 20
243.3812
 42
0.1980437733
  0
VERTEX
  8
LAYER_4
 10
37.5238
 20
243.3541
 42
0.03053667149
  0
VERTEX
  8
LAYER_4
 10
38.0142
 20
243.3116
 42
0.01099169569
  0
VERTEX
  8
LAYER_4
 10
38.8822
 20
243.2936
 42
0.02704999763
  0
VERTEX
  8
LAYER_4
 10
40.1539
 20
243.3413
 42
0.3387120686
  0
VERTEX
  8
LAYER_4
 10
40.3101
 20
243.3812
 42
0.1980255774
  0
VERTEX
  8
LAYER_4
 10
40.2406
 20
243.4083
 42
0.03054887759
  0
VERTEX
  8
LAYER_4
 10
39.7502
 20
243.4508
 42
0.01101253549
  0
VERTEX
  8
LAYER_4
 10
38.8822
 20
243.4689
 42
0.02707975957
  0
VERTEX
  8
LAYER_4
 10
37.6105
 20
243.4211
 42
0.3386781402
  0
SEQEND
  0
POLYLINE
  8
LAYER_4
 40
0.0353
 41
0.0353
 66
1
 10
0
 20
0
 30
0
  0
VERTEX
  8
LAYER_4
 10
37.4543
 20
240.8866
 42
0.1980437733
  0
VERTEX
  8
LAYER_4
 10
37.5238
 20
240.8595
 42
0.03053667149
  0
VERTEX
  8
LAYER_4
 10
38.0142
 20
240.817
 42
0.01099169569
  0
VERTEX
  8
LAYER_4
 10
38.8822
 20
240.799
 42
0.02704999763
  0
VERTEX
  8
LAYER_4
 10
40.1539
 20
240.8467
 42
0.3387120686
  0
VERTEX
  8
LAYER_4
 10
40.3101
 20
240.8866
  0
VERTEX
  8
LAYER_4
 10
40.3092
 20
240.8898
  0
SEQEND
  0
POLYLINE
  8
LAYER_4
 40
0.0353
 41
0.0353
 66
1
 10
0
 20
0
 30
0
  0
VERTEX
  8
LAYER_4
 10
37.4543
 20
238.5375
 42
0.1980437733
  0
VERTEX
  8
LAYER_4
 10
37.5238
 20
238.5104
 42
0.03053667149
  0
VERTEX
  8
LAYER_4
 10
38.0142
 20
238.4679
 42
0.01099169569
  0
VERTEX
  8
LAYER_4
 10
38.8822
 20
238.4499
 42
0.02704999763
  0
VERTEX
  8
LAYER_4
 10
40.1539
 20
238.4976
 42
0.3387120686
  0
VERTEX
  8
LAYER_4
 10
40.3101
 20
238.5375
  0
VERTEX
  8
LAYER_4
 10
40.3092
 20
238.5407
  0
SEQEND
  0
POLYLINE
  8
LAYER_4
 40
0.0353
 41
0.0353
 66
1
 10
0
 20
0
 30
0
  0
VERTEX
  8
LAYER_4
 10
37.4543
 20
243.3812
  0
VERTEX
  8
LAYER_4
 10
37.4543
 20
238.5375
  0
SEQEND
  0
POLYLINE
  8
LAYER_4
 40
0.0353
 41
0.0353
 66
1
 10
0
 20
0
 30
0
  0
VERTEX
  8
LAYER_4
 10
40.3092
 20
243.378
  0
VERTEX
  8
LAYER_4
 10
40.3092
 20
242.8416
  0
SEQEND
  0
POLYLINE
  8
LAYER_4
 40
0.0353
 41
0.0353
 66
1
 10
0
 20
0
 30
0
  0
VERTEX
  8
LAYER_4
 10
40.3092
 20
241.2643
  0
VERTEX
  8
LAYER_4
 10
40.3092
 20
238.5407
  0
SEQEND
  0
POLYLINE
  8
LAYER_4
 40
0.0353
 41
0.0353
 66
1
 10
0
 20
0
 30
0
  0
VERTEX
  8
LAYER_4
 10
40.0189
 20
242.8708
  0
VERTEX
  8
LAYER_4
 10
39.9251
 20
242.8755
 42
0.2357606575
  0
VERTEX
  8
LAYER_4
 10
39.1999
 20
242.5111
 42
0.1522937937
  0
VERTEX
  8
LAYER_4
 10
39.0643
 20
242.085
 42
0.2572289782
  0
VERTEX
  8
LAYER_4
 10
39.4353
 20
241.4348
 42
0.1427556535
  0
VERTEX
  8
LAYER_4
 10
39.9251
 20
241.2944
  0
SEQEND
  0
POLYLINE
  8
LAYER_4
 40
0.0353
 41
0.0353
 66
1
 10
0
 20
0
 30
0
  0
VERTEX
  8
LAYER_4
 10
40.613
 20
242.811
  0
VERTEX
  8
LAYER_4
 10
40.0189
 20
242.8708
  0
SEQEND
  0
POLYLINE
  8
LAYER_4
 40
0.0353
 41
0.0353
 66
1
 10
0
 20
0
 30
0
  0
VERTEX
  8
LAYER_4
 10
39.9251
 20
241.2944
  0
VERTEX
  8
LAYER_4
 10
40.8235
 20
241.2239
  0
SEQEND
  0
POLYLINE
  8
LAYER_4
 40
0.0353
 41
0.0353
 66
1
 10
0
 20
0
 30
0
  0
VERTEX
  8
LAYER_4
 10
30.2413
 20
241.2119
  0
VERTEX
  8
LAYER_4
 10
30.1073
 20
241.2208
 42
0.1521193108
  0
VERTEX
  8
LAYER_4
 10
29.5518
 20
241.0501
 42
0.1634341659
  0
VERTEX
  8
LAYER_4
 10
29.271
 20
240.6697
 42
0.07086692737
  0
VERTEX
  8
LAYER_4
 10
29.2465
 20
240.4977
 42
0.1911246823
  0
VERTEX
  8
LAYER_4
 10
29.4281
 20
240.0542
 42
0.1508825223
  0
VERTEX
  8
LAYER_4
 10
29.8763
 20
239.8011
 42
0.04940520932
  0
VERTEX
  8
LAYER_4
 10
30.0745
 20
239.7751
  0
SEQEND
  0
POLYLINE
  8
LAYER_4
 40
0.0353
 41
0.0353
 66
1
 10
0
 20
0
 30
0
  0
VERTEX
  8
LAYER_4
 10
29.9667
 20
239.7843
  0
VERTEX
  8
LAYER_4
 10
37.4543
 20
239.1465
  0
SEQEND
  0
POLYLINE
  8
LAYER_4
 40
0.0353
 41
0.0353
 66
1
 10
0
 20
0
 30
0
  0
VERTEX
  8
LAYER_4
 10
30.1359
 20
241.2209
  0
VERTEX
  8
LAYER_4
 10
37.4543
 20
240.5975
  0
SEQEND
  0
POLYLINE
  8
LAYER_4
 40
0.0353
 41
0.0353
 66
1
 10
0
 20
0
 30
0
 70
1
  0
VERTEX
  8
LAYER_4
 10
28.1811
 20
243.49
 42
0.2052894845
  0
VERTEX
  8
LAYER_4
 10
28.252
 20
243.4609
 42
0.03246762101
  0
VERTEX
  8
LAYER_4
 10
28.7216
 20
243.4179
 42
0.01136071632
  0
VERTEX
  8
LAYER_4
 10
29.4354
 20
243.4023
 42
0.03080709941
  0
VERTEX
  8
LAYER_4
 10
30.5524
 20
243.4501
 42
0.3563075247
  0
VERTEX
  8
LAYER_4
 10
30.6896
 20
243.49
 42
0.2053110951
  0
VERTEX
  8
LAYER_4
 10
30.6187
 20
243.5191
 42
0.03245300856
  0
VERTEX
  8
LAYER_4
 10
30.1491
 20
243.562
 42
0.01133929585
  0
VERTEX
  8
LAYER_4
 10
29.4354
 20
243.5776
 42
0.03077255306
  0
VERTEX
  8
LAYER_4
 10
28.3183
 20
243.5299
 42
0.3563518435
  0
SEQEND
  0
POLYLINE
  8
LAYER_4
 40
0.0353
 41
0.0353
 66
1
 10
0
 20
0
 30
0
  0
VERTEX
  8
LAYER_4
 10
28.1811
 20
241.8139
 42
0.2053114187
  0
VERTEX
  8
LAYER_4
 10
28.252
 20
241.7848
 42
0.03245288936
  0
VERTEX
  8
LAYER_4
 10
28.7216
 20
241.7419
 42
0.01133832158
  0
VERTEX
  8
LAYER_4
 10
29.4354
 20
241.7263
 42
0.03077331185
  0
VERTEX
  8
LAYER_4
 10
30.5524
 20
241.774
 42
0.3563505173
  0
VERTEX
  8
LAYER_4
 10
30.6896
 20
241.8139
  0
VERTEX
  8
LAYER_4
 10
30.6891
 20
241.8165
  0
SEQEND
  0
POLYLINE
  8
LAYER_4
 40
0.0353
 41
0.0353
 66
1
 10
0
 20
0
 30
0
  0
VERTEX
  8
LAYER_4
 10
28.1811
 20
239.3351
 42
0.2052894845
  0
VERTEX
  8
LAYER_4
 10
28.252
 20
239.306
 42
0.03246762101
  0
VERTEX
  8
LAYER_4
 10
28.7216
 20
239.263
 42
0.01136071632
  0
VERTEX
  8
LAYER_4
 10
29.4354
 20
239.2474
 42
0.03080709941
  0
VERTEX
  8
LAYER_4
 10
30.5524
 20
239.2952
 42
0.3563075247
  0
VERTEX
  8
LAYER_4
 10
30.6896
 20
239.3351
  0
VERTEX
  8
LAYER_4
 10
30.6891
 20
239.3377
  0
SEQEND
  0
POLYLINE
  8
LAYER_4
 40
0.0353
 41
0.0353
 66
1
 10
0
 20
0
 30
0
  0
VERTEX
  8
LAYER_4
 10
28.1811
 20
237.6027
 42
0.2052894845
  0
VERTEX
  8
LAYER_4
 10
28.252
 20
237.5736
 42
0.03246762101
  0
VERTEX
  8
LAYER_4
 10
28.7216
 20
237.5306
 42
0.01136071632
  0
VERTEX
  8
LAYER_4
 10
29.4354
 20
237.515
 42
0.03080709941
  0
VERTEX
  8
LAYER_4
 10
30.5524
 20
237.5628
 42
0.3563075247
  0
VERTEX
  8
LAYER_4
 10
30.6896
 20
237.6027
  0
VERTEX
  8
LAYER_4
 10
30.6891
 20
237.6053
  0
SEQEND
  0
POLYLINE
  8
LAYER_4
 40
0.0353
 41
0.0353
 66
1
 10
0
 20
0
 30
0
  0
VERTEX
  8
LAYER_4
 10
28.1811
 20
243.49
  0
VERTEX
  8
LAYER_4
 10
28.1811
 20
237.6027
  0
SEQEND
  0
POLYLINE
  8
LAYER_4
 40
0.0353
 41
0.0353
 66
1
 10
0
 20
0
 30
0
  0
VERTEX
  8
LAYER_4
 10
30.6891
 20
243.4874
  0
VERTEX
  8
LAYER_4
 10
30.6891
 20
241.1738
  0
SEQEND
  0
POLYLINE
  8
LAYER_4
 40
0.0353
 41
0.0353
 66
1
 10
0
 20
0
 30
0
  0
VERTEX
  8
LAYER_4
 10
30.6891
 20
239.7228
  0
VERTEX
  8
LAYER_4
 10
30.6891
 20
237.6053
  0
SEQEND
  0
POLYLINE
  8
LAYER_4
 40
0.0353
 41
0.0353
 66
1
 10
0
 20
0
 30
0
 70
1
  0
VERTEX
  8
LAYER_4
 10
24.3112
 20
244.8974
  0
VERTEX
  8
LAYER_4
 10
25.9033
 20
246.4894
  0
VERTEX
  8
LAYER_4
 10
26.9802
 20
245.4125
  0
VERTEX
  8
LAYER_4
 10
25.3882
 20
243.8204
  0
SEQEND
  0
POLYLINE
  8
LAYER_4
 40
0.0353
 41
0.0353
 66
1
 10
0
 20
0
 30
0
  0
VERTEX
  8
LAYER_4
 10
26.0206
 20
244.618
  0
VERTEX
  8
LAYER_4
 10
25.6331
 20
244.3942
  0
VERTEX
  8
LAYER_4
 10
24.958
 20
245.0692
  0
SEQEND
  0
POLYLINE
  8
LAYER_4
 40
0.0353
 41
0.0353
 66
1
 10
0
 20
0
 30
0
  0
VERTEX
  8
LAYER_4
 10
25.8818
 20
245.993
 42
0.1316623687
  0
VERTEX
  8
LAYER_4
 10
25.3881
 20
245.2504
  0
SEQEND
  0
POLYLINE
  8
LAYER_4
 40
0.0353
 41
0.0353
 66
1
 10
0
 20
0
 30
0
 70
1
  0
VERTEX
  8
LAYER_4
 10
26.0206
 20
244.618
 42
-0.1316505856
  0
VERTEX
  8
LAYER_4
 10
26.5143
 20
245.3605
  0
VERTEX
  8
LAYER_4
 10
25.8818
 20
245.993
  0
VERTEX
  8
LAYER_4
 10
24.958
 20
245.0692
  0
VERTEX
  8
LAYER_4
 10
25.3881
 20
245.2504
  0
SEQEND
  0
POLYLINE
  8
LAYER_4
 40
0.0353
 41
0.0353
 66
1
 10
0
 20
0
 30
0
 70
1
  0
VERTEX
  8
LAYER_4
 10
25.6752
 20
245.173
 42
0.2503271677
  0
VERTEX
  8
LAYER_4
 10
25.6606
 20
245.0866
 42
0.1285024815
  0
VERTEX
  8
LAYER_4
 10
25.7291
 20
244.9745
 42
0.3300622738
  0
VERTEX
  8
LAYER_4
 10
25.9276
 20
244.9206
 42
0.2504837448
  0
VERTEX
  8
LAYER_4
 10
25.9422
 20
245.007
 42
0.1285187546
  0
VERTEX
  8
LAYER_4
 10
25.8737
 20
245.1191
 42
0.3301304315
  0
SEQEND
  0
POLYLINE
  8
LAYER_4
 40
0.0353
 41
0.0353
 66
1
 10
0
 20
0
 30
0
  0
VERTEX
  8
LAYER_4
 10
25.9475
 20
245.3204
  0
VERTEX
  8
LAYER_4
 10
26.1372
 20
245.5472
  0
SEQEND
  0
POLYLINE
  8
LAYER_4
 40
0.0353
 41
0.0353
 66
1
 10
0
 20
0
 30
0
  0
VERTEX
  8
LAYER_4
 10
32.9504
 20
240.9812
 42
0.0396914992
  0
VERTEX
  8
LAYER_4
 10
33.0396
 20
242.1064
 42
0.0552592026
  0
VERTEX
  8
LAYER_4
 10
32.8674
 20
243.6688
 42
0.05317889528
  0
VERTEX
  8
LAYER_4
 10
32.4105
 20
245.0136
 42
0.05541322261
  0
VERTEX
  8
LAYER_4
 10
31.7075
 20
246.1708
 42
0.05990889201
  0
VERTEX
  8
LAYER_4
 10
30.7976
 20
247.0938
 42
0.06647252007
  0
VERTEX
  8
LAYER_4
 10
29.7198
 20
247.7355
 42
0.06571497105
  0
VERTEX
  8
LAYER_4
 10
28.6384
 20
248.034
 42
0.03409774641
  0
VERTEX
  8
LAYER_4
 10
28.0675
 20
248.0729
 42
0.1401436023
  0
VERTEX
  8
LAYER_4
 10
25.804
 20
247.4202
 42
0.06413059048
  0
VERTEX
  8
LAYER_4
 10
24.8136
 20
246.618
 42
0.05832584257
  0
VERTEX
  8
LAYER_4
 10
24.0127
 20
245.5603
 42
0.0547440943
  0
VERTEX
  8
LAYER_4
 10
23.4403
 20
244.2942
 42
0.05324960015
  0
VERTEX
  8
LAYER_4
 10
23.1353
 20
242.8663
 42
0.02638471409
  0
VERTEX
  8
LAYER_4
 10
23.0954
 20
242.1064
 42
0.05526050984
  0
VERTEX
  8
LAYER_4
 10
23.2676
 20
240.544
 42
0.05317939285
  0
VERTEX
  8
LAYER_4
 10
23.7245
 20
239.1993
 42
0.05541312601
  0
VERTEX
  8
LAYER_4
 10
24.4275
 20
238.0421
 42
0.05990841847
  0
VERTEX
  8
LAYER_4
 10
25.3374
 20
237.1191
 42
0.06647193345
  0
VERTEX
  8
LAYER_4
 10
26.4152
 20
236.4774
 42
0.06571460838
  0
VERTEX
  8
LAYER_4
 10
27.4966
 20
236.1789
 42
0.03409770254
  0
VERTEX
  8
LAYER_4
 10
28.0675
 20
236.14
 42
0.0728284341
  0
VERTEX
  8
LAYER_4
 10
29.2501
 20
236.3143
 42
0.06750598108
  0
VERTEX
  8
LAYER_4
 10
30.35
 20
236.8138
 42
0.06416351808
  0
VERTEX
  8
LAYER_4
 10
31.3538
 20
237.6373
 42
0.05988776139
  0
VERTEX
  8
LAYER_4
 10
32.1671
 20
238.7331
 42
0.0369646238
  0
VERTEX
  8
LAYER_4
 10
32.5652
 20
239.563
  0
SEQEND
  0
POLYLINE
  8
LAYER_4
 40
0.0353
 41
0.0353
 66
1
 10
0
 20
0
 30
0
  0
VERTEX
  8
LAYER_4
 10
27.1459
 20
248.2085
 42
0.05785198196
  0
VERTEX
  8
LAYER_4
 10
26.2251
 20
248.316
 42
0.1083491727
  0
VERTEX
  8
LAYER_4
 10
24.5155
 20
247.9392
 42
0.06890223972
  0
VERTEX
  8
LAYER_4
 10
23.4452
 20
247.2555
 42
0.06099346445
  0
VERTEX
  8
LAYER_4
 10
22.5447
 20
246.2816
 42
0.05525241594
  0
VERTEX
  8
LAYER_4
 10
21.8531
 20
245.0662
 42
0.05212898877
  0
VERTEX
  8
LAYER_4
 10
21.4095
 20
243.6583
 42
0.05104473468
  0
VERTEX
  8
LAYER_4
 10
21.253
 20
242.1064
 42
0.05313613426
  0
VERTEX
  8
LAYER_4
 10
21.4252
 20
240.4804
 42
0.05144846453
  0
VERTEX
  8
LAYER_4
 10
21.8821
 20
239.0809
 42
0.05426909721
  0
VERTEX
  8
LAYER_4
 10
22.5851
 20
237.8765
 42
0.05968659869
  0
VERTEX
  8
LAYER_4
 10
23.495
 20
236.9159
 42
0.06754195937
  0
VERTEX
  8
LAYER_4
 10
24.5728
 20
236.248
 42
0.06779417355
  0
VERTEX
  8
LAYER_4
 10
25.6542
 20
235.9374
 42
0.03548569432
  0
VERTEX
  8
LAYER_4
 10
26.2251
 20
235.8969
 42
0.05785200801
  0
VERTEX
  8
LAYER_4
 10
27.1459
 20
236.0044
  0
SEQEND
  0
POLYLINE
  8
LAYER_4
 40
0.0353
 41
0.0353
 66
1
 10
0
 20
0
 30
0
  0
VERTEX
  8
LAYER_4
 10
28.5486
 20
236.168
  0
VERTEX
  8
LAYER_4
 10
27.1459
 20
236.0044
  0
SEQEND
  0
POLYLINE
  8
LAYER_4
 40
0.0353
 41
0.0353
 66
1
 10
0
 20
0
 30
0
  0
VERTEX
  8
LAYER_4
 10
28.5486
 20
248.0449
  0
VERTEX
  8
LAYER_4
 10
27.1459
 20
248.2085
  0
SEQEND
  0
POLYLINE
  8
LAYER_4
 40
0.0353
 41
0.0353
 66
1
 10
0
 20
0
 30
0
 70
1
  0
VERTEX
  8
LAYER_4
 10
24.6523
 20
242.4402
 42
0.1740102949
  0
VERTEX
  8
LAYER_4
 10
24.5212
 20
242.3892
 42
0.1138580224
  0
VERTEX
  8
LAYER_4
 10
24.4274
 20
242.2583
 42
0.1031010975
  0
VERTEX
  8
LAYER_4
 10
24.3832
 20
242.0368
 42
0.2181880262
  0
VERTEX
  8
LAYER_4
 10
24.5386
 20
241.6711
 42
0.1551089869
  0
VERTEX
  8
LAYER_4
 10
24.6523
 20
241.6334
 42
0.1739757122
  0
VERTEX
  8
LAYER_4
 10
24.7835
 20
241.6844
 42
0.1138911391
  0
VERTEX
  8
LAYER_4
 10
24.8773
 20
241.8153
 42
0.1031180745
  0
VERTEX
  8
LAYER_4
 10
24.9215
 20
242.0368
 42
0.2182451337
  0
VERTEX
  8
LAYER_4
 10
24.7661
 20
242.4025
 42
0.15505817
  0
SEQEND
  0
POLYLINE
  8
LAYER_4
 40
0.0353
 41
0.0353
 66
1
 10
0
 20
0
 30
0
  0
VERTEX
  8
LAYER_4
 10
23.9001
 20
242.5074
  0
VERTEX
  8
LAYER_4
 10
23.8728
 20
242.5099
 42
0.1822964619
  0
VERTEX
  8
LAYER_4
 10
23.7503
 20
242.4581
 42
0.1098217386
  0
VERTEX
  8
LAYER_4
 10
23.6552
 20
242.3153
 42
0.09810008097
  0
VERTEX
  8
LAYER_4
 10
23.6037
 20
242.0368
 42
0.1928953609
  0
VERTEX
  8
LAYER_4
 10
23.7591
 20
241.6079
 42
0.174794638
  0
VERTEX
  8
LAYER_4
 10
23.8728
 20
241.5637
  0
VERTEX
  8
LAYER_4
 10
23.9001
 20
241.5662
  0
SEQEND
  0
POLYLINE
  8
LAYER_4
 40
0.0353
 41
0.0353
 66
1
 10
0
 20
0
 30
0
  0
VERTEX
  8
LAYER_4
 10
23.8728
 20
242.5099
  0
VERTEX
  8
LAYER_4
 10
24.6523
 20
242.4402
  0
SEQEND
  0
POLYLINE
  8
LAYER_4
 40
0.0353
 41
0.0353
 66
1
 10
0
 20
0
 30
0
  0
VERTEX
  8
LAYER_4
 10
23.8728
 20
241.5637
  0
VERTEX
  8
LAYER_4
 10
24.6523
 20
241.6334
  0
SEQEND
  0
POLYLINE
  8
LAYER_4
 40
0.0353
 41
0.0353
 66
1
 10
0
 20
0
 30
0
 70
1
  0
VERTEX
  8
LAYER_4
 10
32.6128
 20
242.4402
 42
0.1740102949
  0
VERTEX
  8
LAYER_4
 10
32.4817
 20
242.3892
 42
0.1138580224
  0
VERTEX
  8
LAYER_4
 10
32.3879
 20
242.2583
 42
0.1031010975
  0
VERTEX
  8
LAYER_4
 10
32.3437
 20
242.0368
 42
0.2181880262
  0
VERTEX
  8
LAYER_4
 10
32.4991
 20
241.6711
 42
0.1551089869
  0
VERTEX
  8
LAYER_4
 10
32.6128
 20
241.6334
 42
0.1739757122
  0
VERTEX
  8
LAYER_4
 10
32.744
 20
241.6844
 42
0.1138911391
  0
VERTEX
  8
LAYER_4
 10
32.8378
 20
241.8153
 42
0.1031180745
  0
VERTEX
  8
LAYER_4
 10
32.882
 20
242.0368
 42
0.2182451337
  0
VERTEX
  8
LAYER_4
 10
32.7266
 20
242.4025
 42
0.15505817
  0
SEQEND
  0
POLYLINE
  8
LAYER_4
 40
0.0353
 41
0.0353
 66
1
 10
0
 20
0
 30
0
  0
VERTEX
  8
LAYER_4
 10
31.8606
 20
242.5074
  0
VERTEX
  8
LAYER_4
 10
31.8333
 20
242.5099
 42
0.1822964619
  0
VERTEX
  8
LAYER_4
 10
31.7108
 20
242.4581
 42
0.1098217386
  0
VERTEX
  8
LAYER_4
 10
31.6157
 20
242.3153
 42
0.09810008097
  0
VERTEX
  8
LAYER_4
 10
31.5642
 20
242.0368
 42
0.1928953609
  0
VERTEX
  8
LAYER_4
 10
31.7196
 20
241.6079
 42
0.174794638
  0
VERTEX
  8
LAYER_4
 10
31.8333
 20
241.5637
  0
VERTEX
  8
LAYER_4
 10
31.8606
 20
241.5662
  0
SEQEND
  0
POLYLINE
  8
LAYER_4
 40
0.0353
 41
0.0353
 66
1
 10
0
 20
0
 30
0
  0
VERTEX
  8
LAYER_4
 10
31.8333
 20
242.5099
  0
VERTEX
  8
LAYER_4
 10
32.6128
 20
242.4402
  0
SEQEND
  0
POLYLINE
  8
LAYER_4
 40
0.0353
 41
0.0353
 66
1
 10
0
 20
0
 30
0
  0
VERTEX
  8
LAYER_4
 10
31.8333
 20
241.5637
  0
VERTEX
  8
LAYER_4
 10
32.6128
 20
241.6334
  0
SEQEND
  0
TEXT
  8
LAYER_5
 10
2166.1823
 20
-226.0672
 11
2166.1823
 21
-226.0672
 40
3.9656
 41
0.5
  1
 
  0
INSERT
  8
LAYER_5
  2
AIGNBL05010002
 10
0
 20
0
 30
0
  0
INSERT
  8
LAYER_5
  2
AIGNBL05010008
 10
0
 20
0
 30
0
  0
INSERT
  8
LAYER_5
  2
AIGNBL0501000E
 10
0
 20
0
 30
0
  0
INSERT
  8
LAYER_5
  2
AIGNBL05010014
 10
0
 20
0
 30
0
  0
INSERT
  8
LAYER_5
  2
AIGNBL0501001A
 10
0
 20
0
 30
0
  0
INSERT
  8
LAYER_5
  2
AIGNBL05010020
 10
0
 20
0
 30
0
  0
INSERT
  8
LAYER_5
  2
AIGNBL05010026
 10
0
 20
0
 30
0
  0
TEXT
  8
LAYER_5
 10
111.5689
 20
91.3224
 11
111.5689
 21
91.3224
 40
5.5518
 41
0.5
 72
1
  1
28
  0
TEXT
  8
LAYER_5
 10
153.638
 20
86.6825
 11
153.638
 21
86.6825
 40
5.5518
 41
0.5
 72
1
  1
63
  0
TEXT
  8
LAYER_5
 10
173.2805
 20
109.109
 11
173.2805
 21
109.109
 40
5.5518
 41
0.5
 72
1
  1
63
  0
TEXT
  8
LAYER_5
 10
77.3937
 20
86.4911
 11
77.3937
 21
86.4911
 40
5.5518
 41
0.5
 72
1
  1
ì┼æÕ370 ì┼Å¼110mm
  0
POLYLINE
  8
LAYER_6
 40
0.0353
 41
0.0353
 66
1
 10
0
 20
0
 30
0
 70
1
  0
VERTEX
  8
LAYER_6
 10
0
 20
286.8184
  0
VERTEX
  8
LAYER_6
 10
201.6141
 20
286.8184
  0
VERTEX
  8
LAYER_6
 10
201.6141
 20
6.0175
  0
VERTEX
  8
LAYER_6
 10
0
 20
6.0295
  0
SEQEND
  0
POLYLINE
  8
LAYER_7
 40
0.0353
 41
0.0353
 66
1
 10
0
 20
0
 30
0
  0
VERTEX
  8
LAYER_7
 10
10.1807
 20
274.4933
  0
VERTEX
  8
LAYER_7
 10
195.1807
 20
274.4933
  0
VERTEX
  8
LAYER_7
 10
195.1807
 20
14.4933
  0
VERTEX
  8
LAYER_7
 10
10.1807
 20
14.5053
  0
VERTEX
  8
LAYER_7
 10
10.1807
 20
274.5053
  0
SEQEND
  0
POLYLINE
  8
LAYER_7
 40
0.0353
 41
0.0353
 66
1
 10
0
 20
0
 30
0
  0
VERTEX
  8
LAYER_7
 10
165.1807
 20
14.4963
  0
VERTEX
  8
LAYER_7
 10
165.1807
 20
30.4933
  0
SEQEND
  0
POLYLINE
  8
LAYER_7
 40
0.0353
 41
0.0353
 66
1
 10
0
 20
0
 30
0
  0
VERTEX
  8
LAYER_7
 10
137.1807
 20
14.4963
  0
VERTEX
  8
LAYER_7
 10
137.1807
 20
63.4933
  0
SEQEND
  0
POLYLINE
  8
LAYER_7
 40
0.0353
 41
0.0353
 66
1
 10
0
 20
0
 30
0
  0
VERTEX
  8
LAYER_7
 10
114.1807
 20
14.4963
  0
VERTEX
  8
LAYER_7
 10
114.1807
 20
63.4933
  0
SEQEND
  0
POLYLINE
  8
LAYER_7
 40
0.0353
 41
0.0353
 66
1
 10
0
 20
0
 30
0
  0
VERTEX
  8
LAYER_7
 10
180.1807
 20
14.4948
  0
VERTEX
  8
LAYER_7
 10
180.1807
 20
30.4933
  0
SEQEND
  0
POLYLINE
  8
LAYER_7
 40
0.0353
 41
0.0353
 66
1
 10
0
 20
0
 30
0
  0
VERTEX
  8
LAYER_7
 10
195.1807
 20
30.4933
  0
VERTEX
  8
LAYER_7
 10
96.1807
 20
30.4933
  0
SEQEND
  0
POLYLINE
  8
LAYER_7
 40
0.0353
 41
0.0353
 66
1
 10
0
 20
0
 30
0
  0
VERTEX
  8
LAYER_7
 10
137.1807
 20
35.4933
  0
VERTEX
  8
LAYER_7
 10
96.1807
 20
35.4933
  0
SEQEND
  0
POLYLINE
  8
LAYER_7
 40
0.0353
 41
0.0353
 66
1
 10
0
 20
0
 30
0
  0
VERTEX
  8
LAYER_7
 10
137.1807
 20
40.4933
  0
VERTEX
  8
LAYER_7
 10
96.1807
 20
40.4933
  0
SEQEND
  0
POLYLINE
  8
LAYER_7
 40
0.0353
 41
0.0353
 66
1
 10
0
 20
0
 30
0
  0
VERTEX
  8
LAYER_7
 10
137.1807
 20
45.4933
  0
VERTEX
  8
LAYER_7
 10
96.1807
 20
45.4933
  0
SEQEND
  0
POLYLINE
  8
LAYER_7
 40
0.0353
 41
0.0353
 66
1
 10
0
 20
0
 30
0
  0
VERTEX
  8
LAYER_7
 10
137.1807
 20
50.4933
  0
VERTEX
  8
LAYER_7
 10
96.1807
 20
50.4933
  0
SEQEND
  0
POLYLINE
  8
LAYER_7
 40
0.0353
 41
0.0353
 66
1
 10
0
 20
0
 30
0
  0
VERTEX
  8
LAYER_7
 10
137.1807
 20
55.4933
  0
VERTEX
  8
LAYER_7
 10
96.1807
 20
55.4933
  0
SEQEND
  0
POLYLINE
  8
LAYER_7
 40
0.0353
 41
0.0353
 66
1
 10
0
 20
0
 30
0
  0
VERTEX
  8
LAYER_7
 10
195.1807
 20
63.4933
  0
VERTEX
  8
LAYER_7
 10
96.1807
 20
63.4933
  0
VERTEX
  8
LAYER_7
 10
96.1807
 20
14.4963
  0
SEQEND
  0
POLYLINE
  8
LAYER_7
 40
0.0353
 41
0.0353
 66
1
 10
0
 20
0
 30
0
  0
VERTEX
  8
LAYER_7
 10
195.1807
 20
25.4933
  0
VERTEX
  8
LAYER_7
 10
96.1807
 20
25.4933
  0
SEQEND
  0
POLYLINE
  8
LAYER_7
 40
0.0353
 41
0.0353
 66
1
 10
0
 20
0
 30
0
  0
VERTEX
  8
LAYER_7
 10
137.1807
 20
19.4933
  0
VERTEX
  8
LAYER_7
 10
96.1807
 20
19.4933
  0
SEQEND
  0
POLYLINE
  8
LAYER_7
 40
0.0353
 41
0.0353
 66
1
 10
0
 20
0
 30
0
  0
VERTEX
  8
LAYER_7
 10
147.6807
 20
65.9933
  0
VERTEX
  8
LAYER_7
 10
147.6807
 20
78.9933
  0
SEQEND
  0
POLYLINE
  8
LAYER_7
 40
0.0353
 41
0.0353
 66
1
 10
0
 20
0
 30
0
  0
VERTEX
  8
LAYER_7
 10
132.6807
 20
65.9933
  0
VERTEX
  8
LAYER_7
 10
132.6807
 20
78.9933
  0
SEQEND
  0
POLYLINE
  8
LAYER_7
 40
0.0353
 41
0.0353
 66
1
 10
0
 20
0
 30
0
  0
VERTEX
  8
LAYER_7
 10
162.6807
 20
65.9933
  0
VERTEX
  8
LAYER_7
 10
162.6807
 20
78.9933
  0
SEQEND
  0
POLYLINE
  8
LAYER_7
 40
0.0353
 41
0.0353
 66
1
 10
0
 20
0
 30
0
  0
VERTEX
  8
LAYER_7
 10
117.6807
 20
71.9933
  0
VERTEX
  8
LAYER_7
 10
192.6807
 20
71.9933
  0
SEQEND
  0
POLYLINE
  8
LAYER_7
 40
0.0353
 41
0.0353
 66
1
 10
0
 20
0
 30
0
 70
1
  0
VERTEX
  8
LAYER_7
 10
192.6807
 20
65.9933
  0
VERTEX
  8
LAYER_7
 10
192.6807
 20
78.9933
  0
VERTEX
  8
LAYER_7
 10
117.6807
 20
78.9933
  0
VERTEX
  8
LAYER_7
 10
117.6807
 20
65.9933
  0
SEQEND
  0
POLYLINE
  8
LAYER_7
 40
0.0353
 41
0.0353
 66
1
 10
0
 20
0
 30
0
  0
VERTEX
  8
LAYER_7
 10
177.6807
 20
65.9933
  0
VERTEX
  8
LAYER_7
 10
177.6807
 20
78.9933
  0
SEQEND
  0
POLYLINE
  8
LAYER_7
 40
0.0353
 41
0.0353
 66
1
 10
0
 20
0
 30
0
  0
VERTEX
  8
LAYER_7
 10
10.1807
 20
264.5053
  0
VERTEX
  8
LAYER_7
 10
90.1807
 20
264.4933
  0
VERTEX
  8
LAYER_7
 10
90.1807
 20
274.5053
  0
SEQEND
  0
POLYLINE
  8
LAYER_7
 40
0.0353
 41
0.0353
 66
1
 10
0
 20
0
 30
0
  0
VERTEX
  8
LAYER_7
 10
40.1807
 20
274.5053
  0
VERTEX
  8
LAYER_7
 10
40.1807
 20
264.4933
  0
SEQEND
  0
POLYLINE
  8
LAYER_7
 40
0.0353
 41
0.0353
 66
1
 10
0
 20
0
 30
0
  0
VERTEX
  8
LAYER_7
 10
195.1807
 20
259.4933
  0
VERTEX
  8
LAYER_7
 10
110.1807
 20
259.4933
  0
SEQEND
  0
POLYLINE
  8
LAYER_7
 40
0.0353
 41
0.0353
 66
1
 10
0
 20
0
 30
0
  0
VERTEX
  8
LAYER_7
 10
195.1807
 20
264.4933
  0
VERTEX
  8
LAYER_7
 10
110.1807
 20
264.4933
  0
SEQEND
  0
POLYLINE
  8
LAYER_7
 40
0.0353
 41
0.0353
 66
1
 10
0
 20
0
 30
0
  0
VERTEX
  8
LAYER_7
 10
195.1807
 20
269.4933
  0
VERTEX
  8
LAYER_7
 10
110.1807
 20
269.4933
  0
SEQEND
  0
POLYLINE
  8
LAYER_7
 40
0.0353
 41
0.0353
 66
1
 10
0
 20
0
 30
0
  0
VERTEX
  8
LAYER_7
 10
118.1807
 20
274.4933
  0
VERTEX
  8
LAYER_7
 10
118.1807
 20
244.4933
  0
SEQEND
  0
POLYLINE
  8
LAYER_7
 40
0.0353
 41
0.0353
 66
1
 10
0
 20
0
 30
0
  0
VERTEX
  8
LAYER_7
 10
142.1807
 20
274.4933
  0
VERTEX
  8
LAYER_7
 10
142.1807
 20
244.4933
  0
SEQEND
  0
POLYLINE
  8
LAYER_7
 40
0.0353
 41
0.0353
 66
1
 10
0
 20
0
 30
0
  0
VERTEX
  8
LAYER_7
 10
159.1807
 20
274.4933
  0
VERTEX
  8
LAYER_7
 10
159.1807
 20
244.4933
  0
SEQEND
  0
POLYLINE
  8
LAYER_7
 40
0.0353
 41
0.0353
 66
1
 10
0
 20
0
 30
0
  0
VERTEX
  8
LAYER_7
 10
170.1807
 20
274.4933
  0
VERTEX
  8
LAYER_7
 10
170.1807
 20
244.4933
  0
SEQEND
  0
POLYLINE
  8
LAYER_7
 40
0.0353
 41
0.0353
 66
1
 10
0
 20
0
 30
0
  0
VERTEX
  8
LAYER_7
 10
195.1807
 20
254.4933
  0
VERTEX
  8
LAYER_7
 10
110.1807
 20
254.4933
  0
SEQEND
  0
POLYLINE
  8
LAYER_7
 40
0.0353
 41
0.0353
 66
1
 10
0
 20
0
 30
0
  0
VERTEX
  8
LAYER_7
 10
195.1807
 20
249.4933
  0
VERTEX
  8
LAYER_7
 10
110.1807
 20
249.4933
  0
SEQEND
  0
POLYLINE
  8
LAYER_7
 40
0.0353
 41
0.0353
 66
1
 10
0
 20
0
 30
0
  0
VERTEX
  8
LAYER_7
 10
195.1807
 20
244.4933
  0
VERTEX
  8
LAYER_7
 10
110.1807
 20
244.4933
  0
VERTEX
  8
LAYER_7
 10
110.1807
 20
274.4933
  0
SEQEND
  0
POLYLINE
  8
LAYER_8
  6
AIGENLINE001
 40
0.0353
 41
0.0353
 62
254
 66
1
 10
0
 20
0
 30
0
 70
128
  0
VERTEX
  8
LAYER_8
 10
153.4323
 20
228.2574
  0
VERTEX
  8
LAYER_8
 10
192.5387
 20
228.2574
  0
SEQEND
  0
POLYLINE
  8
LAYER_8
  6
AIGENLINE001
 40
0.0353
 41
0.0353
 62
254
 66
1
 10
0
 20
0
 30
0
 70
128
  0
VERTEX
  8
LAYER_8
 10
153.4323
 20
200.4068
  0
VERTEX
  8
LAYER_8
 10
163.217
 20
200.4068
  0
SEQEND
  0
POLYLINE
  8
LAYER_8
  6
AIGENLINE001
 40
0.0353
 41
0.0353
 62
254
 66
1
 10
0
 20
0
 30
0
 70
128
  0
VERTEX
  8
LAYER_8
 10
187.013
 20
223.5825
  0
VERTEX
  8
LAYER_8
 10
187.013
 20
232.9324
  0
SEQEND
  0
POLYLINE
  8
LAYER_8
  6
AIGENLINE001
 40
0.0353
 41
0.0353
 62
254
 66
1
 10
0
 20
0
 30
0
 70
128
  0
VERTEX
  8
LAYER_8
 10
161.013
 20
223.5825
  0
VERTEX
  8
LAYER_8
 10
161.013
 20
232.9324
  0
SEQEND
  0
CIRCLE
  8
LAYER_8
  6
AIGENLINE001
 62
254
 10
149.6253
 20
110.6967
 40
11.125
  0
POLYLINE
  8
LAYER_8
  6
AIGENLINE001
 40
0.0353
 41
0.0353
 62
254
 66
1
 10
0
 20
0
 30
0
 70
128
  0
VERTEX
  8
LAYER_8
 10
149.6253
 20
126.3565
  0
VERTEX
  8
LAYER_8
 10
149.6253
 20
95.0369
  0
SEQEND
  0
POLYLINE
  8
LAYER_8
  6
AIGENLINE001
 40
0.0353
 41
0.0353
 62
254
 66
1
 10
0
 20
0
 30
0
 70
128
  0
VERTEX
  8
LAYER_8
 10
141.7628
 20
119.8173
  0
VERTEX
  8
LAYER_8
 10
141.7628
 20
117.3173
  0
SEQEND
  0
POLYLINE
  8
LAYER_8
  6
AIGENLINE001
 40
0.0353
 41
0.0353
 62
254
 66
1
 10
0
 20
0
 30
0
 70
128
  0
VERTEX
  8
LAYER_8
 10
165.2851
 20
110.6967
  0
VERTEX
  8
LAYER_8
 10
133.9655
 20
110.6967
  0
SEQEND
  0
POLYLINE
  8
LAYER_8
  6
AIGENLINE001
 40
0.0353
 41
0.0353
 62
254
 66
1
 10
0
 20
0
 30
0
 70
128
  0
VERTEX
  8
LAYER_8
 10
143.0128
 20
118.5592
  0
VERTEX
  8
LAYER_8
 10
140.5129
 20
118.5592
  0
SEQEND
  0
POLYLINE
  8
LAYER_8
  6
AIGENLINE001
 40
0.0353
 41
0.0353
 62
254
 66
1
 10
0
 20
0
 30
0
 70
128
  0
VERTEX
  8
LAYER_8
 10
157.4878
 20
119.8173
  0
VERTEX
  8
LAYER_8
 10
157.4878
 20
117.3173
  0
SEQEND
  0
POLYLINE
  8
LAYER_8
  6
AIGENLINE001
 40
0.0353
 41
0.0353
 62
254
 66
1
 10
0
 20
0
 30
0
 70
128
  0
VERTEX
  8
LAYER_8
 10
156.2379
 20
118.5592
  0
VERTEX
  8
LAYER_8
 10
158.7378
 20
118.5592
  0
SEQEND
  0
POLYLINE
  8
LAYER_8
  6
AIGENLINE001
 40
0.0353
 41
0.0353
 62
254
 66
1
 10
0
 20
0
 30
0
 70
128
  0
VERTEX
  8
LAYER_8
 10
141.7628
 20
101.576
  0
VERTEX
  8
LAYER_8
 10
141.7628
 20
104.076
  0
SEQEND
  0
POLYLINE
  8
LAYER_8
  6
AIGENLINE001
 40
0.0353
 41
0.0353
 62
254
 66
1
 10
0
 20
0
 30
0
 70
128
  0
VERTEX
  8
LAYER_8
 10
143.0128
 20
102.8342
  0
VERTEX
  8
LAYER_8
 10
140.5129
 20
102.8342
  0
SEQEND
  0
POLYLINE
  8
LAYER_8
  6
AIGENLINE001
 40
0.0353
 41
0.0353
 62
254
 66
1
 10
0
 20
0
 30
0
 70
128
  0
VERTEX
  8
LAYER_8
 10
157.4878
 20
101.576
  0
VERTEX
  8
LAYER_8
 10
157.4878
 20
104.076
  0
SEQEND
  0
POLYLINE
  8
LAYER_8
  6
AIGENLINE001
 40
0.0353
 41
0.0353
 62
254
 66
1
 10
0
 20
0
 30
0
 70
128
  0
VERTEX
  8
LAYER_8
 10
156.2379
 20
102.8342
  0
VERTEX
  8
LAYER_8
 10
158.7378
 20
102.8342
  0
SEQEND
  0
TEXT
  8
LAYER_9
 10
2309.5376
 20
-75.0398
 11
2309.5376
 21
-75.0398
 40
4.7587
 41
0.5
 72
1
  1
 
  0
TEXT
  8
LAYER_9
 10
2284.7141
 20
-281.257
 11
2284.7141
 21
-281.257
 40
3.9656
 41
0.5
  1
  
  0
TEXT
  8
LAYER_9
 10
2284.7141
 20
-284.757
 11
2284.7141
 21
-284.757
 40
3.9656
 41
0.5
  1
 
  0
TEXT
  8
LAYER_9
 10
2317.4002
 20
-321.7086
 11
2317.4002
 21
-321.7086
 40
3.9656
 41
0.5
 72
1
  1
 
  0
TEXT
  8
LAYER_9
 10
2284.7141
 20
-288.257
 11
2284.7141
 21
-288.257
 40
3.9656
 41
0.5
  1
   
  0
TEXT
  8
LAYER_9
 10
2280.0376
 20
-90.0398
 11
2280.0376
 21
-90.0398
 40
4.7587
 41
0.5
 72
1
  1
 
  0
TEXT
  8
LAYER_9
 10
2297.0376
 20
-90.0398
 11
2297.0376
 21
-90.0398
 40
4.7587
 41
0.5
 72
1
  1
 
  0
TEXT
  8
LAYER_9
 10
2328.5375
 20
-90.0398
 11
2328.5375
 21
-90.0398
 40
4.7587
 41
0.5
 72
1
  1
 
  0
TEXT
  8
LAYER_9
 10
2280.0376
 20
-95.0398
 11
2280.0376
 21
-95.0398
 40
4.7587
 41
0.5
 72
1
  1
 
  0
TEXT
  8
LAYER_9
 10
2297.0376
 20
-95.0398
 11
2297.0376
 21
-95.0398
 40
4.7587
 41
0.5
 72
1
  1
 
  0
TEXT
  8
LAYER_9
 10
2308.4917
 20
-95.0398
 11
2308.4917
 21
-95.0398
 40
4.7587
 41
0.5
 72
1
  1
 
  0
TEXT
  8
LAYER_9
 10
2328.5375
 20
-95.0398
 11
2328.5375
 21
-95.0398
 40
4.7587
 41
0.5
 72
1
  1
 
  0
TEXT
  8
LAYER_9
 10
2328.5375
 20
-75.0398
 11
2328.5375
 21
-75.0398
 40
4.7587
 41
0.5
 72
1
  1
 
  0
TEXT
  8
LAYER_9
 10
2284.7141
 20
-291.7276
 11
2284.7141
 21
-291.7276
 40
3.9656
 41
0.5
  1
 
  0
TEXT
  8
LAYER_9
 10
116.195
 20
270.1369
 11
116.195
 21
270.1369
 40
4.1743
 41
0.5
 72
1
  1
òööÈ
  0
TEXT
  8
LAYER_9
 10
115.8336
 20
265.0164
 11
115.8336
 21
265.0164
 40
4.7587
 41
0.5
 72
1
  1
1
  0
TEXT
  8
LAYER_9
 10
115.8336
 20
260.0164
 11
115.8336
 21
260.0164
 40
4.7587
 41
0.5
 72
1
  1
2
  0
TEXT
  8
LAYER_9
 10
115.8336
 20
255.0163
 11
115.8336
 21
255.0163
 40
4.7587
 41
0.5
 72
1
  1
3
  0
TEXT
  8
LAYER_9
 10
132.0198
 20
270.1369
 11
132.0198
 21
270.1369
 40
4.1743
 41
0.5
 72
1
  1
òöòiû╝
  0
TEXT
  8
LAYER_9
 10
131.9117
 20
265.1369
 11
131.9117
 21
265.1369
 40
4.1743
 41
0.5
 72
1
  1
â~âëü[
  0
TEXT
  8
LAYER_9
 10
131.5498
 20
255.1369
 11
131.5498
 21
255.1369
 40
4.1743
 41
0.5
 72
1
  1
âAü[âÇ
  0
TEXT
  8
LAYER_9
 10
131.8289
 20
250.1369
 11
131.8289
 21
250.1369
 40
4.1743
 41
0.5
 72
1
  1
âtâëâôâW
  0
TEXT
  8
LAYER_9
 10
152.807
 20
270.1369
 11
152.807
 21
270.1369
 40
4.1743
 41
0.5
 72
1
  1
ìÌÄ┐
  0
TEXT
  8
LAYER_9
 10
152.369
 20
255.1369
 11
152.369
 21
255.1369
 40
4.1743
 41
0.5
 72
1
  1
ì|ö┬
  0
TEXT
  8
LAYER_9
 10
185.689
 20
270.1369
 11
185.689
 21
270.1369
 40
4.1743
 41
0.5
 72
1
  1
ôEùv
  0
TEXT
  8
LAYER_9
 10
86.1659
 20
266.2045
 11
86.1659
 21
266.2045
 40
7.9311
 41
0.5
 72
1
  1
OLP-2020022
  0
TEXT
  8
LAYER_9
 10
28.5281
 20
266.4114
 11
28.5281
 21
266.4114
 40
6.9571
 41
0.5
 72
1
  1
î^öÈ
  0
TEXT
  8
LAYER_9
 10
153.1623
 20
26.4463
 11
153.1623
 21
26.4463
 40
3.4786
 41
0.5
 72
1
  1
ôKìçâëâôâv
  0
TEXT
  8
LAYER_9
 10
174.3544
 20
26.4463
 11
174.3544
 21
26.4463
 40
3.4786
 41
0.5
 72
1
  1
Å│ü@öF
  0
TEXT
  8
LAYER_9
 10
189.3544
 20
26.4463
 11
189.3544
 21
26.4463
 40
3.4786
 41
0.5
 72
1
  1
ÆSü@ôû
  0
TEXT
  8
LAYER_9
 10
153.3163
 20
18.4478
 11
153.3163
 21
18.4478
 40
3.4786
 41
0.5
 72
1
  1
êÛæ╠î`âéâWâàü[âï
  0
TEXT
  8
LAYER_9
 10
189.3544
 20
18.4478
 11
189.3544
 21
18.4478
 40
3.4786
 41
0.5
 72
1
  1
Äsôê
  0
TEXT
  8
LAYER_9
 10
106.8544
 20
57.9463
 11
106.8544
 21
57.9463
 40
3.4786
 41
0.5
 72
1
  1
òiü@ü@û╝
  0
TEXT
  8
LAYER_9
 10
106.8544
 20
51.4463
 11
106.8544
 21
51.4463
 40
3.4786
 41
0.5
 72
1
  1
Äµòtî`æÈ
  0
TEXT
  8
LAYER_9
 10
106.8544
 20
46.4463
 11
106.8544
 21
46.4463
 40
3.4786
 41
0.5
 72
1
  1
É┌æ%%pò¹û@
  0
TEXT
  8
LAYER_9
 10
107.0229
 20
41.4463
 11
107.0229
 21
41.4463
 40
3.9656
 41
0.5
 72
1
  1
ÉF ëÀ ôx
  0
TEXT
  8
LAYER_9
 10
106.3058
 20
36.4463
 11
106.3058
 21
36.4463
 40
2.3382
 41
0.5
 72
1
  1
ò¢ï¤ëëÉFò]ë┐Éö
  0
TEXT
  8
LAYER_9
 10
106.8544
 20
31.4463
 11
106.8544
 21
31.4463
 40
3.4786
 41
0.5
 72
1
  1
î§î╣Ä§û¢
  0
TEXT
  8
LAYER_9
 10
106.8544
 20
15.4478
 11
106.8544
 21
15.4478
 40
3.4786
 41
0.5
 72
1
  1
Ä┐ü@ü@ù╩
  0
TEXT
  8
LAYER_9
 10
127.3544
 20
57.9463
 11
127.3544
 21
57.9463
 40
3.4786
 41
0.5
 72
1
  1
ègæÕï¥
  0
TEXT
  8
LAYER_9
 10
127.3544
 20
51.4463
 11
127.3544
 21
51.4463
 40
3.4786
 41
0.5
 72
1
  1
òÃû╩Äµòt
  0
TEXT
  8
LAYER_9
 10
127.3544
 20
46.4463
 11
127.3544
 21
46.4463
 40
3.4786
 41
0.5
 72
1
  1
Æ╝îïÉ³
  0
TEXT
  8
LAYER_9
 10
128.0034
 20
41.3461
 11
128.0034
 21
41.3461
 40
3.9656
 41
0.5
 72
1
  1
4000K
  0
TEXT
  8
LAYER_9
 10
128.8004
 20
36.3461
 11
128.8004
 21
36.3461
 40
3.9656
 41
0.5
 72
1
  1
Ra80
  0
TEXT
  8
LAYER_9
 10
128.8443
 20
15.3476
 11
128.8443
 21
15.3476
 40
3.9656
 41
0.5
 72
1
  1
1.4kg
  0
TEXT
  8
LAYER_9
 10
106.8544
 20
26.4463
 11
106.8544
 21
26.4463
 40
3.4786
 41
0.5
 72
1
  1
ÆÞèiî§æ®
  0
TEXT
  8
LAYER_9
 10
106.6428
 20
22.7557
 11
106.6428
 21
22.7557
 40
2.7829
 41
0.5
 72
1
  1
î┼ùLâGâlâïâMü[
  0
TEXT
  8
LAYER_9
 10
106.722
 20
19.7557
 11
106.722
 21
19.7557
 40
3.1724
 41
0.5
 72
1
  1
Å┴ ö´ î%%c ùª
  0
TEXT
  8
LAYER_9
 10
128.4238
 20
31.3461
 11
128.4238
 21
31.3461
 40
3.9656
 41
0.5
 72
1
  1
30,000H
  0
TEXT
  8
LAYER_9
 10
128.7007
 20
26.3461
 11
128.7007
 21
26.3461
 40
3.9656
 41
0.5
 72
1
  1
77lm
  0
TEXT
  8
LAYER_9
 10
131.4919
 20
20.8461
 11
131.4919
 21
20.8461
 40
3.9656
 41
0.5
 72
1
  1
24.8lm/w
  0
TEXT
  8
LAYER_9
 10
156.4307
 20
76.1463
 11
156.4307
 21
76.1463
 40
2.5981
 41
0.5
 72
1
  1
Åoù═ôdê│
  0
TEXT
  8
LAYER_9
 10
156.0243
 20
67.3461
 11
156.0243
 21
67.3461
 40
3.9656
 41
0.5
 72
1
  1
-
  0
TEXT
  8
LAYER_9
 10
174.5507
 20
67.3461
 11
174.5507
 21
67.3461
 40
3.9656
 41
0.5
 72
1
  1
0.058
  0
TEXT
  8
LAYER_9
 10
186.8059
 20
67.3461
 11
186.8059
 21
67.3461
 40
3.9656
 41
0.5
 72
1
  1
3.1
  0
TEXT
  8
LAYER_9
 10
157.4928
 20
73.0712
 11
157.4928
 21
73.0712
 40
2.9618
 41
0.5
 72
1
  1
(V)
  0
TEXT
  8
LAYER_9
 10
171.4307
 20
76.1463
 11
171.4307
 21
76.1463
 40
2.5981
 41
0.5
 72
1
  1
ô³ù═ôdù¼
  0
TEXT
  8
LAYER_9
 10
172.5854
 20
73.0712
 11
172.5854
 21
73.0712
 40
2.9618
 41
0.5
 72
1
  1
(A)
  0
TEXT
  8
LAYER_9
 10
186.4307
 20
76.1463
 11
186.4307
 21
76.1463
 40
2.5981
 41
0.5
 72
1
  1
Å┴ö´ôdù═
  0
TEXT
  8
LAYER_9
 10
188.0534
 20
73.0712
 11
188.0534
 21
73.0712
 40
2.9618
 41
0.5
 72
1
  1
(W)
  0
TEXT
  8
LAYER_9
 10
115.8336
 20
250.0163
 11
115.8336
 21
250.0163
 40
4.7587
 41
0.5
 72
1
  1
4
  0
TEXT
  8
LAYER_9
 10
185.4934
 20
255.1369
 11
185.4934
 21
255.1369
 40
4.1743
 41
0.5
 72
1
  1
âNâìü[âÇâüâbâL
  0
TEXT
  8
LAYER_9
 10
115.8336
 20
245.0164
 11
115.8336
 21
245.0164
 40
4.7587
 41
0.5
 72
1
  1
5
  0
TEXT
  8
LAYER_9
 10
185.4934
 20
250.1369
 11
185.4934
 21
250.1369
 40
4.1743
 41
0.5
 72
1
  1
âNâìü[âÇâüâbâL
  0
TEXT
  8
LAYER_9
 10
126.2856
 20
76.1463
 11
126.2856
 21
76.1463
 40
2.5981
 41
0.5
 72
1
  1
ÆÞèiôdê│
  0
TEXT
  8
LAYER_9
 10
141.555
 20
76.1463
 11
141.555
 21
76.1463
 40
2.5981
 41
0.5
 72
1
  1
Ä³ögÉö
  0
TEXT
  8
LAYER_9
 10
143.6156
 20
73.0712
 11
143.6156
 21
73.0712
 40
2.9618
 41
0.5
 72
1
  1
(Hz)
  0
TEXT
  8
LAYER_9
 10
127.4264
 20
73.0712
 11
127.4264
 21
73.0712
 40
2.9618
 41
0.5
 72
1
  1
(V)
  0
TEXT
  8
LAYER_9
 10
143.2429
 20
67.3461
 11
143.2429
 21
67.3461
 40
3.9656
 41
0.5
 72
1
  1
50/60
  0
TEXT
  8
LAYER_9
 10
128.9441
 20
67.3461
 11
128.9441
 21
67.3461
 40
3.9656
 41
0.5
 72
1
  1
100
  0
TEXT
  8
LAYER_9
 10
166.375
 20
270.3144
 11
166.375
 21
270.3144
 40
4.1743
 41
0.5
 72
1
  1
Éöù╩
  0
TEXT
  8
LAYER_9
 10
166.0136
 20
265.1938
 11
166.0136
 21
265.1938
 40
4.7587
 41
0.5
 72
1
  1
1
  0
TEXT
  8
LAYER_9
 10
166.0136
 20
255.1938
 11
166.0136
 21
255.1938
 40
4.7587
 41
0.5
 72
1
  1
1
  0
TEXT
  8
LAYER_9
 10
166.0136
 20
250.1938
 11
166.0136
 21
250.1938
 40
4.7587
 41
0.5
 72
1
  1
1
  0
TEXT
  8
LAYER_9
 10
132.2018
 20
244.9673
 11
132.2018
 21
244.9673
 40
4.1743
 41
0.5
 72
1
  1
âTâ|ü[âg
  0
TEXT
  8
LAYER_9
 10
166.137
 20
244.714
 11
166.137
 21
244.714
 40
4.7587
 41
0.5
 72
1
  1
1
  0
TEXT
  8
LAYER_9
 10
174.3544
 20
18.4478
 11
174.3544
 21
18.4478
 40
3.4786
 41
0.5
 72
1
  1
É╬êõ
  0
POLYLINE
  8
LAYER_9
 40
0.2999
 41
0.2999
 62
254
 66
1
 10
0
 20
0
 30
0
  0
VERTEX
  8
LAYER_9
 10
93.6166
 20
55.4933
  0
VERTEX
  8
LAYER_9
 10
12.7318
 20
55.4933
  0
SEQEND
  0
CIRCLE
  8
LAYER_9
 62
254
 10
34.0705
 20
57.3018
 40
0.2621
  0
CIRCLE
  8
LAYER_9
 10
34.0705
 20
57.3018
 40
0.2621
  0
POLYLINE
  8
LAYER_9
 40
0.1976
 41
0.1976
 62
254
 66
1
 10
0
 20
0
 30
0
 70
1
  0
VERTEX
  8
LAYER_9
 10
37.3285
 20
56.7419
  0
VERTEX
  8
LAYER_9
 10
34.0619
 20
62.3877
  0
VERTEX
  8
LAYER_9
 10
30.8076
 20
56.7419
  0
SEQEND
  0
POLYLINE
  8
LAYER_9
 40
0.05
 41
0.05
 66
1
 10
0
 20
0
 30
0
 70
1
  0
VERTEX
  8
LAYER_9
 10
34.4391
 20
60.6091
 42
0.3454122596
  0
VERTEX
  8
LAYER_9
 10
34.3201
 20
61.094
 42
0.3452942387
  0
VERTEX
  8
LAYER_9
 10
33.8209
 20
61.094
 42
0.3453727704
  0
VERTEX
  8
LAYER_9
 10
33.7019
 20
60.6091
  0
VERTEX
  8
LAYER_9
 10
33.904
 20
58.5152
 42
0.4141963672
  0
VERTEX
  8
LAYER_9
 10
34.0705
 20
58.3486
 42
0.4142800901
  0
VERTEX
  8
LAYER_9
 10
34.2371
 20
58.5152
  0
SEQEND
  0
POLYLINE
  8
LAYER_9
 40
0.1976
 41
0.1976
 62
254
 66
1
 10
0
 20
0
 30
0
 70
1
  0
VERTEX
  8
LAYER_9
 10
34.4391
 20
60.6091
 42
0.1071962359
  0
VERTEX
  8
LAYER_9
 10
34.475
 20
60.7757
 42
0.4142031719
  0
VERTEX
  8
LAYER_9
 10
34.0705
 20
61.1802
 42
0.4141686967
  0
VERTEX
  8
LAYER_9
 10
33.666
 20
60.7757
 42
0.106939844
  0
VERTEX
  8
LAYER_9
 10
33.7019
 20
60.6091
  0
VERTEX
  8
LAYER_9
 10
33.904
 20
58.5152
 42
0.414196367
  0
VERTEX
  8
LAYER_9
 10
34.0705
 20
58.3486
 42
0.41428009
  0
VERTEX
  8
LAYER_9
 10
34.2371
 20
58.5152
  0
SEQEND
  0
POLYLINE
  8
LAYER_9
 40
0.05
 41
0.05
 66
1
 10
0
 20
0
 30
0
 70
1
  0
VERTEX
  8
LAYER_9
 10
34.4391
 20
60.6091
 42
0.3454122596
  0
VERTEX
  8
LAYER_9
 10
34.3201
 20
61.094
 42
0.3452942387
  0
VERTEX
  8
LAYER_9
 10
33.8209
 20
61.094
 42
0.3453727704
  0
VERTEX
  8
LAYER_9
 10
33.7019
 20
60.6091
  0
VERTEX
  8
LAYER_9
 10
33.907
 20
58.4833
 42
0.3588297967
  0
VERTEX
  8
LAYER_9
 10
34.0705
 20
58.3486
 42
0.3588950263
  0
VERTEX
  8
LAYER_9
 10
34.234
 20
58.4833
  0
SEQEND
  0
POLYLINE
  8
LAYER_9
 40
0.2999
 41
0.2999
 62
254
 66
1
 10
0
 20
0
 30
0
 70
1
  0
VERTEX
  8
LAYER_9
 10
93.6166
 20
19.5409
  0
VERTEX
  8
LAYER_9
 10
12.7318
 20
19.5409
  0
VERTEX
  8
LAYER_9
 10
12.7318
 20
63.4933
  0
VERTEX
  8
LAYER_9
 10
93.6166
 20
63.4933
  0
SEQEND
  0
TEXT
  8
LAYER_9
 10
39.8893
 20
57.4867
 11
39.8893
 21
57.4867
 40
4.0073
 41
0.5
  1
ê└æSé╔èÍéÀéÚé▓ÆìêË
  0
TEXT
  8
LAYER_9
 10
140.6807
 20
58.8994
 11
140.6807
 21
58.8994
 40
3.4786
 41
0.5
  1
ô┴ïLÄûìÇ
  0
TEXT
  8
LAYER_9
 10
140.6807
 20
54.1138
 11
140.6807
 21
54.1138
 40
3.4786
 41
0.5
  1
ègæÕö{ùªéRö{
  0
TEXT
  8
LAYER_9
 10
140.6807
 20
47.1138
 11
140.6807
 21
47.1138
 40
3.4786
 41
0.5
  1
ôöï´ë┬ô«
  0
TEXT
  8
LAYER_9
 10
140.6139
 20
50.6138
 11
140.6139
 21
50.6138
 40
3.4786
 41
0.5
  1
âXâCâbâ`òté½
  0
TEXT
  8
LAYER_9
 10
131.4373
 20
260.1369
 11
131.4373
 21
260.1369
 40
4.1743
 41
0.5
 72
1
  1
ègÄUö┬
  0
TEXT
  8
LAYER_9
 10
152.369
 20
260.1369
 11
152.369
 21
260.1369
 40
4.1743
 41
0.5
 72
1
  1
Ä¸Äë
  0
TEXT
  8
LAYER_9
 10
185.4571
 20
260.1369
 11
185.4571
 21
260.1369
 40
4.1743
 41
0.5
 72
1
  1
ôºû¥âtâìâXâg
  0
TEXT
  8
LAYER_9
 10
166.0136
 20
260.1938
 11
166.0136
 21
260.1938
 40
4.7587
 41
0.5
 72
1
  1
1
  0
TEXT
  8
LAYER_9
 10
152.369
 20
250.1369
 11
152.369
 21
250.1369
 40
4.1743
 41
0.5
 72
1
  1
ì|ö┬
  0
TEXT
  8
LAYER_9
 10
152.369
 20
245.1369
 11
152.369
 21
245.1369
 40
4.1743
 41
0.5
 72
1
  1
ì|ö┬
  0
TEXT
  8
LAYER_10
 10
2157.7653
 20
-303.6801
 11
2157.7653
 21
-303.6801
 40
3.1724
 41
0.5
  1
 
  0
TEXT
  8
LAYER_10
 10
2157.7653
 20
-290.2318
 11
2157.7653
 21
-290.2318
 40
3.1724
 41
0.5
  1
 
  0
TEXT
  8
LAYER_10
 10
2160.4249
 20
-307.6657
 11
2160.4249
 21
-307.6657
 40
3.1724
 41
0.5
  1
 
  0
TEXT
  8
LAYER_10
 10
2160.4249
 20
-293.7322
 11
2160.4249
 21
-293.7322
 40
3.1724
 41
0.5
  1
 
  0
TEXT
  8
LAYER_10
 10
2157.7653
 20
-300.1459
 11
2157.7653
 21
-300.1459
 40
3.1724
 41
0.5
  1
 
  0
TEXT
  8
LAYER_10
 10
2157.7653
 20
-314.7486
 11
2157.7653
 21
-314.7486
 40
3.1724
 41
0.5
  1
 
  0
TEXT
  8
LAYER_10
 10
2157.7653
 20
-318.3735
 11
2157.7653
 21
-318.3735
 40
3.1724
 41
0.5
  1
 
  0
TEXT
  8
LAYER_10
 10
13.7318
 20
36.376
 11
13.7318
 21
36.376
 40
3.1724
 41
0.5
  1
   ÅÛÅèïyéÐòàÉHÉ½âKâXôÖé╠ö¡ÉÂéÀéÚÅÛÅèé┼é═Ägùpé┼é½é▄é╣é±üB
  0
TEXT
  8
LAYER_10
 10
12.741
 20
49.9046
 11
12.741
 21
49.9046
 40
3.1724
 41
0.5
  1
üEû{èÝï´é═üA5ü`35üÄé╠ëÀôxö═ê═é┼ÄgùpéÀéÚéµéñÉ¦îvéÁé─éóé▄éÀüB
  0
TEXT
  8
LAYER_10
 10
16.3915
 20
32.4707
 11
16.3915
 21
32.4707
 40
2.7829
 41
0.5
  1
èÝï´ùÄë║üEè┤ôdé╠î┤ê÷éãé╚éÞé▄éÀüB
  0
TEXT
  8
LAYER_10
 10
16.3915
 20
46.4042
 11
16.3915
 21
46.4042
 40
2.7829
 41
0.5
  1
ìéëÀé┼ÄgùpéÀéÚéãë╬ìðé╠î┤ê÷éãé╚éÞé▄éÀüB
  0
TEXT
  8
LAYER_10
 10
12.741
 20
39.9905
 11
12.741
 21
39.9905
 40
2.7829
 41
0.5
  1
üEû{èÝï´é═üAë«ôÓÉÛùpé┼éÀüBë«èOéÔÉàïCüEÄ╝ïCé╠éáéÚ
  0
TEXT
  8
LAYER_10
 10
12.741
 20
25.3878
 11
12.741
 21
25.3878
 40
2.7829
 41
0.5
  1
üEû{èÝï´é═üAòÃû╩ÄµéÞòté»ÉÛùpé┼éÀüB
  0
TEXT
  8
LAYER_10
 10
13.7318
 20
21.6826
 11
13.7318
 21
21.6826
 40
3.1724
 41
0.5
  1
   ÄwÆÞê╚èOé╠Äµòté»é­ìséñéãë╬ìðüEèÝï´ùÄë║é╠î┤ê÷éãé╚éÞé▄éÀüB
  0
CIRCLE
  8
LAYER_10
 10
86.0564
 20
206.7762
 40
4
  0
TEXT
  8
LAYER_10
 10
82.505
 20
204.3582
 11
82.505
 21
204.3582
 40
7.138
 41
0.5
  1
 1
  0
CIRCLE
  8
LAYER_10
 10
98.6068
 20
206.7762
 40
4
  0
TEXT
  8
LAYER_10
 10
95.0554
 20
204.3582
 11
95.0554
 21
204.3582
 40
7.138
 41
0.5
  1
 2
  0
CIRCLE
  8
LAYER_10
 10
111.1572
 20
206.7762
 40
4
  0
TEXT
  8
LAYER_10
 10
107.6058
 20
204.3582
 11
107.6058
 21
204.3582
 40
7.138
 41
0.5
  1
 3
  0
CIRCLE
  8
LAYER_10
 10
123.7075
 20
206.7762
 40
4
  0
TEXT
  8
LAYER_10
 10
120.1561
 20
204.3582
 11
120.1561
 21
204.3582
 40
7.138
 41
0.5
  1
 4
  0
CIRCLE
  8
LAYER_10
 10
136.2579
 20
206.7762
 40
4
  0
TEXT
  8
LAYER_10
 10
132.7065
 20
204.3582
 11
132.7065
 21
204.3582
 40
7.138
 41
0.5
  1
 5
  0
INSERT
  8
LAYER_10
  2
AIGNBL0A010002
 10
0
 20
0
 30
0
  0
TEXT
  8
LAYER_11
 10
175.6054
 20
182.5241
 11
175.6054
 21
182.5241
 40
5.5657
 41
0.5
 72
1
  1
ë┬ô«ö═ê═
  0
POLYLINE
  8
LAYER_15
 40
0.0353
 41
0.0353
 66
1
 10
0
 20
0
 30
0
  0
VERTEX
  8
LAYER_15
 10
155.113
 20
238.4074
  0
VERTEX
  8
LAYER_15
 10
155.113
 20
218.1074
  0
SEQEND
  0
POLYLINE
  8
LAYER_15
 40
0.0353
 41
0.0353
 66
1
 10
0
 20
0
 30
0
 70
1
  0
VERTEX
  8
LAYER_15
 10
156.963
 20
218.1074
  0
VERTEX
  8
LAYER_15
 10
154.563
 20
218.1074
  0
VERTEX
  8
LAYER_15
 10
154.563
 20
238.4074
  0
VERTEX
  8
LAYER_15
 10
156.963
 20
238.4074
 42
-0.4142335904
  0
VERTEX
  8
LAYER_15
 10
157.263
 20
238.1074
  0
VERTEX
  8
LAYER_15
 10
157.263
 20
218.4074
 42
-0.4141807429
  0
SEQEND
  0
POLYLINE
  8
LAYER_15
 40
0.0353
 41
0.0353
 66
1
 10
0
 20
0
 30
0
  0
VERTEX
  8
LAYER_15
 10
188.0807
 20
228.9074
  0
VERTEX
  8
LAYER_15
 10
188.763
 20
228.9074
  0
SEQEND
  0
POLYLINE
  8
LAYER_15
 40
0.0353
 41
0.0353
 66
1
 10
0
 20
0
 30
0
  0
VERTEX
  8
LAYER_15
 10
188.0807
 20
227.6074
  0
VERTEX
  8
LAYER_15
 10
188.763
 20
227.6074
  0
SEQEND
  0
POLYLINE
  8
LAYER_15
 40
0.0353
 41
0.0353
 66
1
 10
0
 20
0
 30
0
  0
VERTEX
  8
LAYER_15
 10
185.9774
 20
227.5574
  0
VERTEX
  8
LAYER_15
 10
172.5486
 20
227.5574
  0
SEQEND
  0
POLYLINE
  8
LAYER_15
 40
0.0353
 41
0.0353
 66
1
 10
0
 20
0
 30
0
  0
VERTEX
  8
LAYER_15
 10
170.4774
 20
227.5574
  0
VERTEX
  8
LAYER_15
 10
162.0486
 20
227.5574
  0
SEQEND
  0
POLYLINE
  8
LAYER_15
 40
0.0353
 41
0.0353
 66
1
 10
0
 20
0
 30
0
  0
VERTEX
  8
LAYER_15
 10
185.9774
 20
228.9574
  0
VERTEX
  8
LAYER_15
 10
172.5486
 20
228.9574
  0
SEQEND
  0
POLYLINE
  8
LAYER_15
 40
0.0353
 41
0.0353
 66
1
 10
0
 20
0
 30
0
  0
VERTEX
  8
LAYER_15
 10
170.4774
 20
228.9574
  0
VERTEX
  8
LAYER_15
 10
162.0486
 20
228.9574
  0
SEQEND
  0
POLYLINE
  8
LAYER_15
 40
0.0353
 41
0.0353
 66
1
 10
0
 20
0
 30
0
  0
VERTEX
  8
LAYER_15
 10
157.263
 20
225.6074
  0
VERTEX
  8
LAYER_15
 10
157.663
 20
225.6074
  0
SEQEND
  0
POLYLINE
  8
LAYER_15
 40
0.0353
 41
0.0353
 66
1
 10
0
 20
0
 30
0
  0
VERTEX
  8
LAYER_15
 10
157.263
 20
226.9074
  0
VERTEX
  8
LAYER_15
 10
157.663
 20
226.9074
  0
SEQEND
  0
POLYLINE
  8
LAYER_15
 40
0.0353
 41
0.0353
 66
1
 10
0
 20
0
 30
0
  0
VERTEX
  8
LAYER_15
 10
157.263
 20
230.9074
  0
VERTEX
  8
LAYER_15
 10
157.663
 20
230.9074
  0
SEQEND
  0
POLYLINE
  8
LAYER_15
 40
0.0353
 41
0.0353
 66
1
 10
0
 20
0
 30
0
  0
VERTEX
  8
LAYER_15
 10
157.263
 20
229.6074
  0
VERTEX
  8
LAYER_15
 10
157.663
 20
229.6074
  0
SEQEND
  0
POLYLINE
  8
LAYER_15
 40
0.0353
 41
0.0353
 66
1
 10
0
 20
0
 30
0
  0
VERTEX
  8
LAYER_15
 10
159.863
 20
227.7675
  0
VERTEX
  8
LAYER_15
 10
159.863
 20
225.5574
  0
VERTEX
  8
LAYER_15
 10
157.663
 20
225.5574
  0
VERTEX
  8
LAYER_15
 10
157.663
 20
230.9574
  0
VERTEX
  8
LAYER_15
 10
159.863
 20
230.9574
  0
VERTEX
  8
LAYER_15
 10
159.863
 20
228.7473
  0
SEQEND
  0
CIRCLE
  8
LAYER_15
 10
161.013
 20
228.2574
 40
1.25
  0
CIRCLE
  8
LAYER_15
 10
187.013
 20
228.2574
 40
1.25
  0
POLYLINE
  8
LAYER_15
 40
0.0353
 41
0.0353
 66
1
 10
0
 20
0
 30
0
 70
1
  0
VERTEX
  8
LAYER_15
 10
189.063
 20
222.3074
  0
VERTEX
  8
LAYER_15
 10
191.563
 20
222.3074
  0
VERTEX
  8
LAYER_15
 10
191.563
 20
234.2074
  0
VERTEX
  8
LAYER_15
 10
189.063
 20
234.2074
 42
0.4142463851
  0
VERTEX
  8
LAYER_15
 10
188.763
 20
233.9074
  0
VERTEX
  8
LAYER_15
 10
188.763
 20
222.6074
 42
0.4141935324
  0
SEQEND
  0
CIRCLE
  8
LAYER_15
 10
171.513
 20
228.2574
 40
1.25
  0
POLYLINE
  8
LAYER_15
 40
0.0353
 41
0.0353
 66
1
 10
0
 20
0
 30
0
  0
VERTEX
  8
LAYER_15
 10
188.763
 20
233.2074
  0
VERTEX
  8
LAYER_15
 10
188.163
 20
233.2074
  0
VERTEX
  8
LAYER_15
 10
188.163
 20
232.3074
  0
VERTEX
  8
LAYER_15
 10
188.763
 20
232.3074
  0
SEQEND
  0
POLYLINE
  8
LAYER_15
 40
0.0353
 41
0.0353
 66
1
 10
0
 20
0
 30
0
  0
VERTEX
  8
LAYER_15
 10
188.163
 20
232.3074
 42
0.2117803295
  0
VERTEX
  8
LAYER_15
 10
188.2562
 20
232.3591
 42
0.1026277287
  0
VERTEX
  8
LAYER_15
 10
188.3315
 20
232.5149
 42
0.06816969996
  0
VERTEX
  8
LAYER_15
 10
188.363
 20
232.7574
 42
0.09357826574
  0
VERTEX
  8
LAYER_15
 10
188.3126
 20
233.056
 42
0.2603126513
  0
VERTEX
  8
LAYER_15
 10
188.163
 20
233.2074
  0
SEQEND
  0
POLYLINE
  8
LAYER_15
 40
0.0353
 41
0.0353
 66
1
 10
0
 20
0
 30
0
  0
VERTEX
  8
LAYER_15
 10
188.763
 20
223.3074
  0
VERTEX
  8
LAYER_15
 10
188.163
 20
223.3074
  0
VERTEX
  8
LAYER_15
 10
188.163
 20
224.2074
  0
VERTEX
  8
LAYER_15
 10
188.763
 20
224.2074
  0
SEQEND
  0
POLYLINE
  8
LAYER_15
 40
0.0353
 41
0.0353
 66
1
 10
0
 20
0
 30
0
  0
VERTEX
  8
LAYER_15
 10
188.163
 20
224.2074
 42
0.2118024351
  0
VERTEX
  8
LAYER_15
 10
188.0698
 20
224.1557
 42
0.1027125428
  0
VERTEX
  8
LAYER_15
 10
187.9945
 20
224
 42
0.06813059822
  0
VERTEX
  8
LAYER_15
 10
187.963
 20
223.7574
 42
0.09352899272
  0
VERTEX
  8
LAYER_15
 10
188.0133
 20
223.4589
 42
0.2604147218
  0
VERTEX
  8
LAYER_15
 10
188.163
 20
223.3074
  0
SEQEND
  0
POLYLINE
  8
LAYER_15
 40
0.0353
 41
0.0353
 66
1
 10
0
 20
0
 30
0
  0
VERTEX
  8
LAYER_15
 10
159.863
 20
230.9574
 42
0.2176373651
  0
VERTEX
  8
LAYER_15
 10
159.7963
 20
230.9896
 42
0.03755662482
  0
VERTEX
  8
LAYER_15
 10
159.3889
 20
231.0345
 42
0.01386723812
  0
VERTEX
  8
LAYER_15
 10
158.763
 20
231.0511
 42
0.034931881
  0
VERTEX
  8
LAYER_15
 10
157.8022
 20
231.0031
 42
0.3197906021
  0
VERTEX
  8
LAYER_15
 10
157.663
 20
230.9574
  0
SEQEND
  0
POLYLINE
  8
LAYER_15
 40
0.0353
 41
0.0353
 66
1
 10
0
 20
0
 30
0
  0
VERTEX
  8
LAYER_15
 10
159.863
 20
225.5574
 42
0.2176373651
  0
VERTEX
  8
LAYER_15
 10
159.7963
 20
225.5896
 42
0.03755662482
  0
VERTEX
  8
LAYER_15
 10
159.3889
 20
225.6345
 42
0.01386723812
  0
VERTEX
  8
LAYER_15
 10
158.763
 20
225.6511
 42
0.034931881
  0
VERTEX
  8
LAYER_15
 10
157.8022
 20
225.6031
 42
0.3197906021
  0
VERTEX
  8
LAYER_15
 10
157.663
 20
225.5574
  0
SEQEND
  0
CIRCLE
  8
LAYER_15
 10
158.763
 20
225.0137
 40
0.45
  0
POLYLINE
  8
LAYER_15
 40
0.0353
 41
0.0353
 66
1
 10
0
 20
0
 30
0
  0
VERTEX
  8
LAYER_15
 10
160.1329
 20
224.333
  0
VERTEX
  8
LAYER_15
 10
159.4437
 20
223.6438
  0
SEQEND
  0
POLYLINE
  8
LAYER_15
 40
0.0353
 41
0.0353
 66
1
 10
0
 20
0
 30
0
  0
VERTEX
  8
LAYER_15
 10
158.9002
 20
224.5852
  0
VERTEX
  8
LAYER_15
 10
159.4437
 20
223.6438
  0
VERTEX
  8
LAYER_15
 10
159.8898
 20
223.5243
  0
VERTEX
  8
LAYER_15
 10
160.2525
 20
223.8869
  0
VERTEX
  8
LAYER_15
 10
160.1329
 20
224.333
  0
VERTEX
  8
LAYER_15
 10
159.1916
 20
224.8765
  0
SEQEND
  0
POLYLINE
  8
LAYER_15
 40
0.0353
 41
0.0353
 66
1
 10
0
 20
0
 30
0
 70
1
  0
VERTEX
  8
LAYER_15
 10
189.063
 20
191.3068
  0
VERTEX
  8
LAYER_15
 10
191.563
 20
191.3068
  0
VERTEX
  8
LAYER_15
 10
191.563
 20
203.2068
  0
VERTEX
  8
LAYER_15
 10
189.063
 20
203.2068
 42
0.4142062125
  0
VERTEX
  8
LAYER_15
 10
188.763
 20
202.9068
  0
VERTEX
  8
LAYER_15
 10
188.763
 20
191.6068
 42
0.4142337046
  0
SEQEND
  0
POLYLINE
  8
LAYER_15
 40
0.0353
 41
0.0353
 66
1
 10
0
 20
0
 30
0
  0
VERTEX
  8
LAYER_15
 10
188.763
 20
196.8068
  0
VERTEX
  8
LAYER_15
 10
188.163
 20
196.8068
  0
VERTEX
  8
LAYER_15
 10
188.163
 20
197.7068
  0
VERTEX
  8
LAYER_15
 10
188.763
 20
197.7068
  0
SEQEND
  0
POLYLINE
  8
LAYER_15
 40
0.0353
 41
0.0353
 66
1
 10
0
 20
0
 30
0
  0
VERTEX
  8
LAYER_15
 10
188.163
 20
197.7068
 42
0.2118233306
  0
VERTEX
  8
LAYER_15
 10
188.0698
 20
197.6551
 42
0.102675007
  0
VERTEX
  8
LAYER_15
 10
187.9945
 20
197.4993
 42
0.06812896729
  0
VERTEX
  8
LAYER_15
 10
187.963
 20
197.2568
 42
0.09352899272
  0
VERTEX
  8
LAYER_15
 10
188.0133
 20
196.9583
 42
0.2604147218
  0
VERTEX
  8
LAYER_15
 10
188.163
 20
196.8068
  0
SEQEND
  0
POLYLINE
  8
LAYER_15
 40
0.0353
 41
0.0353
 66
1
 10
0
 20
0
 30
0
  0
VERTEX
  8
LAYER_15
 10
185.763
 20
196.7068
  0
VERTEX
  8
LAYER_15
 10
185.763
 20
198.8318
  0
VERTEX
  8
LAYER_15
 10
188.263
 20
198.8318
  0
VERTEX
  8
LAYER_15
 10
188.263
 20
197.7068
  0
SEQEND
  0
POLYLINE
  8
LAYER_15
 40
0.0353
 41
0.0353
 66
1
 10
0
 20
0
 30
0
  0
VERTEX
  8
LAYER_15
 10
187.9633
 20
197.2818
  0
VERTEX
  8
LAYER_15
 10
185.763
 20
197.2818
  0
SEQEND
  0
POLYLINE
  8
LAYER_15
 40
0.0353
 41
0.0353
 66
1
 10
0
 20
0
 30
0
  0
VERTEX
  8
LAYER_15
 10
187.9658
 20
197.1818
  0
VERTEX
  8
LAYER_15
 10
185.763
 20
197.1818
  0
SEQEND
  0
POLYLINE
  8
LAYER_15
 40
0.0353
 41
0.0353
 66
1
 10
0
 20
0
 30
0
  0
VERTEX
  8
LAYER_15
 10
188.263
 20
194.7318
  0
VERTEX
  8
LAYER_15
 10
185.763
 20
194.7318
  0
SEQEND
  0
POLYLINE
  8
LAYER_15
 40
0.0353
 41
0.0353
 66
1
 10
0
 20
0
 30
0
  0
VERTEX
  8
LAYER_15
 10
188.263
 20
194.8318
  0
VERTEX
  8
LAYER_15
 10
185.763
 20
194.8318
  0
SEQEND
  0
POLYLINE
  8
LAYER_15
 40
0.0353
 41
0.0353
 66
1
 10
0
 20
0
 30
0
  0
VERTEX
  8
LAYER_15
 10
188.263
 20
194.6342
  0
VERTEX
  8
LAYER_15
 10
188.763
 20
194.6342
  0
SEQEND
  0
POLYLINE
  8
LAYER_15
 40
0.0353
 41
0.0353
 66
1
 10
0
 20
0
 30
0
  0
VERTEX
  8
LAYER_15
 10
188.263
 20
193.3342
  0
VERTEX
  8
LAYER_15
 10
188.763
 20
193.3342
  0
SEQEND
  0
POLYLINE
  8
LAYER_15
 40
0.0353
 41
0.0353
 66
1
 10
0
 20
0
 30
0
  0
VERTEX
  8
LAYER_15
 10
188.263
 20
198.6793
  0
VERTEX
  8
LAYER_15
 10
188.763
 20
198.6793
  0
SEQEND
  0
POLYLINE
  8
LAYER_15
 40
0.0353
 41
0.0353
 66
1
 10
0
 20
0
 30
0
  0
VERTEX
  8
LAYER_15
 10
172.763
 20
197.1568
  0
VERTEX
  8
LAYER_15
 10
170.263
 20
197.1568
  0
SEQEND
  0
POLYLINE
  8
LAYER_15
 40
0.0353
 41
0.0353
 66
1
 10
0
 20
0
 30
0
  0
VERTEX
  8
LAYER_15
 10
172.763
 20
197.0568
  0
VERTEX
  8
LAYER_15
 10
170.263
 20
197.0568
  0
SEQEND
  0
POLYLINE
  8
LAYER_15
 40
0.0353
 41
0.0353
 66
1
 10
0
 20
0
 30
0
  0
VERTEX
  8
LAYER_15
 10
170.263
 20
197.5068
  0
VERTEX
  8
LAYER_15
 10
170.263
 20
194.9568
  0
VERTEX
  8
LAYER_15
 10
172.763
 20
194.9568
  0
VERTEX
  8
LAYER_15
 10
172.763
 20
195.3068
  0
SEQEND
  0
POLYLINE
  8
LAYER_15
 40
0.0353
 41
0.0353
 66
1
 10
0
 20
0
 30
0
  0
VERTEX
  8
LAYER_15
 10
162.263
 20
199.3568
  0
VERTEX
  8
LAYER_15
 10
159.763
 20
199.3568
  0
SEQEND
  0
POLYLINE
  8
LAYER_15
 40
0.0353
 41
0.0353
 66
1
 10
0
 20
0
 30
0
  0
VERTEX
  8
LAYER_15
 10
162.263
 20
199.2568
  0
VERTEX
  8
LAYER_15
 10
159.763
 20
199.2568
  0
SEQEND
  0
POLYLINE
  8
LAYER_15
 40
0.0353
 41
0.0353
 66
1
 10
0
 20
0
 30
0
  0
VERTEX
  8
LAYER_15
 10
155.113
 20
210.5568
  0
VERTEX
  8
LAYER_15
 10
155.113
 20
190.2568
  0
SEQEND
  0
POLYLINE
  8
LAYER_15
 40
0.0353
 41
0.0353
 66
1
 10
0
 20
0
 30
0
 70
1
  0
VERTEX
  8
LAYER_15
 10
156.963
 20
190.2568
  0
VERTEX
  8
LAYER_15
 10
154.563
 20
190.2568
  0
VERTEX
  8
LAYER_15
 10
154.563
 20
210.5568
  0
VERTEX
  8
LAYER_15
 10
156.963
 20
210.5568
 42
-0.4141934219
  0
VERTEX
  8
LAYER_15
 10
157.263
 20
210.2568
  0
VERTEX
  8
LAYER_15
 10
157.263
 20
190.5568
 42
-0.414220911
  0
SEQEND
  0
POLYLINE
  8
LAYER_15
 40
0.0353
 41
0.0353
 66
1
 10
0
 20
0
 30
0
  0
VERTEX
  8
LAYER_15
 10
158.3872
 20
201.4406
 42
0.3154089413
  0
VERTEX
  8
LAYER_15
 10
157.663
 20
200.4068
 42
0.4142190557
  0
VERTEX
  8
LAYER_15
 10
158.763
 20
199.3068
 42
0.4142155668
  0
VERTEX
  8
LAYER_15
 10
159.863
 20
200.4068
 42
0.3154058644
  0
VERTEX
  8
LAYER_15
 10
159.1388
 20
201.4406
  0
SEQEND
  0
POLYLINE
  8
LAYER_15
 40
0.0353
 41
0.0353
 66
1
 10
0
 20
0
 30
0
  0
VERTEX
  8
LAYER_15
 10
157.263
 20
199.7568
  0
VERTEX
  8
LAYER_15
 10
157.8756
 20
199.7568
  0
SEQEND
  0
POLYLINE
  8
LAYER_15
 40
0.0353
 41
0.0353
 66
1
 10
0
 20
0
 30
0
  0
VERTEX
  8
LAYER_15
 10
157.263
 20
201.0568
  0
VERTEX
  8
LAYER_15
 10
157.8756
 20
201.0568
  0
SEQEND
  0
CIRCLE
  8
LAYER_15
 10
158.763
 20
200.4068
 40
0.45
  0
POLYLINE
  8
LAYER_15
 40
0.0353
 41
0.0353
 66
1
 10
0
 20
0
 30
0
  0
VERTEX
  8
LAYER_15
 10
158.2756
 20
201.8568
  0
VERTEX
  8
LAYER_15
 10
158.557
 20
200.8069
  0
SEQEND
  0
POLYLINE
  8
LAYER_15
 40
0.0353
 41
0.0353
 66
1
 10
0
 20
0
 30
0
  0
VERTEX
  8
LAYER_15
 10
159.2503
 20
201.8568
  0
VERTEX
  8
LAYER_15
 10
158.969
 20
200.8069
  0
SEQEND
  0
POLYLINE
  8
LAYER_15
 40
0.0353
 41
0.0353
 66
1
 10
0
 20
0
 30
0
 70
1
  0
VERTEX
  8
LAYER_15
 10
159.0194
 20
202.2568
  0
VERTEX
  8
LAYER_15
 10
159.2503
 20
201.8568
  0
VERTEX
  8
LAYER_15
 10
158.2756
 20
201.8568
  0
VERTEX
  8
LAYER_15
 10
158.5066
 20
202.2568
  0
SEQEND
  0
POLYLINE
  8
LAYER_15
 40
0.0353
 41
0.0353
 66
1
 10
0
 20
0
 30
0
  0
VERTEX
  8
LAYER_15
 10
162.263
 20
198.9068
 42
0.1804273702
  0
VERTEX
  8
LAYER_15
 10
162.0019
 20
198.2068
 42
0.1804290316
  0
VERTEX
  8
LAYER_15
 10
162.263
 20
197.5068
  0
SEQEND
  0
POLYLINE
  8
LAYER_15
 40
0.0353
 41
0.0353
 66
1
 10
0
 20
0
 30
0
  0
VERTEX
  8
LAYER_15
 10
172.763
 20
196.7068
 42
0.1804273702
  0
VERTEX
  8
LAYER_15
 10
172.5019
 20
196.0068
 42
0.1804290316
  0
VERTEX
  8
LAYER_15
 10
172.763
 20
195.3068
  0
VERTEX
  8
LAYER_15
 10
185.763
 20
195.3068
  0
SEQEND
  0
POLYLINE
  8
LAYER_15
 40
0.0353
 41
0.0353
 66
1
 10
0
 20
0
 30
0
  0
VERTEX
  8
LAYER_15
 10
170.263
 20
198.9068
 42
-0.1804252981
  0
VERTEX
  8
LAYER_15
 10
170.5241
 20
198.2068
 42
-0.1804269591
  0
VERTEX
  8
LAYER_15
 10
170.263
 20
197.5068
  0
VERTEX
  8
LAYER_15
 10
162.263
 20
197.5068
  0
VERTEX
  8
LAYER_15
 10
162.263
 20
197.1568
  0
VERTEX
  8
LAYER_15
 10
159.763
 20
197.1568
  0
VERTEX
  8
LAYER_15
 10
159.763
 20
199.9485
  0
SEQEND
  0
POLYLINE
  8
LAYER_15
 40
0.0353
 41
0.0353
 66
1
 10
0
 20
0
 30
0
  0
VERTEX
  8
LAYER_15
 10
188.263
 20
196.8068
  0
VERTEX
  8
LAYER_15
 10
188.263
 20
193.1818
  0
VERTEX
  8
LAYER_15
 10
185.763
 20
193.1818
  0
VERTEX
  8
LAYER_15
 10
185.763
 20
195.3068
 42
0.1804269389
  0
VERTEX
  8
LAYER_15
 10
186.0241
 20
196.0068
 42
0.1804252901
  0
VERTEX
  8
LAYER_15
 10
185.763
 20
196.7068
  0
VERTEX
  8
LAYER_15
 10
172.763
 20
196.7068
  0
VERTEX
  8
LAYER_15
 10
172.763
 20
199.2568
  0
VERTEX
  8
LAYER_15
 10
170.263
 20
199.2568
  0
VERTEX
  8
LAYER_15
 10
170.263
 20
198.9068
  0
VERTEX
  8
LAYER_15
 10
162.263
 20
198.9068
  0
VERTEX
  8
LAYER_15
 10
162.263
 20
201.4568
  0
VERTEX
  8
LAYER_15
 10
159.763
 20
201.4568
  0
VERTEX
  8
LAYER_15
 10
159.763
 20
200.865
  0
SEQEND
  0
POLYLINE
  8
LAYER_15
 40
0.0353
 41
0.0353
 66
1
 10
0
 20
0
 30
0
  0
VERTEX
  8
LAYER_15
 10
185.5446
 20
231.6227
 42
0.2982411993
  0
VERTEX
  8
LAYER_15
 10
183.3413
 20
228.2574
 42
0.2982387908
  0
VERTEX
  8
LAYER_15
 10
185.5446
 20
224.8921
  0
SEQEND
  0
POLYLINE
  8
LAYER_15
 40
0.05
 41
0.05
 66
1
 10
0
 20
0
 30
0
 70
1
  0
VERTEX
  8
LAYER_15
 10
185.4936
 20
231.8674
  0
VERTEX
  8
LAYER_15
 10
185.5957
 20
231.378
  0
VERTEX
  8
LAYER_15
 10
187.013
 20
231.9291
  0
SEQEND
  0
POLYLINE
  8
LAYER_15
 40
0.05
 41
0.05
 66
1
 10
0
 20
0
 30
0
 70
1
  0
VERTEX
  8
LAYER_15
 10
185.5957
 20
225.1369
  0
VERTEX
  8
LAYER_15
 10
185.4936
 20
224.6474
  0
VERTEX
  8
LAYER_15
 10
187.013
 20
224.5857
  0
SEQEND
  0
TEXT
  8
LAYER_15
 10
185.9974
 20
234.5869
 11
185.9974
 21
234.5869
 40
4.7587
 41
0.5
 72
1
  1
180üï
  0
POLYLINE
  8
LAYER_15
 40
0.0353
 41
0.0353
 66
1
 10
0
 20
0
 30
0
  0
VERTEX
  8
LAYER_15
 10
162.4817
 20
224.8701
 42
0.2988664973
  0
VERTEX
  8
LAYER_15
 10
164.705
 20
228.2574
 42
0.2988689018
  0
VERTEX
  8
LAYER_15
 10
162.4817
 20
231.6447
  0
SEQEND
  0
POLYLINE
  8
LAYER_15
 40
0.05
 41
0.05
 66
1
 10
0
 20
0
 30
0
 70
1
  0
VERTEX
  8
LAYER_15
 10
162.5325
 20
224.6254
  0
VERTEX
  8
LAYER_15
 10
162.4309
 20
225.1149
  0
VERTEX
  8
LAYER_15
 10
161.013
 20
224.5654
  0
SEQEND
  0
POLYLINE
  8
LAYER_15
 40
0.05
 41
0.05
 66
1
 10
0
 20
0
 30
0
 70
1
  0
VERTEX
  8
LAYER_15
 10
162.4309
 20
231.3999
  0
VERTEX
  8
LAYER_15
 10
162.5325
 20
231.8895
  0
VERTEX
  8
LAYER_15
 10
161.013
 20
231.9494
  0
SEQEND
  0
TEXT
  8
LAYER_15
 10
166.1676
 20
234.7173
 11
166.1676
 21
234.7173
 40
4.7587
 41
0.5
 72
1
  1
180üï
  0
POLYLINE
  8
LAYER_15
 40
0.05
 41
0.05
 66
1
 10
0
 20
0
 30
0
 70
1
  0
VERTEX
  8
LAYER_15
 10
175.1064
 20
229.7928
  0
VERTEX
  8
LAYER_15
 10
174.6193
 20
229.6798
  0
VERTEX
  8
LAYER_15
 10
175.202
 20
228.2751
  0
SEQEND
  0
TEXT
  8
LAYER_15
 10
175.2557
 20
221.04
 11
175.2557
 21
221.04
 40
4.7587
 41
0.5
 72
1
  1
360üï
  0
CIRCLE
  8
LAYER_15
 10
171.513
 20
228.2574
 40
3.692
  0
POLYLINE
  8
LAYER_15
 40
0.05
 41
0.05
 66
1
 10
0
 20
0
 30
0
 70
1
  0
VERTEX
  8
LAYER_15
 10
175.1064
 20
226.7575
  0
VERTEX
  8
LAYER_15
 10
174.6193
 20
226.8705
  0
VERTEX
  8
LAYER_15
 10
175.202
 20
228.2751
  0
SEQEND
  0
POLYLINE
  8
LAYER_15
  6
AIGENLINE002
 40
0.0353
 41
0.0353
 62
254
 66
1
 10
0
 20
0
 30
0
 70
128
  0
VERTEX
  8
LAYER_15
 10
159.7445
 20
211.1484
  0
VERTEX
  8
LAYER_15
 10
151.1654
 20
192.7503
  0
SEQEND
  0
POLYLINE
  8
LAYER_15
  6
AIGENLINE002
 40
0.0353
 41
0.0353
 62
254
 66
1
 10
0
 20
0
 30
0
 70
129
  0
VERTEX
  8
LAYER_15
 10
153.2407
 20
192.1136
 42
-0.2915172899
  0
VERTEX
  8
LAYER_15
 10
152.9688
 20
191.9404
 42
-0.1096395967
  0
VERTEX
  8
LAYER_15
 10
152.8421
 20
191.9685
  0
VERTEX
  8
LAYER_15
 10
150.6669
 20
192.9828
  0
VERTEX
  8
LAYER_15
 10
159.2461
 20
211.3808
  0
VERTEX
  8
LAYER_15
 10
161.4212
 20
210.3665
 42
-0.2915043886
  0
VERTEX
  8
LAYER_15
 10
161.5944
 20
210.0946
 42
-0.1093104935
  0
VERTEX
  8
LAYER_15
 10
161.5663
 20
209.9678
  0
SEQEND
  0
POLYLINE
  8
LAYER_15
  6
AIGENLINE002
 40
0.0353
 41
0.0353
 62
254
 66
1
 10
0
 20
0
 30
0
 70
128
  0
VERTEX
  8
LAYER_15
 10
151.1654
 20
208.0633
  0
VERTEX
  8
LAYER_15
 10
159.7445
 20
189.6652
  0
SEQEND
  0
POLYLINE
  8
LAYER_15
  6
AIGENLINE002
 40
0.0353
 41
0.0353
 62
254
 66
1
 10
0
 20
0
 30
0
 70
129
  0
VERTEX
  8
LAYER_15
 10
161.4212
 20
190.447
  0
VERTEX
  8
LAYER_15
 10
159.2461
 20
189.4328
  0
VERTEX
  8
LAYER_15
 10
150.6669
 20
207.8308
  0
VERTEX
  8
LAYER_15
 10
152.8421
 20
208.8451
 42
-0.1096908515
  0
VERTEX
  8
LAYER_15
 10
152.9688
 20
208.8732
 42
-0.2914942097
  0
VERTEX
  8
LAYER_15
 10
153.2407
 20
208.7
  0
VERTEX
  8
LAYER_15
 10
161.5663
 20
190.8457
 42
-0.1096546713
  0
VERTEX
  8
LAYER_15
 10
161.5944
 20
190.7189
 42
-0.2914668737
  0
SEQEND
  0
INSERT
  8
LAYER_15
  2
AIGNBL0F010002
 10
0
 20
0
 30
0
  0
INSERT
  8
LAYER_15
  2
AIGNBL0F010008
 10
0
 20
0
 30
0
  0
ENDSEC
  0
EOF
