  0
SECTION
  2
HEADER
  9
$ACADVER
  1
AC1009
  9
$LUNITS
 70
2
  9
$LUPREC
 70
4
  9
$LTSCALE
 40
1.0
  9
$EXTMIN
 10
0
 20
-324.1914
 30
0
  9
$EXTMAX
 10
2328.3354
 20
285.2362
 30
0
  0
ENDSEC
  0
SECTION
  2
TABLES
  0
TABLE
  2
LTYPE
 70
256
  0
LTYPE
  2
AIGENLINE001
 70
64
  3
generate AI->DXF Converter
 72
65
 73
4
 40
10.16
 49
6.35
 49
-1.27
 49
1.27
 49
-1.27
  0
LTYPE
  2
AIGENLINE002
 70
64
  3
generate AI->DXF Converter
 72
65
 73
6
 40
6.35
 49
3.175
 49
-0.635
 49
0.635
 49
-0.635
 49
0.635
 49
-0.635
  0
ENDTAB
  0
TABLE
  2
LAYER
 70
16
  0
LAYER
  2
LAYER_1
 70
64
 62
7
  6
CONTINUOUS
  0
LAYER
  2
LAYER_2
 70
64
 62
7
  6
CONTINUOUS
  0
LAYER
  2
LAYER_3
 70
64
 62
7
  6
CONTINUOUS
  0
LAYER
  2
LAYER_4
 70
64
 62
7
  6
CONTINUOUS
  0
LAYER
  2
LAYER_5
 70
64
 62
7
  6
CONTINUOUS
  0
LAYER
  2
LAYER_6
 70
64
 62
7
  6
CONTINUOUS
  0
LAYER
  2
LAYER_7
 70
64
 62
7
  6
CONTINUOUS
  0
LAYER
  2
LAYER_8
 70
64
 62
7
  6
CONTINUOUS
  0
LAYER
  2
LAYER_9
 70
64
 62
7
  6
CONTINUOUS
  0
LAYER
  2
LAYER_10
 70
64
 62
7
  6
CONTINUOUS
  0
LAYER
  2
LAYER_11
 70
64
 62
7
  6
CONTINUOUS
  0
LAYER
  2
LAYER_12
 70
64
 62
7
  6
CONTINUOUS
  0
LAYER
  2
LAYER_13
 70
64
 62
7
  6
CONTINUOUS
  0
LAYER
  2
LAYER_14
 70
64
 62
7
  6
CONTINUOUS
  0
LAYER
  2
LAYER_15
 70
64
 62
7
  6
CONTINUOUS
  0
LAYER
  2
LAYER_16
 70
64
 62
7
  6
CONTINUOUS
  0
ENDTAB
  0
TABLE
  2
STYLE
 70
6
  0
STYLE
  2
STANDARD
 70
0
 40
0
 50
0
 71
0
 41
0
 42
0
  3
TXT
  4
BIGFONT
  0
ENDTAB
  0
ENDSEC
  0
SECTION
  2
BLOCKS
  0
BLOCK
  8
LAYER_11
  2
AIGNBL0B040005
 70
64
 10
0
 20
0
 30
0
  3
AIGNBL0B040005
  0
POLYLINE
  8
LAYER_11
 40
0.05
 41
0.05
 66
1
 10
0
 20
0
 30
0
 70
1
  0
VERTEX
  8
LAYER_11
 10
11.5852
 20
277.1733
  0
VERTEX
  8
LAYER_11
 10
11.0995
 20
275.9951
  0
VERTEX
  8
LAYER_11
 10
10.4749
 20
275.9951
  0
VERTEX
  8
LAYER_11
 10
12.0655
 20
279.7388
  0
VERTEX
  8
LAYER_11
 10
12.7945
 20
279.7388
  0
VERTEX
  8
LAYER_11
 10
14.3912
 20
275.9951
  0
VERTEX
  8
LAYER_11
 10
13.7449
 20
275.9951
  0
VERTEX
  8
LAYER_11
 10
13.2454
 20
277.1733
  0
SEQEND
  0
POLYLINE
  8
LAYER_11
 40
0.05
 41
0.05
 66
1
 10
0
 20
0
 30
0
 70
1
  0
VERTEX
  8
LAYER_11
 10
13.12
 20
277.5498
  0
VERTEX
  8
LAYER_11
 10
12.6618
 20
278.6285
 42
-0.02266643289
  0
VERTEX
  8
LAYER_11
 10
12.4186
 20
279.3113
  0
VERTEX
  8
LAYER_11
 10
12.4051
 20
279.3113
 42
-0.02073903843
  0
VERTEX
  8
LAYER_11
 10
12.1688
 20
278.633
  0
VERTEX
  8
LAYER_11
 10
11.7106
 20
277.5498
  0
SEQEND
  0
ENDBLK
  0
BLOCK
  8
LAYER_11
  2
AIGNBL0B040006
 70
64
 10
0
 20
0
 30
0
  3
AIGNBL0B040006
  0
POLYLINE
  8
LAYER_11
 40
0.05
 41
0.05
 66
1
 10
0
 20
0
 30
0
 70
1
  0
VERTEX
  8
LAYER_11
 10
18.731
 20
275.4449
 42
-0.0154936999
  0
VERTEX
  8
LAYER_11
 10
16.9396
 20
275.879
 42
0.09189490789
  0
VERTEX
  8
LAYER_11
 10
16.655
 20
275.9337
 42
-0.09253130943
  0
VERTEX
  8
LAYER_11
 10
15.7066
 20
276.1353
 42
-0.09792795049
  0
VERTEX
  8
LAYER_11
 10
15.0727
 20
276.5676
 42
-0.1630935551
  0
VERTEX
  8
LAYER_11
 10
14.6095
 20
277.5552
 42
-0.03157957779
  0
VERTEX
  8
LAYER_11
 10
14.5924
 20
277.8275
 42
-0.108828066
  0
VERTEX
  8
LAYER_11
 10
14.7758
 20
278.6869
 42
-0.1618081943
  0
VERTEX
  8
LAYER_11
 10
15.5713
 20
279.5166
 42
-0.09174759387
  0
VERTEX
  8
LAYER_11
 10
16.3714
 20
279.7725
 42
-0.03454180006
  0
VERTEX
  8
LAYER_11
 10
16.7728
 20
279.7998
 42
-0.09525717377
  0
VERTEX
  8
LAYER_11
 10
17.7312
 20
279.6232
 42
-0.1001844506
  0
VERTEX
  8
LAYER_11
 10
18.3647
 20
279.203
 42
-0.1611574859
  0
VERTEX
  8
LAYER_11
 10
18.8487
 20
278.208
 42
-0.03590983571
  0
VERTEX
  8
LAYER_11
 10
18.8702
 20
277.9057
 42
-0.1066586367
  0
VERTEX
  8
LAYER_11
 10
18.6949
 20
277.0557
 42
-0.2185717489
  0
VERTEX
  8
LAYER_11
 10
17.591
 20
276.1273
 42
-0.006705231958
  0
VERTEX
  8
LAYER_11
 10
17.5366
 20
276.1115
  0
VERTEX
  8
LAYER_11
 10
17.5366
 20
276.0891
 42
0.01505206819
  0
VERTEX
  8
LAYER_11
 10
18.905
 20
275.8504
  0
SEQEND
  0
POLYLINE
  8
LAYER_11
 40
0.05
 41
0.05
 66
1
 10
0
 20
0
 30
0
 70
1
  0
VERTEX
  8
LAYER_11
 10
18.2318
 20
277.8843
 42
0.1175328338
  0
VERTEX
  8
LAYER_11
 10
18.0505
 20
278.6482
 42
0.1170610494
  0
VERTEX
  8
LAYER_11
 10
17.6275
 20
279.1433
 42
0.1200145914
  0
VERTEX
  8
LAYER_11
 10
17.0179
 20
279.386
 42
0.03772091815
  0
VERTEX
  8
LAYER_11
 10
16.7518
 20
279.4057
 42
0.1152967341
  0
VERTEX
  8
LAYER_11
 10
16.0139
 20
279.242
 42
0.1852950939
  0
VERTEX
  8
LAYER_11
 10
15.3593
 20
278.5119
 42
0.09846534642
  0
VERTEX
  8
LAYER_11
 10
15.238
 20
277.8399
 42
0.1208323771
  0
VERTEX
  8
LAYER_11
 10
15.413
 20
277.0895
 42
0.2836099207
  0
VERTEX
  8
LAYER_11
 10
16.7246
 20
276.3275
 42
0.1188766714
  0
VERTEX
  8
LAYER_11
 10
17.469
 20
276.4986
 42
0.1796046283
  0
VERTEX
  8
LAYER_11
 10
18.1057
 20
277.2113
 42
0.09851098502
  0
SEQEND
  0
ENDBLK
  0
BLOCK
  8
LAYER_11
  2
AIGNBL0B040007
 70
64
 10
0
 20
0
 30
0
  3
AIGNBL0B040007
  0
POLYLINE
  8
LAYER_11
 40
0.05
 41
0.05
 66
1
 10
0
 20
0
 30
0
 70
1
  0
VERTEX
  8
LAYER_11
 10
20.19
 20
279.7388
  0
VERTEX
  8
LAYER_11
 10
20.19
 20
277.5226
 42
0.125792901
  0
VERTEX
  8
LAYER_11
 10
20.356
 20
276.7992
 42
0.2217095386
  0
VERTEX
  8
LAYER_11
 10
20.9999
 20
276.3541
 42
0.04938718024
  0
VERTEX
  8
LAYER_11
 10
21.2801
 20
276.3275
 42
0.1303005861
  0
VERTEX
  8
LAYER_11
 10
21.9457
 20
276.4874
 42
0.1509483805
  0
VERTEX
  8
LAYER_11
 10
22.2947
 20
276.8786
 42
0.1174429129
  0
VERTEX
  8
LAYER_11
 10
22.419
 20
277.5226
  0
VERTEX
  8
LAYER_11
 10
22.419
 20
279.7388
  0
VERTEX
  8
LAYER_11
 10
23.0302
 20
279.7388
  0
VERTEX
  8
LAYER_11
 10
23.0302
 20
277.5557
 42
-0.1106711946
  0
VERTEX
  8
LAYER_11
 10
22.8616
 20
276.742
 42
-0.1857068613
  0
VERTEX
  8
LAYER_11
 10
22.1566
 20
276.0936
 42
-0.09650508587
  0
VERTEX
  8
LAYER_11
 10
21.3536
 20
275.9351
 42
-0.007939887413
  0
VERTEX
  8
LAYER_11
 10
21.2594
 20
275.9337
 42
-0.1023190368
  0
VERTEX
  8
LAYER_11
 10
20.3746
 20
276.101
 42
-0.1218905878
  0
VERTEX
  8
LAYER_11
 10
19.8807
 20
276.4871
 42
-0.1186202401
  0
VERTEX
  8
LAYER_11
 10
19.6207
 20
277.0863
 42
-0.0498656391
  0
VERTEX
  8
LAYER_11
 10
19.5792
 20
277.534
  0
VERTEX
  8
LAYER_11
 10
19.5792
 20
279.7388
  0
SEQEND
  0
ENDBLK
  0
BLOCK
  8
LAYER_11
  2
AIGNBL0B040008
 70
64
 10
0
 20
0
 30
0
  3
AIGNBL0B040008
  0
POLYLINE
  8
LAYER_11
 40
0.05
 41
0.05
 66
1
 10
0
 20
0
 30
0
 70
1
  0
VERTEX
  8
LAYER_11
 10
24.7658
 20
277.1733
  0
VERTEX
  8
LAYER_11
 10
24.2794
 20
275.9951
  0
VERTEX
  8
LAYER_11
 10
23.6555
 20
275.9951
  0
VERTEX
  8
LAYER_11
 10
25.245
 20
279.7388
  0
VERTEX
  8
LAYER_11
 10
25.974
 20
279.7388
  0
VERTEX
  8
LAYER_11
 10
27.5708
 20
275.9951
  0
VERTEX
  8
LAYER_11
 10
26.9252
 20
275.9951
  0
VERTEX
  8
LAYER_11
 10
26.426
 20
277.1733
  0
SEQEND
  0
POLYLINE
  8
LAYER_11
 40
0.05
 41
0.05
 66
1
 10
0
 20
0
 30
0
 70
1
  0
VERTEX
  8
LAYER_11
 10
26.3006
 20
277.5498
  0
VERTEX
  8
LAYER_11
 10
25.8417
 20
278.6285
 42
-0.02235225119
  0
VERTEX
  8
LAYER_11
 10
25.5981
 20
279.3113
  0
VERTEX
  8
LAYER_11
 10
25.5843
 20
279.3113
 42
-0.02056301146
  0
VERTEX
  8
LAYER_11
 10
25.3487
 20
278.633
  0
VERTEX
  8
LAYER_11
 10
24.8905
 20
277.5498
  0
SEQEND
  0
ENDBLK
  0
BLOCK
  8
LAYER_11
  2
AIGNBL0B040009
 70
64
 10
0
 20
0
 30
0
  3
AIGNBL0B040009
  0
POLYLINE
  8
LAYER_11
 40
0.05
 41
0.05
 66
1
 10
0
 20
0
 30
0
 70
1
  0
VERTEX
  8
LAYER_11
 10
28.6054
 20
279.6944
 42
-0.03348671288
  0
VERTEX
  8
LAYER_11
 10
29.766
 20
279.7671
 42
-0.09001319063
  0
VERTEX
  8
LAYER_11
 10
30.8142
 20
279.5995
 42
-0.05887140052
  0
VERTEX
  8
LAYER_11
 10
31.0776
 20
279.456
 42
-0.2472250809
  0
VERTEX
  8
LAYER_11
 10
31.4875
 20
278.6726
 42
-0.1502866374
  0
VERTEX
  8
LAYER_11
 10
31.3148
 20
278.076
 42
-0.07035737432
  0
VERTEX
  8
LAYER_11
 10
31.1261
 20
277.873
 42
-0.1212064968
  0
VERTEX
  8
LAYER_11
 10
30.4436
 20
277.5463
 42
-0.06223431678
  0
VERTEX
  8
LAYER_11
 10
29.6957
 20
277.4616
 42
-0.05750856268
  0
VERTEX
  8
LAYER_11
 10
29.21
 20
277.495
  0
VERTEX
  8
LAYER_11
 10
29.21
 20
275.9951
  0
VERTEX
  8
LAYER_11
 10
28.6054
 20
275.9951
  0
SEQEND
  0
POLYLINE
  8
LAYER_11
 40
0.05
 41
0.05
 66
1
 10
0
 20
0
 30
0
 70
1
  0
VERTEX
  8
LAYER_11
 10
29.21
 20
277.8892
 42
0.04897120882
  0
VERTEX
  8
LAYER_11
 10
29.7095
 20
277.8499
 42
0.1136848176
  0
VERTEX
  8
LAYER_11
 10
30.4901
 20
278.0085
 42
0.165294305
  0
VERTEX
  8
LAYER_11
 10
30.8258
 20
278.3548
 42
0.1043843363
  0
VERTEX
  8
LAYER_11
 10
30.8836
 20
278.6502
 42
0.2866024104
  0
VERTEX
  8
LAYER_11
 10
30.5253
 20
279.2348
 42
0.06444057581
  0
VERTEX
  8
LAYER_11
 10
30.2461
 20
279.3355
 42
0.05784205827
  0
VERTEX
  8
LAYER_11
 10
29.7798
 20
279.3833
 42
0.05267604783
  0
VERTEX
  8
LAYER_11
 10
29.21
 20
279.3444
  0
SEQEND
  0
ENDBLK
  0
BLOCK
  8
LAYER_11
  2
AIGNBL0B04000A
 70
64
 10
0
 20
0
 30
0
  3
AIGNBL0B04000A
  0
POLYLINE
  8
LAYER_11
 40
0.05
 41
0.05
 66
1
 10
0
 20
0
 30
0
 70
1
  0
VERTEX
  8
LAYER_11
 10
33.0303
 20
279.4391
 42
-0.303899115
  0
VERTEX
  8
LAYER_11
 10
32.8647
 20
279.1857
 42
-0.115286048
  0
VERTEX
  8
LAYER_11
 10
32.641
 20
279.1387
 42
-0.244529712
  0
VERTEX
  8
LAYER_11
 10
32.313
 20
279.2985
 42
-0.1392467995
  0
VERTEX
  8
LAYER_11
 10
32.273
 20
279.4391
 42
-0.2871718373
  0
VERTEX
  8
LAYER_11
 10
32.4437
 20
279.6972
 42
-0.1181252532
  0
VERTEX
  8
LAYER_11
 10
32.6544
 20
279.7444
 42
-0.2415142475
  0
VERTEX
  8
LAYER_11
 10
32.9873
 20
279.5895
 42
-0.1427449925
  0
SEQEND
  0
POLYLINE
  8
LAYER_11
 40
0.05
 41
0.05
 66
1
 10
0
 20
0
 30
0
 70
1
  0
VERTEX
  8
LAYER_11
 10
32.3491
 20
275.9951
  0
VERTEX
  8
LAYER_11
 10
32.3491
 20
278.6836
  0
VERTEX
  8
LAYER_11
 10
32.96
 20
278.6836
  0
VERTEX
  8
LAYER_11
 10
32.96
 20
275.9951
  0
SEQEND
  0
ENDBLK
  0
BLOCK
  8
LAYER_11
  2
AIGNBL0B04000B
 70
64
 10
0
 20
0
 30
0
  3
AIGNBL0B04000B
  0
POLYLINE
  8
LAYER_11
 40
0.05
 41
0.05
 66
1
 10
0
 20
0
 30
0
 70
1
  0
VERTEX
  8
LAYER_11
 10
34.8203
 20
277.1733
  0
VERTEX
  8
LAYER_11
 10
34.3356
 20
275.9951
  0
VERTEX
  8
LAYER_11
 10
33.7099
 20
275.9951
  0
VERTEX
  8
LAYER_11
 10
35.3002
 20
279.7388
  0
VERTEX
  8
LAYER_11
 10
36.0295
 20
279.7388
  0
VERTEX
  8
LAYER_11
 10
37.6271
 20
275.9951
  0
VERTEX
  8
LAYER_11
 10
36.9804
 20
275.9951
  0
VERTEX
  8
LAYER_11
 10
36.4812
 20
277.1733
  0
SEQEND
  0
POLYLINE
  8
LAYER_11
 40
0.05
 41
0.05
 66
1
 10
0
 20
0
 30
0
 70
1
  0
VERTEX
  8
LAYER_11
 10
36.3558
 20
277.5498
  0
VERTEX
  8
LAYER_11
 10
35.8976
 20
278.6285
 42
-0.02472909577
  0
VERTEX
  8
LAYER_11
 10
35.6551
 20
279.3113
  0
VERTEX
  8
LAYER_11
 10
35.6406
 20
279.3113
 42
-0.01910937631
  0
VERTEX
  8
LAYER_11
 10
35.4046
 20
278.633
  0
VERTEX
  8
LAYER_11
 10
34.9464
 20
277.5498
  0
SEQEND
  0
ENDBLK
  0
BLOCK
  8
LAYER_11
  2
AIGNBL0B030004
 70
64
 10
0
 20
0
 30
0
  3
AIGNBL0B030004
  0
INSERT
  8
LAYER_11
  2
AIGNBL0B040005
 10
0
 20
0
 30
0
  0
INSERT
  8
LAYER_11
  2
AIGNBL0B040006
 10
0
 20
0
 30
0
  0
INSERT
  8
LAYER_11
  2
AIGNBL0B040007
 10
0
 20
0
 30
0
  0
INSERT
  8
LAYER_11
  2
AIGNBL0B040008
 10
0
 20
0
 30
0
  0
INSERT
  8
LAYER_11
  2
AIGNBL0B040009
 10
0
 20
0
 30
0
  0
INSERT
  8
LAYER_11
  2
AIGNBL0B04000A
 10
0
 20
0
 30
0
  0
INSERT
  8
LAYER_11
  2
AIGNBL0B04000B
 10
0
 20
0
 30
0
  0
ENDBLK
  0
BLOCK
  8
LAYER_5
  2
AIGNBL05020003
 70
64
 10
0
 20
0
 30
0
  3
AIGNBL05020003
  0
POLYLINE
  8
LAYER_5
 40
0.0353
 41
0.0353
 66
1
 10
0
 20
0
 30
0
  0
VERTEX
  8
LAYER_5
 10
170.6132
 20
103.2726
  0
VERTEX
  8
LAYER_5
 10
169.8093
 20
100.2726
  0
SEQEND
  0
POLYLINE
  8
LAYER_5
 40
0.0353
 41
0.0353
 66
1
 10
0
 20
0
 30
0
  0
VERTEX
  8
LAYER_5
 10
169.8093
 20
103.2726
  0
VERTEX
  8
LAYER_5
 10
169.8093
 20
100.2726
  0
VERTEX
  8
LAYER_5
 10
169.0055
 20
103.2726
  0
SEQEND
  0
ENDBLK
  0
BLOCK
  8
LAYER_5
  2
AIGNBL05020004
 70
64
 10
0
 20
0
 30
0
  3
AIGNBL05020004
  0
POLYLINE
  8
LAYER_5
 40
0.0353
 41
0.0353
 66
1
 10
0
 20
0
 30
0
  0
VERTEX
  8
LAYER_5
 10
169.0055
 20
111.8476
  0
VERTEX
  8
LAYER_5
 10
169.8093
 20
114.8476
  0
SEQEND
  0
POLYLINE
  8
LAYER_5
 40
0.0353
 41
0.0353
 66
1
 10
0
 20
0
 30
0
  0
VERTEX
  8
LAYER_5
 10
169.8093
 20
111.8476
  0
VERTEX
  8
LAYER_5
 10
169.8093
 20
114.8476
  0
VERTEX
  8
LAYER_5
 10
170.6132
 20
111.8476
  0
SEQEND
  0
ENDBLK
  0
BLOCK
  8
LAYER_5
  2
AIGNBL05020005
 70
64
 10
0
 20
0
 30
0
  3
AIGNBL05020005
  0
POLYLINE
  8
LAYER_5
 40
0.7056
 41
0.7056
 66
1
 10
0
 20
0
 30
0
  0
VERTEX
  8
LAYER_5
 10
157.1527
 20
100.2726
  0
SEQEND
  0
ENDBLK
  0
BLOCK
  8
LAYER_5
  2
AIGNBL05020006
 70
64
 10
0
 20
0
 30
0
  3
AIGNBL05020006
  0
POLYLINE
  8
LAYER_5
 40
0.7056
 41
0.7056
 66
1
 10
0
 20
0
 30
0
  0
VERTEX
  8
LAYER_5
 10
157.1527
 20
114.8476
  0
SEQEND
  0
ENDBLK
  0
BLOCK
  8
LAYER_5
  2
AIGNBL05020007
 70
64
 10
0
 20
0
 30
0
  3
AIGNBL05020007
  0
POLYLINE
  8
LAYER_5
 40
0.7056
 41
0.7056
 66
1
 10
0
 20
0
 30
0
  0
VERTEX
  8
LAYER_5
 10
169.8093
 20
114.8476
  0
SEQEND
  0
ENDBLK
  0
BLOCK
  8
LAYER_5
  2
AIGNBL05020009
 70
64
 10
0
 20
0
 30
0
  3
AIGNBL05020009
  0
POLYLINE
  8
LAYER_5
 40
0.0353
 41
0.0353
 66
1
 10
0
 20
0
 30
0
  0
VERTEX
  8
LAYER_5
 10
144.3277
 20
87.9304
  0
VERTEX
  8
LAYER_5
 10
141.3277
 20
88.7342
  0
SEQEND
  0
POLYLINE
  8
LAYER_5
 40
0.0353
 41
0.0353
 66
1
 10
0
 20
0
 30
0
  0
VERTEX
  8
LAYER_5
 10
144.3277
 20
88.7342
  0
VERTEX
  8
LAYER_5
 10
141.3277
 20
88.7342
  0
VERTEX
  8
LAYER_5
 10
144.3277
 20
89.538
  0
SEQEND
  0
ENDBLK
  0
BLOCK
  8
LAYER_5
  2
AIGNBL0502000A
 70
64
 10
0
 20
0
 30
0
  3
AIGNBL0502000A
  0
POLYLINE
  8
LAYER_5
 40
0.0353
 41
0.0353
 66
1
 10
0
 20
0
 30
0
  0
VERTEX
  8
LAYER_5
 10
152.9027
 20
89.538
  0
VERTEX
  8
LAYER_5
 10
155.9027
 20
88.7342
  0
SEQEND
  0
POLYLINE
  8
LAYER_5
 40
0.0353
 41
0.0353
 66
1
 10
0
 20
0
 30
0
  0
VERTEX
  8
LAYER_5
 10
152.9027
 20
88.7342
  0
VERTEX
  8
LAYER_5
 10
155.9027
 20
88.7342
  0
VERTEX
  8
LAYER_5
 10
152.9027
 20
87.9304
  0
SEQEND
  0
ENDBLK
  0
BLOCK
  8
LAYER_5
  2
AIGNBL0502000B
 70
64
 10
0
 20
0
 30
0
  3
AIGNBL0502000B
  0
POLYLINE
  8
LAYER_5
 40
0.7056
 41
0.7056
 66
1
 10
0
 20
0
 30
0
  0
VERTEX
  8
LAYER_5
 10
141.3277
 20
99.0145
  0
SEQEND
  0
ENDBLK
  0
BLOCK
  8
LAYER_5
  2
AIGNBL0502000C
 70
64
 10
0
 20
0
 30
0
  3
AIGNBL0502000C
  0
POLYLINE
  8
LAYER_5
 40
0.7056
 41
0.7056
 66
1
 10
0
 20
0
 30
0
  0
VERTEX
  8
LAYER_5
 10
155.9027
 20
99.0145
  0
SEQEND
  0
ENDBLK
  0
BLOCK
  8
LAYER_5
  2
AIGNBL0502000D
 70
64
 10
0
 20
0
 30
0
  3
AIGNBL0502000D
  0
POLYLINE
  8
LAYER_5
 40
0.7056
 41
0.7056
 66
1
 10
0
 20
0
 30
0
  0
VERTEX
  8
LAYER_5
 10
155.9027
 20
88.7342
  0
SEQEND
  0
ENDBLK
  0
BLOCK
  8
LAYER_5
  2
AIGNBL0502000F
 70
64
 10
0
 20
0
 30
0
  3
AIGNBL0502000F
  0
POLYLINE
  8
LAYER_5
 40
0.0353
 41
0.0353
 66
1
 10
0
 20
0
 30
0
  0
VERTEX
  8
LAYER_5
 10
31.9802
 20
149.3085
  0
VERTEX
  8
LAYER_5
 10
28.9802
 20
150.1124
  0
SEQEND
  0
POLYLINE
  8
LAYER_5
 40
0.0353
 41
0.0353
 66
1
 10
0
 20
0
 30
0
  0
VERTEX
  8
LAYER_5
 10
31.9802
 20
150.1124
  0
VERTEX
  8
LAYER_5
 10
28.9802
 20
150.1124
  0
VERTEX
  8
LAYER_5
 10
31.9802
 20
150.9162
  0
SEQEND
  0
ENDBLK
  0
BLOCK
  8
LAYER_5
  2
AIGNBL05020010
 70
64
 10
0
 20
0
 30
0
  3
AIGNBL05020010
  0
POLYLINE
  8
LAYER_5
 40
0.0353
 41
0.0353
 66
1
 10
0
 20
0
 30
0
  0
VERTEX
  8
LAYER_5
 10
131.2302
 20
150.9162
  0
VERTEX
  8
LAYER_5
 10
134.2302
 20
150.1124
  0
SEQEND
  0
POLYLINE
  8
LAYER_5
 40
0.0353
 41
0.0353
 66
1
 10
0
 20
0
 30
0
  0
VERTEX
  8
LAYER_5
 10
131.2302
 20
150.1124
  0
VERTEX
  8
LAYER_5
 10
134.2302
 20
150.1124
  0
VERTEX
  8
LAYER_5
 10
131.2302
 20
149.3085
  0
SEQEND
  0
ENDBLK
  0
BLOCK
  8
LAYER_5
  2
AIGNBL05020011
 70
64
 10
0
 20
0
 30
0
  3
AIGNBL05020011
  0
POLYLINE
  8
LAYER_5
 40
0.7056
 41
0.7056
 66
1
 10
0
 20
0
 30
0
  0
VERTEX
  8
LAYER_5
 10
28.9802
 20
160.2083
  0
SEQEND
  0
ENDBLK
  0
BLOCK
  8
LAYER_5
  2
AIGNBL05020012
 70
64
 10
0
 20
0
 30
0
  3
AIGNBL05020012
  0
POLYLINE
  8
LAYER_5
 40
0.7056
 41
0.7056
 66
1
 10
0
 20
0
 30
0
  0
VERTEX
  8
LAYER_5
 10
134.2302
 20
159.2083
  0
SEQEND
  0
ENDBLK
  0
BLOCK
  8
LAYER_5
  2
AIGNBL05020013
 70
64
 10
0
 20
0
 30
0
  3
AIGNBL05020013
  0
POLYLINE
  8
LAYER_5
 40
0.7056
 41
0.7056
 66
1
 10
0
 20
0
 30
0
  0
VERTEX
  8
LAYER_5
 10
134.2302
 20
150.1124
  0
SEQEND
  0
ENDBLK
  0
BLOCK
  8
LAYER_5
  2
AIGNBL05020015
 70
64
 10
0
 20
0
 30
0
  3
AIGNBL05020015
  0
POLYLINE
  8
LAYER_5
 40
0.0353
 41
0.0353
 66
1
 10
0
 20
0
 30
0
  0
VERTEX
  8
LAYER_5
 10
31.9802
 20
80.6516
  0
VERTEX
  8
LAYER_5
 10
28.9802
 20
81.4554
  0
SEQEND
  0
POLYLINE
  8
LAYER_5
 40
0.0353
 41
0.0353
 66
1
 10
0
 20
0
 30
0
  0
VERTEX
  8
LAYER_5
 10
31.9802
 20
81.4554
  0
VERTEX
  8
LAYER_5
 10
28.9802
 20
81.4554
  0
VERTEX
  8
LAYER_5
 10
31.9802
 20
82.2593
  0
SEQEND
  0
ENDBLK
  0
BLOCK
  8
LAYER_5
  2
AIGNBL05020016
 70
64
 10
0
 20
0
 30
0
  3
AIGNBL05020016
  0
POLYLINE
  8
LAYER_5
 40
0.0353
 41
0.0353
 66
1
 10
0
 20
0
 30
0
  0
VERTEX
  8
LAYER_5
 10
118.4802
 20
82.2593
  0
VERTEX
  8
LAYER_5
 10
121.4802
 20
81.4554
  0
SEQEND
  0
POLYLINE
  8
LAYER_5
 40
0.0353
 41
0.0353
 66
1
 10
0
 20
0
 30
0
  0
VERTEX
  8
LAYER_5
 10
118.4802
 20
81.4554
  0
VERTEX
  8
LAYER_5
 10
121.4802
 20
81.4554
  0
VERTEX
  8
LAYER_5
 10
118.4802
 20
80.6516
  0
SEQEND
  0
ENDBLK
  0
BLOCK
  8
LAYER_5
  2
AIGNBL05020017
 70
64
 10
0
 20
0
 30
0
  3
AIGNBL05020017
  0
POLYLINE
  8
LAYER_5
 40
0.7056
 41
0.7056
 66
1
 10
0
 20
0
 30
0
  0
VERTEX
  8
LAYER_5
 10
28.9802
 20
92.6851
  0
SEQEND
  0
ENDBLK
  0
BLOCK
  8
LAYER_5
  2
AIGNBL05020018
 70
64
 10
0
 20
0
 30
0
  3
AIGNBL05020018
  0
POLYLINE
  8
LAYER_5
 40
0.7056
 41
0.7056
 66
1
 10
0
 20
0
 30
0
  0
VERTEX
  8
LAYER_5
 10
121.4802
 20
92.6851
  0
SEQEND
  0
ENDBLK
  0
BLOCK
  8
LAYER_5
  2
AIGNBL05020019
 70
64
 10
0
 20
0
 30
0
  3
AIGNBL05020019
  0
POLYLINE
  8
LAYER_5
 40
0.7056
 41
0.7056
 66
1
 10
0
 20
0
 30
0
  0
VERTEX
  8
LAYER_5
 10
121.4802
 20
81.4554
  0
SEQEND
  0
ENDBLK
  0
BLOCK
  8
LAYER_5
  2
AIGNBL0502001B
 70
64
 10
0
 20
0
 30
0
  3
AIGNBL0502001B
  0
POLYLINE
  8
LAYER_5
 40
0.0353
 41
0.0353
 66
1
 10
0
 20
0
 30
0
  0
VERTEX
  8
LAYER_5
 10
127.0076
 20
119.4351
  0
VERTEX
  8
LAYER_5
 10
127.8115
 20
122.4351
  0
SEQEND
  0
POLYLINE
  8
LAYER_5
 40
0.0353
 41
0.0353
 66
1
 10
0
 20
0
 30
0
  0
VERTEX
  8
LAYER_5
 10
127.8115
 20
119.4351
  0
VERTEX
  8
LAYER_5
 10
127.8115
 20
122.4351
  0
VERTEX
  8
LAYER_5
 10
128.6153
 20
119.4351
  0
SEQEND
  0
ENDBLK
  0
BLOCK
  8
LAYER_5
  2
AIGNBL0502001C
 70
64
 10
0
 20
0
 30
0
  3
AIGNBL0502001C
  0
POLYLINE
  8
LAYER_5
 40
0.0353
 41
0.0353
 66
1
 10
0
 20
0
 30
0
  0
VERTEX
  8
LAYER_5
 10
128.6153
 20
95.6851
  0
VERTEX
  8
LAYER_5
 10
127.8115
 20
92.6851
  0
SEQEND
  0
POLYLINE
  8
LAYER_5
 40
0.0353
 41
0.0353
 66
1
 10
0
 20
0
 30
0
  0
VERTEX
  8
LAYER_5
 10
127.8115
 20
95.6851
  0
VERTEX
  8
LAYER_5
 10
127.8115
 20
92.6851
  0
VERTEX
  8
LAYER_5
 10
127.0076
 20
95.6851
  0
SEQEND
  0
ENDBLK
  0
BLOCK
  8
LAYER_5
  2
AIGNBL0502001D
 70
64
 10
0
 20
0
 30
0
  3
AIGNBL0502001D
  0
POLYLINE
  8
LAYER_5
 40
0.7056
 41
0.7056
 66
1
 10
0
 20
0
 30
0
  0
VERTEX
  8
LAYER_5
 10
121.4802
 20
122.4351
  0
SEQEND
  0
ENDBLK
  0
BLOCK
  8
LAYER_5
  2
AIGNBL0502001E
 70
64
 10
0
 20
0
 30
0
  3
AIGNBL0502001E
  0
POLYLINE
  8
LAYER_5
 40
0.7056
 41
0.7056
 66
1
 10
0
 20
0
 30
0
  0
VERTEX
  8
LAYER_5
 10
121.4802
 20
92.6851
  0
SEQEND
  0
ENDBLK
  0
BLOCK
  8
LAYER_5
  2
AIGNBL0502001F
 70
64
 10
0
 20
0
 30
0
  3
AIGNBL0502001F
  0
POLYLINE
  8
LAYER_5
 40
0.7056
 41
0.7056
 66
1
 10
0
 20
0
 30
0
  0
VERTEX
  8
LAYER_5
 10
127.8115
 20
92.6851
  0
SEQEND
  0
ENDBLK
  0
BLOCK
  8
LAYER_5
  2
AIGNBL05020021
 70
64
 10
0
 20
0
 30
0
  3
AIGNBL05020021
  0
POLYLINE
  8
LAYER_5
 40
0.0353
 41
0.0353
 66
1
 10
0
 20
0
 30
0
  0
VERTEX
  8
LAYER_5
 10
124.4802
 20
86.1213
  0
VERTEX
  8
LAYER_5
 10
121.4802
 20
86.9252
  0
SEQEND
  0
POLYLINE
  8
LAYER_5
 40
0.0353
 41
0.0353
 66
1
 10
0
 20
0
 30
0
  0
VERTEX
  8
LAYER_5
 10
124.4802
 20
86.9252
  0
VERTEX
  8
LAYER_5
 10
121.4802
 20
86.9252
  0
VERTEX
  8
LAYER_5
 10
124.4802
 20
87.729
  0
SEQEND
  0
ENDBLK
  0
BLOCK
  8
LAYER_5
  2
AIGNBL05020022
 70
64
 10
0
 20
0
 30
0
  3
AIGNBL05020022
  0
POLYLINE
  8
LAYER_5
 40
0.0353
 41
0.0353
 66
1
 10
0
 20
0
 30
0
  0
VERTEX
  8
LAYER_5
 10
111.4802
 20
87.729
  0
VERTEX
  8
LAYER_5
 10
114.4802
 20
86.9252
  0
SEQEND
  0
POLYLINE
  8
LAYER_5
 40
0.0353
 41
0.0353
 66
1
 10
0
 20
0
 30
0
  0
VERTEX
  8
LAYER_5
 10
111.4802
 20
86.9252
  0
VERTEX
  8
LAYER_5
 10
114.4802
 20
86.9252
  0
VERTEX
  8
LAYER_5
 10
111.4802
 20
86.1213
  0
SEQEND
  0
ENDBLK
  0
BLOCK
  8
LAYER_5
  2
AIGNBL05020023
 70
64
 10
0
 20
0
 30
0
  3
AIGNBL05020023
  0
POLYLINE
  8
LAYER_5
 40
0.7056
 41
0.7056
 66
1
 10
0
 20
0
 30
0
  0
VERTEX
  8
LAYER_5
 10
121.4802
 20
92.6851
  0
SEQEND
  0
ENDBLK
  0
BLOCK
  8
LAYER_5
  2
AIGNBL05020024
 70
64
 10
0
 20
0
 30
0
  3
AIGNBL05020024
  0
POLYLINE
  8
LAYER_5
 40
0.7056
 41
0.7056
 66
1
 10
0
 20
0
 30
0
  0
VERTEX
  8
LAYER_5
 10
114.4802
 20
93.4351
  0
SEQEND
  0
ENDBLK
  0
BLOCK
  8
LAYER_5
  2
AIGNBL05020025
 70
64
 10
0
 20
0
 30
0
  3
AIGNBL05020025
  0
POLYLINE
  8
LAYER_5
 40
0.7056
 41
0.7056
 66
1
 10
0
 20
0
 30
0
  0
VERTEX
  8
LAYER_5
 10
114.4802
 20
86.9252
  0
SEQEND
  0
ENDBLK
  0
BLOCK
  8
LAYER_5
  2
AIGNBL05020027
 70
64
 10
0
 20
0
 30
0
  3
AIGNBL05020027
  0
POLYLINE
  8
LAYER_5
 40
0.0353
 41
0.0353
 66
1
 10
0
 20
0
 30
0
  0
VERTEX
  8
LAYER_5
 10
17.3515
 20
140.4351
  0
VERTEX
  8
LAYER_5
 10
18.1553
 20
143.4351
  0
SEQEND
  0
POLYLINE
  8
LAYER_5
 40
0.0353
 41
0.0353
 66
1
 10
0
 20
0
 30
0
  0
VERTEX
  8
LAYER_5
 10
18.1553
 20
140.4351
  0
VERTEX
  8
LAYER_5
 10
18.1553
 20
143.4351
  0
VERTEX
  8
LAYER_5
 10
18.9592
 20
140.4351
  0
SEQEND
  0
ENDBLK
  0
BLOCK
  8
LAYER_5
  2
AIGNBL05020028
 70
64
 10
0
 20
0
 30
0
  3
AIGNBL05020028
  0
POLYLINE
  8
LAYER_5
 40
0.0353
 41
0.0353
 66
1
 10
0
 20
0
 30
0
  0
VERTEX
  8
LAYER_5
 10
18.9592
 20
95.6851
  0
VERTEX
  8
LAYER_5
 10
18.1553
 20
92.6851
  0
SEQEND
  0
POLYLINE
  8
LAYER_5
 40
0.0353
 41
0.0353
 66
1
 10
0
 20
0
 30
0
  0
VERTEX
  8
LAYER_5
 10
18.1553
 20
95.6851
  0
VERTEX
  8
LAYER_5
 10
18.1553
 20
92.6851
  0
VERTEX
  8
LAYER_5
 10
17.3515
 20
95.6851
  0
SEQEND
  0
ENDBLK
  0
BLOCK
  8
LAYER_5
  2
AIGNBL05020029
 70
64
 10
0
 20
0
 30
0
  3
AIGNBL05020029
  0
POLYLINE
  8
LAYER_5
 40
0.7056
 41
0.7056
 66
1
 10
0
 20
0
 30
0
  0
VERTEX
  8
LAYER_5
 10
28.9802
 20
143.4351
  0
SEQEND
  0
ENDBLK
  0
BLOCK
  8
LAYER_5
  2
AIGNBL0502002A
 70
64
 10
0
 20
0
 30
0
  3
AIGNBL0502002A
  0
POLYLINE
  8
LAYER_5
 40
0.7056
 41
0.7056
 66
1
 10
0
 20
0
 30
0
  0
VERTEX
  8
LAYER_5
 10
28.9802
 20
92.6851
  0
SEQEND
  0
ENDBLK
  0
BLOCK
  8
LAYER_5
  2
AIGNBL0502002B
 70
64
 10
0
 20
0
 30
0
  3
AIGNBL0502002B
  0
POLYLINE
  8
LAYER_5
 40
0.7056
 41
0.7056
 66
1
 10
0
 20
0
 30
0
  0
VERTEX
  8
LAYER_5
 10
18.1553
 20
92.6851
  0
SEQEND
  0
ENDBLK
  0
BLOCK
  8
LAYER_11
  2
AIGNBL0B020003
 70
64
 10
0
 20
0
 30
0
  3
AIGNBL0B020003
  0
INSERT
  8
LAYER_11
  2
AIGNBL0B030004
 10
0
 20
0
 30
0
  0
ENDBLK
  0
BLOCK
  8
LAYER_15
  2
AIGNBL0F020003
 70
64
 10
0
 20
0
 30
0
  3
AIGNBL0F020003
  0
POLYLINE
  8
LAYER_15
 40
0.7056
 41
0.7056
 66
1
 10
0
 20
0
 30
0
  0
VERTEX
  8
LAYER_15
 10
156.8666
 20
215.1432
  0
SEQEND
  0
ENDBLK
  0
BLOCK
  8
LAYER_15
  2
AIGNBL0F020004
 70
64
 10
0
 20
0
 30
0
  3
AIGNBL0F020004
  0
POLYLINE
  8
LAYER_15
 40
0.7056
 41
0.7056
 66
1
 10
0
 20
0
 30
0
  0
VERTEX
  8
LAYER_15
 10
155.0589
 20
212.0212
  0
SEQEND
  0
ENDBLK
  0
BLOCK
  8
LAYER_15
  2
AIGNBL0F020005
 70
64
 10
0
 20
0
 30
0
  3
AIGNBL0F020005
  0
POLYLINE
  8
LAYER_15
 40
0.7056
 41
0.7056
 66
1
 10
0
 20
0
 30
0
  0
VERTEX
  8
LAYER_15
 10
159.742
 20
212.8452
  0
SEQEND
  0
ENDBLK
  0
BLOCK
  8
LAYER_15
  2
AIGNBL0F020006
 70
64
 10
0
 20
0
 30
0
  3
AIGNBL0F020006
  0
POLYLINE
  8
LAYER_15
 40
0.7056
 41
0.7056
 66
1
 10
0
 20
0
 30
0
  0
VERTEX
  8
LAYER_15
 10
151.1629
 20
194.4472
  0
SEQEND
  0
ENDBLK
  0
BLOCK
  8
LAYER_15
  2
AIGNBL0F020007
 70
64
 10
0
 20
0
 30
0
  3
AIGNBL0F020007
  0
POLYLINE
  8
LAYER_15
 40
0.7056
 41
0.7056
 66
1
 10
0
 20
0
 30
0
  0
VERTEX
  8
LAYER_15
 10
155.0589
 20
191.7212
  0
SEQEND
  0
ENDBLK
  0
BLOCK
  8
LAYER_15
  2
AIGNBL0F020009
 70
64
 10
0
 20
0
 30
0
  3
AIGNBL0F020009
  0
POLYLINE
  8
LAYER_15
 40
0.7056
 41
0.7056
 66
1
 10
0
 20
0
 30
0
  0
VERTEX
  8
LAYER_15
 10
158.9354
 20
187.9919
  0
SEQEND
  0
ENDBLK
  0
BLOCK
  8
LAYER_15
  2
AIGNBL0F02000A
 70
64
 10
0
 20
0
 30
0
  3
AIGNBL0F02000A
  0
POLYLINE
  8
LAYER_15
 40
0.7056
 41
0.7056
 66
1
 10
0
 20
0
 30
0
  0
VERTEX
  8
LAYER_15
 10
155.0589
 20
212.0212
  0
SEQEND
  0
ENDBLK
  0
BLOCK
  8
LAYER_15
  2
AIGNBL0F02000B
 70
64
 10
0
 20
0
 30
0
  3
AIGNBL0F02000B
  0
POLYLINE
  8
LAYER_15
 40
0.7056
 41
0.7056
 66
1
 10
0
 20
0
 30
0
  0
VERTEX
  8
LAYER_15
 10
151.1629
 20
209.2952
  0
SEQEND
  0
ENDBLK
  0
BLOCK
  8
LAYER_15
  2
AIGNBL0F02000C
 70
64
 10
0
 20
0
 30
0
  3
AIGNBL0F02000C
  0
POLYLINE
  8
LAYER_15
 40
0.7056
 41
0.7056
 66
1
 10
0
 20
0
 30
0
  0
VERTEX
  8
LAYER_15
 10
159.742
 20
190.8972
  0
SEQEND
  0
ENDBLK
  0
BLOCK
  8
LAYER_15
  2
AIGNBL0F02000D
 70
64
 10
0
 20
0
 30
0
  3
AIGNBL0F02000D
  0
POLYLINE
  8
LAYER_15
 40
0.7056
 41
0.7056
 66
1
 10
0
 20
0
 30
0
  0
VERTEX
  8
LAYER_15
 10
155.0589
 20
191.7212
  0
SEQEND
  0
ENDBLK
  0
BLOCK
  8
LAYER_5
  2
AIGNBL05010002
 70
64
 10
0
 20
0
 30
0
  3
AIGNBL05010002
  0
POLYLINE
  8
LAYER_5
 40
0.0353
 41
0.0353
 66
1
 10
0
 20
0
 30
0
  0
VERTEX
  8
LAYER_5
 10
159.1527
 20
100.2726
  0
VERTEX
  8
LAYER_5
 10
170.8093
 20
100.2726
  0
SEQEND
  0
POLYLINE
  8
LAYER_5
 40
0.0353
 41
0.0353
 66
1
 10
0
 20
0
 30
0
  0
VERTEX
  8
LAYER_5
 10
159.1527
 20
114.8476
  0
VERTEX
  8
LAYER_5
 10
170.8093
 20
114.8476
  0
SEQEND
  0
POLYLINE
  8
LAYER_5
 40
0.0353
 41
0.0353
 66
1
 10
0
 20
0
 30
0
  0
VERTEX
  8
LAYER_5
 10
169.8093
 20
103.2726
  0
VERTEX
  8
LAYER_5
 10
169.8093
 20
111.8476
  0
SEQEND
  0
INSERT
  8
LAYER_5
  2
AIGNBL05020003
 10
0
 20
0
 30
0
  0
INSERT
  8
LAYER_5
  2
AIGNBL05020004
 10
0
 20
0
 30
0
  0
INSERT
  8
LAYER_5
  2
AIGNBL05020005
 10
0
 20
0
 30
0
  0
INSERT
  8
LAYER_5
  2
AIGNBL05020006
 10
0
 20
0
 30
0
  0
INSERT
  8
LAYER_5
  2
AIGNBL05020007
 10
0
 20
0
 30
0
  0
ENDBLK
  0
BLOCK
  8
LAYER_5
  2
AIGNBL05010008
 70
64
 10
0
 20
0
 30
0
  3
AIGNBL05010008
  0
POLYLINE
  8
LAYER_5
 40
0.0353
 41
0.0353
 66
1
 10
0
 20
0
 30
0
  0
VERTEX
  8
LAYER_5
 10
141.3277
 20
97.0145
  0
VERTEX
  8
LAYER_5
 10
141.3277
 20
87.7342
  0
SEQEND
  0
POLYLINE
  8
LAYER_5
 40
0.0353
 41
0.0353
 66
1
 10
0
 20
0
 30
0
  0
VERTEX
  8
LAYER_5
 10
155.9027
 20
97.0145
  0
VERTEX
  8
LAYER_5
 10
155.9027
 20
87.7342
  0
SEQEND
  0
POLYLINE
  8
LAYER_5
 40
0.0353
 41
0.0353
 66
1
 10
0
 20
0
 30
0
  0
VERTEX
  8
LAYER_5
 10
144.3277
 20
88.7342
  0
VERTEX
  8
LAYER_5
 10
152.9027
 20
88.7342
  0
SEQEND
  0
INSERT
  8
LAYER_5
  2
AIGNBL05020009
 10
0
 20
0
 30
0
  0
INSERT
  8
LAYER_5
  2
AIGNBL0502000A
 10
0
 20
0
 30
0
  0
INSERT
  8
LAYER_5
  2
AIGNBL0502000B
 10
0
 20
0
 30
0
  0
INSERT
  8
LAYER_5
  2
AIGNBL0502000C
 10
0
 20
0
 30
0
  0
INSERT
  8
LAYER_5
  2
AIGNBL0502000D
 10
0
 20
0
 30
0
  0
ENDBLK
  0
BLOCK
  8
LAYER_5
  2
AIGNBL0501000E
 70
64
 10
0
 20
0
 30
0
  3
AIGNBL0501000E
  0
POLYLINE
  8
LAYER_5
 40
0.0353
 41
0.0353
 66
1
 10
0
 20
0
 30
0
  0
VERTEX
  8
LAYER_5
 10
28.9802
 20
158.2083
  0
VERTEX
  8
LAYER_5
 10
28.9802
 20
149.1124
  0
SEQEND
  0
POLYLINE
  8
LAYER_5
 40
0.0353
 41
0.0353
 66
1
 10
0
 20
0
 30
0
  0
VERTEX
  8
LAYER_5
 10
134.2302
 20
157.2083
  0
VERTEX
  8
LAYER_5
 10
134.2302
 20
149.1124
  0
SEQEND
  0
POLYLINE
  8
LAYER_5
 40
0.0353
 41
0.0353
 66
1
 10
0
 20
0
 30
0
  0
VERTEX
  8
LAYER_5
 10
31.9802
 20
150.1124
  0
VERTEX
  8
LAYER_5
 10
131.2302
 20
150.1124
  0
SEQEND
  0
INSERT
  8
LAYER_5
  2
AIGNBL0502000F
 10
0
 20
0
 30
0
  0
INSERT
  8
LAYER_5
  2
AIGNBL05020010
 10
0
 20
0
 30
0
  0
TEXT
  8
LAYER_5
 10
87.9155
 20
151.6676
 11
87.9155
 21
151.6676
 40
5.5518
 41
0.5
 72
1
  1
最大415
  0
INSERT
  8
LAYER_5
  2
AIGNBL05020011
 10
0
 20
0
 30
0
  0
INSERT
  8
LAYER_5
  2
AIGNBL05020012
 10
0
 20
0
 30
0
  0
INSERT
  8
LAYER_5
  2
AIGNBL05020013
 10
0
 20
0
 30
0
  0
ENDBLK
  0
BLOCK
  8
LAYER_5
  2
AIGNBL05010014
 70
64
 10
0
 20
0
 30
0
  3
AIGNBL05010014
  0
POLYLINE
  8
LAYER_5
 40
0.0353
 41
0.0353
 66
1
 10
0
 20
0
 30
0
  0
VERTEX
  8
LAYER_5
 10
28.9802
 20
90.6851
  0
VERTEX
  8
LAYER_5
 10
28.9802
 20
80.4554
  0
SEQEND
  0
POLYLINE
  8
LAYER_5
 40
0.0353
 41
0.0353
 66
1
 10
0
 20
0
 30
0
  0
VERTEX
  8
LAYER_5
 10
121.4802
 20
90.6851
  0
VERTEX
  8
LAYER_5
 10
121.4802
 20
80.4554
  0
SEQEND
  0
POLYLINE
  8
LAYER_5
 40
0.0353
 41
0.0353
 66
1
 10
0
 20
0
 30
0
  0
VERTEX
  8
LAYER_5
 10
31.9802
 20
81.4554
  0
VERTEX
  8
LAYER_5
 10
118.4802
 20
81.4554
  0
SEQEND
  0
INSERT
  8
LAYER_5
  2
AIGNBL05020015
 10
0
 20
0
 30
0
  0
INSERT
  8
LAYER_5
  2
AIGNBL05020016
 10
0
 20
0
 30
0
  0
TEXT
  8
LAYER_5
 10
77.1249
 20
83.0107
 11
77.1249
 21
83.0107
 40
5.5518
 41
0.5
 72
1
  1
最大370 最小110mm
  0
INSERT
  8
LAYER_5
  2
AIGNBL05020017
 10
0
 20
0
 30
0
  0
INSERT
  8
LAYER_5
  2
AIGNBL05020018
 10
0
 20
0
 30
0
  0
INSERT
  8
LAYER_5
  2
AIGNBL05020019
 10
0
 20
0
 30
0
  0
ENDBLK
  0
BLOCK
  8
LAYER_5
  2
AIGNBL0501001A
 70
64
 10
0
 20
0
 30
0
  3
AIGNBL0501001A
  0
POLYLINE
  8
LAYER_5
 40
0.0353
 41
0.0353
 66
1
 10
0
 20
0
 30
0
  0
VERTEX
  8
LAYER_5
 10
123.4802
 20
122.4351
  0
VERTEX
  8
LAYER_5
 10
128.8115
 20
122.4351
  0
SEQEND
  0
POLYLINE
  8
LAYER_5
 40
0.0353
 41
0.0353
 66
1
 10
0
 20
0
 30
0
  0
VERTEX
  8
LAYER_5
 10
123.4802
 20
92.6851
  0
VERTEX
  8
LAYER_5
 10
128.8115
 20
92.6851
  0
SEQEND
  0
POLYLINE
  8
LAYER_5
 40
0.0353
 41
0.0353
 66
1
 10
0
 20
0
 30
0
  0
VERTEX
  8
LAYER_5
 10
127.8115
 20
119.4351
  0
VERTEX
  8
LAYER_5
 10
127.8115
 20
95.6851
  0
SEQEND
  0
INSERT
  8
LAYER_5
  2
AIGNBL0502001B
 10
0
 20
0
 30
0
  0
INSERT
  8
LAYER_5
  2
AIGNBL0502001C
 10
0
 20
0
 30
0
  0
TEXT
  8
LAYER_5
 10
126.2562
 20
113.6523
 11
126.2562
 21
113.6523
 40
5.5518
 41
0.5
 50
89.99999999
 72
1
  1
□100
  0
INSERT
  8
LAYER_5
  2
AIGNBL0502001D
 10
0
 20
0
 30
0
  0
INSERT
  8
LAYER_5
  2
AIGNBL0502001E
 10
0
 20
0
 30
0
  0
INSERT
  8
LAYER_5
  2
AIGNBL0502001F
 10
0
 20
0
 30
0
  0
ENDBLK
  0
BLOCK
  8
LAYER_5
  2
AIGNBL05010020
 70
64
 10
0
 20
0
 30
0
  3
AIGNBL05010020
  0
POLYLINE
  8
LAYER_5
 40
0.0353
 41
0.0353
 66
1
 10
0
 20
0
 30
0
  0
VERTEX
  8
LAYER_5
 10
121.4802
 20
90.6851
  0
VERTEX
  8
LAYER_5
 10
121.4802
 20
85.9252
  0
SEQEND
  0
POLYLINE
  8
LAYER_5
 40
0.0353
 41
0.0353
 66
1
 10
0
 20
0
 30
0
  0
VERTEX
  8
LAYER_5
 10
114.4802
 20
91.4351
  0
VERTEX
  8
LAYER_5
 10
114.4802
 20
85.9252
  0
SEQEND
  0
POLYLINE
  8
LAYER_5
 40
0.0353
 41
0.0353
 66
1
 10
0
 20
0
 30
0
  0
VERTEX
  8
LAYER_5
 10
124.4802
 20
86.9252
  0
VERTEX
  8
LAYER_5
 10
127.4802
 20
86.9252
  0
SEQEND
  0
POLYLINE
  8
LAYER_5
 40
0.0353
 41
0.0353
 66
1
 10
0
 20
0
 30
0
  0
VERTEX
  8
LAYER_5
 10
111.4802
 20
86.9252
  0
VERTEX
  8
LAYER_5
 10
100.6469
 20
86.9252
  0
SEQEND
  0
POLYLINE
  8
LAYER_5
 40
0.0353
 41
0.0353
 66
1
 10
0
 20
0
 30
0
  0
VERTEX
  8
LAYER_5
 10
121.4802
 20
86.9252
  0
VERTEX
  8
LAYER_5
 10
114.4802
 20
86.9252
  0
SEQEND
  0
INSERT
  8
LAYER_5
  2
AIGNBL05020021
 10
0
 20
0
 30
0
  0
INSERT
  8
LAYER_5
  2
AIGNBL05020022
 10
0
 20
0
 30
0
  0
INSERT
  8
LAYER_5
  2
AIGNBL05020023
 10
0
 20
0
 30
0
  0
INSERT
  8
LAYER_5
  2
AIGNBL05020024
 10
0
 20
0
 30
0
  0
INSERT
  8
LAYER_5
  2
AIGNBL05020025
 10
0
 20
0
 30
0
  0
ENDBLK
  0
BLOCK
  8
LAYER_5
  2
AIGNBL05010026
 70
64
 10
0
 20
0
 30
0
  3
AIGNBL05010026
  0
POLYLINE
  8
LAYER_5
 40
0.0353
 41
0.0353
 66
1
 10
0
 20
0
 30
0
  0
VERTEX
  8
LAYER_5
 10
26.9802
 20
143.4351
  0
VERTEX
  8
LAYER_5
 10
17.1553
 20
143.4351
  0
SEQEND
  0
POLYLINE
  8
LAYER_5
 40
0.0353
 41
0.0353
 66
1
 10
0
 20
0
 30
0
  0
VERTEX
  8
LAYER_5
 10
26.9802
 20
92.6851
  0
VERTEX
  8
LAYER_5
 10
17.1553
 20
92.6851
  0
SEQEND
  0
POLYLINE
  8
LAYER_5
 40
0.0353
 41
0.0353
 66
1
 10
0
 20
0
 30
0
  0
VERTEX
  8
LAYER_5
 10
18.1553
 20
140.4351
  0
VERTEX
  8
LAYER_5
 10
18.1553
 20
95.6851
  0
SEQEND
  0
INSERT
  8
LAYER_5
  2
AIGNBL05020027
 10
0
 20
0
 30
0
  0
INSERT
  8
LAYER_5
  2
AIGNBL05020028
 10
0
 20
0
 30
0
  0
TEXT
  8
LAYER_5
 10
16.6001
 20
124.168
 11
16.6001
 21
124.168
 40
5.5518
 41
0.5
 50
89.99999999
 72
1
  1
□203
  0
INSERT
  8
LAYER_5
  2
AIGNBL05020029
 10
0
 20
0
 30
0
  0
INSERT
  8
LAYER_5
  2
AIGNBL0502002A
 10
0
 20
0
 30
0
  0
INSERT
  8
LAYER_5
  2
AIGNBL0502002B
 10
0
 20
0
 30
0
  0
ENDBLK
  0
BLOCK
  8
LAYER_11
  2
AIGNBL0B010002
 70
64
 10
0
 20
0
 30
0
  3
AIGNBL0B010002
  0
INSERT
  8
LAYER_11
  2
AIGNBL0B020003
 10
0
 20
0
 30
0
  0
ENDBLK
  0
BLOCK
  8
LAYER_15
  2
AIGNBL0F010002
 70
64
 10
0
 20
0
 30
0
  3
AIGNBL0F010002
  0
POLYLINE
  8
LAYER_15
 40
0.0353
 41
0.0353
 66
1
 10
0
 20
0
 30
0
  0
VERTEX
  8
LAYER_15
 10
159.9533
 20
213.2984
  0
VERTEX
  8
LAYER_15
 10
160.7527
 20
215.0126
  0
SEQEND
  0
POLYLINE
  8
LAYER_15
 40
0.0353
 41
0.0353
 66
1
 10
0
 20
0
 30
0
  0
VERTEX
  8
LAYER_15
 10
155.0589
 20
212.5212
  0
VERTEX
  8
LAYER_15
 10
155.0589
 20
216.2749
  0
SEQEND
  0
POLYLINE
  8
LAYER_15
 40
0.0353
 41
0.0353
 66
1
 10
0
 20
0
 30
0
  0
VERTEX
  8
LAYER_15
 10
169.2901
 20
208.6366
  0
VERTEX
  8
LAYER_15
 10
161.6489
 20
213.3918
 42
0.03009150346
  0
VERTEX
  8
LAYER_15
 10
160.3301
 20
214.1063
  0
SEQEND
  0
POLYLINE
  8
LAYER_15
 40
0.0353
 41
0.0353
 66
1
 10
0
 20
0
 30
0
  0
VERTEX
  8
LAYER_15
 10
158.9349
 20
214.6574
 42
0.04895301549
  0
VERTEX
  8
LAYER_15
 10
156.5562
 20
215.1847
  0
SEQEND
  0
POLYLINE
  8
LAYER_15
 40
0.05
 41
0.05
 66
1
 10
0
 20
0
 30
0
 70
1
  0
VERTEX
  8
LAYER_15
 10
159.0268
 20
214.8899
  0
VERTEX
  8
LAYER_15
 10
158.8431
 20
214.4248
  0
VERTEX
  8
LAYER_15
 10
160.3301
 20
214.1063
  0
SEQEND
  0
POLYLINE
  8
LAYER_15
 40
0.05
 41
0.05
 66
1
 10
0
 20
0
 30
0
 70
1
  0
VERTEX
  8
LAYER_15
 10
156.5412
 20
214.9352
  0
VERTEX
  8
LAYER_15
 10
156.5712
 20
215.4343
  0
VERTEX
  8
LAYER_15
 10
155.0589
 20
215.2749
  0
SEQEND
  0
TEXT
  8
LAYER_15
 10
168.1076
 20
210.7478
 11
168.1076
 21
210.7478
 40
5.5518
 41
0.5
 50
328.1052747
 72
1
  1
25%%d
  0
INSERT
  8
LAYER_15
  2
AIGNBL0F020003
 10
0
 20
0
 30
0
  0
INSERT
  8
LAYER_15
  2
AIGNBL0F020004
 10
0
 20
0
 30
0
  0
INSERT
  8
LAYER_15
  2
AIGNBL0F020005
 10
0
 20
0
 30
0
  0
INSERT
  8
LAYER_15
  2
AIGNBL0F020006
 10
0
 20
0
 30
0
  0
INSERT
  8
LAYER_15
  2
AIGNBL0F020007
 10
0
 20
0
 30
0
  0
ENDBLK
  0
BLOCK
  8
LAYER_15
  2
AIGNBL0F010008
 70
64
 10
0
 20
0
 30
0
  3
AIGNBL0F010008
  0
POLYLINE
  8
LAYER_15
 40
0.0353
 41
0.0353
 66
1
 10
0
 20
0
 30
0
  0
VERTEX
  8
LAYER_15
 10
155.0589
 20
191.2212
  0
VERTEX
  8
LAYER_15
 10
155.0589
 20
186.4241
  0
SEQEND
  0
POLYLINE
  8
LAYER_15
 40
0.0353
 41
0.0353
 66
1
 10
0
 20
0
 30
0
  0
VERTEX
  8
LAYER_15
 10
159.9533
 20
190.444
  0
VERTEX
  8
LAYER_15
 10
161.1937
 20
187.7841
  0
SEQEND
  0
POLYLINE
  8
LAYER_15
 40
0.0353
 41
0.0353
 66
1
 10
0
 20
0
 30
0
  0
VERTEX
  8
LAYER_15
 10
144.6167
 20
188.5046
  0
VERTEX
  8
LAYER_15
 10
153.5612
 20
187.5073
 42
0.02776642434
  0
VERTEX
  8
LAYER_15
 10
155.0589
 20
187.4241
  0
SEQEND
  0
POLYLINE
  8
LAYER_15
 40
0.0353
 41
0.0353
 66
1
 10
0
 20
0
 30
0
  0
VERTEX
  8
LAYER_15
 10
156.5566
 20
187.5073
 42
0.05361640559
  0
VERTEX
  8
LAYER_15
 10
159.3785
 20
188.1329
  0
SEQEND
  0
POLYLINE
  8
LAYER_15
 40
0.05
 41
0.05
 66
1
 10
0
 20
0
 30
0
 70
1
  0
VERTEX
  8
LAYER_15
 10
156.5705
 20
187.2577
  0
VERTEX
  8
LAYER_15
 10
156.5427
 20
187.7569
  0
VERTEX
  8
LAYER_15
 10
155.0589
 20
187.4241
  0
SEQEND
  0
POLYLINE
  8
LAYER_15
 40
0.05
 41
0.05
 66
1
 10
0
 20
0
 30
0
 70
1
  0
VERTEX
  8
LAYER_15
 10
159.2856
 20
188.365
  0
VERTEX
  8
LAYER_15
 10
159.4714
 20
187.9008
  0
VERTEX
  8
LAYER_15
 10
160.771
 20
188.6904
  0
SEQEND
  0
TEXT
  8
LAYER_15
 10
151.5727
 20
188.9006
 11
151.5727
 21
188.9006
 40
5.5518
 41
0.5
 50
353.6379796
 72
1
  1
25%%d
  0
INSERT
  8
LAYER_15
  2
AIGNBL0F020009
 10
0
 20
0
 30
0
  0
INSERT
  8
LAYER_15
  2
AIGNBL0F02000A
 10
0
 20
0
 30
0
  0
INSERT
  8
LAYER_15
  2
AIGNBL0F02000B
 10
0
 20
0
 30
0
  0
INSERT
  8
LAYER_15
  2
AIGNBL0F02000C
 10
0
 20
0
 30
0
  0
INSERT
  8
LAYER_15
  2
AIGNBL0F02000D
 10
0
 20
0
 30
0
  0
ENDBLK
  0
ENDSEC
  0
SECTION
  2
ENTITIES
  0
CIRCLE
  8
LAYER_4
 10
148.6152
 20
107.5601
 40
5
  0
POLYLINE
  8
LAYER_4
 40
0.0353
 41
0.0353
 66
1
 10
0
 20
0
 30
0
 70
1
  0
VERTEX
  8
LAYER_4
 10
115.2302
 20
92.6851
  0
VERTEX
  8
LAYER_4
 10
121.4802
 20
92.6851
  0
VERTEX
  8
LAYER_4
 10
121.4802
 20
122.4351
  0
VERTEX
  8
LAYER_4
 10
115.2302
 20
122.4351
 42
0.414210026
  0
VERTEX
  8
LAYER_4
 10
114.4802
 20
121.6851
  0
VERTEX
  8
LAYER_4
 10
114.4802
 20
93.4351
 42
0.4141864467
  0
SEQEND
  0
POLYLINE
  8
LAYER_4
 40
0.0353
 41
0.0353
 66
1
 10
0
 20
0
 30
0
  0
VERTEX
  8
LAYER_4
 10
113.2302
 20
110.2476
  0
VERTEX
  8
LAYER_4
 10
106.9802
 20
110.2476
  0
SEQEND
  0
POLYLINE
  8
LAYER_4
 40
0.0353
 41
0.0353
 66
1
 10
0
 20
0
 30
0
  0
VERTEX
  8
LAYER_4
 10
113.2302
 20
109.9976
  0
VERTEX
  8
LAYER_4
 10
106.9802
 20
109.9976
  0
SEQEND
  0
POLYLINE
  8
LAYER_4
 40
0.0353
 41
0.0353
 66
1
 10
0
 20
0
 30
0
  0
VERTEX
  8
LAYER_4
 10
113.2302
 20
103.8726
  0
VERTEX
  8
LAYER_4
 10
106.9802
 20
103.8726
  0
SEQEND
  0
POLYLINE
  8
LAYER_4
 40
0.0353
 41
0.0353
 66
1
 10
0
 20
0
 30
0
  0
VERTEX
  8
LAYER_4
 10
113.2302
 20
104.1226
  0
VERTEX
  8
LAYER_4
 10
106.9802
 20
104.1226
  0
SEQEND
  0
POLYLINE
  8
LAYER_4
 40
0.0353
 41
0.0353
 66
1
 10
0
 20
0
 30
0
  0
VERTEX
  8
LAYER_4
 10
113.2302
 20
103.6287
  0
VERTEX
  8
LAYER_4
 10
114.4802
 20
103.6287
  0
SEQEND
  0
POLYLINE
  8
LAYER_4
 40
0.0353
 41
0.0353
 66
1
 10
0
 20
0
 30
0
  0
VERTEX
  8
LAYER_4
 10
113.2302
 20
100.3787
  0
VERTEX
  8
LAYER_4
 10
114.4802
 20
100.3787
  0
SEQEND
  0
POLYLINE
  8
LAYER_4
 40
0.0353
 41
0.0353
 66
1
 10
0
 20
0
 30
0
  0
VERTEX
  8
LAYER_4
 10
113.2302
 20
113.7415
  0
VERTEX
  8
LAYER_4
 10
114.4802
 20
113.7415
  0
SEQEND
  0
POLYLINE
  8
LAYER_4
 40
0.0353
 41
0.0353
 66
1
 10
0
 20
0
 30
0
  0
VERTEX
  8
LAYER_4
 10
68.2302
 20
114.3101
  0
VERTEX
  8
LAYER_4
 10
68.2302
 20
115.1851
  0
VERTEX
  8
LAYER_4
 10
74.4802
 20
115.1851
  0
VERTEX
  8
LAYER_4
 10
74.4802
 20
108.8101
  0
SEQEND
  0
POLYLINE
  8
LAYER_4
 40
0.0353
 41
0.0353
 66
1
 10
0
 20
0
 30
0
  0
VERTEX
  8
LAYER_4
 10
74.4802
 20
109.9351
  0
VERTEX
  8
LAYER_4
 10
68.2302
 20
109.9351
  0
SEQEND
  0
POLYLINE
  8
LAYER_4
 40
0.0353
 41
0.0353
 66
1
 10
0
 20
0
 30
0
  0
VERTEX
  8
LAYER_4
 10
74.4802
 20
109.6851
  0
VERTEX
  8
LAYER_4
 10
68.2302
 20
109.6851
  0
SEQEND
  0
POLYLINE
  8
LAYER_4
 40
0.0353
 41
0.0353
 66
1
 10
0
 20
0
 30
0
  0
VERTEX
  8
LAYER_4
 10
68.2302
 20
110.8101
  0
VERTEX
  8
LAYER_4
 10
68.2302
 20
104.4351
  0
VERTEX
  8
LAYER_4
 10
74.4802
 20
104.4351
  0
VERTEX
  8
LAYER_4
 10
74.4802
 20
105.3101
  0
SEQEND
  0
POLYLINE
  8
LAYER_4
 40
0.0353
 41
0.0353
 66
1
 10
0
 20
0
 30
0
  0
VERTEX
  8
LAYER_4
 10
48.2302
 20
115.4351
  0
VERTEX
  8
LAYER_4
 10
41.9802
 20
115.4351
  0
SEQEND
  0
POLYLINE
  8
LAYER_4
 40
0.0353
 41
0.0353
 66
1
 10
0
 20
0
 30
0
  0
VERTEX
  8
LAYER_4
 10
48.2302
 20
115.1851
  0
VERTEX
  8
LAYER_4
 10
41.9802
 20
115.1851
  0
SEQEND
  0
POLYLINE
  8
LAYER_4
 40
0.0353
 41
0.0353
 66
1
 10
0
 20
0
 30
0
  0
VERTEX
  8
LAYER_4
 10
30.3552
 20
143.4351
  0
VERTEX
  8
LAYER_4
 10
30.3552
 20
92.6851
  0
SEQEND
  0
POLYLINE
  8
LAYER_4
 40
0.0353
 41
0.0353
 66
1
 10
0
 20
0
 30
0
 70
1
  0
VERTEX
  8
LAYER_4
 10
34.9802
 20
92.6851
  0
VERTEX
  8
LAYER_4
 10
28.9802
 20
92.6851
  0
VERTEX
  8
LAYER_4
 10
28.9802
 20
143.4351
  0
VERTEX
  8
LAYER_4
 10
34.9802
 20
143.4351
 42
-0.4142406811
  0
VERTEX
  8
LAYER_4
 10
35.7302
 20
142.6851
  0
VERTEX
  8
LAYER_4
 10
35.7302
 20
93.4351
 42
-0.4142170964
  0
SEQEND
  0
POLYLINE
  8
LAYER_4
 40
0.0353
 41
0.0353
 66
1
 10
0
 20
0
 30
0
  0
VERTEX
  8
LAYER_4
 10
38.5406
 20
120.6446
 42
0.3153986253
  0
VERTEX
  8
LAYER_4
 10
36.7302
 20
118.0601
 42
0.4142061668
  0
VERTEX
  8
LAYER_4
 10
39.4802
 20
115.3101
 42
0.4142145266
  0
VERTEX
  8
LAYER_4
 10
42.2302
 20
118.0601
 42
0.3154059985
  0
VERTEX
  8
LAYER_4
 10
40.4198
 20
120.6446
  0
SEQEND
  0
POLYLINE
  8
LAYER_4
 40
0.0353
 41
0.0353
 66
1
 10
0
 20
0
 30
0
  0
VERTEX
  8
LAYER_4
 10
35.7302
 20
116.4351
  0
VERTEX
  8
LAYER_4
 10
37.2617
 20
116.4351
  0
SEQEND
  0
POLYLINE
  8
LAYER_4
 40
0.0353
 41
0.0353
 66
1
 10
0
 20
0
 30
0
  0
VERTEX
  8
LAYER_4
 10
35.7302
 20
119.6851
  0
VERTEX
  8
LAYER_4
 10
37.2617
 20
119.6851
  0
SEQEND
  0
CIRCLE
  8
LAYER_4
 10
39.4802
 20
118.0601
 40
1.125
  0
POLYLINE
  8
LAYER_4
 40
0.0353
 41
0.0353
 66
1
 10
0
 20
0
 30
0
  0
VERTEX
  8
LAYER_4
 10
38.2618
 20
121.6851
  0
VERTEX
  8
LAYER_4
 10
40.6986
 20
121.6851
  0
SEQEND
  0
POLYLINE
  8
LAYER_4
 40
0.0353
 41
0.0353
 66
1
 10
0
 20
0
 30
0
  0
VERTEX
  8
LAYER_4
 10
39.9953
 20
119.0603
  0
VERTEX
  8
LAYER_4
 10
40.6986
 20
121.6851
  0
VERTEX
  8
LAYER_4
 10
40.1213
 20
122.6851
  0
VERTEX
  8
LAYER_4
 10
38.8392
 20
122.6851
  0
VERTEX
  8
LAYER_4
 10
38.2618
 20
121.6851
  0
VERTEX
  8
LAYER_4
 10
38.9652
 20
119.0603
  0
SEQEND
  0
POLYLINE
  8
LAYER_4
 40
0.0353
 41
0.0353
 66
1
 10
0
 20
0
 30
0
  0
VERTEX
  8
LAYER_4
 10
48.2302
 20
114.3101
 42
0.1804253946
  0
VERTEX
  8
LAYER_4
 10
47.5775
 20
112.5601
 42
0.1804239697
  0
VERTEX
  8
LAYER_4
 10
48.2302
 20
110.8101
  0
SEQEND
  0
POLYLINE
  8
LAYER_4
 40
0.0353
 41
0.0353
 66
1
 10
0
 20
0
 30
0
  0
VERTEX
  8
LAYER_4
 10
106.9802
 20
108.8101
  0
VERTEX
  8
LAYER_4
 10
74.4802
 20
108.8101
 42
0.1804253946
  0
VERTEX
  8
LAYER_4
 10
73.8275
 20
107.0601
 42
0.1804239697
  0
VERTEX
  8
LAYER_4
 10
74.4802
 20
105.3101
  0
VERTEX
  8
LAYER_4
 10
106.9802
 20
105.3101
  0
SEQEND
  0
POLYLINE
  8
LAYER_4
 40
0.0353
 41
0.0353
 66
1
 10
0
 20
0
 30
0
  0
VERTEX
  8
LAYER_4
 10
41.9802
 20
119.2058
  0
VERTEX
  8
LAYER_4
 10
41.9802
 20
120.6851
  0
VERTEX
  8
LAYER_4
 10
48.2302
 20
120.6851
  0
VERTEX
  8
LAYER_4
 10
48.2302
 20
114.3101
  0
VERTEX
  8
LAYER_4
 10
68.2302
 20
114.3101
 42
-0.1804303599
  0
VERTEX
  8
LAYER_4
 10
68.883
 20
112.5601
 42
-0.180428935
  0
VERTEX
  8
LAYER_4
 10
68.2302
 20
110.8101
  0
VERTEX
  8
LAYER_4
 10
48.2302
 20
110.8101
  0
VERTEX
  8
LAYER_4
 10
48.2302
 20
109.9351
  0
VERTEX
  8
LAYER_4
 10
41.9802
 20
109.9351
  0
VERTEX
  8
LAYER_4
 10
41.9802
 20
116.9145
  0
SEQEND
  0
POLYLINE
  8
LAYER_4
 40
0.0353
 41
0.0353
 66
1
 10
0
 20
0
 30
0
 70
1
  0
VERTEX
  8
LAYER_4
 10
106.9802
 20
108.8101
 42
-0.1804303518
  0
VERTEX
  8
LAYER_4
 10
107.633
 20
107.0601
 42
-0.1804289149
  0
VERTEX
  8
LAYER_4
 10
106.9802
 20
105.3101
  0
VERTEX
  8
LAYER_4
 10
106.9802
 20
99.9976
  0
VERTEX
  8
LAYER_4
 10
113.2302
 20
99.9976
  0
VERTEX
  8
LAYER_4
 10
113.2302
 20
114.1226
  0
VERTEX
  8
LAYER_4
 10
106.9802
 20
114.1226
  0
SEQEND
  0
POLYLINE
  8
LAYER_4
 40
0.0353
 41
0.0353
 66
1
 10
0
 20
0
 30
0
 70
1
  0
VERTEX
  8
LAYER_4
 10
140.0952
 20
112.0379
 42
-0.1519098963
  0
VERTEX
  8
LAYER_4
 10
144.1375
 20
116.0801
 42
0.2786192753
  0
VERTEX
  8
LAYER_4
 10
144.5052
 20
116.6887
 42
0.4142017538
  0
VERTEX
  8
LAYER_4
 10
143.8177
 20
117.3762
 42
0.1215842876
  0
VERTEX
  8
LAYER_4
 10
143.4978
 20
117.2973
 42
0.1519112046
  0
VERTEX
  8
LAYER_4
 10
138.8781
 20
112.6775
 42
0.1215589621
  0
VERTEX
  8
LAYER_4
 10
138.7991
 20
112.3577
 42
0.4142075063
  0
VERTEX
  8
LAYER_4
 10
139.4866
 20
111.6702
 42
0.278648028
  0
SEQEND
  0
POLYLINE
  8
LAYER_4
 40
0.0353
 41
0.0353
 66
1
 10
0
 20
0
 30
0
 70
1
  0
VERTEX
  8
LAYER_4
 10
153.0929
 20
116.0801
 42
-0.1519101878
  0
VERTEX
  8
LAYER_4
 10
157.1352
 20
112.0379
 42
0.2786425525
  0
VERTEX
  8
LAYER_4
 10
157.7438
 20
111.6702
 42
0.4142186318
  0
VERTEX
  8
LAYER_4
 10
158.4313
 20
112.3577
 42
0.121546277
  0
VERTEX
  8
LAYER_4
 10
158.3524
 20
112.6775
 42
0.1519125414
  0
VERTEX
  8
LAYER_4
 10
153.7326
 20
117.2973
 42
0.1215484927
  0
VERTEX
  8
LAYER_4
 10
153.4128
 20
117.3762
 42
0.4142332332
  0
VERTEX
  8
LAYER_4
 10
152.7253
 20
116.6887
 42
0.278610219
  0
SEQEND
  0
POLYLINE
  8
LAYER_4
 40
0.0353
 41
0.0353
 66
1
 10
0
 20
0
 30
0
 70
1
  0
VERTEX
  8
LAYER_4
 10
143.4978
 20
97.823
 42
-0.1519095332
  0
VERTEX
  8
LAYER_4
 10
138.8781
 20
102.4427
 42
-0.1215933043
  0
VERTEX
  8
LAYER_4
 10
138.7991
 20
102.7626
 42
-0.4141906306
  0
VERTEX
  8
LAYER_4
 10
139.4866
 20
103.4501
 42
-0.2786342818
  0
VERTEX
  8
LAYER_4
 10
140.0952
 20
103.0824
 42
0.1519115747
  0
VERTEX
  8
LAYER_4
 10
144.1375
 20
99.0401
 42
-0.2786319319
  0
VERTEX
  8
LAYER_4
 10
144.5052
 20
98.4315
 42
-0.4141760321
  0
VERTEX
  8
LAYER_4
 10
143.8177
 20
97.744
 42
-0.1215910891
  0
SEQEND
  0
POLYLINE
  8
LAYER_4
 40
0.0353
 41
0.0353
 66
1
 10
0
 20
0
 30
0
 70
1
  0
VERTEX
  8
LAYER_4
 10
158.3524
 20
102.4427
 42
-0.1519108698
  0
VERTEX
  8
LAYER_4
 10
153.7326
 20
97.823
 42
-0.121555294
  0
VERTEX
  8
LAYER_4
 10
153.4128
 20
97.744
 42
-0.4142075049
  0
VERTEX
  8
LAYER_4
 10
152.7253
 20
98.4315
 42
-0.2786228709
  0
VERTEX
  8
LAYER_4
 10
153.0929
 20
99.0401
 42
0.1519118661
  0
VERTEX
  8
LAYER_4
 10
157.1352
 20
103.0824
 42
-0.2786288143
  0
VERTEX
  8
LAYER_4
 10
157.7438
 20
103.4501
 42
-0.4142017548
  0
VERTEX
  8
LAYER_4
 10
158.4313
 20
102.7626
 42
-0.1215806221
  0
SEQEND
  0
POLYLINE
  8
LAYER_4
 40
0.0353
 41
0.0353
 66
1
 10
0
 20
0
 30
0
  0
VERTEX
  8
LAYER_4
 10
136.6152
 20
119.5601
  0
VERTEX
  8
LAYER_4
 10
146.5117
 20
119.5601
  0
VERTEX
  8
LAYER_4
 10
147.1884
 20
118.8834
 42
0.1966714556
  0
VERTEX
  8
LAYER_4
 10
147.3652
 20
118.8101
  0
VERTEX
  8
LAYER_4
 10
149.8652
 20
118.8101
 42
0.1968193738
  0
VERTEX
  8
LAYER_4
 10
150.042
 20
118.8834
  0
VERTEX
  8
LAYER_4
 10
150.7188
 20
119.5601
  0
VERTEX
  8
LAYER_4
 10
160.6152
 20
119.5601
  0
SEQEND
  0
POLYLINE
  8
LAYER_4
 40
0.0353
 41
0.0353
 66
1
 10
0
 20
0
 30
0
  0
VERTEX
  8
LAYER_4
 10
136.6152
 20
95.5601
  0
VERTEX
  8
LAYER_4
 10
146.5117
 20
95.5601
  0
VERTEX
  8
LAYER_4
 10
147.1884
 20
96.2369
 42
-0.1963620913
  0
VERTEX
  8
LAYER_4
 10
147.3652
 20
96.3101
  0
VERTEX
  8
LAYER_4
 10
149.8652
 20
96.3101
 42
-0.196510076
  0
VERTEX
  8
LAYER_4
 10
150.042
 20
96.2369
  0
VERTEX
  8
LAYER_4
 10
150.7188
 20
95.5601
  0
VERTEX
  8
LAYER_4
 10
160.6152
 20
95.5601
  0
SEQEND
  0
POLYLINE
  8
LAYER_4
 40
0.0353
 41
0.0353
 66
1
 10
0
 20
0
 30
0
  0
VERTEX
  8
LAYER_4
 10
146.5117
 20
95.3101
 42
0.1967659867
  0
VERTEX
  8
LAYER_4
 10
146.6884
 20
95.3834
  0
VERTEX
  8
LAYER_4
 10
147.3652
 20
96.0601
  0
VERTEX
  8
LAYER_4
 10
149.8652
 20
96.0601
  0
VERTEX
  8
LAYER_4
 10
150.542
 20
95.3834
 42
0.1968158741
  0
VERTEX
  8
LAYER_4
 10
150.7188
 20
95.3101
  0
VERTEX
  8
LAYER_4
 10
160.6152
 20
95.3101
  0
VERTEX
  8
LAYER_4
 10
160.6152
 20
119.8101
  0
VERTEX
  8
LAYER_4
 10
150.7188
 20
119.8101
 42
0.196510076
  0
VERTEX
  8
LAYER_4
 10
150.542
 20
119.7369
  0
VERTEX
  8
LAYER_4
 10
149.8652
 20
119.0601
  0
VERTEX
  8
LAYER_4
 10
147.3652
 20
119.0601
  0
VERTEX
  8
LAYER_4
 10
146.6884
 20
119.7369
 42
0.1964564456
  0
VERTEX
  8
LAYER_4
 10
146.5117
 20
119.8101
  0
SEQEND
  0
POLYLINE
  8
LAYER_4
 40
0.0353
 41
0.0353
 66
1
 10
0
 20
0
 30
0
  0
VERTEX
  8
LAYER_4
 10
150.9433
 20
95.3101
  0
VERTEX
  8
LAYER_4
 10
146.5117
 20
95.3101
  0
VERTEX
  8
LAYER_4
 10
136.6152
 20
95.3101
  0
VERTEX
  8
LAYER_4
 10
136.6152
 20
119.8101
  0
VERTEX
  8
LAYER_4
 10
146.5117
 20
119.8101
  0
VERTEX
  8
LAYER_4
 10
150.9433
 20
119.8101
  0
SEQEND
  0
POLYLINE
  8
LAYER_4
 40
0.0353
 41
0.0353
 66
1
 10
0
 20
0
 30
0
  0
VERTEX
  8
LAYER_4
 10
113.2302
 20
110.4915
  0
VERTEX
  8
LAYER_4
 10
114.4802
 20
110.4915
  0
SEQEND
  0
POLYLINE
  8
LAYER_4
 40
0.0353
 41
0.0353
 66
1
 10
0
 20
0
 30
0
 70
1
  0
VERTEX
  8
LAYER_4
 10
130.6663
 20
163.1506
  0
VERTEX
  8
LAYER_4
 10
130.6663
 20
169.2306
  0
VERTEX
  8
LAYER_4
 10
126.5063
 20
169.2306
  0
VERTEX
  8
LAYER_4
 10
126.5063
 20
163.1506
  0
SEQEND
  0
POLYLINE
  8
LAYER_4
 40
0.0353
 41
0.0353
 66
1
 10
0
 20
0
 30
0
 70
1
  0
VERTEX
  8
LAYER_4
 10
128.7463
 20
166.1283
  0
VERTEX
  8
LAYER_4
 10
128.4263
 20
166.1283
  0
VERTEX
  8
LAYER_4
 10
128.4263
 20
164.5283
  0
VERTEX
  8
LAYER_4
 10
128.7463
 20
164.5283
  0
SEQEND
  0
CIRCLE
  8
LAYER_4
 10
128.5863
 20
168.0012
 40
0.64
  0
POLYLINE
  8
LAYER_4
 40
0.0353
 41
0.0353
 66
1
 10
0
 20
0
 30
0
  0
VERTEX
  8
LAYER_4
 10
126.5063
 20
164.1616
  0
VERTEX
  8
LAYER_4
 10
130.6663
 20
164.1616
  0
SEQEND
  0
POLYLINE
  8
LAYER_4
 40
0.0353
 41
0.0353
 66
1
 10
0
 20
0
 30
0
  0
VERTEX
  8
LAYER_4
 10
122.4802
 20
176.7708
  0
VERTEX
  8
LAYER_4
 10
116.2302
 20
176.7708
  0
SEQEND
  0
POLYLINE
  8
LAYER_4
 40
0.0353
 41
0.0353
 66
1
 10
0
 20
0
 30
0
  0
VERTEX
  8
LAYER_4
 10
122.4802
 20
176.5208
  0
VERTEX
  8
LAYER_4
 10
116.2302
 20
176.5208
  0
SEQEND
  0
POLYLINE
  8
LAYER_4
 40
0.0353
 41
0.0353
 66
1
 10
0
 20
0
 30
0
  0
VERTEX
  8
LAYER_4
 10
122.4802
 20
170.3958
  0
VERTEX
  8
LAYER_4
 10
116.2302
 20
170.3958
  0
SEQEND
  0
POLYLINE
  8
LAYER_4
 40
0.0353
 41
0.0353
 66
1
 10
0
 20
0
 30
0
  0
VERTEX
  8
LAYER_4
 10
122.4802
 20
170.6458
  0
VERTEX
  8
LAYER_4
 10
116.2302
 20
170.6458
  0
SEQEND
  0
POLYLINE
  8
LAYER_4
 40
0.0353
 41
0.0353
 66
1
 10
0
 20
0
 30
0
  0
VERTEX
  8
LAYER_4
 10
79.7302
 20
181.7083
  0
VERTEX
  8
LAYER_4
 10
83.7302
 20
181.7083
  0
VERTEX
  8
LAYER_4
 10
83.7302
 20
175.3333
  0
SEQEND
  0
POLYLINE
  8
LAYER_4
 40
0.0353
 41
0.0353
 66
1
 10
0
 20
0
 30
0
  0
VERTEX
  8
LAYER_4
 10
83.7302
 20
176.4583
  0
VERTEX
  8
LAYER_4
 10
79.7302
 20
176.4583
  0
SEQEND
  0
POLYLINE
  8
LAYER_4
 40
0.0353
 41
0.0353
 66
1
 10
0
 20
0
 30
0
  0
VERTEX
  8
LAYER_4
 10
83.7302
 20
176.2083
  0
VERTEX
  8
LAYER_4
 10
79.7302
 20
176.2083
  0
SEQEND
  0
POLYLINE
  8
LAYER_4
 40
0.0353
 41
0.0353
 66
1
 10
0
 20
0
 30
0
  0
VERTEX
  8
LAYER_4
 10
79.7302
 20
170.9583
  0
VERTEX
  8
LAYER_4
 10
83.7302
 20
170.9583
  0
VERTEX
  8
LAYER_4
 10
83.7302
 20
171.8333
  0
SEQEND
  0
POLYLINE
  8
LAYER_4
 40
0.0353
 41
0.0353
 66
1
 10
0
 20
0
 30
0
  0
VERTEX
  8
LAYER_4
 10
116.2302
 20
175.3333
  0
VERTEX
  8
LAYER_4
 10
83.7302
 20
175.3333
 42
0.180425202
  0
VERTEX
  8
LAYER_4
 10
83.0775
 20
173.5833
 42
0.1804241623
  0
VERTEX
  8
LAYER_4
 10
83.7302
 20
171.8333
  0
VERTEX
  8
LAYER_4
 10
116.2302
 20
171.8333
  0
SEQEND
  0
POLYLINE
  8
LAYER_4
 40
0.0353
 41
0.0353
 66
1
 10
0
 20
0
 30
0
 70
1
  0
VERTEX
  8
LAYER_4
 10
116.2302
 20
175.3333
 42
-0.1804301593
  0
VERTEX
  8
LAYER_4
 10
116.883
 20
173.5833
 42
-0.1804291075
  0
VERTEX
  8
LAYER_4
 10
116.2302
 20
171.8333
  0
VERTEX
  8
LAYER_4
 10
116.2302
 20
166.5208
  0
VERTEX
  8
LAYER_4
 10
122.4802
 20
166.5208
  0
VERTEX
  8
LAYER_4
 10
122.4802
 20
180.6458
  0
VERTEX
  8
LAYER_4
 10
116.2302
 20
180.6458
  0
SEQEND
  0
POLYLINE
  8
LAYER_4
 40
0.0353
 41
0.0353
 66
1
 10
0
 20
0
 30
0
 70
1
  0
VERTEX
  8
LAYER_4
 10
78.7302
 20
159.2083
 42
0.4142186041
  0
VERTEX
  8
LAYER_4
 10
79.7302
 20
160.2083
  0
VERTEX
  8
LAYER_4
 10
79.7302
 20
208.9583
 42
0.4142315103
  0
VERTEX
  8
LAYER_4
 10
78.7302
 20
209.9583
  0
VERTEX
  8
LAYER_4
 10
29.9802
 20
209.9583
 42
0.41420852
  0
VERTEX
  8
LAYER_4
 10
28.9802
 20
208.9583
  0
VERTEX
  8
LAYER_4
 10
28.9802
 20
160.2083
 42
0.4141956155
  0
VERTEX
  8
LAYER_4
 10
29.9802
 20
159.2083
  0
SEQEND
  0
POLYLINE
  8
LAYER_4
 40
0.0353
 41
0.0353
 66
1
 10
0
 20
0
 30
0
 70
1
  0
VERTEX
  8
LAYER_4
 10
77.5819
 20
207.81
  0
VERTEX
  8
LAYER_4
 10
31.1286
 20
207.81
  0
VERTEX
  8
LAYER_4
 10
31.1286
 20
161.3567
  0
VERTEX
  8
LAYER_4
 10
77.5819
 20
161.3567
  0
SEQEND
  0
POLYLINE
  8
LAYER_4
 40
0.0353
 41
0.0353
 66
1
 10
0
 20
0
 30
0
 70
1
  0
VERTEX
  8
LAYER_4
 10
35.5628
 20
203.3757
  0
VERTEX
  8
LAYER_4
 10
73.1476
 20
203.3757
  0
VERTEX
  8
LAYER_4
 10
73.1476
 20
165.7909
  0
VERTEX
  8
LAYER_4
 10
35.5628
 20
165.7909
  0
SEQEND
  0
POLYLINE
  8
LAYER_4
 40
0.0353
 41
0.0353
 66
1
 10
0
 20
0
 30
0
  0
VERTEX
  8
LAYER_4
 10
104.4802
 20
175.3333
  0
VERTEX
  8
LAYER_4
 10
104.4802
 20
188.9583
  0
VERTEX
  8
LAYER_4
 10
134.2302
 20
188.9583
  0
VERTEX
  8
LAYER_4
 10
134.2302
 20
159.2083
  0
VERTEX
  8
LAYER_4
 10
104.4802
 20
159.2083
  0
VERTEX
  8
LAYER_4
 10
104.4802
 20
171.8333
  0
SEQEND
  0
POLYLINE
  8
LAYER_4
 40
0.0353
 41
0.0353
 66
1
 10
0
 20
0
 30
0
 70
1
  0
VERTEX
  8
LAYER_4
 10
41.523
 20
242.9566
 42
0.1980245177
  0
VERTEX
  8
LAYER_4
 10
41.5925
 20
242.9295
 42
0.030532077
  0
VERTEX
  8
LAYER_4
 10
42.083
 20
242.887
 42
0.01099090922
  0
VERTEX
  8
LAYER_4
 10
42.951
 20
242.869
 42
0.02704999763
  0
VERTEX
  8
LAYER_4
 10
44.2227
 20
242.9167
 42
0.3387120686
  0
VERTEX
  8
LAYER_4
 10
44.3789
 20
242.9566
 42
0.1980255774
  0
VERTEX
  8
LAYER_4
 10
44.3094
 20
242.9837
 42
0.03054887759
  0
VERTEX
  8
LAYER_4
 10
43.819
 20
243.0262
 42
0.01101253549
  0
VERTEX
  8
LAYER_4
 10
42.951
 20
243.0443
 42
0.0270762719
  0
VERTEX
  8
LAYER_4
 10
41.6792
 20
242.9965
 42
0.3386542185
  0
SEQEND
  0
POLYLINE
  8
LAYER_4
 40
0.0353
 41
0.0353
 66
1
 10
0
 20
0
 30
0
  0
VERTEX
  8
LAYER_4
 10
41.523
 20
240.462
 42
0.1980245177
  0
VERTEX
  8
LAYER_4
 10
41.5925
 20
240.4349
 42
0.030532077
  0
VERTEX
  8
LAYER_4
 10
42.083
 20
240.3924
 42
0.01099090922
  0
VERTEX
  8
LAYER_4
 10
42.951
 20
240.3744
 42
0.02704999763
  0
VERTEX
  8
LAYER_4
 10
44.2227
 20
240.4221
 42
0.3387120686
  0
VERTEX
  8
LAYER_4
 10
44.3789
 20
240.462
  0
VERTEX
  8
LAYER_4
 10
44.378
 20
240.4652
  0
SEQEND
  0
POLYLINE
  8
LAYER_4
 40
0.0353
 41
0.0353
 66
1
 10
0
 20
0
 30
0
  0
VERTEX
  8
LAYER_4
 10
41.523
 20
238.1129
 42
0.1980245177
  0
VERTEX
  8
LAYER_4
 10
41.5925
 20
238.0858
 42
0.030532077
  0
VERTEX
  8
LAYER_4
 10
42.083
 20
238.0433
 42
0.01099090922
  0
VERTEX
  8
LAYER_4
 10
42.951
 20
238.0253
 42
0.02704999763
  0
VERTEX
  8
LAYER_4
 10
44.2227
 20
238.073
 42
0.3387120686
  0
VERTEX
  8
LAYER_4
 10
44.3789
 20
238.1129
  0
VERTEX
  8
LAYER_4
 10
44.378
 20
238.1161
  0
SEQEND
  0
POLYLINE
  8
LAYER_4
 40
0.0353
 41
0.0353
 66
1
 10
0
 20
0
 30
0
  0
VERTEX
  8
LAYER_4
 10
41.523
 20
242.9566
  0
VERTEX
  8
LAYER_4
 10
41.523
 20
238.1129
  0
SEQEND
  0
POLYLINE
  8
LAYER_4
 40
0.0353
 41
0.0353
 66
1
 10
0
 20
0
 30
0
  0
VERTEX
  8
LAYER_4
 10
44.378
 20
242.9534
  0
VERTEX
  8
LAYER_4
 10
44.378
 20
242.417
  0
SEQEND
  0
POLYLINE
  8
LAYER_4
 40
0.0353
 41
0.0353
 66
1
 10
0
 20
0
 30
0
  0
VERTEX
  8
LAYER_4
 10
44.378
 20
240.8396
  0
VERTEX
  8
LAYER_4
 10
44.378
 20
238.1161
  0
SEQEND
  0
POLYLINE
  8
LAYER_4
 40
0.0353
 41
0.0353
 66
1
 10
0
 20
0
 30
0
  0
VERTEX
  8
LAYER_4
 10
44.0876
 20
242.4462
  0
VERTEX
  8
LAYER_4
 10
43.9938
 20
242.4509
 42
0.2357928183
  0
VERTEX
  8
LAYER_4
 10
43.2687
 20
242.0865
 42
0.1522775576
  0
VERTEX
  8
LAYER_4
 10
43.1331
 20
241.6603
 42
0.2572315342
  0
VERTEX
  8
LAYER_4
 10
43.504
 20
241.0102
 42
0.1427546621
  0
VERTEX
  8
LAYER_4
 10
43.9938
 20
240.8698
  0
SEQEND
  0
POLYLINE
  8
LAYER_4
 40
0.0353
 41
0.0353
 66
1
 10
0
 20
0
 30
0
  0
VERTEX
  8
LAYER_4
 10
44.9616
 20
242.3582
  0
VERTEX
  8
LAYER_4
 10
44.0876
 20
242.4462
  0
SEQEND
  0
POLYLINE
  8
LAYER_4
 40
0.0353
 41
0.0353
 66
1
 10
0
 20
0
 30
0
  0
VERTEX
  8
LAYER_4
 10
43.9938
 20
240.8698
  0
VERTEX
  8
LAYER_4
 10
45.0073
 20
240.7903
  0
SEQEND
  0
POLYLINE
  8
LAYER_4
 40
0.0353
 41
0.0353
 66
1
 10
0
 20
0
 30
0
  0
VERTEX
  8
LAYER_4
 10
32.4269
 20
240.2827
  0
VERTEX
  8
LAYER_4
 10
32.2929
 20
240.2915
 42
0.1520904789
  0
VERTEX
  8
LAYER_4
 10
31.7374
 20
240.1208
 42
0.1634540691
  0
VERTEX
  8
LAYER_4
 10
31.4566
 20
239.7405
 42
0.07087107578
  0
VERTEX
  8
LAYER_4
 10
31.4321
 20
239.5685
 42
0.1911246823
  0
VERTEX
  8
LAYER_4
 10
31.6137
 20
239.125
 42
0.1508825223
  0
VERTEX
  8
LAYER_4
 10
32.0619
 20
238.8719
 42
0.04940520932
  0
VERTEX
  8
LAYER_4
 10
32.2601
 20
238.8459
  0
SEQEND
  0
POLYLINE
  8
LAYER_4
 40
0.0353
 41
0.0353
 66
1
 10
0
 20
0
 30
0
  0
VERTEX
  8
LAYER_4
 10
32.1523
 20
238.8551
  0
VERTEX
  8
LAYER_4
 10
41.523
 20
238.5693
  0
SEQEND
  0
POLYLINE
  8
LAYER_4
 40
0.0353
 41
0.0353
 66
1
 10
0
 20
0
 30
0
  0
VERTEX
  8
LAYER_4
 10
32.3214
 20
240.2917
  0
VERTEX
  8
LAYER_4
 10
41.523
 20
240.0282
  0
SEQEND
  0
POLYLINE
  8
LAYER_4
 40
0.0353
 41
0.0353
 66
1
 10
0
 20
0
 30
0
 70
1
  0
VERTEX
  8
LAYER_4
 10
30.3666
 20
242.5608
 42
0.2052674891
  0
VERTEX
  8
LAYER_4
 10
30.4375
 20
242.5317
 42
0.03246222627
  0
VERTEX
  8
LAYER_4
 10
30.9072
 20
242.4887
 42
0.01136087479
  0
VERTEX
  8
LAYER_4
 10
31.6209
 20
242.4731
 42
0.03080258737
  0
VERTEX
  8
LAYER_4
 10
32.738
 20
242.5209
 42
0.3562835769
  0
VERTEX
  8
LAYER_4
 10
32.8752
 20
242.5608
 42
0.2052894161
  0
VERTEX
  8
LAYER_4
 10
32.8043
 20
242.5899
 42
0.03244749902
  0
VERTEX
  8
LAYER_4
 10
32.3346
 20
242.6328
 42
0.01133847986
  0
VERTEX
  8
LAYER_4
 10
31.6209
 20
242.6484
 42
0.03076880549
  0
VERTEX
  8
LAYER_4
 10
30.5038
 20
242.6007
 42
0.3563265579
  0
SEQEND
  0
POLYLINE
  8
LAYER_4
 40
0.0353
 41
0.0353
 66
1
 10
0
 20
0
 30
0
  0
VERTEX
  8
LAYER_4
 10
30.3666
 20
240.8847
 42
0.2052894161
  0
VERTEX
  8
LAYER_4
 10
30.4375
 20
240.8556
 42
0.03244749902
  0
VERTEX
  8
LAYER_4
 10
30.9072
 20
240.8127
 42
0.01133847986
  0
VERTEX
  8
LAYER_4
 10
31.6209
 20
240.7971
 42
0.03076880549
  0
VERTEX
  8
LAYER_4
 10
32.738
 20
240.8448
 42
0.3563265579
  0
VERTEX
  8
LAYER_4
 10
32.8752
 20
240.8847
  0
VERTEX
  8
LAYER_4
 10
32.8746
 20
240.8873
  0
SEQEND
  0
POLYLINE
  8
LAYER_4
 40
0.0353
 41
0.0353
 66
1
 10
0
 20
0
 30
0
  0
VERTEX
  8
LAYER_4
 10
30.3666
 20
238.4058
 42
0.2052894161
  0
VERTEX
  8
LAYER_4
 10
30.4375
 20
238.3767
 42
0.03244749902
  0
VERTEX
  8
LAYER_4
 10
30.9072
 20
238.3338
 42
0.01133847986
  0
VERTEX
  8
LAYER_4
 10
31.6209
 20
238.3182
 42
0.03076880549
  0
VERTEX
  8
LAYER_4
 10
32.738
 20
238.3659
 42
0.3563265579
  0
VERTEX
  8
LAYER_4
 10
32.8752
 20
238.4058
  0
VERTEX
  8
LAYER_4
 10
32.8746
 20
238.4085
  0
SEQEND
  0
POLYLINE
  8
LAYER_4
 40
0.0353
 41
0.0353
 66
1
 10
0
 20
0
 30
0
  0
VERTEX
  8
LAYER_4
 10
30.3666
 20
236.6735
 42
0.205553762
  0
VERTEX
  8
LAYER_4
 10
30.4375
 20
236.6443
 42
0.03250119086
  0
VERTEX
  8
LAYER_4
 10
30.9072
 20
236.6014
 42
0.01134375203
  0
VERTEX
  8
LAYER_4
 10
31.6209
 20
236.5858
 42
0.03080458038
  0
VERTEX
  8
LAYER_4
 10
32.738
 20
236.6335
 42
0.3566198182
  0
VERTEX
  8
LAYER_4
 10
32.8752
 20
236.6735
  0
VERTEX
  8
LAYER_4
 10
32.8746
 20
236.6761
  0
SEQEND
  0
POLYLINE
  8
LAYER_4
 40
0.0353
 41
0.0353
 66
1
 10
0
 20
0
 30
0
  0
VERTEX
  8
LAYER_4
 10
30.3666
 20
242.5608
  0
VERTEX
  8
LAYER_4
 10
30.3666
 20
236.6735
  0
SEQEND
  0
POLYLINE
  8
LAYER_4
 40
0.0353
 41
0.0353
 66
1
 10
0
 20
0
 30
0
  0
VERTEX
  8
LAYER_4
 10
32.8746
 20
242.5582
  0
VERTEX
  8
LAYER_4
 10
32.8746
 20
240.2446
  0
SEQEND
  0
POLYLINE
  8
LAYER_4
 40
0.0353
 41
0.0353
 66
1
 10
0
 20
0
 30
0
  0
VERTEX
  8
LAYER_4
 10
32.8746
 20
238.7936
  0
VERTEX
  8
LAYER_4
 10
32.8746
 20
236.6761
  0
SEQEND
  0
POLYLINE
  8
LAYER_4
 40
0.0353
 41
0.0353
 66
1
 10
0
 20
0
 30
0
  0
VERTEX
  8
LAYER_4
 10
26.0731
 20
233.7168
  0
VERTEX
  8
LAYER_4
 10
34.7601
 20
233.9948
  0
VERTEX
  8
LAYER_4
 10
34.7601
 20
238.7756
  0
SEQEND
  0
POLYLINE
  8
LAYER_4
 40
0.0353
 41
0.0353
 66
1
 10
0
 20
0
 30
0
  0
VERTEX
  8
LAYER_4
 10
26.0731
 20
244.4273
  0
VERTEX
  8
LAYER_4
 10
26.0731
 20
233.7168
  0
VERTEX
  8
LAYER_4
 10
24.2808
 20
233.9363
  0
VERTEX
  8
LAYER_4
 10
24.2808
 20
244.2078
  0
VERTEX
  8
LAYER_4
 10
26.0731
 20
244.4273
  0
VERTEX
  8
LAYER_4
 10
34.7601
 20
244.4273
  0
VERTEX
  8
LAYER_4
 10
34.7601
 20
240.2219
  0
SEQEND
  0
POLYLINE
  8
LAYER_4
 40
0.0353
 41
0.0353
 66
1
 10
0
 20
0
 30
0
 70
1
  0
VERTEX
  8
LAYER_4
 10
33.2383
 20
236.8977
  0
VERTEX
  8
LAYER_4
 10
34.4832
 20
236.8977
  0
VERTEX
  8
LAYER_4
 10
34.4832
 20
234.7414
  0
VERTEX
  8
LAYER_4
 10
33.2383
 20
234.7414
  0
SEQEND
  0
POLYLINE
  8
LAYER_4
 40
0.0353
 41
0.0353
 66
1
 10
0
 20
0
 30
0
  0
VERTEX
  8
LAYER_4
 10
33.2383
 20
234.7414
  0
VERTEX
  8
LAYER_4
 10
33.0709
 20
234.7863
  0
VERTEX
  8
LAYER_4
 10
33.0709
 20
236.8528
  0
VERTEX
  8
LAYER_4
 10
33.2383
 20
236.8977
  0
SEQEND
  0
POLYLINE
  8
LAYER_4
 40
0.0353
 41
0.0353
 66
1
 10
0
 20
0
 30
0
  0
VERTEX
  8
LAYER_4
 10
33.728
 20
236.2459
 42
0.1177307823
  0
VERTEX
  8
LAYER_4
 10
33.5512
 20
235.5055
 42
0.07932790567
  0
VERTEX
  8
LAYER_4
 10
33.6327
 20
234.9952
  0
SEQEND
  0
POLYLINE
  8
LAYER_4
 40
0.0353
 41
0.0353
 66
1
 10
0
 20
0
 30
0
  0
VERTEX
  8
LAYER_4
 10
33.5046
 20
236.6327
  0
VERTEX
  8
LAYER_4
 10
34.2599
 20
236.6327
  0
VERTEX
  8
LAYER_4
 10
34.4832
 20
236.2459
  0
VERTEX
  8
LAYER_4
 10
33.728
 20
236.2459
  0
VERTEX
  8
LAYER_4
 10
33.5046
 20
236.6327
  0
VERTEX
  8
LAYER_4
 10
33.5046
 20
234.9952
  0
VERTEX
  8
LAYER_4
 10
33.6327
 20
234.9952
  0
VERTEX
  8
LAYER_4
 10
34.3879
 20
234.9952
 42
-0.07932571414
  0
VERTEX
  8
LAYER_4
 10
34.3064
 20
235.5055
 42
-0.1177275785
  0
VERTEX
  8
LAYER_4
 10
34.4832
 20
236.2459
  0
SEQEND
  0
POLYLINE
  8
LAYER_4
 40
0.0353
 41
0.0353
 66
1
 10
0
 20
0
 30
0
 70
1
  0
VERTEX
  8
LAYER_4
 10
34.2279
 20
236.0506
 42
0.2520756775
  0
VERTEX
  8
LAYER_4
 10
34.1376
 20
236.0445
 42
0.1301724328
  0
VERTEX
  8
LAYER_4
 10
34.066
 20
235.971
 42
0.3548472884
  0
VERTEX
  8
LAYER_4
 10
34.078
 20
235.7909
 42
0.2520756775
  0
VERTEX
  8
LAYER_4
 10
34.1683
 20
235.797
 42
0.1301724328
  0
VERTEX
  8
LAYER_4
 10
34.2399
 20
235.8705
 42
0.3545603498
  0
SEQEND
  0
POLYLINE
  8
LAYER_4
 40
0.0353
 41
0.0353
 66
1
 10
0
 20
0
 30
0
  0
VERTEX
  8
LAYER_4
 10
34.0167
 20
235.4365
  0
VERTEX
  8
LAYER_4
 10
34.0167
 20
235.1679
  0
SEQEND
  0
POLYLINE
  8
LAYER_4
 40
0.0353
 41
0.0353
 66
1
 10
0
 20
0
 30
0
  0
VERTEX
  8
LAYER_4
 10
45.2833
 20
231.3319
  0
VERTEX
  8
LAYER_4
 10
44.5647
 20
255.9609
  0
VERTEX
  8
LAYER_4
 10
46.5251
 20
256.0781
  0
VERTEX
  8
LAYER_4
 10
65.1468
 20
255.8554
 42
0.008734024009
  0
VERTEX
  8
LAYER_4
 10
65.022
 20
248.7083
 42
0.01976971034
  0
VERTEX
  8
LAYER_4
 10
65.6613
 20
232.5459
  0
VERTEX
  8
LAYER_4
 10
47.2701
 20
231.3319
 42
-0.04035055959
  0
VERTEX
  8
LAYER_4
 10
46.0418
 20
246.5272
 42
-0.02528695948
  0
VERTEX
  8
LAYER_4
 10
46.5251
 20
256.0781
  0
SEQEND
  0
POLYLINE
  8
LAYER_4
 40
0.0353
 41
0.0353
 66
1
 10
0
 20
0
 30
0
 70
1
  0
VERTEX
  8
LAYER_4
 10
64.4791
 20
254.9143
 42
0.01139235545
  0
VERTEX
  8
LAYER_4
 10
64.3085
 20
247.4306
 42
0.02148519415
  0
VERTEX
  8
LAYER_4
 10
64.9147
 20
233.3309
 42
0.02453725009
  0
VERTEX
  8
LAYER_4
 10
47.8916
 20
232.4019
 42
-0.02167517624
  0
VERTEX
  8
LAYER_4
 10
47.1771
 20
248.8765
 42
-0.008156376248
  0
VERTEX
  8
LAYER_4
 10
47.2784
 20
255.0834
 42
0.008163198401
  0
VERTEX
  8
LAYER_4
 10
59.5824
 20
254.8825
 42
0.003271352897
  0
SEQEND
  0
POLYLINE
  8
LAYER_4
 40
0.0353
 41
0.0353
 66
1
 10
0
 20
0
 30
0
  0
VERTEX
  8
LAYER_4
 10
49.1551
 20
234.5991
 42
-0.01185312307
  0
VERTEX
  8
LAYER_4
 10
62.9489
 20
235.3196
 42
-0.01887315758
  0
VERTEX
  8
LAYER_4
 10
62.4555
 20
248.3861
 42
-0.006548335075
  0
VERTEX
  8
LAYER_4
 10
62.5133
 20
252.8608
  0
VERTEX
  8
LAYER_4
 10
57.683
 20
252.8629
  0
VERTEX
  8
LAYER_4
 10
48.6687
 20
252.8555
 42
0.003920631704
  0
VERTEX
  8
LAYER_4
 10
48.6422
 20
249.4487
 42
0.01689661159
  0
VERTEX
  8
LAYER_4
 10
49.1412
 20
234.6864
  0
SEQEND
  0
TEXT
  8
LAYER_5
 10
2166.1823
 20
-227.6494
 11
2166.1823
 21
-227.6494
 40
3.9656
 41
0.5
  1
 
  0
INSERT
  8
LAYER_5
  2
AIGNBL05010002
 10
0
 20
0
 30
0
  0
INSERT
  8
LAYER_5
  2
AIGNBL05010008
 10
0
 20
0
 30
0
  0
INSERT
  8
LAYER_5
  2
AIGNBL0501000E
 10
0
 20
0
 30
0
  0
INSERT
  8
LAYER_5
  2
AIGNBL05010014
 10
0
 20
0
 30
0
  0
INSERT
  8
LAYER_5
  2
AIGNBL0501001A
 10
0
 20
0
 30
0
  0
INSERT
  8
LAYER_5
  2
AIGNBL05010020
 10
0
 20
0
 30
0
  0
INSERT
  8
LAYER_5
  2
AIGNBL05010026
 10
0
 20
0
 30
0
  0
TEXT
  8
LAYER_5
 10
109.6255
 20
88.682
 11
109.6255
 21
88.682
 40
5.5518
 41
0.5
 72
1
  1
28
  0
TEXT
  8
LAYER_5
 10
152.2098
 20
89.7739
 11
152.2098
 21
89.7739
 40
5.5518
 41
0.5
 72
1
  1
58
  0
TEXT
  8
LAYER_5
 10
177.4795
 20
105.9966
 11
177.4795
 21
105.9966
 40
5.5518
 41
0.5
 72
1
  1
58
  0
POLYLINE
  8
LAYER_6
 40
0.0353
 41
0.0353
 66
1
 10
0
 20
0
 30
0
 70
1
  0
VERTEX
  8
LAYER_6
 10
0
 20
285.2362
  0
VERTEX
  8
LAYER_6
 10
201.6141
 20
285.2362
  0
VERTEX
  8
LAYER_6
 10
201.6141
 20
4.4353
  0
VERTEX
  8
LAYER_6
 10
0
 20
4.4473
  0
SEQEND
  0
POLYLINE
  8
LAYER_7
 40
0.0353
 41
0.0353
 66
1
 10
0
 20
0
 30
0
  0
VERTEX
  8
LAYER_7
 10
10.1807
 20
272.9111
  0
VERTEX
  8
LAYER_7
 10
195.1807
 20
272.9111
  0
VERTEX
  8
LAYER_7
 10
195.1807
 20
12.9111
  0
VERTEX
  8
LAYER_7
 10
10.1807
 20
12.9231
  0
VERTEX
  8
LAYER_7
 10
10.1807
 20
272.9231
  0
SEQEND
  0
POLYLINE
  8
LAYER_7
 40
0.0353
 41
0.0353
 66
1
 10
0
 20
0
 30
0
  0
VERTEX
  8
LAYER_7
 10
165.1807
 20
12.9141
  0
VERTEX
  8
LAYER_7
 10
165.1807
 20
28.9111
  0
SEQEND
  0
POLYLINE
  8
LAYER_7
 40
0.0353
 41
0.0353
 66
1
 10
0
 20
0
 30
0
  0
VERTEX
  8
LAYER_7
 10
137.1807
 20
12.9141
  0
VERTEX
  8
LAYER_7
 10
137.1807
 20
61.9111
  0
SEQEND
  0
POLYLINE
  8
LAYER_7
 40
0.0353
 41
0.0353
 66
1
 10
0
 20
0
 30
0
  0
VERTEX
  8
LAYER_7
 10
114.1807
 20
12.9141
  0
VERTEX
  8
LAYER_7
 10
114.1807
 20
61.9111
  0
SEQEND
  0
POLYLINE
  8
LAYER_7
 40
0.0353
 41
0.0353
 66
1
 10
0
 20
0
 30
0
  0
VERTEX
  8
LAYER_7
 10
180.1807
 20
12.9126
  0
VERTEX
  8
LAYER_7
 10
180.1807
 20
28.9111
  0
SEQEND
  0
POLYLINE
  8
LAYER_7
 40
0.0353
 41
0.0353
 66
1
 10
0
 20
0
 30
0
  0
VERTEX
  8
LAYER_7
 10
195.1807
 20
28.9111
  0
VERTEX
  8
LAYER_7
 10
96.1807
 20
28.9111
  0
SEQEND
  0
POLYLINE
  8
LAYER_7
 40
0.0353
 41
0.0353
 66
1
 10
0
 20
0
 30
0
  0
VERTEX
  8
LAYER_7
 10
137.1807
 20
33.9111
  0
VERTEX
  8
LAYER_7
 10
96.1807
 20
33.9111
  0
SEQEND
  0
POLYLINE
  8
LAYER_7
 40
0.0353
 41
0.0353
 66
1
 10
0
 20
0
 30
0
  0
VERTEX
  8
LAYER_7
 10
137.1807
 20
38.9111
  0
VERTEX
  8
LAYER_7
 10
96.1807
 20
38.9111
  0
SEQEND
  0
POLYLINE
  8
LAYER_7
 40
0.0353
 41
0.0353
 66
1
 10
0
 20
0
 30
0
  0
VERTEX
  8
LAYER_7
 10
137.1807
 20
43.9111
  0
VERTEX
  8
LAYER_7
 10
96.1807
 20
43.9111
  0
SEQEND
  0
POLYLINE
  8
LAYER_7
 40
0.0353
 41
0.0353
 66
1
 10
0
 20
0
 30
0
  0
VERTEX
  8
LAYER_7
 10
137.1807
 20
48.9111
  0
VERTEX
  8
LAYER_7
 10
96.1807
 20
48.9111
  0
SEQEND
  0
POLYLINE
  8
LAYER_7
 40
0.0353
 41
0.0353
 66
1
 10
0
 20
0
 30
0
  0
VERTEX
  8
LAYER_7
 10
137.1807
 20
53.9111
  0
VERTEX
  8
LAYER_7
 10
96.1807
 20
53.9111
  0
SEQEND
  0
POLYLINE
  8
LAYER_7
 40
0.0353
 41
0.0353
 66
1
 10
0
 20
0
 30
0
  0
VERTEX
  8
LAYER_7
 10
195.1807
 20
61.9111
  0
VERTEX
  8
LAYER_7
 10
96.1807
 20
61.9111
  0
VERTEX
  8
LAYER_7
 10
96.1807
 20
12.9141
  0
SEQEND
  0
POLYLINE
  8
LAYER_7
 40
0.0353
 41
0.0353
 66
1
 10
0
 20
0
 30
0
  0
VERTEX
  8
LAYER_7
 10
195.1807
 20
23.9111
  0
VERTEX
  8
LAYER_7
 10
96.1807
 20
23.9111
  0
SEQEND
  0
POLYLINE
  8
LAYER_7
 40
0.0353
 41
0.0353
 66
1
 10
0
 20
0
 30
0
  0
VERTEX
  8
LAYER_7
 10
137.1807
 20
17.9111
  0
VERTEX
  8
LAYER_7
 10
96.1807
 20
17.9111
  0
SEQEND
  0
POLYLINE
  8
LAYER_7
 40
0.0353
 41
0.0353
 66
1
 10
0
 20
0
 30
0
  0
VERTEX
  8
LAYER_7
 10
147.6807
 20
64.4111
  0
VERTEX
  8
LAYER_7
 10
147.6807
 20
77.4111
  0
SEQEND
  0
POLYLINE
  8
LAYER_7
 40
0.0353
 41
0.0353
 66
1
 10
0
 20
0
 30
0
  0
VERTEX
  8
LAYER_7
 10
132.6807
 20
64.4111
  0
VERTEX
  8
LAYER_7
 10
132.6807
 20
77.4111
  0
SEQEND
  0
POLYLINE
  8
LAYER_7
 40
0.0353
 41
0.0353
 66
1
 10
0
 20
0
 30
0
  0
VERTEX
  8
LAYER_7
 10
162.6807
 20
64.4111
  0
VERTEX
  8
LAYER_7
 10
162.6807
 20
77.4111
  0
SEQEND
  0
POLYLINE
  8
LAYER_7
 40
0.0353
 41
0.0353
 66
1
 10
0
 20
0
 30
0
  0
VERTEX
  8
LAYER_7
 10
117.6807
 20
70.4111
  0
VERTEX
  8
LAYER_7
 10
192.6807
 20
70.4111
  0
SEQEND
  0
POLYLINE
  8
LAYER_7
 40
0.0353
 41
0.0353
 66
1
 10
0
 20
0
 30
0
 70
1
  0
VERTEX
  8
LAYER_7
 10
117.6807
 20
77.4111
  0
VERTEX
  8
LAYER_7
 10
192.6807
 20
77.4111
  0
VERTEX
  8
LAYER_7
 10
192.6807
 20
64.4111
  0
VERTEX
  8
LAYER_7
 10
117.6807
 20
64.4111
  0
SEQEND
  0
POLYLINE
  8
LAYER_7
 40
0.0353
 41
0.0353
 66
1
 10
0
 20
0
 30
0
  0
VERTEX
  8
LAYER_7
 10
177.6807
 20
64.4111
  0
VERTEX
  8
LAYER_7
 10
177.6807
 20
77.4111
  0
SEQEND
  0
POLYLINE
  8
LAYER_7
 40
0.0353
 41
0.0353
 66
1
 10
0
 20
0
 30
0
  0
VERTEX
  8
LAYER_7
 10
10.1807
 20
262.9231
  0
VERTEX
  8
LAYER_7
 10
90.1807
 20
262.9111
  0
VERTEX
  8
LAYER_7
 10
90.1807
 20
272.9231
  0
SEQEND
  0
POLYLINE
  8
LAYER_7
 40
0.0353
 41
0.0353
 66
1
 10
0
 20
0
 30
0
  0
VERTEX
  8
LAYER_7
 10
40.1807
 20
272.9231
  0
VERTEX
  8
LAYER_7
 10
40.1807
 20
262.9111
  0
SEQEND
  0
POLYLINE
  8
LAYER_7
 40
0.0353
 41
0.0353
 66
1
 10
0
 20
0
 30
0
  0
VERTEX
  8
LAYER_7
 10
195.1807
 20
257.9111
  0
VERTEX
  8
LAYER_7
 10
110.1807
 20
257.9111
  0
SEQEND
  0
POLYLINE
  8
LAYER_7
 40
0.0353
 41
0.0353
 66
1
 10
0
 20
0
 30
0
  0
VERTEX
  8
LAYER_7
 10
195.1807
 20
262.9111
  0
VERTEX
  8
LAYER_7
 10
110.1807
 20
262.9111
  0
SEQEND
  0
POLYLINE
  8
LAYER_7
 40
0.0353
 41
0.0353
 66
1
 10
0
 20
0
 30
0
  0
VERTEX
  8
LAYER_7
 10
195.1807
 20
267.9111
  0
VERTEX
  8
LAYER_7
 10
110.1807
 20
267.9111
  0
SEQEND
  0
POLYLINE
  8
LAYER_7
 40
0.0353
 41
0.0353
 66
1
 10
0
 20
0
 30
0
  0
VERTEX
  8
LAYER_7
 10
118.1807
 20
272.9111
  0
VERTEX
  8
LAYER_7
 10
118.1807
 20
242.9111
  0
SEQEND
  0
POLYLINE
  8
LAYER_7
 40
0.0353
 41
0.0353
 66
1
 10
0
 20
0
 30
0
  0
VERTEX
  8
LAYER_7
 10
142.1807
 20
272.9111
  0
VERTEX
  8
LAYER_7
 10
142.1807
 20
242.9111
  0
SEQEND
  0
POLYLINE
  8
LAYER_7
 40
0.0353
 41
0.0353
 66
1
 10
0
 20
0
 30
0
  0
VERTEX
  8
LAYER_7
 10
159.1807
 20
272.9111
  0
VERTEX
  8
LAYER_7
 10
159.1807
 20
242.9111
  0
SEQEND
  0
POLYLINE
  8
LAYER_7
 40
0.0353
 41
0.0353
 66
1
 10
0
 20
0
 30
0
  0
VERTEX
  8
LAYER_7
 10
170.1807
 20
272.9111
  0
VERTEX
  8
LAYER_7
 10
170.1807
 20
242.9111
  0
SEQEND
  0
POLYLINE
  8
LAYER_7
 40
0.0353
 41
0.0353
 66
1
 10
0
 20
0
 30
0
  0
VERTEX
  8
LAYER_7
 10
195.1807
 20
252.9111
  0
VERTEX
  8
LAYER_7
 10
110.1807
 20
252.9111
  0
SEQEND
  0
POLYLINE
  8
LAYER_7
 40
0.0353
 41
0.0353
 66
1
 10
0
 20
0
 30
0
  0
VERTEX
  8
LAYER_7
 10
195.1807
 20
247.9111
  0
VERTEX
  8
LAYER_7
 10
110.1807
 20
247.9111
  0
SEQEND
  0
POLYLINE
  8
LAYER_7
 40
0.0353
 41
0.0353
 66
1
 10
0
 20
0
 30
0
  0
VERTEX
  8
LAYER_7
 10
195.1807
 20
242.9111
  0
VERTEX
  8
LAYER_7
 10
110.1807
 20
242.9111
  0
VERTEX
  8
LAYER_7
 10
110.1807
 20
272.9111
  0
SEQEND
  0
POLYLINE
  8
LAYER_8
  6
AIGENLINE001
 40
0.0353
 41
0.0353
 66
1
 10
0
 20
0
 30
0
 70
128
  0
VERTEX
  8
LAYER_8
 10
153.9283
 20
228.6099
  0
VERTEX
  8
LAYER_8
 10
193.0346
 20
228.6099
  0
SEQEND
  0
POLYLINE
  8
LAYER_8
  6
AIGENLINE001
 40
0.0353
 41
0.0353
 66
1
 10
0
 20
0
 30
0
 70
128
  0
VERTEX
  8
LAYER_8
 10
153.9283
 20
201.8712
  0
VERTEX
  8
LAYER_8
 10
163.7129
 20
201.8712
  0
SEQEND
  0
POLYLINE
  8
LAYER_8
  6
AIGENLINE001
 40
0.0353
 41
0.0353
 66
1
 10
0
 20
0
 30
0
 70
128
  0
VERTEX
  8
LAYER_8
 10
187.5089
 20
223.9349
  0
VERTEX
  8
LAYER_8
 10
187.5089
 20
233.2849
  0
SEQEND
  0
POLYLINE
  8
LAYER_8
  6
AIGENLINE001
 40
0.0353
 41
0.0353
 66
1
 10
0
 20
0
 30
0
 70
128
  0
VERTEX
  8
LAYER_8
 10
161.5089
 20
223.9349
  0
VERTEX
  8
LAYER_8
 10
161.5089
 20
233.2849
  0
SEQEND
  0
POLYLINE
  8
LAYER_8
  6
AIGENLINE001
 40
0.0353
 41
0.0353
 66
1
 10
0
 20
0
 30
0
 70
128
  0
VERTEX
  8
LAYER_8
 10
148.6152
 20
123.2199
  0
VERTEX
  8
LAYER_8
 10
148.6152
 20
91.9003
  0
SEQEND
  0
POLYLINE
  8
LAYER_8
  6
AIGENLINE001
 40
0.0353
 41
0.0353
 66
1
 10
0
 20
0
 30
0
 70
128
  0
VERTEX
  8
LAYER_8
 10
164.275
 20
107.5601
  0
VERTEX
  8
LAYER_8
 10
132.9554
 20
107.5601
  0
SEQEND
  0
POLYLINE
  8
LAYER_8
  6
AIGENLINE001
 40
0.0353
 41
0.0353
 66
1
 10
0
 20
0
 30
0
 70
128
  0
VERTEX
  8
LAYER_8
 10
155.9027
 20
99.0145
  0
VERTEX
  8
LAYER_8
 10
155.9027
 20
101.5145
  0
SEQEND
  0
POLYLINE
  8
LAYER_8
  6
AIGENLINE001
 40
0.0353
 41
0.0353
 66
1
 10
0
 20
0
 30
0
 70
128
  0
VERTEX
  8
LAYER_8
 10
154.6527
 20
100.2726
  0
VERTEX
  8
LAYER_8
 10
157.1527
 20
100.2726
  0
SEQEND
  0
CIRCLE
  8
LAYER_8
  6
AIGENLINE001
 10
148.6152
 20
107.5601
 40
10.3125
  0
POLYLINE
  8
LAYER_8
  6
AIGENLINE001
 40
0.0353
 41
0.0353
 66
1
 10
0
 20
0
 30
0
 70
128
  0
VERTEX
  8
LAYER_8
 10
155.9027
 20
113.5895
  0
VERTEX
  8
LAYER_8
 10
155.9027
 20
116.0895
  0
SEQEND
  0
POLYLINE
  8
LAYER_8
  6
AIGENLINE001
 40
0.0353
 41
0.0353
 66
1
 10
0
 20
0
 30
0
 70
128
  0
VERTEX
  8
LAYER_8
 10
154.6527
 20
114.8476
  0
VERTEX
  8
LAYER_8
 10
157.1527
 20
114.8476
  0
SEQEND
  0
POLYLINE
  8
LAYER_8
  6
AIGENLINE001
 40
0.0353
 41
0.0353
 66
1
 10
0
 20
0
 30
0
 70
128
  0
VERTEX
  8
LAYER_8
 10
141.3277
 20
113.5895
  0
VERTEX
  8
LAYER_8
 10
141.3277
 20
116.0895
  0
SEQEND
  0
POLYLINE
  8
LAYER_8
  6
AIGENLINE001
 40
0.0353
 41
0.0353
 66
1
 10
0
 20
0
 30
0
 70
128
  0
VERTEX
  8
LAYER_8
 10
140.0777
 20
114.8476
  0
VERTEX
  8
LAYER_8
 10
142.5777
 20
114.8476
  0
SEQEND
  0
POLYLINE
  8
LAYER_8
  6
AIGENLINE001
 40
0.0353
 41
0.0353
 66
1
 10
0
 20
0
 30
0
 70
128
  0
VERTEX
  8
LAYER_8
 10
141.3277
 20
99.0145
  0
VERTEX
  8
LAYER_8
 10
141.3277
 20
101.5145
  0
SEQEND
  0
POLYLINE
  8
LAYER_8
  6
AIGENLINE001
 40
0.0353
 41
0.0353
 66
1
 10
0
 20
0
 30
0
 70
128
  0
VERTEX
  8
LAYER_8
 10
140.0777
 20
100.2726
  0
VERTEX
  8
LAYER_8
 10
142.5777
 20
100.2726
  0
SEQEND
  0
TEXT
  8
LAYER_9
 10
2309.5376
 20
-76.6219
 11
2309.5376
 21
-76.6219
 40
4.7587
 41
0.5
 72
1
  1
 
  0
TEXT
  8
LAYER_9
 10
2284.7141
 20
-282.8392
 11
2284.7141
 21
-282.8392
 40
3.9656
 41
0.5
  1
  
  0
TEXT
  8
LAYER_9
 10
2284.7141
 20
-286.3392
 11
2284.7141
 21
-286.3392
 40
3.9656
 41
0.5
  1
 
  0
TEXT
  8
LAYER_9
 10
2317.4002
 20
-323.2907
 11
2317.4002
 21
-323.2907
 40
3.9656
 41
0.5
 72
1
  1
 
  0
TEXT
  8
LAYER_9
 10
2284.7141
 20
-289.8392
 11
2284.7141
 21
-289.8392
 40
3.9656
 41
0.5
  1
   
  0
TEXT
  8
LAYER_9
 10
2280.0376
 20
-91.6219
 11
2280.0376
 21
-91.6219
 40
4.7587
 41
0.5
 72
1
  1
 
  0
TEXT
  8
LAYER_9
 10
2297.0376
 20
-91.6219
 11
2297.0376
 21
-91.6219
 40
4.7587
 41
0.5
 72
1
  1
 
  0
TEXT
  8
LAYER_9
 10
2328.5375
 20
-91.6219
 11
2328.5375
 21
-91.6219
 40
4.7587
 41
0.5
 72
1
  1
 
  0
TEXT
  8
LAYER_9
 10
2280.0376
 20
-96.622
 11
2280.0376
 21
-96.622
 40
4.7587
 41
0.5
 72
1
  1
 
  0
TEXT
  8
LAYER_9
 10
2297.0376
 20
-96.622
 11
2297.0376
 21
-96.622
 40
4.7587
 41
0.5
 72
1
  1
 
  0
TEXT
  8
LAYER_9
 10
2308.4917
 20
-96.622
 11
2308.4917
 21
-96.622
 40
4.7587
 41
0.5
 72
1
  1
 
  0
TEXT
  8
LAYER_9
 10
2328.5375
 20
-96.622
 11
2328.5375
 21
-96.622
 40
4.7587
 41
0.5
 72
1
  1
 
  0
TEXT
  8
LAYER_9
 10
2328.5375
 20
-76.6219
 11
2328.5375
 21
-76.6219
 40
4.7587
 41
0.5
 72
1
  1
 
  0
TEXT
  8
LAYER_9
 10
2284.7141
 20
-293.3098
 11
2284.7141
 21
-293.3098
 40
3.9656
 41
0.5
  1
 
  0
TEXT
  8
LAYER_9
 10
116.195
 20
268.5547
 11
116.195
 21
268.5547
 40
4.1743
 41
0.5
 72
1
  1
部番
  0
TEXT
  8
LAYER_9
 10
115.8336
 20
263.4342
 11
115.8336
 21
263.4342
 40
4.7587
 41
0.5
 72
1
  1
1
  0
TEXT
  8
LAYER_9
 10
115.8336
 20
258.4342
 11
115.8336
 21
258.4342
 40
4.7587
 41
0.5
 72
1
  1
2
  0
TEXT
  8
LAYER_9
 10
115.8336
 20
253.4342
 11
115.8336
 21
253.4342
 40
4.7587
 41
0.5
 72
1
  1
3
  0
TEXT
  8
LAYER_9
 10
132.0198
 20
268.5547
 11
132.0198
 21
268.5547
 40
4.1743
 41
0.5
 72
1
  1
部品名
  0
TEXT
  8
LAYER_9
 10
131.9117
 20
263.5547
 11
131.9117
 21
263.5547
 40
4.1743
 41
0.5
 72
1
  1
ミラー
  0
TEXT
  8
LAYER_9
 10
131.5498
 20
253.5547
 11
131.5498
 21
253.5547
 40
4.1743
 41
0.5
 72
1
  1
アーム
  0
TEXT
  8
LAYER_9
 10
131.8289
 20
248.5547
 11
131.8289
 21
248.5547
 40
4.1743
 41
0.5
 72
1
  1
フランジ
  0
TEXT
  8
LAYER_9
 10
152.807
 20
268.5547
 11
152.807
 21
268.5547
 40
4.1743
 41
0.5
 72
1
  1
材質
  0
TEXT
  8
LAYER_9
 10
152.369
 20
253.5547
 11
152.369
 21
253.5547
 40
4.1743
 41
0.5
 72
1
  1
鋼板
  0
TEXT
  8
LAYER_9
 10
185.689
 20
268.5547
 11
185.689
 21
268.5547
 40
4.1743
 41
0.5
 72
1
  1
摘要
  0
TEXT
  8
LAYER_9
 10
28.5281
 20
264.8292
 11
28.5281
 21
264.8292
 40
6.9571
 41
0.5
 72
1
  1
型番
  0
TEXT
  8
LAYER_9
 10
153.1623
 20
24.8641
 11
153.1623
 21
24.8641
 40
3.4786
 41
0.5
 72
1
  1
適合ランプ
  0
TEXT
  8
LAYER_9
 10
174.3544
 20
24.8641
 11
174.3544
 21
24.8641
 40
3.4786
 41
0.5
 72
1
  1
承　認
  0
TEXT
  8
LAYER_9
 10
189.3544
 20
24.8641
 11
189.3544
 21
24.8641
 40
3.4786
 41
0.5
 72
1
  1
担　当
  0
TEXT
  8
LAYER_9
 10
153.3163
 20
16.8656
 11
153.3163
 21
16.8656
 40
3.4786
 41
0.5
 72
1
  1
一体形モジュール
  0
TEXT
  8
LAYER_9
 10
189.3544
 20
16.8656
 11
189.3544
 21
16.8656
 40
3.4786
 41
0.5
 72
1
  1
市嶋
  0
TEXT
  8
LAYER_9
 10
106.8544
 20
56.3641
 11
106.8544
 21
56.3641
 40
3.4786
 41
0.5
 72
1
  1
品　　名
  0
TEXT
  8
LAYER_9
 10
106.8544
 20
49.8641
 11
106.8544
 21
49.8641
 40
3.4786
 41
0.5
 72
1
  1
取付形態
  0
TEXT
  8
LAYER_9
 10
106.8544
 20
44.8641
 11
106.8544
 21
44.8641
 40
3.4786
 41
0.5
 72
1
  1
接続方法
  0
TEXT
  8
LAYER_9
 10
107.0229
 20
39.8641
 11
107.0229
 21
39.8641
 40
3.9656
 41
0.5
 72
1
  1
色 温 度
  0
TEXT
  8
LAYER_9
 10
106.4307
 20
34.8641
 11
106.4307
 21
34.8641
 40
2.5981
 41
0.5
 72
1
  1
平均演色評価数
  0
TEXT
  8
LAYER_9
 10
106.8544
 20
29.8641
 11
106.8544
 21
29.8641
 40
3.4786
 41
0.5
 72
1
  1
光源寿命
  0
TEXT
  8
LAYER_9
 10
106.8544
 20
13.8656
 11
106.8544
 21
13.8656
 40
3.4786
 41
0.5
 72
1
  1
質　　量
  0
TEXT
  8
LAYER_9
 10
127.3544
 20
56.3641
 11
127.3544
 21
56.3641
 40
3.4786
 41
0.5
 72
1
  1
拡大鏡
  0
TEXT
  8
LAYER_9
 10
128.8443
 20
13.7654
 11
128.8443
 21
13.7654
 40
3.9656
 41
0.5
 72
1
  1
1.5kg
  0
TEXT
  8
LAYER_9
 10
106.8544
 20
24.8641
 11
106.8544
 21
24.8641
 40
3.4786
 41
0.5
 72
1
  1
定格光束
  0
TEXT
  8
LAYER_9
 10
106.4093
 20
21.1735
 11
106.4093
 21
21.1735
 40
2.3382
 41
0.5
 72
1
  1
固有エネルギー
  0
TEXT
  8
LAYER_9
 10
106.4756
 20
18.3735
 11
106.4756
 21
18.3735
 40
2.6656
 41
0.5
 72
1
  1
消 費 効 率
  0
TEXT
  8
LAYER_9
 10
156.5558
 20
74.4641
 11
156.5558
 21
74.4641
 40
2.8579
 41
0.5
 72
1
  1
出力電圧
  0
TEXT
  8
LAYER_9
 10
156.0243
 20
65.7639
 11
156.0243
 21
65.7639
 40
3.9656
 41
0.5
 72
1
  1
-
  0
TEXT
  8
LAYER_9
 10
157.724
 20
71.3818
 11
157.724
 21
71.3818
 40
3.258
 41
0.5
 72
1
  1
(V)
  0
TEXT
  8
LAYER_9
 10
171.5558
 20
74.4641
 11
171.5558
 21
74.4641
 40
2.8579
 41
0.5
 72
1
  1
入力電流
  0
TEXT
  8
LAYER_9
 10
172.8257
 20
71.3818
 11
172.8257
 21
71.3818
 40
3.258
 41
0.5
 72
1
  1
(A)
  0
TEXT
  8
LAYER_9
 10
186.5558
 20
74.4641
 11
186.5558
 21
74.4641
 40
2.8579
 41
0.5
 72
1
  1
消費電力
  0
TEXT
  8
LAYER_9
 10
188.3407
 20
71.3818
 11
188.3407
 21
71.3818
 40
3.258
 41
0.5
 72
1
  1
(W)
  0
TEXT
  8
LAYER_9
 10
115.8336
 20
248.4342
 11
115.8336
 21
248.4342
 40
4.7587
 41
0.5
 72
1
  1
4
  0
TEXT
  8
LAYER_9
 10
185.4934
 20
253.5547
 11
185.4934
 21
253.5547
 40
4.1743
 41
0.5
 72
1
  1
クロームメッキ
  0
TEXT
  8
LAYER_9
 10
115.8336
 20
243.4342
 11
115.8336
 21
243.4342
 40
4.7587
 41
0.5
 72
1
  1
5
  0
TEXT
  8
LAYER_9
 10
185.4934
 20
248.5547
 11
185.4934
 21
248.5547
 40
4.1743
 41
0.5
 72
1
  1
クロームメッキ
  0
TEXT
  8
LAYER_9
 10
126.4107
 20
74.4641
 11
126.4107
 21
74.4641
 40
2.8579
 41
0.5
 72
1
  1
定格電圧
  0
TEXT
  8
LAYER_9
 10
141.68
 20
74.4641
 11
141.68
 21
74.4641
 40
2.8579
 41
0.5
 72
1
  1
周波数
  0
TEXT
  8
LAYER_9
 10
143.9624
 20
71.3818
 11
143.9624
 21
71.3818
 40
3.258
 41
0.5
 72
1
  1
(Hz)
  0
TEXT
  8
LAYER_9
 10
127.6575
 20
71.3818
 11
127.6575
 21
71.3818
 40
3.258
 41
0.5
 72
1
  1
(V)
  0
TEXT
  8
LAYER_9
 10
143.2429
 20
65.7639
 11
143.2429
 21
65.7639
 40
3.9656
 41
0.5
 72
1
  1
50/60
  0
TEXT
  8
LAYER_9
 10
128.9441
 20
65.7639
 11
128.9441
 21
65.7639
 40
3.9656
 41
0.5
 72
1
  1
100
  0
TEXT
  8
LAYER_9
 10
166.375
 20
268.7322
 11
166.375
 21
268.7322
 40
4.1743
 41
0.5
 72
1
  1
数量
  0
TEXT
  8
LAYER_9
 10
166.0136
 20
263.6116
 11
166.0136
 21
263.6116
 40
4.7587
 41
0.5
 72
1
  1
1
  0
TEXT
  8
LAYER_9
 10
166.0136
 20
253.6116
 11
166.0136
 21
253.6116
 40
4.7587
 41
0.5
 72
1
  1
1
  0
TEXT
  8
LAYER_9
 10
166.0136
 20
248.6116
 11
166.0136
 21
248.6116
 40
4.7587
 41
0.5
 72
1
  1
1
  0
TEXT
  8
LAYER_9
 10
132.2018
 20
243.3851
 11
132.2018
 21
243.3851
 40
4.1743
 41
0.5
 72
1
  1
サポート
  0
TEXT
  8
LAYER_9
 10
166.137
 20
243.1318
 11
166.137
 21
243.1318
 40
4.7587
 41
0.5
 72
1
  1
1
  0
TEXT
  8
LAYER_9
 10
174.3544
 20
16.8656
 11
174.3544
 21
16.8656
 40
3.4786
 41
0.5
 72
1
  1
石井
  0
POLYLINE
  8
LAYER_9
 40
0.2999
 41
0.2999
 66
1
 10
0
 20
0
 30
0
  0
VERTEX
  8
LAYER_9
 10
93.6166
 20
53.9111
  0
VERTEX
  8
LAYER_9
 10
12.7318
 20
53.9111
  0
SEQEND
  0
CIRCLE
  8
LAYER_9
 10
34.0705
 20
55.7196
 40
0.2621
  0
CIRCLE
  8
LAYER_9
 10
34.0705
 20
55.7196
 40
0.2621
  0
POLYLINE
  8
LAYER_9
 40
0.1976
 41
0.1976
 66
1
 10
0
 20
0
 30
0
 70
1
  0
VERTEX
  8
LAYER_9
 10
37.3285
 20
55.1597
  0
VERTEX
  8
LAYER_9
 10
34.0619
 20
60.8055
  0
VERTEX
  8
LAYER_9
 10
30.8076
 20
55.1597
  0
SEQEND
  0
POLYLINE
  8
LAYER_9
 40
0.05
 41
0.05
 66
1
 10
0
 20
0
 30
0
 70
1
  0
VERTEX
  8
LAYER_9
 10
34.4391
 20
59.0269
 42
0.3454138432
  0
VERTEX
  8
LAYER_9
 10
34.3201
 20
59.5118
 42
0.3453008769
  0
VERTEX
  8
LAYER_9
 10
33.8209
 20
59.5118
 42
0.3453743534
  0
VERTEX
  8
LAYER_9
 10
33.7019
 20
59.0269
  0
VERTEX
  8
LAYER_9
 10
33.904
 20
56.933
 42
0.4141826911
  0
VERTEX
  8
LAYER_9
 10
34.0705
 20
56.7664
 42
0.4142664136
  0
VERTEX
  8
LAYER_9
 10
34.2371
 20
56.933
  0
SEQEND
  0
POLYLINE
  8
LAYER_9
 40
0.1976
 41
0.1976
 66
1
 10
0
 20
0
 30
0
 70
1
  0
VERTEX
  8
LAYER_9
 10
34.4391
 20
59.0269
 42
0.1071962359
  0
VERTEX
  8
LAYER_9
 10
34.475
 20
59.1935
 42
0.4142088035
  0
VERTEX
  8
LAYER_9
 10
34.0705
 20
59.598
 42
0.4141743269
  0
VERTEX
  8
LAYER_9
 10
33.666
 20
59.1935
 42
0.106939844
  0
VERTEX
  8
LAYER_9
 10
33.7019
 20
59.0269
  0
VERTEX
  8
LAYER_9
 10
33.904
 20
56.933
 42
0.4141826909
  0
VERTEX
  8
LAYER_9
 10
34.0705
 20
56.7664
 42
0.4142664136
  0
VERTEX
  8
LAYER_9
 10
34.2371
 20
56.933
  0
SEQEND
  0
POLYLINE
  8
LAYER_9
 40
0.05
 41
0.05
 66
1
 10
0
 20
0
 30
0
 70
1
  0
VERTEX
  8
LAYER_9
 10
34.4391
 20
59.0269
 42
0.3454138432
  0
VERTEX
  8
LAYER_9
 10
34.3201
 20
59.5118
 42
0.3453008769
  0
VERTEX
  8
LAYER_9
 10
33.8209
 20
59.5118
 42
0.3453743534
  0
VERTEX
  8
LAYER_9
 10
33.7019
 20
59.0269
  0
VERTEX
  8
LAYER_9
 10
33.907
 20
56.9011
 42
0.3588168702
  0
VERTEX
  8
LAYER_9
 10
34.0705
 20
56.7664
 42
0.358882092
  0
VERTEX
  8
LAYER_9
 10
34.234
 20
56.9011
  0
SEQEND
  0
POLYLINE
  8
LAYER_9
 40
0.2999
 41
0.2999
 66
1
 10
0
 20
0
 30
0
 70
1
  0
VERTEX
  8
LAYER_9
 10
93.6166
 20
17.9587
  0
VERTEX
  8
LAYER_9
 10
12.7318
 20
17.9587
  0
VERTEX
  8
LAYER_9
 10
12.7318
 20
61.9111
  0
VERTEX
  8
LAYER_9
 10
93.6166
 20
61.9111
  0
SEQEND
  0
TEXT
  8
LAYER_9
 10
39.8893
 20
55.9045
 11
39.8893
 21
55.9045
 40
4.0073
 41
0.5
  1
安全に関するご注意
  0
TEXT
  8
LAYER_9
 10
140.6807
 20
57.3172
 11
140.6807
 21
57.3172
 40
3.4786
 41
0.5
  1
特記事項
  0
TEXT
  8
LAYER_9
 10
140.6807
 20
52.5316
 11
140.6807
 21
52.5316
 40
3.4786
 41
0.5
  1
拡大倍率３倍
  0
TEXT
  8
LAYER_9
 10
140.6807
 20
45.5316
 11
140.6807
 21
45.5316
 40
3.4786
 41
0.5
  1
灯具可動
  0
TEXT
  8
LAYER_9
 10
140.6139
 20
49.0316
 11
140.6139
 21
49.0316
 40
3.4786
 41
0.5
  1
スイッチ付き
  0
TEXT
  8
LAYER_9
 10
131.4373
 20
258.5547
 11
131.4373
 21
258.5547
 40
4.1743
 41
0.5
 72
1
  1
拡散板
  0
TEXT
  8
LAYER_9
 10
152.369
 20
258.5547
 11
152.369
 21
258.5547
 40
4.1743
 41
0.5
 72
1
  1
樹脂
  0
TEXT
  8
LAYER_9
 10
185.4571
 20
258.5547
 11
185.4571
 21
258.5547
 40
4.1743
 41
0.5
 72
1
  1
透明フロスト
  0
TEXT
  8
LAYER_9
 10
166.0136
 20
258.6116
 11
166.0136
 21
258.6116
 40
4.7587
 41
0.5
 72
1
  1
1
  0
TEXT
  8
LAYER_9
 10
152.369
 20
248.5547
 11
152.369
 21
248.5547
 40
4.1743
 41
0.5
 72
1
  1
鋼板
  0
TEXT
  8
LAYER_9
 10
152.369
 20
243.5548
 11
152.369
 21
243.5548
 40
4.1743
 41
0.5
 72
1
  1
鋼板
  0
TEXT
  8
LAYER_9
 10
127.3544
 20
49.8641
 11
127.3544
 21
49.8641
 40
3.4786
 41
0.5
 72
1
  1
壁面取付
  0
TEXT
  8
LAYER_9
 10
127.3544
 20
44.8641
 11
127.3544
 21
44.8641
 40
3.4786
 41
0.5
 72
1
  1
直結線
  0
TEXT
  8
LAYER_9
 10
128.0034
 20
39.7639
 11
128.0034
 21
39.7639
 40
3.9656
 41
0.5
 72
1
  1
4000K
  0
TEXT
  8
LAYER_9
 10
128.8004
 20
34.7639
 11
128.8004
 21
34.7639
 40
3.9656
 41
0.5
 72
1
  1
Ra80
  0
TEXT
  8
LAYER_9
 10
128.4238
 20
29.7639
 11
128.4238
 21
29.7639
 40
3.9656
 41
0.5
 72
1
  1
30,000H
  0
TEXT
  8
LAYER_9
 10
128.7007
 20
24.7639
 11
128.7007
 21
24.7639
 40
3.9656
 41
0.5
 72
1
  1
77lm
  0
TEXT
  8
LAYER_9
 10
131.4919
 20
19.2639
 11
131.4919
 21
19.2639
 40
3.9656
 41
0.5
 72
1
  1
24.8lm/w
  0
TEXT
  8
LAYER_9
 10
174.5507
 20
65.7639
 11
174.5507
 21
65.7639
 40
3.9656
 41
0.5
 72
1
  1
0.058
  0
TEXT
  8
LAYER_9
 10
186.8059
 20
65.7639
 11
186.8059
 21
65.7639
 40
3.9656
 41
0.5
 72
1
  1
3.1
  0
TEXT
  8
LAYER_10
 10
2157.7653
 20
-305.2623
 11
2157.7653
 21
-305.2623
 40
3.1724
 41
0.5
  1
 
  0
TEXT
  8
LAYER_10
 10
2157.7653
 20
-291.814
 11
2157.7653
 21
-291.814
 40
3.1724
 41
0.5
  1
 
  0
TEXT
  8
LAYER_10
 10
2160.4249
 20
-309.2479
 11
2160.4249
 21
-309.2479
 40
3.1724
 41
0.5
  1
 
  0
TEXT
  8
LAYER_10
 10
2160.4249
 20
-295.3144
 11
2160.4249
 21
-295.3144
 40
3.1724
 41
0.5
  1
 
  0
TEXT
  8
LAYER_10
 10
2157.7653
 20
-301.7281
 11
2157.7653
 21
-301.7281
 40
3.1724
 41
0.5
  1
 
  0
TEXT
  8
LAYER_10
 10
2157.7653
 20
-316.3307
 11
2157.7653
 21
-316.3307
 40
3.1724
 41
0.5
  1
 
  0
TEXT
  8
LAYER_10
 10
2157.7653
 20
-319.9557
 11
2157.7653
 21
-319.9557
 40
3.1724
 41
0.5
  1
 
  0
TEXT
  8
LAYER_10
 10
13.7318
 20
34.7938
 11
13.7318
 21
34.7938
 40
3.1724
 41
0.5
  1
   場所及び腐食性ガス等の発生する場所では使用できません。
  0
TEXT
  8
LAYER_10
 10
12.741
 20
48.3224
 11
12.741
 21
48.3224
 40
3.1724
 41
0.5
  1
・本器具は、5～35℃の温度範囲で使用するよう設計しています。
  0
TEXT
  8
LAYER_10
 10
16.3915
 20
30.8885
 11
16.3915
 21
30.8885
 40
2.7829
 41
0.5
  1
器具落下・感電の原因となります。
  0
TEXT
  8
LAYER_10
 10
16.3915
 20
44.822
 11
16.3915
 21
44.822
 40
2.7829
 41
0.5
  1
高温で使用すると火災の原因となります。
  0
TEXT
  8
LAYER_10
 10
12.741
 20
38.4083
 11
12.741
 21
38.4083
 40
2.7829
 41
0.5
  1
・本器具は、屋内専用です。屋外や水気・湿気のある
  0
TEXT
  8
LAYER_10
 10
12.741
 20
23.8056
 11
12.741
 21
23.8056
 40
2.7829
 41
0.5
  1
・本器具は、壁面取り付け専用です。
  0
TEXT
  8
LAYER_10
 10
13.7318
 20
20.1004
 11
13.7318
 21
20.1004
 40
3.1724
 41
0.5
  1
   指定以外の取付けを行うと火災・器具落下の原因となります。
  0
CIRCLE
  8
LAYER_10
 10
89.9514
 20
205.6167
 40
4
  0
TEXT
  8
LAYER_10
 10
86.3
 20
203.1986
 11
86.3
 21
203.1986
 40
7.138
 41
0.5
  1
 1
  0
CIRCLE
  8
LAYER_10
 10
102.5018
 20
205.6167
 40
4
  0
TEXT
  8
LAYER_10
 10
98.8504
 20
203.1986
 11
98.8504
 21
203.1986
 40
7.138
 41
0.5
  1
 2
  0
CIRCLE
  8
LAYER_10
 10
115.0521
 20
205.6167
 40
4
  0
TEXT
  8
LAYER_10
 10
111.4007
 20
203.1986
 11
111.4007
 21
203.1986
 40
7.138
 41
0.5
  1
 3
  0
CIRCLE
  8
LAYER_10
 10
127.6025
 20
205.6167
 40
4
  0
TEXT
  8
LAYER_10
 10
123.9511
 20
203.1986
 11
123.9511
 21
203.1986
 40
7.138
 41
0.5
  1
 4
  0
CIRCLE
  8
LAYER_10
 10
140.1528
 20
205.6167
 40
4
  0
TEXT
  8
LAYER_10
 10
136.5014
 20
203.1986
 11
136.5014
 21
203.1986
 40
7.138
 41
0.5
  1
 5
  0
TEXT
  8
LAYER_11
 10
184.2802
 20
184.3649
 11
184.2802
 21
184.3649
 40
5.5657
 41
0.5
 72
1
  1
可動範囲
  0
INSERT
  8
LAYER_11
  2
AIGNBL0B010002
 10
0
 20
0
 30
0
  0
TEXT
  8
LAYER_11
 10
86.5187
 20
265.3279
 11
86.5187
 21
265.3279
 40
7.9311
 41
0.5
 72
1
  1
OLP-2020023
  0
POLYLINE
  8
LAYER_15
 40
0.0353
 41
0.0353
 66
1
 10
0
 20
0
 30
0
  0
VERTEX
  8
LAYER_15
 10
186.0405
 20
231.9752
 42
0.298237728
  0
VERTEX
  8
LAYER_15
 10
183.8372
 20
228.6099
 42
0.2982382399
  0
VERTEX
  8
LAYER_15
 10
186.0405
 20
225.2446
  0
SEQEND
  0
POLYLINE
  8
LAYER_15
 40
0.05
 41
0.05
 66
1
 10
0
 20
0
 30
0
 70
1
  0
VERTEX
  8
LAYER_15
 10
185.9895
 20
232.2199
  0
VERTEX
  8
LAYER_15
 10
186.0916
 20
231.7304
  0
VERTEX
  8
LAYER_15
 10
187.5089
 20
232.2816
  0
SEQEND
  0
POLYLINE
  8
LAYER_15
 40
0.05
 41
0.05
 66
1
 10
0
 20
0
 30
0
 70
1
  0
VERTEX
  8
LAYER_15
 10
186.0916
 20
225.4893
  0
VERTEX
  8
LAYER_15
 10
185.9895
 20
224.9999
  0
VERTEX
  8
LAYER_15
 10
187.5089
 20
224.9382
  0
SEQEND
  0
TEXT
  8
LAYER_15
 10
186.4933
 20
235.4852
 11
186.4933
 21
235.4852
 40
4.7587
 41
0.5
 72
1
  1
180%%d
  0
POLYLINE
  8
LAYER_15
 40
0.0353
 41
0.0353
 66
1
 10
0
 20
0
 30
0
  0
VERTEX
  8
LAYER_15
 10
162.9776
 20
225.2226
 42
0.2988699576
  0
VERTEX
  8
LAYER_15
 10
165.2009
 20
228.6099
 42
0.298869447
  0
VERTEX
  8
LAYER_15
 10
162.9776
 20
231.9972
  0
SEQEND
  0
POLYLINE
  8
LAYER_15
 40
0.05
 41
0.05
 66
1
 10
0
 20
0
 30
0
 70
1
  0
VERTEX
  8
LAYER_15
 10
163.0284
 20
224.9778
  0
VERTEX
  8
LAYER_15
 10
162.9269
 20
225.4674
  0
VERTEX
  8
LAYER_15
 10
161.5089
 20
224.9179
  0
SEQEND
  0
POLYLINE
  8
LAYER_15
 40
0.05
 41
0.05
 66
1
 10
0
 20
0
 30
0
 70
1
  0
VERTEX
  8
LAYER_15
 10
162.9269
 20
231.7524
  0
VERTEX
  8
LAYER_15
 10
163.0284
 20
232.242
  0
VERTEX
  8
LAYER_15
 10
161.5089
 20
232.3019
  0
SEQEND
  0
TEXT
  8
LAYER_15
 10
166.6635
 20
235.6157
 11
166.6635
 21
235.6157
 40
4.7587
 41
0.5
 72
1
  1
180%%d
  0
POLYLINE
  8
LAYER_15
 40
0.05
 41
0.05
 66
1
 10
0
 20
0
 30
0
 70
1
  0
VERTEX
  8
LAYER_15
 10
175.6023
 20
230.1453
  0
VERTEX
  8
LAYER_15
 10
175.1153
 20
230.0323
  0
VERTEX
  8
LAYER_15
 10
175.6979
 20
228.6276
  0
SEQEND
  0
TEXT
  8
LAYER_15
 10
175.5606
 20
220.7391
 11
175.5606
 21
220.7391
 40
4.7587
 41
0.5
 72
1
  1
360%%d
  0
CIRCLE
  8
LAYER_15
 10
172.0089
 20
228.6099
 40
3.692
  0
POLYLINE
  8
LAYER_15
 40
0.05
 41
0.05
 66
1
 10
0
 20
0
 30
0
 70
1
  0
VERTEX
  8
LAYER_15
 10
175.6023
 20
227.1099
  0
VERTEX
  8
LAYER_15
 10
175.1153
 20
227.223
  0
VERTEX
  8
LAYER_15
 10
175.6979
 20
228.6276
  0
SEQEND
  0
POLYLINE
  8
LAYER_15
  6
AIGENLINE002
 40
0.0353
 41
0.0353
 66
1
 10
0
 20
0
 30
0
 70
128
  0
VERTEX
  8
LAYER_15
 10
160.2405
 20
212.6128
  0
VERTEX
  8
LAYER_15
 10
151.6613
 20
194.2147
  0
SEQEND
  0
POLYLINE
  8
LAYER_15
  6
AIGENLINE002
 40
0.0353
 41
0.0353
 66
1
 10
0
 20
0
 30
0
 70
129
  0
VERTEX
  8
LAYER_15
 10
153.7367
 20
193.578
 42
-0.2914580028
  0
VERTEX
  8
LAYER_15
 10
153.4648
 20
193.4048
 42
-0.1097189217
  0
VERTEX
  8
LAYER_15
 10
153.338
 20
193.4329
  0
VERTEX
  8
LAYER_15
 10
151.1629
 20
194.4472
  0
VERTEX
  8
LAYER_15
 10
159.742
 20
212.8452
  0
VERTEX
  8
LAYER_15
 10
161.9171
 20
211.831
 42
-0.2914907851
  0
VERTEX
  8
LAYER_15
 10
162.0904
 20
211.5591
 42
-0.1097189217
  0
VERTEX
  8
LAYER_15
 10
162.0623
 20
211.4323
  0
SEQEND
  0
POLYLINE
  8
LAYER_15
  6
AIGENLINE002
 40
0.0353
 41
0.0353
 66
1
 10
0
 20
0
 30
0
 70
128
  0
VERTEX
  8
LAYER_15
 10
151.6613
 20
209.5277
  0
VERTEX
  8
LAYER_15
 10
160.2405
 20
191.1296
  0
SEQEND
  0
POLYLINE
  8
LAYER_15
  6
AIGENLINE002
 40
0.0353
 41
0.0353
 66
1
 10
0
 20
0
 30
0
 70
129
  0
VERTEX
  8
LAYER_15
 10
161.9171
 20
191.9115
  0
VERTEX
  8
LAYER_15
 10
159.742
 20
190.8972
  0
VERTEX
  8
LAYER_15
 10
151.1629
 20
209.2952
  0
VERTEX
  8
LAYER_15
 10
153.338
 20
210.3095
 42
-0.1096546713
  0
VERTEX
  8
LAYER_15
 10
153.4648
 20
210.3376
 42
-0.291479982
  0
VERTEX
  8
LAYER_15
 10
153.7367
 20
210.1644
  0
VERTEX
  8
LAYER_15
 10
162.0623
 20
192.3102
 42
-0.1095775921
  0
VERTEX
  8
LAYER_15
 10
162.0904
 20
192.1834
 42
-0.2915289836
  0
SEQEND
  0
INSERT
  8
LAYER_15
  2
AIGNBL0F010002
 10
0
 20
0
 30
0
  0
INSERT
  8
LAYER_15
  2
AIGNBL0F010008
 10
0
 20
0
 30
0
  0
POLYLINE
  8
LAYER_15
 40
0.0353
 41
0.0353
 66
1
 10
0
 20
0
 30
0
  0
VERTEX
  8
LAYER_15
 10
155.6089
 20
238.7599
  0
VERTEX
  8
LAYER_15
 10
155.6089
 20
218.4599
  0
SEQEND
  0
POLYLINE
  8
LAYER_15
 40
0.0353
 41
0.0353
 66
1
 10
0
 20
0
 30
0
 70
1
  0
VERTEX
  8
LAYER_15
 10
157.4589
 20
218.4599
  0
VERTEX
  8
LAYER_15
 10
155.0589
 20
218.4599
  0
VERTEX
  8
LAYER_15
 10
155.0589
 20
238.7599
  0
VERTEX
  8
LAYER_15
 10
157.4589
 20
238.7599
 42
-0.4142304476
  0
VERTEX
  8
LAYER_15
 10
157.7589
 20
238.4599
  0
VERTEX
  8
LAYER_15
 10
157.7589
 20
218.7599
 42
-0.4142416727
  0
SEQEND
  0
POLYLINE
  8
LAYER_15
 40
0.0353
 41
0.0353
 66
1
 10
0
 20
0
 30
0
  0
VERTEX
  8
LAYER_15
 10
188.5766
 20
229.2599
  0
VERTEX
  8
LAYER_15
 10
189.2589
 20
229.2599
  0
SEQEND
  0
POLYLINE
  8
LAYER_15
 40
0.0353
 41
0.0353
 66
1
 10
0
 20
0
 30
0
  0
VERTEX
  8
LAYER_15
 10
188.5766
 20
227.9599
  0
VERTEX
  8
LAYER_15
 10
189.2589
 20
227.9599
  0
SEQEND
  0
POLYLINE
  8
LAYER_15
 40
0.0353
 41
0.0353
 66
1
 10
0
 20
0
 30
0
  0
VERTEX
  8
LAYER_15
 10
186.4733
 20
227.9099
  0
VERTEX
  8
LAYER_15
 10
173.0445
 20
227.9099
  0
SEQEND
  0
POLYLINE
  8
LAYER_15
 40
0.0353
 41
0.0353
 66
1
 10
0
 20
0
 30
0
  0
VERTEX
  8
LAYER_15
 10
170.9733
 20
227.9099
  0
VERTEX
  8
LAYER_15
 10
162.5445
 20
227.9099
  0
SEQEND
  0
POLYLINE
  8
LAYER_15
 40
0.0353
 41
0.0353
 66
1
 10
0
 20
0
 30
0
  0
VERTEX
  8
LAYER_15
 10
186.4733
 20
229.3099
  0
VERTEX
  8
LAYER_15
 10
173.0445
 20
229.3099
  0
SEQEND
  0
POLYLINE
  8
LAYER_15
 40
0.0353
 41
0.0353
 66
1
 10
0
 20
0
 30
0
  0
VERTEX
  8
LAYER_15
 10
170.9733
 20
229.3099
  0
VERTEX
  8
LAYER_15
 10
162.5445
 20
229.3099
  0
SEQEND
  0
POLYLINE
  8
LAYER_15
 40
0.0353
 41
0.0353
 66
1
 10
0
 20
0
 30
0
  0
VERTEX
  8
LAYER_15
 10
157.7589
 20
225.9599
  0
VERTEX
  8
LAYER_15
 10
158.1589
 20
225.9599
  0
SEQEND
  0
POLYLINE
  8
LAYER_15
 40
0.0353
 41
0.0353
 66
1
 10
0
 20
0
 30
0
  0
VERTEX
  8
LAYER_15
 10
157.7589
 20
227.2599
  0
VERTEX
  8
LAYER_15
 10
158.1589
 20
227.2599
  0
SEQEND
  0
POLYLINE
  8
LAYER_15
 40
0.0353
 41
0.0353
 66
1
 10
0
 20
0
 30
0
  0
VERTEX
  8
LAYER_15
 10
157.7589
 20
231.2599
  0
VERTEX
  8
LAYER_15
 10
158.1589
 20
231.2599
  0
SEQEND
  0
POLYLINE
  8
LAYER_15
 40
0.0353
 41
0.0353
 66
1
 10
0
 20
0
 30
0
  0
VERTEX
  8
LAYER_15
 10
157.7589
 20
229.9599
  0
VERTEX
  8
LAYER_15
 10
158.1589
 20
229.9599
  0
SEQEND
  0
POLYLINE
  8
LAYER_15
 40
0.0353
 41
0.0353
 66
1
 10
0
 20
0
 30
0
  0
VERTEX
  8
LAYER_15
 10
160.3589
 20
228.12
  0
VERTEX
  8
LAYER_15
 10
160.3589
 20
225.9099
  0
VERTEX
  8
LAYER_15
 10
158.1589
 20
225.9099
  0
VERTEX
  8
LAYER_15
 10
158.1589
 20
231.3099
  0
VERTEX
  8
LAYER_15
 10
160.3589
 20
231.3099
  0
VERTEX
  8
LAYER_15
 10
160.3589
 20
229.0998
  0
SEQEND
  0
CIRCLE
  8
LAYER_15
 10
161.5089
 20
228.6099
 40
1.25
  0
CIRCLE
  8
LAYER_15
 10
187.5089
 20
228.6099
 40
1.25
  0
POLYLINE
  8
LAYER_15
 40
0.0353
 41
0.0353
 66
1
 10
0
 20
0
 30
0
 70
1
  0
VERTEX
  8
LAYER_15
 10
189.5589
 20
223.6099
  0
VERTEX
  8
LAYER_15
 10
192.0589
 20
223.6099
  0
VERTEX
  8
LAYER_15
 10
192.0589
 20
233.6099
  0
VERTEX
  8
LAYER_15
 10
189.5589
 20
233.6099
 42
0.4141854542
  0
VERTEX
  8
LAYER_15
 10
189.2589
 20
233.3099
  0
VERTEX
  8
LAYER_15
 10
189.2589
 20
223.9099
 42
0.4141966759
  0
SEQEND
  0
CIRCLE
  8
LAYER_15
 10
172.0089
 20
228.6099
 40
1.25
  0
POLYLINE
  8
LAYER_15
 40
0.0353
 41
0.0353
 66
1
 10
0
 20
0
 30
0
  0
VERTEX
  8
LAYER_15
 10
160.3589
 20
231.3099
 42
0.2173760908
  0
VERTEX
  8
LAYER_15
 10
160.2922
 20
231.3421
 42
0.03751538375
  0
VERTEX
  8
LAYER_15
 10
159.8848
 20
231.3869
 42
0.01388659485
  0
VERTEX
  8
LAYER_15
 10
159.2589
 20
231.4036
 42
0.03493294434
  0
VERTEX
  8
LAYER_15
 10
158.2981
 20
231.3555
 42
0.319471719
  0
VERTEX
  8
LAYER_15
 10
158.1589
 20
231.3099
  0
SEQEND
  0
POLYLINE
  8
LAYER_15
 40
0.0353
 41
0.0353
 66
1
 10
0
 20
0
 30
0
  0
VERTEX
  8
LAYER_15
 10
160.3589
 20
225.9099
 42
0.2173760908
  0
VERTEX
  8
LAYER_15
 10
160.2922
 20
225.9421
 42
0.03751538375
  0
VERTEX
  8
LAYER_15
 10
159.8848
 20
225.9869
 42
0.01388659485
  0
VERTEX
  8
LAYER_15
 10
159.2589
 20
226.0036
 42
0.03493294434
  0
VERTEX
  8
LAYER_15
 10
158.2981
 20
225.9555
 42
0.319471719
  0
VERTEX
  8
LAYER_15
 10
158.1589
 20
225.9099
  0
SEQEND
  0
CIRCLE
  8
LAYER_15
 10
159.2589
 20
225.3662
 40
0.45
  0
POLYLINE
  8
LAYER_15
 40
0.0353
 41
0.0353
 66
1
 10
0
 20
0
 30
0
  0
VERTEX
  8
LAYER_15
 10
160.6288
 20
224.6855
  0
VERTEX
  8
LAYER_15
 10
159.9396
 20
223.9963
  0
SEQEND
  0
POLYLINE
  8
LAYER_15
 40
0.0353
 41
0.0353
 66
1
 10
0
 20
0
 30
0
  0
VERTEX
  8
LAYER_15
 10
159.3961
 20
224.9376
  0
VERTEX
  8
LAYER_15
 10
159.9396
 20
223.9963
  0
VERTEX
  8
LAYER_15
 10
160.3858
 20
223.8767
  0
VERTEX
  8
LAYER_15
 10
160.7484
 20
224.2394
  0
VERTEX
  8
LAYER_15
 10
160.6288
 20
224.6855
  0
VERTEX
  8
LAYER_15
 10
159.6875
 20
225.229
  0
SEQEND
  0
POLYLINE
  8
LAYER_15
 40
0.0353
 41
0.0353
 66
1
 10
0
 20
0
 30
0
 70
1
  0
VERTEX
  8
LAYER_15
 10
189.5589
 20
191.7212
  0
VERTEX
  8
LAYER_15
 10
192.0589
 20
191.7212
  0
VERTEX
  8
LAYER_15
 10
192.0589
 20
203.6212
  0
VERTEX
  8
LAYER_15
 10
189.5589
 20
203.6212
 42
0.4142041585
  0
VERTEX
  8
LAYER_15
 10
189.2589
 20
203.3212
  0
VERTEX
  8
LAYER_15
 10
189.2589
 20
192.0212
 42
0.4141779717
  0
SEQEND
  0
POLYLINE
  8
LAYER_15
 40
0.0353
 41
0.0353
 66
1
 10
0
 20
0
 30
0
  0
VERTEX
  8
LAYER_15
 10
188.7589
 20
198.7462
  0
VERTEX
  8
LAYER_15
 10
186.2589
 20
198.7462
  0
SEQEND
  0
POLYLINE
  8
LAYER_15
 40
0.0353
 41
0.0353
 66
1
 10
0
 20
0
 30
0
  0
VERTEX
  8
LAYER_15
 10
188.7589
 20
198.6462
  0
VERTEX
  8
LAYER_15
 10
186.2589
 20
198.6462
  0
SEQEND
  0
POLYLINE
  8
LAYER_15
 40
0.0353
 41
0.0353
 66
1
 10
0
 20
0
 30
0
  0
VERTEX
  8
LAYER_15
 10
188.7589
 20
196.1962
  0
VERTEX
  8
LAYER_15
 10
186.2589
 20
196.1962
  0
SEQEND
  0
POLYLINE
  8
LAYER_15
 40
0.0353
 41
0.0353
 66
1
 10
0
 20
0
 30
0
  0
VERTEX
  8
LAYER_15
 10
188.7589
 20
196.2962
  0
VERTEX
  8
LAYER_15
 10
186.2589
 20
196.2962
  0
SEQEND
  0
POLYLINE
  8
LAYER_15
 40
0.0353
 41
0.0353
 66
1
 10
0
 20
0
 30
0
  0
VERTEX
  8
LAYER_15
 10
188.7589
 20
196.0987
  0
VERTEX
  8
LAYER_15
 10
189.2589
 20
196.0987
  0
SEQEND
  0
POLYLINE
  8
LAYER_15
 40
0.0353
 41
0.0353
 66
1
 10
0
 20
0
 30
0
  0
VERTEX
  8
LAYER_15
 10
188.7589
 20
194.7987
  0
VERTEX
  8
LAYER_15
 10
189.2589
 20
194.7987
  0
SEQEND
  0
POLYLINE
  8
LAYER_15
 40
0.0353
 41
0.0353
 66
1
 10
0
 20
0
 30
0
  0
VERTEX
  8
LAYER_15
 10
188.7589
 20
200.1438
  0
VERTEX
  8
LAYER_15
 10
189.2589
 20
200.1438
  0
SEQEND
  0
POLYLINE
  8
LAYER_15
 40
0.0353
 41
0.0353
 66
1
 10
0
 20
0
 30
0
  0
VERTEX
  8
LAYER_15
 10
170.7589
 20
200.3712
  0
VERTEX
  8
LAYER_15
 10
170.7589
 20
200.7212
  0
VERTEX
  8
LAYER_15
 10
173.2589
 20
200.7212
  0
VERTEX
  8
LAYER_15
 10
173.2589
 20
198.1712
  0
SEQEND
  0
POLYLINE
  8
LAYER_15
 40
0.0353
 41
0.0353
 66
1
 10
0
 20
0
 30
0
  0
VERTEX
  8
LAYER_15
 10
173.2589
 20
198.6212
  0
VERTEX
  8
LAYER_15
 10
170.7589
 20
198.6212
  0
SEQEND
  0
POLYLINE
  8
LAYER_15
 40
0.0353
 41
0.0353
 66
1
 10
0
 20
0
 30
0
  0
VERTEX
  8
LAYER_15
 10
173.2589
 20
198.5212
  0
VERTEX
  8
LAYER_15
 10
170.7589
 20
198.5212
  0
SEQEND
  0
POLYLINE
  8
LAYER_15
 40
0.0353
 41
0.0353
 66
1
 10
0
 20
0
 30
0
  0
VERTEX
  8
LAYER_15
 10
170.7589
 20
198.9712
  0
VERTEX
  8
LAYER_15
 10
170.7589
 20
196.4212
  0
VERTEX
  8
LAYER_15
 10
173.2589
 20
196.4212
  0
VERTEX
  8
LAYER_15
 10
173.2589
 20
196.7712
  0
SEQEND
  0
POLYLINE
  8
LAYER_15
 40
0.0353
 41
0.0353
 66
1
 10
0
 20
0
 30
0
  0
VERTEX
  8
LAYER_15
 10
162.7589
 20
200.8212
  0
VERTEX
  8
LAYER_15
 10
160.2589
 20
200.8212
  0
SEQEND
  0
POLYLINE
  8
LAYER_15
 40
0.0353
 41
0.0353
 66
1
 10
0
 20
0
 30
0
  0
VERTEX
  8
LAYER_15
 10
162.7589
 20
200.7212
  0
VERTEX
  8
LAYER_15
 10
160.2589
 20
200.7212
  0
SEQEND
  0
POLYLINE
  8
LAYER_15
 40
0.0353
 41
0.0353
 66
1
 10
0
 20
0
 30
0
  0
VERTEX
  8
LAYER_15
 10
155.6089
 20
212.0212
  0
VERTEX
  8
LAYER_15
 10
155.6089
 20
191.7212
  0
SEQEND
  0
POLYLINE
  8
LAYER_15
 40
0.0353
 41
0.0353
 66
1
 10
0
 20
0
 30
0
 70
1
  0
VERTEX
  8
LAYER_15
 10
157.4589
 20
191.7212
  0
VERTEX
  8
LAYER_15
 10
155.0589
 20
191.7212
  0
VERTEX
  8
LAYER_15
 10
155.0589
 20
212.0212
  0
VERTEX
  8
LAYER_15
 10
157.4589
 20
212.0212
 42
-0.414249158
  0
VERTEX
  8
LAYER_15
 10
157.7589
 20
211.7212
  0
VERTEX
  8
LAYER_15
 10
157.7589
 20
192.0212
 42
-0.4142229624
  0
SEQEND
  0
POLYLINE
  8
LAYER_15
 40
0.0353
 41
0.0353
 66
1
 10
0
 20
0
 30
0
  0
VERTEX
  8
LAYER_15
 10
158.8831
 20
202.905
 42
0.3154065139
  0
VERTEX
  8
LAYER_15
 10
158.1589
 20
201.8712
 42
0.4142038553
  0
VERTEX
  8
LAYER_15
 10
159.2589
 20
200.7712
 42
0.4142161266
  0
VERTEX
  8
LAYER_15
 10
160.3589
 20
201.8712
 42
0.3153938528
  0
VERTEX
  8
LAYER_15
 10
159.6348
 20
202.905
  0
SEQEND
  0
POLYLINE
  8
LAYER_15
 40
0.0353
 41
0.0353
 66
1
 10
0
 20
0
 30
0
  0
VERTEX
  8
LAYER_15
 10
157.7589
 20
201.2212
  0
VERTEX
  8
LAYER_15
 10
158.3715
 20
201.2212
  0
SEQEND
  0
POLYLINE
  8
LAYER_15
 40
0.0353
 41
0.0353
 66
1
 10
0
 20
0
 30
0
  0
VERTEX
  8
LAYER_15
 10
157.7589
 20
202.5212
  0
VERTEX
  8
LAYER_15
 10
158.3715
 20
202.5212
  0
SEQEND
  0
CIRCLE
  8
LAYER_15
 10
159.2589
 20
201.8712
 40
0.45
  0
POLYLINE
  8
LAYER_15
 40
0.0353
 41
0.0353
 66
1
 10
0
 20
0
 30
0
  0
VERTEX
  8
LAYER_15
 10
158.7716
 20
203.3212
  0
VERTEX
  8
LAYER_15
 10
159.7463
 20
203.3212
  0
SEQEND
  0
POLYLINE
  8
LAYER_15
 40
0.0353
 41
0.0353
 66
1
 10
0
 20
0
 30
0
  0
VERTEX
  8
LAYER_15
 10
159.4649
 20
202.2713
  0
VERTEX
  8
LAYER_15
 10
159.7463
 20
203.3212
  0
VERTEX
  8
LAYER_15
 10
159.5153
 20
203.7212
  0
VERTEX
  8
LAYER_15
 10
159.0025
 20
203.7212
  0
VERTEX
  8
LAYER_15
 10
158.7716
 20
203.3212
  0
VERTEX
  8
LAYER_15
 10
159.0529
 20
202.2713
  0
SEQEND
  0
POLYLINE
  8
LAYER_15
 40
0.0353
 41
0.0353
 66
1
 10
0
 20
0
 30
0
  0
VERTEX
  8
LAYER_15
 10
162.7589
 20
200.3712
 42
0.1804243116
  0
VERTEX
  8
LAYER_15
 10
162.4978
 20
199.6712
 42
0.1804227292
  0
VERTEX
  8
LAYER_15
 10
162.7589
 20
198.9712
  0
SEQEND
  0
POLYLINE
  8
LAYER_15
 40
0.0353
 41
0.0353
 66
1
 10
0
 20
0
 30
0
  0
VERTEX
  8
LAYER_15
 10
186.2589
 20
198.1712
  0
VERTEX
  8
LAYER_15
 10
173.2589
 20
198.1712
 42
0.1804243116
  0
VERTEX
  8
LAYER_15
 10
172.9978
 20
197.4712
 42
0.1804227292
  0
VERTEX
  8
LAYER_15
 10
173.2589
 20
196.7712
  0
VERTEX
  8
LAYER_15
 10
186.2589
 20
196.7712
  0
SEQEND
  0
POLYLINE
  8
LAYER_15
 40
0.0353
 41
0.0353
 66
1
 10
0
 20
0
 30
0
  0
VERTEX
  8
LAYER_15
 10
160.2589
 20
202.3295
  0
VERTEX
  8
LAYER_15
 10
160.2589
 20
202.9212
  0
VERTEX
  8
LAYER_15
 10
162.7589
 20
202.9212
  0
VERTEX
  8
LAYER_15
 10
162.7589
 20
200.3712
  0
VERTEX
  8
LAYER_15
 10
170.7589
 20
200.3712
 42
-0.1804316005
  0
VERTEX
  8
LAYER_15
 10
171.02
 20
199.6712
 42
-0.1804300178
  0
VERTEX
  8
LAYER_15
 10
170.7589
 20
198.9712
  0
VERTEX
  8
LAYER_15
 10
162.7589
 20
198.9712
  0
VERTEX
  8
LAYER_15
 10
162.7589
 20
198.6212
  0
VERTEX
  8
LAYER_15
 10
160.2589
 20
198.6212
  0
VERTEX
  8
LAYER_15
 10
160.2589
 20
201.413
  0
SEQEND
  0
POLYLINE
  8
LAYER_15
 40
0.0353
 41
0.0353
 66
1
 10
0
 20
0
 30
0
 70
1
  0
VERTEX
  8
LAYER_15
 10
186.2589
 20
198.1712
 42
-0.1804315925
  0
VERTEX
  8
LAYER_15
 10
186.52
 20
197.4712
 42
-0.1804299977
  0
VERTEX
  8
LAYER_15
 10
186.2589
 20
196.7712
  0
VERTEX
  8
LAYER_15
 10
186.2589
 20
194.6462
  0
VERTEX
  8
LAYER_15
 10
188.7589
 20
194.6462
  0
VERTEX
  8
LAYER_15
 10
188.7589
 20
200.2962
  0
VERTEX
  8
LAYER_15
 10
186.2589
 20
200.2962
  0
SEQEND
  0
POLYLINE
  8
LAYER_15
 40
0.0353
 41
0.0353
 66
1
 10
0
 20
0
 30
0
  0
VERTEX
  8
LAYER_15
 10
188.7589
 20
198.8438
  0
VERTEX
  8
LAYER_15
 10
189.2589
 20
198.8438
  0
SEQEND
  0
CIRCLE
  8
LAYER_15
 10
190.7589
 20
228.6099
 40
0.325
  0
POLYLINE
  8
LAYER_15
 40
0.0353
 41
0.0353
 66
1
 10
0
 20
0
 30
0
 70
1
  0
VERTEX
  8
LAYER_15
 10
190.6589
 20
228.6599
  0
VERTEX
  8
LAYER_15
 10
190.5389
 20
228.6599
  0
VERTEX
  8
LAYER_15
 10
190.5389
 20
228.5599
  0
VERTEX
  8
LAYER_15
 10
190.6589
 20
228.5599
 42
-0.3925861464
  0
VERTEX
  8
LAYER_15
 10
190.7089
 20
228.5099
  0
VERTEX
  8
LAYER_15
 10
190.7089
 20
228.3899
  0
VERTEX
  8
LAYER_15
 10
190.8089
 20
228.3899
  0
VERTEX
  8
LAYER_15
 10
190.8089
 20
228.5099
 42
-0.3925861464
  0
VERTEX
  8
LAYER_15
 10
190.8589
 20
228.5599
  0
VERTEX
  8
LAYER_15
 10
190.9789
 20
228.5599
  0
VERTEX
  8
LAYER_15
 10
190.9789
 20
228.6599
  0
VERTEX
  8
LAYER_15
 10
190.8589
 20
228.6599
 42
-0.3925861464
  0
VERTEX
  8
LAYER_15
 10
190.8089
 20
228.7099
  0
VERTEX
  8
LAYER_15
 10
190.8089
 20
228.8299
  0
VERTEX
  8
LAYER_15
 10
190.7089
 20
228.8299
  0
VERTEX
  8
LAYER_15
 10
190.7089
 20
228.7099
 42
-0.3925861464
  0
SEQEND
  0
POLYLINE
  8
LAYER_15
 40
0.0353
 41
0.0353
 66
1
 10
0
 20
0
 30
0
  0
VERTEX
  8
LAYER_15
 10
45.2833
 20
231.3319
  0
VERTEX
  8
LAYER_15
 10
47.2701
 20
231.3319
  0
SEQEND
  0
ENDSEC
  0
EOF
