  0
SECTION
  2
HEADER
  9
$ACADVER
  1
AC1009
  9
$LUNITS
 70
2
  9
$LUPREC
 70
4
  9
$LTSCALE
 40
1.0
  9
$EXTMIN
 10
-30.3177
 20
33.3285
 30
0
  9
$EXTMAX
 10
251.6749
 20
230.337
 30
0
  0
ENDSEC
  0
SECTION
  2
TABLES
  0
TABLE
  2
LTYPE
 70
256
  0
ENDTAB
  0
TABLE
  2
LAYER
 70
8
  0
LAYER
  2
LAYER_1
 70
64
 62
7
  6
CONTINUOUS
  0
LAYER
  2
LAYER_2
 70
64
 62
7
  6
CONTINUOUS
  0
LAYER
  2
LAYER_3
 70
64
 62
7
  6
CONTINUOUS
  0
LAYER
  2
LAYER_4
 70
64
 62
7
  6
CONTINUOUS
  0
LAYER
  2
LAYER_5
 70
64
 62
7
  6
CONTINUOUS
  0
LAYER
  2
LAYER_6
 70
64
 62
7
  6
CONTINUOUS
  0
LAYER
  2
LAYER_7
 70
64
 62
7
  6
CONTINUOUS
  0
LAYER
  2
LAYER_8
 70
64
 62
7
  6
CONTINUOUS
  0
ENDTAB
  0
TABLE
  2
STYLE
 70
6
  0
STYLE
  2
STANDARD
 70
0
 40
0
 50
0
 71
0
 41
0
 42
0
  3
TXT
  4
BIGFONT
  0
ENDTAB
  0
ENDSEC
  0
SECTION
  2
BLOCKS
  0
BLOCK
  8
LAYER_8
  2
AIGNBL08040006
 70
64
 10
0
 20
0
 30
0
  3
AIGNBL08040006
  0
POLYLINE
  8
LAYER_8
 40
0.05
 41
0.05
 66
1
 10
0
 20
0
 30
0
 70
1
  0
VERTEX
  8
LAYER_8
 10
146.7545
 20
39.1418
  0
VERTEX
  8
LAYER_8
 10
146.2656
 20
37.9567
  0
VERTEX
  8
LAYER_8
 10
145.6376
 20
37.9567
  0
VERTEX
  8
LAYER_8
 10
147.2372
 20
41.7225
  0
VERTEX
  8
LAYER_8
 10
147.9703
 20
41.7225
  0
VERTEX
  8
LAYER_8
 10
149.5768
 20
37.9567
  0
VERTEX
  8
LAYER_8
 10
148.9267
 20
37.9567
  0
VERTEX
  8
LAYER_8
 10
148.424
 20
39.1418
  0
SEQEND
  0
POLYLINE
  8
LAYER_8
 40
0.05
 41
0.05
 66
1
 10
0
 20
0
 30
0
 70
1
  0
VERTEX
  8
LAYER_8
 10
148.2983
 20
39.5207
  0
VERTEX
  8
LAYER_8
 10
147.8373
 20
40.6056
 42
-0.02317247198
  0
VERTEX
  8
LAYER_8
 10
147.5927
 20
41.2926
  0
VERTEX
  8
LAYER_8
 10
147.5789
 20
41.2926
 42
-0.02064481114
  0
VERTEX
  8
LAYER_8
 10
147.3412
 20
40.6101
  0
VERTEX
  8
LAYER_8
 10
146.8806
 20
39.5207
  0
SEQEND
  0
ENDBLK
  0
BLOCK
  8
LAYER_8
  2
AIGNBL08040007
 70
64
 10
0
 20
0
 30
0
  3
AIGNBL08040007
  0
POLYLINE
  8
LAYER_8
 40
0.05
 41
0.05
 66
1
 10
0
 20
0
 30
0
 70
1
  0
VERTEX
  8
LAYER_8
 10
153.942
 20
37.4034
 42
-0.01520763512
  0
VERTEX
  8
LAYER_8
 10
152.1399
 20
37.8395
 42
0.09160443264
  0
VERTEX
  8
LAYER_8
 10
151.8533
 20
37.895
 42
-0.09256808484
  0
VERTEX
  8
LAYER_8
 10
150.8994
 20
38.0977
 42
-0.09799469934
  0
VERTEX
  8
LAYER_8
 10
150.2621
 20
38.5324
 42
-0.1630918382
  0
VERTEX
  8
LAYER_8
 10
149.7964
 20
39.5259
 42
-0.0316951694
  0
VERTEX
  8
LAYER_8
 10
149.7793
 20
39.7998
 42
-0.1055313794
  0
VERTEX
  8
LAYER_8
 10
149.9533
 20
40.6417
 42
-0.1619874109
  0
VERTEX
  8
LAYER_8
 10
150.7418
 20
41.4867
 42
-0.09224146328
  0
VERTEX
  8
LAYER_8
 10
151.5409
 20
41.7524
 42
-0.03717154931
  0
VERTEX
  8
LAYER_8
 10
151.9725
 20
41.7838
 42
-0.09530639066
  0
VERTEX
  8
LAYER_8
 10
152.9361
 20
41.6062
 42
-0.1001950085
  0
VERTEX
  8
LAYER_8
 10
153.5732
 20
41.1834
 42
-0.1611155306
  0
VERTEX
  8
LAYER_8
 10
154.0599
 20
40.1825
 42
-0.03590167283
  0
VERTEX
  8
LAYER_8
 10
154.0815
 20
39.8784
 42
-0.1066761192
  0
VERTEX
  8
LAYER_8
 10
153.9051
 20
39.0236
 42
-0.2183970027
  0
VERTEX
  8
LAYER_8
 10
152.7953
 20
38.0897
 42
-0.006706711403
  0
VERTEX
  8
LAYER_8
 10
152.7407
 20
38.0738
  0
VERTEX
  8
LAYER_8
 10
152.7407
 20
38.0514
 42
0.01533555045
  0
VERTEX
  8
LAYER_8
 10
154.117
 20
37.8113
  0
SEQEND
  0
POLYLINE
  8
LAYER_8
 40
0.05
 41
0.05
 66
1
 10
0
 20
0
 30
0
 70
1
  0
VERTEX
  8
LAYER_8
 10
153.4394
 20
39.857
 42
0.1175610784
  0
VERTEX
  8
LAYER_8
 10
153.257
 20
40.6254
 42
0.1170135141
  0
VERTEX
  8
LAYER_8
 10
152.8315
 20
41.1234
 42
0.1200044572
  0
VERTEX
  8
LAYER_8
 10
152.2186
 20
41.3675
 42
0.03774262044
  0
VERTEX
  8
LAYER_8
 10
151.9511
 20
41.3873
 42
0.1153139376
  0
VERTEX
  8
LAYER_8
 10
151.2089
 20
41.2226
 42
0.1853550912
  0
VERTEX
  8
LAYER_8
 10
150.5507
 20
40.4882
 42
0.09859892291
  0
VERTEX
  8
LAYER_8
 10
150.4287
 20
39.8122
 42
0.1178359247
  0
VERTEX
  8
LAYER_8
 10
150.5964
 20
39.0734
 42
0.2866694251
  0
VERTEX
  8
LAYER_8
 10
151.9232
 20
38.2912
 42
0.1188197759
  0
VERTEX
  8
LAYER_8
 10
152.6722
 20
38.4633
 42
0.1796740134
  0
VERTEX
  8
LAYER_8
 10
153.3126
 20
39.18
 42
0.09850052237
  0
SEQEND
  0
ENDBLK
  0
BLOCK
  8
LAYER_8
  2
AIGNBL08040008
 70
64
 10
0
 20
0
 30
0
  3
AIGNBL08040008
  0
POLYLINE
  8
LAYER_8
 40
0.05
 41
0.05
 66
1
 10
0
 20
0
 30
0
 70
1
  0
VERTEX
  8
LAYER_8
 10
155.4089
 20
41.7225
  0
VERTEX
  8
LAYER_8
 10
155.4089
 20
39.4932
 42
0.1220213404
  0
VERTEX
  8
LAYER_8
 10
155.569
 20
38.7775
 42
0.2218709818
  0
VERTEX
  8
LAYER_8
 10
156.2104
 20
38.3206
 42
0.05223876895
  0
VERTEX
  8
LAYER_8
 10
156.5055
 20
38.2912
 42
0.1302821267
  0
VERTEX
  8
LAYER_8
 10
157.1748
 20
38.452
 42
0.1509367336
  0
VERTEX
  8
LAYER_8
 10
157.526
 20
38.8454
 42
0.1174732039
  0
VERTEX
  8
LAYER_8
 10
157.651
 20
39.4932
  0
VERTEX
  8
LAYER_8
 10
157.651
 20
41.7225
  0
VERTEX
  8
LAYER_8
 10
158.2656
 20
41.7225
  0
VERTEX
  8
LAYER_8
 10
158.2656
 20
39.5266
 42
-0.1106199636
  0
VERTEX
  8
LAYER_8
 10
158.0961
 20
38.708
 42
-0.1822316276
  0
VERTEX
  8
LAYER_8
 10
157.4057
 20
38.0637
 42
-0.09768689614
  0
VERTEX
  8
LAYER_8
 10
156.6028
 20
37.8972
 42
-0.01000776787
  0
VERTEX
  8
LAYER_8
 10
156.4845
 20
37.895
 42
-0.09899539667
  0
VERTEX
  8
LAYER_8
 10
155.612
 20
38.0554
 42
-0.120955925
  0
VERTEX
  8
LAYER_8
 10
155.1093
 20
38.4366
 42
-0.1193006487
  0
VERTEX
  8
LAYER_8
 10
154.8407
 20
39.0316
 42
-0.05319923583
  0
VERTEX
  8
LAYER_8
 10
154.7943
 20
39.5045
  0
VERTEX
  8
LAYER_8
 10
154.7943
 20
41.7225
  0
SEQEND
  0
ENDBLK
  0
BLOCK
  8
LAYER_8
  2
AIGNBL08040009
 70
64
 10
0
 20
0
 30
0
  3
AIGNBL08040009
  0
POLYLINE
  8
LAYER_8
 40
0.05
 41
0.05
 66
1
 10
0
 20
0
 30
0
 70
1
  0
VERTEX
  8
LAYER_8
 10
160.0119
 20
39.1418
  0
VERTEX
  8
LAYER_8
 10
159.5227
 20
37.9567
  0
VERTEX
  8
LAYER_8
 10
158.8947
 20
37.9567
  0
VERTEX
  8
LAYER_8
 10
160.4939
 20
41.7225
  0
VERTEX
  8
LAYER_8
 10
161.227
 20
41.7225
  0
VERTEX
  8
LAYER_8
 10
162.8335
 20
37.9567
  0
VERTEX
  8
LAYER_8
 10
162.1841
 20
37.9567
  0
VERTEX
  8
LAYER_8
 10
161.6814
 20
39.1418
  0
SEQEND
  0
POLYLINE
  8
LAYER_8
 40
0.05
 41
0.05
 66
1
 10
0
 20
0
 30
0
 70
1
  0
VERTEX
  8
LAYER_8
 10
161.5553
 20
39.5207
  0
VERTEX
  8
LAYER_8
 10
161.094
 20
40.6056
 42
-0.02227599701
  0
VERTEX
  8
LAYER_8
 10
160.8494
 20
41.2926
  0
VERTEX
  8
LAYER_8
 10
160.8357
 20
41.2926
 42
-0.0208222547
  0
VERTEX
  8
LAYER_8
 10
160.5983
 20
40.6101
  0
VERTEX
  8
LAYER_8
 10
160.1373
 20
39.5207
  0
SEQEND
  0
ENDBLK
  0
BLOCK
  8
LAYER_8
  2
AIGNBL0804000A
 70
64
 10
0
 20
0
 30
0
  3
AIGNBL0804000A
  0
POLYLINE
  8
LAYER_8
 40
0.05
 41
0.05
 66
1
 10
0
 20
0
 30
0
 70
1
  0
VERTEX
  8
LAYER_8
 10
163.8742
 20
41.6777
 42
-0.03334485223
  0
VERTEX
  8
LAYER_8
 10
165.0411
 20
41.7508
 42
-0.08844478427
  0
VERTEX
  8
LAYER_8
 10
166.0871
 20
41.5858
 42
-0.06037505309
  0
VERTEX
  8
LAYER_8
 10
166.3609
 20
41.4379
 42
-0.2472514979
  0
VERTEX
  8
LAYER_8
 10
166.7726
 20
40.6497
 42
-0.1483298328
  0
VERTEX
  8
LAYER_8
 10
166.6029
 20
40.0554
 42
-0.07223194904
  0
VERTEX
  8
LAYER_8
 10
166.4095
 20
39.8456
 42
-0.1209372404
  0
VERTEX
  8
LAYER_8
 10
165.7228
 20
39.517
 42
-0.06224269186
  0
VERTEX
  8
LAYER_8
 10
164.9708
 20
39.4319
 42
-0.05738783264
  0
VERTEX
  8
LAYER_8
 10
164.4823
 20
39.4653
  0
VERTEX
  8
LAYER_8
 10
164.4823
 20
37.9567
  0
VERTEX
  8
LAYER_8
 10
163.8742
 20
37.9567
  0
SEQEND
  0
POLYLINE
  8
LAYER_8
 40
0.05
 41
0.05
 66
1
 10
0
 20
0
 30
0
 70
1
  0
VERTEX
  8
LAYER_8
 10
164.4823
 20
39.8622
 42
0.05012782438
  0
VERTEX
  8
LAYER_8
 10
164.9846
 20
39.8229
 42
0.1135299982
  0
VERTEX
  8
LAYER_8
 10
165.7697
 20
39.9822
 42
0.1653556145
  0
VERTEX
  8
LAYER_8
 10
166.1074
 20
40.3302
 42
0.1044590446
  0
VERTEX
  8
LAYER_8
 10
166.1656
 20
40.6273
 42
0.2826437488
  0
VERTEX
  8
LAYER_8
 10
165.8147
 20
41.2103
 42
0.0629694601
  0
VERTEX
  8
LAYER_8
 10
165.549
 20
41.3107
 42
0.06259589917
  0
VERTEX
  8
LAYER_8
 10
165.0552
 20
41.3649
 42
0.05192366909
  0
VERTEX
  8
LAYER_8
 10
164.4823
 20
41.3257
  0
SEQEND
  0
ENDBLK
  0
BLOCK
  8
LAYER_8
  2
AIGNBL0804000B
 70
64
 10
0
 20
0
 30
0
  3
AIGNBL0804000B
  0
POLYLINE
  8
LAYER_8
 40
0.05
 41
0.05
 66
1
 10
0
 20
0
 30
0
 70
1
  0
VERTEX
  8
LAYER_8
 10
168.3246
 20
41.4207
 42
-0.3048675751
  0
VERTEX
  8
LAYER_8
 10
168.1582
 20
41.1661
 42
-0.1151020929
  0
VERTEX
  8
LAYER_8
 10
167.9329
 20
41.1189
 42
-0.2442513348
  0
VERTEX
  8
LAYER_8
 10
167.6028
 20
41.2794
 42
-0.1394546152
  0
VERTEX
  8
LAYER_8
 10
167.5626
 20
41.4207
 42
-0.287439772
  0
VERTEX
  8
LAYER_8
 10
167.7346
 20
41.6803
 42
-0.1179404017
  0
VERTEX
  8
LAYER_8
 10
167.9467
 20
41.7277
 42
-0.2416274379
  0
VERTEX
  8
LAYER_8
 10
168.2814
 20
41.5719
 42
-0.1426378456
  0
SEQEND
  0
POLYLINE
  8
LAYER_8
 40
0.05
 41
0.05
 66
1
 10
0
 20
0
 30
0
 70
1
  0
VERTEX
  8
LAYER_8
 10
167.639
 20
37.9567
  0
VERTEX
  8
LAYER_8
 10
167.639
 20
40.6607
  0
VERTEX
  8
LAYER_8
 10
168.2537
 20
40.6607
  0
VERTEX
  8
LAYER_8
 10
168.2537
 20
37.9567
  0
SEQEND
  0
ENDBLK
  0
BLOCK
  8
LAYER_8
  2
AIGNBL0804000C
 70
64
 10
0
 20
0
 30
0
  3
AIGNBL0804000C
  0
POLYLINE
  8
LAYER_8
 40
0.05
 41
0.05
 66
1
 10
0
 20
0
 30
0
 70
1
  0
VERTEX
  8
LAYER_8
 10
170.1254
 20
39.1418
  0
VERTEX
  8
LAYER_8
 10
169.6372
 20
37.9567
  0
VERTEX
  8
LAYER_8
 10
169.0081
 20
37.9567
  0
VERTEX
  8
LAYER_8
 10
170.6077
 20
41.7225
  0
VERTEX
  8
LAYER_8
 10
171.3415
 20
41.7225
  0
VERTEX
  8
LAYER_8
 10
172.9479
 20
37.9567
  0
VERTEX
  8
LAYER_8
 10
172.2982
 20
37.9567
  0
VERTEX
  8
LAYER_8
 10
171.7955
 20
39.1418
  0
SEQEND
  0
POLYLINE
  8
LAYER_8
 40
0.05
 41
0.05
 66
1
 10
0
 20
0
 30
0
 70
1
  0
VERTEX
  8
LAYER_8
 10
171.6695
 20
39.5207
  0
VERTEX
  8
LAYER_8
 10
171.2085
 20
40.6056
 42
-0.02430767271
  0
VERTEX
  8
LAYER_8
 10
170.9646
 20
41.2926
  0
VERTEX
  8
LAYER_8
 10
170.9498
 20
41.2926
 42
-0.02034719794
  0
VERTEX
  8
LAYER_8
 10
170.7128
 20
40.6101
  0
VERTEX
  8
LAYER_8
 10
170.2518
 20
39.5207
  0
SEQEND
  0
ENDBLK
  0
BLOCK
  8
LAYER_8
  2
AIGNBL08030005
 70
64
 10
0
 20
0
 30
0
  3
AIGNBL08030005
  0
INSERT
  8
LAYER_8
  2
AIGNBL08040006
 10
0
 20
0
 30
0
  0
INSERT
  8
LAYER_8
  2
AIGNBL08040007
 10
0
 20
0
 30
0
  0
INSERT
  8
LAYER_8
  2
AIGNBL08040008
 10
0
 20
0
 30
0
  0
INSERT
  8
LAYER_8
  2
AIGNBL08040009
 10
0
 20
0
 30
0
  0
INSERT
  8
LAYER_8
  2
AIGNBL0804000A
 10
0
 20
0
 30
0
  0
INSERT
  8
LAYER_8
  2
AIGNBL0804000B
 10
0
 20
0
 30
0
  0
INSERT
  8
LAYER_8
  2
AIGNBL0804000C
 10
0
 20
0
 30
0
  0
ENDBLK
  0
BLOCK
  8
LAYER_8
  2
AIGNBL0803000E
 70
64
 10
0
 20
0
 30
0
  3
AIGNBL0803000E
  0
POLYLINE
  8
LAYER_8
 40
0.05
 41
0.05
 66
1
 10
0
 20
0
 30
0
 70
1
  0
VERTEX
  8
LAYER_8
 10
145.7475
 20
36.0574
  0
VERTEX
  8
LAYER_8
 10
146.3008
 20
36.0574
  0
VERTEX
  8
LAYER_8
 10
146.3008
 20
35.9637
  0
VERTEX
  8
LAYER_8
 10
145.6424
 20
35.9637
  0
VERTEX
  8
LAYER_8
 10
145.6424
 20
36.9969
  0
VERTEX
  8
LAYER_8
 10
146.2832
 20
36.9969
  0
VERTEX
  8
LAYER_8
 10
146.2832
 20
36.9035
  0
VERTEX
  8
LAYER_8
 10
145.7475
 20
36.9035
  0
VERTEX
  8
LAYER_8
 10
145.7475
 20
36.549
  0
VERTEX
  8
LAYER_8
 10
146.2481
 20
36.549
  0
VERTEX
  8
LAYER_8
 10
146.2481
 20
36.4557
  0
VERTEX
  8
LAYER_8
 10
145.7475
 20
36.4557
  0
SEQEND
  0
ENDBLK
  0
BLOCK
  8
LAYER_8
  2
AIGNBL0803000F
 70
64
 10
0
 20
0
 30
0
  3
AIGNBL0803000F
  0
POLYLINE
  8
LAYER_8
 40
0.05
 41
0.05
 66
1
 10
0
 20
0
 30
0
 70
1
  0
VERTEX
  8
LAYER_8
 10
147.4404
 20
36.117
  0
VERTEX
  8
LAYER_8
 10
147.4432
 20
36.117
  0
VERTEX
  8
LAYER_8
 10
147.4432
 20
36.9969
  0
VERTEX
  8
LAYER_8
 10
147.5483
 20
36.9969
  0
VERTEX
  8
LAYER_8
 10
147.5483
 20
35.9637
  0
VERTEX
  8
LAYER_8
 10
147.4174
 20
35.9637
  0
VERTEX
  8
LAYER_8
 10
146.8162
 20
36.8525
  0
VERTEX
  8
LAYER_8
 10
146.8127
 20
36.8525
  0
VERTEX
  8
LAYER_8
 10
146.8127
 20
35.9637
  0
VERTEX
  8
LAYER_8
 10
146.708
 20
35.9637
  0
VERTEX
  8
LAYER_8
 10
146.708
 20
36.9969
  0
VERTEX
  8
LAYER_8
 10
146.8393
 20
36.9969
  0
SEQEND
  0
ENDBLK
  0
BLOCK
  8
LAYER_8
  2
AIGNBL08030010
 70
64
 10
0
 20
0
 30
0
  3
AIGNBL08030010
  0
POLYLINE
  8
LAYER_8
 40
0.05
 41
0.05
 66
1
 10
0
 20
0
 30
0
 70
1
  0
VERTEX
  8
LAYER_8
 10
148.0213
 20
36.1756
 42
0.1557655154
  0
VERTEX
  8
LAYER_8
 10
148.0757
 20
36.0725
 42
0.1918235184
  0
VERTEX
  8
LAYER_8
 10
148.1891
 20
36.0309
  0
VERTEX
  8
LAYER_8
 10
148.2783
 20
36.0505
  0
VERTEX
  8
LAYER_8
 10
148.3344
 20
36.1039
  0
VERTEX
  8
LAYER_8
 10
148.3634
 20
36.1804
  0
VERTEX
  8
LAYER_8
 10
148.3717
 20
36.27
  0
VERTEX
  8
LAYER_8
 10
148.3717
 20
36.9969
  0
VERTEX
  8
LAYER_8
 10
148.4767
 20
36.9969
  0
VERTEX
  8
LAYER_8
 10
148.4767
 20
36.2614
  0
VERTEX
  8
LAYER_8
 10
148.4654
 20
36.1535
 42
-0.0973308998
  0
VERTEX
  8
LAYER_8
 10
148.424
 20
36.0485
 42
-0.1149355521
  0
VERTEX
  8
LAYER_8
 10
148.3393
 20
35.9689
 42
-0.1249341208
  0
VERTEX
  8
LAYER_8
 10
148.2004
 20
35.9375
 42
-0.1793665557
  0
VERTEX
  8
LAYER_8
 10
148.0158
 20
35.9974
 42
-0.1772363953
  0
VERTEX
  8
LAYER_8
 10
147.9234
 20
36.149
  0
SEQEND
  0
ENDBLK
  0
BLOCK
  8
LAYER_8
  2
AIGNBL08030011
 70
64
 10
0
 20
0
 30
0
  3
AIGNBL08030011
  0
POLYLINE
  8
LAYER_8
 40
0.05
 41
0.05
 66
1
 10
0
 20
0
 30
0
 70
1
  0
VERTEX
  8
LAYER_8
 10
149.965
 20
36.4805
 42
-0.1019307791
  0
VERTEX
  8
LAYER_8
 10
149.924
 20
36.2631
 42
-0.1000112985
  0
VERTEX
  8
LAYER_8
 10
149.8113
 20
36.0915
 42
-0.09646612644
  0
VERTEX
  8
LAYER_8
 10
149.6405
 20
35.9785
 42
-0.09758594962
  0
VERTEX
  8
LAYER_8
 10
149.4265
 20
35.9375
 42
-0.1000844711
  0
VERTEX
  8
LAYER_8
 10
149.2129
 20
35.9785
 42
-0.09954994557
  0
VERTEX
  8
LAYER_8
 10
149.042
 20
36.0915
 42
-0.09699237735
  0
VERTEX
  8
LAYER_8
 10
148.9287
 20
36.2631
 42
-0.09653980076
  0
VERTEX
  8
LAYER_8
 10
148.8881
 20
36.4805
 42
-0.1004051845
  0
VERTEX
  8
LAYER_8
 10
148.9287
 20
36.6978
 42
-0.0998654539
  0
VERTEX
  8
LAYER_8
 10
149.042
 20
36.8694
 42
-0.09851519288
  0
VERTEX
  8
LAYER_8
 10
149.2129
 20
36.9824
 42
-0.09768823248
  0
VERTEX
  8
LAYER_8
 10
149.4265
 20
37.0234
 42
-0.1000514256
  0
VERTEX
  8
LAYER_8
 10
149.6405
 20
36.9824
 42
-0.09863053528
  0
VERTEX
  8
LAYER_8
 10
149.8113
 20
36.8694
 42
-0.09807107579
  0
VERTEX
  8
LAYER_8
 10
149.924
 20
36.6978
 42
-0.0978256893
  0
SEQEND
  0
POLYLINE
  8
LAYER_8
 40
0.05
 41
0.05
 66
1
 10
0
 20
0
 30
0
 70
1
  0
VERTEX
  8
LAYER_8
 10
149.8541
 20
36.4798
 42
0.08634913196
  0
VERTEX
  8
LAYER_8
 10
149.8251
 20
36.6517
 42
0.09649608129
  0
VERTEX
  8
LAYER_8
 10
149.7404
 20
36.795
 42
0.1032857511
  0
VERTEX
  8
LAYER_8
 10
149.6053
 20
36.8932
 42
0.1061320656
  0
VERTEX
  8
LAYER_8
 10
149.4265
 20
36.93
 42
0.1115874499
  0
VERTEX
  8
LAYER_8
 10
149.2478
 20
36.8932
 42
0.1058584166
  0
VERTEX
  8
LAYER_8
 10
149.113
 20
36.795
 42
0.09787799956
  0
VERTEX
  8
LAYER_8
 10
149.0283
 20
36.6517
 42
0.08491464556
  0
VERTEX
  8
LAYER_8
 10
148.999
 20
36.4798
 42
0.08693146424
  0
VERTEX
  8
LAYER_8
 10
149.0283
 20
36.3079
 42
0.1009797617
  0
VERTEX
  8
LAYER_8
 10
149.113
 20
36.1649
 42
0.09998489394
  0
VERTEX
  8
LAYER_8
 10
149.2478
 20
36.0674
 42
0.1061678446
  0
VERTEX
  8
LAYER_8
 10
149.4265
 20
36.0309
 42
0.1126980581
  0
VERTEX
  8
LAYER_8
 10
149.6053
 20
36.0674
 42
0.1036982708
  0
VERTEX
  8
LAYER_8
 10
149.7404
 20
36.1649
 42
0.09370250368
  0
VERTEX
  8
LAYER_8
 10
149.8251
 20
36.3079
 42
0.08466662837
  0
SEQEND
  0
ENDBLK
  0
BLOCK
  8
LAYER_8
  2
AIGNBL08030012
 70
64
 10
0
 20
0
 30
0
  3
AIGNBL08030012
  0
POLYLINE
  8
LAYER_8
 40
0.05
 41
0.05
 66
1
 10
0
 20
0
 30
0
 70
1
  0
VERTEX
  8
LAYER_8
 10
150.7398
 20
35.9637
  0
VERTEX
  8
LAYER_8
 10
150.6351
 20
35.9637
  0
VERTEX
  8
LAYER_8
 10
150.6351
 20
36.4091
  0
VERTEX
  8
LAYER_8
 10
150.2482
 20
36.9969
  0
VERTEX
  8
LAYER_8
 10
150.3795
 20
36.9969
  0
VERTEX
  8
LAYER_8
 10
150.6905
 20
36.4967
  0
VERTEX
  8
LAYER_8
 10
151.0041
 20
36.9969
  0
VERTEX
  8
LAYER_8
 10
151.1263
 20
36.9969
  0
VERTEX
  8
LAYER_8
 10
150.7398
 20
36.4091
  0
SEQEND
  0
ENDBLK
  0
BLOCK
  8
LAYER_8
  2
AIGNBL08030013
 70
64
 10
0
 20
0
 30
0
  3
AIGNBL08030013
  0
POLYLINE
  8
LAYER_8
 40
0.05
 41
0.05
 66
1
 10
0
 20
0
 30
0
 70
1
  0
VERTEX
  8
LAYER_8
 10
152.0314
 20
36.9969
  0
VERTEX
  8
LAYER_8
 10
152.339
 20
36.9969
  0
VERTEX
  8
LAYER_8
 10
152.4575
 20
36.9845
  0
VERTEX
  8
LAYER_8
 10
152.5643
 20
36.9421
 42
-0.1168262011
  0
VERTEX
  8
LAYER_8
 10
152.6422
 20
36.8611
 42
-0.1230288266
  0
VERTEX
  8
LAYER_8
 10
152.6718
 20
36.733
 42
-0.1795449175
  0
VERTEX
  8
LAYER_8
 10
152.6219
 20
36.5907
 42
-0.170141964
  0
VERTEX
  8
LAYER_8
 10
152.4885
 20
36.5111
  0
VERTEX
  8
LAYER_8
 10
152.4885
 20
36.5084
 42
-0.1719890535
  0
VERTEX
  8
LAYER_8
 10
152.6553
 20
36.4302
 42
-0.2018462152
  0
VERTEX
  8
LAYER_8
 10
152.7214
 20
36.2496
 42
-0.1247085485
  0
VERTEX
  8
LAYER_8
 10
152.6942
 20
36.1325
 42
-0.1153486961
  0
VERTEX
  8
LAYER_8
 10
152.6181
 20
36.0419
 42
-0.08656795839
  0
VERTEX
  8
LAYER_8
 10
152.4972
 20
35.9844
 42
-0.06557363107
  0
VERTEX
  8
LAYER_8
 10
152.3373
 20
35.9637
  0
VERTEX
  8
LAYER_8
 10
152.0314
 20
35.9637
  0
SEQEND
  0
POLYLINE
  8
LAYER_8
 40
0.05
 41
0.05
 66
1
 10
0
 20
0
 30
0
 70
1
  0
VERTEX
  8
LAYER_8
 10
152.1364
 20
36.5445
  0
VERTEX
  8
LAYER_8
 10
152.348
 20
36.5445
  0
VERTEX
  8
LAYER_8
 10
152.4248
 20
36.5535
  0
VERTEX
  8
LAYER_8
 10
152.4951
 20
36.5831
  0
VERTEX
  8
LAYER_8
 10
152.5471
 20
36.6396
 42
0.1162126025
  0
VERTEX
  8
LAYER_8
 10
152.5668
 20
36.7258
  0
VERTEX
  8
LAYER_8
 10
152.5471
 20
36.8095
  0
VERTEX
  8
LAYER_8
 10
152.494
 20
36.8656
  0
VERTEX
  8
LAYER_8
 10
152.4152
 20
36.897
  0
VERTEX
  8
LAYER_8
 10
152.3187
 20
36.9066
  0
VERTEX
  8
LAYER_8
 10
152.1364
 20
36.9066
  0
SEQEND
  0
POLYLINE
  8
LAYER_8
 40
0.05
 41
0.05
 66
1
 10
0
 20
0
 30
0
 70
1
  0
VERTEX
  8
LAYER_8
 10
152.1364
 20
36.0543
  0
VERTEX
  8
LAYER_8
 10
152.3321
 20
36.0543
  0
VERTEX
  8
LAYER_8
 10
152.4406
 20
36.0653
  0
VERTEX
  8
LAYER_8
 10
152.5313
 20
36.1001
 42
0.1172546835
  0
VERTEX
  8
LAYER_8
 10
152.5929
 20
36.1632
 42
0.1286243504
  0
VERTEX
  8
LAYER_8
 10
152.6164
 20
36.2559
 42
0.2498669706
  0
VERTEX
  8
LAYER_8
 10
152.5471
 20
36.4081
 42
0.1538083763
  0
VERTEX
  8
LAYER_8
 10
152.3511
 20
36.4584
  0
VERTEX
  8
LAYER_8
 10
152.1364
 20
36.4584
  0
SEQEND
  0
ENDBLK
  0
BLOCK
  8
LAYER_8
  2
AIGNBL08030014
 70
64
 10
0
 20
0
 30
0
  3
AIGNBL08030014
  0
POLYLINE
  8
LAYER_8
 40
0.05
 41
0.05
 66
1
 10
0
 20
0
 30
0
 70
1
  0
VERTEX
  8
LAYER_8
 10
153.1534
 20
35.9637
  0
VERTEX
  8
LAYER_8
 10
153.038
 20
35.9637
  0
VERTEX
  8
LAYER_8
 10
153.4849
 20
36.9969
  0
VERTEX
  8
LAYER_8
 10
153.5872
 20
36.9969
  0
VERTEX
  8
LAYER_8
 10
154.0306
 20
35.9637
  0
VERTEX
  8
LAYER_8
 10
153.9138
 20
35.9637
  0
VERTEX
  8
LAYER_8
 10
153.7997
 20
36.2352
  0
VERTEX
  8
LAYER_8
 10
153.2657
 20
36.2352
  0
SEQEND
  0
POLYLINE
  8
LAYER_8
 40
0.05
 41
0.05
 66
1
 10
0
 20
0
 30
0
 70
1
  0
VERTEX
  8
LAYER_8
 10
153.305
 20
36.3316
  0
VERTEX
  8
LAYER_8
 10
153.7604
 20
36.3316
  0
VERTEX
  8
LAYER_8
 10
153.5327
 20
36.8804
  0
SEQEND
  0
ENDBLK
  0
BLOCK
  8
LAYER_8
  2
AIGNBL08030015
 70
64
 10
0
 20
0
 30
0
  3
AIGNBL08030015
  0
POLYLINE
  8
LAYER_8
 40
0.05
 41
0.05
 66
1
 10
0
 20
0
 30
0
 70
1
  0
VERTEX
  8
LAYER_8
 10
154.7151
 20
35.9637
  0
VERTEX
  8
LAYER_8
 10
154.61
 20
35.9637
  0
VERTEX
  8
LAYER_8
 10
154.61
 20
36.9035
  0
VERTEX
  8
LAYER_8
 10
154.2638
 20
36.9035
  0
VERTEX
  8
LAYER_8
 10
154.2638
 20
36.9969
  0
VERTEX
  8
LAYER_8
 10
155.0606
 20
36.9969
  0
VERTEX
  8
LAYER_8
 10
155.0606
 20
36.9035
  0
VERTEX
  8
LAYER_8
 10
154.7151
 20
36.9035
  0
SEQEND
  0
ENDBLK
  0
BLOCK
  8
LAYER_8
  2
AIGNBL08030016
 70
64
 10
0
 20
0
 30
0
  3
AIGNBL08030016
  0
POLYLINE
  8
LAYER_8
 40
0.05
 41
0.05
 66
1
 10
0
 20
0
 30
0
 70
1
  0
VERTEX
  8
LAYER_8
 10
155.4169
 20
36.9969
  0
VERTEX
  8
LAYER_8
 10
155.5216
 20
36.9969
  0
VERTEX
  8
LAYER_8
 10
155.5216
 20
36.549
  0
VERTEX
  8
LAYER_8
 10
156.0852
 20
36.549
  0
VERTEX
  8
LAYER_8
 10
156.0852
 20
36.9969
  0
VERTEX
  8
LAYER_8
 10
156.1903
 20
36.9969
  0
VERTEX
  8
LAYER_8
 10
156.1903
 20
35.9637
  0
VERTEX
  8
LAYER_8
 10
156.0852
 20
35.9637
  0
VERTEX
  8
LAYER_8
 10
156.0852
 20
36.4529
  0
VERTEX
  8
LAYER_8
 10
155.5216
 20
36.4529
  0
VERTEX
  8
LAYER_8
 10
155.5216
 20
35.9637
  0
VERTEX
  8
LAYER_8
 10
155.4169
 20
35.9637
  0
SEQEND
  0
ENDBLK
  0
BLOCK
  8
LAYER_8
  2
AIGNBL08030017
 70
64
 10
0
 20
0
 30
0
  3
AIGNBL08030017
  0
POLYLINE
  8
LAYER_8
 40
0.05
 41
0.05
 66
1
 10
0
 20
0
 30
0
 70
1
  0
VERTEX
  8
LAYER_8
 10
156.7708
 20
35.9637
  0
VERTEX
  8
LAYER_8
 10
156.6657
 20
35.9637
  0
VERTEX
  8
LAYER_8
 10
156.6657
 20
36.9969
  0
VERTEX
  8
LAYER_8
 10
156.9696
 20
36.9969
  0
VERTEX
  8
LAYER_8
 10
157.1101
 20
36.9824
 42
-0.1032885834
  0
VERTEX
  8
LAYER_8
 10
157.2228
 20
36.9349
 42
-0.1280591957
  0
VERTEX
  8
LAYER_8
 10
157.2962
 20
36.8494
 42
-0.1078860225
  0
VERTEX
  8
LAYER_8
 10
157.3223
 20
36.7213
  0
VERTEX
  8
LAYER_8
 10
157.3024
 20
36.6176
  0
VERTEX
  8
LAYER_8
 10
157.2469
 20
36.5366
  0
VERTEX
  8
LAYER_8
 10
157.1635
 20
36.4818
  0
VERTEX
  8
LAYER_8
 10
157.0585
 20
36.4557
  0
VERTEX
  8
LAYER_8
 10
157.3606
 20
35.9637
  0
VERTEX
  8
LAYER_8
 10
157.2321
 20
35.9637
  0
VERTEX
  8
LAYER_8
 10
156.9461
 20
36.4467
  0
VERTEX
  8
LAYER_8
 10
156.7708
 20
36.4467
  0
SEQEND
  0
POLYLINE
  8
LAYER_8
 40
0.05
 41
0.05
 66
1
 10
0
 20
0
 30
0
 70
1
  0
VERTEX
  8
LAYER_8
 10
156.7708
 20
36.5373
  0
VERTEX
  8
LAYER_8
 10
156.9534
 20
36.5373
 42
0.153451873
  0
VERTEX
  8
LAYER_8
 10
157.1491
 20
36.5831
 42
0.2580279849
  0
VERTEX
  8
LAYER_8
 10
157.2176
 20
36.7213
  0
VERTEX
  8
LAYER_8
 10
157.1983
 20
36.8071
  0
VERTEX
  8
LAYER_8
 10
157.146
 20
36.8643
  0
VERTEX
  8
LAYER_8
 10
157.0643
 20
36.8963
  0
VERTEX
  8
LAYER_8
 10
156.9578
 20
36.9066
  0
VERTEX
  8
LAYER_8
 10
156.7708
 20
36.9066
  0
SEQEND
  0
ENDBLK
  0
BLOCK
  8
LAYER_8
  2
AIGNBL08030018
 70
64
 10
0
 20
0
 30
0
  3
AIGNBL08030018
  0
POLYLINE
  8
LAYER_8
 40
0.05
 41
0.05
 66
1
 10
0
 20
0
 30
0
 70
1
  0
VERTEX
  8
LAYER_8
 10
158.7627
 20
36.4805
 42
-0.09904480664
  0
VERTEX
  8
LAYER_8
 10
158.7221
 20
36.2631
 42
-0.09984043552
  0
VERTEX
  8
LAYER_8
 10
158.6087
 20
36.0915
 42
-0.09841590082
  0
VERTEX
  8
LAYER_8
 10
158.4382
 20
35.9785
 42
-0.09758412454
  0
VERTEX
  8
LAYER_8
 10
158.2243
 20
35.9375
 42
-0.09999517154
  0
VERTEX
  8
LAYER_8
 10
158.0103
 20
35.9785
 42
-0.09953435427
  0
VERTEX
  8
LAYER_8
 10
157.8398
 20
36.0915
 42
-0.09853706159
  0
VERTEX
  8
LAYER_8
 10
157.7268
 20
36.2631
 42
-0.09653980076
  0
VERTEX
  8
LAYER_8
 10
157.6862
 20
36.4805
 42
-0.1004051845
  0
VERTEX
  8
LAYER_8
 10
157.7268
 20
36.6978
 42
-0.1008040346
  0
VERTEX
  8
LAYER_8
 10
157.8398
 20
36.8694
 42
-0.09763764092
  0
VERTEX
  8
LAYER_8
 10
158.0103
 20
36.9824
 42
-0.09752919603
  0
VERTEX
  8
LAYER_8
 10
158.2243
 20
37.0234
 42
-0.1000174927
  0
VERTEX
  8
LAYER_8
 10
158.4382
 20
36.9824
 42
-0.1009762109
  0
VERTEX
  8
LAYER_8
 10
158.6087
 20
36.8694
 42
-0.09735230618
  0
VERTEX
  8
LAYER_8
 10
158.7221
 20
36.6978
 42
-0.09580191209
  0
SEQEND
  0
POLYLINE
  8
LAYER_8
 40
0.05
 41
0.05
 66
1
 10
0
 20
0
 30
0
 70
1
  0
VERTEX
  8
LAYER_8
 10
158.6518
 20
36.4798
 42
0.08852014676
  0
VERTEX
  8
LAYER_8
 10
158.6225
 20
36.6517
 42
0.09973444611
  0
VERTEX
  8
LAYER_8
 10
158.5378
 20
36.795
 42
0.1024799068
  0
VERTEX
  8
LAYER_8
 10
158.4031
 20
36.8932
 42
0.1060321998
  0
VERTEX
  8
LAYER_8
 10
158.2243
 20
36.93
 42
0.1116325688
  0
VERTEX
  8
LAYER_8
 10
158.0455
 20
36.8932
 42
0.1060506217
  0
VERTEX
  8
LAYER_8
 10
157.9104
 20
36.795
 42
0.09526104957
  0
VERTEX
  8
LAYER_8
 10
157.8257
 20
36.6517
 42
0.08422602157
  0
VERTEX
  8
LAYER_8
 10
157.7968
 20
36.4798
 42
0.0876992245
  0
VERTEX
  8
LAYER_8
 10
157.8257
 20
36.3079
 42
0.09826867926
  0
VERTEX
  8
LAYER_8
 10
157.9104
 20
36.1649
 42
0.09965756504
  0
VERTEX
  8
LAYER_8
 10
158.0455
 20
36.0674
 42
0.1061654103
  0
VERTEX
  8
LAYER_8
 10
158.2243
 20
36.0309
 42
0.1124388132
  0
VERTEX
  8
LAYER_8
 10
158.4031
 20
36.0674
 42
0.1029122982
  0
VERTEX
  8
LAYER_8
 10
158.5378
 20
36.1649
 42
0.09882210045
  0
VERTEX
  8
LAYER_8
 10
158.6225
 20
36.3079
 42
0.08589740831
  0
SEQEND
  0
ENDBLK
  0
BLOCK
  8
LAYER_8
  2
AIGNBL08030019
 70
64
 10
0
 20
0
 30
0
  3
AIGNBL08030019
  0
POLYLINE
  8
LAYER_8
 40
0.05
 41
0.05
 66
1
 10
0
 20
0
 30
0
 70
1
  0
VERTEX
  8
LAYER_8
 10
160.2045
 20
36.4805
 42
-0.1019307791
  0
VERTEX
  8
LAYER_8
 10
160.1635
 20
36.2631
 42
-0.09929652324
  0
VERTEX
  8
LAYER_8
 10
160.0509
 20
36.0915
 42
-0.09710469009
  0
VERTEX
  8
LAYER_8
 10
159.88
 20
35.9785
 42
-0.09758412454
  0
VERTEX
  8
LAYER_8
 10
159.6661
 20
35.9375
 42
-0.1005051182
  0
VERTEX
  8
LAYER_8
 10
159.4524
 20
35.9785
 42
-0.1009789173
  0
VERTEX
  8
LAYER_8
 10
159.2816
 20
36.0915
 42
-0.09724598852
  0
VERTEX
  8
LAYER_8
 10
159.1682
 20
36.2631
 42
-0.09653980076
  0
VERTEX
  8
LAYER_8
 10
159.1276
 20
36.4805
 42
-0.1004051845
  0
VERTEX
  8
LAYER_8
 10
159.1682
 20
36.6978
 42
-0.1001669327
  0
VERTEX
  8
LAYER_8
 10
159.2816
 20
36.8694
 42
-0.09846843416
  0
VERTEX
  8
LAYER_8
 10
159.4524
 20
36.9824
 42
-0.09783444074
  0
VERTEX
  8
LAYER_8
 10
159.6661
 20
37.0234
 42
-0.1000174927
  0
VERTEX
  8
LAYER_8
 10
159.88
 20
36.9824
 42
-0.098457988
  0
VERTEX
  8
LAYER_8
 10
160.0509
 20
36.8694
 42
-0.09762598086
  0
VERTEX
  8
LAYER_8
 10
160.1635
 20
36.6978
 42
-0.0978256893
  0
SEQEND
  0
POLYLINE
  8
LAYER_8
 40
0.05
 41
0.05
 66
1
 10
0
 20
0
 30
0
 70
1
  0
VERTEX
  8
LAYER_8
 10
160.0936
 20
36.4798
 42
0.08653869446
  0
VERTEX
  8
LAYER_8
 10
160.0647
 20
36.6517
 42
0.09689814906
  0
VERTEX
  8
LAYER_8
 10
159.9799
 20
36.795
 42
0.1032857511
  0
VERTEX
  8
LAYER_8
 10
159.8448
 20
36.8932
 42
0.1061350344
  0
VERTEX
  8
LAYER_8
 10
159.6661
 20
36.93
 42
0.1114208933
  0
VERTEX
  8
LAYER_8
 10
159.4872
 20
36.8932
 42
0.1056595975
  0
VERTEX
  8
LAYER_8
 10
159.3525
 20
36.795
 42
0.09787799956
  0
VERTEX
  8
LAYER_8
 10
159.2678
 20
36.6517
 42
0.08491464556
  0
VERTEX
  8
LAYER_8
 10
159.2385
 20
36.4798
 42
0.08693146424
  0
VERTEX
  8
LAYER_8
 10
159.2678
 20
36.3079
 42
0.1009797617
  0
VERTEX
  8
LAYER_8
 10
159.3525
 20
36.1649
 42
0.09978391674
  0
VERTEX
  8
LAYER_8
 10
159.4872
 20
36.0674
 42
0.1060616244
  0
VERTEX
  8
LAYER_8
 10
159.6661
 20
36.0309
 42
0.1126531325
  0
VERTEX
  8
LAYER_8
 10
159.8448
 20
36.0674
 42
0.1036982708
  0
VERTEX
  8
LAYER_8
 10
159.9799
 20
36.1649
 42
0.09401062747
  0
VERTEX
  8
LAYER_8
 10
160.0647
 20
36.3079
 42
0.0844927763
  0
SEQEND
  0
ENDBLK
  0
BLOCK
  8
LAYER_8
  2
AIGNBL0803001A
 70
64
 10
0
 20
0
 30
0
  3
AIGNBL0803001A
  0
POLYLINE
  8
LAYER_8
 40
0.05
 41
0.05
 66
1
 10
0
 20
0
 30
0
 70
1
  0
VERTEX
  8
LAYER_8
 10
161.1354
 20
36.1418
  0
VERTEX
  8
LAYER_8
 10
161.1371
 20
36.1418
  0
VERTEX
  8
LAYER_8
 10
161.4826
 20
36.9969
  0
VERTEX
  8
LAYER_8
 10
161.6435
 20
36.9969
  0
VERTEX
  8
LAYER_8
 10
161.6435
 20
35.9637
  0
VERTEX
  8
LAYER_8
 10
161.5381
 20
35.9637
  0
VERTEX
  8
LAYER_8
 10
161.5381
 20
36.8611
  0
VERTEX
  8
LAYER_8
 10
161.5354
 20
36.8611
  0
VERTEX
  8
LAYER_8
 10
161.1619
 20
35.9637
  0
VERTEX
  8
LAYER_8
 10
161.1064
 20
35.9637
  0
VERTEX
  8
LAYER_8
 10
160.7326
 20
36.8611
  0
VERTEX
  8
LAYER_8
 10
160.7299
 20
36.8611
  0
VERTEX
  8
LAYER_8
 10
160.7299
 20
35.9637
  0
VERTEX
  8
LAYER_8
 10
160.6248
 20
35.9637
  0
VERTEX
  8
LAYER_8
 10
160.6248
 20
36.9969
  0
VERTEX
  8
LAYER_8
 10
160.7853
 20
36.9969
  0
SEQEND
  0
ENDBLK
  0
BLOCK
  8
LAYER_8
  2
AIGNBL0803001B
 70
64
 10
0
 20
0
 30
0
  3
AIGNBL0803001B
  0
POLYLINE
  8
LAYER_8
 40
0.05
 41
0.05
 66
1
 10
0
 20
0
 30
0
 70
1
  0
VERTEX
  8
LAYER_8
 10
162.79
 20
36.0574
  0
VERTEX
  8
LAYER_8
 10
163.3433
 20
36.0574
  0
VERTEX
  8
LAYER_8
 10
163.3433
 20
35.9637
  0
VERTEX
  8
LAYER_8
 10
162.685
 20
35.9637
  0
VERTEX
  8
LAYER_8
 10
162.685
 20
36.9969
  0
VERTEX
  8
LAYER_8
 10
163.3258
 20
36.9969
  0
VERTEX
  8
LAYER_8
 10
163.3258
 20
36.9035
  0
VERTEX
  8
LAYER_8
 10
162.79
 20
36.9035
  0
VERTEX
  8
LAYER_8
 10
162.79
 20
36.549
  0
VERTEX
  8
LAYER_8
 10
163.2906
 20
36.549
  0
VERTEX
  8
LAYER_8
 10
163.2906
 20
36.4557
  0
VERTEX
  8
LAYER_8
 10
162.79
 20
36.4557
  0
SEQEND
  0
ENDBLK
  0
BLOCK
  8
LAYER_8
  2
AIGNBL0803001C
 70
64
 10
0
 20
0
 30
0
  3
AIGNBL0803001C
  0
POLYLINE
  8
LAYER_8
 40
0.05
 41
0.05
 66
1
 10
0
 20
0
 30
0
 70
1
  0
VERTEX
  8
LAYER_8
 10
164.0885
 20
36.5797
  0
VERTEX
  8
LAYER_8
 10
164.3707
 20
36.9969
  0
VERTEX
  8
LAYER_8
 10
164.4957
 20
36.9969
  0
VERTEX
  8
LAYER_8
 10
164.1533
 20
36.5053
  0
VERTEX
  8
LAYER_8
 10
164.5326
 20
35.9637
  0
VERTEX
  8
LAYER_8
 10
164.4013
 20
35.9637
  0
VERTEX
  8
LAYER_8
 10
164.0858
 20
36.4295
  0
VERTEX
  8
LAYER_8
 10
163.7722
 20
35.9637
  0
VERTEX
  8
LAYER_8
 10
163.6407
 20
35.9637
  0
VERTEX
  8
LAYER_8
 10
164.0203
 20
36.5066
  0
VERTEX
  8
LAYER_8
 10
163.6744
 20
36.9969
  0
VERTEX
  8
LAYER_8
 10
163.806
 20
36.9969
  0
SEQEND
  0
ENDBLK
  0
BLOCK
  8
LAYER_8
  2
AIGNBL0803001D
 70
64
 10
0
 20
0
 30
0
  3
AIGNBL0803001D
  0
POLYLINE
  8
LAYER_8
 40
0.05
 41
0.05
 66
1
 10
0
 20
0
 30
0
 70
1
  0
VERTEX
  8
LAYER_8
 10
164.8988
 20
36.9969
  0
VERTEX
  8
LAYER_8
 10
165.1909
 20
36.9969
  0
VERTEX
  8
LAYER_8
 10
165.3339
 20
36.9804
 42
-0.104160294
  0
VERTEX
  8
LAYER_8
 10
165.4438
 20
36.929
 42
-0.1209616443
  0
VERTEX
  8
LAYER_8
 10
165.5148
 20
36.8429
 42
-0.1032545831
  0
VERTEX
  8
LAYER_8
 10
165.5392
 20
36.7213
 42
-0.1239274235
  0
VERTEX
  8
LAYER_8
 10
165.5141
 20
36.5993
 42
-0.1163667494
  0
VERTEX
  8
LAYER_8
 10
165.4424
 20
36.5132
 42
-0.08715194998
  0
VERTEX
  8
LAYER_8
 10
165.3315
 20
36.4615
 42
-0.06075348808
  0
VERTEX
  8
LAYER_8
 10
165.1878
 20
36.444
  0
VERTEX
  8
LAYER_8
 10
165.0039
 20
36.444
  0
VERTEX
  8
LAYER_8
 10
165.0039
 20
35.9637
  0
VERTEX
  8
LAYER_8
 10
164.8988
 20
35.9637
  0
SEQEND
  0
POLYLINE
  8
LAYER_8
 40
0.05
 41
0.05
 66
1
 10
0
 20
0
 30
0
 70
1
  0
VERTEX
  8
LAYER_8
 10
165.0039
 20
36.5328
  0
VERTEX
  8
LAYER_8
 10
165.1816
 20
36.5328
 42
0.1694225951
  0
VERTEX
  8
LAYER_8
 10
165.3701
 20
36.581
 42
0.2442570363
  0
VERTEX
  8
LAYER_8
 10
165.4345
 20
36.7213
 42
0.2590967024
  0
VERTEX
  8
LAYER_8
 10
165.368
 20
36.8622
 42
0.143072224
  0
VERTEX
  8
LAYER_8
 10
165.1816
 20
36.9066
  0
VERTEX
  8
LAYER_8
 10
165.0039
 20
36.9066
  0
SEQEND
  0
ENDBLK
  0
BLOCK
  8
LAYER_8
  2
AIGNBL0803001E
 70
64
 10
0
 20
0
 30
0
  3
AIGNBL0803001E
  0
POLYLINE
  8
LAYER_8
 40
0.05
 41
0.05
 66
1
 10
0
 20
0
 30
0
 70
1
  0
VERTEX
  8
LAYER_8
 10
166.0515
 20
36.0574
  0
VERTEX
  8
LAYER_8
 10
166.6048
 20
36.0574
  0
VERTEX
  8
LAYER_8
 10
166.6048
 20
35.9637
  0
VERTEX
  8
LAYER_8
 10
165.9465
 20
35.9637
  0
VERTEX
  8
LAYER_8
 10
165.9465
 20
36.9969
  0
VERTEX
  8
LAYER_8
 10
166.5872
 20
36.9969
  0
VERTEX
  8
LAYER_8
 10
166.5872
 20
36.9035
  0
VERTEX
  8
LAYER_8
 10
166.0515
 20
36.9035
  0
VERTEX
  8
LAYER_8
 10
166.0515
 20
36.549
  0
VERTEX
  8
LAYER_8
 10
166.5521
 20
36.549
  0
VERTEX
  8
LAYER_8
 10
166.5521
 20
36.4557
  0
VERTEX
  8
LAYER_8
 10
166.0515
 20
36.4557
  0
SEQEND
  0
ENDBLK
  0
BLOCK
  8
LAYER_8
  2
AIGNBL0803001F
 70
64
 10
0
 20
0
 30
0
  3
AIGNBL0803001F
  0
POLYLINE
  8
LAYER_8
 40
0.05
 41
0.05
 66
1
 10
0
 20
0
 30
0
 70
1
  0
VERTEX
  8
LAYER_8
 10
167.1168
 20
35.9637
  0
VERTEX
  8
LAYER_8
 10
167.0117
 20
35.9637
  0
VERTEX
  8
LAYER_8
 10
167.0117
 20
36.9969
  0
VERTEX
  8
LAYER_8
 10
167.3155
 20
36.9969
  0
VERTEX
  8
LAYER_8
 10
167.4561
 20
36.9824
 42
-0.1039428931
  0
VERTEX
  8
LAYER_8
 10
167.5687
 20
36.9349
 42
-0.1259973384
  0
VERTEX
  8
LAYER_8
 10
167.6425
 20
36.8494
 42
-0.1064650891
  0
VERTEX
  8
LAYER_8
 10
167.6683
 20
36.7213
  0
VERTEX
  8
LAYER_8
 10
167.6483
 20
36.6176
  0
VERTEX
  8
LAYER_8
 10
167.5929
 20
36.5366
  0
VERTEX
  8
LAYER_8
 10
167.5095
 20
36.4818
  0
VERTEX
  8
LAYER_8
 10
167.4044
 20
36.4557
  0
VERTEX
  8
LAYER_8
 10
167.7066
 20
35.9637
  0
VERTEX
  8
LAYER_8
 10
167.578
 20
35.9637
  0
VERTEX
  8
LAYER_8
 10
167.2921
 20
36.4467
  0
VERTEX
  8
LAYER_8
 10
167.1168
 20
36.4467
  0
SEQEND
  0
POLYLINE
  8
LAYER_8
 40
0.05
 41
0.05
 66
1
 10
0
 20
0
 30
0
 70
1
  0
VERTEX
  8
LAYER_8
 10
167.1168
 20
36.5373
  0
VERTEX
  8
LAYER_8
 10
167.2994
 20
36.5373
 42
0.1542400453
  0
VERTEX
  8
LAYER_8
 10
167.495
 20
36.5831
 42
0.2583775622
  0
VERTEX
  8
LAYER_8
 10
167.5636
 20
36.7213
  0
VERTEX
  8
LAYER_8
 10
167.5446
 20
36.8071
  0
VERTEX
  8
LAYER_8
 10
167.4919
 20
36.8643
  0
VERTEX
  8
LAYER_8
 10
167.4103
 20
36.8963
  0
VERTEX
  8
LAYER_8
 10
167.3038
 20
36.9066
  0
VERTEX
  8
LAYER_8
 10
167.1168
 20
36.9066
  0
SEQEND
  0
ENDBLK
  0
BLOCK
  8
LAYER_8
  2
AIGNBL08030020
 70
64
 10
0
 20
0
 30
0
  3
AIGNBL08030020
  0
POLYLINE
  8
LAYER_8
 40
0.05
 41
0.05
 66
1
 10
0
 20
0
 30
0
 70
1
  0
VERTEX
  8
LAYER_8
 10
168.1923
 20
35.9637
  0
VERTEX
  8
LAYER_8
 10
168.0876
 20
35.9637
  0
VERTEX
  8
LAYER_8
 10
168.0876
 20
36.9969
  0
VERTEX
  8
LAYER_8
 10
168.1923
 20
36.9969
  0
SEQEND
  0
ENDBLK
  0
BLOCK
  8
LAYER_8
  2
AIGNBL08030021
 70
64
 10
0
 20
0
 30
0
  3
AIGNBL08030021
  0
POLYLINE
  8
LAYER_8
 40
0.05
 41
0.05
 66
1
 10
0
 20
0
 30
0
 70
1
  0
VERTEX
  8
LAYER_8
 10
168.7732
 20
36.0574
  0
VERTEX
  8
LAYER_8
 10
169.3261
 20
36.0574
  0
VERTEX
  8
LAYER_8
 10
169.3261
 20
35.9637
  0
VERTEX
  8
LAYER_8
 10
168.6681
 20
35.9637
  0
VERTEX
  8
LAYER_8
 10
168.6681
 20
36.9969
  0
VERTEX
  8
LAYER_8
 10
169.3089
 20
36.9969
  0
VERTEX
  8
LAYER_8
 10
169.3089
 20
36.9035
  0
VERTEX
  8
LAYER_8
 10
168.7732
 20
36.9035
  0
VERTEX
  8
LAYER_8
 10
168.7732
 20
36.549
  0
VERTEX
  8
LAYER_8
 10
169.2737
 20
36.549
  0
VERTEX
  8
LAYER_8
 10
169.2737
 20
36.4557
  0
VERTEX
  8
LAYER_8
 10
168.7732
 20
36.4557
  0
SEQEND
  0
ENDBLK
  0
BLOCK
  8
LAYER_8
  2
AIGNBL08030022
 70
64
 10
0
 20
0
 30
0
  3
AIGNBL08030022
  0
POLYLINE
  8
LAYER_8
 40
0.05
 41
0.05
 66
1
 10
0
 20
0
 30
0
 70
1
  0
VERTEX
  8
LAYER_8
 10
170.4661
 20
36.117
  0
VERTEX
  8
LAYER_8
 10
170.4689
 20
36.117
  0
VERTEX
  8
LAYER_8
 10
170.4689
 20
36.9969
  0
VERTEX
  8
LAYER_8
 10
170.5739
 20
36.9969
  0
VERTEX
  8
LAYER_8
 10
170.5739
 20
35.9637
  0
VERTEX
  8
LAYER_8
 10
170.4426
 20
35.9637
  0
VERTEX
  8
LAYER_8
 10
169.8415
 20
36.8525
  0
VERTEX
  8
LAYER_8
 10
169.8384
 20
36.8525
  0
VERTEX
  8
LAYER_8
 10
169.8384
 20
35.9637
  0
VERTEX
  8
LAYER_8
 10
169.7333
 20
35.9637
  0
VERTEX
  8
LAYER_8
 10
169.7333
 20
36.9969
  0
VERTEX
  8
LAYER_8
 10
169.8649
 20
36.9969
  0
SEQEND
  0
ENDBLK
  0
BLOCK
  8
LAYER_8
  2
AIGNBL08030023
 70
64
 10
0
 20
0
 30
0
  3
AIGNBL08030023
  0
POLYLINE
  8
LAYER_8
 40
0.05
 41
0.05
 66
1
 10
0
 20
0
 30
0
 70
1
  0
VERTEX
  8
LAYER_8
 10
171.9196
 20
36.1315
  0
VERTEX
  8
LAYER_8
 10
171.8558
 20
36.0571
  0
VERTEX
  8
LAYER_8
 10
171.7697
 20
35.9954
  0
VERTEX
  8
LAYER_8
 10
171.6615
 20
35.953
  0
VERTEX
  8
LAYER_8
 10
171.5327
 20
35.9375
 42
-0.0997799169
  0
VERTEX
  8
LAYER_8
 10
171.3167
 20
35.9785
 42
-0.102530266
  0
VERTEX
  8
LAYER_8
 10
171.1461
 20
36.0915
 42
-0.09968794278
  0
VERTEX
  8
LAYER_8
 10
171.0345
 20
36.2631
 42
-0.09630702324
  0
VERTEX
  8
LAYER_8
 10
170.9942
 20
36.4805
 42
-0.1018981748
  0
VERTEX
  8
LAYER_8
 10
171.0352
 20
36.6978
 42
-0.09989904409
  0
VERTEX
  8
LAYER_8
 10
171.1479
 20
36.8694
 42
-0.09694965588
  0
VERTEX
  8
LAYER_8
 10
171.3187
 20
36.9824
 42
-0.09744116728
  0
VERTEX
  8
LAYER_8
 10
171.5327
 20
37.0234
  0
VERTEX
  8
LAYER_8
 10
171.6443
 20
37.0114
  0
VERTEX
  8
LAYER_8
 10
171.7473
 20
36.9779
  0
VERTEX
  8
LAYER_8
 10
171.8348
 20
36.9263
  0
VERTEX
  8
LAYER_8
 10
171.9006
 20
36.8584
  0
VERTEX
  8
LAYER_8
 10
171.8131
 20
36.794
  0
VERTEX
  8
LAYER_8
 10
171.7697
 20
36.8439
  0
VERTEX
  8
LAYER_8
 10
171.7063
 20
36.8877
  0
VERTEX
  8
LAYER_8
 10
171.6267
 20
36.9183
  0
VERTEX
  8
LAYER_8
 10
171.5341
 20
36.93
 42
0.1106055686
  0
VERTEX
  8
LAYER_8
 10
171.3539
 20
36.8935
 42
0.1037389517
  0
VERTEX
  8
LAYER_8
 10
171.2188
 20
36.7954
 42
0.09534605581
  0
VERTEX
  8
LAYER_8
 10
171.1341
 20
36.652
 42
0.08447361069
  0
VERTEX
  8
LAYER_8
 10
171.1052
 20
36.4805
 42
0.09038739564
  0
VERTEX
  8
LAYER_8
 10
171.1351
 20
36.3089
 42
0.09795352863
  0
VERTEX
  8
LAYER_8
 10
171.2205
 20
36.1656
 42
0.1034747097
  0
VERTEX
  8
LAYER_8
 10
171.3556
 20
36.0674
 42
0.1064777274
  0
VERTEX
  8
LAYER_8
 10
171.5341
 20
36.0309
 42
0.1092499226
  0
VERTEX
  8
LAYER_8
 10
171.7032
 20
36.0674
 42
0.1370031249
  0
VERTEX
  8
LAYER_8
 10
171.8376
 20
36.1842
  0
SEQEND
  0
ENDBLK
  0
BLOCK
  8
LAYER_8
  2
AIGNBL08030024
 70
64
 10
0
 20
0
 30
0
  3
AIGNBL08030024
  0
POLYLINE
  8
LAYER_8
 40
0.05
 41
0.05
 66
1
 10
0
 20
0
 30
0
 70
1
  0
VERTEX
  8
LAYER_8
 10
172.4067
 20
36.0574
  0
VERTEX
  8
LAYER_8
 10
172.96
 20
36.0574
  0
VERTEX
  8
LAYER_8
 10
172.96
 20
35.9637
  0
VERTEX
  8
LAYER_8
 10
172.3016
 20
35.9637
  0
VERTEX
  8
LAYER_8
 10
172.3016
 20
36.9969
  0
VERTEX
  8
LAYER_8
 10
172.9424
 20
36.9969
  0
VERTEX
  8
LAYER_8
 10
172.9424
 20
36.9035
  0
VERTEX
  8
LAYER_8
 10
172.4067
 20
36.9035
  0
VERTEX
  8
LAYER_8
 10
172.4067
 20
36.549
  0
VERTEX
  8
LAYER_8
 10
172.9073
 20
36.549
  0
VERTEX
  8
LAYER_8
 10
172.9073
 20
36.4557
  0
VERTEX
  8
LAYER_8
 10
172.4067
 20
36.4557
  0
SEQEND
  0
ENDBLK
  0
BLOCK
  8
LAYER_8
  2
AIGNBL08020004
 70
64
 10
0
 20
0
 30
0
  3
AIGNBL08020004
  0
INSERT
  8
LAYER_8
  2
AIGNBL08030005
 10
0
 20
0
 30
0
  0
ENDBLK
  0
BLOCK
  8
LAYER_8
  2
AIGNBL0802000D
 70
64
 10
0
 20
0
 30
0
  3
AIGNBL0802000D
  0
INSERT
  8
LAYER_8
  2
AIGNBL0803000E
 10
0
 20
0
 30
0
  0
INSERT
  8
LAYER_8
  2
AIGNBL0803000F
 10
0
 20
0
 30
0
  0
INSERT
  8
LAYER_8
  2
AIGNBL08030010
 10
0
 20
0
 30
0
  0
INSERT
  8
LAYER_8
  2
AIGNBL08030011
 10
0
 20
0
 30
0
  0
INSERT
  8
LAYER_8
  2
AIGNBL08030012
 10
0
 20
0
 30
0
  0
INSERT
  8
LAYER_8
  2
AIGNBL08030013
 10
0
 20
0
 30
0
  0
INSERT
  8
LAYER_8
  2
AIGNBL08030014
 10
0
 20
0
 30
0
  0
INSERT
  8
LAYER_8
  2
AIGNBL08030015
 10
0
 20
0
 30
0
  0
INSERT
  8
LAYER_8
  2
AIGNBL08030016
 10
0
 20
0
 30
0
  0
INSERT
  8
LAYER_8
  2
AIGNBL08030017
 10
0
 20
0
 30
0
  0
INSERT
  8
LAYER_8
  2
AIGNBL08030018
 10
0
 20
0
 30
0
  0
INSERT
  8
LAYER_8
  2
AIGNBL08030019
 10
0
 20
0
 30
0
  0
INSERT
  8
LAYER_8
  2
AIGNBL0803001A
 10
0
 20
0
 30
0
  0
INSERT
  8
LAYER_8
  2
AIGNBL0803001B
 10
0
 20
0
 30
0
  0
INSERT
  8
LAYER_8
  2
AIGNBL0803001C
 10
0
 20
0
 30
0
  0
INSERT
  8
LAYER_8
  2
AIGNBL0803001D
 10
0
 20
0
 30
0
  0
INSERT
  8
LAYER_8
  2
AIGNBL0803001E
 10
0
 20
0
 30
0
  0
INSERT
  8
LAYER_8
  2
AIGNBL0803001F
 10
0
 20
0
 30
0
  0
INSERT
  8
LAYER_8
  2
AIGNBL08030020
 10
0
 20
0
 30
0
  0
INSERT
  8
LAYER_8
  2
AIGNBL08030021
 10
0
 20
0
 30
0
  0
INSERT
  8
LAYER_8
  2
AIGNBL08030022
 10
0
 20
0
 30
0
  0
INSERT
  8
LAYER_8
  2
AIGNBL08030023
 10
0
 20
0
 30
0
  0
INSERT
  8
LAYER_8
  2
AIGNBL08030024
 10
0
 20
0
 30
0
  0
ENDBLK
  0
BLOCK
  8
LAYER_8
  2
AIGNBL08010002
 70
64
 10
0
 20
0
 30
0
  3
AIGNBL08010002
  0
POLYLINE
  8
LAYER_8
 40
0.7056
 41
0.7056
 66
1
 10
0
 20
0
 30
0
 70
1
  0
VERTEX
  8
LAYER_8
 10
251.6749
 20
230.337
  0
VERTEX
  8
LAYER_8
 10
251.6749
 20
33.3285
  0
VERTEX
  8
LAYER_8
 10
-30.3177
 20
33.3285
  0
VERTEX
  8
LAYER_8
 10
-30.3177
 20
230.337
  0
SEQEND
  0
ENDBLK
  0
BLOCK
  8
LAYER_8
  2
AIGNBL08010003
 70
64
 10
0
 20
0
 30
0
  3
AIGNBL08010003
  0
INSERT
  8
LAYER_8
  2
AIGNBL08020004
 10
0
 20
0
 30
0
  0
INSERT
  8
LAYER_8
  2
AIGNBL0802000D
 10
0
 20
0
 30
0
  0
ENDBLK
  0
ENDSEC
  0
SECTION
  2
ENTITIES
  0
POLYLINE
  8
LAYER_1
 40
0.254
 41
0.254
 66
1
 10
0
 20
0
 30
0
 70
1
  0
VERTEX
  8
LAYER_1
 10
81.3263
 20
187.2392
  0
VERTEX
  8
LAYER_1
 10
38.8448
 20
187.2392
  0
VERTEX
  8
LAYER_1
 10
38.8448
 20
162.2414
  0
VERTEX
  8
LAYER_1
 10
81.3263
 20
162.2414
  0
SEQEND
  0
POLYLINE
  8
LAYER_1
 40
0.2081
 41
0.2081
 66
1
 10
0
 20
0
 30
0
  0
VERTEX
  8
LAYER_1
 10
39.9454
 20
187.2392
  0
VERTEX
  8
LAYER_1
 10
40.4746
 20
187.2392
  0
SEQEND
  0
POLYLINE
  8
LAYER_1
 40
0.2081
 41
0.2081
 66
1
 10
0
 20
0
 30
0
  0
VERTEX
  8
LAYER_1
 10
41.0038
 20
187.2392
  0
VERTEX
  8
LAYER_1
 10
41.5329
 20
187.2392
  0
SEQEND
  0
POLYLINE
  8
LAYER_1
 40
0.2081
 41
0.2081
 66
1
 10
0
 20
0
 30
0
  0
VERTEX
  8
LAYER_1
 10
42.0621
 20
187.2392
  0
VERTEX
  8
LAYER_1
 10
42.5913
 20
187.2392
  0
SEQEND
  0
POLYLINE
  8
LAYER_1
 40
0.2081
 41
0.2081
 66
1
 10
0
 20
0
 30
0
  0
VERTEX
  8
LAYER_1
 10
43.1204
 20
187.2392
  0
VERTEX
  8
LAYER_1
 10
43.6496
 20
187.2392
  0
SEQEND
  0
POLYLINE
  8
LAYER_1
 40
0.2081
 41
0.2081
 66
1
 10
0
 20
0
 30
0
  0
VERTEX
  8
LAYER_1
 10
44.1788
 20
187.2392
  0
VERTEX
  8
LAYER_1
 10
44.7079
 20
187.2392
  0
SEQEND
  0
POLYLINE
  8
LAYER_1
 40
0.2081
 41
0.2081
 66
1
 10
0
 20
0
 30
0
  0
VERTEX
  8
LAYER_1
 10
45.2371
 20
187.2392
  0
VERTEX
  8
LAYER_1
 10
45.7663
 20
187.2392
  0
SEQEND
  0
POLYLINE
  8
LAYER_1
 40
0.2081
 41
0.2081
 66
1
 10
0
 20
0
 30
0
  0
VERTEX
  8
LAYER_1
 10
46.2954
 20
187.2392
  0
VERTEX
  8
LAYER_1
 10
46.8246
 20
187.2392
  0
SEQEND
  0
POLYLINE
  8
LAYER_1
 40
0.2081
 41
0.2081
 66
1
 10
0
 20
0
 30
0
  0
VERTEX
  8
LAYER_1
 10
47.3538
 20
187.2392
  0
VERTEX
  8
LAYER_1
 10
47.8829
 20
187.2392
  0
SEQEND
  0
POLYLINE
  8
LAYER_1
 40
0.2081
 41
0.2081
 66
1
 10
0
 20
0
 30
0
  0
VERTEX
  8
LAYER_1
 10
48.4121
 20
187.2392
  0
VERTEX
  8
LAYER_1
 10
48.9413
 20
187.2392
  0
SEQEND
  0
POLYLINE
  8
LAYER_1
 40
0.2081
 41
0.2081
 66
1
 10
0
 20
0
 30
0
  0
VERTEX
  8
LAYER_1
 10
49.4704
 20
187.2392
  0
VERTEX
  8
LAYER_1
 10
49.9996
 20
187.2392
  0
SEQEND
  0
POLYLINE
  8
LAYER_1
 40
0.2081
 41
0.2081
 66
1
 10
0
 20
0
 30
0
  0
VERTEX
  8
LAYER_1
 10
50.5288
 20
187.2392
  0
VERTEX
  8
LAYER_1
 10
51.0579
 20
187.2392
  0
SEQEND
  0
POLYLINE
  8
LAYER_1
 40
0.2081
 41
0.2081
 66
1
 10
0
 20
0
 30
0
  0
VERTEX
  8
LAYER_1
 10
51.5871
 20
187.2392
  0
VERTEX
  8
LAYER_1
 10
52.1163
 20
187.2392
  0
SEQEND
  0
POLYLINE
  8
LAYER_1
 40
0.2081
 41
0.2081
 66
1
 10
0
 20
0
 30
0
  0
VERTEX
  8
LAYER_1
 10
52.6454
 20
187.2392
  0
VERTEX
  8
LAYER_1
 10
53.1746
 20
187.2392
  0
SEQEND
  0
POLYLINE
  8
LAYER_1
 40
0.2081
 41
0.2081
 66
1
 10
0
 20
0
 30
0
  0
VERTEX
  8
LAYER_1
 10
53.7038
 20
187.2392
  0
VERTEX
  8
LAYER_1
 10
54.2329
 20
187.2392
  0
SEQEND
  0
POLYLINE
  8
LAYER_1
 40
0.2081
 41
0.2081
 66
1
 10
0
 20
0
 30
0
  0
VERTEX
  8
LAYER_1
 10
54.7621
 20
187.2392
  0
VERTEX
  8
LAYER_1
 10
55.2913
 20
187.2392
  0
SEQEND
  0
POLYLINE
  8
LAYER_1
 40
0.2081
 41
0.2081
 66
1
 10
0
 20
0
 30
0
  0
VERTEX
  8
LAYER_1
 10
55.8204
 20
187.2392
  0
VERTEX
  8
LAYER_1
 10
56.3496
 20
187.2392
  0
SEQEND
  0
POLYLINE
  8
LAYER_1
 40
0.2081
 41
0.2081
 66
1
 10
0
 20
0
 30
0
  0
VERTEX
  8
LAYER_1
 10
56.8788
 20
187.2392
  0
VERTEX
  8
LAYER_1
 10
57.4079
 20
187.2392
  0
SEQEND
  0
POLYLINE
  8
LAYER_1
 40
0.2081
 41
0.2081
 66
1
 10
0
 20
0
 30
0
  0
VERTEX
  8
LAYER_1
 10
57.9371
 20
187.2392
  0
VERTEX
  8
LAYER_1
 10
58.4663
 20
187.2392
  0
SEQEND
  0
POLYLINE
  8
LAYER_1
 40
0.2081
 41
0.2081
 66
1
 10
0
 20
0
 30
0
  0
VERTEX
  8
LAYER_1
 10
58.9954
 20
187.2392
  0
VERTEX
  8
LAYER_1
 10
59.5246
 20
187.2392
  0
SEQEND
  0
POLYLINE
  8
LAYER_1
 40
0.2081
 41
0.2081
 66
1
 10
0
 20
0
 30
0
  0
VERTEX
  8
LAYER_1
 10
60.0538
 20
187.2392
  0
VERTEX
  8
LAYER_1
 10
60.5829
 20
187.2392
  0
SEQEND
  0
POLYLINE
  8
LAYER_1
 40
0.2081
 41
0.2081
 66
1
 10
0
 20
0
 30
0
  0
VERTEX
  8
LAYER_1
 10
61.1121
 20
187.2392
  0
VERTEX
  8
LAYER_1
 10
61.6413
 20
187.2392
  0
SEQEND
  0
POLYLINE
  8
LAYER_1
 40
0.2081
 41
0.2081
 66
1
 10
0
 20
0
 30
0
  0
VERTEX
  8
LAYER_1
 10
62.1704
 20
187.2392
  0
VERTEX
  8
LAYER_1
 10
62.6996
 20
187.2392
  0
SEQEND
  0
POLYLINE
  8
LAYER_1
 40
0.2081
 41
0.2081
 66
1
 10
0
 20
0
 30
0
  0
VERTEX
  8
LAYER_1
 10
63.2288
 20
187.2392
  0
VERTEX
  8
LAYER_1
 10
63.7579
 20
187.2392
  0
SEQEND
  0
POLYLINE
  8
LAYER_1
 40
0.2081
 41
0.2081
 66
1
 10
0
 20
0
 30
0
  0
VERTEX
  8
LAYER_1
 10
64.2871
 20
187.2392
  0
VERTEX
  8
LAYER_1
 10
64.8163
 20
187.2392
  0
SEQEND
  0
POLYLINE
  8
LAYER_1
 40
0.2081
 41
0.2081
 66
1
 10
0
 20
0
 30
0
  0
VERTEX
  8
LAYER_1
 10
65.3454
 20
187.2392
  0
VERTEX
  8
LAYER_1
 10
65.8746
 20
187.2392
  0
SEQEND
  0
POLYLINE
  8
LAYER_1
 40
0.2081
 41
0.2081
 66
1
 10
0
 20
0
 30
0
  0
VERTEX
  8
LAYER_1
 10
66.4038
 20
187.2392
  0
VERTEX
  8
LAYER_1
 10
66.9329
 20
187.2392
  0
SEQEND
  0
POLYLINE
  8
LAYER_1
 40
0.2081
 41
0.2081
 66
1
 10
0
 20
0
 30
0
  0
VERTEX
  8
LAYER_1
 10
67.4621
 20
187.2392
  0
VERTEX
  8
LAYER_1
 10
67.9913
 20
187.2392
  0
SEQEND
  0
POLYLINE
  8
LAYER_1
 40
0.2081
 41
0.2081
 66
1
 10
0
 20
0
 30
0
  0
VERTEX
  8
LAYER_1
 10
68.5204
 20
187.2392
  0
VERTEX
  8
LAYER_1
 10
69.0496
 20
187.2392
  0
SEQEND
  0
POLYLINE
  8
LAYER_1
 40
0.2081
 41
0.2081
 66
1
 10
0
 20
0
 30
0
  0
VERTEX
  8
LAYER_1
 10
69.5788
 20
187.2392
  0
VERTEX
  8
LAYER_1
 10
70.1079
 20
187.2392
  0
SEQEND
  0
POLYLINE
  8
LAYER_1
 40
0.2081
 41
0.2081
 66
1
 10
0
 20
0
 30
0
  0
VERTEX
  8
LAYER_1
 10
70.6371
 20
187.2392
  0
VERTEX
  8
LAYER_1
 10
71.1663
 20
187.2392
  0
SEQEND
  0
POLYLINE
  8
LAYER_1
 40
0.2081
 41
0.2081
 66
1
 10
0
 20
0
 30
0
  0
VERTEX
  8
LAYER_1
 10
71.6954
 20
187.2392
  0
VERTEX
  8
LAYER_1
 10
72.2246
 20
187.2392
  0
SEQEND
  0
POLYLINE
  8
LAYER_1
 40
0.2081
 41
0.2081
 66
1
 10
0
 20
0
 30
0
  0
VERTEX
  8
LAYER_1
 10
72.7538
 20
187.2392
  0
VERTEX
  8
LAYER_1
 10
73.2829
 20
187.2392
  0
SEQEND
  0
POLYLINE
  8
LAYER_1
 40
0.2081
 41
0.2081
 66
1
 10
0
 20
0
 30
0
  0
VERTEX
  8
LAYER_1
 10
73.8121
 20
187.2392
  0
VERTEX
  8
LAYER_1
 10
74.3413
 20
187.2392
  0
SEQEND
  0
POLYLINE
  8
LAYER_1
 40
0.2081
 41
0.2081
 66
1
 10
0
 20
0
 30
0
  0
VERTEX
  8
LAYER_1
 10
74.8704
 20
187.2392
  0
VERTEX
  8
LAYER_1
 10
75.3996
 20
187.2392
  0
SEQEND
  0
POLYLINE
  8
LAYER_1
 40
0.2081
 41
0.2081
 66
1
 10
0
 20
0
 30
0
  0
VERTEX
  8
LAYER_1
 10
75.9288
 20
187.2392
  0
VERTEX
  8
LAYER_1
 10
76.4579
 20
187.2392
  0
SEQEND
  0
POLYLINE
  8
LAYER_1
 40
0.2081
 41
0.2081
 66
1
 10
0
 20
0
 30
0
  0
VERTEX
  8
LAYER_1
 10
76.9871
 20
187.2392
  0
VERTEX
  8
LAYER_1
 10
77.5163
 20
187.2392
  0
SEQEND
  0
POLYLINE
  8
LAYER_1
 40
0.2081
 41
0.2081
 66
1
 10
0
 20
0
 30
0
  0
VERTEX
  8
LAYER_1
 10
78.0454
 20
187.2392
  0
VERTEX
  8
LAYER_1
 10
78.5746
 20
187.2392
  0
SEQEND
  0
POLYLINE
  8
LAYER_1
 40
0.2081
 41
0.2081
 66
1
 10
0
 20
0
 30
0
  0
VERTEX
  8
LAYER_1
 10
79.1038
 20
187.2392
  0
VERTEX
  8
LAYER_1
 10
79.6329
 20
187.2392
  0
SEQEND
  0
POLYLINE
  8
LAYER_1
 40
0.2081
 41
0.2081
 66
1
 10
0
 20
0
 30
0
  0
VERTEX
  8
LAYER_1
 10
80.1621
 20
187.2392
  0
VERTEX
  8
LAYER_1
 10
80.2468
 20
187.2392
  0
SEQEND
  0
POLYLINE
  8
LAYER_1
 40
0.2081
 41
0.2081
 66
1
 10
0
 20
0
 30
0
  0
VERTEX
  8
LAYER_1
 10
80.2468
 20
187.2392
  0
VERTEX
  8
LAYER_1
 10
80.2468
 20
186.7947
  0
SEQEND
  0
POLYLINE
  8
LAYER_1
 40
0.2081
 41
0.2081
 66
1
 10
0
 20
0
 30
0
  0
VERTEX
  8
LAYER_1
 10
80.2468
 20
186.2656
  0
VERTEX
  8
LAYER_1
 10
80.2468
 20
185.7364
  0
SEQEND
  0
POLYLINE
  8
LAYER_1
 40
0.2081
 41
0.2081
 66
1
 10
0
 20
0
 30
0
  0
VERTEX
  8
LAYER_1
 10
80.2468
 20
185.2072
  0
VERTEX
  8
LAYER_1
 10
80.2468
 20
184.6781
  0
SEQEND
  0
POLYLINE
  8
LAYER_1
 40
0.2081
 41
0.2081
 66
1
 10
0
 20
0
 30
0
  0
VERTEX
  8
LAYER_1
 10
80.2468
 20
184.1489
  0
VERTEX
  8
LAYER_1
 10
80.2468
 20
183.6197
  0
SEQEND
  0
POLYLINE
  8
LAYER_1
 40
0.2081
 41
0.2081
 66
1
 10
0
 20
0
 30
0
  0
VERTEX
  8
LAYER_1
 10
80.2468
 20
183.0906
  0
VERTEX
  8
LAYER_1
 10
80.2468
 20
182.5614
  0
SEQEND
  0
POLYLINE
  8
LAYER_1
 40
0.2081
 41
0.2081
 66
1
 10
0
 20
0
 30
0
  0
VERTEX
  8
LAYER_1
 10
80.2468
 20
182.0322
  0
VERTEX
  8
LAYER_1
 10
80.2468
 20
181.5031
  0
SEQEND
  0
POLYLINE
  8
LAYER_1
 40
0.2081
 41
0.2081
 66
1
 10
0
 20
0
 30
0
  0
VERTEX
  8
LAYER_1
 10
80.2468
 20
180.9739
  0
VERTEX
  8
LAYER_1
 10
80.2468
 20
180.4447
  0
SEQEND
  0
POLYLINE
  8
LAYER_1
 40
0.2081
 41
0.2081
 66
1
 10
0
 20
0
 30
0
  0
VERTEX
  8
LAYER_1
 10
80.2468
 20
179.9156
  0
VERTEX
  8
LAYER_1
 10
80.2468
 20
179.3864
  0
SEQEND
  0
POLYLINE
  8
LAYER_1
 40
0.2081
 41
0.2081
 66
1
 10
0
 20
0
 30
0
  0
VERTEX
  8
LAYER_1
 10
80.2468
 20
178.8572
  0
VERTEX
  8
LAYER_1
 10
80.2468
 20
178.3281
  0
SEQEND
  0
POLYLINE
  8
LAYER_1
 40
0.2081
 41
0.2081
 66
1
 10
0
 20
0
 30
0
  0
VERTEX
  8
LAYER_1
 10
80.2468
 20
177.7989
  0
VERTEX
  8
LAYER_1
 10
80.2468
 20
177.2697
  0
SEQEND
  0
POLYLINE
  8
LAYER_1
 40
0.2081
 41
0.2081
 66
1
 10
0
 20
0
 30
0
  0
VERTEX
  8
LAYER_1
 10
80.2468
 20
176.7406
  0
VERTEX
  8
LAYER_1
 10
80.2468
 20
176.2114
  0
SEQEND
  0
POLYLINE
  8
LAYER_1
 40
0.2081
 41
0.2081
 66
1
 10
0
 20
0
 30
0
  0
VERTEX
  8
LAYER_1
 10
80.2468
 20
175.6822
  0
VERTEX
  8
LAYER_1
 10
80.2468
 20
175.1531
  0
SEQEND
  0
POLYLINE
  8
LAYER_1
 40
0.2081
 41
0.2081
 66
1
 10
0
 20
0
 30
0
  0
VERTEX
  8
LAYER_1
 10
80.2468
 20
174.6239
  0
VERTEX
  8
LAYER_1
 10
80.2468
 20
174.0947
  0
SEQEND
  0
POLYLINE
  8
LAYER_1
 40
0.2081
 41
0.2081
 66
1
 10
0
 20
0
 30
0
  0
VERTEX
  8
LAYER_1
 10
80.2468
 20
173.5656
  0
VERTEX
  8
LAYER_1
 10
80.2468
 20
173.0364
  0
SEQEND
  0
POLYLINE
  8
LAYER_1
 40
0.2081
 41
0.2081
 66
1
 10
0
 20
0
 30
0
  0
VERTEX
  8
LAYER_1
 10
80.2468
 20
172.5072
  0
VERTEX
  8
LAYER_1
 10
80.2468
 20
171.9781
  0
SEQEND
  0
POLYLINE
  8
LAYER_1
 40
0.2081
 41
0.2081
 66
1
 10
0
 20
0
 30
0
  0
VERTEX
  8
LAYER_1
 10
80.2468
 20
171.4489
  0
VERTEX
  8
LAYER_1
 10
80.2468
 20
170.9197
  0
SEQEND
  0
POLYLINE
  8
LAYER_1
 40
0.2081
 41
0.2081
 66
1
 10
0
 20
0
 30
0
  0
VERTEX
  8
LAYER_1
 10
80.2468
 20
170.3906
  0
VERTEX
  8
LAYER_1
 10
80.2468
 20
169.8614
  0
SEQEND
  0
POLYLINE
  8
LAYER_1
 40
0.2081
 41
0.2081
 66
1
 10
0
 20
0
 30
0
  0
VERTEX
  8
LAYER_1
 10
80.2468
 20
169.3322
  0
VERTEX
  8
LAYER_1
 10
80.2468
 20
168.8031
  0
SEQEND
  0
POLYLINE
  8
LAYER_1
 40
0.2081
 41
0.2081
 66
1
 10
0
 20
0
 30
0
  0
VERTEX
  8
LAYER_1
 10
80.2468
 20
168.2739
  0
VERTEX
  8
LAYER_1
 10
80.2468
 20
167.7447
  0
SEQEND
  0
POLYLINE
  8
LAYER_1
 40
0.2081
 41
0.2081
 66
1
 10
0
 20
0
 30
0
  0
VERTEX
  8
LAYER_1
 10
80.2468
 20
167.2156
  0
VERTEX
  8
LAYER_1
 10
80.2468
 20
166.6864
  0
SEQEND
  0
POLYLINE
  8
LAYER_1
 40
0.2081
 41
0.2081
 66
1
 10
0
 20
0
 30
0
  0
VERTEX
  8
LAYER_1
 10
80.2468
 20
166.1572
  0
VERTEX
  8
LAYER_1
 10
80.2468
 20
165.6281
  0
SEQEND
  0
POLYLINE
  8
LAYER_1
 40
0.2081
 41
0.2081
 66
1
 10
0
 20
0
 30
0
  0
VERTEX
  8
LAYER_1
 10
80.2468
 20
165.0989
  0
VERTEX
  8
LAYER_1
 10
80.2468
 20
164.5697
  0
SEQEND
  0
POLYLINE
  8
LAYER_1
 40
0.2081
 41
0.2081
 66
1
 10
0
 20
0
 30
0
  0
VERTEX
  8
LAYER_1
 10
80.2468
 20
164.0406
  0
VERTEX
  8
LAYER_1
 10
80.2468
 20
163.5961
  0
SEQEND
  0
POLYLINE
  8
LAYER_1
 40
0.2081
 41
0.2081
 66
1
 10
0
 20
0
 30
0
  0
VERTEX
  8
LAYER_1
 10
80.2468
 20
163.5961
  0
VERTEX
  8
LAYER_1
 10
80.1621
 20
163.5961
  0
SEQEND
  0
POLYLINE
  8
LAYER_1
 40
0.2081
 41
0.2081
 66
1
 10
0
 20
0
 30
0
  0
VERTEX
  8
LAYER_1
 10
79.6329
 20
163.5961
  0
VERTEX
  8
LAYER_1
 10
79.1038
 20
163.5961
  0
SEQEND
  0
POLYLINE
  8
LAYER_1
 40
0.2081
 41
0.2081
 66
1
 10
0
 20
0
 30
0
  0
VERTEX
  8
LAYER_1
 10
78.5746
 20
163.5961
  0
VERTEX
  8
LAYER_1
 10
78.0454
 20
163.5961
  0
SEQEND
  0
POLYLINE
  8
LAYER_1
 40
0.2081
 41
0.2081
 66
1
 10
0
 20
0
 30
0
  0
VERTEX
  8
LAYER_1
 10
77.5163
 20
163.5961
  0
VERTEX
  8
LAYER_1
 10
76.9871
 20
163.5961
  0
SEQEND
  0
POLYLINE
  8
LAYER_1
 40
0.2081
 41
0.2081
 66
1
 10
0
 20
0
 30
0
  0
VERTEX
  8
LAYER_1
 10
76.4579
 20
163.5961
  0
VERTEX
  8
LAYER_1
 10
75.9288
 20
163.5961
  0
SEQEND
  0
POLYLINE
  8
LAYER_1
 40
0.2081
 41
0.2081
 66
1
 10
0
 20
0
 30
0
  0
VERTEX
  8
LAYER_1
 10
75.3996
 20
163.5961
  0
VERTEX
  8
LAYER_1
 10
74.8704
 20
163.5961
  0
SEQEND
  0
POLYLINE
  8
LAYER_1
 40
0.2081
 41
0.2081
 66
1
 10
0
 20
0
 30
0
  0
VERTEX
  8
LAYER_1
 10
74.3413
 20
163.5961
  0
VERTEX
  8
LAYER_1
 10
73.8121
 20
163.5961
  0
SEQEND
  0
POLYLINE
  8
LAYER_1
 40
0.2081
 41
0.2081
 66
1
 10
0
 20
0
 30
0
  0
VERTEX
  8
LAYER_1
 10
73.2829
 20
163.5961
  0
VERTEX
  8
LAYER_1
 10
72.7538
 20
163.5961
  0
SEQEND
  0
POLYLINE
  8
LAYER_1
 40
0.2081
 41
0.2081
 66
1
 10
0
 20
0
 30
0
  0
VERTEX
  8
LAYER_1
 10
72.2246
 20
163.5961
  0
VERTEX
  8
LAYER_1
 10
71.6954
 20
163.5961
  0
SEQEND
  0
POLYLINE
  8
LAYER_1
 40
0.2081
 41
0.2081
 66
1
 10
0
 20
0
 30
0
  0
VERTEX
  8
LAYER_1
 10
71.1663
 20
163.5961
  0
VERTEX
  8
LAYER_1
 10
70.6371
 20
163.5961
  0
SEQEND
  0
POLYLINE
  8
LAYER_1
 40
0.2081
 41
0.2081
 66
1
 10
0
 20
0
 30
0
  0
VERTEX
  8
LAYER_1
 10
70.1079
 20
163.5961
  0
VERTEX
  8
LAYER_1
 10
69.5788
 20
163.5961
  0
SEQEND
  0
POLYLINE
  8
LAYER_1
 40
0.2081
 41
0.2081
 66
1
 10
0
 20
0
 30
0
  0
VERTEX
  8
LAYER_1
 10
69.0496
 20
163.5961
  0
VERTEX
  8
LAYER_1
 10
68.5204
 20
163.5961
  0
SEQEND
  0
POLYLINE
  8
LAYER_1
 40
0.2081
 41
0.2081
 66
1
 10
0
 20
0
 30
0
  0
VERTEX
  8
LAYER_1
 10
67.9913
 20
163.5961
  0
VERTEX
  8
LAYER_1
 10
67.4621
 20
163.5961
  0
SEQEND
  0
POLYLINE
  8
LAYER_1
 40
0.2081
 41
0.2081
 66
1
 10
0
 20
0
 30
0
  0
VERTEX
  8
LAYER_1
 10
66.9329
 20
163.5961
  0
VERTEX
  8
LAYER_1
 10
66.4038
 20
163.5961
  0
SEQEND
  0
POLYLINE
  8
LAYER_1
 40
0.2081
 41
0.2081
 66
1
 10
0
 20
0
 30
0
  0
VERTEX
  8
LAYER_1
 10
65.8746
 20
163.5961
  0
VERTEX
  8
LAYER_1
 10
65.3454
 20
163.5961
  0
SEQEND
  0
POLYLINE
  8
LAYER_1
 40
0.2081
 41
0.2081
 66
1
 10
0
 20
0
 30
0
  0
VERTEX
  8
LAYER_1
 10
64.8163
 20
163.5961
  0
VERTEX
  8
LAYER_1
 10
64.2871
 20
163.5961
  0
SEQEND
  0
POLYLINE
  8
LAYER_1
 40
0.2081
 41
0.2081
 66
1
 10
0
 20
0
 30
0
  0
VERTEX
  8
LAYER_1
 10
63.7579
 20
163.5961
  0
VERTEX
  8
LAYER_1
 10
63.2288
 20
163.5961
  0
SEQEND
  0
POLYLINE
  8
LAYER_1
 40
0.2081
 41
0.2081
 66
1
 10
0
 20
0
 30
0
  0
VERTEX
  8
LAYER_1
 10
62.6996
 20
163.5961
  0
VERTEX
  8
LAYER_1
 10
62.1704
 20
163.5961
  0
SEQEND
  0
POLYLINE
  8
LAYER_1
 40
0.2081
 41
0.2081
 66
1
 10
0
 20
0
 30
0
  0
VERTEX
  8
LAYER_1
 10
61.6413
 20
163.5961
  0
VERTEX
  8
LAYER_1
 10
61.1121
 20
163.5961
  0
SEQEND
  0
POLYLINE
  8
LAYER_1
 40
0.2081
 41
0.2081
 66
1
 10
0
 20
0
 30
0
  0
VERTEX
  8
LAYER_1
 10
60.5829
 20
163.5961
  0
VERTEX
  8
LAYER_1
 10
60.0538
 20
163.5961
  0
SEQEND
  0
POLYLINE
  8
LAYER_1
 40
0.2081
 41
0.2081
 66
1
 10
0
 20
0
 30
0
  0
VERTEX
  8
LAYER_1
 10
59.5246
 20
163.5961
  0
VERTEX
  8
LAYER_1
 10
58.9954
 20
163.5961
  0
SEQEND
  0
POLYLINE
  8
LAYER_1
 40
0.2081
 41
0.2081
 66
1
 10
0
 20
0
 30
0
  0
VERTEX
  8
LAYER_1
 10
58.4663
 20
163.5961
  0
VERTEX
  8
LAYER_1
 10
57.9371
 20
163.5961
  0
SEQEND
  0
POLYLINE
  8
LAYER_1
 40
0.2081
 41
0.2081
 66
1
 10
0
 20
0
 30
0
  0
VERTEX
  8
LAYER_1
 10
57.4079
 20
163.5961
  0
VERTEX
  8
LAYER_1
 10
56.8788
 20
163.5961
  0
SEQEND
  0
POLYLINE
  8
LAYER_1
 40
0.2081
 41
0.2081
 66
1
 10
0
 20
0
 30
0
  0
VERTEX
  8
LAYER_1
 10
56.3496
 20
163.5961
  0
VERTEX
  8
LAYER_1
 10
55.8204
 20
163.5961
  0
SEQEND
  0
POLYLINE
  8
LAYER_1
 40
0.2081
 41
0.2081
 66
1
 10
0
 20
0
 30
0
  0
VERTEX
  8
LAYER_1
 10
55.2913
 20
163.5961
  0
VERTEX
  8
LAYER_1
 10
54.7621
 20
163.5961
  0
SEQEND
  0
POLYLINE
  8
LAYER_1
 40
0.2081
 41
0.2081
 66
1
 10
0
 20
0
 30
0
  0
VERTEX
  8
LAYER_1
 10
54.2329
 20
163.5961
  0
VERTEX
  8
LAYER_1
 10
53.7038
 20
163.5961
  0
SEQEND
  0
POLYLINE
  8
LAYER_1
 40
0.2081
 41
0.2081
 66
1
 10
0
 20
0
 30
0
  0
VERTEX
  8
LAYER_1
 10
53.1746
 20
163.5961
  0
VERTEX
  8
LAYER_1
 10
52.6454
 20
163.5961
  0
SEQEND
  0
POLYLINE
  8
LAYER_1
 40
0.2081
 41
0.2081
 66
1
 10
0
 20
0
 30
0
  0
VERTEX
  8
LAYER_1
 10
52.1163
 20
163.5961
  0
VERTEX
  8
LAYER_1
 10
51.5871
 20
163.5961
  0
SEQEND
  0
POLYLINE
  8
LAYER_1
 40
0.2081
 41
0.2081
 66
1
 10
0
 20
0
 30
0
  0
VERTEX
  8
LAYER_1
 10
51.0579
 20
163.5961
  0
VERTEX
  8
LAYER_1
 10
50.5288
 20
163.5961
  0
SEQEND
  0
POLYLINE
  8
LAYER_1
 40
0.2081
 41
0.2081
 66
1
 10
0
 20
0
 30
0
  0
VERTEX
  8
LAYER_1
 10
49.9996
 20
163.5961
  0
VERTEX
  8
LAYER_1
 10
49.4704
 20
163.5961
  0
SEQEND
  0
POLYLINE
  8
LAYER_1
 40
0.2081
 41
0.2081
 66
1
 10
0
 20
0
 30
0
  0
VERTEX
  8
LAYER_1
 10
48.9413
 20
163.5961
  0
VERTEX
  8
LAYER_1
 10
48.4121
 20
163.5961
  0
SEQEND
  0
POLYLINE
  8
LAYER_1
 40
0.2081
 41
0.2081
 66
1
 10
0
 20
0
 30
0
  0
VERTEX
  8
LAYER_1
 10
47.8829
 20
163.5961
  0
VERTEX
  8
LAYER_1
 10
47.3538
 20
163.5961
  0
SEQEND
  0
POLYLINE
  8
LAYER_1
 40
0.2081
 41
0.2081
 66
1
 10
0
 20
0
 30
0
  0
VERTEX
  8
LAYER_1
 10
46.8246
 20
163.5961
  0
VERTEX
  8
LAYER_1
 10
46.2954
 20
163.5961
  0
SEQEND
  0
POLYLINE
  8
LAYER_1
 40
0.2081
 41
0.2081
 66
1
 10
0
 20
0
 30
0
  0
VERTEX
  8
LAYER_1
 10
45.7663
 20
163.5961
  0
VERTEX
  8
LAYER_1
 10
45.2371
 20
163.5961
  0
SEQEND
  0
POLYLINE
  8
LAYER_1
 40
0.2081
 41
0.2081
 66
1
 10
0
 20
0
 30
0
  0
VERTEX
  8
LAYER_1
 10
44.7079
 20
163.5961
  0
VERTEX
  8
LAYER_1
 10
44.1788
 20
163.5961
  0
SEQEND
  0
POLYLINE
  8
LAYER_1
 40
0.2081
 41
0.2081
 66
1
 10
0
 20
0
 30
0
  0
VERTEX
  8
LAYER_1
 10
43.6496
 20
163.5961
  0
VERTEX
  8
LAYER_1
 10
43.1204
 20
163.5961
  0
SEQEND
  0
POLYLINE
  8
LAYER_1
 40
0.2081
 41
0.2081
 66
1
 10
0
 20
0
 30
0
  0
VERTEX
  8
LAYER_1
 10
42.5913
 20
163.5961
  0
VERTEX
  8
LAYER_1
 10
42.0621
 20
163.5961
  0
SEQEND
  0
POLYLINE
  8
LAYER_1
 40
0.2081
 41
0.2081
 66
1
 10
0
 20
0
 30
0
  0
VERTEX
  8
LAYER_1
 10
41.5329
 20
163.5961
  0
VERTEX
  8
LAYER_1
 10
41.0038
 20
163.5961
  0
SEQEND
  0
POLYLINE
  8
LAYER_1
 40
0.2081
 41
0.2081
 66
1
 10
0
 20
0
 30
0
  0
VERTEX
  8
LAYER_1
 10
40.4746
 20
163.5961
  0
VERTEX
  8
LAYER_1
 10
39.9454
 20
163.5961
  0
SEQEND
  0
POLYLINE
  8
LAYER_1
 40
0.2081
 41
0.2081
 66
1
 10
0
 20
0
 30
0
  0
VERTEX
  8
LAYER_1
 10
39.9454
 20
164.1252
  0
VERTEX
  8
LAYER_1
 10
39.9454
 20
164.6544
  0
SEQEND
  0
POLYLINE
  8
LAYER_1
 40
0.2081
 41
0.2081
 66
1
 10
0
 20
0
 30
0
  0
VERTEX
  8
LAYER_1
 10
39.9454
 20
165.1836
  0
VERTEX
  8
LAYER_1
 10
39.9454
 20
165.7127
  0
SEQEND
  0
POLYLINE
  8
LAYER_1
 40
0.2081
 41
0.2081
 66
1
 10
0
 20
0
 30
0
  0
VERTEX
  8
LAYER_1
 10
39.9454
 20
166.2419
  0
VERTEX
  8
LAYER_1
 10
39.9454
 20
166.7711
  0
SEQEND
  0
POLYLINE
  8
LAYER_1
 40
0.2081
 41
0.2081
 66
1
 10
0
 20
0
 30
0
  0
VERTEX
  8
LAYER_1
 10
39.9454
 20
167.3002
  0
VERTEX
  8
LAYER_1
 10
39.9454
 20
167.8294
  0
SEQEND
  0
POLYLINE
  8
LAYER_1
 40
0.2081
 41
0.2081
 66
1
 10
0
 20
0
 30
0
  0
VERTEX
  8
LAYER_1
 10
39.9454
 20
168.3586
  0
VERTEX
  8
LAYER_1
 10
39.9454
 20
168.8877
  0
SEQEND
  0
POLYLINE
  8
LAYER_1
 40
0.2081
 41
0.2081
 66
1
 10
0
 20
0
 30
0
  0
VERTEX
  8
LAYER_1
 10
39.9454
 20
169.4169
  0
VERTEX
  8
LAYER_1
 10
39.9454
 20
169.9461
  0
SEQEND
  0
POLYLINE
  8
LAYER_1
 40
0.2081
 41
0.2081
 66
1
 10
0
 20
0
 30
0
  0
VERTEX
  8
LAYER_1
 10
39.9454
 20
170.4752
  0
VERTEX
  8
LAYER_1
 10
39.9454
 20
171.0044
  0
SEQEND
  0
POLYLINE
  8
LAYER_1
 40
0.2081
 41
0.2081
 66
1
 10
0
 20
0
 30
0
  0
VERTEX
  8
LAYER_1
 10
39.9454
 20
171.5336
  0
VERTEX
  8
LAYER_1
 10
39.9454
 20
172.0627
  0
SEQEND
  0
POLYLINE
  8
LAYER_1
 40
0.2081
 41
0.2081
 66
1
 10
0
 20
0
 30
0
  0
VERTEX
  8
LAYER_1
 10
39.9454
 20
172.5919
  0
VERTEX
  8
LAYER_1
 10
39.9454
 20
173.1211
  0
SEQEND
  0
POLYLINE
  8
LAYER_1
 40
0.2081
 41
0.2081
 66
1
 10
0
 20
0
 30
0
  0
VERTEX
  8
LAYER_1
 10
39.9454
 20
173.6502
  0
VERTEX
  8
LAYER_1
 10
39.9454
 20
174.1794
  0
SEQEND
  0
POLYLINE
  8
LAYER_1
 40
0.2081
 41
0.2081
 66
1
 10
0
 20
0
 30
0
  0
VERTEX
  8
LAYER_1
 10
39.9454
 20
174.7086
  0
VERTEX
  8
LAYER_1
 10
39.9454
 20
175.2377
  0
SEQEND
  0
POLYLINE
  8
LAYER_1
 40
0.2081
 41
0.2081
 66
1
 10
0
 20
0
 30
0
  0
VERTEX
  8
LAYER_1
 10
39.9454
 20
175.7669
  0
VERTEX
  8
LAYER_1
 10
39.9454
 20
176.2961
  0
SEQEND
  0
POLYLINE
  8
LAYER_1
 40
0.2081
 41
0.2081
 66
1
 10
0
 20
0
 30
0
  0
VERTEX
  8
LAYER_1
 10
39.9454
 20
176.8252
  0
VERTEX
  8
LAYER_1
 10
39.9454
 20
177.3544
  0
SEQEND
  0
POLYLINE
  8
LAYER_1
 40
0.2081
 41
0.2081
 66
1
 10
0
 20
0
 30
0
  0
VERTEX
  8
LAYER_1
 10
39.9454
 20
177.8836
  0
VERTEX
  8
LAYER_1
 10
39.9454
 20
178.4127
  0
SEQEND
  0
POLYLINE
  8
LAYER_1
 40
0.2081
 41
0.2081
 66
1
 10
0
 20
0
 30
0
  0
VERTEX
  8
LAYER_1
 10
39.9454
 20
178.9419
  0
VERTEX
  8
LAYER_1
 10
39.9454
 20
179.4711
  0
SEQEND
  0
POLYLINE
  8
LAYER_1
 40
0.2081
 41
0.2081
 66
1
 10
0
 20
0
 30
0
  0
VERTEX
  8
LAYER_1
 10
39.9454
 20
180.0002
  0
VERTEX
  8
LAYER_1
 10
39.9454
 20
180.5294
  0
SEQEND
  0
POLYLINE
  8
LAYER_1
 40
0.2081
 41
0.2081
 66
1
 10
0
 20
0
 30
0
  0
VERTEX
  8
LAYER_1
 10
39.9454
 20
181.0586
  0
VERTEX
  8
LAYER_1
 10
39.9454
 20
181.5877
  0
SEQEND
  0
POLYLINE
  8
LAYER_1
 40
0.2081
 41
0.2081
 66
1
 10
0
 20
0
 30
0
  0
VERTEX
  8
LAYER_1
 10
39.9454
 20
182.1169
  0
VERTEX
  8
LAYER_1
 10
39.9454
 20
182.6461
  0
SEQEND
  0
POLYLINE
  8
LAYER_1
 40
0.2081
 41
0.2081
 66
1
 10
0
 20
0
 30
0
  0
VERTEX
  8
LAYER_1
 10
39.9454
 20
183.1752
  0
VERTEX
  8
LAYER_1
 10
39.9454
 20
183.7044
  0
SEQEND
  0
POLYLINE
  8
LAYER_1
 40
0.2081
 41
0.2081
 66
1
 10
0
 20
0
 30
0
  0
VERTEX
  8
LAYER_1
 10
39.9454
 20
184.2336
  0
VERTEX
  8
LAYER_1
 10
39.9454
 20
184.7627
  0
SEQEND
  0
POLYLINE
  8
LAYER_1
 40
0.2081
 41
0.2081
 66
1
 10
0
 20
0
 30
0
  0
VERTEX
  8
LAYER_1
 10
39.9454
 20
185.2919
  0
VERTEX
  8
LAYER_1
 10
39.9454
 20
185.8211
  0
SEQEND
  0
POLYLINE
  8
LAYER_1
 40
0.2081
 41
0.2081
 66
1
 10
0
 20
0
 30
0
  0
VERTEX
  8
LAYER_1
 10
39.9454
 20
186.3502
  0
VERTEX
  8
LAYER_1
 10
39.9454
 20
186.8794
  0
SEQEND
  0
POLYLINE
  8
LAYER_1
 40
0.1693
 41
0.1693
 66
1
 10
0
 20
0
 30
0
  0
VERTEX
  8
LAYER_1
 10
60.0961
 20
162.2414
  0
VERTEX
  8
LAYER_1
 10
60.0961
 20
167.3637
  0
SEQEND
  0
POLYLINE
  8
LAYER_1
 40
0.1693
 41
0.1693
 66
1
 10
0
 20
0
 30
0
  0
VERTEX
  8
LAYER_1
 10
60.0961
 20
167.7236
  0
VERTEX
  8
LAYER_1
 10
60.0961
 20
168.2527
  0
SEQEND
  0
POLYLINE
  8
LAYER_1
 40
0.1693
 41
0.1693
 66
1
 10
0
 20
0
 30
0
  0
VERTEX
  8
LAYER_1
 10
60.0961
 20
168.6126
  0
VERTEX
  8
LAYER_1
 10
60.0961
 20
173.7349
  0
SEQEND
  0
POLYLINE
  8
LAYER_1
 40
0.1693
 41
0.1693
 66
1
 10
0
 20
0
 30
0
  0
VERTEX
  8
LAYER_1
 10
60.0961
 20
174.0947
  0
VERTEX
  8
LAYER_1
 10
60.0961
 20
174.6239
  0
SEQEND
  0
POLYLINE
  8
LAYER_1
 40
0.1693
 41
0.1693
 66
1
 10
0
 20
0
 30
0
  0
VERTEX
  8
LAYER_1
 10
60.0961
 20
174.9837
  0
VERTEX
  8
LAYER_1
 10
60.0961
 20
180.1061
  0
SEQEND
  0
POLYLINE
  8
LAYER_1
 40
0.1693
 41
0.1693
 66
1
 10
0
 20
0
 30
0
  0
VERTEX
  8
LAYER_1
 10
60.0961
 20
180.4659
  0
VERTEX
  8
LAYER_1
 10
60.0961
 20
180.9951
  0
SEQEND
  0
POLYLINE
  8
LAYER_1
 40
0.1693
 41
0.1693
 66
1
 10
0
 20
0
 30
0
  0
VERTEX
  8
LAYER_1
 10
60.0961
 20
181.3549
  0
VERTEX
  8
LAYER_1
 10
60.0961
 20
186.4772
  0
SEQEND
  0
POLYLINE
  8
LAYER_1
 40
0.1693
 41
0.1693
 66
1
 10
0
 20
0
 30
0
  0
VERTEX
  8
LAYER_1
 10
60.0961
 20
186.8371
  0
VERTEX
  8
LAYER_1
 10
60.0961
 20
187.2392
  0
SEQEND
  0
POLYLINE
  8
LAYER_1
 40
0.1693
 41
0.1693
 66
1
 10
0
 20
0
 30
0
  0
VERTEX
  8
LAYER_1
 10
38.8448
 20
188.7421
  0
VERTEX
  8
LAYER_1
 10
38.8448
 20
194.7322
  0
SEQEND
  0
POLYLINE
  8
LAYER_1
 40
0.1693
 41
0.1693
 66
1
 10
0
 20
0
 30
0
  0
VERTEX
  8
LAYER_1
 10
81.3263
 20
188.7421
  0
VERTEX
  8
LAYER_1
 10
81.3263
 20
194.7322
  0
SEQEND
  0
CIRCLE
  8
LAYER_1
 10
38.8554
 20
194.7217
 40
0.2699
  0
CIRCLE
  8
LAYER_1
 10
38.8448
 20
194.7322
 40
0.254
  0
CIRCLE
  8
LAYER_1
 10
81.3369
 20
194.7217
 40
0.2699
  0
CIRCLE
  8
LAYER_1
 10
81.3263
 20
194.7322
 40
0.254
  0
POLYLINE
  8
LAYER_1
 40
0.1693
 41
0.1693
 66
1
 10
0
 20
0
 30
0
  0
VERTEX
  8
LAYER_1
 10
38.8448
 20
194.7322
  0
VERTEX
  8
LAYER_1
 10
81.3263
 20
194.7322
  0
SEQEND
  0
POLYLINE
  8
LAYER_1
 40
0.05
 41
0.05
 62
255
 66
1
 10
0
 20
0
 30
0
 70
1
  0
VERTEX
  8
LAYER_1
 10
58.7626
 20
196.9971
  0
VERTEX
  8
LAYER_1
 10
61.4084
 20
196.9971
  0
VERTEX
  8
LAYER_1
 10
61.4084
 20
195.2402
  0
VERTEX
  8
LAYER_1
 10
58.7626
 20
195.2402
  0
SEQEND
  0
TEXT
  8
LAYER_1
 10
58.7625
 20
195.4204
 11
58.7625
 21
195.4204
 40
2.0812
 41
0.5
  1
850
  0
POLYLINE
  8
LAYER_1
 40
0.1693
 41
0.1693
 66
1
 10
0
 20
0
 30
0
  0
VERTEX
  8
LAYER_1
 10
39.9454
 20
188.7421
  0
VERTEX
  8
LAYER_1
 10
39.9454
 20
190.9857
  0
SEQEND
  0
POLYLINE
  8
LAYER_1
 40
0.1693
 41
0.1693
 66
1
 10
0
 20
0
 30
0
  0
VERTEX
  8
LAYER_1
 10
80.2468
 20
188.7421
  0
VERTEX
  8
LAYER_1
 10
80.2468
 20
190.9857
  0
SEQEND
  0
CIRCLE
  8
LAYER_1
 10
39.956
 20
190.9751
 40
0.2699
  0
CIRCLE
  8
LAYER_1
 10
39.9454
 20
190.9857
 40
0.254
  0
CIRCLE
  8
LAYER_1
 10
80.2574
 20
190.9751
 40
0.2699
  0
CIRCLE
  8
LAYER_1
 10
80.2468
 20
190.9857
 40
0.254
  0
POLYLINE
  8
LAYER_1
 40
0.1693
 41
0.1693
 66
1
 10
0
 20
0
 30
0
  0
VERTEX
  8
LAYER_1
 10
39.9454
 20
190.9857
  0
VERTEX
  8
LAYER_1
 10
80.2468
 20
190.9857
  0
SEQEND
  0
POLYLINE
  8
LAYER_1
 40
0.05
 41
0.05
 62
255
 66
1
 10
0
 20
0
 30
0
 70
1
  0
VERTEX
  8
LAYER_1
 10
58.7626
 20
193.2506
  0
VERTEX
  8
LAYER_1
 10
61.4084
 20
193.2506
  0
VERTEX
  8
LAYER_1
 10
61.4084
 20
191.4937
  0
VERTEX
  8
LAYER_1
 10
58.7626
 20
191.4937
  0
SEQEND
  0
TEXT
  8
LAYER_1
 10
58.7625
 20
191.6739
 11
58.7625
 21
191.6739
 40
2.0812
 41
0.5
  1
806
  0
POLYLINE
  8
LAYER_1
 40
0.1693
 41
0.1693
 66
1
 10
0
 20
0
 30
0
  0
VERTEX
  8
LAYER_1
 10
38.8448
 20
190.2449
  0
VERTEX
  8
LAYER_1
 10
38.8448
 20
190.9857
  0
SEQEND
  0
POLYLINE
  8
LAYER_1
 40
0.1693
 41
0.1693
 66
1
 10
0
 20
0
 30
0
  0
VERTEX
  8
LAYER_1
 10
39.9454
 20
190.2449
  0
VERTEX
  8
LAYER_1
 10
39.9454
 20
190.9857
  0
SEQEND
  0
POLYLINE
  8
LAYER_1
 40
0.1693
 41
0.1693
 66
1
 10
0
 20
0
 30
0
  0
VERTEX
  8
LAYER_1
 10
39.9454
 20
190.9857
  0
VERTEX
  8
LAYER_1
 10
38.8448
 20
190.9857
  0
SEQEND
  0
CIRCLE
  8
LAYER_1
 10
38.8554
 20
190.9751
 40
0.2699
  0
CIRCLE
  8
LAYER_1
 10
38.8448
 20
190.9857
 40
0.254
  0
POLYLINE
  8
LAYER_1
 40
0.1693
 41
0.1693
 66
1
 10
0
 20
0
 30
0
  0
VERTEX
  8
LAYER_1
 10
38.8448
 20
190.9857
  0
VERTEX
  8
LAYER_1
 10
38.5908
 20
190.9857
  0
SEQEND
  0
CIRCLE
  8
LAYER_1
 10
39.956
 20
190.9751
 40
0.2699
  0
CIRCLE
  8
LAYER_1
 10
39.9454
 20
190.9857
 40
0.254
  0
POLYLINE
  8
LAYER_1
 40
0.1693
 41
0.1693
 66
1
 10
0
 20
0
 30
0
  0
VERTEX
  8
LAYER_1
 10
39.9454
 20
190.9857
  0
VERTEX
  8
LAYER_1
 10
40.1783
 20
190.9857
  0
SEQEND
  0
POLYLINE
  8
LAYER_1
 40
0.05
 41
0.05
 62
255
 66
1
 10
0
 20
0
 30
0
 70
1
  0
VERTEX
  8
LAYER_1
 10
37.0668
 20
193.2506
  0
VERTEX
  8
LAYER_1
 10
38.8448
 20
193.2506
  0
VERTEX
  8
LAYER_1
 10
38.8448
 20
191.4937
  0
VERTEX
  8
LAYER_1
 10
37.0668
 20
191.4937
  0
SEQEND
  0
TEXT
  8
LAYER_1
 10
37.0667
 20
191.6739
 11
37.0667
 21
191.6739
 40
2.0812
 41
0.5
  1
22
  0
POLYLINE
  8
LAYER_1
 40
0.1693
 41
0.1693
 66
1
 10
0
 20
0
 30
0
  0
VERTEX
  8
LAYER_1
 10
81.3263
 20
190.2449
  0
VERTEX
  8
LAYER_1
 10
81.3263
 20
190.9857
  0
SEQEND
  0
POLYLINE
  8
LAYER_1
 40
0.1693
 41
0.1693
 66
1
 10
0
 20
0
 30
0
  0
VERTEX
  8
LAYER_1
 10
80.2468
 20
190.2449
  0
VERTEX
  8
LAYER_1
 10
80.2468
 20
190.9857
  0
SEQEND
  0
POLYLINE
  8
LAYER_1
 40
0.1693
 41
0.1693
 66
1
 10
0
 20
0
 30
0
  0
VERTEX
  8
LAYER_1
 10
80.2468
 20
190.9857
  0
VERTEX
  8
LAYER_1
 10
81.3263
 20
190.9857
  0
SEQEND
  0
CIRCLE
  8
LAYER_1
 10
81.3369
 20
190.9751
 40
0.2699
  0
CIRCLE
  8
LAYER_1
 10
81.3263
 20
190.9857
 40
0.254
  0
POLYLINE
  8
LAYER_1
 40
0.1693
 41
0.1693
 66
1
 10
0
 20
0
 30
0
  0
VERTEX
  8
LAYER_1
 10
81.3263
 20
190.9857
  0
VERTEX
  8
LAYER_1
 10
81.5803
 20
190.9857
  0
SEQEND
  0
CIRCLE
  8
LAYER_1
 10
80.2574
 20
190.9751
 40
0.2699
  0
CIRCLE
  8
LAYER_1
 10
80.2468
 20
190.9857
 40
0.254
  0
POLYLINE
  8
LAYER_1
 40
0.1693
 41
0.1693
 66
1
 10
0
 20
0
 30
0
  0
VERTEX
  8
LAYER_1
 10
80.2468
 20
190.9857
  0
VERTEX
  8
LAYER_1
 10
79.9928
 20
190.9857
  0
SEQEND
  0
POLYLINE
  8
LAYER_1
 40
0.05
 41
0.05
 62
255
 66
1
 10
0
 20
0
 30
0
 70
1
  0
VERTEX
  8
LAYER_1
 10
81.3263
 20
193.2506
  0
VERTEX
  8
LAYER_1
 10
83.1043
 20
193.2506
  0
VERTEX
  8
LAYER_1
 10
83.1043
 20
191.4937
  0
VERTEX
  8
LAYER_1
 10
81.3263
 20
191.4937
  0
SEQEND
  0
TEXT
  8
LAYER_1
 10
81.3264
 20
191.6739
 11
81.3264
 21
191.6739
 40
2.0812
 41
0.5
  1
22
  0
POLYLINE
  8
LAYER_1
 40
0.1693
 41
0.1693
 66
1
 10
0
 20
0
 30
0
  0
VERTEX
  8
LAYER_1
 10
38.8448
 20
160.7386
  0
VERTEX
  8
LAYER_1
 10
38.8448
 20
154.7272
  0
SEQEND
  0
POLYLINE
  8
LAYER_1
 40
0.1693
 41
0.1693
 66
1
 10
0
 20
0
 30
0
  0
VERTEX
  8
LAYER_1
 10
60.0961
 20
160.7386
  0
VERTEX
  8
LAYER_1
 10
60.0961
 20
154.7272
  0
SEQEND
  0
CIRCLE
  8
LAYER_1
 10
38.8554
 20
154.7167
 40
0.2699
  0
CIRCLE
  8
LAYER_1
 10
38.8448
 20
154.7272
 40
0.254
  0
CIRCLE
  8
LAYER_1
 10
60.1067
 20
154.7167
 40
0.2699
  0
CIRCLE
  8
LAYER_1
 10
60.0961
 20
154.7272
 40
0.254
  0
POLYLINE
  8
LAYER_1
 40
0.1693
 41
0.1693
 66
1
 10
0
 20
0
 30
0
  0
VERTEX
  8
LAYER_1
 10
38.8448
 20
154.7272
  0
VERTEX
  8
LAYER_1
 10
60.0961
 20
154.7272
  0
SEQEND
  0
POLYLINE
  8
LAYER_1
 40
0.05
 41
0.05
 62
255
 66
1
 10
0
 20
0
 30
0
 70
1
  0
VERTEX
  8
LAYER_1
 10
48.1369
 20
156.9921
  0
VERTEX
  8
LAYER_1
 10
50.7828
 20
156.9921
  0
VERTEX
  8
LAYER_1
 10
50.7828
 20
155.2352
  0
VERTEX
  8
LAYER_1
 10
48.1369
 20
155.2352
  0
SEQEND
  0
TEXT
  8
LAYER_1
 10
48.137
 20
155.4365
 11
48.137
 21
155.4365
 40
2.0812
 41
0.5
  1
425
  0
POLYLINE
  8
LAYER_1
 40
0.1693
 41
0.1693
 66
1
 10
0
 20
0
 30
0
  0
VERTEX
  8
LAYER_1
 10
60.0961
 20
160.7386
  0
VERTEX
  8
LAYER_1
 10
60.0961
 20
154.7272
  0
SEQEND
  0
POLYLINE
  8
LAYER_1
 40
0.1693
 41
0.1693
 66
1
 10
0
 20
0
 30
0
  0
VERTEX
  8
LAYER_1
 10
81.3263
 20
160.7386
  0
VERTEX
  8
LAYER_1
 10
81.3263
 20
154.7272
  0
SEQEND
  0
CIRCLE
  8
LAYER_1
 10
60.1067
 20
154.7167
 40
0.2699
  0
CIRCLE
  8
LAYER_1
 10
60.0961
 20
154.7272
 40
0.254
  0
CIRCLE
  8
LAYER_1
 10
81.3369
 20
154.7167
 40
0.2699
  0
CIRCLE
  8
LAYER_1
 10
81.3263
 20
154.7272
 40
0.254
  0
POLYLINE
  8
LAYER_1
 40
0.1693
 41
0.1693
 66
1
 10
0
 20
0
 30
0
  0
VERTEX
  8
LAYER_1
 10
60.0961
 20
154.7272
  0
VERTEX
  8
LAYER_1
 10
81.3263
 20
154.7272
  0
SEQEND
  0
POLYLINE
  8
LAYER_1
 40
0.05
 41
0.05
 62
255
 66
1
 10
0
 20
0
 30
0
 70
1
  0
VERTEX
  8
LAYER_1
 10
69.3883
 20
156.9921
  0
VERTEX
  8
LAYER_1
 10
72.0341
 20
156.9921
  0
VERTEX
  8
LAYER_1
 10
72.0341
 20
155.2352
  0
VERTEX
  8
LAYER_1
 10
69.3883
 20
155.2352
  0
SEQEND
  0
TEXT
  8
LAYER_1
 10
69.3883
 20
155.4365
 11
69.3883
 21
155.4365
 40
2.0812
 41
0.5
  1
425
  0
POLYLINE
  8
LAYER_1
 40
0.1693
 41
0.1693
 66
1
 10
0
 20
0
 30
0
  0
VERTEX
  8
LAYER_1
 10
37.342
 20
187.2392
  0
VERTEX
  8
LAYER_1
 10
26.3353
 20
187.2392
  0
SEQEND
  0
POLYLINE
  8
LAYER_1
 40
0.1693
 41
0.1693
 66
1
 10
0
 20
0
 30
0
  0
VERTEX
  8
LAYER_1
 10
37.342
 20
162.2414
  0
VERTEX
  8
LAYER_1
 10
26.3353
 20
162.2414
  0
SEQEND
  0
CIRCLE
  8
LAYER_1
 10
26.3459
 20
187.2286
 40
0.2699
  0
CIRCLE
  8
LAYER_1
 10
26.3353
 20
187.2392
 40
0.254
  0
CIRCLE
  8
LAYER_1
 10
26.3459
 20
162.2308
 40
0.2699
  0
CIRCLE
  8
LAYER_1
 10
26.3353
 20
162.2414
 40
0.254
  0
POLYLINE
  8
LAYER_1
 40
0.1693
 41
0.1693
 66
1
 10
0
 20
0
 30
0
  0
VERTEX
  8
LAYER_1
 10
26.3353
 20
187.2392
  0
VERTEX
  8
LAYER_1
 10
26.3353
 20
162.2414
  0
SEQEND
  0
POLYLINE
  8
LAYER_1
 40
0.05
 41
0.05
 62
255
 66
1
 10
0
 20
0
 30
0
 70
1
  0
VERTEX
  8
LAYER_1
 10
24.0704
 20
176.0632
  0
VERTEX
  8
LAYER_1
 10
25.8273
 20
176.0632
  0
VERTEX
  8
LAYER_1
 10
25.8273
 20
173.4174
  0
VERTEX
  8
LAYER_1
 10
24.0704
 20
173.4174
  0
SEQEND
  0
TEXT
  8
LAYER_1
 10
25.6493
 20
173.4152
 11
25.6493
 21
173.4152
 40
2.0813
 41
0.5
 50
89.99999999
  1
500
  0
POLYLINE
  8
LAYER_1
 40
0.1693
 41
0.1693
 66
1
 10
0
 20
0
 30
0
  0
VERTEX
  8
LAYER_1
 10
37.342
 20
187.2392
  0
VERTEX
  8
LAYER_1
 10
31.3306
 20
187.2392
  0
SEQEND
  0
POLYLINE
  8
LAYER_1
 40
0.1693
 41
0.1693
 66
1
 10
0
 20
0
 30
0
  0
VERTEX
  8
LAYER_1
 10
37.342
 20
163.5961
  0
VERTEX
  8
LAYER_1
 10
31.3306
 20
163.5961
  0
SEQEND
  0
CIRCLE
  8
LAYER_1
 10
31.3412
 20
187.2286
 40
0.2699
  0
CIRCLE
  8
LAYER_1
 10
31.3306
 20
187.2392
 40
0.254
  0
CIRCLE
  8
LAYER_1
 10
31.3412
 20
163.5855
 40
0.2699
  0
CIRCLE
  8
LAYER_1
 10
31.3306
 20
163.5961
 40
0.254
  0
POLYLINE
  8
LAYER_1
 40
0.1693
 41
0.1693
 66
1
 10
0
 20
0
 30
0
  0
VERTEX
  8
LAYER_1
 10
31.3306
 20
187.2392
  0
VERTEX
  8
LAYER_1
 10
31.3306
 20
163.5961
  0
SEQEND
  0
POLYLINE
  8
LAYER_1
 40
0.05
 41
0.05
 62
255
 66
1
 10
0
 20
0
 30
0
 70
1
  0
VERTEX
  8
LAYER_1
 10
29.0658
 20
176.7406
  0
VERTEX
  8
LAYER_1
 10
30.8438
 20
176.7406
  0
VERTEX
  8
LAYER_1
 10
30.8438
 20
174.0947
  0
VERTEX
  8
LAYER_1
 10
29.0658
 20
174.0947
  0
SEQEND
  0
TEXT
  8
LAYER_1
 10
30.6452
 20
174.0946
 11
30.6452
 21
174.0946
 40
2.0813
 41
0.5
 50
89.99999999
  1
473
  0
POLYLINE
  8
LAYER_1
 40
0.1693
 41
0.1693
 66
1
 10
0
 20
0
 30
0
  0
VERTEX
  8
LAYER_1
 10
59.9903
 20
98.7414
  0
VERTEX
  8
LAYER_1
 10
59.9903
 20
93.6191
  0
SEQEND
  0
POLYLINE
  8
LAYER_1
 40
0.1693
 41
0.1693
 66
1
 10
0
 20
0
 30
0
  0
VERTEX
  8
LAYER_1
 10
59.9903
 20
93.2592
  0
VERTEX
  8
LAYER_1
 10
59.9903
 20
92.7301
  0
SEQEND
  0
POLYLINE
  8
LAYER_1
 40
0.1693
 41
0.1693
 66
1
 10
0
 20
0
 30
0
  0
VERTEX
  8
LAYER_1
 10
59.9903
 20
92.3702
  0
VERTEX
  8
LAYER_1
 10
59.9903
 20
87.2479
  0
SEQEND
  0
POLYLINE
  8
LAYER_1
 40
0.1693
 41
0.1693
 66
1
 10
0
 20
0
 30
0
  0
VERTEX
  8
LAYER_1
 10
59.9903
 20
86.8881
  0
VERTEX
  8
LAYER_1
 10
59.9903
 20
86.3589
  0
SEQEND
  0
POLYLINE
  8
LAYER_1
 40
0.1693
 41
0.1693
 66
1
 10
0
 20
0
 30
0
  0
VERTEX
  8
LAYER_1
 10
59.9903
 20
85.9991
  0
VERTEX
  8
LAYER_1
 10
59.9903
 20
80.8767
  0
SEQEND
  0
POLYLINE
  8
LAYER_1
 40
0.1693
 41
0.1693
 66
1
 10
0
 20
0
 30
0
  0
VERTEX
  8
LAYER_1
 10
59.9903
 20
80.5169
  0
VERTEX
  8
LAYER_1
 10
59.9903
 20
79.9877
  0
SEQEND
  0
POLYLINE
  8
LAYER_1
 40
0.1693
 41
0.1693
 66
1
 10
0
 20
0
 30
0
  0
VERTEX
  8
LAYER_1
 10
59.9903
 20
79.6279
  0
VERTEX
  8
LAYER_1
 10
59.9903
 20
74.5056
  0
SEQEND
  0
POLYLINE
  8
LAYER_1
 40
0.1693
 41
0.1693
 66
1
 10
0
 20
0
 30
0
  0
VERTEX
  8
LAYER_1
 10
59.9903
 20
74.1457
  0
VERTEX
  8
LAYER_1
 10
59.9903
 20
73.7436
  0
SEQEND
  0
POLYLINE
  8
LAYER_1
 40
0.1693
 41
0.1693
 66
1
 10
0
 20
0
 30
0
  0
VERTEX
  8
LAYER_1
 10
100.1858
 20
98.7414
  0
VERTEX
  8
LAYER_1
 10
100.1858
 20
93.6191
  0
SEQEND
  0
POLYLINE
  8
LAYER_1
 40
0.1693
 41
0.1693
 66
1
 10
0
 20
0
 30
0
  0
VERTEX
  8
LAYER_1
 10
100.1858
 20
93.2592
  0
VERTEX
  8
LAYER_1
 10
100.1858
 20
92.7301
  0
SEQEND
  0
POLYLINE
  8
LAYER_1
 40
0.1693
 41
0.1693
 66
1
 10
0
 20
0
 30
0
  0
VERTEX
  8
LAYER_1
 10
100.1858
 20
92.3702
  0
VERTEX
  8
LAYER_1
 10
100.1858
 20
87.2479
  0
SEQEND
  0
POLYLINE
  8
LAYER_1
 40
0.1693
 41
0.1693
 66
1
 10
0
 20
0
 30
0
  0
VERTEX
  8
LAYER_1
 10
100.1858
 20
86.8881
  0
VERTEX
  8
LAYER_1
 10
100.1858
 20
86.3589
  0
SEQEND
  0
POLYLINE
  8
LAYER_1
 40
0.1693
 41
0.1693
 66
1
 10
0
 20
0
 30
0
  0
VERTEX
  8
LAYER_1
 10
100.1858
 20
85.9991
  0
VERTEX
  8
LAYER_1
 10
100.1858
 20
80.8767
  0
SEQEND
  0
POLYLINE
  8
LAYER_1
 40
0.1693
 41
0.1693
 66
1
 10
0
 20
0
 30
0
  0
VERTEX
  8
LAYER_1
 10
100.1858
 20
80.5169
  0
VERTEX
  8
LAYER_1
 10
100.1858
 20
79.9877
  0
SEQEND
  0
POLYLINE
  8
LAYER_1
 40
0.1693
 41
0.1693
 66
1
 10
0
 20
0
 30
0
  0
VERTEX
  8
LAYER_1
 10
100.1858
 20
79.6279
  0
VERTEX
  8
LAYER_1
 10
100.1858
 20
74.5056
  0
SEQEND
  0
POLYLINE
  8
LAYER_1
 40
0.1693
 41
0.1693
 66
1
 10
0
 20
0
 30
0
  0
VERTEX
  8
LAYER_1
 10
100.1858
 20
74.1457
  0
VERTEX
  8
LAYER_1
 10
100.1858
 20
73.7436
  0
SEQEND
  0
POLYLINE
  8
LAYER_1
 40
0.254
 41
0.254
 66
1
 10
0
 20
0
 30
0
 70
1
  0
VERTEX
  8
LAYER_1
 10
121.3313
 20
98.7414
  0
VERTEX
  8
LAYER_1
 10
38.8448
 20
98.7414
  0
VERTEX
  8
LAYER_1
 10
38.8448
 20
73.7436
  0
VERTEX
  8
LAYER_1
 10
121.3313
 20
73.7436
  0
SEQEND
  0
POLYLINE
  8
LAYER_1
 40
0.2081
 41
0.2081
 66
1
 10
0
 20
0
 30
0
  0
VERTEX
  8
LAYER_1
 10
39.8396
 20
98.7414
  0
VERTEX
  8
LAYER_1
 10
40.3688
 20
98.7414
  0
SEQEND
  0
POLYLINE
  8
LAYER_1
 40
0.2081
 41
0.2081
 66
1
 10
0
 20
0
 30
0
  0
VERTEX
  8
LAYER_1
 10
40.8979
 20
98.7414
  0
VERTEX
  8
LAYER_1
 10
41.4271
 20
98.7414
  0
SEQEND
  0
POLYLINE
  8
LAYER_1
 40
0.2081
 41
0.2081
 66
1
 10
0
 20
0
 30
0
  0
VERTEX
  8
LAYER_1
 10
41.9563
 20
98.7414
  0
VERTEX
  8
LAYER_1
 10
42.4854
 20
98.7414
  0
SEQEND
  0
POLYLINE
  8
LAYER_1
 40
0.2081
 41
0.2081
 66
1
 10
0
 20
0
 30
0
  0
VERTEX
  8
LAYER_1
 10
43.0146
 20
98.7414
  0
VERTEX
  8
LAYER_1
 10
43.5438
 20
98.7414
  0
SEQEND
  0
POLYLINE
  8
LAYER_1
 40
0.2081
 41
0.2081
 66
1
 10
0
 20
0
 30
0
  0
VERTEX
  8
LAYER_1
 10
44.0729
 20
98.7414
  0
VERTEX
  8
LAYER_1
 10
44.6021
 20
98.7414
  0
SEQEND
  0
POLYLINE
  8
LAYER_1
 40
0.2081
 41
0.2081
 66
1
 10
0
 20
0
 30
0
  0
VERTEX
  8
LAYER_1
 10
45.1313
 20
98.7414
  0
VERTEX
  8
LAYER_1
 10
45.6604
 20
98.7414
  0
SEQEND
  0
POLYLINE
  8
LAYER_1
 40
0.2081
 41
0.2081
 66
1
 10
0
 20
0
 30
0
  0
VERTEX
  8
LAYER_1
 10
46.1896
 20
98.7414
  0
VERTEX
  8
LAYER_1
 10
46.7188
 20
98.7414
  0
SEQEND
  0
POLYLINE
  8
LAYER_1
 40
0.2081
 41
0.2081
 66
1
 10
0
 20
0
 30
0
  0
VERTEX
  8
LAYER_1
 10
47.248
 20
98.7414
  0
VERTEX
  8
LAYER_1
 10
47.7771
 20
98.7414
  0
SEQEND
  0
POLYLINE
  8
LAYER_1
 40
0.2081
 41
0.2081
 66
1
 10
0
 20
0
 30
0
  0
VERTEX
  8
LAYER_1
 10
48.3063
 20
98.7414
  0
VERTEX
  8
LAYER_1
 10
48.8355
 20
98.7414
  0
SEQEND
  0
POLYLINE
  8
LAYER_1
 40
0.2081
 41
0.2081
 66
1
 10
0
 20
0
 30
0
  0
VERTEX
  8
LAYER_1
 10
49.3646
 20
98.7414
  0
VERTEX
  8
LAYER_1
 10
49.8938
 20
98.7414
  0
SEQEND
  0
POLYLINE
  8
LAYER_1
 40
0.2081
 41
0.2081
 66
1
 10
0
 20
0
 30
0
  0
VERTEX
  8
LAYER_1
 10
50.423
 20
98.7414
  0
VERTEX
  8
LAYER_1
 10
50.9521
 20
98.7414
  0
SEQEND
  0
POLYLINE
  8
LAYER_1
 40
0.2081
 41
0.2081
 66
1
 10
0
 20
0
 30
0
  0
VERTEX
  8
LAYER_1
 10
51.4813
 20
98.7414
  0
VERTEX
  8
LAYER_1
 10
52.0105
 20
98.7414
  0
SEQEND
  0
POLYLINE
  8
LAYER_1
 40
0.2081
 41
0.2081
 66
1
 10
0
 20
0
 30
0
  0
VERTEX
  8
LAYER_1
 10
52.5396
 20
98.7414
  0
VERTEX
  8
LAYER_1
 10
53.0688
 20
98.7414
  0
SEQEND
  0
POLYLINE
  8
LAYER_1
 40
0.2081
 41
0.2081
 66
1
 10
0
 20
0
 30
0
  0
VERTEX
  8
LAYER_1
 10
53.598
 20
98.7414
  0
VERTEX
  8
LAYER_1
 10
54.1271
 20
98.7414
  0
SEQEND
  0
POLYLINE
  8
LAYER_1
 40
0.2081
 41
0.2081
 66
1
 10
0
 20
0
 30
0
  0
VERTEX
  8
LAYER_1
 10
54.6563
 20
98.7414
  0
VERTEX
  8
LAYER_1
 10
55.1855
 20
98.7414
  0
SEQEND
  0
POLYLINE
  8
LAYER_1
 40
0.2081
 41
0.2081
 66
1
 10
0
 20
0
 30
0
  0
VERTEX
  8
LAYER_1
 10
55.7146
 20
98.7414
  0
VERTEX
  8
LAYER_1
 10
56.2438
 20
98.7414
  0
SEQEND
  0
POLYLINE
  8
LAYER_1
 40
0.2081
 41
0.2081
 66
1
 10
0
 20
0
 30
0
  0
VERTEX
  8
LAYER_1
 10
56.773
 20
98.7414
  0
VERTEX
  8
LAYER_1
 10
57.3021
 20
98.7414
  0
SEQEND
  0
POLYLINE
  8
LAYER_1
 40
0.2081
 41
0.2081
 66
1
 10
0
 20
0
 30
0
  0
VERTEX
  8
LAYER_1
 10
57.8313
 20
98.7414
  0
VERTEX
  8
LAYER_1
 10
58.3605
 20
98.7414
  0
SEQEND
  0
POLYLINE
  8
LAYER_1
 40
0.2081
 41
0.2081
 66
1
 10
0
 20
0
 30
0
  0
VERTEX
  8
LAYER_1
 10
58.8896
 20
98.7414
  0
VERTEX
  8
LAYER_1
 10
59.4188
 20
98.7414
  0
SEQEND
  0
POLYLINE
  8
LAYER_1
 40
0.2081
 41
0.2081
 66
1
 10
0
 20
0
 30
0
  0
VERTEX
  8
LAYER_1
 10
59.948
 20
98.7414
  0
VERTEX
  8
LAYER_1
 10
60.4771
 20
98.7414
  0
SEQEND
  0
POLYLINE
  8
LAYER_1
 40
0.2081
 41
0.2081
 66
1
 10
0
 20
0
 30
0
  0
VERTEX
  8
LAYER_1
 10
61.0063
 20
98.7414
  0
VERTEX
  8
LAYER_1
 10
61.5355
 20
98.7414
  0
SEQEND
  0
POLYLINE
  8
LAYER_1
 40
0.2081
 41
0.2081
 66
1
 10
0
 20
0
 30
0
  0
VERTEX
  8
LAYER_1
 10
62.0646
 20
98.7414
  0
VERTEX
  8
LAYER_1
 10
62.5938
 20
98.7414
  0
SEQEND
  0
POLYLINE
  8
LAYER_1
 40
0.2081
 41
0.2081
 66
1
 10
0
 20
0
 30
0
  0
VERTEX
  8
LAYER_1
 10
63.123
 20
98.7414
  0
VERTEX
  8
LAYER_1
 10
63.6521
 20
98.7414
  0
SEQEND
  0
POLYLINE
  8
LAYER_1
 40
0.2081
 41
0.2081
 66
1
 10
0
 20
0
 30
0
  0
VERTEX
  8
LAYER_1
 10
64.1813
 20
98.7414
  0
VERTEX
  8
LAYER_1
 10
64.7105
 20
98.7414
  0
SEQEND
  0
POLYLINE
  8
LAYER_1
 40
0.2081
 41
0.2081
 66
1
 10
0
 20
0
 30
0
  0
VERTEX
  8
LAYER_1
 10
65.2396
 20
98.7414
  0
VERTEX
  8
LAYER_1
 10
65.7688
 20
98.7414
  0
SEQEND
  0
POLYLINE
  8
LAYER_1
 40
0.2081
 41
0.2081
 66
1
 10
0
 20
0
 30
0
  0
VERTEX
  8
LAYER_1
 10
66.298
 20
98.7414
  0
VERTEX
  8
LAYER_1
 10
66.8271
 20
98.7414
  0
SEQEND
  0
POLYLINE
  8
LAYER_1
 40
0.2081
 41
0.2081
 66
1
 10
0
 20
0
 30
0
  0
VERTEX
  8
LAYER_1
 10
67.3563
 20
98.7414
  0
VERTEX
  8
LAYER_1
 10
67.8855
 20
98.7414
  0
SEQEND
  0
POLYLINE
  8
LAYER_1
 40
0.2081
 41
0.2081
 66
1
 10
0
 20
0
 30
0
  0
VERTEX
  8
LAYER_1
 10
68.4146
 20
98.7414
  0
VERTEX
  8
LAYER_1
 10
68.9438
 20
98.7414
  0
SEQEND
  0
POLYLINE
  8
LAYER_1
 40
0.2081
 41
0.2081
 66
1
 10
0
 20
0
 30
0
  0
VERTEX
  8
LAYER_1
 10
69.473
 20
98.7414
  0
VERTEX
  8
LAYER_1
 10
70.0021
 20
98.7414
  0
SEQEND
  0
POLYLINE
  8
LAYER_1
 40
0.2081
 41
0.2081
 66
1
 10
0
 20
0
 30
0
  0
VERTEX
  8
LAYER_1
 10
70.5313
 20
98.7414
  0
VERTEX
  8
LAYER_1
 10
71.0605
 20
98.7414
  0
SEQEND
  0
POLYLINE
  8
LAYER_1
 40
0.2081
 41
0.2081
 66
1
 10
0
 20
0
 30
0
  0
VERTEX
  8
LAYER_1
 10
71.5896
 20
98.7414
  0
VERTEX
  8
LAYER_1
 10
72.1188
 20
98.7414
  0
SEQEND
  0
POLYLINE
  8
LAYER_1
 40
0.2081
 41
0.2081
 66
1
 10
0
 20
0
 30
0
  0
VERTEX
  8
LAYER_1
 10
72.648
 20
98.7414
  0
VERTEX
  8
LAYER_1
 10
73.1771
 20
98.7414
  0
SEQEND
  0
POLYLINE
  8
LAYER_1
 40
0.2081
 41
0.2081
 66
1
 10
0
 20
0
 30
0
  0
VERTEX
  8
LAYER_1
 10
73.7063
 20
98.7414
  0
VERTEX
  8
LAYER_1
 10
74.2355
 20
98.7414
  0
SEQEND
  0
POLYLINE
  8
LAYER_1
 40
0.2081
 41
0.2081
 66
1
 10
0
 20
0
 30
0
  0
VERTEX
  8
LAYER_1
 10
74.7646
 20
98.7414
  0
VERTEX
  8
LAYER_1
 10
75.2938
 20
98.7414
  0
SEQEND
  0
POLYLINE
  8
LAYER_1
 40
0.2081
 41
0.2081
 66
1
 10
0
 20
0
 30
0
  0
VERTEX
  8
LAYER_1
 10
75.823
 20
98.7414
  0
VERTEX
  8
LAYER_1
 10
76.3521
 20
98.7414
  0
SEQEND
  0
POLYLINE
  8
LAYER_1
 40
0.2081
 41
0.2081
 66
1
 10
0
 20
0
 30
0
  0
VERTEX
  8
LAYER_1
 10
76.8813
 20
98.7414
  0
VERTEX
  8
LAYER_1
 10
77.4105
 20
98.7414
  0
SEQEND
  0
POLYLINE
  8
LAYER_1
 40
0.2081
 41
0.2081
 66
1
 10
0
 20
0
 30
0
  0
VERTEX
  8
LAYER_1
 10
77.9396
 20
98.7414
  0
VERTEX
  8
LAYER_1
 10
78.4688
 20
98.7414
  0
SEQEND
  0
POLYLINE
  8
LAYER_1
 40
0.2081
 41
0.2081
 66
1
 10
0
 20
0
 30
0
  0
VERTEX
  8
LAYER_1
 10
78.998
 20
98.7414
  0
VERTEX
  8
LAYER_1
 10
79.5271
 20
98.7414
  0
SEQEND
  0
POLYLINE
  8
LAYER_1
 40
0.2081
 41
0.2081
 66
1
 10
0
 20
0
 30
0
  0
VERTEX
  8
LAYER_1
 10
80.0563
 20
98.7414
  0
VERTEX
  8
LAYER_1
 10
80.5855
 20
98.7414
  0
SEQEND
  0
POLYLINE
  8
LAYER_1
 40
0.2081
 41
0.2081
 66
1
 10
0
 20
0
 30
0
  0
VERTEX
  8
LAYER_1
 10
81.1146
 20
98.7414
  0
VERTEX
  8
LAYER_1
 10
81.6438
 20
98.7414
  0
SEQEND
  0
POLYLINE
  8
LAYER_1
 40
0.2081
 41
0.2081
 66
1
 10
0
 20
0
 30
0
  0
VERTEX
  8
LAYER_1
 10
82.173
 20
98.7414
  0
VERTEX
  8
LAYER_1
 10
82.7021
 20
98.7414
  0
SEQEND
  0
POLYLINE
  8
LAYER_1
 40
0.2081
 41
0.2081
 66
1
 10
0
 20
0
 30
0
  0
VERTEX
  8
LAYER_1
 10
83.2313
 20
98.7414
  0
VERTEX
  8
LAYER_1
 10
83.7605
 20
98.7414
  0
SEQEND
  0
POLYLINE
  8
LAYER_1
 40
0.2081
 41
0.2081
 66
1
 10
0
 20
0
 30
0
  0
VERTEX
  8
LAYER_1
 10
84.2896
 20
98.7414
  0
VERTEX
  8
LAYER_1
 10
84.8188
 20
98.7414
  0
SEQEND
  0
POLYLINE
  8
LAYER_1
 40
0.2081
 41
0.2081
 66
1
 10
0
 20
0
 30
0
  0
VERTEX
  8
LAYER_1
 10
85.348
 20
98.7414
  0
VERTEX
  8
LAYER_1
 10
85.8771
 20
98.7414
  0
SEQEND
  0
POLYLINE
  8
LAYER_1
 40
0.2081
 41
0.2081
 66
1
 10
0
 20
0
 30
0
  0
VERTEX
  8
LAYER_1
 10
86.4063
 20
98.7414
  0
VERTEX
  8
LAYER_1
 10
86.9355
 20
98.7414
  0
SEQEND
  0
POLYLINE
  8
LAYER_1
 40
0.2081
 41
0.2081
 66
1
 10
0
 20
0
 30
0
  0
VERTEX
  8
LAYER_1
 10
87.4646
 20
98.7414
  0
VERTEX
  8
LAYER_1
 10
87.9938
 20
98.7414
  0
SEQEND
  0
POLYLINE
  8
LAYER_1
 40
0.2081
 41
0.2081
 66
1
 10
0
 20
0
 30
0
  0
VERTEX
  8
LAYER_1
 10
88.523
 20
98.7414
  0
VERTEX
  8
LAYER_1
 10
89.0521
 20
98.7414
  0
SEQEND
  0
POLYLINE
  8
LAYER_1
 40
0.2081
 41
0.2081
 66
1
 10
0
 20
0
 30
0
  0
VERTEX
  8
LAYER_1
 10
89.5813
 20
98.7414
  0
VERTEX
  8
LAYER_1
 10
90.1105
 20
98.7414
  0
SEQEND
  0
POLYLINE
  8
LAYER_1
 40
0.2081
 41
0.2081
 66
1
 10
0
 20
0
 30
0
  0
VERTEX
  8
LAYER_1
 10
90.6396
 20
98.7414
  0
VERTEX
  8
LAYER_1
 10
91.1688
 20
98.7414
  0
SEQEND
  0
POLYLINE
  8
LAYER_1
 40
0.2081
 41
0.2081
 66
1
 10
0
 20
0
 30
0
  0
VERTEX
  8
LAYER_1
 10
91.698
 20
98.7414
  0
VERTEX
  8
LAYER_1
 10
92.2271
 20
98.7414
  0
SEQEND
  0
POLYLINE
  8
LAYER_1
 40
0.2081
 41
0.2081
 66
1
 10
0
 20
0
 30
0
  0
VERTEX
  8
LAYER_1
 10
92.7563
 20
98.7414
  0
VERTEX
  8
LAYER_1
 10
93.2855
 20
98.7414
  0
SEQEND
  0
POLYLINE
  8
LAYER_1
 40
0.2081
 41
0.2081
 66
1
 10
0
 20
0
 30
0
  0
VERTEX
  8
LAYER_1
 10
93.8146
 20
98.7414
  0
VERTEX
  8
LAYER_1
 10
94.3438
 20
98.7414
  0
SEQEND
  0
POLYLINE
  8
LAYER_1
 40
0.2081
 41
0.2081
 66
1
 10
0
 20
0
 30
0
  0
VERTEX
  8
LAYER_1
 10
94.873
 20
98.7414
  0
VERTEX
  8
LAYER_1
 10
95.4021
 20
98.7414
  0
SEQEND
  0
POLYLINE
  8
LAYER_1
 40
0.2081
 41
0.2081
 66
1
 10
0
 20
0
 30
0
  0
VERTEX
  8
LAYER_1
 10
95.9313
 20
98.7414
  0
VERTEX
  8
LAYER_1
 10
96.4605
 20
98.7414
  0
SEQEND
  0
POLYLINE
  8
LAYER_1
 40
0.2081
 41
0.2081
 66
1
 10
0
 20
0
 30
0
  0
VERTEX
  8
LAYER_1
 10
96.9896
 20
98.7414
  0
VERTEX
  8
LAYER_1
 10
97.5188
 20
98.7414
  0
SEQEND
  0
POLYLINE
  8
LAYER_1
 40
0.2081
 41
0.2081
 66
1
 10
0
 20
0
 30
0
  0
VERTEX
  8
LAYER_1
 10
98.048
 20
98.7414
  0
VERTEX
  8
LAYER_1
 10
98.5771
 20
98.7414
  0
SEQEND
  0
POLYLINE
  8
LAYER_1
 40
0.2081
 41
0.2081
 66
1
 10
0
 20
0
 30
0
  0
VERTEX
  8
LAYER_1
 10
99.1063
 20
98.7414
  0
VERTEX
  8
LAYER_1
 10
99.6355
 20
98.7414
  0
SEQEND
  0
POLYLINE
  8
LAYER_1
 40
0.2081
 41
0.2081
 66
1
 10
0
 20
0
 30
0
  0
VERTEX
  8
LAYER_1
 10
100.1646
 20
98.7414
  0
VERTEX
  8
LAYER_1
 10
100.6938
 20
98.7414
  0
SEQEND
  0
POLYLINE
  8
LAYER_1
 40
0.2081
 41
0.2081
 66
1
 10
0
 20
0
 30
0
  0
VERTEX
  8
LAYER_1
 10
101.223
 20
98.7414
  0
VERTEX
  8
LAYER_1
 10
101.7521
 20
98.7414
  0
SEQEND
  0
POLYLINE
  8
LAYER_1
 40
0.2081
 41
0.2081
 66
1
 10
0
 20
0
 30
0
  0
VERTEX
  8
LAYER_1
 10
102.2813
 20
98.7414
  0
VERTEX
  8
LAYER_1
 10
102.8105
 20
98.7414
  0
SEQEND
  0
POLYLINE
  8
LAYER_1
 40
0.2081
 41
0.2081
 66
1
 10
0
 20
0
 30
0
  0
VERTEX
  8
LAYER_1
 10
103.3396
 20
98.7414
  0
VERTEX
  8
LAYER_1
 10
103.8688
 20
98.7414
  0
SEQEND
  0
POLYLINE
  8
LAYER_1
 40
0.2081
 41
0.2081
 66
1
 10
0
 20
0
 30
0
  0
VERTEX
  8
LAYER_1
 10
104.398
 20
98.7414
  0
VERTEX
  8
LAYER_1
 10
104.9271
 20
98.7414
  0
SEQEND
  0
POLYLINE
  8
LAYER_1
 40
0.2081
 41
0.2081
 66
1
 10
0
 20
0
 30
0
  0
VERTEX
  8
LAYER_1
 10
105.4563
 20
98.7414
  0
VERTEX
  8
LAYER_1
 10
105.9855
 20
98.7414
  0
SEQEND
  0
POLYLINE
  8
LAYER_1
 40
0.2081
 41
0.2081
 66
1
 10
0
 20
0
 30
0
  0
VERTEX
  8
LAYER_1
 10
106.5146
 20
98.7414
  0
VERTEX
  8
LAYER_1
 10
107.0438
 20
98.7414
  0
SEQEND
  0
POLYLINE
  8
LAYER_1
 40
0.2081
 41
0.2081
 66
1
 10
0
 20
0
 30
0
  0
VERTEX
  8
LAYER_1
 10
107.573
 20
98.7414
  0
VERTEX
  8
LAYER_1
 10
108.1021
 20
98.7414
  0
SEQEND
  0
POLYLINE
  8
LAYER_1
 40
0.2081
 41
0.2081
 66
1
 10
0
 20
0
 30
0
  0
VERTEX
  8
LAYER_1
 10
108.6313
 20
98.7414
  0
VERTEX
  8
LAYER_1
 10
109.1605
 20
98.7414
  0
SEQEND
  0
POLYLINE
  8
LAYER_1
 40
0.2081
 41
0.2081
 66
1
 10
0
 20
0
 30
0
  0
VERTEX
  8
LAYER_1
 10
109.6896
 20
98.7414
  0
VERTEX
  8
LAYER_1
 10
110.2188
 20
98.7414
  0
SEQEND
  0
POLYLINE
  8
LAYER_1
 40
0.2081
 41
0.2081
 66
1
 10
0
 20
0
 30
0
  0
VERTEX
  8
LAYER_1
 10
110.748
 20
98.7414
  0
VERTEX
  8
LAYER_1
 10
111.2771
 20
98.7414
  0
SEQEND
  0
POLYLINE
  8
LAYER_1
 40
0.2081
 41
0.2081
 66
1
 10
0
 20
0
 30
0
  0
VERTEX
  8
LAYER_1
 10
111.8063
 20
98.7414
  0
VERTEX
  8
LAYER_1
 10
112.3355
 20
98.7414
  0
SEQEND
  0
POLYLINE
  8
LAYER_1
 40
0.2081
 41
0.2081
 66
1
 10
0
 20
0
 30
0
  0
VERTEX
  8
LAYER_1
 10
112.8646
 20
98.7414
  0
VERTEX
  8
LAYER_1
 10
113.3938
 20
98.7414
  0
SEQEND
  0
POLYLINE
  8
LAYER_1
 40
0.2081
 41
0.2081
 66
1
 10
0
 20
0
 30
0
  0
VERTEX
  8
LAYER_1
 10
113.923
 20
98.7414
  0
VERTEX
  8
LAYER_1
 10
114.4521
 20
98.7414
  0
SEQEND
  0
POLYLINE
  8
LAYER_1
 40
0.2081
 41
0.2081
 66
1
 10
0
 20
0
 30
0
  0
VERTEX
  8
LAYER_1
 10
114.9813
 20
98.7414
  0
VERTEX
  8
LAYER_1
 10
115.5105
 20
98.7414
  0
SEQEND
  0
POLYLINE
  8
LAYER_1
 40
0.2081
 41
0.2081
 66
1
 10
0
 20
0
 30
0
  0
VERTEX
  8
LAYER_1
 10
116.0396
 20
98.7414
  0
VERTEX
  8
LAYER_1
 10
116.5688
 20
98.7414
  0
SEQEND
  0
POLYLINE
  8
LAYER_1
 40
0.2081
 41
0.2081
 66
1
 10
0
 20
0
 30
0
  0
VERTEX
  8
LAYER_1
 10
117.098
 20
98.7414
  0
VERTEX
  8
LAYER_1
 10
117.6271
 20
98.7414
  0
SEQEND
  0
POLYLINE
  8
LAYER_1
 40
0.2081
 41
0.2081
 66
1
 10
0
 20
0
 30
0
  0
VERTEX
  8
LAYER_1
 10
118.1563
 20
98.7414
  0
VERTEX
  8
LAYER_1
 10
118.6855
 20
98.7414
  0
SEQEND
  0
POLYLINE
  8
LAYER_1
 40
0.2081
 41
0.2081
 66
1
 10
0
 20
0
 30
0
  0
VERTEX
  8
LAYER_1
 10
119.2146
 20
98.7414
  0
VERTEX
  8
LAYER_1
 10
119.7438
 20
98.7414
  0
SEQEND
  0
POLYLINE
  8
LAYER_1
 40
0.2081
 41
0.2081
 66
1
 10
0
 20
0
 30
0
  0
VERTEX
  8
LAYER_1
 10
120.273
 20
98.7414
  0
VERTEX
  8
LAYER_1
 10
120.3364
 20
98.7414
  0
SEQEND
  0
POLYLINE
  8
LAYER_1
 40
0.2081
 41
0.2081
 66
1
 10
0
 20
0
 30
0
  0
VERTEX
  8
LAYER_1
 10
120.3364
 20
98.7414
  0
VERTEX
  8
LAYER_1
 10
120.3364
 20
98.2757
  0
SEQEND
  0
POLYLINE
  8
LAYER_1
 40
0.2081
 41
0.2081
 66
1
 10
0
 20
0
 30
0
  0
VERTEX
  8
LAYER_1
 10
120.3364
 20
97.7466
  0
VERTEX
  8
LAYER_1
 10
120.3364
 20
97.2174
  0
SEQEND
  0
POLYLINE
  8
LAYER_1
 40
0.2081
 41
0.2081
 66
1
 10
0
 20
0
 30
0
  0
VERTEX
  8
LAYER_1
 10
120.3364
 20
96.6882
  0
VERTEX
  8
LAYER_1
 10
120.3364
 20
96.1591
  0
SEQEND
  0
POLYLINE
  8
LAYER_1
 40
0.2081
 41
0.2081
 66
1
 10
0
 20
0
 30
0
  0
VERTEX
  8
LAYER_1
 10
120.3364
 20
95.6299
  0
VERTEX
  8
LAYER_1
 10
120.3364
 20
95.1007
  0
SEQEND
  0
POLYLINE
  8
LAYER_1
 40
0.2081
 41
0.2081
 66
1
 10
0
 20
0
 30
0
  0
VERTEX
  8
LAYER_1
 10
120.3364
 20
94.5716
  0
VERTEX
  8
LAYER_1
 10
120.3364
 20
94.0424
  0
SEQEND
  0
POLYLINE
  8
LAYER_1
 40
0.2081
 41
0.2081
 66
1
 10
0
 20
0
 30
0
  0
VERTEX
  8
LAYER_1
 10
120.3364
 20
93.5132
  0
VERTEX
  8
LAYER_1
 10
120.3364
 20
92.9841
  0
SEQEND
  0
POLYLINE
  8
LAYER_1
 40
0.2081
 41
0.2081
 66
1
 10
0
 20
0
 30
0
  0
VERTEX
  8
LAYER_1
 10
120.3364
 20
92.4549
  0
VERTEX
  8
LAYER_1
 10
120.3364
 20
91.9257
  0
SEQEND
  0
POLYLINE
  8
LAYER_1
 40
0.2081
 41
0.2081
 66
1
 10
0
 20
0
 30
0
  0
VERTEX
  8
LAYER_1
 10
120.3364
 20
91.3966
  0
VERTEX
  8
LAYER_1
 10
120.3364
 20
90.8674
  0
SEQEND
  0
POLYLINE
  8
LAYER_1
 40
0.2081
 41
0.2081
 66
1
 10
0
 20
0
 30
0
  0
VERTEX
  8
LAYER_1
 10
120.3364
 20
90.3382
  0
VERTEX
  8
LAYER_1
 10
120.3364
 20
89.8091
  0
SEQEND
  0
POLYLINE
  8
LAYER_1
 40
0.2081
 41
0.2081
 66
1
 10
0
 20
0
 30
0
  0
VERTEX
  8
LAYER_1
 10
120.3364
 20
89.2799
  0
VERTEX
  8
LAYER_1
 10
120.3364
 20
88.7507
  0
SEQEND
  0
POLYLINE
  8
LAYER_1
 40
0.2081
 41
0.2081
 66
1
 10
0
 20
0
 30
0
  0
VERTEX
  8
LAYER_1
 10
120.3364
 20
88.2216
  0
VERTEX
  8
LAYER_1
 10
120.3364
 20
87.6924
  0
SEQEND
  0
POLYLINE
  8
LAYER_1
 40
0.2081
 41
0.2081
 66
1
 10
0
 20
0
 30
0
  0
VERTEX
  8
LAYER_1
 10
120.3364
 20
87.1632
  0
VERTEX
  8
LAYER_1
 10
120.3364
 20
86.6341
  0
SEQEND
  0
POLYLINE
  8
LAYER_1
 40
0.2081
 41
0.2081
 66
1
 10
0
 20
0
 30
0
  0
VERTEX
  8
LAYER_1
 10
120.3364
 20
86.1049
  0
VERTEX
  8
LAYER_1
 10
120.3364
 20
85.5757
  0
SEQEND
  0
POLYLINE
  8
LAYER_1
 40
0.2081
 41
0.2081
 66
1
 10
0
 20
0
 30
0
  0
VERTEX
  8
LAYER_1
 10
120.3364
 20
85.0466
  0
VERTEX
  8
LAYER_1
 10
120.3364
 20
84.5174
  0
SEQEND
  0
POLYLINE
  8
LAYER_1
 40
0.2081
 41
0.2081
 66
1
 10
0
 20
0
 30
0
  0
VERTEX
  8
LAYER_1
 10
120.3364
 20
83.9882
  0
VERTEX
  8
LAYER_1
 10
120.3364
 20
83.4591
  0
SEQEND
  0
POLYLINE
  8
LAYER_1
 40
0.2081
 41
0.2081
 66
1
 10
0
 20
0
 30
0
  0
VERTEX
  8
LAYER_1
 10
120.3364
 20
82.9299
  0
VERTEX
  8
LAYER_1
 10
120.3364
 20
82.4007
  0
SEQEND
  0
POLYLINE
  8
LAYER_1
 40
0.2081
 41
0.2081
 66
1
 10
0
 20
0
 30
0
  0
VERTEX
  8
LAYER_1
 10
120.3364
 20
81.8716
  0
VERTEX
  8
LAYER_1
 10
120.3364
 20
81.3424
  0
SEQEND
  0
POLYLINE
  8
LAYER_1
 40
0.2081
 41
0.2081
 66
1
 10
0
 20
0
 30
0
  0
VERTEX
  8
LAYER_1
 10
120.3364
 20
80.8132
  0
VERTEX
  8
LAYER_1
 10
120.3364
 20
80.2841
  0
SEQEND
  0
POLYLINE
  8
LAYER_1
 40
0.2081
 41
0.2081
 66
1
 10
0
 20
0
 30
0
  0
VERTEX
  8
LAYER_1
 10
120.3364
 20
79.7549
  0
VERTEX
  8
LAYER_1
 10
120.3364
 20
79.2257
  0
SEQEND
  0
POLYLINE
  8
LAYER_1
 40
0.2081
 41
0.2081
 66
1
 10
0
 20
0
 30
0
  0
VERTEX
  8
LAYER_1
 10
120.3364
 20
78.6966
  0
VERTEX
  8
LAYER_1
 10
120.3364
 20
78.1674
  0
SEQEND
  0
POLYLINE
  8
LAYER_1
 40
0.2081
 41
0.2081
 66
1
 10
0
 20
0
 30
0
  0
VERTEX
  8
LAYER_1
 10
120.3364
 20
77.6382
  0
VERTEX
  8
LAYER_1
 10
120.3364
 20
77.1091
  0
SEQEND
  0
POLYLINE
  8
LAYER_1
 40
0.2081
 41
0.2081
 66
1
 10
0
 20
0
 30
0
  0
VERTEX
  8
LAYER_1
 10
120.3364
 20
76.5799
  0
VERTEX
  8
LAYER_1
 10
120.3364
 20
76.0507
  0
SEQEND
  0
POLYLINE
  8
LAYER_1
 40
0.2081
 41
0.2081
 66
1
 10
0
 20
0
 30
0
  0
VERTEX
  8
LAYER_1
 10
120.3364
 20
75.5216
  0
VERTEX
  8
LAYER_1
 10
120.3364
 20
75.0771
  0
SEQEND
  0
POLYLINE
  8
LAYER_1
 40
0.2081
 41
0.2081
 66
1
 10
0
 20
0
 30
0
  0
VERTEX
  8
LAYER_1
 10
120.3364
 20
75.0771
  0
VERTEX
  8
LAYER_1
 10
120.2518
 20
75.0771
  0
SEQEND
  0
POLYLINE
  8
LAYER_1
 40
0.2081
 41
0.2081
 66
1
 10
0
 20
0
 30
0
  0
VERTEX
  8
LAYER_1
 10
119.7226
 20
75.0771
  0
VERTEX
  8
LAYER_1
 10
119.1934
 20
75.0771
  0
SEQEND
  0
POLYLINE
  8
LAYER_1
 40
0.2081
 41
0.2081
 66
1
 10
0
 20
0
 30
0
  0
VERTEX
  8
LAYER_1
 10
118.6643
 20
75.0771
  0
VERTEX
  8
LAYER_1
 10
118.1351
 20
75.0771
  0
SEQEND
  0
POLYLINE
  8
LAYER_1
 40
0.2081
 41
0.2081
 66
1
 10
0
 20
0
 30
0
  0
VERTEX
  8
LAYER_1
 10
117.6059
 20
75.0771
  0
VERTEX
  8
LAYER_1
 10
117.0768
 20
75.0771
  0
SEQEND
  0
POLYLINE
  8
LAYER_1
 40
0.2081
 41
0.2081
 66
1
 10
0
 20
0
 30
0
  0
VERTEX
  8
LAYER_1
 10
116.5476
 20
75.0771
  0
VERTEX
  8
LAYER_1
 10
116.0184
 20
75.0771
  0
SEQEND
  0
POLYLINE
  8
LAYER_1
 40
0.2081
 41
0.2081
 66
1
 10
0
 20
0
 30
0
  0
VERTEX
  8
LAYER_1
 10
115.4893
 20
75.0771
  0
VERTEX
  8
LAYER_1
 10
114.9601
 20
75.0771
  0
SEQEND
  0
POLYLINE
  8
LAYER_1
 40
0.2081
 41
0.2081
 66
1
 10
0
 20
0
 30
0
  0
VERTEX
  8
LAYER_1
 10
114.4309
 20
75.0771
  0
VERTEX
  8
LAYER_1
 10
113.9018
 20
75.0771
  0
SEQEND
  0
POLYLINE
  8
LAYER_1
 40
0.2081
 41
0.2081
 66
1
 10
0
 20
0
 30
0
  0
VERTEX
  8
LAYER_1
 10
113.3726
 20
75.0771
  0
VERTEX
  8
LAYER_1
 10
112.8434
 20
75.0771
  0
SEQEND
  0
POLYLINE
  8
LAYER_1
 40
0.2081
 41
0.2081
 66
1
 10
0
 20
0
 30
0
  0
VERTEX
  8
LAYER_1
 10
112.3143
 20
75.0771
  0
VERTEX
  8
LAYER_1
 10
111.7851
 20
75.0771
  0
SEQEND
  0
POLYLINE
  8
LAYER_1
 40
0.2081
 41
0.2081
 66
1
 10
0
 20
0
 30
0
  0
VERTEX
  8
LAYER_1
 10
111.2559
 20
75.0771
  0
VERTEX
  8
LAYER_1
 10
110.7268
 20
75.0771
  0
SEQEND
  0
POLYLINE
  8
LAYER_1
 40
0.2081
 41
0.2081
 66
1
 10
0
 20
0
 30
0
  0
VERTEX
  8
LAYER_1
 10
110.1976
 20
75.0771
  0
VERTEX
  8
LAYER_1
 10
109.6684
 20
75.0771
  0
SEQEND
  0
POLYLINE
  8
LAYER_1
 40
0.2081
 41
0.2081
 66
1
 10
0
 20
0
 30
0
  0
VERTEX
  8
LAYER_1
 10
109.1393
 20
75.0771
  0
VERTEX
  8
LAYER_1
 10
108.6101
 20
75.0771
  0
SEQEND
  0
POLYLINE
  8
LAYER_1
 40
0.2081
 41
0.2081
 66
1
 10
0
 20
0
 30
0
  0
VERTEX
  8
LAYER_1
 10
108.0809
 20
75.0771
  0
VERTEX
  8
LAYER_1
 10
107.5518
 20
75.0771
  0
SEQEND
  0
POLYLINE
  8
LAYER_1
 40
0.2081
 41
0.2081
 66
1
 10
0
 20
0
 30
0
  0
VERTEX
  8
LAYER_1
 10
107.0226
 20
75.0771
  0
VERTEX
  8
LAYER_1
 10
106.4934
 20
75.0771
  0
SEQEND
  0
POLYLINE
  8
LAYER_1
 40
0.2081
 41
0.2081
 66
1
 10
0
 20
0
 30
0
  0
VERTEX
  8
LAYER_1
 10
105.9643
 20
75.0771
  0
VERTEX
  8
LAYER_1
 10
105.4351
 20
75.0771
  0
SEQEND
  0
POLYLINE
  8
LAYER_1
 40
0.2081
 41
0.2081
 66
1
 10
0
 20
0
 30
0
  0
VERTEX
  8
LAYER_1
 10
104.9059
 20
75.0771
  0
VERTEX
  8
LAYER_1
 10
104.3768
 20
75.0771
  0
SEQEND
  0
POLYLINE
  8
LAYER_1
 40
0.2081
 41
0.2081
 66
1
 10
0
 20
0
 30
0
  0
VERTEX
  8
LAYER_1
 10
103.8476
 20
75.0771
  0
VERTEX
  8
LAYER_1
 10
103.3184
 20
75.0771
  0
SEQEND
  0
POLYLINE
  8
LAYER_1
 40
0.2081
 41
0.2081
 66
1
 10
0
 20
0
 30
0
  0
VERTEX
  8
LAYER_1
 10
102.7893
 20
75.0771
  0
VERTEX
  8
LAYER_1
 10
102.2601
 20
75.0771
  0
SEQEND
  0
POLYLINE
  8
LAYER_1
 40
0.2081
 41
0.2081
 66
1
 10
0
 20
0
 30
0
  0
VERTEX
  8
LAYER_1
 10
101.7309
 20
75.0771
  0
VERTEX
  8
LAYER_1
 10
101.2018
 20
75.0771
  0
SEQEND
  0
POLYLINE
  8
LAYER_1
 40
0.2081
 41
0.2081
 66
1
 10
0
 20
0
 30
0
  0
VERTEX
  8
LAYER_1
 10
100.6726
 20
75.0771
  0
VERTEX
  8
LAYER_1
 10
100.1434
 20
75.0771
  0
SEQEND
  0
POLYLINE
  8
LAYER_1
 40
0.2081
 41
0.2081
 66
1
 10
0
 20
0
 30
0
  0
VERTEX
  8
LAYER_1
 10
99.6143
 20
75.0771
  0
VERTEX
  8
LAYER_1
 10
99.0851
 20
75.0771
  0
SEQEND
  0
POLYLINE
  8
LAYER_1
 40
0.2081
 41
0.2081
 66
1
 10
0
 20
0
 30
0
  0
VERTEX
  8
LAYER_1
 10
98.5559
 20
75.0771
  0
VERTEX
  8
LAYER_1
 10
98.0268
 20
75.0771
  0
SEQEND
  0
POLYLINE
  8
LAYER_1
 40
0.2081
 41
0.2081
 66
1
 10
0
 20
0
 30
0
  0
VERTEX
  8
LAYER_1
 10
97.4976
 20
75.0771
  0
VERTEX
  8
LAYER_1
 10
96.9684
 20
75.0771
  0
SEQEND
  0
POLYLINE
  8
LAYER_1
 40
0.2081
 41
0.2081
 66
1
 10
0
 20
0
 30
0
  0
VERTEX
  8
LAYER_1
 10
96.4393
 20
75.0771
  0
VERTEX
  8
LAYER_1
 10
95.9101
 20
75.0771
  0
SEQEND
  0
POLYLINE
  8
LAYER_1
 40
0.2081
 41
0.2081
 66
1
 10
0
 20
0
 30
0
  0
VERTEX
  8
LAYER_1
 10
95.3809
 20
75.0771
  0
VERTEX
  8
LAYER_1
 10
94.8518
 20
75.0771
  0
SEQEND
  0
POLYLINE
  8
LAYER_1
 40
0.2081
 41
0.2081
 66
1
 10
0
 20
0
 30
0
  0
VERTEX
  8
LAYER_1
 10
94.3226
 20
75.0771
  0
VERTEX
  8
LAYER_1
 10
93.7934
 20
75.0771
  0
SEQEND
  0
POLYLINE
  8
LAYER_1
 40
0.2081
 41
0.2081
 66
1
 10
0
 20
0
 30
0
  0
VERTEX
  8
LAYER_1
 10
93.2643
 20
75.0771
  0
VERTEX
  8
LAYER_1
 10
92.7351
 20
75.0771
  0
SEQEND
  0
POLYLINE
  8
LAYER_1
 40
0.2081
 41
0.2081
 66
1
 10
0
 20
0
 30
0
  0
VERTEX
  8
LAYER_1
 10
92.2059
 20
75.0771
  0
VERTEX
  8
LAYER_1
 10
91.6768
 20
75.0771
  0
SEQEND
  0
POLYLINE
  8
LAYER_1
 40
0.2081
 41
0.2081
 66
1
 10
0
 20
0
 30
0
  0
VERTEX
  8
LAYER_1
 10
91.1476
 20
75.0771
  0
VERTEX
  8
LAYER_1
 10
90.6184
 20
75.0771
  0
SEQEND
  0
POLYLINE
  8
LAYER_1
 40
0.2081
 41
0.2081
 66
1
 10
0
 20
0
 30
0
  0
VERTEX
  8
LAYER_1
 10
90.0893
 20
75.0771
  0
VERTEX
  8
LAYER_1
 10
89.5601
 20
75.0771
  0
SEQEND
  0
POLYLINE
  8
LAYER_1
 40
0.2081
 41
0.2081
 66
1
 10
0
 20
0
 30
0
  0
VERTEX
  8
LAYER_1
 10
89.0309
 20
75.0771
  0
VERTEX
  8
LAYER_1
 10
88.5018
 20
75.0771
  0
SEQEND
  0
POLYLINE
  8
LAYER_1
 40
0.2081
 41
0.2081
 66
1
 10
0
 20
0
 30
0
  0
VERTEX
  8
LAYER_1
 10
87.9726
 20
75.0771
  0
VERTEX
  8
LAYER_1
 10
87.4434
 20
75.0771
  0
SEQEND
  0
POLYLINE
  8
LAYER_1
 40
0.2081
 41
0.2081
 66
1
 10
0
 20
0
 30
0
  0
VERTEX
  8
LAYER_1
 10
86.9143
 20
75.0771
  0
VERTEX
  8
LAYER_1
 10
86.3851
 20
75.0771
  0
SEQEND
  0
POLYLINE
  8
LAYER_1
 40
0.2081
 41
0.2081
 66
1
 10
0
 20
0
 30
0
  0
VERTEX
  8
LAYER_1
 10
85.8559
 20
75.0771
  0
VERTEX
  8
LAYER_1
 10
85.3268
 20
75.0771
  0
SEQEND
  0
POLYLINE
  8
LAYER_1
 40
0.2081
 41
0.2081
 66
1
 10
0
 20
0
 30
0
  0
VERTEX
  8
LAYER_1
 10
84.7976
 20
75.0771
  0
VERTEX
  8
LAYER_1
 10
84.2684
 20
75.0771
  0
SEQEND
  0
POLYLINE
  8
LAYER_1
 40
0.2081
 41
0.2081
 66
1
 10
0
 20
0
 30
0
  0
VERTEX
  8
LAYER_1
 10
83.7393
 20
75.0771
  0
VERTEX
  8
LAYER_1
 10
83.2101
 20
75.0771
  0
SEQEND
  0
POLYLINE
  8
LAYER_1
 40
0.2081
 41
0.2081
 66
1
 10
0
 20
0
 30
0
  0
VERTEX
  8
LAYER_1
 10
82.6809
 20
75.0771
  0
VERTEX
  8
LAYER_1
 10
82.1518
 20
75.0771
  0
SEQEND
  0
POLYLINE
  8
LAYER_1
 40
0.2081
 41
0.2081
 66
1
 10
0
 20
0
 30
0
  0
VERTEX
  8
LAYER_1
 10
81.6226
 20
75.0771
  0
VERTEX
  8
LAYER_1
 10
81.0934
 20
75.0771
  0
SEQEND
  0
POLYLINE
  8
LAYER_1
 40
0.2081
 41
0.2081
 66
1
 10
0
 20
0
 30
0
  0
VERTEX
  8
LAYER_1
 10
80.5643
 20
75.0771
  0
VERTEX
  8
LAYER_1
 10
80.0351
 20
75.0771
  0
SEQEND
  0
POLYLINE
  8
LAYER_1
 40
0.2081
 41
0.2081
 66
1
 10
0
 20
0
 30
0
  0
VERTEX
  8
LAYER_1
 10
79.5059
 20
75.0771
  0
VERTEX
  8
LAYER_1
 10
78.9768
 20
75.0771
  0
SEQEND
  0
POLYLINE
  8
LAYER_1
 40
0.2081
 41
0.2081
 66
1
 10
0
 20
0
 30
0
  0
VERTEX
  8
LAYER_1
 10
78.4476
 20
75.0771
  0
VERTEX
  8
LAYER_1
 10
77.9184
 20
75.0771
  0
SEQEND
  0
POLYLINE
  8
LAYER_1
 40
0.2081
 41
0.2081
 66
1
 10
0
 20
0
 30
0
  0
VERTEX
  8
LAYER_1
 10
77.3893
 20
75.0771
  0
VERTEX
  8
LAYER_1
 10
76.8601
 20
75.0771
  0
SEQEND
  0
POLYLINE
  8
LAYER_1
 40
0.2081
 41
0.2081
 66
1
 10
0
 20
0
 30
0
  0
VERTEX
  8
LAYER_1
 10
76.3309
 20
75.0771
  0
VERTEX
  8
LAYER_1
 10
75.8018
 20
75.0771
  0
SEQEND
  0
POLYLINE
  8
LAYER_1
 40
0.2081
 41
0.2081
 66
1
 10
0
 20
0
 30
0
  0
VERTEX
  8
LAYER_1
 10
75.2726
 20
75.0771
  0
VERTEX
  8
LAYER_1
 10
74.7434
 20
75.0771
  0
SEQEND
  0
POLYLINE
  8
LAYER_1
 40
0.2081
 41
0.2081
 66
1
 10
0
 20
0
 30
0
  0
VERTEX
  8
LAYER_1
 10
74.2143
 20
75.0771
  0
VERTEX
  8
LAYER_1
 10
73.6851
 20
75.0771
  0
SEQEND
  0
POLYLINE
  8
LAYER_1
 40
0.2081
 41
0.2081
 66
1
 10
0
 20
0
 30
0
  0
VERTEX
  8
LAYER_1
 10
73.1559
 20
75.0771
  0
VERTEX
  8
LAYER_1
 10
72.6268
 20
75.0771
  0
SEQEND
  0
POLYLINE
  8
LAYER_1
 40
0.2081
 41
0.2081
 66
1
 10
0
 20
0
 30
0
  0
VERTEX
  8
LAYER_1
 10
72.0976
 20
75.0771
  0
VERTEX
  8
LAYER_1
 10
71.5684
 20
75.0771
  0
SEQEND
  0
POLYLINE
  8
LAYER_1
 40
0.2081
 41
0.2081
 66
1
 10
0
 20
0
 30
0
  0
VERTEX
  8
LAYER_1
 10
71.0393
 20
75.0771
  0
VERTEX
  8
LAYER_1
 10
70.5101
 20
75.0771
  0
SEQEND
  0
POLYLINE
  8
LAYER_1
 40
0.2081
 41
0.2081
 66
1
 10
0
 20
0
 30
0
  0
VERTEX
  8
LAYER_1
 10
69.9809
 20
75.0771
  0
VERTEX
  8
LAYER_1
 10
69.4518
 20
75.0771
  0
SEQEND
  0
POLYLINE
  8
LAYER_1
 40
0.2081
 41
0.2081
 66
1
 10
0
 20
0
 30
0
  0
VERTEX
  8
LAYER_1
 10
68.9226
 20
75.0771
  0
VERTEX
  8
LAYER_1
 10
68.3934
 20
75.0771
  0
SEQEND
  0
POLYLINE
  8
LAYER_1
 40
0.2081
 41
0.2081
 66
1
 10
0
 20
0
 30
0
  0
VERTEX
  8
LAYER_1
 10
67.8643
 20
75.0771
  0
VERTEX
  8
LAYER_1
 10
67.3351
 20
75.0771
  0
SEQEND
  0
POLYLINE
  8
LAYER_1
 40
0.2081
 41
0.2081
 66
1
 10
0
 20
0
 30
0
  0
VERTEX
  8
LAYER_1
 10
66.8059
 20
75.0771
  0
VERTEX
  8
LAYER_1
 10
66.2768
 20
75.0771
  0
SEQEND
  0
POLYLINE
  8
LAYER_1
 40
0.2081
 41
0.2081
 66
1
 10
0
 20
0
 30
0
  0
VERTEX
  8
LAYER_1
 10
65.7476
 20
75.0771
  0
VERTEX
  8
LAYER_1
 10
65.2184
 20
75.0771
  0
SEQEND
  0
POLYLINE
  8
LAYER_1
 40
0.2081
 41
0.2081
 66
1
 10
0
 20
0
 30
0
  0
VERTEX
  8
LAYER_1
 10
64.6893
 20
75.0771
  0
VERTEX
  8
LAYER_1
 10
64.1601
 20
75.0771
  0
SEQEND
  0
POLYLINE
  8
LAYER_1
 40
0.2081
 41
0.2081
 66
1
 10
0
 20
0
 30
0
  0
VERTEX
  8
LAYER_1
 10
63.6309
 20
75.0771
  0
VERTEX
  8
LAYER_1
 10
63.1018
 20
75.0771
  0
SEQEND
  0
POLYLINE
  8
LAYER_1
 40
0.2081
 41
0.2081
 66
1
 10
0
 20
0
 30
0
  0
VERTEX
  8
LAYER_1
 10
62.5726
 20
75.0771
  0
VERTEX
  8
LAYER_1
 10
62.0434
 20
75.0771
  0
SEQEND
  0
POLYLINE
  8
LAYER_1
 40
0.2081
 41
0.2081
 66
1
 10
0
 20
0
 30
0
  0
VERTEX
  8
LAYER_1
 10
61.5143
 20
75.0771
  0
VERTEX
  8
LAYER_1
 10
60.9851
 20
75.0771
  0
SEQEND
  0
POLYLINE
  8
LAYER_1
 40
0.2081
 41
0.2081
 66
1
 10
0
 20
0
 30
0
  0
VERTEX
  8
LAYER_1
 10
60.4559
 20
75.0771
  0
VERTEX
  8
LAYER_1
 10
59.9268
 20
75.0771
  0
SEQEND
  0
POLYLINE
  8
LAYER_1
 40
0.2081
 41
0.2081
 66
1
 10
0
 20
0
 30
0
  0
VERTEX
  8
LAYER_1
 10
59.3976
 20
75.0771
  0
VERTEX
  8
LAYER_1
 10
58.8684
 20
75.0771
  0
SEQEND
  0
POLYLINE
  8
LAYER_1
 40
0.2081
 41
0.2081
 66
1
 10
0
 20
0
 30
0
  0
VERTEX
  8
LAYER_1
 10
58.3393
 20
75.0771
  0
VERTEX
  8
LAYER_1
 10
57.8101
 20
75.0771
  0
SEQEND
  0
POLYLINE
  8
LAYER_1
 40
0.2081
 41
0.2081
 66
1
 10
0
 20
0
 30
0
  0
VERTEX
  8
LAYER_1
 10
57.2809
 20
75.0771
  0
VERTEX
  8
LAYER_1
 10
56.7518
 20
75.0771
  0
SEQEND
  0
POLYLINE
  8
LAYER_1
 40
0.2081
 41
0.2081
 66
1
 10
0
 20
0
 30
0
  0
VERTEX
  8
LAYER_1
 10
56.2226
 20
75.0771
  0
VERTEX
  8
LAYER_1
 10
55.6934
 20
75.0771
  0
SEQEND
  0
POLYLINE
  8
LAYER_1
 40
0.2081
 41
0.2081
 66
1
 10
0
 20
0
 30
0
  0
VERTEX
  8
LAYER_1
 10
55.1643
 20
75.0771
  0
VERTEX
  8
LAYER_1
 10
54.6351
 20
75.0771
  0
SEQEND
  0
POLYLINE
  8
LAYER_1
 40
0.2081
 41
0.2081
 66
1
 10
0
 20
0
 30
0
  0
VERTEX
  8
LAYER_1
 10
54.1059
 20
75.0771
  0
VERTEX
  8
LAYER_1
 10
53.5768
 20
75.0771
  0
SEQEND
  0
POLYLINE
  8
LAYER_1
 40
0.2081
 41
0.2081
 66
1
 10
0
 20
0
 30
0
  0
VERTEX
  8
LAYER_1
 10
53.0476
 20
75.0771
  0
VERTEX
  8
LAYER_1
 10
52.5184
 20
75.0771
  0
SEQEND
  0
POLYLINE
  8
LAYER_1
 40
0.2081
 41
0.2081
 66
1
 10
0
 20
0
 30
0
  0
VERTEX
  8
LAYER_1
 10
51.9893
 20
75.0771
  0
VERTEX
  8
LAYER_1
 10
51.4601
 20
75.0771
  0
SEQEND
  0
POLYLINE
  8
LAYER_1
 40
0.2081
 41
0.2081
 66
1
 10
0
 20
0
 30
0
  0
VERTEX
  8
LAYER_1
 10
50.9309
 20
75.0771
  0
VERTEX
  8
LAYER_1
 10
50.4018
 20
75.0771
  0
SEQEND
  0
POLYLINE
  8
LAYER_1
 40
0.2081
 41
0.2081
 66
1
 10
0
 20
0
 30
0
  0
VERTEX
  8
LAYER_1
 10
49.8726
 20
75.0771
  0
VERTEX
  8
LAYER_1
 10
49.3434
 20
75.0771
  0
SEQEND
  0
POLYLINE
  8
LAYER_1
 40
0.2081
 41
0.2081
 66
1
 10
0
 20
0
 30
0
  0
VERTEX
  8
LAYER_1
 10
48.8143
 20
75.0771
  0
VERTEX
  8
LAYER_1
 10
48.2851
 20
75.0771
  0
SEQEND
  0
POLYLINE
  8
LAYER_1
 40
0.2081
 41
0.2081
 66
1
 10
0
 20
0
 30
0
  0
VERTEX
  8
LAYER_1
 10
47.7559
 20
75.0771
  0
VERTEX
  8
LAYER_1
 10
47.2268
 20
75.0771
  0
SEQEND
  0
POLYLINE
  8
LAYER_1
 40
0.2081
 41
0.2081
 66
1
 10
0
 20
0
 30
0
  0
VERTEX
  8
LAYER_1
 10
46.6976
 20
75.0771
  0
VERTEX
  8
LAYER_1
 10
46.1684
 20
75.0771
  0
SEQEND
  0
POLYLINE
  8
LAYER_1
 40
0.2081
 41
0.2081
 66
1
 10
0
 20
0
 30
0
  0
VERTEX
  8
LAYER_1
 10
45.6393
 20
75.0771
  0
VERTEX
  8
LAYER_1
 10
45.1101
 20
75.0771
  0
SEQEND
  0
POLYLINE
  8
LAYER_1
 40
0.2081
 41
0.2081
 66
1
 10
0
 20
0
 30
0
  0
VERTEX
  8
LAYER_1
 10
44.5809
 20
75.0771
  0
VERTEX
  8
LAYER_1
 10
44.0518
 20
75.0771
  0
SEQEND
  0
POLYLINE
  8
LAYER_1
 40
0.2081
 41
0.2081
 66
1
 10
0
 20
0
 30
0
  0
VERTEX
  8
LAYER_1
 10
43.5226
 20
75.0771
  0
VERTEX
  8
LAYER_1
 10
42.9934
 20
75.0771
  0
SEQEND
  0
POLYLINE
  8
LAYER_1
 40
0.2081
 41
0.2081
 66
1
 10
0
 20
0
 30
0
  0
VERTEX
  8
LAYER_1
 10
42.4643
 20
75.0771
  0
VERTEX
  8
LAYER_1
 10
41.9351
 20
75.0771
  0
SEQEND
  0
POLYLINE
  8
LAYER_1
 40
0.2081
 41
0.2081
 66
1
 10
0
 20
0
 30
0
  0
VERTEX
  8
LAYER_1
 10
41.4059
 20
75.0771
  0
VERTEX
  8
LAYER_1
 10
40.8768
 20
75.0771
  0
SEQEND
  0
POLYLINE
  8
LAYER_1
 40
0.2081
 41
0.2081
 66
1
 10
0
 20
0
 30
0
  0
VERTEX
  8
LAYER_1
 10
40.3476
 20
75.0771
  0
VERTEX
  8
LAYER_1
 10
39.8396
 20
75.0771
  0
SEQEND
  0
POLYLINE
  8
LAYER_1
 40
0.2081
 41
0.2081
 66
1
 10
0
 20
0
 30
0
  0
VERTEX
  8
LAYER_1
 10
39.8396
 20
75.0771
  0
VERTEX
  8
LAYER_1
 10
39.8396
 20
75.0982
  0
SEQEND
  0
POLYLINE
  8
LAYER_1
 40
0.2081
 41
0.2081
 66
1
 10
0
 20
0
 30
0
  0
VERTEX
  8
LAYER_1
 10
39.8396
 20
75.6274
  0
VERTEX
  8
LAYER_1
 10
39.8396
 20
76.1566
  0
SEQEND
  0
POLYLINE
  8
LAYER_1
 40
0.2081
 41
0.2081
 66
1
 10
0
 20
0
 30
0
  0
VERTEX
  8
LAYER_1
 10
39.8396
 20
76.6857
  0
VERTEX
  8
LAYER_1
 10
39.8396
 20
77.2149
  0
SEQEND
  0
POLYLINE
  8
LAYER_1
 40
0.2081
 41
0.2081
 66
1
 10
0
 20
0
 30
0
  0
VERTEX
  8
LAYER_1
 10
39.8396
 20
77.7441
  0
VERTEX
  8
LAYER_1
 10
39.8396
 20
78.2732
  0
SEQEND
  0
POLYLINE
  8
LAYER_1
 40
0.2081
 41
0.2081
 66
1
 10
0
 20
0
 30
0
  0
VERTEX
  8
LAYER_1
 10
39.8396
 20
78.8024
  0
VERTEX
  8
LAYER_1
 10
39.8396
 20
79.3316
  0
SEQEND
  0
POLYLINE
  8
LAYER_1
 40
0.2081
 41
0.2081
 66
1
 10
0
 20
0
 30
0
  0
VERTEX
  8
LAYER_1
 10
39.8396
 20
79.8607
  0
VERTEX
  8
LAYER_1
 10
39.8396
 20
80.3899
  0
SEQEND
  0
POLYLINE
  8
LAYER_1
 40
0.2081
 41
0.2081
 66
1
 10
0
 20
0
 30
0
  0
VERTEX
  8
LAYER_1
 10
39.8396
 20
80.9191
  0
VERTEX
  8
LAYER_1
 10
39.8396
 20
81.4482
  0
SEQEND
  0
POLYLINE
  8
LAYER_1
 40
0.2081
 41
0.2081
 66
1
 10
0
 20
0
 30
0
  0
VERTEX
  8
LAYER_1
 10
39.8396
 20
81.9774
  0
VERTEX
  8
LAYER_1
 10
39.8396
 20
82.5066
  0
SEQEND
  0
POLYLINE
  8
LAYER_1
 40
0.2081
 41
0.2081
 66
1
 10
0
 20
0
 30
0
  0
VERTEX
  8
LAYER_1
 10
39.8396
 20
83.0357
  0
VERTEX
  8
LAYER_1
 10
39.8396
 20
83.5649
  0
SEQEND
  0
POLYLINE
  8
LAYER_1
 40
0.2081
 41
0.2081
 66
1
 10
0
 20
0
 30
0
  0
VERTEX
  8
LAYER_1
 10
39.8396
 20
84.0941
  0
VERTEX
  8
LAYER_1
 10
39.8396
 20
84.6232
  0
SEQEND
  0
POLYLINE
  8
LAYER_1
 40
0.2081
 41
0.2081
 66
1
 10
0
 20
0
 30
0
  0
VERTEX
  8
LAYER_1
 10
39.8396
 20
85.1524
  0
VERTEX
  8
LAYER_1
 10
39.8396
 20
85.6816
  0
SEQEND
  0
POLYLINE
  8
LAYER_1
 40
0.2081
 41
0.2081
 66
1
 10
0
 20
0
 30
0
  0
VERTEX
  8
LAYER_1
 10
39.8396
 20
86.2107
  0
VERTEX
  8
LAYER_1
 10
39.8396
 20
86.7399
  0
SEQEND
  0
POLYLINE
  8
LAYER_1
 40
0.2081
 41
0.2081
 66
1
 10
0
 20
0
 30
0
  0
VERTEX
  8
LAYER_1
 10
39.8396
 20
87.2691
  0
VERTEX
  8
LAYER_1
 10
39.8396
 20
87.7982
  0
SEQEND
  0
POLYLINE
  8
LAYER_1
 40
0.2081
 41
0.2081
 66
1
 10
0
 20
0
 30
0
  0
VERTEX
  8
LAYER_1
 10
39.8396
 20
88.3274
  0
VERTEX
  8
LAYER_1
 10
39.8396
 20
88.8566
  0
SEQEND
  0
POLYLINE
  8
LAYER_1
 40
0.2081
 41
0.2081
 66
1
 10
0
 20
0
 30
0
  0
VERTEX
  8
LAYER_1
 10
39.8396
 20
89.3857
  0
VERTEX
  8
LAYER_1
 10
39.8396
 20
89.9149
  0
SEQEND
  0
POLYLINE
  8
LAYER_1
 40
0.2081
 41
0.2081
 66
1
 10
0
 20
0
 30
0
  0
VERTEX
  8
LAYER_1
 10
39.8396
 20
90.4441
  0
VERTEX
  8
LAYER_1
 10
39.8396
 20
90.9732
  0
SEQEND
  0
POLYLINE
  8
LAYER_1
 40
0.2081
 41
0.2081
 66
1
 10
0
 20
0
 30
0
  0
VERTEX
  8
LAYER_1
 10
39.8396
 20
91.5024
  0
VERTEX
  8
LAYER_1
 10
39.8396
 20
92.0316
  0
SEQEND
  0
POLYLINE
  8
LAYER_1
 40
0.2081
 41
0.2081
 66
1
 10
0
 20
0
 30
0
  0
VERTEX
  8
LAYER_1
 10
39.8396
 20
92.5607
  0
VERTEX
  8
LAYER_1
 10
39.8396
 20
93.0899
  0
SEQEND
  0
POLYLINE
  8
LAYER_1
 40
0.2081
 41
0.2081
 66
1
 10
0
 20
0
 30
0
  0
VERTEX
  8
LAYER_1
 10
39.8396
 20
93.6191
  0
VERTEX
  8
LAYER_1
 10
39.8396
 20
94.1482
  0
SEQEND
  0
POLYLINE
  8
LAYER_1
 40
0.2081
 41
0.2081
 66
1
 10
0
 20
0
 30
0
  0
VERTEX
  8
LAYER_1
 10
39.8396
 20
94.6774
  0
VERTEX
  8
LAYER_1
 10
39.8396
 20
95.2066
  0
SEQEND
  0
POLYLINE
  8
LAYER_1
 40
0.2081
 41
0.2081
 66
1
 10
0
 20
0
 30
0
  0
VERTEX
  8
LAYER_1
 10
39.8396
 20
95.7357
  0
VERTEX
  8
LAYER_1
 10
39.8396
 20
96.2649
  0
SEQEND
  0
POLYLINE
  8
LAYER_1
 40
0.2081
 41
0.2081
 66
1
 10
0
 20
0
 30
0
  0
VERTEX
  8
LAYER_1
 10
39.8396
 20
96.7941
  0
VERTEX
  8
LAYER_1
 10
39.8396
 20
97.3232
  0
SEQEND
  0
POLYLINE
  8
LAYER_1
 40
0.2081
 41
0.2081
 66
1
 10
0
 20
0
 30
0
  0
VERTEX
  8
LAYER_1
 10
39.8396
 20
97.8524
  0
VERTEX
  8
LAYER_1
 10
39.8396
 20
98.3816
  0
SEQEND
  0
POLYLINE
  8
LAYER_1
 40
0.1693
 41
0.1693
 66
1
 10
0
 20
0
 30
0
  0
VERTEX
  8
LAYER_1
 10
38.8448
 20
100.2442
  0
VERTEX
  8
LAYER_1
 10
38.8448
 20
106.2344
  0
SEQEND
  0
POLYLINE
  8
LAYER_1
 40
0.1693
 41
0.1693
 66
1
 10
0
 20
0
 30
0
  0
VERTEX
  8
LAYER_1
 10
121.3313
 20
100.2442
  0
VERTEX
  8
LAYER_1
 10
121.3313
 20
106.2344
  0
SEQEND
  0
CIRCLE
  8
LAYER_1
 10
38.8554
 20
106.2238
 40
0.2699
  0
CIRCLE
  8
LAYER_1
 10
38.8448
 20
106.2344
 40
0.254
  0
CIRCLE
  8
LAYER_1
 10
121.3419
 20
106.2238
 40
0.2699
  0
CIRCLE
  8
LAYER_1
 10
121.3313
 20
106.2344
 40
0.254
  0
POLYLINE
  8
LAYER_1
 40
0.1693
 41
0.1693
 66
1
 10
0
 20
0
 30
0
  0
VERTEX
  8
LAYER_1
 10
38.8448
 20
106.2344
  0
VERTEX
  8
LAYER_1
 10
121.3313
 20
106.2344
  0
SEQEND
  0
POLYLINE
  8
LAYER_1
 40
0.05
 41
0.05
 62
255
 66
1
 10
0
 20
0
 30
0
 70
1
  0
VERTEX
  8
LAYER_1
 10
78.3206
 20
108.4992
  0
VERTEX
  8
LAYER_1
 10
81.8554
 20
108.4992
  0
VERTEX
  8
LAYER_1
 10
81.8554
 20
106.7424
  0
VERTEX
  8
LAYER_1
 10
78.3206
 20
106.7424
  0
SEQEND
  0
TEXT
  8
LAYER_1
 10
78.3205
 20
106.9225
 11
78.3205
 21
106.9225
 40
2.0812
 41
0.5
  1
1650
  0
POLYLINE
  8
LAYER_1
 40
0.1693
 41
0.1693
 66
1
 10
0
 20
0
 30
0
  0
VERTEX
  8
LAYER_1
 10
39.8396
 20
100.2442
  0
VERTEX
  8
LAYER_1
 10
39.8396
 20
102.4879
  0
SEQEND
  0
POLYLINE
  8
LAYER_1
 40
0.1693
 41
0.1693
 66
1
 10
0
 20
0
 30
0
  0
VERTEX
  8
LAYER_1
 10
120.3364
 20
100.2442
  0
VERTEX
  8
LAYER_1
 10
120.3364
 20
102.4879
  0
SEQEND
  0
CIRCLE
  8
LAYER_1
 10
39.8502
 20
102.4773
 40
0.2699
  0
CIRCLE
  8
LAYER_1
 10
39.8396
 20
102.4879
 40
0.254
  0
CIRCLE
  8
LAYER_1
 10
120.347
 20
102.4773
 40
0.2699
  0
CIRCLE
  8
LAYER_1
 10
120.3364
 20
102.4879
 40
0.254
  0
POLYLINE
  8
LAYER_1
 40
0.1693
 41
0.1693
 66
1
 10
0
 20
0
 30
0
  0
VERTEX
  8
LAYER_1
 10
39.8396
 20
102.4879
  0
VERTEX
  8
LAYER_1
 10
120.3364
 20
102.4879
  0
SEQEND
  0
POLYLINE
  8
LAYER_1
 40
0.05
 41
0.05
 62
255
 66
1
 10
0
 20
0
 30
0
 70
1
  0
VERTEX
  8
LAYER_1
 10
78.3206
 20
104.7527
  0
VERTEX
  8
LAYER_1
 10
81.8554
 20
104.7527
  0
VERTEX
  8
LAYER_1
 10
81.8554
 20
102.9959
  0
VERTEX
  8
LAYER_1
 10
78.3206
 20
102.9959
  0
SEQEND
  0
TEXT
  8
LAYER_1
 10
78.3205
 20
103.1759
 11
78.3205
 21
103.1759
 40
2.0812
 41
0.5
  1
1610
  0
POLYLINE
  8
LAYER_1
 40
0.1693
 41
0.1693
 66
1
 10
0
 20
0
 30
0
  0
VERTEX
  8
LAYER_1
 10
38.8448
 20
100.2442
  0
VERTEX
  8
LAYER_1
 10
38.8448
 20
102.4879
  0
SEQEND
  0
POLYLINE
  8
LAYER_1
 40
0.1693
 41
0.1693
 66
1
 10
0
 20
0
 30
0
  0
VERTEX
  8
LAYER_1
 10
39.8396
 20
100.2442
  0
VERTEX
  8
LAYER_1
 10
39.8396
 20
102.4879
  0
SEQEND
  0
POLYLINE
  8
LAYER_1
 40
0.1693
 41
0.1693
 66
1
 10
0
 20
0
 30
0
  0
VERTEX
  8
LAYER_1
 10
39.8396
 20
102.4879
  0
VERTEX
  8
LAYER_1
 10
38.8448
 20
102.4879
  0
SEQEND
  0
CIRCLE
  8
LAYER_1
 10
38.8554
 20
102.4773
 40
0.2699
  0
CIRCLE
  8
LAYER_1
 10
38.8448
 20
102.4879
 40
0.254
  0
POLYLINE
  8
LAYER_1
 40
0.1693
 41
0.1693
 66
1
 10
0
 20
0
 30
0
  0
VERTEX
  8
LAYER_1
 10
38.8448
 20
102.4879
  0
VERTEX
  8
LAYER_1
 10
38.5908
 20
102.4879
  0
SEQEND
  0
CIRCLE
  8
LAYER_1
 10
39.8502
 20
102.4773
 40
0.2699
  0
CIRCLE
  8
LAYER_1
 10
39.8396
 20
102.4879
 40
0.254
  0
POLYLINE
  8
LAYER_1
 40
0.1693
 41
0.1693
 66
1
 10
0
 20
0
 30
0
  0
VERTEX
  8
LAYER_1
 10
39.8396
 20
102.4879
  0
VERTEX
  8
LAYER_1
 10
40.0936
 20
102.4879
  0
SEQEND
  0
POLYLINE
  8
LAYER_1
 40
0.05
 41
0.05
 62
255
 66
1
 10
0
 20
0
 30
0
 70
1
  0
VERTEX
  8
LAYER_1
 10
37.0668
 20
104.7527
  0
VERTEX
  8
LAYER_1
 10
38.8448
 20
104.7527
  0
VERTEX
  8
LAYER_1
 10
38.8448
 20
102.9959
  0
VERTEX
  8
LAYER_1
 10
37.0668
 20
102.9959
  0
SEQEND
  0
TEXT
  8
LAYER_1
 10
37.0667
 20
103.1759
 11
37.0667
 21
103.1759
 40
2.0812
 41
0.5
  1
20
  0
POLYLINE
  8
LAYER_1
 40
0.1693
 41
0.1693
 66
1
 10
0
 20
0
 30
0
  0
VERTEX
  8
LAYER_1
 10
121.3313
 20
100.2442
  0
VERTEX
  8
LAYER_1
 10
121.3313
 20
102.4879
  0
SEQEND
  0
POLYLINE
  8
LAYER_1
 40
0.1693
 41
0.1693
 66
1
 10
0
 20
0
 30
0
  0
VERTEX
  8
LAYER_1
 10
120.3364
 20
100.2442
  0
VERTEX
  8
LAYER_1
 10
120.3364
 20
102.4879
  0
SEQEND
  0
POLYLINE
  8
LAYER_1
 40
0.1693
 41
0.1693
 66
1
 10
0
 20
0
 30
0
  0
VERTEX
  8
LAYER_1
 10
120.3364
 20
102.4879
  0
VERTEX
  8
LAYER_1
 10
121.3313
 20
102.4879
  0
SEQEND
  0
CIRCLE
  8
LAYER_1
 10
121.3419
 20
102.4773
 40
0.2699
  0
CIRCLE
  8
LAYER_1
 10
121.3313
 20
102.4879
 40
0.254
  0
POLYLINE
  8
LAYER_1
 40
0.1693
 41
0.1693
 66
1
 10
0
 20
0
 30
0
  0
VERTEX
  8
LAYER_1
 10
121.3313
 20
102.4879
  0
VERTEX
  8
LAYER_1
 10
121.5853
 20
102.4879
  0
SEQEND
  0
CIRCLE
  8
LAYER_1
 10
120.347
 20
102.4773
 40
0.2699
  0
CIRCLE
  8
LAYER_1
 10
120.3364
 20
102.4879
 40
0.254
  0
POLYLINE
  8
LAYER_1
 40
0.1693
 41
0.1693
 66
1
 10
0
 20
0
 30
0
  0
VERTEX
  8
LAYER_1
 10
120.3364
 20
102.4879
  0
VERTEX
  8
LAYER_1
 10
120.0824
 20
102.4879
  0
SEQEND
  0
POLYLINE
  8
LAYER_1
 40
0.05
 41
0.05
 62
255
 66
1
 10
0
 20
0
 30
0
 70
1
  0
VERTEX
  8
LAYER_1
 10
121.3313
 20
104.7527
  0
VERTEX
  8
LAYER_1
 10
123.1093
 20
104.7527
  0
VERTEX
  8
LAYER_1
 10
123.1093
 20
102.9959
  0
VERTEX
  8
LAYER_1
 10
121.3313
 20
102.9959
  0
SEQEND
  0
TEXT
  8
LAYER_1
 10
121.3312
 20
103.1759
 11
121.3312
 21
103.1759
 40
2.0812
 41
0.5
  1
20
  0
POLYLINE
  8
LAYER_1
 40
0.1693
 41
0.1693
 66
1
 10
0
 20
0
 30
0
  0
VERTEX
  8
LAYER_1
 10
59.9903
 20
72.2407
  0
VERTEX
  8
LAYER_1
 10
59.9903
 20
66.2294
  0
SEQEND
  0
POLYLINE
  8
LAYER_1
 40
0.1693
 41
0.1693
 66
1
 10
0
 20
0
 30
0
  0
VERTEX
  8
LAYER_1
 10
38.8448
 20
72.2407
  0
VERTEX
  8
LAYER_1
 10
38.8448
 20
66.2294
  0
SEQEND
  0
CIRCLE
  8
LAYER_1
 10
60.0009
 20
66.2188
 40
0.2699
  0
CIRCLE
  8
LAYER_1
 10
59.9903
 20
66.2294
 40
0.254
  0
CIRCLE
  8
LAYER_1
 10
38.8554
 20
66.2188
 40
0.2699
  0
CIRCLE
  8
LAYER_1
 10
38.8448
 20
66.2294
 40
0.254
  0
POLYLINE
  8
LAYER_1
 40
0.1693
 41
0.1693
 66
1
 10
0
 20
0
 30
0
  0
VERTEX
  8
LAYER_1
 10
59.9903
 20
66.2294
  0
VERTEX
  8
LAYER_1
 10
38.8448
 20
66.2294
  0
SEQEND
  0
POLYLINE
  8
LAYER_1
 40
0.05
 41
0.05
 62
255
 66
1
 10
0
 20
0
 30
0
 70
1
  0
VERTEX
  8
LAYER_1
 10
48.0946
 20
68.4942
  0
VERTEX
  8
LAYER_1
 10
50.7404
 20
68.4942
  0
VERTEX
  8
LAYER_1
 10
50.7404
 20
66.7374
  0
VERTEX
  8
LAYER_1
 10
48.0946
 20
66.7374
  0
SEQEND
  0
TEXT
  8
LAYER_1
 10
48.0946
 20
66.9387
 11
48.0946
 21
66.9387
 40
2.0812
 41
0.5
  1
423
  0
POLYLINE
  8
LAYER_1
 40
0.1693
 41
0.1693
 66
1
 10
0
 20
0
 30
0
  0
VERTEX
  8
LAYER_1
 10
59.9903
 20
72.2407
  0
VERTEX
  8
LAYER_1
 10
59.9903
 20
66.2294
  0
SEQEND
  0
POLYLINE
  8
LAYER_1
 40
0.1693
 41
0.1693
 66
1
 10
0
 20
0
 30
0
  0
VERTEX
  8
LAYER_1
 10
100.1858
 20
72.2407
  0
VERTEX
  8
LAYER_1
 10
100.1858
 20
66.2294
  0
SEQEND
  0
CIRCLE
  8
LAYER_1
 10
60.0009
 20
66.2188
 40
0.2699
  0
CIRCLE
  8
LAYER_1
 10
59.9903
 20
66.2294
 40
0.254
  0
CIRCLE
  8
LAYER_1
 10
100.1964
 20
66.2188
 40
0.2699
  0
CIRCLE
  8
LAYER_1
 10
100.1858
 20
66.2294
 40
0.254
  0
POLYLINE
  8
LAYER_1
 40
0.1693
 41
0.1693
 66
1
 10
0
 20
0
 30
0
  0
VERTEX
  8
LAYER_1
 10
59.9903
 20
66.2294
  0
VERTEX
  8
LAYER_1
 10
100.1858
 20
66.2294
  0
SEQEND
  0
POLYLINE
  8
LAYER_1
 40
0.05
 41
0.05
 62
255
 66
1
 10
0
 20
0
 30
0
 70
1
  0
VERTEX
  8
LAYER_1
 10
78.7651
 20
68.4942
  0
VERTEX
  8
LAYER_1
 10
81.4109
 20
68.4942
  0
VERTEX
  8
LAYER_1
 10
81.4109
 20
66.7374
  0
VERTEX
  8
LAYER_1
 10
78.7651
 20
66.7374
  0
SEQEND
  0
TEXT
  8
LAYER_1
 10
78.7651
 20
66.9387
 11
78.7651
 21
66.9387
 40
2.0812
 41
0.5
  1
804
  0
POLYLINE
  8
LAYER_1
 40
0.1693
 41
0.1693
 66
1
 10
0
 20
0
 30
0
  0
VERTEX
  8
LAYER_1
 10
100.1858
 20
72.2407
  0
VERTEX
  8
LAYER_1
 10
100.1858
 20
66.2294
  0
SEQEND
  0
POLYLINE
  8
LAYER_1
 40
0.1693
 41
0.1693
 66
1
 10
0
 20
0
 30
0
  0
VERTEX
  8
LAYER_1
 10
121.3313
 20
72.2407
  0
VERTEX
  8
LAYER_1
 10
121.3313
 20
66.2294
  0
SEQEND
  0
CIRCLE
  8
LAYER_1
 10
100.1964
 20
66.2188
 40
0.2699
  0
CIRCLE
  8
LAYER_1
 10
100.1858
 20
66.2294
 40
0.254
  0
CIRCLE
  8
LAYER_1
 10
121.3419
 20
66.2188
 40
0.2699
  0
CIRCLE
  8
LAYER_1
 10
121.3313
 20
66.2294
 40
0.254
  0
POLYLINE
  8
LAYER_1
 40
0.1693
 41
0.1693
 66
1
 10
0
 20
0
 30
0
  0
VERTEX
  8
LAYER_1
 10
100.1858
 20
66.2294
  0
VERTEX
  8
LAYER_1
 10
121.3313
 20
66.2294
  0
SEQEND
  0
POLYLINE
  8
LAYER_1
 40
0.05
 41
0.05
 62
255
 66
1
 10
0
 20
0
 30
0
 70
1
  0
VERTEX
  8
LAYER_1
 10
109.4356
 20
68.4942
  0
VERTEX
  8
LAYER_1
 10
112.0815
 20
68.4942
  0
VERTEX
  8
LAYER_1
 10
112.0815
 20
66.7374
  0
VERTEX
  8
LAYER_1
 10
109.4356
 20
66.7374
  0
SEQEND
  0
TEXT
  8
LAYER_1
 10
109.4356
 20
66.9387
 11
109.4356
 21
66.9387
 40
2.0812
 41
0.5
  1
423
  0
POLYLINE
  8
LAYER_1
 40
0.254
 41
0.254
 66
1
 10
0
 20
0
 30
0
 70
1
  0
VERTEX
  8
LAYER_1
 10
98.8311
 20
142.2389
  0
VERTEX
  8
LAYER_1
 10
38.8448
 20
142.2389
  0
VERTEX
  8
LAYER_1
 10
38.8448
 20
117.2411
  0
VERTEX
  8
LAYER_1
 10
98.8311
 20
117.2411
  0
SEQEND
  0
POLYLINE
  8
LAYER_1
 40
0.2081
 41
0.2081
 66
1
 10
0
 20
0
 30
0
  0
VERTEX
  8
LAYER_1
 10
39.8396
 20
142.2389
  0
VERTEX
  8
LAYER_1
 10
40.3688
 20
142.2389
  0
SEQEND
  0
POLYLINE
  8
LAYER_1
 40
0.2081
 41
0.2081
 66
1
 10
0
 20
0
 30
0
  0
VERTEX
  8
LAYER_1
 10
40.8979
 20
142.2389
  0
VERTEX
  8
LAYER_1
 10
41.4271
 20
142.2389
  0
SEQEND
  0
POLYLINE
  8
LAYER_1
 40
0.2081
 41
0.2081
 66
1
 10
0
 20
0
 30
0
  0
VERTEX
  8
LAYER_1
 10
41.9563
 20
142.2389
  0
VERTEX
  8
LAYER_1
 10
42.4854
 20
142.2389
  0
SEQEND
  0
POLYLINE
  8
LAYER_1
 40
0.2081
 41
0.2081
 66
1
 10
0
 20
0
 30
0
  0
VERTEX
  8
LAYER_1
 10
43.0146
 20
142.2389
  0
VERTEX
  8
LAYER_1
 10
43.5438
 20
142.2389
  0
SEQEND
  0
POLYLINE
  8
LAYER_1
 40
0.2081
 41
0.2081
 66
1
 10
0
 20
0
 30
0
  0
VERTEX
  8
LAYER_1
 10
44.0729
 20
142.2389
  0
VERTEX
  8
LAYER_1
 10
44.6021
 20
142.2389
  0
SEQEND
  0
POLYLINE
  8
LAYER_1
 40
0.2081
 41
0.2081
 66
1
 10
0
 20
0
 30
0
  0
VERTEX
  8
LAYER_1
 10
45.1313
 20
142.2389
  0
VERTEX
  8
LAYER_1
 10
45.6604
 20
142.2389
  0
SEQEND
  0
POLYLINE
  8
LAYER_1
 40
0.2081
 41
0.2081
 66
1
 10
0
 20
0
 30
0
  0
VERTEX
  8
LAYER_1
 10
46.1896
 20
142.2389
  0
VERTEX
  8
LAYER_1
 10
46.7188
 20
142.2389
  0
SEQEND
  0
POLYLINE
  8
LAYER_1
 40
0.2081
 41
0.2081
 66
1
 10
0
 20
0
 30
0
  0
VERTEX
  8
LAYER_1
 10
47.248
 20
142.2389
  0
VERTEX
  8
LAYER_1
 10
47.7771
 20
142.2389
  0
SEQEND
  0
POLYLINE
  8
LAYER_1
 40
0.2081
 41
0.2081
 66
1
 10
0
 20
0
 30
0
  0
VERTEX
  8
LAYER_1
 10
48.3063
 20
142.2389
  0
VERTEX
  8
LAYER_1
 10
48.8355
 20
142.2389
  0
SEQEND
  0
POLYLINE
  8
LAYER_1
 40
0.2081
 41
0.2081
 66
1
 10
0
 20
0
 30
0
  0
VERTEX
  8
LAYER_1
 10
49.3646
 20
142.2389
  0
VERTEX
  8
LAYER_1
 10
49.8938
 20
142.2389
  0
SEQEND
  0
POLYLINE
  8
LAYER_1
 40
0.2081
 41
0.2081
 66
1
 10
0
 20
0
 30
0
  0
VERTEX
  8
LAYER_1
 10
50.423
 20
142.2389
  0
VERTEX
  8
LAYER_1
 10
50.9521
 20
142.2389
  0
SEQEND
  0
POLYLINE
  8
LAYER_1
 40
0.2081
 41
0.2081
 66
1
 10
0
 20
0
 30
0
  0
VERTEX
  8
LAYER_1
 10
51.4813
 20
142.2389
  0
VERTEX
  8
LAYER_1
 10
52.0105
 20
142.2389
  0
SEQEND
  0
POLYLINE
  8
LAYER_1
 40
0.2081
 41
0.2081
 66
1
 10
0
 20
0
 30
0
  0
VERTEX
  8
LAYER_1
 10
52.5396
 20
142.2389
  0
VERTEX
  8
LAYER_1
 10
53.0688
 20
142.2389
  0
SEQEND
  0
POLYLINE
  8
LAYER_1
 40
0.2081
 41
0.2081
 66
1
 10
0
 20
0
 30
0
  0
VERTEX
  8
LAYER_1
 10
53.598
 20
142.2389
  0
VERTEX
  8
LAYER_1
 10
54.1271
 20
142.2389
  0
SEQEND
  0
POLYLINE
  8
LAYER_1
 40
0.2081
 41
0.2081
 66
1
 10
0
 20
0
 30
0
  0
VERTEX
  8
LAYER_1
 10
54.6563
 20
142.2389
  0
VERTEX
  8
LAYER_1
 10
55.1855
 20
142.2389
  0
SEQEND
  0
POLYLINE
  8
LAYER_1
 40
0.2081
 41
0.2081
 66
1
 10
0
 20
0
 30
0
  0
VERTEX
  8
LAYER_1
 10
55.7146
 20
142.2389
  0
VERTEX
  8
LAYER_1
 10
56.2438
 20
142.2389
  0
SEQEND
  0
POLYLINE
  8
LAYER_1
 40
0.2081
 41
0.2081
 66
1
 10
0
 20
0
 30
0
  0
VERTEX
  8
LAYER_1
 10
56.773
 20
142.2389
  0
VERTEX
  8
LAYER_1
 10
57.3021
 20
142.2389
  0
SEQEND
  0
POLYLINE
  8
LAYER_1
 40
0.2081
 41
0.2081
 66
1
 10
0
 20
0
 30
0
  0
VERTEX
  8
LAYER_1
 10
57.8313
 20
142.2389
  0
VERTEX
  8
LAYER_1
 10
58.3605
 20
142.2389
  0
SEQEND
  0
POLYLINE
  8
LAYER_1
 40
0.2081
 41
0.2081
 66
1
 10
0
 20
0
 30
0
  0
VERTEX
  8
LAYER_1
 10
58.8896
 20
142.2389
  0
VERTEX
  8
LAYER_1
 10
59.4188
 20
142.2389
  0
SEQEND
  0
POLYLINE
  8
LAYER_1
 40
0.2081
 41
0.2081
 66
1
 10
0
 20
0
 30
0
  0
VERTEX
  8
LAYER_1
 10
59.948
 20
142.2389
  0
VERTEX
  8
LAYER_1
 10
60.4771
 20
142.2389
  0
SEQEND
  0
POLYLINE
  8
LAYER_1
 40
0.2081
 41
0.2081
 66
1
 10
0
 20
0
 30
0
  0
VERTEX
  8
LAYER_1
 10
61.0063
 20
142.2389
  0
VERTEX
  8
LAYER_1
 10
61.5355
 20
142.2389
  0
SEQEND
  0
POLYLINE
  8
LAYER_1
 40
0.2081
 41
0.2081
 66
1
 10
0
 20
0
 30
0
  0
VERTEX
  8
LAYER_1
 10
62.0646
 20
142.2389
  0
VERTEX
  8
LAYER_1
 10
62.5938
 20
142.2389
  0
SEQEND
  0
POLYLINE
  8
LAYER_1
 40
0.2081
 41
0.2081
 66
1
 10
0
 20
0
 30
0
  0
VERTEX
  8
LAYER_1
 10
63.123
 20
142.2389
  0
VERTEX
  8
LAYER_1
 10
63.6521
 20
142.2389
  0
SEQEND
  0
POLYLINE
  8
LAYER_1
 40
0.2081
 41
0.2081
 66
1
 10
0
 20
0
 30
0
  0
VERTEX
  8
LAYER_1
 10
64.1813
 20
142.2389
  0
VERTEX
  8
LAYER_1
 10
64.7105
 20
142.2389
  0
SEQEND
  0
POLYLINE
  8
LAYER_1
 40
0.2081
 41
0.2081
 66
1
 10
0
 20
0
 30
0
  0
VERTEX
  8
LAYER_1
 10
65.2396
 20
142.2389
  0
VERTEX
  8
LAYER_1
 10
65.7688
 20
142.2389
  0
SEQEND
  0
POLYLINE
  8
LAYER_1
 40
0.2081
 41
0.2081
 66
1
 10
0
 20
0
 30
0
  0
VERTEX
  8
LAYER_1
 10
66.298
 20
142.2389
  0
VERTEX
  8
LAYER_1
 10
66.8271
 20
142.2389
  0
SEQEND
  0
POLYLINE
  8
LAYER_1
 40
0.2081
 41
0.2081
 66
1
 10
0
 20
0
 30
0
  0
VERTEX
  8
LAYER_1
 10
67.3563
 20
142.2389
  0
VERTEX
  8
LAYER_1
 10
67.8855
 20
142.2389
  0
SEQEND
  0
POLYLINE
  8
LAYER_1
 40
0.2081
 41
0.2081
 66
1
 10
0
 20
0
 30
0
  0
VERTEX
  8
LAYER_1
 10
68.4146
 20
142.2389
  0
VERTEX
  8
LAYER_1
 10
68.9438
 20
142.2389
  0
SEQEND
  0
POLYLINE
  8
LAYER_1
 40
0.2081
 41
0.2081
 66
1
 10
0
 20
0
 30
0
  0
VERTEX
  8
LAYER_1
 10
69.473
 20
142.2389
  0
VERTEX
  8
LAYER_1
 10
70.0021
 20
142.2389
  0
SEQEND
  0
POLYLINE
  8
LAYER_1
 40
0.2081
 41
0.2081
 66
1
 10
0
 20
0
 30
0
  0
VERTEX
  8
LAYER_1
 10
70.5313
 20
142.2389
  0
VERTEX
  8
LAYER_1
 10
71.0605
 20
142.2389
  0
SEQEND
  0
POLYLINE
  8
LAYER_1
 40
0.2081
 41
0.2081
 66
1
 10
0
 20
0
 30
0
  0
VERTEX
  8
LAYER_1
 10
71.5896
 20
142.2389
  0
VERTEX
  8
LAYER_1
 10
72.1188
 20
142.2389
  0
SEQEND
  0
POLYLINE
  8
LAYER_1
 40
0.2081
 41
0.2081
 66
1
 10
0
 20
0
 30
0
  0
VERTEX
  8
LAYER_1
 10
72.648
 20
142.2389
  0
VERTEX
  8
LAYER_1
 10
73.1771
 20
142.2389
  0
SEQEND
  0
POLYLINE
  8
LAYER_1
 40
0.2081
 41
0.2081
 66
1
 10
0
 20
0
 30
0
  0
VERTEX
  8
LAYER_1
 10
73.7063
 20
142.2389
  0
VERTEX
  8
LAYER_1
 10
74.2355
 20
142.2389
  0
SEQEND
  0
POLYLINE
  8
LAYER_1
 40
0.2081
 41
0.2081
 66
1
 10
0
 20
0
 30
0
  0
VERTEX
  8
LAYER_1
 10
74.7646
 20
142.2389
  0
VERTEX
  8
LAYER_1
 10
75.2938
 20
142.2389
  0
SEQEND
  0
POLYLINE
  8
LAYER_1
 40
0.2081
 41
0.2081
 66
1
 10
0
 20
0
 30
0
  0
VERTEX
  8
LAYER_1
 10
75.823
 20
142.2389
  0
VERTEX
  8
LAYER_1
 10
76.3521
 20
142.2389
  0
SEQEND
  0
POLYLINE
  8
LAYER_1
 40
0.2081
 41
0.2081
 66
1
 10
0
 20
0
 30
0
  0
VERTEX
  8
LAYER_1
 10
76.8813
 20
142.2389
  0
VERTEX
  8
LAYER_1
 10
77.4105
 20
142.2389
  0
SEQEND
  0
POLYLINE
  8
LAYER_1
 40
0.2081
 41
0.2081
 66
1
 10
0
 20
0
 30
0
  0
VERTEX
  8
LAYER_1
 10
77.9396
 20
142.2389
  0
VERTEX
  8
LAYER_1
 10
78.4688
 20
142.2389
  0
SEQEND
  0
POLYLINE
  8
LAYER_1
 40
0.2081
 41
0.2081
 66
1
 10
0
 20
0
 30
0
  0
VERTEX
  8
LAYER_1
 10
78.998
 20
142.2389
  0
VERTEX
  8
LAYER_1
 10
79.5271
 20
142.2389
  0
SEQEND
  0
POLYLINE
  8
LAYER_1
 40
0.2081
 41
0.2081
 66
1
 10
0
 20
0
 30
0
  0
VERTEX
  8
LAYER_1
 10
80.0563
 20
142.2389
  0
VERTEX
  8
LAYER_1
 10
80.5855
 20
142.2389
  0
SEQEND
  0
POLYLINE
  8
LAYER_1
 40
0.2081
 41
0.2081
 66
1
 10
0
 20
0
 30
0
  0
VERTEX
  8
LAYER_1
 10
81.1146
 20
142.2389
  0
VERTEX
  8
LAYER_1
 10
81.6438
 20
142.2389
  0
SEQEND
  0
POLYLINE
  8
LAYER_1
 40
0.2081
 41
0.2081
 66
1
 10
0
 20
0
 30
0
  0
VERTEX
  8
LAYER_1
 10
82.173
 20
142.2389
  0
VERTEX
  8
LAYER_1
 10
82.7021
 20
142.2389
  0
SEQEND
  0
POLYLINE
  8
LAYER_1
 40
0.2081
 41
0.2081
 66
1
 10
0
 20
0
 30
0
  0
VERTEX
  8
LAYER_1
 10
83.2313
 20
142.2389
  0
VERTEX
  8
LAYER_1
 10
83.7605
 20
142.2389
  0
SEQEND
  0
POLYLINE
  8
LAYER_1
 40
0.2081
 41
0.2081
 66
1
 10
0
 20
0
 30
0
  0
VERTEX
  8
LAYER_1
 10
84.2896
 20
142.2389
  0
VERTEX
  8
LAYER_1
 10
84.8188
 20
142.2389
  0
SEQEND
  0
POLYLINE
  8
LAYER_1
 40
0.2081
 41
0.2081
 66
1
 10
0
 20
0
 30
0
  0
VERTEX
  8
LAYER_1
 10
85.348
 20
142.2389
  0
VERTEX
  8
LAYER_1
 10
85.8771
 20
142.2389
  0
SEQEND
  0
POLYLINE
  8
LAYER_1
 40
0.2081
 41
0.2081
 66
1
 10
0
 20
0
 30
0
  0
VERTEX
  8
LAYER_1
 10
86.4063
 20
142.2389
  0
VERTEX
  8
LAYER_1
 10
86.9355
 20
142.2389
  0
SEQEND
  0
POLYLINE
  8
LAYER_1
 40
0.2081
 41
0.2081
 66
1
 10
0
 20
0
 30
0
  0
VERTEX
  8
LAYER_1
 10
87.4646
 20
142.2389
  0
VERTEX
  8
LAYER_1
 10
87.9938
 20
142.2389
  0
SEQEND
  0
POLYLINE
  8
LAYER_1
 40
0.2081
 41
0.2081
 66
1
 10
0
 20
0
 30
0
  0
VERTEX
  8
LAYER_1
 10
88.523
 20
142.2389
  0
VERTEX
  8
LAYER_1
 10
89.0521
 20
142.2389
  0
SEQEND
  0
POLYLINE
  8
LAYER_1
 40
0.2081
 41
0.2081
 66
1
 10
0
 20
0
 30
0
  0
VERTEX
  8
LAYER_1
 10
89.5813
 20
142.2389
  0
VERTEX
  8
LAYER_1
 10
90.1105
 20
142.2389
  0
SEQEND
  0
POLYLINE
  8
LAYER_1
 40
0.2081
 41
0.2081
 66
1
 10
0
 20
0
 30
0
  0
VERTEX
  8
LAYER_1
 10
90.6396
 20
142.2389
  0
VERTEX
  8
LAYER_1
 10
91.1688
 20
142.2389
  0
SEQEND
  0
POLYLINE
  8
LAYER_1
 40
0.2081
 41
0.2081
 66
1
 10
0
 20
0
 30
0
  0
VERTEX
  8
LAYER_1
 10
91.698
 20
142.2389
  0
VERTEX
  8
LAYER_1
 10
92.2271
 20
142.2389
  0
SEQEND
  0
POLYLINE
  8
LAYER_1
 40
0.2081
 41
0.2081
 66
1
 10
0
 20
0
 30
0
  0
VERTEX
  8
LAYER_1
 10
92.7563
 20
142.2389
  0
VERTEX
  8
LAYER_1
 10
93.2855
 20
142.2389
  0
SEQEND
  0
POLYLINE
  8
LAYER_1
 40
0.2081
 41
0.2081
 66
1
 10
0
 20
0
 30
0
  0
VERTEX
  8
LAYER_1
 10
93.8146
 20
142.2389
  0
VERTEX
  8
LAYER_1
 10
94.3438
 20
142.2389
  0
SEQEND
  0
POLYLINE
  8
LAYER_1
 40
0.2081
 41
0.2081
 66
1
 10
0
 20
0
 30
0
  0
VERTEX
  8
LAYER_1
 10
94.873
 20
142.2389
  0
VERTEX
  8
LAYER_1
 10
95.4021
 20
142.2389
  0
SEQEND
  0
POLYLINE
  8
LAYER_1
 40
0.2081
 41
0.2081
 66
1
 10
0
 20
0
 30
0
  0
VERTEX
  8
LAYER_1
 10
95.9313
 20
142.2389
  0
VERTEX
  8
LAYER_1
 10
96.4605
 20
142.2389
  0
SEQEND
  0
POLYLINE
  8
LAYER_1
 40
0.2081
 41
0.2081
 66
1
 10
0
 20
0
 30
0
  0
VERTEX
  8
LAYER_1
 10
96.9896
 20
142.2389
  0
VERTEX
  8
LAYER_1
 10
97.5188
 20
142.2389
  0
SEQEND
  0
POLYLINE
  8
LAYER_1
 40
0.2081
 41
0.2081
 66
1
 10
0
 20
0
 30
0
  0
VERTEX
  8
LAYER_1
 10
97.8363
 20
142.0272
  0
VERTEX
  8
LAYER_1
 10
97.8363
 20
141.4981
  0
SEQEND
  0
POLYLINE
  8
LAYER_1
 40
0.2081
 41
0.2081
 66
1
 10
0
 20
0
 30
0
  0
VERTEX
  8
LAYER_1
 10
97.8363
 20
140.9689
  0
VERTEX
  8
LAYER_1
 10
97.8363
 20
140.4397
  0
SEQEND
  0
POLYLINE
  8
LAYER_1
 40
0.2081
 41
0.2081
 66
1
 10
0
 20
0
 30
0
  0
VERTEX
  8
LAYER_1
 10
97.8363
 20
139.9106
  0
VERTEX
  8
LAYER_1
 10
97.8363
 20
139.3814
  0
SEQEND
  0
POLYLINE
  8
LAYER_1
 40
0.2081
 41
0.2081
 66
1
 10
0
 20
0
 30
0
  0
VERTEX
  8
LAYER_1
 10
97.8363
 20
138.8522
  0
VERTEX
  8
LAYER_1
 10
97.8363
 20
138.3231
  0
SEQEND
  0
POLYLINE
  8
LAYER_1
 40
0.2081
 41
0.2081
 66
1
 10
0
 20
0
 30
0
  0
VERTEX
  8
LAYER_1
 10
97.8363
 20
137.7939
  0
VERTEX
  8
LAYER_1
 10
97.8363
 20
137.2647
  0
SEQEND
  0
POLYLINE
  8
LAYER_1
 40
0.2081
 41
0.2081
 66
1
 10
0
 20
0
 30
0
  0
VERTEX
  8
LAYER_1
 10
97.8363
 20
136.7356
  0
VERTEX
  8
LAYER_1
 10
97.8363
 20
136.2064
  0
SEQEND
  0
POLYLINE
  8
LAYER_1
 40
0.2081
 41
0.2081
 66
1
 10
0
 20
0
 30
0
  0
VERTEX
  8
LAYER_1
 10
97.8363
 20
135.6772
  0
VERTEX
  8
LAYER_1
 10
97.8363
 20
135.1481
  0
SEQEND
  0
POLYLINE
  8
LAYER_1
 40
0.2081
 41
0.2081
 66
1
 10
0
 20
0
 30
0
  0
VERTEX
  8
LAYER_1
 10
97.8363
 20
134.6189
  0
VERTEX
  8
LAYER_1
 10
97.8363
 20
134.0897
  0
SEQEND
  0
POLYLINE
  8
LAYER_1
 40
0.2081
 41
0.2081
 66
1
 10
0
 20
0
 30
0
  0
VERTEX
  8
LAYER_1
 10
97.8363
 20
133.5606
  0
VERTEX
  8
LAYER_1
 10
97.8363
 20
133.0314
  0
SEQEND
  0
POLYLINE
  8
LAYER_1
 40
0.2081
 41
0.2081
 66
1
 10
0
 20
0
 30
0
  0
VERTEX
  8
LAYER_1
 10
97.8363
 20
132.5022
  0
VERTEX
  8
LAYER_1
 10
97.8363
 20
131.9731
  0
SEQEND
  0
POLYLINE
  8
LAYER_1
 40
0.2081
 41
0.2081
 66
1
 10
0
 20
0
 30
0
  0
VERTEX
  8
LAYER_1
 10
97.8363
 20
131.4439
  0
VERTEX
  8
LAYER_1
 10
97.8363
 20
130.9147
  0
SEQEND
  0
POLYLINE
  8
LAYER_1
 40
0.2081
 41
0.2081
 66
1
 10
0
 20
0
 30
0
  0
VERTEX
  8
LAYER_1
 10
97.8363
 20
130.3856
  0
VERTEX
  8
LAYER_1
 10
97.8363
 20
129.8564
  0
SEQEND
  0
POLYLINE
  8
LAYER_1
 40
0.2081
 41
0.2081
 66
1
 10
0
 20
0
 30
0
  0
VERTEX
  8
LAYER_1
 10
97.8363
 20
129.3272
  0
VERTEX
  8
LAYER_1
 10
97.8363
 20
128.7981
  0
SEQEND
  0
POLYLINE
  8
LAYER_1
 40
0.2081
 41
0.2081
 66
1
 10
0
 20
0
 30
0
  0
VERTEX
  8
LAYER_1
 10
97.8363
 20
128.2689
  0
VERTEX
  8
LAYER_1
 10
97.8363
 20
127.7397
  0
SEQEND
  0
POLYLINE
  8
LAYER_1
 40
0.2081
 41
0.2081
 66
1
 10
0
 20
0
 30
0
  0
VERTEX
  8
LAYER_1
 10
97.8363
 20
127.2106
  0
VERTEX
  8
LAYER_1
 10
97.8363
 20
126.6814
  0
SEQEND
  0
POLYLINE
  8
LAYER_1
 40
0.2081
 41
0.2081
 66
1
 10
0
 20
0
 30
0
  0
VERTEX
  8
LAYER_1
 10
97.8363
 20
126.1522
  0
VERTEX
  8
LAYER_1
 10
97.8363
 20
125.6231
  0
SEQEND
  0
POLYLINE
  8
LAYER_1
 40
0.2081
 41
0.2081
 66
1
 10
0
 20
0
 30
0
  0
VERTEX
  8
LAYER_1
 10
97.8363
 20
125.0939
  0
VERTEX
  8
LAYER_1
 10
97.8363
 20
124.5647
  0
SEQEND
  0
POLYLINE
  8
LAYER_1
 40
0.2081
 41
0.2081
 66
1
 10
0
 20
0
 30
0
  0
VERTEX
  8
LAYER_1
 10
97.8363
 20
124.0356
  0
VERTEX
  8
LAYER_1
 10
97.8363
 20
123.5064
  0
SEQEND
  0
POLYLINE
  8
LAYER_1
 40
0.2081
 41
0.2081
 66
1
 10
0
 20
0
 30
0
  0
VERTEX
  8
LAYER_1
 10
97.8363
 20
122.9772
  0
VERTEX
  8
LAYER_1
 10
97.8363
 20
122.4481
  0
SEQEND
  0
POLYLINE
  8
LAYER_1
 40
0.2081
 41
0.2081
 66
1
 10
0
 20
0
 30
0
  0
VERTEX
  8
LAYER_1
 10
97.8363
 20
121.9189
  0
VERTEX
  8
LAYER_1
 10
97.8363
 20
121.3897
  0
SEQEND
  0
POLYLINE
  8
LAYER_1
 40
0.2081
 41
0.2081
 66
1
 10
0
 20
0
 30
0
  0
VERTEX
  8
LAYER_1
 10
97.8363
 20
120.8606
  0
VERTEX
  8
LAYER_1
 10
97.8363
 20
120.3314
  0
SEQEND
  0
POLYLINE
  8
LAYER_1
 40
0.2081
 41
0.2081
 66
1
 10
0
 20
0
 30
0
  0
VERTEX
  8
LAYER_1
 10
97.8363
 20
119.8022
  0
VERTEX
  8
LAYER_1
 10
97.8363
 20
119.2731
  0
SEQEND
  0
POLYLINE
  8
LAYER_1
 40
0.2081
 41
0.2081
 66
1
 10
0
 20
0
 30
0
  0
VERTEX
  8
LAYER_1
 10
97.8363
 20
118.7439
  0
VERTEX
  8
LAYER_1
 10
97.8363
 20
118.5957
  0
SEQEND
  0
POLYLINE
  8
LAYER_1
 40
0.2081
 41
0.2081
 66
1
 10
0
 20
0
 30
0
  0
VERTEX
  8
LAYER_1
 10
97.8363
 20
118.5957
  0
VERTEX
  8
LAYER_1
 10
97.4553
 20
118.5957
  0
SEQEND
  0
POLYLINE
  8
LAYER_1
 40
0.2081
 41
0.2081
 66
1
 10
0
 20
0
 30
0
  0
VERTEX
  8
LAYER_1
 10
96.9261
 20
118.5957
  0
VERTEX
  8
LAYER_1
 10
96.397
 20
118.5957
  0
SEQEND
  0
POLYLINE
  8
LAYER_1
 40
0.2081
 41
0.2081
 66
1
 10
0
 20
0
 30
0
  0
VERTEX
  8
LAYER_1
 10
95.8678
 20
118.5957
  0
VERTEX
  8
LAYER_1
 10
95.3386
 20
118.5957
  0
SEQEND
  0
POLYLINE
  8
LAYER_1
 40
0.2081
 41
0.2081
 66
1
 10
0
 20
0
 30
0
  0
VERTEX
  8
LAYER_1
 10
94.8095
 20
118.5957
  0
VERTEX
  8
LAYER_1
 10
94.2803
 20
118.5957
  0
SEQEND
  0
POLYLINE
  8
LAYER_1
 40
0.2081
 41
0.2081
 66
1
 10
0
 20
0
 30
0
  0
VERTEX
  8
LAYER_1
 10
93.7511
 20
118.5957
  0
VERTEX
  8
LAYER_1
 10
93.222
 20
118.5957
  0
SEQEND
  0
POLYLINE
  8
LAYER_1
 40
0.2081
 41
0.2081
 66
1
 10
0
 20
0
 30
0
  0
VERTEX
  8
LAYER_1
 10
92.6928
 20
118.5957
  0
VERTEX
  8
LAYER_1
 10
92.1636
 20
118.5957
  0
SEQEND
  0
POLYLINE
  8
LAYER_1
 40
0.2081
 41
0.2081
 66
1
 10
0
 20
0
 30
0
  0
VERTEX
  8
LAYER_1
 10
91.6345
 20
118.5957
  0
VERTEX
  8
LAYER_1
 10
91.1053
 20
118.5957
  0
SEQEND
  0
POLYLINE
  8
LAYER_1
 40
0.2081
 41
0.2081
 66
1
 10
0
 20
0
 30
0
  0
VERTEX
  8
LAYER_1
 10
90.5761
 20
118.5957
  0
VERTEX
  8
LAYER_1
 10
90.047
 20
118.5957
  0
SEQEND
  0
POLYLINE
  8
LAYER_1
 40
0.2081
 41
0.2081
 66
1
 10
0
 20
0
 30
0
  0
VERTEX
  8
LAYER_1
 10
89.5178
 20
118.5957
  0
VERTEX
  8
LAYER_1
 10
88.9886
 20
118.5957
  0
SEQEND
  0
POLYLINE
  8
LAYER_1
 40
0.2081
 41
0.2081
 66
1
 10
0
 20
0
 30
0
  0
VERTEX
  8
LAYER_1
 10
88.4595
 20
118.5957
  0
VERTEX
  8
LAYER_1
 10
87.9303
 20
118.5957
  0
SEQEND
  0
POLYLINE
  8
LAYER_1
 40
0.2081
 41
0.2081
 66
1
 10
0
 20
0
 30
0
  0
VERTEX
  8
LAYER_1
 10
87.4011
 20
118.5957
  0
VERTEX
  8
LAYER_1
 10
86.872
 20
118.5957
  0
SEQEND
  0
POLYLINE
  8
LAYER_1
 40
0.2081
 41
0.2081
 66
1
 10
0
 20
0
 30
0
  0
VERTEX
  8
LAYER_1
 10
86.3428
 20
118.5957
  0
VERTEX
  8
LAYER_1
 10
85.8136
 20
118.5957
  0
SEQEND
  0
POLYLINE
  8
LAYER_1
 40
0.2081
 41
0.2081
 66
1
 10
0
 20
0
 30
0
  0
VERTEX
  8
LAYER_1
 10
85.2845
 20
118.5957
  0
VERTEX
  8
LAYER_1
 10
84.7553
 20
118.5957
  0
SEQEND
  0
POLYLINE
  8
LAYER_1
 40
0.2081
 41
0.2081
 66
1
 10
0
 20
0
 30
0
  0
VERTEX
  8
LAYER_1
 10
84.2261
 20
118.5957
  0
VERTEX
  8
LAYER_1
 10
83.697
 20
118.5957
  0
SEQEND
  0
POLYLINE
  8
LAYER_1
 40
0.2081
 41
0.2081
 66
1
 10
0
 20
0
 30
0
  0
VERTEX
  8
LAYER_1
 10
83.1678
 20
118.5957
  0
VERTEX
  8
LAYER_1
 10
82.6386
 20
118.5957
  0
SEQEND
  0
POLYLINE
  8
LAYER_1
 40
0.2081
 41
0.2081
 66
1
 10
0
 20
0
 30
0
  0
VERTEX
  8
LAYER_1
 10
82.1095
 20
118.5957
  0
VERTEX
  8
LAYER_1
 10
81.5803
 20
118.5957
  0
SEQEND
  0
POLYLINE
  8
LAYER_1
 40
0.2081
 41
0.2081
 66
1
 10
0
 20
0
 30
0
  0
VERTEX
  8
LAYER_1
 10
81.0511
 20
118.5957
  0
VERTEX
  8
LAYER_1
 10
80.522
 20
118.5957
  0
SEQEND
  0
POLYLINE
  8
LAYER_1
 40
0.2081
 41
0.2081
 66
1
 10
0
 20
0
 30
0
  0
VERTEX
  8
LAYER_1
 10
79.9928
 20
118.5957
  0
VERTEX
  8
LAYER_1
 10
79.4636
 20
118.5957
  0
SEQEND
  0
POLYLINE
  8
LAYER_1
 40
0.2081
 41
0.2081
 66
1
 10
0
 20
0
 30
0
  0
VERTEX
  8
LAYER_1
 10
78.9344
 20
118.5957
  0
VERTEX
  8
LAYER_1
 10
78.4053
 20
118.5957
  0
SEQEND
  0
POLYLINE
  8
LAYER_1
 40
0.2081
 41
0.2081
 66
1
 10
0
 20
0
 30
0
  0
VERTEX
  8
LAYER_1
 10
77.8761
 20
118.5957
  0
VERTEX
  8
LAYER_1
 10
77.3469
 20
118.5957
  0
SEQEND
  0
POLYLINE
  8
LAYER_1
 40
0.2081
 41
0.2081
 66
1
 10
0
 20
0
 30
0
  0
VERTEX
  8
LAYER_1
 10
76.8178
 20
118.5957
  0
VERTEX
  8
LAYER_1
 10
76.2886
 20
118.5957
  0
SEQEND
  0
POLYLINE
  8
LAYER_1
 40
0.2081
 41
0.2081
 66
1
 10
0
 20
0
 30
0
  0
VERTEX
  8
LAYER_1
 10
75.7594
 20
118.5957
  0
VERTEX
  8
LAYER_1
 10
75.2303
 20
118.5957
  0
SEQEND
  0
POLYLINE
  8
LAYER_1
 40
0.2081
 41
0.2081
 66
1
 10
0
 20
0
 30
0
  0
VERTEX
  8
LAYER_1
 10
74.7011
 20
118.5957
  0
VERTEX
  8
LAYER_1
 10
74.1719
 20
118.5957
  0
SEQEND
  0
POLYLINE
  8
LAYER_1
 40
0.2081
 41
0.2081
 66
1
 10
0
 20
0
 30
0
  0
VERTEX
  8
LAYER_1
 10
73.6428
 20
118.5957
  0
VERTEX
  8
LAYER_1
 10
73.1136
 20
118.5957
  0
SEQEND
  0
POLYLINE
  8
LAYER_1
 40
0.2081
 41
0.2081
 66
1
 10
0
 20
0
 30
0
  0
VERTEX
  8
LAYER_1
 10
72.5844
 20
118.5957
  0
VERTEX
  8
LAYER_1
 10
72.0553
 20
118.5957
  0
SEQEND
  0
POLYLINE
  8
LAYER_1
 40
0.2081
 41
0.2081
 66
1
 10
0
 20
0
 30
0
  0
VERTEX
  8
LAYER_1
 10
71.5261
 20
118.5957
  0
VERTEX
  8
LAYER_1
 10
70.9969
 20
118.5957
  0
SEQEND
  0
POLYLINE
  8
LAYER_1
 40
0.2081
 41
0.2081
 66
1
 10
0
 20
0
 30
0
  0
VERTEX
  8
LAYER_1
 10
70.4678
 20
118.5957
  0
VERTEX
  8
LAYER_1
 10
69.9386
 20
118.5957
  0
SEQEND
  0
POLYLINE
  8
LAYER_1
 40
0.2081
 41
0.2081
 66
1
 10
0
 20
0
 30
0
  0
VERTEX
  8
LAYER_1
 10
69.4094
 20
118.5957
  0
VERTEX
  8
LAYER_1
 10
68.8803
 20
118.5957
  0
SEQEND
  0
POLYLINE
  8
LAYER_1
 40
0.2081
 41
0.2081
 66
1
 10
0
 20
0
 30
0
  0
VERTEX
  8
LAYER_1
 10
68.3511
 20
118.5957
  0
VERTEX
  8
LAYER_1
 10
67.8219
 20
118.5957
  0
SEQEND
  0
POLYLINE
  8
LAYER_1
 40
0.2081
 41
0.2081
 66
1
 10
0
 20
0
 30
0
  0
VERTEX
  8
LAYER_1
 10
67.2928
 20
118.5957
  0
VERTEX
  8
LAYER_1
 10
66.7636
 20
118.5957
  0
SEQEND
  0
POLYLINE
  8
LAYER_1
 40
0.2081
 41
0.2081
 66
1
 10
0
 20
0
 30
0
  0
VERTEX
  8
LAYER_1
 10
66.2344
 20
118.5957
  0
VERTEX
  8
LAYER_1
 10
65.7053
 20
118.5957
  0
SEQEND
  0
POLYLINE
  8
LAYER_1
 40
0.2081
 41
0.2081
 66
1
 10
0
 20
0
 30
0
  0
VERTEX
  8
LAYER_1
 10
65.1761
 20
118.5957
  0
VERTEX
  8
LAYER_1
 10
64.6469
 20
118.5957
  0
SEQEND
  0
POLYLINE
  8
LAYER_1
 40
0.2081
 41
0.2081
 66
1
 10
0
 20
0
 30
0
  0
VERTEX
  8
LAYER_1
 10
64.1178
 20
118.5957
  0
VERTEX
  8
LAYER_1
 10
63.5886
 20
118.5957
  0
SEQEND
  0
POLYLINE
  8
LAYER_1
 40
0.2081
 41
0.2081
 66
1
 10
0
 20
0
 30
0
  0
VERTEX
  8
LAYER_1
 10
63.0594
 20
118.5957
  0
VERTEX
  8
LAYER_1
 10
62.5303
 20
118.5957
  0
SEQEND
  0
POLYLINE
  8
LAYER_1
 40
0.2081
 41
0.2081
 66
1
 10
0
 20
0
 30
0
  0
VERTEX
  8
LAYER_1
 10
62.0011
 20
118.5957
  0
VERTEX
  8
LAYER_1
 10
61.4719
 20
118.5957
  0
SEQEND
  0
POLYLINE
  8
LAYER_1
 40
0.2081
 41
0.2081
 66
1
 10
0
 20
0
 30
0
  0
VERTEX
  8
LAYER_1
 10
60.9428
 20
118.5957
  0
VERTEX
  8
LAYER_1
 10
60.4136
 20
118.5957
  0
SEQEND
  0
POLYLINE
  8
LAYER_1
 40
0.2081
 41
0.2081
 66
1
 10
0
 20
0
 30
0
  0
VERTEX
  8
LAYER_1
 10
59.8844
 20
118.5957
  0
VERTEX
  8
LAYER_1
 10
59.3553
 20
118.5957
  0
SEQEND
  0
POLYLINE
  8
LAYER_1
 40
0.2081
 41
0.2081
 66
1
 10
0
 20
0
 30
0
  0
VERTEX
  8
LAYER_1
 10
58.8261
 20
118.5957
  0
VERTEX
  8
LAYER_1
 10
58.2969
 20
118.5957
  0
SEQEND
  0
POLYLINE
  8
LAYER_1
 40
0.2081
 41
0.2081
 66
1
 10
0
 20
0
 30
0
  0
VERTEX
  8
LAYER_1
 10
57.7678
 20
118.5957
  0
VERTEX
  8
LAYER_1
 10
57.2386
 20
118.5957
  0
SEQEND
  0
POLYLINE
  8
LAYER_1
 40
0.2081
 41
0.2081
 66
1
 10
0
 20
0
 30
0
  0
VERTEX
  8
LAYER_1
 10
56.7094
 20
118.5957
  0
VERTEX
  8
LAYER_1
 10
56.1803
 20
118.5957
  0
SEQEND
  0
POLYLINE
  8
LAYER_1
 40
0.2081
 41
0.2081
 66
1
 10
0
 20
0
 30
0
  0
VERTEX
  8
LAYER_1
 10
55.6511
 20
118.5957
  0
VERTEX
  8
LAYER_1
 10
55.1219
 20
118.5957
  0
SEQEND
  0
POLYLINE
  8
LAYER_1
 40
0.2081
 41
0.2081
 66
1
 10
0
 20
0
 30
0
  0
VERTEX
  8
LAYER_1
 10
54.5928
 20
118.5957
  0
VERTEX
  8
LAYER_1
 10
54.0636
 20
118.5957
  0
SEQEND
  0
POLYLINE
  8
LAYER_1
 40
0.2081
 41
0.2081
 66
1
 10
0
 20
0
 30
0
  0
VERTEX
  8
LAYER_1
 10
53.5344
 20
118.5957
  0
VERTEX
  8
LAYER_1
 10
53.0053
 20
118.5957
  0
SEQEND
  0
POLYLINE
  8
LAYER_1
 40
0.2081
 41
0.2081
 66
1
 10
0
 20
0
 30
0
  0
VERTEX
  8
LAYER_1
 10
52.4761
 20
118.5957
  0
VERTEX
  8
LAYER_1
 10
51.9469
 20
118.5957
  0
SEQEND
  0
POLYLINE
  8
LAYER_1
 40
0.2081
 41
0.2081
 66
1
 10
0
 20
0
 30
0
  0
VERTEX
  8
LAYER_1
 10
51.4178
 20
118.5957
  0
VERTEX
  8
LAYER_1
 10
50.8886
 20
118.5957
  0
SEQEND
  0
POLYLINE
  8
LAYER_1
 40
0.2081
 41
0.2081
 66
1
 10
0
 20
0
 30
0
  0
VERTEX
  8
LAYER_1
 10
50.3594
 20
118.5957
  0
VERTEX
  8
LAYER_1
 10
49.8303
 20
118.5957
  0
SEQEND
  0
POLYLINE
  8
LAYER_1
 40
0.2081
 41
0.2081
 66
1
 10
0
 20
0
 30
0
  0
VERTEX
  8
LAYER_1
 10
49.3011
 20
118.5957
  0
VERTEX
  8
LAYER_1
 10
48.7719
 20
118.5957
  0
SEQEND
  0
POLYLINE
  8
LAYER_1
 40
0.2081
 41
0.2081
 66
1
 10
0
 20
0
 30
0
  0
VERTEX
  8
LAYER_1
 10
48.2428
 20
118.5957
  0
VERTEX
  8
LAYER_1
 10
47.7136
 20
118.5957
  0
SEQEND
  0
POLYLINE
  8
LAYER_1
 40
0.2081
 41
0.2081
 66
1
 10
0
 20
0
 30
0
  0
VERTEX
  8
LAYER_1
 10
47.1844
 20
118.5957
  0
VERTEX
  8
LAYER_1
 10
46.6553
 20
118.5957
  0
SEQEND
  0
POLYLINE
  8
LAYER_1
 40
0.2081
 41
0.2081
 66
1
 10
0
 20
0
 30
0
  0
VERTEX
  8
LAYER_1
 10
46.1261
 20
118.5957
  0
VERTEX
  8
LAYER_1
 10
45.5969
 20
118.5957
  0
SEQEND
  0
POLYLINE
  8
LAYER_1
 40
0.2081
 41
0.2081
 66
1
 10
0
 20
0
 30
0
  0
VERTEX
  8
LAYER_1
 10
45.0678
 20
118.5957
  0
VERTEX
  8
LAYER_1
 10
44.5386
 20
118.5957
  0
SEQEND
  0
POLYLINE
  8
LAYER_1
 40
0.2081
 41
0.2081
 66
1
 10
0
 20
0
 30
0
  0
VERTEX
  8
LAYER_1
 10
44.0094
 20
118.5957
  0
VERTEX
  8
LAYER_1
 10
43.4803
 20
118.5957
  0
SEQEND
  0
POLYLINE
  8
LAYER_1
 40
0.2081
 41
0.2081
 66
1
 10
0
 20
0
 30
0
  0
VERTEX
  8
LAYER_1
 10
42.9511
 20
118.5957
  0
VERTEX
  8
LAYER_1
 10
42.4219
 20
118.5957
  0
SEQEND
  0
POLYLINE
  8
LAYER_1
 40
0.2081
 41
0.2081
 66
1
 10
0
 20
0
 30
0
  0
VERTEX
  8
LAYER_1
 10
41.8928
 20
118.5957
  0
VERTEX
  8
LAYER_1
 10
41.3636
 20
118.5957
  0
SEQEND
  0
POLYLINE
  8
LAYER_1
 40
0.2081
 41
0.2081
 66
1
 10
0
 20
0
 30
0
  0
VERTEX
  8
LAYER_1
 10
40.8344
 20
118.5957
  0
VERTEX
  8
LAYER_1
 10
40.3053
 20
118.5957
  0
SEQEND
  0
POLYLINE
  8
LAYER_1
 40
0.2081
 41
0.2081
 66
1
 10
0
 20
0
 30
0
  0
VERTEX
  8
LAYER_1
 10
39.8396
 20
118.6592
  0
VERTEX
  8
LAYER_1
 10
39.8396
 20
119.1884
  0
SEQEND
  0
POLYLINE
  8
LAYER_1
 40
0.2081
 41
0.2081
 66
1
 10
0
 20
0
 30
0
  0
VERTEX
  8
LAYER_1
 10
39.8396
 20
119.7176
  0
VERTEX
  8
LAYER_1
 10
39.8396
 20
120.2467
  0
SEQEND
  0
POLYLINE
  8
LAYER_1
 40
0.2081
 41
0.2081
 66
1
 10
0
 20
0
 30
0
  0
VERTEX
  8
LAYER_1
 10
39.8396
 20
120.7759
  0
VERTEX
  8
LAYER_1
 10
39.8396
 20
121.3051
  0
SEQEND
  0
POLYLINE
  8
LAYER_1
 40
0.2081
 41
0.2081
 66
1
 10
0
 20
0
 30
0
  0
VERTEX
  8
LAYER_1
 10
39.8396
 20
121.8342
  0
VERTEX
  8
LAYER_1
 10
39.8396
 20
122.3634
  0
SEQEND
  0
POLYLINE
  8
LAYER_1
 40
0.2081
 41
0.2081
 66
1
 10
0
 20
0
 30
0
  0
VERTEX
  8
LAYER_1
 10
39.8396
 20
122.8926
  0
VERTEX
  8
LAYER_1
 10
39.8396
 20
123.4217
  0
SEQEND
  0
POLYLINE
  8
LAYER_1
 40
0.2081
 41
0.2081
 66
1
 10
0
 20
0
 30
0
  0
VERTEX
  8
LAYER_1
 10
39.8396
 20
123.9509
  0
VERTEX
  8
LAYER_1
 10
39.8396
 20
124.4801
  0
SEQEND
  0
POLYLINE
  8
LAYER_1
 40
0.2081
 41
0.2081
 66
1
 10
0
 20
0
 30
0
  0
VERTEX
  8
LAYER_1
 10
39.8396
 20
125.0092
  0
VERTEX
  8
LAYER_1
 10
39.8396
 20
125.5384
  0
SEQEND
  0
POLYLINE
  8
LAYER_1
 40
0.2081
 41
0.2081
 66
1
 10
0
 20
0
 30
0
  0
VERTEX
  8
LAYER_1
 10
39.8396
 20
126.0676
  0
VERTEX
  8
LAYER_1
 10
39.8396
 20
126.5967
  0
SEQEND
  0
POLYLINE
  8
LAYER_1
 40
0.2081
 41
0.2081
 66
1
 10
0
 20
0
 30
0
  0
VERTEX
  8
LAYER_1
 10
39.8396
 20
127.1259
  0
VERTEX
  8
LAYER_1
 10
39.8396
 20
127.6551
  0
SEQEND
  0
POLYLINE
  8
LAYER_1
 40
0.2081
 41
0.2081
 66
1
 10
0
 20
0
 30
0
  0
VERTEX
  8
LAYER_1
 10
39.8396
 20
128.1842
  0
VERTEX
  8
LAYER_1
 10
39.8396
 20
128.7134
  0
SEQEND
  0
POLYLINE
  8
LAYER_1
 40
0.2081
 41
0.2081
 66
1
 10
0
 20
0
 30
0
  0
VERTEX
  8
LAYER_1
 10
39.8396
 20
129.2426
  0
VERTEX
  8
LAYER_1
 10
39.8396
 20
129.7717
  0
SEQEND
  0
POLYLINE
  8
LAYER_1
 40
0.2081
 41
0.2081
 66
1
 10
0
 20
0
 30
0
  0
VERTEX
  8
LAYER_1
 10
39.8396
 20
130.3009
  0
VERTEX
  8
LAYER_1
 10
39.8396
 20
130.8301
  0
SEQEND
  0
POLYLINE
  8
LAYER_1
 40
0.2081
 41
0.2081
 66
1
 10
0
 20
0
 30
0
  0
VERTEX
  8
LAYER_1
 10
39.8396
 20
131.3592
  0
VERTEX
  8
LAYER_1
 10
39.8396
 20
131.8884
  0
SEQEND
  0
POLYLINE
  8
LAYER_1
 40
0.2081
 41
0.2081
 66
1
 10
0
 20
0
 30
0
  0
VERTEX
  8
LAYER_1
 10
39.8396
 20
132.4176
  0
VERTEX
  8
LAYER_1
 10
39.8396
 20
132.9467
  0
SEQEND
  0
POLYLINE
  8
LAYER_1
 40
0.2081
 41
0.2081
 66
1
 10
0
 20
0
 30
0
  0
VERTEX
  8
LAYER_1
 10
39.8396
 20
133.4759
  0
VERTEX
  8
LAYER_1
 10
39.8396
 20
134.0051
  0
SEQEND
  0
POLYLINE
  8
LAYER_1
 40
0.2081
 41
0.2081
 66
1
 10
0
 20
0
 30
0
  0
VERTEX
  8
LAYER_1
 10
39.8396
 20
134.5342
  0
VERTEX
  8
LAYER_1
 10
39.8396
 20
135.0634
  0
SEQEND
  0
POLYLINE
  8
LAYER_1
 40
0.2081
 41
0.2081
 66
1
 10
0
 20
0
 30
0
  0
VERTEX
  8
LAYER_1
 10
39.8396
 20
135.5926
  0
VERTEX
  8
LAYER_1
 10
39.8396
 20
136.1217
  0
SEQEND
  0
POLYLINE
  8
LAYER_1
 40
0.2081
 41
0.2081
 66
1
 10
0
 20
0
 30
0
  0
VERTEX
  8
LAYER_1
 10
39.8396
 20
136.6509
  0
VERTEX
  8
LAYER_1
 10
39.8396
 20
137.1801
  0
SEQEND
  0
POLYLINE
  8
LAYER_1
 40
0.2081
 41
0.2081
 66
1
 10
0
 20
0
 30
0
  0
VERTEX
  8
LAYER_1
 10
39.8396
 20
137.7092
  0
VERTEX
  8
LAYER_1
 10
39.8396
 20
138.2384
  0
SEQEND
  0
POLYLINE
  8
LAYER_1
 40
0.2081
 41
0.2081
 66
1
 10
0
 20
0
 30
0
  0
VERTEX
  8
LAYER_1
 10
39.8396
 20
138.7676
  0
VERTEX
  8
LAYER_1
 10
39.8396
 20
139.2967
  0
SEQEND
  0
POLYLINE
  8
LAYER_1
 40
0.2081
 41
0.2081
 66
1
 10
0
 20
0
 30
0
  0
VERTEX
  8
LAYER_1
 10
39.8396
 20
139.8259
  0
VERTEX
  8
LAYER_1
 10
39.8396
 20
140.3551
  0
SEQEND
  0
POLYLINE
  8
LAYER_1
 40
0.2081
 41
0.2081
 66
1
 10
0
 20
0
 30
0
  0
VERTEX
  8
LAYER_1
 10
39.8396
 20
140.8842
  0
VERTEX
  8
LAYER_1
 10
39.8396
 20
141.4134
  0
SEQEND
  0
POLYLINE
  8
LAYER_1
 40
0.2081
 41
0.2081
 66
1
 10
0
 20
0
 30
0
  0
VERTEX
  8
LAYER_1
 10
39.8396
 20
141.9426
  0
VERTEX
  8
LAYER_1
 10
39.8396
 20
142.2389
  0
SEQEND
  0
POLYLINE
  8
LAYER_1
 40
0.1693
 41
0.1693
 66
1
 10
0
 20
0
 30
0
  0
VERTEX
  8
LAYER_1
 10
59.9903
 20
142.2389
  0
VERTEX
  8
LAYER_1
 10
59.9903
 20
137.1166
  0
SEQEND
  0
POLYLINE
  8
LAYER_1
 40
0.1693
 41
0.1693
 66
1
 10
0
 20
0
 30
0
  0
VERTEX
  8
LAYER_1
 10
59.9903
 20
136.7567
  0
VERTEX
  8
LAYER_1
 10
59.9903
 20
136.2276
  0
SEQEND
  0
POLYLINE
  8
LAYER_1
 40
0.1693
 41
0.1693
 66
1
 10
0
 20
0
 30
0
  0
VERTEX
  8
LAYER_1
 10
59.9903
 20
135.8677
  0
VERTEX
  8
LAYER_1
 10
59.9903
 20
130.7454
  0
SEQEND
  0
POLYLINE
  8
LAYER_1
 40
0.1693
 41
0.1693
 66
1
 10
0
 20
0
 30
0
  0
VERTEX
  8
LAYER_1
 10
59.9903
 20
130.3856
  0
VERTEX
  8
LAYER_1
 10
59.9903
 20
129.8564
  0
SEQEND
  0
POLYLINE
  8
LAYER_1
 40
0.1693
 41
0.1693
 66
1
 10
0
 20
0
 30
0
  0
VERTEX
  8
LAYER_1
 10
59.9903
 20
129.4966
  0
VERTEX
  8
LAYER_1
 10
59.9903
 20
124.3742
  0
SEQEND
  0
POLYLINE
  8
LAYER_1
 40
0.1693
 41
0.1693
 66
1
 10
0
 20
0
 30
0
  0
VERTEX
  8
LAYER_1
 10
59.9903
 20
124.0144
  0
VERTEX
  8
LAYER_1
 10
59.9903
 20
123.4852
  0
SEQEND
  0
POLYLINE
  8
LAYER_1
 40
0.1693
 41
0.1693
 66
1
 10
0
 20
0
 30
0
  0
VERTEX
  8
LAYER_1
 10
59.9903
 20
123.1254
  0
VERTEX
  8
LAYER_1
 10
59.9903
 20
118.0031
  0
SEQEND
  0
POLYLINE
  8
LAYER_1
 40
0.1693
 41
0.1693
 66
1
 10
0
 20
0
 30
0
  0
VERTEX
  8
LAYER_1
 10
59.9903
 20
117.6432
  0
VERTEX
  8
LAYER_1
 10
59.9903
 20
117.2411
  0
SEQEND
  0
POLYLINE
  8
LAYER_1
 40
0.1693
 41
0.1693
 66
1
 10
0
 20
0
 30
0
  0
VERTEX
  8
LAYER_1
 10
38.8448
 20
143.7417
  0
VERTEX
  8
LAYER_1
 10
38.8448
 20
149.7319
  0
SEQEND
  0
POLYLINE
  8
LAYER_1
 40
0.1693
 41
0.1693
 66
1
 10
0
 20
0
 30
0
  0
VERTEX
  8
LAYER_1
 10
98.8311
 20
143.7417
  0
VERTEX
  8
LAYER_1
 10
98.8311
 20
149.7319
  0
SEQEND
  0
CIRCLE
  8
LAYER_1
 10
38.8554
 20
149.7213
 40
0.2699
  0
CIRCLE
  8
LAYER_1
 10
38.8448
 20
149.7319
 40
0.254
  0
CIRCLE
  8
LAYER_1
 10
98.8417
 20
149.7213
 40
0.2699
  0
CIRCLE
  8
LAYER_1
 10
98.8311
 20
149.7319
 40
0.254
  0
POLYLINE
  8
LAYER_1
 40
0.1693
 41
0.1693
 66
1
 10
0
 20
0
 30
0
  0
VERTEX
  8
LAYER_1
 10
38.8448
 20
149.7319
  0
VERTEX
  8
LAYER_1
 10
98.8311
 20
149.7319
  0
SEQEND
  0
POLYLINE
  8
LAYER_1
 40
0.05
 41
0.05
 62
255
 66
1
 10
0
 20
0
 30
0
 70
1
  0
VERTEX
  8
LAYER_1
 10
67.0811
 20
151.9967
  0
VERTEX
  8
LAYER_1
 10
70.5948
 20
151.9967
  0
VERTEX
  8
LAYER_1
 10
70.5948
 20
150.2399
  0
VERTEX
  8
LAYER_1
 10
67.0811
 20
150.2399
  0
SEQEND
  0
TEXT
  8
LAYER_1
 10
67.0812
 20
150.4203
 11
67.0812
 21
150.4203
 40
2.0812
 41
0.5
  1
1200
  0
POLYLINE
  8
LAYER_1
 40
0.1693
 41
0.1693
 66
1
 10
0
 20
0
 30
0
  0
VERTEX
  8
LAYER_1
 10
39.8396
 20
143.7417
  0
VERTEX
  8
LAYER_1
 10
39.8396
 20
145.9854
  0
SEQEND
  0
POLYLINE
  8
LAYER_1
 40
0.1693
 41
0.1693
 66
1
 10
0
 20
0
 30
0
  0
VERTEX
  8
LAYER_1
 10
97.8363
 20
143.7417
  0
VERTEX
  8
LAYER_1
 10
97.8363
 20
145.9854
  0
SEQEND
  0
CIRCLE
  8
LAYER_1
 10
39.8502
 20
145.9748
 40
0.2699
  0
CIRCLE
  8
LAYER_1
 10
39.8396
 20
145.9854
 40
0.254
  0
CIRCLE
  8
LAYER_1
 10
97.8469
 20
145.9748
 40
0.2699
  0
CIRCLE
  8
LAYER_1
 10
97.8363
 20
145.9854
 40
0.254
  0
POLYLINE
  8
LAYER_1
 40
0.1693
 41
0.1693
 66
1
 10
0
 20
0
 30
0
  0
VERTEX
  8
LAYER_1
 10
39.8396
 20
145.9854
  0
VERTEX
  8
LAYER_1
 10
97.8363
 20
145.9854
  0
SEQEND
  0
POLYLINE
  8
LAYER_1
 40
0.05
 41
0.05
 62
255
 66
1
 10
0
 20
0
 30
0
 70
1
  0
VERTEX
  8
LAYER_1
 10
67.0811
 20
148.2502
  0
VERTEX
  8
LAYER_1
 10
70.5948
 20
148.2502
  0
VERTEX
  8
LAYER_1
 10
70.5948
 20
146.4934
  0
VERTEX
  8
LAYER_1
 10
67.0811
 20
146.4934
  0
SEQEND
  0
TEXT
  8
LAYER_1
 10
67.0812
 20
146.6734
 11
67.0812
 21
146.6734
 40
2.0812
 41
0.5
  1
1160
  0
POLYLINE
  8
LAYER_1
 40
0.1693
 41
0.1693
 66
1
 10
0
 20
0
 30
0
  0
VERTEX
  8
LAYER_1
 10
38.8448
 20
145.2446
  0
VERTEX
  8
LAYER_1
 10
38.8448
 20
145.9854
  0
SEQEND
  0
POLYLINE
  8
LAYER_1
 40
0.1693
 41
0.1693
 66
1
 10
0
 20
0
 30
0
  0
VERTEX
  8
LAYER_1
 10
39.8396
 20
145.2446
  0
VERTEX
  8
LAYER_1
 10
39.8396
 20
145.9854
  0
SEQEND
  0
POLYLINE
  8
LAYER_1
 40
0.1693
 41
0.1693
 66
1
 10
0
 20
0
 30
0
  0
VERTEX
  8
LAYER_1
 10
39.8396
 20
145.9854
  0
VERTEX
  8
LAYER_1
 10
38.8448
 20
145.9854
  0
SEQEND
  0
CIRCLE
  8
LAYER_1
 10
38.8554
 20
145.9748
 40
0.2699
  0
CIRCLE
  8
LAYER_1
 10
38.8448
 20
145.9854
 40
0.254
  0
POLYLINE
  8
LAYER_1
 40
0.1693
 41
0.1693
 66
1
 10
0
 20
0
 30
0
  0
VERTEX
  8
LAYER_1
 10
38.8448
 20
145.9854
  0
VERTEX
  8
LAYER_1
 10
38.5908
 20
145.9854
  0
SEQEND
  0
CIRCLE
  8
LAYER_1
 10
39.8502
 20
145.9748
 40
0.2699
  0
CIRCLE
  8
LAYER_1
 10
39.8396
 20
145.9854
 40
0.254
  0
POLYLINE
  8
LAYER_1
 40
0.1693
 41
0.1693
 66
1
 10
0
 20
0
 30
0
  0
VERTEX
  8
LAYER_1
 10
39.8396
 20
145.9854
  0
VERTEX
  8
LAYER_1
 10
40.0936
 20
145.9854
  0
SEQEND
  0
POLYLINE
  8
LAYER_1
 40
0.05
 41
0.05
 62
255
 66
1
 10
0
 20
0
 30
0
 70
1
  0
VERTEX
  8
LAYER_1
 10
37.0668
 20
148.2502
  0
VERTEX
  8
LAYER_1
 10
38.8448
 20
148.2502
  0
VERTEX
  8
LAYER_1
 10
38.8448
 20
146.4934
  0
VERTEX
  8
LAYER_1
 10
37.0668
 20
146.4934
  0
SEQEND
  0
TEXT
  8
LAYER_1
 10
37.0667
 20
146.6734
 11
37.0667
 21
146.6734
 40
2.0812
 41
0.5
  1
20
  0
POLYLINE
  8
LAYER_1
 40
0.1693
 41
0.1693
 66
1
 10
0
 20
0
 30
0
  0
VERTEX
  8
LAYER_1
 10
98.8311
 20
145.2446
  0
VERTEX
  8
LAYER_1
 10
98.8311
 20
145.9854
  0
SEQEND
  0
POLYLINE
  8
LAYER_1
 40
0.1693
 41
0.1693
 66
1
 10
0
 20
0
 30
0
  0
VERTEX
  8
LAYER_1
 10
97.8363
 20
145.2446
  0
VERTEX
  8
LAYER_1
 10
97.8363
 20
145.9854
  0
SEQEND
  0
POLYLINE
  8
LAYER_1
 40
0.1693
 41
0.1693
 66
1
 10
0
 20
0
 30
0
  0
VERTEX
  8
LAYER_1
 10
97.8363
 20
145.9854
  0
VERTEX
  8
LAYER_1
 10
98.8311
 20
145.9854
  0
SEQEND
  0
CIRCLE
  8
LAYER_1
 10
98.8417
 20
145.9748
 40
0.2699
  0
CIRCLE
  8
LAYER_1
 10
98.8311
 20
145.9854
 40
0.254
  0
POLYLINE
  8
LAYER_1
 40
0.1693
 41
0.1693
 66
1
 10
0
 20
0
 30
0
  0
VERTEX
  8
LAYER_1
 10
98.8311
 20
145.9854
  0
VERTEX
  8
LAYER_1
 10
99.0851
 20
145.9854
  0
SEQEND
  0
CIRCLE
  8
LAYER_1
 10
97.8469
 20
145.9748
 40
0.2699
  0
CIRCLE
  8
LAYER_1
 10
97.8363
 20
145.9854
 40
0.254
  0
POLYLINE
  8
LAYER_1
 40
0.1693
 41
0.1693
 66
1
 10
0
 20
0
 30
0
  0
VERTEX
  8
LAYER_1
 10
97.8363
 20
145.9854
  0
VERTEX
  8
LAYER_1
 10
97.5823
 20
145.9854
  0
SEQEND
  0
POLYLINE
  8
LAYER_1
 40
0.05
 41
0.05
 62
255
 66
1
 10
0
 20
0
 30
0
 70
1
  0
VERTEX
  8
LAYER_1
 10
98.8311
 20
148.2502
  0
VERTEX
  8
LAYER_1
 10
100.6091
 20
148.2502
  0
VERTEX
  8
LAYER_1
 10
100.6091
 20
146.4934
  0
VERTEX
  8
LAYER_1
 10
98.8311
 20
146.4934
  0
SEQEND
  0
TEXT
  8
LAYER_1
 10
98.8312
 20
146.6734
 11
98.8312
 21
146.6734
 40
2.0812
 41
0.5
  1
20
  0
POLYLINE
  8
LAYER_1
 40
0.1693
 41
0.1693
 66
1
 10
0
 20
0
 30
0
  0
VERTEX
  8
LAYER_1
 10
37.342
 20
142.2389
  0
VERTEX
  8
LAYER_1
 10
26.3353
 20
142.2389
  0
SEQEND
  0
POLYLINE
  8
LAYER_1
 40
0.1693
 41
0.1693
 66
1
 10
0
 20
0
 30
0
  0
VERTEX
  8
LAYER_1
 10
37.342
 20
117.2411
  0
VERTEX
  8
LAYER_1
 10
26.3353
 20
117.2411
  0
SEQEND
  0
CIRCLE
  8
LAYER_1
 10
26.3459
 20
142.2283
 40
0.2699
  0
CIRCLE
  8
LAYER_1
 10
26.3353
 20
142.2389
 40
0.254
  0
CIRCLE
  8
LAYER_1
 10
26.3459
 20
117.2305
 40
0.2699
  0
CIRCLE
  8
LAYER_1
 10
26.3353
 20
117.2411
 40
0.254
  0
POLYLINE
  8
LAYER_1
 40
0.1693
 41
0.1693
 66
1
 10
0
 20
0
 30
0
  0
VERTEX
  8
LAYER_1
 10
26.3353
 20
142.2389
  0
VERTEX
  8
LAYER_1
 10
26.3353
 20
117.2411
  0
SEQEND
  0
POLYLINE
  8
LAYER_1
 40
0.05
 41
0.05
 62
255
 66
1
 10
0
 20
0
 30
0
 70
1
  0
VERTEX
  8
LAYER_1
 10
24.0704
 20
131.0629
  0
VERTEX
  8
LAYER_1
 10
25.8273
 20
131.0629
  0
VERTEX
  8
LAYER_1
 10
25.8273
 20
128.4171
  0
VERTEX
  8
LAYER_1
 10
24.0704
 20
128.4171
  0
SEQEND
  0
TEXT
  8
LAYER_1
 10
25.6493
 20
128.4195
 11
25.6493
 21
128.4195
 40
2.0813
 41
0.5
 50
89.99999999
  1
500
  0
POLYLINE
  8
LAYER_1
 40
0.1693
 41
0.1693
 66
1
 10
0
 20
0
 30
0
  0
VERTEX
  8
LAYER_1
 10
37.342
 20
142.2389
  0
VERTEX
  8
LAYER_1
 10
31.3306
 20
142.2389
  0
SEQEND
  0
POLYLINE
  8
LAYER_1
 40
0.1693
 41
0.1693
 66
1
 10
0
 20
0
 30
0
  0
VERTEX
  8
LAYER_1
 10
37.342
 20
118.5957
  0
VERTEX
  8
LAYER_1
 10
31.3306
 20
118.5957
  0
SEQEND
  0
CIRCLE
  8
LAYER_1
 10
31.3412
 20
142.2283
 40
0.2699
  0
CIRCLE
  8
LAYER_1
 10
31.3306
 20
142.2389
 40
0.254
  0
CIRCLE
  8
LAYER_1
 10
31.3412
 20
118.5852
 40
0.2699
  0
CIRCLE
  8
LAYER_1
 10
31.3306
 20
118.5957
 40
0.254
  0
POLYLINE
  8
LAYER_1
 40
0.1693
 41
0.1693
 66
1
 10
0
 20
0
 30
0
  0
VERTEX
  8
LAYER_1
 10
31.3306
 20
142.2389
  0
VERTEX
  8
LAYER_1
 10
31.3306
 20
118.5957
  0
SEQEND
  0
POLYLINE
  8
LAYER_1
 40
0.05
 41
0.05
 62
255
 66
1
 10
0
 20
0
 30
0
 70
1
  0
VERTEX
  8
LAYER_1
 10
29.0658
 20
131.7402
  0
VERTEX
  8
LAYER_1
 10
30.8438
 20
131.7402
  0
VERTEX
  8
LAYER_1
 10
30.8438
 20
129.0944
  0
VERTEX
  8
LAYER_1
 10
29.0658
 20
129.0944
  0
SEQEND
  0
TEXT
  8
LAYER_1
 10
30.6452
 20
129.092
 11
30.6452
 21
129.092
 40
2.0813
 41
0.5
 50
89.99999999
  1
473
  0
POLYLINE
  8
LAYER_1
 40
0.1693
 41
0.1693
 66
1
 10
0
 20
0
 30
0
  0
VERTEX
  8
LAYER_1
 10
35.8391
 20
117.2411
  0
VERTEX
  8
LAYER_1
 10
31.3306
 20
117.2411
  0
SEQEND
  0
POLYLINE
  8
LAYER_1
 40
0.1693
 41
0.1693
 66
1
 10
0
 20
0
 30
0
  0
VERTEX
  8
LAYER_1
 10
35.8391
 20
118.5957
  0
VERTEX
  8
LAYER_1
 10
31.3306
 20
118.5957
  0
SEQEND
  0
POLYLINE
  8
LAYER_1
 40
0.1693
 41
0.1693
 66
1
 10
0
 20
0
 30
0
  0
VERTEX
  8
LAYER_1
 10
31.3306
 20
118.5957
  0
VERTEX
  8
LAYER_1
 10
31.3306
 20
117.2411
  0
SEQEND
  0
CIRCLE
  8
LAYER_1
 10
31.3412
 20
117.2305
 40
0.2699
  0
CIRCLE
  8
LAYER_1
 10
31.3306
 20
117.2411
 40
0.254
  0
POLYLINE
  8
LAYER_1
 40
0.1693
 41
0.1693
 66
1
 10
0
 20
0
 30
0
  0
VERTEX
  8
LAYER_1
 10
31.3306
 20
117.2411
  0
VERTEX
  8
LAYER_1
 10
31.3306
 20
116.9871
  0
SEQEND
  0
CIRCLE
  8
LAYER_1
 10
31.3412
 20
118.5852
 40
0.2699
  0
CIRCLE
  8
LAYER_1
 10
31.3306
 20
118.5957
 40
0.254
  0
POLYLINE
  8
LAYER_1
 40
0.1693
 41
0.1693
 66
1
 10
0
 20
0
 30
0
  0
VERTEX
  8
LAYER_1
 10
31.3306
 20
118.5957
  0
VERTEX
  8
LAYER_1
 10
31.3306
 20
118.8286
  0
SEQEND
  0
POLYLINE
  8
LAYER_1
 40
0.05
 41
0.05
 62
255
 66
1
 10
0
 20
0
 30
0
 70
1
  0
VERTEX
  8
LAYER_1
 10
29.0658
 20
117.2411
  0
VERTEX
  8
LAYER_1
 10
30.8438
 20
117.2411
  0
VERTEX
  8
LAYER_1
 10
30.8438
 20
115.4631
  0
VERTEX
  8
LAYER_1
 10
29.0658
 20
115.4631
  0
SEQEND
  0
TEXT
  8
LAYER_1
 10
30.6452
 20
115.4639
 11
30.6452
 21
115.4639
 40
2.0813
 41
0.5
 50
89.99999999
  1
27
  0
POLYLINE
  8
LAYER_1
 40
0.1693
 41
0.1693
 66
1
 10
0
 20
0
 30
0
  0
VERTEX
  8
LAYER_1
 10
38.8448
 20
115.7382
  0
VERTEX
  8
LAYER_1
 10
38.8448
 20
109.7269
  0
SEQEND
  0
POLYLINE
  8
LAYER_1
 40
0.1693
 41
0.1693
 66
1
 10
0
 20
0
 30
0
  0
VERTEX
  8
LAYER_1
 10
59.9903
 20
115.7382
  0
VERTEX
  8
LAYER_1
 10
59.9903
 20
109.7269
  0
SEQEND
  0
CIRCLE
  8
LAYER_1
 10
38.8554
 20
109.7163
 40
0.2699
  0
CIRCLE
  8
LAYER_1
 10
38.8448
 20
109.7269
 40
0.254
  0
CIRCLE
  8
LAYER_1
 10
60.0009
 20
109.7163
 40
0.2699
  0
CIRCLE
  8
LAYER_1
 10
59.9903
 20
109.7269
 40
0.254
  0
POLYLINE
  8
LAYER_1
 40
0.1693
 41
0.1693
 66
1
 10
0
 20
0
 30
0
  0
VERTEX
  8
LAYER_1
 10
38.8448
 20
109.7269
  0
VERTEX
  8
LAYER_1
 10
59.9903
 20
109.7269
  0
SEQEND
  0
POLYLINE
  8
LAYER_1
 40
0.05
 41
0.05
 62
255
 66
1
 10
0
 20
0
 30
0
 70
1
  0
VERTEX
  8
LAYER_1
 10
48.0946
 20
111.9917
  0
VERTEX
  8
LAYER_1
 10
50.7404
 20
111.9917
  0
VERTEX
  8
LAYER_1
 10
50.7404
 20
110.2349
  0
VERTEX
  8
LAYER_1
 10
48.0946
 20
110.2349
  0
SEQEND
  0
TEXT
  8
LAYER_1
 10
48.0946
 20
110.4361
 11
48.0946
 21
110.4361
 40
2.0812
 41
0.5
  1
423
  0
POLYLINE
  8
LAYER_1
 40
0.1693
 41
0.1693
 66
1
 10
0
 20
0
 30
0
  0
VERTEX
  8
LAYER_1
 10
59.9903
 20
115.7382
  0
VERTEX
  8
LAYER_1
 10
59.9903
 20
109.7269
  0
SEQEND
  0
POLYLINE
  8
LAYER_1
 40
0.1693
 41
0.1693
 66
1
 10
0
 20
0
 30
0
  0
VERTEX
  8
LAYER_1
 10
98.8311
 20
115.7382
  0
VERTEX
  8
LAYER_1
 10
98.8311
 20
109.7269
  0
SEQEND
  0
CIRCLE
  8
LAYER_1
 10
60.0009
 20
109.7163
 40
0.2699
  0
CIRCLE
  8
LAYER_1
 10
59.9903
 20
109.7269
 40
0.254
  0
CIRCLE
  8
LAYER_1
 10
98.8417
 20
109.7163
 40
0.2699
  0
CIRCLE
  8
LAYER_1
 10
98.8311
 20
109.7269
 40
0.254
  0
POLYLINE
  8
LAYER_1
 40
0.1693
 41
0.1693
 66
1
 10
0
 20
0
 30
0
  0
VERTEX
  8
LAYER_1
 10
59.9903
 20
109.7269
  0
VERTEX
  8
LAYER_1
 10
98.8311
 20
109.7269
  0
SEQEND
  0
POLYLINE
  8
LAYER_1
 40
0.05
 41
0.05
 62
255
 66
1
 10
0
 20
0
 30
0
 70
1
  0
VERTEX
  8
LAYER_1
 10
78.0878
 20
111.9917
  0
VERTEX
  8
LAYER_1
 10
80.7336
 20
111.9917
  0
VERTEX
  8
LAYER_1
 10
80.7336
 20
110.2349
  0
VERTEX
  8
LAYER_1
 10
78.0878
 20
110.2349
  0
SEQEND
  0
TEXT
  8
LAYER_1
 10
78.0878
 20
110.4361
 11
78.0878
 21
110.4361
 40
2.0812
 41
0.5
  1
777
  0
POLYLINE
  8
LAYER_1
 40
0.1693
 41
0.1693
 66
1
 10
0
 20
0
 30
0
  0
VERTEX
  8
LAYER_1
 10
37.342
 20
162.2414
  0
VERTEX
  8
LAYER_1
 10
31.3306
 20
162.2414
  0
SEQEND
  0
POLYLINE
  8
LAYER_1
 40
0.1693
 41
0.1693
 66
1
 10
0
 20
0
 30
0
  0
VERTEX
  8
LAYER_1
 10
37.342
 20
163.5961
  0
VERTEX
  8
LAYER_1
 10
31.3306
 20
163.5961
  0
SEQEND
  0
POLYLINE
  8
LAYER_1
 40
0.1693
 41
0.1693
 66
1
 10
0
 20
0
 30
0
  0
VERTEX
  8
LAYER_1
 10
31.3306
 20
163.5961
  0
VERTEX
  8
LAYER_1
 10
31.3306
 20
162.2414
  0
SEQEND
  0
CIRCLE
  8
LAYER_1
 10
31.3412
 20
162.2308
 40
0.2699
  0
CIRCLE
  8
LAYER_1
 10
31.3306
 20
162.2414
 40
0.254
  0
POLYLINE
  8
LAYER_1
 40
0.1693
 41
0.1693
 66
1
 10
0
 20
0
 30
0
  0
VERTEX
  8
LAYER_1
 10
31.3306
 20
162.2414
  0
VERTEX
  8
LAYER_1
 10
31.3306
 20
161.9874
  0
SEQEND
  0
CIRCLE
  8
LAYER_1
 10
31.3412
 20
163.5855
 40
0.2699
  0
CIRCLE
  8
LAYER_1
 10
31.3306
 20
163.5961
 40
0.254
  0
POLYLINE
  8
LAYER_1
 40
0.1693
 41
0.1693
 66
1
 10
0
 20
0
 30
0
  0
VERTEX
  8
LAYER_1
 10
31.3306
 20
163.5961
  0
VERTEX
  8
LAYER_1
 10
31.3306
 20
163.8289
  0
SEQEND
  0
POLYLINE
  8
LAYER_1
 40
0.05
 41
0.05
 62
255
 66
1
 10
0
 20
0
 30
0
 70
1
  0
VERTEX
  8
LAYER_1
 10
29.0658
 20
162.2414
  0
VERTEX
  8
LAYER_1
 10
30.8438
 20
162.2414
  0
VERTEX
  8
LAYER_1
 10
30.8438
 20
160.4634
  0
VERTEX
  8
LAYER_1
 10
29.0658
 20
160.4634
  0
SEQEND
  0
TEXT
  8
LAYER_1
 10
30.6452
 20
160.4662
 11
30.6452
 21
160.4662
 40
2.0813
 41
0.5
 50
89.99999999
  1
27
  0
POLYLINE
  8
LAYER_1
 40
0.1693
 41
0.1693
 66
1
 10
0
 20
0
 30
0
  0
VERTEX
  8
LAYER_1
 10
37.342
 20
98.7414
  0
VERTEX
  8
LAYER_1
 10
26.3353
 20
98.7414
  0
SEQEND
  0
POLYLINE
  8
LAYER_1
 40
0.1693
 41
0.1693
 66
1
 10
0
 20
0
 30
0
  0
VERTEX
  8
LAYER_1
 10
37.342
 20
73.7436
  0
VERTEX
  8
LAYER_1
 10
26.3353
 20
73.7436
  0
SEQEND
  0
CIRCLE
  8
LAYER_1
 10
26.3459
 20
98.7308
 40
0.2699
  0
CIRCLE
  8
LAYER_1
 10
26.3353
 20
98.7414
 40
0.254
  0
CIRCLE
  8
LAYER_1
 10
26.3459
 20
73.733
 40
0.2699
  0
CIRCLE
  8
LAYER_1
 10
26.3353
 20
73.7436
 40
0.254
  0
POLYLINE
  8
LAYER_1
 40
0.1693
 41
0.1693
 66
1
 10
0
 20
0
 30
0
  0
VERTEX
  8
LAYER_1
 10
26.3353
 20
98.7414
  0
VERTEX
  8
LAYER_1
 10
26.3353
 20
73.7436
  0
SEQEND
  0
POLYLINE
  8
LAYER_1
 40
0.05
 41
0.05
 62
255
 66
1
 10
0
 20
0
 30
0
 70
1
  0
VERTEX
  8
LAYER_1
 10
24.0704
 20
87.5654
  0
VERTEX
  8
LAYER_1
 10
25.8273
 20
87.5654
  0
VERTEX
  8
LAYER_1
 10
25.8273
 20
84.9196
  0
VERTEX
  8
LAYER_1
 10
24.0704
 20
84.9196
  0
SEQEND
  0
TEXT
  8
LAYER_1
 10
25.6493
 20
84.9204
 11
25.6493
 21
84.9204
 40
2.0813
 41
0.5
 50
89.99999999
  1
500
  0
POLYLINE
  8
LAYER_1
 40
0.1693
 41
0.1693
 66
1
 10
0
 20
0
 30
0
  0
VERTEX
  8
LAYER_1
 10
37.342
 20
98.7414
  0
VERTEX
  8
LAYER_1
 10
31.3306
 20
98.7414
  0
SEQEND
  0
POLYLINE
  8
LAYER_1
 40
0.1693
 41
0.1693
 66
1
 10
0
 20
0
 30
0
  0
VERTEX
  8
LAYER_1
 10
37.342
 20
75.0771
  0
VERTEX
  8
LAYER_1
 10
31.3306
 20
75.0771
  0
SEQEND
  0
CIRCLE
  8
LAYER_1
 10
31.3412
 20
98.7308
 40
0.2699
  0
CIRCLE
  8
LAYER_1
 10
31.3306
 20
98.7414
 40
0.254
  0
CIRCLE
  8
LAYER_1
 10
31.3412
 20
75.0665
 40
0.2699
  0
CIRCLE
  8
LAYER_1
 10
31.3306
 20
75.0771
 40
0.254
  0
POLYLINE
  8
LAYER_1
 40
0.1693
 41
0.1693
 66
1
 10
0
 20
0
 30
0
  0
VERTEX
  8
LAYER_1
 10
31.3306
 20
98.7414
  0
VERTEX
  8
LAYER_1
 10
31.3306
 20
75.0771
  0
SEQEND
  0
POLYLINE
  8
LAYER_1
 40
0.05
 41
0.05
 62
255
 66
1
 10
0
 20
0
 30
0
 70
1
  0
VERTEX
  8
LAYER_1
 10
29.0658
 20
88.2427
  0
VERTEX
  8
LAYER_1
 10
30.8438
 20
88.2427
  0
VERTEX
  8
LAYER_1
 10
30.8438
 20
85.5969
  0
VERTEX
  8
LAYER_1
 10
29.0658
 20
85.5969
  0
SEQEND
  0
TEXT
  8
LAYER_1
 10
30.6452
 20
85.5998
 11
30.6452
 21
85.5998
 40
2.0813
 41
0.5
 50
89.99999999
  1
473
  0
POLYLINE
  8
LAYER_1
 40
0.1693
 41
0.1693
 66
1
 10
0
 20
0
 30
0
  0
VERTEX
  8
LAYER_1
 10
37.342
 20
73.7436
  0
VERTEX
  8
LAYER_1
 10
31.3306
 20
73.7436
  0
SEQEND
  0
POLYLINE
  8
LAYER_1
 40
0.1693
 41
0.1693
 66
1
 10
0
 20
0
 30
0
  0
VERTEX
  8
LAYER_1
 10
35.8391
 20
75.0771
  0
VERTEX
  8
LAYER_1
 10
31.3306
 20
75.0771
  0
SEQEND
  0
POLYLINE
  8
LAYER_1
 40
0.1693
 41
0.1693
 66
1
 10
0
 20
0
 30
0
  0
VERTEX
  8
LAYER_1
 10
31.3306
 20
75.0771
  0
VERTEX
  8
LAYER_1
 10
31.3306
 20
73.7436
  0
SEQEND
  0
CIRCLE
  8
LAYER_1
 10
31.3412
 20
73.733
 40
0.2699
  0
CIRCLE
  8
LAYER_1
 10
31.3306
 20
73.7436
 40
0.254
  0
POLYLINE
  8
LAYER_1
 40
0.1693
 41
0.1693
 66
1
 10
0
 20
0
 30
0
  0
VERTEX
  8
LAYER_1
 10
31.3306
 20
73.7436
  0
VERTEX
  8
LAYER_1
 10
31.3306
 20
73.4896
  0
SEQEND
  0
CIRCLE
  8
LAYER_1
 10
31.3412
 20
75.0665
 40
0.2699
  0
CIRCLE
  8
LAYER_1
 10
31.3306
 20
75.0771
 40
0.254
  0
POLYLINE
  8
LAYER_1
 40
0.1693
 41
0.1693
 66
1
 10
0
 20
0
 30
0
  0
VERTEX
  8
LAYER_1
 10
31.3306
 20
75.0771
  0
VERTEX
  8
LAYER_1
 10
31.3306
 20
75.3311
  0
SEQEND
  0
POLYLINE
  8
LAYER_1
 40
0.05
 41
0.05
 62
255
 66
1
 10
0
 20
0
 30
0
 70
1
  0
VERTEX
  8
LAYER_1
 10
29.0658
 20
73.7436
  0
VERTEX
  8
LAYER_1
 10
30.8438
 20
73.7436
  0
VERTEX
  8
LAYER_1
 10
30.8438
 20
71.9656
  0
VERTEX
  8
LAYER_1
 10
29.0658
 20
71.9656
  0
SEQEND
  0
TEXT
  8
LAYER_1
 10
30.6452
 20
71.9641
 11
30.6452
 21
71.9641
 40
2.0813
 41
0.5
 50
89.99999999
  1
27
  0
TEXT
  8
LAYER_1
 10
21.361
 20
193.1448
 11
21.361
 21
193.1448
 40
2.5075
 41
0.5
  1
W
  0
TEXT
  8
LAYER_1
 10
21.361
 20
193.1448
 11
21.361
 21
193.1448
 40
2.5075
 41
0.5
  1
W
  0
TEXT
  8
LAYER_1
 10
22.9485
 20
193.1448
 11
22.9485
 21
193.1448
 40
2.5075
 41
0.5
  1
 
  0
TEXT
  8
LAYER_1
 10
22.9485
 20
193.1448
 11
22.9485
 21
193.1448
 40
2.5075
 41
0.5
  1
 
  0
TEXT
  8
LAYER_1
 10
23.6047
 20
193.1448
 11
23.6047
 21
193.1448
 40
2.5075
 41
0.5
  1
8
  0
TEXT
  8
LAYER_1
 10
23.6047
 20
193.1448
 11
23.6047
 21
193.1448
 40
2.5075
 41
0.5
  1
8
  0
TEXT
  8
LAYER_1
 10
24.684
 20
193.1448
 11
24.684
 21
193.1448
 40
2.5075
 41
0.5
  1
5
  0
TEXT
  8
LAYER_1
 10
24.684
 20
193.1448
 11
24.684
 21
193.1448
 40
2.5075
 41
0.5
  1
5
  0
TEXT
  8
LAYER_1
 10
25.7635
 20
193.1448
 11
25.7635
 21
193.1448
 40
2.5075
 41
0.5
  1
0
  0
TEXT
  8
LAYER_1
 10
25.7635
 20
193.1448
 11
25.7635
 21
193.1448
 40
2.5075
 41
0.5
  1
0
  0
TEXT
  8
LAYER_1
 10
26.8429
 20
193.1448
 11
26.8429
 21
193.1448
 40
2.5075
 41
0.5
  1
 
  0
TEXT
  8
LAYER_1
 10
26.8429
 20
193.1448
 11
26.8429
 21
193.1448
 40
2.5075
 41
0.5
  1
 
  0
TEXT
  8
LAYER_1
 10
27.499
 20
193.1448
 11
27.499
 21
193.1448
 40
2.5075
 41
0.5
  1
T
  0
TEXT
  8
LAYER_1
 10
27.499
 20
193.1448
 11
27.499
 21
193.1448
 40
2.5075
 41
0.5
  1
T
  0
TEXT
  8
LAYER_1
 10
28.769
 20
193.1448
 11
28.769
 21
193.1448
 40
2.5075
 41
0.5
  1
Y
  0
TEXT
  8
LAYER_1
 10
28.769
 20
193.1448
 11
28.769
 21
193.1448
 40
2.5075
 41
0.5
  1
Y
  0
TEXT
  8
LAYER_1
 10
30.0389
 20
193.1448
 11
30.0389
 21
193.1448
 40
2.5075
 41
0.5
  1
P
  0
TEXT
  8
LAYER_1
 10
30.0389
 20
193.1448
 11
30.0389
 21
193.1448
 40
2.5075
 41
0.5
  1
P
  0
TEXT
  8
LAYER_1
 10
31.3723
 20
193.1448
 11
31.3723
 21
193.1448
 40
2.5075
 41
0.5
  1
E
  0
TEXT
  8
LAYER_1
 10
31.3723
 20
193.1448
 11
31.3723
 21
193.1448
 40
2.5075
 41
0.5
  1
E
  0
TEXT
  8
LAYER_1
 10
20.6625
 20
147.2556
 11
20.6625
 21
147.2556
 40
2.5075
 41
0.5
  1
W
  0
TEXT
  8
LAYER_1
 10
20.6625
 20
147.2556
 11
20.6625
 21
147.2556
 40
2.5075
 41
0.5
  1
W
  0
TEXT
  8
LAYER_1
 10
22.25
 20
147.2556
 11
22.25
 21
147.2556
 40
2.5075
 41
0.5
  1
 
  0
TEXT
  8
LAYER_1
 10
22.25
 20
147.2556
 11
22.25
 21
147.2556
 40
2.5075
 41
0.5
  1
 
  0
TEXT
  8
LAYER_1
 10
22.9062
 20
147.2556
 11
22.9062
 21
147.2556
 40
2.5075
 41
0.5
  1
1
  0
TEXT
  8
LAYER_1
 10
22.9062
 20
147.2556
 11
22.9062
 21
147.2556
 40
2.5075
 41
0.5
  1
1
  0
TEXT
  8
LAYER_1
 10
23.9855
 20
147.2556
 11
23.9855
 21
147.2556
 40
2.5075
 41
0.5
  1
2
  0
TEXT
  8
LAYER_1
 10
23.9855
 20
147.2556
 11
23.9855
 21
147.2556
 40
2.5075
 41
0.5
  1
2
  0
TEXT
  8
LAYER_1
 10
25.0649
 20
147.2556
 11
25.0649
 21
147.2556
 40
2.5075
 41
0.5
  1
0
  0
TEXT
  8
LAYER_1
 10
25.0649
 20
147.2556
 11
25.0649
 21
147.2556
 40
2.5075
 41
0.5
  1
0
  0
TEXT
  8
LAYER_1
 10
26.1444
 20
147.2556
 11
26.1444
 21
147.2556
 40
2.5075
 41
0.5
  1
0
  0
TEXT
  8
LAYER_1
 10
26.1444
 20
147.2556
 11
26.1444
 21
147.2556
 40
2.5075
 41
0.5
  1
0
  0
TEXT
  8
LAYER_1
 10
27.2239
 20
147.2556
 11
27.2239
 21
147.2556
 40
2.5075
 41
0.5
  1
(
  0
TEXT
  8
LAYER_1
 10
27.2239
 20
147.2556
 11
27.2239
 21
147.2556
 40
2.5075
 41
0.5
  1
(
  0
TEXT
  8
LAYER_1
 10
27.8588
 20
147.2556
 11
27.8588
 21
147.2556
 40
2.5075
 41
0.5
  1
L
  0
TEXT
  8
LAYER_1
 10
27.8588
 20
147.2556
 11
27.8588
 21
147.2556
 40
2.5075
 41
0.5
  1
L
  0
TEXT
  8
LAYER_1
 10
29.0017
 20
147.2556
 11
29.0017
 21
147.2556
 40
2.5075
 41
0.5
  1
)
  0
TEXT
  8
LAYER_1
 10
29.0017
 20
147.2556
 11
29.0017
 21
147.2556
 40
2.5075
 41
0.5
  1
)
  0
TEXT
  8
LAYER_1
 10
29.6579
 20
147.2556
 11
29.6579
 21
147.2556
 40
2.5075
 41
0.5
  1
 
  0
TEXT
  8
LAYER_1
 10
29.6579
 20
147.2556
 11
29.6579
 21
147.2556
 40
2.5075
 41
0.5
  1
 
  0
TEXT
  8
LAYER_1
 10
30.314
 20
147.2556
 11
30.314
 21
147.2556
 40
2.5075
 41
0.5
  1
T
  0
TEXT
  8
LAYER_1
 10
30.314
 20
147.2556
 11
30.314
 21
147.2556
 40
2.5075
 41
0.5
  1
T
  0
TEXT
  8
LAYER_1
 10
31.5838
 20
147.2556
 11
31.5838
 21
147.2556
 40
2.5075
 41
0.5
  1
Y
  0
TEXT
  8
LAYER_1
 10
31.5838
 20
147.2556
 11
31.5838
 21
147.2556
 40
2.5075
 41
0.5
  1
Y
  0
TEXT
  8
LAYER_1
 10
32.8539
 20
147.2556
 11
32.8539
 21
147.2556
 40
2.5075
 41
0.5
  1
P
  0
TEXT
  8
LAYER_1
 10
32.8539
 20
147.2556
 11
32.8539
 21
147.2556
 40
2.5075
 41
0.5
  1
P
  0
TEXT
  8
LAYER_1
 10
34.1873
 20
147.2556
 11
34.1873
 21
147.2556
 40
2.5075
 41
0.5
  1
E
  0
TEXT
  8
LAYER_1
 10
34.1873
 20
147.2556
 11
34.1873
 21
147.2556
 40
2.5075
 41
0.5
  1
E
  0
TEXT
  8
LAYER_1
 10
21.6151
 20
106.9542
 11
21.6151
 21
106.9542
 40
2.5075
 41
0.5
  1
W
  0
TEXT
  8
LAYER_1
 10
21.6151
 20
106.9542
 11
21.6151
 21
106.9542
 40
2.5075
 41
0.5
  1
W
  0
TEXT
  8
LAYER_1
 10
23.2024
 20
106.9542
 11
23.2024
 21
106.9542
 40
2.5075
 41
0.5
  1
 
  0
TEXT
  8
LAYER_1
 10
23.2024
 20
106.9542
 11
23.2024
 21
106.9542
 40
2.5075
 41
0.5
  1
 
  0
TEXT
  8
LAYER_1
 10
23.8587
 20
106.9542
 11
23.8587
 21
106.9542
 40
2.5075
 41
0.5
  1
1
  0
TEXT
  8
LAYER_1
 10
23.8587
 20
106.9542
 11
23.8587
 21
106.9542
 40
2.5075
 41
0.5
  1
1
  0
TEXT
  8
LAYER_1
 10
24.9381
 20
106.9542
 11
24.9381
 21
106.9542
 40
2.5075
 41
0.5
  1
6
  0
TEXT
  8
LAYER_1
 10
24.9381
 20
106.9542
 11
24.9381
 21
106.9542
 40
2.5075
 41
0.5
  1
6
  0
TEXT
  8
LAYER_1
 10
26.0174
 20
106.9542
 11
26.0174
 21
106.9542
 40
2.5075
 41
0.5
  1
5
  0
TEXT
  8
LAYER_1
 10
26.0174
 20
106.9542
 11
26.0174
 21
106.9542
 40
2.5075
 41
0.5
  1
5
  0
TEXT
  8
LAYER_1
 10
27.0968
 20
106.9542
 11
27.0968
 21
106.9542
 40
2.5075
 41
0.5
  1
0
  0
TEXT
  8
LAYER_1
 10
27.0968
 20
106.9542
 11
27.0968
 21
106.9542
 40
2.5075
 41
0.5
  1
0
  0
TEXT
  8
LAYER_1
 10
28.1763
 20
106.9542
 11
28.1763
 21
106.9542
 40
2.5075
 41
0.5
  1
 
  0
TEXT
  8
LAYER_1
 10
28.1763
 20
106.9542
 11
28.1763
 21
106.9542
 40
2.5075
 41
0.5
  1
 
  0
TEXT
  8
LAYER_1
 10
28.8324
 20
106.9542
 11
28.8324
 21
106.9542
 40
2.5075
 41
0.5
  1
T
  0
TEXT
  8
LAYER_1
 10
28.8324
 20
106.9542
 11
28.8324
 21
106.9542
 40
2.5075
 41
0.5
  1
T
  0
TEXT
  8
LAYER_1
 10
30.1023
 20
106.9542
 11
30.1023
 21
106.9542
 40
2.5075
 41
0.5
  1
Y
  0
TEXT
  8
LAYER_1
 10
30.1023
 20
106.9542
 11
30.1023
 21
106.9542
 40
2.5075
 41
0.5
  1
Y
  0
TEXT
  8
LAYER_1
 10
31.3723
 20
106.9542
 11
31.3723
 21
106.9542
 40
2.5075
 41
0.5
  1
P
  0
TEXT
  8
LAYER_1
 10
31.3723
 20
106.9542
 11
31.3723
 21
106.9542
 40
2.5075
 41
0.5
  1
P
  0
TEXT
  8
LAYER_1
 10
32.7057
 20
106.9542
 11
32.7057
 21
106.9542
 40
2.5075
 41
0.5
  1
E
  0
TEXT
  8
LAYER_1
 10
32.7057
 20
106.9542
 11
32.7057
 21
106.9542
 40
2.5075
 41
0.5
  1
E
  0
TEXT
  8
LAYER_1
 10
108.2929
 20
147.3827
 11
108.2929
 21
147.3827
 40
2.5075
 41
0.5
  1
W
  0
TEXT
  8
LAYER_1
 10
108.2929
 20
147.3827
 11
108.2929
 21
147.3827
 40
2.5075
 41
0.5
  1
W
  0
TEXT
  8
LAYER_1
 10
109.88
 20
147.3827
 11
109.88
 21
147.3827
 40
2.5075
 41
0.5
  1
 
  0
TEXT
  8
LAYER_1
 10
109.88
 20
147.3827
 11
109.88
 21
147.3827
 40
2.5075
 41
0.5
  1
 
  0
TEXT
  8
LAYER_1
 10
110.5363
 20
147.3827
 11
110.5363
 21
147.3827
 40
2.5075
 41
0.5
  1
1
  0
TEXT
  8
LAYER_1
 10
110.5363
 20
147.3827
 11
110.5363
 21
147.3827
 40
2.5075
 41
0.5
  1
1
  0
TEXT
  8
LAYER_1
 10
111.6157
 20
147.3827
 11
111.6157
 21
147.3827
 40
2.5075
 41
0.5
  1
2
  0
TEXT
  8
LAYER_1
 10
111.6157
 20
147.3827
 11
111.6157
 21
147.3827
 40
2.5075
 41
0.5
  1
2
  0
TEXT
  8
LAYER_1
 10
112.695
 20
147.3827
 11
112.695
 21
147.3827
 40
2.5075
 41
0.5
  1
0
  0
TEXT
  8
LAYER_1
 10
112.695
 20
147.3827
 11
112.695
 21
147.3827
 40
2.5075
 41
0.5
  1
0
  0
TEXT
  8
LAYER_1
 10
113.7743
 20
147.3827
 11
113.7743
 21
147.3827
 40
2.5075
 41
0.5
  1
0
  0
TEXT
  8
LAYER_1
 10
113.7743
 20
147.3827
 11
113.7743
 21
147.3827
 40
2.5075
 41
0.5
  1
0
  0
TEXT
  8
LAYER_1
 10
114.8537
 20
147.3827
 11
114.8537
 21
147.3827
 40
2.5075
 41
0.5
  1
(
  0
TEXT
  8
LAYER_1
 10
114.8537
 20
147.3827
 11
114.8537
 21
147.3827
 40
2.5075
 41
0.5
  1
(
  0
TEXT
  8
LAYER_1
 10
115.489
 20
147.3827
 11
115.489
 21
147.3827
 40
2.5075
 41
0.5
  1
R
  0
TEXT
  8
LAYER_1
 10
115.489
 20
147.3827
 11
115.489
 21
147.3827
 40
2.5075
 41
0.5
  1
R
  0
TEXT
  8
LAYER_1
 10
116.8222
 20
147.3827
 11
116.8222
 21
147.3827
 40
2.5075
 41
0.5
  1
)
  0
TEXT
  8
LAYER_1
 10
116.8222
 20
147.3827
 11
116.8222
 21
147.3827
 40
2.5075
 41
0.5
  1
)
  0
TEXT
  8
LAYER_1
 10
117.4782
 20
147.3827
 11
117.4782
 21
147.3827
 40
2.5075
 41
0.5
  1
 
  0
TEXT
  8
LAYER_1
 10
117.4782
 20
147.3827
 11
117.4782
 21
147.3827
 40
2.5075
 41
0.5
  1
 
  0
TEXT
  8
LAYER_1
 10
118.1345
 20
147.3827
 11
118.1345
 21
147.3827
 40
2.5075
 41
0.5
  1
T
  0
TEXT
  8
LAYER_1
 10
118.1345
 20
147.3827
 11
118.1345
 21
147.3827
 40
2.5075
 41
0.5
  1
T
  0
TEXT
  8
LAYER_1
 10
119.4043
 20
147.3827
 11
119.4043
 21
147.3827
 40
2.5075
 41
0.5
  1
Y
  0
TEXT
  8
LAYER_1
 10
119.4043
 20
147.3827
 11
119.4043
 21
147.3827
 40
2.5075
 41
0.5
  1
Y
  0
TEXT
  8
LAYER_1
 10
120.6745
 20
147.3827
 11
120.6745
 21
147.3827
 40
2.5075
 41
0.5
  1
P
  0
TEXT
  8
LAYER_1
 10
120.6745
 20
147.3827
 11
120.6745
 21
147.3827
 40
2.5075
 41
0.5
  1
P
  0
TEXT
  8
LAYER_1
 10
122.0078
 20
147.3827
 11
122.0078
 21
147.3827
 40
2.5075
 41
0.5
  1
E
  0
TEXT
  8
LAYER_1
 10
122.0078
 20
147.3827
 11
122.0078
 21
147.3827
 40
2.5075
 41
0.5
  1
E
  0
POLYLINE
  8
LAYER_1
 40
0.254
 41
0.254
 66
1
 10
0
 20
0
 30
0
 70
1
  0
VERTEX
  8
LAYER_1
 10
188.3449
 20
142.2389
  0
VERTEX
  8
LAYER_1
 10
128.3374
 20
142.2389
  0
VERTEX
  8
LAYER_1
 10
128.3374
 20
117.2411
  0
VERTEX
  8
LAYER_1
 10
188.3449
 20
117.2411
  0
SEQEND
  0
POLYLINE
  8
LAYER_1
 40
0.2081
 41
0.2081
 66
1
 10
0
 20
0
 30
0
  0
VERTEX
  8
LAYER_1
 10
129.3323
 20
142.2389
  0
VERTEX
  8
LAYER_1
 10
129.8614
 20
142.2389
  0
SEQEND
  0
POLYLINE
  8
LAYER_1
 40
0.2081
 41
0.2081
 66
1
 10
0
 20
0
 30
0
  0
VERTEX
  8
LAYER_1
 10
130.3906
 20
142.2389
  0
VERTEX
  8
LAYER_1
 10
130.9198
 20
142.2389
  0
SEQEND
  0
POLYLINE
  8
LAYER_1
 40
0.2081
 41
0.2081
 66
1
 10
0
 20
0
 30
0
  0
VERTEX
  8
LAYER_1
 10
131.4489
 20
142.2389
  0
VERTEX
  8
LAYER_1
 10
131.9781
 20
142.2389
  0
SEQEND
  0
POLYLINE
  8
LAYER_1
 40
0.2081
 41
0.2081
 66
1
 10
0
 20
0
 30
0
  0
VERTEX
  8
LAYER_1
 10
132.5073
 20
142.2389
  0
VERTEX
  8
LAYER_1
 10
133.0364
 20
142.2389
  0
SEQEND
  0
POLYLINE
  8
LAYER_1
 40
0.2081
 41
0.2081
 66
1
 10
0
 20
0
 30
0
  0
VERTEX
  8
LAYER_1
 10
133.5656
 20
142.2389
  0
VERTEX
  8
LAYER_1
 10
134.0948
 20
142.2389
  0
SEQEND
  0
POLYLINE
  8
LAYER_1
 40
0.2081
 41
0.2081
 66
1
 10
0
 20
0
 30
0
  0
VERTEX
  8
LAYER_1
 10
134.6239
 20
142.2389
  0
VERTEX
  8
LAYER_1
 10
135.1531
 20
142.2389
  0
SEQEND
  0
POLYLINE
  8
LAYER_1
 40
0.2081
 41
0.2081
 66
1
 10
0
 20
0
 30
0
  0
VERTEX
  8
LAYER_1
 10
135.6823
 20
142.2389
  0
VERTEX
  8
LAYER_1
 10
136.2114
 20
142.2389
  0
SEQEND
  0
POLYLINE
  8
LAYER_1
 40
0.2081
 41
0.2081
 66
1
 10
0
 20
0
 30
0
  0
VERTEX
  8
LAYER_1
 10
136.7406
 20
142.2389
  0
VERTEX
  8
LAYER_1
 10
137.2698
 20
142.2389
  0
SEQEND
  0
POLYLINE
  8
LAYER_1
 40
0.2081
 41
0.2081
 66
1
 10
0
 20
0
 30
0
  0
VERTEX
  8
LAYER_1
 10
137.7989
 20
142.2389
  0
VERTEX
  8
LAYER_1
 10
138.3281
 20
142.2389
  0
SEQEND
  0
POLYLINE
  8
LAYER_1
 40
0.2081
 41
0.2081
 66
1
 10
0
 20
0
 30
0
  0
VERTEX
  8
LAYER_1
 10
138.8573
 20
142.2389
  0
VERTEX
  8
LAYER_1
 10
139.3864
 20
142.2389
  0
SEQEND
  0
POLYLINE
  8
LAYER_1
 40
0.2081
 41
0.2081
 66
1
 10
0
 20
0
 30
0
  0
VERTEX
  8
LAYER_1
 10
139.9156
 20
142.2389
  0
VERTEX
  8
LAYER_1
 10
140.4448
 20
142.2389
  0
SEQEND
  0
POLYLINE
  8
LAYER_1
 40
0.2081
 41
0.2081
 66
1
 10
0
 20
0
 30
0
  0
VERTEX
  8
LAYER_1
 10
140.9739
 20
142.2389
  0
VERTEX
  8
LAYER_1
 10
141.5031
 20
142.2389
  0
SEQEND
  0
POLYLINE
  8
LAYER_1
 40
0.2081
 41
0.2081
 66
1
 10
0
 20
0
 30
0
  0
VERTEX
  8
LAYER_1
 10
142.0323
 20
142.2389
  0
VERTEX
  8
LAYER_1
 10
142.5614
 20
142.2389
  0
SEQEND
  0
POLYLINE
  8
LAYER_1
 40
0.2081
 41
0.2081
 66
1
 10
0
 20
0
 30
0
  0
VERTEX
  8
LAYER_1
 10
143.0906
 20
142.2389
  0
VERTEX
  8
LAYER_1
 10
143.6198
 20
142.2389
  0
SEQEND
  0
POLYLINE
  8
LAYER_1
 40
0.2081
 41
0.2081
 66
1
 10
0
 20
0
 30
0
  0
VERTEX
  8
LAYER_1
 10
144.1489
 20
142.2389
  0
VERTEX
  8
LAYER_1
 10
144.6781
 20
142.2389
  0
SEQEND
  0
POLYLINE
  8
LAYER_1
 40
0.2081
 41
0.2081
 66
1
 10
0
 20
0
 30
0
  0
VERTEX
  8
LAYER_1
 10
145.2073
 20
142.2389
  0
VERTEX
  8
LAYER_1
 10
145.7364
 20
142.2389
  0
SEQEND
  0
POLYLINE
  8
LAYER_1
 40
0.2081
 41
0.2081
 66
1
 10
0
 20
0
 30
0
  0
VERTEX
  8
LAYER_1
 10
146.2656
 20
142.2389
  0
VERTEX
  8
LAYER_1
 10
146.7948
 20
142.2389
  0
SEQEND
  0
POLYLINE
  8
LAYER_1
 40
0.2081
 41
0.2081
 66
1
 10
0
 20
0
 30
0
  0
VERTEX
  8
LAYER_1
 10
147.3239
 20
142.2389
  0
VERTEX
  8
LAYER_1
 10
147.8531
 20
142.2389
  0
SEQEND
  0
POLYLINE
  8
LAYER_1
 40
0.2081
 41
0.2081
 66
1
 10
0
 20
0
 30
0
  0
VERTEX
  8
LAYER_1
 10
148.3823
 20
142.2389
  0
VERTEX
  8
LAYER_1
 10
148.9114
 20
142.2389
  0
SEQEND
  0
POLYLINE
  8
LAYER_1
 40
0.2081
 41
0.2081
 66
1
 10
0
 20
0
 30
0
  0
VERTEX
  8
LAYER_1
 10
149.4406
 20
142.2389
  0
VERTEX
  8
LAYER_1
 10
149.9698
 20
142.2389
  0
SEQEND
  0
POLYLINE
  8
LAYER_1
 40
0.2081
 41
0.2081
 66
1
 10
0
 20
0
 30
0
  0
VERTEX
  8
LAYER_1
 10
150.4989
 20
142.2389
  0
VERTEX
  8
LAYER_1
 10
151.0281
 20
142.2389
  0
SEQEND
  0
POLYLINE
  8
LAYER_1
 40
0.2081
 41
0.2081
 66
1
 10
0
 20
0
 30
0
  0
VERTEX
  8
LAYER_1
 10
151.5573
 20
142.2389
  0
VERTEX
  8
LAYER_1
 10
152.0864
 20
142.2389
  0
SEQEND
  0
POLYLINE
  8
LAYER_1
 40
0.2081
 41
0.2081
 66
1
 10
0
 20
0
 30
0
  0
VERTEX
  8
LAYER_1
 10
152.6156
 20
142.2389
  0
VERTEX
  8
LAYER_1
 10
153.1448
 20
142.2389
  0
SEQEND
  0
POLYLINE
  8
LAYER_1
 40
0.2081
 41
0.2081
 66
1
 10
0
 20
0
 30
0
  0
VERTEX
  8
LAYER_1
 10
153.6739
 20
142.2389
  0
VERTEX
  8
LAYER_1
 10
154.2031
 20
142.2389
  0
SEQEND
  0
POLYLINE
  8
LAYER_1
 40
0.2081
 41
0.2081
 66
1
 10
0
 20
0
 30
0
  0
VERTEX
  8
LAYER_1
 10
154.7323
 20
142.2389
  0
VERTEX
  8
LAYER_1
 10
155.2614
 20
142.2389
  0
SEQEND
  0
POLYLINE
  8
LAYER_1
 40
0.2081
 41
0.2081
 66
1
 10
0
 20
0
 30
0
  0
VERTEX
  8
LAYER_1
 10
155.7906
 20
142.2389
  0
VERTEX
  8
LAYER_1
 10
156.3198
 20
142.2389
  0
SEQEND
  0
POLYLINE
  8
LAYER_1
 40
0.2081
 41
0.2081
 66
1
 10
0
 20
0
 30
0
  0
VERTEX
  8
LAYER_1
 10
156.8489
 20
142.2389
  0
VERTEX
  8
LAYER_1
 10
157.3781
 20
142.2389
  0
SEQEND
  0
POLYLINE
  8
LAYER_1
 40
0.2081
 41
0.2081
 66
1
 10
0
 20
0
 30
0
  0
VERTEX
  8
LAYER_1
 10
157.9073
 20
142.2389
  0
VERTEX
  8
LAYER_1
 10
158.4364
 20
142.2389
  0
SEQEND
  0
POLYLINE
  8
LAYER_1
 40
0.2081
 41
0.2081
 66
1
 10
0
 20
0
 30
0
  0
VERTEX
  8
LAYER_1
 10
158.9656
 20
142.2389
  0
VERTEX
  8
LAYER_1
 10
159.4948
 20
142.2389
  0
SEQEND
  0
POLYLINE
  8
LAYER_1
 40
0.2081
 41
0.2081
 66
1
 10
0
 20
0
 30
0
  0
VERTEX
  8
LAYER_1
 10
160.0239
 20
142.2389
  0
VERTEX
  8
LAYER_1
 10
160.5531
 20
142.2389
  0
SEQEND
  0
POLYLINE
  8
LAYER_1
 40
0.2081
 41
0.2081
 66
1
 10
0
 20
0
 30
0
  0
VERTEX
  8
LAYER_1
 10
161.0823
 20
142.2389
  0
VERTEX
  8
LAYER_1
 10
161.6114
 20
142.2389
  0
SEQEND
  0
POLYLINE
  8
LAYER_1
 40
0.2081
 41
0.2081
 66
1
 10
0
 20
0
 30
0
  0
VERTEX
  8
LAYER_1
 10
162.1406
 20
142.2389
  0
VERTEX
  8
LAYER_1
 10
162.6698
 20
142.2389
  0
SEQEND
  0
POLYLINE
  8
LAYER_1
 40
0.2081
 41
0.2081
 66
1
 10
0
 20
0
 30
0
  0
VERTEX
  8
LAYER_1
 10
163.1989
 20
142.2389
  0
VERTEX
  8
LAYER_1
 10
163.7281
 20
142.2389
  0
SEQEND
  0
POLYLINE
  8
LAYER_1
 40
0.2081
 41
0.2081
 66
1
 10
0
 20
0
 30
0
  0
VERTEX
  8
LAYER_1
 10
164.2573
 20
142.2389
  0
VERTEX
  8
LAYER_1
 10
164.7864
 20
142.2389
  0
SEQEND
  0
POLYLINE
  8
LAYER_1
 40
0.2081
 41
0.2081
 66
1
 10
0
 20
0
 30
0
  0
VERTEX
  8
LAYER_1
 10
165.3156
 20
142.2389
  0
VERTEX
  8
LAYER_1
 10
165.8448
 20
142.2389
  0
SEQEND
  0
POLYLINE
  8
LAYER_1
 40
0.2081
 41
0.2081
 66
1
 10
0
 20
0
 30
0
  0
VERTEX
  8
LAYER_1
 10
166.3739
 20
142.2389
  0
VERTEX
  8
LAYER_1
 10
166.9031
 20
142.2389
  0
SEQEND
  0
POLYLINE
  8
LAYER_1
 40
0.2081
 41
0.2081
 66
1
 10
0
 20
0
 30
0
  0
VERTEX
  8
LAYER_1
 10
167.4323
 20
142.2389
  0
VERTEX
  8
LAYER_1
 10
167.9614
 20
142.2389
  0
SEQEND
  0
POLYLINE
  8
LAYER_1
 40
0.2081
 41
0.2081
 66
1
 10
0
 20
0
 30
0
  0
VERTEX
  8
LAYER_1
 10
168.4906
 20
142.2389
  0
VERTEX
  8
LAYER_1
 10
169.0198
 20
142.2389
  0
SEQEND
  0
POLYLINE
  8
LAYER_1
 40
0.2081
 41
0.2081
 66
1
 10
0
 20
0
 30
0
  0
VERTEX
  8
LAYER_1
 10
169.5489
 20
142.2389
  0
VERTEX
  8
LAYER_1
 10
170.0781
 20
142.2389
  0
SEQEND
  0
POLYLINE
  8
LAYER_1
 40
0.2081
 41
0.2081
 66
1
 10
0
 20
0
 30
0
  0
VERTEX
  8
LAYER_1
 10
170.6073
 20
142.2389
  0
VERTEX
  8
LAYER_1
 10
171.1364
 20
142.2389
  0
SEQEND
  0
POLYLINE
  8
LAYER_1
 40
0.2081
 41
0.2081
 66
1
 10
0
 20
0
 30
0
  0
VERTEX
  8
LAYER_1
 10
171.6656
 20
142.2389
  0
VERTEX
  8
LAYER_1
 10
172.1948
 20
142.2389
  0
SEQEND
  0
POLYLINE
  8
LAYER_1
 40
0.2081
 41
0.2081
 66
1
 10
0
 20
0
 30
0
  0
VERTEX
  8
LAYER_1
 10
172.7239
 20
142.2389
  0
VERTEX
  8
LAYER_1
 10
173.2531
 20
142.2389
  0
SEQEND
  0
POLYLINE
  8
LAYER_1
 40
0.2081
 41
0.2081
 66
1
 10
0
 20
0
 30
0
  0
VERTEX
  8
LAYER_1
 10
173.7823
 20
142.2389
  0
VERTEX
  8
LAYER_1
 10
174.3114
 20
142.2389
  0
SEQEND
  0
POLYLINE
  8
LAYER_1
 40
0.2081
 41
0.2081
 66
1
 10
0
 20
0
 30
0
  0
VERTEX
  8
LAYER_1
 10
174.8406
 20
142.2389
  0
VERTEX
  8
LAYER_1
 10
175.3698
 20
142.2389
  0
SEQEND
  0
POLYLINE
  8
LAYER_1
 40
0.2081
 41
0.2081
 66
1
 10
0
 20
0
 30
0
  0
VERTEX
  8
LAYER_1
 10
175.8989
 20
142.2389
  0
VERTEX
  8
LAYER_1
 10
176.4281
 20
142.2389
  0
SEQEND
  0
POLYLINE
  8
LAYER_1
 40
0.2081
 41
0.2081
 66
1
 10
0
 20
0
 30
0
  0
VERTEX
  8
LAYER_1
 10
176.9573
 20
142.2389
  0
VERTEX
  8
LAYER_1
 10
177.4864
 20
142.2389
  0
SEQEND
  0
POLYLINE
  8
LAYER_1
 40
0.2081
 41
0.2081
 66
1
 10
0
 20
0
 30
0
  0
VERTEX
  8
LAYER_1
 10
178.0156
 20
142.2389
  0
VERTEX
  8
LAYER_1
 10
178.5448
 20
142.2389
  0
SEQEND
  0
POLYLINE
  8
LAYER_1
 40
0.2081
 41
0.2081
 66
1
 10
0
 20
0
 30
0
  0
VERTEX
  8
LAYER_1
 10
179.0739
 20
142.2389
  0
VERTEX
  8
LAYER_1
 10
179.6031
 20
142.2389
  0
SEQEND
  0
POLYLINE
  8
LAYER_1
 40
0.2081
 41
0.2081
 66
1
 10
0
 20
0
 30
0
  0
VERTEX
  8
LAYER_1
 10
180.1323
 20
142.2389
  0
VERTEX
  8
LAYER_1
 10
180.6614
 20
142.2389
  0
SEQEND
  0
POLYLINE
  8
LAYER_1
 40
0.2081
 41
0.2081
 66
1
 10
0
 20
0
 30
0
  0
VERTEX
  8
LAYER_1
 10
181.1906
 20
142.2389
  0
VERTEX
  8
LAYER_1
 10
181.7198
 20
142.2389
  0
SEQEND
  0
POLYLINE
  8
LAYER_1
 40
0.2081
 41
0.2081
 66
1
 10
0
 20
0
 30
0
  0
VERTEX
  8
LAYER_1
 10
182.2489
 20
142.2389
  0
VERTEX
  8
LAYER_1
 10
182.7781
 20
142.2389
  0
SEQEND
  0
POLYLINE
  8
LAYER_1
 40
0.2081
 41
0.2081
 66
1
 10
0
 20
0
 30
0
  0
VERTEX
  8
LAYER_1
 10
183.3073
 20
142.2389
  0
VERTEX
  8
LAYER_1
 10
183.8364
 20
142.2389
  0
SEQEND
  0
POLYLINE
  8
LAYER_1
 40
0.2081
 41
0.2081
 66
1
 10
0
 20
0
 30
0
  0
VERTEX
  8
LAYER_1
 10
184.3656
 20
142.2389
  0
VERTEX
  8
LAYER_1
 10
184.8948
 20
142.2389
  0
SEQEND
  0
POLYLINE
  8
LAYER_1
 40
0.2081
 41
0.2081
 66
1
 10
0
 20
0
 30
0
  0
VERTEX
  8
LAYER_1
 10
185.4239
 20
142.2389
  0
VERTEX
  8
LAYER_1
 10
185.9531
 20
142.2389
  0
SEQEND
  0
POLYLINE
  8
LAYER_1
 40
0.2081
 41
0.2081
 66
1
 10
0
 20
0
 30
0
  0
VERTEX
  8
LAYER_1
 10
186.4823
 20
142.2389
  0
VERTEX
  8
LAYER_1
 10
187.0114
 20
142.2389
  0
SEQEND
  0
POLYLINE
  8
LAYER_1
 40
0.2081
 41
0.2081
 66
1
 10
0
 20
0
 30
0
  0
VERTEX
  8
LAYER_1
 10
187.3289
 20
142.0272
  0
VERTEX
  8
LAYER_1
 10
187.3289
 20
141.4981
  0
SEQEND
  0
POLYLINE
  8
LAYER_1
 40
0.2081
 41
0.2081
 66
1
 10
0
 20
0
 30
0
  0
VERTEX
  8
LAYER_1
 10
187.3289
 20
140.9689
  0
VERTEX
  8
LAYER_1
 10
187.3289
 20
140.4397
  0
SEQEND
  0
POLYLINE
  8
LAYER_1
 40
0.2081
 41
0.2081
 66
1
 10
0
 20
0
 30
0
  0
VERTEX
  8
LAYER_1
 10
187.3289
 20
139.9106
  0
VERTEX
  8
LAYER_1
 10
187.3289
 20
139.3814
  0
SEQEND
  0
POLYLINE
  8
LAYER_1
 40
0.2081
 41
0.2081
 66
1
 10
0
 20
0
 30
0
  0
VERTEX
  8
LAYER_1
 10
187.3289
 20
138.8522
  0
VERTEX
  8
LAYER_1
 10
187.3289
 20
138.3231
  0
SEQEND
  0
POLYLINE
  8
LAYER_1
 40
0.2081
 41
0.2081
 66
1
 10
0
 20
0
 30
0
  0
VERTEX
  8
LAYER_1
 10
187.3289
 20
137.7939
  0
VERTEX
  8
LAYER_1
 10
187.3289
 20
137.2647
  0
SEQEND
  0
POLYLINE
  8
LAYER_1
 40
0.2081
 41
0.2081
 66
1
 10
0
 20
0
 30
0
  0
VERTEX
  8
LAYER_1
 10
187.3289
 20
136.7356
  0
VERTEX
  8
LAYER_1
 10
187.3289
 20
136.2064
  0
SEQEND
  0
POLYLINE
  8
LAYER_1
 40
0.2081
 41
0.2081
 66
1
 10
0
 20
0
 30
0
  0
VERTEX
  8
LAYER_1
 10
187.3289
 20
135.6772
  0
VERTEX
  8
LAYER_1
 10
187.3289
 20
135.1481
  0
SEQEND
  0
POLYLINE
  8
LAYER_1
 40
0.2081
 41
0.2081
 66
1
 10
0
 20
0
 30
0
  0
VERTEX
  8
LAYER_1
 10
187.3289
 20
134.6189
  0
VERTEX
  8
LAYER_1
 10
187.3289
 20
134.0897
  0
SEQEND
  0
POLYLINE
  8
LAYER_1
 40
0.2081
 41
0.2081
 66
1
 10
0
 20
0
 30
0
  0
VERTEX
  8
LAYER_1
 10
187.3289
 20
133.5606
  0
VERTEX
  8
LAYER_1
 10
187.3289
 20
133.0314
  0
SEQEND
  0
POLYLINE
  8
LAYER_1
 40
0.2081
 41
0.2081
 66
1
 10
0
 20
0
 30
0
  0
VERTEX
  8
LAYER_1
 10
187.3289
 20
132.5022
  0
VERTEX
  8
LAYER_1
 10
187.3289
 20
131.9731
  0
SEQEND
  0
POLYLINE
  8
LAYER_1
 40
0.2081
 41
0.2081
 66
1
 10
0
 20
0
 30
0
  0
VERTEX
  8
LAYER_1
 10
187.3289
 20
131.4439
  0
VERTEX
  8
LAYER_1
 10
187.3289
 20
130.9147
  0
SEQEND
  0
POLYLINE
  8
LAYER_1
 40
0.2081
 41
0.2081
 66
1
 10
0
 20
0
 30
0
  0
VERTEX
  8
LAYER_1
 10
187.3289
 20
130.3856
  0
VERTEX
  8
LAYER_1
 10
187.3289
 20
129.8564
  0
SEQEND
  0
POLYLINE
  8
LAYER_1
 40
0.2081
 41
0.2081
 66
1
 10
0
 20
0
 30
0
  0
VERTEX
  8
LAYER_1
 10
187.3289
 20
129.3272
  0
VERTEX
  8
LAYER_1
 10
187.3289
 20
128.7981
  0
SEQEND
  0
POLYLINE
  8
LAYER_1
 40
0.2081
 41
0.2081
 66
1
 10
0
 20
0
 30
0
  0
VERTEX
  8
LAYER_1
 10
187.3289
 20
128.2689
  0
VERTEX
  8
LAYER_1
 10
187.3289
 20
127.7397
  0
SEQEND
  0
POLYLINE
  8
LAYER_1
 40
0.2081
 41
0.2081
 66
1
 10
0
 20
0
 30
0
  0
VERTEX
  8
LAYER_1
 10
187.3289
 20
127.2106
  0
VERTEX
  8
LAYER_1
 10
187.3289
 20
126.6814
  0
SEQEND
  0
POLYLINE
  8
LAYER_1
 40
0.2081
 41
0.2081
 66
1
 10
0
 20
0
 30
0
  0
VERTEX
  8
LAYER_1
 10
187.3289
 20
126.1522
  0
VERTEX
  8
LAYER_1
 10
187.3289
 20
125.6231
  0
SEQEND
  0
POLYLINE
  8
LAYER_1
 40
0.2081
 41
0.2081
 66
1
 10
0
 20
0
 30
0
  0
VERTEX
  8
LAYER_1
 10
187.3289
 20
125.0939
  0
VERTEX
  8
LAYER_1
 10
187.3289
 20
124.5647
  0
SEQEND
  0
POLYLINE
  8
LAYER_1
 40
0.2081
 41
0.2081
 66
1
 10
0
 20
0
 30
0
  0
VERTEX
  8
LAYER_1
 10
187.3289
 20
124.0356
  0
VERTEX
  8
LAYER_1
 10
187.3289
 20
123.5064
  0
SEQEND
  0
POLYLINE
  8
LAYER_1
 40
0.2081
 41
0.2081
 66
1
 10
0
 20
0
 30
0
  0
VERTEX
  8
LAYER_1
 10
187.3289
 20
122.9772
  0
VERTEX
  8
LAYER_1
 10
187.3289
 20
122.4481
  0
SEQEND
  0
POLYLINE
  8
LAYER_1
 40
0.2081
 41
0.2081
 66
1
 10
0
 20
0
 30
0
  0
VERTEX
  8
LAYER_1
 10
187.3289
 20
121.9189
  0
VERTEX
  8
LAYER_1
 10
187.3289
 20
121.3897
  0
SEQEND
  0
POLYLINE
  8
LAYER_1
 40
0.2081
 41
0.2081
 66
1
 10
0
 20
0
 30
0
  0
VERTEX
  8
LAYER_1
 10
187.3289
 20
120.8606
  0
VERTEX
  8
LAYER_1
 10
187.3289
 20
120.3314
  0
SEQEND
  0
POLYLINE
  8
LAYER_1
 40
0.2081
 41
0.2081
 66
1
 10
0
 20
0
 30
0
  0
VERTEX
  8
LAYER_1
 10
187.3289
 20
119.8022
  0
VERTEX
  8
LAYER_1
 10
187.3289
 20
119.2731
  0
SEQEND
  0
POLYLINE
  8
LAYER_1
 40
0.2081
 41
0.2081
 66
1
 10
0
 20
0
 30
0
  0
VERTEX
  8
LAYER_1
 10
187.3289
 20
118.7439
  0
VERTEX
  8
LAYER_1
 10
187.3289
 20
118.5957
  0
SEQEND
  0
POLYLINE
  8
LAYER_1
 40
0.2081
 41
0.2081
 66
1
 10
0
 20
0
 30
0
  0
VERTEX
  8
LAYER_1
 10
187.3289
 20
118.5957
  0
VERTEX
  8
LAYER_1
 10
186.948
 20
118.5957
  0
SEQEND
  0
POLYLINE
  8
LAYER_1
 40
0.2081
 41
0.2081
 66
1
 10
0
 20
0
 30
0
  0
VERTEX
  8
LAYER_1
 10
186.4188
 20
118.5957
  0
VERTEX
  8
LAYER_1
 10
185.8896
 20
118.5957
  0
SEQEND
  0
POLYLINE
  8
LAYER_1
 40
0.2081
 41
0.2081
 66
1
 10
0
 20
0
 30
0
  0
VERTEX
  8
LAYER_1
 10
185.3605
 20
118.5957
  0
VERTEX
  8
LAYER_1
 10
184.8313
 20
118.5957
  0
SEQEND
  0
POLYLINE
  8
LAYER_1
 40
0.2081
 41
0.2081
 66
1
 10
0
 20
0
 30
0
  0
VERTEX
  8
LAYER_1
 10
184.3021
 20
118.5957
  0
VERTEX
  8
LAYER_1
 10
183.773
 20
118.5957
  0
SEQEND
  0
POLYLINE
  8
LAYER_1
 40
0.2081
 41
0.2081
 66
1
 10
0
 20
0
 30
0
  0
VERTEX
  8
LAYER_1
 10
183.2438
 20
118.5957
  0
VERTEX
  8
LAYER_1
 10
182.7146
 20
118.5957
  0
SEQEND
  0
POLYLINE
  8
LAYER_1
 40
0.2081
 41
0.2081
 66
1
 10
0
 20
0
 30
0
  0
VERTEX
  8
LAYER_1
 10
182.1855
 20
118.5957
  0
VERTEX
  8
LAYER_1
 10
181.6563
 20
118.5957
  0
SEQEND
  0
POLYLINE
  8
LAYER_1
 40
0.2081
 41
0.2081
 66
1
 10
0
 20
0
 30
0
  0
VERTEX
  8
LAYER_1
 10
181.1271
 20
118.5957
  0
VERTEX
  8
LAYER_1
 10
180.598
 20
118.5957
  0
SEQEND
  0
POLYLINE
  8
LAYER_1
 40
0.2081
 41
0.2081
 66
1
 10
0
 20
0
 30
0
  0
VERTEX
  8
LAYER_1
 10
180.0688
 20
118.5957
  0
VERTEX
  8
LAYER_1
 10
179.5396
 20
118.5957
  0
SEQEND
  0
POLYLINE
  8
LAYER_1
 40
0.2081
 41
0.2081
 66
1
 10
0
 20
0
 30
0
  0
VERTEX
  8
LAYER_1
 10
179.0105
 20
118.5957
  0
VERTEX
  8
LAYER_1
 10
178.4813
 20
118.5957
  0
SEQEND
  0
POLYLINE
  8
LAYER_1
 40
0.2081
 41
0.2081
 66
1
 10
0
 20
0
 30
0
  0
VERTEX
  8
LAYER_1
 10
177.9521
 20
118.5957
  0
VERTEX
  8
LAYER_1
 10
177.423
 20
118.5957
  0
SEQEND
  0
POLYLINE
  8
LAYER_1
 40
0.2081
 41
0.2081
 66
1
 10
0
 20
0
 30
0
  0
VERTEX
  8
LAYER_1
 10
176.8938
 20
118.5957
  0
VERTEX
  8
LAYER_1
 10
176.3646
 20
118.5957
  0
SEQEND
  0
POLYLINE
  8
LAYER_1
 40
0.2081
 41
0.2081
 66
1
 10
0
 20
0
 30
0
  0
VERTEX
  8
LAYER_1
 10
175.8355
 20
118.5957
  0
VERTEX
  8
LAYER_1
 10
175.3063
 20
118.5957
  0
SEQEND
  0
POLYLINE
  8
LAYER_1
 40
0.2081
 41
0.2081
 66
1
 10
0
 20
0
 30
0
  0
VERTEX
  8
LAYER_1
 10
174.7771
 20
118.5957
  0
VERTEX
  8
LAYER_1
 10
174.248
 20
118.5957
  0
SEQEND
  0
POLYLINE
  8
LAYER_1
 40
0.2081
 41
0.2081
 66
1
 10
0
 20
0
 30
0
  0
VERTEX
  8
LAYER_1
 10
173.7188
 20
118.5957
  0
VERTEX
  8
LAYER_1
 10
173.1896
 20
118.5957
  0
SEQEND
  0
POLYLINE
  8
LAYER_1
 40
0.2081
 41
0.2081
 66
1
 10
0
 20
0
 30
0
  0
VERTEX
  8
LAYER_1
 10
172.6605
 20
118.5957
  0
VERTEX
  8
LAYER_1
 10
172.1313
 20
118.5957
  0
SEQEND
  0
POLYLINE
  8
LAYER_1
 40
0.2081
 41
0.2081
 66
1
 10
0
 20
0
 30
0
  0
VERTEX
  8
LAYER_1
 10
171.6021
 20
118.5957
  0
VERTEX
  8
LAYER_1
 10
171.073
 20
118.5957
  0
SEQEND
  0
POLYLINE
  8
LAYER_1
 40
0.2081
 41
0.2081
 66
1
 10
0
 20
0
 30
0
  0
VERTEX
  8
LAYER_1
 10
170.5438
 20
118.5957
  0
VERTEX
  8
LAYER_1
 10
170.0146
 20
118.5957
  0
SEQEND
  0
POLYLINE
  8
LAYER_1
 40
0.2081
 41
0.2081
 66
1
 10
0
 20
0
 30
0
  0
VERTEX
  8
LAYER_1
 10
169.4855
 20
118.5957
  0
VERTEX
  8
LAYER_1
 10
168.9563
 20
118.5957
  0
SEQEND
  0
POLYLINE
  8
LAYER_1
 40
0.2081
 41
0.2081
 66
1
 10
0
 20
0
 30
0
  0
VERTEX
  8
LAYER_1
 10
168.4271
 20
118.5957
  0
VERTEX
  8
LAYER_1
 10
167.898
 20
118.5957
  0
SEQEND
  0
POLYLINE
  8
LAYER_1
 40
0.2081
 41
0.2081
 66
1
 10
0
 20
0
 30
0
  0
VERTEX
  8
LAYER_1
 10
167.3688
 20
118.5957
  0
VERTEX
  8
LAYER_1
 10
166.8396
 20
118.5957
  0
SEQEND
  0
POLYLINE
  8
LAYER_1
 40
0.2081
 41
0.2081
 66
1
 10
0
 20
0
 30
0
  0
VERTEX
  8
LAYER_1
 10
166.3105
 20
118.5957
  0
VERTEX
  8
LAYER_1
 10
165.7813
 20
118.5957
  0
SEQEND
  0
POLYLINE
  8
LAYER_1
 40
0.2081
 41
0.2081
 66
1
 10
0
 20
0
 30
0
  0
VERTEX
  8
LAYER_1
 10
165.2521
 20
118.5957
  0
VERTEX
  8
LAYER_1
 10
164.723
 20
118.5957
  0
SEQEND
  0
POLYLINE
  8
LAYER_1
 40
0.2081
 41
0.2081
 66
1
 10
0
 20
0
 30
0
  0
VERTEX
  8
LAYER_1
 10
164.1938
 20
118.5957
  0
VERTEX
  8
LAYER_1
 10
163.6646
 20
118.5957
  0
SEQEND
  0
POLYLINE
  8
LAYER_1
 40
0.2081
 41
0.2081
 66
1
 10
0
 20
0
 30
0
  0
VERTEX
  8
LAYER_1
 10
163.1355
 20
118.5957
  0
VERTEX
  8
LAYER_1
 10
162.6063
 20
118.5957
  0
SEQEND
  0
POLYLINE
  8
LAYER_1
 40
0.2081
 41
0.2081
 66
1
 10
0
 20
0
 30
0
  0
VERTEX
  8
LAYER_1
 10
162.0771
 20
118.5957
  0
VERTEX
  8
LAYER_1
 10
161.548
 20
118.5957
  0
SEQEND
  0
POLYLINE
  8
LAYER_1
 40
0.2081
 41
0.2081
 66
1
 10
0
 20
0
 30
0
  0
VERTEX
  8
LAYER_1
 10
161.0188
 20
118.5957
  0
VERTEX
  8
LAYER_1
 10
160.4896
 20
118.5957
  0
SEQEND
  0
POLYLINE
  8
LAYER_1
 40
0.2081
 41
0.2081
 66
1
 10
0
 20
0
 30
0
  0
VERTEX
  8
LAYER_1
 10
159.9605
 20
118.5957
  0
VERTEX
  8
LAYER_1
 10
159.4313
 20
118.5957
  0
SEQEND
  0
POLYLINE
  8
LAYER_1
 40
0.2081
 41
0.2081
 66
1
 10
0
 20
0
 30
0
  0
VERTEX
  8
LAYER_1
 10
158.9021
 20
118.5957
  0
VERTEX
  8
LAYER_1
 10
158.373
 20
118.5957
  0
SEQEND
  0
POLYLINE
  8
LAYER_1
 40
0.2081
 41
0.2081
 66
1
 10
0
 20
0
 30
0
  0
VERTEX
  8
LAYER_1
 10
157.8438
 20
118.5957
  0
VERTEX
  8
LAYER_1
 10
157.3146
 20
118.5957
  0
SEQEND
  0
POLYLINE
  8
LAYER_1
 40
0.2081
 41
0.2081
 66
1
 10
0
 20
0
 30
0
  0
VERTEX
  8
LAYER_1
 10
156.7855
 20
118.5957
  0
VERTEX
  8
LAYER_1
 10
156.2563
 20
118.5957
  0
SEQEND
  0
POLYLINE
  8
LAYER_1
 40
0.2081
 41
0.2081
 66
1
 10
0
 20
0
 30
0
  0
VERTEX
  8
LAYER_1
 10
155.7271
 20
118.5957
  0
VERTEX
  8
LAYER_1
 10
155.198
 20
118.5957
  0
SEQEND
  0
POLYLINE
  8
LAYER_1
 40
0.2081
 41
0.2081
 66
1
 10
0
 20
0
 30
0
  0
VERTEX
  8
LAYER_1
 10
154.6688
 20
118.5957
  0
VERTEX
  8
LAYER_1
 10
154.1396
 20
118.5957
  0
SEQEND
  0
POLYLINE
  8
LAYER_1
 40
0.2081
 41
0.2081
 66
1
 10
0
 20
0
 30
0
  0
VERTEX
  8
LAYER_1
 10
153.6105
 20
118.5957
  0
VERTEX
  8
LAYER_1
 10
153.0813
 20
118.5957
  0
SEQEND
  0
POLYLINE
  8
LAYER_1
 40
0.2081
 41
0.2081
 66
1
 10
0
 20
0
 30
0
  0
VERTEX
  8
LAYER_1
 10
152.5521
 20
118.5957
  0
VERTEX
  8
LAYER_1
 10
152.023
 20
118.5957
  0
SEQEND
  0
POLYLINE
  8
LAYER_1
 40
0.2081
 41
0.2081
 66
1
 10
0
 20
0
 30
0
  0
VERTEX
  8
LAYER_1
 10
151.4938
 20
118.5957
  0
VERTEX
  8
LAYER_1
 10
150.9646
 20
118.5957
  0
SEQEND
  0
POLYLINE
  8
LAYER_1
 40
0.2081
 41
0.2081
 66
1
 10
0
 20
0
 30
0
  0
VERTEX
  8
LAYER_1
 10
150.4355
 20
118.5957
  0
VERTEX
  8
LAYER_1
 10
149.9063
 20
118.5957
  0
SEQEND
  0
POLYLINE
  8
LAYER_1
 40
0.2081
 41
0.2081
 66
1
 10
0
 20
0
 30
0
  0
VERTEX
  8
LAYER_1
 10
149.3771
 20
118.5957
  0
VERTEX
  8
LAYER_1
 10
148.848
 20
118.5957
  0
SEQEND
  0
POLYLINE
  8
LAYER_1
 40
0.2081
 41
0.2081
 66
1
 10
0
 20
0
 30
0
  0
VERTEX
  8
LAYER_1
 10
148.3188
 20
118.5957
  0
VERTEX
  8
LAYER_1
 10
147.7896
 20
118.5957
  0
SEQEND
  0
POLYLINE
  8
LAYER_1
 40
0.2081
 41
0.2081
 66
1
 10
0
 20
0
 30
0
  0
VERTEX
  8
LAYER_1
 10
147.2605
 20
118.5957
  0
VERTEX
  8
LAYER_1
 10
146.7313
 20
118.5957
  0
SEQEND
  0
POLYLINE
  8
LAYER_1
 40
0.2081
 41
0.2081
 66
1
 10
0
 20
0
 30
0
  0
VERTEX
  8
LAYER_1
 10
146.2021
 20
118.5957
  0
VERTEX
  8
LAYER_1
 10
145.673
 20
118.5957
  0
SEQEND
  0
POLYLINE
  8
LAYER_1
 40
0.2081
 41
0.2081
 66
1
 10
0
 20
0
 30
0
  0
VERTEX
  8
LAYER_1
 10
145.1438
 20
118.5957
  0
VERTEX
  8
LAYER_1
 10
144.6146
 20
118.5957
  0
SEQEND
  0
POLYLINE
  8
LAYER_1
 40
0.2081
 41
0.2081
 66
1
 10
0
 20
0
 30
0
  0
VERTEX
  8
LAYER_1
 10
144.0855
 20
118.5957
  0
VERTEX
  8
LAYER_1
 10
143.5563
 20
118.5957
  0
SEQEND
  0
POLYLINE
  8
LAYER_1
 40
0.2081
 41
0.2081
 66
1
 10
0
 20
0
 30
0
  0
VERTEX
  8
LAYER_1
 10
143.0271
 20
118.5957
  0
VERTEX
  8
LAYER_1
 10
142.498
 20
118.5957
  0
SEQEND
  0
POLYLINE
  8
LAYER_1
 40
0.2081
 41
0.2081
 66
1
 10
0
 20
0
 30
0
  0
VERTEX
  8
LAYER_1
 10
141.9688
 20
118.5957
  0
VERTEX
  8
LAYER_1
 10
141.4396
 20
118.5957
  0
SEQEND
  0
POLYLINE
  8
LAYER_1
 40
0.2081
 41
0.2081
 66
1
 10
0
 20
0
 30
0
  0
VERTEX
  8
LAYER_1
 10
140.9105
 20
118.5957
  0
VERTEX
  8
LAYER_1
 10
140.3813
 20
118.5957
  0
SEQEND
  0
POLYLINE
  8
LAYER_1
 40
0.2081
 41
0.2081
 66
1
 10
0
 20
0
 30
0
  0
VERTEX
  8
LAYER_1
 10
139.8521
 20
118.5957
  0
VERTEX
  8
LAYER_1
 10
139.323
 20
118.5957
  0
SEQEND
  0
POLYLINE
  8
LAYER_1
 40
0.2081
 41
0.2081
 66
1
 10
0
 20
0
 30
0
  0
VERTEX
  8
LAYER_1
 10
138.7938
 20
118.5957
  0
VERTEX
  8
LAYER_1
 10
138.2646
 20
118.5957
  0
SEQEND
  0
POLYLINE
  8
LAYER_1
 40
0.2081
 41
0.2081
 66
1
 10
0
 20
0
 30
0
  0
VERTEX
  8
LAYER_1
 10
137.7355
 20
118.5957
  0
VERTEX
  8
LAYER_1
 10
137.2063
 20
118.5957
  0
SEQEND
  0
POLYLINE
  8
LAYER_1
 40
0.2081
 41
0.2081
 66
1
 10
0
 20
0
 30
0
  0
VERTEX
  8
LAYER_1
 10
136.6771
 20
118.5957
  0
VERTEX
  8
LAYER_1
 10
136.148
 20
118.5957
  0
SEQEND
  0
POLYLINE
  8
LAYER_1
 40
0.2081
 41
0.2081
 66
1
 10
0
 20
0
 30
0
  0
VERTEX
  8
LAYER_1
 10
135.6188
 20
118.5957
  0
VERTEX
  8
LAYER_1
 10
135.0896
 20
118.5957
  0
SEQEND
  0
POLYLINE
  8
LAYER_1
 40
0.2081
 41
0.2081
 66
1
 10
0
 20
0
 30
0
  0
VERTEX
  8
LAYER_1
 10
134.5605
 20
118.5957
  0
VERTEX
  8
LAYER_1
 10
134.0313
 20
118.5957
  0
SEQEND
  0
POLYLINE
  8
LAYER_1
 40
0.2081
 41
0.2081
 66
1
 10
0
 20
0
 30
0
  0
VERTEX
  8
LAYER_1
 10
133.5021
 20
118.5957
  0
VERTEX
  8
LAYER_1
 10
132.973
 20
118.5957
  0
SEQEND
  0
POLYLINE
  8
LAYER_1
 40
0.2081
 41
0.2081
 66
1
 10
0
 20
0
 30
0
  0
VERTEX
  8
LAYER_1
 10
132.4438
 20
118.5957
  0
VERTEX
  8
LAYER_1
 10
131.9146
 20
118.5957
  0
SEQEND
  0
POLYLINE
  8
LAYER_1
 40
0.2081
 41
0.2081
 66
1
 10
0
 20
0
 30
0
  0
VERTEX
  8
LAYER_1
 10
131.3855
 20
118.5957
  0
VERTEX
  8
LAYER_1
 10
130.8563
 20
118.5957
  0
SEQEND
  0
POLYLINE
  8
LAYER_1
 40
0.2081
 41
0.2081
 66
1
 10
0
 20
0
 30
0
  0
VERTEX
  8
LAYER_1
 10
130.3271
 20
118.5957
  0
VERTEX
  8
LAYER_1
 10
129.798
 20
118.5957
  0
SEQEND
  0
POLYLINE
  8
LAYER_1
 40
0.2081
 41
0.2081
 66
1
 10
0
 20
0
 30
0
  0
VERTEX
  8
LAYER_1
 10
129.3323
 20
118.6592
  0
VERTEX
  8
LAYER_1
 10
129.3323
 20
119.1884
  0
SEQEND
  0
POLYLINE
  8
LAYER_1
 40
0.2081
 41
0.2081
 66
1
 10
0
 20
0
 30
0
  0
VERTEX
  8
LAYER_1
 10
129.3323
 20
119.7176
  0
VERTEX
  8
LAYER_1
 10
129.3323
 20
120.2467
  0
SEQEND
  0
POLYLINE
  8
LAYER_1
 40
0.2081
 41
0.2081
 66
1
 10
0
 20
0
 30
0
  0
VERTEX
  8
LAYER_1
 10
129.3323
 20
120.7759
  0
VERTEX
  8
LAYER_1
 10
129.3323
 20
121.3051
  0
SEQEND
  0
POLYLINE
  8
LAYER_1
 40
0.2081
 41
0.2081
 66
1
 10
0
 20
0
 30
0
  0
VERTEX
  8
LAYER_1
 10
129.3323
 20
121.8342
  0
VERTEX
  8
LAYER_1
 10
129.3323
 20
122.3634
  0
SEQEND
  0
POLYLINE
  8
LAYER_1
 40
0.2081
 41
0.2081
 66
1
 10
0
 20
0
 30
0
  0
VERTEX
  8
LAYER_1
 10
129.3323
 20
122.8926
  0
VERTEX
  8
LAYER_1
 10
129.3323
 20
123.4217
  0
SEQEND
  0
POLYLINE
  8
LAYER_1
 40
0.2081
 41
0.2081
 66
1
 10
0
 20
0
 30
0
  0
VERTEX
  8
LAYER_1
 10
129.3323
 20
123.9509
  0
VERTEX
  8
LAYER_1
 10
129.3323
 20
124.4801
  0
SEQEND
  0
POLYLINE
  8
LAYER_1
 40
0.2081
 41
0.2081
 66
1
 10
0
 20
0
 30
0
  0
VERTEX
  8
LAYER_1
 10
129.3323
 20
125.0092
  0
VERTEX
  8
LAYER_1
 10
129.3323
 20
125.5384
  0
SEQEND
  0
POLYLINE
  8
LAYER_1
 40
0.2081
 41
0.2081
 66
1
 10
0
 20
0
 30
0
  0
VERTEX
  8
LAYER_1
 10
129.3323
 20
126.0676
  0
VERTEX
  8
LAYER_1
 10
129.3323
 20
126.5967
  0
SEQEND
  0
POLYLINE
  8
LAYER_1
 40
0.2081
 41
0.2081
 66
1
 10
0
 20
0
 30
0
  0
VERTEX
  8
LAYER_1
 10
129.3323
 20
127.1259
  0
VERTEX
  8
LAYER_1
 10
129.3323
 20
127.6551
  0
SEQEND
  0
POLYLINE
  8
LAYER_1
 40
0.2081
 41
0.2081
 66
1
 10
0
 20
0
 30
0
  0
VERTEX
  8
LAYER_1
 10
129.3323
 20
128.1842
  0
VERTEX
  8
LAYER_1
 10
129.3323
 20
128.7134
  0
SEQEND
  0
POLYLINE
  8
LAYER_1
 40
0.2081
 41
0.2081
 66
1
 10
0
 20
0
 30
0
  0
VERTEX
  8
LAYER_1
 10
129.3323
 20
129.2426
  0
VERTEX
  8
LAYER_1
 10
129.3323
 20
129.7717
  0
SEQEND
  0
POLYLINE
  8
LAYER_1
 40
0.2081
 41
0.2081
 66
1
 10
0
 20
0
 30
0
  0
VERTEX
  8
LAYER_1
 10
129.3323
 20
130.3009
  0
VERTEX
  8
LAYER_1
 10
129.3323
 20
130.8301
  0
SEQEND
  0
POLYLINE
  8
LAYER_1
 40
0.2081
 41
0.2081
 66
1
 10
0
 20
0
 30
0
  0
VERTEX
  8
LAYER_1
 10
129.3323
 20
131.3592
  0
VERTEX
  8
LAYER_1
 10
129.3323
 20
131.8884
  0
SEQEND
  0
POLYLINE
  8
LAYER_1
 40
0.2081
 41
0.2081
 66
1
 10
0
 20
0
 30
0
  0
VERTEX
  8
LAYER_1
 10
129.3323
 20
132.4176
  0
VERTEX
  8
LAYER_1
 10
129.3323
 20
132.9467
  0
SEQEND
  0
POLYLINE
  8
LAYER_1
 40
0.2081
 41
0.2081
 66
1
 10
0
 20
0
 30
0
  0
VERTEX
  8
LAYER_1
 10
129.3323
 20
133.4759
  0
VERTEX
  8
LAYER_1
 10
129.3323
 20
134.0051
  0
SEQEND
  0
POLYLINE
  8
LAYER_1
 40
0.2081
 41
0.2081
 66
1
 10
0
 20
0
 30
0
  0
VERTEX
  8
LAYER_1
 10
129.3323
 20
134.5342
  0
VERTEX
  8
LAYER_1
 10
129.3323
 20
135.0634
  0
SEQEND
  0
POLYLINE
  8
LAYER_1
 40
0.2081
 41
0.2081
 66
1
 10
0
 20
0
 30
0
  0
VERTEX
  8
LAYER_1
 10
129.3323
 20
135.5926
  0
VERTEX
  8
LAYER_1
 10
129.3323
 20
136.1217
  0
SEQEND
  0
POLYLINE
  8
LAYER_1
 40
0.2081
 41
0.2081
 66
1
 10
0
 20
0
 30
0
  0
VERTEX
  8
LAYER_1
 10
129.3323
 20
136.6509
  0
VERTEX
  8
LAYER_1
 10
129.3323
 20
137.1801
  0
SEQEND
  0
POLYLINE
  8
LAYER_1
 40
0.2081
 41
0.2081
 66
1
 10
0
 20
0
 30
0
  0
VERTEX
  8
LAYER_1
 10
129.3323
 20
137.7092
  0
VERTEX
  8
LAYER_1
 10
129.3323
 20
138.2384
  0
SEQEND
  0
POLYLINE
  8
LAYER_1
 40
0.2081
 41
0.2081
 66
1
 10
0
 20
0
 30
0
  0
VERTEX
  8
LAYER_1
 10
129.3323
 20
138.7676
  0
VERTEX
  8
LAYER_1
 10
129.3323
 20
139.2967
  0
SEQEND
  0
POLYLINE
  8
LAYER_1
 40
0.2081
 41
0.2081
 66
1
 10
0
 20
0
 30
0
  0
VERTEX
  8
LAYER_1
 10
129.3323
 20
139.8259
  0
VERTEX
  8
LAYER_1
 10
129.3323
 20
140.3551
  0
SEQEND
  0
POLYLINE
  8
LAYER_1
 40
0.2081
 41
0.2081
 66
1
 10
0
 20
0
 30
0
  0
VERTEX
  8
LAYER_1
 10
129.3323
 20
140.8842
  0
VERTEX
  8
LAYER_1
 10
129.3323
 20
141.4134
  0
SEQEND
  0
POLYLINE
  8
LAYER_1
 40
0.2081
 41
0.2081
 66
1
 10
0
 20
0
 30
0
  0
VERTEX
  8
LAYER_1
 10
129.3323
 20
141.9426
  0
VERTEX
  8
LAYER_1
 10
129.3323
 20
142.2389
  0
SEQEND
  0
POLYLINE
  8
LAYER_1
 40
0.1693
 41
0.1693
 66
1
 10
0
 20
0
 30
0
  0
VERTEX
  8
LAYER_1
 10
167.1783
 20
142.2389
  0
VERTEX
  8
LAYER_1
 10
167.1783
 20
137.1166
  0
SEQEND
  0
POLYLINE
  8
LAYER_1
 40
0.1693
 41
0.1693
 66
1
 10
0
 20
0
 30
0
  0
VERTEX
  8
LAYER_1
 10
167.1783
 20
136.7567
  0
VERTEX
  8
LAYER_1
 10
167.1783
 20
136.2276
  0
SEQEND
  0
POLYLINE
  8
LAYER_1
 40
0.1693
 41
0.1693
 66
1
 10
0
 20
0
 30
0
  0
VERTEX
  8
LAYER_1
 10
167.1783
 20
135.8677
  0
VERTEX
  8
LAYER_1
 10
167.1783
 20
130.7454
  0
SEQEND
  0
POLYLINE
  8
LAYER_1
 40
0.1693
 41
0.1693
 66
1
 10
0
 20
0
 30
0
  0
VERTEX
  8
LAYER_1
 10
167.1783
 20
130.3856
  0
VERTEX
  8
LAYER_1
 10
167.1783
 20
129.8564
  0
SEQEND
  0
POLYLINE
  8
LAYER_1
 40
0.1693
 41
0.1693
 66
1
 10
0
 20
0
 30
0
  0
VERTEX
  8
LAYER_1
 10
167.1783
 20
129.4966
  0
VERTEX
  8
LAYER_1
 10
167.1783
 20
124.3742
  0
SEQEND
  0
POLYLINE
  8
LAYER_1
 40
0.1693
 41
0.1693
 66
1
 10
0
 20
0
 30
0
  0
VERTEX
  8
LAYER_1
 10
167.1783
 20
124.0144
  0
VERTEX
  8
LAYER_1
 10
167.1783
 20
123.4852
  0
SEQEND
  0
POLYLINE
  8
LAYER_1
 40
0.1693
 41
0.1693
 66
1
 10
0
 20
0
 30
0
  0
VERTEX
  8
LAYER_1
 10
167.1783
 20
123.1254
  0
VERTEX
  8
LAYER_1
 10
167.1783
 20
118.0031
  0
SEQEND
  0
POLYLINE
  8
LAYER_1
 40
0.1693
 41
0.1693
 66
1
 10
0
 20
0
 30
0
  0
VERTEX
  8
LAYER_1
 10
167.1783
 20
117.6432
  0
VERTEX
  8
LAYER_1
 10
167.1783
 20
117.2411
  0
SEQEND
  0
POLYLINE
  8
LAYER_1
 40
0.1693
 41
0.1693
 66
1
 10
0
 20
0
 30
0
  0
VERTEX
  8
LAYER_1
 10
188.3449
 20
143.7417
  0
VERTEX
  8
LAYER_1
 10
188.3449
 20
149.7319
  0
SEQEND
  0
POLYLINE
  8
LAYER_1
 40
0.1693
 41
0.1693
 66
1
 10
0
 20
0
 30
0
  0
VERTEX
  8
LAYER_1
 10
128.3374
 20
143.7417
  0
VERTEX
  8
LAYER_1
 10
128.3374
 20
149.7319
  0
SEQEND
  0
CIRCLE
  8
LAYER_1
 10
188.3555
 20
149.7213
 40
0.2699
  0
CIRCLE
  8
LAYER_1
 10
188.3449
 20
149.7319
 40
0.254
  0
CIRCLE
  8
LAYER_1
 10
128.348
 20
149.7213
 40
0.2699
  0
CIRCLE
  8
LAYER_1
 10
128.3374
 20
149.7319
 40
0.254
  0
POLYLINE
  8
LAYER_1
 40
0.1693
 41
0.1693
 66
1
 10
0
 20
0
 30
0
  0
VERTEX
  8
LAYER_1
 10
188.3449
 20
149.7319
  0
VERTEX
  8
LAYER_1
 10
128.3374
 20
149.7319
  0
SEQEND
  0
POLYLINE
  8
LAYER_1
 40
0.05
 41
0.05
 62
255
 66
1
 10
0
 20
0
 30
0
 70
1
  0
VERTEX
  8
LAYER_1
 10
156.5738
 20
151.9967
  0
VERTEX
  8
LAYER_1
 10
160.1086
 20
151.9967
  0
VERTEX
  8
LAYER_1
 10
160.1086
 20
150.2399
  0
VERTEX
  8
LAYER_1
 10
156.5738
 20
150.2399
  0
SEQEND
  0
TEXT
  8
LAYER_1
 10
156.5738
 20
150.4203
 11
156.5738
 21
150.4203
 40
2.0812
 41
0.5
  1
1200
  0
POLYLINE
  8
LAYER_1
 40
0.1693
 41
0.1693
 66
1
 10
0
 20
0
 30
0
  0
VERTEX
  8
LAYER_1
 10
187.3289
 20
143.7417
  0
VERTEX
  8
LAYER_1
 10
187.3289
 20
145.9854
  0
SEQEND
  0
POLYLINE
  8
LAYER_1
 40
0.1693
 41
0.1693
 66
1
 10
0
 20
0
 30
0
  0
VERTEX
  8
LAYER_1
 10
129.3323
 20
143.7417
  0
VERTEX
  8
LAYER_1
 10
129.3323
 20
145.9854
  0
SEQEND
  0
CIRCLE
  8
LAYER_1
 10
187.3395
 20
145.9748
 40
0.2699
  0
CIRCLE
  8
LAYER_1
 10
187.329
 20
145.9854
 40
0.254
  0
CIRCLE
  8
LAYER_1
 10
129.3429
 20
145.9748
 40
0.2699
  0
CIRCLE
  8
LAYER_1
 10
129.3323
 20
145.9854
 40
0.254
  0
POLYLINE
  8
LAYER_1
 40
0.1693
 41
0.1693
 66
1
 10
0
 20
0
 30
0
  0
VERTEX
  8
LAYER_1
 10
187.3289
 20
145.9854
  0
VERTEX
  8
LAYER_1
 10
129.3323
 20
145.9854
  0
SEQEND
  0
POLYLINE
  8
LAYER_1
 40
0.05
 41
0.05
 62
255
 66
1
 10
0
 20
0
 30
0
 70
1
  0
VERTEX
  8
LAYER_1
 10
156.5738
 20
148.2502
  0
VERTEX
  8
LAYER_1
 10
160.1086
 20
148.2502
  0
VERTEX
  8
LAYER_1
 10
160.1086
 20
146.4934
  0
VERTEX
  8
LAYER_1
 10
156.5738
 20
146.4934
  0
SEQEND
  0
TEXT
  8
LAYER_1
 10
156.5738
 20
146.6734
 11
156.5738
 21
146.6734
 40
2.0812
 41
0.5
  1
1160
  0
POLYLINE
  8
LAYER_1
 40
0.1693
 41
0.1693
 66
1
 10
0
 20
0
 30
0
  0
VERTEX
  8
LAYER_1
 10
188.3449
 20
145.2446
  0
VERTEX
  8
LAYER_1
 10
188.3449
 20
145.9854
  0
SEQEND
  0
POLYLINE
  8
LAYER_1
 40
0.1693
 41
0.1693
 66
1
 10
0
 20
0
 30
0
  0
VERTEX
  8
LAYER_1
 10
187.3289
 20
145.2446
  0
VERTEX
  8
LAYER_1
 10
187.3289
 20
145.9854
  0
SEQEND
  0
POLYLINE
  8
LAYER_1
 40
0.1693
 41
0.1693
 66
1
 10
0
 20
0
 30
0
  0
VERTEX
  8
LAYER_1
 10
187.3289
 20
145.9854
  0
VERTEX
  8
LAYER_1
 10
188.3449
 20
145.9854
  0
SEQEND
  0
CIRCLE
  8
LAYER_1
 10
188.3555
 20
145.9748
 40
0.2699
  0
CIRCLE
  8
LAYER_1
 10
188.3449
 20
145.9854
 40
0.254
  0
POLYLINE
  8
LAYER_1
 40
0.1693
 41
0.1693
 66
1
 10
0
 20
0
 30
0
  0
VERTEX
  8
LAYER_1
 10
188.3449
 20
145.9854
  0
VERTEX
  8
LAYER_1
 10
188.5778
 20
145.9854
  0
SEQEND
  0
CIRCLE
  8
LAYER_1
 10
187.3395
 20
145.9748
 40
0.2699
  0
CIRCLE
  8
LAYER_1
 10
187.329
 20
145.9854
 40
0.254
  0
POLYLINE
  8
LAYER_1
 40
0.1693
 41
0.1693
 66
1
 10
0
 20
0
 30
0
  0
VERTEX
  8
LAYER_1
 10
187.3289
 20
145.9854
  0
VERTEX
  8
LAYER_1
 10
187.0961
 20
145.9854
  0
SEQEND
  0
POLYLINE
  8
LAYER_1
 40
0.05
 41
0.05
 62
255
 66
1
 10
0
 20
0
 30
0
 70
1
  0
VERTEX
  8
LAYER_1
 10
188.3449
 20
148.2502
  0
VERTEX
  8
LAYER_1
 10
190.1018
 20
148.2502
  0
VERTEX
  8
LAYER_1
 10
190.1018
 20
146.4934
  0
VERTEX
  8
LAYER_1
 10
188.3449
 20
146.4934
  0
SEQEND
  0
TEXT
  8
LAYER_1
 10
188.3452
 20
146.6734
 11
188.3452
 21
146.6734
 40
2.0812
 41
0.5
  1
20
  0
POLYLINE
  8
LAYER_1
 40
0.1693
 41
0.1693
 66
1
 10
0
 20
0
 30
0
  0
VERTEX
  8
LAYER_1
 10
128.3374
 20
145.2446
  0
VERTEX
  8
LAYER_1
 10
128.3374
 20
145.9854
  0
SEQEND
  0
POLYLINE
  8
LAYER_1
 40
0.1693
 41
0.1693
 66
1
 10
0
 20
0
 30
0
  0
VERTEX
  8
LAYER_1
 10
129.3323
 20
145.2446
  0
VERTEX
  8
LAYER_1
 10
129.3323
 20
145.9854
  0
SEQEND
  0
POLYLINE
  8
LAYER_1
 40
0.1693
 41
0.1693
 66
1
 10
0
 20
0
 30
0
  0
VERTEX
  8
LAYER_1
 10
129.3323
 20
145.9854
  0
VERTEX
  8
LAYER_1
 10
128.3374
 20
145.9854
  0
SEQEND
  0
CIRCLE
  8
LAYER_1
 10
128.348
 20
145.9748
 40
0.2699
  0
CIRCLE
  8
LAYER_1
 10
128.3374
 20
145.9854
 40
0.254
  0
POLYLINE
  8
LAYER_1
 40
0.1693
 41
0.1693
 66
1
 10
0
 20
0
 30
0
  0
VERTEX
  8
LAYER_1
 10
128.3374
 20
145.9854
  0
VERTEX
  8
LAYER_1
 10
128.0834
 20
145.9854
  0
SEQEND
  0
CIRCLE
  8
LAYER_1
 10
129.3429
 20
145.9748
 40
0.2699
  0
CIRCLE
  8
LAYER_1
 10
129.3323
 20
145.9854
 40
0.254
  0
POLYLINE
  8
LAYER_1
 40
0.1693
 41
0.1693
 66
1
 10
0
 20
0
 30
0
  0
VERTEX
  8
LAYER_1
 10
129.3323
 20
145.9854
  0
VERTEX
  8
LAYER_1
 10
129.5863
 20
145.9854
  0
SEQEND
  0
POLYLINE
  8
LAYER_1
 40
0.05
 41
0.05
 62
255
 66
1
 10
0
 20
0
 30
0
 70
1
  0
VERTEX
  8
LAYER_1
 10
126.5806
 20
148.2502
  0
VERTEX
  8
LAYER_1
 10
128.3374
 20
148.2502
  0
VERTEX
  8
LAYER_1
 10
128.3374
 20
146.4934
  0
VERTEX
  8
LAYER_1
 10
126.5806
 20
146.4934
  0
SEQEND
  0
TEXT
  8
LAYER_1
 10
126.5808
 20
146.6734
 11
126.5808
 21
146.6734
 40
2.0812
 41
0.5
  1
20
  0
POLYLINE
  8
LAYER_1
 40
0.1693
 41
0.1693
 66
1
 10
0
 20
0
 30
0
  0
VERTEX
  8
LAYER_1
 10
188.3449
 20
115.7382
  0
VERTEX
  8
LAYER_1
 10
188.3449
 20
109.7269
  0
SEQEND
  0
POLYLINE
  8
LAYER_1
 40
0.1693
 41
0.1693
 66
1
 10
0
 20
0
 30
0
  0
VERTEX
  8
LAYER_1
 10
167.1783
 20
115.7382
  0
VERTEX
  8
LAYER_1
 10
167.1783
 20
109.7269
  0
SEQEND
  0
CIRCLE
  8
LAYER_1
 10
188.3555
 20
109.7163
 40
0.2699
  0
CIRCLE
  8
LAYER_1
 10
188.3449
 20
109.7269
 40
0.254
  0
CIRCLE
  8
LAYER_1
 10
167.1889
 20
109.7163
 40
0.2699
  0
CIRCLE
  8
LAYER_1
 10
167.1783
 20
109.7269
 40
0.254
  0
POLYLINE
  8
LAYER_1
 40
0.1693
 41
0.1693
 66
1
 10
0
 20
0
 30
0
  0
VERTEX
  8
LAYER_1
 10
188.3449
 20
109.7269
  0
VERTEX
  8
LAYER_1
 10
167.1783
 20
109.7269
  0
SEQEND
  0
POLYLINE
  8
LAYER_1
 40
0.05
 41
0.05
 62
255
 66
1
 10
0
 20
0
 30
0
 70
1
  0
VERTEX
  8
LAYER_1
 10
176.4281
 20
111.9917
  0
VERTEX
  8
LAYER_1
 10
179.0739
 20
111.9917
  0
VERTEX
  8
LAYER_1
 10
179.0739
 20
110.2349
  0
VERTEX
  8
LAYER_1
 10
176.4281
 20
110.2349
  0
SEQEND
  0
TEXT
  8
LAYER_1
 10
176.4279
 20
110.4361
 11
176.4279
 21
110.4361
 40
2.0812
 41
0.5
  1
423
  0
POLYLINE
  8
LAYER_1
 40
0.1693
 41
0.1693
 66
1
 10
0
 20
0
 30
0
  0
VERTEX
  8
LAYER_1
 10
167.1783
 20
115.7382
  0
VERTEX
  8
LAYER_1
 10
167.1783
 20
109.7269
  0
SEQEND
  0
POLYLINE
  8
LAYER_1
 40
0.1693
 41
0.1693
 66
1
 10
0
 20
0
 30
0
  0
VERTEX
  8
LAYER_1
 10
128.3374
 20
115.7382
  0
VERTEX
  8
LAYER_1
 10
128.3374
 20
109.7269
  0
SEQEND
  0
CIRCLE
  8
LAYER_1
 10
167.1889
 20
109.7163
 40
0.2699
  0
CIRCLE
  8
LAYER_1
 10
167.1783
 20
109.7269
 40
0.254
  0
CIRCLE
  8
LAYER_1
 10
128.348
 20
109.7163
 40
0.2699
  0
CIRCLE
  8
LAYER_1
 10
128.3374
 20
109.7269
 40
0.254
  0
POLYLINE
  8
LAYER_1
 40
0.1693
 41
0.1693
 66
1
 10
0
 20
0
 30
0
  0
VERTEX
  8
LAYER_1
 10
167.1783
 20
109.7269
  0
VERTEX
  8
LAYER_1
 10
128.3374
 20
109.7269
  0
SEQEND
  0
POLYLINE
  8
LAYER_1
 40
0.05
 41
0.05
 62
255
 66
1
 10
0
 20
0
 30
0
 70
1
  0
VERTEX
  8
LAYER_1
 10
146.435
 20
111.9917
  0
VERTEX
  8
LAYER_1
 10
149.0808
 20
111.9917
  0
VERTEX
  8
LAYER_1
 10
149.0808
 20
110.2349
  0
VERTEX
  8
LAYER_1
 10
146.435
 20
110.2349
  0
SEQEND
  0
TEXT
  8
LAYER_1
 10
146.4349
 20
110.4361
 11
146.4349
 21
110.4361
 40
2.0812
 41
0.5
  1
777
  0
POLYLINE
  8
LAYER_1
 40
0.1693
 41
0.1693
 66
1
 10
0
 20
0
 30
0
  0
VERTEX
  8
LAYER_1
 10
126.9616
 20
142.2389
  0
VERTEX
  8
LAYER_1
 10
115.9549
 20
142.2389
  0
SEQEND
  0
POLYLINE
  8
LAYER_1
 40
0.1693
 41
0.1693
 66
1
 10
0
 20
0
 30
0
  0
VERTEX
  8
LAYER_1
 10
126.9616
 20
117.2411
  0
VERTEX
  8
LAYER_1
 10
115.9549
 20
117.2411
  0
SEQEND
  0
CIRCLE
  8
LAYER_1
 10
115.9655
 20
142.2283
 40
0.2699
  0
CIRCLE
  8
LAYER_1
 10
115.9549
 20
142.2389
 40
0.254
  0
CIRCLE
  8
LAYER_1
 10
115.9655
 20
117.2305
 40
0.2699
  0
CIRCLE
  8
LAYER_1
 10
115.9549
 20
117.2411
 40
0.254
  0
POLYLINE
  8
LAYER_1
 40
0.1693
 41
0.1693
 66
1
 10
0
 20
0
 30
0
  0
VERTEX
  8
LAYER_1
 10
115.9549
 20
142.2389
  0
VERTEX
  8
LAYER_1
 10
115.9549
 20
117.2411
  0
SEQEND
  0
POLYLINE
  8
LAYER_1
 40
0.05
 41
0.05
 62
255
 66
1
 10
0
 20
0
 30
0
 70
1
  0
VERTEX
  8
LAYER_1
 10
113.6901
 20
131.0629
  0
VERTEX
  8
LAYER_1
 10
115.4681
 20
131.0629
  0
VERTEX
  8
LAYER_1
 10
115.4681
 20
128.4171
  0
VERTEX
  8
LAYER_1
 10
113.6901
 20
128.4171
  0
SEQEND
  0
TEXT
  8
LAYER_1
 10
115.2685
 20
128.4195
 11
115.2685
 21
128.4195
 40
2.0813
 41
0.5
 50
89.99999999
  1
500
  0
POLYLINE
  8
LAYER_1
 40
0.1693
 41
0.1693
 66
1
 10
0
 20
0
 30
0
  0
VERTEX
  8
LAYER_1
 10
126.9616
 20
142.2389
  0
VERTEX
  8
LAYER_1
 10
120.9503
 20
142.2389
  0
SEQEND
  0
POLYLINE
  8
LAYER_1
 40
0.1693
 41
0.1693
 66
1
 10
0
 20
0
 30
0
  0
VERTEX
  8
LAYER_1
 10
126.9616
 20
118.5957
  0
VERTEX
  8
LAYER_1
 10
120.9503
 20
118.5957
  0
SEQEND
  0
CIRCLE
  8
LAYER_1
 10
120.9609
 20
142.2283
 40
0.2699
  0
CIRCLE
  8
LAYER_1
 10
120.9503
 20
142.2389
 40
0.254
  0
CIRCLE
  8
LAYER_1
 10
120.9609
 20
118.5852
 40
0.2699
  0
CIRCLE
  8
LAYER_1
 10
120.9503
 20
118.5957
 40
0.254
  0
POLYLINE
  8
LAYER_1
 40
0.1693
 41
0.1693
 66
1
 10
0
 20
0
 30
0
  0
VERTEX
  8
LAYER_1
 10
120.9503
 20
142.2389
  0
VERTEX
  8
LAYER_1
 10
120.9503
 20
118.5957
  0
SEQEND
  0
POLYLINE
  8
LAYER_1
 40
0.05
 41
0.05
 62
255
 66
1
 10
0
 20
0
 30
0
 70
1
  0
VERTEX
  8
LAYER_1
 10
118.7066
 20
131.7402
  0
VERTEX
  8
LAYER_1
 10
120.4634
 20
131.7402
  0
VERTEX
  8
LAYER_1
 10
120.4634
 20
129.0944
  0
VERTEX
  8
LAYER_1
 10
118.7066
 20
129.0944
  0
SEQEND
  0
TEXT
  8
LAYER_1
 10
120.2642
 20
129.092
 11
120.2642
 21
129.092
 40
2.0813
 41
0.5
 50
89.99999999
  1
473
  0
POLYLINE
  8
LAYER_1
 40
0.1693
 41
0.1693
 66
1
 10
0
 20
0
 30
0
  0
VERTEX
  8
LAYER_1
 10
125.4588
 20
117.2411
  0
VERTEX
  8
LAYER_1
 10
120.9503
 20
117.2411
  0
SEQEND
  0
POLYLINE
  8
LAYER_1
 40
0.1693
 41
0.1693
 66
1
 10
0
 20
0
 30
0
  0
VERTEX
  8
LAYER_1
 10
125.4588
 20
118.5957
  0
VERTEX
  8
LAYER_1
 10
120.9503
 20
118.5957
  0
SEQEND
  0
POLYLINE
  8
LAYER_1
 40
0.1693
 41
0.1693
 66
1
 10
0
 20
0
 30
0
  0
VERTEX
  8
LAYER_1
 10
120.9503
 20
118.5957
  0
VERTEX
  8
LAYER_1
 10
120.9503
 20
117.2411
  0
SEQEND
  0
CIRCLE
  8
LAYER_1
 10
120.9609
 20
117.2305
 40
0.2699
  0
CIRCLE
  8
LAYER_1
 10
120.9503
 20
117.2411
 40
0.254
  0
POLYLINE
  8
LAYER_1
 40
0.1693
 41
0.1693
 66
1
 10
0
 20
0
 30
0
  0
VERTEX
  8
LAYER_1
 10
120.9503
 20
117.2411
  0
VERTEX
  8
LAYER_1
 10
120.9503
 20
116.9871
  0
SEQEND
  0
CIRCLE
  8
LAYER_1
 10
120.9609
 20
118.5852
 40
0.2699
  0
CIRCLE
  8
LAYER_1
 10
120.9503
 20
118.5957
 40
0.254
  0
POLYLINE
  8
LAYER_1
 40
0.1693
 41
0.1693
 66
1
 10
0
 20
0
 30
0
  0
VERTEX
  8
LAYER_1
 10
120.9503
 20
118.5957
  0
VERTEX
  8
LAYER_1
 10
120.9503
 20
118.8286
  0
SEQEND
  0
POLYLINE
  8
LAYER_1
 40
0.05
 41
0.05
 62
255
 66
1
 10
0
 20
0
 30
0
 70
1
  0
VERTEX
  8
LAYER_1
 10
118.7066
 20
117.2411
  0
VERTEX
  8
LAYER_1
 10
120.4634
 20
117.2411
  0
VERTEX
  8
LAYER_1
 10
120.4634
 20
115.4631
  0
VERTEX
  8
LAYER_1
 10
118.7066
 20
115.4631
  0
SEQEND
  0
TEXT
  8
LAYER_1
 10
120.2642
 20
115.4639
 11
120.2642
 21
115.4639
 40
2.0813
 41
0.5
 50
89.99999999
  1
27
  0
POLYLINE
  8
LAYER_1
 40
0.1693
 41
0.1693
 66
1
 10
0
 20
0
 30
0
  0
VERTEX
  8
LAYER_1
 10
54.995
 20
175.2377
  0
VERTEX
  8
LAYER_1
 10
60.1173
 20
175.2377
  0
SEQEND
  0
POLYLINE
  8
LAYER_1
 40
0.1693
 41
0.1693
 66
1
 10
0
 20
0
 30
0
  0
VERTEX
  8
LAYER_1
 10
60.4771
 20
175.2377
  0
VERTEX
  8
LAYER_1
 10
61.0063
 20
175.2377
  0
SEQEND
  0
POLYLINE
  8
LAYER_1
 40
0.1693
 41
0.1693
 66
1
 10
0
 20
0
 30
0
  0
VERTEX
  8
LAYER_1
 10
61.3661
 20
175.2377
  0
VERTEX
  8
LAYER_1
 10
66.4884
 20
175.2377
  0
SEQEND
  0
POLYLINE
  8
LAYER_1
 40
0.1693
 41
0.1693
 66
1
 10
0
 20
0
 30
0
  0
VERTEX
  8
LAYER_1
 10
66.8483
 20
175.2377
  0
VERTEX
  8
LAYER_1
 10
67.3775
 20
175.2377
  0
SEQEND
  0
POLYLINE
  8
LAYER_1
 40
0.1693
 41
0.1693
 66
1
 10
0
 20
0
 30
0
  0
VERTEX
  8
LAYER_1
 10
67.7373
 20
175.2377
  0
VERTEX
  8
LAYER_1
 10
72.8596
 20
175.2377
  0
SEQEND
  0
POLYLINE
  8
LAYER_1
 40
0.1693
 41
0.1693
 66
1
 10
0
 20
0
 30
0
  0
VERTEX
  8
LAYER_1
 10
73.2194
 20
175.2377
  0
VERTEX
  8
LAYER_1
 10
73.7486
 20
175.2377
  0
SEQEND
  0
POLYLINE
  8
LAYER_1
 40
0.1693
 41
0.1693
 66
1
 10
0
 20
0
 30
0
  0
VERTEX
  8
LAYER_1
 10
74.1084
 20
175.2377
  0
VERTEX
  8
LAYER_1
 10
79.2308
 20
175.2377
  0
SEQEND
  0
POLYLINE
  8
LAYER_1
 40
0.1693
 41
0.1693
 66
1
 10
0
 20
0
 30
0
  0
VERTEX
  8
LAYER_1
 10
79.5906
 20
175.2377
  0
VERTEX
  8
LAYER_1
 10
80.1198
 20
175.2377
  0
SEQEND
  0
POLYLINE
  8
LAYER_1
 40
0.1693
 41
0.1693
 66
1
 10
0
 20
0
 30
0
  0
VERTEX
  8
LAYER_1
 10
80.4796
 20
175.2377
  0
VERTEX
  8
LAYER_1
 10
85.6019
 20
175.2377
  0
SEQEND
  0
POLYLINE
  8
LAYER_1
 40
0.1693
 41
0.1693
 66
1
 10
0
 20
0
 30
0
  0
VERTEX
  8
LAYER_1
 10
85.9618
 20
175.2377
  0
VERTEX
  8
LAYER_1
 10
86.491
 20
175.2377
  0
SEQEND
  0
POLYLINE
  8
LAYER_1
 40
0.1693
 41
0.1693
 66
1
 10
0
 20
0
 30
0
  0
VERTEX
  8
LAYER_1
 10
86.8508
 20
175.2377
  0
VERTEX
  8
LAYER_1
 10
89.3273
 20
175.2377
  0
SEQEND
  0
POLYLINE
  8
LAYER_1
 40
0.1693
 41
0.1693
 66
1
 10
0
 20
0
 30
0
  0
VERTEX
  8
LAYER_1
 10
60.0961
 20
172.7401
  0
VERTEX
  8
LAYER_1
 10
60.0961
 20
174.3276
  0
SEQEND
  0
POLYLINE
  8
LAYER_1
 40
0.1693
 41
0.1693
 66
1
 10
0
 20
0
 30
0
  0
VERTEX
  8
LAYER_1
 10
60.0961
 20
174.8567
  0
VERTEX
  8
LAYER_1
 10
60.0961
 20
175.0261
  0
SEQEND
  0
POLYLINE
  8
LAYER_1
 40
0.1693
 41
0.1693
 66
1
 10
0
 20
0
 30
0
  0
VERTEX
  8
LAYER_1
 10
60.0961
 20
175.3859
  0
VERTEX
  8
LAYER_1
 10
60.0961
 20
176.9734
  0
SEQEND
  0
POLYLINE
  8
LAYER_1
 40
0.1693
 41
0.1693
 66
1
 10
0
 20
0
 30
0
  0
VERTEX
  8
LAYER_1
 10
60.0961
 20
177.5026
  0
VERTEX
  8
LAYER_1
 10
60.0961
 20
177.6719
  0
SEQEND
  0
POLYLINE
  8
LAYER_1
 40
0.1693
 41
0.1693
 66
1
 10
0
 20
0
 30
0
  0
VERTEX
  8
LAYER_1
 10
62.5938
 20
175.2377
  0
VERTEX
  8
LAYER_1
 10
61.0063
 20
175.2377
  0
SEQEND
  0
POLYLINE
  8
LAYER_1
 40
0.1693
 41
0.1693
 66
1
 10
0
 20
0
 30
0
  0
VERTEX
  8
LAYER_1
 10
60.4771
 20
175.2377
  0
VERTEX
  8
LAYER_1
 10
60.3078
 20
175.2377
  0
SEQEND
  0
POLYLINE
  8
LAYER_1
 40
0.1693
 41
0.1693
 66
1
 10
0
 20
0
 30
0
  0
VERTEX
  8
LAYER_1
 10
59.948
 20
175.2377
  0
VERTEX
  8
LAYER_1
 10
58.3605
 20
175.2377
  0
SEQEND
  0
POLYLINE
  8
LAYER_1
 40
0.1693
 41
0.1693
 66
1
 10
0
 20
0
 30
0
  0
VERTEX
  8
LAYER_1
 10
57.8313
 20
175.2377
  0
VERTEX
  8
LAYER_1
 10
57.6619
 20
175.2377
  0
SEQEND
  0
POLYLINE
  8
LAYER_1
 40
0.1693
 41
0.1693
 66
1
 10
0
 20
0
 30
0
  0
VERTEX
  8
LAYER_1
 10
60.0961
 20
175.2377
  0
VERTEX
  8
LAYER_1
 10
61.4931
 20
175.9997
  0
SEQEND
  0
POLYLINE
  8
LAYER_1
 40
0.1693
 41
0.1693
 66
1
 10
0
 20
0
 30
0
  0
VERTEX
  8
LAYER_1
 10
61.9376
 20
176.2749
  0
VERTEX
  8
LAYER_1
 10
62.0858
 20
176.3384
  0
SEQEND
  0
POLYLINE
  8
LAYER_1
 40
0.1693
 41
0.1693
 66
1
 10
0
 20
0
 30
0
  0
VERTEX
  8
LAYER_1
 10
62.4033
 20
176.5289
  0
VERTEX
  8
LAYER_1
 10
63.8003
 20
177.2909
  0
SEQEND
  0
POLYLINE
  8
LAYER_1
 40
0.1693
 41
0.1693
 66
1
 10
0
 20
0
 30
0
  0
VERTEX
  8
LAYER_1
 10
64.2659
 20
177.5449
  0
VERTEX
  8
LAYER_1
 10
64.4141
 20
177.6296
  0
SEQEND
  0
POLYLINE
  8
LAYER_1
 40
0.1693
 41
0.1693
 66
1
 10
0
 20
0
 30
0
  0
VERTEX
  8
LAYER_1
 10
64.7316
 20
177.7989
  0
VERTEX
  8
LAYER_1
 10
66.1074
 20
178.5821
  0
SEQEND
  0
POLYLINE
  8
LAYER_1
 40
0.1693
 41
0.1693
 66
1
 10
0
 20
0
 30
0
  0
VERTEX
  8
LAYER_1
 10
66.5731
 20
178.8361
  0
VERTEX
  8
LAYER_1
 10
66.7213
 20
178.9207
  0
SEQEND
  0
POLYLINE
  8
LAYER_1
 40
0.1693
 41
0.1693
 66
1
 10
0
 20
0
 30
0
  0
VERTEX
  8
LAYER_1
 10
67.0388
 20
179.0901
  0
VERTEX
  8
LAYER_1
 10
68.4358
 20
179.8521
  0
SEQEND
  0
POLYLINE
  8
LAYER_1
 40
0.1693
 41
0.1693
 66
1
 10
0
 20
0
 30
0
  0
VERTEX
  8
LAYER_1
 10
68.8803
 20
180.1061
  0
VERTEX
  8
LAYER_1
 10
69.0284
 20
180.1907
  0
SEQEND
  0
POLYLINE
  8
LAYER_1
 40
0.1693
 41
0.1693
 66
1
 10
0
 20
0
 30
0
  0
VERTEX
  8
LAYER_1
 10
69.3459
 20
180.3812
  0
VERTEX
  8
LAYER_1
 10
70.7429
 20
181.1432
  0
SEQEND
  0
POLYLINE
  8
LAYER_1
 40
0.1693
 41
0.1693
 66
1
 10
0
 20
0
 30
0
  0
VERTEX
  8
LAYER_1
 10
71.2086
 20
181.3972
  0
VERTEX
  8
LAYER_1
 10
71.3568
 20
181.4819
  0
SEQEND
  0
POLYLINE
  8
LAYER_1
 40
0.1693
 41
0.1693
 66
1
 10
0
 20
0
 30
0
  0
VERTEX
  8
LAYER_1
 10
71.6743
 20
181.6512
  0
VERTEX
  8
LAYER_1
 10
71.8859
 20
181.7782
  0
SEQEND
  0
POLYLINE
  8
LAYER_1
 40
0.1693
 41
0.1693
 66
1
 10
0
 20
0
 30
0
 70
1
  0
VERTEX
  8
LAYER_1
 10
62.5938
 20
175.2377
 42
0.39406258
  0
VERTEX
  8
LAYER_1
 10
60.0855
 20
177.7354
 42
0.3922684371
  0
VERTEX
  8
LAYER_1
 10
57.5773
 20
175.2377
 42
0.3940622711
  0
VERTEX
  8
LAYER_1
 10
60.0855
 20
172.7401
 42
0.3922475337
  0
SEQEND
  0
CIRCLE
  8
LAYER_1
 10
71.8965
 20
181.7888
 40
0.8784
  0
TEXT
  8
LAYER_1
 10
72.6056
 20
182.7942
 11
72.6056
 21
182.7942
 40
2.0812
 41
0.5
  1
φ35
  0
TEXT
  8
LAYER_1
 10
55.2913
 20
170.6869
 11
55.2913
 21
170.6869
 40
2.0812
 41
0.5
  1
φ100
  0
POLYLINE
  8
LAYER_1
 40
0.1693
 41
0.1693
 66
1
 10
0
 20
0
 30
0
  0
VERTEX
  8
LAYER_1
 10
71.8859
 20
181.7782
  0
VERTEX
  8
LAYER_1
 10
71.9494
 20
181.6936
  0
VERTEX
  8
LAYER_1
 10
71.9918
 20
181.6089
  0
VERTEX
  8
LAYER_1
 10
72.0341
 20
181.5031
  0
VERTEX
  8
LAYER_1
 10
72.0976
 20
181.4184
  0
VERTEX
  8
LAYER_1
 10
72.1399
 20
181.3126
  0
VERTEX
  8
LAYER_1
 10
72.1823
 20
181.2279
  0
VERTEX
  8
LAYER_1
 10
72.2246
 20
181.1221
  0
VERTEX
  8
LAYER_1
 10
72.2669
 20
181.0374
  0
VERTEX
  8
LAYER_1
 10
72.3093
 20
180.9316
  0
VERTEX
  8
LAYER_1
 10
72.3728
 20
180.8469
  0
VERTEX
  8
LAYER_1
 10
72.4151
 20
180.7411
  0
VERTEX
  8
LAYER_1
 10
72.4363
 20
180.6352
  0
VERTEX
  8
LAYER_1
 10
72.4786
 20
180.5506
  0
VERTEX
  8
LAYER_1
 10
72.5209
 20
180.4447
  0
VERTEX
  8
LAYER_1
 10
72.5633
 20
180.3389
  0
VERTEX
  8
LAYER_1
 10
72.6056
 20
180.2542
  0
VERTEX
  8
LAYER_1
 10
72.6479
 20
180.1484
  0
VERTEX
  8
LAYER_1
 10
72.6691
 20
180.0426
  0
VERTEX
  8
LAYER_1
 10
72.7114
 20
179.9367
  0
VERTEX
  8
LAYER_1
 10
72.7538
 20
179.8521
  0
VERTEX
  8
LAYER_1
 10
72.7749
 20
179.7462
  0
VERTEX
  8
LAYER_1
 10
72.8173
 20
179.6404
  0
VERTEX
  8
LAYER_1
 10
72.8384
 20
179.5346
  0
VERTEX
  8
LAYER_1
 10
72.8808
 20
179.4499
  0
VERTEX
  8
LAYER_1
 10
72.9019
 20
179.3441
  0
VERTEX
  8
LAYER_1
 10
72.9231
 20
179.2382
  0
VERTEX
  8
LAYER_1
 10
72.9654
 20
179.1324
  0
VERTEX
  8
LAYER_1
 10
72.9866
 20
179.0266
  0
VERTEX
  8
LAYER_1
 10
73.0078
 20
178.9207
  0
VERTEX
  8
LAYER_1
 10
73.0289
 20
178.8149
  0
VERTEX
  8
LAYER_1
 10
73.0501
 20
178.7302
  0
VERTEX
  8
LAYER_1
 10
73.0713
 20
178.6244
  0
VERTEX
  8
LAYER_1
 10
73.1136
 20
178.5186
  0
VERTEX
  8
LAYER_1
 10
73.1136
 20
178.4127
  0
VERTEX
  8
LAYER_1
 10
73.1348
 20
178.3069
  0
VERTEX
  8
LAYER_1
 10
73.1559
 20
178.2011
  0
VERTEX
  8
LAYER_1
 10
73.1771
 20
178.0952
  0
VERTEX
  8
LAYER_1
 10
73.1983
 20
177.9894
  0
VERTEX
  8
LAYER_1
 10
73.2194
 20
177.8836
  0
VERTEX
  8
LAYER_1
 10
73.2194
 20
177.7777
  0
VERTEX
  8
LAYER_1
 10
73.2406
 20
177.6719
  0
VERTEX
  8
LAYER_1
 10
73.2618
 20
177.5661
  0
VERTEX
  8
LAYER_1
 10
73.2618
 20
177.4602
  0
VERTEX
  8
LAYER_1
 10
73.2829
 20
177.3544
  0
VERTEX
  8
LAYER_1
 10
73.2829
 20
177.2486
  0
VERTEX
  8
LAYER_1
 10
73.3041
 20
177.1427
  0
VERTEX
  8
LAYER_1
 10
73.3041
 20
177.0369
  0
VERTEX
  8
LAYER_1
 10
73.3253
 20
176.9311
  0
VERTEX
  8
LAYER_1
 10
73.3253
 20
176.8252
  0
VERTEX
  8
LAYER_1
 10
73.3253
 20
176.7194
  0
VERTEX
  8
LAYER_1
 10
73.3253
 20
176.6136
  0
VERTEX
  8
LAYER_1
 10
73.3253
 20
176.5077
  0
VERTEX
  8
LAYER_1
 10
73.3464
 20
176.4019
  0
VERTEX
  8
LAYER_1
 10
73.3464
 20
176.2961
  0
VERTEX
  8
LAYER_1
 10
73.3464
 20
176.1902
  0
VERTEX
  8
LAYER_1
 10
73.3464
 20
176.0844
  0
VERTEX
  8
LAYER_1
 10
73.3464
 20
175.9786
  0
VERTEX
  8
LAYER_1
 10
73.3253
 20
175.8727
  0
VERTEX
  8
LAYER_1
 10
73.3253
 20
175.7669
  0
VERTEX
  8
LAYER_1
 10
73.3253
 20
175.6611
  0
VERTEX
  8
LAYER_1
 10
73.3253
 20
175.5552
  0
VERTEX
  8
LAYER_1
 10
73.3253
 20
175.4494
  0
VERTEX
  8
LAYER_1
 10
73.3041
 20
175.3436
  0
VERTEX
  8
LAYER_1
 10
73.3041
 20
175.2377
  0
SEQEND
  0
TEXT
  8
LAYER_1
 10
72.9843
 20
179.771
 11
72.9843
 21
179.771
 40
2.081
 41
0.5
 50
284.4999645
  1
2
  0
TEXT
  8
LAYER_1
 10
73.1977
 20
178.9188
 11
73.1977
 21
178.9188
 40
2.081
 41
0.5
 50
284.4999645
  1
9
  0
TEXT
  8
LAYER_1
 10
73.4802
 20
178.0638
 11
73.4802
 21
178.0638
 40
1.8254
 41
0.5
 50
284.4999645
  1
ﾟ
  0
POLYLINE
  8
LAYER_1
 40
0.2963
 41
0.2963
 66
1
 10
0
 20
0
 30
0
  0
VERTEX
  8
LAYER_1
 10
59.3553
 20
176.5501
  0
VERTEX
  8
LAYER_1
 10
57.0058
 20
180.7622
  0
SEQEND
  0
POLYLINE
  8
LAYER_1
 40
0.2963
 41
0.2963
 66
1
 10
0
 20
0
 30
0
  0
VERTEX
  8
LAYER_1
 10
71.1663
 20
183.0906
  0
VERTEX
  8
LAYER_1
 10
68.8168
 20
187.3239
  0
SEQEND
  0
CIRCLE
  8
LAYER_1
 10
57.0164
 20
180.7517
 40
0.2699
  0
CIRCLE
  8
LAYER_1
 10
57.0058
 20
180.7622
 40
0.254
  0
CIRCLE
  8
LAYER_1
 10
68.8274
 20
187.3133
 40
0.2699
  0
CIRCLE
  8
LAYER_1
 10
68.8168
 20
187.3239
 40
0.254
  0
POLYLINE
  8
LAYER_1
 40
0.2963
 41
0.2963
 66
1
 10
0
 20
0
 30
0
  0
VERTEX
  8
LAYER_1
 10
57.0058
 20
180.7622
  0
VERTEX
  8
LAYER_1
 10
68.8168
 20
187.3239
  0
SEQEND
  0
POLYLINE
  8
LAYER_1
 40
0.05
 41
0.05
 62
255
 66
1
 10
0
 20
0
 30
0
 70
1
  0
VERTEX
  8
LAYER_1
 10
60.6676
 20
185.3766
  0
VERTEX
  8
LAYER_1
 10
62.9748
 20
186.6677
  0
VERTEX
  8
LAYER_1
 10
63.8214
 20
185.1226
  0
VERTEX
  8
LAYER_1
 10
61.5143
 20
183.8314
  0
SEQEND
  0
TEXT
  8
LAYER_1
 10
61.4217
 20
184.0218
 11
61.4217
 21
184.0218
 40
2.0808
 41
0.5
 50
29.00001305
  1
27
  0
TEXT
  8
LAYER_1
 10
62.9671
 20
184.8705
 11
62.9671
 21
184.8705
 40
2.0808
 41
0.5
 50
29.00001305
  1
0
  0
POLYLINE
  8
LAYER_1
 40
0.2963
 41
0.2963
 66
1
 10
0
 20
0
 30
0
  0
VERTEX
  8
LAYER_1
 10
89.5389
 20
175.2377
  0
VERTEX
  8
LAYER_1
 10
93.7511
 20
175.2377
  0
SEQEND
  0
POLYLINE
  8
LAYER_1
 40
0.2963
 41
0.2963
 66
1
 10
0
 20
0
 30
0
  0
VERTEX
  8
LAYER_1
 10
82.8291
 20
187.2392
  0
VERTEX
  8
LAYER_1
 10
93.7511
 20
187.2392
  0
SEQEND
  0
CIRCLE
  8
LAYER_1
 10
93.7617
 20
175.2272
 40
0.2699
  0
CIRCLE
  8
LAYER_1
 10
93.7511
 20
175.2377
 40
0.254
  0
CIRCLE
  8
LAYER_1
 10
93.7617
 20
187.2286
 40
0.2699
  0
CIRCLE
  8
LAYER_1
 10
93.7511
 20
187.2392
 40
0.254
  0
POLYLINE
  8
LAYER_1
 40
0.2963
 41
0.2963
 66
1
 10
0
 20
0
 30
0
  0
VERTEX
  8
LAYER_1
 10
93.7511
 20
175.2377
  0
VERTEX
  8
LAYER_1
 10
93.7511
 20
187.2392
  0
SEQEND
  0
POLYLINE
  8
LAYER_1
 40
0.05
 41
0.05
 62
255
 66
1
 10
0
 20
0
 30
0
 70
1
  0
VERTEX
  8
LAYER_1
 10
91.4863
 20
182.5614
  0
VERTEX
  8
LAYER_1
 10
93.2431
 20
182.5614
  0
VERTEX
  8
LAYER_1
 10
93.2431
 20
179.9156
  0
VERTEX
  8
LAYER_1
 10
91.4863
 20
179.9156
  0
SEQEND
  0
TEXT
  8
LAYER_1
 10
93.0611
 20
179.9137
 11
93.0611
 21
179.9137
 40
2.0813
 41
0.5
 50
89.99999999
  1
240
  0
POLYLINE
  8
LAYER_1
 40
0.2963
 41
0.2963
 66
1
 10
0
 20
0
 30
0
  0
VERTEX
  8
LAYER_1
 10
73.3888
 20
181.7782
  0
VERTEX
  8
LAYER_1
 10
89.2426
 20
181.7782
  0
SEQEND
  0
POLYLINE
  8
LAYER_1
 40
0.2963
 41
0.2963
 66
1
 10
0
 20
0
 30
0
  0
VERTEX
  8
LAYER_1
 10
82.8291
 20
187.2392
  0
VERTEX
  8
LAYER_1
 10
89.2426
 20
187.2392
  0
SEQEND
  0
POLYLINE
  8
LAYER_1
 40
0.2963
 41
0.2963
 66
1
 10
0
 20
0
 30
0
  0
VERTEX
  8
LAYER_1
 10
89.2426
 20
187.2392
  0
VERTEX
  8
LAYER_1
 10
89.2426
 20
181.7782
  0
SEQEND
  0
CIRCLE
  8
LAYER_1
 10
89.2532
 20
181.7677
 40
0.2699
  0
CIRCLE
  8
LAYER_1
 10
89.2426
 20
181.7782
 40
0.254
  0
POLYLINE
  8
LAYER_1
 40
0.2963
 41
0.2963
 66
1
 10
0
 20
0
 30
0
  0
VERTEX
  8
LAYER_1
 10
89.2426
 20
181.7782
  0
VERTEX
  8
LAYER_1
 10
89.2426
 20
181.5454
  0
SEQEND
  0
CIRCLE
  8
LAYER_1
 10
89.2532
 20
187.2286
 40
0.2699
  0
CIRCLE
  8
LAYER_1
 10
89.2426
 20
187.2392
 40
0.254
  0
POLYLINE
  8
LAYER_1
 40
0.2963
 41
0.2963
 66
1
 10
0
 20
0
 30
0
  0
VERTEX
  8
LAYER_1
 10
89.2426
 20
187.2392
  0
VERTEX
  8
LAYER_1
 10
89.2426
 20
187.4932
  0
SEQEND
  0
POLYLINE
  8
LAYER_1
 40
0.05
 41
0.05
 62
255
 66
1
 10
0
 20
0
 30
0
 70
1
  0
VERTEX
  8
LAYER_1
 10
86.9778
 20
186.9006
  0
VERTEX
  8
LAYER_1
 10
88.7346
 20
186.9006
  0
VERTEX
  8
LAYER_1
 10
88.7346
 20
182.1381
  0
VERTEX
  8
LAYER_1
 10
86.9778
 20
182.1381
  0
SEQEND
  0
TEXT
  8
LAYER_1
 10
88.5316
 20
182.1372
 11
88.5316
 21
182.1372
 40
2.0813
 41
0.5
 50
89.99999999
  1
108.97
  0
POLYLINE
  8
LAYER_1
 40
0.2963
 41
0.2963
 66
1
 10
0
 20
0
 30
0
  0
VERTEX
  8
LAYER_1
 10
71.8859
 20
180.2966
  0
VERTEX
  8
LAYER_1
 10
71.8859
 20
167.8294
  0
SEQEND
  0
POLYLINE
  8
LAYER_1
 40
0.2963
 41
0.2963
 66
1
 10
0
 20
0
 30
0
  0
VERTEX
  8
LAYER_1
 10
60.0961
 20
169.3322
  0
VERTEX
  8
LAYER_1
 10
60.0961
 20
167.8294
  0
SEQEND
  0
CIRCLE
  8
LAYER_1
 10
71.8965
 20
167.8188
 40
0.2699
  0
CIRCLE
  8
LAYER_1
 10
71.8859
 20
167.8294
 40
0.254
  0
CIRCLE
  8
LAYER_1
 10
60.1067
 20
167.8188
 40
0.2699
  0
CIRCLE
  8
LAYER_1
 10
60.0961
 20
167.8294
 40
0.254
  0
POLYLINE
  8
LAYER_1
 40
0.2963
 41
0.2963
 66
1
 10
0
 20
0
 30
0
  0
VERTEX
  8
LAYER_1
 10
71.8859
 20
167.8294
  0
VERTEX
  8
LAYER_1
 10
60.0961
 20
167.8294
  0
SEQEND
  0
POLYLINE
  8
LAYER_1
 40
0.05
 41
0.05
 62
255
 66
1
 10
0
 20
0
 30
0
 70
1
  0
VERTEX
  8
LAYER_1
 10
63.6098
 20
170.0942
  0
VERTEX
  8
LAYER_1
 10
68.3723
 20
170.0942
  0
VERTEX
  8
LAYER_1
 10
68.3723
 20
168.3374
  0
VERTEX
  8
LAYER_1
 10
63.6098
 20
168.3374
  0
SEQEND
  0
TEXT
  8
LAYER_1
 10
63.6098
 20
168.5387
 11
63.6098
 21
168.5387
 40
2.0812
 41
0.5
  1
236.07
  0
POLYLINE
  8
LAYER_1
 40
0.1693
 41
0.1693
 66
1
 10
0
 20
0
 30
0
  0
VERTEX
  8
LAYER_1
 10
51.439
 20
130.2374
  0
VERTEX
  8
LAYER_1
 10
56.5613
 20
130.2374
  0
SEQEND
  0
POLYLINE
  8
LAYER_1
 40
0.1693
 41
0.1693
 66
1
 10
0
 20
0
 30
0
  0
VERTEX
  8
LAYER_1
 10
56.9211
 20
130.2374
  0
VERTEX
  8
LAYER_1
 10
57.4503
 20
130.2374
  0
SEQEND
  0
POLYLINE
  8
LAYER_1
 40
0.1693
 41
0.1693
 66
1
 10
0
 20
0
 30
0
  0
VERTEX
  8
LAYER_1
 10
57.8101
 20
130.2374
  0
VERTEX
  8
LAYER_1
 10
62.9324
 20
130.2374
  0
SEQEND
  0
POLYLINE
  8
LAYER_1
 40
0.1693
 41
0.1693
 66
1
 10
0
 20
0
 30
0
  0
VERTEX
  8
LAYER_1
 10
63.2923
 20
130.2374
  0
VERTEX
  8
LAYER_1
 10
63.8214
 20
130.2374
  0
SEQEND
  0
POLYLINE
  8
LAYER_1
 40
0.1693
 41
0.1693
 66
1
 10
0
 20
0
 30
0
  0
VERTEX
  8
LAYER_1
 10
64.1813
 20
130.2374
  0
VERTEX
  8
LAYER_1
 10
69.3036
 20
130.2374
  0
SEQEND
  0
POLYLINE
  8
LAYER_1
 40
0.1693
 41
0.1693
 66
1
 10
0
 20
0
 30
0
  0
VERTEX
  8
LAYER_1
 10
69.6634
 20
130.2374
  0
VERTEX
  8
LAYER_1
 10
70.1926
 20
130.2374
  0
SEQEND
  0
POLYLINE
  8
LAYER_1
 40
0.1693
 41
0.1693
 66
1
 10
0
 20
0
 30
0
  0
VERTEX
  8
LAYER_1
 10
70.5525
 20
130.2374
  0
VERTEX
  8
LAYER_1
 10
75.6748
 20
130.2374
  0
SEQEND
  0
POLYLINE
  8
LAYER_1
 40
0.1693
 41
0.1693
 66
1
 10
0
 20
0
 30
0
  0
VERTEX
  8
LAYER_1
 10
76.0346
 20
130.2374
  0
VERTEX
  8
LAYER_1
 10
76.5638
 20
130.2374
  0
SEQEND
  0
POLYLINE
  8
LAYER_1
 40
0.1693
 41
0.1693
 66
1
 10
0
 20
0
 30
0
  0
VERTEX
  8
LAYER_1
 10
76.9236
 20
130.2374
  0
VERTEX
  8
LAYER_1
 10
82.0459
 20
130.2374
  0
SEQEND
  0
POLYLINE
  8
LAYER_1
 40
0.1693
 41
0.1693
 66
1
 10
0
 20
0
 30
0
  0
VERTEX
  8
LAYER_1
 10
82.4058
 20
130.2374
  0
VERTEX
  8
LAYER_1
 10
82.935
 20
130.2374
  0
SEQEND
  0
POLYLINE
  8
LAYER_1
 40
0.1693
 41
0.1693
 66
1
 10
0
 20
0
 30
0
  0
VERTEX
  8
LAYER_1
 10
83.2948
 20
130.2374
  0
VERTEX
  8
LAYER_1
 10
85.7924
 20
130.2374
  0
SEQEND
  0
POLYLINE
  8
LAYER_1
 40
0.1693
 41
0.1693
 66
1
 10
0
 20
0
 30
0
  0
VERTEX
  8
LAYER_1
 10
52.3279
 20
86.7399
  0
VERTEX
  8
LAYER_1
 10
57.4503
 20
86.7399
  0
SEQEND
  0
POLYLINE
  8
LAYER_1
 40
0.1693
 41
0.1693
 66
1
 10
0
 20
0
 30
0
  0
VERTEX
  8
LAYER_1
 10
57.8101
 20
86.7399
  0
VERTEX
  8
LAYER_1
 10
58.3393
 20
86.7399
  0
SEQEND
  0
POLYLINE
  8
LAYER_1
 40
0.1693
 41
0.1693
 66
1
 10
0
 20
0
 30
0
  0
VERTEX
  8
LAYER_1
 10
58.6991
 20
86.7399
  0
VERTEX
  8
LAYER_1
 10
63.8214
 20
86.7399
  0
SEQEND
  0
POLYLINE
  8
LAYER_1
 40
0.1693
 41
0.1693
 66
1
 10
0
 20
0
 30
0
  0
VERTEX
  8
LAYER_1
 10
64.1813
 20
86.7399
  0
VERTEX
  8
LAYER_1
 10
64.7105
 20
86.7399
  0
SEQEND
  0
POLYLINE
  8
LAYER_1
 40
0.1693
 41
0.1693
 66
1
 10
0
 20
0
 30
0
  0
VERTEX
  8
LAYER_1
 10
65.0703
 20
86.7399
  0
VERTEX
  8
LAYER_1
 10
70.1926
 20
86.7399
  0
SEQEND
  0
POLYLINE
  8
LAYER_1
 40
0.1693
 41
0.1693
 66
1
 10
0
 20
0
 30
0
  0
VERTEX
  8
LAYER_1
 10
70.5525
 20
86.7399
  0
VERTEX
  8
LAYER_1
 10
71.0816
 20
86.7399
  0
SEQEND
  0
POLYLINE
  8
LAYER_1
 40
0.1693
 41
0.1693
 66
1
 10
0
 20
0
 30
0
  0
VERTEX
  8
LAYER_1
 10
71.4415
 20
86.7399
  0
VERTEX
  8
LAYER_1
 10
76.5638
 20
86.7399
  0
SEQEND
  0
POLYLINE
  8
LAYER_1
 40
0.1693
 41
0.1693
 66
1
 10
0
 20
0
 30
0
  0
VERTEX
  8
LAYER_1
 10
76.9236
 20
86.7399
  0
VERTEX
  8
LAYER_1
 10
77.4528
 20
86.7399
  0
SEQEND
  0
POLYLINE
  8
LAYER_1
 40
0.1693
 41
0.1693
 66
1
 10
0
 20
0
 30
0
  0
VERTEX
  8
LAYER_1
 10
77.8126
 20
86.7399
  0
VERTEX
  8
LAYER_1
 10
82.935
 20
86.7399
  0
SEQEND
  0
POLYLINE
  8
LAYER_1
 40
0.1693
 41
0.1693
 66
1
 10
0
 20
0
 30
0
  0
VERTEX
  8
LAYER_1
 10
83.2948
 20
86.7399
  0
VERTEX
  8
LAYER_1
 10
83.8239
 20
86.7399
  0
SEQEND
  0
POLYLINE
  8
LAYER_1
 40
0.1693
 41
0.1693
 66
1
 10
0
 20
0
 30
0
  0
VERTEX
  8
LAYER_1
 10
84.1838
 20
86.7399
  0
VERTEX
  8
LAYER_1
 10
89.3061
 20
86.7399
  0
SEQEND
  0
POLYLINE
  8
LAYER_1
 40
0.1693
 41
0.1693
 66
1
 10
0
 20
0
 30
0
  0
VERTEX
  8
LAYER_1
 10
89.666
 20
86.7399
  0
VERTEX
  8
LAYER_1
 10
90.1951
 20
86.7399
  0
SEQEND
  0
POLYLINE
  8
LAYER_1
 40
0.1693
 41
0.1693
 66
1
 10
0
 20
0
 30
0
  0
VERTEX
  8
LAYER_1
 10
90.5549
 20
86.7399
  0
VERTEX
  8
LAYER_1
 10
95.6773
 20
86.7399
  0
SEQEND
  0
POLYLINE
  8
LAYER_1
 40
0.1693
 41
0.1693
 66
1
 10
0
 20
0
 30
0
  0
VERTEX
  8
LAYER_1
 10
96.0371
 20
86.7399
  0
VERTEX
  8
LAYER_1
 10
96.5663
 20
86.7399
  0
SEQEND
  0
POLYLINE
  8
LAYER_1
 40
0.1693
 41
0.1693
 66
1
 10
0
 20
0
 30
0
  0
VERTEX
  8
LAYER_1
 10
96.9261
 20
86.7399
  0
VERTEX
  8
LAYER_1
 10
102.0484
 20
86.7399
  0
SEQEND
  0
POLYLINE
  8
LAYER_1
 40
0.1693
 41
0.1693
 66
1
 10
0
 20
0
 30
0
  0
VERTEX
  8
LAYER_1
 10
102.4083
 20
86.7399
  0
VERTEX
  8
LAYER_1
 10
102.9374
 20
86.7399
  0
SEQEND
  0
POLYLINE
  8
LAYER_1
 40
0.1693
 41
0.1693
 66
1
 10
0
 20
0
 30
0
  0
VERTEX
  8
LAYER_1
 10
103.2973
 20
86.7399
  0
VERTEX
  8
LAYER_1
 10
108.4196
 20
86.7399
  0
SEQEND
  0
POLYLINE
  8
LAYER_1
 40
0.1693
 41
0.1693
 66
1
 10
0
 20
0
 30
0
  0
VERTEX
  8
LAYER_1
 10
108.7794
 20
86.7399
  0
VERTEX
  8
LAYER_1
 10
109.3086
 20
86.7399
  0
SEQEND
  0
POLYLINE
  8
LAYER_1
 40
0.1693
 41
0.1693
 66
1
 10
0
 20
0
 30
0
  0
VERTEX
  8
LAYER_1
 10
109.6684
 20
86.7399
  0
VERTEX
  8
LAYER_1
 10
114.7908
 20
86.7399
  0
SEQEND
  0
POLYLINE
  8
LAYER_1
 40
0.1693
 41
0.1693
 66
1
 10
0
 20
0
 30
0
  0
VERTEX
  8
LAYER_1
 10
115.1506
 20
86.7399
  0
VERTEX
  8
LAYER_1
 10
115.6798
 20
86.7399
  0
SEQEND
  0
POLYLINE
  8
LAYER_1
 40
0.1693
 41
0.1693
 66
1
 10
0
 20
0
 30
0
  0
VERTEX
  8
LAYER_1
 10
116.0396
 20
86.7399
  0
VERTEX
  8
LAYER_1
 10
121.1619
 20
86.7399
  0
SEQEND
  0
POLYLINE
  8
LAYER_1
 40
0.1693
 41
0.1693
 66
1
 10
0
 20
0
 30
0
  0
VERTEX
  8
LAYER_1
 10
121.5218
 20
86.7399
  0
VERTEX
  8
LAYER_1
 10
122.0509
 20
86.7399
  0
SEQEND
  0
POLYLINE
  8
LAYER_1
 40
0.1693
 41
0.1693
 66
1
 10
0
 20
0
 30
0
  0
VERTEX
  8
LAYER_1
 10
122.4108
 20
86.7399
  0
VERTEX
  8
LAYER_1
 10
127.5331
 20
86.7399
  0
SEQEND
  0
POLYLINE
  8
LAYER_1
 40
0.1693
 41
0.1693
 66
1
 10
0
 20
0
 30
0
  0
VERTEX
  8
LAYER_1
 10
127.8929
 20
86.7399
  0
VERTEX
  8
LAYER_1
 10
128.147
 20
86.7399
  0
SEQEND
  0
POLYLINE
  8
LAYER_1
 40
0.1693
 41
0.1693
 66
1
 10
0
 20
0
 30
0
  0
VERTEX
  8
LAYER_1
 10
59.9903
 20
127.7397
  0
VERTEX
  8
LAYER_1
 10
59.9903
 20
129.3272
  0
SEQEND
  0
POLYLINE
  8
LAYER_1
 40
0.1693
 41
0.1693
 66
1
 10
0
 20
0
 30
0
  0
VERTEX
  8
LAYER_1
 10
59.9903
 20
129.8564
  0
VERTEX
  8
LAYER_1
 10
59.9903
 20
130.0257
  0
SEQEND
  0
POLYLINE
  8
LAYER_1
 40
0.1693
 41
0.1693
 66
1
 10
0
 20
0
 30
0
  0
VERTEX
  8
LAYER_1
 10
59.9903
 20
130.3856
  0
VERTEX
  8
LAYER_1
 10
59.9903
 20
131.9731
  0
SEQEND
  0
POLYLINE
  8
LAYER_1
 40
0.1693
 41
0.1693
 66
1
 10
0
 20
0
 30
0
  0
VERTEX
  8
LAYER_1
 10
59.9903
 20
132.5022
  0
VERTEX
  8
LAYER_1
 10
59.9903
 20
132.6716
  0
SEQEND
  0
POLYLINE
  8
LAYER_1
 40
0.1693
 41
0.1693
 66
1
 10
0
 20
0
 30
0
  0
VERTEX
  8
LAYER_1
 10
62.4879
 20
130.2374
  0
VERTEX
  8
LAYER_1
 10
60.9004
 20
130.2374
  0
SEQEND
  0
POLYLINE
  8
LAYER_1
 40
0.1693
 41
0.1693
 66
1
 10
0
 20
0
 30
0
  0
VERTEX
  8
LAYER_1
 10
60.3713
 20
130.2374
  0
VERTEX
  8
LAYER_1
 10
60.2019
 20
130.2374
  0
SEQEND
  0
POLYLINE
  8
LAYER_1
 40
0.1693
 41
0.1693
 66
1
 10
0
 20
0
 30
0
  0
VERTEX
  8
LAYER_1
 10
59.8421
 20
130.2374
  0
VERTEX
  8
LAYER_1
 10
58.2546
 20
130.2374
  0
SEQEND
  0
POLYLINE
  8
LAYER_1
 40
0.1693
 41
0.1693
 66
1
 10
0
 20
0
 30
0
  0
VERTEX
  8
LAYER_1
 10
57.7254
 20
130.2374
  0
VERTEX
  8
LAYER_1
 10
57.5561
 20
130.2374
  0
SEQEND
  0
POLYLINE
  8
LAYER_1
 40
0.1693
 41
0.1693
 66
1
 10
0
 20
0
 30
0
  0
VERTEX
  8
LAYER_1
 10
59.9903
 20
130.2374
  0
VERTEX
  8
LAYER_1
 10
61.3873
 20
130.9994
  0
SEQEND
  0
POLYLINE
  8
LAYER_1
 40
0.1693
 41
0.1693
 66
1
 10
0
 20
0
 30
0
  0
VERTEX
  8
LAYER_1
 10
61.8318
 20
131.2746
  0
VERTEX
  8
LAYER_1
 10
61.9799
 20
131.3381
  0
SEQEND
  0
POLYLINE
  8
LAYER_1
 40
0.1693
 41
0.1693
 66
1
 10
0
 20
0
 30
0
  0
VERTEX
  8
LAYER_1
 10
62.2974
 20
131.5286
  0
VERTEX
  8
LAYER_1
 10
63.6944
 20
132.2906
  0
SEQEND
  0
POLYLINE
  8
LAYER_1
 40
0.1693
 41
0.1693
 66
1
 10
0
 20
0
 30
0
  0
VERTEX
  8
LAYER_1
 10
64.1601
 20
132.5446
  0
VERTEX
  8
LAYER_1
 10
64.3083
 20
132.6292
  0
SEQEND
  0
POLYLINE
  8
LAYER_1
 40
0.1693
 41
0.1693
 66
1
 10
0
 20
0
 30
0
  0
VERTEX
  8
LAYER_1
 10
64.6258
 20
132.7986
  0
VERTEX
  8
LAYER_1
 10
66.0016
 20
133.5817
  0
SEQEND
  0
POLYLINE
  8
LAYER_1
 40
0.1693
 41
0.1693
 66
1
 10
0
 20
0
 30
0
  0
VERTEX
  8
LAYER_1
 10
66.4673
 20
133.8357
  0
VERTEX
  8
LAYER_1
 10
66.6154
 20
133.9204
  0
SEQEND
  0
POLYLINE
  8
LAYER_1
 40
0.1693
 41
0.1693
 66
1
 10
0
 20
0
 30
0
  0
VERTEX
  8
LAYER_1
 10
66.9329
 20
134.0897
  0
VERTEX
  8
LAYER_1
 10
68.3299
 20
134.8517
  0
SEQEND
  0
POLYLINE
  8
LAYER_1
 40
0.1693
 41
0.1693
 66
1
 10
0
 20
0
 30
0
  0
VERTEX
  8
LAYER_1
 10
68.7744
 20
135.1057
  0
VERTEX
  8
LAYER_1
 10
68.9226
 20
135.1904
  0
SEQEND
  0
POLYLINE
  8
LAYER_1
 40
0.1693
 41
0.1693
 66
1
 10
0
 20
0
 30
0
  0
VERTEX
  8
LAYER_1
 10
69.2401
 20
135.3809
  0
VERTEX
  8
LAYER_1
 10
70.6371
 20
136.1429
  0
SEQEND
  0
POLYLINE
  8
LAYER_1
 40
0.1693
 41
0.1693
 66
1
 10
0
 20
0
 30
0
  0
VERTEX
  8
LAYER_1
 10
71.1028
 20
136.3969
  0
VERTEX
  8
LAYER_1
 10
71.2509
 20
136.4816
  0
SEQEND
  0
POLYLINE
  8
LAYER_1
 40
0.1693
 41
0.1693
 66
1
 10
0
 20
0
 30
0
  0
VERTEX
  8
LAYER_1
 10
71.5684
 20
136.6509
  0
VERTEX
  8
LAYER_1
 10
71.7801
 20
136.7779
  0
SEQEND
  0
CIRCLE
  8
LAYER_1
 10
59.9903
 20
130.2374
 40
2.4977
  0
CIRCLE
  8
LAYER_1
 10
71.7907
 20
136.7885
 40
0.8784
  0
TEXT
  8
LAYER_1
 10
72.4997
 20
137.794
 11
72.4997
 21
137.794
 40
2.0812
 41
0.5
  1
φ35
  0
TEXT
  8
LAYER_1
 10
55.2067
 20
125.6865
 11
55.2067
 21
125.6865
 40
2.0812
 41
0.5
  1
φ100
  0
POLYLINE
  8
LAYER_1
 40
0.1693
 41
0.1693
 66
1
 10
0
 20
0
 30
0
  0
VERTEX
  8
LAYER_1
 10
71.7801
 20
136.7779
  0
VERTEX
  8
LAYER_1
 10
71.8436
 20
136.6932
  0
VERTEX
  8
LAYER_1
 10
71.8859
 20
136.6086
  0
VERTEX
  8
LAYER_1
 10
71.9495
 20
136.5027
  0
VERTEX
  8
LAYER_1
 10
71.9918
 20
136.4181
  0
VERTEX
  8
LAYER_1
 10
72.0341
 20
136.3122
  0
VERTEX
  8
LAYER_1
 10
72.0765
 20
136.2276
  0
VERTEX
  8
LAYER_1
 10
72.14
 20
136.1217
  0
VERTEX
  8
LAYER_1
 10
72.1823
 20
136.0371
  0
VERTEX
  8
LAYER_1
 10
72.2246
 20
135.9312
  0
VERTEX
  8
LAYER_1
 10
72.267
 20
135.8466
  0
VERTEX
  8
LAYER_1
 10
72.3093
 20
135.7407
  0
VERTEX
  8
LAYER_1
 10
72.3516
 20
135.6349
  0
VERTEX
  8
LAYER_1
 10
72.394
 20
135.5502
  0
VERTEX
  8
LAYER_1
 10
72.4363
 20
135.4444
  0
VERTEX
  8
LAYER_1
 10
72.4575
 20
135.3386
  0
VERTEX
  8
LAYER_1
 10
72.4998
 20
135.2539
  0
VERTEX
  8
LAYER_1
 10
72.5421
 20
135.1481
  0
VERTEX
  8
LAYER_1
 10
72.5845
 20
135.0422
  0
VERTEX
  8
LAYER_1
 10
72.6056
 20
134.9364
  0
VERTEX
  8
LAYER_1
 10
72.648
 20
134.8517
  0
VERTEX
  8
LAYER_1
 10
72.6691
 20
134.7459
  0
VERTEX
  8
LAYER_1
 10
72.7115
 20
134.6401
  0
VERTEX
  8
LAYER_1
 10
72.7326
 20
134.5342
  0
VERTEX
  8
LAYER_1
 10
72.775
 20
134.4496
  0
VERTEX
  8
LAYER_1
 10
72.7961
 20
134.3437
  0
VERTEX
  8
LAYER_1
 10
72.8385
 20
134.2379
  0
VERTEX
  8
LAYER_1
 10
72.8596
 20
134.1321
  0
VERTEX
  8
LAYER_1
 10
72.8808
 20
134.0262
  0
VERTEX
  8
LAYER_1
 10
72.902
 20
133.9204
  0
VERTEX
  8
LAYER_1
 10
72.9443
 20
133.8146
  0
VERTEX
  8
LAYER_1
 10
72.9654
 20
133.7299
  0
VERTEX
  8
LAYER_1
 10
72.9866
 20
133.6241
  0
VERTEX
  8
LAYER_1
 10
73.0078
 20
133.5182
  0
VERTEX
  8
LAYER_1
 10
73.029
 20
133.4124
  0
VERTEX
  8
LAYER_1
 10
73.0501
 20
133.3066
  0
VERTEX
  8
LAYER_1
 10
73.0713
 20
133.2007
  0
VERTEX
  8
LAYER_1
 10
73.0713
 20
133.0949
  0
VERTEX
  8
LAYER_1
 10
73.0924
 20
132.9891
  0
VERTEX
  8
LAYER_1
 10
73.1136
 20
132.8832
  0
VERTEX
  8
LAYER_1
 10
73.1348
 20
132.7774
  0
VERTEX
  8
LAYER_1
 10
73.1348
 20
132.6716
  0
VERTEX
  8
LAYER_1
 10
73.156
 20
132.5657
  0
VERTEX
  8
LAYER_1
 10
73.1771
 20
132.4599
  0
VERTEX
  8
LAYER_1
 10
73.1771
 20
132.3541
  0
VERTEX
  8
LAYER_1
 10
73.1983
 20
132.2482
  0
VERTEX
  8
LAYER_1
 10
73.1983
 20
132.1424
  0
VERTEX
  8
LAYER_1
 10
73.1983
 20
132.0366
  0
VERTEX
  8
LAYER_1
 10
73.2194
 20
131.9307
  0
VERTEX
  8
LAYER_1
 10
73.2194
 20
131.8249
  0
VERTEX
  8
LAYER_1
 10
73.2194
 20
131.7191
  0
VERTEX
  8
LAYER_1
 10
73.2406
 20
131.6132
  0
VERTEX
  8
LAYER_1
 10
73.2406
 20
131.5074
  0
VERTEX
  8
LAYER_1
 10
73.2406
 20
131.4016
  0
VERTEX
  8
LAYER_1
 10
73.2406
 20
131.2957
  0
VERTEX
  8
LAYER_1
 10
73.2406
 20
131.1899
  0
VERTEX
  8
LAYER_1
 10
73.2406
 20
131.0841
  0
VERTEX
  8
LAYER_1
 10
73.2406
 20
130.9782
  0
VERTEX
  8
LAYER_1
 10
73.2406
 20
130.8724
  0
VERTEX
  8
LAYER_1
 10
73.2406
 20
130.7666
  0
VERTEX
  8
LAYER_1
 10
73.2194
 20
130.6607
  0
VERTEX
  8
LAYER_1
 10
73.2194
 20
130.5549
  0
VERTEX
  8
LAYER_1
 10
73.2194
 20
130.4491
  0
VERTEX
  8
LAYER_1
 10
73.1983
 20
130.3432
  0
VERTEX
  8
LAYER_1
 10
73.1983
 20
130.2374
  0
SEQEND
  0
TEXT
  8
LAYER_1
 10
72.9001
 20
134.769
 11
72.9001
 21
134.769
 40
2.081
 41
0.5
 50
284.4999645
  1
2
  0
TEXT
  8
LAYER_1
 10
73.1117
 20
133.9234
 11
73.1117
 21
133.9234
 40
2.081
 41
0.5
 50
284.4999645
  1
9
  0
TEXT
  8
LAYER_1
 10
73.3944
 20
133.0682
 11
73.3944
 21
133.0682
 40
1.8254
 41
0.5
 50
284.4999645
  1
ﾟ
  0
POLYLINE
  8
LAYER_1
 40
0.2963
 41
0.2963
 66
1
 10
0
 20
0
 30
0
  0
VERTEX
  8
LAYER_1
 10
59.2494
 20
131.5497
  0
VERTEX
  8
LAYER_1
 10
56.9211
 20
135.7619
  0
SEQEND
  0
POLYLINE
  8
LAYER_1
 40
0.2963
 41
0.2963
 66
1
 10
0
 20
0
 30
0
  0
VERTEX
  8
LAYER_1
 10
71.0605
 20
138.0902
  0
VERTEX
  8
LAYER_1
 10
68.7109
 20
142.3236
  0
SEQEND
  0
CIRCLE
  8
LAYER_1
 10
56.9317
 20
135.7513
 40
0.2699
  0
CIRCLE
  8
LAYER_1
 10
56.9211
 20
135.7619
 40
0.254
  0
CIRCLE
  8
LAYER_1
 10
68.7215
 20
142.313
 40
0.2699
  0
CIRCLE
  8
LAYER_1
 10
68.7109
 20
142.3236
 40
0.254
  0
POLYLINE
  8
LAYER_1
 40
0.2963
 41
0.2963
 66
1
 10
0
 20
0
 30
0
  0
VERTEX
  8
LAYER_1
 10
56.9211
 20
135.7619
  0
VERTEX
  8
LAYER_1
 10
68.7109
 20
142.3236
  0
SEQEND
  0
POLYLINE
  8
LAYER_1
 40
0.05
 41
0.05
 62
255
 66
1
 10
0
 20
0
 30
0
 70
1
  0
VERTEX
  8
LAYER_1
 10
60.5618
 20
140.3762
  0
VERTEX
  8
LAYER_1
 10
62.8689
 20
141.6674
  0
VERTEX
  8
LAYER_1
 10
63.7368
 20
140.1222
  0
VERTEX
  8
LAYER_1
 10
61.4084
 20
138.8311
  0
SEQEND
  0
TEXT
  8
LAYER_1
 10
61.3374
 20
139.0188
 11
61.3374
 21
139.0188
 40
2.0808
 41
0.5
 50
29.00001305
  1
2
  0
TEXT
  8
LAYER_1
 10
62.096
 20
139.4472
 11
62.096
 21
139.4472
 40
2.0808
 41
0.5
 50
29.00001305
  1
7
  0
TEXT
  8
LAYER_1
 10
62.883
 20
139.8673
 11
62.883
 21
139.8673
 40
2.0808
 41
0.5
 50
29.00001305
  1
0
  0
POLYLINE
  8
LAYER_1
 40
0.2963
 41
0.2963
 66
1
 10
0
 20
0
 30
0
  0
VERTEX
  8
LAYER_1
 10
82.3423
 20
130.2374
  0
VERTEX
  8
LAYER_1
 10
84.8399
 20
130.2374
  0
SEQEND
  0
POLYLINE
  8
LAYER_1
 40
0.2963
 41
0.2963
 66
1
 10
0
 20
0
 30
0
  0
VERTEX
  8
LAYER_1
 10
82.7444
 20
142.2389
  0
VERTEX
  8
LAYER_1
 10
84.8399
 20
142.2389
  0
SEQEND
  0
CIRCLE
  8
LAYER_1
 10
84.8505
 20
130.2268
 40
0.2699
  0
CIRCLE
  8
LAYER_1
 10
84.84
 20
130.2374
 40
0.254
  0
CIRCLE
  8
LAYER_1
 10
84.8505
 20
142.2283
 40
0.2699
  0
CIRCLE
  8
LAYER_1
 10
84.84
 20
142.2389
 40
0.254
  0
POLYLINE
  8
LAYER_1
 40
0.2963
 41
0.2963
 66
1
 10
0
 20
0
 30
0
  0
VERTEX
  8
LAYER_1
 10
84.8399
 20
130.2374
  0
VERTEX
  8
LAYER_1
 10
84.8399
 20
142.2389
  0
SEQEND
  0
POLYLINE
  8
LAYER_1
 40
0.05
 41
0.05
 62
255
 66
1
 10
0
 20
0
 30
0
 70
1
  0
VERTEX
  8
LAYER_1
 10
82.5751
 20
137.5611
  0
VERTEX
  8
LAYER_1
 10
84.3319
 20
137.5611
  0
VERTEX
  8
LAYER_1
 10
84.3319
 20
134.9152
  0
VERTEX
  8
LAYER_1
 10
82.5751
 20
134.9152
  0
SEQEND
  0
TEXT
  8
LAYER_1
 10
84.1532
 20
134.9184
 11
84.1532
 21
134.9184
 40
2.0813
 41
0.5
 50
89.99999999
  1
240
  0
POLYLINE
  8
LAYER_1
 40
0.2963
 41
0.2963
 66
1
 10
0
 20
0
 30
0
  0
VERTEX
  8
LAYER_1
 10
73.2829
 20
136.7779
  0
VERTEX
  8
LAYER_1
 10
80.2468
 20
136.7779
  0
SEQEND
  0
POLYLINE
  8
LAYER_1
 40
0.2963
 41
0.2963
 66
1
 10
0
 20
0
 30
0
  0
VERTEX
  8
LAYER_1
 10
79.7388
 20
142.2389
  0
VERTEX
  8
LAYER_1
 10
80.2468
 20
142.2389
  0
SEQEND
  0
POLYLINE
  8
LAYER_1
 40
0.2963
 41
0.2963
 66
1
 10
0
 20
0
 30
0
  0
VERTEX
  8
LAYER_1
 10
80.2468
 20
142.2389
  0
VERTEX
  8
LAYER_1
 10
80.2468
 20
136.7779
  0
SEQEND
  0
CIRCLE
  8
LAYER_1
 10
80.2574
 20
136.7673
 40
0.2699
  0
CIRCLE
  8
LAYER_1
 10
80.2468
 20
136.7779
 40
0.254
  0
POLYLINE
  8
LAYER_1
 40
0.2963
 41
0.2963
 66
1
 10
0
 20
0
 30
0
  0
VERTEX
  8
LAYER_1
 10
80.2468
 20
136.7779
  0
VERTEX
  8
LAYER_1
 10
80.2468
 20
136.5451
  0
SEQEND
  0
CIRCLE
  8
LAYER_1
 10
80.2574
 20
142.2283
 40
0.2699
  0
CIRCLE
  8
LAYER_1
 10
80.2468
 20
142.2389
 40
0.254
  0
POLYLINE
  8
LAYER_1
 40
0.2963
 41
0.2963
 66
1
 10
0
 20
0
 30
0
  0
VERTEX
  8
LAYER_1
 10
80.2468
 20
142.2389
  0
VERTEX
  8
LAYER_1
 10
80.2468
 20
142.4929
  0
SEQEND
  0
POLYLINE
  8
LAYER_1
 40
0.05
 41
0.05
 62
255
 66
1
 10
0
 20
0
 30
0
 70
1
  0
VERTEX
  8
LAYER_1
 10
77.9819
 20
141.8156
  0
VERTEX
  8
LAYER_1
 10
79.7388
 20
141.8156
  0
VERTEX
  8
LAYER_1
 10
79.7388
 20
137.0531
  0
VERTEX
  8
LAYER_1
 10
77.9819
 20
137.0531
  0
SEQEND
  0
TEXT
  8
LAYER_1
 10
79.5346
 20
137.0523
 11
79.5346
 21
137.0523
 40
2.0813
 41
0.5
 50
89.99999999
  1
108.97
  0
POLYLINE
  8
LAYER_1
 40
0.2963
 41
0.2963
 66
1
 10
0
 20
0
 30
0
  0
VERTEX
  8
LAYER_1
 10
71.7801
 20
135.2962
  0
VERTEX
  8
LAYER_1
 10
71.7801
 20
122.8291
  0
SEQEND
  0
POLYLINE
  8
LAYER_1
 40
0.2963
 41
0.2963
 66
1
 10
0
 20
0
 30
0
  0
VERTEX
  8
LAYER_1
 10
59.9903
 20
124.3319
  0
VERTEX
  8
LAYER_1
 10
59.9903
 20
122.8291
  0
SEQEND
  0
CIRCLE
  8
LAYER_1
 10
71.7907
 20
122.8185
 40
0.2699
  0
CIRCLE
  8
LAYER_1
 10
71.7801
 20
122.8291
 40
0.254
  0
CIRCLE
  8
LAYER_1
 10
60.0009
 20
122.8185
 40
0.2699
  0
CIRCLE
  8
LAYER_1
 10
59.9903
 20
122.8291
 40
0.254
  0
POLYLINE
  8
LAYER_1
 40
0.2963
 41
0.2963
 66
1
 10
0
 20
0
 30
0
  0
VERTEX
  8
LAYER_1
 10
71.7801
 20
122.8291
  0
VERTEX
  8
LAYER_1
 10
59.9903
 20
122.8291
  0
SEQEND
  0
POLYLINE
  8
LAYER_1
 40
0.05
 41
0.05
 62
255
 66
1
 10
0
 20
0
 30
0
 70
1
  0
VERTEX
  8
LAYER_1
 10
63.504
 20
125.0939
  0
VERTEX
  8
LAYER_1
 10
68.2665
 20
125.0939
  0
VERTEX
  8
LAYER_1
 10
68.2665
 20
123.3371
  0
VERTEX
  8
LAYER_1
 10
63.504
 20
123.3371
  0
SEQEND
  0
TEXT
  8
LAYER_1
 10
63.5039
 20
123.5382
 11
63.5039
 21
123.5382
 40
2.0812
 41
0.5
  1
236.07
  0
POLYLINE
  8
LAYER_1
 40
0.1693
 41
0.1693
 66
1
 10
0
 20
0
 30
0
  0
VERTEX
  8
LAYER_1
 10
59.9903
 20
84.2422
  0
VERTEX
  8
LAYER_1
 10
59.9903
 20
85.8297
  0
SEQEND
  0
POLYLINE
  8
LAYER_1
 40
0.1693
 41
0.1693
 66
1
 10
0
 20
0
 30
0
  0
VERTEX
  8
LAYER_1
 10
59.9903
 20
86.3589
  0
VERTEX
  8
LAYER_1
 10
59.9903
 20
86.5282
  0
SEQEND
  0
POLYLINE
  8
LAYER_1
 40
0.1693
 41
0.1693
 66
1
 10
0
 20
0
 30
0
  0
VERTEX
  8
LAYER_1
 10
59.9903
 20
86.8881
  0
VERTEX
  8
LAYER_1
 10
59.9903
 20
88.4756
  0
SEQEND
  0
POLYLINE
  8
LAYER_1
 40
0.1693
 41
0.1693
 66
1
 10
0
 20
0
 30
0
  0
VERTEX
  8
LAYER_1
 10
59.9903
 20
89.0047
  0
VERTEX
  8
LAYER_1
 10
59.9903
 20
89.1741
  0
SEQEND
  0
POLYLINE
  8
LAYER_1
 40
0.1693
 41
0.1693
 66
1
 10
0
 20
0
 30
0
  0
VERTEX
  8
LAYER_1
 10
62.4879
 20
86.7399
  0
VERTEX
  8
LAYER_1
 10
60.9004
 20
86.7399
  0
SEQEND
  0
POLYLINE
  8
LAYER_1
 40
0.1693
 41
0.1693
 66
1
 10
0
 20
0
 30
0
  0
VERTEX
  8
LAYER_1
 10
60.3713
 20
86.7399
  0
VERTEX
  8
LAYER_1
 10
60.2019
 20
86.7399
  0
SEQEND
  0
POLYLINE
  8
LAYER_1
 40
0.1693
 41
0.1693
 66
1
 10
0
 20
0
 30
0
  0
VERTEX
  8
LAYER_1
 10
59.8421
 20
86.7399
  0
VERTEX
  8
LAYER_1
 10
58.2546
 20
86.7399
  0
SEQEND
  0
POLYLINE
  8
LAYER_1
 40
0.1693
 41
0.1693
 66
1
 10
0
 20
0
 30
0
  0
VERTEX
  8
LAYER_1
 10
57.7254
 20
86.7399
  0
VERTEX
  8
LAYER_1
 10
57.5561
 20
86.7399
  0
SEQEND
  0
POLYLINE
  8
LAYER_1
 40
0.1693
 41
0.1693
 66
1
 10
0
 20
0
 30
0
  0
VERTEX
  8
LAYER_1
 10
59.9903
 20
86.7399
  0
VERTEX
  8
LAYER_1
 10
61.3873
 20
87.5019
  0
SEQEND
  0
POLYLINE
  8
LAYER_1
 40
0.1693
 41
0.1693
 66
1
 10
0
 20
0
 30
0
  0
VERTEX
  8
LAYER_1
 10
61.8318
 20
87.7771
  0
VERTEX
  8
LAYER_1
 10
61.9799
 20
87.8406
  0
SEQEND
  0
POLYLINE
  8
LAYER_1
 40
0.1693
 41
0.1693
 66
1
 10
0
 20
0
 30
0
  0
VERTEX
  8
LAYER_1
 10
62.2974
 20
88.0311
  0
VERTEX
  8
LAYER_1
 10
63.6944
 20
88.7931
  0
SEQEND
  0
POLYLINE
  8
LAYER_1
 40
0.1693
 41
0.1693
 66
1
 10
0
 20
0
 30
0
  0
VERTEX
  8
LAYER_1
 10
64.1601
 20
89.0471
  0
VERTEX
  8
LAYER_1
 10
64.3083
 20
89.1317
  0
SEQEND
  0
POLYLINE
  8
LAYER_1
 40
0.1693
 41
0.1693
 66
1
 10
0
 20
0
 30
0
  0
VERTEX
  8
LAYER_1
 10
64.6258
 20
89.3011
  0
VERTEX
  8
LAYER_1
 10
66.0016
 20
90.0842
  0
SEQEND
  0
POLYLINE
  8
LAYER_1
 40
0.1693
 41
0.1693
 66
1
 10
0
 20
0
 30
0
  0
VERTEX
  8
LAYER_1
 10
66.4673
 20
90.3382
  0
VERTEX
  8
LAYER_1
 10
66.6154
 20
90.4229
  0
SEQEND
  0
POLYLINE
  8
LAYER_1
 40
0.1693
 41
0.1693
 66
1
 10
0
 20
0
 30
0
  0
VERTEX
  8
LAYER_1
 10
66.9329
 20
90.5922
  0
VERTEX
  8
LAYER_1
 10
68.3299
 20
91.3542
  0
SEQEND
  0
POLYLINE
  8
LAYER_1
 40
0.1693
 41
0.1693
 66
1
 10
0
 20
0
 30
0
  0
VERTEX
  8
LAYER_1
 10
68.7744
 20
91.6082
  0
VERTEX
  8
LAYER_1
 10
68.9226
 20
91.6929
  0
SEQEND
  0
POLYLINE
  8
LAYER_1
 40
0.1693
 41
0.1693
 66
1
 10
0
 20
0
 30
0
  0
VERTEX
  8
LAYER_1
 10
69.2401
 20
91.8834
  0
VERTEX
  8
LAYER_1
 10
70.6371
 20
92.6454
  0
SEQEND
  0
POLYLINE
  8
LAYER_1
 40
0.1693
 41
0.1693
 66
1
 10
0
 20
0
 30
0
  0
VERTEX
  8
LAYER_1
 10
71.1028
 20
92.8994
  0
VERTEX
  8
LAYER_1
 10
71.2509
 20
92.9841
  0
SEQEND
  0
POLYLINE
  8
LAYER_1
 40
0.1693
 41
0.1693
 66
1
 10
0
 20
0
 30
0
  0
VERTEX
  8
LAYER_1
 10
71.5684
 20
93.1534
  0
VERTEX
  8
LAYER_1
 10
71.7801
 20
93.2804
  0
SEQEND
  0
CIRCLE
  8
LAYER_1
 10
59.9903
 20
86.7399
 40
2.4977
  0
CIRCLE
  8
LAYER_1
 10
71.7907
 20
93.291
 40
0.8784
  0
TEXT
  8
LAYER_1
 10
72.4997
 20
94.2966
 11
72.4997
 21
94.2966
 40
2.0812
 41
0.5
  1
φ35
  0
TEXT
  8
LAYER_1
 10
55.2067
 20
82.1891
 11
55.2067
 21
82.1891
 40
2.0812
 41
0.5
  1
φ100
  0
POLYLINE
  8
LAYER_1
 40
0.1693
 41
0.1693
 66
1
 10
0
 20
0
 30
0
  0
VERTEX
  8
LAYER_1
 10
71.7801
 20
93.2804
  0
VERTEX
  8
LAYER_1
 10
71.8436
 20
93.1957
  0
VERTEX
  8
LAYER_1
 10
71.8859
 20
93.1111
  0
VERTEX
  8
LAYER_1
 10
71.9495
 20
93.0052
  0
VERTEX
  8
LAYER_1
 10
71.9918
 20
92.9206
  0
VERTEX
  8
LAYER_1
 10
72.0341
 20
92.8147
  0
VERTEX
  8
LAYER_1
 10
72.0765
 20
92.7301
  0
VERTEX
  8
LAYER_1
 10
72.14
 20
92.6242
  0
VERTEX
  8
LAYER_1
 10
72.1823
 20
92.5396
  0
VERTEX
  8
LAYER_1
 10
72.2246
 20
92.4337
  0
VERTEX
  8
LAYER_1
 10
72.267
 20
92.3279
  0
VERTEX
  8
LAYER_1
 10
72.3093
 20
92.2432
  0
VERTEX
  8
LAYER_1
 10
72.3516
 20
92.1374
  0
VERTEX
  8
LAYER_1
 10
72.394
 20
92.0527
  0
VERTEX
  8
LAYER_1
 10
72.4363
 20
91.9469
  0
VERTEX
  8
LAYER_1
 10
72.4575
 20
91.8411
  0
VERTEX
  8
LAYER_1
 10
72.4998
 20
91.7564
  0
VERTEX
  8
LAYER_1
 10
72.5421
 20
91.6506
  0
VERTEX
  8
LAYER_1
 10
72.5845
 20
91.5447
  0
VERTEX
  8
LAYER_1
 10
72.6056
 20
91.4389
  0
VERTEX
  8
LAYER_1
 10
72.648
 20
91.3542
  0
VERTEX
  8
LAYER_1
 10
72.6691
 20
91.2484
  0
VERTEX
  8
LAYER_1
 10
72.7115
 20
91.1426
  0
VERTEX
  8
LAYER_1
 10
72.7326
 20
91.0367
  0
VERTEX
  8
LAYER_1
 10
72.775
 20
90.9309
  0
VERTEX
  8
LAYER_1
 10
72.7961
 20
90.8462
  0
VERTEX
  8
LAYER_1
 10
72.8385
 20
90.7404
  0
VERTEX
  8
LAYER_1
 10
72.8596
 20
90.6346
  0
VERTEX
  8
LAYER_1
 10
72.8808
 20
90.5287
  0
VERTEX
  8
LAYER_1
 10
72.902
 20
90.4229
  0
VERTEX
  8
LAYER_1
 10
72.9443
 20
90.3171
  0
VERTEX
  8
LAYER_1
 10
72.9654
 20
90.2112
  0
VERTEX
  8
LAYER_1
 10
72.9866
 20
90.1266
  0
VERTEX
  8
LAYER_1
 10
73.0078
 20
90.0207
  0
VERTEX
  8
LAYER_1
 10
73.029
 20
89.9149
  0
VERTEX
  8
LAYER_1
 10
73.0501
 20
89.8091
  0
VERTEX
  8
LAYER_1
 10
73.0713
 20
89.7032
  0
VERTEX
  8
LAYER_1
 10
73.0713
 20
89.5974
  0
VERTEX
  8
LAYER_1
 10
73.0924
 20
89.4916
  0
VERTEX
  8
LAYER_1
 10
73.1136
 20
89.3857
  0
VERTEX
  8
LAYER_1
 10
73.1348
 20
89.2799
  0
VERTEX
  8
LAYER_1
 10
73.1348
 20
89.1741
  0
VERTEX
  8
LAYER_1
 10
73.156
 20
89.0682
  0
VERTEX
  8
LAYER_1
 10
73.1771
 20
88.9624
  0
VERTEX
  8
LAYER_1
 10
73.1771
 20
88.8566
  0
VERTEX
  8
LAYER_1
 10
73.1983
 20
88.7507
  0
VERTEX
  8
LAYER_1
 10
73.1983
 20
88.6449
  0
VERTEX
  8
LAYER_1
 10
73.1983
 20
88.5391
  0
VERTEX
  8
LAYER_1
 10
73.2194
 20
88.4332
  0
VERTEX
  8
LAYER_1
 10
73.2194
 20
88.3274
  0
VERTEX
  8
LAYER_1
 10
73.2194
 20
88.2216
  0
VERTEX
  8
LAYER_1
 10
73.2406
 20
88.1157
  0
VERTEX
  8
LAYER_1
 10
73.2406
 20
88.0099
  0
VERTEX
  8
LAYER_1
 10
73.2406
 20
87.9041
  0
VERTEX
  8
LAYER_1
 10
73.2406
 20
87.7982
  0
VERTEX
  8
LAYER_1
 10
73.2406
 20
87.6924
  0
VERTEX
  8
LAYER_1
 10
73.2406
 20
87.5866
  0
VERTEX
  8
LAYER_1
 10
73.2406
 20
87.4807
  0
VERTEX
  8
LAYER_1
 10
73.2406
 20
87.3749
  0
VERTEX
  8
LAYER_1
 10
73.2406
 20
87.2691
  0
VERTEX
  8
LAYER_1
 10
73.2194
 20
87.1632
  0
VERTEX
  8
LAYER_1
 10
73.2194
 20
87.0574
  0
VERTEX
  8
LAYER_1
 10
73.2194
 20
86.9516
  0
VERTEX
  8
LAYER_1
 10
73.1983
 20
86.8457
  0
VERTEX
  8
LAYER_1
 10
73.1983
 20
86.7399
  0
SEQEND
  0
TEXT
  8
LAYER_1
 10
72.9021
 20
91.27
 11
72.9021
 21
91.27
 40
2.081
 41
0.5
 50
284.4999645
  1
2
  0
TEXT
  8
LAYER_1
 10
73.1136
 20
90.4248
 11
73.1136
 21
90.4248
 40
2.081
 41
0.5
 50
284.4999645
  1
9
  0
TEXT
  8
LAYER_1
 10
73.3965
 20
89.5691
 11
73.3965
 21
89.5691
 40
1.8254
 41
0.5
 50
284.4999645
  1
ﾟ
  0
POLYLINE
  8
LAYER_1
 40
0.2963
 41
0.2963
 66
1
 10
0
 20
0
 30
0
  0
VERTEX
  8
LAYER_1
 10
59.2494
 20
88.0522
  0
VERTEX
  8
LAYER_1
 10
56.9211
 20
92.2644
  0
SEQEND
  0
POLYLINE
  8
LAYER_1
 40
0.2963
 41
0.2963
 66
1
 10
0
 20
0
 30
0
  0
VERTEX
  8
LAYER_1
 10
71.0605
 20
94.5927
  0
VERTEX
  8
LAYER_1
 10
68.7109
 20
98.8261
  0
SEQEND
  0
CIRCLE
  8
LAYER_1
 10
56.9317
 20
92.2538
 40
0.2699
  0
CIRCLE
  8
LAYER_1
 10
56.9211
 20
92.2644
 40
0.254
  0
CIRCLE
  8
LAYER_1
 10
68.7215
 20
98.8155
 40
0.2699
  0
CIRCLE
  8
LAYER_1
 10
68.7109
 20
98.8261
 40
0.254
  0
POLYLINE
  8
LAYER_1
 40
0.2963
 41
0.2963
 66
1
 10
0
 20
0
 30
0
  0
VERTEX
  8
LAYER_1
 10
56.9211
 20
92.2644
  0
VERTEX
  8
LAYER_1
 10
68.7109
 20
98.8261
  0
SEQEND
  0
POLYLINE
  8
LAYER_1
 40
0.05
 41
0.05
 62
255
 66
1
 10
0
 20
0
 30
0
 70
1
  0
VERTEX
  8
LAYER_1
 10
60.5618
 20
96.8787
  0
VERTEX
  8
LAYER_1
 10
62.8689
 20
98.1699
  0
VERTEX
  8
LAYER_1
 10
63.7368
 20
96.6247
  0
VERTEX
  8
LAYER_1
 10
61.4084
 20
95.3336
  0
SEQEND
  0
TEXT
  8
LAYER_1
 10
61.3364
 20
95.521
 11
61.3364
 21
95.521
 40
2.0808
 41
0.5
 50
29.00001305
  1
2
  0
TEXT
  8
LAYER_1
 10
62.0952
 20
95.9492
 11
62.0952
 21
95.9492
 40
2.0808
 41
0.5
 50
29.00001305
  1
7
  0
TEXT
  8
LAYER_1
 10
62.8819
 20
96.3698
 11
62.8819
 21
96.3698
 40
2.0808
 41
0.5
 50
29.00001305
  1
0
  0
POLYLINE
  8
LAYER_1
 40
0.2963
 41
0.2963
 66
1
 10
0
 20
0
 30
0
  0
VERTEX
  8
LAYER_1
 10
73.2829
 20
93.2804
  0
VERTEX
  8
LAYER_1
 10
79.6329
 20
93.2804
  0
SEQEND
  0
POLYLINE
  8
LAYER_1
 40
0.2963
 41
0.2963
 66
1
 10
0
 20
0
 30
0
  0
VERTEX
  8
LAYER_1
 10
79.7388
 20
98.7414
  0
VERTEX
  8
LAYER_1
 10
79.6329
 20
98.7414
  0
SEQEND
  0
POLYLINE
  8
LAYER_1
 40
0.2963
 41
0.2963
 66
1
 10
0
 20
0
 30
0
  0
VERTEX
  8
LAYER_1
 10
79.6329
 20
98.7414
  0
VERTEX
  8
LAYER_1
 10
79.6329
 20
93.2804
  0
SEQEND
  0
CIRCLE
  8
LAYER_1
 10
79.6435
 20
93.2698
 40
0.2699
  0
CIRCLE
  8
LAYER_1
 10
79.633
 20
93.2804
 40
0.254
  0
POLYLINE
  8
LAYER_1
 40
0.2963
 41
0.2963
 66
1
 10
0
 20
0
 30
0
  0
VERTEX
  8
LAYER_1
 10
79.6329
 20
93.2804
  0
VERTEX
  8
LAYER_1
 10
79.6329
 20
93.0476
  0
SEQEND
  0
CIRCLE
  8
LAYER_1
 10
79.6435
 20
98.7308
 40
0.2699
  0
CIRCLE
  8
LAYER_1
 10
79.633
 20
98.7414
 40
0.254
  0
POLYLINE
  8
LAYER_1
 40
0.2963
 41
0.2963
 66
1
 10
0
 20
0
 30
0
  0
VERTEX
  8
LAYER_1
 10
79.6329
 20
98.7414
  0
VERTEX
  8
LAYER_1
 10
79.6329
 20
98.9954
  0
SEQEND
  0
POLYLINE
  8
LAYER_1
 40
0.05
 41
0.05
 62
255
 66
1
 10
0
 20
0
 30
0
 70
1
  0
VERTEX
  8
LAYER_1
 10
77.3681
 20
98.4027
  0
VERTEX
  8
LAYER_1
 10
79.1461
 20
98.4027
  0
VERTEX
  8
LAYER_1
 10
79.1461
 20
93.6402
  0
VERTEX
  8
LAYER_1
 10
77.3681
 20
93.6402
  0
SEQEND
  0
TEXT
  8
LAYER_1
 10
78.9444
 20
93.642
 11
78.9444
 21
93.642
 40
2.0813
 41
0.5
 50
89.99999999
  1
108.97
  0
POLYLINE
  8
LAYER_1
 40
0.2963
 41
0.2963
 66
1
 10
0
 20
0
 30
0
  0
VERTEX
  8
LAYER_1
 10
71.7801
 20
91.7776
  0
VERTEX
  8
LAYER_1
 10
71.7801
 20
79.3316
  0
SEQEND
  0
POLYLINE
  8
LAYER_1
 40
0.2963
 41
0.2963
 66
1
 10
0
 20
0
 30
0
  0
VERTEX
  8
LAYER_1
 10
59.9903
 20
80.8344
  0
VERTEX
  8
LAYER_1
 10
59.9903
 20
79.3316
  0
SEQEND
  0
CIRCLE
  8
LAYER_1
 10
71.7907
 20
79.321
 40
0.2699
  0
CIRCLE
  8
LAYER_1
 10
71.7801
 20
79.3316
 40
0.254
  0
CIRCLE
  8
LAYER_1
 10
60.0009
 20
79.321
 40
0.2699
  0
CIRCLE
  8
LAYER_1
 10
59.9903
 20
79.3316
 40
0.254
  0
POLYLINE
  8
LAYER_1
 40
0.2963
 41
0.2963
 66
1
 10
0
 20
0
 30
0
  0
VERTEX
  8
LAYER_1
 10
71.7801
 20
79.3316
  0
VERTEX
  8
LAYER_1
 10
59.9903
 20
79.3316
  0
SEQEND
  0
POLYLINE
  8
LAYER_1
 40
0.05
 41
0.05
 62
255
 66
1
 10
0
 20
0
 30
0
 70
1
  0
VERTEX
  8
LAYER_1
 10
63.504
 20
81.5964
  0
VERTEX
  8
LAYER_1
 10
68.2665
 20
81.5964
  0
VERTEX
  8
LAYER_1
 10
68.2665
 20
79.8396
  0
VERTEX
  8
LAYER_1
 10
63.504
 20
79.8396
  0
SEQEND
  0
TEXT
  8
LAYER_1
 10
63.5039
 20
80.0411
 11
63.5039
 21
80.0411
 40
2.0812
 41
0.5
  1
236.07
  0
POLYLINE
  8
LAYER_1
 40
0.1693
 41
0.1693
 66
1
 10
0
 20
0
 30
0
  0
VERTEX
  8
LAYER_1
 10
100.1858
 20
84.2422
  0
VERTEX
  8
LAYER_1
 10
100.1858
 20
85.8297
  0
SEQEND
  0
POLYLINE
  8
LAYER_1
 40
0.1693
 41
0.1693
 66
1
 10
0
 20
0
 30
0
  0
VERTEX
  8
LAYER_1
 10
100.1858
 20
86.3589
  0
VERTEX
  8
LAYER_1
 10
100.1858
 20
86.5282
  0
SEQEND
  0
POLYLINE
  8
LAYER_1
 40
0.1693
 41
0.1693
 66
1
 10
0
 20
0
 30
0
  0
VERTEX
  8
LAYER_1
 10
100.1858
 20
86.8881
  0
VERTEX
  8
LAYER_1
 10
100.1858
 20
88.4756
  0
SEQEND
  0
POLYLINE
  8
LAYER_1
 40
0.1693
 41
0.1693
 66
1
 10
0
 20
0
 30
0
  0
VERTEX
  8
LAYER_1
 10
100.1858
 20
89.0047
  0
VERTEX
  8
LAYER_1
 10
100.1858
 20
89.1741
  0
SEQEND
  0
POLYLINE
  8
LAYER_1
 40
0.1693
 41
0.1693
 66
1
 10
0
 20
0
 30
0
  0
VERTEX
  8
LAYER_1
 10
102.6834
 20
86.7399
  0
VERTEX
  8
LAYER_1
 10
101.0959
 20
86.7399
  0
SEQEND
  0
POLYLINE
  8
LAYER_1
 40
0.1693
 41
0.1693
 66
1
 10
0
 20
0
 30
0
  0
VERTEX
  8
LAYER_1
 10
100.5668
 20
86.7399
  0
VERTEX
  8
LAYER_1
 10
100.3975
 20
86.7399
  0
SEQEND
  0
POLYLINE
  8
LAYER_1
 40
0.1693
 41
0.1693
 66
1
 10
0
 20
0
 30
0
  0
VERTEX
  8
LAYER_1
 10
100.0376
 20
86.7399
  0
VERTEX
  8
LAYER_1
 10
98.4501
 20
86.7399
  0
SEQEND
  0
POLYLINE
  8
LAYER_1
 40
0.1693
 41
0.1693
 66
1
 10
0
 20
0
 30
0
  0
VERTEX
  8
LAYER_1
 10
97.9209
 20
86.7399
  0
VERTEX
  8
LAYER_1
 10
97.7516
 20
86.7399
  0
SEQEND
  0
POLYLINE
  8
LAYER_1
 40
0.1693
 41
0.1693
 66
1
 10
0
 20
0
 30
0
  0
VERTEX
  8
LAYER_1
 10
100.1858
 20
86.7399
  0
VERTEX
  8
LAYER_1
 10
101.5828
 20
87.5019
  0
SEQEND
  0
POLYLINE
  8
LAYER_1
 40
0.1693
 41
0.1693
 66
1
 10
0
 20
0
 30
0
  0
VERTEX
  8
LAYER_1
 10
102.0273
 20
87.7559
  0
VERTEX
  8
LAYER_1
 10
102.1755
 20
87.8406
  0
SEQEND
  0
POLYLINE
  8
LAYER_1
 40
0.1693
 41
0.1693
 66
1
 10
0
 20
0
 30
0
  0
VERTEX
  8
LAYER_1
 10
102.4929
 20
88.0311
  0
VERTEX
  8
LAYER_1
 10
103.8899
 20
88.7931
  0
SEQEND
  0
POLYLINE
  8
LAYER_1
 40
0.1693
 41
0.1693
 66
1
 10
0
 20
0
 30
0
  0
VERTEX
  8
LAYER_1
 10
104.3556
 20
89.0471
  0
VERTEX
  8
LAYER_1
 10
104.5038
 20
89.1317
  0
SEQEND
  0
POLYLINE
  8
LAYER_1
 40
0.1693
 41
0.1693
 66
1
 10
0
 20
0
 30
0
  0
VERTEX
  8
LAYER_1
 10
104.8213
 20
89.3011
  0
VERTEX
  8
LAYER_1
 10
106.1971
 20
90.0631
  0
SEQEND
  0
POLYLINE
  8
LAYER_1
 40
0.1693
 41
0.1693
 66
1
 10
0
 20
0
 30
0
  0
VERTEX
  8
LAYER_1
 10
106.6628
 20
90.3382
  0
VERTEX
  8
LAYER_1
 10
106.8109
 20
90.4017
  0
SEQEND
  0
POLYLINE
  8
LAYER_1
 40
0.1693
 41
0.1693
 66
1
 10
0
 20
0
 30
0
  0
VERTEX
  8
LAYER_1
 10
107.1284
 20
90.5922
  0
VERTEX
  8
LAYER_1
 10
108.5254
 20
91.3542
  0
SEQEND
  0
POLYLINE
  8
LAYER_1
 40
0.1693
 41
0.1693
 66
1
 10
0
 20
0
 30
0
  0
VERTEX
  8
LAYER_1
 10
108.9911
 20
91.6082
  0
VERTEX
  8
LAYER_1
 10
109.1393
 20
91.6929
  0
SEQEND
  0
POLYLINE
  8
LAYER_1
 40
0.1693
 41
0.1693
 66
1
 10
0
 20
0
 30
0
  0
VERTEX
  8
LAYER_1
 10
109.4356
 20
91.8622
  0
VERTEX
  8
LAYER_1
 10
110.8326
 20
92.6454
  0
SEQEND
  0
POLYLINE
  8
LAYER_1
 40
0.1693
 41
0.1693
 66
1
 10
0
 20
0
 30
0
  0
VERTEX
  8
LAYER_1
 10
111.2983
 20
92.8994
  0
VERTEX
  8
LAYER_1
 10
111.4464
 20
92.9841
  0
SEQEND
  0
POLYLINE
  8
LAYER_1
 40
0.1693
 41
0.1693
 66
1
 10
0
 20
0
 30
0
  0
VERTEX
  8
LAYER_1
 10
111.7639
 20
93.1534
  0
VERTEX
  8
LAYER_1
 10
111.9968
 20
93.2804
  0
SEQEND
  0
CIRCLE
  8
LAYER_1
 10
100.1858
 20
86.7399
 40
2.4977
  0
CIRCLE
  8
LAYER_1
 10
111.9862
 20
93.291
 40
0.8784
  0
TEXT
  8
LAYER_1
 10
112.6953
 20
94.2966
 11
112.6953
 21
94.2966
 40
2.0812
 41
0.5
  1
φ35
  0
TEXT
  8
LAYER_1
 10
95.402
 20
82.1891
 11
95.402
 21
82.1891
 40
2.0812
 41
0.5
  1
φ100
  0
POLYLINE
  8
LAYER_1
 40
0.1693
 41
0.1693
 66
1
 10
0
 20
0
 30
0
  0
VERTEX
  8
LAYER_1
 10
111.9968
 20
93.2804
  0
VERTEX
  8
LAYER_1
 10
112.0391
 20
93.1957
  0
VERTEX
  8
LAYER_1
 10
112.0815
 20
93.1111
  0
VERTEX
  8
LAYER_1
 10
112.1449
 20
93.0052
  0
VERTEX
  8
LAYER_1
 10
112.1873
 20
92.9206
  0
VERTEX
  8
LAYER_1
 10
112.2296
 20
92.8147
  0
VERTEX
  8
LAYER_1
 10
112.2931
 20
92.7301
  0
VERTEX
  8
LAYER_1
 10
112.3355
 20
92.6242
  0
VERTEX
  8
LAYER_1
 10
112.3778
 20
92.5396
  0
VERTEX
  8
LAYER_1
 10
112.4201
 20
92.4337
  0
VERTEX
  8
LAYER_1
 10
112.4624
 20
92.3279
  0
VERTEX
  8
LAYER_1
 10
112.5048
 20
92.2432
  0
VERTEX
  8
LAYER_1
 10
112.5471
 20
92.1374
  0
VERTEX
  8
LAYER_1
 10
112.5895
 20
92.0527
  0
VERTEX
  8
LAYER_1
 10
112.6318
 20
91.9469
  0
VERTEX
  8
LAYER_1
 10
112.6741
 20
91.8411
  0
VERTEX
  8
LAYER_1
 10
112.6953
 20
91.7564
  0
VERTEX
  8
LAYER_1
 10
112.7376
 20
91.6506
  0
VERTEX
  8
LAYER_1
 10
112.7799
 20
91.5447
  0
VERTEX
  8
LAYER_1
 10
112.8011
 20
91.4389
  0
VERTEX
  8
LAYER_1
 10
112.8435
 20
91.3542
  0
VERTEX
  8
LAYER_1
 10
112.8858
 20
91.2484
  0
VERTEX
  8
LAYER_1
 10
112.9069
 20
91.1426
  0
VERTEX
  8
LAYER_1
 10
112.9493
 20
91.0367
  0
VERTEX
  8
LAYER_1
 10
112.9704
 20
90.9309
  0
VERTEX
  8
LAYER_1
 10
112.9916
 20
90.8462
  0
VERTEX
  8
LAYER_1
 10
113.0339
 20
90.7404
  0
VERTEX
  8
LAYER_1
 10
113.0551
 20
90.6346
  0
VERTEX
  8
LAYER_1
 10
113.0763
 20
90.5287
  0
VERTEX
  8
LAYER_1
 10
113.1186
 20
90.4229
  0
VERTEX
  8
LAYER_1
 10
113.1398
 20
90.3171
  0
VERTEX
  8
LAYER_1
 10
113.1609
 20
90.2112
  0
VERTEX
  8
LAYER_1
 10
113.1821
 20
90.1266
  0
VERTEX
  8
LAYER_1
 10
113.2033
 20
90.0207
  0
VERTEX
  8
LAYER_1
 10
113.2244
 20
89.9149
  0
VERTEX
  8
LAYER_1
 10
113.2456
 20
89.8091
  0
VERTEX
  8
LAYER_1
 10
113.2668
 20
89.7032
  0
VERTEX
  8
LAYER_1
 10
113.2879
 20
89.5974
  0
VERTEX
  8
LAYER_1
 10
113.2879
 20
89.4916
  0
VERTEX
  8
LAYER_1
 10
113.3091
 20
89.3857
  0
VERTEX
  8
LAYER_1
 10
113.3303
 20
89.2799
  0
VERTEX
  8
LAYER_1
 10
113.3515
 20
89.1741
  0
VERTEX
  8
LAYER_1
 10
113.3515
 20
89.0682
  0
VERTEX
  8
LAYER_1
 10
113.3726
 20
88.9624
  0
VERTEX
  8
LAYER_1
 10
113.3726
 20
88.8566
  0
VERTEX
  8
LAYER_1
 10
113.3938
 20
88.7507
  0
VERTEX
  8
LAYER_1
 10
113.3938
 20
88.6449
  0
VERTEX
  8
LAYER_1
 10
113.415
 20
88.5391
  0
VERTEX
  8
LAYER_1
 10
113.415
 20
88.4332
  0
VERTEX
  8
LAYER_1
 10
113.415
 20
88.3274
  0
VERTEX
  8
LAYER_1
 10
113.4361
 20
88.2216
  0
VERTEX
  8
LAYER_1
 10
113.4361
 20
88.1157
  0
VERTEX
  8
LAYER_1
 10
113.4361
 20
88.0099
  0
VERTEX
  8
LAYER_1
 10
113.4361
 20
87.9041
  0
VERTEX
  8
LAYER_1
 10
113.4361
 20
87.7982
  0
VERTEX
  8
LAYER_1
 10
113.4361
 20
87.6924
  0
VERTEX
  8
LAYER_1
 10
113.4361
 20
87.5866
  0
VERTEX
  8
LAYER_1
 10
113.4361
 20
87.4807
  0
VERTEX
  8
LAYER_1
 10
113.4361
 20
87.3749
  0
VERTEX
  8
LAYER_1
 10
113.4361
 20
87.2691
  0
VERTEX
  8
LAYER_1
 10
113.4361
 20
87.1632
  0
VERTEX
  8
LAYER_1
 10
113.415
 20
87.0574
  0
VERTEX
  8
LAYER_1
 10
113.415
 20
86.9516
  0
VERTEX
  8
LAYER_1
 10
113.415
 20
86.8457
  0
VERTEX
  8
LAYER_1
 10
113.3938
 20
86.7399
  0
SEQEND
  0
TEXT
  8
LAYER_1
 10
113.0946
 20
91.2681
 11
113.0946
 21
91.2681
 40
2.081
 41
0.5
 50
284.4999645
  1
2
  0
TEXT
  8
LAYER_1
 10
113.3061
 20
90.4228
 11
113.3061
 21
90.4228
 40
2.081
 41
0.5
 50
284.4999645
  1
9
  0
TEXT
  8
LAYER_1
 10
113.5889
 20
89.5672
 11
113.5889
 21
89.5672
 40
1.8254
 41
0.5
 50
284.4999645
  1
ﾟ
  0
POLYLINE
  8
LAYER_1
 40
0.2963
 41
0.2963
 66
1
 10
0
 20
0
 30
0
  0
VERTEX
  8
LAYER_1
 10
99.4661
 20
88.0522
  0
VERTEX
  8
LAYER_1
 10
97.1166
 20
92.2644
  0
SEQEND
  0
POLYLINE
  8
LAYER_1
 40
0.2963
 41
0.2963
 66
1
 10
0
 20
0
 30
0
  0
VERTEX
  8
LAYER_1
 10
111.2559
 20
94.5927
  0
VERTEX
  8
LAYER_1
 10
108.9276
 20
98.8261
  0
SEQEND
  0
CIRCLE
  8
LAYER_1
 10
97.1272
 20
92.2538
 40
0.2699
  0
CIRCLE
  8
LAYER_1
 10
97.1166
 20
92.2644
 40
0.254
  0
CIRCLE
  8
LAYER_1
 10
108.9382
 20
98.8155
 40
0.2699
  0
CIRCLE
  8
LAYER_1
 10
108.9276
 20
98.8261
 40
0.254
  0
POLYLINE
  8
LAYER_1
 40
0.2963
 41
0.2963
 66
1
 10
0
 20
0
 30
0
  0
VERTEX
  8
LAYER_1
 10
97.1166
 20
92.2644
  0
VERTEX
  8
LAYER_1
 10
108.9276
 20
98.8261
  0
SEQEND
  0
POLYLINE
  8
LAYER_1
 40
0.05
 41
0.05
 62
255
 66
1
 10
0
 20
0
 30
0
 70
1
  0
VERTEX
  8
LAYER_1
 10
100.7573
 20
96.8787
  0
VERTEX
  8
LAYER_1
 10
103.0644
 20
98.1699
  0
VERTEX
  8
LAYER_1
 10
103.9323
 20
96.6247
  0
VERTEX
  8
LAYER_1
 10
101.6251
 20
95.3336
  0
SEQEND
  0
TEXT
  8
LAYER_1
 10
101.5344
 20
95.5248
 11
101.5344
 21
95.5248
 40
2.0808
 41
0.5
 50
29.00001305
  1
27
  0
TEXT
  8
LAYER_1
 10
103.0798
 20
96.3735
 11
103.0798
 21
96.3735
 40
2.0808
 41
0.5
 50
29.00001305
  1
0
  0
POLYLINE
  8
LAYER_1
 40
0.2963
 41
0.2963
 66
1
 10
0
 20
0
 30
0
  0
VERTEX
  8
LAYER_1
 10
127.0463
 20
86.7399
  0
VERTEX
  8
LAYER_1
 10
130.4329
 20
86.7399
  0
SEQEND
  0
POLYLINE
  8
LAYER_1
 40
0.2963
 41
0.2963
 66
1
 10
0
 20
0
 30
0
  0
VERTEX
  8
LAYER_1
 10
122.9399
 20
98.7414
  0
VERTEX
  8
LAYER_1
 10
130.4329
 20
98.7414
  0
SEQEND
  0
CIRCLE
  8
LAYER_1
 10
130.4435
 20
86.7293
 40
0.2699
  0
CIRCLE
  8
LAYER_1
 10
130.4329
 20
86.7399
 40
0.254
  0
CIRCLE
  8
LAYER_1
 10
130.4435
 20
98.7308
 40
0.2699
  0
CIRCLE
  8
LAYER_1
 10
130.4329
 20
98.7414
 40
0.254
  0
POLYLINE
  8
LAYER_1
 40
0.2963
 41
0.2963
 66
1
 10
0
 20
0
 30
0
  0
VERTEX
  8
LAYER_1
 10
130.4329
 20
86.7399
  0
VERTEX
  8
LAYER_1
 10
130.4329
 20
98.7414
  0
SEQEND
  0
POLYLINE
  8
LAYER_1
 40
0.05
 41
0.05
 62
255
 66
1
 10
0
 20
0
 30
0
 70
1
  0
VERTEX
  8
LAYER_1
 10
128.1681
 20
94.0636
  0
VERTEX
  8
LAYER_1
 10
129.9461
 20
94.0636
  0
VERTEX
  8
LAYER_1
 10
129.9461
 20
91.4177
  0
VERTEX
  8
LAYER_1
 10
128.1681
 20
91.4177
  0
SEQEND
  0
TEXT
  8
LAYER_1
 10
129.7417
 20
91.4185
 11
129.7417
 21
91.4185
 40
2.0813
 41
0.5
 50
89.99999999
  1
240
  0
POLYLINE
  8
LAYER_1
 40
0.2963
 41
0.2963
 66
1
 10
0
 20
0
 30
0
  0
VERTEX
  8
LAYER_1
 10
113.4996
 20
93.2804
  0
VERTEX
  8
LAYER_1
 10
126.0938
 20
93.2804
  0
SEQEND
  0
POLYLINE
  8
LAYER_1
 40
0.2963
 41
0.2963
 66
1
 10
0
 20
0
 30
0
  0
VERTEX
  8
LAYER_1
 10
122.9399
 20
98.7414
  0
VERTEX
  8
LAYER_1
 10
126.0938
 20
98.7414
  0
SEQEND
  0
POLYLINE
  8
LAYER_1
 40
0.2963
 41
0.2963
 66
1
 10
0
 20
0
 30
0
  0
VERTEX
  8
LAYER_1
 10
126.0938
 20
98.7414
  0
VERTEX
  8
LAYER_1
 10
126.0938
 20
93.2804
  0
SEQEND
  0
CIRCLE
  8
LAYER_1
 10
126.1044
 20
93.2698
 40
0.2699
  0
CIRCLE
  8
LAYER_1
 10
126.0938
 20
93.2804
 40
0.254
  0
POLYLINE
  8
LAYER_1
 40
0.2963
 41
0.2963
 66
1
 10
0
 20
0
 30
0
  0
VERTEX
  8
LAYER_1
 10
126.0938
 20
93.2804
  0
VERTEX
  8
LAYER_1
 10
126.0938
 20
93.0476
  0
SEQEND
  0
CIRCLE
  8
LAYER_1
 10
126.1044
 20
98.7308
 40
0.2699
  0
CIRCLE
  8
LAYER_1
 10
126.0938
 20
98.7414
 40
0.254
  0
POLYLINE
  8
LAYER_1
 40
0.2963
 41
0.2963
 66
1
 10
0
 20
0
 30
0
  0
VERTEX
  8
LAYER_1
 10
126.0938
 20
98.7414
  0
VERTEX
  8
LAYER_1
 10
126.0938
 20
98.9954
  0
SEQEND
  0
POLYLINE
  8
LAYER_1
 40
0.05
 41
0.05
 62
255
 66
1
 10
0
 20
0
 30
0
 70
1
  0
VERTEX
  8
LAYER_1
 10
123.8289
 20
98.4027
  0
VERTEX
  8
LAYER_1
 10
125.5858
 20
98.4027
  0
VERTEX
  8
LAYER_1
 10
125.5858
 20
93.6402
  0
VERTEX
  8
LAYER_1
 10
123.8289
 20
93.6402
  0
SEQEND
  0
TEXT
  8
LAYER_1
 10
125.384
 20
93.642
 11
125.384
 21
93.642
 40
2.0813
 41
0.5
 50
89.99999999
  1
108.97
  0
POLYLINE
  8
LAYER_1
 40
0.2963
 41
0.2963
 66
1
 10
0
 20
0
 30
0
  0
VERTEX
  8
LAYER_1
 10
111.9968
 20
91.7776
  0
VERTEX
  8
LAYER_1
 10
111.9968
 20
79.3316
  0
SEQEND
  0
POLYLINE
  8
LAYER_1
 40
0.2963
 41
0.2963
 66
1
 10
0
 20
0
 30
0
  0
VERTEX
  8
LAYER_1
 10
100.1858
 20
80.8344
  0
VERTEX
  8
LAYER_1
 10
100.1858
 20
79.3316
  0
SEQEND
  0
CIRCLE
  8
LAYER_1
 10
112.0074
 20
79.321
 40
0.2699
  0
CIRCLE
  8
LAYER_1
 10
111.9968
 20
79.3316
 40
0.254
  0
CIRCLE
  8
LAYER_1
 10
100.1964
 20
79.321
 40
0.2699
  0
CIRCLE
  8
LAYER_1
 10
100.1858
 20
79.3316
 40
0.254
  0
POLYLINE
  8
LAYER_1
 40
0.2963
 41
0.2963
 66
1
 10
0
 20
0
 30
0
  0
VERTEX
  8
LAYER_1
 10
111.9968
 20
79.3316
  0
VERTEX
  8
LAYER_1
 10
100.1858
 20
79.3316
  0
SEQEND
  0
POLYLINE
  8
LAYER_1
 40
0.05
 41
0.05
 62
255
 66
1
 10
0
 20
0
 30
0
 70
1
  0
VERTEX
  8
LAYER_1
 10
103.6994
 20
81.5964
  0
VERTEX
  8
LAYER_1
 10
108.4619
 20
81.5964
  0
VERTEX
  8
LAYER_1
 10
108.4619
 20
79.8396
  0
VERTEX
  8
LAYER_1
 10
103.6994
 20
79.8396
  0
SEQEND
  0
TEXT
  8
LAYER_1
 10
103.6995
 20
80.0411
 11
103.6995
 21
80.0411
 40
2.0812
 41
0.5
  1
236.07
  0
POLYLINE
  8
LAYER_1
 40
0.1693
 41
0.1693
 66
1
 10
0
 20
0
 30
0
  0
VERTEX
  8
LAYER_1
 10
158.1824
 20
130.2374
  0
VERTEX
  8
LAYER_1
 10
163.3048
 20
130.2374
  0
SEQEND
  0
POLYLINE
  8
LAYER_1
 40
0.1693
 41
0.1693
 66
1
 10
0
 20
0
 30
0
  0
VERTEX
  8
LAYER_1
 10
163.6646
 20
130.2374
  0
VERTEX
  8
LAYER_1
 10
164.1938
 20
130.2374
  0
SEQEND
  0
POLYLINE
  8
LAYER_1
 40
0.1693
 41
0.1693
 66
1
 10
0
 20
0
 30
0
  0
VERTEX
  8
LAYER_1
 10
164.5536
 20
130.2374
  0
VERTEX
  8
LAYER_1
 10
169.6759
 20
130.2374
  0
SEQEND
  0
POLYLINE
  8
LAYER_1
 40
0.1693
 41
0.1693
 66
1
 10
0
 20
0
 30
0
  0
VERTEX
  8
LAYER_1
 10
170.0358
 20
130.2374
  0
VERTEX
  8
LAYER_1
 10
170.565
 20
130.2374
  0
SEQEND
  0
POLYLINE
  8
LAYER_1
 40
0.1693
 41
0.1693
 66
1
 10
0
 20
0
 30
0
  0
VERTEX
  8
LAYER_1
 10
170.9248
 20
130.2374
  0
VERTEX
  8
LAYER_1
 10
176.0471
 20
130.2374
  0
SEQEND
  0
POLYLINE
  8
LAYER_1
 40
0.1693
 41
0.1693
 66
1
 10
0
 20
0
 30
0
  0
VERTEX
  8
LAYER_1
 10
176.4069
 20
130.2374
  0
VERTEX
  8
LAYER_1
 10
176.9361
 20
130.2374
  0
SEQEND
  0
POLYLINE
  8
LAYER_1
 40
0.1693
 41
0.1693
 66
1
 10
0
 20
0
 30
0
  0
VERTEX
  8
LAYER_1
 10
177.296
 20
130.2374
  0
VERTEX
  8
LAYER_1
 10
182.4183
 20
130.2374
  0
SEQEND
  0
POLYLINE
  8
LAYER_1
 40
0.1693
 41
0.1693
 66
1
 10
0
 20
0
 30
0
  0
VERTEX
  8
LAYER_1
 10
182.7781
 20
130.2374
  0
VERTEX
  8
LAYER_1
 10
183.3073
 20
130.2374
  0
SEQEND
  0
POLYLINE
  8
LAYER_1
 40
0.1693
 41
0.1693
 66
1
 10
0
 20
0
 30
0
  0
VERTEX
  8
LAYER_1
 10
183.6671
 20
130.2374
  0
VERTEX
  8
LAYER_1
 10
188.7895
 20
130.2374
  0
SEQEND
  0
POLYLINE
  8
LAYER_1
 40
0.1693
 41
0.1693
 66
1
 10
0
 20
0
 30
0
  0
VERTEX
  8
LAYER_1
 10
189.1493
 20
130.2374
  0
VERTEX
  8
LAYER_1
 10
189.6784
 20
130.2374
  0
SEQEND
  0
POLYLINE
  8
LAYER_1
 40
0.1693
 41
0.1693
 66
1
 10
0
 20
0
 30
0
  0
VERTEX
  8
LAYER_1
 10
190.0383
 20
130.2374
  0
VERTEX
  8
LAYER_1
 10
195.1606
 20
130.2374
  0
SEQEND
  0
POLYLINE
  8
LAYER_1
 40
0.1693
 41
0.1693
 66
1
 10
0
 20
0
 30
0
  0
VERTEX
  8
LAYER_1
 10
195.5205
 20
130.2374
  0
VERTEX
  8
LAYER_1
 10
196.0496
 20
130.2374
  0
SEQEND
  0
POLYLINE
  8
LAYER_1
 40
0.1693
 41
0.1693
 66
1
 10
0
 20
0
 30
0
  0
VERTEX
  8
LAYER_1
 10
196.4094
 20
130.2374
  0
VERTEX
  8
LAYER_1
 10
198.0393
 20
130.2374
  0
SEQEND
  0
POLYLINE
  8
LAYER_1
 40
0.1693
 41
0.1693
 66
1
 10
0
 20
0
 30
0
  0
VERTEX
  8
LAYER_1
 10
167.1783
 20
127.7397
  0
VERTEX
  8
LAYER_1
 10
167.1783
 20
129.3272
  0
SEQEND
  0
POLYLINE
  8
LAYER_1
 40
0.1693
 41
0.1693
 66
1
 10
0
 20
0
 30
0
  0
VERTEX
  8
LAYER_1
 10
167.1783
 20
129.8564
  0
VERTEX
  8
LAYER_1
 10
167.1783
 20
130.0257
  0
SEQEND
  0
POLYLINE
  8
LAYER_1
 40
0.1693
 41
0.1693
 66
1
 10
0
 20
0
 30
0
  0
VERTEX
  8
LAYER_1
 10
167.1783
 20
130.3856
  0
VERTEX
  8
LAYER_1
 10
167.1783
 20
131.9731
  0
SEQEND
  0
POLYLINE
  8
LAYER_1
 40
0.1693
 41
0.1693
 66
1
 10
0
 20
0
 30
0
  0
VERTEX
  8
LAYER_1
 10
167.1783
 20
132.5022
  0
VERTEX
  8
LAYER_1
 10
167.1783
 20
132.6716
  0
SEQEND
  0
POLYLINE
  8
LAYER_1
 40
0.1693
 41
0.1693
 66
1
 10
0
 20
0
 30
0
  0
VERTEX
  8
LAYER_1
 10
169.6759
 20
130.2374
  0
VERTEX
  8
LAYER_1
 10
168.0884
 20
130.2374
  0
SEQEND
  0
POLYLINE
  8
LAYER_1
 40
0.1693
 41
0.1693
 66
1
 10
0
 20
0
 30
0
  0
VERTEX
  8
LAYER_1
 10
167.5593
 20
130.2374
  0
VERTEX
  8
LAYER_1
 10
167.39
 20
130.2374
  0
SEQEND
  0
POLYLINE
  8
LAYER_1
 40
0.1693
 41
0.1693
 66
1
 10
0
 20
0
 30
0
  0
VERTEX
  8
LAYER_1
 10
167.0301
 20
130.2374
  0
VERTEX
  8
LAYER_1
 10
165.4426
 20
130.2374
  0
SEQEND
  0
POLYLINE
  8
LAYER_1
 40
0.1693
 41
0.1693
 66
1
 10
0
 20
0
 30
0
  0
VERTEX
  8
LAYER_1
 10
164.9134
 20
130.2374
  0
VERTEX
  8
LAYER_1
 10
164.7441
 20
130.2374
  0
SEQEND
  0
POLYLINE
  8
LAYER_1
 40
0.1693
 41
0.1693
 66
1
 10
0
 20
0
 30
0
  0
VERTEX
  8
LAYER_1
 10
167.1783
 20
130.2374
  0
VERTEX
  8
LAYER_1
 10
168.5753
 20
130.9994
  0
SEQEND
  0
POLYLINE
  8
LAYER_1
 40
0.1693
 41
0.1693
 66
1
 10
0
 20
0
 30
0
  0
VERTEX
  8
LAYER_1
 10
169.0198
 20
131.2534
  0
VERTEX
  8
LAYER_1
 10
169.1679
 20
131.3381
  0
SEQEND
  0
POLYLINE
  8
LAYER_1
 40
0.1693
 41
0.1693
 66
1
 10
0
 20
0
 30
0
  0
VERTEX
  8
LAYER_1
 10
169.4855
 20
131.5286
  0
VERTEX
  8
LAYER_1
 10
170.8824
 20
132.2906
  0
SEQEND
  0
POLYLINE
  8
LAYER_1
 40
0.1693
 41
0.1693
 66
1
 10
0
 20
0
 30
0
  0
VERTEX
  8
LAYER_1
 10
171.3481
 20
132.5446
  0
VERTEX
  8
LAYER_1
 10
171.4963
 20
132.6292
  0
SEQEND
  0
POLYLINE
  8
LAYER_1
 40
0.1693
 41
0.1693
 66
1
 10
0
 20
0
 30
0
  0
VERTEX
  8
LAYER_1
 10
171.8138
 20
132.7986
  0
VERTEX
  8
LAYER_1
 10
173.1896
 20
133.5606
  0
SEQEND
  0
POLYLINE
  8
LAYER_1
 40
0.1693
 41
0.1693
 66
1
 10
0
 20
0
 30
0
  0
VERTEX
  8
LAYER_1
 10
173.6553
 20
133.8357
  0
VERTEX
  8
LAYER_1
 10
173.8034
 20
133.8992
  0
SEQEND
  0
POLYLINE
  8
LAYER_1
 40
0.1693
 41
0.1693
 66
1
 10
0
 20
0
 30
0
  0
VERTEX
  8
LAYER_1
 10
174.121
 20
134.0897
  0
VERTEX
  8
LAYER_1
 10
175.5179
 20
134.8517
  0
SEQEND
  0
POLYLINE
  8
LAYER_1
 40
0.1693
 41
0.1693
 66
1
 10
0
 20
0
 30
0
  0
VERTEX
  8
LAYER_1
 10
175.9836
 20
135.1057
  0
VERTEX
  8
LAYER_1
 10
176.1318
 20
135.1904
  0
SEQEND
  0
POLYLINE
  8
LAYER_1
 40
0.1693
 41
0.1693
 66
1
 10
0
 20
0
 30
0
  0
VERTEX
  8
LAYER_1
 10
176.4281
 20
135.3597
  0
VERTEX
  8
LAYER_1
 10
177.8251
 20
136.1429
  0
SEQEND
  0
POLYLINE
  8
LAYER_1
 40
0.1693
 41
0.1693
 66
1
 10
0
 20
0
 30
0
  0
VERTEX
  8
LAYER_1
 10
178.2908
 20
136.3969
  0
VERTEX
  8
LAYER_1
 10
178.4389
 20
136.4816
  0
SEQEND
  0
POLYLINE
  8
LAYER_1
 40
0.1693
 41
0.1693
 66
1
 10
0
 20
0
 30
0
  0
VERTEX
  8
LAYER_1
 10
178.7564
 20
136.6509
  0
VERTEX
  8
LAYER_1
 10
178.9893
 20
136.7779
  0
SEQEND
  0
CIRCLE
  8
LAYER_1
 10
167.1783
 20
130.2374
 40
2.4977
  0
POLYLINE
  8
LAYER_1
 40
0.1693
 41
0.1693
 66
1
 10
0
 20
0
 30
0
 70
1
  0
VERTEX
  8
LAYER_1
 10
179.8571
 20
136.7885
 42
0.3908702936
  0
VERTEX
  8
LAYER_1
 10
178.9893
 20
137.6669
 42
0.3955874169
  0
VERTEX
  8
LAYER_1
 10
178.1214
 20
136.7885
 42
0.3908850503
  0
VERTEX
  8
LAYER_1
 10
178.9893
 20
135.9101
 42
0.3956200074
  0
SEQEND
  0
TEXT
  8
LAYER_1
 10
179.709
 20
137.794
 11
179.709
 21
137.794
 40
2.0812
 41
0.5
  1
φ35
  0
TEXT
  8
LAYER_1
 10
162.3946
 20
125.6865
 11
162.3946
 21
125.6865
 40
2.0812
 41
0.5
  1
φ100
  0
POLYLINE
  8
LAYER_1
 40
0.1693
 41
0.1693
 66
1
 10
0
 20
0
 30
0
  0
VERTEX
  8
LAYER_1
 10
178.9893
 20
136.7779
  0
VERTEX
  8
LAYER_1
 10
179.0316
 20
136.6932
  0
VERTEX
  8
LAYER_1
 10
179.0951
 20
136.6086
  0
VERTEX
  8
LAYER_1
 10
179.1374
 20
136.5027
  0
VERTEX
  8
LAYER_1
 10
179.1798
 20
136.4181
  0
VERTEX
  8
LAYER_1
 10
179.2433
 20
136.3122
  0
VERTEX
  8
LAYER_1
 10
179.2856
 20
136.2276
  0
VERTEX
  8
LAYER_1
 10
179.3279
 20
136.1217
  0
VERTEX
  8
LAYER_1
 10
179.3703
 20
136.0371
  0
VERTEX
  8
LAYER_1
 10
179.4126
 20
135.9312
  0
VERTEX
  8
LAYER_1
 10
179.4549
 20
135.8466
  0
VERTEX
  8
LAYER_1
 10
179.4973
 20
135.7407
  0
VERTEX
  8
LAYER_1
 10
179.5396
 20
135.6349
  0
VERTEX
  8
LAYER_1
 10
179.5819
 20
135.5502
  0
VERTEX
  8
LAYER_1
 10
179.6243
 20
135.4444
  0
VERTEX
  8
LAYER_1
 10
179.6666
 20
135.3386
  0
VERTEX
  8
LAYER_1
 10
179.7089
 20
135.2539
  0
VERTEX
  8
LAYER_1
 10
179.7301
 20
135.1481
  0
VERTEX
  8
LAYER_1
 10
179.7724
 20
135.0422
  0
VERTEX
  8
LAYER_1
 10
179.8148
 20
134.9364
  0
VERTEX
  8
LAYER_1
 10
179.8359
 20
134.8517
  0
VERTEX
  8
LAYER_1
 10
179.8783
 20
134.7459
  0
VERTEX
  8
LAYER_1
 10
179.9206
 20
134.6401
  0
VERTEX
  8
LAYER_1
 10
179.9418
 20
134.5342
  0
VERTEX
  8
LAYER_1
 10
179.9629
 20
134.4496
  0
VERTEX
  8
LAYER_1
 10
180.0053
 20
134.3437
  0
VERTEX
  8
LAYER_1
 10
180.0264
 20
134.2379
  0
VERTEX
  8
LAYER_1
 10
180.0476
 20
134.1321
  0
VERTEX
  8
LAYER_1
 10
180.0899
 20
134.0262
  0
VERTEX
  8
LAYER_1
 10
180.1111
 20
133.9204
  0
VERTEX
  8
LAYER_1
 10
180.1323
 20
133.8146
  0
VERTEX
  8
LAYER_1
 10
180.1534
 20
133.7299
  0
VERTEX
  8
LAYER_1
 10
180.1746
 20
133.6241
  0
VERTEX
  8
LAYER_1
 10
180.1958
 20
133.5182
  0
VERTEX
  8
LAYER_1
 10
180.2169
 20
133.4124
  0
VERTEX
  8
LAYER_1
 10
180.2381
 20
133.3066
  0
VERTEX
  8
LAYER_1
 10
180.2593
 20
133.2007
  0
VERTEX
  8
LAYER_1
 10
180.2804
 20
133.0949
  0
VERTEX
  8
LAYER_1
 10
180.3016
 20
132.9891
  0
VERTEX
  8
LAYER_1
 10
180.3228
 20
132.8832
  0
VERTEX
  8
LAYER_1
 10
180.3228
 20
132.7774
  0
VERTEX
  8
LAYER_1
 10
180.3439
 20
132.6716
  0
VERTEX
  8
LAYER_1
 10
180.3651
 20
132.5657
  0
VERTEX
  8
LAYER_1
 10
180.3651
 20
132.4599
  0
VERTEX
  8
LAYER_1
 10
180.3863
 20
132.3541
  0
VERTEX
  8
LAYER_1
 10
180.3863
 20
132.2482
  0
VERTEX
  8
LAYER_1
 10
180.4074
 20
132.1424
  0
VERTEX
  8
LAYER_1
 10
180.4074
 20
132.0366
  0
VERTEX
  8
LAYER_1
 10
180.4074
 20
131.9307
  0
VERTEX
  8
LAYER_1
 10
180.4286
 20
131.8249
  0
VERTEX
  8
LAYER_1
 10
180.4286
 20
131.7191
  0
VERTEX
  8
LAYER_1
 10
180.4286
 20
131.6132
  0
VERTEX
  8
LAYER_1
 10
180.4286
 20
131.5074
  0
VERTEX
  8
LAYER_1
 10
180.4286
 20
131.4016
  0
VERTEX
  8
LAYER_1
 10
180.4286
 20
131.2957
  0
VERTEX
  8
LAYER_1
 10
180.4498
 20
131.1899
  0
VERTEX
  8
LAYER_1
 10
180.4286
 20
131.0841
  0
VERTEX
  8
LAYER_1
 10
180.4286
 20
130.9782
  0
VERTEX
  8
LAYER_1
 10
180.4286
 20
130.8724
  0
VERTEX
  8
LAYER_1
 10
180.4286
 20
130.7666
  0
VERTEX
  8
LAYER_1
 10
180.4286
 20
130.6607
  0
VERTEX
  8
LAYER_1
 10
180.4286
 20
130.5549
  0
VERTEX
  8
LAYER_1
 10
180.4074
 20
130.4491
  0
VERTEX
  8
LAYER_1
 10
180.4074
 20
130.3432
  0
VERTEX
  8
LAYER_1
 10
180.4074
 20
130.2374
  0
SEQEND
  0
TEXT
  8
LAYER_1
 10
180.0896
 20
134.7658
 11
180.0896
 21
134.7658
 40
2.081
 41
0.5
 50
284.4999645
  1
2
  0
TEXT
  8
LAYER_1
 10
180.3007
 20
133.9205
 11
180.3007
 21
133.9205
 40
2.081
 41
0.5
 50
284.4999645
  1
9
  0
TEXT
  8
LAYER_1
 10
180.5839
 20
133.0649
 11
180.5839
 21
133.0649
 40
1.8254
 41
0.5
 50
284.4999645
  1
ﾟ
  0
POLYLINE
  8
LAYER_1
 40
0.2963
 41
0.2963
 66
1
 10
0
 20
0
 30
0
  0
VERTEX
  8
LAYER_1
 10
166.4586
 20
131.5497
  0
VERTEX
  8
LAYER_1
 10
164.1091
 20
135.7619
  0
SEQEND
  0
POLYLINE
  8
LAYER_1
 40
0.2963
 41
0.2963
 66
1
 10
0
 20
0
 30
0
  0
VERTEX
  8
LAYER_1
 10
178.2696
 20
138.0902
  0
VERTEX
  8
LAYER_1
 10
175.9201
 20
142.3236
  0
SEQEND
  0
CIRCLE
  8
LAYER_1
 10
164.1197
 20
135.7513
 40
0.2699
  0
CIRCLE
  8
LAYER_1
 10
164.1091
 20
135.7619
 40
0.254
  0
CIRCLE
  8
LAYER_1
 10
175.9307
 20
142.313
 40
0.2699
  0
CIRCLE
  8
LAYER_1
 10
175.9201
 20
142.3236
 40
0.254
  0
POLYLINE
  8
LAYER_1
 40
0.2963
 41
0.2963
 66
1
 10
0
 20
0
 30
0
  0
VERTEX
  8
LAYER_1
 10
164.1091
 20
135.7619
  0
VERTEX
  8
LAYER_1
 10
175.9201
 20
142.3236
  0
SEQEND
  0
POLYLINE
  8
LAYER_1
 40
0.05
 41
0.05
 62
255
 66
1
 10
0
 20
0
 30
0
 70
1
  0
VERTEX
  8
LAYER_1
 10
167.771
 20
140.3762
  0
VERTEX
  8
LAYER_1
 10
170.0781
 20
141.6674
  0
VERTEX
  8
LAYER_1
 10
170.9248
 20
140.1222
  0
VERTEX
  8
LAYER_1
 10
168.6176
 20
138.8311
  0
SEQEND
  0
TEXT
  8
LAYER_1
 10
168.524
 20
139.0199
 11
168.524
 21
139.0199
 40
2.0808
 41
0.5
 50
29.00001305
  1
27
  0
TEXT
  8
LAYER_1
 10
170.0694
 20
139.8687
 11
170.0694
 21
139.8687
 40
2.0808
 41
0.5
 50
29.00001305
  1
0
  0
POLYLINE
  8
LAYER_1
 40
0.2963
 41
0.2963
 66
1
 10
0
 20
0
 30
0
  0
VERTEX
  8
LAYER_1
 10
196.6423
 20
130.2374
  0
VERTEX
  8
LAYER_1
 10
199.0764
 20
130.2374
  0
SEQEND
  0
POLYLINE
  8
LAYER_1
 40
0.2963
 41
0.2963
 66
1
 10
0
 20
0
 30
0
  0
VERTEX
  8
LAYER_1
 10
189.9324
 20
142.2389
  0
VERTEX
  8
LAYER_1
 10
199.0764
 20
142.2389
  0
SEQEND
  0
CIRCLE
  8
LAYER_1
 10
199.087
 20
130.2268
 40
0.2699
  0
CIRCLE
  8
LAYER_1
 10
199.0764
 20
130.2374
 40
0.254
  0
CIRCLE
  8
LAYER_1
 10
199.087
 20
142.2283
 40
0.2699
  0
CIRCLE
  8
LAYER_1
 10
199.0764
 20
142.2389
 40
0.254
  0
POLYLINE
  8
LAYER_1
 40
0.2963
 41
0.2963
 66
1
 10
0
 20
0
 30
0
  0
VERTEX
  8
LAYER_1
 10
199.0764
 20
130.2374
  0
VERTEX
  8
LAYER_1
 10
199.0764
 20
142.2389
  0
SEQEND
  0
POLYLINE
  8
LAYER_1
 40
0.05
 41
0.05
 62
255
 66
1
 10
0
 20
0
 30
0
 70
1
  0
VERTEX
  8
LAYER_1
 10
196.8328
 20
137.5611
  0
VERTEX
  8
LAYER_1
 10
198.5896
 20
137.5611
  0
VERTEX
  8
LAYER_1
 10
198.5896
 20
134.9152
  0
VERTEX
  8
LAYER_1
 10
196.8328
 20
134.9152
  0
SEQEND
  0
TEXT
  8
LAYER_1
 10
198.3886
 20
134.9184
 11
198.3886
 21
134.9184
 40
2.0813
 41
0.5
 50
89.99999999
  1
240
  0
POLYLINE
  8
LAYER_1
 40
0.2963
 41
0.2963
 66
1
 10
0
 20
0
 30
0
  0
VERTEX
  8
LAYER_1
 10
180.4921
 20
136.7779
  0
VERTEX
  8
LAYER_1
 10
194.4409
 20
136.7779
  0
SEQEND
  0
POLYLINE
  8
LAYER_1
 40
0.2963
 41
0.2963
 66
1
 10
0
 20
0
 30
0
  0
VERTEX
  8
LAYER_1
 10
189.9324
 20
142.2389
  0
VERTEX
  8
LAYER_1
 10
194.4409
 20
142.2389
  0
SEQEND
  0
POLYLINE
  8
LAYER_1
 40
0.2963
 41
0.2963
 66
1
 10
0
 20
0
 30
0
  0
VERTEX
  8
LAYER_1
 10
194.4409
 20
142.2389
  0
VERTEX
  8
LAYER_1
 10
194.4409
 20
136.7779
  0
SEQEND
  0
CIRCLE
  8
LAYER_1
 10
194.4515
 20
136.7673
 40
0.2699
  0
CIRCLE
  8
LAYER_1
 10
194.4409
 20
136.7779
 40
0.254
  0
POLYLINE
  8
LAYER_1
 40
0.2963
 41
0.2963
 66
1
 10
0
 20
0
 30
0
  0
VERTEX
  8
LAYER_1
 10
194.4409
 20
136.7779
  0
VERTEX
  8
LAYER_1
 10
194.4409
 20
136.5451
  0
SEQEND
  0
CIRCLE
  8
LAYER_1
 10
194.4515
 20
142.2283
 40
0.2699
  0
CIRCLE
  8
LAYER_1
 10
194.4409
 20
142.2389
 40
0.254
  0
POLYLINE
  8
LAYER_1
 40
0.2963
 41
0.2963
 66
1
 10
0
 20
0
 30
0
  0
VERTEX
  8
LAYER_1
 10
194.4409
 20
142.2389
  0
VERTEX
  8
LAYER_1
 10
194.4409
 20
142.4929
  0
SEQEND
  0
POLYLINE
  8
LAYER_1
 40
0.05
 41
0.05
 62
255
 66
1
 10
0
 20
0
 30
0
 70
1
  0
VERTEX
  8
LAYER_1
 10
192.1761
 20
141.9002
  0
VERTEX
  8
LAYER_1
 10
193.933
 20
141.9002
  0
VERTEX
  8
LAYER_1
 10
193.933
 20
137.1377
  0
VERTEX
  8
LAYER_1
 10
192.1761
 20
137.1377
  0
SEQEND
  0
TEXT
  8
LAYER_1
 10
193.7564
 20
137.1349
 11
193.7564
 21
137.1349
 40
2.0813
 41
0.5
 50
89.99999999
  1
108.97
  0
POLYLINE
  8
LAYER_1
 40
0.2963
 41
0.2963
 66
1
 10
0
 20
0
 30
0
  0
VERTEX
  8
LAYER_1
 10
178.9893
 20
135.2962
  0
VERTEX
  8
LAYER_1
 10
178.9893
 20
122.8291
  0
SEQEND
  0
POLYLINE
  8
LAYER_1
 40
0.2963
 41
0.2963
 66
1
 10
0
 20
0
 30
0
  0
VERTEX
  8
LAYER_1
 10
167.1783
 20
124.3319
  0
VERTEX
  8
LAYER_1
 10
167.1783
 20
122.8291
  0
SEQEND
  0
CIRCLE
  8
LAYER_1
 10
178.9999
 20
122.8185
 40
0.2699
  0
CIRCLE
  8
LAYER_1
 10
178.9893
 20
122.8291
 40
0.254
  0
CIRCLE
  8
LAYER_1
 10
167.1889
 20
122.8185
 40
0.2699
  0
CIRCLE
  8
LAYER_1
 10
167.1783
 20
122.8291
 40
0.254
  0
POLYLINE
  8
LAYER_1
 40
0.2963
 41
0.2963
 66
1
 10
0
 20
0
 30
0
  0
VERTEX
  8
LAYER_1
 10
178.9893
 20
122.8291
  0
VERTEX
  8
LAYER_1
 10
167.1783
 20
122.8291
  0
SEQEND
  0
POLYLINE
  8
LAYER_1
 40
0.05
 41
0.05
 62
255
 66
1
 10
0
 20
0
 30
0
 70
1
  0
VERTEX
  8
LAYER_1
 10
170.7131
 20
125.0939
  0
VERTEX
  8
LAYER_1
 10
175.4756
 20
125.0939
  0
VERTEX
  8
LAYER_1
 10
175.4756
 20
123.3371
  0
VERTEX
  8
LAYER_1
 10
170.7131
 20
123.3371
  0
SEQEND
  0
TEXT
  8
LAYER_1
 10
170.7132
 20
123.5382
 11
170.7132
 21
123.5382
 40
2.0812
 41
0.5
  1
236.07
  0
POLYLINE
  8
LAYER_1
 40
0.05
 41
0.05
 62
254
 66
1
 10
0
 20
0
 30
0
 70
1
  0
VERTEX
  8
LAYER_1
 10
130.2213
 20
185.1649
  0
VERTEX
  8
LAYER_1
 10
154.4783
 20
185.1649
  0
VERTEX
  8
LAYER_1
 10
155.2191
 20
184.4241
  0
VERTEX
  8
LAYER_1
 10
155.2191
 20
180.9104
  0
VERTEX
  8
LAYER_1
 10
154.4783
 20
180.1696
  0
VERTEX
  8
LAYER_1
 10
130.2213
 20
180.1696
  0
SEQEND
  0
POLYLINE
  8
LAYER_1
 40
0.2963
 41
0.2963
 66
1
 10
0
 20
0
 30
0
  0
VERTEX
  8
LAYER_1
 10
130.2213
 20
185.1649
  0
VERTEX
  8
LAYER_1
 10
154.4783
 20
185.1649
  0
VERTEX
  8
LAYER_1
 10
155.2191
 20
184.4241
  0
VERTEX
  8
LAYER_1
 10
155.2191
 20
180.9104
  0
VERTEX
  8
LAYER_1
 10
154.4783
 20
180.1696
  0
VERTEX
  8
LAYER_1
 10
130.2213
 20
180.1696
  0
VERTEX
  8
LAYER_1
 10
130.2213
 20
185.1649
  0
SEQEND
  0
TEXT
  8
LAYER_1
 10
154.6473
 20
186.0012
 11
154.6473
 21
186.0012
 40
2.0812
 41
0.5
  1
C1.5
  0
TEXT
  8
LAYER_1
 10
154.3937
 20
177.852
 11
154.3937
 21
177.852
 40
2.0812
 41
0.5
  1
C1.5
  0
POLYLINE
  8
LAYER_1
 40
0.05
 41
0.05
 62
254
 66
1
 10
0
 20
0
 30
0
 70
1
  0
VERTEX
  8
LAYER_1
 10
130.2213
 20
180.1696
  0
VERTEX
  8
LAYER_1
 10
144.2336
 20
180.1696
  0
VERTEX
  8
LAYER_1
 10
144.2336
 20
171.1737
  0
VERTEX
  8
LAYER_1
 10
130.2213
 20
171.1737
  0
SEQEND
  0
POLYLINE
  8
LAYER_1
 40
0.2963
 41
0.2963
 66
1
 10
0
 20
0
 30
0
 70
1
  0
VERTEX
  8
LAYER_1
 10
144.2336
 20
180.1696
  0
VERTEX
  8
LAYER_1
 10
130.2213
 20
180.1696
  0
VERTEX
  8
LAYER_1
 10
130.2213
 20
171.1737
  0
VERTEX
  8
LAYER_1
 10
144.2336
 20
171.1737
  0
SEQEND
  0
POLYLINE
  8
LAYER_1
 40
0.2081
 41
0.2081
 66
1
 10
0
 20
0
 30
0
  0
VERTEX
  8
LAYER_1
 10
130.2213
 20
178.6667
  0
VERTEX
  8
LAYER_1
 10
144.2336
 20
178.6667
  0
SEQEND
  0
POLYLINE
  8
LAYER_1
 40
0.2081
 41
0.2081
 66
1
 10
0
 20
0
 30
0
  0
VERTEX
  8
LAYER_1
 10
130.2213
 20
177.1639
  0
VERTEX
  8
LAYER_1
 10
144.2336
 20
177.1639
  0
SEQEND
  0
POLYLINE
  8
LAYER_1
 40
0.2081
 41
0.2081
 66
1
 10
0
 20
0
 30
0
  0
VERTEX
  8
LAYER_1
 10
130.2213
 20
175.6611
  0
VERTEX
  8
LAYER_1
 10
144.2336
 20
175.6611
  0
SEQEND
  0
POLYLINE
  8
LAYER_1
 40
0.2081
 41
0.2081
 66
1
 10
0
 20
0
 30
0
  0
VERTEX
  8
LAYER_1
 10
130.2213
 20
174.1582
  0
VERTEX
  8
LAYER_1
 10
144.2336
 20
174.1582
  0
SEQEND
  0
POLYLINE
  8
LAYER_1
 40
0.2081
 41
0.2081
 66
1
 10
0
 20
0
 30
0
  0
VERTEX
  8
LAYER_1
 10
130.2213
 20
172.6766
  0
VERTEX
  8
LAYER_1
 10
144.2336
 20
172.6766
  0
SEQEND
  0
POLYLINE
  8
LAYER_1
 40
0.1693
 41
0.1693
 66
1
 10
0
 20
0
 30
0
  0
VERTEX
  8
LAYER_1
 10
155.9811
 20
185.1649
  0
VERTEX
  8
LAYER_1
 10
162.7333
 20
185.1649
  0
SEQEND
  0
POLYLINE
  8
LAYER_1
 40
0.1693
 41
0.1693
 66
1
 10
0
 20
0
 30
0
  0
VERTEX
  8
LAYER_1
 10
155.9811
 20
180.1696
  0
VERTEX
  8
LAYER_1
 10
162.7333
 20
180.1696
  0
SEQEND
  0
POLYLINE
  8
LAYER_1
 40
0.1693
 41
0.1693
 66
1
 10
0
 20
0
 30
0
  0
VERTEX
  8
LAYER_1
 10
162.7333
 20
180.1696
  0
VERTEX
  8
LAYER_1
 10
162.7333
 20
185.1649
  0
SEQEND
  0
CIRCLE
  8
LAYER_1
 10
162.7439
 20
185.1543
 40
0.2699
  0
CIRCLE
  8
LAYER_1
 10
162.7333
 20
185.1649
 40
0.254
  0
POLYLINE
  8
LAYER_1
 40
0.1693
 41
0.1693
 66
1
 10
0
 20
0
 30
0
  0
VERTEX
  8
LAYER_1
 10
162.7333
 20
185.1649
  0
VERTEX
  8
LAYER_1
 10
162.7333
 20
185.4189
  0
SEQEND
  0
CIRCLE
  8
LAYER_1
 10
162.7439
 20
180.159
 40
0.2699
  0
CIRCLE
  8
LAYER_1
 10
162.7333
 20
180.1696
 40
0.254
  0
POLYLINE
  8
LAYER_1
 40
0.1693
 41
0.1693
 66
1
 10
0
 20
0
 30
0
  0
VERTEX
  8
LAYER_1
 10
162.7333
 20
180.1696
  0
VERTEX
  8
LAYER_1
 10
162.7333
 20
179.9156
  0
SEQEND
  0
POLYLINE
  8
LAYER_1
 40
0.05
 41
0.05
 62
255
 66
1
 10
0
 20
0
 30
0
 70
1
  0
VERTEX
  8
LAYER_1
 10
160.1086
 20
183.7256
  0
VERTEX
  8
LAYER_1
 10
162.2253
 20
183.7256
  0
VERTEX
  8
LAYER_1
 10
162.2253
 20
181.6089
  0
VERTEX
  8
LAYER_1
 10
160.1086
 20
181.6089
  0
SEQEND
  0
TEXT
  8
LAYER_1
 10
161.9902
 20
181.6054
 11
161.9902
 21
181.6054
 40
2.5076
 41
0.5
 50
89.99999999
  1
10
  0
POLYLINE
  8
LAYER_1
 40
0.1693
 41
0.1693
 66
1
 10
0
 20
0
 30
0
  0
VERTEX
  8
LAYER_1
 10
155.9811
 20
180.1696
  0
VERTEX
  8
LAYER_1
 10
162.7333
 20
180.1696
  0
SEQEND
  0
POLYLINE
  8
LAYER_1
 40
0.1693
 41
0.1693
 66
1
 10
0
 20
0
 30
0
  0
VERTEX
  8
LAYER_1
 10
155.9811
 20
171.1737
  0
VERTEX
  8
LAYER_1
 10
162.7333
 20
171.1737
  0
SEQEND
  0
CIRCLE
  8
LAYER_1
 10
162.7439
 20
180.159
 40
0.2699
  0
CIRCLE
  8
LAYER_1
 10
162.7333
 20
180.1696
 40
0.254
  0
CIRCLE
  8
LAYER_1
 10
162.7439
 20
171.1632
 40
0.2699
  0
CIRCLE
  8
LAYER_1
 10
162.7333
 20
171.1737
 40
0.254
  0
POLYLINE
  8
LAYER_1
 40
0.1693
 41
0.1693
 66
1
 10
0
 20
0
 30
0
  0
VERTEX
  8
LAYER_1
 10
162.7333
 20
180.1696
  0
VERTEX
  8
LAYER_1
 10
162.7333
 20
171.1737
  0
SEQEND
  0
POLYLINE
  8
LAYER_1
 40
0.05
 41
0.05
 62
255
 66
1
 10
0
 20
0
 30
0
 70
1
  0
VERTEX
  8
LAYER_1
 10
160.1086
 20
176.7194
  0
VERTEX
  8
LAYER_1
 10
162.2253
 20
176.7194
  0
VERTEX
  8
LAYER_1
 10
162.2253
 20
174.6027
  0
VERTEX
  8
LAYER_1
 10
160.1086
 20
174.6027
  0
SEQEND
  0
TEXT
  8
LAYER_1
 10
161.9902
 20
174.6026
 11
161.9902
 21
174.6026
 40
2.5076
 41
0.5
 50
89.99999999
  1
18
  0
POLYLINE
  8
LAYER_1
 40
0.1693
 41
0.1693
 66
1
 10
0
 20
0
 30
0
  0
VERTEX
  8
LAYER_1
 10
144.2336
 20
169.9249
  0
VERTEX
  8
LAYER_1
 10
144.2336
 20
162.1567
  0
SEQEND
  0
POLYLINE
  8
LAYER_1
 40
0.1693
 41
0.1693
 66
1
 10
0
 20
0
 30
0
  0
VERTEX
  8
LAYER_1
 10
155.2191
 20
169.9249
  0
VERTEX
  8
LAYER_1
 10
155.2191
 20
162.1567
  0
SEQEND
  0
CIRCLE
  8
LAYER_1
 10
144.2442
 20
162.1462
 40
0.2699
  0
CIRCLE
  8
LAYER_1
 10
144.2336
 20
162.1567
 40
0.254
  0
CIRCLE
  8
LAYER_1
 10
155.2297
 20
162.1462
 40
0.2699
  0
CIRCLE
  8
LAYER_1
 10
155.2191
 20
162.1567
 40
0.254
  0
POLYLINE
  8
LAYER_1
 40
0.1693
 41
0.1693
 66
1
 10
0
 20
0
 30
0
  0
VERTEX
  8
LAYER_1
 10
144.2336
 20
162.1567
  0
VERTEX
  8
LAYER_1
 10
155.2191
 20
162.1567
  0
SEQEND
  0
POLYLINE
  8
LAYER_1
 40
0.05
 41
0.05
 62
255
 66
1
 10
0
 20
0
 30
0
 70
1
  0
VERTEX
  8
LAYER_1
 10
148.6786
 20
164.7814
  0
VERTEX
  8
LAYER_1
 10
150.7953
 20
164.7814
  0
VERTEX
  8
LAYER_1
 10
150.7953
 20
162.6647
  0
VERTEX
  8
LAYER_1
 10
148.6786
 20
162.6647
  0
SEQEND
  0
TEXT
  8
LAYER_1
 10
148.6787
 20
162.8975
 11
148.6787
 21
162.8975
 40
2.5075
 41
0.5
  1
22
  0
POLYLINE
  8
LAYER_1
 40
0.2963
 41
0.2963
 62
255
 66
1
 10
0
 20
0
 30
0
  0
VERTEX
  8
LAYER_1
 10
130.2213
 20
185.1649
  0
VERTEX
  8
LAYER_1
 10
130.2213
 20
171.1737
  0
SEQEND
  0
POLYLINE
  8
LAYER_1
 40
0.2963
 41
0.2963
 66
1
 10
0
 20
0
 30
0
  0
VERTEX
  8
LAYER_1
 10
145.0168
 20
175.0896
  0
VERTEX
  8
LAYER_1
 10
158.2248
 20
166.6652
  0
SEQEND
  0
TEXT
  8
LAYER_1
 10
158.7328
 20
165.0354
 11
158.7328
 21
165.0354
 40
1.8256
 41
0.5
  1
ウッドブラック
  0
TEXT
  8
LAYER_1
 10
158.7328
 20
163.2786
 11
158.7328
 21
163.2786
 40
1.8256
 41
0.5
  1
小口貼
  0
POLYLINE
  8
LAYER_1
 40
0.05
 41
0.05
 62
253
 66
1
 10
0
 20
0
 30
0
 70
1
  0
VERTEX
  8
LAYER_1
 10
143.7256
 20
180.1696
  0
VERTEX
  8
LAYER_1
 10
144.2336
 20
180.1696
  0
VERTEX
  8
LAYER_1
 10
144.2336
 20
171.1737
  0
VERTEX
  8
LAYER_1
 10
143.7256
 20
171.1737
  0
SEQEND
  0
POLYLINE
  8
LAYER_1
 40
0.2963
 41
0.2963
 66
1
 10
0
 20
0
 30
0
 70
1
  0
VERTEX
  8
LAYER_1
 10
144.2336
 20
180.1696
  0
VERTEX
  8
LAYER_1
 10
143.7256
 20
180.1696
  0
VERTEX
  8
LAYER_1
 10
143.7256
 20
171.1737
  0
VERTEX
  8
LAYER_1
 10
144.2336
 20
171.1737
  0
SEQEND
  0
TEXT
  8
LAYER_1
 10
130.2212
 20
187.3451
 11
130.2212
 21
187.3451
 40
2.1995
 41
0.5
  1
側見付詳細
  0
POLYLINE
  8
LAYER_1
 40
0.05
 41
0.05
 62
255
 66
1
 10
0
 20
0
 30
0
 70
1
  0
VERTEX
  8
LAYER_1
 10
138.2223
 20
183.4081
  0
VERTEX
  8
LAYER_1
 10
145.7999
 20
183.4081
  0
VERTEX
  8
LAYER_1
 10
145.7999
 20
181.3761
  0
VERTEX
  8
LAYER_1
 10
138.2223
 20
181.3761
  0
SEQEND
  0
TEXT
  8
LAYER_1
 10
138.2225
 20
181.7679
 11
138.2225
 21
181.7679
 40
2.0812
 41
0.5
  1
MODEST
  0
POLYLINE
  8
LAYER_1
 40
0.05
 41
0.05
 62
255
 66
1
 10
0
 20
0
 30
0
 70
1
  0
VERTEX
  8
LAYER_1
 10
131.2373
 20
176.6559
  0
VERTEX
  8
LAYER_1
 10
138.2858
 20
176.6559
  0
VERTEX
  8
LAYER_1
 10
138.2858
 20
174.8991
  0
VERTEX
  8
LAYER_1
 10
131.2373
 20
174.8991
  0
SEQEND
  0
TEXT
  8
LAYER_1
 10
131.2372
 20
175.153
 11
131.2372
 21
175.153
 40
1.8256
 41
0.5
  1
耐水合板
  0
POLYLINE
  8
LAYER_1
 40
0.05
 41
0.05
 62
254
 66
1
 10
0
 20
0
 30
0
 70
1
  0
VERTEX
  8
LAYER_1
 10
200.2194
 20
99.6727
  0
VERTEX
  8
LAYER_1
 10
150.9858
 20
99.6727
  0
VERTEX
  8
LAYER_1
 10
150.2238
 20
98.9107
  0
VERTEX
  8
LAYER_1
 10
150.2238
 20
95.4182
  0
VERTEX
  8
LAYER_1
 10
150.9858
 20
94.6562
  0
VERTEX
  8
LAYER_1
 10
200.2194
 20
94.6562
  0
SEQEND
  0
POLYLINE
  8
LAYER_1
 40
0.2963
 41
0.2963
 66
1
 10
0
 20
0
 30
0
  0
VERTEX
  8
LAYER_1
 10
200.2194
 20
99.6727
  0
VERTEX
  8
LAYER_1
 10
150.9858
 20
99.6727
  0
VERTEX
  8
LAYER_1
 10
150.2238
 20
98.9107
  0
VERTEX
  8
LAYER_1
 10
150.2238
 20
95.4182
  0
VERTEX
  8
LAYER_1
 10
150.9858
 20
94.6562
  0
VERTEX
  8
LAYER_1
 10
200.2194
 20
94.6562
  0
VERTEX
  8
LAYER_1
 10
200.2194
 20
99.6727
  0
SEQEND
  0
POLYLINE
  8
LAYER_1
 40
0.05
 41
0.05
 62
254
 66
1
 10
0
 20
0
 30
0
 70
1
  0
VERTEX
  8
LAYER_1
 10
163.7281
 20
94.6562
  0
VERTEX
  8
LAYER_1
 10
200.2194
 20
94.6562
  0
VERTEX
  8
LAYER_1
 10
200.2194
 20
85.6604
  0
VERTEX
  8
LAYER_1
 10
163.7281
 20
85.6604
  0
SEQEND
  0
POLYLINE
  8
LAYER_1
 40
0.2963
 41
0.2963
 66
1
 10
0
 20
0
 30
0
 70
1
  0
VERTEX
  8
LAYER_1
 10
200.2194
 20
94.6562
  0
VERTEX
  8
LAYER_1
 10
163.7281
 20
94.6562
  0
VERTEX
  8
LAYER_1
 10
163.7281
 20
85.6604
  0
VERTEX
  8
LAYER_1
 10
200.2194
 20
85.6604
  0
SEQEND
  0
POLYLINE
  8
LAYER_1
 40
0.2081
 41
0.2081
 66
1
 10
0
 20
0
 30
0
  0
VERTEX
  8
LAYER_1
 10
200.2194
 20
93.1746
  0
VERTEX
  8
LAYER_1
 10
163.7281
 20
93.1746
  0
SEQEND
  0
POLYLINE
  8
LAYER_1
 40
0.2081
 41
0.2081
 66
1
 10
0
 20
0
 30
0
  0
VERTEX
  8
LAYER_1
 10
200.2194
 20
91.6717
  0
VERTEX
  8
LAYER_1
 10
163.7281
 20
91.6717
  0
SEQEND
  0
POLYLINE
  8
LAYER_1
 40
0.2081
 41
0.2081
 66
1
 10
0
 20
0
 30
0
  0
VERTEX
  8
LAYER_1
 10
200.2194
 20
90.1689
  0
VERTEX
  8
LAYER_1
 10
163.7281
 20
90.1689
  0
SEQEND
  0
POLYLINE
  8
LAYER_1
 40
0.2081
 41
0.2081
 66
1
 10
0
 20
0
 30
0
  0
VERTEX
  8
LAYER_1
 10
200.2194
 20
88.6661
  0
VERTEX
  8
LAYER_1
 10
163.7281
 20
88.6661
  0
SEQEND
  0
POLYLINE
  8
LAYER_1
 40
0.2081
 41
0.2081
 66
1
 10
0
 20
0
 30
0
  0
VERTEX
  8
LAYER_1
 10
200.2194
 20
87.1632
  0
VERTEX
  8
LAYER_1
 10
163.7281
 20
87.1632
  0
SEQEND
  0
POLYLINE
  8
LAYER_1
 40
0.1693
 41
0.1693
 66
1
 10
0
 20
0
 30
0
  0
VERTEX
  8
LAYER_1
 10
149.483
 20
99.6727
  0
VERTEX
  8
LAYER_1
 10
142.7308
 20
99.6727
  0
SEQEND
  0
POLYLINE
  8
LAYER_1
 40
0.1693
 41
0.1693
 66
1
 10
0
 20
0
 30
0
  0
VERTEX
  8
LAYER_1
 10
149.483
 20
94.6562
  0
VERTEX
  8
LAYER_1
 10
142.7308
 20
94.6562
  0
SEQEND
  0
POLYLINE
  8
LAYER_1
 40
0.1693
 41
0.1693
 66
1
 10
0
 20
0
 30
0
  0
VERTEX
  8
LAYER_1
 10
142.7308
 20
94.6562
  0
VERTEX
  8
LAYER_1
 10
142.7308
 20
99.6727
  0
SEQEND
  0
CIRCLE
  8
LAYER_1
 10
142.7414
 20
99.6621
 40
0.2699
  0
CIRCLE
  8
LAYER_1
 10
142.7308
 20
99.6727
 40
0.254
  0
POLYLINE
  8
LAYER_1
 40
0.1693
 41
0.1693
 66
1
 10
0
 20
0
 30
0
  0
VERTEX
  8
LAYER_1
 10
142.7308
 20
99.6727
  0
VERTEX
  8
LAYER_1
 10
142.7308
 20
99.9056
  0
SEQEND
  0
CIRCLE
  8
LAYER_1
 10
142.7414
 20
94.6456
 40
0.2699
  0
CIRCLE
  8
LAYER_1
 10
142.7308
 20
94.6562
 40
0.254
  0
POLYLINE
  8
LAYER_1
 40
0.1693
 41
0.1693
 66
1
 10
0
 20
0
 30
0
  0
VERTEX
  8
LAYER_1
 10
142.7308
 20
94.6562
  0
VERTEX
  8
LAYER_1
 10
142.7308
 20
94.4234
  0
SEQEND
  0
POLYLINE
  8
LAYER_1
 40
0.05
 41
0.05
 62
255
 66
1
 10
0
 20
0
 30
0
 70
1
  0
VERTEX
  8
LAYER_1
 10
140.1061
 20
98.2334
  0
VERTEX
  8
LAYER_1
 10
142.2228
 20
98.2334
  0
VERTEX
  8
LAYER_1
 10
142.2228
 20
96.1167
  0
VERTEX
  8
LAYER_1
 10
140.1061
 20
96.1167
  0
SEQEND
  0
TEXT
  8
LAYER_1
 10
141.9893
 20
96.1169
 11
141.9893
 21
96.1169
 40
2.5076
 41
0.5
 50
89.99999999
  1
10
  0
POLYLINE
  8
LAYER_1
 40
0.1693
 41
0.1693
 66
1
 10
0
 20
0
 30
0
  0
VERTEX
  8
LAYER_1
 10
149.483
 20
94.6562
  0
VERTEX
  8
LAYER_1
 10
142.7308
 20
94.6562
  0
SEQEND
  0
POLYLINE
  8
LAYER_1
 40
0.1693
 41
0.1693
 66
1
 10
0
 20
0
 30
0
  0
VERTEX
  8
LAYER_1
 10
149.483
 20
85.6604
  0
VERTEX
  8
LAYER_1
 10
142.7308
 20
85.6604
  0
SEQEND
  0
CIRCLE
  8
LAYER_1
 10
142.7414
 20
94.6456
 40
0.2699
  0
CIRCLE
  8
LAYER_1
 10
142.7308
 20
94.6562
 40
0.254
  0
CIRCLE
  8
LAYER_1
 10
142.7414
 20
85.6498
 40
0.2699
  0
CIRCLE
  8
LAYER_1
 10
142.7308
 20
85.6604
 40
0.254
  0
POLYLINE
  8
LAYER_1
 40
0.1693
 41
0.1693
 66
1
 10
0
 20
0
 30
0
  0
VERTEX
  8
LAYER_1
 10
142.7308
 20
94.6562
  0
VERTEX
  8
LAYER_1
 10
142.7308
 20
85.6604
  0
SEQEND
  0
POLYLINE
  8
LAYER_1
 40
0.05
 41
0.05
 62
255
 66
1
 10
0
 20
0
 30
0
 70
1
  0
VERTEX
  8
LAYER_1
 10
140.1061
 20
91.2272
  0
VERTEX
  8
LAYER_1
 10
142.2228
 20
91.2272
  0
VERTEX
  8
LAYER_1
 10
142.2228
 20
89.1106
  0
VERTEX
  8
LAYER_1
 10
140.1061
 20
89.1106
  0
SEQEND
  0
TEXT
  8
LAYER_1
 10
141.9893
 20
89.1144
 11
141.9893
 21
89.1144
 40
2.5076
 41
0.5
 50
89.99999999
  1
18
  0
POLYLINE
  8
LAYER_1
 40
0.1693
 41
0.1693
 66
1
 10
0
 20
0
 30
0
  0
VERTEX
  8
LAYER_1
 10
163.7281
 20
84.4116
  0
VERTEX
  8
LAYER_1
 10
163.7281
 20
76.6646
  0
SEQEND
  0
POLYLINE
  8
LAYER_1
 40
0.1693
 41
0.1693
 66
1
 10
0
 20
0
 30
0
  0
VERTEX
  8
LAYER_1
 10
150.2238
 20
84.4116
  0
VERTEX
  8
LAYER_1
 10
150.2238
 20
76.6646
  0
SEQEND
  0
CIRCLE
  8
LAYER_1
 10
163.7387
 20
76.654
 40
0.2699
  0
CIRCLE
  8
LAYER_1
 10
163.7281
 20
76.6646
 40
0.254
  0
CIRCLE
  8
LAYER_1
 10
150.2344
 20
76.654
 40
0.2699
  0
CIRCLE
  8
LAYER_1
 10
150.2238
 20
76.6646
 40
0.254
  0
POLYLINE
  8
LAYER_1
 40
0.1693
 41
0.1693
 66
1
 10
0
 20
0
 30
0
  0
VERTEX
  8
LAYER_1
 10
163.7281
 20
76.6646
  0
VERTEX
  8
LAYER_1
 10
150.2238
 20
76.6646
  0
SEQEND
  0
POLYLINE
  8
LAYER_1
 40
0.05
 41
0.05
 62
255
 66
1
 10
0
 20
0
 30
0
 70
1
  0
VERTEX
  8
LAYER_1
 10
155.9176
 20
79.2892
  0
VERTEX
  8
LAYER_1
 10
158.0343
 20
79.2892
  0
VERTEX
  8
LAYER_1
 10
158.0343
 20
77.1726
  0
VERTEX
  8
LAYER_1
 10
155.9176
 20
77.1726
  0
SEQEND
  0
TEXT
  8
LAYER_1
 10
155.9179
 20
77.4056
 11
155.9179
 21
77.4056
 40
2.5075
 41
0.5
  1
27
  0
TEXT
  8
LAYER_1
 10
152.4039
 20
102.848
 11
152.4039
 21
102.848
 40
2.1995
 41
0.5
  1
正面見付詳細
  0
POLYLINE
  8
LAYER_1
 40
0.2963
 41
0.2963
 62
255
 66
1
 10
0
 20
0
 30
0
  0
VERTEX
  8
LAYER_1
 10
200.2194
 20
99.6727
  0
VERTEX
  8
LAYER_1
 10
200.2194
 20
85.6604
  0
SEQEND
  0
POLYLINE
  8
LAYER_1
 40
0.05
 41
0.05
 62
255
 66
1
 10
0
 20
0
 30
0
 70
1
  0
VERTEX
  8
LAYER_1
 10
175.7085
 20
91.0579
  0
VERTEX
  8
LAYER_1
 10
182.7569
 20
91.0579
  0
VERTEX
  8
LAYER_1
 10
182.7569
 20
89.2799
  0
VERTEX
  8
LAYER_1
 10
175.7085
 20
89.2799
  0
SEQEND
  0
TEXT
  8
LAYER_1
 10
175.7086
 20
89.5341
 11
175.7086
 21
89.5341
 40
1.8256
 41
0.5
  1
耐水合板
  0
POLYLINE
  8
LAYER_1
 40
0.05
 41
0.05
 62
255
 66
1
 10
0
 20
0
 30
0
 70
1
  0
VERTEX
  8
LAYER_1
 10
168.7234
 20
98.1699
  0
VERTEX
  8
LAYER_1
 10
176.3011
 20
98.1699
  0
VERTEX
  8
LAYER_1
 10
176.3011
 20
96.1379
  0
VERTEX
  8
LAYER_1
 10
168.7234
 20
96.1379
  0
SEQEND
  0
TEXT
  8
LAYER_1
 10
168.7233
 20
96.5297
 11
168.7233
 21
96.5297
 40
2.0812
 41
0.5
  1
MODEST
  0
POLYLINE
  8
LAYER_1
 40
0.2963
 41
0.2963
 66
1
 10
0
 20
0
 30
0
  0
VERTEX
  8
LAYER_1
 10
162.7333
 20
89.8937
  0
VERTEX
  8
LAYER_1
 10
147.2393
 20
79.6702
  0
SEQEND
  0
TEXT
  8
LAYER_1
 10
136.8041
 20
78.5273
 11
136.8041
 21
78.5273
 40
1.8256
 41
0.5
  1
ウッドブラック
  0
TEXT
  8
LAYER_1
 10
136.8041
 20
76.7703
 11
136.8041
 21
76.7703
 40
1.8256
 41
0.5
  1
小口貼
  0
POLYLINE
  8
LAYER_1
 40
0.05
 41
0.05
 62
253
 66
1
 10
0
 20
0
 30
0
 70
1
  0
VERTEX
  8
LAYER_1
 10
163.7281
 20
94.6562
  0
VERTEX
  8
LAYER_1
 10
164.2361
 20
94.6562
  0
VERTEX
  8
LAYER_1
 10
164.2361
 20
85.6604
  0
VERTEX
  8
LAYER_1
 10
163.7281
 20
85.6604
  0
SEQEND
  0
POLYLINE
  8
LAYER_1
 40
0.2963
 41
0.2963
 66
1
 10
0
 20
0
 30
0
 70
1
  0
VERTEX
  8
LAYER_1
 10
164.2361
 20
94.6562
  0
VERTEX
  8
LAYER_1
 10
163.7281
 20
94.6562
  0
VERTEX
  8
LAYER_1
 10
163.7281
 20
85.6604
  0
VERTEX
  8
LAYER_1
 10
164.2361
 20
85.6604
  0
SEQEND
  0
TEXT
  8
LAYER_1
 10
148.6363
 20
100.5091
 11
148.6363
 21
100.5091
 40
2.0812
 41
0.5
  1
C1.5
  0
TEXT
  8
LAYER_1
 10
148.4034
 20
92.3387
 11
148.4034
 21
92.3387
 40
2.0812
 41
0.5
  1
C1.5
  0
TEXT
  8
LAYER_1
 10
130.2212
 20
190.2871
 11
130.2212
 21
190.2871
 40
2.5075
 41
0.5
  1
W850 TYPE
  0
TEXT
  8
LAYER_1
 10
152.6154
 20
104.5836
 11
152.6154
 21
104.5836
 40
2.1995
 41
0.5
  1
共通
  0
TEXT
  8
LAYER_1
 10
200.8333
 20
186.0012
 11
200.8333
 21
186.0012
 40
2.0812
 41
0.5
  1
C1.5
  0
POLYLINE
  8
LAYER_1
 40
0.05
 41
0.05
 62
254
 66
1
 10
0
 20
0
 30
0
 70
1
  0
VERTEX
  8
LAYER_1
 10
176.4281
 20
185.1649
  0
VERTEX
  8
LAYER_1
 10
200.6851
 20
185.1649
  0
VERTEX
  8
LAYER_1
 10
201.4259
 20
184.4241
  0
VERTEX
  8
LAYER_1
 10
201.4259
 20
180.9104
  0
VERTEX
  8
LAYER_1
 10
200.6851
 20
180.1696
  0
VERTEX
  8
LAYER_1
 10
176.4281
 20
180.1696
  0
SEQEND
  0
POLYLINE
  8
LAYER_1
 40
0.2963
 41
0.2963
 66
1
 10
0
 20
0
 30
0
  0
VERTEX
  8
LAYER_1
 10
176.4281
 20
185.1649
  0
VERTEX
  8
LAYER_1
 10
200.6851
 20
185.1649
  0
VERTEX
  8
LAYER_1
 10
201.4259
 20
184.4241
  0
VERTEX
  8
LAYER_1
 10
201.4259
 20
180.9104
  0
VERTEX
  8
LAYER_1
 10
200.6851
 20
180.1696
  0
VERTEX
  8
LAYER_1
 10
176.4281
 20
180.1696
  0
VERTEX
  8
LAYER_1
 10
176.4281
 20
185.1649
  0
SEQEND
  0
TEXT
  8
LAYER_1
 10
200.6004
 20
177.852
 11
200.6004
 21
177.852
 40
2.0812
 41
0.5
  1
C1.5
  0
POLYLINE
  8
LAYER_1
 40
0.05
 41
0.05
 62
254
 66
1
 10
0
 20
0
 30
0
 70
1
  0
VERTEX
  8
LAYER_1
 10
176.4281
 20
180.1696
  0
VERTEX
  8
LAYER_1
 10
191.4353
 20
180.1696
  0
VERTEX
  8
LAYER_1
 10
191.4353
 20
171.1737
  0
VERTEX
  8
LAYER_1
 10
176.4281
 20
171.1737
  0
SEQEND
  0
POLYLINE
  8
LAYER_1
 40
0.2963
 41
0.2963
 66
1
 10
0
 20
0
 30
0
 70
1
  0
VERTEX
  8
LAYER_1
 10
191.4353
 20
180.1696
  0
VERTEX
  8
LAYER_1
 10
176.4281
 20
180.1696
  0
VERTEX
  8
LAYER_1
 10
176.4281
 20
171.1737
  0
VERTEX
  8
LAYER_1
 10
191.4353
 20
171.1737
  0
SEQEND
  0
POLYLINE
  8
LAYER_1
 40
0.2081
 41
0.2081
 66
1
 10
0
 20
0
 30
0
  0
VERTEX
  8
LAYER_1
 10
176.4281
 20
178.6667
  0
VERTEX
  8
LAYER_1
 10
191.4353
 20
178.6667
  0
SEQEND
  0
POLYLINE
  8
LAYER_1
 40
0.2081
 41
0.2081
 66
1
 10
0
 20
0
 30
0
  0
VERTEX
  8
LAYER_1
 10
176.4281
 20
177.1639
  0
VERTEX
  8
LAYER_1
 10
191.4353
 20
177.1639
  0
SEQEND
  0
POLYLINE
  8
LAYER_1
 40
0.2081
 41
0.2081
 66
1
 10
0
 20
0
 30
0
  0
VERTEX
  8
LAYER_1
 10
176.4281
 20
175.6611
  0
VERTEX
  8
LAYER_1
 10
191.4353
 20
175.6611
  0
SEQEND
  0
POLYLINE
  8
LAYER_1
 40
0.2081
 41
0.2081
 66
1
 10
0
 20
0
 30
0
  0
VERTEX
  8
LAYER_1
 10
176.4281
 20
174.1582
  0
VERTEX
  8
LAYER_1
 10
191.4353
 20
174.1582
  0
SEQEND
  0
POLYLINE
  8
LAYER_1
 40
0.2081
 41
0.2081
 66
1
 10
0
 20
0
 30
0
  0
VERTEX
  8
LAYER_1
 10
176.4281
 20
172.6766
  0
VERTEX
  8
LAYER_1
 10
191.4353
 20
172.6766
  0
SEQEND
  0
POLYLINE
  8
LAYER_1
 40
0.1693
 41
0.1693
 66
1
 10
0
 20
0
 30
0
  0
VERTEX
  8
LAYER_1
 10
202.1879
 20
185.1649
  0
VERTEX
  8
LAYER_1
 10
208.9401
 20
185.1649
  0
SEQEND
  0
POLYLINE
  8
LAYER_1
 40
0.1693
 41
0.1693
 66
1
 10
0
 20
0
 30
0
  0
VERTEX
  8
LAYER_1
 10
202.1879
 20
180.1696
  0
VERTEX
  8
LAYER_1
 10
208.9401
 20
180.1696
  0
SEQEND
  0
POLYLINE
  8
LAYER_1
 40
0.1693
 41
0.1693
 66
1
 10
0
 20
0
 30
0
  0
VERTEX
  8
LAYER_1
 10
208.9401
 20
180.1696
  0
VERTEX
  8
LAYER_1
 10
208.9401
 20
185.1649
  0
SEQEND
  0
CIRCLE
  8
LAYER_1
 10
208.9507
 20
185.1543
 40
0.2699
  0
CIRCLE
  8
LAYER_1
 10
208.9401
 20
185.1649
 40
0.254
  0
POLYLINE
  8
LAYER_1
 40
0.1693
 41
0.1693
 66
1
 10
0
 20
0
 30
0
  0
VERTEX
  8
LAYER_1
 10
208.9401
 20
185.1649
  0
VERTEX
  8
LAYER_1
 10
208.9401
 20
185.4189
  0
SEQEND
  0
CIRCLE
  8
LAYER_1
 10
208.9507
 20
180.159
 40
0.2699
  0
CIRCLE
  8
LAYER_1
 10
208.9401
 20
180.1696
 40
0.254
  0
POLYLINE
  8
LAYER_1
 40
0.1693
 41
0.1693
 66
1
 10
0
 20
0
 30
0
  0
VERTEX
  8
LAYER_1
 10
208.9401
 20
180.1696
  0
VERTEX
  8
LAYER_1
 10
208.9401
 20
179.9156
  0
SEQEND
  0
POLYLINE
  8
LAYER_1
 40
0.05
 41
0.05
 62
255
 66
1
 10
0
 20
0
 30
0
 70
1
  0
VERTEX
  8
LAYER_1
 10
206.3154
 20
183.7256
  0
VERTEX
  8
LAYER_1
 10
208.4321
 20
183.7256
  0
VERTEX
  8
LAYER_1
 10
208.4321
 20
181.6089
  0
VERTEX
  8
LAYER_1
 10
206.3154
 20
181.6089
  0
SEQEND
  0
TEXT
  8
LAYER_1
 10
208.2013
 20
181.6054
 11
208.2013
 21
181.6054
 40
2.5076
 41
0.5
 50
89.99999999
  1
10
  0
POLYLINE
  8
LAYER_1
 40
0.1693
 41
0.1693
 66
1
 10
0
 20
0
 30
0
  0
VERTEX
  8
LAYER_1
 10
202.1879
 20
180.1696
  0
VERTEX
  8
LAYER_1
 10
208.9401
 20
180.1696
  0
SEQEND
  0
POLYLINE
  8
LAYER_1
 40
0.1693
 41
0.1693
 66
1
 10
0
 20
0
 30
0
  0
VERTEX
  8
LAYER_1
 10
202.1879
 20
171.1737
  0
VERTEX
  8
LAYER_1
 10
208.9401
 20
171.1737
  0
SEQEND
  0
CIRCLE
  8
LAYER_1
 10
208.9507
 20
180.159
 40
0.2699
  0
CIRCLE
  8
LAYER_1
 10
208.9401
 20
180.1696
 40
0.254
  0
CIRCLE
  8
LAYER_1
 10
208.9507
 20
171.1632
 40
0.2699
  0
CIRCLE
  8
LAYER_1
 10
208.9401
 20
171.1737
 40
0.254
  0
POLYLINE
  8
LAYER_1
 40
0.1693
 41
0.1693
 66
1
 10
0
 20
0
 30
0
  0
VERTEX
  8
LAYER_1
 10
208.9401
 20
180.1696
  0
VERTEX
  8
LAYER_1
 10
208.9401
 20
171.1737
  0
SEQEND
  0
POLYLINE
  8
LAYER_1
 40
0.05
 41
0.05
 62
255
 66
1
 10
0
 20
0
 30
0
 70
1
  0
VERTEX
  8
LAYER_1
 10
206.3154
 20
176.7194
  0
VERTEX
  8
LAYER_1
 10
208.4321
 20
176.7194
  0
VERTEX
  8
LAYER_1
 10
208.4321
 20
174.6027
  0
VERTEX
  8
LAYER_1
 10
206.3154
 20
174.6027
  0
SEQEND
  0
TEXT
  8
LAYER_1
 10
208.2013
 20
174.6026
 11
208.2013
 21
174.6026
 40
2.5076
 41
0.5
 50
89.99999999
  1
18
  0
POLYLINE
  8
LAYER_1
 40
0.1693
 41
0.1693
 66
1
 10
0
 20
0
 30
0
  0
VERTEX
  8
LAYER_1
 10
191.4353
 20
169.9249
  0
VERTEX
  8
LAYER_1
 10
191.4353
 20
162.1567
  0
SEQEND
  0
POLYLINE
  8
LAYER_1
 40
0.1693
 41
0.1693
 66
1
 10
0
 20
0
 30
0
  0
VERTEX
  8
LAYER_1
 10
201.4259
 20
169.9249
  0
VERTEX
  8
LAYER_1
 10
201.4259
 20
162.1567
  0
SEQEND
  0
CIRCLE
  8
LAYER_1
 10
191.4459
 20
162.1462
 40
0.2699
  0
CIRCLE
  8
LAYER_1
 10
191.4353
 20
162.1567
 40
0.254
  0
CIRCLE
  8
LAYER_1
 10
201.4365
 20
162.1462
 40
0.2699
  0
CIRCLE
  8
LAYER_1
 10
201.4259
 20
162.1567
 40
0.254
  0
POLYLINE
  8
LAYER_1
 40
0.1693
 41
0.1693
 66
1
 10
0
 20
0
 30
0
  0
VERTEX
  8
LAYER_1
 10
191.4353
 20
162.1567
  0
VERTEX
  8
LAYER_1
 10
201.4259
 20
162.1567
  0
SEQEND
  0
POLYLINE
  8
LAYER_1
 40
0.05
 41
0.05
 62
255
 66
1
 10
0
 20
0
 30
0
 70
1
  0
VERTEX
  8
LAYER_1
 10
195.3723
 20
164.7814
  0
VERTEX
  8
LAYER_1
 10
197.4889
 20
164.7814
  0
VERTEX
  8
LAYER_1
 10
197.4889
 20
162.6647
  0
VERTEX
  8
LAYER_1
 10
195.3723
 20
162.6647
  0
SEQEND
  0
TEXT
  8
LAYER_1
 10
195.3725
 20
162.8975
 11
195.3725
 21
162.8975
 40
2.5075
 41
0.5
  1
20
  0
POLYLINE
  8
LAYER_1
 40
0.2963
 41
0.2963
 62
255
 66
1
 10
0
 20
0
 30
0
  0
VERTEX
  8
LAYER_1
 10
176.4281
 20
185.1649
  0
VERTEX
  8
LAYER_1
 10
176.4281
 20
171.1737
  0
SEQEND
  0
TEXT
  8
LAYER_1
 10
176.4279
 20
186.9428
 11
176.4279
 21
186.9428
 40
2.1995
 41
0.5
  1
側見付詳細
  0
POLYLINE
  8
LAYER_1
 40
0.05
 41
0.05
 62
255
 66
1
 10
0
 20
0
 30
0
 70
1
  0
VERTEX
  8
LAYER_1
 10
177.4018
 20
176.5501
  0
VERTEX
  8
LAYER_1
 10
184.4503
 20
176.5501
  0
VERTEX
  8
LAYER_1
 10
184.4503
 20
174.7932
  0
VERTEX
  8
LAYER_1
 10
177.4018
 20
174.7932
  0
SEQEND
  0
TEXT
  8
LAYER_1
 10
177.4015
 20
175.026
 11
177.4015
 21
175.026
 40
1.8256
 41
0.5
  1
耐水合板
  0
TEXT
  8
LAYER_1
 10
176.4279
 20
189.7791
 11
176.4279
 21
189.7791
 40
2.5075
 41
0.5
  1
W1200 W1650 TYPE
  0
POLYLINE
  8
LAYER_1
 40
0.05
 41
0.05
 62
255
 66
1
 10
0
 20
0
 30
0
 70
1
  0
VERTEX
  8
LAYER_1
 10
185.2335
 20
183.5139
  0
VERTEX
  8
LAYER_1
 10
192.79
 20
183.5139
  0
VERTEX
  8
LAYER_1
 10
192.79
 20
181.4819
  0
VERTEX
  8
LAYER_1
 10
185.2335
 20
181.4819
  0
SEQEND
  0
TEXT
  8
LAYER_1
 10
185.2336
 20
181.8736
 11
185.2336
 21
181.8736
 40
2.0812
 41
0.5
  1
MODEST
  0
POLYLINE
  8
LAYER_1
 40
0.2963
 41
0.2963
 66
1
 10
0
 20
0
 30
0
  0
VERTEX
  8
LAYER_1
 10
191.9221
 20
177.0792
  0
VERTEX
  8
LAYER_1
 10
204.2199
 20
166.6652
  0
SEQEND
  0
TEXT
  8
LAYER_1
 10
204.9395
 20
164.5272
 11
204.9395
 21
164.5272
 40
1.8256
 41
0.5
  1
ウッドブラック
  0
TEXT
  8
LAYER_1
 10
204.9395
 20
162.7179
 11
204.9395
 21
162.7179
 40
2.0812
 41
0.5
  1
 
  0
TEXT
  8
LAYER_1
 10
205.4687
 20
162.7706
 11
205.4687
 21
162.7706
 40
1.8256
 41
0.5
  1
小口貼
  0
POLYLINE
  8
LAYER_1
 40
0.05
 41
0.05
 62
253
 66
1
 10
0
 20
0
 30
0
 70
1
  0
VERTEX
  8
LAYER_1
 10
190.9273
 20
180.1696
  0
VERTEX
  8
LAYER_1
 10
191.4353
 20
180.1696
  0
VERTEX
  8
LAYER_1
 10
191.4353
 20
171.1737
  0
VERTEX
  8
LAYER_1
 10
190.9273
 20
171.1737
  0
SEQEND
  0
POLYLINE
  8
LAYER_1
 40
0.2963
 41
0.2963
 66
1
 10
0
 20
0
 30
0
 70
1
  0
VERTEX
  8
LAYER_1
 10
191.4353
 20
180.1696
  0
VERTEX
  8
LAYER_1
 10
190.9273
 20
180.1696
  0
VERTEX
  8
LAYER_1
 10
190.9273
 20
171.1737
  0
VERTEX
  8
LAYER_1
 10
191.4353
 20
171.1737
  0
SEQEND
  0
POLYLINE
  8
LAYER_8
 40
0.3528
 41
0.3528
 66
1
 10
0
 20
0
 30
0
  0
VERTEX
  8
LAYER_8
 10
250.6748
 20
45.2479
  0
VERTEX
  8
LAYER_8
 10
-29.3178
 20
45.2479
  0
SEQEND
  0
INSERT
  8
LAYER_8
  2
AIGNBL08010002
 10
0
 20
0
 30
0
  0
POLYLINE
  8
LAYER_8
 40
0.3528
 41
0.3528
 66
1
 10
0
 20
0
 30
0
  0
VERTEX
  8
LAYER_8
 10
-29.3178
 20
229.3369
  0
VERTEX
  8
LAYER_8
 10
-29.3178
 20
34.3283
  0
VERTEX
  8
LAYER_8
 10
250.6748
 20
34.3283
  0
VERTEX
  8
LAYER_8
 10
250.6748
 20
229.3369
  0
VERTEX
  8
LAYER_8
 10
-29.3178
 20
229.3369
  0
SEQEND
  0
TEXT
  8
LAYER_8
 10
237.263
 20
48.7943
 11
237.263
 21
48.7943
 40
2.9618
 41
0.5
  1
単位：mm
  0
TEXT
  8
LAYER_8
 10
176.0254
 20
39.5359
 11
176.0254
 21
39.5359
 40
3.3853
 41
0.5
  1
●TEL 0120-65-1232●FAX 06-6532-1580
  0
TEXT
  8
LAYER_8
 10
176.0254
 20
36.0212
 11
176.0254
 21
36.0212
 40
3.3853
 41
0.5
  1
hits@hiratatile.co.jp
  0
TEXT
  8
LAYER_8
 10
240.3591
 20
225.8432
 11
240.3591
 21
225.8432
 40
2.0732
 41
0.5
  1
190730RT
  0
INSERT
  8
LAYER_8
  2
AIGNBL08010003
 10
0
 20
0
 30
0
  0
TEXT
  8
LAYER_8
 10
-21.3208
 20
39.3688
 11
-21.3208
 21
39.3688
 40
3.4638
 41
0.5
  1
アサンブラージュ洗面キャビネット水栓アウトセットタイプ・天板開口図　
  0
ENDSEC
  0
EOF
