  0
SECTION
  2
HEADER
  9
$ACADVER
  1
AC1009
  9
$LUNITS
 70
2
  9
$LUPREC
 70
4
  9
$LTSCALE
 40
1.0
  9
$EXTMIN
 10
-30.3177
 20
33.3285
 30
0
  9
$EXTMAX
 10
251.6749
 20
230.337
 30
0
  0
ENDSEC
  0
SECTION
  2
TABLES
  0
TABLE
  2
LTYPE
 70
256
  0
LTYPE
  2
AIGENLINE001
 70
64
  3
generate AI->DXF Converter
 72
65
 73
6
 40
1.4111
 49
0.7056
 49
-0.7056
 49
0
 49
0
 49
0
 49
0
  0
LTYPE
  2
AIGENLINE002
 70
64
  3
generate AI->DXF Converter
 72
65
 73
6
 40
0.7056
 49
0.3528
 49
-0.3528
 49
0
 49
0
 49
0
 49
0
  0
ENDTAB
  0
TABLE
  2
LAYER
 70
1
  0
LAYER
  2
LAYER_1
 70
64
 62
7
  6
CONTINUOUS
  0
ENDTAB
  0
TABLE
  2
STYLE
 70
6
  0
STYLE
  2
STANDARD
 70
0
 40
0
 50
0
 71
0
 41
0
 42
0
  3
TXT
  4
BIGFONT
  0
ENDTAB
  0
ENDSEC
  0
SECTION
  2
BLOCKS
  0
BLOCK
  8
LAYER_1
  2
AIGNBL01040009
 70
64
 10
0
 20
0
 30
0
  3
AIGNBL01040009
  0
POLYLINE
  8
LAYER_1
 40
0.05
 41
0.05
 66
1
 10
0
 20
0
 30
0
 70
1
  0
VERTEX
  8
LAYER_1
 10
105.4311
 20
39.1418
  0
VERTEX
  8
LAYER_1
 10
104.9422
 20
37.9567
  0
VERTEX
  8
LAYER_1
 10
104.3142
 20
37.9567
  0
VERTEX
  8
LAYER_1
 10
105.9137
 20
41.7225
  0
VERTEX
  8
LAYER_1
 10
106.6468
 20
41.7225
  0
VERTEX
  8
LAYER_1
 10
108.2533
 20
37.9567
  0
VERTEX
  8
LAYER_1
 10
107.6032
 20
37.9567
  0
VERTEX
  8
LAYER_1
 10
107.1006
 20
39.1418
  0
SEQEND
  0
POLYLINE
  8
LAYER_1
 40
0.05
 41
0.05
 66
1
 10
0
 20
0
 30
0
 70
1
  0
VERTEX
  8
LAYER_1
 10
106.9748
 20
39.5207
  0
VERTEX
  8
LAYER_1
 10
106.5138
 20
40.6056
  0
VERTEX
  8
LAYER_1
 10
106.2692
 20
41.2926
  0
VERTEX
  8
LAYER_1
 10
106.2555
 20
41.2926
  0
VERTEX
  8
LAYER_1
 10
106.0178
 20
40.6101
  0
VERTEX
  8
LAYER_1
 10
105.5571
 20
39.5207
  0
SEQEND
  0
ENDBLK
  0
BLOCK
  8
LAYER_1
  2
AIGNBL0104000A
 70
64
 10
0
 20
0
 30
0
  3
AIGNBL0104000A
  0
POLYLINE
  8
LAYER_1
 40
0.05
 41
0.05
 66
1
 10
0
 20
0
 30
0
 70
1
  0
VERTEX
  8
LAYER_1
 10
112.6186
 20
37.4034
 42
-0.0155848755
  0
VERTEX
  8
LAYER_1
 10
110.8164
 20
37.8395
  0
VERTEX
  8
LAYER_1
 10
110.5298
 20
37.895
 42
-0.08356944747
  0
VERTEX
  8
LAYER_1
 10
109.6658
 20
38.0612
 42
-0.0975043791
  0
VERTEX
  8
LAYER_1
 10
109.0046
 20
38.4671
 42
-0.2129077902
  0
VERTEX
  8
LAYER_1
 10
108.4559
 20
39.7998
 42
-0.0968494152
  0
VERTEX
  8
LAYER_1
 10
108.6005
 20
40.5732
 42
-0.2046438079
  0
VERTEX
  8
LAYER_1
 10
109.648
 20
41.5974
 42
-0.09824750395
  0
VERTEX
  8
LAYER_1
 10
110.649
 20
41.7838
 42
-0.08554009695
  0
VERTEX
  8
LAYER_1
 10
111.5176
 20
41.6425
 42
-0.1004336034
  0
VERTEX
  8
LAYER_1
 10
112.1827
 20
41.2483
 42
-0.2141019095
  0
VERTEX
  8
LAYER_1
 10
112.7581
 20
39.8784
 42
-0.09540850229
  0
VERTEX
  8
LAYER_1
 10
112.6192
 20
39.1106
 42
-0.2143210227
  0
VERTEX
  8
LAYER_1
 10
111.5963
 20
38.1321
 42
-0.02338900436
  0
VERTEX
  8
LAYER_1
 10
111.4172
 20
38.0738
  0
VERTEX
  8
LAYER_1
 10
111.4172
 20
38.0514
 42
0.01711211955
  0
VERTEX
  8
LAYER_1
 10
112.7936
 20
37.8113
  0
SEQEND
  0
POLYLINE
  8
LAYER_1
 40
0.05
 41
0.05
 66
1
 10
0
 20
0
 30
0
 70
1
  0
VERTEX
  8
LAYER_1
 10
112.1159
 20
39.857
 42
0.1071543648
  0
VERTEX
  8
LAYER_1
 10
111.9646
 20
40.5618
 42
0.2976507644
  0
VERTEX
  8
LAYER_1
 10
110.6276
 20
41.3873
 42
0.1072356843
  0
VERTEX
  8
LAYER_1
 10
109.9378
 20
41.2478
 42
0.2385874916
  0
VERTEX
  8
LAYER_1
 10
109.1508
 20
40.2422
 42
0.05751786988
  0
VERTEX
  8
LAYER_1
 10
109.1052
 20
39.8122
 42
0.2180663696
  0
VERTEX
  8
LAYER_1
 10
109.6358
 20
38.6168
 42
0.1772758138
  0
VERTEX
  8
LAYER_1
 10
110.5997
 20
38.2912
 42
0.1075185771
  0
VERTEX
  8
LAYER_1
 10
111.2811
 20
38.4302
 42
0.2370926009
  0
VERTEX
  8
LAYER_1
 10
112.0682
 20
39.4298
 42
0.05601310134
  0
SEQEND
  0
ENDBLK
  0
BLOCK
  8
LAYER_1
  2
AIGNBL0104000B
 70
64
 10
0
 20
0
 30
0
  3
AIGNBL0104000B
  0
POLYLINE
  8
LAYER_1
 40
0.05
 41
0.05
 66
1
 10
0
 20
0
 30
0
 70
1
  0
VERTEX
  8
LAYER_1
 10
114.0855
 20
41.7225
  0
VERTEX
  8
LAYER_1
 10
114.0855
 20
39.4932
 42
0.1145199457
  0
VERTEX
  8
LAYER_1
 10
114.2194
 20
38.8274
 42
0.1464896694
  0
VERTEX
  8
LAYER_1
 10
114.5697
 20
38.4422
 42
0.1362580474
  0
VERTEX
  8
LAYER_1
 10
115.1821
 20
38.2912
 42
0.1219300979
  0
VERTEX
  8
LAYER_1
 10
115.8052
 20
38.4259
 42
0.1503016186
  0
VERTEX
  8
LAYER_1
 10
116.177
 20
38.7949
 42
0.1256239276
  0
VERTEX
  8
LAYER_1
 10
116.3276
 20
39.4932
  0
VERTEX
  8
LAYER_1
 10
116.3276
 20
41.7225
  0
VERTEX
  8
LAYER_1
 10
116.9422
 20
41.7225
  0
VERTEX
  8
LAYER_1
 10
116.9422
 20
39.5266
 42
-0.09997665689
  0
VERTEX
  8
LAYER_1
 10
116.8073
 20
38.7839
 42
-0.1215019174
  0
VERTEX
  8
LAYER_1
 10
116.434
 20
38.2772
 42
-0.1106228669
  0
VERTEX
  8
LAYER_1
 10
115.8085
 20
37.9706
 42
-0.06128517916
  0
VERTEX
  8
LAYER_1
 10
115.161
 20
37.895
 42
-0.09418763513
  0
VERTEX
  8
LAYER_1
 10
114.3419
 20
38.0331
 42
-0.2431628294
  0
VERTEX
  8
LAYER_1
 10
113.5384
 20
38.9438
 42
-0.06320488118
  0
VERTEX
  8
LAYER_1
 10
113.4709
 20
39.5045
  0
VERTEX
  8
LAYER_1
 10
113.4709
 20
41.7225
  0
SEQEND
  0
ENDBLK
  0
BLOCK
  8
LAYER_1
  2
AIGNBL0104000C
 70
64
 10
0
 20
0
 30
0
  3
AIGNBL0104000C
  0
POLYLINE
  8
LAYER_1
 40
0.05
 41
0.05
 66
1
 10
0
 20
0
 30
0
 70
1
  0
VERTEX
  8
LAYER_1
 10
118.6885
 20
39.1418
  0
VERTEX
  8
LAYER_1
 10
118.1993
 20
37.9567
  0
VERTEX
  8
LAYER_1
 10
117.5712
 20
37.9567
  0
VERTEX
  8
LAYER_1
 10
119.1705
 20
41.7225
  0
VERTEX
  8
LAYER_1
 10
119.9036
 20
41.7225
  0
VERTEX
  8
LAYER_1
 10
121.51
 20
37.9567
  0
VERTEX
  8
LAYER_1
 10
120.8606
 20
37.9567
  0
VERTEX
  8
LAYER_1
 10
120.358
 20
39.1418
  0
SEQEND
  0
POLYLINE
  8
LAYER_1
 40
0.05
 41
0.05
 66
1
 10
0
 20
0
 30
0
 70
1
  0
VERTEX
  8
LAYER_1
 10
120.2319
 20
39.5207
  0
VERTEX
  8
LAYER_1
 10
119.7706
 20
40.6056
  0
VERTEX
  8
LAYER_1
 10
119.526
 20
41.2926
  0
VERTEX
  8
LAYER_1
 10
119.5122
 20
41.2926
  0
VERTEX
  8
LAYER_1
 10
119.2748
 20
40.6101
  0
VERTEX
  8
LAYER_1
 10
118.8139
 20
39.5207
  0
SEQEND
  0
ENDBLK
  0
BLOCK
  8
LAYER_1
  2
AIGNBL0104000D
 70
64
 10
0
 20
0
 30
0
  3
AIGNBL0104000D
  0
POLYLINE
  8
LAYER_1
 40
0.05
 41
0.05
 66
1
 10
0
 20
0
 30
0
 70
1
  0
VERTEX
  8
LAYER_1
 10
122.5508
 20
41.6777
 42
-0.03246092253
  0
VERTEX
  8
LAYER_1
 10
123.7176
 20
41.7508
 42
-0.08084549745
  0
VERTEX
  8
LAYER_1
 10
124.6741
 20
41.619
 42
-0.07819914268
  0
VERTEX
  8
LAYER_1
 10
125.0374
 20
41.4379
 42
-0.2484709269
  0
VERTEX
  8
LAYER_1
 10
125.4491
 20
40.6497
 42
-0.226147
  0
VERTEX
  8
LAYER_1
 10
125.086
 20
39.8456
 42
-0.109727648
  0
VERTEX
  8
LAYER_1
 10
124.4577
 20
39.5323
 42
-0.06565380896
  0
VERTEX
  8
LAYER_1
 10
123.6473
 20
39.4319
 42
-0.06238309955
  0
VERTEX
  8
LAYER_1
 10
123.1588
 20
39.4653
  0
VERTEX
  8
LAYER_1
 10
123.1588
 20
37.9567
  0
VERTEX
  8
LAYER_1
 10
122.5508
 20
37.9567
  0
SEQEND
  0
POLYLINE
  8
LAYER_1
 40
0.05
 41
0.05
 66
1
 10
0
 20
0
 30
0
 70
1
  0
VERTEX
  8
LAYER_1
 10
123.1588
 20
39.8622
 42
0.04203451964
  0
VERTEX
  8
LAYER_1
 10
123.6611
 20
39.8229
 42
0.1032111168
  0
VERTEX
  8
LAYER_1
 10
124.3803
 20
39.9502
 42
0.1555938032
  0
VERTEX
  8
LAYER_1
 10
124.7451
 20
40.2546
 42
0.1352673748
  0
VERTEX
  8
LAYER_1
 10
124.8421
 20
40.6273
 42
0.1737047371
  0
VERTEX
  8
LAYER_1
 10
124.7073
 20
41.0346
 42
0.1517050813
  0
VERTEX
  8
LAYER_1
 10
124.2862
 20
41.2941
 42
0.06879756253
  0
VERTEX
  8
LAYER_1
 10
123.7317
 20
41.3649
 42
0.06336983159
  0
VERTEX
  8
LAYER_1
 10
123.1588
 20
41.3257
  0
SEQEND
  0
ENDBLK
  0
BLOCK
  8
LAYER_1
  2
AIGNBL0104000E
 70
64
 10
0
 20
0
 30
0
  3
AIGNBL0104000E
  0
POLYLINE
  8
LAYER_1
 40
0.05
 41
0.05
 66
1
 10
0
 20
0
 30
0
 70
1
  0
VERTEX
  8
LAYER_1
 10
127.0011
 20
41.4207
 42
-0.2767461975
  0
VERTEX
  8
LAYER_1
 10
126.8616
 20
41.1806
 42
-0.1265294091
  0
VERTEX
  8
LAYER_1
 10
126.6094
 20
41.1189
 42
-0.2237518698
  0
VERTEX
  8
LAYER_1
 10
126.2991
 20
41.2513
 42
-0.1708341408
  0
VERTEX
  8
LAYER_1
 10
126.2391
 20
41.4207
 42
-0.2643879937
  0
VERTEX
  8
LAYER_1
 10
126.3885
 20
41.6678
 42
-0.1290073663
  0
VERTEX
  8
LAYER_1
 10
126.6232
 20
41.7277
 42
-0.225342086
  0
VERTEX
  8
LAYER_1
 10
126.94
 20
41.597
 42
-0.1691136206
  0
SEQEND
  0
POLYLINE
  8
LAYER_1
 40
0.05
 41
0.05
 66
1
 10
0
 20
0
 30
0
 70
1
  0
VERTEX
  8
LAYER_1
 10
126.3156
 20
37.9567
  0
VERTEX
  8
LAYER_1
 10
126.3156
 20
40.6607
  0
VERTEX
  8
LAYER_1
 10
126.9302
 20
40.6607
  0
VERTEX
  8
LAYER_1
 10
126.9302
 20
37.9567
  0
SEQEND
  0
ENDBLK
  0
BLOCK
  8
LAYER_1
  2
AIGNBL0104000F
 70
64
 10
0
 20
0
 30
0
  3
AIGNBL0104000F
  0
POLYLINE
  8
LAYER_1
 40
0.05
 41
0.05
 66
1
 10
0
 20
0
 30
0
 70
1
  0
VERTEX
  8
LAYER_1
 10
128.8019
 20
39.1418
  0
VERTEX
  8
LAYER_1
 10
128.3137
 20
37.9567
  0
VERTEX
  8
LAYER_1
 10
127.6846
 20
37.9567
  0
VERTEX
  8
LAYER_1
 10
129.2842
 20
41.7225
  0
VERTEX
  8
LAYER_1
 10
130.018
 20
41.7225
  0
VERTEX
  8
LAYER_1
 10
131.6245
 20
37.9567
  0
VERTEX
  8
LAYER_1
 10
130.9747
 20
37.9567
  0
VERTEX
  8
LAYER_1
 10
130.4721
 20
39.1418
  0
SEQEND
  0
POLYLINE
  8
LAYER_1
 40
0.05
 41
0.05
 66
1
 10
0
 20
0
 30
0
 70
1
  0
VERTEX
  8
LAYER_1
 10
130.346
 20
39.5207
  0
VERTEX
  8
LAYER_1
 10
129.885
 20
40.6056
  0
VERTEX
  8
LAYER_1
 10
129.6411
 20
41.2926
  0
VERTEX
  8
LAYER_1
 10
129.6263
 20
41.2926
  0
VERTEX
  8
LAYER_1
 10
129.3893
 20
40.6101
  0
VERTEX
  8
LAYER_1
 10
128.9283
 20
39.5207
  0
SEQEND
  0
ENDBLK
  0
BLOCK
  8
LAYER_1
  2
AIGNBL01030008
 70
64
 10
0
 20
0
 30
0
  3
AIGNBL01030008
  0
INSERT
  8
LAYER_1
  2
AIGNBL01040009
 10
0
 20
0
 30
0
  0
INSERT
  8
LAYER_1
  2
AIGNBL0104000A
 10
0
 20
0
 30
0
  0
INSERT
  8
LAYER_1
  2
AIGNBL0104000B
 10
0
 20
0
 30
0
  0
INSERT
  8
LAYER_1
  2
AIGNBL0104000C
 10
0
 20
0
 30
0
  0
INSERT
  8
LAYER_1
  2
AIGNBL0104000D
 10
0
 20
0
 30
0
  0
INSERT
  8
LAYER_1
  2
AIGNBL0104000E
 10
0
 20
0
 30
0
  0
INSERT
  8
LAYER_1
  2
AIGNBL0104000F
 10
0
 20
0
 30
0
  0
ENDBLK
  0
BLOCK
  8
LAYER_1
  2
AIGNBL01030011
 70
64
 10
0
 20
0
 30
0
  3
AIGNBL01030011
  0
POLYLINE
  8
LAYER_1
 40
0.05
 41
0.05
 66
1
 10
0
 20
0
 30
0
 70
1
  0
VERTEX
  8
LAYER_1
 10
104.4241
 20
36.0574
  0
VERTEX
  8
LAYER_1
 10
104.9773
 20
36.0574
  0
VERTEX
  8
LAYER_1
 10
104.9773
 20
35.9637
  0
VERTEX
  8
LAYER_1
 10
104.319
 20
35.9637
  0
VERTEX
  8
LAYER_1
 10
104.319
 20
36.9969
  0
VERTEX
  8
LAYER_1
 10
104.9598
 20
36.9969
  0
VERTEX
  8
LAYER_1
 10
104.9598
 20
36.9035
  0
VERTEX
  8
LAYER_1
 10
104.4241
 20
36.9035
  0
VERTEX
  8
LAYER_1
 10
104.4241
 20
36.549
  0
VERTEX
  8
LAYER_1
 10
104.9246
 20
36.549
  0
VERTEX
  8
LAYER_1
 10
104.9246
 20
36.4557
  0
VERTEX
  8
LAYER_1
 10
104.4241
 20
36.4557
  0
SEQEND
  0
ENDBLK
  0
BLOCK
  8
LAYER_1
  2
AIGNBL01030012
 70
64
 10
0
 20
0
 30
0
  3
AIGNBL01030012
  0
POLYLINE
  8
LAYER_1
 40
0.05
 41
0.05
 66
1
 10
0
 20
0
 30
0
 70
1
  0
VERTEX
  8
LAYER_1
 10
106.117
 20
36.117
  0
VERTEX
  8
LAYER_1
 10
106.1197
 20
36.117
  0
VERTEX
  8
LAYER_1
 10
106.1197
 20
36.9969
  0
VERTEX
  8
LAYER_1
 10
106.2248
 20
36.9969
  0
VERTEX
  8
LAYER_1
 10
106.2248
 20
35.9637
  0
VERTEX
  8
LAYER_1
 10
106.0939
 20
35.9637
  0
VERTEX
  8
LAYER_1
 10
105.4927
 20
36.8525
  0
VERTEX
  8
LAYER_1
 10
105.4893
 20
36.8525
  0
VERTEX
  8
LAYER_1
 10
105.4893
 20
35.9637
  0
VERTEX
  8
LAYER_1
 10
105.3845
 20
35.9637
  0
VERTEX
  8
LAYER_1
 10
105.3845
 20
36.9969
  0
VERTEX
  8
LAYER_1
 10
105.5158
 20
36.9969
  0
SEQEND
  0
ENDBLK
  0
BLOCK
  8
LAYER_1
  2
AIGNBL01030013
 70
64
 10
0
 20
0
 30
0
  3
AIGNBL01030013
  0
POLYLINE
  8
LAYER_1
 40
0.05
 41
0.05
 66
1
 10
0
 20
0
 30
0
 70
1
  0
VERTEX
  8
LAYER_1
 10
106.6978
 20
36.1756
  0
VERTEX
  8
LAYER_1
 10
106.7523
 20
36.0725
 42
0.1804993832
  0
VERTEX
  8
LAYER_1
 10
106.8656
 20
36.0309
  0
VERTEX
  8
LAYER_1
 10
106.9548
 20
36.0505
  0
VERTEX
  8
LAYER_1
 10
107.011
 20
36.1039
  0
VERTEX
  8
LAYER_1
 10
107.0399
 20
36.1804
  0
VERTEX
  8
LAYER_1
 10
107.0482
 20
36.27
  0
VERTEX
  8
LAYER_1
 10
107.0482
 20
36.9969
  0
VERTEX
  8
LAYER_1
 10
107.1533
 20
36.9969
  0
VERTEX
  8
LAYER_1
 10
107.1533
 20
36.2614
  0
VERTEX
  8
LAYER_1
 10
107.1419
 20
36.1535
  0
VERTEX
  8
LAYER_1
 10
107.1006
 20
36.0485
  0
VERTEX
  8
LAYER_1
 10
107.0158
 20
35.9689
  0
VERTEX
  8
LAYER_1
 10
106.877
 20
35.9375
 42
-0.1845892347
  0
VERTEX
  8
LAYER_1
 10
106.6923
 20
35.9974
 42
-0.176191571
  0
VERTEX
  8
LAYER_1
 10
106.6
 20
36.149
  0
SEQEND
  0
ENDBLK
  0
BLOCK
  8
LAYER_1
  2
AIGNBL01030014
 70
64
 10
0
 20
0
 30
0
  3
AIGNBL01030014
  0
POLYLINE
  8
LAYER_1
 40
0.05
 41
0.05
 66
1
 10
0
 20
0
 30
0
 70
1
  0
VERTEX
  8
LAYER_1
 10
108.6416
 20
36.4805
 42
-0.10394313
  0
VERTEX
  8
LAYER_1
 10
108.6005
 20
36.2631
 42
-0.1002538824
  0
VERTEX
  8
LAYER_1
 10
108.4879
 20
36.0915
  0
VERTEX
  8
LAYER_1
 10
108.317
 20
35.9785
 42
-0.09506675375
  0
VERTEX
  8
LAYER_1
 10
108.1031
 20
35.9375
 42
-0.1010866674
  0
VERTEX
  8
LAYER_1
 10
107.8895
 20
35.9785
 42
-0.1005668876
  0
VERTEX
  8
LAYER_1
 10
107.7186
 20
36.0915
 42
-0.09506076213
  0
VERTEX
  8
LAYER_1
 10
107.6053
 20
36.2631
 42
-0.09316585798
  0
VERTEX
  8
LAYER_1
 10
107.5646
 20
36.4805
 42
-0.1029152058
  0
VERTEX
  8
LAYER_1
 10
107.6053
 20
36.6978
 42
-0.1008913794
  0
VERTEX
  8
LAYER_1
 10
107.7186
 20
36.8694
 42
-0.09625543395
  0
VERTEX
  8
LAYER_1
 10
107.8895
 20
36.9824
 42
-0.09521573462
  0
VERTEX
  8
LAYER_1
 10
108.1031
 20
37.0234
 42
-0.101175466
  0
VERTEX
  8
LAYER_1
 10
108.317
 20
36.9824
 42
-0.09853409661
  0
VERTEX
  8
LAYER_1
 10
108.4879
 20
36.8694
 42
-0.09556553869
  0
VERTEX
  8
LAYER_1
 10
108.6005
 20
36.6978
 42
-0.09420719768
  0
SEQEND
  0
POLYLINE
  8
LAYER_1
 40
0.05
 41
0.05
 66
1
 10
0
 20
0
 30
0
 70
1
  0
VERTEX
  8
LAYER_1
 10
108.5306
 20
36.4798
  0
VERTEX
  8
LAYER_1
 10
108.5017
 20
36.6517
  0
VERTEX
  8
LAYER_1
 10
108.4169
 20
36.795
  0
VERTEX
  8
LAYER_1
 10
108.2819
 20
36.8932
  0
VERTEX
  8
LAYER_1
 10
108.1031
 20
36.93
  0
VERTEX
  8
LAYER_1
 10
107.9243
 20
36.8932
  0
VERTEX
  8
LAYER_1
 10
107.7896
 20
36.795
  0
VERTEX
  8
LAYER_1
 10
107.7048
 20
36.6517
  0
VERTEX
  8
LAYER_1
 10
107.6755
 20
36.4798
  0
VERTEX
  8
LAYER_1
 10
107.7048
 20
36.3079
  0
VERTEX
  8
LAYER_1
 10
107.7896
 20
36.1649
  0
VERTEX
  8
LAYER_1
 10
107.9243
 20
36.0674
 42
0.1008280473
  0
VERTEX
  8
LAYER_1
 10
108.1031
 20
36.0309
  0
VERTEX
  8
LAYER_1
 10
108.2819
 20
36.0674
  0
VERTEX
  8
LAYER_1
 10
108.4169
 20
36.1649
  0
VERTEX
  8
LAYER_1
 10
108.5017
 20
36.3079
  0
SEQEND
  0
ENDBLK
  0
BLOCK
  8
LAYER_1
  2
AIGNBL01030015
 70
64
 10
0
 20
0
 30
0
  3
AIGNBL01030015
  0
POLYLINE
  8
LAYER_1
 40
0.05
 41
0.05
 66
1
 10
0
 20
0
 30
0
 70
1
  0
VERTEX
  8
LAYER_1
 10
109.4163
 20
35.9637
  0
VERTEX
  8
LAYER_1
 10
109.3116
 20
35.9637
  0
VERTEX
  8
LAYER_1
 10
109.3116
 20
36.4091
  0
VERTEX
  8
LAYER_1
 10
108.9247
 20
36.9969
  0
VERTEX
  8
LAYER_1
 10
109.056
 20
36.9969
  0
VERTEX
  8
LAYER_1
 10
109.3671
 20
36.4967
  0
VERTEX
  8
LAYER_1
 10
109.6806
 20
36.9969
  0
VERTEX
  8
LAYER_1
 10
109.8029
 20
36.9969
  0
VERTEX
  8
LAYER_1
 10
109.4163
 20
36.4091
  0
SEQEND
  0
ENDBLK
  0
BLOCK
  8
LAYER_1
  2
AIGNBL01030016
 70
64
 10
0
 20
0
 30
0
  3
AIGNBL01030016
  0
POLYLINE
  8
LAYER_1
 40
0.05
 41
0.05
 66
1
 10
0
 20
0
 30
0
 70
1
  0
VERTEX
  8
LAYER_1
 10
110.7079
 20
36.9969
  0
VERTEX
  8
LAYER_1
 10
111.0155
 20
36.9969
  0
VERTEX
  8
LAYER_1
 10
111.1341
 20
36.9845
  0
VERTEX
  8
LAYER_1
 10
111.2409
 20
36.9421
  0
VERTEX
  8
LAYER_1
 10
111.3187
 20
36.8611
  0
VERTEX
  8
LAYER_1
 10
111.3483
 20
36.733
 42
-0.1790346201
  0
VERTEX
  8
LAYER_1
 10
111.2984
 20
36.5907
 42
-0.1642259289
  0
VERTEX
  8
LAYER_1
 10
111.1651
 20
36.5111
  0
VERTEX
  8
LAYER_1
 10
111.1651
 20
36.5084
 42
-0.1734673322
  0
VERTEX
  8
LAYER_1
 10
111.3318
 20
36.4302
 42
-0.1921994171
  0
VERTEX
  8
LAYER_1
 10
111.3979
 20
36.2496
  0
VERTEX
  8
LAYER_1
 10
111.3708
 20
36.1325
  0
VERTEX
  8
LAYER_1
 10
111.2946
 20
36.0419
  0
VERTEX
  8
LAYER_1
 10
111.1737
 20
35.9844
  0
VERTEX
  8
LAYER_1
 10
111.0138
 20
35.9637
  0
VERTEX
  8
LAYER_1
 10
110.7079
 20
35.9637
  0
SEQEND
  0
POLYLINE
  8
LAYER_1
 40
0.05
 41
0.05
 66
1
 10
0
 20
0
 30
0
 70
1
  0
VERTEX
  8
LAYER_1
 10
110.813
 20
36.5445
  0
VERTEX
  8
LAYER_1
 10
111.0245
 20
36.5445
  0
VERTEX
  8
LAYER_1
 10
111.1013
 20
36.5535
  0
VERTEX
  8
LAYER_1
 10
111.1716
 20
36.5831
  0
VERTEX
  8
LAYER_1
 10
111.2236
 20
36.6396
  0
VERTEX
  8
LAYER_1
 10
111.2433
 20
36.7258
  0
VERTEX
  8
LAYER_1
 10
111.2236
 20
36.8095
  0
VERTEX
  8
LAYER_1
 10
111.1706
 20
36.8656
  0
VERTEX
  8
LAYER_1
 10
111.0917
 20
36.897
  0
VERTEX
  8
LAYER_1
 10
110.9952
 20
36.9066
  0
VERTEX
  8
LAYER_1
 10
110.813
 20
36.9066
  0
SEQEND
  0
POLYLINE
  8
LAYER_1
 40
0.05
 41
0.05
 66
1
 10
0
 20
0
 30
0
 70
1
  0
VERTEX
  8
LAYER_1
 10
110.813
 20
36.0543
  0
VERTEX
  8
LAYER_1
 10
111.0087
 20
36.0543
  0
VERTEX
  8
LAYER_1
 10
111.1172
 20
36.0653
  0
VERTEX
  8
LAYER_1
 10
111.2078
 20
36.1001
  0
VERTEX
  8
LAYER_1
 10
111.2695
 20
36.1632
  0
VERTEX
  8
LAYER_1
 10
111.2929
 20
36.2559
 42
0.2557371221
  0
VERTEX
  8
LAYER_1
 10
111.2236
 20
36.4081
 42
0.1381508151
  0
VERTEX
  8
LAYER_1
 10
111.0276
 20
36.4584
  0
VERTEX
  8
LAYER_1
 10
110.813
 20
36.4584
  0
SEQEND
  0
ENDBLK
  0
BLOCK
  8
LAYER_1
  2
AIGNBL01030017
 70
64
 10
0
 20
0
 30
0
  3
AIGNBL01030017
  0
POLYLINE
  8
LAYER_1
 40
0.05
 41
0.05
 66
1
 10
0
 20
0
 30
0
 70
1
  0
VERTEX
  8
LAYER_1
 10
111.83
 20
35.9637
  0
VERTEX
  8
LAYER_1
 10
111.7146
 20
35.9637
  0
VERTEX
  8
LAYER_1
 10
112.1614
 20
36.9969
  0
VERTEX
  8
LAYER_1
 10
112.2637
 20
36.9969
  0
VERTEX
  8
LAYER_1
 10
112.7071
 20
35.9637
  0
VERTEX
  8
LAYER_1
 10
112.5903
 20
35.9637
  0
VERTEX
  8
LAYER_1
 10
112.4763
 20
36.2352
  0
VERTEX
  8
LAYER_1
 10
111.9423
 20
36.2352
  0
SEQEND
  0
POLYLINE
  8
LAYER_1
 40
0.05
 41
0.05
 66
1
 10
0
 20
0
 30
0
 70
1
  0
VERTEX
  8
LAYER_1
 10
111.9815
 20
36.3316
  0
VERTEX
  8
LAYER_1
 10
112.437
 20
36.3316
  0
VERTEX
  8
LAYER_1
 10
112.2093
 20
36.8804
  0
SEQEND
  0
ENDBLK
  0
BLOCK
  8
LAYER_1
  2
AIGNBL01030018
 70
64
 10
0
 20
0
 30
0
  3
AIGNBL01030018
  0
POLYLINE
  8
LAYER_1
 40
0.05
 41
0.05
 66
1
 10
0
 20
0
 30
0
 70
1
  0
VERTEX
  8
LAYER_1
 10
113.3916
 20
35.9637
  0
VERTEX
  8
LAYER_1
 10
113.2865
 20
35.9637
  0
VERTEX
  8
LAYER_1
 10
113.2865
 20
36.9035
  0
VERTEX
  8
LAYER_1
 10
112.9403
 20
36.9035
  0
VERTEX
  8
LAYER_1
 10
112.9403
 20
36.9969
  0
VERTEX
  8
LAYER_1
 10
113.7372
 20
36.9969
  0
VERTEX
  8
LAYER_1
 10
113.7372
 20
36.9035
  0
VERTEX
  8
LAYER_1
 10
113.3916
 20
36.9035
  0
SEQEND
  0
ENDBLK
  0
BLOCK
  8
LAYER_1
  2
AIGNBL01030019
 70
64
 10
0
 20
0
 30
0
  3
AIGNBL01030019
  0
POLYLINE
  8
LAYER_1
 40
0.05
 41
0.05
 66
1
 10
0
 20
0
 30
0
 70
1
  0
VERTEX
  8
LAYER_1
 10
114.0934
 20
36.9969
  0
VERTEX
  8
LAYER_1
 10
114.1981
 20
36.9969
  0
VERTEX
  8
LAYER_1
 10
114.1981
 20
36.549
  0
VERTEX
  8
LAYER_1
 10
114.7618
 20
36.549
  0
VERTEX
  8
LAYER_1
 10
114.7618
 20
36.9969
  0
VERTEX
  8
LAYER_1
 10
114.8668
 20
36.9969
  0
VERTEX
  8
LAYER_1
 10
114.8668
 20
35.9637
  0
VERTEX
  8
LAYER_1
 10
114.7618
 20
35.9637
  0
VERTEX
  8
LAYER_1
 10
114.7618
 20
36.4529
  0
VERTEX
  8
LAYER_1
 10
114.1981
 20
36.4529
  0
VERTEX
  8
LAYER_1
 10
114.1981
 20
35.9637
  0
VERTEX
  8
LAYER_1
 10
114.0934
 20
35.9637
  0
SEQEND
  0
ENDBLK
  0
BLOCK
  8
LAYER_1
  2
AIGNBL0103001A
 70
64
 10
0
 20
0
 30
0
  3
AIGNBL0103001A
  0
POLYLINE
  8
LAYER_1
 40
0.05
 41
0.05
 66
1
 10
0
 20
0
 30
0
 70
1
  0
VERTEX
  8
LAYER_1
 10
115.4473
 20
35.9637
  0
VERTEX
  8
LAYER_1
 10
115.3423
 20
35.9637
  0
VERTEX
  8
LAYER_1
 10
115.3423
 20
36.9969
  0
VERTEX
  8
LAYER_1
 10
115.6461
 20
36.9969
  0
VERTEX
  8
LAYER_1
 10
115.7867
 20
36.9824
  0
VERTEX
  8
LAYER_1
 10
115.8993
 20
36.9349
  0
VERTEX
  8
LAYER_1
 10
115.9727
 20
36.8494
  0
VERTEX
  8
LAYER_1
 10
115.9989
 20
36.7213
  0
VERTEX
  8
LAYER_1
 10
115.9789
 20
36.6176
  0
VERTEX
  8
LAYER_1
 10
115.9235
 20
36.5366
  0
VERTEX
  8
LAYER_1
 10
115.8401
 20
36.4818
  0
VERTEX
  8
LAYER_1
 10
115.735
 20
36.4557
  0
VERTEX
  8
LAYER_1
 10
116.0371
 20
35.9637
  0
VERTEX
  8
LAYER_1
 10
115.9086
 20
35.9637
  0
VERTEX
  8
LAYER_1
 10
115.6227
 20
36.4467
  0
VERTEX
  8
LAYER_1
 10
115.4473
 20
36.4467
  0
SEQEND
  0
POLYLINE
  8
LAYER_1
 40
0.05
 41
0.05
 66
1
 10
0
 20
0
 30
0
 70
1
  0
VERTEX
  8
LAYER_1
 10
115.4473
 20
36.5373
  0
VERTEX
  8
LAYER_1
 10
115.6299
 20
36.5373
 42
0.1654500383
  0
VERTEX
  8
LAYER_1
 10
115.8256
 20
36.5831
 42
0.2503949893
  0
VERTEX
  8
LAYER_1
 10
115.8942
 20
36.7213
  0
VERTEX
  8
LAYER_1
 10
115.8749
 20
36.8071
  0
VERTEX
  8
LAYER_1
 10
115.8225
 20
36.8643
  0
VERTEX
  8
LAYER_1
 10
115.7409
 20
36.8963
  0
VERTEX
  8
LAYER_1
 10
115.6344
 20
36.9066
  0
VERTEX
  8
LAYER_1
 10
115.4473
 20
36.9066
  0
SEQEND
  0
ENDBLK
  0
BLOCK
  8
LAYER_1
  2
AIGNBL0103001B
 70
64
 10
0
 20
0
 30
0
  3
AIGNBL0103001B
  0
POLYLINE
  8
LAYER_1
 40
0.05
 41
0.05
 66
1
 10
0
 20
0
 30
0
 70
1
  0
VERTEX
  8
LAYER_1
 10
117.4393
 20
36.4805
 42
-0.1005163161
  0
VERTEX
  8
LAYER_1
 10
117.3986
 20
36.2631
 42
-0.1003846159
  0
VERTEX
  8
LAYER_1
 10
117.2853
 20
36.0915
 42
-0.09584766738
  0
VERTEX
  8
LAYER_1
 10
117.1147
 20
35.9785
 42
-0.09506713234
  0
VERTEX
  8
LAYER_1
 10
116.9008
 20
35.9375
 42
-0.101175466
  0
VERTEX
  8
LAYER_1
 10
116.6869
 20
35.9785
 42
-0.09967088569
  0
VERTEX
  8
LAYER_1
 10
116.5163
 20
36.0915
 42
-0.09574135652
  0
VERTEX
  8
LAYER_1
 10
116.4033
 20
36.2631
 42
-0.09293305267
  0
VERTEX
  8
LAYER_1
 10
116.3627
 20
36.4805
 42
-0.1024980643
  0
VERTEX
  8
LAYER_1
 10
116.4033
 20
36.6978
 42
-0.1015030268
  0
VERTEX
  8
LAYER_1
 10
116.5163
 20
36.8694
 42
-0.09577113234
  0
VERTEX
  8
LAYER_1
 10
116.6869
 20
36.9824
 42
-0.09506675375
  0
VERTEX
  8
LAYER_1
 10
116.9008
 20
37.0234
 42
-0.1014233705
  0
VERTEX
  8
LAYER_1
 10
117.1147
 20
36.9824
 42
-0.1017041996
  0
VERTEX
  8
LAYER_1
 10
117.2853
 20
36.8694
 42
-0.09506500802
  0
VERTEX
  8
LAYER_1
 10
117.3986
 20
36.6978
 42
-0.09299771213
  0
SEQEND
  0
POLYLINE
  8
LAYER_1
 40
0.05
 41
0.05
 66
1
 10
0
 20
0
 30
0
 70
1
  0
VERTEX
  8
LAYER_1
 10
117.3284
 20
36.4798
  0
VERTEX
  8
LAYER_1
 10
117.2991
 20
36.6517
  0
VERTEX
  8
LAYER_1
 10
117.2143
 20
36.795
  0
VERTEX
  8
LAYER_1
 10
117.0796
 20
36.8932
  0
VERTEX
  8
LAYER_1
 10
116.9008
 20
36.93
  0
VERTEX
  8
LAYER_1
 10
116.722
 20
36.8932
  0
VERTEX
  8
LAYER_1
 10
116.587
 20
36.795
  0
VERTEX
  8
LAYER_1
 10
116.5022
 20
36.6517
  0
VERTEX
  8
LAYER_1
 10
116.4733
 20
36.4798
  0
VERTEX
  8
LAYER_1
 10
116.5022
 20
36.3079
  0
VERTEX
  8
LAYER_1
 10
116.587
 20
36.1649
  0
VERTEX
  8
LAYER_1
 10
116.722
 20
36.0674
  0
VERTEX
  8
LAYER_1
 10
116.9008
 20
36.0309
 42
0.1157330551
  0
VERTEX
  8
LAYER_1
 10
117.0796
 20
36.0674
  0
VERTEX
  8
LAYER_1
 10
117.2143
 20
36.1649
  0
VERTEX
  8
LAYER_1
 10
117.2991
 20
36.3079
  0
SEQEND
  0
ENDBLK
  0
BLOCK
  8
LAYER_1
  2
AIGNBL0103001C
 70
64
 10
0
 20
0
 30
0
  3
AIGNBL0103001C
  0
POLYLINE
  8
LAYER_1
 40
0.05
 41
0.05
 66
1
 10
0
 20
0
 30
0
 70
1
  0
VERTEX
  8
LAYER_1
 10
118.881
 20
36.4805
 42
-0.1041417444
  0
VERTEX
  8
LAYER_1
 10
118.84
 20
36.2631
 42
-0.1002538824
  0
VERTEX
  8
LAYER_1
 10
118.7274
 20
36.0915
 42
-0.09536265516
  0
VERTEX
  8
LAYER_1
 10
118.5565
 20
35.9785
 42
-0.09506675375
  0
VERTEX
  8
LAYER_1
 10
118.3426
 20
35.9375
 42
-0.101822328
  0
VERTEX
  8
LAYER_1
 10
118.129
 20
35.9785
 42
-0.102112669
  0
VERTEX
  8
LAYER_1
 10
117.9581
 20
36.0915
 42
-0.09462334812
  0
VERTEX
  8
LAYER_1
 10
117.8447
 20
36.2631
 42
-0.09290316602
  0
VERTEX
  8
LAYER_1
 10
117.8041
 20
36.4805
 42
-0.1018782207
  0
VERTEX
  8
LAYER_1
 10
117.8447
 20
36.6978
 42
-0.1006850025
  0
VERTEX
  8
LAYER_1
 10
117.9581
 20
36.8694
 42
-0.09625543395
  0
VERTEX
  8
LAYER_1
 10
118.129
 20
36.9824
 42
-0.09528409444
  0
VERTEX
  8
LAYER_1
 10
118.3426
 20
37.0234
 42
-0.101175466
  0
VERTEX
  8
LAYER_1
 10
118.5565
 20
36.9824
 42
-0.09853409661
  0
VERTEX
  8
LAYER_1
 10
118.7274
 20
36.8694
 42
-0.09556553869
  0
VERTEX
  8
LAYER_1
 10
118.84
 20
36.6978
 42
-0.09400765476
  0
SEQEND
  0
POLYLINE
  8
LAYER_1
 40
0.05
 41
0.05
 66
1
 10
0
 20
0
 30
0
 70
1
  0
VERTEX
  8
LAYER_1
 10
118.7701
 20
36.4798
  0
VERTEX
  8
LAYER_1
 10
118.7412
 20
36.6517
  0
VERTEX
  8
LAYER_1
 10
118.6564
 20
36.795
  0
VERTEX
  8
LAYER_1
 10
118.5214
 20
36.8932
  0
VERTEX
  8
LAYER_1
 10
118.3426
 20
36.93
  0
VERTEX
  8
LAYER_1
 10
118.1638
 20
36.8932
  0
VERTEX
  8
LAYER_1
 10
118.0291
 20
36.795
  0
VERTEX
  8
LAYER_1
 10
117.9443
 20
36.6517
  0
VERTEX
  8
LAYER_1
 10
117.9151
 20
36.4798
  0
VERTEX
  8
LAYER_1
 10
117.9443
 20
36.3079
  0
VERTEX
  8
LAYER_1
 10
118.0291
 20
36.1649
  0
VERTEX
  8
LAYER_1
 10
118.1638
 20
36.0674
 42
0.1008280473
  0
VERTEX
  8
LAYER_1
 10
118.3426
 20
36.0309
  0
VERTEX
  8
LAYER_1
 10
118.5214
 20
36.0674
  0
VERTEX
  8
LAYER_1
 10
118.6564
 20
36.1649
  0
VERTEX
  8
LAYER_1
 10
118.7412
 20
36.3079
  0
SEQEND
  0
ENDBLK
  0
BLOCK
  8
LAYER_1
  2
AIGNBL0103001D
 70
64
 10
0
 20
0
 30
0
  3
AIGNBL0103001D
  0
POLYLINE
  8
LAYER_1
 40
0.05
 41
0.05
 66
1
 10
0
 20
0
 30
0
 70
1
  0
VERTEX
  8
LAYER_1
 10
119.8119
 20
36.1418
  0
VERTEX
  8
LAYER_1
 10
119.8136
 20
36.1418
  0
VERTEX
  8
LAYER_1
 10
120.1592
 20
36.9969
  0
VERTEX
  8
LAYER_1
 10
120.3201
 20
36.9969
  0
VERTEX
  8
LAYER_1
 10
120.3201
 20
35.9637
  0
VERTEX
  8
LAYER_1
 10
120.2146
 20
35.9637
  0
VERTEX
  8
LAYER_1
 10
120.2146
 20
36.8611
  0
VERTEX
  8
LAYER_1
 10
120.2119
 20
36.8611
  0
VERTEX
  8
LAYER_1
 10
119.8384
 20
35.9637
  0
VERTEX
  8
LAYER_1
 10
119.783
 20
35.9637
  0
VERTEX
  8
LAYER_1
 10
119.4092
 20
36.8611
  0
VERTEX
  8
LAYER_1
 10
119.4064
 20
36.8611
  0
VERTEX
  8
LAYER_1
 10
119.4064
 20
35.9637
  0
VERTEX
  8
LAYER_1
 10
119.3014
 20
35.9637
  0
VERTEX
  8
LAYER_1
 10
119.3014
 20
36.9969
  0
VERTEX
  8
LAYER_1
 10
119.4619
 20
36.9969
  0
SEQEND
  0
ENDBLK
  0
BLOCK
  8
LAYER_1
  2
AIGNBL0103001E
 70
64
 10
0
 20
0
 30
0
  3
AIGNBL0103001E
  0
POLYLINE
  8
LAYER_1
 40
0.05
 41
0.05
 66
1
 10
0
 20
0
 30
0
 70
1
  0
VERTEX
  8
LAYER_1
 10
121.4666
 20
36.0574
  0
VERTEX
  8
LAYER_1
 10
122.0199
 20
36.0574
  0
VERTEX
  8
LAYER_1
 10
122.0199
 20
35.9637
  0
VERTEX
  8
LAYER_1
 10
121.3615
 20
35.9637
  0
VERTEX
  8
LAYER_1
 10
121.3615
 20
36.9969
  0
VERTEX
  8
LAYER_1
 10
122.0023
 20
36.9969
  0
VERTEX
  8
LAYER_1
 10
122.0023
 20
36.9035
  0
VERTEX
  8
LAYER_1
 10
121.4666
 20
36.9035
  0
VERTEX
  8
LAYER_1
 10
121.4666
 20
36.549
  0
VERTEX
  8
LAYER_1
 10
121.9672
 20
36.549
  0
VERTEX
  8
LAYER_1
 10
121.9672
 20
36.4557
  0
VERTEX
  8
LAYER_1
 10
121.4666
 20
36.4557
  0
SEQEND
  0
ENDBLK
  0
BLOCK
  8
LAYER_1
  2
AIGNBL0103001F
 70
64
 10
0
 20
0
 30
0
  3
AIGNBL0103001F
  0
POLYLINE
  8
LAYER_1
 40
0.05
 41
0.05
 66
1
 10
0
 20
0
 30
0
 70
1
  0
VERTEX
  8
LAYER_1
 10
122.765
 20
36.5797
  0
VERTEX
  8
LAYER_1
 10
123.0472
 20
36.9969
  0
VERTEX
  8
LAYER_1
 10
123.1723
 20
36.9969
  0
VERTEX
  8
LAYER_1
 10
122.8298
 20
36.5053
  0
VERTEX
  8
LAYER_1
 10
123.2091
 20
35.9637
  0
VERTEX
  8
LAYER_1
 10
123.0779
 20
35.9637
  0
VERTEX
  8
LAYER_1
 10
122.7623
 20
36.4295
  0
VERTEX
  8
LAYER_1
 10
122.4488
 20
35.9637
  0
VERTEX
  8
LAYER_1
 10
122.3172
 20
35.9637
  0
VERTEX
  8
LAYER_1
 10
122.6969
 20
36.5066
  0
VERTEX
  8
LAYER_1
 10
122.351
 20
36.9969
  0
VERTEX
  8
LAYER_1
 10
122.4825
 20
36.9969
  0
SEQEND
  0
ENDBLK
  0
BLOCK
  8
LAYER_1
  2
AIGNBL01030020
 70
64
 10
0
 20
0
 30
0
  3
AIGNBL01030020
  0
POLYLINE
  8
LAYER_1
 40
0.05
 41
0.05
 66
1
 10
0
 20
0
 30
0
 70
1
  0
VERTEX
  8
LAYER_1
 10
123.5753
 20
36.9969
  0
VERTEX
  8
LAYER_1
 10
123.8675
 20
36.9969
  0
VERTEX
  8
LAYER_1
 10
124.0105
 20
36.9804
  0
VERTEX
  8
LAYER_1
 10
124.1203
 20
36.929
  0
VERTEX
  8
LAYER_1
 10
124.1913
 20
36.8429
  0
VERTEX
  8
LAYER_1
 10
124.2158
 20
36.7213
  0
VERTEX
  8
LAYER_1
 10
124.1906
 20
36.5993
  0
VERTEX
  8
LAYER_1
 10
124.119
 20
36.5132
  0
VERTEX
  8
LAYER_1
 10
124.0081
 20
36.4615
  0
VERTEX
  8
LAYER_1
 10
123.8644
 20
36.444
  0
VERTEX
  8
LAYER_1
 10
123.6804
 20
36.444
  0
VERTEX
  8
LAYER_1
 10
123.6804
 20
35.9637
  0
VERTEX
  8
LAYER_1
 10
123.5753
 20
35.9637
  0
SEQEND
  0
POLYLINE
  8
LAYER_1
 40
0.05
 41
0.05
 66
1
 10
0
 20
0
 30
0
 70
1
  0
VERTEX
  8
LAYER_1
 10
123.6804
 20
36.5328
  0
VERTEX
  8
LAYER_1
 10
123.8582
 20
36.5328
 42
0.1829203509
  0
VERTEX
  8
LAYER_1
 10
124.0466
 20
36.581
 42
0.2345943979
  0
VERTEX
  8
LAYER_1
 10
124.111
 20
36.7213
 42
0.2650437466
  0
VERTEX
  8
LAYER_1
 10
124.0446
 20
36.8622
 42
0.1264027561
  0
VERTEX
  8
LAYER_1
 10
123.8582
 20
36.9066
  0
VERTEX
  8
LAYER_1
 10
123.6804
 20
36.9066
  0
SEQEND
  0
ENDBLK
  0
BLOCK
  8
LAYER_1
  2
AIGNBL01030021
 70
64
 10
0
 20
0
 30
0
  3
AIGNBL01030021
  0
POLYLINE
  8
LAYER_1
 40
0.05
 41
0.05
 66
1
 10
0
 20
0
 30
0
 70
1
  0
VERTEX
  8
LAYER_1
 10
124.7281
 20
36.0574
  0
VERTEX
  8
LAYER_1
 10
125.2813
 20
36.0574
  0
VERTEX
  8
LAYER_1
 10
125.2813
 20
35.9637
  0
VERTEX
  8
LAYER_1
 10
124.623
 20
35.9637
  0
VERTEX
  8
LAYER_1
 10
124.623
 20
36.9969
  0
VERTEX
  8
LAYER_1
 10
125.2638
 20
36.9969
  0
VERTEX
  8
LAYER_1
 10
125.2638
 20
36.9035
  0
VERTEX
  8
LAYER_1
 10
124.7281
 20
36.9035
  0
VERTEX
  8
LAYER_1
 10
124.7281
 20
36.549
  0
VERTEX
  8
LAYER_1
 10
125.2286
 20
36.549
  0
VERTEX
  8
LAYER_1
 10
125.2286
 20
36.4557
  0
VERTEX
  8
LAYER_1
 10
124.7281
 20
36.4557
  0
SEQEND
  0
ENDBLK
  0
BLOCK
  8
LAYER_1
  2
AIGNBL01030022
 70
64
 10
0
 20
0
 30
0
  3
AIGNBL01030022
  0
POLYLINE
  8
LAYER_1
 40
0.05
 41
0.05
 66
1
 10
0
 20
0
 30
0
 70
1
  0
VERTEX
  8
LAYER_1
 10
125.7933
 20
35.9637
  0
VERTEX
  8
LAYER_1
 10
125.6882
 20
35.9637
  0
VERTEX
  8
LAYER_1
 10
125.6882
 20
36.9969
  0
VERTEX
  8
LAYER_1
 10
125.9921
 20
36.9969
  0
VERTEX
  8
LAYER_1
 10
126.1326
 20
36.9824
  0
VERTEX
  8
LAYER_1
 10
126.2453
 20
36.9349
  0
VERTEX
  8
LAYER_1
 10
126.319
 20
36.8494
  0
VERTEX
  8
LAYER_1
 10
126.3449
 20
36.7213
  0
VERTEX
  8
LAYER_1
 10
126.3249
 20
36.6176
  0
VERTEX
  8
LAYER_1
 10
126.2694
 20
36.5366
  0
VERTEX
  8
LAYER_1
 10
126.186
 20
36.4818
  0
VERTEX
  8
LAYER_1
 10
126.0809
 20
36.4557
  0
VERTEX
  8
LAYER_1
 10
126.3831
 20
35.9637
  0
VERTEX
  8
LAYER_1
 10
126.2546
 20
35.9637
  0
VERTEX
  8
LAYER_1
 10
125.9687
 20
36.4467
  0
VERTEX
  8
LAYER_1
 10
125.7933
 20
36.4467
  0
SEQEND
  0
POLYLINE
  8
LAYER_1
 40
0.05
 41
0.05
 66
1
 10
0
 20
0
 30
0
 70
1
  0
VERTEX
  8
LAYER_1
 10
125.7933
 20
36.5373
  0
VERTEX
  8
LAYER_1
 10
125.9759
 20
36.5373
 42
0.1663801652
  0
VERTEX
  8
LAYER_1
 10
126.1716
 20
36.5831
 42
0.2503091692
  0
VERTEX
  8
LAYER_1
 10
126.2401
 20
36.7213
  0
VERTEX
  8
LAYER_1
 10
126.2212
 20
36.8071
  0
VERTEX
  8
LAYER_1
 10
126.1685
 20
36.8643
  0
VERTEX
  8
LAYER_1
 10
126.0868
 20
36.8963
  0
VERTEX
  8
LAYER_1
 10
125.9804
 20
36.9066
  0
VERTEX
  8
LAYER_1
 10
125.7933
 20
36.9066
  0
SEQEND
  0
ENDBLK
  0
BLOCK
  8
LAYER_1
  2
AIGNBL01030023
 70
64
 10
0
 20
0
 30
0
  3
AIGNBL01030023
  0
POLYLINE
  8
LAYER_1
 40
0.05
 41
0.05
 66
1
 10
0
 20
0
 30
0
 70
1
  0
VERTEX
  8
LAYER_1
 10
126.8688
 20
35.9637
  0
VERTEX
  8
LAYER_1
 10
126.7641
 20
35.9637
  0
VERTEX
  8
LAYER_1
 10
126.7641
 20
36.9969
  0
VERTEX
  8
LAYER_1
 10
126.8688
 20
36.9969
  0
SEQEND
  0
ENDBLK
  0
BLOCK
  8
LAYER_1
  2
AIGNBL01030024
 70
64
 10
0
 20
0
 30
0
  3
AIGNBL01030024
  0
POLYLINE
  8
LAYER_1
 40
0.05
 41
0.05
 66
1
 10
0
 20
0
 30
0
 70
1
  0
VERTEX
  8
LAYER_1
 10
127.4497
 20
36.0574
  0
VERTEX
  8
LAYER_1
 10
128.0026
 20
36.0574
  0
VERTEX
  8
LAYER_1
 10
128.0026
 20
35.9637
  0
VERTEX
  8
LAYER_1
 10
127.3446
 20
35.9637
  0
VERTEX
  8
LAYER_1
 10
127.3446
 20
36.9969
  0
VERTEX
  8
LAYER_1
 10
127.9854
 20
36.9969
  0
VERTEX
  8
LAYER_1
 10
127.9854
 20
36.9035
  0
VERTEX
  8
LAYER_1
 10
127.4497
 20
36.9035
  0
VERTEX
  8
LAYER_1
 10
127.4497
 20
36.549
  0
VERTEX
  8
LAYER_1
 10
127.9503
 20
36.549
  0
VERTEX
  8
LAYER_1
 10
127.9503
 20
36.4557
  0
VERTEX
  8
LAYER_1
 10
127.4497
 20
36.4557
  0
SEQEND
  0
ENDBLK
  0
BLOCK
  8
LAYER_1
  2
AIGNBL01030025
 70
64
 10
0
 20
0
 30
0
  3
AIGNBL01030025
  0
POLYLINE
  8
LAYER_1
 40
0.05
 41
0.05
 66
1
 10
0
 20
0
 30
0
 70
1
  0
VERTEX
  8
LAYER_1
 10
129.1426
 20
36.117
  0
VERTEX
  8
LAYER_1
 10
129.1454
 20
36.117
  0
VERTEX
  8
LAYER_1
 10
129.1454
 20
36.9969
  0
VERTEX
  8
LAYER_1
 10
129.2504
 20
36.9969
  0
VERTEX
  8
LAYER_1
 10
129.2504
 20
35.9637
  0
VERTEX
  8
LAYER_1
 10
129.1192
 20
35.9637
  0
VERTEX
  8
LAYER_1
 10
128.518
 20
36.8525
  0
VERTEX
  8
LAYER_1
 10
128.5149
 20
36.8525
  0
VERTEX
  8
LAYER_1
 10
128.5149
 20
35.9637
  0
VERTEX
  8
LAYER_1
 10
128.4098
 20
35.9637
  0
VERTEX
  8
LAYER_1
 10
128.4098
 20
36.9969
  0
VERTEX
  8
LAYER_1
 10
128.5414
 20
36.9969
  0
SEQEND
  0
ENDBLK
  0
BLOCK
  8
LAYER_1
  2
AIGNBL01030026
 70
64
 10
0
 20
0
 30
0
  3
AIGNBL01030026
  0
POLYLINE
  8
LAYER_1
 40
0.05
 41
0.05
 66
1
 10
0
 20
0
 30
0
 70
1
  0
VERTEX
  8
LAYER_1
 10
130.5961
 20
36.1315
  0
VERTEX
  8
LAYER_1
 10
130.5324
 20
36.0571
  0
VERTEX
  8
LAYER_1
 10
130.4463
 20
35.9954
  0
VERTEX
  8
LAYER_1
 10
130.3381
 20
35.953
  0
VERTEX
  8
LAYER_1
 10
130.2092
 20
35.9375
 42
-0.1009408553
  0
VERTEX
  8
LAYER_1
 10
129.9932
 20
35.9785
 42
-0.1036559164
  0
VERTEX
  8
LAYER_1
 10
129.8227
 20
36.0915
 42
-0.09812017057
  0
VERTEX
  8
LAYER_1
 10
129.7111
 20
36.2631
 42
-0.09255697562
  0
VERTEX
  8
LAYER_1
 10
129.6707
 20
36.4805
 42
-0.1035456296
  0
VERTEX
  8
LAYER_1
 10
129.7117
 20
36.6978
 42
-0.1005534539
  0
VERTEX
  8
LAYER_1
 10
129.8244
 20
36.8694
 42
-0.09536265516
  0
VERTEX
  8
LAYER_1
 10
129.9953
 20
36.9824
 42
-0.09506675375
  0
VERTEX
  8
LAYER_1
 10
130.2092
 20
37.0234
  0
VERTEX
  8
LAYER_1
 10
130.3208
 20
37.0114
  0
VERTEX
  8
LAYER_1
 10
130.4239
 20
36.9779
  0
VERTEX
  8
LAYER_1
 10
130.5113
 20
36.9263
  0
VERTEX
  8
LAYER_1
 10
130.5771
 20
36.8584
  0
VERTEX
  8
LAYER_1
 10
130.4896
 20
36.794
  0
VERTEX
  8
LAYER_1
 10
130.4463
 20
36.8439
  0
VERTEX
  8
LAYER_1
 10
130.3829
 20
36.8877
  0
VERTEX
  8
LAYER_1
 10
130.3033
 20
36.9183
  0
VERTEX
  8
LAYER_1
 10
130.2106
 20
36.93
  0
VERTEX
  8
LAYER_1
 10
130.0304
 20
36.8935
  0
VERTEX
  8
LAYER_1
 10
129.8954
 20
36.7954
  0
VERTEX
  8
LAYER_1
 10
129.8106
 20
36.652
  0
VERTEX
  8
LAYER_1
 10
129.7817
 20
36.4805
  0
VERTEX
  8
LAYER_1
 10
129.8116
 20
36.3089
  0
VERTEX
  8
LAYER_1
 10
129.8971
 20
36.1656
  0
VERTEX
  8
LAYER_1
 10
130.0321
 20
36.0674
 42
0.1009931409
  0
VERTEX
  8
LAYER_1
 10
130.2106
 20
36.0309
  0
VERTEX
  8
LAYER_1
 10
130.3798
 20
36.0674
 42
0.1319081761
  0
VERTEX
  8
LAYER_1
 10
130.5141
 20
36.1842
  0
SEQEND
  0
ENDBLK
  0
BLOCK
  8
LAYER_1
  2
AIGNBL01030027
 70
64
 10
0
 20
0
 30
0
  3
AIGNBL01030027
  0
POLYLINE
  8
LAYER_1
 40
0.05
 41
0.05
 66
1
 10
0
 20
0
 30
0
 70
1
  0
VERTEX
  8
LAYER_1
 10
131.0832
 20
36.0574
  0
VERTEX
  8
LAYER_1
 10
131.6365
 20
36.0574
  0
VERTEX
  8
LAYER_1
 10
131.6365
 20
35.9637
  0
VERTEX
  8
LAYER_1
 10
130.9782
 20
35.9637
  0
VERTEX
  8
LAYER_1
 10
130.9782
 20
36.9969
  0
VERTEX
  8
LAYER_1
 10
131.619
 20
36.9969
  0
VERTEX
  8
LAYER_1
 10
131.619
 20
36.9035
  0
VERTEX
  8
LAYER_1
 10
131.0832
 20
36.9035
  0
VERTEX
  8
LAYER_1
 10
131.0832
 20
36.549
  0
VERTEX
  8
LAYER_1
 10
131.5838
 20
36.549
  0
VERTEX
  8
LAYER_1
 10
131.5838
 20
36.4557
  0
VERTEX
  8
LAYER_1
 10
131.0832
 20
36.4557
  0
SEQEND
  0
ENDBLK
  0
BLOCK
  8
LAYER_1
  2
AIGNBL01030041
 70
64
 10
0
 20
0
 30
0
  3
AIGNBL01030041
  0
POLYLINE
  8
LAYER_1
 40
0.05
 41
0.05
 66
1
 10
0
 20
0
 30
0
 70
1
  0
VERTEX
  8
LAYER_1
 10
174.4548
 20
132.7475
  0
VERTEX
  8
LAYER_1
 10
173.9271
 20
131.8337
  0
VERTEX
  8
LAYER_1
 10
173.3994
 20
132.7475
  0
SEQEND
  0
ENDBLK
  0
BLOCK
  8
LAYER_1
  2
AIGNBL01030042
 70
64
 10
0
 20
0
 30
0
  3
AIGNBL01030042
  0
POLYLINE
  8
LAYER_1
 40
0.05
 41
0.05
 66
1
 10
0
 20
0
 30
0
 70
1
  0
VERTEX
  8
LAYER_1
 10
174.4548
 20
143.8784
  0
VERTEX
  8
LAYER_1
 10
173.9271
 20
144.7922
  0
VERTEX
  8
LAYER_1
 10
173.3994
 20
143.8784
  0
SEQEND
  0
ENDBLK
  0
BLOCK
  8
LAYER_1
  2
AIGNBL01020004
 70
64
 10
0
 20
0
 30
0
  3
AIGNBL01020004
  0
POLYLINE
  8
LAYER_1
 40
0.05
 41
0.05
 66
1
 10
0
 20
0
 30
0
  0
VERTEX
  8
LAYER_1
 10
-1.196
 20
217.6012
 42
-0.07434374488
  0
VERTEX
  8
LAYER_1
 10
-1.3046
 20
216.4751
 42
-0.1312981164
  0
VERTEX
  8
LAYER_1
 10
-1.5732
 20
216.0054
 42
-0.208619006
  0
VERTEX
  8
LAYER_1
 10
-2.3408
 20
215.7164
 42
-0.1980855618
  0
VERTEX
  8
LAYER_1
 10
-3.0956
 20
216.0054
 42
-0.1359059684
  0
VERTEX
  8
LAYER_1
 10
-3.3746
 20
216.5106
 42
-0.06699191066
  0
VERTEX
  8
LAYER_1
 10
-3.4732
 20
217.6012
 42
-0.07470238595
  0
VERTEX
  8
LAYER_1
 10
-3.3644
 20
218.7157
 42
-0.1310826725
  0
VERTEX
  8
LAYER_1
 10
-3.0956
 20
219.1845
 42
-0.2061520596
  0
VERTEX
  8
LAYER_1
 10
-2.3408
 20
219.4732
 42
-0.1977437771
  0
VERTEX
  8
LAYER_1
 10
-1.5732
 20
219.1845
 42
-0.1358673357
  0
VERTEX
  8
LAYER_1
 10
-1.2943
 20
218.6804
 42
-0.06720044206
  0
VERTEX
  8
LAYER_1
 10
-1.196
 20
217.6012
  0
SEQEND
  0
POLYLINE
  8
LAYER_1
 40
0.05
 41
0.05
 66
1
 10
0
 20
0
 30
0
  0
VERTEX
  8
LAYER_1
 10
0.4394
 20
217.6012
 42
0.0577585355
  0
VERTEX
  8
LAYER_1
 10
0.3194
 20
218.9609
 42
0.1358747382
  0
VERTEX
  8
LAYER_1
 10
-0.303
 20
220.1395
 42
0.1777268905
  0
VERTEX
  8
LAYER_1
 10
-1.8892
 20
220.9154
 42
0.03495822391
  0
VERTEX
  8
LAYER_1
 10
-2.3408
 20
220.9436
 42
0.07961804251
  0
VERTEX
  8
LAYER_1
 10
-3.315
 20
220.7962
 42
0.1217450219
  0
VERTEX
  8
LAYER_1
 10
-4.3662
 20
220.1395
 42
0.09150776818
  0
VERTEX
  8
LAYER_1
 10
-4.8465
 20
219.4067
 42
0.07735978812
  0
VERTEX
  8
LAYER_1
 10
-5.0776
 20
218.3847
 42
0.03281807239
  0
VERTEX
  8
LAYER_1
 10
-5.1082
 20
217.6012
 42
0.05725233541
  0
VERTEX
  8
LAYER_1
 10
-4.9885
 20
216.2362
 42
0.1359864428
  0
VERTEX
  8
LAYER_1
 10
-4.3662
 20
215.0504
 42
0.175204158
  0
VERTEX
  8
LAYER_1
 10
-2.7508
 20
214.2702
 42
0.03231924249
  0
VERTEX
  8
LAYER_1
 10
-2.3408
 20
214.2463
 42
0.07899302184
  0
VERTEX
  8
LAYER_1
 10
-1.3625
 20
214.3937
 42
0.1216861451
  0
VERTEX
  8
LAYER_1
 10
-0.303
 20
215.0504
 42
0.09340304456
  0
VERTEX
  8
LAYER_1
 10
0.1681
 20
215.7463
 42
0.0774645698
  0
VERTEX
  8
LAYER_1
 10
0.4017
 20
216.7223
 42
0.02212089617
  0
VERTEX
  8
LAYER_1
 10
0.4394
 20
217.6012
  0
SEQEND
  0
POLYLINE
  8
LAYER_1
 40
0.05
 41
0.05
 66
1
 10
0
 20
0
 30
0
  0
VERTEX
  8
LAYER_1
 10
-11.3166
 20
218.2044
  0
VERTEX
  8
LAYER_1
 10
-13.8074
 20
218.2044
 42
-0.1153546446
  0
VERTEX
  8
LAYER_1
 10
-13.6562
 20
218.9079
 42
-0.3007040875
  0
VERTEX
  8
LAYER_1
 10
-12.562
 20
219.5866
 42
-0.1235431447
  0
VERTEX
  8
LAYER_1
 10
-11.9621
 20
219.4464
 42
-0.1667603161
  0
VERTEX
  8
LAYER_1
 10
-11.4672
 20
218.9079
 42
-0.1143399212
  0
VERTEX
  8
LAYER_1
 10
-11.3166
 20
218.2044
  0
SEQEND
  0
POLYLINE
  8
LAYER_1
 40
0.05
 41
0.05
 66
1
 10
0
 20
0
 30
0
 70
1
  0
VERTEX
  8
LAYER_1
 10
-9.7064
 20
217.0861
  0
VERTEX
  8
LAYER_1
 10
-9.7064
 20
217.7772
 42
0.0677042249
  0
VERTEX
  8
LAYER_1
 10
-9.852
 20
218.9102
 42
0.07767771487
  0
VERTEX
  8
LAYER_1
 10
-10.2392
 20
219.7789
 42
0.1724975422
  0
VERTEX
  8
LAYER_1
 10
-11.5857
 20
220.7996
 42
0.07776532921
  0
VERTEX
  8
LAYER_1
 10
-12.562
 20
220.9436
 42
0.0796960513
  0
VERTEX
  8
LAYER_1
 10
-13.5247
 20
220.7966
 42
0.168887661
  0
VERTEX
  8
LAYER_1
 10
-14.846
 20
219.7874
 42
0.07658055294
  0
VERTEX
  8
LAYER_1
 10
-15.2466
 20
218.9066
 42
0.07097127065
  0
VERTEX
  8
LAYER_1
 10
-15.4177
 20
217.6012
 42
0.05685454964
  0
VERTEX
  8
LAYER_1
 10
-15.2934
 20
216.4004
 42
0.07540481703
  0
VERTEX
  8
LAYER_1
 10
-14.9492
 20
215.5069
 42
0.1774924504
  0
VERTEX
  8
LAYER_1
 10
-13.6777
 20
214.4527
 42
0.08958127581
  0
VERTEX
  8
LAYER_1
 10
-12.386
 20
214.2463
 42
0.07080596686
  0
VERTEX
  8
LAYER_1
 10
-11.2943
 20
214.3814
 42
0.08369033087
  0
VERTEX
  8
LAYER_1
 10
-10.4805
 20
214.7708
 42
0.04417423811
  0
VERTEX
  8
LAYER_1
 10
-9.8948
 20
215.2768
  0
VERTEX
  8
LAYER_1
 10
-10.8887
 20
216.2442
 42
-0.09875545259
  0
VERTEX
  8
LAYER_1
 10
-11.5612
 20
215.7667
 42
-0.1006814841
  0
VERTEX
  8
LAYER_1
 10
-12.3732
 20
215.6285
 42
-0.1070981108
  0
VERTEX
  8
LAYER_1
 10
-13.0555
 20
215.7638
 42
-0.2542521374
  0
VERTEX
  8
LAYER_1
 10
-13.7778
 20
216.7415
 42
-0.04997815034
  0
VERTEX
  8
LAYER_1
 10
-13.8074
 20
217.0861
  0
SEQEND
  0
POLYLINE
  8
LAYER_1
 40
0.05
 41
0.05
 66
1
 10
0
 20
0
 30
0
 70
1
  0
VERTEX
  8
LAYER_1
 10
-16.9018
 20
223.2773
  0
VERTEX
  8
LAYER_1
 10
-18.5517
 20
223.2773
  0
VERTEX
  8
LAYER_1
 10
-18.5517
 20
221.9454
  0
VERTEX
  8
LAYER_1
 10
-16.9018
 20
221.9454
  0
SEQEND
  0
POLYLINE
  8
LAYER_1
 40
0.05
 41
0.05
 66
1
 10
0
 20
0
 30
0
 70
1
  0
VERTEX
  8
LAYER_1
 10
-16.9146
 20
220.79
  0
VERTEX
  8
LAYER_1
 10
-18.5499
 20
220.79
  0
VERTEX
  8
LAYER_1
 10
-18.5499
 20
214.3218
  0
VERTEX
  8
LAYER_1
 10
-16.9146
 20
214.3218
  0
SEQEND
  0
POLYLINE
  8
LAYER_1
 40
0.05
 41
0.05
 66
1
 10
0
 20
0
 30
0
  0
VERTEX
  8
LAYER_1
 10
-19.8205
 20
215.1386
  0
VERTEX
  8
LAYER_1
 10
-20.9274
 20
216.2317
 42
-0.1123773458
  0
VERTEX
  8
LAYER_1
 10
-21.5025
 20
215.8017
 42
-0.09517045223
  0
VERTEX
  8
LAYER_1
 10
-21.984
 20
215.7164
 42
-0.2295666259
  0
VERTEX
  8
LAYER_1
 10
-22.9149
 20
216.1436
 42
-0.1146247369
  0
VERTEX
  8
LAYER_1
 10
-23.2025
 20
216.7765
 42
-0.05302023055
  0
VERTEX
  8
LAYER_1
 10
-23.2797
 20
217.6012
 42
-0.07909887362
  0
VERTEX
  8
LAYER_1
 10
-23.1547
 20
218.5928
 42
-0.092262399
  0
VERTEX
  8
LAYER_1
 10
-22.9149
 20
219.0461
 42
-0.2338488836
  0
VERTEX
  8
LAYER_1
 10
-21.984
 20
219.4732
 42
-0.128883052
  0
VERTEX
  8
LAYER_1
 10
-21.3835
 20
219.3322
 42
-0.07812769659
  0
VERTEX
  8
LAYER_1
 10
-20.9274
 20
218.9585
  0
VERTEX
  8
LAYER_1
 10
-19.8205
 20
220.0637
 42
0.170273791
  0
VERTEX
  8
LAYER_1
 10
-21.4399
 20
220.9062
 42
0.04126809408
  0
VERTEX
  8
LAYER_1
 10
-21.984
 20
220.9436
 42
0.07342899762
  0
VERTEX
  8
LAYER_1
 10
-22.9625
 20
220.804
 42
0.1715306153
  0
VERTEX
  8
LAYER_1
 10
-24.3547
 20
219.7917
 42
0.07792315428
  0
VERTEX
  8
LAYER_1
 10
-24.7438
 20
218.9398
 42
0.07121572719
  0
VERTEX
  8
LAYER_1
 10
-24.9151
 20
217.6012
 42
0.06071119945
  0
VERTEX
  8
LAYER_1
 10
-24.7811
 20
216.4004
 42
0.07599045696
  0
VERTEX
  8
LAYER_1
 10
-24.4186
 20
215.5069
 42
0.1707838222
  0
VERTEX
  8
LAYER_1
 10
-23.1195
 20
214.4409
 42
0.08917342928
  0
VERTEX
  8
LAYER_1
 10
-21.984
 20
214.2463
 42
0.07667723183
  0
VERTEX
  8
LAYER_1
 10
-21.0013
 20
214.3855
 42
0.1303789466
  0
VERTEX
  8
LAYER_1
 10
-19.8205
 20
215.1386
  0
SEQEND
  0
ENDBLK
  0
BLOCK
  8
LAYER_1
  2
AIGNBL01020005
 70
64
 10
0
 20
0
 30
0
  3
AIGNBL01020005
  0
POLYLINE
  8
LAYER_1
 40
0.05
 41
0.05
 66
1
 10
0
 20
0
 30
0
 70
1
  0
VERTEX
  8
LAYER_1
 10
0.3288
 20
212.6805
  0
VERTEX
  8
LAYER_1
 10
0.0009
 20
212.6805
  0
VERTEX
  8
LAYER_1
 10
-0.2479
 20
211.9109
  0
VERTEX
  8
LAYER_1
 10
-0.5066
 20
212.6805
  0
VERTEX
  8
LAYER_1
 10
-0.8342
 20
212.6805
  0
VERTEX
  8
LAYER_1
 10
-0.4084
 20
211.5234
  0
VERTEX
  8
LAYER_1
 10
-0.4611
 20
211.3704
 42
-0.396721792
  0
VERTEX
  8
LAYER_1
 10
-0.6165
 20
211.2581
  0
VERTEX
  8
LAYER_1
 10
-0.6882
 20
211.2581
  0
VERTEX
  8
LAYER_1
 10
-0.6882
 20
210.9783
  0
VERTEX
  8
LAYER_1
 10
-0.5662
 20
210.9783
 42
0.2067482179
  0
VERTEX
  8
LAYER_1
 10
-0.2985
 20
211.0741
  0
VERTEX
  8
LAYER_1
 10
-0.2048
 20
211.2343
  0
SEQEND
  0
POLYLINE
  8
LAYER_1
 40
0.05
 41
0.05
 66
1
 10
0
 20
0
 30
0
 70
1
  0
VERTEX
  8
LAYER_1
 10
-0.8704
 20
211.4352
  0
VERTEX
  8
LAYER_1
 10
-0.8704
 20
211.6977
  0
VERTEX
  8
LAYER_1
 10
-0.9899
 20
211.6977
 42
-0.4758158184
  0
VERTEX
  8
LAYER_1
 10
-1.0998
 20
211.8103
  0
VERTEX
  8
LAYER_1
 10
-1.0998
 20
213.137
  0
VERTEX
  8
LAYER_1
 10
-1.4109
 20
213.137
  0
VERTEX
  8
LAYER_1
 10
-1.4109
 20
211.7914
 42
0.4199153803
  0
VERTEX
  8
LAYER_1
 10
-1.0475
 20
211.4352
  0
SEQEND
  0
POLYLINE
  8
LAYER_1
 40
0.05
 41
0.05
 66
1
 10
0
 20
0
 30
0
 70
1
  0
VERTEX
  8
LAYER_1
 10
-1.9739
 20
211.894
 42
-0.2612643935
  0
VERTEX
  8
LAYER_1
 10
-2.0214
 20
211.7363
 42
-0.1972145384
  0
VERTEX
  8
LAYER_1
 10
-2.2057
 20
211.6763
 42
-0.4351815088
  0
VERTEX
  8
LAYER_1
 10
-2.3949
 20
211.8175
 42
-0.4650020324
  0
VERTEX
  8
LAYER_1
 10
-2.2105
 20
211.9609
  0
VERTEX
  8
LAYER_1
 10
-1.9739
 20
211.9609
  0
SEQEND
  0
POLYLINE
  8
LAYER_1
 40
0.05
 41
0.05
 66
1
 10
0
 20
0
 30
0
 70
1
  0
VERTEX
  8
LAYER_1
 10
-1.6624
 20
211.4352
  0
VERTEX
  8
LAYER_1
 10
-1.6624
 20
212.2551
 42
0.2205564812
  0
VERTEX
  8
LAYER_1
 10
-1.7881
 20
212.5772
 42
0.1806009816
  0
VERTEX
  8
LAYER_1
 10
-2.194
 20
212.6947
 42
0.2375604919
  0
VERTEX
  8
LAYER_1
 10
-2.6412
 20
212.5179
  0
VERTEX
  8
LAYER_1
 10
-2.4452
 20
212.3243
 42
-0.2464065653
  0
VERTEX
  8
LAYER_1
 10
-2.2057
 20
212.4322
 42
-0.4684872669
  0
VERTEX
  8
LAYER_1
 10
-1.9739
 20
212.2358
  0
VERTEX
  8
LAYER_1
 10
-1.9739
 20
212.1738
  0
VERTEX
  8
LAYER_1
 10
-2.2633
 20
212.1738
 42
0.2103132122
  0
VERTEX
  8
LAYER_1
 10
-2.6081
 20
212.0486
 42
0.18506809
  0
VERTEX
  8
LAYER_1
 10
-2.6942
 20
211.8127
 42
0.1945609364
  0
VERTEX
  8
LAYER_1
 10
-2.5912
 20
211.533
 42
0.1980708175
  0
VERTEX
  8
LAYER_1
 10
-2.2729
 20
211.4228
 42
0.2246292991
  0
VERTEX
  8
LAYER_1
 10
-1.9663
 20
211.5426
  0
VERTEX
  8
LAYER_1
 10
-1.9663
 20
211.4352
  0
SEQEND
  0
POLYLINE
  8
LAYER_1
 40
0.05
 41
0.05
 66
1
 10
0
 20
0
 30
0
 70
1
  0
VERTEX
  8
LAYER_1
 10
-2.8758
 20
211.4352
  0
VERTEX
  8
LAYER_1
 10
-2.8758
 20
211.6977
  0
VERTEX
  8
LAYER_1
 10
-2.9884
 20
211.6977
 42
-0.496954413
  0
VERTEX
  8
LAYER_1
 10
-3.0963
 20
211.8103
  0
VERTEX
  8
LAYER_1
 10
-3.0963
 20
212.4081
  0
VERTEX
  8
LAYER_1
 10
-2.8758
 20
212.4081
  0
VERTEX
  8
LAYER_1
 10
-2.8758
 20
212.6444
  0
VERTEX
  8
LAYER_1
 10
-3.0963
 20
212.6444
  0
VERTEX
  8
LAYER_1
 10
-3.0963
 20
213.0126
  0
VERTEX
  8
LAYER_1
 10
-3.407
 20
213.0126
  0
VERTEX
  8
LAYER_1
 10
-3.407
 20
212.6444
  0
VERTEX
  8
LAYER_1
 10
-3.539
 20
212.6444
  0
VERTEX
  8
LAYER_1
 10
-3.539
 20
212.4081
  0
VERTEX
  8
LAYER_1
 10
-3.407
 20
212.4081
  0
VERTEX
  8
LAYER_1
 10
-3.407
 20
211.7914
 42
0.4187763975
  0
VERTEX
  8
LAYER_1
 10
-3.0456
 20
211.4352
  0
SEQEND
  0
POLYLINE
  8
LAYER_1
 40
0.05
 41
0.05
 66
1
 10
0
 20
0
 30
0
 70
1
  0
VERTEX
  8
LAYER_1
 10
-3.8091
 20
213.137
  0
VERTEX
  8
LAYER_1
 10
-4.1419
 20
213.137
  0
VERTEX
  8
LAYER_1
 10
-4.1419
 20
211.4352
  0
VERTEX
  8
LAYER_1
 10
-3.8091
 20
211.4352
  0
SEQEND
  0
POLYLINE
  8
LAYER_1
 40
0.05
 41
0.05
 66
1
 10
0
 20
0
 30
0
 70
1
  0
VERTEX
  8
LAYER_1
 10
-5.0562
 20
211.4352
  0
VERTEX
  8
LAYER_1
 10
-5.0562
 20
212.231
 42
0.2135728393
  0
VERTEX
  8
LAYER_1
 10
-5.183
 20
212.5844
 42
0.1976836271
  0
VERTEX
  8
LAYER_1
 10
-5.4775
 20
212.6947
 42
0.2038428178
  0
VERTEX
  8
LAYER_1
 10
-5.7886
 20
212.5658
  0
VERTEX
  8
LAYER_1
 10
-5.7886
 20
212.6805
  0
VERTEX
  8
LAYER_1
 10
-6.0925
 20
212.6805
  0
VERTEX
  8
LAYER_1
 10
-6.0925
 20
211.4352
  0
VERTEX
  8
LAYER_1
 10
-5.7814
 20
211.4352
  0
VERTEX
  8
LAYER_1
 10
-5.7814
 20
212.1882
 42
-0.4265123439
  0
VERTEX
  8
LAYER_1
 10
-5.573
 20
212.4149
 42
-0.4361688158
  0
VERTEX
  8
LAYER_1
 10
-5.3673
 20
212.1882
  0
VERTEX
  8
LAYER_1
 10
-5.3673
 20
211.4352
  0
SEQEND
  0
POLYLINE
  8
LAYER_1
 40
0.05
 41
0.05
 66
1
 10
0
 20
0
 30
0
 70
1
  0
VERTEX
  8
LAYER_1
 10
-6.437
 20
213.1467
  0
VERTEX
  8
LAYER_1
 10
-6.7553
 20
213.1467
  0
VERTEX
  8
LAYER_1
 10
-6.7553
 20
212.8931
  0
VERTEX
  8
LAYER_1
 10
-6.437
 20
212.8931
  0
SEQEND
  0
POLYLINE
  8
LAYER_1
 40
0.05
 41
0.05
 66
1
 10
0
 20
0
 30
0
 70
1
  0
VERTEX
  8
LAYER_1
 10
-6.4394
 20
212.6444
  0
VERTEX
  8
LAYER_1
 10
-6.7508
 20
212.6444
  0
VERTEX
  8
LAYER_1
 10
-6.7508
 20
211.4352
  0
VERTEX
  8
LAYER_1
 10
-6.4394
 20
211.4352
  0
SEQEND
  0
POLYLINE
  8
LAYER_1
 40
0.05
 41
0.05
 66
1
 10
0
 20
0
 30
0
  0
VERTEX
  8
LAYER_1
 10
-7.8994
 20
212.1738
  0
VERTEX
  8
LAYER_1
 10
-8.3735
 20
212.1738
  0
VERTEX
  8
LAYER_1
 10
-8.3445
 20
212.3074
 42
-0.3006254692
  0
VERTEX
  8
LAYER_1
 10
-8.1365
 20
212.4363
 42
-0.3004502708
  0
VERTEX
  8
LAYER_1
 10
-7.9284
 20
212.3074
  0
VERTEX
  8
LAYER_1
 10
-7.8994
 20
212.1738
  0
SEQEND
  0
POLYLINE
  8
LAYER_1
 40
0.05
 41
0.05
 66
1
 10
0
 20
0
 30
0
 70
1
  0
VERTEX
  8
LAYER_1
 10
-7.5932
 20
211.9609
  0
VERTEX
  8
LAYER_1
 10
-7.5932
 20
212.0925
 42
0.1727949422
  0
VERTEX
  8
LAYER_1
 10
-7.7261
 20
212.5161
 42
0.2293242446
  0
VERTEX
  8
LAYER_1
 10
-8.1365
 20
212.6947
 42
0.4082688927
  0
VERTEX
  8
LAYER_1
 10
-8.6757
 20
212.151
 42
0.02665393029
  0
VERTEX
  8
LAYER_1
 10
-8.6797
 20
212.0591
 42
0.1685110564
  0
VERTEX
  8
LAYER_1
 10
-8.5537
 20
211.6061
 42
0.2404561047
  0
VERTEX
  8
LAYER_1
 10
-8.103
 20
211.4207
 42
0.2250390665
  0
VERTEX
  8
LAYER_1
 10
-7.629
 20
211.6167
  0
VERTEX
  8
LAYER_1
 10
-7.8181
 20
211.801
 42
-0.2242451699
  0
VERTEX
  8
LAYER_1
 10
-8.1003
 20
211.6839
 42
-0.4312737558
  0
VERTEX
  8
LAYER_1
 10
-8.3735
 20
211.9609
  0
SEQEND
  0
POLYLINE
  8
LAYER_1
 40
0.05
 41
0.05
 66
1
 10
0
 20
0
 30
0
  0
VERTEX
  8
LAYER_1
 10
-9.2778
 20
212.0591
 42
-0.253040373
  0
VERTEX
  8
LAYER_1
 10
-9.3737
 20
211.7317
 42
-0.1751487426
  0
VERTEX
  8
LAYER_1
 10
-9.4911
 20
211.7004
 42
-0.3550784466
  0
VERTEX
  8
LAYER_1
 10
-9.6774
 20
211.8331
 42
-0.1590539016
  0
VERTEX
  8
LAYER_1
 10
-9.7016
 20
212.0591
 42
-0.2613372193
  0
VERTEX
  8
LAYER_1
 10
-9.6054
 20
212.3859
 42
-0.1728730088
  0
VERTEX
  8
LAYER_1
 10
-9.4911
 20
212.4149
 42
-0.3508351005
  0
VERTEX
  8
LAYER_1
 10
-9.3031
 20
212.2839
 42
-0.1617280931
  0
VERTEX
  8
LAYER_1
 10
-9.2778
 20
212.0591
  0
SEQEND
  0
POLYLINE
  8
LAYER_1
 40
0.05
 41
0.05
 66
1
 10
0
 20
0
 30
0
 70
1
  0
VERTEX
  8
LAYER_1
 10
-8.9667
 20
211.4352
  0
VERTEX
  8
LAYER_1
 10
-8.9667
 20
213.137
  0
VERTEX
  8
LAYER_1
 10
-9.2778
 20
213.137
  0
VERTEX
  8
LAYER_1
 10
-9.2778
 20
212.5707
 42
0.2263222596
  0
VERTEX
  8
LAYER_1
 10
-9.582
 20
212.6947
 42
0.2021447193
  0
VERTEX
  8
LAYER_1
 10
-9.8835
 20
212.5824
 42
0.1955994833
  0
VERTEX
  8
LAYER_1
 10
-10.0116
 20
212.1647
 42
0.01858076917
  0
VERTEX
  8
LAYER_1
 10
-10.013
 20
212.0591
 42
0.1992737425
  0
VERTEX
  8
LAYER_1
 10
-9.8835
 20
211.533
 42
0.1967798833
  0
VERTEX
  8
LAYER_1
 10
-9.5796
 20
211.4207
 42
0.2368398509
  0
VERTEX
  8
LAYER_1
 10
-9.2709
 20
211.5523
  0
VERTEX
  8
LAYER_1
 10
-9.2709
 20
211.4352
  0
SEQEND
  0
POLYLINE
  8
LAYER_1
 40
0.05
 41
0.05
 66
1
 10
0
 20
0
 30
0
 70
1
  0
VERTEX
  8
LAYER_1
 10
-10.6062
 20
211.894
 42
-0.2606176184
  0
VERTEX
  8
LAYER_1
 10
-10.6541
 20
211.7363
 42
-0.1975146001
  0
VERTEX
  8
LAYER_1
 10
-10.8384
 20
211.6763
 42
-0.4358674545
  0
VERTEX
  8
LAYER_1
 10
-11.0272
 20
211.8175
 42
-0.4654392595
  0
VERTEX
  8
LAYER_1
 10
-10.8433
 20
211.9609
  0
VERTEX
  8
LAYER_1
 10
-10.6062
 20
211.9609
  0
SEQEND
  0
POLYLINE
  8
LAYER_1
 40
0.05
 41
0.05
 66
1
 10
0
 20
0
 30
0
 70
1
  0
VERTEX
  8
LAYER_1
 10
-10.2951
 20
211.4352
  0
VERTEX
  8
LAYER_1
 10
-10.2951
 20
212.2551
 42
0.2204713638
  0
VERTEX
  8
LAYER_1
 10
-10.4207
 20
212.5772
 42
0.1806796456
  0
VERTEX
  8
LAYER_1
 10
-10.8267
 20
212.6947
 42
0.2375604919
  0
VERTEX
  8
LAYER_1
 10
-11.2739
 20
212.5179
  0
VERTEX
  8
LAYER_1
 10
-11.0779
 20
212.3243
 42
-0.2460763492
  0
VERTEX
  8
LAYER_1
 10
-10.8384
 20
212.4322
 42
-0.4683426501
  0
VERTEX
  8
LAYER_1
 10
-10.6062
 20
212.2358
  0
VERTEX
  8
LAYER_1
 10
-10.6062
 20
212.1738
  0
VERTEX
  8
LAYER_1
 10
-10.896
 20
212.1738
 42
0.2105830771
  0
VERTEX
  8
LAYER_1
 10
-11.2407
 20
212.0486
 42
0.1847749138
  0
VERTEX
  8
LAYER_1
 10
-11.3266
 20
211.8127
 42
0.1946881207
  0
VERTEX
  8
LAYER_1
 10
-11.2239
 20
211.533
 42
0.1984095291
  0
VERTEX
  8
LAYER_1
 10
-10.9053
 20
211.4228
 42
0.2251045156
  0
VERTEX
  8
LAYER_1
 10
-10.599
 20
211.5426
  0
VERTEX
  8
LAYER_1
 10
-10.599
 20
211.4352
  0
SEQEND
  0
POLYLINE
  8
LAYER_1
 40
0.05
 41
0.05
 66
1
 10
0
 20
0
 30
0
 70
1
  0
VERTEX
  8
LAYER_1
 10
-11.5733
 20
211.4352
  0
VERTEX
  8
LAYER_1
 10
-11.5733
 20
212.231
 42
0.2096424971
  0
VERTEX
  8
LAYER_1
 10
-11.7097
 20
212.5844
 42
0.1904514856
  0
VERTEX
  8
LAYER_1
 10
-12.016
 20
212.6947
 42
0.2238328308
  0
VERTEX
  8
LAYER_1
 10
-12.3894
 20
212.5369
 42
0.2475119635
  0
VERTEX
  8
LAYER_1
 10
-12.7198
 20
212.6947
 42
0.1995172237
  0
VERTEX
  8
LAYER_1
 10
-13.0309
 20
212.5658
  0
VERTEX
  8
LAYER_1
 10
-13.0309
 20
212.6805
  0
VERTEX
  8
LAYER_1
 10
-13.3348
 20
212.6805
  0
VERTEX
  8
LAYER_1
 10
-13.3348
 20
211.4352
  0
VERTEX
  8
LAYER_1
 10
-13.0233
 20
211.4352
  0
VERTEX
  8
LAYER_1
 10
-13.0233
 20
212.1882
 42
-0.4265481482
  0
VERTEX
  8
LAYER_1
 10
-12.8153
 20
212.4149
 42
-0.4361688158
  0
VERTEX
  8
LAYER_1
 10
-12.6096
 20
212.1882
  0
VERTEX
  8
LAYER_1
 10
-12.6096
 20
211.4352
  0
VERTEX
  8
LAYER_1
 10
-12.2985
 20
211.4352
  0
VERTEX
  8
LAYER_1
 10
-12.2985
 20
212.1951
 42
-0.4236814191
  0
VERTEX
  8
LAYER_1
 10
-12.0904
 20
212.4149
 42
-0.4367319455
  0
VERTEX
  8
LAYER_1
 10
-11.8844
 20
212.1882
  0
VERTEX
  8
LAYER_1
 10
-11.8844
 20
211.4352
  0
SEQEND
  0
POLYLINE
  8
LAYER_1
 40
0.05
 41
0.05
 66
1
 10
0
 20
0
 30
0
  0
VERTEX
  8
LAYER_1
 10
-13.8973
 20
212.0229
 42
-0.2061577285
  0
VERTEX
  8
LAYER_1
 10
-14.0003
 20
211.6401
 42
-0.1860547104
  0
VERTEX
  8
LAYER_1
 10
-14.1915
 20
211.5736
 42
-0.2912351062
  0
VERTEX
  8
LAYER_1
 10
-14.4327
 20
211.7044
 42
-0.1074256356
  0
VERTEX
  8
LAYER_1
 10
-14.4882
 20
212.0229
 42
-0.2074793493
  0
VERTEX
  8
LAYER_1
 10
-14.3843
 20
212.406
 42
-0.1847812498
  0
VERTEX
  8
LAYER_1
 10
-14.1915
 20
212.4725
 42
-0.2924886932
  0
VERTEX
  8
LAYER_1
 10
-13.9523
 20
212.3416
 42
-0.1065173685
  0
VERTEX
  8
LAYER_1
 10
-13.8973
 20
212.0229
  0
SEQEND
  0
POLYLINE
  8
LAYER_1
 40
0.05
 41
0.05
 66
1
 10
0
 20
0
 30
0
 70
1
  0
VERTEX
  8
LAYER_1
 10
-13.7247
 20
211.4352
  0
VERTEX
  8
LAYER_1
 10
-13.7247
 20
213.137
  0
VERTEX
  8
LAYER_1
 10
-13.8973
 20
213.137
  0
VERTEX
  8
LAYER_1
 10
-13.8973
 20
212.4749
 42
0.2526586678
  0
VERTEX
  8
LAYER_1
 10
-14.2298
 20
212.6258
 42
0.19617536
  0
VERTEX
  8
LAYER_1
 10
-14.5171
 20
212.5224
 42
0.2062736322
  0
VERTEX
  8
LAYER_1
 10
-14.6608
 20
212.0229
 42
0.1925049638
  0
VERTEX
  8
LAYER_1
 10
-14.5171
 20
211.5234
 42
0.1893263809
  0
VERTEX
  8
LAYER_1
 10
-14.2298
 20
211.4207
 42
0.2549957718
  0
VERTEX
  8
LAYER_1
 10
-13.8949
 20
211.5761
  0
VERTEX
  8
LAYER_1
 10
-13.8949
 20
211.4352
  0
SEQEND
  0
POLYLINE
  8
LAYER_1
 40
0.05
 41
0.05
 66
1
 10
0
 20
0
 30
0
 70
1
  0
VERTEX
  8
LAYER_1
 10
-15.0173
 20
211.4352
  0
VERTEX
  8
LAYER_1
 10
-15.0173
 20
212.1882
 42
0.2089360908
  0
VERTEX
  8
LAYER_1
 10
-15.1393
 20
212.5156
 42
0.1977212202
  0
VERTEX
  8
LAYER_1
 10
-15.4411
 20
212.6258
 42
0.2189458741
  0
VERTEX
  8
LAYER_1
 10
-15.7711
 20
212.4818
  0
VERTEX
  8
LAYER_1
 10
-15.7711
 20
212.6113
  0
VERTEX
  8
LAYER_1
 10
-15.9434
 20
212.6113
  0
VERTEX
  8
LAYER_1
 10
-15.9434
 20
211.4352
  0
VERTEX
  8
LAYER_1
 10
-15.7711
 20
211.4352
  0
VERTEX
  8
LAYER_1
 10
-15.7711
 20
212.1593
 42
-0.4284576329
  0
VERTEX
  8
LAYER_1
 10
-15.479
 20
212.4725
 42
-0.4466039224
  0
VERTEX
  8
LAYER_1
 10
-15.1896
 20
212.1593
  0
VERTEX
  8
LAYER_1
 10
-15.1896
 20
211.4352
  0
SEQEND
  0
POLYLINE
  8
LAYER_1
 40
0.05
 41
0.05
 66
1
 10
0
 20
0
 30
0
 70
1
  0
VERTEX
  8
LAYER_1
 10
-16.5346
 20
211.8506
 42
-0.2283736068
  0
VERTEX
  8
LAYER_1
 10
-16.5945
 20
211.6477
 42
-0.1936527339
  0
VERTEX
  8
LAYER_1
 10
-16.8553
 20
211.5688
 42
-0.4421173513
  0
VERTEX
  8
LAYER_1
 10
-17.1281
 20
211.77
 42
-0.3470924647
  0
VERTEX
  8
LAYER_1
 10
-16.9968
 20
211.9592
 42
-0.1261120874
  0
VERTEX
  8
LAYER_1
 10
-16.8625
 20
211.9774
  0
VERTEX
  8
LAYER_1
 10
-16.5346
 20
211.9774
  0
SEQEND
  0
POLYLINE
  8
LAYER_1
 40
0.05
 41
0.05
 66
1
 10
0
 20
0
 30
0
 70
1
  0
VERTEX
  8
LAYER_1
 10
-16.362
 20
211.4352
  0
VERTEX
  8
LAYER_1
 10
-16.362
 20
212.233
 42
0.2383829599
  0
VERTEX
  8
LAYER_1
 10
-16.4898
 20
212.5337
 42
0.1599209503
  0
VERTEX
  8
LAYER_1
 10
-16.8336
 20
212.6258
 42
0.2578644009
  0
VERTEX
  8
LAYER_1
 10
-17.2501
 20
212.4487
  0
VERTEX
  8
LAYER_1
 10
-17.133
 20
212.3409
 42
-0.2730960706
  0
VERTEX
  8
LAYER_1
 10
-16.8364
 20
212.4776
 42
-0.4521672334
  0
VERTEX
  8
LAYER_1
 10
-16.5346
 20
212.2193
  0
VERTEX
  8
LAYER_1
 10
-16.5346
 20
212.1066
  0
VERTEX
  8
LAYER_1
 10
-16.8863
 20
212.1066
 42
0.2189203862
  0
VERTEX
  8
LAYER_1
 10
-17.2226
 20
211.9822
 42
0.17494127
  0
VERTEX
  8
LAYER_1
 10
-17.2956
 20
211.7673
 42
0.2075768001
  0
VERTEX
  8
LAYER_1
 10
-17.2071
 20
211.5282
 42
0.2128603639
  0
VERTEX
  8
LAYER_1
 10
-16.8742
 20
211.4207
 42
0.2247839487
  0
VERTEX
  8
LAYER_1
 10
-16.5346
 20
211.5471
  0
VERTEX
  8
LAYER_1
 10
-16.5346
 20
211.4352
  0
SEQEND
  0
POLYLINE
  8
LAYER_1
 40
0.05
 41
0.05
 66
1
 10
0
 20
0
 30
0
 70
1
  0
VERTEX
  8
LAYER_1
 10
-17.6211
 20
211.4352
  0
VERTEX
  8
LAYER_1
 10
-17.6211
 20
212.1903
 42
0.4657729105
  0
VERTEX
  8
LAYER_1
 10
-18.0449
 20
212.6258
 42
0.2190712165
  0
VERTEX
  8
LAYER_1
 10
-18.3749
 20
212.4818
  0
VERTEX
  8
LAYER_1
 10
-18.3749
 20
213.137
  0
VERTEX
  8
LAYER_1
 10
-18.5475
 20
213.137
  0
VERTEX
  8
LAYER_1
 10
-18.5475
 20
211.4352
  0
VERTEX
  8
LAYER_1
 10
-18.3749
 20
211.4352
  0
VERTEX
  8
LAYER_1
 10
-18.3749
 20
212.1617
 42
-0.4350388577
  0
VERTEX
  8
LAYER_1
 10
-18.0807
 20
212.4725
 42
-0.4517618327
  0
VERTEX
  8
LAYER_1
 10
-17.7934
 20
212.1617
  0
VERTEX
  8
LAYER_1
 10
-17.7934
 20
211.4352
  0
SEQEND
  0
ENDBLK
  0
BLOCK
  8
LAYER_1
  2
AIGNBL01020007
 70
64
 10
0
 20
0
 30
0
  3
AIGNBL01020007
  0
INSERT
  8
LAYER_1
  2
AIGNBL01030008
 10
0
 20
0
 30
0
  0
ENDBLK
  0
BLOCK
  8
LAYER_1
  2
AIGNBL01020010
 70
64
 10
0
 20
0
 30
0
  3
AIGNBL01020010
  0
INSERT
  8
LAYER_1
  2
AIGNBL01030011
 10
0
 20
0
 30
0
  0
INSERT
  8
LAYER_1
  2
AIGNBL01030012
 10
0
 20
0
 30
0
  0
INSERT
  8
LAYER_1
  2
AIGNBL01030013
 10
0
 20
0
 30
0
  0
INSERT
  8
LAYER_1
  2
AIGNBL01030014
 10
0
 20
0
 30
0
  0
INSERT
  8
LAYER_1
  2
AIGNBL01030015
 10
0
 20
0
 30
0
  0
INSERT
  8
LAYER_1
  2
AIGNBL01030016
 10
0
 20
0
 30
0
  0
INSERT
  8
LAYER_1
  2
AIGNBL01030017
 10
0
 20
0
 30
0
  0
INSERT
  8
LAYER_1
  2
AIGNBL01030018
 10
0
 20
0
 30
0
  0
INSERT
  8
LAYER_1
  2
AIGNBL01030019
 10
0
 20
0
 30
0
  0
INSERT
  8
LAYER_1
  2
AIGNBL0103001A
 10
0
 20
0
 30
0
  0
INSERT
  8
LAYER_1
  2
AIGNBL0103001B
 10
0
 20
0
 30
0
  0
INSERT
  8
LAYER_1
  2
AIGNBL0103001C
 10
0
 20
0
 30
0
  0
INSERT
  8
LAYER_1
  2
AIGNBL0103001D
 10
0
 20
0
 30
0
  0
INSERT
  8
LAYER_1
  2
AIGNBL0103001E
 10
0
 20
0
 30
0
  0
INSERT
  8
LAYER_1
  2
AIGNBL0103001F
 10
0
 20
0
 30
0
  0
INSERT
  8
LAYER_1
  2
AIGNBL01030020
 10
0
 20
0
 30
0
  0
INSERT
  8
LAYER_1
  2
AIGNBL01030021
 10
0
 20
0
 30
0
  0
INSERT
  8
LAYER_1
  2
AIGNBL01030022
 10
0
 20
0
 30
0
  0
INSERT
  8
LAYER_1
  2
AIGNBL01030023
 10
0
 20
0
 30
0
  0
INSERT
  8
LAYER_1
  2
AIGNBL01030024
 10
0
 20
0
 30
0
  0
INSERT
  8
LAYER_1
  2
AIGNBL01030025
 10
0
 20
0
 30
0
  0
INSERT
  8
LAYER_1
  2
AIGNBL01030026
 10
0
 20
0
 30
0
  0
INSERT
  8
LAYER_1
  2
AIGNBL01030027
 10
0
 20
0
 30
0
  0
ENDBLK
  0
BLOCK
  8
LAYER_1
  2
AIGNBL01020040
 70
64
 10
0
 20
0
 30
0
  3
AIGNBL01020040
  0
POLYLINE
  8
LAYER_1
 40
0.1058
 41
0.1058
 66
1
 10
0
 20
0
 30
0
  0
VERTEX
  8
LAYER_1
 10
173.9271
 20
132.5931
  0
VERTEX
  8
LAYER_1
 10
173.9271
 20
144.0328
  0
SEQEND
  0
INSERT
  8
LAYER_1
  2
AIGNBL01030041
 10
0
 20
0
 30
0
  0
INSERT
  8
LAYER_1
  2
AIGNBL01030042
 10
0
 20
0
 30
0
  0
ENDBLK
  0
BLOCK
  8
LAYER_1
  2
AIGNBL01010002
 70
64
 10
0
 20
0
 30
0
  3
AIGNBL01010002
  0
POLYLINE
  8
LAYER_1
 40
0.7056
 41
0.7056
 66
1
 10
0
 20
0
 30
0
 70
1
  0
VERTEX
  8
LAYER_1
 10
251.6749
 20
230.337
  0
VERTEX
  8
LAYER_1
 10
251.6749
 20
33.3285
  0
VERTEX
  8
LAYER_1
 10
-30.3177
 20
33.3285
  0
VERTEX
  8
LAYER_1
 10
-30.3177
 20
230.337
  0
SEQEND
  0
ENDBLK
  0
BLOCK
  8
LAYER_1
  2
AIGNBL01010003
 70
64
 10
0
 20
0
 30
0
  3
AIGNBL01010003
  0
INSERT
  8
LAYER_1
  2
AIGNBL01020004
 10
0
 20
0
 30
0
  0
POLYLINE
  8
LAYER_1
 40
0.05
 41
0.05
 66
1
 10
0
 20
0
 30
0
  0
VERTEX
  8
LAYER_1
 10
-6.457
 20
223.2684
  0
VERTEX
  8
LAYER_1
 10
-8.0924
 20
223.2684
  0
VERTEX
  8
LAYER_1
 10
-8.0924
 20
216.1939
 42
0.09304299953
  0
VERTEX
  8
LAYER_1
 10
-7.9518
 20
215.4241
 42
0.2872011141
  0
VERTEX
  8
LAYER_1
 10
-6.4597
 20
214.3359
  0
VERTEX
  8
LAYER_1
 10
-6.457
 20
223.2684
  0
SEQEND
  0
INSERT
  8
LAYER_1
  2
AIGNBL01020005
 10
0
 20
0
 30
0
  0
ENDBLK
  0
BLOCK
  8
LAYER_1
  2
AIGNBL01010006
 70
64
 10
0
 20
0
 30
0
  3
AIGNBL01010006
  0
INSERT
  8
LAYER_1
  2
AIGNBL01020007
 10
0
 20
0
 30
0
  0
INSERT
  8
LAYER_1
  2
AIGNBL01020010
 10
0
 20
0
 30
0
  0
ENDBLK
  0
BLOCK
  8
LAYER_1
  2
AIGNBL01010028
 70
64
 10
0
 20
0
 30
0
  3
AIGNBL01010028
  0
POLYLINE
  8
LAYER_1
 40
0.1058
 41
0.1058
 66
1
 10
0
 20
0
 30
0
  0
VERTEX
  8
LAYER_1
 10
72.4501
 20
129.1478
 42
0.414130635
  0
VERTEX
  8
LAYER_1
 10
71.5311
 20
128.2288
 42
0.4141177053
  0
VERTEX
  8
LAYER_1
 10
72.4501
 20
127.3099
  0
SEQEND
  0
ENDBLK
  0
BLOCK
  8
LAYER_1
  2
AIGNBL01010029
 70
64
 10
0
 20
0
 30
0
  3
AIGNBL01010029
  0
POLYLINE
  8
LAYER_1
 40
0.1058
 41
0.1058
 66
1
 10
0
 20
0
 30
0
  0
VERTEX
  8
LAYER_1
 10
73.3925
 20
127.31
 42
0.4141302965
  0
VERTEX
  8
LAYER_1
 10
74.3115
 20
128.229
 42
0.414115505
  0
VERTEX
  8
LAYER_1
 10
73.3925
 20
129.1479
  0
SEQEND
  0
ENDBLK
  0
BLOCK
  8
LAYER_1
  2
AIGNBL0101002A
 70
64
 10
0
 20
0
 30
0
  3
AIGNBL0101002A
  0
POLYLINE
  8
LAYER_1
 40
0.1058
 41
0.1058
 66
1
 10
0
 20
0
 30
0
  0
VERTEX
  8
LAYER_1
 10
127.7239
 20
127.31
 42
0.4141363987
  0
VERTEX
  8
LAYER_1
 10
128.6429
 20
128.229
 42
0.4141216072
  0
VERTEX
  8
LAYER_1
 10
127.7239
 20
129.1479
  0
SEQEND
  0
ENDBLK
  0
BLOCK
  8
LAYER_1
  2
AIGNBL0101002B
 70
64
 10
0
 20
0
 30
0
  3
AIGNBL0101002B
  0
POLYLINE
  8
LAYER_1
 40
0.1058
 41
0.1058
 66
1
 10
0
 20
0
 30
0
  0
VERTEX
  8
LAYER_1
 10
126.8286
 20
129.1478
 42
0.4141058588
  0
VERTEX
  8
LAYER_1
 10
125.9097
 20
128.2288
 42
0.4140929273
  0
VERTEX
  8
LAYER_1
 10
126.8286
 20
127.3099
  0
SEQEND
  0
ENDBLK
  0
BLOCK
  8
LAYER_1
  2
AIGNBL0101002C
 70
64
 10
0
 20
0
 30
0
  3
AIGNBL0101002C
  0
POLYLINE
  8
LAYER_1
 40
0.1058
 41
0.1058
 66
1
 10
0
 20
0
 30
0
  0
VERTEX
  8
LAYER_1
 10
196.1212
 20
79.929
 42
0.4141758283
  0
VERTEX
  8
LAYER_1
 10
194.7312
 20
81.3191
 42
0.4141859566
  0
VERTEX
  8
LAYER_1
 10
193.3411
 20
79.929
 42
0.41416975
  0
VERTEX
  8
LAYER_1
 10
194.7312
 20
78.539
 42
0.4141596211
  0
VERTEX
  8
LAYER_1
 10
196.1212
 20
79.929
  0
SEQEND
  0
ENDBLK
  0
BLOCK
  8
LAYER_1
  2
AIGNBL0101002D
 70
64
 10
0
 20
0
 30
0
  3
AIGNBL0101002D
  0
POLYLINE
  8
LAYER_1
 40
0.1058
 41
0.1058
 66
1
 10
0
 20
0
 30
0
  0
VERTEX
  8
LAYER_1
 10
61.2351
 20
144.7922
 42
0.2010845609
  0
VERTEX
  8
LAYER_1
 10
61.0503
 20
144.7147
 42
0.2012772916
  0
VERTEX
  8
LAYER_1
 10
60.9761
 20
144.5283
  0
SEQEND
  0
ENDBLK
  0
BLOCK
  8
LAYER_1
  2
AIGNBL0101002E
 70
64
 10
0
 20
0
 30
0
  3
AIGNBL0101002E
  0
POLYLINE
  8
LAYER_1
 40
0.1058
 41
0.1058
 66
1
 10
0
 20
0
 30
0
  0
VERTEX
  8
LAYER_1
 10
139.1981
 20
144.5281
 42
0.2018150229
  0
VERTEX
  8
LAYER_1
 10
139.1239
 20
144.7145
 42
0.2019523155
  0
VERTEX
  8
LAYER_1
 10
138.9391
 20
144.792
  0
SEQEND
  0
ENDBLK
  0
BLOCK
  8
LAYER_1
  2
AIGNBL0101002F
 70
64
 10
0
 20
0
 30
0
  3
AIGNBL0101002F
  0
POLYLINE
  8
LAYER_1
 40
0.1058
 41
0.1058
 66
1
 10
0
 20
0
 30
0
  0
VERTEX
  8
LAYER_1
 10
62.8728
 20
168.5593
 42
0.3135628541
  0
VERTEX
  8
LAYER_1
 10
63.6119
 20
166.566
 42
0.3136418645
  0
VERTEX
  8
LAYER_1
 10
65.7382
 20
166.566
 42
0.3135562094
  0
VERTEX
  8
LAYER_1
 10
66.4772
 20
168.5593
  0
SEQEND
  0
POLYLINE
  8
LAYER_1
 40
0.1058
 41
0.1058
 66
1
 10
0
 20
0
 30
0
  0
VERTEX
  8
LAYER_1
 10
133.7394
 20
168.5881
 42
0.3118165857
  0
VERTEX
  8
LAYER_1
 10
134.4882
 20
166.6095
 42
0.3117414025
  0
VERTEX
  8
LAYER_1
 10
136.6039
 20
166.6095
 42
0.311663925
  0
VERTEX
  8
LAYER_1
 10
137.3532
 20
168.5881
  0
SEQEND
  0
ENDBLK
  0
BLOCK
  8
LAYER_1
  2
AIGNBL01010030
 70
64
 10
0
 20
0
 30
0
  3
AIGNBL01010030
  0
POLYLINE
  8
LAYER_1
 40
0.1058
 41
0.1058
 66
1
 10
0
 20
0
 30
0
  0
VERTEX
  8
LAYER_1
 10
88.3537
 20
204.4719
 42
0.4142334722
  0
VERTEX
  8
LAYER_1
 10
86.7279
 20
206.0978
 42
0.4141981878
  0
VERTEX
  8
LAYER_1
 10
85.1025
 20
204.4719
 42
0.4141855434
  0
VERTEX
  8
LAYER_1
 10
86.7279
 20
202.8461
 42
0.4142208294
  0
VERTEX
  8
LAYER_1
 10
88.3537
 20
204.4719
  0
SEQEND
  0
POLYLINE
  8
LAYER_1
 40
0.1058
 41
0.1058
 66
1
 10
0
 20
0
 30
0
  0
VERTEX
  8
LAYER_1
 10
88.7778
 20
189.7228
 42
0.4142136815
  0
VERTEX
  8
LAYER_1
 10
86.7278
 20
191.7724
 42
0.4141815187
  0
VERTEX
  8
LAYER_1
 10
84.6782
 20
189.7228
 42
0.4141773531
  0
VERTEX
  8
LAYER_1
 10
86.7278
 20
187.6732
 42
0.4142095153
  0
VERTEX
  8
LAYER_1
 10
88.7778
 20
189.7228
  0
SEQEND
  0
POLYLINE
  8
LAYER_1
 40
0.1058
 41
0.1058
 66
1
 10
0
 20
0
 30
0
  0
VERTEX
  8
LAYER_1
 10
89.7202
 20
189.7228
 42
0.414260182
  0
VERTEX
  8
LAYER_1
 10
86.728
 20
192.715
 42
0.4142601411
  0
VERTEX
  8
LAYER_1
 10
83.7358
 20
189.7228
 42
0.4142572868
  0
VERTEX
  8
LAYER_1
 10
86.728
 20
186.7306
 42
0.4142573276
  0
VERTEX
  8
LAYER_1
 10
89.7202
 20
189.7228
  0
SEQEND
  0
POLYLINE
  8
LAYER_1
 40
0.1058
 41
0.1058
 66
1
 10
0
 20
0
 30
0
  0
VERTEX
  8
LAYER_1
 10
139.1981
 20
210.6449
 42
0.414610896
  0
VERTEX
  8
LAYER_1
 10
138.9391
 20
210.9039
  0
SEQEND
  0
ENDBLK
  0
BLOCK
  8
LAYER_1
  2
AIGNBL01010031
 70
64
 10
0
 20
0
 30
0
  3
AIGNBL01010031
  0
POLYLINE
  8
LAYER_1
 40
0.1058
 41
0.1058
 66
1
 10
0
 20
0
 30
0
  0
VERTEX
  8
LAYER_1
 10
138.939
 20
168.5887
 42
0.4145196022
  0
VERTEX
  8
LAYER_1
 10
139.198
 20
168.8477
  0
SEQEND
  0
ENDBLK
  0
BLOCK
  8
LAYER_1
  2
AIGNBL01010032
 70
64
 10
0
 20
0
 30
0
  3
AIGNBL01010032
  0
POLYLINE
  8
LAYER_1
 40
0.1058
 41
0.1058
 66
1
 10
0
 20
0
 30
0
  0
VERTEX
  8
LAYER_1
 10
60.9759
 20
168.8479
 42
0.4145637883
  0
VERTEX
  8
LAYER_1
 10
61.2349
 20
168.5889
  0
SEQEND
  0
ENDBLK
  0
BLOCK
  8
LAYER_1
  2
AIGNBL01010033
 70
64
 10
0
 20
0
 30
0
  3
AIGNBL01010033
  0
POLYLINE
  8
LAYER_1
 40
0.1058
 41
0.1058
 66
1
 10
0
 20
0
 30
0
  0
VERTEX
  8
LAYER_1
 10
61.2351
 20
210.9041
 42
0.4139427911
  0
VERTEX
  8
LAYER_1
 10
60.9761
 20
210.6451
  0
SEQEND
  0
ENDBLK
  0
BLOCK
  8
LAYER_1
  2
AIGNBL01010034
 70
64
 10
0
 20
0
 30
0
  3
AIGNBL01010034
  0
POLYLINE
  8
LAYER_1
 40
0.1058
 41
0.1058
 66
1
 10
0
 20
0
 30
0
  0
VERTEX
  8
LAYER_1
 10
137.8316
 20
209.2313
 42
0.4145332417
  0
VERTEX
  8
LAYER_1
 10
137.5726
 20
209.4903
  0
SEQEND
  0
ENDBLK
  0
BLOCK
  8
LAYER_1
  2
AIGNBL01010035
 70
64
 10
0
 20
0
 30
0
  3
AIGNBL01010035
  0
POLYLINE
  8
LAYER_1
 40
0.1058
 41
0.1058
 66
1
 10
0
 20
0
 30
0
  0
VERTEX
  8
LAYER_1
 10
137.5724
 20
169.9552
 42
0.4145570729
  0
VERTEX
  8
LAYER_1
 10
137.8314
 20
170.2142
  0
SEQEND
  0
ENDBLK
  0
BLOCK
  8
LAYER_1
  2
AIGNBL01010036
 70
64
 10
0
 20
0
 30
0
  3
AIGNBL01010036
  0
POLYLINE
  8
LAYER_1
 40
0.1058
 41
0.1058
 66
1
 10
0
 20
0
 30
0
  0
VERTEX
  8
LAYER_1
 10
62.3896
 20
170.2144
 42
0.4139976767
  0
VERTEX
  8
LAYER_1
 10
62.6486
 20
169.9554
  0
SEQEND
  0
ENDBLK
  0
BLOCK
  8
LAYER_1
  2
AIGNBL01010037
 70
64
 10
0
 20
0
 30
0
  3
AIGNBL01010037
  0
POLYLINE
  8
LAYER_1
 40
0.1058
 41
0.1058
 66
1
 10
0
 20
0
 30
0
  0
VERTEX
  8
LAYER_1
 10
62.6487
 20
209.4904
 42
0.4139553148
  0
VERTEX
  8
LAYER_1
 10
62.3897
 20
209.2314
  0
SEQEND
  0
ENDBLK
  0
BLOCK
  8
LAYER_1
  2
AIGNBL01010038
 70
64
 10
0
 20
0
 30
0
  3
AIGNBL01010038
  0
POLYLINE
  8
LAYER_1
 40
0.1058
 41
0.1058
 66
1
 10
0
 20
0
 30
0
  0
VERTEX
  8
LAYER_1
 10
111.1135
 20
200.5137
 42
0.4146371313
  0
VERTEX
  8
LAYER_1
 10
110.8545
 20
200.7727
  0
SEQEND
  0
ENDBLK
  0
BLOCK
  8
LAYER_1
  2
AIGNBL01010039
 70
64
 10
0
 20
0
 30
0
  3
AIGNBL01010039
  0
POLYLINE
  8
LAYER_1
 40
0.1058
 41
0.1058
 66
1
 10
0
 20
0
 30
0
  0
VERTEX
  8
LAYER_1
 10
110.8544
 20
169.9552
 42
0.4144900263
  0
VERTEX
  8
LAYER_1
 10
111.1134
 20
170.2142
  0
SEQEND
  0
ENDBLK
  0
BLOCK
  8
LAYER_1
  2
AIGNBL0101003A
 70
64
 10
0
 20
0
 30
0
  3
AIGNBL0101003A
  0
POLYLINE
  8
LAYER_1
 40
0.1058
 41
0.1058
 66
1
 10
0
 20
0
 30
0
  0
VERTEX
  8
LAYER_1
 10
62.3896
 20
170.2144
 42
0.4139976767
  0
VERTEX
  8
LAYER_1
 10
62.6486
 20
169.9554
  0
SEQEND
  0
ENDBLK
  0
BLOCK
  8
LAYER_1
  2
AIGNBL0101003B
 70
64
 10
0
 20
0
 30
0
  3
AIGNBL0101003B
  0
POLYLINE
  8
LAYER_1
 40
0.1058
 41
0.1058
 66
1
 10
0
 20
0
 30
0
  0
VERTEX
  8
LAYER_1
 10
62.6487
 20
200.7729
 42
0.4139069483
  0
VERTEX
  8
LAYER_1
 10
62.3897
 20
200.5139
  0
SEQEND
  0
ENDBLK
  0
BLOCK
  8
LAYER_1
  2
AIGNBL0101003C
 70
64
 10
0
 20
0
 30
0
  3
AIGNBL0101003C
  0
POLYLINE
  8
LAYER_1
 40
0.1058
 41
0.1058
 66
1
 10
0
 20
0
 30
0
  0
VERTEX
  8
LAYER_1
 10
60.5271
 20
209.5352
 42
0.2768613459
  0
VERTEX
  8
LAYER_1
 10
58.8377
 20
208.6338
 42
0.2766914258
  0
VERTEX
  8
LAYER_1
 10
58.8377
 20
206.7187
 42
0.2770062514
  0
VERTEX
  8
LAYER_1
 10
60.5271
 20
205.8173
  0
SEQEND
  0
POLYLINE
  8
LAYER_1
 40
0.1058
 41
0.1058
 66
1
 10
0
 20
0
 30
0
  0
VERTEX
  8
LAYER_1
 10
139.694
 20
205.8172
 42
0.2768836509
  0
VERTEX
  8
LAYER_1
 10
141.3835
 20
206.7187
 42
0.2766721687
  0
VERTEX
  8
LAYER_1
 10
141.3835
 20
208.6337
 42
0.2770222089
  0
VERTEX
  8
LAYER_1
 10
139.694
 20
209.5351
  0
SEQEND
  0
ENDBLK
  0
BLOCK
  8
LAYER_1
  2
AIGNBL0101003D
 70
64
 10
0
 20
0
 30
0
  3
AIGNBL0101003D
  0
POLYLINE
  8
LAYER_1
 40
0.1058
 41
0.1058
 66
1
 10
0
 20
0
 30
0
  0
VERTEX
  8
LAYER_1
 10
198.4301
 20
174.9457
  0
VERTEX
  8
LAYER_1
 10
198.4301
 20
178.2713
  0
SEQEND
  0
POLYLINE
  8
LAYER_1
 40
0.1058
 41
0.1058
 66
1
 10
0
 20
0
 30
0
  0
VERTEX
  8
LAYER_1
 10
156.1149
 20
174.9457
  0
VERTEX
  8
LAYER_1
 10
156.1149
 20
178.2713
  0
SEQEND
  0
POLYLINE
  8
LAYER_1
 40
0.1058
 41
0.1058
 66
1
 10
0
 20
0
 30
0
  0
VERTEX
  8
LAYER_1
 10
198.4301
 20
176.8517
  0
VERTEX
  8
LAYER_1
 10
156.1149
 20
176.8517
  0
SEQEND
  0
ENDBLK
  0
BLOCK
  8
LAYER_1
  2
AIGNBL0101003E
 70
64
 10
0
 20
0
 30
0
  3
AIGNBL0101003E
  0
POLYLINE
  8
LAYER_1
 40
0.1058
 41
0.1058
 66
1
 10
0
 20
0
 30
0
  0
VERTEX
  8
LAYER_1
 10
200.0855
 20
130.3258
  0
VERTEX
  8
LAYER_1
 10
203.4112
 20
130.3258
  0
SEQEND
  0
POLYLINE
  8
LAYER_1
 40
0.1058
 41
0.1058
 66
1
 10
0
 20
0
 30
0
  0
VERTEX
  8
LAYER_1
 10
200.0855
 20
144.7922
  0
VERTEX
  8
LAYER_1
 10
203.4112
 20
144.7922
  0
SEQEND
  0
POLYLINE
  8
LAYER_1
 40
0.1058
 41
0.1058
 66
1
 10
0
 20
0
 30
0
  0
VERTEX
  8
LAYER_1
 10
201.9915
 20
130.3258
  0
VERTEX
  8
LAYER_1
 10
201.9915
 20
144.7922
  0
SEQEND
  0
ENDBLK
  0
BLOCK
  8
LAYER_1
  2
AIGNBL0101003F
 70
64
 10
0
 20
0
 30
0
  3
AIGNBL0101003F
  0
INSERT
  8
LAYER_1
  2
AIGNBL01020040
 10
0
 20
0
 30
0
  0
ENDBLK
  0
BLOCK
  8
LAYER_1
  2
AIGNBL01010043
 70
64
 10
0
 20
0
 30
0
  3
AIGNBL01010043
  0
POLYLINE
  8
LAYER_1
 40
0.1058
 41
0.1058
 66
1
 10
0
 20
0
 30
0
  0
VERTEX
  8
LAYER_1
 10
52.8447
 20
210.9041
  0
VERTEX
  8
LAYER_1
 10
49.5191
 20
210.9041
  0
SEQEND
  0
POLYLINE
  8
LAYER_1
 40
0.1058
 41
0.1058
 66
1
 10
0
 20
0
 30
0
  0
VERTEX
  8
LAYER_1
 10
52.8447
 20
168.5889
  0
VERTEX
  8
LAYER_1
 10
49.5191
 20
168.5889
  0
SEQEND
  0
POLYLINE
  8
LAYER_1
 40
0.1058
 41
0.1058
 66
1
 10
0
 20
0
 30
0
  0
VERTEX
  8
LAYER_1
 10
50.9387
 20
210.9041
  0
VERTEX
  8
LAYER_1
 10
50.9387
 20
168.5889
  0
SEQEND
  0
ENDBLK
  0
BLOCK
  8
LAYER_1
  2
AIGNBL01010044
 70
64
 10
0
 20
0
 30
0
  3
AIGNBL01010044
  0
POLYLINE
  8
LAYER_1
 40
0.1058
 41
0.1058
 66
1
 10
0
 20
0
 30
0
  0
VERTEX
  8
LAYER_1
 10
58.9524
 20
144.7922
  0
VERTEX
  8
LAYER_1
 10
52.9606
 20
144.7922
  0
SEQEND
  0
POLYLINE
  8
LAYER_1
 40
0.1058
 41
0.1058
 66
1
 10
0
 20
0
 30
0
  0
VERTEX
  8
LAYER_1
 10
56.2863
 20
68.3608
  0
VERTEX
  8
LAYER_1
 10
52.9606
 20
68.3608
  0
SEQEND
  0
POLYLINE
  8
LAYER_1
 40
0.1058
 41
0.1058
 66
1
 10
0
 20
0
 30
0
  0
VERTEX
  8
LAYER_1
 10
54.3803
 20
144.7922
  0
VERTEX
  8
LAYER_1
 10
54.3803
 20
68.3608
  0
SEQEND
  0
ENDBLK
  0
BLOCK
  8
LAYER_1
  2
AIGNBL01010045
 70
64
 10
0
 20
0
 30
0
  3
AIGNBL01010045
  0
POLYLINE
  8
LAYER_1
 40
0.1058
 41
0.1058
 66
1
 10
0
 20
0
 30
0
  0
VERTEX
  8
LAYER_1
 10
151.6737
 20
83.0625
  0
VERTEX
  8
LAYER_1
 10
148.3481
 20
83.0625
  0
SEQEND
  0
POLYLINE
  8
LAYER_1
 40
0.1058
 41
0.1058
 66
1
 10
0
 20
0
 30
0
  0
VERTEX
  8
LAYER_1
 10
151.6737
 20
68.3608
  0
VERTEX
  8
LAYER_1
 10
148.3481
 20
68.3608
  0
SEQEND
  0
POLYLINE
  8
LAYER_1
 40
0.1058
 41
0.1058
 66
1
 10
0
 20
0
 30
0
  0
VERTEX
  8
LAYER_1
 10
149.7677
 20
83.0625
  0
VERTEX
  8
LAYER_1
 10
149.7677
 20
68.3608
  0
SEQEND
  0
ENDBLK
  0
BLOCK
  8
LAYER_1
  2
AIGNBL01010046
 70
64
 10
0
 20
0
 30
0
  3
AIGNBL01010046
  0
POLYLINE
  8
LAYER_1
 40
0.1058
 41
0.1058
 66
1
 10
0
 20
0
 30
0
  0
VERTEX
  8
LAYER_1
 10
90.9591
 20
210.9041
  0
VERTEX
  8
LAYER_1
 10
87.6334
 20
210.9041
  0
SEQEND
  0
POLYLINE
  8
LAYER_1
 40
0.1058
 41
0.1058
 66
1
 10
0
 20
0
 30
0
  0
VERTEX
  8
LAYER_1
 10
90.9591
 20
204.4719
  0
VERTEX
  8
LAYER_1
 10
83.0879
 20
204.4719
  0
SEQEND
  0
POLYLINE
  8
LAYER_1
 40
0.1058
 41
0.1058
 66
1
 10
0
 20
0
 30
0
  0
VERTEX
  8
LAYER_1
 10
89.0531
 20
210.9041
  0
VERTEX
  8
LAYER_1
 10
89.0531
 20
204.4719
  0
SEQEND
  0
ENDBLK
  0
BLOCK
  8
LAYER_1
  2
AIGNBL01010047
 70
64
 10
0
 20
0
 30
0
  3
AIGNBL01010047
  0
POLYLINE
  8
LAYER_1
 40
0.1058
 41
0.1058
 66
1
 10
0
 20
0
 30
0
  0
VERTEX
  8
LAYER_1
 10
197.1107
 20
84.7146
  0
VERTEX
  8
LAYER_1
 10
197.1107
 20
88.0402
  0
SEQEND
  0
POLYLINE
  8
LAYER_1
 40
0.1058
 41
0.1058
 66
1
 10
0
 20
0
 30
0
  0
VERTEX
  8
LAYER_1
 10
158.4709
 20
84.7146
  0
VERTEX
  8
LAYER_1
 10
158.4709
 20
88.0402
  0
SEQEND
  0
POLYLINE
  8
LAYER_1
 40
0.1058
 41
0.1058
 66
1
 10
0
 20
0
 30
0
  0
VERTEX
  8
LAYER_1
 10
197.1107
 20
86.6205
  0
VERTEX
  8
LAYER_1
 10
158.4709
 20
86.6205
  0
SEQEND
  0
ENDBLK
  0
BLOCK
  8
LAYER_1
  2
AIGNBL01010048
 70
64
 10
0
 20
0
 30
0
  3
AIGNBL01010048
  0
POLYLINE
  8
LAYER_1
 40
0.1058
 41
0.1058
 66
1
 10
0
 20
0
 30
0
  0
VERTEX
  8
LAYER_1
 10
127.2763
 20
139.4674
  0
VERTEX
  8
LAYER_1
 10
127.2763
 20
136.1417
  0
SEQEND
  0
POLYLINE
  8
LAYER_1
 40
0.1058
 41
0.1058
 66
1
 10
0
 20
0
 30
0
  0
VERTEX
  8
LAYER_1
 10
139.1039
 20
139.4674
  0
VERTEX
  8
LAYER_1
 10
139.1039
 20
136.1417
  0
SEQEND
  0
POLYLINE
  8
LAYER_1
 40
0.1058
 41
0.1058
 66
1
 10
0
 20
0
 30
0
  0
VERTEX
  8
LAYER_1
 10
127.2763
 20
137.5614
  0
VERTEX
  8
LAYER_1
 10
139.1039
 20
137.5614
  0
SEQEND
  0
ENDBLK
  0
BLOCK
  8
LAYER_1
  2
AIGNBL01010049
 70
64
 10
0
 20
0
 30
0
  3
AIGNBL01010049
  0
POLYLINE
  8
LAYER_1
 40
0.1058
 41
0.1058
 66
1
 10
0
 20
0
 30
0
  0
VERTEX
  8
LAYER_1
 10
74.7826
 20
139.4674
  0
VERTEX
  8
LAYER_1
 10
74.7826
 20
136.1417
  0
SEQEND
  0
POLYLINE
  8
LAYER_1
 40
0.1058
 41
0.1058
 66
1
 10
0
 20
0
 30
0
  0
VERTEX
  8
LAYER_1
 10
61.0812
 20
137.5614
  0
VERTEX
  8
LAYER_1
 10
74.7826
 20
137.5614
  0
SEQEND
  0
ENDBLK
  0
BLOCK
  8
LAYER_1
  2
AIGNBL0101004A
 70
64
 10
0
 20
0
 30
0
  3
AIGNBL0101004A
  0
POLYLINE
  8
LAYER_1
 40
0.1058
 41
0.1058
 66
1
 10
0
 20
0
 30
0
  0
VERTEX
  8
LAYER_1
 10
100.087
 20
139.4674
  0
VERTEX
  8
LAYER_1
 10
100.087
 20
136.1417
  0
SEQEND
  0
POLYLINE
  8
LAYER_1
 40
0.1058
 41
0.1058
 66
1
 10
0
 20
0
 30
0
  0
VERTEX
  8
LAYER_1
 10
127.2763
 20
139.4674
  0
VERTEX
  8
LAYER_1
 10
127.2763
 20
136.1417
  0
SEQEND
  0
POLYLINE
  8
LAYER_1
 40
0.1058
 41
0.1058
 66
1
 10
0
 20
0
 30
0
  0
VERTEX
  8
LAYER_1
 10
100.087
 20
137.5614
  0
VERTEX
  8
LAYER_1
 10
127.2763
 20
137.5614
  0
SEQEND
  0
ENDBLK
  0
BLOCK
  8
LAYER_1
  2
AIGNBL0101004B
 70
64
 10
0
 20
0
 30
0
  3
AIGNBL0101004B
  0
POLYLINE
  8
LAYER_1
 40
0.1058
 41
0.1058
 66
1
 10
0
 20
0
 30
0
  0
VERTEX
  8
LAYER_1
 10
100.087
 20
139.4674
  0
VERTEX
  8
LAYER_1
 10
100.087
 20
136.1417
  0
SEQEND
  0
POLYLINE
  8
LAYER_1
 40
0.1058
 41
0.1058
 66
1
 10
0
 20
0
 30
0
  0
VERTEX
  8
LAYER_1
 10
74.7826
 20
137.5614
  0
VERTEX
  8
LAYER_1
 10
100.087
 20
137.5614
  0
SEQEND
  0
ENDBLK
  0
ENDSEC
  0
SECTION
  2
ENTITIES
  0
TEXT
  8
LAYER_1
 10
-26.2556
 20
43.1712
 11
-26.2556
 21
43.1712
 40
3.2991
 41
0.5
  1
仕様
  0
POLYLINE
  8
LAYER_1
 40
0.3528
 41
0.3528
 66
1
 10
0
 20
0
 30
0
  0
VERTEX
  8
LAYER_1
 10
250.6748
 20
51.9507
  0
VERTEX
  8
LAYER_1
 10
-29.3346
 20
51.9507
  0
SEQEND
  0
INSERT
  8
LAYER_1
  2
AIGNBL01010002
 10
0
 20
0
 30
0
  0
POLYLINE
  8
LAYER_1
 40
0.3528
 41
0.3528
 66
1
 10
0
 20
0
 30
0
  0
VERTEX
  8
LAYER_1
 10
-29.3178
 20
229.3369
  0
VERTEX
  8
LAYER_1
 10
-29.3178
 20
34.3283
  0
VERTEX
  8
LAYER_1
 10
250.6748
 20
34.3283
  0
VERTEX
  8
LAYER_1
 10
250.6748
 20
229.3369
  0
VERTEX
  8
LAYER_1
 10
-29.3178
 20
229.3369
  0
SEQEND
  0
POLYLINE
  8
LAYER_1
 40
0.3528
 41
0.3528
 66
1
 10
0
 20
0
 30
0
  0
VERTEX
  8
LAYER_1
 10
250.6748
 20
60.4597
  0
VERTEX
  8
LAYER_1
 10
-29.3346
 20
60.4597
  0
SEQEND
  0
POLYLINE
  8
LAYER_1
 40
0.3528
 41
0.3528
 66
1
 10
0
 20
0
 30
0
  0
VERTEX
  8
LAYER_1
 10
250.6748
 20
43.4416
  0
VERTEX
  8
LAYER_1
 10
100.3837
 20
43.4416
  0
SEQEND
  0
TEXT
  8
LAYER_1
 10
188.1725
 20
45.7175
 11
188.1725
 21
45.7175
 40
3.7609
 41
0.5
  1
-
  0
TEXT
  8
LAYER_1
 10
182.8808
 20
49.4743
 11
182.8808
 21
49.4743
 40
2.1994
 41
0.5
  1
縮尺
  0
POLYLINE
  8
LAYER_1
 40
0.3528
 41
0.3528
 66
1
 10
0
 20
0
 30
0
  0
VERTEX
  8
LAYER_1
 10
181.3526
 20
43.4416
  0
VERTEX
  8
LAYER_1
 10
181.3526
 20
51.9507
  0
SEQEND
  0
TEXT
  8
LAYER_1
 10
101.641
 20
57.9834
 11
101.641
 21
57.9834
 40
2.1994
 41
0.5
  1
品番
  0
TEXT
  8
LAYER_1
 10
-28.1609
 20
57.9834
 11
-28.1609
 21
57.9834
 40
2.1994
 41
0.5
  1
品名
  0
TEXT
  8
LAYER_1
 10
101.641
 20
49.4743
 11
101.641
 21
49.4743
 40
2.1994
 41
0.5
  1
重量
  0
TEXT
  8
LAYER_1
 10
105.0013
 20
54.1714
 11
105.0013
 21
54.1714
 40
4.6883
 41
0.5
  1
CIE-PNLA85/（洗面ボウル） CIE-PNST85/（フレーム） CIE-PNPI85L/（ボトムシェルフ）
  0
TEXT
  8
LAYER_1
 10
107.1887
 20
45.7175
 11
107.1887
 21
45.7175
 40
3.7609
 41
0.5
  1
40kg
  0
POLYLINE
  8
LAYER_1
 40
0.3528
 41
0.3528
 66
1
 10
0
 20
0
 30
0
  0
VERTEX
  8
LAYER_1
 10
100.3837
 20
34.9539
  0
VERTEX
  8
LAYER_1
 10
100.3837
 20
60.4597
  0
SEQEND
  0
TEXT
  8
LAYER_1
 10
-15.3656
 20
54.891
 11
-15.3656
 21
54.891
 40
4.1459
 41
0.5
  1
プリニオ洗面台900mm
  0
INSERT
  8
LAYER_1
  2
AIGNBL01010003
 10
0
 20
0
 30
0
  0
TEXT
  8
LAYER_1
 10
-15.6835
 20
47.4159
 11
-15.6835
 21
47.4159
 40
3.5536
 41
0.5
  1
●サイズ：W900×D485×H825mm●水栓取付穴：1穴●オーバーフローなし
  0
TEXT
  8
LAYER_1
 10
-15.6835
 20
42.6658
 11
-15.6835
 21
42.6658
 40
3.1172
 41
0.5
  1
●排水金具別途●取り付け金具付属●設置方法：壁固定
  0
TEXT
  8
LAYER_1
 10
-15.6835
 20
37.916
 11
-15.6835
 21
37.916
 40
3.1172
 41
0.5
  1
●洗面器：陶器製　シェルフ：木製・ラッカー仕上げ　フレーム：スチール塗装
  0
TEXT
  8
LAYER_1
 10
237.263
 20
63.2582
 11
237.263
 21
63.2582
 40
2.9614
 41
0.5
  1
単位：mm
  0
TEXT
  8
LAYER_1
 10
-21.7499
 20
202.4877
 11
-21.7499
 21
202.4877
 40
2.5977
 41
0.5
  1
※陶器製品は寸法公差が発生します。
  0
TEXT
  8
LAYER_1
 10
-21.7499
 20
197.7378
 11
-21.7499
 21
197.7378
 40
2.9614
 41
0.5
  1
※壁面には50mm以上の補強材を入れてください。
  0
TEXT
  8
LAYER_1
 10
134.702
 20
39.5359
 11
134.702
 21
39.5359
 40
3.3848
 41
0.5
  1
●TEL 0120-65-1232●FAX 06-6532-1580
  0
TEXT
  8
LAYER_1
 10
134.702
 20
36.0212
 11
134.702
 21
36.0212
 40
3.3848
 41
0.5
  1
hits@hiratatile.co.jp
  0
TEXT
  8
LAYER_1
 10
240.3591
 20
225.8432
 11
240.3591
 21
225.8432
 40
2.073
 41
0.5
  1
170628RT
  0
INSERT
  8
LAYER_1
  2
AIGNBL01010006
 10
0
 20
0
 30
0
  0
POLYLINE
  8
LAYER_1
 40
0.1058
 41
0.1058
 66
1
 10
0
 20
0
 30
0
  0
VERTEX
  8
LAYER_1
 10
62.3896
 20
68.6434
  0
VERTEX
  8
LAYER_1
 10
62.3896
 20
78.4917
  0
SEQEND
  0
POLYLINE
  8
LAYER_1
 40
0.1058
 41
0.1058
 66
1
 10
0
 20
0
 30
0
  0
VERTEX
  8
LAYER_1
 10
62.7194
 20
81.272
  0
VERTEX
  8
LAYER_1
 10
62.7194
 20
130.0429
  0
VERTEX
  8
LAYER_1
 10
60.8815
 20
130.0429
  0
VERTEX
  8
LAYER_1
 10
60.8815
 20
133.7187
  0
VERTEX
  8
LAYER_1
 10
59.044
 20
133.7187
  0
VERTEX
  8
LAYER_1
 10
59.044
 20
68.6435
  0
VERTEX
  8
LAYER_1
 10
62.7194
 20
68.6435
  0
SEQEND
  0
POLYLINE
  8
LAYER_1
 40
0.1058
 41
0.1058
 66
1
 10
0
 20
0
 30
0
 70
1
  0
VERTEX
  8
LAYER_1
 10
60.9758
 20
68.6433
  0
VERTEX
  8
LAYER_1
 10
60.0805
 20
68.6433
  0
VERTEX
  8
LAYER_1
 10
60.0805
 20
68.3606
  0
VERTEX
  8
LAYER_1
 10
60.9758
 20
68.3606
  0
SEQEND
  0
POLYLINE
  8
LAYER_1
 40
0.1058
 41
0.1058
 66
1
 10
0
 20
0
 30
0
 70
1
  0
VERTEX
  8
LAYER_1
 10
65.1228
 20
68.6433
  0
VERTEX
  8
LAYER_1
 10
64.2275
 20
68.6433
  0
VERTEX
  8
LAYER_1
 10
64.2275
 20
68.3606
  0
VERTEX
  8
LAYER_1
 10
65.1228
 20
68.3606
  0
SEQEND
  0
POLYLINE
  8
LAYER_1
 40
0.1058
 41
0.1058
 66
1
 10
0
 20
0
 30
0
  0
VERTEX
  8
LAYER_1
 10
137.8316
 20
81.272
  0
VERTEX
  8
LAYER_1
 10
137.4074
 20
81.272
  0
SEQEND
  0
POLYLINE
  8
LAYER_1
 40
0.1058
 41
0.1058
 66
1
 10
0
 20
0
 30
0
  0
VERTEX
  8
LAYER_1
 10
133.732
 20
81.272
  0
VERTEX
  8
LAYER_1
 10
66.5362
 20
81.272
  0
SEQEND
  0
POLYLINE
  8
LAYER_1
 40
0.1058
 41
0.1058
 66
1
 10
0
 20
0
 30
0
  0
VERTEX
  8
LAYER_1
 10
62.3896
 20
78.4918
  0
VERTEX
  8
LAYER_1
 10
62.8138
 20
78.4918
  0
SEQEND
  0
POLYLINE
  8
LAYER_1
 40
0.1058
 41
0.1058
 66
1
 10
0
 20
0
 30
0
  0
VERTEX
  8
LAYER_1
 10
66.5363
 20
78.4918
  0
VERTEX
  8
LAYER_1
 10
133.7321
 20
78.4918
  0
SEQEND
  0
POLYLINE
  8
LAYER_1
 40
0.1058
 41
0.1058
 66
1
 10
0
 20
0
 30
0
  0
VERTEX
  8
LAYER_1
 10
137.4075
 20
78.4918
  0
VERTEX
  8
LAYER_1
 10
137.8317
 20
78.4918
  0
SEQEND
  0
POLYLINE
  8
LAYER_1
 40
0.1058
 41
0.1058
 66
1
 10
0
 20
0
 30
0
  0
VERTEX
  8
LAYER_1
 10
62.3896
 20
78.4918
  0
VERTEX
  8
LAYER_1
 10
62.0127
 20
78.8687
  0
VERTEX
  8
LAYER_1
 10
61.5412
 20
79.1045
  0
VERTEX
  8
LAYER_1
 10
61.3058
 20
79.2456
  0
VERTEX
  8
LAYER_1
 10
61.1174
 20
79.3871
  0
VERTEX
  8
LAYER_1
 10
61.0232
 20
79.6229
  0
VERTEX
  8
LAYER_1
 10
60.9758
 20
79.9055
  0
VERTEX
  8
LAYER_1
 10
61.0232
 20
80.1409
  0
VERTEX
  8
LAYER_1
 10
61.1174
 20
80.3767
  0
VERTEX
  8
LAYER_1
 10
61.3058
 20
80.5182
  0
VERTEX
  8
LAYER_1
 10
61.5412
 20
80.6593
  0
VERTEX
  8
LAYER_1
 10
62.0127
 20
80.942
  0
VERTEX
  8
LAYER_1
 10
62.3896
 20
81.272
  0
SEQEND
  0
POLYLINE
  8
LAYER_1
 40
0.1058
 41
0.1058
 66
1
 10
0
 20
0
 30
0
 70
1
  0
VERTEX
  8
LAYER_1
 10
62.8138
 20
133.7185
  0
VERTEX
  8
LAYER_1
 10
66.5365
 20
133.7185
  0
VERTEX
  8
LAYER_1
 10
66.5365
 20
68.6433
  0
VERTEX
  8
LAYER_1
 10
62.8138
 20
68.6433
  0
SEQEND
  0
POLYLINE
  8
LAYER_1
 40
0.1058
 41
0.1058
 66
1
 10
0
 20
0
 30
0
  0
VERTEX
  8
LAYER_1
 10
133.732
 20
126.3676
  0
VERTEX
  8
LAYER_1
 10
84.5938
 20
126.3676
  0
SEQEND
  0
POLYLINE
  8
LAYER_1
 40
0.1058
 41
0.1058
 66
1
 10
0
 20
0
 30
0
  0
VERTEX
  8
LAYER_1
 10
85.2908
 20
126.3676
  0
VERTEX
  8
LAYER_1
 10
66.5363
 20
126.3676
  0
SEQEND
  0
INSERT
  8
LAYER_1
  2
AIGNBL01010028
 10
0
 20
0
 30
0
  0
POLYLINE
  8
LAYER_1
 40
0.1058
 41
0.1058
 66
1
 10
0
 20
0
 30
0
  0
VERTEX
  8
LAYER_1
 10
72.4736
 20
129.1478
  0
VERTEX
  8
LAYER_1
 10
73.4163
 20
129.1478
  0
SEQEND
  0
INSERT
  8
LAYER_1
  2
AIGNBL01010029
 10
0
 20
0
 30
0
  0
POLYLINE
  8
LAYER_1
 40
0.1058
 41
0.1058
 66
1
 10
0
 20
0
 30
0
  0
VERTEX
  8
LAYER_1
 10
73.4161
 20
127.31
  0
VERTEX
  8
LAYER_1
 10
72.4735
 20
127.31
  0
SEQEND
  0
POLYLINE
  8
LAYER_1
 40
0.1058
 41
0.1058
 66
1
 10
0
 20
0
 30
0
  0
VERTEX
  8
LAYER_1
 10
137.8316
 20
68.6434
  0
VERTEX
  8
LAYER_1
 10
137.8316
 20
78.4917
  0
SEQEND
  0
POLYLINE
  8
LAYER_1
 40
0.1058
 41
0.1058
 66
1
 10
0
 20
0
 30
0
  0
VERTEX
  8
LAYER_1
 10
137.5017
 20
81.272
  0
VERTEX
  8
LAYER_1
 10
137.5017
 20
130.0429
  0
VERTEX
  8
LAYER_1
 10
139.3396
 20
130.0429
  0
VERTEX
  8
LAYER_1
 10
139.3396
 20
133.7187
  0
VERTEX
  8
LAYER_1
 10
141.1771
 20
133.7187
  0
VERTEX
  8
LAYER_1
 10
141.1771
 20
68.6435
  0
VERTEX
  8
LAYER_1
 10
137.5017
 20
68.6435
  0
SEQEND
  0
POLYLINE
  8
LAYER_1
 40
0.1058
 41
0.1058
 66
1
 10
0
 20
0
 30
0
 70
1
  0
VERTEX
  8
LAYER_1
 10
139.2452
 20
68.6433
  0
VERTEX
  8
LAYER_1
 10
140.1406
 20
68.6433
  0
VERTEX
  8
LAYER_1
 10
140.1406
 20
68.3606
  0
VERTEX
  8
LAYER_1
 10
139.2452
 20
68.3606
  0
SEQEND
  0
POLYLINE
  8
LAYER_1
 40
0.1058
 41
0.1058
 66
1
 10
0
 20
0
 30
0
 70
1
  0
VERTEX
  8
LAYER_1
 10
135.0987
 20
68.6433
  0
VERTEX
  8
LAYER_1
 10
135.994
 20
68.6433
  0
VERTEX
  8
LAYER_1
 10
135.994
 20
68.3606
  0
VERTEX
  8
LAYER_1
 10
135.0987
 20
68.3606
  0
SEQEND
  0
POLYLINE
  8
LAYER_1
 40
0.1058
 41
0.1058
 66
1
 10
0
 20
0
 30
0
  0
VERTEX
  8
LAYER_1
 10
137.8316
 20
78.4918
  0
VERTEX
  8
LAYER_1
 10
138.2085
 20
78.8687
  0
VERTEX
  8
LAYER_1
 10
138.6796
 20
79.1045
  0
VERTEX
  8
LAYER_1
 10
138.9154
 20
79.2456
  0
VERTEX
  8
LAYER_1
 10
139.1038
 20
79.3871
  0
VERTEX
  8
LAYER_1
 10
139.198
 20
79.6229
  0
VERTEX
  8
LAYER_1
 10
139.2453
 20
79.9055
  0
VERTEX
  8
LAYER_1
 10
139.198
 20
80.1409
  0
VERTEX
  8
LAYER_1
 10
139.1038
 20
80.3767
  0
VERTEX
  8
LAYER_1
 10
138.9154
 20
80.5182
  0
VERTEX
  8
LAYER_1
 10
138.6796
 20
80.6593
  0
VERTEX
  8
LAYER_1
 10
138.2085
 20
80.942
  0
VERTEX
  8
LAYER_1
 10
137.8316
 20
81.272
  0
SEQEND
  0
POLYLINE
  8
LAYER_1
 40
0.1058
 41
0.1058
 66
1
 10
0
 20
0
 30
0
 70
1
  0
VERTEX
  8
LAYER_1
 10
137.4073
 20
133.7185
  0
VERTEX
  8
LAYER_1
 10
133.7319
 20
133.7185
  0
VERTEX
  8
LAYER_1
 10
133.7319
 20
68.6433
  0
VERTEX
  8
LAYER_1
 10
137.4073
 20
68.6433
  0
SEQEND
  0
INSERT
  8
LAYER_1
  2
AIGNBL0101002A
 10
0
 20
0
 30
0
  0
POLYLINE
  8
LAYER_1
 40
0.1058
 41
0.1058
 66
1
 10
0
 20
0
 30
0
  0
VERTEX
  8
LAYER_1
 10
127.7475
 20
129.1478
  0
VERTEX
  8
LAYER_1
 10
126.8522
 20
129.1478
  0
SEQEND
  0
INSERT
  8
LAYER_1
  2
AIGNBL0101002B
 10
0
 20
0
 30
0
  0
POLYLINE
  8
LAYER_1
 40
0.1058
 41
0.1058
 66
1
 10
0
 20
0
 30
0
  0
VERTEX
  8
LAYER_1
 10
126.8522
 20
127.31
  0
VERTEX
  8
LAYER_1
 10
127.7475
 20
127.31
  0
SEQEND
  0
POLYLINE
  8
LAYER_1
 40
0.1058
 41
0.1058
 66
1
 10
0
 20
0
 30
0
  0
VERTEX
  8
LAYER_1
 10
66.5363
 20
81.272
  0
VERTEX
  8
LAYER_1
 10
133.7321
 20
81.272
  0
SEQEND
  0
POLYLINE
  8
LAYER_1
 40
0.1058
 41
0.1058
 66
1
 10
0
 20
0
 30
0
  0
VERTEX
  8
LAYER_1
 10
62.3896
 20
81.272
  0
VERTEX
  8
LAYER_1
 10
62.8138
 20
81.272
  0
SEQEND
  0
POLYLINE
  8
LAYER_1
 40
0.1058
 41
0.1058
 66
1
 10
0
 20
0
 30
0
  0
VERTEX
  8
LAYER_1
 10
66.5363
 20
81.272
  0
VERTEX
  8
LAYER_1
 10
133.7321
 20
81.272
  0
SEQEND
  0
POLYLINE
  8
LAYER_1
 40
0.1058
 41
0.1058
 66
1
 10
0
 20
0
 30
0
  0
VERTEX
  8
LAYER_1
 10
157.4814
 20
78.4918
  0
VERTEX
  8
LAYER_1
 10
194.7549
 20
78.4918
  0
SEQEND
  0
POLYLINE
  8
LAYER_1
 40
0.1058
 41
0.1058
 66
1
 10
0
 20
0
 30
0
  0
VERTEX
  8
LAYER_1
 10
157.4814
 20
81.272
  0
VERTEX
  8
LAYER_1
 10
194.7549
 20
81.272
  0
SEQEND
  0
POLYLINE
  8
LAYER_1
 40
0.1058
 41
0.1058
 66
1
 10
0
 20
0
 30
0
 70
1
  0
VERTEX
  8
LAYER_1
 10
156.1149
 20
68.6433
  0
VERTEX
  8
LAYER_1
 10
155.1722
 20
68.6433
  0
VERTEX
  8
LAYER_1
 10
155.1722
 20
68.3606
  0
VERTEX
  8
LAYER_1
 10
156.1149
 20
68.3606
  0
SEQEND
  0
POLYLINE
  8
LAYER_1
 40
0.1058
 41
0.1058
 66
1
 10
0
 20
0
 30
0
  0
VERTEX
  8
LAYER_1
 10
157.4814
 20
78.4918
  0
VERTEX
  8
LAYER_1
 10
157.1045
 20
78.8687
  0
VERTEX
  8
LAYER_1
 10
156.6803
 20
79.1045
  0
VERTEX
  8
LAYER_1
 10
156.4446
 20
79.2456
  0
VERTEX
  8
LAYER_1
 10
156.2561
 20
79.3871
  0
VERTEX
  8
LAYER_1
 10
156.1619
 20
79.6229
  0
VERTEX
  8
LAYER_1
 10
156.115
 20
79.9055
  0
VERTEX
  8
LAYER_1
 10
156.1619
 20
80.1409
  0
VERTEX
  8
LAYER_1
 10
156.2561
 20
80.3767
  0
VERTEX
  8
LAYER_1
 10
156.4446
 20
80.5651
  0
VERTEX
  8
LAYER_1
 10
156.6803
 20
80.6593
  0
VERTEX
  8
LAYER_1
 10
157.1045
 20
80.942
  0
VERTEX
  8
LAYER_1
 10
157.4814
 20
81.272
  0
SEQEND
  0
POLYLINE
  8
LAYER_1
 40
0.1058
 41
0.1058
 66
1
 10
0
 20
0
 30
0
  0
VERTEX
  8
LAYER_1
 10
192.917
 20
78.4918
  0
VERTEX
  8
LAYER_1
 10
192.917
 20
68.6435
  0
VERTEX
  8
LAYER_1
 10
196.6397
 20
68.6435
  0
VERTEX
  8
LAYER_1
 10
196.6397
 20
133.7187
  0
VERTEX
  8
LAYER_1
 10
192.917
 20
133.7187
  0
VERTEX
  8
LAYER_1
 10
192.917
 20
81.272
  0
SEQEND
  0
POLYLINE
  8
LAYER_1
 40
0.1058
 41
0.1058
 66
1
 10
0
 20
0
 30
0
 70
1
  0
VERTEX
  8
LAYER_1
 10
194.3306
 20
68.6433
  0
VERTEX
  8
LAYER_1
 10
195.2259
 20
68.6433
  0
VERTEX
  8
LAYER_1
 10
195.2259
 20
68.3606
  0
VERTEX
  8
LAYER_1
 10
194.3306
 20
68.3606
  0
SEQEND
  0
INSERT
  8
LAYER_1
  2
AIGNBL0101002C
 10
0
 20
0
 30
0
  0
POLYLINE
  8
LAYER_1
 40
0.1058
 41
0.1058
 66
1
 10
0
 20
0
 30
0
  0
VERTEX
  8
LAYER_1
 10
157.4814
 20
78.4918
  0
VERTEX
  8
LAYER_1
 10
157.4814
 20
68.6435
  0
VERTEX
  8
LAYER_1
 10
153.806
 20
68.6435
  0
VERTEX
  8
LAYER_1
 10
153.806
 20
133.7187
  0
VERTEX
  8
LAYER_1
 10
155.6435
 20
133.7187
  0
VERTEX
  8
LAYER_1
 10
155.6435
 20
130.0433
  0
VERTEX
  8
LAYER_1
 10
157.4814
 20
130.0433
  0
VERTEX
  8
LAYER_1
 10
157.4814
 20
81.272
  0
SEQEND
  0
POLYLINE
  8
LAYER_1
 40
0.1058
 41
0.1058
 66
1
 10
0
 20
0
 30
0
  0
VERTEX
  8
LAYER_1
 10
62.8137
 20
130.3258
  0
VERTEX
  8
LAYER_1
 10
61.2588
 20
130.3258
  0
VERTEX
  8
LAYER_1
 10
60.9758
 20
144.5095
  0
SEQEND
  0
INSERT
  8
LAYER_1
  2
AIGNBL0101002D
 10
0
 20
0
 30
0
  0
POLYLINE
  8
LAYER_1
 40
0.1058
 41
0.1058
 66
1
 10
0
 20
0
 30
0
  0
VERTEX
  8
LAYER_1
 10
61.2586
 20
144.7922
  0
VERTEX
  8
LAYER_1
 10
138.9623
 20
144.7922
  0
SEQEND
  0
INSERT
  8
LAYER_1
  2
AIGNBL0101002E
 10
0
 20
0
 30
0
  0
POLYLINE
  8
LAYER_1
 40
0.1058
 41
0.1058
 66
1
 10
0
 20
0
 30
0
  0
VERTEX
  8
LAYER_1
 10
139.2452
 20
144.5094
  0
VERTEX
  8
LAYER_1
 10
138.9626
 20
130.3257
  0
VERTEX
  8
LAYER_1
 10
137.4073
 20
130.3257
  0
SEQEND
  0
POLYLINE
  8
LAYER_1
 40
0.1058
 41
0.1058
 66
1
 10
0
 20
0
 30
0
  0
VERTEX
  8
LAYER_1
 10
133.732
 20
130.3258
  0
VERTEX
  8
LAYER_1
 10
66.5362
 20
130.3258
  0
SEQEND
  0
POLYLINE
  8
LAYER_1
 40
0.1058
 41
0.1058
 66
1
 10
0
 20
0
 30
0
  0
VERTEX
  8
LAYER_1
 10
198.4302
 20
130.3258
  0
VERTEX
  8
LAYER_1
 10
198.336
 20
130.3258
  0
VERTEX
  8
LAYER_1
 10
198.1945
 20
130.3258
  0
VERTEX
  8
LAYER_1
 10
197.9591
 20
130.3258
  0
VERTEX
  8
LAYER_1
 10
197.7234
 20
130.3258
  0
VERTEX
  8
LAYER_1
 10
197.3934
 20
130.3258
  0
VERTEX
  8
LAYER_1
 10
197.0165
 20
130.3258
  0
VERTEX
  8
LAYER_1
 10
196.6396
 20
130.3258
  0
SEQEND
  0
POLYLINE
  8
LAYER_1
 40
0.1058
 41
0.1058
 66
1
 10
0
 20
0
 30
0
  0
VERTEX
  8
LAYER_1
 10
192.917
 20
130.3258
  0
VERTEX
  8
LAYER_1
 10
192.3985
 20
130.3258
  0
VERTEX
  8
LAYER_1
 10
191.739
 20
130.3258
  0
VERTEX
  8
LAYER_1
 10
191.3621
 20
130.3258
  0
VERTEX
  8
LAYER_1
 10
190.8906
 20
130.3258
  0
VERTEX
  8
LAYER_1
 10
190.3726
 20
130.3258
  0
VERTEX
  8
LAYER_1
 10
189.7126
 20
130.3258
  0
VERTEX
  8
LAYER_1
 10
189.0058
 20
130.3258
  0
VERTEX
  8
LAYER_1
 10
188.1578
 20
130.3258
  0
VERTEX
  8
LAYER_1
 10
187.1683
 20
130.3258
  0
VERTEX
  8
LAYER_1
 10
186.0372
 20
130.3258
  0
VERTEX
  8
LAYER_1
 10
184.8119
 20
130.3258
  0
VERTEX
  8
LAYER_1
 10
183.3513
 20
130.3258
  0
VERTEX
  8
LAYER_1
 10
181.7491
 20
130.3258
  0
VERTEX
  8
LAYER_1
 10
180.9007
 20
130.3258
  0
VERTEX
  8
LAYER_1
 10
180.0054
 20
130.3258
  0
SEQEND
  0
POLYLINE
  8
LAYER_1
 40
0.1058
 41
0.1058
 66
1
 10
0
 20
0
 30
0
  0
VERTEX
  8
LAYER_1
 10
173.9269
 20
130.3258
  0
VERTEX
  8
LAYER_1
 10
172.1363
 20
130.3258
  0
VERTEX
  8
LAYER_1
 10
170.3926
 20
130.3258
  0
VERTEX
  8
LAYER_1
 10
168.6962
 20
130.3258
  0
VERTEX
  8
LAYER_1
 10
167.094
 20
130.3258
  0
VERTEX
  8
LAYER_1
 10
165.5392
 20
130.3258
  0
VERTEX
  8
LAYER_1
 10
164.1255
 20
130.3258
  0
VERTEX
  8
LAYER_1
 10
162.7591
 20
130.3258
  0
VERTEX
  8
LAYER_1
 10
161.4869
 20
130.3258
  0
VERTEX
  8
LAYER_1
 10
160.3558
 20
130.3258
  0
VERTEX
  8
LAYER_1
 10
159.319
 20
130.3258
  0
VERTEX
  8
LAYER_1
 10
158.471
 20
130.3258
  0
VERTEX
  8
LAYER_1
 10
157.7168
 20
130.3258
  0
VERTEX
  8
LAYER_1
 10
157.1046
 20
130.3258
  0
VERTEX
  8
LAYER_1
 10
156.6804
 20
130.3258
  0
VERTEX
  8
LAYER_1
 10
156.3977
 20
130.3258
  0
VERTEX
  8
LAYER_1
 10
156.3504
 20
130.3258
  0
VERTEX
  8
LAYER_1
 10
156.3504
 20
130.3731
  0
VERTEX
  8
LAYER_1
 10
156.3035
 20
130.5142
  0
VERTEX
  8
LAYER_1
 10
156.3035
 20
130.7027
  0
VERTEX
  8
LAYER_1
 10
156.3035
 20
130.9384
  0
VERTEX
  8
LAYER_1
 10
156.3035
 20
131.2684
  0
VERTEX
  8
LAYER_1
 10
156.3035
 20
131.6453
  0
VERTEX
  8
LAYER_1
 10
156.3035
 20
132.5406
  0
VERTEX
  8
LAYER_1
 10
156.2562
 20
133.577
  0
VERTEX
  8
LAYER_1
 10
156.2562
 20
134.7554
  0
VERTEX
  8
LAYER_1
 10
156.2089
 20
137.3471
  0
VERTEX
  8
LAYER_1
 10
156.162
 20
139.8914
  0
VERTEX
  8
LAYER_1
 10
156.162
 20
141.0694
  0
VERTEX
  8
LAYER_1
 10
156.1146
 20
142.1532
  0
VERTEX
  8
LAYER_1
 10
156.1146
 20
143.0489
  0
VERTEX
  8
LAYER_1
 10
156.1146
 20
143.4257
  0
VERTEX
  8
LAYER_1
 10
156.1146
 20
143.7084
  0
VERTEX
  8
LAYER_1
 10
156.1146
 20
143.9911
  0
VERTEX
  8
LAYER_1
 10
156.1146
 20
144.1795
  0
VERTEX
  8
LAYER_1
 10
156.1146
 20
144.2737
  0
VERTEX
  8
LAYER_1
 10
156.1146
 20
144.3211
  0
SEQEND
  0
POLYLINE
  8
LAYER_1
 40
0.1058
 41
0.1058
 66
1
 10
0
 20
0
 30
0
  0
VERTEX
  8
LAYER_1
 10
198.4302
 20
144.321
  0
VERTEX
  8
LAYER_1
 10
198.4302
 20
144.2737
  0
VERTEX
  8
LAYER_1
 10
198.4302
 20
144.1794
  0
VERTEX
  8
LAYER_1
 10
198.4302
 20
143.991
  0
VERTEX
  8
LAYER_1
 10
198.4302
 20
143.7083
  0
VERTEX
  8
LAYER_1
 10
198.4302
 20
143.4257
  0
VERTEX
  8
LAYER_1
 10
198.4302
 20
143.0488
  0
VERTEX
  8
LAYER_1
 10
198.4302
 20
142.1535
  0
VERTEX
  8
LAYER_1
 10
198.4302
 20
141.0697
  0
VERTEX
  8
LAYER_1
 10
198.4302
 20
139.8914
  0
VERTEX
  8
LAYER_1
 10
198.4302
 20
137.347
  0
VERTEX
  8
LAYER_1
 10
198.4302
 20
134.7553
  0
VERTEX
  8
LAYER_1
 10
198.4302
 20
133.5773
  0
VERTEX
  8
LAYER_1
 10
198.4302
 20
132.5405
  0
VERTEX
  8
LAYER_1
 10
198.4302
 20
131.6452
  0
VERTEX
  8
LAYER_1
 10
198.4302
 20
131.2683
  0
VERTEX
  8
LAYER_1
 10
198.4302
 20
130.9383
  0
VERTEX
  8
LAYER_1
 10
198.4302
 20
130.7026
  0
VERTEX
  8
LAYER_1
 10
198.4302
 20
130.5141
  0
VERTEX
  8
LAYER_1
 10
198.4302
 20
130.373
  0
VERTEX
  8
LAYER_1
 10
198.4302
 20
130.3257
  0
SEQEND
  0
POLYLINE
  8
LAYER_1
 40
0.1058
 41
0.1058
 66
1
 10
0
 20
0
 30
0
  0
VERTEX
  8
LAYER_1
 10
157.0102
 20
130.1373
  0
SEQEND
  0
POLYLINE
  8
LAYER_1
 40
0.1058
 41
0.1058
 66
1
 10
0
 20
0
 30
0
  0
VERTEX
  8
LAYER_1
 10
156.3505
 20
130.3258
  0
SEQEND
  0
POLYLINE
  8
LAYER_1
 40
0.1058
 41
0.1058
 66
1
 10
0
 20
0
 30
0
  0
VERTEX
  8
LAYER_1
 10
197.2993
 20
144.7922
  0
VERTEX
  8
LAYER_1
 10
157.2929
 20
144.7922
  0
SEQEND
  0
POLYLINE
  8
LAYER_1
 40
0.1058
 41
0.1058
 66
1
 10
0
 20
0
 30
0
 70
1
  0
VERTEX
  8
LAYER_1
 10
180.0058
 20
129.6188
  0
VERTEX
  8
LAYER_1
 10
174.5397
 20
129.6188
  0
VERTEX
  8
LAYER_1
 10
174.5397
 20
130.3257
  0
VERTEX
  8
LAYER_1
 10
180.0058
 20
130.3257
  0
SEQEND
  0
POLYLINE
  8
LAYER_1
 40
0.1058
 41
0.1058
 66
1
 10
0
 20
0
 30
0
 70
1
  0
VERTEX
  8
LAYER_1
 10
179.5816
 20
129.6188
  0
VERTEX
  8
LAYER_1
 10
174.9635
 20
129.6188
  0
VERTEX
  8
LAYER_1
 10
174.9635
 20
128.5351
  0
VERTEX
  8
LAYER_1
 10
179.5816
 20
128.5351
  0
SEQEND
  0
POLYLINE
  8
LAYER_1
 40
0.1058
 41
0.1058
 66
1
 10
0
 20
0
 30
0
  0
VERTEX
  8
LAYER_1
 10
156.1149
 20
144.321
  0
VERTEX
  8
LAYER_1
 10
156.1622
 20
144.5094
  0
VERTEX
  8
LAYER_1
 10
156.2564
 20
144.6979
  0
VERTEX
  8
LAYER_1
 10
156.4448
 20
144.7921
  0
VERTEX
  8
LAYER_1
 10
156.5391
 20
144.7921
  0
VERTEX
  8
LAYER_1
 10
156.586
 20
144.7921
  0
VERTEX
  8
LAYER_1
 10
156.6802
 20
144.7921
  0
VERTEX
  8
LAYER_1
 10
156.9628
 20
144.7921
  0
VERTEX
  8
LAYER_1
 10
157.2928
 20
144.7921
  0
VERTEX
  8
LAYER_1
 10
197.2992
 20
144.7921
  0
VERTEX
  8
LAYER_1
 10
197.6291
 20
144.7921
  0
VERTEX
  8
LAYER_1
 10
197.8649
 20
144.7921
  0
VERTEX
  8
LAYER_1
 10
197.9591
 20
144.7921
  0
VERTEX
  8
LAYER_1
 10
198.006
 20
144.7921
  0
VERTEX
  8
LAYER_1
 10
198.1002
 20
144.7921
  0
VERTEX
  8
LAYER_1
 10
198.2887
 20
144.6979
  0
VERTEX
  8
LAYER_1
 10
198.3833
 20
144.5094
  0
VERTEX
  8
LAYER_1
 10
198.4302
 20
144.321
  0
SEQEND
  0
POLYLINE
  8
LAYER_1
 40
0.1058
 41
0.1058
 66
1
 10
0
 20
0
 30
0
  0
VERTEX
  8
LAYER_1
 10
198.4302
 20
119.6291
  0
VERTEX
  8
LAYER_1
 10
198.4302
 20
150.1171
  0
SEQEND
  0
TEXT
  8
LAYER_1
 10
184.3471
 20
161.8558
 11
184.3471
 21
161.8558
 40
4.3191
 41
0.5
  1
230
  0
POLYLINE
  8
LAYER_1
 40
0.1058
 41
0.1058
 66
1
 10
0
 20
0
 30
0
  0
VERTEX
  8
LAYER_1
 10
198.3831
 20
144.3681
  0
VERTEX
  8
LAYER_1
 10
198.3831
 20
154.3106
  0
SEQEND
  0
TEXT
  8
LAYER_1
 10
174.0724
 20
178.3083
 11
174.0724
 21
178.3083
 40
4.3191
 41
0.5
  1
460
  0
POLYLINE
  8
LAYER_1
 40
0.1058
 41
0.1058
 66
1
 10
0
 20
0
 30
0
  0
VERTEX
  8
LAYER_1
 10
198.4302
 20
144.3681
  0
VERTEX
  8
LAYER_1
 10
198.4302
 20
147.1955
  0
SEQEND
  0
TEXT
  8
LAYER_1
 10
189.8668
 20
148.7179
 11
189.8668
 21
148.7179
 40
4.3191
 41
0.5
  1
100
  0
TEXT
  8
LAYER_1
 10
168.3515
 20
148.7177
 11
168.3515
 21
148.7177
 40
4.3191
 41
0.5
  1
335
  0
TEXT
  8
LAYER_1
 10
205.8221
 20
134.7652
 11
205.8221
 21
134.7652
 40
4.3191
 41
0.5
 50
89.99999999
  1
155
  0
POLYLINE
  8
LAYER_1
 40
0.1058
 41
0.1058
 66
1
 10
0
 20
0
 30
0
  0
VERTEX
  8
LAYER_1
 10
177.2254
 20
131.8337
  0
VERTEX
  8
LAYER_1
 10
173.3616
 20
131.8337
  0
SEQEND
  0
POLYLINE
  8
LAYER_1
 40
0.1058
 41
0.1058
 66
1
 10
0
 20
0
 30
0
  0
VERTEX
  8
LAYER_1
 10
177.2254
 20
144.7922
  0
VERTEX
  8
LAYER_1
 10
173.3616
 20
144.7922
  0
SEQEND
  0
TEXT
  8
LAYER_1
 10
172.8446
 20
135.5397
 11
172.8446
 21
135.5397
 40
4.3191
 41
0.5
 50
89.99999999
  1
140
  0
POLYLINE
  8
LAYER_1
 40
0.1058
 41
0.1058
 66
1
 10
0
 20
0
 30
0
  0
VERTEX
  8
LAYER_1
 10
86.8458
 20
131.8337
  0
VERTEX
  8
LAYER_1
 10
89.9559
 20
131.8337
  0
SEQEND
  0
POLYLINE
  8
LAYER_1
 40
0.1058
 41
0.1058
 66
1
 10
0
 20
0
 30
0
  0
VERTEX
  8
LAYER_1
 10
138.9154
 20
144.7922
  0
VERTEX
  8
LAYER_1
 10
89.7203
 20
144.7922
  0
SEQEND
  0
TEXT
  8
LAYER_1
 10
53.1518
 20
103.8903
 11
53.1518
 21
103.8903
 40
4.3191
 41
0.5
 50
89.99999999
  1
825
  0
POLYLINE
  8
LAYER_1
 40
0.1058
 41
0.1058
 66
1
 10
0
 20
0
 30
0
  0
VERTEX
  8
LAYER_1
 10
66.5363
 20
83.0626
  0
VERTEX
  8
LAYER_1
 10
133.7321
 20
83.0626
  0
SEQEND
  0
POLYLINE
  8
LAYER_1
 40
0.1058
 41
0.1058
 66
1
 10
0
 20
0
 30
0
  0
VERTEX
  8
LAYER_1
 10
158.4709
 20
81.272
  0
VERTEX
  8
LAYER_1
 10
158.4709
 20
83.0626
  0
VERTEX
  8
LAYER_1
 10
192.917
 20
83.0626
  0
SEQEND
  0
POLYLINE
  8
LAYER_1
 40
0.1764
 41
0.1764
 66
1
 10
0
 20
0
 30
0
  0
VERTEX
  8
LAYER_1
 10
75.2539
 20
138.6193
  0
VERTEX
  8
LAYER_1
 10
75.4423
 20
138.6193
  0
VERTEX
  8
LAYER_1
 10
75.5838
 20
138.6666
  0
VERTEX
  8
LAYER_1
 10
75.6781
 20
138.7135
  0
SEQEND
  0
POLYLINE
  8
LAYER_1
 40
0.1764
 41
0.1764
 66
1
 10
0
 20
0
 30
0
  0
VERTEX
  8
LAYER_1
 10
75.9135
 20
138.902
  0
VERTEX
  8
LAYER_1
 10
76.0077
 20
138.9962
  0
VERTEX
  8
LAYER_1
 10
76.102
 20
139.1377
  0
VERTEX
  8
LAYER_1
 10
76.1493
 20
139.2788
  0
VERTEX
  8
LAYER_1
 10
76.1493
 20
139.4204
  0
SEQEND
  0
POLYLINE
  8
LAYER_1
 40
0.1764
 41
0.1764
 66
1
 10
0
 20
0
 30
0
  0
VERTEX
  8
LAYER_1
 10
76.1492
 20
139.703
  0
VERTEX
  8
LAYER_1
 10
76.1492
 20
139.7972
  0
VERTEX
  8
LAYER_1
 10
76.1018
 20
139.9388
  0
VERTEX
  8
LAYER_1
 10
76.0076
 20
140.0799
  0
VERTEX
  8
LAYER_1
 10
75.9134
 20
140.2215
  0
SEQEND
  0
POLYLINE
  8
LAYER_1
 40
0.1764
 41
0.1764
 66
1
 10
0
 20
0
 30
0
  0
VERTEX
  8
LAYER_1
 10
75.6779
 20
140.3627
  0
VERTEX
  8
LAYER_1
 10
75.5837
 20
140.4101
  0
VERTEX
  8
LAYER_1
 10
75.4422
 20
140.457
  0
VERTEX
  8
LAYER_1
 10
75.2537
 20
140.457
  0
VERTEX
  8
LAYER_1
 10
74.9242
 20
140.457
  0
SEQEND
  0
POLYLINE
  8
LAYER_1
 40
0.1764
 41
0.1764
 66
1
 10
0
 20
0
 30
0
  0
VERTEX
  8
LAYER_1
 10
74.6413
 20
140.457
  0
VERTEX
  8
LAYER_1
 10
74.3586
 20
140.457
  0
VERTEX
  8
LAYER_1
 10
74.1702
 20
140.457
  0
VERTEX
  8
LAYER_1
 10
73.9817
 20
140.4097
  0
VERTEX
  8
LAYER_1
 10
73.9344
 20
140.3628
  0
SEQEND
  0
POLYLINE
  8
LAYER_1
 40
0.1764
 41
0.1764
 66
1
 10
0
 20
0
 30
0
  0
VERTEX
  8
LAYER_1
 10
73.6988
 20
140.2214
  0
VERTEX
  8
LAYER_1
 10
73.6046
 20
140.0798
  0
VERTEX
  8
LAYER_1
 10
73.5104
 20
139.9387
  0
VERTEX
  8
LAYER_1
 10
73.463
 20
139.7972
  0
VERTEX
  8
LAYER_1
 10
73.4161
 20
139.703
  0
SEQEND
  0
POLYLINE
  8
LAYER_1
 40
0.1764
 41
0.1764
 66
1
 10
0
 20
0
 30
0
  0
VERTEX
  8
LAYER_1
 10
73.4161
 20
139.4203
  0
VERTEX
  8
LAYER_1
 10
73.4634
 20
139.2788
  0
VERTEX
  8
LAYER_1
 10
73.5103
 20
139.1376
  0
VERTEX
  8
LAYER_1
 10
73.6045
 20
138.9961
  0
VERTEX
  8
LAYER_1
 10
73.6988
 20
138.9019
  0
SEQEND
  0
POLYLINE
  8
LAYER_1
 40
0.1764
 41
0.1764
 66
1
 10
0
 20
0
 30
0
  0
VERTEX
  8
LAYER_1
 10
73.9344
 20
138.7135
  0
VERTEX
  8
LAYER_1
 10
73.9818
 20
138.6662
  0
VERTEX
  8
LAYER_1
 10
74.1702
 20
138.6193
  0
VERTEX
  8
LAYER_1
 10
74.3586
 20
138.6193
  0
VERTEX
  8
LAYER_1
 10
74.6413
 20
138.6193
  0
SEQEND
  0
POLYLINE
  8
LAYER_1
 40
0.1764
 41
0.1764
 66
1
 10
0
 20
0
 30
0
  0
VERTEX
  8
LAYER_1
 10
74.924
 20
138.6193
  0
VERTEX
  8
LAYER_1
 10
75.254
 20
138.6193
  0
SEQEND
  0
POLYLINE
  8
LAYER_1
 40
0.1764
 41
0.1764
 66
1
 10
0
 20
0
 30
0
  0
VERTEX
  8
LAYER_1
 10
100.5582
 20
138.6193
  0
VERTEX
  8
LAYER_1
 10
100.7467
 20
138.6193
  0
VERTEX
  8
LAYER_1
 10
100.8882
 20
138.6666
  0
VERTEX
  8
LAYER_1
 10
100.9824
 20
138.7135
  0
SEQEND
  0
POLYLINE
  8
LAYER_1
 40
0.1764
 41
0.1764
 66
1
 10
0
 20
0
 30
0
  0
VERTEX
  8
LAYER_1
 10
101.2179
 20
138.902
  0
VERTEX
  8
LAYER_1
 10
101.3122
 20
138.9962
  0
VERTEX
  8
LAYER_1
 10
101.4064
 20
139.1377
  0
VERTEX
  8
LAYER_1
 10
101.4537
 20
139.2788
  0
VERTEX
  8
LAYER_1
 10
101.4537
 20
139.4204
  0
SEQEND
  0
POLYLINE
  8
LAYER_1
 40
0.1764
 41
0.1764
 66
1
 10
0
 20
0
 30
0
  0
VERTEX
  8
LAYER_1
 10
101.4535
 20
139.703
  0
VERTEX
  8
LAYER_1
 10
101.4535
 20
139.7972
  0
VERTEX
  8
LAYER_1
 10
101.4062
 20
139.9388
  0
VERTEX
  8
LAYER_1
 10
101.312
 20
140.0799
  0
VERTEX
  8
LAYER_1
 10
101.2178
 20
140.2215
  0
SEQEND
  0
POLYLINE
  8
LAYER_1
 40
0.1764
 41
0.1764
 66
1
 10
0
 20
0
 30
0
  0
VERTEX
  8
LAYER_1
 10
100.9824
 20
140.3627
  0
VERTEX
  8
LAYER_1
 10
100.8881
 20
140.4101
  0
VERTEX
  8
LAYER_1
 10
100.7466
 20
140.457
  0
VERTEX
  8
LAYER_1
 10
100.5582
 20
140.457
  0
VERTEX
  8
LAYER_1
 10
100.2755
 20
140.457
  0
SEQEND
  0
POLYLINE
  8
LAYER_1
 40
0.1764
 41
0.1764
 66
1
 10
0
 20
0
 30
0
  0
VERTEX
  8
LAYER_1
 10
99.9457
 20
140.457
  0
VERTEX
  8
LAYER_1
 10
99.663
 20
140.457
  0
VERTEX
  8
LAYER_1
 10
99.4746
 20
140.457
  0
VERTEX
  8
LAYER_1
 10
99.333
 20
140.4097
  0
VERTEX
  8
LAYER_1
 10
99.2388
 20
140.3628
  0
SEQEND
  0
POLYLINE
  8
LAYER_1
 40
0.1764
 41
0.1764
 66
1
 10
0
 20
0
 30
0
  0
VERTEX
  8
LAYER_1
 10
99.0032
 20
140.2214
  0
VERTEX
  8
LAYER_1
 10
98.909
 20
140.0798
  0
VERTEX
  8
LAYER_1
 10
98.8148
 20
139.9387
  0
VERTEX
  8
LAYER_1
 10
98.7675
 20
139.7972
  0
VERTEX
  8
LAYER_1
 10
98.7206
 20
139.703
  0
SEQEND
  0
POLYLINE
  8
LAYER_1
 40
0.1764
 41
0.1764
 66
1
 10
0
 20
0
 30
0
  0
VERTEX
  8
LAYER_1
 10
98.7205
 20
139.4203
  0
VERTEX
  8
LAYER_1
 10
98.7678
 20
139.2788
  0
VERTEX
  8
LAYER_1
 10
98.8147
 20
139.1376
  0
VERTEX
  8
LAYER_1
 10
98.9089
 20
138.9961
  0
VERTEX
  8
LAYER_1
 10
99.0031
 20
138.9019
  0
SEQEND
  0
POLYLINE
  8
LAYER_1
 40
0.1764
 41
0.1764
 66
1
 10
0
 20
0
 30
0
  0
VERTEX
  8
LAYER_1
 10
99.2388
 20
138.7135
  0
VERTEX
  8
LAYER_1
 10
99.333
 20
138.6662
  0
VERTEX
  8
LAYER_1
 10
99.4746
 20
138.6193
  0
VERTEX
  8
LAYER_1
 10
99.663
 20
138.6193
  0
VERTEX
  8
LAYER_1
 10
99.9457
 20
138.6193
  0
SEQEND
  0
POLYLINE
  8
LAYER_1
 40
0.1764
 41
0.1764
 66
1
 10
0
 20
0
 30
0
  0
VERTEX
  8
LAYER_1
 10
100.2755
 20
138.6193
  0
VERTEX
  8
LAYER_1
 10
100.5582
 20
138.6193
  0
SEQEND
  0
POLYLINE
  8
LAYER_1
 40
0.1764
 41
0.1764
 66
1
 10
0
 20
0
 30
0
  0
VERTEX
  8
LAYER_1
 10
127.7004
 20
138.6193
  0
VERTEX
  8
LAYER_1
 10
127.8889
 20
138.6193
  0
VERTEX
  8
LAYER_1
 10
128.0773
 20
138.6666
  0
VERTEX
  8
LAYER_1
 10
128.1246
 20
138.7135
  0
SEQEND
  0
POLYLINE
  8
LAYER_1
 40
0.1764
 41
0.1764
 66
1
 10
0
 20
0
 30
0
  0
VERTEX
  8
LAYER_1
 10
128.3601
 20
138.902
  0
VERTEX
  8
LAYER_1
 10
128.4543
 20
138.9962
  0
VERTEX
  8
LAYER_1
 10
128.5486
 20
139.1377
  0
VERTEX
  8
LAYER_1
 10
128.5959
 20
139.2788
  0
VERTEX
  8
LAYER_1
 10
128.6428
 20
139.4204
  0
SEQEND
  0
POLYLINE
  8
LAYER_1
 40
0.1764
 41
0.1764
 66
1
 10
0
 20
0
 30
0
  0
VERTEX
  8
LAYER_1
 10
128.6428
 20
139.703
  0
VERTEX
  8
LAYER_1
 10
128.5955
 20
139.7972
  0
VERTEX
  8
LAYER_1
 10
128.5486
 20
139.9388
  0
VERTEX
  8
LAYER_1
 10
128.4544
 20
140.0799
  0
VERTEX
  8
LAYER_1
 10
128.3602
 20
140.2215
  0
SEQEND
  0
POLYLINE
  8
LAYER_1
 40
0.1764
 41
0.1764
 66
1
 10
0
 20
0
 30
0
  0
VERTEX
  8
LAYER_1
 10
128.1245
 20
140.3627
  0
VERTEX
  8
LAYER_1
 10
128.0772
 20
140.4101
  0
VERTEX
  8
LAYER_1
 10
127.8887
 20
140.457
  0
VERTEX
  8
LAYER_1
 10
127.7003
 20
140.457
  0
VERTEX
  8
LAYER_1
 10
127.4176
 20
140.457
  0
SEQEND
  0
POLYLINE
  8
LAYER_1
 40
0.1764
 41
0.1764
 66
1
 10
0
 20
0
 30
0
  0
VERTEX
  8
LAYER_1
 10
127.1349
 20
140.457
  0
VERTEX
  8
LAYER_1
 10
126.805
 20
140.457
  0
VERTEX
  8
LAYER_1
 10
126.6165
 20
140.457
  0
VERTEX
  8
LAYER_1
 10
126.4754
 20
140.4097
  0
VERTEX
  8
LAYER_1
 10
126.3812
 20
140.3628
  0
SEQEND
  0
POLYLINE
  8
LAYER_1
 40
0.1764
 41
0.1764
 66
1
 10
0
 20
0
 30
0
  0
VERTEX
  8
LAYER_1
 10
126.1454
 20
140.2214
  0
VERTEX
  8
LAYER_1
 10
126.0512
 20
140.0798
  0
VERTEX
  8
LAYER_1
 10
125.957
 20
139.9387
  0
VERTEX
  8
LAYER_1
 10
125.9097
 20
139.7972
  0
VERTEX
  8
LAYER_1
 10
125.9097
 20
139.703
  0
SEQEND
  0
POLYLINE
  8
LAYER_1
 40
0.1764
 41
0.1764
 66
1
 10
0
 20
0
 30
0
  0
VERTEX
  8
LAYER_1
 10
125.9098
 20
139.4203
  0
VERTEX
  8
LAYER_1
 10
125.9098
 20
139.2788
  0
VERTEX
  8
LAYER_1
 10
125.9571
 20
139.1376
  0
VERTEX
  8
LAYER_1
 10
126.0513
 20
138.9961
  0
VERTEX
  8
LAYER_1
 10
126.1455
 20
138.9019
  0
SEQEND
  0
POLYLINE
  8
LAYER_1
 40
0.1764
 41
0.1764
 66
1
 10
0
 20
0
 30
0
  0
VERTEX
  8
LAYER_1
 10
126.381
 20
138.7135
  0
VERTEX
  8
LAYER_1
 10
126.4752
 20
138.6662
  0
VERTEX
  8
LAYER_1
 10
126.6167
 20
138.6193
  0
VERTEX
  8
LAYER_1
 10
126.8052
 20
138.6193
  0
VERTEX
  8
LAYER_1
 10
127.1348
 20
138.6193
  0
SEQEND
  0
POLYLINE
  8
LAYER_1
 40
0.1764
 41
0.1764
 66
1
 10
0
 20
0
 30
0
  0
VERTEX
  8
LAYER_1
 10
127.4177
 20
138.6193
  0
VERTEX
  8
LAYER_1
 10
127.7003
 20
138.6193
  0
SEQEND
  0
TEXT
  8
LAYER_1
 10
175.7467
 20
87.8082
 11
175.7467
 21
87.8082
 40
4.3191
 41
0.5
  1
420
  0
POLYLINE
  8
LAYER_1
 40
0.1058
 41
0.1058
 66
1
 10
0
 20
0
 30
0
  0
VERTEX
  8
LAYER_1
 10
196.6396
 20
81.272
  0
VERTEX
  8
LAYER_1
 10
197.1107
 20
81.272
  0
VERTEX
  8
LAYER_1
 10
197.1107
 20
83.0626
  0
VERTEX
  8
LAYER_1
 10
196.6396
 20
83.0626
  0
SEQEND
  0
TEXT
  8
LAYER_1
 10
64.8443
 20
138.0302
 11
64.8443
 21
138.0302
 40
4.3191
 41
0.5
  1
140
  0
TEXT
  8
LAYER_1
 10
81.8674
 20
138.1535
 11
81.8674
 21
138.1535
 40
4.3191
 41
0.5
  1
275
  0
TEXT
  8
LAYER_1
 10
103.2691
 20
138.199
 11
103.2691
 21
138.199
 40
4.3191
 41
0.5
  1
295
  0
POLYLINE
  8
LAYER_1
 40
0.1058
 41
0.1058
 66
1
 10
0
 20
0
 30
0
  0
VERTEX
  8
LAYER_1
 10
139.1039
 20
137.4883
  0
VERTEX
  8
LAYER_1
 10
139.1039
 20
139.6558
  0
SEQEND
  0
TEXT
  8
LAYER_1
 10
129.7643
 20
138.0915
 11
129.7643
 21
138.0915
 40
4.3191
 41
0.5
  1
130
  0
POLYLINE
  8
LAYER_1
 40
0.1764
 41
0.1764
 66
1
 10
0
 20
0
 30
0
  0
VERTEX
  8
LAYER_1
 10
142.4024
 20
68.6434
  0
VERTEX
  8
LAYER_1
 10
57.8186
 20
68.6434
  0
SEQEND
  0
INSERT
  8
LAYER_1
  2
AIGNBL0101002F
 10
0
 20
0
 30
0
  0
POLYLINE
  8
LAYER_1
 40
0.1058
 41
0.1058
 66
1
 10
0
 20
0
 30
0
  0
VERTEX
  8
LAYER_1
 10
62.8137
 20
168.0704
  0
VERTEX
  8
LAYER_1
 10
66.5364
 20
168.0704
  0
SEQEND
  0
POLYLINE
  8
LAYER_1
 40
0.1058
 41
0.1058
 66
1
 10
0
 20
0
 30
0
  0
VERTEX
  8
LAYER_1
 10
133.732
 20
168.1175
  0
VERTEX
  8
LAYER_1
 10
137.4074
 20
168.1175
  0
SEQEND
  0
INSERT
  8
LAYER_1
  2
AIGNBL01010030
 10
0
 20
0
 30
0
  0
POLYLINE
  8
LAYER_1
 40
0.1058
 41
0.1058
 66
1
 10
0
 20
0
 30
0
  0
VERTEX
  8
LAYER_1
 10
139.2452
 20
210.6213
  0
VERTEX
  8
LAYER_1
 10
139.2452
 20
168.8244
  0
SEQEND
  0
INSERT
  8
LAYER_1
  2
AIGNBL01010031
 10
0
 20
0
 30
0
  0
POLYLINE
  8
LAYER_1
 40
0.1058
 41
0.1058
 66
1
 10
0
 20
0
 30
0
  0
VERTEX
  8
LAYER_1
 10
138.9625
 20
168.5416
  0
VERTEX
  8
LAYER_1
 10
61.2588
 20
168.5416
  0
SEQEND
  0
INSERT
  8
LAYER_1
  2
AIGNBL01010032
 10
0
 20
0
 30
0
  0
POLYLINE
  8
LAYER_1
 40
0.1058
 41
0.1058
 66
1
 10
0
 20
0
 30
0
  0
VERTEX
  8
LAYER_1
 10
60.9759
 20
168.8243
  0
VERTEX
  8
LAYER_1
 10
60.9759
 20
210.6212
  0
SEQEND
  0
INSERT
  8
LAYER_1
  2
AIGNBL01010033
 10
0
 20
0
 30
0
  0
POLYLINE
  8
LAYER_1
 40
0.1058
 41
0.1058
 66
1
 10
0
 20
0
 30
0
  0
VERTEX
  8
LAYER_1
 10
61.2586
 20
210.9041
  0
VERTEX
  8
LAYER_1
 10
138.9623
 20
210.9041
  0
SEQEND
  0
INSERT
  8
LAYER_1
  2
AIGNBL01010034
 10
0
 20
0
 30
0
  0
POLYLINE
  8
LAYER_1
 40
0.1058
 41
0.1058
 66
1
 10
0
 20
0
 30
0
  0
VERTEX
  8
LAYER_1
 10
137.8316
 20
209.2077
  0
VERTEX
  8
LAYER_1
 10
137.8316
 20
170.1909
  0
SEQEND
  0
INSERT
  8
LAYER_1
  2
AIGNBL01010035
 10
0
 20
0
 30
0
  0
POLYLINE
  8
LAYER_1
 40
0.1058
 41
0.1058
 66
1
 10
0
 20
0
 30
0
  0
VERTEX
  8
LAYER_1
 10
137.596
 20
169.9081
  0
VERTEX
  8
LAYER_1
 10
62.6724
 20
169.9081
  0
SEQEND
  0
INSERT
  8
LAYER_1
  2
AIGNBL01010036
 10
0
 20
0
 30
0
  0
POLYLINE
  8
LAYER_1
 40
0.1058
 41
0.1058
 66
1
 10
0
 20
0
 30
0
  0
VERTEX
  8
LAYER_1
 10
62.3896
 20
170.1908
  0
VERTEX
  8
LAYER_1
 10
62.3896
 20
209.2077
  0
SEQEND
  0
INSERT
  8
LAYER_1
  2
AIGNBL01010037
 10
0
 20
0
 30
0
  0
POLYLINE
  8
LAYER_1
 40
0.1058
 41
0.1058
 66
1
 10
0
 20
0
 30
0
  0
VERTEX
  8
LAYER_1
 10
62.6723
 20
209.4904
  0
VERTEX
  8
LAYER_1
 10
137.5958
 20
209.4904
  0
SEQEND
  0
INSERT
  8
LAYER_1
  2
AIGNBL01010038
 10
0
 20
0
 30
0
  0
POLYLINE
  8
LAYER_1
 40
0.1058
 41
0.1058
 66
1
 10
0
 20
0
 30
0
  0
VERTEX
  8
LAYER_1
 10
111.1607
 20
200.4901
  0
VERTEX
  8
LAYER_1
 10
111.1607
 20
170.191
  0
SEQEND
  0
INSERT
  8
LAYER_1
  2
AIGNBL01010039
 10
0
 20
0
 30
0
  0
POLYLINE
  8
LAYER_1
 40
0.1058
 41
0.1058
 66
1
 10
0
 20
0
 30
0
  0
VERTEX
  8
LAYER_1
 10
110.8779
 20
169.9081
  0
VERTEX
  8
LAYER_1
 10
62.6723
 20
169.9081
  0
SEQEND
  0
INSERT
  8
LAYER_1
  2
AIGNBL0101003A
 10
0
 20
0
 30
0
  0
POLYLINE
  8
LAYER_1
 40
0.1058
 41
0.1058
 66
1
 10
0
 20
0
 30
0
  0
VERTEX
  8
LAYER_1
 10
62.3896
 20
170.1908
  0
VERTEX
  8
LAYER_1
 10
62.3896
 20
200.49
  0
SEQEND
  0
INSERT
  8
LAYER_1
  2
AIGNBL0101003B
 10
0
 20
0
 30
0
  0
POLYLINE
  8
LAYER_1
 40
0.1058
 41
0.1058
 66
1
 10
0
 20
0
 30
0
  0
VERTEX
  8
LAYER_1
 10
62.6723
 20
200.7729
  0
VERTEX
  8
LAYER_1
 10
110.8779
 20
200.7729
  0
SEQEND
  0
POLYLINE
  8
LAYER_1
 40
0.1058
 41
0.1058
 66
1
 10
0
 20
0
 30
0
  0
VERTEX
  8
LAYER_1
 10
111.1607
 20
185.4112
  0
VERTEX
  8
LAYER_1
 10
111.1607
 20
197.4274
  0
SEQEND
  0
POLYLINE
  8
LAYER_1
 40
0.1058
 41
0.1058
 66
1
 10
0
 20
0
 30
0
  0
VERTEX
  8
LAYER_1
 10
62.3896
 20
185.4112
  0
VERTEX
  8
LAYER_1
 10
62.3896
 20
197.4274
  0
SEQEND
  0
POLYLINE
  8
LAYER_1
 40
0.1058
 41
0.1058
 66
1
 10
0
 20
0
 30
0
  0
VERTEX
  8
LAYER_1
 10
86.8458
 20
200.7729
  0
VERTEX
  8
LAYER_1
 10
108.1919
 20
200.7729
  0
SEQEND
  0
POLYLINE
  8
LAYER_1
 40
0.1058
 41
0.1058
 66
1
 10
0
 20
0
 30
0
  0
VERTEX
  8
LAYER_1
 10
86.8458
 20
169.9081
  0
VERTEX
  8
LAYER_1
 10
108.1919
 20
169.9081
  0
SEQEND
  0
POLYLINE
  8
LAYER_1
 40
0.1058
 41
0.1058
 66
1
 10
0
 20
0
 30
0
  0
VERTEX
  8
LAYER_1
 10
111.1607
 20
197.2387
  0
VERTEX
  8
LAYER_1
 10
111.1607
 20
197.1914
  0
SEQEND
  0
POLYLINE
  8
LAYER_1
 40
0.1058
 41
0.1058
 66
1
 10
0
 20
0
 30
0
  0
VERTEX
  8
LAYER_1
 10
137.8316
 20
197.2387
  0
VERTEX
  8
LAYER_1
 10
137.8316
 20
197.1914
  0
SEQEND
  0
POLYLINE
  8
LAYER_1
 40
0.1058
 41
0.1058
 66
1
 10
0
 20
0
 30
0
  0
VERTEX
  8
LAYER_1
 10
86.7044
 20
210.9041
  0
VERTEX
  8
LAYER_1
 10
86.6571
 20
210.9041
  0
SEQEND
  0
TEXT
  8
LAYER_1
 10
93.3176
 20
204.8206
 11
93.3176
 21
204.8206
 40
4.3191
 41
0.5
 50
89.99999999
  1
70
  0
POLYLINE
  8
LAYER_1
 40
0.1058
 41
0.1058
 66
1
 10
0
 20
0
 30
0
  0
VERTEX
  8
LAYER_1
 10
74.3585
 20
210.9041
  0
VERTEX
  8
LAYER_1
 10
74.2643
 20
210.9041
  0
SEQEND
  0
TEXT
  8
LAYER_1
 10
50.1975
 20
188.9749
 11
50.1975
 21
188.9749
 40
4.3191
 41
0.5
 50
89.99999999
  1
460
  0
POLYLINE
  8
LAYER_1
 40
0.1058
 41
0.1058
 66
1
 10
0
 20
0
 30
0
  0
VERTEX
  8
LAYER_1
 10
137.8316
 20
170.3793
  0
VERTEX
  8
LAYER_1
 10
137.8316
 20
171.8399
  0
SEQEND
  0
POLYLINE
  8
LAYER_1
 40
0.1058
 41
0.1058
 66
1
 10
0
 20
0
 30
0
  0
VERTEX
  8
LAYER_1
 10
139.2452
 20
169.0599
  0
VERTEX
  8
LAYER_1
 10
139.2452
 20
171.8401
  0
SEQEND
  0
POLYLINE
  8
LAYER_1
 40
0.1058
 41
0.1058
 66
1
 10
0
 20
0
 30
0
  0
VERTEX
  8
LAYER_1
 10
90.1443
 20
188.0971
  0
VERTEX
  8
LAYER_1
 10
89.1548
 20
188.5682
  0
SEQEND
  0
POLYLINE
  8
LAYER_1
 40
0.1058
 41
0.1058
 66
1
 10
0
 20
0
 30
0
  0
VERTEX
  8
LAYER_1
 10
84.3954
 20
190.8302
  0
VERTEX
  8
LAYER_1
 10
83.877
 20
191.0659
  0
SEQEND
  0
TEXT
  8
LAYER_1
 10
89.5299
 20
186.999
 11
89.5299
 21
186.999
 40
4.3191
 41
0.5
 50
334.8246444
  1
45
  0
POLYLINE
  8
LAYER_1
 40
0.1058
 41
0.1058
 66
1
 10
0
 20
0
 30
0
  0
VERTEX
  8
LAYER_1
 10
84.9138
 20
190.5946
  0
VERTEX
  8
LAYER_1
 10
88.6365
 20
188.804
  0
SEQEND
  0
POLYLINE
  8
LAYER_1
 40
0.05
 41
0.05
 66
1
 10
0
 20
0
 30
0
 70
1
  0
VERTEX
  8
LAYER_1
 10
84.3482
 20
190.7358
  0
VERTEX
  8
LAYER_1
 10
84.9139
 20
190.5943
  0
VERTEX
  8
LAYER_1
 10
84.4424
 20
190.9247
  0
SEQEND
  0
POLYLINE
  8
LAYER_1
 66
1
 10
0
 20
0
 30
0
 70
1
  0
VERTEX
  8
LAYER_1
 10
84.4426
 20
190.9244
  0
VERTEX
  8
LAYER_1
 10
84.3484
 20
190.736
  0
VERTEX
  8
LAYER_1
 10
84.9137
 20
190.5945
  0
SEQEND
  0
POLYLINE
  8
LAYER_1
 40
0.05
 41
0.05
 66
1
 10
0
 20
0
 30
0
 70
1
  0
VERTEX
  8
LAYER_1
 10
89.1076
 20
188.5211
  0
VERTEX
  8
LAYER_1
 10
89.1549
 20
188.6623
  0
VERTEX
  8
LAYER_1
 10
88.6361
 20
188.8038
  0
SEQEND
  0
POLYLINE
  8
LAYER_1
 66
1
 10
0
 20
0
 30
0
 70
1
  0
VERTEX
  8
LAYER_1
 10
89.1548
 20
188.6626
  0
VERTEX
  8
LAYER_1
 10
89.1075
 20
188.521
  0
VERTEX
  8
LAYER_1
 10
88.6364
 20
188.8041
  0
SEQEND
  0
POLYLINE
  8
LAYER_1
 40
0.1058
 41
0.1058
 66
1
 10
0
 20
0
 30
0
  0
VERTEX
  8
LAYER_1
 10
60.9759
 20
189.6521
  0
VERTEX
  8
LAYER_1
 10
60.9759
 20
185.2698
  0
SEQEND
  0
POLYLINE
  8
LAYER_1
 40
0.1764
 41
0.1764
 66
1
 10
0
 20
0
 30
0
  0
VERTEX
  8
LAYER_1
 10
155.5494
 20
68.6434
  0
VERTEX
  8
LAYER_1
 10
198.4301
 20
68.6434
  0
VERTEX
  8
LAYER_1
 10
198.4301
 20
172.8296
  0
SEQEND
  0
TEXT
  8
LAYER_1
 10
150.6513
 20
187.613
 11
150.6513
 21
187.613
 40
4.3191
 41
0.5
 50
89.99999999
  1
485
  0
INSERT
  8
LAYER_1
  2
AIGNBL0101003C
 10
0
 20
0
 30
0
  0
POLYLINE
  8
LAYER_1
 40
0.1058
 41
0.1058
 66
1
 10
0
 20
0
 30
0
  0
VERTEX
  8
LAYER_1
 10
60.4576
 20
209.4904
  0
VERTEX
  8
LAYER_1
 10
60.4576
 20
205.815
  0
SEQEND
  0
POLYLINE
  8
LAYER_1
 40
0.1058
 41
0.1058
 66
1
 10
0
 20
0
 30
0
  0
VERTEX
  8
LAYER_1
 10
139.8107
 20
209.4904
  0
VERTEX
  8
LAYER_1
 10
139.8107
 20
205.815
  0
SEQEND
  0
POLYLINE
  8
LAYER_1
 40
0.1058
 41
0.1058
 66
1
 10
0
 20
0
 30
0
  0
VERTEX
  8
LAYER_1
 10
60.5518
 20
209.4904
  0
VERTEX
  8
LAYER_1
 10
60.976
 20
209.4904
  0
SEQEND
  0
POLYLINE
  8
LAYER_1
 40
0.1058
 41
0.1058
 66
1
 10
0
 20
0
 30
0
  0
VERTEX
  8
LAYER_1
 10
60.5518
 20
205.8149
  0
VERTEX
  8
LAYER_1
 10
60.976
 20
205.8149
  0
SEQEND
  0
POLYLINE
  8
LAYER_1
 40
0.1058
 41
0.1058
 66
1
 10
0
 20
0
 30
0
  0
VERTEX
  8
LAYER_1
 10
139.2452
 20
209.4904
  0
VERTEX
  8
LAYER_1
 10
139.7164
 20
209.4904
  0
SEQEND
  0
POLYLINE
  8
LAYER_1
 40
0.1058
 41
0.1058
 66
1
 10
0
 20
0
 30
0
  0
VERTEX
  8
LAYER_1
 10
139.2452
 20
205.8149
  0
VERTEX
  8
LAYER_1
 10
139.7164
 20
205.8149
  0
SEQEND
  0
TEXT
  8
LAYER_1
 10
97.4481
 20
215.3107
 11
97.4481
 21
215.3107
 40
4.3191
 41
0.5
  1
900
  0
POLYLINE
  8
LAYER_1
 40
0.1058
 41
0.1058
 66
1
 10
0
 20
0
 30
0
  0
VERTEX
  8
LAYER_1
 10
179.9113
 20
130.3258
  0
VERTEX
  8
LAYER_1
 10
179.5345
 20
130.3258
  0
SEQEND
  0
POLYLINE
  8
LAYER_1
 40
0.1058
 41
0.1058
 66
1
 10
0
 20
0
 30
0
  0
VERTEX
  8
LAYER_1
 10
179.2516
 20
130.3258
  0
VERTEX
  8
LAYER_1
 10
178.6863
 20
130.3258
  0
SEQEND
  0
POLYLINE
  8
LAYER_1
 40
0.1058
 41
0.1058
 66
1
 10
0
 20
0
 30
0
  0
VERTEX
  8
LAYER_1
 10
178.4034
 20
130.3258
  0
VERTEX
  8
LAYER_1
 10
177.7908
 20
130.3258
  0
SEQEND
  0
POLYLINE
  8
LAYER_1
 40
0.1058
 41
0.1058
 66
1
 10
0
 20
0
 30
0
  0
VERTEX
  8
LAYER_1
 10
177.5081
 20
130.3258
  0
VERTEX
  8
LAYER_1
 10
176.9428
 20
130.3258
  0
SEQEND
  0
POLYLINE
  8
LAYER_1
 40
0.1058
 41
0.1058
 66
1
 10
0
 20
0
 30
0
  0
VERTEX
  8
LAYER_1
 10
176.6128
 20
130.3258
  0
VERTEX
  8
LAYER_1
 10
176.0475
 20
130.3258
  0
SEQEND
  0
POLYLINE
  8
LAYER_1
 40
0.1058
 41
0.1058
 66
1
 10
0
 20
0
 30
0
  0
VERTEX
  8
LAYER_1
 10
175.7646
 20
130.3258
  0
VERTEX
  8
LAYER_1
 10
175.152
 20
130.3258
  0
SEQEND
  0
POLYLINE
  8
LAYER_1
 40
0.1058
 41
0.1058
 66
1
 10
0
 20
0
 30
0
  0
VERTEX
  8
LAYER_1
 10
174.8693
 20
130.3258
  0
VERTEX
  8
LAYER_1
 10
174.4924
 20
130.3258
  0
VERTEX
  8
LAYER_1
 10
174.8693
 20
130.3258
  0
SEQEND
  0
POLYLINE
  8
LAYER_1
 40
0.1058
 41
0.1058
 66
1
 10
0
 20
0
 30
0
  0
VERTEX
  8
LAYER_1
 10
175.152
 20
130.3258
  0
VERTEX
  8
LAYER_1
 10
175.7647
 20
130.3258
  0
SEQEND
  0
POLYLINE
  8
LAYER_1
 40
0.1058
 41
0.1058
 66
1
 10
0
 20
0
 30
0
  0
VERTEX
  8
LAYER_1
 10
176.0473
 20
130.3258
  0
VERTEX
  8
LAYER_1
 10
176.6127
 20
130.3258
  0
SEQEND
  0
POLYLINE
  8
LAYER_1
 40
0.1058
 41
0.1058
 66
1
 10
0
 20
0
 30
0
  0
VERTEX
  8
LAYER_1
 10
176.9427
 20
130.3258
  0
VERTEX
  8
LAYER_1
 10
177.508
 20
130.3258
  0
SEQEND
  0
POLYLINE
  8
LAYER_1
 40
0.1058
 41
0.1058
 66
1
 10
0
 20
0
 30
0
  0
VERTEX
  8
LAYER_1
 10
177.7909
 20
130.3258
  0
VERTEX
  8
LAYER_1
 10
178.4035
 20
130.3258
  0
SEQEND
  0
POLYLINE
  8
LAYER_1
 40
0.1058
 41
0.1058
 66
1
 10
0
 20
0
 30
0
  0
VERTEX
  8
LAYER_1
 10
178.6862
 20
130.3258
  0
VERTEX
  8
LAYER_1
 10
179.2515
 20
130.3258
  0
SEQEND
  0
POLYLINE
  8
LAYER_1
 40
0.1058
 41
0.1058
 66
1
 10
0
 20
0
 30
0
  0
VERTEX
  8
LAYER_1
 10
179.5344
 20
130.3258
  0
VERTEX
  8
LAYER_1
 10
179.9113
 20
130.3258
  0
SEQEND
  0
POLYLINE
  8
LAYER_1
 40
0.1058
 41
0.1058
 66
1
 10
0
 20
0
 30
0
  0
VERTEX
  8
LAYER_1
 10
177.2254
 20
130.3258
  0
SEQEND
  0
POLYLINE
  8
LAYER_1
 40
0.1058
 41
0.1058
 66
1
 10
0
 20
0
 30
0
  0
VERTEX
  8
LAYER_1
 10
197.0637
 20
144.5094
  0
SEQEND
  0
POLYLINE
  8
LAYER_1
 40
0.1058
 41
0.1058
 66
1
 10
0
 20
0
 30
0
  0
VERTEX
  8
LAYER_1
 10
179.393
 20
130.8441
  0
VERTEX
  8
LAYER_1
 10
178.7335
 20
130.8441
  0
SEQEND
  0
POLYLINE
  8
LAYER_1
 40
0.1058
 41
0.1058
 66
1
 10
0
 20
0
 30
0
  0
VERTEX
  8
LAYER_1
 10
178.4506
 20
130.8441
  0
VERTEX
  8
LAYER_1
 10
177.8379
 20
130.8441
  0
SEQEND
  0
POLYLINE
  8
LAYER_1
 40
0.1058
 41
0.1058
 66
1
 10
0
 20
0
 30
0
  0
VERTEX
  8
LAYER_1
 10
177.5552
 20
130.8441
  0
VERTEX
  8
LAYER_1
 10
176.9899
 20
130.8441
  0
SEQEND
  0
POLYLINE
  8
LAYER_1
 40
0.1058
 41
0.1058
 66
1
 10
0
 20
0
 30
0
  0
VERTEX
  8
LAYER_1
 10
176.707
 20
130.8441
  0
VERTEX
  8
LAYER_1
 10
176.0944
 20
130.8441
  0
SEQEND
  0
POLYLINE
  8
LAYER_1
 40
0.1058
 41
0.1058
 66
1
 10
0
 20
0
 30
0
  0
VERTEX
  8
LAYER_1
 10
175.8118
 20
130.8441
  0
VERTEX
  8
LAYER_1
 10
175.1522
 20
130.8441
  0
SEQEND
  0
POLYLINE
  8
LAYER_1
 40
0.1058
 41
0.1058
 66
1
 10
0
 20
0
 30
0
  0
VERTEX
  8
LAYER_1
 10
180.6653
 20
131.8337
  0
VERTEX
  8
LAYER_1
 10
180.0527
 20
131.8337
  0
SEQEND
  0
POLYLINE
  8
LAYER_1
 40
0.1058
 41
0.1058
 66
1
 10
0
 20
0
 30
0
  0
VERTEX
  8
LAYER_1
 10
179.77
 20
131.8337
  0
VERTEX
  8
LAYER_1
 10
179.1574
 20
131.8337
  0
SEQEND
  0
POLYLINE
  8
LAYER_1
 40
0.1058
 41
0.1058
 66
1
 10
0
 20
0
 30
0
  0
VERTEX
  8
LAYER_1
 10
178.8747
 20
131.8337
  0
VERTEX
  8
LAYER_1
 10
178.3093
 20
131.8337
  0
SEQEND
  0
POLYLINE
  8
LAYER_1
 40
0.1058
 41
0.1058
 66
1
 10
0
 20
0
 30
0
  0
VERTEX
  8
LAYER_1
 10
177.9794
 20
131.8337
  0
VERTEX
  8
LAYER_1
 10
177.414
 20
131.8337
  0
SEQEND
  0
POLYLINE
  8
LAYER_1
 40
0.1058
 41
0.1058
 66
1
 10
0
 20
0
 30
0
  0
VERTEX
  8
LAYER_1
 10
177.1312
 20
131.8337
  0
VERTEX
  8
LAYER_1
 10
176.5185
 20
131.8337
  0
SEQEND
  0
POLYLINE
  8
LAYER_1
 40
0.1058
 41
0.1058
 66
1
 10
0
 20
0
 30
0
  0
VERTEX
  8
LAYER_1
 10
176.2359
 20
131.8337
  0
VERTEX
  8
LAYER_1
 10
175.6705
 20
131.8337
  0
SEQEND
  0
POLYLINE
  8
LAYER_1
 40
0.1058
 41
0.1058
 66
1
 10
0
 20
0
 30
0
  0
VERTEX
  8
LAYER_1
 10
175.3877
 20
131.8337
  0
VERTEX
  8
LAYER_1
 10
174.775
 20
131.8337
  0
SEQEND
  0
POLYLINE
  8
LAYER_1
 40
0.1058
 41
0.1058
 66
1
 10
0
 20
0
 30
0
  0
VERTEX
  8
LAYER_1
 10
174.4923
 20
131.8337
  0
VERTEX
  8
LAYER_1
 10
173.8797
 20
131.8337
  0
SEQEND
  0
POLYLINE
  8
LAYER_1
 40
0.1058
 41
0.1058
 66
1
 10
0
 20
0
 30
0
  0
VERTEX
  8
LAYER_1
 10
194.5191
 20
143.4257
  0
VERTEX
  8
LAYER_1
 10
193.9538
 20
143.4257
  0
SEQEND
  0
POLYLINE
  8
LAYER_1
 40
0.1058
 41
0.1058
 66
1
 10
0
 20
0
 30
0
  0
VERTEX
  8
LAYER_1
 10
193.6709
 20
143.4257
  0
VERTEX
  8
LAYER_1
 10
193.0583
 20
143.4257
  0
SEQEND
  0
POLYLINE
  8
LAYER_1
 40
0.1058
 41
0.1058
 66
1
 10
0
 20
0
 30
0
  0
VERTEX
  8
LAYER_1
 10
192.7756
 20
143.4257
  0
VERTEX
  8
LAYER_1
 10
192.1629
 20
143.4257
  0
SEQEND
  0
POLYLINE
  8
LAYER_1
 40
0.1058
 41
0.1058
 66
1
 10
0
 20
0
 30
0
  0
VERTEX
  8
LAYER_1
 10
191.8803
 20
143.4257
  0
VERTEX
  8
LAYER_1
 10
191.315
 20
143.4257
  0
SEQEND
  0
POLYLINE
  8
LAYER_1
 40
0.1058
 41
0.1058
 66
1
 10
0
 20
0
 30
0
  0
VERTEX
  8
LAYER_1
 10
194.5191
 20
142.4832
  0
VERTEX
  8
LAYER_1
 10
193.9538
 20
142.4832
  0
SEQEND
  0
POLYLINE
  8
LAYER_1
 40
0.1058
 41
0.1058
 66
1
 10
0
 20
0
 30
0
  0
VERTEX
  8
LAYER_1
 10
193.6709
 20
142.4832
  0
VERTEX
  8
LAYER_1
 10
193.0583
 20
142.4832
  0
SEQEND
  0
POLYLINE
  8
LAYER_1
 40
0.1058
 41
0.1058
 66
1
 10
0
 20
0
 30
0
  0
VERTEX
  8
LAYER_1
 10
192.7756
 20
142.4832
  0
VERTEX
  8
LAYER_1
 10
192.1629
 20
142.4832
  0
SEQEND
  0
POLYLINE
  8
LAYER_1
 40
0.1058
 41
0.1058
 66
1
 10
0
 20
0
 30
0
  0
VERTEX
  8
LAYER_1
 10
191.8803
 20
142.4832
  0
VERTEX
  8
LAYER_1
 10
191.315
 20
142.4832
  0
VERTEX
  8
LAYER_1
 10
191.315
 20
142.8132
  0
SEQEND
  0
POLYLINE
  8
LAYER_1
 40
0.1058
 41
0.1058
 66
1
 10
0
 20
0
 30
0
  0
VERTEX
  8
LAYER_1
 10
191.3148
 20
143.0958
  0
VERTEX
  8
LAYER_1
 10
191.3148
 20
143.4258
  0
SEQEND
  0
POLYLINE
  8
LAYER_1
 40
0.1058
 41
0.1058
 66
1
 10
0
 20
0
 30
0
  0
VERTEX
  8
LAYER_1
 10
194.5191
 20
142.4832
  0
VERTEX
  8
LAYER_1
 10
194.5191
 20
142.8132
  0
SEQEND
  0
POLYLINE
  8
LAYER_1
 40
0.1058
 41
0.1058
 66
1
 10
0
 20
0
 30
0
  0
VERTEX
  8
LAYER_1
 10
194.5191
 20
143.0958
  0
VERTEX
  8
LAYER_1
 10
194.5191
 20
143.4258
  0
SEQEND
  0
POLYLINE
  8
LAYER_1
 40
0.1058
 41
0.1058
 66
1
 10
0
 20
0
 30
0
  0
VERTEX
  8
LAYER_1
 10
197.5349
 20
130.3258
  0
VERTEX
  8
LAYER_1
 10
197.5349
 20
130.7969
  0
SEQEND
  0
POLYLINE
  8
LAYER_1
 40
0.1058
 41
0.1058
 66
1
 10
0
 20
0
 30
0
  0
VERTEX
  8
LAYER_1
 10
197.5349
 20
131.0798
  0
VERTEX
  8
LAYER_1
 10
197.5349
 20
131.6451
  0
SEQEND
  0
POLYLINE
  8
LAYER_1
 40
0.1058
 41
0.1058
 66
1
 10
0
 20
0
 30
0
  0
VERTEX
  8
LAYER_1
 10
197.5349
 20
131.9279
  0
VERTEX
  8
LAYER_1
 10
197.5349
 20
132.5406
  0
SEQEND
  0
POLYLINE
  8
LAYER_1
 40
0.1058
 41
0.1058
 66
1
 10
0
 20
0
 30
0
  0
VERTEX
  8
LAYER_1
 10
197.5349
 20
132.8232
  0
VERTEX
  8
LAYER_1
 10
197.5349
 20
133.3886
  0
SEQEND
  0
POLYLINE
  8
LAYER_1
 40
0.1058
 41
0.1058
 66
1
 10
0
 20
0
 30
0
  0
VERTEX
  8
LAYER_1
 10
197.5349
 20
133.7186
  0
VERTEX
  8
LAYER_1
 10
197.5349
 20
134.2839
  0
SEQEND
  0
POLYLINE
  8
LAYER_1
 40
0.1058
 41
0.1058
 66
1
 10
0
 20
0
 30
0
  0
VERTEX
  8
LAYER_1
 10
197.5349
 20
134.5668
  0
VERTEX
  8
LAYER_1
 10
197.5349
 20
135.1794
  0
SEQEND
  0
POLYLINE
  8
LAYER_1
 40
0.1058
 41
0.1058
 66
1
 10
0
 20
0
 30
0
  0
VERTEX
  8
LAYER_1
 10
197.5349
 20
135.4621
  0
VERTEX
  8
LAYER_1
 10
197.5349
 20
136.0274
  0
SEQEND
  0
POLYLINE
  8
LAYER_1
 40
0.1058
 41
0.1058
 66
1
 10
0
 20
0
 30
0
  0
VERTEX
  8
LAYER_1
 10
197.5349
 20
136.3103
  0
VERTEX
  8
LAYER_1
 10
197.5349
 20
136.9229
  0
SEQEND
  0
POLYLINE
  8
LAYER_1
 40
0.1058
 41
0.1058
 66
1
 10
0
 20
0
 30
0
  0
VERTEX
  8
LAYER_1
 10
197.5349
 20
137.2056
  0
VERTEX
  8
LAYER_1
 10
197.5349
 20
137.7709
  0
SEQEND
  0
POLYLINE
  8
LAYER_1
 40
0.1058
 41
0.1058
 66
1
 10
0
 20
0
 30
0
  0
VERTEX
  8
LAYER_1
 10
197.5349
 20
138.1009
  0
VERTEX
  8
LAYER_1
 10
197.5349
 20
138.6662
  0
SEQEND
  0
POLYLINE
  8
LAYER_1
 40
0.1058
 41
0.1058
 66
1
 10
0
 20
0
 30
0
  0
VERTEX
  8
LAYER_1
 10
197.5349
 20
138.9491
  0
VERTEX
  8
LAYER_1
 10
197.5349
 20
139.5617
  0
SEQEND
  0
POLYLINE
  8
LAYER_1
 40
0.1058
 41
0.1058
 66
1
 10
0
 20
0
 30
0
  0
VERTEX
  8
LAYER_1
 10
197.5349
 20
139.8444
  0
VERTEX
  8
LAYER_1
 10
197.5349
 20
140.4097
  0
SEQEND
  0
POLYLINE
  8
LAYER_1
 40
0.1058
 41
0.1058
 66
1
 10
0
 20
0
 30
0
  0
VERTEX
  8
LAYER_1
 10
197.5349
 20
140.6926
  0
VERTEX
  8
LAYER_1
 10
197.5349
 20
141.3053
  0
SEQEND
  0
POLYLINE
  8
LAYER_1
 40
0.1058
 41
0.1058
 66
1
 10
0
 20
0
 30
0
  0
VERTEX
  8
LAYER_1
 10
197.5349
 20
141.5879
  0
VERTEX
  8
LAYER_1
 10
197.5349
 20
142.0121
  0
SEQEND
  0
POLYLINE
  8
LAYER_1
 40
0.1058
 41
0.1058
 66
1
 10
0
 20
0
 30
0
  0
VERTEX
  8
LAYER_1
 10
196.2155
 20
143.4257
  0
VERTEX
  8
LAYER_1
 10
196.7339
 20
143.4257
  0
VERTEX
  8
LAYER_1
 10
196.9224
 20
143.473
  0
VERTEX
  8
LAYER_1
 10
197.0166
 20
143.6614
  0
VERTEX
  8
LAYER_1
 10
197.0639
 20
144.5094
  0
VERTEX
  8
LAYER_1
 10
197.1108
 20
144.6978
  0
VERTEX
  8
LAYER_1
 10
197.2993
 20
144.7921
  0
SEQEND
  0
POLYLINE
  8
LAYER_1
 40
0.1058
 41
0.1058
 66
1
 10
0
 20
0
 30
0
  0
VERTEX
  8
LAYER_1
 10
195.9328
 20
143.4257
  0
VERTEX
  8
LAYER_1
 10
195.3201
 20
143.4257
  0
SEQEND
  0
POLYLINE
  8
LAYER_1
 40
0.1058
 41
0.1058
 66
1
 10
0
 20
0
 30
0
  0
VERTEX
  8
LAYER_1
 10
195.0375
 20
143.4257
  0
VERTEX
  8
LAYER_1
 10
194.519
 20
143.4257
  0
SEQEND
  0
POLYLINE
  8
LAYER_1
 40
0.1058
 41
0.1058
 66
1
 10
0
 20
0
 30
0
  0
VERTEX
  8
LAYER_1
 10
191.3148
 20
143.4257
  0
VERTEX
  8
LAYER_1
 10
190.9849
 20
143.4257
  0
SEQEND
  0
POLYLINE
  8
LAYER_1
 40
0.1058
 41
0.1058
 66
1
 10
0
 20
0
 30
0
  0
VERTEX
  8
LAYER_1
 10
190.7022
 20
143.4257
  0
VERTEX
  8
LAYER_1
 10
190.0896
 20
143.4257
  0
SEQEND
  0
POLYLINE
  8
LAYER_1
 40
0.1058
 41
0.1058
 66
1
 10
0
 20
0
 30
0
  0
VERTEX
  8
LAYER_1
 10
189.8069
 20
143.4257
  0
VERTEX
  8
LAYER_1
 10
189.1943
 20
143.4257
  0
SEQEND
  0
POLYLINE
  8
LAYER_1
 40
0.1058
 41
0.1058
 66
1
 10
0
 20
0
 30
0
  0
VERTEX
  8
LAYER_1
 10
188.9116
 20
143.4257
  0
VERTEX
  8
LAYER_1
 10
188.5817
 20
143.4257
  0
SEQEND
  0
POLYLINE
  8
LAYER_1
 40
0.1058
 41
0.1058
 66
1
 10
0
 20
0
 30
0
  0
VERTEX
  8
LAYER_1
 10
189.2415
 20
130.3729
  0
VERTEX
  8
LAYER_1
 10
189.2888
 20
131.0325
  0
SEQEND
  0
POLYLINE
  8
LAYER_1
 40
0.1058
 41
0.1058
 66
1
 10
0
 20
0
 30
0
  0
VERTEX
  8
LAYER_1
 10
189.2886
 20
131.3153
  0
VERTEX
  8
LAYER_1
 10
189.3359
 20
131.928
  0
SEQEND
  0
POLYLINE
  8
LAYER_1
 40
0.1058
 41
0.1058
 66
1
 10
0
 20
0
 30
0
  0
VERTEX
  8
LAYER_1
 10
189.3357
 20
132.2107
  0
VERTEX
  8
LAYER_1
 10
189.383
 20
132.776
  0
SEQEND
  0
POLYLINE
  8
LAYER_1
 40
0.1058
 41
0.1058
 66
1
 10
0
 20
0
 30
0
  0
VERTEX
  8
LAYER_1
 10
189.43
 20
133.106
  0
VERTEX
  8
LAYER_1
 10
189.43
 20
133.6713
  0
SEQEND
  0
POLYLINE
  8
LAYER_1
 40
0.1058
 41
0.1058
 66
1
 10
0
 20
0
 30
0
  0
VERTEX
  8
LAYER_1
 10
189.4771
 20
133.9542
  0
VERTEX
  8
LAYER_1
 10
189.4771
 20
134.5195
  0
SEQEND
  0
POLYLINE
  8
LAYER_1
 40
0.1058
 41
0.1058
 66
1
 10
0
 20
0
 30
0
  0
VERTEX
  8
LAYER_1
 10
189.5242
 20
134.8495
  0
VERTEX
  8
LAYER_1
 10
189.5242
 20
135.4148
  0
SEQEND
  0
POLYLINE
  8
LAYER_1
 40
0.1058
 41
0.1058
 66
1
 10
0
 20
0
 30
0
  0
VERTEX
  8
LAYER_1
 10
189.5713
 20
135.6977
  0
VERTEX
  8
LAYER_1
 10
189.6186
 20
136.3103
  0
SEQEND
  0
POLYLINE
  8
LAYER_1
 40
0.1058
 41
0.1058
 66
1
 10
0
 20
0
 30
0
  0
VERTEX
  8
LAYER_1
 10
189.6185
 20
136.593
  0
VERTEX
  8
LAYER_1
 10
189.6658
 20
137.1583
  0
SEQEND
  0
POLYLINE
  8
LAYER_1
 40
0.1058
 41
0.1058
 66
1
 10
0
 20
0
 30
0
  0
VERTEX
  8
LAYER_1
 10
189.6656
 20
137.4412
  0
VERTEX
  8
LAYER_1
 10
189.7129
 20
138.0538
  0
SEQEND
  0
POLYLINE
  8
LAYER_1
 40
0.1058
 41
0.1058
 66
1
 10
0
 20
0
 30
0
  0
VERTEX
  8
LAYER_1
 10
189.7127
 20
138.3365
  0
VERTEX
  8
LAYER_1
 10
189.76
 20
138.9018
  0
SEQEND
  0
POLYLINE
  8
LAYER_1
 40
0.1058
 41
0.1058
 66
1
 10
0
 20
0
 30
0
  0
VERTEX
  8
LAYER_1
 10
189.7598
 20
139.2318
  0
VERTEX
  8
LAYER_1
 10
189.8071
 20
139.7971
  0
SEQEND
  0
POLYLINE
  8
LAYER_1
 40
0.1058
 41
0.1058
 66
1
 10
0
 20
0
 30
0
  0
VERTEX
  8
LAYER_1
 10
189.8069
 20
140.08
  0
VERTEX
  8
LAYER_1
 10
189.8543
 20
140.6927
  0
SEQEND
  0
POLYLINE
  8
LAYER_1
 40
0.1058
 41
0.1058
 66
1
 10
0
 20
0
 30
0
  0
VERTEX
  8
LAYER_1
 10
189.854
 20
140.9753
  0
VERTEX
  8
LAYER_1
 10
189.9014
 20
141.5406
  0
SEQEND
  0
POLYLINE
  8
LAYER_1
 40
0.1058
 41
0.1058
 66
1
 10
0
 20
0
 30
0
  0
VERTEX
  8
LAYER_1
 10
189.9483
 20
141.8235
  0
VERTEX
  8
LAYER_1
 10
189.9483
 20
142.483
  0
VERTEX
  8
LAYER_1
 10
189.1945
 20
142.483
  0
VERTEX
  8
LAYER_1
 10
189.1945
 20
142.1535
  0
SEQEND
  0
POLYLINE
  8
LAYER_1
 40
0.1058
 41
0.1058
 66
1
 10
0
 20
0
 30
0
  0
VERTEX
  8
LAYER_1
 10
189.1472
 20
141.8235
  0
VERTEX
  8
LAYER_1
 10
189.1472
 20
141.2582
  0
SEQEND
  0
POLYLINE
  8
LAYER_1
 40
0.1058
 41
0.1058
 66
1
 10
0
 20
0
 30
0
  0
VERTEX
  8
LAYER_1
 10
189.1001
 20
140.9753
  0
VERTEX
  8
LAYER_1
 10
189.1001
 20
140.41
  0
SEQEND
  0
POLYLINE
  8
LAYER_1
 40
0.1058
 41
0.1058
 66
1
 10
0
 20
0
 30
0
  0
VERTEX
  8
LAYER_1
 10
189.053
 20
140.08
  0
VERTEX
  8
LAYER_1
 10
189.053
 20
139.5147
  0
SEQEND
  0
POLYLINE
  8
LAYER_1
 40
0.1058
 41
0.1058
 66
1
 10
0
 20
0
 30
0
  0
VERTEX
  8
LAYER_1
 10
189.0058
 20
139.2318
  0
VERTEX
  8
LAYER_1
 10
189.0058
 20
138.6192
  0
SEQEND
  0
POLYLINE
  8
LAYER_1
 40
0.1058
 41
0.1058
 66
1
 10
0
 20
0
 30
0
  0
VERTEX
  8
LAYER_1
 10
188.9587
 20
138.3365
  0
VERTEX
  8
LAYER_1
 10
188.9587
 20
137.7712
  0
SEQEND
  0
POLYLINE
  8
LAYER_1
 40
0.1058
 41
0.1058
 66
1
 10
0
 20
0
 30
0
  0
VERTEX
  8
LAYER_1
 10
188.9116
 20
137.4883
  0
VERTEX
  8
LAYER_1
 10
188.9116
 20
136.8757
  0
SEQEND
  0
POLYLINE
  8
LAYER_1
 40
0.1058
 41
0.1058
 66
1
 10
0
 20
0
 30
0
  0
VERTEX
  8
LAYER_1
 10
188.8645
 20
136.593
  0
VERTEX
  8
LAYER_1
 10
188.8645
 20
136.0277
  0
SEQEND
  0
POLYLINE
  8
LAYER_1
 40
0.1058
 41
0.1058
 66
1
 10
0
 20
0
 30
0
  0
VERTEX
  8
LAYER_1
 10
188.8174
 20
135.6977
  0
VERTEX
  8
LAYER_1
 10
188.8174
 20
135.1324
  0
SEQEND
  0
POLYLINE
  8
LAYER_1
 40
0.1058
 41
0.1058
 66
1
 10
0
 20
0
 30
0
  0
VERTEX
  8
LAYER_1
 10
188.7703
 20
134.8495
  0
VERTEX
  8
LAYER_1
 10
188.7703
 20
134.2368
  0
SEQEND
  0
POLYLINE
  8
LAYER_1
 40
0.1058
 41
0.1058
 66
1
 10
0
 20
0
 30
0
  0
VERTEX
  8
LAYER_1
 10
188.7231
 20
133.9542
  0
VERTEX
  8
LAYER_1
 10
188.7231
 20
133.3889
  0
SEQEND
  0
POLYLINE
  8
LAYER_1
 40
0.1058
 41
0.1058
 66
1
 10
0
 20
0
 30
0
  0
VERTEX
  8
LAYER_1
 10
188.676
 20
133.106
  0
VERTEX
  8
LAYER_1
 10
188.676
 20
132.7291
  0
SEQEND
  0
POLYLINE
  8
LAYER_1
 40
0.1058
 41
0.1058
 66
1
 10
0
 20
0
 30
0
  0
VERTEX
  8
LAYER_1
 10
197.1579
 20
142.4832
  0
VERTEX
  8
LAYER_1
 10
196.8753
 20
142.4832
  0
SEQEND
  0
POLYLINE
  8
LAYER_1
 40
0.1058
 41
0.1058
 66
1
 10
0
 20
0
 30
0
  0
VERTEX
  8
LAYER_1
 10
196.5925
 20
142.4832
  0
VERTEX
  8
LAYER_1
 10
195.9798
 20
142.4832
  0
SEQEND
  0
POLYLINE
  8
LAYER_1
 40
0.1058
 41
0.1058
 66
1
 10
0
 20
0
 30
0
  0
VERTEX
  8
LAYER_1
 10
195.6972
 20
142.4832
  0
VERTEX
  8
LAYER_1
 10
195.1318
 20
142.4832
  0
SEQEND
  0
POLYLINE
  8
LAYER_1
 40
0.1058
 41
0.1058
 66
1
 10
0
 20
0
 30
0
  0
VERTEX
  8
LAYER_1
 10
194.8019
 20
142.4832
  0
VERTEX
  8
LAYER_1
 10
194.5192
 20
142.4832
  0
SEQEND
  0
POLYLINE
  8
LAYER_1
 40
0.1058
 41
0.1058
 66
1
 10
0
 20
0
 30
0
  0
VERTEX
  8
LAYER_1
 10
197.1579
 20
142.4832
  0
VERTEX
  8
LAYER_1
 10
197.2994
 20
142.4359
  0
VERTEX
  8
LAYER_1
 10
197.3937
 20
142.3417
  0
VERTEX
  8
LAYER_1
 10
197.4879
 20
142.2005
  0
VERTEX
  8
LAYER_1
 10
197.5348
 20
142.0121
  0
SEQEND
  0
POLYLINE
  8
LAYER_1
 40
0.1058
 41
0.1058
 66
1
 10
0
 20
0
 30
0
  0
VERTEX
  8
LAYER_1
 10
180.6653
 20
131.8337
  0
VERTEX
  8
LAYER_1
 10
181.2306
 20
131.881
  0
SEQEND
  0
POLYLINE
  8
LAYER_1
 40
0.1058
 41
0.1058
 66
1
 10
0
 20
0
 30
0
  0
VERTEX
  8
LAYER_1
 10
181.5135
 20
131.8808
  0
VERTEX
  8
LAYER_1
 10
182.0788
 20
131.9281
  0
SEQEND
  0
POLYLINE
  8
LAYER_1
 40
0.1058
 41
0.1058
 66
1
 10
0
 20
0
 30
0
  0
VERTEX
  8
LAYER_1
 10
182.4088
 20
131.975
  0
VERTEX
  8
LAYER_1
 10
182.9741
 20
132.0224
  0
SEQEND
  0
POLYLINE
  8
LAYER_1
 40
0.1058
 41
0.1058
 66
1
 10
0
 20
0
 30
0
  0
VERTEX
  8
LAYER_1
 10
183.257
 20
132.0222
  0
VERTEX
  8
LAYER_1
 10
183.8223
 20
132.0695
  0
SEQEND
  0
POLYLINE
  8
LAYER_1
 40
0.1058
 41
0.1058
 66
1
 10
0
 20
0
 30
0
  0
VERTEX
  8
LAYER_1
 10
184.1523
 20
132.1164
  0
VERTEX
  8
LAYER_1
 10
184.7176
 20
132.1637
  0
SEQEND
  0
POLYLINE
  8
LAYER_1
 40
0.1058
 41
0.1058
 66
1
 10
0
 20
0
 30
0
  0
VERTEX
  8
LAYER_1
 10
185.0005
 20
132.1635
  0
VERTEX
  8
LAYER_1
 10
185.6132
 20
132.2108
  0
SEQEND
  0
POLYLINE
  8
LAYER_1
 40
0.1058
 41
0.1058
 66
1
 10
0
 20
0
 30
0
  0
VERTEX
  8
LAYER_1
 10
185.8958
 20
132.2578
  0
VERTEX
  8
LAYER_1
 10
186.4612
 20
132.3051
  0
SEQEND
  0
POLYLINE
  8
LAYER_1
 40
0.1058
 41
0.1058
 66
1
 10
0
 20
0
 30
0
  0
VERTEX
  8
LAYER_1
 10
186.744
 20
132.3049
  0
VERTEX
  8
LAYER_1
 10
187.3093
 20
132.3522
  0
SEQEND
  0
POLYLINE
  8
LAYER_1
 40
0.1058
 41
0.1058
 66
1
 10
0
 20
0
 30
0
  0
VERTEX
  8
LAYER_1
 10
180.2883
 20
130.3258
  0
VERTEX
  8
LAYER_1
 10
180.2883
 20
130.42
  0
VERTEX
  8
LAYER_1
 10
180.901
 20
130.9384
  0
VERTEX
  8
LAYER_1
 10
181.3721
 20
130.9384
  0
SEQEND
  0
POLYLINE
  8
LAYER_1
 40
0.1058
 41
0.1058
 66
1
 10
0
 20
0
 30
0
  0
VERTEX
  8
LAYER_1
 10
181.6549
 20
130.9855
  0
VERTEX
  8
LAYER_1
 10
182.2675
 20
131.0328
  0
SEQEND
  0
POLYLINE
  8
LAYER_1
 40
0.1058
 41
0.1058
 66
1
 10
0
 20
0
 30
0
  0
VERTEX
  8
LAYER_1
 10
182.5502
 20
131.0326
  0
VERTEX
  8
LAYER_1
 10
183.1155
 20
131.08
  0
SEQEND
  0
POLYLINE
  8
LAYER_1
 40
0.1058
 41
0.1058
 66
1
 10
0
 20
0
 30
0
  0
VERTEX
  8
LAYER_1
 10
183.3984
 20
131.1269
  0
VERTEX
  8
LAYER_1
 10
184.011
 20
131.1742
  0
SEQEND
  0
POLYLINE
  8
LAYER_1
 40
0.1058
 41
0.1058
 66
1
 10
0
 20
0
 30
0
  0
VERTEX
  8
LAYER_1
 10
184.2937
 20
131.174
  0
VERTEX
  8
LAYER_1
 10
184.859
 20
131.2213
  0
SEQEND
  0
POLYLINE
  8
LAYER_1
 40
0.1058
 41
0.1058
 66
1
 10
0
 20
0
 30
0
  0
VERTEX
  8
LAYER_1
 10
185.1419
 20
131.2682
  0
VERTEX
  8
LAYER_1
 10
185.7545
 20
131.3156
  0
SEQEND
  0
POLYLINE
  8
LAYER_1
 40
0.1058
 41
0.1058
 66
1
 10
0
 20
0
 30
0
  0
VERTEX
  8
LAYER_1
 10
186.0372
 20
131.3153
  0
VERTEX
  8
LAYER_1
 10
186.6025
 20
131.3627
  0
SEQEND
  0
POLYLINE
  8
LAYER_1
 40
0.1058
 41
0.1058
 66
1
 10
0
 20
0
 30
0
  0
VERTEX
  8
LAYER_1
 10
186.9325
 20
131.4096
  0
VERTEX
  8
LAYER_1
 10
187.3567
 20
131.4569
  0
SEQEND
  0
POLYLINE
  8
LAYER_1
 40
0.1058
 41
0.1058
 66
1
 10
0
 20
0
 30
0
  0
VERTEX
  8
LAYER_1
 10
187.7336
 20
132.7761
  0
VERTEX
  8
LAYER_1
 10
187.6863
 20
132.6346
  0
VERTEX
  8
LAYER_1
 10
187.5921
 20
132.4935
  0
VERTEX
  8
LAYER_1
 10
187.4509
 20
132.3993
  0
VERTEX
  8
LAYER_1
 10
187.3094
 20
132.3519
  0
SEQEND
  0
POLYLINE
  8
LAYER_1
 40
0.1058
 41
0.1058
 66
1
 10
0
 20
0
 30
0
  0
VERTEX
  8
LAYER_1
 10
188.676
 20
132.729
  0
VERTEX
  8
LAYER_1
 10
188.6287
 20
132.4933
  0
VERTEX
  8
LAYER_1
 10
188.5818
 20
132.3048
  0
SEQEND
  0
POLYLINE
  8
LAYER_1
 40
0.1058
 41
0.1058
 66
1
 10
0
 20
0
 30
0
  0
VERTEX
  8
LAYER_1
 10
188.3933
 20
132.0693
  0
VERTEX
  8
LAYER_1
 10
188.2518
 20
131.8336
  0
VERTEX
  8
LAYER_1
 10
188.0164
 20
131.6451
  0
SEQEND
  0
POLYLINE
  8
LAYER_1
 40
0.1058
 41
0.1058
 66
1
 10
0
 20
0
 30
0
  0
VERTEX
  8
LAYER_1
 10
187.7336
 20
131.5038
  0
VERTEX
  8
LAYER_1
 10
187.5921
 20
131.4565
  0
VERTEX
  8
LAYER_1
 10
187.3094
 20
131.4565
  0
SEQEND
  0
POLYLINE
  8
LAYER_1
 40
0.1058
 41
0.1058
 66
1
 10
0
 20
0
 30
0
  0
VERTEX
  8
LAYER_1
 10
188.2519
 20
141.5879
  0
VERTEX
  8
LAYER_1
 10
188.2046
 20
141.2579
  0
SEQEND
  0
POLYLINE
  8
LAYER_1
 40
0.1058
 41
0.1058
 66
1
 10
0
 20
0
 30
0
  0
VERTEX
  8
LAYER_1
 10
188.2048
 20
140.9753
  0
VERTEX
  8
LAYER_1
 10
188.1575
 20
140.41
  0
SEQEND
  0
POLYLINE
  8
LAYER_1
 40
0.1058
 41
0.1058
 66
1
 10
0
 20
0
 30
0
  0
VERTEX
  8
LAYER_1
 10
188.1577
 20
140.1271
  0
VERTEX
  8
LAYER_1
 10
188.1103
 20
139.5145
  0
SEQEND
  0
POLYLINE
  8
LAYER_1
 40
0.1058
 41
0.1058
 66
1
 10
0
 20
0
 30
0
  0
VERTEX
  8
LAYER_1
 10
188.1106
 20
139.2318
  0
VERTEX
  8
LAYER_1
 10
188.0632
 20
138.6665
  0
SEQEND
  0
POLYLINE
  8
LAYER_1
 40
0.1058
 41
0.1058
 66
1
 10
0
 20
0
 30
0
  0
VERTEX
  8
LAYER_1
 10
188.0634
 20
138.3365
  0
VERTEX
  8
LAYER_1
 10
188.0161
 20
137.7712
  0
SEQEND
  0
POLYLINE
  8
LAYER_1
 40
0.1058
 41
0.1058
 66
1
 10
0
 20
0
 30
0
  0
VERTEX
  8
LAYER_1
 10
188.0163
 20
137.4883
  0
VERTEX
  8
LAYER_1
 10
187.969
 20
136.8757
  0
SEQEND
  0
POLYLINE
  8
LAYER_1
 40
0.1058
 41
0.1058
 66
1
 10
0
 20
0
 30
0
  0
VERTEX
  8
LAYER_1
 10
187.9692
 20
136.593
  0
VERTEX
  8
LAYER_1
 10
187.9219
 20
136.0277
  0
SEQEND
  0
POLYLINE
  8
LAYER_1
 40
0.1058
 41
0.1058
 66
1
 10
0
 20
0
 30
0
  0
VERTEX
  8
LAYER_1
 10
187.9221
 20
135.7448
  0
VERTEX
  8
LAYER_1
 10
187.8748
 20
135.1321
  0
SEQEND
  0
POLYLINE
  8
LAYER_1
 40
0.1058
 41
0.1058
 66
1
 10
0
 20
0
 30
0
  0
VERTEX
  8
LAYER_1
 10
187.8749
 20
134.8495
  0
VERTEX
  8
LAYER_1
 10
187.8276
 20
134.2842
  0
SEQEND
  0
POLYLINE
  8
LAYER_1
 40
0.1058
 41
0.1058
 66
1
 10
0
 20
0
 30
0
  0
VERTEX
  8
LAYER_1
 10
187.8278
 20
133.9542
  0
VERTEX
  8
LAYER_1
 10
187.7805
 20
133.3889
  0
SEQEND
  0
POLYLINE
  8
LAYER_1
 40
0.1058
 41
0.1058
 66
1
 10
0
 20
0
 30
0
  0
VERTEX
  8
LAYER_1
 10
187.7807
 20
133.106
  0
VERTEX
  8
LAYER_1
 10
187.7334
 20
132.776
  0
SEQEND
  0
POLYLINE
  8
LAYER_1
 40
0.1058
 41
0.1058
 66
1
 10
0
 20
0
 30
0
  0
VERTEX
  8
LAYER_1
 10
190.8436
 20
142.0591
  0
VERTEX
  8
LAYER_1
 10
190.8436
 20
141.588
  0
SEQEND
  0
POLYLINE
  8
LAYER_1
 40
0.1058
 41
0.1058
 66
1
 10
0
 20
0
 30
0
  0
VERTEX
  8
LAYER_1
 10
190.7965
 20
141.3052
  0
VERTEX
  8
LAYER_1
 10
190.7965
 20
140.7398
  0
SEQEND
  0
POLYLINE
  8
LAYER_1
 40
0.1058
 41
0.1058
 66
1
 10
0
 20
0
 30
0
  0
VERTEX
  8
LAYER_1
 10
190.7494
 20
140.4099
  0
VERTEX
  8
LAYER_1
 10
190.7494
 20
139.8445
  0
SEQEND
  0
POLYLINE
  8
LAYER_1
 40
0.1058
 41
0.1058
 66
1
 10
0
 20
0
 30
0
  0
VERTEX
  8
LAYER_1
 10
190.7022
 20
139.5617
  0
VERTEX
  8
LAYER_1
 10
190.6549
 20
138.949
  0
SEQEND
  0
POLYLINE
  8
LAYER_1
 40
0.1058
 41
0.1058
 66
1
 10
0
 20
0
 30
0
  0
VERTEX
  8
LAYER_1
 10
190.6551
 20
138.6664
  0
VERTEX
  8
LAYER_1
 10
190.6078
 20
138.101
  0
SEQEND
  0
POLYLINE
  8
LAYER_1
 40
0.1058
 41
0.1058
 66
1
 10
0
 20
0
 30
0
  0
VERTEX
  8
LAYER_1
 10
190.608
 20
137.8182
  0
VERTEX
  8
LAYER_1
 10
190.5607
 20
137.2055
  0
SEQEND
  0
POLYLINE
  8
LAYER_1
 40
0.1058
 41
0.1058
 66
1
 10
0
 20
0
 30
0
  0
VERTEX
  8
LAYER_1
 10
190.5609
 20
136.9229
  0
VERTEX
  8
LAYER_1
 10
190.5136
 20
136.3576
  0
SEQEND
  0
POLYLINE
  8
LAYER_1
 40
0.1058
 41
0.1058
 66
1
 10
0
 20
0
 30
0
  0
VERTEX
  8
LAYER_1
 10
190.5138
 20
136.0275
  0
VERTEX
  8
LAYER_1
 10
190.4664
 20
135.4622
  0
SEQEND
  0
POLYLINE
  8
LAYER_1
 40
0.1058
 41
0.1058
 66
1
 10
0
 20
0
 30
0
  0
VERTEX
  8
LAYER_1
 10
190.4666
 20
135.1793
  0
VERTEX
  8
LAYER_1
 10
190.4193
 20
134.5667
  0
SEQEND
  0
POLYLINE
  8
LAYER_1
 40
0.1058
 41
0.1058
 66
1
 10
0
 20
0
 30
0
  0
VERTEX
  8
LAYER_1
 10
190.4195
 20
134.284
  0
VERTEX
  8
LAYER_1
 10
190.3722
 20
133.7187
  0
SEQEND
  0
POLYLINE
  8
LAYER_1
 40
0.1058
 41
0.1058
 66
1
 10
0
 20
0
 30
0
  0
VERTEX
  8
LAYER_1
 10
190.3724
 20
133.4358
  0
VERTEX
  8
LAYER_1
 10
190.3251
 20
132.8232
  0
SEQEND
  0
POLYLINE
  8
LAYER_1
 40
0.1058
 41
0.1058
 66
1
 10
0
 20
0
 30
0
  0
VERTEX
  8
LAYER_1
 10
190.2782
 20
132.5405
  0
VERTEX
  8
LAYER_1
 10
190.2782
 20
131.9752
  0
SEQEND
  0
POLYLINE
  8
LAYER_1
 40
0.1058
 41
0.1058
 66
1
 10
0
 20
0
 30
0
  0
VERTEX
  8
LAYER_1
 10
190.231
 20
131.6923
  0
VERTEX
  8
LAYER_1
 10
190.231
 20
131.0797
  0
SEQEND
  0
POLYLINE
  8
LAYER_1
 40
0.1058
 41
0.1058
 66
1
 10
0
 20
0
 30
0
  0
VERTEX
  8
LAYER_1
 10
190.1839
 20
130.797
  0
VERTEX
  8
LAYER_1
 10
190.1839
 20
130.3259
  0
SEQEND
  0
POLYLINE
  8
LAYER_1
 40
0.1058
 41
0.1058
 66
1
 10
0
 20
0
 30
0
  0
VERTEX
  8
LAYER_1
 10
190.8436
 20
142.0591
  0
VERTEX
  8
LAYER_1
 10
190.8909
 20
142.2007
  0
VERTEX
  8
LAYER_1
 10
190.9851
 20
142.3418
  0
VERTEX
  8
LAYER_1
 10
191.1263
 20
142.436
  0
VERTEX
  8
LAYER_1
 10
191.3147
 20
142.4833
  0
SEQEND
  0
POLYLINE
  8
LAYER_1
 40
0.1058
 41
0.1058
 66
1
 10
0
 20
0
 30
0
  0
VERTEX
  8
LAYER_1
 10
188.299
 20
143.1429
  0
VERTEX
  8
LAYER_1
 10
188.3933
 20
143.3314
  0
VERTEX
  8
LAYER_1
 10
188.5817
 20
143.4256
  0
SEQEND
  0
POLYLINE
  8
LAYER_1
 40
0.1058
 41
0.1058
 66
1
 10
0
 20
0
 30
0
  0
VERTEX
  8
LAYER_1
 10
173.9269
 20
130.3258
  0
SEQEND
  0
POLYLINE
  8
LAYER_1
 40
0.1058
 41
0.1058
 66
1
 10
0
 20
0
 30
0
  0
VERTEX
  8
LAYER_1
 10
173.9269
 20
130.3258
  0
VERTEX
  8
LAYER_1
 10
173.9269
 20
130.3731
  0
SEQEND
  0
POLYLINE
  8
LAYER_1
 40
0.1058
 41
0.1058
 66
1
 10
0
 20
0
 30
0
  0
VERTEX
  8
LAYER_1
 10
173.9269
 20
130.3729
  0
SEQEND
  0
POLYLINE
  8
LAYER_1
 40
0.1058
 41
0.1058
 66
1
 10
0
 20
0
 30
0
  0
VERTEX
  8
LAYER_1
 10
173.9269
 20
130.3729
  0
VERTEX
  8
LAYER_1
 10
173.8796
 20
130.3729
  0
SEQEND
  0
POLYLINE
  8
LAYER_1
 40
0.1058
 41
0.1058
 66
1
 10
0
 20
0
 30
0
  0
VERTEX
  8
LAYER_1
 10
173.8798
 20
130.3729
  0
SEQEND
  0
POLYLINE
  8
LAYER_1
 40
0.1058
 41
0.1058
 66
1
 10
0
 20
0
 30
0
  0
VERTEX
  8
LAYER_1
 10
173.8798
 20
130.3729
  0
VERTEX
  8
LAYER_1
 10
173.8798
 20
130.4202
  0
SEQEND
  0
POLYLINE
  8
LAYER_1
 40
0.1058
 41
0.1058
 66
1
 10
0
 20
0
 30
0
  0
VERTEX
  8
LAYER_1
 10
173.8798
 20
130.42
  0
SEQEND
  0
POLYLINE
  8
LAYER_1
 40
0.1058
 41
0.1058
 66
1
 10
0
 20
0
 30
0
  0
VERTEX
  8
LAYER_1
 10
173.8798
 20
130.42
  0
SEQEND
  0
POLYLINE
  8
LAYER_1
 40
0.1058
 41
0.1058
 66
1
 10
0
 20
0
 30
0
  0
VERTEX
  8
LAYER_1
 10
173.8798
 20
130.42
  0
VERTEX
  8
LAYER_1
 10
173.8325
 20
130.42
  0
VERTEX
  8
LAYER_1
 10
173.8325
 20
130.4674
  0
SEQEND
  0
POLYLINE
  8
LAYER_1
 40
0.1058
 41
0.1058
 66
1
 10
0
 20
0
 30
0
  0
VERTEX
  8
LAYER_1
 10
173.8326
 20
130.4671
  0
SEQEND
  0
POLYLINE
  8
LAYER_1
 40
0.1058
 41
0.1058
 66
1
 10
0
 20
0
 30
0
  0
VERTEX
  8
LAYER_1
 10
173.8326
 20
130.4671
  0
SEQEND
  0
POLYLINE
  8
LAYER_1
 40
0.1058
 41
0.1058
 66
1
 10
0
 20
0
 30
0
  0
VERTEX
  8
LAYER_1
 10
173.8326
 20
130.4671
  0
SEQEND
  0
POLYLINE
  8
LAYER_1
 40
0.1058
 41
0.1058
 66
1
 10
0
 20
0
 30
0
  0
VERTEX
  8
LAYER_1
 10
173.8326
 20
130.4671
  0
VERTEX
  8
LAYER_1
 10
173.7853
 20
130.4671
  0
VERTEX
  8
LAYER_1
 10
173.7853
 20
130.5145
  0
SEQEND
  0
POLYLINE
  8
LAYER_1
 40
0.1058
 41
0.1058
 66
1
 10
0
 20
0
 30
0
  0
VERTEX
  8
LAYER_1
 10
173.7855
 20
130.5143
  0
SEQEND
  0
POLYLINE
  8
LAYER_1
 40
0.1058
 41
0.1058
 66
1
 10
0
 20
0
 30
0
  0
VERTEX
  8
LAYER_1
 10
173.7855
 20
130.5143
  0
SEQEND
  0
POLYLINE
  8
LAYER_1
 40
0.1058
 41
0.1058
 66
1
 10
0
 20
0
 30
0
  0
VERTEX
  8
LAYER_1
 10
173.7855
 20
130.5143
  0
SEQEND
  0
POLYLINE
  8
LAYER_1
 40
0.1058
 41
0.1058
 66
1
 10
0
 20
0
 30
0
  0
VERTEX
  8
LAYER_1
 10
173.7855
 20
130.5143
  0
VERTEX
  8
LAYER_1
 10
173.7382
 20
130.5143
  0
SEQEND
  0
POLYLINE
  8
LAYER_1
 40
0.1058
 41
0.1058
 66
1
 10
0
 20
0
 30
0
  0
VERTEX
  8
LAYER_1
 10
173.7384
 20
130.5143
  0
SEQEND
  0
POLYLINE
  8
LAYER_1
 40
0.1058
 41
0.1058
 66
1
 10
0
 20
0
 30
0
  0
VERTEX
  8
LAYER_1
 10
173.7384
 20
130.5143
  0
VERTEX
  8
LAYER_1
 10
173.7384
 20
130.5616
  0
SEQEND
  0
POLYLINE
  8
LAYER_1
 40
0.1058
 41
0.1058
 66
1
 10
0
 20
0
 30
0
  0
VERTEX
  8
LAYER_1
 10
173.7384
 20
130.5614
  0
SEQEND
  0
POLYLINE
  8
LAYER_1
 40
0.1058
 41
0.1058
 66
1
 10
0
 20
0
 30
0
  0
VERTEX
  8
LAYER_1
 10
173.7384
 20
130.5614
  0
VERTEX
  8
LAYER_1
 10
173.6911
 20
130.5614
  0
SEQEND
  0
POLYLINE
  8
LAYER_1
 40
0.1058
 41
0.1058
 66
1
 10
0
 20
0
 30
0
  0
VERTEX
  8
LAYER_1
 10
173.6912
 20
130.5614
  0
SEQEND
  0
POLYLINE
  8
LAYER_1
 40
0.1058
 41
0.1058
 66
1
 10
0
 20
0
 30
0
  0
VERTEX
  8
LAYER_1
 10
173.6912
 20
130.5614
  0
SEQEND
  0
POLYLINE
  8
LAYER_1
 40
0.1058
 41
0.1058
 66
1
 10
0
 20
0
 30
0
  0
VERTEX
  8
LAYER_1
 10
173.6912
 20
130.5614
  0
SEQEND
  0
POLYLINE
  8
LAYER_1
 40
0.1058
 41
0.1058
 66
1
 10
0
 20
0
 30
0
  0
VERTEX
  8
LAYER_1
 10
173.6912
 20
130.5614
  0
VERTEX
  8
LAYER_1
 10
173.6439
 20
130.5614
  0
VERTEX
  8
LAYER_1
 10
173.6439
 20
130.6087
  0
SEQEND
  0
POLYLINE
  8
LAYER_1
 40
0.1058
 41
0.1058
 66
1
 10
0
 20
0
 30
0
  0
VERTEX
  8
LAYER_1
 10
173.6441
 20
130.6085
  0
SEQEND
  0
POLYLINE
  8
LAYER_1
 40
0.1058
 41
0.1058
 66
1
 10
0
 20
0
 30
0
  0
VERTEX
  8
LAYER_1
 10
173.6441
 20
130.6085
  0
VERTEX
  8
LAYER_1
 10
173.5968
 20
130.6085
  0
SEQEND
  0
POLYLINE
  8
LAYER_1
 40
0.1058
 41
0.1058
 66
1
 10
0
 20
0
 30
0
  0
VERTEX
  8
LAYER_1
 10
173.597
 20
130.6085
  0
SEQEND
  0
POLYLINE
  8
LAYER_1
 40
0.1058
 41
0.1058
 66
1
 10
0
 20
0
 30
0
  0
VERTEX
  8
LAYER_1
 10
173.597
 20
130.6085
  0
SEQEND
  0
POLYLINE
  8
LAYER_1
 40
0.1058
 41
0.1058
 66
1
 10
0
 20
0
 30
0
  0
VERTEX
  8
LAYER_1
 10
173.597
 20
130.6085
  0
SEQEND
  0
POLYLINE
  8
LAYER_1
 40
0.1058
 41
0.1058
 66
1
 10
0
 20
0
 30
0
  0
VERTEX
  8
LAYER_1
 10
173.597
 20
130.6085
  0
VERTEX
  8
LAYER_1
 10
173.5497
 20
130.6085
  0
SEQEND
  0
POLYLINE
  8
LAYER_1
 40
0.1058
 41
0.1058
 66
1
 10
0
 20
0
 30
0
  0
VERTEX
  8
LAYER_1
 10
173.5499
 20
130.6085
  0
SEQEND
  0
POLYLINE
  8
LAYER_1
 40
0.1058
 41
0.1058
 66
1
 10
0
 20
0
 30
0
  0
VERTEX
  8
LAYER_1
 10
173.5499
 20
130.6085
  0
SEQEND
  0
POLYLINE
  8
LAYER_1
 40
0.1058
 41
0.1058
 66
1
 10
0
 20
0
 30
0
  0
VERTEX
  8
LAYER_1
 10
173.5499
 20
130.6085
  0
SEQEND
  0
POLYLINE
  8
LAYER_1
 40
0.1058
 41
0.1058
 66
1
 10
0
 20
0
 30
0
  0
VERTEX
  8
LAYER_1
 10
173.5499
 20
130.6085
  0
VERTEX
  8
LAYER_1
 10
173.5026
 20
130.6085
  0
SEQEND
  0
POLYLINE
  8
LAYER_1
 40
0.1058
 41
0.1058
 66
1
 10
0
 20
0
 30
0
  0
VERTEX
  8
LAYER_1
 10
173.5028
 20
130.6085
  0
SEQEND
  0
POLYLINE
  8
LAYER_1
 40
0.1058
 41
0.1058
 66
1
 10
0
 20
0
 30
0
  0
VERTEX
  8
LAYER_1
 10
173.5028
 20
130.6085
  0
SEQEND
  0
POLYLINE
  8
LAYER_1
 40
0.1058
 41
0.1058
 66
1
 10
0
 20
0
 30
0
  0
VERTEX
  8
LAYER_1
 10
173.5028
 20
130.6085
  0
SEQEND
  0
POLYLINE
  8
LAYER_1
 40
0.1058
 41
0.1058
 66
1
 10
0
 20
0
 30
0
  0
VERTEX
  8
LAYER_1
 10
173.5028
 20
130.6085
  0
VERTEX
  8
LAYER_1
 10
173.4555
 20
130.6085
  0
SEQEND
  0
POLYLINE
  8
LAYER_1
 40
0.1058
 41
0.1058
 66
1
 10
0
 20
0
 30
0
  0
VERTEX
  8
LAYER_1
 10
173.4557
 20
130.6085
  0
SEQEND
  0
POLYLINE
  8
LAYER_1
 40
0.1058
 41
0.1058
 66
1
 10
0
 20
0
 30
0
  0
VERTEX
  8
LAYER_1
 10
180.0527
 20
131.4096
  0
VERTEX
  8
LAYER_1
 10
180.4296
 20
131.7396
  0
VERTEX
  8
LAYER_1
 10
180.6654
 20
131.8338
  0
SEQEND
  0
POLYLINE
  8
LAYER_1
 40
0.1058
 41
0.1058
 66
1
 10
0
 20
0
 30
0
  0
VERTEX
  8
LAYER_1
 10
179.8171
 20
131.2211
  0
VERTEX
  8
LAYER_1
 10
179.3929
 20
130.8442
  0
SEQEND
  0
POLYLINE
  8
LAYER_1
 40
0.1058
 41
0.1058
 66
1
 10
0
 20
0
 30
0
  0
VERTEX
  8
LAYER_1
 10
173.8798
 20
131.8337
  0
VERTEX
  8
LAYER_1
 10
174.2098
 20
131.7395
  0
VERTEX
  8
LAYER_1
 10
174.5866
 20
131.4095
  0
SEQEND
  0
POLYLINE
  8
LAYER_1
 40
0.1058
 41
0.1058
 66
1
 10
0
 20
0
 30
0
  0
VERTEX
  8
LAYER_1
 10
174.7751
 20
131.174
  0
VERTEX
  8
LAYER_1
 10
175.152
 20
130.844
  0
SEQEND
  0
POLYLINE
  8
LAYER_1
 40
0.1058
 41
0.1058
 66
1
 10
0
 20
0
 30
0
  0
VERTEX
  8
LAYER_1
 10
188.299
 20
143.1429
  0
VERTEX
  8
LAYER_1
 10
188.299
 20
142.5303
  0
SEQEND
  0
POLYLINE
  8
LAYER_1
 40
0.1058
 41
0.1058
 66
1
 10
0
 20
0
 30
0
  0
VERTEX
  8
LAYER_1
 10
188.2519
 20
142.2005
  0
VERTEX
  8
LAYER_1
 10
188.2519
 20
141.5879
  0
SEQEND
  0
POLYLINE
  8
LAYER_1
 40
0.1058
 41
0.1058
 66
1
 10
0
 20
0
 30
0
  0
VERTEX
  8
LAYER_1
 10
160.6385
 20
130.3258
  0
VERTEX
  8
LAYER_1
 10
160.6385
 20
130.75
  0
SEQEND
  0
POLYLINE
  8
LAYER_1
 40
0.1058
 41
0.1058
 66
1
 10
0
 20
0
 30
0
  0
VERTEX
  8
LAYER_1
 10
159.7432
 20
130.3258
  0
VERTEX
  8
LAYER_1
 10
159.7432
 20
130.75
  0
SEQEND
  0
POLYLINE
  8
LAYER_1
 40
0.1058
 41
0.1058
 66
1
 10
0
 20
0
 30
0
  0
VERTEX
  8
LAYER_1
 10
157.4814
 20
144.6037
  0
VERTEX
  8
LAYER_1
 10
157.4814
 20
144.1795
  0
SEQEND
  0
POLYLINE
  8
LAYER_1
 40
0.1058
 41
0.1058
 66
1
 10
0
 20
0
 30
0
  0
VERTEX
  8
LAYER_1
 10
157.5285
 20
143.8969
  0
VERTEX
  8
LAYER_1
 10
157.5285
 20
143.3316
  0
SEQEND
  0
POLYLINE
  8
LAYER_1
 40
0.1058
 41
0.1058
 66
1
 10
0
 20
0
 30
0
  0
VERTEX
  8
LAYER_1
 10
157.5756
 20
143.0487
  0
VERTEX
  8
LAYER_1
 10
157.6229
 20
142.4361
  0
SEQEND
  0
POLYLINE
  8
LAYER_1
 40
0.1058
 41
0.1058
 66
1
 10
0
 20
0
 30
0
  0
VERTEX
  8
LAYER_1
 10
157.6228
 20
142.1534
  0
VERTEX
  8
LAYER_1
 10
157.6701
 20
141.588
  0
SEQEND
  0
POLYLINE
  8
LAYER_1
 40
0.1058
 41
0.1058
 66
1
 10
0
 20
0
 30
0
  0
VERTEX
  8
LAYER_1
 10
157.717
 20
141.258
  0
VERTEX
  8
LAYER_1
 10
157.717
 20
140.6927
  0
SEQEND
  0
POLYLINE
  8
LAYER_1
 40
0.1058
 41
0.1058
 66
1
 10
0
 20
0
 30
0
  0
VERTEX
  8
LAYER_1
 10
157.7641
 20
140.4099
  0
VERTEX
  8
LAYER_1
 10
157.8114
 20
139.7972
  0
SEQEND
  0
POLYLINE
  8
LAYER_1
 40
0.1058
 41
0.1058
 66
1
 10
0
 20
0
 30
0
  0
VERTEX
  8
LAYER_1
 10
157.8112
 20
139.5146
  0
VERTEX
  8
LAYER_1
 10
157.8586
 20
138.9492
  0
SEQEND
  0
POLYLINE
  8
LAYER_1
 40
0.1058
 41
0.1058
 66
1
 10
0
 20
0
 30
0
  0
VERTEX
  8
LAYER_1
 10
157.8584
 20
138.6664
  0
VERTEX
  8
LAYER_1
 10
157.9057
 20
138.0537
  0
SEQEND
  0
POLYLINE
  8
LAYER_1
 40
0.1058
 41
0.1058
 66
1
 10
0
 20
0
 30
0
  0
VERTEX
  8
LAYER_1
 10
157.9526
 20
137.7711
  0
VERTEX
  8
LAYER_1
 10
157.9999
 20
137.2057
  0
SEQEND
  0
POLYLINE
  8
LAYER_1
 40
0.1058
 41
0.1058
 66
1
 10
0
 20
0
 30
0
  0
VERTEX
  8
LAYER_1
 10
157.9997
 20
136.9229
  0
VERTEX
  8
LAYER_1
 10
158.047
 20
136.3102
  0
SEQEND
  0
POLYLINE
  8
LAYER_1
 40
0.1058
 41
0.1058
 66
1
 10
0
 20
0
 30
0
  0
VERTEX
  8
LAYER_1
 10
158.0468
 20
136.0275
  0
VERTEX
  8
LAYER_1
 10
158.0941
 20
135.4622
  0
SEQEND
  0
POLYLINE
  8
LAYER_1
 40
0.1058
 41
0.1058
 66
1
 10
0
 20
0
 30
0
  0
VERTEX
  8
LAYER_1
 10
158.1411
 20
135.1322
  0
VERTEX
  8
LAYER_1
 10
158.1884
 20
134.5669
  0
SEQEND
  0
POLYLINE
  8
LAYER_1
 40
0.1058
 41
0.1058
 66
1
 10
0
 20
0
 30
0
  0
VERTEX
  8
LAYER_1
 10
158.1882
 20
134.284
  0
VERTEX
  8
LAYER_1
 10
158.2355
 20
133.7187
  0
SEQEND
  0
POLYLINE
  8
LAYER_1
 40
0.1058
 41
0.1058
 66
1
 10
0
 20
0
 30
0
  0
VERTEX
  8
LAYER_1
 10
158.2353
 20
133.3887
  0
VERTEX
  8
LAYER_1
 10
158.2826
 20
132.9645
  0
SEQEND
  0
POLYLINE
  8
LAYER_1
 40
0.1058
 41
0.1058
 66
1
 10
0
 20
0
 30
0
  0
VERTEX
  8
LAYER_1
 10
157.1515
 20
135.7919
  0
VERTEX
  8
LAYER_1
 10
157.1988
 20
135.3677
  0
SEQEND
  0
POLYLINE
  8
LAYER_1
 40
0.1058
 41
0.1058
 66
1
 10
0
 20
0
 30
0
  0
VERTEX
  8
LAYER_1
 10
157.1986
 20
135.0851
  0
VERTEX
  8
LAYER_1
 10
157.246
 20
134.4725
  0
SEQEND
  0
POLYLINE
  8
LAYER_1
 40
0.1058
 41
0.1058
 66
1
 10
0
 20
0
 30
0
  0
VERTEX
  8
LAYER_1
 10
157.2929
 20
134.1898
  0
VERTEX
  8
LAYER_1
 10
157.2929
 20
133.6245
  0
SEQEND
  0
POLYLINE
  8
LAYER_1
 40
0.1058
 41
0.1058
 66
1
 10
0
 20
0
 30
0
  0
VERTEX
  8
LAYER_1
 10
157.34
 20
133.3416
  0
VERTEX
  8
LAYER_1
 10
157.34
 20
132.9174
  0
SEQEND
  0
POLYLINE
  8
LAYER_1
 40
0.1058
 41
0.1058
 66
1
 10
0
 20
0
 30
0
  0
VERTEX
  8
LAYER_1
 10
158.7065
 20
132.5405
  0
VERTEX
  8
LAYER_1
 10
158.565
 20
132.5878
  0
VERTEX
  8
LAYER_1
 10
158.4239
 20
132.682
  0
VERTEX
  8
LAYER_1
 10
158.3297
 20
132.8232
  0
VERTEX
  8
LAYER_1
 10
158.2823
 20
132.9647
  0
SEQEND
  0
POLYLINE
  8
LAYER_1
 40
0.1058
 41
0.1058
 66
1
 10
0
 20
0
 30
0
  0
VERTEX
  8
LAYER_1
 10
158.7065
 20
131.6452
  0
VERTEX
  8
LAYER_1
 10
158.4239
 20
131.6452
  0
VERTEX
  8
LAYER_1
 10
158.2823
 20
131.7394
  0
SEQEND
  0
POLYLINE
  8
LAYER_1
 40
0.1058
 41
0.1058
 66
1
 10
0
 20
0
 30
0
  0
VERTEX
  8
LAYER_1
 10
157.9997
 20
131.8808
  0
VERTEX
  8
LAYER_1
 10
157.764
 20
132.0224
  0
VERTEX
  8
LAYER_1
 10
157.6228
 20
132.2577
  0
SEQEND
  0
POLYLINE
  8
LAYER_1
 40
0.1058
 41
0.1058
 66
1
 10
0
 20
0
 30
0
  0
VERTEX
  8
LAYER_1
 10
157.4342
 20
132.4934
  0
VERTEX
  8
LAYER_1
 10
157.3869
 20
132.6818
  0
VERTEX
  8
LAYER_1
 10
157.34
 20
132.9176
  0
SEQEND
  0
POLYLINE
  8
LAYER_1
 40
0.1058
 41
0.1058
 66
1
 10
0
 20
0
 30
0
  0
VERTEX
  8
LAYER_1
 10
173.8798
 20
131.8337
  0
VERTEX
  8
LAYER_1
 10
173.4556
 20
131.8337
  0
SEQEND
  0
POLYLINE
  8
LAYER_1
 40
0.1058
 41
0.1058
 66
1
 10
0
 20
0
 30
0
  0
VERTEX
  8
LAYER_1
 10
173.173
 20
131.8808
  0
VERTEX
  8
LAYER_1
 10
172.5603
 20
131.8808
  0
SEQEND
  0
POLYLINE
  8
LAYER_1
 40
0.1058
 41
0.1058
 66
1
 10
0
 20
0
 30
0
  0
VERTEX
  8
LAYER_1
 10
172.2776
 20
131.8808
  0
VERTEX
  8
LAYER_1
 10
171.7123
 20
131.9281
  0
SEQEND
  0
POLYLINE
  8
LAYER_1
 40
0.1058
 41
0.1058
 66
1
 10
0
 20
0
 30
0
  0
VERTEX
  8
LAYER_1
 10
171.3823
 20
131.9279
  0
VERTEX
  8
LAYER_1
 10
170.817
 20
131.9753
  0
SEQEND
  0
POLYLINE
  8
LAYER_1
 40
0.1058
 41
0.1058
 66
1
 10
0
 20
0
 30
0
  0
VERTEX
  8
LAYER_1
 10
170.5341
 20
131.975
  0
VERTEX
  8
LAYER_1
 10
169.9215
 20
132.0224
  0
SEQEND
  0
POLYLINE
  8
LAYER_1
 40
0.1058
 41
0.1058
 66
1
 10
0
 20
0
 30
0
  0
VERTEX
  8
LAYER_1
 10
169.6388
 20
132.0222
  0
VERTEX
  8
LAYER_1
 10
169.0735
 20
132.0695
  0
SEQEND
  0
POLYLINE
  8
LAYER_1
 40
0.1058
 41
0.1058
 66
1
 10
0
 20
0
 30
0
  0
VERTEX
  8
LAYER_1
 10
168.7906
 20
132.0693
  0
VERTEX
  8
LAYER_1
 10
168.178
 20
132.1166
  0
SEQEND
  0
POLYLINE
  8
LAYER_1
 40
0.1058
 41
0.1058
 66
1
 10
0
 20
0
 30
0
  0
VERTEX
  8
LAYER_1
 10
167.8953
 20
132.1164
  0
VERTEX
  8
LAYER_1
 10
167.33
 20
132.1637
  0
SEQEND
  0
POLYLINE
  8
LAYER_1
 40
0.1058
 41
0.1058
 66
1
 10
0
 20
0
 30
0
  0
VERTEX
  8
LAYER_1
 10
167
 20
132.1635
  0
VERTEX
  8
LAYER_1
 10
166.4347
 20
132.1635
  0
SEQEND
  0
POLYLINE
  8
LAYER_1
 40
0.1058
 41
0.1058
 66
1
 10
0
 20
0
 30
0
  0
VERTEX
  8
LAYER_1
 10
166.1518
 20
132.2107
  0
VERTEX
  8
LAYER_1
 10
165.5865
 20
132.2107
  0
SEQEND
  0
POLYLINE
  8
LAYER_1
 40
0.1058
 41
0.1058
 66
1
 10
0
 20
0
 30
0
  0
VERTEX
  8
LAYER_1
 10
165.2565
 20
132.2578
  0
VERTEX
  8
LAYER_1
 10
164.6912
 20
132.2578
  0
SEQEND
  0
POLYLINE
  8
LAYER_1
 40
0.1058
 41
0.1058
 66
1
 10
0
 20
0
 30
0
  0
VERTEX
  8
LAYER_1
 10
164.4083
 20
132.2578
  0
VERTEX
  8
LAYER_1
 10
163.7957
 20
132.3051
  0
SEQEND
  0
POLYLINE
  8
LAYER_1
 40
0.1058
 41
0.1058
 66
1
 10
0
 20
0
 30
0
  0
VERTEX
  8
LAYER_1
 10
163.513
 20
132.3049
  0
VERTEX
  8
LAYER_1
 10
162.9476
 20
132.3522
  0
SEQEND
  0
POLYLINE
  8
LAYER_1
 40
0.1058
 41
0.1058
 66
1
 10
0
 20
0
 30
0
  0
VERTEX
  8
LAYER_1
 10
162.6648
 20
132.352
  0
VERTEX
  8
LAYER_1
 10
162.0521
 20
132.3993
  0
SEQEND
  0
POLYLINE
  8
LAYER_1
 40
0.1058
 41
0.1058
 66
1
 10
0
 20
0
 30
0
  0
VERTEX
  8
LAYER_1
 10
161.7695
 20
132.3992
  0
VERTEX
  8
LAYER_1
 10
161.2041
 20
132.4465
  0
SEQEND
  0
POLYLINE
  8
LAYER_1
 40
0.1058
 41
0.1058
 66
1
 10
0
 20
0
 30
0
  0
VERTEX
  8
LAYER_1
 10
160.8742
 20
132.4463
  0
VERTEX
  8
LAYER_1
 10
160.3088
 20
132.4936
  0
SEQEND
  0
POLYLINE
  8
LAYER_1
 40
0.1058
 41
0.1058
 66
1
 10
0
 20
0
 30
0
  0
VERTEX
  8
LAYER_1
 10
160.026
 20
132.4934
  0
VERTEX
  8
LAYER_1
 10
159.4133
 20
132.4934
  0
SEQEND
  0
POLYLINE
  8
LAYER_1
 40
0.1058
 41
0.1058
 66
1
 10
0
 20
0
 30
0
  0
VERTEX
  8
LAYER_1
 10
159.1307
 20
132.5405
  0
VERTEX
  8
LAYER_1
 10
158.7065
 20
132.5405
  0
SEQEND
  0
POLYLINE
  8
LAYER_1
 40
0.1058
 41
0.1058
 66
1
 10
0
 20
0
 30
0
  0
VERTEX
  8
LAYER_1
 10
159.9788
 20
131.551
  0
VERTEX
  8
LAYER_1
 10
159.5077
 20
131.5983
  0
SEQEND
  0
POLYLINE
  8
LAYER_1
 40
0.1058
 41
0.1058
 66
1
 10
0
 20
0
 30
0
  0
VERTEX
  8
LAYER_1
 10
159.1778
 20
131.5981
  0
VERTEX
  8
LAYER_1
 10
158.6594
 20
131.6454
  0
SEQEND
  0
POLYLINE
  8
LAYER_1
 40
0.1058
 41
0.1058
 66
1
 10
0
 20
0
 30
0
  0
VERTEX
  8
LAYER_1
 10
160.6385
 20
130.7499
  0
VERTEX
  8
LAYER_1
 10
160.6858
 20
130.9383
  0
VERTEX
  8
LAYER_1
 10
160.78
 20
131.0799
  0
VERTEX
  8
LAYER_1
 10
160.9212
 20
131.1741
  0
VERTEX
  8
LAYER_1
 10
161.1096
 20
131.221
  0
SEQEND
  0
POLYLINE
  8
LAYER_1
 40
0.1058
 41
0.1058
 66
1
 10
0
 20
0
 30
0
  0
VERTEX
  8
LAYER_1
 10
159.7432
 20
130.7499
  0
VERTEX
  8
LAYER_1
 10
159.7905
 20
131.1741
  0
VERTEX
  8
LAYER_1
 10
159.979
 20
131.551
  0
SEQEND
  0
POLYLINE
  8
LAYER_1
 40
0.1058
 41
0.1058
 66
1
 10
0
 20
0
 30
0
  0
VERTEX
  8
LAYER_1
 10
176.3301
 20
130.3258
  0
VERTEX
  8
LAYER_1
 10
176.7543
 20
130.3258
  0
SEQEND
  0
POLYLINE
  8
LAYER_1
 40
0.1058
 41
0.1058
 66
1
 10
0
 20
0
 30
0
  0
VERTEX
  8
LAYER_1
 10
177.0369
 20
130.3258
  0
VERTEX
  8
LAYER_1
 10
177.4611
 20
130.3258
  0
SEQEND
  0
POLYLINE
  8
LAYER_1
 40
0.1058
 41
0.1058
 66
1
 10
0
 20
0
 30
0
  0
VERTEX
  8
LAYER_1
 10
175.152
 20
130.8441
  0
VERTEX
  8
LAYER_1
 10
175.152
 20
130.3257
  0
SEQEND
  0
POLYLINE
  8
LAYER_1
 40
0.1058
 41
0.1058
 66
1
 10
0
 20
0
 30
0
  0
VERTEX
  8
LAYER_1
 10
179.393
 20
130.8441
  0
VERTEX
  8
LAYER_1
 10
179.393
 20
130.3257
  0
SEQEND
  0
POLYLINE
  8
LAYER_1
 40
0.1058
 41
0.1058
 66
1
 10
0
 20
0
 30
0
  0
VERTEX
  8
LAYER_1
 10
175.152
 20
130.3258
  0
VERTEX
  8
LAYER_1
 10
174.6809
 20
130.3258
  0
SEQEND
  0
POLYLINE
  8
LAYER_1
 40
0.1058
 41
0.1058
 66
1
 10
0
 20
0
 30
0
  0
VERTEX
  8
LAYER_1
 10
174.3981
 20
130.3258
  0
VERTEX
  8
LAYER_1
 10
173.927
 20
130.3258
  0
SEQEND
  0
POLYLINE
  8
LAYER_1
 40
0.1058
 41
0.1058
 66
1
 10
0
 20
0
 30
0
  0
VERTEX
  8
LAYER_1
 10
173.4557
 20
130.6085
  0
VERTEX
  8
LAYER_1
 10
173.1257
 20
130.6558
  0
SEQEND
  0
POLYLINE
  8
LAYER_1
 40
0.1058
 41
0.1058
 66
1
 10
0
 20
0
 30
0
  0
VERTEX
  8
LAYER_1
 10
172.8431
 20
130.6556
  0
VERTEX
  8
LAYER_1
 10
172.2305
 20
130.7029
  0
SEQEND
  0
POLYLINE
  8
LAYER_1
 40
0.1058
 41
0.1058
 66
1
 10
0
 20
0
 30
0
  0
VERTEX
  8
LAYER_1
 10
171.9478
 20
130.7028
  0
VERTEX
  8
LAYER_1
 10
171.3824
 20
130.7501
  0
SEQEND
  0
POLYLINE
  8
LAYER_1
 40
0.1058
 41
0.1058
 66
1
 10
0
 20
0
 30
0
  0
VERTEX
  8
LAYER_1
 10
171.0996
 20
130.7499
  0
VERTEX
  8
LAYER_1
 10
170.4869
 20
130.7499
  0
SEQEND
  0
POLYLINE
  8
LAYER_1
 40
0.1058
 41
0.1058
 66
1
 10
0
 20
0
 30
0
  0
VERTEX
  8
LAYER_1
 10
170.2043
 20
130.797
  0
VERTEX
  8
LAYER_1
 10
169.6389
 20
130.797
  0
SEQEND
  0
POLYLINE
  8
LAYER_1
 40
0.1058
 41
0.1058
 66
1
 10
0
 20
0
 30
0
  0
VERTEX
  8
LAYER_1
 10
169.309
 20
130.8441
  0
VERTEX
  8
LAYER_1
 10
168.7436
 20
130.8441
  0
SEQEND
  0
POLYLINE
  8
LAYER_1
 40
0.1058
 41
0.1058
 66
1
 10
0
 20
0
 30
0
  0
VERTEX
  8
LAYER_1
 10
168.4608
 20
130.8441
  0
VERTEX
  8
LAYER_1
 10
167.8481
 20
130.8914
  0
SEQEND
  0
POLYLINE
  8
LAYER_1
 40
0.1058
 41
0.1058
 66
1
 10
0
 20
0
 30
0
  0
VERTEX
  8
LAYER_1
 10
167.5654
 20
130.8913
  0
VERTEX
  8
LAYER_1
 10
167.0001
 20
130.9386
  0
SEQEND
  0
POLYLINE
  8
LAYER_1
 40
0.1058
 41
0.1058
 66
1
 10
0
 20
0
 30
0
  0
VERTEX
  8
LAYER_1
 10
166.7172
 20
130.9384
  0
VERTEX
  8
LAYER_1
 10
166.1046
 20
130.9857
  0
SEQEND
  0
POLYLINE
  8
LAYER_1
 40
0.1058
 41
0.1058
 66
1
 10
0
 20
0
 30
0
  0
VERTEX
  8
LAYER_1
 10
165.8219
 20
130.9855
  0
VERTEX
  8
LAYER_1
 10
165.2566
 20
131.0328
  0
SEQEND
  0
POLYLINE
  8
LAYER_1
 40
0.1058
 41
0.1058
 66
1
 10
0
 20
0
 30
0
  0
VERTEX
  8
LAYER_1
 10
164.9737
 20
131.0326
  0
VERTEX
  8
LAYER_1
 10
164.3611
 20
131.08
  0
SEQEND
  0
POLYLINE
  8
LAYER_1
 40
0.1058
 41
0.1058
 66
1
 10
0
 20
0
 30
0
  0
VERTEX
  8
LAYER_1
 10
164.0784
 20
131.0798
  0
VERTEX
  8
LAYER_1
 10
163.5131
 20
131.0798
  0
SEQEND
  0
POLYLINE
  8
LAYER_1
 40
0.1058
 41
0.1058
 66
1
 10
0
 20
0
 30
0
  0
VERTEX
  8
LAYER_1
 10
163.1831
 20
131.1269
  0
VERTEX
  8
LAYER_1
 10
162.6178
 20
131.1269
  0
SEQEND
  0
POLYLINE
  8
LAYER_1
 40
0.1058
 41
0.1058
 66
1
 10
0
 20
0
 30
0
  0
VERTEX
  8
LAYER_1
 10
162.3349
 20
131.174
  0
VERTEX
  8
LAYER_1
 10
161.7223
 20
131.174
  0
SEQEND
  0
POLYLINE
  8
LAYER_1
 40
0.1058
 41
0.1058
 66
1
 10
0
 20
0
 30
0
  0
VERTEX
  8
LAYER_1
 10
161.4396
 20
131.2211
  0
VERTEX
  8
LAYER_1
 10
161.1096
 20
131.2211
  0
SEQEND
  0
POLYLINE
  8
LAYER_1
 40
0.1058
 41
0.1058
 66
1
 10
0
 20
0
 30
0
  0
VERTEX
  8
LAYER_1
 10
157.2458
 20
130.3258
  0
VERTEX
  8
LAYER_1
 10
157.2458
 20
130.3731
  0
VERTEX
  8
LAYER_1
 10
157.2458
 20
130.5142
  0
VERTEX
  8
LAYER_1
 10
157.2458
 20
130.7027
  0
VERTEX
  8
LAYER_1
 10
157.2458
 20
130.9384
  0
VERTEX
  8
LAYER_1
 10
157.2458
 20
131.0795
  0
SEQEND
  0
POLYLINE
  8
LAYER_1
 40
0.1058
 41
0.1058
 66
1
 10
0
 20
0
 30
0
  0
VERTEX
  8
LAYER_1
 10
157.2458
 20
131.3625
  0
VERTEX
  8
LAYER_1
 10
157.2458
 20
131.6452
  0
VERTEX
  8
LAYER_1
 10
157.1984
 20
131.9278
  0
SEQEND
  0
POLYLINE
  8
LAYER_1
 40
0.1058
 41
0.1058
 66
1
 10
0
 20
0
 30
0
  0
VERTEX
  8
LAYER_1
 10
157.1986
 20
132.2107
  0
VERTEX
  8
LAYER_1
 10
157.1986
 20
132.5407
  0
VERTEX
  8
LAYER_1
 10
157.1986
 20
132.8233
  0
SEQEND
  0
POLYLINE
  8
LAYER_1
 40
0.1058
 41
0.1058
 66
1
 10
0
 20
0
 30
0
  0
VERTEX
  8
LAYER_1
 10
157.1986
 20
133.106
  0
VERTEX
  8
LAYER_1
 10
157.1986
 20
133.5771
  0
VERTEX
  8
LAYER_1
 10
157.1986
 20
133.6713
  0
SEQEND
  0
POLYLINE
  8
LAYER_1
 40
0.1058
 41
0.1058
 66
1
 10
0
 20
0
 30
0
  0
VERTEX
  8
LAYER_1
 10
157.1986
 20
134.0013
  0
VERTEX
  8
LAYER_1
 10
157.1986
 20
134.5666
  0
SEQEND
  0
POLYLINE
  8
LAYER_1
 40
0.1058
 41
0.1058
 66
1
 10
0
 20
0
 30
0
  0
VERTEX
  8
LAYER_1
 10
157.1515
 20
134.8495
  0
VERTEX
  8
LAYER_1
 10
157.1515
 20
135.4621
  0
SEQEND
  0
POLYLINE
  8
LAYER_1
 40
0.1058
 41
0.1058
 66
1
 10
0
 20
0
 30
0
  0
VERTEX
  8
LAYER_1
 10
157.1515
 20
135.7448
  0
VERTEX
  8
LAYER_1
 10
157.1515
 20
136.3101
  0
SEQEND
  0
POLYLINE
  8
LAYER_1
 40
0.1058
 41
0.1058
 66
1
 10
0
 20
0
 30
0
  0
VERTEX
  8
LAYER_1
 10
157.1515
 20
136.593
  0
VERTEX
  8
LAYER_1
 10
157.1515
 20
137.3467
  0
SEQEND
  0
POLYLINE
  8
LAYER_1
 40
0.1058
 41
0.1058
 66
1
 10
0
 20
0
 30
0
  0
VERTEX
  8
LAYER_1
 10
62.4367
 20
144.5094
  0
SEQEND
  0
POLYLINE
  8
LAYER_1
 40
0.1058
 41
0.1058
 66
1
 10
0
 20
0
 30
0
  0
VERTEX
  8
LAYER_1
 10
62.4838
 20
143.6613
  0
VERTEX
  8
LAYER_1
 10
62.4369
 20
144.5092
  0
VERTEX
  8
LAYER_1
 10
62.3423
 20
144.6981
  0
VERTEX
  8
LAYER_1
 10
62.1539
 20
144.7923
  0
SEQEND
  0
POLYLINE
  8
LAYER_1
 40
0.1058
 41
0.1058
 66
1
 10
0
 20
0
 30
0
  0
VERTEX
  8
LAYER_1
 10
83.3588
 20
131.8337
  0
VERTEX
  8
LAYER_1
 10
82.8877
 20
131.881
  0
SEQEND
  0
POLYLINE
  8
LAYER_1
 40
0.1058
 41
0.1058
 66
1
 10
0
 20
0
 30
0
  0
VERTEX
  8
LAYER_1
 10
82.5577
 20
131.8808
  0
VERTEX
  8
LAYER_1
 10
81.9924
 20
131.8808
  0
SEQEND
  0
POLYLINE
  8
LAYER_1
 40
0.1058
 41
0.1058
 66
1
 10
0
 20
0
 30
0
  0
VERTEX
  8
LAYER_1
 10
81.7095
 20
131.9279
  0
VERTEX
  8
LAYER_1
 10
81.0969
 20
131.9279
  0
SEQEND
  0
POLYLINE
  8
LAYER_1
 40
0.1058
 41
0.1058
 66
1
 10
0
 20
0
 30
0
  0
VERTEX
  8
LAYER_1
 10
80.8142
 20
131.9279
  0
VERTEX
  8
LAYER_1
 10
80.2489
 20
131.9753
  0
SEQEND
  0
POLYLINE
  8
LAYER_1
 40
0.1058
 41
0.1058
 66
1
 10
0
 20
0
 30
0
  0
VERTEX
  8
LAYER_1
 10
79.966
 20
131.975
  0
VERTEX
  8
LAYER_1
 10
79.3534
 20
131.975
  0
SEQEND
  0
POLYLINE
  8
LAYER_1
 40
0.1058
 41
0.1058
 66
1
 10
0
 20
0
 30
0
  0
VERTEX
  8
LAYER_1
 10
79.0707
 20
132.0222
  0
VERTEX
  8
LAYER_1
 10
78.5054
 20
132.0222
  0
SEQEND
  0
POLYLINE
  8
LAYER_1
 40
0.1058
 41
0.1058
 66
1
 10
0
 20
0
 30
0
  0
VERTEX
  8
LAYER_1
 10
78.2225
 20
132.0222
  0
VERTEX
  8
LAYER_1
 10
77.6099
 20
132.0695
  0
SEQEND
  0
POLYLINE
  8
LAYER_1
 40
0.1058
 41
0.1058
 66
1
 10
0
 20
0
 30
0
  0
VERTEX
  8
LAYER_1
 10
77.3272
 20
132.0693
  0
VERTEX
  8
LAYER_1
 10
76.7619
 20
132.1166
  0
SEQEND
  0
POLYLINE
  8
LAYER_1
 40
0.1058
 41
0.1058
 66
1
 10
0
 20
0
 30
0
  0
VERTEX
  8
LAYER_1
 10
76.4319
 20
132.1164
  0
VERTEX
  8
LAYER_1
 10
75.8666
 20
132.1164
  0
SEQEND
  0
POLYLINE
  8
LAYER_1
 40
0.1058
 41
0.1058
 66
1
 10
0
 20
0
 30
0
  0
VERTEX
  8
LAYER_1
 10
75.5837
 20
132.1164
  0
VERTEX
  8
LAYER_1
 10
74.971
 20
132.1637
  0
SEQEND
  0
POLYLINE
  8
LAYER_1
 40
0.1058
 41
0.1058
 66
1
 10
0
 20
0
 30
0
  0
VERTEX
  8
LAYER_1
 10
74.6884
 20
132.1635
  0
VERTEX
  8
LAYER_1
 10
74.123
 20
132.2108
  0
SEQEND
  0
POLYLINE
  8
LAYER_1
 40
0.1058
 41
0.1058
 66
1
 10
0
 20
0
 30
0
  0
VERTEX
  8
LAYER_1
 10
73.8402
 20
132.2107
  0
VERTEX
  8
LAYER_1
 10
73.2275
 20
132.2107
  0
SEQEND
  0
POLYLINE
  8
LAYER_1
 40
0.1058
 41
0.1058
 66
1
 10
0
 20
0
 30
0
  0
VERTEX
  8
LAYER_1
 10
72.9449
 20
132.2578
  0
VERTEX
  8
LAYER_1
 10
72.3795
 20
132.2578
  0
SEQEND
  0
POLYLINE
  8
LAYER_1
 40
0.1058
 41
0.1058
 66
1
 10
0
 20
0
 30
0
  0
VERTEX
  8
LAYER_1
 10
72.0496
 20
132.2578
  0
VERTEX
  8
LAYER_1
 10
71.4842
 20
132.3051
  0
SEQEND
  0
POLYLINE
  8
LAYER_1
 40
0.1058
 41
0.1058
 66
1
 10
0
 20
0
 30
0
  0
VERTEX
  8
LAYER_1
 10
71.2013
 20
132.3049
  0
VERTEX
  8
LAYER_1
 10
70.5887
 20
132.3049
  0
SEQEND
  0
POLYLINE
  8
LAYER_1
 40
0.1058
 41
0.1058
 66
1
 10
0
 20
0
 30
0
  0
VERTEX
  8
LAYER_1
 10
70.306
 20
132.352
  0
VERTEX
  8
LAYER_1
 10
69.7407
 20
132.352
  0
SEQEND
  0
POLYLINE
  8
LAYER_1
 40
0.1058
 41
0.1058
 66
1
 10
0
 20
0
 30
0
  0
VERTEX
  8
LAYER_1
 10
69.4578
 20
132.352
  0
VERTEX
  8
LAYER_1
 10
68.8452
 20
132.3993
  0
SEQEND
  0
POLYLINE
  8
LAYER_1
 40
0.1058
 41
0.1058
 66
1
 10
0
 20
0
 30
0
  0
VERTEX
  8
LAYER_1
 10
68.5625
 20
132.3992
  0
VERTEX
  8
LAYER_1
 10
67.9972
 20
132.3992
  0
SEQEND
  0
POLYLINE
  8
LAYER_1
 40
0.1058
 41
0.1058
 66
1
 10
0
 20
0
 30
0
  0
VERTEX
  8
LAYER_1
 10
67.6672
 20
132.4463
  0
VERTEX
  8
LAYER_1
 10
67.1019
 20
132.4463
  0
SEQEND
  0
POLYLINE
  8
LAYER_1
 40
0.1058
 41
0.1058
 66
1
 10
0
 20
0
 30
0
  0
VERTEX
  8
LAYER_1
 10
66.819
 20
132.4463
  0
VERTEX
  8
LAYER_1
 10
66.2064
 20
132.4936
  0
SEQEND
  0
POLYLINE
  8
LAYER_1
 40
0.1058
 41
0.1058
 66
1
 10
0
 20
0
 30
0
  0
VERTEX
  8
LAYER_1
 10
65.9237
 20
132.4934
  0
VERTEX
  8
LAYER_1
 10
65.3584
 20
132.4934
  0
SEQEND
  0
POLYLINE
  8
LAYER_1
 40
0.1058
 41
0.1058
 66
1
 10
0
 20
0
 30
0
  0
VERTEX
  8
LAYER_1
 10
65.0755
 20
132.5405
  0
VERTEX
  8
LAYER_1
 10
64.4629
 20
132.5405
  0
SEQEND
  0
POLYLINE
  8
LAYER_1
 40
0.1058
 41
0.1058
 66
1
 10
0
 20
0
 30
0
  0
VERTEX
  8
LAYER_1
 10
64.1802
 20
132.5405
  0
VERTEX
  8
LAYER_1
 10
63.7091
 20
132.5878
  0
SEQEND
  0
POLYLINE
  8
LAYER_1
 40
0.1058
 41
0.1058
 66
1
 10
0
 20
0
 30
0
  0
VERTEX
  8
LAYER_1
 10
83.3117
 20
130.9384
  0
VERTEX
  8
LAYER_1
 10
82.8406
 20
130.9384
  0
SEQEND
  0
POLYLINE
  8
LAYER_1
 40
0.1058
 41
0.1058
 66
1
 10
0
 20
0
 30
0
  0
VERTEX
  8
LAYER_1
 10
82.5577
 20
130.9384
  0
VERTEX
  8
LAYER_1
 10
81.9924
 20
130.9857
  0
SEQEND
  0
POLYLINE
  8
LAYER_1
 40
0.1058
 41
0.1058
 66
1
 10
0
 20
0
 30
0
  0
VERTEX
  8
LAYER_1
 10
81.6624
 20
130.9855
  0
VERTEX
  8
LAYER_1
 10
81.0971
 20
131.0328
  0
SEQEND
  0
POLYLINE
  8
LAYER_1
 40
0.1058
 41
0.1058
 66
1
 10
0
 20
0
 30
0
  0
VERTEX
  8
LAYER_1
 10
80.8142
 20
131.0326
  0
VERTEX
  8
LAYER_1
 10
80.2016
 20
131.0326
  0
SEQEND
  0
POLYLINE
  8
LAYER_1
 40
0.1058
 41
0.1058
 66
1
 10
0
 20
0
 30
0
  0
VERTEX
  8
LAYER_1
 10
79.9189
 20
131.0798
  0
VERTEX
  8
LAYER_1
 10
79.3536
 20
131.0798
  0
SEQEND
  0
POLYLINE
  8
LAYER_1
 40
0.1058
 41
0.1058
 66
1
 10
0
 20
0
 30
0
  0
VERTEX
  8
LAYER_1
 10
79.0707
 20
131.0798
  0
VERTEX
  8
LAYER_1
 10
78.4581
 20
131.1271
  0
SEQEND
  0
POLYLINE
  8
LAYER_1
 40
0.1058
 41
0.1058
 66
1
 10
0
 20
0
 30
0
  0
VERTEX
  8
LAYER_1
 10
78.1754
 20
131.1269
  0
VERTEX
  8
LAYER_1
 10
77.6101
 20
131.1269
  0
SEQEND
  0
POLYLINE
  8
LAYER_1
 40
0.1058
 41
0.1058
 66
1
 10
0
 20
0
 30
0
  0
VERTEX
  8
LAYER_1
 10
77.2801
 20
131.174
  0
VERTEX
  8
LAYER_1
 10
76.7147
 20
131.174
  0
SEQEND
  0
POLYLINE
  8
LAYER_1
 40
0.1058
 41
0.1058
 66
1
 10
0
 20
0
 30
0
  0
VERTEX
  8
LAYER_1
 10
76.4319
 20
131.174
  0
VERTEX
  8
LAYER_1
 10
75.8193
 20
131.2213
  0
SEQEND
  0
POLYLINE
  8
LAYER_1
 40
0.1058
 41
0.1058
 66
1
 10
0
 20
0
 30
0
  0
VERTEX
  8
LAYER_1
 10
75.5366
 20
131.2211
  0
VERTEX
  8
LAYER_1
 10
74.9712
 20
131.2211
  0
SEQEND
  0
POLYLINE
  8
LAYER_1
 40
0.1058
 41
0.1058
 66
1
 10
0
 20
0
 30
0
  0
VERTEX
  8
LAYER_1
 10
74.6884
 20
131.2682
  0
VERTEX
  8
LAYER_1
 10
74.0757
 20
131.2682
  0
SEQEND
  0
POLYLINE
  8
LAYER_1
 40
0.1058
 41
0.1058
 66
1
 10
0
 20
0
 30
0
  0
VERTEX
  8
LAYER_1
 10
73.7931
 20
131.2682
  0
VERTEX
  8
LAYER_1
 10
73.2277
 20
131.3156
  0
SEQEND
  0
POLYLINE
  8
LAYER_1
 40
0.1058
 41
0.1058
 66
1
 10
0
 20
0
 30
0
  0
VERTEX
  8
LAYER_1
 10
72.8977
 20
131.3153
  0
VERTEX
  8
LAYER_1
 10
72.3324
 20
131.3153
  0
SEQEND
  0
POLYLINE
  8
LAYER_1
 40
0.1058
 41
0.1058
 66
1
 10
0
 20
0
 30
0
  0
VERTEX
  8
LAYER_1
 10
72.0496
 20
131.3625
  0
VERTEX
  8
LAYER_1
 10
71.4369
 20
131.3625
  0
SEQEND
  0
POLYLINE
  8
LAYER_1
 40
0.1058
 41
0.1058
 66
1
 10
0
 20
0
 30
0
  0
VERTEX
  8
LAYER_1
 10
71.1542
 20
131.3625
  0
VERTEX
  8
LAYER_1
 10
70.5889
 20
131.4098
  0
SEQEND
  0
POLYLINE
  8
LAYER_1
 40
0.1058
 41
0.1058
 66
1
 10
0
 20
0
 30
0
  0
VERTEX
  8
LAYER_1
 10
70.306
 20
131.4096
  0
VERTEX
  8
LAYER_1
 10
69.6934
 20
131.4569
  0
SEQEND
  0
POLYLINE
  8
LAYER_1
 40
0.1058
 41
0.1058
 66
1
 10
0
 20
0
 30
0
  0
VERTEX
  8
LAYER_1
 10
69.4107
 20
131.4567
  0
VERTEX
  8
LAYER_1
 10
68.8454
 20
131.4567
  0
SEQEND
  0
POLYLINE
  8
LAYER_1
 40
0.1058
 41
0.1058
 66
1
 10
0
 20
0
 30
0
  0
VERTEX
  8
LAYER_1
 10
68.5154
 20
131.4567
  0
VERTEX
  8
LAYER_1
 10
67.9501
 20
131.504
  0
SEQEND
  0
POLYLINE
  8
LAYER_1
 40
0.1058
 41
0.1058
 66
1
 10
0
 20
0
 30
0
  0
VERTEX
  8
LAYER_1
 10
67.6672
 20
131.5038
  0
VERTEX
  8
LAYER_1
 10
67.0546
 20
131.5511
  0
SEQEND
  0
POLYLINE
  8
LAYER_1
 40
0.1058
 41
0.1058
 66
1
 10
0
 20
0
 30
0
  0
VERTEX
  8
LAYER_1
 10
66.7719
 20
131.551
  0
VERTEX
  8
LAYER_1
 10
66.2066
 20
131.551
  0
SEQEND
  0
POLYLINE
  8
LAYER_1
 40
0.1058
 41
0.1058
 66
1
 10
0
 20
0
 30
0
  0
VERTEX
  8
LAYER_1
 10
65.9237
 20
131.551
  0
VERTEX
  8
LAYER_1
 10
65.3111
 20
131.5983
  0
SEQEND
  0
POLYLINE
  8
LAYER_1
 40
0.1058
 41
0.1058
 66
1
 10
0
 20
0
 30
0
  0
VERTEX
  8
LAYER_1
 10
65.0284
 20
131.5981
  0
VERTEX
  8
LAYER_1
 10
64.4631
 20
131.6454
  0
SEQEND
  0
POLYLINE
  8
LAYER_1
 40
0.1058
 41
0.1058
 66
1
 10
0
 20
0
 30
0
  0
VERTEX
  8
LAYER_1
 10
64.1331
 20
131.6452
  0
VERTEX
  8
LAYER_1
 10
63.662
 20
131.6452
  0
SEQEND
  0
POLYLINE
  8
LAYER_1
 40
0.1058
 41
0.1058
 66
1
 10
0
 20
0
 30
0
  0
VERTEX
  8
LAYER_1
 10
63.2378
 20
133.0117
  0
VERTEX
  8
LAYER_1
 10
63.2851
 20
132.8233
  0
VERTEX
  8
LAYER_1
 10
63.3793
 20
132.6817
  0
VERTEX
  8
LAYER_1
 10
63.5204
 20
132.6348
  0
VERTEX
  8
LAYER_1
 10
63.7089
 20
132.5875
  0
SEQEND
  0
POLYLINE
  8
LAYER_1
 40
0.1058
 41
0.1058
 66
1
 10
0
 20
0
 30
0
  0
VERTEX
  8
LAYER_1
 10
62.3425
 20
132.9646
  0
VERTEX
  8
LAYER_1
 10
62.3898
 20
132.682
  0
VERTEX
  8
LAYER_1
 10
62.4367
 20
132.5404
  0
SEQEND
  0
POLYLINE
  8
LAYER_1
 40
0.1058
 41
0.1058
 66
1
 10
0
 20
0
 30
0
  0
VERTEX
  8
LAYER_1
 10
62.578
 20
132.2578
  0
VERTEX
  8
LAYER_1
 10
62.7665
 20
132.022
  0
VERTEX
  8
LAYER_1
 10
63.0022
 20
131.8809
  0
SEQEND
  0
POLYLINE
  8
LAYER_1
 40
0.1058
 41
0.1058
 66
1
 10
0
 20
0
 30
0
  0
VERTEX
  8
LAYER_1
 10
63.2378
 20
131.7395
  0
VERTEX
  8
LAYER_1
 10
63.4262
 20
131.6921
  0
VERTEX
  8
LAYER_1
 10
63.662
 20
131.6452
  0
SEQEND
  0
POLYLINE
  8
LAYER_1
 40
0.1058
 41
0.1058
 66
1
 10
0
 20
0
 30
0
  0
VERTEX
  8
LAYER_1
 10
62.4838
 20
143.6613
  0
VERTEX
  8
LAYER_1
 10
62.4838
 20
143.2844
  0
SEQEND
  0
POLYLINE
  8
LAYER_1
 40
0.1058
 41
0.1058
 66
1
 10
0
 20
0
 30
0
  0
VERTEX
  8
LAYER_1
 10
62.5309
 20
143.0015
  0
VERTEX
  8
LAYER_1
 10
62.5783
 20
142.4362
  0
SEQEND
  0
POLYLINE
  8
LAYER_1
 40
0.1058
 41
0.1058
 66
1
 10
0
 20
0
 30
0
  0
VERTEX
  8
LAYER_1
 10
62.578
 20
142.1062
  0
VERTEX
  8
LAYER_1
 10
62.6254
 20
141.5409
  0
SEQEND
  0
POLYLINE
  8
LAYER_1
 40
0.1058
 41
0.1058
 66
1
 10
0
 20
0
 30
0
  0
VERTEX
  8
LAYER_1
 10
62.6723
 20
141.258
  0
VERTEX
  8
LAYER_1
 10
62.6723
 20
140.6454
  0
SEQEND
  0
POLYLINE
  8
LAYER_1
 40
0.1058
 41
0.1058
 66
1
 10
0
 20
0
 30
0
  0
VERTEX
  8
LAYER_1
 10
62.7194
 20
140.3627
  0
VERTEX
  8
LAYER_1
 10
62.7667
 20
139.7974
  0
SEQEND
  0
POLYLINE
  8
LAYER_1
 40
0.1058
 41
0.1058
 66
1
 10
0
 20
0
 30
0
  0
VERTEX
  8
LAYER_1
 10
62.7665
 20
139.5146
  0
VERTEX
  8
LAYER_1
 10
62.8138
 20
138.9019
  0
SEQEND
  0
POLYLINE
  8
LAYER_1
 40
0.1058
 41
0.1058
 66
1
 10
0
 20
0
 30
0
  0
VERTEX
  8
LAYER_1
 10
62.8608
 20
138.6193
  0
VERTEX
  8
LAYER_1
 10
62.8608
 20
138.0539
  0
SEQEND
  0
POLYLINE
  8
LAYER_1
 40
0.1058
 41
0.1058
 66
1
 10
0
 20
0
 30
0
  0
VERTEX
  8
LAYER_1
 10
62.9079
 20
137.7711
  0
VERTEX
  8
LAYER_1
 10
62.9553
 20
137.1584
  0
SEQEND
  0
POLYLINE
  8
LAYER_1
 40
0.1058
 41
0.1058
 66
1
 10
0
 20
0
 30
0
  0
VERTEX
  8
LAYER_1
 10
62.9551
 20
136.8757
  0
VERTEX
  8
LAYER_1
 10
63.002
 20
136.3104
  0
SEQEND
  0
POLYLINE
  8
LAYER_1
 40
0.1058
 41
0.1058
 66
1
 10
0
 20
0
 30
0
  0
VERTEX
  8
LAYER_1
 10
63.0493
 20
135.9804
  0
VERTEX
  8
LAYER_1
 10
63.0493
 20
135.4151
  0
SEQEND
  0
POLYLINE
  8
LAYER_1
 40
0.1058
 41
0.1058
 66
1
 10
0
 20
0
 30
0
  0
VERTEX
  8
LAYER_1
 10
63.0964
 20
135.1322
  0
VERTEX
  8
LAYER_1
 10
63.1437
 20
134.5669
  0
SEQEND
  0
POLYLINE
  8
LAYER_1
 40
0.1058
 41
0.1058
 66
1
 10
0
 20
0
 30
0
  0
VERTEX
  8
LAYER_1
 10
63.1435
 20
134.2369
  0
VERTEX
  8
LAYER_1
 10
63.1909
 20
133.6716
  0
SEQEND
  0
POLYLINE
  8
LAYER_1
 40
0.1058
 41
0.1058
 66
1
 10
0
 20
0
 30
0
  0
VERTEX
  8
LAYER_1
 10
63.2378
 20
133.3887
  0
VERTEX
  8
LAYER_1
 10
63.2378
 20
133.0118
  0
SEQEND
  0
POLYLINE
  8
LAYER_1
 40
0.1058
 41
0.1058
 66
1
 10
0
 20
0
 30
0
  0
VERTEX
  8
LAYER_1
 10
62.2011
 20
130.3258
  0
VERTEX
  8
LAYER_1
 10
62.2011
 20
130.6558
  0
SEQEND
  0
POLYLINE
  8
LAYER_1
 40
0.1058
 41
0.1058
 66
1
 10
0
 20
0
 30
0
  0
VERTEX
  8
LAYER_1
 10
62.2011
 20
130.9384
  0
VERTEX
  8
LAYER_1
 10
62.1538
 20
131.5037
  0
SEQEND
  0
POLYLINE
  8
LAYER_1
 40
0.1058
 41
0.1058
 66
1
 10
0
 20
0
 30
0
  0
VERTEX
  8
LAYER_1
 10
62.154
 20
131.7866
  0
VERTEX
  8
LAYER_1
 10
62.154
 20
132.3992
  0
SEQEND
  0
POLYLINE
  8
LAYER_1
 40
0.1058
 41
0.1058
 66
1
 10
0
 20
0
 30
0
  0
VERTEX
  8
LAYER_1
 10
62.154
 20
132.6819
  0
VERTEX
  8
LAYER_1
 10
62.154
 20
133.2472
  0
SEQEND
  0
POLYLINE
  8
LAYER_1
 40
0.1058
 41
0.1058
 66
1
 10
0
 20
0
 30
0
  0
VERTEX
  8
LAYER_1
 10
62.1069
 20
133.5772
  0
VERTEX
  8
LAYER_1
 10
62.1069
 20
134.1425
  0
SEQEND
  0
POLYLINE
  8
LAYER_1
 40
0.1058
 41
0.1058
 66
1
 10
0
 20
0
 30
0
  0
VERTEX
  8
LAYER_1
 10
62.1069
 20
134.4254
  0
VERTEX
  8
LAYER_1
 10
62.1069
 20
135.0381
  0
SEQEND
  0
POLYLINE
  8
LAYER_1
 40
0.1058
 41
0.1058
 66
1
 10
0
 20
0
 30
0
  0
VERTEX
  8
LAYER_1
 10
62.1069
 20
135.3207
  0
VERTEX
  8
LAYER_1
 10
62.1069
 20
135.886
  0
SEQEND
  0
POLYLINE
  8
LAYER_1
 40
0.1058
 41
0.1058
 66
1
 10
0
 20
0
 30
0
  0
VERTEX
  8
LAYER_1
 10
62.0597
 20
136.1689
  0
VERTEX
  8
LAYER_1
 10
62.0597
 20
136.4989
  0
VERTEX
  8
LAYER_1
 10
62.107
 20
136.1689
  0
SEQEND
  0
POLYLINE
  8
LAYER_1
 40
0.1058
 41
0.1058
 66
1
 10
0
 20
0
 30
0
  0
VERTEX
  8
LAYER_1
 10
62.1069
 20
135.8862
  0
VERTEX
  8
LAYER_1
 10
62.1542
 20
135.3208
  0
SEQEND
  0
POLYLINE
  8
LAYER_1
 40
0.1058
 41
0.1058
 66
1
 10
0
 20
0
 30
0
  0
VERTEX
  8
LAYER_1
 10
62.2011
 20
134.9909
  0
VERTEX
  8
LAYER_1
 10
62.2011
 20
134.4255
  0
SEQEND
  0
POLYLINE
  8
LAYER_1
 40
0.1058
 41
0.1058
 66
1
 10
0
 20
0
 30
0
  0
VERTEX
  8
LAYER_1
 10
62.2482
 20
134.1427
  0
VERTEX
  8
LAYER_1
 10
62.2955
 20
133.53
  0
SEQEND
  0
POLYLINE
  8
LAYER_1
 40
0.1058
 41
0.1058
 66
1
 10
0
 20
0
 30
0
  0
VERTEX
  8
LAYER_1
 10
62.2953
 20
133.2474
  0
VERTEX
  8
LAYER_1
 10
62.3427
 20
132.9174
  0
SEQEND
  0
POLYLINE
  8
LAYER_1
 40
0.1058
 41
0.1058
 66
1
 10
0
 20
0
 30
0
  0
VERTEX
  8
LAYER_1
 10
137.5017
 20
143.4257
  0
VERTEX
  8
LAYER_1
 10
137.1717
 20
143.4257
  0
SEQEND
  0
POLYLINE
  8
LAYER_1
 40
0.1058
 41
0.1058
 66
1
 10
0
 20
0
 30
0
  0
VERTEX
  8
LAYER_1
 10
136.8891
 20
143.4257
  0
VERTEX
  8
LAYER_1
 10
136.3238
 20
143.4257
  0
SEQEND
  0
POLYLINE
  8
LAYER_1
 40
0.1058
 41
0.1058
 66
1
 10
0
 20
0
 30
0
  0
VERTEX
  8
LAYER_1
 10
135.9939
 20
143.4257
  0
VERTEX
  8
LAYER_1
 10
135.4285
 20
143.4257
  0
SEQEND
  0
POLYLINE
  8
LAYER_1
 40
0.1058
 41
0.1058
 66
1
 10
0
 20
0
 30
0
  0
VERTEX
  8
LAYER_1
 10
135.1457
 20
143.4257
  0
VERTEX
  8
LAYER_1
 10
134.533
 20
143.4257
  0
SEQEND
  0
POLYLINE
  8
LAYER_1
 40
0.1058
 41
0.1058
 66
1
 10
0
 20
0
 30
0
  0
VERTEX
  8
LAYER_1
 10
134.2503
 20
143.4257
  0
VERTEX
  8
LAYER_1
 10
133.685
 20
143.4257
  0
SEQEND
  0
POLYLINE
  8
LAYER_1
 40
0.1058
 41
0.1058
 66
1
 10
0
 20
0
 30
0
  0
VERTEX
  8
LAYER_1
 10
133.4021
 20
143.4257
  0
VERTEX
  8
LAYER_1
 10
132.7895
 20
143.4257
  0
SEQEND
  0
POLYLINE
  8
LAYER_1
 40
0.1058
 41
0.1058
 66
1
 10
0
 20
0
 30
0
  0
VERTEX
  8
LAYER_1
 10
132.5068
 20
143.4257
  0
VERTEX
  8
LAYER_1
 10
131.9415
 20
143.4257
  0
SEQEND
  0
POLYLINE
  8
LAYER_1
 40
0.1058
 41
0.1058
 66
1
 10
0
 20
0
 30
0
  0
VERTEX
  8
LAYER_1
 10
131.6115
 20
143.4257
  0
VERTEX
  8
LAYER_1
 10
131.0462
 20
143.4257
  0
SEQEND
  0
POLYLINE
  8
LAYER_1
 40
0.1058
 41
0.1058
 66
1
 10
0
 20
0
 30
0
  0
VERTEX
  8
LAYER_1
 10
130.7633
 20
143.4257
  0
VERTEX
  8
LAYER_1
 10
130.1507
 20
143.4257
  0
SEQEND
  0
POLYLINE
  8
LAYER_1
 40
0.1058
 41
0.1058
 66
1
 10
0
 20
0
 30
0
  0
VERTEX
  8
LAYER_1
 10
129.868
 20
143.4257
  0
VERTEX
  8
LAYER_1
 10
129.3027
 20
143.4257
  0
SEQEND
  0
POLYLINE
  8
LAYER_1
 40
0.1058
 41
0.1058
 66
1
 10
0
 20
0
 30
0
  0
VERTEX
  8
LAYER_1
 10
129.0198
 20
143.4257
  0
VERTEX
  8
LAYER_1
 10
128.4071
 20
143.4257
  0
SEQEND
  0
POLYLINE
  8
LAYER_1
 40
0.1058
 41
0.1058
 66
1
 10
0
 20
0
 30
0
  0
VERTEX
  8
LAYER_1
 10
128.1245
 20
143.4257
  0
VERTEX
  8
LAYER_1
 10
127.5592
 20
143.4257
  0
SEQEND
  0
POLYLINE
  8
LAYER_1
 40
0.1058
 41
0.1058
 66
1
 10
0
 20
0
 30
0
  0
VERTEX
  8
LAYER_1
 10
127.2292
 20
143.4257
  0
VERTEX
  8
LAYER_1
 10
126.6639
 20
143.4257
  0
SEQEND
  0
POLYLINE
  8
LAYER_1
 40
0.1058
 41
0.1058
 66
1
 10
0
 20
0
 30
0
  0
VERTEX
  8
LAYER_1
 10
126.381
 20
143.4257
  0
VERTEX
  8
LAYER_1
 10
125.7683
 20
143.4257
  0
SEQEND
  0
POLYLINE
  8
LAYER_1
 40
0.1058
 41
0.1058
 66
1
 10
0
 20
0
 30
0
  0
VERTEX
  8
LAYER_1
 10
125.4857
 20
143.4257
  0
VERTEX
  8
LAYER_1
 10
124.9204
 20
143.4257
  0
SEQEND
  0
POLYLINE
  8
LAYER_1
 40
0.1058
 41
0.1058
 66
1
 10
0
 20
0
 30
0
  0
VERTEX
  8
LAYER_1
 10
124.6375
 20
143.4257
  0
VERTEX
  8
LAYER_1
 10
124.0249
 20
143.4257
  0
SEQEND
  0
POLYLINE
  8
LAYER_1
 40
0.1058
 41
0.1058
 66
1
 10
0
 20
0
 30
0
  0
VERTEX
  8
LAYER_1
 10
123.7422
 20
143.4257
  0
VERTEX
  8
LAYER_1
 10
123.1768
 20
143.4257
  0
SEQEND
  0
POLYLINE
  8
LAYER_1
 40
0.1058
 41
0.1058
 66
1
 10
0
 20
0
 30
0
  0
VERTEX
  8
LAYER_1
 10
122.8469
 20
143.4257
  0
VERTEX
  8
LAYER_1
 10
122.2815
 20
143.4257
  0
SEQEND
  0
POLYLINE
  8
LAYER_1
 40
0.1058
 41
0.1058
 66
1
 10
0
 20
0
 30
0
  0
VERTEX
  8
LAYER_1
 10
121.9987
 20
143.4257
  0
VERTEX
  8
LAYER_1
 10
121.386
 20
143.4257
  0
SEQEND
  0
POLYLINE
  8
LAYER_1
 40
0.1058
 41
0.1058
 66
1
 10
0
 20
0
 30
0
  0
VERTEX
  8
LAYER_1
 10
121.1034
 20
143.4257
  0
VERTEX
  8
LAYER_1
 10
120.538
 20
143.4257
  0
SEQEND
  0
POLYLINE
  8
LAYER_1
 40
0.1058
 41
0.1058
 66
1
 10
0
 20
0
 30
0
  0
VERTEX
  8
LAYER_1
 10
120.2552
 20
143.4257
  0
VERTEX
  8
LAYER_1
 10
119.6425
 20
143.4257
  0
SEQEND
  0
POLYLINE
  8
LAYER_1
 40
0.1058
 41
0.1058
 66
1
 10
0
 20
0
 30
0
  0
VERTEX
  8
LAYER_1
 10
119.3598
 20
143.4257
  0
VERTEX
  8
LAYER_1
 10
118.7945
 20
143.4257
  0
SEQEND
  0
POLYLINE
  8
LAYER_1
 40
0.1058
 41
0.1058
 66
1
 10
0
 20
0
 30
0
  0
VERTEX
  8
LAYER_1
 10
118.4645
 20
143.4257
  0
VERTEX
  8
LAYER_1
 10
117.8992
 20
143.4257
  0
SEQEND
  0
POLYLINE
  8
LAYER_1
 40
0.1058
 41
0.1058
 66
1
 10
0
 20
0
 30
0
  0
VERTEX
  8
LAYER_1
 10
117.6163
 20
143.4257
  0
VERTEX
  8
LAYER_1
 10
117.0037
 20
143.4257
  0
SEQEND
  0
POLYLINE
  8
LAYER_1
 40
0.1058
 41
0.1058
 66
1
 10
0
 20
0
 30
0
  0
VERTEX
  8
LAYER_1
 10
116.721
 20
143.4257
  0
VERTEX
  8
LAYER_1
 10
116.1557
 20
143.4257
  0
SEQEND
  0
POLYLINE
  8
LAYER_1
 40
0.1058
 41
0.1058
 66
1
 10
0
 20
0
 30
0
  0
VERTEX
  8
LAYER_1
 10
115.8257
 20
143.4257
  0
VERTEX
  8
LAYER_1
 10
115.2604
 20
143.4257
  0
SEQEND
  0
POLYLINE
  8
LAYER_1
 40
0.1058
 41
0.1058
 66
1
 10
0
 20
0
 30
0
  0
VERTEX
  8
LAYER_1
 10
114.9775
 20
143.4257
  0
VERTEX
  8
LAYER_1
 10
114.3649
 20
143.4257
  0
SEQEND
  0
POLYLINE
  8
LAYER_1
 40
0.1058
 41
0.1058
 66
1
 10
0
 20
0
 30
0
  0
VERTEX
  8
LAYER_1
 10
114.0822
 20
143.4257
  0
VERTEX
  8
LAYER_1
 10
113.5169
 20
143.4257
  0
SEQEND
  0
POLYLINE
  8
LAYER_1
 40
0.1058
 41
0.1058
 66
1
 10
0
 20
0
 30
0
  0
VERTEX
  8
LAYER_1
 10
113.234
 20
143.4257
  0
VERTEX
  8
LAYER_1
 10
112.6214
 20
143.4257
  0
SEQEND
  0
POLYLINE
  8
LAYER_1
 40
0.1058
 41
0.1058
 66
1
 10
0
 20
0
 30
0
  0
VERTEX
  8
LAYER_1
 10
112.3387
 20
143.4257
  0
VERTEX
  8
LAYER_1
 10
111.7734
 20
143.4257
  0
SEQEND
  0
POLYLINE
  8
LAYER_1
 40
0.1058
 41
0.1058
 66
1
 10
0
 20
0
 30
0
  0
VERTEX
  8
LAYER_1
 10
111.4434
 20
143.4257
  0
VERTEX
  8
LAYER_1
 10
111.1607
 20
143.4257
  0
SEQEND
  0
POLYLINE
  8
LAYER_1
 40
0.1058
 41
0.1058
 66
1
 10
0
 20
0
 30
0
  0
VERTEX
  8
LAYER_1
 10
138.0201
 20
130.3258
  0
VERTEX
  8
LAYER_1
 10
138.0674
 20
131.0326
  0
SEQEND
  0
POLYLINE
  8
LAYER_1
 40
0.1058
 41
0.1058
 66
1
 10
0
 20
0
 30
0
  0
VERTEX
  8
LAYER_1
 10
138.0672
 20
131.3153
  0
VERTEX
  8
LAYER_1
 10
138.0672
 20
131.8807
  0
SEQEND
  0
POLYLINE
  8
LAYER_1
 40
0.1058
 41
0.1058
 66
1
 10
0
 20
0
 30
0
  0
VERTEX
  8
LAYER_1
 10
138.0672
 20
132.1635
  0
VERTEX
  8
LAYER_1
 10
138.0672
 20
132.7762
  0
SEQEND
  0
POLYLINE
  8
LAYER_1
 40
0.1058
 41
0.1058
 66
1
 10
0
 20
0
 30
0
  0
VERTEX
  8
LAYER_1
 10
138.0672
 20
133.0589
  0
VERTEX
  8
LAYER_1
 10
138.1145
 20
133.6242
  0
SEQEND
  0
POLYLINE
  8
LAYER_1
 40
0.1058
 41
0.1058
 66
1
 10
0
 20
0
 30
0
  0
VERTEX
  8
LAYER_1
 10
138.1143
 20
133.9542
  0
VERTEX
  8
LAYER_1
 10
138.1143
 20
134.5195
  0
SEQEND
  0
POLYLINE
  8
LAYER_1
 40
0.1058
 41
0.1058
 66
1
 10
0
 20
0
 30
0
  0
VERTEX
  8
LAYER_1
 10
138.1143
 20
134.8024
  0
VERTEX
  8
LAYER_1
 10
138.1143
 20
135.415
  0
SEQEND
  0
POLYLINE
  8
LAYER_1
 40
0.1058
 41
0.1058
 66
1
 10
0
 20
0
 30
0
  0
VERTEX
  8
LAYER_1
 10
138.1614
 20
135.6977
  0
VERTEX
  8
LAYER_1
 10
138.1614
 20
136.263
  0
SEQEND
  0
POLYLINE
  8
LAYER_1
 40
0.1058
 41
0.1058
 66
1
 10
0
 20
0
 30
0
  0
VERTEX
  8
LAYER_1
 10
138.1614
 20
136.5459
  0
VERTEX
  8
LAYER_1
 10
138.1614
 20
137.1585
  0
SEQEND
  0
POLYLINE
  8
LAYER_1
 40
0.1058
 41
0.1058
 66
1
 10
0
 20
0
 30
0
  0
VERTEX
  8
LAYER_1
 10
138.1614
 20
137.4412
  0
VERTEX
  8
LAYER_1
 10
138.2087
 20
138.0065
  0
SEQEND
  0
POLYLINE
  8
LAYER_1
 40
0.1058
 41
0.1058
 66
1
 10
0
 20
0
 30
0
  0
VERTEX
  8
LAYER_1
 10
138.2086
 20
138.3365
  0
VERTEX
  8
LAYER_1
 10
138.2086
 20
138.9018
  0
SEQEND
  0
POLYLINE
  8
LAYER_1
 40
0.1058
 41
0.1058
 66
1
 10
0
 20
0
 30
0
  0
VERTEX
  8
LAYER_1
 10
138.2086
 20
139.1847
  0
VERTEX
  8
LAYER_1
 10
138.2086
 20
139.7973
  0
SEQEND
  0
POLYLINE
  8
LAYER_1
 40
0.1058
 41
0.1058
 66
1
 10
0
 20
0
 30
0
  0
VERTEX
  8
LAYER_1
 10
138.2086
 20
140.08
  0
VERTEX
  8
LAYER_1
 10
138.2559
 20
140.6453
  0
SEQEND
  0
POLYLINE
  8
LAYER_1
 40
0.1058
 41
0.1058
 66
1
 10
0
 20
0
 30
0
  0
VERTEX
  8
LAYER_1
 10
138.2557
 20
140.9282
  0
VERTEX
  8
LAYER_1
 10
138.2557
 20
141.5408
  0
SEQEND
  0
POLYLINE
  8
LAYER_1
 40
0.1058
 41
0.1058
 66
1
 10
0
 20
0
 30
0
  0
VERTEX
  8
LAYER_1
 10
138.2557
 20
141.8235
  0
VERTEX
  8
LAYER_1
 10
138.2557
 20
142.483
  0
VERTEX
  8
LAYER_1
 10
137.8788
 20
142.483
  0
SEQEND
  0
POLYLINE
  8
LAYER_1
 40
0.1058
 41
0.1058
 66
1
 10
0
 20
0
 30
0
  0
VERTEX
  8
LAYER_1
 10
137.596
 20
142.4832
  0
VERTEX
  8
LAYER_1
 10
136.9833
 20
142.4832
  0
SEQEND
  0
POLYLINE
  8
LAYER_1
 40
0.1058
 41
0.1058
 66
1
 10
0
 20
0
 30
0
  0
VERTEX
  8
LAYER_1
 10
136.7007
 20
142.4832
  0
VERTEX
  8
LAYER_1
 10
136.1353
 20
142.4832
  0
SEQEND
  0
POLYLINE
  8
LAYER_1
 40
0.1058
 41
0.1058
 66
1
 10
0
 20
0
 30
0
  0
VERTEX
  8
LAYER_1
 10
135.8525
 20
142.4832
  0
VERTEX
  8
LAYER_1
 10
135.2398
 20
142.4832
  0
SEQEND
  0
POLYLINE
  8
LAYER_1
 40
0.1058
 41
0.1058
 66
1
 10
0
 20
0
 30
0
  0
VERTEX
  8
LAYER_1
 10
134.9572
 20
142.4832
  0
VERTEX
  8
LAYER_1
 10
134.3919
 20
142.4832
  0
SEQEND
  0
POLYLINE
  8
LAYER_1
 40
0.1058
 41
0.1058
 66
1
 10
0
 20
0
 30
0
  0
VERTEX
  8
LAYER_1
 10
134.0618
 20
142.4832
  0
VERTEX
  8
LAYER_1
 10
133.4965
 20
142.4832
  0
SEQEND
  0
POLYLINE
  8
LAYER_1
 40
0.1058
 41
0.1058
 66
1
 10
0
 20
0
 30
0
  0
VERTEX
  8
LAYER_1
 10
133.2136
 20
142.4832
  0
VERTEX
  8
LAYER_1
 10
132.601
 20
142.4832
  0
SEQEND
  0
POLYLINE
  8
LAYER_1
 40
0.1058
 41
0.1058
 66
1
 10
0
 20
0
 30
0
  0
VERTEX
  8
LAYER_1
 10
132.3183
 20
142.4832
  0
VERTEX
  8
LAYER_1
 10
131.753
 20
142.4832
  0
SEQEND
  0
POLYLINE
  8
LAYER_1
 40
0.1058
 41
0.1058
 66
1
 10
0
 20
0
 30
0
  0
VERTEX
  8
LAYER_1
 10
131.4702
 20
142.4832
  0
VERTEX
  8
LAYER_1
 10
130.8575
 20
142.4832
  0
SEQEND
  0
POLYLINE
  8
LAYER_1
 40
0.1058
 41
0.1058
 66
1
 10
0
 20
0
 30
0
  0
VERTEX
  8
LAYER_1
 10
130.5748
 20
142.4832
  0
VERTEX
  8
LAYER_1
 10
130.0095
 20
142.4832
  0
SEQEND
  0
POLYLINE
  8
LAYER_1
 40
0.1058
 41
0.1058
 66
1
 10
0
 20
0
 30
0
  0
VERTEX
  8
LAYER_1
 10
129.6795
 20
142.4832
  0
VERTEX
  8
LAYER_1
 10
129.1142
 20
142.4832
  0
SEQEND
  0
POLYLINE
  8
LAYER_1
 40
0.1058
 41
0.1058
 66
1
 10
0
 20
0
 30
0
  0
VERTEX
  8
LAYER_1
 10
128.8313
 20
142.4832
  0
VERTEX
  8
LAYER_1
 10
128.2187
 20
142.4832
  0
SEQEND
  0
POLYLINE
  8
LAYER_1
 40
0.1058
 41
0.1058
 66
1
 10
0
 20
0
 30
0
  0
VERTEX
  8
LAYER_1
 10
127.936
 20
142.4832
  0
VERTEX
  8
LAYER_1
 10
127.3707
 20
142.4832
  0
SEQEND
  0
POLYLINE
  8
LAYER_1
 40
0.1058
 41
0.1058
 66
1
 10
0
 20
0
 30
0
  0
VERTEX
  8
LAYER_1
 10
127.0878
 20
142.4832
  0
VERTEX
  8
LAYER_1
 10
126.4752
 20
142.4832
  0
SEQEND
  0
POLYLINE
  8
LAYER_1
 40
0.1058
 41
0.1058
 66
1
 10
0
 20
0
 30
0
  0
VERTEX
  8
LAYER_1
 10
126.1925
 20
142.4832
  0
VERTEX
  8
LAYER_1
 10
125.6272
 20
142.4832
  0
SEQEND
  0
POLYLINE
  8
LAYER_1
 40
0.1058
 41
0.1058
 66
1
 10
0
 20
0
 30
0
  0
VERTEX
  8
LAYER_1
 10
125.2972
 20
142.4832
  0
VERTEX
  8
LAYER_1
 10
124.7319
 20
142.4832
  0
SEQEND
  0
POLYLINE
  8
LAYER_1
 40
0.1058
 41
0.1058
 66
1
 10
0
 20
0
 30
0
  0
VERTEX
  8
LAYER_1
 10
124.449
 20
142.4832
  0
VERTEX
  8
LAYER_1
 10
123.8363
 20
142.4832
  0
SEQEND
  0
POLYLINE
  8
LAYER_1
 40
0.1058
 41
0.1058
 66
1
 10
0
 20
0
 30
0
  0
VERTEX
  8
LAYER_1
 10
123.5537
 20
142.4832
  0
VERTEX
  8
LAYER_1
 10
122.9884
 20
142.4832
  0
SEQEND
  0
POLYLINE
  8
LAYER_1
 40
0.1058
 41
0.1058
 66
1
 10
0
 20
0
 30
0
  0
VERTEX
  8
LAYER_1
 10
122.7055
 20
142.4832
  0
VERTEX
  8
LAYER_1
 10
122.0928
 20
142.4832
  0
SEQEND
  0
POLYLINE
  8
LAYER_1
 40
0.1058
 41
0.1058
 66
1
 10
0
 20
0
 30
0
  0
VERTEX
  8
LAYER_1
 10
121.8102
 20
142.4832
  0
VERTEX
  8
LAYER_1
 10
121.1975
 20
142.4832
  0
SEQEND
  0
POLYLINE
  8
LAYER_1
 40
0.1058
 41
0.1058
 66
1
 10
0
 20
0
 30
0
  0
VERTEX
  8
LAYER_1
 10
120.9148
 20
142.4832
  0
VERTEX
  8
LAYER_1
 10
120.3495
 20
142.4832
  0
SEQEND
  0
POLYLINE
  8
LAYER_1
 40
0.1058
 41
0.1058
 66
1
 10
0
 20
0
 30
0
  0
VERTEX
  8
LAYER_1
 10
120.0666
 20
142.4832
  0
VERTEX
  8
LAYER_1
 10
119.454
 20
142.4832
  0
SEQEND
  0
POLYLINE
  8
LAYER_1
 40
0.1058
 41
0.1058
 66
1
 10
0
 20
0
 30
0
  0
VERTEX
  8
LAYER_1
 10
119.1713
 20
142.4832
  0
VERTEX
  8
LAYER_1
 10
118.606
 20
142.4832
  0
SEQEND
  0
POLYLINE
  8
LAYER_1
 40
0.1058
 41
0.1058
 66
1
 10
0
 20
0
 30
0
  0
VERTEX
  8
LAYER_1
 10
118.276
 20
142.4832
  0
VERTEX
  8
LAYER_1
 10
117.7107
 20
142.4832
  0
SEQEND
  0
POLYLINE
  8
LAYER_1
 40
0.1058
 41
0.1058
 66
1
 10
0
 20
0
 30
0
  0
VERTEX
  8
LAYER_1
 10
117.4279
 20
142.4832
  0
VERTEX
  8
LAYER_1
 10
116.8152
 20
142.4832
  0
SEQEND
  0
POLYLINE
  8
LAYER_1
 40
0.1058
 41
0.1058
 66
1
 10
0
 20
0
 30
0
  0
VERTEX
  8
LAYER_1
 10
116.5325
 20
142.4832
  0
VERTEX
  8
LAYER_1
 10
115.9672
 20
142.4832
  0
SEQEND
  0
POLYLINE
  8
LAYER_1
 40
0.1058
 41
0.1058
 66
1
 10
0
 20
0
 30
0
  0
VERTEX
  8
LAYER_1
 10
115.6844
 20
142.4832
  0
VERTEX
  8
LAYER_1
 10
115.0717
 20
142.4832
  0
SEQEND
  0
POLYLINE
  8
LAYER_1
 40
0.1058
 41
0.1058
 66
1
 10
0
 20
0
 30
0
  0
VERTEX
  8
LAYER_1
 10
114.789
 20
142.4832
  0
VERTEX
  8
LAYER_1
 10
114.2237
 20
142.4832
  0
SEQEND
  0
POLYLINE
  8
LAYER_1
 40
0.1058
 41
0.1058
 66
1
 10
0
 20
0
 30
0
  0
VERTEX
  8
LAYER_1
 10
113.8937
 20
142.4832
  0
VERTEX
  8
LAYER_1
 10
113.3284
 20
142.4832
  0
SEQEND
  0
POLYLINE
  8
LAYER_1
 40
0.1058
 41
0.1058
 66
1
 10
0
 20
0
 30
0
  0
VERTEX
  8
LAYER_1
 10
113.0455
 20
142.4832
  0
VERTEX
  8
LAYER_1
 10
112.4329
 20
142.4832
  0
SEQEND
  0
POLYLINE
  8
LAYER_1
 40
0.1058
 41
0.1058
 66
1
 10
0
 20
0
 30
0
  0
VERTEX
  8
LAYER_1
 10
112.1502
 20
142.4832
  0
VERTEX
  8
LAYER_1
 10
111.7733
 20
142.4832
  0
VERTEX
  8
LAYER_1
 10
111.7733
 20
142.1063
  0
SEQEND
  0
POLYLINE
  8
LAYER_1
 40
0.1058
 41
0.1058
 66
1
 10
0
 20
0
 30
0
  0
VERTEX
  8
LAYER_1
 10
111.7261
 20
141.8235
  0
VERTEX
  8
LAYER_1
 10
111.7261
 20
141.2582
  0
SEQEND
  0
POLYLINE
  8
LAYER_1
 40
0.1058
 41
0.1058
 66
1
 10
0
 20
0
 30
0
  0
VERTEX
  8
LAYER_1
 10
111.679
 20
140.9753
  0
VERTEX
  8
LAYER_1
 10
111.6317
 20
140.3627
  0
SEQEND
  0
POLYLINE
  8
LAYER_1
 40
0.1058
 41
0.1058
 66
1
 10
0
 20
0
 30
0
  0
VERTEX
  8
LAYER_1
 10
111.6319
 20
140.08
  0
VERTEX
  8
LAYER_1
 10
111.5846
 20
139.5147
  0
SEQEND
  0
POLYLINE
  8
LAYER_1
 40
0.1058
 41
0.1058
 66
1
 10
0
 20
0
 30
0
  0
VERTEX
  8
LAYER_1
 10
111.5847
 20
139.1847
  0
VERTEX
  8
LAYER_1
 10
111.5374
 20
138.6194
  0
SEQEND
  0
POLYLINE
  8
LAYER_1
 40
0.1058
 41
0.1058
 66
1
 10
0
 20
0
 30
0
  0
VERTEX
  8
LAYER_1
 10
111.5376
 20
138.3365
  0
VERTEX
  8
LAYER_1
 10
111.4903
 20
137.7712
  0
SEQEND
  0
POLYLINE
  8
LAYER_1
 40
0.1058
 41
0.1058
 66
1
 10
0
 20
0
 30
0
  0
VERTEX
  8
LAYER_1
 10
111.4905
 20
137.4412
  0
VERTEX
  8
LAYER_1
 10
111.4432
 20
136.8759
  0
SEQEND
  0
POLYLINE
  8
LAYER_1
 40
0.1058
 41
0.1058
 66
1
 10
0
 20
0
 30
0
  0
VERTEX
  8
LAYER_1
 10
111.4434
 20
136.593
  0
VERTEX
  8
LAYER_1
 10
111.396
 20
135.9803
  0
SEQEND
  0
POLYLINE
  8
LAYER_1
 40
0.1058
 41
0.1058
 66
1
 10
0
 20
0
 30
0
  0
VERTEX
  8
LAYER_1
 10
111.3962
 20
135.6977
  0
VERTEX
  8
LAYER_1
 10
111.3489
 20
135.1324
  0
SEQEND
  0
POLYLINE
  8
LAYER_1
 40
0.1058
 41
0.1058
 66
1
 10
0
 20
0
 30
0
  0
VERTEX
  8
LAYER_1
 10
111.3491
 20
134.8495
  0
VERTEX
  8
LAYER_1
 10
111.3018
 20
134.2368
  0
SEQEND
  0
POLYLINE
  8
LAYER_1
 40
0.1058
 41
0.1058
 66
1
 10
0
 20
0
 30
0
  0
VERTEX
  8
LAYER_1
 10
111.302
 20
133.9542
  0
VERTEX
  8
LAYER_1
 10
111.2547
 20
133.3889
  0
SEQEND
  0
POLYLINE
  8
LAYER_1
 40
0.1058
 41
0.1058
 66
1
 10
0
 20
0
 30
0
  0
VERTEX
  8
LAYER_1
 10
111.2549
 20
133.0589
  0
VERTEX
  8
LAYER_1
 10
111.2549
 20
132.7289
  0
SEQEND
  0
POLYLINE
  8
LAYER_1
 40
0.1058
 41
0.1058
 66
1
 10
0
 20
0
 30
0
  0
VERTEX
  8
LAYER_1
 10
90.1915
 20
131.8337
  0
VERTEX
  8
LAYER_1
 10
90.6626
 20
131.881
  0
SEQEND
  0
POLYLINE
  8
LAYER_1
 40
0.1058
 41
0.1058
 66
1
 10
0
 20
0
 30
0
  0
VERTEX
  8
LAYER_1
 10
90.9454
 20
131.8808
  0
VERTEX
  8
LAYER_1
 10
91.558
 20
131.8808
  0
SEQEND
  0
POLYLINE
  8
LAYER_1
 40
0.1058
 41
0.1058
 66
1
 10
0
 20
0
 30
0
  0
VERTEX
  8
LAYER_1
 10
91.8407
 20
131.8808
  0
VERTEX
  8
LAYER_1
 10
92.406
 20
131.9281
  0
SEQEND
  0
POLYLINE
  8
LAYER_1
 40
0.1058
 41
0.1058
 66
1
 10
0
 20
0
 30
0
  0
VERTEX
  8
LAYER_1
 10
92.736
 20
131.9279
  0
VERTEX
  8
LAYER_1
 10
93.3014
 20
131.9279
  0
SEQEND
  0
POLYLINE
  8
LAYER_1
 40
0.1058
 41
0.1058
 66
1
 10
0
 20
0
 30
0
  0
VERTEX
  8
LAYER_1
 10
93.5842
 20
131.9279
  0
VERTEX
  8
LAYER_1
 10
94.1969
 20
131.9279
  0
SEQEND
  0
POLYLINE
  8
LAYER_1
 40
0.1058
 41
0.1058
 66
1
 10
0
 20
0
 30
0
  0
VERTEX
  8
LAYER_1
 10
94.4795
 20
131.975
  0
VERTEX
  8
LAYER_1
 10
95.0448
 20
131.975
  0
SEQEND
  0
POLYLINE
  8
LAYER_1
 40
0.1058
 41
0.1058
 66
1
 10
0
 20
0
 30
0
  0
VERTEX
  8
LAYER_1
 10
95.3277
 20
131.975
  0
VERTEX
  8
LAYER_1
 10
95.9404
 20
131.975
  0
SEQEND
  0
POLYLINE
  8
LAYER_1
 40
0.1058
 41
0.1058
 66
1
 10
0
 20
0
 30
0
  0
VERTEX
  8
LAYER_1
 10
96.2231
 20
132.0222
  0
VERTEX
  8
LAYER_1
 10
96.7884
 20
132.0222
  0
SEQEND
  0
POLYLINE
  8
LAYER_1
 40
0.1058
 41
0.1058
 66
1
 10
0
 20
0
 30
0
  0
VERTEX
  8
LAYER_1
 10
97.1184
 20
132.0222
  0
VERTEX
  8
LAYER_1
 10
97.6837
 20
132.0222
  0
SEQEND
  0
POLYLINE
  8
LAYER_1
 40
0.1058
 41
0.1058
 66
1
 10
0
 20
0
 30
0
  0
VERTEX
  8
LAYER_1
 10
97.9666
 20
132.0222
  0
VERTEX
  8
LAYER_1
 10
98.5792
 20
132.0695
  0
SEQEND
  0
POLYLINE
  8
LAYER_1
 40
0.1058
 41
0.1058
 66
1
 10
0
 20
0
 30
0
  0
VERTEX
  8
LAYER_1
 10
98.8619
 20
132.0693
  0
VERTEX
  8
LAYER_1
 10
99.4272
 20
132.0693
  0
SEQEND
  0
POLYLINE
  8
LAYER_1
 40
0.1058
 41
0.1058
 66
1
 10
0
 20
0
 30
0
  0
VERTEX
  8
LAYER_1
 10
99.71
 20
132.0693
  0
VERTEX
  8
LAYER_1
 10
100.3227
 20
132.1166
  0
SEQEND
  0
POLYLINE
  8
LAYER_1
 40
0.1058
 41
0.1058
 66
1
 10
0
 20
0
 30
0
  0
VERTEX
  8
LAYER_1
 10
100.6053
 20
132.1164
  0
VERTEX
  8
LAYER_1
 10
101.1707
 20
132.1164
  0
SEQEND
  0
POLYLINE
  8
LAYER_1
 40
0.1058
 41
0.1058
 66
1
 10
0
 20
0
 30
0
  0
VERTEX
  8
LAYER_1
 10
101.5007
 20
132.1164
  0
VERTEX
  8
LAYER_1
 10
102.066
 20
132.1637
  0
SEQEND
  0
POLYLINE
  8
LAYER_1
 40
0.1058
 41
0.1058
 66
1
 10
0
 20
0
 30
0
  0
VERTEX
  8
LAYER_1
 10
102.3489
 20
132.1635
  0
VERTEX
  8
LAYER_1
 10
102.9615
 20
132.1635
  0
SEQEND
  0
POLYLINE
  8
LAYER_1
 40
0.1058
 41
0.1058
 66
1
 10
0
 20
0
 30
0
  0
VERTEX
  8
LAYER_1
 10
103.2442
 20
132.1635
  0
VERTEX
  8
LAYER_1
 10
103.8095
 20
132.1635
  0
SEQEND
  0
POLYLINE
  8
LAYER_1
 40
0.1058
 41
0.1058
 66
1
 10
0
 20
0
 30
0
  0
VERTEX
  8
LAYER_1
 10
104.0924
 20
132.2107
  0
VERTEX
  8
LAYER_1
 10
104.705
 20
132.2107
  0
SEQEND
  0
POLYLINE
  8
LAYER_1
 40
0.1058
 41
0.1058
 66
1
 10
0
 20
0
 30
0
  0
VERTEX
  8
LAYER_1
 10
104.9877
 20
132.2107
  0
VERTEX
  8
LAYER_1
 10
105.553
 20
132.2107
  0
SEQEND
  0
POLYLINE
  8
LAYER_1
 40
0.1058
 41
0.1058
 66
1
 10
0
 20
0
 30
0
  0
VERTEX
  8
LAYER_1
 10
105.883
 20
132.2578
  0
VERTEX
  8
LAYER_1
 10
106.4483
 20
132.2578
  0
SEQEND
  0
POLYLINE
  8
LAYER_1
 40
0.1058
 41
0.1058
 66
1
 10
0
 20
0
 30
0
  0
VERTEX
  8
LAYER_1
 10
106.7312
 20
132.2578
  0
VERTEX
  8
LAYER_1
 10
107.3438
 20
132.2578
  0
SEQEND
  0
POLYLINE
  8
LAYER_1
 40
0.1058
 41
0.1058
 66
1
 10
0
 20
0
 30
0
  0
VERTEX
  8
LAYER_1
 10
107.6265
 20
132.2578
  0
VERTEX
  8
LAYER_1
 10
108.1918
 20
132.3051
  0
SEQEND
  0
POLYLINE
  8
LAYER_1
 40
0.1058
 41
0.1058
 66
1
 10
0
 20
0
 30
0
  0
VERTEX
  8
LAYER_1
 10
108.4747
 20
132.3049
  0
VERTEX
  8
LAYER_1
 10
109.0873
 20
132.3049
  0
SEQEND
  0
POLYLINE
  8
LAYER_1
 40
0.1058
 41
0.1058
 66
1
 10
0
 20
0
 30
0
  0
VERTEX
  8
LAYER_1
 10
109.37
 20
132.3049
  0
VERTEX
  8
LAYER_1
 10
109.8884
 20
132.3522
  0
SEQEND
  0
POLYLINE
  8
LAYER_1
 40
0.1058
 41
0.1058
 66
1
 10
0
 20
0
 30
0
  0
VERTEX
  8
LAYER_1
 10
90.4742
 20
130.9384
  0
VERTEX
  8
LAYER_1
 10
90.8042
 20
130.9384
  0
SEQEND
  0
POLYLINE
  8
LAYER_1
 40
0.1058
 41
0.1058
 66
1
 10
0
 20
0
 30
0
  0
VERTEX
  8
LAYER_1
 10
91.1339
 20
130.9384
  0
VERTEX
  8
LAYER_1
 10
91.6992
 20
130.9384
  0
SEQEND
  0
POLYLINE
  8
LAYER_1
 40
0.1058
 41
0.1058
 66
1
 10
0
 20
0
 30
0
  0
VERTEX
  8
LAYER_1
 10
91.9821
 20
130.9855
  0
VERTEX
  8
LAYER_1
 10
92.5947
 20
130.9855
  0
SEQEND
  0
POLYLINE
  8
LAYER_1
 40
0.1058
 41
0.1058
 66
1
 10
0
 20
0
 30
0
  0
VERTEX
  8
LAYER_1
 10
92.8774
 20
130.9855
  0
VERTEX
  8
LAYER_1
 10
93.4427
 20
130.9855
  0
SEQEND
  0
POLYLINE
  8
LAYER_1
 40
0.1058
 41
0.1058
 66
1
 10
0
 20
0
 30
0
  0
VERTEX
  8
LAYER_1
 10
93.7256
 20
130.9855
  0
VERTEX
  8
LAYER_1
 10
94.3382
 20
131.0328
  0
SEQEND
  0
POLYLINE
  8
LAYER_1
 40
0.1058
 41
0.1058
 66
1
 10
0
 20
0
 30
0
  0
VERTEX
  8
LAYER_1
 10
94.6209
 20
131.0326
  0
VERTEX
  8
LAYER_1
 10
95.1862
 20
131.0326
  0
SEQEND
  0
POLYLINE
  8
LAYER_1
 40
0.1058
 41
0.1058
 66
1
 10
0
 20
0
 30
0
  0
VERTEX
  8
LAYER_1
 10
95.5162
 20
131.0326
  0
VERTEX
  8
LAYER_1
 10
96.0815
 20
131.08
  0
SEQEND
  0
POLYLINE
  8
LAYER_1
 40
0.1058
 41
0.1058
 66
1
 10
0
 20
0
 30
0
  0
VERTEX
  8
LAYER_1
 10
96.3644
 20
131.0798
  0
VERTEX
  8
LAYER_1
 10
96.977
 20
131.0798
  0
SEQEND
  0
POLYLINE
  8
LAYER_1
 40
0.1058
 41
0.1058
 66
1
 10
0
 20
0
 30
0
  0
VERTEX
  8
LAYER_1
 10
97.2597
 20
131.0798
  0
VERTEX
  8
LAYER_1
 10
97.825
 20
131.1271
  0
SEQEND
  0
POLYLINE
  8
LAYER_1
 40
0.1058
 41
0.1058
 66
1
 10
0
 20
0
 30
0
  0
VERTEX
  8
LAYER_1
 10
98.1079
 20
131.1269
  0
VERTEX
  8
LAYER_1
 10
98.7205
 20
131.1269
  0
SEQEND
  0
POLYLINE
  8
LAYER_1
 40
0.1058
 41
0.1058
 66
1
 10
0
 20
0
 30
0
  0
VERTEX
  8
LAYER_1
 10
99.0032
 20
131.1269
  0
VERTEX
  8
LAYER_1
 10
99.5686
 20
131.1742
  0
SEQEND
  0
POLYLINE
  8
LAYER_1
 40
0.1058
 41
0.1058
 66
1
 10
0
 20
0
 30
0
  0
VERTEX
  8
LAYER_1
 10
99.8985
 20
131.174
  0
VERTEX
  8
LAYER_1
 10
100.4639
 20
131.174
  0
SEQEND
  0
POLYLINE
  8
LAYER_1
 40
0.1058
 41
0.1058
 66
1
 10
0
 20
0
 30
0
  0
VERTEX
  8
LAYER_1
 10
100.7467
 20
131.174
  0
VERTEX
  8
LAYER_1
 10
101.3594
 20
131.2213
  0
SEQEND
  0
POLYLINE
  8
LAYER_1
 40
0.1058
 41
0.1058
 66
1
 10
0
 20
0
 30
0
  0
VERTEX
  8
LAYER_1
 10
101.6421
 20
131.2211
  0
VERTEX
  8
LAYER_1
 10
102.2074
 20
131.2211
  0
SEQEND
  0
POLYLINE
  8
LAYER_1
 40
0.1058
 41
0.1058
 66
1
 10
0
 20
0
 30
0
  0
VERTEX
  8
LAYER_1
 10
102.4903
 20
131.2211
  0
VERTEX
  8
LAYER_1
 10
103.1029
 20
131.2211
  0
SEQEND
  0
POLYLINE
  8
LAYER_1
 40
0.1058
 41
0.1058
 66
1
 10
0
 20
0
 30
0
  0
VERTEX
  8
LAYER_1
 10
103.3856
 20
131.2682
  0
VERTEX
  8
LAYER_1
 10
103.9509
 20
131.2682
  0
SEQEND
  0
POLYLINE
  8
LAYER_1
 40
0.1058
 41
0.1058
 66
1
 10
0
 20
0
 30
0
  0
VERTEX
  8
LAYER_1
 10
104.2809
 20
131.2682
  0
VERTEX
  8
LAYER_1
 10
104.8462
 20
131.2682
  0
SEQEND
  0
POLYLINE
  8
LAYER_1
 40
0.1058
 41
0.1058
 66
1
 10
0
 20
0
 30
0
  0
VERTEX
  8
LAYER_1
 10
105.1291
 20
131.3153
  0
VERTEX
  8
LAYER_1
 10
105.7417
 20
131.3153
  0
SEQEND
  0
POLYLINE
  8
LAYER_1
 40
0.1058
 41
0.1058
 66
1
 10
0
 20
0
 30
0
  0
VERTEX
  8
LAYER_1
 10
106.0243
 20
131.3153
  0
VERTEX
  8
LAYER_1
 10
106.5897
 20
131.3153
  0
SEQEND
  0
POLYLINE
  8
LAYER_1
 40
0.1058
 41
0.1058
 66
1
 10
0
 20
0
 30
0
  0
VERTEX
  8
LAYER_1
 10
106.8725
 20
131.3625
  0
VERTEX
  8
LAYER_1
 10
107.4852
 20
131.3625
  0
SEQEND
  0
POLYLINE
  8
LAYER_1
 40
0.1058
 41
0.1058
 66
1
 10
0
 20
0
 30
0
  0
VERTEX
  8
LAYER_1
 10
107.7679
 20
131.3625
  0
VERTEX
  8
LAYER_1
 10
108.3332
 20
131.3625
  0
SEQEND
  0
POLYLINE
  8
LAYER_1
 40
0.1058
 41
0.1058
 66
1
 10
0
 20
0
 30
0
  0
VERTEX
  8
LAYER_1
 10
108.6632
 20
131.3625
  0
VERTEX
  8
LAYER_1
 10
109.2285
 20
131.4098
  0
SEQEND
  0
POLYLINE
  8
LAYER_1
 40
0.1058
 41
0.1058
 66
1
 10
0
 20
0
 30
0
  0
VERTEX
  8
LAYER_1
 10
109.5114
 20
131.4096
  0
VERTEX
  8
LAYER_1
 10
109.8883
 20
131.4096
  0
SEQEND
  0
POLYLINE
  8
LAYER_1
 40
0.1058
 41
0.1058
 66
1
 10
0
 20
0
 30
0
  0
VERTEX
  8
LAYER_1
 10
109.8883
 20
132.352
  0
VERTEX
  8
LAYER_1
 10
110.0299
 20
132.352
  0
VERTEX
  8
LAYER_1
 10
110.171
 20
132.4462
  0
VERTEX
  8
LAYER_1
 10
110.2652
 20
132.5878
  0
VERTEX
  8
LAYER_1
 10
110.3125
 20
132.7762
  0
SEQEND
  0
POLYLINE
  8
LAYER_1
 40
0.1058
 41
0.1058
 66
1
 10
0
 20
0
 30
0
  0
VERTEX
  8
LAYER_1
 10
109.8883
 20
131.4096
  0
VERTEX
  8
LAYER_1
 10
110.1241
 20
131.4569
  0
VERTEX
  8
LAYER_1
 10
110.3125
 20
131.5038
  0
SEQEND
  0
POLYLINE
  8
LAYER_1
 40
0.1058
 41
0.1058
 66
1
 10
0
 20
0
 30
0
  0
VERTEX
  8
LAYER_1
 10
110.5952
 20
131.6452
  0
VERTEX
  8
LAYER_1
 10
110.8309
 20
131.7867
  0
VERTEX
  8
LAYER_1
 10
110.972
 20
132.0221
  0
SEQEND
  0
POLYLINE
  8
LAYER_1
 40
0.1058
 41
0.1058
 66
1
 10
0
 20
0
 30
0
  0
VERTEX
  8
LAYER_1
 10
111.1135
 20
132.3049
  0
VERTEX
  8
LAYER_1
 10
111.2078
 20
132.4464
  0
VERTEX
  8
LAYER_1
 10
111.2551
 20
132.7291
  0
SEQEND
  0
POLYLINE
  8
LAYER_1
 40
0.1058
 41
0.1058
 66
1
 10
0
 20
0
 30
0
  0
VERTEX
  8
LAYER_1
 10
110.8779
 20
143.1429
  0
VERTEX
  8
LAYER_1
 10
110.8306
 20
142.4834
  0
SEQEND
  0
POLYLINE
  8
LAYER_1
 40
0.1058
 41
0.1058
 66
1
 10
0
 20
0
 30
0
  0
VERTEX
  8
LAYER_1
 10
110.8308
 20
142.2005
  0
VERTEX
  8
LAYER_1
 10
110.7835
 20
141.5879
  0
SEQEND
  0
POLYLINE
  8
LAYER_1
 40
0.1058
 41
0.1058
 66
1
 10
0
 20
0
 30
0
  0
VERTEX
  8
LAYER_1
 10
110.7836
 20
141.3052
  0
VERTEX
  8
LAYER_1
 10
110.7363
 20
140.7398
  0
SEQEND
  0
POLYLINE
  8
LAYER_1
 40
0.1058
 41
0.1058
 66
1
 10
0
 20
0
 30
0
  0
VERTEX
  8
LAYER_1
 10
110.7365
 20
140.457
  0
VERTEX
  8
LAYER_1
 10
110.6892
 20
139.8443
  0
SEQEND
  0
POLYLINE
  8
LAYER_1
 40
0.1058
 41
0.1058
 66
1
 10
0
 20
0
 30
0
  0
VERTEX
  8
LAYER_1
 10
110.6894
 20
139.5617
  0
VERTEX
  8
LAYER_1
 10
110.6421
 20
138.9963
  0
SEQEND
  0
POLYLINE
  8
LAYER_1
 40
0.1058
 41
0.1058
 66
1
 10
0
 20
0
 30
0
  0
VERTEX
  8
LAYER_1
 10
110.6423
 20
138.6664
  0
VERTEX
  8
LAYER_1
 10
110.595
 20
138.101
  0
SEQEND
  0
POLYLINE
  8
LAYER_1
 40
0.1058
 41
0.1058
 66
1
 10
0
 20
0
 30
0
  0
VERTEX
  8
LAYER_1
 10
110.5952
 20
137.8182
  0
VERTEX
  8
LAYER_1
 10
110.5479
 20
137.2055
  0
SEQEND
  0
POLYLINE
  8
LAYER_1
 40
0.1058
 41
0.1058
 66
1
 10
0
 20
0
 30
0
  0
VERTEX
  8
LAYER_1
 10
110.5481
 20
136.9229
  0
VERTEX
  8
LAYER_1
 10
110.5007
 20
136.3576
  0
SEQEND
  0
POLYLINE
  8
LAYER_1
 40
0.1058
 41
0.1058
 66
1
 10
0
 20
0
 30
0
  0
VERTEX
  8
LAYER_1
 10
110.5009
 20
136.0747
  0
VERTEX
  8
LAYER_1
 10
110.4536
 20
135.462
  0
SEQEND
  0
POLYLINE
  8
LAYER_1
 40
0.1058
 41
0.1058
 66
1
 10
0
 20
0
 30
0
  0
VERTEX
  8
LAYER_1
 10
110.4538
 20
135.1793
  0
VERTEX
  8
LAYER_1
 10
110.4065
 20
134.614
  0
SEQEND
  0
POLYLINE
  8
LAYER_1
 40
0.1058
 41
0.1058
 66
1
 10
0
 20
0
 30
0
  0
VERTEX
  8
LAYER_1
 10
110.4067
 20
134.3311
  0
VERTEX
  8
LAYER_1
 10
110.3594
 20
133.7185
  0
SEQEND
  0
POLYLINE
  8
LAYER_1
 40
0.1058
 41
0.1058
 66
1
 10
0
 20
0
 30
0
  0
VERTEX
  8
LAYER_1
 10
110.3596
 20
133.4358
  0
VERTEX
  8
LAYER_1
 10
110.3123
 20
132.7763
  0
SEQEND
  0
POLYLINE
  8
LAYER_1
 40
0.1058
 41
0.1058
 66
1
 10
0
 20
0
 30
0
  0
VERTEX
  8
LAYER_1
 10
111.1607
 20
143.4257
  0
VERTEX
  8
LAYER_1
 10
110.9722
 20
143.3314
  0
VERTEX
  8
LAYER_1
 10
110.878
 20
143.143
  0
SEQEND
  0
POLYLINE
  8
LAYER_1
 40
0.1058
 41
0.1058
 66
1
 10
0
 20
0
 30
0
  0
VERTEX
  8
LAYER_1
 10
137.7845
 20
144.5094
  0
SEQEND
  0
POLYLINE
  8
LAYER_1
 40
0.1058
 41
0.1058
 66
1
 10
0
 20
0
 30
0
  0
VERTEX
  8
LAYER_1
 10
137.7845
 20
143.6613
  0
VERTEX
  8
LAYER_1
 10
137.8318
 20
144.5092
  0
VERTEX
  8
LAYER_1
 10
137.8787
 20
144.6981
  0
VERTEX
  8
LAYER_1
 10
138.0671
 20
144.7923
  0
VERTEX
  8
LAYER_1
 10
137.8787
 20
144.6981
  0
VERTEX
  8
LAYER_1
 10
137.8318
 20
144.5092
  0
VERTEX
  8
LAYER_1
 10
137.7845
 20
143.6613
  0
VERTEX
  8
LAYER_1
 10
137.6902
 20
143.4728
  0
VERTEX
  8
LAYER_1
 10
137.5018
 20
143.4255
  0
VERTEX
  8
LAYER_1
 10
137.6902
 20
143.4728
  0
VERTEX
  8
LAYER_1
 10
137.7845
 20
143.6613
  0
SEQEND
  0
POLYLINE
  8
LAYER_1
 40
0.1058
 41
0.1058
 66
1
 10
0
 20
0
 30
0
  0
VERTEX
  8
LAYER_1
 10
89.4846
 20
130.3258
  0
VERTEX
  8
LAYER_1
 10
89.1077
 20
130.3258
  0
SEQEND
  0
POLYLINE
  8
LAYER_1
 40
0.1058
 41
0.1058
 66
1
 10
0
 20
0
 30
0
  0
VERTEX
  8
LAYER_1
 10
88.8249
 20
130.3258
  0
VERTEX
  8
LAYER_1
 10
88.2122
 20
130.3258
  0
SEQEND
  0
POLYLINE
  8
LAYER_1
 40
0.1058
 41
0.1058
 66
1
 10
0
 20
0
 30
0
  0
VERTEX
  8
LAYER_1
 10
87.9296
 20
130.3258
  0
VERTEX
  8
LAYER_1
 10
87.3643
 20
130.3258
  0
SEQEND
  0
POLYLINE
  8
LAYER_1
 40
0.1058
 41
0.1058
 66
1
 10
0
 20
0
 30
0
  0
VERTEX
  8
LAYER_1
 10
87.0814
 20
130.3258
  0
VERTEX
  8
LAYER_1
 10
86.4688
 20
130.3258
  0
SEQEND
  0
POLYLINE
  8
LAYER_1
 40
0.1058
 41
0.1058
 66
1
 10
0
 20
0
 30
0
  0
VERTEX
  8
LAYER_1
 10
86.1861
 20
130.3258
  0
VERTEX
  8
LAYER_1
 10
85.6208
 20
130.3258
  0
SEQEND
  0
POLYLINE
  8
LAYER_1
 40
0.1058
 41
0.1058
 66
1
 10
0
 20
0
 30
0
  0
VERTEX
  8
LAYER_1
 10
85.2908
 20
130.3258
  0
VERTEX
  8
LAYER_1
 10
84.7255
 20
130.3258
  0
SEQEND
  0
POLYLINE
  8
LAYER_1
 40
0.1058
 41
0.1058
 66
1
 10
0
 20
0
 30
0
  0
VERTEX
  8
LAYER_1
 10
84.4426
 20
130.3258
  0
VERTEX
  8
LAYER_1
 10
84.0657
 20
130.3258
  0
VERTEX
  8
LAYER_1
 10
84.4426
 20
130.3258
  0
SEQEND
  0
POLYLINE
  8
LAYER_1
 40
0.1058
 41
0.1058
 66
1
 10
0
 20
0
 30
0
  0
VERTEX
  8
LAYER_1
 10
84.7253
 20
130.3258
  0
VERTEX
  8
LAYER_1
 10
85.2906
 20
130.3258
  0
SEQEND
  0
POLYLINE
  8
LAYER_1
 40
0.1058
 41
0.1058
 66
1
 10
0
 20
0
 30
0
  0
VERTEX
  8
LAYER_1
 10
85.6206
 20
130.3258
  0
VERTEX
  8
LAYER_1
 10
86.1859
 20
130.3258
  0
SEQEND
  0
POLYLINE
  8
LAYER_1
 40
0.1058
 41
0.1058
 66
1
 10
0
 20
0
 30
0
  0
VERTEX
  8
LAYER_1
 10
86.4688
 20
130.3258
  0
VERTEX
  8
LAYER_1
 10
87.0815
 20
130.3258
  0
SEQEND
  0
POLYLINE
  8
LAYER_1
 40
0.1058
 41
0.1058
 66
1
 10
0
 20
0
 30
0
  0
VERTEX
  8
LAYER_1
 10
87.3641
 20
130.3258
  0
VERTEX
  8
LAYER_1
 10
87.9295
 20
130.3258
  0
SEQEND
  0
POLYLINE
  8
LAYER_1
 40
0.1058
 41
0.1058
 66
1
 10
0
 20
0
 30
0
  0
VERTEX
  8
LAYER_1
 10
88.2123
 20
130.3258
  0
VERTEX
  8
LAYER_1
 10
88.825
 20
130.3258
  0
SEQEND
  0
POLYLINE
  8
LAYER_1
 40
0.1058
 41
0.1058
 66
1
 10
0
 20
0
 30
0
  0
VERTEX
  8
LAYER_1
 10
89.1076
 20
130.3258
  0
VERTEX
  8
LAYER_1
 10
89.4845
 20
130.3258
  0
SEQEND
  0
POLYLINE
  8
LAYER_1
 40
0.1058
 41
0.1058
 66
1
 10
0
 20
0
 30
0
  0
VERTEX
  8
LAYER_1
 10
86.7516
 20
130.3258
  0
SEQEND
  0
POLYLINE
  8
LAYER_1
 40
0.1058
 41
0.1058
 66
1
 10
0
 20
0
 30
0
  0
VERTEX
  8
LAYER_1
 10
88.9191
 20
130.8441
  0
VERTEX
  8
LAYER_1
 10
88.3065
 20
130.8441
  0
SEQEND
  0
POLYLINE
  8
LAYER_1
 40
0.1058
 41
0.1058
 66
1
 10
0
 20
0
 30
0
  0
VERTEX
  8
LAYER_1
 10
87.9767
 20
130.8441
  0
VERTEX
  8
LAYER_1
 10
87.4114
 20
130.8441
  0
SEQEND
  0
POLYLINE
  8
LAYER_1
 40
0.1058
 41
0.1058
 66
1
 10
0
 20
0
 30
0
  0
VERTEX
  8
LAYER_1
 10
87.1285
 20
130.8441
  0
VERTEX
  8
LAYER_1
 10
86.5159
 20
130.8441
  0
SEQEND
  0
POLYLINE
  8
LAYER_1
 40
0.1058
 41
0.1058
 66
1
 10
0
 20
0
 30
0
  0
VERTEX
  8
LAYER_1
 10
86.2332
 20
130.8441
  0
VERTEX
  8
LAYER_1
 10
85.6679
 20
130.8441
  0
SEQEND
  0
POLYLINE
  8
LAYER_1
 40
0.1058
 41
0.1058
 66
1
 10
0
 20
0
 30
0
  0
VERTEX
  8
LAYER_1
 10
85.385
 20
130.8441
  0
VERTEX
  8
LAYER_1
 10
84.7255
 20
130.8441
  0
SEQEND
  0
POLYLINE
  8
LAYER_1
 40
0.1058
 41
0.1058
 66
1
 10
0
 20
0
 30
0
  0
VERTEX
  8
LAYER_1
 10
90.2386
 20
131.8337
  0
VERTEX
  8
LAYER_1
 10
89.579
 20
131.8337
  0
SEQEND
  0
POLYLINE
  8
LAYER_1
 40
0.1058
 41
0.1058
 66
1
 10
0
 20
0
 30
0
  0
VERTEX
  8
LAYER_1
 10
89.2961
 20
131.8337
  0
VERTEX
  8
LAYER_1
 10
88.7308
 20
131.8337
  0
SEQEND
  0
POLYLINE
  8
LAYER_1
 40
0.1058
 41
0.1058
 66
1
 10
0
 20
0
 30
0
  0
VERTEX
  8
LAYER_1
 10
88.448
 20
131.8337
  0
VERTEX
  8
LAYER_1
 10
87.8353
 20
131.8337
  0
SEQEND
  0
POLYLINE
  8
LAYER_1
 40
0.1058
 41
0.1058
 66
1
 10
0
 20
0
 30
0
  0
VERTEX
  8
LAYER_1
 10
87.5526
 20
131.8337
  0
VERTEX
  8
LAYER_1
 10
86.9873
 20
131.8337
  0
SEQEND
  0
POLYLINE
  8
LAYER_1
 40
0.1058
 41
0.1058
 66
1
 10
0
 20
0
 30
0
  0
VERTEX
  8
LAYER_1
 10
86.6573
 20
131.8337
  0
VERTEX
  8
LAYER_1
 10
86.092
 20
131.8337
  0
SEQEND
  0
POLYLINE
  8
LAYER_1
 40
0.1058
 41
0.1058
 66
1
 10
0
 20
0
 30
0
  0
VERTEX
  8
LAYER_1
 10
85.8091
 20
131.8337
  0
VERTEX
  8
LAYER_1
 10
85.1965
 20
131.8337
  0
SEQEND
  0
POLYLINE
  8
LAYER_1
 40
0.1058
 41
0.1058
 66
1
 10
0
 20
0
 30
0
  0
VERTEX
  8
LAYER_1
 10
84.9138
 20
131.8337
  0
VERTEX
  8
LAYER_1
 10
84.3485
 20
131.8337
  0
SEQEND
  0
POLYLINE
  8
LAYER_1
 40
0.1058
 41
0.1058
 66
1
 10
0
 20
0
 30
0
  0
VERTEX
  8
LAYER_1
 10
84.0656
 20
131.8337
  0
VERTEX
  8
LAYER_1
 10
83.4061
 20
131.8337
  0
SEQEND
  0
POLYLINE
  8
LAYER_1
 40
0.1058
 41
0.1058
 66
1
 10
0
 20
0
 30
0
  0
VERTEX
  8
LAYER_1
 10
89.8616
 20
130.3258
  0
VERTEX
  8
LAYER_1
 10
89.8616
 20
130.42
  0
VERTEX
  8
LAYER_1
 10
90.4742
 20
130.9384
  0
SEQEND
  0
POLYLINE
  8
LAYER_1
 40
0.1058
 41
0.1058
 66
1
 10
0
 20
0
 30
0
  0
VERTEX
  8
LAYER_1
 10
89.5789
 20
131.4096
  0
VERTEX
  8
LAYER_1
 10
90.003
 20
131.7396
  0
VERTEX
  8
LAYER_1
 10
90.2384
 20
131.8338
  0
SEQEND
  0
POLYLINE
  8
LAYER_1
 40
0.1058
 41
0.1058
 66
1
 10
0
 20
0
 30
0
  0
VERTEX
  8
LAYER_1
 10
89.3433
 20
131.2211
  0
VERTEX
  8
LAYER_1
 10
88.9191
 20
130.8442
  0
SEQEND
  0
POLYLINE
  8
LAYER_1
 40
0.1058
 41
0.1058
 66
1
 10
0
 20
0
 30
0
  0
VERTEX
  8
LAYER_1
 10
83.4059
 20
131.8337
  0
VERTEX
  8
LAYER_1
 10
83.7828
 20
131.7395
  0
VERTEX
  8
LAYER_1
 10
84.1127
 20
131.4095
  0
SEQEND
  0
POLYLINE
  8
LAYER_1
 40
0.1058
 41
0.1058
 66
1
 10
0
 20
0
 30
0
  0
VERTEX
  8
LAYER_1
 10
84.3483
 20
131.174
  0
VERTEX
  8
LAYER_1
 10
84.7252
 20
130.844
  0
SEQEND
  0
POLYLINE
  8
LAYER_1
 40
0.1058
 41
0.1058
 66
1
 10
0
 20
0
 30
0
  0
VERTEX
  8
LAYER_1
 10
85.9033
 20
130.3258
  0
VERTEX
  8
LAYER_1
 10
86.2802
 20
130.3258
  0
SEQEND
  0
POLYLINE
  8
LAYER_1
 40
0.1058
 41
0.1058
 66
1
 10
0
 20
0
 30
0
  0
VERTEX
  8
LAYER_1
 10
86.6102
 20
130.3258
  0
VERTEX
  8
LAYER_1
 10
86.987
 20
130.3258
  0
SEQEND
  0
POLYLINE
  8
LAYER_1
 40
0.1058
 41
0.1058
 66
1
 10
0
 20
0
 30
0
  0
VERTEX
  8
LAYER_1
 10
84.7253
 20
130.8441
  0
VERTEX
  8
LAYER_1
 10
84.7253
 20
130.3257
  0
SEQEND
  0
POLYLINE
  8
LAYER_1
 40
0.1058
 41
0.1058
 66
1
 10
0
 20
0
 30
0
  0
VERTEX
  8
LAYER_1
 10
88.9191
 20
130.8441
  0
VERTEX
  8
LAYER_1
 10
88.9191
 20
130.3257
  0
SEQEND
  0
POLYLINE
  8
LAYER_1
 40
0.1058
 41
0.1058
 66
1
 10
0
 20
0
 30
0
  0
VERTEX
  8
LAYER_1
 10
84.0656
 20
130.3258
  0
VERTEX
  8
LAYER_1
 10
83.783
 20
130.5615
  0
SEQEND
  0
POLYLINE
  8
LAYER_1
 40
0.1058
 41
0.1058
 66
1
 10
0
 20
0
 30
0
  0
VERTEX
  8
LAYER_1
 10
83.5944
 20
130.7499
  0
VERTEX
  8
LAYER_1
 10
83.3117
 20
130.9383
  0
SEQEND
  0
TEXT
  8
LAYER_1
 10
148.7186
 20
73.9407
 11
148.7186
 21
73.9407
 40
4.3191
 41
0.5
 50
89.99999999
  1
160
  0
POLYLINE
  8
LAYER_1
 40
0.1058
 41
0.1058
 66
1
 10
0
 20
0
 30
0
  0
VERTEX
  8
LAYER_1
 10
58.6198
 20
212.4644
  0
VERTEX
  8
LAYER_1
 10
58.6198
 20
215.7361
  0
SEQEND
  0
POLYLINE
  8
LAYER_1
 40
0.1058
 41
0.1058
 66
1
 10
0
 20
0
 30
0
  0
VERTEX
  8
LAYER_1
 10
141.6484
 20
212.4644
  0
VERTEX
  8
LAYER_1
 10
141.6484
 20
215.7361
  0
SEQEND
  0
POLYLINE
  8
LAYER_1
 40
0.1058
 41
0.1058
 66
1
 10
0
 20
0
 30
0
  0
VERTEX
  8
LAYER_1
 10
141.6484
 20
214.1003
  0
VERTEX
  8
LAYER_1
 10
58.6198
 20
214.1003
  0
SEQEND
  0
TEXT
  8
LAYER_1
 10
83.5666
 20
158.4212
 11
83.5666
 21
158.4212
 40
4.3191
 41
0.5
  1
530
  0
POLYLINE
  8
LAYER_1
 40
0.1058
 41
0.1058
 66
1
 10
0
 20
0
 30
0
  0
VERTEX
  8
LAYER_1
 10
62.3896
 20
160.826
  0
VERTEX
  8
LAYER_1
 10
62.3896
 20
164.0977
  0
SEQEND
  0
POLYLINE
  8
LAYER_1
 40
0.1058
 41
0.1058
 66
1
 10
0
 20
0
 30
0
  0
VERTEX
  8
LAYER_1
 10
111.2948
 20
160.826
  0
VERTEX
  8
LAYER_1
 10
111.2948
 20
164.0977
  0
SEQEND
  0
POLYLINE
  8
LAYER_1
 40
0.1058
 41
0.1058
 66
1
 10
0
 20
0
 30
0
  0
VERTEX
  8
LAYER_1
 10
111.2948
 20
162.4619
  0
VERTEX
  8
LAYER_1
 10
62.3896
 20
162.4619
  0
SEQEND
  0
TEXT
  8
LAYER_1
 10
122.4222
 20
158.4212
 11
122.4222
 21
158.4212
 40
4.3191
 41
0.5
  1
290
  0
TEXT
  8
LAYER_1
 10
136.0751
 20
157.1589
 11
136.0751
 21
157.1589
 40
4.3191
 41
0.5
  1
15
  0
TEXT
  8
LAYER_1
 10
58.8486
 20
157.1589
 11
58.8486
 21
157.1589
 40
4.3191
 41
0.5
  1
15
  0
POLYLINE
  8
LAYER_1
 40
0.1058
 41
0.1058
 66
1
 10
0
 20
0
 30
0
  0
VERTEX
  8
LAYER_1
 10
111.2948
 20
160.826
  0
VERTEX
  8
LAYER_1
 10
111.2948
 20
164.0977
  0
SEQEND
  0
POLYLINE
  8
LAYER_1
 40
0.1058
 41
0.1058
 66
1
 10
0
 20
0
 30
0
  0
VERTEX
  8
LAYER_1
 10
137.8316
 20
160.826
  0
VERTEX
  8
LAYER_1
 10
137.8316
 20
164.0977
  0
SEQEND
  0
POLYLINE
  8
LAYER_1
 40
0.1058
 41
0.1058
 66
1
 10
0
 20
0
 30
0
  0
VERTEX
  8
LAYER_1
 10
137.8316
 20
162.4619
  0
VERTEX
  8
LAYER_1
 10
111.2948
 20
162.4619
  0
SEQEND
  0
POLYLINE
  8
LAYER_1
 40
0.1058
 41
0.1058
 66
1
 10
0
 20
0
 30
0
  0
VERTEX
  8
LAYER_1
 10
137.8316
 20
160.826
  0
VERTEX
  8
LAYER_1
 10
137.8316
 20
164.0977
  0
SEQEND
  0
POLYLINE
  8
LAYER_1
 40
0.1058
 41
0.1058
 66
1
 10
0
 20
0
 30
0
  0
VERTEX
  8
LAYER_1
 10
139.2452
 20
160.826
  0
VERTEX
  8
LAYER_1
 10
139.2452
 20
164.0977
  0
SEQEND
  0
POLYLINE
  8
LAYER_1
 40
0.1058
 41
0.1058
 66
1
 10
0
 20
0
 30
0
  0
VERTEX
  8
LAYER_1
 10
139.2452
 20
162.4619
  0
VERTEX
  8
LAYER_1
 10
137.8316
 20
162.4619
  0
SEQEND
  0
POLYLINE
  8
LAYER_1
 40
0.1058
 41
0.1058
 66
1
 10
0
 20
0
 30
0
  0
VERTEX
  8
LAYER_1
 10
60.9759
 20
160.826
  0
VERTEX
  8
LAYER_1
 10
60.9759
 20
164.0977
  0
SEQEND
  0
POLYLINE
  8
LAYER_1
 40
0.1058
 41
0.1058
 66
1
 10
0
 20
0
 30
0
  0
VERTEX
  8
LAYER_1
 10
62.3896
 20
160.826
  0
VERTEX
  8
LAYER_1
 10
62.3896
 20
164.0977
  0
SEQEND
  0
POLYLINE
  8
LAYER_1
 40
0.1058
 41
0.1058
 66
1
 10
0
 20
0
 30
0
  0
VERTEX
  8
LAYER_1
 10
62.3896
 20
162.4619
  0
VERTEX
  8
LAYER_1
 10
60.9759
 20
162.4619
  0
SEQEND
  0
TEXT
  8
LAYER_1
 10
97.4178
 20
149.9244
 11
97.4178
 21
149.9244
 40
4.3191
 41
0.5
  1
850
  0
POLYLINE
  8
LAYER_1
 40
0.1058
 41
0.1058
 66
1
 10
0
 20
0
 30
0
  0
VERTEX
  8
LAYER_1
 10
60.9759
 20
147.5392
  0
VERTEX
  8
LAYER_1
 10
60.9759
 20
150.8109
  0
SEQEND
  0
POLYLINE
  8
LAYER_1
 40
0.1058
 41
0.1058
 66
1
 10
0
 20
0
 30
0
  0
VERTEX
  8
LAYER_1
 10
139.2452
 20
147.5392
  0
VERTEX
  8
LAYER_1
 10
139.2452
 20
150.8109
  0
SEQEND
  0
POLYLINE
  8
LAYER_1
 40
0.1058
 41
0.1058
 66
1
 10
0
 20
0
 30
0
  0
VERTEX
  8
LAYER_1
 10
139.2452
 20
149.1751
  0
VERTEX
  8
LAYER_1
 10
60.9759
 20
149.1751
  0
SEQEND
  0
POLYLINE
  8
LAYER_1
 40
0.1058
 41
0.1058
 66
1
 10
0
 20
0
 30
0
  0
VERTEX
  8
LAYER_1
 10
148.8437
 20
210.9041
  0
VERTEX
  8
LAYER_1
 10
145.518
 20
210.9041
  0
SEQEND
  0
POLYLINE
  8
LAYER_1
 40
0.1058
 41
0.1058
 66
1
 10
0
 20
0
 30
0
  0
VERTEX
  8
LAYER_1
 10
148.8437
 20
166.1607
  0
VERTEX
  8
LAYER_1
 10
145.518
 20
166.1607
  0
SEQEND
  0
POLYLINE
  8
LAYER_1
 40
0.1058
 41
0.1058
 66
1
 10
0
 20
0
 30
0
  0
VERTEX
  8
LAYER_1
 10
146.9377
 20
210.9041
  0
VERTEX
  8
LAYER_1
 10
146.9377
 20
166.1607
  0
SEQEND
  0
POLYLINE
  8
LAYER_1
  6
AIGENLINE001
 40
0.1058
 41
0.1058
 66
1
 10
0
 20
0
 30
0
 70
128
  0
VERTEX
  8
LAYER_1
 10
156.1149
 20
145.5045
  0
VERTEX
  8
LAYER_1
 10
156.1149
 20
174.6573
  0
SEQEND
  0
INSERT
  8
LAYER_1
  2
AIGNBL0101003D
 10
0
 20
0
 30
0
  0
INSERT
  8
LAYER_1
  2
AIGNBL0101003E
 10
0
 20
0
 30
0
  0
INSERT
  8
LAYER_1
  2
AIGNBL0101003F
 10
0
 20
0
 30
0
  0
POLYLINE
  8
LAYER_1
 40
0.1058
 41
0.1058
 66
1
 10
0
 20
0
 30
0
  0
VERTEX
  8
LAYER_1
 10
188.299
 20
146.0334
  0
VERTEX
  8
LAYER_1
 10
188.299
 20
149.3591
  0
SEQEND
  0
POLYLINE
  8
LAYER_1
  6
AIGENLINE002
 40
0.1058
 41
0.1058
 66
1
 10
0
 20
0
 30
0
 70
128
  0
VERTEX
  8
LAYER_1
 10
188.299
 20
143.636
  0
VERTEX
  8
LAYER_1
 10
188.299
 20
146.0334
  0
SEQEND
  0
POLYLINE
  8
LAYER_1
 40
0.1058
 41
0.1058
 66
1
 10
0
 20
0
 30
0
  0
VERTEX
  8
LAYER_1
 10
157.4814
 20
146.0334
  0
VERTEX
  8
LAYER_1
 10
157.4814
 20
149.3591
  0
SEQEND
  0
POLYLINE
  8
LAYER_1
 40
0.1058
 41
0.1058
 66
1
 10
0
 20
0
 30
0
  0
VERTEX
  8
LAYER_1
 10
188.299
 20
147.9394
  0
VERTEX
  8
LAYER_1
 10
157.4814
 20
147.9394
  0
SEQEND
  0
POLYLINE
  8
LAYER_1
 40
0.1058
 41
0.1058
 66
1
 10
0
 20
0
 30
0
  0
VERTEX
  8
LAYER_1
 10
198.4301
 20
146.0334
  0
VERTEX
  8
LAYER_1
 10
198.4301
 20
149.3591
  0
SEQEND
  0
POLYLINE
  8
LAYER_1
 40
0.1058
 41
0.1058
 66
1
 10
0
 20
0
 30
0
  0
VERTEX
  8
LAYER_1
 10
198.4301
 20
147.9394
  0
VERTEX
  8
LAYER_1
 10
188.299
 20
147.9394
  0
SEQEND
  0
POLYLINE
  8
LAYER_1
 40
0.1058
 41
0.1058
 66
1
 10
0
 20
0
 30
0
  0
VERTEX
  8
LAYER_1
 10
198.4301
 20
158.8075
  0
VERTEX
  8
LAYER_1
 10
198.4301
 20
162.1332
  0
SEQEND
  0
POLYLINE
  8
LAYER_1
 40
0.1058
 41
0.1058
 66
1
 10
0
 20
0
 30
0
  0
VERTEX
  8
LAYER_1
 10
177.2725
 20
158.8075
  0
VERTEX
  8
LAYER_1
 10
177.2725
 20
162.1332
  0
SEQEND
  0
POLYLINE
  8
LAYER_1
  6
AIGENLINE001
 40
0.1058
 41
0.1058
 66
1
 10
0
 20
0
 30
0
 70
128
  0
VERTEX
  8
LAYER_1
 10
177.2725
 20
122.0349
  0
VERTEX
  8
LAYER_1
 10
177.2725
 20
158.8075
  0
SEQEND
  0
POLYLINE
  8
LAYER_1
 40
0.1058
 41
0.1058
 66
1
 10
0
 20
0
 30
0
  0
VERTEX
  8
LAYER_1
 10
198.4301
 20
160.7135
  0
VERTEX
  8
LAYER_1
 10
177.2725
 20
160.7135
  0
SEQEND
  0
INSERT
  8
LAYER_1
  2
AIGNBL01010043
 10
0
 20
0
 30
0
  0
INSERT
  8
LAYER_1
  2
AIGNBL01010044
 10
0
 20
0
 30
0
  0
INSERT
  8
LAYER_1
  2
AIGNBL01010045
 10
0
 20
0
 30
0
  0
TEXT
  8
LAYER_1
 10
56.0257
 20
190.2942
 11
56.0257
 21
190.2942
 40
4.3191
 41
0.5
 50
89.99999999
  1
335
  0
POLYLINE
  8
LAYER_1
 40
0.1058
 41
0.1058
 66
1
 10
0
 20
0
 30
0
  0
VERTEX
  8
LAYER_1
 10
58.6731
 20
200.7729
  0
VERTEX
  8
LAYER_1
 10
55.3475
 20
200.7729
  0
SEQEND
  0
POLYLINE
  8
LAYER_1
 40
0.1058
 41
0.1058
 66
1
 10
0
 20
0
 30
0
  0
VERTEX
  8
LAYER_1
 10
58.6731
 20
169.9081
  0
VERTEX
  8
LAYER_1
 10
55.3475
 20
169.9081
  0
SEQEND
  0
POLYLINE
  8
LAYER_1
 40
0.1058
 41
0.1058
 66
1
 10
0
 20
0
 30
0
  0
VERTEX
  8
LAYER_1
 10
56.7671
 20
200.7729
  0
VERTEX
  8
LAYER_1
 10
56.7671
 20
169.9081
  0
SEQEND
  0
TEXT
  8
LAYER_1
 10
75.5938
 20
192.6942
 11
75.5938
 21
192.6942
 40
4.3191
 41
0.5
 50
89.99999999
  1
230
  0
POLYLINE
  8
LAYER_1
 40
0.1058
 41
0.1058
 66
1
 10
0
 20
0
 30
0
  0
VERTEX
  8
LAYER_1
 10
78.7518
 20
210.9041
  0
VERTEX
  8
LAYER_1
 10
75.4262
 20
210.9041
  0
SEQEND
  0
POLYLINE
  8
LAYER_1
 40
0.1058
 41
0.1058
 66
1
 10
0
 20
0
 30
0
  0
VERTEX
  8
LAYER_1
 10
82.246
 20
189.7228
  0
VERTEX
  8
LAYER_1
 10
75.4262
 20
189.7228
  0
SEQEND
  0
POLYLINE
  8
LAYER_1
 40
0.1058
 41
0.1058
 66
1
 10
0
 20
0
 30
0
  0
VERTEX
  8
LAYER_1
 10
76.8459
 20
210.9041
  0
VERTEX
  8
LAYER_1
 10
76.8459
 20
189.7228
  0
SEQEND
  0
INSERT
  8
LAYER_1
  2
AIGNBL01010046
 10
0
 20
0
 30
0
  0
INSERT
  8
LAYER_1
  2
AIGNBL01010047
 10
0
 20
0
 30
0
  0
TEXT
  8
LAYER_1
 10
78.029
 20
205.5546
 11
78.029
 21
205.5546
 40
4.3191
 41
0.5
  1
35
  0
INSERT
  8
LAYER_1
  2
AIGNBL01010048
 10
0
 20
0
 30
0
  0
INSERT
  8
LAYER_1
  2
AIGNBL01010049
 10
0
 20
0
 30
0
  0
INSERT
  8
LAYER_1
  2
AIGNBL0101004A
 10
0
 20
0
 30
0
  0
INSERT
  8
LAYER_1
  2
AIGNBL0101004B
 10
0
 20
0
 30
0
  0
POLYLINE
  8
LAYER_1
  6
AIGENLINE001
 40
0.1058
 41
0.1058
 66
1
 10
0
 20
0
 30
0
 70
128
  0
VERTEX
  8
LAYER_1
 10
53.4821
 20
210.9041
  0
VERTEX
  8
LAYER_1
 10
60.2927
 20
210.9041
  0
SEQEND
  0
POLYLINE
  8
LAYER_1
  6
AIGENLINE001
 40
0.1058
 41
0.1058
 66
1
 10
0
 20
0
 30
0
 70
128
  0
VERTEX
  8
LAYER_1
 10
140.088
 20
210.9041
  0
VERTEX
  8
LAYER_1
 10
145.518
 20
210.9041
  0
SEQEND
  0
POLYLINE
  8
LAYER_1
  6
AIGENLINE001
 40
0.1058
 41
0.1058
 66
1
 10
0
 20
0
 30
0
 70
128
  0
VERTEX
  8
LAYER_1
 10
137.2539
 20
166.1607
  0
VERTEX
  8
LAYER_1
 10
145.518
 20
166.1607
  0
SEQEND
  0
POLYLINE
  8
LAYER_1
  6
AIGENLINE001
 40
0.1058
 41
0.1058
 66
1
 10
0
 20
0
 30
0
 70
128
  0
VERTEX
  8
LAYER_1
 10
53.4821
 20
168.5889
  0
VERTEX
  8
LAYER_1
 10
60.2927
 20
168.5889
  0
SEQEND
  0
ENDSEC
  0
EOF
