  0
SECTION
  2
HEADER
  9
$ACADVER
  1
AC1015
  9
$ACADMAINTVER
 70
     6
  9
$DWGCODEPAGE
  3
DOS932
  9
$INSBASE
 10
0.0
 20
0.0
 30
0.0
  9
$EXTMIN
 10
0.0
 20
0.0
 30
0.0
  9
$EXTMAX
 10
420.0
 20
297.0
 30
0.0
  9
$LIMMIN
 10
0.0
 20
0.0
  9
$LIMMAX
 10
420.0
 20
297.0
  9
$ORTHOMODE
 70
     0
  9
$REGENMODE
 70
     1
  9
$FILLMODE
 70
     1
  9
$QTEXTMODE
 70
     0
  9
$MIRRTEXT
 70
     1
  9
$LTSCALE
 40
1.0
  9
$ATTMODE
 70
     1
  9
$TEXTSIZE
 40
3.8805555556
  9
$TRACEWID
 40
1.0
  9
$TEXTSTYLE
  7
Standard
  9
$CLAYER
  8
0
  9
$CELTYPE
  6
ByLayer
  9
$CECOLOR
 62
   256
  9
$CELTSCALE
 40
1.0
  9
$DISPSILH
 70
     0
  9
$DIMSCALE
 40
1.0
  9
$DIMASZ
 40
3.0
  9
$DIMEXO
 40
0.0
  9
$DIMDLI
 40
3.75
  9
$DIMRND
 40
0.0
  9
$DIMDLE
 40
0.0
  9
$DIMEXE
 40
1.0
  9
$DIMTP
 40
0.0
  9
$DIMTM
 40
0.0
  9
$DIMTXT
 40
3.5277777778
  9
$DIMCEN
 40
2.5
  9
$DIMTSZ
 40
0.0
  9
$DIMTOL
 70
     0
  9
$DIMLIM
 70
     0
  9
$DIMTIH
 70
     1
  9
$DIMTOH
 70
     1
  9
$DIMSE1
 70
     0
  9
$DIMSE2
 70
     0
  9
$DIMTAD
 70
     1
  9
$DIMZIN
 70
     0
  9
$DIMBLK
  1

  9
$DIMASO
 70
     1
  9
$DIMSHO
 70
     1
  9
$DIMPOST
  1

  9
$DIMAPOST
  1

  9
$DIMALT
 70
     0
  9
$DIMALTD
 70
     3
  9
$DIMALTF
 40
0.0393700787
  9
$DIMLFAC
 40
1.0
  9
$DIMTOFL
 70
     1
  9
$DIMTVP
 40
0.0
  9
$DIMTIX
 70
     0
  9
$DIMSOXD
 70
     0
  9
$DIMSAH
 70
     0
  9
$DIMBLK1
  1

  9
$DIMBLK2
  1

  9
$DIMSTYLE
  2
ISO-25
  9
$DIMCLRD
 70
     0
  9
$DIMCLRE
 70
     0
  9
$DIMCLRT
 70
     0
  9
$DIMTFAC
 40
1.0
  9
$DIMGAP
 40
1.0
  9
$DIMJUST
 70
     0
  9
$DIMSD1
 70
     0
  9
$DIMSD2
 70
     0
  9
$DIMTOLJ
 70
     0
  9
$DIMTZIN
 70
     0
  9
$DIMALTZ
 70
     0
  9
$DIMALTTZ
 70
     0
  9
$DIMUPT
 70
     0
  9
$DIMDEC
 70
     2
  9
$DIMTDEC
 70
     2
  9
$DIMALTU
 70
     2
  9
$DIMALTTD
 70
     3
  9
$DIMTXSTY
  7
Standard
  9
$DIMAUNIT
 70
     0
  9
$DIMADEC
 70
     2
  9
$DIMALTRND
 40
0.0
  9
$DIMAZIN
 70
     0
  9
$DIMDSEP
 70
    44
  9
$DIMATFIT
 70
     3
  9
$DIMFRAC
 70
     0
  9
$DIMLDRBLK
  1

  9
$DIMLUNIT
 70
     2
  9
$DIMLWD
 70
    -2
  9
$DIMLWE
 70
    -2
  9
$DIMTMOVE
 70
     0
  9
$LUNITS
 70
     2
  9
$LUPREC
 70
     2
  9
$SKETCHINC
 40
1.0
  9
$FILLETRAD
 40
10.0
  9
$AUNITS
 70
     0
  9
$AUPREC
 70
     2
  9
$MENU
  1
.
  9
$ELEVATION
 40
0.0
  9
$PELEVATION
 40
0.0
  9
$THICKNESS
 40
0.0
  9
$LIMCHECK
 70
     0
  9
$CHAMFERA
 40
0.0
  9
$CHAMFERB
 40
0.0
  9
$CHAMFERC
 40
0.0
  9
$CHAMFERD
 40
0.0
  9
$SKPOLY
 70
     0
  9
$TDCREATE
 40
2458155.454811667
  9
$TDUCREATE
 40
2458155.079811667
  9
$TDUPDATE
 40
2458155.454812153
  9
$TDUUPDATE
 40
2458155.079812153
  9
$TDINDWG
 40
0.0000000116
  9
$TDUSRTIMER
 40
0.0000000116
  9
$USRTIMER
 70
     1
  9
$ANGBASE
 50
0.0
  9
$ANGDIR
 70
     0
  9
$PDMODE
 70
     0
  9
$PDSIZE
 40
-1.0
  9
$PLINEWID
 40
0.0
  9
$SPLFRAME
 70
     0
  9
$SPLINETYPE
 70
     6
  9
$SPLINESEGS
 70
     8
  9
$HANDSEED
  5
1A8
  9
$SURFTAB1
 70
     6
  9
$SURFTAB2
 70
     6
  9
$SURFTYPE
 70
     6
  9
$SURFU
 70
     6
  9
$SURFV
 70
     6
  9
$UCSBASE
  2

  9
$UCSNAME
  2

  9
$UCSORG
 10
0.0
 20
0.0
 30
0.0
  9
$UCSXDIR
 10
1.0
 20
0.0
 30
0.0
  9
$UCSYDIR
 10
0.0
 20
1.0
 30
0.0
  9
$UCSORTHOREF
  2

  9
$UCSORTHOVIEW
 70
     0
  9
$UCSORGTOP
 10
0.0
 20
0.0
 30
0.0
  9
$UCSORGBOTTOM
 10
0.0
 20
0.0
 30
0.0
  9
$UCSORGLEFT
 10
0.0
 20
0.0
 30
0.0
  9
$UCSORGRIGHT
 10
0.0
 20
0.0
 30
0.0
  9
$UCSORGFRONT
 10
0.0
 20
0.0
 30
0.0
  9
$UCSORGBACK
 10
0.0
 20
0.0
 30
0.0
  9
$PUCSBASE
  2

  9
$PUCSNAME
  2

  9
$PUCSORG
 10
0.0
 20
0.0
 30
0.0
  9
$PUCSXDIR
 10
1.0
 20
0.0
 30
0.0
  9
$PUCSYDIR
 10
0.0
 20
1.0
 30
0.0
  9
$PUCSORTHOREF
  2

  9
$PUCSORTHOVIEW
 70
     0
  9
$PUCSORGTOP
 10
0.0
 20
0.0
 30
0.0
  9
$PUCSORGBOTTOM
 10
0.0
 20
0.0
 30
0.0
  9
$PUCSORGLEFT
 10
0.0
 20
0.0
 30
0.0
  9
$PUCSORGRIGHT
 10
0.0
 20
0.0
 30
0.0
  9
$PUCSORGFRONT
 10
0.0
 20
0.0
 30
0.0
  9
$PUCSORGBACK
 10
0.0
 20
0.0
 30
0.0
  9
$USERI1
 70
     0
  9
$USERI2
 70
     0
  9
$USERI3
 70
     0
  9
$USERI4
 70
     0
  9
$USERI5
 70
     0
  9
$USERR1
 40
0.0
  9
$USERR2
 40
0.0
  9
$USERR3
 40
0.0
  9
$USERR4
 40
0.0
  9
$USERR5
 40
0.0
  9
$WORLDVIEW
 70
     1
  9
$SHADEDGE
 70
     3
  9
$SHADEDIF
 70
    70
  9
$TILEMODE
 70
     1
  9
$MAXACTVP
 70
    64
  9
$PINSBASE
 10
0.0
 20
0.0
 30
0.0
  9
$PLIMCHECK
 70
     0
  9
$PEXTMIN
 10
1.0000000000E+20
 20
1.0000000000E+20
 30
1.0000000000E+20
  9
$PEXTMAX
 10
-1.0000000000E+20
 20
-1.0000000000E+20
 30
-1.0000000000E+20
  9
$PLIMMIN
 10
0.0
 20
0.0
  9
$PLIMMAX
 10
420.0
 20
297.0
  9
$UNITMODE
 70
     0
  9
$VISRETAIN
 70
     1
  9
$PLINEGEN
 70
     0
  9
$PSLTSCALE
 70
     1
  9
$TREEDEPTH
 70
  3020
  9
$CMLSTYLE
  2
Standard
  9
$CMLJUST
 70
     0
  9
$CMLSCALE
 40
20.0
  9
$PROXYGRAPHICS
 70
     1
  9
$MEASUREMENT
 70
     1
  9
$CELWEIGHT
370
    -1
  9
$ENDCAPS
280
     0
  9
$JOINSTYLE
280
     0
  9
$LWDISPLAY
290
     1
  9
$INSUNITS
 70
     4
  9
$HYPERLINKBASE
  1

  9
$STYLESHEET
  1

  9
$XEDIT
290
     1
  9
$CEPSNTYPE
380
     0
  9
$PSTYLEMODE
290
     1
  9
$FINGERPRINTGUID
  2
{7E8D3E56-6EAD-43AB-8672-FC1D25DAAD88}
  9
$VERSIONGUID
  2
{FAEB1C32-E019-11D5-929B-00C0DF256EC4}
  9
$EXTNAMES
290
     1
  9
$PSVPSCALE
 40
0.0
  9
$OLESTARTUP
290
     0
  0
ENDSEC
  0
SECTION
  2
CLASSES
  0
CLASS
  1
ACDBDICTIONARYWDFLT
  2
AcDbDictionaryWithDefault
  3
ObjectDBX Classes
 90
        0
280
     0
281
     0
  0
CLASS
  1
VISUALSTYLE
  2
AcDbVisualStyle
  3
ObjectDBX Classes
 90
     4095
280
     0
281
     0
  0
CLASS
  1
MATERIAL
  2
AcDbMaterial
  3
ObjectDBX Classes
 90
     1153
280
     0
281
     0
  0
CLASS
  1
SCALE
  2
AcDbScale
  3
ObjectDBX Classes
 90
     1153
280
     0
281
     0
  0
CLASS
  1
TABLESTYLE
  2
AcDbTableStyle
  3
ObjectDBX Classes
 90
     4095
280
     0
281
     0
  0
CLASS
  1
MLEADERSTYLE
  2
AcDbMLeaderStyle
  3
ACDB_MLEADERSTYLE_CLASS
 90
     4095
280
     0
281
     0
  0
CLASS
  1
SUN
  2
AcDbSun
  3
SCENEOE
 90
     1153
280
     0
281
     0
  0
CLASS
  1
ACDBPLACEHOLDER
  2
AcDbPlaceHolder
  3
ObjectDBX Classes
 90
        0
280
     0
281
     0
  0
CLASS
  1
LAYOUT
  2
AcDbLayout
  3
ObjectDBX Classes
 90
        0
280
     0
281
     0
  0
ENDSEC
  0
SECTION
  2
TABLES
  0
TABLE
  2
VPORT
  5
8
330
0
100
AcDbSymbolTable
 70
     1
  0
VPORT
  5
29
330
8
100
AcDbSymbolTableRecord
100
AcDbViewportTableRecord
  2
*Active
 70
     0
 10
0.0
 20
0.0
 11
1.0
 21
1.0
 12
210.0
 22
148.5
 13
0.0
 23
0.0
 14
10.0
 24
10.0
 15
10.0
 25
10.0
 16
0.0
 26
0.0
 36
1.0
 17
0.0
 27
0.0
 37
0.0
 40
297.0
 41
1.4141414141
 42
50.0
 43
0.0
 44
0.0
 50
0.0
 51
0.0
 71
     0
 72
  2000
 73
     1
 74
     3
 75
     0
 76
     0
 77
     0
 78
     0
281
     0
 65
     1
110
0.0
120
0.0
130
0.0
111
1.0
121
0.0
131
0.0
112
0.0
122
1.0
132
0.0
 79
     0
146
0.0
  0
ENDTAB
  0
TABLE
  2
LTYPE
  5
5
330
0
100
AcDbSymbolTable
 70
     6
  0
LTYPE
  5
14
330
5
100
AcDbSymbolTableRecord
100
AcDbLinetypeTableRecord
  2
ByBlock
 70
     0
  3

 72
    65
 73
     0
 40
0.0
  0
LTYPE
  5
15
330
5
100
AcDbSymbolTableRecord
100
AcDbLinetypeTableRecord
  2
ByLayer
 70
     0
  3

 72
    65
 73
     0
 40
0.0
  0
LTYPE
  5
16
330
5
100
AcDbSymbolTableRecord
100
AcDbLinetypeTableRecord
  2
Continuous
 70
     0
  3
Solid line
 72
    65
 73
     0
 40
0.0
  0
LTYPE
  5
6E
330
5
100
AcDbSymbolTableRecord
100
AcDbLinetypeTableRecord
  2
HIDDEN
 70
     0
  3
Hidden __ __ __ __ __ __ __ __ __ __ __ __ __ __
 72
    65
 73
     2
 40
1.905
 49
1.27
 74
     0
 49
-0.635
 74
     0
  0
LTYPE
  5
6F
330
5
100
AcDbSymbolTableRecord
100
AcDbLinetypeTableRecord
  2
PHANTOM
 70
     0
  3
Phantom ______  __  __  ______  __  __  ______
 72
    65
 73
     6
 40
12.7
 49
6.35
 74
     0
 49
-1.27
 74
     0
 49
1.27
 74
     0
 49
-1.27
 74
     0
 49
1.27
 74
     0
 49
-1.27
 74
     0
  0
LTYPE
  5
70
330
5
100
AcDbSymbolTableRecord
100
AcDbLinetypeTableRecord
  2
CENTER
 70
     0
  3
Center ____ _ ____ _ ____ _ ____ _ ____ _ ____
 72
    65
 73
     4
 40
10.16
 49
6.35
 74
     0
 49
-1.27
 74
     0
 49
1.27
 74
     0
 49
-1.27
 74
     0
  0
LTYPE
  5
71
330
5
100
AcDbSymbolTableRecord
100
AcDbLinetypeTableRecord
  2
CENTERX2
 70
     0
  3
Center (2x) ________  __  ________  __  _____
 72
    65
 73
     4
 40
20.32
 49
12.7
 74
     0
 49
-2.54
 74
     0
 49
2.54
 74
     0
 49
-2.54
 74
     0
  0
LTYPE
  5
72
330
5
100
AcDbSymbolTableRecord
100
AcDbLinetypeTableRecord
  2
DOT2
 70
     0
  3
Dot (.5x) ........................................
 72
    65
 73
     2
 40
0.635
 49
0.0
 74
     0
 49
-0.635
 74
     0
  0
ENDTAB
  0
TABLE
  2
LAYER
  5
2
330
0
100
AcDbSymbolTable
 70
     9
  0
LAYER
  5
10
330
2
100
AcDbSymbolTableRecord
100
AcDbLayerTableRecord
  2
0
 70
     0
 62
     7
  6
Continuous
370
    -3
390
F
  0
LAYER
  5
73
330
2
100
AcDbSymbolTableRecord
100
AcDbLayerTableRecord
  2
SLD-0
 70
     0
 62
     7
  6
Continuous
370
    -3
390
F
  0
LAYER
  5
74
330
2
100
AcDbSymbolTableRecord
100
AcDbLayerTableRecord
  2
8
 70
     0
 62
     7
  6
Continuous
370
    15
390
F
  0
LAYER
  5
75
330
2
100
AcDbSymbolTableRecord
100
AcDbLayerTableRecord
  2
9
 70
     0
 62
     7
  6
Continuous
370
    -3
390
F
  0
LAYER
  5
76
330
2
100
AcDbSymbolTableRecord
100
AcDbLayerTableRecord
  2
10
 70
     0
 62
     1
  6
Continuous
370
    -3
390
F
  0
LAYER
  5
77
330
2
100
AcDbSymbolTableRecord
100
AcDbLayerTableRecord
  2
11
 70
     0
 62
     7
  6
Continuous
370
    -3
390
F
  0
LAYER
  5
78
330
2
100
AcDbSymbolTableRecord
100
AcDbLayerTableRecord
  2
1
 70
     0
 62
   179
  6
Continuous
370
    -3
390
F
  0
LAYER
  5
79
330
2
100
AcDbSymbolTableRecord
100
AcDbLayerTableRecord
  2
2
 70
     0
 62
  -179
  6
Continuous
290
     0
370
    -3
390
F
  0
LAYER
  5
7A
330
2
100
AcDbSymbolTableRecord
100
AcDbLayerTableRecord
  2
7
 70
     0
 62
   179
  6
Continuous
370
    -3
390
F
  0
ENDTAB
  0
TABLE
  2
STYLE
  5
3
330
0
100
AcDbSymbolTable
 70
     2
  0
STYLE
  5
11
330
3
100
AcDbSymbolTableRecord
100
AcDbTextStyleTableRecord
  2
Standard
 70
     0
 40
0.0
 41
1.0
 50
0.0
 71
     0
 42
3.8805555556
  3
txt
  4
bigfont
  0
STYLE
  5
7B
330
3
100
AcDbSymbolTableRecord
100
AcDbTextStyleTableRecord
  2
SLDTEXTSTYLE0
 70
     0
 40
0.0
 41
0.7
 50
0.0
 71
     0
 42
3.8805555556
  3
TXT
  4
bigfont
  0
ENDTAB
  0
TABLE
  2
VIEW
  5
6
330
0
100
AcDbSymbolTable
 70
     0
  0
ENDTAB
  0
TABLE
  2
UCS
  5
7
330
0
100
AcDbSymbolTable
 70
     0
  0
ENDTAB
  0
TABLE
  2
APPID
  5
9
330
0
100
AcDbSymbolTable
 70
     1
  0
APPID
  5
12
330
9
100
AcDbSymbolTableRecord
100
AcDbRegAppTableRecord
  2
ACAD
 70
     0
  0
ENDTAB
  0
TABLE
  2
DIMSTYLE
  5
A
330
0
100
AcDbSymbolTable
 70
     1
100
AcDbDimStyleTable
  0
DIMSTYLE
105
27
330
A
100
AcDbSymbolTableRecord
100
AcDbDimStyleTableRecord
  2
ISO-25
 70
     0
 41
2.5
 42
0.625
 43
3.75
 44
1.25
 73
     0
 74
     0
 77
     1
 78
     8
140
2.5
141
2.5
143
0.0393700787
147
0.625
171
     3
172
     1
178
     0
271
     2
272
     2
274
     3
278
    44
283
     0
284
     8
340
11
  0
ENDTAB
  0
TABLE
  2
BLOCK_RECORD
  5
1
330
0
100
AcDbSymbolTable
 70
     1
  0
BLOCK_RECORD
  5
1F
330
1
100
AcDbSymbolTableRecord
100
AcDbBlockTableRecord
  2
*Model_Space
340
22
  0
BLOCK_RECORD
  5
1B
330
1
100
AcDbSymbolTableRecord
100
AcDbBlockTableRecord
  2
*Paper_Space
340
1E
  0
BLOCK_RECORD
  5
23
330
1
100
AcDbSymbolTableRecord
100
AcDbBlockTableRecord
  2
*Paper_Space0
340
26
  0
ENDTAB
  0
ENDSEC
  0
SECTION
  2
BLOCKS
  0
BLOCK
  5
20
330
1F
100
AcDbEntity
  8
0
100
AcDbBlockBegin
  2
*Model_Space
 70
     0
 10
0.0
 20
0.0
 30
0.0
  3
*Model_Space
  1

  0
ENDBLK
  5
21
330
1F
100
AcDbEntity
  8
0
100
AcDbBlockEnd
  0
BLOCK
  5
1C
330
1B
100
AcDbEntity
 67
     1
  8
0
100
AcDbBlockBegin
  2
*Paper_Space
 70
     0
 10
0.0
 20
0.0
 30
0.0
  3
*Paper_Space
  1

  0
ENDBLK
  5
1D
330
1B
100
AcDbEntity
 67
     1
  8
0
100
AcDbBlockEnd
  0
BLOCK
  5
24
330
23
100
AcDbEntity
  8
0
100
AcDbBlockBegin
  2
*Paper_Space0
 70
     0
 10
0.0
 20
0.0
 30
0.0
  3
*Paper_Space0
  1

  0
ENDBLK
  5
25
330
23
100
AcDbEntity
  8
0
100
AcDbBlockEnd
  0
ENDSEC
  0
SECTION
  2
ENTITIES
  0
MTEXT
  5
7C
330
1F
100
AcDbEntity
  8
9
 62
     7
100
AcDbMText
 10
22.9810592731
 20
14.7698939359
 30
0.0
 40
3.7041666667
 41
0.0
 71
     1
 72
     1
  1
2017/08/03
  7
SLDTEXTSTYLE0
 73
     1
 44
1.0
  0
MTEXT
  5
7D
330
1F
100
AcDbEntity
  8
9
 62
     7
100
AcDbMText
 10
22.9810592731
 20
39.3097759652
 30
0.0
 40
3.7041666667
 41
0.0
 71
     1
 72
     1
  1
PXB-AC06-450
  7
SLDTEXTSTYLE0
 73
     1
 44
1.0
  0
MTEXT
  5
7E
330
1F
100
AcDbEntity
  8
9
 62
     7
100
AcDbMText
 10
22.9810592731
 20
22.271836236
 30
0.0
 40
3.7041666667
 41
0.0
 71
     1
 72
     1
  1
-
  7
SLDTEXTSTYLE0
 73
     1
 44
1.0
  0
MTEXT
  5
7F
330
1F
100
AcDbEntity
  8
9
 62
     7
100
AcDbMText
 10
22.9810592731
 20
30.9293045781
 30
0.0
 40
3.7041666667
 41
0.0
 71
     1
 72
     1
  1
1:1
  7
SLDTEXTSTYLE0
 73
     1
 44
1.0
  0
SPLINE
  5
80
330
1F
100
AcDbEntity
  8
0
  6
Continuous
 62
     7
370
    30
100
AcDbSpline
210
0.0
220
0.0
230
1.0
 70
     8
 71
     3
 72
     9
 73
     5
 74
     0
 42
0.000000001
 43
0.00000001
 40
0.0
 40
0.0
 40
0.0
 40
0.0
 40
0.1000613254511381
 40
1.0
 40
1.0
 40
1.0
 40
1.0
 10
415.9276052430288
 20
166.9602859967349
 30
0.0
 10
416.1883296536991
 20
166.8550274544278
 30
0.0
 10
418.7939758361259
 20
165.803087138502
 30
0.0
 10
421.3999145615035
 20
164.7221774656759
 30
0.0
 10
423.7450996039753
 20
163.7494250474056
 30
0.0
  0
SPLINE
  5
81
330
1F
100
AcDbEntity
  8
0
  6
Continuous
 62
     7
370
    30
100
AcDbSpline
210
0.0
220
0.0
230
1.0
 70
     8
 71
     3
 72
     9
 73
     5
 74
     0
 42
0.000000001
 43
0.00000001
 40
0.0
 40
0.0
 40
0.0
 40
0.0
 40
0.49171169976128
 40
1.0
 40
1.0
 40
1.0
 40
1.0
 10
414.9213700531621
 20
167.1422590994569
 30
0.0
 10
415.1023584174346
 20
167.1358343550374
 30
0.0
 10
415.4704366314782
 20
167.1227682750099
 30
0.0
 10
415.7814003360143
 20
167.0116383048872
 30
0.0
 10
415.9394595488288
 20
166.9551522412679
 30
0.0
  0
SPLINE
  5
82
330
1F
100
AcDbEntity
  8
0
  6
Continuous
 62
     7
370
    30
100
AcDbSpline
210
0.0
220
0.0
230
1.0
 70
     8
 71
     3
 72
    10
 73
     6
 74
     0
 42
0.000000001
 43
0.00000001
 40
0.0
 40
0.0
 40
0.0
 40
0.0
 40
0.0678979154997607
 40
0.6530672150760862
 40
1.0
 40
1.0
 40
1.0
 40
1.0
 10
3.841537191260569
 20
166.952473775136
 30
0.0
 10
3.859793142103301
 20
166.9623782152152
 30
0.0
 10
4.035385616300929
 20
167.0576427760174
 30
0.0
 10
4.388822013875915
 20
167.1354867508063
 30
0.0
 10
4.729673172329779
 20
167.1311942109475
 30
0.0
 10
4.856539578502794
 20
167.1295965073994
 30
0.0
  0
LINE
  5
83
330
1F
100
AcDbEntity
  8
0
  6
Continuous
 62
     7
370
    30
100
AcDbLine
 10
-3.9725000001
 20
163.7535145555
 30
0.0
 11
3.854652487
 21
166.9501852368
 31
0.0
  0
LINE
  5
84
330
1F
100
AcDbEntity
  8
0
  6
Continuous
 62
     7
370
    30
100
AcDbLine
 10
4.8547873406
 20
167.1476738794
 30
0.0
 11
414.9223232975
 21
167.1476738794
 31
0.0
  0
LINE
  5
85
330
1F
100
AcDbEntity
  8
0
  6
Continuous
 62
     7
370
    30
100
AcDbLine
 10
414.8937313015
 20
185.0692820235
 30
0.0
 11
4.8694696564
 21
185.0692820235
 31
0.0
  0
SPLINE
  5
86
330
1F
100
AcDbEntity
  8
0
  6
Continuous
 62
     7
370
    30
100
AcDbSpline
210
0.0
220
0.0
230
1.0
 70
     8
 71
     3
 72
    10
 73
     6
 74
     0
 42
0.000000001
 43
0.00000001
 40
0.0
 40
0.0
 40
0.0
 40
0.0
 40
0.3238775051358191
 40
0.8789029539496112
 40
1.0
 40
1.0
 40
1.0
 40
1.0
 10
415.9211671932379
 20
185.2855833158168
 30
0.0
 10
415.8223510500734
 20
185.240609063507
 30
0.0
 10
415.5541947294029
 20
185.1185629115515
 30
0.0
 10
415.1719357729819
 20
185.0494489757394
 30
0.0
 10
414.9091115390631
 20
185.0784685352741
 30
0.0
 10
414.8620383554318
 20
185.0836660889186
 30
0.0
  0
SPLINE
  5
87
330
1F
100
AcDbEntity
  8
0
  6
Continuous
 62
     7
370
    30
100
AcDbSpline
210
0.0
220
0.0
230
1.0
 70
     8
 71
     3
 72
    10
 73
     6
 74
     0
 42
0.000000001
 43
0.00000001
 40
0.0
 40
0.0
 40
0.0
 40
0.0
 40
0.2058075054969472
 40
0.7562753039913516
 40
1.0
 40
1.0
 40
1.0
 40
1.0
 10
4.871602352178872
 20
185.0856911197298
 30
0.0
 10
4.795231997657079
 20
185.0812688625057
 30
0.0
 10
4.514595910346059
 20
185.0650185128481
 30
0.0
 10
4.157000666904109
 20
185.1385682146753
 30
0.0
 10
3.92533545429144
 20
185.2440579197927
 30
0.0
 10
3.854241186956209
 20
185.2764309861333
 30
0.0
  0
LINE
  5
88
330
1F
100
AcDbEntity
  8
0
  6
Continuous
 62
     7
370
    30
100
AcDbLine
 10
423.7488530344
 20
188.4818338102
 30
0.0
 11
415.9122177529
 21
185.2636989249
 31
0.0
  0
SPLINE
  5
89
330
1F
100
AcDbEntity
  8
0
  6
Continuous
 62
     7
370
    30
100
AcDbSpline
210
0.0
220
0.0
230
1.0
 70
     8
 71
     3
 72
     9
 73
     5
 74
     0
 42
0.000000001
 43
0.00000001
 40
0.0
 40
0.0
 40
0.0
 40
0.0
 40
0.2005880967266587
 40
0.9999999999999999
 40
0.9999999999999999
 40
0.9999999999999999
 40
0.9999999999999999
 10
3.860283501928685
 20
185.2597333709545
 30
0.0
 10
3.335924653916162
 20
185.4733697819579
 30
0.0
 10
0.7218171541722163
 20
186.5384200740221
 30
0.0
 10
-1.891745501251152
 20
187.62188994943
 30
0.0
 10
-3.98105859794734
 20
188.4880286646691
 30
0.0
  0
SPLINE
  5
8A
330
1F
100
AcDbEntity
  8
0
  6
Continuous
 62
     7
370
    30
100
AcDbSpline
210
0.0
220
0.0
230
1.0
 70
     8
 71
     3
 72
    14
 73
    10
 74
     0
 42
0.000000001
 43
0.00000001
 40
0.0
 40
0.0
 40
0.0
 40
0.0
 40
0.2576370582548978
 40
0.3779614853095857
 40
0.4684390421379837
 40
0.5908360775193952
 40
0.7591821364288925
 40
0.9499688774954342
 40
1.0
 40
1.0
 40
1.0
 40
1.0
 10
-4.610803328955027
 20
162.9384662449853
 30
0.0
 10
-4.611856708696738
 20
162.9347526223983
 30
0.0
 10
-4.613402049163162
 20
162.9293046238907
 30
0.0
 10
-4.599854214183519
 20
163.0292321414773
 30
0.0
 10
-4.566437275076717
 20
163.1564517477005
 30
0.0
 10
-4.486837608878636
 20
163.3411155294503
 30
0.0
 10
-4.321677146995606
 20
163.5483012288568
 30
0.0
 10
-4.139115725107889
 20
163.7007423796889
 30
0.0
 10
-4.008388014245911
 20
163.7333684116088
 30
0.0
 10
-3.981228674735632
 20
163.7401466338538
 30
0.0
  0
SPLINE
  5
8B
330
1F
100
AcDbEntity
  8
0
  6
Continuous
 62
     7
370
    30
100
AcDbSpline
210
0.0
220
0.0
230
1.0
 70
     8
 71
     3
 72
    15
 73
    11
 74
     0
 42
0.000000001
 43
0.00000001
 40
0.0
 40
0.0
 40
0.0
 40
0.0
 40
0.1294248359463244
 40
0.310509417982815
 40
0.4649461884198072
 40
0.5930519990466881
 40
0.6910579438816189
 40
0.7783803654253723
 40
0.8904271214117205
 40
1.0
 40
1.0
 40
1.0
 40
1.0
 10
423.7486982564719
 20
163.7420997544985
 30
0.0
 10
423.8081508021778
 20
163.7211440521199
 30
0.0
 10
423.9507862958198
 20
163.6708682074456
 30
0.0
 10
424.1229331892834
 20
163.5190486974067
 30
0.0
 10
424.2571496828984
 20
163.3430045640209
 30
0.0
 10
424.3310923920935
 20
163.1847204057727
 30
0.0
 10
424.3649872997001
 20
163.0712912298154
 30
0.0
 10
424.37968919078
 20
162.9979217907537
 30
0.0
 10
424.3856250544684
 20
162.9509626149487
 30
0.0
 10
424.3861187230015
 20
162.9414228228766
 30
0.0
 10
424.3863628019268
 20
162.936706171843
 30
0.0
  0
SPLINE
  5
8C
330
1F
100
AcDbEntity
  8
0
  6
Continuous
 62
     7
370
    30
100
AcDbSpline
210
0.0
220
0.0
230
1.0
 70
     8
 71
     3
 72
    15
 73
    11
 74
     0
 42
0.000000001
 43
0.00000001
 40
0.0
 40
0.0
 40
0.0
 40
0.0
 40
0.072480776465742
 40
0.2601783788031546
 40
0.4202174107139256
 40
0.5545634120272784
 40
0.6586366871156736
 40
0.7454005823259084
 40
0.8482927314121366
 40
1.0
 40
1.0
 40
1.0
 40
1.0
 10
-3.98722090692305
 20
188.4983640200378
 30
0.0
 10
-4.020760901207593
 20
188.5078737079575
 30
0.0
 10
-4.141156704943833
 20
188.5420098652466
 30
0.0
 10
-4.302253876751704
 20
188.6722252886348
 30
0.0
 10
-4.45272485731013
 20
188.8437253013595
 30
0.0
 10
-4.539751865887842
 20
189.0064119005142
 30
0.0
 10
-4.582214849355587
 20
189.1290248964232
 30
0.0
 10
-4.600922964145493
 20
189.2089703995242
 30
0.0
 10
-4.609937941776749
 20
189.2669047344304
 30
0.0
 10
-4.611034487834731
 20
189.2819698116483
 30
0.0
 10
-4.611687882916438
 20
189.290946586759
 30
0.0
  0
SPLINE
  5
8D
330
1F
100
AcDbEntity
  8
0
  6
Continuous
 62
     7
370
    30
100
AcDbSpline
210
0.0
220
0.0
230
1.0
 70
     8
 71
     3
 72
    14
 73
    10
 74
     0
 42
0.000000001
 43
0.00000001
 40
0.0
 40
0.0
 40
0.0
 40
0.0
 40
0.2331548422965149
 40
0.3496367066556016
 40
0.4402730926884582
 40
0.5605158239605669
 40
0.7331776191575419
 40
0.9270455011793763
 40
1.0
 40
1.0
 40
1.0
 40
1.0
 10
424.3861464407477
 20
189.2826489069326
 30
0.0
 10
424.3870019709979
 20
189.2874152344398
 30
0.0
 10
424.3882849157404
 20
189.2945627722566
 30
0.0
 10
424.3759022115576
 20
189.2054698399502
 30
0.0
 10
424.3459204931197
 20
189.0889186369088
 30
0.0
 10
424.272306492448
 20
188.9112345802957
 30
0.0
 10
424.1169415699072
 20
188.7055328812085
 30
0.0
 10
423.9319922576372
 20
188.5463214042077
 30
0.0
 10
423.7935359884806
 20
188.5080646988634
 30
0.0
 10
423.7556793150898
 20
188.4976045614637
 30
0.0
  0
LINE
  5
8E
330
1F
100
AcDbEntity
  8
0
  6
Continuous
 62
     7
370
    30
100
AcDbLine
 10
445.387643143
 20
185.8187905678
 30
0.0
 11
445.387643143
 21
166.3338995734
 31
0.0
  0
LINE
  5
8F
330
1F
100
AcDbEntity
  8
0
  6
Continuous
 62
     7
370
    30
100
AcDbLine
 10
-25.612356857
 20
166.3338995734
 30
0.0
 11
-25.612356857
 21
185.8187905678
 31
0.0
  0
LINE
  5
90
330
1F
100
AcDbEntity
  8
0
  6
Continuous
 62
     7
370
    30
100
AcDbLine
 10
-25.612356857
 20
159.5963502913
 30
0.0
 11
-25.612356857
 21
166.3338995734
 31
0.0
  0
LINE
  5
91
330
1F
100
AcDbEntity
  8
0
  6
Continuous
 62
     7
370
    30
100
AcDbLine
 10
-4.612356857
 20
192.5563398499
 30
0.0
 11
-4.612356857
 21
189.295700803
 31
0.0
  0
LINE
  5
92
330
1F
100
AcDbEntity
  8
0
  6
Continuous
 62
     7
370
    30
100
AcDbLine
 10
-4.614803919
 20
189.290447901
 30
0.0
 11
-4.612356857
 21
189.295700803
 31
0.0
  0
LINE
  5
93
330
1F
100
AcDbEntity
  8
0
  6
Continuous
 62
     7
370
    30
100
AcDbLine
 10
-4.612356857
 20
162.922990385
 30
0.0
 11
-4.612356857
 21
159.5963502913
 31
0.0
  0
LINE
  5
94
330
1F
100
AcDbEntity
  8
0
  6
Continuous
 62
     7
370
    30
100
AcDbLine
 10
424.387643143
 20
189.295700803
 30
0.0
 11
424.387643143
 21
192.5563398499
 31
0.0
  0
LINE
  5
95
330
1F
100
AcDbEntity
  8
0
  6
Continuous
 62
     7
370
    30
100
AcDbLine
 10
445.387643143
 20
166.3338995734
 30
0.0
 11
445.387643143
 21
159.5963502913
 31
0.0
  0
LINE
  5
96
330
1F
100
AcDbEntity
  8
0
  6
Continuous
 62
     7
370
    30
100
AcDbLine
 10
-25.612356857
 20
185.8187905678
 30
0.0
 11
-25.612356857
 21
192.5563398499
 31
0.0
  0
LINE
  5
97
330
1F
100
AcDbEntity
  8
0
  6
Continuous
 62
     7
370
    30
100
AcDbLine
 10
445.387643143
 20
192.5563398499
 30
0.0
 11
445.387643143
 21
185.8187905678
 31
0.0
  0
LINE
  5
98
330
1F
100
AcDbEntity
  8
0
  6
Continuous
 62
     7
370
    30
100
AcDbLine
 10
424.387643143
 20
159.5963502913
 30
0.0
 11
424.387643143
 21
162.922990385
 31
0.0
  0
LINE
  5
99
330
1F
100
AcDbEntity
  8
0
  6
Continuous
 62
     7
370
    30
100
AcDbLine
 10
424.3896079645
 20
162.9372792739
 30
0.0
 11
424.387643143
 21
162.922990385
 31
0.0
  0
SPLINE
  5
9A
330
1F
100
AcDbEntity
  8
0
  6
Continuous
 62
     7
370
    30
100
AcDbSpline
210
0.0
220
0.0
230
1.0
 70
     8
 71
     3
 72
     9
 73
     5
 74
     0
 42
0.000000001
 43
0.00000001
 40
0.0
 40
0.0
 40
0.0
 40
0.0
 40
0.0346626747864885
 40
1.0
 40
1.0
 40
1.0
 40
1.0
 10
414.9223232974746
 20
167.1484894648836
 30
0.0
 10
414.9237903635486
 20
167.14821559116
 30
0.0
 10
414.9661144508538
 20
167.1403144777784
 30
0.0
 10
414.9743792585041
 20
167.1533020429403
 30
0.0
 10
414.9823575858147
 20
167.1658394243547
 30
0.0
  0
LINE
  5
9B
330
1F
100
AcDbEntity
  8
0
  6
Continuous
 62
     7
370
    30
100
AcDbLine
 10
4.7929287003
 20
167.1658394244
 30
0.0
 11
4.8547873406
 21
167.1488507466
 31
0.0
  0
LINE
  5
9C
330
1F
100
AcDbEntity
  8
0
  6
Continuous
 62
     7
370
    30
100
AcDbLine
 10
414.9768495749
 20
185.0583269322
 30
0.0
 11
414.8937313015
 21
185.0621261549
 31
0.0
  0
SPLINE
  5
9D
330
1F
100
AcDbEntity
  8
0
  6
Continuous
 62
     7
370
    30
100
AcDbSpline
210
0.0
220
0.0
230
1.0
 70
     8
 71
     3
 72
     9
 73
     5
 74
     0
 42
0.000000001
 43
0.00000001
 40
0.0
 40
0.0
 40
0.0
 40
0.0
 40
0.1509808416202995
 40
0.9999999999999999
 40
0.9999999999999999
 40
0.9999999999999999
 40
0.9999999999999999
 10
4.86946965643556
 20
185.0667480820191
 30
0.0
 10
4.863892983943435
 20
185.0676272656553
 30
0.0
 10
4.826956691680817
 20
185.0734504126634
 30
0.0
 10
4.811532308255178
 20
185.0652712218748
 30
0.0
 10
4.79843671122071
 20
185.0583269321951
 30
0.0
  0
LINE
  5
9E
330
1F
100
AcDbEntity
  8
0
  6
Continuous
 62
     7
370
    30
100
AcDbLine
 10
424.3873543246
 20
189.272292968
 30
0.0
 11
424.387643143
 21
189.295700803
 31
0.0
  0
ARC
  5
9F
330
1F
100
AcDbEntity
  8
0
  6
Continuous
 62
     7
370
    30
100
AcDbCircle
 10
425.887643143
 20
192.5763450706
 30
0.0
 40
1.5
100
AcDbArc
 50
90.0
 51
180.0
  0
LINE
  5
A0
330
1F
100
AcDbEntity
  8
0
  6
Continuous
 62
     7
370
    30
100
AcDbLine
 10
424.387643143
 20
192.5763450706
 30
0.0
 11
424.387643143
 21
192.5563398499
 31
0.0
  0
ARC
  5
A1
330
1F
100
AcDbEntity
  8
0
  6
Continuous
 62
     7
370
    30
100
AcDbCircle
 10
-6.112356857
 20
159.5763450706
 30
0.0
 40
1.500000000000001
100
AcDbArc
 50
270.0
 51
0.0
  0
LINE
  5
A2
330
1F
100
AcDbEntity
  8
0
  6
Continuous
 62
     7
370
    30
100
AcDbLine
 10
-4.612356857
 20
159.5763450706
 30
0.0
 11
-4.612356857
 21
159.5963502913
 31
0.0
  0
ARC
  5
A3
330
1F
100
AcDbEntity
  8
0
  6
Continuous
 62
     7
370
    30
100
AcDbCircle
 10
443.887643143
 20
159.5763450706
 30
0.0
 40
1.5
100
AcDbArc
 50
270.0
 51
0.0
  0
LINE
  5
A4
330
1F
100
AcDbEntity
  8
0
  6
Continuous
 62
     7
370
    30
100
AcDbLine
 10
445.387643143
 20
159.5763450706
 30
0.0
 11
445.387643143
 21
159.5963502913
 31
0.0
  0
ARC
  5
A5
330
1F
100
AcDbEntity
  8
0
  6
Continuous
 62
     7
370
    30
100
AcDbCircle
 10
-24.112356857
 20
159.5763450706
 30
0.0
 40
1.5
100
AcDbArc
 50
180.0
 51
270.0
  0
LINE
  5
A6
330
1F
100
AcDbEntity
  8
0
  6
Continuous
 62
     7
370
    30
100
AcDbLine
 10
-25.612356857
 20
159.5963502913
 30
0.0
 11
-25.612356857
 21
159.5763450706
 31
0.0
  0
ARC
  5
A7
330
1F
100
AcDbEntity
  8
0
  6
Continuous
 62
     7
370
    30
100
AcDbCircle
 10
443.887643143
 20
192.5763450706
 30
0.0
 40
1.5
100
AcDbArc
 50
0.0
 51
90.0
  0
LINE
  5
A8
330
1F
100
AcDbEntity
  8
0
  6
Continuous
 62
     7
370
    30
100
AcDbLine
 10
445.387643143
 20
192.5563398499
 30
0.0
 11
445.387643143
 21
192.5763450706
 31
0.0
  0
ARC
  5
A9
330
1F
100
AcDbEntity
  8
0
  6
Continuous
 62
     7
370
    30
100
AcDbCircle
 10
-6.112356857
 20
192.5763450706
 30
0.0
 40
1.500000000000001
100
AcDbArc
 50
0.0
 51
90.0
  0
LINE
  5
AA
330
1F
100
AcDbEntity
  8
0
  6
Continuous
 62
     7
370
    30
100
AcDbLine
 10
-4.612356857
 20
192.5563398499
 30
0.0
 11
-4.612356857
 21
192.5763450706
 31
0.0
  0
ARC
  5
AB
330
1F
100
AcDbEntity
  8
0
  6
Continuous
 62
     7
370
    30
100
AcDbCircle
 10
425.887643143
 20
159.5763450706
 30
0.0
 40
1.5
100
AcDbArc
 50
180.0
 51
270.0
  0
LINE
  5
AC
330
1F
100
AcDbEntity
  8
0
  6
Continuous
 62
     7
370
    30
100
AcDbLine
 10
424.387643143
 20
159.5963502913
 30
0.0
 11
424.387643143
 21
159.5763450706
 31
0.0
  0
LINE
  5
AD
330
1F
100
AcDbEntity
  8
0
  6
Continuous
 62
     7
370
    30
100
AcDbLine
 10
425.887643143
 20
194.0763450706
 30
0.0
 11
443.887643143
 21
194.0763450706
 31
0.0
  0
ARC
  5
AE
330
1F
100
AcDbEntity
  8
0
  6
Continuous
 62
     7
370
    30
100
AcDbCircle
 10
-24.112356857
 20
192.5763450706
 30
0.0
 40
1.5
100
AcDbArc
 50
90.0
 51
180.0
  0
LINE
  5
AF
330
1F
100
AcDbEntity
  8
0
  6
Continuous
 62
     7
370
    30
100
AcDbLine
 10
-25.612356857
 20
192.5763450706
 30
0.0
 11
-25.612356857
 21
192.5563398499
 31
0.0
  0
LINE
  5
B0
330
1F
100
AcDbEntity
  8
0
  6
Continuous
 62
     7
370
    30
100
AcDbLine
 10
-24.112356857
 20
194.0763450706
 30
0.0
 11
-6.112356857
 21
194.0763450706
 31
0.0
  0
LINE
  5
B1
330
1F
100
AcDbEntity
  8
0
  6
Continuous
 62
     7
370
    30
100
AcDbLine
 10
443.887643143
 20
158.0763450706
 30
0.0
 11
425.887643143
 21
158.0763450706
 31
0.0
  0
LINE
  5
B2
330
1F
100
AcDbEntity
  8
0
  6
Continuous
 62
     7
370
    30
100
AcDbLine
 10
-6.112356857
 20
158.0763450706
 30
0.0
 11
-24.112356857
 21
158.0763450706
 31
0.0
  0
ARC
  5
B3
330
1F
100
AcDbEntity
  8
0
  6
Continuous
 62
     7
370
    30
100
AcDbCircle
 10
424.887643143
 20
284.8652260278
 30
0.0
 40
0.5
100
AcDbArc
 50
90.0
 51
180.0
  0
LINE
  5
B4
330
1F
100
AcDbEntity
  8
0
  6
Continuous
 62
     7
370
    30
100
AcDbLine
 10
424.887643143
 20
285.3652260278
 30
0.0
 11
425.887643143
 21
285.3652260278
 31
0.0
  0
LINE
  5
B5
330
1F
100
AcDbEntity
  8
0
  6
Continuous
 62
     7
370
    30
100
AcDbLine
 10
-24.112356857
 20
285.3652260278
 30
0.0
 11
-6.112356857
 21
285.3652260278
 31
0.0
  0
LINE
  5
B6
330
1F
100
AcDbEntity
  8
0
  6
Continuous
 62
     7
370
    30
100
AcDbLine
 10
443.887643143
 20
285.3652260278
 30
0.0
 11
444.887643143
 21
285.3652260278
 31
0.0
  0
ARC
  5
B7
330
1F
100
AcDbEntity
  8
0
  6
Continuous
 62
     7
370
    30
100
AcDbCircle
 10
444.887643143
 20
284.8652260278
 30
0.0
 40
0.5
100
AcDbArc
 50
0.0
 51
90.0
  0
ARC
  5
B8
330
1F
100
AcDbEntity
  8
0
  6
Continuous
 62
     7
370
    30
100
AcDbCircle
 10
-25.112356857
 20
284.8652260278
 30
0.0
 40
0.5
100
AcDbArc
 50
90.0
 51
180.0
  0
LINE
  5
B9
330
1F
100
AcDbEntity
  8
0
  6
Continuous
 62
     7
370
    30
100
AcDbLine
 10
-25.112356857
 20
285.3652260278
 30
0.0
 11
-24.112356857
 21
285.3652260278
 31
0.0
  0
LINE
  5
BA
330
1F
100
AcDbEntity
  8
0
  6
Continuous
 62
     7
370
    30
100
AcDbLine
 10
425.887643143
 20
285.3652260278
 30
0.0
 11
443.887643143
 21
285.3652260278
 31
0.0
  0
LINE
  5
BB
330
1F
100
AcDbEntity
  8
0
  6
Continuous
 62
     7
370
    30
100
AcDbLine
 10
-6.112356857
 20
285.3652260278
 30
0.0
 11
-5.112356857
 21
285.3652260278
 31
0.0
  0
ARC
  5
BC
330
1F
100
AcDbEntity
  8
0
  6
Continuous
 62
     7
370
    30
100
AcDbCircle
 10
-5.112356857
 20
284.8652260278
 30
0.0
 40
0.5
100
AcDbArc
 50
0.0
 51
90.0
  0
LINE
  5
BD
330
1F
100
AcDbEntity
  8
0
  6
Continuous
 62
     7
370
    30
100
AcDbLine
 10
-4.612356857
 20
284.8652260278
 30
0.0
 11
-4.612356857
 21
270.6187489435
 31
0.0
  0
LINE
  5
BE
330
1F
100
AcDbEntity
  8
0
  6
Continuous
 62
     7
370
    30
100
AcDbLine
 10
424.387643143
 20
270.6187489435
 30
0.0
 11
424.387643143
 21
284.8652260278
 31
0.0
  0
LINE
  5
BF
330
1F
100
AcDbEntity
  8
0
  6
Continuous
 62
     7
370
    30
100
AcDbLine
 10
445.387643143
 20
284.8652260278
 30
0.0
 11
445.387643143
 21
270.6187489435
 31
0.0
  0
LINE
  5
C0
330
1F
100
AcDbEntity
  8
0
  6
Continuous
 62
     7
370
    30
100
AcDbLine
 10
-25.612356857
 20
270.6187489435
 30
0.0
 11
-25.612356857
 21
284.8652260278
 31
0.0
  0
LINE
  5
C1
330
1F
100
AcDbEntity
  8
0
  6
Continuous
 62
     7
370
    30
100
AcDbLine
 10
424.387643143
 20
270.6187489435
 30
0.0
 11
424.387643143
 21
270.3031132443
 31
0.0
  0
LINE
  5
C2
330
1F
100
AcDbEntity
  8
0
  6
Continuous
 62
     7
370
    30
100
AcDbLine
 10
-4.612356857
 20
270.3031132443
 30
0.0
 11
-4.612356857
 21
270.6187489435
 31
0.0
  0
LINE
  5
C3
330
1F
100
AcDbEntity
  8
0
  6
Continuous
 62
     7
370
    30
100
AcDbLine
 10
-25.612356857
 20
270.6187489435
 30
0.0
 11
-25.612356857
 21
270.3031132443
 31
0.0
  0
LINE
  5
C4
330
1F
100
AcDbEntity
  8
0
  6
Continuous
 62
     7
370
    30
100
AcDbLine
 10
445.387643143
 20
270.3031132443
 30
0.0
 11
445.387643143
 21
270.6187489435
 31
0.0
  0
LINE
  5
C5
330
1F
100
AcDbEntity
  8
0
  6
Continuous
 62
     7
370
    30
100
AcDbLine
 10
445.387643143
 20
270.3031132443
 30
0.0
 11
445.387643143
 21
217.3652260278
 31
0.0
  0
SPLINE
  5
C6
330
1F
100
AcDbEntity
  8
0
  6
Continuous
 62
     7
370
    30
100
AcDbSpline
210
0.0
220
0.0
230
1.0
 70
     8
 71
     3
 72
     8
 73
     4
 74
     0
 42
0.000000001
 43
0.00000001
 40
0.0
 40
0.0
 40
0.0
 40
0.0
 40
0.0002991796549735
 40
0.0002991796549735
 40
0.0002991796549735
 40
0.0002991796549735
 10
-4.612356856955019
 20
219.3319386572407
 30
0.0
 10
-4.612356856955019
 20
219.4298230341847
 30
0.0
 10
-4.612391243041025
 20
219.5283159682222
 30
0.0
 10
-4.612396414370279
 20
219.627152078046
 30
0.0
  0
LINE
  5
C7
330
1F
100
AcDbEntity
  8
0
  6
Continuous
 62
     7
370
    30
100
AcDbLine
 10
-4.612356857
 20
219.3319386572
 30
0.0
 11
-4.612356857
 21
217.3652260278
 31
0.0
  0
LINE
  5
C8
330
1F
100
AcDbEntity
  8
0
  6
Continuous
 62
     7
370
    30
100
AcDbLine
 10
-4.612356857
 20
270.3031132443
 30
0.0
 11
-4.612356857
 21
244.6838064475
 31
0.0
  0
SPLINE
  5
C9
330
1F
100
AcDbEntity
  8
0
  6
Continuous
 62
     7
370
    30
100
AcDbSpline
210
0.0
220
0.0
230
1.0
 70
     8
 71
     3
 72
    10
 73
     6
 74
     0
 42
0.000000001
 43
0.00000001
 40
0.0
 40
0.0
 40
0.0
 40
0.0
 40
0.5
 40
0.5
 40
1.0
 40
1.0
 40
1.0
 40
1.0
 10
-4.623316671109573
 20
242.8423193405565
 30
0.0
 10
-4.623594162728145
 20
243.1480267905191
 30
0.0
 10
-4.621897540248277
 20
243.4552197509389
 30
0.0
 10
-4.616362535045687
 20
244.0691055298462
 30
0.0
 10
-4.612356856955019
 20
244.3762914392398
 30
0.0
 10
-4.612356856955019
 20
244.6838064474913
 30
0.0
  0
LINE
  5
CA
330
1F
100
AcDbEntity
  8
0
  6
Continuous
 62
     7
370
    30
100
AcDbLine
 10
-25.612356857
 20
217.3652260278
 30
0.0
 11
-25.612356857
 21
270.3031132443
 31
0.0
  0
LINE
  5
CB
330
1F
100
AcDbEntity
  8
0
  6
Continuous
 62
     7
370
    30
100
AcDbLine
 10
424.387643143
 20
217.3652260278
 30
0.0
 11
424.387643143
 21
219.3319386572
 31
0.0
  0
SPLINE
  5
CC
330
1F
100
AcDbEntity
  8
0
  6
Continuous
 62
     7
370
    30
100
AcDbSpline
210
0.0
220
0.0
230
1.0
 70
     8
 71
     3
 72
     8
 73
     4
 74
     0
 42
0.000000001
 43
0.00000001
 40
0.0
 40
0.0
 40
0.0
 40
0.0
 40
0.0002991796549957
 40
0.0002991796549957
 40
0.0002991796549957
 40
0.0002991796549957
 10
424.3876827004602
 20
219.6271520780461
 30
0.0
 10
424.387677529131
 20
219.5283159682149
 30
0.0
 10
424.387643143045
 20
219.42982303417
 30
0.0
 10
424.387643143045
 20
219.3319386572188
 30
0.0
  0
SPLINE
  5
CD
330
1F
100
AcDbEntity
  8
0
  6
Continuous
 62
     7
370
    30
100
AcDbSpline
210
0.0
220
0.0
230
1.0
 70
     8
 71
     3
 72
    10
 73
     6
 74
     0
 42
0.000000001
 43
0.00000001
 40
0.0
 40
0.0
 40
0.0
 40
0.0
 40
0.5
 40
0.5
 40
1.0
 40
1.0
 40
1.0
 40
1.0
 10
424.387643143045
 20
244.6838064474914
 30
0.0
 10
424.3876431430449
 20
244.3758333675854
 30
0.0
 10
424.3916554652605
 20
244.0684755378469
 30
0.0
 10
424.3971873314019
 20
243.4547239032511
 30
0.0
 10
424.3988807216705
 20
243.1483273870116
 30
0.0
 10
424.3986029571996
 20
242.8423193405766
 30
0.0
  0
LINE
  5
CE
330
1F
100
AcDbEntity
  8
0
  6
Continuous
 62
     7
370
    30
100
AcDbLine
 10
424.387643143
 20
244.6838064475
 30
0.0
 11
424.387643143
 21
270.3031132443
 31
0.0
  0
ARC
  5
CF
330
1F
100
AcDbEntity
  8
0
  6
Continuous
 62
     7
370
    30
100
AcDbCircle
 10
423.387643143
 20
246.7636985087
 30
0.0
 40
1.0
100
AcDbArc
 50
316.548157699
 51
0.0
  0
ARC
  5
D0
330
1F
100
AcDbEntity
  8
0
  6
Continuous
 62
     7
370
    30
100
AcDbCircle
 10
-3.612356857
 20
246.7636985087
 30
0.0
 40
1.000000000000021
100
AcDbArc
 50
179.9999999999
 51
223.451842301
  0
SPLINE
  5
D1
330
1F
100
AcDbEntity
  8
0
  6
Continuous
 62
     7
370
    30
100
AcDbSpline
210
0.0
220
0.0
230
1.0
 70
    24
 71
     3
 72
    17
 73
    13
 74
     0
 42
0.000000001
 43
0.00000001
 40
0.0012601726770414
 40
0.0012601726770414
 40
0.0012601726770414
 40
0.0012601726770414
 40
0.0038555870256756
 40
0.0038555870256756
 40
0.0038555870256756
 40
0.0073159640216473
 40
0.0073159640216473
 40
0.0073159640216473
 40
0.012506532450863
 40
0.012506532450863
 40
0.012506532450863
 40
0.0131864608707795
 40
0.0131864608707795
 40
0.0131864608707795
 40
0.0131864608707795
 10
416.2219552384003
 20
237.7458887951283
 30
0.0
 10
416.7946839990807
 20
238.3504358202909
 30
0.0
 10
417.3673245604757
 20
238.9548897462077
 30
0.0
 10
417.9399021204911
 20
239.5592771706685
 30
0.0
 10
418.7033002081352
 20
240.3650862631817
 30
0.0
 10
419.4665866313868
 20
241.170777487725
 30
0.0
 10
420.2297980992613
 20
241.9763895927037
 30
0.0
 10
421.374615927454
 20
243.1848084113516
 30
0.0
 10
422.5192661450706
 20
244.3930503077246
 30
0.0
 10
423.6638165427718
 20
245.6011868386314
 30
0.0
 10
423.8137447072392
 20
245.7594443455692
 30
0.0
 10
423.9636711005664
 20
245.9176999829702
 30
0.0
 10
424.1135958269508
 20
246.0759538608203
 30
0.0
  0
SPLINE
  5
D2
330
1F
100
AcDbEntity
  8
0
  6
Continuous
 62
     7
370
    30
100
AcDbSpline
210
0.0
220
0.0
230
1.0
 70
    24
 71
     3
 72
    17
 73
    13
 74
     0
 42
0.000000001
 43
0.00000001
 40
0.0004142829725939
 40
0.0004142829725939
 40
0.0004142829725939
 40
0.0004142829725939
 40
0.0010942113118716
 40
0.0010942113118716
 40
0.0010942113118716
 40
0.0062847791254913
 40
0.0062847791254913
 40
0.0062847791254913
 40
0.0097451557110658
 40
0.0097451557110658
 40
0.0097451557110658
 40
0.0123405697518686
 40
0.0123405697518686
 40
0.0123405697518686
 40
0.0123405697518686
 10
-4.338309540860841
 20
246.0759538608203
 30
0.0
 10
-4.188384814476476
 20
245.9176999829701
 30
0.0
 10
-4.038458421149194
 20
245.7594443455692
 30
0.0
 10
-3.888530256681761
 20
245.6011868386313
 30
0.0
 10
-2.743979858980561
 20
244.3930503077245
 30
0.0
 10
-1.599329641364
 20
243.1848084113515
 30
0.0
 10
-0.4545118131713266
 20
241.9763895927036
 30
0.0
 10
0.3086996547032317
 20
241.1707774877249
 30
0.0
 10
1.071986077954806
 20
240.3650862631816
 30
0.0
 10
1.835384165598919
 20
239.5592771706684
 30
0.0
 10
2.407961725610392
 20
238.9548897462118
 30
0.0
 10
2.980602287001366
 20
238.3504358202991
 30
0.0
 10
3.553331047677771
 20
237.7458887951407
 30
0.0
  0
ARC
  5
D3
330
1F
100
AcDbEntity
  8
0
  6
Continuous
 62
     7
370
    30
100
AcDbCircle
 10
443.387643143
 20
217.3652260278
 30
0.0
 40
2.000000000000049
100
AcDbArc
 50
352.7468053873
 51
0.0
  0
ARC
  5
D4
330
1F
100
AcDbEntity
  8
0
  6
Continuous
 62
     7
370
    30
100
AcDbCircle
 10
-6.612356857
 20
217.3652260278
 30
0.0
 40
2.000000000000005
100
AcDbArc
 50
352.7468053873
 51
0.0
  0
ARC
  5
D5
330
1F
100
AcDbEntity
  8
0
  6
Continuous
 62
     7
370
    30
100
AcDbCircle
 10
426.387643143
 20
217.3652260278
 30
0.0
 40
2.000000000000049
100
AcDbArc
 50
180.0
 51
187.2531946127
  0
ARC
  5
D6
330
1F
100
AcDbEntity
  8
0
  6
Continuous
 62
     7
370
    30
100
AcDbCircle
 10
-23.612356857
 20
217.3652260278
 30
0.0
 40
2.000000000000007
100
AcDbArc
 50
180.0
 51
187.2531946127
  0
LINE
  5
D7
330
1F
100
AcDbEntity
  8
0
  6
Continuous
 62
     7
370
    30
100
AcDbLine
 10
-6.612356857
 20
215.3652260278
 30
0.0
 11
-23.612356857
 21
215.3652260278
 31
0.0
  0
ARC
  5
D8
330
1F
100
AcDbEntity
  8
0
  6
Continuous
 62
     7
370
    30
100
AcDbCircle
 10
443.387643143
 20
217.3652260278
 30
0.0
 40
2.000000000000049
100
AcDbArc
 50
270.0
 51
352.7468053873
  0
LINE
  5
D9
330
1F
100
AcDbEntity
  8
0
  6
Continuous
 62
     7
370
    30
100
AcDbLine
 10
443.387643143
 20
215.3652260278
 30
0.0
 11
426.387643143
 21
215.3652260278
 31
0.0
  0
ARC
  5
DA
330
1F
100
AcDbEntity
  8
0
  6
Continuous
 62
     7
370
    30
100
AcDbCircle
 10
426.387643143
 20
217.3652260278
 30
0.0
 40
2.000000000000049
100
AcDbArc
 50
187.2531946127
 51
270.0
  0
ARC
  5
DB
330
1F
100
AcDbEntity
  8
0
  6
Continuous
 62
     7
370
    30
100
AcDbCircle
 10
-23.612356857
 20
217.3652260278
 30
0.0
 40
2.000000000000007
100
AcDbArc
 50
187.2531946127
 51
270.0
  0
ARC
  5
DC
330
1F
100
AcDbEntity
  8
0
  6
Continuous
 62
     7
370
    30
100
AcDbCircle
 10
-6.612356857
 20
217.3652260278
 30
0.0
 40
2.000000000000005
100
AcDbArc
 50
270.0
 51
352.7468053873
  0
SPLINE
  5
DD
330
1F
100
AcDbEntity
  8
0
  6
Continuous
 62
     7
370
    30
100
AcDbSpline
210
0.0
220
0.0
230
1.0
 70
    24
 71
     3
 72
    17
 73
    13
 74
     0
 42
0.000000001
 43
0.00000001
 40
0.0007613692024348
 40
0.0007613692024348
 40
0.0007613692024348
 40
0.0007613692024348
 40
0.0018469414770193
 40
0.0018469414770193
 40
0.0018469414770193
 40
0.004442226363369
 40
0.004442226363369
 40
0.004442226363369
 40
0.0079026041278992
 40
0.0079026041278992
 40
0.0079026041278992
 40
0.0091002807398215
 40
0.0091002807398215
 40
0.0091002807398215
 40
0.0091002807398215
 10
423.6668639550057
 20
218.0654424689307
 30
0.0
 10
423.3243023502448
 20
218.1605984702532
 30
0.0
 10
422.9817474032141
 20
218.2557526222061
 30
0.0
 10
422.6392002437856
 20
218.3509046109363
 30
0.0
 10
421.8202704942642
 20
218.5783850969145
 30
0.0
 10
421.001384351368
 20
218.8058534699411
 30
0.0
 10
420.1825643472928
 20
219.0333034710732
 30
0.0
 10
419.0908051986513
 20
219.3365699012513
 30
0.0
 10
417.9991581063285
 20
219.6398052046744
 30
0.0
 10
416.9077317321992
 20
219.942979197488
 30
0.0
 10
416.5299763994374
 20
220.0479112343663
 30
0.0
 10
416.1522482477744
 20
220.1528357209394
 30
0.0
 10
415.7745555997645
 20
220.2577503453866
 30
0.0
  0
SPLINE
  5
DE
330
1F
100
AcDbEntity
  8
0
  6
Continuous
 62
     7
370
    30
100
AcDbSpline
210
0.0
220
0.0
230
1.0
 70
    24
 71
     3
 72
    17
 73
    13
 74
     0
 42
0.000000001
 43
0.00000001
 40
0.0004089845814558
 40
0.0004089845814558
 40
0.0004089845814558
 40
0.0004089845814558
 40
0.0016066612018954
 40
0.0016066612018954
 40
0.0016066612018954
 40
0.0050670389910335
 40
0.0050670389910335
 40
0.0050670389910335
 40
0.0076623238958392
 40
0.0076623238958392
 40
0.0076623238958392
 40
0.0087478961781434
 40
0.0087478961781434
 40
0.0087478961781434
 40
0.0087478961781434
 10
4.000730686325532
 20
220.2577503453866
 30
0.0
 10
3.623038038315568
 20
220.1528357209394
 30
0.0
 10
3.245309886652392
 20
220.0479112343663
 30
0.0
 10
2.867554553890622
 20
219.942979197488
 30
0.0
 10
1.776128179761388
 20
219.6398052046743
 30
0.0
 10
0.6844810874385432
 20
219.3365699012513
 30
0.0
 10
-0.407278061202887
 20
219.0333034710731
 30
0.0
 10
-1.226098065278153
 20
218.8058534699411
 30
0.0
 10
-2.044984208174255
 20
218.5783850969145
 30
0.0
 10
-2.863913957695724
 20
218.3509046109363
 30
0.0
 10
-3.206461117124165
 20
218.2557526222061
 30
0.0
 10
-3.549016064154864
 20
218.1605984702531
 30
0.0
 10
-3.89157766891568
 20
218.0654424689307
 30
0.0
  0
LINE
  5
DF
330
1F
100
AcDbEntity
  8
0
  6
Continuous
 62
     7
370
    30
100
AcDbLine
 10
5.6780386151
 20
236.8652260278
 30
0.0
 11
414.0972476709
 21
236.8652260278
 31
0.0
  0
ARC
  5
E0
330
1F
100
AcDbEntity
  8
0
  6
Continuous
 62
     7
370
    30
100
AcDbCircle
 10
-3.6239338051
 20
217.1019245593
 30
0.0
 40
0.99999999999999
100
AcDbArc
 50
105.5241109968
 51
174.9648338307
  0
ARC
  5
E1
330
1F
100
AcDbEntity
  8
0
  6
Continuous
 62
     7
370
    30
100
AcDbCircle
 10
423.3992200912
 20
217.1019245593
 30
0.0
 40
0.9999999999999986
100
AcDbArc
 50
5.0351661693
 51
74.4758890032
  0
ARC
  5
E2
330
1F
100
AcDbEntity
  8
0
  6
Continuous
 62
     7
370
    30
100
AcDbCircle
 10
5.6780386151
 20
239.8652260278
 30
0.0
 40
3.000000000000006
100
AcDbArc
 50
223.451842301
 51
270.0
  0
ARC
  5
E3
330
1F
100
AcDbEntity
  8
0
  6
Continuous
 62
     7
370
    30
100
AcDbCircle
 10
414.0972476709
 20
239.8652260278
 30
0.0
 40
3.000000000000004
100
AcDbArc
 50
270.0
 51
316.548157699
  0
ARC
  5
E4
330
1F
100
AcDbEntity
  8
0
  6
Continuous
 62
     7
370
    30
100
AcDbCircle
 10
414.9801435574
 20
217.397624615
 30
0.0
 40
2.968401874165897
100
AcDbArc
 50
74.4771411345
 51
90.1644436599
  0
ARC
  5
E5
330
1F
100
AcDbEntity
  8
0
  6
Continuous
 62
     7
370
    30
100
AcDbCircle
 10
4.7951427287
 20
217.397624615
 30
0.0
 40
2.968401874165255
100
AcDbArc
 50
89.8355563401
 51
105.5228588655
  0
LINE
  5
E6
330
1F
100
AcDbEntity
  8
0
  6
Continuous
 62
     7
370
    30
100
AcDbLine
 10
414.9787181277
 20
220.3652260278
 30
0.0
 11
4.7965681584
 21
220.3652260278
 31
0.0
  0
ARC
  5
E7
330
1F
100
AcDbEntity
  8
0
  6
Continuous
 62
     7
370
    30
100
AcDbCircle
 10
4.7965681584
 20
217.3652260278
 30
0.0
 40
3.0
100
AcDbArc
 50
90.0
 51
105.5241109968
  0
ARC
  5
E8
330
1F
100
AcDbEntity
  8
0
  6
Continuous
 62
     7
370
    30
100
AcDbCircle
 10
414.9787181277
 20
217.3652260278
 30
0.0
 40
3.0
100
AcDbArc
 50
74.4758890032
 51
90.0
  0
ARC
  5
E9
330
1F
100
AcDbEntity
  8
0
  6
Continuous
 62
     7
370
    30
100
AcDbCircle
 10
434.887643143
 20
64.6190893137
 30
0.0
 40
1.732050807568868
100
AcDbArc
 50
150.0
 51
210.0
  0
SPLINE
  5
EA
330
1F
100
AcDbEntity
  8
0
  6
Continuous
 62
     7
370
    30
100
AcDbSpline
210
0.0
220
0.0
230
1.0
 70
    24
 71
     3
 72
     9
 73
     5
 74
     0
 42
0.000000001
 43
0.00000001
 40
0.0
 40
0.0
 40
0.0
 40
0.0
 40
0.4999999999999958
 40
1.0
 40
1.0
 40
1.0
 40
1.0
 10
433.387643143045
 20
65.48511471752896
 30
0.0
 10
433.387643143045
 20
65.19643958293416
 30
0.0
 10
433.3876431430449
 20
64.61908931374455
 30
0.0
 10
433.387643143045
 20
64.04173904455493
 30
0.0
 10
433.387643143045
 20
63.7530639099601
 30
0.0
  0
ARC
  5
EB
330
1F
100
AcDbEntity
  8
0
  6
Continuous
 62
     7
370
    30
100
AcDbCircle
 10
434.887643143
 20
64.6190893137
 30
0.0
 40
1.732050807568889
100
AcDbArc
 50
210.0
 51
270.0
  0
SPLINE
  5
EC
330
1F
100
AcDbEntity
  8
0
  6
Continuous
 62
     7
370
    30
100
AcDbSpline
210
0.0
220
0.0
230
1.0
 70
    24
 71
     3
 72
    10
 73
     6
 74
     0
 42
0.000000001
 43
0.00000001
 40
0.0
 40
0.0
 40
0.0
 40
0.0
 40
0.2739123946431558
 40
0.5006388716903287
 40
0.9999999999999999
 40
0.9999999999999999
 40
0.9999999999999999
 40
0.9999999999999999
 10
433.387643143045
 20
63.7530639099601
 30
0.0
 10
433.5222267905
 20
63.67536200487339
 30
0.0
 10
433.7682098373702
 20
63.53334362654672
 30
0.0
 10
434.2771662116864
 20
63.23949752682964
 30
0.0
 10
434.6388783919174
 20
63.03066290220408
 30
0.0
 10
434.887643143045
 20
62.88703850617562
 30
0.0
  0
ARC
  5
ED
330
1F
100
AcDbEntity
  8
0
  6
Continuous
 62
     7
370
    30
100
AcDbCircle
 10
434.887643143
 20
64.6190893137
 30
0.0
 40
1.732050807568924
100
AcDbArc
 50
30.0
 51
90.0
  0
SPLINE
  5
EE
330
1F
100
AcDbEntity
  8
0
  6
Continuous
 62
     7
370
    30
100
AcDbSpline
210
0.0
220
0.0
230
1.0
 70
    24
 71
     3
 72
    10
 73
     6
 74
     0
 42
0.000000001
 43
0.00000001
 40
0.0
 40
0.0
 40
0.0
 40
0.0
 40
0.2739123946431472
 40
0.5006388716903253
 40
1.0
 40
1.0
 40
1.0
 40
1.0
 10
436.387643143045
 20
65.48511471752896
 30
0.0
 10
436.25305949559
 20
65.56281662261566
 30
0.0
 10
436.0070764487197
 20
65.7048350009423
 30
0.0
 10
435.4981200744036
 20
65.99868110065943
 30
0.0
 10
435.1364078941727
 20
66.20751572528494
 30
0.0
 10
434.8876431430451
 20
66.3511401213134
 30
0.0
  0
ARC
  5
EF
330
1F
100
AcDbEntity
  8
0
  6
Continuous
 62
     7
370
    30
100
AcDbCircle
 10
434.887643143
 20
64.6190893137
 30
0.0
 40
1.732050807568868
100
AcDbArc
 50
90.0
 51
150.0
  0
SPLINE
  5
F0
330
1F
100
AcDbEntity
  8
0
  6
Continuous
 62
     7
370
    30
100
AcDbSpline
210
0.0
220
0.0
230
1.0
 70
    24
 71
     3
 72
     9
 73
     5
 74
     0
 42
0.000000001
 43
0.00000001
 40
0.0
 40
0.0
 40
0.0
 40
0.0
 40
0.50000000000003
 40
1.0
 40
1.0
 40
1.0
 40
1.0
 10
434.887643143045
 20
66.35114012131338
 30
0.0
 10
434.637643143045
 20
66.206802554016
 30
0.0
 10
434.137643143045
 20
65.91812741942124
 30
0.0
 10
433.637643143045
 20
65.62945228482641
 30
0.0
 10
433.387643143045
 20
65.48511471752902
 30
0.0
  0
ARC
  5
F1
330
1F
100
AcDbEntity
  8
0
  6
Continuous
 62
     7
370
    30
100
AcDbCircle
 10
434.887643143
 20
64.6190893137
 30
0.0
 40
1.732050807568917
100
AcDbArc
 50
270.0
 51
330.0
  0
SPLINE
  5
F2
330
1F
100
AcDbEntity
  8
0
  6
Continuous
 62
     7
370
    30
100
AcDbSpline
210
0.0
220
0.0
230
1.0
 70
    24
 71
     3
 72
     9
 73
     5
 74
     0
 42
0.000000001
 43
0.00000001
 40
0.0
 40
0.0
 40
0.0
 40
0.0
 40
0.5000000000000108
 40
0.9999999999999999
 40
0.9999999999999999
 40
0.9999999999999999
 40
0.9999999999999999
 10
436.387643143045
 20
63.75306390996008
 30
0.0
 10
436.137643143045
 20
63.60872634266265
 30
0.0
 10
435.637643143045
 20
63.3200512080678
 30
0.0
 10
435.137643143045
 20
63.03137607347302
 30
0.0
 10
434.887643143045
 20
62.88703850617564
 30
0.0
  0
ARC
  5
F3
330
1F
100
AcDbEntity
  8
0
  6
Continuous
 62
     7
370
    30
100
AcDbCircle
 10
434.887643143
 20
64.6190893137
 30
0.0
 40
1.732050807568924
100
AcDbArc
 50
330.0
 51
30.0
  0
SPLINE
  5
F4
330
1F
100
AcDbEntity
  8
0
  6
Continuous
 62
     7
370
    30
100
AcDbSpline
210
0.0
220
0.0
230
1.0
 70
    24
 71
     3
 72
     9
 73
     5
 74
     0
 42
0.000000001
 43
0.00000001
 40
0.0
 40
0.0
 40
0.0
 40
0.0
 40
0.500000000000001
 40
1.0
 40
1.0
 40
1.0
 40
1.0
 10
436.387643143045
 20
63.75306390996008
 30
0.0
 10
436.387643143045
 20
64.0417390445549
 30
0.0
 10
436.3876431430451
 20
64.61908931374454
 30
0.0
 10
436.3876431430451
 20
65.19643958293415
 30
0.0
 10
436.387643143045
 20
65.48511471752896
 30
0.0
  0
CIRCLE
  5
F5
330
1F
100
AcDbEntity
  8
0
  6
Continuous
 62
     7
370
    30
100
AcDbCircle
 10
434.887643143
 20
64.6190893137
 30
0.0
 40
2.386499999999934
  0
ARC
  5
F6
330
1F
100
AcDbEntity
  8
0
  6
Continuous
 62
     7
370
    30
100
AcDbCircle
 10
-15.112356857
 20
64.6190893137
 30
0.0
 40
1.732050807568889
100
AcDbArc
 50
270.0
 51
330.0
  0
SPLINE
  5
F7
330
1F
100
AcDbEntity
  8
0
  6
Continuous
 62
     7
370
    30
100
AcDbSpline
210
0.0
220
0.0
230
1.0
 70
    24
 71
     3
 72
     9
 73
     5
 74
     0
 42
0.000000001
 43
0.00000001
 40
0.0
 40
0.0
 40
0.0
 40
0.0
 40
0.4999999999999871
 40
1.0
 40
1.0
 40
1.0
 40
1.0
 10
-15.11235685695494
 20
62.88703850617562
 30
0.0
 10
-14.86235685695497
 20
63.03137607347301
 30
0.0
 10
-14.36235685695494
 20
63.32005120806782
 30
0.0
 10
-13.862356856955
 20
63.60872634266263
 30
0.0
 10
-13.61235685695497
 20
63.75306390996006
 30
0.0
  0
ARC
  5
F8
330
1F
100
AcDbEntity
  8
0
  6
Continuous
 62
     7
370
    30
100
AcDbCircle
 10
-15.112356857
 20
64.6190893137
 30
0.0
 40
1.732050807568884
100
AcDbArc
 50
330.0
 51
30.0
  0
SPLINE
  5
F9
330
1F
100
AcDbEntity
  8
0
  6
Continuous
 62
     7
370
    30
100
AcDbSpline
210
0.0
220
0.0
230
1.0
 70
    24
 71
     3
 72
    10
 73
     6
 74
     0
 42
0.000000001
 43
0.00000001
 40
0.0
 40
0.0
 40
0.0
 40
0.0
 40
0.2739123946431539
 40
0.500638871690323
 40
0.9999999999999999
 40
0.9999999999999999
 40
0.9999999999999999
 40
0.9999999999999999
 10
-13.61235685695497
 20
63.75306390996006
 30
0.0
 10
-13.61235685695497
 20
63.90846772013342
 30
0.0
 10
-13.61235685695489
 20
64.1925044767867
 30
0.0
 10
-13.61235685695514
 20
64.78019667622104
 30
0.0
 10
-13.61235685695497
 20
65.19786592547204
 30
0.0
 10
-13.61235685695497
 20
65.4851147175289
 30
0.0
  0
ARC
  5
FA
330
1F
100
AcDbEntity
  8
0
  6
Continuous
 62
     7
370
    30
100
AcDbCircle
 10
-15.112356857
 20
64.6190893137
 30
0.0
 40
1.732050807568887
100
AcDbArc
 50
150.0
 51
210.0
  0
SPLINE
  5
FB
330
1F
100
AcDbEntity
  8
0
  6
Continuous
 62
     7
370
    30
100
AcDbSpline
210
0.0
220
0.0
230
1.0
 70
    24
 71
     3
 72
    10
 73
     6
 74
     0
 42
0.000000001
 43
0.00000001
 40
0.0
 40
0.0
 40
0.0
 40
0.0
 40
0.2739123946431498
 40
0.5006388716903185
 40
0.9999999999999999
 40
0.9999999999999999
 40
0.9999999999999999
 40
0.9999999999999999
 10
-16.612356856955
 20
65.48511471752892
 30
0.0
 10
-16.61235685695497
 20
65.32971090735556
 30
0.0
 10
-16.61235685695492
 20
65.0456741507023
 30
0.0
 10
-16.612356856955
 20
64.45798195126793
 30
0.0
 10
-16.612356856955
 20
64.04031270201693
 30
0.0
 10
-16.612356856955
 20
63.75306390996006
 30
0.0
  0
ARC
  5
FC
330
1F
100
AcDbEntity
  8
0
  6
Continuous
 62
     7
370
    30
100
AcDbCircle
 10
-15.112356857
 20
64.6190893137
 30
0.0
 40
1.732050807568889
100
AcDbArc
 50
210.0
 51
270.0
  0
SPLINE
  5
FD
330
1F
100
AcDbEntity
  8
0
  6
Continuous
 62
     7
370
    30
100
AcDbSpline
210
0.0
220
0.0
230
1.0
 70
    24
 71
     3
 72
     9
 73
     5
 74
     0
 42
0.000000001
 43
0.00000001
 40
0.0
 40
0.0
 40
0.0
 40
0.0
 40
0.5000000000000147
 40
1.0
 40
1.0
 40
1.0
 40
1.0
 10
-16.61235685695495
 20
63.75306390996006
 30
0.0
 10
-16.362356856955
 20
63.60872634266263
 30
0.0
 10
-15.862356856955
 20
63.32005120806777
 30
0.0
 10
-15.36235685695497
 20
63.03137607347301
 30
0.0
 10
-15.112356856955
 20
62.88703850617562
 30
0.0
  0
ARC
  5
FE
330
1F
100
AcDbEntity
  8
0
  6
Continuous
 62
     7
370
    30
100
AcDbCircle
 10
-15.112356857
 20
64.6190893137
 30
0.0
 40
1.732050807568862
100
AcDbArc
 50
30.0
 51
90.0
  0
SPLINE
  5
FF
330
1F
100
AcDbEntity
  8
0
  6
Continuous
 62
     7
370
    30
100
AcDbSpline
210
0.0
220
0.0
230
1.0
 70
    24
 71
     3
 72
     9
 73
     5
 74
     0
 42
0.000000001
 43
0.00000001
 40
0.0
 40
0.0
 40
0.0
 40
0.0
 40
0.5000000000000232
 40
1.0
 40
1.0
 40
1.0
 40
1.0
 10
-15.112356856955
 20
66.35114012131339
 30
0.0
 10
-14.86235685695494
 20
66.206802554016
 30
0.0
 10
-14.36235685695494
 20
65.9181274194212
 30
0.0
 10
-13.86235685695492
 20
65.62945228482634
 30
0.0
 10
-13.61235685695494
 20
65.48511471752892
 30
0.0
  0
ARC
  5
100
330
1F
100
AcDbEntity
  8
0
  6
Continuous
 62
     7
370
    30
100
AcDbCircle
 10
-15.112356857
 20
64.6190893137
 30
0.0
 40
1.732050807568887
100
AcDbArc
 50
90.0
 51
150.0
  0
SPLINE
  5
101
330
1F
100
AcDbEntity
  8
0
  6
Continuous
 62
     7
370
    30
100
AcDbSpline
210
0.0
220
0.0
230
1.0
 70
    24
 71
     3
 72
     9
 73
     5
 74
     0
 42
0.000000001
 43
0.00000001
 40
0.0
 40
0.0
 40
0.0
 40
0.0
 40
0.5000000000000009
 40
1.0
 40
1.0
 40
1.0
 40
1.0
 10
-15.112356856955
 20
66.35114012131339
 30
0.0
 10
-15.36235685695503
 20
66.20680255401601
 30
0.0
 10
-15.86235685695503
 20
65.91812741942122
 30
0.0
 10
-16.362356856955
 20
65.62945228482636
 30
0.0
 10
-16.612356856955
 20
65.48511471752892
 30
0.0
  0
CIRCLE
  5
102
330
1F
100
AcDbEntity
  8
0
  6
Continuous
 62
     7
370
    30
100
AcDbCircle
 10
-15.112356857
 20
64.6190893137
 30
0.0
 40
2.386500000000005
  0
LINE
  5
103
330
1F
100
AcDbEntity
  8
0
  6
Continuous
 62
     7
370
    30
100
AcDbLine
 10
444.887643143
 20
54.6190893137
 30
0.0
 11
443.887643143
 21
54.6190893137
 31
0.0
  0
ARC
  5
104
330
1F
100
AcDbEntity
  8
0
  6
Continuous
 62
     7
370
    30
100
AcDbCircle
 10
444.887643143
 20
55.1190893137
 30
0.0
 40
0.5000000000000568
100
AcDbArc
 50
270.0
 51
0.0
  0
LINE
  5
105
330
1F
100
AcDbEntity
  8
0
  6
Continuous
 62
     7
370
    30
100
AcDbLine
 10
443.887643143
 20
54.6190893137
 30
0.0
 11
425.887643143
 21
54.6190893137
 31
0.0
  0
LINE
  5
106
330
1F
100
AcDbEntity
  8
0
  6
Continuous
 62
     7
370
    30
100
AcDbLine
 10
-5.112356857
 20
54.6190893137
 30
0.0
 11
-6.112356857
 21
54.6190893137
 31
0.0
  0
ARC
  5
107
330
1F
100
AcDbEntity
  8
0
  6
Continuous
 62
     7
370
    30
100
AcDbCircle
 10
-5.112356857
 20
55.1190893137
 30
0.0
 40
0.5000000000000009
100
AcDbArc
 50
270.0
 51
0.0
  0
LINE
  5
108
330
1F
100
AcDbEntity
  8
0
  6
Continuous
 62
     7
370
    30
100
AcDbLine
 10
425.887643143
 20
54.6190893137
 30
0.0
 11
424.887643143
 21
54.6190893137
 31
0.0
  0
ARC
  5
109
330
1F
100
AcDbEntity
  8
0
  6
Continuous
 62
     7
370
    30
100
AcDbCircle
 10
424.887643143
 20
55.1190893137
 30
0.0
 40
0.5
100
AcDbArc
 50
180.0
 51
270.0
  0
LINE
  5
10A
330
1F
100
AcDbEntity
  8
0
  6
Continuous
 62
     7
370
    30
100
AcDbLine
 10
-6.112356857
 20
54.6190893137
 30
0.0
 11
-24.112356857
 21
54.6190893137
 31
0.0
  0
LINE
  5
10B
330
1F
100
AcDbEntity
  8
0
  6
Continuous
 62
     7
370
    30
100
AcDbLine
 10
-24.112356857
 20
54.6190893137
 30
0.0
 11
-25.112356857
 21
54.6190893137
 31
0.0
  0
ARC
  5
10C
330
1F
100
AcDbEntity
  8
0
  6
Continuous
 62
     7
370
    30
100
AcDbCircle
 10
-25.112356857
 20
55.1190893137
 30
0.0
 40
0.5
100
AcDbArc
 50
180.0
 51
270.0
  0
LINE
  5
10D
330
1F
100
AcDbEntity
  8
0
  6
Continuous
 62
     7
370
    30
100
AcDbLine
 10
445.387643143
 20
69.365566398
 30
0.0
 11
445.387643143
 21
55.1190893137
 31
0.0
  0
CIRCLE
  5
10E
330
1F
100
AcDbEntity
  8
0
  6
Continuous
 62
     7
370
    30
100
AcDbCircle
 10
434.887643143
 20
64.6190893137
 30
0.0
 40
3.0
  0
CIRCLE
  5
10F
330
1F
100
AcDbEntity
  8
0
  6
Continuous
 62
     7
370
    30
100
AcDbCircle
 10
-15.112356857
 20
64.6190893137
 30
0.0
 40
3.000000000000007
  0
LINE
  5
110
330
1F
100
AcDbEntity
  8
0
  6
Continuous
 62
     7
370
    30
100
AcDbLine
 10
-4.612356857
 20
69.365566398
 30
0.0
 11
-4.612356857
 21
55.1190893137
 31
0.0
  0
LINE
  5
111
330
1F
100
AcDbEntity
  8
0
  6
Continuous
 62
     7
370
    30
100
AcDbLine
 10
424.387643143
 20
55.1190893137
 30
0.0
 11
424.387643143
 21
69.365566398
 31
0.0
  0
LINE
  5
112
330
1F
100
AcDbEntity
  8
0
  6
Continuous
 62
     7
370
    30
100
AcDbLine
 10
-25.612356857
 20
55.1190893137
 30
0.0
 11
-25.612356857
 21
69.365566398
 31
0.0
  0
LINE
  5
113
330
1F
100
AcDbEntity
  8
0
  6
Continuous
 62
     7
370
    30
100
AcDbLine
 10
-4.612356857
 20
69.365566398
 30
0.0
 11
-4.612356857
 21
69.6812020972
 31
0.0
  0
LINE
  5
114
330
1F
100
AcDbEntity
  8
0
  6
Continuous
 62
     7
370
    30
100
AcDbLine
 10
445.387643143
 20
69.365566398
 30
0.0
 11
445.387643143
 21
69.6812020972
 31
0.0
  0
LINE
  5
115
330
1F
100
AcDbEntity
  8
0
  6
Continuous
 62
     7
370
    30
100
AcDbLine
 10
424.387643143
 20
69.6812020972
 30
0.0
 11
424.387643143
 21
69.365566398
 31
0.0
  0
LINE
  5
116
330
1F
100
AcDbEntity
  8
0
  6
Continuous
 62
     7
370
    30
100
AcDbLine
 10
-25.612356857
 20
69.6812020972
 30
0.0
 11
-25.612356857
 21
69.365566398
 31
0.0
  0
LINE
  5
117
330
1F
100
AcDbEntity
  8
0
  6
Continuous
 62
     7
370
    30
100
AcDbLine
 10
445.387643143
 20
122.6190893137
 30
0.0
 11
445.387643143
 21
69.6812020972
 31
0.0
  0
LINE
  5
118
330
1F
100
AcDbEntity
  8
0
  6
Continuous
 62
     7
370
    30
100
AcDbLine
 10
-25.612356857
 20
69.6812020972
 30
0.0
 11
-25.612356857
 21
122.6190893137
 31
0.0
  0
LINE
  5
119
330
1F
100
AcDbEntity
  8
0
  6
Continuous
 62
     7
370
    30
100
AcDbLine
 10
-4.612356857
 20
122.6190893137
 30
0.0
 11
-4.612356857
 21
120.2991166817
 31
0.0
  0
SPLINE
  5
11A
330
1F
100
AcDbEntity
  8
0
  6
Continuous
 62
     7
370
    30
100
AcDbSpline
210
0.0
220
0.0
230
1.0
 70
     8
 71
     3
 72
     8
 73
     4
 74
     0
 42
0.000000001
 43
0.00000001
 40
0.0
 40
0.0
 40
0.0
 40
0.0
 40
1.0
 40
1.0
 40
1.0
 40
1.0
 10
-4.612421448672049
 20
119.9371744629094
 30
0.0
 10
-4.612413336554627
 20
120.0584391787828
 30
0.0
 10
-4.612356856954991
 20
120.17909120655
 30
0.0
 10
-4.612356856954991
 20
120.2991166816994
 30
0.0
  0
SPLINE
  5
11B
330
1F
100
AcDbEntity
  8
0
  6
Continuous
 62
     7
370
    30
100
AcDbSpline
210
0.0
220
0.0
230
1.0
 70
     8
 71
     3
 72
    10
 73
     6
 74
     0
 42
0.000000001
 43
0.00000001
 40
0.0
 40
0.0
 40
0.0
 40
0.0
 40
0.5
 40
0.5
 40
1.0
 40
1.0
 40
1.0
 40
1.0
 10
-4.612356856954991
 20
95.8190885477081
 30
0.0
 10
-4.612356856954963
 20
96.15155930685519
 30
0.0
 10
-4.616133033545772
 20
96.4832646128698
 30
0.0
 10
-4.621395471588241
 20
97.14540134448333
 30
0.0
 10
-4.623013701197748
 20
97.4758374924462
 30
0.0
 10
-4.622722907020982
 20
97.8057471337873
 30
0.0
  0
LINE
  5
11C
330
1F
100
AcDbEntity
  8
0
  6
Continuous
 62
     7
370
    30
100
AcDbLine
 10
-4.612356857
 20
95.8190885477
 30
0.0
 11
-4.612356857
 21
69.6812020972
 31
0.0
  0
SPLINE
  5
11D
330
1F
100
AcDbEntity
  8
0
  6
Continuous
 62
     7
370
    30
100
AcDbSpline
210
0.0
220
0.0
230
1.0
 70
     8
 71
     3
 72
     8
 73
     4
 74
     0
 42
0.000000001
 43
0.00000001
 40
0.0
 40
0.0
 40
0.0
 40
0.0
 40
1.0
 40
1.0
 40
1.0
 40
1.0
 10
424.387643143045
 20
120.2991166816844
 30
0.0
 10
424.387643143045
 20
120.1790912065414
 30
0.0
 10
424.3876996226447
 20
120.0584391787806
 30
0.0
 10
424.3877077347621
 20
119.9371744629136
 30
0.0
  0
LINE
  5
11E
330
1F
100
AcDbEntity
  8
0
  6
Continuous
 62
     7
370
    30
100
AcDbLine
 10
424.387643143
 20
120.2991166817
 30
0.0
 11
424.387643143
 21
122.6190893137
 31
0.0
  0
LINE
  5
11F
330
1F
100
AcDbEntity
  8
0
  6
Continuous
 62
     7
370
    30
100
AcDbLine
 10
424.387643143
 20
69.6812020972
 30
0.0
 11
424.387643143
 21
95.8190885477
 31
0.0
  0
SPLINE
  5
120
330
1F
100
AcDbEntity
  8
0
  6
Continuous
 62
     7
370
    30
100
AcDbSpline
210
0.0
220
0.0
230
1.0
 70
     8
 71
     3
 72
    10
 73
     6
 74
     0
 42
0.000000001
 43
0.00000001
 40
0.0
 40
0.0
 40
0.0
 40
0.0
 40
0.5
 40
0.5
 40
1.0
 40
1.0
 40
1.0
 40
1.0
 10
424.398009193111
 20
97.80574713377815
 30
0.0
 10
424.3982999872877
 20
97.47583749243658
 30
0.0
 10
424.3966817576782
 20
97.14540134447331
 30
0.0
 10
424.3914193196356
 20
96.48326461285897
 30
0.0
 10
424.387643143045
 20
96.15155930684378
 30
0.0
 10
424.387643143045
 20
95.81908854769632
 30
0.0
  0
ARC
  5
121
330
1F
100
AcDbEntity
  8
0
  6
Continuous
 62
     7
370
    30
100
AcDbCircle
 10
-3.612356857
 20
93.2206168328
 30
0.0
 40
1.0
100
AcDbArc
 50
136.548157699
 51
179.9999999989
  0
ARC
  5
122
330
1F
100
AcDbEntity
  8
0
  6
Continuous
 62
     7
370
    30
100
AcDbCircle
 10
423.387643143
 20
93.2206168328
 30
0.0
 40
1.0
100
AcDbArc
 50
0.0
 51
43.451842301
  0
SPLINE
  5
123
330
1F
100
AcDbEntity
  8
0
  6
Continuous
 62
     7
370
    30
100
AcDbSpline
210
0.0
220
0.0
230
1.0
 70
    24
 71
     3
 72
    17
 73
    13
 74
     0
 42
0.000000001
 43
0.00000001
 40
0.0012474643602695
 40
0.0012474643602695
 40
0.0012474643602695
 40
0.0012474643602695
 40
0.0039751976394364
 40
0.0039751976394364
 40
0.0039751976394364
 40
0.007443842470468
 40
0.007443842470468
 40
0.007443842470468
 40
0.0126468139922442
 40
0.0126468139922442
 40
0.0126468139922442
 40
0.0131838793488013
 40
0.0131838793488013
 40
0.0131838793488013
 40
0.0131838793488013
 10
3.561502428865521
 20
102.2470518932216
 30
0.0
 10
2.959407023240629
 20
101.6115067428398
 30
0.0
 10
2.357427747471136
 20
100.9760841739721
 30
0.0
 10
1.75553051924579
 20
100.3407482108453
 30
0.0
 10
0.9901448670766866
 20
99.5328411335557
 30
0.0
 10
0.2248916422004921
 20
98.72507384063084
 30
0.0
 10
-0.5402721024218848
 20
97.917400999085
 30
0.0
 10
-1.688018631340271
 20
96.70589077411559
 30
0.0
 10
-2.835565139634455
 20
95.49459168202728
 30
0.0
 10
-3.982991635273381
 20
94.28341926996396
 30
0.0
 10
-4.101432237695324
 20
94.15839863407413
 30
0.0
 10
-4.219871519227842
 20
94.03337939245651
 30
0.0
 10
-4.338309540860785
 20
93.90836148073286
 30
0.0
  0
SPLINE
  5
124
330
1F
100
AcDbEntity
  8
0
  6
Continuous
 62
     7
370
    30
100
AcDbSpline
210
0.0
220
0.0
230
1.0
 70
    24
 71
     3
 72
    17
 73
    13
 74
     0
 42
0.000000001
 43
0.00000001
 40
0.0004142320945963
 40
0.0004142320945963
 40
0.0004142320945963
 40
0.0004142320945963
 40
0.000951297365378
 40
0.000951297365378
 40
0.000951297365378
 40
0.0061542680561802
 40
0.0061542680561802
 40
0.0061542680561802
 40
0.0096229123332295
 40
0.0096229123332295
 40
0.0096229123332295
 40
0.0123506451767455
 40
0.0123506451767455
 40
0.0123506451767455
 40
0.0123506451767455
 10
424.1135958269509
 20
93.90836148073275
 30
0.0
 10
423.9951578053179
 20
94.03337939245642
 30
0.0
 10
423.8767185237854
 20
94.1583986340741
 30
0.0
 10
423.7582779213635
 20
94.28341926996394
 30
0.0
 10
422.6108514257245
 20
95.49459168202726
 30
0.0
 10
421.4633049174303
 20
96.70589077411557
 30
0.0
 10
420.3155583885119
 20
97.91740099908499
 30
0.0
 10
419.5503946438895
 20
98.72507384063084
 30
0.0
 10
418.7851414190134
 20
99.5328411335557
 30
0.0
 10
418.0197557668442
 20
100.3407482108453
 30
0.0
 10
417.417858538619
 20
100.9760841739719
 30
0.0
 10
416.8158792628497
 20
101.6115067428395
 30
0.0
 10
416.2137838572249
 20
102.2470518932211
 30
0.0
  0
ARC
  5
125
330
1F
100
AcDbEntity
  8
0
  6
Continuous
 62
     7
370
    30
100
AcDbCircle
 10
-23.612356857
 20
122.6190893137
 30
0.0
 40
2.000000000000004
100
AcDbArc
 50
172.7468053873
 51
180.0
  0
ARC
  5
126
330
1F
100
AcDbEntity
  8
0
  6
Continuous
 62
     7
370
    30
100
AcDbCircle
 10
426.387643143
 20
122.6190893137
 30
0.0
 40
2.0
100
AcDbArc
 50
172.7468053873
 51
180.0
  0
ARC
  5
127
330
1F
100
AcDbEntity
  8
0
  6
Continuous
 62
     7
370
    30
100
AcDbCircle
 10
-6.612356857
 20
122.6190893137
 30
0.0
 40
2.000000000000005
100
AcDbArc
 50
0.0
 51
7.2531946127
  0
ARC
  5
128
330
1F
100
AcDbEntity
  8
0
  6
Continuous
 62
     7
370
    30
100
AcDbCircle
 10
443.387643143
 20
122.6190893137
 30
0.0
 40
2.0
100
AcDbArc
 50
0.0
 51
7.2531946127
  0
ARC
  5
129
330
1F
100
AcDbEntity
  8
0
  6
Continuous
 62
     7
370
    30
100
AcDbCircle
 10
-23.612356857
 20
122.6190893137
 30
0.0
 40
2.000000000000014
100
AcDbArc
 50
90.0
 51
172.7468053873
  0
ARC
  5
12A
330
1F
100
AcDbEntity
  8
0
  6
Continuous
 62
     7
370
    30
100
AcDbCircle
 10
426.387643143
 20
122.6190893137
 30
0.0
 40
2.000000000000014
100
AcDbArc
 50
90.0
 51
172.7468053873
  0
ARC
  5
12B
330
1F
100
AcDbEntity
  8
0
  6
Continuous
 62
     7
370
    30
100
AcDbCircle
 10
443.387643143
 20
122.6190893137
 30
0.0
 40
2.000000000000014
100
AcDbArc
 50
7.2531946127
 51
90.0
  0
LINE
  5
12C
330
1F
100
AcDbEntity
  8
0
  6
Continuous
 62
     7
370
    30
100
AcDbLine
 10
426.387643143
 20
124.6190893137
 30
0.0
 11
443.387643143
 21
124.6190893137
 31
0.0
  0
ARC
  5
12D
330
1F
100
AcDbEntity
  8
0
  6
Continuous
 62
     7
370
    30
100
AcDbCircle
 10
-6.612356857
 20
122.6190893137
 30
0.0
 40
2.000000000000014
100
AcDbArc
 50
7.2531946127
 51
90.0
  0
LINE
  5
12E
330
1F
100
AcDbEntity
  8
0
  6
Continuous
 62
     7
370
    30
100
AcDbLine
 10
-23.612356857
 20
124.6190893137
 30
0.0
 11
-6.612356857
 21
124.6190893137
 31
0.0
  0
SPLINE
  5
12F
330
1F
100
AcDbEntity
  8
0
  6
Continuous
 62
     7
370
    30
100
AcDbSpline
210
0.0
220
0.0
230
1.0
 70
    24
 71
     3
 72
    17
 73
    13
 74
     0
 42
0.000000001
 43
0.00000001
 40
0.0007614397940281
 40
0.0007614397940281
 40
0.0007614397940281
 40
0.0007614397940281
 40
0.0017632321380222
 40
0.0017632321380222
 40
0.0017632321380222
 40
0.0043647191283359
 40
0.0043647191283359
 40
0.0043647191283359
 40
0.0078333652458503
 40
0.0078333652458503
 40
0.0078333652458503
 40
0.0091026516003277
 40
0.0091026516003277
 40
0.0091026516003277
 40
0.0091026516003277
 10
-3.891577668915625
 20
121.9188728726225
 30
0.0
 10
-3.575483885490227
 20
121.8310690438932
 30
0.0
 10
-3.25939718758042
 20
121.7432671833627
 30
0.0
 10
-2.943318676988077
 20
121.655467597087
 30
0.0
 10
-2.122515755800886
 20
121.4274667856461
 30
0.0
 10
-1.301766890802331
 20
121.1994809898132
 30
0.0
 10
-0.481100013819763
 20
120.9715179684292
 30
0.0
 10
0.6131211760522504
 20
120.6675676379092
 30
0.0
 10
1.7072035716445
 20
120.3636558613558
 30
0.0
 10
2.801012436596722
 20
120.0598200655357
 30
0.0
 10
3.201271525947874
 20
119.9486369851604
 30
0.0
 10
3.60149303258217
 20
119.8374643444286
 30
0.0
 10
4.001664621030937
 20
119.7263055698595
 30
0.0
  0
SPLINE
  5
130
330
1F
100
AcDbEntity
  8
0
  6
Continuous
 62
     7
370
    30
100
AcDbSpline
210
0.0
220
0.0
230
1.0
 70
    24
 71
     3
 72
    17
 73
    13
 74
     0
 42
0.000000001
 43
0.00000001
 40
0.0004081062691784
 40
0.0004081062691784
 40
0.0004081062691784
 40
0.0004081062691784
 40
0.0016773926046888
 40
0.0016773926046888
 40
0.0016773926046888
 40
0.0051460386703713
 40
0.0051460386703713
 40
0.0051460386703713
 40
0.0077475256218109
 40
0.0077475256218109
 40
0.0077475256218109
 40
0.0087493179508352
 40
0.0087493179508352
 40
0.0087493179508352
 40
0.0087493179508352
 10
415.7736216650592
 20
119.7263055698595
 30
0.0
 10
416.1737932535079
 20
119.8374643444286
 30
0.0
 10
416.5740147601421
 20
119.9486369851604
 30
0.0
 10
416.9742738494933
 20
120.0598200655357
 30
0.0
 10
418.0680827144455
 20
120.3636558613558
 30
0.0
 10
419.1621651100378
 20
120.6675676379091
 30
0.0
 10
420.2563862999098
 20
120.9715179684292
 30
0.0
 10
421.0770531768924
 20
121.1994809898132
 30
0.0
 10
421.8978020418909
 20
121.4274667856461
 30
0.0
 10
422.7186049630781
 20
121.655467597087
 30
0.0
 10
423.0346834736704
 20
121.7432671833627
 30
0.0
 10
423.3507701715803
 20
121.8310690438932
 30
0.0
 10
423.6668639550057
 20
121.9188728726224
 30
0.0
  0
LINE
  5
131
330
1F
100
AcDbEntity
  8
0
  6
Continuous
 62
     7
370
    30
100
AcDbLine
 10
414.0972476709
 20
103.1190893137
 30
0.0
 11
5.6780386151
 21
103.1190893137
 31
0.0
  0
ARC
  5
132
330
1F
100
AcDbEntity
  8
0
  6
Continuous
 62
     7
370
    30
100
AcDbCircle
 10
423.3992200912
 20
122.8823907823
 30
0.0
 40
1.000000000000054
100
AcDbArc
 50
285.5241109968
 51
354.9648338307
  0
ARC
  5
133
330
1F
100
AcDbEntity
  8
0
  6
Continuous
 62
     7
370
    30
100
AcDbCircle
 10
-3.6239338051
 20
122.8823907823
 30
0.0
 40
1.000000000000032
100
AcDbArc
 50
185.0351661693
 51
254.4758890032
  0
LINE
  5
134
330
1F
100
AcDbEntity
  8
0
  6
Continuous
 62
     7
370
    30
100
AcDbLine
 10
4.7965681584
 20
119.6190893137
 30
0.0
 11
414.9787181277
 21
119.6190893137
 31
0.0
  0
ARC
  5
135
330
1F
100
AcDbEntity
  8
0
  6
Continuous
 62
     7
370
    30
100
AcDbCircle
 10
414.0972476709
 20
100.1190893137
 30
0.0
 40
3.000000000000035
100
AcDbArc
 50
43.451842301
 51
90.0
  0
ARC
  5
136
330
1F
100
AcDbEntity
  8
0
  6
Continuous
 62
     7
370
    30
100
AcDbCircle
 10
5.6780386151
 20
100.1190893137
 30
0.0
 40
3.000000000000007
100
AcDbArc
 50
90.0
 51
136.548157699
  0
ARC
  5
137
330
1F
100
AcDbEntity
  8
0
  6
Continuous
 62
     7
370
    30
100
AcDbCircle
 10
414.9787181277
 20
122.6190893137
 30
0.0
 40
3.0
100
AcDbArc
 50
270.0
 51
285.5241109968
  0
ARC
  5
138
330
1F
100
AcDbEntity
  8
0
  6
Continuous
 62
     7
370
    30
100
AcDbCircle
 10
4.7965681584
 20
122.6190893137
 30
0.0
 40
3.000000000000003
100
AcDbArc
 50
254.4758890032
 51
270.0
  0
LINE
  5
139
330
1F
100
AcDbEntity
  8
0
  6
Continuous
 62
     7
370
    30
100
AcDbLine
 10
-116.1005109123
 20
159.5763450706
 30
0.0
 11
-116.1005109123
 21
192.5763450706
 31
0.0
  0
LINE
  5
13A
330
1F
100
AcDbEntity
  8
0
  6
Continuous
 62
     7
370
    30
100
AcDbLine
 10
-116.1005109123
 20
158.5763450706
 30
0.0
 11
-116.1005109123
 21
159.5763450706
 31
0.0
  0
ARC
  5
13B
330
1F
100
AcDbEntity
  8
0
  6
Continuous
 62
     7
370
    30
100
AcDbCircle
 10
-115.6005109123
 20
158.5763450706
 30
0.0
 40
0.5
100
AcDbArc
 50
180.0
 51
270.0
  0
LINE
  5
13C
330
1F
100
AcDbEntity
  8
0
  6
Continuous
 62
     7
370
    30
100
AcDbLine
 10
-101.354033828
 20
158.0763450706
 30
0.0
 11
-115.6005109123
 21
158.0763450706
 31
0.0
  0
LINE
  5
13D
330
1F
100
AcDbEntity
  8
0
  6
Continuous
 62
     7
370
    30
100
AcDbLine
 10
-116.1005109123
 20
192.5763450706
 30
0.0
 11
-116.1005109123
 21
193.5763450706
 31
0.0
  0
ARC
  5
13E
330
1F
100
AcDbEntity
  8
0
  6
Continuous
 62
     7
370
    30
100
AcDbCircle
 10
-115.6005109123
 20
193.5763450706
 30
0.0
 40
0.5
100
AcDbArc
 50
90.0
 51
180.0
  0
LINE
  5
13F
330
1F
100
AcDbEntity
  8
0
  6
Continuous
 62
     7
370
    30
100
AcDbLine
 10
-115.6005109123
 20
194.0763450706
 30
0.0
 11
-101.354033828
 21
194.0763450706
 31
0.0
  0
ARC
  5
140
330
1F
100
AcDbEntity
  8
0
  6
Continuous
 62
     7
370
    30
100
AcDbCircle
 10
-101.354033828
 20
162.0763450706
 30
0.0
 40
4.00000000000001
100
AcDbArc
 50
270.0
 51
277.2531946127
  0
LINE
  5
141
330
1F
100
AcDbEntity
  8
0
  6
Continuous
 62
     7
370
    30
100
AcDbLine
 10
-100.8490167093
 20
194.0443367175
 30
0.0
 11
-47.9111294928
 21
187.3067874354
 31
0.0
  0
ARC
  5
142
330
1F
100
AcDbEntity
  8
0
  6
Continuous
 62
     7
370
    30
100
AcDbCircle
 10
-101.354033828
 20
190.0763450706
 30
0.0
 40
4.000000000000014
100
AcDbArc
 50
82.7468053873
 51
90.0
  0
LINE
  5
143
330
1F
100
AcDbEntity
  8
0
  6
Continuous
 62
     7
370
    30
100
AcDbLine
 10
-47.9111294928
 20
164.8459027058
 30
0.0
 11
-100.8490167093
 21
158.1083534237
 31
0.0
  0
LINE
  5
144
330
1F
100
AcDbEntity
  8
0
  6
Continuous
 62
     7
370
    30
100
AcDbLine
 10
-47.9111294928
 20
187.3067874354
 30
0.0
 11
-47.8480023529
 21
187.2987530721
 31
0.0
  0
LINE
  5
145
330
1F
100
AcDbEntity
  8
0
  6
Continuous
 62
     7
370
    30
100
AcDbLine
 10
-46.1005109123
 20
185.3147572487
 30
0.0
 11
-46.1005109123
 21
166.8379328925
 31
0.0
  0
LINE
  5
146
330
1F
100
AcDbEntity
  8
0
  6
Continuous
 62
     7
370
    30
100
AcDbLine
 10
-47.8480023529
 20
164.853937069
 30
0.0
 11
-47.9111294928
 21
164.8459027058
 31
0.0
  0
ARC
  5
147
330
1F
100
AcDbEntity
  8
0
  6
Continuous
 62
     7
370
    30
100
AcDbCircle
 10
-48.1005109123
 20
185.3147572487
 30
0.0
 40
2.0
100
AcDbArc
 50
0.0
 51
82.7468053873
  0
ARC
  5
148
330
1F
100
AcDbEntity
  8
0
  6
Continuous
 62
     7
370
    30
100
AcDbCircle
 10
-48.1005109123
 20
166.8379328925
 30
0.0
 40
2.0
100
AcDbArc
 50
277.2531946127
 51
0.0
  0
LINE
  5
149
330
1F
100
AcDbEntity
  8
0
  6
Continuous
 62
     7
370
    30
100
AcDbLine
 10
535.1931260497
 20
159.5763450706
 30
0.0
 11
535.1931260497
 21
158.5763450706
 31
0.0
  0
ARC
  5
14A
330
1F
100
AcDbEntity
  8
0
  6
Continuous
 62
     7
370
    30
100
AcDbCircle
 10
534.6931260497
 20
158.5763450706
 30
0.0
 40
0.5
100
AcDbArc
 50
270.0
 51
0.0
  0
LINE
  5
14B
330
1F
100
AcDbEntity
  8
0
  6
Continuous
 62
     7
370
    30
100
AcDbLine
 10
534.6931260497
 20
158.0763450706
 30
0.0
 11
520.4466489654
 21
158.0763450706
 31
0.0
  0
LINE
  5
14C
330
1F
100
AcDbEntity
  8
0
  6
Continuous
 62
     7
370
    30
100
AcDbLine
 10
535.1931260497
 20
193.5763450706
 30
0.0
 11
535.1931260497
 21
192.5763450706
 31
0.0
  0
ARC
  5
14D
330
1F
100
AcDbEntity
  8
0
  6
Continuous
 62
     7
370
    30
100
AcDbCircle
 10
534.6931260497
 20
193.5763450706
 30
0.0
 40
0.5
100
AcDbArc
 50
0.0
 51
90.0
  0
LINE
  5
14E
330
1F
100
AcDbEntity
  8
0
  6
Continuous
 62
     7
370
    30
100
AcDbLine
 10
520.4466489654
 20
194.0763450706
 30
0.0
 11
534.6931260497
 21
194.0763450706
 31
0.0
  0
LINE
  5
14F
330
1F
100
AcDbEntity
  8
0
  6
Continuous
 62
     7
370
    30
100
AcDbLine
 10
535.1931260497
 20
192.5763450706
 30
0.0
 11
535.1931260497
 21
159.5763450706
 31
0.0
  0
ARC
  5
150
330
1F
100
AcDbEntity
  8
0
  6
Continuous
 62
     7
370
    30
100
AcDbCircle
 10
520.4466489654
 20
190.0763450706
 30
0.0
 40
4.000000000000021
100
AcDbArc
 50
90.0
 51
97.2531946127
  0
LINE
  5
151
330
1F
100
AcDbEntity
  8
0
  6
Continuous
 62
     7
370
    30
100
AcDbLine
 10
467.0037446301
 20
187.3067874354
 30
0.0
 11
519.9416318467
 21
194.0443367175
 31
0.0
  0
ARC
  5
152
330
1F
100
AcDbEntity
  8
0
  6
Continuous
 62
     7
370
    30
100
AcDbCircle
 10
520.4466489654
 20
162.0763450706
 30
0.0
 40
4.000000000000021
100
AcDbArc
 50
262.7468053873
 51
270.0
  0
LINE
  5
153
330
1F
100
AcDbEntity
  8
0
  6
Continuous
 62
     7
370
    30
100
AcDbLine
 10
519.9416318467
 20
158.1083534237
 30
0.0
 11
467.0037446301
 21
164.8459027058
 31
0.0
  0
LINE
  5
154
330
1F
100
AcDbEntity
  8
0
  6
Continuous
 62
     7
370
    30
100
AcDbLine
 10
466.9406174903
 20
187.2987530721
 30
0.0
 11
467.0037446301
 21
187.3067874354
 31
0.0
  0
LINE
  5
155
330
1F
100
AcDbEntity
  8
0
  6
Continuous
 62
     7
370
    30
100
AcDbLine
 10
465.1931260497
 20
166.8379328925
 30
0.0
 11
465.1931260497
 21
185.3147572487
 31
0.0
  0
LINE
  5
156
330
1F
100
AcDbEntity
  8
0
  6
Continuous
 62
     7
370
    30
100
AcDbLine
 10
467.0037446301
 20
164.8459027058
 30
0.0
 11
466.9406174903
 21
164.853937069
 31
0.0
  0
ARC
  5
157
330
1F
100
AcDbEntity
  8
0
  6
Continuous
 62
     7
370
    30
100
AcDbCircle
 10
467.1931260497
 20
185.3147572487
 30
0.0
 40
2.0
100
AcDbArc
 50
97.2531946127
 51
180.0
  0
ARC
  5
158
330
1F
100
AcDbEntity
  8
0
  6
Continuous
 62
     7
370
    30
100
AcDbCircle
 10
467.1931260497
 20
166.8379328925
 30
0.0
 40
2.0
100
AcDbArc
 50
180.0
 51
262.7468053873
  0
LINE
  5
159
330
1F
100
AcDbEntity
  8
0
  6
Continuous
 62
     7
370
    30
100
AcDbLine
 10
568.5109568127
 20
162.2287848209
 30
0.0
 11
568.2717206576
 21
162.468020976
 31
0.0
  0
LINE
  5
15A
330
1F
100
AcDbEntity
  8
0
  6
Continuous
 62
     7
370
    30
100
AcDbLine
 10
562.7550724684
 20
162.468020976
 30
0.0
 11
562.5158363133
 21
162.2287848209
 31
0.0
  0
LINE
  5
15B
330
1F
100
AcDbEntity
  8
0
  6
Continuous
 62
     7
370
    30
100
AcDbLine
 10
1018.5109568127
 20
162.2287848209
 30
0.0
 11
1018.2717206576
 21
162.468020976
 31
0.0
  0
LINE
  5
15C
330
1F
100
AcDbEntity
  8
0
  6
Continuous
 62
     7
370
    30
100
AcDbLine
 10
1012.7550724684
 20
162.468020976
 30
0.0
 11
1012.5158363133
 21
162.2287848209
 31
0.0
  0
SPLINE
  5
15D
330
1F
100
AcDbEntity
  8
0
  6
Continuous
 62
     7
370
    30
100
AcDbSpline
210
0.0
220
0.0
230
1.0
 70
     8
 71
     3
 72
     9
 73
     5
 74
     0
 42
0.000000001
 43
0.00000001
 40
0.0
 40
0.0
 40
0.0
 40
0.0
 40
0.1000613254511321
 40
1.0
 40
1.0
 40
1.0
 40
1.0
 10
996.5533586629434
 20
166.9602859967349
 30
0.0
 10
996.8140830736138
 20
166.8550274544278
 30
0.0
 10
999.4197292560405
 20
165.803087138502
 30
0.0
 10
1002.025667981418
 20
164.7221774656758
 30
0.0
 10
1004.37085302389
 20
163.7494250474056
 30
0.0
  0
LINE
  5
15E
330
1F
100
AcDbEntity
  8
0
  6
Continuous
 62
     7
370
    30
100
AcDbLine
 10
576.6532534198
 20
163.7535145555
 30
0.0
 11
584.4804059069
 21
166.9501852368
 31
0.0
  0
SPLINE
  5
15F
330
1F
100
AcDbEntity
  8
0
  6
Continuous
 62
     7
370
    30
100
AcDbSpline
210
0.0
220
0.0
230
1.0
 70
     8
 71
     3
 72
     9
 73
     5
 74
     0
 42
0.000000001
 43
0.00000001
 40
0.0
 40
0.0
 40
0.0
 40
0.0
 40
0.2008234377345716
 40
1.0
 40
1.0
 40
1.0
 40
1.0
 10
584.4860369218476
 20
185.2597333709528
 30
0.0
 10
583.9616780652601
 20
185.4733694921147
 30
0.0
 10
581.3506339436052
 20
186.5371702295779
 30
0.0
 10
578.7401340277787
 20
187.61936896484
 30
0.0
 10
576.6538836792542
 20
188.4842368297747
 30
0.0
  0
LINE
  5
160
330
1F
100
AcDbEntity
  8
0
  6
Continuous
 62
     7
370
    30
100
AcDbLine
 10
1004.3838076329
 20
188.4856122983
 30
0.0
 11
996.5379711728
 21
185.2636989249
 31
0.0
  0
SPLINE
  5
161
330
1F
100
AcDbEntity
  8
0
  6
Continuous
 62
     7
370
    30
100
AcDbSpline
210
0.0
220
0.0
230
1.0
 70
     8
 71
     3
 72
    15
 73
    11
 74
     0
 42
0.000000001
 43
0.00000001
 40
0.0
 40
0.0
 40
0.0
 40
0.0
 40
0.0265443827127861
 40
0.2195986519070545
 40
0.3461406612499215
 40
0.4475644750064232
 40
0.5606108741975094
 40
0.7284968112112984
 40
0.9154148926360853
 40
0.9999999999999999
 40
0.9999999999999999
 40
0.9999999999999999
 40
0.9999999999999999
 10
1005.013522973926
 20
189.298972717563
 30
0.0
 10
1005.013493708942
 20
189.2997131488617
 30
0.0
 10
1005.013251603068
 20
189.3058386525809
 30
0.0
 10
1005.012985382648
 20
189.2826906383096
 30
0.0
 10
1005.003834098773
 20
189.2151224450401
 30
0.0
 10
1004.975897473206
 20
189.0998545914963
 30
0.0
 10
1004.904655671864
 20
188.9236697220231
 30
0.0
 10
1004.75711270858
 20
188.7201669610934
 30
0.0
 10
1004.572634304209
 20
188.5567115048235
 30
0.0
 10
1004.430501215045
 20
188.5139330933777
 30
0.0
 10
1004.386220546886
 20
188.5006057488955
 30
0.0
  0
SPLINE
  5
162
330
1F
100
AcDbEntity
  8
0
  6
Continuous
 62
     7
370
    30
100
AcDbSpline
210
0.0
220
0.0
230
1.0
 70
     8
 71
     3
 72
    14
 73
    10
 74
     0
 42
0.000000001
 43
0.00000001
 40
0.0
 40
0.0
 40
0.0
 40
0.0
 40
0.2057885651004083
 40
0.3914412280736607
 40
0.5490730906697278
 40
0.6751789366958495
 40
0.7718579421170537
 40
0.8703072732216758
 40
0.9999999999999999
 40
0.9999999999999999
 40
0.9999999999999999
 40
0.9999999999999999
 10
576.6203625555452
 20
188.4954433815683
 30
0.0
 10
576.5389329843466
 20
188.5356765268006
 30
0.0
 10
576.3840415240953
 20
188.6122061035111
 30
0.0
 10
576.215376469133
 20
188.7873943563566
 30
0.0
 10
576.1079617355929
 20
188.9579528924006
 30
0.0
 10
576.0527635419943
 20
189.0986791642746
 30
0.0
 10
576.0287708970026
 20
189.191539153858
 30
0.0
 10
576.0179494187312
 20
189.253413108427
 30
0.0
 10
576.0160694693736
 20
189.2723071063643
 30
0.0
 10
576.0150007678786
 20
189.2830478445472
 30
0.0
  0
SPLINE
  5
163
330
1F
100
AcDbEntity
  8
0
  6
Continuous
 62
     7
370
    30
100
AcDbSpline
210
0.0
220
0.0
230
1.0
 70
     8
 71
     3
 72
    15
 73
    11
 74
     0
 42
0.000000001
 43
0.00000001
 40
0.0
 40
0.0
 40
0.0
 40
0.0
 40
0.0514912623168295
 40
0.2637868021559018
 40
0.371118394058486
 40
0.4603487473958662
 40
0.5771474976688628
 40
0.7440856085894682
 40
0.9315922577321597
 40
1.0
 40
1.0
 40
1.0
 40
1.0
 10
576.0133034792472
 20
162.9225404666443
 30
0.0
 10
576.0133431956681
 20
162.9216736307466
 30
0.0
 10
576.0135466606288
 20
162.9172328798471
 30
0.0
 10
576.0136897289788
 20
162.9434587458002
 30
0.0
 10
576.0258828708544
 20
163.0266921696684
 30
0.0
 10
576.0550904927844
 20
163.1431683387355
 30
0.0
 10
576.1289063525156
 20
163.3227197839251
 30
0.0
 10
576.2855439855294
 20
163.5306839019071
 30
0.0
 10
576.471407123758
 20
163.6906034847757
 30
0.0
 10
576.610100268633
 20
163.7285052174224
 30
0.0
 10
576.64717393556
 20
163.7386366209129
 30
0.0
  0
SPLINE
  5
164
330
1F
100
AcDbEntity
  8
0
  6
Continuous
 62
     7
370
    30
100
AcDbSpline
210
0.0
220
0.0
230
1.0
 70
     8
 71
     3
 72
    15
 73
    11
 74
     0
 42
0.000000001
 43
0.00000001
 40
0.0
 40
0.0
 40
0.0
 40
0.0
 40
0.0199627568500234
 40
0.2271293060368046
 40
0.4020541190533676
 40
0.550386727147993
 40
0.668394353321631
 40
0.7611028565051491
 40
0.8604134422680902
 40
1.0
 40
1.0
 40
1.0
 40
1.0
 10
1004.38734379185
 20
163.7454735037286
 30
0.0
 10
1004.396396068565
 20
163.7435767370121
 30
0.0
 10
1004.499389725391
 20
163.7219959848509
 30
0.0
 10
1004.654032563308
 20
163.6032533722273
 30
0.0
 10
1004.824971418435
 20
163.4317884050176
 30
0.0
 10
1004.926222698455
 20
163.2590117734565
 30
0.0
 10
1004.977483421378
 20
163.1216203091286
 30
0.0
 10
1004.999483505953
 20
163.0311075372275
 30
0.0
 10
1005.009603883176
 20
162.9686230322857
 30
0.0
 10
1005.01120334006
 20
162.9497902233277
 30
0.0
 10
1005.012137895733
 20
162.9387862952923
 30
0.0
  0
SPLINE
  5
165
330
1F
100
AcDbEntity
  8
0
  6
Continuous
 62
     7
370
    30
100
AcDbSpline
210
0.0
220
0.0
230
1.0
 70
     8
 71
     3
 72
     9
 73
     5
 74
     0
 42
0.000000001
 43
0.00000001
 40
0.0
 40
0.0
 40
0.0
 40
0.0
 40
0.4923749166014826
 40
1.0
 40
1.0
 40
1.0
 40
1.0
 10
995.545717472187
 20
167.1423733110972
 30
0.0
 10
995.7271929590959
 20
167.1359421839685
 30
0.0
 10
996.0957647136468
 20
167.1228807405198
 30
0.0
 10
996.407147338058
 20
167.0116272856003
 30
0.0
 10
996.5652129687437
 20
166.9551522412684
 30
0.0
  0
SPLINE
  5
166
330
1F
100
AcDbEntity
  8
0
  6
Continuous
 62
     7
370
    30
100
AcDbSpline
210
0.0
220
0.0
230
1.0
 70
     8
 71
     3
 72
    10
 73
     6
 74
     0
 42
0.000000001
 43
0.00000001
 40
0.0
 40
0.0
 40
0.0
 40
0.0
 40
0.0678948542428477
 40
0.6530377707578565
 40
1.0
 40
1.0
 40
1.0
 40
1.0
 10
584.4672906111754
 20
166.9524737751359
 30
0.0
 10
584.4855465615098
 20
166.9623782186432
 30
0.0
 10
584.6611390308117
 20
167.0576428124143
 30
0.0
 10
585.0145915730419
 20
167.1354888907701
 30
0.0
 10
585.3554593236782
 20
167.1311954408111
 30
0.0
 10
585.4823422565489
 20
167.1295972681418
 30
0.0
  0
SPLINE
  5
167
330
1F
100
AcDbEntity
  8
0
  6
Continuous
 62
     7
370
    30
100
AcDbSpline
210
0.0
220
0.0
230
1.0
 70
     8
 71
     3
 72
    10
 73
     6
 74
     0
 42
0.000000001
 43
0.00000001
 40
0.0
 40
0.0
 40
0.0
 40
0.0
 40
0.2964052682123272
 40
0.8599243879937496
 40
1.0
 40
1.0
 40
1.0
 40
1.0
 10
996.5456786849794
 20
185.2842708847179
 30
0.0
 10
996.4557682850103
 20
185.2425950977493
 30
0.0
 10
996.1949222274015
 20
185.1216862292287
 30
0.0
 10
995.8121424119248
 20
185.0504892442407
 30
0.0
 10
995.5387017918893
 20
185.0798059904698
 30
0.0
 10
995.4842636892879
 20
185.0856425338442
 30
0.0
  0
SPLINE
  5
168
330
1F
100
AcDbEntity
  8
0
  6
Continuous
 62
     7
370
    30
100
AcDbSpline
210
0.0
220
0.0
230
1.0
 70
     8
 71
     3
 72
    10
 73
     6
 74
     0
 42
0.000000001
 43
0.00000001
 40
0.0
 40
0.0
 40
0.0
 40
0.0
 40
0.3318805379841513
 40
0.8760606921616065
 40
1.0
 40
1.0
 40
1.0
 40
1.0
 10
585.508702114526
 20
185.0854058002298
 30
0.0
 10
585.3853059757223
 20
185.0836428446699
 30
0.0
 10
585.0595788106796
 20
185.0789891940599
 30
0.0
 10
584.7065235577829
 20
185.1569103050181
 30
0.0
 10
584.5154599022607
 20
185.2535623384498
 30
0.0
 10
584.4800166940249
 20
185.271491745997
 30
0.0
  0
LINE
  5
169
330
1F
100
AcDbEntity
  8
0
  6
Continuous
 62
     7
370
    30
100
AcDbLine
 10
585.4787164085
 20
167.1476738794
 30
0.0
 11
995.5462523654
 21
167.1476738794
 31
0.0
  0
LINE
  5
16A
330
1F
100
AcDbEntity
  8
0
  6
Continuous
 62
     7
370
    30
100
AcDbLine
 10
995.5315700496
 20
185.0692820235
 30
0.0
 11
585.5073084045
 21
185.0692820235
 31
0.0
  0
LINE
  5
16B
330
1F
100
AcDbEntity
  8
0
  6
Continuous
 62
     7
370
    30
100
AcDbLine
 10
562.9153203516
 20
162.2263450706
 30
0.0
 11
562.5200706535
 21
162.2263450706
 31
0.0
  0
LINE
  5
16C
330
1F
100
AcDbEntity
  8
0
  6
Continuous
 62
     7
370
    30
100
AcDbLine
 10
568.5067224724
 20
162.2263450706
 30
0.0
 11
567.8046844104
 21
162.2263450706
 31
0.0
  0
LINE
  5
16D
330
1F
100
AcDbEntity
  8
0
  6
Continuous
 62
     7
370
    30
100
AcDbLine
 10
563.2221087155
 20
162.2263450706
 30
0.0
 11
562.9153203516
 21
162.2263450706
 31
0.0
  0
LINE
  5
16E
330
1F
100
AcDbEntity
  8
0
  6
Continuous
 62
     7
370
    30
100
AcDbLine
 10
1018.5067224724
 20
162.2263450706
 30
0.0
 11
1017.8046844104
 21
162.2263450706
 31
0.0
  0
LINE
  5
16F
330
1F
100
AcDbEntity
  8
0
  6
Continuous
 62
     7
370
    30
100
AcDbLine
 10
1013.2221087155
 20
162.2263450706
 30
0.0
 11
1012.5200706535
 21
162.2263450706
 31
0.0
  0
LINE
  5
170
330
1F
100
AcDbEntity
  8
0
  6
Continuous
 62
     7
370
    30
100
AcDbLine
 10
570.513396563
 20
167.2263450706
 30
0.0
 11
570.513396563
 21
185.2263450706
 31
0.0
  0
LINE
  5
171
330
1F
100
AcDbEntity
  8
0
  6
Continuous
 62
     7
370
    30
100
AcDbLine
 10
571.013396563
 20
185.2263450706
 30
0.0
 11
571.013396563
 21
167.2263450706
 31
0.0
  0
ARC
  5
172
330
1F
100
AcDbEntity
  8
0
  6
Continuous
 62
     7
370
    30
100
AcDbCircle
 10
565.513396563
 20
167.2263450706
 30
0.0
 40
5.500000000000114
100
AcDbArc
 50
180.0
 51
0.0
  0
ARC
  5
173
330
1F
100
AcDbEntity
  8
0
  6
Continuous
 62
     7
370
    30
100
AcDbCircle
 10
565.513396563
 20
167.2263450706
 30
0.0
 40
5.000000000000114
100
AcDbArc
 50
180.0
 51
0.0
  0
CIRCLE
  5
174
330
1F
100
AcDbEntity
  8
0
  6
Continuous
 62
     7
370
    30
100
AcDbCircle
 10
565.513396563
 20
167.2263450706
 30
0.0
 40
3.249999999999886
  0
CIRCLE
  5
175
330
1F
100
AcDbEntity
  8
0
  6
Continuous
 62
     7
370
    30
100
AcDbCircle
 10
565.513396563
 20
185.2263450706
 30
0.0
 40
3.249999999999886
  0
LINE
  5
176
330
1F
100
AcDbEntity
  8
0
  6
Continuous
 62
     7
370
    30
100
AcDbLine
 10
560.513396563
 20
185.2263450706
 30
0.0
 11
560.513396563
 21
167.2263450706
 31
0.0
  0
ARC
  5
177
330
1F
100
AcDbEntity
  8
0
  6
Continuous
 62
     7
370
    30
100
AcDbCircle
 10
565.513396563
 20
185.2263450706
 30
0.0
 40
5.000000000000114
100
AcDbArc
 50
0.0
 51
180.0
  0
ARC
  5
178
330
1F
100
AcDbEntity
  8
0
  6
Continuous
 62
     7
370
    30
100
AcDbCircle
 10
565.513396563
 20
185.2263450706
 30
0.0
 40
5.500000000000114
100
AcDbArc
 50
0.0
 51
180.0
  0
CIRCLE
  5
179
330
1F
100
AcDbEntity
  8
0
  6
Continuous
 62
     7
370
    30
100
AcDbCircle
 10
565.513396563
 20
185.2263450706
 30
0.0
 40
2.249999999999886
  0
CIRCLE
  5
17A
330
1F
100
AcDbEntity
  8
0
  6
Continuous
 62
     7
370
    30
100
AcDbCircle
 10
565.513396563
 20
167.2263450706
 30
0.0
 40
2.249999999999886
  0
LINE
  5
17B
330
1F
100
AcDbEntity
  8
0
  6
Continuous
 62
     7
370
    30
100
AcDbLine
 10
560.013396563
 20
167.2263450706
 30
0.0
 11
560.013396563
 21
185.2263450706
 31
0.0
  0
ARC
  5
17C
330
1F
100
AcDbEntity
  8
0
  6
Continuous
 62
     7
370
    30
100
AcDbCircle
 10
1015.513396563
 20
185.2263450706
 30
0.0
 40
5.500000000000114
100
AcDbArc
 50
0.0
 51
180.0
  0
ARC
  5
17D
330
1F
100
AcDbEntity
  8
0
  6
Continuous
 62
     7
370
    30
100
AcDbCircle
 10
1015.513396563
 20
185.2263450706
 30
0.0
 40
5.000000000000114
100
AcDbArc
 50
0.0
 51
180.0
  0
LINE
  5
17E
330
1F
100
AcDbEntity
  8
0
  6
Continuous
 62
     7
370
    30
100
AcDbLine
 10
1020.513396563
 20
167.2263450706
 30
0.0
 11
1020.513396563
 21
185.2263450706
 31
0.0
  0
LINE
  5
17F
330
1F
100
AcDbEntity
  8
0
  6
Continuous
 62
     7
370
    30
100
AcDbLine
 10
1021.013396563
 20
185.2263450706
 30
0.0
 11
1021.013396563
 21
167.2263450706
 31
0.0
  0
ARC
  5
180
330
1F
100
AcDbEntity
  8
0
  6
Continuous
 62
     7
370
    30
100
AcDbCircle
 10
1015.513396563
 20
167.2263450706
 30
0.0
 40
5.000000000000114
100
AcDbArc
 50
180.0
 51
0.0
  0
ARC
  5
181
330
1F
100
AcDbEntity
  8
0
  6
Continuous
 62
     7
370
    30
100
AcDbCircle
 10
1015.513396563
 20
167.2263450706
 30
0.0
 40
5.500000000000114
100
AcDbArc
 50
180.0
 51
0.0
  0
CIRCLE
  5
182
330
1F
100
AcDbEntity
  8
0
  6
Continuous
 62
     7
370
    30
100
AcDbCircle
 10
1015.513396563
 20
185.2263450706
 30
0.0
 40
3.249999999999886
  0
CIRCLE
  5
183
330
1F
100
AcDbEntity
  8
0
  6
Continuous
 62
     7
370
    30
100
AcDbCircle
 10
1015.513396563
 20
167.2263450706
 30
0.0
 40
3.249999999999886
  0
LINE
  5
184
330
1F
100
AcDbEntity
  8
0
  6
Continuous
 62
     7
370
    30
100
AcDbLine
 10
1010.513396563
 20
185.2263450706
 30
0.0
 11
1010.513396563
 21
167.2263450706
 31
0.0
  0
CIRCLE
  5
185
330
1F
100
AcDbEntity
  8
0
  6
Continuous
 62
     7
370
    30
100
AcDbCircle
 10
1015.513396563
 20
167.2263450706
 30
0.0
 40
2.249999999999773
  0
CIRCLE
  5
186
330
1F
100
AcDbEntity
  8
0
  6
Continuous
 62
     7
370
    30
100
AcDbCircle
 10
1015.513396563
 20
185.2263450706
 30
0.0
 40
2.249999999999773
  0
LINE
  5
187
330
1F
100
AcDbEntity
  8
0
  6
Continuous
 62
     7
370
    30
100
AcDbLine
 10
1010.013396563
 20
167.2263450706
 30
0.0
 11
1010.013396563
 21
185.2263450706
 31
0.0
  0
LINE
  5
188
330
1F
100
AcDbEntity
  8
0
  6
Continuous
 62
     7
370
    30
100
AcDbLine
 10
1026.013396563
 20
192.5763450706
 30
0.0
 11
1026.013396563
 21
159.5763450706
 31
0.0
  0
ARC
  5
189
330
1F
100
AcDbEntity
  8
0
  6
Continuous
 62
     7
370
    30
100
AcDbCircle
 10
1024.513396563
 20
159.5763450706
 30
0.0
 40
1.5
100
AcDbArc
 50
270.0
 51
0.0
  0
ARC
  5
18A
330
1F
100
AcDbEntity
  8
0
  6
Continuous
 62
     7
370
    30
100
AcDbCircle
 10
1024.513396563
 20
192.5763450706
 30
0.0
 40
1.5
100
AcDbArc
 50
0.0
 51
90.0
  0
LINE
  5
18B
330
1F
100
AcDbEntity
  8
0
  6
Continuous
 62
     7
370
    30
100
AcDbLine
 10
1008.513396563
 20
167.4263450706
 30
0.0
 11
1008.513396563
 21
184.7263450706
 31
0.0
  0
ARC
  5
18C
330
1F
100
AcDbEntity
  8
0
  6
Continuous
 62
     7
370
    30
100
AcDbCircle
 10
1015.513396563
 20
167.4263450706
 30
0.0
 40
7.000000000000114
100
AcDbArc
 50
180.0
 51
0.0
  0
LINE
  5
18D
330
1F
100
AcDbEntity
  8
0
  6
Continuous
 62
     7
370
    30
100
AcDbLine
 10
1022.513396563
 20
184.7263450706
 30
0.0
 11
1022.513396563
 21
167.4263450706
 31
0.0
  0
ARC
  5
18E
330
1F
100
AcDbEntity
  8
0
  6
Continuous
 62
     7
370
    30
100
AcDbCircle
 10
1015.513396563
 20
184.7263450706
 30
0.0
 40
7.000000000000114
100
AcDbArc
 50
0.0
 51
180.0
  0
LINE
  5
18F
330
1F
100
AcDbEntity
  8
0
  6
Continuous
 62
     7
370
    30
100
AcDbLine
 10
1006.513396563
 20
194.0763450706
 30
0.0
 11
1024.513396563
 21
194.0763450706
 31
0.0
  0
LINE
  5
190
330
1F
100
AcDbEntity
  8
0
  6
Continuous
 62
     7
370
    30
100
AcDbLine
 10
1024.513396563
 20
158.0763450706
 30
0.0
 11
1006.513396563
 21
158.0763450706
 31
0.0
  0
ARC
  5
191
330
1F
100
AcDbEntity
  8
0
  6
Continuous
 62
     7
370
    30
100
AcDbCircle
 10
1015.513396563
 20
167.4263450706
 30
0.0
 40
6.000000000000227
100
AcDbArc
 50
180.0
 51
0.0
  0
ARC
  5
192
330
1F
100
AcDbEntity
  8
0
  6
Continuous
 62
     7
370
    30
100
AcDbCircle
 10
1015.513396563
 20
184.7263450706
 30
0.0
 40
6.000000000000227
100
AcDbArc
 50
0.0
 51
180.0
  0
LINE
  5
193
330
1F
100
AcDbEntity
  8
0
  6
Continuous
 62
     7
370
    30
100
AcDbLine
 10
1021.513396563
 20
167.4263450706
 30
0.0
 11
1021.513396563
 21
184.7263450706
 31
0.0
  0
LINE
  5
194
330
1F
100
AcDbEntity
  8
0
  6
Continuous
 62
     7
370
    30
100
AcDbLine
 10
1009.513396563
 20
184.7263450706
 30
0.0
 11
1009.513396563
 21
167.4263450706
 31
0.0
  0
ARC
  5
195
330
1F
100
AcDbEntity
  8
0
  6
Continuous
 62
     7
370
    30
100
AcDbCircle
 10
1006.513396563
 20
192.5763450706
 30
0.0
 40
1.5
100
AcDbArc
 50
90.0
 51
180.0
  0
ARC
  5
196
330
1F
100
AcDbEntity
  8
0
  6
Continuous
 62
     7
370
    30
100
AcDbCircle
 10
1006.513396563
 20
159.5763450706
 30
0.0
 40
1.5
100
AcDbArc
 50
180.0
 51
270.0
  0
LINE
  5
197
330
1F
100
AcDbEntity
  8
0
  6
Continuous
 62
     7
370
    30
100
AcDbLine
 10
1005.013396563
 20
159.5763450706
 30
0.0
 11
1005.013396563
 21
192.5763450706
 31
0.0
  0
ARC
  5
198
330
1F
100
AcDbEntity
  8
0
  6
Continuous
 62
     7
370
    30
100
AcDbCircle
 10
565.513396563
 20
184.7263450706
 30
0.0
 40
7.000000000000114
100
AcDbArc
 50
0.0
 51
180.0
  0
LINE
  5
199
330
1F
100
AcDbEntity
  8
0
  6
Continuous
 62
     7
370
    30
100
AcDbLine
 10
558.513396563
 20
167.4263450706
 30
0.0
 11
558.513396563
 21
184.7263450706
 31
0.0
  0
ARC
  5
19A
330
1F
100
AcDbEntity
  8
0
  6
Continuous
 62
     7
370
    30
100
AcDbCircle
 10
565.513396563
 20
167.4263450706
 30
0.0
 40
7.000000000000114
100
AcDbArc
 50
180.0
 51
0.0
  0
LINE
  5
19B
330
1F
100
AcDbEntity
  8
0
  6
Continuous
 62
     7
370
    30
100
AcDbLine
 10
572.513396563
 20
184.7263450706
 30
0.0
 11
572.513396563
 21
167.4263450706
 31
0.0
  0
ARC
  5
19C
330
1F
100
AcDbEntity
  8
0
  6
Continuous
 62
     7
370
    30
100
AcDbCircle
 10
574.513396563
 20
159.5763450706
 30
0.0
 40
1.5
100
AcDbArc
 50
270.0
 51
0.0
  0
LINE
  5
19D
330
1F
100
AcDbEntity
  8
0
  6
Continuous
 62
     7
370
    30
100
AcDbLine
 10
576.013396563
 20
192.5763450706
 30
0.0
 11
576.013396563
 21
159.5763450706
 31
0.0
  0
ARC
  5
19E
330
1F
100
AcDbEntity
  8
0
  6
Continuous
 62
     7
370
    30
100
AcDbCircle
 10
574.513396563
 20
192.5763450706
 30
0.0
 40
1.5
100
AcDbArc
 50
0.0
 51
90.0
  0
LINE
  5
19F
330
1F
100
AcDbEntity
  8
0
  6
Continuous
 62
     7
370
    30
100
AcDbLine
 10
574.513396563
 20
158.0763450706
 30
0.0
 11
556.513396563
 21
158.0763450706
 31
0.0
  0
LINE
  5
1A0
330
1F
100
AcDbEntity
  8
0
  6
Continuous
 62
     7
370
    30
100
AcDbLine
 10
556.513396563
 20
194.0763450706
 30
0.0
 11
574.513396563
 21
194.0763450706
 31
0.0
  0
ARC
  5
1A1
330
1F
100
AcDbEntity
  8
0
  6
Continuous
 62
     7
370
    30
100
AcDbCircle
 10
565.513396563
 20
167.4263450706
 30
0.0
 40
6.0
100
AcDbArc
 50
180.0
 51
0.0
  0
ARC
  5
1A2
330
1F
100
AcDbEntity
  8
0
  6
Continuous
 62
     7
370
    30
100
AcDbCircle
 10
565.513396563
 20
184.7263450706
 30
0.0
 40
6.0
100
AcDbArc
 50
0.0
 51
180.0
  0
LINE
  5
1A3
330
1F
100
AcDbEntity
  8
0
  6
Continuous
 62
     7
370
    30
100
AcDbLine
 10
571.513396563
 20
167.4263450706
 30
0.0
 11
571.513396563
 21
184.7263450706
 31
0.0
  0
LINE
  5
1A4
330
1F
100
AcDbEntity
  8
0
  6
Continuous
 62
     7
370
    30
100
AcDbLine
 10
559.513396563
 20
184.7263450706
 30
0.0
 11
559.513396563
 21
167.4263450706
 31
0.0
  0
ARC
  5
1A5
330
1F
100
AcDbEntity
  8
0
  6
Continuous
 62
     7
370
    30
100
AcDbCircle
 10
556.513396563
 20
159.5763450706
 30
0.0
 40
1.500000000000114
100
AcDbArc
 50
180.0
 51
270.0
  0
ARC
  5
1A6
330
1F
100
AcDbEntity
  8
0
  6
Continuous
 62
     7
370
    30
100
AcDbCircle
 10
556.513396563
 20
192.5763450706
 30
0.0
 40
1.500000000000114
100
AcDbArc
 50
90.0
 51
180.0
  0
LINE
  5
1A7
330
1F
100
AcDbEntity
  8
0
  6
Continuous
 62
     7
370
    30
100
AcDbLine
 10
555.013396563
 20
159.5763450706
 30
0.0
 11
555.013396563
 21
192.5763450706
 31
0.0
  0
ENDSEC
  0
SECTION
  2
OBJECTS
  0
DICTIONARY
  5
C
330
0
100
AcDbDictionary
281
     1
  3
ACAD_GROUP
350
D
  3
ACAD_LAYOUT
350
1A
  3
ACAD_MLINESTYLE
350
17
  3
ACAD_PLOTSETTINGS
350
19
  3
ACAD_PLOTSTYLENAME
350
E
  3
ACAD_SCALELIST
350
47
  0
DICTIONARY
  5
D
102
{ACAD_REACTORS
330
C
102
}
330
C
100
AcDbDictionary
281
     1
  0
DICTIONARY
  5
1A
102
{ACAD_REACTORS
330
C
102
}
330
C
100
AcDbDictionary
281
     1
  3
Layout1
350
1E
  3
Layout2
350
26
  3
Model
350
22
  0
DICTIONARY
  5
17
102
{ACAD_REACTORS
330
C
102
}
330
C
100
AcDbDictionary
281
     1
  3
Standard
350
18
  0
DICTIONARY
  5
19
102
{ACAD_REACTORS
330
C
102
}
330
C
100
AcDbDictionary
281
     1
  0
ACDBDICTIONARYWDFLT
  5
E
102
{ACAD_REACTORS
330
C
102
}
330
C
100
AcDbDictionary
281
     1
  3
Normal
350
F
100
AcDbDictionaryWithDefault
340
F
  0
DICTIONARY
  5
47
102
{ACAD_REACTORS
330
C
102
}
330
C
100
AcDbDictionary
281
     1
  3
A0
350
48
  3
A1
350
49
  3
A2
350
4A
  3
A3
350
4B
  3
A4
350
4C
  3
A5
350
4D
  3
A6
350
4E
  3
A7
350
4F
  3
A8
350
50
  3
A9
350
51
  3
B0
350
52
  3
B1
350
53
  3
B2
350
54
  3
B3
350
55
  3
B4
350
56
  3
B5
350
57
  3
B6
350
58
  3
B7
350
59
  3
B8
350
5A
  3
B9
350
5B
  3
C0
350
5C
  3
C1
350
5D
  3
C2
350
5E
  3
C3
350
5F
  3
C4
350
60
  3
C5
350
61
  3
C6
350
62
  3
C7
350
63
  3
C8
350
64
  3
C9
350
65
  3
D0
350
66
  3
D1
350
67
  3
D2
350
68
  0
LAYOUT
  5
1E
102
{ACAD_REACTORS
330
1A
102
}
330
1A
100
AcDbPlotSettings
  1

  2
none_device
  4

  6

 40
0.0
 41
0.0
 42
0.0
 43
0.0
 44
0.0
 45
0.0
 46
0.0
 47
0.0
 48
0.0
 49
0.0
140
0.0
141
0.0
142
1.0
143
1.0
 70
   688
 72
     1
 73
     0
 74
     5
  7

 75
    16
147
1.0
148
0.0
149
0.0
100
AcDbLayout
  1
Layout1
 70
     1
 71
     1
 10
0.0
 20
0.0
 11
420.0
 21
297.0
 12
0.0
 22
0.0
 32
0.0
 14
1.0000000000E+20
 24
1.0000000000E+20
 34
1.0000000000E+20
 15
-1.0000000000E+20
 25
-1.0000000000E+20
 35
-1.0000000000E+20
146
0.0
 13
0.0
 23
0.0
 33
0.0
 16
1.0
 26
0.0
 36
0.0
 17
0.0
 27
1.0
 37
0.0
 76
     0
330
1B
  0
LAYOUT
  5
26
102
{ACAD_REACTORS
330
1A
102
}
330
1A
100
AcDbPlotSettings
  1

  2
none_device
  4

  6

 40
0.0
 41
0.0
 42
0.0
 43
0.0
 44
0.0
 45
0.0
 46
0.0
 47
0.0
 48
0.0
 49
0.0
140
0.0
141
0.0
142
1.0
143
1.0
 70
   688
 72
     1
 73
     0
 74
     5
  7

 75
    16
147
1.0
148
0.0
149
0.0
100
AcDbLayout
  1
Layout2
 70
     1
 71
     2
 10
0.0
 20
0.0
 11
0.0
 21
0.0
 12
0.0
 22
0.0
 32
0.0
 14
0.0
 24
0.0
 34
0.0
 15
0.0
 25
0.0
 35
0.0
146
0.0
 13
0.0
 23
0.0
 33
0.0
 16
1.0
 26
0.0
 36
0.0
 17
0.0
 27
1.0
 37
0.0
 76
     0
330
23
  0
LAYOUT
  5
22
102
{ACAD_REACTORS
330
1A
102
}
330
1A
100
AcDbPlotSettings
  1

  2
none_device
  4
Letter_(8.50_x_11.00_Inches)
  6

 40
6.35
 41
6.35
 42
6.35000508
 43
6.35000508
 44
215.9
 45
279.4
 46
0.0
 47
0.0
 48
0.0
 49
0.0
140
0.0
141
0.0
142
1.0
143
1.0
 70
  1712
 72
     1
 73
     0
 74
     0
  7

 75
     0
147
1.0
148
0.0
149
0.0
100
AcDbLayout
  1
Model
 70
     1
 71
     0
 10
0.0
 20
0.0
 11
420.0
 21
297.0
 12
0.0
 22
0.0
 32
0.0
 14
0.0
 24
0.0
 34
0.0
 15
420.0
 25
297.0
 35
0.0
146
0.0
 13
0.0
 23
0.0
 33
0.0
 16
1.0
 26
0.0
 36
0.0
 17
0.0
 27
1.0
 37
0.0
 76
     0
330
1F
331
29
  0
MLINESTYLE
  5
18
102
{ACAD_REACTORS
330
17
102
}
330
17
100
AcDbMlineStyle
  2
Standard
 70
     0
  3

 62
   256
 51
90.0
 52
90.0
 71
     2
 49
0.5
 62
   256
  6
BYLAYER
 49
-0.5
 62
   256
  6
BYLAYER
  0
ACDBPLACEHOLDER
  5
F
102
{ACAD_REACTORS
330
E
102
}
330
E
  0
SCALE
  5
48
102
{ACAD_REACTORS
330
47
102
}
330
47
100
AcDbScale
 70
     0
300
1:1
140
1.0
141
1.0
290
     1
  0
SCALE
  5
49
102
{ACAD_REACTORS
330
47
102
}
330
47
100
AcDbScale
 70
     0
300
1:2
140
1.0
141
2.0
290
     0
  0
SCALE
  5
4A
102
{ACAD_REACTORS
330
47
102
}
330
47
100
AcDbScale
 70
     0
300
1:4
140
1.0
141
4.0
290
     0
  0
SCALE
  5
4B
102
{ACAD_REACTORS
330
47
102
}
330
47
100
AcDbScale
 70
     0
300
1:5
140
1.0
141
5.0
290
     0
  0
SCALE
  5
4C
102
{ACAD_REACTORS
330
47
102
}
330
47
100
AcDbScale
 70
     0
300
1:8
140
1.0
141
8.0
290
     0
  0
SCALE
  5
4D
102
{ACAD_REACTORS
330
47
102
}
330
47
100
AcDbScale
 70
     0
300
1:10
140
1.0
141
10.0
290
     0
  0
SCALE
  5
4E
102
{ACAD_REACTORS
330
47
102
}
330
47
100
AcDbScale
 70
     0
300
1:16
140
1.0
141
16.0
290
     0
  0
SCALE
  5
4F
102
{ACAD_REACTORS
330
47
102
}
330
47
100
AcDbScale
 70
     0
300
1:20
140
1.0
141
20.0
290
     0
  0
SCALE
  5
50
102
{ACAD_REACTORS
330
47
102
}
330
47
100
AcDbScale
 70
     0
300
1:30
140
1.0
141
30.0
290
     0
  0
SCALE
  5
51
102
{ACAD_REACTORS
330
47
102
}
330
47
100
AcDbScale
 70
     0
300
1:40
140
1.0
141
40.0
290
     0
  0
SCALE
  5
52
102
{ACAD_REACTORS
330
47
102
}
330
47
100
AcDbScale
 70
     0
300
1:50
140
1.0
141
50.0
290
     0
  0
SCALE
  5
53
102
{ACAD_REACTORS
330
47
102
}
330
47
100
AcDbScale
 70
     0
300
1:100
140
1.0
141
100.0
290
     0
  0
SCALE
  5
54
102
{ACAD_REACTORS
330
47
102
}
330
47
100
AcDbScale
 70
     0
300
2:1
140
2.0
141
1.0
290
     0
  0
SCALE
  5
55
102
{ACAD_REACTORS
330
47
102
}
330
47
100
AcDbScale
 70
     0
300
4:1
140
4.0
141
1.0
290
     0
  0
SCALE
  5
56
102
{ACAD_REACTORS
330
47
102
}
330
47
100
AcDbScale
 70
     0
300
8:1
140
8.0
141
1.0
290
     0
  0
SCALE
  5
57
102
{ACAD_REACTORS
330
47
102
}
330
47
100
AcDbScale
 70
     0
300
10:1
140
10.0
141
1.0
290
     0
  0
SCALE
  5
58
102
{ACAD_REACTORS
330
47
102
}
330
47
100
AcDbScale
 70
     0
300
100:1
140
100.0
141
1.0
290
     0
  0
SCALE
  5
59
102
{ACAD_REACTORS
330
47
102
}
330
47
100
AcDbScale
 70
     0
300
1/128" = 1'-0"
140
0.0078125
141
12.0
290
     0
  0
SCALE
  5
5A
102
{ACAD_REACTORS
330
47
102
}
330
47
100
AcDbScale
 70
     0
300
1/64" = 1'-0"
140
0.015625
141
12.0
290
     0
  0
SCALE
  5
5B
102
{ACAD_REACTORS
330
47
102
}
330
47
100
AcDbScale
 70
     0
300
1/32" = 1'-0"
140
0.03125
141
12.0
290
     0
  0
SCALE
  5
5C
102
{ACAD_REACTORS
330
47
102
}
330
47
100
AcDbScale
 70
     0
300
1/16" = 1'-0"
140
0.0625
141
12.0
290
     0
  0
SCALE
  5
5D
102
{ACAD_REACTORS
330
47
102
}
330
47
100
AcDbScale
 70
     0
300
3/32" = 1'-0"
140
0.09375
141
12.0
290
     0
  0
SCALE
  5
5E
102
{ACAD_REACTORS
330
47
102
}
330
47
100
AcDbScale
 70
     0
300
1/8" = 1'-0"
140
0.125
141
12.0
290
     0
  0
SCALE
  5
5F
102
{ACAD_REACTORS
330
47
102
}
330
47
100
AcDbScale
 70
     0
300
3/16" = 1'-0"
140
0.1875
141
12.0
290
     0
  0
SCALE
  5
60
102
{ACAD_REACTORS
330
47
102
}
330
47
100
AcDbScale
 70
     0
300
1/4" = 1'-0"
140
0.25
141
12.0
290
     0
  0
SCALE
  5
61
102
{ACAD_REACTORS
330
47
102
}
330
47
100
AcDbScale
 70
     0
300
3/8" = 1'-0"
140
0.375
141
12.0
290
     0
  0
SCALE
  5
62
102
{ACAD_REACTORS
330
47
102
}
330
47
100
AcDbScale
 70
     0
300
1/2" = 1'-0"
140
0.5
141
12.0
290
     0
  0
SCALE
  5
63
102
{ACAD_REACTORS
330
47
102
}
330
47
100
AcDbScale
 70
     0
300
3/4" = 1'-0"
140
0.75
141
12.0
290
     0
  0
SCALE
  5
64
102
{ACAD_REACTORS
330
47
102
}
330
47
100
AcDbScale
 70
     0
300
1" = 1'-0"
140
1.0
141
12.0
290
     0
  0
SCALE
  5
65
102
{ACAD_REACTORS
330
47
102
}
330
47
100
AcDbScale
 70
     0
300
1-1/2" = 1'-0"
140
1.5
141
12.0
290
     0
  0
SCALE
  5
66
102
{ACAD_REACTORS
330
47
102
}
330
47
100
AcDbScale
 70
     0
300
3" = 1'-0"
140
3.0
141
12.0
290
     0
  0
SCALE
  5
67
102
{ACAD_REACTORS
330
47
102
}
330
47
100
AcDbScale
 70
     0
300
6" = 1'-0"
140
6.0
141
12.0
290
     0
  0
SCALE
  5
68
102
{ACAD_REACTORS
330
47
102
}
330
47
100
AcDbScale
 70
     0
300
1'-0" = 1'-0"
140
12.0
141
12.0
290
     0
  0
ENDSEC
  0
EOF
