  0
SECTION
  2
HEADER
  9
$ACADVER
  1
AC1015
  9
$ACADMAINTVER
 70
     6
  9
$DWGCODEPAGE
  3
DOS932
  9
$INSBASE
 10
0.0
 20
0.0
 30
0.0
  9
$EXTMIN
 10
0.0
 20
0.0
 30
0.0
  9
$EXTMAX
 10
420.0
 20
297.0
 30
0.0
  9
$LIMMIN
 10
0.0
 20
0.0
  9
$LIMMAX
 10
420.0
 20
297.0
  9
$ORTHOMODE
 70
     0
  9
$REGENMODE
 70
     1
  9
$FILLMODE
 70
     1
  9
$QTEXTMODE
 70
     0
  9
$MIRRTEXT
 70
     1
  9
$LTSCALE
 40
1.0
  9
$ATTMODE
 70
     1
  9
$TEXTSIZE
 40
3.8805555556
  9
$TRACEWID
 40
1.0
  9
$TEXTSTYLE
  7
Standard
  9
$CLAYER
  8
0
  9
$CELTYPE
  6
ByLayer
  9
$CECOLOR
 62
   256
  9
$CELTSCALE
 40
1.0
  9
$DISPSILH
 70
     0
  9
$DIMSCALE
 40
1.0
  9
$DIMASZ
 40
3.0
  9
$DIMEXO
 40
0.0
  9
$DIMDLI
 40
3.75
  9
$DIMRND
 40
0.0
  9
$DIMDLE
 40
0.0
  9
$DIMEXE
 40
1.0
  9
$DIMTP
 40
0.0
  9
$DIMTM
 40
0.0
  9
$DIMTXT
 40
3.5277777778
  9
$DIMCEN
 40
2.5
  9
$DIMTSZ
 40
0.0
  9
$DIMTOL
 70
     0
  9
$DIMLIM
 70
     0
  9
$DIMTIH
 70
     1
  9
$DIMTOH
 70
     1
  9
$DIMSE1
 70
     0
  9
$DIMSE2
 70
     0
  9
$DIMTAD
 70
     1
  9
$DIMZIN
 70
     0
  9
$DIMBLK
  1

  9
$DIMASO
 70
     1
  9
$DIMSHO
 70
     1
  9
$DIMPOST
  1

  9
$DIMAPOST
  1

  9
$DIMALT
 70
     0
  9
$DIMALTD
 70
     3
  9
$DIMALTF
 40
0.0393700787
  9
$DIMLFAC
 40
1.0
  9
$DIMTOFL
 70
     1
  9
$DIMTVP
 40
0.0
  9
$DIMTIX
 70
     0
  9
$DIMSOXD
 70
     0
  9
$DIMSAH
 70
     0
  9
$DIMBLK1
  1

  9
$DIMBLK2
  1

  9
$DIMSTYLE
  2
ISO-25
  9
$DIMCLRD
 70
     0
  9
$DIMCLRE
 70
     0
  9
$DIMCLRT
 70
     0
  9
$DIMTFAC
 40
1.0
  9
$DIMGAP
 40
1.0
  9
$DIMJUST
 70
     0
  9
$DIMSD1
 70
     0
  9
$DIMSD2
 70
     0
  9
$DIMTOLJ
 70
     0
  9
$DIMTZIN
 70
     0
  9
$DIMALTZ
 70
     0
  9
$DIMALTTZ
 70
     0
  9
$DIMUPT
 70
     0
  9
$DIMDEC
 70
     2
  9
$DIMTDEC
 70
     2
  9
$DIMALTU
 70
     2
  9
$DIMALTTD
 70
     3
  9
$DIMTXSTY
  7
Standard
  9
$DIMAUNIT
 70
     0
  9
$DIMADEC
 70
     2
  9
$DIMALTRND
 40
0.0
  9
$DIMAZIN
 70
     0
  9
$DIMDSEP
 70
    44
  9
$DIMATFIT
 70
     3
  9
$DIMFRAC
 70
     0
  9
$DIMLDRBLK
  1

  9
$DIMLUNIT
 70
     2
  9
$DIMLWD
 70
    -2
  9
$DIMLWE
 70
    -2
  9
$DIMTMOVE
 70
     0
  9
$LUNITS
 70
     2
  9
$LUPREC
 70
     2
  9
$SKETCHINC
 40
1.0
  9
$FILLETRAD
 40
10.0
  9
$AUNITS
 70
     0
  9
$AUPREC
 70
     2
  9
$MENU
  1
.
  9
$ELEVATION
 40
0.0
  9
$PELEVATION
 40
0.0
  9
$THICKNESS
 40
0.0
  9
$LIMCHECK
 70
     0
  9
$CHAMFERA
 40
10.0
  9
$CHAMFERB
 40
10.0
  9
$CHAMFERC
 40
20.0
  9
$CHAMFERD
 40
0.0
  9
$SKPOLY
 70
     0
  9
$TDCREATE
 40
2457196.586288264
  9
$TDUCREATE
 40
2457196.211288264
  9
$TDUPDATE
 40
2457196.586288866
  9
$TDUUPDATE
 40
2457196.211288866
  9
$TDINDWG
 40
0.0000000116
  9
$TDUSRTIMER
 40
0.0000000116
  9
$USRTIMER
 70
     1
  9
$ANGBASE
 50
0.0
  9
$ANGDIR
 70
     0
  9
$PDMODE
 70
     0
  9
$PDSIZE
 40
-1.0
  9
$PLINEWID
 40
0.0
  9
$SPLFRAME
 70
     0
  9
$SPLINETYPE
 70
     6
  9
$SPLINESEGS
 70
     8
  9
$HANDSEED
  5
165
  9
$SURFTAB1
 70
     6
  9
$SURFTAB2
 70
     6
  9
$SURFTYPE
 70
     6
  9
$SURFU
 70
     6
  9
$SURFV
 70
     6
  9
$UCSBASE
  2

  9
$UCSNAME
  2

  9
$UCSORG
 10
0.0
 20
0.0
 30
0.0
  9
$UCSXDIR
 10
1.0
 20
0.0
 30
0.0
  9
$UCSYDIR
 10
0.0
 20
1.0
 30
0.0
  9
$UCSORTHOREF
  2

  9
$UCSORTHOVIEW
 70
     0
  9
$UCSORGTOP
 10
0.0
 20
0.0
 30
0.0
  9
$UCSORGBOTTOM
 10
0.0
 20
0.0
 30
0.0
  9
$UCSORGLEFT
 10
0.0
 20
0.0
 30
0.0
  9
$UCSORGRIGHT
 10
0.0
 20
0.0
 30
0.0
  9
$UCSORGFRONT
 10
0.0
 20
0.0
 30
0.0
  9
$UCSORGBACK
 10
0.0
 20
0.0
 30
0.0
  9
$PUCSBASE
  2

  9
$PUCSNAME
  2

  9
$PUCSORG
 10
0.0
 20
0.0
 30
0.0
  9
$PUCSXDIR
 10
1.0
 20
0.0
 30
0.0
  9
$PUCSYDIR
 10
0.0
 20
1.0
 30
0.0
  9
$PUCSORTHOREF
  2

  9
$PUCSORTHOVIEW
 70
     0
  9
$PUCSORGTOP
 10
0.0
 20
0.0
 30
0.0
  9
$PUCSORGBOTTOM
 10
0.0
 20
0.0
 30
0.0
  9
$PUCSORGLEFT
 10
0.0
 20
0.0
 30
0.0
  9
$PUCSORGRIGHT
 10
0.0
 20
0.0
 30
0.0
  9
$PUCSORGFRONT
 10
0.0
 20
0.0
 30
0.0
  9
$PUCSORGBACK
 10
0.0
 20
0.0
 30
0.0
  9
$USERI1
 70
     0
  9
$USERI2
 70
     0
  9
$USERI3
 70
     0
  9
$USERI4
 70
     0
  9
$USERI5
 70
     0
  9
$USERR1
 40
0.0
  9
$USERR2
 40
0.0
  9
$USERR3
 40
0.0
  9
$USERR4
 40
0.0
  9
$USERR5
 40
0.0
  9
$WORLDVIEW
 70
     1
  9
$SHADEDGE
 70
     3
  9
$SHADEDIF
 70
    70
  9
$TILEMODE
 70
     1
  9
$MAXACTVP
 70
    64
  9
$PINSBASE
 10
0.0
 20
0.0
 30
0.0
  9
$PLIMCHECK
 70
     0
  9
$PEXTMIN
 10
1.0000000000E+20
 20
1.0000000000E+20
 30
1.0000000000E+20
  9
$PEXTMAX
 10
-1.0000000000E+20
 20
-1.0000000000E+20
 30
-1.0000000000E+20
  9
$PLIMMIN
 10
0.0
 20
0.0
  9
$PLIMMAX
 10
420.0
 20
297.0
  9
$UNITMODE
 70
     0
  9
$VISRETAIN
 70
     1
  9
$PLINEGEN
 70
     0
  9
$PSLTSCALE
 70
     1
  9
$TREEDEPTH
 70
  3020
  9
$CMLSTYLE
  2
Standard
  9
$CMLJUST
 70
     0
  9
$CMLSCALE
 40
20.0
  9
$PROXYGRAPHICS
 70
     1
  9
$MEASUREMENT
 70
     1
  9
$CELWEIGHT
370
    -1
  9
$ENDCAPS
280
     0
  9
$JOINSTYLE
280
     0
  9
$LWDISPLAY
290
     1
  9
$INSUNITS
 70
     4
  9
$HYPERLINKBASE
  1

  9
$STYLESHEET
  1

  9
$XEDIT
290
     1
  9
$CEPSNTYPE
380
     0
  9
$PSTYLEMODE
290
     1
  9
$FINGERPRINTGUID
  2
{D12D98A9-FFBA-4D62-BDA9-5C826A9E663A}
  9
$VERSIONGUID
  2
{FAEB1C32-E019-11D5-929B-00C0DF256EC4}
  9
$EXTNAMES
290
     1
  9
$PSVPSCALE
 40
0.0
  9
$OLESTARTUP
290
     0
  0
ENDSEC
  0
SECTION
  2
CLASSES
  0
CLASS
  1
ACDBDICTIONARYWDFLT
  2
AcDbDictionaryWithDefault
  3
ObjectDBX Classes
 90
        0
280
     0
281
     0
  0
CLASS
  1
VISUALSTYLE
  2
AcDbVisualStyle
  3
ObjectDBX Classes
 90
     4095
280
     0
281
     0
  0
CLASS
  1
MATERIAL
  2
AcDbMaterial
  3
ObjectDBX Classes
 90
     1153
280
     0
281
     0
  0
CLASS
  1
ACDBPLACEHOLDER
  2
AcDbPlaceHolder
  3
ObjectDBX Classes
 90
        0
280
     0
281
     0
  0
CLASS
  1
LAYOUT
  2
AcDbLayout
  3
ObjectDBX Classes
 90
        0
280
     0
281
     0
  0
ENDSEC
  0
SECTION
  2
TABLES
  0
TABLE
  2
VPORT
  5
8
330
0
100
AcDbSymbolTable
 70
     1
  0
VPORT
  5
29
330
8
100
AcDbSymbolTableRecord
100
AcDbViewportTableRecord
  2
*Active
 70
     0
 10
0.0
 20
0.0
 11
1.0
 21
1.0
 12
210.0
 22
148.5
 13
0.0
 23
0.0
 14
10.0
 24
10.0
 15
10.0
 25
10.0
 16
0.0
 26
0.0
 36
1.0
 17
0.0
 27
0.0
 37
0.0
 40
297.0
 41
1.4141414141
 42
50.0
 43
0.0
 44
0.0
 50
0.0
 51
0.0
 71
     0
 72
  2000
 73
     1
 74
     3
 75
     0
 76
     0
 77
     0
 78
     0
281
     0
 65
     1
110
0.0
120
0.0
130
0.0
111
1.0
121
0.0
131
0.0
112
0.0
122
1.0
132
0.0
 79
     0
146
0.0
  0
ENDTAB
  0
TABLE
  2
LTYPE
  5
5
330
0
100
AcDbSymbolTable
 70
     6
  0
LTYPE
  5
14
330
5
100
AcDbSymbolTableRecord
100
AcDbLinetypeTableRecord
  2
ByBlock
 70
     0
  3

 72
    65
 73
     0
 40
0.0
  0
LTYPE
  5
15
330
5
100
AcDbSymbolTableRecord
100
AcDbLinetypeTableRecord
  2
ByLayer
 70
     0
  3

 72
    65
 73
     0
 40
0.0
  0
LTYPE
  5
16
330
5
100
AcDbSymbolTableRecord
100
AcDbLinetypeTableRecord
  2
Continuous
 70
     0
  3
Solid line
 72
    65
 73
     0
 40
0.0
  0
LTYPE
  5
3F
330
5
100
AcDbSymbolTableRecord
100
AcDbLinetypeTableRecord
  2
HIDDEN
 70
     0
  3
Hidden __ __ __ __ __ __ __ __ __ __ __ __ __ __
 72
    65
 73
     2
 40
1.905
 49
1.27
 74
     0
 49
-0.635
 74
     0
  0
LTYPE
  5
40
330
5
100
AcDbSymbolTableRecord
100
AcDbLinetypeTableRecord
  2
PHANTOM
 70
     0
  3
Phantom ______  __  __  ______  __  __  ______
 72
    65
 73
     6
 40
12.7
 49
6.35
 74
     0
 49
-1.27
 74
     0
 49
1.27
 74
     0
 49
-1.27
 74
     0
 49
1.27
 74
     0
 49
-1.27
 74
     0
  0
LTYPE
  5
41
330
5
100
AcDbSymbolTableRecord
100
AcDbLinetypeTableRecord
  2
CENTER
 70
     0
  3
Center ____ _ ____ _ ____ _ ____ _ ____ _ ____
 72
    65
 73
     4
 40
10.16
 49
6.35
 74
     0
 49
-1.27
 74
     0
 49
1.27
 74
     0
 49
-1.27
 74
     0
  0
LTYPE
  5
42
330
5
100
AcDbSymbolTableRecord
100
AcDbLinetypeTableRecord
  2
CENTERX2
 70
     0
  3
Center (2x) ________  __  ________  __  _____
 72
    65
 73
     4
 40
20.32
 49
12.7
 74
     0
 49
-2.54
 74
     0
 49
2.54
 74
     0
 49
-2.54
 74
     0
  0
LTYPE
  5
43
330
5
100
AcDbSymbolTableRecord
100
AcDbLinetypeTableRecord
  2
DOT2
 70
     0
  3
Dot (.5x) ........................................
 72
    65
 73
     2
 40
0.635
 49
0.0
 74
     0
 49
-0.635
 74
     0
  0
ENDTAB
  0
TABLE
  2
LAYER
  5
2
330
0
100
AcDbSymbolTable
 70
     6
  0
LAYER
  5
10
330
2
100
AcDbSymbolTableRecord
100
AcDbLayerTableRecord
  2
0
 70
     0
 62
     7
  6
Continuous
370
    -3
390
F
  0
LAYER
  5
44
330
2
100
AcDbSymbolTableRecord
100
AcDbLayerTableRecord
  2
SLD-0
 70
     0
 62
     7
  6
Continuous
370
    -3
390
F
  0
LAYER
  5
45
330
2
100
AcDbSymbolTableRecord
100
AcDbLayerTableRecord
  2
8
 70
     0
 62
     7
  6
Continuous
370
    15
390
F
  0
LAYER
  5
46
330
2
100
AcDbSymbolTableRecord
100
AcDbLayerTableRecord
  2
9
 70
     0
 62
     7
  6
Continuous
370
    -3
390
F
  0
LAYER
  5
47
330
2
100
AcDbSymbolTableRecord
100
AcDbLayerTableRecord
  2
10
 70
     0
 62
     1
  6
Continuous
370
    -3
390
F
  0
LAYER
  5
48
330
2
100
AcDbSymbolTableRecord
100
AcDbLayerTableRecord
  2
11
 70
     0
 62
     7
  6
Continuous
370
    -3
390
F
  0
ENDTAB
  0
TABLE
  2
STYLE
  5
3
330
0
100
AcDbSymbolTable
 70
     2
  0
STYLE
  5
11
330
3
100
AcDbSymbolTableRecord
100
AcDbTextStyleTableRecord
  2
Standard
 70
     0
 40
0.0
 41
1.0
 50
0.0
 71
     0
 42
3.8805555556
  3
txt
  4
bigfont
  0
STYLE
  5
49
330
3
100
AcDbSymbolTableRecord
100
AcDbTextStyleTableRecord
  2
SLDTEXTSTYLE0
 70
     0
 40
0.0
 41
0.7
 50
0.0
 71
     0
 42
0.2
  3
TXT
  4
bigfont
  0
ENDTAB
  0
TABLE
  2
VIEW
  5
6
330
0
100
AcDbSymbolTable
 70
     0
  0
ENDTAB
  0
TABLE
  2
UCS
  5
7
330
0
100
AcDbSymbolTable
 70
     0
  0
ENDTAB
  0
TABLE
  2
APPID
  5
9
330
0
100
AcDbSymbolTable
 70
     1
  0
APPID
  5
12
330
9
100
AcDbSymbolTableRecord
100
AcDbRegAppTableRecord
  2
ACAD
 70
     0
  0
ENDTAB
  0
TABLE
  2
DIMSTYLE
  5
A
330
0
100
AcDbSymbolTable
 70
     1
100
AcDbDimStyleTable
  0
DIMSTYLE
105
27
330
A
100
AcDbSymbolTableRecord
100
AcDbDimStyleTableRecord
  2
ISO-25
 70
     0
 41
2.5
 42
0.625
 43
3.75
 44
1.25
 73
     0
 74
     0
 77
     1
 78
     8
140
2.5
141
2.5
143
0.0393700787
147
0.625
171
     3
172
     1
178
     0
271
     2
272
     2
274
     3
278
    44
283
     0
284
     8
340
11
  0
ENDTAB
  0
TABLE
  2
BLOCK_RECORD
  5
1
330
0
100
AcDbSymbolTable
 70
     1
  0
BLOCK_RECORD
  5
1F
330
1
100
AcDbSymbolTableRecord
100
AcDbBlockTableRecord
  2
*Model_Space
340
22
  0
BLOCK_RECORD
  5
1B
330
1
100
AcDbSymbolTableRecord
100
AcDbBlockTableRecord
  2
*Paper_Space
340
1E
  0
BLOCK_RECORD
  5
23
330
1
100
AcDbSymbolTableRecord
100
AcDbBlockTableRecord
  2
*Paper_Space0
340
26
  0
ENDTAB
  0
ENDSEC
  0
SECTION
  2
BLOCKS
  0
BLOCK
  5
20
330
1F
100
AcDbEntity
  8
0
100
AcDbBlockBegin
  2
*Model_Space
 70
     0
 10
0.0
 20
0.0
 30
0.0
  3
*Model_Space
  1

  0
ENDBLK
  5
21
330
1F
100
AcDbEntity
  8
0
100
AcDbBlockEnd
  0
BLOCK
  5
1C
330
1B
100
AcDbEntity
 67
     1
  8
0
100
AcDbBlockBegin
  2
*Paper_Space
 70
     0
 10
0.0
 20
0.0
 30
0.0
  3
*Paper_Space
  1

  0
ENDBLK
  5
1D
330
1B
100
AcDbEntity
 67
     1
  8
0
100
AcDbBlockEnd
  0
BLOCK
  5
24
330
23
100
AcDbEntity
  8
0
100
AcDbBlockBegin
  2
*Paper_Space0
 70
     0
 10
0.0
 20
0.0
 30
0.0
  3
*Paper_Space0
  1

  0
ENDBLK
  5
25
330
23
100
AcDbEntity
  8
0
100
AcDbBlockEnd
  0
ENDSEC
  0
SECTION
  2
ENTITIES
  0
MTEXT
  5
4A
330
1F
100
AcDbEntity
  8
9
 62
     7
100
AcDbMText
 10
22.9810592731
 20
14.7698940523
 30
0.0
 40
3.7041666667
 41
0.0
 71
     1
 72
     1
  1
2015/06/15
  7
SLDTEXTSTYLE0
 73
     1
 44
1.0
  0
MTEXT
  5
4B
330
1F
100
AcDbEntity
  8
9
 62
     7
100
AcDbMText
 10
22.9810592731
 20
39.3097760816
 30
0.0
 40
3.7041666667
 41
0.0
 71
     1
 72
     1
  1
PXP-BJ01
  7
SLDTEXTSTYLE0
 73
     1
 44
1.0
  0
MTEXT
  5
4C
330
1F
100
AcDbEntity
  8
9
 62
     7
100
AcDbMText
 10
22.9810592731
 20
22.2718363524
 30
0.0
 40
3.7041666667
 41
0.0
 71
     1
 72
     1
  1
-
  7
SLDTEXTSTYLE0
 73
     1
 44
1.0
  0
MTEXT
  5
4D
330
1F
100
AcDbEntity
  8
9
 62
     7
100
AcDbMText
 10
22.9810592731
 20
30.9293046945
 30
0.0
 40
3.7041666667
 41
0.0
 71
     1
 72
     1
  1
1:1
  7
SLDTEXTSTYLE0
 73
     1
 44
1.0
  0
ARC
  5
4E
330
1F
100
AcDbEntity
  8
0
  6
Continuous
 62
     7
370
    30
100
AcDbCircle
 10
466.3209330448
 20
141.1624703402
 30
0.0
 40
346.5909090909085
100
AcDbArc
 50
170.0722729211
 51
189.7173719152
  0
ARC
  5
4F
330
1F
100
AcDbEntity
  8
0
  6
Continuous
 62
     7
370
    30
100
AcDbCircle
 10
180.5850968977
 20
200.3995368988
 30
0.0
 40
2.999999999999984
100
AcDbArc
 50
28.111540243
 51
71.6239683823
  0
ARC
  5
50
330
1F
100
AcDbEntity
  8
0
  6
Continuous
 62
     7
370
    30
100
AcDbCircle
 10
154.2300239539
 20
121.0624703402
 30
0.0
 40
86.60000000000002
100
AcDbArc
 50
71.6239683823
 51
108.3760316177
  0
ARC
  5
51
330
1F
100
AcDbEntity
  8
0
  6
Continuous
 62
     7
370
    30
100
AcDbCircle
 10
127.8749510101
 20
81.9254037815
 30
0.0
 40
2.999999999999944
100
AcDbArc
 50
208.1410276394
 51
251.6239683823
  0
ARC
  5
52
330
1F
100
AcDbEntity
  8
0
  6
Continuous
 62
     7
370
    30
100
AcDbCircle
 10
-157.860885137
 20
141.1624703402
 30
0.0
 40
346.5909090909084
100
AcDbArc
 50
350.0722729211
 51
0.0
  0
ARC
  5
53
330
1F
100
AcDbEntity
  8
0
  6
Continuous
 62
     7
370
    30
100
AcDbCircle
 10
-157.860885137
 20
141.1624703402
 30
0.0
 40
346.5909090909085
100
AcDbArc
 50
0.0
 51
9.717398212
  0
ARC
  5
54
330
1F
100
AcDbEntity
  8
0
  6
Continuous
 62
     7
370
    30
100
AcDbCircle
 10
154.2300239539
 20
161.2624703402
 30
0.0
 40
86.60000000000001
100
AcDbArc
 50
251.6239683823
 51
288.3760316177
  0
ARC
  5
55
330
1F
100
AcDbEntity
  8
0
  6
Continuous
 62
     7
370
    30
100
AcDbCircle
 10
127.8749510101
 20
200.3995368988
 30
0.0
 40
2.999999999999938
100
AcDbArc
 50
108.3760316177
 51
170.0722729211
  0
ARC
  5
56
330
1F
100
AcDbEntity
  8
0
  6
Continuous
 62
     7
370
    30
100
AcDbCircle
 10
180.5850968977
 20
81.9254037815
 30
0.0
 40
3.000000000000003
100
AcDbArc
 50
288.3760316177
 51
350.0722729211
  0
LINE
  5
57
330
1F
100
AcDbEntity
  8
0
  6
Continuous
 62
     7
370
    30
100
AcDbLine
 10
153.830023964
 20
193.8124712402
 30
0.0
 11
154.6300239438
 21
193.8124712402
 31
0.0
  0
LINE
  5
58
330
1F
100
AcDbEntity
  8
0
  6
Continuous
 62
     7
370
    30
100
AcDbLine
 10
153.830023964
 20
192.062471419
 30
0.0
 11
153.830023964
 21
193.8124712402
 31
0.0
  0
LINE
  5
59
330
1F
100
AcDbEntity
  8
0
  6
Continuous
 62
     7
370
    30
100
AcDbLine
 10
152.0800238809
 20
192.062471419
 30
0.0
 11
153.830023964
 21
192.062471419
 31
0.0
  0
LINE
  5
5A
330
1F
100
AcDbEntity
  8
0
  6
Continuous
 62
     7
370
    30
100
AcDbLine
 10
152.0800238809
 20
191.2624690527
 30
0.0
 11
152.0800238809
 21
192.062471419
 31
0.0
  0
LINE
  5
5B
330
1F
100
AcDbEntity
  8
0
  6
Continuous
 62
     7
370
    30
100
AcDbLine
 10
153.830023964
 20
191.2624690527
 30
0.0
 11
152.0800238809
 21
191.2624690527
 31
0.0
  0
LINE
  5
5C
330
1F
100
AcDbEntity
  8
0
  6
Continuous
 62
     7
370
    30
100
AcDbLine
 10
153.830023964
 20
189.5124692315
 30
0.0
 11
153.830023964
 21
191.2624690527
 31
0.0
  0
LINE
  5
5D
330
1F
100
AcDbEntity
  8
0
  6
Continuous
 62
     7
370
    30
100
AcDbLine
 10
154.6300239438
 20
189.5124692315
 30
0.0
 11
153.830023964
 21
189.5124692315
 31
0.0
  0
LINE
  5
5E
330
1F
100
AcDbEntity
  8
0
  6
Continuous
 62
     7
370
    30
100
AcDbLine
 10
154.6300239438
 20
191.2624690527
 30
0.0
 11
154.6300239438
 21
189.5124692315
 31
0.0
  0
LINE
  5
5F
330
1F
100
AcDbEntity
  8
0
  6
Continuous
 62
     7
370
    30
100
AcDbLine
 10
156.3800240269
 20
191.2624690527
 30
0.0
 11
154.6300239438
 21
191.2624690527
 31
0.0
  0
LINE
  5
60
330
1F
100
AcDbEntity
  8
0
  6
Continuous
 62
     7
370
    30
100
AcDbLine
 10
156.3800240269
 20
192.062471419
 30
0.0
 11
156.3800240269
 21
191.2624690527
 31
0.0
  0
LINE
  5
61
330
1F
100
AcDbEntity
  8
0
  6
Continuous
 62
     7
370
    30
100
AcDbLine
 10
154.6300239438
 20
192.062471419
 30
0.0
 11
156.3800240269
 21
192.062471419
 31
0.0
  0
LINE
  5
62
330
1F
100
AcDbEntity
  8
0
  6
Continuous
 62
     7
370
    30
100
AcDbLine
 10
154.6300239438
 20
193.8124712402
 30
0.0
 11
154.6300239438
 21
192.062471419
 31
0.0
  0
CIRCLE
  5
63
330
1F
100
AcDbEntity
  8
0
  6
Continuous
 62
     7
370
    30
100
AcDbCircle
 10
154.2300239539
 20
191.6624703402
 30
0.0
 40
3.499999999999972
  0
LINE
  5
64
330
1F
100
AcDbEntity
  8
0
  6
Continuous
 62
     7
370
    30
100
AcDbLine
 10
154.6300239438
 20
90.2624692613
 30
0.0
 11
154.6300239438
 21
88.5124694401
 31
0.0
  0
CIRCLE
  5
65
330
1F
100
AcDbEntity
  8
0
  6
Continuous
 62
     7
370
    30
100
AcDbCircle
 10
154.2300239539
 20
90.6624703402
 30
0.0
 40
3.499999999999972
  0
LINE
  5
66
330
1F
100
AcDbEntity
  8
0
  6
Continuous
 62
     7
370
    30
100
AcDbLine
 10
153.830023964
 20
90.2624692613
 30
0.0
 11
152.0800238809
 21
90.2624692613
 31
0.0
  0
LINE
  5
67
330
1F
100
AcDbEntity
  8
0
  6
Continuous
 62
     7
370
    30
100
AcDbLine
 10
153.830023964
 20
88.5124694401
 30
0.0
 11
153.830023964
 21
90.2624692613
 31
0.0
  0
LINE
  5
68
330
1F
100
AcDbEntity
  8
0
  6
Continuous
 62
     7
370
    30
100
AcDbLine
 10
154.6300239438
 20
88.5124694401
 30
0.0
 11
153.830023964
 21
88.5124694401
 31
0.0
  0
LINE
  5
69
330
1F
100
AcDbEntity
  8
0
  6
Continuous
 62
     7
370
    30
100
AcDbLine
 10
153.830023964
 20
91.0624716276
 30
0.0
 11
153.830023964
 21
92.8124714488
 31
0.0
  0
LINE
  5
6A
330
1F
100
AcDbEntity
  8
0
  6
Continuous
 62
     7
370
    30
100
AcDbLine
 10
152.0800238809
 20
91.0624716276
 30
0.0
 11
153.830023964
 21
91.0624716276
 31
0.0
  0
LINE
  5
6B
330
1F
100
AcDbEntity
  8
0
  6
Continuous
 62
     7
370
    30
100
AcDbLine
 10
153.830023964
 20
92.8124714488
 30
0.0
 11
154.6300239438
 21
92.8124714488
 31
0.0
  0
LINE
  5
6C
330
1F
100
AcDbEntity
  8
0
  6
Continuous
 62
     7
370
    30
100
AcDbLine
 10
154.6300239438
 20
92.8124714488
 30
0.0
 11
154.6300239438
 21
91.0624716276
 31
0.0
  0
LINE
  5
6D
330
1F
100
AcDbEntity
  8
0
  6
Continuous
 62
     7
370
    30
100
AcDbLine
 10
152.0800238809
 20
90.2624692613
 30
0.0
 11
152.0800238809
 21
91.0624716276
 31
0.0
  0
LINE
  5
6E
330
1F
100
AcDbEntity
  8
0
  6
Continuous
 62
     7
370
    30
100
AcDbLine
 10
156.3800240269
 20
90.2624692613
 30
0.0
 11
154.6300239438
 21
90.2624692613
 31
0.0
  0
LINE
  5
6F
330
1F
100
AcDbEntity
  8
0
  6
Continuous
 62
     7
370
    30
100
AcDbLine
 10
156.3800240269
 20
91.0624716276
 30
0.0
 11
156.3800240269
 21
90.2624692613
 31
0.0
  0
LINE
  5
70
330
1F
100
AcDbEntity
  8
0
  6
Continuous
 62
     7
370
    30
100
AcDbLine
 10
154.6300239438
 20
91.0624716276
 30
0.0
 11
156.3800240269
 21
91.0624716276
 31
0.0
  0
SPLINE
  5
71
330
1F
100
AcDbEntity
  8
0
  6
Continuous
 62
     7
370
    30
100
AcDbSpline
210
0.0
220
0.0
230
1.0
 70
    24
 71
     3
 72
    14
 73
    10
 74
     0
 42
0.00000001
 43
0.00000001
 12
1.0
 22
0.0
 32
0.0
 13
1.0
 23
0.0
 33
0.0
 40
0.0
 40
0.0
 40
0.0
 40
0.0
 40
0.25
 40
0.25
 40
0.5
 40
0.5
 40
0.75
 40
0.75
 40
1.0
 40
1.0
 40
1.0
 40
1.0
 10
182.4494861161859
 20
200.862470340156
 30
0.0
 10
182.3787467946391
 20
200.862470340156
 30
0.0
 10
182.2871858332342
 20
200.862470340156
 30
0.0
 10
182.0743162769186
 20
200.862470340156
 30
0.0
 10
181.9507637599644
 20
200.862470340156
 30
0.0
 10
181.6843899625792
 20
200.862470340156
 30
0.0
 10
181.542964628091
 20
200.862470340156
 30
0.0
 10
181.2531186299498
 20
200.862470340156
 30
0.0
 10
181.1029629812965
 20
200.862470340156
 30
0.0
 10
180.9540479132264
 20
200.862470340156
 30
0.0
  0
SPLINE
  5
72
330
1F
100
AcDbEntity
  8
0
  6
Continuous
 62
     7
370
    30
100
AcDbSpline
210
0.0
220
0.0
230
1.0
 70
    24
 71
     3
 72
    14
 73
    10
 74
     0
 42
0.00000001
 43
0.00000001
 12
1.0
 22
0.0
 32
0.0
 13
1.0
 23
0.0
 33
0.0
 40
0.0
 40
0.0
 40
0.0
 40
0.0
 40
0.25
 40
0.25
 40
0.5
 40
0.5
 40
0.75
 40
0.75
 40
1.0
 40
1.0
 40
1.0
 40
1.0
 10
126.0105617916518
 20
81.462470340156
 30
0.0
 10
126.0813011131985
 20
81.462470340156
 30
0.0
 10
126.1728620746034
 20
81.462470340156
 30
0.0
 10
126.3857316309191
 20
81.462470340156
 30
0.0
 10
126.5092841478732
 20
81.462470340156
 30
0.0
 10
126.7756579452585
 20
81.462470340156
 30
0.0
 10
126.9170832797467
 20
81.462470340156
 30
0.0
 10
127.2069292778879
 20
81.462470340156
 30
0.0
 10
127.3570849265411
 20
81.462470340156
 30
0.0
 10
127.5059999946113
 20
81.462470340156
 30
0.0
  0
SPLINE
  5
73
330
1F
100
AcDbEntity
  8
0
  6
Continuous
 62
     7
370
    30
100
AcDbSpline
210
0.0
220
0.0
230
1.0
 70
    24
 71
     3
 72
    12
 73
     8
 74
     0
 42
0.00000001
 43
0.00000001
 12
1.0
 22
0.0
 32
0.0
 13
1.0
 23
0.0
 33
0.0
 40
0.0
 40
0.0
 40
0.0
 40
0.0
 40
0.25
 40
0.25
 40
0.5
 40
0.5
 40
1.0
 40
1.0
 40
1.0
 40
1.0
 10
127.1460424131317
 20
82.662470340156
 30
0.0
 10
127.0080991518621
 20
82.662470340156
 30
0.0
 10
126.8712660515605
 20
82.66247034015599
 30
0.0
 10
126.6070907549597
 20
82.662470340156
 30
0.0
 10
126.4782682778471
 20
82.662470340156
 30
0.0
 10
126.1258688202095
 20
82.66247034015598
 30
0.0
 10
125.92566378292
 20
82.66247034015599
 30
0.0
 10
125.7974657815842
 20
82.662470340156
 30
0.0
  0
SPLINE
  5
74
330
1F
100
AcDbEntity
  8
0
  6
Continuous
 62
     7
370
    30
100
AcDbSpline
210
0.0
220
0.0
230
1.0
 70
    24
 71
     3
 72
    14
 73
    10
 74
     0
 42
0.00000001
 43
0.00000001
 12
1.0
 22
0.0
 32
0.0
 13
1.0
 23
0.0
 33
0.0
 40
0.0
 40
0.0
 40
0.0
 40
0.0
 40
0.2499999999999999
 40
0.2499999999999999
 40
0.4999999999999999
 40
0.4999999999999999
 40
0.7499999999999998
 40
0.7499999999999998
 40
1.0
 40
1.0
 40
1.0
 40
1.0
 10
181.314005494706
 20
199.662470340156
 30
0.0
 10
181.4525728500323
 20
199.662470340156
 30
0.0
 10
181.5907475245148
 20
199.662470340156
 30
0.0
 10
181.8558838462089
 20
199.662470340156
 30
0.0
 10
181.9817701598638
 20
199.662470340156
 30
0.0
 10
182.2197734605286
 20
199.662470340156
 30
0.0
 10
182.3270246049253
 20
199.662470340156
 30
0.0
 10
182.516713338235
 20
199.662470340156
 30
0.0
 10
182.5984720280103
 20
199.662470340156
 30
0.0
 10
182.6625821262537
 20
199.662470340156
 30
0.0
  0
CIRCLE
  5
75
330
1F
100
AcDbEntity
  8
0
  6
Continuous
 62
     7
370
    30
100
AcDbCircle
 10
154.2300239539
 20
90.6624703402
 30
0.0
 40
3.75
  0
CIRCLE
  5
76
330
1F
100
AcDbEntity
  8
0
  6
Continuous
 62
     7
370
    30
100
AcDbCircle
 10
154.2300239539
 20
191.6624703402
 30
0.0
 40
3.75
  0
ARC
  5
77
330
1F
100
AcDbEntity
  8
0
  6
Continuous
 62
     7
370
    30
100
AcDbCircle
 10
178.9324276487
 20
184.6624703402
 30
0.0
 40
3.000000000000022
100
AcDbArc
 50
7.3595409262
 51
90.0
  0
LINE
  5
78
330
1F
100
AcDbEntity
  8
0
  6
Continuous
 62
     7
370
    30
100
AcDbLine
 10
178.9324276483
 20
187.6624714428
 30
0.0
 11
129.5276202595
 21
187.6624714428
 31
0.0
  0
ARC
  5
79
330
1F
100
AcDbEntity
  8
0
  6
Continuous
 62
     7
370
    30
100
AcDbCircle
 10
129.5276202591
 20
184.6624703402
 30
0.0
 40
3.0
100
AcDbArc
 50
90.0
 51
172.6404590738
  0
ARC
  5
7A
330
1F
100
AcDbEntity
  8
0
  6
Continuous
 62
     7
370
    30
100
AcDbCircle
 10
466.3209330448
 20
141.1624703402
 30
0.0
 40
342.5909090909084
100
AcDbArc
 50
172.6404590738
 51
187.3595409262
  0
ARC
  5
7B
330
1F
100
AcDbEntity
  8
0
  6
Continuous
 62
     7
370
    30
100
AcDbCircle
 10
129.5276202591
 20
97.6624703402
 30
0.0
 40
3.000000000000006
100
AcDbArc
 50
187.3595409262
 51
270.0
  0
LINE
  5
7C
330
1F
100
AcDbEntity
  8
0
  6
Continuous
 62
     7
370
    30
100
AcDbLine
 10
129.5276202595
 20
94.6624692375
 30
0.0
 11
178.9324276483
 21
94.6624692375
 31
0.0
  0
ARC
  5
7D
330
1F
100
AcDbEntity
  8
0
  6
Continuous
 62
     7
370
    30
100
AcDbCircle
 10
178.9324276487
 20
97.6624703402
 30
0.0
 40
3.000000000000014
100
AcDbArc
 50
270.0
 51
352.6404590738
  0
ARC
  5
7E
330
1F
100
AcDbEntity
  8
0
  6
Continuous
 62
     7
370
    30
100
AcDbCircle
 10
-157.860885137
 20
141.1624703402
 30
0.0
 40
342.5909090909085
100
AcDbArc
 50
352.6404590738
 51
7.3595409262
  0
ARC
  5
7F
330
1F
100
AcDbEntity
  8
0
  6
Continuous
 62
     7
370
    30
100
AcDbCircle
 10
130.7464126473
 20
81.8624703402
 30
0.0
 40
0.8000000000000241
100
AcDbArc
 50
210.0
 51
253.5237129819
  0
ARC
  5
80
330
1F
100
AcDbEntity
  8
0
  6
Continuous
 62
     7
370
    30
100
AcDbCircle
 10
154.2300239539
 20
161.2624703402
 30
0.0
 40
83.6
100
AcDbArc
 50
253.5237129819
 51
286.4762870181
  0
ARC
  5
81
330
1F
100
AcDbEntity
  8
0
  6
Continuous
 62
     7
370
    30
100
AcDbCircle
 10
177.7136352605
 20
81.8624703402
 30
0.0
 40
0.7999999999999918
100
AcDbArc
 50
286.4762870181
 51
90.0
  0
ARC
  5
82
330
1F
100
AcDbEntity
  8
0
  6
Continuous
 62
     7
370
    30
100
AcDbCircle
 10
154.2300239539
 20
121.0624703402
 30
0.0
 40
83.60000000000001
100
AcDbArc
 50
73.5237129819
 51
106.4762870181
  0
ARC
  5
83
330
1F
100
AcDbEntity
  8
0
  6
Continuous
 62
     7
370
    30
100
AcDbCircle
 10
130.7464126473
 20
200.4624703402
 30
0.0
 40
0.8000000000000054
100
AcDbArc
 50
106.4762870181
 51
270.0
  0
CIRCLE
  5
84
330
1F
100
AcDbEntity
  8
0
  6
Continuous
 62
     7
370
    30
100
AcDbCircle
 10
169.2300239539
 20
193.1624703402
 30
0.0
 40
3.000000000000028
  0
CIRCLE
  5
85
330
1F
100
AcDbEntity
  8
0
  6
Continuous
 62
     7
370
    30
100
AcDbCircle
 10
139.2300239539
 20
193.1624703402
 30
0.0
 40
3.000000000000028
  0
CIRCLE
  5
86
330
1F
100
AcDbEntity
  8
0
  6
Continuous
 62
     7
370
    30
100
AcDbCircle
 10
169.2300239539
 20
89.1624703402
 30
0.0
 40
3.000000000000028
  0
CIRCLE
  5
87
330
1F
100
AcDbEntity
  8
0
  6
Continuous
 62
     7
370
    30
100
AcDbCircle
 10
139.2300239539
 20
89.1624703402
 30
0.0
 40
3.000000000000028
  0
ARC
  5
88
330
1F
100
AcDbEntity
  8
0
  6
Continuous
 62
     7
370
    30
100
AcDbCircle
 10
177.7136352605
 20
200.4624703402
 30
0.0
 40
0.8000000000000054
100
AcDbArc
 50
30.0
 51
73.5237129819
  0
LINE
  5
89
330
1F
100
AcDbEntity
  8
0
  6
Continuous
 62
     7
370
    30
100
AcDbLine
 10
130.7464123106
 20
199.6624696845
 30
0.0
 11
181.3140057361
 21
199.6624696845
 31
0.0
  0
LINE
  5
8A
330
1F
100
AcDbEntity
  8
0
  6
Continuous
 62
     7
370
    30
100
AcDbLine
 10
127.1460421717
 20
82.6624709958
 30
0.0
 11
177.7136355972
 21
82.6624709958
 31
0.0
  0
LINE
  5
8B
330
1F
100
AcDbEntity
  8
0
  6
Continuous
 62
     7
370
    30
100
AcDbLine
 10
127.5060002095
 20
81.462469309
 30
0.0
 11
130.0535921341
 21
81.462469309
 31
0.0
  0
LINE
  5
8C
330
1F
100
AcDbEntity
  8
0
  6
Continuous
 62
     7
370
    30
100
AcDbLine
 10
180.9540476984
 20
200.8624713713
 30
0.0
 11
178.4064557737
 21
200.8624713713
 31
0.0
  0
CIRCLE
  5
8D
330
1F
100
AcDbEntity
  8
0
  6
Continuous
 62
     7
370
    30
100
AcDbCircle
 10
139.2300239539
 20
89.1624703402
 30
0.0
 40
2.0
  0
CIRCLE
  5
8E
330
1F
100
AcDbEntity
  8
0
  6
Continuous
 62
     7
370
    30
100
AcDbCircle
 10
169.2300239539
 20
193.1624703402
 30
0.0
 40
2.0
  0
CIRCLE
  5
8F
330
1F
100
AcDbEntity
  8
0
  6
Continuous
 62
     7
370
    30
100
AcDbCircle
 10
169.2300239539
 20
89.1624703402
 30
0.0
 40
2.0
  0
CIRCLE
  5
90
330
1F
100
AcDbEntity
  8
0
  6
Continuous
 62
     7
370
    30
100
AcDbCircle
 10
139.2300239539
 20
193.1624703402
 30
0.0
 40
2.0
  0
SPLINE
  5
91
330
1F
100
AcDbEntity
  8
0
  6
Continuous
 62
     7
370
    30
100
AcDbSpline
210
0.0
220
0.0
230
1.0
 70
    24
 71
     3
 72
     8
 73
     4
 74
     0
 42
0.00000001
 43
0.00000001
 12
1.0
 22
0.0
 32
0.0
 13
1.0
 23
0.0
 33
0.0
 40
0.0
 40
0.0
 40
0.0
 40
0.0
 40
1.0
 40
1.0
 40
1.0
 40
1.0
 10
125.2300239539189
 20
80.58362640621358
 30
0.0
 10
125.2300239539189
 20
80.70269814913277
 30
0.0
 10
125.2300239539189
 20
80.82758363155146
 30
0.0
 10
125.2300239539189
 20
80.96247034015599
 30
0.0
  0
SPLINE
  5
92
330
1F
100
AcDbEntity
  8
0
  6
Continuous
 62
     7
370
    30
100
AcDbSpline
210
0.0
220
0.0
230
1.0
 70
     8
 71
     3
 72
    12
 73
     8
 74
     0
 42
0.00000001
 43
0.00000001
 12
1.0
 22
0.0
 32
0.0
 13
1.0
 23
0.0
 33
0.0
 40
0.0
 40
0.0
 40
0.0
 40
0.0
 40
0.2499999999999989
 40
0.2499999999999989
 40
0.4999999999999978
 40
0.4999999999999978
 40
1.0
 40
1.0
 40
1.0
 40
1.0
 10
125.2300239539189
 20
80.96247034015599
 30
0.0
 10
125.2300239539189
 20
81.06435050189289
 30
0.0
 10
125.2577213685127
 20
81.14142154800093
 30
0.0
 10
125.326646590632
 20
81.2664110741128
 30
0.0
 10
125.3701809228279
 20
81.31472646444124
 30
0.0
 10
125.5099136118946
 20
81.42705292034887
 30
0.0
 10
125.6168078341819
 20
81.46247034015599
 30
0.0
 10
125.7300239539189
 20
81.462470340156
 30
0.0
  0
SPLINE
  5
93
330
1F
100
AcDbEntity
  8
0
  6
Continuous
 62
     7
370
    30
100
AcDbSpline
210
0.0
220
0.0
230
1.0
 70
    24
 71
     3
 72
     8
 73
     4
 74
     0
 42
0.00000001
 43
0.00000001
 12
1.0
 22
0.0
 32
0.0
 13
1.0
 23
0.0
 33
0.0
 40
0.0
 40
0.0
 40
0.0
 40
0.0
 40
1.0
 40
1.0
 40
1.0
 40
1.0
 10
125.7300239539189
 20
81.462470340156
 30
0.0
 10
125.8232971646708
 20
81.462470340156
 30
0.0
 10
125.9167742081717
 20
81.462470340156
 30
0.0
 10
126.0105617916519
 20
81.462470340156
 30
0.0
  0
SPLINE
  5
94
330
1F
100
AcDbEntity
  8
0
  6
Continuous
 62
     7
370
    30
100
AcDbSpline
210
0.0
220
0.0
230
1.0
 70
    24
 71
     3
 72
     8
 73
     4
 74
     0
 42
0.00000001
 43
0.00000001
 12
1.0
 22
0.0
 32
0.0
 13
1.0
 23
0.0
 33
0.0
 40
0.0
 40
0.0
 40
0.0
 40
0.0
 40
1.0
 40
1.0
 40
1.0
 40
1.0
 10
183.2300239539188
 20
201.362470340156
 30
0.0
 10
183.2300239539188
 20
201.4965650526678
 30
0.0
 10
183.2300239539188
 20
201.6216504070491
 30
0.0
 10
183.2300239539188
 20
201.7413142740982
 30
0.0
  0
SPLINE
  5
95
330
1F
100
AcDbEntity
  8
0
  6
Continuous
 62
     7
370
    30
100
AcDbSpline
210
0.0
220
0.0
230
1.0
 70
     8
 71
     3
 72
    14
 73
    10
 74
     0
 42
0.00000001
 43
0.00000001
 12
1.0
 22
0.0
 32
0.0
 13
1.0
 23
0.0
 33
0.0
 40
0.0
 40
0.0
 40
0.0
 40
0.0
 40
0.4999999999999976
 40
0.4999999999999976
 40
0.749999999999994
 40
0.749999999999994
 40
0.874999999999997
 40
0.874999999999997
 40
1.0
 40
1.0
 40
1.0
 40
1.0
 10
182.7300239539188
 20
200.862470340156
 30
0.0
 10
182.8433930933554
 20
200.862470340156
 30
0.0
 10
182.9485452661126
 20
200.8969626662675
 30
0.0
 10
183.0893313849091
 20
201.0096100142221
 30
0.0
 10
183.1327057431233
 20
201.0574519230327
 30
0.0
 10
183.1849984749455
 20
201.1520056168604
 30
0.0
 10
183.200078654266
 20
201.1870843172917
 30
0.0
 10
183.2225129802505
 20
201.2667298718187
 30
0.0
 10
183.2300239539188
 20
201.3117221725045
 30
0.0
 10
183.2300239539188
 20
201.362470340156
 30
0.0
  0
SPLINE
  5
96
330
1F
100
AcDbEntity
  8
0
  6
Continuous
 62
     7
370
    30
100
AcDbSpline
210
0.0
220
0.0
230
1.0
 70
    24
 71
     3
 72
     8
 73
     4
 74
     0
 42
0.00000001
 43
0.00000001
 12
1.0
 22
0.0
 32
0.0
 13
1.0
 23
0.0
 33
0.0
 40
0.0
 40
0.0
 40
0.0
 40
0.0
 40
1.0
 40
1.0
 40
1.0
 40
1.0
 10
182.4494861161857
 20
200.862470340156
 30
0.0
 10
182.5432754149917
 20
200.862470340156
 30
0.0
 10
182.6367522283637
 20
200.862470340156
 30
0.0
 10
182.7300239539188
 20
200.862470340156
 30
0.0
  0
LINE
  5
97
330
1F
100
AcDbEntity
  8
0
  6
Continuous
 62
     7
370
    30
100
AcDbLine
 10
124.7374054378
 20
82.6624709958
 30
0.0
 11
125.7974665946
 21
82.6624709958
 31
0.0
  0
LINE
  5
98
330
1F
100
AcDbEntity
  8
0
  6
Continuous
 62
     7
370
    30
100
AcDbLine
 10
182.6625813133
 20
199.6624696845
 30
0.0
 11
183.72264247
 21
199.6624696845
 31
0.0
  0
SPLINE
  5
99
330
1F
100
AcDbEntity
  8
0
  6
Continuous
 62
     7
370
    30
100
AcDbSpline
210
0.0
220
0.0
230
1.0
 70
    24
 71
     3
 72
    10
 73
     6
 74
     0
 42
0.00000001
 43
0.00000001
 12
1.0
 22
0.0
 32
0.0
 13
1.0
 23
0.0
 33
0.0
 40
0.0
 40
0.0
 40
0.0
 40
0.0
 40
0.1064698851692894
 40
0.7472285532226638
 40
1.0
 40
1.0
 40
1.0
 40
1.0
 10
124.7052282428784
 20
82.6624709958071
 30
0.0
 10
124.7042894858701
 20
82.6624709958071
 30
0.0
 10
124.6977010872824
 20
82.66247099580713
 30
0.0
 10
124.7123318899308
 20
82.66247099580708
 30
0.0
 10
124.7318764590783
 20
82.6624709958071
 30
0.0
 10
124.7374054378313
 20
82.6624709958071
 30
0.0
  0
SPLINE
  5
9A
330
1F
100
AcDbEntity
  8
0
  6
Continuous
 62
     7
370
    30
100
AcDbSpline
210
0.0
220
0.0
230
1.0
 70
    24
 71
     3
 72
    10
 73
     6
 74
     0
 42
0.00000001
 43
0.00000001
 12
1.0
 22
0.0
 32
0.0
 13
1.0
 23
0.0
 33
0.0
 40
0.0
 40
0.0
 40
0.0
 40
0.0
 40
0.0285536713056934
 40
0.7252632547903712
 40
0.9999999999999999
 40
0.9999999999999999
 40
0.9999999999999999
 40
0.9999999999999999
 10
183.7226424700064
 20
199.6624696845049
 30
0.0
 10
183.7232821662491
 20
199.6624696845049
 30
0.0
 10
183.7395304508948
 20
199.6624696845049
 30
0.0
 10
183.7581179930513
 20
199.6624696845049
 30
0.0
 10
183.754343113596
 20
199.6624696845049
 30
0.0
 10
183.7532755321306
 20
199.6624696845049
 30
0.0
  0
ARC
  5
9B
330
1F
100
AcDbEntity
  8
0
  6
Continuous
 62
     7
370
    30
100
AcDbCircle
 10
120.0300239539
 20
244.6433922369
 30
0.0
 40
0.3000000000000214
100
AcDbArc
 50
134.0164159764
 51
207.6226649183
  0
LINE
  5
9C
330
1F
100
AcDbEntity
  8
0
  6
Continuous
 62
     7
370
    30
100
AcDbLine
 10
119.7642192578
 20
244.5042982632
 30
0.0
 11
120.8090216255
 21
242.5076993874
 31
0.0
  0
LINE
  5
9D
330
1F
100
AcDbEntity
  8
0
  6
Continuous
 62
     7
370
    30
100
AcDbLine
 10
121.6428235507
 20
246.6189114835
 30
0.0
 11
119.8215663767
 21
244.8591344633
 31
0.0
  0
ARC
  5
9E
330
1F
100
AcDbEntity
  8
0
  6
Continuous
 62
     7
370
    30
100
AcDbCircle
 10
122.1380507932
 20
243.2031692241
 30
0.0
 40
1.500000000000028
100
AcDbArc
 50
207.6226649183
 51
270.0
  0
ARC
  5
9F
330
1F
100
AcDbEntity
  8
0
  6
Continuous
 62
     7
370
    30
100
AcDbCircle
 10
121.8512818169
 20
246.4031692241
 30
0.0
 40
0.3000000000000122
100
AcDbArc
 50
90.0
 51
134.0164159764
  0
ARC
  5
A0
330
1F
100
AcDbEntity
  8
0
  6
Continuous
 62
     7
370
    30
100
AcDbCircle
 10
186.6087660909
 20
246.4031692241
 30
0.0
 40
0.3000000000000114
100
AcDbArc
 50
45.9835840236
 51
90.0
  0
LINE
  5
A1
330
1F
100
AcDbEntity
  8
0
  6
Continuous
 62
     7
370
    30
100
AcDbLine
 10
188.6384815311
 20
244.8591344633
 30
0.0
 11
186.8172243571
 21
246.6189114835
 31
0.0
  0
LINE
  5
A2
330
1F
100
AcDbEntity
  8
0
  6
Continuous
 62
     7
370
    30
100
AcDbLine
 10
187.6510262823
 20
242.5076993874
 30
0.0
 11
188.69582865
 21
244.5042982632
 31
0.0
  0
ARC
  5
A3
330
1F
100
AcDbEntity
  8
0
  6
Continuous
 62
     7
370
    30
100
AcDbCircle
 10
188.4300239539
 20
244.6433922369
 30
0.0
 40
0.3000000000000115
100
AcDbArc
 50
332.3773350817
 51
45.9835840236
  0
ARC
  5
A4
330
1F
100
AcDbEntity
  8
0
  6
Continuous
 62
     7
370
    30
100
AcDbCircle
 10
186.3219971146
 20
243.2031692241
 30
0.0
 40
1.500000000000028
100
AcDbArc
 50
270.0
 51
332.3773350817
  0
LINE
  5
A5
330
1F
100
AcDbEntity
  8
0
  6
Continuous
 62
     7
370
    30
100
AcDbLine
 10
180.77171709
 20
241.7031692799
 30
0.0
 11
127.6883308178
 21
241.7031692799
 31
0.0
  0
LINE
  5
A6
330
1F
100
AcDbEntity
  8
0
  6
Continuous
 62
     7
370
    30
100
AcDbLine
 10
127.5979254729
 20
246.7031691682
 30
0.0
 11
180.862122435
 21
246.7031691682
 31
0.0
  0
SPLINE
  5
A7
330
1F
100
AcDbEntity
  8
0
  6
Continuous
 62
     7
370
    30
100
AcDbSpline
210
0.0
220
0.0
230
1.0
 70
    24
 71
     3
 72
    14
 73
    10
 74
     0
 42
0.00000001
 43
0.00000001
 12
1.0
 22
0.0
 32
0.0
 13
1.0
 23
0.0
 33
0.0
 40
0.0
 40
0.0
 40
0.0
 40
0.0
 40
0.2499999999999998
 40
0.2499999999999998
 40
0.4999999999999997
 40
0.4999999999999997
 40
0.7499999999999998
 40
0.7499999999999998
 40
1.0
 40
1.0
 40
1.0
 40
1.0
 10
183.2300239539188
 20
244.5042982686135
 30
0.0
 10
183.2300239539188
 20
244.5301172726309
 30
0.0
 10
183.2300239539188
 20
244.5629909783296
 30
0.0
 10
183.2300239539188
 20
244.638990927178
 30
0.0
 10
183.2300239539188
 20
244.6819345458179
 30
0.0
 10
183.2300239539188
 20
244.7522085790648
 30
0.0
 10
183.2300239539188
 20
244.7805692635658
 30
0.0
 10
183.2300239539188
 20
244.8265418439279
 30
0.0
 10
183.2300239539188
 20
244.8442802662055
 30
0.0
 10
183.2300239539188
 20
244.8591344596016
 30
0.0
  0
SPLINE
  5
A8
330
1F
100
AcDbEntity
  8
0
  6
Continuous
 62
     7
370
    30
100
AcDbSpline
210
0.0
220
0.0
230
1.0
 70
    24
 71
     3
 72
     8
 73
     4
 74
     0
 42
0.00000001
 43
0.00000001
 12
1.0
 22
0.0
 32
0.0
 13
1.0
 23
0.0
 33
0.0
 40
0.0
 40
0.0
 40
0.0
 40
0.0
 40
1.0
 40
1.0
 40
1.0
 40
1.0
 10
183.2300239539188
 20
244.2156540074453
 30
0.0
 10
183.2300239539188
 20
244.3033183511135
 30
0.0
 10
183.2300239539188
 20
244.4008418719058
 30
0.0
 10
183.2300239539188
 20
244.5042982686153
 30
0.0
  0
SPLINE
  5
A9
330
1F
100
AcDbEntity
  8
0
  6
Continuous
 62
     7
370
    30
100
AcDbSpline
210
0.0
220
0.0
230
1.0
 70
     8
 71
     3
 72
    14
 73
    10
 74
     0
 42
0.00000001
 43
0.00000001
 12
1.0
 22
0.0
 32
0.0
 13
1.0
 23
0.0
 33
0.0
 40
0.0
 40
0.0
 40
0.0
 40
0.0
 40
0.4999999999999976
 40
0.4999999999999976
 40
0.749999999999994
 40
0.749999999999994
 40
0.874999999999997
 40
0.874999999999997
 40
1.0
 40
1.0
 40
1.0
 40
1.0
 10
182.7300239539188
 20
243.0299931946399
 30
0.0
 10
182.8433930933554
 20
243.2417634473894
 30
0.0
 10
182.9485452661126
 20
243.4510878493424
 30
0.0
 10
183.0893313849091
 20
243.7619563028173
 30
0.0
 10
183.1327057431233
 20
243.8638965032485
 30
0.0
 10
183.1849984749455
 20
244.0087323743986
 30
0.0
 10
183.200078654266
 20
244.0551687685598
 30
0.0
 10
183.2225129802505
 20
244.141793358182
 30
0.0
 10
183.2300239539188
 20
244.1824774210894
 30
0.0
 10
183.2300239539188
 20
244.2156540074454
 30
0.0
  0
SPLINE
  5
AA
330
1F
100
AcDbEntity
  8
0
  6
Continuous
 62
     7
370
    30
100
AcDbSpline
210
0.0
220
0.0
230
1.0
 70
     8
 71
     3
 72
     8
 73
     4
 74
     0
 42
0.00000001
 43
0.00000001
 12
1.0
 22
0.0
 32
0.0
 13
1.0
 23
0.0
 33
0.0
 40
0.0
 40
0.0
 40
0.0
 40
0.0
 40
1.0
 40
1.0
 40
1.0
 40
1.0
 10
182.4494861161857
 20
242.5076993825418
 30
0.0
 10
182.5432754149917
 20
242.6816469304781
 30
0.0
 10
182.6367522283637
 20
242.8557643260663
 30
0.0
 10
182.7300239539188
 20
243.0299931946399
 30
0.0
  0
SPLINE
  5
AB
330
1F
100
AcDbEntity
  8
0
  6
Continuous
 62
     7
370
    30
100
AcDbSpline
210
0.0
220
0.0
230
1.0
 70
     8
 71
     3
 72
     8
 73
     4
 74
     0
 42
0.00000001
 43
0.00000001
 12
1.0
 22
0.0
 32
0.0
 13
1.0
 23
0.0
 33
0.0
 40
0.0
 40
0.0
 40
0.0
 40
0.0
 40
1.0
 40
1.0
 40
1.0
 40
1.0
 10
182.7300239539188
 20
245.549170909204
 30
0.0
 10
182.3473860813933
 20
245.9105704964003
 30
0.0
 10
181.9651496038282
 20
246.2724065595311
 30
0.0
 10
181.568814166241
 20
246.6189114467443
 30
0.0
  0
SPLINE
  5
AC
330
1F
100
AcDbEntity
  8
0
  6
Continuous
 62
     7
370
    30
100
AcDbSpline
210
0.0
220
0.0
230
1.0
 70
     8
 71
     3
 72
    10
 73
     6
 74
     0
 42
0.00000001
 43
0.00000001
 12
1.0
 22
0.0
 32
0.0
 13
1.0
 23
0.0
 33
0.0
 40
0.0
 40
0.0
 40
0.0
 40
0.0
 40
0.5
 40
0.5
 40
1.0
 40
1.0
 40
1.0
 40
1.0
 10
183.2300239539188
 20
244.9496697043085
 30
0.0
 10
183.2300239539188
 20
245.0024092771348
 30
0.0
 10
183.1562236475765
 20
245.1020573486309
 30
0.0
 10
182.9685202266203
 20
245.3158467068438
 30
0.0
 10
182.8513939813927
 20
245.4345375156574
 30
0.0
 10
182.7300239539188
 20
245.549170909204
 30
0.0
  0
SPLINE
  5
AD
330
1F
100
AcDbEntity
  8
0
  6
Continuous
 62
     7
370
    30
100
AcDbSpline
210
0.0
220
0.0
230
1.0
 70
     8
 71
     3
 72
    14
 73
    10
 74
     0
 42
0.00000001
 43
0.00000001
 12
1.0
 22
0.0
 32
0.0
 13
1.0
 23
0.0
 33
0.0
 40
0.0
 40
0.0
 40
0.0
 40
0.0
 40
0.25
 40
0.25
 40
0.5
 40
0.5
 40
0.75
 40
0.75
 40
1.0
 40
1.0
 40
1.0
 40
1.0
 10
182.4494861161859
 20
242.5076993825417
 30
0.0
 10
182.3787467946391
 20
242.3765017759663
 30
0.0
 10
182.2871858332342
 20
242.2553415677174
 30
0.0
 10
182.0743162769186
 20
242.0474597982954
 30
0.0
 10
181.9507637599644
 20
241.9585687885414
 30
0.0
 10
181.6843899625792
 20
241.8209977097018
 30
0.0
 10
181.542964628091
 20
241.7726694288484
 30
0.0
 10
181.2531186299498
 20
241.7134089838912
 30
0.0
 10
181.1029629812965
 20
241.7031692240617
 30
0.0
 10
180.9540479132264
 20
241.7031692240617
 30
0.0
  0
LINE
  5
AE
330
1F
100
AcDbEntity
  8
0
  6
Continuous
 62
     7
370
    30
100
AcDbLine
 10
180.9540476984
 20
241.7031692799
 30
0.0
 11
180.77171709
 21
241.7031692799
 31
0.0
  0
LINE
  5
AF
330
1F
100
AcDbEntity
  8
0
  6
Continuous
 62
     7
370
    30
100
AcDbLine
 10
127.6883308178
 20
241.7031692799
 30
0.0
 11
127.2918425834
 21
241.7031692799
 31
0.0
  0
LINE
  5
B0
330
1F
100
AcDbEntity
  8
0
  6
Continuous
 62
     7
370
    30
100
AcDbLine
 10
127.0093668586
 20
246.7031691682
 30
0.0
 11
127.5979254729
 21
246.7031691682
 31
0.0
  0
SPLINE
  5
B1
330
1F
100
AcDbEntity
  8
0
  6
Continuous
 62
     7
370
    30
100
AcDbSpline
210
0.0
220
0.0
230
1.0
 70
     8
 71
     3
 72
    10
 73
     6
 74
     0
 42
0.00000001
 43
0.00000001
 12
1.0
 22
0.0
 32
0.0
 13
1.0
 23
0.0
 33
0.0
 40
0.0
 40
0.0
 40
0.0
 40
0.0
 40
0.5
 40
0.5
 40
1.0
 40
1.0
 40
1.0
 40
1.0
 10
181.3320107965065
 20
246.7031692240618
 30
0.0
 10
181.3746364959477
 20
246.7031692240618
 30
0.0
 10
181.4170247706499
 20
246.6966776481166
 30
0.0
 10
181.4985408570722
 20
246.6685561583862
 30
0.0
 10
181.5365579139258
 20
246.6471121777676
 30
0.0
 10
181.568814166241
 20
246.6189114467444
 30
0.0
  0
LINE
  5
B2
330
1F
100
AcDbEntity
  8
0
  6
Continuous
 62
     7
370
    30
100
AcDbLine
 10
180.862122435
 20
246.7031691682
 30
0.0
 11
181.3320100641
 21
246.7031691682
 31
0.0
  0
LINE
  5
B3
330
1F
100
AcDbEntity
  8
0
  6
Continuous
 62
     7
370
    30
100
AcDbLine
 10
127.2918425834
 20
241.7031692799
 30
0.0
 11
122.1380524671
 21
241.7031692799
 31
0.0
  0
LINE
  5
B4
330
1F
100
AcDbEntity
  8
0
  6
Continuous
 62
     7
370
    30
100
AcDbLine
 10
121.8512833452
 20
246.7031691682
 30
0.0
 11
127.0093668586
 21
246.7031691682
 31
0.0
  0
SPLINE
  5
B5
330
1F
100
AcDbEntity
  8
0
  6
Continuous
 62
     7
370
    30
100
AcDbSpline
210
0.0
220
0.0
230
1.0
 70
     8
 71
     3
 72
    10
 73
     6
 74
     0
 42
0.00000001
 43
0.00000001
 12
1.0
 22
0.0
 32
0.0
 13
1.0
 23
0.0
 33
0.0
 40
0.0
 40
0.0
 40
0.0
 40
0.0
 40
0.5
 40
0.5
 40
1.0
 40
1.0
 40
1.0
 40
1.0
 10
181.8165352188043
 20
246.6189114467441
 30
0.0
 10
181.7884782177688
 20
246.6456279993298
 30
0.0
 10
181.7550198454431
 20
246.6670204499488
 30
0.0
 10
181.6827840890859
 20
246.6957405550142
 30
0.0
 10
181.6440658253761
 20
246.7031692240617
 30
0.0
 10
181.6050050744938
 20
246.7031692240617
 30
0.0
  0
LWPOLYLINE
  5
B6
330
1F
100
AcDbEntity
  8
0
  6
Continuous
 62
     7
370
    30
100
AcDbPolyline
 90
        3
 70
   128
 43
0.0
 10
183.6644608861
 20
244.8591344633
 10
182.1227811611
 20
246.327292965
 10
181.8165343589
 20
246.6189114835
  0
SPLINE
  5
B7
330
1F
100
AcDbEntity
  8
0
  6
Continuous
 62
     7
370
    30
100
AcDbSpline
210
0.0
220
0.0
230
1.0
 70
     8
 71
     3
 72
    10
 73
     6
 74
     0
 42
0.00000001
 43
0.00000001
 12
1.0
 22
0.0
 32
0.0
 13
1.0
 23
0.0
 33
0.0
 40
0.0
 40
0.0
 40
0.0
 40
0.0
 40
0.4999999999999998
 40
0.4999999999999998
 40
1.0
 40
1.0
 40
1.0
 40
1.0
 10
183.7226431904106
 20
244.5042982686153
 30
0.0
 10
183.7530110500255
 20
244.561497920412
 30
0.0
 10
183.7638695705945
 20
244.6275609931298
 30
0.0
 10
183.7430181024543
 20
244.7548568508405
 30
0.0
 10
183.711061550586
 20
244.8147537609444
 30
0.0
 10
183.6644613863643
 20
244.8591344596016
 30
0.0
  0
LWPOLYLINE
  5
B8
330
1F
100
AcDbEntity
  8
0
  6
Continuous
 62
     7
370
    30
100
AcDbPolyline
 90
        3
 70
   128
 43
0.0
 10
182.6625813133
 20
242.5076993874
 10
183.2857199347
 20
243.6813413275
 10
183.72264247
 20
244.5042982632
  0
SPLINE
  5
B9
330
1F
100
AcDbEntity
  8
0
  6
Continuous
 62
     7
370
    30
100
AcDbSpline
210
0.0
220
0.0
230
1.0
 70
     8
 71
     3
 72
    14
 73
    10
 74
     0
 42
0.00000001
 43
0.00000001
 12
1.0
 22
0.0
 32
0.0
 13
1.0
 23
0.0
 33
0.0
 40
0.0
 40
0.0
 40
0.0
 40
0.0
 40
0.2499999999999999
 40
0.2499999999999999
 40
0.4999999999999999
 40
0.4999999999999999
 40
0.7499999999999998
 40
0.7499999999999998
 40
1.0
 40
1.0
 40
1.0
 40
1.0
 10
181.314005494706
 20
241.7031692240617
 30
0.0
 10
181.4525728500323
 20
241.7031692240617
 30
0.0
 10
181.5907475245148
 20
241.721945676477
 30
0.0
 10
181.8558838462089
 20
241.7948949440901
 30
0.0
 10
181.9817701598638
 20
241.8482827880304
 30
0.0
 10
182.2197734605286
 20
241.9899116397513
 30
0.0
 10
182.3270246049253
 20
242.075368358782
 30
0.0
 10
182.516713338235
 20
242.2738033954147
 30
0.0
 10
182.5984720280103
 20
242.3869549641764
 30
0.0
 10
182.6625821262537
 20
242.5076993825425
 30
0.0
  0
LINE
  5
BA
330
1F
100
AcDbEntity
  8
0
  6
Continuous
 62
     7
370
    30
100
AcDbLine
 10
180.9540476984
 20
241.7031692799
 30
0.0
 11
181.3140057361
 21
241.7031692799
 31
0.0
  0
LINE
  5
BB
330
1F
100
AcDbEntity
  8
0
  6
Continuous
 62
     7
370
    30
100
AcDbLine
 10
181.3320100641
 20
246.7031691682
 30
0.0
 11
181.6050049251
 21
246.7031691682
 31
0.0
  0
LINE
  5
BC
330
1F
100
AcDbEntity
  8
0
  6
Continuous
 62
     7
370
    30
100
AcDbLine
 10
181.6050049251
 20
246.7031691682
 30
0.0
 11
186.6087645626
 21
246.7031691682
 31
0.0
  0
LINE
  5
BD
330
1F
100
AcDbEntity
  8
0
  6
Continuous
 62
     7
370
    30
100
AcDbLine
 10
186.3219954407
 20
241.7031692799
 30
0.0
 11
181.3140057361
 21
241.7031692799
 31
0.0
  0
ARC
  5
BE
330
1F
100
AcDbEntity
  8
0
  6
Continuous
 62
     7
370
    30
100
AcDbCircle
 10
188.4300239539
 20
41.2074515461
 30
0.0
 40
0.3000000000000166
100
AcDbArc
 50
314.0164159764
 51
27.6226649183
  0
LINE
  5
BF
330
1F
100
AcDbEntity
  8
0
  6
Continuous
 62
     7
370
    30
100
AcDbLine
 10
188.69582865
 20
41.3465455199
 30
0.0
 11
187.6510262823
 21
43.3431443957
 31
0.0
  0
LINE
  5
C0
330
1F
100
AcDbEntity
  8
0
  6
Continuous
 62
     7
370
    30
100
AcDbLine
 10
186.8172243571
 20
39.2319322995
 30
0.0
 11
188.6384815311
 21
40.9917093197
 31
0.0
  0
ARC
  5
C1
330
1F
100
AcDbEntity
  8
0
  6
Continuous
 62
     7
370
    30
100
AcDbCircle
 10
186.3219971146
 20
42.647674559
 30
0.0
 40
1.5
100
AcDbArc
 50
27.6226649183
 51
90.0
  0
ARC
  5
C2
330
1F
100
AcDbEntity
  8
0
  6
Continuous
 62
     7
370
    30
100
AcDbCircle
 10
186.6087660909
 20
39.447674559
 30
0.0
 40
0.2999999999999972
100
AcDbArc
 50
270.0
 51
314.0164159764
  0
ARC
  5
C3
330
1F
100
AcDbEntity
  8
0
  6
Continuous
 62
     7
370
    30
100
AcDbCircle
 10
121.8512818169
 20
39.447674559
 30
0.0
 40
0.3000000000000122
100
AcDbArc
 50
225.9835840236
 51
270.0
  0
LINE
  5
C4
330
1F
100
AcDbEntity
  8
0
  6
Continuous
 62
     7
370
    30
100
AcDbLine
 10
119.8215663767
 20
40.9917093197
 30
0.0
 11
121.6428235507
 21
39.2319322995
 31
0.0
  0
ARC
  5
C5
330
1F
100
AcDbEntity
  8
0
  6
Continuous
 62
     7
370
    30
100
AcDbCircle
 10
120.0300239539
 20
41.2074515461
 30
0.0
 40
0.3000000000000265
100
AcDbArc
 50
152.3773350817
 51
225.9835840236
  0
LINE
  5
C6
330
1F
100
AcDbEntity
  8
0
  6
Continuous
 62
     7
370
    30
100
AcDbLine
 10
120.8090216255
 20
43.3431443957
 30
0.0
 11
119.7642192578
 21
41.3465455199
 31
0.0
  0
ARC
  5
C7
330
1F
100
AcDbEntity
  8
0
  6
Continuous
 62
     7
370
    30
100
AcDbCircle
 10
122.1380507932
 20
42.647674559
 30
0.0
 40
1.5
100
AcDbArc
 50
90.0
 51
152.3773350817
  0
LINE
  5
C8
330
1F
100
AcDbEntity
  8
0
  6
Continuous
 62
     7
370
    30
100
AcDbLine
 10
127.6883308178
 20
44.1476745031
 30
0.0
 11
180.77171709
 21
44.1476745031
 31
0.0
  0
LINE
  5
C9
330
1F
100
AcDbEntity
  8
0
  6
Continuous
 62
     7
370
    30
100
AcDbLine
 10
180.862122435
 20
39.1476746149
 30
0.0
 11
127.5979254729
 21
39.1476746149
 31
0.0
  0
SPLINE
  5
CA
330
1F
100
AcDbEntity
  8
0
  6
Continuous
 62
     7
370
    30
100
AcDbSpline
210
0.0
220
0.0
230
1.0
 70
    24
 71
     3
 72
    14
 73
    10
 74
     0
 42
0.00000001
 43
0.00000001
 12
1.0
 22
0.0
 32
0.0
 13
1.0
 23
0.0
 33
0.0
 40
0.0
 40
0.0
 40
0.0
 40
0.0
 40
0.25
 40
0.25
 40
0.5
 40
0.5
 40
0.75
 40
0.75
 40
1.0
 40
1.0
 40
1.0
 40
1.0
 10
125.2300239539189
 20
40.99170932345531
 30
0.0
 10
125.2300239539189
 20
41.0064953775723
 30
0.0
 10
125.2300239539189
 20
41.0244469915385
 30
0.0
 10
125.2300239539189
 20
41.06988396292643
 30
0.0
 10
125.2300239539189
 20
41.09783494745709
 30
0.0
 10
125.2300239539189
 20
41.1673599853867
 30
0.0
 10
125.2300239539189
 20
41.20954633597756
 30
0.0
 10
125.2300239539189
 20
41.28706984372675
 30
0.0
 10
125.2300239539189
 20
41.32030967939637
 30
0.0
 10
125.2300239539189
 20
41.34654551445575
 30
0.0
  0
SPLINE
  5
CB
330
1F
100
AcDbEntity
  8
0
  6
Continuous
 62
     7
370
    30
100
AcDbSpline
210
0.0
220
0.0
230
1.0
 70
    24
 71
     3
 72
     8
 73
     4
 74
     0
 42
0.00000001
 43
0.00000001
 12
1.0
 22
0.0
 32
0.0
 13
1.0
 23
0.0
 33
0.0
 40
0.0
 40
0.0
 40
0.0
 40
0.0
 40
1.0
 40
1.0
 40
1.0
 40
1.0
 10
125.2300239539189
 20
41.34654551444179
 30
0.0
 10
125.2300239539189
 20
41.44948998528433
 30
0.0
 10
125.2300239539189
 20
41.54700766493864
 30
0.0
 10
125.2300239539189
 20
41.63518977561161
 30
0.0
  0
SPLINE
  5
CC
330
1F
100
AcDbEntity
  8
0
  6
Continuous
 62
     7
370
    30
100
AcDbSpline
210
0.0
220
0.0
230
1.0
 70
     8
 71
     3
 72
    12
 73
     8
 74
     0
 42
0.00000001
 43
0.00000001
 12
1.0
 22
0.0
 32
0.0
 13
1.0
 23
0.0
 33
0.0
 40
0.0
 40
0.0
 40
0.0
 40
0.0
 40
0.2499999999999989
 40
0.2499999999999989
 40
0.4999999999999978
 40
0.4999999999999978
 40
1.0
 40
1.0
 40
1.0
 40
1.0
 10
125.2300239539189
 20
41.63518977561161
 30
0.0
 10
125.2300239539189
 20
41.70179387464115
 30
0.0
 10
125.2577213685127
 20
41.79400840273374
 30
0.0
 10
125.326646590632
 20
41.98512904157249
 30
0.0
 10
125.3701809228279
 20
42.08761893661292
 30
0.0
 10
125.5099136118946
 20
42.39641656616719
 30
0.0
 10
125.6168078341819
 20
42.60936617201258
 30
0.0
 10
125.7300239539189
 20
42.82085058841704
 30
0.0
  0
SPLINE
  5
CD
330
1F
100
AcDbEntity
  8
0
  6
Continuous
 62
     7
370
    30
100
AcDbSpline
210
0.0
220
0.0
230
1.0
 70
     8
 71
     3
 72
     8
 73
     4
 74
     0
 42
0.00000001
 43
0.00000001
 12
1.0
 22
0.0
 32
0.0
 13
1.0
 23
0.0
 33
0.0
 40
0.0
 40
0.0
 40
0.0
 40
0.0
 40
1.0
 40
1.0
 40
1.0
 40
1.0
 10
125.7300239539189
 20
42.82085058841704
 30
0.0
 10
125.8232971646708
 20
42.99508223129517
 30
0.0
 10
125.9167742081717
 20
43.16920003393004
 30
0.0
 10
126.0105617916519
 20
43.34314440051508
 30
0.0
  0
SPLINE
  5
CE
330
1F
100
AcDbEntity
  8
0
  6
Continuous
 62
     7
370
    30
100
AcDbSpline
210
0.0
220
0.0
230
1.0
 70
     8
 71
     3
 72
    12
 73
     8
 74
     0
 42
0.00000001
 43
0.00000001
 12
1.0
 22
0.0
 32
0.0
 13
1.0
 23
0.0
 33
0.0
 40
0.0
 40
0.0
 40
0.0
 40
0.0
 40
0.2499999999999958
 40
0.2499999999999958
 40
0.4999999999999916
 40
0.4999999999999916
 40
1.0
 40
1.0
 40
1.0
 40
1.0
 10
125.7300239539189
 20
40.30167287385291
 30
0.0
 10
125.6692061003076
 20
40.35911503723364
 30
0.0
 10
125.6108400864947
 20
40.41645858619215
 30
0.0
 10
125.498708585858
 20
40.53087794993152
 30
0.0
 10
125.4452047862038
 20
40.5877978847684
 30
0.0
 10
125.3047125519875
 20
40.74769513639646
 30
0.0
 10
125.2300239539189
 20
40.84827284104693
 30
0.0
 10
125.2300239539189
 20
40.90117407874838
 30
0.0
  0
SPLINE
  5
CF
330
1F
100
AcDbEntity
  8
0
  6
Continuous
 62
     7
370
    30
100
AcDbSpline
210
0.0
220
0.0
230
1.0
 70
     8
 71
     3
 72
     8
 73
     4
 74
     0
 42
0.00000001
 43
0.00000001
 12
1.0
 22
0.0
 32
0.0
 13
1.0
 23
0.0
 33
0.0
 40
0.0
 40
0.0
 40
0.0
 40
0.0
 40
1.0
 40
1.0
 40
1.0
 40
1.0
 10
126.8912337415983
 20
39.23193233631086
 30
0.0
 10
126.4949539004451
 20
39.57838861713076
 30
0.0
 10
126.1126875066281
 20
39.94024903184947
 30
0.0
 10
125.7300239539189
 20
40.3016728738529
 30
0.0
  0
SPLINE
  5
D0
330
1F
100
AcDbEntity
  8
0
  6
Continuous
 62
     7
370
    30
100
AcDbSpline
210
0.0
220
0.0
230
1.0
 70
     8
 71
     3
 72
    14
 73
    10
 74
     0
 42
0.00000001
 43
0.00000001
 12
1.0
 22
0.0
 32
0.0
 13
1.0
 23
0.0
 33
0.0
 40
0.0
 40
0.0
 40
0.0
 40
0.0
 40
0.25
 40
0.25
 40
0.5
 40
0.5
 40
0.75
 40
0.75
 40
1.0
 40
1.0
 40
1.0
 40
1.0
 10
126.0105617916518
 20
43.34314440051526
 30
0.0
 10
126.0813011131985
 20
43.47434200709058
 30
0.0
 10
126.1728620746034
 20
43.59550221533956
 30
0.0
 10
126.3857316309191
 20
43.80338398476147
 30
0.0
 10
126.5092841478732
 20
43.89227499451547
 30
0.0
 10
126.7756579452585
 20
44.02984607335511
 30
0.0
 10
126.9170832797467
 20
44.07817435420851
 30
0.0
 10
127.2069292778879
 20
44.13743479916572
 30
0.0
 10
127.3570849265411
 20
44.14767455899522
 30
0.0
 10
127.5059999946113
 20
44.14767455899522
 30
0.0
  0
LINE
  5
D1
330
1F
100
AcDbEntity
  8
0
  6
Continuous
 62
     7
370
    30
100
AcDbLine
 10
127.5060002095
 20
44.1476745031
 30
0.0
 11
127.6883308178
 21
44.1476745031
 31
0.0
  0
LINE
  5
D2
330
1F
100
AcDbEntity
  8
0
  6
Continuous
 62
     7
370
    30
100
AcDbLine
 10
180.77171709
 20
44.1476745031
 30
0.0
 11
181.1682053244
 21
44.1476745031
 31
0.0
  0
SPLINE
  5
D3
330
1F
100
AcDbEntity
  8
0
  6
Continuous
 62
     7
370
    30
100
AcDbSpline
210
0.0
220
0.0
230
1.0
 70
     8
 71
     3
 72
    10
 73
     6
 74
     0
 42
0.00000001
 43
0.00000001
 12
1.0
 22
0.0
 32
0.0
 13
1.0
 23
0.0
 33
0.0
 40
0.0
 40
0.0
 40
0.0
 40
0.0
 40
0.5
 40
0.5
 40
1.0
 40
1.0
 40
1.0
 40
1.0
 10
127.1280371113312
 20
39.14767455899516
 30
0.0
 10
127.0856481446895
 20
39.14767455899516
 30
0.0
 10
127.0424734097374
 20
39.15435113369947
 30
0.0
 10
126.9619868872372
 20
39.18212674099817
 30
0.0
 10
126.9233393031038
 20
39.20386335001025
 30
0.0
 10
126.8912337415986
 20
39.23193233631088
 30
0.0
  0
LINE
  5
D4
330
1F
100
AcDbEntity
  8
0
  6
Continuous
 62
     7
370
    30
100
AcDbLine
 10
127.5979254729
 20
39.1476746149
 30
0.0
 11
127.1280378437
 21
39.1476746149
 31
0.0
  0
LINE
  5
D5
330
1F
100
AcDbEntity
  8
0
  6
Continuous
 62
     7
370
    30
100
AcDbLine
 10
181.4506810492
 20
39.1476746149
 30
0.0
 11
180.862122435
 21
39.1476746149
 31
0.0
  0
LINE
  5
D6
330
1F
100
AcDbEntity
  8
0
  6
Continuous
 62
     7
370
    30
100
AcDbLine
 10
181.1682053244
 20
44.1476745031
 30
0.0
 11
186.3219954407
 21
44.1476745031
 31
0.0
  0
LINE
  5
D7
330
1F
100
AcDbEntity
  8
0
  6
Continuous
 62
     7
370
    30
100
AcDbLine
 10
186.6087645626
 20
39.1476746149
 30
0.0
 11
181.4506810492
 21
39.1476746149
 31
0.0
  0
SPLINE
  5
D8
330
1F
100
AcDbEntity
  8
0
  6
Continuous
 62
     7
370
    30
100
AcDbSpline
210
0.0
220
0.0
230
1.0
 70
     8
 71
     3
 72
    10
 73
     6
 74
     0
 42
0.00000001
 43
0.00000001
 12
1.0
 22
0.0
 32
0.0
 13
1.0
 23
0.0
 33
0.0
 40
0.0
 40
0.0
 40
0.0
 40
0.0
 40
0.5
 40
0.5
 40
1.0
 40
1.0
 40
1.0
 40
1.0
 10
126.6435126890335
 20
39.23193233631276
 30
0.0
 10
126.6718253755258
 20
39.20497231387269
 30
0.0
 10
126.7047375585631
 20
39.1839349380954
 30
0.0
 10
126.77760703262
 20
39.15497066897102
 30
0.0
 10
126.8160856902127
 20
39.14767455899523
 30
0.0
 10
126.8550428333439
 20
39.14767455899523
 30
0.0
  0
LINE
  5
D9
330
1F
100
AcDbEntity
  8
0
  6
Continuous
 62
     7
370
    30
100
AcDbLine
 10
126.643513549
 20
39.2319322995
 30
0.0
 11
124.7955870217
 21
40.9917093197
 31
0.0
  0
SPLINE
  5
DA
330
1F
100
AcDbEntity
  8
0
  6
Continuous
 62
     7
370
    30
100
AcDbSpline
210
0.0
220
0.0
230
1.0
 70
     8
 71
     3
 72
    10
 73
     6
 74
     0
 42
0.00000001
 43
0.00000001
 12
1.0
 22
0.0
 32
0.0
 13
1.0
 23
0.0
 33
0.0
 40
0.0
 40
0.0
 40
0.0
 40
0.0
 40
0.5
 40
0.5
 40
1.0
 40
1.0
 40
1.0
 40
1.0
 10
124.7955865214735
 20
40.99170932345531
 30
0.0
 10
124.7490026012524
 20
41.03607455177869
 30
0.0
 10
124.7170243133094
 20
41.09627277282192
 30
0.0
 10
124.6962448252262
 20
41.22262531716887
 30
0.0
 10
124.7073604976749
 20
41.28995545738325
 30
0.0
 10
124.7374047174264
 20
41.34654551444025
 30
0.0
  0
LWPOLYLINE
  5
DB
330
1F
100
AcDbEntity
  8
0
  6
Continuous
 62
     7
370
    30
100
AcDbPolyline
 90
        3
 70
   128
 43
0.0
 10
124.7374054378
 20
41.3465455199
 10
124.9635845757
 20
41.7725662696
 10
125.7974665946
 20
43.3431443957
  0
SPLINE
  5
DC
330
1F
100
AcDbEntity
  8
0
  6
Continuous
 62
     7
370
    30
100
AcDbSpline
210
0.0
220
0.0
230
1.0
 70
     8
 71
     3
 72
    12
 73
     8
 74
     0
 42
0.00000001
 43
0.00000001
 12
1.0
 22
0.0
 32
0.0
 13
1.0
 23
0.0
 33
0.0
 40
0.0
 40
0.0
 40
0.0
 40
0.0
 40
0.25
 40
0.25
 40
0.5
 40
0.5
 40
1.0
 40
1.0
 40
1.0
 40
1.0
 10
127.1460424131317
 20
44.14767455899522
 30
0.0
 10
127.0080991518621
 20
44.14767455899522
 30
0.0
 10
126.8712660515605
 20
44.12920279766575
 30
0.0
 10
126.6070907549597
 20
44.05698589192423
 30
0.0
 10
126.4782682778471
 20
44.00236936683541
 30
0.0
 10
126.1258688202095
 20
43.79322106148486
 30
0.0
 10
125.92566378292
 20
43.58459143508651
 30
0.0
 10
125.7974657815842
 20
43.34314440051453
 30
0.0
  0
LINE
  5
DD
330
1F
100
AcDbEntity
  8
0
  6
Continuous
 62
     7
370
    30
100
AcDbLine
 10
127.1460421717
 20
44.1476745031
 30
0.0
 11
127.5060002095
 21
44.1476745031
 31
0.0
  0
LINE
  5
DE
330
1F
100
AcDbEntity
  8
0
  6
Continuous
 62
     7
370
    30
100
AcDbLine
 10
126.8550429827
 20
39.1476746149
 30
0.0
 11
127.1280378437
 21
39.1476746149
 31
0.0
  0
LINE
  5
DF
330
1F
100
AcDbEntity
  8
0
  6
Continuous
 62
     7
370
    30
100
AcDbLine
 10
126.8550429827
 20
39.1476746149
 30
0.0
 11
121.8512833452
 21
39.1476746149
 31
0.0
  0
LINE
  5
E0
330
1F
100
AcDbEntity
  8
0
  6
Continuous
 62
     7
370
    30
100
AcDbLine
 10
122.1380524671
 20
44.1476745031
 30
0.0
 11
127.1460421717
 21
44.1476745031
 31
0.0
  0
ARC
  5
E1
330
1F
100
AcDbEntity
  8
0
  6
Continuous
 62
     7
370
    30
100
AcDbCircle
 10
75.0087294716
 20
207.3624703402
 30
0.0
 40
0.3000000000000014
100
AcDbArc
 50
62.3773350817
 51
135.9835840236
  0
ARC
  5
E2
330
1F
100
AcDbEntity
  8
0
  6
Continuous
 62
     7
370
    30
100
AcDbCircle
 10
75.0087294716
 20
74.9624703402
 30
0.0
 40
0.2999999999999918
100
AcDbArc
 50
224.0164159764
 51
297.6226649183
  0
LINE
  5
E3
330
1F
100
AcDbEntity
  8
0
  6
Continuous
 62
     7
370
    30
100
AcDbLine
 10
75.1478234454
 20
74.6966678494
 30
0.0
 11
77.1444223212
 21
75.7414702171
 31
0.0
  0
LINE
  5
E4
330
1F
100
AcDbEntity
  8
0
  6
Continuous
 62
     7
370
    30
100
AcDbLine
 10
77.1444223212
 20
206.5834704632
 30
0.0
 11
75.1478234454
 21
207.6282728309
 31
0.0
  0
LINE
  5
E5
330
1F
100
AcDbEntity
  8
0
  6
Continuous
 62
     7
370
    30
100
AcDbLine
 10
74.7929872452
 20
207.5709331626
 30
0.0
 11
73.033210225
 21
205.749668538
 31
0.0
  0
LINE
  5
E6
330
1F
100
AcDbEntity
  8
0
  6
Continuous
 62
     7
370
    30
100
AcDbLine
 10
73.033210225
 20
76.5752721423
 30
0.0
 11
74.7929872452
 21
74.7540075177
 31
0.0
  0
ARC
  5
E7
330
1F
100
AcDbEntity
  8
0
  6
Continuous
 62
     7
370
    30
100
AcDbCircle
 10
76.4489524845
 20
205.2544435009
 30
0.0
 40
1.500000000000001
100
AcDbArc
 50
0.0
 51
62.3773350817
  0
ARC
  5
E8
330
1F
100
AcDbEntity
  8
0
  6
Continuous
 62
     7
370
    30
100
AcDbCircle
 10
76.4489524845
 20
77.0704971795
 30
0.0
 40
1.500000000000001
100
AcDbArc
 50
297.6226649183
 51
0.0
  0
ARC
  5
E9
330
1F
100
AcDbEntity
  8
0
  6
Continuous
 62
     7
370
    30
100
AcDbCircle
 10
73.2489524845
 20
205.5412124772
 30
0.0
 40
0.3000000000000217
100
AcDbArc
 50
135.9835840236
 51
180.0
  0
ARC
  5
EA
330
1F
100
AcDbEntity
  8
0
  6
Continuous
 62
     7
370
    30
100
AcDbCircle
 10
73.2489524845
 20
76.7837282032
 30
0.0
 40
0.3000000000000119
100
AcDbArc
 50
180.0
 51
224.0164159764
  0
SPLINE
  5
EB
330
1F
100
AcDbEntity
  8
0
  6
Continuous
 62
     7
370
    30
100
AcDbSpline
210
0.0
220
0.0
230
1.0
 70
    24
 71
     3
 72
    10
 73
     6
 74
     0
 42
0.00000001
 43
0.00000001
 12
1.0
 22
0.0
 32
0.0
 13
1.0
 23
0.0
 33
0.0
 40
0.0
 40
0.0
 40
0.0
 40
0.0
 40
0.5
 40
0.5
 40
1.0
 40
1.0
 40
1.0
 40
1.0
 10
74.79298724896712
 20
82.662470340156
 30
0.0
 10
74.83735247729048
 20
82.662470340156
 30
0.0
 10
74.89755069833372
 20
82.66247034015599
 30
0.0
 10
75.02390324268067
 20
82.662470340156
 30
0.0
 10
75.09123338289506
 20
82.66247034015599
 30
0.0
 10
75.14782343995205
 20
82.662470340156
 30
0.0
  0
LINE
  5
EC
330
1F
100
AcDbEntity
  8
0
  6
Continuous
 62
     7
370
    30
100
AcDbLine
 10
75.1478234454
 20
82.6624709958
 30
0.0
 11
77.1444223212
 21
82.6624709958
 31
0.0
  0
LINE
  5
ED
330
1F
100
AcDbEntity
  8
0
  6
Continuous
 62
     7
370
    30
100
AcDbLine
 10
73.033210225
 20
82.6624709958
 30
0.0
 11
74.7929872452
 21
82.6624709958
 31
0.0
  0
LINE
  5
EE
330
1F
100
AcDbEntity
  8
0
  6
Continuous
 62
     7
370
    30
100
AcDbLine
 10
77.9489524286
 20
200.5015950495
 30
0.0
 11
77.9489524286
 21
82.6624709958
 31
0.0
  0
SPLINE
  5
EF
330
1F
100
AcDbEntity
  8
0
  6
Continuous
 62
     7
370
    30
100
AcDbSpline
210
0.0
220
0.0
230
1.0
 70
    24
 71
     3
 72
    12
 73
     8
 74
     0
 42
0.00000001
 43
0.00000001
 12
1.0
 22
0.0
 32
0.0
 13
1.0
 23
0.0
 33
0.0
 40
0.0
 40
0.0
 40
0.0
 40
0.0
 40
0.25
 40
0.25
 40
0.5
 40
0.5
 40
1.0
 40
1.0
 40
1.0
 40
1.0
 10
77.94895248450702
 20
82.662470340156
 30
0.0
 10
77.94895248450702
 20
82.662470340156
 30
0.0
 10
77.93048072317754
 20
82.66247034015599
 30
0.0
 10
77.85826381743603
 20
82.662470340156
 30
0.0
 10
77.80364729234721
 20
82.662470340156
 30
0.0
 10
77.59449898699667
 20
82.66247034015598
 30
0.0
 10
77.3858693605983
 20
82.66247034015599
 30
0.0
 10
77.14442232602632
 20
82.662470340156
 30
0.0
  0
LINE
  5
F0
330
1F
100
AcDbEntity
  8
0
  6
Continuous
 62
     7
370
    30
100
AcDbLine
 10
72.9489525404
 20
82.6624709958
 30
0.0
 11
72.9489525404
 21
200.5510371024
 31
0.0
  0
SPLINE
  5
F1
330
1F
100
AcDbEntity
  8
0
  6
Continuous
 62
     7
370
    30
100
AcDbSpline
210
0.0
220
0.0
230
1.0
 70
    24
 71
     3
 72
    10
 73
     6
 74
     0
 42
0.00000001
 43
0.00000001
 12
1.0
 22
0.0
 32
0.0
 13
1.0
 23
0.0
 33
0.0
 40
0.0
 40
0.0
 40
0.0
 40
0.0
 40
0.5
 40
0.5
 40
1.0
 40
1.0
 40
1.0
 40
1.0
 10
73.03321026182456
 20
82.662470340156
 30
0.0
 10
73.0062502393845
 20
82.662470340156
 30
0.0
 10
72.98521286360719
 20
82.66247034015599
 30
0.0
 10
72.95624859448282
 20
82.662470340156
 30
0.0
 10
72.94895248450702
 20
82.66247034015599
 30
0.0
 10
72.94895248450702
 20
82.662470340156
 30
0.0
  0
SPLINE
  5
F2
330
1F
100
AcDbEntity
  8
0
  6
Continuous
 62
     7
370
    30
100
AcDbSpline
210
0.0
220
0.0
230
1.0
 70
     8
 71
     3
 72
    12
 73
     8
 74
     0
 42
0.00000001
 43
0.00000001
 12
1.0
 22
0.0
 32
0.0
 13
1.0
 23
0.0
 33
0.0
 40
0.0
 40
0.0
 40
0.0
 40
0.0
 40
0.2499999999999958
 40
0.2499999999999958
 40
0.4999999999999916
 40
0.4999999999999916
 40
1.0
 40
1.0
 40
1.0
 40
1.0
 10
74.1029507993647
 20
81.462470340156
 30
0.0
 10
74.16039296274543
 20
81.462470340156
 30
0.0
 10
74.21773651170395
 20
81.45173388887366
 30
0.0
 10
74.33215587544332
 20
81.40976980903214
 30
0.0
 10
74.38907581028019
 20
81.37815542751164
 30
0.0
 10
74.54897306190824
 20
81.25363079759889
 30
0.0
 10
74.64955076655875
 20
81.12250900036669
 30
0.0
 10
74.70245200426018
 20
80.96247034015599
 30
0.0
  0
SPLINE
  5
F3
330
1F
100
AcDbEntity
  8
0
  6
Continuous
 62
     7
370
    30
100
AcDbSpline
210
0.0
220
0.0
230
1.0
 70
     8
 71
     3
 72
     8
 73
     4
 74
     0
 42
0.00000001
 43
0.00000001
 12
1.0
 22
0.0
 32
0.0
 13
1.0
 23
0.0
 33
0.0
 40
0.0
 40
0.0
 40
0.0
 40
0.0
 40
1.0
 40
1.0
 40
1.0
 40
1.0
 10
74.70245200426011
 20
80.96247034015597
 30
0.0
 10
74.72988069281652
 20
80.87949211963343
 30
0.0
 10
74.76028782288572
 20
80.79701506338448
 30
0.0
 10
74.79298724896711
 20
80.71565316389412
 30
0.0
  0
SPLINE
  5
F4
330
1F
100
AcDbEntity
  8
0
  6
Continuous
 62
     7
370
    30
100
AcDbSpline
210
0.0
220
0.0
230
1.0
 70
    24
 71
     3
 72
     8
 73
     4
 74
     0
 42
0.00000001
 43
0.00000001
 12
1.0
 22
0.0
 32
0.0
 13
1.0
 23
0.0
 33
0.0
 40
0.0
 40
0.0
 40
0.0
 40
0.0
 40
1.0
 40
1.0
 40
1.0
 40
1.0
 10
73.03321026182266
 20
81.462470340156
 30
0.0
 10
73.37966654264255
 20
81.462470340156
 30
0.0
 10
73.74152695736126
 20
81.462470340156
 30
0.0
 10
74.1029507993647
 20
81.462470340156
 30
0.0
  0
SPLINE
  5
F5
330
1F
100
AcDbEntity
  8
0
  6
Continuous
 62
     7
370
    30
100
AcDbSpline
210
0.0
220
0.0
230
1.0
 70
     8
 71
     3
 72
    14
 73
    10
 74
     0
 42
0.00000001
 43
0.00000001
 12
1.0
 22
0.0
 32
0.0
 13
1.0
 23
0.0
 33
0.0
 40
0.0
 40
0.0
 40
0.0
 40
0.0
 40
0.25
 40
0.25
 40
0.5
 40
0.5
 40
0.75
 40
0.75
 40
1.0
 40
1.0
 40
1.0
 40
1.0
 10
74.79298724896711
 20
80.71565316389412
 30
0.0
 10
74.80777330308409
 20
80.67886287143058
 30
0.0
 10
74.8257249170503
 20
80.64311021376511
 30
0.0
 10
74.87116188843824
 20
80.5785830957939
 30
0.0
 10
74.89911287296889
 20
80.5490624344731
 30
0.0
 10
74.9686379108985
 20
80.5106742006747
 30
0.0
 10
75.01082426148936
 20
80.50425360424212
 30
0.0
 10
75.08834776923857
 20
80.526910022645
 30
0.0
 10
75.12158760490817
 20
80.55328046744344
 30
0.0
 10
75.14782343996755
 20
80.58362640620176
 30
0.0
  0
LINE
  5
F6
330
1F
100
AcDbEntity
  8
0
  6
Continuous
 62
     7
370
    30
100
AcDbLine
 10
74.1029508501
 20
81.462469309
 30
0.0
 11
76.6221284723
 21
81.462469309
 31
0.0
  0
SPLINE
  5
F7
330
1F
100
AcDbEntity
  8
0
  6
Continuous
 62
     7
370
    30
100
AcDbSpline
210
0.0
220
0.0
230
1.0
 70
     8
 71
     3
 72
    12
 73
     8
 74
     0
 42
0.00000001
 43
0.00000001
 12
1.0
 22
0.0
 32
0.0
 13
1.0
 23
0.0
 33
0.0
 40
0.0
 40
0.0
 40
0.0
 40
0.0
 40
0.2499999999999989
 40
0.2499999999999989
 40
0.4999999999999978
 40
0.4999999999999978
 40
1.0
 40
1.0
 40
1.0
 40
1.0
 10
75.4364677011234
 20
80.96247034015599
 30
0.0
 10
75.50307180015294
 20
81.06435050189289
 30
0.0
 10
75.59528632824554
 20
81.14142154800093
 30
0.0
 10
75.78640696708429
 20
81.2664110741128
 30
0.0
 10
75.88889686212471
 20
81.31472646444124
 30
0.0
 10
76.19769449167899
 20
81.42705292034887
 30
0.0
 10
76.41064409752438
 20
81.46247034015599
 30
0.0
 10
76.62212851392884
 20
81.462470340156
 30
0.0
  0
SPLINE
  5
F8
330
1F
100
AcDbEntity
  8
0
  6
Continuous
 62
     7
370
    30
100
AcDbSpline
210
0.0
220
0.0
230
1.0
 70
     8
 71
     3
 72
     8
 73
     4
 74
     0
 42
0.00000001
 43
0.00000001
 12
1.0
 22
0.0
 32
0.0
 13
1.0
 23
0.0
 33
0.0
 40
0.0
 40
0.0
 40
0.0
 40
0.0
 40
1.0
 40
1.0
 40
1.0
 40
1.0
 10
75.14782343995358
 20
80.58362640621358
 30
0.0
 10
75.25076791079613
 20
80.70269814913277
 30
0.0
 10
75.34828559045044
 20
80.82758363155146
 30
0.0
 10
75.43646770112342
 20
80.96247034015599
 30
0.0
  0
SPLINE
  5
F9
330
1F
100
AcDbEntity
  8
0
  6
Continuous
 62
     7
370
    30
100
AcDbSpline
210
0.0
220
0.0
230
1.0
 70
    24
 71
     3
 72
     8
 73
     4
 74
     0
 42
0.00000001
 43
0.00000001
 12
1.0
 22
0.0
 32
0.0
 13
1.0
 23
0.0
 33
0.0
 40
0.0
 40
0.0
 40
0.0
 40
0.0
 40
1.0
 40
1.0
 40
1.0
 40
1.0
 10
76.62212851392884
 20
81.462470340156
 30
0.0
 10
76.79636015680697
 20
81.462470340156
 30
0.0
 10
76.97047795944182
 20
81.462470340156
 30
0.0
 10
77.14442232602687
 20
81.462470340156
 30
0.0
  0
LINE
  5
FA
330
1F
100
AcDbEntity
  8
0
  6
Continuous
 62
     7
370
    30
100
AcDbLine
 10
77.9489524286
 20
200.9613256747
 30
0.0
 11
77.9489524286
 21
200.5015950495
 31
0.0
  0
SPLINE
  5
FB
330
1F
100
AcDbEntity
  8
0
  6
Continuous
 62
     7
370
    30
100
AcDbSpline
210
0.0
220
0.0
230
1.0
 70
    24
 71
     3
 72
    14
 73
    10
 74
     0
 42
0.00000001
 43
0.00000001
 12
1.0
 22
0.0
 32
0.0
 13
1.0
 23
0.0
 33
0.0
 40
0.0
 40
0.0
 40
0.0
 40
0.0
 40
0.25
 40
0.25
 40
0.5
 40
0.5
 40
0.75
 40
0.75
 40
1.0
 40
1.0
 40
1.0
 40
1.0
 10
77.14442232602705
 20
81.462470340156
 30
0.0
 10
77.27561993260237
 20
81.462470340156
 30
0.0
 10
77.39678014085136
 20
81.462470340156
 30
0.0
 10
77.60466191027326
 20
81.462470340156
 30
0.0
 10
77.69355292002727
 20
81.462470340156
 30
0.0
 10
77.83112399886691
 20
81.462470340156
 30
0.0
 10
77.8794522797203
 20
81.462470340156
 30
0.0
 10
77.93871272467752
 20
81.462470340156
 30
0.0
 10
77.94895248450702
 20
81.462470340156
 30
0.0
 10
77.94895248450702
 20
81.462470340156
 30
0.0
  0
LINE
  5
FC
330
1F
100
AcDbEntity
  8
0
  6
Continuous
 62
     7
370
    30
100
AcDbLine
 10
77.9489524286
 20
81.462469309
 30
0.0
 11
77.9489524286
 21
81.3636150056
 31
0.0
  0
LINE
  5
FD
330
1F
100
AcDbEntity
  8
0
  6
Continuous
 62
     7
370
    30
100
AcDbLine
 10
72.9489525404
 20
200.5510371024
 30
0.0
 11
72.9489525404
 21
201.2334693068
 31
0.0
  0
LINE
  5
FE
330
1F
100
AcDbEntity
  8
0
  6
Continuous
 62
     7
370
    30
100
AcDbLine
 10
72.9489525404
 20
81.0914713735
 30
0.0
 11
72.9489525404
 21
81.462469309
 31
0.0
  0
LINE
  5
FF
330
1F
100
AcDbEntity
  8
0
  6
Continuous
 62
     7
370
    30
100
AcDbLine
 10
77.9489524286
 20
205.2544433469
 30
0.0
 11
77.9489524286
 21
200.9613256747
 31
0.0
  0
LINE
  5
100
330
1F
100
AcDbEntity
  8
0
  6
Continuous
 62
     7
370
    30
100
AcDbLine
 10
77.9489524286
 20
81.3636150056
 30
0.0
 11
77.9489524286
 21
77.0704973334
 31
0.0
  0
LINE
  5
101
330
1F
100
AcDbEntity
  8
0
  6
Continuous
 62
     7
370
    30
100
AcDbLine
 10
72.9489525404
 20
201.2334693068
 30
0.0
 11
72.9489525404
 21
205.5412161941
 31
0.0
  0
LINE
  5
102
330
1F
100
AcDbEntity
  8
0
  6
Continuous
 62
     7
370
    30
100
AcDbLine
 10
72.9489525404
 20
76.7837244863
 30
0.0
 11
72.9489525404
 21
81.0914713735
 31
0.0
  0
LINE
  5
103
330
1F
100
AcDbEntity
  8
0
  6
Continuous
 62
     7
370
    30
100
AcDbLine
 10
77.9489524286
 20
82.6624709958
 30
0.0
 11
77.9489524286
 21
81.4556669289
 31
0.0
  0
LINE
  5
104
330
1F
100
AcDbEntity
  8
0
  6
Continuous
 62
     7
370
    30
100
AcDbLine
 10
72.9489525404
 20
82.6624709958
 30
0.0
 11
72.9489525404
 21
81.4556669289
 31
0.0
  0
ARC
  5
105
330
1F
100
AcDbEntity
  8
0
  6
Continuous
 62
     7
370
    30
100
AcDbCircle
 10
232.2763103239
 20
74.9624703402
 30
0.0
 40
0.2999999999999918
100
AcDbArc
 50
242.3773350817
 51
315.9835840236
  0
ARC
  5
106
330
1F
100
AcDbEntity
  8
0
  6
Continuous
 62
     7
370
    30
100
AcDbCircle
 10
232.2763103239
 20
207.3624703402
 30
0.0
 40
0.2999999999999949
100
AcDbArc
 50
44.0164159764
 51
117.6226649183
  0
LINE
  5
107
330
1F
100
AcDbEntity
  8
0
  6
Continuous
 62
     7
370
    30
100
AcDbLine
 10
232.1372163502
 20
207.6282728309
 30
0.0
 11
230.1406174744
 21
206.5834704632
 31
0.0
  0
LINE
  5
108
330
1F
100
AcDbEntity
  8
0
  6
Continuous
 62
     7
370
    30
100
AcDbLine
 10
230.1406174744
 20
75.7414702171
 30
0.0
 11
232.1372163502
 21
74.6966678494
 31
0.0
  0
LINE
  5
109
330
1F
100
AcDbEntity
  8
0
  6
Continuous
 62
     7
370
    30
100
AcDbLine
 10
232.4920525504
 20
74.7540075177
 30
0.0
 11
234.2518295706
 21
76.5752721423
 31
0.0
  0
LINE
  5
10A
330
1F
100
AcDbEntity
  8
0
  6
Continuous
 62
     7
370
    30
100
AcDbLine
 10
234.2518295706
 20
205.749668538
 30
0.0
 11
232.4920525504
 21
207.5709331626
 31
0.0
  0
ARC
  5
10B
330
1F
100
AcDbEntity
  8
0
  6
Continuous
 62
     7
370
    30
100
AcDbCircle
 10
230.8360873111
 20
205.2544435009
 30
0.0
 40
1.5
100
AcDbArc
 50
117.6226649183
 51
180.0
  0
ARC
  5
10C
330
1F
100
AcDbEntity
  8
0
  6
Continuous
 62
     7
370
    30
100
AcDbCircle
 10
230.8360873111
 20
77.0704971795
 30
0.0
 40
1.500000000000001
100
AcDbArc
 50
180.0
 51
242.3773350817
  0
ARC
  5
10D
330
1F
100
AcDbEntity
  8
0
  6
Continuous
 62
     7
370
    30
100
AcDbCircle
 10
234.0360873111
 20
76.7837282032
 30
0.0
 40
0.3000000000000017
100
AcDbArc
 50
315.9835840236
 51
0.0
  0
ARC
  5
10E
330
1F
100
AcDbEntity
  8
0
  6
Continuous
 62
     7
370
    30
100
AcDbCircle
 10
234.0360873111
 20
205.5412124772
 30
0.0
 40
0.3000000000000115
100
AcDbArc
 50
0.0
 51
44.0164159764
  0
SPLINE
  5
10F
330
1F
100
AcDbEntity
  8
0
  6
Continuous
 62
     7
370
    30
100
AcDbSpline
210
0.0
220
0.0
230
1.0
 70
    24
 71
     3
 72
    10
 73
     6
 74
     0
 42
0.00000001
 43
0.00000001
 12
1.0
 22
0.0
 32
0.0
 13
1.0
 23
0.0
 33
0.0
 40
0.0
 40
0.0
 40
0.0
 40
0.0
 40
0.4999999999999998
 40
0.4999999999999998
 40
1.0
 40
1.0
 40
1.0
 40
1.0
 10
232.1372163556443
 20
199.662470340156
 30
0.0
 10
232.194416007441
 20
199.662470340156
 30
0.0
 10
232.2604790801588
 20
199.662470340156
 30
0.0
 10
232.3877749378696
 20
199.662470340156
 30
0.0
 10
232.4476718479734
 20
199.662470340156
 30
0.0
 10
232.4920525466307
 20
199.662470340156
 30
0.0
  0
LINE
  5
110
330
1F
100
AcDbEntity
  8
0
  6
Continuous
 62
     7
370
    30
100
AcDbLine
 10
230.1406174744
 20
199.6624696845
 30
0.0
 11
232.1372163502
 21
199.6624696845
 31
0.0
  0
LINE
  5
111
330
1F
100
AcDbEntity
  8
0
  6
Continuous
 62
     7
370
    30
100
AcDbLine
 10
232.4920525504
 20
199.6624696845
 30
0.0
 11
234.2518295706
 21
199.6624696845
 31
0.0
  0
LINE
  5
112
330
1F
100
AcDbEntity
  8
0
  6
Continuous
 62
     7
370
    30
100
AcDbLine
 10
229.336087367
 20
81.8233456308
 30
0.0
 11
229.336087367
 21
199.6624696845
 31
0.0
  0
SPLINE
  5
113
330
1F
100
AcDbEntity
  8
0
  6
Continuous
 62
     7
370
    30
100
AcDbSpline
210
0.0
220
0.0
230
1.0
 70
    24
 71
     3
 72
    14
 73
    10
 74
     0
 42
0.00000001
 43
0.00000001
 12
1.0
 22
0.0
 32
0.0
 13
1.0
 23
0.0
 33
0.0
 40
0.0
 40
0.0
 40
0.0
 40
0.0
 40
0.2499999999999999
 40
0.2499999999999999
 40
0.4999999999999999
 40
0.4999999999999999
 40
0.7499999999999998
 40
0.7499999999999998
 40
1.0
 40
1.0
 40
1.0
 40
1.0
 10
229.3360873110907
 20
199.662470340156
 30
0.0
 10
229.3360873110907
 20
199.662470340156
 30
0.0
 10
229.354863763506
 20
199.662470340156
 30
0.0
 10
229.4278130311191
 20
199.662470340156
 30
0.0
 10
229.4812008750594
 20
199.662470340156
 30
0.0
 10
229.6228297267803
 20
199.662470340156
 30
0.0
 10
229.7082864458111
 20
199.662470340156
 30
0.0
 10
229.9067214824437
 20
199.662470340156
 30
0.0
 10
230.0198730512054
 20
199.662470340156
 30
0.0
 10
230.1406174695715
 20
199.662470340156
 30
0.0
  0
LINE
  5
114
330
1F
100
AcDbEntity
  8
0
  6
Continuous
 62
     7
370
    30
100
AcDbLine
 10
234.3360872552
 20
199.6624696845
 30
0.0
 11
234.3360872552
 21
81.7739035779
 31
0.0
  0
SPLINE
  5
115
330
1F
100
AcDbEntity
  8
0
  6
Continuous
 62
     7
370
    30
100
AcDbSpline
210
0.0
220
0.0
230
1.0
 70
    24
 71
     3
 72
    10
 73
     6
 74
     0
 42
0.00000001
 43
0.00000001
 12
1.0
 22
0.0
 32
0.0
 13
1.0
 23
0.0
 33
0.0
 40
0.0
 40
0.0
 40
0.0
 40
0.0
 40
0.5
 40
0.5
 40
1.0
 40
1.0
 40
1.0
 40
1.0
 10
234.2518295337731
 20
199.662470340156
 30
0.0
 10
234.2785460863588
 20
199.662470340156
 30
0.0
 10
234.2999385369778
 20
199.662470340156
 30
0.0
 10
234.3286586420432
 20
199.662470340156
 30
0.0
 10
234.3360873110907
 20
199.662470340156
 30
0.0
 10
234.3360873110907
 20
199.662470340156
 30
0.0
  0
SPLINE
  5
116
330
1F
100
AcDbEntity
  8
0
  6
Continuous
 62
     7
370
    30
100
AcDbSpline
210
0.0
220
0.0
230
1.0
 70
     8
 71
     3
 72
     8
 73
     4
 74
     0
 42
0.00000001
 43
0.00000001
 12
1.0
 22
0.0
 32
0.0
 13
1.0
 23
0.0
 33
0.0
 40
0.0
 40
0.0
 40
0.0
 40
0.0
 40
1.0
 40
1.0
 40
1.0
 40
1.0
 10
232.4920525466306
 20
201.6092875164178
 30
0.0
 10
232.5247351251589
 20
201.5279675365906
 30
0.0
 10
232.5550592723743
 20
201.4457505710898
 30
0.0
 10
232.5825877913375
 20
201.362470340156
 30
0.0
  0
SPLINE
  5
117
330
1F
100
AcDbEntity
  8
0
  6
Continuous
 62
     7
370
    30
100
AcDbSpline
210
0.0
220
0.0
230
1.0
 70
    24
 71
     3
 72
     8
 73
     4
 74
     0
 42
0.00000001
 43
0.00000001
 12
1.0
 22
0.0
 32
0.0
 13
1.0
 23
0.0
 33
0.0
 40
0.0
 40
0.0
 40
0.0
 40
0.0
 40
1.0
 40
1.0
 40
1.0
 40
1.0
 10
233.182088996233
 20
200.862470340156
 30
0.0
 10
233.5434885834293
 20
200.862470340156
 30
0.0
 10
233.9053246465601
 20
200.862470340156
 30
0.0
 10
234.2518295337733
 20
200.862470340156
 30
0.0
  0
SPLINE
  5
118
330
1F
100
AcDbEntity
  8
0
  6
Continuous
 62
     7
370
    30
100
AcDbSpline
210
0.0
220
0.0
230
1.0
 70
     8
 71
     3
 72
    10
 73
     6
 74
     0
 42
0.00000001
 43
0.00000001
 12
1.0
 22
0.0
 32
0.0
 13
1.0
 23
0.0
 33
0.0
 40
0.0
 40
0.0
 40
0.0
 40
0.0
 40
0.5
 40
0.5
 40
1.0
 40
1.0
 40
1.0
 40
1.0
 10
232.5825877913375
 20
201.362470340156
 30
0.0
 10
232.6353273641638
 20
201.2029207541362
 30
0.0
 10
232.7349754356599
 20
201.0724118032166
 30
0.0
 10
232.9487647938728
 20
200.9054149150347
 30
0.0
 10
233.0674556026864
 20
200.862470340156
 30
0.0
 10
233.182088996233
 20
200.862470340156
 30
0.0
  0
LINE
  5
119
330
1F
100
AcDbEntity
  8
0
  6
Continuous
 62
     7
370
    30
100
AcDbLine
 10
233.1820889455
 20
200.8624713713
 30
0.0
 11
230.6629113233
 21
200.8624713713
 31
0.0
  0
SPLINE
  5
11A
330
1F
100
AcDbEntity
  8
0
  6
Continuous
 62
     7
370
    30
100
AcDbSpline
210
0.0
220
0.0
230
1.0
 70
     8
 71
     3
 72
    14
 73
    10
 74
     0
 42
0.00000001
 43
0.00000001
 12
1.0
 22
0.0
 32
0.0
 13
1.0
 23
0.0
 33
0.0
 40
0.0
 40
0.0
 40
0.0
 40
0.0
 40
0.4999999999999976
 40
0.4999999999999976
 40
0.749999999999994
 40
0.749999999999994
 40
0.874999999999997
 40
0.874999999999997
 40
1.0
 40
1.0
 40
1.0
 40
1.0
 10
230.6629112816689
 20
200.862470340156
 30
0.0
 10
230.8746815344185
 20
200.862470340156
 30
0.0
 10
231.0840059363714
 20
200.8969626662675
 30
0.0
 10
231.3948743898463
 20
201.0096100142221
 30
0.0
 10
231.4968145902775
 20
201.0574519230327
 30
0.0
 10
231.6416504614276
 20
201.1520056168604
 30
0.0
 10
231.6880868555888
 20
201.1870843172917
 30
0.0
 10
231.7747114452111
 20
201.2667298718187
 30
0.0
 10
231.8153955081184
 20
201.3117221725045
 30
0.0
 10
231.8485720944744
 20
201.362470340156
 30
0.0
  0
SPLINE
  5
11B
330
1F
100
AcDbEntity
  8
0
  6
Continuous
 62
     7
370
    30
100
AcDbSpline
210
0.0
220
0.0
230
1.0
 70
     8
 71
     3
 72
     8
 73
     4
 74
     0
 42
0.00000001
 43
0.00000001
 12
1.0
 22
0.0
 32
0.0
 13
1.0
 23
0.0
 33
0.0
 40
0.0
 40
0.0
 40
0.0
 40
0.0
 40
1.0
 40
1.0
 40
1.0
 40
1.0
 10
231.8485720944743
 20
201.362470340156
 30
0.0
 10
231.9362364381425
 20
201.4965650526678
 30
0.0
 10
232.0337599589348
 20
201.6216504070491
 30
0.0
 10
232.1372163556443
 20
201.7413142740982
 30
0.0
  0
SPLINE
  5
11C
330
1F
100
AcDbEntity
  8
0
  6
Continuous
 62
     7
370
    30
100
AcDbSpline
210
0.0
220
0.0
230
1.0
 70
     8
 71
     3
 72
    14
 73
    10
 74
     0
 42
0.00000001
 43
0.00000001
 12
1.0
 22
0.0
 32
0.0
 13
1.0
 23
0.0
 33
0.0
 40
0.0
 40
0.0
 40
0.0
 40
0.0
 40
0.2499999999999998
 40
0.2499999999999998
 40
0.4999999999999997
 40
0.4999999999999997
 40
0.7499999999999998
 40
0.7499999999999998
 40
1.0
 40
1.0
 40
1.0
 40
1.0
 10
232.1372163556425
 20
201.7413142740996
 30
0.0
 10
232.1630353596599
 20
201.7711780810982
 30
0.0
 10
232.1959090653586
 20
201.7973618525723
 30
0.0
 10
232.271909014207
 20
201.8204354523878
 30
0.0
 10
232.3148526328469
 20
201.8147853009721
 30
0.0
 10
232.3851266660938
 20
201.7766456289335
 30
0.0
 10
232.4134873505948
 20
201.7468736926868
 30
0.0
 10
232.4594599309569
 20
201.6816628047305
 30
0.0
 10
232.4771983532345
 20
201.6462473513426
 30
0.0
 10
232.4920525466306
 20
201.6092875164178
 30
0.0
  0
SPLINE
  5
11D
330
1F
100
AcDbEntity
  8
0
  6
Continuous
 62
     7
370
    30
100
AcDbSpline
210
0.0
220
0.0
230
1.0
 70
    24
 71
     3
 72
     8
 73
     4
 74
     0
 42
0.00000001
 43
0.00000001
 12
1.0
 22
0.0
 32
0.0
 13
1.0
 23
0.0
 33
0.0
 40
0.0
 40
0.0
 40
0.0
 40
0.0
 40
1.0
 40
1.0
 40
1.0
 40
1.0
 10
230.1406174695709
 20
200.862470340156
 30
0.0
 10
230.3145650175071
 20
200.862470340156
 30
0.0
 10
230.4886824130954
 20
200.862470340156
 30
0.0
 10
230.6629112816689
 20
200.862470340156
 30
0.0
  0
LINE
  5
11E
330
1F
100
AcDbEntity
  8
0
  6
Continuous
 62
     7
370
    30
100
AcDbLine
 10
229.336087367
 20
81.3636150056
 30
0.0
 11
229.336087367
 21
81.8233456308
 31
0.0
  0
SPLINE
  5
11F
330
1F
100
AcDbEntity
  8
0
  6
Continuous
 62
     7
370
    30
100
AcDbSpline
210
0.0
220
0.0
230
1.0
 70
    24
 71
     3
 72
    14
 73
    10
 74
     0
 42
0.00000001
 43
0.00000001
 12
1.0
 22
0.0
 32
0.0
 13
1.0
 23
0.0
 33
0.0
 40
0.0
 40
0.0
 40
0.0
 40
0.0
 40
0.25
 40
0.25
 40
0.5
 40
0.5
 40
0.75
 40
0.75
 40
1.0
 40
1.0
 40
1.0
 40
1.0
 10
230.1406174695707
 20
200.862470340156
 30
0.0
 10
230.0094198629954
 20
200.862470340156
 30
0.0
 10
229.8882596547464
 20
200.862470340156
 30
0.0
 10
229.6803778853245
 20
200.862470340156
 30
0.0
 10
229.5914868755705
 20
200.862470340156
 30
0.0
 10
229.4539157967308
 20
200.862470340156
 30
0.0
 10
229.4055875158774
 20
200.862470340156
 30
0.0
 10
229.3463270709202
 20
200.862470340156
 30
0.0
 10
229.3360873110907
 20
200.862470340156
 30
0.0
 10
229.3360873110907
 20
200.862470340156
 30
0.0
  0
LINE
  5
120
330
1F
100
AcDbEntity
  8
0
  6
Continuous
 62
     7
370
    30
100
AcDbLine
 10
229.336087367
 20
200.8624713713
 30
0.0
 11
229.336087367
 21
200.9613256747
 31
0.0
  0
LINE
  5
121
330
1F
100
AcDbEntity
  8
0
  6
Continuous
 62
     7
370
    30
100
AcDbLine
 10
234.3360872552
 20
81.7739035779
 30
0.0
 11
234.3360872552
 21
81.0914713735
 31
0.0
  0
LINE
  5
122
330
1F
100
AcDbEntity
  8
0
  6
Continuous
 62
     7
370
    30
100
AcDbLine
 10
234.3360872552
 20
201.2334693068
 30
0.0
 11
234.3360872552
 21
200.8624713713
 31
0.0
  0
LINE
  5
123
330
1F
100
AcDbEntity
  8
0
  6
Continuous
 62
     7
370
    30
100
AcDbLine
 10
229.336087367
 20
200.9613256747
 30
0.0
 11
229.336087367
 21
205.2544433469
 31
0.0
  0
LINE
  5
124
330
1F
100
AcDbEntity
  8
0
  6
Continuous
 62
     7
370
    30
100
AcDbLine
 10
229.336087367
 20
77.0704973334
 30
0.0
 11
229.336087367
 21
81.3636150056
 31
0.0
  0
LINE
  5
125
330
1F
100
AcDbEntity
  8
0
  6
Continuous
 62
     7
370
    30
100
AcDbLine
 10
234.3360872552
 20
81.0914713735
 30
0.0
 11
234.3360872552
 21
76.7837244863
 31
0.0
  0
LINE
  5
126
330
1F
100
AcDbEntity
  8
0
  6
Continuous
 62
     7
370
    30
100
AcDbLine
 10
234.3360872552
 20
205.5412161941
 30
0.0
 11
234.3360872552
 21
201.2334693068
 31
0.0
  0
LINE
  5
127
330
1F
100
AcDbEntity
  8
0
  6
Continuous
 62
     7
370
    30
100
AcDbLine
 10
229.336087367
 20
200.8664052779
 30
0.0
 11
229.336087367
 21
199.6624696845
 31
0.0
  0
LINE
  5
128
330
1F
100
AcDbEntity
  8
0
  6
Continuous
 62
     7
370
    30
100
AcDbLine
 10
234.3360872552
 20
200.8664052779
 30
0.0
 11
234.3360872552
 21
199.6624696845
 31
0.0
  0
ARC
  5
129
330
1F
100
AcDbEntity
  8
0
  6
Continuous
 62
     7
370
    30
100
AcDbCircle
 10
2.3065022927
 20
141.1624703402
 30
0.0
 40
346.5909090909084
100
AcDbArc
 50
350.2826859352
 51
0.0
  0
ARC
  5
12A
330
1F
100
AcDbEntity
  8
0
  6
Continuous
 62
     7
370
    30
100
AcDbCircle
 10
2.3065022927
 20
141.1624703402
 30
0.0
 40
346.5909090909085
100
AcDbArc
 50
0.0
 51
9.9277270789
  0
ARC
  5
12B
330
1F
100
AcDbEntity
  8
0
  6
Continuous
 62
     7
370
    30
100
AcDbCircle
 10
340.7524843274
 20
200.3995368988
 30
0.0
 40
2.999999999999915
100
AcDbArc
 50
9.9277270789
 51
71.6239683823
  0
ARC
  5
12C
330
1F
100
AcDbEntity
  8
0
  6
Continuous
 62
     7
370
    30
100
AcDbCircle
 10
340.7524843274
 20
81.9254037815
 30
0.0
 40
2.999999999999915
100
AcDbArc
 50
288.3760316177
 51
332.1818542265
  0
ARC
  5
12D
330
1F
100
AcDbEntity
  8
0
  6
Continuous
 62
     7
370
    30
100
AcDbCircle
 10
314.3974113836
 20
161.2624703402
 30
0.0
 40
86.60000000000002
100
AcDbArc
 50
251.6239683823
 51
288.3760316177
  0
ARC
  5
12E
330
1F
100
AcDbEntity
  8
0
  6
Continuous
 62
     7
370
    30
100
AcDbCircle
 10
314.3974113836
 20
121.0624703402
 30
0.0
 40
86.60000000000004
100
AcDbArc
 50
71.6239683823
 51
108.3760316177
  0
ARC
  5
12F
330
1F
100
AcDbEntity
  8
0
  6
Continuous
 62
     7
370
    30
100
AcDbCircle
 10
626.4883204745
 20
141.1624703402
 30
0.0
 40
346.5909090909084
100
AcDbArc
 50
170.2825781327
 51
189.9277270789
  0
ARC
  5
130
330
1F
100
AcDbEntity
  8
0
  6
Continuous
 62
     7
370
    30
100
AcDbCircle
 10
288.0423384398
 20
200.3995368988
 30
0.0
 40
2.999999999999978
100
AcDbArc
 50
108.3760316177
 51
151.878383606
  0
ARC
  5
131
330
1F
100
AcDbEntity
  8
0
  6
Continuous
 62
     7
370
    30
100
AcDbCircle
 10
288.0423384398
 20
81.9254037815
 30
0.0
 40
3.000000000000003
100
AcDbArc
 50
189.9277270789
 51
251.6239683823
  0
CIRCLE
  5
132
330
1F
100
AcDbEntity
  8
0
  6
Continuous
 62
     7
370
    30
100
AcDbCircle
 10
314.3974113836
 20
191.6624703402
 30
0.0
 40
4.0
  0
CIRCLE
  5
133
330
1F
100
AcDbEntity
  8
0
  6
Continuous
 62
     7
370
    30
100
AcDbCircle
 10
314.3974113836
 20
90.6624703402
 30
0.0
 40
4.0
  0
CIRCLE
  5
134
330
1F
100
AcDbEntity
  8
0
  6
Continuous
 62
     7
370
    30
100
AcDbCircle
 10
314.3974113836
 20
191.6624703402
 30
0.0
 40
1.750000000000057
  0
CIRCLE
  5
135
330
1F
100
AcDbEntity
  8
0
  6
Continuous
 62
     7
370
    30
100
AcDbCircle
 10
314.3974113836
 20
90.6624703402
 30
0.0
 40
1.750000000000057
  0
SPLINE
  5
136
330
1F
100
AcDbEntity
  8
0
  6
Continuous
 62
     7
370
    30
100
AcDbSpline
210
0.0
220
0.0
230
1.0
 70
    24
 71
     3
 72
    10
 73
     6
 74
     0
 42
0.00000001
 43
0.00000001
 12
1.0
 22
0.0
 32
0.0
 13
1.0
 23
0.0
 33
0.0
 40
0.0
 40
0.0
 40
0.0
 40
0.0
 40
0.5
 40
0.5
 40
1.0
 40
1.0
 40
1.0
 40
1.0
 10
341.4993982261882
 20
81.462470340156
 30
0.0
 10
341.5417871928299
 20
81.462470340156
 30
0.0
 10
341.584961927782
 20
81.462470340156
 30
0.0
 10
341.6654484502822
 20
81.462470340156
 30
0.0
 10
341.7040960344156
 20
81.462470340156
 30
0.0
 10
341.7362015959208
 20
81.462470340156
 30
0.0
  0
SPLINE
  5
137
330
1F
100
AcDbEntity
  8
0
  6
Continuous
 62
     7
370
    30
100
AcDbSpline
210
0.0
220
0.0
230
1.0
 70
    24
 71
     3
 72
    10
 73
     6
 74
     0
 42
0.00000001
 43
0.00000001
 12
1.0
 22
0.0
 32
0.0
 13
1.0
 23
0.0
 33
0.0
 40
0.0
 40
0.0
 40
0.0
 40
0.0
 40
0.5
 40
0.5
 40
1.0
 40
1.0
 40
1.0
 40
1.0
 10
287.2954245410129
 20
200.862470340156
 30
0.0
 10
287.2527988415717
 20
200.862470340156
 30
0.0
 10
287.2104105668695
 20
200.862470340156
 30
0.0
 10
287.1288944804472
 20
200.862470340156
 30
0.0
 10
287.0908774235936
 20
200.862470340156
 30
0.0
 10
287.0586211712784
 20
200.862470340156
 30
0.0
  0
SPLINE
  5
138
330
1F
100
AcDbEntity
  8
0
  6
Continuous
 62
     7
370
    30
100
AcDbSpline
210
0.0
220
0.0
230
1.0
 70
    24
 71
     3
 72
    10
 73
     6
 74
     0
 42
0.00000001
 43
0.00000001
 12
1.0
 22
0.0
 32
0.0
 13
1.0
 23
0.0
 33
0.0
 40
0.0
 40
0.0
 40
0.0
 40
0.0
 40
0.5
 40
0.5
 40
1.0
 40
1.0
 40
1.0
 40
1.0
 10
341.9839226484859
 20
82.662470340156
 30
0.0
 10
341.9556099619936
 20
82.662470340156
 30
0.0
 10
341.9226977789563
 20
82.66247034015599
 30
0.0
 10
341.8498283048995
 20
82.662470340156
 30
0.0
 10
341.8113496473067
 20
82.66247034015599
 30
0.0
 10
341.7723925041755
 20
82.662470340156
 30
0.0
  0
SPLINE
  5
139
330
1F
100
AcDbEntity
  8
0
  6
Continuous
 62
     7
370
    30
100
AcDbSpline
210
0.0
220
0.0
230
1.0
 70
    24
 71
     3
 72
    10
 73
     6
 74
     0
 42
0.00000001
 43
0.00000001
 12
1.0
 22
0.0
 32
0.0
 13
1.0
 23
0.0
 33
0.0
 40
0.0
 40
0.0
 40
0.0
 40
0.0
 40
0.5
 40
0.5
 40
1.0
 40
1.0
 40
1.0
 40
1.0
 10
286.8109001187152
 20
199.662470340156
 30
0.0
 10
286.8389571197506
 20
199.662470340156
 30
0.0
 10
286.8724154920762
 20
199.662470340156
 30
0.0
 10
286.9446512484336
 20
199.662470340156
 30
0.0
 10
286.9833695121433
 20
199.662470340156
 30
0.0
 10
287.0224302630256
 20
199.662470340156
 30
0.0
  0
ARC
  5
13A
330
1F
100
AcDbEntity
  8
0
  6
Continuous
 62
     7
370
    30
100
AcDbCircle
 10
337.8810226902
 20
200.4624703402
 30
0.0
 40
0.8000000000000054
100
AcDbArc
 50
270.0
 51
73.5237129819
  0
ARC
  5
13B
330
1F
100
AcDbEntity
  8
0
  6
Continuous
 62
     7
370
    30
100
AcDbCircle
 10
314.3974113836
 20
121.0624703402
 30
0.0
 40
83.60000000000002
100
AcDbArc
 50
73.5237129819
 51
106.4762870181
  0
ARC
  5
13C
330
1F
100
AcDbEntity
  8
0
  6
Continuous
 62
     7
370
    30
100
AcDbCircle
 10
290.913800077
 20
200.4624703402
 30
0.0
 40
0.8000000000000216
100
AcDbArc
 50
106.4762870181
 51
150.0
  0
ARC
  5
13D
330
1F
100
AcDbEntity
  8
0
  6
Continuous
 62
     7
370
    30
100
AcDbCircle
 10
290.913800077
 20
81.8624703402
 30
0.0
 40
0.8000000000000079
100
AcDbArc
 50
90.0
 51
253.5237129819
  0
ARC
  5
13E
330
1F
100
AcDbEntity
  8
0
  6
Continuous
 62
     7
370
    30
100
AcDbCircle
 10
314.3974113836
 20
161.2624703402
 30
0.0
 40
83.60000000000001
100
AcDbArc
 50
253.5237129819
 51
286.4762870181
  0
ARC
  5
13F
330
1F
100
AcDbEntity
  8
0
  6
Continuous
 62
     7
370
    30
100
AcDbCircle
 10
337.8810226902
 20
81.8624703402
 30
0.0
 40
0.7999999999999996
100
AcDbArc
 50
286.4762870181
 51
330.0
  0
ARC
  5
140
330
1F
100
AcDbEntity
  8
0
  6
Continuous
 62
     7
370
    30
100
AcDbCircle
 10
289.5189610758
 20
197.1624703402
 30
0.0
 40
1.0
100
AcDbArc
 50
90.0
 51
170.564407875
  0
ARC
  5
141
330
1F
100
AcDbEntity
  8
0
  6
Continuous
 62
     7
370
    30
100
AcDbCircle
 10
626.4883204745
 20
141.1624703402
 30
0.0
 40
342.5909090909085
100
AcDbArc
 50
170.564407875
 51
189.435592125
  0
ARC
  5
142
330
1F
100
AcDbEntity
  8
0
  6
Continuous
 62
     7
370
    30
100
AcDbCircle
 10
289.5189610758
 20
85.1624703402
 30
0.0
 40
1.0
100
AcDbArc
 50
189.435592125
 51
270.0
  0
LINE
  5
143
330
1F
100
AcDbEntity
  8
0
  6
Continuous
 62
     7
370
    30
100
AcDbLine
 10
289.5189616456
 20
84.1624703104
 30
0.0
 11
339.2758611216
 21
84.1624703104
 31
0.0
  0
ARC
  5
144
330
1F
100
AcDbEntity
  8
0
  6
Continuous
 62
     7
370
    30
100
AcDbCircle
 10
339.2758616914
 20
85.1624703402
 30
0.0
 40
1.000000000000029
100
AcDbArc
 50
270.0
 51
350.564407875
  0
ARC
  5
145
330
1F
100
AcDbEntity
  8
0
  6
Continuous
 62
     7
370
    30
100
AcDbCircle
 10
2.3065022927
 20
141.1624703402
 30
0.0
 40
342.5909090909084
100
AcDbArc
 50
350.564407875
 51
9.435592125
  0
ARC
  5
146
330
1F
100
AcDbEntity
  8
0
  6
Continuous
 62
     7
370
    30
100
AcDbCircle
 10
339.2758616914
 20
197.1624703402
 30
0.0
 40
1.000000000000029
100
AcDbArc
 50
9.435592125
 51
90.0
  0
LINE
  5
147
330
1F
100
AcDbEntity
  8
0
  6
Continuous
 62
     7
370
    30
100
AcDbLine
 10
339.2758611216
 20
198.16247037
 30
0.0
 11
289.5189616456
 21
198.16247037
 31
0.0
  0
LINE
  5
148
330
1F
100
AcDbEntity
  8
0
  6
Continuous
 62
     7
370
    30
100
AcDbLine
 10
337.8810230269
 20
199.6624696845
 30
0.0
 11
287.0224304124
 21
199.6624696845
 31
0.0
  0
LINE
  5
149
330
1F
100
AcDbEntity
  8
0
  6
Continuous
 62
     7
370
    30
100
AcDbLine
 10
341.7723923548
 20
82.6624709958
 30
0.0
 11
290.9137997403
 21
82.6624709958
 31
0.0
  0
LINE
  5
14A
330
1F
100
AcDbEntity
  8
0
  6
Continuous
 62
     7
370
    30
100
AcDbLine
 10
287.2954252734
 20
200.8624713713
 30
0.0
 11
290.2209795638
 21
200.8624713713
 31
0.0
  0
LINE
  5
14B
330
1F
100
AcDbEntity
  8
0
  6
Continuous
 62
     7
370
    30
100
AcDbLine
 10
341.4993974938
 20
81.462469309
 30
0.0
 11
338.5738432034
 21
81.462469309
 31
0.0
  0
SPLINE
  5
14C
330
1F
100
AcDbEntity
  8
0
  6
Continuous
 62
     7
370
    30
100
AcDbSpline
210
0.0
220
0.0
230
1.0
 70
     8
 71
     3
 72
    12
 73
     8
 74
     0
 42
0.00000001
 43
0.00000001
 12
1.0
 22
0.0
 32
0.0
 13
1.0
 23
0.0
 33
0.0
 40
0.0
 40
0.0
 40
0.0
 40
0.0
 40
0.2499999999999958
 40
0.2499999999999958
 40
0.4999999999999916
 40
0.4999999999999916
 40
1.0
 40
1.0
 40
1.0
 40
1.0
 10
342.8974113836005
 20
81.462470340156
 30
0.0
 10
342.9582292372118
 20
81.462470340156
 30
0.0
 10
343.0165952510247
 20
81.45173388887366
 30
0.0
 10
343.1287267516614
 20
81.40976980903214
 30
0.0
 10
343.1822305513156
 20
81.37815542751164
 30
0.0
 10
343.3227227855318
 20
81.25363079759889
 30
0.0
 10
343.3974113836005
 20
81.12250900036669
 30
0.0
 10
343.3974113836005
 20
80.96247034015599
 30
0.0
  0
SPLINE
  5
14D
330
1F
100
AcDbEntity
  8
0
  6
Continuous
 62
     7
370
    30
100
AcDbSpline
210
0.0
220
0.0
230
1.0
 70
    24
 71
     3
 72
     8
 73
     4
 74
     0
 42
0.00000001
 43
0.00000001
 12
1.0
 22
0.0
 32
0.0
 13
1.0
 23
0.0
 33
0.0
 40
0.0
 40
0.0
 40
0.0
 40
0.0
 40
1.0
 40
1.0
 40
1.0
 40
1.0
 10
343.3974113836005
 20
80.96247034015597
 30
0.0
 10
343.3974113836005
 20
80.87949211963343
 30
0.0
 10
343.3974113836005
 20
80.79701506338448
 30
0.0
 10
343.3974113836005
 20
80.71565316389412
 30
0.0
  0
SPLINE
  5
14E
330
1F
100
AcDbEntity
  8
0
  6
Continuous
 62
     7
370
    30
100
AcDbSpline
210
0.0
220
0.0
230
1.0
 70
    24
 71
     3
 72
     8
 73
     4
 74
     0
 42
0.00000001
 43
0.00000001
 12
1.0
 22
0.0
 32
0.0
 13
1.0
 23
0.0
 33
0.0
 40
0.0
 40
0.0
 40
0.0
 40
0.0
 40
1.0
 40
1.0
 40
1.0
 40
1.0
 10
341.7362015959211
 20
81.462470340156
 30
0.0
 10
342.1324814370743
 20
81.462470340156
 30
0.0
 10
342.5147478308913
 20
81.462470340156
 30
0.0
 10
342.8974113836005
 20
81.462470340156
 30
0.0
  0
SPLINE
  5
14F
330
1F
100
AcDbEntity
  8
0
  6
Continuous
 62
     7
370
    30
100
AcDbSpline
210
0.0
220
0.0
230
1.0
 70
    24
 71
     3
 72
     8
 73
     4
 74
     0
 42
0.00000001
 43
0.00000001
 12
1.0
 22
0.0
 32
0.0
 13
1.0
 23
0.0
 33
0.0
 40
0.0
 40
0.0
 40
0.0
 40
0.0
 40
1.0
 40
1.0
 40
1.0
 40
1.0
 10
285.3974113836005
 20
201.6092875164178
 30
0.0
 10
285.3974113836005
 20
201.5279675365906
 30
0.0
 10
285.3974113836005
 20
201.4457505710898
 30
0.0
 10
285.3974113836005
 20
201.362470340156
 30
0.0
  0
SPLINE
  5
150
330
1F
100
AcDbEntity
  8
0
  6
Continuous
 62
     7
370
    30
100
AcDbSpline
210
0.0
220
0.0
230
1.0
 70
     8
 71
     3
 72
    10
 73
     6
 74
     0
 42
0.00000001
 43
0.00000001
 12
1.0
 22
0.0
 32
0.0
 13
1.0
 23
0.0
 33
0.0
 40
0.0
 40
0.0
 40
0.0
 40
0.0
 40
0.5
 40
0.5
 40
1.0
 40
1.0
 40
1.0
 40
1.0
 10
285.3974113836005
 20
201.362470340156
 30
0.0
 10
285.3974113836005
 20
201.2029207541362
 30
0.0
 10
285.4712116899429
 20
201.0724118032166
 30
0.0
 10
285.6589151108992
 20
200.9054149150347
 30
0.0
 10
285.7760413561267
 20
200.862470340156
 30
0.0
 10
285.8974113836005
 20
200.862470340156
 30
0.0
  0
SPLINE
  5
151
330
1F
100
AcDbEntity
  8
0
  6
Continuous
 62
     7
370
    30
100
AcDbSpline
210
0.0
220
0.0
230
1.0
 70
    24
 71
     3
 72
     8
 73
     4
 74
     0
 42
0.00000001
 43
0.00000001
 12
1.0
 22
0.0
 32
0.0
 13
1.0
 23
0.0
 33
0.0
 40
0.0
 40
0.0
 40
0.0
 40
0.0
 40
1.0
 40
1.0
 40
1.0
 40
1.0
 10
285.8974113836005
 20
200.862470340156
 30
0.0
 10
286.2800492561261
 20
200.862470340156
 30
0.0
 10
286.6622857336912
 20
200.862470340156
 30
0.0
 10
287.0586211712784
 20
200.862470340156
 30
0.0
  0
LINE
  5
152
330
1F
100
AcDbEntity
  8
0
  6
Continuous
 62
     7
370
    30
100
AcDbLine
 10
341.9839217885
 20
82.6624709958
 30
0.0
 11
343.8318483158
 21
82.6624709958
 31
0.0
  0
LINE
  5
153
330
1F
100
AcDbEntity
  8
0
  6
Continuous
 62
     7
370
    30
100
AcDbLine
 10
284.9629744514
 20
199.6624696845
 30
0.0
 11
286.8109009787
 21
199.6624696845
 31
0.0
  0
SPLINE
  5
154
330
1F
100
AcDbEntity
  8
0
  6
Continuous
 62
     7
370
    30
100
AcDbSpline
210
0.0
220
0.0
230
1.0
 70
     8
 71
     3
 72
    14
 73
    10
 74
     0
 42
0.00000001
 43
0.00000001
 12
1.0
 22
0.0
 32
0.0
 13
1.0
 23
0.0
 33
0.0
 40
0.0
 40
0.0
 40
0.0
 40
0.0
 40
0.25
 40
0.25
 40
0.5
 40
0.5
 40
0.75
 40
0.75
 40
1.0
 40
1.0
 40
1.0
 40
1.0
 10
340.7887671817991
 20
95.1830670263494
 30
0.0
 10
340.9807507788396
 20
95.3138449027155
 30
0.0
 10
341.1538636985517
 20
95.46488080419138
 30
0.0
 10
341.4528045578134
 20
95.78844899227482
 30
0.0
 10
341.5790840132371
 20
95.96034452902106
 30
0.0
 10
341.7918437273047
 20
96.32195235009836
 30
0.0
 10
341.8753576198854
 20
96.50647249357591
 30
0.0
 10
342.0042043037596
 20
96.88498037333007
 30
0.0
 10
342.0495808921319
 20
97.08060075549396
 30
0.0
 10
342.0751006685563
 20
97.27818443465472
 30
0.0
  0
SPLINE
  5
155
330
1F
100
AcDbEntity
  8
0
  6
Continuous
 62
     7
370
    30
100
AcDbSpline
210
0.0
220
0.0
230
1.0
 70
     8
 71
     3
 72
    14
 73
    10
 74
     0
 42
0.00000001
 43
0.00000001
 12
1.0
 22
0.0
 32
0.0
 13
1.0
 23
0.0
 33
0.0
 40
0.0
 40
0.0
 40
0.0
 40
0.0
 40
0.25
 40
0.25
 40
0.5
 40
0.5
 40
0.75
 40
0.75
 40
1.0
 40
1.0
 40
1.0
 40
1.0
 10
340.7887671817991
 20
187.1418736539626
 30
0.0
 10
340.9807507788396
 20
187.0110957775965
 30
0.0
 10
341.1538636985517
 20
186.8600598761207
 30
0.0
 10
341.4528045578134
 20
186.5364916880372
 30
0.0
 10
341.5790840132372
 20
186.364596151291
 30
0.0
 10
341.7918437273047
 20
186.0029883302137
 30
0.0
 10
341.8753576198854
 20
185.8184681867361
 30
0.0
 10
342.0042043037596
 20
185.439960306982
 30
0.0
 10
342.0495808921204
 20
185.2443399249073
 30
0.0
 10
342.0751006685563
 20
185.0467562456573
 30
0.0
  0
SPLINE
  5
156
330
1F
100
AcDbEntity
  8
0
  6
Continuous
 62
     7
370
    30
100
AcDbSpline
210
0.0
220
0.0
230
1.0
 70
     8
 71
     3
 72
    14
 73
    10
 74
     0
 42
0.00000001
 43
0.00000001
 12
1.0
 22
0.0
 32
0.0
 13
1.0
 23
0.0
 33
0.0
 40
0.0
 40
0.0
 40
0.0
 40
0.0
 40
0.25
 40
0.25
 40
0.5
 40
0.5
 40
0.75
 40
0.75
 40
1.0
 40
1.0
 40
1.0
 40
1.0
 10
288.0060555854018
 20
187.1418736539626
 30
0.0
 10
287.8140719883613
 20
187.0110957775965
 30
0.0
 10
287.6409590686492
 20
186.8600598761206
 30
0.0
 10
287.3420182093876
 20
186.5364916880372
 30
0.0
 10
287.2157387539637
 20
186.364596151291
 30
0.0
 10
287.0029790398962
 20
186.0029883302137
 30
0.0
 10
286.9194651473155
 20
185.8184681867361
 30
0.0
 10
286.7906184634413
 20
185.439960306982
 30
0.0
 10
286.745241875066
 20
185.2443399247948
 30
0.0
 10
286.7197220986446
 20
185.0467562456573
 30
0.0
  0
SPLINE
  5
157
330
1F
100
AcDbEntity
  8
0
  6
Continuous
 62
     7
370
    30
100
AcDbSpline
210
0.0
220
0.0
230
1.0
 70
     8
 71
     3
 72
    14
 73
    10
 74
     0
 42
0.00000001
 43
0.00000001
 12
1.0
 22
0.0
 32
0.0
 13
1.0
 23
0.0
 33
0.0
 40
0.0
 40
0.0
 40
0.0
 40
0.0
 40
0.25
 40
0.25
 40
0.5
 40
0.5
 40
0.75
 40
0.75
 40
1.0
 40
1.0
 40
1.0
 40
1.0
 10
288.0060555854018
 20
95.18306702634938
 30
0.0
 10
287.8140719883613
 20
95.31384490271547
 30
0.0
 10
287.6409590686492
 20
95.46488080419135
 30
0.0
 10
287.3420182093876
 20
95.7884489922748
 30
0.0
 10
287.2157387539637
 20
95.96034452902099
 30
0.0
 10
287.0029790398962
 20
96.32195235009824
 30
0.0
 10
286.9194651473155
 20
96.50647249357583
 30
0.0
 10
286.7906184634413
 20
96.88498037332994
 30
0.0
 10
286.7452418750802
 20
97.0806007554063
 30
0.0
 10
286.7197220986446
 20
97.27818443465472
 30
0.0
  0
SPLINE
  5
158
330
1F
100
AcDbEntity
  8
0
  6
Continuous
 62
     7
370
    30
100
AcDbSpline
210
0.0
220
0.0
230
1.0
 70
    24
 71
     3
 72
    10
 73
     6
 74
     0
 42
0.00000001
 43
0.00000001
 12
1.0
 22
0.0
 32
0.0
 13
1.0
 23
0.0
 33
0.0
 40
0.0
 40
0.0
 40
0.0
 40
0.0
 40
0.3496315603016877
 40
0.6220027829770137
 40
1.0
 40
1.0
 40
1.0
 40
1.0
 10
343.8318483158067
 20
82.6624709958071
 30
0.0
 10
343.8502337529055
 20
82.6624709958071
 30
0.0
 10
343.8829418786588
 20
82.6624709958071
 30
0.0
 10
343.9164881465111
 20
82.66247099580711
 30
0.0
 10
343.9207045736194
 20
82.6624709958071
 30
0.0
 10
343.923155181022
 20
82.6624709958071
 30
0.0
  0
SPLINE
  5
159
330
1F
100
AcDbEntity
  8
0
  6
Continuous
 62
     7
370
    30
100
AcDbSpline
210
0.0
220
0.0
230
1.0
 70
    24
 71
     3
 72
    11
 73
     7
 74
     0
 42
0.00000001
 43
0.00000001
 12
1.0
 22
0.0
 32
0.0
 13
1.0
 23
0.0
 33
0.0
 40
0.0
 40
0.0
 40
0.0
 40
0.0
 40
0.2439983228151645
 40
0.4971550597730583
 40
0.9213928488577516
 40
1.0
 40
1.0
 40
1.0
 40
1.0
 10
284.8742287232593
 20
199.6624696845049
 30
0.0
 10
284.8737918794213
 20
199.6624696845049
 30
0.0
 10
284.8729017949246
 20
199.6624696845049
 30
0.0
 10
284.8976736211723
 20
199.6624696845049
 30
0.0
 10
284.930166124217
 20
199.6624696845049
 30
0.0
 10
284.9585390573672
 20
199.6624696845049
 30
0.0
 10
284.9629744513944
 20
199.6624696845049
 30
0.0
  0
SPLINE
  5
15A
330
1F
100
AcDbEntity
  8
0
  6
Continuous
 62
     7
370
    30
100
AcDbSpline
210
0.0
220
0.0
230
1.0
 70
    24
 71
     3
 72
    11
 73
     7
 74
     0
 42
0.00000001
 43
0.00000001
 12
1.0
 22
0.0
 32
0.0
 13
1.0
 23
0.0
 33
0.0
 40
0.0
 40
0.0
 40
0.0
 40
0.0
 40
0.1359574534620602
 40
0.2970056873378105
 40
0.5668588289762557
 40
1.0
 40
1.0
 40
1.0
 40
1.0
 10
285.3974122180656
 20
201.8140483492846
 30
0.0
 10
285.3974122180656
 20
201.8128204457078
 30
0.0
 10
285.3974122180656
 20
201.8101380304628
 30
0.0
 10
285.3974122180656
 20
201.7810917562234
 30
0.0
 10
285.3974122180656
 20
201.7169845211441
 30
0.0
 10
285.3974122180656
 20
201.6503461615305
 30
0.0
 10
285.3974122180656
 20
201.6092877680296
 30
0.0
  0
LINE
  5
15B
330
1F
100
AcDbEntity
  8
0
  6
Continuous
 62
     7
370
    30
100
AcDbLine
 10
339.099815078
 20
94.6624692375
 30
0.0
 11
289.6950076892
 21
94.6624692375
 31
0.0
  0
CIRCLE
  5
15C
330
1F
100
AcDbEntity
  8
0
  6
Continuous
 62
     7
370
    30
100
AcDbCircle
 10
329.3974113836
 20
89.1624703402
 30
0.0
 40
2.0
  0
CIRCLE
  5
15D
330
1F
100
AcDbEntity
  8
0
  6
Continuous
 62
     7
370
    30
100
AcDbCircle
 10
299.3974113836
 20
89.1624703402
 30
0.0
 40
2.0
  0
ARC
  5
15E
330
1F
100
AcDbEntity
  8
0
  6
Continuous
 62
     7
370
    30
100
AcDbCircle
 10
289.6950076888
 20
97.6624703402
 30
0.0
 40
3.000000000000204
100
AcDbArc
 50
235.7375841447
 51
270.0
  0
ARC
  5
15F
330
1F
100
AcDbEntity
  8
0
  6
Continuous
 62
     7
370
    30
100
AcDbCircle
 10
339.0998150784
 20
97.6624703402
 30
0.0
 40
3.000000000000221
100
AcDbArc
 50
270.0
 51
304.2624158553
  0
LINE
  5
160
330
1F
100
AcDbEntity
  8
0
  6
Continuous
 62
     7
370
    30
100
AcDbLine
 10
289.6950076892
 20
187.6624714428
 30
0.0
 11
339.099815078
 21
187.6624714428
 31
0.0
  0
CIRCLE
  5
161
330
1F
100
AcDbEntity
  8
0
  6
Continuous
 62
     7
370
    30
100
AcDbCircle
 10
299.3974113836
 20
193.1624703402
 30
0.0
 40
2.0
  0
CIRCLE
  5
162
330
1F
100
AcDbEntity
  8
0
  6
Continuous
 62
     7
370
    30
100
AcDbCircle
 10
329.3974113836
 20
193.1624703402
 30
0.0
 40
2.0
  0
ARC
  5
163
330
1F
100
AcDbEntity
  8
0
  6
Continuous
 62
     7
370
    30
100
AcDbCircle
 10
289.6950076888
 20
184.6624703402
 30
0.0
 40
3.000000000000189
100
AcDbArc
 50
90.0
 51
124.2624158553
  0
ARC
  5
164
330
1F
100
AcDbEntity
  8
0
  6
Continuous
 62
     7
370
    30
100
AcDbCircle
 10
339.0998150784
 20
184.6624703402
 30
0.0
 40
3.000000000000213
100
AcDbArc
 50
55.7375841447
 51
90.0
  0
ENDSEC
  0
SECTION
  2
OBJECTS
  0
DICTIONARY
  5
C
330
0
100
AcDbDictionary
281
     1
  3
ACAD_GROUP
350
D
  3
ACAD_LAYOUT
350
1A
  3
ACAD_MLINESTYLE
350
17
  3
ACAD_PLOTSETTINGS
350
19
  3
ACAD_PLOTSTYLENAME
350
E
  0
DICTIONARY
  5
D
102
{ACAD_REACTORS
330
C
102
}
330
C
100
AcDbDictionary
281
     1
  0
DICTIONARY
  5
1A
102
{ACAD_REACTORS
330
C
102
}
330
C
100
AcDbDictionary
281
     1
  3
Layout1
350
1E
  3
Layout2
350
26
  3
Model
350
22
  0
DICTIONARY
  5
17
102
{ACAD_REACTORS
330
C
102
}
330
C
100
AcDbDictionary
281
     1
  3
Standard
350
18
  0
DICTIONARY
  5
19
102
{ACAD_REACTORS
330
C
102
}
330
C
100
AcDbDictionary
281
     1
  0
ACDBDICTIONARYWDFLT
  5
E
102
{ACAD_REACTORS
330
C
102
}
330
C
100
AcDbDictionary
281
     1
  3
Normal
350
F
100
AcDbDictionaryWithDefault
340
F
  0
LAYOUT
  5
1E
102
{ACAD_REACTORS
330
1A
102
}
330
1A
100
AcDbPlotSettings
  1

  2
none_device
  4

  6

 40
0.0
 41
0.0
 42
0.0
 43
0.0
 44
0.0
 45
0.0
 46
0.0
 47
0.0
 48
0.0
 49
0.0
140
0.0
141
0.0
142
1.0
143
1.0
 70
   688
 72
     0
 73
     0
 74
     5
  7

 75
    16
147
1.0
148
0.0
149
0.0
100
AcDbLayout
  1
Layout1
 70
     1
 71
     1
 10
0.0
 20
0.0
 11
420.0
 21
297.0
 12
0.0
 22
0.0
 32
0.0
 14
1.0000000000E+20
 24
1.0000000000E+20
 34
1.0000000000E+20
 15
-1.0000000000E+20
 25
-1.0000000000E+20
 35
-1.0000000000E+20
146
0.0
 13
0.0
 23
0.0
 33
0.0
 16
1.0
 26
0.0
 36
0.0
 17
0.0
 27
1.0
 37
0.0
 76
     0
330
1B
  0
LAYOUT
  5
26
102
{ACAD_REACTORS
330
1A
102
}
330
1A
100
AcDbPlotSettings
  1

  2
none_device
  4

  6

 40
0.0
 41
0.0
 42
0.0
 43
0.0
 44
0.0
 45
0.0
 46
0.0
 47
0.0
 48
0.0
 49
0.0
140
0.0
141
0.0
142
1.0
143
1.0
 70
   688
 72
     0
 73
     0
 74
     5
  7

 75
    16
147
1.0
148
0.0
149
0.0
100
AcDbLayout
  1
Layout2
 70
     1
 71
     2
 10
0.0
 20
0.0
 11
0.0
 21
0.0
 12
0.0
 22
0.0
 32
0.0
 14
0.0
 24
0.0
 34
0.0
 15
0.0
 25
0.0
 35
0.0
146
0.0
 13
0.0
 23
0.0
 33
0.0
 16
1.0
 26
0.0
 36
0.0
 17
0.0
 27
1.0
 37
0.0
 76
     0
330
23
  0
LAYOUT
  5
22
102
{ACAD_REACTORS
330
1A
102
}
330
1A
100
AcDbPlotSettings
  1

  2
none_device
  4

  6

 40
0.0
 41
0.0
 42
0.0
 43
0.0
 44
0.0
 45
0.0
 46
0.0
 47
0.0
 48
0.0
 49
0.0
140
0.0
141
0.0
142
1.0
143
1.0
 70
  1712
 72
     0
 73
     0
 74
     0
  7

 75
     0
147
1.0
148
0.0
149
0.0
100
AcDbLayout
  1
Model
 70
     1
 71
     0
 10
0.0
 20
0.0
 11
420.0
 21
297.0
 12
0.0
 22
0.0
 32
0.0
 14
0.0
 24
0.0
 34
0.0
 15
420.0
 25
297.0
 35
0.0
146
0.0
 13
0.0
 23
0.0
 33
0.0
 16
1.0
 26
0.0
 36
0.0
 17
0.0
 27
1.0
 37
0.0
 76
     0
330
1F
331
29
  0
MLINESTYLE
  5
18
102
{ACAD_REACTORS
330
17
102
}
330
17
100
AcDbMlineStyle
  2
Standard
 70
     0
  3

 62
   256
 51
90.0
 52
90.0
 71
     2
 49
0.5
 62
   256
  6
BYLAYER
 49
-0.5
 62
   256
  6
BYLAYER
  0
ACDBPLACEHOLDER
  5
F
102
{ACAD_REACTORS
330
E
102
}
330
E
  0
ENDSEC
  0
EOF
