  0
SECTION
  2
HEADER
  9
$ACADVER
  1
AC1015
  9
$ACADMAINTVER
 70
     6
  9
$DWGCODEPAGE
  3
DOS932
  9
$INSBASE
 10
0.0
 20
0.0
 30
0.0
  9
$EXTMIN
 10
0.0
 20
0.0
 30
0.0
  9
$EXTMAX
 10
420.0
 20
297.0
 30
0.0
  9
$LIMMIN
 10
0.0
 20
0.0
  9
$LIMMAX
 10
420.0
 20
297.0
  9
$ORTHOMODE
 70
     0
  9
$REGENMODE
 70
     1
  9
$FILLMODE
 70
     1
  9
$QTEXTMODE
 70
     0
  9
$MIRRTEXT
 70
     1
  9
$LTSCALE
 40
1.0
  9
$ATTMODE
 70
     1
  9
$TEXTSIZE
 40
3.8805555556
  9
$TRACEWID
 40
1.0
  9
$TEXTSTYLE
  7
Standard
  9
$CLAYER
  8
0
  9
$CELTYPE
  6
ByLayer
  9
$CECOLOR
 62
   256
  9
$CELTSCALE
 40
1.0
  9
$DISPSILH
 70
     0
  9
$DIMSCALE
 40
1.0
  9
$DIMASZ
 40
3.0
  9
$DIMEXO
 40
0.0
  9
$DIMDLI
 40
3.75
  9
$DIMRND
 40
0.0
  9
$DIMDLE
 40
0.0
  9
$DIMEXE
 40
1.0
  9
$DIMTP
 40
0.0
  9
$DIMTM
 40
0.0
  9
$DIMTXT
 40
3.5277777778
  9
$DIMCEN
 40
2.5
  9
$DIMTSZ
 40
0.0
  9
$DIMTOL
 70
     0
  9
$DIMLIM
 70
     0
  9
$DIMTIH
 70
     1
  9
$DIMTOH
 70
     1
  9
$DIMSE1
 70
     0
  9
$DIMSE2
 70
     0
  9
$DIMTAD
 70
     1
  9
$DIMZIN
 70
     0
  9
$DIMBLK
  1

  9
$DIMASO
 70
     1
  9
$DIMSHO
 70
     1
  9
$DIMPOST
  1

  9
$DIMAPOST
  1

  9
$DIMALT
 70
     0
  9
$DIMALTD
 70
     3
  9
$DIMALTF
 40
0.0393700787
  9
$DIMLFAC
 40
1.0
  9
$DIMTOFL
 70
     1
  9
$DIMTVP
 40
0.0
  9
$DIMTIX
 70
     0
  9
$DIMSOXD
 70
     0
  9
$DIMSAH
 70
     0
  9
$DIMBLK1
  1

  9
$DIMBLK2
  1

  9
$DIMSTYLE
  2
ISO-25
  9
$DIMCLRD
 70
     0
  9
$DIMCLRE
 70
     0
  9
$DIMCLRT
 70
     0
  9
$DIMTFAC
 40
1.0
  9
$DIMGAP
 40
1.0
  9
$DIMJUST
 70
     0
  9
$DIMSD1
 70
     0
  9
$DIMSD2
 70
     0
  9
$DIMTOLJ
 70
     0
  9
$DIMTZIN
 70
     0
  9
$DIMALTZ
 70
     0
  9
$DIMALTTZ
 70
     0
  9
$DIMUPT
 70
     0
  9
$DIMDEC
 70
     2
  9
$DIMTDEC
 70
     2
  9
$DIMALTU
 70
     2
  9
$DIMALTTD
 70
     3
  9
$DIMTXSTY
  7
Standard
  9
$DIMAUNIT
 70
     0
  9
$DIMADEC
 70
     2
  9
$DIMALTRND
 40
0.0
  9
$DIMAZIN
 70
     0
  9
$DIMDSEP
 70
    44
  9
$DIMATFIT
 70
     3
  9
$DIMFRAC
 70
     0
  9
$DIMLDRBLK
  1

  9
$DIMLUNIT
 70
     2
  9
$DIMLWD
 70
    -2
  9
$DIMLWE
 70
    -2
  9
$DIMTMOVE
 70
     0
  9
$LUNITS
 70
     2
  9
$LUPREC
 70
     2
  9
$SKETCHINC
 40
1.0
  9
$FILLETRAD
 40
10.0
  9
$AUNITS
 70
     0
  9
$AUPREC
 70
     2
  9
$MENU
  1
.
  9
$ELEVATION
 40
0.0
  9
$PELEVATION
 40
0.0
  9
$THICKNESS
 40
0.0
  9
$LIMCHECK
 70
     0
  9
$CHAMFERA
 40
10.0
  9
$CHAMFERB
 40
10.0
  9
$CHAMFERC
 40
20.0
  9
$CHAMFERD
 40
0.0
  9
$SKPOLY
 70
     0
  9
$TDCREATE
 40
2457196.586242095
  9
$TDUCREATE
 40
2457196.211242095
  9
$TDUPDATE
 40
2457196.586242558
  9
$TDUUPDATE
 40
2457196.211242558
  9
$TDINDWG
 40
0.0000000116
  9
$TDUSRTIMER
 40
0.0000000116
  9
$USRTIMER
 70
     1
  9
$ANGBASE
 50
0.0
  9
$ANGDIR
 70
     0
  9
$PDMODE
 70
     0
  9
$PDSIZE
 40
-1.0
  9
$PLINEWID
 40
0.0
  9
$SPLFRAME
 70
     0
  9
$SPLINETYPE
 70
     6
  9
$SPLINESEGS
 70
     8
  9
$HANDSEED
  5
10A
  9
$SURFTAB1
 70
     6
  9
$SURFTAB2
 70
     6
  9
$SURFTYPE
 70
     6
  9
$SURFU
 70
     6
  9
$SURFV
 70
     6
  9
$UCSBASE
  2

  9
$UCSNAME
  2

  9
$UCSORG
 10
0.0
 20
0.0
 30
0.0
  9
$UCSXDIR
 10
1.0
 20
0.0
 30
0.0
  9
$UCSYDIR
 10
0.0
 20
1.0
 30
0.0
  9
$UCSORTHOREF
  2

  9
$UCSORTHOVIEW
 70
     0
  9
$UCSORGTOP
 10
0.0
 20
0.0
 30
0.0
  9
$UCSORGBOTTOM
 10
0.0
 20
0.0
 30
0.0
  9
$UCSORGLEFT
 10
0.0
 20
0.0
 30
0.0
  9
$UCSORGRIGHT
 10
0.0
 20
0.0
 30
0.0
  9
$UCSORGFRONT
 10
0.0
 20
0.0
 30
0.0
  9
$UCSORGBACK
 10
0.0
 20
0.0
 30
0.0
  9
$PUCSBASE
  2

  9
$PUCSNAME
  2

  9
$PUCSORG
 10
0.0
 20
0.0
 30
0.0
  9
$PUCSXDIR
 10
1.0
 20
0.0
 30
0.0
  9
$PUCSYDIR
 10
0.0
 20
1.0
 30
0.0
  9
$PUCSORTHOREF
  2

  9
$PUCSORTHOVIEW
 70
     0
  9
$PUCSORGTOP
 10
0.0
 20
0.0
 30
0.0
  9
$PUCSORGBOTTOM
 10
0.0
 20
0.0
 30
0.0
  9
$PUCSORGLEFT
 10
0.0
 20
0.0
 30
0.0
  9
$PUCSORGRIGHT
 10
0.0
 20
0.0
 30
0.0
  9
$PUCSORGFRONT
 10
0.0
 20
0.0
 30
0.0
  9
$PUCSORGBACK
 10
0.0
 20
0.0
 30
0.0
  9
$USERI1
 70
     0
  9
$USERI2
 70
     0
  9
$USERI3
 70
     0
  9
$USERI4
 70
     0
  9
$USERI5
 70
     0
  9
$USERR1
 40
0.0
  9
$USERR2
 40
0.0
  9
$USERR3
 40
0.0
  9
$USERR4
 40
0.0
  9
$USERR5
 40
0.0
  9
$WORLDVIEW
 70
     1
  9
$SHADEDGE
 70
     3
  9
$SHADEDIF
 70
    70
  9
$TILEMODE
 70
     1
  9
$MAXACTVP
 70
    64
  9
$PINSBASE
 10
0.0
 20
0.0
 30
0.0
  9
$PLIMCHECK
 70
     0
  9
$PEXTMIN
 10
1.0000000000E+20
 20
1.0000000000E+20
 30
1.0000000000E+20
  9
$PEXTMAX
 10
-1.0000000000E+20
 20
-1.0000000000E+20
 30
-1.0000000000E+20
  9
$PLIMMIN
 10
0.0
 20
0.0
  9
$PLIMMAX
 10
420.0
 20
297.0
  9
$UNITMODE
 70
     0
  9
$VISRETAIN
 70
     1
  9
$PLINEGEN
 70
     0
  9
$PSLTSCALE
 70
     1
  9
$TREEDEPTH
 70
  3020
  9
$CMLSTYLE
  2
Standard
  9
$CMLJUST
 70
     0
  9
$CMLSCALE
 40
20.0
  9
$PROXYGRAPHICS
 70
     1
  9
$MEASUREMENT
 70
     1
  9
$CELWEIGHT
370
    -1
  9
$ENDCAPS
280
     0
  9
$JOINSTYLE
280
     0
  9
$LWDISPLAY
290
     1
  9
$INSUNITS
 70
     4
  9
$HYPERLINKBASE
  1

  9
$STYLESHEET
  1

  9
$XEDIT
290
     1
  9
$CEPSNTYPE
380
     0
  9
$PSTYLEMODE
290
     1
  9
$FINGERPRINTGUID
  2
{57A7E6C9-2A57-403B-8AE0-7DD40D2E203D}
  9
$VERSIONGUID
  2
{FAEB1C32-E019-11D5-929B-00C0DF256EC4}
  9
$EXTNAMES
290
     1
  9
$PSVPSCALE
 40
0.0
  9
$OLESTARTUP
290
     0
  0
ENDSEC
  0
SECTION
  2
CLASSES
  0
CLASS
  1
ACDBDICTIONARYWDFLT
  2
AcDbDictionaryWithDefault
  3
ObjectDBX Classes
 90
        0
280
     0
281
     0
  0
CLASS
  1
VISUALSTYLE
  2
AcDbVisualStyle
  3
ObjectDBX Classes
 90
     4095
280
     0
281
     0
  0
CLASS
  1
MATERIAL
  2
AcDbMaterial
  3
ObjectDBX Classes
 90
     1153
280
     0
281
     0
  0
CLASS
  1
ACDBPLACEHOLDER
  2
AcDbPlaceHolder
  3
ObjectDBX Classes
 90
        0
280
     0
281
     0
  0
CLASS
  1
LAYOUT
  2
AcDbLayout
  3
ObjectDBX Classes
 90
        0
280
     0
281
     0
  0
ENDSEC
  0
SECTION
  2
TABLES
  0
TABLE
  2
VPORT
  5
8
330
0
100
AcDbSymbolTable
 70
     1
  0
VPORT
  5
29
330
8
100
AcDbSymbolTableRecord
100
AcDbViewportTableRecord
  2
*Active
 70
     0
 10
0.0
 20
0.0
 11
1.0
 21
1.0
 12
210.0
 22
148.5
 13
0.0
 23
0.0
 14
10.0
 24
10.0
 15
10.0
 25
10.0
 16
0.0
 26
0.0
 36
1.0
 17
0.0
 27
0.0
 37
0.0
 40
297.0
 41
1.4141414141
 42
50.0
 43
0.0
 44
0.0
 50
0.0
 51
0.0
 71
     0
 72
  2000
 73
     1
 74
     3
 75
     0
 76
     0
 77
     0
 78
     0
281
     0
 65
     1
110
0.0
120
0.0
130
0.0
111
1.0
121
0.0
131
0.0
112
0.0
122
1.0
132
0.0
 79
     0
146
0.0
  0
ENDTAB
  0
TABLE
  2
LTYPE
  5
5
330
0
100
AcDbSymbolTable
 70
     6
  0
LTYPE
  5
14
330
5
100
AcDbSymbolTableRecord
100
AcDbLinetypeTableRecord
  2
ByBlock
 70
     0
  3

 72
    65
 73
     0
 40
0.0
  0
LTYPE
  5
15
330
5
100
AcDbSymbolTableRecord
100
AcDbLinetypeTableRecord
  2
ByLayer
 70
     0
  3

 72
    65
 73
     0
 40
0.0
  0
LTYPE
  5
16
330
5
100
AcDbSymbolTableRecord
100
AcDbLinetypeTableRecord
  2
Continuous
 70
     0
  3
Solid line
 72
    65
 73
     0
 40
0.0
  0
LTYPE
  5
3F
330
5
100
AcDbSymbolTableRecord
100
AcDbLinetypeTableRecord
  2
HIDDEN
 70
     0
  3
Hidden __ __ __ __ __ __ __ __ __ __ __ __ __ __
 72
    65
 73
     2
 40
1.905
 49
1.27
 74
     0
 49
-0.635
 74
     0
  0
LTYPE
  5
40
330
5
100
AcDbSymbolTableRecord
100
AcDbLinetypeTableRecord
  2
PHANTOM
 70
     0
  3
Phantom ______  __  __  ______  __  __  ______
 72
    65
 73
     6
 40
12.7
 49
6.35
 74
     0
 49
-1.27
 74
     0
 49
1.27
 74
     0
 49
-1.27
 74
     0
 49
1.27
 74
     0
 49
-1.27
 74
     0
  0
LTYPE
  5
41
330
5
100
AcDbSymbolTableRecord
100
AcDbLinetypeTableRecord
  2
CENTER
 70
     0
  3
Center ____ _ ____ _ ____ _ ____ _ ____ _ ____
 72
    65
 73
     4
 40
10.16
 49
6.35
 74
     0
 49
-1.27
 74
     0
 49
1.27
 74
     0
 49
-1.27
 74
     0
  0
LTYPE
  5
42
330
5
100
AcDbSymbolTableRecord
100
AcDbLinetypeTableRecord
  2
CENTERX2
 70
     0
  3
Center (2x) ________  __  ________  __  _____
 72
    65
 73
     4
 40
20.32
 49
12.7
 74
     0
 49
-2.54
 74
     0
 49
2.54
 74
     0
 49
-2.54
 74
     0
  0
LTYPE
  5
43
330
5
100
AcDbSymbolTableRecord
100
AcDbLinetypeTableRecord
  2
DOT2
 70
     0
  3
Dot (.5x) ........................................
 72
    65
 73
     2
 40
0.635
 49
0.0
 74
     0
 49
-0.635
 74
     0
  0
ENDTAB
  0
TABLE
  2
LAYER
  5
2
330
0
100
AcDbSymbolTable
 70
     6
  0
LAYER
  5
10
330
2
100
AcDbSymbolTableRecord
100
AcDbLayerTableRecord
  2
0
 70
     0
 62
     7
  6
Continuous
370
    -3
390
F
  0
LAYER
  5
44
330
2
100
AcDbSymbolTableRecord
100
AcDbLayerTableRecord
  2
SLD-0
 70
     0
 62
     7
  6
Continuous
370
    -3
390
F
  0
LAYER
  5
45
330
2
100
AcDbSymbolTableRecord
100
AcDbLayerTableRecord
  2
8
 70
     0
 62
     7
  6
Continuous
370
    15
390
F
  0
LAYER
  5
46
330
2
100
AcDbSymbolTableRecord
100
AcDbLayerTableRecord
  2
9
 70
     0
 62
     7
  6
Continuous
370
    -3
390
F
  0
LAYER
  5
47
330
2
100
AcDbSymbolTableRecord
100
AcDbLayerTableRecord
  2
10
 70
     0
 62
     1
  6
Continuous
370
    -3
390
F
  0
LAYER
  5
48
330
2
100
AcDbSymbolTableRecord
100
AcDbLayerTableRecord
  2
11
 70
     0
 62
     7
  6
Continuous
370
    -3
390
F
  0
ENDTAB
  0
TABLE
  2
STYLE
  5
3
330
0
100
AcDbSymbolTable
 70
     2
  0
STYLE
  5
11
330
3
100
AcDbSymbolTableRecord
100
AcDbTextStyleTableRecord
  2
Standard
 70
     0
 40
0.0
 41
1.0
 50
0.0
 71
     0
 42
3.8805555556
  3
txt
  4
bigfont
  0
STYLE
  5
49
330
3
100
AcDbSymbolTableRecord
100
AcDbTextStyleTableRecord
  2
SLDTEXTSTYLE0
 70
     0
 40
0.0
 41
0.7
 50
0.0
 71
     0
 42
0.2
  3
TXT
  4
bigfont
  0
ENDTAB
  0
TABLE
  2
VIEW
  5
6
330
0
100
AcDbSymbolTable
 70
     0
  0
ENDTAB
  0
TABLE
  2
UCS
  5
7
330
0
100
AcDbSymbolTable
 70
     0
  0
ENDTAB
  0
TABLE
  2
APPID
  5
9
330
0
100
AcDbSymbolTable
 70
     1
  0
APPID
  5
12
330
9
100
AcDbSymbolTableRecord
100
AcDbRegAppTableRecord
  2
ACAD
 70
     0
  0
ENDTAB
  0
TABLE
  2
DIMSTYLE
  5
A
330
0
100
AcDbSymbolTable
 70
     1
100
AcDbDimStyleTable
  0
DIMSTYLE
105
27
330
A
100
AcDbSymbolTableRecord
100
AcDbDimStyleTableRecord
  2
ISO-25
 70
     0
 41
2.5
 42
0.625
 43
3.75
 44
1.25
 73
     0
 74
     0
 77
     1
 78
     8
140
2.5
141
2.5
143
0.0393700787
147
0.625
171
     3
172
     1
178
     0
271
     2
272
     2
274
     3
278
    44
283
     0
284
     8
340
11
  0
ENDTAB
  0
TABLE
  2
BLOCK_RECORD
  5
1
330
0
100
AcDbSymbolTable
 70
     1
  0
BLOCK_RECORD
  5
1F
330
1
100
AcDbSymbolTableRecord
100
AcDbBlockTableRecord
  2
*Model_Space
340
22
  0
BLOCK_RECORD
  5
1B
330
1
100
AcDbSymbolTableRecord
100
AcDbBlockTableRecord
  2
*Paper_Space
340
1E
  0
BLOCK_RECORD
  5
23
330
1
100
AcDbSymbolTableRecord
100
AcDbBlockTableRecord
  2
*Paper_Space0
340
26
  0
ENDTAB
  0
ENDSEC
  0
SECTION
  2
BLOCKS
  0
BLOCK
  5
20
330
1F
100
AcDbEntity
  8
0
100
AcDbBlockBegin
  2
*Model_Space
 70
     0
 10
0.0
 20
0.0
 30
0.0
  3
*Model_Space
  1

  0
ENDBLK
  5
21
330
1F
100
AcDbEntity
  8
0
100
AcDbBlockEnd
  0
BLOCK
  5
1C
330
1B
100
AcDbEntity
 67
     1
  8
0
100
AcDbBlockBegin
  2
*Paper_Space
 70
     0
 10
0.0
 20
0.0
 30
0.0
  3
*Paper_Space
  1

  0
ENDBLK
  5
1D
330
1B
100
AcDbEntity
 67
     1
  8
0
100
AcDbBlockEnd
  0
BLOCK
  5
24
330
23
100
AcDbEntity
  8
0
100
AcDbBlockBegin
  2
*Paper_Space0
 70
     0
 10
0.0
 20
0.0
 30
0.0
  3
*Paper_Space0
  1

  0
ENDBLK
  5
25
330
23
100
AcDbEntity
  8
0
100
AcDbBlockEnd
  0
ENDSEC
  0
SECTION
  2
ENTITIES
  0
MTEXT
  5
4A
330
1F
100
AcDbEntity
  8
9
 62
     7
100
AcDbMText
 10
22.9810592731
 20
14.7698940523
 30
0.0
 40
3.7041666667
 41
0.0
 71
     1
 72
     1
  1
2015/06/15
  7
SLDTEXTSTYLE0
 73
     1
 44
1.0
  0
MTEXT
  5
4B
330
1F
100
AcDbEntity
  8
9
 62
     7
100
AcDbMText
 10
22.9810592731
 20
39.3097760816
 30
0.0
 40
3.7041666667
 41
0.0
 71
     1
 72
     1
  1
PXP-BJ03
  7
SLDTEXTSTYLE0
 73
     1
 44
1.0
  0
MTEXT
  5
4C
330
1F
100
AcDbEntity
  8
9
 62
     7
100
AcDbMText
 10
22.9810592731
 20
22.2718363524
 30
0.0
 40
3.7041666667
 41
0.0
 71
     1
 72
     1
  1
-
  7
SLDTEXTSTYLE0
 73
     1
 44
1.0
  0
MTEXT
  5
4D
330
1F
100
AcDbEntity
  8
9
 62
     7
100
AcDbMText
 10
22.9810592731
 20
30.9293046945
 30
0.0
 40
3.7041666667
 41
0.0
 71
     1
 72
     1
  1
1:1
  7
SLDTEXTSTYLE0
 73
     1
 44
1.0
  0
SPLINE
  5
4E
330
1F
100
AcDbEntity
  8
0
  6
Continuous
 62
     7
370
    30
100
AcDbSpline
210
0.0
220
0.0
230
1.0
 70
     8
 71
     3
 72
    15
 73
    11
 74
     0
 42
0.00000001
 43
0.00000001
 12
1.0
 22
0.0
 32
0.0
 13
1.0
 23
0.0
 33
0.0
 40
0.0
 40
0.0
 40
0.0
 40
0.0
 40
0.0642678118256657
 40
0.2040974345895101
 40
0.3534232870859071
 40
0.5065890001751939
 40
0.6577939264538226
 40
0.8084981864882625
 40
0.957193742782943
 40
1.0
 40
1.0
 40
1.0
 40
1.0
 10
135.0187984546872
 20
207.1414278560495
 30
0.0
 10
134.9677972664946
 20
207.1307001431289
 30
0.0
 10
134.8058310912749
 20
207.0966317872301
 30
0.0
 10
134.549636208489
 20
206.9241813906514
 30
0.0
 10
134.2541708025834
 20
206.6357311812708
 30
0.0
 10
133.9857773893604
 20
206.2430082336265
 30
0.0
 10
133.7543745565872
 20
205.7701366684775
 30
0.0
 10
133.5752981061173
 20
205.2397509311782
 30
0.0
 10
133.4665920673251
 20
204.808474235038
 30
0.0
 10
133.4379116087514
 20
204.5613153359091
 30
0.0
 10
133.4315006872865
 20
204.5060680919504
 30
0.0
  0
SPLINE
  5
4F
330
1F
100
AcDbEntity
  8
0
  6
Continuous
 62
     7
370
    30
100
AcDbSpline
210
0.0
220
0.0
230
1.0
 70
     8
 71
     3
 72
    15
 73
    11
 74
     0
 42
0.00000001
 43
0.00000001
 12
1.0
 22
0.0
 32
0.0
 13
1.0
 23
0.0
 33
0.0
 40
0.0
 40
0.0
 40
0.0
 40
0.0
 40
0.0995928032322171
 40
0.2442745690637125
 40
0.3889687740850097
 40
0.5345524738356482
 40
0.6827708913403704
 40
0.8350473200872106
 40
0.968874251842152
 40
1.0
 40
1.0
 40
1.0
 40
1.0
 10
133.4319998761865
 20
92.87275240953922
 30
0.0
 10
133.451678581543
 20
92.74035589493937
 30
0.0
 10
133.4999451943371
 20
92.41562257586608
 30
0.0
 10
133.6407554278123
 20
91.92125916654128
 30
0.0
 10
133.8398294997851
 20
91.41539941347548
 30
0.0
 10
134.0853287538364
 20
90.97467457435343
 30
0.0
 10
134.3707514023596
 20
90.60924687100267
 30
0.0
 10
134.6823528920922
 20
90.36058233763464
 30
0.0
 10
134.930641621523
 20
90.2281104146033
 30
0.0
 10
135.066643084894
 20
90.21793039757684
 30
0.0
 10
135.0923058828565
 20
90.21600947912692
 30
0.0
  0
ARC
  5
50
330
1F
100
AcDbEntity
  8
0
  6
Continuous
 62
     7
370
    30
100
AcDbCircle
 10
511.831054165
 20
148.6892873162
 30
0.0
 40
382.4999999999989
100
AcDbArc
 50
171.6089636424
 51
188.3910363576
  0
LINE
  5
51
330
1F
100
AcDbEntity
  8
0
  6
Continuous
 62
     7
370
    30
100
AcDbLine
 10
161.681054092
 20
198.7892860287
 30
0.0
 11
161.681054092
 21
199.589288395
 31
0.0
  0
LINE
  5
52
330
1F
100
AcDbEntity
  8
0
  6
Continuous
 62
     7
370
    30
100
AcDbLine
 10
163.4310541752
 20
197.0392862075
 30
0.0
 11
163.4310541752
 21
198.7892860287
 31
0.0
  0
LINE
  5
53
330
1F
100
AcDbEntity
  8
0
  6
Continuous
 62
     7
370
    30
100
AcDbLine
 10
165.9810542381
 20
198.7892860287
 30
0.0
 11
164.2310541549
 21
198.7892860287
 31
0.0
  0
LINE
  5
54
330
1F
100
AcDbEntity
  8
0
  6
Continuous
 62
     7
370
    30
100
AcDbLine
 10
165.9810542381
 20
199.589288395
 30
0.0
 11
165.9810542381
 21
198.7892860287
 31
0.0
  0
CIRCLE
  5
55
330
1F
100
AcDbEntity
  8
0
  6
Continuous
 62
     7
370
    30
100
AcDbCircle
 10
163.8310541651
 20
199.1892873162
 30
0.0
 40
3.5
  0
LINE
  5
56
330
1F
100
AcDbEntity
  8
0
  6
Continuous
 62
     7
370
    30
100
AcDbLine
 10
161.681054092
 20
199.589288395
 30
0.0
 11
163.4310541752
 21
199.589288395
 31
0.0
  0
LINE
  5
57
330
1F
100
AcDbEntity
  8
0
  6
Continuous
 62
     7
370
    30
100
AcDbLine
 10
163.4310541752
 20
199.589288395
 30
0.0
 11
163.4310541752
 21
201.3392882162
 31
0.0
  0
LINE
  5
58
330
1F
100
AcDbEntity
  8
0
  6
Continuous
 62
     7
370
    30
100
AcDbLine
 10
164.2310541549
 20
198.7892860287
 30
0.0
 11
164.2310541549
 21
197.0392862075
 31
0.0
  0
LINE
  5
59
330
1F
100
AcDbEntity
  8
0
  6
Continuous
 62
     7
370
    30
100
AcDbLine
 10
164.2310541549
 20
199.589288395
 30
0.0
 11
165.9810542381
 21
199.589288395
 31
0.0
  0
LINE
  5
5A
330
1F
100
AcDbEntity
  8
0
  6
Continuous
 62
     7
370
    30
100
AcDbLine
 10
163.4310541752
 20
201.3392882162
 30
0.0
 11
164.2310541549
 21
201.3392882162
 31
0.0
  0
LINE
  5
5B
330
1F
100
AcDbEntity
  8
0
  6
Continuous
 62
     7
370
    30
100
AcDbLine
 10
164.2310541549
 20
201.3392882162
 30
0.0
 11
164.2310541549
 21
199.589288395
 31
0.0
  0
LINE
  5
5C
330
1F
100
AcDbEntity
  8
0
  6
Continuous
 62
     7
370
    30
100
AcDbLine
 10
163.4310541752
 20
198.7892860287
 30
0.0
 11
161.681054092
 21
198.7892860287
 31
0.0
  0
LINE
  5
5D
330
1F
100
AcDbEntity
  8
0
  6
Continuous
 62
     7
370
    30
100
AcDbLine
 10
164.2310541549
 20
197.0392862075
 30
0.0
 11
163.4310541752
 21
197.0392862075
 31
0.0
  0
LINE
  5
5E
330
1F
100
AcDbEntity
  8
0
  6
Continuous
 62
     7
370
    30
100
AcDbLine
 10
163.4310541752
 20
100.3392884248
 30
0.0
 11
164.2310541549
 21
100.3392884248
 31
0.0
  0
LINE
  5
5F
330
1F
100
AcDbEntity
  8
0
  6
Continuous
 62
     7
370
    30
100
AcDbLine
 10
163.4310541752
 20
98.5892886036
 30
0.0
 11
163.4310541752
 21
100.3392884248
 31
0.0
  0
LINE
  5
60
330
1F
100
AcDbEntity
  8
0
  6
Continuous
 62
     7
370
    30
100
AcDbLine
 10
161.681054092
 20
98.5892886036
 30
0.0
 11
163.4310541752
 21
98.5892886036
 31
0.0
  0
LINE
  5
61
330
1F
100
AcDbEntity
  8
0
  6
Continuous
 62
     7
370
    30
100
AcDbLine
 10
161.681054092
 20
97.7892862373
 30
0.0
 11
161.681054092
 21
98.5892886036
 31
0.0
  0
LINE
  5
62
330
1F
100
AcDbEntity
  8
0
  6
Continuous
 62
     7
370
    30
100
AcDbLine
 10
163.4310541752
 20
97.7892862373
 30
0.0
 11
161.681054092
 21
97.7892862373
 31
0.0
  0
LINE
  5
63
330
1F
100
AcDbEntity
  8
0
  6
Continuous
 62
     7
370
    30
100
AcDbLine
 10
163.4310541752
 20
96.0392864161
 30
0.0
 11
163.4310541752
 21
97.7892862373
 31
0.0
  0
LINE
  5
64
330
1F
100
AcDbEntity
  8
0
  6
Continuous
 62
     7
370
    30
100
AcDbLine
 10
164.2310541549
 20
96.0392864161
 30
0.0
 11
163.4310541752
 21
96.0392864161
 31
0.0
  0
LINE
  5
65
330
1F
100
AcDbEntity
  8
0
  6
Continuous
 62
     7
370
    30
100
AcDbLine
 10
164.2310541549
 20
97.7892862373
 30
0.0
 11
164.2310541549
 21
96.0392864161
 31
0.0
  0
LINE
  5
66
330
1F
100
AcDbEntity
  8
0
  6
Continuous
 62
     7
370
    30
100
AcDbLine
 10
165.9810542381
 20
97.7892862373
 30
0.0
 11
164.2310541549
 21
97.7892862373
 31
0.0
  0
LINE
  5
67
330
1F
100
AcDbEntity
  8
0
  6
Continuous
 62
     7
370
    30
100
AcDbLine
 10
165.9810542381
 20
98.5892886036
 30
0.0
 11
165.9810542381
 21
97.7892862373
 31
0.0
  0
LINE
  5
68
330
1F
100
AcDbEntity
  8
0
  6
Continuous
 62
     7
370
    30
100
AcDbLine
 10
164.2310541549
 20
98.5892886036
 30
0.0
 11
165.9810542381
 21
98.5892886036
 31
0.0
  0
LINE
  5
69
330
1F
100
AcDbEntity
  8
0
  6
Continuous
 62
     7
370
    30
100
AcDbLine
 10
164.2310541549
 20
100.3392884248
 30
0.0
 11
164.2310541549
 21
98.5892886036
 31
0.0
  0
CIRCLE
  5
6A
330
1F
100
AcDbEntity
  8
0
  6
Continuous
 62
     7
370
    30
100
AcDbCircle
 10
163.8310541651
 20
98.1892873162
 30
0.0
 40
3.5
  0
SPLINE
  5
6B
330
1F
100
AcDbEntity
  8
0
  6
Continuous
 62
     7
370
    30
100
AcDbSpline
210
0.0
220
0.0
230
1.0
 70
    24
 71
     3
 72
    12
 73
     8
 74
     0
 42
0.00000001
 43
0.00000001
 12
1.0
 22
0.0
 32
0.0
 13
1.0
 23
0.0
 33
0.0
 40
0.0
 40
0.0
 40
0.0
 40
0.0
 40
0.5
 40
0.5
 40
0.75
 40
0.75
 40
1.0
 40
1.0
 40
1.0
 40
1.0
 10
135.2933830978073
 20
207.189287316165
 30
0.0
 10
135.4083551827116
 20
207.189287316165
 30
0.0
 10
135.5518473436956
 20
207.189287316165
 30
0.0
 10
135.7905274740103
 20
207.189287316165
 30
0.0
 10
135.8752189709224
 20
207.189287316165
 30
0.0
 10
136.0459241717085
 20
207.189287316165
 30
0.0
 10
136.1328223416862
 20
207.189287316165
 30
0.0
 10
136.2213257750737
 20
207.189287316165
 30
0.0
  0
SPLINE
  5
6C
330
1F
100
AcDbEntity
  8
0
  6
Continuous
 62
     7
370
    30
100
AcDbSpline
210
0.0
220
0.0
230
1.0
 70
    24
 71
     3
 72
    12
 73
     8
 74
     0
 42
0.00000001
 43
0.00000001
 12
1.0
 22
0.0
 32
0.0
 13
1.0
 23
0.0
 33
0.0
 40
0.0
 40
0.0
 40
0.0
 40
0.0
 40
0.5000000000000004
 40
0.5000000000000004
 40
0.7500000000000004
 40
0.7500000000000004
 40
1.0
 40
1.0
 40
1.0
 40
1.0
 10
136.2213257750737
 20
90.18928731616496
 30
0.0
 10
136.044334890992
 20
90.18928731616492
 30
0.0
 10
135.8692771345772
 20
90.18928731616496
 30
0.0
 10
135.6306991165587
 20
90.18928731616496
 30
0.0
 10
135.5540466436992
 20
90.18928731616496
 30
0.0
 10
135.4146113657912
 20
90.18928731616496
 30
0.0
 10
135.3508659017533
 20
90.18928731616496
 30
0.0
 10
135.2933830978073
 20
90.18928731616496
 30
0.0
  0
SPLINE
  5
6D
330
1F
100
AcDbEntity
  8
0
  6
Continuous
 62
     7
370
    30
100
AcDbSpline
210
0.0
220
0.0
230
1.0
 70
     8
 71
     3
 72
    10
 73
     6
 74
     0
 42
0.00000001
 43
0.00000001
 12
1.0
 22
0.0
 32
0.0
 13
1.0
 23
0.0
 33
0.0
 40
0.0
 40
0.0
 40
0.0
 40
0.0
 40
0.5
 40
0.5
 40
1.0
 40
1.0
 40
1.0
 40
1.0
 10
164.4413819458373
 20
101.889287316165
 30
0.0
 10
164.2392954794851
 20
101.9226221768503
 30
0.0
 10
164.0355942044318
 20
101.9356810110887
 30
0.0
 10
163.626415428313
 20
101.9356763507006
 30
0.0
 10
163.4228229510528
 20
101.9226238429522
 30
0.0
 10
163.2207263842639
 20
101.889287316165
 30
0.0
  0
ARC
  5
6E
330
1F
100
AcDbEntity
  8
0
  6
Continuous
 62
     7
370
    30
100
AcDbCircle
 10
163.8310541651
 20
98.1892873162
 30
0.0
 40
3.750000000000008
100
AcDbArc
 50
99.3667888844
 51
80.6332111156
  0
ARC
  5
6F
330
1F
100
AcDbEntity
  8
0
  6
Continuous
 62
     7
370
    30
100
AcDbCircle
 10
163.8310541651
 20
199.1892873162
 30
0.0
 40
3.750000000000018
100
AcDbArc
 50
279.3667888844
 51
260.6332111156
  0
CIRCLE
  5
70
330
1F
100
AcDbEntity
  8
0
  6
Continuous
 62
     7
370
    30
100
AcDbCircle
 10
148.8310541651
 20
200.6892873162
 30
0.0
 40
2.0
  0
CIRCLE
  5
71
330
1F
100
AcDbEntity
  8
0
  6
Continuous
 62
     7
370
    30
100
AcDbCircle
 10
148.8310541651
 20
96.6892873162
 30
0.0
 40
2.0
  0
SPLINE
  5
72
330
1F
100
AcDbEntity
  8
0
  6
Continuous
 62
     7
370
    30
100
AcDbSpline
210
0.0
220
0.0
230
1.0
 70
     8
 71
     3
 72
    10
 73
     6
 74
     0
 42
0.00000001
 43
0.00000001
 12
1.0
 22
0.0
 32
0.0
 13
1.0
 23
0.0
 33
0.0
 40
0.0
 40
0.0
 40
0.0
 40
0.0
 40
0.5
 40
0.5
 40
1.0
 40
1.0
 40
1.0
 40
1.0
 10
163.220726384264
 20
195.489287316165
 30
0.0
 10
163.4228128506162
 20
195.4559524554796
 30
0.0
 10
163.6265141256695
 20
195.4428936212412
 30
0.0
 10
164.0356929017882
 20
195.4428982816294
 30
0.0
 10
164.2392853790485
 20
195.4559507893777
 30
0.0
 10
164.4413819458373
 20
195.489287316165
 30
0.0
  0
LINE
  5
73
330
1F
100
AcDbEntity
  8
0
  6
Continuous
 62
     7
370
    30
100
AcDbLine
 10
138.893631219
 20
102.1892862135
 30
0.0
 11
186.0310537061
 21
102.1892862135
 31
0.0
  0
LINE
  5
74
330
1F
100
AcDbEntity
  8
0
  6
Continuous
 62
     7
370
    30
100
AcDbLine
 10
186.0310537061
 20
195.1892884189
 30
0.0
 11
138.893631219
 21
195.1892884189
 31
0.0
  0
ARC
  5
75
330
1F
100
AcDbEntity
  8
0
  6
Continuous
 62
     7
370
    30
100
AcDbCircle
 10
186.0310541651
 20
206.8892873162
 30
0.0
 40
0.2999999999999829
100
AcDbArc
 50
0.0
 51
90.0
  0
ARC
  5
76
330
1F
100
AcDbEntity
  8
0
  6
Continuous
 62
     7
370
    30
100
AcDbCircle
 10
186.0310541651
 20
195.4892873162
 30
0.0
 40
0.2999999999999829
100
AcDbArc
 50
270.0
 51
0.0
  0
ARC
  5
77
330
1F
100
AcDbEntity
  8
0
  6
Continuous
 62
     7
370
    30
100
AcDbCircle
 10
138.8936310906
 20
192.1892873162
 30
0.0
 40
3.000000000000069
100
AcDbArc
 50
90.0
 51
173.3469945733
  0
LINE
  5
78
330
1F
100
AcDbEntity
  8
0
  6
Continuous
 62
     7
370
    30
100
AcDbLine
 10
136.2213258883
 20
207.1892866605
 30
0.0
 11
186.0310537061
 21
207.1892866605
 31
0.0
  0
ARC
  5
79
330
1F
100
AcDbEntity
  8
0
  6
Continuous
 62
     7
370
    30
100
AcDbCircle
 10
511.831054165
 20
148.6892873162
 30
0.0
 40
378.4658060721295
100
AcDbArc
 50
173.3469945733
 51
186.6530054267
  0
ARC
  5
7A
330
1F
100
AcDbEntity
  8
0
  6
Continuous
 62
     7
370
    30
100
AcDbCircle
 10
186.0310541651
 20
90.4892873162
 30
0.0
 40
0.2999999999999972
100
AcDbArc
 50
270.0
 51
0.0
  0
ARC
  5
7B
330
1F
100
AcDbEntity
  8
0
  6
Continuous
 62
     7
370
    30
100
AcDbCircle
 10
138.8936310906
 20
105.1892873162
 30
0.0
 40
3.000000000000066
100
AcDbArc
 50
186.6530054267
 51
270.0
  0
ARC
  5
7C
330
1F
100
AcDbEntity
  8
0
  6
Continuous
 62
     7
370
    30
100
AcDbCircle
 10
186.0310541651
 20
101.8892873162
 30
0.0
 40
0.3000000000000114
100
AcDbArc
 50
0.0
 51
90.0
  0
LINE
  5
7D
330
1F
100
AcDbEntity
  8
0
  6
Continuous
 62
     7
370
    30
100
AcDbLine
 10
186.0310537061
 20
90.1892879718
 30
0.0
 11
136.2213258883
 21
90.1892879718
 31
0.0
  0
LINE
  5
7E
330
1F
100
AcDbEntity
  8
0
  6
Continuous
 62
     7
370
    30
100
AcDbLine
 10
186.3310550591
 20
206.8892890328
 30
0.0
 11
186.3310550591
 21
195.4892860466
 31
0.0
  0
LINE
  5
7F
330
1F
100
AcDbEntity
  8
0
  6
Continuous
 62
     7
370
    30
100
AcDbLine
 10
186.3310550591
 20
101.8892885857
 30
0.0
 11
186.3310550591
 21
90.4892855996
 31
0.0
  0
SPLINE
  5
80
330
1F
100
AcDbEntity
  8
0
  6
Continuous
 62
     7
370
    30
100
AcDbSpline
210
0.0
220
0.0
230
1.0
 70
     8
 71
     3
 72
     8
 73
     4
 74
     0
 42
0.00000001
 43
0.00000001
 12
1.0
 22
0.0
 32
0.0
 13
1.0
 23
0.0
 33
0.0
 40
0.0
 40
0.0
 40
0.0
 40
0.0
 40
1.0
 40
1.0
 40
1.0
 40
1.0
 10
135.2933830978073
 20
90.18928731616496
 30
0.0
 10
135.2291369018509
 20
90.18928731616496
 30
0.0
 10
135.1725126387209
 20
90.19409268180964
 30
0.0
 10
135.1234690058502
 20
90.20332342097012
 30
0.0
  0
SPLINE
  5
81
330
1F
100
AcDbEntity
  8
0
  6
Continuous
 62
     7
370
    30
100
AcDbSpline
210
0.0
220
0.0
230
1.0
 70
     8
 71
     3
 72
     8
 73
     4
 74
     0
 42
0.00000001
 43
0.00000001
 12
1.0
 22
0.0
 32
0.0
 13
1.0
 23
0.0
 33
0.0
 40
0.0
 40
0.0
 40
0.0
 40
0.0
 40
1.0
 40
1.0
 40
1.0
 40
1.0
 10
135.1234690058502
 20
207.1752512113598
 30
0.0
 10
135.1725126387209
 20
207.1844819505203
 30
0.0
 10
135.2291369018504
 20
207.189287316165
 30
0.0
 10
135.2933830978067
 20
207.189287316165
 30
0.0
  0
LINE
  5
82
330
1F
100
AcDbEntity
  8
0
  6
Continuous
 62
     7
370
    30
100
AcDbLine
 10
133.4258140316
 20
204.5068243259
 30
0.0
 11
133.4256501189
 21
204.5068466776
 31
0.0
  0
LINE
  5
83
330
1F
100
AcDbEntity
  8
0
  6
Continuous
 62
     7
370
    30
100
AcDbLine
 10
133.425843834
 20
92.871757757
 30
0.0
 11
133.4256501189
 21
92.8717279547
 31
0.0
  0
LINE
  5
84
330
1F
100
AcDbEntity
  8
0
  6
Continuous
 62
     7
370
    30
100
AcDbLine
 10
129.365249469
 20
245.6565130673
 30
0.0
 11
130.4100518367
 21
243.6599141914
 31
0.0
  0
ARC
  5
85
330
1F
100
AcDbEntity
  8
0
  6
Continuous
 62
     7
370
    30
100
AcDbCircle
 10
131.7390810044
 20
244.3553840281
 30
0.0
 40
1.499999999999972
100
AcDbArc
 50
207.6226649183
 51
270.0
  0
ARC
  5
86
330
1F
100
AcDbEntity
  8
0
  6
Continuous
 62
     7
370
    30
100
AcDbCircle
 10
129.6310541651
 20
245.795607041
 30
0.0
 40
0.3000000000000069
100
AcDbArc
 50
134.0164159764
 51
207.6226649183
  0
ARC
  5
87
330
1F
100
AcDbEntity
  8
0
  6
Continuous
 62
     7
370
    30
100
AcDbCircle
 10
131.4523120281
 20
247.5553840281
 30
0.0
 40
0.3000000000000531
100
AcDbArc
 50
90.0
 51
134.0164159764
  0
LINE
  5
88
330
1F
100
AcDbEntity
  8
0
  6
Continuous
 62
     7
370
    30
100
AcDbLine
 10
131.2438537618
 20
247.7711262876
 30
0.0
 11
129.4225965878
 21
246.0113492674
 31
0.0
  0
SPLINE
  5
89
330
1F
100
AcDbEntity
  8
0
  6
Continuous
 62
     7
370
    30
100
AcDbSpline
210
0.0
220
0.0
230
1.0
 70
    24
 71
     3
 72
    16
 73
    12
 74
     0
 42
0.00000001
 43
0.00000001
 12
1.0
 22
0.0
 32
0.0
 13
1.0
 23
0.0
 33
0.0
 40
0.0
 40
0.0
 40
0.0
 40
0.0
 40
0.1250000000000007
 40
0.1250000000000007
 40
0.2500000000000014
 40
0.2500000000000014
 40
0.5000000000000009
 40
0.5000000000000009
 40
0.7500000000000004
 40
0.7500000000000004
 40
1.0
 40
1.0
 40
1.0
 40
1.0
 10
135.5636945978962
 20
247.8553840281487
 30
0.0
 10
135.5944091085522
 20
247.8553840281487
 30
0.0
 10
135.6597429924879
 20
247.8553840281487
 30
0.0
 10
135.841861451085
 20
247.8553840281487
 30
0.0
 10
135.9607938766855
 20
247.8553840281487
 30
0.0
 10
136.3657786758185
 20
247.8553840281487
 30
0.0
 10
136.7060788488535
 20
247.8553840281487
 30
0.0
 10
137.4329790013061
 20
247.8553840281487
 30
0.0
 10
137.8292140123376
 20
247.8553840281487
 30
0.0
 10
138.6285097212048
 20
247.8553840281487
 30
0.0
 10
139.036041407002
 20
247.8553840281487
 30
0.0
 10
139.4511427202156
 20
247.8553840281487
 30
0.0
  0
LINE
  5
8A
330
1F
100
AcDbEntity
  8
0
  6
Continuous
 62
     7
370
    30
100
AcDbLine
 10
186.3310550591
 20
247.5553840162
 30
0.0
 11
186.3310550591
 21
243.1553840401
 31
0.0
  0
LINE
  5
8B
330
1F
100
AcDbEntity
  8
0
  6
Continuous
 62
     7
370
    30
100
AcDbLine
 10
139.4511432639
 20
247.8553839723
 30
0.0
 11
186.0310537061
 21
247.8553839723
 31
0.0
  0
ARC
  5
8C
330
1F
100
AcDbEntity
  8
0
  6
Continuous
 62
     7
370
    30
100
AcDbCircle
 10
186.0310541651
 20
247.5553840281
 30
0.0
 40
0.2999999999999829
100
AcDbArc
 50
0.0
 51
90.0
  0
SPLINE
  5
8D
330
1F
100
AcDbEntity
  8
0
  6
Continuous
 62
     7
370
    30
100
AcDbSpline
210
0.0
220
0.0
230
1.0
 70
     8
 71
     3
 72
    12
 73
     8
 74
     0
 42
0.00000001
 43
0.00000001
 12
1.0
 22
0.0
 32
0.0
 13
1.0
 23
0.0
 33
0.0
 40
0.0
 40
0.0
 40
0.0
 40
0.0
 40
0.25
 40
0.25
 40
0.5
 40
0.5
 40
1.0
 40
1.0
 40
1.0
 40
1.0
 10
136.2213257750738
 20
242.8553840281488
 30
0.0
 10
136.1111065195192
 20
242.8553840281488
 30
0.0
 10
136.0029052725188
 20
242.8672171748266
 30
0.0
 10
135.7903852011787
 20
242.9136490618296
 30
0.0
 10
135.6849618306699
 20
242.9489214906249
 30
0.0
 10
135.3880033192914
 20
243.0855898541715
 30
0.0
 10
135.2096434464792
 20
243.2198774319217
 30
0.0
 10
135.066816941426
 20
243.3878948371602
 30
0.0
  0
LINE
  5
8E
330
1F
100
AcDbEntity
  8
0
  6
Continuous
 62
     7
370
    30
100
AcDbLine
 10
186.0310537061
 20
242.855384084
 30
0.0
 11
136.2213258883
 21
242.855384084
 31
0.0
  0
ARC
  5
8F
330
1F
100
AcDbEntity
  8
0
  6
Continuous
 62
     7
370
    30
100
AcDbCircle
 10
186.0310541651
 20
243.1553840281
 30
0.0
 40
0.3000000000000114
100
AcDbArc
 50
270.0
 51
0.0
  0
LINE
  5
90
330
1F
100
AcDbEntity
  8
0
  6
Continuous
 62
     7
370
    30
100
AcDbLine
 10
136.2213258883
 20
242.855384084
 30
0.0
 11
131.7390826782
 21
242.855384084
 31
0.0
  0
LINE
  5
91
330
1F
100
AcDbEntity
  8
0
  6
Continuous
 62
     7
370
    30
100
AcDbLine
 10
131.4523135564
 20
247.8553839723
 30
0.0
 11
135.563694804
 21
247.8553839723
 31
0.0
  0
LINE
  5
92
330
1F
100
AcDbEntity
  8
0
  6
Continuous
 62
     7
370
    30
100
AcDbLine
 10
130.4100518367
 20
53.8598728958
 30
0.0
 11
129.365249469
 21
51.8632740199
 31
0.0
  0
ARC
  5
93
330
1F
100
AcDbEntity
  8
0
  6
Continuous
 62
     7
370
    30
100
AcDbCircle
 10
131.7390810044
 20
53.164403059
 30
0.0
 40
1.5
100
AcDbArc
 50
90.0
 51
152.3773350817
  0
ARC
  5
94
330
1F
100
AcDbEntity
  8
0
  6
Continuous
 62
     7
370
    30
100
AcDbCircle
 10
129.6310541651
 20
51.7241800462
 30
0.0
 40
0.2999999999999904
100
AcDbArc
 50
152.3773350817
 51
225.9835840236
  0
LINE
  5
95
330
1F
100
AcDbEntity
  8
0
  6
Continuous
 62
     7
370
    30
100
AcDbLine
 10
129.4225965878
 20
51.5084378198
 30
0.0
 11
131.2438537618
 21
49.7486607996
 31
0.0
  0
ARC
  5
96
330
1F
100
AcDbEntity
  8
0
  6
Continuous
 62
     7
370
    30
100
AcDbCircle
 10
131.4523120281
 20
49.964403059
 30
0.0
 40
0.3000000000000531
100
AcDbArc
 50
225.9835840236
 51
270.0
  0
SPLINE
  5
97
330
1F
100
AcDbEntity
  8
0
  6
Continuous
 62
     7
370
    30
100
AcDbSpline
210
0.0
220
0.0
230
1.0
 70
    24
 71
     3
 72
    20
 73
    16
 74
     0
 42
0.00000001
 43
0.00000001
 12
1.0
 22
0.0
 32
0.0
 13
1.0
 23
0.0
 33
0.0
 40
0.0
 40
0.0
 40
0.0
 40
0.0
 40
0.25
 40
0.25
 40
0.375
 40
0.375
 40
0.5
 40
0.5
 40
0.625
 40
0.625
 40
0.75
 40
0.75
 40
0.875
 40
0.875
 40
1.0
 40
1.0
 40
1.0
 40
1.0
 10
139.4511427202021
 20
49.6644030590482
 30
0.0
 10
139.0361884928171
 20
49.6644030590482
 30
0.0
 10
138.6212301653636
 20
49.6644030590482
 30
0.0
 10
138.021435134296
 20
49.6644030590482
 30
0.0
 10
137.8246678297957
 20
49.6644030590482
 30
0.0
 10
137.4381851751541
 20
49.6644030590482
 30
0.0
 10
137.2469918077648
 20
49.6644030590482
 30
0.0
 10
136.8823422491851
 20
49.6644030590482
 30
0.0
 10
136.7086625219442
 20
49.6644030590482
 30
0.0
 10
136.3819659980387
 20
49.6644030590482
 30
0.0
 10
136.2276197591752
 20
49.6644030590482
 30
0.0
 10
135.9577760448425
 20
49.6644030590482
 30
0.0
 10
135.83970530692
 20
49.6644030590482
 30
0.0
 10
135.6579048879417
 20
49.6644030590482
 30
0.0
 10
135.5944125917231
 20
49.6644030590482
 30
0.0
 10
135.5636945978918
 20
49.6644030590482
 30
0.0
  0
LINE
  5
98
330
1F
100
AcDbEntity
  8
0
  6
Continuous
 62
     7
370
    30
100
AcDbLine
 10
186.0310537061
 20
49.6644031149
 30
0.0
 11
139.4511432639
 21
49.6644031149
 31
0.0
  0
ARC
  5
99
330
1F
100
AcDbEntity
  8
0
  6
Continuous
 62
     7
370
    30
100
AcDbCircle
 10
186.0310541651
 20
49.964403059
 30
0.0
 40
0.2999999999999972
100
AcDbArc
 50
270.0
 51
0.0
  0
LINE
  5
9A
330
1F
100
AcDbEntity
  8
0
  6
Continuous
 62
     7
370
    30
100
AcDbLine
 10
186.3310550591
 20
54.3644030471
 30
0.0
 11
186.3310550591
 21
49.964403071
 31
0.0
  0
LINE
  5
9B
330
1F
100
AcDbEntity
  8
0
  6
Continuous
 62
     7
370
    30
100
AcDbLine
 10
136.2213258883
 20
54.6644030032
 30
0.0
 11
186.0310537061
 21
54.6644030032
 31
0.0
  0
SPLINE
  5
9C
330
1F
100
AcDbEntity
  8
0
  6
Continuous
 62
     7
370
    30
100
AcDbSpline
210
0.0
220
0.0
230
1.0
 70
     8
 71
     3
 72
    12
 73
     8
 74
     0
 42
0.00000001
 43
0.00000001
 12
1.0
 22
0.0
 32
0.0
 13
1.0
 23
0.0
 33
0.0
 40
0.0
 40
0.0
 40
0.0
 40
0.0
 40
0.2499999999999981
 40
0.2499999999999981
 40
0.4999999999999962
 40
0.4999999999999962
 40
1.0
 40
1.0
 40
1.0
 40
1.0
 10
135.066816941426
 20
54.13189225003676
 30
0.0
 10
135.1382245208202
 20
54.21589427892978
 30
0.0
 10
135.2174331840199
 20
54.29056487624528
 30
0.0
 10
135.3907691573202
 20
54.42206076331792
 30
0.0
 10
135.4861022806423
 20
54.47926384882476
 30
0.0
 10
135.7829395914418
 20
54.61611885943029
 30
0.0
 10
136.0009095870484
 20
54.66440305904819
 30
0.0
 10
136.2213257750737
 20
54.6644030590482
 30
0.0
  0
ARC
  5
9D
330
1F
100
AcDbEntity
  8
0
  6
Continuous
 62
     7
370
    30
100
AcDbCircle
 10
186.0310541651
 20
54.364403059
 30
0.0
 40
0.3000000000000114
100
AcDbArc
 50
0.0
 51
90.0
  0
LINE
  5
9E
330
1F
100
AcDbEntity
  8
0
  6
Continuous
 62
     7
370
    30
100
AcDbLine
 10
131.7390826782
 20
54.6644030032
 30
0.0
 11
136.2213258883
 21
54.6644030032
 31
0.0
  0
LINE
  5
9F
330
1F
100
AcDbEntity
  8
0
  6
Continuous
 62
     7
370
    30
100
AcDbLine
 10
135.563694804
 20
49.6644031149
 30
0.0
 11
131.4523135564
 21
49.6644031149
 31
0.0
  0
LINE
  5
A0
330
1F
100
AcDbEntity
  8
0
  6
Continuous
 62
     7
370
    30
100
AcDbLine
 10
81.9976069094
 20
206.8892890328
 30
0.0
 11
81.9976069094
 21
90.4892855996
 31
0.0
  0
LINE
  5
A1
330
1F
100
AcDbEntity
  8
0
  6
Continuous
 62
     7
370
    30
100
AcDbLine
 10
76.9976070212
 20
92.9141888135
 30
0.0
 11
76.9976070212
 21
204.4643858188
 31
0.0
  0
SPLINE
  5
A2
330
1F
100
AcDbEntity
  8
0
  6
Continuous
 62
     7
370
    30
100
AcDbSpline
210
0.0
220
0.0
230
1.0
 70
     8
 71
     3
 72
     8
 73
     4
 74
     0
 42
0.00000001
 43
0.00000001
 12
1.0
 22
0.0
 32
0.0
 13
1.0
 23
0.0
 33
0.0
 40
0.0
 40
0.0
 40
0.0
 40
0.0
 40
1.0
 40
1.0
 40
1.0
 40
1.0
 10
81.0330298715877
 20
207.1752512113598
 30
0.0
 10
81.11769377907443
 20
207.1844819505203
 30
0.0
 10
81.19721894789606
 20
207.189287316165
 30
0.0
 10
81.27159831811241
 20
207.189287316165
 30
0.0
  0
LINE
  5
A3
330
1F
100
AcDbEntity
  8
0
  6
Continuous
 62
     7
370
    30
100
AcDbLine
 10
77.2976069772
 20
207.1892866605
 30
0.0
 11
81.2715983545
 21
207.1892866605
 31
0.0
  0
LINE
  5
A4
330
1F
100
AcDbEntity
  8
0
  6
Continuous
 62
     7
370
    30
100
AcDbLine
 10
81.2715983545
 20
90.1892879718
 30
0.0
 11
77.2976069772
 21
90.1892879718
 31
0.0
  0
ARC
  5
A5
330
1F
100
AcDbEntity
  8
0
  6
Continuous
 62
     7
370
    30
100
AcDbCircle
 10
77.2976069653
 20
206.8892873162
 30
0.0
 40
0.3000000000000114
100
AcDbArc
 50
90.0
 51
180.0
  0
SPLINE
  5
A6
330
1F
100
AcDbEntity
  8
0
  6
Continuous
 62
     7
370
    30
100
AcDbSpline
210
0.0
220
0.0
230
1.0
 70
    24
 71
     3
 72
    16
 73
    12
 74
     0
 42
0.00000001
 43
0.00000001
 12
1.0
 22
0.0
 32
0.0
 13
1.0
 23
0.0
 33
0.0
 40
0.0
 40
0.0
 40
0.0
 40
0.0
 40
0.1250000000000007
 40
0.1250000000000007
 40
0.2500000000000014
 40
0.2500000000000014
 40
0.5000000000000009
 40
0.5000000000000009
 40
0.7500000000000004
 40
0.7500000000000004
 40
1.0
 40
1.0
 40
1.0
 40
1.0
 10
76.99760696532124
 20
204.4643856494327
 30
0.0
 10
76.99760696532124
 20
204.6715904445899
 30
0.0
 10
76.99760696532124
 20
204.8719875496718
 30
0.0
 10
76.99760696532124
 20
205.2426213307033
 30
0.0
 10
76.99760696532124
 20
205.417058467765
 30
0.0
 10
76.99760696532124
 20
205.8857766111911
 30
0.0
 10
76.99760696532124
 20
206.1368851178292
 30
0.0
 10
76.99760696532124
 20
206.5229567199221
 30
0.0
 10
76.99760696532124
 20
206.6628945595384
 30
0.0
 10
76.99760696532124
 20
206.8447482646862
 30
0.0
 10
76.99760696532124
 20
206.889287316165
 30
0.0
 10
76.99760696532124
 20
206.889287316165
 30
0.0
  0
ARC
  5
A7
330
1F
100
AcDbEntity
  8
0
  6
Continuous
 62
     7
370
    30
100
AcDbCircle
 10
77.2976069653
 20
90.4892873162
 30
0.0
 40
0.3000000000000114
100
AcDbArc
 50
179.9999999999
 51
270.0000000014
  0
SPLINE
  5
A8
330
1F
100
AcDbEntity
  8
0
  6
Continuous
 62
     7
370
    30
100
AcDbSpline
210
0.0
220
0.0
230
1.0
 70
    24
 71
     3
 72
    20
 73
    16
 74
     0
 42
0.00000001
 43
0.00000001
 12
1.0
 22
0.0
 32
0.0
 13
1.0
 23
0.0
 33
0.0
 40
0.0
 40
0.0
 40
0.0
 40
0.0
 40
0.25
 40
0.25
 40
0.375
 40
0.375
 40
0.5
 40
0.5
 40
0.625
 40
0.625
 40
0.75
 40
0.75
 40
0.875
 40
0.875
 40
1.0
 40
1.0
 40
1.0
 40
1.0
 10
76.99760696532124
 20
90.48928731616498
 30
0.0
 10
76.99760696532124
 20
90.48928731616597
 30
0.0
 10
76.99760696532124
 20
90.53486939812687
 30
0.0
 10
76.99760696532124
 20
90.67226171383143
 30
0.0
 10
76.99760696532124
 20
90.72962657728203
 30
0.0
 10
76.99760696532124
 20
90.87013485956811
 30
0.0
 10
76.99760696532124
 20
90.9540886490163
 30
0.0
 10
76.99760696532124
 20
91.14839168110394
 30
0.0
 10
76.99760696532124
 20
91.25846567279747
 30
0.0
 10
76.99760696532124
 20
91.50950025070298
 30
0.0
 10
76.99760696532124
 20
91.65215598241082
 30
0.0
 10
76.99760696532124
 20
91.9655648204159
 30
0.0
 10
76.99760696532124
 20
92.13937908328667
 30
0.0
 10
76.99760696532124
 20
92.51131142026453
 30
0.0
 10
76.99760696532124
 20
92.70696068970415
 30
0.0
 10
76.99760696532124
 20
92.91418898289267
 30
0.0
  0
SPLINE
  5
A9
330
1F
100
AcDbEntity
  8
0
  6
Continuous
 62
     7
370
    30
100
AcDbSpline
210
0.0
220
0.0
230
1.0
 70
    24
 71
     3
 72
    12
 73
     8
 74
     0
 42
0.00000001
 43
0.00000001
 12
1.0
 22
0.0
 32
0.0
 13
1.0
 23
0.0
 33
0.0
 40
0.0
 40
0.0
 40
0.0
 40
0.0
 40
0.5
 40
0.5
 40
0.75
 40
0.75
 40
1.0
 40
1.0
 40
1.0
 40
1.0
 10
81.27159831811208
 20
207.189287316165
 30
0.0
 10
81.40621885759997
 20
207.189287316165
 30
0.0
 10
81.5136394691136
 20
207.189287316165
 30
0.0
 10
81.62289245240966
 20
207.189287316165
 30
0.0
 10
81.65106901824755
 20
207.189287316165
 30
0.0
 10
81.68815883952729
 20
207.189287316165
 30
0.0
 10
81.69760696532123
 20
207.189287316165
 30
0.0
 10
81.69760696532123
 20
207.189287316165
 30
0.0
  0
ARC
  5
AA
330
1F
100
AcDbEntity
  8
0
  6
Continuous
 62
     7
370
    30
100
AcDbCircle
 10
81.6976069653
 20
206.8892873162
 30
0.0
 40
0.3000000000000114
100
AcDbArc
 50
0.0
 51
90.0
  0
ARC
  5
AB
330
1F
100
AcDbEntity
  8
0
  6
Continuous
 62
     7
370
    30
100
AcDbCircle
 10
81.6976069653
 20
90.4892873162
 30
0.0
 40
0.3000000000000114
100
AcDbArc
 50
270.0
 51
0.0
  0
SPLINE
  5
AC
330
1F
100
AcDbEntity
  8
0
  6
Continuous
 62
     7
370
    30
100
AcDbSpline
210
0.0
220
0.0
230
1.0
 70
    24
 71
     3
 72
    12
 73
     8
 74
     0
 42
0.00000001
 43
0.00000001
 12
1.0
 22
0.0
 32
0.0
 13
1.0
 23
0.0
 33
0.0
 40
0.0
 40
0.0
 40
0.0
 40
0.0
 40
0.5000000000000004
 40
0.5000000000000004
 40
0.7500000000000004
 40
0.7500000000000004
 40
1.0
 40
1.0
 40
1.0
 40
1.0
 10
81.69760696532123
 20
90.18928731616496
 30
0.0
 10
81.69760696532123
 20
90.18928731616494
 30
0.0
 10
81.65906754661816
 20
90.18928731616496
 30
0.0
 10
81.54966828936364
 20
90.18928731616498
 30
0.0
 10
81.50392490370804
 20
90.18928731616496
 30
0.0
 10
81.39869189807017
 20
90.18928731616496
 30
0.0
 10
81.33890479589684
 20
90.18928731616498
 30
0.0
 10
81.27159831811205
 20
90.18928731616496
 30
0.0
  0
LINE
  5
AD
330
1F
100
AcDbEntity
  8
0
  6
Continuous
 62
     7
370
    30
100
AcDbLine
 10
238.5007643681
 20
102.1892862135
 30
0.0
 11
238.2007643538
 21
102.1892862135
 31
0.0
  0
LINE
  5
AE
330
1F
100
AcDbEntity
  8
0
  6
Continuous
 62
     7
370
    30
100
AcDbLine
 10
238.2007643538
 20
94.1892886275
 30
0.0
 11
238.5007643681
 21
94.1892886275
 31
0.0
  0
LINE
  5
AF
330
1F
100
AcDbEntity
  8
0
  6
Continuous
 62
     7
370
    30
100
AcDbLine
 10
238.5007643681
 20
203.1892860049
 30
0.0
 11
238.2007643538
 21
203.1892860049
 31
0.0
  0
LINE
  5
B0
330
1F
100
AcDbEntity
  8
0
  6
Continuous
 62
     7
370
    30
100
AcDbLine
 10
238.2007643538
 20
195.1892884189
 30
0.0
 11
238.5007643681
 21
195.1892884189
 31
0.0
  0
LINE
  5
B1
330
1F
100
AcDbEntity
  8
0
  6
Continuous
 62
     7
370
    30
100
AcDbLine
 10
238.5007643681
 20
96.4392857366
 30
0.0
 11
241.0007643122
 21
96.4392857366
 31
0.0
  0
LINE
  5
B2
330
1F
100
AcDbEntity
  8
0
  6
Continuous
 62
     7
370
    30
100
AcDbLine
 10
241.0007643122
 20
99.9392891043
 30
0.0
 11
238.5007643681
 21
99.9392891043
 31
0.0
  0
LINE
  5
B3
330
1F
100
AcDbEntity
  8
0
  6
Continuous
 62
     7
370
    30
100
AcDbLine
 10
238.5007643681
 20
197.439285528
 30
0.0
 11
241.0007643122
 21
197.439285528
 31
0.0
  0
LINE
  5
B4
330
1F
100
AcDbEntity
  8
0
  6
Continuous
 62
     7
370
    30
100
AcDbLine
 10
241.0007643122
 20
200.9392888957
 30
0.0
 11
238.5007643681
 21
200.9392888957
 31
0.0
  0
LINE
  5
B5
330
1F
100
AcDbEntity
  8
0
  6
Continuous
 62
     7
370
    30
100
AcDbLine
 10
241.0007643122
 20
91.8892869466
 30
0.0
 11
241.0007643122
 21
90.4892855996
 31
0.0
  0
ARC
  5
B6
330
1F
100
AcDbEntity
  8
0
  6
Continuous
 62
     7
370
    30
100
AcDbCircle
 10
240.7007643681
 20
91.8892873162
 30
0.0
 40
0.3000000000000114
100
AcDbArc
 50
0.0
 51
90.0
  0
ARC
  5
B7
330
1F
100
AcDbEntity
  8
0
  6
Continuous
 62
     7
370
    30
100
AcDbCircle
 10
240.7007643681
 20
90.4892873162
 30
0.0
 40
0.3000000000000114
100
AcDbArc
 50
270.0
 51
0.0
  0
LINE
  5
B8
330
1F
100
AcDbEntity
  8
0
  6
Continuous
 62
     7
370
    30
100
AcDbLine
 10
240.7007643562
 20
90.1892879718
 30
0.0
 11
236.30076438
 21
90.1892879718
 31
0.0
  0
LINE
  5
B9
330
1F
100
AcDbEntity
  8
0
  6
Continuous
 62
     7
370
    30
100
AcDbLine
 10
239.2007643431
 20
92.1892882996
 30
0.0
 11
240.7007643562
 21
92.1892882996
 31
0.0
  0
ARC
  5
BA
330
1F
100
AcDbEntity
  8
0
  6
Continuous
 62
     7
370
    30
100
AcDbCircle
 10
239.2007643681
 20
93.1892873162
 30
0.0
 40
1.0
100
AcDbArc
 50
180.0
 51
270.0
  0
LINE
  5
BB
330
1F
100
AcDbEntity
  8
0
  6
Continuous
 62
     7
370
    30
100
AcDbLine
 10
238.2007643538
 20
101.8892885857
 30
0.0
 11
238.2007643538
 21
93.1892866009
 31
0.0
  0
ARC
  5
BC
330
1F
100
AcDbEntity
  8
0
  6
Continuous
 62
     7
370
    30
100
AcDbCircle
 10
237.9007643681
 20
101.8892873162
 30
0.0
 40
0.3000000000000114
100
AcDbArc
 50
0.0
 51
90.0
  0
LINE
  5
BD
330
1F
100
AcDbEntity
  8
0
  6
Continuous
 62
     7
370
    30
100
AcDbLine
 10
236.30076438
 20
102.1892862135
 30
0.0
 11
237.9007643396
 21
102.1892862135
 31
0.0
  0
ARC
  5
BE
330
1F
100
AcDbEntity
  8
0
  6
Continuous
 62
     7
370
    30
100
AcDbCircle
 10
239.2007643681
 20
204.1892873162
 30
0.0
 40
1.0
100
AcDbArc
 50
90.0
 51
180.0
  0
ARC
  5
BF
330
1F
100
AcDbEntity
  8
0
  6
Continuous
 62
     7
370
    30
100
AcDbCircle
 10
240.7007643681
 20
206.8892873162
 30
0.0
 40
0.3000000000000114
100
AcDbArc
 50
0.0
 51
90.0
  0
ARC
  5
C0
330
1F
100
AcDbEntity
  8
0
  6
Continuous
 62
     7
370
    30
100
AcDbCircle
 10
240.7007643681
 20
205.4892873162
 30
0.0
 40
0.3000000000000114
100
AcDbArc
 50
270.0
 51
0.0
  0
LINE
  5
C1
330
1F
100
AcDbEntity
  8
0
  6
Continuous
 62
     7
370
    30
100
AcDbLine
 10
241.0007643122
 20
206.8892890328
 30
0.0
 11
241.0007643122
 21
205.4892876857
 31
0.0
  0
LINE
  5
C2
330
1F
100
AcDbEntity
  8
0
  6
Continuous
 62
     7
370
    30
100
AcDbLine
 10
240.7007643562
 20
205.1892863327
 30
0.0
 11
239.2007643431
 21
205.1892863327
 31
0.0
  0
ARC
  5
C3
330
1F
100
AcDbEntity
  8
0
  6
Continuous
 62
     7
370
    30
100
AcDbCircle
 10
236.3007643681
 20
90.4892873162
 30
0.0
 40
0.3000000000000114
100
AcDbArc
 50
180.0
 51
270.0
  0
LINE
  5
C4
330
1F
100
AcDbEntity
  8
0
  6
Continuous
 62
     7
370
    30
100
AcDbLine
 10
238.2007643538
 20
204.1892880314
 30
0.0
 11
238.2007643538
 21
195.4892860466
 31
0.0
  0
LINE
  5
C5
330
1F
100
AcDbEntity
  8
0
  6
Continuous
 62
     7
370
    30
100
AcDbLine
 10
236.000764424
 20
90.4892855996
 30
0.0
 11
236.000764424
 21
101.8892885857
 31
0.0
  0
ARC
  5
C6
330
1F
100
AcDbEntity
  8
0
  6
Continuous
 62
     7
370
    30
100
AcDbCircle
 10
236.3007643681
 20
101.8892873162
 30
0.0
 40
0.2999999999999972
100
AcDbArc
 50
90.0
 51
180.0
  0
LINE
  5
C7
330
1F
100
AcDbEntity
  8
0
  6
Continuous
 62
     7
370
    30
100
AcDbLine
 10
236.30076438
 20
207.1892866605
 30
0.0
 11
240.7007643562
 21
207.1892866605
 31
0.0
  0
ARC
  5
C8
330
1F
100
AcDbEntity
  8
0
  6
Continuous
 62
     7
370
    30
100
AcDbCircle
 10
237.9007643681
 20
195.4892873162
 30
0.0
 40
0.3000000000000114
100
AcDbArc
 50
270.0
 51
0.0
  0
LINE
  5
C9
330
1F
100
AcDbEntity
  8
0
  6
Continuous
 62
     7
370
    30
100
AcDbLine
 10
236.000764424
 20
195.4892860466
 30
0.0
 11
236.000764424
 21
206.8892890328
 31
0.0
  0
LINE
  5
CA
330
1F
100
AcDbEntity
  8
0
  6
Continuous
 62
     7
370
    30
100
AcDbLine
 10
237.9007643396
 20
195.1892884189
 30
0.0
 11
236.30076438
 21
195.1892884189
 31
0.0
  0
ARC
  5
CB
330
1F
100
AcDbEntity
  8
0
  6
Continuous
 62
     7
370
    30
100
AcDbCircle
 10
236.3007643681
 20
206.8892873162
 30
0.0
 40
0.3000000000000114
100
AcDbArc
 50
90.0
 51
180.0
  0
ARC
  5
CC
330
1F
100
AcDbEntity
  8
0
  6
Continuous
 62
     7
370
    30
100
AcDbCircle
 10
236.3007643681
 20
195.4892873162
 30
0.0
 40
0.2999999999999829
100
AcDbArc
 50
180.0
 51
270.0
  0
LINE
  5
CD
330
1F
100
AcDbEntity
  8
0
  6
Continuous
 62
     7
370
    30
100
AcDbLine
 10
241.0007643122
 20
205.4892876857
 30
0.0
 11
241.0007643122
 21
203.5222524517
 31
0.0
  0
LINE
  5
CE
330
1F
100
AcDbEntity
  8
0
  6
Continuous
 62
     7
370
    30
100
AcDbLine
 10
241.0007643122
 20
93.8563221806
 30
0.0
 11
241.0007643122
 21
91.8892869466
 31
0.0
  0
LINE
  5
CF
330
1F
100
AcDbEntity
  8
0
  6
Continuous
 62
     7
370
    30
100
AcDbLine
 10
238.2007643538
 20
195.1892884189
 30
0.0
 11
238.2007643538
 21
195.0340592974
 31
0.0
  0
LINE
  5
D0
330
1F
100
AcDbEntity
  8
0
  6
Continuous
 62
     7
370
    30
100
AcDbLine
 10
238.2007643538
 20
102.3445153349
 30
0.0
 11
238.2007643538
 21
102.1892862135
 31
0.0
  0
LINE
  5
D1
330
1F
100
AcDbEntity
  8
0
  6
Continuous
 62
     7
370
    30
100
AcDbLine
 10
236.000764424
 20
101.8892885857
 30
0.0
 11
236.000764424
 21
104.8069620245
 31
0.0
  0
LINE
  5
D2
330
1F
100
AcDbEntity
  8
0
  6
Continuous
 62
     7
370
    30
100
AcDbLine
 10
236.000764424
 20
192.5716126078
 30
0.0
 11
236.000764424
 21
195.4892860466
 31
0.0
  0
LINE
  5
D3
330
1F
100
AcDbEntity
  8
0
  6
Continuous
 62
     7
370
    30
100
AcDbLine
 10
241.0007643122
 20
203.5222524517
 30
0.0
 11
241.0007643122
 21
200.9392888957
 31
0.0
  0
LINE
  5
D4
330
1F
100
AcDbEntity
  8
0
  6
Continuous
 62
     7
370
    30
100
AcDbLine
 10
241.0007643122
 20
197.439285528
 30
0.0
 11
241.0007643122
 21
99.9392891043
 31
0.0
  0
LINE
  5
D5
330
1F
100
AcDbEntity
  8
0
  6
Continuous
 62
     7
370
    30
100
AcDbLine
 10
241.0007643122
 20
96.4392857366
 30
0.0
 11
241.0007643122
 21
93.8563221806
 31
0.0
  0
LINE
  5
D6
330
1F
100
AcDbEntity
  8
0
  6
Continuous
 62
     7
370
    30
100
AcDbLine
 10
236.000764424
 20
104.8069620245
 30
0.0
 11
236.000764424
 21
192.5716126078
 31
0.0
  0
LINE
  5
D7
330
1F
100
AcDbEntity
  8
0
  6
Continuous
 62
     7
370
    30
100
AcDbLine
 10
238.5007643681
 20
98.1892855578
 30
0.0
 11
238.5007643681
 21
102.1892862135
 31
0.0
  0
LINE
  5
D8
330
1F
100
AcDbEntity
  8
0
  6
Continuous
 62
     7
370
    30
100
AcDbLine
 10
238.5007643681
 20
94.1892886275
 30
0.0
 11
238.5007643681
 21
98.1892855578
 31
0.0
  0
LINE
  5
D9
330
1F
100
AcDbEntity
  8
0
  6
Continuous
 62
     7
370
    30
100
AcDbLine
 10
238.2007643538
 20
101.8892885857
 30
0.0
 11
238.2007643538
 21
102.1892862135
 31
0.0
  0
LINE
  5
DA
330
1F
100
AcDbEntity
  8
0
  6
Continuous
 62
     7
370
    30
100
AcDbLine
 10
238.2007643538
 20
195.1892884189
 30
0.0
 11
238.2007643538
 21
195.4892860466
 31
0.0
  0
LINE
  5
DB
330
1F
100
AcDbEntity
  8
0
  6
Continuous
 62
     7
370
    30
100
AcDbLine
 10
238.5007643681
 20
199.1892890745
 30
0.0
 11
238.5007643681
 21
203.1892860049
 31
0.0
  0
LINE
  5
DC
330
1F
100
AcDbEntity
  8
0
  6
Continuous
 62
     7
370
    30
100
AcDbLine
 10
238.5007643681
 20
195.1892884189
 30
0.0
 11
238.5007643681
 21
199.1892890745
 31
0.0
  0
LINE
  5
DD
330
1F
100
AcDbEntity
  8
0
  6
Continuous
 62
     7
370
    30
100
AcDbLine
 10
241.0007643122
 20
98.1892855578
 30
0.0
 11
241.0007643122
 21
99.9392891043
 31
0.0
  0
LINE
  5
DE
330
1F
100
AcDbEntity
  8
0
  6
Continuous
 62
     7
370
    30
100
AcDbLine
 10
241.0007643122
 20
96.4392857366
 30
0.0
 11
241.0007643122
 21
98.1892855578
 31
0.0
  0
LINE
  5
DF
330
1F
100
AcDbEntity
  8
0
  6
Continuous
 62
     7
370
    30
100
AcDbLine
 10
241.0007643122
 20
199.1892890745
 30
0.0
 11
241.0007643122
 21
200.9392888957
 31
0.0
  0
LINE
  5
E0
330
1F
100
AcDbEntity
  8
0
  6
Continuous
 62
     7
370
    30
100
AcDbLine
 10
241.0007643122
 20
197.439285528
 30
0.0
 11
241.0007643122
 21
199.1892890745
 31
0.0
  0
SPLINE
  5
E1
330
1F
100
AcDbEntity
  8
0
  6
Continuous
 62
     7
370
    30
100
AcDbSpline
210
0.0
220
0.0
230
1.0
 70
     8
 71
     3
 72
    14
 73
    10
 74
     0
 42
0.00000001
 43
0.00000001
 12
1.0
 22
0.0
 32
0.0
 13
1.0
 23
0.0
 33
0.0
 40
0.0
 40
0.0
 40
0.0
 40
0.0
 40
0.1527603389105176
 40
0.3184253708083933
 40
0.4854472281285061
 40
0.6559531152004406
 40
0.8309095000097596
 40
0.9817638128489509
 40
1.0
 40
1.0
 40
1.0
 40
1.0
 10
341.8617791230494
 20
205.0656066947794
 30
0.0
 10
341.8152585233238
 20
205.2347456844793
 30
0.0
 10
341.7182874160096
 20
205.5873119716285
 30
0.0
 10
341.5094228457661
 20
206.0650479512656
 30
0.0
 10
341.2562642288008
 20
206.4903276714792
 30
0.0
 10
340.9620872979154
 20
206.8366474457317
 30
0.0
 10
340.6439806145212
 20
207.0607430867158
 30
0.0
 10
340.4034360943376
 20
207.1722458311788
 30
0.0
 10
340.2818666847586
 20
207.173104522942
 30
0.0
 10
340.2687555844599
 20
207.1731971317148
 30
0.0
  0
SPLINE
  5
E2
330
1F
100
AcDbEntity
  8
0
  6
Continuous
 62
     7
370
    30
100
AcDbSpline
210
0.0
220
0.0
230
1.0
 70
     8
 71
     3
 72
     9
 73
     5
 74
     0
 42
0.00000001
 43
0.00000001
 12
1.0
 22
0.0
 32
0.0
 13
1.0
 23
0.0
 33
0.0
 40
0.0
 40
0.0
 40
0.0
 40
0.0
 40
0.9235926624617333
 40
1.0
 40
1.0
 40
1.0
 40
1.0
 10
341.9720104629808
 20
204.5064927750444
 30
0.0
 10
341.9467869503106
 20
204.6834930560846
 30
0.0
 10
341.9194767369499
 20
204.8751362860863
 30
0.0
 10
341.865874711129
 20
205.0520864071517
 30
0.0
 10
341.8617791230494
 20
205.0656066947794
 30
0.0
  0
LINE
  5
E3
330
1F
100
AcDbEntity
  8
0
  6
Continuous
 62
     7
370
    30
100
AcDbLine
 10
341.9672718937
 20
92.8622321897
 30
0.0
 11
341.9686577017
 21
92.8725549692
 31
0.0
  0
SPLINE
  5
E4
330
1F
100
AcDbEntity
  8
0
  6
Continuous
 62
     7
370
    30
100
AcDbSpline
210
0.0
220
0.0
230
1.0
 70
     8
 71
     3
 72
    15
 73
    11
 74
     0
 42
0.00000001
 43
0.00000001
 12
1.0
 22
0.0
 32
0.0
 13
1.0
 23
0.0
 33
0.0
 40
0.0
 40
0.0
 40
0.0
 40
0.0
 40
0.04325034851445
 40
0.1849142859124256
 40
0.3363771991022497
 40
0.4920947812732674
 40
0.6468378792725166
 40
0.799732832639536
 40
0.9505875907749327
 40
1.0
 40
1.0
 40
1.0
 40
1.0
 10
340.4161243433767
 20
90.24505929287433
 30
0.0
 10
340.4498519993689
 20
90.25184802055277
 30
0.0
 10
340.594052581272
 20
90.28087282090766
 30
0.0
 10
340.8341203866283
 20
90.44329900091493
 30
0.0
 10
341.1308577524339
 20
90.72371591114289
 30
0.0
 10
341.4009946735669
 20
91.11246847977418
 30
0.0
 10
341.6347936228565
 20
91.58188861710751
 30
0.0
 10
341.8169549487848
 20
92.10938290689931
 30
0.0
 10
341.9280667415517
 20
92.5456337418733
 30
0.0
 10
341.959513065189
 20
92.79957631583683
 30
0.0
 10
341.9672718937212
 20
92.86223218973637
 30
0.0
  0
ARC
  5
E5
330
1F
100
AcDbEntity
  8
0
  6
Continuous
 62
     7
370
    30
100
AcDbCircle
 10
-36.4307691162
 20
148.6892873162
 30
0.0
 40
382.4999999999989
100
AcDbArc
 50
351.6089636424
 51
0.0
  0
ARC
  5
E6
330
1F
100
AcDbEntity
  8
0
  6
Continuous
 62
     7
370
    30
100
AcDbCircle
 10
-36.4307691162
 20
148.6892873162
 30
0.0
 40
382.4999999999989
100
AcDbArc
 50
0.0
 51
8.3910363576
  0
SPLINE
  5
E7
330
1F
100
AcDbEntity
  8
0
  6
Continuous
 62
     7
370
    30
100
AcDbSpline
210
0.0
220
0.0
230
1.0
 70
     8
 71
     3
 72
     8
 73
     4
 74
     0
 42
0.00000001
 43
0.00000001
 12
1.0
 22
0.0
 32
0.0
 13
1.0
 23
0.0
 33
0.0
 40
0.0
 40
0.0
 40
0.0
 40
0.0
 40
1.0
 40
1.0
 40
1.0
 40
1.0
 10
340.2768160430188
 20
207.1752512113598
 30
0.0
 10
340.2277724101481
 20
207.1844819505203
 30
0.0
 10
340.1711481470185
 20
207.189287316165
 30
0.0
 10
340.1069019510622
 20
207.189287316165
 30
0.0
  0
LINE
  5
E8
330
1F
100
AcDbEntity
  8
0
  6
Continuous
 62
     7
370
    30
100
AcDbLine
 10
335.949141785
 20
207.1892866605
 30
0.0
 11
340.1069010342
 21
207.1892866605
 31
0.0
  0
SPLINE
  5
E9
330
1F
100
AcDbEntity
  8
0
  6
Continuous
 62
     7
370
    30
100
AcDbSpline
210
0.0
220
0.0
230
1.0
 70
     8
 71
     3
 72
     8
 73
     4
 74
     0
 42
0.00000001
 43
0.00000001
 12
1.0
 22
0.0
 32
0.0
 13
1.0
 23
0.0
 33
0.0
 40
0.0
 40
0.0
 40
0.0
 40
0.0
 40
1.0
 40
1.0
 40
1.0
 40
1.0
 10
340.1069019510616
 20
90.18928731616496
 30
0.0
 10
340.171148147018
 20
90.18928731616496
 30
0.0
 10
340.227772410148
 20
90.19409268180966
 30
0.0
 10
340.2768160430188
 20
90.20332342097014
 30
0.0
  0
LINE
  5
EA
330
1F
100
AcDbEntity
  8
0
  6
Continuous
 62
     7
370
    30
100
AcDbLine
 10
340.1069010342
 20
90.1892879718
 30
0.0
 11
335.949141785
 21
90.1892879718
 31
0.0
  0
LINE
  5
EB
330
1F
100
AcDbEntity
  8
0
  6
Continuous
 62
     7
370
    30
100
AcDbLine
 10
335.949141785
 20
90.1892879718
 30
0.0
 11
289.3692313428
 21
90.1892879718
 31
0.0
  0
ARC
  5
EC
330
1F
100
AcDbEntity
  8
0
  6
Continuous
 62
     7
370
    30
100
AcDbCircle
 10
-36.4307691162
 20
148.6892873162
 30
0.0
 40
378.4658060721295
100
AcDbArc
 50
351.6761862245
 51
8.3238137755
  0
ARC
  5
ED
330
1F
100
AcDbEntity
  8
0
  6
Continuous
 62
     7
370
    30
100
AcDbCircle
 10
336.0692351006
 20
203.1892873162
 30
0.0
 40
2.000000000000071
100
AcDbArc
 50
8.3238137755
 51
90.0
  0
ARC
  5
EE
330
1F
100
AcDbEntity
  8
0
  6
Continuous
 62
     7
370
    30
100
AcDbCircle
 10
336.0692351006
 20
94.1892873162
 30
0.0
 40
2.000000000000013
100
AcDbArc
 50
270.0
 51
351.6761862245
  0
LINE
  5
EF
330
1F
100
AcDbEntity
  8
0
  6
Continuous
 62
     7
370
    30
100
AcDbLine
 10
289.3692313428
 20
92.1892882996
 30
0.0
 11
336.069235831
 21
92.1892882996
 31
0.0
  0
LINE
  5
F0
330
1F
100
AcDbEntity
  8
0
  6
Continuous
 62
     7
370
    30
100
AcDbLine
 10
336.069235831
 20
205.1892863327
 30
0.0
 11
289.3692313428
 21
205.1892863327
 31
0.0
  0
LINE
  5
F1
330
1F
100
AcDbEntity
  8
0
  6
Continuous
 62
     7
370
    30
100
AcDbLine
 10
289.3692313428
 20
207.1892866605
 30
0.0
 11
335.949141785
 21
207.1892866605
 31
0.0
  0
LINE
  5
F2
330
1F
100
AcDbEntity
  8
0
  6
Continuous
 62
     7
370
    30
100
AcDbLine
 10
289.0692299897
 20
205.4892876857
 30
0.0
 11
289.0692299897
 21
206.8892890328
 31
0.0
  0
ARC
  5
F3
330
1F
100
AcDbEntity
  8
0
  6
Continuous
 62
     7
370
    30
100
AcDbCircle
 10
289.3692308838
 20
91.8892873162
 30
0.0
 40
0.3000000000000114
100
AcDbArc
 50
90.0
 51
180.0
  0
ARC
  5
F4
330
1F
100
AcDbEntity
  8
0
  6
Continuous
 62
     7
370
    30
100
AcDbCircle
 10
289.3692308838
 20
206.8892873162
 30
0.0
 40
0.3000000000000114
100
AcDbArc
 50
90.0
 51
180.0
  0
ARC
  5
F5
330
1F
100
AcDbEntity
  8
0
  6
Continuous
 62
     7
370
    30
100
AcDbCircle
 10
289.3692308838
 20
205.4892873162
 30
0.0
 40
0.2999999999999829
100
AcDbArc
 50
180.0
 51
270.0
  0
LINE
  5
F6
330
1F
100
AcDbEntity
  8
0
  6
Continuous
 62
     7
370
    30
100
AcDbLine
 10
289.0692299897
 20
90.4892855996
 30
0.0
 11
289.0692299897
 21
91.8892869466
 31
0.0
  0
ARC
  5
F7
330
1F
100
AcDbEntity
  8
0
  6
Continuous
 62
     7
370
    30
100
AcDbCircle
 10
289.3692308838
 20
90.4892873162
 30
0.0
 40
0.3000000000000114
100
AcDbArc
 50
180.0
 51
270.0
  0
SPLINE
  5
F8
330
1F
100
AcDbEntity
  8
0
  6
Continuous
 62
     7
370
    30
100
AcDbSpline
210
0.0
220
0.0
230
1.0
 70
     8
 71
     3
 72
    16
 73
    12
 74
     0
 42
0.00000001
 43
0.00000001
 12
1.0
 22
0.0
 32
0.0
 13
1.0
 23
0.0
 33
0.0
 40
0.0
 40
0.0
 40
0.0
 40
0.0
 40
0.125
 40
0.125
 40
0.25
 40
0.25
 40
0.5
 40
0.5
 40
0.75
 40
0.75
 40
1.0
 40
1.0
 40
1.0
 40
1.0
 10
338.0271112977035
 20
102.6031300357796
 30
0.0
 10
338.1402148281722
 20
102.6696260274673
 30
0.0
 10
338.2463060249284
 20
102.7419036033738
 30
0.0
 10
338.4466066376849
 20
102.8974190930147
 30
0.0
 10
338.5414374534324
 20
102.9814422619197
 30
0.0
 10
338.8006012615291
 20
103.2405696883107
 30
0.0
 10
338.9441757170735
 20
103.4256767603253
 30
0.0
 10
339.1824094593682
 20
103.813726697493
 30
0.0
 10
339.2743506661519
 20
104.0119239475208
 30
0.0
 10
339.414082837692
 20
104.4191010531472
 30
0.0
 10
339.461806395933
 20
104.630425630801
 30
0.0
 10
339.4864519881321
 20
104.8417190479245
 30
0.0
  0
SPLINE
  5
F9
330
1F
100
AcDbEntity
  8
0
  6
Continuous
 62
     7
370
    30
100
AcDbSpline
210
0.0
220
0.0
230
1.0
 70
     8
 71
     3
 72
    16
 73
    12
 74
     0
 42
0.00000001
 43
0.00000001
 12
1.0
 22
0.0
 32
0.0
 13
1.0
 23
0.0
 33
0.0
 40
0.0
 40
0.0
 40
0.0
 40
0.0
 40
0.125
 40
0.125
 40
0.25
 40
0.25
 40
0.5
 40
0.5
 40
0.75
 40
0.75
 40
1.0
 40
1.0
 40
1.0
 40
1.0
 10
338.0271112977004
 20
194.7754445965521
 30
0.0
 10
338.1402148281692
 20
194.7089486048645
 30
0.0
 10
338.2463060249257
 20
194.636671028958
 30
0.0
 10
338.4466066376826
 20
194.4811555393171
 30
0.0
 10
338.5414374534303
 20
194.3971323704121
 30
0.0
 10
338.8006012615277
 20
194.138004944021
 30
0.0
 10
338.9441757170725
 20
193.9528978720061
 30
0.0
 10
339.1824094593676
 20
193.5648479348381
 30
0.0
 10
339.2743506661515
 20
193.3666506848102
 30
0.0
 10
339.4140828376919
 20
192.9594735791833
 30
0.0
 10
339.4618063959292
 20
192.7481490015622
 30
0.0
 10
339.4864519881321
 20
192.5368555844054
 30
0.0
  0
LINE
  5
FA
330
1F
100
AcDbEntity
  8
0
  6
Continuous
 62
     7
370
    30
100
AcDbLine
 10
289.0692299897
 20
204.1892880314
 30
0.0
 11
289.0692299897
 21
205.4892876857
 31
0.0
  0
LINE
  5
FB
330
1F
100
AcDbEntity
  8
0
  6
Continuous
 62
     7
370
    30
100
AcDbLine
 10
289.0692299897
 20
91.8892869466
 30
0.0
 11
289.0692299897
 21
93.1892866009
 31
0.0
  0
ARC
  5
FC
330
1F
100
AcDbEntity
  8
0
  6
Continuous
 62
     7
370
    30
100
AcDbCircle
 10
336.5066539582
 20
192.1892873162
 30
0.0
 40
3.0
100
AcDbArc
 50
59.5478162282
 51
90.0
  0
ARC
  5
FD
330
1F
100
AcDbEntity
  8
0
  6
Continuous
 62
     7
370
    30
100
AcDbCircle
 10
336.5066539582
 20
105.1892873162
 30
0.0
 40
3.000000000000007
100
AcDbArc
 50
270.0
 51
300.4521837718
  0
CIRCLE
  5
FE
330
1F
100
AcDbEntity
  8
0
  6
Continuous
 62
     7
370
    30
100
AcDbCircle
 10
326.5692308838
 20
200.6892873162
 30
0.0
 40
2.0
  0
CIRCLE
  5
FF
330
1F
100
AcDbEntity
  8
0
  6
Continuous
 62
     7
370
    30
100
AcDbCircle
 10
326.5692308838
 20
96.6892873162
 30
0.0
 40
2.0
  0
LINE
  5
100
330
1F
100
AcDbEntity
  8
0
  6
Continuous
 62
     7
370
    30
100
AcDbLine
 10
289.3692313428
 20
102.1892862135
 30
0.0
 11
336.5066538299
 21
102.1892862135
 31
0.0
  0
LINE
  5
101
330
1F
100
AcDbEntity
  8
0
  6
Continuous
 62
     7
370
    30
100
AcDbLine
 10
336.5066538299
 20
195.1892884189
 30
0.0
 11
289.3692313428
 21
195.1892884189
 31
0.0
  0
LINE
  5
102
330
1F
100
AcDbEntity
  8
0
  6
Continuous
 62
     7
370
    30
100
AcDbLine
 10
289.0692299897
 20
195.4892860466
 30
0.0
 11
289.0692299897
 21
204.1892880314
 31
0.0
  0
LINE
  5
103
330
1F
100
AcDbEntity
  8
0
  6
Continuous
 62
     7
370
    30
100
AcDbLine
 10
289.0692299897
 20
93.1892866009
 30
0.0
 11
289.0692299897
 21
101.8892885857
 31
0.0
  0
ARC
  5
104
330
1F
100
AcDbEntity
  8
0
  6
Continuous
 62
     7
370
    30
100
AcDbCircle
 10
289.3692308838
 20
101.8892873162
 30
0.0
 40
0.3000000000000114
100
AcDbArc
 50
90.0
 51
180.0
  0
ARC
  5
105
330
1F
100
AcDbEntity
  8
0
  6
Continuous
 62
     7
370
    30
100
AcDbCircle
 10
289.3692308838
 20
195.4892873162
 30
0.0
 40
0.2999999999999829
100
AcDbArc
 50
180.0
 51
270.0
  0
CIRCLE
  5
106
330
1F
100
AcDbEntity
  8
0
  6
Continuous
 62
     7
370
    30
100
AcDbCircle
 10
311.5692308838
 20
98.1892873162
 30
0.0
 40
4.0
  0
CIRCLE
  5
107
330
1F
100
AcDbEntity
  8
0
  6
Continuous
 62
     7
370
    30
100
AcDbCircle
 10
311.5692308838
 20
199.1892873162
 30
0.0
 40
4.0
  0
CIRCLE
  5
108
330
1F
100
AcDbEntity
  8
0
  6
Continuous
 62
     7
370
    30
100
AcDbCircle
 10
311.5692308838
 20
98.1892873162
 30
0.0
 40
1.749999999999943
  0
CIRCLE
  5
109
330
1F
100
AcDbEntity
  8
0
  6
Continuous
 62
     7
370
    30
100
AcDbCircle
 10
311.5692308838
 20
199.1892873162
 30
0.0
 40
1.749999999999943
  0
ENDSEC
  0
SECTION
  2
OBJECTS
  0
DICTIONARY
  5
C
330
0
100
AcDbDictionary
281
     1
  3
ACAD_GROUP
350
D
  3
ACAD_LAYOUT
350
1A
  3
ACAD_MLINESTYLE
350
17
  3
ACAD_PLOTSETTINGS
350
19
  3
ACAD_PLOTSTYLENAME
350
E
  0
DICTIONARY
  5
D
102
{ACAD_REACTORS
330
C
102
}
330
C
100
AcDbDictionary
281
     1
  0
DICTIONARY
  5
1A
102
{ACAD_REACTORS
330
C
102
}
330
C
100
AcDbDictionary
281
     1
  3
Layout1
350
1E
  3
Layout2
350
26
  3
Model
350
22
  0
DICTIONARY
  5
17
102
{ACAD_REACTORS
330
C
102
}
330
C
100
AcDbDictionary
281
     1
  3
Standard
350
18
  0
DICTIONARY
  5
19
102
{ACAD_REACTORS
330
C
102
}
330
C
100
AcDbDictionary
281
     1
  0
ACDBDICTIONARYWDFLT
  5
E
102
{ACAD_REACTORS
330
C
102
}
330
C
100
AcDbDictionary
281
     1
  3
Normal
350
F
100
AcDbDictionaryWithDefault
340
F
  0
LAYOUT
  5
1E
102
{ACAD_REACTORS
330
1A
102
}
330
1A
100
AcDbPlotSettings
  1

  2
none_device
  4

  6

 40
0.0
 41
0.0
 42
0.0
 43
0.0
 44
0.0
 45
0.0
 46
0.0
 47
0.0
 48
0.0
 49
0.0
140
0.0
141
0.0
142
1.0
143
1.0
 70
   688
 72
     0
 73
     0
 74
     5
  7

 75
    16
147
1.0
148
0.0
149
0.0
100
AcDbLayout
  1
Layout1
 70
     1
 71
     1
 10
0.0
 20
0.0
 11
420.0
 21
297.0
 12
0.0
 22
0.0
 32
0.0
 14
1.0000000000E+20
 24
1.0000000000E+20
 34
1.0000000000E+20
 15
-1.0000000000E+20
 25
-1.0000000000E+20
 35
-1.0000000000E+20
146
0.0
 13
0.0
 23
0.0
 33
0.0
 16
1.0
 26
0.0
 36
0.0
 17
0.0
 27
1.0
 37
0.0
 76
     0
330
1B
  0
LAYOUT
  5
26
102
{ACAD_REACTORS
330
1A
102
}
330
1A
100
AcDbPlotSettings
  1

  2
none_device
  4

  6

 40
0.0
 41
0.0
 42
0.0
 43
0.0
 44
0.0
 45
0.0
 46
0.0
 47
0.0
 48
0.0
 49
0.0
140
0.0
141
0.0
142
1.0
143
1.0
 70
   688
 72
     0
 73
     0
 74
     5
  7

 75
    16
147
1.0
148
0.0
149
0.0
100
AcDbLayout
  1
Layout2
 70
     1
 71
     2
 10
0.0
 20
0.0
 11
0.0
 21
0.0
 12
0.0
 22
0.0
 32
0.0
 14
0.0
 24
0.0
 34
0.0
 15
0.0
 25
0.0
 35
0.0
146
0.0
 13
0.0
 23
0.0
 33
0.0
 16
1.0
 26
0.0
 36
0.0
 17
0.0
 27
1.0
 37
0.0
 76
     0
330
23
  0
LAYOUT
  5
22
102
{ACAD_REACTORS
330
1A
102
}
330
1A
100
AcDbPlotSettings
  1

  2
none_device
  4

  6

 40
0.0
 41
0.0
 42
0.0
 43
0.0
 44
0.0
 45
0.0
 46
0.0
 47
0.0
 48
0.0
 49
0.0
140
0.0
141
0.0
142
1.0
143
1.0
 70
  1712
 72
     0
 73
     0
 74
     0
  7

 75
     0
147
1.0
148
0.0
149
0.0
100
AcDbLayout
  1
Model
 70
     1
 71
     0
 10
0.0
 20
0.0
 11
420.0
 21
297.0
 12
0.0
 22
0.0
 32
0.0
 14
0.0
 24
0.0
 34
0.0
 15
420.0
 25
297.0
 35
0.0
146
0.0
 13
0.0
 23
0.0
 33
0.0
 16
1.0
 26
0.0
 36
0.0
 17
0.0
 27
1.0
 37
0.0
 76
     0
330
1F
331
29
  0
MLINESTYLE
  5
18
102
{ACAD_REACTORS
330
17
102
}
330
17
100
AcDbMlineStyle
  2
Standard
 70
     0
  3

 62
   256
 51
90.0
 52
90.0
 71
     2
 49
0.5
 62
   256
  6
BYLAYER
 49
-0.5
 62
   256
  6
BYLAYER
  0
ACDBPLACEHOLDER
  5
F
102
{ACAD_REACTORS
330
E
102
}
330
E
  0
ENDSEC
  0
EOF
