  0
SECTION
  2
HEADER
  9
$ACADVER
  1
AC1015
  9
$ACADMAINTVER
 70
     6
  9
$DWGCODEPAGE
  3
DOS932
  9
$INSBASE
 10
0.0
 20
0.0
 30
0.0
  9
$EXTMIN
 10
0.0
 20
0.0
 30
0.0
  9
$EXTMAX
 10
420.0
 20
297.0
 30
0.0
  9
$LIMMIN
 10
0.0
 20
0.0
  9
$LIMMAX
 10
420.0
 20
297.0
  9
$ORTHOMODE
 70
     0
  9
$REGENMODE
 70
     1
  9
$FILLMODE
 70
     1
  9
$QTEXTMODE
 70
     0
  9
$MIRRTEXT
 70
     1
  9
$LTSCALE
 40
1.0
  9
$ATTMODE
 70
     1
  9
$TEXTSIZE
 40
3.8805555556
  9
$TRACEWID
 40
1.0
  9
$TEXTSTYLE
  7
Standard
  9
$CLAYER
  8
0
  9
$CELTYPE
  6
ByLayer
  9
$CECOLOR
 62
   256
  9
$CELTSCALE
 40
1.0
  9
$DISPSILH
 70
     0
  9
$DIMSCALE
 40
1.0
  9
$DIMASZ
 40
3.0
  9
$DIMEXO
 40
0.0
  9
$DIMDLI
 40
3.75
  9
$DIMRND
 40
0.0
  9
$DIMDLE
 40
0.0
  9
$DIMEXE
 40
1.0
  9
$DIMTP
 40
0.0
  9
$DIMTM
 40
0.0
  9
$DIMTXT
 40
3.5277777778
  9
$DIMCEN
 40
2.5
  9
$DIMTSZ
 40
0.0
  9
$DIMTOL
 70
     0
  9
$DIMLIM
 70
     0
  9
$DIMTIH
 70
     1
  9
$DIMTOH
 70
     1
  9
$DIMSE1
 70
     0
  9
$DIMSE2
 70
     0
  9
$DIMTAD
 70
     1
  9
$DIMZIN
 70
     0
  9
$DIMBLK
  1

  9
$DIMASO
 70
     1
  9
$DIMSHO
 70
     1
  9
$DIMPOST
  1

  9
$DIMAPOST
  1

  9
$DIMALT
 70
     0
  9
$DIMALTD
 70
     3
  9
$DIMALTF
 40
0.0393700787
  9
$DIMLFAC
 40
1.0
  9
$DIMTOFL
 70
     1
  9
$DIMTVP
 40
0.0
  9
$DIMTIX
 70
     0
  9
$DIMSOXD
 70
     0
  9
$DIMSAH
 70
     0
  9
$DIMBLK1
  1

  9
$DIMBLK2
  1

  9
$DIMSTYLE
  2
ISO-25
  9
$DIMCLRD
 70
     0
  9
$DIMCLRE
 70
     0
  9
$DIMCLRT
 70
     0
  9
$DIMTFAC
 40
1.0
  9
$DIMGAP
 40
1.0
  9
$DIMJUST
 70
     0
  9
$DIMSD1
 70
     0
  9
$DIMSD2
 70
     0
  9
$DIMTOLJ
 70
     0
  9
$DIMTZIN
 70
     0
  9
$DIMALTZ
 70
     0
  9
$DIMALTTZ
 70
     0
  9
$DIMUPT
 70
     0
  9
$DIMDEC
 70
     2
  9
$DIMTDEC
 70
     2
  9
$DIMALTU
 70
     2
  9
$DIMALTTD
 70
     3
  9
$DIMTXSTY
  7
Standard
  9
$DIMAUNIT
 70
     0
  9
$DIMADEC
 70
     2
  9
$DIMALTRND
 40
0.0
  9
$DIMAZIN
 70
     0
  9
$DIMDSEP
 70
    44
  9
$DIMATFIT
 70
     3
  9
$DIMFRAC
 70
     0
  9
$DIMLDRBLK
  1

  9
$DIMLUNIT
 70
     2
  9
$DIMLWD
 70
    -2
  9
$DIMLWE
 70
    -2
  9
$DIMTMOVE
 70
     0
  9
$LUNITS
 70
     2
  9
$LUPREC
 70
     2
  9
$SKETCHINC
 40
1.0
  9
$FILLETRAD
 40
10.0
  9
$AUNITS
 70
     0
  9
$AUPREC
 70
     2
  9
$MENU
  1
.
  9
$ELEVATION
 40
0.0
  9
$PELEVATION
 40
0.0
  9
$THICKNESS
 40
0.0
  9
$LIMCHECK
 70
     0
  9
$CHAMFERA
 40
0.0
  9
$CHAMFERB
 40
0.0
  9
$CHAMFERC
 40
0.0
  9
$CHAMFERD
 40
0.0
  9
$SKPOLY
 70
     0
  9
$TDCREATE
 40
2458620.817284884
  9
$TDUCREATE
 40
2458620.442284884
  9
$TDUPDATE
 40
2458620.817286227
  9
$TDUUPDATE
 40
2458620.442286227
  9
$TDINDWG
 40
0.0000000116
  9
$TDUSRTIMER
 40
0.0000000116
  9
$USRTIMER
 70
     1
  9
$ANGBASE
 50
0.0
  9
$ANGDIR
 70
     0
  9
$PDMODE
 70
     0
  9
$PDSIZE
 40
-1.0
  9
$PLINEWID
 40
0.0
  9
$SPLFRAME
 70
     0
  9
$SPLINETYPE
 70
     6
  9
$SPLINESEGS
 70
     8
  9
$HANDSEED
  5
3CD
  9
$SURFTAB1
 70
     6
  9
$SURFTAB2
 70
     6
  9
$SURFTYPE
 70
     6
  9
$SURFU
 70
     6
  9
$SURFV
 70
     6
  9
$UCSBASE
  2

  9
$UCSNAME
  2

  9
$UCSORG
 10
0.0
 20
0.0
 30
0.0
  9
$UCSXDIR
 10
1.0
 20
0.0
 30
0.0
  9
$UCSYDIR
 10
0.0
 20
1.0
 30
0.0
  9
$UCSORTHOREF
  2

  9
$UCSORTHOVIEW
 70
     0
  9
$UCSORGTOP
 10
0.0
 20
0.0
 30
0.0
  9
$UCSORGBOTTOM
 10
0.0
 20
0.0
 30
0.0
  9
$UCSORGLEFT
 10
0.0
 20
0.0
 30
0.0
  9
$UCSORGRIGHT
 10
0.0
 20
0.0
 30
0.0
  9
$UCSORGFRONT
 10
0.0
 20
0.0
 30
0.0
  9
$UCSORGBACK
 10
0.0
 20
0.0
 30
0.0
  9
$PUCSBASE
  2

  9
$PUCSNAME
  2

  9
$PUCSORG
 10
0.0
 20
0.0
 30
0.0
  9
$PUCSXDIR
 10
1.0
 20
0.0
 30
0.0
  9
$PUCSYDIR
 10
0.0
 20
1.0
 30
0.0
  9
$PUCSORTHOREF
  2

  9
$PUCSORTHOVIEW
 70
     0
  9
$PUCSORGTOP
 10
0.0
 20
0.0
 30
0.0
  9
$PUCSORGBOTTOM
 10
0.0
 20
0.0
 30
0.0
  9
$PUCSORGLEFT
 10
0.0
 20
0.0
 30
0.0
  9
$PUCSORGRIGHT
 10
0.0
 20
0.0
 30
0.0
  9
$PUCSORGFRONT
 10
0.0
 20
0.0
 30
0.0
  9
$PUCSORGBACK
 10
0.0
 20
0.0
 30
0.0
  9
$USERI1
 70
     0
  9
$USERI2
 70
     0
  9
$USERI3
 70
     0
  9
$USERI4
 70
     0
  9
$USERI5
 70
     0
  9
$USERR1
 40
0.0
  9
$USERR2
 40
0.0
  9
$USERR3
 40
0.0
  9
$USERR4
 40
0.0
  9
$USERR5
 40
0.0
  9
$WORLDVIEW
 70
     1
  9
$SHADEDGE
 70
     3
  9
$SHADEDIF
 70
    70
  9
$TILEMODE
 70
     1
  9
$MAXACTVP
 70
    64
  9
$PINSBASE
 10
0.0
 20
0.0
 30
0.0
  9
$PLIMCHECK
 70
     0
  9
$PEXTMIN
 10
1.0000000000E+20
 20
1.0000000000E+20
 30
1.0000000000E+20
  9
$PEXTMAX
 10
-1.0000000000E+20
 20
-1.0000000000E+20
 30
-1.0000000000E+20
  9
$PLIMMIN
 10
0.0
 20
0.0
  9
$PLIMMAX
 10
420.0
 20
297.0
  9
$UNITMODE
 70
     0
  9
$VISRETAIN
 70
     1
  9
$PLINEGEN
 70
     0
  9
$PSLTSCALE
 70
     1
  9
$TREEDEPTH
 70
  3020
  9
$CMLSTYLE
  2
Standard
  9
$CMLJUST
 70
     0
  9
$CMLSCALE
 40
20.0
  9
$PROXYGRAPHICS
 70
     1
  9
$MEASUREMENT
 70
     1
  9
$CELWEIGHT
370
    -1
  9
$ENDCAPS
280
     0
  9
$JOINSTYLE
280
     0
  9
$LWDISPLAY
290
     1
  9
$INSUNITS
 70
     4
  9
$HYPERLINKBASE
  1

  9
$STYLESHEET
  1

  9
$XEDIT
290
     1
  9
$CEPSNTYPE
380
     0
  9
$PSTYLEMODE
290
     1
  9
$FINGERPRINTGUID
  2
{91F6070C-19E6-4007-840B-2626B5C85270}
  9
$VERSIONGUID
  2
{FAEB1C32-E019-11D5-929B-00C0DF256EC4}
  9
$EXTNAMES
290
     1
  9
$PSVPSCALE
 40
0.0
  9
$OLESTARTUP
290
     0
  0
ENDSEC
  0
SECTION
  2
CLASSES
  0
CLASS
  1
ACDBDICTIONARYWDFLT
  2
AcDbDictionaryWithDefault
  3
ObjectDBX Classes
 90
        0
280
     0
281
     0
  0
CLASS
  1
VISUALSTYLE
  2
AcDbVisualStyle
  3
ObjectDBX Classes
 90
     4095
280
     0
281
     0
  0
CLASS
  1
MATERIAL
  2
AcDbMaterial
  3
ObjectDBX Classes
 90
     1153
280
     0
281
     0
  0
CLASS
  1
SCALE
  2
AcDbScale
  3
ObjectDBX Classes
 90
     1153
280
     0
281
     0
  0
CLASS
  1
TABLESTYLE
  2
AcDbTableStyle
  3
ObjectDBX Classes
 90
     4095
280
     0
281
     0
  0
CLASS
  1
MLEADERSTYLE
  2
AcDbMLeaderStyle
  3
ACDB_MLEADERSTYLE_CLASS
 90
     4095
280
     0
281
     0
  0
CLASS
  1
SUN
  2
AcDbSun
  3
SCENEOE
 90
     1153
280
     0
281
     0
  0
CLASS
  1
ACDBPLACEHOLDER
  2
AcDbPlaceHolder
  3
ObjectDBX Classes
 90
        0
280
     0
281
     0
  0
CLASS
  1
LAYOUT
  2
AcDbLayout
  3
ObjectDBX Classes
 90
        0
280
     0
281
     0
  0
ENDSEC
  0
SECTION
  2
TABLES
  0
TABLE
  2
VPORT
  5
8
330
0
100
AcDbSymbolTable
 70
     1
  0
VPORT
  5
29
330
8
100
AcDbSymbolTableRecord
100
AcDbViewportTableRecord
  2
*Active
 70
     0
 10
0.0
 20
0.0
 11
1.0
 21
1.0
 12
210.0
 22
148.5
 13
0.0
 23
0.0
 14
10.0
 24
10.0
 15
10.0
 25
10.0
 16
0.0
 26
0.0
 36
1.0
 17
0.0
 27
0.0
 37
0.0
 40
297.0
 41
1.4141414141
 42
50.0
 43
0.0
 44
0.0
 50
0.0
 51
0.0
 71
     0
 72
  2000
 73
     1
 74
     3
 75
     0
 76
     0
 77
     0
 78
     0
281
     0
 65
     1
110
0.0
120
0.0
130
0.0
111
1.0
121
0.0
131
0.0
112
0.0
122
1.0
132
0.0
 79
     0
146
0.0
  0
ENDTAB
  0
TABLE
  2
LTYPE
  5
5
330
0
100
AcDbSymbolTable
 70
     6
  0
LTYPE
  5
14
330
5
100
AcDbSymbolTableRecord
100
AcDbLinetypeTableRecord
  2
ByBlock
 70
     0
  3

 72
    65
 73
     0
 40
0.0
  0
LTYPE
  5
15
330
5
100
AcDbSymbolTableRecord
100
AcDbLinetypeTableRecord
  2
ByLayer
 70
     0
  3

 72
    65
 73
     0
 40
0.0
  0
LTYPE
  5
16
330
5
100
AcDbSymbolTableRecord
100
AcDbLinetypeTableRecord
  2
Continuous
 70
     0
  3
Solid line
 72
    65
 73
     0
 40
0.0
  0
LTYPE
  5
6E
330
5
100
AcDbSymbolTableRecord
100
AcDbLinetypeTableRecord
  2
HIDDEN
 70
     0
  3
Hidden __ __ __ __ __ __ __ __ __ __ __ __ __ __
 72
    65
 73
     2
 40
1.905
 49
1.27
 74
     0
 49
-0.635
 74
     0
  0
LTYPE
  5
6F
330
5
100
AcDbSymbolTableRecord
100
AcDbLinetypeTableRecord
  2
PHANTOM
 70
     0
  3
Phantom ______  __  __  ______  __  __  ______
 72
    65
 73
     6
 40
12.7
 49
6.35
 74
     0
 49
-1.27
 74
     0
 49
1.27
 74
     0
 49
-1.27
 74
     0
 49
1.27
 74
     0
 49
-1.27
 74
     0
  0
LTYPE
  5
70
330
5
100
AcDbSymbolTableRecord
100
AcDbLinetypeTableRecord
  2
CENTER
 70
     0
  3
Center ____ _ ____ _ ____ _ ____ _ ____ _ ____
 72
    65
 73
     4
 40
10.16
 49
6.35
 74
     0
 49
-1.27
 74
     0
 49
1.27
 74
     0
 49
-1.27
 74
     0
  0
LTYPE
  5
71
330
5
100
AcDbSymbolTableRecord
100
AcDbLinetypeTableRecord
  2
CENTERX2
 70
     0
  3
Center (2x) ________  __  ________  __  _____
 72
    65
 73
     4
 40
20.32
 49
12.7
 74
     0
 49
-2.54
 74
     0
 49
2.54
 74
     0
 49
-2.54
 74
     0
  0
LTYPE
  5
72
330
5
100
AcDbSymbolTableRecord
100
AcDbLinetypeTableRecord
  2
DOT2
 70
     0
  3
Dot (.5x) ........................................
 72
    65
 73
     2
 40
0.635
 49
0.0
 74
     0
 49
-0.635
 74
     0
  0
ENDTAB
  0
TABLE
  2
LAYER
  5
2
330
0
100
AcDbSymbolTable
 70
     6
  0
LAYER
  5
10
330
2
100
AcDbSymbolTableRecord
100
AcDbLayerTableRecord
  2
0
 70
     0
 62
     7
  6
Continuous
370
    -3
390
F
  0
LAYER
  5
73
330
2
100
AcDbSymbolTableRecord
100
AcDbLayerTableRecord
  2
SLD-0
 70
     0
 62
     7
  6
Continuous
370
    -3
390
F
  0
LAYER
  5
74
330
2
100
AcDbSymbolTableRecord
100
AcDbLayerTableRecord
  2
8
 70
     0
 62
     7
  6
Continuous
370
    15
390
F
  0
LAYER
  5
75
330
2
100
AcDbSymbolTableRecord
100
AcDbLayerTableRecord
  2
9
 70
     0
 62
     7
  6
Continuous
370
    -3
390
F
  0
LAYER
  5
76
330
2
100
AcDbSymbolTableRecord
100
AcDbLayerTableRecord
  2
10
 70
     0
 62
     1
  6
Continuous
370
    -3
390
F
  0
LAYER
  5
77
330
2
100
AcDbSymbolTableRecord
100
AcDbLayerTableRecord
  2
11
 70
     0
 62
     7
  6
Continuous
370
    -3
390
F
  0
ENDTAB
  0
TABLE
  2
STYLE
  5
3
330
0
100
AcDbSymbolTable
 70
     2
  0
STYLE
  5
11
330
3
100
AcDbSymbolTableRecord
100
AcDbTextStyleTableRecord
  2
Standard
 70
     0
 40
0.0
 41
1.0
 50
0.0
 71
     0
 42
3.8805555556
  3
txt
  4
bigfont
  0
STYLE
  5
78
330
3
100
AcDbSymbolTableRecord
100
AcDbTextStyleTableRecord
  2
SLDTEXTSTYLE0
 70
     0
 40
0.0
 41
0.7
 50
0.0
 71
     0
 42
3.8805555556
  3
TXT
  4
bigfont
  0
ENDTAB
  0
TABLE
  2
VIEW
  5
6
330
0
100
AcDbSymbolTable
 70
     0
  0
ENDTAB
  0
TABLE
  2
UCS
  5
7
330
0
100
AcDbSymbolTable
 70
     0
  0
ENDTAB
  0
TABLE
  2
APPID
  5
9
330
0
100
AcDbSymbolTable
 70
     1
  0
APPID
  5
12
330
9
100
AcDbSymbolTableRecord
100
AcDbRegAppTableRecord
  2
ACAD
 70
     0
  0
ENDTAB
  0
TABLE
  2
DIMSTYLE
  5
A
330
0
100
AcDbSymbolTable
 70
     1
100
AcDbDimStyleTable
  0
DIMSTYLE
105
27
330
A
100
AcDbSymbolTableRecord
100
AcDbDimStyleTableRecord
  2
ISO-25
 70
     0
 41
2.5
 42
0.625
 43
3.75
 44
1.25
 73
     0
 74
     0
 77
     1
 78
     8
140
2.5
141
2.5
143
0.0393700787
147
0.625
171
     3
172
     1
178
     0
271
     2
272
     2
274
     3
278
    44
283
     0
284
     8
340
11
  0
ENDTAB
  0
TABLE
  2
BLOCK_RECORD
  5
1
330
0
100
AcDbSymbolTable
 70
     1
  0
BLOCK_RECORD
  5
1F
330
1
100
AcDbSymbolTableRecord
100
AcDbBlockTableRecord
  2
*Model_Space
340
22
  0
BLOCK_RECORD
  5
1B
330
1
100
AcDbSymbolTableRecord
100
AcDbBlockTableRecord
  2
*Paper_Space
340
1E
  0
BLOCK_RECORD
  5
23
330
1
100
AcDbSymbolTableRecord
100
AcDbBlockTableRecord
  2
*Paper_Space0
340
26
  0
ENDTAB
  0
ENDSEC
  0
SECTION
  2
BLOCKS
  0
BLOCK
  5
20
330
1F
100
AcDbEntity
  8
0
100
AcDbBlockBegin
  2
*Model_Space
 70
     0
 10
0.0
 20
0.0
 30
0.0
  3
*Model_Space
  1

  0
ENDBLK
  5
21
330
1F
100
AcDbEntity
  8
0
100
AcDbBlockEnd
  0
BLOCK
  5
1C
330
1B
100
AcDbEntity
 67
     1
  8
0
100
AcDbBlockBegin
  2
*Paper_Space
 70
     0
 10
0.0
 20
0.0
 30
0.0
  3
*Paper_Space
  1

  0
ENDBLK
  5
1D
330
1B
100
AcDbEntity
 67
     1
  8
0
100
AcDbBlockEnd
  0
BLOCK
  5
24
330
23
100
AcDbEntity
  8
0
100
AcDbBlockBegin
  2
*Paper_Space0
 70
     0
 10
0.0
 20
0.0
 30
0.0
  3
*Paper_Space0
  1

  0
ENDBLK
  5
25
330
23
100
AcDbEntity
  8
0
100
AcDbBlockEnd
  0
ENDSEC
  0
SECTION
  2
ENTITIES
  0
MTEXT
  5
79
330
1F
100
AcDbEntity
  8
9
 62
     7
100
AcDbMText
 10
22.9810592731
 20
14.7698939359
 30
0.0
 40
3.7041666667
 41
0.0
 71
     1
 72
     1
  1
2014/05/23
  7
SLDTEXTSTYLE0
 73
     1
 44
1.0
  0
MTEXT
  5
7A
330
1F
100
AcDbEntity
  8
9
 62
     7
100
AcDbMText
 10
22.9810592731
 20
39.3097759652
 30
0.0
 40
3.7041666667
 41
0.0
 71
     1
 72
     1
  1
PXP-F-013
  7
SLDTEXTSTYLE0
 73
     1
 44
1.0
  0
MTEXT
  5
7B
330
1F
100
AcDbEntity
  8
9
 62
     7
100
AcDbMText
 10
22.9810592731
 20
22.271836236
 30
0.0
 40
3.7041666667
 41
0.0
 71
     1
 72
     1
  1
2019/04/17
  7
SLDTEXTSTYLE0
 73
     1
 44
1.0
  0
MTEXT
  5
7C
330
1F
100
AcDbEntity
  8
9
 62
     7
100
AcDbMText
 10
22.9810592731
 20
30.9293045781
 30
0.0
 40
3.7041666667
 41
0.0
 71
     1
 72
     1
  1
1:1
  7
SLDTEXTSTYLE0
 73
     1
 44
1.0
  0
LINE
  5
7D
330
1F
100
AcDbEntity
  8
0
  6
Continuous
 62
     7
370
    30
100
AcDbLine
 10
127.5365079612
 20
191.7539860334
 30
0.0
 11
127.5365079612
 21
107.7539871659
 31
0.0
  0
ARC
  5
7E
330
1F
100
AcDbEntity
  8
0
  6
Continuous
 62
     7
370
    30
100
AcDbCircle
 10
174.9365078718
 20
93.8539865997
 30
0.0
 40
1.0
100
AcDbArc
 50
270.0
 51
0.0
  0
ARC
  5
7F
330
1F
100
AcDbEntity
  8
0
  6
Continuous
 62
     7
370
    30
100
AcDbCircle
 10
174.9365078718
 20
205.6539865997
 30
0.0
 40
1.0
100
AcDbArc
 50
0.0
 51
90.0
  0
LINE
  5
80
330
1F
100
AcDbEntity
  8
0
  6
Continuous
 62
     7
370
    30
100
AcDbLine
 10
127.5365079612
 20
107.7539871659
 30
0.0
 11
160.5365077824
 21
107.7539871659
 31
0.0
  0
LINE
  5
81
330
1F
100
AcDbEntity
  8
0
  6
Continuous
 62
     7
370
    30
100
AcDbLine
 10
175.936507699
 20
93.8539865639
 30
0.0
 11
175.936507699
 21
205.6539866354
 31
0.0
  0
LINE
  5
82
330
1F
100
AcDbEntity
  8
0
  6
Continuous
 62
     7
370
    30
100
AcDbLine
 10
113.1365082086
 20
92.8539882626
 30
0.0
 11
174.936507535
 21
92.8539882626
 31
0.0
  0
LINE
  5
83
330
1F
100
AcDbEntity
  8
0
  6
Continuous
 62
     7
370
    30
100
AcDbLine
 10
112.1365080447
 20
205.6539866354
 30
0.0
 11
112.1365080447
 21
93.8539865639
 31
0.0
  0
LINE
  5
84
330
1F
100
AcDbEntity
  8
0
  6
Continuous
 62
     7
370
    30
100
AcDbLine
 10
174.936507535
 20
206.6539849367
 30
0.0
 11
113.1365082086
 21
206.6539849367
 31
0.0
  0
ARC
  5
85
330
1F
100
AcDbEntity
  8
0
  6
Continuous
 62
     7
370
    30
100
AcDbCircle
 10
113.1365078718
 20
93.8539865997
 30
0.0
 40
1.0
100
AcDbArc
 50
180.0
 51
270.0
  0
ARC
  5
86
330
1F
100
AcDbEntity
  8
0
  6
Continuous
 62
     7
370
    30
100
AcDbCircle
 10
113.1365078718
 20
205.6539865997
 30
0.0
 40
1.0
100
AcDbArc
 50
90.0
 51
180.0
  0
LINE
  5
87
330
1F
100
AcDbEntity
  8
0
  6
Continuous
 62
     7
370
    30
100
AcDbLine
 10
160.5365077824
 20
191.7539860334
 30
0.0
 11
127.5365079612
 21
191.7539860334
 31
0.0
  0
LINE
  5
88
330
1F
100
AcDbEntity
  8
0
  6
Continuous
 62
     7
370
    30
100
AcDbLine
 10
160.5365077824
 20
107.7539871659
 30
0.0
 11
160.5365077824
 21
191.7539860334
 31
0.0
  0
SPLINE
  5
89
330
1F
100
AcDbEntity
  8
0
  6
Continuous
 62
     7
370
    30
100
AcDbSpline
210
0.0
220
0.0
230
1.0
 70
     8
 71
     3
 72
     8
 73
     4
 74
     0
 42
0.000000001
 43
0.00000001
 40
0.0
 40
0.0
 40
0.0
 40
0.0
 40
1.0
 40
1.0
 40
1.0
 40
1.0
 10
158.2555163391227
 20
184.2596355526678
 30
0.0
 10
158.2882402524804
 20
184.2193751762832
 30
0.0
 10
158.3132273757032
 20
184.1752300554402
 30
0.0
 10
158.3315306078109
 20
184.1273136026719
 30
0.0
  0
ELLIPSE
  5
8A
330
1F
100
AcDbEntity
  8
0
  6
Continuous
 62
     7
370
    30
100
AcDbEllipse
 10
157.0793411218
 20
180.3178962888
 30
0.0
 11
1.106684564240425
 21
4.033921892861088
 31
0.0
210
0.0
220
0.0
230
1.0
 40
0.1195321624
 41
6.099322243482827
 42
6.31596655931057
  0
SPLINE
  5
8B
330
1F
100
AcDbEntity
  8
0
  6
Continuous
 62
     7
370
    30
100
AcDbSpline
210
0.0
220
0.0
230
1.0
 70
     8
 71
     3
 72
     8
 73
     4
 74
     0
 42
0.000000001
 43
0.00000001
 40
0.0
 40
0.0
 40
0.0
 40
0.0
 40
1.0
 40
1.0
 40
1.0
 40
1.0
 10
129.81749940449
 20
115.2483376466588
 30
0.0
 10
129.7847754911323
 20
115.2885980230434
 30
0.0
 10
129.7597883679094
 20
115.3327431438864
 30
0.0
 10
129.7414851358018
 20
115.3806595966547
 30
0.0
  0
ELLIPSE
  5
8C
330
1F
100
AcDbEntity
  8
0
  6
Continuous
 62
     7
370
    30
100
AcDbEllipse
 10
130.9936746218
 20
119.1900769105
 30
0.0
 11
-1.106684564240453
 21
-4.033921892861059
 31
0.0
210
0.0
220
0.0
230
1.0
 40
0.1195321624
 41
6.099322243482868
 42
6.315966559310578
  0
SPLINE
  5
8D
330
1F
100
AcDbEntity
  8
0
  6
Continuous
 62
     7
370
    30
100
AcDbSpline
210
0.0
220
0.0
230
1.0
 70
     8
 71
     3
 72
     8
 73
     4
 74
     0
 42
0.000000001
 43
0.00000001
 40
0.0
 40
0.0
 40
0.0
 40
0.0
 40
1.0
 40
1.0
 40
1.0
 40
1.0
 10
129.7414851492526
 20
184.1273135928005
 30
0.0
 10
129.7597883337653
 20
184.1752299217525
 30
0.0
 10
129.7847744186133
 20
184.2193754518044
 30
0.0
 10
129.8174982785408
 20
184.259635859421
 30
0.0
  0
ELLIPSE
  5
8E
330
1F
100
AcDbEntity
  8
0
  6
Continuous
 62
     7
370
    30
100
AcDbEllipse
 10
130.9936746218
 20
180.3178962888
 30
0.0
 11
1.106684564240425
 21
-4.033921892861059
 31
0.0
210
0.0
220
0.0
230
1.0
 40
0.1195321624
 41
3.108811401458844
 42
3.325455717286764
  0
SPLINE
  5
8F
330
1F
100
AcDbEntity
  8
0
  6
Continuous
 62
     7
370
    30
100
AcDbSpline
210
0.0
220
0.0
230
1.0
 70
     8
 71
     3
 72
     8
 73
     4
 74
     0
 42
0.000000001
 43
0.00000001
 40
0.0
 40
0.0
 40
0.0
 40
0.0
 40
1.0
 40
1.0
 40
1.0
 40
1.0
 10
158.3315305943601
 20
115.3806596065261
 30
0.0
 10
158.3132274098473
 20
115.3327432775741
 30
0.0
 10
158.2882413249993
 20
115.2885977475222
 30
0.0
 10
158.2555174650719
 20
115.2483373399056
 30
0.0
  0
ELLIPSE
  5
90
330
1F
100
AcDbEntity
  8
0
  6
Continuous
 62
     7
370
    30
100
AcDbEllipse
 10
157.0793411218
 20
119.1900769105
 30
0.0
 11
-1.106684564240424
 21
4.033921892861073
 31
0.0
210
0.0
220
0.0
230
1.0
 40
0.1195321624
 41
3.108811401458802
 42
3.325455717286796
  0
ELLIPSE
  5
91
330
1F
100
AcDbEntity
  8
0
  6
Continuous
 62
     7
370
    30
100
AcDbEllipse
 10
157.8732596099
 20
115.5672348615
 30
0.0
 11
0.5012585681805888
 21
0.03887969190620311
 31
0.0
210
0.0
220
0.0
230
1.0
 40
0.9869501288
 41
4.633960452443023
 42
5.220692394097791
  0
LINE
  5
92
330
1F
100
AcDbEntity
  8
0
  6
Continuous
 62
     7
370
    30
100
AcDbLine
 10
158.1507406057
 20
115.1539857712
 30
0.0
 11
158.1696278275
 21
115.1539857712
 31
0.0
  0
LINE
  5
93
330
1F
100
AcDbEntity
  8
0
  6
Continuous
 62
     7
370
    30
100
AcDbLine
 10
129.9033879161
 20
115.1539857712
 30
0.0
 11
129.922275138
 21
115.1539857712
 31
0.0
  0
ELLIPSE
  5
94
330
1F
100
AcDbEntity
  8
0
  6
Continuous
 62
     7
370
    30
100
AcDbEllipse
 10
130.1997561337
 20
115.5672348615
 30
0.0
 11
0.5012585681805888
 21
-0.03887969190620311
 31
0.0
210
0.0
220
0.0
230
1.0
 40
0.9869501288
 41
4.204085566671629
 42
4.790817508326382
  0
LINE
  5
95
330
1F
100
AcDbEntity
  8
0
  6
Continuous
 62
     7
370
    30
100
AcDbLine
 10
157.8722416282
 20
115.0709937539
 30
0.0
 11
130.2007741154
 21
115.0709937539
 31
0.0
  0
ELLIPSE
  5
96
330
1F
100
AcDbEntity
  8
0
  6
Continuous
 62
     7
370
    30
100
AcDbEllipse
 10
130.1997561337
 20
183.9407383378
 30
0.0
 11
0.5012585681805888
 21
0.03887969190620311
 31
0.0
210
0.0
220
0.0
230
1.0
 40
0.9869501288
 41
1.492367798853218
 42
2.079099740507921
  0
LINE
  5
97
330
1F
100
AcDbEntity
  8
0
  6
Continuous
 62
     7
370
    30
100
AcDbLine
 10
129.9033879161
 20
184.3539874282
 30
0.0
 11
129.922275138
 21
184.3539874282
 31
0.0
  0
LINE
  5
98
330
1F
100
AcDbEntity
  8
0
  6
Continuous
 62
     7
370
    30
100
AcDbLine
 10
158.1507406057
 20
184.3539874282
 30
0.0
 11
158.1696278275
 21
184.3539874282
 31
0.0
  0
ELLIPSE
  5
99
330
1F
100
AcDbEntity
  8
0
  6
Continuous
 62
     7
370
    30
100
AcDbEllipse
 10
157.8732596099
 20
183.9407383378
 30
0.0
 11
0.5012585681805888
 21
-0.03887969190620311
 31
0.0
210
0.0
220
0.0
230
1.0
 40
0.9869501288
 41
1.06249291308187
 42
1.649224854736576
  0
LINE
  5
9A
330
1F
100
AcDbEntity
  8
0
  6
Continuous
 62
     7
370
    30
100
AcDbLine
 10
157.8722416282
 20
184.4369794454
 30
0.0
 11
130.2007741154
 21
184.4369794454
 31
0.0
  0
ELLIPSE
  5
9B
330
1F
100
AcDbEntity
  8
0
  6
Continuous
 62
     7
370
    30
100
AcDbEllipse
 10
112.4403905831
 20
93.1578693109
 30
0.0
 11
0.356249303945134
 21
0.3562493039451198
 31
0.0
210
0.0
220
0.0
230
1.0
 40
0.9924325091
 41
2.359992588496333
 42
3.923192718683307
  0
ELLIPSE
  5
9C
330
1F
100
AcDbEntity
  8
0
  6
Continuous
 62
     7
370
    30
100
AcDbEllipse
 10
175.6326251605
 20
206.3501038884
 30
0.0
 11
-0.356249303945134
 21
-0.356249303945134
 31
0.0
210
0.0
220
0.0
230
1.0
 40
0.9924325091
 41
2.359992588496302
 42
3.923192718683298
  0
ELLIPSE
  5
9D
330
1F
100
AcDbEntity
  8
0
  6
Continuous
 62
     7
370
    30
100
AcDbEllipse
 10
112.4403905831
 20
206.3501038884
 30
0.0
 11
-0.3562493039451198
 21
0.3562493039451056
 31
0.0
210
0.0
220
0.0
230
1.0
 40
0.9924325091
 41
5.501585242086129
 42
7.064785372273017
  0
ELLIPSE
  5
9E
330
1F
100
AcDbEntity
  8
0
  6
Continuous
 62
     7
370
    30
100
AcDbEllipse
 10
175.6326251605
 20
93.1578693109
 30
0.0
 11
0.3562493039451056
 21
-0.3562493039451198
 31
0.0
210
0.0
220
0.0
230
1.0
 40
0.9924325091
 41
5.501585242086149
 42
7.064785372273077
  0
ELLIPSE
  5
9F
330
1F
100
AcDbEntity
  8
0
  6
Continuous
 62
     7
370
    30
100
AcDbEllipse
 10
130.1860680578
 20
115.5535467857
 30
0.0
 11
-0.1574427123264286
 21
0.4806158864532507
 31
0.0
210
0.0
220
0.0
230
1.0
 40
0.9430368476
 41
1.236463933983065
 42
1.622019021405847
  0
ELLIPSE
  5
A0
330
1F
100
AcDbEntity
  8
0
  6
Continuous
 62
     7
370
    30
100
AcDbEllipse
 10
130.1860680578
 20
183.9544264136
 30
0.0
 11
0.1574427123264002
 21
0.4806158864532222
 31
0.0
210
0.0
220
0.0
230
1.0
 40
0.9430368476
 41
1.519573632183987
 42
1.905128719606745
  0
LINE
  5
A1
330
1F
100
AcDbEntity
  8
0
  6
Continuous
 62
     7
370
    30
100
AcDbLine
 10
129.7062623174
 20
115.5710022177
 30
0.0
 11
129.7062623174
 21
183.9369709816
 31
0.0
  0
ELLIPSE
  5
A2
330
1F
100
AcDbEntity
  8
0
  6
Continuous
 62
     7
370
    30
100
AcDbEllipse
 10
157.8869476858
 20
183.9544264136
 30
0.0
 11
-0.1574427123264002
 21
0.4806158864532222
 31
0.0
210
0.0
220
0.0
230
1.0
 40
0.9430368476
 41
4.378056587572855
 42
4.763611674995644
  0
ELLIPSE
  5
A3
330
1F
100
AcDbEntity
  8
0
  6
Continuous
 62
     7
370
    30
100
AcDbEllipse
 10
157.8869476858
 20
115.5535467857
 30
0.0
 11
0.1574427123264286
 21
0.4806158864532507
 31
0.0
210
0.0
220
0.0
230
1.0
 40
0.9430368476
 41
4.661166285773772
 42
5.046721373196535
  0
LINE
  5
A4
330
1F
100
AcDbEntity
  8
0
  6
Continuous
 62
     7
370
    30
100
AcDbLine
 10
158.3667534263
 20
115.5710022177
 30
0.0
 11
158.3667534263
 21
183.9369709816
 31
0.0
  0
ELLIPSE
  5
A5
330
1F
100
AcDbEntity
  8
0
  6
Continuous
 62
     7
370
    30
100
AcDbEllipse
 10
178.5345979531
 20
90.2558965184
 30
0.0
 11
0.3562493039451056
 21
-0.3562493039451198
 31
0.0
210
0.0
220
0.0
230
1.0
 40
0.9924325091
 41
5.501585242073272
 42
7.064785372285925
  0
ELLIPSE
  5
A6
330
1F
100
AcDbEntity
  8
0
  6
Continuous
 62
     7
370
    30
100
AcDbEllipse
 10
109.5384177905
 20
90.2558965184
 30
0.0
 11
0.3562493039451198
 21
0.356249303945134
 31
0.0
210
0.0
220
0.0
230
1.0
 40
0.9924325091
 41
2.359992588483434
 42
3.923192718696155
  0
ELLIPSE
  5
A7
330
1F
100
AcDbEntity
  8
0
  6
Continuous
 62
     7
370
    30
100
AcDbEllipse
 10
109.5384177905
 20
209.2520766809
 30
0.0
 11
-0.3562493039451198
 21
0.356249303945134
 31
0.0
210
0.0
220
0.0
230
1.0
 40
0.9924325091
 41
5.501585242073232
 42
7.064785372285938
  0
ELLIPSE
  5
A8
330
1F
100
AcDbEntity
  8
0
  6
Continuous
 62
     7
370
    30
100
AcDbEllipse
 10
178.5345979531
 20
209.2520766809
 30
0.0
 11
-0.3562493039451339
 21
-0.3562493039451055
 31
0.0
210
0.0
220
0.0
230
1.0
 40
0.9924325091
 41
2.359992588483512
 42
3.923192718696225
  0
LINE
  5
A9
330
1F
100
AcDbEntity
  8
0
  6
Continuous
 62
     7
370
    30
100
AcDbLine
 10
109.5346051127
 20
89.7539879408
 30
0.0
 11
178.5384106309
 21
89.7539879408
 31
0.0
  0
LINE
  5
AA
330
1F
100
AcDbEntity
  8
0
  6
Continuous
 62
     7
370
    30
100
AcDbLine
 10
178.9376984209
 20
147.0566109966
 30
0.0
 11
179.0365080208
 21
146.7539865736
 31
0.0
  0
LINE
  5
AB
330
1F
100
AcDbEntity
  8
0
  6
Continuous
 62
     7
370
    30
100
AcDbLine
 10
179.0365080208
 20
90.2520853307
 30
0.0
 11
179.0365080208
 21
146.7539865736
 31
0.0
  0
LINE
  5
AC
330
1F
100
AcDbEntity
  8
0
  6
Continuous
 62
     7
370
    30
100
AcDbLine
 10
179.0365080208
 20
152.7539866257
 30
0.0
 11
179.0365080208
 21
209.2558878686
 31
0.0
  0
LINE
  5
AD
330
1F
100
AcDbEntity
  8
0
  6
Continuous
 62
     7
370
    30
100
AcDbLine
 10
179.0365080208
 20
152.7539866257
 30
0.0
 11
178.9376984209
 21
152.4513622027
 31
0.0
  0
ELLIPSE
  5
AE
330
1F
100
AcDbEntity
  8
0
  6
Continuous
 62
     7
370
    30
100
AcDbEllipse
 10
178.9490192083
 20
151.968399317
 30
0.0
 11
0.0
 21
0.5
 31
0.0
210
0.0
220
0.0
230
1.0
 40
0.0874886635
 41
0.261799387796366
 42
1.570796326794897
  0
LINE
  5
AF
330
1F
100
AcDbEntity
  8
0
  6
Continuous
 62
     7
370
    30
100
AcDbLine
 10
178.9052734942
 20
151.9683992702
 30
0.0
 11
178.9052734942
 21
147.5395739291
 31
0.0
  0
ELLIPSE
  5
B0
330
1F
100
AcDbEntity
  8
0
  6
Continuous
 62
     7
370
    30
100
AcDbEllipse
 10
178.9490192083
 20
147.5395738823
 30
0.0
 11
0.0
 21
0.5
 31
0.0
210
0.0
220
0.0
230
1.0
 40
0.0874886635
 41
1.570796326794897
 42
2.879793265793443
  0
LINE
  5
B1
330
1F
100
AcDbEntity
  8
0
  6
Continuous
 62
     7
370
    30
100
AcDbLine
 10
109.1677422494
 20
151.9683992702
 30
0.0
 11
109.1677422494
 21
147.5395739291
 31
0.0
  0
ELLIPSE
  5
B2
330
1F
100
AcDbEntity
  8
0
  6
Continuous
 62
     7
370
    30
100
AcDbEllipse
 10
109.1239965353
 20
151.968399317
 30
0.0
 11
0.0
 21
0.5
 31
0.0
210
0.0
220
0.0
230
1.0
 40
0.0874886635
 41
4.712388980384691
 42
6.021385919397686
  0
LINE
  5
B3
330
1F
100
AcDbEntity
  8
0
  6
Continuous
 62
     7
370
    30
100
AcDbLine
 10
109.1353173227
 20
152.4513622027
 30
0.0
 11
109.0365077228
 21
152.7539866257
 31
0.0
  0
LINE
  5
B4
330
1F
100
AcDbEntity
  8
0
  6
Continuous
 62
     7
370
    30
100
AcDbLine
 10
109.0365077228
 20
209.2558878686
 30
0.0
 11
109.0365077228
 21
152.7539866257
 31
0.0
  0
LINE
  5
B5
330
1F
100
AcDbEntity
  8
0
  6
Continuous
 62
     7
370
    30
100
AcDbLine
 10
109.0365077228
 20
146.7539865736
 30
0.0
 11
109.0365077228
 21
90.2520853307
 31
0.0
  0
LINE
  5
B6
330
1F
100
AcDbEntity
  8
0
  6
Continuous
 62
     7
370
    30
100
AcDbLine
 10
109.1353173227
 20
147.0566109966
 30
0.0
 11
109.0365077228
 21
146.7539865736
 31
0.0
  0
ELLIPSE
  5
B7
330
1F
100
AcDbEntity
  8
0
  6
Continuous
 62
     7
370
    30
100
AcDbEllipse
 10
109.1239965353
 20
147.5395738823
 30
0.0
 11
0.0
 21
0.5
 31
0.0
210
0.0
220
0.0
230
1.0
 40
0.0874886635
 41
3.403392041371675
 42
4.712388980384691
  0
LINE
  5
B8
330
1F
100
AcDbEntity
  8
0
  6
Continuous
 62
     7
370
    30
100
AcDbLine
 10
178.5384106309
 20
209.7539852586
 30
0.0
 11
109.5346051127
 21
209.7539852586
 31
0.0
  0
LINE
  5
B9
330
1F
100
AcDbEntity
  8
0
  6
Continuous
 62
     7
370
    30
100
AcDbLine
 10
175.6364392907
 20
206.8520139184
 30
0.0
 11
112.4365764529
 21
206.8520139184
 31
0.0
  0
LINE
  5
BA
330
1F
100
AcDbEntity
  8
0
  6
Continuous
 62
     7
370
    30
100
AcDbLine
 10
112.4365764529
 20
92.6559592809
 30
0.0
 11
175.6364392907
 21
92.6559592809
 31
0.0
  0
LINE
  5
BB
330
1F
100
AcDbEntity
  8
0
  6
Continuous
 62
     7
370
    30
100
AcDbLine
 10
111.938479063
 20
206.3539165284
 30
0.0
 11
111.938479063
 21
93.1540566709
 31
0.0
  0
LINE
  5
BC
330
1F
100
AcDbEntity
  8
0
  6
Continuous
 62
     7
370
    30
100
AcDbLine
 10
176.1345366806
 20
93.1540566709
 30
0.0
 11
176.1345366806
 21
206.3539165284
 31
0.0
  0
ELLIPSE
  5
BD
330
1F
100
AcDbEntity
  8
0
  6
Continuous
 62
     7
370
    30
100
AcDbEllipse
 10
157.8678371202
 20
183.9353158481
 30
0.0
 11
-0.3574377219428015
 21
-0.3574377219428015
 31
0.0
210
0.0
220
0.0
230
1.0
 40
0.9891328444
 41
3.05186848270244
 42
3.334795666761623
  0
ELLIPSE
  5
BE
330
1F
100
AcDbEntity
  8
0
  6
Continuous
 62
     7
370
    30
100
AcDbEllipse
 10
157.8678371202
 20
115.5726573513
 30
0.0
 11
0.3574377219428015
 21
-0.3574377219428158
 31
0.0
210
0.0
220
0.0
230
1.0
 40
0.9891328444
 41
6.08998229400784
 42
6.372909478066965
  0
ELLIPSE
  5
BF
330
1F
100
AcDbEntity
  8
0
  6
Continuous
 62
     7
370
    30
100
AcDbEllipse
 10
130.2051786234
 20
115.5726573513
 30
0.0
 11
0.35743772194283
 21
0.3574377219428158
 31
0.0
210
0.0
220
0.0
230
1.0
 40
0.9891328444
 41
3.051868482702451
 42
3.334795666761662
  0
ELLIPSE
  5
C0
330
1F
100
AcDbEntity
  8
0
  6
Continuous
 62
     7
370
    30
100
AcDbEllipse
 10
130.2051786234
 20
183.9353158481
 30
0.0
 11
-0.3574377219428015
 21
0.3574377219428015
 31
0.0
210
0.0
220
0.0
230
1.0
 40
0.9891328444
 41
6.089982294007736
 42
6.37290947806694
  0
LINE
  5
C1
330
1F
100
AcDbEntity
  8
0
  6
Continuous
 62
     7
370
    30
100
AcDbLine
 10
64.4817556985
 20
208.379476073
 30
0.0
 11
64.4851876222
 21
208.4378476467
 31
0.0
  0
LINE
  5
C2
330
1F
100
AcDbEntity
  8
0
  6
Continuous
 62
     7
370
    30
100
AcDbLine
 10
55.7851872671
 20
151.9683992702
 30
0.0
 11
55.7851872671
 21
147.5395739291
 31
0.0
  0
ARC
  5
C3
330
1F
100
AcDbEntity
  8
0
  6
Continuous
 62
     7
370
    30
100
AcDbCircle
 10
55.2851872541
 20
151.968399317
 30
0.0
 40
0.5000000000015773
100
AcDbArc
 50
0.0
 51
75.0000000001
  0
ARC
  5
C4
330
1F
100
AcDbEntity
  8
0
  6
Continuous
 62
     7
370
    30
100
AcDbCircle
 10
55.2851872541
 20
147.5395738823
 30
0.0
 40
0.5000000000015773
100
AcDbArc
 50
284.9999999999
 51
0.0
  0
LINE
  5
C5
330
1F
100
AcDbEntity
  8
0
  6
Continuous
 62
     7
370
    30
100
AcDbLine
 10
55.4145967852
 20
152.4513622027
 30
0.0
 11
54.2851872541
 21
152.7539866257
 31
0.0
  0
LINE
  5
C6
330
1F
100
AcDbEntity
  8
0
  6
Continuous
 62
     7
370
    30
100
AcDbLine
 10
54.2851872541
 20
146.7539865736
 30
0.0
 11
54.2851872541
 21
90.2520853307
 31
0.0
  0
LINE
  5
C7
330
1F
100
AcDbEntity
  8
0
  6
Continuous
 62
     7
370
    30
100
AcDbLine
 10
54.2851872541
 20
209.2558878686
 30
0.0
 11
54.2851872541
 21
152.7539866257
 31
0.0
  0
LINE
  5
C8
330
1F
100
AcDbEntity
  8
0
  6
Continuous
 62
     7
370
    30
100
AcDbLine
 10
55.4145967852
 20
147.0566109966
 30
0.0
 11
54.2851872541
 21
146.7539865736
 31
0.0
  0
LINE
  5
C9
330
1F
100
AcDbEntity
  8
0
  6
Continuous
 62
     7
370
    30
100
AcDbLine
 10
64.3026185952
 20
208.8775734629
 30
0.0
 11
54.2851872541
 21
209.7539852586
 31
0.0
  0
LINE
  5
CA
330
1F
100
AcDbEntity
  8
0
  6
Continuous
 62
     7
370
    30
100
AcDbLine
 10
54.2851872541
 20
209.7539852586
 30
0.0
 11
54.2851872541
 21
209.2558878686
 31
0.0
  0
LINE
  5
CB
330
1F
100
AcDbEntity
  8
0
  6
Continuous
 62
     7
370
    30
100
AcDbLine
 10
64.3026185952
 20
90.6303997364
 30
0.0
 11
54.2851872541
 21
89.7539879408
 31
0.0
  0
LINE
  5
CC
330
1F
100
AcDbEntity
  8
0
  6
Continuous
 62
     7
370
    30
100
AcDbLine
 10
54.2851872541
 20
90.2520853307
 30
0.0
 11
54.2851872541
 21
89.7539879408
 31
0.0
  0
LINE
  5
CD
330
1F
100
AcDbEntity
  8
0
  6
Continuous
 62
     7
370
    30
100
AcDbLine
 10
64.4851876222
 20
91.1284971263
 30
0.0
 11
64.4851876222
 21
208.379476073
 31
0.0
  0
SPLINE
  5
CE
330
1F
100
AcDbEntity
  8
0
  6
Continuous
 62
     7
370
    30
100
AcDbSpline
210
0.0
220
0.0
230
1.0
 70
    24
 71
     3
 72
    13
 73
     9
 74
     0
 42
0.000000001
 43
0.00000001
 40
0.0
 40
0.0
 40
0.0
 40
0.0
 40
0.1284782607995254
 40
0.2515460673333038
 40
0.37409331565304
 40
0.5010700564175357
 40
0.7479921650725141
 40
1.0
 40
1.0
 40
1.0
 40
1.0
 10
64.48518725410177
 20
91.12849561186329
 30
0.0
 10
64.48518725410177
 20
91.10841670680344
 30
0.0
 10
64.48518725410177
 20
91.06910445605581
 30
0.0
 10
64.48518725410177
 20
91.01275629111005
 30
0.0
 10
64.48518725410177
 20
90.9611824414442
 30
0.0
 10
64.48518725410177
 20
90.90155141558485
 30
0.0
 10
64.48518725410177
 20
90.84191618816915
 30
0.0
 10
64.48518725410177
 20
90.83375794401965
 30
0.0
 10
64.48518725410177
 20
90.82963724236329
 30
0.0
  0
SPLINE
  5
CF
330
1F
100
AcDbEntity
  8
0
  6
Continuous
 62
     7
370
    30
100
AcDbSpline
210
0.0
220
0.0
230
1.0
 70
     8
 71
     3
 72
    10
 73
     6
 74
     0
 42
0.000000001
 43
0.00000001
 40
0.0
 40
0.0
 40
0.0
 40
0.0
 40
0.5
 40
0.5
 40
1.0
 40
1.0
 40
1.0
 40
1.0
 10
64.30261841680007
 20
90.63039826408281
 30
0.0
 10
64.3518812336416
 20
90.63470820561494
 30
0.0
 10
64.39923412085669
 20
90.65806006848979
 30
0.0
 10
64.4660513316662
 20
90.73097826386196
 30
0.0
 10
64.48518725410177
 20
90.78018620935727
 30
0.0
 10
64.48518725410177
 20
90.8296372024633
 30
0.0
  0
SPLINE
  5
D0
330
1F
100
AcDbEntity
  8
0
  6
Continuous
 62
     7
370
    30
100
AcDbSpline
210
0.0
220
0.0
230
1.0
 70
     8
 71
     3
 72
    10
 73
     6
 74
     0
 42
0.000000001
 43
0.00000001
 40
0.0
 40
0.0
 40
0.0
 40
0.0
 40
0.5
 40
0.5
 40
1.0
 40
1.0
 40
1.0
 40
1.0
 10
64.48518725410177
 20
208.6783359569633
 30
0.0
 10
64.48518726396725
 20
208.7277869567193
 30
0.0
 10
64.4660513460001
 20
208.7769949125206
 30
0.0
 10
64.39923413347883
 20
208.8499131243635
 30
0.0
 10
64.35188124026631
 20
208.8732649931321
 30
0.0
 10
64.30261841680007
 20
208.8775749352438
 30
0.0
  0
SPLINE
  5
D1
330
1F
100
AcDbEntity
  8
0
  6
Continuous
 62
     7
370
    30
100
AcDbSpline
210
0.0
220
0.0
230
1.0
 70
    24
 71
     3
 72
    10
 73
     6
 74
     0
 42
0.000000001
 43
0.00000001
 40
0.0
 40
0.0
 40
0.0
 40
0.0
 40
0.5
 40
0.5
 40
1.0
 40
1.0
 40
1.0
 40
1.0
 10
64.48518725410177
 20
208.6783359569633
 30
0.0
 10
64.48518725410177
 20
208.6783360135466
 30
0.0
 10
64.48518725410177
 20
208.6461643859425
 30
0.0
 10
64.48518725410177
 20
208.5355603577029
 30
0.0
 10
64.48518725410177
 20
208.4578371469633
 30
0.0
 10
64.48518725410177
 20
208.3794775874633
 30
0.0
  0
LINE
  5
D2
330
1F
100
AcDbEntity
  8
0
  6
Continuous
 62
     7
370
    30
100
AcDbLine
 10
54.2851872541
 20
147.2599480513
 30
0.0
 11
54.2851872541
 21
146.7539865736
 31
0.0
  0
LINE
  5
D3
330
1F
100
AcDbEntity
  8
0
  6
Continuous
 62
     7
370
    30
100
AcDbLine
 10
54.2851872541
 20
152.7539866257
 30
0.0
 11
54.2851872541
 21
152.248025148
 31
0.0
  0
LINE
  5
D4
330
1F
100
AcDbEntity
  8
0
  6
Continuous
 62
     7
370
    30
100
AcDbLine
 10
54.2851872541
 20
152.248025148
 30
0.0
 11
54.2851872541
 21
147.2599480513
 31
0.0
  0
LINE
  5
D5
330
1F
100
AcDbEntity
  8
0
  6
Continuous
 62
     7
370
    30
100
AcDbLine
 10
226.0809441174
 20
91.1284971263
 30
0.0
 11
226.0775121937
 21
91.0701255526
 31
0.0
  0
LINE
  5
D6
330
1F
100
AcDbEntity
  8
0
  6
Continuous
 62
     7
370
    30
100
AcDbLine
 10
235.1481030306
 20
147.0566109966
 30
0.0
 11
236.2775125618
 21
146.7539865736
 31
0.0
  0
LINE
  5
D7
330
1F
100
AcDbEntity
  8
0
  6
Continuous
 62
     7
370
    30
100
AcDbLine
 10
236.2775125618
 20
90.2520853307
 30
0.0
 11
236.2775125618
 21
146.7539865736
 31
0.0
  0
LINE
  5
D8
330
1F
100
AcDbEntity
  8
0
  6
Continuous
 62
     7
370
    30
100
AcDbLine
 10
236.2775125618
 20
152.7539866257
 30
0.0
 11
236.2775125618
 21
209.2558878686
 31
0.0
  0
LINE
  5
D9
330
1F
100
AcDbEntity
  8
0
  6
Continuous
 62
     7
370
    30
100
AcDbLine
 10
236.2775125618
 20
152.7539866257
 30
0.0
 11
235.1481030306
 21
152.4513622027
 31
0.0
  0
ARC
  5
DA
330
1F
100
AcDbEntity
  8
0
  6
Continuous
 62
     7
370
    30
100
AcDbCircle
 10
235.2775125618
 20
151.968399317
 30
0.0
 40
0.5000000000020016
100
AcDbArc
 50
104.9999999998
 51
180.0
  0
LINE
  5
DB
330
1F
100
AcDbEntity
  8
0
  6
Continuous
 62
     7
370
    30
100
AcDbLine
 10
234.7775125487
 20
151.9683992702
 30
0.0
 11
234.7775125487
 21
147.5395739291
 31
0.0
  0
ARC
  5
DC
330
1F
100
AcDbEntity
  8
0
  6
Continuous
 62
     7
370
    30
100
AcDbCircle
 10
235.2775125618
 20
147.5395738823
 30
0.0
 40
0.500000000002029
100
AcDbArc
 50
180.0
 51
255.0000000002
  0
LINE
  5
DD
330
1F
100
AcDbEntity
  8
0
  6
Continuous
 62
     7
370
    30
100
AcDbLine
 10
236.2775125618
 20
209.7539852586
 30
0.0
 11
226.2600812207
 21
208.8775734629
 31
0.0
  0
LINE
  5
DE
330
1F
100
AcDbEntity
  8
0
  6
Continuous
 62
     7
370
    30
100
AcDbLine
 10
236.2775125618
 20
209.2558878686
 30
0.0
 11
236.2775125618
 21
209.7539852586
 31
0.0
  0
LINE
  5
DF
330
1F
100
AcDbEntity
  8
0
  6
Continuous
 62
     7
370
    30
100
AcDbLine
 10
236.2775125618
 20
89.7539879408
 30
0.0
 11
226.2600812207
 21
90.6303997364
 31
0.0
  0
LINE
  5
E0
330
1F
100
AcDbEntity
  8
0
  6
Continuous
 62
     7
370
    30
100
AcDbLine
 10
236.2775125618
 20
89.7539879408
 30
0.0
 11
236.2775125618
 21
90.2520853307
 31
0.0
  0
LINE
  5
E1
330
1F
100
AcDbEntity
  8
0
  6
Continuous
 62
     7
370
    30
100
AcDbLine
 10
226.0775121937
 20
208.379476073
 30
0.0
 11
226.0775121937
 21
91.1284971263
 31
0.0
  0
SPLINE
  5
E2
330
1F
100
AcDbEntity
  8
0
  6
Continuous
 62
     7
370
    30
100
AcDbSpline
210
0.0
220
0.0
230
1.0
 70
    24
 71
     3
 72
    13
 73
     9
 74
     0
 42
0.000000001
 43
0.00000001
 40
0.0
 40
0.0
 40
0.0
 40
0.0
 40
0.1284782607995254
 40
0.2515460673333038
 40
0.37409331565304
 40
0.5010700564175357
 40
0.7479921650725141
 40
1.0
 40
1.0
 40
1.0
 40
1.0
 10
226.0775125617623
 20
208.3794775874633
 30
0.0
 10
226.0775125617623
 20
208.3995564925232
 30
0.0
 10
226.0775125617623
 20
208.4388687432708
 30
0.0
 10
226.0775125617623
 20
208.4952169082165
 30
0.0
 10
226.0775125617623
 20
208.5467907578824
 30
0.0
 10
226.0775125617623
 20
208.6064217837418
 30
0.0
 10
226.0775125617623
 20
208.6660570111574
 30
0.0
 10
226.0775125617623
 20
208.6742152553069
 30
0.0
 10
226.0775125617623
 20
208.6783359569633
 30
0.0
  0
SPLINE
  5
E3
330
1F
100
AcDbEntity
  8
0
  6
Continuous
 62
     7
370
    30
100
AcDbSpline
210
0.0
220
0.0
230
1.0
 70
     8
 71
     3
 72
    10
 73
     6
 74
     0
 42
0.000000001
 43
0.00000001
 40
0.0
 40
0.0
 40
0.0
 40
0.0
 40
0.5
 40
0.5
 40
1.0
 40
1.0
 40
1.0
 40
1.0
 10
226.260081399064
 20
208.8775749352438
 30
0.0
 10
226.2108185755978
 20
208.8732649931321
 30
0.0
 10
226.1634656823852
 20
208.8499131243635
 30
0.0
 10
226.096648469864
 20
208.7769949125206
 30
0.0
 10
226.0775125518968
 20
208.7277869567193
 30
0.0
 10
226.0775125617623
 20
208.6783359569633
 30
0.0
  0
SPLINE
  5
E4
330
1F
100
AcDbEntity
  8
0
  6
Continuous
 62
     7
370
    30
100
AcDbSpline
210
0.0
220
0.0
230
1.0
 70
     8
 71
     3
 72
    10
 73
     6
 74
     0
 42
0.000000001
 43
0.00000001
 40
0.0
 40
0.0
 40
0.0
 40
0.0
 40
0.5
 40
0.5
 40
1.0
 40
1.0
 40
1.0
 40
1.0
 10
226.0775125617623
 20
90.8296372024633
 30
0.0
 10
226.0775125617623
 20
90.78018620935727
 30
0.0
 10
226.0966484841979
 20
90.73097826386196
 30
0.0
 10
226.1634656950074
 20
90.6580600684898
 30
0.0
 10
226.2108185822225
 20
90.63470820561493
 30
0.0
 10
226.260081399064
 20
90.63039826408281
 30
0.0
  0
SPLINE
  5
E5
330
1F
100
AcDbEntity
  8
0
  6
Continuous
 62
     7
370
    30
100
AcDbSpline
210
0.0
220
0.0
230
1.0
 70
    24
 71
     3
 72
    13
 73
     9
 74
     0
 42
0.000000001
 43
0.00000001
 40
0.0
 40
0.0
 40
0.0
 40
0.0
 40
0.1284723763525748
 40
0.2515349518386054
 40
0.3740769733961498
 40
0.5010478368733708
 40
0.7479810346550503
 40
0.9999999999999999
 40
0.9999999999999999
 40
0.9999999999999999
 40
0.9999999999999999
 10
226.0775125617623
 20
90.82963724236329
 30
0.0
 10
226.0775125617623
 20
90.83078346374043
 30
0.0
 10
226.0775125617623
 20
90.8330276406373
 30
0.0
 10
226.0775125617623
 20
90.85026641214887
 30
0.0
 10
226.0775125617623
 20
90.87800042418026
 30
0.0
 10
226.0775125617623
 20
90.92765756233493
 30
0.0
 10
226.0775125617623
 20
91.0101753743276
 30
0.0
 10
226.0775125617623
 20
91.08878843443317
 30
0.0
 10
226.0775125617623
 20
91.12849561186329
 30
0.0
  0
LINE
  5
E6
330
1F
100
AcDbEntity
  8
0
  6
Continuous
 62
     7
370
    30
100
AcDbLine
 10
236.2775125618
 20
152.248025148
 30
0.0
 11
236.2775125618
 21
152.7539866257
 31
0.0
  0
LINE
  5
E7
330
1F
100
AcDbEntity
  8
0
  6
Continuous
 62
     7
370
    30
100
AcDbLine
 10
236.2775125618
 20
146.7539865736
 30
0.0
 11
236.2775125618
 21
147.2599480513
 31
0.0
  0
LINE
  5
E8
330
1F
100
AcDbEntity
  8
0
  6
Continuous
 62
     7
370
    30
100
AcDbLine
 10
236.2775125618
 20
147.2599480513
 30
0.0
 11
236.2775125618
 21
152.248025148
 31
0.0
  0
SPLINE
  5
E9
330
1F
100
AcDbEntity
  8
0
  6
Continuous
 62
     7
370
    30
100
AcDbSpline
210
0.0
220
0.0
230
1.0
 70
     8
 71
     3
 72
    11
 73
     7
 74
     0
 42
0.000000001
 43
0.00000001
 40
0.0
 40
0.0
 40
0.0
 40
0.0
 40
0.249991497989137
 40
0.499996507378163
 40
0.7500039195239832
 40
1.0
 40
1.0
 40
1.0
 40
1.0
 10
109.922731933057
 20
245.2528509961163
 30
0.0
 10
109.927748479738
 20
245.2287533823822
 30
0.0
 10
109.9377818442313
 20
245.1805568524997
 30
0.0
 10
109.9838168383731
 20
245.1218566686047
 30
0.0
 10
110.0458041584052
 20
245.0811765119431
 30
0.0
 10
110.0938608931229
 20
245.075929446722
 30
0.0
 10
110.1178887159225
 20
245.0733059735691
 30
0.0
  0
LINE
  5
EA
330
1F
100
AcDbEntity
  8
0
  6
Continuous
 62
     7
370
    30
100
AcDbLine
 10
110.0474881799
 20
245.0866443755
 30
0.0
 11
110.1178887159
 21
245.0733059736
 31
0.0
  0
LINE
  5
EB
330
1F
100
AcDbEntity
  8
0
  6
Continuous
 62
     7
370
    30
100
AcDbLine
 10
109.9129195184
 20
245.2558750005
 30
0.0
 11
109.932086137
 21
245.2530828954
 31
0.0
  0
LINE
  5
EC
330
1F
100
AcDbEntity
  8
0
  6
Continuous
 62
     7
370
    30
100
AcDbLine
 10
109.9129195184
 20
245.2558750005
 30
0.0
 11
109.0365077228
 21
255.2733063416
 31
0.0
  0
LINE
  5
ED
330
1F
100
AcDbEntity
  8
0
  6
Continuous
 62
     7
370
    30
100
AcDbLine
 10
109.5346051127
 20
255.2733063416
 30
0.0
 11
109.0365077228
 21
255.2733063416
 31
0.0
  0
LINE
  5
EE
330
1F
100
AcDbEntity
  8
0
  6
Continuous
 62
     7
370
    30
100
AcDbLine
 10
178.5384106309
 20
255.2733063416
 30
0.0
 11
109.5346051127
 21
255.2733063416
 31
0.0
  0
LINE
  5
EF
330
1F
100
AcDbEntity
  8
0
  6
Continuous
 62
     7
370
    30
100
AcDbLine
 10
179.0365080208
 20
255.2733063416
 30
0.0
 11
178.5384106309
 21
255.2733063416
 31
0.0
  0
LINE
  5
F0
330
1F
100
AcDbEntity
  8
0
  6
Continuous
 62
     7
370
    30
100
AcDbLine
 10
178.1600962252
 20
245.2558750005
 30
0.0
 11
179.0365080208
 21
255.2733063416
 31
0.0
  0
LINE
  5
F1
330
1F
100
AcDbEntity
  8
0
  6
Continuous
 62
     7
370
    30
100
AcDbLine
 10
110.4110169083
 20
245.0733059736
 30
0.0
 11
177.6619988353
 21
245.0733059736
 31
0.0
  0
SPLINE
  5
F2
330
1F
100
AcDbEntity
  8
0
  6
Continuous
 62
     7
370
    30
100
AcDbSpline
210
0.0
220
0.0
230
1.0
 70
     8
 71
     3
 72
    10
 73
     6
 74
     0
 42
0.000000001
 43
0.00000001
 40
0.0
 40
0.0
 40
0.0
 40
0.0
 40
0.5
 40
0.5
 40
1.0
 40
1.0
 40
1.0
 40
1.0
 10
177.9608572690063
 20
245.0733063416277
 30
0.0
 10
178.0103082644889
 20
245.0733063416278
 30
0.0
 10
178.059516212303
 20
245.0924422659748
 30
0.0
 10
178.1324344087976
 20
245.1592594825948
 30
0.0
 10
178.1557862704026
 20
245.2066123736181
 30
0.0
 10
178.1600962086296
 20
245.2558751931344
 30
0.0
  0
SPLINE
  5
F3
330
1F
100
AcDbEntity
  8
0
  6
Continuous
 62
     7
370
    30
100
AcDbSpline
210
0.0
220
0.0
230
1.0
 70
    24
 71
     3
 72
    13
 73
     9
 74
     0
 42
0.000000001
 43
0.00000001
 40
0.0
 40
0.0
 40
0.0
 40
0.0
 40
0.1284782607995254
 40
0.2515460673333038
 40
0.37409331565304
 40
0.5010700564175357
 40
0.7479921650725141
 40
1.0
 40
1.0
 40
1.0
 40
1.0
 10
177.9608572690063
 20
245.0733063416278
 30
0.0
 10
177.9597109246274
 20
245.0733063416278
 30
0.0
 10
177.9574665105254
 20
245.0733063416278
 30
0.0
 10
177.940226213404
 20
245.0733063416277
 30
0.0
 10
177.9124897664277
 20
245.0733063416278
 30
0.0
 10
177.8628307220144
 20
245.0733063416277
 30
0.0
 10
177.78031366217
 20
245.0733063416277
 30
0.0
 10
177.7017041406158
 20
245.0733063416278
 30
0.0
 10
177.6619987359063
 20
245.0733063416278
 30
0.0
  0
SPLINE
  5
F4
330
1F
100
AcDbEntity
  8
0
  6
Continuous
 62
     7
370
    30
100
AcDbSpline
210
0.0
220
0.0
230
1.0
 70
    24
 71
     3
 72
    10
 73
     6
 74
     0
 42
0.000000001
 43
0.00000001
 40
0.0
 40
0.0
 40
0.0
 40
0.0
 40
0.5
 40
0.5
 40
1.0
 40
1.0
 40
1.0
 40
1.0
 10
110.4110170077063
 20
245.0733063416278
 30
0.0
 10
110.3326675687063
 20
245.0733063416278
 30
0.0
 10
110.2549551948959
 20
245.0733063416278
 30
0.0
 10
110.1443418077292
 20
245.0733063416278
 30
0.0
 10
110.1121584746063
 20
245.0733063416278
 30
0.0
 10
110.1121584746063
 20
245.0733063416278
 30
0.0
  0
SPLINE
  5
F5
330
1F
100
AcDbEntity
  8
0
  6
Continuous
 62
     7
370
    30
100
AcDbSpline
210
0.0
220
0.0
230
1.0
 70
     8
 71
     3
 72
    11
 73
     7
 74
     0
 42
0.000000001
 43
0.00000001
 40
0.0
 40
0.0
 40
0.0
 40
0.0
 40
0.249991497989137
 40
0.499996507378163
 40
0.7500039195239832
 40
1.0
 40
1.0
 40
1.0
 40
1.0
 10
178.1502838105557
 20
55.91491158471138
 30
0.0
 10
178.1452672638747
 20
55.93900919844547
 30
0.0
 10
178.1352338993813
 20
55.98720572832794
 30
0.0
 10
178.0891989052396
 20
56.04590591222291
 30
0.0
 10
178.0272115852075
 20
56.08658606888462
 30
0.0
 10
177.9791548504897
 20
56.09183313410568
 30
0.0
 10
177.9551270276901
 20
56.09445660725862
 30
0.0
  0
LINE
  5
F6
330
1F
100
AcDbEntity
  8
0
  6
Continuous
 62
     7
370
    30
100
AcDbLine
 10
178.0255275638
 20
56.0811182053
 30
0.0
 11
177.9551270277
 21
56.0944566073
 31
0.0
  0
LINE
  5
F7
330
1F
100
AcDbEntity
  8
0
  6
Continuous
 62
     7
370
    30
100
AcDbLine
 10
109.5346051127
 20
45.8944562392
 30
0.0
 11
178.5384106309
 21
45.8944562392
 31
0.0
  0
LINE
  5
F8
330
1F
100
AcDbEntity
  8
0
  6
Continuous
 62
     7
370
    30
100
AcDbLine
 10
178.1600962252
 20
55.9118875803
 30
0.0
 11
178.1409296066
 21
55.9146796854
 31
0.0
  0
LINE
  5
F9
330
1F
100
AcDbEntity
  8
0
  6
Continuous
 62
     7
370
    30
100
AcDbLine
 10
179.0365080208
 20
45.8944562392
 30
0.0
 11
178.1600962252
 21
55.9118875803
 31
0.0
  0
LINE
  5
FA
330
1F
100
AcDbEntity
  8
0
  6
Continuous
 62
     7
370
    30
100
AcDbLine
 10
178.5384106309
 20
45.8944562392
 30
0.0
 11
179.0365080208
 21
45.8944562392
 31
0.0
  0
LINE
  5
FB
330
1F
100
AcDbEntity
  8
0
  6
Continuous
 62
     7
370
    30
100
AcDbLine
 10
109.0365077228
 20
45.8944562392
 30
0.0
 11
109.5346051127
 21
45.8944562392
 31
0.0
  0
LINE
  5
FC
330
1F
100
AcDbEntity
  8
0
  6
Continuous
 62
     7
370
    30
100
AcDbLine
 10
109.0365077228
 20
45.8944562392
 30
0.0
 11
109.9129195184
 21
55.9118875803
 31
0.0
  0
LINE
  5
FD
330
1F
100
AcDbEntity
  8
0
  6
Continuous
 62
     7
370
    30
100
AcDbLine
 10
177.6619988353
 20
56.0944566073
 30
0.0
 11
110.4110169083
 21
56.0944566073
 31
0.0
  0
SPLINE
  5
FE
330
1F
100
AcDbEntity
  8
0
  6
Continuous
 62
     7
370
    30
100
AcDbSpline
210
0.0
220
0.0
230
1.0
 70
     8
 71
     3
 72
    10
 73
     6
 74
     0
 42
0.000000001
 43
0.00000001
 40
0.0
 40
0.0
 40
0.0
 40
0.0
 40
0.5
 40
0.5
 40
1.0
 40
1.0
 40
1.0
 40
1.0
 10
110.1121584746063
 20
56.09445623919994
 30
0.0
 10
110.0627074791238
 20
56.09445623919994
 30
0.0
 10
110.0134995313097
 20
56.07532031485292
 30
0.0
 10
109.9405813348151
 20
56.00850309823286
 30
0.0
 10
109.9172294732101
 20
55.96115020720956
 30
0.0
 10
109.9129195349831
 20
55.91188738769323
 30
0.0
  0
SPLINE
  5
FF
330
1F
100
AcDbEntity
  8
0
  6
Continuous
 62
     7
370
    30
100
AcDbSpline
210
0.0
220
0.0
230
1.0
 70
    24
 71
     3
 72
    13
 73
     9
 74
     0
 42
0.000000001
 43
0.00000001
 40
0.0
 40
0.0
 40
0.0
 40
0.0
 40
0.1284782607995254
 40
0.2515460673333038
 40
0.37409331565304
 40
0.5010700564175357
 40
0.7479921650725141
 40
1.0
 40
1.0
 40
1.0
 40
1.0
 10
110.1121584746063
 20
56.09445623919994
 30
0.0
 10
110.1133048189853
 20
56.09445623919994
 30
0.0
 10
110.1155492330873
 20
56.09445623919994
 30
0.0
 10
110.1327895302087
 20
56.09445623919994
 30
0.0
 10
110.160525977185
 20
56.09445623919994
 30
0.0
 10
110.2101850215983
 20
56.09445623919994
 30
0.0
 10
110.2927020814427
 20
56.09445623919994
 30
0.0
 10
110.3713116029969
 20
56.09445623919994
 30
0.0
 10
110.4110170077063
 20
56.09445623919994
 30
0.0
  0
SPLINE
  5
100
330
1F
100
AcDbEntity
  8
0
  6
Continuous
 62
     7
370
    30
100
AcDbSpline
210
0.0
220
0.0
230
1.0
 70
    24
 71
     3
 72
    13
 73
     9
 74
     0
 42
0.000000001
 43
0.00000001
 40
0.0
 40
0.0
 40
0.0
 40
0.0
 40
0.1284723763525748
 40
0.2515349518386054
 40
0.3740769733961498
 40
0.5010478368733708
 40
0.7479810346550503
 40
0.9999999999999999
 40
0.9999999999999999
 40
0.9999999999999999
 40
0.9999999999999999
 10
177.6619987359063
 20
56.09445623919994
 30
0.0
 10
177.6820767150035
 20
56.09445623919994
 30
0.0
 10
177.721387216207
 20
56.09445623919994
 30
0.0
 10
177.7777330853277
 20
56.09445623919994
 30
0.0
 10
177.8293052794916
 20
56.09445623919994
 30
0.0
 10
177.8889377892759
 20
56.09445623919994
 30
0.0
 10
177.9485771473192
 20
56.09445623919993
 30
0.0
 10
177.9567361737411
 20
56.09445623919994
 30
0.0
 10
177.9608572690063
 20
56.09445623919994
 30
0.0
  0
LINE
  5
101
330
1F
100
AcDbEntity
  8
0
  6
Continuous
 62
     7
370
    30
100
AcDbLine
 10
354.8753728601
 20
147.0566109966
 30
0.0
 11
354.9741824599
 21
146.7539865736
 31
0.0
  0
LINE
  5
102
330
1F
100
AcDbEntity
  8
0
  6
Continuous
 62
     7
370
    30
100
AcDbLine
 10
353.9647703501
 20
146.7539865736
 30
0.0
 11
354.9741824599
 21
146.7539865736
 31
0.0
  0
LINE
  5
103
330
1F
100
AcDbEntity
  8
0
  6
Continuous
 62
     7
370
    30
100
AcDbLine
 10
354.9741824599
 20
146.7539865736
 30
0.0
 11
354.9741824599
 21
90.2520853307
 31
0.0
  0
ELLIPSE
  5
104
330
1F
100
AcDbEntity
  8
0
  6
Continuous
 62
     7
370
    30
100
AcDbEllipse
 10
354.4722723922
 20
90.2558965184
 30
0.0
 11
-0.3562493039451055
 21
0.3562493039451339
 31
0.0
210
0.0
220
0.0
230
1.0
 40
0.9924325091
 41
2.359992588483649
 42
3.923192718696117
  0
LINE
  5
105
330
1F
100
AcDbEntity
  8
0
  6
Continuous
 62
     7
370
    30
100
AcDbLine
 10
354.47608507
 20
89.7539879408
 30
0.0
 11
285.4722795518
 21
89.7539879408
 31
0.0
  0
ELLIPSE
  5
106
330
1F
100
AcDbEntity
  8
0
  6
Continuous
 62
     7
370
    30
100
AcDbEllipse
 10
285.4760922297
 20
90.2558965184
 30
0.0
 11
-0.3562493039451624
 21
-0.3562493039451198
 31
0.0
210
0.0
220
0.0
230
1.0
 40
0.9924325091
 41
5.50158524207332
 42
7.064785372286014
  0
LINE
  5
107
330
1F
100
AcDbEntity
  8
0
  6
Continuous
 62
     7
370
    30
100
AcDbLine
 10
284.9741821619
 20
90.2520853307
 30
0.0
 11
284.9741821619
 21
146.7539865736
 31
0.0
  0
LINE
  5
108
330
1F
100
AcDbEntity
  8
0
  6
Continuous
 62
     7
370
    30
100
AcDbLine
 10
284.9741821619
 20
146.7539865736
 30
0.0
 11
285.9835942718
 21
146.7539865736
 31
0.0
  0
ELLIPSE
  5
109
330
1F
100
AcDbEntity
  8
0
  6
Continuous
 62
     7
370
    30
100
AcDbEllipse
 10
285.9722723922
 20
147.2716246899
 30
0.0
 11
0.1612402556953611
 21
-0.4938262234184945
 31
0.0
210
0.0
220
0.0
230
1.0
 40
0.9624950979
 41
5.978692064312527
 42
7.52692891151727
  0
LINE
  5
10A
330
1F
100
AcDbEntity
  8
0
  6
Continuous
 62
     7
370
    30
100
AcDbLine
 10
286.4741814765
 20
147.2599480513
 30
0.0
 11
286.4741814765
 21
152.248025148
 31
0.0
  0
ELLIPSE
  5
10B
330
1F
100
AcDbEntity
  8
0
  6
Continuous
 62
     7
370
    30
100
AcDbEllipse
 10
285.9722723922
 20
152.2363485095
 30
0.0
 11
-0.161240255695418
 21
-0.4938262234184947
 31
0.0
210
0.0
220
0.0
230
1.0
 40
0.9624950979
 41
1.897849049252184
 42
3.446085896457002
  0
LINE
  5
10C
330
1F
100
AcDbEntity
  8
0
  6
Continuous
 62
     7
370
    30
100
AcDbLine
 10
285.9835942718
 20
152.7539866257
 30
0.0
 11
284.9741821619
 21
152.7539866257
 31
0.0
  0
LINE
  5
10D
330
1F
100
AcDbEntity
  8
0
  6
Continuous
 62
     7
370
    30
100
AcDbLine
 10
284.9741821619
 20
152.7539866257
 30
0.0
 11
284.9741821619
 21
209.2558878686
 31
0.0
  0
ELLIPSE
  5
10E
330
1F
100
AcDbEntity
  8
0
  6
Continuous
 62
     7
370
    30
100
AcDbEllipse
 10
285.4760922297
 20
209.2520766809
 30
0.0
 11
0.3562493039451056
 21
-0.3562493039451056
 31
0.0
210
0.0
220
0.0
230
1.0
 40
0.9924325091
 41
2.359992588483455
 42
3.923192718696089
  0
LINE
  5
10F
330
1F
100
AcDbEntity
  8
0
  6
Continuous
 62
     7
370
    30
100
AcDbLine
 10
285.4722795518
 20
209.7539852586
 30
0.0
 11
354.47608507
 21
209.7539852586
 31
0.0
  0
ELLIPSE
  5
110
330
1F
100
AcDbEntity
  8
0
  6
Continuous
 62
     7
370
    30
100
AcDbEllipse
 10
354.4722723922
 20
209.2520766809
 30
0.0
 11
0.3562493039451624
 21
0.356249303945134
 31
0.0
210
0.0
220
0.0
230
1.0
 40
0.9924325091
 41
5.501585242073339
 42
7.06478537228587
  0
LINE
  5
111
330
1F
100
AcDbEntity
  8
0
  6
Continuous
 62
     7
370
    30
100
AcDbLine
 10
354.9741824599
 20
209.2558878686
 30
0.0
 11
354.9741824599
 21
152.7539866257
 31
0.0
  0
LINE
  5
112
330
1F
100
AcDbEntity
  8
0
  6
Continuous
 62
     7
370
    30
100
AcDbLine
 10
354.9741824599
 20
152.7539866257
 30
0.0
 11
353.9647703501
 21
152.7539866257
 31
0.0
  0
ELLIPSE
  5
113
330
1F
100
AcDbEntity
  8
0
  6
Continuous
 62
     7
370
    30
100
AcDbEllipse
 10
353.9760922297
 20
152.2363485095
 30
0.0
 11
-0.1612402556953611
 21
0.4938262234184945
 31
0.0
210
0.0
220
0.0
230
1.0
 40
0.9624950979
 41
5.978692064322719
 42
7.526928911517214
  0
LINE
  5
114
330
1F
100
AcDbEntity
  8
0
  6
Continuous
 62
     7
370
    30
100
AcDbLine
 10
353.4741831454
 20
152.248025148
 30
0.0
 11
353.4741831454
 21
147.2599480513
 31
0.0
  0
ELLIPSE
  5
115
330
1F
100
AcDbEntity
  8
0
  6
Continuous
 62
     7
370
    30
100
AcDbEllipse
 10
353.9760922297
 20
147.2716246899
 30
0.0
 11
0.161240255695418
 21
0.4938262234184947
 31
0.0
210
0.0
220
0.0
230
1.0
 40
0.9624950979
 41
1.897849049252131
 42
3.446085896457115
  0
ELLIPSE
  5
116
330
1F
100
AcDbEntity
  8
0
  6
Continuous
 62
     7
370
    30
100
AcDbEllipse
 10
287.2829679373
 20
207.4452009733
 30
0.0
 11
0.3562493039451055
 21
-0.3562493039451339
 31
0.0
210
0.0
220
0.0
230
1.0
 40
0.9924325091
 41
2.359992588482674
 42
3.923192718697064
  0
LINE
  5
117
330
1F
100
AcDbEntity
  8
0
  6
Continuous
 62
     7
370
    30
100
AcDbLine
 10
286.7810597154
 20
207.4490140404
 30
0.0
 11
286.7810597154
 21
154.8528449822
 31
0.0
  0
ELLIPSE
  5
118
330
1F
100
AcDbEntity
  8
0
  6
Continuous
 62
     7
370
    30
100
AcDbEllipse
 10
287.0822039698
 20
154.8551325509
 30
0.0
 11
0.2137495823670292
 21
0.2137495823670577
 31
0.0
210
0.0
220
0.0
230
1.0
 40
0.9924325091
 41
2.359992588460548
 42
3.853789774587017
  0
ELLIPSE
  5
119
330
1F
100
AcDbEntity
  8
0
  6
Continuous
 62
     7
370
    30
100
AcDbEllipse
 10
286.981821986
 20
153.5533083599
 30
0.0
 11
-0.7124986078902111
 21
-0.7124986078902396
 31
0.0
210
0.0
220
0.0
230
1.0
 40
0.9924325091
 41
2.359992588467753
 42
3.853789774575026
  0
LINE
  5
11A
330
1F
100
AcDbEntity
  8
0
  6
Continuous
 62
     7
370
    30
100
AcDbLine
 10
287.9856435092
 20
153.5609333988
 30
0.0
 11
287.9856435092
 21
145.9470398005
 31
0.0
  0
ELLIPSE
  5
11B
330
1F
100
AcDbEntity
  8
0
  6
Continuous
 62
     7
370
    30
100
AcDbEllipse
 10
286.981821986
 20
145.9546648394
 30
0.0
 11
0.712498607890268
 21
-0.7124986078902396
 31
0.0
210
0.0
220
0.0
230
1.0
 40
0.9924325091
 41
5.570988252607823
 42
7.064785372301607
  0
ELLIPSE
  5
11C
330
1F
100
AcDbEntity
  8
0
  6
Continuous
 62
     7
370
    30
100
AcDbEllipse
 10
287.0822039698
 20
144.6528406484
 30
0.0
 11
-0.2137495823670861
 21
0.2137495823670861
 31
0.0
210
0.0
220
0.0
230
1.0
 40
0.9924325091
 41
5.570987964803885
 42
7.064785372308864
  0
LINE
  5
11D
330
1F
100
AcDbEntity
  8
0
  6
Continuous
 62
     7
370
    30
100
AcDbLine
 10
286.7810597154
 20
144.6551282171
 30
0.0
 11
286.7810597154
 21
92.0589591589
 31
0.0
  0
ELLIPSE
  5
11E
330
1F
100
AcDbEntity
  8
0
  6
Continuous
 62
     7
370
    30
100
AcDbEllipse
 10
287.2829679373
 20
92.062772226
 30
0.0
 11
-0.3562493039451624
 21
-0.3562493039451198
 31
0.0
210
0.0
220
0.0
230
1.0
 40
0.9924325091
 41
5.50158524207249
 42
7.064785372286815
  0
LINE
  5
11F
330
1F
100
AcDbEntity
  8
0
  6
Continuous
 62
     7
370
    30
100
AcDbLine
 10
352.6692075165
 20
91.5608617689
 30
0.0
 11
287.2791571053
 21
91.5608617689
 31
0.0
  0
ELLIPSE
  5
120
330
1F
100
AcDbEntity
  8
0
  6
Continuous
 62
     7
370
    30
100
AcDbEllipse
 10
352.6653966846
 20
92.062772226
 30
0.0
 11
-0.3562493039451624
 21
0.3562493039451198
 31
0.0
210
0.0
220
0.0
230
1.0
 40
0.9924325091
 41
2.359992588482523
 42
3.923192718696956
  0
LINE
  5
121
330
1F
100
AcDbEntity
  8
0
  6
Continuous
 62
     7
370
    30
100
AcDbLine
 10
353.1673049065
 20
144.6551282171
 30
0.0
 11
353.1673049065
 21
92.0589591589
 31
0.0
  0
ELLIPSE
  5
122
330
1F
100
AcDbEntity
  8
0
  6
Continuous
 62
     7
370
    30
100
AcDbEllipse
 10
352.8661606521
 20
144.6528406484
 30
0.0
 11
-0.2137495823670861
 21
-0.2137495823670577
 31
0.0
210
0.0
220
0.0
230
1.0
 40
0.9924325091
 41
2.359992588460549
 42
3.853789774587283
  0
ELLIPSE
  5
123
330
1F
100
AcDbEntity
  8
0
  6
Continuous
 62
     7
370
    30
100
AcDbEllipse
 10
352.9665426359
 20
145.9546648394
 30
0.0
 11
0.7124986078902111
 21
0.7124986078902396
 31
0.0
210
0.0
220
0.0
230
1.0
 40
0.9924325091
 41
2.359992588467773
 42
3.853789774575063
  0
LINE
  5
124
330
1F
100
AcDbEntity
  8
0
  6
Continuous
 62
     7
370
    30
100
AcDbLine
 10
351.9627211126
 20
153.5609333988
 30
0.0
 11
351.9627211126
 21
145.9470398005
 31
0.0
  0
ELLIPSE
  5
125
330
1F
100
AcDbEntity
  8
0
  6
Continuous
 62
     7
370
    30
100
AcDbEllipse
 10
352.9665426359
 20
153.5533083599
 30
0.0
 11
-0.712498607890268
 21
0.7124986078902396
 31
0.0
210
0.0
220
0.0
230
1.0
 40
0.9924325091
 41
5.570988252607787
 42
7.064785372301587
  0
ELLIPSE
  5
126
330
1F
100
AcDbEntity
  8
0
  6
Continuous
 62
     7
370
    30
100
AcDbEllipse
 10
352.8661606521
 20
154.8551325509
 30
0.0
 11
0.2137495823670861
 21
-0.2137495823670861
 31
0.0
210
0.0
220
0.0
230
1.0
 40
0.9924325091
 41
5.570987964803819
 42
7.06478537230893
  0
LINE
  5
127
330
1F
100
AcDbEntity
  8
0
  6
Continuous
 62
     7
370
    30
100
AcDbLine
 10
353.1673049065
 20
207.4490140404
 30
0.0
 11
353.1673049065
 21
154.8528449822
 31
0.0
  0
ELLIPSE
  5
128
330
1F
100
AcDbEntity
  8
0
  6
Continuous
 62
     7
370
    30
100
AcDbEllipse
 10
352.6653966846
 20
207.4452009733
 30
0.0
 11
0.3562493039451056
 21
0.3562493039451056
 31
0.0
210
0.0
220
0.0
230
1.0
 40
0.9924325091
 41
5.501585242072444
 42
7.064785372286686
  0
LINE
  5
129
330
1F
100
AcDbEntity
  8
0
  6
Continuous
 62
     7
370
    30
100
AcDbLine
 10
352.6692075165
 20
207.9471114304
 30
0.0
 11
287.2791571053
 21
207.9471114304
 31
0.0
  0
LINE
  5
12A
330
1F
100
AcDbEntity
  8
0
  6
Continuous
 62
     7
370
    30
100
AcDbLine
 10
354.8753728601
 20
152.4513622027
 30
0.0
 11
354.9741824599
 21
152.7539866257
 31
0.0
  0
LINE
  5
12B
330
1F
100
AcDbEntity
  8
0
  6
Continuous
 62
     7
370
    30
100
AcDbLine
 10
284.9741821619
 20
152.7539866257
 30
0.0
 11
285.0729917618
 21
152.4513622027
 31
0.0
  0
LINE
  5
12C
330
1F
100
AcDbEntity
  8
0
  6
Continuous
 62
     7
370
    30
100
AcDbLine
 10
285.0729917618
 20
147.0566109966
 30
0.0
 11
284.9741821619
 21
146.7539865736
 31
0.0
  0
ARC
  5
12D
330
1F
100
AcDbEntity
  8
0
  6
Continuous
 62
     7
370
    30
100
AcDbCircle
 10
352.3297528525
 20
155.3915178335
 30
0.0
 40
0.3015992153818242
100
AcDbArc
 50
274.4599809602
 51
359.4861865838
  0
ARC
  5
12E
330
1F
100
AcDbEntity
  8
0
  6
Continuous
 62
     7
370
    30
100
AcDbCircle
 10
287.6186117693
 20
144.1164553658
 30
0.0
 40
0.3015992153818339
100
AcDbArc
 50
94.4599809602
 51
179.4861865838
  0
CIRCLE
  5
12F
330
1F
100
AcDbEntity
  8
0
  6
Continuous
 62
     7
370
    30
100
AcDbCircle
 10
347.4741823109
 20
105.7539865997
 30
0.0
 40
1.5
  0
CIRCLE
  5
130
330
1F
100
AcDbEntity
  8
0
  6
Continuous
 62
     7
370
    30
100
AcDbCircle
 10
347.4741823109
 20
193.7539865997
 30
0.0
 40
1.5
  0
CIRCLE
  5
131
330
1F
100
AcDbEntity
  8
0
  6
Continuous
 62
     7
370
    30
100
AcDbCircle
 10
292.4741823109
 20
105.7539865997
 30
0.0
 40
1.5
  0
CIRCLE
  5
132
330
1F
100
AcDbEntity
  8
0
  6
Continuous
 62
     7
370
    30
100
AcDbCircle
 10
292.4741823109
 20
193.7539865997
 30
0.0
 40
1.5
  0
ELLIPSE
  5
133
330
1F
100
AcDbEntity
  8
0
  6
Continuous
 62
     7
370
    30
100
AcDbEllipse
 10
354.8866936474
 20
151.968399317
 30
0.0
 11
0.0
 21
0.5
 31
0.0
210
0.0
220
0.0
230
1.0
 40
0.0874886635
 41
0.2617993877817312
 42
1.570796326794897
  0
ELLIPSE
  5
134
330
1F
100
AcDbEntity
  8
0
  6
Continuous
 62
     7
370
    30
100
AcDbEllipse
 10
285.0616709744
 20
151.968399317
 30
0.0
 11
0.0
 21
0.5
 31
0.0
210
0.0
220
0.0
230
1.0
 40
0.0874886635
 41
4.712388980384691
 42
6.021385919383205
  0
ELLIPSE
  5
135
330
1F
100
AcDbEntity
  8
0
  6
Continuous
 62
     7
370
    30
100
AcDbEllipse
 10
285.0616709744
 20
147.5395738823
 30
0.0
 11
0.0
 21
0.5
 31
0.0
210
0.0
220
0.0
230
1.0
 40
0.0874886635
 41
3.403392041386455
 42
4.712388980384691
  0
ELLIPSE
  5
136
330
1F
100
AcDbEntity
  8
0
  6
Continuous
 62
     7
370
    30
100
AcDbEllipse
 10
354.8866936474
 20
147.5395738823
 30
0.0
 11
0.0
 21
0.5
 31
0.0
210
0.0
220
0.0
230
1.0
 40
0.0874886635
 41
1.570796326794897
 42
2.879793265809316
  0
LINE
  5
137
330
1F
100
AcDbEntity
  8
0
  6
Continuous
 62
     7
370
    30
100
AcDbLine
 10
354.8429479333
 20
151.9683992702
 30
0.0
 11
354.8429479333
 21
147.5395739291
 31
0.0
  0
LINE
  5
138
330
1F
100
AcDbEntity
  8
0
  6
Continuous
 62
     7
370
    30
100
AcDbLine
 10
285.1054166885
 20
151.9683992702
 30
0.0
 11
285.1054166885
 21
147.5395739291
 31
0.0
  0
LINE
  5
139
330
1F
100
AcDbEntity
  8
0
  6
Continuous
 62
     7
370
    30
100
AcDbLine
 10
350.5537008377
 20
123.3887828167
 30
0.0
 11
348.7537020328
 21
124.065316024
 31
0.0
  0
LINE
  5
13A
330
1F
100
AcDbEntity
  8
0
  6
Continuous
 62
     7
370
    30
100
AcDbLine
 10
348.7537020328
 20
124.065316024
 30
0.0
 11
348.7537020328
 21
124.6624502566
 31
0.0
  0
LINE
  5
13B
330
1F
100
AcDbEntity
  8
0
  6
Continuous
 62
     7
370
    30
100
AcDbLine
 10
348.7537020328
 20
124.6624502566
 30
0.0
 11
350.5495843919
 21
125.3374356057
 31
0.0
  0
LINE
  5
13C
330
1F
100
AcDbEntity
  8
0
  6
Continuous
 62
     7
370
    30
100
AcDbLine
 10
350.5495843919
 20
125.3374356057
 30
0.0
 11
350.5495843919
 21
124.7554428156
 31
0.0
  0
LINE
  5
13D
330
1F
100
AcDbEntity
  8
0
  6
Continuous
 62
     7
370
    30
100
AcDbLine
 10
350.5495843919
 20
124.7554428156
 30
0.0
 11
350.2565679582
 21
124.6780014809
 31
0.0
  0
LINE
  5
13E
330
1F
100
AcDbEntity
  8
0
  6
Continuous
 62
     7
370
    30
100
AcDbLine
 10
350.2565679582
 20
124.6780014809
 30
0.0
 11
350.2565679582
 21
124.0444394972
 31
0.0
  0
LINE
  5
13F
330
1F
100
AcDbEntity
  8
0
  6
Continuous
 62
     7
370
    30
100
AcDbLine
 10
350.5537027004
 20
123.9572621163
 30
0.0
 11
350.5537027004
 21
123.3887828167
 31
0.0
  0
LINE
  5
140
330
1F
100
AcDbEntity
  8
0
  6
Continuous
 62
     7
370
    30
100
AcDbLine
 10
349.2161577078
 20
124.3638831403
 30
0.0
 11
349.8630543681
 21
124.1656399544
 31
0.0
  0
LINE
  5
141
330
1F
100
AcDbEntity
  8
0
  6
Continuous
 62
     7
370
    30
100
AcDbLine
 10
349.8630543681
 20
124.1656399544
 30
0.0
 11
349.8630543681
 21
124.5621263262
 31
0.0
  0
LINE
  5
142
330
1F
100
AcDbEntity
  8
0
  6
Continuous
 62
     7
370
    30
100
AcDbLine
 10
349.8630543681
 20
124.5621263262
 30
0.0
 11
349.2161577078
 21
124.3638831403
 31
0.0
  0
LINE
  5
143
330
1F
100
AcDbEntity
  8
0
  6
Continuous
 62
     7
370
    30
100
AcDbLine
 10
350.2565679582
 20
124.0444394972
 30
0.0
 11
350.5537027004
 21
123.9572621163
 31
0.0
  0
LINE
  5
144
330
1F
100
AcDbEntity
  8
0
  6
Continuous
 62
     7
370
    30
100
AcDbLine
 10
289.528416607
 20
154.2078966487
 30
0.0
 11
292.4922203156
 21
154.2078966487
 31
0.0
  0
LINE
  5
145
330
1F
100
AcDbEntity
  8
0
  6
Continuous
 62
     7
370
    30
100
AcDbLine
 10
289.528416607
 20
156.7631812978
 30
0.0
 11
289.528416607
 21
154.2078966487
 31
0.0
  0
LINE
  5
146
330
1F
100
AcDbEntity
  8
0
  6
Continuous
 62
     7
370
    30
100
AcDbLine
 10
289.5336525025
 20
156.7631812978
 30
0.0
 11
289.528416607
 21
156.7631812978
 31
0.0
  0
SPLINE
  5
147
330
1F
100
AcDbEntity
  8
0
  6
Continuous
 62
     7
370
    30
100
AcDbSpline
210
0.0
220
0.0
230
1.0
 70
     8
 71
     3
 72
    14
 73
    10
 74
     0
 42
0.000000001
 43
0.00000001
 40
0.0
 40
0.0
 40
0.0
 40
0.0
 40
0.25
 40
0.25
 40
0.5
 40
0.5
 40
0.75
 40
0.75
 40
1.0
 40
1.0
 40
1.0
 40
1.0
 10
290.7561803081173
 20
157.9856277404933
 30
0.0
 10
290.5947872499937
 20
157.9856277404933
 30
0.0
 10
290.4363144030319
 20
157.9540635062619
 30
0.0
 10
290.1405765957557
 20
157.8311127649701
 30
0.0
 10
290.0052306986293
 20
157.7401028580084
 30
0.0
 10
289.7797147974306
 20
157.5147668602754
 30
0.0
 10
289.6883083545811
 20
157.3787164813416
 30
0.0
 10
289.5659053632417
 20
157.0850705125981
 30
0.0
 10
289.5336520923834
 20
156.9245958316555
 30
0.0
 10
289.5336520867173
 20
156.7631813645283
 30
0.0
  0
SPLINE
  5
148
330
1F
100
AcDbEntity
  8
0
  6
Continuous
 62
     7
370
    30
100
AcDbSpline
210
0.0
220
0.0
230
1.0
 70
     8
 71
     3
 72
    14
 73
    10
 74
     0
 42
0.000000001
 43
0.00000001
 40
0.0
 40
0.0
 40
0.0
 40
0.0
 40
0.25
 40
0.25
 40
0.5
 40
0.5
 40
0.75
 40
0.75
 40
1.0
 40
1.0
 40
1.0
 40
1.0
 10
291.985538981394
 20
156.7740610444898
 30
0.0
 10
291.9852945892309
 20
156.9351839204929
 30
0.0
 10
291.9531417987402
 20
157.0934738675197
 30
0.0
 10
291.8283237744971
 20
157.3876459968541
 30
0.0
 10
291.7359324270388
 20
157.5219400484373
 30
0.0
 10
291.5085313395722
 20
157.7444861152491
 30
0.0
 10
291.3717090596696
 20
157.8341985143017
 30
0.0
 10
291.0775130839102
 20
157.9541245088313
 30
0.0
 10
290.9172789296724
 20
157.9856277404933
 30
0.0
 10
290.7561803081173
 20
157.9856277404933
 30
0.0
  0
LINE
  5
149
330
1F
100
AcDbEntity
  8
0
  6
Continuous
 62
     7
370
    30
100
AcDbLine
 10
291.9855398568
 20
155.4838826161
 30
0.0
 11
291.9855398568
 21
156.7740610082
 31
0.0
  0
LINE
  5
14A
330
1F
100
AcDbEntity
  8
0
  6
Continuous
 62
     7
370
    30
100
AcDbLine
 10
292.4922203156
 20
155.4838826161
 30
0.0
 11
291.9855398568
 21
155.4838826161
 31
0.0
  0
LINE
  5
14B
330
1F
100
AcDbEntity
  8
0
  6
Continuous
 62
     7
370
    30
100
AcDbLine
 10
292.4922203156
 20
154.2078966487
 30
0.0
 11
292.4922203156
 21
155.4838826161
 31
0.0
  0
LINE
  5
14C
330
1F
100
AcDbEntity
  8
0
  6
Continuous
 62
     7
370
    30
100
AcDbLine
 10
290.3553099813
 20
156.3776901204
 30
0.0
 11
290.3553099813
 21
155.4838826161
 31
0.0
  0
LINE
  5
14D
330
1F
100
AcDbEntity
  8
0
  6
Continuous
 62
     7
370
    30
100
AcDbLine
 10
290.3553099813
 20
155.4838826161
 30
0.0
 11
291.1570911737
 21
155.4838826161
 31
0.0
  0
LINE
  5
14E
330
1F
100
AcDbEntity
  8
0
  6
Continuous
 62
     7
370
    30
100
AcDbLine
 10
291.1570911737
 20
155.4838826161
 30
0.0
 11
291.1570911737
 21
156.3778950114
 31
0.0
  0
SPLINE
  5
14F
330
1F
100
AcDbEntity
  8
0
  6
Continuous
 62
     7
370
    30
100
AcDbSpline
210
0.0
220
0.0
230
1.0
 70
     8
 71
     3
 72
    10
 73
     6
 74
     0
 42
0.000000001
 43
0.00000001
 40
0.0
 40
0.0
 40
0.0
 40
0.0
 40
0.5
 40
0.5
 40
1.0
 40
1.0
 40
1.0
 40
1.0
 10
291.1570910307771
 20
156.3778948629156
 30
0.0
 10
291.1535093389912
 20
156.4825459277168
 30
0.0
 10
291.1094341330776
 20
156.5835182480511
 30
0.0
 10
290.9628599093045
 20
156.7301675945928
 30
0.0
 10
290.8609708207018
 20
156.7740609631733
 30
0.0
 10
290.7561803081173
 20
156.7740609631733
 30
0.0
  0
SPLINE
  5
150
330
1F
100
AcDbEntity
  8
0
  6
Continuous
 62
     7
370
    30
100
AcDbSpline
210
0.0
220
0.0
230
1.0
 70
     8
 71
     3
 72
    10
 73
     6
 74
     0
 42
0.000000001
 43
0.00000001
 40
0.0
 40
0.0
 40
0.0
 40
0.0
 40
0.5
 40
0.5
 40
1.0
 40
1.0
 40
1.0
 40
1.0
 10
290.7561803081173
 20
156.7740609631733
 30
0.0
 10
290.650936590361
 20
156.7740609631733
 30
0.0
 10
290.547950231434
 20
156.7316047429115
 30
0.0
 10
290.3996073070819
 20
156.5857949985504
 30
0.0
 10
290.3553104821175
 20
156.4829844129557
 30
0.0
 10
290.3553104821174
 20
156.3776902284608
 30
0.0
  0
LINE
  5
151
330
1F
100
AcDbEntity
  8
0
  6
Continuous
 62
     7
370
    30
100
AcDbLine
 10
297.8751139226
 20
149.428924986
 30
0.0
 11
298.6578085902
 21
149.428924986
 31
0.0
  0
LINE
  5
152
330
1F
100
AcDbEntity
  8
0
  6
Continuous
 62
     7
370
    30
100
AcDbLine
 10
298.6578085902
 20
149.428924986
 30
0.0
 11
298.6578085902
 21
149.1331453182
 31
0.0
  0
LINE
  5
153
330
1F
100
AcDbEntity
  8
0
  6
Continuous
 62
     7
370
    30
100
AcDbLine
 10
298.6578085902
 20
149.1331453182
 30
0.0
 11
296.7703008535
 21
149.1331453182
 31
0.0
  0
LINE
  5
154
330
1F
100
AcDbEntity
  8
0
  6
Continuous
 62
     7
370
    30
100
AcDbLine
 10
296.7703008535
 20
149.1331453182
 30
0.0
 11
296.7703008535
 21
149.6567215837
 31
0.0
  0
SPLINE
  5
155
330
1F
100
AcDbEntity
  8
0
  6
Continuous
 62
     7
370
    30
100
AcDbSpline
210
0.0
220
0.0
230
1.0
 70
     8
 71
     3
 72
    12
 73
     8
 74
     0
 42
0.000000001
 43
0.00000001
 40
0.0
 40
0.0
 40
0.0
 40
0.0
 40
0.4999999999999962
 40
0.4999999999999962
 40
0.7499999999999981
 40
0.7499999999999981
 40
1.0
 40
1.0
 40
1.0
 40
1.0
 10
296.7703008059867
 20
149.6567215854193
 30
0.0
 10
296.7716917937802
 20
149.7279199871501
 30
0.0
 10
296.7788877548877
 20
149.7995491883776
 30
0.0
 10
296.8108369782847
 20
149.8998453353718
 30
0.0
 10
296.8252506702541
 20
149.9321307648085
 30
0.0
 10
296.8618732485043
 20
149.9937514576586
 30
0.0
 10
296.8847041678957
 20
150.0210745969603
 30
0.0
 10
296.9091143653174
 20
150.0471792141103
 30
0.0
  0
SPLINE
  5
156
330
1F
100
AcDbEntity
  8
0
  6
Continuous
 62
     7
370
    30
100
AcDbSpline
210
0.0
220
0.0
230
1.0
 70
     8
 71
     3
 72
    12
 73
     8
 74
     0
 42
0.000000001
 43
0.00000001
 40
0.0
 40
0.0
 40
0.0
 40
0.0
 40
0.2499999999999946
 40
0.2499999999999946
 40
0.4999999999999891
 40
0.4999999999999891
 40
1.0
 40
1.0
 40
1.0
 40
1.0
 10
296.9091143653174
 20
150.0471792141103
 30
0.0
 10
296.9366455166432
 20
150.0732012132523
 30
0.0
 10
296.965370799256
 20
150.0977300778099
 30
0.0
 10
297.0296832600422
 20
150.1382077339566
 30
0.0
 10
297.0635392316876
 20
150.1544028521421
 30
0.0
 10
297.1695776395763
 20
150.1921170089201
 30
0.0
 10
297.2457378600422
 20
150.2005997956545
 30
0.0
 10
297.3212838568173
 20
150.2023656547883
 30
0.0
  0
SPLINE
  5
157
330
1F
100
AcDbEntity
  8
0
  6
Continuous
 62
     7
370
    30
100
AcDbSpline
210
0.0
220
0.0
230
1.0
 70
     8
 71
     3
 72
    12
 73
     8
 74
     0
 42
0.000000001
 43
0.00000001
 40
0.0
 40
0.0
 40
0.0
 40
0.0
 40
0.5
 40
0.5
 40
0.75
 40
0.75
 40
1.0
 40
1.0
 40
1.0
 40
1.0
 10
297.3212838568173
 20
150.2023656547883
 30
0.0
 10
297.397034121759
 20
150.2005724175301
 30
0.0
 10
297.4732454970453
 20
150.192107357471
 30
0.0
 10
297.5790073464202
 20
150.1545590906846
 30
0.0
 10
297.6133714275375
 20
150.1381279370936
 30
0.0
 10
297.677479202852
 20
150.0977737259665
 30
0.0
 10
297.7062295584389
 20
150.0732471118685
 30
0.0
 10
297.7338092806173
 20
150.0471792141103
 30
0.0
  0
SPLINE
  5
158
330
1F
100
AcDbEntity
  8
0
  6
Continuous
 62
     7
370
    30
100
AcDbSpline
210
0.0
220
0.0
230
1.0
 70
     8
 71
     3
 72
    12
 73
     8
 74
     0
 42
0.000000001
 43
0.00000001
 40
0.0
 40
0.0
 40
0.0
 40
0.0
 40
0.2500000000000019
 40
0.2500000000000019
 40
0.5000000000000038
 40
0.5000000000000038
 40
1.0
 40
1.0
 40
1.0
 40
1.0
 10
297.7338092806173
 20
150.0471792141103
 30
0.0
 10
297.7585342423823
 20
150.0213771971772
 30
0.0
 10
297.7814637563451
 20
149.9943244214472
 30
0.0
 10
297.8181465877861
 20
149.9338264767012
 30
0.0
 10
297.8332777295622
 20
149.9009227545961
 30
0.0
 10
297.866559327715
 20
149.7998158159169
 30
0.0
 10
297.873880526842
 20
149.7280950430683
 30
0.0
 10
297.8751143652974
 20
149.6567215881471
 30
0.0
  0
LINE
  5
159
330
1F
100
AcDbEntity
  8
0
  6
Continuous
 62
     7
370
    30
100
AcDbLine
 10
297.8751139226
 20
149.656721591
 30
0.0
 11
297.8751139226
 21
149.428924986
 31
0.0
  0
SPLINE
  5
15A
330
1F
100
AcDbEntity
  8
0
  6
Continuous
 62
     7
370
    30
100
AcDbSpline
210
0.0
220
0.0
230
1.0
 70
     8
 71
     3
 72
    10
 73
     6
 74
     0
 42
0.000000001
 43
0.00000001
 40
0.0
 40
0.0
 40
0.0
 40
0.0
 40
0.5
 40
0.5
 40
1.0
 40
1.0
 40
1.0
 40
1.0
 10
297.6476736717094
 20
149.6001290342108
 30
0.0
 10
297.6466182483399
 20
149.6452698232177
 30
0.0
 10
297.6422077110604
 20
149.6906441329499
 30
0.0
 10
297.6150743804462
 20
149.7754629783879
 30
0.0
 10
297.5910840911525
 20
149.8148119472644
 30
0.0
 10
297.5601143653174
 20
149.8478571802118
 30
0.0
  0
SPLINE
  5
15B
330
1F
100
AcDbEntity
  8
0
  6
Continuous
 62
     7
370
    30
100
AcDbSpline
210
0.0
220
0.0
230
1.0
 70
     8
 71
     3
 72
    10
 73
     6
 74
     0
 42
0.000000001
 43
0.00000001
 40
0.0
 40
0.0
 40
0.0
 40
0.0
 40
0.5
 40
0.5
 40
1.0
 40
1.0
 40
1.0
 40
1.0
 10
297.5601143653174
 20
149.8478571802118
 30
0.0
 10
297.5283830754728
 20
149.8773382525945
 30
0.0
 10
297.4901548344646
 20
149.8990034590152
 30
0.0
 10
297.407699425476
 20
149.9223471472949
 30
0.0
 10
297.3644503448198
 20
149.926105332697
 30
0.0
 10
297.3212838568173
 20
149.9265181971613
 30
0.0
  0
SPLINE
  5
15C
330
1F
100
AcDbEntity
  8
0
  6
Continuous
 62
     7
370
    30
100
AcDbSpline
210
0.0
220
0.0
230
1.0
 70
     8
 71
     3
 72
    10
 73
     6
 74
     0
 42
0.000000001
 43
0.00000001
 40
0.0
 40
0.0
 40
0.0
 40
0.0
 40
0.5
 40
0.5
 40
1.0
 40
1.0
 40
1.0
 40
1.0
 10
297.3212838568173
 20
149.9265181971613
 30
0.0
 10
297.2783164967941
 20
149.9261388500646
 30
0.0
 10
297.2352046132233
 20
149.9225523993316
 30
0.0
 10
297.1523679662374
 20
149.8987552466254
 30
0.0
 10
297.1149514173807
 20
149.8772588647351
 30
0.0
 10
297.0831652128173
 20
149.8478571802118
 30
0.0
  0
SPLINE
  5
15D
330
1F
100
AcDbEntity
  8
0
  6
Continuous
 62
     7
370
    30
100
AcDbSpline
210
0.0
220
0.0
230
1.0
 70
     8
 71
     3
 72
    10
 73
     6
 74
     0
 42
0.000000001
 43
0.00000001
 40
0.0
 40
0.0
 40
0.0
 40
0.0
 40
0.5
 40
0.5
 40
1.0
 40
1.0
 40
1.0
 40
1.0
 10
297.0831652128173
 20
149.8478571802118
 30
0.0
 10
297.0530696996327
 20
149.814438903028
 30
0.0
 10
297.0293533861485
 20
149.7757060793882
 30
0.0
 10
297.0028496800141
 20
149.690255277811
 30
0.0
 10
296.9987638816961
 20
149.645125773331
 30
0.0
 10
296.997741483844
 20
149.6001283634236
 30
0.0
  0
LINE
  5
15E
330
1F
100
AcDbEntity
  8
0
  6
Continuous
 62
     7
370
    30
100
AcDbLine
 10
296.9977410021
 20
149.6001283705
 30
0.0
 11
296.9977410021
 21
149.428924986
 31
0.0
  0
LINE
  5
15F
330
1F
100
AcDbEntity
  8
0
  6
Continuous
 62
     7
370
    30
100
AcDbLine
 10
296.9977410021
 20
149.428924986
 30
0.0
 11
297.647673774
 21
149.428924986
 31
0.0
  0
LINE
  5
160
330
1F
100
AcDbEntity
  8
0
  6
Continuous
 62
     7
370
    30
100
AcDbLine
 10
297.647673774
 20
149.428924986
 30
0.0
 11
297.647673774
 21
149.6001300294
 31
0.0
  0
LINE
  5
161
330
1F
100
AcDbEntity
  8
0
  6
Continuous
 62
     7
370
    30
100
AcDbLine
 10
347.1023292722
 20
172.5375565913
 30
0.0
 11
347.0160385104
 21
172.642145979
 31
0.0
  0
LINE
  5
162
330
1F
100
AcDbEntity
  8
0
  6
Continuous
 62
     7
370
    30
100
AcDbLine
 10
347.1677025291
 20
172.3440575626
 30
0.0
 11
347.1023292722
 21
172.5375565913
 31
0.0
  0
LINE
  5
163
330
1F
100
AcDbEntity
  8
0
  6
Continuous
 62
     7
370
    30
100
AcDbLine
 10
347.1755498531
 20
172.0982647713
 30
0.0
 11
347.1677025291
 21
172.3440575626
 31
0.0
  0
LINE
  5
164
330
1F
100
AcDbEntity
  8
0
  6
Continuous
 62
     7
370
    30
100
AcDbLine
 10
347.1755498531
 20
171.9701389994
 30
0.0
 11
347.1755498531
 21
172.0982647713
 31
0.0
  0
LINE
  5
165
330
1F
100
AcDbEntity
  8
0
  6
Continuous
 62
     7
370
    30
100
AcDbLine
 10
347.8710932168
 20
171.9701389994
 30
0.0
 11
347.1755498531
 21
171.9701389994
 31
0.0
  0
LINE
  5
166
330
1F
100
AcDbEntity
  8
0
  6
Continuous
 62
     7
370
    30
100
AcDbLine
 10
347.8710932168
 20
171.5883712497
 30
0.0
 11
347.8710932168
 21
171.9701389994
 31
0.0
  0
LINE
  5
167
330
1F
100
AcDbEntity
  8
0
  6
Continuous
 62
     7
370
    30
100
AcDbLine
 10
346.056396279
 20
171.5883712497
 30
0.0
 11
347.8710932168
 21
171.5883712497
 31
0.0
  0
LINE
  5
168
330
1F
100
AcDbEntity
  8
0
  6
Continuous
 62
     7
370
    30
100
AcDbLine
 10
346.056396279
 20
172.2185432192
 30
0.0
 11
346.056396279
 21
171.5883712497
 31
0.0
  0
LINE
  5
169
330
1F
100
AcDbEntity
  8
0
  6
Continuous
 62
     7
370
    30
100
AcDbLine
 10
346.0930028441
 20
172.4591075655
 30
0.0
 11
346.056396279
 21
172.2185432192
 31
0.0
  0
LINE
  5
16A
330
1F
100
AcDbEntity
  8
0
  6
Continuous
 62
     7
370
    30
100
AcDbLine
 10
346.1949808033
 20
172.6316872265
 30
0.0
 11
346.0930028441
 21
172.4591075655
 31
0.0
  0
LINE
  5
16B
330
1F
100
AcDbEntity
  8
0
  6
Continuous
 62
     7
370
    30
100
AcDbLine
 10
346.3675604644
 20
172.7336651858
 30
0.0
 11
346.1949808033
 21
172.6316872265
 31
0.0
  0
LINE
  5
16C
330
1F
100
AcDbEntity
  8
0
  6
Continuous
 62
     7
370
    30
100
AcDbLine
 10
346.6081248107
 20
172.7702717509
 30
0.0
 11
346.3675604644
 21
172.7336651858
 31
0.0
  0
LINE
  5
16D
330
1F
100
AcDbEntity
  8
0
  6
Continuous
 62
     7
370
    30
100
AcDbLine
 10
346.7728645983
 20
172.7545845535
 30
0.0
 11
346.6081248107
 21
172.7702717509
 31
0.0
  0
LINE
  5
16E
330
1F
100
AcDbEntity
  8
0
  6
Continuous
 62
     7
370
    30
100
AcDbLine
 10
346.9062206777
 20
172.7153665598
 30
0.0
 11
346.7728645983
 21
172.7545845535
 31
0.0
  0
LINE
  5
16F
330
1F
100
AcDbEntity
  8
0
  6
Continuous
 62
     7
370
    30
100
AcDbLine
 10
347.0160385104
 20
172.642145979
 30
0.0
 11
346.9062206777
 21
172.7153665598
 31
0.0
  0
LINE
  5
170
330
1F
100
AcDbEntity
  8
0
  6
Continuous
 62
     7
370
    30
100
AcDbLine
 10
346.7885536583
 20
172.3152927335
 30
0.0
 11
346.7231804015
 21
172.3623580512
 31
0.0
  0
LINE
  5
171
330
1F
100
AcDbEntity
  8
0
  6
Continuous
 62
     7
370
    30
100
AcDbLine
 10
346.7231804015
 20
172.3623580512
 30
0.0
 11
346.6159739973
 21
172.3806641277
 31
0.0
  0
LINE
  5
172
330
1F
100
AcDbEntity
  8
0
  6
Continuous
 62
     7
370
    30
100
AcDbLine
 10
346.6159739973
 20
172.3806641277
 30
0.0
 11
346.5113752963
 21
172.3649769302
 31
0.0
  0
LINE
  5
173
330
1F
100
AcDbEntity
  8
0
  6
Continuous
 62
     7
370
    30
100
AcDbLine
 10
346.5113752963
 20
172.3649769302
 30
0.0
 11
346.4460039022
 21
172.3179116126
 31
0.0
  0
LINE
  5
174
330
1F
100
AcDbEntity
  8
0
  6
Continuous
 62
     7
370
    30
100
AcDbLine
 10
346.4460039022
 20
172.3179116126
 30
0.0
 11
346.4120162161
 21
172.2420796033
 31
0.0
  0
LINE
  5
175
330
1F
100
AcDbEntity
  8
0
  6
Continuous
 62
     7
370
    30
100
AcDbLine
 10
346.4120162161
 20
172.2420796033
 30
0.0
 11
346.4015574636
 21
172.1374827649
 31
0.0
  0
LINE
  5
176
330
1F
100
AcDbEntity
  8
0
  6
Continuous
 62
     7
370
    30
100
AcDbLine
 10
346.4015574636
 20
172.1374827649
 30
0.0
 11
346.4015574636
 21
171.9701389994
 31
0.0
  0
LINE
  5
177
330
1F
100
AcDbEntity
  8
0
  6
Continuous
 62
     7
370
    30
100
AcDbLine
 10
346.4015574636
 20
171.9701389994
 30
0.0
 11
346.8303886684
 21
171.9701389994
 31
0.0
  0
LINE
  5
178
330
1F
100
AcDbEntity
  8
0
  6
Continuous
 62
     7
370
    30
100
AcDbLine
 10
346.8303886684
 20
171.9701389994
 30
0.0
 11
346.8303886684
 21
172.1270240124
 31
0.0
  0
LINE
  5
179
330
1F
100
AcDbEntity
  8
0
  6
Continuous
 62
     7
370
    30
100
AcDbLine
 10
346.8303886684
 20
172.1270240124
 30
0.0
 11
346.8225413444
 21
172.2342322793
 31
0.0
  0
LINE
  5
17A
330
1F
100
AcDbEntity
  8
0
  6
Continuous
 62
     7
370
    30
100
AcDbLine
 10
346.8225413444
 20
172.2342322793
 30
0.0
 11
346.7885536583
 21
172.3152927335
 31
0.0
  0
LINE
  5
17B
330
1F
100
AcDbEntity
  8
0
  6
Continuous
 62
     7
370
    30
100
AcDbLine
 10
347.4553303304
 20
173.994024026
 30
0.0
 11
347.8710932168
 21
174.1221497979
 31
0.0
  0
LINE
  5
17C
330
1F
100
AcDbEntity
  8
0
  6
Continuous
 62
     7
370
    30
100
AcDbLine
 10
347.4553303304
 20
173.4344463076
 30
0.0
 11
347.4553303304
 21
173.994024026
 31
0.0
  0
LINE
  5
17D
330
1F
100
AcDbEntity
  8
0
  6
Continuous
 62
     7
370
    30
100
AcDbLine
 10
347.8710932168
 20
173.3115508433
 30
0.0
 11
347.4553303304
 21
173.4344463076
 31
0.0
  0
LINE
  5
17E
330
1F
100
AcDbEntity
  8
0
  6
Continuous
 62
     7
370
    30
100
AcDbLine
 10
347.8710932168
 20
172.9271642145
 30
0.0
 11
347.8710932168
 21
173.3115508433
 31
0.0
  0
LINE
  5
17F
330
1F
100
AcDbEntity
  8
0
  6
Continuous
 62
     7
370
    30
100
AcDbLine
 10
346.056396279
 20
173.5416545745
 30
0.0
 11
347.8710932168
 21
172.9271642145
 31
0.0
  0
LINE
  5
180
330
1F
100
AcDbEntity
  8
0
  6
Continuous
 62
     7
370
    30
100
AcDbLine
 10
346.056396279
 20
173.9025048193
 30
0.0
 11
346.056396279
 21
173.5416545745
 31
0.0
  0
LINE
  5
181
330
1F
100
AcDbEntity
  8
0
  6
Continuous
 62
     7
370
    30
100
AcDbLine
 10
347.8710932168
 20
174.5143763002
 30
0.0
 11
346.056396279
 21
173.9025048193
 31
0.0
  0
LINE
  5
182
330
1F
100
AcDbEntity
  8
0
  6
Continuous
 62
     7
370
    30
100
AcDbLine
 10
347.8710932168
 20
174.1221497979
 30
0.0
 11
347.8710932168
 21
174.5143763002
 31
0.0
  0
LINE
  5
183
330
1F
100
AcDbEntity
  8
0
  6
Continuous
 62
     7
370
    30
100
AcDbLine
 10
347.1493945899
 20
173.5338072505
 30
0.0
 11
347.1493945899
 21
173.8998859402
 31
0.0
  0
LINE
  5
184
330
1F
100
AcDbEntity
  8
0
  6
Continuous
 62
     7
370
    30
100
AcDbLine
 10
347.1493945899
 20
173.8998859402
 30
0.0
 11
346.5087657305
 21
173.7194645431
 31
0.0
  0
LINE
  5
185
330
1F
100
AcDbEntity
  8
0
  6
Continuous
 62
     7
370
    30
100
AcDbLine
 10
346.5087657305
 20
173.7194645431
 30
0.0
 11
347.1493945899
 21
173.5338072505
 31
0.0
  0
ARC
  5
186
330
1F
100
AcDbEntity
  8
0
  6
Continuous
 62
     7
370
    30
100
AcDbCircle
 10
347.4117980063
 20
117.0422288164
 30
0.0
 40
0.3870684141149828
100
AcDbArc
 50
121.000611093
 51
165.1696176544
  0
ARC
  5
187
330
1F
100
AcDbEntity
  8
0
  6
Continuous
 62
     7
370
    30
100
AcDbCircle
 10
347.464824839
 20
116.9539794787
 30
0.0
 40
0.4900236985726368
100
AcDbArc
 50
5.0292323426
 51
121.0006110896
  0
LINE
  5
188
330
1F
100
AcDbEntity
  8
0
  6
Continuous
 62
     7
370
    30
100
AcDbLine
 10
347.952962059
 20
116.9969353106
 30
0.0
 11
347.9741831752
 21
116.7558047201
 31
0.0
  0
LINE
  5
189
330
1F
100
AcDbEntity
  8
0
  6
Continuous
 62
     7
370
    30
100
AcDbLine
 10
347.9741831752
 20
115.7746563878
 30
0.0
 11
347.9741831752
 21
116.7558047201
 31
0.0
  0
LINE
  5
18A
330
1F
100
AcDbEntity
  8
0
  6
Continuous
 62
     7
370
    30
100
AcDbLine
 10
347.9741831752
 20
115.7746563878
 30
0.0
 11
346.1741825076
 21
115.7746563878
 31
0.0
  0
LINE
  5
18B
330
1F
100
AcDbEntity
  8
0
  6
Continuous
 62
     7
370
    30
100
AcDbLine
 10
346.1741825076
 20
115.7746563878
 30
0.0
 11
346.1741825076
 21
116.8158563998
 31
0.0
  0
LINE
  5
18C
330
1F
100
AcDbEntity
  8
0
  6
Continuous
 62
     7
370
    30
100
AcDbLine
 10
346.1741825076
 20
116.8158563998
 30
0.0
 11
346.1879735323
 21
116.9577340808
 31
0.0
  0
ARC
  5
18D
330
1F
100
AcDbEntity
  8
0
  6
Continuous
 62
     7
370
    30
100
AcDbCircle
 10
346.6259336028
 20
116.915158705
 30
0.0
 40
0.4400240694939873
100
AcDbArc
 50
68.7929295698
 51
174.4477734957
  0
ARC
  5
18E
330
1F
100
AcDbEntity
  8
0
  6
Continuous
 62
     7
370
    30
100
AcDbCircle
 10
346.6493956991
 20
116.9756254677
 30
0.0
 40
0.375164996475593
100
AcDbArc
 50
20.7097563692
 51
68.7929295673
  0
LINE
  5
18F
330
1F
100
AcDbEntity
  8
0
  6
Continuous
 62
     7
370
    30
100
AcDbLine
 10
347.0171188446
 20
117.0638601508
 30
0.0
 11
347.000319648
 21
117.1082954135
 31
0.0
  0
LINE
  5
190
330
1F
100
AcDbEntity
  8
0
  6
Continuous
 62
     7
370
    30
100
AcDbLine
 10
347.0171188446
 20
117.0638601508
 30
0.0
 11
347.0376228424
 21
117.1413014855
 31
0.0
  0
ARC
  5
191
330
1F
100
AcDbEntity
  8
0
  6
Continuous
 62
     7
370
    30
100
AcDbCircle
 10
346.6310217991
 20
116.6076993916
 30
0.0
 40
0.2533838458850676
100
AcDbArc
 50
359.5745930664
 51
32.7860390909
  0
ARC
  5
192
330
1F
100
AcDbEntity
  8
0
  6
Continuous
 62
     7
370
    30
100
AcDbCircle
 10
346.7096946777
 20
116.6442012002
 30
0.0
 40
0.1679010927392095
100
AcDbArc
 50
36.8552869892
 51
163.6756439309
  0
ARC
  5
193
330
1F
100
AcDbEntity
  8
0
  6
Continuous
 62
     7
370
    30
100
AcDbCircle
 10
346.8321513672
 20
116.6083358444
 30
0.0
 40
0.2955018942580353
100
AcDbArc
 50
163.6756439336
 51
180.0
  0
LINE
  5
194
330
1F
100
AcDbEntity
  8
0
  6
Continuous
 62
     7
370
    30
100
AcDbLine
 10
346.5366495284
 20
116.6083353784
 30
0.0
 11
346.5366495284
 21
116.3330215242
 31
0.0
  0
LINE
  5
195
330
1F
100
AcDbEntity
  8
0
  6
Continuous
 62
     7
370
    30
100
AcDbLine
 10
346.5366495284
 20
116.3330215242
 30
0.0
 11
346.8823732319
 21
116.3330215242
 31
0.0
  0
LINE
  5
196
330
1F
100
AcDbEntity
  8
0
  6
Continuous
 62
     7
370
    30
100
AcDbLine
 10
346.8823732319
 20
116.3330215242
 30
0.0
 11
346.8843979271
 21
116.6058170821
 31
0.0
  0
ARC
  5
197
330
1F
100
AcDbEntity
  8
0
  6
Continuous
 62
     7
370
    30
100
AcDbCircle
 10
347.1766695724
 20
116.6375468251
 30
0.0
 40
0.4141603469621344
100
AcDbArc
 50
359.8492288789
 51
17.4837094134
  0
ARC
  5
198
330
1F
100
AcDbEntity
  8
0
  6
Continuous
 62
     7
370
    30
100
AcDbCircle
 10
347.4035979565
 20
116.7090261406
 30
0.0
 40
0.176240646126796
100
AcDbArc
 50
17.4837094076
 51
164.2490794436
  0
ARC
  5
199
330
1F
100
AcDbEntity
  8
0
  6
Continuous
 62
     7
370
    30
100
AcDbCircle
 10
347.5846299022
 20
116.6579667116
 30
0.0
 40
0.3643353846329938
100
AcDbArc
 50
164.2490794497
 51
180.0
  0
LINE
  5
19A
330
1F
100
AcDbEntity
  8
0
  6
Continuous
 62
     7
370
    30
100
AcDbLine
 10
347.2202943148
 20
116.657967421
 30
0.0
 11
347.2202943148
 21
116.3337479558
 31
0.0
  0
LINE
  5
19B
330
1F
100
AcDbEntity
  8
0
  6
Continuous
 62
     7
370
    30
100
AcDbLine
 10
347.2202943148
 20
116.3337479558
 30
0.0
 11
347.590029377
 21
116.332775655
 31
0.0
  0
LINE
  5
19C
330
1F
100
AcDbEntity
  8
0
  6
Continuous
 62
     7
370
    30
100
AcDbLine
 10
347.590029377
 20
116.332775655
 30
0.0
 11
347.5908284517
 21
116.6364575949
 31
0.0
  0
LINE
  5
19D
330
1F
100
AcDbEntity
  8
0
  6
Continuous
 62
     7
370
    30
100
AcDbLine
 10
349.5611791941
 20
127.0207937088
 30
0.0
 11
350.5495843919
 21
127.0207937088
 31
0.0
  0
LINE
  5
19E
330
1F
100
AcDbEntity
  8
0
  6
Continuous
 62
     7
370
    30
100
AcDbLine
 10
350.5495843919
 20
127.0207937088
 30
0.0
 11
350.5495843919
 21
126.4977405991
 31
0.0
  0
LINE
  5
19F
330
1F
100
AcDbEntity
  8
0
  6
Continuous
 62
     7
370
    30
100
AcDbLine
 10
350.5495843919
 20
126.4977405991
 30
0.0
 11
348.7495818617
 21
126.4977405991
 31
0.0
  0
LINE
  5
1A0
330
1F
100
AcDbEntity
  8
0
  6
Continuous
 62
     7
370
    30
100
AcDbLine
 10
348.7495818617
 20
126.4977405991
 30
0.0
 11
348.7495818617
 21
127.017113122
 31
0.0
  0
LINE
  5
1A1
330
1F
100
AcDbEntity
  8
0
  6
Continuous
 62
     7
370
    30
100
AcDbLine
 10
348.7495818617
 20
127.017113122
 30
0.0
 11
349.7453519585
 21
127.6948738124
 31
0.0
  0
LINE
  5
1A2
330
1F
100
AcDbEntity
  8
0
  6
Continuous
 62
     7
370
    30
100
AcDbLine
 10
349.7453519585
 20
127.6948738124
 30
0.0
 11
348.7495818617
 21
127.6948738124
 31
0.0
  0
LINE
  5
1A3
330
1F
100
AcDbEntity
  8
0
  6
Continuous
 62
     7
370
    30
100
AcDbLine
 10
348.7495818617
 20
127.6948738124
 30
0.0
 11
348.7495818617
 21
128.2191618558
 31
0.0
  0
LINE
  5
1A4
330
1F
100
AcDbEntity
  8
0
  6
Continuous
 62
     7
370
    30
100
AcDbLine
 10
348.7495818617
 20
128.2191618558
 30
0.0
 11
350.5495843919
 21
128.2191618558
 31
0.0
  0
LINE
  5
1A5
330
1F
100
AcDbEntity
  8
0
  6
Continuous
 62
     7
370
    30
100
AcDbLine
 10
350.5495843919
 20
127.6948738124
 30
0.0
 11
349.5611791941
 21
127.0207937088
 31
0.0
  0
LINE
  5
1A6
330
1F
100
AcDbEntity
  8
0
  6
Continuous
 62
     7
370
    30
100
AcDbLine
 10
350.5495843919
 20
128.2191618558
 30
0.0
 11
350.5495843919
 21
127.6948738124
 31
0.0
  0
LINE
  5
1A7
330
1F
100
AcDbEntity
  8
0
  6
Continuous
 62
     7
370
    30
100
AcDbLine
 10
346.7388694616
 20
178.1829900321
 30
0.0
 11
347.8710932168
 21
178.7294975694
 31
0.0
  0
LINE
  5
1A8
330
1F
100
AcDbEntity
  8
0
  6
Continuous
 62
     7
370
    30
100
AcDbLine
 10
347.8710932168
 20
178.1829900321
 30
0.0
 11
346.7388694616
 21
178.1829900321
 31
0.0
  0
LINE
  5
1A9
330
1F
100
AcDbEntity
  8
0
  6
Continuous
 62
     7
370
    30
100
AcDbLine
 10
347.8710932168
 20
177.8561367866
 30
0.0
 11
347.8710932168
 21
178.1829900321
 31
0.0
  0
LINE
  5
1AA
330
1F
100
AcDbEntity
  8
0
  6
Continuous
 62
     7
370
    30
100
AcDbLine
 10
346.056396279
 20
177.8561367866
 30
0.0
 11
347.8710932168
 21
177.8561367866
 31
0.0
  0
LINE
  5
1AB
330
1F
100
AcDbEntity
  8
0
  6
Continuous
 62
     7
370
    30
100
AcDbLine
 10
346.056396279
 20
178.1568422195
 30
0.0
 11
346.056396279
 21
177.8561367866
 31
0.0
  0
LINE
  5
1AC
330
1F
100
AcDbEntity
  8
0
  6
Continuous
 62
     7
370
    30
100
AcDbLine
 10
346.056396279
 20
178.1568422195
 30
0.0
 11
347.1938503417
 21
178.7033423062
 31
0.0
  0
LINE
  5
1AD
330
1F
100
AcDbEntity
  8
0
  6
Continuous
 62
     7
370
    30
100
AcDbLine
 10
347.1938503417
 20
178.7033423062
 30
0.0
 11
346.056396279
 21
178.7033423062
 31
0.0
  0
LINE
  5
1AE
330
1F
100
AcDbEntity
  8
0
  6
Continuous
 62
     7
370
    30
100
AcDbLine
 10
346.056396279
 20
178.7033423062
 30
0.0
 11
346.056396279
 21
179.030204865
 31
0.0
  0
LINE
  5
1AF
330
1F
100
AcDbEntity
  8
0
  6
Continuous
 62
     7
370
    30
100
AcDbLine
 10
347.8710932168
 20
179.030204865
 30
0.0
 11
346.056396279
 21
179.030204865
 31
0.0
  0
LINE
  5
1B0
330
1F
100
AcDbEntity
  8
0
  6
Continuous
 62
     7
370
    30
100
AcDbLine
 10
347.8710932168
 20
178.7294975694
 30
0.0
 11
347.8710932168
 21
179.030204865
 31
0.0
  0
LINE
  5
1B1
330
1F
100
AcDbEntity
  8
0
  6
Continuous
 62
     7
370
    30
100
AcDbLine
 10
347.4112936737
 20
121.1731403347
 30
0.0
 11
347.9741831752
 21
121.4631970253
 31
0.0
  0
LINE
  5
1B2
330
1F
100
AcDbEntity
  8
0
  6
Continuous
 62
     7
370
    30
100
AcDbLine
 10
347.9741831752
 20
120.8345449742
 30
0.0
 11
347.9741831752
 21
121.4631970253
 31
0.0
  0
LINE
  5
1B3
330
1F
100
AcDbEntity
  8
0
  6
Continuous
 62
     7
370
    30
100
AcDbLine
 10
347.9741831752
 20
120.8345449742
 30
0.0
 11
347.3676053318
 21
120.5068889286
 31
0.0
  0
ARC
  5
1B4
330
1F
100
AcDbEntity
  8
0
  6
Continuous
 62
     7
370
    30
100
AcDbCircle
 10
347.4799016723
 20
120.2990003794
 30
0.0
 40
0.2362795113954803
100
AcDbArc
 50
118.3767407361
 51
180.0
  0
LINE
  5
1B5
330
1F
100
AcDbEntity
  8
0
  6
Continuous
 62
     7
370
    30
100
AcDbLine
 10
347.2436220827
 20
120.2990009662
 30
0.0
 11
347.2436220827
 21
120.2513284262
 31
0.0
  0
LINE
  5
1B6
330
1F
100
AcDbEntity
  8
0
  6
Continuous
 62
     7
370
    30
100
AcDbLine
 10
347.2436220827
 20
120.2513284262
 30
0.0
 11
347.9741831752
 21
120.2513284262
 31
0.0
  0
LINE
  5
1B7
330
1F
100
AcDbEntity
  8
0
  6
Continuous
 62
     7
370
    30
100
AcDbLine
 10
347.9741831752
 20
120.2513284262
 30
0.0
 11
347.9741831752
 21
119.6926596787
 31
0.0
  0
LINE
  5
1B8
330
1F
100
AcDbEntity
  8
0
  6
Continuous
 62
     7
370
    30
100
AcDbLine
 10
347.9741831752
 20
119.6926596787
 30
0.0
 11
346.1741825076
 21
119.6926596787
 31
0.0
  0
LINE
  5
1B9
330
1F
100
AcDbEntity
  8
0
  6
Continuous
 62
     7
370
    30
100
AcDbLine
 10
346.1741825076
 20
119.6926596787
 30
0.0
 11
346.1741825076
 21
120.664753693
 31
0.0
  0
ARC
  5
1BA
330
1F
100
AcDbEntity
  8
0
  6
Continuous
 62
     7
370
    30
100
AcDbCircle
 10
347.5243447342
 20
120.6647531469
 30
0.0
 40
1.350162423310003
100
AcDbArc
 50
165.3759135612
 51
180.0
  0
ARC
  5
1BB
330
1F
100
AcDbEntity
  8
0
  6
Continuous
 62
     7
370
    30
100
AcDbCircle
 10
346.5811395016
 20
120.910863169
 30
0.0
 40
0.3753771886136165
100
AcDbArc
 50
132.0462589321
 51
165.3759135591
  0
ARC
  5
1BC
330
1F
100
AcDbEntity
  8
0
  6
Continuous
 62
     7
370
    30
100
AcDbCircle
 10
346.6752821836
 20
120.8064767371
 30
0.0
 40
0.5159452210510063
100
AcDbArc
 50
57.8429570444
 51
132.046258934
  0
ARC
  5
1BD
330
1F
100
AcDbEntity
  8
0
  6
Continuous
 62
     7
370
    30
100
AcDbCircle
 10
346.6850267808
 20
120.8219766545
 30
0.0
 40
0.4976366270659963
100
AcDbArc
 50
7.2143281999
 51
57.8429570458
  0
LINE
  5
1BE
330
1F
100
AcDbEntity
  8
0
  6
Continuous
 62
     7
370
    30
100
AcDbLine
 10
347.1787238004
 20
120.8844713148
 30
0.0
 11
347.1835853042
 21
120.9003950681
 31
0.0
  0
ARC
  5
1BF
330
1F
100
AcDbEntity
  8
0
  6
Continuous
 62
     7
370
    30
100
AcDbCircle
 10
347.6205900661
 20
120.7669772762
 30
0.0
 40
0.4569170814228373
100
AcDbArc
 50
117.2620665279
 51
163.0224205171
  0
ARC
  5
1C0
330
1F
100
AcDbEntity
  8
0
  6
Continuous
 62
     7
370
    30
100
AcDbCircle
 10
346.7235256008
 20
120.5967662806
 30
0.0
 40
0.161757350430419
100
AcDbArc
 50
9.9254760188
 51
87.7694300212
  0
ARC
  5
1C1
330
1F
100
AcDbEntity
  8
0
  6
Continuous
 62
     7
370
    30
100
AcDbCircle
 10
346.7149882369
 20
120.3775811498
 30
0.0
 40
0.381108685384584
100
AcDbArc
 50
87.7694300212
 51
94.8463822105
  0
ARC
  5
1C2
330
1F
100
AcDbEntity
  8
0
  6
Continuous
 62
     7
370
    30
100
AcDbCircle
 10
346.6957533068
 20
120.6044412419
 30
0.0
 40
0.1534346114889963
100
AcDbArc
 50
94.8463821991
 51
177.0882442597
  0
LINE
  5
1C3
330
1F
100
AcDbEntity
  8
0
  6
Continuous
 62
     7
370
    30
100
AcDbLine
 10
346.5425168606
 20
120.6122345503
 30
0.0
 11
346.5376199665
 21
120.5159693237
 31
0.0
  0
LINE
  5
1C4
330
1F
100
AcDbEntity
  8
0
  6
Continuous
 62
     7
370
    30
100
AcDbLine
 10
346.5376199665
 20
120.5159693237
 30
0.0
 11
346.5376199665
 21
120.2513284262
 31
0.0
  0
LINE
  5
1C5
330
1F
100
AcDbEntity
  8
0
  6
Continuous
 62
     7
370
    30
100
AcDbLine
 10
346.5376199665
 20
120.2513284262
 30
0.0
 11
346.9035123917
 21
120.2513284262
 31
0.0
  0
LINE
  5
1C6
330
1F
100
AcDbEntity
  8
0
  6
Continuous
 62
     7
370
    30
100
AcDbLine
 10
346.9035123917
 20
120.2513284262
 30
0.0
 11
346.9035123917
 21
120.5066318836
 31
0.0
  0
LINE
  5
1C7
330
1F
100
AcDbEntity
  8
0
  6
Continuous
 62
     7
370
    30
100
AcDbLine
 10
346.9035123917
 20
120.5066318836
 30
0.0
 11
346.8828612449
 21
120.6246472176
 31
0.0
  0
LINE
  5
1C8
330
1F
100
AcDbEntity
  8
0
  6
Continuous
 62
     7
370
    30
100
AcDbLine
 10
347.3612015577
 20
183.7944339242
 30
0.0
 11
347.6435990515
 21
183.6663100149
 31
0.0
  0
LINE
  5
1C9
330
1F
100
AcDbEntity
  8
0
  6
Continuous
 62
     7
370
    30
100
AcDbLine
 10
347.6435990515
 20
183.6663100149
 30
0.0
 11
347.8161805751
 21
183.4571237888
 31
0.0
  0
LINE
  5
1CA
330
1F
100
AcDbEntity
  8
0
  6
Continuous
 62
     7
370
    30
100
AcDbLine
 10
347.8161805751
 20
183.4571237888
 30
0.0
 11
347.8710932168
 21
183.1642638173
 31
0.0
  0
LINE
  5
1CB
330
1F
100
AcDbEntity
  8
0
  6
Continuous
 62
     7
370
    30
100
AcDbLine
 10
347.8710932168
 20
183.1642638173
 30
0.0
 11
347.8710932168
 21
182.5602340724
 31
0.0
  0
LINE
  5
1CC
330
1F
100
AcDbEntity
  8
0
  6
Continuous
 62
     7
370
    30
100
AcDbLine
 10
346.056396279
 20
182.5602340724
 30
0.0
 11
347.8710932168
 21
182.5602340724
 31
0.0
  0
LINE
  5
1CD
330
1F
100
AcDbEntity
  8
0
  6
Continuous
 62
     7
370
    30
100
AcDbLine
 10
346.056396279
 20
182.5602340724
 30
0.0
 11
346.056396279
 21
183.1642638173
 31
0.0
  0
LINE
  5
1CE
330
1F
100
AcDbEntity
  8
0
  6
Continuous
 62
     7
370
    30
100
AcDbLine
 10
346.056396279
 20
183.1642638173
 30
0.0
 11
346.0720834764
 21
183.3185392644
 31
0.0
  0
LINE
  5
1CF
330
1F
100
AcDbEntity
  8
0
  6
Continuous
 62
     7
370
    30
100
AcDbLine
 10
346.0720834764
 20
183.3185392644
 30
0.0
 11
346.1165392282
 21
183.4545123603
 31
0.0
  0
LINE
  5
1D0
330
1F
100
AcDbEntity
  8
0
  6
Continuous
 62
     7
370
    30
100
AcDbLine
 10
346.1165392282
 20
183.4545123603
 30
0.0
 11
346.2891188892
 21
183.6663100149
 31
0.0
  0
LINE
  5
1D1
330
1F
100
AcDbEntity
  8
0
  6
Continuous
 62
     7
370
    30
100
AcDbLine
 10
346.2891188892
 20
183.6663100149
 30
0.0
 11
346.4172446611
 21
183.7395231452
 31
0.0
  0
LINE
  5
1D2
330
1F
100
AcDbEntity
  8
0
  6
Continuous
 62
     7
370
    30
100
AcDbLine
 10
346.4172446611
 20
183.7395231452
 30
0.0
 11
346.5741371246
 21
183.7944339242
 31
0.0
  0
LINE
  5
1D3
330
1F
100
AcDbEntity
  8
0
  6
Continuous
 62
     7
370
    30
100
AcDbLine
 10
346.5741371246
 20
183.7944339242
 30
0.0
 11
346.9637447479
 21
183.8388915386
 31
0.0
  0
LINE
  5
1D4
330
1F
100
AcDbEntity
  8
0
  6
Continuous
 62
     7
370
    30
100
AcDbLine
 10
346.9637447479
 20
183.8388915386
 30
0.0
 11
347.3612015577
 21
183.7944339242
 31
0.0
  0
LINE
  5
1D5
330
1F
100
AcDbEntity
  8
0
  6
Continuous
 62
     7
370
    30
100
AcDbLine
 10
347.3925778153
 20
183.3839106586
 30
0.0
 11
347.2147678467
 21
183.4309759762
 31
0.0
  0
LINE
  5
1D6
330
1F
100
AcDbEntity
  8
0
  6
Continuous
 62
     7
370
    30
100
AcDbLine
 10
347.2147678467
 20
183.4309759762
 30
0.0
 11
346.9637447479
 21
183.4466631737
 31
0.0
  0
LINE
  5
1D7
330
1F
100
AcDbEntity
  8
0
  6
Continuous
 62
     7
370
    30
100
AcDbLine
 10
346.9637447479
 20
183.4466631737
 30
0.0
 11
346.7153330775
 21
183.4257456686
 31
0.0
  0
LINE
  5
1D8
330
1F
100
AcDbEntity
  8
0
  6
Continuous
 62
     7
370
    30
100
AcDbLine
 10
346.7153330775
 20
183.4257456686
 30
0.0
 11
346.5375231089
 21
183.3734500434
 31
0.0
  0
LINE
  5
1D9
330
1F
100
AcDbEntity
  8
0
  6
Continuous
 62
     7
370
    30
100
AcDbLine
 10
346.5375231089
 20
183.3734500434
 30
0.0
 11
346.4303148421
 21
183.2845422652
 31
0.0
  0
LINE
  5
1DA
330
1F
100
AcDbEntity
  8
0
  6
Continuous
 62
     7
370
    30
100
AcDbLine
 10
346.4303148421
 20
183.2845422652
 30
0.0
 11
346.393708277
 21
183.1642638173
 31
0.0
  0
LINE
  5
1DB
330
1F
100
AcDbEntity
  8
0
  6
Continuous
 62
     7
370
    30
100
AcDbLine
 10
346.393708277
 20
183.1642638173
 30
0.0
 11
346.393708277
 21
182.9446095254
 31
0.0
  0
LINE
  5
1DC
330
1F
100
AcDbEntity
  8
0
  6
Continuous
 62
     7
370
    30
100
AcDbLine
 10
346.393708277
 20
182.9446095254
 30
0.0
 11
347.5311623397
 21
182.9446095254
 31
0.0
  0
LINE
  5
1DD
330
1F
100
AcDbEntity
  8
0
  6
Continuous
 62
     7
370
    30
100
AcDbLine
 10
347.5311623397
 20
182.9446095254
 30
0.0
 11
347.5311623397
 21
183.1642638173
 31
0.0
  0
LINE
  5
1DE
330
1F
100
AcDbEntity
  8
0
  6
Continuous
 62
     7
370
    30
100
AcDbLine
 10
347.5311623397
 20
183.1642638173
 30
0.0
 11
347.4971746536
 21
183.294999155
 31
0.0
  0
LINE
  5
1DF
330
1F
100
AcDbEntity
  8
0
  6
Continuous
 62
     7
370
    30
100
AcDbLine
 10
347.4971746536
 20
183.294999155
 30
0.0
 11
347.3925778153
 21
183.3839106586
 31
0.0
  0
LINE
  5
1E0
330
1F
100
AcDbEntity
  8
0
  6
Continuous
 62
     7
370
    30
100
AcDbLine
 10
347.9741831752
 20
131.0979823794
 30
0.0
 11
346.1741825076
 21
131.7745137241
 31
0.0
  0
LINE
  5
1E1
330
1F
100
AcDbEntity
  8
0
  6
Continuous
 62
     7
370
    30
100
AcDbLine
 10
346.1741825076
 20
131.7745137241
 30
0.0
 11
346.1741825076
 21
132.3810617652
 31
0.0
  0
LINE
  5
1E2
330
1F
100
AcDbEntity
  8
0
  6
Continuous
 62
     7
370
    30
100
AcDbLine
 10
346.1741825076
 20
132.3810617652
 30
0.0
 11
347.9741831752
 21
133.0575986978
 31
0.0
  0
LINE
  5
1E3
330
1F
100
AcDbEntity
  8
0
  6
Continuous
 62
     7
370
    30
100
AcDbLine
 10
347.9741831752
 20
132.4756059077
 30
0.0
 11
347.9741831752
 21
133.0575986978
 31
0.0
  0
LINE
  5
1E4
330
1F
100
AcDbEntity
  8
0
  6
Continuous
 62
     7
370
    30
100
AcDbLine
 10
347.9741831752
 20
132.4756059077
 30
0.0
 11
347.6770465704
 21
132.3872010436
 31
0.0
  0
LINE
  5
1E5
330
1F
100
AcDbEntity
  8
0
  6
Continuous
 62
     7
370
    30
100
AcDbLine
 10
347.6770465704
 20
132.3872010436
 30
0.0
 11
347.6770465704
 21
131.7536390599
 31
0.0
  0
LINE
  5
1E6
330
1F
100
AcDbEntity
  8
0
  6
Continuous
 62
     7
370
    30
100
AcDbLine
 10
347.6770465704
 20
131.7536390599
 30
0.0
 11
347.9741831752
 21
131.666461679
 31
0.0
  0
LINE
  5
1E7
330
1F
100
AcDbEntity
  8
0
  6
Continuous
 62
     7
370
    30
100
AcDbLine
 10
347.9741831752
 20
131.666461679
 30
0.0
 11
347.9741831752
 21
131.0979823794
 31
0.0
  0
LINE
  5
1E8
330
1F
100
AcDbEntity
  8
0
  6
Continuous
 62
     7
370
    30
100
AcDbLine
 10
346.6407583537
 20
132.0716521915
 30
0.0
 11
347.2878245147
 21
131.8739659365
 31
0.0
  0
LINE
  5
1E9
330
1F
100
AcDbEntity
  8
0
  6
Continuous
 62
     7
370
    30
100
AcDbLine
 10
347.2878245147
 20
131.8739659365
 30
0.0
 11
347.2878245147
 21
132.2705584791
 31
0.0
  0
LINE
  5
1EA
330
1F
100
AcDbEntity
  8
0
  6
Continuous
 62
     7
370
    30
100
AcDbLine
 10
347.2878245147
 20
132.2705584791
 30
0.0
 11
346.6407583537
 21
132.0716521915
 31
0.0
  0
LINE
  5
1EB
330
1F
100
AcDbEntity
  8
0
  6
Continuous
 62
     7
370
    30
100
AcDbLine
 10
292.4922203156
 20
151.1808205143
 30
0.0
 11
292.4922203156
 21
152.0331545945
 31
0.0
  0
LINE
  5
1EC
330
1F
100
AcDbEntity
  8
0
  6
Continuous
 62
     7
370
    30
100
AcDbLine
 10
291.5899047138
 20
150.7463301279
 30
0.0
 11
292.4922203156
 21
151.1808205143
 31
0.0
  0
LINE
  5
1ED
330
1F
100
AcDbEntity
  8
0
  6
Continuous
 62
     7
370
    30
100
AcDbLine
 10
291.248340297
 20
150.6040767746
 30
0.0
 11
291.5899047138
 21
150.7463301279
 31
0.0
  0
LINE
  5
1EE
330
1F
100
AcDbEntity
  8
0
  6
Continuous
 62
     7
370
    30
100
AcDbLine
 10
292.4922203156
 20
150.6040767746
 30
0.0
 11
291.248340297
 21
150.6040767746
 31
0.0
  0
LINE
  5
1EF
330
1F
100
AcDbEntity
  8
0
  6
Continuous
 62
     7
370
    30
100
AcDbLine
 10
292.4922203156
 20
149.4827783064
 30
0.0
 11
292.4922203156
 21
150.6040767746
 31
0.0
  0
LINE
  5
1F0
330
1F
100
AcDbEntity
  8
0
  6
Continuous
 62
     7
370
    30
100
AcDbLine
 10
289.528416607
 20
149.4827783064
 30
0.0
 11
292.4922203156
 21
149.4827783064
 31
0.0
  0
LINE
  5
1F1
330
1F
100
AcDbEntity
  8
0
  6
Continuous
 62
     7
370
    30
100
AcDbLine
 10
289.528416607
 20
150.8679694708
 30
0.0
 11
289.528416607
 21
149.4827783064
 31
0.0
  0
LINE
  5
1F2
330
1F
100
AcDbEntity
  8
0
  6
Continuous
 62
     7
370
    30
100
AcDbLine
 10
290.856715429
 20
151.5078233534
 30
0.0
 11
289.528416607
 21
150.8679694708
 31
0.0
  0
LINE
  5
1F3
330
1F
100
AcDbEntity
  8
0
  6
Continuous
 62
     7
370
    30
100
AcDbLine
 10
291.1017929646
 20
151.6054538989
 30
0.0
 11
290.856715429
 21
151.5078233534
 31
0.0
  0
LINE
  5
1F4
330
1F
100
AcDbEntity
  8
0
  6
Continuous
 62
     7
370
    30
100
AcDbLine
 10
291.1017929646
 20
151.6054538989
 30
0.0
 11
290.856715429
 21
151.7122869592
 31
0.0
  0
LINE
  5
1F5
330
1F
100
AcDbEntity
  8
0
  6
Continuous
 62
     7
370
    30
100
AcDbLine
 10
290.856715429
 20
151.7122869592
 30
0.0
 11
289.528416607
 21
152.3499320939
 31
0.0
  0
LINE
  5
1F6
330
1F
100
AcDbEntity
  8
0
  6
Continuous
 62
     7
370
    30
100
AcDbLine
 10
289.528416607
 20
152.3499320939
 30
0.0
 11
289.528416607
 21
153.745675667
 31
0.0
  0
LINE
  5
1F7
330
1F
100
AcDbEntity
  8
0
  6
Continuous
 62
     7
370
    30
100
AcDbLine
 10
292.4922203156
 20
153.745675667
 30
0.0
 11
289.528416607
 21
153.745675667
 31
0.0
  0
LINE
  5
1F8
330
1F
100
AcDbEntity
  8
0
  6
Continuous
 62
     7
370
    30
100
AcDbLine
 10
292.4922203156
 20
152.6225367308
 30
0.0
 11
292.4922203156
 21
153.745675667
 31
0.0
  0
LINE
  5
1F9
330
1F
100
AcDbEntity
  8
0
  6
Continuous
 62
     7
370
    30
100
AcDbLine
 10
291.2550085666
 20
152.6225367308
 30
0.0
 11
292.4922203156
 21
152.6225367308
 31
0.0
  0
LINE
  5
1FA
330
1F
100
AcDbEntity
  8
0
  6
Continuous
 62
     7
370
    30
100
AcDbLine
 10
291.5899047138
 20
152.4661315817
 30
0.0
 11
291.2550085666
 21
152.6225367308
 31
0.0
  0
LINE
  5
1FB
330
1F
100
AcDbEntity
  8
0
  6
Continuous
 62
     7
370
    30
100
AcDbLine
 10
292.4922203156
 20
152.0331545945
 30
0.0
 11
291.5899047138
 21
152.4661315817
 31
0.0
  0
LINE
  5
1FC
330
1F
100
AcDbEntity
  8
0
  6
Continuous
 62
     7
370
    30
100
AcDbLine
 10
291.9554357859
 20
146.0570406381
 30
0.0
 11
291.9554357859
 21
147.7878037587
 31
0.0
  0
LINE
  5
1FD
330
1F
100
AcDbEntity
  8
0
  6
Continuous
 62
     7
370
    30
100
AcDbLine
 10
292.4815436336
 20
145.8101628561
 30
0.0
 11
291.9554357859
 21
146.0570406381
 31
0.0
  0
LINE
  5
1FE
330
1F
100
AcDbEntity
  8
0
  6
Continuous
 62
     7
370
    30
100
AcDbLine
 10
292.4815436336
 20
144.5703741375
 30
0.0
 11
292.4815436336
 21
145.8101628561
 31
0.0
  0
LINE
  5
1FF
330
1F
100
AcDbEntity
  8
0
  6
Continuous
 62
     7
370
    30
100
AcDbLine
 10
289.4741819682
 20
145.9831327412
 30
0.0
 11
292.4815436336
 21
144.5703741375
 31
0.0
  0
LINE
  5
200
330
1F
100
AcDbEntity
  8
0
  6
Continuous
 62
     7
370
    30
100
AcDbLine
 10
289.4741819682
 20
147.8631432148
 30
0.0
 11
289.4741819682
 21
145.9831327412
 31
0.0
  0
LINE
  5
201
330
1F
100
AcDbEntity
  8
0
  6
Continuous
 62
     7
370
    30
100
AcDbLine
 10
292.4815436336
 20
149.2759833092
 30
0.0
 11
289.4741819682
 21
147.8631432148
 31
0.0
  0
LINE
  5
202
330
1F
100
AcDbEntity
  8
0
  6
Continuous
 62
     7
370
    30
100
AcDbLine
 10
292.4815436336
 20
148.0343952754
 30
0.0
 11
292.4815436336
 21
149.2759833092
 31
0.0
  0
LINE
  5
203
330
1F
100
AcDbEntity
  8
0
  6
Continuous
 62
     7
370
    30
100
AcDbLine
 10
291.9554357859
 20
147.7878037587
 30
0.0
 11
292.4815436336
 21
148.0343952754
 31
0.0
  0
LINE
  5
204
330
1F
100
AcDbEntity
  8
0
  6
Continuous
 62
     7
370
    30
100
AcDbLine
 10
291.1613864335
 20
147.4156460937
 30
0.0
 11
290.1151405158
 21
146.9234856524
 31
0.0
  0
LINE
  5
205
330
1F
100
AcDbEntity
  8
0
  6
Continuous
 62
     7
370
    30
100
AcDbLine
 10
290.1151405158
 20
146.9234856524
 30
0.0
 11
291.1613864335
 21
146.4309158947
 31
0.0
  0
LINE
  5
206
330
1F
100
AcDbEntity
  8
0
  6
Continuous
 62
     7
370
    30
100
AcDbLine
 10
291.1613864335
 20
146.4309158947
 30
0.0
 11
291.1613864335
 21
147.4156460937
 31
0.0
  0
LINE
  5
207
330
1F
100
AcDbEntity
  8
0
  6
Continuous
 62
     7
370
    30
100
AcDbLine
 10
298.6578085902
 20
152.0309587687
 30
0.0
 11
298.6578085902
 21
151.7351791009
 31
0.0
  0
LINE
  5
208
330
1F
100
AcDbEntity
  8
0
  6
Continuous
 62
     7
370
    30
100
AcDbLine
 10
298.6578085902
 20
151.7351791009
 30
0.0
 11
296.7703008535
 21
151.7351791009
 31
0.0
  0
LINE
  5
209
330
1F
100
AcDbEntity
  8
0
  6
Continuous
 62
     7
370
    30
100
AcDbLine
 10
296.7703008535
 20
151.7351791009
 30
0.0
 11
296.7703008535
 21
152.0701113369
 31
0.0
  0
LINE
  5
20A
330
1F
100
AcDbEntity
  8
0
  6
Continuous
 62
     7
370
    30
100
AcDbLine
 10
296.7703008535
 20
152.0701113369
 30
0.0
 11
298.0438956501
 21
152.499365595
 31
0.0
  0
LINE
  5
20B
330
1F
100
AcDbEntity
  8
0
  6
Continuous
 62
     7
370
    30
100
AcDbLine
 10
298.0438956501
 20
152.499365595
 30
0.0
 11
296.7703008535
 21
152.499365595
 31
0.0
  0
LINE
  5
20C
330
1F
100
AcDbEntity
  8
0
  6
Continuous
 62
     7
370
    30
100
AcDbLine
 10
296.7703008535
 20
152.499365595
 30
0.0
 11
296.7703008535
 21
152.7951452628
 31
0.0
  0
LINE
  5
20D
330
1F
100
AcDbEntity
  8
0
  6
Continuous
 62
     7
370
    30
100
AcDbLine
 10
296.7703008535
 20
152.7951452628
 30
0.0
 11
298.6578085902
 21
152.7951452628
 31
0.0
  0
LINE
  5
20E
330
1F
100
AcDbEntity
  8
0
  6
Continuous
 62
     7
370
    30
100
AcDbLine
 10
298.6578085902
 20
152.7951452628
 30
0.0
 11
298.6578085902
 21
152.4691113483
 31
0.0
  0
LINE
  5
20F
330
1F
100
AcDbEntity
  8
0
  6
Continuous
 62
     7
370
    30
100
AcDbLine
 10
298.6578085902
 20
152.4691113483
 30
0.0
 11
297.4253857019
 21
152.0309587687
 31
0.0
  0
LINE
  5
210
330
1F
100
AcDbEntity
  8
0
  6
Continuous
 62
     7
370
    30
100
AcDbLine
 10
297.4253857019
 20
152.0309587687
 30
0.0
 11
298.6578085902
 21
152.0309587687
 31
0.0
  0
LINE
  5
211
330
1F
100
AcDbEntity
  8
0
  6
Continuous
 62
     7
370
    30
100
AcDbLine
 10
347.9741831752
 20
130.3858409848
 30
0.0
 11
346.98577984
 21
129.7117608812
 31
0.0
  0
LINE
  5
212
330
1F
100
AcDbEntity
  8
0
  6
Continuous
 62
     7
370
    30
100
AcDbLine
 10
346.98577984
 20
129.7117608812
 30
0.0
 11
347.9741831752
 21
129.7117608812
 31
0.0
  0
LINE
  5
213
330
1F
100
AcDbEntity
  8
0
  6
Continuous
 62
     7
370
    30
100
AcDbLine
 10
347.9741831752
 20
129.1887021836
 30
0.0
 11
347.9741831752
 21
129.7117608812
 31
0.0
  0
LINE
  5
214
330
1F
100
AcDbEntity
  8
0
  6
Continuous
 62
     7
370
    30
100
AcDbLine
 10
347.9741831752
 20
129.1887021836
 30
0.0
 11
346.1741825076
 21
129.1887021836
 31
0.0
  0
LINE
  5
215
330
1F
100
AcDbEntity
  8
0
  6
Continuous
 62
     7
370
    30
100
AcDbLine
 10
346.1741825076
 20
129.1887021836
 30
0.0
 11
346.1741825076
 21
129.7080747064
 31
0.0
  0
LINE
  5
216
330
1F
100
AcDbEntity
  8
0
  6
Continuous
 62
     7
370
    30
100
AcDbLine
 10
346.1741825076
 20
129.7080747064
 30
0.0
 11
347.1699526044
 21
130.3858409848
 31
0.0
  0
LINE
  5
217
330
1F
100
AcDbEntity
  8
0
  6
Continuous
 62
     7
370
    30
100
AcDbLine
 10
347.1699526044
 20
130.3858409848
 30
0.0
 11
346.1741825076
 21
130.3858409848
 31
0.0
  0
LINE
  5
218
330
1F
100
AcDbEntity
  8
0
  6
Continuous
 62
     7
370
    30
100
AcDbLine
 10
346.1741825076
 20
130.3858409848
 30
0.0
 11
346.1741825076
 21
130.9101215776
 31
0.0
  0
LINE
  5
219
330
1F
100
AcDbEntity
  8
0
  6
Continuous
 62
     7
370
    30
100
AcDbLine
 10
346.1741825076
 20
130.9101215776
 30
0.0
 11
347.9741831752
 21
130.9101215776
 31
0.0
  0
LINE
  5
21A
330
1F
100
AcDbEntity
  8
0
  6
Continuous
 62
     7
370
    30
100
AcDbLine
 10
347.9741831752
 20
130.3858409848
 30
0.0
 11
347.9741831752
 21
130.9101215776
 31
0.0
  0
LINE
  5
21B
330
1F
100
AcDbEntity
  8
0
  6
Continuous
 62
     7
370
    30
100
AcDbLine
 10
293.6703005316
 20
153.5061122596
 30
0.0
 11
294.9438953283
 21
153.9353665177
 31
0.0
  0
LINE
  5
21C
330
1F
100
AcDbEntity
  8
0
  6
Continuous
 62
     7
370
    30
100
AcDbLine
 10
294.9438953283
 20
153.9353665177
 30
0.0
 11
293.6703005316
 21
153.9353665177
 31
0.0
  0
LINE
  5
21D
330
1F
100
AcDbEntity
  8
0
  6
Continuous
 62
     7
370
    30
100
AcDbLine
 10
293.6703005316
 20
153.9353665177
 30
0.0
 11
293.6703005316
 21
154.2311461855
 31
0.0
  0
LINE
  5
21E
330
1F
100
AcDbEntity
  8
0
  6
Continuous
 62
     7
370
    30
100
AcDbLine
 10
293.6703005316
 20
154.2311461855
 30
0.0
 11
295.5578101309
 21
154.2311461855
 31
0.0
  0
LINE
  5
21F
330
1F
100
AcDbEntity
  8
0
  6
Continuous
 62
     7
370
    30
100
AcDbLine
 10
295.5578101309
 20
154.2311461855
 30
0.0
 11
295.5578101309
 21
153.9051125038
 31
0.0
  0
LINE
  5
220
330
1F
100
AcDbEntity
  8
0
  6
Continuous
 62
     7
370
    30
100
AcDbLine
 10
295.5578101309
 20
153.9051125038
 30
0.0
 11
294.32538538
 21
153.4669596914
 31
0.0
  0
LINE
  5
221
330
1F
100
AcDbEntity
  8
0
  6
Continuous
 62
     7
370
    30
100
AcDbLine
 10
295.5578101309
 20
153.4669596914
 30
0.0
 11
295.5578101309
 21
153.1711800236
 31
0.0
  0
LINE
  5
222
330
1F
100
AcDbEntity
  8
0
  6
Continuous
 62
     7
370
    30
100
AcDbLine
 10
295.5578101309
 20
153.1711800236
 30
0.0
 11
293.6703005316
 21
153.1711800236
 31
0.0
  0
LINE
  5
223
330
1F
100
AcDbEntity
  8
0
  6
Continuous
 62
     7
370
    30
100
AcDbLine
 10
293.6703005316
 20
153.1711800236
 30
0.0
 11
293.6703005316
 21
153.5061122596
 31
0.0
  0
LINE
  5
224
330
1F
100
AcDbEntity
  8
0
  6
Continuous
 62
     7
370
    30
100
AcDbLine
 10
294.32538538
 20
153.4669596914
 30
0.0
 11
295.5578101309
 21
153.4669596914
 31
0.0
  0
LINE
  5
225
330
1F
100
AcDbEntity
  8
0
  6
Continuous
 62
     7
370
    30
100
AcDbLine
 10
347.9741831752
 20
117.5476412501
 30
0.0
 11
346.1741825076
 21
118.2241800453
 31
0.0
  0
LINE
  5
226
330
1F
100
AcDbEntity
  8
0
  6
Continuous
 62
     7
370
    30
100
AcDbLine
 10
346.1741825076
 20
118.2241800453
 30
0.0
 11
346.1741825076
 21
118.8307280865
 31
0.0
  0
LINE
  5
227
330
1F
100
AcDbEntity
  8
0
  6
Continuous
 62
     7
370
    30
100
AcDbLine
 10
347.9741831752
 20
118.9252722289
 30
0.0
 11
347.6770465704
 21
118.8368673649
 31
0.0
  0
LINE
  5
228
330
1F
100
AcDbEntity
  8
0
  6
Continuous
 62
     7
370
    30
100
AcDbLine
 10
347.6770465704
 20
118.8368673649
 30
0.0
 11
347.6770465704
 21
118.2033072438
 31
0.0
  0
LINE
  5
229
330
1F
100
AcDbEntity
  8
0
  6
Continuous
 62
     7
370
    30
100
AcDbLine
 10
347.6770465704
 20
118.2033072438
 30
0.0
 11
347.9741831752
 21
118.1161280002
 31
0.0
  0
LINE
  5
22A
330
1F
100
AcDbEntity
  8
0
  6
Continuous
 62
     7
370
    30
100
AcDbLine
 10
347.9741831752
 20
118.1161280002
 30
0.0
 11
347.9741831752
 21
117.5476412501
 31
0.0
  0
LINE
  5
22B
330
1F
100
AcDbEntity
  8
0
  6
Continuous
 62
     7
370
    30
100
AcDbLine
 10
346.6407583537
 20
118.5213110622
 30
0.0
 11
347.2878245147
 21
118.3236341204
 31
0.0
  0
LINE
  5
22C
330
1F
100
AcDbEntity
  8
0
  6
Continuous
 62
     7
370
    30
100
AcDbLine
 10
347.2878245147
 20
118.3236341204
 30
0.0
 11
347.2878245147
 21
118.7202192124
 31
0.0
  0
LINE
  5
22D
330
1F
100
AcDbEntity
  8
0
  6
Continuous
 62
     7
370
    30
100
AcDbLine
 10
347.2878245147
 20
118.7202192124
 30
0.0
 11
346.6407583537
 21
118.5213110622
 31
0.0
  0
LINE
  5
22E
330
1F
100
AcDbEntity
  8
0
  6
Continuous
 62
     7
370
    30
100
AcDbLine
 10
346.1741825076
 20
118.8307280865
 30
0.0
 11
347.9741831752
 21
119.5072594311
 31
0.0
  0
LINE
  5
22F
330
1F
100
AcDbEntity
  8
0
  6
Continuous
 62
     7
370
    30
100
AcDbLine
 10
347.9741831752
 20
118.9252722289
 30
0.0
 11
347.9741831752
 21
119.5072594311
 31
0.0
  0
LINE
  5
230
330
1F
100
AcDbEntity
  8
0
  6
Continuous
 62
     7
370
    30
100
AcDbLine
 10
298.6578085902
 20
148.6440098125
 30
0.0
 11
298.1203516456
 21
148.5119588653
 31
0.0
  0
LINE
  5
231
330
1F
100
AcDbEntity
  8
0
  6
Continuous
 62
     7
370
    30
100
AcDbLine
 10
298.1203516456
 20
148.5119588653
 30
0.0
 11
298.1203516456
 21
148.1549589409
 31
0.0
  0
LINE
  5
232
330
1F
100
AcDbEntity
  8
0
  6
Continuous
 62
     7
370
    30
100
AcDbLine
 10
298.1203516456
 20
148.1549589409
 30
0.0
 11
298.6578085902
 21
148.02290811
 31
0.0
  0
LINE
  5
233
330
1F
100
AcDbEntity
  8
0
  6
Continuous
 62
     7
370
    30
100
AcDbLine
 10
298.6578085902
 20
148.02290811
 30
0.0
 11
298.6578085902
 21
147.7338911246
 31
0.0
  0
LINE
  5
234
330
1F
100
AcDbEntity
  8
0
  6
Continuous
 62
     7
370
    30
100
AcDbLine
 10
298.6578085902
 20
147.7338911246
 30
0.0
 11
296.7703008535
 21
148.2108402744
 31
0.0
  0
LINE
  5
235
330
1F
100
AcDbEntity
  8
0
  6
Continuous
 62
     7
370
    30
100
AcDbLine
 10
296.7703008535
 20
148.2108402744
 30
0.0
 11
296.7703008535
 21
148.4564335298
 31
0.0
  0
LINE
  5
236
330
1F
100
AcDbEntity
  8
0
  6
Continuous
 62
     7
370
    30
100
AcDbLine
 10
297.892911497
 20
148.4603486935
 30
0.0
 11
297.3934376123
 21
148.3337086139
 31
0.0
  0
LINE
  5
237
330
1F
100
AcDbEntity
  8
0
  6
Continuous
 62
     7
370
    30
100
AcDbLine
 10
297.3934376123
 20
148.3337086139
 30
0.0
 11
297.892911497
 21
148.2079927556
 31
0.0
  0
LINE
  5
238
330
1F
100
AcDbEntity
  8
0
  6
Continuous
 62
     7
370
    30
100
AcDbLine
 10
297.892911497
 20
148.2079927556
 30
0.0
 11
297.892911497
 21
148.4603486935
 31
0.0
  0
LINE
  5
239
330
1F
100
AcDbEntity
  8
0
  6
Continuous
 62
     7
370
    30
100
AcDbLine
 10
298.6578085902
 20
148.9340944428
 30
0.0
 11
298.6578085902
 21
148.6440098125
 31
0.0
  0
LINE
  5
23A
330
1F
100
AcDbEntity
  8
0
  6
Continuous
 62
     7
370
    30
100
AcDbLine
 10
296.7703008535
 20
148.4564335298
 30
0.0
 11
298.6578085902
 21
148.9340944428
 31
0.0
  0
LINE
  5
23B
330
1F
100
AcDbEntity
  8
0
  6
Continuous
 62
     7
370
    30
100
AcDbLine
 10
298.6578085902
 20
151.2745182009
 30
0.0
 11
298.1203516456
 21
151.1424673701
 31
0.0
  0
LINE
  5
23C
330
1F
100
AcDbEntity
  8
0
  6
Continuous
 62
     7
370
    30
100
AcDbLine
 10
298.1203516456
 20
151.1424673701
 30
0.0
 11
298.1203516456
 21
150.7854673292
 31
0.0
  0
LINE
  5
23D
330
1F
100
AcDbEntity
  8
0
  6
Continuous
 62
     7
370
    30
100
AcDbLine
 10
298.1203516456
 20
150.7854673292
 30
0.0
 11
298.6578085902
 21
150.6534164402
 31
0.0
  0
LINE
  5
23E
330
1F
100
AcDbEntity
  8
0
  6
Continuous
 62
     7
370
    30
100
AcDbLine
 10
298.6578085902
 20
150.6534164402
 30
0.0
 11
298.6578085902
 21
150.364399513
 31
0.0
  0
LINE
  5
23F
330
1F
100
AcDbEntity
  8
0
  6
Continuous
 62
     7
370
    30
100
AcDbLine
 10
298.6578085902
 20
150.364399513
 30
0.0
 11
296.7703008535
 21
150.8413487792
 31
0.0
  0
LINE
  5
240
330
1F
100
AcDbEntity
  8
0
  6
Continuous
 62
     7
370
    30
100
AcDbLine
 10
296.7703008535
 20
150.8413487792
 30
0.0
 11
296.7703008535
 21
151.0869419182
 31
0.0
  0
LINE
  5
241
330
1F
100
AcDbEntity
  8
0
  6
Continuous
 62
     7
370
    30
100
AcDbLine
 10
297.892911497
 20
151.0908571983
 30
0.0
 11
297.3934376123
 21
150.9642170023
 31
0.0
  0
LINE
  5
242
330
1F
100
AcDbEntity
  8
0
  6
Continuous
 62
     7
370
    30
100
AcDbLine
 10
297.3934376123
 20
150.9642170023
 30
0.0
 11
297.892911497
 21
150.8385012604
 31
0.0
  0
LINE
  5
243
330
1F
100
AcDbEntity
  8
0
  6
Continuous
 62
     7
370
    30
100
AcDbLine
 10
297.892911497
 20
150.8385012604
 30
0.0
 11
297.892911497
 21
151.0908571983
 31
0.0
  0
LINE
  5
244
330
1F
100
AcDbEntity
  8
0
  6
Continuous
 62
     7
370
    30
100
AcDbLine
 10
296.7703008535
 20
151.0869419182
 30
0.0
 11
298.6578085902
 21
151.5646029476
 31
0.0
  0
LINE
  5
245
330
1F
100
AcDbEntity
  8
0
  6
Continuous
 62
     7
370
    30
100
AcDbLine
 10
298.6578085902
 20
151.5646029476
 30
0.0
 11
298.6578085902
 21
151.2745182009
 31
0.0
  0
LINE
  5
246
330
1F
100
AcDbEntity
  8
0
  6
Continuous
 62
     7
370
    30
100
AcDbLine
 10
295.0203513237
 20
148.4176547712
 30
0.0
 11
295.0203513237
 21
148.0606547303
 31
0.0
  0
LINE
  5
247
330
1F
100
AcDbEntity
  8
0
  6
Continuous
 62
     7
370
    30
100
AcDbLine
 10
295.0203513237
 20
148.0606547303
 30
0.0
 11
295.5578101309
 21
147.9286038995
 31
0.0
  0
LINE
  5
248
330
1F
100
AcDbEntity
  8
0
  6
Continuous
 62
     7
370
    30
100
AcDbLine
 10
295.5578101309
 20
147.9286038995
 30
0.0
 11
295.5578101309
 21
147.6395867977
 31
0.0
  0
LINE
  5
249
330
1F
100
AcDbEntity
  8
0
  6
Continuous
 62
     7
370
    30
100
AcDbLine
 10
295.5578101309
 20
147.6395867977
 30
0.0
 11
293.6703005316
 21
148.1165360639
 31
0.0
  0
LINE
  5
24A
330
1F
100
AcDbEntity
  8
0
  6
Continuous
 62
     7
370
    30
100
AcDbLine
 10
293.6703005316
 20
148.1165360639
 30
0.0
 11
293.6703005316
 21
148.3621293193
 31
0.0
  0
LINE
  5
24B
330
1F
100
AcDbEntity
  8
0
  6
Continuous
 62
     7
370
    30
100
AcDbLine
 10
293.6703005316
 20
148.3621293193
 30
0.0
 11
295.5578101309
 21
148.8397902905
 31
0.0
  0
LINE
  5
24C
330
1F
100
AcDbEntity
  8
0
  6
Continuous
 62
     7
370
    30
100
AcDbLine
 10
295.5578101309
 20
148.8397902905
 30
0.0
 11
295.5578101309
 21
148.549705602
 31
0.0
  0
LINE
  5
24D
330
1F
100
AcDbEntity
  8
0
  6
Continuous
 62
     7
370
    30
100
AcDbLine
 10
294.7929111751
 20
148.3660445994
 30
0.0
 11
294.2934372904
 21
148.2394044034
 31
0.0
  0
LINE
  5
24E
330
1F
100
AcDbEntity
  8
0
  6
Continuous
 62
     7
370
    30
100
AcDbLine
 10
294.2934372904
 20
148.2394044034
 30
0.0
 11
294.7929111751
 21
148.1136886615
 31
0.0
  0
LINE
  5
24F
330
1F
100
AcDbEntity
  8
0
  6
Continuous
 62
     7
370
    30
100
AcDbLine
 10
294.7929111751
 20
148.1136886615
 30
0.0
 11
294.7929111751
 21
148.3660445994
 31
0.0
  0
LINE
  5
250
330
1F
100
AcDbEntity
  8
0
  6
Continuous
 62
     7
370
    30
100
AcDbLine
 10
295.5578101309
 20
148.549705602
 30
0.0
 11
295.0203513237
 21
148.4176547712
 31
0.0
  0
LINE
  5
251
330
1F
100
AcDbEntity
  8
0
  6
Continuous
 62
     7
370
    30
100
AcDbLine
 10
349.8341815057
 20
148.7745337401
 30
0.0
 11
349.8341815057
 21
147.491462969
 31
0.0
  0
ARC
  5
252
330
1F
100
AcDbEntity
  8
0
  6
Continuous
 62
     7
370
    30
100
AcDbCircle
 10
349.3541823109
 20
148.774533753
 30
0.0
 40
0.4800000000000182
100
AcDbArc
 50
0.0
 51
82.3571878375
  0
ARC
  5
253
330
1F
100
AcDbEntity
  8
0
  6
Continuous
 62
     7
370
    30
100
AcDbCircle
 10
349.2504446488
 20
148.0014629299
 30
0.0
 40
1.259999999991501
100
AcDbArc
 50
82.3571878342
 51
103.5118013558
  0
ARC
  5
254
330
1F
100
AcDbEntity
  8
0
  6
Continuous
 62
     7
370
    30
100
AcDbCircle
 10
349.0541823109
 20
148.8182132557
 30
0.0
 40
0.4199999999947533
100
AcDbArc
 50
103.5118013582
 51
180.0
  0
LINE
  5
255
330
1F
100
AcDbEntity
  8
0
  6
Continuous
 62
     7
370
    30
100
AcDbLine
 10
348.6341816815
 20
144.5514627013
 30
0.0
 11
348.6341816815
 21
148.8182132345
 31
0.0
  0
LINE
  5
256
330
1F
100
AcDbEntity
  8
0
  6
Continuous
 62
     7
370
    30
100
AcDbLine
 10
348.9641827973
 20
144.5514627013
 30
0.0
 11
348.6341816815
 21
144.5514627013
 31
0.0
  0
LINE
  5
257
330
1F
100
AcDbEntity
  8
0
  6
Continuous
 62
     7
370
    30
100
AcDbLine
 10
348.9641827973
 20
146.0814629428
 30
0.0
 11
348.9641827973
 21
144.5514627013
 31
0.0
  0
LINE
  5
258
330
1F
100
AcDbEntity
  8
0
  6
Continuous
 62
     7
370
    30
100
AcDbLine
 10
349.5041822525
 20
146.0814629428
 30
0.0
 11
348.9641827973
 21
146.0814629428
 31
0.0
  0
LINE
  5
259
330
1F
100
AcDbEntity
  8
0
  6
Continuous
 62
     7
370
    30
100
AcDbLine
 10
349.5041822525
 20
144.5514627013
 30
0.0
 11
349.5041822525
 21
146.0814629428
 31
0.0
  0
LINE
  5
25A
330
1F
100
AcDbEntity
  8
0
  6
Continuous
 62
     7
370
    30
100
AcDbLine
 10
349.8341815057
 20
144.5514627013
 30
0.0
 11
349.5041822525
 21
144.5514627013
 31
0.0
  0
LINE
  5
25B
330
1F
100
AcDbEntity
  8
0
  6
Continuous
 62
     7
370
    30
100
AcDbLine
 10
349.8341815057
 20
146.5014628813
 30
0.0
 11
349.8341815057
 21
144.5514627013
 31
0.0
  0
LINE
  5
25C
330
1F
100
AcDbEntity
  8
0
  6
Continuous
 62
     7
370
    30
100
AcDbLine
 10
350.3741828235
 20
146.5014628813
 30
0.0
 11
349.8341815057
 21
146.5014628813
 31
0.0
  0
LINE
  5
25D
330
1F
100
AcDbEntity
  8
0
  6
Continuous
 62
     7
370
    30
100
AcDbLine
 10
350.3741828235
 20
143.891462798
 30
0.0
 11
350.3741828235
 21
146.5014628813
 31
0.0
  0
LINE
  5
25E
330
1F
100
AcDbEntity
  8
0
  6
Continuous
 62
     7
370
    30
100
AcDbLine
 10
348.6341816815
 20
143.891462798
 30
0.0
 11
350.3741828235
 21
143.891462798
 31
0.0
  0
LINE
  5
25F
330
1F
100
AcDbEntity
  8
0
  6
Continuous
 62
     7
370
    30
100
AcDbLine
 10
348.6341816815
 20
141.8214633342
 30
0.0
 11
348.6341816815
 21
143.891462798
 31
0.0
  0
LINE
  5
260
330
1F
100
AcDbEntity
  8
0
  6
Continuous
 62
     7
370
    30
100
AcDbLine
 10
348.9641827973
 20
141.8214633342
 30
0.0
 11
348.6341816815
 21
141.8214633342
 31
0.0
  0
LINE
  5
261
330
1F
100
AcDbEntity
  8
0
  6
Continuous
 62
     7
370
    30
100
AcDbLine
 10
348.9641827973
 20
143.5614630792
 30
0.0
 11
348.9641827973
 21
141.8214633342
 31
0.0
  0
LINE
  5
262
330
1F
100
AcDbEntity
  8
0
  6
Continuous
 62
     7
370
    30
100
AcDbLine
 10
349.5041822525
 20
143.5614630792
 30
0.0
 11
348.9641827973
 21
143.5614630792
 31
0.0
  0
LINE
  5
263
330
1F
100
AcDbEntity
  8
0
  6
Continuous
 62
     7
370
    30
100
AcDbLine
 10
349.5041822525
 20
141.8214633342
 30
0.0
 11
349.5041822525
 21
143.5614630792
 31
0.0
  0
LINE
  5
264
330
1F
100
AcDbEntity
  8
0
  6
Continuous
 62
     7
370
    30
100
AcDbLine
 10
350.3741828235
 20
141.8214633342
 30
0.0
 11
349.5041822525
 21
141.8214633342
 31
0.0
  0
LINE
  5
265
330
1F
100
AcDbEntity
  8
0
  6
Continuous
 62
     7
370
    30
100
AcDbLine
 10
350.3741828235
 20
141.1614629652
 30
0.0
 11
350.3741828235
 21
141.8214633342
 31
0.0
  0
LINE
  5
266
330
1F
100
AcDbEntity
  8
0
  6
Continuous
 62
     7
370
    30
100
AcDbLine
 10
347.9741831752
 20
141.1614629652
 30
0.0
 11
350.3741828235
 21
141.1614629652
 31
0.0
  0
LINE
  5
267
330
1F
100
AcDbEntity
  8
0
  6
Continuous
 62
     7
370
    30
100
AcDbLine
 10
347.9741831752
 20
141.1614629652
 30
0.0
 11
347.9741831752
 21
152.7414628982
 31
0.0
  0
LINE
  5
268
330
1F
100
AcDbEntity
  8
0
  6
Continuous
 62
     7
370
    30
100
AcDbLine
 10
347.9741831752
 20
152.7414628982
 30
0.0
 11
348.6341816815
 21
152.7414628982
 31
0.0
  0
LINE
  5
269
330
1F
100
AcDbEntity
  8
0
  6
Continuous
 62
     7
370
    30
100
AcDbLine
 10
348.6341816815
 20
150.7914629511
 30
0.0
 11
348.6341816815
 21
152.7414628982
 31
0.0
  0
LINE
  5
26A
330
1F
100
AcDbEntity
  8
0
  6
Continuous
 62
     7
370
    30
100
AcDbLine
 10
348.9641827973
 20
150.7914629511
 30
0.0
 11
348.6341816815
 21
150.7914629511
 31
0.0
  0
LINE
  5
26B
330
1F
100
AcDbEntity
  8
0
  6
Continuous
 62
     7
370
    30
100
AcDbLine
 10
348.9641827973
 20
152.3214629598
 30
0.0
 11
348.9641827973
 21
150.7914629511
 31
0.0
  0
LINE
  5
26C
330
1F
100
AcDbEntity
  8
0
  6
Continuous
 62
     7
370
    30
100
AcDbLine
 10
349.5041822525
 20
152.3214629598
 30
0.0
 11
348.9641827973
 21
152.3214629598
 31
0.0
  0
LINE
  5
26D
330
1F
100
AcDbEntity
  8
0
  6
Continuous
 62
     7
370
    30
100
AcDbLine
 10
349.5041822525
 20
150.7914629511
 30
0.0
 11
349.5041822525
 21
152.3214629598
 31
0.0
  0
LINE
  5
26E
330
1F
100
AcDbEntity
  8
0
  6
Continuous
 62
     7
370
    30
100
AcDbLine
 10
349.8341815057
 20
150.7914629511
 30
0.0
 11
349.5041822525
 21
150.7914629511
 31
0.0
  0
LINE
  5
26F
330
1F
100
AcDbEntity
  8
0
  6
Continuous
 62
     7
370
    30
100
AcDbLine
 10
349.8341815057
 20
152.7414628982
 30
0.0
 11
349.8341815057
 21
150.7914629511
 31
0.0
  0
LINE
  5
270
330
1F
100
AcDbEntity
  8
0
  6
Continuous
 62
     7
370
    30
100
AcDbLine
 10
350.3741828235
 20
152.7414628982
 30
0.0
 11
349.8341815057
 21
152.7414628982
 31
0.0
  0
LINE
  5
271
330
1F
100
AcDbEntity
  8
0
  6
Continuous
 62
     7
370
    30
100
AcDbLine
 10
350.3741828235
 20
150.1314629314
 30
0.0
 11
350.3741828235
 21
152.7414628982
 31
0.0
  0
LINE
  5
272
330
1F
100
AcDbEntity
  8
0
  6
Continuous
 62
     7
370
    30
100
AcDbLine
 10
348.6341816815
 20
150.1314629314
 30
0.0
 11
350.3741828235
 21
150.1314629314
 31
0.0
  0
LINE
  5
273
330
1F
100
AcDbEntity
  8
0
  6
Continuous
 62
     7
370
    30
100
AcDbLine
 10
348.6341816815
 20
149.6814629319
 30
0.0
 11
348.6341816815
 21
150.1314629314
 31
0.0
  0
ARC
  5
274
330
1F
100
AcDbEntity
  8
0
  6
Continuous
 62
     7
370
    30
100
AcDbCircle
 10
349.0541823109
 20
148.8182132557
 30
0.0
 40
0.9600000000062373
100
AcDbArc
 50
103.5118013563
 51
115.9444797722
  0
ARC
  5
275
330
1F
100
AcDbEntity
  8
0
  6
Continuous
 62
     7
370
    30
100
AcDbCircle
 10
349.2504446488
 20
148.0014629299
 30
0.0
 40
1.800000000000011
100
AcDbArc
 50
82.3571878344
 51
103.5118013555
  0
ARC
  5
276
330
1F
100
AcDbEntity
  8
0
  6
Continuous
 62
     7
370
    30
100
AcDbCircle
 10
349.3541823109
 20
148.774533753
 30
0.0
 40
1.019999999999982
100
AcDbArc
 50
0.0
 51
82.3571878362
  0
LINE
  5
277
330
1F
100
AcDbEntity
  8
0
  6
Continuous
 62
     7
370
    30
100
AcDbLine
 10
350.3741828235
 20
146.8314628329
 30
0.0
 11
350.3741828235
 21
148.7745337401
 31
0.0
  0
LINE
  5
278
330
1F
100
AcDbEntity
  8
0
  6
Continuous
 62
     7
370
    30
100
AcDbLine
 10
348.9641827973
 20
146.8314628329
 30
0.0
 11
350.3741828235
 21
146.8314628329
 31
0.0
  0
LINE
  5
279
330
1F
100
AcDbEntity
  8
0
  6
Continuous
 62
     7
370
    30
100
AcDbLine
 10
348.9641827973
 20
147.491462969
 30
0.0
 11
348.9641827973
 21
146.8314628329
 31
0.0
  0
LINE
  5
27A
330
1F
100
AcDbEntity
  8
0
  6
Continuous
 62
     7
370
    30
100
AcDbLine
 10
349.8341815057
 20
147.491462969
 30
0.0
 11
348.9641827973
 21
147.491462969
 31
0.0
  0
LINE
  5
27B
330
1F
100
AcDbEntity
  8
0
  6
Continuous
 62
     7
370
    30
100
AcDbLine
 10
350.5495843919
 20
126.0950087782
 30
0.0
 11
350.5495843919
 21
125.537576827
 31
0.0
  0
LINE
  5
27C
330
1F
100
AcDbEntity
  8
0
  6
Continuous
 62
     7
370
    30
100
AcDbLine
 10
350.5495843919
 20
125.537576827
 30
0.0
 11
348.7495818617
 21
125.537576827
 31
0.0
  0
LINE
  5
27D
330
1F
100
AcDbEntity
  8
0
  6
Continuous
 62
     7
370
    30
100
AcDbLine
 10
348.7495818617
 20
125.537576827
 30
0.0
 11
348.7495818617
 21
126.0950087782
 31
0.0
  0
LINE
  5
27E
330
1F
100
AcDbEntity
  8
0
  6
Continuous
 62
     7
370
    30
100
AcDbLine
 10
348.7495818617
 20
126.0950087782
 30
0.0
 11
350.5495843919
 21
126.0950087782
 31
0.0
  0
ARC
  5
27F
330
1F
100
AcDbEntity
  8
0
  6
Continuous
 62
     7
370
    30
100
AcDbCircle
 10
349.3354427407
 20
122.73003147
 30
0.0
 40
0.5276111768914689
100
AcDbArc
 50
0.0
 51
82.5174081553
  0
LINE
  5
280
330
1F
100
AcDbEntity
  8
0
  6
Continuous
 62
     7
370
    30
100
AcDbLine
 10
349.8630543681
 20
122.7300322827
 30
0.0
 11
349.8630543681
 21
122.2960396882
 31
0.0
  0
LINE
  5
281
330
1F
100
AcDbEntity
  8
0
  6
Continuous
 62
     7
370
    30
100
AcDbLine
 10
350.5537027004
 20
121.7352549758
 30
0.0
 11
348.7537020328
 21
121.7352549758
 31
0.0
  0
LINE
  5
282
330
1F
100
AcDbEntity
  8
0
  6
Continuous
 62
     7
370
    30
100
AcDbLine
 10
348.7537020328
 20
121.7352549758
 30
0.0
 11
348.7537020328
 21
122.7744638201
 31
0.0
  0
ARC
  5
283
330
1F
100
AcDbEntity
  8
0
  6
Continuous
 62
     7
370
    30
100
AcDbCircle
 10
349.2421518795
 20
122.7744640332
 30
0.0
 40
0.4884495095999455
100
AcDbArc
 50
90.9624501754
 51
180.0
  0
ARC
  5
284
330
1F
100
AcDbEntity
  8
0
  6
Continuous
 62
     7
370
    30
100
AcDbCircle
 10
349.2533929223
 20
122.1053346106
 30
0.0
 40
1.157673347489994
100
AcDbArc
 50
82.5174081537
 51
90.9624501753
  0
ARC
  5
285
330
1F
100
AcDbEntity
  8
0
  6
Continuous
 62
     7
370
    30
100
AcDbCircle
 10
349.1679447456
 20
122.4770353785
 30
0.0
 40
0.3503835624665317
100
AcDbArc
 50
0.0
 51
23.028748486
  0
ARC
  5
286
330
1F
100
AcDbEntity
  8
0
  6
Continuous
 62
     7
370
    30
100
AcDbCircle
 10
349.3141096654
 20
122.5391652777
 30
0.0
 40
0.1915619387663972
100
AcDbArc
 50
23.0287484734
 51
163.7420791419
  0
ARC
  5
287
330
1F
100
AcDbEntity
  8
0
  6
Continuous
 62
     7
370
    30
100
AcDbCircle
 10
349.4863157256
 20
122.4889459582
 30
0.0
 40
0.3709411661000004
100
AcDbArc
 50
163.7420791347
 51
180.0
  0
LINE
  5
288
330
1F
100
AcDbEntity
  8
0
  6
Continuous
 62
     7
370
    30
100
AcDbLine
 10
349.1153737041
 20
122.4889463957
 30
0.0
 11
349.1153737041
 21
122.2971833523
 31
0.0
  0
LINE
  5
289
330
1F
100
AcDbEntity
  8
0
  6
Continuous
 62
     7
370
    30
100
AcDbLine
 10
349.1153737041
 20
122.2971833523
 30
0.0
 11
349.5183290424
 21
122.2971833523
 31
0.0
  0
LINE
  5
28A
330
1F
100
AcDbEntity
  8
0
  6
Continuous
 62
     7
370
    30
100
AcDbLine
 10
349.5183290424
 20
122.2971833523
 30
0.0
 11
349.5183290424
 21
122.47703478
 31
0.0
  0
LINE
  5
28B
330
1F
100
AcDbEntity
  8
0
  6
Continuous
 62
     7
370
    30
100
AcDbLine
 10
350.5537027004
 20
122.2960396882
 30
0.0
 11
350.5537027004
 21
121.7352549758
 31
0.0
  0
LINE
  5
28C
330
1F
100
AcDbEntity
  8
0
  6
Continuous
 62
     7
370
    30
100
AcDbLine
 10
349.8630543681
 20
122.2960396882
 30
0.0
 11
350.5537027004
 21
122.2960396882
 31
0.0
  0
LINE
  5
28D
330
1F
100
AcDbEntity
  8
0
  6
Continuous
 62
     7
370
    30
100
AcDbLine
 10
347.9741831752
 20
126.8465600189
 30
0.0
 11
347.9741831752
 21
125.4222716417
 31
0.0
  0
LINE
  5
28E
330
1F
100
AcDbEntity
  8
0
  6
Continuous
 62
     7
370
    30
100
AcDbLine
 10
347.9741831752
 20
125.4222716417
 30
0.0
 11
346.1741825076
 21
125.4222716417
 31
0.0
  0
LINE
  5
28F
330
1F
100
AcDbEntity
  8
0
  6
Continuous
 62
     7
370
    30
100
AcDbLine
 10
346.1741825076
 20
125.4222716417
 30
0.0
 11
346.1741825076
 21
125.9784816977
 31
0.0
  0
LINE
  5
290
330
1F
100
AcDbEntity
  8
0
  6
Continuous
 62
     7
370
    30
100
AcDbLine
 10
346.1741825076
 20
125.9784816977
 30
0.0
 11
347.530935097
 21
125.9784816977
 31
0.0
  0
LINE
  5
291
330
1F
100
AcDbEntity
  8
0
  6
Continuous
 62
     7
370
    30
100
AcDbLine
 10
347.530935097
 20
125.9784816977
 30
0.0
 11
347.530935097
 21
126.8465600189
 31
0.0
  0
LINE
  5
292
330
1F
100
AcDbEntity
  8
0
  6
Continuous
 62
     7
370
    30
100
AcDbLine
 10
347.530935097
 20
126.8465600189
 30
0.0
 11
347.9741831752
 21
126.8465600189
 31
0.0
  0
LINE
  5
293
330
1F
100
AcDbEntity
  8
0
  6
Continuous
 62
     7
370
    30
100
AcDbLine
 10
347.8710932168
 20
175.4844791468
 30
0.0
 11
346.4015574636
 21
175.4844791468
 31
0.0
  0
LINE
  5
294
330
1F
100
AcDbEntity
  8
0
  6
Continuous
 62
     7
370
    30
100
AcDbLine
 10
347.8710932168
 20
175.1053302761
 30
0.0
 11
347.8710932168
 21
175.4844791468
 31
0.0
  0
LINE
  5
295
330
1F
100
AcDbEntity
  8
0
  6
Continuous
 62
     7
370
    30
100
AcDbLine
 10
346.4015574636
 20
175.1053302761
 30
0.0
 11
347.8710932168
 21
175.1053302761
 31
0.0
  0
LINE
  5
296
330
1F
100
AcDbEntity
  8
0
  6
Continuous
 62
     7
370
    30
100
AcDbLine
 10
346.4015574636
 20
174.6241959955
 30
0.0
 11
346.4015574636
 21
175.1053302761
 31
0.0
  0
LINE
  5
297
330
1F
100
AcDbEntity
  8
0
  6
Continuous
 62
     7
370
    30
100
AcDbLine
 10
346.4015574636
 20
174.6241959955
 30
0.0
 11
346.056396279
 21
174.6241959955
 31
0.0
  0
LINE
  5
298
330
1F
100
AcDbEntity
  8
0
  6
Continuous
 62
     7
370
    30
100
AcDbLine
 10
346.056396279
 20
175.9656059768
 30
0.0
 11
346.056396279
 21
174.6241959955
 31
0.0
  0
LINE
  5
299
330
1F
100
AcDbEntity
  8
0
  6
Continuous
 62
     7
370
    30
100
AcDbLine
 10
346.4015574636
 20
175.9656059768
 30
0.0
 11
346.056396279
 21
175.9656059768
 31
0.0
  0
LINE
  5
29A
330
1F
100
AcDbEntity
  8
0
  6
Continuous
 62
     7
370
    30
100
AcDbLine
 10
346.4015574636
 20
175.4844791468
 30
0.0
 11
346.4015574636
 21
175.9656059768
 31
0.0
  0
LINE
  5
29B
330
1F
100
AcDbEntity
  8
0
  6
Continuous
 62
     7
370
    30
100
AcDbLine
 10
346.7623983952
 20
177.3593208965
 30
0.0
 11
347.1101784589
 21
177.3593208965
 31
0.0
  0
LINE
  5
29C
330
1F
100
AcDbEntity
  8
0
  6
Continuous
 62
     7
370
    30
100
AcDbLine
 10
347.1101784589
 20
177.3593208965
 30
0.0
 11
347.1101784589
 21
176.6820761587
 31
0.0
  0
LINE
  5
29D
330
1F
100
AcDbEntity
  8
0
  6
Continuous
 62
     7
370
    30
100
AcDbLine
 10
347.1101784589
 20
176.6820761587
 30
0.0
 11
347.5259320321
 21
176.6820761587
 31
0.0
  0
LINE
  5
29E
330
1F
100
AcDbEntity
  8
0
  6
Continuous
 62
     7
370
    30
100
AcDbLine
 10
347.5259320321
 20
176.6820761587
 30
0.0
 11
347.5259320321
 21
177.4586799767
 31
0.0
  0
LINE
  5
29F
330
1F
100
AcDbEntity
  8
0
  6
Continuous
 62
     7
370
    30
100
AcDbLine
 10
347.5259320321
 20
177.4586799767
 30
0.0
 11
347.8710932168
 21
177.4586799767
 31
0.0
  0
LINE
  5
2A0
330
1F
100
AcDbEntity
  8
0
  6
Continuous
 62
     7
370
    30
100
AcDbLine
 10
347.8710932168
 20
177.4586799767
 30
0.0
 11
347.8710932168
 21
176.3055387165
 31
0.0
  0
LINE
  5
2A1
330
1F
100
AcDbEntity
  8
0
  6
Continuous
 62
     7
370
    30
100
AcDbLine
 10
346.056396279
 20
176.3055387165
 30
0.0
 11
347.8710932168
 21
176.3055387165
 31
0.0
  0
LINE
  5
2A2
330
1F
100
AcDbEntity
  8
0
  6
Continuous
 62
     7
370
    30
100
AcDbLine
 10
346.056396279
 20
177.4377624717
 30
0.0
 11
346.056396279
 21
176.3055387165
 31
0.0
  0
LINE
  5
2A3
330
1F
100
AcDbEntity
  8
0
  6
Continuous
 62
     7
370
    30
100
AcDbLine
 10
346.056396279
 20
177.4377624717
 30
0.0
 11
346.4015574636
 21
177.4377624717
 31
0.0
  0
LINE
  5
2A4
330
1F
100
AcDbEntity
  8
0
  6
Continuous
 62
     7
370
    30
100
AcDbLine
 10
346.4015574636
 20
177.4377624717
 30
0.0
 11
346.4015574636
 21
176.6820761587
 31
0.0
  0
LINE
  5
2A5
330
1F
100
AcDbEntity
  8
0
  6
Continuous
 62
     7
370
    30
100
AcDbLine
 10
346.4015574636
 20
176.6820761587
 30
0.0
 11
346.7623983952
 21
176.6820761587
 31
0.0
  0
LINE
  5
2A6
330
1F
100
AcDbEntity
  8
0
  6
Continuous
 62
     7
370
    30
100
AcDbLine
 10
346.7623983952
 20
176.6820761587
 30
0.0
 11
346.7623983952
 21
177.3593208965
 31
0.0
  0
LINE
  5
2A7
330
1F
100
AcDbEntity
  8
0
  6
Continuous
 62
     7
370
    30
100
AcDbLine
 10
347.8710932168
 20
179.8277261879
 30
0.0
 11
347.8710932168
 21
180.2068750586
 31
0.0
  0
LINE
  5
2A8
330
1F
100
AcDbEntity
  8
0
  6
Continuous
 62
     7
370
    30
100
AcDbLine
 10
346.4015574636
 20
179.8277261879
 30
0.0
 11
347.8710932168
 21
179.8277261879
 31
0.0
  0
LINE
  5
2A9
330
1F
100
AcDbEntity
  8
0
  6
Continuous
 62
     7
370
    30
100
AcDbLine
 10
346.4015574636
 20
179.3465993579
 30
0.0
 11
346.4015574636
 21
179.8277261879
 31
0.0
  0
LINE
  5
2AA
330
1F
100
AcDbEntity
  8
0
  6
Continuous
 62
     7
370
    30
100
AcDbLine
 10
346.4015574636
 20
179.3465993579
 30
0.0
 11
346.056396279
 21
179.3465993579
 31
0.0
  0
LINE
  5
2AB
330
1F
100
AcDbEntity
  8
0
  6
Continuous
 62
     7
370
    30
100
AcDbLine
 10
346.056396279
 20
180.6880093392
 30
0.0
 11
346.056396279
 21
179.3465993579
 31
0.0
  0
LINE
  5
2AC
330
1F
100
AcDbEntity
  8
0
  6
Continuous
 62
     7
370
    30
100
AcDbLine
 10
346.4015574636
 20
180.6880093392
 30
0.0
 11
346.056396279
 21
180.6880093392
 31
0.0
  0
LINE
  5
2AD
330
1F
100
AcDbEntity
  8
0
  6
Continuous
 62
     7
370
    30
100
AcDbLine
 10
346.4015574636
 20
180.2068750586
 30
0.0
 11
346.4015574636
 21
180.6880093392
 31
0.0
  0
LINE
  5
2AE
330
1F
100
AcDbEntity
  8
0
  6
Continuous
 62
     7
370
    30
100
AcDbLine
 10
347.8710932168
 20
180.2068750586
 30
0.0
 11
346.4015574636
 21
180.2068750586
 31
0.0
  0
LINE
  5
2AF
330
1F
100
AcDbEntity
  8
0
  6
Continuous
 62
     7
370
    30
100
AcDbLine
 10
346.8445782991
 20
125.0281433787
 30
0.0
 11
347.2117000701
 21
125.0281433787
 31
0.0
  0
LINE
  5
2B0
330
1F
100
AcDbEntity
  8
0
  6
Continuous
 62
     7
370
    30
100
AcDbLine
 10
347.2117000701
 20
125.0281433787
 30
0.0
 11
347.2117000701
 21
124.1625181612
 31
0.0
  0
LINE
  5
2B1
330
1F
100
AcDbEntity
  8
0
  6
Continuous
 62
     7
370
    30
100
AcDbLine
 10
347.2117000701
 20
124.1625181612
 30
0.0
 11
347.5665414216
 21
124.1625181612
 31
0.0
  0
LINE
  5
2B2
330
1F
100
AcDbEntity
  8
0
  6
Continuous
 62
     7
370
    30
100
AcDbLine
 10
347.5665414216
 20
124.1625181612
 30
0.0
 11
347.5665414216
 21
125.1226819333
 31
0.0
  0
LINE
  5
2B3
330
1F
100
AcDbEntity
  8
0
  6
Continuous
 62
     7
370
    30
100
AcDbLine
 10
347.5665414216
 20
125.1226819333
 30
0.0
 11
347.9741831752
 21
125.1226819333
 31
0.0
  0
LINE
  5
2B4
330
1F
100
AcDbEntity
  8
0
  6
Continuous
 62
     7
370
    30
100
AcDbLine
 10
347.9741831752
 20
125.1226819333
 30
0.0
 11
347.9741831752
 21
123.6050843473
 31
0.0
  0
LINE
  5
2B5
330
1F
100
AcDbEntity
  8
0
  6
Continuous
 62
     7
370
    30
100
AcDbLine
 10
347.9741831752
 20
123.6050843473
 30
0.0
 11
346.1741825076
 21
123.6050843473
 31
0.0
  0
LINE
  5
2B6
330
1F
100
AcDbEntity
  8
0
  6
Continuous
 62
     7
370
    30
100
AcDbLine
 10
346.1741825076
 20
123.6050843473
 30
0.0
 11
346.1741825076
 21
125.0956679907
 31
0.0
  0
LINE
  5
2B7
330
1F
100
AcDbEntity
  8
0
  6
Continuous
 62
     7
370
    30
100
AcDbLine
 10
346.1741825076
 20
125.0956679907
 30
0.0
 11
346.5584946307
 21
125.0956679907
 31
0.0
  0
LINE
  5
2B8
330
1F
100
AcDbEntity
  8
0
  6
Continuous
 62
     7
370
    30
100
AcDbLine
 10
346.5584946307
 20
125.0956679907
 30
0.0
 11
346.5584946307
 21
124.1625181612
 31
0.0
  0
LINE
  5
2B9
330
1F
100
AcDbEntity
  8
0
  6
Continuous
 62
     7
370
    30
100
AcDbLine
 10
346.5584946307
 20
124.1625181612
 30
0.0
 11
346.8445782991
 21
124.1625181612
 31
0.0
  0
LINE
  5
2BA
330
1F
100
AcDbEntity
  8
0
  6
Continuous
 62
     7
370
    30
100
AcDbLine
 10
346.8445782991
 20
124.1625181612
 30
0.0
 11
346.8445782991
 21
125.0281433787
 31
0.0
  0
LINE
  5
2BB
330
1F
100
AcDbEntity
  8
0
  6
Continuous
 62
     7
370
    30
100
AcDbLine
 10
346.7623983952
 20
182.0817168083
 30
0.0
 11
347.1101784589
 21
182.0817168083
 31
0.0
  0
LINE
  5
2BC
330
1F
100
AcDbEntity
  8
0
  6
Continuous
 62
     7
370
    30
100
AcDbLine
 10
347.1101784589
 20
182.0817168083
 30
0.0
 11
347.1101784589
 21
181.4044702079
 31
0.0
  0
LINE
  5
2BD
330
1F
100
AcDbEntity
  8
0
  6
Continuous
 62
     7
370
    30
100
AcDbLine
 10
347.1101784589
 20
181.4044702079
 30
0.0
 11
347.5259320321
 21
181.4044702079
 31
0.0
  0
LINE
  5
2BE
330
1F
100
AcDbEntity
  8
0
  6
Continuous
 62
     7
370
    30
100
AcDbLine
 10
347.5259320321
 20
181.4044702079
 30
0.0
 11
347.5259320321
 21
182.1810852017
 31
0.0
  0
LINE
  5
2BF
330
1F
100
AcDbEntity
  8
0
  6
Continuous
 62
     7
370
    30
100
AcDbLine
 10
346.056396279
 20
182.1601676967
 30
0.0
 11
346.056396279
 21
181.0279327657
 31
0.0
  0
LINE
  5
2C0
330
1F
100
AcDbEntity
  8
0
  6
Continuous
 62
     7
370
    30
100
AcDbLine
 10
346.056396279
 20
182.1601676967
 30
0.0
 11
346.4015574636
 21
182.1601676967
 31
0.0
  0
LINE
  5
2C1
330
1F
100
AcDbEntity
  8
0
  6
Continuous
 62
     7
370
    30
100
AcDbLine
 10
346.4015574636
 20
182.1601676967
 30
0.0
 11
346.4015574636
 21
181.4044702079
 31
0.0
  0
LINE
  5
2C2
330
1F
100
AcDbEntity
  8
0
  6
Continuous
 62
     7
370
    30
100
AcDbLine
 10
346.4015574636
 20
181.4044702079
 30
0.0
 11
346.7623983952
 21
181.4044702079
 31
0.0
  0
LINE
  5
2C3
330
1F
100
AcDbEntity
  8
0
  6
Continuous
 62
     7
370
    30
100
AcDbLine
 10
346.7623983952
 20
181.4044702079
 30
0.0
 11
346.7623983952
 21
182.0817168083
 31
0.0
  0
LINE
  5
2C4
330
1F
100
AcDbEntity
  8
0
  6
Continuous
 62
     7
370
    30
100
AcDbLine
 10
346.056396279
 20
181.0279327657
 30
0.0
 11
347.8710932168
 21
181.0279327657
 31
0.0
  0
LINE
  5
2C5
330
1F
100
AcDbEntity
  8
0
  6
Continuous
 62
     7
370
    30
100
AcDbLine
 10
347.5259320321
 20
182.1810852017
 30
0.0
 11
347.8710932168
 21
182.1810852017
 31
0.0
  0
LINE
  5
2C6
330
1F
100
AcDbEntity
  8
0
  6
Continuous
 62
     7
370
    30
100
AcDbLine
 10
347.8710932168
 20
182.1810852017
 30
0.0
 11
347.8710932168
 21
181.0279327657
 31
0.0
  0
LINE
  5
2C7
330
1F
100
AcDbEntity
  8
0
  6
Continuous
 62
     7
370
    30
100
AcDbLine
 10
296.7703008535
 20
147.219484181
 30
0.0
 11
296.7703008535
 21
147.5152638487
 31
0.0
  0
LINE
  5
2C8
330
1F
100
AcDbEntity
  8
0
  6
Continuous
 62
     7
370
    30
100
AcDbLine
 10
296.7703008535
 20
147.5152638487
 30
0.0
 11
298.0288771423
 21
147.5152638487
 31
0.0
  0
SPLINE
  5
2C9
330
1F
100
AcDbEntity
  8
0
  6
Continuous
 62
     7
370
    30
100
AcDbSpline
210
0.0
220
0.0
230
1.0
 70
     8
 71
     3
 72
    12
 73
     8
 74
     0
 42
0.000000001
 43
0.00000001
 40
0.0
 40
0.0
 40
0.0
 40
0.0
 40
0.4999999999999905
 40
0.4999999999999905
 40
0.7499999999999952
 40
0.7499999999999952
 40
1.0
 40
1.0
 40
1.0
 40
1.0
 10
298.0288774685492
 20
147.5152639529466
 30
0.0
 10
298.1165731249588
 20
147.5137117235224
 30
0.0
 10
298.2046191805039
 20
147.5079072106385
 30
0.0
 10
298.3317018911816
 20
147.4730902478786
 30
0.0
 10
298.3725820456419
 20
147.4580639058721
 30
0.0
 10
298.4492066332869
 20
147.4173727302726
 30
0.0
 10
298.4842934968104
 20
147.3899806865853
 30
0.0
 10
298.5168601280174
 20
147.3600775191933
 30
0.0
  0
SPLINE
  5
2CA
330
1F
100
AcDbEntity
  8
0
  6
Continuous
 62
     7
370
    30
100
AcDbSpline
210
0.0
220
0.0
230
1.0
 70
     8
 71
     3
 72
    10
 73
     6
 74
     0
 42
0.000000001
 43
0.00000001
 40
0.0
 40
0.0
 40
0.0
 40
0.0
 40
0.5
 40
0.5
 40
1.0
 40
1.0
 40
1.0
 40
1.0
 10
298.5168601280174
 20
147.3600775191933
 30
0.0
 10
298.5632849846419
 20
147.3120276747099
 30
0.0
 10
298.6018336731431
 20
147.2561400877615
 30
0.0
 10
298.6479931568671
 20
147.1320949764347
 30
0.0
 10
298.6564789325645
 20
147.0648527962156
 30
0.0
 10
298.6578092806174
 20
146.9980944683433
 30
0.0
  0
SPLINE
  5
2CB
330
1F
100
AcDbEntity
  8
0
  6
Continuous
 62
     7
370
    30
100
AcDbSpline
210
0.0
220
0.0
230
1.0
 70
     8
 71
     3
 72
    10
 73
     6
 74
     0
 42
0.000000001
 43
0.00000001
 40
0.0
 40
0.0
 40
0.0
 40
0.0
 40
0.5
 40
0.5
 40
1.0
 40
1.0
 40
1.0
 40
1.0
 10
298.6578092806174
 20
146.9980944683433
 30
0.0
 10
298.6564255244114
 20
146.9354165729387
 30
0.0
 10
298.6464554781619
 20
146.8726231732469
 30
0.0
 10
298.5991367048625
 20
146.7580388829606
 30
0.0
 10
298.5609386629908
 20
146.7067972280318
 30
0.0
 10
298.5172160602174
 20
146.6617385361433
 30
0.0
  0
SPLINE
  5
2CC
330
1F
100
AcDbEntity
  8
0
  6
Continuous
 62
     7
370
    30
100
AcDbSpline
210
0.0
220
0.0
230
1.0
 70
     8
 71
     3
 72
    12
 73
     8
 74
     0
 42
0.000000001
 43
0.00000001
 40
0.0
 40
0.0
 40
0.0
 40
0.0
 40
0.2499999999999998
 40
0.2499999999999998
 40
0.4999999999999996
 40
0.4999999999999996
 40
1.0
 40
1.0
 40
1.0
 40
1.0
 10
298.5172160602174
 20
146.6617385361433
 30
0.0
 10
298.4856611177959
 20
146.6307347414779
 30
0.0
 10
298.4519473522644
 20
146.6027836931047
 30
0.0
 10
298.3746657032841
 20
146.5608160969643
 30
0.0
 10
298.3328269313225
 20
146.5450776317033
 30
0.0
 10
298.2061696614208
 20
146.5101501455065
 30
0.0
 10
298.117190852025
 20
146.5040723340247
 30
0.0
 10
298.0288770774344
 20
146.5026368412368
 30
0.0
  0
LINE
  5
2CD
330
1F
100
AcDbEntity
  8
0
  6
Continuous
 62
     7
370
    30
100
AcDbLine
 10
298.0288771423
 20
146.5026368134
 30
0.0
 11
297.8740466269
 21
146.5026368134
 31
0.0
  0
LINE
  5
2CE
330
1F
100
AcDbEntity
  8
0
  6
Continuous
 62
     7
370
    30
100
AcDbLine
 10
297.8740466269
 20
146.5026368134
 30
0.0
 11
297.8740466269
 21
146.7984164812
 31
0.0
  0
LINE
  5
2CF
330
1F
100
AcDbEntity
  8
0
  6
Continuous
 62
     7
370
    30
100
AcDbLine
 10
297.8740466269
 20
146.7984164812
 30
0.0
 11
298.0758605035
 21
146.7984164812
 31
0.0
  0
SPLINE
  5
2D0
330
1F
100
AcDbEntity
  8
0
  6
Continuous
 62
     7
370
    30
100
AcDbSpline
210
0.0
220
0.0
230
1.0
 70
     8
 71
     3
 72
    10
 73
     6
 74
     0
 42
0.000000001
 43
0.00000001
 40
0.0
 40
0.0
 40
0.0
 40
0.0
 40
0.5
 40
0.5
 40
1.0
 40
1.0
 40
1.0
 40
1.0
 10
298.0758602135231
 20
146.7984165032715
 30
0.0
 10
298.1240851785628
 20
146.7989964044548
 30
0.0
 10
298.172447111947
 20
146.7999149718671
 30
0.0
 10
298.2677689796424
 20
146.8154916304633
 30
0.0
 10
298.3161666910415
 20
146.8281083778219
 30
0.0
 10
298.3524194500174
 20
146.8603487056333
 30
0.0
  0
SPLINE
  5
2D1
330
1F
100
AcDbEntity
  8
0
  6
Continuous
 62
     7
370
    30
100
AcDbSpline
210
0.0
220
0.0
230
1.0
 70
     8
 71
     3
 72
    10
 73
     6
 74
     0
 42
0.000000001
 43
0.00000001
 40
0.0
 40
0.0
 40
0.0
 40
0.0
 40
0.5
 40
0.5
 40
1.0
 40
1.0
 40
1.0
 40
1.0
 10
298.3524194500174
 20
146.8603487056333
 30
0.0
 10
298.3689985648559
 20
146.8781175438074
 30
0.0
 10
298.3845483365357
 20
146.897091491871
 30
0.0
 10
298.4054880649887
 20
146.9402872962003
 30
0.0
 10
298.4101873301885
 20
146.9643743237578
 30
0.0
 10
298.4115041958174
 20
146.9884842988533
 30
0.0
  0
SPLINE
  5
2D2
330
1F
100
AcDbEntity
  8
0
  6
Continuous
 62
     7
370
    30
100
AcDbSpline
210
0.0
220
0.0
230
1.0
 70
     8
 71
     3
 72
    10
 73
     6
 74
     0
 42
0.000000001
 43
0.00000001
 40
0.0
 40
0.0
 40
0.0
 40
0.0
 40
0.5
 40
0.5
 40
1.0
 40
1.0
 40
1.0
 40
1.0
 10
298.4115041958174
 20
146.9884842988533
 30
0.0
 10
298.41051582784
 20
147.0180628277855
 30
0.0
 10
298.4079691014917
 20
147.0478458036135
 30
0.0
 10
298.3894064717553
 20
147.1032603172975
 30
0.0
 10
298.3727932390087
 20
147.128196419114
 30
0.0
 10
298.3534872467173
 20
147.1504334513933
 30
0.0
  0
SPLINE
  5
2D3
330
1F
100
AcDbEntity
  8
0
  6
Continuous
 62
     7
370
    30
100
AcDbSpline
210
0.0
220
0.0
230
1.0
 70
     8
 71
     3
 72
    10
 73
     6
 74
     0
 42
0.000000001
 43
0.00000001
 40
0.0
 40
0.0
 40
0.0
 40
0.0
 40
0.5
 40
0.5
 40
1.0
 40
1.0
 40
1.0
 40
1.0
 10
298.3534872467173
 20
147.1504334513933
 30
0.0
 10
298.3097250175886
 20
147.1842678954738
 30
0.0
 10
298.2563012924249
 20
147.2000784703967
 30
0.0
 10
298.1480039409753
 20
147.2170250553015
 30
0.0
 10
298.0929909978535
 20
147.2189469882532
 30
0.0
 10
298.0381313145072
 20
147.2194842988524
 30
0.0
  0
LINE
  5
2D4
330
1F
100
AcDbEntity
  8
0
  6
Continuous
 62
     7
370
    30
100
AcDbLine
 10
298.0381307634
 20
147.219484181
 30
0.0
 11
296.7703008535
 21
147.219484181
 31
0.0
  0
SPLINE
  5
2D5
330
1F
100
AcDbEntity
  8
0
  6
Continuous
 62
     7
370
    30
100
AcDbSpline
210
0.0
220
0.0
230
1.0
 70
     8
 71
     3
 72
    10
 73
     6
 74
     0
 42
0.000000001
 43
0.00000001
 40
0.0
 40
0.0
 40
0.0
 40
0.0
 40
0.5
 40
0.5
 40
1.0
 40
1.0
 40
1.0
 40
1.0
 10
293.9643008060173
 20
150.8381971003433
 30
0.0
 10
293.9893056554853
 20
150.8157625078966
 30
0.0
 10
294.0164686357729
 20
150.7952698946848
 30
0.0
 10
294.078717589445
 20
150.7717111397283
 30
0.0
 10
294.1124714353779
 20
150.7683401390007
 30
0.0
 10
294.1458262297173
 20
150.7666547274633
 30
0.0
  0
SPLINE
  5
2D6
330
1F
100
AcDbEntity
  8
0
  6
Continuous
 62
     7
370
    30
100
AcDbSpline
210
0.0
220
0.0
230
1.0
 70
     8
 71
     3
 72
    10
 73
     6
 74
     0
 42
0.000000001
 43
0.00000001
 40
0.0
 40
0.0
 40
0.0
 40
0.0
 40
0.5
 40
0.5
 40
1.0
 40
1.0
 40
1.0
 40
1.0
 10
294.1458262297173
 20
150.7666547274633
 30
0.0
 10
294.1886168709913
 20
150.7681492390982
 30
0.0
 10
294.2309523594178
 20
150.7785296571072
 30
0.0
 10
294.3047145037357
 20
150.8205242707994
 30
0.0
 10
294.3360139552747
 20
150.8506077517711
 30
0.0
 10
294.3647245348173
 20
150.8823326935633
 30
0.0
  0
SPLINE
  5
2D7
330
1F
100
AcDbEntity
  8
0
  6
Continuous
 62
     7
370
    30
100
AcDbSpline
210
0.0
220
0.0
230
1.0
 70
     8
 71
     3
 72
    10
 73
     6
 74
     0
 42
0.000000001
 43
0.00000001
 40
0.0
 40
0.0
 40
0.0
 40
0.0
 40
0.5
 40
0.5
 40
1.0
 40
1.0
 40
1.0
 40
1.0
 10
294.3647245348173
 20
150.8823326935633
 30
0.0
 10
294.4161601836238
 20
150.9437158021188
 30
0.0
 10
294.4669068520912
 20
151.0057088009804
 30
0.0
 10
294.5613474632639
 20
151.1350844566381
 30
0.0
 10
294.6042946972189
 20
151.2025595120779
 30
0.0
 10
294.6451991111173
 20
151.2713665918733
 30
0.0
  0
SPLINE
  5
2D8
330
1F
100
AcDbEntity
  8
0
  6
Continuous
 62
     7
370
    30
100
AcDbSpline
210
0.0
220
0.0
230
1.0
 70
     8
 71
     3
 72
    14
 73
    10
 74
     0
 42
0.000000001
 43
0.00000001
 40
0.0
 40
0.0
 40
0.0
 40
0.0
 40
0.25
 40
0.25
 40
0.5
 40
0.5
 40
0.75
 40
0.75
 40
1.0
 40
1.0
 40
1.0
 40
1.0
 10
294.6451991111173
 20
151.2713665918733
 30
0.0
 10
294.6655378764221
 20
151.3050538678347
 30
0.0
 10
294.6864645492731
 20
151.3382766985855
 30
0.0
 10
294.7373036557124
 20
151.3976236358664
 30
0.0
 10
294.7669835258226
 20
151.4246952573369
 30
0.0
 10
294.8321145403275
 20
151.4685243097491
 30
0.0
 10
294.8684998589316
 20
151.4855949224546
 30
0.0
 10
294.9440931668334
 20
151.5071675233
 30
0.0
 10
294.9835503486855
 20
151.5104167845568
 30
0.0
 10
295.0231991111174
 20
151.5119767613633
 30
0.0
  0
SPLINE
  5
2D9
330
1F
100
AcDbEntity
  8
0
  6
Continuous
 62
     7
370
    30
100
AcDbSpline
210
0.0
220
0.0
230
1.0
 70
     8
 71
     3
 72
    12
 73
     8
 74
     0
 42
0.000000001
 43
0.00000001
 40
0.0
 40
0.0
 40
0.0
 40
0.0
 40
0.5000000000000002
 40
0.5000000000000002
 40
0.7500000000000001
 40
0.7500000000000001
 40
1.0
 40
1.0
 40
1.0
 40
1.0
 10
295.0231991111174
 20
151.5119767613633
 30
0.0
 10
295.0959563921339
 20
151.5101714689335
 30
0.0
 10
295.1690571481547
 20
151.5008038052282
 30
0.0
 10
295.2697660770713
 20
151.4619878555181
 30
0.0
 10
295.3025262427889
 20
151.4454827219681
 30
0.0
 10
295.3630660445687
 20
151.4055608026957
 30
0.0
 10
295.3903594224631
 20
151.3816954478299
 30
0.0
 10
295.4168601280174
 20
151.3567903206833
 30
0.0
  0
SPLINE
  5
2DA
330
1F
100
AcDbEntity
  8
0
  6
Continuous
 62
     7
370
    30
100
AcDbSpline
210
0.0
220
0.0
230
1.0
 70
     8
 71
     3
 72
    12
 73
     8
 74
     0
 42
0.000000001
 43
0.00000001
 40
0.0
 40
0.0
 40
0.0
 40
0.0
 40
0.2500000000000018
 40
0.2500000000000018
 40
0.5000000000000037
 40
0.5000000000000037
 40
1.0
 40
1.0
 40
1.0
 40
1.0
 10
295.4168601280174
 20
151.3567903206833
 30
0.0
 10
295.4419589164639
 20
151.3303475275472
 30
0.0
 10
295.465200869438
 20
151.3026321985891
 30
0.0
 10
295.5017828848628
 20
151.2404155272731
 30
0.0
 10
295.5167103164975
 20
151.206622376532
 30
0.0
 10
295.5496615430714
 20
151.1031276874739
 30
0.0
 10
295.5566096521862
 20
151.0298922963117
 30
0.0
 10
295.5578092806174
 20
150.9570784562833
 30
0.0
  0
SPLINE
  5
2DB
330
1F
100
AcDbEntity
  8
0
  6
Continuous
 62
     7
370
    30
100
AcDbSpline
210
0.0
220
0.0
230
1.0
 70
     8
 71
     3
 72
    12
 73
     8
 74
     0
 42
0.000000001
 43
0.00000001
 40
0.0
 40
0.0
 40
0.0
 40
0.0
 40
0.5000000000000049
 40
0.5000000000000049
 40
0.7500000000000024
 40
0.7500000000000024
 40
1.0
 40
1.0
 40
1.0
 40
1.0
 10
295.5578092806174
 20
150.9570784562833
 30
0.0
 10
295.5563333326896
 20
150.8902747851158
 30
0.0
 10
295.5499361559934
 20
150.8229855204841
 30
0.0
 10
295.51866936231
 20
150.7291131708238
 30
0.0
 10
295.5051169555706
 20
150.6984583782617
 30
0.0
 10
295.4706963754721
 20
150.6411649113566
 30
0.0
 10
295.4491794394291
 20
150.6157666268356
 30
0.0
 10
295.4261143653173
 20
150.5915360833973
 30
0.0
  0
SPLINE
  5
2DC
330
1F
100
AcDbEntity
  8
0
  6
Continuous
 62
     7
370
    30
100
AcDbSpline
210
0.0
220
0.0
230
1.0
 70
     8
 71
     3
 72
    10
 73
     6
 74
     0
 42
0.000000001
 43
0.00000001
 40
0.0
 40
0.0
 40
0.0
 40
0.0
 40
0.5
 40
0.5
 40
1.0
 40
1.0
 40
1.0
 40
1.0
 10
295.4261143653173
 20
150.5915360833973
 30
0.0
 10
295.3758025579501
 20
150.5430654933552
 30
0.0
 10
295.3186579708975
 20
150.5011753514011
 30
0.0
 10
295.191485921355
 20
150.4473072209775
 30
0.0
 10
295.1212528058086
 20
150.4360068609434
 30
0.0
 10
295.0513177550403
 20
150.4342140494973
 30
0.0
  0
LINE
  5
2DD
330
1F
100
AcDbEntity
  8
0
  6
Continuous
 62
     7
370
    30
100
AcDbLine
 10
295.0513177993
 20
150.4342140726
 30
0.0
 11
294.9342170241
 21
150.4342140144
 31
0.0
  0
LINE
  5
2DE
330
1F
100
AcDbEntity
  8
0
  6
Continuous
 62
     7
370
    30
100
AcDbLine
 10
294.9342170241
 20
150.4342140144
 30
0.0
 11
294.9342170241
 21
150.7196716594
 31
0.0
  0
LINE
  5
2DF
330
1F
100
AcDbEntity
  8
0
  6
Continuous
 62
     7
370
    30
100
AcDbLine
 10
294.9342170241
 20
150.7196716594
 30
0.0
 11
295.0420641782
 21
150.7196716594
 31
0.0
  0
SPLINE
  5
2E0
330
1F
100
AcDbEntity
  8
0
  6
Continuous
 62
     7
370
    30
100
AcDbSpline
210
0.0
220
0.0
230
1.0
 70
     8
 71
     3
 72
    10
 73
     6
 74
     0
 42
0.000000001
 43
0.00000001
 40
0.0
 40
0.0
 40
0.0
 40
0.0
 40
0.5000000000000002
 40
0.5000000000000002
 40
1.0
 40
1.0
 40
1.0
 40
1.0
 10
295.0420637096102
 20
150.7196716799831
 30
0.0
 10
295.0795123635722
 20
150.7203286736719
 30
0.0
 10
295.1171949979855
 20
150.721687919907
 30
0.0
 10
295.1899495283571
 20
150.7404305141576
 30
0.0
 10
295.2249049290934
 20
150.7559660683235
 30
0.0
 10
295.2524194500173
 20
150.7816038800033
 30
0.0
  0
SPLINE
  5
2E1
330
1F
100
AcDbEntity
  8
0
  6
Continuous
 62
     7
370
    30
100
AcDbSpline
210
0.0
220
0.0
230
1.0
 70
     8
 71
     3
 72
    10
 73
     6
 74
     0
 42
0.000000001
 43
0.00000001
 40
0.0
 40
0.0
 40
0.0
 40
0.0
 40
0.5
 40
0.5
 40
1.0
 40
1.0
 40
1.0
 40
1.0
 10
295.2524194500173
 20
150.7816038800033
 30
0.0
 10
295.2721896507542
 20
150.803412360242
 30
0.0
 10
295.2909486875998
 20
150.8265255446531
 30
0.0
 10
295.3150563972155
 20
150.8794583592141
 30
0.0
 10
295.3194955295406
 20
150.9089697492499
 30
0.0
 10
295.3211143653173
 20
150.9382140495033
 30
0.0
  0
SPLINE
  5
2E2
330
1F
100
AcDbEntity
  8
0
  6
Continuous
 62
     7
370
    30
100
AcDbSpline
210
0.0
220
0.0
230
1.0
 70
     8
 71
     3
 72
    10
 73
     6
 74
     0
 42
0.000000001
 43
0.00000001
 40
0.0
 40
0.0
 40
0.0
 40
0.0
 40
0.5
 40
0.5
 40
1.0
 40
1.0
 40
1.0
 40
1.0
 10
295.3211143653173
 20
150.9382140495033
 30
0.0
 10
295.3204718405362
 20
150.9760917972412
 30
0.0
 10
295.3175980131456
 20
151.0140928767173
 30
0.0
 10
295.2969480650806
 20
151.0871352078512
 30
0.0
 10
295.2783410002057
 20
151.1205110143615
 30
0.0
 10
295.2524194500173
 20
151.1482140495033
 30
0.0
  0
SPLINE
  5
2E3
330
1F
100
AcDbEntity
  8
0
  6
Continuous
 62
     7
370
    30
100
AcDbSpline
210
0.0
220
0.0
230
1.0
 70
     8
 71
     3
 72
    10
 73
     6
 74
     0
 42
0.000000001
 43
0.00000001
 40
0.0
 40
0.0
 40
0.0
 40
0.0
 40
0.5
 40
0.5
 40
1.0
 40
1.0
 40
1.0
 40
1.0
 10
295.2524194500173
 20
151.1482140495033
 30
0.0
 10
295.2256699130258
 20
151.1739096291844
 30
0.0
 10
295.1944427226299
 20
151.1949307401961
 30
0.0
 10
295.1258481417938
 20
151.2209391319585
 30
0.0
 10
295.0884683245737
 20
151.2260563473553
 30
0.0
 10
295.0513177551173
 20
151.2265191342433
 30
0.0
  0
SPLINE
  5
2E4
330
1F
100
AcDbEntity
  8
0
  6
Continuous
 62
     7
370
    30
100
AcDbSpline
210
0.0
220
0.0
230
1.0
 70
     8
 71
     3
 72
    10
 73
     6
 74
     0
 42
0.000000001
 43
0.00000001
 40
0.0
 40
0.0
 40
0.0
 40
0.0
 40
0.5
 40
0.5
 40
1.0
 40
1.0
 40
1.0
 40
1.0
 10
295.0513177551173
 20
151.2265191342433
 30
0.0
 10
295.0091588678362
 20
151.2252900088255
 30
0.0
 10
294.9666261584837
 20
151.2162219052986
 30
0.0
 10
294.8960492155085
 20
151.1719174294353
 30
0.0
 10
294.8678152325003
 20
151.1395180321307
 30
0.0
 10
294.8441652128174
 20
151.1047903206833
 30
0.0
  0
SPLINE
  5
2E5
330
1F
100
AcDbEntity
  8
0
  6
Continuous
 62
     7
370
    30
100
AcDbSpline
210
0.0
220
0.0
230
1.0
 70
     8
 71
     3
 72
    14
 73
    10
 74
     0
 42
0.000000001
 43
0.00000001
 40
0.0
 40
0.0
 40
0.0
 40
0.0
 40
0.0001374957185126
 40
0.0001374957185126
 40
0.0001374957185126
 40
0.0002750185600646
 40
0.0002750185600646
 40
0.0002750185600646
 40
0.000549945928929
 40
0.000549945928929
 40
0.000549945928929
 40
0.000549945928929
 10
294.8441652128174
 20
151.1047903206833
 30
0.0
 10
294.819156339401
 20
151.066383031353
 30
0.0
 10
294.794145075412
 20
151.0279720373423
 30
0.0
 10
294.768487383414
 20
150.9899951171855
 30
0.0
 10
294.742826543655
 20
150.9520135379086
 30
0.0
 10
294.7165031961687
 20
150.9144731741411
 30
0.0
 10
294.6896178443853
 20
150.877348291367
 30
0.0
 10
294.635885959364
 20
150.8031521287604
 30
0.0
 10
294.5792705144468
 20
150.7310565793257
 30
0.0
 10
294.5220465687173
 20
150.6595191342453
 30
0.0
  0
SPLINE
  5
2E6
330
1F
100
AcDbEntity
  8
0
  6
Continuous
 62
     7
370
    30
100
AcDbSpline
210
0.0
220
0.0
230
1.0
 70
     8
 71
     3
 72
    14
 73
    10
 74
     0
 42
0.000000001
 43
0.00000001
 40
0.0
 40
0.0
 40
0.0
 40
0.0
 40
0.25
 40
0.25
 40
0.5
 40
0.5
 40
0.75
 40
0.75
 40
1.0
 40
1.0
 40
1.0
 40
1.0
 10
294.5220465687173
 20
150.6595191342453
 30
0.0
 10
294.5004142087118
 20
150.6341402018148
 30
0.0
 10
294.4775933076997
 20
150.6098952725575
 30
0.0
 10
294.4253570533823
 20
150.5681818277029
 30
0.0
 10
294.3973151245095
 20
150.5507509236894
 30
0.0
 10
294.3375990798392
 20
150.5223571485985
 30
0.0
 10
294.3058070400173
 20
150.5112374003434
 30
0.0
 10
294.2414399185843
 20
150.4965259983963
 30
0.0
 10
294.2084709064514
 20
150.4933149580879
 30
0.0
 10
294.1753686026173
 20
150.4908072698383
 30
0.0
  0
SPLINE
  5
2E7
330
1F
100
AcDbEntity
  8
0
  6
Continuous
 62
     7
370
    30
100
AcDbSpline
210
0.0
220
0.0
230
1.0
 70
     8
 71
     3
 72
    14
 73
    10
 74
     0
 42
0.000000001
 43
0.00000001
 40
0.0
 40
0.0
 40
0.0
 40
0.0
 40
0.25
 40
0.25
 40
0.5
 40
0.5
 40
0.75
 40
0.75
 40
1.0
 40
1.0
 40
1.0
 40
1.0
 10
294.1753686026173
 20
150.4908072698383
 30
0.0
 10
294.1411255111261
 20
150.4903679486571
 30
0.0
 10
294.1069238583923
 20
150.4907217477889
 30
0.0
 10
294.0390492457634
 20
150.5015483038202
 30
0.0
 10
294.0063879406258
 20
150.510734583102
 30
0.0
 10
293.9434663506643
 20
150.5361256134936
 30
0.0
 10
293.913025347089
 20
150.5528008408006
 30
0.0
 10
293.857569051355
 20
150.591961858525
 30
0.0
 10
293.8328695736843
 20
150.615399736322
 30
0.0
 10
293.8087584331174
 20
150.6395869308553
 30
0.0
  0
SPLINE
  5
2E8
330
1F
100
AcDbEntity
  8
0
  6
Continuous
 62
     7
370
    30
100
AcDbSpline
210
0.0
220
0.0
230
1.0
 70
     8
 71
     3
 72
    12
 73
     8
 74
     0
 42
0.000000001
 43
0.00000001
 40
0.0
 40
0.0
 40
0.0
 40
0.0
 40
0.500000000000005
 40
0.500000000000005
 40
0.7500000000000024
 40
0.7500000000000024
 40
1.0
 40
1.0
 40
1.0
 40
1.0
 10
293.8087584331174
 20
150.6395869308553
 30
0.0
 10
293.7680849929965
 20
150.6849019794072
 30
0.0
 10
293.7314796866063
 20
150.7345059113729
 30
0.0
 10
293.6952835689415
 20
150.8171480933329
 30
0.0
 10
293.6858696836097
 20
150.846194665115
 30
0.0
 10
293.673024733458
 20
150.9056541811719
 30
0.0
 10
293.6711710158121
 20
150.9359342095356
 30
0.0
 10
293.6703008060173
 20
150.9663326935633
 30
0.0
  0
SPLINE
  5
2E9
330
1F
100
AcDbEntity
  8
0
  6
Continuous
 62
     7
370
    30
100
AcDbSpline
210
0.0
220
0.0
230
1.0
 70
     8
 71
     3
 72
    12
 73
     8
 74
     0
 42
0.000000001
 43
0.00000001
 40
0.0
 40
0.0
 40
0.0
 40
0.0
 40
0.5
 40
0.5
 40
0.75
 40
0.75
 40
1.0
 40
1.0
 40
1.0
 40
1.0
 10
293.6703008060173
 20
150.9663326935633
 30
0.0
 10
293.6712408363855
 20
151.0302128955528
 30
0.0
 10
293.676578222025
 20
151.0943671760891
 30
0.0
 10
293.7045486683181
 20
151.1862659893268
 30
0.0
 10
293.7169227988674
 20
151.2153726200588
 30
0.0
 10
293.748101071715
 20
151.2703688041739
 30
0.0
 10
293.7682874307948
 20
151.2956080334978
 30
0.0
 10
293.7902499585173
 20
151.3190615071233
 30
0.0
  0
SPLINE
  5
2EA
330
1F
100
AcDbEntity
  8
0
  6
Continuous
 62
     7
370
    30
100
AcDbSpline
210
0.0
220
0.0
230
1.0
 70
     8
 71
     3
 72
    10
 73
     6
 74
     0
 42
0.000000001
 43
0.00000001
 40
0.0
 40
0.0
 40
0.0
 40
0.0
 40
0.5
 40
0.5
 40
1.0
 40
1.0
 40
1.0
 40
1.0
 10
293.7902499585173
 20
151.3190615071233
 30
0.0
 10
293.8481481352044
 20
151.3729295219805
 30
0.0
 10
293.9166441023822
 20
151.4152275327732
 30
0.0
 10
294.0665403030566
 20
151.460015011306
 30
0.0
 10
294.1463961062525
 20
151.4644587703445
 30
0.0
 10
294.2251991364174
 20
151.4632140491033
 30
0.0
  0
LINE
  5
2EB
330
1F
100
AcDbEntity
  8
0
  6
Continuous
 62
     7
370
    30
100
AcDbLine
 10
294.2251992854
 20
151.4632140499
 30
0.0
 11
294.2251992854
 21
151.179536104
 31
0.0
  0
SPLINE
  5
2EC
330
1F
100
AcDbEntity
  8
0
  6
Continuous
 62
     7
370
    30
100
AcDbSpline
210
0.0
220
0.0
230
1.0
 70
     8
 71
     3
 72
    10
 73
     6
 74
     0
 42
0.000000001
 43
0.00000001
 40
0.0
 40
0.0
 40
0.0
 40
0.0
 40
0.5
 40
0.5
 40
1.0
 40
1.0
 40
1.0
 40
1.0
 10
294.2251991364174
 20
151.1795360809933
 30
0.0
 10
294.178632753041
 20
151.1839594818993
 30
0.0
 10
294.1312517981654
 20
151.1849217583305
 30
0.0
 10
294.0410779844281
 20
151.1655626569075
 30
0.0
 10
293.9987981667474
 20
151.1424215348589
 30
0.0
 10
293.9643008060181
 20
151.110485235944
 30
0.0
  0
SPLINE
  5
2ED
330
1F
100
AcDbEntity
  8
0
  6
Continuous
 62
     7
370
    30
100
AcDbSpline
210
0.0
220
0.0
230
1.0
 70
     8
 71
     3
 72
    10
 73
     6
 74
     0
 42
0.000000001
 43
0.00000001
 40
0.0
 40
0.0
 40
0.0
 40
0.0
 40
0.5
 40
0.5
 40
1.0
 40
1.0
 40
1.0
 40
1.0
 10
293.9643008060173
 20
151.1104852359433
 30
0.0
 10
293.9460629920467
 20
151.090697086385
 30
0.0
 10
293.9295556223957
 20
151.0690775935261
 30
0.0
 10
293.9092129268299
 20
151.0198641206833
 30
0.0
 10
293.9056430278538
 20
150.9930079672704
 30
0.0
 10
293.9045041958174
 20
150.9663326935633
 30
0.0
  0
SPLINE
  5
2EE
330
1F
100
AcDbEntity
  8
0
  6
Continuous
 62
     7
370
    30
100
AcDbSpline
210
0.0
220
0.0
230
1.0
 70
     8
 71
     3
 72
    10
 73
     6
 74
     0
 42
0.000000001
 43
0.00000001
 40
0.0
 40
0.0
 40
0.0
 40
0.0
 40
0.5
 40
0.5
 40
1.0
 40
1.0
 40
1.0
 40
1.0
 10
293.9045041958174
 20
150.9663326935633
 30
0.0
 10
293.9057944619233
 20
150.9421709810576
 30
0.0
 10
293.9104468708801
 20
150.9184403828967
 30
0.0
 10
293.9318492819918
 20
150.8747449985861
 30
0.0
 10
293.9474832166371
 20
150.8559553372847
 30
0.0
 10
293.9643008060173
 20
150.8381971003433
 30
0.0
  0
SPLINE
  5
2EF
330
1F
100
AcDbEntity
  8
0
  6
Continuous
 62
     7
370
    30
100
AcDbSpline
210
0.0
220
0.0
230
1.0
 70
     8
 71
     3
 72
    10
 73
     6
 74
     0
 42
0.000000001
 43
0.00000001
 40
0.0
 40
0.0
 40
0.0
 40
0.0
 40
0.5
 40
0.5
 40
1.0
 40
1.0
 40
1.0
 40
1.0
 10
293.9643008060173
 20
143.9931123545833
 30
0.0
 10
293.9893056554853
 20
143.9706777621366
 30
0.0
 10
294.0164686357729
 20
143.9501851489248
 30
0.0
 10
294.0787175894451
 20
143.9266263939683
 30
0.0
 10
294.1124714353779
 20
143.9232553932407
 30
0.0
 10
294.1458262297173
 20
143.9215699817033
 30
0.0
  0
SPLINE
  5
2F0
330
1F
100
AcDbEntity
  8
0
  6
Continuous
 62
     7
370
    30
100
AcDbSpline
210
0.0
220
0.0
230
1.0
 70
     8
 71
     3
 72
    10
 73
     6
 74
     0
 42
0.000000001
 43
0.00000001
 40
0.0
 40
0.0
 40
0.0
 40
0.0
 40
0.5
 40
0.5
 40
1.0
 40
1.0
 40
1.0
 40
1.0
 10
294.1458262297173
 20
143.9215699817033
 30
0.0
 10
294.1886168709967
 20
143.923064493295
 30
0.0
 10
294.2309523594153
 20
143.9334449113462
 30
0.0
 10
294.304714503734
 20
143.9754395250379
 30
0.0
 10
294.3360139552752
 20
144.0055230060117
 30
0.0
 10
294.3647245348173
 20
144.0372479478033
 30
0.0
  0
SPLINE
  5
2F1
330
1F
100
AcDbEntity
  8
0
  6
Continuous
 62
     7
370
    30
100
AcDbSpline
210
0.0
220
0.0
230
1.0
 70
     8
 71
     3
 72
    10
 73
     6
 74
     0
 42
0.000000001
 43
0.00000001
 40
0.0
 40
0.0
 40
0.0
 40
0.0
 40
0.5
 40
0.5
 40
1.0
 40
1.0
 40
1.0
 40
1.0
 10
294.3647245348173
 20
144.0372479478033
 30
0.0
 10
294.4161601836239
 20
144.098631056359
 30
0.0
 10
294.4669068520934
 20
144.160624055219
 30
0.0
 10
294.5613474632696
 20
144.2899997108746
 30
0.0
 10
294.6042946972189
 20
144.357474766318
 30
0.0
 10
294.6451991111173
 20
144.4262818461133
 30
0.0
  0
SPLINE
  5
2F2
330
1F
100
AcDbEntity
  8
0
  6
Continuous
 62
     7
370
    30
100
AcDbSpline
210
0.0
220
0.0
230
1.0
 70
     8
 71
     3
 72
    14
 73
    10
 74
     0
 42
0.000000001
 43
0.00000001
 40
0.0
 40
0.0
 40
0.0
 40
0.0
 40
0.25
 40
0.25
 40
0.5
 40
0.5
 40
0.75
 40
0.75
 40
1.0
 40
1.0
 40
1.0
 40
1.0
 10
294.6451991111173
 20
144.4262818461133
 30
0.0
 10
294.665537876422
 20
144.4599691220745
 30
0.0
 10
294.6864645492721
 20
144.4931919528256
 30
0.0
 10
294.7373036557133
 20
144.5525388901043
 30
0.0
 10
294.7669835258256
 20
144.5796105115722
 30
0.0
 10
294.8321145403265
 20
144.62343956399
 30
0.0
 10
294.8684998589316
 20
144.6405101766945
 30
0.0
 10
294.9440931668331
 20
144.6620827775399
 30
0.0
 10
294.9835503486866
 20
144.6653320387768
 30
0.0
 10
295.0231991111174
 20
144.6668920156033
 30
0.0
  0
SPLINE
  5
2F3
330
1F
100
AcDbEntity
  8
0
  6
Continuous
 62
     7
370
    30
100
AcDbSpline
210
0.0
220
0.0
230
1.0
 70
     8
 71
     3
 72
    12
 73
     8
 74
     0
 42
0.000000001
 43
0.00000001
 40
0.0
 40
0.0
 40
0.0
 40
0.0
 40
0.4999999999999877
 40
0.4999999999999877
 40
0.7499999999999938
 40
0.7499999999999938
 40
1.0
 40
1.0
 40
1.0
 40
1.0
 10
295.0231991111174
 20
144.6668920156033
 30
0.0
 10
295.0959563921298
 20
144.6650867231363
 30
0.0
 10
295.169057148151
 20
144.6557190594593
 30
0.0
 10
295.2697660770684
 20
144.6169031097612
 30
0.0
 10
295.3025262427848
 20
144.600397976212
 30
0.0
 10
295.3630660445648
 20
144.5604760569339
 30
0.0
 10
295.3903594224625
 20
144.5366107020705
 30
0.0
 10
295.4168601280174
 20
144.5117055749233
 30
0.0
  0
SPLINE
  5
2F4
330
1F
100
AcDbEntity
  8
0
  6
Continuous
 62
     7
370
    30
100
AcDbSpline
210
0.0
220
0.0
230
1.0
 70
     8
 71
     3
 72
    12
 73
     8
 74
     0
 42
0.000000001
 43
0.00000001
 40
0.0
 40
0.0
 40
0.0
 40
0.0
 40
0.2499999999999982
 40
0.2499999999999982
 40
0.4999999999999964
 40
0.4999999999999964
 40
1.0
 40
1.0
 40
1.0
 40
1.0
 10
295.4168601280174
 20
144.5117055749233
 30
0.0
 10
295.4419589164646
 20
144.4852627817865
 30
0.0
 10
295.4652008694338
 20
144.4575474528238
 30
0.0
 10
295.5017828848639
 20
144.395330781509
 30
0.0
 10
295.5167103164994
 20
144.3615376307673
 30
0.0
 10
295.5496615430728
 20
144.2580429417069
 30
0.0
 10
295.5566096521868
 20
144.1848075505432
 30
0.0
 10
295.5578092806174
 20
144.1119937105133
 30
0.0
  0
SPLINE
  5
2F5
330
1F
100
AcDbEntity
  8
0
  6
Continuous
 62
     7
370
    30
100
AcDbSpline
210
0.0
220
0.0
230
1.0
 70
     8
 71
     3
 72
    12
 73
     8
 74
     0
 42
0.000000001
 43
0.00000001
 40
0.0
 40
0.0
 40
0.0
 40
0.0
 40
0.5
 40
0.5
 40
0.75
 40
0.75
 40
1.0
 40
1.0
 40
1.0
 40
1.0
 10
295.5578092806174
 20
144.1119937105133
 30
0.0
 10
295.556333332689
 20
144.0451900393467
 30
0.0
 10
295.5499361559914
 20
143.9779007747161
 30
0.0
 10
295.5186693623083
 20
143.8840284250571
 30
0.0
 10
295.5051169555687
 20
143.8533736324959
 30
0.0
 10
295.4706963754725
 20
143.7960801655906
 30
0.0
 10
295.4491794394226
 20
143.7706818810756
 30
0.0
 10
295.4261143653173
 20
143.7464513376333
 30
0.0
  0
SPLINE
  5
2F6
330
1F
100
AcDbEntity
  8
0
  6
Continuous
 62
     7
370
    30
100
AcDbSpline
210
0.0
220
0.0
230
1.0
 70
     8
 71
     3
 72
    10
 73
     6
 74
     0
 42
0.000000001
 43
0.00000001
 40
0.0
 40
0.0
 40
0.0
 40
0.0
 40
0.5
 40
0.5
 40
1.0
 40
1.0
 40
1.0
 40
1.0
 10
295.4261143653173
 20
143.7464513376333
 30
0.0
 10
295.3758059729891
 20
143.6979840376646
 30
0.0
 10
295.3186731594454
 20
143.6560986541234
 30
0.0
 10
295.1914928813256
 20
143.6022238087862
 30
0.0
 10
295.1212590403956
 20
143.590922275071
 30
0.0
 10
295.0513233380426
 20
143.5891294468537
 30
0.0
  0
LINE
  5
2F7
330
1F
100
AcDbEntity
  8
0
  6
Continuous
 62
     7
370
    30
100
AcDbLine
 10
295.0513233872
 20
143.5891294133
 30
0.0
 11
294.9342170241
 21
143.5891294133
 31
0.0
  0
LINE
  5
2F8
330
1F
100
AcDbEntity
  8
0
  6
Continuous
 62
     7
370
    30
100
AcDbLine
 10
294.9342170241
 20
143.5891294133
 30
0.0
 11
294.9342170241
 21
143.8745867673
 31
0.0
  0
LINE
  5
2F9
330
1F
100
AcDbEntity
  8
0
  6
Continuous
 62
     7
370
    30
100
AcDbLine
 10
294.9342170241
 20
143.8745867673
 30
0.0
 11
295.0420641782
 21
143.8745867673
 31
0.0
  0
SPLINE
  5
2FA
330
1F
100
AcDbEntity
  8
0
  6
Continuous
 62
     7
370
    30
100
AcDbSpline
210
0.0
220
0.0
230
1.0
 70
     8
 71
     3
 72
    10
 73
     6
 74
     0
 42
0.000000001
 43
0.00000001
 40
0.0
 40
0.0
 40
0.0
 40
0.0
 40
0.5
 40
0.5
 40
1.0
 40
1.0
 40
1.0
 40
1.0
 10
295.0420637084509
 20
143.8745869341977
 30
0.0
 10
295.0795123628529
 20
143.8752439278911
 30
0.0
 10
295.1171949962432
 20
143.8766031738689
 30
0.0
 10
295.1899495275526
 20
143.8953457680186
 30
0.0
 10
295.2249049287715
 20
143.9108813222636
 30
0.0
 10
295.2524194500173
 20
143.9365191342433
 30
0.0
  0
SPLINE
  5
2FB
330
1F
100
AcDbEntity
  8
0
  6
Continuous
 62
     7
370
    30
100
AcDbSpline
210
0.0
220
0.0
230
1.0
 70
     8
 71
     3
 72
    10
 73
     6
 74
     0
 42
0.000000001
 43
0.00000001
 40
0.0
 40
0.0
 40
0.0
 40
0.0
 40
0.5
 40
0.5
 40
1.0
 40
1.0
 40
1.0
 40
1.0
 10
295.2524194500173
 20
143.9365191342433
 30
0.0
 10
295.2721896507625
 20
143.9583276144722
 30
0.0
 10
295.2909486876003
 20
143.9814407988881
 30
0.0
 10
295.315056397215
 20
144.0343736134455
 30
0.0
 10
295.3194955295395
 20
144.0638850034809
 30
0.0
 10
295.3211143653173
 20
144.0931293037333
 30
0.0
  0
SPLINE
  5
2FC
330
1F
100
AcDbEntity
  8
0
  6
Continuous
 62
     7
370
    30
100
AcDbSpline
210
0.0
220
0.0
230
1.0
 70
     8
 71
     3
 72
    10
 73
     6
 74
     0
 42
0.000000001
 43
0.00000001
 40
0.0
 40
0.0
 40
0.0
 40
0.0
 40
0.5
 40
0.5
 40
1.0
 40
1.0
 40
1.0
 40
1.0
 10
295.3211143653173
 20
144.0931293037333
 30
0.0
 10
295.3204718405367
 20
144.1310070514718
 30
0.0
 10
295.3175980131471
 20
144.1690081309488
 30
0.0
 10
295.2969480650838
 20
144.2420504620837
 30
0.0
 10
295.2783410002287
 20
144.2754262686137
 30
0.0
 10
295.2524194500173
 20
144.3031293037333
 30
0.0
  0
SPLINE
  5
2FD
330
1F
100
AcDbEntity
  8
0
  6
Continuous
 62
     7
370
    30
100
AcDbSpline
210
0.0
220
0.0
230
1.0
 70
     8
 71
     3
 72
    10
 73
     6
 74
     0
 42
0.000000001
 43
0.00000001
 40
0.0
 40
0.0
 40
0.0
 40
0.0
 40
0.5
 40
0.5
 40
1.0
 40
1.0
 40
1.0
 40
1.0
 10
295.2524194500173
 20
144.3031293037333
 30
0.0
 10
295.2256699130444
 20
144.328824883437
 30
0.0
 10
295.1944427226373
 20
144.3498459944385
 30
0.0
 10
295.1258481417933
 20
144.3758543861891
 30
0.0
 10
295.0884683245749
 20
144.3809716015953
 30
0.0
 10
295.0513177551173
 20
144.3814343884833
 30
0.0
  0
SPLINE
  5
2FE
330
1F
100
AcDbEntity
  8
0
  6
Continuous
 62
     7
370
    30
100
AcDbSpline
210
0.0
220
0.0
230
1.0
 70
     8
 71
     3
 72
    10
 73
     6
 74
     0
 42
0.000000001
 43
0.00000001
 40
0.0
 40
0.0
 40
0.0
 40
0.0
 40
0.5
 40
0.5
 40
1.0
 40
1.0
 40
1.0
 40
1.0
 10
295.0513177551173
 20
144.3814343884833
 30
0.0
 10
295.0091588678362
 20
144.3802052630654
 30
0.0
 10
294.9666261584837
 20
144.3711371595386
 30
0.0
 10
294.8960492155085
 20
144.3268326836753
 30
0.0
 10
294.8678152325004
 20
144.2944332863707
 30
0.0
 10
294.8441652128174
 20
144.2597055749233
 30
0.0
  0
SPLINE
  5
2FF
330
1F
100
AcDbEntity
  8
0
  6
Continuous
 62
     7
370
    30
100
AcDbSpline
210
0.0
220
0.0
230
1.0
 70
     8
 71
     3
 72
    14
 73
    10
 74
     0
 42
0.000000001
 43
0.00000001
 40
0.0
 40
0.0
 40
0.0
 40
0.0
 40
0.0001374957185208
 40
0.0001374957185208
 40
0.0001374957185208
 40
0.0002750185600809
 40
0.0002750185600809
 40
0.0002750185600809
 40
0.0005499459289308
 40
0.0005499459289308
 40
0.0005499459289308
 40
0.0005499459289308
 10
294.8441652128174
 20
144.2597055749233
 30
0.0
 10
294.8191563393995
 20
144.2212982855907
 30
0.0
 10
294.7941450754089
 20
144.1828872915777
 30
0.0
 10
294.7684873834102
 20
144.1449103714183
 30
0.0
 10
294.7428265436504
 20
144.1069287921386
 30
0.0
 10
294.716503196164
 20
144.0693884283679
 30
0.0
 10
294.689617844379
 20
144.0322635455916
 30
0.0
 10
294.6358859593605
 20
143.958067382989
 30
0.0
 10
294.5792705144398
 20
143.8859718335631
 30
0.0
 10
294.5220465687173
 20
143.8144343884833
 30
0.0
  0
SPLINE
  5
300
330
1F
100
AcDbEntity
  8
0
  6
Continuous
 62
     7
370
    30
100
AcDbSpline
210
0.0
220
0.0
230
1.0
 70
     8
 71
     3
 72
    14
 73
    10
 74
     0
 42
0.000000001
 43
0.00000001
 40
0.0
 40
0.0
 40
0.0
 40
0.0
 40
0.25
 40
0.25
 40
0.5
 40
0.5
 40
0.75
 40
0.75
 40
1.0
 40
1.0
 40
1.0
 40
1.0
 10
294.5220465687173
 20
143.8144343884833
 30
0.0
 10
294.500414208713
 20
143.7890554560521
 30
0.0
 10
294.4775933077
 20
143.7648105267955
 30
0.0
 10
294.4253570533833
 20
143.7230970819416
 30
0.0
 10
294.397315124512
 20
143.7056661779258
 30
0.0
 10
294.3375990798421
 20
143.6772724028336
 30
0.0
 10
294.3058070400187
 20
143.6661526545834
 30
0.0
 10
294.2414399185848
 20
143.6514412526355
 30
0.0
 10
294.2084709064507
 20
143.6482302123303
 30
0.0
 10
294.1753686026173
 20
143.6457225240733
 30
0.0
  0
SPLINE
  5
301
330
1F
100
AcDbEntity
  8
0
  6
Continuous
 62
     7
370
    30
100
AcDbSpline
210
0.0
220
0.0
230
1.0
 70
     8
 71
     3
 72
    14
 73
    10
 74
     0
 42
0.000000001
 43
0.00000001
 40
0.0
 40
0.0
 40
0.0
 40
0.0
 40
0.25
 40
0.25
 40
0.5
 40
0.5
 40
0.75
 40
0.75
 40
1.0
 40
1.0
 40
1.0
 40
1.0
 10
294.1753686026173
 20
143.6457225240733
 30
0.0
 10
294.1411255111265
 20
143.6452832029037
 30
0.0
 10
294.1069238583923
 20
143.6456370020284
 30
0.0
 10
294.0390492457635
 20
143.6564635580593
 30
0.0
 10
294.0063879406273
 20
143.6656498373443
 30
0.0
 10
293.9434663506649
 20
143.6910408677306
 30
0.0
 10
293.9130253470906
 20
143.7077160950386
 30
0.0
 10
293.8575690513554
 20
143.746877112763
 30
0.0
 10
293.8328695736869
 20
143.7703149905631
 30
0.0
 10
293.8087584331174
 20
143.7945021850933
 30
0.0
  0
SPLINE
  5
302
330
1F
100
AcDbEntity
  8
0
  6
Continuous
 62
     7
370
    30
100
AcDbSpline
210
0.0
220
0.0
230
1.0
 70
     8
 71
     3
 72
    12
 73
     8
 74
     0
 42
0.000000001
 43
0.00000001
 40
0.0
 40
0.0
 40
0.0
 40
0.0
 40
0.4999999999999967
 40
0.4999999999999967
 40
0.7499999999999983
 40
0.7499999999999983
 40
1.0
 40
1.0
 40
1.0
 40
1.0
 10
293.8087584331174
 20
143.7945021850933
 30
0.0
 10
293.7680849929925
 20
143.8398172336423
 30
0.0
 10
293.7314796866069
 20
143.8894211656119
 30
0.0
 10
293.6952835689419
 20
143.9720633475721
 30
0.0
 10
293.68586968361
 20
144.0011099193541
 30
0.0
 10
293.673024733458
 20
144.0605694354115
 30
0.0
 10
293.6711710158121
 20
144.0908494637754
 30
0.0
 10
293.6703008060173
 20
144.1212479478033
 30
0.0
  0
SPLINE
  5
303
330
1F
100
AcDbEntity
  8
0
  6
Continuous
 62
     7
370
    30
100
AcDbSpline
210
0.0
220
0.0
230
1.0
 70
     8
 71
     3
 72
    12
 73
     8
 74
     0
 42
0.000000001
 43
0.00000001
 40
0.0
 40
0.0
 40
0.0
 40
0.0
 40
0.499999999999996
 40
0.499999999999996
 40
0.749999999999998
 40
0.749999999999998
 40
1.0
 40
1.0
 40
1.0
 40
1.0
 10
293.6703008060173
 20
144.1212479478033
 30
0.0
 10
293.6712408363855
 20
144.1851281497928
 30
0.0
 10
293.6765782220251
 20
144.2492824303292
 30
0.0
 10
293.704548668318
 20
144.3411812435666
 30
0.0
 10
293.7169227988678
 20
144.3702878742984
 30
0.0
 10
293.748101071721
 20
144.4252840584116
 30
0.0
 10
293.7682874307957
 20
144.4505232877389
 30
0.0
 10
293.7902499585173
 20
144.4739767613633
 30
0.0
  0
SPLINE
  5
304
330
1F
100
AcDbEntity
  8
0
  6
Continuous
 62
     7
370
    30
100
AcDbSpline
210
0.0
220
0.0
230
1.0
 70
     8
 71
     3
 72
    10
 73
     6
 74
     0
 42
0.000000001
 43
0.00000001
 40
0.0
 40
0.0
 40
0.0
 40
0.0
 40
0.5
 40
0.5
 40
1.0
 40
1.0
 40
1.0
 40
1.0
 10
293.7902499585173
 20
144.4739767613633
 30
0.0
 10
293.8481481352042
 20
144.5278447762203
 30
0.0
 10
293.9166441023826
 20
144.5701427870115
 30
0.0
 10
294.0665403030574
 20
144.6149302655411
 30
0.0
 10
294.1463961062526
 20
144.6193740245828
 30
0.0
 10
294.2251991364174
 20
144.6181293033333
 30
0.0
  0
LINE
  5
305
330
1F
100
AcDbEntity
  8
0
  6
Continuous
 62
     7
370
    30
100
AcDbLine
 10
294.2251992854
 20
144.6181290995
 30
0.0
 11
294.2251992854
 21
144.3344515029
 31
0.0
  0
SPLINE
  5
306
330
1F
100
AcDbEntity
  8
0
  6
Continuous
 62
     7
370
    30
100
AcDbSpline
210
0.0
220
0.0
230
1.0
 70
     8
 71
     3
 72
    10
 73
     6
 74
     0
 42
0.000000001
 43
0.00000001
 40
0.0
 40
0.0
 40
0.0
 40
0.0
 40
0.5
 40
0.5
 40
1.0
 40
1.0
 40
1.0
 40
1.0
 10
294.2251991364174
 20
144.3344513352233
 30
0.0
 10
294.1786327530405
 20
144.3388747361377
 30
0.0
 10
294.1312517981636
 20
144.3398370125699
 30
0.0
 10
294.0410779844241
 20
144.3204779111455
 30
0.0
 10
293.9987981667439
 20
144.2973367890941
 30
0.0
 10
293.9643008060181
 20
144.265400490174
 30
0.0
  0
SPLINE
  5
307
330
1F
100
AcDbEntity
  8
0
  6
Continuous
 62
     7
370
    30
100
AcDbSpline
210
0.0
220
0.0
230
1.0
 70
     8
 71
     3
 72
    10
 73
     6
 74
     0
 42
0.000000001
 43
0.00000001
 40
0.0
 40
0.0
 40
0.0
 40
0.0
 40
0.5
 40
0.5
 40
1.0
 40
1.0
 40
1.0
 40
1.0
 10
293.9643008060173
 20
144.2654004901733
 30
0.0
 10
293.9460629920384
 20
144.2456123406256
 30
0.0
 10
293.9295556223985
 20
144.2239928477595
 30
0.0
 10
293.9092129268312
 20
144.1747793749233
 30
0.0
 10
293.9056430278538
 20
144.1479232215098
 30
0.0
 10
293.9045041958174
 20
144.1212479478033
 30
0.0
  0
SPLINE
  5
308
330
1F
100
AcDbEntity
  8
0
  6
Continuous
 62
     7
370
    30
100
AcDbSpline
210
0.0
220
0.0
230
1.0
 70
     8
 71
     3
 72
    10
 73
     6
 74
     0
 42
0.000000001
 43
0.00000001
 40
0.0
 40
0.0
 40
0.0
 40
0.0
 40
0.5
 40
0.5
 40
1.0
 40
1.0
 40
1.0
 40
1.0
 10
293.9045041958174
 20
144.1212479478033
 30
0.0
 10
293.9057944619233
 20
144.0970862352976
 30
0.0
 10
293.91044687088
 20
144.0733556371367
 30
0.0
 10
293.9318492819918
 20
144.0296602528261
 30
0.0
 10
293.9474832166371
 20
144.0108705915247
 30
0.0
 10
293.9643008060173
 20
143.9931123545833
 30
0.0
  0
LINE
  5
309
330
1F
100
AcDbEntity
  8
0
  6
Continuous
 62
     7
370
    30
100
AcDbLine
 10
295.3303681197
 20
155.6190273005
 30
0.0
 11
295.5578101309
 21
155.6190273005
 31
0.0
  0
LINE
  5
30A
330
1F
100
AcDbEntity
  8
0
  6
Continuous
 62
     7
370
    30
100
AcDbLine
 10
295.5578101309
 20
155.6190273005
 30
0.0
 11
295.5578101309
 21
154.5779260088
 31
0.0
  0
LINE
  5
30B
330
1F
100
AcDbEntity
  8
0
  6
Continuous
 62
     7
370
    30
100
AcDbLine
 10
295.5578101309
 20
154.5779260088
 30
0.0
 11
293.6703005316
 21
154.5779260088
 31
0.0
  0
LINE
  5
30C
330
1F
100
AcDbEntity
  8
0
  6
Continuous
 62
     7
370
    30
100
AcDbLine
 10
293.6703005316
 20
154.5779260088
 30
0.0
 11
293.6703005316
 21
155.5716886397
 31
0.0
  0
LINE
  5
30D
330
1F
100
AcDbEntity
  8
0
  6
Continuous
 62
     7
370
    30
100
AcDbLine
 10
293.6703005316
 20
155.5716886397
 30
0.0
 11
293.8977425428
 21
155.5716886397
 31
0.0
  0
LINE
  5
30E
330
1F
100
AcDbEntity
  8
0
  6
Continuous
 62
     7
370
    30
100
AcDbLine
 10
293.8977425428
 20
155.5716886397
 30
0.0
 11
293.8977425428
 21
154.8737056766
 31
0.0
  0
LINE
  5
30F
330
1F
100
AcDbEntity
  8
0
  6
Continuous
 62
     7
370
    30
100
AcDbLine
 10
293.8977425428
 20
154.8737056766
 30
0.0
 11
294.4437415781
 21
154.8737056766
 31
0.0
  0
LINE
  5
310
330
1F
100
AcDbEntity
  8
0
  6
Continuous
 62
     7
370
    30
100
AcDbLine
 10
294.4437415781
 20
154.8737056766
 30
0.0
 11
294.4437415781
 21
155.5150954265
 31
0.0
  0
LINE
  5
311
330
1F
100
AcDbEntity
  8
0
  6
Continuous
 62
     7
370
    30
100
AcDbLine
 10
294.4437415781
 20
155.5150954265
 30
0.0
 11
294.6711817267
 21
155.5150954265
 31
0.0
  0
LINE
  5
312
330
1F
100
AcDbEntity
  8
0
  6
Continuous
 62
     7
370
    30
100
AcDbLine
 10
294.6711817267
 20
155.5150954265
 30
0.0
 11
294.6711817267
 21
154.8737056766
 31
0.0
  0
LINE
  5
313
330
1F
100
AcDbEntity
  8
0
  6
Continuous
 62
     7
370
    30
100
AcDbLine
 10
294.6711817267
 20
154.8737056766
 30
0.0
 11
295.3303681197
 21
154.8737056766
 31
0.0
  0
LINE
  5
314
330
1F
100
AcDbEntity
  8
0
  6
Continuous
 62
     7
370
    30
100
AcDbLine
 10
295.3303681197
 20
154.8737056766
 30
0.0
 11
295.3303681197
 21
155.6190273005
 31
0.0
  0
SPLINE
  5
315
330
1F
100
AcDbEntity
  8
0
  6
Continuous
 62
     7
370
    30
100
AcDbSpline
210
0.0
220
0.0
230
1.0
 70
     8
 71
     3
 72
    12
 73
     8
 74
     0
 42
0.000000001
 43
0.00000001
 40
0.0
 40
0.0
 40
0.0
 40
0.0
 40
0.2499999999999957
 40
0.2499999999999957
 40
0.4999999999999913
 40
0.4999999999999913
 40
1.0
 40
1.0
 40
1.0
 40
1.0
 10
293.7809957212174
 20
147.2120106596733
 30
0.0
 10
293.8147589642741
 20
147.2438013810799
 30
0.0
 10
293.8500248037119
 20
147.2733827303371
 30
0.0
 10
293.9299394330409
 20
147.3187490230607
 30
0.0
 10
293.9735672109499
 20
147.3365403111464
 30
0.0
 10
294.1056963851321
 20
147.3762467101684
 30
0.0
 10
294.1985871791609
 20
147.3842174364436
 30
0.0
 10
294.2914031329174
 20
147.3860615196833
 30
0.0
  0
LINE
  5
316
330
1F
100
AcDbEntity
  8
0
  6
Continuous
 62
     7
370
    30
100
AcDbLine
 10
294.2914032819
 20
147.386061468
 30
0.0
 11
294.2914032819
 21
147.1201802816
 31
0.0
  0
SPLINE
  5
317
330
1F
100
AcDbEntity
  8
0
  6
Continuous
 62
     7
370
    30
100
AcDbSpline
210
0.0
220
0.0
230
1.0
 70
     8
 71
     3
 72
    12
 73
     8
 74
     0
 42
0.000000001
 43
0.00000001
 40
0.0
 40
0.0
 40
0.0
 40
0.0
 40
0.5
 40
0.5
 40
0.75
 40
0.75
 40
1.0
 40
1.0
 40
1.0
 40
1.0
 10
294.2914031329174
 20
147.1201801821433
 30
0.0
 10
294.232259777932
 20
147.1172843448128
 30
0.0
 10
294.1730822957795
 20
147.1129213290486
 30
0.0
 10
294.0859015764651
 20
147.0957637680349
 30
0.0
 10
294.0573612900623
 20
147.0882577723678
 30
0.0
 10
294.002356866759
 20
147.0669294650773
 30
0.0
 10
293.9769558584981
 20
147.0511267869451
 30
0.0
 10
293.9546906365173
 20
147.0315530325533
 30
0.0
  0
SPLINE
  5
318
330
1F
100
AcDbEntity
  8
0
  6
Continuous
 62
     7
370
    30
100
AcDbSpline
210
0.0
220
0.0
230
1.0
 70
     8
 71
     3
 72
    10
 73
     6
 74
     0
 42
0.000000001
 43
0.00000001
 40
0.0
 40
0.0
 40
0.0
 40
0.0
 40
0.5
 40
0.5
 40
1.0
 40
1.0
 40
1.0
 40
1.0
 10
293.9546906365173
 20
147.0315530325533
 30
0.0
 10
293.9375028696722
 20
147.012927536606
 30
0.0
 10
293.9215222155327
 20
146.9929289538412
 30
0.0
 10
293.9006553371011
 20
146.9473979072446
 30
0.0
 10
293.8964591352868
 20
146.9221537252818
 30
0.0
 10
293.8952499585174
 20
146.8970106596733
 30
0.0
  0
SPLINE
  5
319
330
1F
100
AcDbEntity
  8
0
  6
Continuous
 62
     7
370
    30
100
AcDbSpline
210
0.0
220
0.0
230
1.0
 70
     8
 71
     3
 72
    10
 73
     6
 74
     0
 42
0.000000001
 43
0.00000001
 40
0.0
 40
0.0
 40
0.0
 40
0.0
 40
0.5
 40
0.5
 40
1.0
 40
1.0
 40
1.0
 40
1.0
 10
293.8952499585174
 20
146.8970106596733
 30
0.0
 10
293.8962433662159
 20
146.8800493906382
 30
0.0
 10
293.8987626053511
 20
146.8633739795326
 30
0.0
 10
293.9133695080874
 20
146.8322696998791
 30
0.0
 10
293.9243092763485
 20
146.8192218836477
 30
0.0
 10
293.9358262297173
 20
146.8066038800033
 30
0.0
  0
SPLINE
  5
31A
330
1F
100
AcDbEntity
  8
0
  6
Continuous
 62
     7
370
    30
100
AcDbSpline
210
0.0
220
0.0
230
1.0
 70
     8
 71
     3
 72
    10
 73
     6
 74
     0
 42
0.000000001
 43
0.00000001
 40
0.0
 40
0.0
 40
0.0
 40
0.0
 40
0.5
 40
0.5
 40
1.0
 40
1.0
 40
1.0
 40
1.0
 10
293.9358262297173
 20
146.8066038800033
 30
0.0
 10
294.0295331551264
 20
146.7179576880208
 30
0.0
 10
294.1518867343871
 20
146.6710961130459
 30
0.0
 10
294.3999719645582
 20
146.6210558069012
 30
0.0
 10
294.5277348817402
 20
146.6131132030501
 30
0.0
 10
294.6551652128174
 20
146.6126208291633
 30
0.0
  0
SPLINE
  5
31B
330
1F
100
AcDbEntity
  8
0
  6
Continuous
 62
     7
370
    30
100
AcDbSpline
210
0.0
220
0.0
230
1.0
 70
     8
 71
     3
 72
    12
 73
     8
 74
     0
 42
0.000000001
 43
0.00000001
 40
0.0
 40
0.0
 40
0.0
 40
0.0
 40
0.5
 40
0.5
 40
0.75
 40
0.75
 40
1.0
 40
1.0
 40
1.0
 40
1.0
 10
294.6551652128174
 20
146.6126208291633
 30
0.0
 10
294.7595651261528
 20
146.6137536176292
 30
0.0
 10
294.8641980266548
 20
146.6167950557453
 30
0.0
 10
295.0188908385615
 20
146.64230672856
 30
0.0
 10
295.0695998213209
 20
146.6540896114531
 30
0.0
 10
295.1680720833903
 20
146.6887455674895
 30
0.0
 10
295.2141437673947
 20
146.713738052905
 30
0.0
 10
295.2524194500173
 20
146.7500106596733
 30
0.0
  0
SPLINE
  5
31C
330
1F
100
AcDbEntity
  8
0
  6
Continuous
 62
     7
370
    30
100
AcDbSpline
210
0.0
220
0.0
230
1.0
 70
     8
 71
     3
 72
    17
 73
    13
 74
     0
 42
0.000000001
 43
0.00000001
 40
0.0
 40
0.0
 40
0.0
 40
0.0
 40
0.0000356682417201
 40
0.0000356682417201
 40
0.0000356682417201
 40
0.0000714471585214
 40
0.0000714471585214
 40
0.0000714471585214
 40
0.0001145317769921
 40
0.0001145317769921
 40
0.0001145317769921
 40
0.0001404550942489
 40
0.0001404550942489
 40
0.0001404550942489
 40
0.0001404550942489
 10
295.2524194500173
 20
146.7500106596733
 30
0.0
 10
295.2606102407368
 20
146.7586286124717
 30
0.0
 10
295.2688081297932
 20
146.7672528195769
 30
0.0
 10
295.2765694475552
 20
146.776259489863
 30
0.0
 10
295.2843443412817
 20
146.7852819144627
 30
0.0
 10
295.2916577207405
 20
146.7947471487096
 30
0.0
 10
295.298192567307
 20
146.8047045026989
 30
0.0
 10
295.3060184912607
 20
146.816629112452
 30
0.0
 10
295.3132865468149
 20
146.8293674020389
 30
0.0
 10
295.3170033856482
 20
146.843137896314
 30
0.0
 10
295.3192687761585
 20
146.8515309282568
 30
0.0
 10
295.3201920656959
 20
146.860247691294
 30
0.0
 10
295.3211143653173
 20
146.8688920156033
 30
0.0
  0
SPLINE
  5
31D
330
1F
100
AcDbEntity
  8
0
  6
Continuous
 62
     7
370
    30
100
AcDbSpline
210
0.0
220
0.0
230
1.0
 70
     8
 71
     3
 72
    10
 73
     6
 74
     0
 42
0.000000001
 43
0.00000001
 40
0.0
 40
0.0
 40
0.0
 40
0.0
 40
0.5
 40
0.5
 40
1.0
 40
1.0
 40
1.0
 40
1.0
 10
295.3211143653173
 20
146.8688920156033
 30
0.0
 10
295.3194493754767
 20
146.8979027437938
 30
0.0
 10
295.3148498668361
 20
146.9264518952535
 30
0.0
 10
295.2897942728495
 20
146.9794646096392
 30
0.0
 10
295.2711428524316
 20
147.0018465561554
 30
0.0
 10
295.2513516534174
 20
147.0233665918733
 30
0.0
  0
SPLINE
  5
31E
330
1F
100
AcDbEntity
  8
0
  6
Continuous
 62
     7
370
    30
100
AcDbSpline
210
0.0
220
0.0
230
1.0
 70
     8
 71
     3
 72
    12
 73
     8
 74
     0
 42
0.000000001
 43
0.00000001
 40
0.0
 40
0.0
 40
0.0
 40
0.0
 40
0.25
 40
0.25
 40
0.5
 40
0.5
 40
1.0
 40
1.0
 40
1.0
 40
1.0
 10
295.2513516534174
 20
147.0233665918733
 30
0.0
 10
295.2263542007132
 20
147.0429361586093
 30
0.0
 10
295.1996187672212
 20
147.0590528336261
 30
0.0
 10
295.1418837799463
 20
147.0828145447636
 30
0.0
 10
295.1109600260402
 20
147.0909204671852
 30
0.0
 10
295.0181026955395
 20
147.1097157674882
 30
0.0
 10
294.9544576944701
 20
147.1123270222656
 30
0.0
 10
294.8911483048831
 20
147.1130615066446
 30
0.0
  0
LINE
  5
31F
330
1F
100
AcDbEntity
  8
0
  6
Continuous
 62
     7
370
    30
100
AcDbLine
 10
294.8911489429
 20
147.1130614847
 30
0.0
 11
294.7373857232
 21
147.1130614847
 31
0.0
  0
LINE
  5
320
330
1F
100
AcDbEntity
  8
0
  6
Continuous
 62
     7
370
    30
100
AcDbLine
 10
294.7373857232
 20
147.1130614847
 30
0.0
 11
294.7373857232
 21
146.8365022194
 31
0.0
  0
LINE
  5
321
330
1F
100
AcDbEntity
  8
0
  6
Continuous
 62
     7
370
    30
100
AcDbLine
 10
294.7373857232
 20
146.8365022194
 30
0.0
 11
294.5099455746
 21
146.8365022194
 31
0.0
  0
LINE
  5
322
330
1F
100
AcDbEntity
  8
0
  6
Continuous
 62
     7
370
    30
100
AcDbLine
 10
294.5099455746
 20
146.8365022194
 30
0.0
 11
294.5099455746
 21
147.386061468
 31
0.0
  0
LINE
  5
323
330
1F
100
AcDbEntity
  8
0
  6
Continuous
 62
     7
370
    30
100
AcDbLine
 10
294.5099455746
 20
147.386061468
 30
0.0
 11
295.5578101309
 21
147.386061468
 31
0.0
  0
LINE
  5
324
330
1F
100
AcDbEntity
  8
0
  6
Continuous
 62
     7
370
    30
100
AcDbLine
 10
295.5578101309
 20
147.386061468
 30
0.0
 11
295.5578101309
 21
147.1604003783
 31
0.0
  0
LINE
  5
325
330
1F
100
AcDbEntity
  8
0
  6
Continuous
 62
     7
370
    30
100
AcDbLine
 10
295.5578101309
 20
147.1604003783
 30
0.0
 11
295.3855378064
 21
147.1408242106
 31
0.0
  0
SPLINE
  5
326
330
1F
100
AcDbEntity
  8
0
  6
Continuous
 62
     7
370
    30
100
AcDbSpline
210
0.0
220
0.0
230
1.0
 70
     8
 71
     3
 72
    12
 73
     8
 74
     0
 42
0.000000001
 43
0.00000001
 40
0.0
 40
0.0
 40
0.0
 40
0.0
 40
0.2500000000000008
 40
0.2500000000000008
 40
0.5000000000000016
 40
0.5000000000000016
 40
1.0
 40
1.0
 40
1.0
 40
1.0
 10
295.3855379187166
 20
147.1408243215537
 30
0.0
 10
295.4119052996915
 20
147.1254110781165
 30
0.0
 10
295.4372272024545
 20
147.1087386036735
 30
0.0
 10
295.481862012746
 20
147.0681560930473
 30
0.0
 10
295.5015734884514
 20
147.0437830213716
 30
0.0
 10
295.5462332532721
 20
146.9640681625546
 30
0.0
 10
295.5556889284813
 20
146.9017109550851
 30
0.0
 10
295.5578092806174
 20
146.8404174393333
 30
0.0
  0
SPLINE
  5
327
330
1F
100
AcDbEntity
  8
0
  6
Continuous
 62
     7
370
    30
100
AcDbSpline
210
0.0
220
0.0
230
1.0
 70
     8
 71
     3
 72
    10
 73
     6
 74
     0
 42
0.000000001
 43
0.00000001
 40
0.0
 40
0.0
 40
0.0
 40
0.0
 40
0.5
 40
0.5
 40
1.0
 40
1.0
 40
1.0
 40
1.0
 10
295.5578092806174
 20
146.8404174393333
 30
0.0
 10
295.5566119766679
 20
146.7863128075932
 30
0.0
 10
295.5478916944372
 20
146.7321706312954
 30
0.0
 10
295.5062922403554
 20
146.6335115243118
 30
0.0
 10
295.4733307529415
 20
146.5895481837024
 30
0.0
 10
295.4357245348174
 20
146.5506886257733
 30
0.0
  0
SPLINE
  5
328
330
1F
100
AcDbEntity
  8
0
  6
Continuous
 62
     7
370
    30
100
AcDbSpline
210
0.0
220
0.0
230
1.0
 70
     8
 71
     3
 72
    12
 73
     8
 74
     0
 42
0.000000001
 43
0.00000001
 40
0.0
 40
0.0
 40
0.0
 40
0.0
 40
0.2499999999999969
 40
0.2499999999999969
 40
0.4999999999999938
 40
0.4999999999999938
 40
1.0
 40
1.0
 40
1.0
 40
1.0
 10
295.4357245348174
 20
146.5506886257733
 30
0.0
 10
295.3850918540347
 20
146.502094537236
 30
0.0
 10
295.3281757685211
 20
146.4635563465139
 30
0.0
 10
295.203204227369
 20
146.4043073011231
 30
0.0
 10
295.1360178196792
 20
146.3829843807116
 30
0.0
 10
294.9340441319597
 20
146.336621001997
 30
0.0
 10
294.7944034664427
 20
146.3275517719244
 30
0.0
 10
294.6551652128174
 20
146.3271632020433
 30
0.0
  0
SPLINE
  5
329
330
1F
100
AcDbEntity
  8
0
  6
Continuous
 62
     7
370
    30
100
AcDbSpline
210
0.0
220
0.0
230
1.0
 70
     8
 71
     3
 72
    14
 73
    10
 74
     0
 42
0.000000001
 43
0.00000001
 40
0.0
 40
0.0
 40
0.0
 40
0.0
 40
0.4999999999999943
 40
0.4999999999999943
 40
0.7499999999999916
 40
0.7499999999999916
 40
0.8749999999999958
 40
0.8749999999999958
 40
1.0
 40
1.0
 40
1.0
 40
1.0
 10
294.6551652128174
 20
146.3271632020433
 30
0.0
 10
294.506028319405
 20
146.3285146347138
 30
0.0
 10
294.356567766799
 20
146.3379005617952
 30
0.0
 10
294.1382798831149
 20
146.388167667561
 30
0.0
 10
294.068272044362
 20
146.4114744543315
 30
0.0
 10
293.9685343658169
 20
146.4588686454343
 30
0.0
 10
293.9364387378782
 20
146.4773851689886
 30
0.0
 10
293.8741319267412
 20
146.5188717879042
 30
0.0
 10
293.8460014523017
 20
146.5438566690406
 30
0.0
 10
293.8187245348173
 20
146.5695530325533
 30
0.0
  0
SPLINE
  5
32A
330
1F
100
AcDbEntity
  8
0
  6
Continuous
 62
     7
370
    30
100
AcDbSpline
210
0.0
220
0.0
230
1.0
 70
     8
 71
     3
 72
    12
 73
     8
 74
     0
 42
0.000000001
 43
0.00000001
 40
0.0
 40
0.0
 40
0.0
 40
0.0
 40
0.5000000000000016
 40
0.5000000000000016
 40
0.7500000000000008
 40
0.7500000000000008
 40
1.0
 40
1.0
 40
1.0
 40
1.0
 10
293.8187245348173
 20
146.5695530325533
 30
0.0
 10
293.7756106305224
 20
146.6137904470617
 30
0.0
 10
293.7367751053549
 20
146.6629807621196
 30
0.0
 10
293.6976457393885
 20
146.7457178362594
 30
0.0
 10
293.6874123369067
 20
146.7750148457155
 30
0.0
 10
293.6736073368281
 20
146.8353225980245
 30
0.0
 10
293.6713991203621
 20
146.8660936654375
 30
0.0
 10
293.6703008060173
 20
146.8970106596733
 30
0.0
  0
SPLINE
  5
32B
330
1F
100
AcDbEntity
  8
0
  6
Continuous
 62
     7
370
    30
100
AcDbSpline
210
0.0
220
0.0
230
1.0
 70
     8
 71
     3
 72
    10
 73
     6
 74
     0
 42
0.000000001
 43
0.00000001
 40
0.0
 40
0.0
 40
0.0
 40
0.0
 40
0.5
 40
0.5
 40
1.0
 40
1.0
 40
1.0
 40
1.0
 10
293.6703008060173
 20
146.8970106596733
 30
0.0
 10
293.6715557966209
 20
146.9543475943565
 30
0.0
 10
293.6770757582544
 20
147.0120007598063
 30
0.0
 10
293.7109645926108
 20
147.1198349433161
 30
0.0
 10
293.741570493904
 20
147.1699273850332
 30
0.0
 10
293.7809957212174
 20
147.2120106596733
 30
0.0
  0
LINE
  5
32C
330
1F
100
AcDbEntity
  8
0
  6
Continuous
 62
     7
370
    30
100
AcDbLine
 10
293.6703005316
 20
152.862129242
 30
0.0
 11
295.0420641782
 21
152.862129242
 31
0.0
  0
SPLINE
  5
32D
330
1F
100
AcDbEntity
  8
0
  6
Continuous
 62
     7
370
    30
100
AcDbSpline
210
0.0
220
0.0
230
1.0
 70
     8
 71
     3
 72
    12
 73
     8
 74
     0
 42
0.000000001
 43
0.00000001
 40
0.0
 40
0.0
 40
0.0
 40
0.0
 40
0.5
 40
0.5
 40
0.75
 40
0.75
 40
1.0
 40
1.0
 40
1.0
 40
1.0
 10
295.0420635175812
 20
152.862129303739
 30
0.0
 10
295.1162983275115
 20
152.8603333640874
 30
0.0
 10
295.1909375159084
 20
152.851445750468
 30
0.0
 10
295.294148051084
 20
152.8131916484311
 30
0.0
 10
295.3277829642072
 20
152.7968379330241
 30
0.0
 10
295.3900028233456
 20
152.7566530535093
 30
0.0
 10
295.4179435330708
 20
152.732393278308
 30
0.0
 10
295.4449787721173
 20
152.7069428630633
 30
0.0
  0
SPLINE
  5
32E
330
1F
100
AcDbEntity
  8
0
  6
Continuous
 62
     7
370
    30
100
AcDbSpline
210
0.0
220
0.0
230
1.0
 70
     8
 71
     3
 72
    12
 73
     8
 74
     0
 42
0.000000001
 43
0.00000001
 40
0.0
 40
0.0
 40
0.0
 40
0.0
 40
0.2500000000000016
 40
0.2500000000000016
 40
0.5000000000000031
 40
0.5000000000000031
 40
1.0
 40
1.0
 40
1.0
 40
1.0
 10
295.4449787721173
 20
152.7069428630633
 30
0.0
 10
295.4677380213249
 20
152.6824511079654
 30
0.0
 10
295.4881051531772
 20
152.6563850822535
 30
0.0
 10
295.5176471052541
 20
152.5968872854757
 30
0.0
 10
295.5290723467809
 20
152.5651382924097
 30
0.0
 10
295.5521623963142
 20
152.4687565084168
 30
0.0
 10
295.5567863046676
 20
152.4019474502903
 30
0.0
 10
295.5578092805198
 20
152.3353496490749
 30
0.0
  0
LINE
  5
32F
330
1F
100
AcDbEntity
  8
0
  6
Continuous
 62
     7
370
    30
100
AcDbLine
 10
295.5578101309
 20
152.3353496779
 30
0.0
 11
295.5578101309
 21
152.3260953583
 31
0.0
  0
SPLINE
  5
330
330
1F
100
AcDbEntity
  8
0
  6
Continuous
 62
     7
370
    30
100
AcDbSpline
210
0.0
220
0.0
230
1.0
 70
     8
 71
     3
 72
    12
 73
     8
 74
     0
 42
0.000000001
 43
0.00000001
 40
0.0
 40
0.0
 40
0.0
 40
0.0
 40
0.4999999999999964
 40
0.4999999999999964
 40
0.7499999999999982
 40
0.7499999999999982
 40
1.0
 40
1.0
 40
1.0
 40
1.0
 10
295.5578092810293
 20
152.3260954329763
 30
0.0
 10
295.5568546349324
 20
152.2622684273942
 30
0.0
 10
295.5528783072074
 20
152.198147146376
 30
0.0
 10
295.5278037704162
 20
152.1055185682307
 30
0.0
 10
295.5171681206606
 20
152.0755946464435
 30
0.0
 10
295.4870379059225
 20
152.0199040974668
 30
0.0
 10
295.4673939951142
 20
151.9941897491256
 30
0.0
 10
295.4453347043173
 20
151.9708750664433
 30
0.0
  0
SPLINE
  5
331
330
1F
100
AcDbEntity
  8
0
  6
Continuous
 62
     7
370
    30
100
AcDbSpline
210
0.0
220
0.0
230
1.0
 70
     8
 71
     3
 72
    12
 73
     8
 74
     0
 42
0.000000001
 43
0.00000001
 40
0.0
 40
0.0
 40
0.0
 40
0.0
 40
0.25
 40
0.25
 40
0.5
 40
0.5
 40
1.0
 40
1.0
 40
1.0
 40
1.0
 10
295.4453347043173
 20
151.9708750664433
 30
0.0
 10
295.4190272164645
 20
151.9443539344387
 30
0.0
 10
295.3917438872186
 20
151.9191429764934
 30
0.0
 10
295.3300956439478
 20
151.8782288645787
 30
0.0
 10
295.2962538651454
 20
151.8610867190485
 30
0.0
 10
295.1918613277569
 20
151.8222566046598
 30
0.0
 10
295.1168547281195
 20
151.8134050582116
 30
0.0
 10
295.0420635718359
 20
151.8117733727118
 30
0.0
  0
LINE
  5
332
330
1F
100
AcDbEntity
  8
0
  6
Continuous
 62
     7
370
    30
100
AcDbLine
 10
295.0420641782
 20
151.8117733978
 30
0.0
 11
293.6703005316
 21
151.8117733978
 31
0.0
  0
LINE
  5
333
330
1F
100
AcDbEntity
  8
0
  6
Continuous
 62
     7
370
    30
100
AcDbLine
 10
293.6703005316
 20
151.8117733978
 30
0.0
 11
293.6703005316
 21
152.1075530656
 31
0.0
  0
LINE
  5
334
330
1F
100
AcDbEntity
  8
0
  6
Continuous
 62
     7
370
    30
100
AcDbLine
 10
293.6703005316
 20
152.1075530656
 30
0.0
 11
295.0420641782
 21
152.1075530656
 31
0.0
  0
SPLINE
  5
335
330
1F
100
AcDbEntity
  8
0
  6
Continuous
 62
     7
370
    30
100
AcDbSpline
210
0.0
220
0.0
230
1.0
 70
     8
 71
     3
 72
    10
 73
     6
 74
     0
 42
0.000000001
 43
0.00000001
 40
0.0
 40
0.0
 40
0.0
 40
0.0
 40
0.5
 40
0.5
 40
1.0
 40
1.0
 40
1.0
 40
1.0
 10
295.0420637103039
 20
152.1075530341817
 30
0.0
 10
295.0774461818044
 20
152.1078523686144
 30
0.0
 10
295.1129113715103
 20
152.1094829139254
 30
0.0
 10
295.1823401122898
 20
152.1235217282346
 30
0.0
 10
295.2161366587868
 20
152.1363585329791
 30
0.0
 10
295.2428092806173
 20
152.1598750664433
 30
0.0
  0
SPLINE
  5
336
330
1F
100
AcDbEntity
  8
0
  6
Continuous
 62
     7
370
    30
100
AcDbSpline
210
0.0
220
0.0
230
1.0
 70
     8
 71
     3
 72
    10
 73
     6
 74
     0
 42
0.000000001
 43
0.00000001
 40
0.0
 40
0.0
 40
0.0
 40
0.0
 40
0.5
 40
0.5
 40
1.0
 40
1.0
 40
1.0
 40
1.0
 10
295.2428092806173
 20
152.1598750664433
 30
0.0
 10
295.2627122555434
 20
152.1826319393979
 30
0.0
 10
295.2795342186089
 20
152.2076499271964
 30
0.0
 10
295.2988425213083
 20
152.2653443379403
 30
0.0
 10
295.3013063237402
 20
152.2956495599742
 30
0.0
 10
295.3022499584025
 20
152.3260954017254
 30
0.0
  0
LINE
  5
337
330
1F
100
AcDbEntity
  8
0
  6
Continuous
 62
     7
370
    30
100
AcDbLine
 10
295.3022496285
 20
152.3260953583
 30
0.0
 11
295.3022496285
 21
152.3353496779
 31
0.0
  0
SPLINE
  5
338
330
1F
100
AcDbEntity
  8
0
  6
Continuous
 62
     7
370
    30
100
AcDbSpline
210
0.0
220
0.0
230
1.0
 70
     8
 71
     3
 72
    12
 73
     8
 74
     0
 42
0.000000001
 43
0.00000001
 40
0.0
 40
0.0
 40
0.0
 40
0.0
 40
0.5000000000000033
 40
0.5000000000000033
 40
0.7500000000000017
 40
0.7500000000000017
 40
1.0
 40
1.0
 40
1.0
 40
1.0
 10
295.3022499563832
 20
152.3353496997522
 30
0.0
 10
295.3010664631664
 20
152.3669755081807
 30
0.0
 10
295.2985403762652
 20
152.3988336106552
 30
0.0
 10
295.2844855104364
 20
152.4434986665309
 30
0.0
 10
295.2785773276438
 20
152.4582167362942
 30
0.0
 10
295.2622961756639
 20
152.48536739273
 30
0.0
 10
295.2518475284544
 20
152.4972109759215
 30
0.0
 10
295.2413855517174
 20
152.5090445579733
 30
0.0
  0
SPLINE
  5
339
330
1F
100
AcDbEntity
  8
0
  6
Continuous
 62
     7
370
    30
100
AcDbSpline
210
0.0
220
0.0
230
1.0
 70
     8
 71
     3
 72
    10
 73
     6
 74
     0
 42
0.000000001
 43
0.00000001
 40
0.0
 40
0.0
 40
0.0
 40
0.0
 40
0.5
 40
0.5
 40
1.0
 40
1.0
 40
1.0
 40
1.0
 10
295.2413855517174
 20
152.5090445579733
 30
0.0
 10
295.2139724596571
 20
152.5317457813769
 30
0.0
 10
295.181660889823
 20
152.5468960869662
 30
0.0
 10
295.1128337618177
 20
152.5631035856011
 30
0.0
 10
295.0773898036858
 20
152.5654956466911
 30
0.0
 10
295.0420635314263
 20
152.5663496423943
 30
0.0
  0
LINE
  5
33A
330
1F
100
AcDbEntity
  8
0
  6
Continuous
 62
     7
370
    30
100
AcDbLine
 10
295.0420641782
 20
152.5663495742
 30
0.0
 11
293.6703005316
 21
152.5663495742
 31
0.0
  0
LINE
  5
33B
330
1F
100
AcDbEntity
  8
0
  6
Continuous
 62
     7
370
    30
100
AcDbLine
 10
293.6703005316
 20
152.5663495742
 30
0.0
 11
293.6703005316
 21
152.862129242
 31
0.0
  0
LINE
  5
33C
330
1F
100
AcDbEntity
  8
0
  6
Continuous
 62
     7
370
    30
100
AcDbLine
 10
293.6703005316
 20
146.0170445245
 30
0.0
 11
295.0420641782
 21
146.0170445245
 31
0.0
  0
SPLINE
  5
33D
330
1F
100
AcDbEntity
  8
0
  6
Continuous
 62
     7
370
    30
100
AcDbSpline
210
0.0
220
0.0
230
1.0
 70
     8
 71
     3
 72
    12
 73
     8
 74
     0
 42
0.000000001
 43
0.00000001
 40
0.0
 40
0.0
 40
0.0
 40
0.0
 40
0.5000000000000115
 40
0.5000000000000115
 40
0.7500000000000058
 40
0.7500000000000058
 40
1.0
 40
1.0
 40
1.0
 40
1.0
 10
295.0420635172396
 20
146.0170445579873
 30
0.0
 10
295.1162983273306
 20
146.0152486183318
 30
0.0
 10
295.190937515294
 20
146.0063610048774
 30
0.0
 10
295.2941480507236
 20
145.9681069028323
 30
0.0
 10
295.3277829639322
 20
145.9517531874101
 30
0.0
 10
295.3900028232242
 20
145.911568307842
 30
0.0
 10
295.4179435330216
 20
145.8873085326049
 30
0.0
 10
295.4449787721173
 20
145.8618581172933
 30
0.0
  0
SPLINE
  5
33E
330
1F
100
AcDbEntity
  8
0
  6
Continuous
 62
     7
370
    30
100
AcDbSpline
210
0.0
220
0.0
230
1.0
 70
     8
 71
     3
 72
    12
 73
     8
 74
     0
 42
0.000000001
 43
0.00000001
 40
0.0
 40
0.0
 40
0.0
 40
0.0
 40
0.2499999999999984
 40
0.2499999999999984
 40
0.4999999999999968
 40
0.4999999999999968
 40
1.0
 40
1.0
 40
1.0
 40
1.0
 10
295.4449787721173
 20
145.8618581172933
 30
0.0
 10
295.4677978282057
 20
145.8373020026261
 30
0.0
 10
295.4881539071399
 20
145.8112001756459
 30
0.0
 10
295.5175898552181
 20
145.7519198111734
 30
0.0
 10
295.5290814543775
 20
145.7200329798123
 30
0.0
 10
295.5521906388379
 20
145.6235189212564
 30
0.0
 10
295.5567855513743
 20
145.5569117454102
 30
0.0
 10
295.5578092806587
 20
145.4902648942608
 30
0.0
  0
LINE
  5
33F
330
1F
100
AcDbEntity
  8
0
  6
Continuous
 62
     7
370
    30
100
AcDbLine
 10
295.5578101309
 20
145.4902647275
 30
0.0
 11
295.5578101309
 21
145.4810106408
 31
0.0
  0
SPLINE
  5
340
330
1F
100
AcDbEntity
  8
0
  6
Continuous
 62
     7
370
    30
100
AcDbSpline
210
0.0
220
0.0
230
1.0
 70
     8
 71
     3
 72
    12
 73
     8
 74
     0
 42
0.000000001
 43
0.00000001
 40
0.0
 40
0.0
 40
0.0
 40
0.0
 40
0.4999999999999964
 40
0.4999999999999964
 40
0.7499999999999982
 40
0.7499999999999982
 40
1.0
 40
1.0
 40
1.0
 40
1.0
 10
295.5578092812406
 20
145.4810107013432
 30
0.0
 10
295.5568546351089
 20
145.4171836934352
 30
0.0
 10
295.5528783088614
 20
145.353062409992
 30
0.0
 10
295.5278037723508
 20
145.2604338279843
 30
0.0
 10
295.5171681226889
 20
145.2305099050473
 30
0.0
 10
295.4870379072943
 20
145.1748193536275
 30
0.0
 10
295.4673939959027
 20
145.1491050041747
 30
0.0
 10
295.4453347043173
 20
145.1257903206833
 30
0.0
  0
SPLINE
  5
341
330
1F
100
AcDbEntity
  8
0
  6
Continuous
 62
     7
370
    30
100
AcDbSpline
210
0.0
220
0.0
230
1.0
 70
     8
 71
     3
 72
    12
 73
     8
 74
     0
 42
0.000000001
 43
0.00000001
 40
0.0
 40
0.0
 40
0.0
 40
0.0
 40
0.25
 40
0.25
 40
0.5
 40
0.5
 40
1.0
 40
1.0
 40
1.0
 40
1.0
 10
295.4453347043173
 20
145.1257903206833
 30
0.0
 10
295.4190274871339
 20
145.0992694615461
 30
0.0
 10
295.3917444660659
 20
145.0740587261088
 30
0.0
 10
295.3300969679358
 20
145.0331448863022
 30
0.0
 10
295.2962556060501
 20
145.0160028043512
 30
0.0
 10
295.1918642903107
 20
144.9771725938531
 30
0.0
 10
295.1168585950522
 20
144.9683203968017
 30
0.0
 10
295.0420681965199
 20
144.9666887278465
 30
0.0
  0
LINE
  5
342
330
1F
100
AcDbEntity
  8
0
  6
Continuous
 62
     7
370
    30
100
AcDbLine
 10
295.0420679035
 20
144.9666886803
 30
0.0
 11
293.6703005316
 21
144.9666886803
 31
0.0
  0
LINE
  5
343
330
1F
100
AcDbEntity
  8
0
  6
Continuous
 62
     7
370
    30
100
AcDbLine
 10
293.6703005316
 20
144.9666886803
 30
0.0
 11
293.6703005316
 21
145.2624683481
 31
0.0
  0
LINE
  5
344
330
1F
100
AcDbEntity
  8
0
  6
Continuous
 62
     7
370
    30
100
AcDbLine
 10
293.6703005316
 20
145.2624683481
 30
0.0
 11
295.0420641782
 21
145.2624683481
 31
0.0
  0
SPLINE
  5
345
330
1F
100
AcDbEntity
  8
0
  6
Continuous
 62
     7
370
    30
100
AcDbSpline
210
0.0
220
0.0
230
1.0
 70
     8
 71
     3
 72
    10
 73
     6
 74
     0
 42
0.000000001
 43
0.00000001
 40
0.0
 40
0.0
 40
0.0
 40
0.0
 40
0.5
 40
0.5
 40
1.0
 40
1.0
 40
1.0
 40
1.0
 10
295.0420637104833
 20
145.2624682884132
 30
0.0
 10
295.0774461818903
 20
145.2627676228451
 30
0.0
 10
295.1129113718825
 20
145.2643981682155
 30
0.0
 10
295.1823401124691
 20
145.278436982536
 30
0.0
 10
295.2161366588573
 20
145.2912737872813
 30
0.0
 10
295.2428092806173
 20
145.3147903206833
 30
0.0
  0
SPLINE
  5
346
330
1F
100
AcDbEntity
  8
0
  6
Continuous
 62
     7
370
    30
100
AcDbSpline
210
0.0
220
0.0
230
1.0
 70
     8
 71
     3
 72
    10
 73
     6
 74
     0
 42
0.000000001
 43
0.00000001
 40
0.0
 40
0.0
 40
0.0
 40
0.0
 40
0.5
 40
0.5
 40
1.0
 40
1.0
 40
1.0
 40
1.0
 10
295.2428092806173
 20
145.3147903206833
 30
0.0
 10
295.2627122555427
 20
145.3375471936372
 30
0.0
 10
295.2795342186103
 20
145.3625651814363
 30
0.0
 10
295.2988425213072
 20
145.4202595921788
 30
0.0
 10
295.3013063237401
 20
145.4505648142137
 30
0.0
 10
295.3022499584025
 20
145.4810106559653
 30
0.0
  0
LINE
  5
347
330
1F
100
AcDbEntity
  8
0
  6
Continuous
 62
     7
370
    30
100
AcDbLine
 10
295.3022496285
 20
145.4810106408
 30
0.0
 11
295.3022496285
 21
145.4902647275
 31
0.0
  0
SPLINE
  5
348
330
1F
100
AcDbEntity
  8
0
  6
Continuous
 62
     7
370
    30
100
AcDbSpline
210
0.0
220
0.0
230
1.0
 70
     8
 71
     3
 72
    12
 73
     8
 74
     0
 42
0.000000001
 43
0.00000001
 40
0.0
 40
0.0
 40
0.0
 40
0.0
 40
0.5000000000000067
 40
0.5000000000000067
 40
0.7500000000000033
 40
0.7500000000000033
 40
1.0
 40
1.0
 40
1.0
 40
1.0
 10
295.3022499594951
 20
145.4902648708249
 30
0.0
 10
295.3010666065651
 20
145.5218869304652
 30
0.0
 10
295.2985398845524
 20
145.5537486859653
 30
0.0
 10
295.2844877571715
 20
145.5984076514333
 30
0.0
 10
295.2785872103644
 20
145.6131125144807
 30
0.0
 10
295.2623009813751
 20
145.640277625703
 30
0.0
 10
295.2518498139104
 20
145.6521236450735
 30
0.0
 10
295.2413855517174
 20
145.6639598122133
 30
0.0
  0
SPLINE
  5
349
330
1F
100
AcDbEntity
  8
0
  6
Continuous
 62
     7
370
    30
100
AcDbSpline
210
0.0
220
0.0
230
1.0
 70
     8
 71
     3
 72
    10
 73
     6
 74
     0
 42
0.000000001
 43
0.00000001
 40
0.0
 40
0.0
 40
0.0
 40
0.0
 40
0.5
 40
0.5
 40
1.0
 40
1.0
 40
1.0
 40
1.0
 10
295.2413855517174
 20
145.6639598122133
 30
0.0
 10
295.2139724595609
 20
145.6866610356483
 30
0.0
 10
295.1816608896405
 20
145.7018113412848
 30
0.0
 10
295.1128337614239
 20
145.718018839898
 30
0.0
 10
295.0773898036184
 20
145.7204109009554
 30
0.0
 10
295.0420635312556
 20
145.7212648966284
 30
0.0
  0
LINE
  5
34A
330
1F
100
AcDbEntity
  8
0
  6
Continuous
 62
     7
370
    30
100
AcDbLine
 10
295.0420641782
 20
145.7212648567
 30
0.0
 11
293.6703005316
 21
145.7212648567
 31
0.0
  0
LINE
  5
34B
330
1F
100
AcDbEntity
  8
0
  6
Continuous
 62
     7
370
    30
100
AcDbLine
 10
293.6703005316
 20
145.7212648567
 30
0.0
 11
293.6703005316
 21
146.0170445245
 31
0.0
  0
LINE
  5
34C
330
1F
100
AcDbEntity
  8
0
  6
Continuous
 62
     7
370
    30
100
AcDbLine
 10
293.6703005316
 20
149.0840614753
 30
0.0
 11
293.6703005316
 21
150.1240954132
 31
0.0
  0
LINE
  5
34D
330
1F
100
AcDbEntity
  8
0
  6
Continuous
 62
     7
370
    30
100
AcDbLine
 10
293.6703005316
 20
150.1240954132
 30
0.0
 11
293.8977425428
 21
150.1240954132
 31
0.0
  0
LINE
  5
34E
330
1F
100
AcDbEntity
  8
0
  6
Continuous
 62
     7
370
    30
100
AcDbLine
 10
293.8977425428
 20
150.1240954132
 30
0.0
 11
293.8977425428
 21
149.7371971037
 31
0.0
  0
LINE
  5
34F
330
1F
100
AcDbEntity
  8
0
  6
Continuous
 62
     7
370
    30
100
AcDbLine
 10
293.8977425428
 20
149.7371971037
 30
0.0
 11
295.5578101309
 21
149.7371971037
 31
0.0
  0
LINE
  5
350
330
1F
100
AcDbEntity
  8
0
  6
Continuous
 62
     7
370
    30
100
AcDbLine
 10
295.5578101309
 20
149.7371971037
 30
0.0
 11
295.5578101309
 21
149.4414174268
 31
0.0
  0
LINE
  5
351
330
1F
100
AcDbEntity
  8
0
  6
Continuous
 62
     7
370
    30
100
AcDbLine
 10
295.5578101309
 20
149.4414174268
 30
0.0
 11
293.8977425428
 21
149.4414174268
 31
0.0
  0
LINE
  5
352
330
1F
100
AcDbEntity
  8
0
  6
Continuous
 62
     7
370
    30
100
AcDbLine
 10
293.8977425428
 20
149.4414174268
 30
0.0
 11
293.8977425428
 21
149.0840614753
 31
0.0
  0
LINE
  5
353
330
1F
100
AcDbEntity
  8
0
  6
Continuous
 62
     7
370
    30
100
AcDbLine
 10
293.8977425428
 20
149.0840614753
 30
0.0
 11
293.6703005316
 21
149.0840614753
 31
0.0
  0
LINE
  5
354
330
1F
100
AcDbEntity
  8
0
  6
Continuous
 62
     7
370
    30
100
AcDbLine
 10
289.4741819682
 20
141.3039869841
 30
0.0
 11
292.4741824599
 21
141.3039869841
 31
0.0
  0
LINE
  5
355
330
1F
100
AcDbEntity
  8
0
  6
Continuous
 62
     7
370
    30
100
AcDbLine
 10
289.4741819682
 20
142.706397197
 30
0.0
 11
289.4741819682
 21
141.3039869841
 31
0.0
  0
LINE
  5
356
330
1F
100
AcDbEntity
  8
0
  6
Continuous
 62
     7
370
    30
100
AcDbLine
 10
291.5912551316
 20
142.706397197
 30
0.0
 11
289.4741819682
 21
142.706397197
 31
0.0
  0
LINE
  5
357
330
1F
100
AcDbEntity
  8
0
  6
Continuous
 62
     7
370
    30
100
AcDbLine
 10
291.5912551316
 20
144.4740525659
 30
0.0
 11
291.5912551316
 21
142.706397197
 31
0.0
  0
LINE
  5
358
330
1F
100
AcDbEntity
  8
0
  6
Continuous
 62
     7
370
    30
100
AcDbLine
 10
292.4741824599
 20
141.3039869841
 30
0.0
 11
292.4741824599
 21
144.4740525659
 31
0.0
  0
LINE
  5
359
330
1F
100
AcDbEntity
  8
0
  6
Continuous
 62
     7
370
    30
100
AcDbLine
 10
292.4741824599
 20
144.4740525659
 30
0.0
 11
291.5912551316
 21
144.4740525659
 31
0.0
  0
ARC
  5
35A
330
1F
100
AcDbEntity
  8
0
  6
Continuous
 62
     7
370
    30
100
AcDbCircle
 10
349.9081421486
 20
120.540693025
 30
0.0
 40
0.7115586001340276
100
AcDbArc
 50
273.7019867987
 51
306.4721869493
  0
LINE
  5
35B
330
1F
100
AcDbEntity
  8
0
  6
Continuous
 62
     7
370
    30
100
AcDbLine
 10
349.9540855619
 20
119.8306183543
 30
0.0
 11
349.9209342035
 21
120.3598163303
 31
0.0
  0
ARC
  5
35C
330
1F
100
AcDbEntity
  8
0
  6
Continuous
 62
     7
370
    30
100
AcDbCircle
 10
349.8791151683
 20
120.7760290445
 30
0.0
 40
0.4183081378276939
100
AcDbArc
 50
275.7374921407
 51
303.0681293189
  0
ARC
  5
35D
330
1F
100
AcDbEntity
  8
0
  6
Continuous
 62
     7
370
    30
100
AcDbCircle
 10
349.9791918731
 20
120.6223248686
 30
0.0
 40
0.2348951597734741
100
AcDbArc
 50
303.0681293215
 51
333.985696187
  0
ARC
  5
35E
330
1F
100
AcDbEntity
  8
0
  6
Continuous
 62
     7
370
    30
100
AcDbCircle
 10
349.8687329961
 20
120.6762334025
 30
0.0
 40
0.3578068904609279
100
AcDbArc
 50
333.9856961894
 51
25.10706787
  0
ARC
  5
35F
330
1F
100
AcDbEntity
  8
0
  6
Continuous
 62
     7
370
    30
100
AcDbCircle
 10
350.0402636974
 20
120.7566100586
 30
0.0
 40
0.1683783067300851
100
AcDbArc
 50
25.107067869
 51
157.2190583414
  0
ARC
  5
360
330
1F
100
AcDbEntity
  8
0
  6
Continuous
 62
     7
370
    30
100
AcDbCircle
 10
351.0171318071
 20
120.3463548171
 30
0.0
 40
1.227897380141582
100
AcDbArc
 50
157.2190583346
 51
169.1452299086
  0
ARC
  5
361
330
1F
100
AcDbEntity
  8
0
  6
Continuous
 62
     7
370
    30
100
AcDbCircle
 10
348.309748946
 20
120.8654983785
 30
0.0
 40
1.528809349621535
100
AcDbArc
 50
332.1276123519
 51
349.1452315687
  0
ARC
  5
362
330
1F
100
AcDbEntity
  8
0
  6
Continuous
 62
     7
370
    30
100
AcDbCircle
 10
349.235360248
 20
120.3759834061
 30
0.0
 40
0.4817271223940212
100
AcDbArc
 50
194.2742526664
 51
332.1276123525
  0
ARC
  5
363
330
1F
100
AcDbEntity
  8
0
  6
Continuous
 62
     7
370
    30
100
AcDbCircle
 10
350.3269678576
 20
120.6537083429
 30
0.0
 40
1.608109967570015
100
AcDbArc
 50
168.5692855758
 51
194.2742526673
  0
ARC
  5
364
330
1F
100
AcDbEntity
  8
0
  6
Continuous
 62
     7
370
    30
100
AcDbCircle
 10
349.2723593698
 20
120.8669431052
 30
0.0
 40
0.5321600959040028
100
AcDbArc
 50
110.6007155737
 51
168.5692855742
  0
ARC
  5
365
330
1F
100
AcDbEntity
  8
0
  6
Continuous
 62
     7
370
    30
100
AcDbCircle
 10
349.3206765485
 20
120.738402209
 30
0.0
 40
0.6694820233352221
100
AcDbArc
 50
95.5913415605
 51
110.600715576
  0
LINE
  5
366
330
1F
100
AcDbEntity
  8
0
  6
Continuous
 62
     7
370
    30
100
AcDbLine
 10
349.2554464819
 20
121.4046987917
 30
0.0
 11
349.2861447366
 21
120.8804107483
 31
0.0
  0
ARC
  5
367
330
1F
100
AcDbEntity
  8
0
  6
Continuous
 62
     7
370
    30
100
AcDbCircle
 10
349.3196143386
 20
120.589719937
 30
0.0
 40
0.2926112963064315
100
AcDbArc
 50
96.5681551116
 51
123.7017885217
  0
ARC
  5
368
330
1F
100
AcDbEntity
  8
0
  6
Continuous
 62
     7
370
    30
100
AcDbCircle
 10
349.2868762101
 20
120.6388053704
 30
0.0
 40
0.233609899460146
100
AcDbArc
 50
123.7017885213
 51
172.8668910892
  0
ARC
  5
369
330
1F
100
AcDbEntity
  8
0
  6
Continuous
 62
     7
370
    30
100
AcDbCircle
 10
349.4259033468
 20
120.6214070347
 30
0.0
 40
0.3737214508430988
100
AcDbArc
 50
172.8668910906
 51
199.4934512073
  0
ARC
  5
36A
330
1F
100
AcDbEntity
  8
0
  6
Continuous
 62
     7
370
    30
100
AcDbCircle
 10
349.1883237786
 20
120.537306256
 30
0.0
 40
0.1216956739990619
100
AcDbArc
 50
199.4934512082
 51
342.6180132094
  0
ARC
  5
36B
330
1F
100
AcDbEntity
  8
0
  6
Continuous
 62
     7
370
    30
100
AcDbCircle
 10
347.7270133895
 20
120.9947495235
 30
0.0
 40
1.652931252338937
100
AcDbArc
 50
342.6179854017
 51
349.5435160791
  0
ARC
  5
36C
330
1F
100
AcDbEntity
  8
0
  6
Continuous
 62
     7
370
    30
100
AcDbCircle
 10
351.3963192372
 20
120.3175670644
 30
0.0
 40
2.078339507989157
100
AcDbArc
 50
157.357862673
 51
169.5435438543
  0
ARC
  5
36D
330
1F
100
AcDbEntity
  8
0
  6
Continuous
 62
     7
370
    30
100
AcDbCircle
 10
348.97111251
 20
120.6530589311
 30
0.0
 40
1.609241542984295
100
AcDbArc
 50
346.5281687279
 51
13.7503724318
  0
ARC
  5
36E
330
1F
100
AcDbEntity
  8
0
  6
Continuous
 62
     7
370
    30
100
AcDbCircle
 10
349.9927030665
 20
120.903047588
 30
0.0
 40
0.5575088803229535
100
AcDbArc
 50
13.750372434
 51
157.3578626713
  0
ARC
  5
36F
330
1F
100
AcDbEntity
  8
0
  6
Continuous
 62
     7
370
    30
100
AcDbCircle
 10
350.0088465677
 20
120.4044605573
 30
0.0
 40
0.5421458931670139
100
AcDbArc
 50
306.4721869498
 51
346.5281687271
  0
SPLINE
  5
370
330
1F
100
AcDbEntity
  8
0
  6
Continuous
 62
     7
370
    30
100
AcDbSpline
210
0.0
220
0.0
230
1.0
 70
     8
 71
     3
 72
    12
 73
     8
 74
     0
 42
0.000000001
 43
0.00000001
 40
0.0
 40
0.0
 40
0.0
 40
0.0
 40
0.5000000000000017
 40
0.5000000000000017
 40
0.7500000000000008
 40
0.7500000000000008
 40
1.0
 40
1.0
 40
1.0
 40
1.0
 10
347.2987174216173
 20
152.3713997577333
 30
0.0
 10
347.3961598508186
 20
152.6603863060049
 30
0.0
 10
347.5550029717239
 20
152.9224714734627
 30
0.0
 10
347.8191812031629
 20
153.2947929310533
 30
0.0
 10
347.9136573365998
 20
153.4144948449918
 30
0.0
 10
348.1605517628357
 20
153.5968290275411
 30
0.0
 10
348.3073618585926
 20
153.6484153441005
 30
0.0
 10
348.4600048474173
 20
153.6639889718333
 30
0.0
  0
SPLINE
  5
371
330
1F
100
AcDbEntity
  8
0
  6
Continuous
 62
     7
370
    30
100
AcDbSpline
210
0.0
220
0.0
230
1.0
 70
     8
 71
     3
 72
    14
 73
    10
 74
     0
 42
0.000000001
 43
0.00000001
 40
0.0
 40
0.0
 40
0.0
 40
0.0
 40
0.25
 40
0.25
 40
0.5
 40
0.5
 40
0.75
 40
0.75
 40
1.0
 40
1.0
 40
1.0
 40
1.0
 10
347.2987174216173
 20
152.3713997577333
 30
0.0
 10
347.2799573724939
 20
152.565058800763
 30
0.0
 10
347.2875072641596
 20
152.756831962314
 30
0.0
 10
347.3508822745389
 20
153.1369179448054
 30
0.0
 10
347.4052234891921
 20
153.3245812284385
 30
0.0
 10
347.5499924768311
 20
153.6807537454859
 30
0.0
 10
347.6439177300152
 20
153.8542249388165
 30
0.0
 10
347.8883333846039
 20
154.1514234346576
 30
0.0
 10
348.0419356987611
 20
154.2760959070804
 30
0.0
 10
348.2136718967169
 20
154.369013200053
 30
0.0
  0
ARC
  5
372
330
1F
100
AcDbEntity
  8
0
  6
Continuous
 62
     7
370
    30
100
AcDbCircle
 10
348.1989420764
 20
154.8126595953
 30
0.0
 40
0.4438908555124499
100
AcDbArc
 50
322.2180420715
 51
271.901619482
  0
SPLINE
  5
373
330
1F
100
AcDbEntity
  8
0
  6
Continuous
 62
     7
370
    30
100
AcDbSpline
210
0.0
220
0.0
230
1.0
 70
     8
 71
     3
 72
    24
 73
    20
 74
     0
 42
0.000000001
 43
0.00000001
 40
0.0
 40
0.0
 40
0.0
 40
0.0
 40
0.1249999999999972
 40
0.1249999999999972
 40
0.1874999999999974
 40
0.1874999999999974
 40
0.2499999999999976
 40
0.2499999999999976
 40
0.3749999999999979
 40
0.3749999999999979
 40
0.4999999999999983
 40
0.4999999999999983
 40
0.6249999999999987
 40
0.6249999999999987
 40
0.7499999999999991
 40
0.7499999999999991
 40
0.8749999999999994
 40
0.8749999999999994
 40
1.0
 40
1.0
 40
1.0
 40
1.0
 10
348.4600048474173
 20
153.6639889718333
 30
0.0
 10
348.5538819930721
 20
153.5901385252377
 30
0.0
 10
348.6490323561271
 20
153.5173770743658
 30
0.0
 10
348.8092950738097
 20
153.4362251403664
 30
0.0
 10
348.8649661753422
 20
153.415584897548
 30
0.0
 10
348.9829808588426
 20
153.3933131061701
 30
0.0
 10
349.0425393892288
 20
153.3920274491797
 30
0.0
 10
349.2197594082557
 20
153.4167932962129
 30
0.0
 10
349.333322965388
 20
153.4717344072012
 30
0.0
 10
349.496778176898
 20
153.6445542865823
 30
0.0
 10
349.5424907405418
 20
153.7625882706336
 30
0.0
 10
349.5595955687687
 20
154.0016599307962
 30
0.0
 10
349.534483765351
 20
154.1229384665292
 30
0.0
 10
349.4271132626596
 20
154.3345816679519
 30
0.0
 10
349.3418481148519
 20
154.4251993465098
 30
0.0
 10
349.1375705221769
 20
154.5482739559936
 30
0.0
 10
349.0203209712398
 20
154.5829900742441
 30
0.0
 10
348.7821943017134
 20
154.6001988036357
 30
0.0
 10
348.6625705781602
 20
154.5817068121484
 30
0.0
 10
348.5497703146142
 20
154.5407062189222
 30
0.0
  0
SPLINE
  5
374
330
1F
100
AcDbEntity
  8
0
  6
Continuous
 62
     7
370
    30
100
AcDbSpline
210
0.0
220
0.0
230
1.0
 70
     8
 71
     3
 72
    18
 73
    14
 74
     0
 42
0.000000001
 43
0.00000001
 40
0.0
 40
0.0
 40
0.0
 40
0.0
 40
0.2500000000000003
 40
0.2500000000000003
 40
0.3750000000000002
 40
0.3750000000000002
 40
0.5000000000000001
 40
0.5000000000000001
 40
0.625
 40
0.625
 40
0.7499999999999999
 40
0.7499999999999999
 40
1.0
 40
1.0
 40
1.0
 40
1.0
 10
348.3450947102173
 20
158.2400720912833
 30
0.0
 10
348.3565623158901
 20
157.7338469612022
 30
0.0
 10
348.2419796629774
 20
157.251074064148
 30
0.0
 10
348.0252626598956
 20
156.5352579703264
 30
0.0
 10
347.9429935875539
 20
156.2987386014287
 30
0.0
 10
347.7512248403849
 20
155.8390862814877
 30
0.0
 10
347.6401253122077
 20
155.6158199888019
 30
0.0
 10
347.4248857621361
 20
155.1662868793604
 30
0.0
 10
347.3241682729944
 20
154.9378321359821
 30
0.0
 10
347.1630566229981
 20
154.4709646728438
 30
0.0
 10
347.1002159982474
 20
154.2329180350475
 30
0.0
 10
346.9529079223976
 20
153.5080463554554
 30
0.0
 10
346.908148624602
 20
153.010412122901
 30
0.0
 10
346.9108433128173
 20
152.5136376798533
 30
0.0
  0
SPLINE
  5
375
330
1F
100
AcDbEntity
  8
0
  6
Continuous
 62
     7
370
    30
100
AcDbSpline
210
0.0
220
0.0
230
1.0
 70
     8
 71
     3
 72
    20
 73
    16
 74
     0
 42
0.000000001
 43
0.00000001
 40
0.0
 40
0.0
 40
0.0
 40
0.0
 40
0.2500000000000002
 40
0.2500000000000002
 40
0.3750000000000001
 40
0.3750000000000001
 40
0.5000000000000001
 40
0.5000000000000001
 40
0.6250000000000001
 40
0.6250000000000001
 40
0.75
 40
0.75
 40
0.875
 40
0.875
 40
1.0
 40
1.0
 40
1.0
 40
1.0
 10
346.9108433128173
 20
152.5136376798533
 30
0.0
 10
346.8198550230443
 20
153.0225184940494
 30
0.0
 10
346.7773911426185
 20
153.5317917732812
 30
0.0
 10
346.7811902487651
 20
154.2962475905585
 30
0.0
 10
346.7937217875319
 20
154.5511573089231
 30
0.0
 10
346.8416259209764
 20
155.0611614839303
 30
0.0
 10
346.8771227102576
 20
155.3173377812164
 30
0.0
 10
346.9717951450314
 20
155.8240344999247
 30
0.0
 10
347.0304119727629
 20
156.074260279148
 30
0.0
 10
347.1803228958208
 20
156.5656664594273
 30
0.0
 10
347.2734770063628
 20
156.8089346078679
 30
0.0
 10
347.5055696847255
 20
157.2689092800126
 30
0.0
 10
347.6433685210239
 20
157.4845692221904
 30
0.0
 10
347.9630333255886
 20
157.8868640638532
 30
0.0
 10
348.1456705667795
 20
158.0737935302551
 30
0.0
 10
348.3450947102173
 20
158.2400720912833
 30
0.0
  0
SPLINE
  5
376
330
1F
100
AcDbEntity
  8
0
  6
Continuous
 62
     7
370
    30
100
AcDbSpline
210
0.0
220
0.0
230
1.0
 70
     8
 71
     3
 72
    14
 73
    10
 74
     0
 42
0.000000001
 43
0.00000001
 40
0.0
 40
0.0
 40
0.0
 40
0.0
 40
0.2500000000000005
 40
0.2500000000000005
 40
0.5000000000000003
 40
0.5000000000000003
 40
0.7500000000000001
 40
0.7500000000000001
 40
1.0
 40
1.0
 40
1.0
 40
1.0
 10
348.4264658559173
 20
158.2906678045333
 30
0.0
 10
348.4403461779067
 20
157.981012887868
 30
0.0
 10
348.4405425024804
 20
157.6714711284483
 30
0.0
 10
348.3971442240025
 20
157.0527497304572
 30
0.0
 10
348.350731107892
 20
156.749339027478
 30
0.0
 10
348.2032985012543
 20
156.1557324851797
 30
0.0
 10
348.10472388457
 20
155.8641372907062
 30
0.0
 10
347.8544061770274
 20
155.2971269717135
 30
0.0
 10
347.7034062272134
 20
155.0280578562319
 30
0.0
 10
347.5237706580174
 20
154.7749859361133
 30
0.0
  0
SPLINE
  5
377
330
1F
100
AcDbEntity
  8
0
  6
Continuous
 62
     7
370
    30
100
AcDbSpline
210
0.0
220
0.0
230
1.0
 70
     8
 71
     3
 72
    16
 73
    12
 74
     0
 42
0.000000001
 43
0.00000001
 40
0.0
 40
0.0
 40
0.0
 40
0.0
 40
0.25
 40
0.25
 40
0.5
 40
0.5
 40
0.75
 40
0.75
 40
0.875
 40
0.875
 40
1.0
 40
1.0
 40
1.0
 40
1.0
 10
347.5237706580174
 20
154.7749859361133
 30
0.0
 10
347.7592548365506
 20
154.9924727734504
 30
0.0
 10
347.9472766564523
 20
155.2451068944522
 30
0.0
 10
348.2459562350825
 20
155.8076655173366
 30
0.0
 10
348.3559354216992
 20
156.1059310171573
 30
0.0
 10
348.5147982527378
 20
156.7160335024297
 30
0.0
 10
348.5615508700954
 20
157.0353806027416
 30
0.0
 10
348.5638317626132
 20
157.509105047386
 30
0.0
 10
348.5535342726209
 20
157.6665808886121
 30
0.0
 10
348.5084588076425
 20
157.9805755003349
 30
0.0
 10
348.4733790470754
 20
158.1375643327502
 30
0.0
 10
348.4264658559173
 20
158.2906678045333
 30
0.0
  0
SPLINE
  5
378
330
1F
100
AcDbEntity
  8
0
  6
Continuous
 62
     7
370
    30
100
AcDbSpline
210
0.0
220
0.0
230
1.0
 70
     8
 71
     3
 72
    10
 73
     6
 74
     0
 42
0.000000001
 43
0.00000001
 40
0.0
 40
0.0
 40
0.0
 40
0.0
 40
0.5
 40
0.5
 40
1.0
 40
1.0
 40
1.0
 40
1.0
 10
348.3102502678174
 20
158.3465102694233
 30
0.0
 10
348.1882936049165
 20
158.2762107200134
 30
0.0
 10
348.0693549409228
 20
158.2005593192129
 30
0.0
 10
347.8463307324412
 20
158.0286450234024
 30
0.0
 10
347.744669586528
 20
157.9323174306546
 30
0.0
 10
347.6543978708174
 20
157.8241604808633
 30
0.0
  0
SPLINE
  5
379
330
1F
100
AcDbEntity
  8
0
  6
Continuous
 62
     7
370
    30
100
AcDbSpline
210
0.0
220
0.0
230
1.0
 70
     8
 71
     3
 72
    12
 73
     8
 74
     0
 42
0.000000001
 43
0.00000001
 40
0.0
 40
0.0
 40
0.0
 40
0.0
 40
0.4999999999999954
 40
0.4999999999999954
 40
0.7499999999999977
 40
0.7499999999999977
 40
1.0
 40
1.0
 40
1.0
 40
1.0
 10
348.3102502678174
 20
158.3465102694233
 30
0.0
 10
348.1592977119032
 20
158.3403973804104
 30
0.0
 10
348.0142736211172
 20
158.285971047919
 30
0.0
 10
347.8367737146836
 20
158.1478155995202
 30
0.0
 10
347.7853746283442
 20
158.0924076941264
 30
0.0
 10
347.7040507479323
 20
157.9672529915227
 30
0.0
 10
347.6740154818476
 20
157.8970869317139
 30
0.0
 10
347.6543978708174
 20
157.8241604808633
 30
0.0
  0
ARC
  5
37A
330
1F
100
AcDbEntity
  8
0
  6
Continuous
 62
     7
370
    30
100
AcDbCircle
 10
347.2117781125
 20
127.8012701832
 30
0.0
 40
0.7604619735388183
100
AcDbArc
 50
283.9255669022
 51
336.9334654301
  0
ARC
  5
37B
330
1F
100
AcDbEntity
  8
0
  6
Continuous
 62
     7
370
    30
100
AcDbCircle
 10
347.0789254165
 20
128.3370776116
 30
0.0
 40
1.312494073278891
100
AcDbArc
 50
254.7829572283
 51
283.9255669261
  0
ARC
  5
37C
330
1F
100
AcDbEntity
  8
0
  6
Continuous
 62
     7
370
    30
100
AcDbCircle
 10
346.9340301153
 20
127.8044006074
 30
0.0
 40
0.7604619735371941
100
AcDbArc
 50
201.8613682079
 51
254.7829576882
  0
ARC
  5
37D
330
1F
100
AcDbEntity
  8
0
  6
Continuous
 62
     7
370
    30
100
AcDbCircle
 10
347.3057511216
 20
127.9535404468
 30
0.0
 40
1.160985628531026
100
AcDbArc
 50
156.9334654278
 51
201.8613686946
  0
ARC
  5
37E
330
1F
100
AcDbEntity
  8
0
  6
Continuous
 62
     7
370
    30
100
AcDbCircle
 10
346.9372491336
 20
128.1104655342
 30
0.0
 40
0.7604619735299232
100
AcDbArc
 50
104.871079921
 51
156.9334654301
  0
ARC
  5
37F
330
1F
100
AcDbEntity
  8
0
  6
Continuous
 62
     7
370
    30
100
AcDbCircle
 10
347.0789254016
 20
127.5769233388
 30
0.0
 40
1.312494073300201
100
AcDbArc
 50
75.954037377
 51
104.871079919
  0
ARC
  5
380
330
1F
100
AcDbEntity
  8
0
  6
Continuous
 62
     7
370
    30
100
AcDbCircle
 10
347.2129037038
 20
128.1124504191
 30
0.0
 40
0.7604619735210157
100
AcDbArc
 50
22.6520394264
 51
75.9540379812
  0
ARC
  5
381
330
1F
100
AcDbEntity
  8
0
  6
Continuous
 62
     7
370
    30
100
AcDbCircle
 10
346.8858289146
 20
127.9852071156
 30
0.0
 40
0.3253368496310048
100
AcDbArc
 50
101.9686998486
 51
168.1811458649
  0
ARC
  5
382
330
1F
100
AcDbEntity
  8
0
  6
Continuous
 62
     7
370
    30
100
AcDbCircle
 10
347.0220979592
 20
127.9566922271
 30
0.0
 40
0.4645573631559993
100
AcDbArc
 50
168.1811458651
 51
191.4043589923
  0
ARC
  5
383
330
1F
100
AcDbEntity
  8
0
  6
Continuous
 62
     7
370
    30
100
AcDbCircle
 10
346.8856261968
 20
127.929163888
 30
0.0
 40
0.3253368496309996
100
AcDbArc
 50
191.4043589945
 51
257.6168050149
  0
ARC
  5
384
330
1F
100
AcDbEntity
  8
0
  6
Continuous
 62
     7
370
    30
100
AcDbCircle
 10
347.0750236958
 20
128.7917994369
 30
0.0
 40
1.208519448433769
100
AcDbArc
 50
257.6168050148
 51
281.9686998471
  0
ARC
  5
385
330
1F
100
AcDbEntity
  8
0
  6
Continuous
 62
     7
370
    30
100
AcDbCircle
 10
347.2581757246
 20
127.9278163137
 30
0.0
 40
0.3253368496309894
100
AcDbArc
 50
281.9686998479
 51
348.1811458649
  0
ARC
  5
386
330
1F
100
AcDbEntity
  8
0
  6
Continuous
 62
     7
370
    30
100
AcDbCircle
 10
347.12190668
 20
127.9563312022
 30
0.0
 40
0.4645573631560522
100
AcDbArc
 50
348.1811458651
 51
11.4043589923
  0
ARC
  5
387
330
1F
100
AcDbEntity
  8
0
  6
Continuous
 62
     7
370
    30
100
AcDbCircle
 10
347.2583784424
 20
127.9838595413
 30
0.0
 40
0.3253368496605199
100
AcDbArc
 50
11.4043589945
 51
77.6168050142
  0
ARC
  5
388
330
1F
100
AcDbEntity
  8
0
  6
Continuous
 62
     7
370
    30
100
AcDbCircle
 10
347.0689809434
 20
127.1212239925
 30
0.0
 40
1.208519448380021
100
AcDbArc
 50
77.6168050136
 51
101.9686998483
  0
ARC
  5
389
330
1F
100
AcDbEntity
  8
0
  6
Continuous
 62
     7
370
    30
100
AcDbCircle
 10
346.8432761245
 20
127.9581952706
 30
0.0
 40
1.160985628539927
100
AcDbArc
 50
336.9334654278
 51
22.6520394259
  0
ARC
  5
38A
330
1F
100
AcDbEntity
  8
0
  6
Continuous
 62
     7
370
    30
100
AcDbCircle
 10
347.2555659352
 20
122.5206412329
 30
0.0
 40
0.3253368496615968
100
AcDbArc
 50
11.611606567
 51
77.8240525792
  0
ARC
  5
38B
330
1F
100
AcDbEntity
  8
0
  6
Continuous
 62
     7
370
    30
100
AcDbCircle
 10
347.0692899527
 20
121.6573262492
 30
0.0
 40
1.208519448381211
100
AcDbArc
 50
77.8240525819
 51
81.7425429784
  0
LINE
  5
38C
330
1F
100
AcDbEntity
  8
0
  6
Continuous
 62
     7
370
    30
100
AcDbLine
 10
347.2428583982
 20
122.8533170398
 30
0.0
 11
347.4033960583
 21
123.3844279524
 31
0.0
  0
ARC
  5
38D
330
1F
100
AcDbEntity
  8
0
  6
Continuous
 62
     7
370
    30
100
AcDbCircle
 10
347.2096263468
 20
122.6490667846
 30
0.0
 40
0.7604619735210352
100
AcDbArc
 50
22.8592869983
 51
75.2379653898
  0
ARC
  5
38E
330
1F
100
AcDbEntity
  8
0
  6
Continuous
 62
     7
370
    30
100
AcDbCircle
 10
346.8405591487
 20
122.4934756488
 30
0.0
 40
1.160985628568897
100
AcDbArc
 50
337.1407130046
 51
22.8592869977
  0
ARC
  5
38F
330
1F
100
AcDbEntity
  8
0
  6
Continuous
 62
     7
370
    30
100
AcDbCircle
 10
347.2096263468
 20
122.337884513
 30
0.0
 40
0.7604619735209796
100
AcDbArc
 50
284.1328144571
 51
337.1407130051
  0
ARC
  5
390
330
1F
100
AcDbEntity
  8
0
  6
Continuous
 62
     7
370
    30
100
AcDbCircle
 10
347.0748364276
 20
122.873207889
 30
0.0
 40
1.312494073321345
100
AcDbArc
 50
254.9902057653
 51
284.1328144588
  0
ARC
  5
391
330
1F
100
AcDbEntity
  8
0
  6
Continuous
 62
     7
370
    30
100
AcDbCircle
 10
346.9318688589
 20
122.3400102582
 30
0.0
 40
0.7604619735210304
100
AcDbArc
 50
202.0686157766
 51
254.9902057653
  0
ARC
  5
392
330
1F
100
AcDbEntity
  8
0
  6
Continuous
 62
     7
370
    30
100
AcDbCircle
 10
347.3030479731
 20
122.4904936906
 30
0.0
 40
1.160985628559213
100
AcDbArc
 50
157.1407129986
 51
202.068616265
  0
ARC
  5
393
330
1F
100
AcDbEntity
  8
0
  6
Continuous
 62
     7
370
    30
100
AcDbCircle
 10
346.9339807751
 20
122.6460848264
 30
0.0
 40
0.7604619735842217
100
AcDbArc
 50
108.6535661454
 51
157.1407129989
  0
LINE
  5
394
330
1F
100
AcDbEntity
  8
0
  6
Continuous
 62
     7
370
    30
100
AcDbLine
 10
346.6907498868
 20
123.366598713
 30
0.0
 11
346.8085119011
 21
122.8373336818
 31
0.0
  0
ARC
  5
395
330
1F
100
AcDbEntity
  8
0
  6
Continuous
 62
     7
370
    30
100
AcDbCircle
 10
346.8830139703
 20
122.5206412329
 30
0.0
 40
0.3253368496616331
100
AcDbArc
 50
103.2381304243
 51
168.3883934312
  0
ARC
  5
396
330
1F
100
AcDbEntity
  8
0
  6
Continuous
 62
     7
370
    30
100
AcDbCircle
 10
347.0193852658
 20
122.4926194358
 30
0.0
 40
0.4645573630533785
100
AcDbArc
 50
168.3883934323
 51
191.6116065604
  0
ARC
  5
397
330
1F
100
AcDbEntity
  8
0
  6
Continuous
 62
     7
370
    30
100
AcDbCircle
 10
346.8830139703
 20
122.4645976387
 30
0.0
 40
0.3253368496616259
100
AcDbArc
 50
191.6116065584
 51
257.8240525773
  0
ARC
  5
398
330
1F
100
AcDbEntity
  8
0
  6
Continuous
 62
     7
370
    30
100
AcDbCircle
 10
347.0692899528
 20
123.3279126224
 30
0.0
 40
1.208519448381202
100
AcDbArc
 50
257.8240525814
 51
282.1759474126
  0
ARC
  5
399
330
1F
100
AcDbEntity
  8
0
  6
Continuous
 62
     7
370
    30
100
AcDbCircle
 10
347.2555659352
 20
122.4645976387
 30
0.0
 40
0.3253368496616259
100
AcDbArc
 50
282.1759474177
 51
348.3883934416
  0
ARC
  5
39A
330
1F
100
AcDbEntity
  8
0
  6
Continuous
 62
     7
370
    30
100
AcDbCircle
 10
347.1191946397
 20
122.4926194358
 30
0.0
 40
0.4645573630533743
100
AcDbArc
 50
348.3883934396
 51
11.6116065664
  0
SPLINE
  5
39B
330
1F
100
AcDbEntity
  8
0
  6
Continuous
 62
     7
370
    30
100
AcDbSpline
210
0.0
220
0.0
230
1.0
 70
     8
 71
     3
 72
    64
 73
    60
 74
     0
 42
0.000000001
 43
0.00000001
 40
0.0
 40
0.0
 40
0.0
 40
0.0
 40
0.1250000000000004
 40
0.1250000000000004
 40
0.1875000000000006
 40
0.1875000000000006
 40
0.2500000000000007
 40
0.2500000000000007
 40
0.2812500000000008
 40
0.2812500000000008
 40
0.3125000000000009
 40
0.3125000000000009
 40
0.343750000000001
 40
0.343750000000001
 40
0.3750000000000011
 40
0.3750000000000011
 40
0.4062500000000012
 40
0.4062500000000012
 40
0.4375000000000013
 40
0.4375000000000013
 40
0.4687500000000013
 40
0.4687500000000013
 40
0.5000000000000014
 40
0.5000000000000014
 40
0.5625000000000014
 40
0.5625000000000014
 40
0.5937500000000013
 40
0.5937500000000013
 40
0.6250000000000013
 40
0.6250000000000013
 40
0.6562500000000013
 40
0.6562500000000013
 40
0.6875000000000013
 40
0.6875000000000013
 40
0.7187500000000013
 40
0.7187500000000013
 40
0.7500000000000012
 40
0.7500000000000012
 40
0.7812500000000012
 40
0.7812500000000012
 40
0.7968750000000012
 40
0.7968750000000012
 40
0.8125000000000011
 40
0.8125000000000011
 40
0.8437500000000014
 40
0.8437500000000014
 40
0.8750000000000018
 40
0.8750000000000018
 40
0.906250000000002
 40
0.906250000000002
 40
0.9218750000000018
 40
0.9218750000000018
 40
0.9375000000000016
 40
0.9375000000000016
 40
0.9687500000000007
 40
0.9687500000000007
 40
0.9843750000000004
 40
0.9843750000000004
 40
1.0
 40
1.0
 40
1.0
 40
1.0
 10
347.0402029713173
 20
141.7189755946933
 30
0.0
 10
347.1501176315519
 20
142.4164001130659
 30
0.0
 10
347.1936525302164
 20
143.1147364210707
 30
0.0
 10
347.1559036495015
 20
144.1636563904506
 30
0.0
 10
347.126504033777
 20
144.5145156005782
 30
0.0
 10
347.0165336511292
 20
145.2127602023528
 30
0.0
 10
346.9362414090593
 20
145.554193987113
 30
0.0
 10
346.7508816394591
 20
146.0466209403853
 30
0.0
 10
346.6776776071853
 20
146.2083232840615
 30
0.0
 10
346.5071026462775
 20
146.5198479462088
 30
0.0
 10
346.4113347487626
 20
146.6669304072691
 30
0.0
 10
346.2005209783939
 20
146.9451293311774
 30
0.0
 10
346.0853887349181
 20
147.07617426197
 30
0.0
 10
345.8405509669668
 20
147.3261945480786
 30
0.0
 10
345.7107431079957
 20
147.4450940137686
 30
0.0
 10
345.447964365755
 20
147.6802364736213
 30
0.0
 10
345.3153938823594
 20
147.7967463123719
 30
0.0
 10
345.0609622557306
 20
148.0393897990448
 30
0.0
 10
344.9392230303471
 20
148.1656330068562
 30
0.0
 10
344.7130834491982
 20
148.4337007720233
 30
0.0
 10
344.6084692382723
 20
148.5753331512219
 30
0.0
 10
344.419034786609
 20
148.8763855033419
 30
0.0
 10
344.3351040879729
 20
149.0344843711024
 30
0.0
 10
344.1254854504195
 20
149.5228567888616
 30
0.0
 10
344.0381804156206
 20
149.8759505290644
 30
0.0
 10
344.0426194461954
 20
150.4050368765534
 30
0.0
 10
344.0676537509178
 20
150.5854576893286
 30
0.0
 10
344.1639803926019
 20
150.9257977750173
 30
0.0
 10
344.2346974215837
 20
151.0889433688245
 30
0.0
 10
344.4204469071797
 20
151.3958830566712
 30
0.0
 10
344.5315361215958
 20
151.5339205221562
 30
0.0
 10
344.7933672474758
 20
151.7763993412124
 30
0.0
 10
344.9426406120137
 20
151.8777928375632
 30
0.0
 10
345.2650677319764
 20
152.0240506840889
 30
0.0
 10
345.4422375901986
 20
152.0695398523503
 30
0.0
 10
345.7967174735423
 20
152.1019854113086
 30
0.0
 10
345.9784581703966
 20
152.09106153597
 30
0.0
 10
346.3267107810028
 20
152.0183784751905
 30
0.0
 10
346.4982071388347
 20
151.9549672954734
 30
0.0
 10
346.7253982504957
 20
151.8135800965328
 30
0.0
 10
346.7974810381216
 20
151.7576294667395
 30
0.0
 10
346.9244766075967
 20
151.6325990095254
 30
0.0
 10
346.9800344663762
 20
151.5634564306655
 30
0.0
 10
347.120798756767
 20
151.3344025588191
 30
0.0
 10
347.1755221886914
 20
151.1567329734421
 30
0.0
 10
347.1880566939456
 20
150.7991126175171
 30
0.0
 10
347.1461825866658
 20
150.6182759067449
 30
0.0
 10
346.9667407084514
 20
150.3068901483343
 30
0.0
 10
346.8279775144341
 20
150.1780391473218
 30
0.0
 10
346.5819043207732
 20
150.0717164779252
 30
0.0
 10
346.4922787260848
 20
150.0502150456434
 30
0.0
 10
346.3135304589723
 20
150.0389319806356
 30
0.0
 10
346.2220808696472
 20
150.0487761842965
 30
0.0
 10
345.9625231839993
 20
150.1195274399786
 30
0.0
 10
345.8026687532086
 20
150.2238936399872
 30
0.0
 10
345.6398885835068
 20
150.4371281522059
 30
0.0
 10
345.5974711107209
 20
150.518667468505
 30
0.0
 10
345.5391041484464
 20
150.6884844851963
 30
0.0
 10
345.5221591423101
 20
150.7780609197027
 30
0.0
 10
345.5145650013174
 20
150.8683489162333
 30
0.0
  0
SPLINE
  5
39C
330
1F
100
AcDbEntity
  8
0
  6
Continuous
 62
     7
370
    30
100
AcDbSpline
210
0.0
220
0.0
230
1.0
 70
     8
 71
     3
 72
    34
 73
    30
 74
     0
 42
0.000000001
 43
0.00000001
 40
0.0
 40
0.0
 40
0.0
 40
0.0
 40
0.1249999999999998
 40
0.1249999999999998
 40
0.2499999999999996
 40
0.2499999999999996
 40
0.3749999999999994
 40
0.3749999999999994
 40
0.4374999999999991
 40
0.4374999999999991
 40
0.4999999999999988
 40
0.4999999999999988
 40
0.6249999999999986
 40
0.6249999999999986
 40
0.6874999999999988
 40
0.6874999999999988
 40
0.749999999999999
 40
0.749999999999999
 40
0.8124999999999993
 40
0.8124999999999993
 40
0.8437499999999994
 40
0.8437499999999994
 40
0.8749999999999996
 40
0.8749999999999996
 40
0.9374999999999998
 40
0.9374999999999998
 40
0.9687499999999999
 40
0.9687499999999999
 40
1.0
 40
1.0
 40
1.0
 40
1.0
 10
347.0402029713173
 20
141.7189755946933
 30
0.0
 10
347.2209741008989
 20
142.1073242326958
 30
0.0
 10
347.3519012482543
 20
142.508608593345
 30
0.0
 10
347.5217980821988
 20
143.3350425066815
 30
0.0
 10
347.5615612057663
 20
143.764021419218
 30
0.0
 10
347.5613500493416
 20
144.6114691641247
 30
0.0
 10
347.5239627973866
 20
145.0326256973819
 30
0.0
 10
347.3969316607824
 20
145.6594746281053
 30
0.0
 10
347.3419793148765
 20
145.8668968690139
 30
0.0
 10
347.2056718232851
 20
146.2671058057005
 30
0.0
 10
347.1239551931378
 20
146.4612461492137
 30
0.0
 10
346.8383460446116
 20
147.0258756791043
 30
0.0
 10
346.5917918216757
 20
147.3795108812203
 30
0.0
 10
346.1904999312139
 20
147.8776519020798
 30
0.0
 10
346.0508932398423
 20
148.0390739638792
 30
0.0
 10
345.7649073250497
 20
148.356465767007
 30
0.0
 10
345.6179096679579
 20
148.5116789492116
 30
0.0
 10
345.3373142855596
 20
148.8337586722718
 30
0.0
 10
345.2027784524678
 20
149.0035431811207
 30
0.0
 10
345.0596436651484
 20
149.2878277421948
 30
0.0
 10
345.0214145449567
 20
149.3888955538541
 30
0.0
 10
344.9691446791186
 20
149.5961752507635
 30
0.0
 10
344.9547146725298
 20
149.7012038435609
 30
0.0
 10
344.9420435281604
 20
150.0199224333684
 30
0.0
 10
344.9714990031682
 20
150.2390318670102
 30
0.0
 10
345.1066707682547
 20
150.5305946601275
 30
0.0
 10
345.1687276039275
 20
150.6206949151911
 30
0.0
 10
345.323096233644
 20
150.7680662296421
 30
0.0
 10
345.4152321184998
 20
150.8258185139591
 30
0.0
 10
345.5145650013174
 20
150.8683489162333
 30
0.0
  0
SPLINE
  5
39D
330
1F
100
AcDbEntity
  8
0
  6
Continuous
 62
     7
370
    30
100
AcDbSpline
210
0.0
220
0.0
230
1.0
 70
     8
 71
     3
 72
    10
 73
     6
 74
     0
 42
0.000000001
 43
0.00000001
 40
0.0
 40
0.0
 40
0.0
 40
0.0
 40
0.5000000000000003
 40
0.5000000000000003
 40
1.0
 40
1.0
 40
1.0
 40
1.0
 10
347.1201632984173
 20
152.6650099880033
 30
0.0
 10
347.1055854336803
 20
152.9974549758794
 30
0.0
 10
347.1175875230674
 20
153.3309510687146
 30
0.0
 10
347.2219919265337
 20
153.988387499972
 30
0.0
 10
347.318819711306
 20
154.3033250948383
 30
0.0
 10
347.4681181629172
 20
154.601315530003
 30
0.0
  0
SPLINE
  5
39E
330
1F
100
AcDbEntity
  8
0
  6
Continuous
 62
     7
370
    30
100
AcDbSpline
210
0.0
220
0.0
230
1.0
 70
     8
 71
     3
 72
    12
 73
     8
 74
     0
 42
0.000000001
 43
0.00000001
 40
0.0
 40
0.0
 40
0.0
 40
0.0
 40
0.25
 40
0.25
 40
0.5
 40
0.5
 40
1.0
 40
1.0
 40
1.0
 40
1.0
 10
347.4681181629173
 20
154.6013155300033
 30
0.0
 10
347.3653852873359
 20
154.4651460784862
 30
0.0
 10
347.283395711386
 20
154.3185560091489
 30
0.0
 10
347.1589720882807
 20
154.005504728681
 30
0.0
 10
347.1166668375467
 20
153.8390594524523
 30
0.0
 10
347.040393931909
 20
153.3410433074033
 30
0.0
 10
347.052063284017
 20
152.9978993104881
 30
0.0
 10
347.1201632984173
 20
152.6650099880033
 30
0.0
  0
SPLINE
  5
39F
330
1F
100
AcDbEntity
  8
0
  6
Continuous
 62
     7
370
    30
100
AcDbSpline
210
0.0
220
0.0
230
1.0
 70
     8
 71
     3
 72
    20
 73
    16
 74
     0
 42
0.000000001
 43
0.00000001
 40
0.0
 40
0.0
 40
0.0
 40
0.0
 40
0.25
 40
0.25
 40
0.375
 40
0.375
 40
0.5
 40
0.5
 40
0.625
 40
0.625
 40
0.75
 40
0.75
 40
0.875
 40
0.875
 40
1.0
 40
1.0
 40
1.0
 40
1.0
 10
346.9242116078173
 20
141.5385386592733
 30
0.0
 10
346.9839637549622
 20
142.052025010381
 30
0.0
 10
346.9952580423102
 20
142.5629407501926
 30
0.0
 10
346.9447971110823
 20
143.3257387733174
 30
0.0
 10
346.91672708014
 20
143.579408001498
 30
0.0
 10
346.837777287538
 20
144.0855364384384
 30
0.0
 10
346.7867075181395
 20
144.3390678880734
 30
0.0
 10
346.6612785718624
 20
144.8390399015
 30
0.0
 10
346.5874951579466
 20
145.0852204875132
 30
0.0
 10
346.4078642193244
 20
145.5665582532911
 30
0.0
 10
346.3000326948657
 20
145.803685735158
 30
0.0
 10
346.040292134137
 20
146.2486335429193
 30
0.0
 10
345.8895845959156
 20
146.4554788181276
 30
0.0
 10
345.5459565181476
 20
146.8375082292819
 30
0.0
 10
345.3522481613078
 20
147.0129392977118
 30
0.0
 10
345.1430449208174
 20
147.1667331630533
 30
0.0
  0
SPLINE
  5
3A0
330
1F
100
AcDbEntity
  8
0
  6
Continuous
 62
     7
370
    30
100
AcDbSpline
210
0.0
220
0.0
230
1.0
 70
     8
 71
     3
 72
    18
 73
    14
 74
     0
 42
0.000000001
 43
0.00000001
 40
0.0
 40
0.0
 40
0.0
 40
0.0
 40
0.2499999999999998
 40
0.2499999999999998
 40
0.3749999999999998
 40
0.3749999999999998
 40
0.4999999999999999
 40
0.4999999999999999
 40
0.6249999999999999
 40
0.6249999999999999
 40
0.7499999999999999
 40
0.7499999999999999
 40
1.0
 40
1.0
 40
1.0
 40
1.0
 10
345.1430449208174
 20
147.1667331630533
 30
0.0
 10
345.1625030087297
 20
146.6607521642235
 30
0.0
 10
345.3063445227322
 20
146.1858748396531
 30
0.0
 10
345.5663568320722
 20
145.4846241435815
 30
0.0
 10
345.662911618088
 20
145.25356833776
 30
0.0
 10
345.8823837806771
 20
144.8064805640236
 30
0.0
 10
346.0069061669444
 20
144.5904131719353
 30
0.0
 10
346.2491875916496
 20
144.1548585925607
 30
0.0
 10
346.3636640507411
 20
143.9329786190535
 30
0.0
 10
346.5529767717996
 20
143.4768175889262
 30
0.0
 10
346.6302325857235
 20
143.2430512844512
 30
0.0
 10
346.8215182597856
 20
142.5285245793127
 30
0.0
 10
346.8965739155054
 20
142.0345510246486
 30
0.0
 10
346.9242116078173
 20
141.5385386592733
 30
0.0
  0
SPLINE
  5
3A1
330
1F
100
AcDbEntity
  8
0
  6
Continuous
 62
     7
370
    30
100
AcDbSpline
210
0.0
220
0.0
230
1.0
 70
     8
 71
     3
 72
    18
 73
    14
 74
     0
 42
0.000000001
 43
0.00000001
 40
0.0
 40
0.0
 40
0.0
 40
0.0
 40
0.2499999999999989
 40
0.2499999999999989
 40
0.3749999999999991
 40
0.3749999999999991
 40
0.4999999999999992
 40
0.4999999999999992
 40
0.6249999999999994
 40
0.6249999999999994
 40
0.7499999999999996
 40
0.7499999999999996
 40
1.0
 40
1.0
 40
1.0
 40
1.0
 10
341.8965538172174
 20
155.7498169280933
 30
0.0
 10
342.2197769325161
 20
155.360044935694
 30
0.0
 10
342.6228060584373
 20
155.0706207173242
 30
0.0
 10
343.255741143098
 20
154.6721836227696
 30
0.0
 10
343.4729256913504
 20
154.547522144707
 30
0.0
 10
343.9190806215244
 20
154.3261598040325
 30
0.0
 10
344.1493464819594
 20
154.2304071219517
 30
0.0
 10
344.6065901860932
 20
154.0320733744223
 30
0.0
 10
344.8324180633503
 20
153.9255963712592
 30
0.0
 10
345.2601538899305
 20
153.6786869658526
 30
0.0
 10
345.4636691753967
 20
153.5401349017309
 30
0.0
 10
346.050130002543
 20
153.0893552221144
 30
0.0
 10
346.4101781966964
 20
152.7429327603053
 30
0.0
 10
346.7338299054173
 20
152.3660485870133
 30
0.0
  0
SPLINE
  5
3A2
330
1F
100
AcDbEntity
  8
0
  6
Continuous
 62
     7
370
    30
100
AcDbSpline
210
0.0
220
0.0
230
1.0
 70
     8
 71
     3
 72
    20
 73
    16
 74
     0
 42
0.000000001
 43
0.00000001
 40
0.0
 40
0.0
 40
0.0
 40
0.0
 40
0.2500000000000007
 40
0.2500000000000007
 40
0.3750000000000006
 40
0.3750000000000006
 40
0.5000000000000006
 40
0.5000000000000006
 40
0.6250000000000004
 40
0.6250000000000004
 40
0.7500000000000003
 40
0.7500000000000003
 40
0.8750000000000002
 40
0.8750000000000002
 40
1.0
 40
1.0
 40
1.0
 40
1.0
 10
346.7338299054173
 20
152.3660485870133
 30
0.0
 10
346.4689122892569
 20
152.8099598490272
 30
0.0
 10
346.1670962836735
 20
153.2223547482135
 30
0.0
 10
345.6630485358494
 20
153.7971094764508
 30
0.0
 10
345.4864664849879
 20
153.9813777137701
 30
0.0
 10
345.1159338423989
 20
154.3350790358647
 30
0.0
 10
344.9211802133016
 20
154.5052476030888
 30
0.0
 10
344.5175009060704
 20
154.825790036531
 30
0.0
 10
344.3091903629514
 20
154.976307778731
 30
0.0
 10
343.8738246359436
 20
155.2490897477433
 30
0.0
 10
343.6439962107639
 20
155.3717110155456
 30
0.0
 10
343.1671810896984
 20
155.5668803030428
 30
0.0
 10
342.9217411536807
 20
155.6393852529252
 30
0.0
 10
342.4166147969386
 20
155.7335876444931
 30
0.0
 10
342.1561528643125
 20
155.7550018671413
 30
0.0
 10
341.8965538172174
 20
155.7498169280933
 30
0.0
  0
CIRCLE
  5
3A3
330
1F
100
AcDbEntity
  8
0
  6
Continuous
 62
     7
370
    30
100
AcDbCircle
 10
346.0436207875
 20
154.2576100857
 30
0.0
 40
0.4500000000010118
  0
ARC
  5
3A4
330
1F
100
AcDbEntity
  8
0
  6
Continuous
 62
     7
370
    30
100
AcDbCircle
 10
344.2525907873
 20
153.2616793532
 30
0.0
 40
0.4438908554892491
100
AcDbArc
 50
309.0362220823
 51
258.7197995005
  0
SPLINE
  5
3A5
330
1F
100
AcDbEntity
  8
0
  6
Continuous
 62
     7
370
    30
100
AcDbSpline
210
0.0
220
0.0
230
1.0
 70
     8
 71
     3
 72
    12
 73
     8
 74
     0
 42
0.000000001
 43
0.00000001
 40
0.0
 40
0.0
 40
0.0
 40
0.0
 40
0.5
 40
0.5
 40
0.75
 40
0.75
 40
1.0
 40
1.0
 40
1.0
 40
1.0
 10
346.5322500904173
 20
152.0073638088133
 30
0.0
 10
346.2692845337633
 20
152.1618221142084
 30
0.0
 10
345.9775624702532
 20
152.2557263725569
 30
0.0
 10
345.5340368518274
 20
152.3638856604134
 30
0.0
 10
345.3842341406461
 20
152.3924064543929
 30
0.0
 10
345.0782523090414
 20
152.3683704273126
 30
0.0
 10
344.9335474861759
 20
152.3111439779064
 30
0.0
 10
344.8080333241173
 20
152.2228908473833
 30
0.0
  0
SPLINE
  5
3A6
330
1F
100
AcDbEntity
  8
0
  6
Continuous
 62
     7
370
    30
100
AcDbSpline
210
0.0
220
0.0
230
1.0
 70
     8
 71
     3
 72
    24
 73
    20
 74
     0
 42
0.000000001
 43
0.00000001
 40
0.0
 40
0.0
 40
0.0
 40
0.0
 40
0.125000000000004
 40
0.125000000000004
 40
0.1875000000000052
 40
0.1875000000000052
 40
0.2500000000000064
 40
0.2500000000000064
 40
0.3750000000000053
 40
0.3750000000000053
 40
0.5000000000000042
 40
0.5000000000000042
 40
0.6250000000000032
 40
0.6250000000000032
 40
0.7500000000000021
 40
0.7500000000000021
 40
0.8750000000000011
 40
0.8750000000000011
 40
1.0
 40
1.0
 40
1.0
 40
1.0
 10
344.8080333241173
 20
152.2228908473833
 30
0.0
 10
344.785768909428
 20
152.1056789134712
 30
0.0
 10
344.7611858887814
 20
151.9888263252533
 30
0.0
 10
344.6934697597686
 20
151.8224635841355
 30
0.0
 10
344.6651773414567
 20
151.7702855867184
 30
0.0
 10
344.5907235825885
 20
151.6761637192974
 30
0.0
 10
344.5464623893573
 20
151.6364538404144
 30
0.0
 10
344.3949307577122
 20
151.5411723512219
 30
0.0
 10
344.2727924200299
 20
151.5128090431944
 30
0.0
 10
344.035282451178
 20
151.5380194107942
 30
0.0
 10
343.9224402380356
 20
151.5920389827606
 30
0.0
 10
343.7497221569527
 20
151.7568842330585
 30
0.0
 10
343.690071830707
 20
151.8660337253629
 30
0.0
 10
343.6371817016077
 20
152.0976676921779
 30
0.0
 10
343.6442719585146
 20
152.2216266200542
 30
0.0
 10
343.7177376610555
 20
152.4473555469455
 30
0.0
 10
343.7828430383538
 20
152.5505505463358
 30
0.0
 10
343.9515753367142
 20
152.7193644585579
 30
0.0
 10
344.0540567862454
 20
152.7831659251396
 30
0.0
 10
344.1657625111165
 20
152.826363442603
 30
0.0
  0
SPLINE
  5
3A7
330
1F
100
AcDbEntity
  8
0
  6
Continuous
 62
     7
370
    30
100
AcDbSpline
210
0.0
220
0.0
230
1.0
 70
     8
 71
     3
 72
    14
 73
    10
 74
     0
 42
0.000000001
 43
0.00000001
 40
0.0
 40
0.0
 40
0.0
 40
0.0
 40
0.25
 40
0.25
 40
0.5
 40
0.5
 40
0.75
 40
0.75
 40
1.0
 40
1.0
 40
1.0
 40
1.0
 10
346.5322500904173
 20
152.0073638088133
 30
0.0
 10
346.4195286946921
 20
152.1659502248037
 30
0.0
 10
346.2881679252368
 20
152.3058726840524
 30
0.0
 10
345.9912456252491
 20
152.5514717349295
 30
0.0
 10
345.8272306695901
 20
152.657629965681
 30
0.0
 10
345.4844907163731
 20
152.8318317054881
 30
0.0
 10
345.2998723752876
 20
152.9013318942265
 30
0.0
 10
344.9204993805409
 20
152.9656909571736
 30
0.0
 10
344.7227746099945
 20
152.9592247831069
 30
0.0
 10
344.5321583851234
 20
152.9168880397846
 30
0.0
  0
SPLINE
  5
3A8
330
1F
100
AcDbEntity
  8
0
  6
Continuous
 62
     7
370
    30
100
AcDbSpline
210
0.0
220
0.0
230
1.0
 70
     8
 71
     3
 72
    12
 73
     8
 74
     0
 42
0.000000001
 43
0.00000001
 40
0.0
 40
0.0
 40
0.0
 40
0.0
 40
0.2500000000000001
 40
0.2500000000000001
 40
0.5000000000000002
 40
0.5000000000000002
 40
1.0
 40
1.0
 40
1.0
 40
1.0
 10
344.9443416621173
 20
153.5771166659733
 30
0.0
 10
345.111188917773
 20
153.5416461635874
 30
0.0
 10
345.2692045577603
 20
153.4847076308167
 30
0.0
 10
345.5683947743399
 20
153.3298930432794
 30
0.0
 10
345.7094616489603
 20
153.2319445818277
 30
0.0
 10
346.0935563507097
 20
152.9058941302943
 30
0.0
 10
346.3097107546879
 20
152.6391334696841
 30
0.0
 10
346.4765310193173
 20
152.3431201046233
 30
0.0
  0
SPLINE
  5
3A9
330
1F
100
AcDbEntity
  8
0
  6
Continuous
 62
     7
370
    30
100
AcDbSpline
210
0.0
220
0.0
230
1.0
 70
     8
 71
     3
 72
    10
 73
     6
 74
     0
 42
0.000000001
 43
0.00000001
 40
0.0
 40
0.0
 40
0.0
 40
0.0
 40
0.5
 40
0.5
 40
1.0
 40
1.0
 40
1.0
 40
1.0
 10
346.4765310193173
 20
152.3431201046233
 30
0.0
 10
346.2695871470771
 20
152.603708703468
 30
0.0
 10
346.0418834761955
 20
152.8476651183368
 30
0.0
 10
345.5320301902782
 20
153.2756517623525
 30
0.0
 10
345.2524410940119
 20
153.4499826139509
 30
0.0
 10
344.9443416621177
 20
153.5771166659732
 30
0.0
  0
SPLINE
  5
3AA
330
1F
100
AcDbEntity
  8
0
  6
Continuous
 62
     7
370
    30
100
AcDbSpline
210
0.0
220
0.0
230
1.0
 70
     8
 71
     3
 72
    14
 73
    10
 74
     0
 42
0.000000001
 43
0.00000001
 40
0.0
 40
0.0
 40
0.0
 40
0.0
 40
0.25
 40
0.25
 40
0.5
 40
0.5
 40
0.75
 40
0.75
 40
1.0
 40
1.0
 40
1.0
 40
1.0
 10
345.0587367542173
 20
147.2122669155033
 30
0.0
 10
345.0637863023681
 20
146.9023421942959
 30
0.0
 10
345.0824874162566
 20
146.5933658073189
 30
0.0
 10
345.1635767858936
 20
145.9784478509709
 30
0.0
 10
345.2284261124621
 20
145.6784365230501
 30
0.0
 10
345.4118225400707
 20
145.0949377219247
 30
0.0
 10
345.5280147559439
 20
144.8099042476209
 30
0.0
 10
345.8124807223941
 20
144.2592330476494
 30
0.0
 10
345.9796253032603
 20
143.9998841266268
 30
0.0
 10
346.1743754872173
 20
143.7582507259233
 30
0.0
  0
SPLINE
  5
3AB
330
1F
100
AcDbEntity
  8
0
  6
Continuous
 62
     7
370
    30
100
AcDbSpline
210
0.0
220
0.0
230
1.0
 70
     8
 71
     3
 72
    16
 73
    12
 74
     0
 42
0.000000001
 43
0.00000001
 40
0.0
 40
0.0
 40
0.0
 40
0.0
 40
0.2500000000000001
 40
0.2500000000000001
 40
0.5000000000000001
 40
0.5000000000000001
 40
0.7500000000000002
 40
0.7500000000000002
 40
0.8750000000000001
 40
0.8750000000000001
 40
1.0
 40
1.0
 40
1.0
 40
1.0
 10
346.1743754872173
 20
143.7582507259233
 30
0.0
 10
345.9260532803216
 20
143.9609559412438
 30
0.0
 10
345.7229592149095
 20
144.2016403912015
 30
0.0
 10
345.3904933515617
 20
144.7449157768271
 30
0.0
 10
345.2625106251903
 20
145.0359108826197
 30
0.0
 10
345.0666982395962
 20
145.6351770599257
 30
0.0
 10
345.0005371512568
 20
145.9510743345285
 30
0.0
 10
344.9693403275349
 20
146.4237759424339
 30
0.0
 10
344.9700049405475
 20
146.5815867062016
 30
0.0
 10
344.9958274181944
 20
146.8977474459979
 30
0.0
 10
345.0212578089825
 20
147.0565850307479
 30
0.0
 10
345.0587367542173
 20
147.2122669155033
 30
0.0
  0
CIRCLE
  5
3AC
330
1F
100
AcDbEntity
  8
0
  6
Continuous
 62
     7
370
    30
100
AcDbCircle
 10
345.6549885853
 20
155.341070779
 30
0.0
 40
0.6900000000000546
  0
SPLINE
  5
3AD
330
1F
100
AcDbEntity
  8
0
  6
Continuous
 62
     7
370
    30
100
AcDbSpline
210
0.0
220
0.0
230
1.0
 70
     8
 71
     3
 72
    10
 73
     6
 74
     0
 42
0.000000001
 43
0.00000001
 40
0.0
 40
0.0
 40
0.0
 40
0.0
 40
0.5
 40
0.5
 40
1.0
 40
1.0
 40
1.0
 40
1.0
 10
345.1713264759173
 20
147.2751000148633
 30
0.0
 10
345.2973473497531
 20
147.2123768642028
 30
0.0
 10
345.4206825768101
 20
147.1441276004619
 30
0.0
 10
345.6537859168849
 20
146.9861492616939
 30
0.0
 10
345.7611381031359
 20
146.8962076038267
 30
0.0
 10
345.8578442677174
 20
146.7937633449433
 30
0.0
  0
SPLINE
  5
3AE
330
1F
100
AcDbEntity
  8
0
  6
Continuous
 62
     7
370
    30
100
AcDbSpline
210
0.0
220
0.0
230
1.0
 70
     8
 71
     3
 72
    12
 73
     8
 74
     0
 42
0.000000001
 43
0.00000001
 40
0.0
 40
0.0
 40
0.0
 40
0.0
 40
0.4999999999999996
 40
0.4999999999999996
 40
0.7499999999999998
 40
0.7499999999999998
 40
1.0
 40
1.0
 40
1.0
 40
1.0
 10
345.1713264759173
 20
147.2751000148633
 30
0.0
 10
345.322370657822
 20
147.2782139606505
 30
0.0
 10
345.4704468975582
 20
147.2327426532175
 30
0.0
 10
345.656049919228
 20
147.1056810026379
 30
0.0
 10
345.7107357076218
 20
147.0535142833054
 30
0.0
 10
345.79954841445
 20
146.9335577236067
 30
0.0
 10
345.8338111941882
 20
146.8653561467686
 30
0.0
 10
345.8578442677174
 20
146.7937633449433
 30
0.0
  0
SPLINE
  5
3AF
330
1F
100
AcDbEntity
  8
0
  6
Continuous
 62
     7
370
    30
100
AcDbSpline
210
0.0
220
0.0
230
1.0
 70
     8
 71
     3
 72
    18
 73
    14
 74
     0
 42
0.000000001
 43
0.00000001
 40
0.0
 40
0.0
 40
0.0
 40
0.0
 40
0.2500000000000018
 40
0.2500000000000018
 40
0.3750000000000014
 40
0.3750000000000014
 40
0.500000000000001
 40
0.500000000000001
 40
0.6250000000000007
 40
0.6250000000000007
 40
0.7500000000000002
 40
0.7500000000000002
 40
1.0
 40
1.0
 40
1.0
 40
1.0
 10
344.7725942134173
 20
153.6916034531233
 30
0.0
 10
344.4542413263326
 20
153.7057501025391
 30
0.0
 10
344.148375040415
 20
153.7729670641392
 30
0.0
 10
343.7053118676305
 20
153.9406744396004
 30
0.0
 10
343.5604050101503
 20
154.0072862920036
 30
0.0
 10
343.282383862575
 20
154.1543081373783
 30
0.0
 10
343.148076162337
 20
154.2350995004059
 30
0.0
 10
342.889002020355
 20
154.4114528900785
 30
0.0
 10
342.7643294444336
 20
154.5071602288425
 30
0.0
 10
342.5261443485364
 20
154.7158516034044
 30
0.0
 10
342.4134844273736
 20
154.8283356349728
 30
0.0
 10
342.1016270223225
 20
155.1816693296773
 30
0.0
 10
341.9245275110337
 20
155.440580109572
 30
0.0
 10
341.7781410640173
 20
155.7227758497433
 30
0.0
  0
SPLINE
  5
3B0
330
1F
100
AcDbEntity
  8
0
  6
Continuous
 62
     7
370
    30
100
AcDbSpline
210
0.0
220
0.0
230
1.0
 70
     8
 71
     3
 72
    12
 73
     8
 74
     0
 42
0.000000001
 43
0.00000001
 40
0.0
 40
0.0
 40
0.0
 40
0.0
 40
0.2500000000000001
 40
0.2500000000000001
 40
0.5000000000000002
 40
0.5000000000000002
 40
1.0
 40
1.0
 40
1.0
 40
1.0
 10
341.7781410640173
 20
155.7227758497433
 30
0.0
 10
341.9628865259636
 20
155.4749489016161
 30
0.0
 10
342.165779929425
 20
155.2431382350314
 30
0.0
 10
342.6124416369
 20
154.8155906303731
 30
0.0
 10
342.8540538455557
 20
154.624368137496
 30
0.0
 10
343.6208536989631
 20
154.103552543936
 30
0.0
 10
344.1662761715802
 20
153.8305078324908
 30
0.0
 10
344.7725942134173
 20
153.6916034531233
 30
0.0
  0
ELLIPSE
  5
3B1
330
1F
100
AcDbEntity
  8
0
  6
Continuous
 62
     7
370
    30
100
AcDbEllipse
 10
334.1208242651
 20
184.2506285539
 30
0.0
 11
0.3574377219428015
 21
0.3574377219428015
 31
0.0
210
0.0
220
0.0
230
1.0
 40
0.9891328444
 41
5.503250352299385
 42
7.06312026205986
  0
LINE
  5
3B2
330
1F
100
AcDbEntity
  8
0
  6
Continuous
 62
     7
370
    30
100
AcDbLine
 10
334.1263170796
 20
184.7533832516
 30
0.0
 11
305.8220475423
 21
184.7533832516
 31
0.0
  0
ELLIPSE
  5
3B3
330
1F
100
AcDbEntity
  8
0
  6
Continuous
 62
     7
370
    30
100
AcDbEllipse
 10
305.8275403567
 20
184.2506285539
 30
0.0
 11
0.3574377219428584
 21
-0.35743772194283
 31
0.0
210
0.0
220
0.0
230
1.0
 40
0.9891328444
 41
2.361657698709381
 42
3.921527608470082
  0
LINE
  5
3B4
330
1F
100
AcDbEntity
  8
0
  6
Continuous
 62
     7
370
    30
100
AcDbLine
 10
305.32478648
 20
184.2561203267
 30
0.0
 11
305.32478648
 21
115.2518528726
 31
0.0
  0
ELLIPSE
  5
3B5
330
1F
100
AcDbEntity
  8
0
  6
Continuous
 62
     7
370
    30
100
AcDbEllipse
 10
305.8275403567
 20
115.2573446455
 30
0.0
 11
-0.3574377219427447
 21
-0.3574377219428158
 31
0.0
210
0.0
220
0.0
230
1.0
 40
0.9891328444
 41
5.503250352299276
 42
7.063120262059769
  0
LINE
  5
3B6
330
1F
100
AcDbEntity
  8
0
  6
Continuous
 62
     7
370
    30
100
AcDbLine
 10
305.8220475423
 20
114.7545899477
 30
0.0
 11
334.1263170796
 21
114.7545899477
 31
0.0
  0
ELLIPSE
  5
3B7
330
1F
100
AcDbEntity
  8
0
  6
Continuous
 62
     7
370
    30
100
AcDbEllipse
 10
334.1208242651
 20
115.2573446455
 30
0.0
 11
-0.3574377219428015
 21
0.3574377219428158
 31
0.0
210
0.0
220
0.0
230
1.0
 40
0.9891328444
 41
2.36165769870953
 42
3.921527608470051
  0
LINE
  5
3B8
330
1F
100
AcDbEntity
  8
0
  6
Continuous
 62
     7
370
    30
100
AcDbLine
 10
334.6235781418
 20
115.2518528726
 30
0.0
 11
334.6235781418
 21
184.2561203267
 31
0.0
  0
ELLIPSE
  5
3B9
330
1F
100
AcDbEntity
  8
0
  6
Continuous
 62
     7
370
    30
100
AcDbEllipse
 10
333.810934049
 20
183.9407383378
 30
0.0
 11
0.5012585681806172
 21
-0.03887969190620311
 31
0.0
210
0.0
220
0.0
230
1.0
 40
0.9869501288
 41
1.062492913081818
 42
1.649224854736515
  0
ELLIPSE
  5
3BA
330
1F
100
AcDbEntity
  8
0
  6
Continuous
 62
     7
370
    30
100
AcDbEllipse
 10
333.8246221249
 20
183.9544264136
 30
0.0
 11
-0.1574427123264286
 21
0.4806158864532221
 31
0.0
210
0.0
220
0.0
230
1.0
 40
0.9430368476
 41
4.378056587572809
 42
4.76361167499552
  0
SPLINE
  5
3BB
330
1F
100
AcDbEntity
  8
0
  6
Continuous
 62
     7
370
    30
100
AcDbSpline
210
0.0
220
0.0
230
1.0
 70
     8
 71
     3
 72
     8
 73
     4
 74
     0
 42
0.000000001
 43
0.00000001
 40
0.0
 40
0.0
 40
0.0
 40
0.0
 40
1.0
 40
1.0
 40
1.0
 40
1.0
 10
334.2692050334712
 20
184.1273135928005
 30
0.0
 10
334.2509018489583
 20
184.1752299217525
 30
0.0
 10
334.2259157641104
 20
184.2193754518044
 30
0.0
 10
334.1931919041829
 20
184.259635859421
 30
0.0
  0
ELLIPSE
  5
3BC
330
1F
100
AcDbEntity
  8
0
  6
Continuous
 62
     7
370
    30
100
AcDbEllipse
 10
333.8055115593
 20
183.9353158481
 30
0.0
 11
0.3574377219428015
 21
0.3574377219428015
 31
0.0
210
0.0
220
0.0
230
1.0
 40
0.9891328444
 41
6.193461136292211
 42
6.476388320351355
  0
LINE
  5
3BD
330
1F
100
AcDbEntity
  8
0
  6
Continuous
 62
     7
370
    30
100
AcDbLine
 10
334.3044278654
 20
115.5710022177
 30
0.0
 11
334.3044278654
 21
183.9369709816
 31
0.0
  0
ELLIPSE
  5
3BE
330
1F
100
AcDbEntity
  8
0
  6
Continuous
 62
     7
370
    30
100
AcDbEllipse
 10
333.8246221249
 20
115.5535467857
 30
0.0
 11
0.1574427123264286
 21
0.4806158864532507
 31
0.0
210
0.0
220
0.0
230
1.0
 40
0.9430368476
 41
4.661166285773793
 42
5.046721373196535
  0
ELLIPSE
  5
3BF
330
1F
100
AcDbEntity
  8
0
  6
Continuous
 62
     7
370
    30
100
AcDbEllipse
 10
333.810934049
 20
115.5672348615
 30
0.0
 11
0.5012585681806172
 21
0.03887969190620311
 31
0.0
210
0.0
220
0.0
230
1.0
 40
0.9869501288
 41
4.633960452443088
 42
5.220692394097814
  0
ELLIPSE
  5
3C0
330
1F
100
AcDbEntity
  8
0
  6
Continuous
 62
     7
370
    30
100
AcDbEllipse
 10
333.8055115593
 20
115.5726573513
 30
0.0
 11
-0.3574377219428015
 21
0.3574377219428158
 31
0.0
210
0.0
220
0.0
230
1.0
 40
0.9891328444
 41
2.94838964041808
 42
3.231316824477223
  0
SPLINE
  5
3C1
330
1F
100
AcDbEntity
  8
0
  6
Continuous
 62
     7
370
    30
100
AcDbSpline
210
0.0
220
0.0
230
1.0
 70
     8
 71
     3
 72
     8
 73
     4
 74
     0
 42
0.000000001
 43
0.00000001
 40
0.0
 40
0.0
 40
0.0
 40
0.0
 40
1.0
 40
1.0
 40
1.0
 40
1.0
 10
334.1931907782337
 20
115.2483376466588
 30
0.0
 10
334.2259146915914
 20
115.2885980230434
 30
0.0
 10
334.2509018148143
 20
115.3327431438864
 30
0.0
 10
334.2692050469219
 20
115.3806595966547
 30
0.0
  0
LINE
  5
3C2
330
1F
100
AcDbEntity
  8
0
  6
Continuous
 62
     7
370
    30
100
AcDbLine
 10
306.1384485545
 20
115.0709937539
 30
0.0
 11
333.8099160673
 21
115.0709937539
 31
0.0
  0
LINE
  5
3C3
330
1F
100
AcDbEntity
  8
0
  6
Continuous
 62
     7
370
    30
100
AcDbLine
 10
306.1384485545
 20
184.4369794454
 30
0.0
 11
333.8099160673
 21
184.4369794454
 31
0.0
  0
ELLIPSE
  5
3C4
330
1F
100
AcDbEntity
  8
0
  6
Continuous
 62
     7
370
    30
100
AcDbEllipse
 10
306.1374305728
 20
115.5672348615
 30
0.0
 11
0.5012585681805604
 21
-0.03887969190620311
 31
0.0
210
0.0
220
0.0
230
1.0
 40
0.9869501288
 41
4.204085566671562
 42
4.790817508326334
  0
ELLIPSE
  5
3C5
330
1F
100
AcDbEntity
  8
0
  6
Continuous
 62
     7
370
    30
100
AcDbEllipse
 10
306.123742497
 20
115.5535467857
 30
0.0
 11
-0.1574427123264286
 21
0.4806158864532507
 31
0.0
210
0.0
220
0.0
230
1.0
 40
0.9430368476
 41
1.236463933983065
 42
1.622019021405847
  0
SPLINE
  5
3C6
330
1F
100
AcDbEntity
  8
0
  6
Continuous
 62
     7
370
    30
100
AcDbSpline
210
0.0
220
0.0
230
1.0
 70
     8
 71
     3
 72
     8
 73
     4
 74
     0
 42
0.000000001
 43
0.00000001
 40
0.0
 40
0.0
 40
0.0
 40
0.0
 40
1.0
 40
1.0
 40
1.0
 40
1.0
 10
305.6791595883636
 20
115.3806596065261
 30
0.0
 10
305.6974627728763
 20
115.3327432775741
 30
0.0
 10
305.7224488577243
 20
115.2885977475222
 30
0.0
 10
305.7551727176518
 20
115.2483373399056
 30
0.0
  0
ELLIPSE
  5
3C7
330
1F
100
AcDbEntity
  8
0
  6
Continuous
 62
     7
370
    30
100
AcDbEllipse
 10
306.1428530625
 20
115.5726573513
 30
0.0
 11
-0.3574377219428015
 21
-0.3574377219428158
 31
0.0
210
0.0
220
0.0
230
1.0
 40
0.9891328444
 41
6.193461136292185
 42
6.476388320351298
  0
ELLIPSE
  5
3C8
330
1F
100
AcDbEntity
  8
0
  6
Continuous
 62
     7
370
    30
100
AcDbEllipse
 10
306.123742497
 20
183.9544264136
 30
0.0
 11
0.1574427123264286
 21
0.4806158864532221
 31
0.0
210
0.0
220
0.0
230
1.0
 40
0.9430368476
 41
1.519573632183986
 42
1.90512871960679
  0
ELLIPSE
  5
3C9
330
1F
100
AcDbEntity
  8
0
  6
Continuous
 62
     7
370
    30
100
AcDbEllipse
 10
306.1374305728
 20
183.9407383378
 30
0.0
 11
0.5012585681805604
 21
0.03887969190620311
 31
0.0
210
0.0
220
0.0
230
1.0
 40
0.9869501288
 41
1.492367798853261
 42
2.079099740508014
  0
ELLIPSE
  5
3CA
330
1F
100
AcDbEntity
  8
0
  6
Continuous
 62
     7
370
    30
100
AcDbEllipse
 10
306.1428530625
 20
183.9353158481
 30
0.0
 11
0.3574377219428015
 21
-0.3574377219428015
 31
0.0
210
0.0
220
0.0
230
1.0
 40
0.9891328444
 41
2.948389640418024
 42
3.231316824477197
  0
SPLINE
  5
3CB
330
1F
100
AcDbEntity
  8
0
  6
Continuous
 62
     7
370
    30
100
AcDbSpline
210
0.0
220
0.0
230
1.0
 70
     8
 71
     3
 72
     8
 73
     4
 74
     0
 42
0.000000001
 43
0.00000001
 40
0.0
 40
0.0
 40
0.0
 40
0.0
 40
1.0
 40
1.0
 40
1.0
 40
1.0
 10
305.755173843601
 20
184.2596355526678
 30
0.0
 10
305.7224499302433
 20
184.2193751762832
 30
0.0
 10
305.6974628070204
 20
184.1752300554402
 30
0.0
 10
305.6791595749128
 20
184.1273136026719
 30
0.0
  0
LINE
  5
3CC
330
1F
100
AcDbEntity
  8
0
  6
Continuous
 62
     7
370
    30
100
AcDbLine
 10
305.6439367565
 20
115.5710022177
 30
0.0
 11
305.6439367565
 21
183.9369709816
 31
0.0
  0
ENDSEC
  0
SECTION
  2
OBJECTS
  0
DICTIONARY
  5
C
330
0
100
AcDbDictionary
281
     1
  3
ACAD_GROUP
350
D
  3
ACAD_LAYOUT
350
1A
  3
ACAD_MLINESTYLE
350
17
  3
ACAD_PLOTSETTINGS
350
19
  3
ACAD_PLOTSTYLENAME
350
E
  3
ACAD_SCALELIST
350
47
  0
DICTIONARY
  5
D
102
{ACAD_REACTORS
330
C
102
}
330
C
100
AcDbDictionary
281
     1
  0
DICTIONARY
  5
1A
102
{ACAD_REACTORS
330
C
102
}
330
C
100
AcDbDictionary
281
     1
  3
Layout1
350
1E
  3
Layout2
350
26
  3
Model
350
22
  0
DICTIONARY
  5
17
102
{ACAD_REACTORS
330
C
102
}
330
C
100
AcDbDictionary
281
     1
  3
Standard
350
18
  0
DICTIONARY
  5
19
102
{ACAD_REACTORS
330
C
102
}
330
C
100
AcDbDictionary
281
     1
  0
ACDBDICTIONARYWDFLT
  5
E
102
{ACAD_REACTORS
330
C
102
}
330
C
100
AcDbDictionary
281
     1
  3
Normal
350
F
100
AcDbDictionaryWithDefault
340
F
  0
DICTIONARY
  5
47
102
{ACAD_REACTORS
330
C
102
}
330
C
100
AcDbDictionary
281
     1
  3
A0
350
48
  3
A1
350
49
  3
A2
350
4A
  3
A3
350
4B
  3
A4
350
4C
  3
A5
350
4D
  3
A6
350
4E
  3
A7
350
4F
  3
A8
350
50
  3
A9
350
51
  3
B0
350
52
  3
B1
350
53
  3
B2
350
54
  3
B3
350
55
  3
B4
350
56
  3
B5
350
57
  3
B6
350
58
  3
B7
350
59
  3
B8
350
5A
  3
B9
350
5B
  3
C0
350
5C
  3
C1
350
5D
  3
C2
350
5E
  3
C3
350
5F
  3
C4
350
60
  3
C5
350
61
  3
C6
350
62
  3
C7
350
63
  3
C8
350
64
  3
C9
350
65
  3
D0
350
66
  3
D1
350
67
  3
D2
350
68
  0
LAYOUT
  5
1E
102
{ACAD_REACTORS
330
1A
102
}
330
1A
100
AcDbPlotSettings
  1

  2
none_device
  4

  6

 40
0.0
 41
0.0
 42
0.0
 43
0.0
 44
0.0
 45
0.0
 46
0.0
 47
0.0
 48
0.0
 49
0.0
140
0.0
141
0.0
142
1.0
143
1.0
 70
   688
 72
     1
 73
     0
 74
     5
  7

 75
    16
147
1.0
148
0.0
149
0.0
100
AcDbLayout
  1
Layout1
 70
     1
 71
     1
 10
0.0
 20
0.0
 11
420.0
 21
297.0
 12
0.0
 22
0.0
 32
0.0
 14
1.0000000000E+20
 24
1.0000000000E+20
 34
1.0000000000E+20
 15
-1.0000000000E+20
 25
-1.0000000000E+20
 35
-1.0000000000E+20
146
0.0
 13
0.0
 23
0.0
 33
0.0
 16
1.0
 26
0.0
 36
0.0
 17
0.0
 27
1.0
 37
0.0
 76
     0
330
1B
  0
LAYOUT
  5
26
102
{ACAD_REACTORS
330
1A
102
}
330
1A
100
AcDbPlotSettings
  1

  2
none_device
  4

  6

 40
0.0
 41
0.0
 42
0.0
 43
0.0
 44
0.0
 45
0.0
 46
0.0
 47
0.0
 48
0.0
 49
0.0
140
0.0
141
0.0
142
1.0
143
1.0
 70
   688
 72
     1
 73
     0
 74
     5
  7

 75
    16
147
1.0
148
0.0
149
0.0
100
AcDbLayout
  1
Layout2
 70
     1
 71
     2
 10
0.0
 20
0.0
 11
0.0
 21
0.0
 12
0.0
 22
0.0
 32
0.0
 14
0.0
 24
0.0
 34
0.0
 15
0.0
 25
0.0
 35
0.0
146
0.0
 13
0.0
 23
0.0
 33
0.0
 16
1.0
 26
0.0
 36
0.0
 17
0.0
 27
1.0
 37
0.0
 76
     0
330
23
  0
LAYOUT
  5
22
102
{ACAD_REACTORS
330
1A
102
}
330
1A
100
AcDbPlotSettings
  1

  2
none_device
  4
Letter_(8.50_x_11.00_Inches)
  6

 40
6.35
 41
6.35
 42
6.35000508
 43
6.35000508
 44
215.9
 45
279.4
 46
0.0
 47
0.0
 48
0.0
 49
0.0
140
0.0
141
0.0
142
1.0
143
1.0
 70
  1712
 72
     1
 73
     0
 74
     0
  7

 75
     0
147
1.0
148
0.0
149
0.0
100
AcDbLayout
  1
Model
 70
     1
 71
     0
 10
0.0
 20
0.0
 11
420.0
 21
297.0
 12
0.0
 22
0.0
 32
0.0
 14
0.0
 24
0.0
 34
0.0
 15
420.0
 25
297.0
 35
0.0
146
0.0
 13
0.0
 23
0.0
 33
0.0
 16
1.0
 26
0.0
 36
0.0
 17
0.0
 27
1.0
 37
0.0
 76
     0
330
1F
331
29
  0
MLINESTYLE
  5
18
102
{ACAD_REACTORS
330
17
102
}
330
17
100
AcDbMlineStyle
  2
Standard
 70
     0
  3

 62
   256
 51
90.0
 52
90.0
 71
     2
 49
0.5
 62
   256
  6
BYLAYER
 49
-0.5
 62
   256
  6
BYLAYER
  0
ACDBPLACEHOLDER
  5
F
102
{ACAD_REACTORS
330
E
102
}
330
E
  0
SCALE
  5
48
102
{ACAD_REACTORS
330
47
102
}
330
47
100
AcDbScale
 70
     0
300
1:1
140
1.0
141
1.0
290
     1
  0
SCALE
  5
49
102
{ACAD_REACTORS
330
47
102
}
330
47
100
AcDbScale
 70
     0
300
1:2
140
1.0
141
2.0
290
     0
  0
SCALE
  5
4A
102
{ACAD_REACTORS
330
47
102
}
330
47
100
AcDbScale
 70
     0
300
1:4
140
1.0
141
4.0
290
     0
  0
SCALE
  5
4B
102
{ACAD_REACTORS
330
47
102
}
330
47
100
AcDbScale
 70
     0
300
1:5
140
1.0
141
5.0
290
     0
  0
SCALE
  5
4C
102
{ACAD_REACTORS
330
47
102
}
330
47
100
AcDbScale
 70
     0
300
1:8
140
1.0
141
8.0
290
     0
  0
SCALE
  5
4D
102
{ACAD_REACTORS
330
47
102
}
330
47
100
AcDbScale
 70
     0
300
1:10
140
1.0
141
10.0
290
     0
  0
SCALE
  5
4E
102
{ACAD_REACTORS
330
47
102
}
330
47
100
AcDbScale
 70
     0
300
1:16
140
1.0
141
16.0
290
     0
  0
SCALE
  5
4F
102
{ACAD_REACTORS
330
47
102
}
330
47
100
AcDbScale
 70
     0
300
1:20
140
1.0
141
20.0
290
     0
  0
SCALE
  5
50
102
{ACAD_REACTORS
330
47
102
}
330
47
100
AcDbScale
 70
     0
300
1:30
140
1.0
141
30.0
290
     0
  0
SCALE
  5
51
102
{ACAD_REACTORS
330
47
102
}
330
47
100
AcDbScale
 70
     0
300
1:40
140
1.0
141
40.0
290
     0
  0
SCALE
  5
52
102
{ACAD_REACTORS
330
47
102
}
330
47
100
AcDbScale
 70
     0
300
1:50
140
1.0
141
50.0
290
     0
  0
SCALE
  5
53
102
{ACAD_REACTORS
330
47
102
}
330
47
100
AcDbScale
 70
     0
300
1:100
140
1.0
141
100.0
290
     0
  0
SCALE
  5
54
102
{ACAD_REACTORS
330
47
102
}
330
47
100
AcDbScale
 70
     0
300
2:1
140
2.0
141
1.0
290
     0
  0
SCALE
  5
55
102
{ACAD_REACTORS
330
47
102
}
330
47
100
AcDbScale
 70
     0
300
4:1
140
4.0
141
1.0
290
     0
  0
SCALE
  5
56
102
{ACAD_REACTORS
330
47
102
}
330
47
100
AcDbScale
 70
     0
300
8:1
140
8.0
141
1.0
290
     0
  0
SCALE
  5
57
102
{ACAD_REACTORS
330
47
102
}
330
47
100
AcDbScale
 70
     0
300
10:1
140
10.0
141
1.0
290
     0
  0
SCALE
  5
58
102
{ACAD_REACTORS
330
47
102
}
330
47
100
AcDbScale
 70
     0
300
100:1
140
100.0
141
1.0
290
     0
  0
SCALE
  5
59
102
{ACAD_REACTORS
330
47
102
}
330
47
100
AcDbScale
 70
     0
300
1/128" = 1'-0"
140
0.0078125
141
12.0
290
     0
  0
SCALE
  5
5A
102
{ACAD_REACTORS
330
47
102
}
330
47
100
AcDbScale
 70
     0
300
1/64" = 1'-0"
140
0.015625
141
12.0
290
     0
  0
SCALE
  5
5B
102
{ACAD_REACTORS
330
47
102
}
330
47
100
AcDbScale
 70
     0
300
1/32" = 1'-0"
140
0.03125
141
12.0
290
     0
  0
SCALE
  5
5C
102
{ACAD_REACTORS
330
47
102
}
330
47
100
AcDbScale
 70
     0
300
1/16" = 1'-0"
140
0.0625
141
12.0
290
     0
  0
SCALE
  5
5D
102
{ACAD_REACTORS
330
47
102
}
330
47
100
AcDbScale
 70
     0
300
3/32" = 1'-0"
140
0.09375
141
12.0
290
     0
  0
SCALE
  5
5E
102
{ACAD_REACTORS
330
47
102
}
330
47
100
AcDbScale
 70
     0
300
1/8" = 1'-0"
140
0.125
141
12.0
290
     0
  0
SCALE
  5
5F
102
{ACAD_REACTORS
330
47
102
}
330
47
100
AcDbScale
 70
     0
300
3/16" = 1'-0"
140
0.1875
141
12.0
290
     0
  0
SCALE
  5
60
102
{ACAD_REACTORS
330
47
102
}
330
47
100
AcDbScale
 70
     0
300
1/4" = 1'-0"
140
0.25
141
12.0
290
     0
  0
SCALE
  5
61
102
{ACAD_REACTORS
330
47
102
}
330
47
100
AcDbScale
 70
     0
300
3/8" = 1'-0"
140
0.375
141
12.0
290
     0
  0
SCALE
  5
62
102
{ACAD_REACTORS
330
47
102
}
330
47
100
AcDbScale
 70
     0
300
1/2" = 1'-0"
140
0.5
141
12.0
290
     0
  0
SCALE
  5
63
102
{ACAD_REACTORS
330
47
102
}
330
47
100
AcDbScale
 70
     0
300
3/4" = 1'-0"
140
0.75
141
12.0
290
     0
  0
SCALE
  5
64
102
{ACAD_REACTORS
330
47
102
}
330
47
100
AcDbScale
 70
     0
300
1" = 1'-0"
140
1.0
141
12.0
290
     0
  0
SCALE
  5
65
102
{ACAD_REACTORS
330
47
102
}
330
47
100
AcDbScale
 70
     0
300
1-1/2" = 1'-0"
140
1.5
141
12.0
290
     0
  0
SCALE
  5
66
102
{ACAD_REACTORS
330
47
102
}
330
47
100
AcDbScale
 70
     0
300
3" = 1'-0"
140
3.0
141
12.0
290
     0
  0
SCALE
  5
67
102
{ACAD_REACTORS
330
47
102
}
330
47
100
AcDbScale
 70
     0
300
6" = 1'-0"
140
6.0
141
12.0
290
     0
  0
SCALE
  5
68
102
{ACAD_REACTORS
330
47
102
}
330
47
100
AcDbScale
 70
     0
300
1'-0" = 1'-0"
140
12.0
141
12.0
290
     0
  0
ENDSEC
  0
EOF
