  0
SECTION
  2
HEADER
  9
$ACADVER
  1
AC1015
  9
$ACADMAINTVER
 70
     6
  9
$DWGCODEPAGE
  3
DOS932
  9
$INSBASE
 10
0.0
 20
0.0
 30
0.0
  9
$EXTMIN
 10
0.0
 20
0.0
 30
0.0
  9
$EXTMAX
 10
420.0
 20
297.0
 30
0.0
  9
$LIMMIN
 10
0.0
 20
0.0
  9
$LIMMAX
 10
420.0
 20
297.0
  9
$ORTHOMODE
 70
     0
  9
$REGENMODE
 70
     1
  9
$FILLMODE
 70
     1
  9
$QTEXTMODE
 70
     0
  9
$MIRRTEXT
 70
     1
  9
$LTSCALE
 40
1.0
  9
$ATTMODE
 70
     1
  9
$TEXTSIZE
 40
3.8805555556
  9
$TRACEWID
 40
1.0
  9
$TEXTSTYLE
  7
Standard
  9
$CLAYER
  8
0
  9
$CELTYPE
  6
ByLayer
  9
$CECOLOR
 62
   256
  9
$CELTSCALE
 40
1.0
  9
$DISPSILH
 70
     0
  9
$DIMSCALE
 40
1.0
  9
$DIMASZ
 40
3.0
  9
$DIMEXO
 40
0.0
  9
$DIMDLI
 40
3.75
  9
$DIMRND
 40
0.0
  9
$DIMDLE
 40
0.0
  9
$DIMEXE
 40
1.0
  9
$DIMTP
 40
0.0
  9
$DIMTM
 40
0.0
  9
$DIMTXT
 40
3.5277777778
  9
$DIMCEN
 40
2.5
  9
$DIMTSZ
 40
0.0
  9
$DIMTOL
 70
     0
  9
$DIMLIM
 70
     0
  9
$DIMTIH
 70
     1
  9
$DIMTOH
 70
     1
  9
$DIMSE1
 70
     0
  9
$DIMSE2
 70
     0
  9
$DIMTAD
 70
     1
  9
$DIMZIN
 70
     0
  9
$DIMBLK
  1

  9
$DIMASO
 70
     1
  9
$DIMSHO
 70
     1
  9
$DIMPOST
  1

  9
$DIMAPOST
  1

  9
$DIMALT
 70
     0
  9
$DIMALTD
 70
     3
  9
$DIMALTF
 40
0.0393700787
  9
$DIMLFAC
 40
1.0
  9
$DIMTOFL
 70
     1
  9
$DIMTVP
 40
0.0
  9
$DIMTIX
 70
     0
  9
$DIMSOXD
 70
     0
  9
$DIMSAH
 70
     0
  9
$DIMBLK1
  1

  9
$DIMBLK2
  1

  9
$DIMSTYLE
  2
ISO-25
  9
$DIMCLRD
 70
     0
  9
$DIMCLRE
 70
     0
  9
$DIMCLRT
 70
     0
  9
$DIMTFAC
 40
1.0
  9
$DIMGAP
 40
1.0
  9
$DIMJUST
 70
     0
  9
$DIMSD1
 70
     0
  9
$DIMSD2
 70
     0
  9
$DIMTOLJ
 70
     0
  9
$DIMTZIN
 70
     0
  9
$DIMALTZ
 70
     0
  9
$DIMALTTZ
 70
     0
  9
$DIMUPT
 70
     0
  9
$DIMDEC
 70
     2
  9
$DIMTDEC
 70
     2
  9
$DIMALTU
 70
     2
  9
$DIMALTTD
 70
     3
  9
$DIMTXSTY
  7
Standard
  9
$DIMAUNIT
 70
     0
  9
$DIMADEC
 70
     2
  9
$DIMALTRND
 40
0.0
  9
$DIMAZIN
 70
     0
  9
$DIMDSEP
 70
    44
  9
$DIMATFIT
 70
     3
  9
$DIMFRAC
 70
     0
  9
$DIMLDRBLK
  1

  9
$DIMLUNIT
 70
     2
  9
$DIMLWD
 70
    -2
  9
$DIMLWE
 70
    -2
  9
$DIMTMOVE
 70
     0
  9
$LUNITS
 70
     2
  9
$LUPREC
 70
     2
  9
$SKETCHINC
 40
1.0
  9
$FILLETRAD
 40
10.0
  9
$AUNITS
 70
     0
  9
$AUPREC
 70
     2
  9
$MENU
  1
.
  9
$ELEVATION
 40
0.0
  9
$PELEVATION
 40
0.0
  9
$THICKNESS
 40
0.0
  9
$LIMCHECK
 70
     0
  9
$CHAMFERA
 40
10.0
  9
$CHAMFERB
 40
10.0
  9
$CHAMFERC
 40
20.0
  9
$CHAMFERD
 40
0.0
  9
$SKPOLY
 70
     0
  9
$TDCREATE
 40
2457196.586197975
  9
$TDUCREATE
 40
2457196.211197975
  9
$TDUPDATE
 40
2457196.5861986
  9
$TDUUPDATE
 40
2457196.2111986
  9
$TDINDWG
 40
0.0000000116
  9
$TDUSRTIMER
 40
0.0000000116
  9
$USRTIMER
 70
     1
  9
$ANGBASE
 50
0.0
  9
$ANGDIR
 70
     0
  9
$PDMODE
 70
     0
  9
$PDSIZE
 40
-1.0
  9
$PLINEWID
 40
0.0
  9
$SPLFRAME
 70
     0
  9
$SPLINETYPE
 70
     6
  9
$SPLINESEGS
 70
     8
  9
$HANDSEED
  5
205
  9
$SURFTAB1
 70
     6
  9
$SURFTAB2
 70
     6
  9
$SURFTYPE
 70
     6
  9
$SURFU
 70
     6
  9
$SURFV
 70
     6
  9
$UCSBASE
  2

  9
$UCSNAME
  2

  9
$UCSORG
 10
0.0
 20
0.0
 30
0.0
  9
$UCSXDIR
 10
1.0
 20
0.0
 30
0.0
  9
$UCSYDIR
 10
0.0
 20
1.0
 30
0.0
  9
$UCSORTHOREF
  2

  9
$UCSORTHOVIEW
 70
     0
  9
$UCSORGTOP
 10
0.0
 20
0.0
 30
0.0
  9
$UCSORGBOTTOM
 10
0.0
 20
0.0
 30
0.0
  9
$UCSORGLEFT
 10
0.0
 20
0.0
 30
0.0
  9
$UCSORGRIGHT
 10
0.0
 20
0.0
 30
0.0
  9
$UCSORGFRONT
 10
0.0
 20
0.0
 30
0.0
  9
$UCSORGBACK
 10
0.0
 20
0.0
 30
0.0
  9
$PUCSBASE
  2

  9
$PUCSNAME
  2

  9
$PUCSORG
 10
0.0
 20
0.0
 30
0.0
  9
$PUCSXDIR
 10
1.0
 20
0.0
 30
0.0
  9
$PUCSYDIR
 10
0.0
 20
1.0
 30
0.0
  9
$PUCSORTHOREF
  2

  9
$PUCSORTHOVIEW
 70
     0
  9
$PUCSORGTOP
 10
0.0
 20
0.0
 30
0.0
  9
$PUCSORGBOTTOM
 10
0.0
 20
0.0
 30
0.0
  9
$PUCSORGLEFT
 10
0.0
 20
0.0
 30
0.0
  9
$PUCSORGRIGHT
 10
0.0
 20
0.0
 30
0.0
  9
$PUCSORGFRONT
 10
0.0
 20
0.0
 30
0.0
  9
$PUCSORGBACK
 10
0.0
 20
0.0
 30
0.0
  9
$USERI1
 70
     0
  9
$USERI2
 70
     0
  9
$USERI3
 70
     0
  9
$USERI4
 70
     0
  9
$USERI5
 70
     0
  9
$USERR1
 40
0.0
  9
$USERR2
 40
0.0
  9
$USERR3
 40
0.0
  9
$USERR4
 40
0.0
  9
$USERR5
 40
0.0
  9
$WORLDVIEW
 70
     1
  9
$SHADEDGE
 70
     3
  9
$SHADEDIF
 70
    70
  9
$TILEMODE
 70
     1
  9
$MAXACTVP
 70
    64
  9
$PINSBASE
 10
0.0
 20
0.0
 30
0.0
  9
$PLIMCHECK
 70
     0
  9
$PEXTMIN
 10
1.0000000000E+20
 20
1.0000000000E+20
 30
1.0000000000E+20
  9
$PEXTMAX
 10
-1.0000000000E+20
 20
-1.0000000000E+20
 30
-1.0000000000E+20
  9
$PLIMMIN
 10
0.0
 20
0.0
  9
$PLIMMAX
 10
420.0
 20
297.0
  9
$UNITMODE
 70
     0
  9
$VISRETAIN
 70
     1
  9
$PLINEGEN
 70
     0
  9
$PSLTSCALE
 70
     1
  9
$TREEDEPTH
 70
  3020
  9
$CMLSTYLE
  2
Standard
  9
$CMLJUST
 70
     0
  9
$CMLSCALE
 40
20.0
  9
$PROXYGRAPHICS
 70
     1
  9
$MEASUREMENT
 70
     1
  9
$CELWEIGHT
370
    -1
  9
$ENDCAPS
280
     0
  9
$JOINSTYLE
280
     0
  9
$LWDISPLAY
290
     1
  9
$INSUNITS
 70
     4
  9
$HYPERLINKBASE
  1

  9
$STYLESHEET
  1

  9
$XEDIT
290
     1
  9
$CEPSNTYPE
380
     0
  9
$PSTYLEMODE
290
     1
  9
$FINGERPRINTGUID
  2
{21D05782-9AE4-42C6-80A7-E92B051B4ACF}
  9
$VERSIONGUID
  2
{FAEB1C32-E019-11D5-929B-00C0DF256EC4}
  9
$EXTNAMES
290
     1
  9
$PSVPSCALE
 40
0.0
  9
$OLESTARTUP
290
     0
  0
ENDSEC
  0
SECTION
  2
CLASSES
  0
CLASS
  1
ACDBDICTIONARYWDFLT
  2
AcDbDictionaryWithDefault
  3
ObjectDBX Classes
 90
        0
280
     0
281
     0
  0
CLASS
  1
VISUALSTYLE
  2
AcDbVisualStyle
  3
ObjectDBX Classes
 90
     4095
280
     0
281
     0
  0
CLASS
  1
MATERIAL
  2
AcDbMaterial
  3
ObjectDBX Classes
 90
     1153
280
     0
281
     0
  0
CLASS
  1
ACDBPLACEHOLDER
  2
AcDbPlaceHolder
  3
ObjectDBX Classes
 90
        0
280
     0
281
     0
  0
CLASS
  1
LAYOUT
  2
AcDbLayout
  3
ObjectDBX Classes
 90
        0
280
     0
281
     0
  0
ENDSEC
  0
SECTION
  2
TABLES
  0
TABLE
  2
VPORT
  5
8
330
0
100
AcDbSymbolTable
 70
     1
  0
VPORT
  5
29
330
8
100
AcDbSymbolTableRecord
100
AcDbViewportTableRecord
  2
*Active
 70
     0
 10
0.0
 20
0.0
 11
1.0
 21
1.0
 12
210.0
 22
148.5
 13
0.0
 23
0.0
 14
10.0
 24
10.0
 15
10.0
 25
10.0
 16
0.0
 26
0.0
 36
1.0
 17
0.0
 27
0.0
 37
0.0
 40
297.0
 41
1.4141414141
 42
50.0
 43
0.0
 44
0.0
 50
0.0
 51
0.0
 71
     0
 72
  2000
 73
     1
 74
     3
 75
     0
 76
     0
 77
     0
 78
     0
281
     0
 65
     1
110
0.0
120
0.0
130
0.0
111
1.0
121
0.0
131
0.0
112
0.0
122
1.0
132
0.0
 79
     0
146
0.0
  0
ENDTAB
  0
TABLE
  2
LTYPE
  5
5
330
0
100
AcDbSymbolTable
 70
     6
  0
LTYPE
  5
14
330
5
100
AcDbSymbolTableRecord
100
AcDbLinetypeTableRecord
  2
ByBlock
 70
     0
  3

 72
    65
 73
     0
 40
0.0
  0
LTYPE
  5
15
330
5
100
AcDbSymbolTableRecord
100
AcDbLinetypeTableRecord
  2
ByLayer
 70
     0
  3

 72
    65
 73
     0
 40
0.0
  0
LTYPE
  5
16
330
5
100
AcDbSymbolTableRecord
100
AcDbLinetypeTableRecord
  2
Continuous
 70
     0
  3
Solid line
 72
    65
 73
     0
 40
0.0
  0
LTYPE
  5
3F
330
5
100
AcDbSymbolTableRecord
100
AcDbLinetypeTableRecord
  2
HIDDEN
 70
     0
  3
Hidden __ __ __ __ __ __ __ __ __ __ __ __ __ __
 72
    65
 73
     2
 40
1.905
 49
1.27
 74
     0
 49
-0.635
 74
     0
  0
LTYPE
  5
40
330
5
100
AcDbSymbolTableRecord
100
AcDbLinetypeTableRecord
  2
PHANTOM
 70
     0
  3
Phantom ______  __  __  ______  __  __  ______
 72
    65
 73
     6
 40
12.7
 49
6.35
 74
     0
 49
-1.27
 74
     0
 49
1.27
 74
     0
 49
-1.27
 74
     0
 49
1.27
 74
     0
 49
-1.27
 74
     0
  0
LTYPE
  5
41
330
5
100
AcDbSymbolTableRecord
100
AcDbLinetypeTableRecord
  2
CENTER
 70
     0
  3
Center ____ _ ____ _ ____ _ ____ _ ____ _ ____
 72
    65
 73
     4
 40
10.16
 49
6.35
 74
     0
 49
-1.27
 74
     0
 49
1.27
 74
     0
 49
-1.27
 74
     0
  0
LTYPE
  5
42
330
5
100
AcDbSymbolTableRecord
100
AcDbLinetypeTableRecord
  2
CENTERX2
 70
     0
  3
Center (2x) ________  __  ________  __  _____
 72
    65
 73
     4
 40
20.32
 49
12.7
 74
     0
 49
-2.54
 74
     0
 49
2.54
 74
     0
 49
-2.54
 74
     0
  0
LTYPE
  5
43
330
5
100
AcDbSymbolTableRecord
100
AcDbLinetypeTableRecord
  2
DOT2
 70
     0
  3
Dot (.5x) ........................................
 72
    65
 73
     2
 40
0.635
 49
0.0
 74
     0
 49
-0.635
 74
     0
  0
ENDTAB
  0
TABLE
  2
LAYER
  5
2
330
0
100
AcDbSymbolTable
 70
     6
  0
LAYER
  5
10
330
2
100
AcDbSymbolTableRecord
100
AcDbLayerTableRecord
  2
0
 70
     0
 62
     7
  6
Continuous
370
    -3
390
F
  0
LAYER
  5
44
330
2
100
AcDbSymbolTableRecord
100
AcDbLayerTableRecord
  2
SLD-0
 70
     0
 62
     7
  6
Continuous
370
    -3
390
F
  0
LAYER
  5
45
330
2
100
AcDbSymbolTableRecord
100
AcDbLayerTableRecord
  2
8
 70
     0
 62
     7
  6
Continuous
370
    15
390
F
  0
LAYER
  5
46
330
2
100
AcDbSymbolTableRecord
100
AcDbLayerTableRecord
  2
9
 70
     0
 62
     7
  6
Continuous
370
    -3
390
F
  0
LAYER
  5
47
330
2
100
AcDbSymbolTableRecord
100
AcDbLayerTableRecord
  2
10
 70
     0
 62
     1
  6
Continuous
370
    -3
390
F
  0
LAYER
  5
48
330
2
100
AcDbSymbolTableRecord
100
AcDbLayerTableRecord
  2
11
 70
     0
 62
     7
  6
Continuous
370
    -3
390
F
  0
ENDTAB
  0
TABLE
  2
STYLE
  5
3
330
0
100
AcDbSymbolTable
 70
     2
  0
STYLE
  5
11
330
3
100
AcDbSymbolTableRecord
100
AcDbTextStyleTableRecord
  2
Standard
 70
     0
 40
0.0
 41
1.0
 50
0.0
 71
     0
 42
3.8805555556
  3
txt
  4
bigfont
  0
STYLE
  5
49
330
3
100
AcDbSymbolTableRecord
100
AcDbTextStyleTableRecord
  2
SLDTEXTSTYLE0
 70
     0
 40
0.0
 41
0.7
 50
0.0
 71
     0
 42
0.2
  3
TXT
  4
bigfont
  0
ENDTAB
  0
TABLE
  2
VIEW
  5
6
330
0
100
AcDbSymbolTable
 70
     0
  0
ENDTAB
  0
TABLE
  2
UCS
  5
7
330
0
100
AcDbSymbolTable
 70
     0
  0
ENDTAB
  0
TABLE
  2
APPID
  5
9
330
0
100
AcDbSymbolTable
 70
     1
  0
APPID
  5
12
330
9
100
AcDbSymbolTableRecord
100
AcDbRegAppTableRecord
  2
ACAD
 70
     0
  0
ENDTAB
  0
TABLE
  2
DIMSTYLE
  5
A
330
0
100
AcDbSymbolTable
 70
     1
100
AcDbDimStyleTable
  0
DIMSTYLE
105
27
330
A
100
AcDbSymbolTableRecord
100
AcDbDimStyleTableRecord
  2
ISO-25
 70
     0
 41
2.5
 42
0.625
 43
3.75
 44
1.25
 73
     0
 74
     0
 77
     1
 78
     8
140
2.5
141
2.5
143
0.0393700787
147
0.625
171
     3
172
     1
178
     0
271
     2
272
     2
274
     3
278
    44
283
     0
284
     8
340
11
  0
ENDTAB
  0
TABLE
  2
BLOCK_RECORD
  5
1
330
0
100
AcDbSymbolTable
 70
     1
  0
BLOCK_RECORD
  5
1F
330
1
100
AcDbSymbolTableRecord
100
AcDbBlockTableRecord
  2
*Model_Space
340
22
  0
BLOCK_RECORD
  5
1B
330
1
100
AcDbSymbolTableRecord
100
AcDbBlockTableRecord
  2
*Paper_Space
340
1E
  0
BLOCK_RECORD
  5
23
330
1
100
AcDbSymbolTableRecord
100
AcDbBlockTableRecord
  2
*Paper_Space0
340
26
  0
ENDTAB
  0
ENDSEC
  0
SECTION
  2
BLOCKS
  0
BLOCK
  5
20
330
1F
100
AcDbEntity
  8
0
100
AcDbBlockBegin
  2
*Model_Space
 70
     0
 10
0.0
 20
0.0
 30
0.0
  3
*Model_Space
  1

  0
ENDBLK
  5
21
330
1F
100
AcDbEntity
  8
0
100
AcDbBlockEnd
  0
BLOCK
  5
1C
330
1B
100
AcDbEntity
 67
     1
  8
0
100
AcDbBlockBegin
  2
*Paper_Space
 70
     0
 10
0.0
 20
0.0
 30
0.0
  3
*Paper_Space
  1

  0
ENDBLK
  5
1D
330
1B
100
AcDbEntity
 67
     1
  8
0
100
AcDbBlockEnd
  0
BLOCK
  5
24
330
23
100
AcDbEntity
  8
0
100
AcDbBlockBegin
  2
*Paper_Space0
 70
     0
 10
0.0
 20
0.0
 30
0.0
  3
*Paper_Space0
  1

  0
ENDBLK
  5
25
330
23
100
AcDbEntity
  8
0
100
AcDbBlockEnd
  0
ENDSEC
  0
SECTION
  2
ENTITIES
  0
MTEXT
  5
4A
330
1F
100
AcDbEntity
  8
9
 62
     7
100
AcDbMText
 10
22.9810592731
 20
14.7698940523
 30
0.0
 40
3.7041666667
 41
0.0
 71
     1
 72
     1
  1
2015/06/15
  7
SLDTEXTSTYLE0
 73
     1
 44
1.0
  0
MTEXT
  5
4B
330
1F
100
AcDbEntity
  8
9
 62
     7
100
AcDbMText
 10
22.9810592731
 20
39.3097760816
 30
0.0
 40
3.7041666667
 41
0.0
 71
     1
 72
     1
  1
PXP-F02
  7
SLDTEXTSTYLE0
 73
     1
 44
1.0
  0
MTEXT
  5
4C
330
1F
100
AcDbEntity
  8
9
 62
     7
100
AcDbMText
 10
22.9810592731
 20
22.2718363524
 30
0.0
 40
3.7041666667
 41
0.0
 71
     1
 72
     1
  1
-
  7
SLDTEXTSTYLE0
 73
     1
 44
1.0
  0
MTEXT
  5
4D
330
1F
100
AcDbEntity
  8
9
 62
     7
100
AcDbMText
 10
22.9810592731
 20
30.9293046945
 30
0.0
 40
3.7041666667
 41
0.0
 71
     1
 72
     1
  1
1:1
  7
SLDTEXTSTYLE0
 73
     1
 44
1.0
  0
ARC
  5
4E
330
1F
100
AcDbEntity
  8
0
  6
Continuous
 62
     7
370
    30
100
AcDbCircle
 10
17301.3329902439
 20
147.9993908965
 30
0.0
 40
17113.00000005994
100
AcDbArc
 50
179.8108595667
 51
180.1891404333
  0
ARC
  5
4F
330
1F
100
AcDbEntity
  8
0
  6
Continuous
 62
     7
370
    30
100
AcDbCircle
 10
188.1262354663
 20
91.5063799767
 30
0.0
 40
0.300000000000052
100
AcDbArc
 50
269.8044114287
 51
0.1891404324
  0
ARC
  5
50
330
1F
100
AcDbEntity
  8
0
  6
Continuous
 62
     7
370
    30
100
AcDbCircle
 10
188.1262354663
 20
204.4924018163
 30
0.0
 40
0.300000000000052
100
AcDbArc
 50
359.8108595676
 51
90.1955885713
  0
ARC
  5
51
330
1F
100
AcDbEntity
  8
0
  6
Continuous
 62
     7
370
    30
100
AcDbCircle
 10
79.1397449018
 20
204.4924018163
 30
0.0
 40
0.299999999998204
100
AcDbArc
 50
89.8044114297
 51
180.1891404337
  0
ARC
  5
52
330
1F
100
AcDbEntity
  8
0
  6
Continuous
 62
     7
370
    30
100
AcDbCircle
 10
-17034.0670097893
 20
147.9993908965
 30
0.0
 40
17112.99999997326
100
AcDbArc
 50
359.8108595667
 51
0.1891404333
  0
ARC
  5
53
330
1F
100
AcDbEntity
  8
0
  6
Continuous
 62
     7
370
    30
100
AcDbCircle
 10
133.6329901842
 20
-15871.7006090569
 30
0.0
 40
15962.99999995336
100
AcDbArc
 50
89.8044114293
 51
90.1955885707
  0
ARC
  5
54
330
1F
100
AcDbEntity
  8
0
  6
Continuous
 62
     7
370
    30
100
AcDbCircle
 10
79.1397449018
 20
91.5063799766
 30
0.0
 40
0.2999999999981898
100
AcDbArc
 50
179.8108595663
 51
270.1955885703
  0
ARC
  5
55
330
1F
100
AcDbEntity
  8
0
  6
Continuous
 62
     7
370
    30
100
AcDbCircle
 10
133.6329901842
 20
16167.6993908498
 30
0.0
 40
15962.99999995335
100
AcDbArc
 50
269.8044114293
 51
270.1955885707
  0
ARC
  5
56
330
1F
100
AcDbEntity
  8
0
  6
Continuous
 62
     7
370
    30
100
AcDbCircle
 10
79.1397449018
 20
91.5063799766
 30
0.0
 40
3.499999999998203
100
AcDbArc
 50
179.8108595669
 51
270.1955885709
  0
ARC
  5
57
330
1F
100
AcDbEntity
  8
0
  6
Continuous
 62
     7
370
    30
100
AcDbCircle
 10
-17034.0670097893
 20
147.9993908965
 30
0.0
 40
17109.79999997326
100
AcDbArc
 50
359.8108595667
 51
0.1891404333
  0
ARC
  5
58
330
1F
100
AcDbEntity
  8
0
  6
Continuous
 62
     7
370
    30
100
AcDbCircle
 10
17301.3329902439
 20
147.9993908965
 30
0.0
 40
17109.80000005993
100
AcDbArc
 50
179.8108595667
 51
180.1891404333
  0
ARC
  5
59
330
1F
100
AcDbEntity
  8
0
  6
Continuous
 62
     7
370
    30
100
AcDbCircle
 10
188.1262354663
 20
91.5063799767
 30
0.0
 40
3.500000000000077
100
AcDbArc
 50
269.8044114294
 51
0.1891404332
  0
ARC
  5
5A
330
1F
100
AcDbEntity
  8
0
  6
Continuous
 62
     7
370
    30
100
AcDbCircle
 10
188.1262354663
 20
204.4924018163
 30
0.0
 40
3.500000000000077
100
AcDbArc
 50
359.8108595668
 51
90.1955885706
  0
ARC
  5
5B
330
1F
100
AcDbEntity
  8
0
  6
Continuous
 62
     7
370
    30
100
AcDbCircle
 10
79.1397449018
 20
204.4924018163
 30
0.0
 40
3.499999999998203
100
AcDbArc
 50
89.8044114291
 51
180.1891404331
  0
ARC
  5
5C
330
1F
100
AcDbEntity
  8
0
  6
Continuous
 62
     7
370
    30
100
AcDbCircle
 10
133.6329901842
 20
-15871.7006090569
 30
0.0
 40
15959.79999995335
100
AcDbArc
 50
89.8044114293
 51
90.1955885707
  0
ARC
  5
5D
330
1F
100
AcDbEntity
  8
0
  6
Continuous
 62
     7
370
    30
100
AcDbCircle
 10
133.6329901842
 20
16167.6993908498
 30
0.0
 40
15959.79999995335
100
AcDbArc
 50
269.8044114293
 51
270.1955885707
  0
SPLINE
  5
5E
330
1F
100
AcDbEntity
  8
0
  6
Continuous
 62
     7
370
    30
100
AcDbSpline
210
0.0
220
0.0
230
1.0
 70
     8
 71
     3
 72
    12
 73
     8
 74
     0
 42
0.00000001
 43
0.00000001
 12
1.0
 22
0.0
 32
0.0
 13
1.0
 23
0.0
 33
0.0
 40
0.0
 40
0.0
 40
0.0
 40
0.0
 40
0.2322474855236789
 40
0.464498043931651
 40
0.6967476918499986
 40
0.9289981586289463
 40
1.0
 40
1.0
 40
1.0
 40
1.0
 10
159.1326711948482
 20
88.0790203176978
 30
0.0
 10
159.2113731879773
 20
88.07889374076908
 30
0.0
 10
159.3687782155475
 20
88.07864058523685
 30
0.0
 10
159.5784498274621
 20
88.07830406274589
 30
0.0
 10
159.73713004919
 20
88.07804059171818
 30
0.0
 10
159.8088189621758
 20
88.07792387206747
 30
0.0
 10
159.8241530659066
 20
88.07790070438296
 30
0.0
 10
159.8277433093158
 20
88.07789528002766
 30
0.0
  0
SPLINE
  5
5F
330
1F
100
AcDbEntity
  8
0
  6
Continuous
 62
     7
370
    30
100
AcDbSpline
210
0.0
220
0.0
230
1.0
 70
     8
 71
     3
 72
    12
 73
     8
 74
     0
 42
0.00000001
 43
0.00000001
 12
1.0
 22
0.0
 32
0.0
 13
1.0
 23
0.0
 33
0.0
 40
0.0
 40
0.0
 40
0.0
 40
0.0
 40
0.2322490945006909
 40
0.4644977946929955
 40
0.6967471134033353
 40
0.9289981613996836
 40
1.0
 40
1.0
 40
1.0
 40
1.0
 10
113.1332466627924
 20
88.08622502913502
 30
0.0
 10
113.2119493229099
 20
88.08632700906581
 30
0.0
 10
113.3693545095251
 20
88.08653096875426
 30
0.0
 10
113.5790258631763
 20
88.0867894091128
 30
0.0
 10
113.7377044131807
 20
88.08699198092035
 30
0.0
 10
113.8093982330346
 20
88.08708107038626
 30
0.0
 10
113.8247292609844
 20
88.08709981005109
 30
0.0
 10
113.82831877726
 20
88.08710419764546
 30
0.0
  0
SPLINE
  5
60
330
1F
100
AcDbEntity
  8
0
  6
Continuous
 62
     7
370
    30
100
AcDbSpline
210
0.0
220
0.0
230
1.0
 70
     8
 71
     3
 72
    12
 73
     8
 74
     0
 42
0.00000001
 43
0.00000001
 12
1.0
 22
0.0
 32
0.0
 13
1.0
 23
0.0
 33
0.0
 40
0.0
 40
0.0
 40
0.0
 40
0.0
 40
0.232251023609278
 40
0.4645006920847155
 40
0.6967496099965601
 40
0.9289975469914225
 40
1.0
 40
1.0
 40
1.0
 40
1.0
 10
107.4382370586959
 20
88.07789528002766
 30
0.0
 10
107.4552352521519
 20
88.0779228059538
 30
0.0
 10
107.489231539883
 20
88.07797785764551
 30
0.0
 10
107.6338844377737
 20
88.07821316765072
 30
0.0
 10
107.8290237599431
 20
88.07853045394911
 30
0.0
 10
108.0070882868905
 20
88.0788172011622
 30
0.0
 10
108.1093628152036
 20
88.07898178286088
 30
0.0
 10
108.1333091731636
 20
88.0790203176978
 30
0.0
  0
SPLINE
  5
61
330
1F
100
AcDbEntity
  8
0
  6
Continuous
 62
     7
370
    30
100
AcDbSpline
210
0.0
220
0.0
230
1.0
 70
     8
 71
     3
 72
    12
 73
     8
 74
     0
 42
0.00000001
 43
0.00000001
 12
1.0
 22
0.0
 32
0.0
 13
1.0
 23
0.0
 33
0.0
 40
0.0
 40
0.0
 40
0.0
 40
0.0
 40
0.2322504125649671
 40
0.4644999403561373
 40
0.6967500291060202
 40
0.9289976373542848
 40
1.0
 40
1.0
 40
1.0
 40
1.0
 10
153.4376615907518
 20
88.08710419764546
 30
0.0
 10
153.4546590444367
 20
88.0870818444588
 30
0.0
 10
153.4886538870535
 20
88.08703713817066
 30
0.0
 10
153.6333072680645
 20
88.08685834643217
 30
0.0
 10
153.8284480243592
 20
88.0866123916956
 30
0.0
 10
154.0065128176808
 20
88.08638931631268
 30
0.0
 10
154.1087873448969
 20
88.08625619735155
 30
0.0
 10
154.1327337052194
 20
88.08622502913502
 30
0.0
  0
ARC
  5
62
330
1F
100
AcDbEntity
  8
0
  6
Continuous
 62
     7
370
    30
100
AcDbCircle
 10
139.682990184
 20
185.2993908965
 30
0.0
 40
1.80000000000004
100
AcDbArc
 50
90.0
 51
180.0
  0
ARC
  5
63
330
1F
100
AcDbEntity
  8
0
  6
Continuous
 62
     7
370
    30
100
AcDbCircle
 10
173.582990184
 20
110.6993908965
 30
0.0
 40
1.799999999999997
100
AcDbArc
 50
270.0
 51
0.0
  0
ARC
  5
64
330
1F
100
AcDbEntity
  8
0
  6
Continuous
 62
     7
370
    30
100
AcDbCircle
 10
139.682990184
 20
110.6993908965
 30
0.0
 40
1.799999999999997
100
AcDbArc
 50
180.0
 51
270.0
  0
LINE
  5
65
330
1F
100
AcDbEntity
  8
0
  6
Continuous
 62
     7
370
    30
100
AcDbLine
 10
139.6829901512
 20
187.0993896686
 30
0.0
 11
173.5829884436
 21
187.0993896686
 31
0.0
  0
LINE
  5
66
330
1F
100
AcDbEntity
  8
0
  6
Continuous
 62
     7
370
    30
100
AcDbLine
 10
175.3829891111
 20
185.2993927263
 30
0.0
 11
175.3829891111
 21
110.6993890666
 31
0.0
  0
LINE
  5
67
330
1F
100
AcDbEntity
  8
0
  6
Continuous
 62
     7
370
    30
100
AcDbLine
 10
137.882990415
 20
110.6993890666
 30
0.0
 11
137.882990415
 21
185.2993927263
 31
0.0
  0
ARC
  5
68
330
1F
100
AcDbEntity
  8
0
  6
Continuous
 62
     7
370
    30
100
AcDbCircle
 10
173.582990184
 20
185.2993908965
 30
0.0
 40
1.800000000000011
100
AcDbArc
 50
0.0
 51
90.0
  0
LINE
  5
69
330
1F
100
AcDbEntity
  8
0
  6
Continuous
 62
     7
370
    30
100
AcDbLine
 10
173.5829884436
 20
108.8993921243
 30
0.0
 11
139.6829901512
 21
108.8993921243
 31
0.0
  0
LINE
  5
6A
330
1F
100
AcDbEntity
  8
0
  6
Continuous
 62
     7
370
    30
100
AcDbLine
 10
170.5829898145
 20
182.599391725
 30
0.0
 11
142.682990643
 21
182.599391725
 31
0.0
  0
ARC
  5
6B
330
1F
100
AcDbEntity
  8
0
  6
Continuous
 62
     7
370
    30
100
AcDbCircle
 10
170.582990184
 20
182.2993908965
 30
0.0
 40
0.3000000000000114
100
AcDbArc
 50
0.0
 51
90.0
  0
LINE
  5
6C
330
1F
100
AcDbEntity
  8
0
  6
Continuous
 62
     7
370
    30
100
AcDbLine
 10
142.682990643
 20
113.399390068
 30
0.0
 11
170.5829898145
 21
113.399390068
 31
0.0
  0
ARC
  5
6D
330
1F
100
AcDbEntity
  8
0
  6
Continuous
 62
     7
370
    30
100
AcDbCircle
 10
142.682990184
 20
113.6993908965
 30
0.0
 40
0.3000000000000114
100
AcDbArc
 50
180.0
 51
270.0
  0
LINE
  5
6E
330
1F
100
AcDbEntity
  8
0
  6
Continuous
 62
     7
370
    30
100
AcDbLine
 10
170.8829911675
 20
113.699391421
 30
0.0
 11
170.8829911675
 21
182.2993903719
 31
0.0
  0
ARC
  5
6F
330
1F
100
AcDbEntity
  8
0
  6
Continuous
 62
     7
370
    30
100
AcDbCircle
 10
170.582990184
 20
113.6993908965
 30
0.0
 40
0.2999999999999972
100
AcDbArc
 50
270.0
 51
0.0
  0
LINE
  5
70
330
1F
100
AcDbEntity
  8
0
  6
Continuous
 62
     7
370
    30
100
AcDbLine
 10
142.3829902213
 20
182.2993903719
 30
0.0
 11
142.3829902213
 21
113.699391421
 31
0.0
  0
ARC
  5
71
330
1F
100
AcDbEntity
  8
0
  6
Continuous
 62
     7
370
    30
100
AcDbCircle
 10
142.682990184
 20
182.2993908965
 30
0.0
 40
0.3000000000000114
100
AcDbArc
 50
90.0
 51
180.0
  0
LINE
  5
72
330
1F
100
AcDbEntity
  8
0
  6
Continuous
 62
     7
370
    30
100
AcDbLine
 10
127.5829902168
 20
108.8993921243
 30
0.0
 11
93.6829919245
 21
108.8993921243
 31
0.0
  0
ARC
  5
73
330
1F
100
AcDbEntity
  8
0
  6
Continuous
 62
     7
370
    30
100
AcDbCircle
 10
93.682990184
 20
110.6993908965
 30
0.0
 40
1.799999999999997
100
AcDbArc
 50
180.0
 51
270.0
  0
LINE
  5
74
330
1F
100
AcDbEntity
  8
0
  6
Continuous
 62
     7
370
    30
100
AcDbLine
 10
93.6829919245
 20
187.0993896686
 30
0.0
 11
127.5829902168
 21
187.0993896686
 31
0.0
  0
ARC
  5
75
330
1F
100
AcDbEntity
  8
0
  6
Continuous
 62
     7
370
    30
100
AcDbCircle
 10
127.582990184
 20
110.6993908965
 30
0.0
 40
1.799999999999997
100
AcDbArc
 50
270.0
 51
0.0
  0
ARC
  5
76
330
1F
100
AcDbEntity
  8
0
  6
Continuous
 62
     7
370
    30
100
AcDbCircle
 10
93.682990184
 20
185.2993908965
 30
0.0
 40
1.80000000000004
100
AcDbArc
 50
90.0
 51
180.0
  0
LINE
  5
77
330
1F
100
AcDbEntity
  8
0
  6
Continuous
 62
     7
370
    30
100
AcDbLine
 10
91.8829912569
 20
110.6993890666
 30
0.0
 11
91.8829912569
 21
185.2993927263
 31
0.0
  0
ARC
  5
78
330
1F
100
AcDbEntity
  8
0
  6
Continuous
 62
     7
370
    30
100
AcDbCircle
 10
127.582990184
 20
185.2993908965
 30
0.0
 40
1.800000000000011
100
AcDbArc
 50
0.0
 51
90.0
  0
LINE
  5
79
330
1F
100
AcDbEntity
  8
0
  6
Continuous
 62
     7
370
    30
100
AcDbLine
 10
129.382989953
 20
185.2993927263
 30
0.0
 11
129.382989953
 21
110.6993890666
 31
0.0
  0
ARC
  5
7A
330
1F
100
AcDbEntity
  8
0
  6
Continuous
 62
     7
370
    30
100
AcDbCircle
 10
124.582990184
 20
182.2993908965
 30
0.0
 40
0.3000000000000114
100
AcDbArc
 50
0.0
 51
90.0
  0
LINE
  5
7B
330
1F
100
AcDbEntity
  8
0
  6
Continuous
 62
     7
370
    30
100
AcDbLine
 10
124.5829897251
 20
182.599391725
 30
0.0
 11
96.6829905536
 21
182.599391725
 31
0.0
  0
ARC
  5
7C
330
1F
100
AcDbEntity
  8
0
  6
Continuous
 62
     7
370
    30
100
AcDbCircle
 10
96.682990184
 20
113.6993908965
 30
0.0
 40
0.2999999999999972
100
AcDbArc
 50
180.0
 51
270.0
  0
LINE
  5
7D
330
1F
100
AcDbEntity
  8
0
  6
Continuous
 62
     7
370
    30
100
AcDbLine
 10
96.6829905536
 20
113.399390068
 30
0.0
 11
124.5829897251
 21
113.399390068
 31
0.0
  0
ARC
  5
7E
330
1F
100
AcDbEntity
  8
0
  6
Continuous
 62
     7
370
    30
100
AcDbCircle
 10
124.582990184
 20
113.6993908965
 30
0.0
 40
0.3000000000000114
100
AcDbArc
 50
270.0
 51
0.0
  0
LINE
  5
7F
330
1F
100
AcDbEntity
  8
0
  6
Continuous
 62
     7
370
    30
100
AcDbLine
 10
124.8829901468
 20
113.699391421
 30
0.0
 11
124.8829901468
 21
182.2993903719
 31
0.0
  0
LINE
  5
80
330
1F
100
AcDbEntity
  8
0
  6
Continuous
 62
     7
370
    30
100
AcDbLine
 10
96.3829892005
 20
182.2993903719
 30
0.0
 11
96.3829892005
 21
113.699391421
 31
0.0
  0
ARC
  5
81
330
1F
100
AcDbEntity
  8
0
  6
Continuous
 62
     7
370
    30
100
AcDbCircle
 10
96.682990184
 20
182.2993908965
 30
0.0
 40
0.3000000000000114
100
AcDbArc
 50
90.0
 51
180.0
  0
ARC
  5
82
330
1F
100
AcDbEntity
  8
0
  6
Continuous
 62
     7
370
    30
100
AcDbCircle
 10
37.221713121
 20
207.7923769563
 30
0.0
 40
0.2000053280188695
100
AcDbArc
 50
90.0010818404
 51
134.9999941968
  0
ARC
  5
83
330
1F
100
AcDbEntity
  8
0
  6
Continuous
 62
     7
370
    30
100
AcDbCircle
 10
37.221713121
 20
88.2064048366
 30
0.0
 40
0.2000053280188896
100
AcDbArc
 50
225.0000058032
 51
269.9989181596
  0
LINE
  5
84
330
1F
100
AcDbEntity
  8
0
  6
Continuous
 62
     7
370
    30
100
AcDbLine
 10
37.2217093446
 20
207.9923822843
 30
0.0
 11
43.6560237632
 21
207.9923822843
 31
0.0
  0
LINE
  5
85
330
1F
100
AcDbEntity
  8
0
  6
Continuous
 62
     7
370
    30
100
AcDbLine
 10
37.2217093446
 20
88.0063995086
 30
0.0
 11
43.6560237632
 21
88.0063995086
 31
0.0
  0
ARC
  5
86
330
1F
100
AcDbEntity
  8
0
  6
Continuous
 62
     7
370
    30
100
AcDbCircle
 10
43.6560204791
 20
88.2064036479
 30
0.0
 40
0.2000041393433106
100
AcDbArc
 50
270.0009407947
 51
315.0001352425
  0
ARC
  5
87
330
1F
100
AcDbEntity
  8
0
  6
Continuous
 62
     7
370
    30
100
AcDbCircle
 10
43.6560204791
 20
207.792378145
 30
0.0
 40
0.2000041393432878
100
AcDbArc
 50
44.9998647575
 51
89.9990592053
  0
LINE
  5
88
330
1F
100
AcDbEntity
  8
0
  6
Continuous
 62
     7
370
    30
100
AcDbLine
 10
36.1974452845
 20
207.050964173
 30
0.0
 11
37.0802880116
 21
207.9338020944
 31
0.0
  0
LINE
  5
89
330
1F
100
AcDbEntity
  8
0
  6
Continuous
 62
     7
370
    30
100
AcDbLine
 10
36.1974452845
 20
88.9478176199
 30
0.0
 11
37.0802880116
 21
88.0649796986
 31
0.0
  0
LINE
  5
8A
330
1F
100
AcDbEntity
  8
0
  6
Continuous
 62
     7
370
    30
100
AcDbLine
 10
43.7974450961
 20
207.9338020944
 30
0.0
 11
44.6802876741
 21
207.050964173
 31
0.0
  0
LINE
  5
8B
330
1F
100
AcDbEntity
  8
0
  6
Continuous
 62
     7
370
    30
100
AcDbLine
 10
43.7974450961
 20
88.0649796986
 30
0.0
 11
44.6802876741
 21
88.9478176199
 31
0.0
  0
LINE
  5
8C
330
1F
100
AcDbEntity
  8
0
  6
Continuous
 62
     7
370
    30
100
AcDbLine
 10
36.1388666407
 20
204.4844216966
 30
0.0
 11
36.1388666407
 21
206.9095447027
 31
0.0
  0
ARC
  5
8D
330
1F
100
AcDbEntity
  8
0
  6
Continuous
 62
     7
370
    30
100
AcDbCircle
 10
36.3388557604
 20
206.9095473235
 30
0.0
 40
0.1999891197176701
100
AcDbArc
 50
134.9987088295
 51
180.0007508586
  0
LINE
  5
8E
330
1F
100
AcDbEntity
  8
0
  6
Continuous
 62
     7
370
    30
100
AcDbLine
 10
36.1388666407
 20
89.0892370903
 30
0.0
 11
36.1388666407
 21
91.5143600964
 31
0.0
  0
ARC
  5
8F
330
1F
100
AcDbEntity
  8
0
  6
Continuous
 62
     7
370
    30
100
AcDbCircle
 10
36.3388557604
 20
89.0892344694
 30
0.0
 40
0.1999891197176778
100
AcDbArc
 50
179.9992491414
 51
225.0012911705
  0
LINE
  5
90
330
1F
100
AcDbEntity
  8
0
  6
Continuous
 62
     7
370
    30
100
AcDbLine
 10
44.7388669327
 20
91.5143600964
 30
0.0
 11
44.7388669327
 21
89.0892370903
 31
0.0
  0
ARC
  5
91
330
1F
100
AcDbEntity
  8
0
  6
Continuous
 62
     7
370
    30
100
AcDbCircle
 10
44.5388754932
 20
89.0892360451
 30
0.0
 40
0.1999914395043901
100
AcDbArc
 50
314.9987350358
 51
0.0002994275
  0
ARC
  5
92
330
1F
100
AcDbEntity
  8
0
  6
Continuous
 62
     7
370
    30
100
AcDbCircle
 10
44.5388754932
 20
206.9095457478
 30
0.0
 40
0.1999914395043899
100
AcDbArc
 50
359.9997005725
 51
45.0012649642
  0
LINE
  5
93
330
1F
100
AcDbEntity
  8
0
  6
Continuous
 62
     7
370
    30
100
AcDbLine
 10
44.7388669327
 20
206.9095447027
 30
0.0
 11
44.7388669327
 21
204.4844216966
 31
0.0
  0
LINE
  5
94
330
1F
100
AcDbEntity
  8
0
  6
Continuous
 62
     7
370
    30
100
AcDbLine
 10
44.7388669327
 20
204.4844216966
 30
0.0
 11
44.7388669327
 21
91.5143600964
 31
0.0
  0
LINE
  5
95
330
1F
100
AcDbEntity
  8
0
  6
Continuous
 62
     7
370
    30
100
AcDbLine
 10
36.1388666407
 20
91.5143600964
 30
0.0
 11
36.1388666407
 21
204.4844216966
 31
0.0
  0
ARC
  5
96
330
1F
100
AcDbEntity
  8
0
  6
Continuous
 62
     7
370
    30
100
AcDbCircle
 10
230.568577718
 20
207.7923769563
 30
0.0
 40
0.2000053280188846
100
AcDbArc
 50
45.0000058032
 51
89.9989181596
  0
ARC
  5
97
330
1F
100
AcDbEntity
  8
0
  6
Continuous
 62
     7
370
    30
100
AcDbCircle
 10
230.568577718
 20
88.2064048366
 30
0.0
 40
0.2000053280189047
100
AcDbArc
 50
270.0010818404
 51
314.9999941968
  0
LINE
  5
98
330
1F
100
AcDbEntity
  8
0
  6
Continuous
 62
     7
370
    30
100
AcDbLine
 10
230.5685814944
 20
207.9923822843
 30
0.0
 11
224.1342670758
 21
207.9923822843
 31
0.0
  0
LINE
  5
99
330
1F
100
AcDbEntity
  8
0
  6
Continuous
 62
     7
370
    30
100
AcDbLine
 10
230.5685814944
 20
88.0063995086
 30
0.0
 11
224.1342670758
 21
88.0063995086
 31
0.0
  0
ARC
  5
9A
330
1F
100
AcDbEntity
  8
0
  6
Continuous
 62
     7
370
    30
100
AcDbCircle
 10
224.1342703599
 20
207.792378145
 30
0.0
 40
0.2000041393432878
100
AcDbArc
 50
90.0009407947
 51
135.0001352425
  0
ARC
  5
9B
330
1F
100
AcDbEntity
  8
0
  6
Continuous
 62
     7
370
    30
100
AcDbCircle
 10
224.1342703599
 20
88.2064036479
 30
0.0
 40
0.2000041393433106
100
AcDbArc
 50
224.9998647575
 51
269.9990592053
  0
LINE
  5
9C
330
1F
100
AcDbEntity
  8
0
  6
Continuous
 62
     7
370
    30
100
AcDbLine
 10
231.5928455545
 20
207.050964173
 30
0.0
 11
230.7100028274
 21
207.9338020944
 31
0.0
  0
LINE
  5
9D
330
1F
100
AcDbEntity
  8
0
  6
Continuous
 62
     7
370
    30
100
AcDbLine
 10
231.5928455545
 20
88.9478176199
 30
0.0
 11
230.7100028274
 21
88.0649796986
 31
0.0
  0
LINE
  5
9E
330
1F
100
AcDbEntity
  8
0
  6
Continuous
 62
     7
370
    30
100
AcDbLine
 10
223.9928457429
 20
207.9338020944
 30
0.0
 11
223.1100031649
 21
207.050964173
 31
0.0
  0
LINE
  5
9F
330
1F
100
AcDbEntity
  8
0
  6
Continuous
 62
     7
370
    30
100
AcDbLine
 10
223.9928457429
 20
88.0649796986
 30
0.0
 11
223.1100031649
 21
88.9478176199
 31
0.0
  0
LINE
  5
A0
330
1F
100
AcDbEntity
  8
0
  6
Continuous
 62
     7
370
    30
100
AcDbLine
 10
231.6514241983
 20
206.9095447027
 30
0.0
 11
231.6514241983
 21
204.4844216966
 31
0.0
  0
ARC
  5
A1
330
1F
100
AcDbEntity
  8
0
  6
Continuous
 62
     7
370
    30
100
AcDbCircle
 10
231.4514350786
 20
206.9095473235
 30
0.0
 40
0.199989119717663
100
AcDbArc
 50
359.9992491414
 51
45.0012911705
  0
LINE
  5
A2
330
1F
100
AcDbEntity
  8
0
  6
Continuous
 62
     7
370
    30
100
AcDbLine
 10
231.6514241983
 20
91.5143600964
 30
0.0
 11
231.6514241983
 21
89.0892370903
 31
0.0
  0
ARC
  5
A3
330
1F
100
AcDbEntity
  8
0
  6
Continuous
 62
     7
370
    30
100
AcDbCircle
 10
231.4514350786
 20
89.0892344694
 30
0.0
 40
0.1999891197176727
100
AcDbArc
 50
314.9987088295
 51
0.0007508586
  0
LINE
  5
A4
330
1F
100
AcDbEntity
  8
0
  6
Continuous
 62
     7
370
    30
100
AcDbLine
 10
223.0514239063
 20
89.0892370903
 30
0.0
 11
223.0514239063
 21
91.5143600964
 31
0.0
  0
ARC
  5
A5
330
1F
100
AcDbEntity
  8
0
  6
Continuous
 62
     7
370
    30
100
AcDbCircle
 10
223.2514153458
 20
89.0892360451
 30
0.0
 40
0.1999914395044041
100
AcDbArc
 50
179.9997005725
 51
225.0012649642
  0
LINE
  5
A6
330
1F
100
AcDbEntity
  8
0
  6
Continuous
 62
     7
370
    30
100
AcDbLine
 10
223.0514239063
 20
204.4844216966
 30
0.0
 11
223.0514239063
 21
206.9095447027
 31
0.0
  0
ARC
  5
A7
330
1F
100
AcDbEntity
  8
0
  6
Continuous
 62
     7
370
    30
100
AcDbCircle
 10
223.2514153458
 20
206.9095457478
 30
0.0
 40
0.1999914395044041
100
AcDbArc
 50
134.9987350358
 51
180.0002994275
  0
LINE
  5
A8
330
1F
100
AcDbEntity
  8
0
  6
Continuous
 62
     7
370
    30
100
AcDbLine
 10
231.6514241983
 20
204.4844216966
 30
0.0
 11
231.6514241983
 21
91.5143600964
 31
0.0
  0
LINE
  5
A9
330
1F
100
AcDbEntity
  8
0
  6
Continuous
 62
     7
370
    30
100
AcDbLine
 10
223.0514239063
 20
91.5143600964
 30
0.0
 11
223.0514239063
 21
204.4844216966
 31
0.0
  0
ARC
  5
AA
330
1F
100
AcDbEntity
  8
0
  6
Continuous
 62
     7
370
    30
100
AcDbCircle
 10
75.8397708897
 20
44.586198906
 30
0.0
 40
0.2000064589526782
100
AcDbArc
 50
180.0001488042
 51
224.9983507386
  0
LINE
  5
AB
330
1F
100
AcDbEntity
  8
0
  6
Continuous
 62
     7
370
    30
100
AcDbLine
 10
75.6397644307
 20
44.5861983865
 30
0.0
 11
75.6397644307
 21
51.0205128051
 31
0.0
  0
ARC
  5
AC
330
1F
100
AcDbEntity
  8
0
  6
Continuous
 62
     7
370
    30
100
AcDbCircle
 10
75.8397697008
 20
51.0205127781
 30
0.0
 40
0.2000052701223343
100
AcDbArc
 50
135.0015082006
 51
179.9999922566
  0
ARC
  5
AD
330
1F
100
AcDbEntity
  8
0
  6
Continuous
 62
     7
370
    30
100
AcDbCircle
 10
191.4262094784
 20
44.586198906
 30
0.0
 40
0.2000064589526782
100
AcDbArc
 50
315.0016492614
 51
359.9998511958
  0
LINE
  5
AE
330
1F
100
AcDbEntity
  8
0
  6
Continuous
 62
     7
370
    30
100
AcDbLine
 10
191.6262159373
 20
44.5861983865
 30
0.0
 11
191.6262159373
 21
51.0205128051
 31
0.0
  0
ARC
  5
AF
330
1F
100
AcDbEntity
  8
0
  6
Continuous
 62
     7
370
    30
100
AcDbCircle
 10
191.4262106672
 20
51.0205127781
 30
0.0
 40
0.2000052701223485
100
AcDbArc
 50
0.0000077434
 51
44.9984917994
  0
SPLINE
  5
B0
330
1F
100
AcDbEntity
  8
0
  6
Continuous
 62
     7
370
    30
100
AcDbSpline
210
0.0
220
0.0
230
1.0
 70
     8
 71
     3
 72
    12
 73
     8
 74
     0
 42
0.00000001
 43
0.00000001
 12
1.0
 22
0.0
 32
0.0
 13
1.0
 23
0.0
 33
0.0
 40
0.0
 40
0.0
 40
0.0
 40
0.0
 40
0.0710011418145906
 40
0.3032506578325559
 40
0.535499743888022
 40
0.7677493461537978
 40
1.0
 40
1.0
 40
1.0
 40
1.0
 10
159.6294759090511
 20
44.56252905613929
 30
0.0
 10
159.626911767185
 20
44.57944889157322
 30
0.0
 10
159.6159601446085
 20
44.6517146480755
 30
0.0
 10
159.5647507524074
 20
44.77370170721259
 30
0.0
 10
159.4514070796895
 20
44.900567179281
 30
0.0
 10
159.3016401239291
 20
44.98677448226073
 30
0.0
 10
159.1892065976015
 20
44.99782861619333
 30
0.0
 10
159.1329897071687
 20
45.00335569567233
 30
0.0
  0
SPLINE
  5
B1
330
1F
100
AcDbEntity
  8
0
  6
Continuous
 62
     7
370
    30
100
AcDbSpline
210
0.0
220
0.0
230
1.0
 70
     8
 71
     3
 72
    12
 73
     8
 74
     0
 42
0.00000001
 43
0.00000001
 12
1.0
 22
0.0
 32
0.0
 13
1.0
 23
0.0
 33
0.0
 40
0.0
 40
0.0
 40
0.0
 40
0.0
 40
0.0710030567940219
 40
0.3032521246409485
 40
0.5355020654326756
 40
0.7677511757328154
 40
1.0
 40
1.0
 40
1.0
 40
1.0
 10
108.132990660843
 20
45.00335569567233
 30
0.0
 10
108.1158858541619
 20
45.00281194489122
 30
0.0
 10
108.0428316899916
 20
45.00048960009237
 30
0.0
 10
107.9156410846387
 20
44.96407698055627
 30
0.0
 10
107.7762538043173
 20
44.86654337565442
 30
0.0
 10
107.6729279332456
 20
44.72803148196931
 30
0.0
 10
107.6486456120714
 20
44.61769650876826
 30
0.0
 10
107.6365044589607
 20
44.56252905613929
 30
0.0
  0
SPLINE
  5
B2
330
1F
100
AcDbEntity
  8
0
  6
Continuous
 62
     7
370
    30
100
AcDbSpline
210
0.0
220
0.0
230
1.0
 70
     8
 71
     3
 72
    12
 73
     8
 74
     0
 42
0.00000001
 43
0.00000001
 12
1.0
 22
0.0
 32
0.0
 13
1.0
 23
0.0
 33
0.0
 40
0.0
 40
0.0
 40
0.0
 40
0.0
 40
0.0710014891691074
 40
0.3032509240497806
 40
0.5355000018186103
 40
0.7677494486652336
 40
1.0
 40
1.0
 40
1.0
 40
1.0
 10
113.6294758196441
 20
44.56252905613929
 30
0.0
 10
113.6269116829949
 20
44.57944897022004
 30
0.0
 10
113.6159601266633
 20
44.65171477252753
 30
0.0
 10
113.5647506234631
 20
44.77370180919856
 30
0.0
 10
113.4514070500232
 20
44.90056730102956
 30
0.0
 10
113.3016400063366
 20
44.98677445410197
 30
0.0
 10
113.1892065030682
 20
44.99782860638736
 30
0.0
 10
113.1329896177618
 20
45.00335569567233
 30
0.0
  0
SPLINE
  5
B3
330
1F
100
AcDbEntity
  8
0
  6
Continuous
 62
     7
370
    30
100
AcDbSpline
210
0.0
220
0.0
230
1.0
 70
     8
 71
     3
 72
    12
 73
     8
 74
     0
 42
0.00000001
 43
0.00000001
 12
1.0
 22
0.0
 32
0.0
 13
1.0
 23
0.0
 33
0.0
 40
0.0
 40
0.0
 40
0.0
 40
0.0
 40
0.0710030291884916
 40
0.3032520021616373
 40
0.5355018042448456
 40
0.7677510808951696
 40
1.0
 40
1.0
 40
1.0
 40
1.0
 10
154.13299075025
 20
45.00335569567233
 30
0.0
 10
154.1158859433929
 20
45.00281194531058
 30
0.0
 10
154.0428317795735
 20
45.00048960233783
 30
0.0
 10
153.9156412024591
 20
44.96407694953106
 30
0.0
 10
153.7762537917998
 20
44.86654347592351
 30
0.0
 10
153.6729280493743
 20
44.72803146904373
 30
0.0
 10
153.6486457091394
 20
44.61769649879748
 30
0.0
 10
153.6365045483676
 20
44.56252905613929
 30
0.0
  0
LINE
  5
B4
330
1F
100
AcDbEntity
  8
0
  6
Continuous
 62
     7
370
    30
100
AcDbLine
 10
76.5811788167
 20
43.5619343264
 30
0.0
 11
75.6983408954
 21
44.4447770536
 31
0.0
  0
LINE
  5
B5
330
1F
100
AcDbEntity
  8
0
  6
Continuous
 62
     7
370
    30
100
AcDbLine
 10
75.6983408954
 20
51.1619341381
 30
0.0
 11
76.5811788167
 21
52.0447767161
 31
0.0
  0
LINE
  5
B6
330
1F
100
AcDbEntity
  8
0
  6
Continuous
 62
     7
370
    30
100
AcDbLine
 10
190.6848015513
 20
43.5619343264
 30
0.0
 11
191.5676394727
 21
44.4447770536
 31
0.0
  0
LINE
  5
B7
330
1F
100
AcDbEntity
  8
0
  6
Continuous
 62
     7
370
    30
100
AcDbLine
 10
191.5676394727
 20
51.1619341381
 30
0.0
 11
190.6848015513
 21
52.0447767161
 31
0.0
  0
LINE
  5
B8
330
1F
100
AcDbEntity
  8
0
  6
Continuous
 62
     7
370
    30
100
AcDbLine
 10
113.1329896178
 20
45.0033556957
 30
0.0
 11
108.1329906608
 21
45.0033556957
 31
0.0
  0
LINE
  5
B9
330
1F
100
AcDbEntity
  8
0
  6
Continuous
 62
     7
370
    30
100
AcDbLine
 10
159.1329897072
 20
45.0033556957
 30
0.0
 11
154.1329907503
 21
45.0033556957
 31
0.0
  0
LINE
  5
BA
330
1F
100
AcDbEntity
  8
0
  6
Continuous
 62
     7
370
    30
100
AcDbLine
 10
159.6329907204
 20
44.5033557301
 30
0.0
 11
159.6294759091
 21
44.5625290561
 31
0.0
  0
LINE
  5
BB
330
1F
100
AcDbEntity
  8
0
  6
Continuous
 62
     7
370
    30
100
AcDbLine
 10
107.636504459
 20
44.5625290561
 30
0.0
 11
107.6329896476
 21
44.5033557301
 31
0.0
  0
LINE
  5
BC
330
1F
100
AcDbEntity
  8
0
  6
Continuous
 62
     7
370
    30
100
AcDbLine
 10
153.6365045484
 20
44.5625290561
 30
0.0
 11
153.632989737
 21
44.5033557301
 31
0.0
  0
LINE
  5
BD
330
1F
100
AcDbEntity
  8
0
  6
Continuous
 62
     7
370
    30
100
AcDbLine
 10
113.632990631
 20
44.5033557301
 30
0.0
 11
113.6294758196
 21
44.5625290561
 31
0.0
  0
LINE
  5
BE
330
1F
100
AcDbEntity
  8
0
  6
Continuous
 62
     7
370
    30
100
AcDbLine
 10
107.6329896476
 20
44.5033557301
 30
0.0
 11
107.6329896476
 21
43.7033556776
 31
0.0
  0
LINE
  5
BF
330
1F
100
AcDbEntity
  8
0
  6
Continuous
 62
     7
370
    30
100
AcDbLine
 10
159.6329907204
 20
43.7033556776
 30
0.0
 11
159.6329907204
 21
44.5033557301
 31
0.0
  0
LINE
  5
C0
330
1F
100
AcDbEntity
  8
0
  6
Continuous
 62
     7
370
    30
100
AcDbLine
 10
113.632990631
 20
43.7033556776
 30
0.0
 11
113.632990631
 21
44.5033557301
 31
0.0
  0
LINE
  5
C1
330
1F
100
AcDbEntity
  8
0
  6
Continuous
 62
     7
370
    30
100
AcDbLine
 10
153.632989737
 20
44.5033557301
 30
0.0
 11
153.632989737
 21
43.7033556776
 31
0.0
  0
LINE
  5
C2
330
1F
100
AcDbEntity
  8
0
  6
Continuous
 62
     7
370
    30
100
AcDbLine
 10
79.1479969646
 20
43.5033556826
 30
0.0
 11
76.7226020123
 21
43.5033556826
 31
0.0
  0
ARC
  5
C3
330
1F
100
AcDbEntity
  8
0
  6
Continuous
 62
     7
370
    30
100
AcDbCircle
 10
76.7226043237
 20
43.7033657034
 30
0.0
 40
0.2000100207808274
100
AcDbArc
 50
225.0011890317
 51
269.9993378738
  0
LINE
  5
C4
330
1F
100
AcDbEntity
  8
0
  6
Continuous
 62
     7
370
    30
100
AcDbLine
 10
76.7226020123
 20
52.1033559747
 30
0.0
 11
79.1479969646
 21
52.1033559747
 31
0.0
  0
ARC
  5
C5
330
1F
100
AcDbEntity
  8
0
  6
Continuous
 62
     7
370
    30
100
AcDbCircle
 10
76.7226058995
 20
51.903343634
 30
0.0
 40
0.200012340748494
100
AcDbArc
 50
90.0011135247
 51
134.9987847867
  0
LINE
  5
C6
330
1F
100
AcDbEntity
  8
0
  6
Continuous
 62
     7
370
    30
100
AcDbLine
 10
190.5433783557
 20
43.5033556826
 30
0.0
 11
188.1179834034
 21
43.5033556826
 31
0.0
  0
ARC
  5
C7
330
1F
100
AcDbEntity
  8
0
  6
Continuous
 62
     7
370
    30
100
AcDbCircle
 10
190.5433760443
 20
43.7033657034
 30
0.0
 40
0.2000100207808363
100
AcDbArc
 50
270.0006621262
 51
314.9988109683
  0
LINE
  5
C8
330
1F
100
AcDbEntity
  8
0
  6
Continuous
 62
     7
370
    30
100
AcDbLine
 10
188.1179834034
 20
52.1033559747
 30
0.0
 11
190.5433783557
 21
52.1033559747
 31
0.0
  0
ARC
  5
C9
330
1F
100
AcDbEntity
  8
0
  6
Continuous
 62
     7
370
    30
100
AcDbCircle
 10
190.5433744685
 20
51.903343634
 30
0.0
 40
0.2000123407484869
100
AcDbArc
 50
45.0012152133
 51
89.9988864753
  0
LINE
  5
CA
330
1F
100
AcDbEntity
  8
0
  6
Continuous
 62
     7
370
    30
100
AcDbLine
 10
107.4329899873
 20
43.5033556826
 30
0.0
 11
79.1479969646
 21
43.5033556826
 31
0.0
  0
LINE
  5
CB
330
1F
100
AcDbEntity
  8
0
  6
Continuous
 62
     7
370
    30
100
AcDbLine
 10
79.1479969646
 20
52.1033559747
 30
0.0
 11
188.1179834034
 21
52.1033559747
 31
0.0
  0
LINE
  5
CC
330
1F
100
AcDbEntity
  8
0
  6
Continuous
 62
     7
370
    30
100
AcDbLine
 10
188.1179834034
 20
43.5033556826
 30
0.0
 11
159.8329903807
 21
43.5033556826
 31
0.0
  0
ARC
  5
CD
330
1F
100
AcDbEntity
  8
0
  6
Continuous
 62
     7
370
    30
100
AcDbCircle
 10
107.432990184
 20
43.7033556826
 30
0.0
 40
0.2000000000000028
100
AcDbArc
 50
270.0
 51
359.9999999995
  0
ARC
  5
CE
330
1F
100
AcDbEntity
  8
0
  6
Continuous
 62
     7
370
    30
100
AcDbCircle
 10
159.832990184
 20
43.7033556826
 30
0.0
 40
0.2000000000000028
100
AcDbArc
 50
180.0
 51
270.0
  0
ARC
  5
CF
330
1F
100
AcDbEntity
  8
0
  6
Continuous
 62
     7
370
    30
100
AcDbCircle
 10
113.832990184
 20
43.7033556826
 30
0.0
 40
0.2000000000000028
100
AcDbArc
 50
180.0000000004
 51
270.0
  0
ARC
  5
D0
330
1F
100
AcDbEntity
  8
0
  6
Continuous
 62
     7
370
    30
100
AcDbCircle
 10
153.432990184
 20
43.7033556826
 30
0.0
 40
0.2000000000000171
100
AcDbArc
 50
270.0
 51
360.0
  0
LINE
  5
D1
330
1F
100
AcDbEntity
  8
0
  6
Continuous
 62
     7
370
    30
100
AcDbLine
 10
153.4329900767
 20
43.5033556826
 30
0.0
 11
113.8329902913
 21
43.5033556826
 31
0.0
  0
LINE
  5
D2
330
1F
100
AcDbEntity
  8
0
  6
Continuous
 62
     7
370
    30
100
AcDbLine
 10
107.4329899873
 20
43.5033556826
 30
0.0
 11
113.8329902913
 21
43.5033556826
 31
0.0
  0
LINE
  5
D3
330
1F
100
AcDbEntity
  8
0
  6
Continuous
 62
     7
370
    30
100
AcDbLine
 10
153.4329900767
 20
43.5033556826
 30
0.0
 11
159.8329903807
 21
43.5033556826
 31
0.0
  0
ARC
  5
D4
330
1F
100
AcDbEntity
  8
0
  6
Continuous
 62
     7
370
    30
100
AcDbCircle
 10
75.8397708897
 20
254.7787812777
 30
0.0
 40
0.2000064589527132
100
AcDbArc
 50
135.0016492614
 51
179.9998511957
  0
LINE
  5
D5
330
1F
100
AcDbEntity
  8
0
  6
Continuous
 62
     7
370
    30
100
AcDbLine
 10
75.6397644307
 20
254.7787817971
 30
0.0
 11
75.6397644307
 21
248.3444673785
 31
0.0
  0
ARC
  5
D6
330
1F
100
AcDbEntity
  8
0
  6
Continuous
 62
     7
370
    30
100
AcDbCircle
 10
75.8397697008
 20
248.3444674056
 30
0.0
 40
0.2000052701223418
100
AcDbArc
 50
180.0000077434
 51
224.9984917994
  0
ARC
  5
D7
330
1F
100
AcDbEntity
  8
0
  6
Continuous
 62
     7
370
    30
100
AcDbCircle
 10
191.4262094784
 20
254.7787812777
 30
0.0
 40
0.2000064589527132
100
AcDbArc
 50
0.0001488043
 51
44.9983507386
  0
LINE
  5
D8
330
1F
100
AcDbEntity
  8
0
  6
Continuous
 62
     7
370
    30
100
AcDbLine
 10
191.6262159373
 20
254.7787817971
 30
0.0
 11
191.6262159373
 21
248.3444673785
 31
0.0
  0
ARC
  5
D9
330
1F
100
AcDbEntity
  8
0
  6
Continuous
 62
     7
370
    30
100
AcDbCircle
 10
191.4262106672
 20
248.3444674056
 30
0.0
 40
0.2000052701223485
100
AcDbArc
 50
315.0015082006
 51
359.9999922566
  0
LINE
  5
DA
330
1F
100
AcDbEntity
  8
0
  6
Continuous
 62
     7
370
    30
100
AcDbLine
 10
76.5811788167
 20
255.8030458572
 30
0.0
 11
75.6983408954
 21
254.9202031301
 31
0.0
  0
LINE
  5
DB
330
1F
100
AcDbEntity
  8
0
  6
Continuous
 62
     7
370
    30
100
AcDbLine
 10
75.6983408954
 20
248.2030460456
 30
0.0
 11
76.5811788167
 21
247.3202034676
 31
0.0
  0
LINE
  5
DC
330
1F
100
AcDbEntity
  8
0
  6
Continuous
 62
     7
370
    30
100
AcDbLine
 10
190.6848015513
 20
255.8030458572
 30
0.0
 11
191.5676394727
 21
254.9202031301
 31
0.0
  0
LINE
  5
DD
330
1F
100
AcDbEntity
  8
0
  6
Continuous
 62
     7
370
    30
100
AcDbLine
 10
191.5676394727
 20
248.2030460456
 30
0.0
 11
190.6848015513
 21
247.3202034676
 31
0.0
  0
LINE
  5
DE
330
1F
100
AcDbEntity
  8
0
  6
Continuous
 62
     7
370
    30
100
AcDbLine
 10
76.7226020123
 20
255.861624501
 30
0.0
 11
79.1479969646
 21
255.861624501
 31
0.0
  0
ARC
  5
DF
330
1F
100
AcDbEntity
  8
0
  6
Continuous
 62
     7
370
    30
100
AcDbCircle
 10
76.7226043237
 20
255.6616144802
 30
0.0
 40
0.2000100207808345
100
AcDbArc
 50
90.0006621262
 51
134.9988109683
  0
LINE
  5
E0
330
1F
100
AcDbEntity
  8
0
  6
Continuous
 62
     7
370
    30
100
AcDbLine
 10
79.1479969646
 20
247.261624209
 30
0.0
 11
76.7226020123
 21
247.261624209
 31
0.0
  0
ARC
  5
E1
330
1F
100
AcDbEntity
  8
0
  6
Continuous
 62
     7
370
    30
100
AcDbCircle
 10
76.7226058995
 20
247.4616365497
 30
0.0
 40
0.2000123407485153
100
AcDbArc
 50
225.0012152133
 51
269.9988864753
  0
LINE
  5
E2
330
1F
100
AcDbEntity
  8
0
  6
Continuous
 62
     7
370
    30
100
AcDbLine
 10
188.1179834034
 20
255.861624501
 30
0.0
 11
190.5433783557
 21
255.861624501
 31
0.0
  0
ARC
  5
E3
330
1F
100
AcDbEntity
  8
0
  6
Continuous
 62
     7
370
    30
100
AcDbCircle
 10
190.5433760443
 20
255.6616144802
 30
0.0
 40
0.2000100207808413
100
AcDbArc
 50
45.0011890317
 51
89.9993378738
  0
LINE
  5
E4
330
1F
100
AcDbEntity
  8
0
  6
Continuous
 62
     7
370
    30
100
AcDbLine
 10
190.5433783557
 20
247.261624209
 30
0.0
 11
188.1179834034
 21
247.261624209
 31
0.0
  0
ARC
  5
E5
330
1F
100
AcDbEntity
  8
0
  6
Continuous
 62
     7
370
    30
100
AcDbCircle
 10
190.5433744685
 20
247.4616365497
 30
0.0
 40
0.2000123407485153
100
AcDbArc
 50
270.0011135247
 51
314.9987847867
  0
LINE
  5
E6
330
1F
100
AcDbEntity
  8
0
  6
Continuous
 62
     7
370
    30
100
AcDbLine
 10
79.1479969646
 20
255.861624501
 30
0.0
 11
188.1179834034
 21
255.861624501
 31
0.0
  0
LINE
  5
E7
330
1F
100
AcDbEntity
  8
0
  6
Continuous
 62
     7
370
    30
100
AcDbLine
 10
188.1179834034
 20
247.261624209
 30
0.0
 11
79.1479969646
 21
247.261624209
 31
0.0
  0
LINE
  5
E8
330
1F
100
AcDbEntity
  8
0
  6
Continuous
 62
     7
370
    30
100
AcDbLine
 10
291.7092265665
 20
186.4993906878
 30
0.0
 11
311.4412790268
 21
186.4993906878
 31
0.0
  0
LINE
  5
E9
330
1F
100
AcDbEntity
  8
0
  6
Continuous
 62
     7
370
    30
100
AcDbLine
 10
283.4252538263
 20
138.1333655976
 30
0.0
 11
283.4252538263
 21
157.8654161953
 31
0.0
  0
LINE
  5
EA
330
1F
100
AcDbEntity
  8
0
  6
Continuous
 62
     7
370
    30
100
AcDbLine
 10
311.4412790268
 20
109.4993911051
 30
0.0
 11
291.7092265665
 21
109.4993911051
 31
0.0
  0
LINE
  5
EB
330
1F
100
AcDbEntity
  8
0
  6
Continuous
 62
     7
370
    30
100
AcDbLine
 10
319.7252536296
 20
157.8654161953
 30
0.0
 11
319.7252536296
 21
138.1333655976
 31
0.0
  0
LINE
  5
EC
330
1F
100
AcDbEntity
  8
0
  6
Continuous
 62
     7
370
    30
100
AcDbLine
 10
337.7092285186
 20
186.4993906878
 30
0.0
 11
357.4412809789
 21
186.4993906878
 31
0.0
  0
LINE
  5
ED
330
1F
100
AcDbEntity
  8
0
  6
Continuous
 62
     7
370
    30
100
AcDbLine
 10
329.4252539157
 20
138.1333655976
 30
0.0
 11
329.4252539157
 21
157.8654161953
 31
0.0
  0
LINE
  5
EE
330
1F
100
AcDbEntity
  8
0
  6
Continuous
 62
     7
370
    30
100
AcDbLine
 10
357.4412809789
 20
109.4993911051
 30
0.0
 11
337.7092285186
 21
109.4993911051
 31
0.0
  0
LINE
  5
EF
330
1F
100
AcDbEntity
  8
0
  6
Continuous
 62
     7
370
    30
100
AcDbLine
 10
365.725253719
 20
157.8654161953
 30
0.0
 11
365.725253719
 21
138.1333655976
 31
0.0
  0
ARC
  5
F0
330
1F
100
AcDbEntity
  8
0
  6
Continuous
 62
     7
370
    30
100
AcDbCircle
 10
379.0684990549
 20
91.5063799766
 30
0.0
 40
1.999999999998215
100
AcDbArc
 50
269.8044114292
 51
0.1891404332
  0
ARC
  5
F1
330
1F
100
AcDbEntity
  8
0
  6
Continuous
 62
     7
370
    30
100
AcDbCircle
 10
17492.2752537459
 20
147.9993908965
 30
0.0
 40
17111.29999997326
100
AcDbArc
 50
179.8108595667
 51
180.1891404333
  0
ARC
  5
F2
330
1F
100
AcDbEntity
  8
0
  6
Continuous
 62
     7
370
    30
100
AcDbCircle
 10
379.0684990549
 20
204.4924018163
 30
0.0
 40
1.999999999998215
100
AcDbArc
 50
359.8108595668
 51
90.1955885708
  0
ARC
  5
F3
330
1F
100
AcDbEntity
  8
0
  6
Continuous
 62
     7
370
    30
100
AcDbCircle
 10
324.5752537725
 20
16167.6993908498
 30
0.0
 40
15961.29999995335
100
AcDbArc
 50
269.8044114293
 51
270.1955885707
  0
ARC
  5
F4
330
1F
100
AcDbEntity
  8
0
  6
Continuous
 62
     7
370
    30
100
AcDbCircle
 10
270.0820084904
 20
204.4924018163
 30
0.0
 40
2.000000000000031
100
AcDbArc
 50
89.8044114294
 51
180.1891404331
  0
ARC
  5
F5
330
1F
100
AcDbEntity
  8
0
  6
Continuous
 62
     7
370
    30
100
AcDbCircle
 10
-16843.1247462872
 20
147.9993908965
 30
0.0
 40
17111.30000005993
100
AcDbArc
 50
359.8108595667
 51
0.1891404333
  0
ARC
  5
F6
330
1F
100
AcDbEntity
  8
0
  6
Continuous
 62
     7
370
    30
100
AcDbCircle
 10
270.0820084904
 20
91.5063799767
 30
0.0
 40
2.000000000000031
100
AcDbArc
 50
179.8108595669
 51
270.1955885706
  0
ARC
  5
F7
330
1F
100
AcDbEntity
  8
0
  6
Continuous
 62
     7
370
    30
100
AcDbCircle
 10
324.5752537725
 20
-15871.7006090569
 30
0.0
 40
15961.29999995335
100
AcDbArc
 50
90.094049363
 51
90.1955885707
  0
ARC
  5
F8
330
1F
100
AcDbEntity
  8
0
  6
Continuous
 62
     7
370
    30
100
AcDbCircle
 10
324.5752537725
 20
-15871.7006090569
 30
0.0
 40
15961.29999995335
100
AcDbArc
 50
89.8044114293
 51
89.905950637
  0
LINE
  5
F9
330
1F
100
AcDbEntity
  8
0
  6
Continuous
 62
     7
370
    30
100
AcDbLine
 10
350.5752543091
 20
89.1607291364
 30
0.0
 11
350.5752543091
 21
89.5782149695
 31
0.0
  0
SPLINE
  5
FA
330
1F
100
AcDbEntity
  8
0
  6
Continuous
 62
     7
370
    30
100
AcDbSpline
210
0.0
220
0.0
230
1.0
 70
     8
 71
     3
 72
    12
 73
     8
 74
     0
 42
0.00000001
 43
0.00000001
 12
1.0
 22
0.0
 32
0.0
 13
1.0
 23
0.0
 33
0.0
 40
0.0
 40
0.0
 40
0.0
 40
0.0
 40
0.2146935252211727
 40
0.4293840298595517
 40
0.644077961294959
 40
0.8587727257856667
 40
1.0
 40
1.0
 40
1.0
 40
1.0
 10
350.5752543091289
 20
89.57821496953991
 30
0.0
 10
350.5774655109148
 20
89.57821118010264
 30
0.0
 10
350.5818878833763
 20
89.57820360128146
 30
0.0
 10
350.616367067279
 20
89.57814868466068
 30
0.0
 10
350.6671170837533
 20
89.57806679182536
 30
0.0
 10
350.7233518622028
 20
89.57797000409882
 30
0.0
 10
350.7605099218046
 20
89.57791068240853
 30
0.0
 10
350.7752539693824
 20
89.57788714399365
 30
0.0
  0
LINE
  5
FB
330
1F
100
AcDbEntity
  8
0
  6
Continuous
 62
     7
370
    30
100
AcDbLine
 10
344.5752533257
 20
89.5868613683
 30
0.0
 11
344.5752533257
 21
89.1699529552
 31
0.0
  0
SPLINE
  5
FC
330
1F
100
AcDbEntity
  8
0
  6
Continuous
 62
     7
370
    30
100
AcDbSpline
210
0.0
220
0.0
230
1.0
 70
     8
 71
     3
 72
    12
 73
     8
 74
     0
 42
0.00000001
 43
0.00000001
 12
1.0
 22
0.0
 32
0.0
 13
1.0
 23
0.0
 33
0.0
 40
0.0
 40
0.0
 40
0.0
 40
0.0
 40
0.2146971588719443
 40
0.4293889347831253
 40
0.6440824410963444
 40
0.8587759818150763
 40
1.0
 40
1.0
 40
1.0
 40
1.0
 10
344.3752536653988
 20
89.58711096277264
 30
0.0
 10
344.3977388257973
 20
89.58708333443599
 30
0.0
 10
344.4427085828387
 20
89.5870280784554
 30
0.0
 10
344.5026432337037
 20
89.58695076620046
 30
0.0
 10
344.5478736813128
 20
89.58689585962325
 30
0.0
 10
344.5718391651042
 20
89.58686189556673
 30
0.0
 10
344.5742834581265
 20
89.58686151809795
 30
0.0
 10
344.5752533256523
 20
89.58686136832264
 30
0.0
  0
ARC
  5
FD
330
1F
100
AcDbEntity
  8
0
  6
Continuous
 62
     7
370
    30
100
AcDbCircle
 10
324.5752537725
 20
-15871.7006090569
 30
0.0
 40
15961.29999995335
100
AcDbArc
 50
89.9289245409
 51
90.0710754591
  0
LINE
  5
FE
330
1F
100
AcDbEntity
  8
0
  6
Continuous
 62
     7
370
    30
100
AcDbLine
 10
304.5752542197
 20
89.1699529552
 30
0.0
 11
304.5752542197
 21
89.5868613683
 31
0.0
  0
SPLINE
  5
FF
330
1F
100
AcDbEntity
  8
0
  6
Continuous
 62
     7
370
    30
100
AcDbSpline
210
0.0
220
0.0
230
1.0
 70
     8
 71
     3
 72
    12
 73
     8
 74
     0
 42
0.00000001
 43
0.00000001
 12
1.0
 22
0.0
 32
0.0
 13
1.0
 23
0.0
 33
0.0
 40
0.0
 40
0.0
 40
0.0
 40
0.0
 40
0.214693986067027
 40
0.4293877855167284
 40
0.6440775697596066
 40
0.8587725576648036
 40
1.0
 40
1.0
 40
1.0
 40
1.0
 10
304.575254219722
 20
89.58686136832264
 30
0.0
 10
304.5774652486683
 20
89.58686434478444
 30
0.0
 10
304.5818873046391
 20
89.58687029770545
 30
0.0
 10
304.6163691699275
 20
89.58691505742513
 30
0.0
 10
304.667116940655
 20
89.58697295687152
 30
0.0
 10
304.7233518517754
 20
89.58704496180513
 30
0.0
 10
304.7605098538799
 20
89.58709221360192
 30
0.0
 10
304.7752538799755
 20
89.58711096277264
 30
0.0
  0
LINE
  5
100
330
1F
100
AcDbEntity
  8
0
  6
Continuous
 62
     7
370
    30
100
AcDbLine
 10
298.5752532362
 20
89.5782149695
 30
0.0
 11
298.5752532362
 21
89.1607291364
 31
0.0
  0
SPLINE
  5
101
330
1F
100
AcDbEntity
  8
0
  6
Continuous
 62
     7
370
    30
100
AcDbSpline
210
0.0
220
0.0
230
1.0
 70
     8
 71
     3
 72
    12
 73
     8
 74
     0
 42
0.00000001
 43
0.00000001
 12
1.0
 22
0.0
 32
0.0
 13
1.0
 23
0.0
 33
0.0
 40
0.0
 40
0.0
 40
0.0
 40
0.0
 40
0.2146972463378234
 40
0.4293891297409012
 40
0.6440827449034938
 40
0.8587763275469177
 40
1.0
 40
1.0
 40
1.0
 40
1.0
 10
298.3752535759918
 20
89.57788714399365
 30
0.0
 10
298.3977387368334
 20
89.57792377703095
 30
0.0
 10
298.4427084968586
 20
89.57799704219055
 30
0.0
 10
298.5026431445801
 20
89.57809574590416
 30
0.0
 10
298.5478735852848
 20
89.57817218477562
 30
0.0
 10
298.5718390595914
 20
89.57820990326942
 30
0.0
 10
298.5742833652516
 20
89.57821353035581
 30
0.0
 10
298.5752532362453
 20
89.57821496953991
 30
0.0
  0
LINE
  5
102
330
1F
100
AcDbEntity
  8
0
  6
Continuous
 62
     7
370
    30
100
AcDbLine
 10
344.5752533257
 20
89.1699529552
 30
0.0
 11
344.5752533257
 21
88.3699505888
 31
0.0
  0
LINE
  5
103
330
1F
100
AcDbEntity
  8
0
  6
Continuous
 62
     7
370
    30
100
AcDbLine
 10
304.5752542197
 20
88.3699505888
 30
0.0
 11
304.5752542197
 21
89.1699529552
 31
0.0
  0
LINE
  5
104
330
1F
100
AcDbEntity
  8
0
  6
Continuous
 62
     7
370
    30
100
AcDbLine
 10
350.5752543091
 20
88.3607304954
 30
0.0
 11
350.5752543091
 21
89.1607291364
 31
0.0
  0
LINE
  5
105
330
1F
100
AcDbEntity
  8
0
  6
Continuous
 62
     7
370
    30
100
AcDbLine
 10
298.5752532362
 20
89.1607291364
 30
0.0
 11
298.5752532362
 21
88.3607304954
 31
0.0
  0
LINE
  5
106
330
1F
100
AcDbEntity
  8
0
  6
Continuous
 62
     7
370
    30
100
AcDbLine
 10
304.5717394083
 20
88.2871038579
 30
0.0
 11
304.5752542197
 21
88.3699505888
 31
0.0
  0
LINE
  5
107
330
1F
100
AcDbEntity
  8
0
  6
Continuous
 62
     7
370
    30
100
AcDbLine
 10
344.5752533257
 20
88.3699505888
 30
0.0
 11
344.578768137
 21
88.2871038579
 31
0.0
  0
LINE
  5
108
330
1F
100
AcDbEntity
  8
0
  6
Continuous
 62
     7
370
    30
100
AcDbLine
 10
350.5717394977
 20
88.2778949403
 30
0.0
 11
350.5752543091
 21
88.3607304954
 31
0.0
  0
LINE
  5
109
330
1F
100
AcDbEntity
  8
0
  6
Continuous
 62
     7
370
    30
100
AcDbLine
 10
298.5752532362
 20
88.3607304954
 30
0.0
 11
298.5787680476
 21
88.2778949403
 31
0.0
  0
ARC
  5
10A
330
1F
100
AcDbEntity
  8
0
  6
Continuous
 62
     7
370
    30
100
AcDbCircle
 10
304.7710389934
 20
88.2864044867
 30
0.0
 40
0.1993008121619605
100
AcDbArc
 50
179.7989416127
 51
269.8687268334
  0
ARC
  5
10B
330
1F
100
AcDbEntity
  8
0
  6
Continuous
 62
     7
370
    30
100
AcDbCircle
 10
17492.2752537459
 20
147.9993908965
 30
0.0
 40
17109.79999997326
100
AcDbArc
 50
179.8108595667
 51
180.1891404333
  0
ARC
  5
10C
330
1F
100
AcDbEntity
  8
0
  6
Continuous
 62
     7
370
    30
100
AcDbCircle
 10
379.0684990549
 20
91.5063799766
 30
0.0
 40
3.499999999998195
100
AcDbArc
 50
269.8044114291
 51
0.1891404331
  0
ARC
  5
10D
330
1F
100
AcDbEntity
  8
0
  6
Continuous
 62
     7
370
    30
100
AcDbCircle
 10
379.0684990549
 20
204.4924018163
 30
0.0
 40
3.499999999998209
100
AcDbArc
 50
359.8108595669
 51
90.1955885709
  0
ARC
  5
10E
330
1F
100
AcDbEntity
  8
0
  6
Continuous
 62
     7
370
    30
100
AcDbCircle
 10
324.5752537725
 20
-15871.7006090569
 30
0.0
 40
15959.79999995335
100
AcDbArc
 50
89.8044114293
 51
89.9059606367
  0
ARC
  5
10F
330
1F
100
AcDbEntity
  8
0
  6
Continuous
 62
     7
370
    30
100
AcDbCircle
 10
324.5752537725
 20
16167.6993908498
 30
0.0
 40
15959.79999995335
100
AcDbArc
 50
269.8044114293
 51
270.1955885707
  0
ARC
  5
110
330
1F
100
AcDbEntity
  8
0
  6
Continuous
 62
     7
370
    30
100
AcDbCircle
 10
324.5752537725
 20
-15871.7006090569
 30
0.0
 40
15959.79999995335
100
AcDbArc
 50
90.0940393633
 51
90.1955885707
  0
ARC
  5
111
330
1F
100
AcDbEntity
  8
0
  6
Continuous
 62
     7
370
    30
100
AcDbCircle
 10
270.0820084904
 20
91.5063799767
 30
0.0
 40
3.500000000000022
100
AcDbArc
 50
179.8108595668
 51
270.1955885706
  0
ARC
  5
112
330
1F
100
AcDbEntity
  8
0
  6
Continuous
 62
     7
370
    30
100
AcDbCircle
 10
270.0820084904
 20
204.4924018163
 30
0.0
 40
3.500000000000022
100
AcDbArc
 50
89.8044114294
 51
180.1891404332
  0
ARC
  5
113
330
1F
100
AcDbEntity
  8
0
  6
Continuous
 62
     7
370
    30
100
AcDbCircle
 10
-16843.1247462872
 20
147.9993908965
 30
0.0
 40
17109.80000005993
100
AcDbArc
 50
359.8108595667
 51
0.1891404333
  0
ARC
  5
114
330
1F
100
AcDbEntity
  8
0
  6
Continuous
 62
     7
370
    30
100
AcDbCircle
 10
324.5752537725
 20
-15871.7006090569
 30
0.0
 40
15959.79999995335
100
AcDbArc
 50
89.9289010912
 51
90.0710989088
  0
SPLINE
  5
115
330
1F
100
AcDbEntity
  8
0
  6
Continuous
 62
     7
370
    30
100
AcDbSpline
210
0.0
220
0.0
230
1.0
 70
     8
 71
     3
 72
    12
 73
     8
 74
     0
 42
0.00000001
 43
0.00000001
 12
1.0
 22
0.0
 32
0.0
 13
1.0
 23
0.0
 33
0.0
 40
0.0
 40
0.0
 40
0.0
 40
0.0
 40
0.2146948321514597
 40
0.4293887454335247
 40
0.6440822656690562
 40
0.8587762691497444
 40
1.0
 40
1.0
 40
1.0
 40
1.0
 10
350.07525329585
 20
89.57901963224438
 30
0.0
 10
350.1314654961296
 20
89.57892969602774
 30
0.0
 10
350.2438896561069
 20
89.5787498239794
 30
0.0
 10
350.3937270057173
 20
89.57851189431751
 30
0.0
 10
350.5068031961036
 20
89.57832525992303
 30
0.0
 10
350.5667177031858
 20
89.57822712554379
 30
0.0
 10
350.5728293025171
 20
89.57821842271439
 30
0.0
 10
350.5752543091289
 20
89.57821496953991
 30
0.0
  0
SPLINE
  5
116
330
1F
100
AcDbEntity
  8
0
  6
Continuous
 62
     7
370
    30
100
AcDbSpline
210
0.0
220
0.0
230
1.0
 70
     8
 71
     3
 72
    12
 73
     8
 74
     0
 42
0.00000001
 43
0.00000001
 12
1.0
 22
0.0
 32
0.0
 13
1.0
 23
0.0
 33
0.0
 40
0.0
 40
0.0
 40
0.0
 40
0.0
 40
0.2146947656916495
 40
0.4293885633947064
 40
0.6440820672757647
 40
0.8587759514339368
 40
1.0
 40
1.0
 40
1.0
 40
1.0
 10
304.075253206443
 20
89.5862280689719
 30
0.0
 10
304.1314654022495
 20
89.58629880366823
 30
0.0
 10
304.24388954042
 20
89.58644027274195
 30
0.0
 10
304.393726959506
 20
89.58663094922578
 30
0.0
 10
304.5068030724512
 20
89.58677362808152
 30
0.0
 10
304.5667176616511
 20
89.58685156822237
 30
0.0
 10
304.5728292237712
 20
89.58685858438989
 30
0.0
 10
304.575254219722
 20
89.58686136832264
 30
0.0
  0
SPLINE
  5
117
330
1F
100
AcDbEntity
  8
0
  6
Continuous
 62
     7
370
    30
100
AcDbSpline
210
0.0
220
0.0
230
1.0
 70
     8
 71
     3
 72
    12
 73
     8
 74
     0
 42
0.00000001
 43
0.00000001
 12
1.0
 22
0.0
 32
0.0
 13
1.0
 23
0.0
 33
0.0
 40
0.0
 40
0.0
 40
0.0
 40
0.0
 40
0.214693397025082
 40
0.4293868009088153
 40
0.6440815548168283
 40
0.8587739724391971
 40
0.9999999999999999
 40
0.9999999999999999
 40
0.9999999999999999
 40
0.9999999999999999
 10
344.5752533256523
 20
89.58686136832264
 30
0.0
 10
344.5807805797006
 20
89.58685339752543
 30
0.0
 10
344.5918350879736
 20
89.58683745593076
 30
0.0
 10
344.6780397392761
 20
89.58673350024954
 30
0.0
 10
344.8049140905312
 20
89.58656973718948
 30
0.0
 10
344.9455002710442
 20
89.58639067954056
 30
0.0
 10
345.0383945274033
 20
89.58627426247482
 30
0.0
 10
345.0752543389312
 20
89.5862280689719
 30
0.0
  0
SPLINE
  5
118
330
1F
100
AcDbEntity
  8
0
  6
Continuous
 62
     7
370
    30
100
AcDbSpline
210
0.0
220
0.0
230
1.0
 70
     8
 71
     3
 72
    12
 73
     8
 74
     0
 42
0.00000001
 43
0.00000001
 12
1.0
 22
0.0
 32
0.0
 13
1.0
 23
0.0
 33
0.0
 40
0.0
 40
0.0
 40
0.0
 40
0.0
 40
0.214693219351927
 40
0.4293866199652261
 40
0.6440813970295031
 40
0.8587739268098553
 40
1.0
 40
1.0
 40
1.0
 40
1.0
 10
298.5752532362453
 20
89.57821496953991
 30
0.0
 10
298.5807804970532
 20
89.57822320946025
 30
0.0
 10
298.5918350233356
 20
89.57823968930795
 30
0.0
 10
298.6780396517431
 20
89.57838431184514
 30
0.0
 10
298.8049140403331
 20
89.57858576608326
 30
0.0
 10
298.9455001630366
 20
89.57881305067644
 30
0.0
 10
299.038394435885
 20
89.57896094771043
 30
0.0
 10
299.0752542495243
 20
89.57901963224438
 30
0.0
  0
SPLINE
  5
119
330
1F
100
AcDbEntity
  8
0
  6
Continuous
 62
     7
370
    30
100
AcDbSpline
210
0.0
220
0.0
230
1.0
 70
     8
 71
     3
 72
    12
 73
     8
 74
     0
 42
0.00000001
 43
0.00000001
 12
1.0
 22
0.0
 32
0.0
 13
1.0
 23
0.0
 33
0.0
 40
0.0
 40
0.0
 40
0.0
 40
0.0
 40
0.2322474855236789
 40
0.464498043931651
 40
0.6967476918499986
 40
0.9289981586289463
 40
1.0
 40
1.0
 40
1.0
 40
1.0
 10
299.0755727618448
 20
88.0790203176978
 30
0.0
 10
298.9968707687158
 20
88.07889374076908
 30
0.0
 10
298.8394657411456
 20
88.07864058523687
 30
0.0
 10
298.629794129231
 20
88.0783040627459
 30
0.0
 10
298.471113907503
 20
88.07804059171819
 30
0.0
 10
298.3994249945172
 20
88.07792387206749
 30
0.0
 10
298.3840908907864
 20
88.07790070438296
 30
0.0
 10
298.3805006473772
 20
88.07789528002766
 30
0.0
  0
SPLINE
  5
11A
330
1F
100
AcDbEntity
  8
0
  6
Continuous
 62
     7
370
    30
100
AcDbSpline
210
0.0
220
0.0
230
1.0
 70
     8
 71
     3
 72
    12
 73
     8
 74
     0
 42
0.00000001
 43
0.00000001
 12
1.0
 22
0.0
 32
0.0
 13
1.0
 23
0.0
 33
0.0
 40
0.0
 40
0.0
 40
0.0
 40
0.0
 40
0.2322490945006909
 40
0.4644977946929955
 40
0.6967471134033353
 40
0.9289981613996836
 40
1.0
 40
1.0
 40
1.0
 40
1.0
 10
345.0749972939007
 20
88.08622502913502
 30
0.0
 10
344.9962946337831
 20
88.08632700906583
 30
0.0
 10
344.838889447168
 20
88.08653096875426
 30
0.0
 10
344.6292180935167
 20
88.08678940911281
 30
0.0
 10
344.4705395435124
 20
88.08699198092035
 30
0.0
 10
344.3988457236585
 20
88.08708107038626
 30
0.0
 10
344.3835146957087
 20
88.08709981005109
 30
0.0
 10
344.379925179433
 20
88.08710419764546
 30
0.0
  0
SPLINE
  5
11B
330
1F
100
AcDbEntity
  8
0
  6
Continuous
 62
     7
370
    30
100
AcDbSpline
210
0.0
220
0.0
230
1.0
 70
     8
 71
     3
 72
    12
 73
     8
 74
     0
 42
0.00000001
 43
0.00000001
 12
1.0
 22
0.0
 32
0.0
 13
1.0
 23
0.0
 33
0.0
 40
0.0
 40
0.0
 40
0.0
 40
0.0
 40
0.232251023609278
 40
0.4645006920847155
 40
0.6967496099965601
 40
0.9289975469914225
 40
1.0
 40
1.0
 40
1.0
 40
1.0
 10
350.7700068979971
 20
88.07789528002766
 30
0.0
 10
350.7530087045412
 20
88.07792280595382
 30
0.0
 10
350.71901241681
 20
88.07797785764552
 30
0.0
 10
350.5743595189194
 20
88.07821316765072
 30
0.0
 10
350.37922019675
 20
88.07853045394911
 30
0.0
 10
350.2011556698025
 20
88.0788172011622
 30
0.0
 10
350.0988811414895
 20
88.0789817828609
 30
0.0
 10
350.0749347835294
 20
88.0790203176978
 30
0.0
  0
SPLINE
  5
11C
330
1F
100
AcDbEntity
  8
0
  6
Continuous
 62
     7
370
    30
100
AcDbSpline
210
0.0
220
0.0
230
1.0
 70
     8
 71
     3
 72
    12
 73
     8
 74
     0
 42
0.00000001
 43
0.00000001
 12
1.0
 22
0.0
 32
0.0
 13
1.0
 23
0.0
 33
0.0
 40
0.0
 40
0.0
 40
0.0
 40
0.0
 40
0.2322504125649671
 40
0.4644999403561373
 40
0.6967500291060202
 40
0.9289976373542848
 40
1.0
 40
1.0
 40
1.0
 40
1.0
 10
304.7705823659412
 20
88.08710419764546
 30
0.0
 10
304.7535849122564
 20
88.0870818444588
 30
0.0
 10
304.7195900696395
 20
88.08703713817067
 30
0.0
 10
304.5749366886286
 20
88.08685834643218
 30
0.0
 10
304.3797959323338
 20
88.08661239169561
 30
0.0
 10
304.2017311390123
 20
88.08638931631269
 30
0.0
 10
304.0994566117961
 20
88.08625619735156
 30
0.0
 10
304.0755102514736
 20
88.08622502913502
 30
0.0
  0
LWPOLYLINE
  5
11D
330
1F
100
AcDbEntity
  8
0
  6
Continuous
 62
     7
370
    30
100
AcDbPolyline
 90
        9
 70
   128
 43
0.0
 10
350.0752532958
 20
89.5790196322
 10
349.4502538919
 20
89.5800068342
 10
348.8252544879
 20
89.5809679591
 10
348.2002532213
 20
89.5819067322
 10
347.5752538174
 20
89.5828194283
 10
346.9502544134
 20
89.5837097727
 10
346.3252531468
 20
89.5845703148
 10
345.7002537429
 20
89.5854122304
 10
345.0752543389
 20
89.586228069
  0
LWPOLYLINE
  5
11E
330
1F
100
AcDbEntity
  8
0
  6
Continuous
 62
     7
370
    30
100
AcDbPolyline
 90
        9
 70
   128
 43
0.0
 10
350.0749347835
 20
88.0790203177
 10
349.4499428302
 20
88.0800075196
 10
348.8249508768
 20
88.0809686445
 10
348.1999570608
 20
88.0819036924
 10
347.5749651074
 20
88.0828201138
 10
346.949973154
 20
88.0837067329
 10
346.3249812006
 20
88.0845710002
 10
345.6999892473
 20
88.0854091906
 10
345.0749972939
 20
88.0862250291
  0
LWPOLYLINE
  5
11F
330
1F
100
AcDbEntity
  8
0
  6
Continuous
 62
     7
370
    30
100
AcDbPolyline
 90
        9
 70
   128
 43
0.0
 10
304.0752532064
 20
89.586228069
 10
303.4502538025
 20
89.5854122304
 10
302.8252543985
 20
89.5845703148
 10
302.2002531319
 20
89.5837097727
 10
301.575253728
 20
89.5828194283
 10
300.950254324
 20
89.5819067322
 10
300.3252530574
 20
89.5809679591
 10
299.7002536535
 20
89.5800068342
 10
299.0752542495
 20
89.5790196322
  0
LWPOLYLINE
  5
120
330
1F
100
AcDbEntity
  8
0
  6
Continuous
 62
     7
370
    30
100
AcDbPolyline
 90
        9
 70
   128
 43
0.0
 10
304.0755102515
 20
88.0862250291
 10
303.4505182981
 20
88.0854091906
 10
302.8255263447
 20
88.0845710002
 10
302.2005343914
 20
88.0837067329
 10
301.575542438
 20
88.0828201138
 10
300.9505504846
 20
88.0819036924
 10
300.3255566686
 20
88.0809686445
 10
299.7005647152
 20
88.0800075196
 10
299.0755727618
 20
88.0790203177
  0
ARC
  5
121
330
1F
100
AcDbEntity
  8
0
  6
Continuous
 62
     7
370
    30
100
AcDbCircle
 10
315.5252537727
 20
113.6993908965
 30
0.0
 40
0.3000000000000114
100
AcDbArc
 50
270.0
 51
0.0
  0
LINE
  5
122
330
1F
100
AcDbEntity
  8
0
  6
Continuous
 62
     7
370
    30
100
AcDbLine
 10
315.8252537354
 20
113.699391421
 30
0.0
 11
315.8252537354
 21
182.2993903719
 31
0.0
  0
ARC
  5
123
330
1F
100
AcDbEntity
  8
0
  6
Continuous
 62
     7
370
    30
100
AcDbCircle
 10
315.5252537727
 20
182.2993908965
 30
0.0
 40
0.3000000000000114
100
AcDbArc
 50
0.0
 51
90.0
  0
LINE
  5
124
330
1F
100
AcDbEntity
  8
0
  6
Continuous
 62
     7
370
    30
100
AcDbLine
 10
315.5252533137
 20
182.599391725
 30
0.0
 11
287.6252541422
 21
182.599391725
 31
0.0
  0
ARC
  5
125
330
1F
100
AcDbEntity
  8
0
  6
Continuous
 62
     7
370
    30
100
AcDbCircle
 10
287.6252537727
 20
182.2993908965
 30
0.0
 40
0.3000000000000682
100
AcDbArc
 50
90.0
 51
180.0
  0
LINE
  5
126
330
1F
100
AcDbEntity
  8
0
  6
Continuous
 62
     7
370
    30
100
AcDbLine
 10
287.3252527892
 20
182.2993903719
 30
0.0
 11
287.3252527892
 21
113.699391421
 31
0.0
  0
ARC
  5
127
330
1F
100
AcDbEntity
  8
0
  6
Continuous
 62
     7
370
    30
100
AcDbCircle
 10
287.6252537727
 20
113.6993908965
 30
0.0
 40
0.3000000000000682
100
AcDbArc
 50
180.0
 51
270.0
  0
LINE
  5
128
330
1F
100
AcDbEntity
  8
0
  6
Continuous
 62
     7
370
    30
100
AcDbLine
 10
287.6252541422
 20
113.399390068
 30
0.0
 11
315.5252533137
 21
113.399390068
 31
0.0
  0
ARC
  5
129
330
1F
100
AcDbEntity
  8
0
  6
Continuous
 62
     7
370
    30
100
AcDbCircle
 10
316.1252537727
 20
113.0993908965
 30
0.0
 40
1.5
100
AcDbArc
 50
270.0
 51
0.0
  0
LINE
  5
12A
330
1F
100
AcDbEntity
  8
0
  6
Continuous
 62
     7
370
    30
100
AcDbLine
 10
287.0252551615
 20
111.5993894004
 30
0.0
 11
316.1252541571
 21
111.5993894004
 31
0.0
  0
ARC
  5
12B
330
1F
100
AcDbEntity
  8
0
  6
Continuous
 62
     7
370
    30
100
AcDbCircle
 10
287.0252537727
 20
113.0993908965
 30
0.0
 40
1.5
100
AcDbArc
 50
180.0
 51
270.0
  0
LINE
  5
12C
330
1F
100
AcDbEntity
  8
0
  6
Continuous
 62
     7
370
    30
100
AcDbLine
 10
285.5252521216
 20
182.8993893527
 30
0.0
 11
285.5252521216
 21
113.0993924402
 31
0.0
  0
ARC
  5
12D
330
1F
100
AcDbEntity
  8
0
  6
Continuous
 62
     7
370
    30
100
AcDbCircle
 10
287.0252537727
 20
182.8993908965
 30
0.0
 40
1.5
100
AcDbArc
 50
90.0
 51
180.0
  0
LINE
  5
12E
330
1F
100
AcDbEntity
  8
0
  6
Continuous
 62
     7
370
    30
100
AcDbLine
 10
316.1252541571
 20
184.3993923925
 30
0.0
 11
287.0252551615
 21
184.3993923925
 31
0.0
  0
ARC
  5
12F
330
1F
100
AcDbEntity
  8
0
  6
Continuous
 62
     7
370
    30
100
AcDbCircle
 10
316.1252537727
 20
182.8993908965
 30
0.0
 40
1.5
100
AcDbArc
 50
0.0
 51
90.0
  0
LINE
  5
130
330
1F
100
AcDbEntity
  8
0
  6
Continuous
 62
     7
370
    30
100
AcDbLine
 10
317.6252539373
 20
113.0993924402
 30
0.0
 11
317.6252539373
 21
182.8993893527
 31
0.0
  0
ARC
  5
131
330
1F
100
AcDbEntity
  8
0
  6
Continuous
 62
     7
370
    30
100
AcDbCircle
 10
317.6252537727
 20
177.9993908965
 30
0.0
 40
0.3000000000000114
100
AcDbArc
 50
270.0
 51
90.0
  0
ARC
  5
132
330
1F
100
AcDbEntity
  8
0
  6
Continuous
 62
     7
370
    30
100
AcDbCircle
 10
317.6252537727
 20
117.9993908965
 30
0.0
 40
0.2999999999999972
100
AcDbArc
 50
270.0
 51
90.0
  0
ARC
  5
133
330
1F
100
AcDbEntity
  8
0
  6
Continuous
 62
     7
370
    30
100
AcDbCircle
 10
311.5752537727
 20
111.5993908965
 30
0.0
 40
0.3000000000000114
100
AcDbArc
 50
180.0
 51
0.0
  0
ARC
  5
134
330
1F
100
AcDbEntity
  8
0
  6
Continuous
 62
     7
370
    30
100
AcDbCircle
 10
311.5752537727
 20
184.3993908965
 30
0.0
 40
0.3000000000000114
100
AcDbArc
 50
0.0
 51
180.0
  0
ARC
  5
135
330
1F
100
AcDbEntity
  8
0
  6
Continuous
 62
     7
370
    30
100
AcDbCircle
 10
291.5752537727
 20
184.3993908965
 30
0.0
 40
0.3000000000000114
100
AcDbArc
 50
0.0
 51
180.0
  0
ARC
  5
136
330
1F
100
AcDbEntity
  8
0
  6
Continuous
 62
     7
370
    30
100
AcDbCircle
 10
291.5752537727
 20
111.5993908965
 30
0.0
 40
0.3000000000000114
100
AcDbArc
 50
180.0
 51
0.0
  0
ARC
  5
137
330
1F
100
AcDbEntity
  8
0
  6
Continuous
 62
     7
370
    30
100
AcDbCircle
 10
285.5252537727
 20
177.9993908965
 30
0.0
 40
0.3000000000000398
100
AcDbArc
 50
90.0
 51
270.0
  0
ARC
  5
138
330
1F
100
AcDbEntity
  8
0
  6
Continuous
 62
     7
370
    30
100
AcDbCircle
 10
285.5252537727
 20
117.9993908965
 30
0.0
 40
0.2999999999999972
100
AcDbArc
 50
90.0
 51
270.0
  0
ARC
  5
139
330
1F
100
AcDbEntity
  8
0
  6
Continuous
 62
     7
370
    30
100
AcDbCircle
 10
361.5252537727
 20
113.6993908965
 30
0.0
 40
0.3000000000000114
100
AcDbArc
 50
270.0
 51
0.0
  0
LINE
  5
13A
330
1F
100
AcDbEntity
  8
0
  6
Continuous
 62
     7
370
    30
100
AcDbLine
 10
361.8252547562
 20
113.699391421
 30
0.0
 11
361.8252547562
 21
182.2993903719
 31
0.0
  0
ARC
  5
13B
330
1F
100
AcDbEntity
  8
0
  6
Continuous
 62
     7
370
    30
100
AcDbCircle
 10
361.5252537727
 20
182.2993908965
 30
0.0
 40
0.3000000000000114
100
AcDbArc
 50
0.0
 51
90.0
  0
LINE
  5
13C
330
1F
100
AcDbEntity
  8
0
  6
Continuous
 62
     7
370
    30
100
AcDbLine
 10
361.5252534031
 20
182.599391725
 30
0.0
 11
333.6252542316
 21
182.599391725
 31
0.0
  0
ARC
  5
13D
330
1F
100
AcDbEntity
  8
0
  6
Continuous
 62
     7
370
    30
100
AcDbCircle
 10
333.6252537727
 20
182.2993908965
 30
0.0
 40
0.3000000000000114
100
AcDbArc
 50
90.0
 51
180.0
  0
LINE
  5
13E
330
1F
100
AcDbEntity
  8
0
  6
Continuous
 62
     7
370
    30
100
AcDbLine
 10
333.3252538099
 20
182.2993903719
 30
0.0
 11
333.3252538099
 21
113.699391421
 31
0.0
  0
ARC
  5
13F
330
1F
100
AcDbEntity
  8
0
  6
Continuous
 62
     7
370
    30
100
AcDbCircle
 10
333.6252537727
 20
113.6993908965
 30
0.0
 40
0.2999999999999972
100
AcDbArc
 50
180.0
 51
270.0
  0
LINE
  5
140
330
1F
100
AcDbEntity
  8
0
  6
Continuous
 62
     7
370
    30
100
AcDbLine
 10
333.6252542316
 20
113.399390068
 30
0.0
 11
361.5252534031
 21
113.399390068
 31
0.0
  0
LINE
  5
141
330
1F
100
AcDbEntity
  8
0
  6
Continuous
 62
     7
370
    30
100
AcDbLine
 10
333.0252533882
 20
111.5993894004
 30
0.0
 11
362.1252523839
 21
111.5993894004
 31
0.0
  0
ARC
  5
142
330
1F
100
AcDbEntity
  8
0
  6
Continuous
 62
     7
370
    30
100
AcDbCircle
 10
333.0252537727
 20
113.0993908965
 30
0.0
 40
1.5
100
AcDbArc
 50
180.0
 51
270.0
  0
LINE
  5
143
330
1F
100
AcDbEntity
  8
0
  6
Continuous
 62
     7
370
    30
100
AcDbLine
 10
331.525253608
 20
182.8993893527
 30
0.0
 11
331.525253608
 21
113.0993924402
 31
0.0
  0
ARC
  5
144
330
1F
100
AcDbEntity
  8
0
  6
Continuous
 62
     7
370
    30
100
AcDbCircle
 10
333.0252537727
 20
182.8993908965
 30
0.0
 40
1.5
100
AcDbArc
 50
90.0
 51
180.0
  0
LINE
  5
145
330
1F
100
AcDbEntity
  8
0
  6
Continuous
 62
     7
370
    30
100
AcDbLine
 10
362.1252523839
 20
184.3993923925
 30
0.0
 11
333.0252533882
 21
184.3993923925
 31
0.0
  0
ARC
  5
146
330
1F
100
AcDbEntity
  8
0
  6
Continuous
 62
     7
370
    30
100
AcDbCircle
 10
362.1252537727
 20
182.8993908965
 30
0.0
 40
1.5
100
AcDbArc
 50
0.0
 51
90.0
  0
LINE
  5
147
330
1F
100
AcDbEntity
  8
0
  6
Continuous
 62
     7
370
    30
100
AcDbLine
 10
363.6252554237
 20
113.0993924402
 30
0.0
 11
363.6252554237
 21
182.8993893527
 31
0.0
  0
ARC
  5
148
330
1F
100
AcDbEntity
  8
0
  6
Continuous
 62
     7
370
    30
100
AcDbCircle
 10
362.1252537727
 20
113.0993908965
 30
0.0
 40
1.5
100
AcDbArc
 50
270.0
 51
0.0
  0
ARC
  5
149
330
1F
100
AcDbEntity
  8
0
  6
Continuous
 62
     7
370
    30
100
AcDbCircle
 10
363.6252537727
 20
117.9993908965
 30
0.0
 40
0.2999999999999972
100
AcDbArc
 50
270.0
 51
90.0
  0
ARC
  5
14A
330
1F
100
AcDbEntity
  8
0
  6
Continuous
 62
     7
370
    30
100
AcDbCircle
 10
363.6252537727
 20
177.9993908965
 30
0.0
 40
0.3000000000000114
100
AcDbArc
 50
270.0
 51
90.0
  0
ARC
  5
14B
330
1F
100
AcDbEntity
  8
0
  6
Continuous
 62
     7
370
    30
100
AcDbCircle
 10
357.5752537727
 20
111.5993908965
 30
0.0
 40
0.3000000000000114
100
AcDbArc
 50
180.0
 51
0.0
  0
ARC
  5
14C
330
1F
100
AcDbEntity
  8
0
  6
Continuous
 62
     7
370
    30
100
AcDbCircle
 10
357.5752537727
 20
184.3993908965
 30
0.0
 40
0.3000000000000114
100
AcDbArc
 50
0.0
 51
180.0
  0
ARC
  5
14D
330
1F
100
AcDbEntity
  8
0
  6
Continuous
 62
     7
370
    30
100
AcDbCircle
 10
337.5752537727
 20
184.3993908965
 30
0.0
 40
0.3000000000000114
100
AcDbArc
 50
0.0
 51
180.0
  0
ARC
  5
14E
330
1F
100
AcDbEntity
  8
0
  6
Continuous
 62
     7
370
    30
100
AcDbCircle
 10
337.5752537727
 20
111.5993908965
 30
0.0
 40
0.3000000000000114
100
AcDbArc
 50
180.0
 51
0.0
  0
ARC
  5
14F
330
1F
100
AcDbEntity
  8
0
  6
Continuous
 62
     7
370
    30
100
AcDbCircle
 10
331.5252537727
 20
117.9993908965
 30
0.0
 40
0.2999999999999972
100
AcDbArc
 50
90.0
 51
270.0
  0
ARC
  5
150
330
1F
100
AcDbEntity
  8
0
  6
Continuous
 62
     7
370
    30
100
AcDbCircle
 10
331.5252537727
 20
177.9993908965
 30
0.0
 40
0.3000000000000398
100
AcDbArc
 50
90.0
 51
270.0
  0
ARC
  5
151
330
1F
100
AcDbEntity
  8
0
  6
Continuous
 62
     7
370
    30
100
AcDbCircle
 10
269.7752537727
 20
204.7993908965
 30
0.0
 40
1.5
100
AcDbArc
 50
90.0
 51
180.0
  0
LINE
  5
152
330
1F
100
AcDbEntity
  8
0
  6
Continuous
 62
     7
370
    30
100
AcDbLine
 10
269.775253731
 20
206.2993905806
 30
0.0
 11
282.0752533257
 21
206.2993905806
 31
0.0
  0
LINE
  5
153
330
1F
100
AcDbEntity
  8
0
  6
Continuous
 62
     7
370
    30
100
AcDbLine
 10
287.0752522826
 20
206.2993905806
 30
0.0
 11
322.0752538286
 21
206.2993905806
 31
0.0
  0
LINE
  5
154
330
1F
100
AcDbEntity
  8
0
  6
Continuous
 62
     7
370
    30
100
AcDbLine
 10
327.0752537168
 20
206.2993905806
 30
0.0
 11
362.0752552628
 21
206.2993905806
 31
0.0
  0
LINE
  5
155
330
1F
100
AcDbEntity
  8
0
  6
Continuous
 62
     7
370
    30
100
AcDbLine
 10
367.0752542197
 20
206.2993905806
 30
0.0
 11
379.3752538144
 21
206.2993905806
 31
0.0
  0
ARC
  5
156
330
1F
100
AcDbEntity
  8
0
  6
Continuous
 62
     7
370
    30
100
AcDbCircle
 10
379.3752537727
 20
204.7993908965
 30
0.0
 40
1.5
100
AcDbArc
 50
0.0
 51
90.0
  0
ARC
  5
157
330
1F
100
AcDbEntity
  8
0
  6
Continuous
 62
     7
370
    30
100
AcDbCircle
 10
379.3752537727
 20
91.1993908965
 30
0.0
 40
1.500000000000057
100
AcDbArc
 50
270.0
 51
0.0
  0
LINE
  5
158
330
1F
100
AcDbEntity
  8
0
  6
Continuous
 62
     7
370
    30
100
AcDbLine
 10
379.3752538144
 20
89.6993912124
 30
0.0
 11
367.0752542197
 21
89.6993912124
 31
0.0
  0
LINE
  5
159
330
1F
100
AcDbEntity
  8
0
  6
Continuous
 62
     7
370
    30
100
AcDbLine
 10
362.0752552628
 20
89.6993912124
 30
0.0
 11
327.0752537168
 21
89.6993912124
 31
0.0
  0
LINE
  5
15A
330
1F
100
AcDbEntity
  8
0
  6
Continuous
 62
     7
370
    30
100
AcDbLine
 10
322.0752538286
 20
89.6993912124
 30
0.0
 11
287.0752522826
 21
89.6993912124
 31
0.0
  0
LINE
  5
15B
330
1F
100
AcDbEntity
  8
0
  6
Continuous
 62
     7
370
    30
100
AcDbLine
 10
282.0752533257
 20
89.6993912124
 30
0.0
 11
269.775253731
 21
89.6993912124
 31
0.0
  0
ARC
  5
15C
330
1F
100
AcDbEntity
  8
0
  6
Continuous
 62
     7
370
    30
100
AcDbCircle
 10
269.7752537727
 20
91.1993908965
 30
0.0
 40
1.5
100
AcDbArc
 50
180.0
 51
270.0
  0
LINE
  5
15D
330
1F
100
AcDbEntity
  8
0
  6
Continuous
 62
     7
370
    30
100
AcDbLine
 10
268.2752544164
 20
91.1993905269
 30
0.0
 11
268.2752544164
 21
115.4993920886
 31
0.0
  0
LINE
  5
15E
330
1F
100
AcDbEntity
  8
0
  6
Continuous
 62
     7
370
    30
100
AcDbLine
 10
268.2752544164
 20
120.4993910455
 30
0.0
 11
268.2752544164
 21
175.4993907475
 31
0.0
  0
LINE
  5
15F
330
1F
100
AcDbEntity
  8
0
  6
Continuous
 62
     7
370
    30
100
AcDbLine
 10
268.2752544164
 20
180.4993897044
 30
0.0
 11
268.2752544164
 21
204.799391266
 31
0.0
  0
LINE
  5
160
330
1F
100
AcDbEntity
  8
0
  6
Continuous
 62
     7
370
    30
100
AcDbLine
 10
380.875253129
 20
204.799391266
 30
0.0
 11
380.875253129
 21
180.4993897044
 31
0.0
  0
LINE
  5
161
330
1F
100
AcDbEntity
  8
0
  6
Continuous
 62
     7
370
    30
100
AcDbLine
 10
380.875253129
 20
175.4993907475
 30
0.0
 11
380.875253129
 21
120.4993910455
 31
0.0
  0
LINE
  5
162
330
1F
100
AcDbEntity
  8
0
  6
Continuous
 62
     7
370
    30
100
AcDbLine
 10
380.875253129
 20
115.4993920886
 30
0.0
 11
380.875253129
 21
91.1993905269
 31
0.0
  0
CIRCLE
  5
163
330
1F
100
AcDbEntity
  8
0
  6
Continuous
 62
     7
370
    30
100
AcDbCircle
 10
347.5752537727
 20
97.4993908965
 30
0.0
 40
4.000000000000005
  0
CIRCLE
  5
164
330
1F
100
AcDbEntity
  8
0
  6
Continuous
 62
     7
370
    30
100
AcDbCircle
 10
301.5752537727
 20
97.4993908965
 30
0.0
 40
4.0
  0
CIRCLE
  5
165
330
1F
100
AcDbEntity
  8
0
  6
Continuous
 62
     7
370
    30
100
AcDbCircle
 10
347.5752537727
 20
198.4993908965
 30
0.0
 40
4.000000000000018
  0
CIRCLE
  5
166
330
1F
100
AcDbEntity
  8
0
  6
Continuous
 62
     7
370
    30
100
AcDbCircle
 10
301.5752537727
 20
198.4993908965
 30
0.0
 40
4.0
  0
CIRCLE
  5
167
330
1F
100
AcDbEntity
  8
0
  6
Continuous
 62
     7
370
    30
100
AcDbCircle
 10
347.5752537727
 20
198.4993908965
 30
0.0
 40
1.75
  0
CIRCLE
  5
168
330
1F
100
AcDbEntity
  8
0
  6
Continuous
 62
     7
370
    30
100
AcDbCircle
 10
301.5752537727
 20
198.4993908965
 30
0.0
 40
1.75
  0
CIRCLE
  5
169
330
1F
100
AcDbEntity
  8
0
  6
Continuous
 62
     7
370
    30
100
AcDbCircle
 10
347.5752537727
 20
97.4993908965
 30
0.0
 40
1.750000000000057
  0
CIRCLE
  5
16A
330
1F
100
AcDbEntity
  8
0
  6
Continuous
 62
     7
370
    30
100
AcDbCircle
 10
301.5752537727
 20
97.4993908965
 30
0.0
 40
1.75
  0
ARC
  5
16B
330
1F
100
AcDbEntity
  8
0
  6
Continuous
 62
     7
370
    30
100
AcDbCircle
 10
269.8752537727
 20
204.6993908965
 30
0.0
 40
1.5
100
AcDbArc
 50
90.0
 51
180.0
  0
LINE
  5
16C
330
1F
100
AcDbEntity
  8
0
  6
Continuous
 62
     7
370
    30
100
AcDbLine
 10
269.8752554237
 20
206.1993926131
 30
0.0
 11
379.2752521216
 21
206.1993926131
 31
0.0
  0
LINE
  5
16D
330
1F
100
AcDbEntity
  8
0
  6
Continuous
 62
     7
370
    30
100
AcDbLine
 10
379.2752521216
 20
89.7993891798
 30
0.0
 11
269.8752554237
 21
89.7993891798
 31
0.0
  0
ARC
  5
16E
330
1F
100
AcDbEntity
  8
0
  6
Continuous
 62
     7
370
    30
100
AcDbCircle
 10
269.8752537727
 20
91.2993908965
 30
0.0
 40
1.5
100
AcDbArc
 50
180.0
 51
270.0
  0
LINE
  5
16F
330
1F
100
AcDbEntity
  8
0
  6
Continuous
 62
     7
370
    30
100
AcDbLine
 10
268.3752523839
 20
91.2993922197
 30
0.0
 11
268.3752523839
 21
204.6993895732
 31
0.0
  0
ARC
  5
170
330
1F
100
AcDbEntity
  8
0
  6
Continuous
 62
     7
370
    30
100
AcDbCircle
 10
378.7752537727
 20
204.1993908965
 30
0.0
 40
0.5
100
AcDbArc
 50
360.0
 51
90.0
  0
LINE
  5
171
330
1F
100
AcDbEntity
  8
0
  6
Continuous
 62
     7
370
    30
100
AcDbLine
 10
378.7752548336
 20
204.6993895732
 30
0.0
 11
270.3752527117
 21
204.6993895732
 31
0.0
  0
ARC
  5
172
330
1F
100
AcDbEntity
  8
0
  6
Continuous
 62
     7
370
    30
100
AcDbCircle
 10
270.3752537727
 20
204.1993908965
 30
0.0
 40
0.5
100
AcDbArc
 50
90.0
 51
180.0
  0
LINE
  5
173
330
1F
100
AcDbEntity
  8
0
  6
Continuous
 62
     7
370
    30
100
AcDbLine
 10
269.8752554237
 20
204.1993922853
 30
0.0
 11
269.8752554237
 21
91.7993895077
 31
0.0
  0
ARC
  5
174
330
1F
100
AcDbEntity
  8
0
  6
Continuous
 62
     7
370
    30
100
AcDbCircle
 10
270.3752537727
 20
91.7993908965
 30
0.0
 40
0.5
100
AcDbArc
 50
180.0
 51
270.0
  0
LINE
  5
175
330
1F
100
AcDbEntity
  8
0
  6
Continuous
 62
     7
370
    30
100
AcDbLine
 10
270.3752527117
 20
91.2993922197
 30
0.0
 11
378.7752548336
 21
91.2993922197
 31
0.0
  0
ARC
  5
176
330
1F
100
AcDbEntity
  8
0
  6
Continuous
 62
     7
370
    30
100
AcDbCircle
 10
378.7752537727
 20
91.7993908965
 30
0.0
 40
0.5
100
AcDbArc
 50
270.0
 51
0.0
  0
LINE
  5
177
330
1F
100
AcDbEntity
  8
0
  6
Continuous
 62
     7
370
    30
100
AcDbLine
 10
379.2752521216
 20
91.7993895077
 30
0.0
 11
379.2752521216
 21
204.1993922853
 31
0.0
  0
ARC
  5
178
330
1F
100
AcDbEntity
  8
0
  6
Continuous
 62
     7
370
    30
100
AcDbCircle
 10
379.2752537727
 20
91.2993908965
 30
0.0
 40
1.5
100
AcDbArc
 50
270.0
 51
0.0
  0
ARC
  5
179
330
1F
100
AcDbEntity
  8
0
  6
Continuous
 62
     7
370
    30
100
AcDbCircle
 10
379.2752537727
 20
204.6993908965
 30
0.0
 40
1.5
100
AcDbArc
 50
0.0
 51
90.0
  0
LINE
  5
17A
330
1F
100
AcDbEntity
  8
0
  6
Continuous
 62
     7
370
    30
100
AcDbLine
 10
380.7752551615
 20
204.6993895732
 30
0.0
 11
380.7752551615
 21
91.2993922197
 31
0.0
  0
LINE
  5
17B
330
1F
100
AcDbEntity
  8
0
  6
Continuous
 62
     7
370
    30
100
AcDbLine
 10
381.0061188519
 20
115.4993920886
 30
0.0
 11
380.7752551615
 21
115.4993920886
 31
0.0
  0
LINE
  5
17C
330
1F
100
AcDbEntity
  8
0
  6
Continuous
 62
     7
370
    30
100
AcDbLine
 10
380.9973532438
 20
120.4993910455
 30
0.0
 11
380.7752551615
 21
120.4993910455
 31
0.0
  0
LINE
  5
17D
330
1F
100
AcDbEntity
  8
0
  6
Continuous
 62
     7
370
    30
100
AcDbLine
 10
380.9973532438
 20
175.4993907475
 30
0.0
 11
380.7752551615
 21
175.4993907475
 31
0.0
  0
LINE
  5
17E
330
1F
100
AcDbEntity
  8
0
  6
Continuous
 62
     7
370
    30
100
AcDbLine
 10
381.0061188519
 20
180.4993897044
 30
0.0
 11
380.7752551615
 21
180.4993897044
 31
0.0
  0
LINE
  5
17F
330
1F
100
AcDbEntity
  8
0
  6
Continuous
 62
     7
370
    30
100
AcDbLine
 10
367.0752542197
 20
89.7993891798
 30
0.0
 11
367.0752542197
 21
89.5428098105
 31
0.0
  0
LINE
  5
180
330
1F
100
AcDbEntity
  8
0
  6
Continuous
 62
     7
370
    30
100
AcDbLine
 10
362.0752552628
 20
89.7993891798
 30
0.0
 11
362.0752552628
 21
89.5553379618
 31
0.0
  0
LINE
  5
181
330
1F
100
AcDbEntity
  8
0
  6
Continuous
 62
     7
370
    30
100
AcDbLine
 10
367.0752542197
 20
206.1993926131
 30
0.0
 11
367.0752542197
 21
206.4559719824
 31
0.0
  0
LINE
  5
182
330
1F
100
AcDbEntity
  8
0
  6
Continuous
 62
     7
370
    30
100
AcDbLine
 10
362.0752552628
 20
206.1993926131
 30
0.0
 11
362.0752552628
 21
206.4434438311
 31
0.0
  0
LINE
  5
183
330
1F
100
AcDbEntity
  8
0
  6
Continuous
 62
     7
370
    30
100
AcDbLine
 10
322.0752538286
 20
89.7993891798
 30
0.0
 11
322.0752538286
 21
89.5991958045
 31
0.0
  0
LINE
  5
184
330
1F
100
AcDbEntity
  8
0
  6
Continuous
 62
     7
370
    30
100
AcDbLine
 10
327.0752537168
 20
89.7993891798
 30
0.0
 11
327.0752537168
 21
89.5991958045
 31
0.0
  0
LINE
  5
185
330
1F
100
AcDbEntity
  8
0
  6
Continuous
 62
     7
370
    30
100
AcDbLine
 10
322.0752538286
 20
206.1993926131
 30
0.0
 11
322.0752538286
 21
206.3995859884
 31
0.0
  0
LINE
  5
186
330
1F
100
AcDbEntity
  8
0
  6
Continuous
 62
     7
370
    30
100
AcDbLine
 10
327.0752537168
 20
206.1993926131
 30
0.0
 11
327.0752537168
 21
206.3995859884
 31
0.0
  0
LINE
  5
187
330
1F
100
AcDbEntity
  8
0
  6
Continuous
 62
     7
370
    30
100
AcDbLine
 10
282.0752533257
 20
206.1993926131
 30
0.0
 11
282.0752533257
 21
206.4559719824
 31
0.0
  0
LINE
  5
188
330
1F
100
AcDbEntity
  8
0
  6
Continuous
 62
     7
370
    30
100
AcDbLine
 10
287.0752522826
 20
206.1993926131
 30
0.0
 11
287.0752522826
 21
206.4434438311
 31
0.0
  0
LINE
  5
189
330
1F
100
AcDbEntity
  8
0
  6
Continuous
 62
     7
370
    30
100
AcDbLine
 10
282.0752533257
 20
89.7993891798
 30
0.0
 11
282.0752533257
 21
89.5428098105
 31
0.0
  0
LINE
  5
18A
330
1F
100
AcDbEntity
  8
0
  6
Continuous
 62
     7
370
    30
100
AcDbLine
 10
287.0752522826
 20
89.7993891798
 30
0.0
 11
287.0752522826
 21
89.5553379618
 31
0.0
  0
LINE
  5
18B
330
1F
100
AcDbEntity
  8
0
  6
Continuous
 62
     7
370
    30
100
AcDbLine
 10
268.1443886935
 20
180.4993897044
 30
0.0
 11
268.3752523839
 21
180.4993897044
 31
0.0
  0
LINE
  5
18C
330
1F
100
AcDbEntity
  8
0
  6
Continuous
 62
     7
370
    30
100
AcDbLine
 10
268.1531543016
 20
175.4993907475
 30
0.0
 11
268.3752523839
 21
175.4993907475
 31
0.0
  0
LINE
  5
18D
330
1F
100
AcDbEntity
  8
0
  6
Continuous
 62
     7
370
    30
100
AcDbLine
 10
268.1531543016
 20
120.4993910455
 30
0.0
 11
268.3752523839
 21
120.4993910455
 31
0.0
  0
LINE
  5
18E
330
1F
100
AcDbEntity
  8
0
  6
Continuous
 62
     7
370
    30
100
AcDbLine
 10
268.1443886935
 20
115.4993920886
 30
0.0
 11
268.3752523839
 21
115.4993920886
 31
0.0
  0
CIRCLE
  5
18F
330
1F
100
AcDbEntity
  8
0
  6
Continuous
 62
     7
370
    30
100
AcDbCircle
 10
347.5752537727
 20
198.4993908965
 30
0.0
 40
4.249999999999943
  0
CIRCLE
  5
190
330
1F
100
AcDbEntity
  8
0
  6
Continuous
 62
     7
370
    30
100
AcDbCircle
 10
347.5752537727
 20
97.4993908965
 30
0.0
 40
4.249999999999943
  0
CIRCLE
  5
191
330
1F
100
AcDbEntity
  8
0
  6
Continuous
 62
     7
370
    30
100
AcDbCircle
 10
301.5752537727
 20
198.4993908965
 30
0.0
 40
4.25
  0
CIRCLE
  5
192
330
1F
100
AcDbEntity
  8
0
  6
Continuous
 62
     7
370
    30
100
AcDbCircle
 10
301.5752537727
 20
97.4993908965
 30
0.0
 40
4.25
  0
ARC
  5
193
330
1F
100
AcDbEntity
  8
0
  6
Continuous
 62
     7
370
    30
100
AcDbCircle
 10
378.2752537727
 20
131.9993908965
 30
0.0
 40
1.0
100
AcDbArc
 50
0.0
 51
90.0
  0
ARC
  5
194
330
1F
100
AcDbEntity
  8
0
  6
Continuous
 62
     7
370
    30
100
AcDbCircle
 10
378.2752537727
 20
163.9993908965
 30
0.0
 40
1.0
100
AcDbArc
 50
270.0
 51
0.0
  0
ARC
  5
195
330
1F
100
AcDbEntity
  8
0
  6
Continuous
 62
     7
370
    30
100
AcDbCircle
 10
378.2752537727
 20
103.9993908965
 30
0.0
 40
1.0
100
AcDbArc
 50
270.0
 51
0.0
  0
ARC
  5
196
330
1F
100
AcDbEntity
  8
0
  6
Continuous
 62
     7
370
    30
100
AcDbCircle
 10
378.2752537727
 20
191.9993908965
 30
0.0
 40
1.0
100
AcDbArc
 50
0.0
 51
90.0
  0
ARC
  5
197
330
1F
100
AcDbEntity
  8
0
  6
Continuous
 62
     7
370
    30
100
AcDbCircle
 10
373.5752537727
 20
203.6993908965
 30
0.0
 40
1.0
100
AcDbArc
 50
0.0
 51
90.0
  0
ARC
  5
198
330
1F
100
AcDbEntity
  8
0
  6
Continuous
 62
     7
370
    30
100
AcDbCircle
 10
373.5752537727
 20
92.2993908965
 30
0.0
 40
1.0
100
AcDbArc
 50
270.0
 51
0.0
  0
ARC
  5
199
330
1F
100
AcDbEntity
  8
0
  6
Continuous
 62
     7
370
    30
100
AcDbCircle
 10
333.5752537727
 20
92.2993908965
 30
0.0
 40
1.000000000000028
100
AcDbArc
 50
270.0
 51
0.0
  0
ARC
  5
19A
330
1F
100
AcDbEntity
  8
0
  6
Continuous
 62
     7
370
    30
100
AcDbCircle
 10
355.5752537727
 20
92.2993908965
 30
0.0
 40
1.0
100
AcDbArc
 50
180.0
 51
270.0
  0
ARC
  5
19B
330
1F
100
AcDbEntity
  8
0
  6
Continuous
 62
     7
370
    30
100
AcDbCircle
 10
333.5752537727
 20
203.6993908965
 30
0.0
 40
1.000000000000028
100
AcDbArc
 50
0.0
 51
90.0
  0
ARC
  5
19C
330
1F
100
AcDbEntity
  8
0
  6
Continuous
 62
     7
370
    30
100
AcDbCircle
 10
355.5752537727
 20
203.6993908965
 30
0.0
 40
1.0
100
AcDbArc
 50
90.0
 51
180.0
  0
ARC
  5
19D
330
1F
100
AcDbEntity
  8
0
  6
Continuous
 62
     7
370
    30
100
AcDbCircle
 10
315.5752537727
 20
203.6993908965
 30
0.0
 40
1.0
100
AcDbArc
 50
90.0
 51
180.0
  0
ARC
  5
19E
330
1F
100
AcDbEntity
  8
0
  6
Continuous
 62
     7
370
    30
100
AcDbCircle
 10
293.5752537727
 20
203.6993908965
 30
0.0
 40
1.0
100
AcDbArc
 50
0.0
 51
90.0
  0
ARC
  5
19F
330
1F
100
AcDbEntity
  8
0
  6
Continuous
 62
     7
370
    30
100
AcDbCircle
 10
293.5752537727
 20
92.2993908965
 30
0.0
 40
1.0
100
AcDbArc
 50
270.0
 51
0.0
  0
ARC
  5
1A0
330
1F
100
AcDbEntity
  8
0
  6
Continuous
 62
     7
370
    30
100
AcDbCircle
 10
315.5752537727
 20
92.2993908965
 30
0.0
 40
1.0
100
AcDbArc
 50
180.0
 51
270.0
  0
ARC
  5
1A1
330
1F
100
AcDbEntity
  8
0
  6
Continuous
 62
     7
370
    30
100
AcDbCircle
 10
275.5752537727
 20
92.2993908965
 30
0.0
 40
1.0
100
AcDbArc
 50
180.0
 51
270.0
  0
ARC
  5
1A2
330
1F
100
AcDbEntity
  8
0
  6
Continuous
 62
     7
370
    30
100
AcDbCircle
 10
275.5752537727
 20
203.6993908965
 30
0.0
 40
1.0
100
AcDbArc
 50
90.0
 51
180.0
  0
ARC
  5
1A3
330
1F
100
AcDbEntity
  8
0
  6
Continuous
 62
     7
370
    30
100
AcDbCircle
 10
270.8752537727
 20
191.9993908965
 30
0.0
 40
1.0
100
AcDbArc
 50
90.0
 51
180.0
  0
ARC
  5
1A4
330
1F
100
AcDbEntity
  8
0
  6
Continuous
 62
     7
370
    30
100
AcDbCircle
 10
270.8752537727
 20
131.9993908965
 30
0.0
 40
1.0
100
AcDbArc
 50
90.0
 51
180.0
  0
ARC
  5
1A5
330
1F
100
AcDbEntity
  8
0
  6
Continuous
 62
     7
370
    30
100
AcDbCircle
 10
270.8752537727
 20
163.9993908965
 30
0.0
 40
1.0
100
AcDbArc
 50
180.0
 51
270.0
  0
ARC
  5
1A6
330
1F
100
AcDbEntity
  8
0
  6
Continuous
 62
     7
370
    30
100
AcDbCircle
 10
270.8752537727
 20
103.9993908965
 30
0.0
 40
1.000000000000014
100
AcDbArc
 50
180.0
 51
270.0
  0
ARC
  5
1A7
330
1F
100
AcDbEntity
  8
0
  6
Continuous
 62
     7
370
    30
100
AcDbCircle
 10
320.2252537727
 20
138.9993908965
 30
0.0
 40
1.0
100
AcDbArc
 50
180.0
 51
0.0
  0
LINE
  5
1A8
330
1F
100
AcDbEntity
  8
0
  6
Continuous
 62
     7
370
    30
100
AcDbLine
 10
321.2252538755
 20
156.999390509
 30
0.0
 11
321.2252538755
 21
138.9993912839
 31
0.0
  0
ARC
  5
1A9
330
1F
100
AcDbEntity
  8
0
  6
Continuous
 62
     7
370
    30
100
AcDbCircle
 10
320.2252537727
 20
156.9993908965
 30
0.0
 40
1.0
100
AcDbArc
 50
0.0
 51
180.0
  0
LINE
  5
1AA
330
1F
100
AcDbEntity
  8
0
  6
Continuous
 62
     7
370
    30
100
AcDbLine
 10
319.2252535477
 20
138.9993912839
 30
0.0
 11
319.2252535477
 21
156.999390509
 31
0.0
  0
ARC
  5
1AB
330
1F
100
AcDbEntity
  8
0
  6
Continuous
 62
     7
370
    30
100
AcDbCircle
 10
310.5752537727
 20
186.9993908965
 30
0.0
 40
1.0
100
AcDbArc
 50
270.0
 51
90.0
  0
LINE
  5
1AC
330
1F
100
AcDbEntity
  8
0
  6
Continuous
 62
     7
370
    30
100
AcDbLine
 10
292.5752522528
 20
187.9993900024
 30
0.0
 11
310.5752533406
 21
187.9993900024
 31
0.0
  0
ARC
  5
1AD
330
1F
100
AcDbEntity
  8
0
  6
Continuous
 62
     7
370
    30
100
AcDbCircle
 10
292.5752537727
 20
186.9993908965
 30
0.0
 40
1.0
100
AcDbArc
 50
90.0
 51
270.0
  0
LINE
  5
1AE
330
1F
100
AcDbEntity
  8
0
  6
Continuous
 62
     7
370
    30
100
AcDbLine
 10
310.5752533406
 20
185.9993896746
 30
0.0
 11
292.5752522528
 21
185.9993896746
 31
0.0
  0
ARC
  5
1AF
330
1F
100
AcDbEntity
  8
0
  6
Continuous
 62
     7
370
    30
100
AcDbCircle
 10
333.0252537727
 20
113.0993908965
 30
0.0
 40
1.800000000000011
100
AcDbArc
 50
180.0
 51
270.0
  0
LINE
  5
1B0
330
1F
100
AcDbEntity
  8
0
  6
Continuous
 62
     7
370
    30
100
AcDbLine
 10
333.0252533882
 20
111.2993917727
 30
0.0
 11
362.1252523839
 21
111.2993917727
 31
0.0
  0
ARC
  5
1B1
330
1F
100
AcDbEntity
  8
0
  6
Continuous
 62
     7
370
    30
100
AcDbCircle
 10
362.1252537727
 20
113.0993908965
 30
0.0
 40
1.800000000000011
100
AcDbArc
 50
270.0
 51
0.0
  0
LINE
  5
1B2
330
1F
100
AcDbEntity
  8
0
  6
Continuous
 62
     7
370
    30
100
AcDbLine
 10
363.9252530515
 20
113.0993924402
 30
0.0
 11
363.9252530515
 21
182.8993893527
 31
0.0
  0
ARC
  5
1B3
330
1F
100
AcDbEntity
  8
0
  6
Continuous
 62
     7
370
    30
100
AcDbCircle
 10
362.1252537727
 20
182.8993908965
 30
0.0
 40
1.80000000000004
100
AcDbArc
 50
0.0
 51
90.0
  0
LINE
  5
1B4
330
1F
100
AcDbEntity
  8
0
  6
Continuous
 62
     7
370
    30
100
AcDbLine
 10
362.1252523839
 20
184.6993900203
 30
0.0
 11
333.0252533882
 21
184.6993900203
 31
0.0
  0
ARC
  5
1B5
330
1F
100
AcDbEntity
  8
0
  6
Continuous
 62
     7
370
    30
100
AcDbCircle
 10
333.0252537727
 20
182.8993908965
 30
0.0
 40
1.800000000000011
100
AcDbArc
 50
90.0
 51
180.0
  0
LINE
  5
1B6
330
1F
100
AcDbEntity
  8
0
  6
Continuous
 62
     7
370
    30
100
AcDbLine
 10
331.225253652
 20
182.8993893527
 30
0.0
 11
331.225253652
 21
113.0993924402
 31
0.0
  0
ARC
  5
1B7
330
1F
100
AcDbEntity
  8
0
  6
Continuous
 62
     7
370
    30
100
AcDbCircle
 10
287.0252537727
 20
113.0993908965
 30
0.0
 40
1.800000000000011
100
AcDbArc
 50
180.0
 51
270.0
  0
LINE
  5
1B8
330
1F
100
AcDbEntity
  8
0
  6
Continuous
 62
     7
370
    30
100
AcDbLine
 10
287.0252551615
 20
111.2993917727
 30
0.0
 11
316.1252541571
 21
111.2993917727
 31
0.0
  0
ARC
  5
1B9
330
1F
100
AcDbEntity
  8
0
  6
Continuous
 62
     7
370
    30
100
AcDbCircle
 10
316.1252537727
 20
113.0993908965
 30
0.0
 40
1.800000000000011
100
AcDbArc
 50
270.0
 51
0.0
  0
LINE
  5
1BA
330
1F
100
AcDbEntity
  8
0
  6
Continuous
 62
     7
370
    30
100
AcDbLine
 10
317.9252538934
 20
113.0993924402
 30
0.0
 11
317.9252538934
 21
182.8993893527
 31
0.0
  0
ARC
  5
1BB
330
1F
100
AcDbEntity
  8
0
  6
Continuous
 62
     7
370
    30
100
AcDbCircle
 10
316.1252537727
 20
182.8993908965
 30
0.0
 40
1.80000000000004
100
AcDbArc
 50
0.0
 51
90.0
  0
LINE
  5
1BC
330
1F
100
AcDbEntity
  8
0
  6
Continuous
 62
     7
370
    30
100
AcDbLine
 10
316.1252541571
 20
184.6993900203
 30
0.0
 11
287.0252551615
 21
184.6993900203
 31
0.0
  0
ARC
  5
1BD
330
1F
100
AcDbEntity
  8
0
  6
Continuous
 62
     7
370
    30
100
AcDbCircle
 10
287.0252537727
 20
182.8993908965
 30
0.0
 40
1.800000000000011
100
AcDbArc
 50
90.0
 51
180.0
  0
LINE
  5
1BE
330
1F
100
AcDbEntity
  8
0
  6
Continuous
 62
     7
370
    30
100
AcDbLine
 10
285.2252544939
 20
182.8993893527
 30
0.0
 11
285.2252544939
 21
113.0993924402
 31
0.0
  0
LINE
  5
1BF
330
1F
100
AcDbEntity
  8
0
  6
Continuous
 62
     7
370
    30
100
AcDbLine
 10
333.5752533853
 20
93.2993925475
 30
0.0
 11
315.5752541601
 21
93.2993925475
 31
0.0
  0
LINE
  5
1C0
330
1F
100
AcDbEntity
  8
0
  6
Continuous
 62
     7
370
    30
100
AcDbLine
 10
293.5752542793
 20
93.2993925475
 30
0.0
 11
275.5752550542
 21
93.2993925475
 31
0.0
  0
LINE
  5
1C1
330
1F
100
AcDbEntity
  8
0
  6
Continuous
 62
     7
370
    30
100
AcDbLine
 10
271.8752520263
 20
103.9993911349
 30
0.0
 11
271.8752520263
 21
131.9993901365
 31
0.0
  0
LINE
  5
1C2
330
1F
100
AcDbEntity
  8
0
  6
Continuous
 62
     7
370
    30
100
AcDbLine
 10
271.8752520263
 20
163.9993916564
 30
0.0
 11
271.8752520263
 21
191.999390658
 31
0.0
  0
LINE
  5
1C3
330
1F
100
AcDbEntity
  8
0
  6
Continuous
 62
     7
370
    30
100
AcDbLine
 10
275.5752550542
 20
202.6993892454
 30
0.0
 11
293.5752542793
 21
202.6993892454
 31
0.0
  0
LINE
  5
1C4
330
1F
100
AcDbEntity
  8
0
  6
Continuous
 62
     7
370
    30
100
AcDbLine
 10
315.5752541601
 20
202.6993892454
 30
0.0
 11
333.5752533853
 21
202.6993892454
 31
0.0
  0
LINE
  5
1C5
330
1F
100
AcDbEntity
  8
0
  6
Continuous
 62
     7
370
    30
100
AcDbLine
 10
355.575253266
 20
202.6993892454
 30
0.0
 11
373.5752524912
 21
202.6993892454
 31
0.0
  0
LINE
  5
1C6
330
1F
100
AcDbEntity
  8
0
  6
Continuous
 62
     7
370
    30
100
AcDbLine
 10
377.2752555191
 20
191.999390658
 30
0.0
 11
377.2752555191
 21
163.9993916564
 31
0.0
  0
LINE
  5
1C7
330
1F
100
AcDbEntity
  8
0
  6
Continuous
 62
     7
370
    30
100
AcDbLine
 10
377.2752555191
 20
131.9993901365
 30
0.0
 11
377.2752555191
 21
103.9993911349
 31
0.0
  0
LINE
  5
1C8
330
1F
100
AcDbEntity
  8
0
  6
Continuous
 62
     7
370
    30
100
AcDbLine
 10
373.5752524912
 20
93.2993925475
 30
0.0
 11
355.575253266
 21
93.2993925475
 31
0.0
  0
LINE
  5
1C9
330
1F
100
AcDbEntity
  8
0
  6
Continuous
 62
     7
370
    30
100
AcDbLine
 10
365.2252527058
 20
156.999390509
 30
0.0
 11
365.2252527058
 21
138.9993912839
 31
0.0
  0
ARC
  5
1CA
330
1F
100
AcDbEntity
  8
0
  6
Continuous
 62
     7
370
    30
100
AcDbCircle
 10
366.2252537727
 20
138.9993908965
 30
0.0
 40
1.0
100
AcDbArc
 50
180.0
 51
0.0
  0
LINE
  5
1CB
330
1F
100
AcDbEntity
  8
0
  6
Continuous
 62
     7
370
    30
100
AcDbLine
 10
367.2252530336
 20
138.9993912839
 30
0.0
 11
367.2252530336
 21
156.999390509
 31
0.0
  0
ARC
  5
1CC
330
1F
100
AcDbEntity
  8
0
  6
Continuous
 62
     7
370
    30
100
AcDbCircle
 10
366.2252537727
 20
156.9993908965
 30
0.0
 40
1.0
100
AcDbArc
 50
0.0
 51
180.0
  0
LINE
  5
1CD
330
1F
100
AcDbEntity
  8
0
  6
Continuous
 62
     7
370
    30
100
AcDbLine
 10
356.5752552926
 20
187.9993900024
 30
0.0
 11
338.5752542048
 21
187.9993900024
 31
0.0
  0
ARC
  5
1CE
330
1F
100
AcDbEntity
  8
0
  6
Continuous
 62
     7
370
    30
100
AcDbCircle
 10
338.5752537727
 20
186.9993908965
 30
0.0
 40
1.0
100
AcDbArc
 50
90.0
 51
270.0
  0
LINE
  5
1CF
330
1F
100
AcDbEntity
  8
0
  6
Continuous
 62
     7
370
    30
100
AcDbLine
 10
338.5752542048
 20
185.9993896746
 30
0.0
 11
356.5752552926
 21
185.9993896746
 31
0.0
  0
ARC
  5
1D0
330
1F
100
AcDbEntity
  8
0
  6
Continuous
 62
     7
370
    30
100
AcDbCircle
 10
356.5752537727
 20
186.9993908965
 30
0.0
 40
1.0
100
AcDbArc
 50
270.0
 51
90.0
  0
LINE
  5
1D1
330
1F
100
AcDbEntity
  8
0
  6
Continuous
 62
     7
370
    30
100
AcDbLine
 10
356.5752552926
 20
109.9993921184
 30
0.0
 11
338.5752542048
 21
109.9993921184
 31
0.0
  0
ARC
  5
1D2
330
1F
100
AcDbEntity
  8
0
  6
Continuous
 62
     7
370
    30
100
AcDbCircle
 10
338.5752537727
 20
108.9993908965
 30
0.0
 40
1.000000000000014
100
AcDbArc
 50
90.0
 51
270.0
  0
LINE
  5
1D3
330
1F
100
AcDbEntity
  8
0
  6
Continuous
 62
     7
370
    30
100
AcDbLine
 10
338.5752542048
 20
107.9993917905
 30
0.0
 11
356.5752552926
 21
107.9993917905
 31
0.0
  0
ARC
  5
1D4
330
1F
100
AcDbEntity
  8
0
  6
Continuous
 62
     7
370
    30
100
AcDbCircle
 10
356.5752537727
 20
108.9993908965
 30
0.0
 40
1.000000000000014
100
AcDbArc
 50
270.0
 51
90.0
  0
LINE
  5
1D5
330
1F
100
AcDbEntity
  8
0
  6
Continuous
 62
     7
370
    30
100
AcDbLine
 10
327.9252536699
 20
156.999390509
 30
0.0
 11
327.9252536699
 21
138.9993912839
 31
0.0
  0
ARC
  5
1D6
330
1F
100
AcDbEntity
  8
0
  6
Continuous
 62
     7
370
    30
100
AcDbCircle
 10
328.9252537727
 20
138.9993908965
 30
0.0
 40
1.0
100
AcDbArc
 50
180.0
 51
0.0
  0
LINE
  5
1D7
330
1F
100
AcDbEntity
  8
0
  6
Continuous
 62
     7
370
    30
100
AcDbLine
 10
329.9252539977
 20
138.9993912839
 30
0.0
 11
329.9252539977
 21
156.999390509
 31
0.0
  0
ARC
  5
1D8
330
1F
100
AcDbEntity
  8
0
  6
Continuous
 62
     7
370
    30
100
AcDbCircle
 10
328.9252537727
 20
156.9993908965
 30
0.0
 40
1.0
100
AcDbArc
 50
0.0
 51
180.0
  0
ARC
  5
1D9
330
1F
100
AcDbEntity
  8
0
  6
Continuous
 62
     7
370
    30
100
AcDbCircle
 10
282.9252537727
 20
138.9993908965
 30
0.0
 40
1.0
100
AcDbArc
 50
180.0
 51
0.0
  0
LINE
  5
1DA
330
1F
100
AcDbEntity
  8
0
  6
Continuous
 62
     7
370
    30
100
AcDbLine
 10
283.9252548396
 20
156.999390509
 30
0.0
 11
283.9252548396
 21
138.9993912839
 31
0.0
  0
ARC
  5
1DB
330
1F
100
AcDbEntity
  8
0
  6
Continuous
 62
     7
370
    30
100
AcDbCircle
 10
282.9252537727
 20
156.9993908965
 30
0.0
 40
1.0
100
AcDbArc
 50
0.0
 51
180.0
  0
LINE
  5
1DC
330
1F
100
AcDbEntity
  8
0
  6
Continuous
 62
     7
370
    30
100
AcDbLine
 10
281.9252545118
 20
138.9993912839
 30
0.0
 11
281.9252545118
 21
156.999390509
 31
0.0
  0
ARC
  5
1DD
330
1F
100
AcDbEntity
  8
0
  6
Continuous
 62
     7
370
    30
100
AcDbCircle
 10
310.5752537727
 20
108.9993908965
 30
0.0
 40
1.0
100
AcDbArc
 50
270.0
 51
90.0
  0
LINE
  5
1DE
330
1F
100
AcDbEntity
  8
0
  6
Continuous
 62
     7
370
    30
100
AcDbLine
 10
292.5752522528
 20
109.9993921184
 30
0.0
 11
310.5752533406
 21
109.9993921184
 31
0.0
  0
ARC
  5
1DF
330
1F
100
AcDbEntity
  8
0
  6
Continuous
 62
     7
370
    30
100
AcDbCircle
 10
292.5752537727
 20
108.9993908965
 30
0.0
 40
1.000000000000014
100
AcDbArc
 50
90.0
 51
270.0
  0
LINE
  5
1E0
330
1F
100
AcDbEntity
  8
0
  6
Continuous
 62
     7
370
    30
100
AcDbLine
 10
310.5752533406
 20
107.9993917905
 30
0.0
 11
292.5752522528
 21
107.9993917905
 31
0.0
  0
ARC
  5
1E1
330
1F
100
AcDbEntity
  8
0
  6
Continuous
 62
     7
370
    30
100
AcDbCircle
 10
270.8752537727
 20
103.9993908965
 30
0.0
 40
1.000000000000014
100
AcDbArc
 50
270.0
 51
0.0
  0
ARC
  5
1E2
330
1F
100
AcDbEntity
  8
0
  6
Continuous
 62
     7
370
    30
100
AcDbCircle
 10
270.8752537727
 20
191.9993908965
 30
0.0
 40
1.0
100
AcDbArc
 50
0.0
 51
90.0
  0
ARC
  5
1E3
330
1F
100
AcDbEntity
  8
0
  6
Continuous
 62
     7
370
    30
100
AcDbCircle
 10
270.8752537727
 20
131.9993908965
 30
0.0
 40
1.0
100
AcDbArc
 50
0.0
 51
90.0
  0
ARC
  5
1E4
330
1F
100
AcDbEntity
  8
0
  6
Continuous
 62
     7
370
    30
100
AcDbCircle
 10
270.8752537727
 20
163.9993908965
 30
0.0
 40
1.0
100
AcDbArc
 50
270.0
 51
0.0
  0
ARC
  5
1E5
330
1F
100
AcDbEntity
  8
0
  6
Continuous
 62
     7
370
    30
100
AcDbCircle
 10
275.5752537727
 20
203.6993908965
 30
0.0
 40
1.0
100
AcDbArc
 50
180.0
 51
270.0
  0
ARC
  5
1E6
330
1F
100
AcDbEntity
  8
0
  6
Continuous
 62
     7
370
    30
100
AcDbCircle
 10
275.5752537727
 20
92.2993908965
 30
0.0
 40
1.0
100
AcDbArc
 50
90.0
 51
180.0
  0
ARC
  5
1E7
330
1F
100
AcDbEntity
  8
0
  6
Continuous
 62
     7
370
    30
100
AcDbCircle
 10
293.5752537727
 20
203.6993908965
 30
0.0
 40
1.0
100
AcDbArc
 50
270.0
 51
0.0
  0
ARC
  5
1E8
330
1F
100
AcDbEntity
  8
0
  6
Continuous
 62
     7
370
    30
100
AcDbCircle
 10
293.5752537727
 20
92.2993908965
 30
0.0
 40
1.0
100
AcDbArc
 50
0.0
 51
90.0
  0
ARC
  5
1E9
330
1F
100
AcDbEntity
  8
0
  6
Continuous
 62
     7
370
    30
100
AcDbCircle
 10
315.5752537727
 20
92.2993908965
 30
0.0
 40
1.000000000000014
100
AcDbArc
 50
90.0
 51
180.0
  0
ARC
  5
1EA
330
1F
100
AcDbEntity
  8
0
  6
Continuous
 62
     7
370
    30
100
AcDbCircle
 10
315.5752537727
 20
203.6993908965
 30
0.0
 40
1.000000000000028
100
AcDbArc
 50
180.0
 51
270.0
  0
ARC
  5
1EB
330
1F
100
AcDbEntity
  8
0
  6
Continuous
 62
     7
370
    30
100
AcDbCircle
 10
333.5752537727
 20
92.2993908965
 30
0.0
 40
1.0
100
AcDbArc
 50
0.0
 51
90.0
  0
ARC
  5
1EC
330
1F
100
AcDbEntity
  8
0
  6
Continuous
 62
     7
370
    30
100
AcDbCircle
 10
333.5752537727
 20
203.6993908965
 30
0.0
 40
1.0
100
AcDbArc
 50
270.0
 51
0.0
  0
ARC
  5
1ED
330
1F
100
AcDbEntity
  8
0
  6
Continuous
 62
     7
370
    30
100
AcDbCircle
 10
355.5752537727
 20
92.2993908965
 30
0.0
 40
1.0
100
AcDbArc
 50
90.0
 51
180.0
  0
ARC
  5
1EE
330
1F
100
AcDbEntity
  8
0
  6
Continuous
 62
     7
370
    30
100
AcDbCircle
 10
355.5752537727
 20
203.6993908965
 30
0.0
 40
1.0
100
AcDbArc
 50
180.0
 51
270.0
  0
ARC
  5
1EF
330
1F
100
AcDbEntity
  8
0
  6
Continuous
 62
     7
370
    30
100
AcDbCircle
 10
373.5752537727
 20
92.2993908965
 30
0.0
 40
1.0
100
AcDbArc
 50
0.0
 51
90.0
  0
ARC
  5
1F0
330
1F
100
AcDbEntity
  8
0
  6
Continuous
 62
     7
370
    30
100
AcDbCircle
 10
373.5752537727
 20
203.6993908965
 30
0.0
 40
1.0
100
AcDbArc
 50
270.0
 51
0.0
  0
ARC
  5
1F1
330
1F
100
AcDbEntity
  8
0
  6
Continuous
 62
     7
370
    30
100
AcDbCircle
 10
378.2752537727
 20
131.9993908965
 30
0.0
 40
1.000000000000057
100
AcDbArc
 50
90.0
 51
180.0
  0
ARC
  5
1F2
330
1F
100
AcDbEntity
  8
0
  6
Continuous
 62
     7
370
    30
100
AcDbCircle
 10
378.2752537727
 20
191.9993908965
 30
0.0
 40
1.000000000000057
100
AcDbArc
 50
90.0
 51
180.0
  0
ARC
  5
1F3
330
1F
100
AcDbEntity
  8
0
  6
Continuous
 62
     7
370
    30
100
AcDbCircle
 10
378.2752537727
 20
103.9993908965
 30
0.0
 40
1.000000000000057
100
AcDbArc
 50
180.0
 51
270.0
  0
ARC
  5
1F4
330
1F
100
AcDbEntity
  8
0
  6
Continuous
 62
     7
370
    30
100
AcDbCircle
 10
378.2752537727
 20
163.9993908965
 30
0.0
 40
1.000000000000057
100
AcDbArc
 50
180.0
 51
270.0
  0
LINE
  5
1F5
330
1F
100
AcDbEntity
  8
0
  6
Continuous
 62
     7
370
    30
100
AcDbLine
 10
363.6252554237
 20
145.4993909523
 30
0.0
 11
363.9252530515
 21
145.4993909523
 31
0.0
  0
LINE
  5
1F6
330
1F
100
AcDbEntity
  8
0
  6
Continuous
 62
     7
370
    30
100
AcDbLine
 10
363.6252554237
 20
150.4993908406
 30
0.0
 11
363.9252530515
 21
150.4993908406
 31
0.0
  0
LINE
  5
1F7
330
1F
100
AcDbEntity
  8
0
  6
Continuous
 62
     7
370
    30
100
AcDbLine
 10
345.0752543389
 20
184.3993923925
 30
0.0
 11
345.0752543389
 21
184.6993900203
 31
0.0
  0
LINE
  5
1F8
330
1F
100
AcDbEntity
  8
0
  6
Continuous
 62
     7
370
    30
100
AcDbLine
 10
350.0752532958
 20
184.3993923925
 30
0.0
 11
350.0752532958
 21
184.6993900203
 31
0.0
  0
LINE
  5
1F9
330
1F
100
AcDbEntity
  8
0
  6
Continuous
 62
     7
370
    30
100
AcDbLine
 10
345.0752543389
 20
111.5993894004
 30
0.0
 11
345.0752543389
 21
111.2993917727
 31
0.0
  0
LINE
  5
1FA
330
1F
100
AcDbEntity
  8
0
  6
Continuous
 62
     7
370
    30
100
AcDbLine
 10
350.0752532958
 20
111.5993894004
 30
0.0
 11
350.0752532958
 21
111.2993917727
 31
0.0
  0
LINE
  5
1FB
330
1F
100
AcDbEntity
  8
0
  6
Continuous
 62
     7
370
    30
100
AcDbLine
 10
331.525253608
 20
145.4993909523
 30
0.0
 11
331.225253652
 21
145.4993909523
 31
0.0
  0
LINE
  5
1FC
330
1F
100
AcDbEntity
  8
0
  6
Continuous
 62
     7
370
    30
100
AcDbLine
 10
331.525253608
 20
150.4993908406
 30
0.0
 11
331.225253652
 21
150.4993908406
 31
0.0
  0
LINE
  5
1FD
330
1F
100
AcDbEntity
  8
0
  6
Continuous
 62
     7
370
    30
100
AcDbLine
 10
317.6252539373
 20
150.4993908406
 30
0.0
 11
317.9252538934
 21
150.4993908406
 31
0.0
  0
LINE
  5
1FE
330
1F
100
AcDbEntity
  8
0
  6
Continuous
 62
     7
370
    30
100
AcDbLine
 10
317.6252539373
 20
145.4993909523
 30
0.0
 11
317.9252538934
 21
145.4993909523
 31
0.0
  0
LINE
  5
1FF
330
1F
100
AcDbEntity
  8
0
  6
Continuous
 62
     7
370
    30
100
AcDbLine
 10
304.0752532064
 20
111.5993894004
 30
0.0
 11
304.0752532064
 21
111.2993917727
 31
0.0
  0
LINE
  5
200
330
1F
100
AcDbEntity
  8
0
  6
Continuous
 62
     7
370
    30
100
AcDbLine
 10
299.0752542495
 20
111.5993894004
 30
0.0
 11
299.0752542495
 21
111.2993917727
 31
0.0
  0
LINE
  5
201
330
1F
100
AcDbEntity
  8
0
  6
Continuous
 62
     7
370
    30
100
AcDbLine
 10
304.0752532064
 20
184.3993923925
 30
0.0
 11
304.0752532064
 21
184.6993900203
 31
0.0
  0
LINE
  5
202
330
1F
100
AcDbEntity
  8
0
  6
Continuous
 62
     7
370
    30
100
AcDbLine
 10
299.0752542495
 20
184.3993923925
 30
0.0
 11
299.0752542495
 21
184.6993900203
 31
0.0
  0
LINE
  5
203
330
1F
100
AcDbEntity
  8
0
  6
Continuous
 62
     7
370
    30
100
AcDbLine
 10
285.5252521216
 20
150.4993908406
 30
0.0
 11
285.2252544939
 21
150.4993908406
 31
0.0
  0
LINE
  5
204
330
1F
100
AcDbEntity
  8
0
  6
Continuous
 62
     7
370
    30
100
AcDbLine
 10
285.5252521216
 20
145.4993909523
 30
0.0
 11
285.2252544939
 21
145.4993909523
 31
0.0
  0
ENDSEC
  0
SECTION
  2
OBJECTS
  0
DICTIONARY
  5
C
330
0
100
AcDbDictionary
281
     1
  3
ACAD_GROUP
350
D
  3
ACAD_LAYOUT
350
1A
  3
ACAD_MLINESTYLE
350
17
  3
ACAD_PLOTSETTINGS
350
19
  3
ACAD_PLOTSTYLENAME
350
E
  0
DICTIONARY
  5
D
102
{ACAD_REACTORS
330
C
102
}
330
C
100
AcDbDictionary
281
     1
  0
DICTIONARY
  5
1A
102
{ACAD_REACTORS
330
C
102
}
330
C
100
AcDbDictionary
281
     1
  3
Layout1
350
1E
  3
Layout2
350
26
  3
Model
350
22
  0
DICTIONARY
  5
17
102
{ACAD_REACTORS
330
C
102
}
330
C
100
AcDbDictionary
281
     1
  3
Standard
350
18
  0
DICTIONARY
  5
19
102
{ACAD_REACTORS
330
C
102
}
330
C
100
AcDbDictionary
281
     1
  0
ACDBDICTIONARYWDFLT
  5
E
102
{ACAD_REACTORS
330
C
102
}
330
C
100
AcDbDictionary
281
     1
  3
Normal
350
F
100
AcDbDictionaryWithDefault
340
F
  0
LAYOUT
  5
1E
102
{ACAD_REACTORS
330
1A
102
}
330
1A
100
AcDbPlotSettings
  1

  2
none_device
  4

  6

 40
0.0
 41
0.0
 42
0.0
 43
0.0
 44
0.0
 45
0.0
 46
0.0
 47
0.0
 48
0.0
 49
0.0
140
0.0
141
0.0
142
1.0
143
1.0
 70
   688
 72
     0
 73
     0
 74
     5
  7

 75
    16
147
1.0
148
0.0
149
0.0
100
AcDbLayout
  1
Layout1
 70
     1
 71
     1
 10
0.0
 20
0.0
 11
420.0
 21
297.0
 12
0.0
 22
0.0
 32
0.0
 14
1.0000000000E+20
 24
1.0000000000E+20
 34
1.0000000000E+20
 15
-1.0000000000E+20
 25
-1.0000000000E+20
 35
-1.0000000000E+20
146
0.0
 13
0.0
 23
0.0
 33
0.0
 16
1.0
 26
0.0
 36
0.0
 17
0.0
 27
1.0
 37
0.0
 76
     0
330
1B
  0
LAYOUT
  5
26
102
{ACAD_REACTORS
330
1A
102
}
330
1A
100
AcDbPlotSettings
  1

  2
none_device
  4

  6

 40
0.0
 41
0.0
 42
0.0
 43
0.0
 44
0.0
 45
0.0
 46
0.0
 47
0.0
 48
0.0
 49
0.0
140
0.0
141
0.0
142
1.0
143
1.0
 70
   688
 72
     0
 73
     0
 74
     5
  7

 75
    16
147
1.0
148
0.0
149
0.0
100
AcDbLayout
  1
Layout2
 70
     1
 71
     2
 10
0.0
 20
0.0
 11
0.0
 21
0.0
 12
0.0
 22
0.0
 32
0.0
 14
0.0
 24
0.0
 34
0.0
 15
0.0
 25
0.0
 35
0.0
146
0.0
 13
0.0
 23
0.0
 33
0.0
 16
1.0
 26
0.0
 36
0.0
 17
0.0
 27
1.0
 37
0.0
 76
     0
330
23
  0
LAYOUT
  5
22
102
{ACAD_REACTORS
330
1A
102
}
330
1A
100
AcDbPlotSettings
  1

  2
none_device
  4

  6

 40
0.0
 41
0.0
 42
0.0
 43
0.0
 44
0.0
 45
0.0
 46
0.0
 47
0.0
 48
0.0
 49
0.0
140
0.0
141
0.0
142
1.0
143
1.0
 70
  1712
 72
     0
 73
     0
 74
     0
  7

 75
     0
147
1.0
148
0.0
149
0.0
100
AcDbLayout
  1
Model
 70
     1
 71
     0
 10
0.0
 20
0.0
 11
420.0
 21
297.0
 12
0.0
 22
0.0
 32
0.0
 14
0.0
 24
0.0
 34
0.0
 15
420.0
 25
297.0
 35
0.0
146
0.0
 13
0.0
 23
0.0
 33
0.0
 16
1.0
 26
0.0
 36
0.0
 17
0.0
 27
1.0
 37
0.0
 76
     0
330
1F
331
29
  0
MLINESTYLE
  5
18
102
{ACAD_REACTORS
330
17
102
}
330
17
100
AcDbMlineStyle
  2
Standard
 70
     0
  3

 62
   256
 51
90.0
 52
90.0
 71
     2
 49
0.5
 62
   256
  6
BYLAYER
 49
-0.5
 62
   256
  6
BYLAYER
  0
ACDBPLACEHOLDER
  5
F
102
{ACAD_REACTORS
330
E
102
}
330
E
  0
ENDSEC
  0
EOF
