  0
SECTION
  2
HEADER
  9
$ACADVER
  1
AC1015
  9
$ACADMAINTVER
 70
     6
  9
$DWGCODEPAGE
  3
DOS932
  9
$INSBASE
 10
0.0
 20
0.0
 30
0.0
  9
$EXTMIN
 10
0.0
 20
0.0
 30
0.0
  9
$EXTMAX
 10
420.0
 20
297.0
 30
0.0
  9
$LIMMIN
 10
0.0
 20
0.0
  9
$LIMMAX
 10
420.0
 20
297.0
  9
$ORTHOMODE
 70
     0
  9
$REGENMODE
 70
     1
  9
$FILLMODE
 70
     1
  9
$QTEXTMODE
 70
     0
  9
$MIRRTEXT
 70
     1
  9
$LTSCALE
 40
1.0
  9
$ATTMODE
 70
     1
  9
$TEXTSIZE
 40
3.8805555556
  9
$TRACEWID
 40
1.0
  9
$TEXTSTYLE
  7
Standard
  9
$CLAYER
  8
0
  9
$CELTYPE
  6
ByLayer
  9
$CECOLOR
 62
   256
  9
$CELTSCALE
 40
1.0
  9
$DISPSILH
 70
     0
  9
$DIMSCALE
 40
1.0
  9
$DIMASZ
 40
3.0
  9
$DIMEXO
 40
0.0
  9
$DIMDLI
 40
3.75
  9
$DIMRND
 40
0.0
  9
$DIMDLE
 40
0.0
  9
$DIMEXE
 40
1.0
  9
$DIMTP
 40
0.0
  9
$DIMTM
 40
0.0
  9
$DIMTXT
 40
3.5277777778
  9
$DIMCEN
 40
2.5
  9
$DIMTSZ
 40
0.0
  9
$DIMTOL
 70
     0
  9
$DIMLIM
 70
     0
  9
$DIMTIH
 70
     1
  9
$DIMTOH
 70
     1
  9
$DIMSE1
 70
     0
  9
$DIMSE2
 70
     0
  9
$DIMTAD
 70
     1
  9
$DIMZIN
 70
     0
  9
$DIMBLK
  1

  9
$DIMASO
 70
     1
  9
$DIMSHO
 70
     1
  9
$DIMPOST
  1

  9
$DIMAPOST
  1

  9
$DIMALT
 70
     0
  9
$DIMALTD
 70
     3
  9
$DIMALTF
 40
0.0393700787
  9
$DIMLFAC
 40
1.0
  9
$DIMTOFL
 70
     1
  9
$DIMTVP
 40
0.0
  9
$DIMTIX
 70
     0
  9
$DIMSOXD
 70
     0
  9
$DIMSAH
 70
     0
  9
$DIMBLK1
  1

  9
$DIMBLK2
  1

  9
$DIMSTYLE
  2
ISO-25
  9
$DIMCLRD
 70
     0
  9
$DIMCLRE
 70
     0
  9
$DIMCLRT
 70
     0
  9
$DIMTFAC
 40
1.0
  9
$DIMGAP
 40
1.0
  9
$DIMJUST
 70
     0
  9
$DIMSD1
 70
     0
  9
$DIMSD2
 70
     0
  9
$DIMTOLJ
 70
     0
  9
$DIMTZIN
 70
     0
  9
$DIMALTZ
 70
     0
  9
$DIMALTTZ
 70
     0
  9
$DIMUPT
 70
     0
  9
$DIMDEC
 70
     2
  9
$DIMTDEC
 70
     2
  9
$DIMALTU
 70
     2
  9
$DIMALTTD
 70
     3
  9
$DIMTXSTY
  7
Standard
  9
$DIMAUNIT
 70
     0
  9
$DIMADEC
 70
     2
  9
$DIMALTRND
 40
0.0
  9
$DIMAZIN
 70
     0
  9
$DIMDSEP
 70
    44
  9
$DIMATFIT
 70
     3
  9
$DIMFRAC
 70
     0
  9
$DIMLDRBLK
  1

  9
$DIMLUNIT
 70
     2
  9
$DIMLWD
 70
    -2
  9
$DIMLWE
 70
    -2
  9
$DIMTMOVE
 70
     0
  9
$LUNITS
 70
     2
  9
$LUPREC
 70
     2
  9
$SKETCHINC
 40
1.0
  9
$FILLETRAD
 40
10.0
  9
$AUNITS
 70
     0
  9
$AUPREC
 70
     2
  9
$MENU
  1
.
  9
$ELEVATION
 40
0.0
  9
$PELEVATION
 40
0.0
  9
$THICKNESS
 40
0.0
  9
$LIMCHECK
 70
     0
  9
$CHAMFERA
 40
0.0
  9
$CHAMFERB
 40
0.0
  9
$CHAMFERC
 40
0.0
  9
$CHAMFERD
 40
0.0
  9
$SKPOLY
 70
     0
  9
$TDCREATE
 40
2458282.416588866
  9
$TDUCREATE
 40
2458282.041588866
  9
$TDUPDATE
 40
2458282.416590336
  9
$TDUUPDATE
 40
2458282.041590336
  9
$TDINDWG
 40
0.0000000116
  9
$TDUSRTIMER
 40
0.0000000116
  9
$USRTIMER
 70
     1
  9
$ANGBASE
 50
0.0
  9
$ANGDIR
 70
     0
  9
$PDMODE
 70
     0
  9
$PDSIZE
 40
-1.0
  9
$PLINEWID
 40
0.0
  9
$SPLFRAME
 70
     0
  9
$SPLINETYPE
 70
     6
  9
$SPLINESEGS
 70
     8
  9
$HANDSEED
  5
2A8
  9
$SURFTAB1
 70
     6
  9
$SURFTAB2
 70
     6
  9
$SURFTYPE
 70
     6
  9
$SURFU
 70
     6
  9
$SURFV
 70
     6
  9
$UCSBASE
  2

  9
$UCSNAME
  2

  9
$UCSORG
 10
0.0
 20
0.0
 30
0.0
  9
$UCSXDIR
 10
1.0
 20
0.0
 30
0.0
  9
$UCSYDIR
 10
0.0
 20
1.0
 30
0.0
  9
$UCSORTHOREF
  2

  9
$UCSORTHOVIEW
 70
     0
  9
$UCSORGTOP
 10
0.0
 20
0.0
 30
0.0
  9
$UCSORGBOTTOM
 10
0.0
 20
0.0
 30
0.0
  9
$UCSORGLEFT
 10
0.0
 20
0.0
 30
0.0
  9
$UCSORGRIGHT
 10
0.0
 20
0.0
 30
0.0
  9
$UCSORGFRONT
 10
0.0
 20
0.0
 30
0.0
  9
$UCSORGBACK
 10
0.0
 20
0.0
 30
0.0
  9
$PUCSBASE
  2

  9
$PUCSNAME
  2

  9
$PUCSORG
 10
0.0
 20
0.0
 30
0.0
  9
$PUCSXDIR
 10
1.0
 20
0.0
 30
0.0
  9
$PUCSYDIR
 10
0.0
 20
1.0
 30
0.0
  9
$PUCSORTHOREF
  2

  9
$PUCSORTHOVIEW
 70
     0
  9
$PUCSORGTOP
 10
0.0
 20
0.0
 30
0.0
  9
$PUCSORGBOTTOM
 10
0.0
 20
0.0
 30
0.0
  9
$PUCSORGLEFT
 10
0.0
 20
0.0
 30
0.0
  9
$PUCSORGRIGHT
 10
0.0
 20
0.0
 30
0.0
  9
$PUCSORGFRONT
 10
0.0
 20
0.0
 30
0.0
  9
$PUCSORGBACK
 10
0.0
 20
0.0
 30
0.0
  9
$USERI1
 70
     0
  9
$USERI2
 70
     0
  9
$USERI3
 70
     0
  9
$USERI4
 70
     0
  9
$USERI5
 70
     0
  9
$USERR1
 40
0.0
  9
$USERR2
 40
0.0
  9
$USERR3
 40
0.0
  9
$USERR4
 40
0.0
  9
$USERR5
 40
0.0
  9
$WORLDVIEW
 70
     1
  9
$SHADEDGE
 70
     3
  9
$SHADEDIF
 70
    70
  9
$TILEMODE
 70
     1
  9
$MAXACTVP
 70
    64
  9
$PINSBASE
 10
0.0
 20
0.0
 30
0.0
  9
$PLIMCHECK
 70
     0
  9
$PEXTMIN
 10
1.0000000000E+20
 20
1.0000000000E+20
 30
1.0000000000E+20
  9
$PEXTMAX
 10
-1.0000000000E+20
 20
-1.0000000000E+20
 30
-1.0000000000E+20
  9
$PLIMMIN
 10
0.0
 20
0.0
  9
$PLIMMAX
 10
420.0
 20
297.0
  9
$UNITMODE
 70
     0
  9
$VISRETAIN
 70
     1
  9
$PLINEGEN
 70
     0
  9
$PSLTSCALE
 70
     1
  9
$TREEDEPTH
 70
  3020
  9
$CMLSTYLE
  2
Standard
  9
$CMLJUST
 70
     0
  9
$CMLSCALE
 40
20.0
  9
$PROXYGRAPHICS
 70
     1
  9
$MEASUREMENT
 70
     1
  9
$CELWEIGHT
370
    -1
  9
$ENDCAPS
280
     0
  9
$JOINSTYLE
280
     0
  9
$LWDISPLAY
290
     1
  9
$INSUNITS
 70
     4
  9
$HYPERLINKBASE
  1

  9
$STYLESHEET
  1

  9
$XEDIT
290
     1
  9
$CEPSNTYPE
380
     0
  9
$PSTYLEMODE
290
     1
  9
$FINGERPRINTGUID
  2
{68A72965-CE78-428C-8D4E-9A4F6AE29B74}
  9
$VERSIONGUID
  2
{FAEB1C32-E019-11D5-929B-00C0DF256EC4}
  9
$EXTNAMES
290
     1
  9
$PSVPSCALE
 40
0.0
  9
$OLESTARTUP
290
     0
  0
ENDSEC
  0
SECTION
  2
CLASSES
  0
CLASS
  1
ACDBDICTIONARYWDFLT
  2
AcDbDictionaryWithDefault
  3
ObjectDBX Classes
 90
        0
280
     0
281
     0
  0
CLASS
  1
VISUALSTYLE
  2
AcDbVisualStyle
  3
ObjectDBX Classes
 90
     4095
280
     0
281
     0
  0
CLASS
  1
MATERIAL
  2
AcDbMaterial
  3
ObjectDBX Classes
 90
     1153
280
     0
281
     0
  0
CLASS
  1
SCALE
  2
AcDbScale
  3
ObjectDBX Classes
 90
     1153
280
     0
281
     0
  0
CLASS
  1
TABLESTYLE
  2
AcDbTableStyle
  3
ObjectDBX Classes
 90
     4095
280
     0
281
     0
  0
CLASS
  1
MLEADERSTYLE
  2
AcDbMLeaderStyle
  3
ACDB_MLEADERSTYLE_CLASS
 90
     4095
280
     0
281
     0
  0
CLASS
  1
SUN
  2
AcDbSun
  3
SCENEOE
 90
     1153
280
     0
281
     0
  0
CLASS
  1
ACDBPLACEHOLDER
  2
AcDbPlaceHolder
  3
ObjectDBX Classes
 90
        0
280
     0
281
     0
  0
CLASS
  1
LAYOUT
  2
AcDbLayout
  3
ObjectDBX Classes
 90
        0
280
     0
281
     0
  0
ENDSEC
  0
SECTION
  2
TABLES
  0
TABLE
  2
VPORT
  5
8
330
0
100
AcDbSymbolTable
 70
     1
  0
VPORT
  5
29
330
8
100
AcDbSymbolTableRecord
100
AcDbViewportTableRecord
  2
*Active
 70
     0
 10
0.0
 20
0.0
 11
1.0
 21
1.0
 12
210.0
 22
148.5
 13
0.0
 23
0.0
 14
10.0
 24
10.0
 15
10.0
 25
10.0
 16
0.0
 26
0.0
 36
1.0
 17
0.0
 27
0.0
 37
0.0
 40
297.0
 41
1.4141414141
 42
50.0
 43
0.0
 44
0.0
 50
0.0
 51
0.0
 71
     0
 72
  2000
 73
     1
 74
     3
 75
     0
 76
     0
 77
     0
 78
     0
281
     0
 65
     1
110
0.0
120
0.0
130
0.0
111
1.0
121
0.0
131
0.0
112
0.0
122
1.0
132
0.0
 79
     0
146
0.0
  0
ENDTAB
  0
TABLE
  2
LTYPE
  5
5
330
0
100
AcDbSymbolTable
 70
     6
  0
LTYPE
  5
14
330
5
100
AcDbSymbolTableRecord
100
AcDbLinetypeTableRecord
  2
ByBlock
 70
     0
  3

 72
    65
 73
     0
 40
0.0
  0
LTYPE
  5
15
330
5
100
AcDbSymbolTableRecord
100
AcDbLinetypeTableRecord
  2
ByLayer
 70
     0
  3

 72
    65
 73
     0
 40
0.0
  0
LTYPE
  5
16
330
5
100
AcDbSymbolTableRecord
100
AcDbLinetypeTableRecord
  2
Continuous
 70
     0
  3
Solid line
 72
    65
 73
     0
 40
0.0
  0
LTYPE
  5
6E
330
5
100
AcDbSymbolTableRecord
100
AcDbLinetypeTableRecord
  2
HIDDEN
 70
     0
  3
Hidden __ __ __ __ __ __ __ __ __ __ __ __ __ __
 72
    65
 73
     2
 40
1.905
 49
1.27
 74
     0
 49
-0.635
 74
     0
  0
LTYPE
  5
6F
330
5
100
AcDbSymbolTableRecord
100
AcDbLinetypeTableRecord
  2
PHANTOM
 70
     0
  3
Phantom ______  __  __  ______  __  __  ______
 72
    65
 73
     6
 40
12.7
 49
6.35
 74
     0
 49
-1.27
 74
     0
 49
1.27
 74
     0
 49
-1.27
 74
     0
 49
1.27
 74
     0
 49
-1.27
 74
     0
  0
LTYPE
  5
70
330
5
100
AcDbSymbolTableRecord
100
AcDbLinetypeTableRecord
  2
CENTER
 70
     0
  3
Center ____ _ ____ _ ____ _ ____ _ ____ _ ____
 72
    65
 73
     4
 40
10.16
 49
6.35
 74
     0
 49
-1.27
 74
     0
 49
1.27
 74
     0
 49
-1.27
 74
     0
  0
LTYPE
  5
71
330
5
100
AcDbSymbolTableRecord
100
AcDbLinetypeTableRecord
  2
CENTERX2
 70
     0
  3
Center (2x) ________  __  ________  __  _____
 72
    65
 73
     4
 40
20.32
 49
12.7
 74
     0
 49
-2.54
 74
     0
 49
2.54
 74
     0
 49
-2.54
 74
     0
  0
LTYPE
  5
72
330
5
100
AcDbSymbolTableRecord
100
AcDbLinetypeTableRecord
  2
DOT2
 70
     0
  3
Dot (.5x) ........................................
 72
    65
 73
     2
 40
0.635
 49
0.0
 74
     0
 49
-0.635
 74
     0
  0
ENDTAB
  0
TABLE
  2
LAYER
  5
2
330
0
100
AcDbSymbolTable
 70
     6
  0
LAYER
  5
10
330
2
100
AcDbSymbolTableRecord
100
AcDbLayerTableRecord
  2
0
 70
     0
 62
     7
  6
Continuous
370
    -3
390
F
  0
LAYER
  5
73
330
2
100
AcDbSymbolTableRecord
100
AcDbLayerTableRecord
  2
SLD-0
 70
     0
 62
     7
  6
Continuous
370
    -3
390
F
  0
LAYER
  5
74
330
2
100
AcDbSymbolTableRecord
100
AcDbLayerTableRecord
  2
8
 70
     0
 62
     7
  6
Continuous
370
    15
390
F
  0
LAYER
  5
75
330
2
100
AcDbSymbolTableRecord
100
AcDbLayerTableRecord
  2
9
 70
     0
 62
     7
  6
Continuous
370
    -3
390
F
  0
LAYER
  5
76
330
2
100
AcDbSymbolTableRecord
100
AcDbLayerTableRecord
  2
10
 70
     0
 62
     1
  6
Continuous
370
    -3
390
F
  0
LAYER
  5
77
330
2
100
AcDbSymbolTableRecord
100
AcDbLayerTableRecord
  2
11
 70
     0
 62
     7
  6
Continuous
370
    -3
390
F
  0
ENDTAB
  0
TABLE
  2
STYLE
  5
3
330
0
100
AcDbSymbolTable
 70
     2
  0
STYLE
  5
11
330
3
100
AcDbSymbolTableRecord
100
AcDbTextStyleTableRecord
  2
Standard
 70
     0
 40
0.0
 41
1.0
 50
0.0
 71
     0
 42
3.8805555556
  3
txt
  4
bigfont
  0
STYLE
  5
78
330
3
100
AcDbSymbolTableRecord
100
AcDbTextStyleTableRecord
  2
SLDTEXTSTYLE0
 70
     0
 40
0.0
 41
0.7
 50
0.0
 71
     0
 42
3.8805555556
  3
TXT
  4
bigfont
  0
ENDTAB
  0
TABLE
  2
VIEW
  5
6
330
0
100
AcDbSymbolTable
 70
     0
  0
ENDTAB
  0
TABLE
  2
UCS
  5
7
330
0
100
AcDbSymbolTable
 70
     0
  0
ENDTAB
  0
TABLE
  2
APPID
  5
9
330
0
100
AcDbSymbolTable
 70
     1
  0
APPID
  5
12
330
9
100
AcDbSymbolTableRecord
100
AcDbRegAppTableRecord
  2
ACAD
 70
     0
  0
ENDTAB
  0
TABLE
  2
DIMSTYLE
  5
A
330
0
100
AcDbSymbolTable
 70
     1
100
AcDbDimStyleTable
  0
DIMSTYLE
105
27
330
A
100
AcDbSymbolTableRecord
100
AcDbDimStyleTableRecord
  2
ISO-25
 70
     0
 41
2.5
 42
0.625
 43
3.75
 44
1.25
 73
     0
 74
     0
 77
     1
 78
     8
140
2.5
141
2.5
143
0.0393700787
147
0.625
171
     3
172
     1
178
     0
271
     2
272
     2
274
     3
278
    44
283
     0
284
     8
340
11
  0
ENDTAB
  0
TABLE
  2
BLOCK_RECORD
  5
1
330
0
100
AcDbSymbolTable
 70
     1
  0
BLOCK_RECORD
  5
1F
330
1
100
AcDbSymbolTableRecord
100
AcDbBlockTableRecord
  2
*Model_Space
340
22
  0
BLOCK_RECORD
  5
1B
330
1
100
AcDbSymbolTableRecord
100
AcDbBlockTableRecord
  2
*Paper_Space
340
1E
  0
BLOCK_RECORD
  5
23
330
1
100
AcDbSymbolTableRecord
100
AcDbBlockTableRecord
  2
*Paper_Space0
340
26
  0
ENDTAB
  0
ENDSEC
  0
SECTION
  2
BLOCKS
  0
BLOCK
  5
20
330
1F
100
AcDbEntity
  8
0
100
AcDbBlockBegin
  2
*Model_Space
 70
     0
 10
0.0
 20
0.0
 30
0.0
  3
*Model_Space
  1

  0
ENDBLK
  5
21
330
1F
100
AcDbEntity
  8
0
100
AcDbBlockEnd
  0
BLOCK
  5
1C
330
1B
100
AcDbEntity
 67
     1
  8
0
100
AcDbBlockBegin
  2
*Paper_Space
 70
     0
 10
0.0
 20
0.0
 30
0.0
  3
*Paper_Space
  1

  0
ENDBLK
  5
1D
330
1B
100
AcDbEntity
 67
     1
  8
0
100
AcDbBlockEnd
  0
BLOCK
  5
24
330
23
100
AcDbEntity
  8
0
100
AcDbBlockBegin
  2
*Paper_Space0
 70
     0
 10
0.0
 20
0.0
 30
0.0
  3
*Paper_Space0
  1

  0
ENDBLK
  5
25
330
23
100
AcDbEntity
  8
0
100
AcDbBlockEnd
  0
ENDSEC
  0
SECTION
  2
ENTITIES
  0
MTEXT
  5
79
330
1F
100
AcDbEntity
  8
9
 62
     7
100
AcDbMText
 10
22.9810592731
 20
14.7698939359
 30
0.0
 40
3.7041666667
 41
0.0
 71
     1
 72
     1
  1
2018/05/28
  7
SLDTEXTSTYLE0
 73
     1
 44
1.0
  0
MTEXT
  5
7A
330
1F
100
AcDbEntity
  8
9
 62
     7
100
AcDbMText
 10
22.9810592731
 20
39.3097759652
 30
0.0
 40
3.7041666667
 41
0.0
 71
     1
 72
     1
  1
PXP-FB2-BL
  7
SLDTEXTSTYLE0
 73
     1
 44
1.0
  0
MTEXT
  5
7B
330
1F
100
AcDbEntity
  8
9
 62
     7
100
AcDbMText
 10
22.9810592731
 20
22.271836236
 30
0.0
 40
3.7041666667
 41
0.0
 71
     1
 72
     1
  1
-
  7
SLDTEXTSTYLE0
 73
     1
 44
1.0
  0
MTEXT
  5
7C
330
1F
100
AcDbEntity
  8
9
 62
     7
100
AcDbMText
 10
22.9810592731
 20
30.9293045781
 30
0.0
 40
3.7041666667
 41
0.0
 71
     1
 72
     1
  1
1:1
  7
SLDTEXTSTYLE0
 73
     1
 44
1.0
  0
SPLINE
  5
7D
330
1F
100
AcDbEntity
  8
0
  6
Continuous
 62
     7
370
    30
100
AcDbSpline
210
0.0
220
0.0
230
1.0
 70
    24
 71
     3
 72
     8
 73
     4
 74
     0
 42
0.000000001
 43
0.00000001
 40
0.0
 40
0.0
 40
0.0
 40
0.0
 40
1.0
 40
1.0
 40
1.0
 40
1.0
 10
249.9049418604654
 20
194.7390814879883
 30
0.0
 10
249.9049418604654
 20
194.9235780341218
 30
0.0
 10
249.9049418604654
 20
195.101908451693
 30
0.0
 10
249.9049418604654
 20
195.2783050771714
 30
0.0
  0
ARC
  5
7E
330
1F
100
AcDbEntity
  8
0
  6
Continuous
 62
     7
370
    30
100
AcDbCircle
 10
250.5049418605
 20
193.5018971848
 30
0.0
 40
1.375000000000035
100
AcDbArc
 50
115.8720959629
 51
289.1279040371
  0
SPLINE
  5
7F
330
1F
100
AcDbEntity
  8
0
  6
Continuous
 62
     7
370
    30
100
AcDbSpline
210
0.0
220
0.0
230
1.0
 70
    24
 71
     3
 72
     8
 73
     4
 74
     0
 42
0.000000001
 43
0.00000001
 40
0.0
 40
0.0
 40
0.0
 40
0.0
 40
1.0
 40
1.0
 40
1.0
 40
1.0
 10
250.9554992020996
 20
191.6818358996182
 30
0.0
 10
250.9554992020996
 20
191.853770153806
 30
0.0
 10
250.9554992020996
 20
192.0267545946642
 30
0.0
 10
250.9554992020996
 20
192.2028117057644
 30
0.0
  0
ARC
  5
80
330
1F
100
AcDbEntity
  8
0
  6
Continuous
 62
     7
370
    30
100
AcDbCircle
 10
250.5049418605
 20
193.5018971848
 30
0.0
 40
1.874999999999984
100
AcDbArc
 50
108.6629248849
 51
283.9040848892
  0
LINE
  5
81
330
1F
100
AcDbEntity
  8
0
  6
Continuous
 62
     7
370
    30
100
AcDbLine
 10
249.9049411661
 20
195.2783053505
 30
0.0
 11
249.9049411661
 21
195.3046729552
 31
0.0
  0
ARC
  5
82
330
1F
100
AcDbEntity
  8
0
  6
Continuous
 62
     7
370
    30
100
AcDbCircle
 10
250.5049418605
 20
193.5018971848
 30
0.0
 40
1.899999999999983
100
AcDbArc
 50
108.4084801706
 51
283.717533332
  0
LINE
  5
83
330
1F
100
AcDbEntity
  8
0
  6
Continuous
 62
     7
370
    30
100
AcDbLine
 10
250.9554991073
 20
191.6560901093
 30
0.0
 11
250.9554991073
 21
191.6818355906
 31
0.0
  0
LINE
  5
84
330
1F
100
AcDbEntity
  8
0
  6
Continuous
 62
     7
370
    30
100
AcDbLine
 10
306.1049425549
 20
195.2783053505
 30
0.0
 11
306.1049425549
 21
195.3046729552
 31
0.0
  0
ARC
  5
85
330
1F
100
AcDbEntity
  8
0
  6
Continuous
 62
     7
370
    30
100
AcDbCircle
 10
305.5049418605
 20
193.5018971848
 30
0.0
 40
1.899999999999992
100
AcDbArc
 50
256.282466668
 51
71.5915198294
  0
LINE
  5
86
330
1F
100
AcDbEntity
  8
0
  6
Continuous
 62
     7
370
    30
100
AcDbLine
 10
305.0543846137
 20
191.6818355906
 30
0.0
 11
305.0543846137
 21
191.6560901093
 31
0.0
  0
ARC
  5
87
330
1F
100
AcDbEntity
  8
0
  6
Continuous
 62
     7
370
    30
100
AcDbCircle
 10
305.5049418605
 20
193.5018971848
 30
0.0
 40
1.875000000000047
100
AcDbArc
 50
256.0959151108
 51
71.3370751151
  0
LINE
  5
88
330
1F
100
AcDbEntity
  8
0
  6
Continuous
 62
     7
370
    30
100
AcDbLine
 10
306.1049425549
 20
103.7254890191
 30
0.0
 11
306.1049425549
 21
103.6991214144
 31
0.0
  0
ARC
  5
89
330
1F
100
AcDbEntity
  8
0
  6
Continuous
 62
     7
370
    30
100
AcDbCircle
 10
305.5049418605
 20
105.5018971848
 30
0.0
 40
1.875000000000028
100
AcDbArc
 50
288.6629248849
 51
103.9040848892
  0
ARC
  5
8A
330
1F
100
AcDbEntity
  8
0
  6
Continuous
 62
     7
370
    30
100
AcDbCircle
 10
305.5049418605
 20
105.5018971848
 30
0.0
 40
1.900000000000012
100
AcDbArc
 50
288.4084801706
 51
103.717533332
  0
LINE
  5
8B
330
1F
100
AcDbEntity
  8
0
  6
Continuous
 62
     7
370
    30
100
AcDbLine
 10
305.0543846137
 20
107.3477042603
 30
0.0
 11
305.0543846137
 21
107.3219587791
 31
0.0
  0
SPLINE
  5
8C
330
1F
100
AcDbEntity
  8
0
  6
Continuous
 62
     7
370
    30
100
AcDbSpline
210
0.0
220
0.0
230
1.0
 70
    24
 71
     3
 72
     8
 73
     4
 74
     0
 42
0.000000001
 43
0.00000001
 40
0.0
 40
0.0
 40
0.0
 40
0.0
 40
1.0
 40
1.0
 40
1.0
 40
1.0
 10
306.1049418604654
 20
104.2647128816566
 30
0.0
 10
306.1049418604654
 20
104.0802193056226
 30
0.0
 10
306.1049418604654
 20
103.9018859696881
 30
0.0
 10
306.1049418604654
 20
103.7254892924734
 30
0.0
  0
ARC
  5
8D
330
1F
100
AcDbEntity
  8
0
  6
Continuous
 62
     7
370
    30
100
AcDbCircle
 10
305.5049418605
 20
105.5018971848
 30
0.0
 40
1.375000000000011
100
AcDbArc
 50
295.8720959629
 51
109.1279040371
  0
SPLINE
  5
8E
330
1F
100
AcDbEntity
  8
0
  6
Continuous
 62
     7
370
    30
100
AcDbSpline
210
0.0
220
0.0
230
1.0
 70
    24
 71
     3
 72
     8
 73
     4
 74
     0
 42
0.000000001
 43
0.00000001
 40
0.0
 40
0.0
 40
0.0
 40
0.0
 40
1.0
 40
1.0
 40
1.0
 40
1.0
 10
305.0543845188312
 20
107.3219584700267
 30
0.0
 10
305.0543845188312
 20
107.1500258171024
 30
0.0
 10
305.0543845188312
 20
106.9770450195177
 30
0.0
 10
305.0543845188312
 20
106.8009826638805
 30
0.0
  0
SPLINE
  5
8F
330
1F
100
AcDbEntity
  8
0
  6
Continuous
 62
     7
370
    30
100
AcDbSpline
210
0.0
220
0.0
230
1.0
 70
    24
 71
     3
 72
     8
 73
     4
 74
     0
 42
0.000000001
 43
0.00000001
 40
0.0
 40
0.0
 40
0.0
 40
0.0
 40
1.0
 40
1.0
 40
1.0
 40
1.0
 10
306.1049418604654
 20
194.7390814879883
 30
0.0
 10
306.1049418604654
 20
194.9235780341218
 30
0.0
 10
306.1049418604654
 20
195.1019084516931
 30
0.0
 10
306.1049418604654
 20
195.2783050771715
 30
0.0
  0
ARC
  5
90
330
1F
100
AcDbEntity
  8
0
  6
Continuous
 62
     7
370
    30
100
AcDbCircle
 10
305.5049418605
 20
193.5018971848
 30
0.0
 40
1.37500000000001
100
AcDbArc
 50
250.8720959629
 51
64.1279040371
  0
SPLINE
  5
91
330
1F
100
AcDbEntity
  8
0
  6
Continuous
 62
     7
370
    30
100
AcDbSpline
210
0.0
220
0.0
230
1.0
 70
    24
 71
     3
 72
     8
 73
     4
 74
     0
 42
0.000000001
 43
0.00000001
 40
0.0
 40
0.0
 40
0.0
 40
0.0
 40
1.0
 40
1.0
 40
1.0
 40
1.0
 10
305.0543845188312
 20
192.2028117057644
 30
0.0
 10
305.0543845188312
 20
192.026747005268
 30
0.0
 10
305.0543845188312
 20
191.853768362792
 30
0.0
 10
305.0543845188312
 20
191.6818358996181
 30
0.0
  0
SPLINE
  5
92
330
1F
100
AcDbEntity
  8
0
  6
Continuous
 62
     7
370
    30
100
AcDbSpline
210
0.0
220
0.0
230
1.0
 70
    24
 71
     3
 72
     8
 73
     4
 74
     0
 42
0.000000001
 43
0.00000001
 40
0.0
 40
0.0
 40
0.0
 40
0.0
 40
1.0
 40
1.0
 40
1.0
 40
1.0
 10
304.9049418604653
 20
102.3406865630581
 30
0.0
 10
304.9049418604653
 20
102.789057501688
 30
0.0
 10
304.9049418604653
 20
103.2385854877111
 30
0.0
 10
304.9049418604653
 20
103.6991215470904
 30
0.0
  0
SPLINE
  5
93
330
1F
100
AcDbEntity
  8
0
  6
Continuous
 62
     7
370
    30
100
AcDbSpline
210
0.0
220
0.0
230
1.0
 70
    24
 71
     3
 72
     8
 73
     4
 74
     0
 42
0.000000001
 43
0.00000001
 40
0.0
 40
0.0
 40
0.0
 40
0.0
 40
1.0
 40
1.0
 40
1.0
 40
1.0
 10
303.6591363230646
 20
105.9524545264566
 30
0.0
 10
303.2082654600738
 20
105.9524545264566
 30
0.0
 10
302.7632892390604
 20
105.9524545264566
 30
0.0
 10
302.3189960547343
 20
105.9524545264566
 30
0.0
  0
ARC
  5
94
330
1F
100
AcDbEntity
  8
0
  6
Continuous
 62
     7
370
    30
100
AcDbCircle
 10
305.5049418605
 20
105.5018971848
 30
0.0
 40
1.900000000000033
100
AcDbArc
 50
166.282466668
 51
251.5915198294
  0
SPLINE
  5
95
330
1F
100
AcDbEntity
  8
0
  6
Continuous
 62
     7
370
    30
100
AcDbSpline
210
0.0
220
0.0
230
1.0
 70
    24
 71
     3
 72
     8
 73
     4
 74
     0
 42
0.000000001
 43
0.00000001
 40
0.0
 40
0.0
 40
0.0
 40
0.0
 40
1.0
 40
1.0
 40
1.0
 40
1.0
 10
251.1049418604654
 20
103.7254892924734
 30
0.0
 10
251.1049418604654
 20
103.9018948933925
 30
0.0
 10
251.1049418604654
 20
104.0802549771978
 30
0.0
 10
251.1049418604654
 20
104.2647128816565
 30
0.0
  0
ARC
  5
96
330
1F
100
AcDbEntity
  8
0
  6
Continuous
 62
     7
370
    30
100
AcDbCircle
 10
250.5049418605
 20
105.5018971848
 30
0.0
 40
1.374999999999997
100
AcDbArc
 50
295.8720959629
 51
19.1279040371
  0
SPLINE
  5
97
330
1F
100
AcDbEntity
  8
0
  6
Continuous
 62
     7
370
    30
100
AcDbSpline
210
0.0
220
0.0
230
1.0
 70
    24
 71
     3
 72
     8
 73
     4
 74
     0
 42
0.000000001
 43
0.00000001
 40
0.0
 40
0.0
 40
0.0
 40
0.0
 40
1.0
 40
1.0
 40
1.0
 40
1.0
 10
252.3250031456697
 20
105.9524545264566
 30
0.0
 10
252.1530704713723
 20
105.9524545264566
 30
0.0
 10
251.9800892107921
 20
105.9524545264566
 30
0.0
 10
251.8040273395235
 20
105.9524545264566
 30
0.0
  0
ARC
  5
98
330
1F
100
AcDbEntity
  8
0
  6
Continuous
 62
     7
370
    30
100
AcDbCircle
 10
250.5049418605
 20
105.5018971848
 30
0.0
 40
1.874999999999973
100
AcDbArc
 50
288.6629248849
 51
13.9040848892
  0
SPLINE
  5
99
330
1F
100
AcDbEntity
  8
0
  6
Continuous
 62
     7
370
    30
100
AcDbSpline
210
0.0
220
0.0
230
1.0
 70
    24
 71
     3
 72
     8
 73
     4
 74
     0
 42
0.000000001
 43
0.00000001
 40
0.0
 40
0.0
 40
0.0
 40
0.0
 40
1.0
 40
1.0
 40
1.0
 40
1.0
 10
306.1049418604654
 20
103.6991215470904
 30
0.0
 10
306.1049418604654
 20
103.2386727133164
 30
0.0
 10
306.1049418604654
 20
102.7890689588177
 30
0.0
 10
306.1049418604654
 20
102.3406865630578
 30
0.0
  0
SPLINE
  5
9A
330
1F
100
AcDbEntity
  8
0
  6
Continuous
 62
     7
370
    30
100
AcDbSpline
210
0.0
220
0.0
230
1.0
 70
    24
 71
     3
 72
     8
 73
     4
 74
     0
 42
0.000000001
 43
0.00000001
 40
0.0
 40
0.0
 40
0.0
 40
0.0
 40
1.0
 40
1.0
 40
1.0
 40
1.0
 10
305.0543845188312
 20
108.6878429905535
 30
0.0
 10
305.0543845188312
 20
108.2435436583196
 30
0.0
 10
305.0543845188312
 20
107.7985646736994
 30
0.0
 10
305.0543845188312
 20
107.3477027222234
 30
0.0
  0
SPLINE
  5
9B
330
1F
100
AcDbEntity
  8
0
  6
Continuous
 62
     7
370
    30
100
AcDbSpline
210
0.0
220
0.0
230
1.0
 70
    24
 71
     3
 72
     8
 73
     4
 74
     0
 42
0.000000001
 43
0.00000001
 40
0.0
 40
0.0
 40
0.0
 40
0.0
 40
1.0
 40
1.0
 40
1.0
 40
1.0
 10
251.1049418604654
 20
195.2783050771714
 30
0.0
 10
251.1049418604654
 20
195.101907028781
 30
0.0
 10
251.1049418604654
 20
194.9235618186292
 30
0.0
 10
251.1049418604654
 20
194.7390814879883
 30
0.0
  0
ARC
  5
9C
330
1F
100
AcDbEntity
  8
0
  6
Continuous
 62
     7
370
    30
100
AcDbCircle
 10
250.5049418605
 20
193.5018971848
 30
0.0
 40
1.874999999999975
100
AcDbArc
 50
346.0959151108
 51
71.3370751151
  0
SPLINE
  5
9D
330
1F
100
AcDbEntity
  8
0
  6
Continuous
 62
     7
370
    30
100
AcDbSpline
210
0.0
220
0.0
230
1.0
 70
    24
 71
     3
 72
     8
 73
     4
 74
     0
 42
0.000000001
 43
0.00000001
 40
0.0
 40
0.0
 40
0.0
 40
0.0
 40
1.0
 40
1.0
 40
1.0
 40
1.0
 10
251.8040273395235
 20
193.0513398431882
 30
0.0
 10
251.9800933617662
 20
193.0513398431882
 30
0.0
 10
252.1530707514363
 20
193.0513398431882
 30
0.0
 10
252.3250031456697
 20
193.0513398431882
 30
0.0
  0
ARC
  5
9E
330
1F
100
AcDbEntity
  8
0
  6
Continuous
 62
     7
370
    30
100
AcDbCircle
 10
250.5049418605
 20
193.5018971848
 30
0.0
 40
1.375000000000022
100
AcDbArc
 50
340.8720959629
 51
64.1279040371
  0
SPLINE
  5
9F
330
1F
100
AcDbEntity
  8
0
  6
Continuous
 62
     7
370
    30
100
AcDbSpline
210
0.0
220
0.0
230
1.0
 70
    24
 71
     3
 72
     8
 73
     4
 74
     0
 42
0.000000001
 43
0.00000001
 40
0.0
 40
0.0
 40
0.0
 40
0.0
 40
1.0
 40
1.0
 40
1.0
 40
1.0
 10
306.1049418604654
 20
195.3046728225544
 30
0.0
 10
306.1049418604654
 20
195.7651216563284
 30
0.0
 10
306.1049418604654
 20
196.2147254108269
 30
0.0
 10
306.1049418604654
 20
196.6631078065867
 30
0.0
  0
SPLINE
  5
A0
330
1F
100
AcDbEntity
  8
0
  6
Continuous
 62
     7
370
    30
100
AcDbSpline
210
0.0
220
0.0
230
1.0
 70
    24
 71
     3
 72
     8
 73
     4
 74
     0
 42
0.000000001
 43
0.00000001
 40
0.0
 40
0.0
 40
0.0
 40
0.0
 40
1.0
 40
1.0
 40
1.0
 40
1.0
 10
305.0543845188312
 20
191.6560916474216
 30
0.0
 10
305.0543845188312
 20
191.2052195130493
 30
0.0
 10
305.0543845188312
 20
190.7602444980697
 30
0.0
 10
305.0543845188312
 20
190.3159513790914
 30
0.0
  0
LINE
  5
A1
330
1F
100
AcDbEntity
  8
0
  6
Continuous
 62
     7
370
    30
100
AcDbLine
 10
251.1049409902
 20
195.3046729552
 30
0.0
 11
251.1049409902
 21
195.2783053505
 31
0.0
  0
ARC
  5
A2
330
1F
100
AcDbEntity
  8
0
  6
Continuous
 62
     7
370
    30
100
AcDbCircle
 10
250.5049418605
 20
193.5018971848
 30
0.0
 40
1.899999999999974
100
AcDbArc
 50
346.282466668
 51
71.5915198294
  0
LINE
  5
A3
330
1F
100
AcDbEntity
  8
0
  6
Continuous
 62
     7
370
    30
100
AcDbLine
 10
252.3250033653
 20
193.051337986
 30
0.0
 11
252.3507469839
 21
193.051337986
 31
0.0
  0
CIRCLE
  5
A4
330
1F
100
AcDbEntity
  8
0
  6
Continuous
 62
     7
370
    30
100
AcDbCircle
 10
278.0049418605
 20
200.0018971848
 30
0.0
 40
0.8500000000000227
  0
CIRCLE
  5
A5
330
1F
100
AcDbEntity
  8
0
  6
Continuous
 62
     7
370
    30
100
AcDbCircle
 10
278.0049418605
 20
200.0018971848
 30
0.0
 40
1.350000000000023
  0
ARC
  5
A6
330
1F
100
AcDbEntity
  8
0
  6
Continuous
 62
     7
370
    30
100
AcDbCircle
 10
250.5049418605
 20
105.5018971848
 30
0.0
 40
1.90000000000001
100
AcDbArc
 50
76.282466668
 51
251.5915198294
  0
LINE
  5
A7
330
1F
100
AcDbEntity
  8
0
  6
Continuous
 62
     7
370
    30
100
AcDbLine
 10
250.9554991073
 20
107.3219587791
 30
0.0
 11
250.9554991073
 21
107.3477042603
 31
0.0
  0
ARC
  5
A8
330
1F
100
AcDbEntity
  8
0
  6
Continuous
 62
     7
370
    30
100
AcDbCircle
 10
250.5049418605
 20
105.5018971848
 30
0.0
 40
1.874999999999973
100
AcDbArc
 50
76.0959151108
 51
251.3370751151
  0
LINE
  5
A9
330
1F
100
AcDbEntity
  8
0
  6
Continuous
 62
     7
370
    30
100
AcDbLine
 10
249.9049411661
 20
103.7254890191
 30
0.0
 11
249.9049411661
 21
103.6991214144
 31
0.0
  0
SPLINE
  5
AA
330
1F
100
AcDbEntity
  8
0
  6
Continuous
 62
     7
370
    30
100
AcDbSpline
210
0.0
220
0.0
230
1.0
 70
    24
 71
     3
 72
     8
 73
     4
 74
     0
 42
0.000000001
 43
0.00000001
 40
0.0
 40
0.0
 40
0.0
 40
0.0
 40
1.0
 40
1.0
 40
1.0
 40
1.0
 10
250.9554992020996
 20
107.3477027222233
 30
0.0
 10
250.9554992020996
 20
107.7985748565956
 30
0.0
 10
250.9554992020996
 20
108.2435498715752
 30
0.0
 10
250.9554992020996
 20
108.6878429905535
 30
0.0
  0
SPLINE
  5
AB
330
1F
100
AcDbEntity
  8
0
  6
Continuous
 62
     7
370
    30
100
AcDbSpline
210
0.0
220
0.0
230
1.0
 70
    24
 71
     3
 72
     8
 73
     4
 74
     0
 42
0.000000001
 43
0.00000001
 40
0.0
 40
0.0
 40
0.0
 40
0.0
 40
1.0
 40
1.0
 40
1.0
 40
1.0
 10
249.9049418604654
 20
103.6991215470904
 30
0.0
 10
249.9049418604654
 20
103.2386727133164
 30
0.0
 10
249.9049418604654
 20
102.7890689588177
 30
0.0
 10
249.9049418604654
 20
102.3406865630578
 30
0.0
  0
SPLINE
  5
AC
330
1F
100
AcDbEntity
  8
0
  6
Continuous
 62
     7
370
    30
100
AcDbSpline
210
0.0
220
0.0
230
1.0
 70
    24
 71
     3
 72
     8
 73
     4
 74
     0
 42
0.000000001
 43
0.00000001
 40
0.0
 40
0.0
 40
0.0
 40
0.0
 40
1.0
 40
1.0
 40
1.0
 40
1.0
 10
250.9554992020996
 20
106.8009826638805
 30
0.0
 10
250.9554992020996
 20
106.977048858152
 30
0.0
 10
250.9554992020996
 20
107.1500260493663
 30
0.0
 10
250.9554992020996
 20
107.3219584700267
 30
0.0
  0
ARC
  5
AD
330
1F
100
AcDbEntity
  8
0
  6
Continuous
 62
     7
370
    30
100
AcDbCircle
 10
250.5049418605
 20
105.5018971848
 30
0.0
 40
1.375000000000019
100
AcDbArc
 50
70.8720959629
 51
244.1279040371
  0
SPLINE
  5
AE
330
1F
100
AcDbEntity
  8
0
  6
Continuous
 62
     7
370
    30
100
AcDbSpline
210
0.0
220
0.0
230
1.0
 70
    24
 71
     3
 72
     8
 73
     4
 74
     0
 42
0.000000001
 43
0.00000001
 40
0.0
 40
0.0
 40
0.0
 40
0.0
 40
1.0
 40
1.0
 40
1.0
 40
1.0
 10
249.9049418604654
 20
104.2647128816566
 30
0.0
 10
249.9049418604654
 20
104.0802193056226
 30
0.0
 10
249.9049418604654
 20
103.9018859696881
 30
0.0
 10
249.9049418604654
 20
103.7254892924734
 30
0.0
  0
ARC
  5
AF
330
1F
100
AcDbEntity
  8
0
  6
Continuous
 62
     7
370
    30
100
AcDbCircle
 10
305.5049418605
 20
193.5018971848
 30
0.0
 40
1.37500000000006
100
AcDbArc
 50
115.8720959629
 51
199.1279040371
  0
SPLINE
  5
B0
330
1F
100
AcDbEntity
  8
0
  6
Continuous
 62
     7
370
    30
100
AcDbSpline
210
0.0
220
0.0
230
1.0
 70
    24
 71
     3
 72
     8
 73
     4
 74
     0
 42
0.000000001
 43
0.00000001
 40
0.0
 40
0.0
 40
0.0
 40
0.0
 40
1.0
 40
1.0
 40
1.0
 40
1.0
 10
303.684880575261
 20
193.0513398431882
 30
0.0
 10
303.8568132495584
 20
193.0513398431882
 30
0.0
 10
304.0297945101387
 20
193.0513398431882
 30
0.0
 10
304.2058563814073
 20
193.0513398431882
 30
0.0
  0
ARC
  5
B1
330
1F
100
AcDbEntity
  8
0
  6
Continuous
 62
     7
370
    30
100
AcDbCircle
 10
305.5049418605
 20
193.5018971848
 30
0.0
 40
1.875000000000083
100
AcDbArc
 50
108.6629248849
 51
193.9040848892
  0
SPLINE
  5
B2
330
1F
100
AcDbEntity
  8
0
  6
Continuous
 62
     7
370
    30
100
AcDbSpline
210
0.0
220
0.0
230
1.0
 70
    24
 71
     3
 72
     8
 73
     4
 74
     0
 42
0.000000001
 43
0.00000001
 40
0.0
 40
0.0
 40
0.0
 40
0.0
 40
1.0
 40
1.0
 40
1.0
 40
1.0
 10
304.9049418604653
 20
195.2783050771715
 30
0.0
 10
304.9049418604653
 20
195.101907028781
 30
0.0
 10
304.9049418604653
 20
194.9235618186292
 30
0.0
 10
304.9049418604653
 20
194.7390814879883
 30
0.0
  0
SPLINE
  5
B3
330
1F
100
AcDbEntity
  8
0
  6
Continuous
 62
     7
370
    30
100
AcDbSpline
210
0.0
220
0.0
230
1.0
 70
    24
 71
     3
 72
     8
 73
     4
 74
     0
 42
0.000000001
 43
0.00000001
 40
0.0
 40
0.0
 40
0.0
 40
0.0
 40
1.0
 40
1.0
 40
1.0
 40
1.0
 10
249.9049418604654
 20
195.3046728225544
 30
0.0
 10
249.9049418604654
 20
195.7651216563284
 30
0.0
 10
249.9049418604654
 20
196.2147254108269
 30
0.0
 10
249.9049418604654
 20
196.6631078065867
 30
0.0
  0
SPLINE
  5
B4
330
1F
100
AcDbEntity
  8
0
  6
Continuous
 62
     7
370
    30
100
AcDbSpline
210
0.0
220
0.0
230
1.0
 70
    24
 71
     3
 72
     8
 73
     4
 74
     0
 42
0.000000001
 43
0.00000001
 40
0.0
 40
0.0
 40
0.0
 40
0.0
 40
1.0
 40
1.0
 40
1.0
 40
1.0
 10
250.9554992020996
 20
190.3159513790914
 30
0.0
 10
250.9554992020996
 20
190.7602507113253
 30
0.0
 10
250.9554992020996
 20
191.2052296959454
 30
0.0
 10
250.9554992020996
 20
191.6560916474214
 30
0.0
  0
SPLINE
  5
B5
330
1F
100
AcDbEntity
  8
0
  6
Continuous
 62
     7
370
    30
100
AcDbSpline
210
0.0
220
0.0
230
1.0
 70
    24
 71
     3
 72
     8
 73
     4
 74
     0
 42
0.000000001
 43
0.00000001
 40
0.0
 40
0.0
 40
0.0
 40
0.0
 40
1.0
 40
1.0
 40
1.0
 40
1.0
 10
251.1049418604654
 20
196.6631078065867
 30
0.0
 10
251.1049418604654
 20
196.2147368679568
 30
0.0
 10
251.1049418604654
 20
195.7652088819337
 30
0.0
 10
251.1049418604654
 20
195.3046728225544
 30
0.0
  0
SPLINE
  5
B6
330
1F
100
AcDbEntity
  8
0
  6
Continuous
 62
     7
370
    30
100
AcDbSpline
210
0.0
220
0.0
230
1.0
 70
    24
 71
     3
 72
     8
 73
     4
 74
     0
 42
0.000000001
 43
0.00000001
 40
0.0
 40
0.0
 40
0.0
 40
0.0
 40
1.0
 40
1.0
 40
1.0
 40
1.0
 10
252.3507473978662
 20
193.0513398431882
 30
0.0
 10
252.8016162004768
 20
193.0513398431882
 30
0.0
 10
253.2465947032602
 20
193.0513398431882
 30
0.0
 10
253.6908876661964
 20
193.0513398431882
 30
0.0
  0
LINE
  5
B7
330
1F
100
AcDbEntity
  8
0
  6
Continuous
 62
     7
370
    30
100
AcDbLine
 10
251.1049409902
 20
103.6991214144
 30
0.0
 11
251.1049409902
 21
103.7254890191
 31
0.0
  0
LINE
  5
B8
330
1F
100
AcDbEntity
  8
0
  6
Continuous
 62
     7
370
    30
100
AcDbLine
 10
252.3507469839
 20
105.9524563837
 30
0.0
 11
252.3250033653
 21
105.9524563837
 31
0.0
  0
ARC
  5
B9
330
1F
100
AcDbEntity
  8
0
  6
Continuous
 62
     7
370
    30
100
AcDbCircle
 10
250.5049418605
 20
105.5018971848
 30
0.0
 40
1.900000000000001
100
AcDbArc
 50
288.4084801706
 51
13.717533332
  0
SPLINE
  5
BA
330
1F
100
AcDbEntity
  8
0
  6
Continuous
 62
     7
370
    30
100
AcDbSpline
210
0.0
220
0.0
230
1.0
 70
    24
 71
     3
 72
     8
 73
     4
 74
     0
 42
0.000000001
 43
0.00000001
 40
0.0
 40
0.0
 40
0.0
 40
0.0
 40
1.0
 40
1.0
 40
1.0
 40
1.0
 10
251.1049418604654
 20
102.3406865630581
 30
0.0
 10
251.1049418604654
 20
102.789057501688
 30
0.0
 10
251.1049418604654
 20
103.2385854877111
 30
0.0
 10
251.1049418604654
 20
103.6991215470904
 30
0.0
  0
SPLINE
  5
BB
330
1F
100
AcDbEntity
  8
0
  6
Continuous
 62
     7
370
    30
100
AcDbSpline
210
0.0
220
0.0
230
1.0
 70
    24
 71
     3
 72
     8
 73
     4
 74
     0
 42
0.000000001
 43
0.00000001
 40
0.0
 40
0.0
 40
0.0
 40
0.0
 40
1.0
 40
1.0
 40
1.0
 40
1.0
 10
252.3507473978662
 20
105.9524545264566
 30
0.0
 10
252.8016162004768
 20
105.9524545264566
 30
0.0
 10
253.2465947032602
 20
105.9524545264566
 30
0.0
 10
253.6908876661964
 20
105.9524545264566
 30
0.0
  0
LINE
  5
BC
330
1F
100
AcDbEntity
  8
0
  6
Continuous
 62
     7
370
    30
100
AcDbLine
 10
303.6848803556
 20
105.9524563837
 30
0.0
 11
303.659136737
 21
105.9524563837
 31
0.0
  0
ARC
  5
BD
330
1F
100
AcDbEntity
  8
0
  6
Continuous
 62
     7
370
    30
100
AcDbCircle
 10
305.5049418605
 20
105.5018971848
 30
0.0
 40
1.875000000000062
100
AcDbArc
 50
166.0959151108
 51
251.3370751151
  0
LINE
  5
BE
330
1F
100
AcDbEntity
  8
0
  6
Continuous
 62
     7
370
    30
100
AcDbLine
 10
304.9049427307
 20
103.6991214144
 30
0.0
 11
304.9049427307
 21
103.7254890191
 31
0.0
  0
CIRCLE
  5
BF
330
1F
100
AcDbEntity
  8
0
  6
Continuous
 62
     7
370
    30
100
AcDbCircle
 10
278.0049418605
 20
99.0018971848
 30
0.0
 40
1.350000000000023
  0
CIRCLE
  5
C0
330
1F
100
AcDbEntity
  8
0
  6
Continuous
 62
     7
370
    30
100
AcDbCircle
 10
278.0049418605
 20
99.0018971848
 30
0.0
 40
0.8500000000000227
  0
SPLINE
  5
C1
330
1F
100
AcDbEntity
  8
0
  6
Continuous
 62
     7
370
    30
100
AcDbSpline
210
0.0
220
0.0
230
1.0
 70
    24
 71
     3
 72
     8
 73
     4
 74
     0
 42
0.000000001
 43
0.00000001
 40
0.0
 40
0.0
 40
0.0
 40
0.0
 40
1.0
 40
1.0
 40
1.0
 40
1.0
 10
304.2058563814073
 20
105.9524545264566
 30
0.0
 10
304.0297903591646
 20
105.9524545264566
 30
0.0
 10
303.8568129694945
 20
105.9524545264566
 30
0.0
 10
303.684880575261
 20
105.9524545264566
 30
0.0
  0
ARC
  5
C2
330
1F
100
AcDbEntity
  8
0
  6
Continuous
 62
     7
370
    30
100
AcDbCircle
 10
305.5049418605
 20
105.5018971848
 30
0.0
 40
1.375000000000069
100
AcDbArc
 50
160.8720959629
 51
244.1279040371
  0
SPLINE
  5
C3
330
1F
100
AcDbEntity
  8
0
  6
Continuous
 62
     7
370
    30
100
AcDbSpline
210
0.0
220
0.0
230
1.0
 70
    24
 71
     3
 72
     8
 73
     4
 74
     0
 42
0.000000001
 43
0.00000001
 40
0.0
 40
0.0
 40
0.0
 40
0.0
 40
1.0
 40
1.0
 40
1.0
 40
1.0
 10
304.9049418604653
 20
103.7254892924734
 30
0.0
 10
304.9049418604653
 20
103.9018948933925
 30
0.0
 10
304.9049418604653
 20
104.0802549771978
 30
0.0
 10
304.9049418604653
 20
104.2647128816565
 30
0.0
  0
ARC
  5
C4
330
1F
100
AcDbEntity
  8
0
  6
Continuous
 62
     7
370
    30
100
AcDbCircle
 10
305.5049418605
 20
193.5018971848
 30
0.0
 40
1.900000000000028
100
AcDbArc
 50
108.4084801706
 51
193.717533332
  0
LINE
  5
C5
330
1F
100
AcDbEntity
  8
0
  6
Continuous
 62
     7
370
    30
100
AcDbLine
 10
303.659136737
 20
193.051337986
 30
0.0
 11
303.6848803556
 21
193.051337986
 31
0.0
  0
LINE
  5
C6
330
1F
100
AcDbEntity
  8
0
  6
Continuous
 62
     7
370
    30
100
AcDbLine
 10
304.9049427307
 20
195.3046729552
 30
0.0
 11
304.9049427307
 21
195.2783053505
 31
0.0
  0
SPLINE
  5
C7
330
1F
100
AcDbEntity
  8
0
  6
Continuous
 62
     7
370
    30
100
AcDbSpline
210
0.0
220
0.0
230
1.0
 70
    24
 71
     3
 72
     8
 73
     4
 74
     0
 42
0.000000001
 43
0.00000001
 40
0.0
 40
0.0
 40
0.0
 40
0.0
 40
1.0
 40
1.0
 40
1.0
 40
1.0
 10
302.3189960547343
 20
193.0513398431882
 30
0.0
 10
302.7632951227455
 20
193.0513398431882
 30
0.0
 10
303.2082777751939
 20
193.0513398431882
 30
0.0
 10
303.6591363230646
 20
193.0513398431882
 30
0.0
  0
SPLINE
  5
C8
330
1F
100
AcDbEntity
  8
0
  6
Continuous
 62
     7
370
    30
100
AcDbSpline
210
0.0
220
0.0
230
1.0
 70
    24
 71
     3
 72
     8
 73
     4
 74
     0
 42
0.000000001
 43
0.00000001
 40
0.0
 40
0.0
 40
0.0
 40
0.0
 40
1.0
 40
1.0
 40
1.0
 40
1.0
 10
304.9049418604653
 20
196.6631078065867
 30
0.0
 10
304.9049418604653
 20
196.2147368679568
 30
0.0
 10
304.9049418604653
 20
195.7652088819337
 30
0.0
 10
304.9049418604653
 20
195.3046728225544
 30
0.0
  0
LINE
  5
C9
330
1F
100
AcDbEntity
  8
0
  6
Continuous
 62
     7
370
    30
100
AcDbLine
 10
247.0049423671
 20
105.5018974232
 30
0.0
 11
247.0049423671
 21
103.3664827931
 31
0.0
  0
LINE
  5
CA
330
1F
100
AcDbEntity
  8
0
  6
Continuous
 62
     7
370
    30
100
AcDbLine
 10
247.0049423671
 20
107.6373120534
 30
0.0
 11
247.0049423671
 21
105.5018974232
 31
0.0
  0
LINE
  5
CB
330
1F
100
AcDbEntity
  8
0
  6
Continuous
 62
     7
370
    30
100
AcDbLine
 10
309.0049413538
 20
105.5018974232
 30
0.0
 11
309.0049413538
 21
107.6373120534
 31
0.0
  0
LINE
  5
CC
330
1F
100
AcDbEntity
  8
0
  6
Continuous
 62
     7
370
    30
100
AcDbLine
 10
309.0049413538
 20
103.3664827931
 30
0.0
 11
309.0049413538
 21
105.5018974232
 31
0.0
  0
LINE
  5
CD
330
1F
100
AcDbEntity
  8
0
  6
Continuous
 62
     7
370
    30
100
AcDbLine
 10
309.0049413538
 20
193.5018969464
 30
0.0
 11
309.0049413538
 21
195.6373115766
 31
0.0
  0
LINE
  5
CE
330
1F
100
AcDbEntity
  8
0
  6
Continuous
 62
     7
370
    30
100
AcDbLine
 10
247.0049423671
 20
193.5018969464
 30
0.0
 11
247.0049423671
 21
191.3664823162
 31
0.0
  0
LINE
  5
CF
330
1F
100
AcDbEntity
  8
0
  6
Continuous
 62
     7
370
    30
100
AcDbLine
 10
309.0049413538
 20
191.3664823162
 30
0.0
 11
309.0049413538
 21
193.5018969464
 31
0.0
  0
LINE
  5
D0
330
1F
100
AcDbEntity
  8
0
  6
Continuous
 62
     7
370
    30
100
AcDbLine
 10
247.0049423671
 20
195.6373115766
 30
0.0
 11
247.0049423671
 21
193.5018969464
 31
0.0
  0
SPLINE
  5
D1
330
1F
100
AcDbEntity
  8
0
  6
Continuous
 62
     7
370
    30
100
AcDbSpline
210
0.0
220
0.0
230
1.0
 70
    24
 71
     3
 72
    10
 73
     6
 74
     0
 42
0.000000001
 43
0.00000001
 40
0.0
 40
0.0
 40
0.0
 40
0.0
 40
0.5
 40
0.5
 40
1.0
 40
1.0
 40
1.0
 40
1.0
 10
249.9049418604654
 20
101.4460372266878
 30
0.0
 10
249.9049418604654
 20
101.6274380840703
 30
0.0
 10
249.9049418604654
 20
101.8104173782124
 30
0.0
 10
249.9049418604654
 20
102.1224018771572
 30
0.0
 10
249.9049418604654
 20
102.2543183325447
 30
0.0
 10
249.9049418604654
 20
102.3406865630575
 30
0.0
  0
SPLINE
  5
D2
330
1F
100
AcDbEntity
  8
0
  6
Continuous
 62
     7
370
    30
100
AcDbSpline
210
0.0
220
0.0
230
1.0
 70
    24
 71
     3
 72
    10
 73
     6
 74
     0
 42
0.000000001
 43
0.00000001
 40
0.0
 40
0.0
 40
0.0
 40
0.0
 40
0.5
 40
0.5
 40
1.0
 40
1.0
 40
1.0
 40
1.0
 10
306.1049418604654
 20
101.4460372266878
 30
0.0
 10
306.1049418604654
 20
101.6274380840703
 30
0.0
 10
306.1049418604654
 20
101.8104173782124
 30
0.0
 10
306.1049418604654
 20
102.1224018771572
 30
0.0
 10
306.1049418604654
 20
102.2543183325447
 30
0.0
 10
306.1049418604654
 20
102.3406865630575
 30
0.0
  0
SPLINE
  5
D3
330
1F
100
AcDbEntity
  8
0
  6
Continuous
 62
     7
370
    30
100
AcDbSpline
210
0.0
220
0.0
230
1.0
 70
    24
 71
     3
 72
    12
 73
     8
 74
     0
 42
0.000000001
 43
0.00000001
 40
0.0
 40
0.0
 40
0.0
 40
0.0
 40
0.5000000000000083
 40
0.5000000000000083
 40
0.7500000000000041
 40
0.7500000000000041
 40
1.0
 40
1.0
 40
1.0
 40
1.0
 10
251.1049418604654
 20
102.3406865630581
 30
0.0
 10
251.1049418604654
 20
102.2533963243988
 30
0.0
 10
251.1049418604654
 20
102.1232690640108
 30
0.0
 10
251.1049418604654
 20
101.8865296439945
 30
0.0
 10
251.1049418604654
 20
101.8029541617201
 30
0.0
 10
251.1049418604654
 20
101.6279161826326
 30
0.0
 10
251.1049418604654
 20
101.5364141725799
 30
0.0
 10
251.1049418604654
 20
101.4460372266878
 30
0.0
  0
SPLINE
  5
D4
330
1F
100
AcDbEntity
  8
0
  6
Continuous
 62
     7
370
    30
100
AcDbSpline
210
0.0
220
0.0
230
1.0
 70
    24
 71
     3
 72
    10
 73
     6
 74
     0
 42
0.000000001
 43
0.00000001
 40
0.0
 40
0.0
 40
0.0
 40
0.0
 40
0.5
 40
0.5
 40
1.0
 40
1.0
 40
1.0
 40
1.0
 10
253.6908876661964
 20
105.9524545264566
 30
0.0
 10
253.7773423746374
 20
105.9524545264566
 30
0.0
 10
253.9076142177847
 20
105.9524545264566
 30
0.0
 10
254.2173535265973
 20
105.9524545264566
 30
0.0
 10
254.3984315233308
 20
105.9524545264566
 30
0.0
 10
254.5801103332895
 20
105.9524545264566
 30
0.0
  0
SPLINE
  5
D5
330
1F
100
AcDbEntity
  8
0
  6
Continuous
 62
     7
370
    30
100
AcDbSpline
210
0.0
220
0.0
230
1.0
 70
    24
 71
     3
 72
    10
 73
     6
 74
     0
 42
0.000000001
 43
0.00000001
 40
0.0
 40
0.0
 40
0.0
 40
0.0
 40
0.5
 40
0.5
 40
1.0
 40
1.0
 40
1.0
 40
1.0
 10
301.4297733876413
 20
105.9524545264566
 30
0.0
 10
301.6112650304666
 20
105.9524545264566
 30
0.0
 10
301.7919171256072
 20
105.9524545264566
 30
0.0
 10
302.1042776577074
 20
105.9524545264566
 30
0.0
 10
302.2334032187069
 20
105.9524545264566
 30
0.0
 10
302.3189960547343
 20
105.9524545264566
 30
0.0
  0
SPLINE
  5
D6
330
1F
100
AcDbEntity
  8
0
  6
Continuous
 62
     7
370
    30
100
AcDbSpline
210
0.0
220
0.0
230
1.0
 70
    24
 71
     3
 72
    12
 73
     8
 74
     0
 42
0.000000001
 43
0.00000001
 40
0.0
 40
0.0
 40
0.0
 40
0.0
 40
0.5000000000000083
 40
0.5000000000000083
 40
0.7500000000000041
 40
0.7500000000000041
 40
1.0
 40
1.0
 40
1.0
 40
1.0
 10
304.9049418604653
 20
102.3406865630581
 30
0.0
 10
304.9049418604654
 20
102.2533963243988
 30
0.0
 10
304.9049418604653
 20
102.1232690640108
 30
0.0
 10
304.9049418604653
 20
101.8865296439945
 30
0.0
 10
304.9049418604653
 20
101.8029541617201
 30
0.0
 10
304.9049418604654
 20
101.6279161826326
 30
0.0
 10
304.9049418604653
 20
101.5364141725799
 30
0.0
 10
304.9049418604653
 20
101.4460372266878
 30
0.0
  0
SPLINE
  5
D7
330
1F
100
AcDbEntity
  8
0
  6
Continuous
 62
     7
370
    30
100
AcDbSpline
210
0.0
220
0.0
230
1.0
 70
    24
 71
     3
 72
    10
 73
     6
 74
     0
 42
0.000000001
 43
0.00000001
 40
0.0
 40
0.0
 40
0.0
 40
0.0
 40
0.5
 40
0.5
 40
1.0
 40
1.0
 40
1.0
 40
1.0
 10
302.3189960547343
 20
193.0513398431882
 30
0.0
 10
302.2328218790222
 20
193.0513398431882
 30
0.0
 10
302.1034633026229
 20
193.0513398431883
 30
0.0
 10
301.7903774495853
 20
193.0513398431883
 30
0.0
 10
301.60973958269
 20
193.0513398431882
 30
0.0
 10
301.4297733876413
 20
193.0513398431882
 30
0.0
  0
SPLINE
  5
D8
330
1F
100
AcDbEntity
  8
0
  6
Continuous
 62
     7
370
    30
100
AcDbSpline
210
0.0
220
0.0
230
1.0
 70
    24
 71
     3
 72
    12
 73
     8
 74
     0
 42
0.000000001
 43
0.00000001
 40
0.0
 40
0.0
 40
0.0
 40
0.0
 40
0.4999999999999918
 40
0.4999999999999918
 40
0.7499999999999959
 40
0.7499999999999959
 40
1.0
 40
1.0
 40
1.0
 40
1.0
 10
304.9049418604653
 20
196.6631078065867
 30
0.0
 10
304.9049418604653
 20
196.750398045246
 30
0.0
 10
304.9049418604654
 20
196.880525305634
 30
0.0
 10
304.9049418604653
 20
197.1172647256504
 30
0.0
 10
304.9049418604653
 20
197.2008402079247
 30
0.0
 10
304.9049418604653
 20
197.3758781870122
 30
0.0
 10
304.9049418604653
 20
197.467380197065
 30
0.0
 10
304.9049418604653
 20
197.557757142957
 30
0.0
  0
SPLINE
  5
D9
330
1F
100
AcDbEntity
  8
0
  6
Continuous
 62
     7
370
    30
100
AcDbSpline
210
0.0
220
0.0
230
1.0
 70
    24
 71
     3
 72
    10
 73
     6
 74
     0
 42
0.000000001
 43
0.00000001
 40
0.0
 40
0.0
 40
0.0
 40
0.0
 40
0.5
 40
0.5
 40
1.0
 40
1.0
 40
1.0
 40
1.0
 10
254.5801103332894
 20
193.0513398431882
 30
0.0
 10
254.4000934181792
 20
193.0513398431882
 30
0.0
 10
254.2188378931544
 20
193.0513398431883
 30
0.0
 10
253.9068908029177
 20
193.0513398431883
 30
0.0
 10
253.7770997238851
 20
193.0513398431882
 30
0.0
 10
253.6908876661964
 20
193.0513398431882
 30
0.0
  0
SPLINE
  5
DA
330
1F
100
AcDbEntity
  8
0
  6
Continuous
 62
     7
370
    30
100
AcDbSpline
210
0.0
220
0.0
230
1.0
 70
    24
 71
     3
 72
    12
 73
     8
 74
     0
 42
0.000000001
 43
0.00000001
 40
0.0
 40
0.0
 40
0.0
 40
0.0
 40
0.499999999999992
 40
0.499999999999992
 40
0.749999999999996
 40
0.749999999999996
 40
1.0
 40
1.0
 40
1.0
 40
1.0
 10
251.1049418604654
 20
196.6631078065867
 30
0.0
 10
251.1049418604654
 20
196.750398045246
 30
0.0
 10
251.1049418604654
 20
196.880525305634
 30
0.0
 10
251.1049418604654
 20
197.1172647256504
 30
0.0
 10
251.1049418604654
 20
197.2008402079247
 30
0.0
 10
251.1049418604654
 20
197.3758781870122
 30
0.0
 10
251.1049418604654
 20
197.467380197065
 30
0.0
 10
251.1049418604654
 20
197.557757142957
 30
0.0
  0
SPLINE
  5
DB
330
1F
100
AcDbEntity
  8
0
  6
Continuous
 62
     7
370
    30
100
AcDbSpline
210
0.0
220
0.0
230
1.0
 70
    24
 71
     3
 72
    10
 73
     6
 74
     0
 42
0.000000001
 43
0.00000001
 40
0.0
 40
0.0
 40
0.0
 40
0.0
 40
0.5
 40
0.5
 40
1.0
 40
1.0
 40
1.0
 40
1.0
 10
306.1049418604654
 20
197.5577571429575
 30
0.0
 10
306.1049418604654
 20
197.3764247495708
 30
0.0
 10
306.1049418604654
 20
197.195562719958
 30
0.0
 10
306.1049418604654
 20
196.8814109397362
 30
0.0
 10
306.1049418604654
 20
196.7499458824774
 30
0.0
 10
306.1049418604654
 20
196.6631078065867
 30
0.0
  0
SPLINE
  5
DC
330
1F
100
AcDbEntity
  8
0
  6
Continuous
 62
     7
370
    30
100
AcDbSpline
210
0.0
220
0.0
230
1.0
 70
    24
 71
     3
 72
    10
 73
     6
 74
     0
 42
0.000000001
 43
0.00000001
 40
0.0
 40
0.0
 40
0.0
 40
0.0
 40
0.5
 40
0.5
 40
1.0
 40
1.0
 40
1.0
 40
1.0
 10
249.9049418604654
 20
197.5577571429574
 30
0.0
 10
249.9049418604654
 20
197.3764247495708
 30
0.0
 10
249.9049418604654
 20
197.195562719958
 30
0.0
 10
249.9049418604654
 20
196.8814109397362
 30
0.0
 10
249.9049418604654
 20
196.7499458824774
 30
0.0
 10
249.9049418604654
 20
196.6631078065867
 30
0.0
  0
SPLINE
  5
DD
330
1F
100
AcDbEntity
  8
0
  6
Continuous
 62
     7
370
    30
100
AcDbSpline
210
0.0
220
0.0
230
1.0
 70
    24
 71
     3
 72
    10
 73
     6
 74
     0
 42
0.000000001
 43
0.00000001
 40
0.0
 40
0.0
 40
0.0
 40
0.0
 40
0.5
 40
0.5
 40
1.0
 40
1.0
 40
1.0
 40
1.0
 10
305.0543845188312
 20
189.4267287119984
 30
0.0
 10
305.0543845188312
 20
189.6067612323462
 30
0.0
 10
305.0543845188312
 20
189.7900825848648
 30
0.0
 10
305.0543845188312
 20
190.0994121899804
 30
0.0
 10
305.0543845188312
 20
190.2299431525481
 30
0.0
 10
305.0543845188312
 20
190.3159513790914
 30
0.0
  0
SPLINE
  5
DE
330
1F
100
AcDbEntity
  8
0
  6
Continuous
 62
     7
370
    30
100
AcDbSpline
210
0.0
220
0.0
230
1.0
 70
    24
 71
     3
 72
    10
 73
     6
 74
     0
 42
0.000000001
 43
0.00000001
 40
0.0
 40
0.0
 40
0.0
 40
0.0
 40
0.5
 40
0.5
 40
1.0
 40
1.0
 40
1.0
 40
1.0
 10
250.9554992020996
 20
109.5770656576465
 30
0.0
 10
250.9554992020996
 20
109.3949941690068
 30
0.0
 10
250.9554992020996
 20
109.2152556028075
 30
0.0
 10
250.9554992020996
 20
108.9051324053567
 30
0.0
 10
250.9554992020996
 20
108.7733178858861
 30
0.0
 10
250.9554992020996
 20
108.6878429905535
 30
0.0
  0
SPLINE
  5
DF
330
1F
100
AcDbEntity
  8
0
  6
Continuous
 62
     7
370
    30
100
AcDbSpline
210
0.0
220
0.0
230
1.0
 70
    24
 71
     3
 72
    12
 73
     8
 74
     0
 42
0.000000001
 43
0.00000001
 40
0.0
 40
0.0
 40
0.0
 40
0.0
 40
0.5000000000000082
 40
0.5000000000000082
 40
0.7500000000000041
 40
0.7500000000000041
 40
1.0
 40
1.0
 40
1.0
 40
1.0
 10
305.0543845188312
 20
108.6878429905535
 30
0.0
 10
305.0543845188312
 20
108.7744297768542
 30
0.0
 10
305.0543845188312
 20
108.9030882449592
 30
0.0
 10
305.0543845188312
 20
109.1385189234538
 30
0.0
 10
305.0543845188312
 20
109.2215708257212
 30
0.0
 10
305.0543845188312
 20
109.3959991124465
 30
0.0
 10
305.0543845188312
 20
109.4870157297796
 30
0.0
 10
305.0543845188312
 20
109.5770656576465
 30
0.0
  0
SPLINE
  5
E0
330
1F
100
AcDbEntity
  8
0
  6
Continuous
 62
     7
370
    30
100
AcDbSpline
210
0.0
220
0.0
230
1.0
 70
    24
 71
     3
 72
    10
 73
     6
 74
     0
 42
0.000000001
 43
0.00000001
 40
0.0
 40
0.0
 40
0.0
 40
0.0
 40
0.5
 40
0.5
 40
1.0
 40
1.0
 40
1.0
 40
1.0
 10
250.9554992020996
 20
190.3159513790914
 30
0.0
 10
250.9554992020996
 20
190.2305634743304
 30
0.0
 10
250.9554992020996
 20
190.1011935212092
 30
0.0
 10
250.9554992020996
 20
189.7881911498668
 30
0.0
 10
250.9554992020996
 20
189.6087471815337
 30
0.0
 10
250.9554992020996
 20
189.4267287119984
 30
0.0
  0
LINE
  5
E1
330
1F
100
AcDbEntity
  8
0
  6
Continuous
 62
     7
370
    30
100
AcDbLine
 10
290.4329079709
 20
99.0595256674
 30
0.0
 11
290.6668059102
 21
99.0595256674
 31
0.0
  0
SPLINE
  5
E2
330
1F
100
AcDbEntity
  8
0
  6
Continuous
 62
     7
370
    30
100
AcDbSpline
210
0.0
220
0.0
230
1.0
 70
     8
 71
     3
 72
    15
 73
    11
 74
     0
 42
0.000000001
 43
0.00000001
 40
0.0
 40
0.0
 40
0.0
 40
0.0
 40
0.1432309407000064
 40
0.2800131080203891
 40
0.4087244417058046
 40
0.5330564114067006
 40
0.6522270081442234
 40
0.7700563341076488
 40
0.8848489631380126
 40
1.0
 40
1.0
 40
1.0
 40
1.0
 10
290.6668062672451
 20
99.05952430346649
 30
0.0
 10
290.6816368816717
 20
99.05976427118685
 30
0.0
 10
290.7106303827909
 20
99.06023340241559
 30
0.0
 10
290.752686664011
 20
99.0653068956783
 30
0.0
 10
290.7923455060305
 20
99.07302363871516
 30
0.0
 10
290.8291642887381
 20
99.08452264791326
 30
0.0
 10
290.8640146815706
 20
99.09827097040433
 30
0.0
 10
290.8958845804245
 20
99.1160613118184
 30
0.0
 10
290.9253419774936
 20
99.13691085081655
 30
0.0
 10
290.9428062720729
 20
99.15310801403909
 30
0.0
 10
290.9515520299569
 20
99.16121921872073
 30
0.0
  0
SPLINE
  5
E3
330
1F
100
AcDbEntity
  8
0
  6
Continuous
 62
     7
370
    30
100
AcDbSpline
210
0.0
220
0.0
230
1.0
 70
     8
 71
     3
 72
    15
 73
    11
 74
     0
 42
0.000000001
 43
0.00000001
 40
0.0
 40
0.0
 40
0.0
 40
0.0
 40
0.1096431455427018
 40
0.2200974721485645
 40
0.3335686617344933
 40
0.4532151463785106
 40
0.5784705051774954
 40
0.7100571934244125
 40
0.8502605179360534
 40
1.0
 40
1.0
 40
1.0
 40
1.0
 10
290.9515520299569
 20
99.16121921872073
 30
0.0
 10
290.9589352559407
 20
99.1691975403103
 30
0.0
 10
290.97375633178
 20
99.18521321010128
 30
0.0
 10
290.9920609702696
 20
99.21282723749636
 30
0.0
 10
291.0082740900838
 20
99.2427984722386
 30
0.0
 10
291.0207296177809
 20
99.27610715523933
 30
0.0
 10
291.031027536959
 20
99.31196468680852
 30
0.0
 10
291.0380986797671
 20
99.350690266005
 30
0.0
 10
291.0421818486944
 20
99.39226663115747
 30
0.0
 10
291.0427724438389
 20
99.42097117486782
 30
0.0
 10
291.0430774536857
 20
99.43579548990716
 30
0.0
  0
SPLINE
  5
E4
330
1F
100
AcDbEntity
  8
0
  6
Continuous
 62
     7
370
    30
100
AcDbSpline
210
0.0
220
0.0
230
1.0
 70
     8
 71
     3
 72
    15
 73
    11
 74
     0
 42
0.000000001
 43
0.00000001
 40
0.0
 40
0.0
 40
0.0
 40
0.0
 40
0.1497394820639465
 40
0.2899428065755872
 40
0.4215294948225273
 40
0.5467848536214894
 40
0.6664313382655067
 40
0.7799025278514354
 40
0.8903568544572982
 40
1.0
 40
1.0
 40
1.0
 40
1.0
 10
291.0430774536857
 20
99.43579548990716
 30
0.0
 10
291.0427724438389
 20
99.45061980494651
 30
0.0
 10
291.0421818486944
 20
99.47932434865683
 30
0.0
 10
291.0380986797671
 20
99.52090071380934
 30
0.0
 10
291.031027536959
 20
99.55962629300579
 30
0.0
 10
291.0207296177809
 20
99.59548382457497
 30
0.0
 10
291.0082740900838
 20
99.62879250757574
 30
0.0
 10
290.9920609702696
 20
99.65876374231797
 30
0.0
 10
290.97375633178
 20
99.68637776971305
 30
0.0
 10
290.9589352559407
 20
99.70239343950402
 30
0.0
 10
290.9515520299569
 20
99.7103717610936
 30
0.0
  0
LINE
  5
E5
330
1F
100
AcDbEntity
  8
0
  6
Continuous
 62
     7
370
    30
100
AcDbLine
 10
290.6668059102
 20
99.8128203439
 30
0.0
 11
290.4329079709
 21
99.8128203439
 31
0.0
  0
LINE
  5
E6
330
1F
100
AcDbEntity
  8
0
  6
Continuous
 62
     7
370
    30
100
AcDbLine
 10
290.4329079709
 20
99.8128203439
 30
0.0
 11
290.4329079709
 21
99.0595256674
 31
0.0
  0
SPLINE
  5
E7
330
1F
100
AcDbEntity
  8
0
  6
Continuous
 62
     7
370
    30
100
AcDbSpline
210
0.0
220
0.0
230
1.0
 70
     8
 71
     3
 72
    15
 73
    11
 74
     0
 42
0.000000001
 43
0.00000001
 40
0.0
 40
0.0
 40
0.0
 40
0.0
 40
0.1407910707776052
 40
0.2744313909479979
 40
0.4026115901840726
 40
0.5265397263080976
 40
0.6469700084917692
 40
0.764595871618351
 40
0.8814609414457987
 40
0.9999999999999999
 40
0.9999999999999999
 40
0.9999999999999999
 40
0.9999999999999999
 10
290.7278232163976
 20
100.0052870153309
 30
0.0
 10
290.7476821351208
 20
100.0048879115673
 30
0.0
 10
290.7863913420174
 20
100.0041099744411
 30
0.0
 10
290.8428105670411
 20
99.99704584569034
 30
0.0
 10
290.8961790342548
 20
99.98630451626458
 30
0.0
 10
290.9465431112498
 20
99.97100678260549
 30
0.0
 10
290.9934047388055
 20
99.9504923055154
 30
0.0
 10
291.0369760157889
 20
99.92577451250806
 30
0.0
 10
291.0779519273972
 20
99.89723652872954
 30
0.0
 10
291.1021026590657
 20
99.87440904194806
 30
0.0
 10
291.1142638943637
 20
99.86291413397497
 30
0.0
  0
SPLINE
  5
E8
330
1F
100
AcDbEntity
  8
0
  6
Continuous
 62
     7
370
    30
100
AcDbSpline
210
0.0
220
0.0
230
1.0
 70
     8
 71
     3
 72
    15
 73
    11
 74
     0
 42
0.000000001
 43
0.00000001
 40
0.0
 40
0.0
 40
0.0
 40
0.0
 40
0.1151078382789201
 40
0.2306466448966534
 40
0.3472082255146336
 40
0.4672032927411368
 40
0.591289584767494
 40
0.7208620644401132
 40
0.8567821645587782
 40
0.9999999999999999
 40
0.9999999999999999
 40
0.9999999999999999
 40
0.9999999999999999
 10
291.1142638943637
 20
99.86291413397497
 30
0.0
 10
291.1265524164918
 20
99.84990402356102
 30
0.0
 10
291.1511754694649
 20
99.8238350923607
 30
0.0
 10
291.1816903677449
 20
99.77918631881805
 30
0.0
 10
291.2085336655518
 20
99.73148377210156
 30
0.0
 10
291.229900202533
 20
99.67957838348174
 30
0.0
 10
291.2463814594064
 20
99.62387535009177
 30
0.0
 10
291.2584170844414
 20
99.56453291805742
 30
0.0
 10
291.26567348257
 20
99.50138778535322
 30
0.0
 10
291.2664221480254
 20
99.45803737037949
 30
0.0
 10
291.266806267245
 20
99.43579548990716
 30
0.0
  0
LINE
  5
E9
330
1F
100
AcDbEntity
  8
0
  6
Continuous
 62
     7
370
    30
100
AcDbLine
 10
290.7278233713
 20
98.8670585441
 30
0.0
 11
290.4329079709
 21
98.8670585441
 31
0.0
  0
LINE
  5
EA
330
1F
100
AcDbEntity
  8
0
  6
Continuous
 62
     7
370
    30
100
AcDbLine
 10
290.4329079709
 20
98.8670585441
 30
0.0
 11
290.4329079709
 21
98.0229897189
 31
0.0
  0
LINE
  5
EB
330
1F
100
AcDbEntity
  8
0
  6
Continuous
 62
     7
370
    30
100
AcDbLine
 10
290.4329079709
 20
98.0229897189
 30
0.0
 11
290.1922300032
 21
98.0229897189
 31
0.0
  0
LINE
  5
EC
330
1F
100
AcDbEntity
  8
0
  6
Continuous
 62
     7
370
    30
100
AcDbLine
 10
290.1922300032
 20
98.0229897189
 30
0.0
 11
290.1922300032
 21
100.0052874672
 31
0.0
  0
LINE
  5
ED
330
1F
100
AcDbEntity
  8
0
  6
Continuous
 62
     7
370
    30
100
AcDbLine
 10
290.1922300032
 20
100.0052874672
 30
0.0
 11
290.7278233713
 21
100.0052874672
 31
0.0
  0
SPLINE
  5
EE
330
1F
100
AcDbEntity
  8
0
  6
Continuous
 62
     7
370
    30
100
AcDbSpline
210
0.0
220
0.0
230
1.0
 70
     8
 71
     3
 72
    15
 73
    11
 74
     0
 42
0.000000001
 43
0.00000001
 40
0.0
 40
0.0
 40
0.0
 40
0.0
 40
0.1180573185739143
 40
0.2350330700627238
 40
0.3527703353898877
 40
0.4729615935322379
 40
0.5970071006723924
 40
0.725308698008225
 40
0.8590755875006846
 40
0.9999999999999999
 40
0.9999999999999999
 40
0.9999999999999999
 40
0.9999999999999999
 10
291.1142638943637
 20
99.00867684583936
 30
0.0
 10
291.1020850529126
 20
98.99732602912941
 30
0.0
 10
291.0778389449148
 20
98.97472838477088
 30
0.0
 10
291.036975767288
 20
98.9462089515803
 30
0.0
 10
290.993494002481
 20
98.9213893302509
 30
0.0
 10
290.9464452005168
 20
98.90144044181571
 30
0.0
 10
290.8961931657556
 20
98.88600671565838
 30
0.0
 10
290.8428065698807
 20
98.87530777631633
 30
0.0
 10
290.7863924222139
 20
98.86823177522832
 30
0.0
 10
290.7476825013871
 20
98.86745550747838
 30
0.0
 10
290.7278232163976
 20
98.867057260152
 30
0.0
  0
SPLINE
  5
EF
330
1F
100
AcDbEntity
  8
0
  6
Continuous
 62
     7
370
    30
100
AcDbSpline
210
0.0
220
0.0
230
1.0
 70
     8
 71
     3
 72
    15
 73
    11
 74
     0
 42
0.000000001
 43
0.00000001
 40
0.0
 40
0.0
 40
0.0
 40
0.0
 40
0.1158125619493757
 40
0.230459484504183
 40
0.3481392495075681
 40
0.4676201979856855
 40
0.5917943529100023
 40
0.7203423130848152
 40
0.8569508625720009
 40
1.0
 40
1.0
 40
1.0
 40
1.0
 10
290.9515520299569
 20
99.7103717610936
 30
0.0
 10
290.9428237999931
 20
99.71862689309671
 30
0.0
 10
290.9254551886416
 20
99.73505407020022
 30
0.0
 10
290.8958838968506
 20
99.75592183733204
 30
0.0
 10
290.8639280447604
 20
99.77360682014155
 30
0.0
 10
290.8292592714207
 20
99.78792814408175
 30
0.0
 10
290.7923315995293
 20
99.79928653687962
 30
0.0
 10
290.7526906845295
 20
99.80704723844732
 30
0.0
 10
290.710629295587
 20
99.81210820715364
 30
0.0
 10
290.6816365137487
 20
99.81257910211836
 30
0.0
 10
290.6668062672451
 20
99.8128199720164
 30
0.0
  0
SPLINE
  5
F0
330
1F
100
AcDbEntity
  8
0
  6
Continuous
 62
     7
370
    30
100
AcDbSpline
210
0.0
220
0.0
230
1.0
 70
     8
 71
     3
 72
    15
 73
    11
 74
     0
 42
0.000000001
 43
0.00000001
 40
0.0
 40
0.0
 40
0.0
 40
0.0
 40
0.1432178354412219
 40
0.279137935559887
 40
0.4087104152325063
 40
0.5327967072588637
 40
0.6527917744853532
 40
0.7693533551033465
 40
0.8848921617210799
 40
1.0
 40
1.0
 40
1.0
 40
1.0
 10
291.266806267245
 20
99.43579548990716
 30
0.0
 10
291.2664221480254
 20
99.41355360943483
 30
0.0
 10
291.26567348257
 20
99.3702031944611
 30
0.0
 10
291.2584170844414
 20
99.3070580617569
 30
0.0
 10
291.2463814594064
 20
99.24771562972253
 30
0.0
 10
291.2299002025331
 20
99.19201259633262
 30
0.0
 10
291.2085336655518
 20
99.14010720771277
 30
0.0
 10
291.181690367745
 20
99.09240466099628
 30
0.0
 10
291.1511754694649
 20
99.04775588745363
 30
0.0
 10
291.1265524164918
 20
99.02168695625329
 30
0.0
 10
291.1142638943637
 20
99.00867684583936
 30
0.0
  0
LINE
  5
F1
330
1F
100
AcDbEntity
  8
0
  6
Continuous
 62
     7
370
    30
100
AcDbLine
 10
291.7346026323
 20
99.0595256674
 30
0.0
 11
291.9685015029
 21
99.0595256674
 31
0.0
  0
SPLINE
  5
F2
330
1F
100
AcDbEntity
  8
0
  6
Continuous
 62
     7
370
    30
100
AcDbSpline
210
0.0
220
0.0
230
1.0
 70
     8
 71
     3
 72
    15
 73
    11
 74
     0
 42
0.000000001
 43
0.00000001
 40
0.0
 40
0.0
 40
0.0
 40
0.0
 40
0.1432309407000071
 40
0.2800131080203905
 40
0.4087244417058066
 40
0.5330564114067031
 40
0.6522270081442213
 40
0.7700563341076473
 40
0.8848489631380162
 40
1.0
 40
1.0
 40
1.0
 40
1.0
 10
291.9685011824993
 20
99.05952430346649
 30
0.0
 10
291.983331796926
 20
99.05976427118685
 30
0.0
 10
292.0123252980451
 20
99.0602334024156
 30
0.0
 10
292.0543815792653
 20
99.06530689567828
 30
0.0
 10
292.0940404212847
 20
99.07302363871518
 30
0.0
 10
292.1308592039923
 20
99.08452264791322
 30
0.0
 10
292.1657095968247
 20
99.09827097040436
 30
0.0
 10
292.1975794956787
 20
99.11606131181837
 30
0.0
 10
292.2270368927479
 20
99.13691085081655
 30
0.0
 10
292.2445011873271
 20
99.15310801403909
 30
0.0
 10
292.2532469452112
 20
99.16121921872072
 30
0.0
  0
SPLINE
  5
F3
330
1F
100
AcDbEntity
  8
0
  6
Continuous
 62
     7
370
    30
100
AcDbSpline
210
0.0
220
0.0
230
1.0
 70
     8
 71
     3
 72
    15
 73
    11
 74
     0
 42
0.000000001
 43
0.00000001
 40
0.0
 40
0.0
 40
0.0
 40
0.0
 40
0.1096431455427053
 40
0.2200974721485676
 40
0.3335686617344961
 40
0.4532151463785109
 40
0.5784705051774968
 40
0.7100571934244135
 40
0.850260517936054
 40
1.0
 40
1.0
 40
1.0
 40
1.0
 10
292.2532469452112
 20
99.16121921872073
 30
0.0
 10
292.260630171195
 20
99.16919754031031
 30
0.0
 10
292.2754512470343
 20
99.1852132101013
 30
0.0
 10
292.2937558855239
 20
99.21282723749633
 30
0.0
 10
292.309969005338
 20
99.24279847223858
 30
0.0
 10
292.3224245330351
 20
99.27610715523933
 30
0.0
 10
292.3327224522132
 20
99.31196468680852
 30
0.0
 10
292.3397935950213
 20
99.35069026600497
 30
0.0
 10
292.3438767639487
 20
99.3922666311575
 30
0.0
 10
292.3444673590931
 20
99.42097117486783
 30
0.0
 10
292.34477236894
 20
99.43579548990716
 30
0.0
  0
SPLINE
  5
F4
330
1F
100
AcDbEntity
  8
0
  6
Continuous
 62
     7
370
    30
100
AcDbSpline
210
0.0
220
0.0
230
1.0
 70
     8
 71
     3
 72
    15
 73
    11
 74
     0
 42
0.000000001
 43
0.00000001
 40
0.0
 40
0.0
 40
0.0
 40
0.0
 40
0.1158125619493721
 40
0.2304594845041845
 40
0.3481392495075702
 40
0.4676201979856831
 40
0.5917943529100004
 40
0.720342313084814
 40
0.8569508625720003
 40
1.0
 40
1.0
 40
1.0
 40
1.0
 10
292.2532469452112
 20
99.7103717610936
 30
0.0
 10
292.2445187152472
 20
99.71862689309673
 30
0.0
 10
292.2271501038959
 20
99.73505407020023
 30
0.0
 10
292.1975788121048
 20
99.75592183733205
 30
0.0
 10
292.1656229600146
 20
99.77360682014155
 30
0.0
 10
292.1309541866749
 20
99.78792814408177
 30
0.0
 10
292.0940265147835
 20
99.7992865368796
 30
0.0
 10
292.0543855997837
 20
99.80704723844732
 30
0.0
 10
292.0123242108412
 20
99.81210820715363
 30
0.0
 10
291.9833314290029
 20
99.81257910211838
 30
0.0
 10
291.9685011824993
 20
99.8128199720164
 30
0.0
  0
LINE
  5
F5
330
1F
100
AcDbEntity
  8
0
  6
Continuous
 62
     7
370
    30
100
AcDbLine
 10
291.9685015029
 20
99.8128203439
 30
0.0
 11
291.7346026323
 21
99.8128203439
 31
0.0
  0
LINE
  5
F6
330
1F
100
AcDbEntity
  8
0
  6
Continuous
 62
     7
370
    30
100
AcDbLine
 10
291.7346026323
 20
99.8128203439
 30
0.0
 11
291.7346026323
 21
99.0595256674
 31
0.0
  0
SPLINE
  5
F7
330
1F
100
AcDbEntity
  8
0
  6
Continuous
 62
     7
370
    30
100
AcDbSpline
210
0.0
220
0.0
230
1.0
 70
     8
 71
     3
 72
    15
 73
    11
 74
     0
 42
0.000000001
 43
0.00000001
 40
0.0
 40
0.0
 40
0.0
 40
0.0
 40
0.1407910707776053
 40
0.274431390947994
 40
0.4026115901840728
 40
0.5265397263080979
 40
0.6469700084917694
 40
0.7645958716183476
 40
0.8814609414457988
 40
1.0
 40
1.0
 40
1.0
 40
1.0
 10
292.0295181316519
 20
100.0052870153309
 30
0.0
 10
292.049377050375
 20
100.0048879115673
 30
0.0
 10
292.0880862572716
 20
100.0041099744411
 30
0.0
 10
292.1445054822953
 20
99.99704584569035
 30
0.0
 10
292.1978739495091
 20
99.98630451626461
 30
0.0
 10
292.248238026504
 20
99.97100678260547
 30
0.0
 10
292.2950996540598
 20
99.95049230551543
 30
0.0
 10
292.3386709310431
 20
99.92577451250806
 30
0.0
 10
292.3796468426515
 20
99.89723652872955
 30
0.0
 10
292.4037975743199
 20
99.87440904194807
 30
0.0
 10
292.4159588096179
 20
99.86291413397497
 30
0.0
  0
SPLINE
  5
F8
330
1F
100
AcDbEntity
  8
0
  6
Continuous
 62
     7
370
    30
100
AcDbSpline
210
0.0
220
0.0
230
1.0
 70
     8
 71
     3
 72
    15
 73
    11
 74
     0
 42
0.000000001
 43
0.00000001
 40
0.0
 40
0.0
 40
0.0
 40
0.0
 40
0.143217835441222
 40
0.2791379355598871
 40
0.4087104152325064
 40
0.5327967072588639
 40
0.6527917744853533
 40
0.7693533551033467
 40
0.8848921617210822
 40
0.9999999999999999
 40
0.9999999999999999
 40
0.9999999999999999
 40
0.9999999999999999
 10
292.5685011824993
 20
99.43579548990716
 30
0.0
 10
292.5681170632796
 20
99.41355360943483
 30
0.0
 10
292.5673683978242
 20
99.37020319446108
 30
0.0
 10
292.5601119996957
 20
99.3070580617569
 30
0.0
 10
292.5480763746606
 20
99.24771562972256
 30
0.0
 10
292.5315951177873
 20
99.19201259633262
 30
0.0
 10
292.510228580806
 20
99.14010720771277
 30
0.0
 10
292.4833852829992
 20
99.09240466099628
 30
0.0
 10
292.4528703847192
 20
99.04775588745363
 30
0.0
 10
292.428247331746
 20
99.02168695625329
 30
0.0
 10
292.4159588096179
 20
99.00867684583936
 30
0.0
  0
SPLINE
  5
F9
330
1F
100
AcDbEntity
  8
0
  6
Continuous
 62
     7
370
    30
100
AcDbSpline
210
0.0
220
0.0
230
1.0
 70
     8
 71
     3
 72
    15
 73
    11
 74
     0
 42
0.000000001
 43
0.00000001
 40
0.0
 40
0.0
 40
0.0
 40
0.0
 40
0.1180573185739143
 40
0.2350330700627272
 40
0.3527703353898876
 40
0.4729615935322378
 40
0.5970071006723923
 40
0.7253086980082291
 40
0.8590755875006847
 40
1.0
 40
1.0
 40
1.0
 40
1.0
 10
292.4159588096179
 20
99.00867684583936
 30
0.0
 10
292.4037799681668
 20
98.99732602912943
 30
0.0
 10
292.3795338601691
 20
98.97472838477091
 30
0.0
 10
292.3386706825423
 20
98.94620895158029
 30
0.0
 10
292.2951889177353
 20
98.92138933025093
 30
0.0
 10
292.248140115771
 20
98.90144044181568
 30
0.0
 10
292.1978880810098
 20
98.88600671565838
 30
0.0
 10
292.144501485135
 20
98.87530777631633
 30
0.0
 10
292.088087337468
 20
98.86823177522831
 30
0.0
 10
292.0493774166413
 20
98.86745550747837
 30
0.0
 10
292.0295181316519
 20
98.867057260152
 30
0.0
  0
LINE
  5
FA
330
1F
100
AcDbEntity
  8
0
  6
Continuous
 62
     7
370
    30
100
AcDbLine
 10
292.0295180327
 20
98.8670585441
 30
0.0
 11
291.7346026323
 21
98.8670585441
 31
0.0
  0
LINE
  5
FB
330
1F
100
AcDbEntity
  8
0
  6
Continuous
 62
     7
370
    30
100
AcDbLine
 10
291.7346026323
 20
98.8670585441
 30
0.0
 11
291.7346026323
 21
98.0229897189
 31
0.0
  0
LINE
  5
FC
330
1F
100
AcDbEntity
  8
0
  6
Continuous
 62
     7
370
    30
100
AcDbLine
 10
291.7346026323
 20
98.0229897189
 30
0.0
 11
291.4939246646
 21
98.0229897189
 31
0.0
  0
LINE
  5
FD
330
1F
100
AcDbEntity
  8
0
  6
Continuous
 62
     7
370
    30
100
AcDbLine
 10
291.4939246646
 20
98.0229897189
 30
0.0
 11
291.4939246646
 21
100.0052874672
 31
0.0
  0
LINE
  5
FE
330
1F
100
AcDbEntity
  8
0
  6
Continuous
 62
     7
370
    30
100
AcDbLine
 10
291.4939246646
 20
100.0052874672
 30
0.0
 11
292.0295180327
 21
100.0052874672
 31
0.0
  0
SPLINE
  5
FF
330
1F
100
AcDbEntity
  8
0
  6
Continuous
 62
     7
370
    30
100
AcDbSpline
210
0.0
220
0.0
230
1.0
 70
     8
 71
     3
 72
    15
 73
    11
 74
     0
 42
0.000000001
 43
0.00000001
 40
0.0
 40
0.0
 40
0.0
 40
0.0
 40
0.1151078382789177
 40
0.2306466448966532
 40
0.3472082255146335
 40
0.4672032927411367
 40
0.5912895847674939
 40
0.7208620644401132
 40
0.8567821645587782
 40
1.0
 40
1.0
 40
1.0
 40
1.0
 10
292.4159588096179
 20
99.86291413397497
 30
0.0
 10
292.428247331746
 20
99.84990402356101
 30
0.0
 10
292.4528703847192
 20
99.8238350923607
 30
0.0
 10
292.4833852829992
 20
99.77918631881803
 30
0.0
 10
292.510228580806
 20
99.73148377210158
 30
0.0
 10
292.5315951177873
 20
99.67957838348171
 30
0.0
 10
292.5480763746606
 20
99.62387535009177
 30
0.0
 10
292.5601119996957
 20
99.56453291805742
 30
0.0
 10
292.5673683978242
 20
99.50138778535323
 30
0.0
 10
292.5681170632796
 20
99.4580373703795
 30
0.0
 10
292.5685011824993
 20
99.43579548990716
 30
0.0
  0
SPLINE
  5
100
330
1F
100
AcDbEntity
  8
0
  6
Continuous
 62
     7
370
    30
100
AcDbSpline
210
0.0
220
0.0
230
1.0
 70
     8
 71
     3
 72
    15
 73
    11
 74
     0
 42
0.000000001
 43
0.00000001
 40
0.0
 40
0.0
 40
0.0
 40
0.0
 40
0.1497394820639461
 40
0.2899428065755863
 40
0.4215294948225259
 40
0.5467848536214892
 40
0.666431338265504
 40
0.7799025278514324
 40
0.8903568544572947
 40
1.0
 40
1.0
 40
1.0
 40
1.0
 10
292.34477236894
 20
99.43579548990716
 30
0.0
 10
292.3444673590931
 20
99.45061980494651
 30
0.0
 10
292.3438767639487
 20
99.47932434865685
 30
0.0
 10
292.3397935950213
 20
99.52090071380933
 30
0.0
 10
292.3327224522132
 20
99.55962629300582
 30
0.0
 10
292.3224245330351
 20
99.59548382457497
 30
0.0
 10
292.309969005338
 20
99.62879250757574
 30
0.0
 10
292.2937558855239
 20
99.658763742318
 30
0.0
 10
292.2754512470343
 20
99.68637776971305
 30
0.0
 10
292.260630171195
 20
99.70239343950404
 30
0.0
 10
292.2532469452112
 20
99.7103717610936
 30
0.0
  0
LINE
  5
101
330
1F
100
AcDbEntity
  8
0
  6
Continuous
 62
     7
370
    30
100
AcDbLine
 10
254.5049426651
 20
179.1018971938
 30
0.0
 11
247.0049423671
 21
179.1018971938
 31
0.0
  0
LINE
  5
102
330
1F
100
AcDbEntity
  8
0
  6
Continuous
 62
     7
370
    30
100
AcDbLine
 10
254.5049426651
 20
119.9018971759
 30
0.0
 11
247.0049423671
 21
119.9018971759
 31
0.0
  0
LINE
  5
103
330
1F
100
AcDbEntity
  8
0
  6
Continuous
 62
     7
370
    30
100
AcDbLine
 10
247.0049423671
 20
179.1018971938
 30
0.0
 11
247.0049423671
 21
119.9018971759
 31
0.0
  0
LINE
  5
104
330
1F
100
AcDbEntity
  8
0
  6
Continuous
 62
     7
370
    30
100
AcDbLine
 10
254.5049426651
 20
179.1018971938
 30
0.0
 11
254.5049426651
 21
119.9018971759
 31
0.0
  0
ARC
  5
105
330
1F
100
AcDbEntity
  8
0
  6
Continuous
 62
     7
370
    30
100
AcDbCircle
 10
288.7549418605
 20
100.0018971848
 30
0.0
 40
1.0
100
AcDbArc
 50
90.0
 51
180.0
  0
LINE
  5
106
330
1F
100
AcDbEntity
  8
0
  6
Continuous
 62
     7
370
    30
100
AcDbLine
 10
287.7549420616
 20
100.001897453
 30
0.0
 11
287.7549420616
 21
98.0018971252
 31
0.0
  0
ARC
  5
107
330
1F
100
AcDbEntity
  8
0
  6
Continuous
 62
     7
370
    30
100
AcDbCircle
 10
288.7549418605
 20
98.0018971848
 30
0.0
 40
1.0
100
AcDbArc
 50
180.0
 51
270.0
  0
LINE
  5
108
330
1F
100
AcDbEntity
  8
0
  6
Continuous
 62
     7
370
    30
100
AcDbLine
 10
288.7549422255
 20
97.001898824
 30
0.0
 11
295.2549414283
 21
97.001898824
 31
0.0
  0
ARC
  5
109
330
1F
100
AcDbEntity
  8
0
  6
Continuous
 62
     7
370
    30
100
AcDbCircle
 10
295.2549418605
 20
98.0018971848
 30
0.0
 40
1.0
100
AcDbArc
 50
270.0
 51
0.0
  0
LINE
  5
10A
330
1F
100
AcDbEntity
  8
0
  6
Continuous
 62
     7
370
    30
100
AcDbLine
 10
296.2549415922
 20
98.0018971252
 30
0.0
 11
296.2549415922
 21
100.001897453
 31
0.0
  0
ARC
  5
10B
330
1F
100
AcDbEntity
  8
0
  6
Continuous
 62
     7
370
    30
100
AcDbCircle
 10
295.2549418605
 20
100.0018971848
 30
0.0
 40
1.0
100
AcDbArc
 50
0.0
 51
90.0
  0
LINE
  5
10C
330
1F
100
AcDbEntity
  8
0
  6
Continuous
 62
     7
370
    30
100
AcDbLine
 10
295.2549414283
 20
101.0018957543
 30
0.0
 11
288.7549422255
 21
101.0018957543
 31
0.0
  0
ARC
  5
10D
330
1F
100
AcDbEntity
  8
0
  6
Continuous
 62
     7
370
    30
100
AcDbCircle
 10
258.0049418605
 20
201.5018971848
 30
0.0
 40
1.0
100
AcDbArc
 50
90.0
 51
180.0
  0
LINE
  5
10E
330
1F
100
AcDbEntity
  8
0
  6
Continuous
 62
     7
370
    30
100
AcDbLine
 10
257.0049421436
 20
201.5018982577
 30
0.0
 11
257.0049421436
 21
198.5018959033
 31
0.0
  0
ARC
  5
10F
330
1F
100
AcDbEntity
  8
0
  6
Continuous
 62
     7
370
    30
100
AcDbCircle
 10
258.0049418605
 20
198.5018971848
 30
0.0
 40
1.0
100
AcDbArc
 50
180.0
 51
270.0
  0
LINE
  5
110
330
1F
100
AcDbEntity
  8
0
  6
Continuous
 62
     7
370
    30
100
AcDbLine
 10
258.0049423075
 20
197.5018976021
 30
0.0
 11
270.0049414805
 21
197.5018976021
 31
0.0
  0
ARC
  5
111
330
1F
100
AcDbEntity
  8
0
  6
Continuous
 62
     7
370
    30
100
AcDbCircle
 10
270.0049418605
 20
198.5018971848
 30
0.0
 40
1.0
100
AcDbArc
 50
270.0
 51
0.0
  0
LINE
  5
112
330
1F
100
AcDbEntity
  8
0
  6
Continuous
 62
     7
370
    30
100
AcDbLine
 10
271.0049416444
 20
198.5018959033
 30
0.0
 11
271.0049416444
 21
201.5018982577
 31
0.0
  0
ARC
  5
113
330
1F
100
AcDbEntity
  8
0
  6
Continuous
 62
     7
370
    30
100
AcDbCircle
 10
270.0049418605
 20
201.5018971848
 30
0.0
 40
1.0
100
AcDbArc
 50
0.0
 51
90.0
  0
LINE
  5
114
330
1F
100
AcDbEntity
  8
0
  6
Continuous
 62
     7
370
    30
100
AcDbLine
 10
270.0049414805
 20
202.501896559
 30
0.0
 11
258.0049423075
 21
202.501896559
 31
0.0
  0
LINE
  5
115
330
1F
100
AcDbEntity
  8
0
  6
Continuous
 62
     7
370
    30
100
AcDbLine
 10
254.8049421555
 20
112.0018956947
 30
0.0
 11
301.2049415654
 21
112.0018956947
 31
0.0
  0
LINE
  5
116
330
1F
100
AcDbEntity
  8
0
  6
Continuous
 62
     7
370
    30
100
AcDbLine
 10
301.5049410558
 20
112.3018970477
 30
0.0
 11
301.5049410558
 21
186.7018973219
 31
0.0
  0
LINE
  5
117
330
1F
100
AcDbEntity
  8
0
  6
Continuous
 62
     7
370
    30
100
AcDbLine
 10
301.2049415654
 20
187.0018986749
 30
0.0
 11
254.8049421555
 21
187.0018986749
 31
0.0
  0
LINE
  5
118
330
1F
100
AcDbEntity
  8
0
  6
Continuous
 62
     7
370
    30
100
AcDbLine
 10
254.5049426651
 20
179.9018976974
 30
0.0
 11
247.0049423671
 21
179.9018976974
 31
0.0
  0
LINE
  5
119
330
1F
100
AcDbEntity
  8
0
  6
Continuous
 62
     7
370
    30
100
AcDbLine
 10
247.0049423671
 20
191.3664823162
 30
0.0
 11
247.0049423671
 21
179.9018976974
 31
0.0
  0
LINE
  5
11A
330
1F
100
AcDbEntity
  8
0
  6
Continuous
 62
     7
370
    30
100
AcDbLine
 10
247.0049423671
 20
200.5018962311
 30
0.0
 11
247.0049423671
 21
195.6373115766
 31
0.0
  0
ARC
  5
11B
330
1F
100
AcDbEntity
  8
0
  6
Continuous
 62
     7
370
    30
100
AcDbCircle
 10
252.0049418605
 20
200.5018971848
 30
0.0
 40
5.0
100
AcDbArc
 50
90.0
 51
180.0
  0
LINE
  5
11C
330
1F
100
AcDbEntity
  8
0
  6
Continuous
 62
     7
370
    30
100
AcDbLine
 10
303.0300674534
 20
190.1784946906
 30
0.0
 11
302.1815394557
 21
191.0270226884
 31
0.0
  0
LINE
  5
11D
330
1F
100
AcDbEntity
  8
0
  6
Continuous
 62
     7
370
    30
100
AcDbLine
 10
303.0300674534
 20
108.825299679
 30
0.0
 11
302.1815394557
 21
107.9767716813
 31
0.0
  0
LINE
  5
11E
330
1F
100
AcDbEntity
  8
0
  6
Continuous
 62
     7
370
    30
100
AcDbLine
 10
304.9049427307
 20
101.4018988001
 30
0.0
 11
306.1049425549
 21
101.4018988001
 31
0.0
  0
ARC
  5
11F
330
1F
100
AcDbEntity
  8
0
  6
Continuous
 62
     7
370
    30
100
AcDbCircle
 10
304.0049418605
 20
98.5018971848
 30
0.0
 40
5.0
100
AcDbArc
 50
270.0
 51
0.0
  0
LINE
  5
120
330
1F
100
AcDbEntity
  8
0
  6
Continuous
 62
     7
370
    30
100
AcDbLine
 10
252.004941324
 20
93.5018954563
 30
0.0
 11
304.0049423969
 21
93.5018954563
 31
0.0
  0
ARC
  5
121
330
1F
100
AcDbEntity
  8
0
  6
Continuous
 62
     7
370
    30
100
AcDbCircle
 10
252.0049418605
 20
98.5018971848
 30
0.0
 40
5.0
100
AcDbArc
 50
180.0
 51
270.0
  0
LINE
  5
122
330
1F
100
AcDbEntity
  8
0
  6
Continuous
 62
     7
370
    30
100
AcDbLine
 10
247.0049423671
 20
103.3664827931
 30
0.0
 11
247.0049423671
 21
98.5018981385
 31
0.0
  0
LINE
  5
123
330
1F
100
AcDbEntity
  8
0
  6
Continuous
 62
     7
370
    30
100
AcDbLine
 10
251.1049409902
 20
101.4018988001
 30
0.0
 11
249.9049411661
 21
101.4018988001
 31
0.0
  0
LINE
  5
124
330
1F
100
AcDbEntity
  8
0
  6
Continuous
 62
     7
370
    30
100
AcDbLine
 10
252.9798162675
 20
108.825299679
 30
0.0
 11
253.8283442653
 21
107.9767716813
 31
0.0
  0
LINE
  5
125
330
1F
100
AcDbEntity
  8
0
  6
Continuous
 62
     7
370
    30
100
AcDbLine
 10
251.429750914
 20
107.2752361881
 30
0.0
 11
252.9798162675
 21
108.825299679
 31
0.0
  0
LINE
  5
126
330
1F
100
AcDbEntity
  8
0
  6
Continuous
 62
     7
370
    30
100
AcDbLine
 10
247.0049423671
 20
119.1018966722
 30
0.0
 11
247.0049423671
 21
107.6373120534
 31
0.0
  0
LINE
  5
127
330
1F
100
AcDbEntity
  8
0
  6
Continuous
 62
     7
370
    30
100
AcDbLine
 10
254.5049426651
 20
119.1018966722
 30
0.0
 11
247.0049423671
 21
119.1018966722
 31
0.0
  0
ARC
  5
128
330
1F
100
AcDbEntity
  8
0
  6
Continuous
 62
     7
370
    30
100
AcDbCircle
 10
281.7549418605
 20
107.7518971848
 30
0.0
 40
2.75
100
AcDbArc
 50
270.0
 51
90.0
  0
LINE
  5
129
330
1F
100
AcDbEntity
  8
0
  6
Continuous
 62
     7
370
    30
100
AcDbLine
 10
252.9798162675
 20
190.1784946906
 30
0.0
 11
253.8283442653
 21
191.0270226884
 31
0.0
  0
ARC
  5
12A
330
1F
100
AcDbEntity
  8
0
  6
Continuous
 62
     7
370
    30
100
AcDbCircle
 10
301.2049418605
 20
112.3018971848
 30
0.0
 40
0.3000000000000114
100
AcDbArc
 50
270.0
 51
0.0
  0
LINE
  5
12B
330
1F
100
AcDbEntity
  8
0
  6
Continuous
 62
     7
370
    30
100
AcDbLine
 10
274.2549419443
 20
110.5018963802
 30
0.0
 11
281.7549417766
 21
110.5018963802
 31
0.0
  0
ARC
  5
12C
330
1F
100
AcDbEntity
  8
0
  6
Continuous
 62
     7
370
    30
100
AcDbCircle
 10
274.2549418605
 20
107.7518971848
 30
0.0
 40
2.750000000000014
100
AcDbArc
 50
90.0
 51
270.0
  0
LINE
  5
12D
330
1F
100
AcDbEntity
  8
0
  6
Continuous
 62
     7
370
    30
100
AcDbLine
 10
253.8283442653
 20
107.9767716813
 30
0.0
 11
252.2782789117
 21
106.4267081904
 31
0.0
  0
LINE
  5
12E
330
1F
100
AcDbEntity
  8
0
  6
Continuous
 62
     7
370
    30
100
AcDbLine
 10
304.5801328069
 20
191.7285581815
 30
0.0
 11
303.0300674534
 21
190.1784946906
 31
0.0
  0
LINE
  5
12F
330
1F
100
AcDbEntity
  8
0
  6
Continuous
 62
     7
370
    30
100
AcDbLine
 10
281.7549417766
 20
188.5018979895
 30
0.0
 11
274.2549419443
 21
188.5018979895
 31
0.0
  0
LINE
  5
130
330
1F
100
AcDbEntity
  8
0
  6
Continuous
 62
     7
370
    30
100
AcDbLine
 10
302.1815394557
 20
191.0270226884
 30
0.0
 11
303.7316048092
 21
192.5770861792
 31
0.0
  0
ARC
  5
131
330
1F
100
AcDbEntity
  8
0
  6
Continuous
 62
     7
370
    30
100
AcDbCircle
 10
304.0049418605
 20
200.5018971848
 30
0.0
 40
5.0
100
AcDbArc
 50
0.0
 51
90.0
  0
LINE
  5
132
330
1F
100
AcDbEntity
  8
0
  6
Continuous
 62
     7
370
    30
100
AcDbLine
 10
253.8283442653
 20
191.0270226884
 30
0.0
 11
252.2782789117
 21
192.5770861792
 31
0.0
  0
LINE
  5
133
330
1F
100
AcDbEntity
  8
0
  6
Continuous
 62
     7
370
    30
100
AcDbLine
 10
309.0049413538
 20
107.6373120534
 30
0.0
 11
309.0049413538
 21
191.3664823162
 31
0.0
  0
LINE
  5
134
330
1F
100
AcDbEntity
  8
0
  6
Continuous
 62
     7
370
    30
100
AcDbLine
 10
309.0049413538
 20
195.6373115766
 30
0.0
 11
309.0049413538
 21
200.5018962311
 31
0.0
  0
LINE
  5
135
330
1F
100
AcDbEntity
  8
0
  6
Continuous
 62
     7
370
    30
100
AcDbLine
 10
309.0049413538
 20
98.5018981385
 30
0.0
 11
309.0049413538
 21
103.3664827931
 31
0.0
  0
ARC
  5
136
330
1F
100
AcDbEntity
  8
0
  6
Continuous
 62
     7
370
    30
100
AcDbCircle
 10
274.2549418605
 20
191.2518971848
 30
0.0
 40
2.75
100
AcDbArc
 50
90.0
 51
270.0
  0
ARC
  5
137
330
1F
100
AcDbEntity
  8
0
  6
Continuous
 62
     7
370
    30
100
AcDbCircle
 10
301.2049418605
 20
186.7018971848
 30
0.0
 40
0.3000000000000114
100
AcDbArc
 50
0.0
 51
90.0
  0
ARC
  5
138
330
1F
100
AcDbEntity
  8
0
  6
Continuous
 62
     7
370
    30
100
AcDbCircle
 10
254.8049418605
 20
186.7018971848
 30
0.0
 40
0.3000000000000114
100
AcDbArc
 50
90.0
 51
180.0
  0
ARC
  5
139
330
1F
100
AcDbEntity
  8
0
  6
Continuous
 62
     7
370
    30
100
AcDbCircle
 10
254.8049418605
 20
112.3018971848
 30
0.0
 40
0.3000000000000114
100
AcDbArc
 50
180.0
 51
270.0
  0
LINE
  5
13A
330
1F
100
AcDbEntity
  8
0
  6
Continuous
 62
     7
370
    30
100
AcDbLine
 10
304.9049427307
 20
197.6018955695
 30
0.0
 11
306.1049425549
 21
197.6018955695
 31
0.0
  0
LINE
  5
13B
330
1F
100
AcDbEntity
  8
0
  6
Continuous
 62
     7
370
    30
100
AcDbLine
 10
251.429750914
 20
191.7285581815
 30
0.0
 11
252.9798162675
 21
190.1784946906
 31
0.0
  0
ARC
  5
13C
330
1F
100
AcDbEntity
  8
0
  6
Continuous
 62
     7
370
    30
100
AcDbCircle
 10
281.7549418605
 20
191.2518971848
 30
0.0
 40
2.75
100
AcDbArc
 50
270.0
 51
90.0
  0
LINE
  5
13D
330
1F
100
AcDbEntity
  8
0
  6
Continuous
 62
     7
370
    30
100
AcDbLine
 10
281.7549417766
 20
105.00189641
 30
0.0
 11
274.2549419443
 21
105.00189641
 31
0.0
  0
LINE
  5
13E
330
1F
100
AcDbEntity
  8
0
  6
Continuous
 62
     7
370
    30
100
AcDbLine
 10
302.1815394557
 20
107.9767716813
 30
0.0
 11
303.7316048092
 21
106.4267081904
 31
0.0
  0
LINE
  5
13F
330
1F
100
AcDbEntity
  8
0
  6
Continuous
 62
     7
370
    30
100
AcDbLine
 10
274.2549419443
 20
194.0018979597
 30
0.0
 11
281.7549417766
 21
194.0018979597
 31
0.0
  0
LINE
  5
140
330
1F
100
AcDbEntity
  8
0
  6
Continuous
 62
     7
370
    30
100
AcDbLine
 10
251.1049409902
 20
197.6018955695
 30
0.0
 11
249.9049411661
 21
197.6018955695
 31
0.0
  0
LINE
  5
141
330
1F
100
AcDbEntity
  8
0
  6
Continuous
 62
     7
370
    30
100
AcDbLine
 10
304.0049423969
 20
205.5018989134
 30
0.0
 11
252.004941324
 21
205.5018989134
 31
0.0
  0
LINE
  5
142
330
1F
100
AcDbEntity
  8
0
  6
Continuous
 62
     7
370
    30
100
AcDbLine
 10
254.5049426651
 20
186.7018973219
 30
0.0
 11
254.5049426651
 21
179.9018976974
 31
0.0
  0
LINE
  5
143
330
1F
100
AcDbEntity
  8
0
  6
Continuous
 62
     7
370
    30
100
AcDbLine
 10
254.5049426651
 20
119.1018966722
 30
0.0
 11
254.5049426651
 21
112.3018970477
 31
0.0
  0
LINE
  5
144
330
1F
100
AcDbEntity
  8
0
  6
Continuous
 62
     7
370
    30
100
AcDbLine
 10
304.5801328069
 20
107.2752361881
 30
0.0
 11
303.0300674534
 21
108.825299679
 31
0.0
  0
ARC
  5
145
330
1F
100
AcDbEntity
  8
0
  6
Continuous
 62
     7
370
    30
100
AcDbCircle
 10
305.5049418605
 20
193.5018971848
 30
0.0
 40
2.000000000000037
100
AcDbArc
 50
193.0192655449
 51
207.5423968763
  0
ARC
  5
146
330
1F
100
AcDbEntity
  8
0
  6
Continuous
 62
     7
370
    30
100
AcDbCircle
 10
305.5049418605
 20
105.5018971848
 30
0.0
 40
2.000000000000022
100
AcDbArc
 50
103.0192655449
 51
117.5423968763
  0
ARC
  5
147
330
1F
100
AcDbEntity
  8
0
  6
Continuous
 62
     7
370
    30
100
AcDbCircle
 10
250.5049418605
 20
193.5018971848
 30
0.0
 40
1.999999999999988
100
AcDbArc
 50
283.0192655449
 51
297.5423968763
  0
ARC
  5
148
330
1F
100
AcDbEntity
  8
0
  6
Continuous
 62
     7
370
    30
100
AcDbCircle
 10
305.5049418605
 20
105.5018971848
 30
0.0
 40
2.000000000000044
100
AcDbArc
 50
152.4576031237
 51
166.9807344551
  0
ARC
  5
149
330
1F
100
AcDbEntity
  8
0
  6
Continuous
 62
     7
370
    30
100
AcDbCircle
 10
250.5049418605
 20
105.5018971848
 30
0.0
 40
2.0
100
AcDbArc
 50
62.4576031237
 51
76.9807344552
  0
ARC
  5
14A
330
1F
100
AcDbEntity
  8
0
  6
Continuous
 62
     7
370
    30
100
AcDbCircle
 10
250.5049418605
 20
105.5018971848
 30
0.0
 40
1.999999999999994
100
AcDbArc
 50
13.0192655448
 51
27.5423968763
  0
ARC
  5
14B
330
1F
100
AcDbEntity
  8
0
  6
Continuous
 62
     7
370
    30
100
AcDbCircle
 10
250.5049418605
 20
193.5018971848
 30
0.0
 40
1.999999999999988
100
AcDbArc
 50
332.4576031237
 51
346.9807344552
  0
ARC
  5
14C
330
1F
100
AcDbEntity
  8
0
  6
Continuous
 62
     7
370
    30
100
AcDbCircle
 10
305.5049418605
 20
193.5018971848
 30
0.0
 40
2.000000000000001
100
AcDbArc
 50
242.4576031237
 51
256.9807344551
  0
LINE
  5
14D
330
1F
100
AcDbEntity
  8
0
  6
Continuous
 62
     7
370
    30
100
AcDbLine
 10
306.1049425549
 20
101.4018988001
 30
0.0
 11
306.1049425549
 21
101.4460360396
 31
0.0
  0
LINE
  5
14E
330
1F
100
AcDbEntity
  8
0
  6
Continuous
 62
     7
370
    30
100
AcDbLine
 10
249.9049411661
 20
197.6018955695
 30
0.0
 11
249.9049411661
 21
197.5577583301
 31
0.0
  0
LINE
  5
14F
330
1F
100
AcDbEntity
  8
0
  6
Continuous
 62
     7
370
    30
100
AcDbLine
 10
306.1049425549
 20
197.6018955695
 30
0.0
 11
306.1049425549
 21
197.5577583301
 31
0.0
  0
LINE
  5
150
330
1F
100
AcDbEntity
  8
0
  6
Continuous
 62
     7
370
    30
100
AcDbLine
 10
251.1049409902
 20
197.5577583301
 30
0.0
 11
251.1049409902
 21
197.6018955695
 31
0.0
  0
LINE
  5
151
330
1F
100
AcDbEntity
  8
0
  6
Continuous
 62
     7
370
    30
100
AcDbLine
 10
251.1049409902
 20
101.4460360396
 30
0.0
 11
251.1049409902
 21
101.4018988001
 31
0.0
  0
LINE
  5
152
330
1F
100
AcDbEntity
  8
0
  6
Continuous
 62
     7
370
    30
100
AcDbLine
 10
304.9049427307
 20
101.4460360396
 30
0.0
 11
304.9049427307
 21
101.4018988001
 31
0.0
  0
LINE
  5
153
330
1F
100
AcDbEntity
  8
0
  6
Continuous
 62
     7
370
    30
100
AcDbLine
 10
304.9049427307
 20
197.5577583301
 30
0.0
 11
304.9049427307
 21
197.6018955695
 31
0.0
  0
LINE
  5
154
330
1F
100
AcDbEntity
  8
0
  6
Continuous
 62
     7
370
    30
100
AcDbLine
 10
249.9049411661
 20
101.4018988001
 30
0.0
 11
249.9049411661
 21
101.4460360396
 31
0.0
  0
LINE
  5
155
330
1F
100
AcDbEntity
  8
0
  6
Continuous
 62
     7
370
    30
100
AcDbLine
 10
265.2574995107
 20
200.0802082705
 30
0.0
 11
264.8309304884
 21
200.9657395768
 31
0.0
  0
LINE
  5
156
330
1F
100
AcDbEntity
  8
0
  6
Continuous
 62
     7
370
    30
100
AcDbLine
 10
265.3225868514
 20
199.9168244886
 30
0.0
 11
265.2574995107
 21
200.0802082705
 31
0.0
  0
LINE
  5
157
330
1F
100
AcDbEntity
  8
0
  6
Continuous
 62
     7
370
    30
100
AcDbLine
 10
264.7498374379
 20
199.5914166558
 30
0.0
 11
265.0394973851
 21
198.9898716795
 31
0.0
  0
LINE
  5
158
330
1F
100
AcDbEntity
  8
0
  6
Continuous
 62
     7
370
    30
100
AcDbLine
 10
264.8309304884
 20
200.9657395768
 30
0.0
 11
263.9074692077
 21
200.9657395768
 31
0.0
  0
LINE
  5
159
330
1F
100
AcDbEntity
  8
0
  6
Continuous
 62
     7
370
    30
100
AcDbLine
 10
265.393808814
 20
200.0802082705
 30
0.0
 11
265.3225868514
 21
199.9168244886
 31
0.0
  0
LINE
  5
15A
330
1F
100
AcDbEntity
  8
0
  6
Continuous
 62
     7
370
    30
100
AcDbLine
 10
265.8189054153
 20
200.9657395768
 30
0.0
 11
265.393808814
 21
200.0802082705
 31
0.0
  0
LINE
  5
15B
330
1F
100
AcDbEntity
  8
0
  6
Continuous
 62
     7
370
    30
100
AcDbLine
 10
266.7494009754
 20
200.9657395768
 30
0.0
 11
265.8189054153
 21
200.9657395768
 31
0.0
  0
LINE
  5
15C
330
1F
100
AcDbEntity
  8
0
  6
Continuous
 62
     7
370
    30
100
AcDbLine
 10
266.7494009754
 20
198.9898716795
 30
0.0
 11
266.7494009754
 21
200.9657395768
 31
0.0
  0
LINE
  5
15D
330
1F
100
AcDbEntity
  8
0
  6
Continuous
 62
     7
370
    30
100
AcDbLine
 10
266.0006418398
 20
198.9898716795
 30
0.0
 11
266.7494009754
 21
198.9898716795
 31
0.0
  0
LINE
  5
15E
330
1F
100
AcDbEntity
  8
0
  6
Continuous
 62
     7
370
    30
100
AcDbLine
 10
266.0006418398
 20
199.8146807539
 30
0.0
 11
266.0006418398
 21
198.9898716795
 31
0.0
  0
LINE
  5
15F
330
1F
100
AcDbEntity
  8
0
  6
Continuous
 62
     7
370
    30
100
AcDbLine
 10
265.8963718957
 20
199.5914166558
 30
0.0
 11
266.0006418398
 21
199.8146807539
 31
0.0
  0
LINE
  5
160
330
1F
100
AcDbEntity
  8
0
  6
Continuous
 62
     7
370
    30
100
AcDbLine
 10
265.6077205709
 20
198.9898716795
 30
0.0
 11
265.8963718957
 21
199.5914166558
 31
0.0
  0
LINE
  5
161
330
1F
100
AcDbEntity
  8
0
  6
Continuous
 62
     7
370
    30
100
AcDbLine
 10
265.0394973851
 20
198.9898716795
 30
0.0
 11
265.6077205709
 21
198.9898716795
 31
0.0
  0
LINE
  5
162
330
1F
100
AcDbEntity
  8
0
  6
Continuous
 62
     7
370
    30
100
AcDbLine
 10
264.6550017914
 20
199.8191250252
 30
0.0
 11
264.7498374379
 21
199.5914166558
 31
0.0
  0
LINE
  5
163
330
1F
100
AcDbEntity
  8
0
  6
Continuous
 62
     7
370
    30
100
AcDbLine
 10
264.6550017914
 20
198.9898716795
 30
0.0
 11
264.6550017914
 21
199.8191250252
 31
0.0
  0
LINE
  5
164
330
1F
100
AcDbEntity
  8
0
  6
Continuous
 62
     7
370
    30
100
AcDbLine
 10
263.9074692077
 20
198.9898716795
 30
0.0
 11
264.6550017914
 21
198.9898716795
 31
0.0
  0
LINE
  5
165
330
1F
100
AcDbEntity
  8
0
  6
Continuous
 62
     7
370
    30
100
AcDbLine
 10
263.9074692077
 20
200.9657395768
 30
0.0
 11
263.9074692077
 21
198.9898716795
 31
0.0
  0
LINE
  5
166
330
1F
100
AcDbEntity
  8
0
  6
Continuous
 62
     7
370
    30
100
AcDbLine
 10
262.2012750751
 20
200.574591546
 30
0.0
 11
261.8728944606
 21
199.8770942676
 31
0.0
  0
LINE
  5
167
330
1F
100
AcDbEntity
  8
0
  6
Continuous
 62
     7
370
    30
100
AcDbLine
 10
261.8728944606
 20
199.8770942676
 30
0.0
 11
262.5293818808
 21
199.8770942676
 31
0.0
  0
LINE
  5
168
330
1F
100
AcDbEntity
  8
0
  6
Continuous
 62
     7
370
    30
100
AcDbLine
 10
262.5293818808
 20
199.8770942676
 30
0.0
 11
262.2012750751
 21
200.574591546
 31
0.0
  0
LINE
  5
169
330
1F
100
AcDbEntity
  8
0
  6
Continuous
 62
     7
370
    30
100
AcDbLine
 10
262.8277124411
 20
201.0018972444
 30
0.0
 11
261.5743720478
 21
201.0018972444
 31
0.0
  0
LINE
  5
16A
330
1F
100
AcDbEntity
  8
0
  6
Continuous
 62
     7
370
    30
100
AcDbLine
 10
263.7696064583
 20
198.9969907093
 30
0.0
 11
262.8277124411
 21
201.0018972444
 31
0.0
  0
LINE
  5
16B
330
1F
100
AcDbEntity
  8
0
  6
Continuous
 62
     7
370
    30
100
AcDbLine
 10
262.9418804816
 20
198.9969907093
 30
0.0
 11
263.7696064583
 21
198.9969907093
 31
0.0
  0
LINE
  5
16C
330
1F
100
AcDbEntity
  8
0
  6
Continuous
 62
     7
370
    30
100
AcDbLine
 10
262.7774862147
 20
199.3477267909
 30
0.0
 11
262.9418804816
 21
198.9969907093
 31
0.0
  0
LINE
  5
16D
330
1F
100
AcDbEntity
  8
0
  6
Continuous
 62
     7
370
    30
100
AcDbLine
 10
261.6236445999
 20
199.3477267909
 30
0.0
 11
262.7774862147
 21
199.3477267909
 31
0.0
  0
LINE
  5
16E
330
1F
100
AcDbEntity
  8
0
  6
Continuous
 62
     7
370
    30
100
AcDbLine
 10
261.4590594119
 20
198.9969907093
 30
0.0
 11
261.6236445999
 21
199.3477267909
 31
0.0
  0
LINE
  5
16F
330
1F
100
AcDbEntity
  8
0
  6
Continuous
 62
     7
370
    30
100
AcDbLine
 10
260.6325329787
 20
198.9969907093
 30
0.0
 11
261.4590594119
 21
198.9969907093
 31
0.0
  0
LINE
  5
170
330
1F
100
AcDbEntity
  8
0
  6
Continuous
 62
     7
370
    30
100
AcDbLine
 10
261.5743720478
 20
201.0018972444
 30
0.0
 11
260.6325329787
 21
198.9969907093
 31
0.0
  0
LINE
  5
171
330
1F
100
AcDbEntity
  8
0
  6
Continuous
 62
     7
370
    30
100
AcDbLine
 10
268.5040778986
 20
200.414478569
 30
0.0
 11
267.9082056082
 21
200.414478569
 31
0.0
  0
LINE
  5
172
330
1F
100
AcDbEntity
  8
0
  6
Continuous
 62
     7
370
    30
100
AcDbLine
 10
267.9082056082
 20
200.414478569
 30
0.0
 11
267.9082056082
 21
199.8799590158
 31
0.0
  0
LINE
  5
173
330
1F
100
AcDbEntity
  8
0
  6
Continuous
 62
     7
370
    30
100
AcDbLine
 10
267.9082056082
 20
199.8799590158
 30
0.0
 11
268.5042138717
 21
199.8799590158
 31
0.0
  0
SPLINE
  5
174
330
1F
100
AcDbEntity
  8
0
  6
Continuous
 62
     7
370
    30
100
AcDbSpline
210
0.0
220
0.0
230
1.0
 70
     8
 71
     3
 72
     8
 73
     4
 74
     0
 42
0.000000001
 43
0.00000001
 40
0.0
 40
0.0
 40
0.0
 40
0.0
 40
1.0
 40
1.0
 40
1.0
 40
1.0
 10
268.5042138223047
 20
199.8799579365262
 30
0.0
 10
268.6500119353811
 20
199.8849478476339
 30
0.0
 10
268.7683246364543
 20
200.0029333414213
 30
0.0
 10
268.7683246364543
 20
200.147231754438
 30
0.0
  0
SPLINE
  5
175
330
1F
100
AcDbEntity
  8
0
  6
Continuous
 62
     7
370
    30
100
AcDbSpline
210
0.0
220
0.0
230
1.0
 70
     8
 71
     3
 72
     8
 73
     4
 74
     0
 42
0.000000001
 43
0.00000001
 40
1.0
 40
1.0
 40
1.0
 40
1.0
 40
2.0
 40
2.0
 40
2.0
 40
2.0
 10
268.7683246364543
 20
200.147231754438
 30
0.0
 10
268.7683246364543
 20
200.294829507586
 30
0.0
 10
268.6494665899049
 20
200.414478305076
 30
0.0
 10
268.5040774859357
 20
200.414478305076
 30
0.0
  0
SPLINE
  5
176
330
1F
100
AcDbEntity
  8
0
  6
Continuous
 62
     7
370
    30
100
AcDbSpline
210
0.0
220
0.0
230
1.0
 70
     8
 71
     3
 72
     8
 73
     4
 74
     0
 42
0.000000001
 43
0.00000001
 40
1.0
 40
1.0
 40
1.0
 40
1.0
 40
2.0
 40
2.0
 40
2.0
 40
2.0
 10
268.7683246364543
 20
199.3276593054505
 30
0.0
 10
269.2177438434348
 20
199.3283409872958
 30
0.0
 10
269.5760358213333
 20
199.6986305656719
 30
0.0
 10
269.5760358213333
 20
200.147231754438
 30
0.0
  0
LINE
  5
177
330
1F
100
AcDbEntity
  8
0
  6
Continuous
 62
     7
370
    30
100
AcDbLine
 10
267.9082056082
 20
199.327658652
 30
0.0
 11
268.7683248467
 21
199.327658652
 31
0.0
  0
LINE
  5
178
330
1F
100
AcDbEntity
  8
0
  6
Continuous
 62
     7
370
    30
100
AcDbLine
 10
267.9082056082
 20
198.9898716795
 30
0.0
 11
267.9082056082
 21
199.327658652
 31
0.0
  0
LINE
  5
179
330
1F
100
AcDbEntity
  8
0
  6
Continuous
 62
     7
370
    30
100
AcDbLine
 10
267.057548607
 20
198.9898716795
 30
0.0
 11
267.9082056082
 21
198.9898716795
 31
0.0
  0
LINE
  5
17A
330
1F
100
AcDbEntity
  8
0
  6
Continuous
 62
     7
370
    30
100
AcDbLine
 10
267.057548607
 20
200.9657395768
 30
0.0
 11
267.057548607
 21
198.9898716795
 31
0.0
  0
LINE
  5
17B
330
1F
100
AcDbEntity
  8
0
  6
Continuous
 62
     7
370
    30
100
AcDbLine
 10
268.7610717064
 20
200.9657395768
 30
0.0
 11
267.057548607
 21
200.9657395768
 31
0.0
  0
LINE
  5
17C
330
1F
100
AcDbEntity
  8
0
  6
Continuous
 62
     7
370
    30
100
AcDbLine
 10
268.7610717064
 20
200.9622489798
 30
0.0
 11
268.7610717064
 21
200.9657395768
 31
0.0
  0
SPLINE
  5
17D
330
1F
100
AcDbEntity
  8
0
  6
Continuous
 62
     7
370
    30
100
AcDbSpline
210
0.0
220
0.0
230
1.0
 70
     8
 71
     3
 72
     8
 73
     4
 74
     0
 42
0.000000001
 43
0.00000001
 40
0.0
 40
0.0
 40
0.0
 40
0.0
 40
1.0
 40
1.0
 40
1.0
 40
1.0
 10
269.5760358213333
 20
200.147231754438
 30
0.0
 10
269.5760358213333
 20
200.5964600905018
 30
0.0
 10
269.2104634813268
 20
200.9622505686988
 30
0.0
 10
268.7610715416201
 20
200.9622505686988
 30
0.0
  0
LINE
  5
17E
330
1F
100
AcDbEntity
  8
0
  6
Continuous
 62
     7
370
    30
100
AcDbLine
 10
294.2566362715
 20
99.0086754548
 30
0.0
 11
295.1718916691
 21
98.0934237826
 31
0.0
  0
LINE
  5
17F
330
1F
100
AcDbEntity
  8
0
  6
Continuous
 62
     7
370
    30
100
AcDbLine
 10
295.1718916691
 20
98.0934237826
 30
0.0
 11
295.0803650117
 21
97.9815570402
 31
0.0
  0
LINE
  5
180
330
1F
100
AcDbEntity
  8
0
  6
Continuous
 62
     7
370
    30
100
AcDbLine
 10
295.0803650117
 20
97.9815570402
 30
0.0
 11
294.0532465971
 21
99.0086754548
 31
0.0
  0
LINE
  5
181
330
1F
100
AcDbEntity
  8
0
  6
Continuous
 62
     7
370
    30
100
AcDbLine
 10
294.0532465971
 20
99.0086754548
 30
0.0
 11
295.0701968319
 21
100.0256275522
 31
0.0
  0
LINE
  5
182
330
1F
100
AcDbEntity
  8
0
  6
Continuous
 62
     7
370
    30
100
AcDbLine
 10
295.0701968319
 20
100.0256275522
 30
0.0
 11
295.1718916691
 21
99.9239308524
 31
0.0
  0
LINE
  5
183
330
1F
100
AcDbEntity
  8
0
  6
Continuous
 62
     7
370
    30
100
AcDbLine
 10
295.1718916691
 20
99.9239308524
 30
0.0
 11
294.2566362715
 21
99.0086754548
 31
0.0
  0
LINE
  5
184
330
1F
100
AcDbEntity
  8
0
  6
Continuous
 62
     7
370
    30
100
AcDbLine
 10
254.5049426651
 20
179.5018965143
 30
0.0
 11
247.0049423671
 21
179.5018965143
 31
0.0
  0
LINE
  5
185
330
1F
100
AcDbEntity
  8
0
  6
Continuous
 62
     7
370
    30
100
AcDbLine
 10
247.0049423671
 20
179.9018976974
 30
0.0
 11
247.0049423671
 21
179.5018965143
 31
0.0
  0
LINE
  5
186
330
1F
100
AcDbEntity
  8
0
  6
Continuous
 62
     7
370
    30
100
AcDbLine
 10
254.5049426651
 20
179.5018965143
 30
0.0
 11
254.5049426651
 21
179.9018976974
 31
0.0
  0
LINE
  5
187
330
1F
100
AcDbEntity
  8
0
  6
Continuous
 62
     7
370
    30
100
AcDbLine
 10
288.836297909
 20
99.9239308524
 30
0.0
 11
288.9379927463
 21
100.0256275522
 31
0.0
  0
LINE
  5
188
330
1F
100
AcDbEntity
  8
0
  6
Continuous
 62
     7
370
    30
100
AcDbLine
 10
288.9379927463
 20
100.0256275522
 30
0.0
 11
289.9549420497
 21
99.0086754548
 31
0.0
  0
LINE
  5
189
330
1F
100
AcDbEntity
  8
0
  6
Continuous
 62
     7
370
    30
100
AcDbLine
 10
289.9549420497
 20
99.0086754548
 30
0.0
 11
288.9278236351
 21
97.9815570402
 31
0.0
  0
LINE
  5
18A
330
1F
100
AcDbEntity
  8
0
  6
Continuous
 62
     7
370
    30
100
AcDbLine
 10
288.9278236351
 20
97.9815570402
 30
0.0
 11
288.836297909
 21
98.0934237826
 31
0.0
  0
LINE
  5
18B
330
1F
100
AcDbEntity
  8
0
  6
Continuous
 62
     7
370
    30
100
AcDbLine
 10
288.836297909
 20
98.0934237826
 30
0.0
 11
289.7515523753
 21
99.0086754548
 31
0.0
  0
LINE
  5
18C
330
1F
100
AcDbEntity
  8
0
  6
Continuous
 62
     7
370
    30
100
AcDbLine
 10
289.7515523753
 20
99.0086754548
 30
0.0
 11
288.836297909
 21
99.9239308524
 31
0.0
  0
LINE
  5
18D
330
1F
100
AcDbEntity
  8
0
  6
Continuous
 62
     7
370
    30
100
AcDbLine
 10
258.4549424744
 20
199.0018969166
 30
0.0
 11
260.5683182872
 21
199.0018969166
 31
0.0
  0
LINE
  5
18E
330
1F
100
AcDbEntity
  8
0
  6
Continuous
 62
     7
370
    30
100
AcDbLine
 10
258.4549424744
 20
201.0018972444
 30
0.0
 11
258.4549424744
 21
199.0018969166
 31
0.0
  0
LINE
  5
18F
330
1F
100
AcDbEntity
  8
0
  6
Continuous
 62
     7
370
    30
100
AcDbLine
 10
260.5683182872
 20
199.0018969166
 30
0.0
 11
260.5683182872
 21
199.5905151355
 31
0.0
  0
LINE
  5
190
330
1F
100
AcDbEntity
  8
0
  6
Continuous
 62
     7
370
    30
100
AcDbLine
 10
260.5683182872
 20
199.5905151355
 30
0.0
 11
259.3898823059
 21
199.5905151355
 31
0.0
  0
LINE
  5
191
330
1F
100
AcDbEntity
  8
0
  6
Continuous
 62
     7
370
    30
100
AcDbLine
 10
259.3898823059
 20
201.0018972444
 30
0.0
 11
258.4549424744
 21
201.0018972444
 31
0.0
  0
LINE
  5
192
330
1F
100
AcDbEntity
  8
0
  6
Continuous
 62
     7
370
    30
100
AcDbLine
 10
259.3898823059
 20
199.5905151355
 30
0.0
 11
259.3898823059
 21
201.0018972444
 31
0.0
  0
LINE
  5
193
330
1F
100
AcDbEntity
  8
0
  6
Continuous
 62
     7
370
    30
100
AcDbLine
 10
293.0464673361
 20
99.1713886845
 30
0.0
 11
293.7379920429
 21
99.1713886845
 31
0.0
  0
LINE
  5
194
330
1F
100
AcDbEntity
  8
0
  6
Continuous
 62
     7
370
    30
100
AcDbLine
 10
293.7379920429
 20
99.1713886845
 30
0.0
 11
293.7379920429
 21
98.9789215612
 31
0.0
  0
LINE
  5
195
330
1F
100
AcDbEntity
  8
0
  6
Continuous
 62
     7
370
    30
100
AcDbLine
 10
293.7379920429
 20
98.9789215612
 30
0.0
 11
293.0464673361
 21
98.9789215612
 31
0.0
  0
LINE
  5
196
330
1F
100
AcDbEntity
  8
0
  6
Continuous
 62
     7
370
    30
100
AcDbLine
 10
293.0464673361
 20
98.9789215612
 30
0.0
 11
293.0464673361
 21
98.2154568422
 31
0.0
  0
LINE
  5
197
330
1F
100
AcDbEntity
  8
0
  6
Continuous
 62
     7
370
    30
100
AcDbLine
 10
293.0464673361
 20
98.2154568422
 30
0.0
 11
293.8498569227
 21
98.2154568422
 31
0.0
  0
LINE
  5
198
330
1F
100
AcDbEntity
  8
0
  6
Continuous
 62
     7
370
    30
100
AcDbLine
 10
293.8498569227
 20
98.2154568422
 30
0.0
 11
293.8498569227
 21
98.0229897189
 31
0.0
  0
LINE
  5
199
330
1F
100
AcDbEntity
  8
0
  6
Continuous
 62
     7
370
    30
100
AcDbLine
 10
292.8057893685
 20
100.0052874672
 30
0.0
 11
293.7990104354
 21
100.0052874672
 31
0.0
  0
LINE
  5
19A
330
1F
100
AcDbEntity
  8
0
  6
Continuous
 62
     7
370
    30
100
AcDbLine
 10
293.7990104354
 20
100.0052874672
 30
0.0
 11
293.7990104354
 21
99.8128203439
 31
0.0
  0
LINE
  5
19B
330
1F
100
AcDbEntity
  8
0
  6
Continuous
 62
     7
370
    30
100
AcDbLine
 10
293.7990104354
 20
99.8128203439
 30
0.0
 11
293.0464673361
 21
99.8128203439
 31
0.0
  0
LINE
  5
19C
330
1F
100
AcDbEntity
  8
0
  6
Continuous
 62
     7
370
    30
100
AcDbLine
 10
293.0464673361
 20
99.8128203439
 30
0.0
 11
293.0464673361
 21
99.1713886845
 31
0.0
  0
LINE
  5
19D
330
1F
100
AcDbEntity
  8
0
  6
Continuous
 62
     7
370
    30
100
AcDbLine
 10
293.8498569227
 20
98.0229897189
 30
0.0
 11
292.8057893685
 21
98.0229897189
 31
0.0
  0
LINE
  5
19E
330
1F
100
AcDbEntity
  8
0
  6
Continuous
 62
     7
370
    30
100
AcDbLine
 10
292.8057893685
 20
98.0229897189
 30
0.0
 11
292.8057893685
 21
100.0052874672
 31
0.0
  0
LINE
  5
19F
330
1F
100
AcDbEntity
  8
0
  6
Continuous
 62
     7
370
    30
100
AcDbLine
 10
254.5049426651
 20
119.5018978554
 30
0.0
 11
247.0049423671
 21
119.5018978554
 31
0.0
  0
LINE
  5
1A0
330
1F
100
AcDbEntity
  8
0
  6
Continuous
 62
     7
370
    30
100
AcDbLine
 10
247.0049423671
 20
119.9018971759
 30
0.0
 11
247.0049423671
 21
119.5018978554
 31
0.0
  0
LINE
  5
1A1
330
1F
100
AcDbEntity
  8
0
  6
Continuous
 62
     7
370
    30
100
AcDbLine
 10
254.5049426651
 20
119.5018978554
 30
0.0
 11
254.5049426651
 21
119.9018971759
 31
0.0
  0
LINE
  5
1A2
330
1F
100
AcDbEntity
  8
0
  6
Continuous
 62
     7
370
    30
100
AcDbLine
 10
247.0049423671
 20
179.5018965143
 30
0.0
 11
247.0049423671
 21
179.1018971938
 31
0.0
  0
LINE
  5
1A3
330
1F
100
AcDbEntity
  8
0
  6
Continuous
 62
     7
370
    30
100
AcDbLine
 10
254.5049426651
 20
179.1018971938
 30
0.0
 11
254.5049426651
 21
179.5018965143
 31
0.0
  0
LINE
  5
1A4
330
1F
100
AcDbEntity
  8
0
  6
Continuous
 62
     7
370
    30
100
AcDbLine
 10
247.0049423671
 20
119.5018978554
 30
0.0
 11
247.0049423671
 21
119.1018966722
 31
0.0
  0
LINE
  5
1A5
330
1F
100
AcDbEntity
  8
0
  6
Continuous
 62
     7
370
    30
100
AcDbLine
 10
254.5049426651
 20
119.1018966722
 30
0.0
 11
254.5049426651
 21
119.5018978554
 31
0.0
  0
LINE
  5
1A6
330
1F
100
AcDbEntity
  8
0
  6
Continuous
 62
     7
370
    30
100
AcDbLine
 10
276.6549418254
 20
254.7001529513
 30
0.0
 11
276.6549418254
 21
252.2001528907
 31
0.0
  0
LINE
  5
1A7
330
1F
100
AcDbEntity
  8
0
  6
Continuous
 62
     7
370
    30
100
AcDbLine
 10
279.3549418955
 20
252.2001528907
 30
0.0
 11
279.3549418955
 21
254.7001529513
 31
0.0
  0
LINE
  5
1A8
330
1F
100
AcDbEntity
  8
0
  6
Continuous
 62
     7
370
    30
100
AcDbLine
 10
276.6549418254
 20
252.2001528907
 30
0.0
 11
277.1549418492
 21
251.7001528088
 31
0.0
  0
LINE
  5
1A9
330
1F
100
AcDbEntity
  8
0
  6
Continuous
 62
     7
370
    30
100
AcDbLine
 10
278.8549418717
 20
251.7001528088
 30
0.0
 11
279.3549418955
 21
252.2001528907
 31
0.0
  0
ARC
  5
1AA
330
1F
100
AcDbEntity
  8
0
  6
Continuous
 62
     7
370
    30
100
AcDbCircle
 10
301.4049418605
 20
253.7001529988
 30
0.0
 40
1.0
100
AcDbArc
 50
28.0724869359
 51
90.0
  0
ARC
  5
1AB
330
1F
100
AcDbEntity
  8
0
  6
Continuous
 62
     7
370
    30
100
AcDbCircle
 10
254.6049418605
 20
253.7001529988
 30
0.0
 40
1.0
100
AcDbArc
 50
90.0
 51
151.9275130641
  0
LINE
  5
1AC
330
1F
100
AcDbEntity
  8
0
  6
Continuous
 62
     7
370
    30
100
AcDbLine
 10
307.4049422092
 20
251.7001528088
 30
0.0
 11
309.0049413538
 21
254.7001529513
 31
0.0
  0
LINE
  5
1AD
330
1F
100
AcDbEntity
  8
0
  6
Continuous
 62
     7
370
    30
100
AcDbLine
 10
302.2872948593
 20
254.1707412368
 30
0.0
 11
303.6049412138
 21
251.7001528088
 31
0.0
  0
LINE
  5
1AE
330
1F
100
AcDbEntity
  8
0
  6
Continuous
 62
     7
370
    30
100
AcDbLine
 10
252.4049425072
 20
251.7001528088
 30
0.0
 11
253.7225888616
 21
254.1707412368
 31
0.0
  0
LINE
  5
1AF
330
1F
100
AcDbEntity
  8
0
  6
Continuous
 62
     7
370
    30
100
AcDbLine
 10
247.0049423671
 20
254.7001529513
 30
0.0
 11
248.6049415118
 21
251.7001528088
 31
0.0
  0
LINE
  5
1B0
330
1F
100
AcDbEntity
  8
0
  6
Continuous
 62
     7
370
    30
100
AcDbLine
 10
247.0049423671
 20
254.7001529513
 30
0.0
 11
247.0049423671
 21
256.7001530463
 31
0.0
  0
LINE
  5
1B1
330
1F
100
AcDbEntity
  8
0
  6
Continuous
 62
     7
370
    30
100
AcDbLine
 10
252.004941324
 20
254.7001529513
 30
0.0
 11
247.0049423671
 21
254.7001529513
 31
0.0
  0
LINE
  5
1B2
330
1F
100
AcDbEntity
  8
0
  6
Continuous
 62
     7
370
    30
100
AcDbLine
 10
247.0049423671
 20
256.7001530463
 30
0.0
 11
252.004941324
 21
256.7001530463
 31
0.0
  0
LINE
  5
1B3
330
1F
100
AcDbEntity
  8
0
  6
Continuous
 62
     7
370
    30
100
AcDbLine
 10
309.0049413538
 20
256.7001530463
 30
0.0
 11
309.0049413538
 21
254.7001529513
 31
0.0
  0
LINE
  5
1B4
330
1F
100
AcDbEntity
  8
0
  6
Continuous
 62
     7
370
    30
100
AcDbLine
 10
309.0049413538
 20
254.7001529513
 30
0.0
 11
304.0049423969
 21
254.7001529513
 31
0.0
  0
LINE
  5
1B5
330
1F
100
AcDbEntity
  8
0
  6
Continuous
 62
     7
370
    30
100
AcDbLine
 10
304.0049423969
 20
256.7001530463
 30
0.0
 11
309.0049413538
 21
256.7001530463
 31
0.0
  0
LINE
  5
1B6
330
1F
100
AcDbEntity
  8
0
  6
Continuous
 62
     7
370
    30
100
AcDbLine
 10
304.0049423969
 20
254.7001529513
 30
0.0
 11
252.004941324
 21
254.7001529513
 31
0.0
  0
LINE
  5
1B7
330
1F
100
AcDbEntity
  8
0
  6
Continuous
 62
     7
370
    30
100
AcDbLine
 10
304.0049423969
 20
256.7001530463
 30
0.0
 11
252.004941324
 21
256.7001530463
 31
0.0
  0
LINE
  5
1B8
330
1F
100
AcDbEntity
  8
0
  6
Continuous
 62
     7
370
    30
100
AcDbLine
 10
276.6549418254
 20
252.2001528907
 30
0.0
 11
279.3549418955
 21
252.2001528907
 31
0.0
  0
LINE
  5
1B9
330
1F
100
AcDbEntity
  8
0
  6
Continuous
 62
     7
370
    30
100
AcDbLine
 10
278.8549418717
 20
251.7001528088
 30
0.0
 11
277.1549418492
 21
251.7001528088
 31
0.0
  0
ARC
  5
1BA
330
1F
100
AcDbEntity
  8
0
  6
Continuous
 62
     7
370
    30
100
AcDbCircle
 10
309.0374991759
 20
253.8532926626
 30
0.0
 40
0.8474859056952952
100
AcDbArc
 50
92.2016707789
 51
158.0018399513
  0
SPLINE
  5
1BB
330
1F
100
AcDbEntity
  8
0
  6
Continuous
 62
     7
370
    30
100
AcDbSpline
210
0.0
220
0.0
230
1.0
 70
    24
 71
     3
 72
    10
 73
     6
 74
     0
 42
0.000000001
 43
0.00000001
 40
0.0
 40
0.0
 40
0.0
 40
0.0
 40
0.5
 40
0.5
 40
1.0
 40
1.0
 40
1.0
 40
1.0
 10
306.1049418604654
 20
254.7001529987759
 30
0.0
 10
306.1049418604654
 20
254.700152998776
 30
0.0
 10
306.1049418604654
 20
254.6511367190125
 30
0.0
 10
306.1049418604654
 20
254.4660959668414
 30
0.0
 10
306.1049418604654
 20
254.3307067944201
 30
0.0
 10
306.1049418604654
 20
254.17074123407
 30
0.0
  0
ARC
  5
1BC
330
1F
100
AcDbEntity
  8
0
  6
Continuous
 62
     7
370
    30
100
AcDbCircle
 10
246.972384545
 20
253.8532926626
 30
0.0
 40
0.8474859056952797
100
AcDbArc
 50
21.9981600487
 51
87.7983292211
  0
SPLINE
  5
1BD
330
1F
100
AcDbEntity
  8
0
  6
Continuous
 62
     7
370
    30
100
AcDbSpline
210
0.0
220
0.0
230
1.0
 70
    24
 71
     3
 72
    10
 73
     6
 74
     0
 42
0.000000001
 43
0.00000001
 40
0.0
 40
0.0
 40
0.0
 40
0.0
 40
0.5
 40
0.5
 40
1.0
 40
1.0
 40
1.0
 40
1.0
 10
249.9049418604654
 20
254.7001529987759
 30
0.0
 10
249.9049418604654
 20
254.700152998776
 30
0.0
 10
249.9049418604654
 20
254.6511367190125
 30
0.0
 10
249.9049418604654
 20
254.4660959668414
 30
0.0
 10
249.9049418604654
 20
254.3307067944201
 30
0.0
 10
249.9049418604654
 20
254.17074123407
 30
0.0
  0
SPLINE
  5
1BE
330
1F
100
AcDbEntity
  8
0
  6
Continuous
 62
     7
370
    30
100
AcDbSpline
210
0.0
220
0.0
230
1.0
 70
    24
 71
     3
 72
    12
 73
     8
 74
     0
 42
0.000000001
 43
0.00000001
 40
0.0
 40
0.0
 40
0.0
 40
0.0
 40
0.4999999999999918
 40
0.4999999999999918
 40
0.7499999999999959
 40
0.7499999999999959
 40
1.0
 40
1.0
 40
1.0
 40
1.0
 10
304.9049418604653
 20
254.17074123407
 30
0.0
 10
304.9049418604653
 20
254.3315397293961
 30
0.0
 10
304.9049418604654
 20
254.4655415991015
 30
0.0
 10
304.9049418604653
 20
254.6050342021149
 30
0.0
 10
304.9049418604653
 20
254.6401636292427
 30
0.0
 10
304.9049418604653
 20
254.6879255624613
 30
0.0
 10
304.9049418604653
 20
254.7001529987759
 30
0.0
 10
304.9049418604653
 20
254.7001529987759
 30
0.0
  0
SPLINE
  5
1BF
330
1F
100
AcDbEntity
  8
0
  6
Continuous
 62
     7
370
    30
100
AcDbSpline
210
0.0
220
0.0
230
1.0
 70
    24
 71
     3
 72
    12
 73
     8
 74
     0
 42
0.000000001
 43
0.00000001
 40
0.0
 40
0.0
 40
0.0
 40
0.0
 40
0.499999999999992
 40
0.499999999999992
 40
0.749999999999996
 40
0.749999999999996
 40
1.0
 40
1.0
 40
1.0
 40
1.0
 10
251.1049418604654
 20
254.17074123407
 30
0.0
 10
251.1049418604654
 20
254.3315397293961
 30
0.0
 10
251.1049418604654
 20
254.4655415991015
 30
0.0
 10
251.1049418604654
 20
254.6050342021149
 30
0.0
 10
251.1049418604654
 20
254.6401636292427
 30
0.0
 10
251.1049418604654
 20
254.6879255624613
 30
0.0
 10
251.1049418604654
 20
254.7001529987759
 30
0.0
 10
251.1049418604654
 20
254.7001529987759
 30
0.0
  0
SPLINE
  5
1C0
330
1F
100
AcDbEntity
  8
0
  6
Continuous
 62
     7
370
    30
100
AcDbSpline
210
0.0
220
0.0
230
1.0
 70
     8
 71
     3
 72
    12
 73
     8
 74
     0
 42
0.000000001
 43
0.00000001
 40
0.0
 40
0.0
 40
0.0
 40
0.0
 40
0.2500000000000001
 40
0.2500000000000001
 40
0.5000000000000001
 40
0.5000000000000001
 40
1.0
 40
1.0
 40
1.0
 40
1.0
 10
308.2517137399489
 20
254.17074123407
 30
0.0
 10
308.3364273062441
 20
254.17074123407
 30
0.0
 10
308.4171569389471
 20
254.1879742868994
 30
0.0
 10
308.5682675976548
 20
254.2461605371697
 30
0.0
 10
308.6389461461584
 20
254.287497382705
 30
0.0
 10
308.829648460135
 20
254.43372910899
 30
0.0
 10
308.930728738086
 20
254.5610033943145
 30
0.0
 10
309.0049418604654
 20
254.7001529987759
 30
0.0
  0
LINE
  5
1C1
330
1F
100
AcDbEntity
  8
0
  6
Continuous
 62
     7
370
    30
100
AcDbLine
 10
307.4049422092
 20
251.7001528088
 30
0.0
 11
306.1049425549
 21
251.7001528088
 31
0.0
  0
SPLINE
  5
1C2
330
1F
100
AcDbEntity
  8
0
  6
Continuous
 62
     7
370
    30
100
AcDbSpline
210
0.0
220
0.0
230
1.0
 70
    24
 71
     3
 72
     8
 73
     4
 74
     0
 42
0.000000001
 43
0.00000001
 40
0.0
 40
0.0
 40
0.0
 40
0.0
 40
1.0
 40
1.0
 40
1.0
 40
1.0
 10
306.1049418604654
 20
251.7001529987759
 30
0.0
 10
306.1049418604654
 20
252.5193167553053
 30
0.0
 10
306.1049418604654
 20
253.3447701326475
 30
0.0
 10
306.1049418604654
 20
254.17074123407
 30
0.0
  0
LINE
  5
1C3
330
1F
100
AcDbEntity
  8
0
  6
Continuous
 62
     7
370
    30
100
AcDbLine
 10
304.9049427307
 20
251.7001528088
 30
0.0
 11
303.6049412138
 21
251.7001528088
 31
0.0
  0
SPLINE
  5
1C4
330
1F
100
AcDbEntity
  8
0
  6
Continuous
 62
     7
370
    30
100
AcDbSpline
210
0.0
220
0.0
230
1.0
 70
    24
 71
     3
 72
     8
 73
     4
 74
     0
 42
0.000000001
 43
0.00000001
 40
0.0
 40
0.0
 40
0.0
 40
0.0
 40
1.0
 40
1.0
 40
1.0
 40
1.0
 10
304.9049418604653
 20
254.17074123407
 30
0.0
 10
304.9049418604653
 20
253.3447912379771
 30
0.0
 10
304.9049418604653
 20
252.5194719344464
 30
0.0
 10
304.9049418604653
 20
251.7001529987759
 30
0.0
  0
LINE
  5
1C5
330
1F
100
AcDbEntity
  8
0
  6
Continuous
 62
     7
370
    30
100
AcDbLine
 10
252.4049425072
 20
251.7001528088
 30
0.0
 11
251.1049409902
 21
251.7001528088
 31
0.0
  0
SPLINE
  5
1C6
330
1F
100
AcDbEntity
  8
0
  6
Continuous
 62
     7
370
    30
100
AcDbSpline
210
0.0
220
0.0
230
1.0
 70
    24
 71
     3
 72
     8
 73
     4
 74
     0
 42
0.000000001
 43
0.00000001
 40
0.0
 40
0.0
 40
0.0
 40
0.0
 40
1.0
 40
1.0
 40
1.0
 40
1.0
 10
251.1049418604654
 20
254.17074123407
 30
0.0
 10
251.1049418604654
 20
253.3447912379771
 30
0.0
 10
251.1049418604654
 20
252.5194719344464
 30
0.0
 10
251.1049418604654
 20
251.7001529987759
 30
0.0
  0
SPLINE
  5
1C7
330
1F
100
AcDbEntity
  8
0
  6
Continuous
 62
     7
370
    30
100
AcDbSpline
210
0.0
220
0.0
230
1.0
 70
     8
 71
     3
 72
    12
 73
     8
 74
     0
 42
0.000000001
 43
0.00000001
 40
0.0
 40
0.0
 40
0.0
 40
0.0
 40
0.25
 40
0.25
 40
0.5
 40
0.5
 40
1.0
 40
1.0
 40
1.0
 40
1.0
 10
247.7581699809819
 20
254.17074123407
 30
0.0
 10
247.6734564146867
 20
254.17074123407
 30
0.0
 10
247.5927267819837
 20
254.1879742868994
 30
0.0
 10
247.441616123276
 20
254.2461605371697
 30
0.0
 10
247.3709375747723
 20
254.287497382705
 30
0.0
 10
247.1802352607957
 20
254.43372910899
 30
0.0
 10
247.079154982851
 20
254.561003394303
 30
0.0
 10
247.0049418604654
 20
254.7001529987759
 30
0.0
  0
LINE
  5
1C8
330
1F
100
AcDbEntity
  8
0
  6
Continuous
 62
     7
370
    30
100
AcDbLine
 10
249.9049411661
 20
251.7001528088
 30
0.0
 11
248.6049415118
 21
251.7001528088
 31
0.0
  0
SPLINE
  5
1C9
330
1F
100
AcDbEntity
  8
0
  6
Continuous
 62
     7
370
    30
100
AcDbSpline
210
0.0
220
0.0
230
1.0
 70
    24
 71
     3
 72
     8
 73
     4
 74
     0
 42
0.000000001
 43
0.00000001
 40
0.0
 40
0.0
 40
0.0
 40
0.0
 40
1.0
 40
1.0
 40
1.0
 40
1.0
 10
249.9049418604654
 20
251.7001529987759
 30
0.0
 10
249.9049418604654
 20
252.5193167553053
 30
0.0
 10
249.9049418604654
 20
253.3447701326475
 30
0.0
 10
249.9049418604654
 20
254.17074123407
 30
0.0
  0
LINE
  5
1CA
330
1F
100
AcDbEntity
  8
0
  6
Continuous
 62
     7
370
    30
100
AcDbLine
 10
250.9554991073
 20
254.3001530487
 30
0.0
 11
250.9554991073
 21
254.7001529513
 31
0.0
  0
LINE
  5
1CB
330
1F
100
AcDbEntity
  8
0
  6
Continuous
 62
     7
370
    30
100
AcDbLine
 10
305.0543846137
 20
254.3001530487
 30
0.0
 11
305.0543846137
 21
254.7001529513
 31
0.0
  0
SPLINE
  5
1CC
330
1F
100
AcDbEntity
  8
0
  6
Continuous
 62
     7
370
    30
100
AcDbSpline
210
0.0
220
0.0
230
1.0
 70
    24
 71
     3
 72
     8
 73
     4
 74
     0
 42
0.000000001
 43
0.00000001
 40
0.0
 40
0.0
 40
0.0
 40
0.0
 40
1.0
 40
1.0
 40
1.0
 40
1.0
 10
305.0543845188312
 20
253.100152998776
 30
0.0
 10
305.0543845188312
 20
252.6343896037139
 30
0.0
 10
305.0543845188312
 20
252.1674582444822
 30
0.0
 10
305.0543845188312
 20
251.7001529987759
 30
0.0
  0
LINE
  5
1CD
330
1F
100
AcDbEntity
  8
0
  6
Continuous
 62
     7
370
    30
100
AcDbLine
 10
305.0543846137
 20
253.1001529917
 30
0.0
 11
306.1062147415
 21
253.1001529917
 31
0.0
  0
LINE
  5
1CE
330
1F
100
AcDbEntity
  8
0
  6
Continuous
 62
     7
370
    30
100
AcDbLine
 10
306.1049425549
 20
251.7001528088
 30
0.0
 11
305.0543846137
 21
251.7001528088
 31
0.0
  0
LINE
  5
1CF
330
1F
100
AcDbEntity
  8
0
  6
Continuous
 62
     7
370
    30
100
AcDbLine
 10
249.8924819327
 20
253.1001529917
 30
0.0
 11
250.9554991073
 21
253.1001529917
 31
0.0
  0
SPLINE
  5
1D0
330
1F
100
AcDbEntity
  8
0
  6
Continuous
 62
     7
370
    30
100
AcDbSpline
210
0.0
220
0.0
230
1.0
 70
    24
 71
     3
 72
     8
 73
     4
 74
     0
 42
0.000000001
 43
0.00000001
 40
0.0
 40
0.0
 40
0.0
 40
0.0
 40
1.0
 40
1.0
 40
1.0
 40
1.0
 10
250.9554992020996
 20
251.7001529987759
 30
0.0
 10
250.9554992020996
 20
252.1674631123834
 30
0.0
 10
250.9554992020996
 20
252.6344096807813
 30
0.0
 10
250.9554992020996
 20
253.1001529987758
 30
0.0
  0
LINE
  5
1D1
330
1F
100
AcDbEntity
  8
0
  6
Continuous
 62
     7
370
    30
100
AcDbLine
 10
250.9554991073
 20
251.7001528088
 30
0.0
 11
249.8922975308
 21
251.7001528088
 31
0.0
  0
LINE
  5
1D2
330
1F
100
AcDbEntity
  8
0
  6
Continuous
 62
     7
370
    30
100
AcDbLine
 10
305.0543846137
 20
254.3001530487
 30
0.0
 11
305.0543846137
 21
253.1001529917
 31
0.0
  0
LINE
  5
1D3
330
1F
100
AcDbEntity
  8
0
  6
Continuous
 62
     7
370
    30
100
AcDbLine
 10
305.0543846137
 20
254.3001530487
 30
0.0
 11
306.1049425549
 21
254.3001530487
 31
0.0
  0
LINE
  5
1D4
330
1F
100
AcDbEntity
  8
0
  6
Continuous
 62
     7
370
    30
100
AcDbLine
 10
250.9554991073
 20
253.1001529917
 30
0.0
 11
250.9554991073
 21
254.3001530487
 31
0.0
  0
LINE
  5
1D5
330
1F
100
AcDbEntity
  8
0
  6
Continuous
 62
     7
370
    30
100
AcDbLine
 10
250.9554991073
 20
254.3001530487
 30
0.0
 11
249.9049411661
 21
254.3001530487
 31
0.0
  0
LINE
  5
1D6
330
1F
100
AcDbEntity
  8
0
  6
Continuous
 62
     7
370
    30
100
AcDbLine
 10
279.3549418955
 20
58.8311505983
 30
0.0
 11
279.3549418955
 21
61.3311506588
 31
0.0
  0
LINE
  5
1D7
330
1F
100
AcDbEntity
  8
0
  6
Continuous
 62
     7
370
    30
100
AcDbLine
 10
276.6549418254
 20
61.3311506588
 30
0.0
 11
276.6549418254
 21
58.8311505983
 31
0.0
  0
LINE
  5
1D8
330
1F
100
AcDbEntity
  8
0
  6
Continuous
 62
     7
370
    30
100
AcDbLine
 10
279.3549418955
 20
61.3311506588
 30
0.0
 11
278.8549418717
 21
61.8311507408
 31
0.0
  0
LINE
  5
1D9
330
1F
100
AcDbEntity
  8
0
  6
Continuous
 62
     7
370
    30
100
AcDbLine
 10
277.1549418492
 20
61.8311507408
 30
0.0
 11
276.6549418254
 21
61.3311506588
 31
0.0
  0
ARC
  5
1DA
330
1F
100
AcDbEntity
  8
0
  6
Continuous
 62
     7
370
    30
100
AcDbCircle
 10
254.6049418605
 20
59.8311505508
 30
0.0
 40
1.000000000000044
100
AcDbArc
 50
208.0724869359
 51
270.0
  0
ARC
  5
1DB
330
1F
100
AcDbEntity
  8
0
  6
Continuous
 62
     7
370
    30
100
AcDbCircle
 10
301.4049418605
 20
59.8311505508
 30
0.0
 40
1.0
100
AcDbArc
 50
270.0
 51
331.9275130641
  0
LINE
  5
1DC
330
1F
100
AcDbEntity
  8
0
  6
Continuous
 62
     7
370
    30
100
AcDbLine
 10
253.7225888616
 20
59.3605623128
 30
0.0
 11
252.4049425072
 21
61.8311507408
 31
0.0
  0
LINE
  5
1DD
330
1F
100
AcDbEntity
  8
0
  6
Continuous
 62
     7
370
    30
100
AcDbLine
 10
303.6049412138
 20
61.8311507408
 30
0.0
 11
302.2872948593
 21
59.3605623128
 31
0.0
  0
LINE
  5
1DE
330
1F
100
AcDbEntity
  8
0
  6
Continuous
 62
     7
370
    30
100
AcDbLine
 10
309.0049413538
 20
58.8311505983
 30
0.0
 11
307.4049422092
 21
61.8311507408
 31
0.0
  0
LINE
  5
1DF
330
1F
100
AcDbEntity
  8
0
  6
Continuous
 62
     7
370
    30
100
AcDbLine
 10
248.6049415118
 20
61.8311507408
 30
0.0
 11
247.0049423671
 21
58.8311505983
 31
0.0
  0
LINE
  5
1E0
330
1F
100
AcDbEntity
  8
0
  6
Continuous
 62
     7
370
    30
100
AcDbLine
 10
252.004941324
 20
56.8311505033
 30
0.0
 11
247.0049423671
 21
56.8311505033
 31
0.0
  0
LINE
  5
1E1
330
1F
100
AcDbEntity
  8
0
  6
Continuous
 62
     7
370
    30
100
AcDbLine
 10
247.0049423671
 20
56.8311505033
 30
0.0
 11
247.0049423671
 21
58.8311505983
 31
0.0
  0
LINE
  5
1E2
330
1F
100
AcDbEntity
  8
0
  6
Continuous
 62
     7
370
    30
100
AcDbLine
 10
247.0049423671
 20
58.8311505983
 30
0.0
 11
252.004941324
 21
58.8311505983
 31
0.0
  0
LINE
  5
1E3
330
1F
100
AcDbEntity
  8
0
  6
Continuous
 62
     7
370
    30
100
AcDbLine
 10
252.004941324
 20
58.8311505983
 30
0.0
 11
304.0049423969
 21
58.8311505983
 31
0.0
  0
LINE
  5
1E4
330
1F
100
AcDbEntity
  8
0
  6
Continuous
 62
     7
370
    30
100
AcDbLine
 10
252.004941324
 20
56.8311505033
 30
0.0
 11
304.0049423969
 21
56.8311505033
 31
0.0
  0
LINE
  5
1E5
330
1F
100
AcDbEntity
  8
0
  6
Continuous
 62
     7
370
    30
100
AcDbLine
 10
309.0049413538
 20
58.8311505983
 30
0.0
 11
309.0049413538
 21
56.8311505033
 31
0.0
  0
LINE
  5
1E6
330
1F
100
AcDbEntity
  8
0
  6
Continuous
 62
     7
370
    30
100
AcDbLine
 10
304.0049423969
 20
58.8311505983
 30
0.0
 11
309.0049413538
 21
58.8311505983
 31
0.0
  0
LINE
  5
1E7
330
1F
100
AcDbEntity
  8
0
  6
Continuous
 62
     7
370
    30
100
AcDbLine
 10
309.0049413538
 20
56.8311505033
 30
0.0
 11
304.0049423969
 21
56.8311505033
 31
0.0
  0
LINE
  5
1E8
330
1F
100
AcDbEntity
  8
0
  6
Continuous
 62
     7
370
    30
100
AcDbLine
 10
279.3549418955
 20
61.3311506588
 30
0.0
 11
276.6549418254
 21
61.3311506588
 31
0.0
  0
LINE
  5
1E9
330
1F
100
AcDbEntity
  8
0
  6
Continuous
 62
     7
370
    30
100
AcDbLine
 10
277.1549418492
 20
61.8311507408
 30
0.0
 11
278.8549418717
 21
61.8311507408
 31
0.0
  0
SPLINE
  5
1EA
330
1F
100
AcDbEntity
  8
0
  6
Continuous
 62
     7
370
    30
100
AcDbSpline
210
0.0
220
0.0
230
1.0
 70
    24
 71
     3
 72
    12
 73
     8
 74
     0
 42
0.000000001
 43
0.00000001
 40
0.0
 40
0.0
 40
0.0
 40
0.0
 40
0.5000000000000083
 40
0.5000000000000083
 40
0.7500000000000041
 40
0.7500000000000041
 40
1.0
 40
1.0
 40
1.0
 40
1.0
 10
251.1049418604654
 20
59.3605623155014
 30
0.0
 10
251.1049418604654
 20
59.19976382017536
 30
0.0
 10
251.1049418604654
 20
59.0657619504699
 30
0.0
 10
251.1049418604654
 20
58.92626934745654
 30
0.0
 10
251.1049418604654
 20
58.89113992032865
 30
0.0
 10
251.1049418604654
 20
58.84337798711011
 30
0.0
 10
251.1049418604654
 20
58.83115055079552
 30
0.0
 10
251.1049418604654
 20
58.83115055079552
 30
0.0
  0
SPLINE
  5
1EB
330
1F
100
AcDbEntity
  8
0
  6
Continuous
 62
     7
370
    30
100
AcDbSpline
210
0.0
220
0.0
230
1.0
 70
    24
 71
     3
 72
    12
 73
     8
 74
     0
 42
0.000000001
 43
0.00000001
 40
0.0
 40
0.0
 40
0.0
 40
0.0
 40
0.5000000000000083
 40
0.5000000000000083
 40
0.7500000000000041
 40
0.7500000000000041
 40
1.0
 40
1.0
 40
1.0
 40
1.0
 10
304.9049418604653
 20
59.3605623155014
 30
0.0
 10
304.9049418604654
 20
59.19976382017536
 30
0.0
 10
304.9049418604653
 20
59.0657619504699
 30
0.0
 10
304.9049418604653
 20
58.92626934745653
 30
0.0
 10
304.9049418604653
 20
58.89113992032865
 30
0.0
 10
304.9049418604654
 20
58.84337798711011
 30
0.0
 10
304.9049418604653
 20
58.83115055079552
 30
0.0
 10
304.9049418604653
 20
58.83115055079552
 30
0.0
  0
ARC
  5
1EC
330
1F
100
AcDbEntity
  8
0
  6
Continuous
 62
     7
370
    30
100
AcDbCircle
 10
309.0374991759
 20
59.678010887
 30
0.0
 40
0.8474859056952899
100
AcDbArc
 50
201.9981600487
 51
267.7983292211
  0
SPLINE
  5
1ED
330
1F
100
AcDbEntity
  8
0
  6
Continuous
 62
     7
370
    30
100
AcDbSpline
210
0.0
220
0.0
230
1.0
 70
    24
 71
     3
 72
    10
 73
     6
 74
     0
 42
0.000000001
 43
0.00000001
 40
0.0
 40
0.0
 40
0.0
 40
0.0
 40
0.5
 40
0.5
 40
1.0
 40
1.0
 40
1.0
 40
1.0
 10
306.1049418604654
 20
58.83115055079551
 30
0.0
 10
306.1049418604654
 20
58.83115055079552
 30
0.0
 10
306.1049418604654
 20
58.88119155991613
 30
0.0
 10
306.1049418604654
 20
59.06548301233867
 30
0.0
 10
306.1049418604654
 20
59.2014622634935
 30
0.0
 10
306.1049418604654
 20
59.36056231550045
 30
0.0
  0
SPLINE
  5
1EE
330
1F
100
AcDbEntity
  8
0
  6
Continuous
 62
     7
370
    30
100
AcDbSpline
210
0.0
220
0.0
230
1.0
 70
    24
 71
     3
 72
    10
 73
     6
 74
     0
 42
0.000000001
 43
0.00000001
 40
0.0
 40
0.0
 40
0.0
 40
0.0
 40
0.5
 40
0.5
 40
1.0
 40
1.0
 40
1.0
 40
1.0
 10
249.9049418604654
 20
58.83115055079551
 30
0.0
 10
249.9049418604654
 20
58.83115055079552
 30
0.0
 10
249.9049418604654
 20
58.88119155991613
 30
0.0
 10
249.9049418604654
 20
59.06548301233867
 30
0.0
 10
249.9049418604654
 20
59.2014622634935
 30
0.0
 10
249.9049418604654
 20
59.36056231550045
 30
0.0
  0
LINE
  5
1EF
330
1F
100
AcDbEntity
  8
0
  6
Continuous
 62
     7
370
    30
100
AcDbLine
 10
251.1049409902
 20
61.8311507408
 30
0.0
 11
252.4049425072
 21
61.8311507408
 31
0.0
  0
SPLINE
  5
1F0
330
1F
100
AcDbEntity
  8
0
  6
Continuous
 62
     7
370
    30
100
AcDbSpline
210
0.0
220
0.0
230
1.0
 70
    24
 71
     3
 72
     8
 73
     4
 74
     0
 42
0.000000001
 43
0.00000001
 40
0.0
 40
0.0
 40
0.0
 40
0.0
 40
1.0
 40
1.0
 40
1.0
 40
1.0
 10
251.1049418604654
 20
59.36056231550141
 30
0.0
 10
251.1049418604654
 20
60.18651231159435
 30
0.0
 10
251.1049418604654
 20
61.01183161512501
 30
0.0
 10
251.1049418604654
 20
61.83115055079551
 30
0.0
  0
LINE
  5
1F1
330
1F
100
AcDbEntity
  8
0
  6
Continuous
 62
     7
370
    30
100
AcDbLine
 10
303.6049412138
 20
61.8311507408
 30
0.0
 11
304.9049427307
 21
61.8311507408
 31
0.0
  0
SPLINE
  5
1F2
330
1F
100
AcDbEntity
  8
0
  6
Continuous
 62
     7
370
    30
100
AcDbSpline
210
0.0
220
0.0
230
1.0
 70
    24
 71
     3
 72
     8
 73
     4
 74
     0
 42
0.000000001
 43
0.00000001
 40
0.0
 40
0.0
 40
0.0
 40
0.0
 40
1.0
 40
1.0
 40
1.0
 40
1.0
 10
304.9049418604653
 20
59.3605623155014
 30
0.0
 10
304.9049418604653
 20
60.18651231159434
 30
0.0
 10
304.9049418604653
 20
61.01183161512501
 30
0.0
 10
304.9049418604653
 20
61.83115055079551
 30
0.0
  0
SPLINE
  5
1F3
330
1F
100
AcDbEntity
  8
0
  6
Continuous
 62
     7
370
    30
100
AcDbSpline
210
0.0
220
0.0
230
1.0
 70
     8
 71
     3
 72
    12
 73
     8
 74
     0
 42
0.000000001
 43
0.00000001
 40
0.0
 40
0.0
 40
0.0
 40
0.0
 40
0.2500000000000023
 40
0.2500000000000023
 40
0.5000000000000047
 40
0.5000000000000047
 40
1.0
 40
1.0
 40
1.0
 40
1.0
 10
308.2517137399489
 20
59.3605623155014
 30
0.0
 10
308.3364273062441
 20
59.3605623155014
 30
0.0
 10
308.4171569389471
 20
59.34332926267206
 30
0.0
 10
308.5682675976548
 20
59.28514301240174
 30
0.0
 10
308.6389461461584
 20
59.2438061668664
 30
0.0
 10
308.829648460135
 20
59.09757444058142
 30
0.0
 10
308.9307287381018
 20
58.9703001552272
 30
0.0
 10
309.0049418604654
 20
58.83115055079551
 30
0.0
  0
LINE
  5
1F4
330
1F
100
AcDbEntity
  8
0
  6
Continuous
 62
     7
370
    30
100
AcDbLine
 10
306.1049425549
 20
61.8311507408
 30
0.0
 11
307.4049422092
 21
61.8311507408
 31
0.0
  0
SPLINE
  5
1F5
330
1F
100
AcDbEntity
  8
0
  6
Continuous
 62
     7
370
    30
100
AcDbSpline
210
0.0
220
0.0
230
1.0
 70
    24
 71
     3
 72
     8
 73
     4
 74
     0
 42
0.000000001
 43
0.00000001
 40
0.0
 40
0.0
 40
0.0
 40
0.0
 40
1.0
 40
1.0
 40
1.0
 40
1.0
 10
306.1049418604654
 20
61.83115055079552
 30
0.0
 10
306.1049418604654
 20
61.0119867942659
 30
0.0
 10
306.1049418604654
 20
60.18653341692351
 30
0.0
 10
306.1049418604654
 20
59.36056231550081
 30
0.0
  0
LINE
  5
1F6
330
1F
100
AcDbEntity
  8
0
  6
Continuous
 62
     7
370
    30
100
AcDbLine
 10
248.6049415118
 20
61.8311507408
 30
0.0
 11
249.9049411661
 21
61.8311507408
 31
0.0
  0
SPLINE
  5
1F7
330
1F
100
AcDbEntity
  8
0
  6
Continuous
 62
     7
370
    30
100
AcDbSpline
210
0.0
220
0.0
230
1.0
 70
    24
 71
     3
 72
     8
 73
     4
 74
     0
 42
0.000000001
 43
0.00000001
 40
0.0
 40
0.0
 40
0.0
 40
0.0
 40
1.0
 40
1.0
 40
1.0
 40
1.0
 10
249.9049418604654
 20
61.83115055079552
 30
0.0
 10
249.9049418604654
 20
61.01198679426591
 30
0.0
 10
249.9049418604654
 20
60.18653341692352
 30
0.0
 10
249.9049418604654
 20
59.36056231550081
 30
0.0
  0
LINE
  5
1F8
330
1F
100
AcDbEntity
  8
0
  6
Continuous
 62
     7
370
    30
100
AcDbLine
 10
305.0543846137
 20
59.2311505009
 30
0.0
 11
305.0543846137
 21
58.8311505983
 31
0.0
  0
LINE
  5
1F9
330
1F
100
AcDbEntity
  8
0
  6
Continuous
 62
     7
370
    30
100
AcDbLine
 10
250.9554991073
 20
59.2311505009
 30
0.0
 11
250.9554991073
 21
58.8311505983
 31
0.0
  0
LINE
  5
1FA
330
1F
100
AcDbEntity
  8
0
  6
Continuous
 62
     7
370
    30
100
AcDbLine
 10
306.1174017883
 20
60.4311505579
 30
0.0
 11
305.0543846137
 21
60.4311505579
 31
0.0
  0
SPLINE
  5
1FB
330
1F
100
AcDbEntity
  8
0
  6
Continuous
 62
     7
370
    30
100
AcDbSpline
210
0.0
220
0.0
230
1.0
 70
    24
 71
     3
 72
     8
 73
     4
 74
     0
 42
0.000000001
 43
0.00000001
 40
0.0
 40
0.0
 40
0.0
 40
0.0
 40
1.0
 40
1.0
 40
1.0
 40
1.0
 10
305.0543845188312
 20
61.83115055079552
 30
0.0
 10
305.0543845188312
 20
61.36384478935537
 30
0.0
 10
305.0543845188312
 20
60.896907742743
 30
0.0
 10
305.0543845188312
 20
60.43115055079546
 30
0.0
  0
LINE
  5
1FC
330
1F
100
AcDbEntity
  8
0
  6
Continuous
 62
     7
370
    30
100
AcDbLine
 10
305.0543846137
 20
61.8311507408
 30
0.0
 11
306.1049425549
 21
61.8311507408
 31
0.0
  0
SPLINE
  5
1FD
330
1F
100
AcDbEntity
  8
0
  6
Continuous
 62
     7
370
    30
100
AcDbSpline
210
0.0
220
0.0
230
1.0
 70
    24
 71
     3
 72
     8
 73
     4
 74
     0
 42
0.000000001
 43
0.00000001
 40
0.0
 40
0.0
 40
0.0
 40
0.0
 40
1.0
 40
1.0
 40
1.0
 40
1.0
 10
250.9554992020996
 20
60.43115055079566
 30
0.0
 10
250.9554992020996
 20
60.89691789750631
 30
0.0
 10
250.9554992020996
 20
61.36384542063899
 30
0.0
 10
250.9554992020996
 20
61.83115055079552
 30
0.0
  0
LINE
  5
1FE
330
1F
100
AcDbEntity
  8
0
  6
Continuous
 62
     7
370
    30
100
AcDbLine
 10
250.9554991073
 20
60.4311505579
 30
0.0
 11
249.9036689794
 21
60.4311505579
 31
0.0
  0
LINE
  5
1FF
330
1F
100
AcDbEntity
  8
0
  6
Continuous
 62
     7
370
    30
100
AcDbLine
 10
249.8988484538
 20
61.8311507408
 30
0.0
 11
250.9554991073
 21
61.8311507408
 31
0.0
  0
LINE
  5
200
330
1F
100
AcDbEntity
  8
0
  6
Continuous
 62
     7
370
    30
100
AcDbLine
 10
250.9554991073
 20
59.2311505009
 30
0.0
 11
250.9554991073
 21
60.4311505579
 31
0.0
  0
LINE
  5
201
330
1F
100
AcDbEntity
  8
0
  6
Continuous
 62
     7
370
    30
100
AcDbLine
 10
250.9554991073
 20
59.2311505009
 30
0.0
 11
249.9049411661
 21
59.2311505009
 31
0.0
  0
LINE
  5
202
330
1F
100
AcDbEntity
  8
0
  6
Continuous
 62
     7
370
    30
100
AcDbLine
 10
305.0543846137
 20
60.4311505579
 30
0.0
 11
305.0543846137
 21
59.2311505009
 31
0.0
  0
LINE
  5
203
330
1F
100
AcDbEntity
  8
0
  6
Continuous
 62
     7
370
    30
100
AcDbLine
 10
305.0543846137
 20
59.2311505009
 30
0.0
 11
306.1049425549
 21
59.2311505009
 31
0.0
  0
LINE
  5
204
330
1F
100
AcDbEntity
  8
0
  6
Continuous
 62
     7
370
    30
100
AcDbLine
 10
341.5960013347
 20
108.7195424127
 30
0.0
 11
339.1254129067
 21
107.4018960583
 31
0.0
  0
LINE
  5
205
330
1F
100
AcDbEntity
  8
0
  6
Continuous
 62
     7
370
    30
100
AcDbLine
 10
339.1254129067
 20
191.6018983114
 30
0.0
 11
341.5960013347
 21
190.2842519569
 31
0.0
  0
ARC
  5
206
330
1F
100
AcDbEntity
  8
0
  6
Continuous
 62
     7
370
    30
100
AcDbCircle
 10
341.1254130967
 20
109.6018971848
 30
0.0
 40
1.000000000000007
100
AcDbArc
 50
298.0724869359
 51
0.0
  0
ARC
  5
207
330
1F
100
AcDbEntity
  8
0
  6
Continuous
 62
     7
370
    30
100
AcDbCircle
 10
341.1254130967
 20
189.4018971848
 30
0.0
 40
1.000000000000007
100
AcDbArc
 50
0.0
 51
61.9275130641
  0
LINE
  5
208
330
1F
100
AcDbEntity
  8
0
  6
Continuous
 62
     7
370
    30
100
AcDbLine
 10
342.1254130492
 20
100.3518959272
 30
0.0
 11
339.6254129887
 21
100.3518959272
 31
0.0
  0
LINE
  5
209
330
1F
100
AcDbEntity
  8
0
  6
Continuous
 62
     7
370
    30
100
AcDbLine
 10
339.6254129887
 20
97.6518986511
 30
0.0
 11
342.1254130492
 21
97.6518986511
 31
0.0
  0
LINE
  5
20A
330
1F
100
AcDbEntity
  8
0
  6
Continuous
 62
     7
370
    30
100
AcDbLine
 10
342.1254130492
 20
201.3518957185
 30
0.0
 11
339.6254129887
 21
201.3518957185
 31
0.0
  0
LINE
  5
20B
330
1F
100
AcDbEntity
  8
0
  6
Continuous
 62
     7
370
    30
100
AcDbLine
 10
339.6254129887
 20
198.6518984425
 30
0.0
 11
342.1254130492
 21
198.6518984425
 31
0.0
  0
LINE
  5
20C
330
1F
100
AcDbEntity
  8
0
  6
Continuous
 62
     7
370
    30
100
AcDbLine
 10
339.6254129887
 20
100.3518959272
 30
0.0
 11
339.1254129067
 21
99.8518986392
 31
0.0
  0
LINE
  5
20D
330
1F
100
AcDbEntity
  8
0
  6
Continuous
 62
     7
370
    30
100
AcDbLine
 10
339.1254129067
 20
98.1518959391
 30
0.0
 11
339.6254129887
 21
97.6518986511
 31
0.0
  0
LINE
  5
20E
330
1F
100
AcDbEntity
  8
0
  6
Continuous
 62
     7
370
    30
100
AcDbLine
 10
339.6254129887
 20
201.3518957185
 30
0.0
 11
339.1254129067
 21
200.8518984306
 31
0.0
  0
LINE
  5
20F
330
1F
100
AcDbEntity
  8
0
  6
Continuous
 62
     7
370
    30
100
AcDbLine
 10
339.1254129067
 20
199.1518957305
 30
0.0
 11
339.6254129887
 21
198.6518984425
 31
0.0
  0
LINE
  5
210
330
1F
100
AcDbEntity
  8
0
  6
Continuous
 62
     7
370
    30
100
AcDbLine
 10
342.1254130492
 20
105.5018974232
 30
0.0
 11
342.1254130492
 21
107.6373120534
 31
0.0
  0
SPLINE
  5
211
330
1F
100
AcDbEntity
  8
0
  6
Continuous
 62
     7
370
    30
100
AcDbSpline
210
0.0
220
0.0
230
1.0
 70
     8
 71
     3
 72
     8
 73
     4
 74
     0
 42
0.000000001
 43
0.00000001
 40
0.0
 40
0.0
 40
0.0
 40
0.0
 40
1.0
 40
1.0
 40
1.0
 40
1.0
 10
339.1254130966951
 20
103.6991215470904
 30
0.0
 10
339.9445768532248
 20
103.2386727133164
 30
0.0
 10
340.7700302305671
 20
102.7890689588177
 30
0.0
 10
341.5960013319898
 20
102.3406865630578
 30
0.0
  0
LINE
  5
212
330
1F
100
AcDbEntity
  8
0
  6
Continuous
 62
     7
370
    30
100
AcDbLine
 10
339.1254129067
 20
103.6991214144
 30
0.0
 11
339.1254129067
 21
107.4018960583
 31
0.0
  0
LINE
  5
213
330
1F
100
AcDbEntity
  8
0
  6
Continuous
 62
     7
370
    30
100
AcDbLine
 10
342.1254130492
 20
103.3664827931
 30
0.0
 11
342.1254130492
 21
105.5018974232
 31
0.0
  0
SPLINE
  5
214
330
1F
100
AcDbEntity
  8
0
  6
Continuous
 62
     7
370
    30
100
AcDbSpline
210
0.0
220
0.0
230
1.0
 70
     8
 71
     3
 72
     8
 73
     4
 74
     0
 42
0.000000001
 43
0.00000001
 40
0.0
 40
0.0
 40
0.0
 40
0.0
 40
1.0
 40
1.0
 40
1.0
 40
1.0
 10
339.1254130966951
 20
195.3046728225544
 30
0.0
 10
339.9445768532245
 20
195.7651216563284
 30
0.0
 10
340.7700302305668
 20
196.2147254108269
 30
0.0
 10
341.5960013319893
 20
196.6631078065867
 30
0.0
  0
LINE
  5
215
330
1F
100
AcDbEntity
  8
0
  6
Continuous
 62
     7
370
    30
100
AcDbLine
 10
339.1254129067
 20
191.6018983114
 30
0.0
 11
339.1254129067
 21
195.3046729552
 31
0.0
  0
LINE
  5
216
330
1F
100
AcDbEntity
  8
0
  6
Continuous
 62
     7
370
    30
100
AcDbLine
 10
342.1254130492
 20
193.5018969464
 30
0.0
 11
342.1254130492
 21
195.6373115766
 31
0.0
  0
LINE
  5
217
330
1F
100
AcDbEntity
  8
0
  6
Continuous
 62
     7
370
    30
100
AcDbLine
 10
342.1254130492
 20
191.3664823162
 30
0.0
 11
342.1254130492
 21
193.5018969464
 31
0.0
  0
LINE
  5
218
330
1F
100
AcDbEntity
  8
0
  6
Continuous
 62
     7
370
    30
100
AcDbLine
 10
342.1254130492
 20
205.5018989134
 30
0.0
 11
344.1254131442
 21
205.5018989134
 31
0.0
  0
LINE
  5
219
330
1F
100
AcDbEntity
  8
0
  6
Continuous
 62
     7
370
    30
100
AcDbLine
 10
344.1254131442
 20
205.5018989134
 30
0.0
 11
344.1254131442
 21
200.5018962311
 31
0.0
  0
LINE
  5
21A
330
1F
100
AcDbEntity
  8
0
  6
Continuous
 62
     7
370
    30
100
AcDbLine
 10
342.1254130492
 20
200.5018962311
 30
0.0
 11
342.1254130492
 21
205.5018989134
 31
0.0
  0
LINE
  5
21B
330
1F
100
AcDbEntity
  8
0
  6
Continuous
 62
     7
370
    30
100
AcDbLine
 10
342.1254130492
 20
107.6373120534
 30
0.0
 11
342.1254130492
 21
191.3664823162
 31
0.0
  0
LINE
  5
21C
330
1F
100
AcDbEntity
  8
0
  6
Continuous
 62
     7
370
    30
100
AcDbLine
 10
342.1254130492
 20
195.6373115766
 30
0.0
 11
342.1254130492
 21
200.5018962311
 31
0.0
  0
LINE
  5
21D
330
1F
100
AcDbEntity
  8
0
  6
Continuous
 62
     7
370
    30
100
AcDbLine
 10
344.1254131442
 20
98.5018981385
 30
0.0
 11
344.1254131442
 21
200.5018962311
 31
0.0
  0
LINE
  5
21E
330
1F
100
AcDbEntity
  8
0
  6
Continuous
 62
     7
370
    30
100
AcDbLine
 10
342.1254130492
 20
98.5018981385
 30
0.0
 11
342.1254130492
 21
103.3664827931
 31
0.0
  0
LINE
  5
21F
330
1F
100
AcDbEntity
  8
0
  6
Continuous
 62
     7
370
    30
100
AcDbLine
 10
344.1254131442
 20
98.5018981385
 30
0.0
 11
344.1254131442
 21
93.5018954563
 31
0.0
  0
LINE
  5
220
330
1F
100
AcDbEntity
  8
0
  6
Continuous
 62
     7
370
    30
100
AcDbLine
 10
344.1254131442
 20
93.5018954563
 30
0.0
 11
342.1254130492
 21
93.5018954563
 31
0.0
  0
LINE
  5
221
330
1F
100
AcDbEntity
  8
0
  6
Continuous
 62
     7
370
    30
100
AcDbLine
 10
342.1254130492
 20
93.5018954563
 30
0.0
 11
342.1254130492
 21
98.5018981385
 31
0.0
  0
SPLINE
  5
222
330
1F
100
AcDbEntity
  8
0
  6
Continuous
 62
     7
370
    30
100
AcDbSpline
210
0.0
220
0.0
230
1.0
 70
     8
 71
     3
 72
    10
 73
     6
 74
     0
 42
0.000000001
 43
0.00000001
 40
0.0
 40
0.0
 40
0.0
 40
0.0
 40
0.5
 40
0.5
 40
1.0
 40
1.0
 40
1.0
 40
1.0
 10
342.1254130966951
 20
101.4460372266878
 30
0.0
 10
342.1254130966951
 20
101.6274380840703
 30
0.0
 10
342.0753720875745
 20
101.8104173782124
 30
0.0
 10
341.891080635152
 20
102.1224018771572
 30
0.0
 10
341.7551013839972
 20
102.2543183325447
 30
0.0
 10
341.5960013319902
 20
102.3406865630575
 30
0.0
  0
SPLINE
  5
223
330
1F
100
AcDbEntity
  8
0
  6
Continuous
 62
     7
370
    30
100
AcDbSpline
210
0.0
220
0.0
230
1.0
 70
     8
 71
     3
 72
    10
 73
     6
 74
     0
 42
0.000000001
 43
0.00000001
 40
0.0
 40
0.0
 40
0.0
 40
0.0
 40
0.5
 40
0.5
 40
1.0
 40
1.0
 40
1.0
 40
1.0
 10
342.1254130966951
 20
197.5577571429575
 30
0.0
 10
342.1254130966952
 20
197.3764247495708
 30
0.0
 10
342.0763968169318
 20
197.195562719958
 30
0.0
 10
341.8913560647607
 20
196.8814109397362
 30
0.0
 10
341.7559668923393
 20
196.7499458824774
 30
0.0
 10
341.5960013319893
 20
196.6631078065867
 30
0.0
  0
LINE
  5
224
330
1F
100
AcDbEntity
  8
0
  6
Continuous
 62
     7
370
    30
100
AcDbLine
 10
339.6254129887
 20
99.0018954265
 30
0.0
 11
339.6254129887
 21
97.6518986511
 31
0.0
  0
LINE
  5
225
330
1F
100
AcDbEntity
  8
0
  6
Continuous
 62
     7
370
    30
100
AcDbLine
 10
339.6254129887
 20
100.3518959272
 30
0.0
 11
339.6254129887
 21
99.0018954265
 31
0.0
  0
LINE
  5
226
330
1F
100
AcDbEntity
  8
0
  6
Continuous
 62
     7
370
    30
100
AcDbLine
 10
339.6254129887
 20
200.0018989432
 30
0.0
 11
339.6254129887
 21
198.6518984425
 31
0.0
  0
LINE
  5
227
330
1F
100
AcDbEntity
  8
0
  6
Continuous
 62
     7
370
    30
100
AcDbLine
 10
339.6254129887
 20
201.3518957185
 30
0.0
 11
339.6254129887
 21
200.0018989432
 31
0.0
  0
LINE
  5
228
330
1F
100
AcDbEntity
  8
0
  6
Continuous
 62
     7
370
    30
100
AcDbLine
 10
339.1254129067
 20
99.0018954265
 30
0.0
 11
339.1254129067
 21
99.8518986392
 31
0.0
  0
LINE
  5
229
330
1F
100
AcDbEntity
  8
0
  6
Continuous
 62
     7
370
    30
100
AcDbLine
 10
339.1254129067
 20
98.1518959391
 30
0.0
 11
339.1254129067
 21
99.0018954265
 31
0.0
  0
LINE
  5
22A
330
1F
100
AcDbEntity
  8
0
  6
Continuous
 62
     7
370
    30
100
AcDbLine
 10
339.1254129067
 20
200.0018989432
 30
0.0
 11
339.1254129067
 21
200.8518984306
 31
0.0
  0
LINE
  5
22B
330
1F
100
AcDbEntity
  8
0
  6
Continuous
 62
     7
370
    30
100
AcDbLine
 10
339.1254129067
 20
199.1518957305
 30
0.0
 11
339.1254129067
 21
200.0018989432
 31
0.0
  0
LINE
  5
22C
330
1F
100
AcDbEntity
  8
0
  6
Continuous
 62
     7
370
    30
100
AcDbLine
 10
208.8692933356
 20
107.4018960583
 30
0.0
 11
206.3987049077
 21
108.7195424127
 31
0.0
  0
LINE
  5
22D
330
1F
100
AcDbEntity
  8
0
  6
Continuous
 62
     7
370
    30
100
AcDbLine
 10
206.3987049077
 20
190.2842519569
 30
0.0
 11
208.8692933356
 21
191.6018983114
 31
0.0
  0
ARC
  5
22E
330
1F
100
AcDbEntity
  8
0
  6
Continuous
 62
     7
370
    30
100
AcDbCircle
 10
206.8692931457
 20
189.4018971848
 30
0.0
 40
1.0
100
AcDbArc
 50
118.0724869359
 51
180.0
  0
ARC
  5
22F
330
1F
100
AcDbEntity
  8
0
  6
Continuous
 62
     7
370
    30
100
AcDbCircle
 10
206.8692931457
 20
109.6018971848
 30
0.0
 40
1.0
100
AcDbArc
 50
180.0
 51
241.9275130641
  0
LINE
  5
230
330
1F
100
AcDbEntity
  8
0
  6
Continuous
 62
     7
370
    30
100
AcDbLine
 10
205.8692931932
 20
97.6518986511
 30
0.0
 11
208.3692932537
 21
97.6518986511
 31
0.0
  0
LINE
  5
231
330
1F
100
AcDbEntity
  8
0
  6
Continuous
 62
     7
370
    30
100
AcDbLine
 10
208.3692932537
 20
100.3518959272
 30
0.0
 11
205.8692931932
 21
100.3518959272
 31
0.0
  0
LINE
  5
232
330
1F
100
AcDbEntity
  8
0
  6
Continuous
 62
     7
370
    30
100
AcDbLine
 10
205.8692931932
 20
198.6518984425
 30
0.0
 11
208.3692932537
 21
198.6518984425
 31
0.0
  0
LINE
  5
233
330
1F
100
AcDbEntity
  8
0
  6
Continuous
 62
     7
370
    30
100
AcDbLine
 10
208.3692932537
 20
201.3518957185
 30
0.0
 11
205.8692931932
 21
201.3518957185
 31
0.0
  0
LINE
  5
234
330
1F
100
AcDbEntity
  8
0
  6
Continuous
 62
     7
370
    30
100
AcDbLine
 10
208.3692932537
 20
198.6518984425
 30
0.0
 11
208.8692933356
 21
199.1518957305
 31
0.0
  0
LINE
  5
235
330
1F
100
AcDbEntity
  8
0
  6
Continuous
 62
     7
370
    30
100
AcDbLine
 10
208.8692933356
 20
200.8518984306
 30
0.0
 11
208.3692932537
 21
201.3518957185
 31
0.0
  0
LINE
  5
236
330
1F
100
AcDbEntity
  8
0
  6
Continuous
 62
     7
370
    30
100
AcDbLine
 10
208.3692932537
 20
97.6518986511
 30
0.0
 11
208.8692933356
 21
98.1518959391
 31
0.0
  0
LINE
  5
237
330
1F
100
AcDbEntity
  8
0
  6
Continuous
 62
     7
370
    30
100
AcDbLine
 10
208.8692933356
 20
99.8518986392
 30
0.0
 11
208.3692932537
 21
100.3518959272
 31
0.0
  0
SPLINE
  5
238
330
1F
100
AcDbEntity
  8
0
  6
Continuous
 62
     7
370
    30
100
AcDbSpline
210
0.0
220
0.0
230
1.0
 70
     8
 71
     3
 72
     8
 73
     4
 74
     0
 42
0.000000001
 43
0.00000001
 40
0.0
 40
0.0
 40
0.0
 40
0.0
 40
1.0
 40
1.0
 40
1.0
 40
1.0
 10
208.8692931456548
 20
103.6991215470904
 30
0.0
 10
208.0501293891252
 20
103.2386727133164
 30
0.0
 10
207.2246760117828
 20
102.7890689588177
 30
0.0
 10
206.3987049103601
 20
102.3406865630578
 30
0.0
  0
LINE
  5
239
330
1F
100
AcDbEntity
  8
0
  6
Continuous
 62
     7
370
    30
100
AcDbLine
 10
208.8692933356
 20
107.4018960583
 30
0.0
 11
208.8692933356
 21
103.6991214144
 31
0.0
  0
LINE
  5
23A
330
1F
100
AcDbEntity
  8
0
  6
Continuous
 62
     7
370
    30
100
AcDbLine
 10
205.8692931932
 20
105.5018974232
 30
0.0
 11
205.8692931932
 21
103.3664827931
 31
0.0
  0
LINE
  5
23B
330
1F
100
AcDbEntity
  8
0
  6
Continuous
 62
     7
370
    30
100
AcDbLine
 10
205.8692931932
 20
107.6373120534
 30
0.0
 11
205.8692931932
 21
105.5018974232
 31
0.0
  0
LINE
  5
23C
330
1F
100
AcDbEntity
  8
0
  6
Continuous
 62
     7
370
    30
100
AcDbLine
 10
205.8692931932
 20
193.5018969464
 30
0.0
 11
205.8692931932
 21
191.3664823162
 31
0.0
  0
SPLINE
  5
23D
330
1F
100
AcDbEntity
  8
0
  6
Continuous
 62
     7
370
    30
100
AcDbSpline
210
0.0
220
0.0
230
1.0
 70
     8
 71
     3
 72
     8
 73
     4
 74
     0
 42
0.000000001
 43
0.00000001
 40
0.0
 40
0.0
 40
0.0
 40
0.0
 40
1.0
 40
1.0
 40
1.0
 40
1.0
 10
208.8692931456548
 20
195.3046728225544
 30
0.0
 10
208.0501293891254
 20
195.7651216563284
 30
0.0
 10
207.2246760117832
 20
196.2147254108269
 30
0.0
 10
206.3987049103607
 20
196.6631078065867
 30
0.0
  0
LINE
  5
23E
330
1F
100
AcDbEntity
  8
0
  6
Continuous
 62
     7
370
    30
100
AcDbLine
 10
208.8692933356
 20
195.3046729552
 30
0.0
 11
208.8692933356
 21
191.6018983114
 31
0.0
  0
LINE
  5
23F
330
1F
100
AcDbEntity
  8
0
  6
Continuous
 62
     7
370
    30
100
AcDbLine
 10
205.8692931932
 20
195.6373115766
 30
0.0
 11
205.8692931932
 21
193.5018969464
 31
0.0
  0
LINE
  5
240
330
1F
100
AcDbEntity
  8
0
  6
Continuous
 62
     7
370
    30
100
AcDbLine
 10
203.8692930982
 20
200.5018962311
 30
0.0
 11
203.8692930982
 21
205.5018989134
 31
0.0
  0
LINE
  5
241
330
1F
100
AcDbEntity
  8
0
  6
Continuous
 62
     7
370
    30
100
AcDbLine
 10
203.8692930982
 20
205.5018989134
 30
0.0
 11
205.8692931932
 21
205.5018989134
 31
0.0
  0
LINE
  5
242
330
1F
100
AcDbEntity
  8
0
  6
Continuous
 62
     7
370
    30
100
AcDbLine
 10
205.8692931932
 20
205.5018989134
 30
0.0
 11
205.8692931932
 21
200.5018962311
 31
0.0
  0
LINE
  5
243
330
1F
100
AcDbEntity
  8
0
  6
Continuous
 62
     7
370
    30
100
AcDbLine
 10
205.8692931932
 20
93.5018954563
 30
0.0
 11
203.8692930982
 21
93.5018954563
 31
0.0
  0
LINE
  5
244
330
1F
100
AcDbEntity
  8
0
  6
Continuous
 62
     7
370
    30
100
AcDbLine
 10
203.8692930982
 20
93.5018954563
 30
0.0
 11
203.8692930982
 21
98.5018981385
 31
0.0
  0
LINE
  5
245
330
1F
100
AcDbEntity
  8
0
  6
Continuous
 62
     7
370
    30
100
AcDbLine
 10
205.8692931932
 20
98.5018981385
 30
0.0
 11
205.8692931932
 21
93.5018954563
 31
0.0
  0
LINE
  5
246
330
1F
100
AcDbEntity
  8
0
  6
Continuous
 62
     7
370
    30
100
AcDbLine
 10
205.8692931932
 20
119.1018966722
 30
0.0
 11
205.8692931932
 21
107.6373120534
 31
0.0
  0
LINE
  5
247
330
1F
100
AcDbEntity
  8
0
  6
Continuous
 62
     7
370
    30
100
AcDbLine
 10
205.8692931932
 20
103.3664827931
 30
0.0
 11
205.8692931932
 21
98.5018981385
 31
0.0
  0
LINE
  5
248
330
1F
100
AcDbEntity
  8
0
  6
Continuous
 62
     7
370
    30
100
AcDbLine
 10
205.8692931932
 20
200.5018962311
 30
0.0
 11
205.8692931932
 21
195.6373115766
 31
0.0
  0
LINE
  5
249
330
1F
100
AcDbEntity
  8
0
  6
Continuous
 62
     7
370
    30
100
AcDbLine
 10
205.8692931932
 20
191.3664823162
 30
0.0
 11
205.8692931932
 21
179.9018976974
 31
0.0
  0
LINE
  5
24A
330
1F
100
AcDbEntity
  8
0
  6
Continuous
 62
     7
370
    30
100
AcDbLine
 10
205.8692931932
 20
179.9018976974
 30
0.0
 11
205.4692931742
 21
179.5018965143
 31
0.0
  0
LINE
  5
24B
330
1F
100
AcDbEntity
  8
0
  6
Continuous
 62
     7
370
    30
100
AcDbLine
 10
205.4692931742
 20
179.5018965143
 30
0.0
 11
205.8692931932
 21
179.1018971938
 31
0.0
  0
LINE
  5
24C
330
1F
100
AcDbEntity
  8
0
  6
Continuous
 62
     7
370
    30
100
AcDbLine
 10
205.8692931932
 20
179.1018971938
 30
0.0
 11
205.8692931932
 21
119.9018971759
 31
0.0
  0
LINE
  5
24D
330
1F
100
AcDbEntity
  8
0
  6
Continuous
 62
     7
370
    30
100
AcDbLine
 10
205.8692931932
 20
119.9018971759
 30
0.0
 11
205.4692931742
 21
119.5018978554
 31
0.0
  0
LINE
  5
24E
330
1F
100
AcDbEntity
  8
0
  6
Continuous
 62
     7
370
    30
100
AcDbLine
 10
205.4692931742
 20
119.5018978554
 30
0.0
 11
205.8692931932
 21
119.1018966722
 31
0.0
  0
LINE
  5
24F
330
1F
100
AcDbEntity
  8
0
  6
Continuous
 62
     7
370
    30
100
AcDbLine
 10
203.8692930982
 20
200.5018962311
 30
0.0
 11
203.8692930982
 21
98.5018981385
 31
0.0
  0
SPLINE
  5
250
330
1F
100
AcDbEntity
  8
0
  6
Continuous
 62
     7
370
    30
100
AcDbSpline
210
0.0
220
0.0
230
1.0
 70
     8
 71
     3
 72
    10
 73
     6
 74
     0
 42
0.000000001
 43
0.00000001
 40
0.0
 40
0.0
 40
0.0
 40
0.0
 40
0.5
 40
0.5
 40
1.0
 40
1.0
 40
1.0
 40
1.0
 10
205.8692931456548
 20
197.5577571429574
 30
0.0
 10
205.8692931456547
 20
197.3764247495708
 30
0.0
 10
205.9183094254182
 20
197.195562719958
 30
0.0
 10
206.1033501775892
 20
196.8814109397362
 30
0.0
 10
206.2387393500107
 20
196.7499458824774
 30
0.0
 10
206.3987049103607
 20
196.6631078065867
 30
0.0
  0
SPLINE
  5
251
330
1F
100
AcDbEntity
  8
0
  6
Continuous
 62
     7
370
    30
100
AcDbSpline
210
0.0
220
0.0
230
1.0
 70
     8
 71
     3
 72
    10
 73
     6
 74
     0
 42
0.000000001
 43
0.00000001
 40
0.0
 40
0.0
 40
0.0
 40
0.0
 40
0.5
 40
0.5
 40
1.0
 40
1.0
 40
1.0
 40
1.0
 10
205.8692931456548
 20
101.4460372266878
 30
0.0
 10
205.8692931456548
 20
101.6274380840703
 30
0.0
 10
205.9193341547754
 20
101.8104173782124
 30
0.0
 10
206.103625607198
 20
102.1224018771572
 30
0.0
 10
206.2396048583528
 20
102.2543183325447
 30
0.0
 10
206.3987049103597
 20
102.3406865630575
 30
0.0
  0
LINE
  5
252
330
1F
100
AcDbEntity
  8
0
  6
Continuous
 62
     7
370
    30
100
AcDbLine
 10
208.3692932537
 20
97.6518986511
 30
0.0
 11
208.3692932537
 21
100.3518959272
 31
0.0
  0
LINE
  5
253
330
1F
100
AcDbEntity
  8
0
  6
Continuous
 62
     7
370
    30
100
AcDbLine
 10
208.3692932537
 20
198.6518984425
 30
0.0
 11
208.3692932537
 21
201.3518957185
 31
0.0
  0
LINE
  5
254
330
1F
100
AcDbEntity
  8
0
  6
Continuous
 62
     7
370
    30
100
AcDbLine
 10
208.8692933356
 20
200.8518984306
 30
0.0
 11
208.8692933356
 21
199.1518957305
 31
0.0
  0
LINE
  5
255
330
1F
100
AcDbEntity
  8
0
  6
Continuous
 62
     7
370
    30
100
AcDbLine
 10
208.8692933356
 20
99.8518986392
 30
0.0
 11
208.8692933356
 21
98.1518959391
 31
0.0
  0
LINE
  5
256
330
1F
100
AcDbEntity
  8
0
  6
Continuous
 62
     7
370
    30
100
AcDbLine
 10
205.8692931932
 20
119.1018966722
 30
0.0
 11
205.8692931932
 21
119.9018971759
 31
0.0
  0
LINE
  5
257
330
1F
100
AcDbEntity
  8
0
  6
Continuous
 62
     7
370
    30
100
AcDbLine
 10
205.8692931932
 20
179.1018971938
 30
0.0
 11
205.8692931932
 21
179.9018976974
 31
0.0
  0
LINE
  5
258
330
1F
100
AcDbEntity
  8
0
  6
Continuous
 62
     7
370
    30
100
AcDbLine
 10
152.1156220453
 20
195.4097745704
 30
0.0
 11
152.1156220453
 21
197.6018955695
 31
0.0
  0
ARC
  5
259
330
1F
100
AcDbEntity
  8
0
  6
Continuous
 62
     7
370
    30
100
AcDbCircle
 10
152.715621175
 20
193.5018971848
 30
0.0
 40
2.000000000000021
100
AcDbArc
 50
107.4576031237
 51
207.5423968763
  0
LINE
  5
25A
330
1F
100
AcDbEntity
  8
0
  6
Continuous
 62
     7
370
    30
100
AcDbLine
 10
149.3922187702
 20
191.0270226884
 30
0.0
 11
150.9422841238
 21
192.5770861792
 31
0.0
  0
LINE
  5
25B
330
1F
100
AcDbEntity
  8
0
  6
Continuous
 62
     7
370
    30
100
AcDbLine
 10
150.240746768
 20
190.1784946906
 30
0.0
 11
149.3922187702
 21
191.0270226884
 31
0.0
  0
LINE
  5
25C
330
1F
100
AcDbEntity
  8
0
  6
Continuous
 62
     7
370
    30
100
AcDbLine
 10
151.7908121215
 20
191.7285581815
 30
0.0
 11
150.240746768
 21
190.1784946906
 31
0.0
  0
ARC
  5
25D
330
1F
100
AcDbEntity
  8
0
  6
Continuous
 62
     7
370
    30
100
AcDbCircle
 10
152.715621175
 20
193.5018971848
 30
0.0
 40
2.000000000000021
100
AcDbArc
 50
242.4576031237
 51
72.5423968763
  0
LINE
  5
25E
330
1F
100
AcDbEntity
  8
0
  6
Continuous
 62
     7
370
    30
100
AcDbLine
 10
153.3156218694
 20
197.6018955695
 30
0.0
 11
153.3156218694
 21
195.4097745704
 31
0.0
  0
LINE
  5
25F
330
1F
100
AcDbEntity
  8
0
  6
Continuous
 62
     7
370
    30
100
AcDbLine
 10
152.1156220453
 20
197.6018955695
 30
0.0
 11
153.3156218694
 21
197.6018955695
 31
0.0
  0
LINE
  5
260
330
1F
100
AcDbEntity
  8
0
  6
Continuous
 62
     7
370
    30
100
AcDbLine
 10
98.3156203048
 20
103.5940197992
 30
0.0
 11
98.3156203048
 21
101.4018988001
 31
0.0
  0
ARC
  5
261
330
1F
100
AcDbEntity
  8
0
  6
Continuous
 62
     7
370
    30
100
AcDbCircle
 10
97.715621175
 20
105.5018971848
 30
0.0
 40
2.000000000000007
100
AcDbArc
 50
287.4576031237
 51
27.5423968763
  0
LINE
  5
262
330
1F
100
AcDbEntity
  8
0
  6
Continuous
 62
     7
370
    30
100
AcDbLine
 10
101.0390235798
 20
107.9767716813
 30
0.0
 11
99.4889582263
 21
106.4267081904
 31
0.0
  0
LINE
  5
263
330
1F
100
AcDbEntity
  8
0
  6
Continuous
 62
     7
370
    30
100
AcDbLine
 10
100.1904955821
 20
108.825299679
 30
0.0
 11
101.0390235798
 21
107.9767716813
 31
0.0
  0
LINE
  5
264
330
1F
100
AcDbEntity
  8
0
  6
Continuous
 62
     7
370
    30
100
AcDbLine
 10
98.6404302286
 20
107.2752361881
 30
0.0
 11
100.1904955821
 21
108.825299679
 31
0.0
  0
ARC
  5
265
330
1F
100
AcDbEntity
  8
0
  6
Continuous
 62
     7
370
    30
100
AcDbCircle
 10
97.715621175
 20
105.5018971848
 30
0.0
 40
2.000000000000007
100
AcDbArc
 50
62.4576031237
 51
252.5423968763
  0
LINE
  5
266
330
1F
100
AcDbEntity
  8
0
  6
Continuous
 62
     7
370
    30
100
AcDbLine
 10
97.1156204806
 20
101.4018988001
 30
0.0
 11
97.1156204806
 21
103.5940197992
 31
0.0
  0
LINE
  5
267
330
1F
100
AcDbEntity
  8
0
  6
Continuous
 62
     7
370
    30
100
AcDbLine
 10
98.3156203048
 20
101.4018988001
 30
0.0
 11
97.1156204806
 21
101.4018988001
 31
0.0
  0
ARC
  5
268
330
1F
100
AcDbEntity
  8
0
  6
Continuous
 62
     7
370
    30
100
AcDbCircle
 10
148.415621175
 20
186.7018971848
 30
0.0
 40
0.3000000000000114
100
AcDbArc
 50
0.0
 51
90.0
  0
LINE
  5
269
330
1F
100
AcDbEntity
  8
0
  6
Continuous
 62
     7
370
    30
100
AcDbLine
 10
102.0156214701
 20
187.0018986749
 30
0.0
 11
148.41562088
 21
187.0018986749
 31
0.0
  0
ARC
  5
26A
330
1F
100
AcDbEntity
  8
0
  6
Continuous
 62
     7
370
    30
100
AcDbCircle
 10
102.015621175
 20
186.7018971848
 30
0.0
 40
0.3000000000000114
100
AcDbArc
 50
90.0
 51
180.0
  0
LINE
  5
26B
330
1F
100
AcDbEntity
  8
0
  6
Continuous
 62
     7
370
    30
100
AcDbLine
 10
101.7156219797
 20
112.3018970477
 30
0.0
 11
101.7156219797
 21
186.7018973219
 31
0.0
  0
ARC
  5
26C
330
1F
100
AcDbEntity
  8
0
  6
Continuous
 62
     7
370
    30
100
AcDbCircle
 10
102.015621175
 20
112.3018971848
 30
0.0
 40
0.2999999999999972
100
AcDbArc
 50
180.0
 51
270.0
  0
LINE
  5
26D
330
1F
100
AcDbEntity
  8
0
  6
Continuous
 62
     7
370
    30
100
AcDbLine
 10
148.41562088
 20
112.0018956947
 30
0.0
 11
102.0156214701
 21
112.0018956947
 31
0.0
  0
ARC
  5
26E
330
1F
100
AcDbEntity
  8
0
  6
Continuous
 62
     7
370
    30
100
AcDbCircle
 10
148.415621175
 20
112.3018971848
 30
0.0
 40
0.3000000000000114
100
AcDbArc
 50
270.0
 51
0.0
  0
LINE
  5
26F
330
1F
100
AcDbEntity
  8
0
  6
Continuous
 62
     7
370
    30
100
AcDbLine
 10
148.7156203704
 20
186.7018973219
 30
0.0
 11
148.7156203704
 21
112.3018970477
 31
0.0
  0
LINE
  5
270
330
1F
100
AcDbEntity
  8
0
  6
Continuous
 62
     7
370
    30
100
AcDbLine
 10
99.2156206386
 20
205.5018989134
 30
0.0
 11
151.2156217115
 21
205.5018989134
 31
0.0
  0
ARC
  5
271
330
1F
100
AcDbEntity
  8
0
  6
Continuous
 62
     7
370
    30
100
AcDbCircle
 10
151.215621175
 20
200.5018971848
 30
0.0
 40
5.0
100
AcDbArc
 50
0.0
 51
90.0
  0
LINE
  5
272
330
1F
100
AcDbEntity
  8
0
  6
Continuous
 62
     7
370
    30
100
AcDbLine
 10
156.2156206684
 20
200.5018962311
 30
0.0
 11
156.2156206684
 21
98.5018981385
 31
0.0
  0
ARC
  5
273
330
1F
100
AcDbEntity
  8
0
  6
Continuous
 62
     7
370
    30
100
AcDbCircle
 10
151.215621175
 20
98.5018971848
 30
0.0
 40
5.0
100
AcDbArc
 50
270.0
 51
0.0
  0
LINE
  5
274
330
1F
100
AcDbEntity
  8
0
  6
Continuous
 62
     7
370
    30
100
AcDbLine
 10
151.2156217115
 20
93.5018954563
 30
0.0
 11
99.2156206386
 21
93.5018954563
 31
0.0
  0
LINE
  5
275
330
1F
100
AcDbEntity
  8
0
  6
Continuous
 62
     7
370
    30
100
AcDbLine
 10
100.1904955821
 20
190.1784946906
 30
0.0
 11
101.0390235798
 21
191.0270226884
 31
0.0
  0
LINE
  5
276
330
1F
100
AcDbEntity
  8
0
  6
Continuous
 62
     7
370
    30
100
AcDbLine
 10
101.0390235798
 20
191.0270226884
 30
0.0
 11
99.4889582263
 21
192.5770861792
 31
0.0
  0
ARC
  5
277
330
1F
100
AcDbEntity
  8
0
  6
Continuous
 62
     7
370
    30
100
AcDbCircle
 10
97.715621175
 20
193.5018971848
 30
0.0
 40
2.000000000000026
100
AcDbArc
 50
332.4576031237
 51
72.5423968763
  0
LINE
  5
278
330
1F
100
AcDbEntity
  8
0
  6
Continuous
 62
     7
370
    30
100
AcDbLine
 10
98.3156203048
 20
195.4097745704
 30
0.0
 11
98.3156203048
 21
197.6018955695
 31
0.0
  0
LINE
  5
279
330
1F
100
AcDbEntity
  8
0
  6
Continuous
 62
     7
370
    30
100
AcDbLine
 10
98.3156203048
 20
197.6018955695
 30
0.0
 11
97.1156204806
 21
197.6018955695
 31
0.0
  0
LINE
  5
27A
330
1F
100
AcDbEntity
  8
0
  6
Continuous
 62
     7
370
    30
100
AcDbLine
 10
97.1156204806
 20
197.6018955695
 30
0.0
 11
97.1156204806
 21
195.4097745704
 31
0.0
  0
ARC
  5
27B
330
1F
100
AcDbEntity
  8
0
  6
Continuous
 62
     7
370
    30
100
AcDbCircle
 10
97.715621175
 20
193.5018971848
 30
0.0
 40
2.000000000000021
100
AcDbArc
 50
107.4576031237
 51
297.5423968763
  0
LINE
  5
27C
330
1F
100
AcDbEntity
  8
0
  6
Continuous
 62
     7
370
    30
100
AcDbLine
 10
98.6404302286
 20
191.7285581815
 30
0.0
 11
100.1904955821
 21
190.1784946906
 31
0.0
  0
LINE
  5
27D
330
1F
100
AcDbEntity
  8
0
  6
Continuous
 62
     7
370
    30
100
AcDbLine
 10
150.240746768
 20
108.825299679
 30
0.0
 11
149.3922187702
 21
107.9767716813
 31
0.0
  0
LINE
  5
27E
330
1F
100
AcDbEntity
  8
0
  6
Continuous
 62
     7
370
    30
100
AcDbLine
 10
149.3922187702
 20
107.9767716813
 30
0.0
 11
150.9422841238
 21
106.4267081904
 31
0.0
  0
ARC
  5
27F
330
1F
100
AcDbEntity
  8
0
  6
Continuous
 62
     7
370
    30
100
AcDbCircle
 10
152.715621175
 20
105.5018971848
 30
0.0
 40
1.999999999999994
100
AcDbArc
 50
152.4576031237
 51
252.5423968763
  0
LINE
  5
280
330
1F
100
AcDbEntity
  8
0
  6
Continuous
 62
     7
370
    30
100
AcDbLine
 10
152.1156220453
 20
103.5940197992
 30
0.0
 11
152.1156220453
 21
101.4018988001
 31
0.0
  0
LINE
  5
281
330
1F
100
AcDbEntity
  8
0
  6
Continuous
 62
     7
370
    30
100
AcDbLine
 10
152.1156220453
 20
101.4018988001
 30
0.0
 11
153.3156218694
 21
101.4018988001
 31
0.0
  0
LINE
  5
282
330
1F
100
AcDbEntity
  8
0
  6
Continuous
 62
     7
370
    30
100
AcDbLine
 10
153.3156218694
 20
101.4018988001
 30
0.0
 11
153.3156218694
 21
103.5940197992
 31
0.0
  0
ARC
  5
283
330
1F
100
AcDbEntity
  8
0
  6
Continuous
 62
     7
370
    30
100
AcDbCircle
 10
152.715621175
 20
105.5018971848
 30
0.0
 40
2.000000000000013
100
AcDbArc
 50
287.4576031237
 51
117.5423968763
  0
LINE
  5
284
330
1F
100
AcDbEntity
  8
0
  6
Continuous
 62
     7
370
    30
100
AcDbLine
 10
151.7908121215
 20
107.2752361881
 30
0.0
 11
150.240746768
 21
108.825299679
 31
0.0
  0
LINE
  5
285
330
1F
100
AcDbEntity
  8
0
  6
Continuous
 62
     7
370
    30
100
AcDbLine
 10
128.9656210912
 20
194.0018979597
 30
0.0
 11
121.4656212588
 21
194.0018979597
 31
0.0
  0
ARC
  5
286
330
1F
100
AcDbEntity
  8
0
  6
Continuous
 62
     7
370
    30
100
AcDbCircle
 10
121.465621175
 20
191.2518971848
 30
0.0
 40
2.75
100
AcDbArc
 50
90.0
 51
270.0
  0
LINE
  5
287
330
1F
100
AcDbEntity
  8
0
  6
Continuous
 62
     7
370
    30
100
AcDbLine
 10
121.4656212588
 20
188.5018979895
 30
0.0
 11
128.9656210912
 21
188.5018979895
 31
0.0
  0
ARC
  5
288
330
1F
100
AcDbEntity
  8
0
  6
Continuous
 62
     7
370
    30
100
AcDbCircle
 10
128.965621175
 20
191.2518971848
 30
0.0
 40
2.75
100
AcDbArc
 50
270.0
 51
90.0
  0
LINE
  5
289
330
1F
100
AcDbEntity
  8
0
  6
Continuous
 62
     7
370
    30
100
AcDbLine
 10
121.4656212588
 20
105.00189641
 30
0.0
 11
128.9656210912
 21
105.00189641
 31
0.0
  0
ARC
  5
28A
330
1F
100
AcDbEntity
  8
0
  6
Continuous
 62
     7
370
    30
100
AcDbCircle
 10
128.965621175
 20
107.7518971848
 30
0.0
 40
2.750000000000014
100
AcDbArc
 50
270.0
 51
90.0
  0
LINE
  5
28B
330
1F
100
AcDbEntity
  8
0
  6
Continuous
 62
     7
370
    30
100
AcDbLine
 10
128.9656210912
 20
110.5018963802
 30
0.0
 11
121.4656212588
 21
110.5018963802
 31
0.0
  0
ARC
  5
28C
330
1F
100
AcDbEntity
  8
0
  6
Continuous
 62
     7
370
    30
100
AcDbCircle
 10
121.465621175
 20
107.7518971848
 30
0.0
 40
2.75
100
AcDbArc
 50
90.0
 51
270.0
  0
LINE
  5
28D
330
1F
100
AcDbEntity
  8
0
  6
Continuous
 62
     7
370
    30
100
AcDbLine
 10
94.2156216817
 20
98.5018981385
 30
0.0
 11
94.2156216817
 21
200.5018962311
 31
0.0
  0
ARC
  5
28E
330
1F
100
AcDbEntity
  8
0
  6
Continuous
 62
     7
370
    30
100
AcDbCircle
 10
99.215621175
 20
98.5018971848
 30
0.0
 40
4.999999999999986
100
AcDbArc
 50
180.0
 51
270.0
  0
ARC
  5
28F
330
1F
100
AcDbEntity
  8
0
  6
Continuous
 62
     7
370
    30
100
AcDbCircle
 10
99.215621175
 20
200.5018971848
 30
0.0
 40
5.0
100
AcDbArc
 50
90.0
 51
180.0
  0
ARC
  5
290
330
1F
100
AcDbEntity
  8
0
  6
Continuous
 62
     7
370
    30
100
AcDbCircle
 10
97.715621175
 20
193.5018971848
 30
0.0
 40
1.375000000000022
100
AcDbArc
 50
115.8720959629
 51
289.1279040371
  0
LINE
  5
291
330
1F
100
AcDbEntity
  8
0
  6
Continuous
 62
     7
370
    30
100
AcDbLine
 10
98.1661784218
 20
191.55330935
 30
0.0
 11
98.1661784218
 21
192.2028099882
 31
0.0
  0
LINE
  5
292
330
1F
100
AcDbEntity
  8
0
  6
Continuous
 62
     7
370
    30
100
AcDbLine
 10
97.1156204806
 20
195.4097745704
 30
0.0
 11
97.1156204806
 21
194.7390807557
 31
0.0
  0
ARC
  5
293
330
1F
100
AcDbEntity
  8
0
  6
Continuous
 62
     7
370
    30
100
AcDbCircle
 10
97.715621175
 20
105.5018971848
 30
0.0
 40
1.375000000000002
100
AcDbArc
 50
70.8720959629
 51
244.1279040371
  0
LINE
  5
294
330
1F
100
AcDbEntity
  8
0
  6
Continuous
 62
     7
370
    30
100
AcDbLine
 10
98.1661784218
 20
106.8009843814
 30
0.0
 11
98.1661784218
 21
107.4504850197
 31
0.0
  0
LINE
  5
295
330
1F
100
AcDbEntity
  8
0
  6
Continuous
 62
     7
370
    30
100
AcDbLine
 10
97.1156204806
 20
103.5940197992
 30
0.0
 11
97.1156204806
 21
104.264713614
 31
0.0
  0
ARC
  5
296
330
1F
100
AcDbEntity
  8
0
  6
Continuous
 62
     7
370
    30
100
AcDbCircle
 10
97.715621175
 20
105.5018971848
 30
0.0
 40
1.375000000000003
100
AcDbArc
 50
295.8720959629
 51
19.1279040371
  0
LINE
  5
297
330
1F
100
AcDbEntity
  8
0
  6
Continuous
 62
     7
370
    30
100
AcDbLine
 10
99.6642107831
 20
105.9524563837
 30
0.0
 11
99.0147064196
 21
105.9524563837
 31
0.0
  0
LINE
  5
298
330
1F
100
AcDbEntity
  8
0
  6
Continuous
 62
     7
370
    30
100
AcDbLine
 10
98.3156203048
 20
104.264713614
 30
0.0
 11
98.3156203048
 21
103.5940197992
 31
0.0
  0
ARC
  5
299
330
1F
100
AcDbEntity
  8
0
  6
Continuous
 62
     7
370
    30
100
AcDbCircle
 10
97.715621175
 20
193.5018971848
 30
0.0
 40
1.375000000000029
100
AcDbArc
 50
340.8720959629
 51
64.1279040371
  0
LINE
  5
29A
330
1F
100
AcDbEntity
  8
0
  6
Continuous
 62
     7
370
    30
100
AcDbLine
 10
99.0147064196
 20
193.051337986
 30
0.0
 11
99.6642107831
 21
193.051337986
 31
0.0
  0
LINE
  5
29B
330
1F
100
AcDbEntity
  8
0
  6
Continuous
 62
     7
370
    30
100
AcDbLine
 10
98.3156203048
 20
194.7390807557
 30
0.0
 11
98.3156203048
 21
195.4097745704
 31
0.0
  0
ARC
  5
29C
330
1F
100
AcDbEntity
  8
0
  6
Continuous
 62
     7
370
    30
100
AcDbCircle
 10
152.715621175
 20
105.5018971848
 30
0.0
 40
1.374999999999997
100
AcDbArc
 50
160.8720959629
 51
244.1279040371
  0
LINE
  5
29D
330
1F
100
AcDbEntity
  8
0
  6
Continuous
 62
     7
370
    30
100
AcDbLine
 10
151.4165359305
 20
105.9524563837
 30
0.0
 11
150.767031567
 21
105.9524563837
 31
0.0
  0
LINE
  5
29E
330
1F
100
AcDbEntity
  8
0
  6
Continuous
 62
     7
370
    30
100
AcDbLine
 10
152.1156220453
 20
104.264713614
 30
0.0
 11
152.1156220453
 21
103.5940197992
 31
0.0
  0
ARC
  5
29F
330
1F
100
AcDbEntity
  8
0
  6
Continuous
 62
     7
370
    30
100
AcDbCircle
 10
152.715621175
 20
193.5018971848
 30
0.0
 40
1.375000000000022
100
AcDbArc
 50
115.8720959629
 51
199.1279040371
  0
LINE
  5
2A0
330
1F
100
AcDbEntity
  8
0
  6
Continuous
 62
     7
370
    30
100
AcDbLine
 10
150.767031567
 20
193.051337986
 30
0.0
 11
151.4165359305
 21
193.051337986
 31
0.0
  0
LINE
  5
2A1
330
1F
100
AcDbEntity
  8
0
  6
Continuous
 62
     7
370
    30
100
AcDbLine
 10
152.1156220453
 20
194.7390807557
 30
0.0
 11
152.1156220453
 21
195.4097745704
 31
0.0
  0
ARC
  5
2A2
330
1F
100
AcDbEntity
  8
0
  6
Continuous
 62
     7
370
    30
100
AcDbCircle
 10
152.715621175
 20
105.5018971848
 30
0.0
 40
1.375000000000029
100
AcDbArc
 50
295.8720959629
 51
109.1279040371
  0
LINE
  5
2A3
330
1F
100
AcDbEntity
  8
0
  6
Continuous
 62
     7
370
    30
100
AcDbLine
 10
152.2650639282
 20
107.4504850197
 30
0.0
 11
152.2650639282
 21
106.8009843814
 31
0.0
  0
LINE
  5
2A4
330
1F
100
AcDbEntity
  8
0
  6
Continuous
 62
     7
370
    30
100
AcDbLine
 10
153.3156218694
 20
103.5940197992
 30
0.0
 11
153.3156218694
 21
104.264713614
 31
0.0
  0
ARC
  5
2A5
330
1F
100
AcDbEntity
  8
0
  6
Continuous
 62
     7
370
    30
100
AcDbCircle
 10
152.715621175
 20
193.5018971848
 30
0.0
 40
1.375000000000022
100
AcDbArc
 50
250.8720959629
 51
64.1279040371
  0
LINE
  5
2A6
330
1F
100
AcDbEntity
  8
0
  6
Continuous
 62
     7
370
    30
100
AcDbLine
 10
152.2650639282
 20
192.2028099882
 30
0.0
 11
152.2650639282
 21
191.55330935
 31
0.0
  0
LINE
  5
2A7
330
1F
100
AcDbEntity
  8
0
  6
Continuous
 62
     7
370
    30
100
AcDbLine
 10
153.3156218694
 20
195.4097745704
 30
0.0
 11
153.3156218694
 21
194.7390807557
 31
0.0
  0
ENDSEC
  0
SECTION
  2
OBJECTS
  0
DICTIONARY
  5
C
330
0
100
AcDbDictionary
281
     1
  3
ACAD_GROUP
350
D
  3
ACAD_LAYOUT
350
1A
  3
ACAD_MLINESTYLE
350
17
  3
ACAD_PLOTSETTINGS
350
19
  3
ACAD_PLOTSTYLENAME
350
E
  3
ACAD_SCALELIST
350
47
  0
DICTIONARY
  5
D
102
{ACAD_REACTORS
330
C
102
}
330
C
100
AcDbDictionary
281
     1
  0
DICTIONARY
  5
1A
102
{ACAD_REACTORS
330
C
102
}
330
C
100
AcDbDictionary
281
     1
  3
Layout1
350
1E
  3
Layout2
350
26
  3
Model
350
22
  0
DICTIONARY
  5
17
102
{ACAD_REACTORS
330
C
102
}
330
C
100
AcDbDictionary
281
     1
  3
Standard
350
18
  0
DICTIONARY
  5
19
102
{ACAD_REACTORS
330
C
102
}
330
C
100
AcDbDictionary
281
     1
  0
ACDBDICTIONARYWDFLT
  5
E
102
{ACAD_REACTORS
330
C
102
}
330
C
100
AcDbDictionary
281
     1
  3
Normal
350
F
100
AcDbDictionaryWithDefault
340
F
  0
DICTIONARY
  5
47
102
{ACAD_REACTORS
330
C
102
}
330
C
100
AcDbDictionary
281
     1
  3
A0
350
48
  3
A1
350
49
  3
A2
350
4A
  3
A3
350
4B
  3
A4
350
4C
  3
A5
350
4D
  3
A6
350
4E
  3
A7
350
4F
  3
A8
350
50
  3
A9
350
51
  3
B0
350
52
  3
B1
350
53
  3
B2
350
54
  3
B3
350
55
  3
B4
350
56
  3
B5
350
57
  3
B6
350
58
  3
B7
350
59
  3
B8
350
5A
  3
B9
350
5B
  3
C0
350
5C
  3
C1
350
5D
  3
C2
350
5E
  3
C3
350
5F
  3
C4
350
60
  3
C5
350
61
  3
C6
350
62
  3
C7
350
63
  3
C8
350
64
  3
C9
350
65
  3
D0
350
66
  3
D1
350
67
  3
D2
350
68
  0
LAYOUT
  5
1E
102
{ACAD_REACTORS
330
1A
102
}
330
1A
100
AcDbPlotSettings
  1

  2
none_device
  4

  6

 40
0.0
 41
0.0
 42
0.0
 43
0.0
 44
0.0
 45
0.0
 46
0.0
 47
0.0
 48
0.0
 49
0.0
140
0.0
141
0.0
142
1.0
143
1.0
 70
   688
 72
     1
 73
     0
 74
     5
  7

 75
    16
147
1.0
148
0.0
149
0.0
100
AcDbLayout
  1
Layout1
 70
     1
 71
     1
 10
0.0
 20
0.0
 11
420.0
 21
297.0
 12
0.0
 22
0.0
 32
0.0
 14
1.0000000000E+20
 24
1.0000000000E+20
 34
1.0000000000E+20
 15
-1.0000000000E+20
 25
-1.0000000000E+20
 35
-1.0000000000E+20
146
0.0
 13
0.0
 23
0.0
 33
0.0
 16
1.0
 26
0.0
 36
0.0
 17
0.0
 27
1.0
 37
0.0
 76
     0
330
1B
  0
LAYOUT
  5
26
102
{ACAD_REACTORS
330
1A
102
}
330
1A
100
AcDbPlotSettings
  1

  2
none_device
  4

  6

 40
0.0
 41
0.0
 42
0.0
 43
0.0
 44
0.0
 45
0.0
 46
0.0
 47
0.0
 48
0.0
 49
0.0
140
0.0
141
0.0
142
1.0
143
1.0
 70
   688
 72
     1
 73
     0
 74
     5
  7

 75
    16
147
1.0
148
0.0
149
0.0
100
AcDbLayout
  1
Layout2
 70
     1
 71
     2
 10
0.0
 20
0.0
 11
0.0
 21
0.0
 12
0.0
 22
0.0
 32
0.0
 14
0.0
 24
0.0
 34
0.0
 15
0.0
 25
0.0
 35
0.0
146
0.0
 13
0.0
 23
0.0
 33
0.0
 16
1.0
 26
0.0
 36
0.0
 17
0.0
 27
1.0
 37
0.0
 76
     0
330
23
  0
LAYOUT
  5
22
102
{ACAD_REACTORS
330
1A
102
}
330
1A
100
AcDbPlotSettings
  1

  2
none_device
  4
Letter_(8.50_x_11.00_Inches)
  6

 40
6.35
 41
6.35
 42
6.35000508
 43
6.35000508
 44
215.9
 45
279.4
 46
0.0
 47
0.0
 48
0.0
 49
0.0
140
0.0
141
0.0
142
1.0
143
1.0
 70
  1712
 72
     1
 73
     0
 74
     0
  7

 75
     0
147
1.0
148
0.0
149
0.0
100
AcDbLayout
  1
Model
 70
     1
 71
     0
 10
0.0
 20
0.0
 11
420.0
 21
297.0
 12
0.0
 22
0.0
 32
0.0
 14
0.0
 24
0.0
 34
0.0
 15
420.0
 25
297.0
 35
0.0
146
0.0
 13
0.0
 23
0.0
 33
0.0
 16
1.0
 26
0.0
 36
0.0
 17
0.0
 27
1.0
 37
0.0
 76
     0
330
1F
331
29
  0
MLINESTYLE
  5
18
102
{ACAD_REACTORS
330
17
102
}
330
17
100
AcDbMlineStyle
  2
Standard
 70
     0
  3

 62
   256
 51
90.0
 52
90.0
 71
     2
 49
0.5
 62
   256
  6
BYLAYER
 49
-0.5
 62
   256
  6
BYLAYER
  0
ACDBPLACEHOLDER
  5
F
102
{ACAD_REACTORS
330
E
102
}
330
E
  0
SCALE
  5
48
102
{ACAD_REACTORS
330
47
102
}
330
47
100
AcDbScale
 70
     0
300
1:1
140
1.0
141
1.0
290
     1
  0
SCALE
  5
49
102
{ACAD_REACTORS
330
47
102
}
330
47
100
AcDbScale
 70
     0
300
1:2
140
1.0
141
2.0
290
     0
  0
SCALE
  5
4A
102
{ACAD_REACTORS
330
47
102
}
330
47
100
AcDbScale
 70
     0
300
1:4
140
1.0
141
4.0
290
     0
  0
SCALE
  5
4B
102
{ACAD_REACTORS
330
47
102
}
330
47
100
AcDbScale
 70
     0
300
1:5
140
1.0
141
5.0
290
     0
  0
SCALE
  5
4C
102
{ACAD_REACTORS
330
47
102
}
330
47
100
AcDbScale
 70
     0
300
1:8
140
1.0
141
8.0
290
     0
  0
SCALE
  5
4D
102
{ACAD_REACTORS
330
47
102
}
330
47
100
AcDbScale
 70
     0
300
1:10
140
1.0
141
10.0
290
     0
  0
SCALE
  5
4E
102
{ACAD_REACTORS
330
47
102
}
330
47
100
AcDbScale
 70
     0
300
1:16
140
1.0
141
16.0
290
     0
  0
SCALE
  5
4F
102
{ACAD_REACTORS
330
47
102
}
330
47
100
AcDbScale
 70
     0
300
1:20
140
1.0
141
20.0
290
     0
  0
SCALE
  5
50
102
{ACAD_REACTORS
330
47
102
}
330
47
100
AcDbScale
 70
     0
300
1:30
140
1.0
141
30.0
290
     0
  0
SCALE
  5
51
102
{ACAD_REACTORS
330
47
102
}
330
47
100
AcDbScale
 70
     0
300
1:40
140
1.0
141
40.0
290
     0
  0
SCALE
  5
52
102
{ACAD_REACTORS
330
47
102
}
330
47
100
AcDbScale
 70
     0
300
1:50
140
1.0
141
50.0
290
     0
  0
SCALE
  5
53
102
{ACAD_REACTORS
330
47
102
}
330
47
100
AcDbScale
 70
     0
300
1:100
140
1.0
141
100.0
290
     0
  0
SCALE
  5
54
102
{ACAD_REACTORS
330
47
102
}
330
47
100
AcDbScale
 70
     0
300
2:1
140
2.0
141
1.0
290
     0
  0
SCALE
  5
55
102
{ACAD_REACTORS
330
47
102
}
330
47
100
AcDbScale
 70
     0
300
4:1
140
4.0
141
1.0
290
     0
  0
SCALE
  5
56
102
{ACAD_REACTORS
330
47
102
}
330
47
100
AcDbScale
 70
     0
300
8:1
140
8.0
141
1.0
290
     0
  0
SCALE
  5
57
102
{ACAD_REACTORS
330
47
102
}
330
47
100
AcDbScale
 70
     0
300
10:1
140
10.0
141
1.0
290
     0
  0
SCALE
  5
58
102
{ACAD_REACTORS
330
47
102
}
330
47
100
AcDbScale
 70
     0
300
100:1
140
100.0
141
1.0
290
     0
  0
SCALE
  5
59
102
{ACAD_REACTORS
330
47
102
}
330
47
100
AcDbScale
 70
     0
300
1/128" = 1'-0"
140
0.0078125
141
12.0
290
     0
  0
SCALE
  5
5A
102
{ACAD_REACTORS
330
47
102
}
330
47
100
AcDbScale
 70
     0
300
1/64" = 1'-0"
140
0.015625
141
12.0
290
     0
  0
SCALE
  5
5B
102
{ACAD_REACTORS
330
47
102
}
330
47
100
AcDbScale
 70
     0
300
1/32" = 1'-0"
140
0.03125
141
12.0
290
     0
  0
SCALE
  5
5C
102
{ACAD_REACTORS
330
47
102
}
330
47
100
AcDbScale
 70
     0
300
1/16" = 1'-0"
140
0.0625
141
12.0
290
     0
  0
SCALE
  5
5D
102
{ACAD_REACTORS
330
47
102
}
330
47
100
AcDbScale
 70
     0
300
3/32" = 1'-0"
140
0.09375
141
12.0
290
     0
  0
SCALE
  5
5E
102
{ACAD_REACTORS
330
47
102
}
330
47
100
AcDbScale
 70
     0
300
1/8" = 1'-0"
140
0.125
141
12.0
290
     0
  0
SCALE
  5
5F
102
{ACAD_REACTORS
330
47
102
}
330
47
100
AcDbScale
 70
     0
300
3/16" = 1'-0"
140
0.1875
141
12.0
290
     0
  0
SCALE
  5
60
102
{ACAD_REACTORS
330
47
102
}
330
47
100
AcDbScale
 70
     0
300
1/4" = 1'-0"
140
0.25
141
12.0
290
     0
  0
SCALE
  5
61
102
{ACAD_REACTORS
330
47
102
}
330
47
100
AcDbScale
 70
     0
300
3/8" = 1'-0"
140
0.375
141
12.0
290
     0
  0
SCALE
  5
62
102
{ACAD_REACTORS
330
47
102
}
330
47
100
AcDbScale
 70
     0
300
1/2" = 1'-0"
140
0.5
141
12.0
290
     0
  0
SCALE
  5
63
102
{ACAD_REACTORS
330
47
102
}
330
47
100
AcDbScale
 70
     0
300
3/4" = 1'-0"
140
0.75
141
12.0
290
     0
  0
SCALE
  5
64
102
{ACAD_REACTORS
330
47
102
}
330
47
100
AcDbScale
 70
     0
300
1" = 1'-0"
140
1.0
141
12.0
290
     0
  0
SCALE
  5
65
102
{ACAD_REACTORS
330
47
102
}
330
47
100
AcDbScale
 70
     0
300
1-1/2" = 1'-0"
140
1.5
141
12.0
290
     0
  0
SCALE
  5
66
102
{ACAD_REACTORS
330
47
102
}
330
47
100
AcDbScale
 70
     0
300
3" = 1'-0"
140
3.0
141
12.0
290
     0
  0
SCALE
  5
67
102
{ACAD_REACTORS
330
47
102
}
330
47
100
AcDbScale
 70
     0
300
6" = 1'-0"
140
6.0
141
12.0
290
     0
  0
SCALE
  5
68
102
{ACAD_REACTORS
330
47
102
}
330
47
100
AcDbScale
 70
     0
300
1'-0" = 1'-0"
140
12.0
141
12.0
290
     0
  0
ENDSEC
  0
EOF
