  0
SECTION
  2
HEADER
  9
$ACADVER
  1
AC1015
  9
$ACADMAINTVER
 70
     6
  9
$DWGCODEPAGE
  3
DOS932
  9
$INSBASE
 10
0.0
 20
0.0
 30
0.0
  9
$EXTMIN
 10
0.0
 20
0.0
 30
0.0
  9
$EXTMAX
 10
420.0
 20
297.0
 30
0.0
  9
$LIMMIN
 10
0.0
 20
0.0
  9
$LIMMAX
 10
420.0
 20
297.0
  9
$ORTHOMODE
 70
     0
  9
$REGENMODE
 70
     1
  9
$FILLMODE
 70
     1
  9
$QTEXTMODE
 70
     0
  9
$MIRRTEXT
 70
     1
  9
$LTSCALE
 40
1.0
  9
$ATTMODE
 70
     1
  9
$TEXTSIZE
 40
3.8805555556
  9
$TRACEWID
 40
1.0
  9
$TEXTSTYLE
  7
Standard
  9
$CLAYER
  8
0
  9
$CELTYPE
  6
ByLayer
  9
$CECOLOR
 62
   256
  9
$CELTSCALE
 40
1.0
  9
$DISPSILH
 70
     0
  9
$DIMSCALE
 40
1.0
  9
$DIMASZ
 40
3.0
  9
$DIMEXO
 40
0.0
  9
$DIMDLI
 40
3.75
  9
$DIMRND
 40
0.0
  9
$DIMDLE
 40
0.0
  9
$DIMEXE
 40
1.0
  9
$DIMTP
 40
0.0
  9
$DIMTM
 40
0.0
  9
$DIMTXT
 40
3.5277777778
  9
$DIMCEN
 40
2.5
  9
$DIMTSZ
 40
0.0
  9
$DIMTOL
 70
     0
  9
$DIMLIM
 70
     0
  9
$DIMTIH
 70
     1
  9
$DIMTOH
 70
     1
  9
$DIMSE1
 70
     0
  9
$DIMSE2
 70
     0
  9
$DIMTAD
 70
     1
  9
$DIMZIN
 70
     0
  9
$DIMBLK
  1

  9
$DIMASO
 70
     1
  9
$DIMSHO
 70
     1
  9
$DIMPOST
  1

  9
$DIMAPOST
  1

  9
$DIMALT
 70
     0
  9
$DIMALTD
 70
     3
  9
$DIMALTF
 40
0.0393700787
  9
$DIMLFAC
 40
1.0
  9
$DIMTOFL
 70
     1
  9
$DIMTVP
 40
0.0
  9
$DIMTIX
 70
     0
  9
$DIMSOXD
 70
     0
  9
$DIMSAH
 70
     0
  9
$DIMBLK1
  1

  9
$DIMBLK2
  1

  9
$DIMSTYLE
  2
ISO-25
  9
$DIMCLRD
 70
     0
  9
$DIMCLRE
 70
     0
  9
$DIMCLRT
 70
     0
  9
$DIMTFAC
 40
1.0
  9
$DIMGAP
 40
1.0
  9
$DIMJUST
 70
     0
  9
$DIMSD1
 70
     0
  9
$DIMSD2
 70
     0
  9
$DIMTOLJ
 70
     0
  9
$DIMTZIN
 70
     0
  9
$DIMALTZ
 70
     0
  9
$DIMALTTZ
 70
     0
  9
$DIMUPT
 70
     0
  9
$DIMDEC
 70
     2
  9
$DIMTDEC
 70
     2
  9
$DIMALTU
 70
     2
  9
$DIMALTTD
 70
     3
  9
$DIMTXSTY
  7
Standard
  9
$DIMAUNIT
 70
     0
  9
$DIMADEC
 70
     2
  9
$DIMALTRND
 40
0.0
  9
$DIMAZIN
 70
     0
  9
$DIMDSEP
 70
    44
  9
$DIMATFIT
 70
     3
  9
$DIMFRAC
 70
     0
  9
$DIMLDRBLK
  1

  9
$DIMLUNIT
 70
     2
  9
$DIMLWD
 70
    -2
  9
$DIMLWE
 70
    -2
  9
$DIMTMOVE
 70
     0
  9
$LUNITS
 70
     2
  9
$LUPREC
 70
     2
  9
$SKETCHINC
 40
1.0
  9
$FILLETRAD
 40
10.0
  9
$AUNITS
 70
     0
  9
$AUPREC
 70
     2
  9
$MENU
  1
.
  9
$ELEVATION
 40
0.0
  9
$PELEVATION
 40
0.0
  9
$THICKNESS
 40
0.0
  9
$LIMCHECK
 70
     0
  9
$CHAMFERA
 40
0.0
  9
$CHAMFERB
 40
0.0
  9
$CHAMFERC
 40
0.0
  9
$CHAMFERD
 40
0.0
  9
$SKPOLY
 70
     0
  9
$TDCREATE
 40
2458620.826131921
  9
$TDUCREATE
 40
2458620.451131921
  9
$TDUPDATE
 40
2458620.826132894
  9
$TDUUPDATE
 40
2458620.451132894
  9
$TDINDWG
 40
0.0000000116
  9
$TDUSRTIMER
 40
0.0000000116
  9
$USRTIMER
 70
     1
  9
$ANGBASE
 50
0.0
  9
$ANGDIR
 70
     0
  9
$PDMODE
 70
     0
  9
$PDSIZE
 40
-1.0
  9
$PLINEWID
 40
0.0
  9
$SPLFRAME
 70
     0
  9
$SPLINETYPE
 70
     6
  9
$SPLINESEGS
 70
     8
  9
$HANDSEED
  5
15C
  9
$SURFTAB1
 70
     6
  9
$SURFTAB2
 70
     6
  9
$SURFTYPE
 70
     6
  9
$SURFU
 70
     6
  9
$SURFV
 70
     6
  9
$UCSBASE
  2

  9
$UCSNAME
  2

  9
$UCSORG
 10
0.0
 20
0.0
 30
0.0
  9
$UCSXDIR
 10
1.0
 20
0.0
 30
0.0
  9
$UCSYDIR
 10
0.0
 20
1.0
 30
0.0
  9
$UCSORTHOREF
  2

  9
$UCSORTHOVIEW
 70
     0
  9
$UCSORGTOP
 10
0.0
 20
0.0
 30
0.0
  9
$UCSORGBOTTOM
 10
0.0
 20
0.0
 30
0.0
  9
$UCSORGLEFT
 10
0.0
 20
0.0
 30
0.0
  9
$UCSORGRIGHT
 10
0.0
 20
0.0
 30
0.0
  9
$UCSORGFRONT
 10
0.0
 20
0.0
 30
0.0
  9
$UCSORGBACK
 10
0.0
 20
0.0
 30
0.0
  9
$PUCSBASE
  2

  9
$PUCSNAME
  2

  9
$PUCSORG
 10
0.0
 20
0.0
 30
0.0
  9
$PUCSXDIR
 10
1.0
 20
0.0
 30
0.0
  9
$PUCSYDIR
 10
0.0
 20
1.0
 30
0.0
  9
$PUCSORTHOREF
  2

  9
$PUCSORTHOVIEW
 70
     0
  9
$PUCSORGTOP
 10
0.0
 20
0.0
 30
0.0
  9
$PUCSORGBOTTOM
 10
0.0
 20
0.0
 30
0.0
  9
$PUCSORGLEFT
 10
0.0
 20
0.0
 30
0.0
  9
$PUCSORGRIGHT
 10
0.0
 20
0.0
 30
0.0
  9
$PUCSORGFRONT
 10
0.0
 20
0.0
 30
0.0
  9
$PUCSORGBACK
 10
0.0
 20
0.0
 30
0.0
  9
$USERI1
 70
     0
  9
$USERI2
 70
     0
  9
$USERI3
 70
     0
  9
$USERI4
 70
     0
  9
$USERI5
 70
     0
  9
$USERR1
 40
0.0
  9
$USERR2
 40
0.0
  9
$USERR3
 40
0.0
  9
$USERR4
 40
0.0
  9
$USERR5
 40
0.0
  9
$WORLDVIEW
 70
     1
  9
$SHADEDGE
 70
     3
  9
$SHADEDIF
 70
    70
  9
$TILEMODE
 70
     1
  9
$MAXACTVP
 70
    64
  9
$PINSBASE
 10
0.0
 20
0.0
 30
0.0
  9
$PLIMCHECK
 70
     0
  9
$PEXTMIN
 10
1.0000000000E+20
 20
1.0000000000E+20
 30
1.0000000000E+20
  9
$PEXTMAX
 10
-1.0000000000E+20
 20
-1.0000000000E+20
 30
-1.0000000000E+20
  9
$PLIMMIN
 10
0.0
 20
0.0
  9
$PLIMMAX
 10
420.0
 20
297.0
  9
$UNITMODE
 70
     0
  9
$VISRETAIN
 70
     1
  9
$PLINEGEN
 70
     0
  9
$PSLTSCALE
 70
     1
  9
$TREEDEPTH
 70
  3020
  9
$CMLSTYLE
  2
Standard
  9
$CMLJUST
 70
     0
  9
$CMLSCALE
 40
20.0
  9
$PROXYGRAPHICS
 70
     1
  9
$MEASUREMENT
 70
     1
  9
$CELWEIGHT
370
    -1
  9
$ENDCAPS
280
     0
  9
$JOINSTYLE
280
     0
  9
$LWDISPLAY
290
     1
  9
$INSUNITS
 70
     4
  9
$HYPERLINKBASE
  1

  9
$STYLESHEET
  1

  9
$XEDIT
290
     1
  9
$CEPSNTYPE
380
     0
  9
$PSTYLEMODE
290
     1
  9
$FINGERPRINTGUID
  2
{DE17BEF1-C702-4E20-8768-AA72D74207D0}
  9
$VERSIONGUID
  2
{FAEB1C32-E019-11D5-929B-00C0DF256EC4}
  9
$EXTNAMES
290
     1
  9
$PSVPSCALE
 40
0.0
  9
$OLESTARTUP
290
     0
  0
ENDSEC
  0
SECTION
  2
CLASSES
  0
CLASS
  1
ACDBDICTIONARYWDFLT
  2
AcDbDictionaryWithDefault
  3
ObjectDBX Classes
 90
        0
280
     0
281
     0
  0
CLASS
  1
VISUALSTYLE
  2
AcDbVisualStyle
  3
ObjectDBX Classes
 90
     4095
280
     0
281
     0
  0
CLASS
  1
MATERIAL
  2
AcDbMaterial
  3
ObjectDBX Classes
 90
     1153
280
     0
281
     0
  0
CLASS
  1
SCALE
  2
AcDbScale
  3
ObjectDBX Classes
 90
     1153
280
     0
281
     0
  0
CLASS
  1
TABLESTYLE
  2
AcDbTableStyle
  3
ObjectDBX Classes
 90
     4095
280
     0
281
     0
  0
CLASS
  1
MLEADERSTYLE
  2
AcDbMLeaderStyle
  3
ACDB_MLEADERSTYLE_CLASS
 90
     4095
280
     0
281
     0
  0
CLASS
  1
SUN
  2
AcDbSun
  3
SCENEOE
 90
     1153
280
     0
281
     0
  0
CLASS
  1
ACDBPLACEHOLDER
  2
AcDbPlaceHolder
  3
ObjectDBX Classes
 90
        0
280
     0
281
     0
  0
CLASS
  1
LAYOUT
  2
AcDbLayout
  3
ObjectDBX Classes
 90
        0
280
     0
281
     0
  0
ENDSEC
  0
SECTION
  2
TABLES
  0
TABLE
  2
VPORT
  5
8
330
0
100
AcDbSymbolTable
 70
     1
  0
VPORT
  5
29
330
8
100
AcDbSymbolTableRecord
100
AcDbViewportTableRecord
  2
*Active
 70
     0
 10
0.0
 20
0.0
 11
1.0
 21
1.0
 12
210.0
 22
148.5
 13
0.0
 23
0.0
 14
10.0
 24
10.0
 15
10.0
 25
10.0
 16
0.0
 26
0.0
 36
1.0
 17
0.0
 27
0.0
 37
0.0
 40
297.0
 41
1.4141414141
 42
50.0
 43
0.0
 44
0.0
 50
0.0
 51
0.0
 71
     0
 72
  2000
 73
     1
 74
     3
 75
     0
 76
     0
 77
     0
 78
     0
281
     0
 65
     1
110
0.0
120
0.0
130
0.0
111
1.0
121
0.0
131
0.0
112
0.0
122
1.0
132
0.0
 79
     0
146
0.0
  0
ENDTAB
  0
TABLE
  2
LTYPE
  5
5
330
0
100
AcDbSymbolTable
 70
     6
  0
LTYPE
  5
14
330
5
100
AcDbSymbolTableRecord
100
AcDbLinetypeTableRecord
  2
ByBlock
 70
     0
  3

 72
    65
 73
     0
 40
0.0
  0
LTYPE
  5
15
330
5
100
AcDbSymbolTableRecord
100
AcDbLinetypeTableRecord
  2
ByLayer
 70
     0
  3

 72
    65
 73
     0
 40
0.0
  0
LTYPE
  5
16
330
5
100
AcDbSymbolTableRecord
100
AcDbLinetypeTableRecord
  2
Continuous
 70
     0
  3
Solid line
 72
    65
 73
     0
 40
0.0
  0
LTYPE
  5
6E
330
5
100
AcDbSymbolTableRecord
100
AcDbLinetypeTableRecord
  2
HIDDEN
 70
     0
  3
Hidden __ __ __ __ __ __ __ __ __ __ __ __ __ __
 72
    65
 73
     2
 40
1.905
 49
1.27
 74
     0
 49
-0.635
 74
     0
  0
LTYPE
  5
6F
330
5
100
AcDbSymbolTableRecord
100
AcDbLinetypeTableRecord
  2
PHANTOM
 70
     0
  3
Phantom ______  __  __  ______  __  __  ______
 72
    65
 73
     6
 40
12.7
 49
6.35
 74
     0
 49
-1.27
 74
     0
 49
1.27
 74
     0
 49
-1.27
 74
     0
 49
1.27
 74
     0
 49
-1.27
 74
     0
  0
LTYPE
  5
70
330
5
100
AcDbSymbolTableRecord
100
AcDbLinetypeTableRecord
  2
CENTER
 70
     0
  3
Center ____ _ ____ _ ____ _ ____ _ ____ _ ____
 72
    65
 73
     4
 40
10.16
 49
6.35
 74
     0
 49
-1.27
 74
     0
 49
1.27
 74
     0
 49
-1.27
 74
     0
  0
LTYPE
  5
71
330
5
100
AcDbSymbolTableRecord
100
AcDbLinetypeTableRecord
  2
CENTERX2
 70
     0
  3
Center (2x) ________  __  ________  __  _____
 72
    65
 73
     4
 40
20.32
 49
12.7
 74
     0
 49
-2.54
 74
     0
 49
2.54
 74
     0
 49
-2.54
 74
     0
  0
LTYPE
  5
72
330
5
100
AcDbSymbolTableRecord
100
AcDbLinetypeTableRecord
  2
DOT2
 70
     0
  3
Dot (.5x) ........................................
 72
    65
 73
     2
 40
0.635
 49
0.0
 74
     0
 49
-0.635
 74
     0
  0
ENDTAB
  0
TABLE
  2
LAYER
  5
2
330
0
100
AcDbSymbolTable
 70
     6
  0
LAYER
  5
10
330
2
100
AcDbSymbolTableRecord
100
AcDbLayerTableRecord
  2
0
 70
     0
 62
     7
  6
Continuous
370
    -3
390
F
  0
LAYER
  5
73
330
2
100
AcDbSymbolTableRecord
100
AcDbLayerTableRecord
  2
SLD-0
 70
     0
 62
     7
  6
Continuous
370
    -3
390
F
  0
LAYER
  5
74
330
2
100
AcDbSymbolTableRecord
100
AcDbLayerTableRecord
  2
8
 70
     0
 62
     7
  6
Continuous
370
    15
390
F
  0
LAYER
  5
75
330
2
100
AcDbSymbolTableRecord
100
AcDbLayerTableRecord
  2
9
 70
     0
 62
     7
  6
Continuous
370
    -3
390
F
  0
LAYER
  5
76
330
2
100
AcDbSymbolTableRecord
100
AcDbLayerTableRecord
  2
10
 70
     0
 62
     1
  6
Continuous
370
    -3
390
F
  0
LAYER
  5
77
330
2
100
AcDbSymbolTableRecord
100
AcDbLayerTableRecord
  2
11
 70
     0
 62
     7
  6
Continuous
370
    -3
390
F
  0
ENDTAB
  0
TABLE
  2
STYLE
  5
3
330
0
100
AcDbSymbolTable
 70
     2
  0
STYLE
  5
11
330
3
100
AcDbSymbolTableRecord
100
AcDbTextStyleTableRecord
  2
Standard
 70
     0
 40
0.0
 41
1.0
 50
0.0
 71
     0
 42
3.8805555556
  3
txt
  4
bigfont
  0
STYLE
  5
78
330
3
100
AcDbSymbolTableRecord
100
AcDbTextStyleTableRecord
  2
SLDTEXTSTYLE0
 70
     0
 40
0.0
 41
0.7
 50
0.0
 71
     0
 42
3.8805555556
  3
TXT
  4
bigfont
  0
ENDTAB
  0
TABLE
  2
VIEW
  5
6
330
0
100
AcDbSymbolTable
 70
     0
  0
ENDTAB
  0
TABLE
  2
UCS
  5
7
330
0
100
AcDbSymbolTable
 70
     0
  0
ENDTAB
  0
TABLE
  2
APPID
  5
9
330
0
100
AcDbSymbolTable
 70
     1
  0
APPID
  5
12
330
9
100
AcDbSymbolTableRecord
100
AcDbRegAppTableRecord
  2
ACAD
 70
     0
  0
ENDTAB
  0
TABLE
  2
DIMSTYLE
  5
A
330
0
100
AcDbSymbolTable
 70
     1
100
AcDbDimStyleTable
  0
DIMSTYLE
105
27
330
A
100
AcDbSymbolTableRecord
100
AcDbDimStyleTableRecord
  2
ISO-25
 70
     0
 41
2.5
 42
0.625
 43
3.75
 44
1.25
 73
     0
 74
     0
 77
     1
 78
     8
140
2.5
141
2.5
143
0.0393700787
147
0.625
171
     3
172
     1
178
     0
271
     2
272
     2
274
     3
278
    44
283
     0
284
     8
340
11
  0
ENDTAB
  0
TABLE
  2
BLOCK_RECORD
  5
1
330
0
100
AcDbSymbolTable
 70
     1
  0
BLOCK_RECORD
  5
1F
330
1
100
AcDbSymbolTableRecord
100
AcDbBlockTableRecord
  2
*Model_Space
340
22
  0
BLOCK_RECORD
  5
1B
330
1
100
AcDbSymbolTableRecord
100
AcDbBlockTableRecord
  2
*Paper_Space
340
1E
  0
BLOCK_RECORD
  5
23
330
1
100
AcDbSymbolTableRecord
100
AcDbBlockTableRecord
  2
*Paper_Space0
340
26
  0
ENDTAB
  0
ENDSEC
  0
SECTION
  2
BLOCKS
  0
BLOCK
  5
20
330
1F
100
AcDbEntity
  8
0
100
AcDbBlockBegin
  2
*Model_Space
 70
     0
 10
0.0
 20
0.0
 30
0.0
  3
*Model_Space
  1

  0
ENDBLK
  5
21
330
1F
100
AcDbEntity
  8
0
100
AcDbBlockEnd
  0
BLOCK
  5
1C
330
1B
100
AcDbEntity
 67
     1
  8
0
100
AcDbBlockBegin
  2
*Paper_Space
 70
     0
 10
0.0
 20
0.0
 30
0.0
  3
*Paper_Space
  1

  0
ENDBLK
  5
1D
330
1B
100
AcDbEntity
 67
     1
  8
0
100
AcDbBlockEnd
  0
BLOCK
  5
24
330
23
100
AcDbEntity
  8
0
100
AcDbBlockBegin
  2
*Paper_Space0
 70
     0
 10
0.0
 20
0.0
 30
0.0
  3
*Paper_Space0
  1

  0
ENDBLK
  5
25
330
23
100
AcDbEntity
  8
0
100
AcDbBlockEnd
  0
ENDSEC
  0
SECTION
  2
ENTITIES
  0
MTEXT
  5
79
330
1F
100
AcDbEntity
  8
9
 62
     7
100
AcDbMText
 10
22.9810592731
 20
14.7698939359
 30
0.0
 40
3.7041666667
 41
0.0
 71
     1
 72
     1
  1
2015/05/21
  7
SLDTEXTSTYLE0
 73
     1
 44
1.0
  0
MTEXT
  5
7A
330
1F
100
AcDbEntity
  8
9
 62
     7
100
AcDbMText
 10
22.9810592731
 20
39.3097759652
 30
0.0
 40
3.7041666667
 41
0.0
 71
     1
 72
     1
  1
PXP-HH01
  7
SLDTEXTSTYLE0
 73
     1
 44
1.0
  0
MTEXT
  5
7B
330
1F
100
AcDbEntity
  8
9
 62
     7
100
AcDbMText
 10
22.9810592731
 20
22.271836236
 30
0.0
 40
3.7041666667
 41
0.0
 71
     1
 72
     1
  1
2019/04/17
  7
SLDTEXTSTYLE0
 73
     1
 44
1.0
  0
MTEXT
  5
7C
330
1F
100
AcDbEntity
  8
9
 62
     7
100
AcDbMText
 10
22.9810592731
 20
30.9293045781
 30
0.0
 40
3.7041666667
 41
0.0
 71
     1
 72
     1
  1
1:1
  7
SLDTEXTSTYLE0
 73
     1
 44
1.0
  0
ARC
  5
7D
330
1F
100
AcDbEntity
  8
0
  6
Continuous
 62
     7
370
    30
100
AcDbCircle
 10
139.4490406192
 20
180.2699681098
 30
0.0
 40
1.0
100
AcDbArc
 50
90.0
 51
180.0
  0
ARC
  5
7E
330
1F
100
AcDbEntity
  8
0
  6
Continuous
 62
     7
370
    30
100
AcDbCircle
 10
166.7490406192
 20
112.2699681098
 30
0.0
 40
1.0
100
AcDbArc
 50
270.0
 51
0.0
  0
LINE
  5
7F
330
1F
100
AcDbEntity
  8
0
  6
Continuous
 62
     7
370
    30
100
AcDbLine
 10
167.7490406192
 20
112.2699681098
 30
0.0
 11
167.7490406192
 21
180.2699681098
 31
0.0
  0
ARC
  5
80
330
1F
100
AcDbEntity
  8
0
  6
Continuous
 62
     7
370
    30
100
AcDbCircle
 10
139.4490406192
 20
112.2699681098
 30
0.0
 40
1.0
100
AcDbArc
 50
180.0
 51
270.0
  0
LINE
  5
81
330
1F
100
AcDbEntity
  8
0
  6
Continuous
 62
     7
370
    30
100
AcDbLine
 10
138.4490406192
 20
180.2699681098
 30
0.0
 11
138.4490406192
 21
112.2699681098
 31
0.0
  0
LINE
  5
82
330
1F
100
AcDbEntity
  8
0
  6
Continuous
 62
     7
370
    30
100
AcDbLine
 10
139.4490406192
 20
111.2699681098
 30
0.0
 11
166.7490406192
 21
111.2699681098
 31
0.0
  0
LINE
  5
83
330
1F
100
AcDbEntity
  8
0
  6
Continuous
 62
     7
370
    30
100
AcDbLine
 10
166.7490406192
 20
181.2699681098
 30
0.0
 11
139.4490406192
 21
181.2699681098
 31
0.0
  0
ARC
  5
84
330
1F
100
AcDbEntity
  8
0
  6
Continuous
 62
     7
370
    30
100
AcDbCircle
 10
166.7490406192
 20
180.2699681098
 30
0.0
 40
1.0
100
AcDbArc
 50
0.0
 51
90.0
  0
ARC
  5
85
330
1F
100
AcDbEntity
  8
0
  6
Continuous
 62
     7
370
    30
100
AcDbCircle
 10
134.5990406192
 20
190.7699681098
 30
0.0
 40
18.00000000000003
100
AcDbArc
 50
90.0000000052
 51
180.0000000021
  0
ARC
  5
86
330
1F
100
AcDbEntity
  8
0
  6
Continuous
 62
     7
370
    30
100
AcDbCircle
 10
171.5990406192
 20
101.7699681098
 30
0.0
 40
18.0
100
AcDbArc
 50
270.0000000052
 51
0.0
  0
ARC
  5
87
330
1F
100
AcDbEntity
  8
0
  6
Continuous
 62
     7
370
    30
100
AcDbCircle
 10
134.5990406192
 20
101.7699681098
 30
0.0
 40
18.00000000000003
100
AcDbArc
 50
180.000000002
 51
269.9999999999
  0
ARC
  5
88
330
1F
100
AcDbEntity
  8
0
  6
Continuous
 62
     7
370
    30
100
AcDbCircle
 10
171.5990406192
 20
190.7699681098
 30
0.0
 40
18.0
100
AcDbArc
 50
0.0
 51
89.9999999999
  0
LINE
  5
89
330
1F
100
AcDbEntity
  8
0
  6
Continuous
 62
     7
370
    30
100
AcDbLine
 10
134.5990406175
 20
208.7699681098
 30
0.0
 11
171.5990406192
 21
208.7699681098
 31
0.0
  0
LINE
  5
8A
330
1F
100
AcDbEntity
  8
0
  6
Continuous
 62
     7
370
    30
100
AcDbLine
 10
171.5990406208
 20
83.7699681098
 30
0.0
 11
156.3490406192
 21
83.7699681098
 31
0.0
  0
SPLINE
  5
8B
330
1F
100
AcDbEntity
  8
0
  6
Continuous
 62
     7
370
    30
100
AcDbSpline
210
0.0
220
0.0
230
1.0
 70
    24
 71
     3
 72
     8
 73
     4
 74
     0
 42
0.000000001
 43
0.00000001
 40
0.0
 40
0.0
 40
0.0
 40
0.0
 40
1.0
 40
1.0
 40
1.0
 40
1.0
 10
156.3490406191804
 20
83.99025697449095
 30
0.0
 10
156.3490406191804
 20
83.8437541935032
 30
0.0
 10
156.3490406191804
 20
83.770324571924
 30
0.0
 10
156.3490406191804
 20
83.7699681097533
 30
0.0
  0
LINE
  5
8C
330
1F
100
AcDbEntity
  8
0
  6
Continuous
 62
     7
370
    30
100
AcDbLine
 10
149.8490406192
 20
83.9902569745
 30
0.0
 11
156.3490406192
 21
83.9902569745
 31
0.0
  0
SPLINE
  5
8D
330
1F
100
AcDbEntity
  8
0
  6
Continuous
 62
     7
370
    30
100
AcDbSpline
210
0.0
220
0.0
230
1.0
 70
    24
 71
     3
 72
     8
 73
     4
 74
     0
 42
0.000000001
 43
0.00000001
 40
0.0
 40
0.0
 40
0.0
 40
0.0
 40
1.0
 40
1.0
 40
1.0
 40
1.0
 10
149.8490406191978
 20
83.76996810975328
 30
0.0
 10
149.8490406191978
 20
83.770324571924
 30
0.0
 10
149.8490406191804
 20
83.84375419350319
 30
0.0
 10
149.8490406191804
 20
83.99025697449092
 30
0.0
  0
LINE
  5
8E
330
1F
100
AcDbEntity
  8
0
  6
Continuous
 62
     7
370
    30
100
AcDbLine
 10
149.8490406192
 20
83.7699681098
 30
0.0
 11
134.5990406192
 21
83.7699681098
 31
0.0
  0
LINE
  5
8F
330
1F
100
AcDbEntity
  8
0
  6
Continuous
 62
     7
370
    30
100
AcDbLine
 10
189.5990406192
 20
190.7699681098
 30
0.0
 11
189.5990406192
 21
101.7699681098
 31
0.0
  0
LINE
  5
90
330
1F
100
AcDbEntity
  8
0
  6
Continuous
 62
     7
370
    30
100
AcDbLine
 10
116.5990406192
 20
101.7699681091
 30
0.0
 11
116.5990406192
 21
190.7699681091
 31
0.0
  0
LINE
  5
91
330
1F
100
AcDbEntity
  8
0
  6
Continuous
 62
     7
370
    30
100
AcDbLine
 10
116.8633106749
 20
253.8983581121
 30
0.0
 11
116.8936260832
 21
253.7872016148
 31
0.0
  0
LINE
  5
92
330
1F
100
AcDbEntity
  8
0
  6
Continuous
 62
     7
370
    30
100
AcDbLine
 10
189.3048485006
 20
253.7886438816
 30
0.0
 11
189.3347705635
 21
253.8983581121
 31
0.0
  0
LINE
  5
93
330
1F
100
AcDbEntity
  8
0
  6
Continuous
 62
     7
370
    30
100
AcDbLine
 10
180.541703902
 20
248.6366806829
 30
0.0
 11
182.5641455572
 21
249.2145211558
 31
0.0
  0
LINE
  5
94
330
1F
100
AcDbEntity
  8
0
  6
Continuous
 62
     7
370
    30
100
AcDbLine
 10
123.6193379571
 20
249.2186919341
 30
0.0
 11
125.6689245977
 21
248.6330957511
 31
0.0
  0
LINE
  5
95
330
1F
100
AcDbEntity
  8
0
  6
Continuous
 62
     7
370
    30
100
AcDbLine
 10
129.4958546936
 20
248.2562403755
 30
0.0
 11
131.0130046073
 21
247.8314383997
 31
0.0
  0
LINE
  5
96
330
1F
100
AcDbEntity
  8
0
  6
Continuous
 62
     7
370
    30
100
AcDbLine
 10
175.1942617309
 20
247.8340102277
 30
0.0
 11
176.7022265447
 21
248.2562403755
 31
0.0
  0
LINE
  5
97
330
1F
100
AcDbEntity
  8
0
  6
Continuous
 62
     7
370
    30
100
AcDbLine
 10
116.5990406192
 20
255.8673483164
 30
0.0
 11
134.5990406175
 21
255.8673483164
 31
0.0
  0
ARC
  5
98
330
1F
100
AcDbEntity
  8
0
  6
Continuous
 62
     7
370
    30
100
AcDbCircle
 10
124.0990393342
 20
255.8717386555
 30
0.0
 40
7.500000000000154
100
AcDbArc
 50
180.0335397225
 51
195.2551187031
  0
ARC
  5
99
330
1F
100
AcDbEntity
  8
0
  6
Continuous
 62
     7
370
    30
100
AcDbCircle
 10
122.6818156652
 20
255.3673483164
 30
0.0
 40
6.000000000000014
100
AcDbArc
 50
195.2551187031
 51
269.1590711911
  0
ARC
  5
9A
330
1F
100
AcDbEntity
  8
0
  6
Continuous
 62
     7
370
    30
100
AcDbCircle
 10
182.0990419042
 20
255.8717386555
 30
0.0
 40
7.500000000000004
100
AcDbArc
 50
344.7448812969
 51
359.9664602775
  0
LINE
  5
9B
330
1F
100
AcDbEntity
  8
0
  6
Continuous
 62
     7
370
    30
100
AcDbLine
 10
171.5990406192
 20
255.8673483164
 30
0.0
 11
189.5990406192
 21
255.8673483164
 31
0.0
  0
ARC
  5
9C
330
1F
100
AcDbEntity
  8
0
  6
Continuous
 62
     7
370
    30
100
AcDbCircle
 10
183.5162655732
 20
255.3673483164
 30
0.0
 40
6.000000000000014
100
AcDbArc
 50
270.8409288088
 51
344.7448812969
  0
LINE
  5
9D
330
1F
100
AcDbEntity
  8
0
  6
Continuous
 62
     7
370
    30
100
AcDbLine
 10
134.5990406175
 20
255.8673483164
 30
0.0
 11
171.5990406192
 21
255.8673483164
 31
0.0
  0
ARC
  5
9E
330
1F
100
AcDbEntity
  8
0
  6
Continuous
 62
     7
370
    30
100
AcDbCircle
 10
122.5350511696
 20
245.3684253652
 30
0.0
 40
4.000000000000033
100
AcDbArc
 50
74.0546040991
 51
89.1590711911
  0
ARC
  5
9F
330
1F
100
AcDbEntity
  8
0
  6
Continuous
 62
     7
370
    30
100
AcDbCircle
 10
183.6630300688
 20
245.3684253652
 30
0.0
 40
4.000000000000004
100
AcDbArc
 50
90.8409288088
 51
105.9453959009
  0
ARC
  5
A0
330
1F
100
AcDbEntity
  8
0
  6
Continuous
 62
     7
370
    30
100
AcDbCircle
 10
178.6186560067
 20
255.3673483164
 30
0.0
 40
7.0
100
AcDbArc
 50
270.0
 51
285.9453959009
  0
SPLINE
  5
A1
330
1F
100
AcDbEntity
  8
0
  6
Continuous
 62
     7
370
    30
100
AcDbSpline
210
0.0
220
0.0
230
1.0
 70
    24
 71
     3
 72
    28
 73
    24
 74
     0
 42
0.000000001
 43
0.00000001
 40
0.0
 40
0.0
 40
0.0
 40
0.0
 40
0.1249999999999979
 40
0.1249999999999979
 40
0.1874999999999977
 40
0.1874999999999977
 40
0.2499999999999976
 40
0.2499999999999976
 40
0.3749999999999973
 40
0.3749999999999973
 40
0.4999999999999971
 40
0.4999999999999971
 40
0.6249999999999969
 40
0.6249999999999969
 40
0.6874999999999972
 40
0.6874999999999972
 40
0.7499999999999976
 40
0.7499999999999976
 40
0.812499999999998
 40
0.812499999999998
 40
0.8749999999999983
 40
0.8749999999999983
 40
1.0
 40
1.0
 40
1.0
 40
1.0
 10
178.6186560066986
 20
248.3673483163751
 30
0.0
 10
178.6186560065152
 20
248.3673483163751
 30
0.0
 10
178.5723570037123
 20
248.3673483163751
 30
0.0
 10
178.4374940485964
 20
248.3673483163751
 30
0.0
 10
178.381802381985
 20
248.3673483163751
 30
0.0
 10
178.2480858887514
 20
248.3673483163751
 30
0.0
 10
178.1697414767864
 20
248.3673483163751
 30
0.0
 10
177.9060010837933
 20
248.3673483163751
 30
0.0
 10
177.6910640735264
 20
248.3673483163751
 30
0.0
 10
177.1828247452644
 20
248.3673483163751
 30
0.0
 10
176.8871202107931
 20
248.3673483163751
 30
0.0
 10
176.2406707971042
 20
248.3673483163751
 30
0.0
 10
175.8876094048943
 20
248.3673483163751
 30
0.0
 10
175.3124427709004
 20
248.3673483163751
 30
0.0
 10
175.1132272598198
 20
248.3673483163751
 30
0.0
 10
174.70828105744
 20
248.3673483163751
 30
0.0
 10
174.5014927416231
 20
248.3673483163751
 30
0.0
 10
174.0794327375289
 20
248.3673483163751
 30
0.0
 10
173.864154547159
 20
248.3673483163751
 30
0.0
 10
173.4249983296459
 20
248.3673483163751
 30
0.0
 10
173.200098025732
 20
248.3673483163751
 30
0.0
 10
172.520537948776
 20
248.3673483163751
 30
0.0
 10
172.0623750431056
 20
248.3673483163751
 30
0.0
 10
171.5989732175012
 20
248.3673483163751
 30
0.0
  0
SPLINE
  5
A2
330
1F
100
AcDbEntity
  8
0
  6
Continuous
 62
     7
370
    30
100
AcDbSpline
210
0.0
220
0.0
230
1.0
 70
    24
 71
     3
 72
    28
 73
    24
 74
     0
 42
0.000000001
 43
0.00000001
 40
0.0
 40
0.0
 40
0.0
 40
0.0
 40
0.1249999999999993
 40
0.1249999999999993
 40
0.1874999999999985
 40
0.1874999999999985
 40
0.2499999999999977
 40
0.2499999999999977
 40
0.374999999999997
 40
0.374999999999997
 40
0.4999999999999963
 40
0.4999999999999963
 40
0.6249999999999956
 40
0.6249999999999956
 40
0.687499999999996
 40
0.687499999999996
 40
0.7499999999999964
 40
0.7499999999999964
 40
0.8124999999999969
 40
0.8124999999999969
 40
0.8749999999999973
 40
0.8749999999999973
 40
1.0
 40
1.0
 40
1.0
 40
1.0
 10
134.5990406198052
 20
248.3673483163751
 30
0.0
 10
134.1355519877664
 20
248.3673483163751
 30
0.0
 10
133.6798473578788
 20
248.3673483163751
 30
0.0
 10
133.0073453949715
 20
248.3673483163751
 30
0.0
 10
132.7850015116701
 20
248.3673483163751
 30
0.0
 10
132.3440988922576
 20
248.3673483163751
 30
0.0
 10
132.1251221677227
 20
248.3673483163751
 30
0.0
 10
131.4881030955196
 20
248.3673483163751
 30
0.0
 10
131.0849844571938
 20
248.3673483163751
 30
0.0
 10
130.3219140194713
 20
248.3673483163751
 30
0.0
 10
129.9607045170805
 20
248.3673483163751
 30
0.0
 10
129.3137796478181
 20
248.3673483163751
 30
0.0
 10
129.0236711179504
 20
248.3673483163751
 30
0.0
 10
128.6392404542108
 20
248.3673483163751
 30
0.0
 10
128.519982622948
 20
248.3673483163751
 30
0.0
 10
128.3037018349582
 20
248.3673483163751
 30
0.0
 10
128.2059468561511
 20
248.3673483163751
 30
0.0
 10
128.0308188788055
 20
248.3673483163751
 30
0.0
 10
127.9534681501684
 20
248.3673483163751
 30
0.0
 10
127.8194929726406
 20
248.3673483163751
 30
0.0
 10
127.7626848440297
 20
248.3673483163751
 30
0.0
 10
127.6257142141086
 20
248.3673483163751
 30
0.0
 10
127.5794252316383
 20
248.3673483163751
 30
0.0
 10
127.5794252316398
 20
248.3673483163751
 30
0.0
  0
ARC
  5
A3
330
1F
100
AcDbEntity
  8
0
  6
Continuous
 62
     7
370
    30
100
AcDbCircle
 10
127.5794252316
 20
255.3673483164
 30
0.0
 40
7.000000000000012
100
AcDbArc
 50
254.0546040991
 51
270.0
  0
LINE
  5
A4
330
1F
100
AcDbEntity
  8
0
  6
Continuous
 62
     7
370
    30
100
AcDbLine
 10
171.5989732175
 20
248.3673483164
 30
0.0
 11
134.5990406198
 21
248.3673483164
 31
0.0
  0
SPLINE
  5
A5
330
1F
100
AcDbEntity
  8
0
  6
Continuous
 62
     7
370
    30
100
AcDbSpline
210
0.0
220
0.0
230
1.0
 70
    24
 71
     3
 72
    20
 73
    16
 74
     0
 42
0.000000001
 43
0.00000001
 40
0.0
 40
0.0
 40
0.0
 40
0.0
 40
0.1249999999999996
 40
0.1249999999999996
 40
0.2499999999999993
 40
0.2499999999999993
 40
0.3749999999999989
 40
0.3749999999999989
 40
0.4999999999999986
 40
0.4999999999999986
 40
0.7499999999999998
 40
0.7499999999999998
 40
0.8749999999999999
 40
0.8749999999999999
 40
1.0
 40
1.0
 40
1.0
 40
1.0
 10
134.599040620038
 20
247.6673483163751
 30
0.0
 10
134.4416488977899
 20
247.6673483163751
 30
0.0
 10
134.287018334829
 20
247.6673483163751
 30
0.0
 10
133.9829080856015
 20
247.6673483163751
 30
0.0
 10
133.8316057946834
 20
247.6673483163751
 30
0.0
 10
133.5433263545173
 20
247.6673483163751
 30
0.0
 10
133.4064435450122
 20
247.6673483163751
 30
0.0
 10
133.1473007376435
 20
247.6673483163751
 30
0.0
 10
133.0245197284947
 20
247.6673483163751
 30
0.0
 10
132.6915691402557
 20
247.6673483163751
 30
0.0
 10
132.5212344612069
 20
247.6673483163751
 30
0.0
 10
132.3417000961717
 20
247.6673483163751
 30
0.0
 10
132.2969375531739
 20
247.6673483163751
 30
0.0
 10
132.2337682953292
 20
247.6673483163751
 30
0.0
 10
132.2171588539977
 20
247.6673483163751
 30
0.0
 10
132.2171541733217
 20
247.6673483163751
 30
0.0
  0
ARC
  5
A6
330
1F
100
AcDbEntity
  8
0
  6
Continuous
 62
     7
370
    30
100
AcDbCircle
 10
132.2171541733
 20
252.1673483164
 30
0.0
 40
4.499999999999972
100
AcDbArc
 50
254.3577535479
 51
270.0
  0
SPLINE
  5
A7
330
1F
100
AcDbEntity
  8
0
  6
Continuous
 62
     7
370
    30
100
AcDbSpline
210
0.0
220
0.0
230
1.0
 70
    24
 71
     3
 72
    20
 73
    16
 74
     0
 42
0.000000001
 43
0.00000001
 40
0.0
 40
0.0
 40
0.0
 40
0.0
 40
0.1249999999999993
 40
0.1249999999999993
 40
0.2499999999999986
 40
0.2499999999999986
 40
0.3749999999999978
 40
0.3749999999999978
 40
0.4999999999999971
 40
0.4999999999999971
 40
0.7499999999999996
 40
0.7499999999999996
 40
0.8749999999999997
 40
0.8749999999999997
 40
1.0
 40
1.0
 40
1.0
 40
1.0
 10
173.9809270660784
 20
247.6673483163751
 30
0.0
 10
173.9809270659983
 20
247.6673483163751
 30
0.0
 10
173.9646110731774
 20
247.6673483163751
 30
0.0
 10
173.9014457482498
 20
247.6673483163751
 30
0.0
 10
173.8556483404356
 20
247.6673483163751
 30
0.0
 10
173.7369185469406
 20
247.6673483163751
 30
0.0
 10
173.6643595660555
 20
247.6673483163751
 30
0.0
 10
173.4926167612892
 20
247.6673483163751
 30
0.0
 10
173.393008501586
 20
247.6673483163751
 30
0.0
 10
173.059463344729
 20
247.6673483163751
 30
0.0
 10
172.8007192863179
 20
247.6673483163751
 30
0.0
 10
172.3656387575963
 20
247.6673483163751
 30
0.0
 10
172.2169371265707
 20
247.6673483163751
 30
0.0
 10
171.9130856525801
 20
247.6673483163751
 30
0.0
 10
171.7564210058213
 20
247.6673483163751
 30
0.0
 10
171.5991136635327
 20
247.6673483163751
 30
0.0
  0
ARC
  5
A8
330
1F
100
AcDbEntity
  8
0
  6
Continuous
 62
     7
370
    30
100
AcDbCircle
 10
173.9809270661
 20
252.1673483164
 30
0.0
 40
4.500000000000028
100
AcDbArc
 50
270.0
 51
285.6422464572
  0
LINE
  5
A9
330
1F
100
AcDbEntity
  8
0
  6
Continuous
 62
     7
370
    30
100
AcDbLine
 10
171.5991136635
 20
247.6673483164
 30
0.0
 11
134.59904062
 21
247.6673483164
 31
0.0
  0
LINE
  5
AA
330
1F
100
AcDbEntity
  8
0
  6
Continuous
 62
     7
370
    30
100
AcDbLine
 10
189.3347705635
 20
45.9595884825
 30
0.0
 11
189.3044551551
 21
46.0707449798
 31
0.0
  0
LINE
  5
AB
330
1F
100
AcDbEntity
  8
0
  6
Continuous
 62
     7
370
    30
100
AcDbLine
 10
116.8932327377
 20
46.069302713
 30
0.0
 11
116.8633106749
 21
45.9595884825
 31
0.0
  0
LINE
  5
AC
330
1F
100
AcDbEntity
  8
0
  6
Continuous
 62
     7
370
    30
100
AcDbLine
 10
125.6563773364
 20
51.2212659117
 30
0.0
 11
123.6339356812
 21
50.6434254388
 31
0.0
  0
LINE
  5
AD
330
1F
100
AcDbEntity
  8
0
  6
Continuous
 62
     7
370
    30
100
AcDbLine
 10
182.5787432812
 20
50.6392546605
 30
0.0
 11
180.5291566406
 21
51.2248508436
 31
0.0
  0
LINE
  5
AE
330
1F
100
AcDbEntity
  8
0
  6
Continuous
 62
     7
370
    30
100
AcDbLine
 10
176.7022265447
 20
51.6017062191
 30
0.0
 11
175.185076631
 21
52.0265081949
 31
0.0
  0
LINE
  5
AF
330
1F
100
AcDbEntity
  8
0
  6
Continuous
 62
     7
370
    30
100
AcDbLine
 10
131.0038195074
 20
52.023936367
 30
0.0
 11
129.4958546937
 21
51.6017062191
 31
0.0
  0
LINE
  5
B0
330
1F
100
AcDbEntity
  8
0
  6
Continuous
 62
     7
370
    30
100
AcDbLine
 10
171.5990406208
 20
43.9905982782
 30
0.0
 11
156.3490406192
 21
43.9905982782
 31
0.0
  0
SPLINE
  5
B1
330
1F
100
AcDbEntity
  8
0
  6
Continuous
 62
     7
370
    30
100
AcDbSpline
210
0.0
220
0.0
230
1.0
 70
    24
 71
     3
 72
     8
 73
     4
 74
     0
 42
0.000000001
 43
0.00000001
 40
0.0
 40
0.0
 40
0.0
 40
0.0
 40
1.0
 40
1.0
 40
1.0
 40
1.0
 10
156.3490406191804
 20
45.79059827824587
 30
0.0
 10
156.3490406191804
 20
45.19954116898415
 30
0.0
 10
156.3490406191804
 20
44.59954116898415
 30
0.0
 10
156.3490406191804
 20
43.99059827824587
 30
0.0
  0
LINE
  5
B2
330
1F
100
AcDbEntity
  8
0
  6
Continuous
 62
     7
370
    30
100
AcDbLine
 10
149.8490406192
 20
45.7905982782
 30
0.0
 11
156.3490406192
 21
45.7905982782
 31
0.0
  0
SPLINE
  5
B3
330
1F
100
AcDbEntity
  8
0
  6
Continuous
 62
     7
370
    30
100
AcDbSpline
210
0.0
220
0.0
230
1.0
 70
    24
 71
     3
 72
     8
 73
     4
 74
     0
 42
0.000000001
 43
0.00000001
 40
0.0
 40
0.0
 40
0.0
 40
0.0
 40
1.0
 40
1.0
 40
1.0
 40
1.0
 10
149.8490406191978
 20
43.99059827824587
 30
0.0
 10
149.8490406191978
 20
44.59954116898415
 30
0.0
 10
149.8490406191804
 20
45.19954116898415
 30
0.0
 10
149.8490406191804
 20
45.79059827824587
 30
0.0
  0
LINE
  5
B4
330
1F
100
AcDbEntity
  8
0
  6
Continuous
 62
     7
370
    30
100
AcDbLine
 10
149.8490406192
 20
43.9905982782
 30
0.0
 11
134.5990406192
 21
43.9905982782
 31
0.0
  0
ARC
  5
B5
330
1F
100
AcDbEntity
  8
0
  6
Continuous
 62
     7
370
    30
100
AcDbCircle
 10
124.0990393342
 20
43.9862079391
 30
0.0
 40
7.500000000000026
100
AcDbArc
 50
164.7448812969
 51
179.9664602774
  0
LINE
  5
B6
330
1F
100
AcDbEntity
  8
0
  6
Continuous
 62
     7
370
    30
100
AcDbLine
 10
134.5990406192
 20
43.9905982782
 30
0.0
 11
116.5990406192
 21
43.9905982782
 31
0.0
  0
ARC
  5
B7
330
1F
100
AcDbEntity
  8
0
  6
Continuous
 62
     7
370
    30
100
AcDbCircle
 10
122.6818156652
 20
44.4905982782
 30
0.0
 40
6.000000000000014
100
AcDbArc
 50
90.8409288088
 51
164.7448812969
  0
ARC
  5
B8
330
1F
100
AcDbEntity
  8
0
  6
Continuous
 62
     7
370
    30
100
AcDbCircle
 10
182.0990419042
 20
43.9862079391
 30
0.0
 40
7.499999999999974
100
AcDbArc
 50
0.0335397226
 51
15.2551187031
  0
LINE
  5
B9
330
1F
100
AcDbEntity
  8
0
  6
Continuous
 62
     7
370
    30
100
AcDbLine
 10
189.5990406192
 20
43.9905982782
 30
0.0
 11
171.5990406208
 21
43.9905982782
 31
0.0
  0
ARC
  5
BA
330
1F
100
AcDbEntity
  8
0
  6
Continuous
 62
     7
370
    30
100
AcDbCircle
 10
183.5162655732
 20
44.4905982782
 30
0.0
 40
6.000000000000012
100
AcDbArc
 50
15.2551187031
 51
89.1590711912
  0
ARC
  5
BB
330
1F
100
AcDbEntity
  8
0
  6
Continuous
 62
     7
370
    30
100
AcDbCircle
 10
183.6630300688
 20
54.4895212294
 30
0.0
 40
4.000000000000005
100
AcDbArc
 50
254.0546040991
 51
269.1590711912
  0
ARC
  5
BC
330
1F
100
AcDbEntity
  8
0
  6
Continuous
 62
     7
370
    30
100
AcDbCircle
 10
122.5350511696
 20
54.4895212294
 30
0.0
 40
4.000000000000021
100
AcDbArc
 50
270.8409288087
 51
285.9453959009
  0
SPLINE
  5
BD
330
1F
100
AcDbEntity
  8
0
  6
Continuous
 62
     7
370
    30
100
AcDbSpline
210
0.0
220
0.0
230
1.0
 70
    24
 71
     3
 72
    28
 73
    24
 74
     0
 42
0.000000001
 43
0.00000001
 40
0.0
 40
0.0
 40
0.0
 40
0.0
 40
0.1250000000000008
 40
0.1250000000000008
 40
0.1875000000000011
 40
0.1875000000000011
 40
0.2500000000000014
 40
0.2500000000000014
 40
0.3750000000000017
 40
0.3750000000000017
 40
0.5000000000000019
 40
0.5000000000000019
 40
0.6250000000000022
 40
0.6250000000000022
 40
0.6875000000000019
 40
0.6875000000000019
 40
0.7500000000000014
 40
0.7500000000000014
 40
0.8125000000000011
 40
0.8125000000000011
 40
0.8750000000000008
 40
0.8750000000000008
 40
1.0
 40
1.0
 40
1.0
 40
1.0
 10
127.5794252316568
 20
51.49059827824587
 30
0.0
 10
127.5794252318302
 20
51.49059827824587
 30
0.0
 10
127.6257242346147
 20
51.49059827824588
 30
0.0
 10
127.7605871897113
 20
51.49059827824588
 30
0.0
 10
127.816278856317
 20
51.49059827824588
 30
0.0
 10
127.9499953495401
 20
51.49059827824588
 30
0.0
 10
128.0283397614998
 20
51.49059827824587
 30
0.0
 10
128.2920801544822
 20
51.49059827824587
 30
0.0
 10
128.5070171647493
 20
51.49059827824587
 30
0.0
 10
129.0152564930382
 20
51.49059827824587
 30
0.0
 10
129.3109610275011
 20
51.49059827824588
 30
0.0
 10
129.9574104411753
 20
51.49059827824587
 30
0.0
 10
130.3104718333935
 20
51.49059827824587
 30
0.0
 10
130.8856384674374
 20
51.49059827824587
 30
0.0
 10
131.0848539785033
 20
51.49059827824587
 30
0.0
 10
131.4898001808697
 20
51.49059827824587
 30
0.0
 10
131.6965884966847
 20
51.49059827824587
 30
0.0
 10
132.1186485007857
 20
51.49059827824587
 30
0.0
 10
132.3339266911645
 20
51.49059827824587
 30
0.0
 10
132.7730829087071
 20
51.49059827824587
 30
0.0
 10
132.9979832126478
 20
51.49059827824587
 30
0.0
 10
133.6775432895847
 20
51.49059827824587
 30
0.0
 10
134.1357061952532
 20
51.49059827824588
 30
0.0
 10
134.5991080208676
 20
51.49059827824587
 30
0.0
  0
ARC
  5
BE
330
1F
100
AcDbEntity
  8
0
  6
Continuous
 62
     7
370
    30
100
AcDbCircle
 10
127.5794252317
 20
44.4905982782
 30
0.0
 40
7.000000000000002
100
AcDbArc
 50
90.0
 51
105.9453959009
  0
SPLINE
  5
BF
330
1F
100
AcDbEntity
  8
0
  6
Continuous
 62
     7
370
    30
100
AcDbSpline
210
0.0
220
0.0
230
1.0
 70
    24
 71
     3
 72
    28
 73
    24
 74
     0
 42
0.000000001
 43
0.00000001
 40
0.0
 40
0.0
 40
0.0
 40
0.0
 40
0.1250000000000014
 40
0.1250000000000014
 40
0.1875000000000014
 40
0.1875000000000014
 40
0.2500000000000014
 40
0.2500000000000014
 40
0.3750000000000023
 40
0.3750000000000023
 40
0.5000000000000031
 40
0.5000000000000031
 40
0.6250000000000039
 40
0.6250000000000039
 40
0.6875000000000033
 40
0.6875000000000033
 40
0.7500000000000027
 40
0.7500000000000027
 40
0.812500000000002
 40
0.812500000000002
 40
0.8750000000000013
 40
0.8750000000000013
 40
1.0
 40
1.0
 40
1.0
 40
1.0
 10
171.5990406185786
 20
51.49059827824587
 30
0.0
 10
172.0625292505285
 20
51.49059827824588
 30
0.0
 10
172.5182338803297
 20
51.49059827824588
 30
0.0
 10
173.1907358431116
 20
51.49059827824588
 30
0.0
 10
173.4130797263718
 20
51.49059827824587
 30
0.0
 10
173.8539823457036
 20
51.49059827824587
 30
0.0
 10
174.0729590702025
 20
51.49059827824586
 30
0.0
 10
174.7099781423075
 20
51.49059827824586
 30
0.0
 10
175.1130967805755
 20
51.49059827824587
 30
0.0
 10
175.8761672182
 20
51.49059827824586
 30
0.0
 10
176.2373767205623
 20
51.49059827824588
 30
0.0
 10
176.8843015898019
 20
51.49059827824588
 30
0.0
 10
177.1744101196692
 20
51.49059827824588
 30
0.0
 10
177.5588407834318
 20
51.49059827824588
 30
0.0
 10
177.6780986147155
 20
51.49059827824587
 30
0.0
 10
177.8943794027505
 20
51.49059827824587
 30
0.0
 10
177.9921343815834
 20
51.49059827824586
 30
0.0
 10
178.1672623589883
 20
51.49059827824587
 30
0.0
 10
178.2446130876592
 20
51.49059827824586
 30
0.0
 10
178.3785882652635
 20
51.49059827824587
 30
0.0
 10
178.435396393917
 20
51.49059827824587
 30
0.0
 10
178.5723670239906
 20
51.49059827824587
 30
0.0
 10
178.6186560066986
 20
51.49059827824587
 30
0.0
 10
178.6186560066986
 20
51.49059827824587
 30
0.0
  0
ARC
  5
C0
330
1F
100
AcDbEntity
  8
0
  6
Continuous
 62
     7
370
    30
100
AcDbCircle
 10
178.6186560067
 20
44.4905982782
 30
0.0
 40
7.0
100
AcDbArc
 50
74.0546040991
 51
90.0
  0
LINE
  5
C1
330
1F
100
AcDbEntity
  8
0
  6
Continuous
 62
     7
370
    30
100
AcDbLine
 10
134.5991080209
 20
51.4905982782
 30
0.0
 11
171.5990406186
 21
51.4905982782
 31
0.0
  0
LWPOLYLINE
  5
C2
330
1F
100
AcDbEntity
  8
0
  6
Continuous
 62
     7
370
    30
100
AcDbPolyline
 90
        2
 70
   128
 43
0.0
 10
131.0038195074
 20
52.023936367
 10
131.0038195074
 20
52.023936367
  0
SPLINE
  5
C3
330
1F
100
AcDbEntity
  8
0
  6
Continuous
 62
     7
370
    30
100
AcDbSpline
210
0.0
220
0.0
230
1.0
 70
    24
 71
     3
 72
    20
 73
    16
 74
     0
 42
0.000000001
 43
0.00000001
 40
0.0
 40
0.0
 40
0.0
 40
0.0
 40
0.1249999999999984
 40
0.1249999999999984
 40
0.2499999999999968
 40
0.2499999999999968
 40
0.3749999999999952
 40
0.3749999999999952
 40
0.4999999999999936
 40
0.4999999999999936
 40
0.7499999999999942
 40
0.7499999999999942
 40
0.8749999999999971
 40
0.8749999999999971
 40
1.0
 40
1.0
 40
1.0
 40
1.0
 10
171.5990406183326
 20
52.19059827824587
 30
0.0
 10
171.7564323411995
 20
52.19059827824587
 30
0.0
 10
171.9110628983698
 20
52.19059827824587
 30
0.0
 10
172.2151731252049
 20
52.19059827824587
 30
0.0
 10
172.366475397748
 20
52.19059827824587
 30
0.0
 10
172.6547548709302
 20
52.19059827824587
 30
0.0
 10
172.7916376891895
 20
52.19059827824587
 30
0.0
 10
173.0507805022593
 20
52.19059827824587
 30
0.0
 10
173.1735615096039
 20
52.19059827824587
 30
0.0
 10
173.5065120978064
 20
52.19059827824587
 30
0.0
 10
173.6768467768508
 20
52.19059827824587
 30
0.0
 10
173.856381141956
 20
52.19059827824587
 30
0.0
 10
173.9011436849843
 20
52.19059827824587
 30
0.0
 10
173.9643129429045
 20
52.19059827824587
 30
0.0
 10
173.9809223842936
 20
52.19059827824587
 30
0.0
 10
173.9809270650097
 20
52.19059827824587
 30
0.0
  0
ARC
  5
C4
330
1F
100
AcDbEntity
  8
0
  6
Continuous
 62
     7
370
    30
100
AcDbCircle
 10
173.980927065
 20
47.6905982782
 30
0.0
 40
4.5
100
AcDbArc
 50
74.3577535479
 51
90.0
  0
ARC
  5
C5
330
1F
100
AcDbEntity
  8
0
  6
Continuous
 62
     7
370
    30
100
AcDbCircle
 10
132.2171541723
 20
47.6905982782
 30
0.0
 40
4.500000000000003
100
AcDbArc
 50
90.0
 51
105.6422464573
  0
SPLINE
  5
C6
330
1F
100
AcDbEntity
  8
0
  6
Continuous
 62
     7
370
    30
100
AcDbSpline
210
0.0
220
0.0
230
1.0
 70
    24
 71
     3
 72
    20
 73
    16
 74
     0
 42
0.000000001
 43
0.00000001
 40
0.0
 40
0.0
 40
0.0
 40
0.0
 40
0.1250000000000002
 40
0.1250000000000002
 40
0.2500000000000003
 40
0.2500000000000003
 40
0.3750000000000005
 40
0.3750000000000005
 40
0.5000000000000007
 40
0.5000000000000007
 40
0.749999999999999
 40
0.749999999999999
 40
0.8749999999999994
 40
0.8749999999999994
 40
1.0
 40
1.0
 40
1.0
 40
1.0
 10
132.2171541722565
 20
52.19059827824587
 30
0.0
 10
132.2171541723361
 20
52.19059827824587
 30
0.0
 10
132.2334701651357
 20
52.19059827824587
 30
0.0
 10
132.2966354898127
 20
52.19059827824587
 30
0.0
 10
132.3424328974219
 20
52.19059827824587
 30
0.0
 10
132.4611626911653
 20
52.19059827824587
 30
0.0
 10
132.5337216721804
 20
52.19059827824587
 30
0.0
 10
132.7054644770124
 20
52.19059827824587
 30
0.0
 10
132.8050727366638
 20
52.19059827824587
 30
0.0
 10
133.1386178934237
 20
52.19059827824587
 30
0.0
 10
133.3973619517917
 20
52.19059827824587
 30
0.0
 10
133.8324424803976
 20
52.19059827824587
 30
0.0
 10
133.9811441113886
 20
52.19059827824587
 30
0.0
 10
134.2849955853184
 20
52.19059827824587
 30
0.0
 10
134.4416602320499
 20
52.19059827824587
 30
0.0
 10
134.5989675743108
 20
52.19059827824587
 30
0.0
  0
LINE
  5
C7
330
1F
100
AcDbEntity
  8
0
  6
Continuous
 62
     7
370
    30
100
AcDbLine
 10
134.5989675743
 20
52.1905982782
 30
0.0
 11
171.5990406183
 21
52.1905982782
 31
0.0
  0
LINE
  5
C8
330
1F
100
AcDbEntity
  8
0
  6
Continuous
 62
     7
370
    30
100
AcDbLine
 10
149.8490706192
 20
43.9905982782
 30
0.0
 11
156.3490206192
 21
43.9905982782
 31
0.0
  0
LINE
  5
C9
330
1F
100
AcDbEntity
  8
0
  6
Continuous
 62
     7
370
    30
100
AcDbLine
 10
64.9003586306
 20
84.0342381655
 30
0.0
 11
65.010072861
 21
84.0641602283
 31
0.0
  0
LINE
  5
CA
330
1F
100
AcDbEntity
  8
0
  6
Continuous
 62
     7
370
    30
100
AcDbLine
 10
65.010072861
 20
208.4757759912
 30
0.0
 11
64.9003586306
 21
208.505698054
 31
0.0
  0
LINE
  5
CB
330
1F
100
AcDbEntity
  8
0
  6
Continuous
 62
     7
370
    30
100
AcDbLine
 10
70.1620360598
 20
199.7126313926
 30
0.0
 11
69.5841955868
 21
201.7350730478
 31
0.0
  0
LINE
  5
CC
330
1F
100
AcDbEntity
  8
0
  6
Continuous
 62
     7
370
    30
100
AcDbLine
 10
69.5841955869
 20
90.8048631718
 30
0.0
 11
70.1620360598
 21
92.827304827
 31
0.0
  0
LINE
  5
CD
330
1F
100
AcDbEntity
  8
0
  6
Continuous
 62
     7
370
    30
100
AcDbLine
 10
70.5424763671
 20
96.6667821842
 30
0.0
 11
70.9647065154
 21
98.1747469993
 31
0.0
  0
LINE
  5
CE
330
1F
100
AcDbEntity
  8
0
  6
Continuous
 62
     7
370
    30
100
AcDbLine
 10
70.964706515
 20
194.3651892215
 30
0.0
 11
70.5424763671
 21
195.8731540353
 31
0.0
  0
LINE
  5
CF
330
1F
100
AcDbEntity
  8
0
  6
Continuous
 62
     7
370
    30
100
AcDbLine
 10
62.9313684263
 20
190.7699681091
 30
0.0
 11
62.9313684263
 21
208.7699681098
 31
0.0
  0
ARC
  5
D0
330
1F
100
AcDbEntity
  8
0
  6
Continuous
 62
     7
370
    30
100
AcDbCircle
 10
62.9269780871
 20
201.2699693948
 30
0.0
 40
7.500000000000004
100
AcDbArc
 50
74.7448812969
 51
89.9664602774
  0
ARC
  5
D1
330
1F
100
AcDbEntity
  8
0
  6
Continuous
 62
     7
370
    30
100
AcDbCircle
 10
63.4313684263
 20
202.6871930638
 30
0.0
 40
6.000000000000012
100
AcDbArc
 50
0.8409288088
 51
74.7448812969
  0
SPLINE
  5
D2
330
1F
100
AcDbEntity
  8
0
  6
Continuous
 62
     7
370
    30
100
AcDbSpline
210
0.0
220
0.0
230
1.0
 70
     8
 71
     3
 72
    30
 73
    26
 74
     0
 42
0.000000001
 43
0.00000001
 40
0.0
 40
0.0
 40
0.0
 40
0.0
 40
0.1249999999999997
 40
0.1249999999999997
 40
0.1874999999999996
 40
0.1874999999999996
 40
0.2499999999999994
 40
0.2499999999999994
 40
0.3749999999999994
 40
0.3749999999999994
 40
0.4374999999999994
 40
0.4374999999999994
 40
0.4999999999999993
 40
0.4999999999999993
 40
0.6250000000000004
 40
0.6250000000000004
 40
0.6875000000000004
 40
0.6875000000000004
 40
0.7500000000000006
 40
0.7500000000000006
 40
0.8125000000000006
 40
0.8125000000000006
 40
0.8750000000000007
 40
0.8750000000000007
 40
1.0
 40
1.0
 40
1.0
 40
1.0
 10
69.43072219695826
 20
190.7698153471989
 30
0.0
 10
69.43072219695824
 20
191.5625187601906
 30
0.0
 10
69.43072738439234
 20
192.3419463980885
 30
0.0
 10
69.43073206944256
 20
193.4921124168384
 30
0.0
 10
69.43073224446049
 20
193.8723162300151
 30
0.0
 10
69.43073270717281
 20
194.6262249115194
 30
0.0
 10
69.43073323234012
 20
195.0008639553139
 30
0.0
 10
69.43073305462062
 20
196.0905478190796
 30
0.0
 10
69.43072781211792
 20
196.7799338995233
 30
0.0
 10
69.4307263390333
 20
197.758418642535
 30
0.0
 10
69.4307256922754
 20
198.0763453101551
 30
0.0
 10
69.43072362045886
 20
198.6880707817072
 30
0.0
 10
69.43072227626561
 20
198.9792978129875
 30
0.0
 10
69.4307218762804
 20
199.8097208991836
 30
0.0
 10
69.4307223247131
 20
200.3065817335217
 30
0.0
 10
69.43072285794628
 20
200.9649407348724
 30
0.0
 10
69.43072427303669
 20
201.1692263675578
 30
0.0
 10
69.43072672293755
 20
201.5396901147452
 30
0.0
 10
69.43072765599564
 20
201.7071652780533
 30
0.0
 10
69.43072779957454
 20
202.0068549722754
 30
0.0
 10
69.4307277866961
 20
202.1389982541337
 30
0.0
 10
69.43072813299163
 20
202.3677594135751
 30
0.0
 10
69.43072831680708
 20
202.4647062728833
 30
0.0
 10
69.43072522662418
 20
202.6972795128119
 30
0.0
 10
69.43072219695551
 20
202.7752517610083
 30
0.0
 10
69.43072219695826
 20
202.7752517611106
 30
0.0
  0
ARC
  5
D3
330
1F
100
AcDbEntity
  8
0
  6
Continuous
 62
     7
370
    30
100
AcDbCircle
 10
62.9269780871
 20
91.2699668247
 30
0.0
 40
7.500000000000026
100
AcDbArc
 50
270.0335397226
 51
285.2551187031
  0
LINE
  5
D4
330
1F
100
AcDbEntity
  8
0
  6
Continuous
 62
     7
370
    30
100
AcDbLine
 10
62.9313684263
 20
83.7699681098
 30
0.0
 11
62.9313684263
 21
101.7699681091
 31
0.0
  0
ARC
  5
D5
330
1F
100
AcDbEntity
  8
0
  6
Continuous
 62
     7
370
    30
100
AcDbCircle
 10
63.4313684263
 20
89.8527431557
 30
0.0
 40
6.000000000000012
100
AcDbArc
 50
285.2551187031
 51
359.1590711912
  0
LINE
  5
D6
330
1F
100
AcDbEntity
  8
0
  6
Continuous
 62
     7
370
    30
100
AcDbLine
 10
62.9313684263
 20
101.7699681091
 30
0.0
 11
62.9313684263
 21
190.7699681091
 31
0.0
  0
ARC
  5
D7
330
1F
100
AcDbEntity
  8
0
  6
Continuous
 62
     7
370
    30
100
AcDbCircle
 10
73.4302913774
 20
202.8339575593
 30
0.0
 40
4.000000000000001
100
AcDbArc
 50
180.840928809
 51
195.945395901
  0
ARC
  5
D8
330
1F
100
AcDbEntity
  8
0
  6
Continuous
 62
     7
370
    30
100
AcDbCircle
 10
73.4302913774
 20
89.7059786602
 30
0.0
 40
4.000000000000005
100
AcDbArc
 50
164.0546040991
 51
179.1590711912
  0
SPLINE
  5
D9
330
1F
100
AcDbEntity
  8
0
  6
Continuous
 62
     7
370
    30
100
AcDbSpline
210
0.0
220
0.0
230
1.0
 70
    24
 71
     3
 72
    28
 73
    24
 74
     0
 42
0.000000001
 43
0.00000001
 40
0.0
 40
0.0
 40
0.0
 40
0.0
 40
0.1250000000000008
 40
0.1250000000000008
 40
0.1875000000000011
 40
0.1875000000000011
 40
0.2500000000000014
 40
0.2500000000000014
 40
0.3750000000000017
 40
0.3750000000000017
 40
0.5000000000000019
 40
0.5000000000000019
 40
0.6250000000000022
 40
0.6250000000000022
 40
0.6875000000000019
 40
0.6875000000000019
 40
0.7500000000000014
 40
0.7500000000000014
 40
0.8125000000000011
 40
0.8125000000000011
 40
0.8750000000000008
 40
0.8750000000000008
 40
1.0
 40
1.0
 40
1.0
 40
1.0
 10
70.43136842627426
 20
101.7699681102407
 30
0.0
 10
70.43136842627426
 20
101.3064450996514
 30
0.0
 10
70.43136842627426
 20
100.8507795003002
 30
0.0
 10
70.43136842627426
 20
100.1783825983428
 30
0.0
 10
70.43136842627426
 20
99.95607253480071
 30
0.0
 10
70.43136842627426
 20
99.51524257192223
 30
0.0
 10
70.43136842627426
 20
99.29630678520084
 30
0.0
 10
70.43136842627426
 20
98.65931882458209
 30
0.0
 10
70.43136842627426
 20
98.25612900290581
 30
0.0
 10
70.43136842627426
 20
97.4927666716646
 30
0.0
 10
70.43136842627426
 20
97.13135743543576
 30
0.0
 10
70.43136842627426
 20
96.48400275605471
 30
0.0
 10
70.43136842627426
 20
96.1936429208853
 30
0.0
 10
70.43136842627426
 20
95.80899454944822
 30
0.0
 10
70.43136842627426
 20
95.6896622966383
 30
0.0
 10
70.43136842627426
 20
95.47331821520456
 30
0.0
 10
70.43136842627426
 20
95.37556338340202
 30
0.0
 10
70.43136842627426
 20
95.20053313295811
 30
0.0
 10
70.43136842627426
 20
95.12327341079214
 30
0.0
 10
70.43136842627426
 20
94.9895145320544
 30
0.0
 10
70.43136842627426
 20
94.93283328561304
 30
0.0
 10
70.43136842627426
 20
94.79635504724345
 30
0.0
 10
70.43136842627426
 20
94.75035272223099
 30
0.0
 10
70.43136842627426
 20
94.75035272223154
 30
0.0
  0
ARC
  5
DA
330
1F
100
AcDbEntity
  8
0
  6
Continuous
 62
     7
370
    30
100
AcDbCircle
 10
63.4313684263
 20
94.7503527222
 30
0.0
 40
7.000000000000012
100
AcDbArc
 50
344.0546040991
 51
0.0
  0
ARC
  5
DB
330
1F
100
AcDbEntity
  8
0
  6
Continuous
 62
     7
370
    30
100
AcDbCircle
 10
63.4313684263
 20
197.7895834973
 30
0.0
 40
7.000000000000007
100
AcDbArc
 50
0.0000000012
 51
15.9453959009
  0
SPLINE
  5
DC
330
1F
100
AcDbEntity
  8
0
  6
Continuous
 62
     7
370
    30
100
AcDbSpline
210
0.0
220
0.0
230
1.0
 70
    24
 71
     3
 72
    28
 73
    24
 74
     0
 42
0.000000001
 43
0.00000001
 40
0.0
 40
0.0
 40
0.0
 40
0.0
 40
0.1249999999999993
 40
0.1249999999999993
 40
0.1874999999999985
 40
0.1874999999999985
 40
0.2499999999999977
 40
0.2499999999999977
 40
0.374999999999997
 40
0.374999999999997
 40
0.4999999999999963
 40
0.4999999999999963
 40
0.6249999999999956
 40
0.6249999999999956
 40
0.687499999999996
 40
0.687499999999996
 40
0.7499999999999964
 40
0.7499999999999964
 40
0.8124999999999969
 40
0.8124999999999969
 40
0.8749999999999973
 40
0.8749999999999973
 40
1.0
 40
1.0
 40
1.0
 40
1.0
 10
70.43136842627426
 20
197.7895834972963
 30
0.0
 10
70.43136842627426
 20
197.7895834971383
 30
0.0
 10
70.43136842627425
 20
197.7435731901401
 30
0.0
 10
70.43136842627425
 20
197.6092130521172
 30
0.0
 10
70.43136842627426
 20
197.553648217216
 30
0.0
 10
70.43136842627426
 20
197.4201449945462
 30
0.0
 10
70.43136842627426
 20
197.341887912688
 30
0.0
 10
70.43136842627426
 20
197.0783054328282
 30
0.0
 10
70.43136842627426
 20
196.8633399990168
 30
0.0
 10
70.43136842627426
 20
196.3548390216511
 30
0.0
 10
70.43136842627426
 20
196.0588266348942
 30
0.0
 10
70.43136842627426
 20
195.411803054082
 30
0.0
 10
70.43136842627426
 20
195.0584558995699
 30
0.0
 10
70.43136842627426
 20
194.4830548258949
 30
0.0
 10
70.43136842627426
 20
194.2838469317143
 30
0.0
 10
70.43136842627426
 20
193.8788977241136
 30
0.0
 10
70.43136842627426
 20
193.6721122356642
 30
0.0
 10
70.43136842627426
 20
193.2500808973577
 30
0.0
 10
70.43136842627426
 20
193.0348258034816
 30
0.0
 10
70.43136842627426
 20
192.5957123389633
 30
0.0
 10
70.43136842627426
 20
192.3708321821656
 30
0.0
 10
70.43136842627426
 20
191.6914131193325
 30
0.0
 10
70.43136842627426
 20
191.2333085812465
 30
0.0
 10
70.43136842627426
 20
190.7699007060029
 30
0.0
  0
LINE
  5
DD
330
1F
100
AcDbEntity
  8
0
  6
Continuous
 62
     7
370
    30
100
AcDbLine
 10
70.4313684263
 20
190.769900706
 30
0.0
 11
70.4313684263
 21
101.7699681102
 31
0.0
  0
LWPOLYLINE
  5
DE
330
1F
100
AcDbEntity
  8
0
  6
Continuous
 62
     7
370
    30
100
AcDbPolyline
 90
        2
 70
   128
 43
0.0
 10
70.964706515
 20
194.3651892216
 10
70.964706515
 20
194.3651892216
  0
SPLINE
  5
DF
330
1F
100
AcDbEntity
  8
0
  6
Continuous
 62
     7
370
    30
100
AcDbSpline
210
0.0
220
0.0
230
1.0
 70
    24
 71
     3
 72
    20
 73
    16
 74
     0
 42
0.000000001
 43
0.00000001
 40
0.0
 40
0.0
 40
0.0
 40
0.0
 40
0.1249999999999996
 40
0.1249999999999996
 40
0.2499999999999993
 40
0.2499999999999993
 40
0.3749999999999989
 40
0.3749999999999989
 40
0.4999999999999986
 40
0.4999999999999986
 40
0.7499999999999998
 40
0.7499999999999998
 40
0.8749999999999999
 40
0.8749999999999999
 40
1.0
 40
1.0
 40
1.0
 40
1.0
 10
71.13136842627426
 20
193.1518545567071
 30
0.0
 10
71.13136842627426
 20
193.1518545566338
 30
0.0
 10
71.13136842627426
 20
193.1356954763119
 30
0.0
 10
71.13136842627426
 20
193.0732329374588
 30
0.0
 10
71.13136842627426
 20
193.0277782803476
 30
0.0
 10
71.13136842627426
 20
192.9089533259305
 30
0.0
 10
71.13136842627425
 20
192.8362890946677
 30
0.0
 10
71.13136842627425
 20
192.6642580978656
 30
0.0
 10
71.13136842627425
 20
192.5644319044571
 30
0.0
 10
71.13136842627425
 20
192.2303396683845
 30
0.0
 10
71.13136842627426
 20
191.9714398788854
 30
0.0
 10
71.13136842627426
 20
191.5364460557262
 30
0.0
 10
71.13136842627425
 20
191.3877782344343
 30
0.0
 10
71.13136842627425
 20
191.084029572391
 30
0.0
 10
71.13136842627426
 20
190.9273690200382
 30
0.0
 10
71.13136842627426
 20
190.770041134361
 30
0.0
  0
ARC
  5
E0
330
1F
100
AcDbEntity
  8
0
  6
Continuous
 62
     7
370
    30
100
AcDbCircle
 10
66.6313684263
 20
193.1518545567
 30
0.0
 40
4.5
100
AcDbArc
 50
0.0
 51
15.6422464573
  0
SPLINE
  5
E1
330
1F
100
AcDbEntity
  8
0
  6
Continuous
 62
     7
370
    30
100
AcDbSpline
210
0.0
220
0.0
230
1.0
 70
    24
 71
     3
 72
    20
 73
    16
 74
     0
 42
0.000000001
 43
0.00000001
 40
0.0
 40
0.0
 40
0.0
 40
0.0
 40
0.1250000000000002
 40
0.1250000000000002
 40
0.2500000000000003
 40
0.2500000000000003
 40
0.3750000000000005
 40
0.3750000000000005
 40
0.5000000000000007
 40
0.5000000000000007
 40
0.749999999999999
 40
0.749999999999999
 40
0.8749999999999994
 40
0.8749999999999994
 40
1.0
 40
1.0
 40
1.0
 40
1.0
 10
71.13136842627426
 20
101.7699681104936
 30
0.0
 10
71.13136842627426
 20
101.6125533107257
 30
0.0
 10
71.13136842627425
 20
101.4577796952366
 30
0.0
 10
71.13136842627425
 20
101.1531751101973
 30
0.0
 10
71.13136842627426
 20
101.0016034116691
 30
0.0
 10
71.13136842627426
 20
100.7141559587639
 30
0.0
 10
71.13136842627426
 20
100.5774757729971
 30
0.0
 10
71.13136842627426
 20
100.318328829352
 30
0.0
 10
71.13136842627426
 20
100.1953271054952
 30
0.0
 10
71.13136842627426
 20
99.86178223675965
 30
0.0
 10
71.13136842627426
 20
99.69115516922236
 30
0.0
 10
71.13136842627425
 20
99.51180922521777
 30
0.0
 10
71.13136842627426
 20
99.46718572438864
 30
0.0
 10
71.13136842627426
 20
99.40453756104267
 30
0.0
 10
71.13136842627426
 20
99.3880863417495
 30
0.0
 10
71.13136842627426
 20
99.38808166393551
 30
0.0
  0
ARC
  5
E2
330
1F
100
AcDbEntity
  8
0
  6
Continuous
 62
     7
370
    30
100
AcDbCircle
 10
66.6313684263
 20
99.3880816639
 30
0.0
 40
4.5
100
AcDbArc
 50
344.3577535411
 51
0.0
  0
LINE
  5
E3
330
1F
100
AcDbEntity
  8
0
  6
Continuous
 62
     7
370
    30
100
AcDbLine
 10
71.1313684263
 20
190.7700411344
 30
0.0
 11
71.1313684263
 21
101.7699681105
 31
0.0
  0
LINE
  5
E4
330
1F
100
AcDbEntity
  8
0
  6
Continuous
 62
     7
370
    30
100
AcDbLine
 10
237.7027333686
 20
208.505698054
 30
0.0
 11
237.5930191381
 21
208.4757759912
 31
0.0
  0
LINE
  5
E5
330
1F
100
AcDbEntity
  8
0
  6
Continuous
 62
     7
370
    30
100
AcDbLine
 10
237.5930191381
 20
84.0641602283
 30
0.0
 11
237.7027333686
 21
84.0342381655
 31
0.0
  0
LINE
  5
E6
330
1F
100
AcDbEntity
  8
0
  6
Continuous
 62
     7
370
    30
100
AcDbLine
 10
232.4410559394
 20
92.8273048269
 30
0.0
 11
233.0188964123
 21
90.8048631718
 31
0.0
  0
LINE
  5
E7
330
1F
100
AcDbEntity
  8
0
  6
Continuous
 62
     7
370
    30
100
AcDbLine
 10
233.0188964123
 20
201.7350730477
 30
0.0
 11
232.4410559394
 21
199.7126313926
 31
0.0
  0
LINE
  5
E8
330
1F
100
AcDbEntity
  8
0
  6
Continuous
 62
     7
370
    30
100
AcDbLine
 10
232.060615632
 20
195.8731540353
 30
0.0
 11
231.6383854838
 21
194.3651892202
 31
0.0
  0
LINE
  5
E9
330
1F
100
AcDbEntity
  8
0
  6
Continuous
 62
     7
370
    30
100
AcDbLine
 10
231.6383854841
 20
98.174746998
 30
0.0
 11
232.060615632
 21
96.6667821842
 31
0.0
  0
ARC
  5
EA
330
1F
100
AcDbEntity
  8
0
  6
Continuous
 62
     7
370
    30
100
AcDbCircle
 10
239.676113912
 20
201.2699693948
 30
0.0
 40
7.500000000000593
100
AcDbArc
 50
90.0335397225
 51
105.255118703
  0
LINE
  5
EB
330
1F
100
AcDbEntity
  8
0
  6
Continuous
 62
     7
370
    30
100
AcDbLine
 10
239.6717235729
 20
208.7699681098
 30
0.0
 11
239.6717235729
 21
190.7699681098
 31
0.0
  0
ARC
  5
EC
330
1F
100
AcDbEntity
  8
0
  6
Continuous
 62
     7
370
    30
100
AcDbCircle
 10
239.676113912
 20
91.2699668247
 30
0.0
 40
7.500000000000013
100
AcDbArc
 50
254.7448812969
 51
269.9664602775
  0
LINE
  5
ED
330
1F
100
AcDbEntity
  8
0
  6
Continuous
 62
     7
370
    30
100
AcDbLine
 10
239.6717235729
 20
101.7699681098
 30
0.0
 11
239.6717235729
 21
83.7699681098
 31
0.0
  0
ARC
  5
EE
330
1F
100
AcDbEntity
  8
0
  6
Continuous
 62
     7
370
    30
100
AcDbCircle
 10
239.1717235729
 20
202.6871930638
 30
0.0
 40
6.000000000000014
100
AcDbArc
 50
105.2551187031
 51
179.1590711912
  0
ARC
  5
EF
330
1F
100
AcDbEntity
  8
0
  6
Continuous
 62
     7
370
    30
100
AcDbCircle
 10
239.1717235729
 20
89.8527431557
 30
0.0
 40
6.000000000000017
100
AcDbArc
 50
180.8409288088
 51
254.7448812969
  0
SPLINE
  5
F0
330
1F
100
AcDbEntity
  8
0
  6
Continuous
 62
     7
370
    30
100
AcDbSpline
210
0.0
220
0.0
230
1.0
 70
     8
 71
     3
 72
    30
 73
    26
 74
     0
 42
0.000000001
 43
0.00000001
 40
0.0
 40
0.0
 40
0.0
 40
0.0
 40
0.1250000000000023
 40
0.1250000000000023
 40
0.1875000000000029
 40
0.1875000000000029
 40
0.2500000000000034
 40
0.2500000000000034
 40
0.3750000000000048
 40
0.3750000000000048
 40
0.4375000000000048
 40
0.4375000000000048
 40
0.5000000000000049
 40
0.5000000000000049
 40
0.6250000000000046
 40
0.6250000000000046
 40
0.6875000000000038
 40
0.6875000000000038
 40
0.7500000000000031
 40
0.7500000000000031
 40
0.8125000000000023
 40
0.8125000000000023
 40
0.8750000000000017
 40
0.8750000000000017
 40
1.0
 40
1.0
 40
1.0
 40
1.0
 10
233.1723698021757
 20
101.7701208697997
 30
0.0
 10
233.1723698021757
 20
100.9774174568922
 30
0.0
 10
233.1723646147418
 20
100.1979898191283
 30
0.0
 10
233.1723599296916
 20
99.04782380053837
 30
0.0
 10
233.1723597546737
 20
98.66761998741438
 30
0.0
 10
233.1723592919613
 20
97.913711306015
 30
0.0
 10
233.172358766794
 20
97.53907226230682
 30
0.0
 10
233.1723589445135
 20
96.4493883988031
 30
0.0
 10
233.1723641870162
 20
95.760002318499
 30
0.0
 10
233.1723656601009
 20
94.78151757566071
 30
0.0
 10
233.1723663068587
 20
94.46359090805973
 30
0.0
 10
233.1723683786753
 20
93.85186543670818
 30
0.0
 10
233.1723697228685
 20
93.56063840551538
 30
0.0
 10
233.1723701228537
 20
92.73021531955087
 30
0.0
 10
233.172369674421
 20
92.23335448532427
 30
0.0
 10
233.1723691411879
 20
91.57499548410495
 30
0.0
 10
233.1723677260975
 20
91.37070985149417
 30
0.0
 10
233.1723652761966
 20
91.00024610442453
 30
0.0
 10
233.1723643431385
 20
90.83277094116507
 30
0.0
 10
233.1723641995596
 20
90.53308124702434
 30
0.0
 10
233.1723642124381
 20
90.40093796519864
 30
0.0
 10
233.1723638661425
 20
90.17217680581118
 30
0.0
 10
233.172363682327
 20
90.07522994652328
 30
0.0
 10
233.17236677251
 20
89.8426567066735
 30
0.0
 10
233.1723698021786
 20
89.76468445849872
 30
0.0
 10
233.1723698021759
 20
89.76468445839636
 30
0.0
  0
LINE
  5
F1
330
1F
100
AcDbEntity
  8
0
  6
Continuous
 62
     7
370
    30
100
AcDbLine
 10
239.6717235729
 20
190.7699681098
 30
0.0
 11
239.6717235729
 21
101.7699681098
 31
0.0
  0
ARC
  5
F2
330
1F
100
AcDbEntity
  8
0
  6
Continuous
 62
     7
370
    30
100
AcDbCircle
 10
229.1728006217
 20
89.7059786602
 30
0.0
 40
3.999999999999995
100
AcDbArc
 50
0.840928809
 51
15.9453959009
  0
ARC
  5
F3
330
1F
100
AcDbEntity
  8
0
  6
Continuous
 62
     7
370
    30
100
AcDbCircle
 10
229.1728006217
 20
202.8339575593
 30
0.0
 40
4.000000000000023
100
AcDbArc
 50
344.0546040991
 51
359.1590711912
  0
SPLINE
  5
F4
330
1F
100
AcDbEntity
  8
0
  6
Continuous
 62
     7
370
    30
100
AcDbSpline
210
0.0
220
0.0
230
1.0
 70
    24
 71
     3
 72
    28
 73
    24
 74
     0
 42
0.000000001
 43
0.00000001
 40
0.0
 40
0.0
 40
0.0
 40
0.0
 40
0.1249999999999979
 40
0.1249999999999979
 40
0.1874999999999977
 40
0.1874999999999977
 40
0.2499999999999976
 40
0.2499999999999976
 40
0.3749999999999973
 40
0.3749999999999973
 40
0.4999999999999971
 40
0.4999999999999971
 40
0.6249999999999969
 40
0.6249999999999969
 40
0.6874999999999972
 40
0.6874999999999972
 40
0.7499999999999976
 40
0.7499999999999976
 40
0.812499999999998
 40
0.812499999999998
 40
0.8749999999999983
 40
0.8749999999999983
 40
1.0
 40
1.0
 40
1.0
 40
1.0
 10
232.1717235728599
 20
190.7699681095318
 30
0.0
 10
232.1717235728599
 20
191.2334911201128
 30
0.0
 10
232.1717235728599
 20
191.6891567194518
 30
0.0
 10
232.1717235728599
 20
192.3615536213891
 30
0.0
 10
232.1717235728599
 20
192.583863684924
 30
0.0
 10
232.1717235728599
 20
193.0246936477872
 30
0.0
 10
232.1717235728599
 20
193.2436294345029
 30
0.0
 10
232.1717235728599
 20
193.8806173950954
 30
0.0
 10
232.1717235728599
 20
194.2838072167436
 30
0.0
 10
232.1717235728599
 20
195.047169547914
 30
0.0
 10
232.1717235728599
 20
195.4085787841472
 30
0.0
 10
232.1717235728599
 20
196.0559334635236
 30
0.0
 10
232.1717235728599
 20
196.3462932986739
 30
0.0
 10
232.1717235728599
 20
196.7309416700719
 30
0.0
 10
232.1717235728599
 20
196.8502739228904
 30
0.0
 10
232.1717235728599
 20
197.0666180043276
 30
0.0
 10
232.1717235728599
 20
197.1643728361286
 30
0.0
 10
232.1717235728599
 20
197.3394030865659
 30
0.0
 10
232.1717235728599
 20
197.4166628087268
 30
0.0
 10
232.1717235728599
 20
197.5504216874538
 30
0.0
 10
232.1717235728599
 20
197.6071029338893
 30
0.0
 10
232.1717235728599
 20
197.743581172264
 30
0.0
 10
232.1717235728599
 20
197.7895834972749
 30
0.0
 10
232.1717235728599
 20
197.7895834972744
 30
0.0
  0
ARC
  5
F5
330
1F
100
AcDbEntity
  8
0
  6
Continuous
 62
     7
370
    30
100
AcDbCircle
 10
239.1717235729
 20
197.7895834973
 30
0.0
 40
7.0
100
AcDbArc
 50
164.0546040991
 51
180.0
  0
SPLINE
  5
F6
330
1F
100
AcDbEntity
  8
0
  6
Continuous
 62
     7
370
    30
100
AcDbSpline
210
0.0
220
0.0
230
1.0
 70
    24
 71
     3
 72
    28
 73
    24
 74
     0
 42
0.000000001
 43
0.00000001
 40
0.0
 40
0.0
 40
0.0
 40
0.0
 40
0.1250000000000014
 40
0.1250000000000014
 40
0.1875000000000014
 40
0.1875000000000014
 40
0.2500000000000014
 40
0.2500000000000014
 40
0.3750000000000023
 40
0.3750000000000023
 40
0.5000000000000031
 40
0.5000000000000031
 40
0.6250000000000039
 40
0.6250000000000039
 40
0.6875000000000033
 40
0.6875000000000033
 40
0.7500000000000027
 40
0.7500000000000027
 40
0.812500000000002
 40
0.812500000000002
 40
0.8750000000000013
 40
0.8750000000000013
 40
1.0
 40
1.0
 40
1.0
 40
1.0
 10
232.1717235728599
 20
94.75035272221083
 30
0.0
 10
232.1717235728599
 20
94.75035272236964
 30
0.0
 10
232.1717235728599
 20
94.79636302935185
 30
0.0
 10
232.1717235728599
 20
94.93072316732608
 30
0.0
 10
232.1717235728599
 20
94.98628800220689
 30
0.0
 10
232.1717235728599
 20
95.1197912248265
 30
0.0
 10
232.1717235728599
 20
95.19804830665623
 30
0.0
 10
232.1717235728599
 20
95.46163078642171
 30
0.0
 10
232.1717235728599
 20
95.67659622015617
 30
0.0
 10
232.1717235728599
 20
96.18509719733535
 30
0.0
 10
232.1717235728599
 20
96.48110958399033
 30
0.0
 10
232.1717235728599
 20
97.12813316458761
 30
0.0
 10
232.1717235728599
 20
97.48148031898212
 30
0.0
 10
232.1717235728599
 20
98.05688139245957
 30
0.0
 10
232.1717235728599
 20
98.25608928658586
 30
0.0
 10
232.1717235728599
 20
98.66103849407281
 30
0.0
 10
232.1717235728599
 20
98.86782398246393
 30
0.0
 10
232.1717235728599
 20
99.28985532065072
 30
0.0
 10
232.1717235728599
 20
99.50511041446525
 30
0.0
 10
232.1717235728599
 20
99.9442238788566
 30
0.0
 10
232.1717235728599
 20
100.1691040355857
 30
0.0
 10
232.1717235728599
 20
100.8485230982706
 30
0.0
 10
232.1717235728599
 20
101.3066276362483
 30
0.0
 10
232.1717235728599
 20
101.770035511417
 30
0.0
  0
ARC
  5
F7
330
1F
100
AcDbEntity
  8
0
  6
Continuous
 62
     7
370
    30
100
AcDbCircle
 10
239.1717235729
 20
94.7503527222
 30
0.0
 40
7.000000000000028
100
AcDbArc
 50
180.0
 51
195.9453959009
  0
LINE
  5
F8
330
1F
100
AcDbEntity
  8
0
  6
Continuous
 62
     7
370
    30
100
AcDbLine
 10
232.1717235729
 20
101.7700355114
 30
0.0
 11
232.1717235729
 21
190.7699681095
 31
0.0
  0
LWPOLYLINE
  5
F9
330
1F
100
AcDbEntity
  8
0
  6
Continuous
 62
     7
370
    30
100
AcDbPolyline
 90
        2
 70
   128
 43
0.0
 10
231.6383854841
 20
98.174746998
 10
231.6383854841
 20
98.174746998
  0
SPLINE
  5
FA
330
1F
100
AcDbEntity
  8
0
  6
Continuous
 62
     7
370
    30
100
AcDbSpline
210
0.0
220
0.0
230
1.0
 70
    24
 71
     3
 72
    20
 73
    16
 74
     0
 42
0.000000001
 43
0.00000001
 40
0.0
 40
0.0
 40
0.0
 40
0.0
 40
0.1249999999999984
 40
0.1249999999999984
 40
0.2499999999999968
 40
0.2499999999999968
 40
0.3749999999999952
 40
0.3749999999999952
 40
0.4999999999999936
 40
0.4999999999999936
 40
0.7499999999999942
 40
0.7499999999999942
 40
0.8749999999999971
 40
0.8749999999999971
 40
1.0
 40
1.0
 40
1.0
 40
1.0
 10
231.4717235728599
 20
99.38808166280721
 30
0.0
 10
231.4717235728599
 20
99.38808166285565
 30
0.0
 10
231.4717235728599
 20
99.40424074317461
 30
0.0
 10
231.4717235728599
 20
99.4667032753617
 30
0.0
 10
231.4717235728599
 20
99.51215792246279
 30
0.0
 10
231.4717235728599
 20
99.630982886032
 30
0.0
 10
231.4717235728599
 20
99.70364712220855
 30
0.0
 10
231.4717235728599
 20
99.8756781225494
 30
0.0
 10
231.4717235728599
 20
99.97550431483313
 30
0.0
 10
231.4717235728599
 20
100.3095965507568
 30
0.0
 10
231.4717235728599
 20
100.5684963401274
 30
0.0
 10
231.4717235728599
 20
101.0034901631208
 30
0.0
 10
231.4717235728599
 20
101.1521579843578
 30
0.0
 10
231.4717235728599
 20
101.4559066462918
 30
0.0
 10
231.4717235728599
 20
101.6125671985876
 30
0.0
 10
231.4717235728599
 20
101.769895084219
 30
0.0
  0
ARC
  5
FB
330
1F
100
AcDbEntity
  8
0
  6
Continuous
 62
     7
370
    30
100
AcDbCircle
 10
235.9717235729
 20
99.3880816628
 30
0.0
 40
4.5
100
AcDbArc
 50
179.9999999984
 51
195.6422464573
  0
SPLINE
  5
FC
330
1F
100
AcDbEntity
  8
0
  6
Continuous
 62
     7
370
    30
100
AcDbSpline
210
0.0
220
0.0
230
1.0
 70
    24
 71
     3
 72
    20
 73
    16
 74
     0
 42
0.000000001
 43
0.00000001
 40
0.0
 40
0.0
 40
0.0
 40
0.0
 40
0.1249999999999993
 40
0.1249999999999993
 40
0.2499999999999986
 40
0.2499999999999986
 40
0.3749999999999978
 40
0.3749999999999978
 40
0.4999999999999971
 40
0.4999999999999971
 40
0.7499999999999996
 40
0.7499999999999996
 40
0.8749999999999997
 40
0.8749999999999997
 40
1.0
 40
1.0
 40
1.0
 40
1.0
 10
231.4717235728599
 20
190.769968109289
 30
0.0
 10
231.4717235728599
 20
190.9273829090517
 30
0.0
 10
231.4717235728599
 20
191.0821565247275
 30
0.0
 10
231.4717235728599
 20
191.3867611104716
 30
0.0
 10
231.4717235728599
 20
191.5383328092029
 30
0.0
 10
231.4717235728599
 20
191.8257802611782
 30
0.0
 10
231.4717235728599
 20
191.9624604467053
 30
0.0
 10
231.4717235728599
 20
192.2216073902155
 30
0.0
 10
231.4717235728599
 20
192.3446091141348
 30
0.0
 10
231.4717235728599
 20
192.6781539829115
 30
0.0
 10
231.4717235728599
 20
192.8487810504341
 30
0.0
 10
231.4717235728599
 20
193.0281269944113
 30
0.0
 10
231.4717235728599
 20
193.072750495224
 30
0.0
 10
231.4717235728599
 20
193.1353986585279
 30
0.0
 10
231.4717235728599
 20
193.151849877786
 30
0.0
 10
231.4717235728599
 20
193.1518545555667
 30
0.0
  0
ARC
  5
FD
330
1F
100
AcDbEntity
  8
0
  6
Continuous
 62
     7
370
    30
100
AcDbCircle
 10
235.9717235729
 20
193.1518545556
 30
0.0
 40
4.500000000000021
100
AcDbArc
 50
164.3577535411
 51
180.0
  0
LINE
  5
FE
330
1F
100
AcDbEntity
  8
0
  6
Continuous
 62
     7
370
    30
100
AcDbLine
 10
231.4717235729
 20
101.7698950842
 30
0.0
 11
231.4717235729
 21
190.7699681093
 31
0.0
  0
LWPOLYLINE
  5
FF
330
1F
100
AcDbEntity
  8
0
  6
Continuous
 62
     7
370
    30
100
AcDbPolyline
 90
        2
 70
   128
 43
0.0
 10
231.4717235729
 20
99.3880816639
 10
231.4717235729
 20
99.3880816639
  0
LINE
  5
100
330
1F
100
AcDbEntity
  8
0
  6
Continuous
 62
     7
370
    30
100
AcDbLine
 10
343.4430864003
 20
190.7699681098
 30
0.0
 11
347.9430864003
 21
190.7699681098
 31
0.0
  0
LINE
  5
101
330
1F
100
AcDbEntity
  8
0
  6
Continuous
 62
     7
370
    30
100
AcDbLine
 10
347.9430864003
 20
101.7699681098
 30
0.0
 11
343.4430864003
 21
101.7699681098
 31
0.0
  0
LINE
  5
102
330
1F
100
AcDbEntity
  8
0
  6
Continuous
 62
     7
370
    30
100
AcDbLine
 10
297.9430864003
 20
190.7699681098
 30
0.0
 11
302.4430864003
 21
190.7699681098
 31
0.0
  0
LINE
  5
103
330
1F
100
AcDbEntity
  8
0
  6
Continuous
 62
     7
370
    30
100
AcDbLine
 10
302.4430864003
 20
101.7699681098
 30
0.0
 11
297.9430864003
 21
101.7699681098
 31
0.0
  0
LINE
  5
104
330
1F
100
AcDbEntity
  8
0
  6
Continuous
 62
     7
370
    30
100
AcDbLine
 10
343.4430864003
 20
98.5199681098
 30
0.0
 11
347.9430864003
 21
98.5199681098
 31
0.0
  0
LINE
  5
105
330
1F
100
AcDbEntity
  8
0
  6
Continuous
 62
     7
370
    30
100
AcDbLine
 10
347.9430864003
 20
194.0199681098
 30
0.0
 11
343.4430864003
 21
194.0199681098
 31
0.0
  0
LINE
  5
106
330
1F
100
AcDbEntity
  8
0
  6
Continuous
 62
     7
370
    30
100
AcDbLine
 10
302.4430864003
 20
194.0199681098
 30
0.0
 11
297.9430864003
 21
194.0199681098
 31
0.0
  0
LINE
  5
107
330
1F
100
AcDbEntity
  8
0
  6
Continuous
 62
     7
370
    30
100
AcDbLine
 10
297.9430864003
 20
98.5199681098
 30
0.0
 11
302.4430864003
 21
98.5199681098
 31
0.0
  0
CIRCLE
  5
108
330
1F
100
AcDbEntity
  8
0
  6
Continuous
 62
     7
370
    30
100
AcDbCircle
 10
302.1930864003
 20
146.2699681098
 30
0.0
 40
3.000000000000057
  0
CIRCLE
  5
109
330
1F
100
AcDbEntity
  8
0
  6
Continuous
 62
     7
370
    30
100
AcDbCircle
 10
302.1930864003
 20
146.2699681098
 30
0.0
 40
3.200000000000045
  0
CIRCLE
  5
10A
330
1F
100
AcDbEntity
  8
0
  6
Continuous
 62
     7
370
    30
100
AcDbCircle
 10
343.6930864003
 20
146.2699681098
 30
0.0
 40
3.0
  0
CIRCLE
  5
10B
330
1F
100
AcDbEntity
  8
0
  6
Continuous
 62
     7
370
    30
100
AcDbCircle
 10
343.6930864003
 20
146.2699681098
 30
0.0
 40
3.199999999999989
  0
LINE
  5
10C
330
1F
100
AcDbEntity
  8
0
  6
Continuous
 62
     7
370
    30
100
AcDbLine
 10
347.9430864003
 20
190.7699681098
 30
0.0
 11
347.9430864003
 21
193.2135964783
 31
0.0
  0
LINE
  5
10D
330
1F
100
AcDbEntity
  8
0
  6
Continuous
 62
     7
370
    30
100
AcDbLine
 10
343.4430864003
 20
190.7699681098
 30
0.0
 11
343.4430864003
 21
193.2135964783
 31
0.0
  0
LINE
  5
10E
330
1F
100
AcDbEntity
  8
0
  6
Continuous
 62
     7
370
    30
100
AcDbLine
 10
347.9430864003
 20
101.7699681098
 30
0.0
 11
347.9430864003
 21
99.3263397412
 31
0.0
  0
LINE
  5
10F
330
1F
100
AcDbEntity
  8
0
  6
Continuous
 62
     7
370
    30
100
AcDbLine
 10
343.4430864003
 20
101.7699681098
 30
0.0
 11
343.4430864003
 21
99.3263397412
 31
0.0
  0
LINE
  5
110
330
1F
100
AcDbEntity
  8
0
  6
Continuous
 62
     7
370
    30
100
AcDbLine
 10
297.9430864003
 20
190.7699681098
 30
0.0
 11
297.9430864003
 21
193.2135964783
 31
0.0
  0
LINE
  5
111
330
1F
100
AcDbEntity
  8
0
  6
Continuous
 62
     7
370
    30
100
AcDbLine
 10
302.4430864003
 20
190.7699681098
 30
0.0
 11
302.4430864003
 21
193.2135964783
 31
0.0
  0
LINE
  5
112
330
1F
100
AcDbEntity
  8
0
  6
Continuous
 62
     7
370
    30
100
AcDbLine
 10
297.9430864003
 20
101.7699681098
 30
0.0
 11
297.9430864003
 21
99.3263397412
 31
0.0
  0
LINE
  5
113
330
1F
100
AcDbEntity
  8
0
  6
Continuous
 62
     7
370
    30
100
AcDbLine
 10
302.4430864003
 20
101.7699681098
 30
0.0
 11
302.4430864003
 21
99.3263397412
 31
0.0
  0
LINE
  5
114
330
1F
100
AcDbEntity
  8
0
  6
Continuous
 62
     7
370
    30
100
AcDbLine
 10
343.4430864003
 20
193.2135964783
 30
0.0
 11
343.4430864003
 21
193.952322152
 31
0.0
  0
LINE
  5
115
330
1F
100
AcDbEntity
  8
0
  6
Continuous
 62
     7
370
    30
100
AcDbLine
 10
347.9430864003
 20
193.2135964783
 30
0.0
 11
347.9430864003
 21
193.952322152
 31
0.0
  0
LINE
  5
116
330
1F
100
AcDbEntity
  8
0
  6
Continuous
 62
     7
370
    30
100
AcDbLine
 10
343.4430864003
 20
99.3263397412
 30
0.0
 11
343.4430864003
 21
98.5876140675
 31
0.0
  0
LINE
  5
117
330
1F
100
AcDbEntity
  8
0
  6
Continuous
 62
     7
370
    30
100
AcDbLine
 10
347.9430864003
 20
99.3263397412
 30
0.0
 11
347.9430864003
 21
98.5876140675
 31
0.0
  0
LINE
  5
118
330
1F
100
AcDbEntity
  8
0
  6
Continuous
 62
     7
370
    30
100
AcDbLine
 10
297.9430864003
 20
99.3263397412
 30
0.0
 11
297.9430864003
 21
98.5876140675
 31
0.0
  0
LINE
  5
119
330
1F
100
AcDbEntity
  8
0
  6
Continuous
 62
     7
370
    30
100
AcDbLine
 10
302.4430864003
 20
99.3263397412
 30
0.0
 11
302.4430864003
 21
98.5876140675
 31
0.0
  0
LINE
  5
11A
330
1F
100
AcDbEntity
  8
0
  6
Continuous
 62
     7
370
    30
100
AcDbLine
 10
297.9430864003
 20
193.2135964783
 30
0.0
 11
297.9430864003
 21
193.952322152
 31
0.0
  0
LINE
  5
11B
330
1F
100
AcDbEntity
  8
0
  6
Continuous
 62
     7
370
    30
100
AcDbLine
 10
302.4430864003
 20
193.2135964783
 30
0.0
 11
302.4430864003
 21
193.952322152
 31
0.0
  0
LINE
  5
11C
330
1F
100
AcDbEntity
  8
0
  6
Continuous
 62
     7
370
    30
100
AcDbLine
 10
343.4430864003
 20
98.5876140675
 30
0.0
 11
343.4430864003
 21
98.5199681098
 31
0.0
  0
LINE
  5
11D
330
1F
100
AcDbEntity
  8
0
  6
Continuous
 62
     7
370
    30
100
AcDbLine
 10
347.9430864003
 20
98.5876140675
 30
0.0
 11
347.9430864003
 21
98.5199681098
 31
0.0
  0
LINE
  5
11E
330
1F
100
AcDbEntity
  8
0
  6
Continuous
 62
     7
370
    30
100
AcDbLine
 10
343.4430864003
 20
193.952322152
 30
0.0
 11
343.4430864003
 21
194.0199681098
 31
0.0
  0
LINE
  5
11F
330
1F
100
AcDbEntity
  8
0
  6
Continuous
 62
     7
370
    30
100
AcDbLine
 10
347.9430864003
 20
193.952322152
 30
0.0
 11
347.9430864003
 21
194.0199681098
 31
0.0
  0
LINE
  5
120
330
1F
100
AcDbEntity
  8
0
  6
Continuous
 62
     7
370
    30
100
AcDbLine
 10
297.9430864003
 20
193.952322152
 30
0.0
 11
297.9430864003
 21
194.0199681098
 31
0.0
  0
LINE
  5
121
330
1F
100
AcDbEntity
  8
0
  6
Continuous
 62
     7
370
    30
100
AcDbLine
 10
302.4430864003
 20
193.952322152
 30
0.0
 11
302.4430864003
 21
194.0199681098
 31
0.0
  0
LINE
  5
122
330
1F
100
AcDbEntity
  8
0
  6
Continuous
 62
     7
370
    30
100
AcDbLine
 10
297.9430864003
 20
98.5876140675
 30
0.0
 11
297.9430864003
 21
98.5199681098
 31
0.0
  0
LINE
  5
123
330
1F
100
AcDbEntity
  8
0
  6
Continuous
 62
     7
370
    30
100
AcDbLine
 10
302.4430864003
 20
98.5876140675
 30
0.0
 11
302.4430864003
 21
98.5199681098
 31
0.0
  0
ARC
  5
124
330
1F
100
AcDbEntity
  8
0
  6
Continuous
 62
     7
370
    30
100
AcDbCircle
 10
338.1930864003
 20
110.5199681098
 30
0.0
 40
1.0
100
AcDbArc
 50
270.0
 51
0.0
  0
LINE
  5
125
330
1F
100
AcDbEntity
  8
0
  6
Continuous
 62
     7
370
    30
100
AcDbLine
 10
339.1930864003
 20
182.0199681098
 30
0.0
 11
339.1930864003
 21
110.5199681098
 31
0.0
  0
ARC
  5
126
330
1F
100
AcDbEntity
  8
0
  6
Continuous
 62
     7
370
    30
100
AcDbCircle
 10
338.1930864003
 20
182.0199681098
 30
0.0
 40
1.0
100
AcDbArc
 50
0.0
 51
90.0
  0
LINE
  5
127
330
1F
100
AcDbEntity
  8
0
  6
Continuous
 62
     7
370
    30
100
AcDbLine
 10
307.6930864003
 20
183.0199681098
 30
0.0
 11
338.1930864003
 21
183.0199681098
 31
0.0
  0
ARC
  5
128
330
1F
100
AcDbEntity
  8
0
  6
Continuous
 62
     7
370
    30
100
AcDbCircle
 10
307.6930864003
 20
182.0199681098
 30
0.0
 40
1.0
100
AcDbArc
 50
90.0
 51
180.0
  0
LINE
  5
129
330
1F
100
AcDbEntity
  8
0
  6
Continuous
 62
     7
370
    30
100
AcDbLine
 10
306.6930864003
 20
110.5199681098
 30
0.0
 11
306.6930864003
 21
182.0199681098
 31
0.0
  0
ARC
  5
12A
330
1F
100
AcDbEntity
  8
0
  6
Continuous
 62
     7
370
    30
100
AcDbCircle
 10
307.6930864003
 20
110.5199681098
 30
0.0
 40
1.0
100
AcDbArc
 50
180.0
 51
270.0
  0
LINE
  5
12B
330
1F
100
AcDbEntity
  8
0
  6
Continuous
 62
     7
370
    30
100
AcDbLine
 10
338.1930864003
 20
109.5199681098
 30
0.0
 11
307.6930864003
 21
109.5199681098
 31
0.0
  0
LINE
  5
12C
330
1F
100
AcDbEntity
  8
0
  6
Continuous
 62
     7
370
    30
100
AcDbLine
 10
303.4430864003
 20
191.7699681098
 30
0.0
 11
342.4430864003
 21
191.7699681098
 31
0.0
  0
LINE
  5
12D
330
1F
100
AcDbEntity
  8
0
  6
Continuous
 62
     7
370
    30
100
AcDbLine
 10
342.4430864003
 20
100.7699681098
 30
0.0
 11
303.4430864003
 21
100.7699681098
 31
0.0
  0
ARC
  5
12E
330
1F
100
AcDbEntity
  8
0
  6
Continuous
 62
     7
370
    30
100
AcDbCircle
 10
303.4430864003
 20
99.7699681098
 30
0.0
 40
1.000000000000032
100
AcDbArc
 50
90.0
 51
165.5224878141
  0
ARC
  5
12F
330
1F
100
AcDbEntity
  8
0
  6
Continuous
 62
     7
370
    30
100
AcDbCircle
 10
303.4430864003
 20
192.7699681098
 30
0.0
 40
1.000000000000032
100
AcDbArc
 50
194.4775121859
 51
270.0
  0
ARC
  5
130
330
1F
100
AcDbEntity
  8
0
  6
Continuous
 62
     7
370
    30
100
AcDbCircle
 10
342.4430864003
 20
192.7699681098
 30
0.0
 40
1.000000000000032
100
AcDbArc
 50
270.0
 51
345.5224878141
  0
ARC
  5
131
330
1F
100
AcDbEntity
  8
0
  6
Continuous
 62
     7
370
    30
100
AcDbCircle
 10
342.4430864003
 20
99.7699681098
 30
0.0
 40
1.000000000000035
100
AcDbArc
 50
14.4775121859
 51
90.0
  0
LINE
  5
132
330
1F
100
AcDbEntity
  8
0
  6
Continuous
 62
     7
370
    30
100
AcDbLine
 10
297.9430864003
 20
101.7699681098
 30
0.0
 11
297.9430864003
 21
190.7699681098
 31
0.0
  0
LINE
  5
133
330
1F
100
AcDbEntity
  8
0
  6
Continuous
 62
     7
370
    30
100
AcDbLine
 10
347.9430864003
 20
190.7699681098
 30
0.0
 11
347.9430864003
 21
101.7699681098
 31
0.0
  0
ARC
  5
134
330
1F
100
AcDbEntity
  8
0
  6
Continuous
 62
     7
370
    30
100
AcDbCircle
 10
341.4430864003
 20
190.7699681098
 30
0.0
 40
18.0
100
AcDbArc
 50
359.9999999979
 51
89.9999999948
  0
SPLINE
  5
135
330
1F
100
AcDbEntity
  8
0
  6
Continuous
 62
     7
370
    30
100
AcDbSpline
210
0.0
220
0.0
230
1.0
 70
     8
 71
     3
 72
    28
 73
    24
 74
     0
 42
0.000000001
 43
0.00000001
 40
0.0
 40
0.0
 40
0.0
 40
0.0
 40
0.1250000000000001
 40
0.1250000000000001
 40
0.2500000000000001
 40
0.2500000000000001
 40
0.3125000000000004
 40
0.3125000000000004
 40
0.3750000000000006
 40
0.3750000000000006
 40
0.5000000000000003
 40
0.5000000000000003
 40
0.5625
 40
0.5625
 40
0.6249999999999997
 40
0.6249999999999997
 40
0.7499999999999991
 40
0.7499999999999991
 40
0.8124999999999992
 40
0.8124999999999992
 40
0.8749999999999994
 40
0.8749999999999994
 40
1.0
 40
1.0
 40
1.0
 40
1.0
 10
341.4430864003313
 20
84.7699683074465
 30
0.0
 10
342.5657829614488
 20
84.76996830744842
 30
0.0
 10
343.677208139076
 20
84.88010413721535
 30
0.0
 10
345.8775595949106
 20
85.32021881411812
 30
0.0
 10
346.9407708788825
 20
85.64542412446986
 30
0.0
 10
348.4742953772533
 20
86.28228077487259
 30
0.0
 10
348.9756500430133
 20
86.51968686950947
 30
0.0
 10
349.9583103860273
 20
87.04578550904971
 30
0.0
 10
350.4415115689853
 20
87.33601491850874
 30
0.0
 10
351.830726574081
 20
88.26665030043712
 30
0.0
 10
352.6855688289387
 20
88.97002340202576
 30
0.0
 10
353.8622544828699
 20
90.14790897777324
 30
0.0
 10
354.2373880218401
 20
90.56191947815195
 30
0.0
 10
354.9482563885775
 20
91.42951884660829
 30
0.0
 10
355.2793941364127
 20
91.87733972211063
 30
0.0
 10
356.2023379226614
 20
93.261469455438
 30
0.0
 10
356.7243363854278
 20
94.23806345587944
 30
0.0
 10
357.3646255233264
 20
95.7853099099129
 30
0.0
 10
357.5540144028404
 20
96.31584450319433
 30
0.0
 10
357.8761237393635
 20
97.38080545857119
 30
0.0
 10
358.0101833717796
 20
97.9181245890188
 30
0.0
 10
358.3329675773076
 20
99.54431286882418
 30
0.0
 10
358.4430862021156
 20
100.6472715304473
 30
0.0
 10
358.4430862026102
 20
101.7699681093833
 30
0.0
  0
LINE
  5
136
330
1F
100
AcDbEntity
  8
0
  6
Continuous
 62
     7
370
    30
100
AcDbLine
 10
358.4430862026
 20
101.7699681094
 30
0.0
 11
358.4430862026
 21
190.7699681087
 31
0.0
  0
SPLINE
  5
137
330
1F
100
AcDbEntity
  8
0
  6
Continuous
 62
     7
370
    30
100
AcDbSpline
210
0.0
220
0.0
230
1.0
 70
     8
 71
     3
 72
    28
 73
    24
 74
     0
 42
0.000000001
 43
0.00000001
 40
0.0
 40
0.0
 40
0.0
 40
0.0
 40
0.1250000000000001
 40
0.1250000000000001
 40
0.2500000000000001
 40
0.2500000000000001
 40
0.3125000000000001
 40
0.3125000000000001
 40
0.3750000000000002
 40
0.3750000000000002
 40
0.5000000000000002
 40
0.5000000000000002
 40
0.5625000000000001
 40
0.5625000000000001
 40
0.625
 40
0.625
 40
0.7499999999999997
 40
0.7499999999999997
 40
0.8124999999999997
 40
0.8124999999999997
 40
0.8749999999999997
 40
0.8749999999999997
 40
1.0
 40
1.0
 40
1.0
 40
1.0
 10
358.4430862026102
 20
190.769968108693
 30
0.0
 10
358.44308620268
 20
191.8926646705344
 30
0.0
 10
358.3329503653775
 20
193.0040898474723
 30
0.0
 10
357.8928356666077
 20
195.2044412999659
 30
0.0
 10
357.5676303550172
 20
196.2676525851613
 30
0.0
 10
356.9307736963934
 20
197.8011770817831
 30
0.0
 10
356.6933676005558
 20
198.3025317473671
 30
0.0
 10
356.1672689650759
 20
199.2851920921569
 30
0.0
 10
355.877039559168
 20
199.7683932775254
 30
0.0
 10
354.9464041787642
 20
201.1576082849331
 30
0.0
 10
354.2430310909838
 20
202.0124505509019
 30
0.0
 10
353.065145520669
 20
203.1891362062545
 30
0.0
 10
352.6511350282777
 20
203.5642697456849
 30
0.0
 10
351.7835356637997
 20
204.2751381242455
 30
0.0
 10
351.3357147897373
 20
204.6062758756647
 30
0.0
 10
349.9515850580015
 20
205.5292196639479
 30
0.0
 10
348.9749910648346
 20
206.0512181335548
 30
0.0
 10
347.4277446148506
 20
206.6915072617421
 30
0.0
 10
346.8972100200891
 20
206.8808961422145
 30
0.0
 10
345.8322490596573
 20
207.2030054757344
 30
0.0
 10
345.2949299268365
 20
207.3370651043135
 30
0.0
 10
343.6687416408947
 20
207.6598492944134
 30
0.0
 10
342.5657829779591
 20
207.7699679119964
 30
0.0
 10
341.4430864012657
 20
207.7699679120601
 30
0.0
  0
LINE
  5
138
330
1F
100
AcDbEntity
  8
0
  6
Continuous
 62
     7
370
    30
100
AcDbLine
 10
341.4430864013
 20
207.7699679121
 30
0.0
 11
304.4430864003
 21
207.7699679121
 31
0.0
  0
SPLINE
  5
139
330
1F
100
AcDbEntity
  8
0
  6
Continuous
 62
     7
370
    30
100
AcDbSpline
210
0.0
220
0.0
230
1.0
 70
     8
 71
     3
 72
    28
 73
    24
 74
     0
 42
0.000000001
 43
0.00000001
 40
0.0
 40
0.0
 40
0.0
 40
0.0
 40
0.1250000000000008
 40
0.1250000000000008
 40
0.2500000000000016
 40
0.2500000000000016
 40
0.3125000000000018
 40
0.3125000000000018
 40
0.375000000000002
 40
0.375000000000002
 40
0.500000000000002
 40
0.500000000000002
 40
0.5625000000000021
 40
0.5625000000000021
 40
0.6250000000000023
 40
0.6250000000000023
 40
0.750000000000002
 40
0.750000000000002
 40
0.8125000000000014
 40
0.8125000000000014
 40
0.875000000000001
 40
0.875000000000001
 40
1.0
 40
1.0
 40
1.0
 40
1.0
 10
304.4430864002757
 20
207.7699679120595
 30
0.0
 10
303.3203898391423
 20
207.7699679120576
 30
0.0
 10
302.2089646614995
 20
207.6598320822882
 30
0.0
 10
300.0086132056345
 20
207.2197174053729
 30
0.0
 10
298.94540192165
 20
206.8945120950125
 30
0.0
 10
297.4118774232608
 20
206.2576554445923
 30
0.0
 10
296.9105227574949
 20
206.0202493499488
 30
0.0
 10
295.92786241447
 20
205.4941507103939
 30
0.0
 10
295.4446612315073
 20
205.203921300927
 30
0.0
 10
294.0554462264011
 20
204.2732859189748
 30
0.0
 10
293.2006039715382
 20
203.5699128173682
 30
0.0
 10
292.0239183176024
 20
202.3920272415901
 30
0.0
 10
291.64878477863
 20
201.978016741199
 30
0.0
 10
290.937916411895
 20
201.1104173727232
 30
0.0
 10
290.6067786640614
 20
200.6625964972109
 30
0.0
 10
289.6838348778195
 20
199.2784667638525
 30
0.0
 10
289.1618364150602
 20
198.301872763389
 30
0.0
 10
288.521547277177
 20
196.7546263093196
 30
0.0
 10
288.3321583976699
 20
196.2240917160283
 30
0.0
 10
288.0100490611624
 20
195.1591307606336
 30
0.0
 10
287.8759894287547
 20
194.6218116301773
 30
0.0
 10
287.553205223254
 20
192.9956233503461
 30
0.0
 10
287.4430865984507
 20
191.8926646887094
 30
0.0
 10
287.4430865979966
 20
190.7699681097547
 30
0.0
  0
LINE
  5
13A
330
1F
100
AcDbEntity
  8
0
  6
Continuous
 62
     7
370
    30
100
AcDbLine
 10
287.443086598
 20
190.7699681098
 30
0.0
 11
287.443086598
 21
101.7699681098
 31
0.0
  0
SPLINE
  5
13B
330
1F
100
AcDbEntity
  8
0
  6
Continuous
 62
     7
370
    30
100
AcDbSpline
210
0.0
220
0.0
230
1.0
 70
     8
 71
     3
 72
    28
 73
    24
 74
     0
 42
0.000000001
 43
0.00000001
 40
0.0
 40
0.0
 40
0.0
 40
0.0
 40
0.1250000000000001
 40
0.1250000000000001
 40
0.2500000000000003
 40
0.2500000000000003
 40
0.3125000000000006
 40
0.3125000000000006
 40
0.3750000000000009
 40
0.3750000000000009
 40
0.5000000000000014
 40
0.5000000000000014
 40
0.5625000000000014
 40
0.5625000000000014
 40
0.6250000000000013
 40
0.6250000000000013
 40
0.7500000000000011
 40
0.7500000000000011
 40
0.8125000000000009
 40
0.8125000000000009
 40
0.8750000000000008
 40
0.8750000000000008
 40
1.0
 40
1.0
 40
1.0
 40
1.0
 10
287.4430865979966
 20
101.7699681097519
 30
0.0
 10
287.4430865979968
 20
100.6472715480296
 30
0.0
 10
287.5532224353457
 20
99.53584637121519
 30
0.0
 10
287.9933371341592
 20
97.33549491897759
 30
0.0
 10
288.3185424457505
 20
96.27228363389695
 30
0.0
 10
288.9553991043385
 20
94.73875913745243
 30
0.0
 10
289.1928052001581
 20
94.237404471927
 30
0.0
 10
289.7189038355892
 20
93.25474412725305
 30
0.0
 10
290.0091332414681
 20
92.77154294193728
 30
0.0
 10
290.9397686217802
 20
91.38232793466634
 30
0.0
 10
291.6431417094793
 20
90.52748566878051
 30
0.0
 10
292.8210272796375
 20
89.3508000135358
 30
0.0
 10
293.235037771959
 20
88.97566647414813
 30
0.0
 10
294.1026371363357
 20
88.26479809562407
 30
0.0
 10
294.5504580103438
 20
87.93366034422003
 30
0.0
 10
295.934587741904
 20
87.01071655597129
 30
0.0
 10
296.9111817349378
 20
86.48871808637304
 30
0.0
 10
298.4584281846919
 20
85.84842895816698
 30
0.0
 10
298.9889627793916
 20
85.65904007767499
 30
0.0
 10
300.0539237397093
 20
85.33693074410503
 30
0.0
 10
300.5912428724727
 20
85.20287111549644
 30
0.0
 10
302.2174311582415
 20
84.8800869252935
 30
0.0
 10
303.3203898210604
 20
84.76996830762282
 30
0.0
 10
304.4430863976347
 20
84.76996830744646
 30
0.0
  0
LINE
  5
13C
330
1F
100
AcDbEntity
  8
0
  6
Continuous
 62
     7
370
    30
100
AcDbLine
 10
304.4430863976
 20
84.7699683074
 30
0.0
 11
319.6930864003
 21
84.7699683074
 31
0.0
  0
LINE
  5
13D
330
1F
100
AcDbEntity
  8
0
  6
Continuous
 62
     7
370
    30
100
AcDbLine
 10
319.6930864003
 20
83.7699681098
 30
0.0
 11
319.6930864003
 21
84.7699683074
 31
0.0
  0
LINE
  5
13E
330
1F
100
AcDbEntity
  8
0
  6
Continuous
 62
     7
370
    30
100
AcDbLine
 10
304.4430863987
 20
83.7699681098
 30
0.0
 11
319.6930864003
 21
83.7699681098
 31
0.0
  0
ARC
  5
13F
330
1F
100
AcDbEntity
  8
0
  6
Continuous
 62
     7
370
    30
100
AcDbCircle
 10
304.4430864003
 20
101.7699681098
 30
0.0
 40
18.00000000000006
100
AcDbArc
 50
180.0
 51
269.9999999948
  0
LINE
  5
140
330
1F
100
AcDbEntity
  8
0
  6
Continuous
 62
     7
370
    30
100
AcDbLine
 10
286.4430864003
 20
190.7699681098
 30
0.0
 11
286.4430864003
 21
101.7699681098
 31
0.0
  0
ARC
  5
141
330
1F
100
AcDbEntity
  8
0
  6
Continuous
 62
     7
370
    30
100
AcDbCircle
 10
304.4430864003
 20
190.7699681098
 30
0.0
 40
18.00000000000006
100
AcDbArc
 50
90.0000000001
 51
180.0
  0
LINE
  5
142
330
1F
100
AcDbEntity
  8
0
  6
Continuous
 62
     7
370
    30
100
AcDbLine
 10
341.443086402
 20
208.7699681098
 30
0.0
 11
304.4430864003
 21
208.7699681098
 31
0.0
  0
LINE
  5
143
330
1F
100
AcDbEntity
  8
0
  6
Continuous
 62
     7
370
    30
100
AcDbLine
 10
359.4430864003
 20
101.7699681091
 30
0.0
 11
359.4430864003
 21
190.7699681091
 31
0.0
  0
ARC
  5
144
330
1F
100
AcDbEntity
  8
0
  6
Continuous
 62
     7
370
    30
100
AcDbCircle
 10
341.4430864003
 20
101.7699681098
 30
0.0
 40
18.0
100
AcDbArc
 50
270.0000000001
 51
359.999999998
  0
LINE
  5
145
330
1F
100
AcDbEntity
  8
0
  6
Continuous
 62
     7
370
    30
100
AcDbLine
 10
326.1930864003
 20
83.7699681098
 30
0.0
 11
341.4430864003
 21
83.7699681098
 31
0.0
  0
LINE
  5
146
330
1F
100
AcDbEntity
  8
0
  6
Continuous
 62
     7
370
    30
100
AcDbLine
 10
326.1930864003
 20
83.7699681098
 30
0.0
 11
326.1930864003
 21
84.7699683074
 31
0.0
  0
LINE
  5
147
330
1F
100
AcDbEntity
  8
0
  6
Continuous
 62
     7
370
    30
100
AcDbLine
 10
326.1930864003
 20
84.7699683074
 30
0.0
 11
341.4430864003
 21
84.7699683074
 31
0.0
  0
SPLINE
  5
148
330
1F
100
AcDbEntity
  8
0
  6
Continuous
 62
     7
370
    30
100
AcDbSpline
210
0.0
220
0.0
230
1.0
 70
    24
 71
     3
 72
     8
 73
     4
 74
     0
 42
0.000000001
 43
0.00000001
 40
0.0
 40
0.0
 40
0.0
 40
0.0
 40
1.0
 40
1.0
 40
1.0
 40
1.0
 10
326.1930864003033
 20
84.76996830744648
 30
0.0
 10
326.1930864003033
 20
84.77035926517085
 30
0.0
 10
326.1930864003033
 20
84.84670382492293
 30
0.0
 10
326.1930864003033
 20
84.99900198670274
 30
0.0
  0
SPLINE
  5
149
330
1F
100
AcDbEntity
  8
0
  6
Continuous
 62
     7
370
    30
100
AcDbSpline
210
0.0
220
0.0
230
1.0
 70
    24
 71
     3
 72
     8
 73
     4
 74
     0
 42
0.000000001
 43
0.00000001
 40
0.0
 40
0.0
 40
0.0
 40
0.0
 40
1.0
 40
1.0
 40
1.0
 40
1.0
 10
319.6930864003034
 20
84.99900198670275
 30
0.0
 10
319.6930864003034
 20
84.84670382492294
 30
0.0
 10
319.6930864003033
 20
84.77035926517087
 30
0.0
 10
319.6930864003033
 20
84.76996830744649
 30
0.0
  0
LINE
  5
14A
330
1F
100
AcDbEntity
  8
0
  6
Continuous
 62
     7
370
    30
100
AcDbLine
 10
326.1930864003
 20
85.0246730417
 30
0.0
 11
319.6930864003
 21
85.0246730417
 31
0.0
  0
LINE
  5
14B
330
1F
100
AcDbEntity
  8
0
  6
Continuous
 62
     7
370
    30
100
AcDbLine
 10
326.1930864003
 20
83.9902569745
 30
0.0
 11
319.6930864003
 21
83.9902569745
 31
0.0
  0
LINE
  5
14C
330
1F
100
AcDbEntity
  8
0
  6
Continuous
 62
     7
370
    30
100
AcDbLine
 10
309.2930864003
 20
111.2699681098
 30
0.0
 11
336.5930864003
 21
111.2699681098
 31
0.0
  0
ARC
  5
14D
330
1F
100
AcDbEntity
  8
0
  6
Continuous
 62
     7
370
    30
100
AcDbCircle
 10
336.5930864003
 20
112.2699681098
 30
0.0
 40
1.0
100
AcDbArc
 50
270.0
 51
0.0
  0
LINE
  5
14E
330
1F
100
AcDbEntity
  8
0
  6
Continuous
 62
     7
370
    30
100
AcDbLine
 10
337.5930864003
 20
112.2699681098
 30
0.0
 11
337.5930864003
 21
180.2699681098
 31
0.0
  0
ARC
  5
14F
330
1F
100
AcDbEntity
  8
0
  6
Continuous
 62
     7
370
    30
100
AcDbCircle
 10
336.5930864003
 20
180.2699681098
 30
0.0
 40
1.000000000000028
100
AcDbArc
 50
0.0
 51
90.0
  0
LINE
  5
150
330
1F
100
AcDbEntity
  8
0
  6
Continuous
 62
     7
370
    30
100
AcDbLine
 10
336.5930864003
 20
181.2699681098
 30
0.0
 11
309.2930864003
 21
181.2699681098
 31
0.0
  0
ARC
  5
151
330
1F
100
AcDbEntity
  8
0
  6
Continuous
 62
     7
370
    30
100
AcDbCircle
 10
309.2930864003
 20
180.2699681098
 30
0.0
 40
1.000000000000028
100
AcDbArc
 50
90.0
 51
180.0
  0
LINE
  5
152
330
1F
100
AcDbEntity
  8
0
  6
Continuous
 62
     7
370
    30
100
AcDbLine
 10
308.2930864003
 20
180.2699681098
 30
0.0
 11
308.2930864003
 21
112.2699681098
 31
0.0
  0
ARC
  5
153
330
1F
100
AcDbEntity
  8
0
  6
Continuous
 62
     7
370
    30
100
AcDbCircle
 10
309.2930864003
 20
112.2699681098
 30
0.0
 40
1.0
100
AcDbArc
 50
180.0
 51
270.0
  0
LINE
  5
154
330
1F
100
AcDbEntity
  8
0
  6
Continuous
 62
     7
370
    30
100
AcDbLine
 10
309.2930864003
 20
110.2699681098
 30
0.0
 11
336.5930864003
 21
110.2699681098
 31
0.0
  0
ARC
  5
155
330
1F
100
AcDbEntity
  8
0
  6
Continuous
 62
     7
370
    30
100
AcDbCircle
 10
309.2930864003
 20
112.2699681098
 30
0.0
 40
2.000000000000014
100
AcDbArc
 50
180.0
 51
270.0
  0
LINE
  5
156
330
1F
100
AcDbEntity
  8
0
  6
Continuous
 62
     7
370
    30
100
AcDbLine
 10
307.2930864003
 20
180.2699681098
 30
0.0
 11
307.2930864003
 21
112.2699681098
 31
0.0
  0
ARC
  5
157
330
1F
100
AcDbEntity
  8
0
  6
Continuous
 62
     7
370
    30
100
AcDbCircle
 10
309.2930864003
 20
180.2699681098
 30
0.0
 40
2.000000000000028
100
AcDbArc
 50
90.0
 51
180.0
  0
LINE
  5
158
330
1F
100
AcDbEntity
  8
0
  6
Continuous
 62
     7
370
    30
100
AcDbLine
 10
336.5930864003
 20
182.2699681098
 30
0.0
 11
309.2930864003
 21
182.2699681098
 31
0.0
  0
ARC
  5
159
330
1F
100
AcDbEntity
  8
0
  6
Continuous
 62
     7
370
    30
100
AcDbCircle
 10
336.5930864003
 20
180.2699681098
 30
0.0
 40
2.000000000000028
100
AcDbArc
 50
0.0
 51
90.0
  0
LINE
  5
15A
330
1F
100
AcDbEntity
  8
0
  6
Continuous
 62
     7
370
    30
100
AcDbLine
 10
338.5930864003
 20
112.2699681098
 30
0.0
 11
338.5930864003
 21
180.2699681098
 31
0.0
  0
ARC
  5
15B
330
1F
100
AcDbEntity
  8
0
  6
Continuous
 62
     7
370
    30
100
AcDbCircle
 10
336.5930864003
 20
112.2699681098
 30
0.0
 40
2.000000000000014
100
AcDbArc
 50
270.0
 51
0.0
  0
ENDSEC
  0
SECTION
  2
OBJECTS
  0
DICTIONARY
  5
C
330
0
100
AcDbDictionary
281
     1
  3
ACAD_GROUP
350
D
  3
ACAD_LAYOUT
350
1A
  3
ACAD_MLINESTYLE
350
17
  3
ACAD_PLOTSETTINGS
350
19
  3
ACAD_PLOTSTYLENAME
350
E
  3
ACAD_SCALELIST
350
47
  0
DICTIONARY
  5
D
102
{ACAD_REACTORS
330
C
102
}
330
C
100
AcDbDictionary
281
     1
  0
DICTIONARY
  5
1A
102
{ACAD_REACTORS
330
C
102
}
330
C
100
AcDbDictionary
281
     1
  3
Layout1
350
1E
  3
Layout2
350
26
  3
Model
350
22
  0
DICTIONARY
  5
17
102
{ACAD_REACTORS
330
C
102
}
330
C
100
AcDbDictionary
281
     1
  3
Standard
350
18
  0
DICTIONARY
  5
19
102
{ACAD_REACTORS
330
C
102
}
330
C
100
AcDbDictionary
281
     1
  0
ACDBDICTIONARYWDFLT
  5
E
102
{ACAD_REACTORS
330
C
102
}
330
C
100
AcDbDictionary
281
     1
  3
Normal
350
F
100
AcDbDictionaryWithDefault
340
F
  0
DICTIONARY
  5
47
102
{ACAD_REACTORS
330
C
102
}
330
C
100
AcDbDictionary
281
     1
  3
A0
350
48
  3
A1
350
49
  3
A2
350
4A
  3
A3
350
4B
  3
A4
350
4C
  3
A5
350
4D
  3
A6
350
4E
  3
A7
350
4F
  3
A8
350
50
  3
A9
350
51
  3
B0
350
52
  3
B1
350
53
  3
B2
350
54
  3
B3
350
55
  3
B4
350
56
  3
B5
350
57
  3
B6
350
58
  3
B7
350
59
  3
B8
350
5A
  3
B9
350
5B
  3
C0
350
5C
  3
C1
350
5D
  3
C2
350
5E
  3
C3
350
5F
  3
C4
350
60
  3
C5
350
61
  3
C6
350
62
  3
C7
350
63
  3
C8
350
64
  3
C9
350
65
  3
D0
350
66
  3
D1
350
67
  3
D2
350
68
  0
LAYOUT
  5
1E
102
{ACAD_REACTORS
330
1A
102
}
330
1A
100
AcDbPlotSettings
  1

  2
none_device
  4

  6

 40
0.0
 41
0.0
 42
0.0
 43
0.0
 44
0.0
 45
0.0
 46
0.0
 47
0.0
 48
0.0
 49
0.0
140
0.0
141
0.0
142
1.0
143
1.0
 70
   688
 72
     1
 73
     0
 74
     5
  7

 75
    16
147
1.0
148
0.0
149
0.0
100
AcDbLayout
  1
Layout1
 70
     1
 71
     1
 10
0.0
 20
0.0
 11
420.0
 21
297.0
 12
0.0
 22
0.0
 32
0.0
 14
1.0000000000E+20
 24
1.0000000000E+20
 34
1.0000000000E+20
 15
-1.0000000000E+20
 25
-1.0000000000E+20
 35
-1.0000000000E+20
146
0.0
 13
0.0
 23
0.0
 33
0.0
 16
1.0
 26
0.0
 36
0.0
 17
0.0
 27
1.0
 37
0.0
 76
     0
330
1B
  0
LAYOUT
  5
26
102
{ACAD_REACTORS
330
1A
102
}
330
1A
100
AcDbPlotSettings
  1

  2
none_device
  4

  6

 40
0.0
 41
0.0
 42
0.0
 43
0.0
 44
0.0
 45
0.0
 46
0.0
 47
0.0
 48
0.0
 49
0.0
140
0.0
141
0.0
142
1.0
143
1.0
 70
   688
 72
     1
 73
     0
 74
     5
  7

 75
    16
147
1.0
148
0.0
149
0.0
100
AcDbLayout
  1
Layout2
 70
     1
 71
     2
 10
0.0
 20
0.0
 11
0.0
 21
0.0
 12
0.0
 22
0.0
 32
0.0
 14
0.0
 24
0.0
 34
0.0
 15
0.0
 25
0.0
 35
0.0
146
0.0
 13
0.0
 23
0.0
 33
0.0
 16
1.0
 26
0.0
 36
0.0
 17
0.0
 27
1.0
 37
0.0
 76
     0
330
23
  0
LAYOUT
  5
22
102
{ACAD_REACTORS
330
1A
102
}
330
1A
100
AcDbPlotSettings
  1

  2
none_device
  4
Letter_(8.50_x_11.00_Inches)
  6

 40
6.35
 41
6.35
 42
6.35000508
 43
6.35000508
 44
215.9
 45
279.4
 46
0.0
 47
0.0
 48
0.0
 49
0.0
140
0.0
141
0.0
142
1.0
143
1.0
 70
  1712
 72
     1
 73
     0
 74
     0
  7

 75
     0
147
1.0
148
0.0
149
0.0
100
AcDbLayout
  1
Model
 70
     1
 71
     0
 10
0.0
 20
0.0
 11
420.0
 21
297.0
 12
0.0
 22
0.0
 32
0.0
 14
0.0
 24
0.0
 34
0.0
 15
420.0
 25
297.0
 35
0.0
146
0.0
 13
0.0
 23
0.0
 33
0.0
 16
1.0
 26
0.0
 36
0.0
 17
0.0
 27
1.0
 37
0.0
 76
     0
330
1F
331
29
  0
MLINESTYLE
  5
18
102
{ACAD_REACTORS
330
17
102
}
330
17
100
AcDbMlineStyle
  2
Standard
 70
     0
  3

 62
   256
 51
90.0
 52
90.0
 71
     2
 49
0.5
 62
   256
  6
BYLAYER
 49
-0.5
 62
   256
  6
BYLAYER
  0
ACDBPLACEHOLDER
  5
F
102
{ACAD_REACTORS
330
E
102
}
330
E
  0
SCALE
  5
48
102
{ACAD_REACTORS
330
47
102
}
330
47
100
AcDbScale
 70
     0
300
1:1
140
1.0
141
1.0
290
     1
  0
SCALE
  5
49
102
{ACAD_REACTORS
330
47
102
}
330
47
100
AcDbScale
 70
     0
300
1:2
140
1.0
141
2.0
290
     0
  0
SCALE
  5
4A
102
{ACAD_REACTORS
330
47
102
}
330
47
100
AcDbScale
 70
     0
300
1:4
140
1.0
141
4.0
290
     0
  0
SCALE
  5
4B
102
{ACAD_REACTORS
330
47
102
}
330
47
100
AcDbScale
 70
     0
300
1:5
140
1.0
141
5.0
290
     0
  0
SCALE
  5
4C
102
{ACAD_REACTORS
330
47
102
}
330
47
100
AcDbScale
 70
     0
300
1:8
140
1.0
141
8.0
290
     0
  0
SCALE
  5
4D
102
{ACAD_REACTORS
330
47
102
}
330
47
100
AcDbScale
 70
     0
300
1:10
140
1.0
141
10.0
290
     0
  0
SCALE
  5
4E
102
{ACAD_REACTORS
330
47
102
}
330
47
100
AcDbScale
 70
     0
300
1:16
140
1.0
141
16.0
290
     0
  0
SCALE
  5
4F
102
{ACAD_REACTORS
330
47
102
}
330
47
100
AcDbScale
 70
     0
300
1:20
140
1.0
141
20.0
290
     0
  0
SCALE
  5
50
102
{ACAD_REACTORS
330
47
102
}
330
47
100
AcDbScale
 70
     0
300
1:30
140
1.0
141
30.0
290
     0
  0
SCALE
  5
51
102
{ACAD_REACTORS
330
47
102
}
330
47
100
AcDbScale
 70
     0
300
1:40
140
1.0
141
40.0
290
     0
  0
SCALE
  5
52
102
{ACAD_REACTORS
330
47
102
}
330
47
100
AcDbScale
 70
     0
300
1:50
140
1.0
141
50.0
290
     0
  0
SCALE
  5
53
102
{ACAD_REACTORS
330
47
102
}
330
47
100
AcDbScale
 70
     0
300
1:100
140
1.0
141
100.0
290
     0
  0
SCALE
  5
54
102
{ACAD_REACTORS
330
47
102
}
330
47
100
AcDbScale
 70
     0
300
2:1
140
2.0
141
1.0
290
     0
  0
SCALE
  5
55
102
{ACAD_REACTORS
330
47
102
}
330
47
100
AcDbScale
 70
     0
300
4:1
140
4.0
141
1.0
290
     0
  0
SCALE
  5
56
102
{ACAD_REACTORS
330
47
102
}
330
47
100
AcDbScale
 70
     0
300
8:1
140
8.0
141
1.0
290
     0
  0
SCALE
  5
57
102
{ACAD_REACTORS
330
47
102
}
330
47
100
AcDbScale
 70
     0
300
10:1
140
10.0
141
1.0
290
     0
  0
SCALE
  5
58
102
{ACAD_REACTORS
330
47
102
}
330
47
100
AcDbScale
 70
     0
300
100:1
140
100.0
141
1.0
290
     0
  0
SCALE
  5
59
102
{ACAD_REACTORS
330
47
102
}
330
47
100
AcDbScale
 70
     0
300
1/128" = 1'-0"
140
0.0078125
141
12.0
290
     0
  0
SCALE
  5
5A
102
{ACAD_REACTORS
330
47
102
}
330
47
100
AcDbScale
 70
     0
300
1/64" = 1'-0"
140
0.015625
141
12.0
290
     0
  0
SCALE
  5
5B
102
{ACAD_REACTORS
330
47
102
}
330
47
100
AcDbScale
 70
     0
300
1/32" = 1'-0"
140
0.03125
141
12.0
290
     0
  0
SCALE
  5
5C
102
{ACAD_REACTORS
330
47
102
}
330
47
100
AcDbScale
 70
     0
300
1/16" = 1'-0"
140
0.0625
141
12.0
290
     0
  0
SCALE
  5
5D
102
{ACAD_REACTORS
330
47
102
}
330
47
100
AcDbScale
 70
     0
300
3/32" = 1'-0"
140
0.09375
141
12.0
290
     0
  0
SCALE
  5
5E
102
{ACAD_REACTORS
330
47
102
}
330
47
100
AcDbScale
 70
     0
300
1/8" = 1'-0"
140
0.125
141
12.0
290
     0
  0
SCALE
  5
5F
102
{ACAD_REACTORS
330
47
102
}
330
47
100
AcDbScale
 70
     0
300
3/16" = 1'-0"
140
0.1875
141
12.0
290
     0
  0
SCALE
  5
60
102
{ACAD_REACTORS
330
47
102
}
330
47
100
AcDbScale
 70
     0
300
1/4" = 1'-0"
140
0.25
141
12.0
290
     0
  0
SCALE
  5
61
102
{ACAD_REACTORS
330
47
102
}
330
47
100
AcDbScale
 70
     0
300
3/8" = 1'-0"
140
0.375
141
12.0
290
     0
  0
SCALE
  5
62
102
{ACAD_REACTORS
330
47
102
}
330
47
100
AcDbScale
 70
     0
300
1/2" = 1'-0"
140
0.5
141
12.0
290
     0
  0
SCALE
  5
63
102
{ACAD_REACTORS
330
47
102
}
330
47
100
AcDbScale
 70
     0
300
3/4" = 1'-0"
140
0.75
141
12.0
290
     0
  0
SCALE
  5
64
102
{ACAD_REACTORS
330
47
102
}
330
47
100
AcDbScale
 70
     0
300
1" = 1'-0"
140
1.0
141
12.0
290
     0
  0
SCALE
  5
65
102
{ACAD_REACTORS
330
47
102
}
330
47
100
AcDbScale
 70
     0
300
1-1/2" = 1'-0"
140
1.5
141
12.0
290
     0
  0
SCALE
  5
66
102
{ACAD_REACTORS
330
47
102
}
330
47
100
AcDbScale
 70
     0
300
3" = 1'-0"
140
3.0
141
12.0
290
     0
  0
SCALE
  5
67
102
{ACAD_REACTORS
330
47
102
}
330
47
100
AcDbScale
 70
     0
300
6" = 1'-0"
140
6.0
141
12.0
290
     0
  0
SCALE
  5
68
102
{ACAD_REACTORS
330
47
102
}
330
47
100
AcDbScale
 70
     0
300
1'-0" = 1'-0"
140
12.0
141
12.0
290
     0
  0
ENDSEC
  0
EOF
