  0
SECTION
  2
HEADER
  9
$ACADVER
  1
AC1015
  9
$ACADMAINTVER
 70
     6
  9
$DWGCODEPAGE
  3
DOS932
  9
$INSBASE
 10
0.0
 20
0.0
 30
0.0
  9
$EXTMIN
 10
0.0
 20
0.0
 30
0.0
  9
$EXTMAX
 10
420.0
 20
297.0
 30
0.0
  9
$LIMMIN
 10
0.0
 20
0.0
  9
$LIMMAX
 10
420.0
 20
297.0
  9
$ORTHOMODE
 70
     0
  9
$REGENMODE
 70
     1
  9
$FILLMODE
 70
     1
  9
$QTEXTMODE
 70
     0
  9
$MIRRTEXT
 70
     1
  9
$LTSCALE
 40
1.0
  9
$ATTMODE
 70
     1
  9
$TEXTSIZE
 40
3.8805555556
  9
$TRACEWID
 40
1.0
  9
$TEXTSTYLE
  7
Standard
  9
$CLAYER
  8
0
  9
$CELTYPE
  6
ByLayer
  9
$CECOLOR
 62
   256
  9
$CELTSCALE
 40
1.0
  9
$DISPSILH
 70
     0
  9
$DIMSCALE
 40
1.0
  9
$DIMASZ
 40
3.0
  9
$DIMEXO
 40
0.0
  9
$DIMDLI
 40
3.75
  9
$DIMRND
 40
0.0
  9
$DIMDLE
 40
0.0
  9
$DIMEXE
 40
1.0
  9
$DIMTP
 40
0.0
  9
$DIMTM
 40
0.0
  9
$DIMTXT
 40
3.5277777778
  9
$DIMCEN
 40
2.5
  9
$DIMTSZ
 40
0.0
  9
$DIMTOL
 70
     0
  9
$DIMLIM
 70
     0
  9
$DIMTIH
 70
     1
  9
$DIMTOH
 70
     1
  9
$DIMSE1
 70
     0
  9
$DIMSE2
 70
     0
  9
$DIMTAD
 70
     1
  9
$DIMZIN
 70
     0
  9
$DIMBLK
  1

  9
$DIMASO
 70
     1
  9
$DIMSHO
 70
     1
  9
$DIMPOST
  1

  9
$DIMAPOST
  1

  9
$DIMALT
 70
     0
  9
$DIMALTD
 70
     3
  9
$DIMALTF
 40
0.0393700787
  9
$DIMLFAC
 40
1.0
  9
$DIMTOFL
 70
     1
  9
$DIMTVP
 40
0.0
  9
$DIMTIX
 70
     0
  9
$DIMSOXD
 70
     0
  9
$DIMSAH
 70
     0
  9
$DIMBLK1
  1

  9
$DIMBLK2
  1

  9
$DIMSTYLE
  2
ISO-25
  9
$DIMCLRD
 70
     0
  9
$DIMCLRE
 70
     0
  9
$DIMCLRT
 70
     0
  9
$DIMTFAC
 40
1.0
  9
$DIMGAP
 40
1.0
  9
$DIMJUST
 70
     0
  9
$DIMSD1
 70
     0
  9
$DIMSD2
 70
     0
  9
$DIMTOLJ
 70
     0
  9
$DIMTZIN
 70
     0
  9
$DIMALTZ
 70
     0
  9
$DIMALTTZ
 70
     0
  9
$DIMUPT
 70
     0
  9
$DIMDEC
 70
     2
  9
$DIMTDEC
 70
     2
  9
$DIMALTU
 70
     2
  9
$DIMALTTD
 70
     3
  9
$DIMTXSTY
  7
Standard
  9
$DIMAUNIT
 70
     0
  9
$DIMADEC
 70
     2
  9
$DIMALTRND
 40
0.0
  9
$DIMAZIN
 70
     0
  9
$DIMDSEP
 70
    44
  9
$DIMATFIT
 70
     3
  9
$DIMFRAC
 70
     0
  9
$DIMLDRBLK
  1

  9
$DIMLUNIT
 70
     2
  9
$DIMLWD
 70
    -2
  9
$DIMLWE
 70
    -2
  9
$DIMTMOVE
 70
     0
  9
$LUNITS
 70
     2
  9
$LUPREC
 70
     2
  9
$SKETCHINC
 40
1.0
  9
$FILLETRAD
 40
10.0
  9
$AUNITS
 70
     0
  9
$AUPREC
 70
     2
  9
$MENU
  1
.
  9
$ELEVATION
 40
0.0
  9
$PELEVATION
 40
0.0
  9
$THICKNESS
 40
0.0
  9
$LIMCHECK
 70
     0
  9
$CHAMFERA
 40
0.0
  9
$CHAMFERB
 40
0.0
  9
$CHAMFERC
 40
0.0
  9
$CHAMFERD
 40
0.0
  9
$SKPOLY
 70
     0
  9
$TDCREATE
 40
2458620.826025683
  9
$TDUCREATE
 40
2458620.451025683
  9
$TDUPDATE
 40
2458620.826026747
  9
$TDUUPDATE
 40
2458620.451026747
  9
$TDINDWG
 40
0.0000000116
  9
$TDUSRTIMER
 40
0.0000000116
  9
$USRTIMER
 70
     1
  9
$ANGBASE
 50
0.0
  9
$ANGDIR
 70
     0
  9
$PDMODE
 70
     0
  9
$PDSIZE
 40
-1.0
  9
$PLINEWID
 40
0.0
  9
$SPLFRAME
 70
     0
  9
$SPLINETYPE
 70
     6
  9
$SPLINESEGS
 70
     8
  9
$HANDSEED
  5
1E2
  9
$SURFTAB1
 70
     6
  9
$SURFTAB2
 70
     6
  9
$SURFTYPE
 70
     6
  9
$SURFU
 70
     6
  9
$SURFV
 70
     6
  9
$UCSBASE
  2

  9
$UCSNAME
  2

  9
$UCSORG
 10
0.0
 20
0.0
 30
0.0
  9
$UCSXDIR
 10
1.0
 20
0.0
 30
0.0
  9
$UCSYDIR
 10
0.0
 20
1.0
 30
0.0
  9
$UCSORTHOREF
  2

  9
$UCSORTHOVIEW
 70
     0
  9
$UCSORGTOP
 10
0.0
 20
0.0
 30
0.0
  9
$UCSORGBOTTOM
 10
0.0
 20
0.0
 30
0.0
  9
$UCSORGLEFT
 10
0.0
 20
0.0
 30
0.0
  9
$UCSORGRIGHT
 10
0.0
 20
0.0
 30
0.0
  9
$UCSORGFRONT
 10
0.0
 20
0.0
 30
0.0
  9
$UCSORGBACK
 10
0.0
 20
0.0
 30
0.0
  9
$PUCSBASE
  2

  9
$PUCSNAME
  2

  9
$PUCSORG
 10
0.0
 20
0.0
 30
0.0
  9
$PUCSXDIR
 10
1.0
 20
0.0
 30
0.0
  9
$PUCSYDIR
 10
0.0
 20
1.0
 30
0.0
  9
$PUCSORTHOREF
  2

  9
$PUCSORTHOVIEW
 70
     0
  9
$PUCSORGTOP
 10
0.0
 20
0.0
 30
0.0
  9
$PUCSORGBOTTOM
 10
0.0
 20
0.0
 30
0.0
  9
$PUCSORGLEFT
 10
0.0
 20
0.0
 30
0.0
  9
$PUCSORGRIGHT
 10
0.0
 20
0.0
 30
0.0
  9
$PUCSORGFRONT
 10
0.0
 20
0.0
 30
0.0
  9
$PUCSORGBACK
 10
0.0
 20
0.0
 30
0.0
  9
$USERI1
 70
     0
  9
$USERI2
 70
     0
  9
$USERI3
 70
     0
  9
$USERI4
 70
     0
  9
$USERI5
 70
     0
  9
$USERR1
 40
0.0
  9
$USERR2
 40
0.0
  9
$USERR3
 40
0.0
  9
$USERR4
 40
0.0
  9
$USERR5
 40
0.0
  9
$WORLDVIEW
 70
     1
  9
$SHADEDGE
 70
     3
  9
$SHADEDIF
 70
    70
  9
$TILEMODE
 70
     1
  9
$MAXACTVP
 70
    64
  9
$PINSBASE
 10
0.0
 20
0.0
 30
0.0
  9
$PLIMCHECK
 70
     0
  9
$PEXTMIN
 10
1.0000000000E+20
 20
1.0000000000E+20
 30
1.0000000000E+20
  9
$PEXTMAX
 10
-1.0000000000E+20
 20
-1.0000000000E+20
 30
-1.0000000000E+20
  9
$PLIMMIN
 10
0.0
 20
0.0
  9
$PLIMMAX
 10
420.0
 20
297.0
  9
$UNITMODE
 70
     0
  9
$VISRETAIN
 70
     1
  9
$PLINEGEN
 70
     0
  9
$PSLTSCALE
 70
     1
  9
$TREEDEPTH
 70
  3020
  9
$CMLSTYLE
  2
Standard
  9
$CMLJUST
 70
     0
  9
$CMLSCALE
 40
20.0
  9
$PROXYGRAPHICS
 70
     1
  9
$MEASUREMENT
 70
     1
  9
$CELWEIGHT
370
    -1
  9
$ENDCAPS
280
     0
  9
$JOINSTYLE
280
     0
  9
$LWDISPLAY
290
     1
  9
$INSUNITS
 70
     4
  9
$HYPERLINKBASE
  1

  9
$STYLESHEET
  1

  9
$XEDIT
290
     1
  9
$CEPSNTYPE
380
     0
  9
$PSTYLEMODE
290
     1
  9
$FINGERPRINTGUID
  2
{7833A221-E929-43F3-8041-B857C6A399F5}
  9
$VERSIONGUID
  2
{FAEB1C32-E019-11D5-929B-00C0DF256EC4}
  9
$EXTNAMES
290
     1
  9
$PSVPSCALE
 40
0.0
  9
$OLESTARTUP
290
     0
  0
ENDSEC
  0
SECTION
  2
CLASSES
  0
CLASS
  1
ACDBDICTIONARYWDFLT
  2
AcDbDictionaryWithDefault
  3
ObjectDBX Classes
 90
        0
280
     0
281
     0
  0
CLASS
  1
VISUALSTYLE
  2
AcDbVisualStyle
  3
ObjectDBX Classes
 90
     4095
280
     0
281
     0
  0
CLASS
  1
MATERIAL
  2
AcDbMaterial
  3
ObjectDBX Classes
 90
     1153
280
     0
281
     0
  0
CLASS
  1
SCALE
  2
AcDbScale
  3
ObjectDBX Classes
 90
     1153
280
     0
281
     0
  0
CLASS
  1
TABLESTYLE
  2
AcDbTableStyle
  3
ObjectDBX Classes
 90
     4095
280
     0
281
     0
  0
CLASS
  1
MLEADERSTYLE
  2
AcDbMLeaderStyle
  3
ACDB_MLEADERSTYLE_CLASS
 90
     4095
280
     0
281
     0
  0
CLASS
  1
SUN
  2
AcDbSun
  3
SCENEOE
 90
     1153
280
     0
281
     0
  0
CLASS
  1
ACDBPLACEHOLDER
  2
AcDbPlaceHolder
  3
ObjectDBX Classes
 90
        0
280
     0
281
     0
  0
CLASS
  1
LAYOUT
  2
AcDbLayout
  3
ObjectDBX Classes
 90
        0
280
     0
281
     0
  0
ENDSEC
  0
SECTION
  2
TABLES
  0
TABLE
  2
VPORT
  5
8
330
0
100
AcDbSymbolTable
 70
     1
  0
VPORT
  5
29
330
8
100
AcDbSymbolTableRecord
100
AcDbViewportTableRecord
  2
*Active
 70
     0
 10
0.0
 20
0.0
 11
1.0
 21
1.0
 12
210.0
 22
148.5
 13
0.0
 23
0.0
 14
10.0
 24
10.0
 15
10.0
 25
10.0
 16
0.0
 26
0.0
 36
1.0
 17
0.0
 27
0.0
 37
0.0
 40
297.0
 41
1.4141414141
 42
50.0
 43
0.0
 44
0.0
 50
0.0
 51
0.0
 71
     0
 72
  2000
 73
     1
 74
     3
 75
     0
 76
     0
 77
     0
 78
     0
281
     0
 65
     1
110
0.0
120
0.0
130
0.0
111
1.0
121
0.0
131
0.0
112
0.0
122
1.0
132
0.0
 79
     0
146
0.0
  0
ENDTAB
  0
TABLE
  2
LTYPE
  5
5
330
0
100
AcDbSymbolTable
 70
     6
  0
LTYPE
  5
14
330
5
100
AcDbSymbolTableRecord
100
AcDbLinetypeTableRecord
  2
ByBlock
 70
     0
  3

 72
    65
 73
     0
 40
0.0
  0
LTYPE
  5
15
330
5
100
AcDbSymbolTableRecord
100
AcDbLinetypeTableRecord
  2
ByLayer
 70
     0
  3

 72
    65
 73
     0
 40
0.0
  0
LTYPE
  5
16
330
5
100
AcDbSymbolTableRecord
100
AcDbLinetypeTableRecord
  2
Continuous
 70
     0
  3
Solid line
 72
    65
 73
     0
 40
0.0
  0
LTYPE
  5
6E
330
5
100
AcDbSymbolTableRecord
100
AcDbLinetypeTableRecord
  2
HIDDEN
 70
     0
  3
Hidden __ __ __ __ __ __ __ __ __ __ __ __ __ __
 72
    65
 73
     2
 40
1.905
 49
1.27
 74
     0
 49
-0.635
 74
     0
  0
LTYPE
  5
6F
330
5
100
AcDbSymbolTableRecord
100
AcDbLinetypeTableRecord
  2
PHANTOM
 70
     0
  3
Phantom ______  __  __  ______  __  __  ______
 72
    65
 73
     6
 40
12.7
 49
6.35
 74
     0
 49
-1.27
 74
     0
 49
1.27
 74
     0
 49
-1.27
 74
     0
 49
1.27
 74
     0
 49
-1.27
 74
     0
  0
LTYPE
  5
70
330
5
100
AcDbSymbolTableRecord
100
AcDbLinetypeTableRecord
  2
CENTER
 70
     0
  3
Center ____ _ ____ _ ____ _ ____ _ ____ _ ____
 72
    65
 73
     4
 40
10.16
 49
6.35
 74
     0
 49
-1.27
 74
     0
 49
1.27
 74
     0
 49
-1.27
 74
     0
  0
LTYPE
  5
71
330
5
100
AcDbSymbolTableRecord
100
AcDbLinetypeTableRecord
  2
CENTERX2
 70
     0
  3
Center (2x) ________  __  ________  __  _____
 72
    65
 73
     4
 40
20.32
 49
12.7
 74
     0
 49
-2.54
 74
     0
 49
2.54
 74
     0
 49
-2.54
 74
     0
  0
LTYPE
  5
72
330
5
100
AcDbSymbolTableRecord
100
AcDbLinetypeTableRecord
  2
DOT2
 70
     0
  3
Dot (.5x) ........................................
 72
    65
 73
     2
 40
0.635
 49
0.0
 74
     0
 49
-0.635
 74
     0
  0
ENDTAB
  0
TABLE
  2
LAYER
  5
2
330
0
100
AcDbSymbolTable
 70
     6
  0
LAYER
  5
10
330
2
100
AcDbSymbolTableRecord
100
AcDbLayerTableRecord
  2
0
 70
     0
 62
     7
  6
Continuous
370
    -3
390
F
  0
LAYER
  5
73
330
2
100
AcDbSymbolTableRecord
100
AcDbLayerTableRecord
  2
SLD-0
 70
     0
 62
     7
  6
Continuous
370
    -3
390
F
  0
LAYER
  5
74
330
2
100
AcDbSymbolTableRecord
100
AcDbLayerTableRecord
  2
8
 70
     0
 62
     7
  6
Continuous
370
    15
390
F
  0
LAYER
  5
75
330
2
100
AcDbSymbolTableRecord
100
AcDbLayerTableRecord
  2
9
 70
     0
 62
     7
  6
Continuous
370
    -3
390
F
  0
LAYER
  5
76
330
2
100
AcDbSymbolTableRecord
100
AcDbLayerTableRecord
  2
10
 70
     0
 62
     1
  6
Continuous
370
    -3
390
F
  0
LAYER
  5
77
330
2
100
AcDbSymbolTableRecord
100
AcDbLayerTableRecord
  2
11
 70
     0
 62
     7
  6
Continuous
370
    -3
390
F
  0
ENDTAB
  0
TABLE
  2
STYLE
  5
3
330
0
100
AcDbSymbolTable
 70
     2
  0
STYLE
  5
11
330
3
100
AcDbSymbolTableRecord
100
AcDbTextStyleTableRecord
  2
Standard
 70
     0
 40
0.0
 41
1.0
 50
0.0
 71
     0
 42
3.8805555556
  3
txt
  4
bigfont
  0
STYLE
  5
78
330
3
100
AcDbSymbolTableRecord
100
AcDbTextStyleTableRecord
  2
SLDTEXTSTYLE0
 70
     0
 40
0.0
 41
0.7
 50
0.0
 71
     0
 42
3.8805555556
  3
TXT
  4
bigfont
  0
ENDTAB
  0
TABLE
  2
VIEW
  5
6
330
0
100
AcDbSymbolTable
 70
     0
  0
ENDTAB
  0
TABLE
  2
UCS
  5
7
330
0
100
AcDbSymbolTable
 70
     0
  0
ENDTAB
  0
TABLE
  2
APPID
  5
9
330
0
100
AcDbSymbolTable
 70
     1
  0
APPID
  5
12
330
9
100
AcDbSymbolTableRecord
100
AcDbRegAppTableRecord
  2
ACAD
 70
     0
  0
ENDTAB
  0
TABLE
  2
DIMSTYLE
  5
A
330
0
100
AcDbSymbolTable
 70
     1
100
AcDbDimStyleTable
  0
DIMSTYLE
105
27
330
A
100
AcDbSymbolTableRecord
100
AcDbDimStyleTableRecord
  2
ISO-25
 70
     0
 41
2.5
 42
0.625
 43
3.75
 44
1.25
 73
     0
 74
     0
 77
     1
 78
     8
140
2.5
141
2.5
143
0.0393700787
147
0.625
171
     3
172
     1
178
     0
271
     2
272
     2
274
     3
278
    44
283
     0
284
     8
340
11
  0
ENDTAB
  0
TABLE
  2
BLOCK_RECORD
  5
1
330
0
100
AcDbSymbolTable
 70
     1
  0
BLOCK_RECORD
  5
1F
330
1
100
AcDbSymbolTableRecord
100
AcDbBlockTableRecord
  2
*Model_Space
340
22
  0
BLOCK_RECORD
  5
1B
330
1
100
AcDbSymbolTableRecord
100
AcDbBlockTableRecord
  2
*Paper_Space
340
1E
  0
BLOCK_RECORD
  5
23
330
1
100
AcDbSymbolTableRecord
100
AcDbBlockTableRecord
  2
*Paper_Space0
340
26
  0
ENDTAB
  0
ENDSEC
  0
SECTION
  2
BLOCKS
  0
BLOCK
  5
20
330
1F
100
AcDbEntity
  8
0
100
AcDbBlockBegin
  2
*Model_Space
 70
     0
 10
0.0
 20
0.0
 30
0.0
  3
*Model_Space
  1

  0
ENDBLK
  5
21
330
1F
100
AcDbEntity
  8
0
100
AcDbBlockEnd
  0
BLOCK
  5
1C
330
1B
100
AcDbEntity
 67
     1
  8
0
100
AcDbBlockBegin
  2
*Paper_Space
 70
     0
 10
0.0
 20
0.0
 30
0.0
  3
*Paper_Space
  1

  0
ENDBLK
  5
1D
330
1B
100
AcDbEntity
 67
     1
  8
0
100
AcDbBlockEnd
  0
BLOCK
  5
24
330
23
100
AcDbEntity
  8
0
100
AcDbBlockBegin
  2
*Paper_Space0
 70
     0
 10
0.0
 20
0.0
 30
0.0
  3
*Paper_Space0
  1

  0
ENDBLK
  5
25
330
23
100
AcDbEntity
  8
0
100
AcDbBlockEnd
  0
ENDSEC
  0
SECTION
  2
ENTITIES
  0
MTEXT
  5
79
330
1F
100
AcDbEntity
  8
9
 62
     7
100
AcDbMText
 10
22.9810592731
 20
14.7698939359
 30
0.0
 40
3.7041666667
 41
0.0
 71
     1
 72
     1
  1
2015/05/21
  7
SLDTEXTSTYLE0
 73
     1
 44
1.0
  0
MTEXT
  5
7A
330
1F
100
AcDbEntity
  8
9
 62
     7
100
AcDbMText
 10
22.9810592731
 20
39.3097759652
 30
0.0
 40
3.7041666667
 41
0.0
 71
     1
 72
     1
  1
PXP-HS01
  7
SLDTEXTSTYLE0
 73
     1
 44
1.0
  0
MTEXT
  5
7B
330
1F
100
AcDbEntity
  8
9
 62
     7
100
AcDbMText
 10
22.9810592731
 20
22.271836236
 30
0.0
 40
3.7041666667
 41
0.0
 71
     1
 72
     1
  1
2019/04/17
  7
SLDTEXTSTYLE0
 73
     1
 44
1.0
  0
MTEXT
  5
7C
330
1F
100
AcDbEntity
  8
9
 62
     7
100
AcDbMText
 10
22.9810592731
 20
30.9293045781
 30
0.0
 40
3.7041666667
 41
0.0
 71
     1
 72
     1
  1
1:1
  7
SLDTEXTSTYLE0
 73
     1
 44
1.0
  0
LINE
  5
7D
330
1F
100
AcDbEntity
  8
0
  6
Continuous
 62
     7
370
    30
100
AcDbLine
 10
126.9753203362
 20
115.7922060041
 30
0.0
 11
154.2753203362
 21
115.7922060041
 31
0.0
  0
ARC
  5
7E
330
1F
100
AcDbEntity
  8
0
  6
Continuous
 62
     7
370
    30
100
AcDbCircle
 10
126.9753203362
 20
116.7922060041
 30
0.0
 40
1.000000000000014
100
AcDbArc
 50
180.0
 51
270.0
  0
ARC
  5
7F
330
1F
100
AcDbEntity
  8
0
  6
Continuous
 62
     7
370
    30
100
AcDbCircle
 10
154.2753203362
 20
116.7922060041
 30
0.0
 40
1.000000000000014
100
AcDbArc
 50
270.0
 51
0.0
  0
LINE
  5
80
330
1F
100
AcDbEntity
  8
0
  6
Continuous
 62
     7
370
    30
100
AcDbLine
 10
155.2753203362
 20
116.7922060041
 30
0.0
 11
155.2753203362
 21
184.7922060041
 31
0.0
  0
ARC
  5
81
330
1F
100
AcDbEntity
  8
0
  6
Continuous
 62
     7
370
    30
100
AcDbCircle
 10
154.2753203362
 20
184.7922060041
 30
0.0
 40
1.0
100
AcDbArc
 50
0.0
 51
90.0
  0
ARC
  5
82
330
1F
100
AcDbEntity
  8
0
  6
Continuous
 62
     7
370
    30
100
AcDbCircle
 10
126.9753203362
 20
184.7922060041
 30
0.0
 40
1.0
100
AcDbArc
 50
90.0
 51
180.0
  0
LINE
  5
83
330
1F
100
AcDbEntity
  8
0
  6
Continuous
 62
     7
370
    30
100
AcDbLine
 10
125.9753203362
 20
184.7922060041
 30
0.0
 11
125.9753203362
 21
116.7922060041
 31
0.0
  0
LINE
  5
84
330
1F
100
AcDbEntity
  8
0
  6
Continuous
 62
     7
370
    30
100
AcDbLine
 10
154.2753203362
 20
185.7922060041
 30
0.0
 11
126.9753203362
 21
185.7922060041
 31
0.0
  0
ARC
  5
85
330
1F
100
AcDbEntity
  8
0
  6
Continuous
 62
     7
370
    30
100
AcDbCircle
 10
-98.8955129971
 20
150.7922060041
 30
0.0
 40
278.5208333333342
100
AcDbArc
 50
349.0786248252
 51
10.9213751748
  0
ARC
  5
86
330
1F
100
AcDbEntity
  8
0
  6
Continuous
 62
     7
370
    30
100
AcDbCircle
 10
380.1461536695
 20
150.7922060041
 30
0.0
 40
278.5208333333342
100
AcDbArc
 50
169.0786248252
 51
190.9213751748
  0
ARC
  5
87
330
1F
100
AcDbEntity
  8
0
  6
Continuous
 62
     7
370
    30
100
AcDbCircle
 10
140.6253203362
 20
182.7922060041
 30
0.0
 40
35.00000000000003
100
AcDbArc
 50
63.6679378295
 51
116.3320621705
  0
ARC
  5
88
330
1F
100
AcDbEntity
  8
0
  6
Continuous
 62
     7
370
    30
100
AcDbCircle
 10
140.6253203362
 20
118.7922060041
 30
0.0
 40
35.00000000000001
100
AcDbArc
 50
243.6679378295
 51
264.672002096
  0
ARC
  5
89
330
1F
100
AcDbEntity
  8
0
  6
Continuous
 62
     7
370
    30
100
AcDbCircle
 10
140.6253203362
 20
118.7922060041
 30
0.0
 40
35.00000000000003
100
AcDbArc
 50
275.327997904
 51
296.3320621705
  0
SPLINE
  5
8A
330
1F
100
AcDbEntity
  8
0
  6
Continuous
 62
     7
370
    30
100
AcDbSpline
210
0.0
220
0.0
230
1.0
 70
    24
 71
     3
 72
    10
 73
     6
 74
     0
 42
0.000000001
 43
0.00000001
 40
0.0
 40
0.0
 40
0.0
 40
0.0
 40
0.5
 40
0.5
 40
1.0
 40
1.0
 40
1.0
 40
1.0
 10
143.8753203362145
 20
83.9434255376085
 30
0.0
 10
143.8753203362145
 20
83.94783206213476
 30
0.0
 10
143.8753203362145
 20
83.98442938035402
 30
0.0
 10
143.8753203362145
 20
84.11940095780545
 30
0.0
 10
143.8753203362145
 20
84.21888978479676
 30
0.0
 10
143.8753203362145
 20
84.34861894098302
 30
0.0
  0
SPLINE
  5
8B
330
1F
100
AcDbEntity
  8
0
  6
Continuous
 62
     7
370
    30
100
AcDbSpline
210
0.0
220
0.0
230
1.0
 70
     8
 71
     3
 72
    10
 73
     6
 74
     0
 42
0.000000001
 43
0.00000001
 40
0.0
 40
0.0
 40
0.0
 40
0.0
 40
0.5
 40
0.5
 40
1.0
 40
1.0
 40
1.0
 40
1.0
 10
143.8753203362145
 20
84.34861894098302
 30
0.0
 10
142.794254687344
 20
84.24659657118767
 30
0.0
 10
141.7113528662562
 20
84.1956450557499
 30
0.0
 10
139.5418883929669
 20
84.19556350483677
 30
0.0
 10
138.4563859866602
 20
84.24659657103896
 30
0.0
 10
137.3753203362145
 20
84.34861894098299
 30
0.0
  0
SPLINE
  5
8C
330
1F
100
AcDbEntity
  8
0
  6
Continuous
 62
     7
370
    30
100
AcDbSpline
210
0.0
220
0.0
230
1.0
 70
    24
 71
     3
 72
    10
 73
     6
 74
     0
 42
0.000000001
 43
0.00000001
 40
0.0
 40
0.0
 40
0.0
 40
0.0
 40
0.5
 40
0.5
 40
1.0
 40
1.0
 40
1.0
 40
1.0
 10
137.3753203362145
 20
84.348618940983
 30
0.0
 10
137.3753203362145
 20
84.21889118938873
 30
0.0
 10
137.3753203362145
 20
84.12073572017634
 30
0.0
 10
137.3753203362145
 20
83.98514003070385
 30
0.0
 10
137.3753203362145
 20
83.94783203653122
 30
0.0
 10
137.3753203362145
 20
83.94342553760852
 30
0.0
  0
SPLINE
  5
8D
330
1F
100
AcDbEntity
  8
0
  6
Continuous
 62
     7
370
    30
100
AcDbSpline
210
0.0
220
0.0
230
1.0
 70
     8
 71
     3
 72
    16
 73
    12
 74
     0
 42
0.000000001
 43
0.00000001
 40
0.0
 40
0.0
 40
0.0
 40
0.0
 40
0.2500000000000023
 40
0.2500000000000023
 40
0.5000000000000046
 40
0.5000000000000046
 40
0.6250000000000043
 40
0.6250000000000043
 40
0.7500000000000041
 40
0.7500000000000041
 40
1.0
 40
1.0
 40
1.0
 40
1.0
 10
107.1007918092614
 20
205.0257664025243
 30
0.0
 10
107.2809135897653
 20
205.4744789642794
 30
0.0
 10
107.5017788214956
 20
205.9060322983968
 30
0.0
 10
108.0113415114448
 20
206.7147251212625
 30
0.0
 10
108.3009729783286
 20
207.094695126611
 30
0.0
 10
108.7888831314152
 20
207.6272548822756
 30
0.0
 10
108.9607790140727
 20
207.7985994868365
 30
0.0
 10
109.3157811520329
 20
208.1219104336904
 30
0.0
 10
109.4996711156005
 20
208.2747968486556
 30
0.0
 10
110.0701785962923
 20
208.7076005270835
 30
0.0
 10
110.4754776775344
 20
208.9618763866928
 30
0.0
 10
110.9067083278195
 20
209.1805595386965
 30
0.0
  0
SPLINE
  5
8E
330
1F
100
AcDbEntity
  8
0
  6
Continuous
 62
     7
370
    30
100
AcDbSpline
210
0.0
220
0.0
230
1.0
 70
     8
 71
     3
 72
    16
 73
    12
 74
     0
 42
0.000000001
 43
0.00000001
 40
0.0
 40
0.0
 40
0.0
 40
0.0
 40
0.2499999999999989
 40
0.2499999999999989
 40
0.3749999999999993
 40
0.3749999999999993
 40
0.4999999999999998
 40
0.4999999999999998
 40
0.7500000000000007
 40
0.7500000000000007
 40
1.0
 40
1.0
 40
1.0
 40
1.0
 10
174.1498488631681
 20
96.55864560562749
 30
0.0
 10
173.9697276781549
 20
96.10993452733625
 30
0.0
 10
173.7518819710781
 20
95.68394399955646
 30
0.0
 10
173.3706464805274
 20
95.0777620224899
 30
0.0
 10
173.234433410581
 20
94.88120284702926
 30
0.0
 10
172.9434191563891
 20
94.49927952912502
 30
0.0
 10
172.787769580083
 20
94.31305352459232
 30
0.0
 10
172.2999292224019
 20
93.78041920392505
 30
0.0
 10
171.9467517651068
 20
93.45865766539374
 30
0.0
 10
171.1857404234471
 20
92.88030673495197
 30
0.0
 10
170.7751680755286
 20
92.62253819791005
 30
0.0
 10
170.3439323444908
 20
92.40385246939393
 30
0.0
  0
SPLINE
  5
8F
330
1F
100
AcDbEntity
  8
0
  6
Continuous
 62
     7
370
    30
100
AcDbSpline
210
0.0
220
0.0
230
1.0
 70
     8
 71
     3
 72
    16
 73
    12
 74
     0
 42
0.000000001
 43
0.00000001
 40
0.0
 40
0.0
 40
0.0
 40
0.0
 40
0.2499999999999985
 40
0.2499999999999985
 40
0.4999999999999956
 40
0.4999999999999956
 40
0.6249999999999953
 40
0.6249999999999953
 40
0.7499999999999953
 40
0.7499999999999953
 40
1.0
 40
1.0
 40
1.0
 40
1.0
 10
110.9067083279376
 20
92.40385246939428
 30
0.0
 10
110.4754735709488
 20
92.62253770395643
 30
0.0
 10
110.0648986703719
 20
92.88030770027994
 30
0.0
 10
109.3038855120344
 20
93.45866048011409
 30
0.0
 10
108.950708909244
 20
93.78042189897545
 30
0.0
 10
108.462871464262
 20
94.31305315804181
 30
0.0
 10
108.3072216714111
 20
94.49927931412688
 30
0.0
 10
108.0162068349634
 20
94.88120341835821
 30
0.0
 10
107.8799936164585
 20
95.07776287187777
 30
0.0
 10
107.4987579830193
 20
95.68394527292347
 30
0.0
 10
107.2809125866836
 20
96.10993554271003
 30
0.0
 10
107.1007918092602
 20
96.55864560562941
 30
0.0
  0
SPLINE
  5
90
330
1F
100
AcDbEntity
  8
0
  6
Continuous
 62
     7
370
    30
100
AcDbSpline
210
0.0
220
0.0
230
1.0
 70
     8
 71
     3
 72
    16
 73
    12
 74
     0
 42
0.000000001
 43
0.00000001
 40
0.0
 40
0.0
 40
0.0
 40
0.0
 40
0.2499999999999991
 40
0.2499999999999991
 40
0.4999999999999982
 40
0.4999999999999982
 40
0.6249999999999979
 40
0.6249999999999979
 40
0.7499999999999976
 40
0.7499999999999976
 40
1.0
 40
1.0
 40
1.0
 40
1.0
 10
170.3439323444903
 20
209.180559538757
 30
0.0
 10
170.7751671014792
 20
208.9618743041949
 30
0.0
 10
171.1857420020563
 20
208.7041043078713
 30
0.0
 10
171.9467551603941
 20
208.1257515280371
 30
0.0
 10
172.2999317631846
 20
207.8039901091757
 30
0.0
 10
172.7877692081668
 20
207.2713588501092
 30
0.0
 10
172.9434190010178
 20
207.085132694024
 30
0.0
 10
173.2344338374655
 20
206.7032085897926
 30
0.0
 10
173.3706470559704
 20
206.506649136273
 30
0.0
 10
173.7518826894098
 20
205.9004667352271
 30
0.0
 10
173.9697280857455
 20
205.4744764654404
 30
0.0
 10
174.149848863169
 20
205.0257664025208
 30
0.0
  0
ARC
  5
91
330
1F
100
AcDbEntity
  8
0
  6
Continuous
 62
     7
370
    30
100
AcDbCircle
 10
102.9216334699
 20
258.9724658926
 30
0.0
 40
50.00000000000001
100
AcDbArc
 50
284.5842190939
 51
296.0859288833
  0
ARC
  5
92
330
1F
100
AcDbEntity
  8
0
  6
Continuous
 62
     7
370
    30
100
AcDbCircle
 10
178.3290072025
 20
42.6119461155
 30
0.0
 40
50.00000000000001
100
AcDbArc
 50
104.5842190939
 51
116.0859288833
  0
ARC
  5
93
330
1F
100
AcDbEntity
  8
0
  6
Continuous
 62
     7
370
    30
100
AcDbCircle
 10
178.3290072025
 20
258.9724658926
 30
0.0
 40
50.00000000000001
100
AcDbArc
 50
243.9140711167
 51
255.4157809061
  0
ARC
  5
94
330
1F
100
AcDbEntity
  8
0
  6
Continuous
 62
     7
370
    30
100
AcDbCircle
 10
102.9216334699
 20
42.6119461155
 30
0.0
 40
50.00000000000001
100
AcDbArc
 50
63.9140711167
 51
75.4157809061
  0
ARC
  5
95
330
1F
100
AcDbEntity
  8
0
  6
Continuous
 62
     7
370
    30
100
AcDbCircle
 10
114.5249668716
 20
202.0455609325
 30
0.0
 40
8.00000000000002
100
AcDbArc
 50
109.5445933695
 51
116.8902096589
  0
ARC
  5
96
330
1F
100
AcDbEntity
  8
0
  6
Continuous
 62
     7
370
    30
100
AcDbCircle
 10
114.5249668716
 20
99.5388510756
 30
0.0
 40
8.00000000000001
100
AcDbArc
 50
243.1097903421
 51
250.4554066304
  0
ARC
  5
97
330
1F
100
AcDbEntity
  8
0
  6
Continuous
 62
     7
370
    30
100
AcDbCircle
 10
166.7256738008
 20
99.5388510756
 30
0.0
 40
8.000000000000009
100
AcDbArc
 50
289.5445933695
 51
296.8902096579
  0
ARC
  5
98
330
1F
100
AcDbEntity
  8
0
  6
Continuous
 62
     7
370
    30
100
AcDbCircle
 10
166.7256738008
 20
202.0455609325
 30
0.0
 40
8.0
100
AcDbArc
 50
63.1097903421
 51
70.4554066304
  0
ARC
  5
99
330
1F
100
AcDbEntity
  8
0
  6
Continuous
 62
     7
370
    30
100
AcDbCircle
 10
114.5249668716
 20
99.5388510756
 30
0.0
 40
8.000000000000004
100
AcDbArc
 50
194.620992555
 51
201.8714673107
  0
ARC
  5
9A
330
1F
100
AcDbEntity
  8
0
  6
Continuous
 62
     7
370
    30
100
AcDbCircle
 10
166.7256738008
 20
202.0455609325
 30
0.0
 40
7.999999999999997
100
AcDbArc
 50
14.6209925551
 51
21.8714673107
  0
ARC
  5
9B
330
1F
100
AcDbEntity
  8
0
  6
Continuous
 62
     7
370
    30
100
AcDbCircle
 10
114.5249668716
 20
202.0455609325
 30
0.0
 40
8.000000000000014
100
AcDbArc
 50
158.1285326893
 51
165.3790074449
  0
ARC
  5
9C
330
1F
100
AcDbEntity
  8
0
  6
Continuous
 62
     7
370
    30
100
AcDbCircle
 10
166.7256738008
 20
99.5388510756
 30
0.0
 40
7.999999999999991
100
AcDbArc
 50
338.1285326893
 51
345.3790074449
  0
ARC
  5
9D
330
1F
100
AcDbEntity
  8
0
  6
Continuous
 62
     7
370
    30
100
AcDbCircle
 10
140.6253203362
 20
109.3279202898
 30
0.0
 40
104.3212818505352
100
AcDbArc
 50
74.2778957631
 51
75.8583825531
  0
ARC
  5
9E
330
1F
100
AcDbEntity
  8
0
  6
Continuous
 62
     7
370
    30
100
AcDbCircle
 10
140.6253203362
 20
192.2564917184
 30
0.0
 40
104.3212818505352
100
AcDbArc
 50
284.1416174469
 51
285.7221042369
  0
ARC
  5
9F
330
1F
100
AcDbEntity
  8
0
  6
Continuous
 62
     7
370
    30
100
AcDbCircle
 10
140.6253203362
 20
192.2564917184
 30
0.0
 40
104.3212818505352
100
AcDbArc
 50
254.2778957631
 51
255.8583825531
  0
ARC
  5
A0
330
1F
100
AcDbEntity
  8
0
  6
Continuous
 62
     7
370
    30
100
AcDbCircle
 10
140.6253203362
 20
109.3279202898
 30
0.0
 40
104.3212818505352
100
AcDbArc
 50
104.1416174469
 51
105.7221042369
  0
ARC
  5
A1
330
1F
100
AcDbEntity
  8
0
  6
Continuous
 62
     7
370
    30
100
AcDbCircle
 10
166.7256738008
 20
202.0455609325
 30
0.0
 40
8.0
100
AcDbArc
 50
70.4554066304
 51
74.2778957631
  0
ARC
  5
A2
330
1F
100
AcDbEntity
  8
0
  6
Continuous
 62
     7
370
    30
100
AcDbCircle
 10
114.5249668716
 20
99.5388510756
 30
0.0
 40
8.00000000000001
100
AcDbArc
 50
250.4554066304
 51
254.2778957631
  0
ARC
  5
A3
330
1F
100
AcDbEntity
  8
0
  6
Continuous
 62
     7
370
    30
100
AcDbCircle
 10
114.5249668716
 20
202.0455609325
 30
0.0
 40
8.00000000000002
100
AcDbArc
 50
105.7221042369
 51
109.5445933695
  0
ARC
  5
A4
330
1F
100
AcDbEntity
  8
0
  6
Continuous
 62
     7
370
    30
100
AcDbCircle
 10
166.7256738008
 20
99.5388510756
 30
0.0
 40
7.999999999999993
100
AcDbArc
 50
285.7221042369
 51
289.5445933695
  0
ARC
  5
A5
330
1F
100
AcDbEntity
  8
0
  6
Continuous
 62
     7
370
    30
100
AcDbCircle
 10
166.7256738008
 20
202.0455609325
 30
0.0
 40
8.00000000000002
100
AcDbArc
 50
10.9213751748
 51
14.6209925551
  0
ARC
  5
A6
330
1F
100
AcDbEntity
  8
0
  6
Continuous
 62
     7
370
    30
100
AcDbCircle
 10
166.7256738008
 20
99.5388510756
 30
0.0
 40
7.999999999999991
100
AcDbArc
 50
345.3790074449
 51
349.0786248252
  0
ARC
  5
A7
330
1F
100
AcDbEntity
  8
0
  6
Continuous
 62
     7
370
    30
100
AcDbCircle
 10
114.5249668716
 20
99.5388510756
 30
0.0
 40
8.000000000000036
100
AcDbArc
 50
190.9213751748
 51
194.620992555
  0
ARC
  5
A8
330
1F
100
AcDbEntity
  8
0
  6
Continuous
 62
     7
370
    30
100
AcDbCircle
 10
114.5249668716
 20
202.0455609325
 30
0.0
 40
8.000000000000009
100
AcDbArc
 50
165.3790074449
 51
169.0786248252
  0
ARC
  5
A9
330
1F
100
AcDbEntity
  8
0
  6
Continuous
 62
     7
370
    30
100
AcDbCircle
 10
178.3290072025
 20
42.6119461155
 30
0.0
 40
50.00000000000002
100
AcDbArc
 50
104.1416174469
 51
104.5842190939
  0
ARC
  5
AA
330
1F
100
AcDbEntity
  8
0
  6
Continuous
 62
     7
370
    30
100
AcDbCircle
 10
102.9216334699
 20
258.9724658926
 30
0.0
 40
50.00000000000004
100
AcDbArc
 50
284.1416174469
 51
284.5842190939
  0
ARC
  5
AB
330
1F
100
AcDbEntity
  8
0
  6
Continuous
 62
     7
370
    30
100
AcDbCircle
 10
178.3290072025
 20
258.9724658926
 30
0.0
 40
50.00000000000001
100
AcDbArc
 50
255.4157809061
 51
255.8583825531
  0
ARC
  5
AC
330
1F
100
AcDbEntity
  8
0
  6
Continuous
 62
     7
370
    30
100
AcDbCircle
 10
102.9216334699
 20
42.6119461155
 30
0.0
 40
49.99999999999999
100
AcDbArc
 50
75.4157809061
 51
75.8583825531
  0
ARC
  5
AD
330
1F
100
AcDbEntity
  8
0
  6
Continuous
 62
     7
370
    30
100
AcDbCircle
 10
102.9216334699
 20
258.9724658926
 30
0.0
 40
50.00000000000001
100
AcDbArc
 50
296.0859288833
 51
296.3320621705
  0
ARC
  5
AE
330
1F
100
AcDbEntity
  8
0
  6
Continuous
 62
     7
370
    30
100
AcDbCircle
 10
178.3290072025
 20
42.6119461155
 30
0.0
 40
50.0
100
AcDbArc
 50
116.0859288833
 51
116.3320621705
  0
ARC
  5
AF
330
1F
100
AcDbEntity
  8
0
  6
Continuous
 62
     7
370
    30
100
AcDbCircle
 10
102.9216334699
 20
42.6119461155
 30
0.0
 40
50.00000000000001
100
AcDbArc
 50
63.6679378295
 51
63.9140711167
  0
ARC
  5
B0
330
1F
100
AcDbEntity
  8
0
  6
Continuous
 62
     7
370
    30
100
AcDbCircle
 10
178.3290072025
 20
258.9724658926
 30
0.0
 40
50.00000000000002
100
AcDbArc
 50
243.6679378295
 51
243.9140711167
  0
LINE
  5
B1
330
1F
100
AcDbEntity
  8
0
  6
Continuous
 62
     7
370
    30
100
AcDbLine
 10
235.7416810291
 20
84.8080309411
 30
0.0
 11
236.8364900897
 21
84.2606264107
 31
0.0
  0
LINE
  5
B2
330
1F
100
AcDbEntity
  8
0
  6
Continuous
 62
     7
370
    30
100
AcDbLine
 10
236.8364900897
 20
217.3237855974
 30
0.0
 11
235.7416810291
 21
216.7763810671
 31
0.0
  0
SPLINE
  5
B3
330
1F
100
AcDbEntity
  8
0
  6
Continuous
 62
     7
370
    30
100
AcDbSpline
210
0.0
220
0.0
230
1.0
 70
     8
 71
     3
 72
    11
 73
     7
 74
     0
 42
0.000000001
 43
0.00000001
 40
0.0
 40
0.0
 40
0.0
 40
0.0
 40
0.0224135827720905
 40
0.4183211639394641
 40
0.7908759527912008
 40
1.0
 40
1.0
 40
1.0
 40
1.0
 10
238.7775371525507
 20
217.7856184276989
 30
0.0
 10
238.7623975331429
 20
217.7866058987859
 30
0.0
 10
238.4798356921075
 20
217.8050357972403
 30
0.0
 10
237.9458412038349
 20
217.7100833591022
 30
0.0
 10
237.3024554061829
 20
217.5448012938483
 30
0.0
 10
236.95205508717
 20
217.363362207809
 30
0.0
 10
236.8260798439387
 20
217.2981315794243
 30
0.0
  0
LINE
  5
B4
330
1F
100
AcDbEntity
  8
0
  6
Continuous
 62
     7
370
    30
100
AcDbLine
 10
236.8248009904
 20
84.2834209254
 30
0.0
 11
236.9585786607
 21
84.2082799323
 31
0.0
  0
ARC
  5
B5
330
1F
100
AcDbEntity
  8
0
  6
Continuous
 62
     7
370
    30
100
AcDbCircle
 10
239.7733309031
 20
208.7299001049
 30
0.0
 40
9.00000000000001
100
AcDbArc
 50
116.6447873153
 51
180.0000001577
  0
ARC
  5
B6
330
1F
100
AcDbEntity
  8
0
  6
Continuous
 62
     7
370
    30
100
AcDbCircle
 10
239.7733309031
 20
92.8545119033
 30
0.0
 40
9.0
100
AcDbArc
 50
179.9999998423
 51
243.3465836332
  0
LINE
  5
B7
330
1F
100
AcDbEntity
  8
0
  6
Continuous
 62
     7
370
    30
100
AcDbLine
 10
238.7733309031
 20
203.5612550636
 30
0.0
 11
238.7733309031
 21
98.0231569445
 31
0.0
  0
SPLINE
  5
B8
330
1F
100
AcDbEntity
  8
0
  6
Continuous
 62
     7
370
    30
100
AcDbSpline
210
0.0
220
0.0
230
1.0
 70
    24
 71
     3
 72
    18
 73
    14
 74
     0
 42
0.000000001
 43
0.00000001
 40
0.0
 40
0.0
 40
0.0
 40
0.0
 40
0.125
 40
0.125
 40
0.2500000000000001
 40
0.2500000000000001
 40
0.5
 40
0.5
 40
0.625
 40
0.625
 40
0.75
 40
0.75
 40
1.0
 40
1.0
 40
1.0
 40
1.0
 10
230.7733309030518
 20
100.3882561542025
 30
0.0
 10
230.7733309030518
 20
104.5429546245132
 30
0.0
 10
230.7733309030518
 20
108.7131581857217
 30
0.0
 10
230.7733309030518
 20
117.0845390589169
 30
0.0
 10
230.7733309030518
 20
121.2861302759138
 30
0.0
 10
230.7733309030518
 20
133.900183678632
 30
0.0
 10
230.7733309030518
 20
142.3342094697389
 30
0.0
 10
230.7733309030518
 20
155.0223821767774
 30
0.0
 10
230.7733309030518
 20
159.2486944633976
 30
0.0
 10
230.7733309030518
 20
167.6951682192648
 30
0.0
 10
230.7733309030518
 20
171.9149246125645
 30
0.0
 10
230.7733309030518
 20
184.527691903844
 30
0.0
 10
230.7733309030518
 20
192.8867589648084
 30
0.0
 10
230.7733309030518
 20
201.1961558539482
 30
0.0
  0
LINE
  5
B9
330
1F
100
AcDbEntity
  8
0
  6
Continuous
 62
     7
370
    30
100
AcDbLine
 10
238.7733309031
 20
204.0649521286
 30
0.0
 11
238.7733309031
 21
203.5612550636
 31
0.0
  0
LINE
  5
BA
330
1F
100
AcDbEntity
  8
0
  6
Continuous
 62
     7
370
    30
100
AcDbLine
 10
238.7733309031
 20
98.0231569445
 30
0.0
 11
238.7733309031
 21
97.5194598796
 31
0.0
  0
LINE
  5
BB
330
1F
100
AcDbEntity
  8
0
  6
Continuous
 62
     7
370
    30
100
AcDbLine
 10
238.7733309031
 20
97.5194598796
 30
0.0
 11
238.7733309031
 21
96.5586456056
 31
0.0
  0
LINE
  5
BC
330
1F
100
AcDbEntity
  8
0
  6
Continuous
 62
     7
370
    30
100
AcDbLine
 10
238.7733309031
 20
205.0257664025
 30
0.0
 11
238.7733309031
 21
204.0649521286
 31
0.0
  0
LINE
  5
BD
330
1F
100
AcDbEntity
  8
0
  6
Continuous
 62
     7
370
    30
100
AcDbLine
 10
238.7733309031
 20
209.1805595388
 30
0.0
 11
238.7733309031
 21
205.0257664025
 31
0.0
  0
LINE
  5
BE
330
1F
100
AcDbEntity
  8
0
  6
Continuous
 62
     7
370
    30
100
AcDbLine
 10
238.7733309031
 20
96.5586456056
 30
0.0
 11
238.7733309031
 21
92.4038524694
 31
0.0
  0
LINE
  5
BF
330
1F
100
AcDbEntity
  8
0
  6
Continuous
 62
     7
370
    30
100
AcDbLine
 10
238.7733309031
 20
92.4038524694
 30
0.0
 11
238.7733309031
 21
91.9997998487
 31
0.0
  0
LINE
  5
C0
330
1F
100
AcDbEntity
  8
0
  6
Continuous
 62
     7
370
    30
100
AcDbLine
 10
238.7733309031
 20
209.5846121594
 30
0.0
 11
238.7733309031
 21
209.1805595388
 31
0.0
  0
LINE
  5
C1
330
1F
100
AcDbEntity
  8
0
  6
Continuous
 62
     7
370
    30
100
AcDbLine
 10
238.7733309031
 20
209.7462591675
 30
0.0
 11
238.7733309031
 21
209.5846121594
 31
0.0
  0
LINE
  5
C2
330
1F
100
AcDbEntity
  8
0
  6
Continuous
 62
     7
370
    30
100
AcDbLine
 10
238.7733309031
 20
91.9997998487
 30
0.0
 11
238.7733309031
 21
91.8381528406
 31
0.0
  0
SPLINE
  5
C3
330
1F
100
AcDbEntity
  8
0
  6
Continuous
 62
     7
370
    30
100
AcDbSpline
210
0.0
220
0.0
230
1.0
 70
    24
 71
     3
 72
     8
 73
     4
 74
     0
 42
0.000000001
 43
0.00000001
 40
0.0
 40
0.0
 40
0.0
 40
0.0
 40
1.0
 40
1.0
 40
1.0
 40
1.0
 10
230.7733309030518
 20
99.7783405052181
 30
0.0
 10
230.7733309030518
 20
99.97173612632454
 30
0.0
 10
230.7733309030518
 20
100.175041332646
 30
0.0
 10
230.7733309030518
 20
100.3882561542025
 30
0.0
  0
SPLINE
  5
C4
330
1F
100
AcDbEntity
  8
0
  6
Continuous
 62
     7
370
    30
100
AcDbSpline
210
0.0
220
0.0
230
1.0
 70
    24
 71
     3
 72
     8
 73
     4
 74
     0
 42
0.000000001
 43
0.00000001
 40
0.0
 40
0.0
 40
0.0
 40
0.0
 40
1.0
 40
1.0
 40
1.0
 40
1.0
 10
230.7733309030518
 20
201.1961558539482
 30
0.0
 10
230.7733309030518
 20
201.4093706755047
 30
0.0
 10
230.7733309030518
 20
201.6126758818262
 30
0.0
 10
230.7733309030518
 20
201.8060715029327
 30
0.0
  0
LINE
  5
C5
330
1F
100
AcDbEntity
  8
0
  6
Continuous
 62
     7
370
    30
100
AcDbLine
 10
238.7733309031
 20
91.8381528406
 30
0.0
 11
238.7733309031
 21
91.0966864599
 31
0.0
  0
LINE
  5
C6
330
1F
100
AcDbEntity
  8
0
  6
Continuous
 62
     7
370
    30
100
AcDbLine
 10
238.7733309031
 20
210.4877255482
 30
0.0
 11
238.7733309031
 21
209.7462591675
 31
0.0
  0
LINE
  5
C7
330
1F
100
AcDbEntity
  8
0
  6
Continuous
 62
     7
370
    30
100
AcDbLine
 10
238.7733309031
 20
210.5835378462
 30
0.0
 11
238.7733309031
 21
210.4877255482
 31
0.0
  0
LINE
  5
C8
330
1F
100
AcDbEntity
  8
0
  6
Continuous
 62
     7
370
    30
100
AcDbLine
 10
238.7733309031
 20
91.0966864599
 30
0.0
 11
238.7733309031
 21
91.000874162
 31
0.0
  0
LINE
  5
C9
330
1F
100
AcDbEntity
  8
0
  6
Continuous
 62
     7
370
    30
100
AcDbLine
 10
238.7733309031
 20
91.000874162
 30
0.0
 11
238.7733309031
 21
87.5187257234
 31
0.0
  0
LINE
  5
CA
330
1F
100
AcDbEntity
  8
0
  6
Continuous
 62
     7
370
    30
100
AcDbLine
 10
238.7733309031
 20
214.0656862847
 30
0.0
 11
238.7733309031
 21
210.5835378462
 31
0.0
  0
SPLINE
  5
CB
330
1F
100
AcDbEntity
  8
0
  6
Continuous
 62
     7
370
    30
100
AcDbSpline
210
0.0
220
0.0
230
1.0
 70
    24
 71
     3
 72
     8
 73
     4
 74
     0
 42
0.000000001
 43
0.00000001
 40
0.0
 40
0.0
 40
0.0
 40
0.0
 40
1.0
 40
1.0
 40
1.0
 40
1.0
 10
230.7733309030518
 20
201.8060715029327
 30
0.0
 10
230.7733309030518
 20
202.7631195465118
 30
0.0
 10
230.7733309030518
 20
204.1411859232689
 30
0.0
 10
230.7733309030518
 20
205.9401558324527
 30
0.0
  0
SPLINE
  5
CC
330
1F
100
AcDbEntity
  8
0
  6
Continuous
 62
     7
370
    30
100
AcDbSpline
210
0.0
220
0.0
230
1.0
 70
    24
 71
     3
 72
     8
 73
     4
 74
     0
 42
0.000000001
 43
0.00000001
 40
0.0
 40
0.0
 40
0.0
 40
0.0
 40
1.0
 40
1.0
 40
1.0
 40
1.0
 10
230.7733309030518
 20
95.64425617569819
 30
0.0
 10
230.7733309030518
 20
97.44322608488193
 30
0.0
 10
230.7733309030518
 20
98.821292461639
 30
0.0
 10
230.7733309030518
 20
99.77834050521807
 30
0.0
  0
LINE
  5
CD
330
1F
100
AcDbEntity
  8
0
  6
Continuous
 62
     7
370
    30
100
AcDbLine
 10
236.8240612308
 20
84.279965077
 30
0.0
 11
236.8240609284
 21
84.2821018721
 31
0.0
  0
LINE
  5
CE
330
1F
100
AcDbEntity
  8
0
  6
Continuous
 62
     7
370
    30
100
AcDbLine
 10
238.7733309031
 20
214.1605483111
 30
0.0
 11
238.7733309031
 21
214.0656862847
 31
0.0
  0
LINE
  5
CF
330
1F
100
AcDbEntity
  8
0
  6
Continuous
 62
     7
370
    30
100
AcDbLine
 10
238.7733309031
 20
87.5187257234
 30
0.0
 11
238.7733309031
 21
87.423863697
 31
0.0
  0
LINE
  5
D0
330
1F
100
AcDbEntity
  8
0
  6
Continuous
 62
     7
370
    30
100
AcDbLine
 10
238.7733309031
 20
217.7921747105
 30
0.0
 11
238.7733309031
 21
214.1605483111
 31
0.0
  0
SPLINE
  5
D1
330
1F
100
AcDbEntity
  8
0
  6
Continuous
 62
     7
370
    30
100
AcDbSpline
210
0.0
220
0.0
230
1.0
 70
     8
 71
     3
 72
    10
 73
     6
 74
     0
 42
0.000000001
 43
0.00000001
 40
0.0
 40
0.0
 40
0.0
 40
0.0
 40
0.5
 40
0.5
 40
1.0
 40
1.0
 40
1.0
 40
1.0
 10
238.7733309030518
 20
83.9434255376085
 30
0.0
 10
238.4611919593534
 20
83.94783206213476
 30
0.0
 10
238.1550064784717
 20
83.98442938035402
 30
0.0
 10
237.554060731158
 20
84.11940095780545
 30
0.0
 10
237.2572637656406
 20
84.21888978479676
 30
0.0
 10
236.9733309030518
 20
84.34861894098302
 30
0.0
  0
LINE
  5
D2
330
1F
100
AcDbEntity
  8
0
  6
Continuous
 62
     7
370
    30
100
AcDbLine
 10
236.9733309031
 20
84.348618941
 30
0.0
 11
236.9733309031
 21
84.2345852954
 31
0.0
  0
LINE
  5
D3
330
1F
100
AcDbEntity
  8
0
  6
Continuous
 62
     7
370
    30
100
AcDbLine
 10
238.7733309031
 20
87.423863697
 30
0.0
 11
238.7733309031
 21
83.9434255376
 31
0.0
  0
SPLINE
  5
D4
330
1F
100
AcDbEntity
  8
0
  6
Continuous
 62
     7
370
    30
100
AcDbSpline
210
0.0
220
0.0
230
1.0
 70
    24
 71
     3
 72
    13
 73
     9
 74
     0
 42
0.000000001
 43
0.00000001
 40
0.0
 40
0.0
 40
0.0
 40
0.0
 40
0.1775921521622317
 40
0.3551842895569778
 40
0.5379360725922273
 40
0.7206878456238991
 40
0.8982756891534585
 40
1.0
 40
1.0
 40
1.0
 40
1.0
 10
230.7733309030518
 20
205.9401558324527
 30
0.0
 10
230.7733309030518
 20
206.2489289839876
 30
0.0
 10
230.7733309030518
 20
206.8664752613815
 30
0.0
 10
230.7733309030518
 20
207.5908149941292
 30
0.0
 10
230.7733309030518
 20
208.1581811499943
 30
0.0
 10
230.7733309030518
 20
208.5310121527455
 30
0.0
 10
230.7733309030518
 20
208.71852475641
 30
0.0
 10
230.7733309030518
 20
208.7107446562696
 30
0.0
 10
230.7733309030518
 20
208.7079111765491
 30
0.0
  0
SPLINE
  5
D5
330
1F
100
AcDbEntity
  8
0
  6
Continuous
 62
     7
370
    30
100
AcDbSpline
210
0.0
220
0.0
230
1.0
 70
    24
 71
     3
 72
    12
 73
     8
 74
     0
 42
0.000000001
 43
0.00000001
 40
0.0
 40
0.0
 40
0.0
 40
0.0
 40
0.0758800129841576
 40
0.2586674802575718
 40
0.4414549532584138
 40
0.718333192757773
 40
1.0
 40
1.0
 40
1.0
 40
1.0
 10
230.7733309030518
 20
92.87650083160162
 30
0.0
 10
230.7733309030518
 20
92.87133087146303
 30
0.0
 10
230.7733309030518
 20
92.853706987261
 30
0.0
 10
230.7733309030518
 20
93.0193218299084
 30
0.0
 10
230.7733309030518
 20
93.43708106434995
 30
0.0
 10
230.7733309030518
 20
94.22617394936307
 30
0.0
 10
230.7733309030518
 20
95.16886810398161
 30
0.0
 10
230.7733309030518
 20
95.64425617569816
 30
0.0
  0
LINE
  5
D6
330
1F
100
AcDbEntity
  8
0
  6
Continuous
 62
     7
370
    30
100
AcDbLine
 10
179.1539500755
 20
45.1870677068
 30
0.0
 11
178.6078682117
 21
46.2792314345
 31
0.0
  0
LINE
  5
D7
330
1F
100
AcDbEntity
  8
0
  6
Continuous
 62
     7
370
    30
100
AcDbLine
 10
102.6427724607
 20
46.2792314345
 30
0.0
 11
102.0966905969
 21
45.1870677068
 31
0.0
  0
ARC
  5
D8
330
1F
100
AcDbEntity
  8
0
  6
Continuous
 62
     7
370
    30
100
AcDbCircle
 10
170.5630144341
 20
42.2443271854
 30
0.0
 40
8.999999999999996
100
AcDbArc
 50
26.5731461002
 51
89.9998151711
  0
ARC
  5
D9
330
1F
100
AcDbEntity
  8
0
  6
Continuous
 62
     7
370
    30
100
AcDbCircle
 10
110.6876262383
 20
42.2443271854
 30
0.0
 40
8.999999999999998
100
AcDbArc
 50
90.0001848289
 51
153.429808336
  0
ARC
  5
DA
330
1F
100
AcDbEntity
  8
0
  6
Continuous
 62
     7
370
    30
100
AcDbCircle
 10
106.1248766419
 20
43.1811338204
 30
0.0
 40
4.500000000000004
100
AcDbArc
 50
153.2914945615
 51
179.2061518249
  0
ARC
  5
DB
330
1F
100
AcDbEntity
  8
0
  6
Continuous
 62
     7
370
    30
100
AcDbCircle
 10
175.1257640305
 20
43.1811338204
 30
0.0
 40
4.500000000000016
100
AcDbArc
 50
0.8110888388
 51
26.7366987191
  0
LINE
  5
DC
330
1F
100
AcDbEntity
  8
0
  6
Continuous
 62
     7
370
    30
100
AcDbLine
 10
137.3753203362
 20
43.2443271854
 30
0.0
 11
125.100272803
 21
43.2443271854
 31
0.0
  0
LINE
  5
DD
330
1F
100
AcDbEntity
  8
0
  6
Continuous
 62
     7
370
    30
100
AcDbLine
 10
156.1503678694
 20
43.2443271854
 30
0.0
 11
143.8753203362
 21
43.2443271854
 31
0.0
  0
SPLINE
  5
DE
330
1F
100
AcDbEntity
  8
0
  6
Continuous
 62
     7
370
    30
100
AcDbSpline
210
0.0
220
0.0
230
1.0
 70
    24
 71
     3
 72
    10
 73
     6
 74
     0
 42
0.000000001
 43
0.00000001
 40
0.0
 40
0.0
 40
0.0
 40
0.0
 40
0.5
 40
0.5
 40
1.0
 40
1.0
 40
1.0
 40
1.0
 10
143.8753203362145
 20
43.24432718542067
 30
0.0
 10
143.8753203362145
 20
43.55646612911905
 30
0.0
 10
143.8753203362145
 20
43.86265161000076
 30
0.0
 10
143.8753203362145
 20
44.4635973573145
 30
0.0
 10
143.8753203362145
 20
44.76039432283184
 30
0.0
 10
143.8753203362145
 20
45.04432718542068
 30
0.0
  0
SPLINE
  5
DF
330
1F
100
AcDbEntity
  8
0
  6
Continuous
 62
     7
370
    30
100
AcDbSpline
210
0.0
220
0.0
230
1.0
 70
    24
 71
     3
 72
    10
 73
     6
 74
     0
 42
0.000000001
 43
0.00000001
 40
0.0
 40
0.0
 40
0.0
 40
0.0
 40
0.5
 40
0.5
 40
1.0
 40
1.0
 40
1.0
 40
1.0
 10
143.8753203362145
 20
45.04432718542068
 30
0.0
 10
142.794254687344
 20
45.04432718542068
 30
0.0
 10
141.7113528662562
 20
45.04432718542068
 30
0.0
 10
139.5418883929669
 20
45.04432718542068
 30
0.0
 10
138.4563859866602
 20
45.04432718542068
 30
0.0
 10
137.3753203362145
 20
45.04432718542068
 30
0.0
  0
SPLINE
  5
E0
330
1F
100
AcDbEntity
  8
0
  6
Continuous
 62
     7
370
    30
100
AcDbSpline
210
0.0
220
0.0
230
1.0
 70
    24
 71
     3
 72
    10
 73
     6
 74
     0
 42
0.000000001
 43
0.00000001
 40
0.0
 40
0.0
 40
0.0
 40
0.0
 40
0.5
 40
0.5
 40
1.0
 40
1.0
 40
1.0
 40
1.0
 10
137.3753203362145
 20
45.04432718542068
 30
0.0
 10
137.3753203362145
 20
44.7603973970044
 30
0.0
 10
137.3753203362145
 20
44.4680696167055
 30
0.0
 10
137.3753203362145
 20
43.86726425224855
 30
0.0
 10
137.3753203362145
 20
43.55646431547474
 30
0.0
 10
137.3753203362145
 20
43.24432718542067
 30
0.0
  0
SPLINE
  5
E1
330
1F
100
AcDbEntity
  8
0
  6
Continuous
 62
     7
370
    30
100
AcDbSpline
210
0.0
220
0.0
230
1.0
 70
    24
 71
     3
 72
    22
 73
    18
 74
     0
 42
0.000000001
 43
0.00000001
 40
0.0
 40
0.0
 40
0.0
 40
0.0
 40
0.2499999999999999
 40
0.2499999999999999
 40
0.3125
 40
0.3125
 40
0.3750000000000002
 40
0.3750000000000002
 40
0.5000000000000002
 40
0.5000000000000002
 40
0.6250000000000002
 40
0.6250000000000002
 40
0.6875000000000002
 40
0.6875000000000002
 40
0.7500000000000002
 40
0.7500000000000002
 40
1.0
 40
1.0
 40
1.0
 40
1.0
 10
128.9257191029762
 20
51.24432718542067
 30
0.0
 10
130.7464573806042
 20
51.24432718542067
 30
0.0
 10
132.6382630488957
 20
51.24432718542068
 30
0.0
 10
135.0886720841852
 20
51.24432718542068
 30
0.0
 10
135.5830923433609
 20
51.24432718542069
 30
0.0
 10
136.5807547060606
 20
51.24432718542069
 30
0.0
 10
137.0855278357953
 20
51.24432718542069
 30
0.0
 10
138.6018652778178
 20
51.24432718542069
 30
0.0
 10
139.6104644899308
 20
51.24432718542067
 30
0.0
 10
141.623231743293
 20
51.24432718542066
 30
0.0
 10
142.6273993708376
 20
51.24432718542066
 30
0.0
 10
144.1303035407336
 20
51.24432718542066
 30
0.0
 10
144.6307123272175
 20
51.24432718542068
 30
0.0
 10
145.630389977531
 20
51.24432718542067
 30
0.0
 10
146.1309231159318
 20
51.24432718542067
 30
0.0
 10
148.6041503782251
 20
51.24432718542067
 30
0.0
 10
150.5041825713292
 20
51.24432718542067
 30
0.0
 10
152.3249215694532
 20
51.24432718542067
 30
0.0
  0
LINE
  5
E2
330
1F
100
AcDbEntity
  8
0
  6
Continuous
 62
     7
370
    30
100
AcDbLine
 10
156.3430765821
 20
43.2443271854
 30
0.0
 11
156.1503678694
 21
43.2443271854
 31
0.0
  0
LINE
  5
E3
330
1F
100
AcDbEntity
  8
0
  6
Continuous
 62
     7
370
    30
100
AcDbLine
 10
125.100272803
 20
43.2443271854
 30
0.0
 11
124.9075640904
 21
43.2443271854
 31
0.0
  0
LINE
  5
E4
330
1F
100
AcDbEntity
  8
0
  6
Continuous
 62
     7
370
    30
100
AcDbLine
 10
124.9075640904
 20
43.2443271854
 30
0.0
 11
115.5117741569
 21
43.2443271854
 31
0.0
  0
LINE
  5
E5
330
1F
100
AcDbEntity
  8
0
  6
Continuous
 62
     7
370
    30
100
AcDbLine
 10
165.7388665156
 20
43.2443271854
 30
0.0
 11
156.3430765821
 21
43.2443271854
 31
0.0
  0
SPLINE
  5
E6
330
1F
100
AcDbEntity
  8
0
  6
Continuous
 62
     7
370
    30
100
AcDbSpline
210
0.0
220
0.0
230
1.0
 70
    24
 71
     3
 72
     8
 73
     4
 74
     0
 42
0.000000001
 43
0.00000001
 40
0.0
 40
0.0
 40
0.0
 40
0.0
 40
1.0
 40
1.0
 40
1.0
 40
1.0
 10
117.7835892887154
 20
51.24432718542067
 30
0.0
 10
121.6538295461681
 20
51.24432718542067
 30
0.0
 10
125.3678586193457
 20
51.24432718542067
 30
0.0
 10
128.9257191029762
 20
51.24432718542067
 30
0.0
  0
SPLINE
  5
E7
330
1F
100
AcDbEntity
  8
0
  6
Continuous
 62
     7
370
    30
100
AcDbSpline
210
0.0
220
0.0
230
1.0
 70
    24
 71
     3
 72
     8
 73
     4
 74
     0
 42
0.000000001
 43
0.00000001
 40
0.0
 40
0.0
 40
0.0
 40
0.0
 40
1.0
 40
1.0
 40
1.0
 40
1.0
 10
152.3249215694532
 20
51.24432718542067
 30
0.0
 10
155.8827820530836
 20
51.24432718542067
 30
0.0
 10
159.5968111262613
 20
51.24432718542067
 30
0.0
 10
163.4670513837139
 20
51.24432718542067
 30
0.0
  0
LINE
  5
E8
330
1F
100
AcDbEntity
  8
0
  6
Continuous
 62
     7
370
    30
100
AcDbLine
 10
115.5117741569
 20
43.2443271854
 30
0.0
 11
115.1376047262
 21
43.2443271854
 31
0.0
  0
LINE
  5
E9
330
1F
100
AcDbEntity
  8
0
  6
Continuous
 62
     7
370
    30
100
AcDbLine
 10
166.1130359463
 20
43.2443271854
 30
0.0
 11
165.7388665156
 21
43.2443271854
 31
0.0
  0
LINE
  5
EA
330
1F
100
AcDbEntity
  8
0
  6
Continuous
 62
     7
370
    30
100
AcDbLine
 10
168.8934483954
 20
43.2443271854
 30
0.0
 11
166.1130359463
 21
43.2443271854
 31
0.0
  0
LINE
  5
EB
330
1F
100
AcDbEntity
  8
0
  6
Continuous
 62
     7
370
    30
100
AcDbLine
 10
115.1376047262
 20
43.2443271854
 30
0.0
 11
112.357192277
 21
43.2443271854
 31
0.0
  0
LINE
  5
EC
330
1F
100
AcDbEntity
  8
0
  6
Continuous
 62
     7
370
    30
100
AcDbLine
 10
112.357192277
 20
43.2443271854
 30
0.0
 11
111.8486435357
 21
43.2443271854
 31
0.0
  0
LINE
  5
ED
330
1F
100
AcDbEntity
  8
0
  6
Continuous
 62
     7
370
    30
100
AcDbLine
 10
169.4019971367
 20
43.2443271854
 30
0.0
 11
168.8934483954
 21
43.2443271854
 31
0.0
  0
SPLINE
  5
EE
330
1F
100
AcDbEntity
  8
0
  6
Continuous
 62
     7
370
    30
100
AcDbSpline
210
0.0
220
0.0
230
1.0
 70
    24
 71
     3
 72
     8
 73
     4
 74
     0
 42
0.000000001
 43
0.00000001
 40
0.0
 40
0.0
 40
0.0
 40
0.0
 40
1.0
 40
1.0
 40
1.0
 40
1.0
 10
163.4670513837139
 20
51.24432718542067
 30
0.0
 10
164.2491307405893
 20
51.24432718542067
 30
0.0
 10
165.0286255126223
 20
51.24432718542067
 30
0.0
 10
165.805535691983
 20
51.24432718542067
 30
0.0
  0
SPLINE
  5
EF
330
1F
100
AcDbEntity
  8
0
  6
Continuous
 62
     7
370
    30
100
AcDbSpline
210
0.0
220
0.0
230
1.0
 70
    24
 71
     3
 72
     8
 73
     4
 74
     0
 42
0.000000001
 43
0.00000001
 40
0.0
 40
0.0
 40
0.0
 40
0.0
 40
1.0
 40
1.0
 40
1.0
 40
1.0
 10
115.445104980446
 20
51.24432718542067
 30
0.0
 10
116.2220151598068
 20
51.24432718542067
 30
0.0
 10
117.0015099318399
 20
51.24432718542067
 30
0.0
 10
117.7835892887154
 20
51.24432718542067
 30
0.0
  0
LINE
  5
F0
330
1F
100
AcDbEntity
  8
0
  6
Continuous
 62
     7
370
    30
100
AcDbLine
 10
170.3439323445
 20
43.2443271854
 30
0.0
 11
169.4019971367
 21
43.2443271854
 31
0.0
  0
LINE
  5
F1
330
1F
100
AcDbEntity
  8
0
  6
Continuous
 62
     7
370
    30
100
AcDbLine
 10
111.8486435357
 20
43.2443271854
 30
0.0
 11
110.9067083279
 21
43.2443271854
 31
0.0
  0
LINE
  5
F2
330
1F
100
AcDbEntity
  8
0
  6
Continuous
 62
     7
370
    30
100
AcDbLine
 10
174.1498488632
 20
43.2443271854
 30
0.0
 11
170.3439323445
 21
43.2443271854
 31
0.0
  0
LINE
  5
F3
330
1F
100
AcDbEntity
  8
0
  6
Continuous
 62
     7
370
    30
100
AcDbLine
 10
110.9067083279
 20
43.2443271854
 30
0.0
 11
107.1007918093
 21
43.2443271854
 31
0.0
  0
LINE
  5
F4
330
1F
100
AcDbEntity
  8
0
  6
Continuous
 62
     7
370
    30
100
AcDbLine
 10
174.4666078011
 20
43.2443271854
 30
0.0
 11
174.1498488632
 21
43.2443271854
 31
0.0
  0
LINE
  5
F5
330
1F
100
AcDbEntity
  8
0
  6
Continuous
 62
     7
370
    30
100
AcDbLine
 10
107.1007918093
 20
43.2443271854
 30
0.0
 11
106.7840328713
 21
43.2443271854
 31
0.0
  0
LINE
  5
F6
330
1F
100
AcDbEntity
  8
0
  6
Continuous
 62
     7
370
    30
100
AcDbLine
 10
174.5807785933
 20
43.2443271854
 30
0.0
 11
174.4666078011
 21
43.2443271854
 31
0.0
  0
LINE
  5
F7
330
1F
100
AcDbEntity
  8
0
  6
Continuous
 62
     7
370
    30
100
AcDbLine
 10
106.7840328713
 20
43.2443271854
 30
0.0
 11
106.6698620791
 21
43.2443271854
 31
0.0
  0
SPLINE
  5
F8
330
1F
100
AcDbEntity
  8
0
  6
Continuous
 62
     7
370
    30
100
AcDbSpline
210
0.0
220
0.0
230
1.0
 70
    24
 71
     3
 72
    12
 73
     8
 74
     0
 42
0.000000001
 43
0.00000001
 40
0.0
 40
0.0
 40
0.0
 40
0.0
 40
0.2500000000000001
 40
0.2500000000000001
 40
0.5000000000000002
 40
0.5000000000000002
 40
1.0
 40
1.0
 40
1.0
 40
1.0
 10
165.805535691983
 20
51.24432718542067
 30
0.0
 10
166.5968710686082
 20
51.24432718542067
 30
0.0
 10
167.2898262999307
 20
51.24432718542068
 30
0.0
 10
168.4792076340485
 20
51.24432718542068
 30
0.0
 10
168.9754887605342
 20
51.24432718542067
 30
0.0
 10
170.1654953488653
 20
51.24432718542067
 30
0.0
 10
170.5630146920487
 20
51.24432718542067
 30
0.0
 10
170.5630144374654
 20
51.24432718542067
 30
0.0
  0
SPLINE
  5
F9
330
1F
100
AcDbEntity
  8
0
  6
Continuous
 62
     7
370
    30
100
AcDbSpline
210
0.0
220
0.0
230
1.0
 70
    24
 71
     3
 72
    12
 73
     8
 74
     0
 42
0.000000001
 43
0.00000001
 40
0.0
 40
0.0
 40
0.0
 40
0.0
 40
0.2500000000000001
 40
0.2500000000000001
 40
0.5000000000000001
 40
0.5000000000000001
 40
1.0
 40
1.0
 40
1.0
 40
1.0
 10
110.6876262349636
 20
51.24432718542067
 30
0.0
 10
110.6876263622591
 20
51.24432718542067
 30
0.0
 10
110.7871776404136
 20
51.24432718542068
 30
0.0
 10
111.1851750165503
 20
51.24432718542068
 30
0.0
 10
111.4837917829786
 20
51.24432718542069
 30
0.0
 10
112.6748910198313
 20
51.24432718542069
 30
0.0
 10
113.8623857662214
 20
51.24432718542067
 30
0.0
 10
115.445104980446
 20
51.24432718542067
 30
0.0
  0
LINE
  5
FA
330
1F
100
AcDbEntity
  8
0
  6
Continuous
 62
     7
370
    30
100
AcDbLine
 10
106.6698620791
 20
43.2443271854
 30
0.0
 11
101.6253203599
 21
43.2443271854
 31
0.0
  0
LINE
  5
FB
330
1F
100
AcDbEntity
  8
0
  6
Continuous
 62
     7
370
    30
100
AcDbLine
 10
179.6253202842
 20
43.2443271854
 30
0.0
 11
174.5807785933
 21
43.2443271854
 31
0.0
  0
SPLINE
  5
FC
330
1F
100
AcDbEntity
  8
0
  6
Continuous
 62
     7
370
    30
100
AcDbSpline
210
0.0
220
0.0
230
1.0
 70
    24
 71
     3
 72
    10
 73
     6
 74
     0
 42
0.000000001
 43
0.00000001
 40
0.0
 40
0.0
 40
0.0
 40
0.0
 40
0.3341215075025315
 40
0.950642597063293
 40
1.0
 40
1.0
 40
1.0
 40
1.0
 10
137.5356060441827
 20
43.24432718542067
 30
0.0
 10
138.221468030026
 20
43.24432718542067
 30
0.0
 10
140.1728827244069
 20
43.24432718542067
 30
0.0
 10
142.2536781332614
 20
43.24432718542067
 30
0.0
 10
143.6141885132546
 20
43.24432718542067
 30
0.0
 10
143.7150346282463
 20
43.24432718542067
 30
0.0
  0
LINE
  5
FD
330
1F
100
AcDbEntity
  8
0
  6
Continuous
 62
     7
370
    30
100
AcDbLine
 10
51.0905282111
 20
216.7763810671
 30
0.0
 11
49.9957191505
 21
217.3237855974
 31
0.0
  0
LINE
  5
FE
330
1F
100
AcDbEntity
  8
0
  6
Continuous
 62
     7
370
    30
100
AcDbLine
 10
49.9957191505
 20
84.2606264107
 30
0.0
 11
51.0905282111
 21
84.8080309411
 31
0.0
  0
LINE
  5
FF
330
1F
100
AcDbEntity
  8
0
  6
Continuous
 62
     7
370
    30
100
AcDbLine
 10
49.8665531148
 20
84.2187228435
 30
0.0
 11
50.0059539483
 21
84.2861955085
 31
0.0
  0
SPLINE
  5
100
330
1F
100
AcDbEntity
  8
0
  6
Continuous
 62
     7
370
    30
100
AcDbSpline
210
0.0
220
0.0
230
1.0
 70
     8
 71
     3
 72
    11
 73
     7
 74
     0
 42
0.000000001
 43
0.00000001
 40
0.0
 40
0.0
 40
0.0
 40
0.0
 40
0.0811583623747833
 40
0.4541018534230172
 40
0.8303346112697576
 40
1.0
 40
1.0
 40
1.0
 40
1.0
 10
50.00721716365238
 20
217.3010984131432
 30
0.0
 10
49.95976324011049
 20
217.3286158190364
 30
0.0
 10
49.69424636665447
 20
217.4825827628222
 30
0.0
 10
49.1530481572511
 20
217.6471518357397
 30
0.0
 10
48.54300302235853
 20
217.7832151400967
 30
0.0
 10
48.17365628614213
 20
217.7736615220685
 30
0.0
 10
48.05886315491548
 20
217.7706922533016
 30
0.0
  0
ARC
  5
101
330
1F
100
AcDbEntity
  8
0
  6
Continuous
 62
     7
370
    30
100
AcDbCircle
 10
47.0588783372
 20
208.7299001049
 30
0.0
 40
9.000000000000021
100
AcDbArc
 50
359.9999998423
 51
63.3474480566
  0
ARC
  5
102
330
1F
100
AcDbEntity
  8
0
  6
Continuous
 62
     7
370
    30
100
AcDbCircle
 10
47.0588783372
 20
92.8545119033
 30
0.0
 40
9.000000000000005
100
AcDbArc
 50
296.6440434084
 51
0.0000001577
  0
LINE
  5
103
330
1F
100
AcDbEntity
  8
0
  6
Continuous
 62
     7
370
    30
100
AcDbLine
 10
48.0588783372
 20
98.0231569445
 30
0.0
 11
48.0588783372
 21
203.5612550636
 31
0.0
  0
SPLINE
  5
104
330
1F
100
AcDbEntity
  8
0
  6
Continuous
 62
     7
370
    30
100
AcDbSpline
210
0.0
220
0.0
230
1.0
 70
    24
 71
     3
 72
    18
 73
    14
 74
     0
 42
0.000000001
 43
0.00000001
 40
0.0
 40
0.0
 40
0.0
 40
0.0
 40
0.125
 40
0.125
 40
0.25
 40
0.25
 40
0.5
 40
0.5
 40
0.625
 40
0.625
 40
0.75
 40
0.75
 40
1.0
 40
1.0
 40
1.0
 40
1.0
 10
56.05887833716599
 20
201.1961558539482
 30
0.0
 10
56.05887833716599
 20
197.0414573836374
 30
0.0
 10
56.05887833716599
 20
192.871253822429
 30
0.0
 10
56.05887833716599
 20
184.4998729492338
 30
0.0
 10
56.05887833716599
 20
180.2982817322369
 30
0.0
 10
56.058878337166
 20
167.6842283295186
 30
0.0
 10
56.05887833716599
 20
159.2502025384118
 30
0.0
 10
56.05887833716599
 20
146.5620298313733
 30
0.0
 10
56.05887833716599
 20
142.3357175447531
 30
0.0
 10
56.05887833716599
 20
133.8892437888859
 30
0.0
 10
56.05887833716598
 20
129.6694873955862
 30
0.0
 10
56.05887833716598
 20
117.0567201043067
 30
0.0
 10
56.05887833716599
 20
108.6976530433423
 30
0.0
 10
56.05887833716599
 20
100.3882561542025
 30
0.0
  0
LINE
  5
105
330
1F
100
AcDbEntity
  8
0
  6
Continuous
 62
     7
370
    30
100
AcDbLine
 10
48.0588783372
 20
203.5612550636
 30
0.0
 11
48.0588783372
 21
204.0649521286
 31
0.0
  0
LINE
  5
106
330
1F
100
AcDbEntity
  8
0
  6
Continuous
 62
     7
370
    30
100
AcDbLine
 10
48.0588783372
 20
97.5194598796
 30
0.0
 11
48.0588783372
 21
98.0231569445
 31
0.0
  0
LINE
  5
107
330
1F
100
AcDbEntity
  8
0
  6
Continuous
 62
     7
370
    30
100
AcDbLine
 10
48.0588783372
 20
96.5586456056
 30
0.0
 11
48.0588783372
 21
97.5194598796
 31
0.0
  0
LINE
  5
108
330
1F
100
AcDbEntity
  8
0
  6
Continuous
 62
     7
370
    30
100
AcDbLine
 10
48.0588783372
 20
204.0649521286
 30
0.0
 11
48.0588783372
 21
205.0257664025
 31
0.0
  0
LINE
  5
109
330
1F
100
AcDbEntity
  8
0
  6
Continuous
 62
     7
370
    30
100
AcDbLine
 10
48.0588783372
 20
92.4038524694
 30
0.0
 11
48.0588783372
 21
96.5586456056
 31
0.0
  0
LINE
  5
10A
330
1F
100
AcDbEntity
  8
0
  6
Continuous
 62
     7
370
    30
100
AcDbLine
 10
48.0588783372
 20
205.0257664025
 30
0.0
 11
48.0588783372
 21
209.1805595387
 31
0.0
  0
LINE
  5
10B
330
1F
100
AcDbEntity
  8
0
  6
Continuous
 62
     7
370
    30
100
AcDbLine
 10
48.0588783372
 20
209.1805595387
 30
0.0
 11
48.0588783372
 21
209.5846121594
 31
0.0
  0
LINE
  5
10C
330
1F
100
AcDbEntity
  8
0
  6
Continuous
 62
     7
370
    30
100
AcDbLine
 10
48.0588783372
 20
91.9997998487
 30
0.0
 11
48.0588783372
 21
92.4038524694
 31
0.0
  0
LINE
  5
10D
330
1F
100
AcDbEntity
  8
0
  6
Continuous
 62
     7
370
    30
100
AcDbLine
 10
48.0588783372
 20
91.8381528406
 30
0.0
 11
48.0588783372
 21
91.9997998487
 31
0.0
  0
LINE
  5
10E
330
1F
100
AcDbEntity
  8
0
  6
Continuous
 62
     7
370
    30
100
AcDbLine
 10
48.0588783372
 20
209.5846121594
 30
0.0
 11
48.0588783372
 21
209.7462591675
 31
0.0
  0
SPLINE
  5
10F
330
1F
100
AcDbEntity
  8
0
  6
Continuous
 62
     7
370
    30
100
AcDbSpline
210
0.0
220
0.0
230
1.0
 70
    24
 71
     3
 72
     8
 73
     4
 74
     0
 42
0.000000001
 43
0.00000001
 40
0.0
 40
0.0
 40
0.0
 40
0.0
 40
1.0
 40
1.0
 40
1.0
 40
1.0
 10
56.05887833716599
 20
201.8060715029325
 30
0.0
 10
56.05887833716599
 20
201.6126758818261
 30
0.0
 10
56.05887833716599
 20
201.4093706755047
 30
0.0
 10
56.05887833716599
 20
201.1961558539482
 30
0.0
  0
SPLINE
  5
110
330
1F
100
AcDbEntity
  8
0
  6
Continuous
 62
     7
370
    30
100
AcDbSpline
210
0.0
220
0.0
230
1.0
 70
    24
 71
     3
 72
     8
 73
     4
 74
     0
 42
0.000000001
 43
0.00000001
 40
0.0
 40
0.0
 40
0.0
 40
0.0
 40
1.0
 40
1.0
 40
1.0
 40
1.0
 10
56.05887833716599
 20
100.3882561542025
 30
0.0
 10
56.05887833716599
 20
100.175041332646
 30
0.0
 10
56.05887833716599
 20
99.97173612632452
 30
0.0
 10
56.05887833716599
 20
99.77834050521804
 30
0.0
  0
LINE
  5
111
330
1F
100
AcDbEntity
  8
0
  6
Continuous
 62
     7
370
    30
100
AcDbLine
 10
48.0588783372
 20
209.7462591675
 30
0.0
 11
48.0588783372
 21
210.4877255482
 31
0.0
  0
LINE
  5
112
330
1F
100
AcDbEntity
  8
0
  6
Continuous
 62
     7
370
    30
100
AcDbLine
 10
48.0588783372
 20
91.0966864599
 30
0.0
 11
48.0588783372
 21
91.8381528406
 31
0.0
  0
LINE
  5
113
330
1F
100
AcDbEntity
  8
0
  6
Continuous
 62
     7
370
    30
100
AcDbLine
 10
48.0588783372
 20
91.000874162
 30
0.0
 11
48.0588783372
 21
91.0966864599
 31
0.0
  0
LINE
  5
114
330
1F
100
AcDbEntity
  8
0
  6
Continuous
 62
     7
370
    30
100
AcDbLine
 10
48.0588783372
 20
210.4877255482
 30
0.0
 11
48.0588783372
 21
210.5835378462
 31
0.0
  0
LINE
  5
115
330
1F
100
AcDbEntity
  8
0
  6
Continuous
 62
     7
370
    30
100
AcDbLine
 10
48.0588783372
 20
210.5835378462
 30
0.0
 11
48.0588783372
 21
214.0656862847
 31
0.0
  0
LINE
  5
116
330
1F
100
AcDbEntity
  8
0
  6
Continuous
 62
     7
370
    30
100
AcDbLine
 10
48.0588783372
 20
87.5187257234
 30
0.0
 11
48.0588783372
 21
91.000874162
 31
0.0
  0
SPLINE
  5
117
330
1F
100
AcDbEntity
  8
0
  6
Continuous
 62
     7
370
    30
100
AcDbSpline
210
0.0
220
0.0
230
1.0
 70
    24
 71
     3
 72
     8
 73
     4
 74
     0
 42
0.000000001
 43
0.00000001
 40
0.0
 40
0.0
 40
0.0
 40
0.0
 40
1.0
 40
1.0
 40
1.0
 40
1.0
 10
56.05887833716599
 20
99.77834050521804
 30
0.0
 10
56.05887833716599
 20
98.82129246163895
 30
0.0
 10
56.05887833716599
 20
97.44322608488176
 30
0.0
 10
56.05887833716599
 20
95.64425617569796
 30
0.0
  0
SPLINE
  5
118
330
1F
100
AcDbEntity
  8
0
  6
Continuous
 62
     7
370
    30
100
AcDbSpline
210
0.0
220
0.0
230
1.0
 70
    24
 71
     3
 72
     8
 73
     4
 74
     0
 42
0.000000001
 43
0.00000001
 40
0.0
 40
0.0
 40
0.0
 40
0.0
 40
1.0
 40
1.0
 40
1.0
 40
1.0
 10
56.05887833716599
 20
205.9401558324527
 30
0.0
 10
56.05887833716599
 20
204.1411859232689
 30
0.0
 10
56.05887833716599
 20
202.7631195465117
 30
0.0
 10
56.05887833716599
 20
201.8060715029326
 30
0.0
  0
LINE
  5
119
330
1F
100
AcDbEntity
  8
0
  6
Continuous
 62
     7
370
    30
100
AcDbLine
 10
50.0081479436
 20
217.3049122506
 30
0.0
 11
50.0081482484
 21
217.3027579522
 31
0.0
  0
LINE
  5
11A
330
1F
100
AcDbEntity
  8
0
  6
Continuous
 62
     7
370
    30
100
AcDbLine
 10
48.0588783372
 20
87.423863697
 30
0.0
 11
48.0588783372
 21
87.5187257234
 31
0.0
  0
LINE
  5
11B
330
1F
100
AcDbEntity
  8
0
  6
Continuous
 62
     7
370
    30
100
AcDbLine
 10
48.0588783372
 20
214.0656862847
 30
0.0
 11
48.0588783372
 21
214.1605483111
 31
0.0
  0
SPLINE
  5
11C
330
1F
100
AcDbEntity
  8
0
  6
Continuous
 62
     7
370
    30
100
AcDbSpline
210
0.0
220
0.0
230
1.0
 70
    24
 71
     3
 72
     9
 73
     5
 74
     0
 42
0.000000001
 43
0.00000001
 40
0.0
 40
0.0
 40
0.0
 40
0.0
 40
0.2543400220349478
 40
0.9999999999999999
 40
0.9999999999999999
 40
0.9999999999999999
 40
0.9999999999999999
 10
49.858878337166
 20
84.23460543210108
 30
0.0
 10
49.858878337166
 20
84.22107035318287
 30
0.0
 10
49.858878337166
 20
84.16785388017199
 30
0.0
 10
49.858878337166
 20
84.27140500873811
 30
0.0
 10
49.858878337166
 20
84.34861894098299
 30
0.0
  0
SPLINE
  5
11D
330
1F
100
AcDbEntity
  8
0
  6
Continuous
 62
     7
370
    30
100
AcDbSpline
210
0.0
220
0.0
230
1.0
 70
     8
 71
     3
 72
    10
 73
     6
 74
     0
 42
0.000000001
 43
0.00000001
 40
0.0
 40
0.0
 40
0.0
 40
0.0
 40
0.5
 40
0.5
 40
1.0
 40
1.0
 40
1.0
 40
1.0
 10
49.858878337166
 20
84.348618940983
 30
0.0
 10
49.57494854874972
 20
84.21889118938873
 30
0.0
 10
49.28262076845083
 20
84.12073572017634
 30
0.0
 10
48.68181540399387
 20
83.98514003070385
 30
0.0
 10
48.37101546722006
 20
83.94783203653122
 30
0.0
 10
48.05887833716599
 20
83.94342553760852
 30
0.0
  0
LINE
  5
11E
330
1F
100
AcDbEntity
  8
0
  6
Continuous
 62
     7
370
    30
100
AcDbLine
 10
48.0588783372
 20
83.9434255376
 30
0.0
 11
48.0588783372
 21
87.423863697
 31
0.0
  0
LINE
  5
11F
330
1F
100
AcDbEntity
  8
0
  6
Continuous
 62
     7
370
    30
100
AcDbLine
 10
48.0588783372
 20
214.1605483111
 30
0.0
 11
48.0588783372
 21
217.7921748985
 31
0.0
  0
SPLINE
  5
120
330
1F
100
AcDbEntity
  8
0
  6
Continuous
 62
     7
370
    30
100
AcDbSpline
210
0.0
220
0.0
230
1.0
 70
    24
 71
     3
 72
    12
 73
     8
 74
     0
 42
0.000000001
 43
0.00000001
 40
0.0
 40
0.0
 40
0.0
 40
0.0
 40
0.0758800129841599
 40
0.2586674802575806
 40
0.441454953258429
 40
0.7183331927577812
 40
1.0
 40
1.0
 40
1.0
 40
1.0
 10
56.05887833716599
 20
208.7079111765491
 30
0.0
 10
56.05887833716599
 20
208.7130811366877
 30
0.0
 10
56.05887833716599
 20
208.7307050208897
 30
0.0
 10
56.05887833716599
 20
208.5650901782423
 30
0.0
 10
56.05887833716599
 20
208.1473309438008
 30
0.0
 10
56.05887833716599
 20
207.3582380587876
 30
0.0
 10
56.05887833716599
 20
206.4155439041692
 30
0.0
 10
56.05887833716599
 20
205.9401558324527
 30
0.0
  0
SPLINE
  5
121
330
1F
100
AcDbEntity
  8
0
  6
Continuous
 62
     7
370
    30
100
AcDbSpline
210
0.0
220
0.0
230
1.0
 70
    24
 71
     3
 72
    13
 73
     9
 74
     0
 42
0.000000001
 43
0.00000001
 40
0.0
 40
0.0
 40
0.0
 40
0.0
 40
0.1775921521622315
 40
0.3551842895569777
 40
0.5379360725922271
 40
0.7206878456238988
 40
0.8982756891534583
 40
1.0
 40
1.0
 40
1.0
 40
1.0
 10
56.05887833716599
 20
95.64425617569798
 30
0.0
 10
56.05887833716599
 20
95.33548302416315
 30
0.0
 10
56.05887833716599
 20
94.71793674676923
 30
0.0
 10
56.05887833716599
 20
93.99359701402152
 30
0.0
 10
56.05887833716599
 20
93.4262308581564
 30
0.0
 10
56.05887833716599
 20
93.05339985540517
 30
0.0
 10
56.05887833716599
 20
92.86588725174069
 30
0.0
 10
56.05887833716599
 20
92.87366735188115
 30
0.0
 10
56.05887833716599
 20
92.87650083160162
 30
0.0
  0
LINE
  5
122
330
1F
100
AcDbEntity
  8
0
  6
Continuous
 62
     7
370
    30
100
AcDbLine
 10
178.6078682117
 20
254.9404546783
 30
0.0
 11
179.1539500755
 21
256.032618406
 31
0.0
  0
LINE
  5
123
330
1F
100
AcDbEntity
  8
0
  6
Continuous
 62
     7
370
    30
100
AcDbLine
 10
102.0966905969
 20
256.032618406
 30
0.0
 11
102.6427724607
 21
254.9404546783
 31
0.0
  0
ARC
  5
124
330
1F
100
AcDbEntity
  8
0
  6
Continuous
 62
     7
370
    30
100
AcDbCircle
 10
110.6876262383
 20
258.9753589274
 30
0.0
 40
8.99999999999999
100
AcDbArc
 50
206.5731460343
 51
269.9998151711
  0
ARC
  5
125
330
1F
100
AcDbEntity
  8
0
  6
Continuous
 62
     7
370
    30
100
AcDbCircle
 10
170.5630144341
 20
258.9753589274
 30
0.0
 40
8.99999999999999
100
AcDbArc
 50
270.0001848289
 51
333.4298084421
  0
ARC
  5
126
330
1F
100
AcDbEntity
  8
0
  6
Continuous
 62
     7
370
    30
100
AcDbCircle
 10
175.1257640305
 20
258.0385522924
 30
0.0
 40
4.500000000000004
100
AcDbArc
 50
333.2953298707
 51
359.2057970369
  0
ARC
  5
127
330
1F
100
AcDbEntity
  8
0
  6
Continuous
 62
     7
370
    30
100
AcDbCircle
 10
106.1248766419
 20
258.0385522924
 30
0.0
 40
4.499999999999995
100
AcDbArc
 50
180.8114419817
 51
206.7408352054
  0
LINE
  5
128
330
1F
100
AcDbEntity
  8
0
  6
Continuous
 62
     7
370
    30
100
AcDbLine
 10
125.100272803
 20
257.9753589274
 30
0.0
 11
156.1503678694
 21
257.9753589274
 31
0.0
  0
SPLINE
  5
129
330
1F
100
AcDbEntity
  8
0
  6
Continuous
 62
     7
370
    30
100
AcDbSpline
210
0.0
220
0.0
230
1.0
 70
    24
 71
     3
 72
    22
 73
    18
 74
     0
 42
0.000000001
 43
0.00000001
 40
0.0
 40
0.0
 40
0.0
 40
0.0
 40
0.2499999999999996
 40
0.2499999999999996
 40
0.3124999999999996
 40
0.3124999999999996
 40
0.3749999999999996
 40
0.3749999999999996
 40
0.4999999999999997
 40
0.4999999999999997
 40
0.6249999999999998
 40
0.6249999999999998
 40
0.6874999999999998
 40
0.6874999999999998
 40
0.7499999999999998
 40
0.7499999999999998
 40
1.0
 40
1.0
 40
1.0
 40
1.0
 10
152.3249215694528
 20
249.9753589273769
 30
0.0
 10
150.5041832918248
 20
249.9753589273769
 30
0.0
 10
148.6123776235333
 20
249.9753589273769
 30
0.0
 10
146.1619685882438
 20
249.9753589273769
 30
0.0
 10
145.6675483290682
 20
249.9753589273769
 30
0.0
 10
144.6698859663685
 20
249.9753589273769
 30
0.0
 10
144.1651128366338
 20
249.9753589273769
 30
0.0
 10
142.6487753946113
 20
249.9753589273769
 30
0.0
 10
141.6401761824983
 20
249.9753589273769
 30
0.0
 10
139.6274089291361
 20
249.9753589273769
 30
0.0
 10
138.6232413015916
 20
249.9753589273768
 30
0.0
 10
137.1203371316956
 20
249.9753589273768
 30
0.0
 10
136.6199283452118
 20
249.9753589273769
 30
0.0
 10
135.6202506948983
 20
249.9753589273769
 30
0.0
 10
135.1197175564974
 20
249.9753589273769
 30
0.0
 10
132.6464902942042
 20
249.9753589273769
 30
0.0
 10
130.7464581011
 20
249.9753589273769
 30
0.0
 10
128.9257191029762
 20
249.9753589273769
 30
0.0
  0
LINE
  5
12A
330
1F
100
AcDbEntity
  8
0
  6
Continuous
 62
     7
370
    30
100
AcDbLine
 10
124.9075640904
 20
257.9753589274
 30
0.0
 11
125.100272803
 21
257.9753589274
 31
0.0
  0
LINE
  5
12B
330
1F
100
AcDbEntity
  8
0
  6
Continuous
 62
     7
370
    30
100
AcDbLine
 10
156.1503678694
 20
257.9753589274
 30
0.0
 11
156.3430765821
 21
257.9753589274
 31
0.0
  0
LINE
  5
12C
330
1F
100
AcDbEntity
  8
0
  6
Continuous
 62
     7
370
    30
100
AcDbLine
 10
156.3430765821
 20
257.9753589274
 30
0.0
 11
165.7388665156
 21
257.9753589274
 31
0.0
  0
LINE
  5
12D
330
1F
100
AcDbEntity
  8
0
  6
Continuous
 62
     7
370
    30
100
AcDbLine
 10
115.5117741569
 20
257.9753589274
 30
0.0
 11
124.9075640904
 21
257.9753589274
 31
0.0
  0
SPLINE
  5
12E
330
1F
100
AcDbEntity
  8
0
  6
Continuous
 62
     7
370
    30
100
AcDbSpline
210
0.0
220
0.0
230
1.0
 70
    24
 71
     3
 72
     8
 73
     4
 74
     0
 42
0.000000001
 43
0.00000001
 40
0.0
 40
0.0
 40
0.0
 40
0.0
 40
1.0
 40
1.0
 40
1.0
 40
1.0
 10
163.4670513837136
 20
249.9753589273769
 30
0.0
 10
159.5968111262609
 20
249.9753589273769
 30
0.0
 10
155.8827820530833
 20
249.9753589273769
 30
0.0
 10
152.3249215694528
 20
249.9753589273769
 30
0.0
  0
SPLINE
  5
12F
330
1F
100
AcDbEntity
  8
0
  6
Continuous
 62
     7
370
    30
100
AcDbSpline
210
0.0
220
0.0
230
1.0
 70
    24
 71
     3
 72
     8
 73
     4
 74
     0
 42
0.000000001
 43
0.00000001
 40
0.0
 40
0.0
 40
0.0
 40
0.0
 40
1.0
 40
1.0
 40
1.0
 40
1.0
 10
128.9257191029762
 20
249.9753589273769
 30
0.0
 10
125.3678586193456
 20
249.9753589273769
 30
0.0
 10
121.6538295461679
 20
249.9753589273769
 30
0.0
 10
117.7835892887151
 20
249.9753589273769
 30
0.0
  0
LINE
  5
130
330
1F
100
AcDbEntity
  8
0
  6
Continuous
 62
     7
370
    30
100
AcDbLine
 10
165.7388665156
 20
257.9753589274
 30
0.0
 11
166.1130359463
 21
257.9753589274
 31
0.0
  0
LINE
  5
131
330
1F
100
AcDbEntity
  8
0
  6
Continuous
 62
     7
370
    30
100
AcDbLine
 10
115.1376047262
 20
257.9753589274
 30
0.0
 11
115.5117741569
 21
257.9753589274
 31
0.0
  0
LINE
  5
132
330
1F
100
AcDbEntity
  8
0
  6
Continuous
 62
     7
370
    30
100
AcDbLine
 10
112.357192277
 20
257.9753589274
 30
0.0
 11
115.1376047262
 21
257.9753589274
 31
0.0
  0
LINE
  5
133
330
1F
100
AcDbEntity
  8
0
  6
Continuous
 62
     7
370
    30
100
AcDbLine
 10
166.1130359463
 20
257.9753589274
 30
0.0
 11
168.8934483954
 21
257.9753589274
 31
0.0
  0
LINE
  5
134
330
1F
100
AcDbEntity
  8
0
  6
Continuous
 62
     7
370
    30
100
AcDbLine
 10
168.8934483954
 20
257.9753589274
 30
0.0
 11
169.4019971367
 21
257.9753589274
 31
0.0
  0
LINE
  5
135
330
1F
100
AcDbEntity
  8
0
  6
Continuous
 62
     7
370
    30
100
AcDbLine
 10
111.8486435357
 20
257.9753589274
 30
0.0
 11
112.357192277
 21
257.9753589274
 31
0.0
  0
SPLINE
  5
136
330
1F
100
AcDbEntity
  8
0
  6
Continuous
 62
     7
370
    30
100
AcDbSpline
210
0.0
220
0.0
230
1.0
 70
    24
 71
     3
 72
     8
 73
     4
 74
     0
 42
0.000000001
 43
0.00000001
 40
0.0
 40
0.0
 40
0.0
 40
0.0
 40
1.0
 40
1.0
 40
1.0
 40
1.0
 10
165.805535691983
 20
249.9753589273769
 30
0.0
 10
165.0286255126222
 20
249.9753589273769
 30
0.0
 10
164.2491307405892
 20
249.9753589273769
 30
0.0
 10
163.4670513837136
 20
249.9753589273769
 30
0.0
  0
SPLINE
  5
137
330
1F
100
AcDbEntity
  8
0
  6
Continuous
 62
     7
370
    30
100
AcDbSpline
210
0.0
220
0.0
230
1.0
 70
    24
 71
     3
 72
     8
 73
     4
 74
     0
 42
0.000000001
 43
0.00000001
 40
0.0
 40
0.0
 40
0.0
 40
0.0
 40
1.0
 40
1.0
 40
1.0
 40
1.0
 10
117.7835892887151
 20
249.9753589273769
 30
0.0
 10
117.0015099318396
 20
249.9753589273769
 30
0.0
 10
116.2220151598067
 20
249.9753589273769
 30
0.0
 10
115.445104980446
 20
249.9753589273769
 30
0.0
  0
LINE
  5
138
330
1F
100
AcDbEntity
  8
0
  6
Continuous
 62
     7
370
    30
100
AcDbLine
 10
110.9067083278
 20
257.9753589274
 30
0.0
 11
111.8486435357
 21
257.9753589274
 31
0.0
  0
LINE
  5
139
330
1F
100
AcDbEntity
  8
0
  6
Continuous
 62
     7
370
    30
100
AcDbLine
 10
169.4019971367
 20
257.9753589274
 30
0.0
 11
170.3439323445
 21
257.9753589274
 31
0.0
  0
LINE
  5
13A
330
1F
100
AcDbEntity
  8
0
  6
Continuous
 62
     7
370
    30
100
AcDbLine
 10
170.3439323445
 20
257.9753589274
 30
0.0
 11
174.1498488632
 21
257.9753589274
 31
0.0
  0
LINE
  5
13B
330
1F
100
AcDbEntity
  8
0
  6
Continuous
 62
     7
370
    30
100
AcDbLine
 10
107.1007918093
 20
257.9753589274
 30
0.0
 11
110.9067083278
 21
257.9753589274
 31
0.0
  0
LINE
  5
13C
330
1F
100
AcDbEntity
  8
0
  6
Continuous
 62
     7
370
    30
100
AcDbLine
 10
106.7840328713
 20
257.9753589274
 30
0.0
 11
107.1007918093
 21
257.9753589274
 31
0.0
  0
LINE
  5
13D
330
1F
100
AcDbEntity
  8
0
  6
Continuous
 62
     7
370
    30
100
AcDbLine
 10
174.1498488632
 20
257.9753589274
 30
0.0
 11
174.4666078011
 21
257.9753589274
 31
0.0
  0
LINE
  5
13E
330
1F
100
AcDbEntity
  8
0
  6
Continuous
 62
     7
370
    30
100
AcDbLine
 10
106.6698620791
 20
257.9753589274
 30
0.0
 11
106.7840328713
 21
257.9753589274
 31
0.0
  0
LINE
  5
13F
330
1F
100
AcDbEntity
  8
0
  6
Continuous
 62
     7
370
    30
100
AcDbLine
 10
174.4666078011
 20
257.9753589274
 30
0.0
 11
174.5807785933
 21
257.9753589274
 31
0.0
  0
SPLINE
  5
140
330
1F
100
AcDbEntity
  8
0
  6
Continuous
 62
     7
370
    30
100
AcDbSpline
210
0.0
220
0.0
230
1.0
 70
    24
 71
     3
 72
    12
 73
     8
 74
     0
 42
0.000000001
 43
0.00000001
 40
0.0
 40
0.0
 40
0.0
 40
0.0
 40
0.2499999999999999
 40
0.2499999999999999
 40
0.4999999999999998
 40
0.4999999999999998
 40
1.0
 40
1.0
 40
1.0
 40
1.0
 10
115.445104980446
 20
249.9753589273769
 30
0.0
 10
114.6537696038208
 20
249.9753589273769
 30
0.0
 10
113.9608143724983
 20
249.9753589273769
 30
0.0
 10
112.7714330383805
 20
249.9753589273769
 30
0.0
 10
112.2751519118948
 20
249.9753589273769
 30
0.0
 10
111.0851453235637
 20
249.9753589273769
 30
0.0
 10
110.6876259803803
 20
249.9753589273769
 30
0.0
 10
110.6876262349636
 20
249.9753589273769
 30
0.0
  0
SPLINE
  5
141
330
1F
100
AcDbEntity
  8
0
  6
Continuous
 62
     7
370
    30
100
AcDbSpline
210
0.0
220
0.0
230
1.0
 70
    24
 71
     3
 72
    12
 73
     8
 74
     0
 42
0.000000001
 43
0.00000001
 40
0.0
 40
0.0
 40
0.0
 40
0.0
 40
0.2499999999999999
 40
0.2499999999999999
 40
0.4999999999999998
 40
0.4999999999999998
 40
1.0
 40
1.0
 40
1.0
 40
1.0
 10
170.5630144374654
 20
249.9753589273769
 30
0.0
 10
170.5630143101699
 20
249.9753589273769
 30
0.0
 10
170.4634630320154
 20
249.9753589273769
 30
0.0
 10
170.0654656558787
 20
249.9753589273769
 30
0.0
 10
169.7668488894504
 20
249.9753589273769
 30
0.0
 10
168.5757496525978
 20
249.9753589273769
 30
0.0
 10
167.3882549062077
 20
249.9753589273769
 30
0.0
 10
165.805535691983
 20
249.9753589273769
 30
0.0
  0
LINE
  5
142
330
1F
100
AcDbEntity
  8
0
  6
Continuous
 62
     7
370
    30
100
AcDbLine
 10
174.5807785933
 20
257.9753589274
 30
0.0
 11
179.6253202769
 21
257.9753589274
 31
0.0
  0
LINE
  5
143
330
1F
100
AcDbEntity
  8
0
  6
Continuous
 62
     7
370
    30
100
AcDbLine
 10
101.6253203649
 20
257.9753589274
 30
0.0
 11
106.6698620791
 21
257.9753589274
 31
0.0
  0
LINE
  5
144
330
1F
100
AcDbEntity
  8
0
  6
Continuous
 62
     7
370
    30
100
AcDbLine
 10
348.4418563755
 20
195.2922060041
 30
0.0
 11
352.9418563755
 21
195.2922060041
 31
0.0
  0
LINE
  5
145
330
1F
100
AcDbEntity
  8
0
  6
Continuous
 62
     7
370
    30
100
AcDbLine
 10
352.9418563755
 20
106.2922060041
 30
0.0
 11
348.4418563755
 21
106.2922060041
 31
0.0
  0
LINE
  5
146
330
1F
100
AcDbEntity
  8
0
  6
Continuous
 62
     7
370
    30
100
AcDbLine
 10
302.9418563755
 20
195.2922060041
 30
0.0
 11
307.4418563755
 21
195.2922060041
 31
0.0
  0
LINE
  5
147
330
1F
100
AcDbEntity
  8
0
  6
Continuous
 62
     7
370
    30
100
AcDbLine
 10
307.4418563755
 20
106.2922060041
 30
0.0
 11
302.9418563755
 21
106.2922060041
 31
0.0
  0
LINE
  5
148
330
1F
100
AcDbEntity
  8
0
  6
Continuous
 62
     7
370
    30
100
AcDbLine
 10
352.9418563755
 20
198.5422060041
 30
0.0
 11
348.4418563755
 21
198.5422060041
 31
0.0
  0
LINE
  5
149
330
1F
100
AcDbEntity
  8
0
  6
Continuous
 62
     7
370
    30
100
AcDbLine
 10
348.4418563755
 20
103.0422060041
 30
0.0
 11
352.9418563755
 21
103.0422060041
 31
0.0
  0
LINE
  5
14A
330
1F
100
AcDbEntity
  8
0
  6
Continuous
 62
     7
370
    30
100
AcDbLine
 10
302.9418563755
 20
103.0422060041
 30
0.0
 11
307.4418563755
 21
103.0422060041
 31
0.0
  0
LINE
  5
14B
330
1F
100
AcDbEntity
  8
0
  6
Continuous
 62
     7
370
    30
100
AcDbLine
 10
307.4418563755
 20
198.5422060041
 30
0.0
 11
302.9418563755
 21
198.5422060041
 31
0.0
  0
CIRCLE
  5
14C
330
1F
100
AcDbEntity
  8
0
  6
Continuous
 62
     7
370
    30
100
AcDbCircle
 10
307.1918563755
 20
150.7922060041
 30
0.0
 40
3.0
  0
CIRCLE
  5
14D
330
1F
100
AcDbEntity
  8
0
  6
Continuous
 62
     7
370
    30
100
AcDbCircle
 10
307.1918563755
 20
150.7922060041
 30
0.0
 40
3.199999999999989
  0
CIRCLE
  5
14E
330
1F
100
AcDbEntity
  8
0
  6
Continuous
 62
     7
370
    30
100
AcDbCircle
 10
348.6918563755
 20
150.7922060041
 30
0.0
 40
3.0
  0
CIRCLE
  5
14F
330
1F
100
AcDbEntity
  8
0
  6
Continuous
 62
     7
370
    30
100
AcDbCircle
 10
348.6918563755
 20
150.7922060041
 30
0.0
 40
3.199999999999932
  0
LINE
  5
150
330
1F
100
AcDbEntity
  8
0
  6
Continuous
 62
     7
370
    30
100
AcDbLine
 10
352.9418563755
 20
195.2922060041
 30
0.0
 11
352.9418563755
 21
197.7358343726
 31
0.0
  0
LINE
  5
151
330
1F
100
AcDbEntity
  8
0
  6
Continuous
 62
     7
370
    30
100
AcDbLine
 10
348.4418563755
 20
195.2922060041
 30
0.0
 11
348.4418563755
 21
197.7358343726
 31
0.0
  0
LINE
  5
152
330
1F
100
AcDbEntity
  8
0
  6
Continuous
 62
     7
370
    30
100
AcDbLine
 10
348.4418563755
 20
106.2922060041
 30
0.0
 11
348.4418563755
 21
103.8485776356
 31
0.0
  0
LINE
  5
153
330
1F
100
AcDbEntity
  8
0
  6
Continuous
 62
     7
370
    30
100
AcDbLine
 10
352.9418563755
 20
106.2922060041
 30
0.0
 11
352.9418563755
 21
103.8485776356
 31
0.0
  0
LINE
  5
154
330
1F
100
AcDbEntity
  8
0
  6
Continuous
 62
     7
370
    30
100
AcDbLine
 10
302.9418563755
 20
195.2922060041
 30
0.0
 11
302.9418563755
 21
197.7358343726
 31
0.0
  0
LINE
  5
155
330
1F
100
AcDbEntity
  8
0
  6
Continuous
 62
     7
370
    30
100
AcDbLine
 10
307.4418563755
 20
195.2922060041
 30
0.0
 11
307.4418563755
 21
197.7358343726
 31
0.0
  0
LINE
  5
156
330
1F
100
AcDbEntity
  8
0
  6
Continuous
 62
     7
370
    30
100
AcDbLine
 10
302.9418563755
 20
106.2922060041
 30
0.0
 11
302.9418563755
 21
103.8485776356
 31
0.0
  0
LINE
  5
157
330
1F
100
AcDbEntity
  8
0
  6
Continuous
 62
     7
370
    30
100
AcDbLine
 10
307.4418563755
 20
106.2922060041
 30
0.0
 11
307.4418563755
 21
103.8485776356
 31
0.0
  0
LINE
  5
158
330
1F
100
AcDbEntity
  8
0
  6
Continuous
 62
     7
370
    30
100
AcDbLine
 10
348.4418563755
 20
197.7358343726
 30
0.0
 11
348.4418563755
 21
198.4745600463
 31
0.0
  0
LINE
  5
159
330
1F
100
AcDbEntity
  8
0
  6
Continuous
 62
     7
370
    30
100
AcDbLine
 10
352.9418563755
 20
197.7358343726
 30
0.0
 11
352.9418563755
 21
198.4745600463
 31
0.0
  0
LINE
  5
15A
330
1F
100
AcDbEntity
  8
0
  6
Continuous
 62
     7
370
    30
100
AcDbLine
 10
348.4418563755
 20
103.8485776356
 30
0.0
 11
348.4418563755
 21
103.1098519619
 31
0.0
  0
LINE
  5
15B
330
1F
100
AcDbEntity
  8
0
  6
Continuous
 62
     7
370
    30
100
AcDbLine
 10
352.9418563755
 20
103.8485776356
 30
0.0
 11
352.9418563755
 21
103.1098519619
 31
0.0
  0
LINE
  5
15C
330
1F
100
AcDbEntity
  8
0
  6
Continuous
 62
     7
370
    30
100
AcDbLine
 10
302.9418563755
 20
197.7358343726
 30
0.0
 11
302.9418563755
 21
198.4745600463
 31
0.0
  0
LINE
  5
15D
330
1F
100
AcDbEntity
  8
0
  6
Continuous
 62
     7
370
    30
100
AcDbLine
 10
307.4418563755
 20
197.7358343726
 30
0.0
 11
307.4418563755
 21
198.4745600463
 31
0.0
  0
LINE
  5
15E
330
1F
100
AcDbEntity
  8
0
  6
Continuous
 62
     7
370
    30
100
AcDbLine
 10
302.9418563755
 20
103.8485776356
 30
0.0
 11
302.9418563755
 21
103.1098519619
 31
0.0
  0
LINE
  5
15F
330
1F
100
AcDbEntity
  8
0
  6
Continuous
 62
     7
370
    30
100
AcDbLine
 10
307.4418563755
 20
103.8485776356
 30
0.0
 11
307.4418563755
 21
103.1098519619
 31
0.0
  0
LINE
  5
160
330
1F
100
AcDbEntity
  8
0
  6
Continuous
 62
     7
370
    30
100
AcDbLine
 10
348.4418563755
 20
198.4745600463
 30
0.0
 11
348.4418563755
 21
198.5422060041
 31
0.0
  0
LINE
  5
161
330
1F
100
AcDbEntity
  8
0
  6
Continuous
 62
     7
370
    30
100
AcDbLine
 10
352.9418563755
 20
198.4745600463
 30
0.0
 11
352.9418563755
 21
198.5422060041
 31
0.0
  0
LINE
  5
162
330
1F
100
AcDbEntity
  8
0
  6
Continuous
 62
     7
370
    30
100
AcDbLine
 10
348.4418563755
 20
103.1098519619
 30
0.0
 11
348.4418563755
 21
103.0422060041
 31
0.0
  0
LINE
  5
163
330
1F
100
AcDbEntity
  8
0
  6
Continuous
 62
     7
370
    30
100
AcDbLine
 10
352.9418563755
 20
103.1098519619
 30
0.0
 11
352.9418563755
 21
103.0422060041
 31
0.0
  0
LINE
  5
164
330
1F
100
AcDbEntity
  8
0
  6
Continuous
 62
     7
370
    30
100
AcDbLine
 10
302.9418563755
 20
103.1098519619
 30
0.0
 11
302.9418563755
 21
103.0422060041
 31
0.0
  0
LINE
  5
165
330
1F
100
AcDbEntity
  8
0
  6
Continuous
 62
     7
370
    30
100
AcDbLine
 10
307.4418563755
 20
103.1098519619
 30
0.0
 11
307.4418563755
 21
103.0422060041
 31
0.0
  0
LINE
  5
166
330
1F
100
AcDbEntity
  8
0
  6
Continuous
 62
     7
370
    30
100
AcDbLine
 10
302.9418563755
 20
198.4745600463
 30
0.0
 11
302.9418563755
 21
198.5422060041
 31
0.0
  0
LINE
  5
167
330
1F
100
AcDbEntity
  8
0
  6
Continuous
 62
     7
370
    30
100
AcDbLine
 10
307.4418563755
 20
198.4745600463
 30
0.0
 11
307.4418563755
 21
198.5422060041
 31
0.0
  0
ARC
  5
168
330
1F
100
AcDbEntity
  8
0
  6
Continuous
 62
     7
370
    30
100
AcDbCircle
 10
343.1918563755
 20
115.0422060041
 30
0.0
 40
1.0
100
AcDbArc
 50
270.0
 51
0.0
  0
LINE
  5
169
330
1F
100
AcDbEntity
  8
0
  6
Continuous
 62
     7
370
    30
100
AcDbLine
 10
344.1918563755
 20
186.5422060041
 30
0.0
 11
344.1918563755
 21
115.0422060041
 31
0.0
  0
ARC
  5
16A
330
1F
100
AcDbEntity
  8
0
  6
Continuous
 62
     7
370
    30
100
AcDbCircle
 10
343.1918563755
 20
186.5422060041
 30
0.0
 40
1.0
100
AcDbArc
 50
0.0
 51
90.0
  0
LINE
  5
16B
330
1F
100
AcDbEntity
  8
0
  6
Continuous
 62
     7
370
    30
100
AcDbLine
 10
312.6918563755
 20
187.5422060041
 30
0.0
 11
343.1918563755
 21
187.5422060041
 31
0.0
  0
ARC
  5
16C
330
1F
100
AcDbEntity
  8
0
  6
Continuous
 62
     7
370
    30
100
AcDbCircle
 10
312.6918563755
 20
186.5422060041
 30
0.0
 40
1.0
100
AcDbArc
 50
90.0
 51
180.0
  0
LINE
  5
16D
330
1F
100
AcDbEntity
  8
0
  6
Continuous
 62
     7
370
    30
100
AcDbLine
 10
311.6918563755
 20
115.0422060041
 30
0.0
 11
311.6918563755
 21
186.5422060041
 31
0.0
  0
ARC
  5
16E
330
1F
100
AcDbEntity
  8
0
  6
Continuous
 62
     7
370
    30
100
AcDbCircle
 10
312.6918563755
 20
115.0422060041
 30
0.0
 40
1.0
100
AcDbArc
 50
180.0
 51
270.0
  0
LINE
  5
16F
330
1F
100
AcDbEntity
  8
0
  6
Continuous
 62
     7
370
    30
100
AcDbLine
 10
343.1918563755
 20
114.0422060041
 30
0.0
 11
312.6918563755
 21
114.0422060041
 31
0.0
  0
LINE
  5
170
330
1F
100
AcDbEntity
  8
0
  6
Continuous
 62
     7
370
    30
100
AcDbLine
 10
308.4418563755
 20
196.2922060041
 30
0.0
 11
347.4418563755
 21
196.2922060041
 31
0.0
  0
LINE
  5
171
330
1F
100
AcDbEntity
  8
0
  6
Continuous
 62
     7
370
    30
100
AcDbLine
 10
347.4418563755
 20
105.2922060041
 30
0.0
 11
308.4418563755
 21
105.2922060041
 31
0.0
  0
ARC
  5
172
330
1F
100
AcDbEntity
  8
0
  6
Continuous
 62
     7
370
    30
100
AcDbCircle
 10
308.4418563755
 20
104.2922060041
 30
0.0
 40
1.0
100
AcDbArc
 50
90.0
 51
165.5224878141
  0
ARC
  5
173
330
1F
100
AcDbEntity
  8
0
  6
Continuous
 62
     7
370
    30
100
AcDbCircle
 10
308.4418563755
 20
197.2922060041
 30
0.0
 40
1.0
100
AcDbArc
 50
194.4775121859
 51
270.0
  0
ARC
  5
174
330
1F
100
AcDbEntity
  8
0
  6
Continuous
 62
     7
370
    30
100
AcDbCircle
 10
347.4418563755
 20
197.2922060041
 30
0.0
 40
1.000000000000024
100
AcDbArc
 50
270.0
 51
345.5224878141
  0
ARC
  5
175
330
1F
100
AcDbEntity
  8
0
  6
Continuous
 62
     7
370
    30
100
AcDbCircle
 10
347.4418563755
 20
104.2922060041
 30
0.0
 40
1.000000000000035
100
AcDbArc
 50
14.4775121859
 51
90.0
  0
LINE
  5
176
330
1F
100
AcDbEntity
  8
0
  6
Continuous
 62
     7
370
    30
100
AcDbLine
 10
302.9418563755
 20
106.2922060041
 30
0.0
 11
302.9418563755
 21
195.2922060041
 31
0.0
  0
LINE
  5
177
330
1F
100
AcDbEntity
  8
0
  6
Continuous
 62
     7
370
    30
100
AcDbLine
 10
352.9418563755
 20
195.2922060041
 30
0.0
 11
352.9418563755
 21
106.2922060041
 31
0.0
  0
SPLINE
  5
178
330
1F
100
AcDbEntity
  8
0
  6
Continuous
 62
     7
370
    30
100
AcDbSpline
210
0.0
220
0.0
230
1.0
 70
     8
 71
     3
 72
    20
 73
    16
 74
     0
 42
0.000000001
 43
0.00000001
 40
0.0
 40
0.0
 40
0.0
 40
0.0
 40
0.1250000000000001
 40
0.1250000000000001
 40
0.1875000000000001
 40
0.1875000000000001
 40
0.25
 40
0.25
 40
0.5
 40
0.5
 40
0.625
 40
0.625
 40
0.75
 40
0.75
 40
1.0
 40
1.0
 40
1.0
 40
1.0
 10
360.9152957650545
 20
98.21264309457267
 30
0.0
 10
361.7521455058094
 20
102.5496223417543
 30
0.0
 10
362.4852255926332
 20
106.9053434891479
 30
0.0
 10
363.4284661017035
 20
113.4622849899115
 30
0.0
 10
363.7168368706552
 20
115.6521869399238
 30
0.0
 10
364.2405966827355
 20
120.032342422063
 30
0.0
 10
364.4761358321815
 20
122.2235760722778
 30
0.0
 10
365.5227226023816
 20
133.1854977672602
 30
0.0
 10
365.9413314659581
 20
141.9734071680942
 30
0.0
 10
365.941928206643
 20
155.1827997475007
 30
0.0
 10
365.8373653446397
 20
159.5912099734488
 30
0.0
 10
365.4168763008746
 20
168.4145337965304
 30
0.0
 10
365.10173328268
 20
172.8136932600332
 30
0.0
 10
363.8437267320543
 20
185.9739167418487
 30
0.0
 10
362.5889952465732
 20
194.697810419167
 30
0.0
 10
360.9152957650545
 20
203.3717689135779
 30
0.0
  0
SPLINE
  5
179
330
1F
100
AcDbEntity
  8
0
  6
Continuous
 62
     7
370
    30
100
AcDbSpline
210
0.0
220
0.0
230
1.0
 70
     8
 71
     3
 72
    20
 73
    16
 74
     0
 42
0.000000001
 43
0.00000001
 40
0.0
 40
0.0
 40
0.0
 40
0.0
 40
0.1249999999999999
 40
0.1249999999999999
 40
0.1874999999999998
 40
0.1874999999999998
 40
0.2499999999999998
 40
0.2499999999999998
 40
0.4999999999999999
 40
0.4999999999999999
 40
0.625
 40
0.625
 40
0.75
 40
0.75
 40
1.0
 40
1.0
 40
1.0
 40
1.0
 10
294.9684169860193
 20
203.371768913578
 30
0.0
 10
294.1315672452645
 20
199.0347896663963
 30
0.0
 10
293.3984871584405
 20
194.6790685190028
 30
0.0
 10
292.4552466493702
 20
188.1221270182392
 30
0.0
 10
292.1668758804186
 20
185.9322250682269
 30
0.0
 10
291.6431160683382
 20
181.5520695860877
 30
0.0
 10
291.4075769188922
 20
179.3608359358729
 30
0.0
 10
290.3609901486921
 20
168.3989142408905
 30
0.0
 10
289.9423812851156
 20
159.6110048400565
 30
0.0
 10
289.9417845444308
 20
146.40161226065
 30
0.0
 10
290.0463474064341
 20
141.9932020347019
 30
0.0
 10
290.4668364501991
 20
133.1698782116203
 30
0.0
 10
290.7819794683938
 20
128.7707187481176
 30
0.0
 10
292.0399860190195
 20
115.610495266302
 30
0.0
 10
293.2947175045002
 20
106.8866015889836
 30
0.0
 10
294.9684169860193
 20
98.2126430945727
 30
0.0
  0
LINE
  5
17A
330
1F
100
AcDbEntity
  8
0
  6
Continuous
 62
     7
370
    30
100
AcDbLine
 10
324.6918563755
 20
85.3187015651
 30
0.0
 11
324.6918563755
 21
85.4683830056
 31
0.0
  0
LINE
  5
17B
330
1F
100
AcDbEntity
  8
0
  6
Continuous
 62
     7
370
    30
100
AcDbLine
 10
331.1918563755
 20
85.4683830056
 30
0.0
 11
331.1918563755
 21
85.3187015651
 31
0.0
  0
SPLINE
  5
17C
330
1F
100
AcDbEntity
  8
0
  6
Continuous
 62
     7
370
    30
100
AcDbSpline
210
0.0
220
0.0
230
1.0
 70
     8
 71
     3
 72
     8
 73
     4
 74
     0
 42
0.000000001
 43
0.00000001
 40
0.0
 40
0.0
 40
0.0
 40
0.0
 40
1.0
 40
1.0
 40
1.0
 40
1.0
 10
324.6918563755369
 20
85.4683830055836
 30
0.0
 10
326.8585230422036
 20
85.25702533402495
 30
0.0
 10
329.0251897088702
 20
85.25702533402493
 30
0.0
 10
331.1918563755369
 20
85.46838300558359
 30
0.0
  0
SPLINE
  5
17D
330
1F
100
AcDbEntity
  8
0
  6
Continuous
 62
     7
370
    30
100
AcDbSpline
210
0.0
220
0.0
230
1.0
 70
    24
 71
     3
 72
    10
 73
     6
 74
     0
 42
0.000000001
 43
0.00000001
 40
0.0
 40
0.0
 40
0.0
 40
0.0
 40
0.5
 40
0.5
 40
1.0
 40
1.0
 40
1.0
 40
1.0
 10
324.6918563755369
 20
84.94802094588705
 30
0.0
 10
324.6918563755369
 20
84.95277674880995
 30
0.0
 10
324.6918563755369
 20
84.98661377551156
 30
0.0
 10
324.6918563755369
 20
85.11021793682507
 30
0.0
 10
324.6918563755369
 20
85.2011049958951
 30
0.0
 10
324.6918563755369
 20
85.31870156513602
 30
0.0
  0
SPLINE
  5
17E
330
1F
100
AcDbEntity
  8
0
  6
Continuous
 62
     7
370
    30
100
AcDbSpline
210
0.0
220
0.0
230
1.0
 70
     8
 71
     3
 72
    12
 73
     8
 74
     0
 42
0.000000001
 43
0.00000001
 40
0.0
 40
0.0
 40
0.0
 40
0.0
 40
0.2499999999999999
 40
0.2499999999999999
 40
0.4999999999999998
 40
0.4999999999999998
 40
1.0
 40
1.0
 40
1.0
 40
1.0
 10
312.8604379990228
 20
88.3202211078296
 30
0.0
 10
313.7919408704401
 20
87.85919419017459
 30
0.0
 10
314.7425782685582
 20
87.44176112218797
 30
0.0
 10
316.6821205154754
 20
86.69407903410253
 30
0.0
 10
317.6615543429341
 20
86.36748086281763
 30
0.0
 10
320.627314541947
 20
85.52490183644039
 30
0.0
 10
322.641134988457
 20
85.14494854880742
 30
0.0
 10
324.6918563755369
 20
84.94802094588705
 30
0.0
  0
SPLINE
  5
17F
330
1F
100
AcDbEntity
  8
0
  6
Continuous
 62
     7
370
    30
100
AcDbSpline
210
0.0
220
0.0
230
1.0
 70
     8
 71
     3
 72
    26
 73
    22
 74
     0
 42
0.000000001
 43
0.00000001
 40
0.0
 40
0.0
 40
0.0
 40
0.0
 40
0.0625
 40
0.0625
 40
0.1250000000000001
 40
0.1250000000000001
 40
0.25
 40
0.25
 40
0.3749999999999999
 40
0.3749999999999999
 40
0.4374999999999998
 40
0.4374999999999998
 40
0.4999999999999998
 40
0.4999999999999998
 40
0.7499999999999994
 40
0.7499999999999994
 40
0.8124999999999996
 40
0.8124999999999996
 40
0.8749999999999996
 40
0.8749999999999996
 40
1.0
 40
1.0
 40
1.0
 40
1.0
 10
343.023274752051
 20
213.264190900321
 30
0.0
 10
342.435421463099
 20
213.5551359936266
 30
0.0
 10
341.8399379778504
 20
213.8286973472926
 30
0.0
 10
340.6337557278933
 20
214.3411553557894
 30
0.0
 10
340.0218299455931
 20
214.5804493001525
 30
0.0
 10
338.1762668539014
 20
215.2414911136074
 30
0.0
 10
336.9308917086565
 20
215.6077881035631
 30
0.0
 10
334.411036183099
 20
216.1960224683893
 30
0.0
 10
333.13655377365
 20
216.4179497789061
 30
0.0
 10
331.2027971198893
 20
216.6415586479536
 30
0.0
 10
330.5545305829166
 20
216.6978375457845
 30
0.0
 10
329.2504907533189
 20
216.7731624397379
 30
0.0
 10
328.5932688184978
 20
216.7921066390427
 30
0.0
 10
325.3290549417106
 20
216.7919693174226
 30
0.0
 10
322.7590478519349
 20
216.4949406550298
 30
0.0
 10
319.597395825058
 20
215.7585947137373
 30
0.0
 10
318.9676396449045
 20
215.5928472433591
 30
0.0
 10
317.7133831220115
 20
215.2236248941064
 30
0.0
 10
317.0886753479998
 20
215.0199588285022
 30
0.0
 10
315.2402352930048
 20
214.3575905922771
 30
0.0
 10
314.0361445774078
 20
213.8460810871702
 30
0.0
 10
312.8604379990226
 20
213.264190900321
 30
0.0
  0
SPLINE
  5
180
330
1F
100
AcDbEntity
  8
0
  6
Continuous
 62
     7
370
    30
100
AcDbSpline
210
0.0
220
0.0
230
1.0
 70
     8
 71
     3
 72
    12
 73
     8
 74
     0
 42
0.000000001
 43
0.00000001
 40
0.0
 40
0.0
 40
0.0
 40
0.0
 40
0.4999999999999998
 40
0.4999999999999998
 40
0.7499999999999999
 40
0.7499999999999999
 40
1.0
 40
1.0
 40
1.0
 40
1.0
 10
331.1918563755369
 20
84.9480209458871
 30
0.0
 10
333.2309214465769
 20
85.1438292108071
 30
0.0
 10
335.2446314064186
 20
85.52164132446022
 30
0.0
 10
338.2261591074391
 20
86.368576278035
 30
0.0
 10
339.2133385925144
 20
86.69833791852058
 30
0.0
 10
341.144849441222
 20
87.443464647663
 30
0.0
 10
342.0929591960543
 20
87.85978182590331
 30
0.0
 10
343.0232747520511
 20
88.3202211078297
 30
0.0
  0
SPLINE
  5
181
330
1F
100
AcDbEntity
  8
0
  6
Continuous
 62
     7
370
    30
100
AcDbSpline
210
0.0
220
0.0
230
1.0
 70
     8
 71
     3
 72
     8
 73
     4
 74
     0
 42
0.000000001
 43
0.00000001
 40
0.0
 40
0.0
 40
0.0
 40
0.0
 40
0.0002194571471259
 40
0.0002194571471259
 40
0.0002194571471259
 40
0.0002194571471259
 10
343.0232747520511
 20
88.32022110782967
 30
0.0
 10
343.0888367014107
 20
88.35266955684273
 30
0.0
 10
343.1544669020996
 20
88.38498046501326
 30
0.0
 10
343.2201642463585
 20
88.41715390133099
 30
0.0
  0
SPLINE
  5
182
330
1F
100
AcDbEntity
  8
0
  6
Continuous
 62
     7
370
    30
100
AcDbSpline
210
0.0
220
0.0
230
1.0
 70
     8
 71
     3
 72
    10
 73
     6
 74
     0
 42
0.000000001
 43
0.00000001
 40
0.0
 40
0.0
 40
0.0
 40
0.0
 40
0.5
 40
0.5
 40
1.0
 40
1.0
 40
1.0
 40
1.0
 10
343.2201642463586
 20
88.41715390133083
 30
0.0
 10
344.7543692548425
 20
89.16848788135002
 30
0.0
 10
346.3265236257338
 20
89.84268550270204
 30
0.0
 10
349.5239299259162
 20
91.02745712919405
 30
0.0
 10
351.1498964520605
 20
91.53873533915038
 30
0.0
 10
352.8031925979127
 20
91.96870887322694
 30
0.0
  0
SPLINE
  5
183
330
1F
100
AcDbEntity
  8
0
  6
Continuous
 62
     7
370
    30
100
AcDbSpline
210
0.0
220
0.0
230
1.0
 70
     8
 71
     3
 72
     8
 73
     4
 74
     0
 42
0.000000001
 43
0.00000001
 40
0.0
 40
0.0
 40
0.0
 40
0.0
 40
0.0003943520914263
 40
0.0003943520914263
 40
0.0003943520914263
 40
0.0003943520914263
 10
352.803192597911
 20
91.96870887323114
 30
0.0
 10
352.9304113569949
 20
92.00179471788236
 30
0.0
 10
353.0577568018019
 20
92.03439724036177
 30
0.0
 10
353.1852238197725
 20
92.06651335950517
 30
0.0
  0
SPLINE
  5
184
330
1F
100
AcDbEntity
  8
0
  6
Continuous
 62
     7
370
    30
100
AcDbSpline
210
0.0
220
0.0
230
1.0
 70
     8
 71
     3
 72
     8
 73
     4
 74
     0
 42
0.000000001
 43
0.00000001
 40
0.0
 40
0.0
 40
0.0
 40
0.0
 40
1.0
 40
1.0
 40
1.0
 40
1.0
 10
353.1852238197725
 20
92.06651335950517
 30
0.0
 10
354.1065190320265
 20
92.29863949906716
 30
0.0
 10
355.0244378043785
 20
92.54342682342035
 30
0.0
 10
355.9389801355431
 20
92.80087533738326
 30
0.0
  0
SPLINE
  5
185
330
1F
100
AcDbEntity
  8
0
  6
Continuous
 62
     7
370
    30
100
AcDbSpline
210
0.0
220
0.0
230
1.0
 70
     8
 71
     3
 72
     8
 73
     4
 74
     0
 42
0.000000001
 43
0.00000001
 40
0.0
 40
0.0
 40
0.0
 40
0.0
 40
1.0
 40
1.0
 40
1.0
 40
1.0
 10
355.9389801355431
 20
92.80087533738327
 30
0.0
 10
356.088400154678
 20
92.8429378648046
 30
0.0
 10
356.2362653199085
 20
92.88989588214706
 30
0.0
 10
356.3825709939914
 20
92.94176398986693
 30
0.0
  0
SPLINE
  5
186
330
1F
100
AcDbEntity
  8
0
  6
Continuous
 62
     7
370
    30
100
AcDbSpline
210
0.0
220
0.0
230
1.0
 70
     8
 71
     3
 72
     8
 73
     4
 74
     0
 42
0.000000001
 43
0.00000001
 40
0.0
 40
0.0
 40
0.0
 40
0.0
 40
1.0
 40
1.0
 40
1.0
 40
1.0
 10
356.3825709939914
 20
92.94176398986694
 30
0.0
 10
356.6653764541698
 20
93.04202383395189
 30
0.0
 10
356.9405780876444
 20
93.16001951063966
 30
0.0
 10
357.2081860658537
 20
93.2957272951746
 30
0.0
  0
SPLINE
  5
187
330
1F
100
AcDbEntity
  8
0
  6
Continuous
 62
     7
370
    30
100
AcDbSpline
210
0.0
220
0.0
230
1.0
 70
     8
 71
     3
 72
     8
 73
     4
 74
     0
 42
0.000000001
 43
0.00000001
 40
0.0
 40
0.0
 40
0.0
 40
0.0
 40
1.0
 40
1.0
 40
1.0
 40
1.0
 10
360.5383630196964
 20
96.93117128938033
 30
0.0
 10
360.648686138302
 20
97.2060040665816
 30
0.0
 10
360.7411778088228
 20
97.4867116648262
 30
0.0
 10
360.8158147324207
 20
97.77330176024361
 30
0.0
  0
SPLINE
  5
188
330
1F
100
AcDbEntity
  8
0
  6
Continuous
 62
     7
370
    30
100
AcDbSpline
210
0.0
220
0.0
230
1.0
 70
     8
 71
     3
 72
     8
 73
     4
 74
     0
 42
0.000000001
 43
0.00000001
 40
0.0
 40
0.0
 40
0.0
 40
0.0
 40
1.0
 40
1.0
 40
1.0
 40
1.0
 10
360.8158147324207
 20
97.7733017602436
 30
0.0
 10
360.8536768270947
 20
97.91868424390255
 30
0.0
 10
360.8868325694322
 20
98.06513239735808
 30
0.0
 10
360.9152957650545
 20
98.21264309457268
 30
0.0
  0
SPLINE
  5
189
330
1F
100
AcDbEntity
  8
0
  6
Continuous
 62
     7
370
    30
100
AcDbSpline
210
0.0
220
0.0
230
1.0
 70
     8
 71
     3
 72
     8
 73
     4
 74
     0
 42
0.000000001
 43
0.00000001
 40
0.0
 40
0.0
 40
0.0
 40
0.0
 40
1.0
 40
1.0
 40
1.0
 40
1.0
 10
360.9152957650546
 20
203.371768913578
 30
0.0
 10
360.8868325694316
 20
203.5192796107952
 30
0.0
 10
360.8536768270936
 20
203.6657277642533
 30
0.0
 10
360.8158147324187
 20
203.8111102479148
 30
0.0
  0
SPLINE
  5
18A
330
1F
100
AcDbEntity
  8
0
  6
Continuous
 62
     7
370
    30
100
AcDbSpline
210
0.0
220
0.0
230
1.0
 70
     8
 71
     3
 72
     8
 73
     4
 74
     0
 42
0.000000001
 43
0.00000001
 40
0.0
 40
0.0
 40
0.0
 40
0.0
 40
1.0
 40
1.0
 40
1.0
 40
1.0
 10
360.8158147324187
 20
203.8111102479148
 30
0.0
 10
360.7411778088209
 20
204.0977003433305
 30
0.0
 10
360.6486861383004
 20
204.3784079415734
 30
0.0
 10
360.5383630196955
 20
204.653240718773
 30
0.0
  0
SPLINE
  5
18B
330
1F
100
AcDbEntity
  8
0
  6
Continuous
 62
     7
370
    30
100
AcDbSpline
210
0.0
220
0.0
230
1.0
 70
     8
 71
     3
 72
     8
 73
     4
 74
     0
 42
0.000000001
 43
0.00000001
 40
0.0
 40
0.0
 40
0.0
 40
0.0
 40
1.0
 40
1.0
 40
1.0
 40
1.0
 10
357.2081860659571
 20
208.2886847129237
 30
0.0
 10
356.9405780877127
 20
208.424392497482
 30
0.0
 10
356.6653764542007
 20
208.5423881741883
 30
0.0
 10
356.3825709939827
 20
208.6426480182868
 30
0.0
  0
SPLINE
  5
18C
330
1F
100
AcDbEntity
  8
0
  6
Continuous
 62
     7
370
    30
100
AcDbSpline
210
0.0
220
0.0
230
1.0
 70
     8
 71
     3
 72
     8
 73
     4
 74
     0
 42
0.000000001
 43
0.00000001
 40
0.0
 40
0.0
 40
0.0
 40
0.0
 40
1.0
 40
1.0
 40
1.0
 40
1.0
 10
356.3825709939827
 20
208.6426480182868
 30
0.0
 10
356.2362653199025
 20
208.6945161260055
 30
0.0
 10
356.0884001546751
 20
208.7414741433469
 30
0.0
 10
355.9389801355433
 20
208.7835366707674
 30
0.0
  0
SPLINE
  5
18D
330
1F
100
AcDbEntity
  8
0
  6
Continuous
 62
     7
370
    30
100
AcDbSpline
210
0.0
220
0.0
230
1.0
 70
     8
 71
     3
 72
     8
 73
     4
 74
     0
 42
0.000000001
 43
0.00000001
 40
0.0
 40
0.0
 40
0.0
 40
0.0
 40
1.0
 40
1.0
 40
1.0
 40
1.0
 10
355.9389801355433
 20
208.7835366707674
 30
0.0
 10
355.0244378043785
 20
209.0409851847303
 30
0.0
 10
354.1065190320265
 20
209.2857725090836
 30
0.0
 10
353.1852238197724
 20
209.5178986486456
 30
0.0
  0
SPLINE
  5
18E
330
1F
100
AcDbEntity
  8
0
  6
Continuous
 62
     7
370
    30
100
AcDbSpline
210
0.0
220
0.0
230
1.0
 70
     8
 71
     3
 72
     8
 73
     4
 74
     0
 42
0.000000001
 43
0.00000001
 40
0.0
 40
0.0
 40
0.0
 40
0.0
 40
0.0003943520914259
 40
0.0003943520914259
 40
0.0003943520914259
 40
0.0003943520914259
 10
353.1852238197724
 20
209.5178986486456
 30
0.0
 10
353.0577568018019
 20
209.5500147677889
 30
0.0
 10
352.9304113569956
 20
209.5826172902703
 30
0.0
 10
352.8031925979118
 20
209.6157031349216
 30
0.0
  0
SPLINE
  5
18F
330
1F
100
AcDbEntity
  8
0
  6
Continuous
 62
     7
370
    30
100
AcDbSpline
210
0.0
220
0.0
230
1.0
 70
     8
 71
     3
 72
    10
 73
     6
 74
     0
 42
0.000000001
 43
0.00000001
 40
0.0
 40
0.0
 40
0.0
 40
0.0
 40
0.5
 40
0.5
 40
1.0
 40
1.0
 40
1.0
 40
1.0
 10
352.8031925979124
 20
209.615703134924
 30
0.0
 10
351.1498882147217
 20
210.0456788112892
 30
0.0
 10
349.5180732938537
 20
210.5589050454812
 30
0.0
 10
346.3208159448433
 20
211.7440621934322
 30
0.0
 10
344.7543645611078
 20
212.4159264254258
 30
0.0
 10
343.2201642463572
 20
213.1672581068204
 30
0.0
  0
SPLINE
  5
190
330
1F
100
AcDbEntity
  8
0
  6
Continuous
 62
     7
370
    30
100
AcDbSpline
210
0.0
220
0.0
230
1.0
 70
     8
 71
     3
 72
     8
 73
     4
 74
     0
 42
0.000000001
 43
0.00000001
 40
0.0
 40
0.0
 40
0.0
 40
0.0
 40
0.0002194571471261
 40
0.0002194571471261
 40
0.0002194571471261
 40
0.0002194571471261
 10
343.2201642463534
 20
213.1672581068088
 30
0.0
 10
343.1544669020943
 20
213.1994315431265
 30
0.0
 10
343.0888367014106
 20
213.2317424513078
 30
0.0
 10
343.023274752051
 20
213.2641909003209
 30
0.0
  0
SPLINE
  5
191
330
1F
100
AcDbEntity
  8
0
  6
Continuous
 62
     7
370
    30
100
AcDbSpline
210
0.0
220
0.0
230
1.0
 70
     8
 71
     3
 72
     8
 73
     4
 74
     0
 42
0.000000001
 43
0.00000001
 40
0.0
 40
0.0
 40
0.0
 40
0.0
 40
0.0002194571471258
 40
0.0002194571471258
 40
0.0002194571471258
 40
0.0002194571471258
 10
312.8604379990226
 20
213.264190900321
 30
0.0
 10
312.7948760496631
 20
213.2317424513079
 30
0.0
 10
312.7292458489742
 20
213.1994315431375
 30
0.0
 10
312.6635485047152
 20
213.1672581068198
 30
0.0
  0
SPLINE
  5
192
330
1F
100
AcDbEntity
  8
0
  6
Continuous
 62
     7
370
    30
100
AcDbSpline
210
0.0
220
0.0
230
1.0
 70
     8
 71
     3
 72
    10
 73
     6
 74
     0
 42
0.000000001
 43
0.00000001
 40
0.0
 40
0.0
 40
0.0
 40
0.0
 40
0.5
 40
0.5
 40
1.0
 40
1.0
 40
1.0
 40
1.0
 10
312.6635485047151
 20
213.1672581068198
 30
0.0
 10
311.1293434962312
 20
212.4159241268007
 30
0.0
 10
309.55718912534
 20
211.7417265054487
 30
0.0
 10
306.3597828251577
 20
210.5569548789567
 30
0.0
 10
304.7338162990134
 20
210.0456766690003
 30
0.0
 10
303.0805201531612
 20
209.6157031349238
 30
0.0
  0
SPLINE
  5
193
330
1F
100
AcDbEntity
  8
0
  6
Continuous
 62
     7
370
    30
100
AcDbSpline
210
0.0
220
0.0
230
1.0
 70
     8
 71
     3
 72
     8
 73
     4
 74
     0
 42
0.000000001
 43
0.00000001
 40
0.0
 40
0.0
 40
0.0
 40
0.0
 40
0.0003943520914265
 40
0.0003943520914265
 40
0.0003943520914265
 40
0.0003943520914265
 10
303.0805201531629
 20
209.6157031349196
 30
0.0
 10
302.9533013940789
 20
209.5826172902683
 30
0.0
 10
302.8259559492719
 20
209.5500147677889
 30
0.0
 10
302.6984889313012
 20
209.5178986486455
 30
0.0
  0
SPLINE
  5
194
330
1F
100
AcDbEntity
  8
0
  6
Continuous
 62
     7
370
    30
100
AcDbSpline
210
0.0
220
0.0
230
1.0
 70
     8
 71
     3
 72
     8
 73
     4
 74
     0
 42
0.000000001
 43
0.00000001
 40
0.0
 40
0.0
 40
0.0
 40
0.0
 40
1.0
 40
1.0
 40
1.0
 40
1.0
 10
302.6984889313012
 20
209.5178986486455
 30
0.0
 10
301.7771937190471
 20
209.2857725090835
 30
0.0
 10
300.8592749466953
 20
209.0409851847303
 30
0.0
 10
299.9447326155306
 20
208.7835366707674
 30
0.0
  0
SPLINE
  5
195
330
1F
100
AcDbEntity
  8
0
  6
Continuous
 62
     7
370
    30
100
AcDbSpline
210
0.0
220
0.0
230
1.0
 70
     8
 71
     3
 72
     8
 73
     4
 74
     0
 42
0.000000001
 43
0.00000001
 40
0.0
 40
0.0
 40
0.0
 40
0.0
 40
1.0
 40
1.0
 40
1.0
 40
1.0
 10
299.9447326155306
 20
208.7835366707674
 30
0.0
 10
299.7953125963953
 20
208.7414741433459
 30
0.0
 10
299.6474474311642
 20
208.6945161260033
 30
0.0
 10
299.5011417570807
 20
208.6426480182832
 30
0.0
  0
SPLINE
  5
196
330
1F
100
AcDbEntity
  8
0
  6
Continuous
 62
     7
370
    30
100
AcDbSpline
210
0.0
220
0.0
230
1.0
 70
     8
 71
     3
 72
     8
 73
     4
 74
     0
 42
0.000000001
 43
0.00000001
 40
0.0
 40
0.0
 40
0.0
 40
0.0
 40
1.0
 40
1.0
 40
1.0
 40
1.0
 10
299.5011417570802
 20
208.6426480182851
 30
0.0
 10
299.2183362969026
 20
208.5423881742003
 30
0.0
 10
298.9431346634296
 20
208.4243924975111
 30
0.0
 10
298.675526685221
 20
208.2886847129766
 30
0.0
  0
SPLINE
  5
197
330
1F
100
AcDbEntity
  8
0
  6
Continuous
 62
     7
370
    30
100
AcDbSpline
210
0.0
220
0.0
230
1.0
 70
     8
 71
     3
 72
     8
 73
     4
 74
     0
 42
0.000000001
 43
0.00000001
 40
0.0
 40
0.0
 40
0.0
 40
0.0
 40
1.0
 40
1.0
 40
1.0
 40
1.0
 10
295.3453497313772
 20
204.65324071877
 30
0.0
 10
295.2350266127727
 20
204.3784079415713
 30
0.0
 10
295.1425349422526
 20
204.0977003433294
 30
0.0
 10
295.067898018655
 20
203.8111102479147
 30
0.0
  0
SPLINE
  5
198
330
1F
100
AcDbEntity
  8
0
  6
Continuous
 62
     7
370
    30
100
AcDbSpline
210
0.0
220
0.0
230
1.0
 70
     8
 71
     3
 72
     8
 73
     4
 74
     0
 42
0.000000001
 43
0.00000001
 40
0.0
 40
0.0
 40
0.0
 40
0.0
 40
1.0
 40
1.0
 40
1.0
 40
1.0
 10
295.067898018655
 20
203.8111102479147
 30
0.0
 10
295.0300359239802
 20
203.6657277642532
 30
0.0
 10
294.9968801816422
 20
203.5192796107952
 30
0.0
 10
294.9684169860193
 20
203.371768913578
 30
0.0
  0
SPLINE
  5
199
330
1F
100
AcDbEntity
  8
0
  6
Continuous
 62
     7
370
    30
100
AcDbSpline
210
0.0
220
0.0
230
1.0
 70
     8
 71
     3
 72
     8
 73
     4
 74
     0
 42
0.000000001
 43
0.00000001
 40
0.0
 40
0.0
 40
0.0
 40
0.0
 40
1.0
 40
1.0
 40
1.0
 40
1.0
 10
294.9684169860193
 20
98.21264309457273
 30
0.0
 10
294.9968801816422
 20
98.06513239735507
 30
0.0
 10
295.0300359239803
 20
97.91868424389651
 30
0.0
 10
295.0678980186553
 20
97.77330176023462
 30
0.0
  0
SPLINE
  5
19A
330
1F
100
AcDbEntity
  8
0
  6
Continuous
 62
     7
370
    30
100
AcDbSpline
210
0.0
220
0.0
230
1.0
 70
     8
 71
     3
 72
     8
 73
     4
 74
     0
 42
0.000000001
 43
0.00000001
 40
0.0
 40
0.0
 40
0.0
 40
0.0
 40
1.0
 40
1.0
 40
1.0
 40
1.0
 10
295.067898018654
 20
97.77330176023436
 30
0.0
 10
295.1425349422517
 20
97.48671166481935
 30
0.0
 10
295.2350266127733
 20
97.20600406657759
 30
0.0
 10
295.345349731378
 20
96.93117128937864
 30
0.0
  0
SPLINE
  5
19B
330
1F
100
AcDbEntity
  8
0
  6
Continuous
 62
     7
370
    30
100
AcDbSpline
210
0.0
220
0.0
230
1.0
 70
     8
 71
     3
 72
     8
 73
     4
 74
     0
 42
0.000000001
 43
0.00000001
 40
0.0
 40
0.0
 40
0.0
 40
0.0
 40
1.0
 40
1.0
 40
1.0
 40
1.0
 10
298.6755266852206
 20
93.29572729517429
 30
0.0
 10
298.9431346634308
 20
93.16001951063893
 30
0.0
 10
299.2183362969064
 20
93.04202383395084
 30
0.0
 10
299.5011417570857
 20
92.94176398986573
 30
0.0
  0
SPLINE
  5
19C
330
1F
100
AcDbEntity
  8
0
  6
Continuous
 62
     7
370
    30
100
AcDbSpline
210
0.0
220
0.0
230
1.0
 70
     8
 71
     3
 72
     8
 73
     4
 74
     0
 42
0.000000001
 43
0.00000001
 40
0.0
 40
0.0
 40
0.0
 40
0.0
 40
1.0
 40
1.0
 40
1.0
 40
1.0
 10
299.5011417570857
 20
92.94176398986573
 30
0.0
 10
299.6474474311676
 20
92.88989588214636
 30
0.0
 10
299.7953125963969
 20
92.84293786480427
 30
0.0
 10
299.9447326155305
 20
92.80087533738326
 30
0.0
  0
SPLINE
  5
19D
330
1F
100
AcDbEntity
  8
0
  6
Continuous
 62
     7
370
    30
100
AcDbSpline
210
0.0
220
0.0
230
1.0
 70
     8
 71
     3
 72
     8
 73
     4
 74
     0
 42
0.000000001
 43
0.00000001
 40
0.0
 40
0.0
 40
0.0
 40
0.0
 40
1.0
 40
1.0
 40
1.0
 40
1.0
 10
299.9447326155305
 20
92.80087533738323
 30
0.0
 10
300.8592749466953
 20
92.54342682342029
 30
0.0
 10
301.7771937190473
 20
92.29863949906708
 30
0.0
 10
302.6984889313015
 20
92.06651335950508
 30
0.0
  0
SPLINE
  5
19E
330
1F
100
AcDbEntity
  8
0
  6
Continuous
 62
     7
370
    30
100
AcDbSpline
210
0.0
220
0.0
230
1.0
 70
     8
 71
     3
 72
     8
 73
     4
 74
     0
 42
0.000000001
 43
0.00000001
 40
0.0
 40
0.0
 40
0.0
 40
0.0
 40
0.0003943520914259
 40
0.0003943520914259
 40
0.0003943520914259
 40
0.0003943520914259
 10
302.6984889313015
 20
92.06651335950507
 30
0.0
 10
302.825955949272
 20
92.03439724036173
 30
0.0
 10
302.9533013940783
 20
92.00179471788029
 30
0.0
 10
303.0805201531621
 20
91.96870887322899
 30
0.0
  0
SPLINE
  5
19F
330
1F
100
AcDbEntity
  8
0
  6
Continuous
 62
     7
370
    30
100
AcDbSpline
210
0.0
220
0.0
230
1.0
 70
     8
 71
     3
 72
    10
 73
     6
 74
     0
 42
0.000000001
 43
0.00000001
 40
0.0
 40
0.0
 40
0.0
 40
0.0
 40
0.5
 40
0.5
 40
1.0
 40
1.0
 40
1.0
 40
1.0
 10
303.0805201531615
 20
91.96870887322667
 30
0.0
 10
304.7338245363522
 20
91.53873319686149
 30
0.0
 10
306.3656394572202
 20
91.02550696266948
 30
0.0
 10
309.5628968062306
 20
89.84034981471848
 30
0.0
 10
311.1293481899659
 20
89.16848558272494
 30
0.0
 10
312.6635485047165
 20
88.41715390133034
 30
0.0
  0
SPLINE
  5
1A0
330
1F
100
AcDbEntity
  8
0
  6
Continuous
 62
     7
370
    30
100
AcDbSpline
210
0.0
220
0.0
230
1.0
 70
     8
 71
     3
 72
     8
 73
     4
 74
     0
 42
0.000000001
 43
0.00000001
 40
0.0
 40
0.0
 40
0.0
 40
0.0
 40
0.0002194571471262
 40
0.0002194571471262
 40
0.0002194571471262
 40
0.0002194571471262
 10
312.6635485047199
 20
88.41715390134075
 30
0.0
 10
312.729245848979
 20
88.38498046502296
 30
0.0
 10
312.7948760496632
 20
88.35266955684283
 30
0.0
 10
312.8604379990229
 20
88.32022110782972
 30
0.0
  0
LINE
  5
1A1
330
1F
100
AcDbEntity
  8
0
  6
Continuous
 62
     7
370
    30
100
AcDbLine
 10
324.6918563755
 20
84.9480209459
 30
0.0
 11
324.6918563755
 21
83.9434255376
 31
0.0
  0
ARC
  5
1A2
330
1F
100
AcDbEntity
  8
0
  6
Continuous
 62
     7
370
    30
100
AcDbCircle
 10
327.9418563755
 20
118.7922060041
 30
0.0
 40
35.00000000000003
100
AcDbArc
 50
243.6679378295
 51
264.672002096
  0
ARC
  5
1A3
330
1F
100
AcDbEntity
  8
0
  6
Continuous
 62
     7
370
    30
100
AcDbCircle
 10
290.2381695092
 20
42.6119461155
 30
0.0
 40
49.99999999999997
100
AcDbArc
 50
63.6679378295
 51
63.9140711167
  0
ARC
  5
1A4
330
1F
100
AcDbEntity
  8
0
  6
Continuous
 62
     7
370
    30
100
AcDbCircle
 10
290.2381695092
 20
42.6119461155
 30
0.0
 40
50.00000000000001
100
AcDbArc
 50
63.9140711167
 51
75.4157809061
  0
ARC
  5
1A5
330
1F
100
AcDbEntity
  8
0
  6
Continuous
 62
     7
370
    30
100
AcDbCircle
 10
290.2381695092
 20
42.6119461155
 30
0.0
 40
50.00000000000001
100
AcDbArc
 50
75.4157809061
 51
75.8583825531
  0
ARC
  5
1A6
330
1F
100
AcDbEntity
  8
0
  6
Continuous
 62
     7
370
    30
100
AcDbCircle
 10
327.9418563755
 20
192.2564917184
 30
0.0
 40
104.3212818505352
100
AcDbArc
 50
254.2778957631
 51
255.8583825531
  0
ARC
  5
1A7
330
1F
100
AcDbEntity
  8
0
  6
Continuous
 62
     7
370
    30
100
AcDbCircle
 10
301.8415029109
 20
99.5388510756
 30
0.0
 40
7.999999999999974
100
AcDbArc
 50
250.4554066305
 51
254.2778957631
  0
ARC
  5
1A8
330
1F
100
AcDbEntity
  8
0
  6
Continuous
 62
     7
370
    30
100
AcDbCircle
 10
301.8415029109
 20
99.5388510756
 30
0.0
 40
7.999999999999974
100
AcDbArc
 50
243.1097903421
 51
250.4554066305
  0
ARC
  5
1A9
330
1F
100
AcDbEntity
  8
0
  6
Continuous
 62
     7
370
    30
100
AcDbCircle
 10
301.8415029109
 20
99.5388510756
 30
0.0
 40
7.999999999999936
100
AcDbArc
 50
194.6209925551
 51
201.8714673107
  0
ARC
  5
1AA
330
1F
100
AcDbEntity
  8
0
  6
Continuous
 62
     7
370
    30
100
AcDbCircle
 10
301.8415029109
 20
99.5388510756
 30
0.0
 40
7.999999999999936
100
AcDbArc
 50
190.9213751748
 51
194.6209925551
  0
ARC
  5
1AB
330
1F
100
AcDbEntity
  8
0
  6
Continuous
 62
     7
370
    30
100
AcDbCircle
 10
567.4626897089
 20
150.7922060041
 30
0.0
 40
278.5208333333342
100
AcDbArc
 50
169.0786248252
 51
190.9213751748
  0
ARC
  5
1AC
330
1F
100
AcDbEntity
  8
0
  6
Continuous
 62
     7
370
    30
100
AcDbCircle
 10
301.8415029109
 20
202.0455609325
 30
0.0
 40
8.00000000000002
100
AcDbArc
 50
165.3790074449
 51
169.0786248252
  0
ARC
  5
1AD
330
1F
100
AcDbEntity
  8
0
  6
Continuous
 62
     7
370
    30
100
AcDbCircle
 10
301.8415029109
 20
202.0455609325
 30
0.0
 40
7.999999999999993
100
AcDbArc
 50
158.1285326893
 51
165.3790074449
  0
ARC
  5
1AE
330
1F
100
AcDbEntity
  8
0
  6
Continuous
 62
     7
370
    30
100
AcDbCircle
 10
301.8415029109
 20
202.0455609325
 30
0.0
 40
7.999999999999991
100
AcDbArc
 50
109.5445933696
 51
116.8902096579
  0
ARC
  5
1AF
330
1F
100
AcDbEntity
  8
0
  6
Continuous
 62
     7
370
    30
100
AcDbCircle
 10
301.8415029109
 20
202.0455609325
 30
0.0
 40
7.999999999999991
100
AcDbArc
 50
105.7221042369
 51
109.5445933696
  0
ARC
  5
1B0
330
1F
100
AcDbEntity
  8
0
  6
Continuous
 62
     7
370
    30
100
AcDbCircle
 10
327.9418563755
 20
109.3279202898
 30
0.0
 40
104.3212818505352
100
AcDbArc
 50
104.1416174469
 51
105.7221042369
  0
ARC
  5
1B1
330
1F
100
AcDbEntity
  8
0
  6
Continuous
 62
     7
370
    30
100
AcDbCircle
 10
290.2381695092
 20
258.9724658926
 30
0.0
 40
50.00000000000002
100
AcDbArc
 50
284.1416174469
 51
284.5842190939
  0
ARC
  5
1B2
330
1F
100
AcDbEntity
  8
0
  6
Continuous
 62
     7
370
    30
100
AcDbCircle
 10
290.2381695092
 20
258.9724658926
 30
0.0
 40
50.00000000000001
100
AcDbArc
 50
284.5842190939
 51
296.0859288833
  0
ARC
  5
1B3
330
1F
100
AcDbEntity
  8
0
  6
Continuous
 62
     7
370
    30
100
AcDbCircle
 10
290.2381695092
 20
258.9724658926
 30
0.0
 40
50.00000000000004
100
AcDbArc
 50
296.0859288833
 51
296.3320621705
  0
ARC
  5
1B4
330
1F
100
AcDbEntity
  8
0
  6
Continuous
 62
     7
370
    30
100
AcDbCircle
 10
327.9418563755
 20
182.7922060041
 30
0.0
 40
35.00000000000004
100
AcDbArc
 50
63.6679378295
 51
116.3320621705
  0
ARC
  5
1B5
330
1F
100
AcDbEntity
  8
0
  6
Continuous
 62
     7
370
    30
100
AcDbCircle
 10
365.6455432418
 20
258.9724658926
 30
0.0
 40
49.99999999999999
100
AcDbArc
 50
243.6679378295
 51
243.9140711167
  0
ARC
  5
1B6
330
1F
100
AcDbEntity
  8
0
  6
Continuous
 62
     7
370
    30
100
AcDbCircle
 10
365.6455432418
 20
258.9724658926
 30
0.0
 40
49.99999999999999
100
AcDbArc
 50
243.9140711167
 51
255.4157809061
  0
ARC
  5
1B7
330
1F
100
AcDbEntity
  8
0
  6
Continuous
 62
     7
370
    30
100
AcDbCircle
 10
365.6455432418
 20
258.9724658926
 30
0.0
 40
50.00000000000003
100
AcDbArc
 50
255.4157809061
 51
255.8583825531
  0
ARC
  5
1B8
330
1F
100
AcDbEntity
  8
0
  6
Continuous
 62
     7
370
    30
100
AcDbCircle
 10
327.9418563755
 20
109.3279202898
 30
0.0
 40
104.3212818505352
100
AcDbArc
 50
74.2778957631
 51
75.8583825531
  0
ARC
  5
1B9
330
1F
100
AcDbEntity
  8
0
  6
Continuous
 62
     7
370
    30
100
AcDbCircle
 10
354.0422098401
 20
202.0455609325
 30
0.0
 40
8.00000000000001
100
AcDbArc
 50
70.4554066305
 51
74.2778957631
  0
ARC
  5
1BA
330
1F
100
AcDbEntity
  8
0
  6
Continuous
 62
     7
370
    30
100
AcDbCircle
 10
354.0422098401
 20
202.0455609325
 30
0.0
 40
8.00000000000001
100
AcDbArc
 50
63.1097903411
 51
70.4554066305
  0
ARC
  5
1BB
330
1F
100
AcDbEntity
  8
0
  6
Continuous
 62
     7
370
    30
100
AcDbCircle
 10
354.0422098401
 20
202.0455609325
 30
0.0
 40
7.999999999999995
100
AcDbArc
 50
14.6209925551
 51
21.8714673107
  0
ARC
  5
1BC
330
1F
100
AcDbEntity
  8
0
  6
Continuous
 62
     7
370
    30
100
AcDbCircle
 10
354.0422098401
 20
202.0455609325
 30
0.0
 40
7.999999999999995
100
AcDbArc
 50
10.9213751748
 51
14.6209925551
  0
ARC
  5
1BD
330
1F
100
AcDbEntity
  8
0
  6
Continuous
 62
     7
370
    30
100
AcDbCircle
 10
88.4210230422
 20
150.7922060041
 30
0.0
 40
278.5208333333343
100
AcDbArc
 50
349.0786248252
 51
10.9213751748
  0
ARC
  5
1BE
330
1F
100
AcDbEntity
  8
0
  6
Continuous
 62
     7
370
    30
100
AcDbCircle
 10
354.0422098401
 20
99.5388510756
 30
0.0
 40
8.000000000000021
100
AcDbArc
 50
345.379007445
 51
349.0786248252
  0
ARC
  5
1BF
330
1F
100
AcDbEntity
  8
0
  6
Continuous
 62
     7
370
    30
100
AcDbCircle
 10
354.0422098401
 20
99.5388510756
 30
0.0
 40
7.99999999999999
100
AcDbArc
 50
338.1285326893
 51
345.379007445
  0
ARC
  5
1C0
330
1F
100
AcDbEntity
  8
0
  6
Continuous
 62
     7
370
    30
100
AcDbCircle
 10
354.0422098401
 20
99.5388510756
 30
0.0
 40
8.000000000000016
100
AcDbArc
 50
289.5445933696
 51
296.8902096579
  0
ARC
  5
1C1
330
1F
100
AcDbEntity
  8
0
  6
Continuous
 62
     7
370
    30
100
AcDbCircle
 10
354.0422098401
 20
99.5388510756
 30
0.0
 40
8.000000000000016
100
AcDbArc
 50
285.7221042369
 51
289.5445933696
  0
ARC
  5
1C2
330
1F
100
AcDbEntity
  8
0
  6
Continuous
 62
     7
370
    30
100
AcDbCircle
 10
327.9418563755
 20
192.2564917184
 30
0.0
 40
104.3212818505352
100
AcDbArc
 50
284.1416174469
 51
285.7221042369
  0
ARC
  5
1C3
330
1F
100
AcDbEntity
  8
0
  6
Continuous
 62
     7
370
    30
100
AcDbCircle
 10
365.6455432418
 20
42.6119461155
 30
0.0
 40
49.99999999999998
100
AcDbArc
 50
104.1416174469
 51
104.5842190939
  0
ARC
  5
1C4
330
1F
100
AcDbEntity
  8
0
  6
Continuous
 62
     7
370
    30
100
AcDbCircle
 10
365.6455432418
 20
42.6119461155
 30
0.0
 40
49.99999999999999
100
AcDbArc
 50
104.5842190939
 51
116.0859288833
  0
ARC
  5
1C5
330
1F
100
AcDbEntity
  8
0
  6
Continuous
 62
     7
370
    30
100
AcDbCircle
 10
365.6455432418
 20
42.6119461155
 30
0.0
 40
49.99999999999999
100
AcDbArc
 50
116.0859288833
 51
116.3320621705
  0
ARC
  5
1C6
330
1F
100
AcDbEntity
  8
0
  6
Continuous
 62
     7
370
    30
100
AcDbCircle
 10
327.9418563755
 20
118.7922060041
 30
0.0
 40
35.0
100
AcDbArc
 50
275.327997904
 51
296.3320621705
  0
LINE
  5
1C7
330
1F
100
AcDbEntity
  8
0
  6
Continuous
 62
     7
370
    30
100
AcDbLine
 10
331.1918563755
 20
83.9434255376
 30
0.0
 11
331.1918563755
 21
84.9480209459
 31
0.0
  0
ARC
  5
1C8
330
1F
100
AcDbEntity
  8
0
  6
Continuous
 62
     7
370
    30
100
AcDbCircle
 10
354.0422098401
 20
202.0455609325
 30
0.0
 40
7.000000000000012
100
AcDbArc
 50
21.8714673107
 51
63.1097903411
  0
ARC
  5
1C9
330
1F
100
AcDbEntity
  8
0
  6
Continuous
 62
     7
370
    30
100
AcDbCircle
 10
301.8415029109
 20
202.0455609325
 30
0.0
 40
7.000000000000014
100
AcDbArc
 50
116.8902096579
 51
158.1285326893
  0
ARC
  5
1CA
330
1F
100
AcDbEntity
  8
0
  6
Continuous
 62
     7
370
    30
100
AcDbCircle
 10
354.0422098401
 20
99.5388510756
 30
0.0
 40
6.999999999999977
100
AcDbArc
 50
296.8902096579
 51
338.1285326893
  0
ARC
  5
1CB
330
1F
100
AcDbEntity
  8
0
  6
Continuous
 62
     7
370
    30
100
AcDbCircle
 10
301.8415029109
 20
99.5388510756
 30
0.0
 40
6.999999999999972
100
AcDbArc
 50
201.8714673107
 51
243.1097903421
  0
ARC
  5
1CC
330
1F
100
AcDbEntity
  8
0
  6
Continuous
 62
     7
370
    30
100
AcDbCircle
 10
354.0422098401
 20
202.0455609325
 30
0.0
 40
8.000000000000002
100
AcDbArc
 50
21.8714673107
 51
63.1097903411
  0
ARC
  5
1CD
330
1F
100
AcDbEntity
  8
0
  6
Continuous
 62
     7
370
    30
100
AcDbCircle
 10
301.8415029109
 20
202.0455609325
 30
0.0
 40
7.999999999999981
100
AcDbArc
 50
116.8902096579
 51
158.1285326893
  0
ARC
  5
1CE
330
1F
100
AcDbEntity
  8
0
  6
Continuous
 62
     7
370
    30
100
AcDbCircle
 10
354.0422098401
 20
99.5388510756
 30
0.0
 40
8.0
100
AcDbArc
 50
296.8902096579
 51
338.1285326893
  0
ARC
  5
1CF
330
1F
100
AcDbEntity
  8
0
  6
Continuous
 62
     7
370
    30
100
AcDbCircle
 10
301.8415029109
 20
99.5388510756
 30
0.0
 40
7.999999999999957
100
AcDbArc
 50
201.8714673107
 51
243.1097903421
  0
SPLINE
  5
1D0
330
1F
100
AcDbEntity
  8
0
  6
Continuous
 62
     7
370
    30
100
AcDbSpline
210
0.0
220
0.0
230
1.0
 70
    24
 71
     3
 72
    10
 73
     6
 74
     0
 42
0.000000001
 43
0.00000001
 40
0.0
 40
0.0
 40
0.0
 40
0.0
 40
0.5
 40
0.5
 40
1.0
 40
1.0
 40
1.0
 40
1.0
 10
331.1918563755369
 20
85.31870156513597
 30
0.0
 10
331.1918563755369
 20
85.20110539484813
 30
0.0
 10
331.1918563755369
 20
85.11173790290611
 30
0.0
 10
331.1918563755369
 20
84.98743226930331
 30
0.0
 10
331.1918563755369
 20
84.9527767670215
 30
0.0
 10
331.1918563755369
 20
84.94802094588705
 30
0.0
  0
SPLINE
  5
1D1
330
1F
100
AcDbEntity
  8
0
  6
Continuous
 62
     7
370
    30
100
AcDbSpline
210
0.0
220
0.0
230
1.0
 70
     8
 71
     3
 72
    10
 73
     6
 74
     0
 42
0.000000001
 43
0.00000001
 40
0.0
 40
0.0
 40
0.0
 40
0.0
 40
0.5
 40
0.5
 40
1.0
 40
1.0
 40
1.0
 40
1.0
 10
324.6918563755369
 20
84.34861894098302
 30
0.0
 10
325.7729220244073
 20
84.24659657118767
 30
0.0
 10
326.8558238454951
 20
84.1956450557499
 30
0.0
 10
329.0252883187845
 20
84.19556350483677
 30
0.0
 10
330.1107907250912
 20
84.24659657103896
 30
0.0
 10
331.1918563755369
 20
84.34861894098299
 30
0.0
  0
LINE
  5
1D2
330
1F
100
AcDbEntity
  8
0
  6
Continuous
 62
     7
370
    30
100
AcDbLine
 10
314.2918563755
 20
115.7922060041
 30
0.0
 11
341.5918563755
 21
115.7922060041
 31
0.0
  0
ARC
  5
1D3
330
1F
100
AcDbEntity
  8
0
  6
Continuous
 62
     7
370
    30
100
AcDbCircle
 10
341.5918563755
 20
116.7922060041
 30
0.0
 40
1.000000000000014
100
AcDbArc
 50
270.0
 51
0.0
  0
LINE
  5
1D4
330
1F
100
AcDbEntity
  8
0
  6
Continuous
 62
     7
370
    30
100
AcDbLine
 10
342.5918563755
 20
116.7922060041
 30
0.0
 11
342.5918563755
 21
184.7922060041
 31
0.0
  0
ARC
  5
1D5
330
1F
100
AcDbEntity
  8
0
  6
Continuous
 62
     7
370
    30
100
AcDbCircle
 10
341.5918563755
 20
184.7922060041
 30
0.0
 40
1.0
100
AcDbArc
 50
0.0
 51
90.0
  0
LINE
  5
1D6
330
1F
100
AcDbEntity
  8
0
  6
Continuous
 62
     7
370
    30
100
AcDbLine
 10
341.5918563755
 20
185.7922060041
 30
0.0
 11
314.2918563755
 21
185.7922060041
 31
0.0
  0
ARC
  5
1D7
330
1F
100
AcDbEntity
  8
0
  6
Continuous
 62
     7
370
    30
100
AcDbCircle
 10
314.2918563755
 20
184.7922060041
 30
0.0
 40
1.0
100
AcDbArc
 50
90.0
 51
180.0
  0
LINE
  5
1D8
330
1F
100
AcDbEntity
  8
0
  6
Continuous
 62
     7
370
    30
100
AcDbLine
 10
313.2918563755
 20
184.7922060041
 30
0.0
 11
313.2918563755
 21
116.7922060041
 31
0.0
  0
ARC
  5
1D9
330
1F
100
AcDbEntity
  8
0
  6
Continuous
 62
     7
370
    30
100
AcDbCircle
 10
314.2918563755
 20
116.7922060041
 30
0.0
 40
1.000000000000014
100
AcDbArc
 50
180.0
 51
270.0
  0
LINE
  5
1DA
330
1F
100
AcDbEntity
  8
0
  6
Continuous
 62
     7
370
    30
100
AcDbLine
 10
314.2918563755
 20
114.7922060041
 30
0.0
 11
341.5918563755
 21
114.7922060041
 31
0.0
  0
ARC
  5
1DB
330
1F
100
AcDbEntity
  8
0
  6
Continuous
 62
     7
370
    30
100
AcDbCircle
 10
314.2918563755
 20
116.7922060041
 30
0.0
 40
2.000000000000014
100
AcDbArc
 50
180.0
 51
270.0
  0
LINE
  5
1DC
330
1F
100
AcDbEntity
  8
0
  6
Continuous
 62
     7
370
    30
100
AcDbLine
 10
312.2918563755
 20
184.7922060041
 30
0.0
 11
312.2918563755
 21
116.7922060041
 31
0.0
  0
ARC
  5
1DD
330
1F
100
AcDbEntity
  8
0
  6
Continuous
 62
     7
370
    30
100
AcDbCircle
 10
314.2918563755
 20
184.7922060041
 30
0.0
 40
2.000000000000028
100
AcDbArc
 50
90.0
 51
180.0
  0
LINE
  5
1DE
330
1F
100
AcDbEntity
  8
0
  6
Continuous
 62
     7
370
    30
100
AcDbLine
 10
341.5918563755
 20
186.7922060041
 30
0.0
 11
314.2918563755
 21
186.7922060041
 31
0.0
  0
ARC
  5
1DF
330
1F
100
AcDbEntity
  8
0
  6
Continuous
 62
     7
370
    30
100
AcDbCircle
 10
341.5918563755
 20
116.7922060041
 30
0.0
 40
2.000000000000014
100
AcDbArc
 50
270.0
 51
0.0
  0
ARC
  5
1E0
330
1F
100
AcDbEntity
  8
0
  6
Continuous
 62
     7
370
    30
100
AcDbCircle
 10
341.5918563755
 20
184.7922060041
 30
0.0
 40
2.000000000000028
100
AcDbArc
 50
0.0
 51
90.0
  0
LINE
  5
1E1
330
1F
100
AcDbEntity
  8
0
  6
Continuous
 62
     7
370
    30
100
AcDbLine
 10
343.5918563755
 20
116.7922060041
 30
0.0
 11
343.5918563755
 21
184.7922060041
 31
0.0
  0
ENDSEC
  0
SECTION
  2
OBJECTS
  0
DICTIONARY
  5
C
330
0
100
AcDbDictionary
281
     1
  3
ACAD_GROUP
350
D
  3
ACAD_LAYOUT
350
1A
  3
ACAD_MLINESTYLE
350
17
  3
ACAD_PLOTSETTINGS
350
19
  3
ACAD_PLOTSTYLENAME
350
E
  3
ACAD_SCALELIST
350
47
  0
DICTIONARY
  5
D
102
{ACAD_REACTORS
330
C
102
}
330
C
100
AcDbDictionary
281
     1
  0
DICTIONARY
  5
1A
102
{ACAD_REACTORS
330
C
102
}
330
C
100
AcDbDictionary
281
     1
  3
Layout1
350
1E
  3
Layout2
350
26
  3
Model
350
22
  0
DICTIONARY
  5
17
102
{ACAD_REACTORS
330
C
102
}
330
C
100
AcDbDictionary
281
     1
  3
Standard
350
18
  0
DICTIONARY
  5
19
102
{ACAD_REACTORS
330
C
102
}
330
C
100
AcDbDictionary
281
     1
  0
ACDBDICTIONARYWDFLT
  5
E
102
{ACAD_REACTORS
330
C
102
}
330
C
100
AcDbDictionary
281
     1
  3
Normal
350
F
100
AcDbDictionaryWithDefault
340
F
  0
DICTIONARY
  5
47
102
{ACAD_REACTORS
330
C
102
}
330
C
100
AcDbDictionary
281
     1
  3
A0
350
48
  3
A1
350
49
  3
A2
350
4A
  3
A3
350
4B
  3
A4
350
4C
  3
A5
350
4D
  3
A6
350
4E
  3
A7
350
4F
  3
A8
350
50
  3
A9
350
51
  3
B0
350
52
  3
B1
350
53
  3
B2
350
54
  3
B3
350
55
  3
B4
350
56
  3
B5
350
57
  3
B6
350
58
  3
B7
350
59
  3
B8
350
5A
  3
B9
350
5B
  3
C0
350
5C
  3
C1
350
5D
  3
C2
350
5E
  3
C3
350
5F
  3
C4
350
60
  3
C5
350
61
  3
C6
350
62
  3
C7
350
63
  3
C8
350
64
  3
C9
350
65
  3
D0
350
66
  3
D1
350
67
  3
D2
350
68
  0
LAYOUT
  5
1E
102
{ACAD_REACTORS
330
1A
102
}
330
1A
100
AcDbPlotSettings
  1

  2
none_device
  4

  6

 40
0.0
 41
0.0
 42
0.0
 43
0.0
 44
0.0
 45
0.0
 46
0.0
 47
0.0
 48
0.0
 49
0.0
140
0.0
141
0.0
142
1.0
143
1.0
 70
   688
 72
     1
 73
     0
 74
     5
  7

 75
    16
147
1.0
148
0.0
149
0.0
100
AcDbLayout
  1
Layout1
 70
     1
 71
     1
 10
0.0
 20
0.0
 11
420.0
 21
297.0
 12
0.0
 22
0.0
 32
0.0
 14
1.0000000000E+20
 24
1.0000000000E+20
 34
1.0000000000E+20
 15
-1.0000000000E+20
 25
-1.0000000000E+20
 35
-1.0000000000E+20
146
0.0
 13
0.0
 23
0.0
 33
0.0
 16
1.0
 26
0.0
 36
0.0
 17
0.0
 27
1.0
 37
0.0
 76
     0
330
1B
  0
LAYOUT
  5
26
102
{ACAD_REACTORS
330
1A
102
}
330
1A
100
AcDbPlotSettings
  1

  2
none_device
  4

  6

 40
0.0
 41
0.0
 42
0.0
 43
0.0
 44
0.0
 45
0.0
 46
0.0
 47
0.0
 48
0.0
 49
0.0
140
0.0
141
0.0
142
1.0
143
1.0
 70
   688
 72
     1
 73
     0
 74
     5
  7

 75
    16
147
1.0
148
0.0
149
0.0
100
AcDbLayout
  1
Layout2
 70
     1
 71
     2
 10
0.0
 20
0.0
 11
0.0
 21
0.0
 12
0.0
 22
0.0
 32
0.0
 14
0.0
 24
0.0
 34
0.0
 15
0.0
 25
0.0
 35
0.0
146
0.0
 13
0.0
 23
0.0
 33
0.0
 16
1.0
 26
0.0
 36
0.0
 17
0.0
 27
1.0
 37
0.0
 76
     0
330
23
  0
LAYOUT
  5
22
102
{ACAD_REACTORS
330
1A
102
}
330
1A
100
AcDbPlotSettings
  1

  2
none_device
  4
Letter_(8.50_x_11.00_Inches)
  6

 40
6.35
 41
6.35
 42
6.35000508
 43
6.35000508
 44
215.9
 45
279.4
 46
0.0
 47
0.0
 48
0.0
 49
0.0
140
0.0
141
0.0
142
1.0
143
1.0
 70
  1712
 72
     1
 73
     0
 74
     0
  7

 75
     0
147
1.0
148
0.0
149
0.0
100
AcDbLayout
  1
Model
 70
     1
 71
     0
 10
0.0
 20
0.0
 11
420.0
 21
297.0
 12
0.0
 22
0.0
 32
0.0
 14
0.0
 24
0.0
 34
0.0
 15
420.0
 25
297.0
 35
0.0
146
0.0
 13
0.0
 23
0.0
 33
0.0
 16
1.0
 26
0.0
 36
0.0
 17
0.0
 27
1.0
 37
0.0
 76
     0
330
1F
331
29
  0
MLINESTYLE
  5
18
102
{ACAD_REACTORS
330
17
102
}
330
17
100
AcDbMlineStyle
  2
Standard
 70
     0
  3

 62
   256
 51
90.0
 52
90.0
 71
     2
 49
0.5
 62
   256
  6
BYLAYER
 49
-0.5
 62
   256
  6
BYLAYER
  0
ACDBPLACEHOLDER
  5
F
102
{ACAD_REACTORS
330
E
102
}
330
E
  0
SCALE
  5
48
102
{ACAD_REACTORS
330
47
102
}
330
47
100
AcDbScale
 70
     0
300
1:1
140
1.0
141
1.0
290
     1
  0
SCALE
  5
49
102
{ACAD_REACTORS
330
47
102
}
330
47
100
AcDbScale
 70
     0
300
1:2
140
1.0
141
2.0
290
     0
  0
SCALE
  5
4A
102
{ACAD_REACTORS
330
47
102
}
330
47
100
AcDbScale
 70
     0
300
1:4
140
1.0
141
4.0
290
     0
  0
SCALE
  5
4B
102
{ACAD_REACTORS
330
47
102
}
330
47
100
AcDbScale
 70
     0
300
1:5
140
1.0
141
5.0
290
     0
  0
SCALE
  5
4C
102
{ACAD_REACTORS
330
47
102
}
330
47
100
AcDbScale
 70
     0
300
1:8
140
1.0
141
8.0
290
     0
  0
SCALE
  5
4D
102
{ACAD_REACTORS
330
47
102
}
330
47
100
AcDbScale
 70
     0
300
1:10
140
1.0
141
10.0
290
     0
  0
SCALE
  5
4E
102
{ACAD_REACTORS
330
47
102
}
330
47
100
AcDbScale
 70
     0
300
1:16
140
1.0
141
16.0
290
     0
  0
SCALE
  5
4F
102
{ACAD_REACTORS
330
47
102
}
330
47
100
AcDbScale
 70
     0
300
1:20
140
1.0
141
20.0
290
     0
  0
SCALE
  5
50
102
{ACAD_REACTORS
330
47
102
}
330
47
100
AcDbScale
 70
     0
300
1:30
140
1.0
141
30.0
290
     0
  0
SCALE
  5
51
102
{ACAD_REACTORS
330
47
102
}
330
47
100
AcDbScale
 70
     0
300
1:40
140
1.0
141
40.0
290
     0
  0
SCALE
  5
52
102
{ACAD_REACTORS
330
47
102
}
330
47
100
AcDbScale
 70
     0
300
1:50
140
1.0
141
50.0
290
     0
  0
SCALE
  5
53
102
{ACAD_REACTORS
330
47
102
}
330
47
100
AcDbScale
 70
     0
300
1:100
140
1.0
141
100.0
290
     0
  0
SCALE
  5
54
102
{ACAD_REACTORS
330
47
102
}
330
47
100
AcDbScale
 70
     0
300
2:1
140
2.0
141
1.0
290
     0
  0
SCALE
  5
55
102
{ACAD_REACTORS
330
47
102
}
330
47
100
AcDbScale
 70
     0
300
4:1
140
4.0
141
1.0
290
     0
  0
SCALE
  5
56
102
{ACAD_REACTORS
330
47
102
}
330
47
100
AcDbScale
 70
     0
300
8:1
140
8.0
141
1.0
290
     0
  0
SCALE
  5
57
102
{ACAD_REACTORS
330
47
102
}
330
47
100
AcDbScale
 70
     0
300
10:1
140
10.0
141
1.0
290
     0
  0
SCALE
  5
58
102
{ACAD_REACTORS
330
47
102
}
330
47
100
AcDbScale
 70
     0
300
100:1
140
100.0
141
1.0
290
     0
  0
SCALE
  5
59
102
{ACAD_REACTORS
330
47
102
}
330
47
100
AcDbScale
 70
     0
300
1/128" = 1'-0"
140
0.0078125
141
12.0
290
     0
  0
SCALE
  5
5A
102
{ACAD_REACTORS
330
47
102
}
330
47
100
AcDbScale
 70
     0
300
1/64" = 1'-0"
140
0.015625
141
12.0
290
     0
  0
SCALE
  5
5B
102
{ACAD_REACTORS
330
47
102
}
330
47
100
AcDbScale
 70
     0
300
1/32" = 1'-0"
140
0.03125
141
12.0
290
     0
  0
SCALE
  5
5C
102
{ACAD_REACTORS
330
47
102
}
330
47
100
AcDbScale
 70
     0
300
1/16" = 1'-0"
140
0.0625
141
12.0
290
     0
  0
SCALE
  5
5D
102
{ACAD_REACTORS
330
47
102
}
330
47
100
AcDbScale
 70
     0
300
3/32" = 1'-0"
140
0.09375
141
12.0
290
     0
  0
SCALE
  5
5E
102
{ACAD_REACTORS
330
47
102
}
330
47
100
AcDbScale
 70
     0
300
1/8" = 1'-0"
140
0.125
141
12.0
290
     0
  0
SCALE
  5
5F
102
{ACAD_REACTORS
330
47
102
}
330
47
100
AcDbScale
 70
     0
300
3/16" = 1'-0"
140
0.1875
141
12.0
290
     0
  0
SCALE
  5
60
102
{ACAD_REACTORS
330
47
102
}
330
47
100
AcDbScale
 70
     0
300
1/4" = 1'-0"
140
0.25
141
12.0
290
     0
  0
SCALE
  5
61
102
{ACAD_REACTORS
330
47
102
}
330
47
100
AcDbScale
 70
     0
300
3/8" = 1'-0"
140
0.375
141
12.0
290
     0
  0
SCALE
  5
62
102
{ACAD_REACTORS
330
47
102
}
330
47
100
AcDbScale
 70
     0
300
1/2" = 1'-0"
140
0.5
141
12.0
290
     0
  0
SCALE
  5
63
102
{ACAD_REACTORS
330
47
102
}
330
47
100
AcDbScale
 70
     0
300
3/4" = 1'-0"
140
0.75
141
12.0
290
     0
  0
SCALE
  5
64
102
{ACAD_REACTORS
330
47
102
}
330
47
100
AcDbScale
 70
     0
300
1" = 1'-0"
140
1.0
141
12.0
290
     0
  0
SCALE
  5
65
102
{ACAD_REACTORS
330
47
102
}
330
47
100
AcDbScale
 70
     0
300
1-1/2" = 1'-0"
140
1.5
141
12.0
290
     0
  0
SCALE
  5
66
102
{ACAD_REACTORS
330
47
102
}
330
47
100
AcDbScale
 70
     0
300
3" = 1'-0"
140
3.0
141
12.0
290
     0
  0
SCALE
  5
67
102
{ACAD_REACTORS
330
47
102
}
330
47
100
AcDbScale
 70
     0
300
6" = 1'-0"
140
6.0
141
12.0
290
     0
  0
SCALE
  5
68
102
{ACAD_REACTORS
330
47
102
}
330
47
100
AcDbScale
 70
     0
300
1'-0" = 1'-0"
140
12.0
141
12.0
290
     0
  0
ENDSEC
  0
EOF
