  0
SECTION
  2
HEADER
  9
$ACADVER
  1
AC1015
  9
$ACADMAINTVER
 70
     6
  9
$DWGCODEPAGE
  3
DOS932
  9
$INSBASE
 10
0.0
 20
0.0
 30
0.0
  9
$EXTMIN
 10
0.0
 20
0.0
 30
0.0
  9
$EXTMAX
 10
420.0
 20
297.0
 30
0.0
  9
$LIMMIN
 10
0.0
 20
0.0
  9
$LIMMAX
 10
420.0
 20
297.0
  9
$ORTHOMODE
 70
     0
  9
$REGENMODE
 70
     1
  9
$FILLMODE
 70
     1
  9
$QTEXTMODE
 70
     0
  9
$MIRRTEXT
 70
     1
  9
$LTSCALE
 40
1.0
  9
$ATTMODE
 70
     1
  9
$TEXTSIZE
 40
3.8805555556
  9
$TRACEWID
 40
1.0
  9
$TEXTSTYLE
  7
Standard
  9
$CLAYER
  8
0
  9
$CELTYPE
  6
ByLayer
  9
$CECOLOR
 62
   256
  9
$CELTSCALE
 40
1.0
  9
$DISPSILH
 70
     0
  9
$DIMSCALE
 40
1.0
  9
$DIMASZ
 40
3.0
  9
$DIMEXO
 40
0.0
  9
$DIMDLI
 40
3.75
  9
$DIMRND
 40
0.0
  9
$DIMDLE
 40
0.0
  9
$DIMEXE
 40
1.0
  9
$DIMTP
 40
0.0
  9
$DIMTM
 40
0.0
  9
$DIMTXT
 40
3.5277777778
  9
$DIMCEN
 40
2.5
  9
$DIMTSZ
 40
0.0
  9
$DIMTOL
 70
     0
  9
$DIMLIM
 70
     0
  9
$DIMTIH
 70
     1
  9
$DIMTOH
 70
     1
  9
$DIMSE1
 70
     0
  9
$DIMSE2
 70
     0
  9
$DIMTAD
 70
     1
  9
$DIMZIN
 70
     0
  9
$DIMBLK
  1

  9
$DIMASO
 70
     1
  9
$DIMSHO
 70
     1
  9
$DIMPOST
  1

  9
$DIMAPOST
  1

  9
$DIMALT
 70
     0
  9
$DIMALTD
 70
     3
  9
$DIMALTF
 40
0.0393700787
  9
$DIMLFAC
 40
1.0
  9
$DIMTOFL
 70
     1
  9
$DIMTVP
 40
0.0
  9
$DIMTIX
 70
     0
  9
$DIMSOXD
 70
     0
  9
$DIMSAH
 70
     0
  9
$DIMBLK1
  1

  9
$DIMBLK2
  1

  9
$DIMSTYLE
  2
ISO-25
  9
$DIMCLRD
 70
     0
  9
$DIMCLRE
 70
     0
  9
$DIMCLRT
 70
     0
  9
$DIMTFAC
 40
1.0
  9
$DIMGAP
 40
1.0
  9
$DIMJUST
 70
     0
  9
$DIMSD1
 70
     0
  9
$DIMSD2
 70
     0
  9
$DIMTOLJ
 70
     0
  9
$DIMTZIN
 70
     0
  9
$DIMALTZ
 70
     0
  9
$DIMALTTZ
 70
     0
  9
$DIMUPT
 70
     0
  9
$DIMDEC
 70
     2
  9
$DIMTDEC
 70
     2
  9
$DIMALTU
 70
     2
  9
$DIMALTTD
 70
     3
  9
$DIMTXSTY
  7
Standard
  9
$DIMAUNIT
 70
     0
  9
$DIMADEC
 70
     2
  9
$DIMALTRND
 40
0.0
  9
$DIMAZIN
 70
     0
  9
$DIMDSEP
 70
    44
  9
$DIMATFIT
 70
     3
  9
$DIMFRAC
 70
     0
  9
$DIMLDRBLK
  1

  9
$DIMLUNIT
 70
     2
  9
$DIMLWD
 70
    -2
  9
$DIMLWE
 70
    -2
  9
$DIMTMOVE
 70
     0
  9
$LUNITS
 70
     2
  9
$LUPREC
 70
     2
  9
$SKETCHINC
 40
1.0
  9
$FILLETRAD
 40
10.0
  9
$AUNITS
 70
     0
  9
$AUPREC
 70
     2
  9
$MENU
  1
.
  9
$ELEVATION
 40
0.0
  9
$PELEVATION
 40
0.0
  9
$THICKNESS
 40
0.0
  9
$LIMCHECK
 70
     0
  9
$CHAMFERA
 40
0.0
  9
$CHAMFERB
 40
0.0
  9
$CHAMFERC
 40
0.0
  9
$CHAMFERD
 40
0.0
  9
$SKPOLY
 70
     0
  9
$TDCREATE
 40
2458620.826398253
  9
$TDUCREATE
 40
2458620.451398253
  9
$TDUPDATE
 40
2458620.826398889
  9
$TDUUPDATE
 40
2458620.451398889
  9
$TDINDWG
 40
0.0000000116
  9
$TDUSRTIMER
 40
0.0000000116
  9
$USRTIMER
 70
     1
  9
$ANGBASE
 50
0.0
  9
$ANGDIR
 70
     0
  9
$PDMODE
 70
     0
  9
$PDSIZE
 40
-1.0
  9
$PLINEWID
 40
0.0
  9
$SPLFRAME
 70
     0
  9
$SPLINETYPE
 70
     6
  9
$SPLINESEGS
 70
     8
  9
$HANDSEED
  5
1BF
  9
$SURFTAB1
 70
     6
  9
$SURFTAB2
 70
     6
  9
$SURFTYPE
 70
     6
  9
$SURFU
 70
     6
  9
$SURFV
 70
     6
  9
$UCSBASE
  2

  9
$UCSNAME
  2

  9
$UCSORG
 10
0.0
 20
0.0
 30
0.0
  9
$UCSXDIR
 10
1.0
 20
0.0
 30
0.0
  9
$UCSYDIR
 10
0.0
 20
1.0
 30
0.0
  9
$UCSORTHOREF
  2

  9
$UCSORTHOVIEW
 70
     0
  9
$UCSORGTOP
 10
0.0
 20
0.0
 30
0.0
  9
$UCSORGBOTTOM
 10
0.0
 20
0.0
 30
0.0
  9
$UCSORGLEFT
 10
0.0
 20
0.0
 30
0.0
  9
$UCSORGRIGHT
 10
0.0
 20
0.0
 30
0.0
  9
$UCSORGFRONT
 10
0.0
 20
0.0
 30
0.0
  9
$UCSORGBACK
 10
0.0
 20
0.0
 30
0.0
  9
$PUCSBASE
  2

  9
$PUCSNAME
  2

  9
$PUCSORG
 10
0.0
 20
0.0
 30
0.0
  9
$PUCSXDIR
 10
1.0
 20
0.0
 30
0.0
  9
$PUCSYDIR
 10
0.0
 20
1.0
 30
0.0
  9
$PUCSORTHOREF
  2

  9
$PUCSORTHOVIEW
 70
     0
  9
$PUCSORGTOP
 10
0.0
 20
0.0
 30
0.0
  9
$PUCSORGBOTTOM
 10
0.0
 20
0.0
 30
0.0
  9
$PUCSORGLEFT
 10
0.0
 20
0.0
 30
0.0
  9
$PUCSORGRIGHT
 10
0.0
 20
0.0
 30
0.0
  9
$PUCSORGFRONT
 10
0.0
 20
0.0
 30
0.0
  9
$PUCSORGBACK
 10
0.0
 20
0.0
 30
0.0
  9
$USERI1
 70
     0
  9
$USERI2
 70
     0
  9
$USERI3
 70
     0
  9
$USERI4
 70
     0
  9
$USERI5
 70
     0
  9
$USERR1
 40
0.0
  9
$USERR2
 40
0.0
  9
$USERR3
 40
0.0
  9
$USERR4
 40
0.0
  9
$USERR5
 40
0.0
  9
$WORLDVIEW
 70
     1
  9
$SHADEDGE
 70
     3
  9
$SHADEDIF
 70
    70
  9
$TILEMODE
 70
     1
  9
$MAXACTVP
 70
    64
  9
$PINSBASE
 10
0.0
 20
0.0
 30
0.0
  9
$PLIMCHECK
 70
     0
  9
$PEXTMIN
 10
1.0000000000E+20
 20
1.0000000000E+20
 30
1.0000000000E+20
  9
$PEXTMAX
 10
-1.0000000000E+20
 20
-1.0000000000E+20
 30
-1.0000000000E+20
  9
$PLIMMIN
 10
0.0
 20
0.0
  9
$PLIMMAX
 10
420.0
 20
297.0
  9
$UNITMODE
 70
     0
  9
$VISRETAIN
 70
     1
  9
$PLINEGEN
 70
     0
  9
$PSLTSCALE
 70
     1
  9
$TREEDEPTH
 70
  3020
  9
$CMLSTYLE
  2
Standard
  9
$CMLJUST
 70
     0
  9
$CMLSCALE
 40
20.0
  9
$PROXYGRAPHICS
 70
     1
  9
$MEASUREMENT
 70
     1
  9
$CELWEIGHT
370
    -1
  9
$ENDCAPS
280
     0
  9
$JOINSTYLE
280
     0
  9
$LWDISPLAY
290
     1
  9
$INSUNITS
 70
     4
  9
$HYPERLINKBASE
  1

  9
$STYLESHEET
  1

  9
$XEDIT
290
     1
  9
$CEPSNTYPE
380
     0
  9
$PSTYLEMODE
290
     1
  9
$FINGERPRINTGUID
  2
{9CF90346-C3B7-4CF4-AFD9-9290FFBCC07F}
  9
$VERSIONGUID
  2
{FAEB1C32-E019-11D5-929B-00C0DF256EC4}
  9
$EXTNAMES
290
     1
  9
$PSVPSCALE
 40
0.0
  9
$OLESTARTUP
290
     0
  0
ENDSEC
  0
SECTION
  2
CLASSES
  0
CLASS
  1
ACDBDICTIONARYWDFLT
  2
AcDbDictionaryWithDefault
  3
ObjectDBX Classes
 90
        0
280
     0
281
     0
  0
CLASS
  1
VISUALSTYLE
  2
AcDbVisualStyle
  3
ObjectDBX Classes
 90
     4095
280
     0
281
     0
  0
CLASS
  1
MATERIAL
  2
AcDbMaterial
  3
ObjectDBX Classes
 90
     1153
280
     0
281
     0
  0
CLASS
  1
SCALE
  2
AcDbScale
  3
ObjectDBX Classes
 90
     1153
280
     0
281
     0
  0
CLASS
  1
TABLESTYLE
  2
AcDbTableStyle
  3
ObjectDBX Classes
 90
     4095
280
     0
281
     0
  0
CLASS
  1
MLEADERSTYLE
  2
AcDbMLeaderStyle
  3
ACDB_MLEADERSTYLE_CLASS
 90
     4095
280
     0
281
     0
  0
CLASS
  1
SUN
  2
AcDbSun
  3
SCENEOE
 90
     1153
280
     0
281
     0
  0
CLASS
  1
ACDBPLACEHOLDER
  2
AcDbPlaceHolder
  3
ObjectDBX Classes
 90
        0
280
     0
281
     0
  0
CLASS
  1
LAYOUT
  2
AcDbLayout
  3
ObjectDBX Classes
 90
        0
280
     0
281
     0
  0
ENDSEC
  0
SECTION
  2
TABLES
  0
TABLE
  2
VPORT
  5
8
330
0
100
AcDbSymbolTable
 70
     1
  0
VPORT
  5
29
330
8
100
AcDbSymbolTableRecord
100
AcDbViewportTableRecord
  2
*Active
 70
     0
 10
0.0
 20
0.0
 11
1.0
 21
1.0
 12
210.0
 22
148.5
 13
0.0
 23
0.0
 14
10.0
 24
10.0
 15
10.0
 25
10.0
 16
0.0
 26
0.0
 36
1.0
 17
0.0
 27
0.0
 37
0.0
 40
297.0
 41
1.4141414141
 42
50.0
 43
0.0
 44
0.0
 50
0.0
 51
0.0
 71
     0
 72
  2000
 73
     1
 74
     3
 75
     0
 76
     0
 77
     0
 78
     0
281
     0
 65
     1
110
0.0
120
0.0
130
0.0
111
1.0
121
0.0
131
0.0
112
0.0
122
1.0
132
0.0
 79
     0
146
0.0
  0
ENDTAB
  0
TABLE
  2
LTYPE
  5
5
330
0
100
AcDbSymbolTable
 70
     6
  0
LTYPE
  5
14
330
5
100
AcDbSymbolTableRecord
100
AcDbLinetypeTableRecord
  2
ByBlock
 70
     0
  3

 72
    65
 73
     0
 40
0.0
  0
LTYPE
  5
15
330
5
100
AcDbSymbolTableRecord
100
AcDbLinetypeTableRecord
  2
ByLayer
 70
     0
  3

 72
    65
 73
     0
 40
0.0
  0
LTYPE
  5
16
330
5
100
AcDbSymbolTableRecord
100
AcDbLinetypeTableRecord
  2
Continuous
 70
     0
  3
Solid line
 72
    65
 73
     0
 40
0.0
  0
LTYPE
  5
6E
330
5
100
AcDbSymbolTableRecord
100
AcDbLinetypeTableRecord
  2
HIDDEN
 70
     0
  3
Hidden __ __ __ __ __ __ __ __ __ __ __ __ __ __
 72
    65
 73
     2
 40
1.905
 49
1.27
 74
     0
 49
-0.635
 74
     0
  0
LTYPE
  5
6F
330
5
100
AcDbSymbolTableRecord
100
AcDbLinetypeTableRecord
  2
PHANTOM
 70
     0
  3
Phantom ______  __  __  ______  __  __  ______
 72
    65
 73
     6
 40
12.7
 49
6.35
 74
     0
 49
-1.27
 74
     0
 49
1.27
 74
     0
 49
-1.27
 74
     0
 49
1.27
 74
     0
 49
-1.27
 74
     0
  0
LTYPE
  5
70
330
5
100
AcDbSymbolTableRecord
100
AcDbLinetypeTableRecord
  2
CENTER
 70
     0
  3
Center ____ _ ____ _ ____ _ ____ _ ____ _ ____
 72
    65
 73
     4
 40
10.16
 49
6.35
 74
     0
 49
-1.27
 74
     0
 49
1.27
 74
     0
 49
-1.27
 74
     0
  0
LTYPE
  5
71
330
5
100
AcDbSymbolTableRecord
100
AcDbLinetypeTableRecord
  2
CENTERX2
 70
     0
  3
Center (2x) ________  __  ________  __  _____
 72
    65
 73
     4
 40
20.32
 49
12.7
 74
     0
 49
-2.54
 74
     0
 49
2.54
 74
     0
 49
-2.54
 74
     0
  0
LTYPE
  5
72
330
5
100
AcDbSymbolTableRecord
100
AcDbLinetypeTableRecord
  2
DOT2
 70
     0
  3
Dot (.5x) ........................................
 72
    65
 73
     2
 40
0.635
 49
0.0
 74
     0
 49
-0.635
 74
     0
  0
ENDTAB
  0
TABLE
  2
LAYER
  5
2
330
0
100
AcDbSymbolTable
 70
     6
  0
LAYER
  5
10
330
2
100
AcDbSymbolTableRecord
100
AcDbLayerTableRecord
  2
0
 70
     0
 62
     7
  6
Continuous
370
    -3
390
F
  0
LAYER
  5
73
330
2
100
AcDbSymbolTableRecord
100
AcDbLayerTableRecord
  2
SLD-0
 70
     0
 62
     7
  6
Continuous
370
    -3
390
F
  0
LAYER
  5
74
330
2
100
AcDbSymbolTableRecord
100
AcDbLayerTableRecord
  2
8
 70
     0
 62
     7
  6
Continuous
370
    15
390
F
  0
LAYER
  5
75
330
2
100
AcDbSymbolTableRecord
100
AcDbLayerTableRecord
  2
9
 70
     0
 62
     7
  6
Continuous
370
    -3
390
F
  0
LAYER
  5
76
330
2
100
AcDbSymbolTableRecord
100
AcDbLayerTableRecord
  2
10
 70
     0
 62
     1
  6
Continuous
370
    -3
390
F
  0
LAYER
  5
77
330
2
100
AcDbSymbolTableRecord
100
AcDbLayerTableRecord
  2
11
 70
     0
 62
     7
  6
Continuous
370
    -3
390
F
  0
ENDTAB
  0
TABLE
  2
STYLE
  5
3
330
0
100
AcDbSymbolTable
 70
     2
  0
STYLE
  5
11
330
3
100
AcDbSymbolTableRecord
100
AcDbTextStyleTableRecord
  2
Standard
 70
     0
 40
0.0
 41
1.0
 50
0.0
 71
     0
 42
3.8805555556
  3
txt
  4
bigfont
  0
STYLE
  5
78
330
3
100
AcDbSymbolTableRecord
100
AcDbTextStyleTableRecord
  2
SLDTEXTSTYLE0
 70
     0
 40
0.0
 41
0.7
 50
0.0
 71
     0
 42
3.8805555556
  3
TXT
  4
bigfont
  0
ENDTAB
  0
TABLE
  2
VIEW
  5
6
330
0
100
AcDbSymbolTable
 70
     0
  0
ENDTAB
  0
TABLE
  2
UCS
  5
7
330
0
100
AcDbSymbolTable
 70
     0
  0
ENDTAB
  0
TABLE
  2
APPID
  5
9
330
0
100
AcDbSymbolTable
 70
     1
  0
APPID
  5
12
330
9
100
AcDbSymbolTableRecord
100
AcDbRegAppTableRecord
  2
ACAD
 70
     0
  0
ENDTAB
  0
TABLE
  2
DIMSTYLE
  5
A
330
0
100
AcDbSymbolTable
 70
     1
100
AcDbDimStyleTable
  0
DIMSTYLE
105
27
330
A
100
AcDbSymbolTableRecord
100
AcDbDimStyleTableRecord
  2
ISO-25
 70
     0
 41
2.5
 42
0.625
 43
3.75
 44
1.25
 73
     0
 74
     0
 77
     1
 78
     8
140
2.5
141
2.5
143
0.0393700787
147
0.625
171
     3
172
     1
178
     0
271
     2
272
     2
274
     3
278
    44
283
     0
284
     8
340
11
  0
ENDTAB
  0
TABLE
  2
BLOCK_RECORD
  5
1
330
0
100
AcDbSymbolTable
 70
     1
  0
BLOCK_RECORD
  5
1F
330
1
100
AcDbSymbolTableRecord
100
AcDbBlockTableRecord
  2
*Model_Space
340
22
  0
BLOCK_RECORD
  5
1B
330
1
100
AcDbSymbolTableRecord
100
AcDbBlockTableRecord
  2
*Paper_Space
340
1E
  0
BLOCK_RECORD
  5
23
330
1
100
AcDbSymbolTableRecord
100
AcDbBlockTableRecord
  2
*Paper_Space0
340
26
  0
ENDTAB
  0
ENDSEC
  0
SECTION
  2
BLOCKS
  0
BLOCK
  5
20
330
1F
100
AcDbEntity
  8
0
100
AcDbBlockBegin
  2
*Model_Space
 70
     0
 10
0.0
 20
0.0
 30
0.0
  3
*Model_Space
  1

  0
ENDBLK
  5
21
330
1F
100
AcDbEntity
  8
0
100
AcDbBlockEnd
  0
BLOCK
  5
1C
330
1B
100
AcDbEntity
 67
     1
  8
0
100
AcDbBlockBegin
  2
*Paper_Space
 70
     0
 10
0.0
 20
0.0
 30
0.0
  3
*Paper_Space
  1

  0
ENDBLK
  5
1D
330
1B
100
AcDbEntity
 67
     1
  8
0
100
AcDbBlockEnd
  0
BLOCK
  5
24
330
23
100
AcDbEntity
  8
0
100
AcDbBlockBegin
  2
*Paper_Space0
 70
     0
 10
0.0
 20
0.0
 30
0.0
  3
*Paper_Space0
  1

  0
ENDBLK
  5
25
330
23
100
AcDbEntity
  8
0
100
AcDbBlockEnd
  0
ENDSEC
  0
SECTION
  2
ENTITIES
  0
MTEXT
  5
79
330
1F
100
AcDbEntity
  8
9
 62
     7
100
AcDbMText
 10
22.9810592731
 20
14.7698939359
 30
0.0
 40
3.7041666667
 41
0.0
 71
     1
 72
     1
  1
2015/05/21
  7
SLDTEXTSTYLE0
 73
     1
 44
1.0
  0
MTEXT
  5
7A
330
1F
100
AcDbEntity
  8
9
 62
     7
100
AcDbMText
 10
22.9810592731
 20
39.3097759652
 30
0.0
 40
3.7041666667
 41
0.0
 71
     1
 72
     1
  1
PXP-LC01
  7
SLDTEXTSTYLE0
 73
     1
 44
1.0
  0
MTEXT
  5
7B
330
1F
100
AcDbEntity
  8
9
 62
     7
100
AcDbMText
 10
22.9810592731
 20
22.271836236
 30
0.0
 40
3.7041666667
 41
0.0
 71
     1
 72
     1
  1
2019/04/17
  7
SLDTEXTSTYLE0
 73
     1
 44
1.0
  0
MTEXT
  5
7C
330
1F
100
AcDbEntity
  8
9
 62
     7
100
AcDbMText
 10
22.9810592731
 20
30.9293045781
 30
0.0
 40
3.7041666667
 41
0.0
 71
     1
 72
     1
  1
1:1
  7
SLDTEXTSTYLE0
 73
     1
 44
1.0
  0
CIRCLE
  5
7D
330
1F
100
AcDbEntity
  8
0
  6
Continuous
 62
     7
370
    30
100
AcDbCircle
 10
151.9236244353
 20
196.7366424806
 30
0.0
 40
3.499999999999972
  0
LINE
  5
7E
330
1F
100
AcDbEntity
  8
0
  6
Continuous
 62
     7
370
    30
100
AcDbLine
 10
149.7736243623
 20
196.3366411931
 30
0.0
 11
149.7736243623
 21
197.1366435594
 31
0.0
  0
LINE
  5
7F
330
1F
100
AcDbEntity
  8
0
  6
Continuous
 62
     7
370
    30
100
AcDbLine
 10
151.5236244454
 20
196.3366411931
 30
0.0
 11
149.7736243623
 21
196.3366411931
 31
0.0
  0
LINE
  5
80
330
1F
100
AcDbEntity
  8
0
  6
Continuous
 62
     7
370
    30
100
AcDbLine
 10
151.5236244454
 20
194.586641372
 30
0.0
 11
151.5236244454
 21
196.3366411931
 31
0.0
  0
LINE
  5
81
330
1F
100
AcDbEntity
  8
0
  6
Continuous
 62
     7
370
    30
100
AcDbLine
 10
152.3236244252
 20
194.586641372
 30
0.0
 11
151.5236244454
 21
194.586641372
 31
0.0
  0
LINE
  5
82
330
1F
100
AcDbEntity
  8
0
  6
Continuous
 62
     7
370
    30
100
AcDbLine
 10
152.3236244252
 20
196.3366411931
 30
0.0
 11
152.3236244252
 21
194.586641372
 31
0.0
  0
LINE
  5
83
330
1F
100
AcDbEntity
  8
0
  6
Continuous
 62
     7
370
    30
100
AcDbLine
 10
154.0736245083
 20
197.1366435594
 30
0.0
 11
154.0736245083
 21
196.3366411931
 31
0.0
  0
LINE
  5
84
330
1F
100
AcDbEntity
  8
0
  6
Continuous
 62
     7
370
    30
100
AcDbLine
 10
151.5236244454
 20
198.8866433806
 30
0.0
 11
152.3236244252
 21
198.8866433806
 31
0.0
  0
LINE
  5
85
330
1F
100
AcDbEntity
  8
0
  6
Continuous
 62
     7
370
    30
100
AcDbLine
 10
149.7736243623
 20
197.1366435594
 30
0.0
 11
151.5236244454
 21
197.1366435594
 31
0.0
  0
LINE
  5
86
330
1F
100
AcDbEntity
  8
0
  6
Continuous
 62
     7
370
    30
100
AcDbLine
 10
151.5236244454
 20
197.1366435594
 30
0.0
 11
151.5236244454
 21
198.8866433806
 31
0.0
  0
LINE
  5
87
330
1F
100
AcDbEntity
  8
0
  6
Continuous
 62
     7
370
    30
100
AcDbLine
 10
152.3236244252
 20
197.1366435594
 30
0.0
 11
154.0736245083
 21
197.1366435594
 31
0.0
  0
LINE
  5
88
330
1F
100
AcDbEntity
  8
0
  6
Continuous
 62
     7
370
    30
100
AcDbLine
 10
152.3236244252
 20
198.8866433806
 30
0.0
 11
152.3236244252
 21
197.1366435594
 31
0.0
  0
LINE
  5
89
330
1F
100
AcDbEntity
  8
0
  6
Continuous
 62
     7
370
    30
100
AcDbLine
 10
154.0736245083
 20
196.3366411931
 30
0.0
 11
152.3236244252
 21
196.3366411931
 31
0.0
  0
CIRCLE
  5
8A
330
1F
100
AcDbEntity
  8
0
  6
Continuous
 62
     7
370
    30
100
AcDbCircle
 10
151.9236244353
 20
95.7366424806
 30
0.0
 40
3.499999999999972
  0
LINE
  5
8B
330
1F
100
AcDbEntity
  8
0
  6
Continuous
 62
     7
370
    30
100
AcDbLine
 10
149.7736243623
 20
95.3366414018
 30
0.0
 11
149.7736243623
 21
96.1366437681
 31
0.0
  0
LINE
  5
8C
330
1F
100
AcDbEntity
  8
0
  6
Continuous
 62
     7
370
    30
100
AcDbLine
 10
151.5236244454
 20
95.3366414018
 30
0.0
 11
149.7736243623
 21
95.3366414018
 31
0.0
  0
LINE
  5
8D
330
1F
100
AcDbEntity
  8
0
  6
Continuous
 62
     7
370
    30
100
AcDbLine
 10
152.3236244252
 20
93.5866415806
 30
0.0
 11
151.5236244454
 21
93.5866415806
 31
0.0
  0
LINE
  5
8E
330
1F
100
AcDbEntity
  8
0
  6
Continuous
 62
     7
370
    30
100
AcDbLine
 10
152.3236244252
 20
95.3366414018
 30
0.0
 11
152.3236244252
 21
93.5866415806
 31
0.0
  0
LINE
  5
8F
330
1F
100
AcDbEntity
  8
0
  6
Continuous
 62
     7
370
    30
100
AcDbLine
 10
154.0736245083
 20
96.1366437681
 30
0.0
 11
154.0736245083
 21
95.3366414018
 31
0.0
  0
LINE
  5
90
330
1F
100
AcDbEntity
  8
0
  6
Continuous
 62
     7
370
    30
100
AcDbLine
 10
152.3236244252
 20
96.1366437681
 30
0.0
 11
154.0736245083
 21
96.1366437681
 31
0.0
  0
LINE
  5
91
330
1F
100
AcDbEntity
  8
0
  6
Continuous
 62
     7
370
    30
100
AcDbLine
 10
152.3236244252
 20
97.8866435893
 30
0.0
 11
152.3236244252
 21
96.1366437681
 31
0.0
  0
LINE
  5
92
330
1F
100
AcDbEntity
  8
0
  6
Continuous
 62
     7
370
    30
100
AcDbLine
 10
151.5236244454
 20
97.8866435893
 30
0.0
 11
152.3236244252
 21
97.8866435893
 31
0.0
  0
LINE
  5
93
330
1F
100
AcDbEntity
  8
0
  6
Continuous
 62
     7
370
    30
100
AcDbLine
 10
149.7736243623
 20
96.1366437681
 30
0.0
 11
151.5236244454
 21
96.1366437681
 31
0.0
  0
LINE
  5
94
330
1F
100
AcDbEntity
  8
0
  6
Continuous
 62
     7
370
    30
100
AcDbLine
 10
151.5236244454
 20
96.1366437681
 30
0.0
 11
151.5236244454
 21
97.8866435893
 31
0.0
  0
LINE
  5
95
330
1F
100
AcDbEntity
  8
0
  6
Continuous
 62
     7
370
    30
100
AcDbLine
 10
151.5236244454
 20
93.5866415806
 30
0.0
 11
151.5236244454
 21
95.3366414018
 31
0.0
  0
LINE
  5
96
330
1F
100
AcDbEntity
  8
0
  6
Continuous
 62
     7
370
    30
100
AcDbLine
 10
154.0736245083
 20
95.3366414018
 30
0.0
 11
152.3236244252
 21
95.3366414018
 31
0.0
  0
LINE
  5
97
330
1F
100
AcDbEntity
  8
0
  6
Continuous
 62
     7
370
    30
100
AcDbLine
 10
152.8983038592
 20
91.0366431184
 30
0.0
 11
178.8821719678
 21
91.0366431184
 31
0.0
  0
SPLINE
  5
98
330
1F
100
AcDbEntity
  8
0
  6
Continuous
 62
     7
370
    30
100
AcDbSpline
210
0.0
220
0.0
230
1.0
 70
     8
 71
     3
 72
    12
 73
     8
 74
     0
 42
0.000000001
 43
0.00000001
 40
0.0
 40
0.0
 40
0.0
 40
0.0
 40
0.5000000000000001
 40
0.5000000000000001
 40
0.75
 40
0.75
 40
1.0
 40
1.0
 40
1.0
 40
1.0
 10
155.5701225439844
 20
91.68648187307065
 30
0.0
 10
155.2087500898245
 20
91.54777198142484
 30
0.0
 10
154.8205147192247
 20
91.41831510695384
 30
0.0
 10
154.1663471662022
 20
91.2488665276405
 30
0.0
 10
153.9361397170939
 20
91.19656932456002
 30
0.0
 10
153.4397216496713
 20
91.10437632476744
 30
0.0
 10
153.1754686591256
 20
91.0650789879906
 30
0.0
 10
152.8983038697519
 20
91.03664248060484
 30
0.0
  0
LINE
  5
99
330
1F
100
AcDbEntity
  8
0
  6
Continuous
 62
     7
370
    30
100
AcDbLine
 10
178.2323323282
 20
91.686482758
 30
0.0
 11
155.5701225156
 21
91.686482758
 31
0.0
  0
ARC
  5
9A
330
1F
100
AcDbEntity
  8
0
  6
Continuous
 62
     7
370
    30
100
AcDbCircle
 10
151.9236244353
 20
95.7366424806
 30
0.0
 40
5.449839392465815
100
AcDbArc
 50
311.9977898677
 51
228.0022101323
  0
ARC
  5
9B
330
1F
100
AcDbEntity
  8
0
  6
Continuous
 62
     7
370
    30
100
AcDbCircle
 10
151.9236244353
 20
95.7366424806
 30
0.0
 40
4.799999999999994
100
AcDbArc
 50
281.7158523949
 51
258.2841476051
  0
SPLINE
  5
9C
330
1F
100
AcDbEntity
  8
0
  6
Continuous
 62
     7
370
    30
100
AcDbSpline
210
0.0
220
0.0
230
1.0
 70
     8
 71
     3
 72
    12
 73
     8
 74
     0
 42
0.000000001
 43
0.00000001
 40
0.0
 40
0.0
 40
0.0
 40
0.0
 40
0.5000000000000007
 40
0.5000000000000007
 40
0.7500000000000003
 40
0.7500000000000003
 40
1.0
 40
1.0
 40
1.0
 40
1.0
 10
148.2771263265575
 20
91.68648187307065
 30
0.0
 10
148.6383480081967
 20
91.54782985423657
 30
0.0
 10
149.0275745305062
 20
91.41782974005646
 30
0.0
 10
149.6891869721522
 20
91.2468569014607
 30
0.0
 10
149.9237745111574
 20
91.19396032419876
 30
0.0
 10
150.4151427669169
 20
91.10322965181894
 30
0.0
 10
150.6732433702862
 20
91.06492887105796
 30
0.0
 10
150.94894500079
 20
91.03664248060484
 30
0.0
  0
CIRCLE
  5
9D
330
1F
100
AcDbEntity
  8
0
  6
Continuous
 62
     7
370
    30
100
AcDbCircle
 10
151.9236244353
 20
196.7366424806
 30
0.0
 40
4.0
  0
ELLIPSE
  5
9E
330
1F
100
AcDbEntity
  8
0
  6
Continuous
 62
     7
370
    30
100
AcDbEllipse
 10
126.3381961954
 20
95.6512142407
 30
0.0
 11
4.565706846956501
 21
4.565706846956514
 31
0.0
210
0.0
220
0.0
230
1.0
 40
0.7743672611
 41
2.482678013794509
 42
3.800507293385091
  0
LINE
  5
9F
330
1F
100
AcDbEntity
  8
0
  6
Continuous
 62
     7
370
    30
100
AcDbLine
 10
120.5636240633
 20
198.2673175938
 30
0.0
 11
120.5636240633
 21
94.2059673674
 31
0.0
  0
ELLIPSE
  5
A0
330
1F
100
AcDbEntity
  8
0
  6
Continuous
 62
     7
370
    30
100
AcDbEllipse
 10
126.3381961954
 20
196.8220707205
 30
0.0
 11
4.565706846956501
 21
-4.565706846956514
 31
0.0
210
0.0
220
0.0
230
1.0
 40
0.7743672611
 41
2.482678013794509
 42
3.800507293385097
  0
LINE
  5
A1
330
1F
100
AcDbEntity
  8
0
  6
Continuous
 62
     7
370
    30
100
AcDbLine
 10
178.9542991759
 20
202.5966413624
 30
0.0
 11
124.8929496946
 21
202.5966413624
 31
0.0
  0
ELLIPSE
  5
A2
330
1F
100
AcDbEntity
  8
0
  6
Continuous
 62
     7
370
    30
100
AcDbEllipse
 10
177.5090526752
 20
196.8220707205
 30
0.0
 11
-4.565706846956487
 21
-4.565706846956517
 31
0.0
210
0.0
220
0.0
230
1.0
 40
0.7743672611
 41
2.482678013794508
 42
3.80050729338508
  0
LINE
  5
A3
330
1F
100
AcDbEntity
  8
0
  6
Continuous
 62
     7
370
    30
100
AcDbLine
 10
183.2836248072
 20
94.2059673674
 30
0.0
 11
183.2836248072
 21
198.2673175938
 31
0.0
  0
ELLIPSE
  5
A4
330
1F
100
AcDbEntity
  8
0
  6
Continuous
 62
     7
370
    30
100
AcDbEllipse
 10
177.5090526752
 20
95.6512142407
 30
0.0
 11
-4.565706846956487
 21
4.565706846956517
 31
0.0
210
0.0
220
0.0
230
1.0
 40
0.7743672611
 41
2.482678013794516
 42
3.800507293385097
  0
LINE
  5
A5
330
1F
100
AcDbEntity
  8
0
  6
Continuous
 62
     7
370
    30
100
AcDbLine
 10
124.8929496946
 20
89.8766435988
 30
0.0
 11
178.9542991759
 21
89.8766435988
 31
0.0
  0
CIRCLE
  5
A6
330
1F
100
AcDbEntity
  8
0
  6
Continuous
 62
     7
370
    30
100
AcDbCircle
 10
151.9236244353
 20
95.7366424806
 30
0.0
 40
4.0
  0
ELLIPSE
  5
A7
330
1F
100
AcDbEntity
  8
0
  6
Continuous
 62
     7
370
    30
100
AcDbEllipse
 10
178.5207106972
 20
94.8219064879
 30
0.0
 11
-2.801468115942242
 21
2.801468115942257
 31
0.0
210
0.0
220
0.0
230
1.0
 40
0.9086608546
 41
2.404013103594175
 42
3.879172203585424
  0
LINE
  5
A8
330
1F
100
AcDbEntity
  8
0
  6
Continuous
 62
     7
370
    30
100
AcDbLine
 10
182.3059745224
 20
94.460445673
 30
0.0
 11
182.3059745224
 21
198.0128392882
 31
0.0
  0
ELLIPSE
  5
A9
330
1F
100
AcDbEntity
  8
0
  6
Continuous
 62
     7
370
    30
100
AcDbEllipse
 10
178.5207106972
 20
197.6513784733
 30
0.0
 11
-2.80146811594227
 21
-2.80146811594227
 31
0.0
210
0.0
220
0.0
230
1.0
 40
0.9086608546
 41
2.40401310359417
 42
3.87917220358543
  0
LINE
  5
AA
330
1F
100
AcDbEntity
  8
0
  6
Continuous
 62
     7
370
    30
100
AcDbLine
 10
152.8983038592
 20
201.4366418428
 30
0.0
 11
178.8821719678
 21
201.4366418428
 31
0.0
  0
ARC
  5
AB
330
1F
100
AcDbEntity
  8
0
  6
Continuous
 62
     7
370
    30
100
AcDbCircle
 10
151.9236244353
 20
196.7366424806
 30
0.0
 40
4.799999999999994
100
AcDbArc
 50
101.7158523949
 51
78.2841476051
  0
LINE
  5
AC
330
1F
100
AcDbEntity
  8
0
  6
Continuous
 62
     7
370
    30
100
AcDbLine
 10
124.9650769027
 20
201.4366418428
 30
0.0
 11
150.9489450113
 21
201.4366418428
 31
0.0
  0
ELLIPSE
  5
AD
330
1F
100
AcDbEntity
  8
0
  6
Continuous
 62
     7
370
    30
100
AcDbEllipse
 10
125.3265381733
 20
197.6513784733
 30
0.0
 11
-2.801468115942256
 21
2.80146811594227
 31
0.0
210
0.0
220
0.0
230
1.0
 40
0.9086608546
 41
5.545605757183974
 42
7.020764857175213
  0
LINE
  5
AE
330
1F
100
AcDbEntity
  8
0
  6
Continuous
 62
     7
370
    30
100
AcDbLine
 10
121.5412743481
 20
94.460445673
 30
0.0
 11
121.5412743481
 21
198.0128392882
 31
0.0
  0
ELLIPSE
  5
AF
330
1F
100
AcDbEntity
  8
0
  6
Continuous
 62
     7
370
    30
100
AcDbEllipse
 10
125.3265381733
 20
94.8219064879
 30
0.0
 11
-2.801468115942256
 21
-2.80146811594227
 31
0.0
210
0.0
220
0.0
230
1.0
 40
0.9086608546
 41
5.545605757183973
 42
7.020764857175212
  0
LINE
  5
B0
330
1F
100
AcDbEntity
  8
0
  6
Continuous
 62
     7
370
    30
100
AcDbLine
 10
124.9650769027
 20
91.0366431184
 30
0.0
 11
150.9489450113
 21
91.0366431184
 31
0.0
  0
LINE
  5
B1
330
1F
100
AcDbEntity
  8
0
  6
Continuous
 62
     7
370
    30
100
AcDbLine
 10
116.9236242863
 20
201.9073173709
 30
0.0
 11
116.9236242863
 21
90.5659675903
 31
0.0
  0
ELLIPSE
  5
B2
330
1F
100
AcDbEntity
  8
0
  6
Continuous
 62
     7
370
    30
100
AcDbEllipse
 10
122.6981961954
 20
200.4620707205
 30
0.0
 11
4.56570684695653
 21
-4.565706846956516
 31
0.0
210
0.0
220
0.0
230
1.0
 40
0.7743672611
 41
2.482678013794506
 42
3.800507293385088
  0
LINE
  5
B3
330
1F
100
AcDbEntity
  8
0
  6
Continuous
 62
     7
370
    30
100
AcDbLine
 10
121.2529499175
 20
86.2366438217
 30
0.0
 11
182.594298953
 21
86.2366438217
 31
0.0
  0
ELLIPSE
  5
B4
330
1F
100
AcDbEntity
  8
0
  6
Continuous
 62
     7
370
    30
100
AcDbEllipse
 10
122.6981961954
 20
92.0112142407
 30
0.0
 11
4.56570684695653
 21
4.565706846956516
 31
0.0
210
0.0
220
0.0
230
1.0
 40
0.7743672611
 41
2.482678013794512
 42
3.800507293385095
  0
ELLIPSE
  5
B5
330
1F
100
AcDbEntity
  8
0
  6
Continuous
 62
     7
370
    30
100
AcDbEllipse
 10
181.1490526752
 20
92.0112142407
 30
0.0
 11
-4.565706846956516
 21
4.565706846956516
 31
0.0
210
0.0
220
0.0
230
1.0
 40
0.7743672611
 41
2.482678013794509
 42
3.800507293385087
  0
LINE
  5
B6
330
1F
100
AcDbEntity
  8
0
  6
Continuous
 62
     7
370
    30
100
AcDbLine
 10
186.9236245843
 20
90.5659675903
 30
0.0
 11
186.9236245843
 21
201.9073173709
 31
0.0
  0
ELLIPSE
  5
B7
330
1F
100
AcDbEntity
  8
0
  6
Continuous
 62
     7
370
    30
100
AcDbEllipse
 10
181.1490526752
 20
200.4620707205
 30
0.0
 11
-4.565706846956516
 21
-4.565706846956516
 31
0.0
210
0.0
220
0.0
230
1.0
 40
0.7743672611
 41
2.482678013794513
 42
3.800507293385095
  0
LINE
  5
B8
330
1F
100
AcDbEntity
  8
0
  6
Continuous
 62
     7
370
    30
100
AcDbLine
 10
182.594298953
 20
206.2366411395
 30
0.0
 11
121.2529499175
 21
206.2366411395
 31
0.0
  0
LINE
  5
B9
330
1F
100
AcDbEntity
  8
0
  6
Continuous
 62
     7
370
    30
100
AcDbLine
 10
148.2771263549
 20
200.7868022032
 30
0.0
 11
125.6149165424
 21
200.7868022032
 31
0.0
  0
SPLINE
  5
BA
330
1F
100
AcDbEntity
  8
0
  6
Continuous
 62
     7
370
    30
100
AcDbSpline
210
0.0
220
0.0
230
1.0
 70
     8
 71
     3
 72
    12
 73
     8
 74
     0
 42
0.000000001
 43
0.00000001
 40
0.0
 40
0.0
 40
0.0
 40
0.0
 40
0.2500000000000002
 40
0.2500000000000002
 40
0.5000000000000006
 40
0.5000000000000006
 40
1.0
 40
1.0
 40
1.0
 40
1.0
 10
150.94894500079
 20
201.4366424806048
 30
0.0
 10
150.6729618434627
 20
201.408327206109
 30
0.0
 10
150.4152454095065
 20
201.3700535143546
 30
0.0
 10
149.9252783632203
 20
201.2796230018117
 30
0.0
 10
149.6921645737946
 20
201.2271447974082
 30
0.0
 10
149.0283768111779
 20
201.0557672030133
 30
0.0
 10
148.6386185113505
 20
200.9255589374192
 30
0.0
 10
148.2771263265575
 20
200.786803088139
 30
0.0
  0
LINE
  5
BB
330
1F
100
AcDbEntity
  8
0
  6
Continuous
 62
     7
370
    30
100
AcDbLine
 10
148.2771263549
 20
91.686482758
 30
0.0
 11
125.6149165424
 21
91.686482758
 31
0.0
  0
ELLIPSE
  5
BC
330
1F
100
AcDbEntity
  8
0
  6
Continuous
 62
     7
370
    30
100
AcDbEllipse
 10
125.9763775658
 20
95.4717458803
 30
0.0
 11
-2.80146811594227
 21
-2.80146811594227
 31
4.440892098500626E-16
210
1.664874452188363E-16
220
-7.967272412695454E-18
230
1.0
 40
0.9086608546
 41
5.545605757183976
 42
7.020764857175205
  0
ELLIPSE
  5
BD
330
1F
100
AcDbEntity
  8
0
  6
Continuous
 62
     7
370
    30
100
AcDbEllipse
 10
125.9763775658
 20
197.0015390809
 30
0.0
 11
-2.801468115942257
 21
2.801468115942242
 31
4.440892098500625E-16
210
1.664874452188362E-16
220
7.967272412694601E-18
230
1.0
 40
0.9086608546
 41
5.545605757183978
 42
7.020764857175211
  0
SPLINE
  5
BE
330
1F
100
AcDbEntity
  8
0
  6
Continuous
 62
     7
370
    30
100
AcDbSpline
210
0.0
220
0.0
230
1.0
 70
     8
 71
     3
 72
    12
 73
     8
 74
     0
 42
0.000000001
 43
0.00000001
 40
0.0
 40
0.0
 40
0.0
 40
0.0
 40
0.5000000000000002
 40
0.5000000000000002
 40
0.7500000000000001
 40
0.7500000000000001
 40
1.0
 40
1.0
 40
1.0
 40
1.0
 10
155.5701225439844
 20
200.786803088139
 30
0.0
 10
155.2089008623452
 20
200.9254551069731
 30
0.0
 10
154.8196743400357
 20
201.0554552211532
 30
0.0
 10
154.1580618983897
 20
201.2264280597489
 30
0.0
 10
153.9234743593845
 20
201.2793246370109
 30
0.0
 10
153.4321061036249
 20
201.3700553093907
 30
0.0
 10
153.1740055002557
 20
201.4083560901517
 30
0.0
 10
152.8983038697519
 20
201.4366424806048
 30
0.0
  0
ARC
  5
BF
330
1F
100
AcDbEntity
  8
0
  6
Continuous
 62
     7
370
    30
100
AcDbCircle
 10
151.9236244353
 20
196.7366424806
 30
0.0
 40
5.449839392465806
100
AcDbArc
 50
131.9977898677
 51
48.0022101323
  0
LINE
  5
C0
330
1F
100
AcDbEntity
  8
0
  6
Continuous
 62
     7
370
    30
100
AcDbLine
 10
168.95581373
 20
110.4342148013
 30
0.0
 11
168.95581373
 21
182.0390701599
 31
0.0
  0
LINE
  5
C1
330
1F
100
AcDbEntity
  8
0
  6
Continuous
 62
     7
370
    30
100
AcDbLine
 10
168.3059740903
 20
111.084054441
 30
0.0
 11
168.3059740903
 21
181.3892305202
 31
0.0
  0
LINE
  5
C2
330
1F
100
AcDbEntity
  8
0
  6
Continuous
 62
     7
370
    30
100
AcDbLine
 10
137.4433875175
 20
183.2913413949
 30
0.0
 11
166.403861353
 21
183.2913413949
 31
0.0
  0
LINE
  5
C3
330
1F
100
AcDbEntity
  8
0
  6
Continuous
 62
     7
370
    30
100
AcDbLine
 10
136.7935478779
 20
183.9411810346
 30
0.0
 11
167.0537009927
 21
183.9411810346
 31
0.0
  0
LINE
  5
C4
330
1F
100
AcDbEntity
  8
0
  6
Continuous
 62
     7
370
    30
100
AcDbLine
 10
178.2323323282
 20
200.7868022032
 30
0.0
 11
155.5701225156
 21
200.7868022032
 31
0.0
  0
LINE
  5
C5
330
1F
100
AcDbEntity
  8
0
  6
Continuous
 62
     7
370
    30
100
AcDbLine
 10
166.8953118937
 20
110.4819432206
 30
0.0
 11
136.9519369768
 21
110.4819432206
 31
0.0
  0
LINE
  5
C6
330
1F
100
AcDbEntity
  8
0
  6
Continuous
 62
     7
370
    30
100
AcDbLine
 10
138.106637271
 20
111.6366416521
 30
0.0
 11
165.7406115996
 21
111.6366416521
 31
0.0
  0
ELLIPSE
  5
C7
330
1F
100
AcDbEntity
  8
0
  6
Continuous
 62
     7
370
    30
100
AcDbEllipse
 10
137.6441986146
 20
181.1884185705
 30
0.0
 11
-1.556371175523452
 21
1.556371175523509
 31
0.0
210
0.0
220
0.0
230
1.0
 40
0.9086608546
 41
5.545605757183973
 42
7.020764857175235
  0
ELLIPSE
  5
C8
330
1F
100
AcDbEntity
  8
0
  6
Continuous
 62
     7
370
    30
100
AcDbEllipse
 10
136.9943592221
 20
181.838257963
 30
0.0
 11
-1.556371175523452
 21
1.556371175523509
 31
2.220446049250313E-16
210
7.133407776276222E-17
220
-7.133407776276484E-17
230
1.0
 40
0.9086608546
 41
5.545605757183988
 42
7.020764857175233
  0
LINE
  5
C9
330
1F
100
AcDbEntity
  8
0
  6
Continuous
 62
     7
370
    30
100
AcDbLine
 10
135.5412747802
 20
111.084054441
 30
0.0
 11
135.5412747802
 21
181.3892305202
 31
0.0
  0
LINE
  5
CA
330
1F
100
AcDbEntity
  8
0
  6
Continuous
 62
     7
370
    30
100
AcDbLine
 10
134.8914351406
 20
110.4342148013
 30
0.0
 11
134.8914351406
 21
182.0390701599
 31
0.0
  0
LINE
  5
CB
330
1F
100
AcDbEntity
  8
0
  6
Continuous
 62
     7
370
    30
100
AcDbLine
 10
137.4433875175
 20
109.1819435663
 30
0.0
 11
166.403861353
 21
109.1819435663
 31
0.0
  0
LINE
  5
CC
330
1F
100
AcDbEntity
  8
0
  6
Continuous
 62
     7
370
    30
100
AcDbLine
 10
136.7935478779
 20
108.5321039267
 30
0.0
 11
167.0537009927
 21
108.5321039267
 31
0.0
  0
LINE
  5
CD
330
1F
100
AcDbEntity
  8
0
  6
Continuous
 62
     7
370
    30
100
AcDbLine
 10
137.6736244278
 20
180.403630466
 30
0.0
 11
137.6736244278
 21
112.0696544952
 31
0.0
  0
LINE
  5
CE
330
1F
100
AcDbEntity
  8
0
  6
Continuous
 62
     7
370
    30
100
AcDbLine
 10
136.5189241337
 20
110.9149560637
 30
0.0
 11
136.5189241337
 21
181.5583288975
 31
0.0
  0
ELLIPSE
  5
CF
330
1F
100
AcDbEntity
  8
0
  6
Continuous
 62
     7
370
    30
100
AcDbEllipse
 10
166.203050256
 20
111.2848663907
 30
0.0
 11
1.556371175523452
 21
-1.556371175523466
 31
0.0
210
0.0
220
0.0
230
1.0
 40
0.9086608546
 41
5.54560575718397
 42
7.020764857175211
  0
ELLIPSE
  5
D0
330
1F
100
AcDbEntity
  8
0
  6
Continuous
 62
     7
370
    30
100
AcDbEllipse
 10
166.8528896484
 20
110.6350269982
 30
0.0
 11
1.556371175523452
 21
-1.556371175523481
 31
-2.220446049250314E-16
210
7.133407776276353E-17
220
-7.133407776276484E-17
230
1.0
 40
0.9086608546
 41
5.545605757183977
 42
7.020764857175214
  0
ELLIPSE
  5
D1
330
1F
100
AcDbEntity
  8
0
  6
Continuous
 62
     7
370
    30
100
AcDbEllipse
 10
137.6441986146
 20
111.2848663907
 30
0.0
 11
1.556371175523481
 21
1.556371175523481
 31
0.0
210
0.0
220
0.0
230
1.0
 40
0.9086608546
 41
2.404013103594166
 42
3.879172203585449
  0
ELLIPSE
  5
D2
330
1F
100
AcDbEntity
  8
0
  6
Continuous
 62
     7
370
    30
100
AcDbEllipse
 10
136.9943592221
 20
110.6350269982
 30
0.0
 11
1.556371175523481
 21
1.556371175523481
 31
-2.220446049250313E-16
210
7.133407776276353E-17
220
7.133407776276353E-17
230
1.0
 40
0.9086608546
 41
2.404013103594183
 42
3.87917220358544
  0
ELLIPSE
  5
D3
330
1F
100
AcDbEntity
  8
0
  6
Continuous
 62
     7
370
    30
100
AcDbEllipse
 10
166.203050256
 20
181.1884185705
 30
0.0
 11
-1.556371175523481
 21
-1.556371175523452
 31
0.0
210
0.0
220
0.0
230
1.0
 40
0.9086608546
 41
2.404013103594177
 42
3.879172203585458
  0
ELLIPSE
  5
D4
330
1F
100
AcDbEntity
  8
0
  6
Continuous
 62
     7
370
    30
100
AcDbEllipse
 10
166.8528896484
 20
181.838257963
 30
0.0
 11
-1.556371175523481
 21
-1.556371175523481
 31
2.220446049250313E-16
210
7.133407776276353E-17
220
7.133407776276353E-17
230
1.0
 40
0.9086608546
 41
2.404013103594158
 42
3.879172203585444
  0
ELLIPSE
  5
D5
330
1F
100
AcDbEntity
  8
0
  6
Continuous
 62
     7
370
    30
100
AcDbEllipse
 10
138.2509747045
 20
112.2139927498
 30
0.0
 11
-0.4564354645875994
 21
-0.4564354645876136
 31
0.0
210
0.0
220
0.0
230
1.0
 40
0.7745966692
 41
5.624127271353213
 42
6.942243343005972
  0
ELLIPSE
  5
D6
330
1F
100
AcDbEntity
  8
0
  6
Continuous
 62
     7
370
    30
100
AcDbEllipse
 10
137.0962741661
 20
111.0592922114
 30
0.0
 11
-0.4564354645876563
 21
-0.4564354645876421
 31
0.0
210
0.0
220
0.0
230
1.0
 40
0.7745966692
 41
5.624127271353212
 42
6.942243343005952
  0
ELLIPSE
  5
D7
330
1F
100
AcDbEntity
  8
0
  6
Continuous
 62
     7
370
    30
100
AcDbEllipse
 10
166.7509747045
 20
111.0592922114
 30
0.0
 11
0.4564354645876563
 21
-0.4564354645876421
 31
0.0
210
0.0
220
0.0
230
1.0
 40
0.7745966692
 41
5.624127271353205
 42
6.942243343005993
  0
LINE
  5
D8
330
1F
100
AcDbEntity
  8
0
  6
Continuous
 62
     7
370
    30
100
AcDbLine
 10
167.3283247369
 20
181.5583288975
 30
0.0
 11
167.3283247369
 21
110.9149560637
 31
0.0
  0
ELLIPSE
  5
D9
330
1F
100
AcDbEntity
  8
0
  6
Continuous
 62
     7
370
    30
100
AcDbEllipse
 10
166.7509747045
 20
181.4139927498
 30
0.0
 11
0.4564354645876563
 21
0.4564354645876279
 31
0.0
210
0.0
220
0.0
230
1.0
 40
0.7745966692
 41
5.62412727135326
 42
6.942243343005996
  0
LINE
  5
DA
330
1F
100
AcDbEntity
  8
0
  6
Continuous
 62
     7
370
    30
100
AcDbLine
 10
136.9519369768
 20
181.9913417406
 30
0.0
 11
166.8953118937
 21
181.9913417406
 31
0.0
  0
ELLIPSE
  5
DB
330
1F
100
AcDbEntity
  8
0
  6
Continuous
 62
     7
370
    30
100
AcDbEllipse
 10
137.0962741661
 20
181.4139927498
 30
0.0
 11
-0.4564354645876563
 21
0.4564354645876279
 31
0.0
210
0.0
220
0.0
230
1.0
 40
0.7745966692
 41
5.624127271353203
 42
6.94224334300598
  0
LINE
  5
DC
330
1F
100
AcDbEntity
  8
0
  6
Continuous
 62
     7
370
    30
100
AcDbLine
 10
165.7406115996
 20
180.8366433091
 30
0.0
 11
138.106637271
 21
180.8366433091
 31
0.0
  0
ELLIPSE
  5
DD
330
1F
100
AcDbEntity
  8
0
  6
Continuous
 62
     7
370
    30
100
AcDbEllipse
 10
165.5962741661
 20
180.2592922114
 30
0.0
 11
0.4564354645875994
 21
0.4564354645876563
 31
0.0
210
0.0
220
0.0
230
1.0
 40
0.7745966692
 41
5.624127271353114
 42
6.942243343005949
  0
LINE
  5
DE
330
1F
100
AcDbEntity
  8
0
  6
Continuous
 62
     7
370
    30
100
AcDbLine
 10
166.1736244427
 20
112.0696544952
 30
0.0
 11
166.1736244427
 21
180.403630466
 31
0.0
  0
ELLIPSE
  5
DF
330
1F
100
AcDbEntity
  8
0
  6
Continuous
 62
     7
370
    30
100
AcDbEllipse
 10
138.2509747045
 20
180.2592922114
 30
0.0
 11
-0.4564354645875995
 21
0.4564354645876278
 31
0.0
210
0.0
220
0.0
230
1.0
 40
0.7745966692
 41
5.624127271353238
 42
6.942243343006004
  0
ELLIPSE
  5
E0
330
1F
100
AcDbEntity
  8
0
  6
Continuous
 62
     7
370
    30
100
AcDbEllipse
 10
165.5962741661
 20
112.2139927498
 30
0.0
 11
0.4564354645875995
 21
-0.4564354645876278
 31
0.0
210
0.0
220
0.0
230
1.0
 40
0.7745966692
 41
5.624127271353205
 42
6.942243343006019
  0
LINE
  5
E1
330
1F
100
AcDbEntity
  8
0
  6
Continuous
 62
     7
370
    30
100
AcDbLine
 10
122.1911139878
 20
95.1102853126
 30
0.0
 11
122.1911139878
 21
197.3629996486
 31
0.0
  0
ELLIPSE
  5
E2
330
1F
100
AcDbEntity
  8
0
  6
Continuous
 62
     7
370
    30
100
AcDbEllipse
 10
177.8708713047
 20
197.0015390809
 30
0.0
 11
-2.801468115942242
 21
-2.801468115942271
 31
4.440892098500626E-16
210
1.664874452188362E-16
220
-7.967272412693677E-18
230
1.0
 40
0.9086608546
 41
2.404013103594159
 42
3.879172203585421
  0
ELLIPSE
  5
E3
330
1F
100
AcDbEntity
  8
0
  6
Continuous
 62
     7
370
    30
100
AcDbEllipse
 10
177.8708713047
 20
95.4717458803
 30
0.0
 11
-2.801468115942242
 21
2.801468115942271
 31
4.440892098500626E-16
210
1.664874452188372E-16
220
7.967272412694651E-18
230
1.0
 40
0.9086608546
 41
2.404013103594174
 42
3.879172203585437
  0
LINE
  5
E4
330
1F
100
AcDbEntity
  8
0
  6
Continuous
 62
     7
370
    30
100
AcDbLine
 10
181.6561348828
 20
95.1102853126
 30
0.0
 11
181.6561348828
 21
197.3629996486
 31
0.0
  0
ARC
  5
E5
330
1F
100
AcDbEntity
  8
0
  6
Continuous
 62
     7
370
    30
100
AcDbCircle
 10
151.9236244353
 20
48.3380480536
 30
0.0
 40
9.099999999999918
100
AcDbArc
 50
103.666127407
 51
108.0937804333
  0
ARC
  5
E6
330
1F
100
AcDbEntity
  8
0
  6
Continuous
 62
     7
370
    30
100
AcDbCircle
 10
151.9236244353
 20
48.3380480536
 30
0.0
 40
9.099999999999907
100
AcDbArc
 50
71.9062195667
 51
76.333872593
  0
LINE
  5
E7
330
1F
100
AcDbEntity
  8
0
  6
Continuous
 62
     7
370
    30
100
AcDbLine
 10
149.7736243623
 20
57.1713658721
 30
0.0
 11
149.7736243623
 21
57.1804178619
 31
0.0
  0
ARC
  5
E8
330
1F
100
AcDbEntity
  8
0
  6
Continuous
 62
     7
370
    30
100
AcDbCircle
 10
151.9236244353
 20
48.3380480536
 30
0.0
 40
9.091204540653473
100
AcDbArc
 50
92.521746447
 51
103.679605919
  0
LINE
  5
E9
330
1F
100
AcDbEntity
  8
0
  6
Continuous
 62
     7
370
    30
100
AcDbLine
 10
151.5236244454
 20
57.1713658721
 30
0.0
 11
151.5236244454
 21
57.4204485604
 31
0.0
  0
ARC
  5
EA
330
1F
100
AcDbEntity
  8
0
  6
Continuous
 62
     7
370
    30
100
AcDbCircle
 10
151.9236244353
 20
48.3380480536
 30
0.0
 40
8.8423695919136
100
AcDbArc
 50
87.407240751
 51
92.592759249
  0
LINE
  5
EB
330
1F
100
AcDbEntity
  8
0
  6
Continuous
 62
     7
370
    30
100
AcDbLine
 10
152.3236244252
 20
57.4204485604
 30
0.0
 11
152.3236244252
 21
57.1713658721
 31
0.0
  0
ARC
  5
EC
330
1F
100
AcDbEntity
  8
0
  6
Continuous
 62
     7
370
    30
100
AcDbCircle
 10
151.9236244353
 20
48.3380480536
 30
0.0
 40
9.091204540653472
100
AcDbArc
 50
76.320394081
 51
87.478253553
  0
LINE
  5
ED
330
1F
100
AcDbEntity
  8
0
  6
Continuous
 62
     7
370
    30
100
AcDbLine
 10
154.0736245083
 20
57.1804178619
 30
0.0
 11
154.0736245083
 21
57.1713658721
 31
0.0
  0
LINE
  5
EE
330
1F
100
AcDbEntity
  8
0
  6
Continuous
 62
     7
370
    30
100
AcDbLine
 10
186.9236245843
 20
49.6880480061
 30
0.0
 11
186.9236245843
 21
50.6880480536
 31
0.0
  0
LINE
  5
EF
330
1F
100
AcDbEntity
  8
0
  6
Continuous
 62
     7
370
    30
100
AcDbLine
 10
186.9236245843
 20
49.6880480061
 30
0.0
 11
182.594298953
 21
49.6880480061
 31
0.0
  0
LINE
  5
F0
330
1F
100
AcDbEntity
  8
0
  6
Continuous
 62
     7
370
    30
100
AcDbLine
 10
186.9236245843
 20
50.6880480536
 30
0.0
 11
182.594298953
 21
50.6880480536
 31
0.0
  0
LINE
  5
F1
330
1F
100
AcDbEntity
  8
0
  6
Continuous
 62
     7
370
    30
100
AcDbLine
 10
182.594298953
 20
49.6880480061
 30
0.0
 11
121.2529499175
 21
49.6880480061
 31
0.0
  0
LINE
  5
F2
330
1F
100
AcDbEntity
  8
0
  6
Continuous
 62
     7
370
    30
100
AcDbLine
 10
121.2529499175
 20
50.6880480536
 30
0.0
 11
182.594298953
 21
50.6880480536
 31
0.0
  0
LINE
  5
F3
330
1F
100
AcDbEntity
  8
0
  6
Continuous
 62
     7
370
    30
100
AcDbLine
 10
178.9542991759
 20
56.9880480618
 30
0.0
 11
183.2836248072
 21
56.9880480618
 31
0.0
  0
LINE
  5
F4
330
1F
100
AcDbEntity
  8
0
  6
Continuous
 62
     7
370
    30
100
AcDbLine
 10
183.2836248072
 20
56.9880480618
 30
0.0
 11
186.9236245843
 21
50.6880480536
 31
0.0
  0
LINE
  5
F5
330
1F
100
AcDbEntity
  8
0
  6
Continuous
 62
     7
370
    30
100
AcDbLine
 10
124.8929496946
 20
56.9880480618
 30
0.0
 11
178.9542991759
 21
56.9880480618
 31
0.0
  0
LINE
  5
F6
330
1F
100
AcDbEntity
  8
0
  6
Continuous
 62
     7
370
    30
100
AcDbLine
 10
121.2529499175
 20
49.6880480061
 30
0.0
 11
116.9236242863
 21
49.6880480061
 31
0.0
  0
LINE
  5
F7
330
1F
100
AcDbEntity
  8
0
  6
Continuous
 62
     7
370
    30
100
AcDbLine
 10
116.9236242863
 20
49.6880480061
 30
0.0
 11
116.9236242863
 21
50.6880480536
 31
0.0
  0
LINE
  5
F8
330
1F
100
AcDbEntity
  8
0
  6
Continuous
 62
     7
370
    30
100
AcDbLine
 10
121.2529499175
 20
50.6880480536
 30
0.0
 11
116.9236242863
 21
50.6880480536
 31
0.0
  0
LINE
  5
F9
330
1F
100
AcDbEntity
  8
0
  6
Continuous
 62
     7
370
    30
100
AcDbLine
 10
116.9236242863
 20
50.6880480536
 30
0.0
 11
120.5636240633
 21
56.9880480618
 31
0.0
  0
LINE
  5
FA
330
1F
100
AcDbEntity
  8
0
  6
Continuous
 62
     7
370
    30
100
AcDbLine
 10
120.5636240633
 20
56.9880480618
 30
0.0
 11
124.8929496946
 21
56.9880480618
 31
0.0
  0
ARC
  5
FB
330
1F
100
AcDbEntity
  8
0
  6
Continuous
 62
     7
370
    30
100
AcDbCircle
 10
151.9236244353
 20
254.4998022126
 30
0.0
 40
9.099999999999888
100
AcDbArc
 50
251.9062195667
 51
256.333872593
  0
ARC
  5
FC
330
1F
100
AcDbEntity
  8
0
  6
Continuous
 62
     7
370
    30
100
AcDbCircle
 10
151.9236244353
 20
254.4998022126
 30
0.0
 40
9.099999999999897
100
AcDbArc
 50
283.666127407
 51
288.0937804333
  0
LINE
  5
FD
330
1F
100
AcDbEntity
  8
0
  6
Continuous
 62
     7
370
    30
100
AcDbLine
 10
151.5236244454
 20
245.4174017058
 30
0.0
 11
151.5236244454
 21
245.6664843941
 31
0.0
  0
ARC
  5
FE
330
1F
100
AcDbEntity
  8
0
  6
Continuous
 62
     7
370
    30
100
AcDbCircle
 10
151.9236244353
 20
254.4998022126
 30
0.0
 40
9.091204540653438
100
AcDbArc
 50
256.320394081
 51
267.478253553
  0
LINE
  5
FF
330
1F
100
AcDbEntity
  8
0
  6
Continuous
 62
     7
370
    30
100
AcDbLine
 10
149.7736243623
 20
245.6574324043
 30
0.0
 11
149.7736243623
 21
245.6664843941
 31
0.0
  0
LINE
  5
100
330
1F
100
AcDbEntity
  8
0
  6
Continuous
 62
     7
370
    30
100
AcDbLine
 10
154.0736245083
 20
245.6664843941
 30
0.0
 11
154.0736245083
 21
245.6574324043
 31
0.0
  0
ARC
  5
101
330
1F
100
AcDbEntity
  8
0
  6
Continuous
 62
     7
370
    30
100
AcDbCircle
 10
151.9236244353
 20
254.4998022126
 30
0.0
 40
9.091204540653436
100
AcDbArc
 50
272.521746447
 51
283.679605919
  0
LINE
  5
102
330
1F
100
AcDbEntity
  8
0
  6
Continuous
 62
     7
370
    30
100
AcDbLine
 10
152.3236244252
 20
245.6664843941
 30
0.0
 11
152.3236244252
 21
245.4174017058
 31
0.0
  0
ARC
  5
103
330
1F
100
AcDbEntity
  8
0
  6
Continuous
 62
     7
370
    30
100
AcDbCircle
 10
151.9236244353
 20
254.4998022126
 30
0.0
 40
8.842369591913565
100
AcDbArc
 50
267.407240751
 51
272.592759249
  0
LINE
  5
104
330
1F
100
AcDbEntity
  8
0
  6
Continuous
 62
     7
370
    30
100
AcDbLine
 10
121.2529499175
 20
253.1498022601
 30
0.0
 11
182.594298953
 21
253.1498022601
 31
0.0
  0
LINE
  5
105
330
1F
100
AcDbEntity
  8
0
  6
Continuous
 62
     7
370
    30
100
AcDbLine
 10
182.594298953
 20
252.1498022126
 30
0.0
 11
121.2529499175
 21
252.1498022126
 31
0.0
  0
LINE
  5
106
330
1F
100
AcDbEntity
  8
0
  6
Continuous
 62
     7
370
    30
100
AcDbLine
 10
116.9236242863
 20
253.1498022601
 30
0.0
 11
116.9236242863
 21
252.1498022126
 31
0.0
  0
LINE
  5
107
330
1F
100
AcDbEntity
  8
0
  6
Continuous
 62
     7
370
    30
100
AcDbLine
 10
116.9236242863
 20
253.1498022601
 30
0.0
 11
121.2529499175
 21
253.1498022601
 31
0.0
  0
LINE
  5
108
330
1F
100
AcDbEntity
  8
0
  6
Continuous
 62
     7
370
    30
100
AcDbLine
 10
116.9236242863
 20
252.1498022126
 30
0.0
 11
121.2529499175
 21
252.1498022126
 31
0.0
  0
LINE
  5
109
330
1F
100
AcDbEntity
  8
0
  6
Continuous
 62
     7
370
    30
100
AcDbLine
 10
124.8929496946
 20
245.8498022044
 30
0.0
 11
120.5636240633
 21
245.8498022044
 31
0.0
  0
LINE
  5
10A
330
1F
100
AcDbEntity
  8
0
  6
Continuous
 62
     7
370
    30
100
AcDbLine
 10
120.5636240633
 20
245.8498022044
 30
0.0
 11
116.9236242863
 21
252.1498022126
 31
0.0
  0
LINE
  5
10B
330
1F
100
AcDbEntity
  8
0
  6
Continuous
 62
     7
370
    30
100
AcDbLine
 10
178.9542991759
 20
245.8498022044
 30
0.0
 11
124.8929496946
 21
245.8498022044
 31
0.0
  0
LINE
  5
10C
330
1F
100
AcDbEntity
  8
0
  6
Continuous
 62
     7
370
    30
100
AcDbLine
 10
182.594298953
 20
253.1498022601
 30
0.0
 11
186.9236245843
 21
253.1498022601
 31
0.0
  0
LINE
  5
10D
330
1F
100
AcDbEntity
  8
0
  6
Continuous
 62
     7
370
    30
100
AcDbLine
 10
186.9236245843
 20
253.1498022601
 30
0.0
 11
186.9236245843
 21
252.1498022126
 31
0.0
  0
LINE
  5
10E
330
1F
100
AcDbEntity
  8
0
  6
Continuous
 62
     7
370
    30
100
AcDbLine
 10
182.594298953
 20
252.1498022126
 30
0.0
 11
186.9236245843
 21
252.1498022126
 31
0.0
  0
LINE
  5
10F
330
1F
100
AcDbEntity
  8
0
  6
Continuous
 62
     7
370
    30
100
AcDbLine
 10
186.9236245843
 20
252.1498022126
 30
0.0
 11
183.2836248072
 21
245.8498022044
 31
0.0
  0
LINE
  5
110
330
1F
100
AcDbEntity
  8
0
  6
Continuous
 62
     7
370
    30
100
AcDbLine
 10
183.2836248072
 20
245.8498022044
 30
0.0
 11
178.9542991759
 21
245.8498022044
 31
0.0
  0
ARC
  5
111
330
1F
100
AcDbEntity
  8
0
  6
Continuous
 62
     7
370
    30
100
AcDbCircle
 10
64.2331043095
 20
196.7366424806
 30
0.0
 40
9.099999999999913
100
AcDbArc
 50
341.9062195667
 51
346.333872593
  0
ARC
  5
112
330
1F
100
AcDbEntity
  8
0
  6
Continuous
 62
     7
370
    30
100
AcDbCircle
 10
64.2331043095
 20
196.7366424806
 30
0.0
 40
9.099999999999902
100
AcDbArc
 50
13.666127407
 51
18.0937804333
  0
ARC
  5
113
330
1F
100
AcDbEntity
  8
0
  6
Continuous
 62
     7
370
    30
100
AcDbCircle
 10
64.2331043095
 20
95.7366424806
 30
0.0
 40
9.099999999999898
100
AcDbArc
 50
341.9062195667
 51
346.333872593
  0
ARC
  5
114
330
1F
100
AcDbEntity
  8
0
  6
Continuous
 62
     7
370
    30
100
AcDbCircle
 10
64.2331043095
 20
95.7366424806
 30
0.0
 40
9.099999999999904
100
AcDbArc
 50
13.666127407
 51
18.0937804333
  0
ARC
  5
115
330
1F
100
AcDbEntity
  8
0
  6
Continuous
 62
     7
370
    30
100
AcDbCircle
 10
64.2331043095
 20
196.7366424806
 30
0.0
 40
9.091204540653466
100
AcDbArc
 50
2.521746447
 51
13.679605919
  0
LINE
  5
116
330
1F
100
AcDbEntity
  8
0
  6
Continuous
 62
     7
370
    30
100
AcDbLine
 10
73.066422128
 20
197.1366435594
 30
0.0
 11
73.3155048162
 21
197.1366435594
 31
0.0
  0
ARC
  5
117
330
1F
100
AcDbEntity
  8
0
  6
Continuous
 62
     7
370
    30
100
AcDbCircle
 10
64.2331043095
 20
196.7366424806
 30
0.0
 40
8.842369591913593
100
AcDbArc
 50
357.407240751
 51
2.592759249
  0
LINE
  5
118
330
1F
100
AcDbEntity
  8
0
  6
Continuous
 62
     7
370
    30
100
AcDbLine
 10
73.3155048162
 20
196.3366411931
 30
0.0
 11
73.066422128
 21
196.3366411931
 31
0.0
  0
ARC
  5
119
330
1F
100
AcDbEntity
  8
0
  6
Continuous
 62
     7
370
    30
100
AcDbCircle
 10
64.2331043095
 20
196.7366424806
 30
0.0
 40
9.091204540653466
100
AcDbArc
 50
346.320394081
 51
357.478253553
  0
LINE
  5
11A
330
1F
100
AcDbEntity
  8
0
  6
Continuous
 62
     7
370
    30
100
AcDbLine
 10
73.0754741177
 20
194.586641372
 30
0.0
 11
73.066422128
 21
194.586641372
 31
0.0
  0
LINE
  5
11B
330
1F
100
AcDbEntity
  8
0
  6
Continuous
 62
     7
370
    30
100
AcDbLine
 10
73.066422128
 20
198.8866433806
 30
0.0
 11
73.0754741177
 21
198.8866433806
 31
0.0
  0
ARC
  5
11C
330
1F
100
AcDbEntity
  8
0
  6
Continuous
 62
     7
370
    30
100
AcDbCircle
 10
64.2331043095
 20
95.7366424806
 30
0.0
 40
9.091204540653466
100
AcDbArc
 50
2.521746447
 51
13.679605919
  0
LINE
  5
11D
330
1F
100
AcDbEntity
  8
0
  6
Continuous
 62
     7
370
    30
100
AcDbLine
 10
73.066422128
 20
96.1366437681
 30
0.0
 11
73.3155048162
 21
96.1366437681
 31
0.0
  0
ARC
  5
11E
330
1F
100
AcDbEntity
  8
0
  6
Continuous
 62
     7
370
    30
100
AcDbCircle
 10
64.2331043095
 20
95.7366424806
 30
0.0
 40
8.842369591913593
100
AcDbArc
 50
357.407240751
 51
2.592759249
  0
LINE
  5
11F
330
1F
100
AcDbEntity
  8
0
  6
Continuous
 62
     7
370
    30
100
AcDbLine
 10
73.3155048162
 20
95.3366414018
 30
0.0
 11
73.066422128
 21
95.3366414018
 31
0.0
  0
ARC
  5
120
330
1F
100
AcDbEntity
  8
0
  6
Continuous
 62
     7
370
    30
100
AcDbCircle
 10
64.2331043095
 20
95.7366424806
 30
0.0
 40
9.091204540653465
100
AcDbArc
 50
346.320394081
 51
357.478253553
  0
LINE
  5
121
330
1F
100
AcDbEntity
  8
0
  6
Continuous
 62
     7
370
    30
100
AcDbLine
 10
73.0754741177
 20
93.5866415806
 30
0.0
 11
73.066422128
 21
93.5866415806
 31
0.0
  0
LINE
  5
122
330
1F
100
AcDbEntity
  8
0
  6
Continuous
 62
     7
370
    30
100
AcDbLine
 10
73.066422128
 20
97.8866435893
 30
0.0
 11
73.0754741177
 21
97.8866435893
 31
0.0
  0
LINE
  5
123
330
1F
100
AcDbEntity
  8
0
  6
Continuous
 62
     7
370
    30
100
AcDbLine
 10
65.583104262
 20
201.9073173709
 30
0.0
 11
65.583104262
 21
206.2366411395
 31
0.0
  0
LINE
  5
124
330
1F
100
AcDbEntity
  8
0
  6
Continuous
 62
     7
370
    30
100
AcDbLine
 10
65.583104262
 20
206.2366411395
 30
0.0
 11
66.5831043095
 21
206.2366411395
 31
0.0
  0
LINE
  5
125
330
1F
100
AcDbEntity
  8
0
  6
Continuous
 62
     7
370
    30
100
AcDbLine
 10
66.5831043095
 20
201.9073173709
 30
0.0
 11
66.5831043095
 21
206.2366411395
 31
0.0
  0
LINE
  5
126
330
1F
100
AcDbEntity
  8
0
  6
Continuous
 62
     7
370
    30
100
AcDbLine
 10
65.583104262
 20
86.2366438217
 30
0.0
 11
66.5831043095
 21
86.2366438217
 31
0.0
  0
LINE
  5
127
330
1F
100
AcDbEntity
  8
0
  6
Continuous
 62
     7
370
    30
100
AcDbLine
 10
65.583104262
 20
86.2366438217
 30
0.0
 11
65.583104262
 21
90.5659675903
 31
0.0
  0
LINE
  5
128
330
1F
100
AcDbEntity
  8
0
  6
Continuous
 62
     7
370
    30
100
AcDbLine
 10
66.5831043095
 20
86.2366438217
 30
0.0
 11
66.5831043095
 21
90.5659675903
 31
0.0
  0
LINE
  5
129
330
1F
100
AcDbEntity
  8
0
  6
Continuous
 62
     7
370
    30
100
AcDbLine
 10
65.583104262
 20
90.5659675903
 30
0.0
 11
65.583104262
 21
201.9073173709
 31
0.0
  0
LINE
  5
12A
330
1F
100
AcDbEntity
  8
0
  6
Continuous
 62
     7
370
    30
100
AcDbLine
 10
66.5831043095
 20
201.9073173709
 30
0.0
 11
66.5831043095
 21
90.5659675903
 31
0.0
  0
LINE
  5
12B
330
1F
100
AcDbEntity
  8
0
  6
Continuous
 62
     7
370
    30
100
AcDbLine
 10
66.5831043095
 20
206.2366411395
 30
0.0
 11
72.8831043177
 21
202.5966413624
 31
0.0
  0
LINE
  5
12C
330
1F
100
AcDbEntity
  8
0
  6
Continuous
 62
     7
370
    30
100
AcDbLine
 10
72.8831043177
 20
202.5966413624
 30
0.0
 11
72.8831043177
 21
198.2673175938
 31
0.0
  0
LINE
  5
12D
330
1F
100
AcDbEntity
  8
0
  6
Continuous
 62
     7
370
    30
100
AcDbLine
 10
72.8831043177
 20
198.2673175938
 30
0.0
 11
72.8831043177
 21
94.2059673674
 31
0.0
  0
LINE
  5
12E
330
1F
100
AcDbEntity
  8
0
  6
Continuous
 62
     7
370
    30
100
AcDbLine
 10
72.8831043177
 20
94.2059673674
 30
0.0
 11
72.8831043177
 21
89.8766435988
 31
0.0
  0
LINE
  5
12F
330
1F
100
AcDbEntity
  8
0
  6
Continuous
 62
     7
370
    30
100
AcDbLine
 10
72.8831043177
 20
89.8766435988
 30
0.0
 11
66.5831043095
 21
86.2366438217
 31
0.0
  0
ARC
  5
130
330
1F
100
AcDbEntity
  8
0
  6
Continuous
 62
     7
370
    30
100
AcDbCircle
 10
246.2510087248
 20
196.7366424806
 30
0.0
 40
9.099999999999927
100
AcDbArc
 50
193.666127407
 51
198.0937804333
  0
ARC
  5
131
330
1F
100
AcDbEntity
  8
0
  6
Continuous
 62
     7
370
    30
100
AcDbCircle
 10
246.2510087248
 20
196.7366424806
 30
0.0
 40
9.099999999999905
100
AcDbArc
 50
161.9062195667
 51
166.333872593
  0
ARC
  5
132
330
1F
100
AcDbEntity
  8
0
  6
Continuous
 62
     7
370
    30
100
AcDbCircle
 10
246.2510087248
 20
95.7366424806
 30
0.0
 40
9.09999999999991
100
AcDbArc
 50
193.666127407
 51
198.0937804333
  0
ARC
  5
133
330
1F
100
AcDbEntity
  8
0
  6
Continuous
 62
     7
370
    30
100
AcDbCircle
 10
246.2510087248
 20
95.7366424806
 30
0.0
 40
9.099999999999918
100
AcDbArc
 50
161.9062195667
 51
166.333872593
  0
LINE
  5
134
330
1F
100
AcDbEntity
  8
0
  6
Continuous
 62
     7
370
    30
100
AcDbLine
 10
237.4176909063
 20
194.586641372
 30
0.0
 11
237.4086389165
 21
194.586641372
 31
0.0
  0
ARC
  5
135
330
1F
100
AcDbEntity
  8
0
  6
Continuous
 62
     7
370
    30
100
AcDbCircle
 10
246.2510087248
 20
196.7366424806
 30
0.0
 40
9.091204540653466
100
AcDbArc
 50
182.521746447
 51
193.679605919
  0
LINE
  5
136
330
1F
100
AcDbEntity
  8
0
  6
Continuous
 62
     7
370
    30
100
AcDbLine
 10
237.4176909063
 20
196.3366411931
 30
0.0
 11
237.1686082181
 21
196.3366411931
 31
0.0
  0
ARC
  5
137
330
1F
100
AcDbEntity
  8
0
  6
Continuous
 62
     7
370
    30
100
AcDbCircle
 10
246.2510087248
 20
196.7366424806
 30
0.0
 40
8.842369591913593
100
AcDbArc
 50
177.407240751
 51
182.592759249
  0
LINE
  5
138
330
1F
100
AcDbEntity
  8
0
  6
Continuous
 62
     7
370
    30
100
AcDbLine
 10
237.1686082181
 20
197.1366435594
 30
0.0
 11
237.4176909063
 21
197.1366435594
 31
0.0
  0
ARC
  5
139
330
1F
100
AcDbEntity
  8
0
  6
Continuous
 62
     7
370
    30
100
AcDbCircle
 10
246.2510087248
 20
196.7366424806
 30
0.0
 40
9.091204540653466
100
AcDbArc
 50
166.320394081
 51
177.478253553
  0
LINE
  5
13A
330
1F
100
AcDbEntity
  8
0
  6
Continuous
 62
     7
370
    30
100
AcDbLine
 10
237.4086389165
 20
198.8866433806
 30
0.0
 11
237.4176909063
 21
198.8866433806
 31
0.0
  0
LINE
  5
13B
330
1F
100
AcDbEntity
  8
0
  6
Continuous
 62
     7
370
    30
100
AcDbLine
 10
237.4176909063
 20
93.5866415806
 30
0.0
 11
237.4086389165
 21
93.5866415806
 31
0.0
  0
ARC
  5
13C
330
1F
100
AcDbEntity
  8
0
  6
Continuous
 62
     7
370
    30
100
AcDbCircle
 10
246.2510087248
 20
95.7366424806
 30
0.0
 40
9.091204540653465
100
AcDbArc
 50
182.521746447
 51
193.679605919
  0
LINE
  5
13D
330
1F
100
AcDbEntity
  8
0
  6
Continuous
 62
     7
370
    30
100
AcDbLine
 10
237.4176909063
 20
95.3366414018
 30
0.0
 11
237.1686082181
 21
95.3366414018
 31
0.0
  0
ARC
  5
13E
330
1F
100
AcDbEntity
  8
0
  6
Continuous
 62
     7
370
    30
100
AcDbCircle
 10
246.2510087248
 20
95.7366424806
 30
0.0
 40
8.842369591913593
100
AcDbArc
 50
177.407240751
 51
182.592759249
  0
LINE
  5
13F
330
1F
100
AcDbEntity
  8
0
  6
Continuous
 62
     7
370
    30
100
AcDbLine
 10
237.1686082181
 20
96.1366437681
 30
0.0
 11
237.4176909063
 21
96.1366437681
 31
0.0
  0
ARC
  5
140
330
1F
100
AcDbEntity
  8
0
  6
Continuous
 62
     7
370
    30
100
AcDbCircle
 10
246.2510087248
 20
95.7366424806
 30
0.0
 40
9.091204540653466
100
AcDbArc
 50
166.320394081
 51
177.478253553
  0
LINE
  5
141
330
1F
100
AcDbEntity
  8
0
  6
Continuous
 62
     7
370
    30
100
AcDbLine
 10
237.4086389165
 20
97.8866435893
 30
0.0
 11
237.4176909063
 21
97.8866435893
 31
0.0
  0
LINE
  5
142
330
1F
100
AcDbEntity
  8
0
  6
Continuous
 62
     7
370
    30
100
AcDbLine
 10
244.9010087723
 20
201.9073173709
 30
0.0
 11
244.9010087723
 21
90.5659675903
 31
0.0
  0
LINE
  5
143
330
1F
100
AcDbEntity
  8
0
  6
Continuous
 62
     7
370
    30
100
AcDbLine
 10
243.9010087248
 20
90.5659675903
 30
0.0
 11
243.9010087248
 21
201.9073173709
 31
0.0
  0
LINE
  5
144
330
1F
100
AcDbEntity
  8
0
  6
Continuous
 62
     7
370
    30
100
AcDbLine
 10
244.9010087723
 20
90.5659675903
 30
0.0
 11
244.9010087723
 21
86.2366438217
 31
0.0
  0
LINE
  5
145
330
1F
100
AcDbEntity
  8
0
  6
Continuous
 62
     7
370
    30
100
AcDbLine
 10
244.9010087723
 20
86.2366438217
 30
0.0
 11
243.9010087248
 21
86.2366438217
 31
0.0
  0
LINE
  5
146
330
1F
100
AcDbEntity
  8
0
  6
Continuous
 62
     7
370
    30
100
AcDbLine
 10
243.9010087248
 20
90.5659675903
 30
0.0
 11
243.9010087248
 21
86.2366438217
 31
0.0
  0
LINE
  5
147
330
1F
100
AcDbEntity
  8
0
  6
Continuous
 62
     7
370
    30
100
AcDbLine
 10
243.9010087248
 20
86.2366438217
 30
0.0
 11
237.6010087166
 21
89.8766435988
 31
0.0
  0
LINE
  5
148
330
1F
100
AcDbEntity
  8
0
  6
Continuous
 62
     7
370
    30
100
AcDbLine
 10
237.6010087166
 20
89.8766435988
 30
0.0
 11
237.6010087166
 21
94.2059673674
 31
0.0
  0
LINE
  5
149
330
1F
100
AcDbEntity
  8
0
  6
Continuous
 62
     7
370
    30
100
AcDbLine
 10
237.6010087166
 20
94.2059673674
 30
0.0
 11
237.6010087166
 21
198.2673175938
 31
0.0
  0
LINE
  5
14A
330
1F
100
AcDbEntity
  8
0
  6
Continuous
 62
     7
370
    30
100
AcDbLine
 10
244.9010087723
 20
206.2366411395
 30
0.0
 11
243.9010087248
 21
206.2366411395
 31
0.0
  0
LINE
  5
14B
330
1F
100
AcDbEntity
  8
0
  6
Continuous
 62
     7
370
    30
100
AcDbLine
 10
244.9010087723
 20
206.2366411395
 30
0.0
 11
244.9010087723
 21
201.9073173709
 31
0.0
  0
LINE
  5
14C
330
1F
100
AcDbEntity
  8
0
  6
Continuous
 62
     7
370
    30
100
AcDbLine
 10
243.9010087248
 20
206.2366411395
 30
0.0
 11
243.9010087248
 21
201.9073173709
 31
0.0
  0
LINE
  5
14D
330
1F
100
AcDbEntity
  8
0
  6
Continuous
 62
     7
370
    30
100
AcDbLine
 10
237.6010087166
 20
198.2673175938
 30
0.0
 11
237.6010087166
 21
202.5966413624
 31
0.0
  0
LINE
  5
14E
330
1F
100
AcDbEntity
  8
0
  6
Continuous
 62
     7
370
    30
100
AcDbLine
 10
237.6010087166
 20
202.5966413624
 30
0.0
 11
243.9010087248
 21
206.2366411395
 31
0.0
  0
CIRCLE
  5
14F
330
1F
100
AcDbEntity
  8
0
  6
Continuous
 62
     7
370
    30
100
AcDbCircle
 10
324.5431608522
 20
196.7366424806
 30
0.0
 40
4.000000000000057
  0
CIRCLE
  5
150
330
1F
100
AcDbEntity
  8
0
  6
Continuous
 62
     7
370
    30
100
AcDbCircle
 10
324.5431608522
 20
95.7366424806
 30
0.0
 40
4.000000000000057
  0
CIRCLE
  5
151
330
1F
100
AcDbEntity
  8
0
  6
Continuous
 62
     7
370
    30
100
AcDbCircle
 10
324.5431608522
 20
196.7366424806
 30
0.0
 40
1.750000000000057
  0
CIRCLE
  5
152
330
1F
100
AcDbEntity
  8
0
  6
Continuous
 62
     7
370
    30
100
AcDbCircle
 10
324.5431608522
 20
95.7366424806
 30
0.0
 40
1.750000000000057
  0
LINE
  5
153
330
1F
100
AcDbEntity
  8
0
  6
Continuous
 62
     7
370
    30
100
AcDbLine
 10
290.3431593442
 20
201.9073173709
 30
0.0
 11
290.3431593442
 21
90.5659675903
 31
0.0
  0
SPLINE
  5
154
330
1F
100
AcDbEntity
  8
0
  6
Continuous
 62
     7
370
    30
100
AcDbSpline
210
0.0
220
0.0
230
1.0
 70
     8
 71
     3
 72
    20
 73
    16
 74
     0
 42
0.000000001
 43
0.00000001
 40
0.0
 40
0.0
 40
0.0
 40
0.0
 40
0.25
 40
0.25
 40
0.375
 40
0.375
 40
0.5
 40
0.5
 40
0.625
 40
0.625
 40
0.75
 40
0.75
 40
0.875
 40
0.875
 40
1.0
 40
1.0
 40
1.0
 40
1.0
 10
290.3431608521998
 20
90.56596784682755
 30
0.0
 10
290.3431608521998
 20
90.09561400621111
 30
0.0
 10
290.4150224316069
 20
89.62645675949271
 30
0.0
 10
290.6576775883803
 20
88.96385551488419
 30
0.0
 10
290.7610277950783
 20
88.75100476729443
 30
0.0
 10
291.0100306533155
 20
88.35564338248275
 30
0.0
 10
291.1545111298757
 20
88.17409879206869
 30
0.0
 10
291.4848074314385
 20
87.84439415573816
 30
0.0
 10
291.670521418968
 20
87.69749532426535
 30
0.0
 10
292.0642569921066
 20
87.45104974027107
 30
0.0
 10
292.2763670146063
 20
87.34859372900347
 30
0.0
 10
292.7160782743311
 20
87.18831436086899
 30
0.0
 10
292.9415553579562
 20
87.13069762956758
 30
0.0
 10
293.4023040378459
 20
87.05470692423997
 30
0.0
 10
293.6375630396242
 20
87.03664248060483
 30
0.0
 10
293.8724862184227
 20
87.03664248060483
 30
0.0
  0
LINE
  5
155
330
1F
100
AcDbEntity
  8
0
  6
Continuous
 62
     7
370
    30
100
AcDbLine
 10
293.8724863344
 20
87.0366424627
 30
0.0
 11
355.21383537
 21
87.0366424627
 31
0.0
  0
SPLINE
  5
156
330
1F
100
AcDbEntity
  8
0
  6
Continuous
 62
     7
370
    30
100
AcDbSpline
210
0.0
220
0.0
230
1.0
 70
     8
 71
     3
 72
    20
 73
    16
 74
     0
 42
0.000000001
 43
0.00000001
 40
0.0
 40
0.0
 40
0.0
 40
0.0
 40
0.250000000000001
 40
0.250000000000001
 40
0.3750000000000008
 40
0.3750000000000008
 40
0.5000000000000007
 40
0.5000000000000007
 40
0.6250000000000004
 40
0.6250000000000004
 40
0.7500000000000003
 40
0.7500000000000003
 40
0.8750000000000001
 40
0.8750000000000001
 40
1.0
 40
1.0
 40
1.0
 40
1.0
 10
355.2138354859771
 20
87.03664248060483
 30
0.0
 10
355.6841893265935
 20
87.03664248060484
 30
0.0
 10
356.1533465733119
 20
87.10850406001188
 30
0.0
 10
356.8159478179204
 20
87.35115921678529
 30
0.0
 10
357.0287985655102
 20
87.45450942348334
 30
0.0
 10
357.4241599503218
 20
87.70351228172055
 30
0.0
 10
357.6057045407359
 20
87.84799275828072
 30
0.0
 10
357.9354091770664
 20
88.17828905984346
 30
0.0
 10
358.0823080085393
 20
88.36400304737295
 30
0.0
 10
358.3287535925336
 20
88.75773862051162
 30
0.0
 10
358.4312096038012
 20
88.9698486430113
 30
0.0
 10
358.5914889719356
 20
89.40955990273613
 30
0.0
 10
358.6491057032371
 20
89.63503698636129
 30
0.0
 10
358.7250964085646
 20
90.09578566625088
 30
0.0
 10
358.7431608521998
 20
90.33104466802926
 30
0.0
 10
358.7431608521998
 20
90.56596784682775
 30
0.0
  0
LINE
  5
157
330
1F
100
AcDbEntity
  8
0
  6
Continuous
 62
     7
370
    30
100
AcDbLine
 10
358.7431623602
 20
90.5659675903
 30
0.0
 11
358.7431623602
 21
201.9073173709
 31
0.0
  0
SPLINE
  5
158
330
1F
100
AcDbEntity
  8
0
  6
Continuous
 62
     7
370
    30
100
AcDbSpline
210
0.0
220
0.0
230
1.0
 70
     8
 71
     3
 72
    20
 73
    16
 74
     0
 42
0.000000001
 43
0.00000001
 40
0.0
 40
0.0
 40
0.0
 40
0.0
 40
0.2499999999999986
 40
0.2499999999999986
 40
0.3749999999999985
 40
0.3749999999999985
 40
0.4999999999999984
 40
0.4999999999999984
 40
0.6249999999999983
 40
0.6249999999999983
 40
0.7499999999999983
 40
0.7499999999999983
 40
0.8749999999999982
 40
0.8749999999999982
 40
1.0
 40
1.0
 40
1.0
 40
1.0
 10
358.7431608521998
 20
201.9073171143821
 30
0.0
 10
358.7431608521998
 20
202.3776709549986
 30
0.0
 10
358.6712992727927
 20
202.846828201717
 30
0.0
 10
358.4286441160193
 20
203.5094294463254
 30
0.0
 10
358.3252939093213
 20
203.7222801939152
 30
0.0
 10
358.0762910510841
 20
204.1176415787268
 30
0.0
 10
357.9318105745239
 20
204.299186169141
 30
0.0
 10
357.6015142729611
 20
204.6288908054715
 30
0.0
 10
357.4158002854317
 20
204.7757896369443
 30
0.0
 10
357.0220647122931
 20
205.0222352209386
 30
0.0
 10
356.8099546897933
 20
205.1246912322062
 30
0.0
 10
356.3702434300685
 20
205.2849706003407
 30
0.0
 10
356.1447663464434
 20
205.3425873316421
 30
0.0
 10
355.6840176665537
 20
205.4185780369697
 30
0.0
 10
355.4487586647753
 20
205.4366424806048
 30
0.0
 10
355.2138354859769
 20
205.4366424806048
 30
0.0
  0
LINE
  5
159
330
1F
100
AcDbEntity
  8
0
  6
Continuous
 62
     7
370
    30
100
AcDbLine
 10
355.21383537
 20
205.4366424985
 30
0.0
 11
293.8724863344
 21
205.4366424985
 31
0.0
  0
SPLINE
  5
15A
330
1F
100
AcDbEntity
  8
0
  6
Continuous
 62
     7
370
    30
100
AcDbSpline
210
0.0
220
0.0
230
1.0
 70
     8
 71
     3
 72
    20
 73
    16
 74
     0
 42
0.000000001
 43
0.00000001
 40
0.0
 40
0.0
 40
0.0
 40
0.0
 40
0.250000000000001
 40
0.250000000000001
 40
0.3750000000000008
 40
0.3750000000000008
 40
0.5000000000000007
 40
0.5000000000000007
 40
0.6250000000000004
 40
0.6250000000000004
 40
0.7500000000000003
 40
0.7500000000000003
 40
0.8750000000000001
 40
0.8750000000000001
 40
1.0
 40
1.0
 40
1.0
 40
1.0
 10
293.8724862184225
 20
205.4366424806048
 30
0.0
 10
293.4021323778061
 20
205.4366424806048
 30
0.0
 10
292.9329751310877
 20
205.3647809011978
 30
0.0
 10
292.2703738864791
 20
205.1221257444244
 30
0.0
 10
292.0575231388895
 20
205.0187755377263
 30
0.0
 10
291.6621617540778
 20
204.7697726794891
 30
0.0
 10
291.4806171636637
 20
204.6252922029289
 30
0.0
 10
291.1509125273331
 20
204.2949959013662
 30
0.0
 10
291.0040136958604
 20
204.1092819138367
 30
0.0
 10
290.757568111866
 20
203.715546340698
 30
0.0
 10
290.6551121005984
 20
203.5034363181984
 30
0.0
 10
290.494832732464
 20
203.0637250584735
 30
0.0
 10
290.4372160011626
 20
202.8382479748484
 30
0.0
 10
290.3612252958349
 20
202.3774992949588
 30
0.0
 10
290.3431608521998
 20
202.1422402931804
 30
0.0
 10
290.3431608521998
 20
201.9073171143819
 30
0.0
  0
LINE
  5
15B
330
1F
100
AcDbEntity
  8
0
  6
Continuous
 62
     7
370
    30
100
AcDbLine
 10
289.5431607032
 20
201.9073173709
 30
0.0
 11
289.5431607032
 21
90.5659675903
 31
0.0
  0
ELLIPSE
  5
15C
330
1F
100
AcDbEntity
  8
0
  6
Continuous
 62
     7
370
    30
100
AcDbEllipse
 10
295.3177326123
 20
92.0112142407
 30
0.0
 11
4.565706846956516
 21
4.565706846956516
 31
0.0
210
0.0
220
0.0
230
1.0
 40
0.7743672611
 41
2.482678013794517
 42
3.800507293385083
  0
ELLIPSE
  5
15D
330
1F
100
AcDbEntity
  8
0
  6
Continuous
 62
     7
370
    30
100
AcDbEllipse
 10
295.3177326123
 20
200.4620707205
 30
0.0
 11
4.565706846956516
 21
-4.565706846956516
 31
0.0
210
0.0
220
0.0
230
1.0
 40
0.7743672611
 41
2.482678013794515
 42
3.800507293385093
  0
LINE
  5
15E
330
1F
100
AcDbEntity
  8
0
  6
Continuous
 62
     7
370
    30
100
AcDbLine
 10
293.8724863344
 20
86.2366438217
 30
0.0
 11
355.21383537
 21
86.2366438217
 31
0.0
  0
LINE
  5
15F
330
1F
100
AcDbEntity
  8
0
  6
Continuous
 62
     7
370
    30
100
AcDbLine
 10
355.21383537
 20
206.2366411395
 30
0.0
 11
293.8724863344
 21
206.2366411395
 31
0.0
  0
LINE
  5
160
330
1F
100
AcDbEntity
  8
0
  6
Continuous
 62
     7
370
    30
100
AcDbLine
 10
359.5431610012
 20
90.5659675903
 30
0.0
 11
359.5431610012
 21
201.9073173709
 31
0.0
  0
ELLIPSE
  5
161
330
1F
100
AcDbEntity
  8
0
  6
Continuous
 62
     7
370
    30
100
AcDbEllipse
 10
353.7685890921
 20
92.0112142407
 30
0.0
 11
-4.565706846956516
 21
4.565706846956516
 31
0.0
210
0.0
220
0.0
230
1.0
 40
0.7743672611
 41
2.482678013794519
 42
3.800507293385087
  0
ELLIPSE
  5
162
330
1F
100
AcDbEntity
  8
0
  6
Continuous
 62
     7
370
    30
100
AcDbEllipse
 10
353.7685890921
 20
200.4620707205
 30
0.0
 11
-4.565706846956516
 21
-4.565706846956516
 31
0.0
210
0.0
220
0.0
230
1.0
 40
0.7743672611
 41
2.482678013794515
 42
3.800507293385083
  0
ELLIPSE
  5
163
330
1F
100
AcDbEntity
  8
0
  6
Continuous
 62
     7
370
    30
100
AcDbEllipse
 10
350.5908113143
 20
95.1889920185
 30
0.0
 11
-3.835193751443513
 21
3.83519375144347
 31
0.0
210
0.0
220
0.0
230
1.0
 40
0.7743672611
 41
2.482678013794501
 42
3.777666978451619
  0
SPLINE
  5
164
330
1F
100
AcDbEntity
  8
0
  6
Continuous
 62
     7
370
    30
100
AcDbSpline
210
0.0
220
0.0
230
1.0
 70
     8
 71
     3
 72
     8
 73
     4
 74
     0
 42
0.000000001
 43
0.00000001
 40
0.0
 40
0.0
 40
0.0
 40
0.0
 40
1.0
 40
1.0
 40
1.0
 40
1.0
 10
355.4504038411591
 20
93.96603279927292
 30
0.0
 10
355.4473740901472
 20
93.93340600731742
 30
0.0
 10
355.4439711456776
 20
93.90074399936088
 30
0.0
 10
355.4401864068353
 20
93.8680468662822
 30
0.0
  0
SPLINE
  5
165
330
1F
100
AcDbEntity
  8
0
  6
Continuous
 62
     7
370
    30
100
AcDbSpline
210
0.0
220
0.0
230
1.0
 70
     8
 71
     3
 72
     8
 73
     4
 74
     0
 42
0.000000001
 43
0.00000001
 40
0.0
 40
0.0
 40
0.0
 40
0.0
 40
1.0
 40
1.0
 40
1.0
 40
1.0
 10
355.4504038411591
 20
198.5072521619368
 30
0.0
 10
355.4473740901471
 20
198.5398789538928
 30
0.0
 10
355.4439711456776
 20
198.5725409618498
 30
0.0
 10
355.4401864068352
 20
198.605238094929
 30
0.0
  0
ELLIPSE
  5
166
330
1F
100
AcDbEntity
  8
0
  6
Continuous
 62
     7
370
    30
100
AcDbEllipse
 10
350.5908113143
 20
197.2842929427
 30
0.0
 11
-3.835193751443512
 21
-3.835193751443456
 31
0.0
210
0.0
220
0.0
230
1.0
 40
0.7743672611
 41
2.505518328728331
 42
3.800507293385104
  0
ELLIPSE
  5
167
330
1F
100
AcDbEntity
  8
0
  6
Continuous
 62
     7
370
    30
100
AcDbEllipse
 10
298.4955103901
 20
197.2842929427
 30
0.0
 11
3.835193751443456
 21
-3.835193751443456
 31
0.0
210
0.0
220
0.0
230
1.0
 40
0.7743672611
 41
2.482678013794526
 42
3.77766697845145
  0
SPLINE
  5
168
330
1F
100
AcDbEntity
  8
0
  6
Continuous
 62
     7
370
    30
100
AcDbSpline
210
0.0
220
0.0
230
1.0
 70
     8
 71
     3
 72
     8
 73
     4
 74
     0
 42
0.000000001
 43
0.00000001
 40
0.0
 40
0.0
 40
0.0
 40
0.0
 40
1.0
 40
1.0
 40
1.0
 40
1.0
 10
293.6359178632405
 20
198.5072521619367
 30
0.0
 10
293.6389476142525
 20
198.5398789538925
 30
0.0
 10
293.642350558722
 20
198.5725409618493
 30
0.0
 10
293.6461352975644
 20
198.6052380949282
 30
0.0
  0
SPLINE
  5
169
330
1F
100
AcDbEntity
  8
0
  6
Continuous
 62
     7
370
    30
100
AcDbSpline
210
0.0
220
0.0
230
1.0
 70
     8
 71
     3
 72
     8
 73
     4
 74
     0
 42
0.000000001
 43
0.00000001
 40
0.0
 40
0.0
 40
0.0
 40
0.0
 40
1.0
 40
1.0
 40
1.0
 40
1.0
 10
293.6359178632405
 20
93.96603279927291
 30
0.0
 10
293.6389476142525
 20
93.93340600731716
 30
0.0
 10
293.642350558722
 20
93.9007439993604
 30
0.0
 10
293.6461352975644
 20
93.86804686628146
 30
0.0
  0
ELLIPSE
  5
16A
330
1F
100
AcDbEntity
  8
0
  6
Continuous
 62
     7
370
    30
100
AcDbEllipse
 10
298.4955103901
 20
95.1889920185
 30
0.0
 11
3.835193751443455
 21
3.83519375144347
 31
0.0
210
0.0
220
0.0
230
1.0
 40
0.7743672611
 41
2.505518328728139
 42
3.800507293385082
  0
ELLIPSE
  5
16B
330
1F
100
AcDbEntity
  8
0
  6
Continuous
 62
     7
370
    30
100
AcDbEllipse
 10
352.5220621568
 20
199.0331935161
 30
0.0
 11
-1.15321443874484
 21
4.718177047847006
 31
0.0
210
0.0
220
0.0
230
1.0
 40
0.5780614165
 41
4.312361029966458
 42
4.461428169361612
  0
ELLIPSE
  5
16C
330
1F
100
AcDbEntity
  8
0
  6
Continuous
 62
     7
370
    30
100
AcDbEllipse
 10
352.5220621568
 20
93.4400914451
 30
0.0
 11
1.153214438744783
 21
4.718177047847022
 31
0.0
210
0.0
220
0.0
230
1.0
 40
0.5780614165
 41
4.963349791407784
 42
5.112416930802929
  0
LINE
  5
16D
330
1F
100
AcDbEntity
  8
0
  6
Continuous
 62
     7
370
    30
100
AcDbLine
 10
355.4832427764
 20
197.8097252853
 30
0.0
 11
355.4832427764
 21
94.6635596759
 31
0.0
  0
LINE
  5
16E
330
1F
100
AcDbEntity
  8
0
  6
Continuous
 62
     7
370
    30
100
AcDbLine
 10
297.2815032119
 20
202.1349326081
 30
0.0
 11
351.8048184925
 21
202.1349326081
 31
0.0
  0
LINE
  5
16F
330
1F
100
AcDbEntity
  8
0
  6
Continuous
 62
     7
370
    30
100
AcDbLine
 10
351.8048184925
 20
90.3383523531
 30
0.0
 11
297.2815032119
 21
90.3383523531
 31
0.0
  0
LINE
  5
170
330
1F
100
AcDbEntity
  8
0
  6
Continuous
 62
     7
370
    30
100
AcDbLine
 10
293.603078928
 20
197.8097252853
 30
0.0
 11
293.603078928
 21
94.6635596759
 31
0.0
  0
ELLIPSE
  5
171
330
1F
100
AcDbEntity
  8
0
  6
Continuous
 62
     7
370
    30
100
AcDbEllipse
 10
296.5642595476
 20
93.4400914451
 30
0.0
 11
-1.15321443874484
 21
4.718177047847021
 31
0.0
210
0.0
220
0.0
230
1.0
 40
0.5780614165
 41
1.170768376376655
 42
1.319835515771803
  0
ELLIPSE
  5
172
330
1F
100
AcDbEntity
  8
0
  6
Continuous
 62
     7
370
    30
100
AcDbEllipse
 10
296.5642595476
 20
199.0331935161
 30
0.0
 11
1.15321443874484
 21
4.718177047847006
 31
0.0
210
0.0
220
0.0
230
1.0
 40
0.5780614165
 41
1.821757137817983
 42
1.970824277213132
  0
ELLIPSE
  5
173
330
1F
100
AcDbEntity
  8
0
  6
Continuous
 62
     7
370
    30
100
AcDbEllipse
 10
298.8558497397
 20
95.7316816373
 30
0.0
 11
3.424016586151709
 21
3.424016586151666
 31
-4.440892098500626E-16
210
6.484916160251213E-17
220
6.484916160251132E-17
230
1.0
 40
0.9086608546
 41
2.404013103594174
 42
3.879172203585449
  0
LINE
  5
174
330
1F
100
AcDbEntity
  8
0
  6
Continuous
 62
     7
370
    30
100
AcDbLine
 10
294.2294157112
 20
95.2898964591
 30
0.0
 11
294.2294157112
 21
197.1833885021
 31
0.0
  0
ELLIPSE
  5
175
330
1F
100
AcDbEntity
  8
0
  6
Continuous
 62
     7
370
    30
100
AcDbEllipse
 10
298.8558497397
 20
196.7416033239
 30
0.0
 11
3.424016586151708
 21
-3.42401658615168
 31
-3.330669073875470E-16
210
4.863687120188391E-17
220
-4.863687120188350E-17
230
1.0
 40
0.9086608546
 41
2.40401310359415
 42
3.879172203585435
  0
LINE
  5
176
330
1F
100
AcDbEntity
  8
0
  6
Continuous
 62
     7
370
    30
100
AcDbLine
 10
298.4140641058
 20
201.3680368967
 30
0.0
 11
319.4658649156
 21
201.3680368967
 31
0.0
  0
SPLINE
  5
177
330
1F
100
AcDbEntity
  8
0
  6
Continuous
 62
     7
370
    30
100
AcDbSpline
210
0.0
220
0.0
230
1.0
 70
     8
 71
     3
 72
    18
 73
    14
 74
     0
 42
0.000000001
 43
0.00000001
 40
0.0
 40
0.0
 40
0.0
 40
0.0
 40
0.1250000000000002
 40
0.1250000000000002
 40
0.2500000000000002
 40
0.2500000000000002
 40
0.3750000000000002
 40
0.3750000000000002
 40
0.5000000000000001
 40
0.5000000000000001
 40
0.7500000000000001
 40
0.7500000000000001
 40
1.0
 40
1.0
 40
1.0
 40
1.0
 10
320.4936400069553
 20
199.4444242377028
 30
0.0
 10
320.5577060333726
 20
199.5402357663715
 30
0.0
 10
320.6110363834605
 20
199.641004986034
 30
0.0
 10
320.6939854787255
 20
199.8534933465852
 30
0.0
 10
320.7234720556266
 20
199.9662956398292
 30
0.0
 10
320.7508244269225
 20
200.1926213426248
 30
0.0
 10
320.7489362200274
 20
200.3094884752306
 30
0.0
 10
320.7100804195934
 20
200.5341470836469
 30
0.0
 10
320.6732264178352
 20
200.6433362093727
 30
0.0
 10
320.510653561449
 20
200.9478626505265
 30
0.0
 10
320.337233857704
 20
201.1095152505424
 30
0.0
 10
319.9256696873744
 20
201.3202142215612
 30
0.0
 10
319.6967331248941
 20
201.3680371105433
 30
0.0
 10
319.465865048583
 20
201.3680371105433
 30
0.0
  0
ARC
  5
178
330
1F
100
AcDbEntity
  8
0
  6
Continuous
 62
     7
370
    30
100
AcDbCircle
 10
324.5431608522
 20
196.7366424806
 30
0.0
 40
4.871416746711651
100
AcDbArc
 50
146.2306520296
 51
33.7693479704
  0
SPLINE
  5
179
330
1F
100
AcDbEntity
  8
0
  6
Continuous
 62
     7
370
    30
100
AcDbSpline
210
0.0
220
0.0
230
1.0
 70
     8
 71
     3
 72
    18
 73
    14
 74
     0
 42
0.000000001
 43
0.00000001
 40
0.0
 40
0.0
 40
0.0
 40
0.0
 40
0.1250000000000001
 40
0.1250000000000001
 40
0.2500000000000002
 40
0.2500000000000002
 40
0.3750000000000003
 40
0.3750000000000003
 40
0.5000000000000004
 40
0.5000000000000004
 40
0.7500000000000002
 40
0.7500000000000002
 40
1.0
 40
1.0
 40
1.0
 40
1.0
 10
329.6204566558166
 20
201.3680371105433
 30
0.0
 10
329.5051543814085
 20
201.3680371105433
 30
0.0
 10
329.3917473457139
 20
201.3561327734601
 30
0.0
 10
329.1690595373203
 20
201.3064062952484
 30
0.0
 10
329.0589412860029
 20
201.2678096985472
 30
0.0
 10
328.8566641579602
 20
201.164913082512
 30
0.0
 10
328.7619287107816
 20
201.0996792159445
 30
0.0
 10
328.5947094359208
 20
200.9414406691287
 30
0.0
 10
328.5250944172445
 20
200.8516179658885
 30
0.0
 10
328.3607231358748
 20
200.5481352156261
 30
0.0
 10
328.3218647143011
 20
200.3114899965294
 30
0.0
 10
328.3755419362896
 20
199.8553111890207
 30
0.0
 10
328.4642258261176
 20
199.6365315695688
 30
0.0
 10
328.5926816974443
 20
199.4444242377028
 30
0.0
  0
LINE
  5
17A
330
1F
100
AcDbEntity
  8
0
  6
Continuous
 62
     7
370
    30
100
AcDbLine
 10
329.6204567888
 20
201.3680368967
 30
0.0
 11
350.6722575986
 21
201.3680368967
 31
0.0
  0
ELLIPSE
  5
17B
330
1F
100
AcDbEntity
  8
0
  6
Continuous
 62
     7
370
    30
100
AcDbEllipse
 10
350.2304719647
 20
196.7416033239
 30
0.0
 11
3.424016586151652
 21
3.424016586151652
 31
-4.440892098500626E-16
210
6.484916160251240E-17
220
6.484916160251240E-17
230
1.0
 40
0.9086608546
 41
5.545605757183969
 42
7.020764857175219
  0
LINE
  5
17C
330
1F
100
AcDbEntity
  8
0
  6
Continuous
 62
     7
370
    30
100
AcDbLine
 10
354.8569059932
 20
95.2898964591
 30
0.0
 11
354.8569059932
 21
197.1833885021
 31
0.0
  0
ELLIPSE
  5
17D
330
1F
100
AcDbEntity
  8
0
  6
Continuous
 62
     7
370
    30
100
AcDbEllipse
 10
350.2304719647
 20
95.7316816373
 30
0.0
 11
3.424016586151652
 21
-3.424016586151652
 31
-4.440892098500626E-16
210
6.484916160251240E-17
220
-6.484916160251240E-17
230
1.0
 40
0.9086608546
 41
5.545605757183971
 42
7.020764857175205
  0
LINE
  5
17E
330
1F
100
AcDbEntity
  8
0
  6
Continuous
 62
     7
370
    30
100
AcDbLine
 10
329.6204567888
 20
91.1052480645
 30
0.0
 11
350.6722575986
 21
91.1052480645
 31
0.0
  0
SPLINE
  5
17F
330
1F
100
AcDbEntity
  8
0
  6
Continuous
 62
     7
370
    30
100
AcDbSpline
210
0.0
220
0.0
230
1.0
 70
     8
 71
     3
 72
    18
 73
    14
 74
     0
 42
0.000000001
 43
0.00000001
 40
0.0
 40
0.0
 40
0.0
 40
0.0
 40
0.1249999999999983
 40
0.1249999999999983
 40
0.2499999999999967
 40
0.2499999999999967
 40
0.374999999999995
 40
0.374999999999995
 40
0.4999999999999933
 40
0.4999999999999933
 40
0.7499999999999967
 40
0.7499999999999967
 40
1.0
 40
1.0
 40
1.0
 40
1.0
 10
328.5926816974443
 20
93.02886072350687
 30
0.0
 10
328.528615671027
 20
92.93304919483818
 30
0.0
 10
328.4752853209391
 20
92.83227997517571
 30
0.0
 10
328.3923362256741
 20
92.61979161462457
 30
0.0
 10
328.3628496487729
 20
92.50698932138054
 30
0.0
 10
328.3354972774771
 20
92.28066361858484
 30
0.0
 10
328.3373854843722
 20
92.16379648597919
 30
0.0
 10
328.3762412848062
 20
91.93913787756274
 30
0.0
 10
328.4130952865643
 20
91.82994875183702
 30
0.0
 10
328.5756681429506
 20
91.52542231068314
 30
0.0
 10
328.7490878466956
 20
91.36376971066727
 30
0.0
 10
329.1606520170252
 20
91.15307073964848
 30
0.0
 10
329.3895885795054
 20
91.10524785066636
 30
0.0
 10
329.6204566558166
 20
91.10524785066637
 30
0.0
  0
ARC
  5
180
330
1F
100
AcDbEntity
  8
0
  6
Continuous
 62
     7
370
    30
100
AcDbCircle
 10
324.5431608522
 20
95.7366424806
 30
0.0
 40
4.871416746711651
100
AcDbArc
 50
326.2306520296
 51
213.7693479704
  0
SPLINE
  5
181
330
1F
100
AcDbEntity
  8
0
  6
Continuous
 62
     7
370
    30
100
AcDbSpline
210
0.0
220
0.0
230
1.0
 70
     8
 71
     3
 72
    18
 73
    14
 74
     0
 42
0.000000001
 43
0.00000001
 40
0.0
 40
0.0
 40
0.0
 40
0.0
 40
0.1250000000000001
 40
0.1250000000000001
 40
0.2500000000000001
 40
0.2500000000000001
 40
0.3750000000000002
 40
0.3750000000000002
 40
0.5000000000000002
 40
0.5000000000000002
 40
0.7500000000000001
 40
0.7500000000000001
 40
1.0
 40
1.0
 40
1.0
 40
1.0
 10
319.465865048583
 20
91.10524785066636
 30
0.0
 10
319.5811673229911
 20
91.10524785066636
 30
0.0
 10
319.6945743586857
 20
91.11715218774955
 30
0.0
 10
319.9172621670793
 20
91.16687866596126
 30
0.0
 10
320.0273804183967
 20
91.20547526266247
 30
0.0
 10
320.2296575464395
 20
91.30837187869767
 30
0.0
 10
320.324392993618
 20
91.37360574526515
 30
0.0
 10
320.4916122684788
 20
91.53184429208095
 30
0.0
 10
320.5612272871551
 20
91.62166699532118
 30
0.0
 10
320.7255985685248
 20
91.92514974558352
 30
0.0
 10
320.7644569900984
 20
92.16179496468024
 30
0.0
 10
320.7107797681101
 20
92.61797377218906
 30
0.0
 10
320.622095878282
 20
92.83675339164085
 30
0.0
 10
320.4936400069553
 20
93.02886072350687
 30
0.0
  0
LINE
  5
182
330
1F
100
AcDbEntity
  8
0
  6
Continuous
 62
     7
370
    30
100
AcDbLine
 10
298.4140641058
 20
91.1052480645
 30
0.0
 11
319.4658649156
 21
91.1052480645
 31
0.0
  0
ELLIPSE
  5
183
330
1F
100
AcDbEntity
  8
0
  6
Continuous
 62
     7
370
    30
100
AcDbEllipse
 10
309.353959882
 20
110.3750912412
 30
0.0
 11
-0.9338227053140713
 21
-0.9338227053140855
 31
1.110223024625157E-16
210
1.248655839141292E-16
220
-5.975454309521050E-18
230
1.0
 40
0.9086608546
 41
5.545605757183965
 42
7.020764857175193
  0
LINE
  5
184
330
1F
100
AcDbEntity
  8
0
  6
Continuous
 62
     7
370
    30
100
AcDbLine
 10
339.852848556
 20
109.1133348949
 30
0.0
 11
309.2334731484
 21
109.1133348949
 31
0.0
  0
ELLIPSE
  5
185
330
1F
100
AcDbEntity
  8
0
  6
Continuous
 62
     7
370
    30
100
AcDbEllipse
 10
339.7323618224
 20
110.3750912412
 30
0.0
 11
-0.9338227053140145
 21
0.9338227053140854
 31
1.110223024625157E-16
210
1.248655839141372E-16
220
5.975454309521446E-18
230
1.0
 40
0.9086608546
 41
2.404013103594259
 42
3.879172203585479
  0
LINE
  5
186
330
1F
100
AcDbEntity
  8
0
  6
Continuous
 62
     7
370
    30
100
AcDbLine
 10
340.994117316
 20
110.2546036549
 30
0.0
 11
340.994117316
 21
182.2186813064
 31
0.0
  0
ELLIPSE
  5
187
330
1F
100
AcDbEntity
  8
0
  6
Continuous
 62
     7
370
    30
100
AcDbEllipse
 10
339.7323618224
 20
182.09819372
 30
0.0
 11
0.9338227053141281
 21
0.9338227053141281
 31
-1.110223024625157E-16
210
1.248655839141297E-16
220
-5.975454309528854E-18
230
1.0
 40
0.9086608546
 41
5.545605757183964
 42
7.020764857175198
  0
LINE
  5
188
330
1F
100
AcDbEntity
  8
0
  6
Continuous
 62
     7
370
    30
100
AcDbLine
 10
339.852848556
 20
183.3599500663
 30
0.0
 11
309.2334731484
 21
183.3599500663
 31
0.0
  0
ELLIPSE
  5
189
330
1F
100
AcDbEntity
  8
0
  6
Continuous
 62
     7
370
    30
100
AcDbEllipse
 10
309.353959882
 20
182.09819372
 30
0.0
 11
0.9338227053140714
 21
-0.933822705314043
 31
-1.110223024625157E-16
210
1.248655839141290E-16
220
5.975454309521150E-18
230
1.0
 40
0.9086608546
 41
2.404013103594175
 42
3.87917220358537
  0
LINE
  5
18A
330
1F
100
AcDbEntity
  8
0
  6
Continuous
 62
     7
370
    30
100
AcDbLine
 10
308.0922043884
 20
110.2546036549
 30
0.0
 11
308.0922043884
 21
182.2186813064
 31
0.0
  0
ELLIPSE
  5
18B
330
1F
100
AcDbEntity
  8
0
  6
Continuous
 62
     7
370
    30
100
AcDbEllipse
 10
350.8803113571
 20
197.3914427164
 30
0.0
 11
3.424016586151652
 21
3.424016586151652
 31
0.0
210
0.0
220
0.0
230
1.0
 40
0.9086608546
 41
5.715436537958243
 42
7.020764857175214
  0
ELLIPSE
  5
18C
330
1F
100
AcDbEntity
  8
0
  6
Continuous
 62
     7
370
    30
100
AcDbEllipse
 10
350.8803113571
 20
95.0818422448
 30
0.0
 11
3.424016586151595
 21
-3.424016586151652
 31
0.0
210
0.0
220
0.0
230
1.0
 40
0.9086608546
 41
5.545605757183975
 42
6.850934076401301
  0
LINE
  5
18D
330
1F
100
AcDbEntity
  8
0
  6
Continuous
 62
     7
370
    30
100
AcDbLine
 10
351.3220972383
 20
202.0178765364
 30
0.0
 11
328.202947043
 21
202.0178765364
 31
0.0
  0
LINE
  5
18E
330
1F
100
AcDbEntity
  8
0
  6
Continuous
 62
     7
370
    30
100
AcDbLine
 10
351.3220972383
 20
90.4554084248
 30
0.0
 11
328.202947043
 21
90.4554084248
 31
0.0
  0
LINE
  5
18F
330
1F
100
AcDbEntity
  8
0
  6
Continuous
 62
     7
370
    30
100
AcDbLine
 10
339.2550409773
 20
180.1726885445
 30
0.0
 11
339.2550409773
 21
112.3005964167
 31
0.0
  0
LINE
  5
190
330
1F
100
AcDbEntity
  8
0
  6
Continuous
 62
     7
370
    30
100
AcDbLine
 10
340.3678513134
 20
111.1877851493
 30
0.0
 11
340.3678513134
 21
181.2854998119
 31
0.0
  0
ELLIPSE
  5
191
330
1F
100
AcDbEntity
  8
0
  6
Continuous
 62
     7
370
    30
100
AcDbEllipse
 10
337.7539303677
 20
179.7974119961
 30
0.0
 11
1.186732207927889
 21
1.186732207927889
 31
0.0
210
0.0
220
0.0
230
1.0
 40
0.7745966692
 41
5.624127271353199
 42
6.942243343005979
  0
ELLIPSE
  5
192
330
1F
100
AcDbEntity
  8
0
  6
Continuous
 62
     7
370
    30
100
AcDbEllipse
 10
338.908630906
 20
180.9521125344
 30
0.0
 11
1.186732207927889
 21
1.186732207927832
 31
0.0
210
0.0
220
0.0
230
1.0
 40
0.7745966692
 41
5.963040323862286
 42
6.942243343006043
  0
SPLINE
  5
193
330
1F
100
AcDbEntity
  8
0
  6
Continuous
 62
     7
370
    30
100
AcDbSpline
210
0.0
220
0.0
230
1.0
 70
     8
 71
     3
 72
     8
 73
     4
 74
     0
 42
0.000000001
 43
0.00000001
 40
0.0
 40
0.0
 40
0.0
 40
0.0
 40
1.0
 40
1.0
 40
1.0
 40
1.0
 10
340.3573536867509
 20
181.5819177647914
 30
0.0
 10
340.3525795269204
 20
181.6512668414354
 30
0.0
 10
340.3418034511899
 20
181.7204745938855
 30
0.0
 10
340.3243533127911
 20
181.7892583447369
 30
0.0
  0
ELLIPSE
  5
194
330
1F
100
AcDbEntity
  8
0
  6
Continuous
 62
     7
370
    30
100
AcDbEllipse
 10
339.8272813629
 20
181.8707629913
 30
0.0
 11
-0.224266456947646
 21
1.565268713114392
 31
0.0
210
0.0
220
0.0
230
1.0
 40
0.3142301109
 41
4.284589023973047
 42
4.481989870317371
  0
ELLIPSE
  5
195
330
1F
100
AcDbEntity
  8
0
  6
Continuous
 62
     7
370
    30
100
AcDbEllipse
 10
339.8272813629
 20
110.6025219699
 30
0.0
 11
0.2242664569477029
 21
1.565268713114406
 31
0.0
210
0.0
220
0.0
230
1.0
 40
0.3142301109
 41
4.942788090452034
 42
5.140188936796378
  0
SPLINE
  5
196
330
1F
100
AcDbEntity
  8
0
  6
Continuous
 62
     7
370
    30
100
AcDbSpline
210
0.0
220
0.0
230
1.0
 70
     8
 71
     3
 72
     8
 73
     4
 74
     0
 42
0.000000001
 43
0.00000001
 40
0.0
 40
0.0
 40
0.0
 40
0.0
 40
1.0
 40
1.0
 40
1.0
 40
1.0
 10
340.3573536867509
 20
110.8913671964183
 30
0.0
 10
340.3525795269204
 20
110.8220181197743
 30
0.0
 10
340.3418034511899
 20
110.7528103673242
 30
0.0
 10
340.3243533127911
 20
110.6840266164728
 30
0.0
  0
ELLIPSE
  5
197
330
1F
100
AcDbEntity
  8
0
  6
Continuous
 62
     7
370
    30
100
AcDbEllipse
 10
338.908630906
 20
111.5211724268
 30
0.0
 11
1.186732207927889
 21
-1.186732207927847
 31
0.0
210
0.0
220
0.0
230
1.0
 40
0.7745966692
 41
5.624127271353163
 42
6.60333029049694
  0
ELLIPSE
  5
198
330
1F
100
AcDbEntity
  8
0
  6
Continuous
 62
     7
370
    30
100
AcDbEllipse
 10
337.7539303677
 20
112.6758729651
 30
0.0
 11
1.186732207927889
 21
-1.186732207927861
 31
0.0
210
0.0
220
0.0
230
1.0
 40
0.7745966692
 41
5.624127271353188
 42
6.942243343005995
  0
ELLIPSE
  5
199
330
1F
100
AcDbEntity
  8
0
  6
Continuous
 62
     7
370
    30
100
AcDbEllipse
 10
339.0825224299
 20
111.0249306337
 30
0.0
 11
-0.9338227053140713
 21
0.9338227053140855
 31
0.0
210
0.0
220
0.0
230
1.0
 40
0.9086608546
 41
2.404013103594206
 42
3.701226865675494
  0
ELLIPSE
  5
19A
330
1F
100
AcDbEntity
  8
0
  6
Continuous
 62
     7
370
    30
100
AcDbEllipse
 10
339.0825224299
 20
181.4483543275
 30
0.0
 11
0.9338227053140713
 21
0.9338227053140713
 31
0.0
210
0.0
220
0.0
230
1.0
 40
0.9086608546
 41
5.723551095093974
 42
7.02076485717514
  0
LINE
  5
19B
330
1F
100
AcDbEntity
  8
0
  6
Continuous
 62
     7
370
    30
100
AcDbLine
 10
339.2030089164
 20
109.7631745346
 30
0.0
 11
309.883312788
 21
109.7631745346
 31
0.0
  0
LINE
  5
19C
330
1F
100
AcDbEntity
  8
0
  6
Continuous
 62
     7
370
    30
100
AcDbLine
 10
338.1292079577
 20
111.1747615344
 30
0.0
 11
310.9571137467
 21
111.1747615344
 31
0.0
  0
ELLIPSE
  5
19D
330
1F
100
AcDbEntity
  8
0
  6
Continuous
 62
     7
370
    30
100
AcDbEllipse
 10
311.3323913367
 20
112.6758729651
 30
0.0
 11
-1.186732207927889
 21
-1.186732207927861
 31
0.0
210
0.0
220
0.0
230
1.0
 40
0.7745966692
 41
5.624127271353208
 42
6.942243343006023
  0
LINE
  5
19E
330
1F
100
AcDbEntity
  8
0
  6
Continuous
 62
     7
370
    30
100
AcDbLine
 10
309.8312807271
 20
112.3005964167
 30
0.0
 11
309.8312807271
 21
180.1726885445
 31
0.0
  0
ELLIPSE
  5
19F
330
1F
100
AcDbEntity
  8
0
  6
Continuous
 62
     7
370
    30
100
AcDbEllipse
 10
311.3323913367
 20
179.7974119961
 30
0.0
 11
-1.186732207927889
 21
1.186732207927889
 31
0.0
210
0.0
220
0.0
230
1.0
 40
0.7745966692
 41
5.624127271353155
 42
6.942243343006004
  0
LINE
  5
1A0
330
1F
100
AcDbEntity
  8
0
  6
Continuous
 62
     7
370
    30
100
AcDbLine
 10
310.9571137467
 20
181.2985234268
 30
0.0
 11
338.1292079577
 21
181.2985234268
 31
0.0
  0
LINE
  5
1A1
330
1F
100
AcDbEntity
  8
0
  6
Continuous
 62
     7
370
    30
100
AcDbLine
 10
338.3601480165
 20
180.8366433091
 30
0.0
 11
310.7261736879
 21
180.8366433091
 31
0.0
  0
ELLIPSE
  5
1A2
330
1F
100
AcDbEntity
  8
0
  6
Continuous
 62
     7
370
    30
100
AcDbEllipse
 10
310.8705111214
 20
180.2592922114
 30
0.0
 11
-0.4564354645876279
 21
0.4564354645876563
 31
0.0
210
0.0
220
0.0
230
1.0
 40
0.7745966692
 41
5.62412727135315
 42
6.942243343006093
  0
LINE
  5
1A3
330
1F
100
AcDbEntity
  8
0
  6
Continuous
 62
     7
370
    30
100
AcDbLine
 10
310.2931608447
 20
180.403630466
 30
0.0
 11
310.2931608447
 21
112.0696544952
 31
0.0
  0
ELLIPSE
  5
1A4
330
1F
100
AcDbEntity
  8
0
  6
Continuous
 62
     7
370
    30
100
AcDbEllipse
 10
310.8705111214
 20
112.2139927498
 30
0.0
 11
-0.4564354645876278
 21
-0.4564354645876278
 31
0.0
210
0.0
220
0.0
230
1.0
 40
0.7745966692
 41
5.624127271353198
 42
6.942243343006021
  0
LINE
  5
1A5
330
1F
100
AcDbEntity
  8
0
  6
Continuous
 62
     7
370
    30
100
AcDbLine
 10
310.7261736879
 20
111.6366416521
 30
0.0
 11
338.3601480165
 21
111.6366416521
 31
0.0
  0
ELLIPSE
  5
1A6
330
1F
100
AcDbEntity
  8
0
  6
Continuous
 62
     7
370
    30
100
AcDbEllipse
 10
338.215810583
 20
112.2139927498
 30
0.0
 11
0.4564354645876279
 21
-0.4564354645876136
 31
0.0
210
0.0
220
0.0
230
1.0
 40
0.7745966692
 41
5.624127271353176
 42
6.942243343005945
  0
LINE
  5
1A7
330
1F
100
AcDbEntity
  8
0
  6
Continuous
 62
     7
370
    30
100
AcDbLine
 10
338.7931608597
 20
112.0696544952
 30
0.0
 11
338.7931608597
 21
180.403630466
 31
0.0
  0
ELLIPSE
  5
1A8
330
1F
100
AcDbEntity
  8
0
  6
Continuous
 62
     7
370
    30
100
AcDbEllipse
 10
338.215810583
 20
180.2592922114
 30
0.0
 11
0.4564354645876278
 21
0.4564354645876278
 31
0.0
210
0.0
220
0.0
230
1.0
 40
0.7745966692
 41
5.624127271353163
 42
6.942243343006037
  0
LINE
  5
1A9
330
1F
100
AcDbEntity
  8
0
  6
Continuous
 62
     7
370
    30
100
AcDbLine
 10
339.2839082518
 20
182.4532218583
 30
0.0
 11
309.8024134526
 21
182.4532218583
 31
0.0
  0
LINE
  5
1AA
330
1F
100
AcDbEntity
  8
0
  6
Continuous
 62
     7
370
    30
100
AcDbLine
 10
309.8024134526
 20
110.020063103
 30
0.0
 11
339.2839082518
 21
110.020063103
 31
0.0
  0
LINE
  5
1AB
330
1F
100
AcDbEntity
  8
0
  6
Continuous
 62
     7
370
    30
100
AcDbLine
 10
339.2030089164
 20
182.7101104267
 30
0.0
 11
309.883312788
 21
182.7101104267
 31
0.0
  0
ARC
  5
1AC
330
1F
100
AcDbEntity
  8
0
  6
Continuous
 62
     7
370
    30
100
AcDbCircle
 10
324.5431608522
 20
196.7366424806
 30
0.0
 40
4.248502811960161
100
AcDbArc
 50
132.8995715223
 51
47.1004284777
  0
ARC
  5
1AD
330
1F
100
AcDbEntity
  8
0
  6
Continuous
 62
     7
370
    30
100
AcDbCircle
 10
324.5431608522
 20
95.7366424806
 30
0.0
 40
4.24850281196015
100
AcDbArc
 50
312.8995715223
 51
227.1004284777
  0
LINE
  5
1AE
330
1F
100
AcDbEntity
  8
0
  6
Continuous
 62
     7
370
    30
100
AcDbLine
 10
320.8833746614
 20
90.4554084248
 30
0.0
 11
297.7642244661
 21
90.4554084248
 31
0.0
  0
LINE
  5
1AF
330
1F
100
AcDbEntity
  8
0
  6
Continuous
 62
     7
370
    30
100
AcDbLine
 10
320.8833746614
 20
202.0178765364
 30
0.0
 11
297.7642244661
 21
202.0178765364
 31
0.0
  0
ELLIPSE
  5
1B0
330
1F
100
AcDbEntity
  8
0
  6
Continuous
 62
     7
370
    30
100
AcDbEllipse
 10
309.2590403415
 20
181.8707629913
 30
0.0
 11
0.224266456947646
 21
1.565268713114421
 31
0.0
210
0.0
220
0.0
230
1.0
 40
0.3142301109
 41
1.801195436862195
 42
1.998596283206541
  0
SPLINE
  5
1B1
330
1F
100
AcDbEntity
  8
0
  6
Continuous
 62
     7
370
    30
100
AcDbSpline
210
0.0
220
0.0
230
1.0
 70
     8
 71
     3
 72
     8
 73
     4
 74
     0
 42
0.000000001
 43
0.00000001
 40
0.0
 40
0.0
 40
0.0
 40
0.0
 40
1.0
 40
1.0
 40
1.0
 40
1.0
 10
308.7289680176486
 20
181.5819177647914
 30
0.0
 10
308.7337421774792
 20
181.6512668414354
 30
0.0
 10
308.7445182532097
 20
181.7204745938854
 30
0.0
 10
308.7619683916085
 20
181.7892583447368
 30
0.0
  0
ELLIPSE
  5
1B2
330
1F
100
AcDbEntity
  8
0
  6
Continuous
 62
     7
370
    30
100
AcDbEllipse
 10
310.1776907984
 20
180.9521125344
 30
0.0
 11
-1.186732207927889
 21
1.186732207927861
 31
0.0
210
0.0
220
0.0
230
1.0
 40
0.7745966692
 41
5.624127271353151
 42
6.603330290496958
  0
ELLIPSE
  5
1B3
330
1F
100
AcDbEntity
  8
0
  6
Continuous
 62
     7
370
    30
100
AcDbEllipse
 10
310.1776907984
 20
111.5211724268
 30
0.0
 11
-1.186732207927889
 21
-1.186732207927847
 31
0.0
210
0.0
220
0.0
230
1.0
 40
0.7745966692
 41
5.963040323862296
 42
6.942243343006032
  0
SPLINE
  5
1B4
330
1F
100
AcDbEntity
  8
0
  6
Continuous
 62
     7
370
    30
100
AcDbSpline
210
0.0
220
0.0
230
1.0
 70
     8
 71
     3
 72
     8
 73
     4
 74
     0
 42
0.000000001
 43
0.00000001
 40
0.0
 40
0.0
 40
0.0
 40
0.0
 40
1.0
 40
1.0
 40
1.0
 40
1.0
 10
308.7289680176486
 20
110.8913671964183
 30
0.0
 10
308.7337421774792
 20
110.8220181197743
 30
0.0
 10
308.7445182532097
 20
110.7528103673242
 30
0.0
 10
308.7619683916085
 20
110.6840266164728
 30
0.0
  0
ELLIPSE
  5
1B5
330
1F
100
AcDbEntity
  8
0
  6
Continuous
 62
     7
370
    30
100
AcDbEllipse
 10
309.2590403415
 20
110.6025219699
 30
0.0
 11
-0.2242664569477597
 21
1.565268713114407
 31
0.0
210
0.0
220
0.0
230
1.0
 40
0.3142301109
 41
1.142996370383215
 42
1.340397216727564
  0
LINE
  5
1B6
330
1F
100
AcDbEntity
  8
0
  6
Continuous
 62
     7
370
    30
100
AcDbLine
 10
308.718470391
 20
111.1877851493
 30
0.0
 11
308.718470391
 21
181.2854998119
 31
0.0
  0
ELLIPSE
  5
1B7
330
1F
100
AcDbEntity
  8
0
  6
Continuous
 62
     7
370
    30
100
AcDbEllipse
 10
310.0037992745
 20
111.0249306337
 30
0.0
 11
-0.933822705314128
 21
-0.9338227053140855
 31
0.0
210
0.0
220
0.0
230
1.0
 40
0.9086608546
 41
5.723551095093986
 42
7.020764857175224
  0
ELLIPSE
  5
1B8
330
1F
100
AcDbEntity
  8
0
  6
Continuous
 62
     7
370
    30
100
AcDbEllipse
 10
310.0037992745
 20
181.4483543275
 30
0.0
 11
0.9338227053140145
 21
-0.9338227053140998
 31
0.0
210
0.0
220
0.0
230
1.0
 40
0.9086608546
 41
2.404013103594247
 42
3.70122686567552
  0
ELLIPSE
  5
1B9
330
1F
100
AcDbEntity
  8
0
  6
Continuous
 62
     7
370
    30
100
AcDbEllipse
 10
298.2060103473
 20
95.0818422448
 30
0.0
 11
3.424016586151709
 21
3.424016586151666
 31
0.0
210
0.0
220
0.0
230
1.0
 40
0.9086608546
 41
2.573843884368258
 42
3.879172203585453
  0
ELLIPSE
  5
1BA
330
1F
100
AcDbEntity
  8
0
  6
Continuous
 62
     7
370
    30
100
AcDbEllipse
 10
298.2060103473
 20
197.3914427164
 30
0.0
 11
3.424016586151708
 21
-3.424016586151651
 31
0.0
210
0.0
220
0.0
230
1.0
 40
0.9086608546
 41
2.404013103594152
 42
3.709341422811337
  0
ARC
  5
1BB
330
1F
100
AcDbEntity
  8
0
  6
Continuous
 62
     7
370
    30
100
AcDbCircle
 10
324.5431608522
 20
95.7366424806
 30
0.0
 40
4.24850281196015
100
AcDbArc
 50
227.1004284777
 51
312.8995715223
  0
ARC
  5
1BC
330
1F
100
AcDbEntity
  8
0
  6
Continuous
 62
     7
370
    30
100
AcDbCircle
 10
324.5431608522
 20
196.7366424806
 30
0.0
 40
4.248502811960161
100
AcDbArc
 50
47.1004284777
 51
132.8995715223
  0
SPLINE
  5
1BD
330
1F
100
AcDbEntity
  8
0
  6
Continuous
 62
     7
370
    30
100
AcDbSpline
210
0.0
220
0.0
230
1.0
 70
     8
 71
     3
 72
    22
 73
    18
 74
     0
 42
0.000000001
 43
0.00000001
 40
0.0
 40
0.0
 40
0.0
 40
0.0
 40
0.125
 40
0.125
 40
0.25
 40
0.25
 40
0.375
 40
0.375
 40
0.5
 40
0.5
 40
0.625
 40
0.625
 40
0.75
 40
0.75
 40
0.875
 40
0.875
 40
1.0
 40
1.0
 40
1.0
 40
1.0
 10
320.8833747469561
 20
202.017876503009
 30
0.0
 10
321.1960077789216
 20
202.017876503009
 30
0.0
 10
321.4970000789432
 20
201.9542170201792
 30
0.0
 10
322.0943042633124
 20
201.8013023408928
 30
0.0
 10
322.3909130667165
 20
201.7130541208332
 30
0.0
 10
322.9917502795741
 20
201.5836787943347
 30
0.0
 10
323.2961579523009
 20
201.5441252797274
 30
0.0
 10
323.9117978284589
 20
201.5080179793526
 30
0.0
 10
324.2217046915728
 20
201.5065765753938
 30
0.0
 10
324.839480280573
 20
201.5063818046566
 30
0.0
 10
325.148329773575
 20
201.507523134951
 30
0.0
 10
325.7650427612319
 20
201.5416941460712
 30
0.0
 10
326.0740491259994
 20
201.5801390339223
 30
0.0
 10
326.6814981847658
 20
201.709227984009
 30
0.0
 10
326.9803533139484
 20
201.798021641174
 30
0.0
 10
327.5826450758299
 20
201.952793473395
 30
0.0
 10
327.8862614598035
 20
202.0178765030091
 30
0.0
 10
328.2029469574432
 20
202.0178765030091
 30
0.0
  0
SPLINE
  5
1BE
330
1F
100
AcDbEntity
  8
0
  6
Continuous
 62
     7
370
    30
100
AcDbSpline
210
0.0
220
0.0
230
1.0
 70
     8
 71
     3
 72
    22
 73
    18
 74
     0
 42
0.000000001
 43
0.00000001
 40
0.0
 40
0.0
 40
0.0
 40
0.0
 40
0.1250000000000001
 40
0.1250000000000001
 40
0.2500000000000002
 40
0.2500000000000002
 40
0.3750000000000001
 40
0.3750000000000001
 40
0.5000000000000001
 40
0.5000000000000001
 40
0.6250000000000001
 40
0.6250000000000001
 40
0.75
 40
0.75
 40
0.875
 40
0.875
 40
1.0
 40
1.0
 40
1.0
 40
1.0
 10
328.2029469574433
 20
90.45540845820057
 30
0.0
 10
327.8903139254778
 20
90.45540845820058
 30
0.0
 10
327.5893216254561
 20
90.5190679410306
 30
0.0
 10
326.992017441087
 20
90.6719826203169
 30
0.0
 10
326.6954086376829
 20
90.76023084037651
 30
0.0
 10
326.0945714248252
 20
90.88960616687503
 30
0.0
 10
325.7901637520985
 20
90.92915968148235
 30
0.0
 10
325.1745238759405
 20
90.96526698185708
 30
0.0
 10
324.8646170128267
 20
90.96670838581586
 30
0.0
 10
324.2468414238265
 20
90.96690315655306
 30
0.0
 10
323.9379919308245
 20
90.96576182625866
 30
0.0
 10
323.3212789431676
 20
90.93159081513842
 30
0.0
 10
323.0122725784001
 20
90.89314592728734
 30
0.0
 10
322.4048235196337
 20
90.76405697720067
 30
0.0
 10
322.1059683904512
 20
90.67526332003567
 30
0.0
 10
321.5036766285697
 20
90.52049148781461
 30
0.0
 10
321.2000602445961
 20
90.45540845820055
 30
0.0
 10
320.8833747469565
 20
90.45540845820055
 30
0.0
  0
ENDSEC
  0
SECTION
  2
OBJECTS
  0
DICTIONARY
  5
C
330
0
100
AcDbDictionary
281
     1
  3
ACAD_GROUP
350
D
  3
ACAD_LAYOUT
350
1A
  3
ACAD_MLINESTYLE
350
17
  3
ACAD_PLOTSETTINGS
350
19
  3
ACAD_PLOTSTYLENAME
350
E
  3
ACAD_SCALELIST
350
47
  0
DICTIONARY
  5
D
102
{ACAD_REACTORS
330
C
102
}
330
C
100
AcDbDictionary
281
     1
  0
DICTIONARY
  5
1A
102
{ACAD_REACTORS
330
C
102
}
330
C
100
AcDbDictionary
281
     1
  3
Layout1
350
1E
  3
Layout2
350
26
  3
Model
350
22
  0
DICTIONARY
  5
17
102
{ACAD_REACTORS
330
C
102
}
330
C
100
AcDbDictionary
281
     1
  3
Standard
350
18
  0
DICTIONARY
  5
19
102
{ACAD_REACTORS
330
C
102
}
330
C
100
AcDbDictionary
281
     1
  0
ACDBDICTIONARYWDFLT
  5
E
102
{ACAD_REACTORS
330
C
102
}
330
C
100
AcDbDictionary
281
     1
  3
Normal
350
F
100
AcDbDictionaryWithDefault
340
F
  0
DICTIONARY
  5
47
102
{ACAD_REACTORS
330
C
102
}
330
C
100
AcDbDictionary
281
     1
  3
A0
350
48
  3
A1
350
49
  3
A2
350
4A
  3
A3
350
4B
  3
A4
350
4C
  3
A5
350
4D
  3
A6
350
4E
  3
A7
350
4F
  3
A8
350
50
  3
A9
350
51
  3
B0
350
52
  3
B1
350
53
  3
B2
350
54
  3
B3
350
55
  3
B4
350
56
  3
B5
350
57
  3
B6
350
58
  3
B7
350
59
  3
B8
350
5A
  3
B9
350
5B
  3
C0
350
5C
  3
C1
350
5D
  3
C2
350
5E
  3
C3
350
5F
  3
C4
350
60
  3
C5
350
61
  3
C6
350
62
  3
C7
350
63
  3
C8
350
64
  3
C9
350
65
  3
D0
350
66
  3
D1
350
67
  3
D2
350
68
  0
LAYOUT
  5
1E
102
{ACAD_REACTORS
330
1A
102
}
330
1A
100
AcDbPlotSettings
  1

  2
none_device
  4

  6

 40
0.0
 41
0.0
 42
0.0
 43
0.0
 44
0.0
 45
0.0
 46
0.0
 47
0.0
 48
0.0
 49
0.0
140
0.0
141
0.0
142
1.0
143
1.0
 70
   688
 72
     1
 73
     0
 74
     5
  7

 75
    16
147
1.0
148
0.0
149
0.0
100
AcDbLayout
  1
Layout1
 70
     1
 71
     1
 10
0.0
 20
0.0
 11
420.0
 21
297.0
 12
0.0
 22
0.0
 32
0.0
 14
1.0000000000E+20
 24
1.0000000000E+20
 34
1.0000000000E+20
 15
-1.0000000000E+20
 25
-1.0000000000E+20
 35
-1.0000000000E+20
146
0.0
 13
0.0
 23
0.0
 33
0.0
 16
1.0
 26
0.0
 36
0.0
 17
0.0
 27
1.0
 37
0.0
 76
     0
330
1B
  0
LAYOUT
  5
26
102
{ACAD_REACTORS
330
1A
102
}
330
1A
100
AcDbPlotSettings
  1

  2
none_device
  4

  6

 40
0.0
 41
0.0
 42
0.0
 43
0.0
 44
0.0
 45
0.0
 46
0.0
 47
0.0
 48
0.0
 49
0.0
140
0.0
141
0.0
142
1.0
143
1.0
 70
   688
 72
     1
 73
     0
 74
     5
  7

 75
    16
147
1.0
148
0.0
149
0.0
100
AcDbLayout
  1
Layout2
 70
     1
 71
     2
 10
0.0
 20
0.0
 11
0.0
 21
0.0
 12
0.0
 22
0.0
 32
0.0
 14
0.0
 24
0.0
 34
0.0
 15
0.0
 25
0.0
 35
0.0
146
0.0
 13
0.0
 23
0.0
 33
0.0
 16
1.0
 26
0.0
 36
0.0
 17
0.0
 27
1.0
 37
0.0
 76
     0
330
23
  0
LAYOUT
  5
22
102
{ACAD_REACTORS
330
1A
102
}
330
1A
100
AcDbPlotSettings
  1

  2
none_device
  4
Letter_(8.50_x_11.00_Inches)
  6

 40
6.35
 41
6.35
 42
6.35000508
 43
6.35000508
 44
215.9
 45
279.4
 46
0.0
 47
0.0
 48
0.0
 49
0.0
140
0.0
141
0.0
142
1.0
143
1.0
 70
  1712
 72
     1
 73
     0
 74
     0
  7

 75
     0
147
1.0
148
0.0
149
0.0
100
AcDbLayout
  1
Model
 70
     1
 71
     0
 10
0.0
 20
0.0
 11
420.0
 21
297.0
 12
0.0
 22
0.0
 32
0.0
 14
0.0
 24
0.0
 34
0.0
 15
420.0
 25
297.0
 35
0.0
146
0.0
 13
0.0
 23
0.0
 33
0.0
 16
1.0
 26
0.0
 36
0.0
 17
0.0
 27
1.0
 37
0.0
 76
     0
330
1F
331
29
  0
MLINESTYLE
  5
18
102
{ACAD_REACTORS
330
17
102
}
330
17
100
AcDbMlineStyle
  2
Standard
 70
     0
  3

 62
   256
 51
90.0
 52
90.0
 71
     2
 49
0.5
 62
   256
  6
BYLAYER
 49
-0.5
 62
   256
  6
BYLAYER
  0
ACDBPLACEHOLDER
  5
F
102
{ACAD_REACTORS
330
E
102
}
330
E
  0
SCALE
  5
48
102
{ACAD_REACTORS
330
47
102
}
330
47
100
AcDbScale
 70
     0
300
1:1
140
1.0
141
1.0
290
     1
  0
SCALE
  5
49
102
{ACAD_REACTORS
330
47
102
}
330
47
100
AcDbScale
 70
     0
300
1:2
140
1.0
141
2.0
290
     0
  0
SCALE
  5
4A
102
{ACAD_REACTORS
330
47
102
}
330
47
100
AcDbScale
 70
     0
300
1:4
140
1.0
141
4.0
290
     0
  0
SCALE
  5
4B
102
{ACAD_REACTORS
330
47
102
}
330
47
100
AcDbScale
 70
     0
300
1:5
140
1.0
141
5.0
290
     0
  0
SCALE
  5
4C
102
{ACAD_REACTORS
330
47
102
}
330
47
100
AcDbScale
 70
     0
300
1:8
140
1.0
141
8.0
290
     0
  0
SCALE
  5
4D
102
{ACAD_REACTORS
330
47
102
}
330
47
100
AcDbScale
 70
     0
300
1:10
140
1.0
141
10.0
290
     0
  0
SCALE
  5
4E
102
{ACAD_REACTORS
330
47
102
}
330
47
100
AcDbScale
 70
     0
300
1:16
140
1.0
141
16.0
290
     0
  0
SCALE
  5
4F
102
{ACAD_REACTORS
330
47
102
}
330
47
100
AcDbScale
 70
     0
300
1:20
140
1.0
141
20.0
290
     0
  0
SCALE
  5
50
102
{ACAD_REACTORS
330
47
102
}
330
47
100
AcDbScale
 70
     0
300
1:30
140
1.0
141
30.0
290
     0
  0
SCALE
  5
51
102
{ACAD_REACTORS
330
47
102
}
330
47
100
AcDbScale
 70
     0
300
1:40
140
1.0
141
40.0
290
     0
  0
SCALE
  5
52
102
{ACAD_REACTORS
330
47
102
}
330
47
100
AcDbScale
 70
     0
300
1:50
140
1.0
141
50.0
290
     0
  0
SCALE
  5
53
102
{ACAD_REACTORS
330
47
102
}
330
47
100
AcDbScale
 70
     0
300
1:100
140
1.0
141
100.0
290
     0
  0
SCALE
  5
54
102
{ACAD_REACTORS
330
47
102
}
330
47
100
AcDbScale
 70
     0
300
2:1
140
2.0
141
1.0
290
     0
  0
SCALE
  5
55
102
{ACAD_REACTORS
330
47
102
}
330
47
100
AcDbScale
 70
     0
300
4:1
140
4.0
141
1.0
290
     0
  0
SCALE
  5
56
102
{ACAD_REACTORS
330
47
102
}
330
47
100
AcDbScale
 70
     0
300
8:1
140
8.0
141
1.0
290
     0
  0
SCALE
  5
57
102
{ACAD_REACTORS
330
47
102
}
330
47
100
AcDbScale
 70
     0
300
10:1
140
10.0
141
1.0
290
     0
  0
SCALE
  5
58
102
{ACAD_REACTORS
330
47
102
}
330
47
100
AcDbScale
 70
     0
300
100:1
140
100.0
141
1.0
290
     0
  0
SCALE
  5
59
102
{ACAD_REACTORS
330
47
102
}
330
47
100
AcDbScale
 70
     0
300
1/128" = 1'-0"
140
0.0078125
141
12.0
290
     0
  0
SCALE
  5
5A
102
{ACAD_REACTORS
330
47
102
}
330
47
100
AcDbScale
 70
     0
300
1/64" = 1'-0"
140
0.015625
141
12.0
290
     0
  0
SCALE
  5
5B
102
{ACAD_REACTORS
330
47
102
}
330
47
100
AcDbScale
 70
     0
300
1/32" = 1'-0"
140
0.03125
141
12.0
290
     0
  0
SCALE
  5
5C
102
{ACAD_REACTORS
330
47
102
}
330
47
100
AcDbScale
 70
     0
300
1/16" = 1'-0"
140
0.0625
141
12.0
290
     0
  0
SCALE
  5
5D
102
{ACAD_REACTORS
330
47
102
}
330
47
100
AcDbScale
 70
     0
300
3/32" = 1'-0"
140
0.09375
141
12.0
290
     0
  0
SCALE
  5
5E
102
{ACAD_REACTORS
330
47
102
}
330
47
100
AcDbScale
 70
     0
300
1/8" = 1'-0"
140
0.125
141
12.0
290
     0
  0
SCALE
  5
5F
102
{ACAD_REACTORS
330
47
102
}
330
47
100
AcDbScale
 70
     0
300
3/16" = 1'-0"
140
0.1875
141
12.0
290
     0
  0
SCALE
  5
60
102
{ACAD_REACTORS
330
47
102
}
330
47
100
AcDbScale
 70
     0
300
1/4" = 1'-0"
140
0.25
141
12.0
290
     0
  0
SCALE
  5
61
102
{ACAD_REACTORS
330
47
102
}
330
47
100
AcDbScale
 70
     0
300
3/8" = 1'-0"
140
0.375
141
12.0
290
     0
  0
SCALE
  5
62
102
{ACAD_REACTORS
330
47
102
}
330
47
100
AcDbScale
 70
     0
300
1/2" = 1'-0"
140
0.5
141
12.0
290
     0
  0
SCALE
  5
63
102
{ACAD_REACTORS
330
47
102
}
330
47
100
AcDbScale
 70
     0
300
3/4" = 1'-0"
140
0.75
141
12.0
290
     0
  0
SCALE
  5
64
102
{ACAD_REACTORS
330
47
102
}
330
47
100
AcDbScale
 70
     0
300
1" = 1'-0"
140
1.0
141
12.0
290
     0
  0
SCALE
  5
65
102
{ACAD_REACTORS
330
47
102
}
330
47
100
AcDbScale
 70
     0
300
1-1/2" = 1'-0"
140
1.5
141
12.0
290
     0
  0
SCALE
  5
66
102
{ACAD_REACTORS
330
47
102
}
330
47
100
AcDbScale
 70
     0
300
3" = 1'-0"
140
3.0
141
12.0
290
     0
  0
SCALE
  5
67
102
{ACAD_REACTORS
330
47
102
}
330
47
100
AcDbScale
 70
     0
300
6" = 1'-0"
140
6.0
141
12.0
290
     0
  0
SCALE
  5
68
102
{ACAD_REACTORS
330
47
102
}
330
47
100
AcDbScale
 70
     0
300
1'-0" = 1'-0"
140
12.0
141
12.0
290
     0
  0
ENDSEC
  0
EOF
