  0
SECTION
  2
HEADER
  9
$ACADVER
  1
AC1015
  9
$ACADMAINTVER
 70
     6
  9
$DWGCODEPAGE
  3
DOS932
  9
$INSBASE
 10
0.0
 20
0.0
 30
0.0
  9
$EXTMIN
 10
0.0
 20
0.0
 30
0.0
  9
$EXTMAX
 10
420.0
 20
297.0
 30
0.0
  9
$LIMMIN
 10
0.0
 20
0.0
  9
$LIMMAX
 10
420.0
 20
297.0
  9
$ORTHOMODE
 70
     0
  9
$REGENMODE
 70
     1
  9
$FILLMODE
 70
     1
  9
$QTEXTMODE
 70
     0
  9
$MIRRTEXT
 70
     1
  9
$LTSCALE
 40
1.0
  9
$ATTMODE
 70
     1
  9
$TEXTSIZE
 40
3.8805555556
  9
$TRACEWID
 40
1.0
  9
$TEXTSTYLE
  7
Standard
  9
$CLAYER
  8
0
  9
$CELTYPE
  6
ByLayer
  9
$CECOLOR
 62
   256
  9
$CELTSCALE
 40
1.0
  9
$DISPSILH
 70
     0
  9
$DIMSCALE
 40
1.0
  9
$DIMASZ
 40
3.0
  9
$DIMEXO
 40
0.0
  9
$DIMDLI
 40
3.75
  9
$DIMRND
 40
0.0
  9
$DIMDLE
 40
0.0
  9
$DIMEXE
 40
1.0
  9
$DIMTP
 40
0.0
  9
$DIMTM
 40
0.0
  9
$DIMTXT
 40
3.5277777778
  9
$DIMCEN
 40
2.5
  9
$DIMTSZ
 40
0.0
  9
$DIMTOL
 70
     0
  9
$DIMLIM
 70
     0
  9
$DIMTIH
 70
     1
  9
$DIMTOH
 70
     1
  9
$DIMSE1
 70
     0
  9
$DIMSE2
 70
     0
  9
$DIMTAD
 70
     1
  9
$DIMZIN
 70
     0
  9
$DIMBLK
  1

  9
$DIMASO
 70
     1
  9
$DIMSHO
 70
     1
  9
$DIMPOST
  1

  9
$DIMAPOST
  1

  9
$DIMALT
 70
     0
  9
$DIMALTD
 70
     3
  9
$DIMALTF
 40
0.0393700787
  9
$DIMLFAC
 40
1.0
  9
$DIMTOFL
 70
     1
  9
$DIMTVP
 40
0.0
  9
$DIMTIX
 70
     0
  9
$DIMSOXD
 70
     0
  9
$DIMSAH
 70
     0
  9
$DIMBLK1
  1

  9
$DIMBLK2
  1

  9
$DIMSTYLE
  2
ISO-25
  9
$DIMCLRD
 70
     0
  9
$DIMCLRE
 70
     0
  9
$DIMCLRT
 70
     0
  9
$DIMTFAC
 40
1.0
  9
$DIMGAP
 40
1.0
  9
$DIMJUST
 70
     0
  9
$DIMSD1
 70
     0
  9
$DIMSD2
 70
     0
  9
$DIMTOLJ
 70
     0
  9
$DIMTZIN
 70
     0
  9
$DIMALTZ
 70
     0
  9
$DIMALTTZ
 70
     0
  9
$DIMUPT
 70
     0
  9
$DIMDEC
 70
     2
  9
$DIMTDEC
 70
     2
  9
$DIMALTU
 70
     2
  9
$DIMALTTD
 70
     3
  9
$DIMTXSTY
  7
Standard
  9
$DIMAUNIT
 70
     0
  9
$DIMADEC
 70
     2
  9
$DIMALTRND
 40
0.0
  9
$DIMAZIN
 70
     0
  9
$DIMDSEP
 70
    44
  9
$DIMATFIT
 70
     3
  9
$DIMFRAC
 70
     0
  9
$DIMLDRBLK
  1

  9
$DIMLUNIT
 70
     2
  9
$DIMLWD
 70
    -2
  9
$DIMLWE
 70
    -2
  9
$DIMTMOVE
 70
     0
  9
$LUNITS
 70
     2
  9
$LUPREC
 70
     2
  9
$SKETCHINC
 40
1.0
  9
$FILLETRAD
 40
10.0
  9
$AUNITS
 70
     0
  9
$AUPREC
 70
     2
  9
$MENU
  1
.
  9
$ELEVATION
 40
0.0
  9
$PELEVATION
 40
0.0
  9
$THICKNESS
 40
0.0
  9
$LIMCHECK
 70
     0
  9
$CHAMFERA
 40
0.0
  9
$CHAMFERB
 40
0.0
  9
$CHAMFERC
 40
0.0
  9
$CHAMFERD
 40
0.0
  9
$SKPOLY
 70
     0
  9
$TDCREATE
 40
2458288.397102847
  9
$TDUCREATE
 40
2458288.022102847
  9
$TDUPDATE
 40
2458288.397103762
  9
$TDUUPDATE
 40
2458288.022103762
  9
$TDINDWG
 40
0.0000000116
  9
$TDUSRTIMER
 40
0.0000000116
  9
$USRTIMER
 70
     1
  9
$ANGBASE
 50
0.0
  9
$ANGDIR
 70
     0
  9
$PDMODE
 70
     0
  9
$PDSIZE
 40
-1.0
  9
$PLINEWID
 40
0.0
  9
$SPLFRAME
 70
     0
  9
$SPLINETYPE
 70
     6
  9
$SPLINESEGS
 70
     8
  9
$HANDSEED
  5
45B
  9
$SURFTAB1
 70
     6
  9
$SURFTAB2
 70
     6
  9
$SURFTYPE
 70
     6
  9
$SURFU
 70
     6
  9
$SURFV
 70
     6
  9
$UCSBASE
  2

  9
$UCSNAME
  2

  9
$UCSORG
 10
0.0
 20
0.0
 30
0.0
  9
$UCSXDIR
 10
1.0
 20
0.0
 30
0.0
  9
$UCSYDIR
 10
0.0
 20
1.0
 30
0.0
  9
$UCSORTHOREF
  2

  9
$UCSORTHOVIEW
 70
     0
  9
$UCSORGTOP
 10
0.0
 20
0.0
 30
0.0
  9
$UCSORGBOTTOM
 10
0.0
 20
0.0
 30
0.0
  9
$UCSORGLEFT
 10
0.0
 20
0.0
 30
0.0
  9
$UCSORGRIGHT
 10
0.0
 20
0.0
 30
0.0
  9
$UCSORGFRONT
 10
0.0
 20
0.0
 30
0.0
  9
$UCSORGBACK
 10
0.0
 20
0.0
 30
0.0
  9
$PUCSBASE
  2

  9
$PUCSNAME
  2

  9
$PUCSORG
 10
0.0
 20
0.0
 30
0.0
  9
$PUCSXDIR
 10
1.0
 20
0.0
 30
0.0
  9
$PUCSYDIR
 10
0.0
 20
1.0
 30
0.0
  9
$PUCSORTHOREF
  2

  9
$PUCSORTHOVIEW
 70
     0
  9
$PUCSORGTOP
 10
0.0
 20
0.0
 30
0.0
  9
$PUCSORGBOTTOM
 10
0.0
 20
0.0
 30
0.0
  9
$PUCSORGLEFT
 10
0.0
 20
0.0
 30
0.0
  9
$PUCSORGRIGHT
 10
0.0
 20
0.0
 30
0.0
  9
$PUCSORGFRONT
 10
0.0
 20
0.0
 30
0.0
  9
$PUCSORGBACK
 10
0.0
 20
0.0
 30
0.0
  9
$USERI1
 70
     0
  9
$USERI2
 70
     0
  9
$USERI3
 70
     0
  9
$USERI4
 70
     0
  9
$USERI5
 70
     0
  9
$USERR1
 40
0.0
  9
$USERR2
 40
0.0
  9
$USERR3
 40
0.0
  9
$USERR4
 40
0.0
  9
$USERR5
 40
0.0
  9
$WORLDVIEW
 70
     1
  9
$SHADEDGE
 70
     3
  9
$SHADEDIF
 70
    70
  9
$TILEMODE
 70
     1
  9
$MAXACTVP
 70
    64
  9
$PINSBASE
 10
0.0
 20
0.0
 30
0.0
  9
$PLIMCHECK
 70
     0
  9
$PEXTMIN
 10
1.0000000000E+20
 20
1.0000000000E+20
 30
1.0000000000E+20
  9
$PEXTMAX
 10
-1.0000000000E+20
 20
-1.0000000000E+20
 30
-1.0000000000E+20
  9
$PLIMMIN
 10
0.0
 20
0.0
  9
$PLIMMAX
 10
420.0
 20
297.0
  9
$UNITMODE
 70
     0
  9
$VISRETAIN
 70
     1
  9
$PLINEGEN
 70
     0
  9
$PSLTSCALE
 70
     1
  9
$TREEDEPTH
 70
  3020
  9
$CMLSTYLE
  2
Standard
  9
$CMLJUST
 70
     0
  9
$CMLSCALE
 40
20.0
  9
$PROXYGRAPHICS
 70
     1
  9
$MEASUREMENT
 70
     1
  9
$CELWEIGHT
370
    -1
  9
$ENDCAPS
280
     0
  9
$JOINSTYLE
280
     0
  9
$LWDISPLAY
290
     1
  9
$INSUNITS
 70
     4
  9
$HYPERLINKBASE
  1

  9
$STYLESHEET
  1

  9
$XEDIT
290
     1
  9
$CEPSNTYPE
380
     0
  9
$PSTYLEMODE
290
     1
  9
$FINGERPRINTGUID
  2
{4DB71F79-E4C7-4E4B-8BC5-3DC4BB13E0C2}
  9
$VERSIONGUID
  2
{FAEB1C32-E019-11D5-929B-00C0DF256EC4}
  9
$EXTNAMES
290
     1
  9
$PSVPSCALE
 40
0.0
  9
$OLESTARTUP
290
     0
  0
ENDSEC
  0
SECTION
  2
CLASSES
  0
CLASS
  1
ACDBDICTIONARYWDFLT
  2
AcDbDictionaryWithDefault
  3
ObjectDBX Classes
 90
        0
280
     0
281
     0
  0
CLASS
  1
VISUALSTYLE
  2
AcDbVisualStyle
  3
ObjectDBX Classes
 90
     4095
280
     0
281
     0
  0
CLASS
  1
MATERIAL
  2
AcDbMaterial
  3
ObjectDBX Classes
 90
     1153
280
     0
281
     0
  0
CLASS
  1
SCALE
  2
AcDbScale
  3
ObjectDBX Classes
 90
     1153
280
     0
281
     0
  0
CLASS
  1
TABLESTYLE
  2
AcDbTableStyle
  3
ObjectDBX Classes
 90
     4095
280
     0
281
     0
  0
CLASS
  1
MLEADERSTYLE
  2
AcDbMLeaderStyle
  3
ACDB_MLEADERSTYLE_CLASS
 90
     4095
280
     0
281
     0
  0
CLASS
  1
SUN
  2
AcDbSun
  3
SCENEOE
 90
     1153
280
     0
281
     0
  0
CLASS
  1
ACDBPLACEHOLDER
  2
AcDbPlaceHolder
  3
ObjectDBX Classes
 90
        0
280
     0
281
     0
  0
CLASS
  1
LAYOUT
  2
AcDbLayout
  3
ObjectDBX Classes
 90
        0
280
     0
281
     0
  0
ENDSEC
  0
SECTION
  2
TABLES
  0
TABLE
  2
VPORT
  5
8
330
0
100
AcDbSymbolTable
 70
     1
  0
VPORT
  5
29
330
8
100
AcDbSymbolTableRecord
100
AcDbViewportTableRecord
  2
*Active
 70
     0
 10
0.0
 20
0.0
 11
1.0
 21
1.0
 12
210.0
 22
148.5
 13
0.0
 23
0.0
 14
10.0
 24
10.0
 15
10.0
 25
10.0
 16
0.0
 26
0.0
 36
1.0
 17
0.0
 27
0.0
 37
0.0
 40
297.0
 41
1.4141414141
 42
50.0
 43
0.0
 44
0.0
 50
0.0
 51
0.0
 71
     0
 72
  2000
 73
     1
 74
     3
 75
     0
 76
     0
 77
     0
 78
     0
281
     0
 65
     1
110
0.0
120
0.0
130
0.0
111
1.0
121
0.0
131
0.0
112
0.0
122
1.0
132
0.0
 79
     0
146
0.0
  0
ENDTAB
  0
TABLE
  2
LTYPE
  5
5
330
0
100
AcDbSymbolTable
 70
     6
  0
LTYPE
  5
14
330
5
100
AcDbSymbolTableRecord
100
AcDbLinetypeTableRecord
  2
ByBlock
 70
     0
  3

 72
    65
 73
     0
 40
0.0
  0
LTYPE
  5
15
330
5
100
AcDbSymbolTableRecord
100
AcDbLinetypeTableRecord
  2
ByLayer
 70
     0
  3

 72
    65
 73
     0
 40
0.0
  0
LTYPE
  5
16
330
5
100
AcDbSymbolTableRecord
100
AcDbLinetypeTableRecord
  2
Continuous
 70
     0
  3
Solid line
 72
    65
 73
     0
 40
0.0
  0
LTYPE
  5
6E
330
5
100
AcDbSymbolTableRecord
100
AcDbLinetypeTableRecord
  2
HIDDEN
 70
     0
  3
Hidden __ __ __ __ __ __ __ __ __ __ __ __ __ __
 72
    65
 73
     2
 40
1.905
 49
1.27
 74
     0
 49
-0.635
 74
     0
  0
LTYPE
  5
6F
330
5
100
AcDbSymbolTableRecord
100
AcDbLinetypeTableRecord
  2
PHANTOM
 70
     0
  3
Phantom ______  __  __  ______  __  __  ______
 72
    65
 73
     6
 40
12.7
 49
6.35
 74
     0
 49
-1.27
 74
     0
 49
1.27
 74
     0
 49
-1.27
 74
     0
 49
1.27
 74
     0
 49
-1.27
 74
     0
  0
LTYPE
  5
70
330
5
100
AcDbSymbolTableRecord
100
AcDbLinetypeTableRecord
  2
CENTER
 70
     0
  3
Center ____ _ ____ _ ____ _ ____ _ ____ _ ____
 72
    65
 73
     4
 40
10.16
 49
6.35
 74
     0
 49
-1.27
 74
     0
 49
1.27
 74
     0
 49
-1.27
 74
     0
  0
LTYPE
  5
71
330
5
100
AcDbSymbolTableRecord
100
AcDbLinetypeTableRecord
  2
CENTERX2
 70
     0
  3
Center (2x) ________  __  ________  __  _____
 72
    65
 73
     4
 40
20.32
 49
12.7
 74
     0
 49
-2.54
 74
     0
 49
2.54
 74
     0
 49
-2.54
 74
     0
  0
LTYPE
  5
72
330
5
100
AcDbSymbolTableRecord
100
AcDbLinetypeTableRecord
  2
DOT2
 70
     0
  3
Dot (.5x) ........................................
 72
    65
 73
     2
 40
0.635
 49
0.0
 74
     0
 49
-0.635
 74
     0
  0
ENDTAB
  0
TABLE
  2
LAYER
  5
2
330
0
100
AcDbSymbolTable
 70
     6
  0
LAYER
  5
10
330
2
100
AcDbSymbolTableRecord
100
AcDbLayerTableRecord
  2
0
 70
     0
 62
     7
  6
Continuous
370
    -3
390
F
  0
LAYER
  5
73
330
2
100
AcDbSymbolTableRecord
100
AcDbLayerTableRecord
  2
SLD-0
 70
     0
 62
     7
  6
Continuous
370
    -3
390
F
  0
LAYER
  5
74
330
2
100
AcDbSymbolTableRecord
100
AcDbLayerTableRecord
  2
8
 70
     0
 62
     7
  6
Continuous
370
    15
390
F
  0
LAYER
  5
75
330
2
100
AcDbSymbolTableRecord
100
AcDbLayerTableRecord
  2
9
 70
     0
 62
     7
  6
Continuous
370
    -3
390
F
  0
LAYER
  5
76
330
2
100
AcDbSymbolTableRecord
100
AcDbLayerTableRecord
  2
10
 70
     0
 62
     1
  6
Continuous
370
    -3
390
F
  0
LAYER
  5
77
330
2
100
AcDbSymbolTableRecord
100
AcDbLayerTableRecord
  2
11
 70
     0
 62
     7
  6
Continuous
370
    -3
390
F
  0
ENDTAB
  0
TABLE
  2
STYLE
  5
3
330
0
100
AcDbSymbolTable
 70
     2
  0
STYLE
  5
11
330
3
100
AcDbSymbolTableRecord
100
AcDbTextStyleTableRecord
  2
Standard
 70
     0
 40
0.0
 41
1.0
 50
0.0
 71
     0
 42
3.8805555556
  3
txt
  4
bigfont
  0
STYLE
  5
78
330
3
100
AcDbSymbolTableRecord
100
AcDbTextStyleTableRecord
  2
SLDTEXTSTYLE0
 70
     0
 40
0.0
 41
0.7
 50
0.0
 71
     0
 42
3.8805555556
  3
TXT
  4
bigfont
  0
ENDTAB
  0
TABLE
  2
VIEW
  5
6
330
0
100
AcDbSymbolTable
 70
     0
  0
ENDTAB
  0
TABLE
  2
UCS
  5
7
330
0
100
AcDbSymbolTable
 70
     0
  0
ENDTAB
  0
TABLE
  2
APPID
  5
9
330
0
100
AcDbSymbolTable
 70
     1
  0
APPID
  5
12
330
9
100
AcDbSymbolTableRecord
100
AcDbRegAppTableRecord
  2
ACAD
 70
     0
  0
ENDTAB
  0
TABLE
  2
DIMSTYLE
  5
A
330
0
100
AcDbSymbolTable
 70
     1
100
AcDbDimStyleTable
  0
DIMSTYLE
105
27
330
A
100
AcDbSymbolTableRecord
100
AcDbDimStyleTableRecord
  2
ISO-25
 70
     0
 41
2.5
 42
0.625
 43
3.75
 44
1.25
 73
     0
 74
     0
 77
     1
 78
     8
140
2.5
141
2.5
143
0.0393700787
147
0.625
171
     3
172
     1
178
     0
271
     2
272
     2
274
     3
278
    44
283
     0
284
     8
340
11
  0
ENDTAB
  0
TABLE
  2
BLOCK_RECORD
  5
1
330
0
100
AcDbSymbolTable
 70
     1
  0
BLOCK_RECORD
  5
1F
330
1
100
AcDbSymbolTableRecord
100
AcDbBlockTableRecord
  2
*Model_Space
340
22
  0
BLOCK_RECORD
  5
1B
330
1
100
AcDbSymbolTableRecord
100
AcDbBlockTableRecord
  2
*Paper_Space
340
1E
  0
BLOCK_RECORD
  5
23
330
1
100
AcDbSymbolTableRecord
100
AcDbBlockTableRecord
  2
*Paper_Space0
340
26
  0
ENDTAB
  0
ENDSEC
  0
SECTION
  2
BLOCKS
  0
BLOCK
  5
20
330
1F
100
AcDbEntity
  8
0
100
AcDbBlockBegin
  2
*Model_Space
 70
     0
 10
0.0
 20
0.0
 30
0.0
  3
*Model_Space
  1

  0
ENDBLK
  5
21
330
1F
100
AcDbEntity
  8
0
100
AcDbBlockEnd
  0
BLOCK
  5
1C
330
1B
100
AcDbEntity
 67
     1
  8
0
100
AcDbBlockBegin
  2
*Paper_Space
 70
     0
 10
0.0
 20
0.0
 30
0.0
  3
*Paper_Space
  1

  0
ENDBLK
  5
1D
330
1B
100
AcDbEntity
 67
     1
  8
0
100
AcDbBlockEnd
  0
BLOCK
  5
24
330
23
100
AcDbEntity
  8
0
100
AcDbBlockBegin
  2
*Paper_Space0
 70
     0
 10
0.0
 20
0.0
 30
0.0
  3
*Paper_Space0
  1

  0
ENDBLK
  5
25
330
23
100
AcDbEntity
  8
0
100
AcDbBlockEnd
  0
ENDSEC
  0
SECTION
  2
ENTITIES
  0
MTEXT
  5
79
330
1F
100
AcDbEntity
  8
9
 62
     7
100
AcDbMText
 10
22.9810592731
 20
14.7698939359
 30
0.0
 40
3.7041666667
 41
0.0
 71
     1
 72
     1
  1
2018/05/28
  7
SLDTEXTSTYLE0
 73
     1
 44
1.0
  0
MTEXT
  5
7A
330
1F
100
AcDbEntity
  8
9
 62
     7
100
AcDbMText
 10
22.9810592731
 20
39.3097759652
 30
0.0
 40
3.7041666667
 41
0.0
 71
     1
 72
     1
  1
PXP-UM01-Q1
  7
SLDTEXTSTYLE0
 73
     1
 44
1.0
  0
MTEXT
  5
7B
330
1F
100
AcDbEntity
  8
9
 62
     7
100
AcDbMText
 10
22.9810592731
 20
22.271836236
 30
0.0
 40
3.7041666667
 41
0.0
 71
     1
 72
     1
  1
-
  7
SLDTEXTSTYLE0
 73
     1
 44
1.0
  0
MTEXT
  5
7C
330
1F
100
AcDbEntity
  8
9
 62
     7
100
AcDbMText
 10
22.9810592731
 20
30.9293045781
 30
0.0
 40
3.7041666667
 41
0.0
 71
     1
 72
     1
  1
1:1
  7
SLDTEXTSTYLE0
 73
     1
 44
1.0
  0
ARC
  5
7D
330
1F
100
AcDbEntity
  8
0
  6
Continuous
 62
     7
370
    30
100
AcDbCircle
 10
223.9603580171
 20
90.4952570379
 30
0.0
 40
1.300000000000011
100
AcDbArc
 50
180.0
 51
270.0
  0
ARC
  5
7E
330
1F
100
AcDbEntity
  8
0
  6
Continuous
 62
     7
370
    30
100
AcDbCircle
 10
223.9603580171
 20
201.4952570379
 30
0.0
 40
1.300000000000011
100
AcDbArc
 50
90.0
 51
180.0
  0
ARC
  5
7F
330
1F
100
AcDbEntity
  8
0
  6
Continuous
 62
     7
370
    30
100
AcDbCircle
 10
221.4603580171
 20
203.9952570379
 30
0.0
 40
1.799999999999983
100
AcDbArc
 50
90.0
 51
180.0
  0
LINE
  5
80
330
1F
100
AcDbEntity
  8
0
  6
Continuous
 62
     7
370
    30
100
AcDbLine
 10
287.4603580171
 20
205.7952570379
 30
0.0
 11
221.4603580171
 21
205.7952570379
 31
0.0
  0
ARC
  5
81
330
1F
100
AcDbEntity
  8
0
  6
Continuous
 62
     7
370
    30
100
AcDbCircle
 10
287.4603580171
 20
203.9952570379
 30
0.0
 40
1.799999999999983
100
AcDbArc
 50
0.0
 51
90.0
  0
LINE
  5
82
330
1F
100
AcDbEntity
  8
0
  6
Continuous
 62
     7
370
    30
100
AcDbLine
 10
289.2603580171
 20
203.9952570379
 30
0.0
 11
289.2603580171
 21
87.9952570379
 31
0.0
  0
ARC
  5
83
330
1F
100
AcDbEntity
  8
0
  6
Continuous
 62
     7
370
    30
100
AcDbCircle
 10
287.4603580171
 20
87.9952570379
 30
0.0
 40
1.799999999999997
100
AcDbArc
 50
270.0
 51
0.0
  0
LINE
  5
84
330
1F
100
AcDbEntity
  8
0
  6
Continuous
 62
     7
370
    30
100
AcDbLine
 10
287.4603580171
 20
86.1952570379
 30
0.0
 11
221.4603580171
 21
86.1952570379
 31
0.0
  0
ARC
  5
85
330
1F
100
AcDbEntity
  8
0
  6
Continuous
 62
     7
370
    30
100
AcDbCircle
 10
221.4603580171
 20
87.9952570379
 30
0.0
 40
1.799999999999997
100
AcDbArc
 50
180.0
 51
270.0
  0
LINE
  5
86
330
1F
100
AcDbEntity
  8
0
  6
Continuous
 62
     7
370
    30
100
AcDbLine
 10
219.6603580171
 20
203.9952570379
 30
0.0
 11
219.6603580171
 21
87.9952570379
 31
0.0
  0
LINE
  5
87
330
1F
100
AcDbEntity
  8
0
  6
Continuous
 62
     7
370
    30
100
AcDbLine
 10
222.6603580171
 20
201.4952570379
 30
0.0
 11
222.6603580171
 21
90.4952570379
 31
0.0
  0
LINE
  5
88
330
1F
100
AcDbEntity
  8
0
  6
Continuous
 62
     7
370
    30
100
AcDbLine
 10
223.9603580171
 20
89.1952570379
 30
0.0
 11
284.9603580171
 21
89.1952570379
 31
0.0
  0
LINE
  5
89
330
1F
100
AcDbEntity
  8
0
  6
Continuous
 62
     7
370
    30
100
AcDbLine
 10
284.9603580171
 20
202.7952570379
 30
0.0
 11
223.9603580171
 21
202.7952570379
 31
0.0
  0
ARC
  5
8A
330
1F
100
AcDbEntity
  8
0
  6
Continuous
 62
     7
370
    30
100
AcDbCircle
 10
284.9603580171
 20
201.4952570379
 30
0.0
 40
1.300000000000011
100
AcDbArc
 50
0.0
 51
90.0
  0
ARC
  5
8B
330
1F
100
AcDbEntity
  8
0
  6
Continuous
 62
     7
370
    30
100
AcDbCircle
 10
284.9603580171
 20
90.4952570379
 30
0.0
 40
1.300000000000011
100
AcDbArc
 50
270.0
 51
0.0
  0
LINE
  5
8C
330
1F
100
AcDbEntity
  8
0
  6
Continuous
 62
     7
370
    30
100
AcDbLine
 10
286.2603580171
 20
90.4952570379
 30
0.0
 11
286.2603580171
 21
201.4952570379
 31
0.0
  0
LINE
  5
8D
330
1F
100
AcDbEntity
  8
0
  6
Continuous
 62
     7
370
    30
100
AcDbLine
 10
287.4603580171
 20
81.9952570379
 30
0.0
 11
256.9603580171
 21
81.9952570379
 31
0.0
  0
LINE
  5
8E
330
1F
100
AcDbEntity
  8
0
  6
Continuous
 62
     7
370
    30
100
AcDbLine
 10
256.9603580171
 20
81.9952570379
 30
0.0
 11
251.9603580171
 21
81.9952570379
 31
0.0
  0
LINE
  5
8F
330
1F
100
AcDbEntity
  8
0
  6
Continuous
 62
     7
370
    30
100
AcDbLine
 10
251.9603580171
 20
81.9952570379
 30
0.0
 11
221.4603580171
 21
81.9952570379
 31
0.0
  0
LINE
  5
90
330
1F
100
AcDbEntity
  8
0
  6
Continuous
 62
     7
370
    30
100
AcDbLine
 10
287.4603580171
 20
209.9952570379
 30
0.0
 11
221.4603580171
 21
209.9952570379
 31
0.0
  0
ARC
  5
91
330
1F
100
AcDbEntity
  8
0
  6
Continuous
 62
     7
370
    30
100
AcDbCircle
 10
287.4603580171
 20
203.9952570379
 30
0.0
 40
6.0
100
AcDbArc
 50
0.0
 51
90.0
  0
ARC
  5
92
330
1F
100
AcDbEntity
  8
0
  6
Continuous
 62
     7
370
    30
100
AcDbCircle
 10
221.4603580171
 20
87.9952570379
 30
0.0
 40
6.000000000000014
100
AcDbArc
 50
180.0
 51
270.0
  0
ARC
  5
93
330
1F
100
AcDbEntity
  8
0
  6
Continuous
 62
     7
370
    30
100
AcDbCircle
 10
287.4603580171
 20
87.9952570379
 30
0.0
 40
6.000000000000014
100
AcDbArc
 50
270.0
 51
0.0
  0
LINE
  5
94
330
1F
100
AcDbEntity
  8
0
  6
Continuous
 62
     7
370
    30
100
AcDbLine
 10
293.4603580171
 20
203.9952570379
 30
0.0
 11
293.4603580171
 21
87.9952570379
 31
0.0
  0
LINE
  5
95
330
1F
100
AcDbEntity
  8
0
  6
Continuous
 62
     7
370
    30
100
AcDbLine
 10
215.4603580171
 20
203.9952570379
 30
0.0
 11
215.4603580171
 21
87.9952570379
 31
0.0
  0
ARC
  5
96
330
1F
100
AcDbEntity
  8
0
  6
Continuous
 62
     7
370
    30
100
AcDbCircle
 10
221.4603580171
 20
203.9952570379
 30
0.0
 40
6.0
100
AcDbArc
 50
90.0
 51
180.0
  0
LINE
  5
97
330
1F
100
AcDbEntity
  8
0
  6
Continuous
 62
     7
370
    30
100
AcDbLine
 10
237.5103580171
 20
185.0952570379
 30
0.0
 11
271.4103580171
 21
185.0952570379
 31
0.0
  0
LINE
  5
98
330
1F
100
AcDbEntity
  8
0
  6
Continuous
 62
     7
370
    30
100
AcDbLine
 10
240.2103580171
 20
180.2952570379
 30
0.0
 11
240.2103580171
 21
111.6952570379
 31
0.0
  0
LINE
  5
99
330
1F
100
AcDbEntity
  8
0
  6
Continuous
 62
     7
370
    30
100
AcDbLine
 10
239.2103580171
 20
111.6952570379
 30
0.0
 11
239.2103580171
 21
180.2952570379
 31
0.0
  0
ARC
  5
9A
330
1F
100
AcDbEntity
  8
0
  6
Continuous
 62
     7
370
    30
100
AcDbCircle
 10
268.4103580171
 20
180.2952570379
 30
0.0
 40
1.30000000000004
100
AcDbArc
 50
0.0
 51
90.0
  0
ARC
  5
9B
330
1F
100
AcDbEntity
  8
0
  6
Continuous
 62
     7
370
    30
100
AcDbCircle
 10
268.4103580171
 20
180.2952570379
 30
0.0
 40
0.3000000000000114
100
AcDbArc
 50
0.0
 51
90.0
  0
ARC
  5
9C
330
1F
100
AcDbEntity
  8
0
  6
Continuous
 62
     7
370
    30
100
AcDbCircle
 10
268.4103580171
 20
111.6952570379
 30
0.0
 40
1.300000000000011
100
AcDbArc
 50
270.0
 51
0.0
  0
LINE
  5
9D
330
1F
100
AcDbEntity
  8
0
  6
Continuous
 62
     7
370
    30
100
AcDbLine
 10
269.7103580171
 20
180.2952570379
 30
0.0
 11
269.7103580171
 21
111.6952570379
 31
0.0
  0
LINE
  5
9E
330
1F
100
AcDbEntity
  8
0
  6
Continuous
 62
     7
370
    30
100
AcDbLine
 10
240.5103580171
 20
181.5952570379
 30
0.0
 11
268.4103580171
 21
181.5952570379
 31
0.0
  0
ARC
  5
9F
330
1F
100
AcDbEntity
  8
0
  6
Continuous
 62
     7
370
    30
100
AcDbCircle
 10
240.5103580171
 20
180.2952570379
 30
0.0
 40
1.30000000000004
100
AcDbArc
 50
90.0
 51
180.0
  0
ARC
  5
A0
330
1F
100
AcDbEntity
  8
0
  6
Continuous
 62
     7
370
    30
100
AcDbCircle
 10
240.5103580171
 20
111.6952570379
 30
0.0
 40
1.300000000000011
100
AcDbArc
 50
180.0
 51
270.0
  0
LINE
  5
A1
330
1F
100
AcDbEntity
  8
0
  6
Continuous
 62
     7
370
    30
100
AcDbLine
 10
268.4103580171
 20
110.3952570379
 30
0.0
 11
240.5103580171
 21
110.3952570379
 31
0.0
  0
LINE
  5
A2
330
1F
100
AcDbEntity
  8
0
  6
Continuous
 62
     7
370
    30
100
AcDbLine
 10
268.4103580171
 20
180.5952570379
 30
0.0
 11
240.5103580171
 21
180.5952570379
 31
0.0
  0
ARC
  5
A3
330
1F
100
AcDbEntity
  8
0
  6
Continuous
 62
     7
370
    30
100
AcDbCircle
 10
268.4103580171
 20
111.6952570379
 30
0.0
 40
0.2999999999999972
100
AcDbArc
 50
270.0
 51
0.0
  0
ARC
  5
A4
330
1F
100
AcDbEntity
  8
0
  6
Continuous
 62
     7
370
    30
100
AcDbCircle
 10
240.5103580171
 20
180.2952570379
 30
0.0
 40
0.3000000000000114
100
AcDbArc
 50
90.0
 51
180.0
  0
LINE
  5
A5
330
1F
100
AcDbEntity
  8
0
  6
Continuous
 62
     7
370
    30
100
AcDbLine
 10
268.7103580171
 20
111.6952570379
 30
0.0
 11
268.7103580171
 21
180.2952570379
 31
0.0
  0
ARC
  5
A6
330
1F
100
AcDbEntity
  8
0
  6
Continuous
 62
     7
370
    30
100
AcDbCircle
 10
237.5103580171
 20
183.2952570379
 30
0.0
 40
1.800000000000011
100
AcDbArc
 50
90.0
 51
180.0
  0
LINE
  5
A7
330
1F
100
AcDbEntity
  8
0
  6
Continuous
 62
     7
370
    30
100
AcDbLine
 10
273.2103580171
 20
183.2952570379
 30
0.0
 11
273.2103580171
 21
108.6952570379
 31
0.0
  0
LINE
  5
A8
330
1F
100
AcDbEntity
  8
0
  6
Continuous
 62
     7
370
    30
100
AcDbLine
 10
240.5103580171
 20
111.3952570379
 30
0.0
 11
268.4103580171
 21
111.3952570379
 31
0.0
  0
LINE
  5
A9
330
1F
100
AcDbEntity
  8
0
  6
Continuous
 62
     7
370
    30
100
AcDbLine
 10
235.7103580171
 20
108.6952570379
 30
0.0
 11
235.7103580171
 21
183.2952570379
 31
0.0
  0
ARC
  5
AA
330
1F
100
AcDbEntity
  8
0
  6
Continuous
 62
     7
370
    30
100
AcDbCircle
 10
240.5103580171
 20
111.6952570379
 30
0.0
 40
0.2999999999999972
100
AcDbArc
 50
180.0
 51
270.0
  0
ARC
  5
AB
330
1F
100
AcDbEntity
  8
0
  6
Continuous
 62
     7
370
    30
100
AcDbCircle
 10
237.5103580171
 20
108.6952570379
 30
0.0
 40
1.800000000000011
100
AcDbArc
 50
180.0
 51
270.0
  0
ARC
  5
AC
330
1F
100
AcDbEntity
  8
0
  6
Continuous
 62
     7
370
    30
100
AcDbCircle
 10
271.4103580171
 20
108.6952570379
 30
0.0
 40
1.800000000000011
100
AcDbArc
 50
270.0
 51
0.0
  0
ARC
  5
AD
330
1F
100
AcDbEntity
  8
0
  6
Continuous
 62
     7
370
    30
100
AcDbCircle
 10
271.4103580171
 20
183.2952570379
 30
0.0
 40
1.800000000000011
100
AcDbArc
 50
0.0
 51
90.0
  0
LINE
  5
AE
330
1F
100
AcDbEntity
  8
0
  6
Continuous
 62
     7
370
    30
100
AcDbLine
 10
271.4103580171
 20
106.8952570379
 30
0.0
 11
237.5103580171
 21
106.8952570379
 31
0.0
  0
LINE
  5
AF
330
1F
100
AcDbEntity
  8
0
  6
Continuous
 62
     7
370
    30
100
AcDbLine
 10
268.8475157966
 20
106.1952570379
 30
0.0
 11
271.4103580171
 21
106.1952570379
 31
0.0
  0
ARC
  5
B0
330
1F
100
AcDbEntity
  8
0
  6
Continuous
 62
     7
370
    30
100
AcDbCircle
 10
265.7703580171
 20
100.7552570379
 30
0.0
 40
6.249999999999996
100
AcDbArc
 50
25.2036401195
 51
60.5051553941
  0
ARC
  5
B1
330
1F
100
AcDbEntity
  8
0
  6
Continuous
 62
     7
370
    30
100
AcDbCircle
 10
277.0803580171
 20
100.7552570379
 30
0.0
 40
6.250000000000028
100
AcDbArc
 50
115.2036401195
 51
154.7963598805
  0
ARC
  5
B2
330
1F
100
AcDbEntity
  8
0
  6
Continuous
 62
     7
370
    30
100
AcDbCircle
 10
277.0803580171
 20
112.0652570379
 30
0.0
 40
6.250000000000028
100
AcDbArc
 50
232.9593754534
 51
244.7963598805
  0
ARC
  5
B3
330
1F
100
AcDbEntity
  8
0
  6
Continuous
 62
     7
370
    30
100
AcDbCircle
 10
271.4103580171
 20
108.6952570379
 30
0.0
 40
2.5
100
AcDbArc
 50
270.0
 51
319.6450062042
  0
ARC
  5
B4
330
1F
100
AcDbEntity
  8
0
  6
Continuous
 62
     7
370
    30
100
AcDbCircle
 10
226.1832857301
 20
196.8881847509
 30
0.0
 40
4.75
100
AcDbArc
 50
12.3665509529
 51
77.6334490471
  0
ARC
  5
B5
330
1F
100
AcDbEntity
  8
0
  6
Continuous
 62
     7
370
    30
100
AcDbCircle
 10
231.8403580171
 20
202.5452570379
 30
0.0
 40
4.750000000000005
100
AcDbArc
 50
192.3665509529
 51
257.6334490471
  0
ARC
  5
B6
330
1F
100
AcDbEntity
  8
0
  6
Continuous
 62
     7
370
    30
100
AcDbCircle
 10
237.4974303042
 20
196.8881847509
 30
0.0
 40
4.750000000000005
100
AcDbArc
 50
102.3665509529
 51
167.6334490471
  0
ARC
  5
B7
330
1F
100
AcDbEntity
  8
0
  6
Continuous
 62
     7
370
    30
100
AcDbCircle
 10
231.8403580171
 20
202.5452570379
 30
0.0
 40
4.749999999999994
100
AcDbArc
 50
282.3665509529
 51
347.6334490471
  0
ARC
  5
B8
330
1F
100
AcDbEntity
  8
0
  6
Continuous
 62
     7
370
    30
100
AcDbCircle
 10
226.1832857301
 20
185.5781847509
 30
0.0
 40
4.75
100
AcDbArc
 50
12.3665509529
 51
77.6334490471
  0
ARC
  5
B9
330
1F
100
AcDbEntity
  8
0
  6
Continuous
 62
     7
370
    30
100
AcDbCircle
 10
231.8403580171
 20
191.2352570379
 30
0.0
 40
4.750000000000033
100
AcDbArc
 50
192.3665509529
 51
257.6334490471
  0
ARC
  5
BA
330
1F
100
AcDbEntity
  8
0
  6
Continuous
 62
     7
370
    30
100
AcDbCircle
 10
237.4974303042
 20
196.892329325
 30
0.0
 40
4.75
100
AcDbArc
 50
192.3665509529
 51
257.6334490471
  0
ARC
  5
BB
330
1F
100
AcDbEntity
  8
0
  6
Continuous
 62
     7
370
    30
100
AcDbCircle
 10
237.4974303042
 20
185.5781847509
 30
0.0
 40
4.75
100
AcDbArc
 50
102.3665509529
 51
167.6334490471
  0
ARC
  5
BC
330
1F
100
AcDbEntity
  8
0
  6
Continuous
 62
     7
370
    30
100
AcDbCircle
 10
226.1832857301
 20
196.892329325
 30
0.0
 40
4.750000000000005
100
AcDbArc
 50
282.3665509529
 51
347.6334490471
  0
ARC
  5
BD
330
1F
100
AcDbEntity
  8
0
  6
Continuous
 62
     7
370
    30
100
AcDbCircle
 10
231.8403580171
 20
191.2352570379
 30
0.0
 40
4.750000000000005
100
AcDbArc
 50
102.3665509529
 51
167.6334490471
  0
ARC
  5
BE
330
1F
100
AcDbEntity
  8
0
  6
Continuous
 62
     7
370
    30
100
AcDbCircle
 10
226.1832857301
 20
174.2681847509
 30
0.0
 40
4.75
100
AcDbArc
 50
12.3665509529
 51
77.6334490471
  0
ARC
  5
BF
330
1F
100
AcDbEntity
  8
0
  6
Continuous
 62
     7
370
    30
100
AcDbCircle
 10
231.8403580171
 20
179.9252570379
 30
0.0
 40
4.75
100
AcDbArc
 50
192.3665509529
 51
257.6334490471
  0
ARC
  5
C0
330
1F
100
AcDbEntity
  8
0
  6
Continuous
 62
     7
370
    30
100
AcDbCircle
 10
226.1832857301
 20
185.582329325
 30
0.0
 40
4.750000000000005
100
AcDbArc
 50
282.3665509529
 51
347.6334490471
  0
ARC
  5
C1
330
1F
100
AcDbEntity
  8
0
  6
Continuous
 62
     7
370
    30
100
AcDbCircle
 10
231.8403580171
 20
179.9252570379
 30
0.0
 40
4.750000000000005
100
AcDbArc
 50
102.3665509529
 51
167.6334490471
  0
ARC
  5
C2
330
1F
100
AcDbEntity
  8
0
  6
Continuous
 62
     7
370
    30
100
AcDbCircle
 10
226.1832857301
 20
162.9581847509
 30
0.0
 40
4.75
100
AcDbArc
 50
12.3665509529
 51
77.6334490471
  0
ARC
  5
C3
330
1F
100
AcDbEntity
  8
0
  6
Continuous
 62
     7
370
    30
100
AcDbCircle
 10
231.8403580171
 20
168.6152570379
 30
0.0
 40
4.750000000000005
100
AcDbArc
 50
192.3665509529
 51
257.6334490471
  0
ARC
  5
C4
330
1F
100
AcDbEntity
  8
0
  6
Continuous
 62
     7
370
    30
100
AcDbCircle
 10
226.1832857301
 20
174.272329325
 30
0.0
 40
4.750000000000005
100
AcDbArc
 50
282.3665509529
 51
347.6334490471
  0
ARC
  5
C5
330
1F
100
AcDbEntity
  8
0
  6
Continuous
 62
     7
370
    30
100
AcDbCircle
 10
231.8403580171
 20
168.6152570379
 30
0.0
 40
4.750000000000005
100
AcDbArc
 50
102.3665509529
 51
167.6334490471
  0
ARC
  5
C6
330
1F
100
AcDbEntity
  8
0
  6
Continuous
 62
     7
370
    30
100
AcDbCircle
 10
226.1832857301
 20
151.6481847509
 30
0.0
 40
4.75
100
AcDbArc
 50
12.3665509529
 51
77.6334490471
  0
ARC
  5
C7
330
1F
100
AcDbEntity
  8
0
  6
Continuous
 62
     7
370
    30
100
AcDbCircle
 10
231.8403580171
 20
157.3052570379
 30
0.0
 40
4.750000000000005
100
AcDbArc
 50
192.3665509529
 51
257.6334490471
  0
ARC
  5
C8
330
1F
100
AcDbEntity
  8
0
  6
Continuous
 62
     7
370
    30
100
AcDbCircle
 10
226.1832857301
 20
162.962329325
 30
0.0
 40
4.750000000000005
100
AcDbArc
 50
282.3665509529
 51
347.6334490471
  0
ARC
  5
C9
330
1F
100
AcDbEntity
  8
0
  6
Continuous
 62
     7
370
    30
100
AcDbCircle
 10
231.8403580171
 20
157.3052570379
 30
0.0
 40
4.750000000000005
100
AcDbArc
 50
102.3665509529
 51
167.6334490471
  0
ARC
  5
CA
330
1F
100
AcDbEntity
  8
0
  6
Continuous
 62
     7
370
    30
100
AcDbCircle
 10
231.8403580171
 20
89.4452570379
 30
0.0
 40
4.749999999999994
100
AcDbArc
 50
12.3665509529
 51
77.6334490471
  0
ARC
  5
CB
330
1F
100
AcDbEntity
  8
0
  6
Continuous
 62
     7
370
    30
100
AcDbCircle
 10
237.4974303042
 20
95.102329325
 30
0.0
 40
4.750000000000003
100
AcDbArc
 50
192.3665509529
 51
257.6334490471
  0
ARC
  5
CC
330
1F
100
AcDbEntity
  8
0
  6
Continuous
 62
     7
370
    30
100
AcDbCircle
 10
226.1832857301
 20
95.102329325
 30
0.0
 40
4.750000000000005
100
AcDbArc
 50
282.3665509529
 51
347.6334490471
  0
ARC
  5
CD
330
1F
100
AcDbEntity
  8
0
  6
Continuous
 62
     7
370
    30
100
AcDbCircle
 10
231.8403580171
 20
89.4452570379
 30
0.0
 40
4.750000000000005
100
AcDbArc
 50
102.3665509529
 51
167.6334490471
  0
ARC
  5
CE
330
1F
100
AcDbEntity
  8
0
  6
Continuous
 62
     7
370
    30
100
AcDbCircle
 10
226.1832857301
 20
95.0981847509
 30
0.0
 40
4.75
100
AcDbArc
 50
12.3665509529
 51
77.6334490471
  0
ARC
  5
CF
330
1F
100
AcDbEntity
  8
0
  6
Continuous
 62
     7
370
    30
100
AcDbCircle
 10
231.8403580171
 20
100.7552570379
 30
0.0
 40
4.750000000000005
100
AcDbArc
 50
192.3665509529
 51
257.6334490471
  0
ARC
  5
D0
330
1F
100
AcDbEntity
  8
0
  6
Continuous
 62
     7
370
    30
100
AcDbCircle
 10
231.8403580171
 20
100.7552570379
 30
0.0
 40
4.749999999999994
100
AcDbArc
 50
12.3665509529
 51
77.6334490471
  0
ARC
  5
D1
330
1F
100
AcDbEntity
  8
0
  6
Continuous
 62
     7
370
    30
100
AcDbCircle
 10
237.4974303042
 20
106.412329325
 30
0.0
 40
4.750000000000005
100
AcDbArc
 50
192.3665509529
 51
257.6334490471
  0
ARC
  5
D2
330
1F
100
AcDbEntity
  8
0
  6
Continuous
 62
     7
370
    30
100
AcDbCircle
 10
237.4974303042
 20
95.0981847509
 30
0.0
 40
4.750000000000005
100
AcDbArc
 50
102.3665509529
 51
167.6334490471
  0
ARC
  5
D3
330
1F
100
AcDbEntity
  8
0
  6
Continuous
 62
     7
370
    30
100
AcDbCircle
 10
231.8403580171
 20
100.7552570379
 30
0.0
 40
4.749999999999994
100
AcDbArc
 50
282.3665509529
 51
347.6334490471
  0
ARC
  5
D4
330
1F
100
AcDbEntity
  8
0
  6
Continuous
 62
     7
370
    30
100
AcDbCircle
 10
226.1832857301
 20
106.412329325
 30
0.0
 40
4.750000000000005
100
AcDbArc
 50
282.3665509529
 51
347.6334490471
  0
ARC
  5
D5
330
1F
100
AcDbEntity
  8
0
  6
Continuous
 62
     7
370
    30
100
AcDbCircle
 10
231.8403580171
 20
100.7552570379
 30
0.0
 40
4.750000000000005
100
AcDbArc
 50
102.3665509529
 51
167.6334490471
  0
ARC
  5
D6
330
1F
100
AcDbEntity
  8
0
  6
Continuous
 62
     7
370
    30
100
AcDbCircle
 10
226.1832857301
 20
106.4081847509
 30
0.0
 40
4.75
100
AcDbArc
 50
12.3665509529
 51
77.6334490471
  0
ARC
  5
D7
330
1F
100
AcDbEntity
  8
0
  6
Continuous
 62
     7
370
    30
100
AcDbCircle
 10
231.8403580171
 20
112.0652570379
 30
0.0
 40
4.750000000000005
100
AcDbArc
 50
192.3665509529
 51
257.6334490471
  0
ARC
  5
D8
330
1F
100
AcDbEntity
  8
0
  6
Continuous
 62
     7
370
    30
100
AcDbCircle
 10
226.1832857301
 20
117.722329325
 30
0.0
 40
4.75000000000002
100
AcDbArc
 50
282.3665509529
 51
347.6334490471
  0
ARC
  5
D9
330
1F
100
AcDbEntity
  8
0
  6
Continuous
 62
     7
370
    30
100
AcDbCircle
 10
231.8403580171
 20
112.0652570379
 30
0.0
 40
4.750000000000005
100
AcDbArc
 50
102.3665509529
 51
167.6334490471
  0
ARC
  5
DA
330
1F
100
AcDbEntity
  8
0
  6
Continuous
 62
     7
370
    30
100
AcDbCircle
 10
226.1832857301
 20
117.7181847509
 30
0.0
 40
4.75
100
AcDbArc
 50
12.3665509529
 51
77.6334490471
  0
ARC
  5
DB
330
1F
100
AcDbEntity
  8
0
  6
Continuous
 62
     7
370
    30
100
AcDbCircle
 10
231.8403580171
 20
123.3752570379
 30
0.0
 40
4.750000000000005
100
AcDbArc
 50
192.3665509529
 51
257.6334490471
  0
ARC
  5
DC
330
1F
100
AcDbEntity
  8
0
  6
Continuous
 62
     7
370
    30
100
AcDbCircle
 10
226.1832857301
 20
129.032329325
 30
0.0
 40
4.75000000000002
100
AcDbArc
 50
282.3665509529
 51
347.6334490471
  0
ARC
  5
DD
330
1F
100
AcDbEntity
  8
0
  6
Continuous
 62
     7
370
    30
100
AcDbCircle
 10
231.8403580171
 20
123.3752570379
 30
0.0
 40
4.750000000000005
100
AcDbArc
 50
102.3665509529
 51
167.6334490471
  0
ARC
  5
DE
330
1F
100
AcDbEntity
  8
0
  6
Continuous
 62
     7
370
    30
100
AcDbCircle
 10
226.1832857301
 20
129.0281847509
 30
0.0
 40
4.750000000000028
100
AcDbArc
 50
12.3665509529
 51
77.6334490471
  0
ARC
  5
DF
330
1F
100
AcDbEntity
  8
0
  6
Continuous
 62
     7
370
    30
100
AcDbCircle
 10
231.8403580171
 20
134.6852570379
 30
0.0
 40
4.749999999999994
100
AcDbArc
 50
192.3665509529
 51
257.6334490471
  0
ARC
  5
E0
330
1F
100
AcDbEntity
  8
0
  6
Continuous
 62
     7
370
    30
100
AcDbCircle
 10
226.1832857301
 20
140.342329325
 30
0.0
 40
4.750000000000005
100
AcDbArc
 50
282.3665509529
 51
347.6334490471
  0
ARC
  5
E1
330
1F
100
AcDbEntity
  8
0
  6
Continuous
 62
     7
370
    30
100
AcDbCircle
 10
231.8403580171
 20
134.6852570379
 30
0.0
 40
4.750000000000005
100
AcDbArc
 50
102.3665509529
 51
167.6334490471
  0
ARC
  5
E2
330
1F
100
AcDbEntity
  8
0
  6
Continuous
 62
     7
370
    30
100
AcDbCircle
 10
226.1832857301
 20
140.3381847509
 30
0.0
 40
4.75
100
AcDbArc
 50
12.3665509529
 51
77.6334490471
  0
ARC
  5
E3
330
1F
100
AcDbEntity
  8
0
  6
Continuous
 62
     7
370
    30
100
AcDbCircle
 10
231.8403580171
 20
145.9952570379
 30
0.0
 40
4.750000000000005
100
AcDbArc
 50
192.3665509529
 51
257.6334490471
  0
ARC
  5
E4
330
1F
100
AcDbEntity
  8
0
  6
Continuous
 62
     7
370
    30
100
AcDbCircle
 10
226.1832857301
 20
151.652329325
 30
0.0
 40
4.750000000000005
100
AcDbArc
 50
282.3665509529
 51
347.6334490471
  0
ARC
  5
E5
330
1F
100
AcDbEntity
  8
0
  6
Continuous
 62
     7
370
    30
100
AcDbCircle
 10
231.8403580171
 20
145.9952570379
 30
0.0
 40
4.750000000000005
100
AcDbArc
 50
102.3665509529
 51
167.6334490471
  0
ARC
  5
E6
330
1F
100
AcDbEntity
  8
0
  6
Continuous
 62
     7
370
    30
100
AcDbCircle
 10
237.4932857301
 20
196.8881847509
 30
0.0
 40
4.750000000000005
100
AcDbArc
 50
12.3665509529
 51
77.6334490471
  0
ARC
  5
E7
330
1F
100
AcDbEntity
  8
0
  6
Continuous
 62
     7
370
    30
100
AcDbCircle
 10
243.1503580171
 20
202.5452570379
 30
0.0
 40
4.750000000000005
100
AcDbArc
 50
192.3665509529
 51
257.6334490471
  0
ARC
  5
E8
330
1F
100
AcDbEntity
  8
0
  6
Continuous
 62
     7
370
    30
100
AcDbCircle
 10
248.8074303042
 20
196.8881847509
 30
0.0
 40
4.750000000000005
100
AcDbArc
 50
102.3665509529
 51
167.6334490471
  0
ARC
  5
E9
330
1F
100
AcDbEntity
  8
0
  6
Continuous
 62
     7
370
    30
100
AcDbCircle
 10
243.1503580171
 20
202.5452570379
 30
0.0
 40
4.750000000000005
100
AcDbArc
 50
282.3665509529
 51
347.6334490471
  0
ARC
  5
EA
330
1F
100
AcDbEntity
  8
0
  6
Continuous
 62
     7
370
    30
100
AcDbCircle
 10
237.4932857301
 20
185.5781847509
 30
0.0
 40
4.75
100
AcDbArc
 50
12.3665509529
 51
77.6334490471
  0
ARC
  5
EB
330
1F
100
AcDbEntity
  8
0
  6
Continuous
 62
     7
370
    30
100
AcDbCircle
 10
243.1503580171
 20
191.2352570379
 30
0.0
 40
4.750000000000028
100
AcDbArc
 50
192.3665509529
 51
257.6334490471
  0
ARC
  5
EC
330
1F
100
AcDbEntity
  8
0
  6
Continuous
 62
     7
370
    30
100
AcDbCircle
 10
243.1503580171
 20
191.2352570379
 30
0.0
 40
4.75
100
AcDbArc
 50
12.3665509529
 51
77.6334490471
  0
ARC
  5
ED
330
1F
100
AcDbEntity
  8
0
  6
Continuous
 62
     7
370
    30
100
AcDbCircle
 10
248.8074303042
 20
196.892329325
 30
0.0
 40
4.75
100
AcDbArc
 50
192.3665509529
 51
257.6334490471
  0
ARC
  5
EE
330
1F
100
AcDbEntity
  8
0
  6
Continuous
 62
     7
370
    30
100
AcDbCircle
 10
248.8074303042
 20
185.5781847509
 30
0.0
 40
4.75
100
AcDbArc
 50
102.3665509529
 51
167.6334490471
  0
ARC
  5
EF
330
1F
100
AcDbEntity
  8
0
  6
Continuous
 62
     7
370
    30
100
AcDbCircle
 10
243.1503580171
 20
191.2352570379
 30
0.0
 40
4.750000000000028
100
AcDbArc
 50
282.3665509529
 51
347.6334490471
  0
ARC
  5
F0
330
1F
100
AcDbEntity
  8
0
  6
Continuous
 62
     7
370
    30
100
AcDbCircle
 10
237.4932857301
 20
196.892329325
 30
0.0
 40
4.75
100
AcDbArc
 50
282.3665509529
 51
347.6334490471
  0
ARC
  5
F1
330
1F
100
AcDbEntity
  8
0
  6
Continuous
 62
     7
370
    30
100
AcDbCircle
 10
243.1503580171
 20
191.2352570379
 30
0.0
 40
4.75
100
AcDbArc
 50
102.3665509529
 51
167.6334490471
  0
ARC
  5
F2
330
1F
100
AcDbEntity
  8
0
  6
Continuous
 62
     7
370
    30
100
AcDbCircle
 10
243.1503580171
 20
89.4452570379
 30
0.0
 40
4.750000000000003
100
AcDbArc
 50
12.3665509529
 51
77.6334490471
  0
ARC
  5
F3
330
1F
100
AcDbEntity
  8
0
  6
Continuous
 62
     7
370
    30
100
AcDbCircle
 10
248.8074303042
 20
95.102329325
 30
0.0
 40
4.750000000000003
100
AcDbArc
 50
192.3665509529
 51
257.6334490471
  0
ARC
  5
F4
330
1F
100
AcDbEntity
  8
0
  6
Continuous
 62
     7
370
    30
100
AcDbCircle
 10
237.4932857301
 20
95.102329325
 30
0.0
 40
4.750000000000003
100
AcDbArc
 50
282.3665509529
 51
347.6334490471
  0
ARC
  5
F5
330
1F
100
AcDbEntity
  8
0
  6
Continuous
 62
     7
370
    30
100
AcDbCircle
 10
243.1503580171
 20
89.4452570379
 30
0.0
 40
4.750000000000003
100
AcDbArc
 50
102.3665509529
 51
167.6334490471
  0
ARC
  5
F6
330
1F
100
AcDbEntity
  8
0
  6
Continuous
 62
     7
370
    30
100
AcDbCircle
 10
237.4932857301
 20
95.0981847509
 30
0.0
 40
4.750000000000005
100
AcDbArc
 50
12.3665509529
 51
77.6334490471
  0
ARC
  5
F7
330
1F
100
AcDbEntity
  8
0
  6
Continuous
 62
     7
370
    30
100
AcDbCircle
 10
243.1503580171
 20
100.7552570379
 30
0.0
 40
4.750000000000005
100
AcDbArc
 50
192.3665509529
 51
257.6334490471
  0
ARC
  5
F8
330
1F
100
AcDbEntity
  8
0
  6
Continuous
 62
     7
370
    30
100
AcDbCircle
 10
243.1503580171
 20
100.7552570379
 30
0.0
 40
4.750000000000005
100
AcDbArc
 50
12.3665509529
 51
77.6334490471
  0
ARC
  5
F9
330
1F
100
AcDbEntity
  8
0
  6
Continuous
 62
     7
370
    30
100
AcDbCircle
 10
248.8074303042
 20
106.412329325
 30
0.0
 40
4.750000000000005
100
AcDbArc
 50
192.3665509529
 51
257.6334490471
  0
ARC
  5
FA
330
1F
100
AcDbEntity
  8
0
  6
Continuous
 62
     7
370
    30
100
AcDbCircle
 10
248.8074303042
 20
95.0981847509
 30
0.0
 40
4.750000000000005
100
AcDbArc
 50
102.3665509529
 51
167.6334490471
  0
ARC
  5
FB
330
1F
100
AcDbEntity
  8
0
  6
Continuous
 62
     7
370
    30
100
AcDbCircle
 10
243.1503580171
 20
100.7552570379
 30
0.0
 40
4.750000000000005
100
AcDbArc
 50
282.3665509529
 51
347.6334490471
  0
ARC
  5
FC
330
1F
100
AcDbEntity
  8
0
  6
Continuous
 62
     7
370
    30
100
AcDbCircle
 10
237.4932857301
 20
106.412329325
 30
0.0
 40
4.750000000000005
100
AcDbArc
 50
282.3665509529
 51
347.6334490471
  0
ARC
  5
FD
330
1F
100
AcDbEntity
  8
0
  6
Continuous
 62
     7
370
    30
100
AcDbCircle
 10
243.1503580171
 20
100.7552570379
 30
0.0
 40
4.750000000000005
100
AcDbArc
 50
102.3665509529
 51
167.6334490471
  0
ARC
  5
FE
330
1F
100
AcDbEntity
  8
0
  6
Continuous
 62
     7
370
    30
100
AcDbCircle
 10
271.4232857301
 20
196.8881847509
 30
0.0
 40
4.749999999999994
100
AcDbArc
 50
12.3665509529
 51
77.6334490471
  0
ARC
  5
FF
330
1F
100
AcDbEntity
  8
0
  6
Continuous
 62
     7
370
    30
100
AcDbCircle
 10
277.0803580171
 20
202.5452570379
 30
0.0
 40
4.750000000000033
100
AcDbArc
 50
192.3665509529
 51
257.6334490471
  0
ARC
  5
100
330
1F
100
AcDbEntity
  8
0
  6
Continuous
 62
     7
370
    30
100
AcDbCircle
 10
282.7374303042
 20
196.8881847509
 30
0.0
 40
4.750000000000033
100
AcDbArc
 50
102.3665509529
 51
167.6334490471
  0
ARC
  5
101
330
1F
100
AcDbEntity
  8
0
  6
Continuous
 62
     7
370
    30
100
AcDbCircle
 10
277.0803580171
 20
202.5452570379
 30
0.0
 40
4.749999999999994
100
AcDbArc
 50
282.3665509529
 51
347.6334490471
  0
ARC
  5
102
330
1F
100
AcDbEntity
  8
0
  6
Continuous
 62
     7
370
    30
100
AcDbCircle
 10
271.4232857301
 20
185.5781847509
 30
0.0
 40
4.749999999999994
100
AcDbArc
 50
12.3665509529
 51
77.6334490471
  0
ARC
  5
103
330
1F
100
AcDbEntity
  8
0
  6
Continuous
 62
     7
370
    30
100
AcDbCircle
 10
277.0803580171
 20
191.2352570379
 30
0.0
 40
4.750000000000033
100
AcDbArc
 50
192.3665509529
 51
257.6334490471
  0
ARC
  5
104
330
1F
100
AcDbEntity
  8
0
  6
Continuous
 62
     7
370
    30
100
AcDbCircle
 10
277.0803580171
 20
191.2352570379
 30
0.0
 40
4.749999999999994
100
AcDbArc
 50
12.3665509529
 51
77.6334490471
  0
ARC
  5
105
330
1F
100
AcDbEntity
  8
0
  6
Continuous
 62
     7
370
    30
100
AcDbCircle
 10
282.7374303042
 20
196.892329325
 30
0.0
 40
4.750000000000028
100
AcDbArc
 50
192.3665509529
 51
257.6334490471
  0
ARC
  5
106
330
1F
100
AcDbEntity
  8
0
  6
Continuous
 62
     7
370
    30
100
AcDbCircle
 10
282.7374303042
 20
185.5781847509
 30
0.0
 40
4.750000000000028
100
AcDbArc
 50
102.3665509529
 51
167.6334490471
  0
ARC
  5
107
330
1F
100
AcDbEntity
  8
0
  6
Continuous
 62
     7
370
    30
100
AcDbCircle
 10
277.0803580171
 20
191.2352570379
 30
0.0
 40
4.750000000000021
100
AcDbArc
 50
282.3665509529
 51
347.6334490471
  0
ARC
  5
108
330
1F
100
AcDbEntity
  8
0
  6
Continuous
 62
     7
370
    30
100
AcDbCircle
 10
271.4232857301
 20
196.892329325
 30
0.0
 40
4.749999999999994
100
AcDbArc
 50
282.3665509529
 51
347.6334490471
  0
ARC
  5
109
330
1F
100
AcDbEntity
  8
0
  6
Continuous
 62
     7
370
    30
100
AcDbCircle
 10
277.0803580171
 20
191.2352570379
 30
0.0
 40
4.750000000000028
100
AcDbArc
 50
102.3665509529
 51
167.6334490471
  0
ARC
  5
10A
330
1F
100
AcDbEntity
  8
0
  6
Continuous
 62
     7
370
    30
100
AcDbCircle
 10
277.0803580171
 20
179.9252570379
 30
0.0
 40
4.749999999999994
100
AcDbArc
 50
12.3665509529
 51
77.6334490471
  0
ARC
  5
10B
330
1F
100
AcDbEntity
  8
0
  6
Continuous
 62
     7
370
    30
100
AcDbCircle
 10
282.7374303042
 20
185.582329325
 30
0.0
 40
4.750000000000033
100
AcDbArc
 50
192.3665509529
 51
257.6334490471
  0
ARC
  5
10C
330
1F
100
AcDbEntity
  8
0
  6
Continuous
 62
     7
370
    30
100
AcDbCircle
 10
282.7374303042
 20
174.2681847509
 30
0.0
 40
4.750000000000028
100
AcDbArc
 50
102.3665509529
 51
167.6334490471
  0
ARC
  5
10D
330
1F
100
AcDbEntity
  8
0
  6
Continuous
 62
     7
370
    30
100
AcDbCircle
 10
277.0803580171
 20
179.9252570379
 30
0.0
 40
4.749999999999994
100
AcDbArc
 50
282.3665509529
 51
347.6334490471
  0
LINE
  5
10E
330
1F
100
AcDbEntity
  8
0
  6
Continuous
 62
     7
370
    30
100
AcDbLine
 10
237.5103580171
 20
106.1952570379
 30
0.0
 11
240.0732002376
 21
106.1952570379
 31
0.0
  0
ARC
  5
10F
330
1F
100
AcDbEntity
  8
0
  6
Continuous
 62
     7
370
    30
100
AcDbCircle
 10
237.5103580171
 20
108.6952570379
 30
0.0
 40
2.499999999999986
100
AcDbArc
 50
220.3549937958
 51
270.0
  0
ARC
  5
110
330
1F
100
AcDbEntity
  8
0
  6
Continuous
 62
     7
370
    30
100
AcDbCircle
 10
277.0803580171
 20
168.6152570379
 30
0.0
 40
4.749999999999994
100
AcDbArc
 50
12.3665509529
 51
77.6334490471
  0
ARC
  5
111
330
1F
100
AcDbEntity
  8
0
  6
Continuous
 62
     7
370
    30
100
AcDbCircle
 10
282.7374303042
 20
174.272329325
 30
0.0
 40
4.750000000000028
100
AcDbArc
 50
192.3665509529
 51
257.6334490471
  0
ARC
  5
112
330
1F
100
AcDbEntity
  8
0
  6
Continuous
 62
     7
370
    30
100
AcDbCircle
 10
282.7374303042
 20
162.9581847509
 30
0.0
 40
4.750000000000033
100
AcDbArc
 50
102.3665509529
 51
167.6334490471
  0
ARC
  5
113
330
1F
100
AcDbEntity
  8
0
  6
Continuous
 62
     7
370
    30
100
AcDbCircle
 10
277.0803580171
 20
168.6152570379
 30
0.0
 40
4.749999999999994
100
AcDbArc
 50
282.3665509529
 51
347.6334490471
  0
ARC
  5
114
330
1F
100
AcDbEntity
  8
0
  6
Continuous
 62
     7
370
    30
100
AcDbCircle
 10
277.0803580171
 20
157.3052570379
 30
0.0
 40
4.749999999999972
100
AcDbArc
 50
12.3665509529
 51
77.6334490471
  0
ARC
  5
115
330
1F
100
AcDbEntity
  8
0
  6
Continuous
 62
     7
370
    30
100
AcDbCircle
 10
282.7374303042
 20
162.962329325
 30
0.0
 40
4.750000000000033
100
AcDbArc
 50
192.3665509529
 51
257.6334490471
  0
ARC
  5
116
330
1F
100
AcDbEntity
  8
0
  6
Continuous
 62
     7
370
    30
100
AcDbCircle
 10
282.7374303042
 20
151.6481847509
 30
0.0
 40
4.750000000000033
100
AcDbArc
 50
102.3665509529
 51
167.6334490471
  0
ARC
  5
117
330
1F
100
AcDbEntity
  8
0
  6
Continuous
 62
     7
370
    30
100
AcDbCircle
 10
277.0803580171
 20
157.3052570379
 30
0.0
 40
4.749999999999994
100
AcDbArc
 50
282.3665509529
 51
347.6334490471
  0
ARC
  5
118
330
1F
100
AcDbEntity
  8
0
  6
Continuous
 62
     7
370
    30
100
AcDbCircle
 10
277.0803580171
 20
89.4452570379
 30
0.0
 40
4.749999999999994
100
AcDbArc
 50
12.3665509529
 51
77.6334490471
  0
ARC
  5
119
330
1F
100
AcDbEntity
  8
0
  6
Continuous
 62
     7
370
    30
100
AcDbCircle
 10
282.7374303042
 20
95.102329325
 30
0.0
 40
4.75000000000003
100
AcDbArc
 50
192.3665509529
 51
257.6334490471
  0
ARC
  5
11A
330
1F
100
AcDbEntity
  8
0
  6
Continuous
 62
     7
370
    30
100
AcDbCircle
 10
271.4232857301
 20
95.102329325
 30
0.0
 40
4.749999999999994
100
AcDbArc
 50
282.3665509529
 51
347.6334490471
  0
ARC
  5
11B
330
1F
100
AcDbEntity
  8
0
  6
Continuous
 62
     7
370
    30
100
AcDbCircle
 10
277.0803580171
 20
89.4452570379
 30
0.0
 40
4.75000000000003
100
AcDbArc
 50
102.3665509529
 51
167.6334490471
  0
ARC
  5
11C
330
1F
100
AcDbEntity
  8
0
  6
Continuous
 62
     7
370
    30
100
AcDbCircle
 10
271.4232857301
 20
95.0981847509
 30
0.0
 40
4.749999999999994
100
AcDbArc
 50
12.3665509529
 51
77.6334490471
  0
ARC
  5
11D
330
1F
100
AcDbEntity
  8
0
  6
Continuous
 62
     7
370
    30
100
AcDbCircle
 10
277.0803580171
 20
100.7552570379
 30
0.0
 40
4.750000000000033
100
AcDbArc
 50
192.3665509529
 51
257.6334490471
  0
ARC
  5
11E
330
1F
100
AcDbEntity
  8
0
  6
Continuous
 62
     7
370
    30
100
AcDbCircle
 10
277.0803580171
 20
100.7552570379
 30
0.0
 40
4.749999999999994
100
AcDbArc
 50
12.3665509529
 51
77.6334490471
  0
ARC
  5
11F
330
1F
100
AcDbEntity
  8
0
  6
Continuous
 62
     7
370
    30
100
AcDbCircle
 10
282.7374303042
 20
106.412329325
 30
0.0
 40
4.750000000000033
100
AcDbArc
 50
192.3665509529
 51
257.6334490471
  0
ARC
  5
120
330
1F
100
AcDbEntity
  8
0
  6
Continuous
 62
     7
370
    30
100
AcDbCircle
 10
282.7374303042
 20
95.0981847509
 30
0.0
 40
4.750000000000033
100
AcDbArc
 50
102.3665509529
 51
167.6334490471
  0
ARC
  5
121
330
1F
100
AcDbEntity
  8
0
  6
Continuous
 62
     7
370
    30
100
AcDbCircle
 10
277.0803580171
 20
100.7552570379
 30
0.0
 40
4.749999999999994
100
AcDbArc
 50
282.3665509529
 51
347.6334490471
  0
ARC
  5
122
330
1F
100
AcDbEntity
  8
0
  6
Continuous
 62
     7
370
    30
100
AcDbCircle
 10
271.4232857301
 20
106.412329325
 30
0.0
 40
4.749999999999994
100
AcDbArc
 50
282.3665509529
 51
347.6334490471
  0
ARC
  5
123
330
1F
100
AcDbEntity
  8
0
  6
Continuous
 62
     7
370
    30
100
AcDbCircle
 10
277.0803580171
 20
100.7552570379
 30
0.0
 40
4.750000000000033
100
AcDbArc
 50
102.3665509529
 51
167.6334490471
  0
ARC
  5
124
330
1F
100
AcDbEntity
  8
0
  6
Continuous
 62
     7
370
    30
100
AcDbCircle
 10
277.0803580171
 20
112.0652570379
 30
0.0
 40
4.749999999999994
100
AcDbArc
 50
12.3665509529
 51
77.6334490471
  0
ARC
  5
125
330
1F
100
AcDbEntity
  8
0
  6
Continuous
 62
     7
370
    30
100
AcDbCircle
 10
282.7374303042
 20
117.722329325
 30
0.0
 40
4.750000000000033
100
AcDbArc
 50
192.3665509529
 51
257.6334490471
  0
ARC
  5
126
330
1F
100
AcDbEntity
  8
0
  6
Continuous
 62
     7
370
    30
100
AcDbCircle
 10
282.7374303042
 20
106.4081847509
 30
0.0
 40
4.75000000000003
100
AcDbArc
 50
102.3665509529
 51
167.6334490471
  0
ARC
  5
127
330
1F
100
AcDbEntity
  8
0
  6
Continuous
 62
     7
370
    30
100
AcDbCircle
 10
277.0803580171
 20
112.0652570379
 30
0.0
 40
4.749999999999994
100
AcDbArc
 50
282.3665509529
 51
347.6334490471
  0
ARC
  5
128
330
1F
100
AcDbEntity
  8
0
  6
Continuous
 62
     7
370
    30
100
AcDbCircle
 10
277.0803580171
 20
123.3752570379
 30
0.0
 40
4.749999999999994
100
AcDbArc
 50
12.3665509529
 51
77.6334490471
  0
ARC
  5
129
330
1F
100
AcDbEntity
  8
0
  6
Continuous
 62
     7
370
    30
100
AcDbCircle
 10
282.7374303042
 20
129.032329325
 30
0.0
 40
4.750000000000033
100
AcDbArc
 50
192.3665509529
 51
257.6334490471
  0
ARC
  5
12A
330
1F
100
AcDbEntity
  8
0
  6
Continuous
 62
     7
370
    30
100
AcDbCircle
 10
282.7374303042
 20
117.7181847509
 30
0.0
 40
4.750000000000033
100
AcDbArc
 50
102.3665509529
 51
167.6334490471
  0
ARC
  5
12B
330
1F
100
AcDbEntity
  8
0
  6
Continuous
 62
     7
370
    30
100
AcDbCircle
 10
277.0803580171
 20
123.3752570379
 30
0.0
 40
4.749999999999994
100
AcDbArc
 50
282.3665509529
 51
347.6334490471
  0
ARC
  5
12C
330
1F
100
AcDbEntity
  8
0
  6
Continuous
 62
     7
370
    30
100
AcDbCircle
 10
277.0803580171
 20
134.6852570379
 30
0.0
 40
4.749999999999994
100
AcDbArc
 50
12.3665509529
 51
77.6334490471
  0
ARC
  5
12D
330
1F
100
AcDbEntity
  8
0
  6
Continuous
 62
     7
370
    30
100
AcDbCircle
 10
282.7374303042
 20
140.342329325
 30
0.0
 40
4.750000000000033
100
AcDbArc
 50
192.3665509529
 51
257.6334490471
  0
ARC
  5
12E
330
1F
100
AcDbEntity
  8
0
  6
Continuous
 62
     7
370
    30
100
AcDbCircle
 10
282.7374303042
 20
129.0281847509
 30
0.0
 40
4.750000000000033
100
AcDbArc
 50
102.3665509529
 51
167.6334490471
  0
ARC
  5
12F
330
1F
100
AcDbEntity
  8
0
  6
Continuous
 62
     7
370
    30
100
AcDbCircle
 10
277.0803580171
 20
134.6852570379
 30
0.0
 40
4.749999999999994
100
AcDbArc
 50
282.3665509529
 51
347.6334490471
  0
ARC
  5
130
330
1F
100
AcDbEntity
  8
0
  6
Continuous
 62
     7
370
    30
100
AcDbCircle
 10
277.0803580171
 20
145.9952570379
 30
0.0
 40
4.749999999999994
100
AcDbArc
 50
12.3665509529
 51
77.6334490471
  0
ARC
  5
131
330
1F
100
AcDbEntity
  8
0
  6
Continuous
 62
     7
370
    30
100
AcDbCircle
 10
282.7374303042
 20
151.652329325
 30
0.0
 40
4.750000000000033
100
AcDbArc
 50
192.3665509529
 51
257.6334490471
  0
ARC
  5
132
330
1F
100
AcDbEntity
  8
0
  6
Continuous
 62
     7
370
    30
100
AcDbCircle
 10
282.7374303042
 20
140.3381847509
 30
0.0
 40
4.750000000000033
100
AcDbArc
 50
102.3665509529
 51
167.6334490471
  0
ARC
  5
133
330
1F
100
AcDbEntity
  8
0
  6
Continuous
 62
     7
370
    30
100
AcDbCircle
 10
277.0803580171
 20
145.9952570379
 30
0.0
 40
4.749999999999994
100
AcDbArc
 50
282.3665509529
 51
347.6334490471
  0
ARC
  5
134
330
1F
100
AcDbEntity
  8
0
  6
Continuous
 62
     7
370
    30
100
AcDbCircle
 10
260.1132857301
 20
196.8881847509
 30
0.0
 40
4.750000000000033
100
AcDbArc
 50
12.3665509529
 51
77.6334490471
  0
ARC
  5
135
330
1F
100
AcDbEntity
  8
0
  6
Continuous
 62
     7
370
    30
100
AcDbCircle
 10
265.7703580171
 20
202.5452570379
 30
0.0
 40
4.750000000000033
100
AcDbArc
 50
192.3665509529
 51
257.6334490471
  0
ARC
  5
136
330
1F
100
AcDbEntity
  8
0
  6
Continuous
 62
     7
370
    30
100
AcDbCircle
 10
271.4274303042
 20
196.8881847509
 30
0.0
 40
4.750000000000033
100
AcDbArc
 50
102.3665509529
 51
167.6334490471
  0
ARC
  5
137
330
1F
100
AcDbEntity
  8
0
  6
Continuous
 62
     7
370
    30
100
AcDbCircle
 10
265.7703580171
 20
202.5452570379
 30
0.0
 40
4.749999999999994
100
AcDbArc
 50
282.3665509529
 51
347.6334490471
  0
ARC
  5
138
330
1F
100
AcDbEntity
  8
0
  6
Continuous
 62
     7
370
    30
100
AcDbCircle
 10
260.1132857301
 20
185.5781847509
 30
0.0
 40
4.750000000000028
100
AcDbArc
 50
12.3665509529
 51
77.6334490471
  0
ARC
  5
139
330
1F
100
AcDbEntity
  8
0
  6
Continuous
 62
     7
370
    30
100
AcDbCircle
 10
265.7703580171
 20
191.2352570379
 30
0.0
 40
4.750000000000033
100
AcDbArc
 50
192.3665509529
 51
257.6334490471
  0
ARC
  5
13A
330
1F
100
AcDbEntity
  8
0
  6
Continuous
 62
     7
370
    30
100
AcDbCircle
 10
248.8032857301
 20
106.412329325
 30
0.0
 40
4.750000000000005
100
AcDbArc
 50
282.3665509529
 51
347.6334490471
  0
ARC
  5
13B
330
1F
100
AcDbEntity
  8
0
  6
Continuous
 62
     7
370
    30
100
AcDbCircle
 10
282.7374303042
 20
151.652329325
 30
0.0
 40
6.250000000000011
100
AcDbArc
 50
205.1589913901
 51
244.8410086099
  0
ARC
  5
13C
330
1F
100
AcDbEntity
  8
0
  6
Continuous
 62
     7
370
    30
100
AcDbCircle
 10
271.4232857301
 20
151.652329325
 30
0.0
 40
6.250000000000011
100
AcDbArc
 50
295.1589913901
 51
334.8410086099
  0
ARC
  5
13D
330
1F
100
AcDbEntity
  8
0
  6
Continuous
 62
     7
370
    30
100
AcDbCircle
 10
271.4232857301
 20
140.3381847509
 30
0.0
 40
6.250000000000011
100
AcDbArc
 50
25.1589913901
 51
64.8410086099
  0
ARC
  5
13E
330
1F
100
AcDbEntity
  8
0
  6
Continuous
 62
     7
370
    30
100
AcDbCircle
 10
282.7374303042
 20
140.3381847509
 30
0.0
 40
6.250000000000011
100
AcDbArc
 50
115.1589913901
 51
154.8410086099
  0
ARC
  5
13F
330
1F
100
AcDbEntity
  8
0
  6
Continuous
 62
     7
370
    30
100
AcDbCircle
 10
282.7374303042
 20
140.342329325
 30
0.0
 40
6.250000000000011
100
AcDbArc
 50
205.1589913901
 51
244.8410086099
  0
ARC
  5
140
330
1F
100
AcDbEntity
  8
0
  6
Continuous
 62
     7
370
    30
100
AcDbCircle
 10
271.4232857301
 20
140.342329325
 30
0.0
 40
6.250000000000011
100
AcDbArc
 50
295.1589913901
 51
334.8410086099
  0
ARC
  5
141
330
1F
100
AcDbEntity
  8
0
  6
Continuous
 62
     7
370
    30
100
AcDbCircle
 10
271.4232857301
 20
129.0281847509
 30
0.0
 40
6.249999999999996
100
AcDbArc
 50
25.1589913901
 51
64.8410086099
  0
ARC
  5
142
330
1F
100
AcDbEntity
  8
0
  6
Continuous
 62
     7
370
    30
100
AcDbCircle
 10
282.7374303042
 20
129.0281847509
 30
0.0
 40
6.249999999999996
100
AcDbArc
 50
115.1589913901
 51
154.8410086099
  0
ARC
  5
143
330
1F
100
AcDbEntity
  8
0
  6
Continuous
 62
     7
370
    30
100
AcDbCircle
 10
282.7374303042
 20
129.032329325
 30
0.0
 40
6.250000000000011
100
AcDbArc
 50
205.1589913901
 51
244.8410086099
  0
ARC
  5
144
330
1F
100
AcDbEntity
  8
0
  6
Continuous
 62
     7
370
    30
100
AcDbCircle
 10
271.4232857301
 20
129.032329325
 30
0.0
 40
6.250000000000011
100
AcDbArc
 50
295.1589913901
 51
334.8410086099
  0
ARC
  5
145
330
1F
100
AcDbEntity
  8
0
  6
Continuous
 62
     7
370
    30
100
AcDbCircle
 10
271.4232857301
 20
117.7181847509
 30
0.0
 40
6.250000000000011
100
AcDbArc
 50
25.1589913901
 51
64.8410086099
  0
ARC
  5
146
330
1F
100
AcDbEntity
  8
0
  6
Continuous
 62
     7
370
    30
100
AcDbCircle
 10
282.7374303042
 20
117.7181847509
 30
0.0
 40
6.250000000000011
100
AcDbArc
 50
115.1589913901
 51
154.8410086099
  0
ARC
  5
147
330
1F
100
AcDbEntity
  8
0
  6
Continuous
 62
     7
370
    30
100
AcDbCircle
 10
282.7374303042
 20
117.722329325
 30
0.0
 40
6.250000000000011
100
AcDbArc
 50
205.1589913901
 51
244.8410086099
  0
ARC
  5
148
330
1F
100
AcDbEntity
  8
0
  6
Continuous
 62
     7
370
    30
100
AcDbCircle
 10
271.4232857301
 20
117.722329325
 30
0.0
 40
6.250000000000003
100
AcDbArc
 50
295.1589913901
 51
334.8410086099
  0
ARC
  5
149
330
1F
100
AcDbEntity
  8
0
  6
Continuous
 62
     7
370
    30
100
AcDbCircle
 10
271.4232857301
 20
106.4081847509
 30
0.0
 40
6.249999999999997
100
AcDbArc
 50
25.1589913901
 51
64.8410086099
  0
ARC
  5
14A
330
1F
100
AcDbEntity
  8
0
  6
Continuous
 62
     7
370
    30
100
AcDbCircle
 10
282.7374303042
 20
106.4081847509
 30
0.0
 40
6.249999999999997
100
AcDbArc
 50
115.1589913901
 51
154.8410086099
  0
ARC
  5
14B
330
1F
100
AcDbEntity
  8
0
  6
Continuous
 62
     7
370
    30
100
AcDbCircle
 10
282.7374303042
 20
106.412329325
 30
0.0
 40
6.250000000000011
100
AcDbArc
 50
205.1589913901
 51
244.8410086099
  0
ARC
  5
14C
330
1F
100
AcDbEntity
  8
0
  6
Continuous
 62
     7
370
    30
100
AcDbCircle
 10
271.4232857301
 20
106.412329325
 30
0.0
 40
6.250000000000011
100
AcDbArc
 50
295.1589913901
 51
334.8410086099
  0
ARC
  5
14D
330
1F
100
AcDbEntity
  8
0
  6
Continuous
 62
     7
370
    30
100
AcDbCircle
 10
271.4232857301
 20
95.0981847509
 30
0.0
 40
6.250000000000011
100
AcDbArc
 50
25.1589913901
 51
64.8410086099
  0
ARC
  5
14E
330
1F
100
AcDbEntity
  8
0
  6
Continuous
 62
     7
370
    30
100
AcDbCircle
 10
282.7374303042
 20
95.0981847509
 30
0.0
 40
6.250000000000011
100
AcDbArc
 50
115.1589913901
 51
154.8410086099
  0
ARC
  5
14F
330
1F
100
AcDbEntity
  8
0
  6
Continuous
 62
     7
370
    30
100
AcDbCircle
 10
282.7374303042
 20
162.962329325
 30
0.0
 40
6.249999999999996
100
AcDbArc
 50
205.1589913901
 51
244.8410086099
  0
ARC
  5
150
330
1F
100
AcDbEntity
  8
0
  6
Continuous
 62
     7
370
    30
100
AcDbCircle
 10
271.4232857301
 20
162.962329325
 30
0.0
 40
6.249999999999996
100
AcDbArc
 50
295.1589913901
 51
334.8410086099
  0
ARC
  5
151
330
1F
100
AcDbEntity
  8
0
  6
Continuous
 62
     7
370
    30
100
AcDbCircle
 10
271.4232857301
 20
151.6481847509
 30
0.0
 40
6.250000000000011
100
AcDbArc
 50
25.1589913901
 51
64.8410086099
  0
ARC
  5
152
330
1F
100
AcDbEntity
  8
0
  6
Continuous
 62
     7
370
    30
100
AcDbCircle
 10
282.7374303042
 20
151.6481847509
 30
0.0
 40
6.250000000000011
100
AcDbArc
 50
115.1589913901
 51
154.8410086099
  0
ARC
  5
153
330
1F
100
AcDbEntity
  8
0
  6
Continuous
 62
     7
370
    30
100
AcDbCircle
 10
282.7374303042
 20
174.272329325
 30
0.0
 40
6.249999999999996
100
AcDbArc
 50
205.1589913901
 51
244.8410086099
  0
ARC
  5
154
330
1F
100
AcDbEntity
  8
0
  6
Continuous
 62
     7
370
    30
100
AcDbCircle
 10
271.4232857301
 20
174.272329325
 30
0.0
 40
6.249999999999996
100
AcDbArc
 50
295.1589913901
 51
334.8410086099
  0
ARC
  5
155
330
1F
100
AcDbEntity
  8
0
  6
Continuous
 62
     7
370
    30
100
AcDbCircle
 10
271.4232857301
 20
162.9581847509
 30
0.0
 40
6.250000000000011
100
AcDbArc
 50
25.1589913901
 51
64.8410086099
  0
ARC
  5
156
330
1F
100
AcDbEntity
  8
0
  6
Continuous
 62
     7
370
    30
100
AcDbCircle
 10
282.7374303042
 20
162.9581847509
 30
0.0
 40
6.250000000000011
100
AcDbArc
 50
115.1589913901
 51
154.8410086099
  0
ARC
  5
157
330
1F
100
AcDbEntity
  8
0
  6
Continuous
 62
     7
370
    30
100
AcDbCircle
 10
282.7374303042
 20
185.582329325
 30
0.0
 40
6.250000000000011
100
AcDbArc
 50
205.1589913901
 51
244.8410086099
  0
ARC
  5
158
330
1F
100
AcDbEntity
  8
0
  6
Continuous
 62
     7
370
    30
100
AcDbCircle
 10
271.4232857301
 20
185.582329325
 30
0.0
 40
6.250000000000011
100
AcDbArc
 50
295.1589913901
 51
334.8410086099
  0
ARC
  5
159
330
1F
100
AcDbEntity
  8
0
  6
Continuous
 62
     7
370
    30
100
AcDbCircle
 10
271.4232857301
 20
174.2681847509
 30
0.0
 40
6.249999999999996
100
AcDbArc
 50
25.1589913901
 51
64.8410086099
  0
ARC
  5
15A
330
1F
100
AcDbEntity
  8
0
  6
Continuous
 62
     7
370
    30
100
AcDbCircle
 10
282.7374303042
 20
174.2681847509
 30
0.0
 40
6.249999999999996
100
AcDbArc
 50
115.1589913901
 51
154.8410086099
  0
ARC
  5
15B
330
1F
100
AcDbEntity
  8
0
  6
Continuous
 62
     7
370
    30
100
AcDbCircle
 10
282.7374303042
 20
196.892329325
 30
0.0
 40
6.249999999999996
100
AcDbArc
 50
205.1589913901
 51
244.8410086099
  0
ARC
  5
15C
330
1F
100
AcDbEntity
  8
0
  6
Continuous
 62
     7
370
    30
100
AcDbCircle
 10
271.4232857301
 20
196.892329325
 30
0.0
 40
6.249999999999996
100
AcDbArc
 50
295.1589913901
 51
334.8410086099
  0
ARC
  5
15D
330
1F
100
AcDbEntity
  8
0
  6
Continuous
 62
     7
370
    30
100
AcDbCircle
 10
271.4232857301
 20
185.5781847509
 30
0.0
 40
6.250000000000011
100
AcDbArc
 50
25.1589913901
 51
64.8410086099
  0
ARC
  5
15E
330
1F
100
AcDbEntity
  8
0
  6
Continuous
 62
     7
370
    30
100
AcDbCircle
 10
282.7374303042
 20
185.5781847509
 30
0.0
 40
6.250000000000011
100
AcDbArc
 50
115.1589913901
 51
154.8410086099
  0
ARC
  5
15F
330
1F
100
AcDbEntity
  8
0
  6
Continuous
 62
     7
370
    30
100
AcDbCircle
 10
248.8074303042
 20
106.412329325
 30
0.0
 40
6.250000000000011
100
AcDbArc
 50
205.1589913901
 51
244.8410086099
  0
ARC
  5
160
330
1F
100
AcDbEntity
  8
0
  6
Continuous
 62
     7
370
    30
100
AcDbCircle
 10
237.4932857301
 20
106.412329325
 30
0.0
 40
6.250000000000011
100
AcDbArc
 50
295.1589913901
 51
334.8410086099
  0
ARC
  5
161
330
1F
100
AcDbEntity
  8
0
  6
Continuous
 62
     7
370
    30
100
AcDbCircle
 10
237.4932857301
 20
95.0981847509
 30
0.0
 40
6.250000000000011
100
AcDbArc
 50
25.1589913901
 51
64.8410086099
  0
ARC
  5
162
330
1F
100
AcDbEntity
  8
0
  6
Continuous
 62
     7
370
    30
100
AcDbCircle
 10
248.8074303042
 20
95.0981847509
 30
0.0
 40
6.250000000000011
100
AcDbArc
 50
115.1589913901
 51
154.8410086099
  0
ARC
  5
163
330
1F
100
AcDbEntity
  8
0
  6
Continuous
 62
     7
370
    30
100
AcDbCircle
 10
248.8074303042
 20
196.892329325
 30
0.0
 40
6.249999999999996
100
AcDbArc
 50
205.1589913901
 51
244.8410086099
  0
ARC
  5
164
330
1F
100
AcDbEntity
  8
0
  6
Continuous
 62
     7
370
    30
100
AcDbCircle
 10
237.4932857301
 20
196.892329325
 30
0.0
 40
6.249999999999996
100
AcDbArc
 50
295.1589913901
 51
334.8410086099
  0
ARC
  5
165
330
1F
100
AcDbEntity
  8
0
  6
Continuous
 62
     7
370
    30
100
AcDbCircle
 10
237.4932857301
 20
185.5781847509
 30
0.0
 40
6.250000000000011
100
AcDbArc
 50
25.1589913901
 51
64.8410086099
  0
ARC
  5
166
330
1F
100
AcDbEntity
  8
0
  6
Continuous
 62
     7
370
    30
100
AcDbCircle
 10
248.8074303042
 20
185.5781847509
 30
0.0
 40
6.250000000000011
100
AcDbArc
 50
115.1589913901
 51
154.8410086099
  0
ARC
  5
167
330
1F
100
AcDbEntity
  8
0
  6
Continuous
 62
     7
370
    30
100
AcDbCircle
 10
237.4974303042
 20
151.652329325
 30
0.0
 40
6.249999999999998
100
AcDbArc
 50
205.1589913901
 51
244.8410086099
  0
ARC
  5
168
330
1F
100
AcDbEntity
  8
0
  6
Continuous
 62
     7
370
    30
100
AcDbCircle
 10
226.1832857301
 20
151.652329325
 30
0.0
 40
6.250000000000035
100
AcDbArc
 50
295.1589913901
 51
334.8410086099
  0
ARC
  5
169
330
1F
100
AcDbEntity
  8
0
  6
Continuous
 62
     7
370
    30
100
AcDbCircle
 10
226.1832857301
 20
140.3381847509
 30
0.0
 40
6.250000000000011
100
AcDbArc
 50
25.1589913901
 51
64.8410086099
  0
ARC
  5
16A
330
1F
100
AcDbEntity
  8
0
  6
Continuous
 62
     7
370
    30
100
AcDbCircle
 10
237.4974303042
 20
140.3381847509
 30
0.0
 40
6.249999999999998
100
AcDbArc
 50
115.1589913901
 51
154.8410086099
  0
ARC
  5
16B
330
1F
100
AcDbEntity
  8
0
  6
Continuous
 62
     7
370
    30
100
AcDbCircle
 10
237.4974303042
 20
140.342329325
 30
0.0
 40
6.249999999999998
100
AcDbArc
 50
205.1589913901
 51
244.8410086099
  0
ARC
  5
16C
330
1F
100
AcDbEntity
  8
0
  6
Continuous
 62
     7
370
    30
100
AcDbCircle
 10
226.1832857301
 20
140.342329325
 30
0.0
 40
6.250000000000023
100
AcDbArc
 50
295.1589913901
 51
334.8410086099
  0
ARC
  5
16D
330
1F
100
AcDbEntity
  8
0
  6
Continuous
 62
     7
370
    30
100
AcDbCircle
 10
226.1832857301
 20
129.0281847509
 30
0.0
 40
6.249999999999996
100
AcDbArc
 50
25.1589913901
 51
64.8410086099
  0
ARC
  5
16E
330
1F
100
AcDbEntity
  8
0
  6
Continuous
 62
     7
370
    30
100
AcDbCircle
 10
237.4974303042
 20
129.0281847509
 30
0.0
 40
6.249999999999972
100
AcDbArc
 50
115.1589913901
 51
154.8410086099
  0
ARC
  5
16F
330
1F
100
AcDbEntity
  8
0
  6
Continuous
 62
     7
370
    30
100
AcDbCircle
 10
237.4974303042
 20
129.032329325
 30
0.0
 40
6.249999999999998
100
AcDbArc
 50
205.1589913901
 51
244.8410086099
  0
ARC
  5
170
330
1F
100
AcDbEntity
  8
0
  6
Continuous
 62
     7
370
    30
100
AcDbCircle
 10
226.1832857301
 20
129.032329325
 30
0.0
 40
6.250000000000035
100
AcDbArc
 50
295.1589913901
 51
334.8410086099
  0
ARC
  5
171
330
1F
100
AcDbEntity
  8
0
  6
Continuous
 62
     7
370
    30
100
AcDbCircle
 10
226.1832857301
 20
117.7181847509
 30
0.0
 40
6.250000000000011
100
AcDbArc
 50
25.1589913901
 51
64.8410086099
  0
ARC
  5
172
330
1F
100
AcDbEntity
  8
0
  6
Continuous
 62
     7
370
    30
100
AcDbCircle
 10
237.4974303042
 20
117.7181847509
 30
0.0
 40
6.249999999999998
100
AcDbArc
 50
115.1589913901
 51
154.8410086099
  0
ARC
  5
173
330
1F
100
AcDbEntity
  8
0
  6
Continuous
 62
     7
370
    30
100
AcDbCircle
 10
237.4974303042
 20
117.722329325
 30
0.0
 40
6.249999999999998
100
AcDbArc
 50
205.1589913901
 51
244.8410086099
  0
ARC
  5
174
330
1F
100
AcDbEntity
  8
0
  6
Continuous
 62
     7
370
    30
100
AcDbCircle
 10
226.1832857301
 20
117.722329325
 30
0.0
 40
6.250000000000028
100
AcDbArc
 50
295.1589913901
 51
334.8410086099
  0
ARC
  5
175
330
1F
100
AcDbEntity
  8
0
  6
Continuous
 62
     7
370
    30
100
AcDbCircle
 10
226.1832857301
 20
106.4081847509
 30
0.0
 40
6.249999999999997
100
AcDbArc
 50
25.1589913901
 51
64.8410086099
  0
ARC
  5
176
330
1F
100
AcDbEntity
  8
0
  6
Continuous
 62
     7
370
    30
100
AcDbCircle
 10
237.4974303042
 20
106.4081847509
 30
0.0
 40
6.249999999999985
100
AcDbArc
 50
115.1589913901
 51
154.8410086099
  0
ARC
  5
177
330
1F
100
AcDbEntity
  8
0
  6
Continuous
 62
     7
370
    30
100
AcDbCircle
 10
237.4974303042
 20
106.412329325
 30
0.0
 40
6.249999999999998
100
AcDbArc
 50
205.1589913901
 51
244.8410086099
  0
ARC
  5
178
330
1F
100
AcDbEntity
  8
0
  6
Continuous
 62
     7
370
    30
100
AcDbCircle
 10
226.1832857301
 20
106.412329325
 30
0.0
 40
6.250000000000035
100
AcDbArc
 50
295.1589913901
 51
334.8410086099
  0
ARC
  5
179
330
1F
100
AcDbEntity
  8
0
  6
Continuous
 62
     7
370
    30
100
AcDbCircle
 10
226.1832857301
 20
95.0981847509
 30
0.0
 40
6.250000000000011
100
AcDbArc
 50
25.1589913901
 51
64.8410086099
  0
ARC
  5
17A
330
1F
100
AcDbEntity
  8
0
  6
Continuous
 62
     7
370
    30
100
AcDbCircle
 10
237.4974303042
 20
95.0981847509
 30
0.0
 40
6.249999999999998
100
AcDbArc
 50
115.1589913901
 51
154.8410086099
  0
ARC
  5
17B
330
1F
100
AcDbEntity
  8
0
  6
Continuous
 62
     7
370
    30
100
AcDbCircle
 10
237.4974303042
 20
162.962329325
 30
0.0
 40
6.249999999999972
100
AcDbArc
 50
205.1589913901
 51
244.8410086099
  0
ARC
  5
17C
330
1F
100
AcDbEntity
  8
0
  6
Continuous
 62
     7
370
    30
100
AcDbCircle
 10
226.1832857301
 20
162.962329325
 30
0.0
 40
6.250000000000023
100
AcDbArc
 50
295.1589913901
 51
334.8410086099
  0
ARC
  5
17D
330
1F
100
AcDbEntity
  8
0
  6
Continuous
 62
     7
370
    30
100
AcDbCircle
 10
226.1832857301
 20
151.6481847509
 30
0.0
 40
6.250000000000011
100
AcDbArc
 50
25.1589913901
 51
64.8410086099
  0
ARC
  5
17E
330
1F
100
AcDbEntity
  8
0
  6
Continuous
 62
     7
370
    30
100
AcDbCircle
 10
237.4974303042
 20
151.6481847509
 30
0.0
 40
6.249999999999998
100
AcDbArc
 50
115.1589913901
 51
154.8410086099
  0
ARC
  5
17F
330
1F
100
AcDbEntity
  8
0
  6
Continuous
 62
     7
370
    30
100
AcDbCircle
 10
237.4974303042
 20
174.272329325
 30
0.0
 40
6.249999999999972
100
AcDbArc
 50
205.1589913901
 51
244.8410086099
  0
ARC
  5
180
330
1F
100
AcDbEntity
  8
0
  6
Continuous
 62
     7
370
    30
100
AcDbCircle
 10
226.1832857301
 20
174.272329325
 30
0.0
 40
6.250000000000023
100
AcDbArc
 50
295.1589913901
 51
334.8410086099
  0
ARC
  5
181
330
1F
100
AcDbEntity
  8
0
  6
Continuous
 62
     7
370
    30
100
AcDbCircle
 10
226.1832857301
 20
162.9581847509
 30
0.0
 40
6.250000000000011
100
AcDbArc
 50
25.1589913901
 51
64.8410086099
  0
ARC
  5
182
330
1F
100
AcDbEntity
  8
0
  6
Continuous
 62
     7
370
    30
100
AcDbCircle
 10
237.4974303042
 20
162.9581847509
 30
0.0
 40
6.249999999999998
100
AcDbArc
 50
115.1589913901
 51
154.8410086099
  0
ARC
  5
183
330
1F
100
AcDbEntity
  8
0
  6
Continuous
 62
     7
370
    30
100
AcDbCircle
 10
237.4974303042
 20
185.582329325
 30
0.0
 40
6.249999999999998
100
AcDbArc
 50
205.1589913901
 51
244.8410086099
  0
ARC
  5
184
330
1F
100
AcDbEntity
  8
0
  6
Continuous
 62
     7
370
    30
100
AcDbCircle
 10
226.1832857301
 20
185.582329325
 30
0.0
 40
6.250000000000023
100
AcDbArc
 50
295.1589913901
 51
334.8410086099
  0
ARC
  5
185
330
1F
100
AcDbEntity
  8
0
  6
Continuous
 62
     7
370
    30
100
AcDbCircle
 10
226.1832857301
 20
174.2681847509
 30
0.0
 40
6.249999999999996
100
AcDbArc
 50
25.1589913901
 51
64.8410086099
  0
ARC
  5
186
330
1F
100
AcDbEntity
  8
0
  6
Continuous
 62
     7
370
    30
100
AcDbCircle
 10
237.4974303042
 20
174.2681847509
 30
0.0
 40
6.249999999999972
100
AcDbArc
 50
115.1589913901
 51
154.8410086099
  0
ARC
  5
187
330
1F
100
AcDbEntity
  8
0
  6
Continuous
 62
     7
370
    30
100
AcDbCircle
 10
237.4974303042
 20
196.892329325
 30
0.0
 40
6.249999999999972
100
AcDbArc
 50
205.1589913901
 51
244.8410086099
  0
ARC
  5
188
330
1F
100
AcDbEntity
  8
0
  6
Continuous
 62
     7
370
    30
100
AcDbCircle
 10
226.1832857301
 20
196.892329325
 30
0.0
 40
6.250000000000023
100
AcDbArc
 50
295.1589913901
 51
334.8410086099
  0
ARC
  5
189
330
1F
100
AcDbEntity
  8
0
  6
Continuous
 62
     7
370
    30
100
AcDbCircle
 10
226.1832857301
 20
185.5781847509
 30
0.0
 40
6.250000000000011
100
AcDbArc
 50
25.1589913901
 51
64.8410086099
  0
ARC
  5
18A
330
1F
100
AcDbEntity
  8
0
  6
Continuous
 62
     7
370
    30
100
AcDbCircle
 10
237.4974303042
 20
185.5781847509
 30
0.0
 40
6.249999999999998
100
AcDbArc
 50
115.1589913901
 51
154.8410086099
  0
ARC
  5
18B
330
1F
100
AcDbEntity
  8
0
  6
Continuous
 62
     7
370
    30
100
AcDbCircle
 10
243.1503580171
 20
191.2352570379
 30
0.0
 40
6.250000000000003
100
AcDbArc
 50
25.2036401195
 51
64.7963598805
  0
ARC
  5
18C
330
1F
100
AcDbEntity
  8
0
  6
Continuous
 62
     7
370
    30
100
AcDbCircle
 10
254.4603580171
 20
100.7552570379
 30
0.0
 40
6.249999999999977
100
AcDbArc
 50
205.2036401195
 51
244.7963598805
  0
ARC
  5
18D
330
1F
100
AcDbEntity
  8
0
  6
Continuous
 62
     7
370
    30
100
AcDbCircle
 10
243.1503580171
 20
100.7552570379
 30
0.0
 40
6.250000000000003
100
AcDbArc
 50
295.2036401195
 51
334.7963598805
  0
ARC
  5
18E
330
1F
100
AcDbEntity
  8
0
  6
Continuous
 62
     7
370
    30
100
AcDbCircle
 10
243.1503580171
 20
89.4452570379
 30
0.0
 40
6.250000000000015
100
AcDbArc
 50
25.2036401195
 51
64.7963598805
  0
ARC
  5
18F
330
1F
100
AcDbEntity
  8
0
  6
Continuous
 62
     7
370
    30
100
AcDbCircle
 10
254.4603580171
 20
89.4452570379
 30
0.0
 40
6.250000000000004
100
AcDbArc
 50
115.2036401195
 51
154.7963598805
  0
ARC
  5
190
330
1F
100
AcDbEntity
  8
0
  6
Continuous
 62
     7
370
    30
100
AcDbCircle
 10
243.1503580171
 20
202.5452570379
 30
0.0
 40
6.250000000000028
100
AcDbArc
 50
205.2036401195
 51
244.7963598805
  0
ARC
  5
191
330
1F
100
AcDbEntity
  8
0
  6
Continuous
 62
     7
370
    30
100
AcDbCircle
 10
231.8403580171
 20
202.5452570379
 30
0.0
 40
6.250000000000016
100
AcDbArc
 50
295.2036401195
 51
334.7963598805
  0
ARC
  5
192
330
1F
100
AcDbEntity
  8
0
  6
Continuous
 62
     7
370
    30
100
AcDbCircle
 10
231.8403580171
 20
191.2352570379
 30
0.0
 40
6.249999999999977
100
AcDbArc
 50
25.2036401195
 51
64.7963598805
  0
ARC
  5
193
330
1F
100
AcDbEntity
  8
0
  6
Continuous
 62
     7
370
    30
100
AcDbCircle
 10
243.1503580171
 20
191.2352570379
 30
0.0
 40
6.250000000000003
100
AcDbArc
 50
115.2036401195
 51
154.7963598805
  0
ARC
  5
194
330
1F
100
AcDbEntity
  8
0
  6
Continuous
 62
     7
370
    30
100
AcDbCircle
 10
265.7703580171
 20
202.5452570379
 30
0.0
 40
6.25000000000004
100
AcDbArc
 50
205.2036401195
 51
244.7963598805
  0
ARC
  5
195
330
1F
100
AcDbEntity
  8
0
  6
Continuous
 62
     7
370
    30
100
AcDbCircle
 10
254.4603580171
 20
202.5452570379
 30
0.0
 40
6.25000000000004
100
AcDbArc
 50
295.2036401195
 51
334.7963598805
  0
ARC
  5
196
330
1F
100
AcDbEntity
  8
0
  6
Continuous
 62
     7
370
    30
100
AcDbCircle
 10
254.4603580171
 20
191.2352570379
 30
0.0
 40
6.250000000000028
100
AcDbArc
 50
25.2036401195
 51
64.7963598805
  0
ARC
  5
197
330
1F
100
AcDbEntity
  8
0
  6
Continuous
 62
     7
370
    30
100
AcDbCircle
 10
265.7703580171
 20
191.2352570379
 30
0.0
 40
6.250000000000028
100
AcDbArc
 50
115.2036401195
 51
154.7963598805
  0
ARC
  5
198
330
1F
100
AcDbEntity
  8
0
  6
Continuous
 62
     7
370
    30
100
AcDbCircle
 10
265.7703580171
 20
100.7552570379
 30
0.0
 40
6.250000000000028
100
AcDbArc
 50
205.2036401195
 51
244.7963598805
  0
ARC
  5
199
330
1F
100
AcDbEntity
  8
0
  6
Continuous
 62
     7
370
    30
100
AcDbCircle
 10
254.4603580171
 20
100.7552570379
 30
0.0
 40
6.250000000000028
100
AcDbArc
 50
295.2036401195
 51
334.7963598805
  0
ARC
  5
19A
330
1F
100
AcDbEntity
  8
0
  6
Continuous
 62
     7
370
    30
100
AcDbCircle
 10
254.4603580171
 20
89.4452570379
 30
0.0
 40
6.250000000000028
100
AcDbArc
 50
25.2036401195
 51
64.7963598805
  0
ARC
  5
19B
330
1F
100
AcDbEntity
  8
0
  6
Continuous
 62
     7
370
    30
100
AcDbCircle
 10
265.7703580171
 20
89.4452570379
 30
0.0
 40
6.250000000000028
100
AcDbArc
 50
115.2036401195
 51
154.7963598805
  0
ARC
  5
19C
330
1F
100
AcDbEntity
  8
0
  6
Continuous
 62
     7
370
    30
100
AcDbCircle
 10
277.0803580171
 20
202.5452570379
 30
0.0
 40
6.25000000000004
100
AcDbArc
 50
205.2036401195
 51
244.7963598805
  0
ARC
  5
19D
330
1F
100
AcDbEntity
  8
0
  6
Continuous
 62
     7
370
    30
100
AcDbCircle
 10
265.7703580171
 20
202.5452570379
 30
0.0
 40
6.250000000000016
100
AcDbArc
 50
295.2036401195
 51
334.7963598805
  0
ARC
  5
19E
330
1F
100
AcDbEntity
  8
0
  6
Continuous
 62
     7
370
    30
100
AcDbCircle
 10
265.7703580171
 20
191.2352570379
 30
0.0
 40
6.249999999999977
100
AcDbArc
 50
25.2036401195
 51
64.7963598805
  0
ARC
  5
19F
330
1F
100
AcDbEntity
  8
0
  6
Continuous
 62
     7
370
    30
100
AcDbCircle
 10
277.0803580171
 20
191.2352570379
 30
0.0
 40
6.250000000000028
100
AcDbArc
 50
115.2036401195
 51
154.7963598805
  0
ARC
  5
1A0
330
1F
100
AcDbEntity
  8
0
  6
Continuous
 62
     7
370
    30
100
AcDbCircle
 10
277.0803580171
 20
100.7552570379
 30
0.0
 40
6.250000000000028
100
AcDbArc
 50
205.2036401195
 51
244.7963598805
  0
ARC
  5
1A1
330
1F
100
AcDbEntity
  8
0
  6
Continuous
 62
     7
370
    30
100
AcDbCircle
 10
265.7703580171
 20
100.7552570379
 30
0.0
 40
6.249999999999977
100
AcDbArc
 50
295.2036401195
 51
334.7963598805
  0
ARC
  5
1A2
330
1F
100
AcDbEntity
  8
0
  6
Continuous
 62
     7
370
    30
100
AcDbCircle
 10
265.7703580171
 20
89.4452570379
 30
0.0
 40
6.250000000000004
100
AcDbArc
 50
25.2036401195
 51
64.7963598805
  0
ARC
  5
1A3
330
1F
100
AcDbEntity
  8
0
  6
Continuous
 62
     7
370
    30
100
AcDbCircle
 10
277.0803580171
 20
89.4452570379
 30
0.0
 40
6.250000000000028
100
AcDbArc
 50
115.2036401195
 51
154.7963598805
  0
ARC
  5
1A4
330
1F
100
AcDbEntity
  8
0
  6
Continuous
 62
     7
370
    30
100
AcDbCircle
 10
226.1832857301
 20
196.8881847509
 30
0.0
 40
6.249999999999996
100
AcDbArc
 50
25.1589913901
 51
56.421782401
  0
ARC
  5
1A5
330
1F
100
AcDbEntity
  8
0
  6
Continuous
 62
     7
370
    30
100
AcDbCircle
 10
237.4974303042
 20
196.8881847509
 30
0.0
 40
6.25
100
AcDbArc
 50
123.578217599
 51
154.8410086099
  0
LINE
  5
1A6
330
1F
100
AcDbEntity
  8
0
  6
Continuous
 62
     7
370
    30
100
AcDbLine
 10
234.0407124683
 20
202.0952570379
 30
0.0
 11
229.640003566
 21
202.0952570379
 31
0.0
  0
ARC
  5
1A7
330
1F
100
AcDbEntity
  8
0
  6
Continuous
 62
     7
370
    30
100
AcDbCircle
 10
237.4932857301
 20
196.8881847509
 30
0.0
 40
6.25
100
AcDbArc
 50
25.1589913901
 51
56.421782401
  0
ARC
  5
1A8
330
1F
100
AcDbEntity
  8
0
  6
Continuous
 62
     7
370
    30
100
AcDbCircle
 10
248.8074303042
 20
196.8881847509
 30
0.0
 40
6.249999999999996
100
AcDbArc
 50
123.578217599
 51
154.8410086099
  0
LINE
  5
1A9
330
1F
100
AcDbEntity
  8
0
  6
Continuous
 62
     7
370
    30
100
AcDbLine
 10
245.3507124683
 20
202.0952570379
 30
0.0
 11
240.950003566
 21
202.0952570379
 31
0.0
  0
LINE
  5
1AA
330
1F
100
AcDbEntity
  8
0
  6
Continuous
 62
     7
370
    30
100
AcDbLine
 10
256.6607124683
 20
202.0952570379
 30
0.0
 11
252.260003566
 21
202.0952570379
 31
0.0
  0
ARC
  5
1AB
330
1F
100
AcDbEntity
  8
0
  6
Continuous
 62
     7
370
    30
100
AcDbCircle
 10
260.1132857301
 20
196.8881847509
 30
0.0
 40
6.250000000000048
100
AcDbArc
 50
25.1589913901
 51
56.421782401
  0
ARC
  5
1AC
330
1F
100
AcDbEntity
  8
0
  6
Continuous
 62
     7
370
    30
100
AcDbCircle
 10
271.4274303042
 20
196.8881847509
 30
0.0
 40
6.250000000000032
100
AcDbArc
 50
123.578217599
 51
154.8410086099
  0
LINE
  5
1AD
330
1F
100
AcDbEntity
  8
0
  6
Continuous
 62
     7
370
    30
100
AcDbLine
 10
267.9707124683
 20
202.0952570379
 30
0.0
 11
263.570003566
 21
202.0952570379
 31
0.0
  0
ARC
  5
1AE
330
1F
100
AcDbEntity
  8
0
  6
Continuous
 62
     7
370
    30
100
AcDbCircle
 10
271.4232857301
 20
196.8881847509
 30
0.0
 40
6.249999999999996
100
AcDbArc
 50
25.1589913901
 51
56.421782401
  0
ARC
  5
1AF
330
1F
100
AcDbEntity
  8
0
  6
Continuous
 62
     7
370
    30
100
AcDbCircle
 10
282.7374303042
 20
196.8881847509
 30
0.0
 40
6.25
100
AcDbArc
 50
123.578217599
 51
154.8410086099
  0
LINE
  5
1B0
330
1F
100
AcDbEntity
  8
0
  6
Continuous
 62
     7
370
    30
100
AcDbLine
 10
279.2807124683
 20
202.0952570379
 30
0.0
 11
274.880003566
 21
202.0952570379
 31
0.0
  0
ARC
  5
1B1
330
1F
100
AcDbEntity
  8
0
  6
Continuous
 62
     7
370
    30
100
AcDbCircle
 10
282.7332857301
 20
196.8881847509
 30
0.0
 40
4.750000000000005
100
AcDbArc
 50
53.4750260792
 51
77.6334490471
  0
ARC
  5
1B2
330
1F
100
AcDbEntity
  8
0
  6
Continuous
 62
     7
370
    30
100
AcDbCircle
 10
288.3903580171
 20
202.5452570379
 30
0.0
 40
4.750000000000008
100
AcDbArc
 50
192.3665509529
 51
233.4310676285
  0
LINE
  5
1B3
330
1F
100
AcDbEntity
  8
0
  6
Continuous
 62
     7
370
    30
100
AcDbLine
 10
285.5603580171
 20
198.7303389523
 30
0.0
 11
285.5603580171
 21
200.7052729452
 31
0.0
  0
LINE
  5
1B4
330
1F
100
AcDbEntity
  8
0
  6
Continuous
 62
     7
370
    30
100
AcDbLine
 10
285.5603580171
 20
196.807832744
 30
0.0
 11
285.5603580171
 21
196.9726813319
 31
0.0
  0
ARC
  5
1B5
330
1F
100
AcDbEntity
  8
0
  6
Continuous
 62
     7
370
    30
100
AcDbCircle
 10
288.3903580171
 20
191.2352570379
 30
0.0
 40
4.749999999999985
100
AcDbArc
 50
126.5689323715
 51
167.6334490471
  0
ARC
  5
1B6
330
1F
100
AcDbEntity
  8
0
  6
Continuous
 62
     7
370
    30
100
AcDbCircle
 10
282.7332857301
 20
196.892329325
 30
0.0
 40
4.750000000000005
100
AcDbArc
 50
282.3665509529
 51
306.5249739208
  0
LINE
  5
1B7
330
1F
100
AcDbEntity
  8
0
  6
Continuous
 62
     7
370
    30
100
AcDbLine
 10
285.5603580171
 20
193.0752411306
 30
0.0
 11
285.5603580171
 21
195.0501751236
 31
0.0
  0
ARC
  5
1B8
330
1F
100
AcDbEntity
  8
0
  6
Continuous
 62
     7
370
    30
100
AcDbCircle
 10
282.7332857301
 20
185.5781847509
 30
0.0
 40
4.750000000000005
100
AcDbArc
 50
53.4750260792
 51
77.6334490471
  0
ARC
  5
1B9
330
1F
100
AcDbEntity
  8
0
  6
Continuous
 62
     7
370
    30
100
AcDbCircle
 10
288.3903580171
 20
191.2352570379
 30
0.0
 40
4.750000000000008
100
AcDbArc
 50
192.3665509529
 51
233.4310676285
  0
LINE
  5
1BA
330
1F
100
AcDbEntity
  8
0
  6
Continuous
 62
     7
370
    30
100
AcDbLine
 10
285.5603580171
 20
187.4203389523
 30
0.0
 11
285.5603580171
 21
189.3952729452
 31
0.0
  0
LINE
  5
1BB
330
1F
100
AcDbEntity
  8
0
  6
Continuous
 62
     7
370
    30
100
AcDbLine
 10
285.5603580171
 20
185.497832744
 30
0.0
 11
285.5603580171
 21
185.6626813319
 31
0.0
  0
ARC
  5
1BC
330
1F
100
AcDbEntity
  8
0
  6
Continuous
 62
     7
370
    30
100
AcDbCircle
 10
288.3903580171
 20
179.9252570379
 30
0.0
 40
4.750000000000008
100
AcDbArc
 50
126.5689323715
 51
167.6334490471
  0
ARC
  5
1BD
330
1F
100
AcDbEntity
  8
0
  6
Continuous
 62
     7
370
    30
100
AcDbCircle
 10
282.7332857301
 20
185.582329325
 30
0.0
 40
4.750000000000005
100
AcDbArc
 50
282.3665509529
 51
306.5249739208
  0
LINE
  5
1BE
330
1F
100
AcDbEntity
  8
0
  6
Continuous
 62
     7
370
    30
100
AcDbLine
 10
285.5603580171
 20
181.7652411306
 30
0.0
 11
285.5603580171
 21
183.7401751236
 31
0.0
  0
ARC
  5
1BF
330
1F
100
AcDbEntity
  8
0
  6
Continuous
 62
     7
370
    30
100
AcDbCircle
 10
282.7332857301
 20
174.2681847509
 30
0.0
 40
4.750000000000005
100
AcDbArc
 50
53.4750260792
 51
77.6334490471
  0
ARC
  5
1C0
330
1F
100
AcDbEntity
  8
0
  6
Continuous
 62
     7
370
    30
100
AcDbCircle
 10
288.3903580171
 20
179.9252570379
 30
0.0
 40
4.749999999999985
100
AcDbArc
 50
192.3665509529
 51
233.4310676285
  0
LINE
  5
1C1
330
1F
100
AcDbEntity
  8
0
  6
Continuous
 62
     7
370
    30
100
AcDbLine
 10
285.5603580171
 20
176.1103389523
 30
0.0
 11
285.5603580171
 21
178.0852729452
 31
0.0
  0
ARC
  5
1C2
330
1F
100
AcDbEntity
  8
0
  6
Continuous
 62
     7
370
    30
100
AcDbCircle
 10
288.3903580171
 20
179.9252570379
 30
0.0
 40
6.24999999999998
100
AcDbArc
 50
205.2036401195
 51
243.0765285396
  0
ARC
  5
1C3
330
1F
100
AcDbEntity
  8
0
  6
Continuous
 62
     7
370
    30
100
AcDbCircle
 10
277.0803580171
 20
179.9252570379
 30
0.0
 40
6.24999999999999
100
AcDbArc
 50
295.2036401195
 51
334.7963598805
  0
ARC
  5
1C4
330
1F
100
AcDbEntity
  8
0
  6
Continuous
 62
     7
370
    30
100
AcDbCircle
 10
277.0803580171
 20
168.6152570379
 30
0.0
 40
6.249999999999977
100
AcDbArc
 50
25.2036401195
 51
64.7963598805
  0
LINE
  5
1C5
330
1F
100
AcDbEntity
  8
0
  6
Continuous
 62
     7
370
    30
100
AcDbLine
 10
285.5603580171
 20
174.187832744
 30
0.0
 11
285.5603580171
 21
174.3526813319
 31
0.0
  0
ARC
  5
1C6
330
1F
100
AcDbEntity
  8
0
  6
Continuous
 62
     7
370
    30
100
AcDbCircle
 10
288.3903580171
 20
168.6152570379
 30
0.0
 40
4.749999999999985
100
AcDbArc
 50
126.5689323715
 51
167.6334490471
  0
ARC
  5
1C7
330
1F
100
AcDbEntity
  8
0
  6
Continuous
 62
     7
370
    30
100
AcDbCircle
 10
282.7332857301
 20
174.272329325
 30
0.0
 40
4.750000000000027
100
AcDbArc
 50
282.3665509529
 51
306.5249739208
  0
LINE
  5
1C8
330
1F
100
AcDbEntity
  8
0
  6
Continuous
 62
     7
370
    30
100
AcDbLine
 10
285.5603580171
 20
170.4552411306
 30
0.0
 11
285.5603580171
 21
172.4301751236
 31
0.0
  0
ARC
  5
1C9
330
1F
100
AcDbEntity
  8
0
  6
Continuous
 62
     7
370
    30
100
AcDbCircle
 10
282.7332857301
 20
162.9581847509
 30
0.0
 40
4.750000000000005
100
AcDbArc
 50
53.4750260792
 51
77.6334490471
  0
ARC
  5
1CA
330
1F
100
AcDbEntity
  8
0
  6
Continuous
 62
     7
370
    30
100
AcDbCircle
 10
288.3903580171
 20
168.6152570379
 30
0.0
 40
4.749999999999985
100
AcDbArc
 50
192.3665509529
 51
233.4310676285
  0
LINE
  5
1CB
330
1F
100
AcDbEntity
  8
0
  6
Continuous
 62
     7
370
    30
100
AcDbLine
 10
285.5603580171
 20
164.8003389523
 30
0.0
 11
285.5603580171
 21
166.7752729452
 31
0.0
  0
ARC
  5
1CC
330
1F
100
AcDbEntity
  8
0
  6
Continuous
 62
     7
370
    30
100
AcDbCircle
 10
288.3903580171
 20
168.6152570379
 30
0.0
 40
6.250000000000005
100
AcDbArc
 50
205.2036401195
 51
243.0765285396
  0
ARC
  5
1CD
330
1F
100
AcDbEntity
  8
0
  6
Continuous
 62
     7
370
    30
100
AcDbCircle
 10
277.0803580171
 20
168.6152570379
 30
0.0
 40
6.24999999999999
100
AcDbArc
 50
295.2036401195
 51
334.7963598805
  0
ARC
  5
1CE
330
1F
100
AcDbEntity
  8
0
  6
Continuous
 62
     7
370
    30
100
AcDbCircle
 10
277.0803580171
 20
157.3052570379
 30
0.0
 40
6.24999999999999
100
AcDbArc
 50
25.2036401195
 51
64.7963598805
  0
ARC
  5
1CF
330
1F
100
AcDbEntity
  8
0
  6
Continuous
 62
     7
370
    30
100
AcDbCircle
 10
288.3903580171
 20
157.3052570379
 30
0.0
 40
6.24999999999998
100
AcDbArc
 50
116.9234714604
 51
154.7963598805
  0
LINE
  5
1D0
330
1F
100
AcDbEntity
  8
0
  6
Continuous
 62
     7
370
    30
100
AcDbLine
 10
285.5603580171
 20
162.877832744
 30
0.0
 11
285.5603580171
 21
163.0426813319
 31
0.0
  0
ARC
  5
1D1
330
1F
100
AcDbEntity
  8
0
  6
Continuous
 62
     7
370
    30
100
AcDbCircle
 10
288.3903580171
 20
157.3052570379
 30
0.0
 40
4.749999999999985
100
AcDbArc
 50
126.5689323715
 51
167.6334490471
  0
ARC
  5
1D2
330
1F
100
AcDbEntity
  8
0
  6
Continuous
 62
     7
370
    30
100
AcDbCircle
 10
282.7332857301
 20
162.962329325
 30
0.0
 40
4.750000000000005
100
AcDbArc
 50
282.3665509529
 51
306.5249739208
  0
LINE
  5
1D3
330
1F
100
AcDbEntity
  8
0
  6
Continuous
 62
     7
370
    30
100
AcDbLine
 10
285.5603580171
 20
159.1452411306
 30
0.0
 11
285.5603580171
 21
161.1201751236
 31
0.0
  0
ARC
  5
1D4
330
1F
100
AcDbEntity
  8
0
  6
Continuous
 62
     7
370
    30
100
AcDbCircle
 10
282.7332857301
 20
151.6481847509
 30
0.0
 40
4.750000000000005
100
AcDbArc
 50
53.4750260792
 51
77.6334490471
  0
ARC
  5
1D5
330
1F
100
AcDbEntity
  8
0
  6
Continuous
 62
     7
370
    30
100
AcDbCircle
 10
288.3903580171
 20
157.3052570379
 30
0.0
 40
4.750000000000008
100
AcDbArc
 50
192.3665509529
 51
233.4310676285
  0
LINE
  5
1D6
330
1F
100
AcDbEntity
  8
0
  6
Continuous
 62
     7
370
    30
100
AcDbLine
 10
285.5603580171
 20
153.4903389523
 30
0.0
 11
285.5603580171
 21
155.4652729452
 31
0.0
  0
ARC
  5
1D7
330
1F
100
AcDbEntity
  8
0
  6
Continuous
 62
     7
370
    30
100
AcDbCircle
 10
288.3903580171
 20
157.3052570379
 30
0.0
 40
6.250000000000005
100
AcDbArc
 50
205.2036401195
 51
243.0765285396
  0
ARC
  5
1D8
330
1F
100
AcDbEntity
  8
0
  6
Continuous
 62
     7
370
    30
100
AcDbCircle
 10
277.0803580171
 20
157.3052570379
 30
0.0
 40
6.250000000000016
100
AcDbArc
 50
295.2036401195
 51
334.7963598805
  0
ARC
  5
1D9
330
1F
100
AcDbEntity
  8
0
  6
Continuous
 62
     7
370
    30
100
AcDbCircle
 10
277.0803580171
 20
145.9952570379
 30
0.0
 40
6.249999999999977
100
AcDbArc
 50
25.2036401195
 51
64.7963598805
  0
ARC
  5
1DA
330
1F
100
AcDbEntity
  8
0
  6
Continuous
 62
     7
370
    30
100
AcDbCircle
 10
288.3903580171
 20
145.9952570379
 30
0.0
 40
6.250000000000005
100
AcDbArc
 50
116.9234714604
 51
154.7963598805
  0
LINE
  5
1DB
330
1F
100
AcDbEntity
  8
0
  6
Continuous
 62
     7
370
    30
100
AcDbLine
 10
285.5603580171
 20
151.567832744
 30
0.0
 11
285.5603580171
 21
151.7326813319
 31
0.0
  0
ARC
  5
1DC
330
1F
100
AcDbEntity
  8
0
  6
Continuous
 62
     7
370
    30
100
AcDbCircle
 10
288.3903580171
 20
145.9952570379
 30
0.0
 40
4.749999999999985
100
AcDbArc
 50
126.5689323715
 51
167.6334490471
  0
ARC
  5
1DD
330
1F
100
AcDbEntity
  8
0
  6
Continuous
 62
     7
370
    30
100
AcDbCircle
 10
282.7332857301
 20
151.652329325
 30
0.0
 40
4.750000000000005
100
AcDbArc
 50
282.3665509529
 51
306.5249739208
  0
LINE
  5
1DE
330
1F
100
AcDbEntity
  8
0
  6
Continuous
 62
     7
370
    30
100
AcDbLine
 10
285.5603580171
 20
147.8352411306
 30
0.0
 11
285.5603580171
 21
149.8101751236
 31
0.0
  0
ARC
  5
1DF
330
1F
100
AcDbEntity
  8
0
  6
Continuous
 62
     7
370
    30
100
AcDbCircle
 10
282.7332857301
 20
140.3381847509
 30
0.0
 40
4.750000000000005
100
AcDbArc
 50
53.4750260792
 51
77.6334490471
  0
ARC
  5
1E0
330
1F
100
AcDbEntity
  8
0
  6
Continuous
 62
     7
370
    30
100
AcDbCircle
 10
288.3903580171
 20
145.9952570379
 30
0.0
 40
4.749999999999985
100
AcDbArc
 50
192.3665509529
 51
233.4310676285
  0
LINE
  5
1E1
330
1F
100
AcDbEntity
  8
0
  6
Continuous
 62
     7
370
    30
100
AcDbLine
 10
285.5603580171
 20
142.1803389523
 30
0.0
 11
285.5603580171
 21
144.1552729452
 31
0.0
  0
LINE
  5
1E2
330
1F
100
AcDbEntity
  8
0
  6
Continuous
 62
     7
370
    30
100
AcDbLine
 10
285.5603580171
 20
140.257832744
 30
0.0
 11
285.5603580171
 21
140.4226813319
 31
0.0
  0
ARC
  5
1E3
330
1F
100
AcDbEntity
  8
0
  6
Continuous
 62
     7
370
    30
100
AcDbCircle
 10
288.3903580171
 20
134.6852570379
 30
0.0
 40
4.750000000000008
100
AcDbArc
 50
126.5689323715
 51
167.6334490471
  0
ARC
  5
1E4
330
1F
100
AcDbEntity
  8
0
  6
Continuous
 62
     7
370
    30
100
AcDbCircle
 10
282.7332857301
 20
140.342329325
 30
0.0
 40
4.750000000000005
100
AcDbArc
 50
282.3665509529
 51
306.5249739208
  0
LINE
  5
1E5
330
1F
100
AcDbEntity
  8
0
  6
Continuous
 62
     7
370
    30
100
AcDbLine
 10
285.5603580171
 20
136.5252411306
 30
0.0
 11
285.5603580171
 21
138.5001751236
 31
0.0
  0
ARC
  5
1E6
330
1F
100
AcDbEntity
  8
0
  6
Continuous
 62
     7
370
    30
100
AcDbCircle
 10
282.7332857301
 20
129.0281847509
 30
0.0
 40
4.750000000000033
100
AcDbArc
 50
53.4750260792
 51
77.6334490471
  0
ARC
  5
1E7
330
1F
100
AcDbEntity
  8
0
  6
Continuous
 62
     7
370
    30
100
AcDbCircle
 10
288.3903580171
 20
134.6852570379
 30
0.0
 40
4.749999999999985
100
AcDbArc
 50
192.3665509529
 51
233.4310676285
  0
LINE
  5
1E8
330
1F
100
AcDbEntity
  8
0
  6
Continuous
 62
     7
370
    30
100
AcDbLine
 10
285.5603580171
 20
130.8703389523
 30
0.0
 11
285.5603580171
 21
132.8452729452
 31
0.0
  0
LINE
  5
1E9
330
1F
100
AcDbEntity
  8
0
  6
Continuous
 62
     7
370
    30
100
AcDbLine
 10
285.5603580171
 20
128.947832744
 30
0.0
 11
285.5603580171
 21
129.1126813319
 31
0.0
  0
ARC
  5
1EA
330
1F
100
AcDbEntity
  8
0
  6
Continuous
 62
     7
370
    30
100
AcDbCircle
 10
288.3903580171
 20
123.3752570379
 30
0.0
 40
4.749999999999985
100
AcDbArc
 50
126.5689323715
 51
167.6334490471
  0
ARC
  5
1EB
330
1F
100
AcDbEntity
  8
0
  6
Continuous
 62
     7
370
    30
100
AcDbCircle
 10
282.7332857301
 20
129.032329325
 30
0.0
 40
4.75000000000002
100
AcDbArc
 50
282.3665509529
 51
306.5249739208
  0
LINE
  5
1EC
330
1F
100
AcDbEntity
  8
0
  6
Continuous
 62
     7
370
    30
100
AcDbLine
 10
285.5603580171
 20
125.2152411306
 30
0.0
 11
285.5603580171
 21
127.1901751236
 31
0.0
  0
ARC
  5
1ED
330
1F
100
AcDbEntity
  8
0
  6
Continuous
 62
     7
370
    30
100
AcDbCircle
 10
282.7332857301
 20
117.7181847509
 30
0.0
 40
4.750000000000005
100
AcDbArc
 50
53.4750260792
 51
77.6334490471
  0
ARC
  5
1EE
330
1F
100
AcDbEntity
  8
0
  6
Continuous
 62
     7
370
    30
100
AcDbCircle
 10
288.3903580171
 20
123.3752570379
 30
0.0
 40
4.749999999999985
100
AcDbArc
 50
192.3665509529
 51
233.4310676285
  0
LINE
  5
1EF
330
1F
100
AcDbEntity
  8
0
  6
Continuous
 62
     7
370
    30
100
AcDbLine
 10
285.5603580171
 20
119.5603389523
 30
0.0
 11
285.5603580171
 21
121.5352729452
 31
0.0
  0
ARC
  5
1F0
330
1F
100
AcDbEntity
  8
0
  6
Continuous
 62
     7
370
    30
100
AcDbCircle
 10
288.3903580171
 20
123.3752570379
 30
0.0
 40
6.250000000000005
100
AcDbArc
 50
205.2036401195
 51
243.0765285396
  0
ARC
  5
1F1
330
1F
100
AcDbEntity
  8
0
  6
Continuous
 62
     7
370
    30
100
AcDbCircle
 10
277.0803580171
 20
123.3752570379
 30
0.0
 40
6.24999999999999
100
AcDbArc
 50
295.2036401195
 51
334.7963598805
  0
ARC
  5
1F2
330
1F
100
AcDbEntity
  8
0
  6
Continuous
 62
     7
370
    30
100
AcDbCircle
 10
288.3903580171
 20
112.0652570379
 30
0.0
 40
6.24999999999998
100
AcDbArc
 50
116.9234714604
 51
154.7963598805
  0
LINE
  5
1F3
330
1F
100
AcDbEntity
  8
0
  6
Continuous
 62
     7
370
    30
100
AcDbLine
 10
285.5603580171
 20
117.637832744
 30
0.0
 11
285.5603580171
 21
117.8026813319
 31
0.0
  0
ARC
  5
1F4
330
1F
100
AcDbEntity
  8
0
  6
Continuous
 62
     7
370
    30
100
AcDbCircle
 10
288.3903580171
 20
112.0652570379
 30
0.0
 40
4.749999999999996
100
AcDbArc
 50
126.5689323715
 51
167.6334490471
  0
ARC
  5
1F5
330
1F
100
AcDbEntity
  8
0
  6
Continuous
 62
     7
370
    30
100
AcDbCircle
 10
282.7332857301
 20
117.722329325
 30
0.0
 40
4.75000000000002
100
AcDbArc
 50
282.3665509529
 51
306.5249739208
  0
LINE
  5
1F6
330
1F
100
AcDbEntity
  8
0
  6
Continuous
 62
     7
370
    30
100
AcDbLine
 10
285.5603580171
 20
113.9052411306
 30
0.0
 11
285.5603580171
 21
115.8801751236
 31
0.0
  0
ARC
  5
1F7
330
1F
100
AcDbEntity
  8
0
  6
Continuous
 62
     7
370
    30
100
AcDbCircle
 10
282.7332857301
 20
106.4081847509
 30
0.0
 40
4.750000000000005
100
AcDbArc
 50
53.4750260792
 51
77.6334490471
  0
ARC
  5
1F8
330
1F
100
AcDbEntity
  8
0
  6
Continuous
 62
     7
370
    30
100
AcDbCircle
 10
288.3903580171
 20
112.0652570379
 30
0.0
 40
4.749999999999996
100
AcDbArc
 50
192.3665509529
 51
233.4310676285
  0
LINE
  5
1F9
330
1F
100
AcDbEntity
  8
0
  6
Continuous
 62
     7
370
    30
100
AcDbLine
 10
285.5603580171
 20
108.2503389523
 30
0.0
 11
285.5603580171
 21
110.2252729452
 31
0.0
  0
ARC
  5
1FA
330
1F
100
AcDbEntity
  8
0
  6
Continuous
 62
     7
370
    30
100
AcDbCircle
 10
288.3903580171
 20
112.0652570379
 30
0.0
 40
6.249999999999993
100
AcDbArc
 50
205.2036401195
 51
243.0765285396
  0
ARC
  5
1FB
330
1F
100
AcDbEntity
  8
0
  6
Continuous
 62
     7
370
    30
100
AcDbCircle
 10
277.0803580171
 20
112.0652570379
 30
0.0
 40
6.250000000000004
100
AcDbArc
 50
295.2036401195
 51
334.7963598805
  0
ARC
  5
1FC
330
1F
100
AcDbEntity
  8
0
  6
Continuous
 62
     7
370
    30
100
AcDbCircle
 10
277.0803580171
 20
100.7552570379
 30
0.0
 40
6.249999999999977
100
AcDbArc
 50
25.2036401195
 51
64.7963598805
  0
ARC
  5
1FD
330
1F
100
AcDbEntity
  8
0
  6
Continuous
 62
     7
370
    30
100
AcDbCircle
 10
288.3903580171
 20
100.7552570379
 30
0.0
 40
6.250000000000005
100
AcDbArc
 50
116.9234714604
 51
154.7963598805
  0
LINE
  5
1FE
330
1F
100
AcDbEntity
  8
0
  6
Continuous
 62
     7
370
    30
100
AcDbLine
 10
285.5603580171
 20
106.327832744
 30
0.0
 11
285.5603580171
 21
106.4926813319
 31
0.0
  0
ARC
  5
1FF
330
1F
100
AcDbEntity
  8
0
  6
Continuous
 62
     7
370
    30
100
AcDbCircle
 10
288.3903580171
 20
100.7552570379
 30
0.0
 40
4.749999999999985
100
AcDbArc
 50
126.5689323715
 51
167.6334490471
  0
ARC
  5
200
330
1F
100
AcDbEntity
  8
0
  6
Continuous
 62
     7
370
    30
100
AcDbCircle
 10
282.7332857301
 20
106.412329325
 30
0.0
 40
4.750000000000015
100
AcDbArc
 50
282.3665509529
 51
306.5249739208
  0
LINE
  5
201
330
1F
100
AcDbEntity
  8
0
  6
Continuous
 62
     7
370
    30
100
AcDbLine
 10
285.5603580171
 20
102.5952411306
 30
0.0
 11
285.5603580171
 21
104.5701751236
 31
0.0
  0
ARC
  5
202
330
1F
100
AcDbEntity
  8
0
  6
Continuous
 62
     7
370
    30
100
AcDbCircle
 10
282.7332857301
 20
95.0981847509
 30
0.0
 40
4.750000000000027
100
AcDbArc
 50
53.4750260792
 51
77.6334490471
  0
ARC
  5
203
330
1F
100
AcDbEntity
  8
0
  6
Continuous
 62
     7
370
    30
100
AcDbCircle
 10
288.3903580171
 20
100.7552570379
 30
0.0
 40
4.749999999999985
100
AcDbArc
 50
192.3665509529
 51
233.4310676285
  0
LINE
  5
204
330
1F
100
AcDbEntity
  8
0
  6
Continuous
 62
     7
370
    30
100
AcDbLine
 10
285.5603580171
 20
96.9403389523
 30
0.0
 11
285.5603580171
 21
98.9152729452
 31
0.0
  0
ARC
  5
205
330
1F
100
AcDbEntity
  8
0
  6
Continuous
 62
     7
370
    30
100
AcDbCircle
 10
277.0803580171
 20
100.7552570379
 30
0.0
 40
6.249999999999977
100
AcDbArc
 50
295.2036401195
 51
334.7963598805
  0
ARC
  5
206
330
1F
100
AcDbEntity
  8
0
  6
Continuous
 62
     7
370
    30
100
AcDbCircle
 10
277.0803580171
 20
89.4452570379
 30
0.0
 40
6.250000000000004
100
AcDbArc
 50
25.2036401195
 51
64.7963598805
  0
ARC
  5
207
330
1F
100
AcDbEntity
  8
0
  6
Continuous
 62
     7
370
    30
100
AcDbCircle
 10
288.3903580171
 20
89.4452570379
 30
0.0
 40
4.749999999999996
100
AcDbArc
 50
126.5689323715
 51
167.6334490471
  0
ARC
  5
208
330
1F
100
AcDbEntity
  8
0
  6
Continuous
 62
     7
370
    30
100
AcDbCircle
 10
282.7332857301
 20
95.102329325
 30
0.0
 40
4.750000000000005
100
AcDbArc
 50
282.3665509529
 51
306.5249739208
  0
LINE
  5
209
330
1F
100
AcDbEntity
  8
0
  6
Continuous
 62
     7
370
    30
100
AcDbLine
 10
285.5603580171
 20
91.2852411306
 30
0.0
 11
285.5603580171
 21
93.2601751236
 31
0.0
  0
ARC
  5
20A
330
1F
100
AcDbEntity
  8
0
  6
Continuous
 62
     7
370
    30
100
AcDbCircle
 10
282.7374303042
 20
95.102329325
 30
0.0
 40
6.25000000000002
100
AcDbArc
 50
205.1589913901
 51
236.421782401
  0
ARC
  5
20B
330
1F
100
AcDbEntity
  8
0
  6
Continuous
 62
     7
370
    30
100
AcDbCircle
 10
271.4232857301
 20
95.102329325
 30
0.0
 40
6.250000000000003
100
AcDbArc
 50
303.578217599
 51
334.8410086099
  0
LINE
  5
20C
330
1F
100
AcDbEntity
  8
0
  6
Continuous
 62
     7
370
    30
100
AcDbLine
 10
274.880003566
 20
89.8952570379
 30
0.0
 11
279.2807124683
 21
89.8952570379
 31
0.0
  0
LINE
  5
20D
330
1F
100
AcDbEntity
  8
0
  6
Continuous
 62
     7
370
    30
100
AcDbLine
 10
263.570003566
 20
89.8952570379
 30
0.0
 11
267.9707124683
 21
89.8952570379
 31
0.0
  0
LINE
  5
20E
330
1F
100
AcDbEntity
  8
0
  6
Continuous
 62
     7
370
    30
100
AcDbLine
 10
252.260003566
 20
89.8952570379
 30
0.0
 11
256.6607124683
 21
89.8952570379
 31
0.0
  0
ARC
  5
20F
330
1F
100
AcDbEntity
  8
0
  6
Continuous
 62
     7
370
    30
100
AcDbCircle
 10
248.8074303042
 20
95.102329325
 30
0.0
 40
6.250000000000003
100
AcDbArc
 50
205.1589913901
 51
236.421782401
  0
ARC
  5
210
330
1F
100
AcDbEntity
  8
0
  6
Continuous
 62
     7
370
    30
100
AcDbCircle
 10
237.4932857301
 20
95.102329325
 30
0.0
 40
6.250000000000003
100
AcDbArc
 50
303.578217599
 51
334.8410086099
  0
LINE
  5
211
330
1F
100
AcDbEntity
  8
0
  6
Continuous
 62
     7
370
    30
100
AcDbLine
 10
240.950003566
 20
89.8952570379
 30
0.0
 11
245.3507124683
 21
89.8952570379
 31
0.0
  0
ARC
  5
212
330
1F
100
AcDbEntity
  8
0
  6
Continuous
 62
     7
370
    30
100
AcDbCircle
 10
237.4974303042
 20
95.102329325
 30
0.0
 40
6.25
100
AcDbArc
 50
205.1589913901
 51
236.421782401
  0
ARC
  5
213
330
1F
100
AcDbEntity
  8
0
  6
Continuous
 62
     7
370
    30
100
AcDbCircle
 10
226.1832857301
 20
95.102329325
 30
0.0
 40
6.250000000000028
100
AcDbArc
 50
303.578217599
 51
334.8410086099
  0
LINE
  5
214
330
1F
100
AcDbEntity
  8
0
  6
Continuous
 62
     7
370
    30
100
AcDbLine
 10
229.640003566
 20
89.8952570379
 30
0.0
 11
234.0407124683
 21
89.8952570379
 31
0.0
  0
ARC
  5
215
330
1F
100
AcDbEntity
  8
0
  6
Continuous
 62
     7
370
    30
100
AcDbCircle
 10
226.1874303042
 20
95.102329325
 30
0.0
 40
4.75
100
AcDbArc
 50
233.4750260792
 51
257.6334490471
  0
ARC
  5
216
330
1F
100
AcDbEntity
  8
0
  6
Continuous
 62
     7
370
    30
100
AcDbCircle
 10
220.5303580171
 20
89.4452570379
 30
0.0
 40
4.750000000000007
100
AcDbArc
 50
12.3665509529
 51
53.4310676285
  0
LINE
  5
217
330
1F
100
AcDbEntity
  8
0
  6
Continuous
 62
     7
370
    30
100
AcDbLine
 10
223.3603580171
 20
93.2601751236
 30
0.0
 11
223.3603580171
 21
91.2852411306
 31
0.0
  0
ARC
  5
218
330
1F
100
AcDbEntity
  8
0
  6
Continuous
 62
     7
370
    30
100
AcDbCircle
 10
220.5303580171
 20
89.4452570379
 30
0.0
 40
6.250000000000019
100
AcDbArc
 50
25.2036401195
 51
63.0765285396
  0
ARC
  5
219
330
1F
100
AcDbEntity
  8
0
  6
Continuous
 62
     7
370
    30
100
AcDbCircle
 10
231.8403580171
 20
89.4452570379
 30
0.0
 40
6.250000000000022
100
AcDbArc
 50
115.2036401195
 51
154.7963598805
  0
ARC
  5
21A
330
1F
100
AcDbEntity
  8
0
  6
Continuous
 62
     7
370
    30
100
AcDbCircle
 10
231.8403580171
 20
100.7552570379
 30
0.0
 40
6.250000000000028
100
AcDbArc
 50
205.2036401195
 51
244.7963598805
  0
LINE
  5
21B
330
1F
100
AcDbEntity
  8
0
  6
Continuous
 62
     7
370
    30
100
AcDbLine
 10
223.3603580171
 20
95.1826813319
 30
0.0
 11
223.3603580171
 21
95.017832744
 31
0.0
  0
LINE
  5
21C
330
1F
100
AcDbEntity
  8
0
  6
Continuous
 62
     7
370
    30
100
AcDbLine
 10
223.3603580171
 20
98.9152729452
 30
0.0
 11
223.3603580171
 21
96.9403389523
 31
0.0
  0
LINE
  5
21D
330
1F
100
AcDbEntity
  8
0
  6
Continuous
 62
     7
370
    30
100
AcDbLine
 10
223.3603580171
 20
104.5701751236
 30
0.0
 11
223.3603580171
 21
102.5952411306
 31
0.0
  0
ARC
  5
21E
330
1F
100
AcDbEntity
  8
0
  6
Continuous
 62
     7
370
    30
100
AcDbCircle
 10
220.5303580171
 20
100.7552570379
 30
0.0
 40
6.250000000000031
100
AcDbArc
 50
25.2036401195
 51
63.0765285396
  0
ARC
  5
21F
330
1F
100
AcDbEntity
  8
0
  6
Continuous
 62
     7
370
    30
100
AcDbCircle
 10
231.8403580171
 20
100.7552570379
 30
0.0
 40
6.250000000000028
100
AcDbArc
 50
115.2036401195
 51
154.7963598805
  0
ARC
  5
220
330
1F
100
AcDbEntity
  8
0
  6
Continuous
 62
     7
370
    30
100
AcDbCircle
 10
231.8403580171
 20
112.0652570379
 30
0.0
 40
6.250000000000028
100
AcDbArc
 50
205.2036401195
 51
244.7963598805
  0
ARC
  5
221
330
1F
100
AcDbEntity
  8
0
  6
Continuous
 62
     7
370
    30
100
AcDbCircle
 10
220.5303580171
 20
112.0652570379
 30
0.0
 40
6.250000000000019
100
AcDbArc
 50
296.9234714604
 51
334.7963598805
  0
LINE
  5
222
330
1F
100
AcDbEntity
  8
0
  6
Continuous
 62
     7
370
    30
100
AcDbLine
 10
223.3603580171
 20
106.4926813319
 30
0.0
 11
223.3603580171
 21
106.327832744
 31
0.0
  0
LINE
  5
223
330
1F
100
AcDbEntity
  8
0
  6
Continuous
 62
     7
370
    30
100
AcDbLine
 10
223.3603580171
 20
110.2252729452
 30
0.0
 11
223.3603580171
 21
108.2503389523
 31
0.0
  0
ARC
  5
224
330
1F
100
AcDbEntity
  8
0
  6
Continuous
 62
     7
370
    30
100
AcDbCircle
 10
220.5303580171
 20
112.0652570379
 30
0.0
 40
4.750000000000007
100
AcDbArc
 50
12.3665509529
 51
53.4310676285
  0
LINE
  5
225
330
1F
100
AcDbEntity
  8
0
  6
Continuous
 62
     7
370
    30
100
AcDbLine
 10
223.3603580171
 20
115.8801751236
 30
0.0
 11
223.3603580171
 21
113.9052411306
 31
0.0
  0
LINE
  5
226
330
1F
100
AcDbEntity
  8
0
  6
Continuous
 62
     7
370
    30
100
AcDbLine
 10
223.3603580171
 20
117.8026813319
 30
0.0
 11
223.3603580171
 21
117.637832744
 31
0.0
  0
ARC
  5
227
330
1F
100
AcDbEntity
  8
0
  6
Continuous
 62
     7
370
    30
100
AcDbCircle
 10
220.5303580171
 20
123.3752570379
 30
0.0
 40
4.750000000000019
100
AcDbArc
 50
306.5689323715
 51
347.6334490471
  0
LINE
  5
228
330
1F
100
AcDbEntity
  8
0
  6
Continuous
 62
     7
370
    30
100
AcDbLine
 10
223.3603580171
 20
121.5352729452
 30
0.0
 11
223.3603580171
 21
119.5603389523
 31
0.0
  0
LINE
  5
229
330
1F
100
AcDbEntity
  8
0
  6
Continuous
 62
     7
370
    30
100
AcDbLine
 10
223.3603580171
 20
127.1901751236
 30
0.0
 11
223.3603580171
 21
125.2152411306
 31
0.0
  0
ARC
  5
22A
330
1F
100
AcDbEntity
  8
0
  6
Continuous
 62
     7
370
    30
100
AcDbCircle
 10
231.8403580171
 20
123.3752570379
 30
0.0
 40
6.250000000000028
100
AcDbArc
 50
115.2036401195
 51
154.7963598805
  0
ARC
  5
22B
330
1F
100
AcDbEntity
  8
0
  6
Continuous
 62
     7
370
    30
100
AcDbCircle
 10
231.8403580171
 20
134.6852570379
 30
0.0
 40
6.250000000000016
100
AcDbArc
 50
205.2036401195
 51
244.7963598805
  0
LINE
  5
22C
330
1F
100
AcDbEntity
  8
0
  6
Continuous
 62
     7
370
    30
100
AcDbLine
 10
223.3603580171
 20
129.1126813319
 30
0.0
 11
223.3603580171
 21
128.947832744
 31
0.0
  0
ARC
  5
22D
330
1F
100
AcDbEntity
  8
0
  6
Continuous
 62
     7
370
    30
100
AcDbCircle
 10
226.1874303042
 20
129.0281847509
 30
0.0
 40
4.750000000000028
100
AcDbArc
 50
102.3665509529
 51
126.5249739208
  0
LINE
  5
22E
330
1F
100
AcDbEntity
  8
0
  6
Continuous
 62
     7
370
    30
100
AcDbLine
 10
223.3603580171
 20
132.8452729452
 30
0.0
 11
223.3603580171
 21
130.8703389523
 31
0.0
  0
LINE
  5
22F
330
1F
100
AcDbEntity
  8
0
  6
Continuous
 62
     7
370
    30
100
AcDbLine
 10
223.3603580171
 20
138.5001751236
 30
0.0
 11
223.3603580171
 21
136.5252411306
 31
0.0
  0
LINE
  5
230
330
1F
100
AcDbEntity
  8
0
  6
Continuous
 62
     7
370
    30
100
AcDbLine
 10
223.3603580171
 20
140.4226813319
 30
0.0
 11
223.3603580171
 21
140.257832744
 31
0.0
  0
LINE
  5
231
330
1F
100
AcDbEntity
  8
0
  6
Continuous
 62
     7
370
    30
100
AcDbLine
 10
223.3603580171
 20
144.1552729452
 30
0.0
 11
223.3603580171
 21
142.1803389523
 31
0.0
  0
LINE
  5
232
330
1F
100
AcDbEntity
  8
0
  6
Continuous
 62
     7
370
    30
100
AcDbLine
 10
223.3603580171
 20
149.8101751236
 30
0.0
 11
223.3603580171
 21
147.8352411306
 31
0.0
  0
LINE
  5
233
330
1F
100
AcDbEntity
  8
0
  6
Continuous
 62
     7
370
    30
100
AcDbLine
 10
223.3603580171
 20
151.7326813319
 30
0.0
 11
223.3603580171
 21
151.567832744
 31
0.0
  0
LINE
  5
234
330
1F
100
AcDbEntity
  8
0
  6
Continuous
 62
     7
370
    30
100
AcDbLine
 10
223.3603580171
 20
155.4652729452
 30
0.0
 11
223.3603580171
 21
153.4903389523
 31
0.0
  0
LINE
  5
235
330
1F
100
AcDbEntity
  8
0
  6
Continuous
 62
     7
370
    30
100
AcDbLine
 10
223.3603580171
 20
161.1201751236
 30
0.0
 11
223.3603580171
 21
159.1452411306
 31
0.0
  0
LINE
  5
236
330
1F
100
AcDbEntity
  8
0
  6
Continuous
 62
     7
370
    30
100
AcDbLine
 10
223.3603580171
 20
163.0426813319
 30
0.0
 11
223.3603580171
 21
162.877832744
 31
0.0
  0
ARC
  5
237
330
1F
100
AcDbEntity
  8
0
  6
Continuous
 62
     7
370
    30
100
AcDbCircle
 10
220.5303580171
 20
168.6152570379
 30
0.0
 40
4.750000000000019
100
AcDbArc
 50
306.5689323715
 51
347.6334490471
  0
LINE
  5
238
330
1F
100
AcDbEntity
  8
0
  6
Continuous
 62
     7
370
    30
100
AcDbLine
 10
223.3603580171
 20
166.7752729452
 30
0.0
 11
223.3603580171
 21
164.8003389523
 31
0.0
  0
ARC
  5
239
330
1F
100
AcDbEntity
  8
0
  6
Continuous
 62
     7
370
    30
100
AcDbCircle
 10
226.1874303042
 20
174.272329325
 30
0.0
 40
4.75
100
AcDbArc
 50
233.4750260792
 51
257.6334490471
  0
ARC
  5
23A
330
1F
100
AcDbEntity
  8
0
  6
Continuous
 62
     7
370
    30
100
AcDbCircle
 10
220.5303580171
 20
168.6152570379
 30
0.0
 40
4.750000000000019
100
AcDbArc
 50
12.3665509529
 51
53.4310676285
  0
LINE
  5
23B
330
1F
100
AcDbEntity
  8
0
  6
Continuous
 62
     7
370
    30
100
AcDbLine
 10
223.3603580171
 20
172.4301751236
 30
0.0
 11
223.3603580171
 21
170.4552411306
 31
0.0
  0
ARC
  5
23C
330
1F
100
AcDbEntity
  8
0
  6
Continuous
 62
     7
370
    30
100
AcDbCircle
 10
231.8403580171
 20
168.6152570379
 30
0.0
 40
6.250000000000028
100
AcDbArc
 50
115.2036401195
 51
154.7963598805
  0
LINE
  5
23D
330
1F
100
AcDbEntity
  8
0
  6
Continuous
 62
     7
370
    30
100
AcDbLine
 10
223.3603580171
 20
174.3526813319
 30
0.0
 11
223.3603580171
 21
174.187832744
 31
0.0
  0
ARC
  5
23E
330
1F
100
AcDbEntity
  8
0
  6
Continuous
 62
     7
370
    30
100
AcDbCircle
 10
220.5303580171
 20
179.9252570379
 30
0.0
 40
4.75
100
AcDbArc
 50
306.5689323715
 51
347.6334490471
  0
ARC
  5
23F
330
1F
100
AcDbEntity
  8
0
  6
Continuous
 62
     7
370
    30
100
AcDbCircle
 10
226.1874303042
 20
174.2681847509
 30
0.0
 40
4.75
100
AcDbArc
 50
102.3665509529
 51
126.5249739208
  0
LINE
  5
240
330
1F
100
AcDbEntity
  8
0
  6
Continuous
 62
     7
370
    30
100
AcDbLine
 10
223.3603580171
 20
178.0852729452
 30
0.0
 11
223.3603580171
 21
176.1103389523
 31
0.0
  0
ARC
  5
241
330
1F
100
AcDbEntity
  8
0
  6
Continuous
 62
     7
370
    30
100
AcDbCircle
 10
220.5303580171
 20
179.9252570379
 30
0.0
 40
4.750000000000019
100
AcDbArc
 50
12.3665509529
 51
53.4310676285
  0
LINE
  5
242
330
1F
100
AcDbEntity
  8
0
  6
Continuous
 62
     7
370
    30
100
AcDbLine
 10
223.3603580171
 20
183.7401751236
 30
0.0
 11
223.3603580171
 21
181.7652411306
 31
0.0
  0
ARC
  5
243
330
1F
100
AcDbEntity
  8
0
  6
Continuous
 62
     7
370
    30
100
AcDbCircle
 10
220.5303580171
 20
179.9252570379
 30
0.0
 40
6.250000000000031
100
AcDbArc
 50
25.2036401195
 51
63.0765285396
  0
LINE
  5
244
330
1F
100
AcDbEntity
  8
0
  6
Continuous
 62
     7
370
    30
100
AcDbLine
 10
223.3603580171
 20
185.6626813319
 30
0.0
 11
223.3603580171
 21
185.497832744
 31
0.0
  0
LINE
  5
245
330
1F
100
AcDbEntity
  8
0
  6
Continuous
 62
     7
370
    30
100
AcDbLine
 10
223.3603580171
 20
189.3952729452
 30
0.0
 11
223.3603580171
 21
187.4203389523
 31
0.0
  0
ARC
  5
246
330
1F
100
AcDbEntity
  8
0
  6
Continuous
 62
     7
370
    30
100
AcDbCircle
 10
226.1874303042
 20
196.892329325
 30
0.0
 40
4.75
100
AcDbArc
 50
233.4750260792
 51
257.6334490471
  0
LINE
  5
247
330
1F
100
AcDbEntity
  8
0
  6
Continuous
 62
     7
370
    30
100
AcDbLine
 10
223.3603580171
 20
195.0501751236
 30
0.0
 11
223.3603580171
 21
193.0752411306
 31
0.0
  0
LINE
  5
248
330
1F
100
AcDbEntity
  8
0
  6
Continuous
 62
     7
370
    30
100
AcDbLine
 10
223.3603580171
 20
196.9726813319
 30
0.0
 11
223.3603580171
 21
196.807832744
 31
0.0
  0
LINE
  5
249
330
1F
100
AcDbEntity
  8
0
  6
Continuous
 62
     7
370
    30
100
AcDbLine
 10
223.3603580171
 20
200.7052729452
 30
0.0
 11
223.3603580171
 21
198.7303389523
 31
0.0
  0
ARC
  5
24A
330
1F
100
AcDbEntity
  8
0
  6
Continuous
 62
     7
370
    30
100
AcDbCircle
 10
254.4603580171
 20
100.7552570379
 30
0.0
 40
6.249999999999996
100
AcDbArc
 50
119.4948446059
 51
154.7963598805
  0
LINE
  5
24B
330
1F
100
AcDbEntity
  8
0
  6
Continuous
 62
     7
370
    30
100
AcDbLine
 10
246.2275157966
 20
106.1952570379
 30
0.0
 11
251.3832002376
 21
106.1952570379
 31
0.0
  0
ARC
  5
24C
330
1F
100
AcDbEntity
  8
0
  6
Continuous
 62
     7
370
    30
100
AcDbCircle
 10
254.4603580171
 20
100.7552570379
 30
0.0
 40
6.250000000000028
100
AcDbArc
 50
25.2036401195
 51
60.5051553941
  0
ARC
  5
24D
330
1F
100
AcDbEntity
  8
0
  6
Continuous
 62
     7
370
    30
100
AcDbCircle
 10
265.7703580171
 20
100.7552570379
 30
0.0
 40
6.250000000000028
100
AcDbArc
 50
119.4948446059
 51
154.7963598805
  0
LINE
  5
24E
330
1F
100
AcDbEntity
  8
0
  6
Continuous
 62
     7
370
    30
100
AcDbLine
 10
257.5375157966
 20
106.1952570379
 30
0.0
 11
262.6932002376
 21
106.1952570379
 31
0.0
  0
ARC
  5
24F
330
1F
100
AcDbEntity
  8
0
  6
Continuous
 62
     7
370
    30
100
AcDbCircle
 10
277.0803580171
 20
112.0652570379
 30
0.0
 40
4.750000000000019
100
AcDbArc
 50
228.1357182552
 51
257.6334490471
  0
ARC
  5
250
330
1F
100
AcDbEntity
  8
0
  6
Continuous
 62
     7
370
    30
100
AcDbCircle
 10
271.4232857301
 20
106.4081847509
 30
0.0
 40
4.749999999999992
100
AcDbArc
 50
12.3665509529
 51
58.4263486916
  0
LINE
  5
251
330
1F
100
AcDbEntity
  8
0
  6
Continuous
 62
     7
370
    30
100
AcDbLine
 10
273.9103580171
 20
108.5278003244
 30
0.0
 11
273.9103580171
 21
110.4550318494
 31
0.0
  0
ARC
  5
252
330
1F
100
AcDbEntity
  8
0
  6
Continuous
 62
     7
370
    30
100
AcDbCircle
 10
271.4232857301
 20
117.722329325
 30
0.0
 40
4.749999999999992
100
AcDbArc
 50
301.5736513084
 51
347.6334490471
  0
ARC
  5
253
330
1F
100
AcDbEntity
  8
0
  6
Continuous
 62
     7
370
    30
100
AcDbCircle
 10
277.0803580171
 20
112.0652570379
 30
0.0
 40
4.750000000000019
100
AcDbArc
 50
102.3665509529
 51
131.8642817448
  0
LINE
  5
254
330
1F
100
AcDbEntity
  8
0
  6
Continuous
 62
     7
370
    30
100
AcDbLine
 10
273.9103580171
 20
113.6754822265
 30
0.0
 11
273.9103580171
 21
115.6027137515
 31
0.0
  0
ARC
  5
255
330
1F
100
AcDbEntity
  8
0
  6
Continuous
 62
     7
370
    30
100
AcDbCircle
 10
277.0803580171
 20
123.3752570379
 30
0.0
 40
4.750000000000019
100
AcDbArc
 50
228.1357182552
 51
257.6334490471
  0
ARC
  5
256
330
1F
100
AcDbEntity
  8
0
  6
Continuous
 62
     7
370
    30
100
AcDbCircle
 10
271.4232857301
 20
117.7181847509
 30
0.0
 40
4.750000000000004
100
AcDbArc
 50
12.3665509529
 51
58.4263486916
  0
LINE
  5
257
330
1F
100
AcDbEntity
  8
0
  6
Continuous
 62
     7
370
    30
100
AcDbLine
 10
273.9103580171
 20
119.8378003244
 30
0.0
 11
273.9103580171
 21
121.7650318494
 31
0.0
  0
ARC
  5
258
330
1F
100
AcDbEntity
  8
0
  6
Continuous
 62
     7
370
    30
100
AcDbCircle
 10
271.4232857301
 20
129.032329325
 30
0.0
 40
4.750000000000004
100
AcDbArc
 50
301.5736513084
 51
347.6334490471
  0
ARC
  5
259
330
1F
100
AcDbEntity
  8
0
  6
Continuous
 62
     7
370
    30
100
AcDbCircle
 10
277.0803580171
 20
123.3752570379
 30
0.0
 40
4.750000000000005
100
AcDbArc
 50
102.3665509529
 51
131.8642817448
  0
LINE
  5
25A
330
1F
100
AcDbEntity
  8
0
  6
Continuous
 62
     7
370
    30
100
AcDbLine
 10
273.9103580171
 20
124.9854822265
 30
0.0
 11
273.9103580171
 21
126.9127137515
 31
0.0
  0
ARC
  5
25B
330
1F
100
AcDbEntity
  8
0
  6
Continuous
 62
     7
370
    30
100
AcDbCircle
 10
277.0803580171
 20
134.6852570379
 30
0.0
 40
4.749999999999997
100
AcDbArc
 50
228.1357182552
 51
257.6334490471
  0
ARC
  5
25C
330
1F
100
AcDbEntity
  8
0
  6
Continuous
 62
     7
370
    30
100
AcDbCircle
 10
271.4232857301
 20
129.0281847509
 30
0.0
 40
4.74999999999998
100
AcDbArc
 50
12.3665509529
 51
58.4263486916
  0
LINE
  5
25D
330
1F
100
AcDbEntity
  8
0
  6
Continuous
 62
     7
370
    30
100
AcDbLine
 10
273.9103580171
 20
131.1478003244
 30
0.0
 11
273.9103580171
 21
133.0750318494
 31
0.0
  0
ARC
  5
25E
330
1F
100
AcDbEntity
  8
0
  6
Continuous
 62
     7
370
    30
100
AcDbCircle
 10
271.4232857301
 20
140.342329325
 30
0.0
 40
4.74999999999998
100
AcDbArc
 50
301.5736513084
 51
347.6334490471
  0
ARC
  5
25F
330
1F
100
AcDbEntity
  8
0
  6
Continuous
 62
     7
370
    30
100
AcDbCircle
 10
277.0803580171
 20
134.6852570379
 30
0.0
 40
4.75000000000004
100
AcDbArc
 50
102.3665509529
 51
131.8642817448
  0
LINE
  5
260
330
1F
100
AcDbEntity
  8
0
  6
Continuous
 62
     7
370
    30
100
AcDbLine
 10
273.9103580171
 20
136.2954822265
 30
0.0
 11
273.9103580171
 21
138.2227137515
 31
0.0
  0
ARC
  5
261
330
1F
100
AcDbEntity
  8
0
  6
Continuous
 62
     7
370
    30
100
AcDbCircle
 10
277.0803580171
 20
145.9952570379
 30
0.0
 40
4.750000000000019
100
AcDbArc
 50
228.1357182552
 51
257.6334490471
  0
ARC
  5
262
330
1F
100
AcDbEntity
  8
0
  6
Continuous
 62
     7
370
    30
100
AcDbCircle
 10
271.4232857301
 20
140.3381847509
 30
0.0
 40
4.750000000000004
100
AcDbArc
 50
12.3665509529
 51
58.4263486916
  0
LINE
  5
263
330
1F
100
AcDbEntity
  8
0
  6
Continuous
 62
     7
370
    30
100
AcDbLine
 10
273.9103580171
 20
142.4578003244
 30
0.0
 11
273.9103580171
 21
144.3850318494
 31
0.0
  0
ARC
  5
264
330
1F
100
AcDbEntity
  8
0
  6
Continuous
 62
     7
370
    30
100
AcDbCircle
 10
271.4232857301
 20
151.652329325
 30
0.0
 40
4.750000000000004
100
AcDbArc
 50
301.5736513084
 51
347.6334490471
  0
ARC
  5
265
330
1F
100
AcDbEntity
  8
0
  6
Continuous
 62
     7
370
    30
100
AcDbCircle
 10
277.0803580171
 20
145.9952570379
 30
0.0
 40
4.750000000000005
100
AcDbArc
 50
102.3665509529
 51
131.8642817448
  0
LINE
  5
266
330
1F
100
AcDbEntity
  8
0
  6
Continuous
 62
     7
370
    30
100
AcDbLine
 10
273.9103580171
 20
147.6054822265
 30
0.0
 11
273.9103580171
 21
149.5327137515
 31
0.0
  0
ARC
  5
267
330
1F
100
AcDbEntity
  8
0
  6
Continuous
 62
     7
370
    30
100
AcDbCircle
 10
277.0803580171
 20
157.3052570379
 30
0.0
 40
4.750000000000019
100
AcDbArc
 50
228.1357182552
 51
257.6334490471
  0
ARC
  5
268
330
1F
100
AcDbEntity
  8
0
  6
Continuous
 62
     7
370
    30
100
AcDbCircle
 10
271.4232857301
 20
151.6481847509
 30
0.0
 40
4.750000000000004
100
AcDbArc
 50
12.3665509529
 51
58.4263486916
  0
LINE
  5
269
330
1F
100
AcDbEntity
  8
0
  6
Continuous
 62
     7
370
    30
100
AcDbLine
 10
273.9103580171
 20
153.7678003244
 30
0.0
 11
273.9103580171
 21
155.6950318494
 31
0.0
  0
ARC
  5
26A
330
1F
100
AcDbEntity
  8
0
  6
Continuous
 62
     7
370
    30
100
AcDbCircle
 10
271.4232857301
 20
162.962329325
 30
0.0
 40
4.74999999999998
100
AcDbArc
 50
301.5736513084
 51
347.6334490471
  0
ARC
  5
26B
330
1F
100
AcDbEntity
  8
0
  6
Continuous
 62
     7
370
    30
100
AcDbCircle
 10
277.0803580171
 20
157.3052570379
 30
0.0
 40
4.750000000000019
100
AcDbArc
 50
102.3665509529
 51
131.8642817448
  0
LINE
  5
26C
330
1F
100
AcDbEntity
  8
0
  6
Continuous
 62
     7
370
    30
100
AcDbLine
 10
273.9103580171
 20
158.9154822265
 30
0.0
 11
273.9103580171
 21
160.8427137515
 31
0.0
  0
ARC
  5
26D
330
1F
100
AcDbEntity
  8
0
  6
Continuous
 62
     7
370
    30
100
AcDbCircle
 10
277.0803580171
 20
168.6152570379
 30
0.0
 40
4.750000000000019
100
AcDbArc
 50
228.1357182552
 51
257.6334490471
  0
ARC
  5
26E
330
1F
100
AcDbEntity
  8
0
  6
Continuous
 62
     7
370
    30
100
AcDbCircle
 10
271.4232857301
 20
162.9581847509
 30
0.0
 40
4.750000000000004
100
AcDbArc
 50
12.3665509529
 51
58.4263486916
  0
LINE
  5
26F
330
1F
100
AcDbEntity
  8
0
  6
Continuous
 62
     7
370
    30
100
AcDbLine
 10
273.9103580171
 20
165.0778003244
 30
0.0
 11
273.9103580171
 21
167.0050318494
 31
0.0
  0
ARC
  5
270
330
1F
100
AcDbEntity
  8
0
  6
Continuous
 62
     7
370
    30
100
AcDbCircle
 10
271.4232857301
 20
174.272329325
 30
0.0
 40
4.74999999999998
100
AcDbArc
 50
301.5736513084
 51
347.6334490471
  0
ARC
  5
271
330
1F
100
AcDbEntity
  8
0
  6
Continuous
 62
     7
370
    30
100
AcDbCircle
 10
277.0803580171
 20
168.6152570379
 30
0.0
 40
4.750000000000005
100
AcDbArc
 50
102.3665509529
 51
131.8642817448
  0
LINE
  5
272
330
1F
100
AcDbEntity
  8
0
  6
Continuous
 62
     7
370
    30
100
AcDbLine
 10
273.9103580171
 20
170.2254822265
 30
0.0
 11
273.9103580171
 21
172.1527137515
 31
0.0
  0
ARC
  5
273
330
1F
100
AcDbEntity
  8
0
  6
Continuous
 62
     7
370
    30
100
AcDbCircle
 10
277.0803580171
 20
179.9252570379
 30
0.0
 40
4.749999999999997
100
AcDbArc
 50
228.1357182552
 51
257.6334490471
  0
ARC
  5
274
330
1F
100
AcDbEntity
  8
0
  6
Continuous
 62
     7
370
    30
100
AcDbCircle
 10
271.4232857301
 20
174.2681847509
 30
0.0
 40
4.74999999999998
100
AcDbArc
 50
12.3665509529
 51
58.4263486916
  0
LINE
  5
275
330
1F
100
AcDbEntity
  8
0
  6
Continuous
 62
     7
370
    30
100
AcDbLine
 10
273.9103580171
 20
176.3878003244
 30
0.0
 11
273.9103580171
 21
178.3150318494
 31
0.0
  0
ARC
  5
276
330
1F
100
AcDbEntity
  8
0
  6
Continuous
 62
     7
370
    30
100
AcDbCircle
 10
271.4232857301
 20
185.582329325
 30
0.0
 40
4.750000000000004
100
AcDbArc
 50
301.5736513084
 51
347.6334490471
  0
ARC
  5
277
330
1F
100
AcDbEntity
  8
0
  6
Continuous
 62
     7
370
    30
100
AcDbCircle
 10
277.0803580171
 20
179.9252570379
 30
0.0
 40
4.750000000000005
100
AcDbArc
 50
102.3665509529
 51
131.8642817448
  0
LINE
  5
278
330
1F
100
AcDbEntity
  8
0
  6
Continuous
 62
     7
370
    30
100
AcDbLine
 10
273.9103580171
 20
181.5354822265
 30
0.0
 11
273.9103580171
 21
183.4627137515
 31
0.0
  0
ARC
  5
279
330
1F
100
AcDbEntity
  8
0
  6
Continuous
 62
     7
370
    30
100
AcDbCircle
 10
277.0803580171
 20
191.2352570379
 30
0.0
 40
6.250000000000028
100
AcDbArc
 50
205.2036401195
 51
244.7963598805
  0
ARC
  5
27A
330
1F
100
AcDbEntity
  8
0
  6
Continuous
 62
     7
370
    30
100
AcDbCircle
 10
265.7703580171
 20
191.2352570379
 30
0.0
 40
6.249999999999993
100
AcDbArc
 50
299.4948446059
 51
334.7963598805
  0
ARC
  5
27B
330
1F
100
AcDbEntity
  8
0
  6
Continuous
 62
     7
370
    30
100
AcDbCircle
 10
271.4103580171
 20
183.2952570379
 30
0.0
 40
2.499999999999997
100
AcDbArc
 50
40.3549937958
 51
90.0
  0
ARC
  5
27C
330
1F
100
AcDbEntity
  8
0
  6
Continuous
 62
     7
370
    30
100
AcDbCircle
 10
277.0803580171
 20
179.9252570379
 30
0.0
 40
6.25000000000004
100
AcDbArc
 50
115.2036401195
 51
127.0406245466
  0
ARC
  5
27D
330
1F
100
AcDbEntity
  8
0
  6
Continuous
 62
     7
370
    30
100
AcDbCircle
 10
265.7703580171
 20
191.2352570379
 30
0.0
 40
6.250000000000028
100
AcDbArc
 50
205.2036401195
 51
240.5051553941
  0
ARC
  5
27E
330
1F
100
AcDbEntity
  8
0
  6
Continuous
 62
     7
370
    30
100
AcDbCircle
 10
254.4603580171
 20
191.2352570379
 30
0.0
 40
6.250000000000028
100
AcDbArc
 50
299.4948446059
 51
334.7963598805
  0
LINE
  5
27F
330
1F
100
AcDbEntity
  8
0
  6
Continuous
 62
     7
370
    30
100
AcDbLine
 10
262.6932002376
 20
185.7952570379
 30
0.0
 11
257.5375157966
 21
185.7952570379
 31
0.0
  0
LINE
  5
280
330
1F
100
AcDbEntity
  8
0
  6
Continuous
 62
     7
370
    30
100
AcDbLine
 10
251.3832002376
 20
185.7952570379
 30
0.0
 11
246.2275157966
 21
185.7952570379
 31
0.0
  0
ARC
  5
281
330
1F
100
AcDbEntity
  8
0
  6
Continuous
 62
     7
370
    30
100
AcDbCircle
 10
231.8403580171
 20
179.9252570379
 30
0.0
 40
4.749999999999994
100
AcDbArc
 50
48.1357182552
 51
77.6334490471
  0
ARC
  5
282
330
1F
100
AcDbEntity
  8
0
  6
Continuous
 62
     7
370
    30
100
AcDbCircle
 10
237.4974303042
 20
185.582329325
 30
0.0
 40
4.750000000000019
100
AcDbArc
 50
192.3665509529
 51
238.4263486916
  0
LINE
  5
283
330
1F
100
AcDbEntity
  8
0
  6
Continuous
 62
     7
370
    30
100
AcDbLine
 10
235.0103580171
 20
183.4627137515
 30
0.0
 11
235.0103580171
 21
181.5354822265
 31
0.0
  0
ARC
  5
284
330
1F
100
AcDbEntity
  8
0
  6
Continuous
 62
     7
370
    30
100
AcDbCircle
 10
237.4974303042
 20
174.2681847509
 30
0.0
 40
4.75
100
AcDbArc
 50
121.5736513084
 51
167.6334490471
  0
ARC
  5
285
330
1F
100
AcDbEntity
  8
0
  6
Continuous
 62
     7
370
    30
100
AcDbCircle
 10
231.8403580171
 20
179.9252570379
 30
0.0
 40
4.749999999999994
100
AcDbArc
 50
282.3665509529
 51
311.8642817448
  0
LINE
  5
286
330
1F
100
AcDbEntity
  8
0
  6
Continuous
 62
     7
370
    30
100
AcDbLine
 10
235.0103580171
 20
178.3150318494
 30
0.0
 11
235.0103580171
 21
176.3878003244
 31
0.0
  0
ARC
  5
287
330
1F
100
AcDbEntity
  8
0
  6
Continuous
 62
     7
370
    30
100
AcDbCircle
 10
231.8403580171
 20
168.6152570379
 30
0.0
 40
4.749999999999994
100
AcDbArc
 50
48.1357182552
 51
77.6334490471
  0
ARC
  5
288
330
1F
100
AcDbEntity
  8
0
  6
Continuous
 62
     7
370
    30
100
AcDbCircle
 10
237.4974303042
 20
174.272329325
 30
0.0
 40
4.75
100
AcDbArc
 50
192.3665509529
 51
238.4263486916
  0
LINE
  5
289
330
1F
100
AcDbEntity
  8
0
  6
Continuous
 62
     7
370
    30
100
AcDbLine
 10
235.0103580171
 20
172.1527137515
 30
0.0
 11
235.0103580171
 21
170.2254822265
 31
0.0
  0
ARC
  5
28A
330
1F
100
AcDbEntity
  8
0
  6
Continuous
 62
     7
370
    30
100
AcDbCircle
 10
237.4974303042
 20
162.9581847509
 30
0.0
 40
4.750000000000019
100
AcDbArc
 50
121.5736513084
 51
167.6334490471
  0
ARC
  5
28B
330
1F
100
AcDbEntity
  8
0
  6
Continuous
 62
     7
370
    30
100
AcDbCircle
 10
231.8403580171
 20
168.6152570379
 30
0.0
 40
4.749999999999994
100
AcDbArc
 50
282.3665509529
 51
311.8642817448
  0
LINE
  5
28C
330
1F
100
AcDbEntity
  8
0
  6
Continuous
 62
     7
370
    30
100
AcDbLine
 10
235.0103580171
 20
167.0050318494
 30
0.0
 11
235.0103580171
 21
165.0778003244
 31
0.0
  0
ARC
  5
28D
330
1F
100
AcDbEntity
  8
0
  6
Continuous
 62
     7
370
    30
100
AcDbCircle
 10
231.8403580171
 20
157.3052570379
 30
0.0
 40
4.749999999999981
100
AcDbArc
 50
48.1357182552
 51
77.6334490471
  0
ARC
  5
28E
330
1F
100
AcDbEntity
  8
0
  6
Continuous
 62
     7
370
    30
100
AcDbCircle
 10
237.4974303042
 20
162.962329325
 30
0.0
 40
4.750000000000005
100
AcDbArc
 50
192.3665509529
 51
238.4263486916
  0
LINE
  5
28F
330
1F
100
AcDbEntity
  8
0
  6
Continuous
 62
     7
370
    30
100
AcDbLine
 10
235.0103580171
 20
160.8427137515
 30
0.0
 11
235.0103580171
 21
158.9154822265
 31
0.0
  0
ARC
  5
290
330
1F
100
AcDbEntity
  8
0
  6
Continuous
 62
     7
370
    30
100
AcDbCircle
 10
237.4974303042
 20
151.6481847509
 30
0.0
 40
4.750000000000019
100
AcDbArc
 50
121.5736513084
 51
167.6334490471
  0
ARC
  5
291
330
1F
100
AcDbEntity
  8
0
  6
Continuous
 62
     7
370
    30
100
AcDbCircle
 10
231.8403580171
 20
157.3052570379
 30
0.0
 40
4.749999999999994
100
AcDbArc
 50
282.3665509529
 51
311.8642817448
  0
LINE
  5
292
330
1F
100
AcDbEntity
  8
0
  6
Continuous
 62
     7
370
    30
100
AcDbLine
 10
235.0103580171
 20
155.6950318494
 30
0.0
 11
235.0103580171
 21
153.7678003244
 31
0.0
  0
ARC
  5
293
330
1F
100
AcDbEntity
  8
0
  6
Continuous
 62
     7
370
    30
100
AcDbCircle
 10
231.8403580171
 20
145.9952570379
 30
0.0
 40
4.749999999999994
100
AcDbArc
 50
48.1357182552
 51
77.6334490471
  0
ARC
  5
294
330
1F
100
AcDbEntity
  8
0
  6
Continuous
 62
     7
370
    30
100
AcDbCircle
 10
237.4974303042
 20
151.652329325
 30
0.0
 40
4.750000000000019
100
AcDbArc
 50
192.3665509529
 51
238.4263486916
  0
LINE
  5
295
330
1F
100
AcDbEntity
  8
0
  6
Continuous
 62
     7
370
    30
100
AcDbLine
 10
235.0103580171
 20
149.5327137515
 30
0.0
 11
235.0103580171
 21
147.6054822265
 31
0.0
  0
ARC
  5
296
330
1F
100
AcDbEntity
  8
0
  6
Continuous
 62
     7
370
    30
100
AcDbCircle
 10
237.4974303042
 20
140.3381847509
 30
0.0
 40
4.750000000000005
100
AcDbArc
 50
121.5736513084
 51
167.6334490471
  0
ARC
  5
297
330
1F
100
AcDbEntity
  8
0
  6
Continuous
 62
     7
370
    30
100
AcDbCircle
 10
231.8403580171
 20
145.9952570379
 30
0.0
 40
4.75
100
AcDbArc
 50
282.3665509529
 51
311.8642817448
  0
LINE
  5
298
330
1F
100
AcDbEntity
  8
0
  6
Continuous
 62
     7
370
    30
100
AcDbLine
 10
235.0103580171
 20
144.3850318494
 30
0.0
 11
235.0103580171
 21
142.4578003244
 31
0.0
  0
ARC
  5
299
330
1F
100
AcDbEntity
  8
0
  6
Continuous
 62
     7
370
    30
100
AcDbCircle
 10
231.8403580171
 20
134.6852570379
 30
0.0
 40
4.750000000000021
100
AcDbArc
 50
48.1357182552
 51
77.6334490471
  0
ARC
  5
29A
330
1F
100
AcDbEntity
  8
0
  6
Continuous
 62
     7
370
    30
100
AcDbCircle
 10
237.4974303042
 20
140.342329325
 30
0.0
 40
4.750000000000005
100
AcDbArc
 50
192.3665509529
 51
238.4263486916
  0
LINE
  5
29B
330
1F
100
AcDbEntity
  8
0
  6
Continuous
 62
     7
370
    30
100
AcDbLine
 10
235.0103580171
 20
138.2227137515
 30
0.0
 11
235.0103580171
 21
136.2954822265
 31
0.0
  0
ARC
  5
29C
330
1F
100
AcDbEntity
  8
0
  6
Continuous
 62
     7
370
    30
100
AcDbCircle
 10
237.4974303042
 20
129.0281847509
 30
0.0
 40
4.750000000000004
100
AcDbArc
 50
121.5736513084
 51
167.6334490471
  0
ARC
  5
29D
330
1F
100
AcDbEntity
  8
0
  6
Continuous
 62
     7
370
    30
100
AcDbCircle
 10
231.8403580171
 20
134.6852570379
 30
0.0
 40
4.749999999999994
100
AcDbArc
 50
282.3665509529
 51
311.8642817448
  0
LINE
  5
29E
330
1F
100
AcDbEntity
  8
0
  6
Continuous
 62
     7
370
    30
100
AcDbLine
 10
235.0103580171
 20
133.0750318494
 30
0.0
 11
235.0103580171
 21
131.1478003244
 31
0.0
  0
ARC
  5
29F
330
1F
100
AcDbEntity
  8
0
  6
Continuous
 62
     7
370
    30
100
AcDbCircle
 10
231.8403580171
 20
123.3752570379
 30
0.0
 40
4.749999999999994
100
AcDbArc
 50
48.1357182552
 51
77.6334490471
  0
ARC
  5
2A0
330
1F
100
AcDbEntity
  8
0
  6
Continuous
 62
     7
370
    30
100
AcDbCircle
 10
237.4974303042
 20
129.032329325
 30
0.0
 40
4.750000000000005
100
AcDbArc
 50
192.3665509529
 51
238.4263486916
  0
LINE
  5
2A1
330
1F
100
AcDbEntity
  8
0
  6
Continuous
 62
     7
370
    30
100
AcDbLine
 10
235.0103580171
 20
126.9127137515
 30
0.0
 11
235.0103580171
 21
124.9854822265
 31
0.0
  0
ARC
  5
2A2
330
1F
100
AcDbEntity
  8
0
  6
Continuous
 62
     7
370
    30
100
AcDbCircle
 10
237.4974303042
 20
117.7181847509
 30
0.0
 40
4.750000000000005
100
AcDbArc
 50
121.5736513084
 51
167.6334490471
  0
ARC
  5
2A3
330
1F
100
AcDbEntity
  8
0
  6
Continuous
 62
     7
370
    30
100
AcDbCircle
 10
231.8403580171
 20
123.3752570379
 30
0.0
 40
4.749999999999994
100
AcDbArc
 50
282.3665509529
 51
311.8642817448
  0
LINE
  5
2A4
330
1F
100
AcDbEntity
  8
0
  6
Continuous
 62
     7
370
    30
100
AcDbLine
 10
235.0103580171
 20
121.7650318494
 30
0.0
 11
235.0103580171
 21
119.8378003244
 31
0.0
  0
ARC
  5
2A5
330
1F
100
AcDbEntity
  8
0
  6
Continuous
 62
     7
370
    30
100
AcDbCircle
 10
231.8403580171
 20
112.0652570379
 30
0.0
 40
4.749999999999994
100
AcDbArc
 50
48.1357182552
 51
77.6334490471
  0
ARC
  5
2A6
330
1F
100
AcDbEntity
  8
0
  6
Continuous
 62
     7
370
    30
100
AcDbCircle
 10
237.4974303042
 20
117.722329325
 30
0.0
 40
4.750000000000005
100
AcDbArc
 50
192.3665509529
 51
238.4263486916
  0
LINE
  5
2A7
330
1F
100
AcDbEntity
  8
0
  6
Continuous
 62
     7
370
    30
100
AcDbLine
 10
235.0103580171
 20
115.6027137515
 30
0.0
 11
235.0103580171
 21
113.6754822265
 31
0.0
  0
ARC
  5
2A8
330
1F
100
AcDbEntity
  8
0
  6
Continuous
 62
     7
370
    30
100
AcDbCircle
 10
237.4974303042
 20
106.4081847509
 30
0.0
 40
4.750000000000004
100
AcDbArc
 50
121.5736513084
 51
167.6334490471
  0
ARC
  5
2A9
330
1F
100
AcDbEntity
  8
0
  6
Continuous
 62
     7
370
    30
100
AcDbCircle
 10
231.8403580171
 20
112.0652570379
 30
0.0
 40
4.749999999999994
100
AcDbArc
 50
282.3665509529
 51
311.8642817448
  0
LINE
  5
2AA
330
1F
100
AcDbEntity
  8
0
  6
Continuous
 62
     7
370
    30
100
AcDbLine
 10
235.0103580171
 20
110.4550318494
 30
0.0
 11
235.0103580171
 21
108.5278003244
 31
0.0
  0
LINE
  5
2AB
330
1F
100
AcDbEntity
  8
0
  6
Continuous
 62
     7
370
    30
100
AcDbLine
 10
240.0732002376
 20
185.7952570379
 30
0.0
 11
237.5103580171
 21
185.7952570379
 31
0.0
  0
ARC
  5
2AC
330
1F
100
AcDbEntity
  8
0
  6
Continuous
 62
     7
370
    30
100
AcDbCircle
 10
243.1503580171
 20
191.2352570379
 30
0.0
 40
6.250000000000021
100
AcDbArc
 50
205.2036401195
 51
240.5051553941
  0
ARC
  5
2AD
330
1F
100
AcDbEntity
  8
0
  6
Continuous
 62
     7
370
    30
100
AcDbCircle
 10
231.8403580171
 20
191.2352570379
 30
0.0
 40
6.24999999999999
100
AcDbArc
 50
295.2036401195
 51
334.7963598805
  0
ARC
  5
2AE
330
1F
100
AcDbEntity
  8
0
  6
Continuous
 62
     7
370
    30
100
AcDbCircle
 10
231.8403580171
 20
179.9252570379
 30
0.0
 40
6.250000000000016
100
AcDbArc
 50
52.9593754534
 51
64.7963598805
  0
ARC
  5
2AF
330
1F
100
AcDbEntity
  8
0
  6
Continuous
 62
     7
370
    30
100
AcDbCircle
 10
237.5103580171
 20
183.2952570379
 30
0.0
 40
2.499999999999976
100
AcDbArc
 50
90.0
 51
139.6450062042
  0
LINE
  5
2B0
330
1F
100
AcDbEntity
  8
0
  6
Continuous
 62
     7
370
    30
100
AcDbLine
 10
285.5603580171
 20
95.017832744
 30
0.0
 11
285.5603580171
 21
95.1826813319
 31
0.0
  0
ARC
  5
2B1
330
1F
100
AcDbEntity
  8
0
  6
Continuous
 62
     7
370
    30
100
AcDbCircle
 10
271.4274303042
 20
196.892329325
 30
0.0
 40
4.749999999999994
100
AcDbArc
 50
192.3665509529
 51
257.6334490471
  0
ARC
  5
2B2
330
1F
100
AcDbEntity
  8
0
  6
Continuous
 62
     7
370
    30
100
AcDbCircle
 10
265.7703580171
 20
191.2352570379
 30
0.0
 40
4.749999999999994
100
AcDbArc
 50
12.3665509529
 51
77.6334490471
  0
ARC
  5
2B3
330
1F
100
AcDbEntity
  8
0
  6
Continuous
 62
     7
370
    30
100
AcDbCircle
 10
265.7703580171
 20
191.2352570379
 30
0.0
 40
4.750000000000021
100
AcDbArc
 50
282.3665509529
 51
347.6334490471
  0
ARC
  5
2B4
330
1F
100
AcDbEntity
  8
0
  6
Continuous
 62
     7
370
    30
100
AcDbCircle
 10
271.4274303042
 20
185.5781847509
 30
0.0
 40
4.750000000000028
100
AcDbArc
 50
102.3665509529
 51
167.6334490471
  0
ARC
  5
2B5
330
1F
100
AcDbEntity
  8
0
  6
Continuous
 62
     7
370
    30
100
AcDbCircle
 10
271.4274303042
 20
185.5781847509
 30
0.0
 40
6.250000000000011
100
AcDbArc
 50
115.1589913901
 51
154.8410086099
  0
ARC
  5
2B6
330
1F
100
AcDbEntity
  8
0
  6
Continuous
 62
     7
370
    30
100
AcDbCircle
 10
271.4274303042
 20
196.892329325
 30
0.0
 40
6.24999999999996
100
AcDbArc
 50
205.1589913901
 51
244.8410086099
  0
ARC
  5
2B7
330
1F
100
AcDbEntity
  8
0
  6
Continuous
 62
     7
370
    30
100
AcDbCircle
 10
260.1132857301
 20
196.892329325
 30
0.0
 40
6.250000000000048
100
AcDbArc
 50
295.1589913901
 51
334.8410086099
  0
ARC
  5
2B8
330
1F
100
AcDbEntity
  8
0
  6
Continuous
 62
     7
370
    30
100
AcDbCircle
 10
260.1132857301
 20
185.5781847509
 30
0.0
 40
6.250000000000048
100
AcDbArc
 50
25.1589913901
 51
64.8410086099
  0
ARC
  5
2B9
330
1F
100
AcDbEntity
  8
0
  6
Continuous
 62
     7
370
    30
100
AcDbCircle
 10
265.7703580171
 20
191.2352570379
 30
0.0
 40
4.750000000000028
100
AcDbArc
 50
102.3665509529
 51
167.6334490471
  0
ARC
  5
2BA
330
1F
100
AcDbEntity
  8
0
  6
Continuous
 62
     7
370
    30
100
AcDbCircle
 10
260.1132857301
 20
196.892329325
 30
0.0
 40
4.750000000000028
100
AcDbArc
 50
282.3665509529
 51
347.6334490471
  0
ARC
  5
2BB
330
1F
100
AcDbEntity
  8
0
  6
Continuous
 62
     7
370
    30
100
AcDbCircle
 10
271.4274303042
 20
95.102329325
 30
0.0
 40
4.749999999999994
100
AcDbArc
 50
192.3665509529
 51
257.6334490471
  0
ARC
  5
2BC
330
1F
100
AcDbEntity
  8
0
  6
Continuous
 62
     7
370
    30
100
AcDbCircle
 10
265.7703580171
 20
89.4452570379
 30
0.0
 40
4.749999999999994
100
AcDbArc
 50
12.3665509529
 51
77.6334490471
  0
ARC
  5
2BD
330
1F
100
AcDbEntity
  8
0
  6
Continuous
 62
     7
370
    30
100
AcDbCircle
 10
271.4274303042
 20
95.102329325
 30
0.0
 40
6.249999999999988
100
AcDbArc
 50
205.1589913901
 51
236.421782401
  0
ARC
  5
2BE
330
1F
100
AcDbEntity
  8
0
  6
Continuous
 62
     7
370
    30
100
AcDbCircle
 10
260.1132857301
 20
95.102329325
 30
0.0
 40
6.250000000000054
100
AcDbArc
 50
303.578217599
 51
334.8410086099
  0
ARC
  5
2BF
330
1F
100
AcDbEntity
  8
0
  6
Continuous
 62
     7
370
    30
100
AcDbCircle
 10
265.7703580171
 20
89.4452570379
 30
0.0
 40
4.75000000000003
100
AcDbArc
 50
102.3665509529
 51
167.6334490471
  0
ARC
  5
2C0
330
1F
100
AcDbEntity
  8
0
  6
Continuous
 62
     7
370
    30
100
AcDbCircle
 10
260.1132857301
 20
95.102329325
 30
0.0
 40
4.75000000000003
100
AcDbArc
 50
282.3665509529
 51
347.6334490471
  0
ARC
  5
2C1
330
1F
100
AcDbEntity
  8
0
  6
Continuous
 62
     7
370
    30
100
AcDbCircle
 10
265.7703580171
 20
100.7552570379
 30
0.0
 40
4.750000000000033
100
AcDbArc
 50
192.3665509529
 51
257.6334490471
  0
ARC
  5
2C2
330
1F
100
AcDbEntity
  8
0
  6
Continuous
 62
     7
370
    30
100
AcDbCircle
 10
260.1132857301
 20
95.0981847509
 30
0.0
 40
4.750000000000033
100
AcDbArc
 50
12.3665509529
 51
77.6334490471
  0
ARC
  5
2C3
330
1F
100
AcDbEntity
  8
0
  6
Continuous
 62
     7
370
    30
100
AcDbCircle
 10
271.4274303042
 20
106.412329325
 30
0.0
 40
4.749999999999994
100
AcDbArc
 50
192.3665509529
 51
257.6334490471
  0
ARC
  5
2C4
330
1F
100
AcDbEntity
  8
0
  6
Continuous
 62
     7
370
    30
100
AcDbCircle
 10
265.7703580171
 20
100.7552570379
 30
0.0
 40
4.749999999999994
100
AcDbArc
 50
12.3665509529
 51
77.6334490471
  0
ARC
  5
2C5
330
1F
100
AcDbEntity
  8
0
  6
Continuous
 62
     7
370
    30
100
AcDbCircle
 10
265.7703580171
 20
100.7552570379
 30
0.0
 40
4.749999999999994
100
AcDbArc
 50
282.3665509529
 51
347.6334490471
  0
ARC
  5
2C6
330
1F
100
AcDbEntity
  8
0
  6
Continuous
 62
     7
370
    30
100
AcDbCircle
 10
271.4274303042
 20
95.0981847509
 30
0.0
 40
4.750000000000033
100
AcDbArc
 50
102.3665509529
 51
167.6334490471
  0
ARC
  5
2C7
330
1F
100
AcDbEntity
  8
0
  6
Continuous
 62
     7
370
    30
100
AcDbCircle
 10
271.4274303042
 20
95.0981847509
 30
0.0
 40
6.250000000000011
100
AcDbArc
 50
115.1589913901
 51
154.8410086099
  0
ARC
  5
2C8
330
1F
100
AcDbEntity
  8
0
  6
Continuous
 62
     7
370
    30
100
AcDbCircle
 10
271.4274303042
 20
106.412329325
 30
0.0
 40
6.249999999999987
100
AcDbArc
 50
205.1589913901
 51
244.8410086099
  0
ARC
  5
2C9
330
1F
100
AcDbEntity
  8
0
  6
Continuous
 62
     7
370
    30
100
AcDbCircle
 10
260.1132857301
 20
106.412329325
 30
0.0
 40
6.25000000000006
100
AcDbArc
 50
295.1589913901
 51
334.8410086099
  0
ARC
  5
2CA
330
1F
100
AcDbEntity
  8
0
  6
Continuous
 62
     7
370
    30
100
AcDbCircle
 10
260.1132857301
 20
95.0981847509
 30
0.0
 40
6.25000000000006
100
AcDbArc
 50
25.1589913901
 51
64.8410086099
  0
ARC
  5
2CB
330
1F
100
AcDbEntity
  8
0
  6
Continuous
 62
     7
370
    30
100
AcDbCircle
 10
265.7703580171
 20
100.7552570379
 30
0.0
 40
4.750000000000033
100
AcDbArc
 50
102.3665509529
 51
167.6334490471
  0
ARC
  5
2CC
330
1F
100
AcDbEntity
  8
0
  6
Continuous
 62
     7
370
    30
100
AcDbCircle
 10
260.1132857301
 20
106.412329325
 30
0.0
 40
4.750000000000033
100
AcDbArc
 50
282.3665509529
 51
347.6334490471
  0
ARC
  5
2CD
330
1F
100
AcDbEntity
  8
0
  6
Continuous
 62
     7
370
    30
100
AcDbCircle
 10
254.4603580171
 20
202.5452570379
 30
0.0
 40
4.749999999999994
100
AcDbArc
 50
192.3665509529
 51
257.6334490471
  0
ARC
  5
2CE
330
1F
100
AcDbEntity
  8
0
  6
Continuous
 62
     7
370
    30
100
AcDbCircle
 10
248.8032857301
 20
196.8881847509
 30
0.0
 40
4.750000000000005
100
AcDbArc
 50
12.3665509529
 51
77.6334490471
  0
ARC
  5
2CF
330
1F
100
AcDbEntity
  8
0
  6
Continuous
 62
     7
370
    30
100
AcDbCircle
 10
254.4603580171
 20
202.5452570379
 30
0.0
 40
4.750000000000033
100
AcDbArc
 50
282.3665509529
 51
347.6334490471
  0
ARC
  5
2D0
330
1F
100
AcDbEntity
  8
0
  6
Continuous
 62
     7
370
    30
100
AcDbCircle
 10
260.1174303042
 20
196.8881847509
 30
0.0
 40
4.750000000000005
100
AcDbArc
 50
102.3665509529
 51
167.6334490471
  0
ARC
  5
2D1
330
1F
100
AcDbEntity
  8
0
  6
Continuous
 62
     7
370
    30
100
AcDbCircle
 10
260.1174303042
 20
196.8881847509
 30
0.0
 40
6.25
100
AcDbArc
 50
123.578217599
 51
154.8410086099
  0
ARC
  5
2D2
330
1F
100
AcDbEntity
  8
0
  6
Continuous
 62
     7
370
    30
100
AcDbCircle
 10
248.8032857301
 20
196.8881847509
 30
0.0
 40
6.249999999999985
100
AcDbArc
 50
25.1589913901
 51
56.421782401
  0
ARC
  5
2D3
330
1F
100
AcDbEntity
  8
0
  6
Continuous
 62
     7
370
    30
100
AcDbCircle
 10
254.4603580171
 20
191.2352570379
 30
0.0
 40
4.750000000000021
100
AcDbArc
 50
192.3665509529
 51
257.6334490471
  0
ARC
  5
2D4
330
1F
100
AcDbEntity
  8
0
  6
Continuous
 62
     7
370
    30
100
AcDbCircle
 10
248.8032857301
 20
185.5781847509
 30
0.0
 40
4.75
100
AcDbArc
 50
12.3665509529
 51
77.6334490471
  0
ARC
  5
2D5
330
1F
100
AcDbEntity
  8
0
  6
Continuous
 62
     7
370
    30
100
AcDbCircle
 10
260.1174303042
 20
196.892329325
 30
0.0
 40
4.75
100
AcDbArc
 50
192.3665509529
 51
257.6334490471
  0
ARC
  5
2D6
330
1F
100
AcDbEntity
  8
0
  6
Continuous
 62
     7
370
    30
100
AcDbCircle
 10
254.4603580171
 20
191.2352570379
 30
0.0
 40
4.750000000000028
100
AcDbArc
 50
12.3665509529
 51
77.6334490471
  0
ARC
  5
2D7
330
1F
100
AcDbEntity
  8
0
  6
Continuous
 62
     7
370
    30
100
AcDbCircle
 10
254.4603580171
 20
191.2352570379
 30
0.0
 40
4.750000000000033
100
AcDbArc
 50
282.3665509529
 51
347.6334490471
  0
ARC
  5
2D8
330
1F
100
AcDbEntity
  8
0
  6
Continuous
 62
     7
370
    30
100
AcDbCircle
 10
260.1174303042
 20
185.5781847509
 30
0.0
 40
4.75
100
AcDbArc
 50
102.3665509529
 51
167.6334490471
  0
ARC
  5
2D9
330
1F
100
AcDbEntity
  8
0
  6
Continuous
 62
     7
370
    30
100
AcDbCircle
 10
260.1174303042
 20
185.5781847509
 30
0.0
 40
6.250000000000011
100
AcDbArc
 50
115.1589913901
 51
154.8410086099
  0
ARC
  5
2DA
330
1F
100
AcDbEntity
  8
0
  6
Continuous
 62
     7
370
    30
100
AcDbCircle
 10
260.1174303042
 20
196.892329325
 30
0.0
 40
6.249999999999996
100
AcDbArc
 50
205.1589913901
 51
244.8410086099
  0
ARC
  5
2DB
330
1F
100
AcDbEntity
  8
0
  6
Continuous
 62
     7
370
    30
100
AcDbCircle
 10
248.8032857301
 20
196.892329325
 30
0.0
 40
6.249999999999972
100
AcDbArc
 50
295.1589913901
 51
334.8410086099
  0
ARC
  5
2DC
330
1F
100
AcDbEntity
  8
0
  6
Continuous
 62
     7
370
    30
100
AcDbCircle
 10
248.8032857301
 20
185.5781847509
 30
0.0
 40
6.249999999999998
100
AcDbArc
 50
25.1589913901
 51
64.8410086099
  0
ARC
  5
2DD
330
1F
100
AcDbEntity
  8
0
  6
Continuous
 62
     7
370
    30
100
AcDbCircle
 10
254.4603580171
 20
191.2352570379
 30
0.0
 40
4.749999999999994
100
AcDbArc
 50
102.3665509529
 51
167.6334490471
  0
ARC
  5
2DE
330
1F
100
AcDbEntity
  8
0
  6
Continuous
 62
     7
370
    30
100
AcDbCircle
 10
248.8032857301
 20
196.892329325
 30
0.0
 40
4.75
100
AcDbArc
 50
282.3665509529
 51
347.6334490471
  0
ARC
  5
2DF
330
1F
100
AcDbEntity
  8
0
  6
Continuous
 62
     7
370
    30
100
AcDbCircle
 10
260.1174303042
 20
95.102329325
 30
0.0
 40
4.750000000000003
100
AcDbArc
 50
192.3665509529
 51
257.6334490471
  0
ARC
  5
2E0
330
1F
100
AcDbEntity
  8
0
  6
Continuous
 62
     7
370
    30
100
AcDbCircle
 10
254.4603580171
 20
89.4452570379
 30
0.0
 40
4.75000000000003
100
AcDbArc
 50
12.3665509529
 51
77.6334490471
  0
ARC
  5
2E1
330
1F
100
AcDbEntity
  8
0
  6
Continuous
 62
     7
370
    30
100
AcDbCircle
 10
260.1174303042
 20
95.102329325
 30
0.0
 40
6.250000000000003
100
AcDbArc
 50
205.1589913901
 51
236.421782401
  0
ARC
  5
2E2
330
1F
100
AcDbEntity
  8
0
  6
Continuous
 62
     7
370
    30
100
AcDbCircle
 10
248.8032857301
 20
95.102329325
 30
0.0
 40
6.250000000000016
100
AcDbArc
 50
303.578217599
 51
334.8410086099
  0
ARC
  5
2E3
330
1F
100
AcDbEntity
  8
0
  6
Continuous
 62
     7
370
    30
100
AcDbCircle
 10
254.4603580171
 20
89.4452570379
 30
0.0
 40
4.749999999999994
100
AcDbArc
 50
102.3665509529
 51
167.6334490471
  0
ARC
  5
2E4
330
1F
100
AcDbEntity
  8
0
  6
Continuous
 62
     7
370
    30
100
AcDbCircle
 10
248.8032857301
 20
95.102329325
 30
0.0
 40
4.750000000000003
100
AcDbArc
 50
282.3665509529
 51
347.6334490471
  0
ARC
  5
2E5
330
1F
100
AcDbEntity
  8
0
  6
Continuous
 62
     7
370
    30
100
AcDbCircle
 10
254.4603580171
 20
100.7552570379
 30
0.0
 40
4.749999999999994
100
AcDbArc
 50
192.3665509529
 51
257.6334490471
  0
ARC
  5
2E6
330
1F
100
AcDbEntity
  8
0
  6
Continuous
 62
     7
370
    30
100
AcDbCircle
 10
248.8032857301
 20
95.0981847509
 30
0.0
 40
4.750000000000005
100
AcDbArc
 50
12.3665509529
 51
77.6334490471
  0
ARC
  5
2E7
330
1F
100
AcDbEntity
  8
0
  6
Continuous
 62
     7
370
    30
100
AcDbCircle
 10
260.1174303042
 20
106.412329325
 30
0.0
 40
4.750000000000005
100
AcDbArc
 50
192.3665509529
 51
257.6334490471
  0
ARC
  5
2E8
330
1F
100
AcDbEntity
  8
0
  6
Continuous
 62
     7
370
    30
100
AcDbCircle
 10
254.4603580171
 20
100.7552570379
 30
0.0
 40
4.750000000000033
100
AcDbArc
 50
12.3665509529
 51
77.6334490471
  0
ARC
  5
2E9
330
1F
100
AcDbEntity
  8
0
  6
Continuous
 62
     7
370
    30
100
AcDbCircle
 10
254.4603580171
 20
100.7552570379
 30
0.0
 40
4.750000000000033
100
AcDbArc
 50
282.3665509529
 51
347.6334490471
  0
ARC
  5
2EA
330
1F
100
AcDbEntity
  8
0
  6
Continuous
 62
     7
370
    30
100
AcDbCircle
 10
260.1174303042
 20
95.0981847509
 30
0.0
 40
4.750000000000005
100
AcDbArc
 50
102.3665509529
 51
167.6334490471
  0
ARC
  5
2EB
330
1F
100
AcDbEntity
  8
0
  6
Continuous
 62
     7
370
    30
100
AcDbCircle
 10
260.1174303042
 20
95.0981847509
 30
0.0
 40
6.250000000000011
100
AcDbArc
 50
115.1589913901
 51
154.8410086099
  0
ARC
  5
2EC
330
1F
100
AcDbEntity
  8
0
  6
Continuous
 62
     7
370
    30
100
AcDbCircle
 10
260.1174303042
 20
106.412329325
 30
0.0
 40
6.250000000000011
100
AcDbArc
 50
205.1589913901
 51
244.8410086099
  0
ARC
  5
2ED
330
1F
100
AcDbEntity
  8
0
  6
Continuous
 62
     7
370
    30
100
AcDbCircle
 10
248.8032857301
 20
106.412329325
 30
0.0
 40
6.249999999999998
100
AcDbArc
 50
295.1589913901
 51
334.8410086099
  0
ARC
  5
2EE
330
1F
100
AcDbEntity
  8
0
  6
Continuous
 62
     7
370
    30
100
AcDbCircle
 10
248.8032857301
 20
95.0981847509
 30
0.0
 40
6.249999999999998
100
AcDbArc
 50
25.1589913901
 51
64.8410086099
  0
ARC
  5
2EF
330
1F
100
AcDbEntity
  8
0
  6
Continuous
 62
     7
370
    30
100
AcDbCircle
 10
254.4603580171
 20
100.7552570379
 30
0.0
 40
4.749999999999994
100
AcDbArc
 50
102.3665509529
 51
167.6334490471
  0
ARC
  5
2F0
330
1F
100
AcDbEntity
  8
0
  6
Continuous
 62
     7
370
    30
100
AcDbCircle
 10
254.4603580171
 20
191.2352570379
 30
0.0
 40
6.249999999999977
100
AcDbArc
 50
115.2036401195
 51
154.7963598805
  0
LINE
  5
2F1
330
1F
100
AcDbEntity
  8
0
  6
Continuous
 62
     7
370
    30
100
AcDbLine
 10
271.4103580171
 20
185.7952570379
 30
0.0
 11
268.8475157966
 21
185.7952570379
 31
0.0
  0
ARC
  5
2F2
330
1F
100
AcDbEntity
  8
0
  6
Continuous
 62
     7
370
    30
100
AcDbCircle
 10
243.1503580171
 20
202.5452570379
 30
0.0
 40
6.250000000000028
100
AcDbArc
 50
295.2036401195
 51
334.7963598805
  0
ARC
  5
2F3
330
1F
100
AcDbEntity
  8
0
  6
Continuous
 62
     7
370
    30
100
AcDbCircle
 10
277.0803580171
 20
202.5452570379
 30
0.0
 40
6.250000000000016
100
AcDbArc
 50
295.2036401195
 51
334.7963598805
  0
ARC
  5
2F4
330
1F
100
AcDbEntity
  8
0
  6
Continuous
 62
     7
370
    30
100
AcDbCircle
 10
254.4603580171
 20
191.2352570379
 30
0.0
 40
6.250000000000021
100
AcDbArc
 50
205.2036401195
 51
240.5051553941
  0
ARC
  5
2F5
330
1F
100
AcDbEntity
  8
0
  6
Continuous
 62
     7
370
    30
100
AcDbCircle
 10
243.1503580171
 20
191.2352570379
 30
0.0
 40
6.250000000000021
100
AcDbArc
 50
299.4948446059
 51
334.7963598805
  0
ARC
  5
2F6
330
1F
100
AcDbEntity
  8
0
  6
Continuous
 62
     7
370
    30
100
AcDbCircle
 10
220.5303580171
 20
202.5452570379
 30
0.0
 40
4.750000000000019
100
AcDbArc
 50
306.5689323715
 51
347.6334490471
  0
ARC
  5
2F7
330
1F
100
AcDbEntity
  8
0
  6
Continuous
 62
     7
370
    30
100
AcDbCircle
 10
226.1874303042
 20
196.8881847509
 30
0.0
 40
4.75
100
AcDbArc
 50
102.3665509529
 51
126.5249739208
  0
ARC
  5
2F8
330
1F
100
AcDbEntity
  8
0
  6
Continuous
 62
     7
370
    30
100
AcDbCircle
 10
220.5303580171
 20
191.2352570379
 30
0.0
 40
4.750000000000042
100
AcDbArc
 50
306.5689323715
 51
347.6334490471
  0
ARC
  5
2F9
330
1F
100
AcDbEntity
  8
0
  6
Continuous
 62
     7
370
    30
100
AcDbCircle
 10
226.1874303042
 20
185.582329325
 30
0.0
 40
4.75
100
AcDbArc
 50
233.4750260792
 51
257.6334490471
  0
ARC
  5
2FA
330
1F
100
AcDbEntity
  8
0
  6
Continuous
 62
     7
370
    30
100
AcDbCircle
 10
220.5303580171
 20
145.9952570379
 30
0.0
 40
6.250000000000031
100
AcDbArc
 50
25.2036401195
 51
63.0765285396
  0
ARC
  5
2FB
330
1F
100
AcDbEntity
  8
0
  6
Continuous
 62
     7
370
    30
100
AcDbCircle
 10
288.3903580171
 20
89.4452570379
 30
0.0
 40
6.250000000000018
100
AcDbArc
 50
116.9234714604
 51
154.7963598805
  0
ARC
  5
2FC
330
1F
100
AcDbEntity
  8
0
  6
Continuous
 62
     7
370
    30
100
AcDbCircle
 10
288.3903580171
 20
100.7552570379
 30
0.0
 40
6.250000000000005
100
AcDbArc
 50
205.2036401195
 51
243.0765285396
  0
ARC
  5
2FD
330
1F
100
AcDbEntity
  8
0
  6
Continuous
 62
     7
370
    30
100
AcDbCircle
 10
226.1874303042
 20
162.9581847509
 30
0.0
 40
4.75
100
AcDbArc
 50
102.3665509529
 51
126.5249739208
  0
ARC
  5
2FE
330
1F
100
AcDbEntity
  8
0
  6
Continuous
 62
     7
370
    30
100
AcDbCircle
 10
226.1874303042
 20
162.962329325
 30
0.0
 40
4.75
100
AcDbArc
 50
233.4750260792
 51
257.6334490471
  0
ARC
  5
2FF
330
1F
100
AcDbEntity
  8
0
  6
Continuous
 62
     7
370
    30
100
AcDbCircle
 10
220.5303580171
 20
157.3052570379
 30
0.0
 40
4.75
100
AcDbArc
 50
12.3665509529
 51
53.4310676285
  0
ARC
  5
300
330
1F
100
AcDbEntity
  8
0
  6
Continuous
 62
     7
370
    30
100
AcDbCircle
 10
220.5303580171
 20
157.3052570379
 30
0.0
 40
4.750000000000019
100
AcDbArc
 50
306.5689323715
 51
347.6334490471
  0
ARC
  5
301
330
1F
100
AcDbEntity
  8
0
  6
Continuous
 62
     7
370
    30
100
AcDbCircle
 10
226.1874303042
 20
151.6481847509
 30
0.0
 40
4.75
100
AcDbArc
 50
102.3665509529
 51
126.5249739208
  0
ARC
  5
302
330
1F
100
AcDbEntity
  8
0
  6
Continuous
 62
     7
370
    30
100
AcDbCircle
 10
220.5303580171
 20
112.0652570379
 30
0.0
 40
6.250000000000005
100
AcDbArc
 50
25.2036401195
 51
63.0765285396
  0
ARC
  5
303
330
1F
100
AcDbEntity
  8
0
  6
Continuous
 62
     7
370
    30
100
AcDbCircle
 10
288.3903580171
 20
191.2352570379
 30
0.0
 40
6.250000000000005
100
AcDbArc
 50
205.2036401195
 51
243.0765285396
  0
ARC
  5
304
330
1F
100
AcDbEntity
  8
0
  6
Continuous
 62
     7
370
    30
100
AcDbCircle
 10
226.1874303042
 20
106.412329325
 30
0.0
 40
4.75
100
AcDbArc
 50
233.4750260792
 51
257.6334490471
  0
ARC
  5
305
330
1F
100
AcDbEntity
  8
0
  6
Continuous
 62
     7
370
    30
100
AcDbCircle
 10
220.5303580171
 20
100.7552570379
 30
0.0
 40
4.750000000000019
100
AcDbArc
 50
12.3665509529
 51
53.4310676285
  0
ARC
  5
306
330
1F
100
AcDbEntity
  8
0
  6
Continuous
 62
     7
370
    30
100
AcDbCircle
 10
277.0803580171
 20
112.0652570379
 30
0.0
 40
6.24999999999999
100
AcDbArc
 50
25.2036401195
 51
64.7963598805
  0
ARC
  5
307
330
1F
100
AcDbEntity
  8
0
  6
Continuous
 62
     7
370
    30
100
AcDbCircle
 10
288.3903580171
 20
123.3752570379
 30
0.0
 40
6.250000000000005
100
AcDbArc
 50
116.9234714604
 51
154.7963598805
  0
ARC
  5
308
330
1F
100
AcDbEntity
  8
0
  6
Continuous
 62
     7
370
    30
100
AcDbCircle
 10
288.3903580171
 20
134.6852570379
 30
0.0
 40
6.249999999999964
100
AcDbArc
 50
205.2036401195
 51
243.0765285396
  0
ARC
  5
309
330
1F
100
AcDbEntity
  8
0
  6
Continuous
 62
     7
370
    30
100
AcDbCircle
 10
277.0803580171
 20
134.6852570379
 30
0.0
 40
6.249999999999964
100
AcDbArc
 50
295.2036401195
 51
334.7963598805
  0
ARC
  5
30A
330
1F
100
AcDbEntity
  8
0
  6
Continuous
 62
     7
370
    30
100
AcDbCircle
 10
277.0803580171
 20
123.3752570379
 30
0.0
 40
6.24999999999999
100
AcDbArc
 50
25.2036401195
 51
64.7963598805
  0
ARC
  5
30B
330
1F
100
AcDbEntity
  8
0
  6
Continuous
 62
     7
370
    30
100
AcDbCircle
 10
288.3903580171
 20
134.6852570379
 30
0.0
 40
6.250000000000005
100
AcDbArc
 50
116.9234714604
 51
154.7963598805
  0
ARC
  5
30C
330
1F
100
AcDbEntity
  8
0
  6
Continuous
 62
     7
370
    30
100
AcDbCircle
 10
288.3903580171
 20
145.9952570379
 30
0.0
 40
6.250000000000005
100
AcDbArc
 50
205.2036401195
 51
243.0765285396
  0
ARC
  5
30D
330
1F
100
AcDbEntity
  8
0
  6
Continuous
 62
     7
370
    30
100
AcDbCircle
 10
277.0803580171
 20
145.9952570379
 30
0.0
 40
6.24999999999999
100
AcDbArc
 50
295.2036401195
 51
334.7963598805
  0
ARC
  5
30E
330
1F
100
AcDbEntity
  8
0
  6
Continuous
 62
     7
370
    30
100
AcDbCircle
 10
277.0803580171
 20
134.6852570379
 30
0.0
 40
6.250000000000016
100
AcDbArc
 50
25.2036401195
 51
64.7963598805
  0
ARC
  5
30F
330
1F
100
AcDbEntity
  8
0
  6
Continuous
 62
     7
370
    30
100
AcDbCircle
 10
288.3903580171
 20
191.2352570379
 30
0.0
 40
6.24999999999998
100
AcDbArc
 50
116.9234714604
 51
154.7963598805
  0
ARC
  5
310
330
1F
100
AcDbEntity
  8
0
  6
Continuous
 62
     7
370
    30
100
AcDbCircle
 10
288.3903580171
 20
202.5452570379
 30
0.0
 40
6.250000000000005
100
AcDbArc
 50
205.2036401195
 51
243.0765285396
  0
ARC
  5
311
330
1F
100
AcDbEntity
  8
0
  6
Continuous
 62
     7
370
    30
100
AcDbCircle
 10
220.5303580171
 20
191.2352570379
 30
0.0
 40
6.250000000000031
100
AcDbArc
 50
296.9234714604
 51
334.7963598805
  0
ARC
  5
312
330
1F
100
AcDbEntity
  8
0
  6
Continuous
 62
     7
370
    30
100
AcDbCircle
 10
277.0803580171
 20
191.2352570379
 30
0.0
 40
6.249999999999977
100
AcDbArc
 50
25.2036401195
 51
64.7963598805
  0
ARC
  5
313
330
1F
100
AcDbEntity
  8
0
  6
Continuous
 62
     7
370
    30
100
AcDbCircle
 10
288.3903580171
 20
179.9252570379
 30
0.0
 40
6.250000000000005
100
AcDbArc
 50
116.9234714604
 51
154.7963598805
  0
ARC
  5
314
330
1F
100
AcDbEntity
  8
0
  6
Continuous
 62
     7
370
    30
100
AcDbCircle
 10
220.5303580171
 20
134.6852570379
 30
0.0
 40
4.750000000000019
100
AcDbArc
 50
12.3665509529
 51
53.4310676285
  0
ARC
  5
315
330
1F
100
AcDbEntity
  8
0
  6
Continuous
 62
     7
370
    30
100
AcDbCircle
 10
277.0803580171
 20
191.2352570379
 30
0.0
 40
6.24999999999999
100
AcDbArc
 50
295.2036401195
 51
334.7963598805
  0
ARC
  5
316
330
1F
100
AcDbEntity
  8
0
  6
Continuous
 62
     7
370
    30
100
AcDbCircle
 10
277.0803580171
 20
179.9252570379
 30
0.0
 40
6.250000000000016
100
AcDbArc
 50
25.2036401195
 51
64.7963598805
  0
ARC
  5
317
330
1F
100
AcDbEntity
  8
0
  6
Continuous
 62
     7
370
    30
100
AcDbCircle
 10
288.3903580171
 20
168.6152570379
 30
0.0
 40
6.24999999999998
100
AcDbArc
 50
116.9234714604
 51
154.7963598805
  0
ARC
  5
318
330
1F
100
AcDbEntity
  8
0
  6
Continuous
 62
     7
370
    30
100
AcDbCircle
 10
220.5303580171
 20
168.6152570379
 30
0.0
 40
6.250000000000005
100
AcDbArc
 50
296.9234714604
 51
334.7963598805
  0
ARC
  5
319
330
1F
100
AcDbEntity
  8
0
  6
Continuous
 62
     7
370
    30
100
AcDbCircle
 10
220.5303580171
 20
157.3052570379
 30
0.0
 40
6.250000000000005
100
AcDbArc
 50
25.2036401195
 51
63.0765285396
  0
ARC
  5
31A
330
1F
100
AcDbEntity
  8
0
  6
Continuous
 62
     7
370
    30
100
AcDbCircle
 10
231.8403580171
 20
145.9952570379
 30
0.0
 40
6.250000000000028
100
AcDbArc
 50
115.2036401195
 51
154.7963598805
  0
ARC
  5
31B
330
1F
100
AcDbEntity
  8
0
  6
Continuous
 62
     7
370
    30
100
AcDbCircle
 10
231.8403580171
 20
157.3052570379
 30
0.0
 40
6.250000000000028
100
AcDbArc
 50
205.2036401195
 51
244.7963598805
  0
ARC
  5
31C
330
1F
100
AcDbEntity
  8
0
  6
Continuous
 62
     7
370
    30
100
AcDbCircle
 10
220.5303580171
 20
157.3052570379
 30
0.0
 40
6.250000000000031
100
AcDbArc
 50
296.9234714604
 51
334.7963598805
  0
ARC
  5
31D
330
1F
100
AcDbEntity
  8
0
  6
Continuous
 62
     7
370
    30
100
AcDbCircle
 10
231.8403580171
 20
191.2352570379
 30
0.0
 40
6.250000000000028
100
AcDbArc
 50
115.2036401195
 51
154.7963598805
  0
ARC
  5
31E
330
1F
100
AcDbEntity
  8
0
  6
Continuous
 62
     7
370
    30
100
AcDbCircle
 10
243.1503580171
 20
89.4452570379
 30
0.0
 40
6.250000000000015
100
AcDbArc
 50
115.2036401195
 51
154.7963598805
  0
ARC
  5
31F
330
1F
100
AcDbEntity
  8
0
  6
Continuous
 62
     7
370
    30
100
AcDbCircle
 10
243.1503580171
 20
100.7552570379
 30
0.0
 40
6.250000000000003
100
AcDbArc
 50
205.2036401195
 51
244.7963598805
  0
ARC
  5
320
330
1F
100
AcDbEntity
  8
0
  6
Continuous
 62
     7
370
    30
100
AcDbCircle
 10
231.8403580171
 20
100.7552570379
 30
0.0
 40
6.249999999999977
100
AcDbArc
 50
295.2036401195
 51
334.7963598805
  0
ARC
  5
321
330
1F
100
AcDbEntity
  8
0
  6
Continuous
 62
     7
370
    30
100
AcDbCircle
 10
231.8403580171
 20
191.2352570379
 30
0.0
 40
4.749999999999994
100
AcDbArc
 50
12.3665509529
 51
77.6334490471
  0
ARC
  5
322
330
1F
100
AcDbEntity
  8
0
  6
Continuous
 62
     7
370
    30
100
AcDbCircle
 10
231.8403580171
 20
191.2352570379
 30
0.0
 40
4.750000000000021
100
AcDbArc
 50
282.3665509529
 51
347.6334490471
  0
ARC
  5
323
330
1F
100
AcDbEntity
  8
0
  6
Continuous
 62
     7
370
    30
100
AcDbCircle
 10
231.8403580171
 20
112.0652570379
 30
0.0
 40
6.250000000000004
100
AcDbArc
 50
295.2036401195
 51
307.0406245466
  0
ARC
  5
324
330
1F
100
AcDbEntity
  8
0
  6
Continuous
 62
     7
370
    30
100
AcDbCircle
 10
231.8403580171
 20
100.7552570379
 30
0.0
 40
6.249999999999977
100
AcDbArc
 50
25.2036401195
 51
64.7963598805
  0
ARC
  5
325
330
1F
100
AcDbEntity
  8
0
  6
Continuous
 62
     7
370
    30
100
AcDbCircle
 10
220.5303580171
 20
123.3752570379
 30
0.0
 40
6.250000000000005
100
AcDbArc
 50
296.9234714604
 51
334.7963598805
  0
ARC
  5
326
330
1F
100
AcDbEntity
  8
0
  6
Continuous
 62
     7
370
    30
100
AcDbCircle
 10
231.8403580171
 20
179.9252570379
 30
0.0
 40
6.250000000000016
100
AcDbArc
 50
205.2036401195
 51
244.7963598805
  0
ARC
  5
327
330
1F
100
AcDbEntity
  8
0
  6
Continuous
 62
     7
370
    30
100
AcDbCircle
 10
220.5303580171
 20
179.9252570379
 30
0.0
 40
6.250000000000005
100
AcDbArc
 50
296.9234714604
 51
334.7963598805
  0
ARC
  5
328
330
1F
100
AcDbEntity
  8
0
  6
Continuous
 62
     7
370
    30
100
AcDbCircle
 10
220.5303580171
 20
134.6852570379
 30
0.0
 40
6.24999999999999
100
AcDbArc
 50
296.9234714604
 51
334.7963598805
  0
ARC
  5
329
330
1F
100
AcDbEntity
  8
0
  6
Continuous
 62
     7
370
    30
100
AcDbCircle
 10
220.5303580171
 20
123.3752570379
 30
0.0
 40
6.250000000000031
100
AcDbArc
 50
25.2036401195
 51
63.0765285396
  0
ARC
  5
32A
330
1F
100
AcDbEntity
  8
0
  6
Continuous
 62
     7
370
    30
100
AcDbCircle
 10
231.8403580171
 20
134.6852570379
 30
0.0
 40
6.250000000000028
100
AcDbArc
 50
115.2036401195
 51
154.7963598805
  0
ARC
  5
32B
330
1F
100
AcDbEntity
  8
0
  6
Continuous
 62
     7
370
    30
100
AcDbCircle
 10
231.8403580171
 20
145.9952570379
 30
0.0
 40
6.250000000000028
100
AcDbArc
 50
205.2036401195
 51
244.7963598805
  0
ARC
  5
32C
330
1F
100
AcDbEntity
  8
0
  6
Continuous
 62
     7
370
    30
100
AcDbCircle
 10
220.5303580171
 20
145.9952570379
 30
0.0
 40
6.250000000000031
100
AcDbArc
 50
296.9234714604
 51
334.7963598805
  0
ARC
  5
32D
330
1F
100
AcDbEntity
  8
0
  6
Continuous
 62
     7
370
    30
100
AcDbCircle
 10
220.5303580171
 20
134.6852570379
 30
0.0
 40
6.250000000000031
100
AcDbArc
 50
25.2036401195
 51
63.0765285396
  0
ARC
  5
32E
330
1F
100
AcDbEntity
  8
0
  6
Continuous
 62
     7
370
    30
100
AcDbCircle
 10
220.5303580171
 20
100.7552570379
 30
0.0
 40
6.250000000000005
100
AcDbArc
 50
296.9234714604
 51
334.7963598805
  0
ARC
  5
32F
330
1F
100
AcDbEntity
  8
0
  6
Continuous
 62
     7
370
    30
100
AcDbCircle
 10
231.8403580171
 20
202.5452570379
 30
0.0
 40
6.25000000000004
100
AcDbArc
 50
205.2036401195
 51
244.7963598805
  0
ARC
  5
330
330
1F
100
AcDbEntity
  8
0
  6
Continuous
 62
     7
370
    30
100
AcDbCircle
 10
220.5303580171
 20
202.5452570379
 30
0.0
 40
6.250000000000031
100
AcDbArc
 50
296.9234714604
 51
334.7963598805
  0
ARC
  5
331
330
1F
100
AcDbEntity
  8
0
  6
Continuous
 62
     7
370
    30
100
AcDbCircle
 10
243.1503580171
 20
100.7552570379
 30
0.0
 40
6.250000000000003
100
AcDbArc
 50
25.2036401195
 51
60.5051553941
  0
ARC
  5
332
330
1F
100
AcDbEntity
  8
0
  6
Continuous
 62
     7
370
    30
100
AcDbCircle
 10
231.8403580171
 20
179.9252570379
 30
0.0
 40
6.250000000000028
100
AcDbArc
 50
115.2036401195
 51
154.7963598805
  0
ARC
  5
333
330
1F
100
AcDbEntity
  8
0
  6
Continuous
 62
     7
370
    30
100
AcDbCircle
 10
254.4603580171
 20
202.5452570379
 30
0.0
 40
6.250000000000016
100
AcDbArc
 50
205.2036401195
 51
244.7963598805
  0
ARC
  5
334
330
1F
100
AcDbEntity
  8
0
  6
Continuous
 62
     7
370
    30
100
AcDbCircle
 10
231.8403580171
 20
112.0652570379
 30
0.0
 40
6.250000000000022
100
AcDbArc
 50
115.2036401195
 51
154.7963598805
  0
ARC
  5
335
330
1F
100
AcDbEntity
  8
0
  6
Continuous
 62
     7
370
    30
100
AcDbCircle
 10
226.1874303042
 20
140.342329325
 30
0.0
 40
4.75
100
AcDbArc
 50
233.4750260792
 51
257.6334490471
  0
ARC
  5
336
330
1F
100
AcDbEntity
  8
0
  6
Continuous
 62
     7
370
    30
100
AcDbCircle
 10
226.1874303042
 20
117.7181847509
 30
0.0
 40
4.75
100
AcDbArc
 50
102.3665509529
 51
126.5249739208
  0
ARC
  5
337
330
1F
100
AcDbEntity
  8
0
  6
Continuous
 62
     7
370
    30
100
AcDbCircle
 10
226.1874303042
 20
95.0981847509
 30
0.0
 40
4.75
100
AcDbArc
 50
102.3665509529
 51
126.5249739208
  0
ARC
  5
338
330
1F
100
AcDbEntity
  8
0
  6
Continuous
 62
     7
370
    30
100
AcDbCircle
 10
226.1874303042
 20
117.722329325
 30
0.0
 40
4.750000000000028
100
AcDbArc
 50
233.4750260792
 51
257.6334490471
  0
ARC
  5
339
330
1F
100
AcDbEntity
  8
0
  6
Continuous
 62
     7
370
    30
100
AcDbCircle
 10
220.5303580171
 20
168.6152570379
 30
0.0
 40
6.250000000000003
100
AcDbArc
 50
25.2036401195
 51
63.0765285396
  0
ARC
  5
33A
330
1F
100
AcDbEntity
  8
0
  6
Continuous
 62
     7
370
    30
100
AcDbCircle
 10
231.8403580171
 20
157.3052570379
 30
0.0
 40
6.250000000000016
100
AcDbArc
 50
115.2036401195
 51
154.7963598805
  0
ARC
  5
33B
330
1F
100
AcDbEntity
  8
0
  6
Continuous
 62
     7
370
    30
100
AcDbCircle
 10
220.5303580171
 20
191.2352570379
 30
0.0
 40
4.750000000000019
100
AcDbArc
 50
12.3665509529
 51
53.4310676285
  0
ARC
  5
33C
330
1F
100
AcDbEntity
  8
0
  6
Continuous
 62
     7
370
    30
100
AcDbCircle
 10
226.1874303042
 20
140.3381847509
 30
0.0
 40
4.75
100
AcDbArc
 50
102.3665509529
 51
126.5249739208
  0
ARC
  5
33D
330
1F
100
AcDbEntity
  8
0
  6
Continuous
 62
     7
370
    30
100
AcDbCircle
 10
226.1874303042
 20
185.5781847509
 30
0.0
 40
4.75
100
AcDbArc
 50
102.3665509529
 51
126.5249739208
  0
ARC
  5
33E
330
1F
100
AcDbEntity
  8
0
  6
Continuous
 62
     7
370
    30
100
AcDbCircle
 10
220.5303580171
 20
100.7552570379
 30
0.0
 40
4.750000000000019
100
AcDbArc
 50
306.5689323715
 51
347.6334490471
  0
ARC
  5
33F
330
1F
100
AcDbEntity
  8
0
  6
Continuous
 62
     7
370
    30
100
AcDbCircle
 10
243.1503580171
 20
100.7552570379
 30
0.0
 40
6.250000000000003
100
AcDbArc
 50
119.4948446059
 51
154.7963598805
  0
ARC
  5
340
330
1F
100
AcDbEntity
  8
0
  6
Continuous
 62
     7
370
    30
100
AcDbCircle
 10
220.5303580171
 20
123.3752570379
 30
0.0
 40
4.750000000000019
100
AcDbArc
 50
12.3665509529
 51
53.4310676285
  0
ARC
  5
341
330
1F
100
AcDbEntity
  8
0
  6
Continuous
 62
     7
370
    30
100
AcDbCircle
 10
231.8403580171
 20
191.2352570379
 30
0.0
 40
6.250000000000028
100
AcDbArc
 50
205.2036401195
 51
244.7963598805
  0
ARC
  5
342
330
1F
100
AcDbEntity
  8
0
  6
Continuous
 62
     7
370
    30
100
AcDbCircle
 10
220.5303580171
 20
112.0652570379
 30
0.0
 40
4.750000000000007
100
AcDbArc
 50
306.5689323715
 51
347.6334490471
  0
ARC
  5
343
330
1F
100
AcDbEntity
  8
0
  6
Continuous
 62
     7
370
    30
100
AcDbCircle
 10
220.5303580171
 20
191.2352570379
 30
0.0
 40
6.250000000000005
100
AcDbArc
 50
25.2036401195
 51
63.0765285396
  0
ARC
  5
344
330
1F
100
AcDbEntity
  8
0
  6
Continuous
 62
     7
370
    30
100
AcDbCircle
 10
226.1874303042
 20
129.032329325
 30
0.0
 40
4.750000000000013
100
AcDbArc
 50
233.4750260792
 51
257.6334490471
  0
ARC
  5
345
330
1F
100
AcDbEntity
  8
0
  6
Continuous
 62
     7
370
    30
100
AcDbCircle
 10
231.8403580171
 20
168.6152570379
 30
0.0
 40
6.250000000000028
100
AcDbArc
 50
205.2036401195
 51
244.7963598805
  0
ARC
  5
346
330
1F
100
AcDbEntity
  8
0
  6
Continuous
 62
     7
370
    30
100
AcDbCircle
 10
231.8403580171
 20
123.3752570379
 30
0.0
 40
6.250000000000028
100
AcDbArc
 50
205.2036401195
 51
244.7963598805
  0
ARC
  5
347
330
1F
100
AcDbEntity
  8
0
  6
Continuous
 62
     7
370
    30
100
AcDbCircle
 10
231.8403580171
 20
89.4452570379
 30
0.0
 40
6.250000000000004
100
AcDbArc
 50
25.2036401195
 51
64.7963598805
  0
ARC
  5
348
330
1F
100
AcDbEntity
  8
0
  6
Continuous
 62
     7
370
    30
100
AcDbCircle
 10
226.1874303042
 20
151.652329325
 30
0.0
 40
4.75
100
AcDbArc
 50
233.4750260792
 51
257.6334490471
  0
ARC
  5
349
330
1F
100
AcDbEntity
  8
0
  6
Continuous
 62
     7
370
    30
100
AcDbCircle
 10
226.1874303042
 20
106.4081847509
 30
0.0
 40
4.75
100
AcDbArc
 50
102.3665509529
 51
126.5249739208
  0
ARC
  5
34A
330
1F
100
AcDbEntity
  8
0
  6
Continuous
 62
     7
370
    30
100
AcDbCircle
 10
220.5303580171
 20
134.6852570379
 30
0.0
 40
4.749999999999996
100
AcDbArc
 50
306.5689323715
 51
347.6334490471
  0
ARC
  5
34B
330
1F
100
AcDbEntity
  8
0
  6
Continuous
 62
     7
370
    30
100
AcDbCircle
 10
220.5303580171
 20
145.9952570379
 30
0.0
 40
4.750000000000019
100
AcDbArc
 50
12.3665509529
 51
53.4310676285
  0
ARC
  5
34C
330
1F
100
AcDbEntity
  8
0
  6
Continuous
 62
     7
370
    30
100
AcDbCircle
 10
220.5303580171
 20
145.9952570379
 30
0.0
 40
4.750000000000019
100
AcDbArc
 50
306.5689323715
 51
347.6334490471
  0
LINE
  5
34D
330
1F
100
AcDbEntity
  8
0
  6
Continuous
 62
     7
370
    30
100
AcDbLine
 10
293.4603580171
 20
264.2410485459
 30
0.0
 11
287.4603580171
 21
264.2410485459
 31
0.0
  0
LINE
  5
34E
330
1F
100
AcDbEntity
  8
0
  6
Continuous
 62
     7
370
    30
100
AcDbLine
 10
293.4603580171
 20
264.2410485459
 30
0.0
 11
293.4603580171
 21
265.7410485459
 31
0.0
  0
LINE
  5
34F
330
1F
100
AcDbEntity
  8
0
  6
Continuous
 62
     7
370
    30
100
AcDbLine
 10
293.4603580171
 20
265.7410485459
 30
0.0
 11
287.4603580171
 21
265.7410485459
 31
0.0
  0
LINE
  5
350
330
1F
100
AcDbEntity
  8
0
  6
Continuous
 62
     7
370
    30
100
AcDbLine
 10
287.4603580171
 20
264.2410485459
 30
0.0
 11
221.4603580171
 21
264.2410485459
 31
0.0
  0
LINE
  5
351
330
1F
100
AcDbEntity
  8
0
  6
Continuous
 62
     7
370
    30
100
AcDbLine
 10
287.4603580171
 20
265.7410485459
 30
0.0
 11
221.4603580171
 21
265.7410485459
 31
0.0
  0
LINE
  5
352
330
1F
100
AcDbEntity
  8
0
  6
Continuous
 62
     7
370
    30
100
AcDbLine
 10
287.4603580171
 20
257.1410485459
 30
0.0
 11
221.4603580171
 21
257.1410485459
 31
0.0
  0
LINE
  5
353
330
1F
100
AcDbEntity
  8
0
  6
Continuous
 62
     7
370
    30
100
AcDbLine
 10
289.2603580171
 20
257.1410485459
 30
0.0
 11
287.4603580171
 21
257.1410485459
 31
0.0
  0
LINE
  5
354
330
1F
100
AcDbEntity
  8
0
  6
Continuous
 62
     7
370
    30
100
AcDbLine
 10
289.2603580171
 20
257.1410485459
 30
0.0
 11
293.4603580171
 21
264.2410485459
 31
0.0
  0
LINE
  5
355
330
1F
100
AcDbEntity
  8
0
  6
Continuous
 62
     7
370
    30
100
AcDbLine
 10
221.4603580171
 20
257.1410485459
 30
0.0
 11
219.6603580171
 21
257.1410485459
 31
0.0
  0
LINE
  5
356
330
1F
100
AcDbEntity
  8
0
  6
Continuous
 62
     7
370
    30
100
AcDbLine
 10
219.6603580171
 20
257.1410485459
 30
0.0
 11
215.4603580171
 21
264.2410485459
 31
0.0
  0
LINE
  5
357
330
1F
100
AcDbEntity
  8
0
  6
Continuous
 62
     7
370
    30
100
AcDbLine
 10
221.4603580171
 20
264.2410485459
 30
0.0
 11
215.4603580171
 21
264.2410485459
 31
0.0
  0
LINE
  5
358
330
1F
100
AcDbEntity
  8
0
  6
Continuous
 62
     7
370
    30
100
AcDbLine
 10
215.4603580171
 20
264.2410485459
 30
0.0
 11
215.4603580171
 21
265.7410485459
 31
0.0
  0
LINE
  5
359
330
1F
100
AcDbEntity
  8
0
  6
Continuous
 62
     7
370
    30
100
AcDbLine
 10
221.4603580171
 20
265.7410485459
 30
0.0
 11
215.4603580171
 21
265.7410485459
 31
0.0
  0
LINE
  5
35A
330
1F
100
AcDbEntity
  8
0
  6
Continuous
 62
     7
370
    30
100
AcDbLine
 10
347.6587199045
 20
203.9952570379
 30
0.0
 11
347.6587199045
 21
209.9952570379
 31
0.0
  0
LINE
  5
35B
330
1F
100
AcDbEntity
  8
0
  6
Continuous
 62
     7
370
    30
100
AcDbLine
 10
347.6587199045
 20
209.9952570379
 30
0.0
 11
349.1587199045
 21
209.9952570379
 31
0.0
  0
LINE
  5
35C
330
1F
100
AcDbEntity
  8
0
  6
Continuous
 62
     7
370
    30
100
AcDbLine
 10
349.1587199045
 20
203.9952570379
 30
0.0
 11
349.1587199045
 21
209.9952570379
 31
0.0
  0
LINE
  5
35D
330
1F
100
AcDbEntity
  8
0
  6
Continuous
 62
     7
370
    30
100
AcDbLine
 10
347.6587199045
 20
203.9952570379
 30
0.0
 11
347.6587199045
 21
87.9952570379
 31
0.0
  0
LINE
  5
35E
330
1F
100
AcDbEntity
  8
0
  6
Continuous
 62
     7
370
    30
100
AcDbLine
 10
349.1587199045
 20
203.9952570379
 30
0.0
 11
349.1587199045
 21
87.9952570379
 31
0.0
  0
LINE
  5
35F
330
1F
100
AcDbEntity
  8
0
  6
Continuous
 62
     7
370
    30
100
AcDbLine
 10
347.6587199045
 20
81.9952570379
 30
0.0
 11
349.1587199045
 21
81.9952570379
 31
0.0
  0
LINE
  5
360
330
1F
100
AcDbEntity
  8
0
  6
Continuous
 62
     7
370
    30
100
AcDbLine
 10
347.6587199045
 20
87.9952570379
 30
0.0
 11
347.6587199045
 21
81.9952570379
 31
0.0
  0
LINE
  5
361
330
1F
100
AcDbEntity
  8
0
  6
Continuous
 62
     7
370
    30
100
AcDbLine
 10
349.1587199045
 20
87.9952570379
 30
0.0
 11
349.1587199045
 21
81.9952570379
 31
0.0
  0
LINE
  5
362
330
1F
100
AcDbEntity
  8
0
  6
Continuous
 62
     7
370
    30
100
AcDbLine
 10
340.5587199045
 20
86.1952570379
 30
0.0
 11
347.6587199045
 21
81.9952570379
 31
0.0
  0
LINE
  5
363
330
1F
100
AcDbEntity
  8
0
  6
Continuous
 62
     7
370
    30
100
AcDbLine
 10
340.5587199045
 20
87.9952570379
 30
0.0
 11
340.5587199045
 21
86.1952570379
 31
0.0
  0
LINE
  5
364
330
1F
100
AcDbEntity
  8
0
  6
Continuous
 62
     7
370
    30
100
AcDbLine
 10
340.5587199045
 20
203.9952570379
 30
0.0
 11
340.5587199045
 21
87.9952570379
 31
0.0
  0
LINE
  5
365
330
1F
100
AcDbEntity
  8
0
  6
Continuous
 62
     7
370
    30
100
AcDbLine
 10
340.5587199045
 20
203.9952570379
 30
0.0
 11
340.5587199045
 21
205.7952570379
 31
0.0
  0
LINE
  5
366
330
1F
100
AcDbEntity
  8
0
  6
Continuous
 62
     7
370
    30
100
AcDbLine
 10
340.5587199045
 20
205.7952570379
 30
0.0
 11
347.6587199045
 21
209.9952570379
 31
0.0
  0
LINE
  5
367
330
1F
100
AcDbEntity
  8
0
  6
Continuous
 62
     7
370
    30
100
AcDbLine
 10
251.9603580171
 20
46.7855120417
 30
0.0
 11
221.4603580171
 21
46.7855120417
 31
0.0
  0
ARC
  5
368
330
1F
100
AcDbEntity
  8
0
  6
Continuous
 62
     7
370
    30
100
AcDbCircle
 10
251.9603580171
 20
46.2855120417
 30
0.0
 40
0.5000000000000071
100
AcDbArc
 50
90.0
 51
180.0
  0
LINE
  5
369
330
1F
100
AcDbEntity
  8
0
  6
Continuous
 62
     7
370
    30
100
AcDbLine
 10
251.4603580171
 20
46.2855120417
 30
0.0
 11
251.4603580171
 21
45.2855120417
 31
0.0
  0
LINE
  5
36A
330
1F
100
AcDbEntity
  8
0
  6
Continuous
 62
     7
370
    30
100
AcDbLine
 10
251.4603580171
 20
45.2855120417
 30
0.0
 11
221.4603580171
 21
45.2855120417
 31
0.0
  0
LINE
  5
36B
330
1F
100
AcDbEntity
  8
0
  6
Continuous
 62
     7
370
    30
100
AcDbLine
 10
221.4603580171
 20
45.2855120417
 30
0.0
 11
215.4603580171
 21
45.2855120417
 31
0.0
  0
LINE
  5
36C
330
1F
100
AcDbEntity
  8
0
  6
Continuous
 62
     7
370
    30
100
AcDbLine
 10
215.4603580171
 20
46.7855120417
 30
0.0
 11
215.4603580171
 21
45.2855120417
 31
0.0
  0
LINE
  5
36D
330
1F
100
AcDbEntity
  8
0
  6
Continuous
 62
     7
370
    30
100
AcDbLine
 10
221.4603580171
 20
46.7855120417
 30
0.0
 11
215.4603580171
 21
46.7855120417
 31
0.0
  0
LINE
  5
36E
330
1F
100
AcDbEntity
  8
0
  6
Continuous
 62
     7
370
    30
100
AcDbLine
 10
293.4603580171
 20
45.2855120417
 30
0.0
 11
287.4603580171
 21
45.2855120417
 31
0.0
  0
LINE
  5
36F
330
1F
100
AcDbEntity
  8
0
  6
Continuous
 62
     7
370
    30
100
AcDbLine
 10
293.4603580171
 20
46.7855120417
 30
0.0
 11
287.4603580171
 21
46.7855120417
 31
0.0
  0
LINE
  5
370
330
1F
100
AcDbEntity
  8
0
  6
Continuous
 62
     7
370
    30
100
AcDbLine
 10
293.4603580171
 20
46.7855120417
 30
0.0
 11
293.4603580171
 21
45.2855120417
 31
0.0
  0
LINE
  5
371
330
1F
100
AcDbEntity
  8
0
  6
Continuous
 62
     7
370
    30
100
AcDbLine
 10
289.2603580171
 20
53.8855120417
 30
0.0
 11
287.4603580171
 21
53.8855120417
 31
0.0
  0
LINE
  5
372
330
1F
100
AcDbEntity
  8
0
  6
Continuous
 62
     7
370
    30
100
AcDbLine
 10
289.2603580171
 20
53.8855120417
 30
0.0
 11
293.4603580171
 21
46.7855120417
 31
0.0
  0
LINE
  5
373
330
1F
100
AcDbEntity
  8
0
  6
Continuous
 62
     7
370
    30
100
AcDbLine
 10
287.4603580171
 20
45.2855120417
 30
0.0
 11
257.4603580171
 21
45.2855120417
 31
0.0
  0
LINE
  5
374
330
1F
100
AcDbEntity
  8
0
  6
Continuous
 62
     7
370
    30
100
AcDbLine
 10
287.4603580171
 20
46.7855120417
 30
0.0
 11
256.9603580171
 21
46.7855120417
 31
0.0
  0
LINE
  5
375
330
1F
100
AcDbEntity
  8
0
  6
Continuous
 62
     7
370
    30
100
AcDbLine
 10
257.4603580171
 20
45.2855120417
 30
0.0
 11
257.4603580171
 21
46.2855120417
 31
0.0
  0
ARC
  5
376
330
1F
100
AcDbEntity
  8
0
  6
Continuous
 62
     7
370
    30
100
AcDbCircle
 10
256.9603580171
 20
46.2855120417
 30
0.0
 40
0.5000000000000071
100
AcDbArc
 50
0.0
 51
90.0
  0
LINE
  5
377
330
1F
100
AcDbEntity
  8
0
  6
Continuous
 62
     7
370
    30
100
AcDbLine
 10
287.4603580171
 20
53.8855120417
 30
0.0
 11
221.4603580171
 21
53.8855120417
 31
0.0
  0
LINE
  5
378
330
1F
100
AcDbEntity
  8
0
  6
Continuous
 62
     7
370
    30
100
AcDbLine
 10
256.9603580171
 20
46.7855120417
 30
0.0
 11
251.9603580171
 21
46.7855120417
 31
0.0
  0
LINE
  5
379
330
1F
100
AcDbEntity
  8
0
  6
Continuous
 62
     7
370
    30
100
AcDbLine
 10
219.6603580171
 20
53.8855120417
 30
0.0
 11
215.4603580171
 21
46.7855120417
 31
0.0
  0
LINE
  5
37A
330
1F
100
AcDbEntity
  8
0
  6
Continuous
 62
     7
370
    30
100
AcDbLine
 10
221.4603580171
 20
53.8855120417
 30
0.0
 11
219.6603580171
 21
53.8855120417
 31
0.0
  0
LINE
  5
37B
330
1F
100
AcDbEntity
  8
0
  6
Continuous
 62
     7
370
    30
100
AcDbLine
 10
257.4603580171
 20
45.2855120417
 30
0.0
 11
251.4603580171
 21
45.2855120417
 31
0.0
  0
LINE
  5
37C
330
1F
100
AcDbEntity
  8
0
  6
Continuous
 62
     7
370
    30
100
AcDbLine
 10
162.764841907
 20
81.9952570379
 30
0.0
 11
162.764841907
 21
87.9952570379
 31
0.0
  0
LINE
  5
37D
330
1F
100
AcDbEntity
  8
0
  6
Continuous
 62
     7
370
    30
100
AcDbLine
 10
162.764841907
 20
81.9952570379
 30
0.0
 11
161.264841907
 21
81.9952570379
 31
0.0
  0
LINE
  5
37E
330
1F
100
AcDbEntity
  8
0
  6
Continuous
 62
     7
370
    30
100
AcDbLine
 10
161.264841907
 20
81.9952570379
 30
0.0
 11
161.264841907
 21
87.9952570379
 31
0.0
  0
LINE
  5
37F
330
1F
100
AcDbEntity
  8
0
  6
Continuous
 62
     7
370
    30
100
AcDbLine
 10
162.764841907
 20
209.9952570379
 30
0.0
 11
162.764841907
 21
203.9952570379
 31
0.0
  0
LINE
  5
380
330
1F
100
AcDbEntity
  8
0
  6
Continuous
 62
     7
370
    30
100
AcDbLine
 10
162.764841907
 20
209.9952570379
 30
0.0
 11
161.264841907
 21
209.9952570379
 31
0.0
  0
LINE
  5
381
330
1F
100
AcDbEntity
  8
0
  6
Continuous
 62
     7
370
    30
100
AcDbLine
 10
161.264841907
 20
209.9952570379
 30
0.0
 11
161.264841907
 21
203.9952570379
 31
0.0
  0
LINE
  5
382
330
1F
100
AcDbEntity
  8
0
  6
Continuous
 62
     7
370
    30
100
AcDbLine
 10
169.864841907
 20
86.1952570379
 30
0.0
 11
169.864841907
 21
87.9952570379
 31
0.0
  0
LINE
  5
383
330
1F
100
AcDbEntity
  8
0
  6
Continuous
 62
     7
370
    30
100
AcDbLine
 10
169.864841907
 20
86.1952570379
 30
0.0
 11
162.764841907
 21
81.9952570379
 31
0.0
  0
LINE
  5
384
330
1F
100
AcDbEntity
  8
0
  6
Continuous
 62
     7
370
    30
100
AcDbLine
 10
162.764841907
 20
203.9952570379
 30
0.0
 11
162.764841907
 21
87.9952570379
 31
0.0
  0
LINE
  5
385
330
1F
100
AcDbEntity
  8
0
  6
Continuous
 62
     7
370
    30
100
AcDbLine
 10
161.264841907
 20
203.9952570379
 30
0.0
 11
161.264841907
 21
87.9952570379
 31
0.0
  0
LINE
  5
386
330
1F
100
AcDbEntity
  8
0
  6
Continuous
 62
     7
370
    30
100
AcDbLine
 10
169.864841907
 20
205.7952570379
 30
0.0
 11
169.864841907
 21
203.9952570379
 31
0.0
  0
LINE
  5
387
330
1F
100
AcDbEntity
  8
0
  6
Continuous
 62
     7
370
    30
100
AcDbLine
 10
169.864841907
 20
205.7952570379
 30
0.0
 11
162.764841907
 21
209.9952570379
 31
0.0
  0
LINE
  5
388
330
1F
100
AcDbEntity
  8
0
  6
Continuous
 62
     7
370
    30
100
AcDbLine
 10
169.864841907
 20
203.9952570379
 30
0.0
 11
169.864841907
 21
87.9952570379
 31
0.0
  0
ARC
  5
389
330
1F
100
AcDbEntity
  8
0
  6
Continuous
 62
     7
370
    30
100
AcDbCircle
 10
115.1340422277
 20
87.9952570379
 30
0.0
 40
4.200000000000017
100
AcDbArc
 50
270.0
 51
0.0
  0
LINE
  5
38A
330
1F
100
AcDbEntity
  8
0
  6
Continuous
 62
     7
370
    30
100
AcDbLine
 10
119.3340422277
 20
203.9952570379
 30
0.0
 11
119.3340422277
 21
87.9952570379
 31
0.0
  0
ARC
  5
38B
330
1F
100
AcDbEntity
  8
0
  6
Continuous
 62
     7
370
    30
100
AcDbCircle
 10
115.1340422277
 20
203.9952570379
 30
0.0
 40
4.199999999999989
100
AcDbArc
 50
0.0
 51
90.0
  0
LINE
  5
38C
330
1F
100
AcDbEntity
  8
0
  6
Continuous
 62
     7
370
    30
100
AcDbLine
 10
49.1340422277
 20
208.1952570379
 30
0.0
 11
115.1340422277
 21
208.1952570379
 31
0.0
  0
ARC
  5
38D
330
1F
100
AcDbEntity
  8
0
  6
Continuous
 62
     7
370
    30
100
AcDbCircle
 10
49.1340422277
 20
203.9952570379
 30
0.0
 40
4.200000000000003
100
AcDbArc
 50
90.0
 51
180.0
  0
LINE
  5
38E
330
1F
100
AcDbEntity
  8
0
  6
Continuous
 62
     7
370
    30
100
AcDbLine
 10
44.9340422277
 20
203.9952570379
 30
0.0
 11
44.9340422277
 21
87.9952570379
 31
0.0
  0
ARC
  5
38F
330
1F
100
AcDbEntity
  8
0
  6
Continuous
 62
     7
370
    30
100
AcDbCircle
 10
49.1340422277
 20
87.9952570379
 30
0.0
 40
4.200000000000017
100
AcDbArc
 50
180.0
 51
270.0
  0
LINE
  5
390
330
1F
100
AcDbEntity
  8
0
  6
Continuous
 62
     7
370
    30
100
AcDbLine
 10
49.1340422277
 20
83.7952570379
 30
0.0
 11
79.1340422277
 21
83.7952570379
 31
0.0
  0
LINE
  5
391
330
1F
100
AcDbEntity
  8
0
  6
Continuous
 62
     7
370
    30
100
AcDbLine
 10
79.1340422277
 20
83.7952570379
 30
0.0
 11
79.1340422277
 21
81.9952570379
 31
0.0
  0
LINE
  5
392
330
1F
100
AcDbEntity
  8
0
  6
Continuous
 62
     7
370
    30
100
AcDbLine
 10
49.1340422277
 20
81.9952570379
 30
0.0
 11
79.1340422277
 21
81.9952570379
 31
0.0
  0
ARC
  5
393
330
1F
100
AcDbEntity
  8
0
  6
Continuous
 62
     7
370
    30
100
AcDbCircle
 10
49.1340422277
 20
87.9952570379
 30
0.0
 40
6.000000000000014
100
AcDbArc
 50
180.0
 51
270.0
  0
LINE
  5
394
330
1F
100
AcDbEntity
  8
0
  6
Continuous
 62
     7
370
    30
100
AcDbLine
 10
43.1340422277
 20
203.9952570379
 30
0.0
 11
43.1340422277
 21
87.9952570379
 31
0.0
  0
ARC
  5
395
330
1F
100
AcDbEntity
  8
0
  6
Continuous
 62
     7
370
    30
100
AcDbCircle
 10
49.1340422277
 20
203.9952570379
 30
0.0
 40
6.000000000000007
100
AcDbArc
 50
90.0
 51
180.0
  0
LINE
  5
396
330
1F
100
AcDbEntity
  8
0
  6
Continuous
 62
     7
370
    30
100
AcDbLine
 10
49.1340422277
 20
209.9952570379
 30
0.0
 11
115.1340422277
 21
209.9952570379
 31
0.0
  0
ARC
  5
397
330
1F
100
AcDbEntity
  8
0
  6
Continuous
 62
     7
370
    30
100
AcDbCircle
 10
115.1340422277
 20
203.9952570379
 30
0.0
 40
6.0
100
AcDbArc
 50
0.0
 51
90.0
  0
LINE
  5
398
330
1F
100
AcDbEntity
  8
0
  6
Continuous
 62
     7
370
    30
100
AcDbLine
 10
121.1340422277
 20
203.9952570379
 30
0.0
 11
121.1340422277
 21
87.9952570379
 31
0.0
  0
ARC
  5
399
330
1F
100
AcDbEntity
  8
0
  6
Continuous
 62
     7
370
    30
100
AcDbCircle
 10
115.1340422277
 20
87.9952570379
 30
0.0
 40
6.000000000000014
100
AcDbArc
 50
270.0
 51
0.0
  0
LINE
  5
39A
330
1F
100
AcDbEntity
  8
0
  6
Continuous
 62
     7
370
    30
100
AcDbLine
 10
85.1340422277
 20
81.9952570379
 30
0.0
 11
115.1340422277
 21
81.9952570379
 31
0.0
  0
LINE
  5
39B
330
1F
100
AcDbEntity
  8
0
  6
Continuous
 62
     7
370
    30
100
AcDbLine
 10
85.1340422277
 20
83.7952570379
 30
0.0
 11
85.1340422277
 21
81.9952570379
 31
0.0
  0
LINE
  5
39C
330
1F
100
AcDbEntity
  8
0
  6
Continuous
 62
     7
370
    30
100
AcDbLine
 10
85.1340422277
 20
83.7952570379
 30
0.0
 11
115.1340422277
 21
83.7952570379
 31
0.0
  0
ARC
  5
39D
330
1F
100
AcDbEntity
  8
0
  6
Continuous
 62
     7
370
    30
100
AcDbCircle
 10
49.1340422277
 20
203.9952570379
 30
0.0
 40
2.300000000000011
100
AcDbArc
 50
90.0
 51
180.0
  0
LINE
  5
39E
330
1F
100
AcDbEntity
  8
0
  6
Continuous
 62
     7
370
    30
100
AcDbLine
 10
49.1340422277
 20
206.2952570379
 30
0.0
 11
115.1340422277
 21
206.2952570379
 31
0.0
  0
ARC
  5
39F
330
1F
100
AcDbEntity
  8
0
  6
Continuous
 62
     7
370
    30
100
AcDbCircle
 10
115.1340422277
 20
203.9952570379
 30
0.0
 40
2.300000000000011
100
AcDbArc
 50
0.0
 51
90.0
  0
LINE
  5
3A0
330
1F
100
AcDbEntity
  8
0
  6
Continuous
 62
     7
370
    30
100
AcDbLine
 10
117.4340422277
 20
203.9952570379
 30
0.0
 11
117.4340422277
 21
87.9952570379
 31
0.0
  0
ARC
  5
3A1
330
1F
100
AcDbEntity
  8
0
  6
Continuous
 62
     7
370
    30
100
AcDbCircle
 10
115.1340422277
 20
87.9952570379
 30
0.0
 40
2.300000000000011
100
AcDbArc
 50
270.0
 51
0.0
  0
LINE
  5
3A2
330
1F
100
AcDbEntity
  8
0
  6
Continuous
 62
     7
370
    30
100
AcDbLine
 10
49.1340422277
 20
85.6952570379
 30
0.0
 11
115.1340422277
 21
85.6952570379
 31
0.0
  0
ARC
  5
3A3
330
1F
100
AcDbEntity
  8
0
  6
Continuous
 62
     7
370
    30
100
AcDbCircle
 10
115.1340422277
 20
203.9952570379
 30
0.0
 40
0.5000000000000142
100
AcDbArc
 50
0.0
 51
90.0
  0
LINE
  5
3A4
330
1F
100
AcDbEntity
  8
0
  6
Continuous
 62
     7
370
    30
100
AcDbLine
 10
49.1340422277
 20
204.4952570379
 30
0.0
 11
115.1340422277
 21
204.4952570379
 31
0.0
  0
ARC
  5
3A5
330
1F
100
AcDbEntity
  8
0
  6
Continuous
 62
     7
370
    30
100
AcDbCircle
 10
49.1340422277
 20
203.9952570379
 30
0.0
 40
0.5000000000000071
100
AcDbArc
 50
90.0
 51
180.0
  0
LINE
  5
3A6
330
1F
100
AcDbEntity
  8
0
  6
Continuous
 62
     7
370
    30
100
AcDbLine
 10
48.6340422277
 20
203.9952570379
 30
0.0
 11
48.6340422277
 21
87.9952570379
 31
0.0
  0
ARC
  5
3A7
330
1F
100
AcDbEntity
  8
0
  6
Continuous
 62
     7
370
    30
100
AcDbCircle
 10
49.1340422277
 20
87.9952570379
 30
0.0
 40
0.5000000000000071
100
AcDbArc
 50
180.0
 51
270.0
  0
LINE
  5
3A8
330
1F
100
AcDbEntity
  8
0
  6
Continuous
 62
     7
370
    30
100
AcDbLine
 10
49.1340422277
 20
87.4952570379
 30
0.0
 11
115.1340422277
 21
87.4952570379
 31
0.0
  0
ARC
  5
3A9
330
1F
100
AcDbEntity
  8
0
  6
Continuous
 62
     7
370
    30
100
AcDbCircle
 10
115.1340422277
 20
87.9952570379
 30
0.0
 40
0.5000000000000142
100
AcDbArc
 50
270.0
 51
0.0
  0
LINE
  5
3AA
330
1F
100
AcDbEntity
  8
0
  6
Continuous
 62
     7
370
    30
100
AcDbLine
 10
115.6340422277
 20
203.9952570379
 30
0.0
 11
115.6340422277
 21
87.9952570379
 31
0.0
  0
LINE
  5
3AB
330
1F
100
AcDbEntity
  8
0
  6
Continuous
 62
     7
370
    30
100
AcDbLine
 10
46.8340422277
 20
203.9952570379
 30
0.0
 11
46.8340422277
 21
87.9952570379
 31
0.0
  0
ARC
  5
3AC
330
1F
100
AcDbEntity
  8
0
  6
Continuous
 62
     7
370
    30
100
AcDbCircle
 10
49.1340422277
 20
87.9952570379
 30
0.0
 40
2.300000000000011
100
AcDbArc
 50
180.0
 51
270.0
  0
ELLIPSE
  5
3AD
330
1F
100
AcDbEntity
  8
0
  6
Continuous
 62
     7
370
    30
100
AcDbEllipse
 10
79.6340422277
 20
83.7908396156
 30
0.0
 11
0.5
 21
0.0
 31
0.0
210
0.0
220
0.0
230
1.0
 40
0.5915492958
 41
1.570796326794868
 42
3.126657003552522
  0
LINE
  5
3AE
330
1F
100
AcDbEntity
  8
0
  6
Continuous
 62
     7
370
    30
100
AcDbLine
 10
79.6340422277
 20
81.9952570379
 30
0.0
 11
79.1340422277
 21
81.9952570379
 31
0.0
  0
ELLIPSE
  5
3AF
330
1F
100
AcDbEntity
  8
0
  6
Continuous
 62
     7
370
    30
100
AcDbEllipse
 10
84.6340422277
 20
83.7908396156
 30
0.0
 11
0.5
 21
0.0
 31
0.0
210
0.0
220
0.0
230
1.0
 40
0.5915492958
 41
0.0149356500372711
 42
1.570796326794897
  0
LINE
  5
3B0
330
1F
100
AcDbEntity
  8
0
  6
Continuous
 62
     7
370
    30
100
AcDbLine
 10
85.1340422277
 20
81.9952570379
 30
0.0
 11
84.6340422277
 21
81.9952570379
 31
0.0
  0
LINE
  5
3B1
330
1F
100
AcDbEntity
  8
0
  6
Continuous
 62
     7
370
    30
100
AcDbLine
 10
79.6340422277
 20
84.0866142634
 30
0.0
 11
84.6340422277
 21
84.0866142634
 31
0.0
  0
LINE
  5
3B2
330
1F
100
AcDbEntity
  8
0
  6
Continuous
 62
     7
370
    30
100
AcDbLine
 10
79.6340422277
 20
81.9952570379
 30
0.0
 11
84.6340422277
 21
81.9952570379
 31
0.0
  0
LINE
  5
3B3
330
1F
100
AcDbEntity
  8
0
  6
Continuous
 62
     7
370
    30
100
AcDbLine
 10
87.1340422277
 20
110.2952570379
 30
0.0
 11
77.1340422277
 21
110.2952570379
 31
0.0
  0
LINE
  5
3B4
330
1F
100
AcDbEntity
  8
0
  6
Continuous
 62
     7
370
    30
100
AcDbLine
 10
77.1340422277
 20
110.2952570379
 30
0.0
 11
77.1340422277
 21
109.5952570379
 31
0.0
  0
LINE
  5
3B5
330
1F
100
AcDbEntity
  8
0
  6
Continuous
 62
     7
370
    30
100
AcDbLine
 10
67.5840422277
 20
109.5952570379
 30
0.0
 11
77.1340422277
 21
109.5952570379
 31
0.0
  0
ARC
  5
3B6
330
1F
100
AcDbEntity
  8
0
  6
Continuous
 62
     7
370
    30
100
AcDbCircle
 10
67.5840422277
 20
111.0952570379
 30
0.0
 40
1.5
100
AcDbArc
 50
180.0
 51
270.0
  0
LINE
  5
3B7
330
1F
100
AcDbEntity
  8
0
  6
Continuous
 62
     7
370
    30
100
AcDbLine
 10
66.0840422277
 20
180.8952570379
 30
0.0
 11
66.0840422277
 21
111.0952570379
 31
0.0
  0
ARC
  5
3B8
330
1F
100
AcDbEntity
  8
0
  6
Continuous
 62
     7
370
    30
100
AcDbCircle
 10
67.5840422277
 20
180.8952570379
 30
0.0
 40
1.5
100
AcDbArc
 50
90.0
 51
180.0
  0
LINE
  5
3B9
330
1F
100
AcDbEntity
  8
0
  6
Continuous
 62
     7
370
    30
100
AcDbLine
 10
77.1340422277
 20
182.3952570379
 30
0.0
 11
67.5840422277
 21
182.3952570379
 31
0.0
  0
LINE
  5
3BA
330
1F
100
AcDbEntity
  8
0
  6
Continuous
 62
     7
370
    30
100
AcDbLine
 10
77.1340422277
 20
181.6952570379
 30
0.0
 11
77.1340422277
 21
182.3952570379
 31
0.0
  0
LINE
  5
3BB
330
1F
100
AcDbEntity
  8
0
  6
Continuous
 62
     7
370
    30
100
AcDbLine
 10
87.1340422277
 20
181.6952570379
 30
0.0
 11
77.1340422277
 21
181.6952570379
 31
0.0
  0
LINE
  5
3BC
330
1F
100
AcDbEntity
  8
0
  6
Continuous
 62
     7
370
    30
100
AcDbLine
 10
87.1340422277
 20
181.6952570379
 30
0.0
 11
87.1340422277
 21
182.3952570379
 31
0.0
  0
LINE
  5
3BD
330
1F
100
AcDbEntity
  8
0
  6
Continuous
 62
     7
370
    30
100
AcDbLine
 10
96.6840422277
 20
182.3952570379
 30
0.0
 11
87.1340422277
 21
182.3952570379
 31
0.0
  0
ARC
  5
3BE
330
1F
100
AcDbEntity
  8
0
  6
Continuous
 62
     7
370
    30
100
AcDbCircle
 10
96.6840422277
 20
180.8952570379
 30
0.0
 40
1.5
100
AcDbArc
 50
0.0
 51
90.0
  0
LINE
  5
3BF
330
1F
100
AcDbEntity
  8
0
  6
Continuous
 62
     7
370
    30
100
AcDbLine
 10
98.1840422277
 20
111.0952570379
 30
0.0
 11
98.1840422277
 21
180.8952570379
 31
0.0
  0
ARC
  5
3C0
330
1F
100
AcDbEntity
  8
0
  6
Continuous
 62
     7
370
    30
100
AcDbCircle
 10
96.6840422277
 20
111.0952570379
 30
0.0
 40
1.5
100
AcDbArc
 50
270.0
 51
0.0
  0
LINE
  5
3C1
330
1F
100
AcDbEntity
  8
0
  6
Continuous
 62
     7
370
    30
100
AcDbLine
 10
87.1340422277
 20
109.5952570379
 30
0.0
 11
96.6840422277
 21
109.5952570379
 31
0.0
  0
LINE
  5
3C2
330
1F
100
AcDbEntity
  8
0
  6
Continuous
 62
     7
370
    30
100
AcDbLine
 10
87.1340422277
 20
110.2952570379
 30
0.0
 11
87.1340422277
 21
109.5952570379
 31
0.0
  0
ARC
  5
3C3
330
1F
100
AcDbEntity
  8
0
  6
Continuous
 62
     7
370
    30
100
AcDbCircle
 10
96.0840422277
 20
111.6952570379
 30
0.0
 40
0.2999999999999972
100
AcDbArc
 50
270.0
 51
0.0
  0
LINE
  5
3C4
330
1F
100
AcDbEntity
  8
0
  6
Continuous
 62
     7
370
    30
100
AcDbLine
 10
96.3840422277
 20
111.6952570379
 30
0.0
 11
96.3840422277
 21
180.2952570379
 31
0.0
  0
ARC
  5
3C5
330
1F
100
AcDbEntity
  8
0
  6
Continuous
 62
     7
370
    30
100
AcDbCircle
 10
96.0840422277
 20
180.2952570379
 30
0.0
 40
0.3000000000000114
100
AcDbArc
 50
0.0
 51
90.0
  0
LINE
  5
3C6
330
1F
100
AcDbEntity
  8
0
  6
Continuous
 62
     7
370
    30
100
AcDbLine
 10
96.0840422277
 20
180.5952570379
 30
0.0
 11
68.1840422277
 21
180.5952570379
 31
0.0
  0
ARC
  5
3C7
330
1F
100
AcDbEntity
  8
0
  6
Continuous
 62
     7
370
    30
100
AcDbCircle
 10
68.1840422277
 20
180.2952570379
 30
0.0
 40
0.3000000000000114
100
AcDbArc
 50
90.0
 51
180.0
  0
LINE
  5
3C8
330
1F
100
AcDbEntity
  8
0
  6
Continuous
 62
     7
370
    30
100
AcDbLine
 10
67.8840422277
 20
180.2952570379
 30
0.0
 11
67.8840422277
 21
111.6952570379
 31
0.0
  0
ARC
  5
3C9
330
1F
100
AcDbEntity
  8
0
  6
Continuous
 62
     7
370
    30
100
AcDbCircle
 10
68.1840422277
 20
111.6952570379
 30
0.0
 40
0.2999999999999972
100
AcDbArc
 50
180.0
 51
270.0
  0
LINE
  5
3CA
330
1F
100
AcDbEntity
  8
0
  6
Continuous
 62
     7
370
    30
100
AcDbLine
 10
68.1840422277
 20
111.3952570379
 30
0.0
 11
96.0840422277
 21
111.3952570379
 31
0.0
  0
ARC
  5
3CB
330
1F
100
AcDbEntity
  8
0
  6
Continuous
 62
     7
370
    30
100
AcDbCircle
 10
66.0840422277
 20
175.9952570379
 30
0.0
 40
0.1999999999999886
100
AcDbArc
 50
90.0
 51
270.0
  0
ARC
  5
3CC
330
1F
100
AcDbEntity
  8
0
  6
Continuous
 62
     7
370
    30
100
AcDbCircle
 10
66.0840422277
 20
115.9952570379
 30
0.0
 40
0.2000000000000171
100
AcDbArc
 50
90.0
 51
270.0
  0
ARC
  5
3CD
330
1F
100
AcDbEntity
  8
0
  6
Continuous
 62
     7
370
    30
100
AcDbCircle
 10
72.1340422277
 20
109.5952570379
 30
0.0
 40
0.2000000000000028
100
AcDbArc
 50
180.0
 51
0.0
  0
ARC
  5
3CE
330
1F
100
AcDbEntity
  8
0
  6
Continuous
 62
     7
370
    30
100
AcDbCircle
 10
72.1340422277
 20
182.3952570379
 30
0.0
 40
0.2000000000000028
100
AcDbArc
 50
0.0
 51
180.0
  0
LINE
  5
3CF
330
1F
100
AcDbEntity
  8
0
  6
Continuous
 62
     7
370
    30
100
AcDbLine
 10
87.1340422277
 20
109.5952570379
 30
0.0
 11
84.6340422277
 21
109.5952570379
 31
0.0
  0
LINE
  5
3D0
330
1F
100
AcDbEntity
  8
0
  6
Continuous
 62
     7
370
    30
100
AcDbLine
 10
79.6340422277
 20
109.5952570379
 30
0.0
 11
77.1340422277
 21
109.5952570379
 31
0.0
  0
LINE
  5
3D1
330
1F
100
AcDbEntity
  8
0
  6
Continuous
 62
     7
370
    30
100
AcDbLine
 10
87.1340422277
 20
182.3952570379
 30
0.0
 11
84.6340422277
 21
182.3952570379
 31
0.0
  0
LINE
  5
3D2
330
1F
100
AcDbEntity
  8
0
  6
Continuous
 62
     7
370
    30
100
AcDbLine
 10
79.6340422277
 20
182.3952570379
 30
0.0
 11
77.1340422277
 21
182.3952570379
 31
0.0
  0
ARC
  5
3D3
330
1F
100
AcDbEntity
  8
0
  6
Continuous
 62
     7
370
    30
100
AcDbCircle
 10
92.1340422277
 20
109.5952570379
 30
0.0
 40
0.2000000000000028
100
AcDbArc
 50
180.0
 51
0.0
  0
ARC
  5
3D4
330
1F
100
AcDbEntity
  8
0
  6
Continuous
 62
     7
370
    30
100
AcDbCircle
 10
92.1340422277
 20
182.3952570379
 30
0.0
 40
0.2000000000000028
100
AcDbArc
 50
0.0
 51
180.0
  0
ARC
  5
3D5
330
1F
100
AcDbEntity
  8
0
  6
Continuous
 62
     7
370
    30
100
AcDbCircle
 10
98.1840422277
 20
115.9952570379
 30
0.0
 40
0.2000000000000171
100
AcDbArc
 50
270.0
 51
90.0
  0
ARC
  5
3D6
330
1F
100
AcDbEntity
  8
0
  6
Continuous
 62
     7
370
    30
100
AcDbCircle
 10
98.1840422277
 20
175.9952570379
 30
0.0
 40
0.2000000000000171
100
AcDbArc
 50
270.0
 51
90.0
  0
LINE
  5
3D7
330
1F
100
AcDbEntity
  8
0
  6
Continuous
 62
     7
370
    30
100
AcDbLine
 10
72.2680168239
 20
184.4952570379
 30
0.0
 11
92.0000676314
 21
184.4952570379
 31
0.0
  0
LINE
  5
3D8
330
1F
100
AcDbEntity
  8
0
  6
Continuous
 62
     7
370
    30
100
AcDbLine
 10
63.9840422277
 20
136.1292316342
 30
0.0
 11
63.9840422277
 21
155.8612824417
 31
0.0
  0
LINE
  5
3D9
330
1F
100
AcDbEntity
  8
0
  6
Continuous
 62
     7
370
    30
100
AcDbLine
 10
92.0000676314
 20
107.4952570379
 30
0.0
 11
72.2680168239
 21
107.4952570379
 31
0.0
  0
LINE
  5
3DA
330
1F
100
AcDbEntity
  8
0
  6
Continuous
 62
     7
370
    30
100
AcDbLine
 10
100.2840422277
 20
155.8612824417
 30
0.0
 11
100.2840422277
 21
136.1292316342
 31
0.0
  0
LINE
  5
3DB
330
1F
100
AcDbEntity
  8
0
  6
Continuous
 62
     7
370
    30
100
AcDbLine
 10
48.8340422277
 20
89.1952570379
 30
0.0
 11
48.8340422277
 21
113.4952570379
 31
0.0
  0
LINE
  5
3DC
330
1F
100
AcDbEntity
  8
0
  6
Continuous
 62
     7
370
    30
100
AcDbLine
 10
48.8340422277
 20
118.4952570379
 30
0.0
 11
48.8340422277
 21
173.4952570379
 31
0.0
  0
LINE
  5
3DD
330
1F
100
AcDbEntity
  8
0
  6
Continuous
 62
     7
370
    30
100
AcDbLine
 10
48.8340422277
 20
178.4952570379
 30
0.0
 11
48.8340422277
 21
202.7952570379
 31
0.0
  0
ARC
  5
3DE
330
1F
100
AcDbEntity
  8
0
  6
Continuous
 62
     7
370
    30
100
AcDbCircle
 10
50.3340422277
 20
202.7952570379
 30
0.0
 40
1.5
100
AcDbArc
 50
90.0
 51
180.0
  0
LINE
  5
3DF
330
1F
100
AcDbEntity
  8
0
  6
Continuous
 62
     7
370
    30
100
AcDbLine
 10
50.3340422277
 20
204.2952570379
 30
0.0
 11
59.6340422277
 21
204.2952570379
 31
0.0
  0
LINE
  5
3E0
330
1F
100
AcDbEntity
  8
0
  6
Continuous
 62
     7
370
    30
100
AcDbLine
 10
64.6340422277
 20
204.2952570379
 30
0.0
 11
99.6340422277
 21
204.2952570379
 31
0.0
  0
LINE
  5
3E1
330
1F
100
AcDbEntity
  8
0
  6
Continuous
 62
     7
370
    30
100
AcDbLine
 10
104.6340422277
 20
204.2952570379
 30
0.0
 11
113.9340422277
 21
204.2952570379
 31
0.0
  0
ARC
  5
3E2
330
1F
100
AcDbEntity
  8
0
  6
Continuous
 62
     7
370
    30
100
AcDbCircle
 10
113.9340422277
 20
202.7952570379
 30
0.0
 40
1.500000000000014
100
AcDbArc
 50
0.0
 51
90.0
  0
LINE
  5
3E3
330
1F
100
AcDbEntity
  8
0
  6
Continuous
 62
     7
370
    30
100
AcDbLine
 10
115.4340422277
 20
202.7952570379
 30
0.0
 11
115.4340422277
 21
178.4952570379
 31
0.0
  0
LINE
  5
3E4
330
1F
100
AcDbEntity
  8
0
  6
Continuous
 62
     7
370
    30
100
AcDbLine
 10
115.4340422277
 20
173.4952570379
 30
0.0
 11
115.4340422277
 21
118.4952570379
 31
0.0
  0
LINE
  5
3E5
330
1F
100
AcDbEntity
  8
0
  6
Continuous
 62
     7
370
    30
100
AcDbLine
 10
115.4340422277
 20
113.4952570379
 30
0.0
 11
115.4340422277
 21
89.1952570379
 31
0.0
  0
ARC
  5
3E6
330
1F
100
AcDbEntity
  8
0
  6
Continuous
 62
     7
370
    30
100
AcDbCircle
 10
113.9340422277
 20
89.1952570379
 30
0.0
 40
1.500000000000014
100
AcDbArc
 50
270.0
 51
0.0
  0
LINE
  5
3E7
330
1F
100
AcDbEntity
  8
0
  6
Continuous
 62
     7
370
    30
100
AcDbLine
 10
113.9340422277
 20
87.6952570379
 30
0.0
 11
104.6340422277
 21
87.6952570379
 31
0.0
  0
LINE
  5
3E8
330
1F
100
AcDbEntity
  8
0
  6
Continuous
 62
     7
370
    30
100
AcDbLine
 10
99.6340422277
 20
87.6952570379
 30
0.0
 11
64.6340422277
 21
87.6952570379
 31
0.0
  0
LINE
  5
3E9
330
1F
100
AcDbEntity
  8
0
  6
Continuous
 62
     7
370
    30
100
AcDbLine
 10
59.6340422277
 20
87.6952570379
 30
0.0
 11
50.3340422277
 21
87.6952570379
 31
0.0
  0
ARC
  5
3EA
330
1F
100
AcDbEntity
  8
0
  6
Continuous
 62
     7
370
    30
100
AcDbCircle
 10
50.3340422277
 20
89.1952570379
 30
0.0
 40
1.5
100
AcDbArc
 50
180.0
 51
270.0
  0
CIRCLE
  5
3EB
330
1F
100
AcDbEntity
  8
0
  6
Continuous
 62
     7
370
    30
100
AcDbCircle
 10
82.1340422277
 20
95.4952570379
 30
0.0
 40
4.000000000000014
  0
CIRCLE
  5
3EC
330
1F
100
AcDbEntity
  8
0
  6
Continuous
 62
     7
370
    30
100
AcDbCircle
 10
82.1340422277
 20
196.4952570379
 30
0.0
 40
4.000000000000014
  0
CIRCLE
  5
3ED
330
1F
100
AcDbEntity
  8
0
  6
Continuous
 62
     7
370
    30
100
AcDbCircle
 10
82.1340422277
 20
196.4952570379
 30
0.0
 40
1.750000000000014
  0
CIRCLE
  5
3EE
330
1F
100
AcDbEntity
  8
0
  6
Continuous
 62
     7
370
    30
100
AcDbCircle
 10
82.1340422277
 20
95.4952570379
 30
0.0
 40
1.750000000000014
  0
LINE
  5
3EF
330
1F
100
AcDbEntity
  8
0
  6
Continuous
 62
     7
370
    30
100
AcDbLine
 10
50.4340422277
 20
204.1952570379
 30
0.0
 11
113.8340422277
 21
204.1952570379
 31
0.0
  0
ARC
  5
3F0
330
1F
100
AcDbEntity
  8
0
  6
Continuous
 62
     7
370
    30
100
AcDbCircle
 10
113.8340422277
 20
202.6952570379
 30
0.0
 40
1.5
100
AcDbArc
 50
0.0
 51
90.0
  0
LINE
  5
3F1
330
1F
100
AcDbEntity
  8
0
  6
Continuous
 62
     7
370
    30
100
AcDbLine
 10
115.3340422277
 20
202.6952570379
 30
0.0
 11
115.3340422277
 21
89.2952570379
 31
0.0
  0
ARC
  5
3F2
330
1F
100
AcDbEntity
  8
0
  6
Continuous
 62
     7
370
    30
100
AcDbCircle
 10
113.8340422277
 20
89.2952570379
 30
0.0
 40
1.5
100
AcDbArc
 50
270.0
 51
0.0
  0
LINE
  5
3F3
330
1F
100
AcDbEntity
  8
0
  6
Continuous
 62
     7
370
    30
100
AcDbLine
 10
113.8340422277
 20
87.7952570379
 30
0.0
 11
50.4340422277
 21
87.7952570379
 31
0.0
  0
ARC
  5
3F4
330
1F
100
AcDbEntity
  8
0
  6
Continuous
 62
     7
370
    30
100
AcDbCircle
 10
113.3340422277
 20
202.1952570379
 30
0.0
 40
0.5
100
AcDbArc
 50
360.0
 51
90.0
  0
LINE
  5
3F5
330
1F
100
AcDbEntity
  8
0
  6
Continuous
 62
     7
370
    30
100
AcDbLine
 10
113.3340422277
 20
202.6952570379
 30
0.0
 11
50.9340422277
 21
202.6952570379
 31
0.0
  0
ARC
  5
3F6
330
1F
100
AcDbEntity
  8
0
  6
Continuous
 62
     7
370
    30
100
AcDbCircle
 10
50.9340422277
 20
202.1952570379
 30
0.0
 40
0.5
100
AcDbArc
 50
90.0
 51
180.0
  0
LINE
  5
3F7
330
1F
100
AcDbEntity
  8
0
  6
Continuous
 62
     7
370
    30
100
AcDbLine
 10
50.4340422277
 20
202.1952570379
 30
0.0
 11
50.4340422277
 21
89.7952570379
 31
0.0
  0
ARC
  5
3F8
330
1F
100
AcDbEntity
  8
0
  6
Continuous
 62
     7
370
    30
100
AcDbCircle
 10
50.9340422277
 20
89.7952570379
 30
0.0
 40
0.5
100
AcDbArc
 50
180.0
 51
270.0
  0
LINE
  5
3F9
330
1F
100
AcDbEntity
  8
0
  6
Continuous
 62
     7
370
    30
100
AcDbLine
 10
50.9340422277
 20
89.2952570379
 30
0.0
 11
113.3340422277
 21
89.2952570379
 31
0.0
  0
ARC
  5
3FA
330
1F
100
AcDbEntity
  8
0
  6
Continuous
 62
     7
370
    30
100
AcDbCircle
 10
113.3340422277
 20
89.7952570379
 30
0.0
 40
0.5
100
AcDbArc
 50
270.0
 51
0.0
  0
LINE
  5
3FB
330
1F
100
AcDbEntity
  8
0
  6
Continuous
 62
     7
370
    30
100
AcDbLine
 10
113.8340422277
 20
89.7952570379
 30
0.0
 11
113.8340422277
 21
202.1952570379
 31
0.0
  0
ARC
  5
3FC
330
1F
100
AcDbEntity
  8
0
  6
Continuous
 62
     7
370
    30
100
AcDbCircle
 10
50.4340422277
 20
89.2952570379
 30
0.0
 40
1.500000000000007
100
AcDbArc
 50
180.0
 51
270.0
  0
LINE
  5
3FD
330
1F
100
AcDbEntity
  8
0
  6
Continuous
 62
     7
370
    30
100
AcDbLine
 10
48.9340422277
 20
89.2952570379
 30
0.0
 11
48.9340422277
 21
202.6952570379
 31
0.0
  0
ARC
  5
3FE
330
1F
100
AcDbEntity
  8
0
  6
Continuous
 62
     7
370
    30
100
AcDbCircle
 10
50.4340422277
 20
202.6952570379
 30
0.0
 40
1.500000000000007
100
AcDbArc
 50
90.0
 51
180.0
  0
LINE
  5
3FF
330
1F
100
AcDbEntity
  8
0
  6
Continuous
 62
     7
370
    30
100
AcDbLine
 10
48.6340422277
 20
173.4952570379
 30
0.0
 11
48.9340422277
 21
173.4952570379
 31
0.0
  0
LINE
  5
400
330
1F
100
AcDbEntity
  8
0
  6
Continuous
 62
     7
370
    30
100
AcDbLine
 10
48.6340422277
 20
178.4952570379
 30
0.0
 11
48.9340422277
 21
178.4952570379
 31
0.0
  0
LINE
  5
401
330
1F
100
AcDbEntity
  8
0
  6
Continuous
 62
     7
370
    30
100
AcDbLine
 10
48.6340422277
 20
118.4952570379
 30
0.0
 11
48.9340422277
 21
118.4952570379
 31
0.0
  0
LINE
  5
402
330
1F
100
AcDbEntity
  8
0
  6
Continuous
 62
     7
370
    30
100
AcDbLine
 10
48.6340422277
 20
113.4952570379
 30
0.0
 11
48.9340422277
 21
113.4952570379
 31
0.0
  0
LINE
  5
403
330
1F
100
AcDbEntity
  8
0
  6
Continuous
 62
     7
370
    30
100
AcDbLine
 10
64.6340422277
 20
204.1952570379
 30
0.0
 11
64.6340422277
 21
204.4952570379
 31
0.0
  0
LINE
  5
404
330
1F
100
AcDbEntity
  8
0
  6
Continuous
 62
     7
370
    30
100
AcDbLine
 10
59.6340422277
 20
204.1952570379
 30
0.0
 11
59.6340422277
 21
204.4952570379
 31
0.0
  0
LINE
  5
405
330
1F
100
AcDbEntity
  8
0
  6
Continuous
 62
     7
370
    30
100
AcDbLine
 10
64.6340422277
 20
87.7952570379
 30
0.0
 11
64.6340422277
 21
87.4952570379
 31
0.0
  0
LINE
  5
406
330
1F
100
AcDbEntity
  8
0
  6
Continuous
 62
     7
370
    30
100
AcDbLine
 10
59.6340422277
 20
87.7952570379
 30
0.0
 11
59.6340422277
 21
87.4952570379
 31
0.0
  0
LINE
  5
407
330
1F
100
AcDbEntity
  8
0
  6
Continuous
 62
     7
370
    30
100
AcDbLine
 10
104.6340422277
 20
204.1952570379
 30
0.0
 11
104.6340422277
 21
204.4952570379
 31
0.0
  0
LINE
  5
408
330
1F
100
AcDbEntity
  8
0
  6
Continuous
 62
     7
370
    30
100
AcDbLine
 10
99.6340422277
 20
204.1952570379
 30
0.0
 11
99.6340422277
 21
204.4952570379
 31
0.0
  0
LINE
  5
409
330
1F
100
AcDbEntity
  8
0
  6
Continuous
 62
     7
370
    30
100
AcDbLine
 10
104.6340422277
 20
87.7952570379
 30
0.0
 11
104.6340422277
 21
87.4952570379
 31
0.0
  0
LINE
  5
40A
330
1F
100
AcDbEntity
  8
0
  6
Continuous
 62
     7
370
    30
100
AcDbLine
 10
99.6340422277
 20
87.7952570379
 30
0.0
 11
99.6340422277
 21
87.4952570379
 31
0.0
  0
LINE
  5
40B
330
1F
100
AcDbEntity
  8
0
  6
Continuous
 62
     7
370
    30
100
AcDbLine
 10
115.6340422277
 20
113.4952570379
 30
0.0
 11
115.3340422277
 21
113.4952570379
 31
0.0
  0
LINE
  5
40C
330
1F
100
AcDbEntity
  8
0
  6
Continuous
 62
     7
370
    30
100
AcDbLine
 10
115.6340422277
 20
118.4952570379
 30
0.0
 11
115.3340422277
 21
118.4952570379
 31
0.0
  0
LINE
  5
40D
330
1F
100
AcDbEntity
  8
0
  6
Continuous
 62
     7
370
    30
100
AcDbLine
 10
115.6340422277
 20
173.4952570379
 30
0.0
 11
115.3340422277
 21
173.4952570379
 31
0.0
  0
LINE
  5
40E
330
1F
100
AcDbEntity
  8
0
  6
Continuous
 62
     7
370
    30
100
AcDbLine
 10
115.6340422277
 20
178.4952570379
 30
0.0
 11
115.3340422277
 21
178.4952570379
 31
0.0
  0
CIRCLE
  5
40F
330
1F
100
AcDbEntity
  8
0
  6
Continuous
 62
     7
370
    30
100
AcDbCircle
 10
82.1340422277
 20
95.4952570379
 30
0.0
 40
4.25
  0
CIRCLE
  5
410
330
1F
100
AcDbEntity
  8
0
  6
Continuous
 62
     7
370
    30
100
AcDbCircle
 10
82.1340422277
 20
196.4952570379
 30
0.0
 40
4.25
  0
ARC
  5
411
330
1F
100
AcDbEntity
  8
0
  6
Continuous
 62
     7
370
    30
100
AcDbCircle
 10
51.4340422277
 20
101.9952570379
 30
0.0
 40
0.9999999999999929
100
AcDbArc
 50
180.0
 51
270.0
  0
ARC
  5
412
330
1F
100
AcDbEntity
  8
0
  6
Continuous
 62
     7
370
    30
100
AcDbCircle
 10
51.4340422277
 20
161.9952570379
 30
0.0
 40
1.0
100
AcDbArc
 50
180.0
 51
270.0
  0
ARC
  5
413
330
1F
100
AcDbEntity
  8
0
  6
Continuous
 62
     7
370
    30
100
AcDbCircle
 10
51.4340422277
 20
129.9952570379
 30
0.0
 40
0.9999999999999929
100
AcDbArc
 50
90.0
 51
180.0
  0
ARC
  5
414
330
1F
100
AcDbEntity
  8
0
  6
Continuous
 62
     7
370
    30
100
AcDbCircle
 10
51.4340422277
 20
189.9952570379
 30
0.0
 40
1.0
100
AcDbArc
 50
90.0
 51
180.0
  0
ARC
  5
415
330
1F
100
AcDbEntity
  8
0
  6
Continuous
 62
     7
370
    30
100
AcDbCircle
 10
53.1340422277
 20
201.6952570379
 30
0.0
 40
1.0
100
AcDbArc
 50
90.0
 51
180.0
  0
ARC
  5
416
330
1F
100
AcDbEntity
  8
0
  6
Continuous
 62
     7
370
    30
100
AcDbCircle
 10
53.1340422277
 20
90.2952570379
 30
0.0
 40
1.0
100
AcDbArc
 50
180.0
 51
270.0
  0
ARC
  5
417
330
1F
100
AcDbEntity
  8
0
  6
Continuous
 62
     7
370
    30
100
AcDbCircle
 10
93.1340422277
 20
201.6952570379
 30
0.0
 40
1.000000000000014
100
AcDbArc
 50
90.0
 51
180.0
  0
ARC
  5
418
330
1F
100
AcDbEntity
  8
0
  6
Continuous
 62
     7
370
    30
100
AcDbCircle
 10
71.1340422277
 20
201.6952570379
 30
0.0
 40
1.0
100
AcDbArc
 50
0.0
 51
90.0
  0
ARC
  5
419
330
1F
100
AcDbEntity
  8
0
  6
Continuous
 62
     7
370
    30
100
AcDbCircle
 10
93.1340422277
 20
90.2952570379
 30
0.0
 40
1.000000000000014
100
AcDbArc
 50
180.0
 51
270.0
  0
ARC
  5
41A
330
1F
100
AcDbEntity
  8
0
  6
Continuous
 62
     7
370
    30
100
AcDbCircle
 10
71.1340422277
 20
90.2952570379
 30
0.0
 40
1.0
100
AcDbArc
 50
270.0
 51
0.0
  0
ARC
  5
41B
330
1F
100
AcDbEntity
  8
0
  6
Continuous
 62
     7
370
    30
100
AcDbCircle
 10
111.1340422277
 20
90.2952570379
 30
0.0
 40
1.0
100
AcDbArc
 50
270.0
 51
0.0
  0
ARC
  5
41C
330
1F
100
AcDbEntity
  8
0
  6
Continuous
 62
     7
370
    30
100
AcDbCircle
 10
111.1340422277
 20
201.6952570379
 30
0.0
 40
1.0
100
AcDbArc
 50
0.0
 51
90.0
  0
ARC
  5
41D
330
1F
100
AcDbEntity
  8
0
  6
Continuous
 62
     7
370
    30
100
AcDbCircle
 10
112.8340422277
 20
101.9952570379
 30
0.0
 40
1.0
100
AcDbArc
 50
270.0
 51
0.0
  0
ARC
  5
41E
330
1F
100
AcDbEntity
  8
0
  6
Continuous
 62
     7
370
    30
100
AcDbCircle
 10
112.8340422277
 20
189.9952570379
 30
0.0
 40
1.0
100
AcDbArc
 50
0.0
 51
90.0
  0
ARC
  5
41F
330
1F
100
AcDbEntity
  8
0
  6
Continuous
 62
     7
370
    30
100
AcDbCircle
 10
112.8340422277
 20
129.9952570379
 30
0.0
 40
1.0
100
AcDbArc
 50
0.0
 51
90.0
  0
ARC
  5
420
330
1F
100
AcDbEntity
  8
0
  6
Continuous
 62
     7
370
    30
100
AcDbCircle
 10
112.8340422277
 20
161.9952570379
 30
0.0
 40
1.0
100
AcDbArc
 50
270.0
 51
0.0
  0
ARC
  5
421
330
1F
100
AcDbEntity
  8
0
  6
Continuous
 62
     7
370
    30
100
AcDbCircle
 10
67.5840422277
 20
111.0952570379
 30
0.0
 40
1.800000000000011
100
AcDbArc
 50
180.0
 51
270.0
  0
LINE
  5
422
330
1F
100
AcDbEntity
  8
0
  6
Continuous
 62
     7
370
    30
100
AcDbLine
 10
67.5840422277
 20
109.2952570379
 30
0.0
 11
96.6840422277
 21
109.2952570379
 31
0.0
  0
ARC
  5
423
330
1F
100
AcDbEntity
  8
0
  6
Continuous
 62
     7
370
    30
100
AcDbCircle
 10
96.6840422277
 20
111.0952570379
 30
0.0
 40
1.799999999999997
100
AcDbArc
 50
270.0
 51
0.0
  0
LINE
  5
424
330
1F
100
AcDbEntity
  8
0
  6
Continuous
 62
     7
370
    30
100
AcDbLine
 10
98.4840422277
 20
111.0952570379
 30
0.0
 11
98.4840422277
 21
180.8952570379
 31
0.0
  0
ARC
  5
425
330
1F
100
AcDbEntity
  8
0
  6
Continuous
 62
     7
370
    30
100
AcDbCircle
 10
96.6840422277
 20
180.8952570379
 30
0.0
 40
1.800000000000011
100
AcDbArc
 50
0.0
 51
90.0
  0
LINE
  5
426
330
1F
100
AcDbEntity
  8
0
  6
Continuous
 62
     7
370
    30
100
AcDbLine
 10
96.6840422277
 20
182.6952570379
 30
0.0
 11
67.5840422277
 21
182.6952570379
 31
0.0
  0
ARC
  5
427
330
1F
100
AcDbEntity
  8
0
  6
Continuous
 62
     7
370
    30
100
AcDbCircle
 10
67.5840422277
 20
180.8952570379
 30
0.0
 40
1.800000000000011
100
AcDbArc
 50
90.0
 51
180.0
  0
LINE
  5
428
330
1F
100
AcDbEntity
  8
0
  6
Continuous
 62
     7
370
    30
100
AcDbLine
 10
65.7840422277
 20
180.8952570379
 30
0.0
 11
65.7840422277
 21
111.0952570379
 31
0.0
  0
LINE
  5
429
330
1F
100
AcDbEntity
  8
0
  6
Continuous
 62
     7
370
    30
100
AcDbLine
 10
111.1340422277
 20
91.2952570379
 30
0.0
 11
93.1340422277
 21
91.2952570379
 31
0.0
  0
LINE
  5
42A
330
1F
100
AcDbEntity
  8
0
  6
Continuous
 62
     7
370
    30
100
AcDbLine
 10
71.1340422277
 20
91.2952570379
 30
0.0
 11
53.1340422277
 21
91.2952570379
 31
0.0
  0
LINE
  5
42B
330
1F
100
AcDbEntity
  8
0
  6
Continuous
 62
     7
370
    30
100
AcDbLine
 10
52.4340422277
 20
101.9952570379
 30
0.0
 11
52.4340422277
 21
129.9952570379
 31
0.0
  0
LINE
  5
42C
330
1F
100
AcDbEntity
  8
0
  6
Continuous
 62
     7
370
    30
100
AcDbLine
 10
52.4340422277
 20
161.9952570379
 30
0.0
 11
52.4340422277
 21
189.9952570379
 31
0.0
  0
LINE
  5
42D
330
1F
100
AcDbEntity
  8
0
  6
Continuous
 62
     7
370
    30
100
AcDbLine
 10
53.1340422277
 20
200.6952570379
 30
0.0
 11
71.1340422277
 21
200.6952570379
 31
0.0
  0
LINE
  5
42E
330
1F
100
AcDbEntity
  8
0
  6
Continuous
 62
     7
370
    30
100
AcDbLine
 10
93.1340422277
 20
200.6952570379
 30
0.0
 11
111.1340422277
 21
200.6952570379
 31
0.0
  0
LINE
  5
42F
330
1F
100
AcDbEntity
  8
0
  6
Continuous
 62
     7
370
    30
100
AcDbLine
 10
111.8340422277
 20
189.9952570379
 30
0.0
 11
111.8340422277
 21
161.9952570379
 31
0.0
  0
LINE
  5
430
330
1F
100
AcDbEntity
  8
0
  6
Continuous
 62
     7
370
    30
100
AcDbLine
 10
111.8340422277
 20
129.9952570379
 30
0.0
 11
111.8340422277
 21
101.9952570379
 31
0.0
  0
LINE
  5
431
330
1F
100
AcDbEntity
  8
0
  6
Continuous
 62
     7
370
    30
100
AcDbLine
 10
99.7840422277
 20
154.9952570379
 30
0.0
 11
99.7840422277
 21
136.9952570379
 31
0.0
  0
ARC
  5
432
330
1F
100
AcDbEntity
  8
0
  6
Continuous
 62
     7
370
    30
100
AcDbCircle
 10
100.7840422277
 20
136.9952570379
 30
0.0
 40
1.0
100
AcDbArc
 50
180.0
 51
0.0
  0
LINE
  5
433
330
1F
100
AcDbEntity
  8
0
  6
Continuous
 62
     7
370
    30
100
AcDbLine
 10
101.7840422277
 20
136.9952570379
 30
0.0
 11
101.7840422277
 21
154.9952570379
 31
0.0
  0
ARC
  5
434
330
1F
100
AcDbEntity
  8
0
  6
Continuous
 62
     7
370
    30
100
AcDbCircle
 10
100.7840422277
 20
154.9952570379
 30
0.0
 40
1.0
100
AcDbArc
 50
0.0
 51
180.0
  0
LINE
  5
435
330
1F
100
AcDbEntity
  8
0
  6
Continuous
 62
     7
370
    30
100
AcDbLine
 10
91.1340422277
 20
185.9952570379
 30
0.0
 11
73.1340422277
 21
185.9952570379
 31
0.0
  0
ARC
  5
436
330
1F
100
AcDbEntity
  8
0
  6
Continuous
 62
     7
370
    30
100
AcDbCircle
 10
73.1340422277
 20
184.9952570379
 30
0.0
 40
1.0
100
AcDbArc
 50
90.0
 51
270.0
  0
LINE
  5
437
330
1F
100
AcDbEntity
  8
0
  6
Continuous
 62
     7
370
    30
100
AcDbLine
 10
73.1340422277
 20
183.9952570379
 30
0.0
 11
91.1340422277
 21
183.9952570379
 31
0.0
  0
ARC
  5
438
330
1F
100
AcDbEntity
  8
0
  6
Continuous
 62
     7
370
    30
100
AcDbCircle
 10
91.1340422277
 20
184.9952570379
 30
0.0
 40
1.0
100
AcDbArc
 50
270.0
 51
90.0
  0
LINE
  5
439
330
1F
100
AcDbEntity
  8
0
  6
Continuous
 62
     7
370
    30
100
AcDbLine
 10
91.1340422277
 20
107.9952570379
 30
0.0
 11
73.1340422277
 21
107.9952570379
 31
0.0
  0
ARC
  5
43A
330
1F
100
AcDbEntity
  8
0
  6
Continuous
 62
     7
370
    30
100
AcDbCircle
 10
73.1340422277
 20
106.9952570379
 30
0.0
 40
1.0
100
AcDbArc
 50
90.0
 51
270.0
  0
LINE
  5
43B
330
1F
100
AcDbEntity
  8
0
  6
Continuous
 62
     7
370
    30
100
AcDbLine
 10
73.1340422277
 20
105.9952570379
 30
0.0
 11
91.1340422277
 21
105.9952570379
 31
0.0
  0
ARC
  5
43C
330
1F
100
AcDbEntity
  8
0
  6
Continuous
 62
     7
370
    30
100
AcDbCircle
 10
91.1340422277
 20
106.9952570379
 30
0.0
 40
1.0
100
AcDbArc
 50
270.0
 51
90.0
  0
LINE
  5
43D
330
1F
100
AcDbEntity
  8
0
  6
Continuous
 62
     7
370
    30
100
AcDbLine
 10
62.4840422277
 20
154.9952570379
 30
0.0
 11
62.4840422277
 21
136.9952570379
 31
0.0
  0
ARC
  5
43E
330
1F
100
AcDbEntity
  8
0
  6
Continuous
 62
     7
370
    30
100
AcDbCircle
 10
63.4840422277
 20
136.9952570379
 30
0.0
 40
1.0
100
AcDbArc
 50
180.0
 51
0.0
  0
LINE
  5
43F
330
1F
100
AcDbEntity
  8
0
  6
Continuous
 62
     7
370
    30
100
AcDbLine
 10
64.4840422277
 20
136.9952570379
 30
0.0
 11
64.4840422277
 21
154.9952570379
 31
0.0
  0
ARC
  5
440
330
1F
100
AcDbEntity
  8
0
  6
Continuous
 62
     7
370
    30
100
AcDbCircle
 10
63.4840422277
 20
154.9952570379
 30
0.0
 40
1.0
100
AcDbArc
 50
0.0
 51
180.0
  0
ARC
  5
441
330
1F
100
AcDbEntity
  8
0
  6
Continuous
 62
     7
370
    30
100
AcDbCircle
 10
112.8340422277
 20
189.9952570379
 30
0.0
 40
1.0
100
AcDbArc
 50
90.0
 51
180.0
  0
ARC
  5
442
330
1F
100
AcDbEntity
  8
0
  6
Continuous
 62
     7
370
    30
100
AcDbCircle
 10
112.8340422277
 20
101.9952570379
 30
0.0
 40
1.0
100
AcDbArc
 50
180.0
 51
270.0
  0
ARC
  5
443
330
1F
100
AcDbEntity
  8
0
  6
Continuous
 62
     7
370
    30
100
AcDbCircle
 10
112.8340422277
 20
129.9952570379
 30
0.0
 40
1.0
100
AcDbArc
 50
90.0
 51
180.0
  0
ARC
  5
444
330
1F
100
AcDbEntity
  8
0
  6
Continuous
 62
     7
370
    30
100
AcDbCircle
 10
112.8340422277
 20
161.9952570379
 30
0.0
 40
1.0
100
AcDbArc
 50
180.0
 51
270.0
  0
ARC
  5
445
330
1F
100
AcDbEntity
  8
0
  6
Continuous
 62
     7
370
    30
100
AcDbCircle
 10
111.1340422277
 20
201.6952570379
 30
0.0
 40
1.000000000000014
100
AcDbArc
 50
270.0
 51
0.0
  0
ARC
  5
446
330
1F
100
AcDbEntity
  8
0
  6
Continuous
 62
     7
370
    30
100
AcDbCircle
 10
111.1340422277
 20
90.2952570379
 30
0.0
 40
1.000000000000014
100
AcDbArc
 50
0.0
 51
90.0
  0
ARC
  5
447
330
1F
100
AcDbEntity
  8
0
  6
Continuous
 62
     7
370
    30
100
AcDbCircle
 10
93.1340422277
 20
90.2952570379
 30
0.0
 40
1.000000000000014
100
AcDbArc
 50
90.0
 51
180.0
  0
ARC
  5
448
330
1F
100
AcDbEntity
  8
0
  6
Continuous
 62
     7
370
    30
100
AcDbCircle
 10
93.1340422277
 20
201.6952570379
 30
0.0
 40
1.000000000000014
100
AcDbArc
 50
180.0
 51
270.0
  0
ARC
  5
449
330
1F
100
AcDbEntity
  8
0
  6
Continuous
 62
     7
370
    30
100
AcDbCircle
 10
71.1340422277
 20
201.6952570379
 30
0.0
 40
1.0
100
AcDbArc
 50
270.0
 51
0.0
  0
ARC
  5
44A
330
1F
100
AcDbEntity
  8
0
  6
Continuous
 62
     7
370
    30
100
AcDbCircle
 10
71.1340422277
 20
90.2952570379
 30
0.0
 40
1.0
100
AcDbArc
 50
0.0
 51
90.0
  0
ARC
  5
44B
330
1F
100
AcDbEntity
  8
0
  6
Continuous
 62
     7
370
    30
100
AcDbCircle
 10
53.1340422277
 20
90.2952570379
 30
0.0
 40
1.0
100
AcDbArc
 50
90.0
 51
180.0
  0
ARC
  5
44C
330
1F
100
AcDbEntity
  8
0
  6
Continuous
 62
     7
370
    30
100
AcDbCircle
 10
53.1340422277
 20
201.6952570379
 30
0.0
 40
1.0
100
AcDbArc
 50
180.0
 51
270.0
  0
ARC
  5
44D
330
1F
100
AcDbEntity
  8
0
  6
Continuous
 62
     7
370
    30
100
AcDbCircle
 10
51.4340422277
 20
161.9952570379
 30
0.0
 40
1.0
100
AcDbArc
 50
270.0
 51
0.0
  0
ARC
  5
44E
330
1F
100
AcDbEntity
  8
0
  6
Continuous
 62
     7
370
    30
100
AcDbCircle
 10
51.4340422277
 20
101.9952570379
 30
0.0
 40
0.9999999999999929
100
AcDbArc
 50
270.0
 51
0.0
  0
ARC
  5
44F
330
1F
100
AcDbEntity
  8
0
  6
Continuous
 62
     7
370
    30
100
AcDbCircle
 10
51.4340422277
 20
129.9952570379
 30
0.0
 40
0.9999999999999929
100
AcDbArc
 50
0.0
 51
90.0
  0
ARC
  5
450
330
1F
100
AcDbEntity
  8
0
  6
Continuous
 62
     7
370
    30
100
AcDbCircle
 10
51.4340422277
 20
189.9952570379
 30
0.0
 40
1.0
100
AcDbArc
 50
0.0
 51
90.0
  0
LINE
  5
451
330
1F
100
AcDbEntity
  8
0
  6
Continuous
 62
     7
370
    30
100
AcDbLine
 10
66.0840422277
 20
143.4952570379
 30
0.0
 11
65.7840422277
 21
143.4952570379
 31
0.0
  0
LINE
  5
452
330
1F
100
AcDbEntity
  8
0
  6
Continuous
 62
     7
370
    30
100
AcDbLine
 10
66.0840422277
 20
148.4952570379
 30
0.0
 11
65.7840422277
 21
148.4952570379
 31
0.0
  0
LINE
  5
453
330
1F
100
AcDbEntity
  8
0
  6
Continuous
 62
     7
370
    30
100
AcDbLine
 10
79.6340422277
 20
181.7952570379
 30
0.0
 11
84.6340422277
 21
181.7952570379
 31
0.0
  0
LINE
  5
454
330
1F
100
AcDbEntity
  8
0
  6
Continuous
 62
     7
370
    30
100
AcDbLine
 10
79.6340422277
 20
181.7952570379
 30
0.0
 11
79.6340422277
 21
182.6952570379
 31
0.0
  0
LINE
  5
455
330
1F
100
AcDbEntity
  8
0
  6
Continuous
 62
     7
370
    30
100
AcDbLine
 10
84.6340422277
 20
181.7952570379
 30
0.0
 11
84.6340422277
 21
182.6952570379
 31
0.0
  0
LINE
  5
456
330
1F
100
AcDbEntity
  8
0
  6
Continuous
 62
     7
370
    30
100
AcDbLine
 10
79.6340422277
 20
110.1952570379
 30
0.0
 11
79.6340422277
 21
109.2952570379
 31
0.0
  0
LINE
  5
457
330
1F
100
AcDbEntity
  8
0
  6
Continuous
 62
     7
370
    30
100
AcDbLine
 10
79.6340422277
 20
110.1952570379
 30
0.0
 11
84.6340422277
 21
110.1952570379
 31
0.0
  0
LINE
  5
458
330
1F
100
AcDbEntity
  8
0
  6
Continuous
 62
     7
370
    30
100
AcDbLine
 10
84.6340422277
 20
110.1952570379
 30
0.0
 11
84.6340422277
 21
109.2952570379
 31
0.0
  0
LINE
  5
459
330
1F
100
AcDbEntity
  8
0
  6
Continuous
 62
     7
370
    30
100
AcDbLine
 10
98.1840422277
 20
148.4952570379
 30
0.0
 11
98.4840422277
 21
148.4952570379
 31
0.0
  0
LINE
  5
45A
330
1F
100
AcDbEntity
  8
0
  6
Continuous
 62
     7
370
    30
100
AcDbLine
 10
98.1840422277
 20
143.4952570379
 30
0.0
 11
98.4840422277
 21
143.4952570379
 31
0.0
  0
ENDSEC
  0
SECTION
  2
OBJECTS
  0
DICTIONARY
  5
C
330
0
100
AcDbDictionary
281
     1
  3
ACAD_GROUP
350
D
  3
ACAD_LAYOUT
350
1A
  3
ACAD_MLINESTYLE
350
17
  3
ACAD_PLOTSETTINGS
350
19
  3
ACAD_PLOTSTYLENAME
350
E
  3
ACAD_SCALELIST
350
47
  0
DICTIONARY
  5
D
102
{ACAD_REACTORS
330
C
102
}
330
C
100
AcDbDictionary
281
     1
  0
DICTIONARY
  5
1A
102
{ACAD_REACTORS
330
C
102
}
330
C
100
AcDbDictionary
281
     1
  3
Layout1
350
1E
  3
Layout2
350
26
  3
Model
350
22
  0
DICTIONARY
  5
17
102
{ACAD_REACTORS
330
C
102
}
330
C
100
AcDbDictionary
281
     1
  3
Standard
350
18
  0
DICTIONARY
  5
19
102
{ACAD_REACTORS
330
C
102
}
330
C
100
AcDbDictionary
281
     1
  0
ACDBDICTIONARYWDFLT
  5
E
102
{ACAD_REACTORS
330
C
102
}
330
C
100
AcDbDictionary
281
     1
  3
Normal
350
F
100
AcDbDictionaryWithDefault
340
F
  0
DICTIONARY
  5
47
102
{ACAD_REACTORS
330
C
102
}
330
C
100
AcDbDictionary
281
     1
  3
A0
350
48
  3
A1
350
49
  3
A2
350
4A
  3
A3
350
4B
  3
A4
350
4C
  3
A5
350
4D
  3
A6
350
4E
  3
A7
350
4F
  3
A8
350
50
  3
A9
350
51
  3
B0
350
52
  3
B1
350
53
  3
B2
350
54
  3
B3
350
55
  3
B4
350
56
  3
B5
350
57
  3
B6
350
58
  3
B7
350
59
  3
B8
350
5A
  3
B9
350
5B
  3
C0
350
5C
  3
C1
350
5D
  3
C2
350
5E
  3
C3
350
5F
  3
C4
350
60
  3
C5
350
61
  3
C6
350
62
  3
C7
350
63
  3
C8
350
64
  3
C9
350
65
  3
D0
350
66
  3
D1
350
67
  3
D2
350
68
  0
LAYOUT
  5
1E
102
{ACAD_REACTORS
330
1A
102
}
330
1A
100
AcDbPlotSettings
  1

  2
none_device
  4

  6

 40
0.0
 41
0.0
 42
0.0
 43
0.0
 44
0.0
 45
0.0
 46
0.0
 47
0.0
 48
0.0
 49
0.0
140
0.0
141
0.0
142
1.0
143
1.0
 70
   688
 72
     1
 73
     0
 74
     5
  7

 75
    16
147
1.0
148
0.0
149
0.0
100
AcDbLayout
  1
Layout1
 70
     1
 71
     1
 10
0.0
 20
0.0
 11
420.0
 21
297.0
 12
0.0
 22
0.0
 32
0.0
 14
1.0000000000E+20
 24
1.0000000000E+20
 34
1.0000000000E+20
 15
-1.0000000000E+20
 25
-1.0000000000E+20
 35
-1.0000000000E+20
146
0.0
 13
0.0
 23
0.0
 33
0.0
 16
1.0
 26
0.0
 36
0.0
 17
0.0
 27
1.0
 37
0.0
 76
     0
330
1B
  0
LAYOUT
  5
26
102
{ACAD_REACTORS
330
1A
102
}
330
1A
100
AcDbPlotSettings
  1

  2
none_device
  4

  6

 40
0.0
 41
0.0
 42
0.0
 43
0.0
 44
0.0
 45
0.0
 46
0.0
 47
0.0
 48
0.0
 49
0.0
140
0.0
141
0.0
142
1.0
143
1.0
 70
   688
 72
     1
 73
     0
 74
     5
  7

 75
    16
147
1.0
148
0.0
149
0.0
100
AcDbLayout
  1
Layout2
 70
     1
 71
     2
 10
0.0
 20
0.0
 11
0.0
 21
0.0
 12
0.0
 22
0.0
 32
0.0
 14
0.0
 24
0.0
 34
0.0
 15
0.0
 25
0.0
 35
0.0
146
0.0
 13
0.0
 23
0.0
 33
0.0
 16
1.0
 26
0.0
 36
0.0
 17
0.0
 27
1.0
 37
0.0
 76
     0
330
23
  0
LAYOUT
  5
22
102
{ACAD_REACTORS
330
1A
102
}
330
1A
100
AcDbPlotSettings
  1

  2
none_device
  4
Letter_(8.50_x_11.00_Inches)
  6

 40
6.35
 41
6.35
 42
6.35000508
 43
6.35000508
 44
215.9
 45
279.4
 46
0.0
 47
0.0
 48
0.0
 49
0.0
140
0.0
141
0.0
142
1.0
143
1.0
 70
  1712
 72
     1
 73
     0
 74
     0
  7

 75
     0
147
1.0
148
0.0
149
0.0
100
AcDbLayout
  1
Model
 70
     1
 71
     0
 10
0.0
 20
0.0
 11
420.0
 21
297.0
 12
0.0
 22
0.0
 32
0.0
 14
0.0
 24
0.0
 34
0.0
 15
420.0
 25
297.0
 35
0.0
146
0.0
 13
0.0
 23
0.0
 33
0.0
 16
1.0
 26
0.0
 36
0.0
 17
0.0
 27
1.0
 37
0.0
 76
     0
330
1F
331
29
  0
MLINESTYLE
  5
18
102
{ACAD_REACTORS
330
17
102
}
330
17
100
AcDbMlineStyle
  2
Standard
 70
     0
  3

 62
   256
 51
90.0
 52
90.0
 71
     2
 49
0.5
 62
   256
  6
BYLAYER
 49
-0.5
 62
   256
  6
BYLAYER
  0
ACDBPLACEHOLDER
  5
F
102
{ACAD_REACTORS
330
E
102
}
330
E
  0
SCALE
  5
48
102
{ACAD_REACTORS
330
47
102
}
330
47
100
AcDbScale
 70
     0
300
1:1
140
1.0
141
1.0
290
     1
  0
SCALE
  5
49
102
{ACAD_REACTORS
330
47
102
}
330
47
100
AcDbScale
 70
     0
300
1:2
140
1.0
141
2.0
290
     0
  0
SCALE
  5
4A
102
{ACAD_REACTORS
330
47
102
}
330
47
100
AcDbScale
 70
     0
300
1:4
140
1.0
141
4.0
290
     0
  0
SCALE
  5
4B
102
{ACAD_REACTORS
330
47
102
}
330
47
100
AcDbScale
 70
     0
300
1:5
140
1.0
141
5.0
290
     0
  0
SCALE
  5
4C
102
{ACAD_REACTORS
330
47
102
}
330
47
100
AcDbScale
 70
     0
300
1:8
140
1.0
141
8.0
290
     0
  0
SCALE
  5
4D
102
{ACAD_REACTORS
330
47
102
}
330
47
100
AcDbScale
 70
     0
300
1:10
140
1.0
141
10.0
290
     0
  0
SCALE
  5
4E
102
{ACAD_REACTORS
330
47
102
}
330
47
100
AcDbScale
 70
     0
300
1:16
140
1.0
141
16.0
290
     0
  0
SCALE
  5
4F
102
{ACAD_REACTORS
330
47
102
}
330
47
100
AcDbScale
 70
     0
300
1:20
140
1.0
141
20.0
290
     0
  0
SCALE
  5
50
102
{ACAD_REACTORS
330
47
102
}
330
47
100
AcDbScale
 70
     0
300
1:30
140
1.0
141
30.0
290
     0
  0
SCALE
  5
51
102
{ACAD_REACTORS
330
47
102
}
330
47
100
AcDbScale
 70
     0
300
1:40
140
1.0
141
40.0
290
     0
  0
SCALE
  5
52
102
{ACAD_REACTORS
330
47
102
}
330
47
100
AcDbScale
 70
     0
300
1:50
140
1.0
141
50.0
290
     0
  0
SCALE
  5
53
102
{ACAD_REACTORS
330
47
102
}
330
47
100
AcDbScale
 70
     0
300
1:100
140
1.0
141
100.0
290
     0
  0
SCALE
  5
54
102
{ACAD_REACTORS
330
47
102
}
330
47
100
AcDbScale
 70
     0
300
2:1
140
2.0
141
1.0
290
     0
  0
SCALE
  5
55
102
{ACAD_REACTORS
330
47
102
}
330
47
100
AcDbScale
 70
     0
300
4:1
140
4.0
141
1.0
290
     0
  0
SCALE
  5
56
102
{ACAD_REACTORS
330
47
102
}
330
47
100
AcDbScale
 70
     0
300
8:1
140
8.0
141
1.0
290
     0
  0
SCALE
  5
57
102
{ACAD_REACTORS
330
47
102
}
330
47
100
AcDbScale
 70
     0
300
10:1
140
10.0
141
1.0
290
     0
  0
SCALE
  5
58
102
{ACAD_REACTORS
330
47
102
}
330
47
100
AcDbScale
 70
     0
300
100:1
140
100.0
141
1.0
290
     0
  0
SCALE
  5
59
102
{ACAD_REACTORS
330
47
102
}
330
47
100
AcDbScale
 70
     0
300
1/128" = 1'-0"
140
0.0078125
141
12.0
290
     0
  0
SCALE
  5
5A
102
{ACAD_REACTORS
330
47
102
}
330
47
100
AcDbScale
 70
     0
300
1/64" = 1'-0"
140
0.015625
141
12.0
290
     0
  0
SCALE
  5
5B
102
{ACAD_REACTORS
330
47
102
}
330
47
100
AcDbScale
 70
     0
300
1/32" = 1'-0"
140
0.03125
141
12.0
290
     0
  0
SCALE
  5
5C
102
{ACAD_REACTORS
330
47
102
}
330
47
100
AcDbScale
 70
     0
300
1/16" = 1'-0"
140
0.0625
141
12.0
290
     0
  0
SCALE
  5
5D
102
{ACAD_REACTORS
330
47
102
}
330
47
100
AcDbScale
 70
     0
300
3/32" = 1'-0"
140
0.09375
141
12.0
290
     0
  0
SCALE
  5
5E
102
{ACAD_REACTORS
330
47
102
}
330
47
100
AcDbScale
 70
     0
300
1/8" = 1'-0"
140
0.125
141
12.0
290
     0
  0
SCALE
  5
5F
102
{ACAD_REACTORS
330
47
102
}
330
47
100
AcDbScale
 70
     0
300
3/16" = 1'-0"
140
0.1875
141
12.0
290
     0
  0
SCALE
  5
60
102
{ACAD_REACTORS
330
47
102
}
330
47
100
AcDbScale
 70
     0
300
1/4" = 1'-0"
140
0.25
141
12.0
290
     0
  0
SCALE
  5
61
102
{ACAD_REACTORS
330
47
102
}
330
47
100
AcDbScale
 70
     0
300
3/8" = 1'-0"
140
0.375
141
12.0
290
     0
  0
SCALE
  5
62
102
{ACAD_REACTORS
330
47
102
}
330
47
100
AcDbScale
 70
     0
300
1/2" = 1'-0"
140
0.5
141
12.0
290
     0
  0
SCALE
  5
63
102
{ACAD_REACTORS
330
47
102
}
330
47
100
AcDbScale
 70
     0
300
3/4" = 1'-0"
140
0.75
141
12.0
290
     0
  0
SCALE
  5
64
102
{ACAD_REACTORS
330
47
102
}
330
47
100
AcDbScale
 70
     0
300
1" = 1'-0"
140
1.0
141
12.0
290
     0
  0
SCALE
  5
65
102
{ACAD_REACTORS
330
47
102
}
330
47
100
AcDbScale
 70
     0
300
1-1/2" = 1'-0"
140
1.5
141
12.0
290
     0
  0
SCALE
  5
66
102
{ACAD_REACTORS
330
47
102
}
330
47
100
AcDbScale
 70
     0
300
3" = 1'-0"
140
3.0
141
12.0
290
     0
  0
SCALE
  5
67
102
{ACAD_REACTORS
330
47
102
}
330
47
100
AcDbScale
 70
     0
300
6" = 1'-0"
140
6.0
141
12.0
290
     0
  0
SCALE
  5
68
102
{ACAD_REACTORS
330
47
102
}
330
47
100
AcDbScale
 70
     0
300
1'-0" = 1'-0"
140
12.0
141
12.0
290
     0
  0
ENDSEC
  0
EOF
