  0
SECTION
  2
HEADER
  9
$ACADVER
  1
AC1015
  9
$ACADMAINTVER
 70
     6
  9
$DWGCODEPAGE
  3
DOS932
  9
$INSBASE
 10
0.0
 20
0.0
 30
0.0
  9
$EXTMIN
 10
0.0
 20
0.0
 30
0.0
  9
$EXTMAX
 10
420.0
 20
297.0
 30
0.0
  9
$LIMMIN
 10
0.0
 20
0.0
  9
$LIMMAX
 10
420.0
 20
297.0
  9
$ORTHOMODE
 70
     0
  9
$REGENMODE
 70
     1
  9
$FILLMODE
 70
     1
  9
$QTEXTMODE
 70
     0
  9
$MIRRTEXT
 70
     1
  9
$LTSCALE
 40
1.0
  9
$ATTMODE
 70
     1
  9
$TEXTSIZE
 40
3.8805555556
  9
$TRACEWID
 40
1.0
  9
$TEXTSTYLE
  7
Standard
  9
$CLAYER
  8
0
  9
$CELTYPE
  6
ByLayer
  9
$CECOLOR
 62
   256
  9
$CELTSCALE
 40
1.0
  9
$DISPSILH
 70
     0
  9
$DIMSCALE
 40
1.0
  9
$DIMASZ
 40
3.0
  9
$DIMEXO
 40
0.0
  9
$DIMDLI
 40
3.75
  9
$DIMRND
 40
0.0
  9
$DIMDLE
 40
0.0
  9
$DIMEXE
 40
1.0
  9
$DIMTP
 40
0.0
  9
$DIMTM
 40
0.0
  9
$DIMTXT
 40
3.5277777778
  9
$DIMCEN
 40
2.5
  9
$DIMTSZ
 40
0.0
  9
$DIMTOL
 70
     0
  9
$DIMLIM
 70
     0
  9
$DIMTIH
 70
     1
  9
$DIMTOH
 70
     1
  9
$DIMSE1
 70
     0
  9
$DIMSE2
 70
     0
  9
$DIMTAD
 70
     1
  9
$DIMZIN
 70
     0
  9
$DIMBLK
  1

  9
$DIMASO
 70
     1
  9
$DIMSHO
 70
     1
  9
$DIMPOST
  1

  9
$DIMAPOST
  1

  9
$DIMALT
 70
     0
  9
$DIMALTD
 70
     3
  9
$DIMALTF
 40
0.0393700787
  9
$DIMLFAC
 40
1.0
  9
$DIMTOFL
 70
     1
  9
$DIMTVP
 40
0.0
  9
$DIMTIX
 70
     0
  9
$DIMSOXD
 70
     0
  9
$DIMSAH
 70
     0
  9
$DIMBLK1
  1

  9
$DIMBLK2
  1

  9
$DIMSTYLE
  2
ISO-25
  9
$DIMCLRD
 70
     0
  9
$DIMCLRE
 70
     0
  9
$DIMCLRT
 70
     0
  9
$DIMTFAC
 40
1.0
  9
$DIMGAP
 40
1.0
  9
$DIMJUST
 70
     0
  9
$DIMSD1
 70
     0
  9
$DIMSD2
 70
     0
  9
$DIMTOLJ
 70
     0
  9
$DIMTZIN
 70
     0
  9
$DIMALTZ
 70
     0
  9
$DIMALTTZ
 70
     0
  9
$DIMUPT
 70
     0
  9
$DIMDEC
 70
     2
  9
$DIMTDEC
 70
     2
  9
$DIMALTU
 70
     2
  9
$DIMALTTD
 70
     3
  9
$DIMTXSTY
  7
Standard
  9
$DIMAUNIT
 70
     0
  9
$DIMADEC
 70
     2
  9
$DIMALTRND
 40
0.0
  9
$DIMAZIN
 70
     0
  9
$DIMDSEP
 70
    44
  9
$DIMATFIT
 70
     3
  9
$DIMFRAC
 70
     0
  9
$DIMLDRBLK
  1

  9
$DIMLUNIT
 70
     2
  9
$DIMLWD
 70
    -2
  9
$DIMLWE
 70
    -2
  9
$DIMTMOVE
 70
     0
  9
$LUNITS
 70
     2
  9
$LUPREC
 70
     2
  9
$SKETCHINC
 40
1.0
  9
$FILLETRAD
 40
10.0
  9
$AUNITS
 70
     0
  9
$AUPREC
 70
     2
  9
$MENU
  1
.
  9
$ELEVATION
 40
0.0
  9
$PELEVATION
 40
0.0
  9
$THICKNESS
 40
0.0
  9
$LIMCHECK
 70
     0
  9
$CHAMFERA
 40
0.0
  9
$CHAMFERB
 40
0.0
  9
$CHAMFERC
 40
0.0
  9
$CHAMFERD
 40
0.0
  9
$SKPOLY
 70
     0
  9
$TDCREATE
 40
2458620.826079514
  9
$TDUCREATE
 40
2458620.451079514
  9
$TDUPDATE
 40
2458620.826081262
  9
$TDUUPDATE
 40
2458620.451081262
  9
$TDINDWG
 40
0.0000000116
  9
$TDUSRTIMER
 40
0.0000000116
  9
$USRTIMER
 70
     1
  9
$ANGBASE
 50
0.0
  9
$ANGDIR
 70
     0
  9
$PDMODE
 70
     0
  9
$PDSIZE
 40
-1.0
  9
$PLINEWID
 40
0.0
  9
$SPLFRAME
 70
     0
  9
$SPLINETYPE
 70
     6
  9
$SPLINESEGS
 70
     8
  9
$HANDSEED
  5
29D
  9
$SURFTAB1
 70
     6
  9
$SURFTAB2
 70
     6
  9
$SURFTYPE
 70
     6
  9
$SURFU
 70
     6
  9
$SURFV
 70
     6
  9
$UCSBASE
  2

  9
$UCSNAME
  2

  9
$UCSORG
 10
0.0
 20
0.0
 30
0.0
  9
$UCSXDIR
 10
1.0
 20
0.0
 30
0.0
  9
$UCSYDIR
 10
0.0
 20
1.0
 30
0.0
  9
$UCSORTHOREF
  2

  9
$UCSORTHOVIEW
 70
     0
  9
$UCSORGTOP
 10
0.0
 20
0.0
 30
0.0
  9
$UCSORGBOTTOM
 10
0.0
 20
0.0
 30
0.0
  9
$UCSORGLEFT
 10
0.0
 20
0.0
 30
0.0
  9
$UCSORGRIGHT
 10
0.0
 20
0.0
 30
0.0
  9
$UCSORGFRONT
 10
0.0
 20
0.0
 30
0.0
  9
$UCSORGBACK
 10
0.0
 20
0.0
 30
0.0
  9
$PUCSBASE
  2

  9
$PUCSNAME
  2

  9
$PUCSORG
 10
0.0
 20
0.0
 30
0.0
  9
$PUCSXDIR
 10
1.0
 20
0.0
 30
0.0
  9
$PUCSYDIR
 10
0.0
 20
1.0
 30
0.0
  9
$PUCSORTHOREF
  2

  9
$PUCSORTHOVIEW
 70
     0
  9
$PUCSORGTOP
 10
0.0
 20
0.0
 30
0.0
  9
$PUCSORGBOTTOM
 10
0.0
 20
0.0
 30
0.0
  9
$PUCSORGLEFT
 10
0.0
 20
0.0
 30
0.0
  9
$PUCSORGRIGHT
 10
0.0
 20
0.0
 30
0.0
  9
$PUCSORGFRONT
 10
0.0
 20
0.0
 30
0.0
  9
$PUCSORGBACK
 10
0.0
 20
0.0
 30
0.0
  9
$USERI1
 70
     0
  9
$USERI2
 70
     0
  9
$USERI3
 70
     0
  9
$USERI4
 70
     0
  9
$USERI5
 70
     0
  9
$USERR1
 40
0.0
  9
$USERR2
 40
0.0
  9
$USERR3
 40
0.0
  9
$USERR4
 40
0.0
  9
$USERR5
 40
0.0
  9
$WORLDVIEW
 70
     1
  9
$SHADEDGE
 70
     3
  9
$SHADEDIF
 70
    70
  9
$TILEMODE
 70
     1
  9
$MAXACTVP
 70
    64
  9
$PINSBASE
 10
0.0
 20
0.0
 30
0.0
  9
$PLIMCHECK
 70
     0
  9
$PEXTMIN
 10
1.0000000000E+20
 20
1.0000000000E+20
 30
1.0000000000E+20
  9
$PEXTMAX
 10
-1.0000000000E+20
 20
-1.0000000000E+20
 30
-1.0000000000E+20
  9
$PLIMMIN
 10
0.0
 20
0.0
  9
$PLIMMAX
 10
420.0
 20
297.0
  9
$UNITMODE
 70
     0
  9
$VISRETAIN
 70
     1
  9
$PLINEGEN
 70
     0
  9
$PSLTSCALE
 70
     1
  9
$TREEDEPTH
 70
  3020
  9
$CMLSTYLE
  2
Standard
  9
$CMLJUST
 70
     0
  9
$CMLSCALE
 40
20.0
  9
$PROXYGRAPHICS
 70
     1
  9
$MEASUREMENT
 70
     1
  9
$CELWEIGHT
370
    -1
  9
$ENDCAPS
280
     0
  9
$JOINSTYLE
280
     0
  9
$LWDISPLAY
290
     1
  9
$INSUNITS
 70
     4
  9
$HYPERLINKBASE
  1

  9
$STYLESHEET
  1

  9
$XEDIT
290
     1
  9
$CEPSNTYPE
380
     0
  9
$PSTYLEMODE
290
     1
  9
$FINGERPRINTGUID
  2
{FD816FFA-21EA-429E-ADEB-88D52EB80F00}
  9
$VERSIONGUID
  2
{FAEB1C32-E019-11D5-929B-00C0DF256EC4}
  9
$EXTNAMES
290
     1
  9
$PSVPSCALE
 40
0.0
  9
$OLESTARTUP
290
     0
  0
ENDSEC
  0
SECTION
  2
CLASSES
  0
CLASS
  1
ACDBDICTIONARYWDFLT
  2
AcDbDictionaryWithDefault
  3
ObjectDBX Classes
 90
        0
280
     0
281
     0
  0
CLASS
  1
VISUALSTYLE
  2
AcDbVisualStyle
  3
ObjectDBX Classes
 90
     4095
280
     0
281
     0
  0
CLASS
  1
MATERIAL
  2
AcDbMaterial
  3
ObjectDBX Classes
 90
     1153
280
     0
281
     0
  0
CLASS
  1
SCALE
  2
AcDbScale
  3
ObjectDBX Classes
 90
     1153
280
     0
281
     0
  0
CLASS
  1
TABLESTYLE
  2
AcDbTableStyle
  3
ObjectDBX Classes
 90
     4095
280
     0
281
     0
  0
CLASS
  1
MLEADERSTYLE
  2
AcDbMLeaderStyle
  3
ACDB_MLEADERSTYLE_CLASS
 90
     4095
280
     0
281
     0
  0
CLASS
  1
SUN
  2
AcDbSun
  3
SCENEOE
 90
     1153
280
     0
281
     0
  0
CLASS
  1
ACDBPLACEHOLDER
  2
AcDbPlaceHolder
  3
ObjectDBX Classes
 90
        0
280
     0
281
     0
  0
CLASS
  1
LAYOUT
  2
AcDbLayout
  3
ObjectDBX Classes
 90
        0
280
     0
281
     0
  0
ENDSEC
  0
SECTION
  2
TABLES
  0
TABLE
  2
VPORT
  5
8
330
0
100
AcDbSymbolTable
 70
     1
  0
VPORT
  5
29
330
8
100
AcDbSymbolTableRecord
100
AcDbViewportTableRecord
  2
*Active
 70
     0
 10
0.0
 20
0.0
 11
1.0
 21
1.0
 12
210.0
 22
148.5
 13
0.0
 23
0.0
 14
10.0
 24
10.0
 15
10.0
 25
10.0
 16
0.0
 26
0.0
 36
1.0
 17
0.0
 27
0.0
 37
0.0
 40
297.0
 41
1.4141414141
 42
50.0
 43
0.0
 44
0.0
 50
0.0
 51
0.0
 71
     0
 72
  2000
 73
     1
 74
     3
 75
     0
 76
     0
 77
     0
 78
     0
281
     0
 65
     1
110
0.0
120
0.0
130
0.0
111
1.0
121
0.0
131
0.0
112
0.0
122
1.0
132
0.0
 79
     0
146
0.0
  0
ENDTAB
  0
TABLE
  2
LTYPE
  5
5
330
0
100
AcDbSymbolTable
 70
     6
  0
LTYPE
  5
14
330
5
100
AcDbSymbolTableRecord
100
AcDbLinetypeTableRecord
  2
ByBlock
 70
     0
  3

 72
    65
 73
     0
 40
0.0
  0
LTYPE
  5
15
330
5
100
AcDbSymbolTableRecord
100
AcDbLinetypeTableRecord
  2
ByLayer
 70
     0
  3

 72
    65
 73
     0
 40
0.0
  0
LTYPE
  5
16
330
5
100
AcDbSymbolTableRecord
100
AcDbLinetypeTableRecord
  2
Continuous
 70
     0
  3
Solid line
 72
    65
 73
     0
 40
0.0
  0
LTYPE
  5
6E
330
5
100
AcDbSymbolTableRecord
100
AcDbLinetypeTableRecord
  2
HIDDEN
 70
     0
  3
Hidden __ __ __ __ __ __ __ __ __ __ __ __ __ __
 72
    65
 73
     2
 40
1.905
 49
1.27
 74
     0
 49
-0.635
 74
     0
  0
LTYPE
  5
6F
330
5
100
AcDbSymbolTableRecord
100
AcDbLinetypeTableRecord
  2
PHANTOM
 70
     0
  3
Phantom ______  __  __  ______  __  __  ______
 72
    65
 73
     6
 40
12.7
 49
6.35
 74
     0
 49
-1.27
 74
     0
 49
1.27
 74
     0
 49
-1.27
 74
     0
 49
1.27
 74
     0
 49
-1.27
 74
     0
  0
LTYPE
  5
70
330
5
100
AcDbSymbolTableRecord
100
AcDbLinetypeTableRecord
  2
CENTER
 70
     0
  3
Center ____ _ ____ _ ____ _ ____ _ ____ _ ____
 72
    65
 73
     4
 40
10.16
 49
6.35
 74
     0
 49
-1.27
 74
     0
 49
1.27
 74
     0
 49
-1.27
 74
     0
  0
LTYPE
  5
71
330
5
100
AcDbSymbolTableRecord
100
AcDbLinetypeTableRecord
  2
CENTERX2
 70
     0
  3
Center (2x) ________  __  ________  __  _____
 72
    65
 73
     4
 40
20.32
 49
12.7
 74
     0
 49
-2.54
 74
     0
 49
2.54
 74
     0
 49
-2.54
 74
     0
  0
LTYPE
  5
72
330
5
100
AcDbSymbolTableRecord
100
AcDbLinetypeTableRecord
  2
DOT2
 70
     0
  3
Dot (.5x) ........................................
 72
    65
 73
     2
 40
0.635
 49
0.0
 74
     0
 49
-0.635
 74
     0
  0
ENDTAB
  0
TABLE
  2
LAYER
  5
2
330
0
100
AcDbSymbolTable
 70
     6
  0
LAYER
  5
10
330
2
100
AcDbSymbolTableRecord
100
AcDbLayerTableRecord
  2
0
 70
     0
 62
     7
  6
Continuous
370
    -3
390
F
  0
LAYER
  5
73
330
2
100
AcDbSymbolTableRecord
100
AcDbLayerTableRecord
  2
SLD-0
 70
     0
 62
     7
  6
Continuous
370
    -3
390
F
  0
LAYER
  5
74
330
2
100
AcDbSymbolTableRecord
100
AcDbLayerTableRecord
  2
8
 70
     0
 62
     7
  6
Continuous
370
    15
390
F
  0
LAYER
  5
75
330
2
100
AcDbSymbolTableRecord
100
AcDbLayerTableRecord
  2
9
 70
     0
 62
     7
  6
Continuous
370
    -3
390
F
  0
LAYER
  5
76
330
2
100
AcDbSymbolTableRecord
100
AcDbLayerTableRecord
  2
10
 70
     0
 62
     1
  6
Continuous
370
    -3
390
F
  0
LAYER
  5
77
330
2
100
AcDbSymbolTableRecord
100
AcDbLayerTableRecord
  2
11
 70
     0
 62
     7
  6
Continuous
370
    -3
390
F
  0
ENDTAB
  0
TABLE
  2
STYLE
  5
3
330
0
100
AcDbSymbolTable
 70
     2
  0
STYLE
  5
11
330
3
100
AcDbSymbolTableRecord
100
AcDbTextStyleTableRecord
  2
Standard
 70
     0
 40
0.0
 41
1.0
 50
0.0
 71
     0
 42
3.8805555556
  3
txt
  4
bigfont
  0
STYLE
  5
78
330
3
100
AcDbSymbolTableRecord
100
AcDbTextStyleTableRecord
  2
SLDTEXTSTYLE0
 70
     0
 40
0.0
 41
0.7
 50
0.0
 71
     0
 42
3.8805555556
  3
TXT
  4
bigfont
  0
ENDTAB
  0
TABLE
  2
VIEW
  5
6
330
0
100
AcDbSymbolTable
 70
     0
  0
ENDTAB
  0
TABLE
  2
UCS
  5
7
330
0
100
AcDbSymbolTable
 70
     0
  0
ENDTAB
  0
TABLE
  2
APPID
  5
9
330
0
100
AcDbSymbolTable
 70
     1
  0
APPID
  5
12
330
9
100
AcDbSymbolTableRecord
100
AcDbRegAppTableRecord
  2
ACAD
 70
     0
  0
ENDTAB
  0
TABLE
  2
DIMSTYLE
  5
A
330
0
100
AcDbSymbolTable
 70
     1
100
AcDbDimStyleTable
  0
DIMSTYLE
105
27
330
A
100
AcDbSymbolTableRecord
100
AcDbDimStyleTableRecord
  2
ISO-25
 70
     0
 41
2.5
 42
0.625
 43
3.75
 44
1.25
 73
     0
 74
     0
 77
     1
 78
     8
140
2.5
141
2.5
143
0.0393700787
147
0.625
171
     3
172
     1
178
     0
271
     2
272
     2
274
     3
278
    44
283
     0
284
     8
340
11
  0
ENDTAB
  0
TABLE
  2
BLOCK_RECORD
  5
1
330
0
100
AcDbSymbolTable
 70
     1
  0
BLOCK_RECORD
  5
1F
330
1
100
AcDbSymbolTableRecord
100
AcDbBlockTableRecord
  2
*Model_Space
340
22
  0
BLOCK_RECORD
  5
1B
330
1
100
AcDbSymbolTableRecord
100
AcDbBlockTableRecord
  2
*Paper_Space
340
1E
  0
BLOCK_RECORD
  5
23
330
1
100
AcDbSymbolTableRecord
100
AcDbBlockTableRecord
  2
*Paper_Space0
340
26
  0
ENDTAB
  0
ENDSEC
  0
SECTION
  2
BLOCKS
  0
BLOCK
  5
20
330
1F
100
AcDbEntity
  8
0
100
AcDbBlockBegin
  2
*Model_Space
 70
     0
 10
0.0
 20
0.0
 30
0.0
  3
*Model_Space
  1

  0
ENDBLK
  5
21
330
1F
100
AcDbEntity
  8
0
100
AcDbBlockEnd
  0
BLOCK
  5
1C
330
1B
100
AcDbEntity
 67
     1
  8
0
100
AcDbBlockBegin
  2
*Paper_Space
 70
     0
 10
0.0
 20
0.0
 30
0.0
  3
*Paper_Space
  1

  0
ENDBLK
  5
1D
330
1B
100
AcDbEntity
 67
     1
  8
0
100
AcDbBlockEnd
  0
BLOCK
  5
24
330
23
100
AcDbEntity
  8
0
100
AcDbBlockBegin
  2
*Paper_Space0
 70
     0
 10
0.0
 20
0.0
 30
0.0
  3
*Paper_Space0
  1

  0
ENDBLK
  5
25
330
23
100
AcDbEntity
  8
0
100
AcDbBlockEnd
  0
ENDSEC
  0
SECTION
  2
ENTITIES
  0
MTEXT
  5
79
330
1F
100
AcDbEntity
  8
9
 62
     7
100
AcDbMText
 10
22.9810592731
 20
14.7698939359
 30
0.0
 40
3.7041666667
 41
0.0
 71
     1
 72
     1
  1
2014/05/23
  7
SLDTEXTSTYLE0
 73
     1
 44
1.0
  0
MTEXT
  5
7A
330
1F
100
AcDbEntity
  8
9
 62
     7
100
AcDbMText
 10
22.9810592731
 20
39.3097759652
 30
0.0
 40
3.7041666667
 41
0.0
 71
     1
 72
     1
  1
PXP-UU01
  7
SLDTEXTSTYLE0
 73
     1
 44
1.0
  0
MTEXT
  5
7B
330
1F
100
AcDbEntity
  8
9
 62
     7
100
AcDbMText
 10
22.9810592731
 20
22.271836236
 30
0.0
 40
3.7041666667
 41
0.0
 71
     1
 72
     1
  1
2019/05/08
  7
SLDTEXTSTYLE0
 73
     1
 44
1.0
  0
MTEXT
  5
7C
330
1F
100
AcDbEntity
  8
9
 62
     7
100
AcDbMText
 10
22.9810592731
 20
30.9293045781
 30
0.0
 40
3.7041666667
 41
0.0
 71
     1
 72
     1
  1
1:1
  7
SLDTEXTSTYLE0
 73
     1
 44
1.0
  0
LINE
  5
7D
330
1F
100
AcDbEntity
  8
0
  6
Continuous
 62
     7
370
    30
100
AcDbLine
 10
132.0295311748
 20
102.9918200653
 30
0.0
 11
164.5295299827
 21
102.9918200653
 31
0.0
  0
ARC
  5
7E
330
1F
100
AcDbEntity
  8
0
  6
Continuous
 62
     7
370
    30
100
AcDbCircle
 10
164.5295305787
 20
185.9918189924
 30
0.0
 40
0.5
100
AcDbArc
 50
0.0
 51
90.0
  0
LINE
  5
7F
330
1F
100
AcDbEntity
  8
0
  6
Continuous
 62
     7
370
    30
100
AcDbLine
 10
164.5295299827
 20
186.4918179195
 30
0.0
 11
132.0295311748
 21
186.4918179195
 31
0.0
  0
LINE
  5
80
330
1F
100
AcDbEntity
  8
0
  6
Continuous
 62
     7
370
    30
100
AcDbLine
 10
131.5295301615
 20
185.9918206315
 30
0.0
 11
131.5295301615
 21
103.4918173533
 31
0.0
  0
ARC
  5
81
330
1F
100
AcDbEntity
  8
0
  6
Continuous
 62
     7
370
    30
100
AcDbCircle
 10
164.5295305787
 20
103.4918189924
 30
0.0
 40
0.5
100
AcDbArc
 50
270.0
 51
0.0
  0
LINE
  5
82
330
1F
100
AcDbEntity
  8
0
  6
Continuous
 62
     7
370
    30
100
AcDbLine
 10
179.7795310854
 20
89.2418182771
 30
0.0
 11
179.7795310854
 21
200.2418197076
 31
0.0
  0
ARC
  5
83
330
1F
100
AcDbEntity
  8
0
  6
Continuous
 62
     7
370
    30
100
AcDbCircle
 10
132.0295305787
 20
103.4918189924
 30
0.0
 40
0.5
100
AcDbArc
 50
180.0
 51
270.0
  0
ARC
  5
84
330
1F
100
AcDbEntity
  8
0
  6
Continuous
 62
     7
370
    30
100
AcDbCircle
 10
117.7795305787
 20
200.2418189924
 30
0.0
 40
1.0
100
AcDbArc
 50
90.0
 51
180.0
  0
LINE
  5
85
330
1F
100
AcDbEntity
  8
0
  6
Continuous
 62
     7
370
    30
100
AcDbLine
 10
117.779530236
 20
88.2418199759
 30
0.0
 11
178.7795309215
 21
88.2418199759
 31
0.0
  0
LINE
  5
86
330
1F
100
AcDbEntity
  8
0
  6
Continuous
 62
     7
370
    30
100
AcDbLine
 10
165.029530996
 20
103.4918173533
 30
0.0
 11
165.029530996
 21
185.9918206315
 31
0.0
  0
ARC
  5
87
330
1F
100
AcDbEntity
  8
0
  6
Continuous
 62
     7
370
    30
100
AcDbCircle
 10
178.7795305787
 20
200.2418189924
 30
0.0
 40
1.0
100
AcDbArc
 50
0.0
 51
90.0
  0
LINE
  5
88
330
1F
100
AcDbEntity
  8
0
  6
Continuous
 62
     7
370
    30
100
AcDbLine
 10
178.7795309215
 20
201.2418180089
 30
0.0
 11
117.779530236
 21
201.2418180089
 31
0.0
  0
ARC
  5
89
330
1F
100
AcDbEntity
  8
0
  6
Continuous
 62
     7
370
    30
100
AcDbCircle
 10
117.7795305787
 20
89.2418189924
 30
0.0
 40
1.000000000000014
100
AcDbArc
 50
180.0
 51
270.0
  0
ARC
  5
8A
330
1F
100
AcDbEntity
  8
0
  6
Continuous
 62
     7
370
    30
100
AcDbCircle
 10
178.7795305787
 20
89.2418189924
 30
0.0
 40
1.000000000000014
100
AcDbArc
 50
270.0
 51
0.0
  0
ARC
  5
8B
330
1F
100
AcDbEntity
  8
0
  6
Continuous
 62
     7
370
    30
100
AcDbCircle
 10
132.0295305787
 20
185.9918189924
 30
0.0
 40
0.5
100
AcDbArc
 50
90.0
 51
180.0
  0
LINE
  5
8C
330
1F
100
AcDbEntity
  8
0
  6
Continuous
 62
     7
370
    30
100
AcDbLine
 10
116.7795300721
 20
200.2418197076
 30
0.0
 11
116.7795300721
 21
89.2418182771
 31
0.0
  0
LINE
  5
8D
330
1F
100
AcDbEntity
  8
0
  6
Continuous
 62
     7
370
    30
100
AcDbLine
 10
181.9050215422
 20
85.6182321291
 30
0.0
 11
114.6540396153
 21
85.6182321291
 31
0.0
  0
SPLINE
  5
8E
330
1F
100
AcDbEntity
  8
0
  6
Continuous
 62
     7
370
    30
100
AcDbSpline
210
0.0
220
0.0
230
1.0
 70
    24
 71
     3
 72
    10
 73
     6
 74
     0
 42
0.000000001
 43
0.00000001
 40
0.0
 40
0.0
 40
0.0
 40
0.0
 40
0.5
 40
0.5
 40
1.0
 40
1.0
 40
1.0
 40
1.0
 10
114.6540397146285
 20
85.61823065681257
 30
0.0
 10
114.6540397146285
 20
85.62254059834468
 30
0.0
 10
114.6540397146285
 20
85.64589246121955
 30
0.0
 10
114.6540397146286
 20
85.7188106565917
 30
0.0
 10
114.6540397146285
 20
85.76801860208703
 30
0.0
 10
114.6540397146285
 20
85.81746959519306
 30
0.0
  0
LINE
  5
8F
330
1F
100
AcDbEntity
  8
0
  6
Continuous
 62
     7
370
    30
100
AcDbLine
 10
181.9050215422
 20
85.8174681049
 30
0.0
 11
114.6540396153
 21
85.8174681049
 31
0.0
  0
SPLINE
  5
90
330
1F
100
AcDbEntity
  8
0
  6
Continuous
 62
     7
370
    30
100
AcDbSpline
210
0.0
220
0.0
230
1.0
 70
    24
 71
     3
 72
    10
 73
     6
 74
     0
 42
0.000000001
 43
0.00000001
 40
0.0
 40
0.0
 40
0.0
 40
0.0
 40
0.5
 40
0.5
 40
1.0
 40
1.0
 40
1.0
 40
1.0
 10
181.9050215653285
 20
85.81746959519306
 30
0.0
 10
181.9050215653285
 20
85.76801860208703
 30
0.0
 10
181.9050215653286
 20
85.7188106565917
 30
0.0
 10
181.9050215653285
 20
85.64589246121956
 30
0.0
 10
181.9050215653285
 20
85.62254059834467
 30
0.0
 10
181.9050215653285
 20
85.61823065681257
 30
0.0
  0
SPLINE
  5
91
330
1F
100
AcDbEntity
  8
0
  6
Continuous
 62
     7
370
    30
100
AcDbSpline
210
0.0
220
0.0
230
1.0
 70
     8
 71
     3
 72
    10
 73
     6
 74
     0
 42
0.000000001
 43
0.00000001
 40
0.0
 40
0.0
 40
0.0
 40
0.0
 40
0.5
 40
0.5
 40
1.0
 40
1.0
 40
1.0
 40
1.0
 10
114.6540397146285
 20
203.6661683496931
 30
0.0
 10
114.5756902756285
 20
203.6661684062764
 30
0.0
 10
114.4979779018181
 20
203.6339967786722
 30
0.0
 10
114.3873645146515
 20
203.5233927504326
 30
0.0
 10
114.3551811815285
 20
203.4456695396931
 30
0.0
 10
114.3551811815285
 20
203.3673099801931
 30
0.0
  0
LINE
  5
92
330
1F
100
AcDbEntity
  8
0
  6
Continuous
 62
     7
370
    30
100
AcDbLine
 10
114.6540396153
 20
203.6661698799
 30
0.0
 11
181.9050215422
 21
203.6661698799
 31
0.0
  0
SPLINE
  5
93
330
1F
100
AcDbEntity
  8
0
  6
Continuous
 62
     7
370
    30
100
AcDbSpline
210
0.0
220
0.0
230
1.0
 70
     8
 71
     3
 72
    13
 73
     9
 74
     0
 42
0.000000001
 43
0.00000001
 40
0.0
 40
0.0
 40
0.0
 40
0.0
 40
0.1284782607995254
 40
0.2515460673333038
 40
0.37409331565304
 40
0.5010700564175357
 40
0.7479921650725141
 40
1.0
 40
1.0
 40
1.0
 40
1.0
 10
182.2038799759285
 20
203.3673099801931
 30
0.0
 10
182.2027336315496
 20
203.3873888852529
 30
0.0
 10
182.2004892174476
 20
203.4267011360005
 30
0.0
 10
182.1832489203262
 20
203.4830493009463
 30
0.0
 10
182.1555124733499
 20
203.5346231506122
 30
0.0
 10
182.1058534289366
 20
203.5942541764715
 30
0.0
 10
182.0233363690922
 20
203.6538894038872
 30
0.0
 10
181.9447268475379
 20
203.6620476480367
 30
0.0
 10
181.9050214428285
 20
203.6661683496931
 30
0.0
  0
LINE
  5
94
330
1F
100
AcDbEntity
  8
0
  6
Continuous
 62
     7
370
    30
100
AcDbLine
 10
182.2038792311
 20
203.3673084657
 30
0.0
 11
182.2038792311
 21
86.1163295191
 31
0.0
  0
SPLINE
  5
95
330
1F
100
AcDbEntity
  8
0
  6
Continuous
 62
     7
370
    30
100
AcDbSpline
210
0.0
220
0.0
230
1.0
 70
     8
 71
     3
 72
    13
 73
     9
 74
     0
 42
0.000000001
 43
0.00000001
 40
0.0
 40
0.0
 40
0.0
 40
0.0
 40
0.1284723763525748
 40
0.2515349518386054
 40
0.3740769733961498
 40
0.5010478368733708
 40
0.7479810346550503
 40
0.9999999999999999
 40
0.9999999999999999
 40
0.9999999999999999
 40
0.9999999999999999
 10
181.9050214428285
 20
85.81746963509305
 30
0.0
 10
181.9250994219257
 20
85.81861585647019
 30
0.0
 10
181.9644099231292
 20
85.82086003336705
 30
0.0
 10
182.0207557922499
 20
85.83809880487863
 30
0.0
 10
182.0723279864138
 20
85.86583281691001
 30
0.0
 10
182.1319604961981
 20
85.91548995506467
 30
0.0
 10
182.1915998542414
 20
85.99800776705735
 30
0.0
 10
182.1997588806633
 20
86.07662082716293
 30
0.0
 10
182.2038799759285
 20
86.11632800459304
 30
0.0
  0
SPLINE
  5
96
330
1F
100
AcDbEntity
  8
0
  6
Continuous
 62
     7
370
    30
100
AcDbSpline
210
0.0
220
0.0
230
1.0
 70
     8
 71
     3
 72
    13
 73
     9
 74
     0
 42
0.000000001
 43
0.00000001
 40
0.0
 40
0.0
 40
0.0
 40
0.0
 40
0.1284782607995254
 40
0.2515460673333038
 40
0.37409331565304
 40
0.5010700564175357
 40
0.7479921650725141
 40
1.0
 40
1.0
 40
1.0
 40
1.0
 10
114.3551811815285
 20
86.11632800459304
 30
0.0
 10
114.3563275259075
 20
86.09624909953318
 30
0.0
 10
114.3585719400095
 20
86.05693684878557
 30
0.0
 10
114.3758122371309
 20
86.00058868383981
 30
0.0
 10
114.4035486841072
 20
85.94901483417394
 30
0.0
 10
114.4532077285205
 20
85.88938380831459
 30
0.0
 10
114.5357247883648
 20
85.82974858089891
 30
0.0
 10
114.6143343099191
 20
85.82159033674941
 30
0.0
 10
114.6540397146285
 20
85.81746963509305
 30
0.0
  0
LINE
  5
97
330
1F
100
AcDbEntity
  8
0
  6
Continuous
 62
     7
370
    30
100
AcDbLine
 10
114.3551819264
 20
86.1163295191
 30
0.0
 11
114.3551819264
 21
203.3673084657
 31
0.0
  0
SPLINE
  5
98
330
1F
100
AcDbEntity
  8
0
  6
Continuous
 62
     7
370
    30
100
AcDbSpline
210
0.0
220
0.0
230
1.0
 70
     8
 71
     3
 72
    17
 73
    13
 74
     0
 42
0.000000001
 43
0.00000001
 40
0.0
 40
0.0
 40
0.0
 40
0.0
 40
0.0629907258984066
 40
0.1252774609171034
 40
0.1874583195338871
 40
0.2501344474160637
 40
0.3749217838793256
 40
0.5001396725844481
 40
0.6248582750337923
 40
0.7501509388955587
 40
0.8746126592213089
 40
1.0
 40
1.0
 40
1.0
 40
1.0
 10
116.4856007153285
 20
87.25055275309305
 30
0.0
 10
116.4626132421087
 20
87.25120932517771
 30
0.0
 10
116.4168952060517
 20
87.25251513142938
 30
0.0
 10
116.3491292820176
 20
87.26283356371064
 30
0.0
 10
116.2827839631337
 20
87.27932268369624
 30
0.0
 10
116.1969082494567
 20
87.30999863693235
 30
0.0
 10
116.0953661056523
 20
87.36373507153623
 30
0.0
 10
115.9892427286648
 20
87.45123902770874
 30
0.0
 10
115.9014640075696
 20
87.55751529488177
 30
0.0
 10
115.8374833196818
 20
87.679015274299
 30
0.0
 10
115.7958532420035
 20
87.81075194758218
 30
0.0
 10
115.7908002166325
 20
87.90206391833861
 30
0.0
 10
115.7882643439285
 20
87.94788904629306
 30
0.0
  0
LINE
  5
99
330
1F
100
AcDbEntity
  8
0
  6
Continuous
 62
     7
370
    30
100
AcDbLine
 10
180.0734602152
 20
87.2505537551
 30
0.0
 11
116.4856009423
 21
87.2505537551
 31
0.0
  0
SPLINE
  5
9A
330
1F
100
AcDbEntity
  8
0
  6
Continuous
 62
     7
370
    30
100
AcDbSpline
210
0.0
220
0.0
230
1.0
 70
     8
 71
     3
 72
    17
 73
    13
 74
     0
 42
0.000000001
 43
0.00000001
 40
0.0
 40
0.0
 40
0.0
 40
0.0
 40
0.0629910984529968
 40
0.1252782762004322
 40
0.1874596591948315
 40
0.2501364022689474
 40
0.3749264198159648
 40
0.5001476500428598
 40
0.6248629020338479
 40
0.7501528908740291
 40
0.8746134657075465
 40
1.0
 40
1.0
 40
1.0
 40
1.0
 10
180.7707968135285
 20
87.94788904629306
 30
0.0
 10
180.7701402213616
 20
87.92490143721929
 30
0.0
 10
180.7688343743949
 20
87.87918310384433
 30
0.0
 10
180.7585157563237
 20
87.81141670946431
 30
0.0
 10
180.7420263524832
 20
87.74507086585443
 30
0.0
 10
180.7113497642914
 20
87.65919389457027
 30
0.0
 10
180.6576116167715
 20
87.55764985503778
 30
0.0
 10
180.570105952967
 20
87.4515265462894
 30
0.0
 10
180.4638296105533
 20
87.36374955205781
 30
0.0
 10
180.3423316578219
 20
87.29977073658895
 30
0.0
 10
180.2105965409244
 20
87.25814143706303
 30
0.0
 10
180.1192852780834
 20
87.25308855658385
 30
0.0
 10
180.0734604421285
 20
87.25055275309305
 30
0.0
  0
LINE
  5
9B
330
1F
100
AcDbEntity
  8
0
  6
Continuous
 62
     7
370
    30
100
AcDbLine
 10
180.7707973062
 20
201.5357471388
 30
0.0
 11
180.7707973062
 21
87.947890846
 31
0.0
  0
SPLINE
  5
9C
330
1F
100
AcDbEntity
  8
0
  6
Continuous
 62
     7
370
    30
100
AcDbSpline
210
0.0
220
0.0
230
1.0
 70
     8
 71
     3
 72
    17
 73
    13
 74
     0
 42
0.000000001
 43
0.00000001
 40
0.0
 40
0.0
 40
0.0
 40
0.0
 40
0.0629907258984066
 40
0.1252774609171034
 40
0.1874583195338871
 40
0.2501344474160637
 40
0.3749217838793256
 40
0.5001396725844481
 40
0.6248582750337923
 40
0.7501509388955587
 40
0.8746126592213089
 40
1.0
 40
1.0
 40
1.0
 40
1.0
 10
180.0734604421285
 20
202.2330852316931
 30
0.0
 10
180.0964479153484
 20
202.2324286596084
 30
0.0
 10
180.1421659514054
 20
202.2311228533567
 30
0.0
 10
180.2099318754395
 20
202.2208044210755
 30
0.0
 10
180.2762771943234
 20
202.2043153010899
 30
0.0
 10
180.3621529080004
 20
202.1736393478538
 30
0.0
 10
180.4636950518048
 20
202.1199029132499
 30
0.0
 10
180.5698184287922
 20
202.0323989570774
 30
0.0
 10
180.6575971498875
 20
201.9261226899043
 30
0.0
 10
180.7215778377753
 20
201.8046227104871
 30
0.0
 10
180.7632079154536
 20
201.6728860372039
 30
0.0
 10
180.7682609408246
 20
201.5815740664475
 30
0.0
 10
180.7707968135285
 20
201.535748938493
 30
0.0
  0
LINE
  5
9D
330
1F
100
AcDbEntity
  8
0
  6
Continuous
 62
     7
370
    30
100
AcDbLine
 10
116.4856009423
 20
202.2330842297
 30
0.0
 11
180.0734602152
 21
202.2330842297
 31
0.0
  0
SPLINE
  5
9E
330
1F
100
AcDbEntity
  8
0
  6
Continuous
 62
     7
370
    30
100
AcDbSpline
210
0.0
220
0.0
230
1.0
 70
     8
 71
     3
 72
    17
 73
    13
 74
     0
 42
0.000000001
 43
0.00000001
 40
0.0
 40
0.0
 40
0.0
 40
0.0
 40
0.0629910984529968
 40
0.1252782762004322
 40
0.1874596591948315
 40
0.2501364022689474
 40
0.3749264198159648
 40
0.5001476500428598
 40
0.6248629020338479
 40
0.7501528908740291
 40
0.8746134657075465
 40
1.0
 40
1.0
 40
1.0
 40
1.0
 10
115.7882643439285
 20
201.535748938493
 30
0.0
 10
115.7889209360955
 20
201.5587365475668
 30
0.0
 10
115.7902267830622
 20
201.6044548809418
 30
0.0
 10
115.8005454011334
 20
201.6722212753218
 30
0.0
 10
115.8170348049739
 20
201.7385671189317
 30
0.0
 10
115.8477113931657
 20
201.8244440902158
 30
0.0
 10
115.9014495406856
 20
201.9259881297483
 30
0.0
 10
115.9889552044901
 20
202.0321114384967
 30
0.0
 10
116.0952315469038
 20
202.1198884327283
 30
0.0
 10
116.2167294996352
 20
202.1838672481971
 30
0.0
 10
116.3484646165327
 20
202.2254965477231
 30
0.0
 10
116.4397758793737
 20
202.2305494282023
 30
0.0
 10
116.4856007153285
 20
202.2330852316931
 30
0.0
  0
LINE
  5
9F
330
1F
100
AcDbEntity
  8
0
  6
Continuous
 62
     7
370
    30
100
AcDbLine
 10
115.7882638513
 20
87.947890846
 30
0.0
 11
115.7882638513
 21
201.5357471388
 31
0.0
  0
SPLINE
  5
A0
330
1F
100
AcDbEntity
  8
0
  6
Continuous
 62
     7
370
    30
100
AcDbSpline
210
0.0
220
0.0
230
1.0
 70
    24
 71
     3
 72
    10
 73
     6
 74
     0
 42
0.000000001
 43
0.00000001
 40
0.0
 40
0.0
 40
0.0
 40
0.0
 40
0.5
 40
0.5
 40
1.0
 40
1.0
 40
1.0
 40
1.0
 10
182.2038799759285
 20
203.3673099801931
 30
0.0
 10
182.2533309714111
 20
203.367309980193
 30
0.0
 10
182.3025389192252
 20
203.3673099801931
 30
0.0
 10
182.3754571157198
 20
203.367309980193
 30
0.0
 10
182.3988089773248
 20
203.3673099801931
 30
0.0
 10
182.4031189155518
 20
203.3673099801931
 30
0.0
  0
LINE
  5
A1
330
1F
100
AcDbEntity
  8
0
  6
Continuous
 62
     7
370
    30
100
AcDbLine
 10
182.4031189321
 20
86.1163295191
 30
0.0
 11
182.4031189321
 21
203.3673084657
 31
0.0
  0
SPLINE
  5
A2
330
1F
100
AcDbEntity
  8
0
  6
Continuous
 62
     7
370
    30
100
AcDbSpline
210
0.0
220
0.0
230
1.0
 70
    24
 71
     3
 72
    10
 73
     6
 74
     0
 42
0.000000001
 43
0.00000001
 40
0.0
 40
0.0
 40
0.0
 40
0.0
 40
0.5
 40
0.5
 40
1.0
 40
1.0
 40
1.0
 40
1.0
 10
182.4031189155518
 20
86.11632800459304
 30
0.0
 10
182.3988089773248
 20
86.11632800459304
 30
0.0
 10
182.3754571157198
 20
86.11632800459303
 30
0.0
 10
182.3025389192252
 20
86.11632800459304
 30
0.0
 10
182.2533309714111
 20
86.11632800459304
 30
0.0
 10
182.2038799759285
 20
86.11632800459304
 30
0.0
  0
SPLINE
  5
A3
330
1F
100
AcDbEntity
  8
0
  6
Continuous
 62
     7
370
    30
100
AcDbSpline
210
0.0
220
0.0
230
1.0
 70
    24
 71
     3
 72
    10
 73
     6
 74
     0
 42
0.000000001
 43
0.00000001
 40
0.0
 40
0.0
 40
0.0
 40
0.0
 40
0.5
 40
0.5
 40
1.0
 40
1.0
 40
1.0
 40
1.0
 10
114.1559422419053
 20
203.3673099801931
 30
0.0
 10
114.1602521801323
 20
203.367309980193
 30
0.0
 10
114.1836040417373
 20
203.3673099801931
 30
0.0
 10
114.2565222382319
 20
203.367309980193
 30
0.0
 10
114.3057301860459
 20
203.3673099801931
 30
0.0
 10
114.3551811815285
 20
203.3673099801931
 30
0.0
  0
SPLINE
  5
A4
330
1F
100
AcDbEntity
  8
0
  6
Continuous
 62
     7
370
    30
100
AcDbSpline
210
0.0
220
0.0
230
1.0
 70
    24
 71
     3
 72
    10
 73
     6
 74
     0
 42
0.000000001
 43
0.00000001
 40
0.0
 40
0.0
 40
0.0
 40
0.0
 40
0.5
 40
0.5
 40
1.0
 40
1.0
 40
1.0
 40
1.0
 10
114.3551811815285
 20
86.11632800459304
 30
0.0
 10
114.305730186046
 20
86.11632800459304
 30
0.0
 10
114.2565222382319
 20
86.11632800459303
 30
0.0
 10
114.1836040417373
 20
86.11632800459304
 30
0.0
 10
114.1602521801323
 20
86.11632800459304
 30
0.0
 10
114.1559422419053
 20
86.11632800459304
 30
0.0
  0
LINE
  5
A5
330
1F
100
AcDbEntity
  8
0
  6
Continuous
 62
     7
370
    30
100
AcDbLine
 10
114.1559422253
 20
86.1163295191
 30
0.0
 11
114.1559422253
 21
203.3673084657
 31
0.0
  0
SPLINE
  5
A6
330
1F
100
AcDbEntity
  8
0
  6
Continuous
 62
     7
370
    30
100
AcDbSpline
210
0.0
220
0.0
230
1.0
 70
    24
 71
     3
 72
    10
 73
     6
 74
     0
 42
0.000000001
 43
0.00000001
 40
0.0
 40
0.0
 40
0.0
 40
0.0
 40
0.5
 40
0.5
 40
1.0
 40
1.0
 40
1.0
 40
1.0
 10
181.9050214428285
 20
203.8654073279735
 30
0.0
 10
181.9050214428285
 20
203.8610973858618
 30
0.0
 10
181.9050214428285
 20
203.8377455170933
 30
0.0
 10
181.9050214428285
 20
203.7648273052503
 30
0.0
 10
181.9050214428285
 20
203.7156193494491
 30
0.0
 10
181.9050214428285
 20
203.6661683496931
 30
0.0
  0
SPLINE
  5
A7
330
1F
100
AcDbEntity
  8
0
  6
Continuous
 62
     7
370
    30
100
AcDbSpline
210
0.0
220
0.0
230
1.0
 70
    24
 71
     3
 72
    10
 73
     6
 74
     0
 42
0.000000001
 43
0.00000001
 40
0.0
 40
0.0
 40
0.0
 40
0.0
 40
0.5
 40
0.5
 40
1.0
 40
1.0
 40
1.0
 40
1.0
 10
114.6540395921286
 20
203.6661683496931
 30
0.0
 10
114.6540395921286
 20
203.7156193494491
 30
0.0
 10
114.6540395921285
 20
203.7648273052503
 30
0.0
 10
114.6540395921286
 20
203.8377455170933
 30
0.0
 10
114.6540395921286
 20
203.8610973858618
 30
0.0
 10
114.6540395921286
 20
203.8654073279735
 30
0.0
  0
LINE
  5
A8
330
1F
100
AcDbEntity
  8
0
  6
Continuous
 62
     7
370
    30
100
AcDbLine
 10
181.9050215422
 20
203.8654058557
 30
0.0
 11
114.6540396153
 21
203.8654058557
 31
0.0
  0
SPLINE
  5
A9
330
1F
100
AcDbEntity
  8
0
  6
Continuous
 62
     7
370
    30
100
AcDbSpline
210
0.0
220
0.0
230
1.0
 70
     8
 71
     3
 72
    10
 73
     6
 74
     0
 42
0.000000001
 43
0.00000001
 40
0.0
 40
0.0
 40
0.0
 40
0.0
 40
0.5
 40
0.5
 40
1.0
 40
1.0
 40
1.0
 40
1.0
 10
180.0734606146285
 20
202.033846292293
 30
0.0
 10
180.0734605771285
 20
202.0381562306264
 30
0.0
 10
180.0734605375764
 20
202.0615396189097
 30
0.0
 10
180.0734604744306
 20
202.1344554600139
 30
0.0
 10
180.0734604511285
 20
202.1836342361931
 30
0.0
 10
180.0734604421285
 20
202.2330852316931
 30
0.0
  0
LINE
  5
AA
330
1F
100
AcDbEntity
  8
0
  6
Continuous
 62
     7
370
    30
100
AcDbLine
 10
180.0734602152
 20
202.0338445287
 30
0.0
 11
116.4856009423
 21
202.0338445287
 31
0.0
  0
SPLINE
  5
AB
330
1F
100
AcDbEntity
  8
0
  6
Continuous
 62
     7
370
    30
100
AcDbSpline
210
0.0
220
0.0
230
1.0
 70
    24
 71
     3
 72
    10
 73
     6
 74
     0
 42
0.000000001
 43
0.00000001
 40
0.0
 40
0.0
 40
0.0
 40
0.0
 40
0.5
 40
0.5
 40
1.0
 40
1.0
 40
1.0
 40
1.0
 10
116.4856007153285
 20
202.0338462869843
 30
0.0
 10
116.4856007153285
 20
202.0381562236541
 30
0.0
 10
116.4856007153285
 20
202.0615080846609
 30
0.0
 10
116.4856007153285
 20
202.1344262816843
 30
0.0
 10
116.4856007153285
 20
202.1836342305908
 30
0.0
 10
116.4856007153285
 20
202.233085227193
 30
0.0
  0
SPLINE
  5
AC
330
1F
100
AcDbEntity
  8
0
  6
Continuous
 62
     7
370
    30
100
AcDbSpline
210
0.0
220
0.0
230
1.0
 70
     8
 71
     3
 72
    10
 73
     6
 74
     0
 42
0.000000001
 43
0.00000001
 40
0.0
 40
0.0
 40
0.0
 40
0.0
 40
0.5
 40
0.5
 40
1.0
 40
1.0
 40
1.0
 40
1.0
 10
116.4856005428285
 20
87.44979169249305
 30
0.0
 10
116.4856005803286
 20
87.44548175415973
 30
0.0
 10
116.4856006198806
 20
87.42209836587638
 30
0.0
 10
116.4856006830265
 20
87.34918252477222
 30
0.0
 10
116.4856007063285
 20
87.30000374859304
 30
0.0
 10
116.4856007153285
 20
87.25055275309305
 30
0.0
  0
LINE
  5
AD
330
1F
100
AcDbEntity
  8
0
  6
Continuous
 62
     7
370
    30
100
AcDbLine
 10
180.0734602152
 20
87.4497934561
 30
0.0
 11
116.4856009423
 21
87.4497934561
 31
0.0
  0
SPLINE
  5
AE
330
1F
100
AcDbEntity
  8
0
  6
Continuous
 62
     7
370
    30
100
AcDbSpline
210
0.0
220
0.0
230
1.0
 70
    24
 71
     3
 72
    10
 73
     6
 74
     0
 42
0.000000001
 43
0.00000001
 40
0.0
 40
0.0
 40
0.0
 40
0.0
 40
0.5
 40
0.5
 40
1.0
 40
1.0
 40
1.0
 40
1.0
 10
180.0734604421285
 20
87.44979169780184
 30
0.0
 10
180.0734604421285
 20
87.44548176106665
 30
0.0
 10
180.0734604421285
 20
87.42212989939519
 30
0.0
 10
180.0734604421285
 20
87.34921170051416
 30
0.0
 10
180.0734604421285
 20
87.3000037504453
 30
0.0
 10
180.0734604421285
 20
87.25055275309305
 30
0.0
  0
SPLINE
  5
AF
330
1F
100
AcDbEntity
  8
0
  6
Continuous
 62
     7
370
    30
100
AcDbSpline
210
0.0
220
0.0
230
1.0
 70
    24
 71
     3
 72
    10
 73
     6
 74
     0
 42
0.000000001
 43
0.00000001
 40
0.0
 40
0.0
 40
0.0
 40
0.0
 40
0.5
 40
0.5
 40
1.0
 40
1.0
 40
1.0
 40
1.0
 10
180.571557873906
 20
201.535748938493
 30
0.0
 10
180.575867812135
 20
201.535748938493
 30
0.0
 10
180.5992196737409
 20
201.5357489384931
 30
0.0
 10
180.6721378702348
 20
201.535748938493
 30
0.0
 10
180.7213458180474
 20
201.5357489384931
 30
0.0
 10
180.7707968135285
 20
201.535748938493
 30
0.0
  0
SPLINE
  5
B0
330
1F
100
AcDbEntity
  8
0
  6
Continuous
 62
     7
370
    30
100
AcDbSpline
210
0.0
220
0.0
230
1.0
 70
    24
 71
     3
 72
    10
 73
     6
 74
     0
 42
0.000000001
 43
0.00000001
 40
0.0
 40
0.0
 40
0.0
 40
0.0
 40
0.5
 40
0.5
 40
1.0
 40
1.0
 40
1.0
 40
1.0
 10
180.7707968135285
 20
87.94788904629304
 30
0.0
 10
180.7213458180474
 20
87.94788904629303
 30
0.0
 10
180.6721378702348
 20
87.94788904629303
 30
0.0
 10
180.5992196737409
 20
87.94788904629303
 30
0.0
 10
180.575867812135
 20
87.94788904629304
 30
0.0
 10
180.571557873906
 20
87.94788904629304
 30
0.0
  0
LINE
  5
B1
330
1F
100
AcDbEntity
  8
0
  6
Continuous
 62
     7
370
    30
100
AcDbLine
 10
180.5715576051
 20
87.947890846
 30
0.0
 11
180.5715576051
 21
201.5357471388
 31
0.0
  0
SPLINE
  5
B2
330
1F
100
AcDbEntity
  8
0
  6
Continuous
 62
     7
370
    30
100
AcDbSpline
210
0.0
220
0.0
230
1.0
 70
    24
 71
     3
 72
    10
 73
     6
 74
     0
 42
0.000000001
 43
0.00000001
 40
0.0
 40
0.0
 40
0.0
 40
0.0
 40
0.5
 40
0.5
 40
1.0
 40
1.0
 40
1.0
 40
1.0
 10
115.7882643439285
 20
201.535748938493
 30
0.0
 10
115.8377153394097
 20
201.535748938493
 30
0.0
 10
115.8869232872223
 20
201.5357489384931
 30
0.0
 10
115.9598414837162
 20
201.535748938493
 30
0.0
 10
115.983193345322
 20
201.5357489384931
 30
0.0
 10
115.987503283551
 20
201.535748938493
 30
0.0
  0
LINE
  5
B3
330
1F
100
AcDbEntity
  8
0
  6
Continuous
 62
     7
370
    30
100
AcDbLine
 10
115.9875035523
 20
87.947890846
 30
0.0
 11
115.9875035523
 21
201.5357471388
 31
0.0
  0
SPLINE
  5
B4
330
1F
100
AcDbEntity
  8
0
  6
Continuous
 62
     7
370
    30
100
AcDbSpline
210
0.0
220
0.0
230
1.0
 70
    24
 71
     3
 72
    10
 73
     6
 74
     0
 42
0.000000001
 43
0.00000001
 40
0.0
 40
0.0
 40
0.0
 40
0.0
 40
0.5
 40
0.5
 40
1.0
 40
1.0
 40
1.0
 40
1.0
 10
115.987503283551
 20
87.94788904629304
 30
0.0
 10
115.983193345322
 20
87.94788904629303
 30
0.0
 10
115.9598414837162
 20
87.94788904629303
 30
0.0
 10
115.8869232872223
 20
87.94788904629303
 30
0.0
 10
115.8377153394097
 20
87.94788904629304
 30
0.0
 10
115.7882643439285
 20
87.94788904629304
 30
0.0
  0
SPLINE
  5
B5
330
1F
100
AcDbEntity
  8
0
  6
Continuous
 62
     7
370
    30
100
AcDbSpline
210
0.0
220
0.0
230
1.0
 70
     8
 71
     3
 72
    18
 73
    14
 74
     0
 42
0.000000001
 43
0.00000001
 40
0.0
 40
0.0
 40
0.0
 40
0.0
 40
0.0909706929570104
 40
0.1819044104385982
 40
0.2728093614427282
 40
0.3636937627622041
 40
0.4545658367642678
 40
0.5454338091625248
 40
0.6363059067844173
 40
0.7271903553371409
 40
0.8180953771751027
 40
0.9090291890719324
 40
1.0
 40
1.0
 40
1.0
 40
1.0
 10
114.6540395921286
 20
85.61823065675226
 30
0.0
 10
114.6303444697317
 20
85.619277104937
 30
0.0
 10
114.5829638559343
 20
85.62136957597252
 30
0.0
 10
114.5133680899526
 20
85.63724646302401
 30
0.0
 10
114.4466548925192
 20
85.66210640532925
 30
0.0
 10
114.3841675898999
 20
85.69636303623065
 30
0.0
 10
114.3271644520238
 20
85.73907730093629
 30
0.0
 10
114.2767890655481
 20
85.78945265940744
 30
0.0
 10
114.2340747590061
 20
85.84645578923042
 30
0.0
 10
114.1998180799186
 20
85.9089431080021
 30
0.0
 10
114.1749580920651
 20
85.97565634791015
 30
0.0
 10
114.1590811692702
 20
86.04525218246586
 30
0.0
 10
114.1569886928552
 20
86.09263285150668
 30
0.0
 10
114.155942241845
 20
86.11632800459304
 30
0.0
  0
SPLINE
  5
B6
330
1F
100
AcDbEntity
  8
0
  6
Continuous
 62
     7
370
    30
100
AcDbSpline
210
0.0
220
0.0
230
1.0
 70
     8
 71
     3
 72
    18
 73
    14
 74
     0
 42
0.000000001
 43
0.00000001
 40
0.0
 40
0.0
 40
0.0
 40
0.0
 40
0.090974002322527
 40
0.1819103663967788
 40
0.2728173011613669
 40
0.3637030235292351
 40
0.4545757561675315
 40
0.5454437252697307
 40
0.6363151583229777
 40
0.7271982818736693
 40
0.8181013192942779
 40
0.9090324885545588
 40
1.0
 40
1.0
 40
1.0
 40
1.0
 10
181.9050215653285
 20
203.8654073280339
 30
0.0
 10
181.9287175521746
 20
203.8643608069944
 30
0.0
 10
181.9760997222371
 20
203.8622681978879
 30
0.0
 10
182.0456974224838
 20
203.8463903266041
 30
0.0
 10
182.1124118216465
 20
203.8215291234586
 30
0.0
 10
182.1748995873167
 20
203.7872711555038
 30
0.0
 10
182.231902508739
 20
203.7445557289664
 30
0.0
 10
182.2822771182581
 20
203.6941795931878
 30
0.0
 10
182.3249902585122
 20
203.6371762417743
 30
0.0
 10
182.3592455912769
 20
203.5746893761427
 30
0.0
 10
182.3841043041397
 20
203.5079773233259
 30
0.0
 10
182.3999802239082
 20
203.4383834036032
 30
0.0
 10
182.4020725456998
 20
203.3910042767028
 30
0.0
 10
182.4031189156118
 20
203.3673099802305
 30
0.0
  0
SPLINE
  5
B7
330
1F
100
AcDbEntity
  8
0
  6
Continuous
 62
     7
370
    30
100
AcDbSpline
210
0.0
220
0.0
230
1.0
 70
     8
 71
     3
 72
    18
 73
    14
 74
     0
 42
0.000000001
 43
0.00000001
 40
0.0
 40
0.0
 40
0.0
 40
0.0
 40
0.0909708109280676
 40
0.1819046228248973
 40
0.2728096446628591
 40
0.3636940932155827
 40
0.4545661908374751
 40
0.5454341632357321
 40
0.6363062372377959
 40
0.7271906385572717
 40
0.8180955895614017
 40
0.9090293070429895
 40
0.9999999999999999
 40
0.9999999999999999
 40
0.9999999999999999
 40
0.9999999999999999
 10
182.4031189156121
 20
86.11632800459304
 30
0.0
 10
182.4020724646019
 20
86.09263285150668
 30
0.0
 10
182.3999799881869
 20
86.04525218246586
 30
0.0
 10
182.384103065392
 20
85.97565634791016
 30
0.0
 10
182.3592430775385
 20
85.9089431080021
 30
0.0
 10
182.324986398451
 20
85.84645578923039
 30
0.0
 10
182.282272091909
 20
85.78945265940743
 30
0.0
 10
182.2318967054333
 20
85.7390773009363
 30
0.0
 10
182.1748935675572
 20
85.69636303623065
 30
0.0
 10
182.1124062649378
 20
85.66210640532928
 30
0.0
 10
182.0456930675045
 20
85.63724646302401
 30
0.0
 10
181.9760973015228
 20
85.62136957597252
 30
0.0
 10
181.9287166877254
 20
85.61927710493698
 30
0.0
 10
181.9050215653285
 20
85.61823065675226
 30
0.0
  0
SPLINE
  5
B8
330
1F
100
AcDbEntity
  8
0
  6
Continuous
 62
     7
370
    30
100
AcDbSpline
210
0.0
220
0.0
230
1.0
 70
     8
 71
     3
 72
    18
 73
    14
 74
     0
 42
0.000000001
 43
0.00000001
 40
0.0
 40
0.0
 40
0.0
 40
0.0
 40
0.0909675114454412
 40
0.181898680705722
 40
0.2728017181263305
 40
0.3636848416770222
 40
0.4545562747302693
 40
0.5454242438324685
 40
0.6362969764707648
 40
0.7271826988386331
 40
0.8180896336032212
 40
0.9090259976774729
 40
1.0
 40
1.0
 40
1.0
 40
1.0
 10
114.1559422418453
 20
203.3673099802305
 30
0.0
 10
114.1569886117573
 20
203.3910042767028
 30
0.0
 10
114.1590809335489
 20
203.4383834036031
 30
0.0
 10
114.1749568533173
 20
203.5079773233259
 30
0.0
 10
114.1998155661802
 20
203.5746893761427
 30
0.0
 10
114.2340708989449
 20
203.6371762417743
 30
0.0
 10
114.276784039199
 20
203.6941795931877
 30
0.0
 10
114.3271586487181
 20
203.7445557289664
 30
0.0
 10
114.3841615701404
 20
203.7872711555038
 30
0.0
 10
114.4466493358106
 20
203.8215291234586
 30
0.0
 10
114.5133637349734
 20
203.8463903266041
 30
0.0
 10
114.58296143522
 20
203.8622681978879
 30
0.0
 10
114.6303436052824
 20
203.8643608069944
 30
0.0
 10
114.6540395921286
 20
203.8654073280339
 30
0.0
  0
SPLINE
  5
B9
330
1F
100
AcDbEntity
  8
0
  6
Continuous
 62
     7
370
    30
100
AcDbSpline
210
0.0
220
0.0
230
1.0
 70
     8
 71
     3
 72
    10
 73
     6
 74
     0
 42
0.000000001
 43
0.00000001
 40
0.0
 40
0.0
 40
0.0
 40
0.0
 40
0.5
 40
0.5
 40
1.0
 40
1.0
 40
1.0
 40
1.0
 10
180.5715578739285
 20
201.535748938493
 30
0.0
 10
180.5719509499285
 20
201.6664920234097
 30
0.0
 10
180.5185963221431
 20
201.7963630084868
 30
0.0
 10
180.334061405914
 20
201.980891786018
 30
0.0
 10
180.2042001012952
 20
202.034239369293
 30
0.0
 10
180.0734606146285
 20
202.033846292293
 30
0.0
  0
SPLINE
  5
BA
330
1F
100
AcDbEntity
  8
0
  6
Continuous
 62
     7
370
    30
100
AcDbSpline
210
0.0
220
0.0
230
1.0
 70
     8
 71
     3
 72
    10
 73
     6
 74
     0
 42
0.000000001
 43
0.00000001
 40
0.0
 40
0.0
 40
0.0
 40
0.0
 40
0.5
 40
0.5
 40
1.0
 40
1.0
 40
1.0
 40
1.0
 10
115.9875032835285
 20
87.94788904629306
 30
0.0
 10
115.9871102075285
 20
87.81714596137638
 30
0.0
 10
116.040464835314
 20
87.6872749762993
 30
0.0
 10
116.2249997515431
 20
87.50274619876808
 30
0.0
 10
116.3548610561619
 20
87.44939861549308
 30
0.0
 10
116.4856005428285
 20
87.4497916924931
 30
0.0
  0
SPLINE
  5
BB
330
1F
100
AcDbEntity
  8
0
  6
Continuous
 62
     7
370
    30
100
AcDbSpline
210
0.0
220
0.0
230
1.0
 70
     8
 71
     3
 72
    16
 73
    12
 74
     0
 42
0.000000001
 43
0.00000001
 40
0.0
 40
0.0
 40
0.0
 40
0.0
 40
0.087494861076847
 40
0.1733179880321524
 40
0.2575004807151686
 40
0.3400753011599523
 40
0.4210773825044594
 40
0.500543740493381
 40
0.6606629545838537
 40
0.8270584625541662
 40
0.9999999999999999
 40
0.9999999999999999
 40
0.9999999999999999
 40
0.9999999999999999
 10
115.9875032835702
 20
201.535748938493
 30
0.0
 10
115.9883314132102
 20
201.5585725124862
 30
0.0
 10
115.9899718497028
 20
201.6037835783193
 30
0.0
 10
116.0038977083168
 20
201.66976293363
 30
0.0
 10
116.0254182925768
 20
201.7321526872386
 30
0.0
 10
116.0545325362338
 20
201.7900422728096
 30
0.0
 10
116.0901482408752
 20
201.8426620725222
 30
0.0
 10
116.1455251323211
 20
201.905591671675
 30
0.0
 10
116.2302577623607
 20
201.9706492279498
 30
0.0
 10
116.3516299062481
 20
202.0237845687721
 30
0.0
 10
116.4403730865931
 20
202.0304495238135
 30
0.0
 10
116.4856006332285
 20
202.0338462869652
 30
0.0
  0
SPLINE
  5
BC
330
1F
100
AcDbEntity
  8
0
  6
Continuous
 62
     7
370
    30
100
AcDbSpline
210
0.0
220
0.0
230
1.0
 70
     8
 71
     3
 72
    16
 73
    12
 74
     0
 42
0.000000001
 43
0.00000001
 40
0.0
 40
0.0
 40
0.0
 40
0.0
 40
0.0874890412446892
 40
0.1733086674432021
 40
0.2574899881668349
 40
0.3400659730529415
 40
0.4210715603176964
 40
0.500543767804552
 40
0.6606629731397438
 40
0.8270584720112502
 40
1.0
 40
1.0
 40
1.0
 40
1.0
 10
180.5715578738868
 20
87.94788904628062
 30
0.0
 10
180.5707298753301
 20
87.92506699700384
 30
0.0
 10
180.569089677604
 20
87.87985837553292
 30
0.0
 10
180.5551652239372
 20
87.81388155870398
 30
0.0
 10
180.5336459040303
 20
87.75149233444841
 30
0.0
 10
180.5045321340631
 20
87.69360147349819
 30
0.0
 10
180.4689154876687
 20
87.64097896660125
 30
0.0
 10
180.4135372390488
 20
87.57804725361723
 30
0.0
 10
180.3288033978643
 20
87.51298875597521
 30
0.0
 10
180.2074312504735
 20
87.45985341624271
 30
0.0
 10
180.1186880706157
 20
87.45318846104982
 30
0.0
 10
180.0734605242286
 20
87.44979169782094
 30
0.0
  0
SPLINE
  5
BD
330
1F
100
AcDbEntity
  8
0
  6
Continuous
 62
     7
370
    30
100
AcDbSpline
210
0.0
220
0.0
230
1.0
 70
    24
 71
     3
 72
    10
 73
     6
 74
     0
 42
0.000000001
 43
0.00000001
 40
0.0
 40
0.0
 40
0.0
 40
0.0
 40
0.5
 40
0.5
 40
1.0
 40
1.0
 40
1.0
 40
1.0
 10
132.7515407726285
 20
185.7679061475931
 30
0.0
 10
132.7515407726285
 20
185.7632353806764
 30
0.0
 10
132.7515407726285
 20
185.7360081597326
 30
0.0
 10
132.7515407726285
 20
185.6526480203785
 30
0.0
 10
132.7515407726285
 20
185.5970689796431
 30
0.0
 10
132.7515407726285
 20
185.5438907553931
 30
0.0
  0
SPLINE
  5
BE
330
1F
100
AcDbEntity
  8
0
  6
Continuous
 62
     7
370
    30
100
AcDbSpline
210
0.0
220
0.0
230
1.0
 70
     8
 71
     3
 72
    12
 73
     8
 74
     0
 42
0.000000001
 43
0.00000001
 40
0.0
 40
0.0
 40
0.0
 40
0.0
 40
0.1682960655753776
 40
0.3333674915325811
 40
0.5004164735058861
 40
0.7481024355173922
 40
1.0
 40
1.0
 40
1.0
 40
1.0
 10
132.7515407726285
 20
185.543890755394
 30
0.0
 10
132.733519382906
 20
185.5429435938693
 30
0.0
 10
132.6978219026042
 20
185.5410674189245
 30
0.0
 10
132.6458490373584
 20
185.5265678281554
 30
0.0
 10
132.5897456522574
 20
185.5000795493285
 30
0.0
 10
132.5316951087767
 20
185.4566749465595
 30
0.0
 10
132.5021310032503
 20
185.4121099698042
 30
0.0
 10
132.4872243344286
 20
185.3896396349942
 30
0.0
  0
SPLINE
  5
BF
330
1F
100
AcDbEntity
  8
0
  6
Continuous
 62
     7
370
    30
100
AcDbSpline
210
0.0
220
0.0
230
1.0
 70
     8
 71
     3
 72
    10
 73
     6
 74
     0
 42
0.000000001
 43
0.00000001
 40
0.0
 40
0.0
 40
0.0
 40
0.0
 40
0.5
 40
0.5
 40
1.0
 40
1.0
 40
1.0
 40
1.0
 10
132.3126725792285
 20
185.5091610739931
 30
0.0
 10
132.3152383388119
 20
185.5015119718264
 30
0.0
 10
132.335209656964
 20
185.4844525668472
 30
0.0
 10
132.3993315003494
 20
185.4405461908889
 30
0.0
 10
132.4431464647619
 20
185.4139289896597
 30
0.0
 10
132.4872243344286
 20
185.389639634993
 30
0.0
  0
SPLINE
  5
C0
330
1F
100
AcDbEntity
  8
0
  6
Continuous
 62
     7
370
    30
100
AcDbSpline
210
0.0
220
0.0
230
1.0
 70
     8
 71
     3
 72
    10
 73
     6
 74
     0
 42
0.000000001
 43
0.00000001
 40
0.0
 40
0.0
 40
0.0
 40
0.0
 40
0.5
 40
0.5
 40
1.0
 40
1.0
 40
1.0
 40
1.0
 10
132.312672755148
 20
185.5091611276825
 30
0.0
 10
132.3558262184579
 20
185.5867181188183
 30
0.0
 10
132.4201263455313
 20
185.6526617811358
 30
0.0
 10
132.5735609604651
 20
185.7431875745952
 30
0.0
 10
132.6624916960128
 20
185.7676477312928
 30
0.0
 10
132.7515407726285
 20
185.7679061475886
 30
0.0
  0
SPLINE
  5
C1
330
1F
100
AcDbEntity
  8
0
  6
Continuous
 62
     7
370
    30
100
AcDbSpline
210
0.0
220
0.0
230
1.0
 70
    24
 71
     3
 72
    10
 73
     6
 74
     0
 42
0.000000001
 43
0.00000001
 40
0.0
 40
0.0
 40
0.0
 40
0.0
 40
0.5
 40
0.5
 40
1.0
 40
1.0
 40
1.0
 40
1.0
 10
163.8075203848285
 20
103.939747229391
 30
0.0
 10
163.8075203848285
 20
103.8865690051901
 30
0.0
 10
163.8075203848285
 20
103.8309466329642
 30
0.0
 10
163.8075203848285
 20
103.7475821491094
 30
0.0
 10
163.8075203848285
 20
103.7204026040772
 30
0.0
 10
163.8075203848285
 20
103.7157318371749
 30
0.0
  0
SPLINE
  5
C2
330
1F
100
AcDbEntity
  8
0
  6
Continuous
 62
     7
370
    30
100
AcDbSpline
210
0.0
220
0.0
230
1.0
 70
     8
 71
     3
 72
     8
 73
     4
 74
     0
 42
0.000000001
 43
0.00000001
 40
0.0
 40
0.0
 40
0.0
 40
0.0
 40
1.0
 40
1.0
 40
1.0
 40
1.0
 10
163.8075203848285
 20
103.9397472293931
 30
0.0
 10
163.9147059986619
 20
103.9397472293931
 30
0.0
 10
164.0198276110285
 20
104.0010655514597
 30
0.0
 10
164.0718368230285
 20
104.0939983497931
 30
0.0
  0
SPLINE
  5
C3
330
1F
100
AcDbEntity
  8
0
  6
Continuous
 62
     7
370
    30
100
AcDbSpline
210
0.0
220
0.0
230
1.0
 70
     8
 71
     3
 72
    10
 73
     6
 74
     0
 42
0.000000001
 43
0.00000001
 40
0.0
 40
0.0
 40
0.0
 40
0.0
 40
0.5
 40
0.5
 40
1.0
 40
1.0
 40
1.0
 40
1.0
 10
164.2463885782285
 20
103.974476910793
 30
0.0
 10
164.2438228186452
 20
103.9821260129597
 30
0.0
 10
164.2238515004931
 20
103.9991854179389
 30
0.0
 10
164.1597296571077
 20
104.0430917938972
 30
0.0
 10
164.1159146926952
 20
104.0697089951264
 30
0.0
 10
164.0718368230285
 20
104.0939983497931
 30
0.0
  0
SPLINE
  5
C4
330
1F
100
AcDbEntity
  8
0
  6
Continuous
 62
     7
370
    30
100
AcDbSpline
210
0.0
220
0.0
230
1.0
 70
     8
 71
     3
 72
    10
 73
     6
 74
     0
 42
0.000000001
 43
0.00000001
 40
0.0
 40
0.0
 40
0.0
 40
0.0
 40
0.5
 40
0.5
 40
1.0
 40
1.0
 40
1.0
 40
1.0
 10
164.2463884023091
 20
103.9744768571036
 30
0.0
 10
164.2032349389992
 20
103.8969198659678
 30
0.0
 10
164.1389348119258
 20
103.8309762036503
 30
0.0
 10
163.9855001969919
 20
103.7404504101909
 30
0.0
 10
163.8965694614443
 20
103.7159902534933
 30
0.0
 10
163.8075203848285
 20
103.7157318371975
 30
0.0
  0
SPLINE
  5
C5
330
1F
100
AcDbEntity
  8
0
  6
Continuous
 62
     7
370
    30
100
AcDbSpline
210
0.0
220
0.0
230
1.0
 70
     8
 71
     3
 72
    10
 73
     6
 74
     0
 42
0.000000001
 43
0.00000001
 40
0.0
 40
0.0
 40
0.0
 40
0.0
 40
0.5
 40
0.5
 40
1.0
 40
1.0
 40
1.0
 40
1.0
 10
132.3126725792285
 20
103.974476910793
 30
0.0
 10
132.3152383388119
 20
103.9821260129597
 30
0.0
 10
132.335209656964
 20
103.9991854179389
 30
0.0
 10
132.3993315003494
 20
104.0430917938972
 30
0.0
 10
132.4431464647619
 20
104.0697089951264
 30
0.0
 10
132.4872243344286
 20
104.0939983497931
 30
0.0
  0
SPLINE
  5
C6
330
1F
100
AcDbEntity
  8
0
  6
Continuous
 62
     7
370
    30
100
AcDbSpline
210
0.0
220
0.0
230
1.0
 70
     8
 71
     3
 72
     8
 73
     4
 74
     0
 42
0.000000001
 43
0.00000001
 40
0.0
 40
0.0
 40
0.0
 40
0.0
 40
1.0
 40
1.0
 40
1.0
 40
1.0
 10
132.4872243344286
 20
104.0939983497931
 30
0.0
 10
132.5392335464285
 20
104.0010655514597
 30
0.0
 10
132.6443551587952
 20
103.9397472293931
 30
0.0
 10
132.7515407726285
 20
103.9397472293931
 30
0.0
  0
SPLINE
  5
C7
330
1F
100
AcDbEntity
  8
0
  6
Continuous
 62
     7
370
    30
100
AcDbSpline
210
0.0
220
0.0
230
1.0
 70
    24
 71
     3
 72
    10
 73
     6
 74
     0
 42
0.000000001
 43
0.00000001
 40
0.0
 40
0.0
 40
0.0
 40
0.0
 40
0.5
 40
0.5
 40
1.0
 40
1.0
 40
1.0
 40
1.0
 10
132.7515407726285
 20
103.7157318371749
 30
0.0
 10
132.7515407726285
 20
103.7204026040772
 30
0.0
 10
132.7515407726285
 20
103.7475821491094
 30
0.0
 10
132.7515407726285
 20
103.8309466329642
 30
0.0
 10
132.7515407726285
 20
103.8865690051901
 30
0.0
 10
132.7515407726285
 20
103.939747229391
 30
0.0
  0
SPLINE
  5
C8
330
1F
100
AcDbEntity
  8
0
  6
Continuous
 62
     7
370
    30
100
AcDbSpline
210
0.0
220
0.0
230
1.0
 70
     8
 71
     3
 72
    10
 73
     6
 74
     0
 42
0.000000001
 43
0.00000001
 40
0.0
 40
0.0
 40
0.0
 40
0.0
 40
0.5
 40
0.5
 40
1.0
 40
1.0
 40
1.0
 40
1.0
 10
132.7515407726285
 20
103.7157318371975
 30
0.0
 10
132.6624916960128
 20
103.7159902534933
 30
0.0
 10
132.5735609604651
 20
103.7404504101909
 30
0.0
 10
132.4201263455313
 20
103.8309762036503
 30
0.0
 10
132.3558262184579
 20
103.8969198659677
 30
0.0
 10
132.312672755148
 20
103.9744768571036
 30
0.0
  0
SPLINE
  5
C9
330
1F
100
AcDbEntity
  8
0
  6
Continuous
 62
     7
370
    30
100
AcDbSpline
210
0.0
220
0.0
230
1.0
 70
     8
 71
     3
 72
    10
 73
     6
 74
     0
 42
0.000000001
 43
0.00000001
 40
0.0
 40
0.0
 40
0.0
 40
0.0
 40
0.5
 40
0.5
 40
1.0
 40
1.0
 40
1.0
 40
1.0
 10
164.2463885782285
 20
185.5091610739931
 30
0.0
 10
164.2438228186452
 20
185.5015119718264
 30
0.0
 10
164.2238515004931
 20
185.4844525668472
 30
0.0
 10
164.1597296571077
 20
185.4405461908889
 30
0.0
 10
164.1159146926952
 20
185.4139289896597
 30
0.0
 10
164.0718368230285
 20
185.389639634993
 30
0.0
  0
SPLINE
  5
CA
330
1F
100
AcDbEntity
  8
0
  6
Continuous
 62
     7
370
    30
100
AcDbSpline
210
0.0
220
0.0
230
1.0
 70
     8
 71
     3
 72
    12
 73
     8
 74
     0
 42
0.000000001
 43
0.00000001
 40
0.0
 40
0.0
 40
0.0
 40
0.0
 40
0.168194250153044
 40
0.3332146647838886
 40
0.5002771551744233
 40
0.7479658364410935
 40
1.0
 40
1.0
 40
1.0
 40
1.0
 10
164.0718368230285
 20
185.3896396349942
 30
0.0
 10
164.0622567552549
 20
185.4048032318035
 30
0.0
 10
164.0432773961574
 20
185.4348442874466
 30
0.0
 10
164.0052581420506
 20
185.4728605108044
 30
0.0
 10
163.9546591202094
 20
185.5086320277979
 30
0.0
 10
163.8881996430867
 20
185.5378712710979
 30
0.0
 10
163.8345689246424
 20
185.5418726622167
 30
0.0
 10
163.8075203848285
 20
185.543890755394
 30
0.0
  0
SPLINE
  5
CB
330
1F
100
AcDbEntity
  8
0
  6
Continuous
 62
     7
370
    30
100
AcDbSpline
210
0.0
220
0.0
230
1.0
 70
    24
 71
     3
 72
    10
 73
     6
 74
     0
 42
0.000000001
 43
0.00000001
 40
0.0
 40
0.0
 40
0.0
 40
0.0
 40
0.5
 40
0.5
 40
1.0
 40
1.0
 40
1.0
 40
1.0
 10
163.8075203848285
 20
185.7679061476112
 30
0.0
 10
163.8075203848285
 20
185.7632353807089
 30
0.0
 10
163.8075203848285
 20
185.7360558356767
 30
0.0
 10
163.8075203848285
 20
185.6526913518219
 30
0.0
 10
163.8075203848285
 20
185.5970689795961
 30
0.0
 10
163.8075203848285
 20
185.5438907553951
 30
0.0
  0
SPLINE
  5
CC
330
1F
100
AcDbEntity
  8
0
  6
Continuous
 62
     7
370
    30
100
AcDbSpline
210
0.0
220
0.0
230
1.0
 70
     8
 71
     3
 72
    10
 73
     6
 74
     0
 42
0.000000001
 43
0.00000001
 40
0.0
 40
0.0
 40
0.0
 40
0.0
 40
0.5
 40
0.5
 40
1.0
 40
1.0
 40
1.0
 40
1.0
 10
163.8075203848285
 20
185.7679061475886
 30
0.0
 10
163.8965694614443
 20
185.7676477312928
 30
0.0
 10
163.9855001969919
 20
185.7431875745952
 30
0.0
 10
164.1389348119258
 20
185.6526617811358
 30
0.0
 10
164.2032349389992
 20
185.5867181188184
 30
0.0
 10
164.2463884023091
 20
185.5091611276825
 30
0.0
  0
SPLINE
  5
CD
330
1F
100
AcDbEntity
  8
0
  6
Continuous
 62
     7
370
    30
100
AcDbSpline
210
0.0
220
0.0
230
1.0
 70
     8
 71
     3
 72
     8
 73
     4
 74
     0
 42
0.000000001
 43
0.00000001
 40
0.0
 40
0.0
 40
0.0
 40
0.0
 40
1.0
 40
1.0
 40
1.0
 40
1.0
 10
133.9845078561748
 20
179.1151459855303
 30
0.0
 10
134.0028110406875
 20
179.1630623144822
 30
0.0
 10
134.0277971255355
 20
179.2072078445341
 30
0.0
 10
134.060520985463
 20
179.2474682521508
 30
0.0
  0
LINE
  5
CE
330
1F
100
AcDbEntity
  8
0
  6
Continuous
 62
     7
370
    30
100
AcDbLine
 10
132.5289584933
 20
184.4207017999
 30
0.0
 11
133.9845076441
 21
179.1151470821
 31
0.0
  0
SPLINE
  5
CF
330
1F
100
AcDbEntity
  8
0
  6
Continuous
 62
     7
370
    30
100
AcDbSpline
210
0.0
220
0.0
230
1.0
 70
     8
 71
     3
 72
     8
 73
     4
 74
     0
 42
0.000000001
 43
0.00000001
 40
0.0
 40
0.0
 40
0.0
 40
0.0
 40
1.0
 40
1.0
 40
1.0
 40
1.0
 10
132.4700550206285
 20
185.253534868193
 30
0.0
 10
132.4888887036285
 20
184.9765813011931
 30
0.0
 10
132.5085035406952
 20
184.6985841596264
 30
0.0
 10
132.5289579380286
 20
184.420700126293
 30
0.0
  0
SPLINE
  5
D0
330
1F
100
AcDbEntity
  8
0
  6
Continuous
 62
     7
370
    30
100
AcDbSpline
210
0.0
220
0.0
230
1.0
 70
     8
 71
     3
 72
     8
 73
     4
 74
     0
 42
0.000000001
 43
0.00000001
 40
0.0
 40
0.0
 40
0.0
 40
0.0
 40
1.0
 40
1.0
 40
1.0
 40
1.0
 10
132.4872243637285
 20
185.389639528393
 30
0.0
 10
132.4724509348952
 20
185.3485264288931
 30
0.0
 10
132.4668112182285
 20
185.3012367477264
 30
0.0
 10
132.4700550872285
 20
185.253534818393
 30
0.0
  0
LINE
  5
D1
330
1F
100
AcDbEntity
  8
0
  6
Continuous
 62
     7
370
    30
100
AcDbLine
 10
132.4872240661
 20
185.3896386306
 30
0.0
 11
134.1464106231
 21
179.3418198209
 31
0.0
  0
ELLIPSE
  5
D2
330
1F
100
AcDbEntity
  8
0
  6
Continuous
 62
     7
370
    30
100
AcDbEllipse
 10
135.2366973288
 20
175.3057286815
 30
0.0
 11
1.106684564240453
 21
-4.033921892861059
 31
0.0
210
0.0
220
0.0
230
1.0
 40
0.1195321624
 41
3.108811401458738
 42
3.325455717286649
  0
SPLINE
  5
D3
330
1F
100
AcDbEntity
  8
0
  6
Continuous
 62
     7
370
    30
100
AcDbSpline
210
0.0
220
0.0
230
1.0
 70
     8
 71
     3
 72
     8
 73
     4
 74
     0
 42
0.000000001
 43
0.00000001
 40
0.0
 40
0.0
 40
0.0
 40
0.0
 40
1.0
 40
1.0
 40
1.0
 40
1.0
 10
162.5745533012824
 20
110.3684919992558
 30
0.0
 10
162.5562501167695
 20
110.3205756703039
 30
0.0
 10
162.5312640319216
 20
110.276430140252
 30
0.0
 10
162.4985401719941
 20
110.2361697326353
 30
0.0
  0
LINE
  5
D4
330
1F
100
AcDbEntity
  8
0
  6
Continuous
 62
     7
370
    30
100
AcDbLine
 10
162.5745535134
 20
110.3684909027
 30
0.0
 11
164.0301026641
 21
105.0629361849
 31
0.0
  0
SPLINE
  5
D5
330
1F
100
AcDbEntity
  8
0
  6
Continuous
 62
     7
370
    30
100
AcDbSpline
210
0.0
220
0.0
230
1.0
 70
     8
 71
     3
 72
     8
 73
     4
 74
     0
 42
0.000000001
 43
0.00000001
 40
0.0
 40
0.0
 40
0.0
 40
0.0
 40
1.0
 40
1.0
 40
1.0
 40
1.0
 10
164.0890061368285
 20
104.2301031165931
 30
0.0
 10
164.0701724538285
 20
104.507056683593
 30
0.0
 10
164.0505576167619
 20
104.7850538251597
 30
0.0
 10
164.0301032194286
 20
105.062937858493
 30
0.0
  0
SPLINE
  5
D6
330
1F
100
AcDbEntity
  8
0
  6
Continuous
 62
     7
370
    30
100
AcDbSpline
210
0.0
220
0.0
230
1.0
 70
     8
 71
     3
 72
     8
 73
     4
 74
     0
 42
0.000000001
 43
0.00000001
 40
0.0
 40
0.0
 40
0.0
 40
0.0
 40
1.0
 40
1.0
 40
1.0
 40
1.0
 10
164.0718367937286
 20
104.0939984563931
 30
0.0
 10
164.0866102225619
 20
104.135111555893
 30
0.0
 10
164.0922499392286
 20
104.1824012370597
 30
0.0
 10
164.0890060702285
 20
104.2301031663931
 30
0.0
  0
LINE
  5
D7
330
1F
100
AcDbEntity
  8
0
  6
Continuous
 62
     7
370
    30
100
AcDbLine
 10
162.4126505344
 20
110.1418181639
 30
0.0
 11
164.0718370913
 21
104.0939993541
 31
0.0
  0
ELLIPSE
  5
D8
330
1F
100
AcDbEntity
  8
0
  6
Continuous
 62
     7
370
    30
100
AcDbEllipse
 10
161.3223638287
 20
114.1779093033
 30
0.0
 11
-1.106684564240424
 21
4.033921892861073
 31
0.0
210
0.0
220
0.0
230
1.0
 40
0.1195321624
 41
3.10881140145881
 42
3.325455717286808
  0
SPLINE
  5
D9
330
1F
100
AcDbEntity
  8
0
  6
Continuous
 62
     7
370
    30
100
AcDbSpline
210
0.0
220
0.0
230
1.0
 70
     8
 71
     3
 72
     8
 73
     4
 74
     0
 42
0.000000001
 43
0.00000001
 40
0.0
 40
0.0
 40
0.0
 40
0.0
 40
1.0
 40
1.0
 40
1.0
 40
1.0
 10
162.4985390460449
 20
179.2474679453975
 30
0.0
 10
162.5312629594026
 20
179.2072075690129
 30
0.0
 10
162.5562500826254
 20
179.1630624481699
 30
0.0
 10
162.5745533147331
 20
179.1151459954016
 30
0.0
  0
ELLIPSE
  5
DA
330
1F
100
AcDbEntity
  8
0
  6
Continuous
 62
     7
370
    30
100
AcDbEllipse
 10
161.3223638287
 20
175.3057286815
 30
0.0
 11
1.106684564240425
 21
4.033921892861088
 31
0.0
210
0.0
220
0.0
230
1.0
 40
0.1195321624
 41
6.099322243482824
 42
6.315966559310571
  0
LINE
  5
DB
330
1F
100
AcDbEntity
  8
0
  6
Continuous
 62
     7
370
    30
100
AcDbLine
 10
162.4126505344
 20
179.3418198209
 30
0.0
 11
164.0718370913
 21
185.3896386306
 31
0.0
  0
SPLINE
  5
DC
330
1F
100
AcDbEntity
  8
0
  6
Continuous
 62
     7
370
    30
100
AcDbSpline
210
0.0
220
0.0
230
1.0
 70
     8
 71
     3
 72
     8
 73
     4
 74
     0
 42
0.000000001
 43
0.00000001
 40
0.0
 40
0.0
 40
0.0
 40
0.0
 40
1.0
 40
1.0
 40
1.0
 40
1.0
 10
164.0890060702285
 20
185.253534818393
 30
0.0
 10
164.0922499392286
 20
185.3012367477264
 30
0.0
 10
164.0866102225619
 20
185.3485264288931
 30
0.0
 10
164.0718367937286
 20
185.389639528393
 30
0.0
  0
SPLINE
  5
DD
330
1F
100
AcDbEntity
  8
0
  6
Continuous
 62
     7
370
    30
100
AcDbSpline
210
0.0
220
0.0
230
1.0
 70
     8
 71
     3
 72
     8
 73
     4
 74
     0
 42
0.000000001
 43
0.00000001
 40
0.0
 40
0.0
 40
0.0
 40
0.0
 40
1.0
 40
1.0
 40
1.0
 40
1.0
 10
164.0301032194286
 20
184.420700126293
 30
0.0
 10
164.0505576167619
 20
184.6985841596264
 30
0.0
 10
164.0701724538285
 20
184.9765813011931
 30
0.0
 10
164.0890061368285
 20
185.253534868193
 30
0.0
  0
LINE
  5
DE
330
1F
100
AcDbEntity
  8
0
  6
Continuous
 62
     7
370
    30
100
AcDbLine
 10
164.0301026641
 20
184.4207017999
 30
0.0
 11
162.5745535134
 21
179.1151470821
 31
0.0
  0
SPLINE
  5
DF
330
1F
100
AcDbEntity
  8
0
  6
Continuous
 62
     7
370
    30
100
AcDbSpline
210
0.0
220
0.0
230
1.0
 70
     8
 71
     3
 72
     8
 73
     4
 74
     0
 42
0.000000001
 43
0.00000001
 40
0.0
 40
0.0
 40
0.0
 40
0.0
 40
1.0
 40
1.0
 40
1.0
 40
1.0
 10
134.0605221114122
 20
110.2361700393886
 30
0.0
 10
134.0277981980545
 20
110.2764304157732
 30
0.0
 10
134.0028110748316
 20
110.3205755366162
 30
0.0
 10
133.984507842724
 20
110.3684919893845
 30
0.0
  0
ELLIPSE
  5
E0
330
1F
100
AcDbEntity
  8
0
  6
Continuous
 62
     7
370
    30
100
AcDbEllipse
 10
135.2366973288
 20
114.1779093033
 30
0.0
 11
-1.106684564240425
 21
-4.033921892861059
 31
0.0
210
0.0
220
0.0
230
1.0
 40
0.1195321624
 41
6.099322243482869
 42
6.315966559310569
  0
LINE
  5
E1
330
1F
100
AcDbEntity
  8
0
  6
Continuous
 62
     7
370
    30
100
AcDbLine
 10
132.4872240661
 20
104.0939993541
 30
0.0
 11
134.1464106231
 21
110.1418181639
 31
0.0
  0
SPLINE
  5
E2
330
1F
100
AcDbEntity
  8
0
  6
Continuous
 62
     7
370
    30
100
AcDbSpline
210
0.0
220
0.0
230
1.0
 70
     8
 71
     3
 72
     8
 73
     4
 74
     0
 42
0.000000001
 43
0.00000001
 40
0.0
 40
0.0
 40
0.0
 40
0.0
 40
1.0
 40
1.0
 40
1.0
 40
1.0
 10
132.4700550872285
 20
104.2301031663931
 30
0.0
 10
132.4668112182285
 20
104.1824012370597
 30
0.0
 10
132.4724509348952
 20
104.135111555893
 30
0.0
 10
132.4872243637285
 20
104.0939984563931
 30
0.0
  0
SPLINE
  5
E3
330
1F
100
AcDbEntity
  8
0
  6
Continuous
 62
     7
370
    30
100
AcDbSpline
210
0.0
220
0.0
230
1.0
 70
     8
 71
     3
 72
     8
 73
     4
 74
     0
 42
0.000000001
 43
0.00000001
 40
0.0
 40
0.0
 40
0.0
 40
0.0
 40
1.0
 40
1.0
 40
1.0
 40
1.0
 10
132.5289579380286
 20
105.062937858493
 30
0.0
 10
132.5085035406952
 20
104.7850538251597
 30
0.0
 10
132.4888887036285
 20
104.507056683593
 30
0.0
 10
132.4700550206285
 20
104.2301031165931
 30
0.0
  0
LINE
  5
E4
330
1F
100
AcDbEntity
  8
0
  6
Continuous
 62
     7
370
    30
100
AcDbLine
 10
133.9845076441
 20
110.3684909027
 30
0.0
 11
132.5289584933
 21
105.0629361849
 31
0.0
  0
LINE
  5
E5
330
1F
100
AcDbEntity
  8
0
  6
Continuous
 62
     7
370
    30
100
AcDbLine
 10
132.7515408634
 20
103.7157333772
 30
0.0
 11
163.8075202941
 21
103.7157333772
 31
0.0
  0
LINE
  5
E6
330
1F
100
AcDbEntity
  8
0
  6
Continuous
 62
     7
370
    30
100
AcDbLine
 10
163.8075202941
 20
103.9397462588
 30
0.0
 11
132.7515408634
 21
103.9397462588
 31
0.0
  0
LINE
  5
E7
330
1F
100
AcDbEntity
  8
0
  6
Continuous
 62
     7
370
    30
100
AcDbLine
 10
163.8075202941
 20
185.543891726
 30
0.0
 11
132.7515408634
 21
185.543891726
 31
0.0
  0
LINE
  5
E8
330
1F
100
AcDbEntity
  8
0
  6
Continuous
 62
     7
370
    30
100
AcDbLine
 10
163.8075202941
 20
185.7679046076
 30
0.0
 11
132.7515408634
 21
185.7679046076
 31
0.0
  0
ELLIPSE
  5
E9
330
1F
100
AcDbEntity
  8
0
  6
Continuous
 62
     7
370
    30
100
AcDbEllipse
 10
134.4427788406
 20
178.9285707305
 30
0.0
 11
0.5012585681805888
 21
0.03887969190620311
 31
0.0
210
0.0
220
0.0
230
1.0
 40
0.9869501288
 41
1.492367798853218
 42
2.079099740507953
  0
LINE
  5
EA
330
1F
100
AcDbEntity
  8
0
  6
Continuous
 62
     7
370
    30
100
AcDbLine
 10
134.1464106231
 20
179.3418198209
 30
0.0
 11
134.1652978449
 21
179.3418198209
 31
0.0
  0
LINE
  5
EB
330
1F
100
AcDbEntity
  8
0
  6
Continuous
 62
     7
370
    30
100
AcDbLine
 10
162.3937633126
 20
179.3418198209
 30
0.0
 11
162.4126505344
 21
179.3418198209
 31
0.0
  0
ELLIPSE
  5
EC
330
1F
100
AcDbEntity
  8
0
  6
Continuous
 62
     7
370
    30
100
AcDbEllipse
 10
162.1162823168
 20
178.9285707305
 30
0.0
 11
0.5012585681805888
 21
-0.03887969190620311
 31
0.0
210
0.0
220
0.0
230
1.0
 40
0.9869501288
 41
1.062492913081838
 42
1.649224854736576
  0
LINE
  5
ED
330
1F
100
AcDbEntity
  8
0
  6
Continuous
 62
     7
370
    30
100
AcDbLine
 10
162.1152643352
 20
179.4248118382
 30
0.0
 11
134.4437968223
 21
179.4248118382
 31
0.0
  0
ELLIPSE
  5
EE
330
1F
100
AcDbEntity
  8
0
  6
Continuous
 62
     7
370
    30
100
AcDbEllipse
 10
162.1162823168
 20
110.5550672543
 30
0.0
 11
0.5012585681805888
 21
0.03887969190620311
 31
0.0
210
0.0
220
0.0
230
1.0
 40
0.9869501288
 41
4.633960452443023
 42
5.220692394097775
  0
LINE
  5
EF
330
1F
100
AcDbEntity
  8
0
  6
Continuous
 62
     7
370
    30
100
AcDbLine
 10
162.3937633126
 20
110.1418181639
 30
0.0
 11
162.4126505344
 21
110.1418181639
 31
0.0
  0
LINE
  5
F0
330
1F
100
AcDbEntity
  8
0
  6
Continuous
 62
     7
370
    30
100
AcDbLine
 10
134.1464106231
 20
110.1418181639
 30
0.0
 11
134.1652978449
 21
110.1418181639
 31
0.0
  0
ELLIPSE
  5
F1
330
1F
100
AcDbEntity
  8
0
  6
Continuous
 62
     7
370
    30
100
AcDbEllipse
 10
134.4427788406
 20
110.5550672543
 30
0.0
 11
0.5012585681805888
 21
-0.03887969190620311
 31
0.0
210
0.0
220
0.0
230
1.0
 40
0.9869501288
 41
4.204085566671633
 42
4.790817508326384
  0
LINE
  5
F2
330
1F
100
AcDbEntity
  8
0
  6
Continuous
 62
     7
370
    30
100
AcDbLine
 10
162.1152643352
 20
110.0588261466
 30
0.0
 11
134.4437968223
 21
110.0588261466
 31
0.0
  0
SPLINE
  5
F3
330
1F
100
AcDbEntity
  8
0
  6
Continuous
 62
     7
370
    30
100
AcDbSpline
210
0.0
220
0.0
230
1.0
 70
     8
 71
     3
 72
    10
 73
     6
 74
     0
 42
0.000000001
 43
0.00000001
 40
0.0
 40
0.0
 40
0.0
 40
0.0
 40
0.5
 40
0.5
 40
1.0
 40
1.0
 40
1.0
 40
1.0
 10
164.3085092026286
 20
104.2109377221931
 30
0.0
 10
164.3039244312119
 20
104.216002507943
 30
0.0
 10
164.277432372564
 20
104.2210305647826
 30
0.0
 10
164.1960039389806
 20
104.2281403133972
 30
0.0
 10
164.1415798591452
 20
104.2301772752264
 30
0.0
 10
164.0890060702285
 20
104.2301031663931
 30
0.0
  0
SPLINE
  5
F4
330
1F
100
AcDbEntity
  8
0
  6
Continuous
 62
     7
370
    30
100
AcDbSpline
210
0.0
220
0.0
230
1.0
 70
     8
 71
     3
 72
    12
 73
     8
 74
     0
 42
0.000000001
 43
0.00000001
 40
0.0
 40
0.0
 40
0.0
 40
0.0
 40
0.251787739304573
 40
0.4776816929790308
 40
0.6776794736042951
 40
0.8517828667818648
 40
1.0
 40
1.0
 40
1.0
 40
1.0
 10
164.308509197303
 20
104.210937722893
 30
0.0
 10
164.3075969731177
 20
104.1902239437114
 30
0.0
 10
164.3058663376451
 20
104.1509265850123
 30
0.0
 10
164.2949823756786
 20
104.0960275442973
 30
0.0
 10
164.280610555281
 20
104.048720036579
 30
0.0
 10
164.2644468895309
 20
104.0087683472687
 30
0.0
 10
164.252076740217
 20
103.9852785140214
 30
0.0
 10
164.2463884023091
 20
103.9744768571036
 30
0.0
  0
SPLINE
  5
F5
330
1F
100
AcDbEntity
  8
0
  6
Continuous
 62
     7
370
    30
100
AcDbSpline
210
0.0
220
0.0
230
1.0
 70
     8
 71
     3
 72
    10
 73
     6
 74
     0
 42
0.000000001
 43
0.00000001
 40
0.0
 40
0.0
 40
0.0
 40
0.0
 40
0.5
 40
0.5
 40
1.0
 40
1.0
 40
1.0
 40
1.0
 10
132.2505519548286
 20
185.272700262593
 30
0.0
 10
132.2551367262452
 20
185.2676354768431
 30
0.0
 10
132.2816287848931
 20
185.2626074200035
 30
0.0
 10
132.3630572184765
 20
185.2554976713889
 30
0.0
 10
132.4174812983119
 20
185.2534607095597
 30
0.0
 10
132.4700550872285
 20
185.253534818393
 30
0.0
  0
SPLINE
  5
F6
330
1F
100
AcDbEntity
  8
0
  6
Continuous
 62
     7
370
    30
100
AcDbSpline
210
0.0
220
0.0
230
1.0
 70
     8
 71
     3
 72
    12
 73
     8
 74
     0
 42
0.000000001
 43
0.00000001
 40
0.0
 40
0.0
 40
0.0
 40
0.0
 40
0.2517877629330006
 40
0.4776817284340413
 40
0.6776795090707998
 40
0.8517828904331426
 40
1.0
 40
1.0
 40
1.0
 40
1.0
 10
132.2505519601543
 20
185.2727002619214
 30
0.0
 10
132.2514641845007
 20
185.2934140430386
 30
0.0
 10
132.2531948202448
 20
185.3327114046386
 30
0.0
 10
132.2640787836254
 20
185.3876104480721
 30
0.0
 10
132.2784506048445
 20
185.4349179555407
 30
0.0
 10
132.2946142700911
 20
185.4748696418892
 30
0.0
 10
132.3069844181151
 20
185.4983594725083
 30
0.0
 10
132.312672755148
 20
185.5091611276825
 30
0.0
  0
SPLINE
  5
F7
330
1F
100
AcDbEntity
  8
0
  6
Continuous
 62
     7
370
    30
100
AcDbSpline
210
0.0
220
0.0
230
1.0
 70
     8
 71
     3
 72
     8
 73
     4
 74
     0
 42
0.000000001
 43
0.00000001
 40
0.0
 40
0.0
 40
0.0
 40
0.0
 40
1.0
 40
1.0
 40
1.0
 40
1.0
 10
132.3126728651285
 20
103.974476656193
 30
0.0
 10
132.2720973139619
 20
104.0475834291931
 30
0.0
 10
132.2512079719952
 20
104.129681856193
 30
0.0
 10
132.2505519548286
 20
104.2109377221931
 30
0.0
  0
SPLINE
  5
F8
330
1F
100
AcDbEntity
  8
0
  6
Continuous
 62
     7
370
    30
100
AcDbSpline
210
0.0
220
0.0
230
1.0
 70
     8
 71
     3
 72
    10
 73
     6
 74
     0
 42
0.000000001
 43
0.00000001
 40
0.0
 40
0.0
 40
0.0
 40
0.0
 40
0.5
 40
0.5
 40
1.0
 40
1.0
 40
1.0
 40
1.0
 10
132.2505519132285
 20
104.210937671093
 30
0.0
 10
132.2551366834786
 20
104.2160024525097
 30
0.0
 10
132.2816287377514
 20
104.2210305069472
 30
0.0
 10
132.3630571608869
 20
104.2281402559889
 30
0.0
 10
132.4174812347952
 20
104.2301772206764
 30
0.0
 10
132.4700550206285
 20
104.2301031165931
 30
0.0
  0
SPLINE
  5
F9
330
1F
100
AcDbEntity
  8
0
  6
Continuous
 62
     7
370
    30
100
AcDbSpline
210
0.0
220
0.0
230
1.0
 70
     8
 71
     3
 72
    10
 73
     6
 74
     0
 42
0.000000001
 43
0.00000001
 40
0.0
 40
0.0
 40
0.0
 40
0.0
 40
0.2614989844944627
 40
0.5948517362308594
 40
1.0
 40
1.0
 40
1.0
 40
1.0
 10
164.2463884023091
 20
185.5091611276825
 30
0.0
 10
164.256065131154
 20
185.4899319282206
 30
0.0
 10
164.2780775262139
 20
185.4461897977939
 30
0.0
 10
164.3021824827909
 20
185.3667297675332
 30
0.0
 10
164.3062679005641
 20
185.3060110781236
 30
0.0
 10
164.3085091973028
 20
185.2727002619214
 30
0.0
  0
SPLINE
  5
FA
330
1F
100
AcDbEntity
  8
0
  6
Continuous
 62
     7
370
    30
100
AcDbSpline
210
0.0
220
0.0
230
1.0
 70
     8
 71
     3
 72
    10
 73
     6
 74
     0
 42
0.000000001
 43
0.00000001
 40
0.0
 40
0.0
 40
0.0
 40
0.0
 40
0.5
 40
0.5
 40
1.0
 40
1.0
 40
1.0
 40
1.0
 10
164.3085092442285
 20
185.2727003136931
 30
0.0
 10
164.3039244739786
 20
185.2676355322764
 30
0.0
 10
164.2774324197056
 20
185.2626074778389
 30
0.0
 10
164.1960039965702
 20
185.2554977287972
 30
0.0
 10
164.1415799226619
 20
185.2534607641097
 30
0.0
 10
164.0890061368285
 20
185.253534868193
 30
0.0
  0
SPLINE
  5
FB
330
1F
100
AcDbEntity
  8
0
  6
Continuous
 62
     7
370
    30
100
AcDbSpline
210
0.0
220
0.0
230
1.0
 70
    24
 71
     3
 72
    10
 73
     6
 74
     0
 42
0.000000001
 43
0.00000001
 40
0.0
 40
0.0
 40
0.0
 40
0.0
 40
0.5
 40
0.5
 40
1.0
 40
1.0
 40
1.0
 40
1.0
 10
164.3121807331682
 20
105.0629378908931
 30
0.0
 10
164.3066302099859
 20
105.0629378908931
 30
0.0
 10
164.2687497847503
 20
105.0629378908931
 30
0.0
 10
164.1587386215663
 20
105.0629378908931
 30
0.0
 10
164.0880697525621
 20
105.0629378908931
 30
0.0
 10
164.0301032276085
 20
105.0629378908931
 30
0.0
  0
SPLINE
  5
FC
330
1F
100
AcDbEntity
  8
0
  6
Continuous
 62
     7
370
    30
100
AcDbSpline
210
0.0
220
0.0
230
1.0
 70
     8
 71
     3
 72
     8
 73
     4
 74
     0
 42
0.000000001
 43
0.00000001
 40
0.0
 40
0.0
 40
0.0
 40
0.0
 40
1.0
 40
1.0
 40
1.0
 40
1.0
 10
164.3121807332285
 20
105.0629378405931
 30
0.0
 10
164.3121807808952
 20
104.7782801999264
 30
0.0
 10
164.3108837557286
 20
104.4939078204264
 30
0.0
 10
164.3085092442285
 20
104.210937671093
 30
0.0
  0
SPLINE
  5
FD
330
1F
100
AcDbEntity
  8
0
  6
Continuous
 62
     7
370
    30
100
AcDbSpline
210
0.0
220
0.0
230
1.0
 70
    24
 71
     3
 72
    10
 73
     6
 74
     0
 42
0.000000001
 43
0.00000001
 40
0.0
 40
0.0
 40
0.0
 40
0.0
 40
0.5
 40
0.5
 40
1.0
 40
1.0
 40
1.0
 40
1.0
 10
132.2468804242889
 20
184.4207000938931
 30
0.0
 10
132.2524309474712
 20
184.4207000938931
 30
0.0
 10
132.2903113727068
 20
184.4207000938931
 30
0.0
 10
132.4003225358908
 20
184.4207000938931
 30
0.0
 10
132.470991404895
 20
184.4207000938931
 30
0.0
 10
132.5289579298486
 20
184.4207000938931
 30
0.0
  0
SPLINE
  5
FE
330
1F
100
AcDbEntity
  8
0
  6
Continuous
 62
     7
370
    30
100
AcDbSpline
210
0.0
220
0.0
230
1.0
 70
     8
 71
     3
 72
     8
 73
     4
 74
     0
 42
0.000000001
 43
0.00000001
 40
0.0
 40
0.0
 40
0.0
 40
0.0
 40
1.0
 40
1.0
 40
1.0
 40
1.0
 10
132.2468804242286
 20
184.420700144193
 30
0.0
 10
132.2468803765619
 20
184.7053577848597
 30
0.0
 10
132.2481774017285
 20
184.9897301643597
 30
0.0
 10
132.2505519132285
 20
185.2727003136931
 30
0.0
  0
SPLINE
  5
FF
330
1F
100
AcDbEntity
  8
0
  6
Continuous
 62
     7
370
    30
100
AcDbSpline
210
0.0
220
0.0
230
1.0
 70
    24
 71
     3
 72
    10
 73
     6
 74
     0
 42
0.000000001
 43
0.00000001
 40
0.0
 40
0.0
 40
0.0
 40
0.0
 40
0.5
 40
0.5
 40
1.0
 40
1.0
 40
1.0
 40
1.0
 10
132.5289579298486
 20
105.0629378405931
 30
0.0
 10
132.470991404895
 20
105.0629378405931
 30
0.0
 10
132.4003225358908
 20
105.062937840593
 30
0.0
 10
132.2903113727068
 20
105.0629378405931
 30
0.0
 10
132.2524309474712
 20
105.0629378405931
 30
0.0
 10
132.2468804242889
 20
105.0629378405931
 30
0.0
  0
SPLINE
  5
100
330
1F
100
AcDbEntity
  8
0
  6
Continuous
 62
     7
370
    30
100
AcDbSpline
210
0.0
220
0.0
230
1.0
 70
     8
 71
     3
 72
    10
 73
     6
 74
     0
 42
0.000000001
 43
0.00000001
 40
0.0
 40
0.0
 40
0.0
 40
0.0
 40
0.3397773114580465
 40
0.6729995156785125
 40
1.0
 40
1.0
 40
1.0
 40
1.0
 10
132.2505519601692
 20
104.210937722893
 30
0.0
 10
132.249823453896
 20
104.307226857356
 30
0.0
 10
132.2483804959572
 20
104.4979474813452
 30
0.0
 10
132.247141831866
 20
104.7821290635634
 30
0.0
 10
132.2469670109752
 20
104.9699248232587
 30
0.0
 10
132.2468804242569
 20
105.0629378405931
 30
0.0
  0
SPLINE
  5
101
330
1F
100
AcDbEntity
  8
0
  6
Continuous
 62
     7
370
    30
100
AcDbSpline
210
0.0
220
0.0
230
1.0
 70
    24
 71
     3
 72
    10
 73
     6
 74
     0
 42
0.000000001
 43
0.00000001
 40
0.0
 40
0.0
 40
0.0
 40
0.0
 40
0.5
 40
0.5
 40
1.0
 40
1.0
 40
1.0
 40
1.0
 10
164.0301032276085
 20
184.420700144193
 30
0.0
 10
164.0880697525621
 20
184.420700144193
 30
0.0
 10
164.1587386215663
 20
184.4207001441931
 30
0.0
 10
164.2687497847503
 20
184.420700144193
 30
0.0
 10
164.3066302099859
 20
184.420700144193
 30
0.0
 10
164.3121807331682
 20
184.420700144193
 30
0.0
  0
SPLINE
  5
102
330
1F
100
AcDbEntity
  8
0
  6
Continuous
 62
     7
370
    30
100
AcDbSpline
210
0.0
220
0.0
230
1.0
 70
     8
 71
     3
 72
    10
 73
     6
 74
     0
 42
0.000000001
 43
0.00000001
 40
0.0
 40
0.0
 40
0.0
 40
0.0
 40
0.3270004843215039
 40
0.6602226885419537
 40
1.0
 40
1.0
 40
1.0
 40
1.0
 10
164.3121807332002
 20
184.420700144193
 30
0.0
 10
164.3120941464819
 20
184.5137131615274
 30
0.0
 10
164.3119193255911
 20
184.7015089212227
 30
0.0
 10
164.3106806614999
 20
184.9856905034409
 30
0.0
 10
164.3092377035611
 20
185.1764111274301
 30
0.0
 10
164.3085091972879
 20
185.272700261893
 30
0.0
  0
LINE
  5
103
330
1F
100
AcDbEntity
  8
0
  6
Continuous
 62
     7
370
    30
100
AcDbLine
 10
164.3121816455
 20
105.0629361849
 30
0.0
 11
164.3121816455
 21
184.4207017999
 31
0.0
  0
LINE
  5
104
330
1F
100
AcDbEntity
  8
0
  6
Continuous
 62
     7
370
    30
100
AcDbLine
 10
164.0301026641
 20
105.0629361849
 30
0.0
 11
164.0301026641
 21
184.4207017999
 31
0.0
  0
LINE
  5
105
330
1F
100
AcDbEntity
  8
0
  6
Continuous
 62
     7
370
    30
100
AcDbLine
 10
132.5289584933
 20
105.0629361849
 30
0.0
 11
132.5289584933
 21
184.4207017999
 31
0.0
  0
LINE
  5
106
330
1F
100
AcDbEntity
  8
0
  6
Continuous
 62
     7
370
    30
100
AcDbLine
 10
132.2468795119
 20
184.4207017999
 30
0.0
 11
132.2468795119
 21
105.0629361849
 31
0.0
  0
LINE
  5
107
330
1F
100
AcDbEntity
  8
0
  6
Continuous
 62
     7
370
    30
100
AcDbLine
 10
116.1815017699
 20
88.1418890636
 30
0.0
 11
115.9875035523
 21
87.947890846
 31
0.0
  0
ELLIPSE
  5
108
330
1F
100
AcDbEntity
  8
0
  6
Continuous
 62
     7
370
    30
100
AcDbEllipse
 10
116.68341329
 20
88.1457017036
 30
0.0
 11
0.356249303945134
 21
0.3562493039451198
 31
0.0
210
0.0
220
0.0
230
1.0
 40
0.9924325091
 41
2.359992588496332
 42
3.923192718683279
  0
LINE
  5
109
330
1F
100
AcDbEntity
  8
0
  6
Continuous
 62
     7
370
    30
100
AcDbLine
 10
116.4856009423
 20
87.4497934561
 30
0.0
 11
116.6795991598
 21
87.6437916737
 31
0.0
  0
LINE
  5
10A
330
1F
100
AcDbEntity
  8
0
  6
Continuous
 62
     7
370
    30
100
AcDbLine
 10
180.5715576051
 20
201.5357471388
 30
0.0
 11
180.3775593876
 21
201.3417489212
 31
0.0
  0
ELLIPSE
  5
10B
330
1F
100
AcDbEntity
  8
0
  6
Continuous
 62
     7
370
    30
100
AcDbEllipse
 10
179.8756478675
 20
201.3379362811
 30
0.0
 11
-0.3562493039451055
 21
-0.3562493039451339
 31
0.0
210
0.0
220
0.0
230
1.0
 40
0.9924325091
 41
2.359992588496302
 42
3.923192718683218
  0
LINE
  5
10C
330
1F
100
AcDbEntity
  8
0
  6
Continuous
 62
     7
370
    30
100
AcDbLine
 10
179.8794619976
 20
201.8398463111
 30
0.0
 11
180.0734602152
 21
202.0338445287
 31
0.0
  0
LINE
  5
10D
330
1F
100
AcDbEntity
  8
0
  6
Continuous
 62
     7
370
    30
100
AcDbLine
 10
115.9875035523
 20
201.5357471388
 30
0.0
 11
116.1815017699
 21
201.3417489212
 31
0.0
  0
LINE
  5
10E
330
1F
100
AcDbEntity
  8
0
  6
Continuous
 62
     7
370
    30
100
AcDbLine
 10
116.4856009423
 20
202.0338445287
 30
0.0
 11
116.6795991598
 21
201.8398463111
 31
0.0
  0
ELLIPSE
  5
10F
330
1F
100
AcDbEntity
  8
0
  6
Continuous
 62
     7
370
    30
100
AcDbEllipse
 10
116.68341329
 20
201.3379362811
 30
0.0
 11
-0.3562493039451339
 21
0.3562493039451055
 31
0.0
210
0.0
220
0.0
230
1.0
 40
0.9924325091
 41
5.501585242086128
 42
7.064785372273008
  0
LINE
  5
110
330
1F
100
AcDbEntity
  8
0
  6
Continuous
 62
     7
370
    30
100
AcDbLine
 10
180.3775593876
 20
88.1418890636
 30
0.0
 11
180.5715576051
 21
87.947890846
 31
0.0
  0
LINE
  5
111
330
1F
100
AcDbEntity
  8
0
  6
Continuous
 62
     7
370
    30
100
AcDbLine
 10
179.8794619976
 20
87.6437916737
 30
0.0
 11
180.0734602152
 21
87.4497934561
 31
0.0
  0
ELLIPSE
  5
112
330
1F
100
AcDbEntity
  8
0
  6
Continuous
 62
     7
370
    30
100
AcDbEllipse
 10
179.8756478675
 20
88.1457017036
 30
0.0
 11
0.356249303945134
 21
-0.3562493039451198
 31
0.0
210
0.0
220
0.0
230
1.0
 40
0.9924325091
 41
5.50158524208611
 42
7.064785372273037
  0
ELLIPSE
  5
113
330
1F
100
AcDbEntity
  8
0
  6
Continuous
 62
     7
370
    30
100
AcDbEllipse
 10
134.4290907648
 20
110.5413791784
 30
0.0
 11
-0.1574427123264286
 21
0.4806158864532648
 31
0.0
210
0.0
220
0.0
230
1.0
 40
0.9430368476
 41
1.236463933983056
 42
1.622019021405827
  0
ELLIPSE
  5
114
330
1F
100
AcDbEntity
  8
0
  6
Continuous
 62
     7
370
    30
100
AcDbEllipse
 10
134.4290907648
 20
178.9422588064
 30
0.0
 11
0.1574427123264002
 21
0.4806158864532222
 31
0.0
210
0.0
220
0.0
230
1.0
 40
0.9430368476
 41
1.519573632183987
 42
1.905128719606745
  0
LINE
  5
115
330
1F
100
AcDbEntity
  8
0
  6
Continuous
 62
     7
370
    30
100
AcDbLine
 10
133.9492850243
 20
110.5588346105
 30
0.0
 11
133.9492850243
 21
178.9248033743
 31
0.0
  0
ELLIPSE
  5
116
330
1F
100
AcDbEntity
  8
0
  6
Continuous
 62
     7
370
    30
100
AcDbEllipse
 10
162.1299703927
 20
178.9422588064
 30
0.0
 11
-0.1574427123264002
 21
0.4806158864532222
 31
0.0
210
0.0
220
0.0
230
1.0
 40
0.9430368476
 41
4.378056587572855
 42
4.763611674995644
  0
ELLIPSE
  5
117
330
1F
100
AcDbEntity
  8
0
  6
Continuous
 62
     7
370
    30
100
AcDbEllipse
 10
162.1299703927
 20
110.5413791784
 30
0.0
 11
0.1574427123264286
 21
0.4806158864532648
 31
0.0
210
0.0
220
0.0
230
1.0
 40
0.9430368476
 41
4.661166285773792
 42
5.046721373196544
  0
LINE
  5
118
330
1F
100
AcDbEntity
  8
0
  6
Continuous
 62
     7
370
    30
100
AcDbLine
 10
162.6097761332
 20
110.5588346105
 30
0.0
 11
162.6097761332
 21
178.9248033743
 31
0.0
  0
LINE
  5
119
330
1F
100
AcDbEntity
  8
0
  6
Continuous
 62
     7
370
    30
100
AcDbLine
 10
182.7814333378
 20
84.7418203335
 30
0.0
 11
181.9050215422
 21
85.6182321291
 31
0.0
  0
LINE
  5
11A
330
1F
100
AcDbEntity
  8
0
  6
Continuous
 62
     7
370
    30
100
AcDbLine
 10
183.2795307277
 20
85.2399177234
 30
0.0
 11
182.4031189321
 21
86.1163295191
 31
0.0
  0
ELLIPSE
  5
11B
330
1F
100
AcDbEntity
  8
0
  6
Continuous
 62
     7
370
    30
100
AcDbEllipse
 10
182.77762066
 20
85.2437289111
 30
0.0
 11
0.3562493039451056
 21
-0.3562493039451198
 31
0.0
210
0.0
220
0.0
230
1.0
 40
0.9924325091
 41
5.501585242073272
 42
7.064785372285925
  0
ELLIPSE
  5
11C
330
1F
100
AcDbEntity
  8
0
  6
Continuous
 62
     7
370
    30
100
AcDbEllipse
 10
113.7814404975
 20
85.2437289111
 30
0.0
 11
0.3562493039451198
 21
0.3562493039451198
 31
0.0
210
0.0
220
0.0
230
1.0
 40
0.9924325091
 41
2.359992588483474
 42
3.923192718696155
  0
LINE
  5
11D
330
1F
100
AcDbEntity
  8
0
  6
Continuous
 62
     7
370
    30
100
AcDbLine
 10
113.2795304297
 20
85.2399177234
 30
0.0
 11
114.1559422253
 21
86.1163295191
 31
0.0
  0
LINE
  5
11E
330
1F
100
AcDbEntity
  8
0
  6
Continuous
 62
     7
370
    30
100
AcDbLine
 10
114.6540396153
 20
85.6182321291
 30
0.0
 11
113.7776278197
 21
84.7418203335
 31
0.0
  0
LINE
  5
11F
330
1F
100
AcDbEntity
  8
0
  6
Continuous
 62
     7
370
    30
100
AcDbLine
 10
114.6540396153
 20
203.8654058557
 30
0.0
 11
113.7776278197
 21
204.7418176513
 31
0.0
  0
LINE
  5
120
330
1F
100
AcDbEntity
  8
0
  6
Continuous
 62
     7
370
    30
100
AcDbLine
 10
114.1559422253
 20
203.3673084657
 30
0.0
 11
113.2795304297
 21
204.2437202614
 31
0.0
  0
ELLIPSE
  5
121
330
1F
100
AcDbEntity
  8
0
  6
Continuous
 62
     7
370
    30
100
AcDbEllipse
 10
113.7814404975
 20
204.2399090736
 30
0.0
 11
-0.3562493039451198
 21
0.356249303945134
 31
0.0
210
0.0
220
0.0
230
1.0
 40
0.9924325091
 41
5.501585242073242
 42
7.064785372285927
  0
ELLIPSE
  5
122
330
1F
100
AcDbEntity
  8
0
  6
Continuous
 62
     7
370
    30
100
AcDbEllipse
 10
182.77762066
 20
204.2399090736
 30
0.0
 11
-0.356249303945134
 21
-0.356249303945134
 31
0.0
210
0.0
220
0.0
230
1.0
 40
0.9924325091
 41
2.359992588483452
 42
3.923192718696205
  0
LINE
  5
123
330
1F
100
AcDbEntity
  8
0
  6
Continuous
 62
     7
370
    30
100
AcDbLine
 10
182.4031189321
 20
203.3673084657
 30
0.0
 11
183.2795307277
 21
204.2437202614
 31
0.0
  0
LINE
  5
124
330
1F
100
AcDbEntity
  8
0
  6
Continuous
 62
     7
370
    30
100
AcDbLine
 10
182.7814333378
 20
204.7418176513
 30
0.0
 11
181.9050215422
 21
203.8654058557
 31
0.0
  0
LINE
  5
125
330
1F
100
AcDbEntity
  8
0
  6
Continuous
 62
     7
370
    30
100
AcDbLine
 10
163.9834340899
 20
103.5398177188
 30
0.0
 11
163.8075202941
 21
103.7157333772
 31
0.0
  0
LINE
  5
126
330
1F
100
AcDbEntity
  8
0
  6
Continuous
 62
     7
370
    30
100
AcDbLine
 10
164.4815314798
 20
104.0379151087
 30
0.0
 11
164.3085085093
 21
104.2109362166
 31
0.0
  0
SPLINE
  5
127
330
1F
100
AcDbEntity
  8
0
  6
Continuous
 62
     7
370
    30
100
AcDbSpline
210
0.0
220
0.0
230
1.0
 70
     8
 71
     3
 72
    16
 73
    12
 74
     0
 42
0.000000001
 43
0.00000001
 40
0.0
 40
0.0
 40
0.0
 40
0.0
 40
0.0875062054609494
 40
0.1733358392997643
 40
0.2575199904253635
 40
0.340091614910368
 40
0.4210856457801878
 40
0.5005391054832985
 40
0.660639585116638
 40
0.8270366461412081
 40
1.0
 40
1.0
 40
1.0
 40
1.0
 10
163.9834333173285
 20
103.5398189047311
 30
0.0
 10
164.0062598678255
 20
103.5406472502183
 30
0.0
 10
164.0514756244438
 20
103.5422880705408
 30
0.0
 10
164.1174597366019
 20
103.5562164808113
 30
0.0
 10
164.1798501457049
 20
103.5777392103828
 30
0.0
 10
164.2377367371029
 20
103.6068538549276
 30
0.0
 10
164.2903506768455
 20
103.642466951148
 30
0.0
 10
164.3532723646128
 20
103.6978371160433
 30
0.0
 10
164.418326724235
 20
103.7825619321986
 30
0.0
 10
164.4714668542609
 20
103.9039335275408
 30
0.0
 10
164.478133068437
 20
103.9926829392083
 30
0.0
 10
164.4815306678943
 20
104.0379162522931
 30
0.0
  0
LINE
  5
128
330
1F
100
AcDbEntity
  8
0
  6
Continuous
 62
     7
370
    30
100
AcDbLine
 10
132.7515408634
 20
185.7679046076
 30
0.0
 11
132.5756270676
 21
185.943820266
 31
0.0
  0
LINE
  5
129
330
1F
100
AcDbEntity
  8
0
  6
Continuous
 62
     7
370
    30
100
AcDbLine
 10
132.2505526482
 20
185.2727017682
 30
0.0
 11
132.0775296776
 21
185.4457228761
 31
0.0
  0
SPLINE
  5
12A
330
1F
100
AcDbEntity
  8
0
  6
Continuous
 62
     7
370
    30
100
AcDbSpline
210
0.0
220
0.0
230
1.0
 70
     8
 71
     3
 72
    16
 73
    12
 74
     0
 42
0.000000001
 43
0.00000001
 40
0.0
 40
0.0
 40
0.0
 40
0.0
 40
0.0875062004186964
 40
0.1733358293118238
 40
0.2575199755865064
 40
0.340091595313472
 40
0.4210856215161207
 40
0.5005390766407896
 40
0.6606486612957699
 40
0.8270457127237187
 40
1.0
 40
1.0
 40
1.0
 40
1.0
 10
132.5756278401286
 20
185.943819080055
 30
0.0
 10
132.5528012896291
 20
185.9429907345672
 30
0.0
 10
132.507585533006
 20
185.9413499142436
 30
0.0
 10
132.4416014208833
 20
185.9274215039814
 30
0.0
 10
132.3792110116493
 20
185.9058987743794
 30
0.0
 10
132.3213244207266
 20
185.8767841299451
 30
0.0
 10
132.2687104792607
 20
185.8411710333238
 30
0.0
 10
132.2057870108233
 20
185.7857992960248
 30
0.0
 10
132.1407316818876
 20
185.7010720068544
 30
0.0
 10
132.0875933332045
 20
185.5796996553491
 30
0.0
 10
132.0809277037682
 20
185.4909526551882
 30
0.0
 10
132.0775304895629
 20
185.4457217325128
 30
0.0
  0
LINE
  5
12B
330
1F
100
AcDbEntity
  8
0
  6
Continuous
 62
     7
370
    30
100
AcDbLine
 10
132.7515408634
 20
103.7157333772
 30
0.0
 11
132.5756270676
 21
103.5398177188
 31
0.0
  0
SPLINE
  5
12C
330
1F
100
AcDbEntity
  8
0
  6
Continuous
 62
     7
370
    30
100
AcDbSpline
210
0.0
220
0.0
230
1.0
 70
     8
 71
     3
 72
    16
 73
    12
 74
     0
 42
0.000000001
 43
0.00000001
 40
0.0
 40
0.0
 40
0.0
 40
0.0
 40
0.0875073060375236
 40
0.1733379762369609
 40
0.257523100345348
 40
0.3400956353756878
 40
0.4210905154065883
 40
0.5005447640638031
 40
0.6606436037492404
 40
0.827038781175918
 40
1.0
 40
1.0
 40
1.0
 40
1.0
 10
132.0775304895628
 20
104.0379162522931
 30
0.0
 10
132.0783588575303
 20
104.015089413149
 30
0.0
 10
132.0799997219744
 20
103.9698730960175
 30
0.0
 10
132.0939284780511
 20
103.9038882137557
 30
0.0
 10
132.1154517167688
 20
103.8414971666791
 30
0.0
 10
132.1445670136465
 20
103.7836100954151
 30
0.0
 10
132.1801808586558
 20
103.7309958506917
 30
0.0
 10
132.2355515565013
 20
103.668074621565
 30
0.0
 10
132.3202762886095
 20
103.6030213624312
 30
0.0
 10
132.4416467316196
 20
103.549882462438
 30
0.0
 10
132.5303950877397
 20
103.5432164166563
 30
0.0
 10
132.5756278401286
 20
103.5398189047311
 30
0.0
  0
LINE
  5
12D
330
1F
100
AcDbEntity
  8
0
  6
Continuous
 62
     7
370
    30
100
AcDbLine
 10
132.0775296776
 20
104.0379151087
 30
0.0
 11
132.2505526482
 21
104.2109362166
 31
0.0
  0
LINE
  5
12E
330
1F
100
AcDbEntity
  8
0
  6
Continuous
 62
     7
370
    30
100
AcDbLine
 10
163.9834340899
 20
185.943820266
 30
0.0
 11
163.8075202941
 21
185.7679046076
 31
0.0
  0
SPLINE
  5
12F
330
1F
100
AcDbEntity
  8
0
  6
Continuous
 62
     7
370
    30
100
AcDbSpline
210
0.0
220
0.0
230
1.0
 70
     8
 71
     3
 72
    16
 73
    12
 74
     0
 42
0.000000001
 43
0.00000001
 40
0.0
 40
0.0
 40
0.0
 40
0.0
 40
0.0875016076543142
 40
0.1733288501508262
 40
0.2575128267547962
 40
0.3400865019250386
 40
0.4210848147147311
 40
0.5005447908067213
 40
0.6606436219196287
 40
0.8270387904368195
 40
1.0
 40
1.0
 40
1.0
 40
1.0
 10
164.4815306678941
 20
185.4457217325128
 30
0.0
 10
164.4807024282906
 20
185.4685470787562
 30
0.0
 10
164.4790617976557
 20
185.513761002531
 30
0.0
 10
164.4651344173471
 20
185.5797433993233
 30
0.0
 10
164.4436124166461
 20
185.6421339281439
 30
0.0
 10
164.4144975835074
 20
185.7000222481768
 30
0.0
 10
164.3788828162735
 20
185.7526391435301
 30
0.0
 10
164.3235107895221
 20
185.8155624423244
 30
0.0
 10
164.2387848715584
 20
185.8806166231989
 30
0.0
 10
164.1174144251172
 20
185.9337555221238
 30
0.0
 10
164.0286660694742
 20
185.9404215680541
 30
0.0
 10
163.9834333173285
 20
185.943819080055
 30
0.0
  0
LINE
  5
130
330
1F
100
AcDbEntity
  8
0
  6
Continuous
 62
     7
370
    30
100
AcDbLine
 10
164.3085085093
 20
185.2727017682
 30
0.0
 11
164.4815314798
 21
185.4457228761
 31
0.0
  0
LINE
  5
131
330
1F
100
AcDbEntity
  8
0
  6
Continuous
 62
     7
370
    30
100
AcDbLine
 10
113.7776278197
 20
84.7418203335
 30
0.0
 11
182.7814333378
 21
84.7418203335
 31
0.0
  0
LINE
  5
132
330
1F
100
AcDbEntity
  8
0
  6
Continuous
 62
     7
370
    30
100
AcDbLine
 10
183.1807211279
 20
142.0444433894
 30
0.0
 11
183.2795307277
 21
141.7418189663
 31
0.0
  0
LINE
  5
133
330
1F
100
AcDbEntity
  8
0
  6
Continuous
 62
     7
370
    30
100
AcDbLine
 10
183.2795307277
 20
85.2399177234
 30
0.0
 11
183.2795307277
 21
141.7418189663
 31
0.0
  0
LINE
  5
134
330
1F
100
AcDbEntity
  8
0
  6
Continuous
 62
     7
370
    30
100
AcDbLine
 10
183.2795307277
 20
147.7418190185
 30
0.0
 11
183.2795307277
 21
204.2437202614
 31
0.0
  0
LINE
  5
135
330
1F
100
AcDbEntity
  8
0
  6
Continuous
 62
     7
370
    30
100
AcDbLine
 10
183.2795307277
 20
147.7418190185
 30
0.0
 11
183.1807211279
 21
147.4391945954
 31
0.0
  0
ELLIPSE
  5
136
330
1F
100
AcDbEntity
  8
0
  6
Continuous
 62
     7
370
    30
100
AcDbEllipse
 10
183.1920419152
 20
146.9562317098
 30
0.0
 11
0.0
 21
0.5
 31
0.0
210
0.0
220
0.0
230
1.0
 40
0.0874886635
 41
0.2617993877960486
 42
1.570796326794897
  0
LINE
  5
137
330
1F
100
AcDbEntity
  8
0
  6
Continuous
 62
     7
370
    30
100
AcDbLine
 10
183.1482962011
 20
146.956231663
 30
0.0
 11
183.1482962011
 21
142.5274063218
 31
0.0
  0
ELLIPSE
  5
138
330
1F
100
AcDbEntity
  8
0
  6
Continuous
 62
     7
370
    30
100
AcDbEllipse
 10
183.1920419152
 20
142.527406275
 30
0.0
 11
0.0
 21
0.5
 31
0.0
210
0.0
220
0.0
230
1.0
 40
0.0874886635
 41
1.570796326794897
 42
2.879793265793743
  0
LINE
  5
139
330
1F
100
AcDbEntity
  8
0
  6
Continuous
 62
     7
370
    30
100
AcDbLine
 10
113.4107649564
 20
146.956231663
 30
0.0
 11
113.4107649564
 21
142.5274063218
 31
0.0
  0
ELLIPSE
  5
13A
330
1F
100
AcDbEntity
  8
0
  6
Continuous
 62
     7
370
    30
100
AcDbEllipse
 10
113.3670192423
 20
146.9562317098
 30
0.0
 11
0.0
 21
0.5
 31
0.0
210
0.0
220
0.0
230
1.0
 40
0.0874886635
 41
4.712388980384691
 42
6.021385919397936
  0
LINE
  5
13B
330
1F
100
AcDbEntity
  8
0
  6
Continuous
 62
     7
370
    30
100
AcDbLine
 10
113.3783400296
 20
147.4391945954
 30
0.0
 11
113.2795304297
 21
147.7418190185
 31
0.0
  0
LINE
  5
13C
330
1F
100
AcDbEntity
  8
0
  6
Continuous
 62
     7
370
    30
100
AcDbLine
 10
113.2795304297
 20
204.2437202614
 30
0.0
 11
113.2795304297
 21
147.7418190185
 31
0.0
  0
LINE
  5
13D
330
1F
100
AcDbEntity
  8
0
  6
Continuous
 62
     7
370
    30
100
AcDbLine
 10
113.2795304297
 20
141.7418189663
 30
0.0
 11
113.2795304297
 21
85.2399177234
 31
0.0
  0
LINE
  5
13E
330
1F
100
AcDbEntity
  8
0
  6
Continuous
 62
     7
370
    30
100
AcDbLine
 10
113.3783400296
 20
142.0444433894
 30
0.0
 11
113.2795304297
 21
141.7418189663
 31
0.0
  0
ELLIPSE
  5
13F
330
1F
100
AcDbEntity
  8
0
  6
Continuous
 62
     7
370
    30
100
AcDbEllipse
 10
113.3670192423
 20
142.527406275
 30
0.0
 11
0.0
 21
0.5
 31
0.0
210
0.0
220
0.0
230
1.0
 40
0.0874886635
 41
3.403392041371439
 42
4.712388980384691
  0
LINE
  5
140
330
1F
100
AcDbEntity
  8
0
  6
Continuous
 62
     7
370
    30
100
AcDbLine
 10
182.7814333378
 20
204.7418176513
 30
0.0
 11
113.7776278197
 21
204.7418176513
 31
0.0
  0
LINE
  5
141
330
1F
100
AcDbEntity
  8
0
  6
Continuous
 62
     7
370
    30
100
AcDbLine
 10
116.6795991598
 20
87.6437916737
 30
0.0
 11
179.8794619976
 21
87.6437916737
 31
0.0
  0
LINE
  5
142
330
1F
100
AcDbEntity
  8
0
  6
Continuous
 62
     7
370
    30
100
AcDbLine
 10
179.8794619976
 20
201.8398463111
 30
0.0
 11
116.6795991598
 21
201.8398463111
 31
0.0
  0
LINE
  5
143
330
1F
100
AcDbEntity
  8
0
  6
Continuous
 62
     7
370
    30
100
AcDbLine
 10
116.1815017699
 20
201.3417489212
 30
0.0
 11
116.1815017699
 21
88.1418890636
 31
0.0
  0
LINE
  5
144
330
1F
100
AcDbEntity
  8
0
  6
Continuous
 62
     7
370
    30
100
AcDbLine
 10
180.3775593876
 20
88.1418890636
 30
0.0
 11
180.3775593876
 21
201.3417489212
 31
0.0
  0
LINE
  5
145
330
1F
100
AcDbEntity
  8
0
  6
Continuous
 62
     7
370
    30
100
AcDbLine
 10
132.5756270676
 20
185.943820266
 30
0.0
 11
163.9834340899
 21
185.943820266
 31
0.0
  0
LINE
  5
146
330
1F
100
AcDbEntity
  8
0
  6
Continuous
 62
     7
370
    30
100
AcDbLine
 10
132.5756270676
 20
103.5398177188
 30
0.0
 11
163.9834340899
 21
103.5398177188
 31
0.0
  0
LINE
  5
147
330
1F
100
AcDbEntity
  8
0
  6
Continuous
 62
     7
370
    30
100
AcDbLine
 10
132.0775296776
 20
185.4457228761
 30
0.0
 11
132.0775296776
 21
104.0379151087
 31
0.0
  0
LINE
  5
148
330
1F
100
AcDbEntity
  8
0
  6
Continuous
 62
     7
370
    30
100
AcDbLine
 10
164.4815314798
 20
185.4457228761
 30
0.0
 11
164.4815314798
 21
104.0379151087
 31
0.0
  0
ELLIPSE
  5
149
330
1F
100
AcDbEntity
  8
0
  6
Continuous
 62
     7
370
    30
100
AcDbEllipse
 10
162.1108598271
 20
110.560489744
 30
0.0
 11
0.3574377219428015
 21
-0.3574377219428158
 31
0.0
210
0.0
220
0.0
230
1.0
 40
0.9891328444
 41
6.089982294007825
 42
6.372909478066965
  0
ELLIPSE
  5
14A
330
1F
100
AcDbEntity
  8
0
  6
Continuous
 62
     7
370
    30
100
AcDbEllipse
 10
162.1108598271
 20
178.9231482408
 30
0.0
 11
-0.35743772194283
 21
-0.3574377219428015
 31
0.0
210
0.0
220
0.0
230
1.0
 40
0.9891328444
 41
3.051868482702476
 42
3.334795666761639
  0
ELLIPSE
  5
14B
330
1F
100
AcDbEntity
  8
0
  6
Continuous
 62
     7
370
    30
100
AcDbEllipse
 10
134.4482013303
 20
110.560489744
 30
0.0
 11
0.35743772194283
 21
0.3574377219428158
 31
0.0
210
0.0
220
0.0
230
1.0
 40
0.9891328444
 41
3.051868482702451
 42
3.334795666761678
  0
ELLIPSE
  5
14C
330
1F
100
AcDbEntity
  8
0
  6
Continuous
 62
     7
370
    30
100
AcDbEllipse
 10
134.4482013303
 20
178.9231482408
 30
0.0
 11
-0.3574377219428015
 21
0.3574377219428015
 31
0.0
210
0.0
220
0.0
230
1.0
 40
0.9891328444
 41
6.089982294007769
 42
6.37290947806694
  0
SPLINE
  5
14D
330
1F
100
AcDbEntity
  8
0
  6
Continuous
 62
     7
370
    30
100
AcDbSpline
210
0.0
220
0.0
230
1.0
 70
     8
 71
     3
 72
    10
 73
     6
 74
     0
 42
0.000000001
 43
0.00000001
 40
0.0
 40
0.0
 40
0.0
 40
0.0
 40
0.5
 40
0.5
 40
1.0
 40
1.0
 40
1.0
 40
1.0
 10
164.4815305762286
 20
104.037916193493
 30
0.0
 10
164.4858405148119
 20
104.0379161489097
 30
0.0
 10
164.5092238995077
 20
104.0379160957472
 30
0.0
 10
164.5821397279556
 20
104.0379159992264
 30
0.0
 10
164.6313184951619
 20
104.0379159563764
 30
0.0
 10
164.6807694813285
 20
104.0379159297931
 30
0.0
  0
SPLINE
  5
14E
330
1F
100
AcDbEntity
  8
0
  6
Continuous
 62
     7
370
    30
100
AcDbSpline
210
0.0
220
0.0
230
1.0
 70
     8
 71
     3
 72
    10
 73
     6
 74
     0
 42
0.000000001
 43
0.00000001
 40
0.0
 40
0.0
 40
0.0
 40
0.0
 40
0.5
 40
0.5
 40
1.0
 40
1.0
 40
1.0
 40
1.0
 10
164.6807694813285
 20
185.445722054993
 30
0.0
 10
164.6313184951619
 20
185.4457220284097
 30
0.0
 10
164.5821397279556
 20
185.4457219855597
 30
0.0
 10
164.5092238995077
 20
185.4457218890389
 30
0.0
 10
164.4858405148119
 20
185.4457218358764
 30
0.0
 10
164.4815305762286
 20
185.445721791293
 30
0.0
  0
LINE
  5
14F
330
1F
100
AcDbEntity
  8
0
  6
Continuous
 62
     7
370
    30
100
AcDbLine
 10
164.6807693182
 20
185.4457228761
 30
0.0
 11
164.6807693182
 21
104.0379151087
 31
0.0
  0
SPLINE
  5
150
330
1F
100
AcDbEntity
  8
0
  6
Continuous
 62
     7
370
    30
100
AcDbSpline
210
0.0
220
0.0
230
1.0
 70
     8
 71
     3
 72
    10
 73
     6
 74
     0
 42
0.000000001
 43
0.00000001
 40
0.0
 40
0.0
 40
0.0
 40
0.0
 40
0.5
 40
0.5
 40
1.0
 40
1.0
 40
1.0
 40
1.0
 10
131.8782916761286
 20
104.0379159297931
 30
0.0
 10
131.9277426622952
 20
104.0379159563764
 30
0.0
 10
131.9769214295015
 20
104.0379159992264
 30
0.0
 10
132.0498372579494
 20
104.0379160957472
 30
0.0
 10
132.0732206426452
 20
104.0379161489097
 30
0.0
 10
132.0775305812285
 20
104.037916193493
 30
0.0
  0
LINE
  5
151
330
1F
100
AcDbEntity
  8
0
  6
Continuous
 62
     7
370
    30
100
AcDbLine
 10
131.8782918392
 20
104.0379151087
 30
0.0
 11
131.8782918392
 21
185.4457228761
 31
0.0
  0
SPLINE
  5
152
330
1F
100
AcDbEntity
  8
0
  6
Continuous
 62
     7
370
    30
100
AcDbSpline
210
0.0
220
0.0
230
1.0
 70
     8
 71
     3
 72
    10
 73
     6
 74
     0
 42
0.000000001
 43
0.00000001
 40
0.0
 40
0.0
 40
0.0
 40
0.0
 40
0.5
 40
0.5
 40
1.0
 40
1.0
 40
1.0
 40
1.0
 10
132.0775305812285
 20
185.445721791293
 30
0.0
 10
132.0732206426452
 20
185.4457218358764
 30
0.0
 10
132.0498372579494
 20
185.4457218890389
 30
0.0
 10
131.9769214295015
 20
185.4457219855597
 30
0.0
 10
131.9277426622952
 20
185.4457220284097
 30
0.0
 10
131.8782916761286
 20
185.445722054993
 30
0.0
  0
LINE
  5
153
330
1F
100
AcDbEntity
  8
0
  6
Continuous
 62
     7
370
    30
100
AcDbLine
 10
163.9834340899
 20
103.340581743
 30
0.0
 11
132.5756270676
 21
103.340581743
 31
0.0
  0
SPLINE
  5
154
330
1F
100
AcDbEntity
  8
0
  6
Continuous
 62
     7
370
    30
100
AcDbSpline
210
0.0
220
0.0
230
1.0
 70
    24
 71
     3
 72
    10
 73
     6
 74
     0
 42
0.000000001
 43
0.00000001
 40
0.0
 40
0.0
 40
0.0
 40
0.0
 40
0.5
 40
0.5
 40
1.0
 40
1.0
 40
1.0
 40
1.0
 10
132.5756278401286
 20
103.5398189047931
 30
0.0
 10
132.5756278401286
 20
103.535508966543
 30
0.0
 10
132.5756278401286
 20
103.5121255782555
 30
0.0
 10
132.5756278401286
 20
103.4392097369743
 30
0.0
 10
132.5756278401286
 20
103.390030960593
 30
0.0
 10
132.5756278401286
 20
103.340579965093
 30
0.0
  0
SPLINE
  5
155
330
1F
100
AcDbEntity
  8
0
  6
Continuous
 62
     7
370
    30
100
AcDbSpline
210
0.0
220
0.0
230
1.0
 70
    24
 71
     3
 72
    10
 73
     6
 74
     0
 42
0.000000001
 43
0.00000001
 40
0.0
 40
0.0
 40
0.0
 40
0.0
 40
0.5
 40
0.5
 40
1.0
 40
1.0
 40
1.0
 40
1.0
 10
163.9834333173285
 20
103.340579965093
 30
0.0
 10
163.9834333173285
 20
103.390030960593
 30
0.0
 10
163.9834333173285
 20
103.4392097369743
 30
0.0
 10
163.9834333173285
 20
103.5121255782555
 30
0.0
 10
163.9834333173285
 20
103.535508966543
 30
0.0
 10
163.9834333173285
 20
103.5398189047931
 30
0.0
  0
SPLINE
  5
156
330
1F
100
AcDbEntity
  8
0
  6
Continuous
 62
     7
370
    30
100
AcDbSpline
210
0.0
220
0.0
230
1.0
 70
    24
 71
     3
 72
    10
 73
     6
 74
     0
 42
0.000000001
 43
0.00000001
 40
0.0
 40
0.0
 40
0.0
 40
0.0
 40
0.5
 40
0.5
 40
1.0
 40
1.0
 40
1.0
 40
1.0
 10
132.5756278401286
 20
186.1430580196931
 30
0.0
 10
132.5756278401286
 20
186.0936070241931
 30
0.0
 10
132.5756278401286
 20
186.0444282478118
 30
0.0
 10
132.5756278401286
 20
185.9715124065306
 30
0.0
 10
132.5756278401286
 20
185.948129018243
 30
0.0
 10
132.5756278401286
 20
185.9438190799931
 30
0.0
  0
LINE
  5
157
330
1F
100
AcDbEntity
  8
0
  6
Continuous
 62
     7
370
    30
100
AcDbLine
 10
132.5756270676
 20
186.1430562418
 30
0.0
 11
163.9834340899
 21
186.1430562418
 31
0.0
  0
SPLINE
  5
158
330
1F
100
AcDbEntity
  8
0
  6
Continuous
 62
     7
370
    30
100
AcDbSpline
210
0.0
220
0.0
230
1.0
 70
    24
 71
     3
 72
    10
 73
     6
 74
     0
 42
0.000000001
 43
0.00000001
 40
0.0
 40
0.0
 40
0.0
 40
0.0
 40
0.5
 40
0.5
 40
1.0
 40
1.0
 40
1.0
 40
1.0
 10
163.9834333173285
 20
185.9438190799931
 30
0.0
 10
163.9834333173285
 20
185.948129018243
 30
0.0
 10
163.9834333173285
 20
185.9715124065306
 30
0.0
 10
163.9834333173285
 20
186.0444282478118
 30
0.0
 10
163.9834333173285
 20
186.0936070241931
 30
0.0
 10
163.9834333173285
 20
186.1430580196931
 30
0.0
  0
SPLINE
  5
159
330
1F
100
AcDbEntity
  8
0
  6
Continuous
 62
     7
370
    30
100
AcDbSpline
210
0.0
220
0.0
230
1.0
 70
     8
 71
     3
 72
    17
 73
    13
 74
     0
 42
0.000000001
 43
0.00000001
 40
0.0
 40
0.0
 40
0.0
 40
0.0
 40
0.0629910763246072
 40
0.1252778347226228
 40
0.187458339484461
 40
0.2501336966724911
 40
0.3749205147312142
 40
0.500140836325656
 40
0.6248568366432626
 40
0.7501497631204727
 40
0.8746096801018164
 40
1.0
 40
1.0
 40
1.0
 40
1.0
 10
163.9834333173285
 20
186.1430580196931
 30
0.0
 10
164.0064208992819
 20
186.1424012826413
 30
0.0
 10
164.0521390336694
 20
186.1410951516681
 30
0.0
 10
164.1199049063667
 20
186.1307766743708
 30
0.0
 10
164.1862498258299
 20
186.1142878045281
 30
0.0
 10
164.2721251124306
 20
186.083612569383
 30
0.0
 10
164.3736675272007
 20
186.0298758427618
 30
0.0
 10
164.4797907123504
 20
185.9423721374549
 30
0.0
 10
164.5675693851569
 20
185.8360959578446
 30
0.0
 10
164.6315498270472
 20
185.7145976224128
 30
0.0
 10
164.67318015467
 20
185.582860582339
 30
0.0
 10
164.6782334332379
 20
185.4915482416983
 30
0.0
 10
164.6807694813285
 20
185.445722054993
 30
0.0
  0
SPLINE
  5
15A
330
1F
100
AcDbEntity
  8
0
  6
Continuous
 62
     7
370
    30
100
AcDbSpline
210
0.0
220
0.0
230
1.0
 70
     8
 71
     3
 72
    10
 73
     6
 74
     0
 42
0.000000001
 43
0.00000001
 40
0.0
 40
0.0
 40
0.0
 40
0.0
 40
0.5
 40
0.5
 40
1.0
 40
1.0
 40
1.0
 40
1.0
 10
132.5756278401286
 20
103.340579965093
 30
0.0
 10
132.3931424139619
 20
103.340579965093
 30
0.0
 10
132.2116479043369
 20
103.4155907779534
 30
0.0
 10
131.9533026142014
 20
103.6739350023076
 30
0.0
 10
131.8782917928785
 20
103.8554299591264
 30
0.0
 10
131.8782916761286
 20
104.0379159297931
 30
0.0
  0
SPLINE
  5
15B
330
1F
100
AcDbEntity
  8
0
  6
Continuous
 62
     7
370
    30
100
AcDbSpline
210
0.0
220
0.0
230
1.0
 70
     8
 71
     3
 72
    17
 73
    13
 74
     0
 42
0.000000001
 43
0.00000001
 40
0.0
 40
0.0
 40
0.0
 40
0.0
 40
0.062992139986628
 40
0.1252798707361377
 40
0.187461282801971
 40
0.2501375104630412
 40
0.3749250894235337
 40
0.5001464162653522
 40
0.6248614068559066
 40
0.7501535702209058
 40
0.8746117109171584
 40
1.0
 40
1.0
 40
1.0
 40
1.0
 10
164.6807694813285
 20
104.0379159297931
 30
0.0
 10
164.6801127132907
 20
104.0149279595121
 30
0.0
 10
164.6788065215197
 20
103.9692090817933
 30
0.0
 10
164.6684877208556
 20
103.9014421643638
 30
0.0
 10
164.6519983529909
 20
103.8350963294621
 30
0.0
 10
164.6213223290628
 20
103.7492203325222
 30
0.0
 10
164.5675843875431
 20
103.6476774531091
 30
0.0
 10
164.4800796279501
 20
103.5415547605911
 30
0.0
 10
164.373802954221
 20
103.4537771454719
 30
0.0
 10
164.2523052972481
 20
103.3897982182262
 30
0.0
 10
164.1205697089975
 20
103.3481690237155
 30
0.0
 10
164.0292587611321
 20
103.3431159219984
 30
0.0
 10
163.9834333173285
 20
103.340579965093
 30
0.0
  0
SPLINE
  5
15C
330
1F
100
AcDbEntity
  8
0
  6
Continuous
 62
     7
370
    30
100
AcDbSpline
210
0.0
220
0.0
230
1.0
 70
     8
 71
     3
 72
    17
 73
    13
 74
     0
 42
0.000000001
 43
0.00000001
 40
0.0
 40
0.0
 40
0.0
 40
0.0
 40
0.062992139986628
 40
0.1252798707361377
 40
0.187461282801971
 40
0.2501375104630412
 40
0.3749250894235337
 40
0.5001464162653522
 40
0.6248614068559066
 40
0.7501535702209058
 40
0.8746117109171584
 40
1.0
 40
1.0
 40
1.0
 40
1.0
 10
131.8782916761286
 20
185.445722054993
 30
0.0
 10
131.8789484441664
 20
185.468710025274
 30
0.0
 10
131.8802546359374
 20
185.5144289029928
 30
0.0
 10
131.8905734366016
 20
185.5821958204224
 30
0.0
 10
131.9070628044662
 20
185.648541655324
 30
0.0
 10
131.9377388283943
 20
185.7344176522639
 30
0.0
 10
131.991476769914
 20
185.835960531677
 30
0.0
 10
132.078981529507
 20
185.942083224195
 30
0.0
 10
132.185258203236
 20
186.0298608393142
 30
0.0
 10
132.306755860209
 20
186.0938397665599
 30
0.0
 10
132.4384914484596
 20
186.1354689610706
 30
0.0
 10
132.529802396325
 20
186.1405220627877
 30
0.0
 10
132.5756278401286
 20
186.1430580196931
 30
0.0
  0
LINE
  5
15D
330
1F
100
AcDbEntity
  8
0
  6
Continuous
 62
     7
370
    30
100
AcDbLine
 10
72.7703504242
 20
203.3673084657
 30
0.0
 11
72.7737823479
 21
203.4256800394
 31
0.0
  0
LINE
  5
15E
330
1F
100
AcDbEntity
  8
0
  6
Continuous
 62
     7
370
    30
100
AcDbLine
 10
64.0737819929
 20
146.956231663
 30
0.0
 11
64.0737819929
 21
142.5274063218
 31
0.0
  0
ARC
  5
15F
330
1F
100
AcDbEntity
  8
0
  6
Continuous
 62
     7
370
    30
100
AcDbCircle
 10
63.5737819799
 20
146.9562317098
 30
0.0
 40
0.5000000000016047
100
AcDbArc
 50
0.0
 51
75.0000000001
  0
LINE
  5
160
330
1F
100
AcDbEntity
  8
0
  6
Continuous
 62
     7
370
    30
100
AcDbLine
 10
63.703191511
 20
147.4391945954
 30
0.0
 11
62.5737819799
 21
147.7418190185
 31
0.0
  0
LINE
  5
161
330
1F
100
AcDbEntity
  8
0
  6
Continuous
 62
     7
370
    30
100
AcDbLine
 10
62.5737819799
 20
204.2437202614
 30
0.0
 11
62.5737819799
 21
147.7418190185
 31
0.0
  0
LINE
  5
162
330
1F
100
AcDbEntity
  8
0
  6
Continuous
 62
     7
370
    30
100
AcDbLine
 10
72.591213321
 20
203.3673084657
 30
0.0
 11
62.5737819799
 21
204.2437202614
 31
0.0
  0
LINE
  5
163
330
1F
100
AcDbEntity
  8
0
  6
Continuous
 62
     7
370
    30
100
AcDbLine
 10
72.591213321
 20
86.1163295191
 30
0.0
 11
72.591213321
 21
203.3673084657
 31
0.0
  0
LINE
  5
164
330
1F
100
AcDbEntity
  8
0
  6
Continuous
 62
     7
370
    30
100
AcDbLine
 10
62.5737819799
 20
85.2399177234
 30
0.0
 11
72.591213321
 21
86.1163295191
 31
0.0
  0
LINE
  5
165
330
1F
100
AcDbEntity
  8
0
  6
Continuous
 62
     7
370
    30
100
AcDbLine
 10
62.5737819799
 20
141.7418189663
 30
0.0
 11
62.5737819799
 21
85.2399177234
 31
0.0
  0
ARC
  5
166
330
1F
100
AcDbEntity
  8
0
  6
Continuous
 62
     7
370
    30
100
AcDbCircle
 10
63.5737819799
 20
142.527406275
 30
0.0
 40
0.5000000000015773
100
AcDbArc
 50
284.9999999999
 51
0.0
  0
LINE
  5
167
330
1F
100
AcDbEntity
  8
0
  6
Continuous
 62
     7
370
    30
100
AcDbLine
 10
63.703191511
 20
142.0444433894
 30
0.0
 11
62.5737819799
 21
141.7418189663
 31
0.0
  0
SPLINE
  5
168
330
1F
100
AcDbEntity
  8
0
  6
Continuous
 62
     7
370
    30
100
AcDbSpline
210
0.0
220
0.0
230
1.0
 70
     8
 71
     3
 72
    18
 73
    14
 74
     0
 42
0.000000001
 43
0.00000001
 40
0.0
 40
0.0
 40
0.0
 40
0.0
 40
0.0909706929570104
 40
0.1819044104385982
 40
0.2728093614427282
 40
0.3636937627622041
 40
0.4545658367642678
 40
0.5454338091625248
 40
0.6363059067844173
 40
0.7271903553371409
 40
0.8180953771751027
 40
0.9090291890719324
 40
1.0
 40
1.0
 40
1.0
 40
1.0
 10
72.59121314258071
 20
85.61823065675226
 30
0.0
 10
72.5920123163463
 20
85.619277104937
 30
0.0
 10
72.59361033904943
 20
85.62136957597252
 30
0.0
 10
72.59562557538551
 20
85.63724646302401
 30
0.0
 10
72.59723476337888
 20
85.66210640532925
 30
0.0
 10
72.59834588903918
 20
85.69636303623065
 30
0.0
 10
72.59891457855028
 20
85.73907730093629
 30
0.0
 10
72.59891457973445
 20
85.78945265940744
 30
0.0
 10
72.59834589205227
 20
85.84645578923042
 30
0.0
 10
72.59723476666885
 20
85.9089431080021
 30
0.0
 10
72.59562557638553
 20
85.97565634791015
 30
0.0
 10
72.59361033472109
 20
86.04525218246586
 30
0.0
 10
72.5920123055028
 20
86.09263285150668
 30
0.0
 10
72.59121312837571
 20
86.11632800459304
 30
0.0
  0
LINE
  5
169
330
1F
100
AcDbEntity
  8
0
  6
Continuous
 62
     7
370
    30
100
AcDbLine
 10
72.591213321
 20
85.6182321291
 30
0.0
 11
62.5737819799
 21
84.7418203335
 31
0.0
  0
LINE
  5
16A
330
1F
100
AcDbEntity
  8
0
  6
Continuous
 62
     7
370
    30
100
AcDbLine
 10
62.5737819799
 20
85.2399177234
 30
0.0
 11
62.5737819799
 21
84.7418203335
 31
0.0
  0
LINE
  5
16B
330
1F
100
AcDbEntity
  8
0
  6
Continuous
 62
     7
370
    30
100
AcDbLine
 10
72.591213321
 20
203.8654058557
 30
0.0
 11
62.5737819799
 21
204.7418176513
 31
0.0
  0
SPLINE
  5
16C
330
1F
100
AcDbEntity
  8
0
  6
Continuous
 62
     7
370
    30
100
AcDbSpline
210
0.0
220
0.0
230
1.0
 70
     8
 71
     3
 72
    18
 73
    14
 74
     0
 42
0.000000001
 43
0.00000001
 40
0.0
 40
0.0
 40
0.0
 40
0.0
 40
0.0909675114454412
 40
0.181898680705722
 40
0.2728017181263305
 40
0.3636848416770222
 40
0.4545562747302693
 40
0.5454242438324685
 40
0.6362969764707648
 40
0.7271826988386331
 40
0.8180896336032212
 40
0.9090259976774729
 40
1.0
 40
1.0
 40
1.0
 40
1.0
 10
72.59121312837897
 20
203.3673099802305
 30
0.0
 10
72.59201218883618
 20
203.3910042767028
 30
0.0
 10
72.59360999052014
 20
203.4383834036031
 30
0.0
 10
72.59562504933365
 20
203.5079773233259
 30
0.0
 10
72.59723416672125
 20
203.5746893761427
 30
0.0
 10
72.59834531842203
 20
203.6371762417743
 30
0.0
 10
72.59891410259257
 20
203.6941795931877
 30
0.0
 10
72.59891423990729
 20
203.7445557289664
 30
0.0
 10
72.59834570072441
 20
203.7872711555038
 30
0.0
 10
72.59723470873485
 20
203.8215291234586
 30
0.0
 10
72.59562561001889
 20
203.8463903266041
 30
0.0
 10
72.59361040292791
 20
203.8622681978879
 30
0.0
 10
72.59201233957913
 20
203.8643608069944
 30
0.0
 10
72.59121314258071
 20
203.8654073280339
 30
0.0
  0
LINE
  5
16D
330
1F
100
AcDbEntity
  8
0
  6
Continuous
 62
     7
370
    30
100
AcDbLine
 10
62.5737819799
 20
204.7418176513
 30
0.0
 11
62.5737819799
 21
204.2437202614
 31
0.0
  0
LINE
  5
16E
330
1F
100
AcDbEntity
  8
0
  6
Continuous
 62
     7
370
    30
100
AcDbLine
 10
63.6173598912
 20
146.956231663
 30
0.0
 11
64.0737819929
 21
146.956231663
 31
0.0
  0
ARC
  5
16F
330
1F
100
AcDbEntity
  8
0
  6
Continuous
 62
     7
370
    30
100
AcDbCircle
 10
62.2269797659
 20
147.452436843
 30
0.0
 40
1.476271138206424
100
AcDbArc
 50
340.3593029224
 51
359.4860462606
  0
SPLINE
  5
170
330
1F
100
AcDbEntity
  8
0
  6
Continuous
 62
     7
370
    30
100
AcDbSpline
210
0.0
220
0.0
230
1.0
 70
    24
 71
     3
 72
    10
 73
     6
 74
     0
 42
0.000000001
 43
0.00000001
 40
0.0
 40
0.0
 40
0.0
 40
0.0
 40
0.5
 40
0.5
 40
1.0
 40
1.0
 40
1.0
 40
1.0
 10
72.59121312837044
 20
203.3673099801931
 30
0.0
 10
72.64047594788676
 20
203.367309980193
 30
0.0
 10
72.68782883891008
 20
203.3673099801931
 30
0.0
 10
72.75464605553013
 20
203.367309980193
 30
0.0
 10
72.77378197987714
 20
203.3673099801931
 30
0.0
 10
72.77378197987714
 20
203.3673099801931
 30
0.0
  0
LINE
  5
171
330
1F
100
AcDbEntity
  8
0
  6
Continuous
 62
     7
370
    30
100
AcDbLine
 10
72.7737823479
 20
86.1163295191
 30
0.0
 11
72.7737823479
 21
203.3673084657
 31
0.0
  0
SPLINE
  5
172
330
1F
100
AcDbEntity
  8
0
  6
Continuous
 62
     7
370
    30
100
AcDbSpline
210
0.0
220
0.0
230
1.0
 70
    24
 71
     3
 72
    10
 73
     6
 74
     0
 42
0.000000001
 43
0.00000001
 40
0.0
 40
0.0
 40
0.0
 40
0.0
 40
0.5
 40
0.5
 40
1.0
 40
1.0
 40
1.0
 40
1.0
 10
72.77378197987714
 20
86.11632800459304
 30
0.0
 10
72.77378197987714
 20
86.11632800459304
 30
0.0
 10
72.75464605553013
 20
86.11632800459303
 30
0.0
 10
72.68782883891008
 20
86.11632800459304
 30
0.0
 10
72.64047594788677
 20
86.11632800459304
 30
0.0
 10
72.59121312837044
 20
86.11632800459304
 30
0.0
  0
ARC
  5
173
330
1F
100
AcDbEntity
  8
0
  6
Continuous
 62
     7
370
    30
100
AcDbCircle
 10
62.2269797659
 20
142.0312011418
 30
0.0
 40
1.47627113820644
100
AcDbArc
 50
0.5139537394
 51
19.6406970776
  0
LINE
  5
174
330
1F
100
AcDbEntity
  8
0
  6
Continuous
 62
     7
370
    30
100
AcDbLine
 10
63.6173598912
 20
142.5274063218
 30
0.0
 11
64.0737819929
 21
142.5274063218
 31
0.0
  0
SPLINE
  5
175
330
1F
100
AcDbEntity
  8
0
  6
Continuous
 62
     7
370
    30
100
AcDbSpline
210
0.0
220
0.0
230
1.0
 70
    24
 71
     3
 72
    13
 73
     9
 74
     0
 42
0.000000001
 43
0.00000001
 40
0.0
 40
0.0
 40
0.0
 40
0.0
 40
0.1284782607995254
 40
0.2515460673333038
 40
0.37409331565304
 40
0.5010700564175357
 40
0.7479921650725141
 40
1.0
 40
1.0
 40
1.0
 40
1.0
 10
72.77378197987714
 20
86.11632800459304
 30
0.0
 10
72.77378197987714
 20
86.09624909953318
 30
0.0
 10
72.77378197987714
 20
86.05693684878557
 30
0.0
 10
72.77378197987714
 20
86.00058868383981
 30
0.0
 10
72.77378197987714
 20
85.94901483417394
 30
0.0
 10
72.77378197987714
 20
85.88938380831459
 30
0.0
 10
72.77378197987714
 20
85.82974858089891
 30
0.0
 10
72.77378197987714
 20
85.82159033674941
 30
0.0
 10
72.77378197987714
 20
85.81746963509305
 30
0.0
  0
SPLINE
  5
176
330
1F
100
AcDbEntity
  8
0
  6
Continuous
 62
     7
370
    30
100
AcDbSpline
210
0.0
220
0.0
230
1.0
 70
     8
 71
     3
 72
    10
 73
     6
 74
     0
 42
0.000000001
 43
0.00000001
 40
0.0
 40
0.0
 40
0.0
 40
0.0
 40
0.5
 40
0.5
 40
1.0
 40
1.0
 40
1.0
 40
1.0
 10
72.59121314257544
 20
85.61823065681257
 30
0.0
 10
72.64047595941697
 20
85.62254059834468
 30
0.0
 10
72.68782884663206
 20
85.64589246121955
 30
0.0
 10
72.75464605744156
 20
85.7188106565917
 30
0.0
 10
72.77378197987714
 20
85.76801860208703
 30
0.0
 10
72.77378197987714
 20
85.81746959519306
 30
0.0
  0
SPLINE
  5
177
330
1F
100
AcDbEntity
  8
0
  6
Continuous
 62
     7
370
    30
100
AcDbSpline
210
0.0
220
0.0
230
1.0
 70
     8
 71
     3
 72
    10
 73
     6
 74
     0
 42
0.000000001
 43
0.00000001
 40
0.0
 40
0.0
 40
0.0
 40
0.0
 40
0.5
 40
0.5
 40
1.0
 40
1.0
 40
1.0
 40
1.0
 10
72.77378197987714
 20
203.6661683496931
 30
0.0
 10
72.77378198974262
 20
203.7156193494491
 30
0.0
 10
72.75464607177547
 20
203.7648273052503
 30
0.0
 10
72.6878288592542
 20
203.8377455170933
 30
0.0
 10
72.64047596604168
 20
203.8610973858618
 30
0.0
 10
72.59121314257544
 20
203.8654073279735
 30
0.0
  0
SPLINE
  5
178
330
1F
100
AcDbEntity
  8
0
  6
Continuous
 62
     7
370
    30
100
AcDbSpline
210
0.0
220
0.0
230
1.0
 70
    24
 71
     3
 72
    10
 73
     6
 74
     0
 42
0.000000001
 43
0.00000001
 40
0.0
 40
0.0
 40
0.0
 40
0.0
 40
0.5
 40
0.5
 40
1.0
 40
1.0
 40
1.0
 40
1.0
 10
72.77378197987714
 20
203.6661683496931
 30
0.0
 10
72.77378197987714
 20
203.6661684062764
 30
0.0
 10
72.77378197987714
 20
203.6339967786722
 30
0.0
 10
72.77378197987714
 20
203.5233927504326
 30
0.0
 10
72.77378197987714
 20
203.4456695396931
 30
0.0
 10
72.77378197987714
 20
203.3673099801931
 30
0.0
  0
LINE
  5
179
330
1F
100
AcDbEntity
  8
0
  6
Continuous
 62
     7
370
    30
100
AcDbLine
 10
63.6173598912
 20
142.5274063218
 30
0.0
 11
63.6173598912
 21
146.956231663
 31
0.0
  0
LINE
  5
17A
330
1F
100
AcDbEntity
  8
0
  6
Continuous
 62
     7
370
    30
100
AcDbLine
 10
62.5737819799
 20
142.2477804441
 30
0.0
 11
63.6173598912
 21
142.5274063218
 31
0.0
  0
LINE
  5
17B
330
1F
100
AcDbEntity
  8
0
  6
Continuous
 62
     7
370
    30
100
AcDbLine
 10
62.5737819799
 20
142.2477804441
 30
0.0
 11
62.5737819799
 21
141.7418189663
 31
0.0
  0
LINE
  5
17C
330
1F
100
AcDbEntity
  8
0
  6
Continuous
 62
     7
370
    30
100
AcDbLine
 10
63.6173598912
 20
146.956231663
 30
0.0
 11
62.5737819799
 21
147.2358575407
 31
0.0
  0
LINE
  5
17D
330
1F
100
AcDbEntity
  8
0
  6
Continuous
 62
     7
370
    30
100
AcDbLine
 10
62.5737819799
 20
147.7418190185
 30
0.0
 11
62.5737819799
 21
147.2358575407
 31
0.0
  0
LINE
  5
17E
330
1F
100
AcDbEntity
  8
0
  6
Continuous
 62
     7
370
    30
100
AcDbLine
 10
62.5737819799
 20
147.2358575407
 30
0.0
 11
62.5737819799
 21
142.2477804441
 31
0.0
  0
LINE
  5
17F
330
1F
100
AcDbEntity
  8
0
  6
Continuous
 62
     7
370
    30
100
AcDbLine
 10
226.6674138203
 20
86.1163295191
 30
0.0
 11
226.6639818966
 21
86.0579579454
 31
0.0
  0
LINE
  5
180
330
1F
100
AcDbEntity
  8
0
  6
Continuous
 62
     7
370
    30
100
AcDbLine
 10
236.8639822646
 20
85.2399177234
 30
0.0
 11
236.8639822646
 21
141.7418189663
 31
0.0
  0
LINE
  5
181
330
1F
100
AcDbEntity
  8
0
  6
Continuous
 62
     7
370
    30
100
AcDbLine
 10
236.8639822646
 20
85.2399177234
 30
0.0
 11
226.8465509235
 21
86.1163295191
 31
0.0
  0
LINE
  5
182
330
1F
100
AcDbEntity
  8
0
  6
Continuous
 62
     7
370
    30
100
AcDbLine
 10
226.8465509235
 20
86.1163295191
 30
0.0
 11
226.8465509235
 21
203.3673084657
 31
0.0
  0
LINE
  5
183
330
1F
100
AcDbEntity
  8
0
  6
Continuous
 62
     7
370
    30
100
AcDbLine
 10
226.8465509235
 20
203.3673084657
 30
0.0
 11
236.8639822646
 21
204.2437202614
 31
0.0
  0
LINE
  5
184
330
1F
100
AcDbEntity
  8
0
  6
Continuous
 62
     7
370
    30
100
AcDbLine
 10
236.8639822646
 20
147.7418190185
 30
0.0
 11
236.8639822646
 21
204.2437202614
 31
0.0
  0
ARC
  5
185
330
1F
100
AcDbEntity
  8
0
  6
Continuous
 62
     7
370
    30
100
AcDbCircle
 10
235.8639822646
 20
146.9562317098
 30
0.0
 40
0.500000000002029
100
AcDbArc
 50
104.9999999998
 51
180.0
  0
LINE
  5
186
330
1F
100
AcDbEntity
  8
0
  6
Continuous
 62
     7
370
    30
100
AcDbLine
 10
235.3639822516
 20
146.956231663
 30
0.0
 11
235.3639822516
 21
142.5274063218
 31
0.0
  0
ARC
  5
187
330
1F
100
AcDbEntity
  8
0
  6
Continuous
 62
     7
370
    30
100
AcDbCircle
 10
235.8639822646
 20
142.527406275
 30
0.0
 40
0.500000000002029
100
AcDbArc
 50
180.0
 51
255.0000000002
  0
LINE
  5
188
330
1F
100
AcDbEntity
  8
0
  6
Continuous
 62
     7
370
    30
100
AcDbLine
 10
236.8639822646
 20
147.7418190185
 30
0.0
 11
235.7345727335
 21
147.4391945954
 31
0.0
  0
LINE
  5
189
330
1F
100
AcDbEntity
  8
0
  6
Continuous
 62
     7
370
    30
100
AcDbLine
 10
235.7345727335
 20
142.0444433894
 30
0.0
 11
236.8639822646
 21
141.7418189663
 31
0.0
  0
LINE
  5
18A
330
1F
100
AcDbEntity
  8
0
  6
Continuous
 62
     7
370
    30
100
AcDbLine
 10
236.8639822646
 20
84.7418203335
 30
0.0
 11
226.8465509235
 21
85.6182321291
 31
0.0
  0
SPLINE
  5
18B
330
1F
100
AcDbEntity
  8
0
  6
Continuous
 62
     7
370
    30
100
AcDbSpline
210
0.0
220
0.0
230
1.0
 70
     8
 71
     3
 72
    18
 73
    14
 74
     0
 42
0.000000001
 43
0.00000001
 40
0.0
 40
0.0
 40
0.0
 40
0.0
 40
0.0909708109280676
 40
0.1819046228248973
 40
0.2728096446628591
 40
0.3636940932155827
 40
0.4545661908374751
 40
0.5454341632357321
 40
0.6363062372377959
 40
0.7271906385572717
 40
0.8180955895614017
 40
0.9090293070429895
 40
0.9999999999999999
 40
0.9999999999999999
 40
0.9999999999999999
 40
0.9999999999999999
 10
226.8465511161419
 20
86.11632800459304
 30
0.0
 10
226.8457519390148
 20
86.09263285150668
 30
0.0
 10
226.8441539097965
 20
86.04525218246586
 30
0.0
 10
226.8421386681321
 20
85.97565634791016
 30
0.0
 10
226.8405294778488
 20
85.9089431080021
 30
0.0
 10
226.8394183524653
 20
85.84645578923039
 30
0.0
 10
226.8388496647832
 20
85.78945265940743
 30
0.0
 10
226.8388496659674
 20
85.7390773009363
 30
0.0
 10
226.8394183554784
 20
85.69636303623065
 30
0.0
 10
226.8405294811388
 20
85.66210640532928
 30
0.0
 10
226.8421386691321
 20
85.63724646302401
 30
0.0
 10
226.8441539054682
 20
85.62136957597252
 30
0.0
 10
226.8457519281713
 20
85.61927710493698
 30
0.0
 10
226.8465511019369
 20
85.61823065675226
 30
0.0
  0
LINE
  5
18C
330
1F
100
AcDbEntity
  8
0
  6
Continuous
 62
     7
370
    30
100
AcDbLine
 10
236.8639822646
 20
84.7418203335
 30
0.0
 11
236.8639822646
 21
85.2399177234
 31
0.0
  0
SPLINE
  5
18D
330
1F
100
AcDbEntity
  8
0
  6
Continuous
 62
     7
370
    30
100
AcDbSpline
210
0.0
220
0.0
230
1.0
 70
     8
 71
     3
 72
    18
 73
    14
 74
     0
 42
0.000000001
 43
0.00000001
 40
0.0
 40
0.0
 40
0.0
 40
0.0
 40
0.090974002322527
 40
0.1819103663967788
 40
0.2728173011613669
 40
0.3637030235292351
 40
0.4545757561675315
 40
0.5454437252697307
 40
0.6363151583229777
 40
0.7271982818736693
 40
0.8181013192942779
 40
0.9090324885545588
 40
1.0
 40
1.0
 40
1.0
 40
1.0
 10
226.8465511019369
 20
203.8654073280339
 30
0.0
 10
226.8457519049385
 20
203.8643608069944
 30
0.0
 10
226.8441538415897
 20
203.8622681978879
 30
0.0
 10
226.8421386344987
 20
203.8463903266041
 30
0.0
 10
226.8405295357828
 20
203.8215291234586
 30
0.0
 10
226.8394185437932
 20
203.7872711555038
 30
0.0
 10
226.8388500046103
 20
203.7445557289664
 30
0.0
 10
226.8388501419251
 20
203.6941795931878
 30
0.0
 10
226.8394189260956
 20
203.6371762417743
 30
0.0
 10
226.8405300777964
 20
203.5746893761427
 30
0.0
 10
226.842139195184
 20
203.5079773233259
 30
0.0
 10
226.8441542539975
 20
203.4383834036032
 30
0.0
 10
226.8457520556814
 20
203.3910042767028
 30
0.0
 10
226.8465511161387
 20
203.3673099802305
 30
0.0
  0
LINE
  5
18E
330
1F
100
AcDbEntity
  8
0
  6
Continuous
 62
     7
370
    30
100
AcDbLine
 10
236.8639822646
 20
204.7418176513
 30
0.0
 11
226.8465509235
 21
203.8654058557
 31
0.0
  0
LINE
  5
18F
330
1F
100
AcDbEntity
  8
0
  6
Continuous
 62
     7
370
    30
100
AcDbLine
 10
236.8639822646
 20
204.2437202614
 30
0.0
 11
236.8639822646
 21
204.7418176513
 31
0.0
  0
LINE
  5
190
330
1F
100
AcDbEntity
  8
0
  6
Continuous
 62
     7
370
    30
100
AcDbLine
 10
235.8204043533
 20
142.5274063218
 30
0.0
 11
235.3639822516
 21
142.5274063218
 31
0.0
  0
ARC
  5
191
330
1F
100
AcDbEntity
  8
0
  6
Continuous
 62
     7
370
    30
100
AcDbCircle
 10
237.2107844786
 20
142.0312011418
 30
0.0
 40
1.476271138206407
100
AcDbArc
 50
160.3593029224
 51
179.4860462606
  0
SPLINE
  5
192
330
1F
100
AcDbEntity
  8
0
  6
Continuous
 62
     7
370
    30
100
AcDbSpline
210
0.0
220
0.0
230
1.0
 70
    24
 71
     3
 72
    10
 73
     6
 74
     0
 42
0.000000001
 43
0.00000001
 40
0.0
 40
0.0
 40
0.0
 40
0.0
 40
0.5
 40
0.5
 40
1.0
 40
1.0
 40
1.0
 40
1.0
 10
226.6639822646405
 20
203.3673099801931
 30
0.0
 10
226.6639822646405
 20
203.367309980193
 30
0.0
 10
226.6831181889875
 20
203.3673099801931
 30
0.0
 10
226.7499354056076
 20
203.367309980193
 30
0.0
 10
226.7972882966309
 20
203.3673099801931
 30
0.0
 10
226.8465511161472
 20
203.3673099801931
 30
0.0
  0
SPLINE
  5
193
330
1F
100
AcDbEntity
  8
0
  6
Continuous
 62
     7
370
    30
100
AcDbSpline
210
0.0
220
0.0
230
1.0
 70
    24
 71
     3
 72
    10
 73
     6
 74
     0
 42
0.000000001
 43
0.00000001
 40
0.0
 40
0.0
 40
0.0
 40
0.0
 40
0.5
 40
0.5
 40
1.0
 40
1.0
 40
1.0
 40
1.0
 10
226.8465511161472
 20
86.11632800459304
 30
0.0
 10
226.7972882966309
 20
86.11632800459304
 30
0.0
 10
226.7499354056075
 20
86.11632800459303
 30
0.0
 10
226.6831181889875
 20
86.11632800459304
 30
0.0
 10
226.6639822646405
 20
86.11632800459304
 30
0.0
 10
226.6639822646405
 20
86.11632800459304
 30
0.0
  0
LINE
  5
194
330
1F
100
AcDbEntity
  8
0
  6
Continuous
 62
     7
370
    30
100
AcDbLine
 10
226.6639818966
 20
203.3673084657
 30
0.0
 11
226.6639818966
 21
86.1163295191
 31
0.0
  0
ARC
  5
195
330
1F
100
AcDbEntity
  8
0
  6
Continuous
 62
     7
370
    30
100
AcDbCircle
 10
237.2107844786
 20
147.452436843
 30
0.0
 40
1.476271138206388
100
AcDbArc
 50
180.5139537394
 51
199.6406970776
  0
LINE
  5
196
330
1F
100
AcDbEntity
  8
0
  6
Continuous
 62
     7
370
    30
100
AcDbLine
 10
235.8204043533
 20
146.956231663
 30
0.0
 11
235.3639822516
 21
146.956231663
 31
0.0
  0
SPLINE
  5
197
330
1F
100
AcDbEntity
  8
0
  6
Continuous
 62
     7
370
    30
100
AcDbSpline
210
0.0
220
0.0
230
1.0
 70
    24
 71
     3
 72
    13
 73
     9
 74
     0
 42
0.000000001
 43
0.00000001
 40
0.0
 40
0.0
 40
0.0
 40
0.0
 40
0.1284782607995254
 40
0.2515460673333038
 40
0.37409331565304
 40
0.5010700564175357
 40
0.7479921650725141
 40
1.0
 40
1.0
 40
1.0
 40
1.0
 10
226.6639822646405
 20
203.3673099801931
 30
0.0
 10
226.6639822646405
 20
203.3873888852529
 30
0.0
 10
226.6639822646405
 20
203.4267011360005
 30
0.0
 10
226.6639822646405
 20
203.4830493009463
 30
0.0
 10
226.6639822646405
 20
203.5346231506122
 30
0.0
 10
226.6639822646405
 20
203.5942541764715
 30
0.0
 10
226.6639822646405
 20
203.6538894038872
 30
0.0
 10
226.6639822646405
 20
203.6620476480367
 30
0.0
 10
226.6639822646405
 20
203.6661683496931
 30
0.0
  0
SPLINE
  5
198
330
1F
100
AcDbEntity
  8
0
  6
Continuous
 62
     7
370
    30
100
AcDbSpline
210
0.0
220
0.0
230
1.0
 70
     8
 71
     3
 72
    10
 73
     6
 74
     0
 42
0.000000001
 43
0.00000001
 40
0.0
 40
0.0
 40
0.0
 40
0.0
 40
0.5
 40
0.5
 40
1.0
 40
1.0
 40
1.0
 40
1.0
 10
226.8465511019422
 20
203.8654073279735
 30
0.0
 10
226.7972882784759
 20
203.8610973858618
 30
0.0
 10
226.7499353852634
 20
203.8377455170933
 30
0.0
 10
226.6831181727422
 20
203.7648273052503
 30
0.0
 10
226.663982254775
 20
203.7156193494491
 30
0.0
 10
226.6639822646405
 20
203.6661683496931
 30
0.0
  0
SPLINE
  5
199
330
1F
100
AcDbEntity
  8
0
  6
Continuous
 62
     7
370
    30
100
AcDbSpline
210
0.0
220
0.0
230
1.0
 70
     8
 71
     3
 72
    10
 73
     6
 74
     0
 42
0.000000001
 43
0.00000001
 40
0.0
 40
0.0
 40
0.0
 40
0.0
 40
0.5
 40
0.5
 40
1.0
 40
1.0
 40
1.0
 40
1.0
 10
226.6639822646405
 20
85.81746959519306
 30
0.0
 10
226.6639822646405
 20
85.76801860208703
 30
0.0
 10
226.6831181870761
 20
85.7188106565917
 30
0.0
 10
226.7499353978856
 20
85.64589246121956
 30
0.0
 10
226.7972882851006
 20
85.62254059834467
 30
0.0
 10
226.8465511019422
 20
85.61823065681257
 30
0.0
  0
SPLINE
  5
19A
330
1F
100
AcDbEntity
  8
0
  6
Continuous
 62
     7
370
    30
100
AcDbSpline
210
0.0
220
0.0
230
1.0
 70
    24
 71
     3
 72
    13
 73
     9
 74
     0
 42
0.000000001
 43
0.00000001
 40
0.0
 40
0.0
 40
0.0
 40
0.0
 40
0.1284723763525748
 40
0.2515349518386054
 40
0.3740769733961498
 40
0.5010478368733708
 40
0.7479810346550503
 40
0.9999999999999999
 40
0.9999999999999999
 40
0.9999999999999999
 40
0.9999999999999999
 10
226.6639822646405
 20
85.81746963509305
 30
0.0
 10
226.6639822646405
 20
85.81861585647019
 30
0.0
 10
226.6639822646405
 20
85.82086003336705
 30
0.0
 10
226.6639822646405
 20
85.83809880487863
 30
0.0
 10
226.6639822646405
 20
85.86583281691001
 30
0.0
 10
226.6639822646405
 20
85.91548995506467
 30
0.0
 10
226.6639822646405
 20
85.99800776705735
 30
0.0
 10
226.6639822646405
 20
86.07662082716293
 30
0.0
 10
226.6639822646405
 20
86.11632800459304
 30
0.0
  0
LINE
  5
19B
330
1F
100
AcDbEntity
  8
0
  6
Continuous
 62
     7
370
    30
100
AcDbLine
 10
236.8639822646
 20
147.2358575407
 30
0.0
 11
235.8204043533
 21
146.956231663
 31
0.0
  0
LINE
  5
19C
330
1F
100
AcDbEntity
  8
0
  6
Continuous
 62
     7
370
    30
100
AcDbLine
 10
236.8639822646
 20
147.2358575407
 30
0.0
 11
236.8639822646
 21
147.7418190185
 31
0.0
  0
LINE
  5
19D
330
1F
100
AcDbEntity
  8
0
  6
Continuous
 62
     7
370
    30
100
AcDbLine
 10
236.8639822646
 20
142.2477804441
 30
0.0
 11
235.8204043533
 21
142.5274063218
 31
0.0
  0
LINE
  5
19E
330
1F
100
AcDbEntity
  8
0
  6
Continuous
 62
     7
370
    30
100
AcDbLine
 10
236.8639822646
 20
141.7418189663
 30
0.0
 11
236.8639822646
 21
142.2477804441
 31
0.0
  0
LINE
  5
19F
330
1F
100
AcDbEntity
  8
0
  6
Continuous
 62
     7
370
    30
100
AcDbLine
 10
235.8204043533
 20
142.5274063218
 30
0.0
 11
235.8204043533
 21
146.956231663
 31
0.0
  0
LINE
  5
1A0
330
1F
100
AcDbEntity
  8
0
  6
Continuous
 62
     7
370
    30
100
AcDbLine
 10
236.8639822646
 20
142.2477804441
 30
0.0
 11
236.8639822646
 21
147.2358575407
 31
0.0
  0
SPLINE
  5
1A1
330
1F
100
AcDbEntity
  8
0
  6
Continuous
 62
     7
370
    30
100
AcDbSpline
210
0.0
220
0.0
230
1.0
 70
     8
 71
     3
 72
    11
 73
     7
 74
     0
 42
0.000000001
 43
0.00000001
 40
0.0
 40
0.0
 40
0.0
 40
0.0
 40
0.249991497989137
 40
0.499996507378163
 40
0.7500039195239832
 40
1.0
 40
1.0
 40
1.0
 40
1.0
 10
114.1657546399792
 20
248.0575213402891
 30
0.0
 10
114.1707711866602
 20
248.033423726555
 30
0.0
 10
114.1808045511535
 20
247.9852271966726
 30
0.0
 10
114.2268395452953
 20
247.9265270127776
 30
0.0
 10
114.2888268653274
 20
247.8858468561159
 30
0.0
 10
114.3368836000451
 20
247.8805997908948
 30
0.0
 10
114.3609114228447
 20
247.8779763177419
 30
0.0
  0
LINE
  5
1A2
330
1F
100
AcDbEntity
  8
0
  6
Continuous
 62
     7
370
    30
100
AcDbLine
 10
114.2905108868
 20
247.8913147197
 30
0.0
 11
114.3609114228
 21
247.8779763177
 31
0.0
  0
LINE
  5
1A3
330
1F
100
AcDbEntity
  8
0
  6
Continuous
 62
     7
370
    30
100
AcDbLine
 10
114.6540396153
 20
248.0605453447
 30
0.0
 11
113.7776278197
 21
258.0779766858
 31
0.0
  0
LINE
  5
1A4
330
1F
100
AcDbEntity
  8
0
  6
Continuous
 62
     7
370
    30
100
AcDbLine
 10
182.7814333378
 20
258.0779766858
 30
0.0
 11
113.7776278197
 21
258.0779766858
 31
0.0
  0
LINE
  5
1A5
330
1F
100
AcDbEntity
  8
0
  6
Continuous
 62
     7
370
    30
100
AcDbLine
 10
182.7814333378
 20
258.0779766858
 30
0.0
 11
181.9050215422
 21
248.0605453447
 31
0.0
  0
LINE
  5
1A6
330
1F
100
AcDbEntity
  8
0
  6
Continuous
 62
     7
370
    30
100
AcDbLine
 10
181.9050215422
 20
248.0605453447
 30
0.0
 11
114.6540396153
 21
248.0605453447
 31
0.0
  0
LINE
  5
1A7
330
1F
100
AcDbEntity
  8
0
  6
Continuous
 62
     7
370
    30
100
AcDbLine
 10
183.2795307277
 20
258.0779766858
 30
0.0
 11
182.7814333378
 21
258.0779766858
 31
0.0
  0
LINE
  5
1A8
330
1F
100
AcDbEntity
  8
0
  6
Continuous
 62
     7
370
    30
100
AcDbLine
 10
182.4031189321
 20
248.0605453447
 30
0.0
 11
183.2795307277
 21
258.0779766858
 31
0.0
  0
SPLINE
  5
1A9
330
1F
100
AcDbEntity
  8
0
  6
Continuous
 62
     7
370
    30
100
AcDbSpline
210
0.0
220
0.0
230
1.0
 70
     8
 71
     3
 72
    18
 73
    14
 74
     0
 42
0.000000001
 43
0.00000001
 40
0.0
 40
0.0
 40
0.0
 40
0.0
 40
0.090974002322527
 40
0.1819103663967788
 40
0.2728173011613669
 40
0.3637030235292351
 40
0.4545757561675315
 40
0.5454437252697307
 40
0.6363151583229777
 40
0.7271982818736693
 40
0.8181013192942779
 40
0.9090324885545588
 40
1.0
 40
1.0
 40
1.0
 40
1.0
 10
181.9050215653285
 20
248.060545523097
 30
0.0
 10
181.9287175521746
 20
248.0597463260986
 30
0.0
 10
181.9760997222371
 20
248.0581482627498
 30
0.0
 10
182.0456974224838
 20
248.0561330556588
 30
0.0
 10
182.1124118216465
 20
248.0545239569428
 30
0.0
 10
182.1748995873167
 20
248.0534129649533
 30
0.0
 10
182.231902508739
 20
248.0528444257704
 30
0.0
 10
182.2822771182581
 20
248.0528445630851
 30
0.0
 10
182.3249902585122
 20
248.0534133472557
 30
0.0
 10
182.3592455912769
 20
248.0545244989565
 30
0.0
 10
182.3841043041397
 20
248.0561336163441
 30
0.0
 10
182.3999802239082
 20
248.0581486751576
 30
0.0
 10
182.4020725456998
 20
248.0597464768415
 30
0.0
 10
182.4031189156118
 20
248.0605455372987
 30
0.0
  0
LINE
  5
1AA
330
1F
100
AcDbEntity
  8
0
  6
Continuous
 62
     7
370
    30
100
AcDbLine
 10
114.1559422253
 20
248.0605453447
 30
0.0
 11
114.1751088439
 21
248.0577532396
 31
0.0
  0
LINE
  5
1AB
330
1F
100
AcDbEntity
  8
0
  6
Continuous
 62
     7
370
    30
100
AcDbLine
 10
114.1559422253
 20
248.0605453447
 30
0.0
 11
113.2795304297
 21
258.0779766858
 31
0.0
  0
LINE
  5
1AC
330
1F
100
AcDbEntity
  8
0
  6
Continuous
 62
     7
370
    30
100
AcDbLine
 10
113.7776278197
 20
258.0779766858
 30
0.0
 11
113.2795304297
 21
258.0779766858
 31
0.0
  0
SPLINE
  5
1AD
330
1F
100
AcDbEntity
  8
0
  6
Continuous
 62
     7
370
    30
100
AcDbSpline
210
0.0
220
0.0
230
1.0
 70
    24
 71
     3
 72
    10
 73
     6
 74
     0
 42
0.000000001
 43
0.00000001
 40
0.0
 40
0.0
 40
0.0
 40
0.0
 40
0.5
 40
0.5
 40
1.0
 40
1.0
 40
1.0
 40
1.0
 10
181.9050214428285
 20
248.0605455231023
 30
0.0
 10
181.9050214428285
 20
248.011282699636
 30
0.0
 10
181.9050214428285
 20
247.9639298064235
 30
0.0
 10
181.9050214428285
 20
247.8971125939022
 30
0.0
 10
181.9050214428285
 20
247.8779766759351
 30
0.0
 10
181.9050214428285
 20
247.8779766858005
 30
0.0
  0
LINE
  5
1AE
330
1F
100
AcDbEntity
  8
0
  6
Continuous
 62
     7
370
    30
100
AcDbLine
 10
114.6540396153
 20
247.8779763177
 30
0.0
 11
181.9050215422
 21
247.8779763177
 31
0.0
  0
SPLINE
  5
1AF
330
1F
100
AcDbEntity
  8
0
  6
Continuous
 62
     7
370
    30
100
AcDbSpline
210
0.0
220
0.0
230
1.0
 70
    24
 71
     3
 72
    10
 73
     6
 74
     0
 42
0.000000001
 43
0.00000001
 40
0.0
 40
0.0
 40
0.0
 40
0.0
 40
0.5
 40
0.5
 40
1.0
 40
1.0
 40
1.0
 40
1.0
 10
114.6540395921286
 20
247.8779766858005
 30
0.0
 10
114.6540395921286
 20
247.8779766759351
 30
0.0
 10
114.6540395921285
 20
247.8971125939022
 30
0.0
 10
114.6540395921286
 20
247.9639298064235
 30
0.0
 10
114.6540395921286
 20
248.011282699636
 30
0.0
 10
114.6540395921286
 20
248.0605455231023
 30
0.0
  0
SPLINE
  5
1B0
330
1F
100
AcDbEntity
  8
0
  6
Continuous
 62
     7
370
    30
100
AcDbSpline
210
0.0
220
0.0
230
1.0
 70
     8
 71
     3
 72
    10
 73
     6
 74
     0
 42
0.000000001
 43
0.00000001
 40
0.0
 40
0.0
 40
0.0
 40
0.0
 40
0.5
 40
0.5
 40
1.0
 40
1.0
 40
1.0
 40
1.0
 10
182.2038799759285
 20
247.8779766858005
 30
0.0
 10
182.2533309714111
 20
247.8779766858005
 30
0.0
 10
182.3025389192252
 20
247.8971126101476
 30
0.0
 10
182.3754571157198
 20
247.9639298267676
 30
0.0
 10
182.3988089773248
 20
248.0112827177909
 30
0.0
 10
182.4031189155518
 20
248.0605455373072
 30
0.0
  0
SPLINE
  5
1B1
330
1F
100
AcDbEntity
  8
0
  6
Continuous
 62
     7
370
    30
100
AcDbSpline
210
0.0
220
0.0
230
1.0
 70
    24
 71
     3
 72
    13
 73
     9
 74
     0
 42
0.000000001
 43
0.00000001
 40
0.0
 40
0.0
 40
0.0
 40
0.0
 40
0.1284782607995254
 40
0.2515460673333038
 40
0.37409331565304
 40
0.5010700564175357
 40
0.7479921650725141
 40
1.0
 40
1.0
 40
1.0
 40
1.0
 10
182.2038799759285
 20
247.8779766858005
 30
0.0
 10
182.2027336315496
 20
247.8779766858005
 30
0.0
 10
182.2004892174476
 20
247.8779766858005
 30
0.0
 10
182.1832489203262
 20
247.8779766858005
 30
0.0
 10
182.1555124733499
 20
247.8779766858005
 30
0.0
 10
182.1058534289366
 20
247.8779766858005
 30
0.0
 10
182.0233363690922
 20
247.8779766858005
 30
0.0
 10
181.9447268475379
 20
247.8779766858005
 30
0.0
 10
181.9050214428285
 20
247.8779766858005
 30
0.0
  0
SPLINE
  5
1B2
330
1F
100
AcDbEntity
  8
0
  6
Continuous
 62
     7
370
    30
100
AcDbSpline
210
0.0
220
0.0
230
1.0
 70
    24
 71
     3
 72
    10
 73
     6
 74
     0
 42
0.000000001
 43
0.00000001
 40
0.0
 40
0.0
 40
0.0
 40
0.0
 40
0.5
 40
0.5
 40
1.0
 40
1.0
 40
1.0
 40
1.0
 10
114.6540397146285
 20
247.8779766858005
 30
0.0
 10
114.5756902756285
 20
247.8779766858005
 30
0.0
 10
114.4979779018181
 20
247.8779766858005
 30
0.0
 10
114.3873645146515
 20
247.8779766858005
 30
0.0
 10
114.3551811815285
 20
247.8779766858005
 30
0.0
 10
114.3551811815285
 20
247.8779766858005
 30
0.0
  0
SPLINE
  5
1B3
330
1F
100
AcDbEntity
  8
0
  6
Continuous
 62
     8
370
    30
100
AcDbSpline
210
0.0
220
0.0
230
1.0
 70
     8
 71
     3
 72
    11
 73
     7
 74
     0
 42
0.000000001
 43
0.00000001
 40
0.0
 40
0.0
 40
0.0
 40
0.0
 40
0.1428963327892026
 40
0.4285229449431613
 40
0.7141632546407106
 40
1.0
 40
1.0
 40
1.0
 40
1.0
 10
114.1751088439187
 20
248.0577532396102
 30
0.0
 10
114.1797450236776
 20
248.0567434665986
 30
0.0
 10
114.1936481754576
 20
248.0537153209756
 30
0.0
 10
114.2955684142
 20
248.0522379101122
 30
0.0
 10
114.4581082086684
 20
248.0542489586295
 30
0.0
 10
114.5887141818642
 20
248.0584460684404
 30
0.0
 10
114.6540396152695
 20
248.0605453446889
 30
0.0
  0
SPLINE
  5
1B4
330
1F
100
AcDbEntity
  8
0
  6
Continuous
 62
     7
370
    30
100
AcDbSpline
210
0.0
220
0.0
230
1.0
 70
     8
 71
     3
 72
    11
 73
     7
 74
     0
 42
0.000000001
 43
0.00000001
 40
0.0
 40
0.0
 40
0.0
 40
0.0
 40
0.249991497989137
 40
0.499996507378163
 40
0.7500039195239832
 40
1.0
 40
1.0
 40
1.0
 40
1.0
 10
182.3933065174779
 20
44.25341431928891
 30
0.0
 10
182.3882899707969
 20
44.277511933023
 30
0.0
 10
182.3782566063036
 20
44.32570846290547
 30
0.0
 10
182.3322216121618
 20
44.38440864680044
 30
0.0
 10
182.2702342921297
 20
44.42508880346215
 30
0.0
 10
182.222177557412
 20
44.43033586868322
 30
0.0
 10
182.1981497346123
 20
44.43295934183615
 30
0.0
  0
LINE
  5
1B5
330
1F
100
AcDbEntity
  8
0
  6
Continuous
 62
     7
370
    30
100
AcDbLine
 10
182.2685502707
 20
44.4196209399
 30
0.0
 11
182.1981497346
 21
44.4329593418
 31
0.0
  0
LINE
  5
1B6
330
1F
100
AcDbEntity
  8
0
  6
Continuous
 62
     7
370
    30
100
AcDbLine
 10
182.7814333378
 20
34.2329589738
 30
0.0
 11
181.9050215422
 21
44.2503903149
 31
0.0
  0
LINE
  5
1B7
330
1F
100
AcDbEntity
  8
0
  6
Continuous
 62
     7
370
    30
100
AcDbLine
 10
113.7776278197
 20
34.2329589738
 30
0.0
 11
182.7814333378
 21
34.2329589738
 31
0.0
  0
LINE
  5
1B8
330
1F
100
AcDbEntity
  8
0
  6
Continuous
 62
     7
370
    30
100
AcDbLine
 10
114.6540396153
 20
44.2503903149
 30
0.0
 11
113.7776278197
 21
34.2329589738
 31
0.0
  0
LINE
  5
1B9
330
1F
100
AcDbEntity
  8
0
  6
Continuous
 62
     7
370
    30
100
AcDbLine
 10
181.9050215422
 20
44.2503903149
 30
0.0
 11
114.6540396153
 21
44.2503903149
 31
0.0
  0
LINE
  5
1BA
330
1F
100
AcDbEntity
  8
0
  6
Continuous
 62
     7
370
    30
100
AcDbLine
 10
182.4031189321
 20
44.2503903149
 30
0.0
 11
182.3839523135
 21
44.25318242
 31
0.0
  0
LINE
  5
1BB
330
1F
100
AcDbEntity
  8
0
  6
Continuous
 62
     7
370
    30
100
AcDbLine
 10
183.2795307277
 20
34.2329589738
 30
0.0
 11
182.4031189321
 21
44.2503903149
 31
0.0
  0
LINE
  5
1BC
330
1F
100
AcDbEntity
  8
0
  6
Continuous
 62
     7
370
    30
100
AcDbLine
 10
182.7814333378
 20
34.2329589738
 30
0.0
 11
183.2795307277
 21
34.2329589738
 31
0.0
  0
LINE
  5
1BD
330
1F
100
AcDbEntity
  8
0
  6
Continuous
 62
     7
370
    30
100
AcDbLine
 10
113.2795304297
 20
34.2329589738
 30
0.0
 11
113.7776278197
 21
34.2329589738
 31
0.0
  0
LINE
  5
1BE
330
1F
100
AcDbEntity
  8
0
  6
Continuous
 62
     7
370
    30
100
AcDbLine
 10
113.2795304297
 20
34.2329589738
 30
0.0
 11
114.1559422253
 21
44.2503903149
 31
0.0
  0
SPLINE
  5
1BF
330
1F
100
AcDbEntity
  8
0
  6
Continuous
 62
     7
370
    30
100
AcDbSpline
210
0.0
220
0.0
230
1.0
 70
     8
 71
     3
 72
    18
 73
    14
 74
     0
 42
0.000000001
 43
0.00000001
 40
0.0
 40
0.0
 40
0.0
 40
0.0
 40
0.0909706929570104
 40
0.1819044104385982
 40
0.2728093614427282
 40
0.3636937627622041
 40
0.4545658367642678
 40
0.5454338091625248
 40
0.6363059067844173
 40
0.7271903553371409
 40
0.8180953771751027
 40
0.9090291890719324
 40
1.0
 40
1.0
 40
1.0
 40
1.0
 10
114.6540395921286
 20
44.25039013648104
 30
0.0
 10
114.6303444697317
 20
44.25118931024662
 30
0.0
 10
114.5829638559343
 20
44.25278733294974
 30
0.0
 10
114.5133680899526
 20
44.25480256928584
 30
0.0
 10
114.4466548925192
 20
44.2564117572792
 30
0.0
 10
114.3841675898999
 20
44.25752288293951
 30
0.0
 10
114.3271644520238
 20
44.2580915724506
 30
0.0
 10
114.2767890655481
 20
44.25809157363478
 30
0.0
 10
114.2340747590061
 20
44.25752288595258
 30
0.0
 10
114.1998180799186
 20
44.25641176056917
 30
0.0
 10
114.1749580920651
 20
44.25480257028585
 30
0.0
 10
114.1590811692702
 20
44.25278732862141
 30
0.0
 10
114.1569886928552
 20
44.25118929940312
 30
0.0
 10
114.155942241845
 20
44.25039012227603
 30
0.0
  0
SPLINE
  5
1C0
330
1F
100
AcDbEntity
  8
0
  6
Continuous
 62
     7
370
    30
100
AcDbSpline
210
0.0
220
0.0
230
1.0
 70
    24
 71
     3
 72
    10
 73
     6
 74
     0
 42
0.000000001
 43
0.00000001
 40
0.0
 40
0.0
 40
0.0
 40
0.0
 40
0.5
 40
0.5
 40
1.0
 40
1.0
 40
1.0
 40
1.0
 10
114.6540397146285
 20
44.25039013647577
 30
0.0
 10
114.6540397146285
 20
44.2996529533173
 30
0.0
 10
114.6540397146285
 20
44.34700584053238
 30
0.0
 10
114.6540397146286
 20
44.41382305134189
 30
0.0
 10
114.6540397146285
 20
44.43295897377747
 30
0.0
 10
114.6540397146285
 20
44.43295897377747
 30
0.0
  0
LINE
  5
1C1
330
1F
100
AcDbEntity
  8
0
  6
Continuous
 62
     7
370
    30
100
AcDbLine
 10
181.9050215422
 20
44.4329593418
 30
0.0
 11
114.6540396153
 21
44.4329593418
 31
0.0
  0
SPLINE
  5
1C2
330
1F
100
AcDbEntity
  8
0
  6
Continuous
 62
     7
370
    30
100
AcDbSpline
210
0.0
220
0.0
230
1.0
 70
    24
 71
     3
 72
    10
 73
     6
 74
     0
 42
0.000000001
 43
0.00000001
 40
0.0
 40
0.0
 40
0.0
 40
0.0
 40
0.5
 40
0.5
 40
1.0
 40
1.0
 40
1.0
 40
1.0
 10
181.9050215653285
 20
44.43295897377747
 30
0.0
 10
181.9050215653285
 20
44.43295897377747
 30
0.0
 10
181.9050215653286
 20
44.41382305134189
 30
0.0
 10
181.9050215653285
 20
44.34700584053238
 30
0.0
 10
181.9050215653285
 20
44.29965295331731
 30
0.0
 10
181.9050215653285
 20
44.25039013647577
 30
0.0
  0
SPLINE
  5
1C3
330
1F
100
AcDbEntity
  8
0
  6
Continuous
 62
     7
370
    30
100
AcDbSpline
210
0.0
220
0.0
230
1.0
 70
     8
 71
     3
 72
    10
 73
     6
 74
     0
 42
0.000000001
 43
0.00000001
 40
0.0
 40
0.0
 40
0.0
 40
0.0
 40
0.5
 40
0.5
 40
1.0
 40
1.0
 40
1.0
 40
1.0
 10
114.3551811815285
 20
44.43295897377747
 30
0.0
 10
114.305730186046
 20
44.43295897377747
 30
0.0
 10
114.2565222382319
 20
44.41382304943045
 30
0.0
 10
114.1836040417373
 20
44.3470058328104
 30
0.0
 10
114.1602521801323
 20
44.29965294178709
 30
0.0
 10
114.1559422419053
 20
44.25039012227076
 30
0.0
  0
SPLINE
  5
1C4
330
1F
100
AcDbEntity
  8
0
  6
Continuous
 62
     7
370
    30
100
AcDbSpline
210
0.0
220
0.0
230
1.0
 70
    24
 71
     3
 72
    13
 73
     9
 74
     0
 42
0.000000001
 43
0.00000001
 40
0.0
 40
0.0
 40
0.0
 40
0.0
 40
0.1284782607995254
 40
0.2515460673333038
 40
0.37409331565304
 40
0.5010700564175357
 40
0.7479921650725141
 40
1.0
 40
1.0
 40
1.0
 40
1.0
 10
114.3551811815285
 20
44.43295897377747
 30
0.0
 10
114.3563275259075
 20
44.43295897377747
 30
0.0
 10
114.3585719400095
 20
44.43295897377747
 30
0.0
 10
114.3758122371309
 20
44.43295897377747
 30
0.0
 10
114.4035486841072
 20
44.43295897377747
 30
0.0
 10
114.4532077285205
 20
44.43295897377747
 30
0.0
 10
114.5357247883648
 20
44.43295897377747
 30
0.0
 10
114.6143343099191
 20
44.43295897377747
 30
0.0
 10
114.6540397146285
 20
44.43295897377747
 30
0.0
  0
SPLINE
  5
1C5
330
1F
100
AcDbEntity
  8
0
  6
Continuous
 62
     7
370
    30
100
AcDbSpline
210
0.0
220
0.0
230
1.0
 70
    24
 71
     3
 72
    13
 73
     9
 74
     0
 42
0.000000001
 43
0.00000001
 40
0.0
 40
0.0
 40
0.0
 40
0.0
 40
0.1284723763525748
 40
0.2515349518386054
 40
0.3740769733961498
 40
0.5010478368733708
 40
0.7479810346550503
 40
0.9999999999999999
 40
0.9999999999999999
 40
0.9999999999999999
 40
0.9999999999999999
 10
181.9050214428285
 20
44.43295897377747
 30
0.0
 10
181.9250994219257
 20
44.43295897377747
 30
0.0
 10
181.9644099231292
 20
44.43295897377747
 30
0.0
 10
182.0207557922499
 20
44.43295897377747
 30
0.0
 10
182.0723279864138
 20
44.43295897377747
 30
0.0
 10
182.1319604961981
 20
44.43295897377747
 30
0.0
 10
182.1915998542414
 20
44.43295897377746
 30
0.0
 10
182.1997588806633
 20
44.43295897377747
 30
0.0
 10
182.2038799759285
 20
44.43295897377747
 30
0.0
  0
SPLINE
  5
1C6
330
1F
100
AcDbEntity
  8
0
  6
Continuous
 62
     8
370
    30
100
AcDbSpline
210
0.0
220
0.0
230
1.0
 70
     8
 71
     3
 72
    11
 73
     7
 74
     0
 42
0.000000001
 43
0.00000001
 40
0.0
 40
0.0
 40
0.0
 40
0.0
 40
0.1429016985098176
 40
0.4285389665645076
 40
0.7141686329919634
 40
1.0
 40
1.0
 40
1.0
 40
1.0
 10
182.3839523135384
 20
44.25318241996783
 30
0.0
 10
182.379316344879
 20
44.25419214582245
 30
0.0
 10
182.3654138284005
 20
44.25722014953945
 30
0.0
 10
182.2634882255144
 20
44.25869940119302
 30
0.0
 10
182.1009475733745
 20
44.25668625550388
 30
0.0
 10
181.9703455848335
 20
44.25248945552257
 30
0.0
 10
181.9050215421876
 20
44.25039031488913
 30
0.0
  0
LINE
  5
1C7
330
1F
100
AcDbEntity
  8
0
  6
Continuous
 62
     7
370
    30
100
AcDbLine
 10
349.4258244056
 20
142.0444433894
 30
0.0
 11
349.5246340055
 21
141.7418189663
 31
0.0
  0
LINE
  5
1C8
330
1F
100
AcDbEntity
  8
0
  6
Continuous
 62
     7
370
    30
100
AcDbLine
 10
348.5152218956
 20
141.7418189663
 30
0.0
 11
349.5246340055
 21
141.7418189663
 31
0.0
  0
LINE
  5
1C9
330
1F
100
AcDbEntity
  8
0
  6
Continuous
 62
     7
370
    30
100
AcDbLine
 10
348.5152218956
 20
141.7418189663
 30
0.0
 11
348.6140314955
 21
142.0444433894
 31
0.0
  0
LINE
  5
1CA
330
1F
100
AcDbEntity
  8
0
  6
Continuous
 62
     7
370
    30
100
AcDbLine
 10
348.6140314955
 20
142.0444433894
 30
0.0
 11
349.4258244056
 21
142.0444433894
 31
0.0
  0
LINE
  5
1CB
330
1F
100
AcDbEntity
  8
0
  6
Continuous
 62
     7
370
    30
100
AcDbLine
 10
349.5246340055
 20
141.7418189663
 30
0.0
 11
349.5246340055
 21
85.2399177234
 31
0.0
  0
ELLIPSE
  5
1CC
330
1F
100
AcDbEntity
  8
0
  6
Continuous
 62
     7
370
    30
100
AcDbEllipse
 10
349.0227239377
 20
85.2437289111
 30
0.0
 11
-0.3562493039451624
 21
0.3562493039451198
 31
0.0
210
0.0
220
0.0
230
1.0
 40
0.9924325091
 41
2.359992588483365
 42
3.923192718696086
  0
LINE
  5
1CD
330
1F
100
AcDbEntity
  8
0
  6
Continuous
 62
     7
370
    30
100
AcDbLine
 10
349.0265366156
 20
84.7418203335
 30
0.0
 11
280.0227310974
 21
84.7418203335
 31
0.0
  0
ELLIPSE
  5
1CE
330
1F
100
AcDbEntity
  8
0
  6
Continuous
 62
     7
370
    30
100
AcDbEllipse
 10
280.0265437752
 20
85.2437289111
 30
0.0
 11
-0.3562493039451056
 21
-0.3562493039451198
 31
0.0
210
0.0
220
0.0
230
1.0
 40
0.9924325091
 41
5.501585242073281
 42
7.064785372285894
  0
LINE
  5
1CF
330
1F
100
AcDbEntity
  8
0
  6
Continuous
 62
     7
370
    30
100
AcDbLine
 10
279.5246337075
 20
85.2399177234
 30
0.0
 11
279.5246337075
 21
141.7418189663
 31
0.0
  0
LINE
  5
1D0
330
1F
100
AcDbEntity
  8
0
  6
Continuous
 62
     7
370
    30
100
AcDbLine
 10
279.5246337075
 20
141.7418189663
 30
0.0
 11
280.5340458173
 21
141.7418189663
 31
0.0
  0
ELLIPSE
  5
1D1
330
1F
100
AcDbEntity
  8
0
  6
Continuous
 62
     7
370
    30
100
AcDbEllipse
 10
280.5227239377
 20
142.2594570826
 30
0.0
 11
0.1612402556953611
 21
-0.4938262234184945
 31
0.0
210
0.0
220
0.0
230
1.0
 40
0.9624950979
 41
5.978692064312495
 42
7.5269289115173
  0
LINE
  5
1D2
330
1F
100
AcDbEntity
  8
0
  6
Continuous
 62
     7
370
    30
100
AcDbLine
 10
281.024633022
 20
142.2477804441
 30
0.0
 11
281.024633022
 21
147.2358575407
 31
0.0
  0
ELLIPSE
  5
1D3
330
1F
100
AcDbEntity
  8
0
  6
Continuous
 62
     7
370
    30
100
AcDbEllipse
 10
280.5227239377
 20
147.2241809022
 30
0.0
 11
-0.161240255695418
 21
-0.4938262234184947
 31
0.0
210
0.0
220
0.0
230
1.0
 40
0.9624950979
 41
1.897849049252098
 42
3.446085896457033
  0
LINE
  5
1D4
330
1F
100
AcDbEntity
  8
0
  6
Continuous
 62
     7
370
    30
100
AcDbLine
 10
280.5340458173
 20
147.7418190185
 30
0.0
 11
279.5246337075
 21
147.7418190185
 31
0.0
  0
LINE
  5
1D5
330
1F
100
AcDbEntity
  8
0
  6
Continuous
 62
     7
370
    30
100
AcDbLine
 10
279.5246337075
 20
147.7418190185
 30
0.0
 11
279.5246337075
 21
204.2437202614
 31
0.0
  0
ELLIPSE
  5
1D6
330
1F
100
AcDbEntity
  8
0
  6
Continuous
 62
     7
370
    30
100
AcDbEllipse
 10
280.0265437752
 20
204.2399090736
 30
0.0
 11
0.3562493039451055
 21
-0.3562493039451339
 31
0.0
210
0.0
220
0.0
230
1.0
 40
0.9924325091
 41
2.359992588483475
 42
3.923192718696148
  0
LINE
  5
1D7
330
1F
100
AcDbEntity
  8
0
  6
Continuous
 62
     7
370
    30
100
AcDbLine
 10
280.0227310974
 20
204.7418176513
 30
0.0
 11
349.0265366156
 21
204.7418176513
 31
0.0
  0
ELLIPSE
  5
1D8
330
1F
100
AcDbEntity
  8
0
  6
Continuous
 62
     7
370
    30
100
AcDbEllipse
 10
349.0227239377
 20
204.2399090736
 30
0.0
 11
0.3562493039451055
 21
0.3562493039451339
 31
0.0
210
0.0
220
0.0
230
1.0
 40
0.9924325091
 41
5.50158524207326
 42
7.064785372285904
  0
LINE
  5
1D9
330
1F
100
AcDbEntity
  8
0
  6
Continuous
 62
     7
370
    30
100
AcDbLine
 10
349.5246340055
 20
204.2437202614
 30
0.0
 11
349.5246340055
 21
147.7418190185
 31
0.0
  0
LINE
  5
1DA
330
1F
100
AcDbEntity
  8
0
  6
Continuous
 62
     7
370
    30
100
AcDbLine
 10
349.5246340055
 20
147.7418190185
 30
0.0
 11
348.5152218956
 21
147.7418190185
 31
0.0
  0
ELLIPSE
  5
1DB
330
1F
100
AcDbEntity
  8
0
  6
Continuous
 62
     7
370
    30
100
AcDbEllipse
 10
348.5265437753
 20
147.2241809022
 30
0.0
 11
-0.161240255695418
 21
0.4938262234184947
 31
0.0
210
0.0
220
0.0
230
1.0
 40
0.9624950979
 41
5.978692064322747
 42
7.526928911517149
  0
LINE
  5
1DC
330
1F
100
AcDbEntity
  8
0
  6
Continuous
 62
     7
370
    30
100
AcDbLine
 10
348.024634691
 20
147.2358575407
 30
0.0
 11
348.024634691
 21
142.2477804441
 31
0.0
  0
ELLIPSE
  5
1DD
330
1F
100
AcDbEntity
  8
0
  6
Continuous
 62
     7
370
    30
100
AcDbEllipse
 10
348.5265437753
 20
142.2594570826
 30
0.0
 11
0.1612402556953611
 21
0.4938262234184945
 31
0.0
210
0.0
220
0.0
230
1.0
 40
0.9624950979
 41
1.897849049252071
 42
3.446085896456854
  0
ELLIPSE
  5
1DE
330
1F
100
AcDbEntity
  8
0
  6
Continuous
 62
     7
370
    30
100
AcDbEllipse
 10
281.8334194828
 20
202.4330333661
 30
0.0
 11
0.3562493039451624
 21
-0.356249303945134
 31
0.0
210
0.0
220
0.0
230
1.0
 40
0.9924325091
 41
2.359992588482554
 42
3.923192718697024
  0
LINE
  5
1DF
330
1F
100
AcDbEntity
  8
0
  6
Continuous
 62
     7
370
    30
100
AcDbLine
 10
281.3315112609
 20
202.4368464332
 30
0.0
 11
281.3315112609
 21
149.8406773749
 31
0.0
  0
ELLIPSE
  5
1E0
330
1F
100
AcDbEntity
  8
0
  6
Continuous
 62
     7
370
    30
100
AcDbEllipse
 10
281.6326555153
 20
149.8429649437
 30
0.0
 11
0.2137495823670861
 21
0.2137495823670577
 31
0.0
210
0.0
220
0.0
230
1.0
 40
0.9924325091
 41
2.359992588460551
 42
3.853789774587659
  0
ELLIPSE
  5
1E1
330
1F
100
AcDbEntity
  8
0
  6
Continuous
 62
     7
370
    30
100
AcDbEllipse
 10
281.5322735315
 20
148.5411407527
 30
0.0
 11
-0.712498607890268
 21
-0.7124986078902396
 31
0.0
210
0.0
220
0.0
230
1.0
 40
0.9924325091
 41
2.359992588467793
 42
3.853789774575065
  0
LINE
  5
1E2
330
1F
100
AcDbEntity
  8
0
  6
Continuous
 62
     7
370
    30
100
AcDbLine
 10
282.5360950548
 20
148.5487657916
 30
0.0
 11
282.5360950548
 21
140.9348721932
 31
0.0
  0
ELLIPSE
  5
1E3
330
1F
100
AcDbEntity
  8
0
  6
Continuous
 62
     7
370
    30
100
AcDbEllipse
 10
281.5322735315
 20
140.9424972321
 30
0.0
 11
0.7124986078902111
 21
-0.7124986078902396
 31
0.0
210
0.0
220
0.0
230
1.0
 40
0.9924325091
 41
5.570988252607846
 42
7.064785372301606
  0
ELLIPSE
  5
1E4
330
1F
100
AcDbEntity
  8
0
  6
Continuous
 62
     7
370
    30
100
AcDbEllipse
 10
281.6326555153
 20
139.6406730411
 30
0.0
 11
-0.2137495823670292
 21
0.2137495823670861
 31
0.0
210
0.0
220
0.0
230
1.0
 40
0.9924325091
 41
5.570987964803829
 42
7.064785372308995
  0
LINE
  5
1E5
330
1F
100
AcDbEntity
  8
0
  6
Continuous
 62
     7
370
    30
100
AcDbLine
 10
281.3315112609
 20
139.6429606098
 30
0.0
 11
281.3315112609
 21
87.0467915516
 31
0.0
  0
ELLIPSE
  5
1E6
330
1F
100
AcDbEntity
  8
0
  6
Continuous
 62
     7
370
    30
100
AcDbEllipse
 10
281.8334194828
 20
87.0506046187
 30
0.0
 11
-0.3562493039451056
 21
-0.3562493039451198
 31
0.0
210
0.0
220
0.0
230
1.0
 40
0.9924325091
 41
5.50158524207245
 42
7.064785372286696
  0
LINE
  5
1E7
330
1F
100
AcDbEntity
  8
0
  6
Continuous
 62
     7
370
    30
100
AcDbLine
 10
347.2196590621
 20
86.5486941617
 30
0.0
 11
281.8296086509
 21
86.5486941617
 31
0.0
  0
ELLIPSE
  5
1E8
330
1F
100
AcDbEntity
  8
0
  6
Continuous
 62
     7
370
    30
100
AcDbEllipse
 10
347.2158482301
 20
87.0506046187
 30
0.0
 11
-0.3562493039451056
 21
0.3562493039451198
 31
0.0
210
0.0
220
0.0
230
1.0
 40
0.9924325091
 41
2.359992588482684
 42
3.923192718696956
  0
LINE
  5
1E9
330
1F
100
AcDbEntity
  8
0
  6
Continuous
 62
     7
370
    30
100
AcDbLine
 10
347.717756452
 20
139.6429606098
 30
0.0
 11
347.717756452
 21
87.0467915516
 31
0.0
  0
ELLIPSE
  5
1EA
330
1F
100
AcDbEntity
  8
0
  6
Continuous
 62
     7
370
    30
100
AcDbEllipse
 10
347.4166121976
 20
139.6406730411
 30
0.0
 11
-0.2137495823670861
 21
-0.2137495823670577
 31
0.0
210
0.0
220
0.0
230
1.0
 40
0.9924325091
 41
2.359992588460549
 42
3.853789774587283
  0
ELLIPSE
  5
1EB
330
1F
100
AcDbEntity
  8
0
  6
Continuous
 62
     7
370
    30
100
AcDbEllipse
 10
347.5169941814
 20
140.9424972321
 30
0.0
 11
0.712498607890268
 21
0.7124986078902396
 31
0.0
210
0.0
220
0.0
230
1.0
 40
0.9924325091
 41
2.359992588467773
 42
3.853789774575142
  0
LINE
  5
1EC
330
1F
100
AcDbEntity
  8
0
  6
Continuous
 62
     7
370
    30
100
AcDbLine
 10
346.5131726582
 20
148.5487657916
 30
0.0
 11
346.5131726582
 21
140.9348721932
 31
0.0
  0
ELLIPSE
  5
1ED
330
1F
100
AcDbEntity
  8
0
  6
Continuous
 62
     7
370
    30
100
AcDbEllipse
 10
347.5169941814
 20
148.5411407527
 30
0.0
 11
-0.712498607890268
 21
0.7124986078902396
 31
0.0
210
0.0
220
0.0
230
1.0
 40
0.9924325091
 41
5.570988252607767
 42
7.064785372301607
  0
ELLIPSE
  5
1EE
330
1F
100
AcDbEntity
  8
0
  6
Continuous
 62
     7
370
    30
100
AcDbEllipse
 10
347.4166121976
 20
149.8429649437
 30
0.0
 11
0.2137495823670861
 21
-0.2137495823670861
 31
0.0
210
0.0
220
0.0
230
1.0
 40
0.9924325091
 41
5.570987964803819
 42
7.06478537230893
  0
LINE
  5
1EF
330
1F
100
AcDbEntity
  8
0
  6
Continuous
 62
     7
370
    30
100
AcDbLine
 10
347.717756452
 20
202.4368464332
 30
0.0
 11
347.717756452
 21
149.8406773749
 31
0.0
  0
ELLIPSE
  5
1F0
330
1F
100
AcDbEntity
  8
0
  6
Continuous
 62
     7
370
    30
100
AcDbEllipse
 10
347.2158482301
 20
202.4330333661
 30
0.0
 11
0.3562493039451056
 21
0.3562493039451056
 31
0.0
210
0.0
220
0.0
230
1.0
 40
0.9924325091
 41
5.501585242072404
 42
7.064785372286726
  0
LINE
  5
1F1
330
1F
100
AcDbEntity
  8
0
  6
Continuous
 62
     7
370
    30
100
AcDbLine
 10
347.2196590621
 20
202.9349438231
 30
0.0
 11
281.8296086509
 21
202.9349438231
 31
0.0
  0
LINE
  5
1F2
330
1F
100
AcDbEntity
  8
0
  6
Continuous
 62
     7
370
    30
100
AcDbLine
 10
348.5152218956
 20
147.7418190185
 30
0.0
 11
348.6140314955
 21
147.4391945954
 31
0.0
  0
LINE
  5
1F3
330
1F
100
AcDbEntity
  8
0
  6
Continuous
 62
     7
370
    30
100
AcDbLine
 10
349.4258244056
 20
147.4391945954
 30
0.0
 11
349.5246340055
 21
147.7418190185
 31
0.0
  0
LINE
  5
1F4
330
1F
100
AcDbEntity
  8
0
  6
Continuous
 62
     7
370
    30
100
AcDbLine
 10
348.6140314955
 20
147.4391945954
 30
0.0
 11
349.4258244056
 21
147.4391945954
 31
0.0
  0
LINE
  5
1F5
330
1F
100
AcDbEntity
  8
0
  6
Continuous
 62
     7
370
    30
100
AcDbLine
 10
280.4352362174
 20
147.4391945954
 30
0.0
 11
280.5340458173
 21
147.7418190185
 31
0.0
  0
LINE
  5
1F6
330
1F
100
AcDbEntity
  8
0
  6
Continuous
 62
     7
370
    30
100
AcDbLine
 10
279.6234433074
 20
147.4391945954
 30
0.0
 11
280.4352362174
 21
147.4391945954
 31
0.0
  0
LINE
  5
1F7
330
1F
100
AcDbEntity
  8
0
  6
Continuous
 62
     7
370
    30
100
AcDbLine
 10
279.5246337075
 20
147.7418190185
 30
0.0
 11
279.6234433074
 21
147.4391945954
 31
0.0
  0
LINE
  5
1F8
330
1F
100
AcDbEntity
  8
0
  6
Continuous
 62
     7
370
    30
100
AcDbLine
 10
279.6234433074
 20
142.0444433894
 30
0.0
 11
279.5246337075
 21
141.7418189663
 31
0.0
  0
LINE
  5
1F9
330
1F
100
AcDbEntity
  8
0
  6
Continuous
 62
     7
370
    30
100
AcDbLine
 10
279.6234433074
 20
142.0444433894
 30
0.0
 11
280.4352362174
 21
142.0444433894
 31
0.0
  0
LINE
  5
1FA
330
1F
100
AcDbEntity
  8
0
  6
Continuous
 62
     7
370
    30
100
AcDbLine
 10
280.5340458173
 20
141.7418189663
 30
0.0
 11
280.4352362174
 21
142.0444433894
 31
0.0
  0
SPLINE
  5
1FB
330
1F
100
AcDbEntity
  8
0
  6
Continuous
 62
     7
370
    30
100
AcDbSpline
210
0.0
220
0.0
230
1.0
 70
     8
 71
     3
 72
    10
 73
     6
 74
     0
 42
0.000000001
 43
0.00000001
 40
0.0
 40
0.0
 40
0.0
 40
0.0
 40
0.5
 40
0.5
 40
1.0
 40
1.0
 40
1.0
 40
1.0
 10
347.1817895846854
 20
87.58276040249308
 30
0.0
 10
347.1811980713521
 20
87.4526753698264
 30
0.0
 10
347.127202601575
 20
87.32352459166806
 30
0.0
 10
346.9429100070958
 20
87.13923928538678
 30
0.0
 10
346.8137663358187
 20
87.08525426550973
 30
0.0
 10
346.6836926269854
 20
87.08466315809305
 30
0.0
  0
LINE
  5
1FC
330
1F
100
AcDbEntity
  8
0
  6
Continuous
 62
     7
370
    30
100
AcDbLine
 10
347.717756452
 20
87.0467915516
 30
0.0
 11
347.1817914862
 21
87.5827602427
 31
0.0
  0
LINE
  5
1FD
330
1F
100
AcDbEntity
  8
0
  6
Continuous
 62
     7
370
    30
100
AcDbLine
 10
346.6836940963
 20
87.0846628528
 30
0.0
 11
347.2196590621
 21
86.5486941617
 31
0.0
  0
LINE
  5
1FE
330
1F
100
AcDbEntity
  8
0
  6
Continuous
 62
     7
370
    30
100
AcDbLine
 10
347.1817914862
 20
201.9008777421
 30
0.0
 11
347.1817914862
 21
150.3766456004
 31
0.0
  0
LINE
  5
1FF
330
1F
100
AcDbEntity
  8
0
  6
Continuous
 62
     7
370
    30
100
AcDbLine
 10
347.1817914862
 20
201.9008777421
 30
0.0
 11
347.717756452
 21
202.4368464332
 31
0.0
  0
LINE
  5
200
330
1F
100
AcDbEntity
  8
0
  6
Continuous
 62
     7
370
    30
100
AcDbLine
 10
347.717756452
 20
149.8406773749
 30
0.0
 11
347.1817914862
 21
150.3766456004
 31
0.0
  0
SPLINE
  5
201
330
1F
100
AcDbEntity
  8
0
  6
Continuous
 62
     7
370
    30
100
AcDbSpline
210
0.0
220
0.0
230
1.0
 70
     8
 71
     3
 72
    10
 73
     6
 74
     0
 42
0.000000001
 43
0.00000001
 40
0.0
 40
0.0
 40
0.0
 40
0.0
 40
0.5
 40
0.5
 40
1.0
 40
1.0
 40
1.0
 40
1.0
 10
346.6836926269854
 20
202.3989748266931
 30
0.0
 10
346.8137663358187
 20
202.3983837192764
 30
0.0
 10
346.9429100070958
 20
202.3443986993993
 30
0.0
 10
347.127202601575
 20
202.1601133931181
 30
0.0
 10
347.1811980713521
 20
202.0309626149597
 30
0.0
 10
347.1817895846854
 20
201.900877582293
 30
0.0
  0
LINE
  5
202
330
1F
100
AcDbEntity
  8
0
  6
Continuous
 62
     7
370
    30
100
AcDbLine
 10
346.6836940963
 20
202.398975132
 30
0.0
 11
347.2196590621
 21
202.9349438231
 31
0.0
  0
LINE
  5
203
330
1F
100
AcDbEntity
  8
0
  6
Continuous
 62
     7
370
    30
100
AcDbLine
 10
347.4397790153
 20
149.5425437893
 30
0.0
 11
346.9036575872
 21
150.078664286
 31
0.0
  0
ARC
  5
204
330
1F
100
AcDbEntity
  8
0
  6
Continuous
 62
     7
370
    30
100
AcDbCircle
 10
346.8802043981
 20
150.3793502262
 30
0.0
 40
0.3015992153818012
100
AcDbArc
 50
274.4599809602
 51
359.4861865838
  0
LINE
  5
205
330
1F
100
AcDbEntity
  8
0
  6
Continuous
 62
     7
370
    30
100
AcDbLine
 10
347.1817914862
 20
139.1069923844
 30
0.0
 11
347.1817914862
 21
87.5827602427
 31
0.0
  0
LINE
  5
206
330
1F
100
AcDbEntity
  8
0
  6
Continuous
 62
     7
370
    30
100
AcDbLine
 10
347.1817914862
 20
139.1069923844
 30
0.0
 11
347.717756452
 21
139.6429606098
 31
0.0
  0
ARC
  5
207
330
1F
100
AcDbEntity
  8
0
  6
Continuous
 62
     7
370
    30
100
AcDbCircle
 10
346.8802043981
 20
139.1042877585
 30
0.0
 40
0.3015992153818579
100
AcDbArc
 50
0.5138134162
 51
85.5400190398
  0
LINE
  5
208
330
1F
100
AcDbEntity
  8
0
  6
Continuous
 62
     7
370
    30
100
AcDbLine
 10
346.9036575872
 20
139.4049736988
 30
0.0
 11
347.4397790153
 21
139.9410941954
 31
0.0
  0
SPLINE
  5
209
330
1F
100
AcDbEntity
  8
0
  6
Continuous
 62
     7
370
    30
100
AcDbSpline
210
0.0
220
0.0
230
1.0
 70
     8
 71
     3
 72
    19
 73
    15
 74
     0
 42
0.000000001
 43
0.00000001
 40
0.0
 40
0.0
 40
0.0
 40
0.0
 40
0.0657220845174254
 40
0.130513585485188
 40
0.1943845216435048
 40
0.2573453525714843
 40
0.3194069993845519
 40
0.3805808661641554
 40
0.4408788620903536
 40
0.5003134242358378
 40
0.6208908620136939
 40
0.7443002417149791
 40
0.870639532021845
 40
1.0
 40
1.0
 40
1.0
 40
1.0
 10
345.9772059550454
 20
140.398903703833
 30
0.0
 10
345.978056708965
 20
140.3661335687027
 30
0.0
 10
345.9797461706617
 20
140.3010573030288
 30
0.0
 10
345.9942093810023
 20
140.2050222729115
 30
0.0
 10
346.0168414088091
 20
140.1121108838445
 30
0.0
 10
346.0479312414158
 20
140.0230706110587
 30
0.0
 10
346.0866426444867
 20
139.9385649432431
 30
0.0
 10
346.1323778040472
 20
139.8591727577455
 30
0.0
 10
346.1844458118812
 20
139.7853713953546
 30
0.0
 10
346.2621696520315
 20
139.6940432313538
 30
0.0
 10
346.3756402061563
 20
139.5925101209502
 30
0.0
 10
346.5345080160069
 20
139.4968957922156
 30
0.0
 10
346.7125867036168
 20
139.4285925602874
 30
0.0
 10
346.8394671591385
 20
139.4129084190508
 30
0.0
 10
346.9036569542859
 20
139.4049736917605
 30
0.0
  0
LINE
  5
20A
330
1F
100
AcDbEntity
  8
0
  6
Continuous
 62
     7
370
    30
100
AcDbLine
 10
346.5131726582
 20
140.9348721932
 30
0.0
 11
345.9772076923
 21
140.3989035021
 31
0.0
  0
LINE
  5
20B
330
1F
100
AcDbEntity
  8
0
  6
Continuous
 62
     7
370
    30
100
AcDbLine
 10
345.9772076923
 20
149.0847344827
 30
0.0
 11
346.5131726582
 21
148.5487657916
 31
0.0
  0
SPLINE
  5
20C
330
1F
100
AcDbEntity
  8
0
  6
Continuous
 62
     7
370
    30
100
AcDbSpline
210
0.0
220
0.0
230
1.0
 70
     8
 71
     3
 72
    19
 73
    15
 74
     0
 42
0.000000001
 43
0.00000001
 40
0.0
 40
0.0
 40
0.0
 40
0.0
 40
0.065133676008247
 40
0.1295008164812533
 40
0.1931122672412247
 40
0.2559792659639084
 40
0.3181134549921532
 40
0.3795268941719951
 40
0.440232073647891
 40
0.5002419265457629
 40
0.6198442330693672
 40
0.7429440807609683
 40
0.8696343080232544
 40
1.0
 40
1.0
 40
1.0
 40
1.0
 10
346.9036569542859
 20
150.0786642930256
 30
0.0
 10
346.8713153573585
 20
150.0755746463487
 30
0.0
 10
346.8070127804878
 20
150.0694317139699
 30
0.0
 10
346.712813789176
 20
150.0485566332915
 30
0.0
 10
346.6220314530623
 20
150.0197491050831
 30
0.0
 10
346.5354449746322
 20
149.9827123660121
 30
0.0
 10
346.4536841638464
 20
149.9382616842451
 30
0.0
 10
346.3773211490055
 20
149.8869773337922
 30
0.0
 10
346.3068291575011
 20
149.8295338225905
 30
0.0
 10
346.2211654811042
 20
149.7455960877934
 30
0.0
 10
346.1280266518019
 20
149.6256148446957
 30
0.0
 10
346.0437573192088
 20
149.4609879083475
 30
0.0
 10
345.9876214191304
 20
149.2781578036929
 30
0.0
 10
345.9807107135395
 20
149.1498204575011
 30
0.0
 10
345.9772059550454
 20
149.0847342809513
 30
0.0
  0
LINE
  5
20D
330
1F
100
AcDbEntity
  8
0
  6
Continuous
 62
     7
370
    30
100
AcDbLine
 10
281.8296086509
 20
202.9349438231
 30
0.0
 11
282.3655736167
 21
202.398975132
 31
0.0
  0
LINE
  5
20E
330
1F
100
AcDbEntity
  8
0
  6
Continuous
 62
     7
370
    30
100
AcDbLine
 10
282.3655736167
 20
202.398975132
 30
0.0
 11
346.6836940963
 21
202.398975132
 31
0.0
  0
LINE
  5
20F
330
1F
100
AcDbEntity
  8
0
  6
Continuous
 62
     7
370
    30
100
AcDbLine
 10
281.8296086509
 20
86.5486941617
 30
0.0
 11
282.3655736167
 21
87.0846628528
 31
0.0
  0
LINE
  5
210
330
1F
100
AcDbEntity
  8
0
  6
Continuous
 62
     7
370
    30
100
AcDbLine
 10
346.6836940963
 20
87.0846628528
 30
0.0
 11
282.3655736167
 21
87.0846628528
 31
0.0
  0
LINE
  5
211
330
1F
100
AcDbEntity
  8
0
  6
Continuous
 62
     7
370
    30
100
AcDbLine
 10
345.9772076923
 20
149.084734017
 30
0.0
 11
345.9772076923
 21
140.3989035021
 31
0.0
  0
LINE
  5
212
330
1F
100
AcDbEntity
  8
0
  6
Continuous
 62
     7
370
    30
100
AcDbLine
 10
282.1456101257
 20
150.078664286
 30
0.0
 11
281.6094886977
 21
149.5425437893
 31
0.0
  0
SPLINE
  5
213
330
1F
100
AcDbEntity
  8
0
  6
Continuous
 62
     7
370
    30
100
AcDbSpline
210
0.0
220
0.0
230
1.0
 70
     8
 71
     3
 72
    19
 73
    15
 74
     0
 42
0.000000001
 43
0.00000001
 40
0.0
 40
0.0
 40
0.0
 40
0.0
 40
0.0657193722568427
 40
0.1305089331214079
 40
0.1943787033400038
 40
0.2573391442150746
 40
0.319401178262125
 40
0.3805762105950655
 40
0.4408761510102924
 40
0.500313436727868
 40
0.6208908714919992
 40
0.7443002481083053
 40
0.8706395352565014
 40
1.0
 40
1.0
 40
1.0
 40
1.0
 10
283.0720617579254
 20
149.0847342809513
 30
0.0
 10
283.0712110900698
 20
149.1175030601556
 30
0.0
 10
283.0695217897848
 20
149.1825769990382
 30
0.0
 10
283.0550595853669
 20
149.2786092252007
 30
0.0
 10
283.0324287051595
 20
149.3715190966498
 30
0.0
 10
283.0013398661875
 20
149.4605590998196
 30
0.0
 10
282.9626289722169
 20
149.5450656459685
 30
0.0
 10
282.9168935493747
 20
149.6244597048942
 30
0.0
 10
282.8648242539694
 20
149.6982637366895
 30
0.0
 10
282.7870990760204
 20
149.7895938418107
 30
0.0
 10
282.6736275082143
 20
149.8911278637465
 30
0.0
 10
282.5147596965761
 20
149.9867421925959
 30
0.0
 10
282.3366810094535
 20
150.0550454244925
 30
0.0
 10
282.2098005538657
 20
150.0707295657332
 30
0.0
 10
282.1456107586849
 20
150.0786642930256
 30
0.0
  0
LINE
  5
214
330
1F
100
AcDbEntity
  8
0
  6
Continuous
 62
     7
370
    30
100
AcDbLine
 10
283.0720600206
 20
149.0847344827
 30
0.0
 11
282.5360950548
 21
148.5487657916
 31
0.0
  0
LINE
  5
215
330
1F
100
AcDbEntity
  8
0
  6
Continuous
 62
     7
370
    30
100
AcDbLine
 10
282.5360950548
 20
140.9348721932
 30
0.0
 11
283.0720600206
 21
140.3989035021
 31
0.0
  0
SPLINE
  5
216
330
1F
100
AcDbEntity
  8
0
  6
Continuous
 62
     7
370
    30
100
AcDbSpline
210
0.0
220
0.0
230
1.0
 70
     8
 71
     3
 72
    19
 73
    15
 74
     0
 42
0.000000001
 43
0.00000001
 40
0.0
 40
0.0
 40
0.0
 40
0.0
 40
0.0651336777431062
 40
0.1295008199304389
 40
0.1931122723844972
 40
0.2559792727813209
 40
0.3181134634640791
 40
0.3795269042791126
 40
0.4402320853712239
 40
0.5002419398666769
 40
0.6198395926085483
 40
0.7429378928908897
 40
0.8696296714948618
 40
1.0
 40
1.0
 40
1.0
 40
1.0
 10
282.1456107586849
 20
139.4049736917605
 30
0.0
 10
282.1779523556123
 20
139.4080633384374
 30
0.0
 10
282.2422549324834
 20
139.4142062708162
 30
0.0
 10
282.3364539237965
 20
139.4350813514949
 30
0.0
 10
282.4272362599067
 20
139.4638888797031
 30
0.0
 10
282.5138227383507
 20
139.5009256187761
 30
0.0
 10
282.5955835490854
 20
139.5453763005366
 30
0.0
 10
282.6719465641129
 20
139.5966606510134
 30
0.0
 10
282.7424385549318
 20
139.6541041621268
 30
0.0
 10
282.8281005746569
 20
139.7380402707753
 30
0.0
 10
282.9212378510982
 20
139.858018680661
 30
0.0
 10
283.0055074184771
 20
140.0226428371575
 30
0.0
 10
283.0616455572282
 20
140.2054747451641
 30
0.0
 10
283.0685567248362
 20
140.3338152017718
 30
0.0
 10
283.0720617579254
 20
140.398903703833
 30
0.0
  0
LINE
  5
217
330
1F
100
AcDbEntity
  8
0
  6
Continuous
 62
     7
370
    30
100
AcDbLine
 10
281.6094886977
 20
139.9410941954
 30
0.0
 11
282.1456101257
 21
139.4049736988
 31
0.0
  0
LINE
  5
218
330
1F
100
AcDbEntity
  8
0
  6
Continuous
 62
     7
370
    30
100
AcDbLine
 10
283.0720600206
 20
140.3989039678
 30
0.0
 11
283.0720600206
 21
149.0847344827
 31
0.0
  0
SPLINE
  5
219
330
1F
100
AcDbEntity
  8
0
  6
Continuous
 62
     7
370
    30
100
AcDbSpline
210
0.0
220
0.0
230
1.0
 70
     8
 71
     3
 72
    10
 73
     6
 74
     0
 42
0.000000001
 43
0.00000001
 40
0.0
 40
0.0
 40
0.0
 40
0.0
 40
0.5
 40
0.5
 40
1.0
 40
1.0
 40
1.0
 40
1.0
 10
281.8674781282854
 20
201.900877582293
 30
0.0
 10
281.8680696416187
 20
202.0309626149597
 30
0.0
 10
281.9220651113958
 20
202.1601133931181
 30
0.0
 10
282.106357705875
 20
202.3443986993993
 30
0.0
 10
282.2355013771521
 20
202.3983837192764
 30
0.0
 10
282.3655750859854
 20
202.3989748266931
 30
0.0
  0
LINE
  5
21A
330
1F
100
AcDbEntity
  8
0
  6
Continuous
 62
     7
370
    30
100
AcDbLine
 10
281.8674762268
 20
201.9008777421
 30
0.0
 11
281.3315112609
 21
202.4368464332
 31
0.0
  0
LINE
  5
21B
330
1F
100
AcDbEntity
  8
0
  6
Continuous
 62
     7
370
    30
100
AcDbLine
 10
281.3315112609
 20
87.0467915516
 30
0.0
 11
281.8674762268
 21
87.5827602427
 31
0.0
  0
SPLINE
  5
21C
330
1F
100
AcDbEntity
  8
0
  6
Continuous
 62
     7
370
    30
100
AcDbSpline
210
0.0
220
0.0
230
1.0
 70
     8
 71
     3
 72
    10
 73
     6
 74
     0
 42
0.000000001
 43
0.00000001
 40
0.0
 40
0.0
 40
0.0
 40
0.0
 40
0.5
 40
0.5
 40
1.0
 40
1.0
 40
1.0
 40
1.0
 10
282.3655750859854
 20
87.08466315809305
 30
0.0
 10
282.2355013771521
 20
87.08525426550973
 30
0.0
 10
282.106357705875
 20
87.13923928538678
 30
0.0
 10
281.9220651113958
 20
87.32352459166806
 30
0.0
 10
281.8680696416187
 20
87.4526753698264
 30
0.0
 10
281.8674781282854
 20
87.58276040249308
 30
0.0
  0
ARC
  5
21D
330
1F
100
AcDbEntity
  8
0
  6
Continuous
 62
     7
370
    30
100
AcDbCircle
 10
282.1690633149
 20
139.1042877585
 30
0.0
 40
0.3015992153818623
100
AcDbArc
 50
94.4599809602
 51
179.4861865838
  0
LINE
  5
21E
330
1F
100
AcDbEntity
  8
0
  6
Continuous
 62
     7
370
    30
100
AcDbLine
 10
281.8674762268
 20
139.1069923844
 30
0.0
 11
281.3315112609
 21
139.6429606098
 31
0.0
  0
ARC
  5
21F
330
1F
100
AcDbEntity
  8
0
  6
Continuous
 62
     7
370
    30
100
AcDbCircle
 10
282.1690633149
 20
150.3793502262
 30
0.0
 40
0.3015992153818242
100
AcDbArc
 50
180.5138134162
 51
265.5400190398
  0
LINE
  5
220
330
1F
100
AcDbEntity
  8
0
  6
Continuous
 62
     7
370
    30
100
AcDbLine
 10
281.3315112609
 20
149.8406773749
 30
0.0
 11
281.8674762268
 21
150.3766456004
 31
0.0
  0
LINE
  5
221
330
1F
100
AcDbEntity
  8
0
  6
Continuous
 62
     7
370
    30
100
AcDbLine
 10
281.8674762268
 20
87.5827602427
 30
0.0
 11
281.8674762268
 21
139.1069923844
 31
0.0
  0
LINE
  5
222
330
1F
100
AcDbEntity
  8
0
  6
Continuous
 62
     7
370
    30
100
AcDbLine
 10
281.8674762268
 20
150.3766456004
 30
0.0
 11
281.8674762268
 21
201.9008777421
 31
0.0
  0
LINE
  5
223
330
1F
100
AcDbEntity
  8
0
  6
Continuous
 62
     7
370
    30
100
AcDbLine
 10
348.1159341056
 20
146.956231663
 30
0.0
 11
348.024634691
 21
147.2358575407
 31
0.0
  0
ARC
  5
224
330
1F
100
AcDbEntity
  8
0
  6
Continuous
 62
     7
370
    30
100
AcDbCircle
 10
348.6195686831
 20
146.935149369
 30
0.0
 40
0.5040756399134103
100
AcDbArc
 50
90.629397321
 51
177.6029809695
  0
LINE
  5
225
330
1F
100
AcDbEntity
  8
0
  6
Continuous
 62
     7
370
    30
100
AcDbLine
 10
348.024634691
 20
142.2477804441
 30
0.0
 11
348.1159341056
 21
142.5274063218
 31
0.0
  0
ARC
  5
226
330
1F
100
AcDbEntity
  8
0
  6
Continuous
 62
     7
370
    30
100
AcDbCircle
 10
348.6195686831
 20
142.5484886158
 30
0.0
 40
0.5040756399133954
100
AcDbArc
 50
182.3970190305
 51
269.370602679
  0
LINE
  5
227
330
1F
100
AcDbEntity
  8
0
  6
Continuous
 62
     7
370
    30
100
AcDbLine
 10
348.1159341056
 20
142.5274063218
 30
0.0
 11
348.1159341056
 21
146.956231663
 31
0.0
  0
LINE
  5
228
330
1F
100
AcDbEntity
  8
0
  6
Continuous
 62
     7
370
    30
100
AcDbLine
 10
281.024633022
 20
147.2358575407
 30
0.0
 11
280.9333336074
 21
146.956231663
 31
0.0
  0
LINE
  5
229
330
1F
100
AcDbEntity
  8
0
  6
Continuous
 62
     7
370
    30
100
AcDbLine
 10
281.024633022
 20
142.2477804441
 30
0.0
 11
280.9333336074
 21
142.5274063218
 31
0.0
  0
LINE
  5
22A
330
1F
100
AcDbEntity
  8
0
  6
Continuous
 62
     7
370
    30
100
AcDbLine
 10
280.9333336074
 20
142.5274063218
 30
0.0
 11
280.9333336074
 21
146.956231663
 31
0.0
  0
ARC
  5
22B
330
1F
100
AcDbEntity
  8
0
  6
Continuous
 62
     7
370
    30
100
AcDbCircle
 10
280.4296990299
 20
142.5484886158
 30
0.0
 40
0.5040756399133954
100
AcDbArc
 50
270.629397321
 51
357.6029809695
  0
ARC
  5
22C
330
1F
100
AcDbEntity
  8
0
  6
Continuous
 62
     7
370
    30
100
AcDbCircle
 10
280.4296990299
 20
146.935149369
 30
0.0
 40
0.5040756399134103
100
AcDbArc
 50
2.3970190305
 51
89.370602679
  0
SPLINE
  5
22D
330
1F
100
AcDbEntity
  8
0
  6
Continuous
 62
     7
370
    30
100
AcDbSpline
210
0.0
220
0.0
230
1.0
 70
     8
 71
     3
 72
    14
 73
    10
 74
     0
 42
0.000000001
 43
0.00000001
 40
0.0
 40
0.0
 40
0.0
 40
0.0
 40
0.25
 40
0.25
 40
0.5000000000000001
 40
0.5000000000000001
 40
0.75
 40
0.75
 40
1.0
 40
1.0
 40
1.0
 40
1.0
 10
341.0246338564854
 20
100.741818992393
 30
0.0
 10
341.0246338564854
 20
101.007027976393
 30
0.0
 10
341.1299960042808
 20
101.2613947025616
 30
0.0
 10
341.5050581463168
 20
101.6364568445976
 30
0.0
 10
341.7594248724854
 20
101.741818992393
 30
0.0
 10
342.2898428404853
 20
101.741818992393
 30
0.0
 10
342.5442095666539
 20
101.6364568445976
 30
0.0
 10
342.9192717086899
 20
101.2613947025616
 30
0.0
 10
343.0246338564854
 20
101.0070279763931
 30
0.0
 10
343.0246338564854
 20
100.7418189923931
 30
0.0
  0
SPLINE
  5
22E
330
1F
100
AcDbEntity
  8
0
  6
Continuous
 62
     7
370
    30
100
AcDbSpline
210
0.0
220
0.0
230
1.0
 70
     8
 71
     3
 72
    10
 73
     6
 74
     0
 42
0.000000001
 43
0.00000001
 40
0.0
 40
0.0
 40
0.0
 40
0.0
 40
0.5
 40
0.5
 40
1.0
 40
1.0
 40
1.0
 40
1.0
 10
341.0246338564854
 20
100.741818992393
 30
0.0
 10
341.0246338564854
 20
100.1899039824699
 30
0.0
 10
341.4727188465623
 20
99.74181899239305
 30
0.0
 10
342.5765488664085
 20
99.74181899239305
 30
0.0
 10
343.0246338564854
 20
100.18990398247
 30
0.0
 10
343.0246338564854
 20
100.7418189923931
 30
0.0
  0
SPLINE
  5
22F
330
1F
100
AcDbEntity
  8
0
  6
Continuous
 62
     7
370
    30
100
AcDbSpline
210
0.0
220
0.0
230
1.0
 70
     8
 71
     3
 72
    10
 73
     6
 74
     0
 42
0.000000001
 43
0.00000001
 40
0.0
 40
0.0
 40
0.0
 40
0.0
 40
0.5
 40
0.5
 40
1.0
 40
1.0
 40
1.0
 40
1.0
 10
343.0246338564854
 20
188.741818992393
 30
0.0
 10
343.0246338564854
 20
189.2937340023161
 30
0.0
 10
342.5765488664085
 20
189.7418189923931
 30
0.0
 10
341.4727188465623
 20
189.7418189923931
 30
0.0
 10
341.0246338564854
 20
189.2937340023161
 30
0.0
 10
341.0246338564854
 20
188.7418189923931
 30
0.0
  0
SPLINE
  5
230
330
1F
100
AcDbEntity
  8
0
  6
Continuous
 62
     7
370
    30
100
AcDbSpline
210
0.0
220
0.0
230
1.0
 70
     8
 71
     3
 72
    14
 73
    10
 74
     0
 42
0.000000001
 43
0.00000001
 40
0.0
 40
0.0
 40
0.0
 40
0.0
 40
0.25
 40
0.25
 40
0.5
 40
0.5
 40
0.75
 40
0.75
 40
1.0
 40
1.0
 40
1.0
 40
1.0
 10
343.0246338564854
 20
188.741818992393
 30
0.0
 10
343.0246338564854
 20
188.4766100083931
 30
0.0
 10
342.9192717086899
 20
188.2222432822245
 30
0.0
 10
342.5442095666539
 20
187.8471811401885
 30
0.0
 10
342.2898428404853
 20
187.7418189923931
 30
0.0
 10
341.7594248724854
 20
187.7418189923931
 30
0.0
 10
341.5050581463168
 20
187.8471811401885
 30
0.0
 10
341.1299960042808
 20
188.2222432822245
 30
0.0
 10
341.0246338564854
 20
188.4766100083931
 30
0.0
 10
341.0246338564854
 20
188.7418189923931
 30
0.0
  0
SPLINE
  5
231
330
1F
100
AcDbEntity
  8
0
  6
Continuous
 62
     7
370
    30
100
AcDbSpline
210
0.0
220
0.0
230
1.0
 70
     8
 71
     3
 72
    14
 73
    10
 74
     0
 42
0.000000001
 43
0.00000001
 40
0.0
 40
0.0
 40
0.0
 40
0.0
 40
0.25
 40
0.25
 40
0.5
 40
0.5
 40
0.75
 40
0.75
 40
1.0
 40
1.0
 40
1.0
 40
1.0
 10
288.0246338564854
 20
100.741818992393
 30
0.0
 10
288.0246338564854
 20
100.476610008393
 30
0.0
 10
287.9192717086899
 20
100.2222432822245
 30
0.0
 10
287.5442095666539
 20
99.84718114018851
 30
0.0
 10
287.2898428404854
 20
99.74181899239305
 30
0.0
 10
286.7594248724854
 20
99.74181899239305
 30
0.0
 10
286.5050581463168
 20
99.84718114018851
 30
0.0
 10
286.1299960042808
 20
100.2222432822245
 30
0.0
 10
286.0246338564854
 20
100.4766100083931
 30
0.0
 10
286.0246338564854
 20
100.741818992393
 30
0.0
  0
SPLINE
  5
232
330
1F
100
AcDbEntity
  8
0
  6
Continuous
 62
     7
370
    30
100
AcDbSpline
210
0.0
220
0.0
230
1.0
 70
     8
 71
     3
 72
    10
 73
     6
 74
     0
 42
0.000000001
 43
0.00000001
 40
0.0
 40
0.0
 40
0.0
 40
0.0
 40
0.5
 40
0.5
 40
1.0
 40
1.0
 40
1.0
 40
1.0
 10
288.0246338564854
 20
100.741818992393
 30
0.0
 10
288.0246338564854
 20
101.2937340023161
 30
0.0
 10
287.5765488664085
 20
101.741818992393
 30
0.0
 10
286.4727188465623
 20
101.741818992393
 30
0.0
 10
286.0246338564854
 20
101.2937340023161
 30
0.0
 10
286.0246338564854
 20
100.741818992393
 30
0.0
  0
SPLINE
  5
233
330
1F
100
AcDbEntity
  8
0
  6
Continuous
 62
     7
370
    30
100
AcDbSpline
210
0.0
220
0.0
230
1.0
 70
     8
 71
     3
 72
    14
 73
    10
 74
     0
 42
0.000000001
 43
0.00000001
 40
0.0
 40
0.0
 40
0.0
 40
0.0
 40
0.25
 40
0.25
 40
0.5000000000000001
 40
0.5000000000000001
 40
0.75
 40
0.75
 40
1.0
 40
1.0
 40
1.0
 40
1.0
 10
288.0246338564854
 20
188.7418189923931
 30
0.0
 10
288.0246338564854
 20
188.4766100083931
 30
0.0
 10
287.9192717086899
 20
188.2222432822245
 30
0.0
 10
287.5442095666539
 20
187.8471811401885
 30
0.0
 10
287.2898428404854
 20
187.7418189923931
 30
0.0
 10
286.7594248724854
 20
187.7418189923931
 30
0.0
 10
286.5050581463168
 20
187.8471811401885
 30
0.0
 10
286.1299960042808
 20
188.2222432822245
 30
0.0
 10
286.0246338564854
 20
188.4766100083931
 30
0.0
 10
286.0246338564854
 20
188.741818992393
 30
0.0
  0
SPLINE
  5
234
330
1F
100
AcDbEntity
  8
0
  6
Continuous
 62
     7
370
    30
100
AcDbSpline
210
0.0
220
0.0
230
1.0
 70
     8
 71
     3
 72
    10
 73
     6
 74
     0
 42
0.000000001
 43
0.00000001
 40
0.0
 40
0.0
 40
0.0
 40
0.0
 40
0.5
 40
0.5
 40
1.0
 40
1.0
 40
1.0
 40
1.0
 10
288.0246338564854
 20
188.7418189923931
 30
0.0
 10
288.0246338564854
 20
189.2937340023161
 30
0.0
 10
287.5765488664085
 20
189.7418189923931
 30
0.0
 10
286.4727188465623
 20
189.7418189923931
 30
0.0
 10
286.0246338564854
 20
189.2937340023161
 30
0.0
 10
286.0246338564854
 20
188.741818992393
 30
0.0
  0
CIRCLE
  5
235
330
1F
100
AcDbEntity
  8
0
  6
Continuous
 62
     7
370
    30
100
AcDbCircle
 10
342.0246338565
 20
100.7418189924
 30
0.0
 40
1.5
  0
CIRCLE
  5
236
330
1F
100
AcDbEntity
  8
0
  6
Continuous
 62
     7
370
    30
100
AcDbCircle
 10
342.0246338565
 20
188.7418189924
 30
0.0
 40
1.5
  0
CIRCLE
  5
237
330
1F
100
AcDbEntity
  8
0
  6
Continuous
 62
     7
370
    30
100
AcDbCircle
 10
287.0246338565
 20
100.7418189924
 30
0.0
 40
1.5
  0
CIRCLE
  5
238
330
1F
100
AcDbEntity
  8
0
  6
Continuous
 62
     7
370
    30
100
AcDbCircle
 10
287.0246338565
 20
188.7418189924
 30
0.0
 40
1.5
  0
LINE
  5
239
330
1F
100
AcDbEntity
  8
0
  6
Continuous
 62
     7
370
    30
100
AcDbLine
 10
280.9333336074
 20
142.5274063218
 30
0.0
 11
280.4352362174
 21
142.5274063218
 31
0.0
  0
LINE
  5
23A
330
1F
100
AcDbEntity
  8
0
  6
Continuous
 62
     7
370
    30
100
AcDbLine
 10
280.4352362174
 20
142.5274063218
 30
0.0
 11
280.4352362174
 21
142.0444433894
 31
0.0
  0
LINE
  5
23B
330
1F
100
AcDbEntity
  8
0
  6
Continuous
 62
     7
370
    30
100
AcDbLine
 10
348.1159341056
 20
146.956231663
 30
0.0
 11
348.6140314955
 21
146.956231663
 31
0.0
  0
LINE
  5
23C
330
1F
100
AcDbEntity
  8
0
  6
Continuous
 62
     7
370
    30
100
AcDbLine
 10
348.6140314955
 20
147.4391945954
 30
0.0
 11
348.6140314955
 21
146.956231663
 31
0.0
  0
LINE
  5
23D
330
1F
100
AcDbEntity
  8
0
  6
Continuous
 62
     7
370
    30
100
AcDbLine
 10
348.1159341056
 20
142.5274063218
 30
0.0
 11
348.6140314955
 21
142.5274063218
 31
0.0
  0
LINE
  5
23E
330
1F
100
AcDbEntity
  8
0
  6
Continuous
 62
     7
370
    30
100
AcDbLine
 10
348.6140314955
 20
142.0444433894
 30
0.0
 11
348.6140314955
 21
142.5274063218
 31
0.0
  0
LINE
  5
23F
330
1F
100
AcDbEntity
  8
0
  6
Continuous
 62
     7
370
    30
100
AcDbLine
 10
280.9333336074
 20
146.956231663
 30
0.0
 11
280.4352362174
 21
146.956231663
 31
0.0
  0
LINE
  5
240
330
1F
100
AcDbEntity
  8
0
  6
Continuous
 62
     7
370
    30
100
AcDbLine
 10
280.4352362174
 20
147.4391945954
 30
0.0
 11
280.4352362174
 21
146.956231663
 31
0.0
  0
LINE
  5
241
330
1F
100
AcDbEntity
  8
0
  6
Continuous
 62
     7
370
    30
100
AcDbLine
 10
348.6140314955
 20
146.956231663
 30
0.0
 11
348.6140314955
 21
142.5274063218
 31
0.0
  0
LINE
  5
242
330
1F
100
AcDbEntity
  8
0
  6
Continuous
 62
     7
370
    30
100
AcDbLine
 10
280.4352362174
 20
146.956231663
 30
0.0
 11
280.4352362174
 21
142.5274063218
 31
0.0
  0
LINE
  5
243
330
1F
100
AcDbEntity
  8
0
  6
Continuous
 62
     7
370
    30
100
AcDbLine
 10
349.3933994789
 20
146.956231663
 30
0.0
 11
348.6140314955
 21
146.956231663
 31
0.0
  0
ELLIPSE
  5
244
330
1F
100
AcDbEntity
  8
0
  6
Continuous
 62
     7
370
    30
100
AcDbEllipse
 10
349.437145193
 20
146.9562317098
 30
0.0
 11
0.0
 21
0.5
 31
0.0
210
0.0
220
0.0
230
1.0
 40
0.0874886635
 41
0.2617993877820414
 42
1.570796326794897
  0
LINE
  5
245
330
1F
100
AcDbEntity
  8
0
  6
Continuous
 62
     7
370
    30
100
AcDbLine
 10
279.6558682341
 20
146.956231663
 30
0.0
 11
280.4352362174
 21
146.956231663
 31
0.0
  0
ELLIPSE
  5
246
330
1F
100
AcDbEntity
  8
0
  6
Continuous
 62
     7
370
    30
100
AcDbEllipse
 10
279.61212252
 20
146.9562317098
 30
0.0
 11
0.0
 21
0.5
 31
0.0
210
0.0
220
0.0
230
1.0
 40
0.0874886635
 41
4.712388980384691
 42
6.021385919383223
  0
LINE
  5
247
330
1F
100
AcDbEntity
  8
0
  6
Continuous
 62
     7
370
    30
100
AcDbLine
 10
279.6558682341
 20
142.5274063218
 30
0.0
 11
280.4352362174
 21
142.5274063218
 31
0.0
  0
ELLIPSE
  5
248
330
1F
100
AcDbEntity
  8
0
  6
Continuous
 62
     7
370
    30
100
AcDbEllipse
 10
279.61212252
 20
142.527406275
 30
0.0
 11
0.0
 21
0.5
 31
0.0
210
0.0
220
0.0
230
1.0
 40
0.0874886635
 41
3.403392041386455
 42
4.712388980384691
  0
LINE
  5
249
330
1F
100
AcDbEntity
  8
0
  6
Continuous
 62
     7
370
    30
100
AcDbLine
 10
348.6140314955
 20
142.5274063218
 30
0.0
 11
349.3933994789
 21
142.5274063218
 31
0.0
  0
ELLIPSE
  5
24A
330
1F
100
AcDbEntity
  8
0
  6
Continuous
 62
     7
370
    30
100
AcDbEllipse
 10
349.437145193
 20
142.527406275
 30
0.0
 11
0.0
 21
0.5
 31
0.0
210
0.0
220
0.0
230
1.0
 40
0.0874886635
 41
1.570796326794897
 42
2.879793265808991
  0
LINE
  5
24B
330
1F
100
AcDbEntity
  8
0
  6
Continuous
 62
     7
370
    30
100
AcDbLine
 10
349.3933994789
 20
146.956231663
 30
0.0
 11
349.3933994789
 21
142.5274063218
 31
0.0
  0
LINE
  5
24C
330
1F
100
AcDbEntity
  8
0
  6
Continuous
 62
     7
370
    30
100
AcDbLine
 10
279.6558682341
 20
146.956231663
 30
0.0
 11
279.6558682341
 21
142.5274063218
 31
0.0
  0
SPLINE
  5
24D
330
1F
100
AcDbEntity
  8
0
  6
Continuous
 62
     7
370
    30
100
AcDbSpline
210
0.0
220
0.0
230
1.0
 70
     8
 71
     3
 72
    30
 73
    26
 74
     0
 42
0.000000001
 43
0.00000001
 40
0.0
 40
0.0
 40
0.0
 40
0.0
 40
0.0228633558601172
 40
0.0457269349860595
 40
0.0685919070872539
 40
0.1028095837246392
 40
0.1388003151069531
 40
0.2126701028720192
 40
0.2872018809628646
 40
0.3421924304235009
 40
0.3971796054739783
 40
0.426519162258331
 40
0.4557612996314958
 40
0.4999784647629761
 40
0.5683958568937487
 40
0.6026440149719053
 40
0.6386654022625131
 40
0.6943053786443767
 40
0.7499434458394392
 40
0.7872377310810014
 40
0.8241726266711564
 40
0.8786718902873449
 40
0.897248435233684
 40
0.9486248446707936
 40
0.9999999999999999
 40
0.9999999999999999
 40
0.9999999999999999
 40
0.9999999999999999
 10
344.1246338564854
 20
100.741818992393
 30
0.0
 10
344.1235796787639
 20
100.7920577625152
 30
0.0
 10
344.1214713130267
 20
100.8925357933523
 30
0.0
 10
344.1047087002794
 20
101.0424819319359
 30
0.0
 10
344.0738952837287
 20
101.2155047227308
 30
0.0
 10
344.0189032079324
 20
101.4129234083573
 30
0.0
 10
343.9018682502079
 20
101.7075604938319
 30
0.0
 10
343.6875558503692
 20
102.0560434912199
 30
0.0
 10
343.3684783609895
 20
102.3747456312075
 30
0.0
 10
343.0285936462461
 20
102.5991455180788
 30
0.0
 10
342.7458737650085
 20
102.7206685326287
 30
0.0
 10
342.5057444647185
 20
102.7894111915858
 30
0.0
 10
342.2833855820385
 20
102.8308713708712
 30
0.0
 10
341.9715585458782
 20
102.8520570587647
 30
0.0
 10
341.6477665661973
 20
102.8179364085123
 30
0.0
 10
341.3537397616583
 20
102.7362128046656
 30
0.0
 10
341.0962202175352
 20
102.6338027321875
 30
0.0
 10
340.8140692730432
 20
102.4717124155976
 30
0.0
 10
340.5633073079696
 20
102.2601144685264
 30
0.0
 10
340.3728228267721
 20
102.0469068103562
 30
0.0
 10
340.2103503277871
 20
101.8147430877427
 30
0.0
 10
340.1010543822294
 20
101.5975156919147
 30
0.0
 10
340.0073353591378
 20
101.3407407935734
 30
0.0
 10
339.9399425335234
 20
101.0808008738104
 30
0.0
 10
339.9297367073099
 20
100.8548120334492
 30
0.0
 10
339.9246338564854
 20
100.741818992393
 30
0.0
  0
SPLINE
  5
24E
330
1F
100
AcDbEntity
  8
0
  6
Continuous
 62
     7
370
    30
100
AcDbSpline
210
0.0
220
0.0
230
1.0
 70
     8
 71
     3
 72
    14
 73
    10
 74
     0
 42
0.000000001
 43
0.00000001
 40
0.0
 40
0.0
 40
0.0
 40
0.0
 40
0.25
 40
0.25
 40
0.4999999999999999
 40
0.4999999999999999
 40
0.75
 40
0.75
 40
1.0
 40
1.0
 40
1.0
 40
1.0
 10
344.1246338564854
 20
100.741818992393
 30
0.0
 10
344.1246338564854
 20
100.184880125993
 30
0.0
 10
343.9033733461149
 20
99.65071000103909
 30
0.0
 10
343.1157428478393
 20
98.86307950276351
 30
0.0
 10
342.5815727228854
 20
98.64181899239306
 30
0.0
 10
341.4676949900854
 20
98.64181899239306
 30
0.0
 10
340.9335248651314
 20
98.86307950276351
 30
0.0
 10
340.1458943668558
 20
99.65071000103909
 30
0.0
 10
339.9246338564854
 20
100.184880125993
 30
0.0
 10
339.9246338564854
 20
100.741818992393
 30
0.0
  0
SPLINE
  5
24F
330
1F
100
AcDbEntity
  8
0
  6
Continuous
 62
     7
370
    30
100
AcDbSpline
210
0.0
220
0.0
230
1.0
 70
     8
 71
     3
 72
    30
 73
    26
 74
     0
 42
0.000000001
 43
0.00000001
 40
0.0
 40
0.0
 40
0.0
 40
0.0
 40
0.02286335652815
 40
0.0457269374352977
 40
0.0685919105283058
 40
0.1028095870399223
 40
0.1388003182892318
 40
0.2126701057812198
 40
0.2872018835973888
 40
0.3421924328551593
 40
0.3971796077027944
 40
0.4265191643783474
 40
0.4557613016436192
 40
0.4999784666129797
 40
0.5683958584897524
 40
0.6026440164422667
 40
0.6386654036001106
 40
0.6943053797767371
 40
0.7499434467665607
 40
0.7872377318695891
 40
0.8241726273232591
 40
0.8786718921960536
 40
0.8972484356123214
 40
0.9486248448601161
 40
1.0
 40
1.0
 40
1.0
 40
1.0
 10
284.9246338564853
 20
100.741818992393
 30
0.0
 10
284.9256879667597
 20
100.6915802188824
 30
0.0
 10
284.9277961976532
 20
100.5911021788222
 30
0.0
 10
284.9445587966254
 20
100.4411560211756
 30
0.0
 10
284.9753725183755
 20
100.2681332812414
 30
0.0
 10
285.0303644761457
 20
100.0707145709954
 30
0.0
 10
285.1473994802635
 20
99.7760774942527
 30
0.0
 10
285.3617118564878
 20
99.42759449242156
 30
0.0
 10
285.680789353149
 20
99.10889235380085
 30
0.0
 10
286.0206740664451
 20
98.88449246666286
 30
0.0
 10
286.303393947994
 20
98.7629694521647
 30
0.0
 10
286.5435232482393
 20
98.69422679319992
 30
0.0
 10
286.7658821309306
 20
98.65276661391646
 30
0.0
 10
287.0777091670852
 20
98.63158092602079
 30
0.0
 10
287.401501146769
 20
98.66570157627329
 30
0.0
 10
287.6955279513056
 20
98.74742518012069
 30
0.0
 10
287.9530474954354
 20
98.84983525259074
 30
0.0
 10
288.2351984399106
 20
99.01192556920994
 30
0.0
 10
288.4859604050014
 20
99.22352351625425
 30
0.0
 10
288.6764448861974
 20
99.43673117442798
 30
0.0
 10
288.8389173870086
 20
99.66889489966505
 30
0.0
 10
288.948213332145
 20
99.8861222957963
 30
0.0
 10
289.0419323546092
 20
100.1428971943441
 30
0.0
 10
289.1093251794665
 20
100.4028371109722
 30
0.0
 10
289.1195310056673
 20
100.6288259513357
 30
0.0
 10
289.1246338564854
 20
100.7418189923931
 30
0.0
  0
SPLINE
  5
250
330
1F
100
AcDbEntity
  8
0
  6
Continuous
 62
     7
370
    30
100
AcDbSpline
210
0.0
220
0.0
230
1.0
 70
     8
 71
     3
 72
    14
 73
    10
 74
     0
 42
0.000000001
 43
0.00000001
 40
0.0
 40
0.0
 40
0.0
 40
0.0
 40
0.25
 40
0.25
 40
0.5
 40
0.5
 40
0.75
 40
0.75
 40
1.0
 40
1.0
 40
1.0
 40
1.0
 10
284.9246338564853
 20
100.7418189923931
 30
0.0
 10
284.9246338564853
 20
101.2987578587931
 30
0.0
 10
285.1458943668558
 20
101.832927983747
 30
0.0
 10
285.9335248651314
 20
102.6205584820226
 30
0.0
 10
286.4676949900854
 20
102.8418189923931
 30
0.0
 10
287.5815727228854
 20
102.8418189923931
 30
0.0
 10
288.1157428478394
 20
102.6205584820226
 30
0.0
 10
288.903373346115
 20
101.832927983747
 30
0.0
 10
289.1246338564854
 20
101.2987578587931
 30
0.0
 10
289.1246338564854
 20
100.7418189923931
 30
0.0
  0
SPLINE
  5
251
330
1F
100
AcDbEntity
  8
0
  6
Continuous
 62
     7
370
    30
100
AcDbSpline
210
0.0
220
0.0
230
1.0
 70
     8
 71
     3
 72
    30
 73
    26
 74
     0
 42
0.000000001
 43
0.00000001
 40
0.0
 40
0.0
 40
0.0
 40
0.0
 40
0.0228633565287869
 40
0.0457269374365748
 40
0.0685919105302348
 40
0.1028095870410482
 40
0.1388003182906108
 40
0.2126701057834612
 40
0.2872018835982544
 40
0.3421924328563771
 40
0.3971796077043639
 40
0.4265191643804714
 40
0.4557613016457798
 40
0.4999784666142661
 40
0.5683958584933031
 40
0.6026440164448238
 40
0.6386654036023037
 40
0.6943053797786327
 40
0.7499434467681804
 40
0.7872377318715517
 40
0.8241726273253507
 40
0.8786718929255539
 40
0.8972484356120962
 40
0.9486248448600034
 40
1.0
 40
1.0
 40
1.0
 40
1.0
 10
339.9246338564854
 20
188.7418189923931
 30
0.0
 10
339.9256879667597
 20
188.6915802188811
 30
0.0
 10
339.9277961976532
 20
188.5911021788183
 30
0.0
 10
339.9445587966254
 20
188.4411560211677
 30
0.0
 10
339.9753725183743
 20
188.2681332812326
 30
0.0
 10
340.0303644761458
 20
188.0707145709869
 30
0.0
 10
340.1473994802716
 20
187.7760774942477
 30
0.0
 10
340.3617118564904
 20
187.4275944924141
 30
0.0
 10
340.6807893531576
 20
187.1088923538036
 30
0.0
 10
341.0206740664395
 20
186.8844924666467
 30
0.0
 10
341.3033939479989
 20
186.7629694521654
 30
0.0
 10
341.5435232482443
 20
186.6942267931973
 30
0.0
 10
341.7658821309348
 20
186.6527666139141
 30
0.0
 10
342.0777091670921
 20
186.6315809260217
 30
0.0
 10
342.401501146776
 20
186.6657015762743
 30
0.0
 10
342.6955279513139
 20
186.7474251801221
 30
0.0
 10
342.9530474954389
 20
186.8498352525939
 30
0.0
 10
343.2351984399068
 20
187.011925569219
 30
0.0
 10
343.4859604050031
 20
187.2235235162538
 30
0.0
 10
343.6764448861989
 20
187.4367311744298
 30
0.0
 10
343.8389173879227
 20
187.6688949009771
 30
0.0
 10
343.948213332847
 20
187.8861222972597
 30
0.0
 10
344.0419323549961
 20
188.1428971959095
 30
0.0
 10
344.109325179479
 20
188.4028371109709
 30
0.0
 10
344.1195310056715
 20
188.6288259513353
 30
0.0
 10
344.1246338564854
 20
188.7418189923931
 30
0.0
  0
SPLINE
  5
252
330
1F
100
AcDbEntity
  8
0
  6
Continuous
 62
     7
370
    30
100
AcDbSpline
210
0.0
220
0.0
230
1.0
 70
     8
 71
     3
 72
    10
 73
     6
 74
     0
 42
0.000000001
 43
0.00000001
 40
0.0
 40
0.0
 40
0.0
 40
0.0
 40
0.5
 40
0.5
 40
1.0
 40
1.0
 40
1.0
 40
1.0
 10
339.9246338564854
 20
188.741818992393
 30
0.0
 10
339.9246338564853
 20
189.9008405132315
 30
0.0
 10
340.8656123356469
 20
190.8418189923931
 30
0.0
 10
343.1836553773239
 20
190.8418189923931
 30
0.0
 10
344.1246338564854
 20
189.9008405132315
 30
0.0
 10
344.1246338564854
 20
188.7418189923931
 30
0.0
  0
SPLINE
  5
253
330
1F
100
AcDbEntity
  8
0
  6
Continuous
 62
     7
370
    30
100
AcDbSpline
210
0.0
220
0.0
230
1.0
 70
     8
 71
     3
 72
    30
 73
    26
 74
     0
 42
0.000000001
 43
0.00000001
 40
0.0
 40
0.0
 40
0.0
 40
0.0
 40
0.0228633558601457
 40
0.0457269349861148
 40
0.0685919070873366
 40
0.1028095837250118
 40
0.1388003151075023
 40
0.2126701028728444
 40
0.2872018809637551
 40
0.3421924304248388
 40
0.3971796054757846
 40
0.4265191622602522
 40
0.4557612996335609
 40
0.4999784647653557
 40
0.568395856897475
 40
0.6026440149752914
 40
0.6386654022659025
 40
0.6943053786474261
 40
0.7499434458421771
 40
0.7872377310836417
 40
0.8241726266739254
 40
0.8786718915606504
 40
0.8972484352330261
 40
0.9486248446704661
 40
0.9999999999999999
 40
0.9999999999999999
 40
0.9999999999999999
 40
0.9999999999999999
 10
284.9246338564853
 20
188.7418189923931
 30
0.0
 10
284.9256880342069
 20
188.6915802222711
 30
0.0
 10
284.9277963999441
 20
188.5911021914344
 30
0.0
 10
284.9445590126914
 20
188.4411560528513
 30
0.0
 10
284.9753724292422
 20
188.2681332620565
 30
0.0
 10
285.0303645050384
 20
188.07071457643
 30
0.0
 10
285.1473994627618
 20
187.7760774909548
 30
0.0
 10
285.3617118626008
 20
187.4275944935682
 30
0.0
 10
285.6807893519786
 20
187.1088923535784
 30
0.0
 10
286.0206740667264
 20
186.8844924667143
 30
0.0
 10
286.303393947961
 20
186.7629694521563
 30
0.0
 10
286.5435232482516
 20
186.694226793199
 30
0.0
 10
286.7658821309318
 20
186.6527666139133
 30
0.0
 10
287.0777091670945
 20
186.6315809260222
 30
0.0
 10
287.4015011467773
 20
186.6657015762734
 30
0.0
 10
287.6955279513155
 20
186.7474251801227
 30
0.0
 10
287.9530474954411
 20
186.8498352525924
 30
0.0
 10
288.235198439896
 20
187.0119255692357
 30
0.0
 10
288.4859604050069
 20
187.2235235162522
 30
0.0
 10
288.6764448861979
 20
187.4367311744315
 30
0.0
 10
288.8389173867766
 20
187.6688948993306
 30
0.0
 10
288.9482133319651
 20
187.8861222954231
 30
0.0
 10
289.0419323545103
 20
188.1428971939429
 30
0.0
 10
289.1093251794518
 20
188.4028371109752
 30
0.0
 10
289.1195310056624
 20
188.6288259513367
 30
0.0
 10
289.1246338564854
 20
188.7418189923931
 30
0.0
  0
SPLINE
  5
254
330
1F
100
AcDbEntity
  8
0
  6
Continuous
 62
     7
370
    30
100
AcDbSpline
210
0.0
220
0.0
230
1.0
 70
     8
 71
     3
 72
    14
 73
    10
 74
     0
 42
0.000000001
 43
0.00000001
 40
0.0
 40
0.0
 40
0.0
 40
0.0
 40
0.25
 40
0.25
 40
0.4999999999999999
 40
0.4999999999999999
 40
0.75
 40
0.75
 40
1.0
 40
1.0
 40
1.0
 40
1.0
 10
284.9246338564853
 20
188.7418189923931
 30
0.0
 10
284.9246338564853
 20
189.298757858793
 30
0.0
 10
285.1458943668558
 20
189.832927983747
 30
0.0
 10
285.9335248651314
 20
190.6205584820226
 30
0.0
 10
286.4676949900854
 20
190.8418189923931
 30
0.0
 10
287.5815727228854
 20
190.8418189923931
 30
0.0
 10
288.1157428478394
 20
190.6205584820226
 30
0.0
 10
288.903373346115
 20
189.832927983747
 30
0.0
 10
289.1246338564854
 20
189.298757858793
 30
0.0
 10
289.1246338564854
 20
188.7418189923931
 30
0.0
  0
SPLINE
  5
255
330
1F
100
AcDbEntity
  8
0
  6
Continuous
 62
     7
370
    30
100
AcDbSpline
210
0.0
220
0.0
230
1.0
 70
     8
 71
     3
 72
    10
 73
     6
 74
     0
 42
0.000000001
 43
0.00000001
 40
0.0
 40
0.0
 40
0.0
 40
0.0
 40
0.5
 40
0.5
 40
1.0
 40
1.0
 40
1.0
 40
1.0
 10
346.8829308607854
 20
150.3766456040231
 30
0.0
 10
346.8880575171187
 20
150.3029377980231
 30
0.0
 10
346.8931564271084
 20
150.229629197582
 30
0.0
 10
346.9007358904
 20
150.1206574895528
 30
0.0
 10
346.9031802412854
 20
150.0855148731431
 30
0.0
 10
346.9036567852854
 20
150.078664162393
 30
0.0
  0
LINE
  5
256
330
1F
100
AcDbEntity
  8
0
  6
Continuous
 62
     7
370
    30
100
AcDbLine
 10
347.1817914862
 20
150.3766456004
 30
0.0
 11
346.882930072
 21
150.3766456004
 31
0.0
  0
SPLINE
  5
257
330
1F
100
AcDbEntity
  8
0
  6
Continuous
 62
     7
370
    30
100
AcDbSpline
210
0.0
220
0.0
230
1.0
 70
     8
 71
     3
 72
    10
 73
     6
 74
     0
 42
0.000000001
 43
0.00000001
 40
0.0
 40
0.0
 40
0.0
 40
0.0
 40
0.5
 40
0.5
 40
1.0
 40
1.0
 40
1.0
 40
1.0
 10
282.1663368521854
 20
139.106992380763
 30
0.0
 10
282.161210195852
 20
139.180700186763
 30
0.0
 10
282.1561112858625
 20
139.2540087872041
 30
0.0
 10
282.1485318225708
 20
139.3629804952333
 30
0.0
 10
282.1460874716854
 20
139.398123111643
 30
0.0
 10
282.1456109276854
 20
139.4049738223931
 30
0.0
  0
LINE
  5
258
330
1F
100
AcDbEntity
  8
0
  6
Continuous
 62
     7
370
    30
100
AcDbLine
 10
281.8674762268
 20
139.1069923844
 30
0.0
 11
282.166337641
 21
139.1069923844
 31
0.0
  0
LINE
  5
259
330
1F
100
AcDbEntity
  8
0
  6
Continuous
 62
     7
370
    30
100
AcDbLine
 10
282.166337641
 20
150.3766456004
 30
0.0
 11
281.8674762268
 21
150.3766456004
 31
0.0
  0
SPLINE
  5
25A
330
1F
100
AcDbEntity
  8
0
  6
Continuous
 62
     7
370
    30
100
AcDbSpline
210
0.0
220
0.0
230
1.0
 70
     8
 71
     3
 72
    17
 73
    13
 74
     0
 42
0.000000001
 43
0.00000001
 40
0.0
 40
0.0
 40
0.0
 40
0.0
 40
0.1124178497535221
 40
0.213308485566365
 40
0.3025269097629738
 40
0.3800343870414722
 40
0.4458793733613654
 40
0.5001865358619763
 40
0.6379517232490369
 40
0.7497715089433202
 40
0.8860927549345452
 40
1.0
 40
1.0
 40
1.0
 40
1.0
 10
282.1663363627854
 20
150.376645791163
 30
0.0
 10
282.1651146359253
 20
150.360076760014
 30
0.0
 10
282.1627964568561
 20
150.3286376696075
 30
0.0
 10
282.1593102129742
 20
150.2852479870693
 30
0.0
 10
282.1566273733486
 20
150.2485699485376
 30
0.0
 10
282.1547294575465
 20
150.2185067051464
 30
0.0
 10
282.1534793590608
 20
150.1945840047882
 30
0.0
 10
282.1517985797491
 20
150.1654633582211
 30
0.0
 10
282.1493429515683
 20
150.1353642876443
 30
0.0
 10
282.1476102462518
 20
150.1058782892515
 30
0.0
 10
282.1459271004151
 20
150.086298164711
 30
0.0
 10
282.1457097152315
 20
150.0810522852113
 30
0.0
 10
282.1456107586847
 20
150.0786642930237
 30
0.0
  0
LINE
  5
25B
330
1F
100
AcDbEntity
  8
0
  6
Continuous
 62
     7
370
    30
100
AcDbLine
 10
346.882930072
 20
139.1069923844
 30
0.0
 11
347.1817914862
 21
139.1069923844
 31
0.0
  0
SPLINE
  5
25C
330
1F
100
AcDbEntity
  8
0
  6
Continuous
 62
     7
370
    30
100
AcDbSpline
210
0.0
220
0.0
230
1.0
 70
     8
 71
     3
 72
    17
 73
    13
 74
     0
 42
0.000000001
 43
0.00000001
 40
0.0
 40
0.0
 40
0.0
 40
0.0
 40
0.1124178497535221
 40
0.213308485566365
 40
0.3025269097629738
 40
0.3800343870414722
 40
0.4458793733613654
 40
0.5001865358619763
 40
0.6379517232490369
 40
0.7497715089433202
 40
0.8860927549345452
 40
1.0
 40
1.0
 40
1.0
 40
1.0
 10
346.8829313501854
 20
139.1069921936231
 30
0.0
 10
346.8841530770455
 20
139.1235612247721
 30
0.0
 10
346.8864712561147
 20
139.1550003151786
 30
0.0
 10
346.8899574999966
 20
139.1983899977168
 30
0.0
 10
346.8926403396221
 20
139.2350680362485
 30
0.0
 10
346.8945382554243
 20
139.2651312796397
 30
0.0
 10
346.8957883539101
 20
139.2890539799979
 30
0.0
 10
346.8974691332216
 20
139.3181746265651
 30
0.0
 10
346.8999247614025
 20
139.3482736971418
 30
0.0
 10
346.901657466719
 20
139.3777596955346
 30
0.0
 10
346.9033406125556
 20
139.3973398200751
 30
0.0
 10
346.9035579977393
 20
139.4025856995748
 30
0.0
 10
346.903656954286
 20
139.4049736917624
 30
0.0
  0
LINE
  5
25D
330
1F
100
AcDbEntity
  8
0
  6
Continuous
 62
     7
370
    30
100
AcDbLine
 10
282.166337641
 20
87.5827602427
 30
0.0
 11
282.166337641
 21
139.1069923844
 31
0.0
  0
SPLINE
  5
25E
330
1F
100
AcDbEntity
  8
0
  6
Continuous
 62
     7
370
    30
100
AcDbSpline
210
0.0
220
0.0
230
1.0
 70
     8
 71
     3
 72
    10
 73
     6
 74
     0
 42
0.000000001
 43
0.00000001
 40
0.0
 40
0.0
 40
0.0
 40
0.0
 40
0.5
 40
0.5
 40
1.0
 40
1.0
 40
1.0
 40
1.0
 10
281.8674781282854
 20
87.58276040249305
 30
0.0
 10
281.8739430387854
 20
87.58276030682637
 30
0.0
 10
281.9090181110749
 20
87.5827602372097
 30
0.0
 10
282.0183918333146
 20
87.58276018509514
 30
0.0
 10
282.0921599686354
 20
87.58276020284306
 30
0.0
 10
282.1663364323854
 20
87.58276026009305
 30
0.0
  0
LINE
  5
25F
330
1F
100
AcDbEntity
  8
0
  6
Continuous
 62
     7
370
    30
100
AcDbLine
 10
346.6836940963
 20
87.3835205417
 30
0.0
 11
282.3655736167
 21
87.3835205417
 31
0.0
  0
SPLINE
  5
260
330
1F
100
AcDbEntity
  8
0
  6
Continuous
 62
     7
370
    30
100
AcDbSpline
210
0.0
220
0.0
230
1.0
 70
     8
 71
     3
 72
    10
 73
     6
 74
     0
 42
0.000000001
 43
0.00000001
 40
0.0
 40
0.0
 40
0.0
 40
0.0
 40
0.5
 40
0.5
 40
1.0
 40
1.0
 40
1.0
 40
1.0
 10
346.6836926269854
 20
87.08466315809305
 30
0.0
 10
346.6836924553187
 20
87.09112806475972
 30
0.0
 10
346.6836923133999
 20
87.12620314235345
 30
0.0
 10
346.6836921604833
 20
87.23557688917639
 30
0.0
 10
346.6836921502521
 20
87.30934504350971
 30
0.0
 10
346.6836922090854
 20
87.38352152659306
 30
0.0
  0
SPLINE
  5
261
330
1F
100
AcDbEntity
  8
0
  6
Continuous
 62
     7
370
    30
100
AcDbSpline
210
0.0
220
0.0
230
1.0
 70
     8
 71
     3
 72
    10
 73
     6
 74
     0
 42
0.000000001
 43
0.00000001
 40
0.0
 40
0.0
 40
0.0
 40
0.0
 40
0.5
 40
0.5
 40
1.0
 40
1.0
 40
1.0
 40
1.0
 10
282.3655755038854
 20
87.38352152659306
 30
0.0
 10
282.3655755627187
 20
87.30934504350971
 30
0.0
 10
282.3655755524875
 20
87.23557688917639
 30
0.0
 10
282.3655753995708
 20
87.12620314235345
 30
0.0
 10
282.365575257652
 20
87.09112806475972
 30
0.0
 10
282.3655750859854
 20
87.08466315809305
 30
0.0
  0
LINE
  5
262
330
1F
100
AcDbEntity
  8
0
  6
Continuous
 62
     7
370
    30
100
AcDbLine
 10
346.882930072
 20
139.1069923844
 30
0.0
 11
346.882930072
 21
87.5827602427
 31
0.0
  0
SPLINE
  5
263
330
1F
100
AcDbEntity
  8
0
  6
Continuous
 62
     7
370
    30
100
AcDbSpline
210
0.0
220
0.0
230
1.0
 70
     8
 71
     3
 72
    10
 73
     6
 74
     0
 42
0.000000001
 43
0.00000001
 40
0.0
 40
0.0
 40
0.0
 40
0.0
 40
0.5
 40
0.5
 40
1.0
 40
1.0
 40
1.0
 40
1.0
 10
346.8829312805854
 20
87.58276026009305
 30
0.0
 10
346.9571077443354
 20
87.58276020284306
 30
0.0
 10
347.0308758796562
 20
87.58276018509514
 30
0.0
 10
347.1402496018958
 20
87.5827602372097
 30
0.0
 10
347.1753246741854
 20
87.58276030682637
 30
0.0
 10
347.1817895846854
 20
87.58276040249305
 30
0.0
  0
LINE
  5
264
330
1F
100
AcDbEntity
  8
0
  6
Continuous
 62
     7
370
    30
100
AcDbLine
 10
282.166337641
 20
150.3766456004
 30
0.0
 11
282.166337641
 21
201.9008777421
 31
0.0
  0
SPLINE
  5
265
330
1F
100
AcDbEntity
  8
0
  6
Continuous
 62
     7
370
    30
100
AcDbSpline
210
0.0
220
0.0
230
1.0
 70
     8
 71
     3
 72
    10
 73
     6
 74
     0
 42
0.000000001
 43
0.00000001
 40
0.0
 40
0.0
 40
0.0
 40
0.0
 40
0.5
 40
0.5
 40
1.0
 40
1.0
 40
1.0
 40
1.0
 10
282.1663364323854
 20
201.9008777246931
 30
0.0
 10
282.0921599686354
 20
201.9008777819431
 30
0.0
 10
282.0183918333146
 20
201.900877799691
 30
0.0
 10
281.9090181110749
 20
201.9008777475764
 30
0.0
 10
281.8739430387854
 20
201.9008776779597
 30
0.0
 10
281.8674781282854
 20
201.900877582293
 30
0.0
  0
SPLINE
  5
266
330
1F
100
AcDbEntity
  8
0
  6
Continuous
 62
     7
370
    30
100
AcDbSpline
210
0.0
220
0.0
230
1.0
 70
    24
 71
     3
 72
    10
 73
     6
 74
     0
 42
0.000000001
 43
0.00000001
 40
0.0
 40
0.0
 40
0.0
 40
0.0
 40
0.5
 40
0.5
 40
1.0
 40
1.0
 40
1.0
 40
1.0
 10
346.6836924104854
 20
202.3989748955207
 30
0.0
 10
346.6836924104854
 20
202.392509988161
 30
0.0
 10
346.6836924104854
 20
202.3574821957461
 30
0.0
 10
346.6836924104854
 20
202.2481049010107
 30
0.0
 10
346.6836924104854
 20
202.1742929793031
 30
0.0
 10
346.6836924104854
 20
202.100116486093
 30
0.0
  0
LINE
  5
267
330
1F
100
AcDbEntity
  8
0
  6
Continuous
 62
     7
370
    30
100
AcDbLine
 10
282.3655736167
 20
202.1001174431
 30
0.0
 11
346.6836940963
 21
202.1001174431
 31
0.0
  0
SPLINE
  5
268
330
1F
100
AcDbEntity
  8
0
  6
Continuous
 62
     7
370
    30
100
AcDbSpline
210
0.0
220
0.0
230
1.0
 70
     8
 71
     3
 72
    10
 73
     6
 74
     0
 42
0.000000001
 43
0.00000001
 40
0.0
 40
0.0
 40
0.0
 40
0.0
 40
0.5
 40
0.5
 40
1.0
 40
1.0
 40
1.0
 40
1.0
 10
282.3655750859854
 20
202.3989748266931
 30
0.0
 10
282.365575257652
 20
202.3925099200264
 30
0.0
 10
282.3655753995708
 20
202.3574348424327
 30
0.0
 10
282.3655755524875
 20
202.2480610956097
 30
0.0
 10
282.3655755627187
 20
202.1742929412764
 30
0.0
 10
282.3655755038854
 20
202.100116458193
 30
0.0
  0
LINE
  5
269
330
1F
100
AcDbEntity
  8
0
  6
Continuous
 62
     7
370
    30
100
AcDbLine
 10
346.882930072
 20
201.9008777421
 30
0.0
 11
346.882930072
 21
150.3766456004
 31
0.0
  0
SPLINE
  5
26A
330
1F
100
AcDbEntity
  8
0
  6
Continuous
 62
     7
370
    30
100
AcDbSpline
210
0.0
220
0.0
230
1.0
 70
     8
 71
     3
 72
    10
 73
     6
 74
     0
 42
0.000000001
 43
0.00000001
 40
0.0
 40
0.0
 40
0.0
 40
0.0
 40
0.5
 40
0.5
 40
1.0
 40
1.0
 40
1.0
 40
1.0
 10
347.1817895846854
 20
201.900877582293
 30
0.0
 10
347.1753246741854
 20
201.9008776779597
 30
0.0
 10
347.1402496018958
 20
201.9008777475764
 30
0.0
 10
347.0308758796562
 20
201.900877799691
 30
0.0
 10
346.9571077443354
 20
201.9008777819431
 30
0.0
 10
346.8829312805854
 20
201.9008777246931
 30
0.0
  0
SPLINE
  5
26B
330
1F
100
AcDbEntity
  8
0
  6
Continuous
 62
     7
370
    30
100
AcDbSpline
210
0.0
220
0.0
230
1.0
 70
    24
 71
     3
 72
    10
 73
     6
 74
     0
 42
0.000000001
 43
0.00000001
 40
0.0
 40
0.0
 40
0.0
 40
0.0
 40
0.5
 40
0.5
 40
1.0
 40
1.0
 40
1.0
 40
1.0
 10
345.9772059550239
 20
140.3989037038331
 30
0.0
 10
345.9707410490228
 20
140.3989037038331
 30
0.0
 10
345.9357132571299
 20
140.398903703833
 30
0.0
 10
345.8263359619331
 20
140.3989037038331
 30
0.0
 10
345.7525240392724
 20
140.3989037038331
 30
0.0
 10
345.6783475450854
 20
140.3989037038331
 30
0.0
  0
LINE
  5
26C
330
1F
100
AcDbEntity
  8
0
  6
Continuous
 62
     7
370
    30
100
AcDbLine
 10
345.6783481408
 20
149.084734017
 30
0.0
 11
345.6783481408
 21
140.3989035021
 31
0.0
  0
SPLINE
  5
26D
330
1F
100
AcDbEntity
  8
0
  6
Continuous
 62
     7
370
    30
100
AcDbSpline
210
0.0
220
0.0
230
1.0
 70
     8
 71
     3
 72
    10
 73
     6
 74
     0
 42
0.000000001
 43
0.00000001
 40
0.0
 40
0.0
 40
0.0
 40
0.0
 40
0.5
 40
0.5
 40
1.0
 40
1.0
 40
1.0
 40
1.0
 10
345.9772059425854
 20
149.084734318933
 30
0.0
 10
345.9707410350854
 20
149.0847342934497
 30
0.0
 10
345.9356659522958
 20
149.0847342662883
 30
0.0
 10
345.8262921894625
 20
149.0847342223904
 30
0.0
 10
345.7525240243187
 20
149.0847342058664
 30
0.0
 10
345.6783475304854
 20
149.0847341989831
 30
0.0
  0
SPLINE
  5
26E
330
1F
100
AcDbEntity
  8
0
  6
Continuous
 62
     7
370
    30
100
AcDbSpline
210
0.0
220
0.0
230
1.0
 70
     8
 71
     3
 72
    10
 73
     6
 74
     0
 42
0.000000001
 43
0.00000001
 40
0.0
 40
0.0
 40
0.0
 40
0.0
 40
0.5
 40
0.5
 40
1.0
 40
1.0
 40
1.0
 40
1.0
 10
283.0720617703854
 20
140.3989036658531
 30
0.0
 10
283.0785266778853
 20
140.3989036913364
 30
0.0
 10
283.113601760675
 20
140.3989037184978
 30
0.0
 10
283.2229755235083
 20
140.3989037623957
 30
0.0
 10
283.296743688652
 20
140.3989037789197
 30
0.0
 10
283.3709201824854
 20
140.398903785803
 30
0.0
  0
SPLINE
  5
26F
330
1F
100
AcDbEntity
  8
0
  6
Continuous
 62
     7
370
    30
100
AcDbSpline
210
0.0
220
0.0
230
1.0
 70
    24
 71
     3
 72
    10
 73
     6
 74
     0
 42
0.000000001
 43
0.00000001
 40
0.0
 40
0.0
 40
0.0
 40
0.0
 40
0.5
 40
0.5
 40
1.0
 40
1.0
 40
1.0
 40
1.0
 10
283.0720617579469
 20
149.0847342809531
 30
0.0
 10
283.07852666416
 20
149.0847342809531
 30
0.0
 10
283.1135544582096
 20
149.0847342809531
 30
0.0
 10
283.2229317594333
 20
149.0847342809531
 30
0.0
 10
283.2967436858651
 20
149.0847342809531
 30
0.0
 10
283.3709201824854
 20
149.0847342809531
 30
0.0
  0
LINE
  5
270
330
1F
100
AcDbEntity
  8
0
  6
Continuous
 62
     7
370
    30
100
AcDbLine
 10
283.3709195722
 20
140.3989039678
 30
0.0
 11
283.3709195722
 21
149.0847344827
 31
0.0
  0
SPLINE
  5
271
330
1F
100
AcDbEntity
  8
0
  6
Continuous
 62
     7
370
    30
100
AcDbSpline
210
0.0
220
0.0
230
1.0
 70
     8
 71
     3
 72
    14
 73
    10
 74
     0
 42
0.000000001
 43
0.00000001
 40
0.0
 40
0.0
 40
0.0
 40
0.0
 40
0.25
 40
0.25
 40
0.5
 40
0.5
 40
0.75
 40
0.75
 40
1.0
 40
1.0
 40
1.0
 40
1.0
 10
282.1663368521854
 20
150.3766456040231
 30
0.0
 10
282.3279018991021
 20
150.3654081094189
 30
0.0
 10
282.4873324830667
 20
150.3236258529994
 30
0.0
 10
282.7798129862929
 20
150.1842249229207
 30
0.0
 10
282.9127819578849
 20
150.0866949354455
 30
0.0
 10
283.1337928401296
 20
149.84959378872
 30
0.0
 10
283.2217538031128
 20
149.7101113156536
 30
0.0
 10
283.3403579398964
 20
149.4086046243974
 30
0.0
 10
283.3709201660271
 20
149.2466690923914
 30
0.0
 10
283.3709201824854
 20
149.0847341989831
 30
0.0
  0
SPLINE
  5
272
330
1F
100
AcDbEntity
  8
0
  6
Continuous
 62
     7
370
    30
100
AcDbSpline
210
0.0
220
0.0
230
1.0
 70
     8
 71
     3
 72
    14
 73
    10
 74
     0
 42
0.000000001
 43
0.00000001
 40
0.0
 40
0.0
 40
0.0
 40
0.0
 40
0.25
 40
0.25
 40
0.5
 40
0.5
 40
0.75
 40
0.75
 40
1.0
 40
1.0
 40
1.0
 40
1.0
 10
346.8829308607854
 20
139.106992380763
 30
0.0
 10
346.7213658138687
 20
139.1182298753672
 30
0.0
 10
346.5619352299041
 20
139.1600121317867
 30
0.0
 10
346.2694547266778
 20
139.2994130618654
 30
0.0
 10
346.1364857550859
 20
139.3969430493406
 30
0.0
 10
345.9154748728411
 20
139.6340441960661
 30
0.0
 10
345.8275139098579
 20
139.7735266691325
 30
0.0
 10
345.7089097730744
 20
140.0750333603887
 30
0.0
 10
345.6783475469437
 20
140.2369688923947
 30
0.0
 10
345.6783475304854
 20
140.398903785803
 30
0.0
  0
SPLINE
  5
273
330
1F
100
AcDbEntity
  8
0
  6
Continuous
 62
     7
370
    30
100
AcDbSpline
210
0.0
220
0.0
230
1.0
 70
     8
 71
     3
 72
    14
 73
    10
 74
     0
 42
0.000000001
 43
0.00000001
 40
0.0
 40
0.0
 40
0.0
 40
0.0
 40
0.25
 40
0.25
 40
0.5
 40
0.5
 40
0.75
 40
0.75
 40
1.0
 40
1.0
 40
1.0
 40
1.0
 10
345.6783475304854
 20
149.0847341989831
 30
0.0
 10
345.6783475469437
 20
149.2466690923914
 30
0.0
 10
345.7089097730744
 20
149.4086046243974
 30
0.0
 10
345.8275139098579
 20
149.7101113156536
 30
0.0
 10
345.9154748728411
 20
149.84959378872
 30
0.0
 10
346.1364857550859
 20
150.0866949354455
 30
0.0
 10
346.2694547266778
 20
150.1842249229207
 30
0.0
 10
346.5619352299041
 20
150.3236258529994
 30
0.0
 10
346.7213658138687
 20
150.3654081094189
 30
0.0
 10
346.8829308607854
 20
150.3766456040231
 30
0.0
  0
SPLINE
  5
274
330
1F
100
AcDbEntity
  8
0
  6
Continuous
 62
     7
370
    30
100
AcDbSpline
210
0.0
220
0.0
230
1.0
 70
     8
 71
     3
 72
    14
 73
    10
 74
     0
 42
0.000000001
 43
0.00000001
 40
0.0
 40
0.0
 40
0.0
 40
0.0
 40
0.25
 40
0.25
 40
0.5
 40
0.5
 40
0.75
 40
0.75
 40
1.0
 40
1.0
 40
1.0
 40
1.0
 10
283.3709201824854
 20
140.398903785803
 30
0.0
 10
283.3709201660271
 20
140.2369688923947
 30
0.0
 10
283.3403579398964
 20
140.0750333603887
 30
0.0
 10
283.2217538031128
 20
139.7735266691325
 30
0.0
 10
283.1337928401296
 20
139.6340441960661
 30
0.0
 10
282.9127819578849
 20
139.3969430493406
 30
0.0
 10
282.7798129862929
 20
139.2994130618654
 30
0.0
 10
282.4873324830667
 20
139.1600121317867
 30
0.0
 10
282.3279018991021
 20
139.1182298753672
 30
0.0
 10
282.1663368521854
 20
139.106992380763
 30
0.0
  0
SPLINE
  5
275
330
1F
100
AcDbEntity
  8
0
  6
Continuous
 62
     7
370
    30
100
AcDbSpline
210
0.0
220
0.0
230
1.0
 70
     8
 71
     3
 72
    10
 73
     6
 74
     0
 42
0.000000001
 43
0.00000001
 40
0.0
 40
0.0
 40
0.0
 40
0.0
 40
0.5
 40
0.5
 40
1.0
 40
1.0
 40
1.0
 40
1.0
 10
346.8829312805854
 20
201.9008777246931
 30
0.0
 10
346.8829310675854
 20
201.9531484281931
 30
0.0
 10
346.8614700627417
 20
202.0049458631409
 30
0.0
 10
346.7877530076792
 20
202.0786598583076
 30
0.0
 10
346.7359579745854
 20
202.1001165085263
 30
0.0
 10
346.6836922090854
 20
202.100116458193
 30
0.0
  0
SPLINE
  5
276
330
1F
100
AcDbEntity
  8
0
  6
Continuous
 62
     7
370
    30
100
AcDbSpline
210
0.0
220
0.0
230
1.0
 70
     8
 71
     3
 72
    10
 73
     6
 74
     0
 42
0.000000001
 43
0.00000001
 40
0.0
 40
0.0
 40
0.0
 40
0.0
 40
0.5
 40
0.5
 40
1.0
 40
1.0
 40
1.0
 40
1.0
 10
282.1663364323854
 20
87.58276026009305
 30
0.0
 10
282.1663366453854
 20
87.53048955659304
 30
0.0
 10
282.1877976502292
 20
87.47869212164517
 30
0.0
 10
282.2615147052916
 20
87.40497812647847
 30
0.0
 10
282.3133097383854
 20
87.38352147625977
 30
0.0
 10
282.3655755038854
 20
87.3835215265931
 30
0.0
  0
SPLINE
  5
277
330
1F
100
AcDbEntity
  8
0
  6
Continuous
 62
     7
370
    30
100
AcDbSpline
210
0.0
220
0.0
230
1.0
 70
     8
 71
     3
 72
    10
 73
     6
 74
     0
 42
0.000000001
 43
0.00000001
 40
0.0
 40
0.0
 40
0.0
 40
0.0
 40
0.5
 40
0.5
 40
1.0
 40
1.0
 40
1.0
 40
1.0
 10
282.3655755038854
 20
202.100116458193
 30
0.0
 10
282.3133097383854
 20
202.1001165085263
 30
0.0
 10
282.2615147052916
 20
202.0786598583076
 30
0.0
 10
282.1877976502292
 20
202.0049458631409
 30
0.0
 10
282.1663366453854
 20
201.9531484281931
 30
0.0
 10
282.1663364323854
 20
201.9008777246931
 30
0.0
  0
SPLINE
  5
278
330
1F
100
AcDbEntity
  8
0
  6
Continuous
 62
     7
370
    30
100
AcDbSpline
210
0.0
220
0.0
230
1.0
 70
     8
 71
     3
 72
    10
 73
     6
 74
     0
 42
0.000000001
 43
0.00000001
 40
0.0
 40
0.0
 40
0.0
 40
0.0
 40
0.5
 40
0.5
 40
1.0
 40
1.0
 40
1.0
 40
1.0
 10
346.6836922090854
 20
87.3835215265931
 30
0.0
 10
346.7359579745854
 20
87.38352147625977
 30
0.0
 10
346.7877530076792
 20
87.40497812647847
 30
0.0
 10
346.8614700627417
 20
87.47869212164517
 30
0.0
 10
346.8829310675854
 20
87.53048955659304
 30
0.0
 10
346.8829312805854
 20
87.58276026009305
 30
0.0
  0
ELLIPSE
  5
279
330
1F
100
AcDbEntity
  8
0
  6
Continuous
 62
     7
370
    30
100
AcDbEllipse
 10
328.6712758107
 20
179.2384609466
 30
0.0
 11
0.3574377219428015
 21
0.3574377219428015
 31
0.0
210
0.0
220
0.0
230
1.0
 40
0.9891328444
 41
5.503250352299384
 42
7.06312026205986
  0
LINE
  5
27A
330
1F
100
AcDbEntity
  8
0
  6
Continuous
 62
     7
370
    30
100
AcDbLine
 10
328.6767686252
 20
179.7412156444
 30
0.0
 11
300.3724990878
 21
179.7412156444
 31
0.0
  0
ELLIPSE
  5
27B
330
1F
100
AcDbEntity
  8
0
  6
Continuous
 62
     7
370
    30
100
AcDbEllipse
 10
300.3779919023
 20
179.2384609466
 30
0.0
 11
0.3574377219428584
 21
-0.35743772194283
 31
0.0
210
0.0
220
0.0
230
1.0
 40
0.9891328444
 41
2.361657698709534
 42
3.921527608470043
  0
LINE
  5
27C
330
1F
100
AcDbEntity
  8
0
  6
Continuous
 62
     7
370
    30
100
AcDbLine
 10
299.8752380256
 20
179.2439527195
 30
0.0
 11
299.8752380256
 21
110.2396852653
 31
0.0
  0
ELLIPSE
  5
27D
330
1F
100
AcDbEntity
  8
0
  6
Continuous
 62
     7
370
    30
100
AcDbEllipse
 10
300.3779919023
 20
110.2451770382
 30
0.0
 11
-0.3574377219428015
 21
-0.3574377219428158
 31
0.0
210
0.0
220
0.0
230
1.0
 40
0.9891328444
 41
5.503250352299355
 42
7.063120262059736
  0
LINE
  5
27E
330
1F
100
AcDbEntity
  8
0
  6
Continuous
 62
     7
370
    30
100
AcDbLine
 10
300.3724990878
 20
109.7424223404
 30
0.0
 11
328.6767686252
 21
109.7424223404
 31
0.0
  0
ELLIPSE
  5
27F
330
1F
100
AcDbEntity
  8
0
  6
Continuous
 62
     7
370
    30
100
AcDbEllipse
 10
328.6712758107
 20
110.2451770382
 30
0.0
 11
-0.3574377219428015
 21
0.3574377219428158
 31
0.0
210
0.0
220
0.0
230
1.0
 40
0.9891328444
 41
2.36165769870953
 42
3.921527608470053
  0
LINE
  5
280
330
1F
100
AcDbEntity
  8
0
  6
Continuous
 62
     7
370
    30
100
AcDbLine
 10
329.1740296874
 20
110.2396852653
 30
0.0
 11
329.1740296874
 21
179.2439527195
 31
0.0
  0
LINE
  5
281
330
1F
100
AcDbEntity
  8
0
  6
Continuous
 62
     7
370
    30
100
AcDbLine
 10
328.8548794109
 20
110.5588346105
 30
0.0
 11
328.8548794109
 21
178.9248033743
 31
0.0
  0
LINE
  5
282
330
1F
100
AcDbEntity
  8
0
  6
Continuous
 62
     7
370
    30
100
AcDbLine
 10
328.8548794109
 20
178.9248033743
 30
0.0
 11
329.1740296874
 21
179.2439527195
 31
0.0
  0
LINE
  5
283
330
1F
100
AcDbEntity
  8
0
  6
Continuous
 62
     7
370
    30
100
AcDbLine
 10
329.1740296874
 20
110.2396852653
 30
0.0
 11
328.8548794109
 21
110.5588346105
 31
0.0
  0
ELLIPSE
  5
284
330
1F
100
AcDbEntity
  8
0
  6
Continuous
 62
     7
370
    30
100
AcDbEllipse
 10
328.3613855946
 20
178.9285707305
 30
0.0
 11
0.5012585681806172
 21
-0.03887969190620311
 31
0.0
210
0.0
220
0.0
230
1.0
 40
0.9869501288
 41
1.062492913081811
 42
1.64922485473651
  0
LINE
  5
285
330
1F
100
AcDbEntity
  8
0
  6
Continuous
 62
     7
370
    30
100
AcDbLine
 10
328.3603676129
 20
179.4248118382
 30
0.0
 11
328.6767686252
 21
179.7412156444
 31
0.0
  0
ELLIPSE
  5
286
330
1F
100
AcDbEntity
  8
0
  6
Continuous
 62
     7
370
    30
100
AcDbEllipse
 10
328.3750736704
 20
178.9422588064
 30
0.0
 11
-0.1574427123264286
 21
0.4806158864532221
 31
0.0
210
0.0
220
0.0
230
1.0
 40
0.9430368476
 41
4.378056587572805
 42
4.763611674995561
  0
SPLINE
  5
287
330
1F
100
AcDbEntity
  8
0
  6
Continuous
 62
     7
370
    30
100
AcDbSpline
210
0.0
220
0.0
230
1.0
 70
     8
 71
     3
 72
     8
 73
     4
 74
     0
 42
0.000000001
 43
0.00000001
 40
0.0
 40
0.0
 40
0.0
 40
0.0
 40
1.0
 40
1.0
 40
1.0
 40
1.0
 10
328.8196565790392
 20
179.1151459855303
 30
0.0
 10
328.8013533945264
 20
179.1630623144822
 30
0.0
 10
328.7763673096784
 20
179.2072078445341
 30
0.0
 10
328.7436434497509
 20
179.2474682521508
 30
0.0
  0
ELLIPSE
  5
288
330
1F
100
AcDbEntity
  8
0
  6
Continuous
 62
     7
370
    30
100
AcDbEllipse
 10
328.3559631049
 20
178.9231482408
 30
0.0
 11
0.3574377219428015
 21
0.3574377219428015
 31
0.0
210
0.0
220
0.0
230
1.0
 40
0.9891328444
 41
6.193461136292211
 42
6.476388320351323
  0
ELLIPSE
  5
289
330
1F
100
AcDbEntity
  8
0
  6
Continuous
 62
     7
370
    30
100
AcDbEllipse
 10
328.3750736704
 20
110.5413791784
 30
0.0
 11
0.1574427123264286
 21
0.4806158864532648
 31
0.0
210
0.0
220
0.0
230
1.0
 40
0.9430368476
 41
4.661166285773772
 42
5.046721373196547
  0
LINE
  5
28A
330
1F
100
AcDbEntity
  8
0
  6
Continuous
 62
     7
370
    30
100
AcDbLine
 10
328.3603676129
 20
110.0588261466
 30
0.0
 11
328.6767686252
 21
109.7424223404
 31
0.0
  0
ELLIPSE
  5
28B
330
1F
100
AcDbEntity
  8
0
  6
Continuous
 62
     7
370
    30
100
AcDbEllipse
 10
328.3613855946
 20
110.5550672543
 30
0.0
 11
0.5012585681806172
 21
0.03887969190620311
 31
0.0
210
0.0
220
0.0
230
1.0
 40
0.9869501288
 41
4.633960452443088
 42
5.220692394097801
  0
ELLIPSE
  5
28C
330
1F
100
AcDbEntity
  8
0
  6
Continuous
 62
     7
370
    30
100
AcDbEllipse
 10
328.3559631049
 20
110.560489744
 30
0.0
 11
-0.3574377219428015
 21
0.3574377219428158
 31
0.0
210
0.0
220
0.0
230
1.0
 40
0.9891328444
 41
2.948389640418065
 42
3.231316824477223
  0
SPLINE
  5
28D
330
1F
100
AcDbEntity
  8
0
  6
Continuous
 62
     7
370
    30
100
AcDbSpline
210
0.0
220
0.0
230
1.0
 70
     8
 71
     3
 72
     8
 73
     4
 74
     0
 42
0.000000001
 43
0.00000001
 40
0.0
 40
0.0
 40
0.0
 40
0.0
 40
1.0
 40
1.0
 40
1.0
 40
1.0
 10
328.7436423238018
 20
110.2361700393886
 30
0.0
 10
328.7763662371594
 20
110.2764304157732
 30
0.0
 10
328.8013533603823
 20
110.3205755366162
 30
0.0
 10
328.8196565924899
 20
110.3684919893845
 30
0.0
  0
LINE
  5
28E
330
1F
100
AcDbEntity
  8
0
  6
Continuous
 62
     7
370
    30
100
AcDbLine
 10
300.6889001001
 20
110.0588261466
 30
0.0
 11
328.3603676129
 21
110.0588261466
 31
0.0
  0
LINE
  5
28F
330
1F
100
AcDbEntity
  8
0
  6
Continuous
 62
     7
370
    30
100
AcDbLine
 10
300.3724990878
 20
109.7424223404
 30
0.0
 11
300.6889001001
 21
110.0588261466
 31
0.0
  0
LINE
  5
290
330
1F
100
AcDbEntity
  8
0
  6
Continuous
 62
     7
370
    30
100
AcDbLine
 10
300.6889001001
 20
179.4248118382
 30
0.0
 11
328.3603676129
 21
179.4248118382
 31
0.0
  0
LINE
  5
291
330
1F
100
AcDbEntity
  8
0
  6
Continuous
 62
     7
370
    30
100
AcDbLine
 10
300.3724990878
 20
179.7412156444
 30
0.0
 11
300.6889001001
 21
179.4248118382
 31
0.0
  0
ELLIPSE
  5
292
330
1F
100
AcDbEntity
  8
0
  6
Continuous
 62
     7
370
    30
100
AcDbEllipse
 10
300.6741940425
 20
178.9422588064
 30
0.0
 11
0.1574427123264286
 21
0.4806158864532221
 31
0.0
210
0.0
220
0.0
230
1.0
 40
0.9430368476
 41
1.519573632183986
 42
1.90512871960679
  0
LINE
  5
293
330
1F
100
AcDbEntity
  8
0
  6
Continuous
 62
     7
370
    30
100
AcDbLine
 10
300.194388302
 20
178.9248033743
 30
0.0
 11
299.8752380256
 21
179.2439527195
 31
0.0
  0
ELLIPSE
  5
294
330
1F
100
AcDbEntity
  8
0
  6
Continuous
 62
     7
370
    30
100
AcDbEllipse
 10
300.6878821184
 20
178.9285707305
 30
0.0
 11
0.5012585681806172
 21
0.03887969190620311
 31
0.0
210
0.0
220
0.0
230
1.0
 40
0.9869501288
 41
1.492367798853284
 42
2.079099740507884
  0
ELLIPSE
  5
295
330
1F
100
AcDbEntity
  8
0
  6
Continuous
 62
     7
370
    30
100
AcDbEllipse
 10
300.6933046081
 20
178.9231482408
 30
0.0
 11
0.3574377219428015
 21
-0.3574377219428015
 31
0.0
210
0.0
220
0.0
230
1.0
 40
0.9891328444
 41
2.948389640417961
 42
3.231316824477197
  0
SPLINE
  5
296
330
1F
100
AcDbEntity
  8
0
  6
Continuous
 62
     7
370
    30
100
AcDbSpline
210
0.0
220
0.0
230
1.0
 70
     8
 71
     3
 72
     8
 73
     4
 74
     0
 42
0.000000001
 43
0.00000001
 40
0.0
 40
0.0
 40
0.0
 40
0.0
 40
1.0
 40
1.0
 40
1.0
 40
1.0
 10
300.305625389169
 20
179.2474679453975
 30
0.0
 10
300.2729014758113
 20
179.2072075690129
 30
0.0
 10
300.2479143525885
 20
179.1630624481699
 30
0.0
 10
300.2296111204808
 20
179.1151459954016
 30
0.0
  0
ELLIPSE
  5
297
330
1F
100
AcDbEntity
  8
0
  6
Continuous
 62
     7
370
    30
100
AcDbEllipse
 10
300.6878821184
 20
110.5550672543
 30
0.0
 11
0.5012585681806172
 21
-0.03887969190620311
 31
0.0
210
0.0
220
0.0
230
1.0
 40
0.9869501288
 41
4.204085566671704
 42
4.790817508326318
  0
LINE
  5
298
330
1F
100
AcDbEntity
  8
0
  6
Continuous
 62
     7
370
    30
100
AcDbLine
 10
299.8752380256
 20
110.2396852653
 30
0.0
 11
300.194388302
 21
110.5588346105
 31
0.0
  0
ELLIPSE
  5
299
330
1F
100
AcDbEntity
  8
0
  6
Continuous
 62
     7
370
    30
100
AcDbEllipse
 10
300.6741940425
 20
110.5413791784
 30
0.0
 11
-0.1574427123264286
 21
0.4806158864532648
 31
0.0
210
0.0
220
0.0
230
1.0
 40
0.9430368476
 41
1.236463933983056
 42
1.622019021405827
  0
SPLINE
  5
29A
330
1F
100
AcDbEntity
  8
0
  6
Continuous
 62
     7
370
    30
100
AcDbSpline
210
0.0
220
0.0
230
1.0
 70
     8
 71
     3
 72
     8
 73
     4
 74
     0
 42
0.000000001
 43
0.00000001
 40
0.0
 40
0.0
 40
0.0
 40
0.0
 40
1.0
 40
1.0
 40
1.0
 40
1.0
 10
300.2296111339316
 20
110.3684919992558
 30
0.0
 10
300.2479143184444
 20
110.3205756703039
 30
0.0
 10
300.2729004032923
 20
110.276430140252
 30
0.0
 10
300.3056242632198
 20
110.2361697326353
 30
0.0
  0
ELLIPSE
  5
29B
330
1F
100
AcDbEntity
  8
0
  6
Continuous
 62
     7
370
    30
100
AcDbEllipse
 10
300.6933046081
 20
110.560489744
 30
0.0
 11
-0.3574377219428015
 21
-0.3574377219428158
 31
0.0
210
0.0
220
0.0
230
1.0
 40
0.9891328444
 41
6.193461136292185
 42
6.476388320351409
  0
LINE
  5
29C
330
1F
100
AcDbEntity
  8
0
  6
Continuous
 62
     7
370
    30
100
AcDbLine
 10
300.194388302
 20
110.5588346105
 30
0.0
 11
300.194388302
 21
178.9248033743
 31
0.0
  0
ENDSEC
  0
SECTION
  2
OBJECTS
  0
DICTIONARY
  5
C
330
0
100
AcDbDictionary
281
     1
  3
ACAD_GROUP
350
D
  3
ACAD_LAYOUT
350
1A
  3
ACAD_MLINESTYLE
350
17
  3
ACAD_PLOTSETTINGS
350
19
  3
ACAD_PLOTSTYLENAME
350
E
  3
ACAD_SCALELIST
350
47
  0
DICTIONARY
  5
D
102
{ACAD_REACTORS
330
C
102
}
330
C
100
AcDbDictionary
281
     1
  0
DICTIONARY
  5
1A
102
{ACAD_REACTORS
330
C
102
}
330
C
100
AcDbDictionary
281
     1
  3
Layout1
350
1E
  3
Layout2
350
26
  3
Model
350
22
  0
DICTIONARY
  5
17
102
{ACAD_REACTORS
330
C
102
}
330
C
100
AcDbDictionary
281
     1
  3
Standard
350
18
  0
DICTIONARY
  5
19
102
{ACAD_REACTORS
330
C
102
}
330
C
100
AcDbDictionary
281
     1
  0
ACDBDICTIONARYWDFLT
  5
E
102
{ACAD_REACTORS
330
C
102
}
330
C
100
AcDbDictionary
281
     1
  3
Normal
350
F
100
AcDbDictionaryWithDefault
340
F
  0
DICTIONARY
  5
47
102
{ACAD_REACTORS
330
C
102
}
330
C
100
AcDbDictionary
281
     1
  3
A0
350
48
  3
A1
350
49
  3
A2
350
4A
  3
A3
350
4B
  3
A4
350
4C
  3
A5
350
4D
  3
A6
350
4E
  3
A7
350
4F
  3
A8
350
50
  3
A9
350
51
  3
B0
350
52
  3
B1
350
53
  3
B2
350
54
  3
B3
350
55
  3
B4
350
56
  3
B5
350
57
  3
B6
350
58
  3
B7
350
59
  3
B8
350
5A
  3
B9
350
5B
  3
C0
350
5C
  3
C1
350
5D
  3
C2
350
5E
  3
C3
350
5F
  3
C4
350
60
  3
C5
350
61
  3
C6
350
62
  3
C7
350
63
  3
C8
350
64
  3
C9
350
65
  3
D0
350
66
  3
D1
350
67
  3
D2
350
68
  0
LAYOUT
  5
1E
102
{ACAD_REACTORS
330
1A
102
}
330
1A
100
AcDbPlotSettings
  1

  2
none_device
  4

  6

 40
0.0
 41
0.0
 42
0.0
 43
0.0
 44
0.0
 45
0.0
 46
0.0
 47
0.0
 48
0.0
 49
0.0
140
0.0
141
0.0
142
1.0
143
1.0
 70
   688
 72
     1
 73
     0
 74
     5
  7

 75
    16
147
1.0
148
0.0
149
0.0
100
AcDbLayout
  1
Layout1
 70
     1
 71
     1
 10
0.0
 20
0.0
 11
420.0
 21
297.0
 12
0.0
 22
0.0
 32
0.0
 14
1.0000000000E+20
 24
1.0000000000E+20
 34
1.0000000000E+20
 15
-1.0000000000E+20
 25
-1.0000000000E+20
 35
-1.0000000000E+20
146
0.0
 13
0.0
 23
0.0
 33
0.0
 16
1.0
 26
0.0
 36
0.0
 17
0.0
 27
1.0
 37
0.0
 76
     0
330
1B
  0
LAYOUT
  5
26
102
{ACAD_REACTORS
330
1A
102
}
330
1A
100
AcDbPlotSettings
  1

  2
none_device
  4

  6

 40
0.0
 41
0.0
 42
0.0
 43
0.0
 44
0.0
 45
0.0
 46
0.0
 47
0.0
 48
0.0
 49
0.0
140
0.0
141
0.0
142
1.0
143
1.0
 70
   688
 72
     1
 73
     0
 74
     5
  7

 75
    16
147
1.0
148
0.0
149
0.0
100
AcDbLayout
  1
Layout2
 70
     1
 71
     2
 10
0.0
 20
0.0
 11
0.0
 21
0.0
 12
0.0
 22
0.0
 32
0.0
 14
0.0
 24
0.0
 34
0.0
 15
0.0
 25
0.0
 35
0.0
146
0.0
 13
0.0
 23
0.0
 33
0.0
 16
1.0
 26
0.0
 36
0.0
 17
0.0
 27
1.0
 37
0.0
 76
     0
330
23
  0
LAYOUT
  5
22
102
{ACAD_REACTORS
330
1A
102
}
330
1A
100
AcDbPlotSettings
  1

  2
none_device
  4
Letter_(8.50_x_11.00_Inches)
  6

 40
6.35
 41
6.35
 42
6.35000508
 43
6.35000508
 44
215.9
 45
279.4
 46
0.0
 47
0.0
 48
0.0
 49
0.0
140
0.0
141
0.0
142
1.0
143
1.0
 70
  1712
 72
     1
 73
     0
 74
     0
  7

 75
     0
147
1.0
148
0.0
149
0.0
100
AcDbLayout
  1
Model
 70
     1
 71
     0
 10
0.0
 20
0.0
 11
420.0
 21
297.0
 12
0.0
 22
0.0
 32
0.0
 14
0.0
 24
0.0
 34
0.0
 15
420.0
 25
297.0
 35
0.0
146
0.0
 13
0.0
 23
0.0
 33
0.0
 16
1.0
 26
0.0
 36
0.0
 17
0.0
 27
1.0
 37
0.0
 76
     0
330
1F
331
29
  0
MLINESTYLE
  5
18
102
{ACAD_REACTORS
330
17
102
}
330
17
100
AcDbMlineStyle
  2
Standard
 70
     0
  3

 62
   256
 51
90.0
 52
90.0
 71
     2
 49
0.5
 62
   256
  6
BYLAYER
 49
-0.5
 62
   256
  6
BYLAYER
  0
ACDBPLACEHOLDER
  5
F
102
{ACAD_REACTORS
330
E
102
}
330
E
  0
SCALE
  5
48
102
{ACAD_REACTORS
330
47
102
}
330
47
100
AcDbScale
 70
     0
300
1:1
140
1.0
141
1.0
290
     1
  0
SCALE
  5
49
102
{ACAD_REACTORS
330
47
102
}
330
47
100
AcDbScale
 70
     0
300
1:2
140
1.0
141
2.0
290
     0
  0
SCALE
  5
4A
102
{ACAD_REACTORS
330
47
102
}
330
47
100
AcDbScale
 70
     0
300
1:4
140
1.0
141
4.0
290
     0
  0
SCALE
  5
4B
102
{ACAD_REACTORS
330
47
102
}
330
47
100
AcDbScale
 70
     0
300
1:5
140
1.0
141
5.0
290
     0
  0
SCALE
  5
4C
102
{ACAD_REACTORS
330
47
102
}
330
47
100
AcDbScale
 70
     0
300
1:8
140
1.0
141
8.0
290
     0
  0
SCALE
  5
4D
102
{ACAD_REACTORS
330
47
102
}
330
47
100
AcDbScale
 70
     0
300
1:10
140
1.0
141
10.0
290
     0
  0
SCALE
  5
4E
102
{ACAD_REACTORS
330
47
102
}
330
47
100
AcDbScale
 70
     0
300
1:16
140
1.0
141
16.0
290
     0
  0
SCALE
  5
4F
102
{ACAD_REACTORS
330
47
102
}
330
47
100
AcDbScale
 70
     0
300
1:20
140
1.0
141
20.0
290
     0
  0
SCALE
  5
50
102
{ACAD_REACTORS
330
47
102
}
330
47
100
AcDbScale
 70
     0
300
1:30
140
1.0
141
30.0
290
     0
  0
SCALE
  5
51
102
{ACAD_REACTORS
330
47
102
}
330
47
100
AcDbScale
 70
     0
300
1:40
140
1.0
141
40.0
290
     0
  0
SCALE
  5
52
102
{ACAD_REACTORS
330
47
102
}
330
47
100
AcDbScale
 70
     0
300
1:50
140
1.0
141
50.0
290
     0
  0
SCALE
  5
53
102
{ACAD_REACTORS
330
47
102
}
330
47
100
AcDbScale
 70
     0
300
1:100
140
1.0
141
100.0
290
     0
  0
SCALE
  5
54
102
{ACAD_REACTORS
330
47
102
}
330
47
100
AcDbScale
 70
     0
300
2:1
140
2.0
141
1.0
290
     0
  0
SCALE
  5
55
102
{ACAD_REACTORS
330
47
102
}
330
47
100
AcDbScale
 70
     0
300
4:1
140
4.0
141
1.0
290
     0
  0
SCALE
  5
56
102
{ACAD_REACTORS
330
47
102
}
330
47
100
AcDbScale
 70
     0
300
8:1
140
8.0
141
1.0
290
     0
  0
SCALE
  5
57
102
{ACAD_REACTORS
330
47
102
}
330
47
100
AcDbScale
 70
     0
300
10:1
140
10.0
141
1.0
290
     0
  0
SCALE
  5
58
102
{ACAD_REACTORS
330
47
102
}
330
47
100
AcDbScale
 70
     0
300
100:1
140
100.0
141
1.0
290
     0
  0
SCALE
  5
59
102
{ACAD_REACTORS
330
47
102
}
330
47
100
AcDbScale
 70
     0
300
1/128" = 1'-0"
140
0.0078125
141
12.0
290
     0
  0
SCALE
  5
5A
102
{ACAD_REACTORS
330
47
102
}
330
47
100
AcDbScale
 70
     0
300
1/64" = 1'-0"
140
0.015625
141
12.0
290
     0
  0
SCALE
  5
5B
102
{ACAD_REACTORS
330
47
102
}
330
47
100
AcDbScale
 70
     0
300
1/32" = 1'-0"
140
0.03125
141
12.0
290
     0
  0
SCALE
  5
5C
102
{ACAD_REACTORS
330
47
102
}
330
47
100
AcDbScale
 70
     0
300
1/16" = 1'-0"
140
0.0625
141
12.0
290
     0
  0
SCALE
  5
5D
102
{ACAD_REACTORS
330
47
102
}
330
47
100
AcDbScale
 70
     0
300
3/32" = 1'-0"
140
0.09375
141
12.0
290
     0
  0
SCALE
  5
5E
102
{ACAD_REACTORS
330
47
102
}
330
47
100
AcDbScale
 70
     0
300
1/8" = 1'-0"
140
0.125
141
12.0
290
     0
  0
SCALE
  5
5F
102
{ACAD_REACTORS
330
47
102
}
330
47
100
AcDbScale
 70
     0
300
3/16" = 1'-0"
140
0.1875
141
12.0
290
     0
  0
SCALE
  5
60
102
{ACAD_REACTORS
330
47
102
}
330
47
100
AcDbScale
 70
     0
300
1/4" = 1'-0"
140
0.25
141
12.0
290
     0
  0
SCALE
  5
61
102
{ACAD_REACTORS
330
47
102
}
330
47
100
AcDbScale
 70
     0
300
3/8" = 1'-0"
140
0.375
141
12.0
290
     0
  0
SCALE
  5
62
102
{ACAD_REACTORS
330
47
102
}
330
47
100
AcDbScale
 70
     0
300
1/2" = 1'-0"
140
0.5
141
12.0
290
     0
  0
SCALE
  5
63
102
{ACAD_REACTORS
330
47
102
}
330
47
100
AcDbScale
 70
     0
300
3/4" = 1'-0"
140
0.75
141
12.0
290
     0
  0
SCALE
  5
64
102
{ACAD_REACTORS
330
47
102
}
330
47
100
AcDbScale
 70
     0
300
1" = 1'-0"
140
1.0
141
12.0
290
     0
  0
SCALE
  5
65
102
{ACAD_REACTORS
330
47
102
}
330
47
100
AcDbScale
 70
     0
300
1-1/2" = 1'-0"
140
1.5
141
12.0
290
     0
  0
SCALE
  5
66
102
{ACAD_REACTORS
330
47
102
}
330
47
100
AcDbScale
 70
     0
300
3" = 1'-0"
140
3.0
141
12.0
290
     0
  0
SCALE
  5
67
102
{ACAD_REACTORS
330
47
102
}
330
47
100
AcDbScale
 70
     0
300
6" = 1'-0"
140
6.0
141
12.0
290
     0
  0
SCALE
  5
68
102
{ACAD_REACTORS
330
47
102
}
330
47
100
AcDbScale
 70
     0
300
1'-0" = 1'-0"
140
12.0
141
12.0
290
     0
  0
ENDSEC
  0
EOF
