  0
SECTION
  2
HEADER
  9
$ACADVER
  1
AC1009
  9
$INSBASE
 10
0.0
 20
0.0
 30
0.0
  9
$EXTMIN
 10
-343.23607203
 20
-478.92
 30
0.0
  9
$EXTMAX
 10
343.23607203
 20
478.92
 30
0.0
  9
$LIMMIN
 10
-364.68832653
 20
-508.8525
  9
$LIMMAX
 10
364.68832653
 20
508.8525
  9
$ORTHOMODE
 70
       0
  9
$REGENMODE
 70
       1
  9
$FILLMODE
 70
       1
  9
$QTEXTMODE
 70
       0
  9
$MIRRTEXT
 70
       1
  9
$DRAGMODE
 70
       2
  9
$LTSCALE
 40
1.0
  9
$OSMODE
 70
       0
  9
$ATTMODE
 70
       1
  9
$TEXTSIZE
 40
0.2
  9
$TRACEWID
 40
0.05
  9
$TEXTSTYLE
  7
STANDARD
  9
$CLAYER
  8
0
  9
$CELTYPE
  6
CONTINUOUS
  9
$CECOLOR
 62
     256
  9
$DIMSCALE
 40
1.0
  9
$DIMASZ
 40
0.18
  9
$DIMEXO
 40
0.0625
  9
$DIMDLI
 40
0.38
  9
$DIMRND
 40
0.0
  9
$DIMDLE
 40
0.0
  9
$DIMEXE
 40
0.18
  9
$DIMTP
 40
0.0
  9
$DIMTM
 40
0.0
  9
$DIMTXT
 40
0.18
  9
$DIMCEN
 40
0.09
  9
$DIMTSZ
 40
0.0
  9
$DIMTOL
 70
       0
  9
$DIMLIM
 70
       0
  9
$DIMTIH
 70
       1
  9
$DIMTOH
 70
       1
  9
$DIMSE1
 70
       0
  9
$DIMSE2
 70
       0
  9
$DIMTAD
 70
       0
  9
$DIMZIN
 70
       0
  9
$DIMBLK
  1

  9
$DIMASO
 70
       1
  9
$DIMSHO
 70
       1
  9
$DIMPOST
  1

  9
$DIMAPOST
  1

  9
$DIMALT
 70
       0
  9
$DIMALTD
 70
       2
  9
$DIMALTF
 40
25.4
  9
$DIMLFAC
 40
1.0
  9
$DIMTOFL
 70
       0
  9
$DIMTVP
 40
0.0
  9
$DIMTIX
 70
       0
  9
$DIMSOXD
 70
       0
  9
$DIMSAH
 70
       0
  9
$DIMBLK1
  1

  9
$DIMBLK2
  1

  9
$DIMSTYLE
  2
STANDARD
  9
$DIMCLRD
 70
       0
  9
$DIMCLRE
 70
       0
  9
$DIMCLRT
 70
       0
  9
$DIMTFAC
 40
1.0
  9
$DIMGAP
 40
0.09
  9
$LUNITS
 70
       2
  9
$LUPREC
 70
       4
  9
$AXISMODE
 70
       0
  9
$AXISUNIT
 10
0.0
 20
0.0
  9
$SKETCHINC
 40
0.1
  9
$FILLETRAD
 40
0.0
  9
$AUNITS
 70
       0
  9
$AUPREC
 70
       0
  9
$MENU
  1
acad
  9
$ELEVATION
 40
0.0
  9
$PELEVATION
 40
0.0
  9
$THICKNESS
 40
0.0
  9
$LIMCHECK
 70
       0
  9
$BLIPMODE
 70
       1
  9
$CHAMFERA
 40
0.0
  9
$CHAMFERB
 40
0.0
  9
$SKPOLY
 70
       0
  9
$TDCREATE
 40
0.000000000
  9
$TDUPDATE
 40
0.000000000
  9
$TDINDWG
 40
0.0000000000
  9
$TDUSRTIMER
 40
0.0000000000
  9
$USRTIMER
 70
       1
  9
$ANGBASE
 50
0.0
  9
$ANGDIR
 70
       0
  9
$PDMODE
 70
       0
  9
$PDSIZE
 40
1.0
  9
$PLINEWID
 40
0.0
  9
$COORDS
 70
       1
  9
$SPLFRAME
 70
       0
  9
$SPLINETYPE
 70
       6
  9
$SPLINESEGS
 70
       8
  9
$ATTDIA
 70
       0
  9
$ATTREQ
 70
       1
  9
$HANDLING
 70
       1
  9
$HANDSEED
  5
4DA
  9
$SURFTAB1
 70
       6
  9
$SURFTAB2
 70
       6
  9
$SURFTYPE
 70
       6
  9
$SURFU
 70
       6
  9
$SURFV
 70
       6
  9
$UCSNAME
  2

  9
$UCSORG
 10
0.0
 20
0.0
 30
0.0
  9
$UCSXDIR
 10
1.0
 20
0.0
 30
0.0
  9
$UCSYDIR
 10
0.0
 20
1.0
 30
0.0
  9
$PUCSNAME
  2

  9
$PUCSORG
 10
0.0
 20
0.0
 30
0.0
  9
$PUCSXDIR
 10
1.0
 20
0.0
 30
0.0
  9
$PUCSYDIR
 10
0.0
 20
1.0
 30
0.0
  9
$USERI1
 70
       0
  9
$USERI2
 70
       0
  9
$USERI3
 70
       0
  9
$USERI4
 70
       0
  9
$USERI5
 70
       0
  9
$USERR1
 40
0.0
  9
$USERR2
 40
0.0
  9
$USERR3
 40
0.0
  9
$USERR4
 40
0.0
  9
$USERR5
 40
0.0
  9
$WORLDVIEW
 70
       1
  9
$SHADEDGE
 70
       3
  9
$SHADEDIF
 70
      70
  9
$TILEMODE
 70
       1
  9
$MAXACTVP
 70
      16
  9
$PINSBASE
 10
0.0
 20
0.0
 30
0.0
  9
$PLIMCHECK
 70
       0
  9
$PEXTMIN
 10
1.00000000E+20
 20
1.00000000E+20
 30
1.00000000E+20
  9
$PEXTMAX
 10
-1.00000000E+20
 20
-1.00000000E+20
 30
-1.00000000E+20
  9
$PLIMMIN
 10
0.0
 20
0.0
  9
$PLIMMAX
 10
12.0
 20
9.0
  9
$UNITMODE
 70
       0
  9
$VISRETAIN
 70
       0
  9
$PLINEGEN
 70
       1
  9
$PSLTSCALE
 70
       0
  9
$TREEDEPTH
 70
    3020
  9
$DWGCODEPAGE
  3
dos932
  0
ENDSEC
  0
SECTION
  2
TABLES
  0
TABLE
  2
VPORT
 70
       1
  0
VPORT
  2
*ACTIVE
 70
       0
 10
0.0
 20
0.0
 11
1.0
 21
1.0
 12
0.0
 22
0.0
 13
0.0
 23
0.0
 14
1.0
 24
1.0
 15
0.0
 25
0.0
 16
0.0
 26
0.0
 36
1.0
 17
0.0
 27
0.0
 37
0.0
 40
1017.705
 41
0.7166877
 42
50.0
 43
0.0
 44
0.0
 50
0.0
 51
0.0
 71
       0
 72
     100
 73
       1
 74
       1
 75
       0
 76
       0
 77
       0
 78
       0
  0
ENDTAB
  0
TABLE
  2
LTYPE
 70
      28
  0
LTYPE
  2
CONTINUOUS
 70
      64
  3
Solid line
 72
      65
 73
       0
 40
0.0
  0
LTYPE
  2
HIDDENX2
 70
      64
  3
CADPAC LINETYPE
 72
      65
 73
       2
 40
54.16750345
 49
40.62562759
 49
-13.54187586
  0
LTYPE
  2
HIDDEN
 70
      64
  3
CADPAC LINETYPE
 72
      65
 73
       2
 40
40.62562759
 49
27.08375172
 49
-13.54187586
  0
LTYPE
  2
HIDDEN2
 70
      64
  3
CADPAC LINETYPE
 72
      65
 73
       2
 40
33.85468966
 49
20.31281379
 49
-13.54187586
  0
LTYPE
  2
DASHED
 70
      64
  3
CADPAC LINETYPE
 72
      65
 73
       2
 40
40.62562759
 49
27.08375172
 49
-13.54187586
  0
LTYPE
  2
DASHED2
 70
      64
  3
CADPAC LINETYPE
 72
      65
 73
       2
 40
30.46922069
 49
20.31281379
 49
-10.1564069
  0
LTYPE
  2
DASHEDX2
 70
      64
  3
CADPAC LINETYPE
 72
      65
 73
       2
 40
60.93844138
 49
40.62562759
 49
-20.31281379
  0
LTYPE
  2
DOTX2
 70
      64
  3
CADPAC LINETYPE
 72
      65
 73
       2
 40
16.92734483
 49
0.0
 49
-16.92734483
  0
LTYPE
  2
DOT
 70
      64
  3
CADPAC LINETYPE
 72
      65
 73
       2
 40
13.54187586
 49
0.0
 49
-13.54187586
  0
LTYPE
  2
DOT2
 70
      64
  3
CADPAC LINETYPE
 72
      65
 73
       2
 40
10.1564069
 49
0.0
 49
-10.1564069
  0
LTYPE
  2
CENTERX2
 70
      64
  3
CADPAC LINETYPE
 72
      65
 73
       4
 40
81.25125517
 49
33.85468966
 49
-16.92734483
 49
13.54187586
 49
-16.92734483
  0
LTYPE
  2
CENTER
 70
      64
  3
CADPAC LINETYPE
 72
      65
 73
       4
 40
62.29262897
 49
27.08375172
 49
-13.54187586
 49
8.12512552
 49
-13.54187586
  0
LTYPE
  2
CENTER2
 70
      64
  3
CADPAC LINETYPE
 72
      65
 73
       4
 40
43.33400276
 49
20.31281379
 49
-10.1564069
 49
2.70837517
 49
-10.1564069
  0
LTYPE
  2
DASHDOTX2
 70
      64
  3
CADPAC LINETYPE
 72
      65
 73
       4
 40
67.70937931
 49
33.85468966
 49
-16.92734483
 49
0.0
 49
-16.92734483
  0
LTYPE
  2
DASHDOT
 70
      64
  3
CADPAC LINETYPE
 72
      65
 73
       4
 40
54.16750345
 49
27.08375172
 49
-13.54187586
 49
0.0
 49
-13.54187586
  0
LTYPE
  2
DASHDOT2
 70
      64
  3
CADPAC LINETYPE
 72
      65
 73
       4
 40
40.62562759
 49
20.31281379
 49
-10.1564069
 49
0.0
 49
-10.1564069
  0
LTYPE
  2
DIVIDEX2
 70
      64
  3
CADPAC LINETYPE
 72
      65
 73
       6
 40
84.63672414
 49
33.85468966
 49
-16.92734483
 49
0.0
 49
-16.92734483
 49
0.0
 49
-16.92734483
  0
LTYPE
  2
DIVIDE
 70
      64
  3
CADPAC LINETYPE
 72
      65
 73
       6
 40
67.70937931
 49
27.08375172
 49
-13.54187586
 49
0.0
 49
-13.54187586
 49
0.0
 49
-13.54187586
  0
LTYPE
  2
DIVIDE2
 70
      64
  3
CADPAC LINETYPE
 72
      65
 73
       6
 40
50.78203448
 49
20.31281379
 49
-10.1564069
 49
0.0
 49
-10.1564069
 49
0.0
 49
-10.1564069
  0
LTYPE
  2
BORDERX2
 70
      64
  3
CADPAC LINETYPE
 72
      65
 73
       6
 40
118.49141379
 49
33.85468966
 49
-16.92734483
 49
33.85468966
 49
-16.92734483
 49
0.0
 49
-16.92734483
  0
LTYPE
  2
BORDER
 70
      64
  3
CADPAC LINETYPE
 72
      65
 73
       6
 40
94.79313103
 49
27.08375172
 49
-13.54187586
 49
27.08375172
 49
-13.54187586
 49
0.0
 49
-13.54187586
  0
LTYPE
  2
BORDER2
 70
      64
  3
CADPAC LINETYPE
 72
      65
 73
       6
 40
71.09484828
 49
20.31281379
 49
-10.1564069
 49
20.31281379
 49
-10.1564069
 49
0.0
 49
-10.1564069
  0
LTYPE
  2
PHANTOMX2
 70
      64
  3
CADPAC LINETYPE
 72
      65
 73
       6
 40
101.56406897
 49
33.85468966
 49
-13.54187586
 49
13.54187586
 49
-13.54187586
 49
13.54187586
 49
-13.54187586
  0
LTYPE
  2
PHANTOM
 70
      64
  3
CADPAC LINETYPE
 72
      65
 73
       6
 40
83.95963034
 49
27.08375172
 49
-13.54187586
 49
8.12512552
 49
-13.54187586
 49
8.12512552
 49
-13.54187586
  0
LTYPE
  2
PHANTOM2
 70
      64
  3
CADPAC LINETYPE
 72
      65
 73
       6
 40
71.77194207
 49
20.31281379
 49
-13.54187586
 49
5.41675034
 49
-13.54187586
 49
5.41675034
 49
-13.54187586
  0
LTYPE
  2
ACAD_ISO06W100
 70
      64
  3
CADPAC LINETYPE
 72
      65
 73
       8
 40
91.40766207
 49
33.85468966
 49
-16.92734483
 49
0.0
 49
-13.54187586
 49
0.0
 49
-13.54187586
 49
0.0
 49
-13.54187586
  0
LTYPE
  2
ACAD_ISO13W100
 70
      64
  3
CADPAC LINETYPE
 72
      65
 73
       8
 40
108.3350069
 49
27.08375172
 49
-13.54187586
 49
27.08375172
 49
-13.54187586
 49
0.0
 49
-13.54187586
 49
0.0
 49
-13.54187586
  0
LTYPE
  2
ACAD_ISO14W100
 70
      64
  3
CADPAC LINETYPE
 72
      65
 73
       8
 40
81.25125517
 49
27.08375172
 49
-13.54187586
 49
0.0
 49
-13.54187586
 49
0.0
 49
-13.54187586
 49
0.0
 49
-13.54187586
  0
ENDTAB
  0
TABLE
  2
LAYER
 70
       6
  0
LAYER
  2
0
 70
       0
 62
       7
  6
CONTINUOUS
  0
LAYER
  2
1
 70
       0
 62
       7
  6
CONTINUOUS
  0
LAYER
  2
3
 70
       0
 62
       7
  6
CONTINUOUS
  0
LAYER
  2
6
 70
       0
 62
       7
  6
CONTINUOUS
  0
LAYER
  2
18
 70
       0
 62
       7
  6
CONTINUOUS
  0
LAYER
  2
240
 70
       0
 62
       7
  6
CONTINUOUS
  0
ENDTAB
  0
TABLE
  2
STYLE
 70
       1
  0
STYLE
  2
STANDARD
 70
       0
 40
0.0
 41
0.8
 50
0.0
 71
       0
 42
10.2
  3
txt.shx
  4
bigfont.shx
  0
ENDTAB
  0
TABLE
  2
VIEW
 70
       0
  0
VIEW
  2
QQQQ
 70
       0
 40
1017.705
 10
0.0
 20
0.0
 41
729.37665306
 11
0.0
 21
0.0
 31
1.0
 12
100.0
 22
100.0
 32
0.0
 42
50.0
 43
0.0
 44
0.0
 50
0.0
 71
       0
  0
ENDTAB
  0
TABLE
  2
UCS
 70
       0
  0
ENDTAB
  0
TABLE
  2
APPID
 70
       1
  0
APPID
  2
ACAD
 70
       0
  0
ENDTAB
  0
TABLE
  2
DIMSTYLE
 70
       1
  0
DIMSTYLE
  2
STANDARD
 70
       0
  3

  4

  5

  6

  7

 40
1.0
 41
0.18
 42
0.0625
 43
0.38
 44
0.18
 45
0.0
 46
0.0
 47
0.0
 48
0.0
 71
       0
 72
       0
 73
       1
 74
       1
 75
       0
 76
       0
 77
       0
 78
       0
140
0.18
141
0.09
142
0.0
143
25.4
144
1.0
145
0.0
146
1.0
147
0.09
170
       0
171
       2
172
       0
173
       0
174
       0
175
       0
176
       0
177
       0
178
       0
  0
ENDTAB
  0
ENDSEC
  0
SECTION
  2
BLOCKS
  0
BLOCK
  8
0
  5
4B
  2
GROUP_1
 70
       0
 10
0.0
 20
0.0
 30
0.0
  3
GROUP_1
  0
ARC
  8
0
  6
CONTINUOUS
 62
       7
  5
4C
 10
-260.77723584
 20
421.22548309
 30
0.0
 40
8.06307952
 50
117.5173678
 51
242.4826322
  0
ARC
  8
0
  6
CONTINUOUS
 62
       7
  5
4D
 10
-230.49656536
 20
479.35108957
 30
0.0
 40
73.60318276
 50
242.4826322
 51
297.51736473
  0
ARC
  8
0
  6
CONTINUOUS
 62
       7
  5
4E
 10
-200.21589488
 20
421.22548309
 30
0.0
 40
8.06307952
 50
297.51736473
 51
422.48263527
  0
ARC
  8
0
  6
CONTINUOUS
 62
       7
  5
4F
 10
-230.49656536
 20
363.09987661
 30
0.0
 40
73.60318276
 50
62.48263527
 51
117.5173678
  0
ENDBLK
  8
0
  5
50
  0
BLOCK
  8
0
  5
51
  2
GROUP_2
 70
       0
 10
0.0
 20
0.0
 30
0.0
  3
GROUP_2
  0
ARC
  8
0
  6
CONTINUOUS
 62
       7
  5
52
 10
-237.68032211
 20
419.51508975
 30
0.0
 40
0.3169996
 50
190.64764618
 51
292.13143044
  0
ARC
  8
0
  6
CONTINUOUS
 62
       7
  5
53
 10
-237.79862888
 20
419.80598631
 30
0.0
 40
0.63103352
 50
292.13143044
 51
370.64764925
  0
ARC
  8
0
  6
CONTINUOUS
 62
       7
  5
54
 10
-237.490002
 20
419.86400995
 30
0.0
 40
0.3169996
 50
10.64764925
 51
112.13143351
  0
ARC
  8
0
  6
CONTINUOUS
 62
       7
  5
55
 10
-237.37169522
 20
419.5731134
 30
0.0
 40
0.63103352
 50
112.13143351
 51
190.64764618
  0
ENDBLK
  8
0
  5
56
  0
BLOCK
  8
0
  5
57
  2
GROUP_3
 70
       0
 10
0.0
 20
0.0
 30
0.0
  3
GROUP_3
  0
ARC
  8
0
  6
CONTINUOUS
 62
       7
  5
58
 10
-237.88918779
 20
419.13216934
 30
0.0
 40
1.01277828
 50
190.64764618
 51
211.08494823
  0
ARC
  8
0
  6
CONTINUOUS
 62
       7
  5
59
 10
-238.26716471
 20
420.0615513
 30
0.0
 40
2.01608152
 50
312.59843321
 51
370.64764925
  0
ARC
  8
0
  6
CONTINUOUS
 62
       7
  5
5A
 10
-237.28113632
 20
420.24693036
 30
0.0
 40
1.01277828
 50
10.64764925
 51
112.13143351
  0
ARC
  8
0
  6
CONTINUOUS
 62
       7
  5
5B
 10
-236.9031594
 20
419.3175484
 30
0.0
 40
2.01608152
 50
112.13143351
 51
190.64764618
  0
ENDBLK
  8
0
  5
5C
  0
BLOCK
  8
0
  5
5D
  2
GROUP_4
 70
       0
 10
0.0
 20
0.0
 30
0.0
  3
GROUP_4
  0
ARC
  8
0
  6
CONTINUOUS
 62
       7
  5
5E
 10
-233.09999859
 20
420.31138677
 30
0.0
 40
0.23219995
 50
183.26137873
 51
305.00590373
  0
ARC
  8
0
  6
CONTINUOUS
 62
       7
  5
5F
 10
-233.93695235
 20
421.50641847
 30
0.0
 40
1.69116957
 50
305.00590373
 51
363.2613818
  0
ARC
  8
0
  6
CONTINUOUS
 62
       7
  5
60
 10
-232.48034569
 20
421.58942088
 30
0.0
 40
0.23219995
 50
3.2613818
 51
125.0059068
  0
ARC
  8
0
  6
CONTINUOUS
 62
       7
  5
61
 10
-231.64339193
 20
420.39438918
 30
0.0
 40
1.69116957
 50
125.0059068
 51
183.26137873
  0
ENDBLK
  8
0
  5
62
  0
BLOCK
  8
0
  5
63
  2
GROUP_5
 70
       0
 10
0.0
 20
0.0
 30
0.0
  3
GROUP_5
  0
ARC
  8
0
  6
CONTINUOUS
 62
       7
  5
64
 10
-233.78003301
 20
418.90881579
 30
0.0
 40
0.74185288
 50
183.26137873
 51
200.33363428
  0
ARC
  8
0
  6
CONTINUOUS
 62
       7
  5
65
 10
-236.45400667
 20
422.72680844
 30
0.0
 40
5.40309768
 50
321.55507259
 51
363.2613818
  0
ARC
  8
0
  6
CONTINUOUS
 62
       7
  5
66
 10
-231.80031127
 20
422.99199186
 30
0.0
 40
0.74185288
 50
3.2613818
 51
125.0059068
  0
ARC
  8
0
  6
CONTINUOUS
 62
       7
  5
67
 10
-229.12633761
 20
419.17399921
 30
0.0
 40
5.40309768
 50
125.0059068
 51
183.26137873
  0
ENDBLK
  8
0
  5
68
  0
BLOCK
  8
0
  5
69
  2
GROUP_6
 70
       0
 10
0.0
 20
0.0
 30
0.0
  3
GROUP_6
  0
ARC
  8
0
  6
CONTINUOUS
 62
       7
  5
6A
 10
-224.41649425
 20
419.06490141
 30
0.0
 40
0.2160766
 50
183.73563025
 51
294.86492053
  0
ARC
  8
0
  6
CONTINUOUS
 62
       7
  5
6B
 10
-224.6542337
 20
419.57788937
 30
0.0
 40
0.78147618
 50
294.86492053
 51
363.73563332
  0
ARC
  8
0
  6
CONTINUOUS
 62
       7
  5
6C
 10
-224.09003543
 20
419.6147268
 30
0.0
 40
0.2160766
 50
3.73563332
 51
114.8649236
  0
ARC
  8
0
  6
CONTINUOUS
 62
       7
  5
6D
 10
-223.85229598
 20
419.10173885
 30
0.0
 40
0.78147618
 50
114.8649236
 51
183.73563025
  0
ENDBLK
  8
0
  5
6E
  0
BLOCK
  8
0
  5
6F
  2
GROUP_7
 70
       0
 10
0.0
 20
0.0
 30
0.0
  3
GROUP_7
  0
ARC
  8
0
  6
CONTINUOUS
 62
       7
  5
70
 10
-223.79836634
 20
420.03486454
 30
0.0
 40
0.8613358
 50
20.74730473
 51
105.32121283
  0
ARC
  8
0
  6
CONTINUOUS
 62
       7
  5
71
 10
-223.33014848
 20
418.32583435
 30
0.0
 40
2.63334374
 50
105.32121283
 51
159.10235176
  0
ENDBLK
  8
0
  5
72
  0
BLOCK
  8
0
  5
73
  2
GROUP_8
 70
       0
 10
0.0
 20
0.0
 30
0.0
  3
GROUP_8
  0
ARC
  8
0
  6
CONTINUOUS
 62
       7
  5
74
 10
-225.09949815
 20
418.42285946
 30
0.0
 40
0.8613358
 50
198.54808739
 51
285.32120976
  0
ARC
  8
0
  6
CONTINUOUS
 62
       7
  5
75
 10
-225.56771601
 20
420.13188965
 30
0.0
 40
2.63334374
 50
285.32120976
 51
306.25116607
  0
ENDBLK
  8
0
  5
76
  0
BLOCK
  8
0
  5
77
  2
GROUP_9
 70
       0
 10
0.0
 20
0.0
 30
0.0
  3
GROUP_9
  0
ARC
  8
0
  6
CONTINUOUS
 62
       7
  5
78
 10
-207.5055781
 20
419.51508975
 30
0.0
 40
0.3169996
 50
190.64764618
 51
292.13143044
  0
ARC
  8
0
  6
CONTINUOUS
 62
       7
  5
79
 10
-207.62388488
 20
419.80598631
 30
0.0
 40
0.63103352
 50
292.13143044
 51
370.64764925
  0
ARC
  8
0
  6
CONTINUOUS
 62
       7
  5
7A
 10
-207.31525799
 20
419.86400995
 30
0.0
 40
0.3169996
 50
10.64764925
 51
112.13143351
  0
ARC
  8
0
  6
CONTINUOUS
 62
       7
  5
7B
 10
-207.19695121
 20
419.5731134
 30
0.0
 40
0.63103352
 50
112.13143351
 51
190.64764618
  0
ENDBLK
  8
0
  5
7C
  0
BLOCK
  8
0
  5
7D
  2
GROUP_10
 70
       0
 10
0.0
 20
0.0
 30
0.0
  3
GROUP_10
  0
ARC
  8
0
  6
CONTINUOUS
 62
       7
  5
7E
 10
-207.71444378
 20
419.13216934
 30
0.0
 40
1.01277828
 50
190.64764618
 51
211.08494823
  0
ARC
  8
0
  6
CONTINUOUS
 62
       7
  5
7F
 10
-208.0924207
 20
420.0615513
 30
0.0
 40
2.01608152
 50
312.59843321
 51
370.64764925
  0
ARC
  8
0
  6
CONTINUOUS
 62
       7
  5
80
 10
-207.10639231
 20
420.24693036
 30
0.0
 40
1.01277828
 50
10.64764925
 51
112.13143351
  0
ARC
  8
0
  6
CONTINUOUS
 62
       7
  5
81
 10
-206.72841539
 20
419.3175484
 30
0.0
 40
2.01608152
 50
112.13143351
 51
190.64764618
  0
ENDBLK
  8
0
  5
82
  0
BLOCK
  8
0
  5
83
  2
GROUP_11
 70
       0
 10
0.0
 20
0.0
 30
0.0
  3
GROUP_11
  0
TEXT
  8
0
 62
       7
  5
84
 10
83.09718464
 20
-335.61162988
 30
0.0
 40
12.0
  1
　ナベタッピンネジ
 41
0.8
 72
       5
 11
169.49718464
 21
-335.61162988
 31
0.0
  0
CIRCLE
  8
0
  6
CONTINUOUS
 62
       7
  5
85
 10
88.12698206
 20
-329.61162988
 30
0.0
 40
5.02979741
  0
LINE
  8
0
  6
CONTINUOUS
 62
       7
  5
86
 10
88.12698206
 20
-325.77372304
 30
0.0
 11
88.12698206
 21
-333.44953672
 31
0.0
  0
LINE
  8
0
  6
CONTINUOUS
 62
       7
  5
87
 10
91.96488889
 20
-329.61162988
 30
0.0
 11
84.28907522
 21
-329.61162988
 31
0.0
  0
ENDBLK
  8
0
  5
88
  0
BLOCK
  8
0
  5
89
  2
GROUP_12
 70
       0
 10
0.0
 20
0.0
 30
0.0
  3
GROUP_12
  0
LINE
  8
0
  6
CONTINUOUS
 62
       7
  5
8A
 10
120.88102206
 20
68.5028374
 30
0.0
 11
177.66881312
 21
125.29062846
 31
0.0
  0
CIRCLE
  8
0
  6
CONTINUOUS
 62
       7
  5
8B
 10
186.97365057
 20
134.59546591
 30
0.0
 40
13.15902732
  0
TEXT
  8
0
 62
       7
  5
8C
 10
182.17365057
 20
128.59546591
 30
0.0
 40
12.0
  1
1
 41
0.8
 72
       5
 11
191.77365057
 21
128.59546591
 31
0.0
  0
ENDBLK
  8
0
  5
8D
  0
BLOCK
  8
0
  5
8E
  2
GROUP_13
 70
       0
 10
0.0
 20
0.0
 30
0.0
  3
GROUP_13
  0
LINE
  8
0
  6
CONTINUOUS
 62
       7
  5
8F
 10
187.63457686
 20
53.30153284
 30
0.0
 11
247.2223259
 21
124.31544684
 31
0.0
  0
CIRCLE
  8
0
  6
CONTINUOUS
 62
       7
  5
90
 10
255.68078562
 20
134.39584659
 30
0.0
 40
13.15902732
  0
TEXT
  8
0
 62
       7
  5
91
 10
250.88078562
 20
128.39584659
 30
0.0
 40
12.0
  1
2
 41
0.8
 72
       5
 11
260.48078562
 21
128.39584659
 31
0.0
  0
ENDBLK
  8
0
  5
92
  0
ENDSEC
  0
SECTION
  2
ENTITIES
  0
LINE
  8
3
  6
CONTINUOUS
 62
       7
  5
93
 10
181.60426393
 20
78.09648058
 30
0.0
 11
181.60426393
 21
-82.02851942
 31
0.0
  0
LINE
  8
3
  6
CONTINUOUS
 62
       7
  5
94
 10
181.60426393
 20
61.59648058
 30
0.0
 11
236.54176393
 21
61.59648058
 31
0.0
  0
LINE
  8
3
  6
CONTINUOUS
 62
       7
  5
95
 10
236.54176393
 20
61.59648058
 30
0.0
 11
236.54176393
 21
-65.52851942
 31
0.0
  0
LINE
  8
3
  6
CONTINUOUS
 62
       7
  5
96
 10
181.60426393
 20
-65.52851942
 30
0.0
 11
236.54176393
 21
-65.52851942
 31
0.0
  0
LINE
  8
3
  6
CONTINUOUS
 62
       7
  5
97
 10
178.60426393
 20
75.09648058
 30
0.0
 11
178.60426393
 21
-79.02851942
 31
0.0
  0
LINE
  8
3
  6
CONTINUOUS
 62
       7
  5
98
 10
122.16676393
 20
289.97148058
 30
0.0
 11
122.16676393
 21
235.03398058
 31
0.0
  0
LINE
  8
3
  6
CONTINUOUS
 62
       7
  5
99
 10
-168.83323607
 20
235.03398058
 30
0.0
 11
131.16676393
 21
235.03398058
 31
0.0
  0
LINE
  8
3
  6
CONTINUOUS
 62
       7
  5
9A
 10
-130.77073607
 20
-9.46601942
 30
0.0
 11
-121.95823607
 21
-9.46601942
 31
0.0
  0
LINE
  8
3
  6
CONTINUOUS
 62
       7
  5
9B
 10
126.29176393
 20
-82.02851942
 30
0.0
 11
-163.95823607
 21
-82.02851942
 31
0.0
  0
LINE
  8
3
  6
CONTINUOUS
 62
       7
  5
9C
 10
131.16676393
 20
-77.15351942
 30
0.0
 11
131.16676393
 21
73.22148058
 31
0.0
  0
LINE
  8
3
  6
CONTINUOUS
 62
       7
  5
9D
 10
93.10426393
 20
5.53398058
 30
0.0
 11
84.66676393
 21
5.53398058
 31
0.0
  0
LINE
  8
3
  6
CONTINUOUS
 62
       7
  5
9E
 10
126.29176393
 20
78.09648058
 30
0.0
 11
-163.95823607
 21
78.09648058
 31
0.0
  0
LINE
  8
3
  6
CONTINUOUS
 62
       7
  5
9F
 10
93.10426393
 20
-9.46601942
 30
0.0
 11
84.66676393
 21
-9.46601942
 31
0.0
  0
LINE
  8
3
  6
CONTINUOUS
 62
       7
  5
A0
 10
-165.83323607
 20
232.03398058
 30
0.0
 11
128.16676393
 21
232.03398058
 31
0.0
  0
LINE
  8
3
  6
CONTINUOUS
 62
       7
  5
A1
 10
-168.83323607
 20
-77.15351942
 30
0.0
 11
-168.83323607
 21
73.22148058
 31
0.0
  0
LINE
  8
3
  6
CONTINUOUS
 62
       7
  5
A2
 10
-159.83323607
 20
289.97148058
 30
0.0
 11
122.16676393
 21
289.97148058
 31
0.0
  0
LINE
  8
3
  6
CONTINUOUS
 62
       7
  5
A3
 10
-159.83323607
 20
289.97148058
 30
0.0
 11
-159.83323607
 21
235.03398058
 31
0.0
  0
LINE
  8
3
  6
CONTINUOUS
 62
       7
  5
A4
 10
-130.77073607
 20
5.53398058
 30
0.0
 11
-121.95823607
 21
5.53398058
 31
0.0
  0
ARC
  8
3
  6
CONTINUOUS
 62
       7
  5
A5
 10
181.79176393
 20
-78.84101942
 30
0.0
 40
3.1875
 50
183.899997
 51
266.0999984
  0
ARC
  8
3
  6
CONTINUOUS
 62
       7
  5
A6
 10
181.79176393
 20
74.90898058
 30
0.0
 40
3.1875
 50
93.9000016
 51
176.100003
  0
CIRCLE
  8
3
  6
CONTINUOUS
 62
       7
  5
A7
 10
221.54176393
 20
-34.02851942
 30
0.0
 40
2.4375
  0
CIRCLE
  8
3
  6
CONTINUOUS
 62
       7
  5
A8
 10
221.54176393
 20
30.09648058
 30
0.0
 40
2.4375
  0
ARC
  8
3
  6
CONTINUOUS
 62
       7
  5
A9
 10
-163.77073607
 20
73.03398058
 30
0.0
 40
5.0625
 50
92.90000158
 51
177.10000302
  0
ARC
  8
3
  6
CONTINUOUS
 62
       7
  5
AA
 10
-130.77073607
 20
-1.96601942
 30
0.0
 40
7.5
 50
179.99999693
 51
269.99999846
  0
ARC
  8
3
  6
CONTINUOUS
 62
       7
  5
AB
 10
-121.77073607
 20
-107.90351942
 30
0.0
 40
98.4375
 50
67.50000115
 51
90.10000154
  0
ARC
  8
3
  6
CONTINUOUS
 62
       7
  5
AC
 10
-121.77073607
 20
103.97148058
 30
0.0
 40
98.4375
 50
269.89999846
 51
292.49999885
  0
ARC
  8
3
  6
CONTINUOUS
 62
       7
  5
AD
 10
84.47926393
 20
103.97148058
 30
0.0
 40
98.4375
 50
247.49999808
 51
270.09999847
  0
ARC
  8
3
  6
CONTINUOUS
 62
       7
  5
AE
 10
93.10426393
 20
-1.96601942
 30
0.0
 40
7.5
 50
360.0
 51
450.00000154
  0
ARC
  8
3
  6
CONTINUOUS
 62
       7
  5
AF
 10
126.10426393
 20
-76.96601942
 30
0.0
 40
5.0625
 50
272.89999851
 51
357.09999995
  0
ARC
  8
3
  6
CONTINUOUS
 62
       7
  5
B0
 10
126.10426393
 20
73.03398058
 30
0.0
 40
5.0625
 50
2.90000005
 51
87.10000149
  0
ARC
  8
3
  6
CONTINUOUS
 62
       7
  5
B1
 10
-18.64573607
 20
118.22148058
 30
0.0
 40
150.1875
 50
244.19999802
 51
295.7999989
  0
ARC
  8
3
  6
CONTINUOUS
 62
       7
  5
B2
 10
-18.64573607
 20
-122.15351942
 30
0.0
 40
150.1875
 50
64.2000011
 51
115.80000198
  0
ARC
  8
3
  6
CONTINUOUS
 62
       7
  5
B3
 10
-130.77073607
 20
-1.96601942
 30
0.0
 40
7.5
 50
90.00000154
 51
179.99999693
  0
ARC
  8
3
  6
CONTINUOUS
 62
       7
  5
B4
 10
-163.77073607
 20
-76.96601942
 30
0.0
 40
5.0625
 50
182.89999698
 51
267.09999842
  0
ARC
  8
3
  6
CONTINUOUS
 62
       7
  5
B5
 10
-165.64573607
 20
235.22148058
 30
0.0
 40
3.1875
 50
183.899997
 51
266.0999984
  0
ARC
  8
3
  6
CONTINUOUS
 62
       7
  5
B6
 10
127.97926393
 20
235.22148058
 30
0.0
 40
3.1875
 50
273.89999853
 51
356.09999993
  0
ARC
  8
3
  6
CONTINUOUS
 62
       7
  5
B7
 10
84.47926393
 20
-107.90351942
 30
0.0
 40
98.4375
 50
89.90000153
 51
112.50000192
  0
ARC
  8
3
  6
CONTINUOUS
 62
       7
  5
B8
 10
93.10426393
 20
-1.96601942
 30
0.0
 40
7.5
 50
269.99999846
 51
360.0
  0
LINE
  8
6
  6
CENTER
 62
       7
  5
B9
 10
244.97926393
 20
-34.02851942
 30
0.0
 11
215.72926393
 21
-34.02851942
 31
0.0
  0
LINE
  8
6
  6
CENTER
 62
       7
  5
BA
 10
243.66676393
 20
-1.96601942
 30
0.0
 11
161.54176393
 21
-1.96601942
 31
0.0
  0
LINE
  8
6
  6
CENTER
 62
       7
  5
BB
 10
221.54176393
 20
-39.84101942
 30
0.0
 11
221.54176393
 21
-28.96601942
 31
0.0
  0
LINE
  8
6
  6
CENTER
 62
       7
  5
BC
 10
245.16676393
 20
30.09648058
 30
0.0
 11
215.54176393
 21
30.09648058
 31
0.0
  0
LINE
  8
6
  6
CENTER
 62
       7
  5
BD
 10
221.54176393
 20
23.90898058
 30
0.0
 11
221.54176393
 21
35.34648058
 31
0.0
  0
LINE
  8
6
  6
CENTER
 62
       7
  5
BE
 10
-18.83323607
 20
-88.21601942
 30
0.0
 11
-18.83323607
 21
96.28398058
 31
0.0
  0
LINE
  8
6
  6
CENTER
 62
       7
  5
BF
 10
-18.83323607
 20
299.53398058
 30
0.0
 11
-18.83323607
 21
219.65898058
 31
0.0
  0
LINE
  8
6
  6
CENTER
 62
       7
  5
C0
 10
136.04176393
 20
-1.96601942
 30
0.0
 11
-152.89573607
 21
-1.96601942
 31
0.0
  0
LINE
  8
6
  6
CENTER
 62
       7
  5
C1
 10
-168.83323607
 20
274.97148058
 30
0.0
 11
-152.52073607
 21
274.97148058
 31
0.0
  0
LINE
  8
6
  6
CENTER
 62
       7
  5
C2
 10
131.16676393
 20
274.97148058
 30
0.0
 11
114.85426393
 21
274.97148058
 31
0.0
  0
LINE
  8
18
  6
CONTINUOUS
 62
       7
  5
C3
 10
131.16676393
 20
232.03398058
 30
0.0
 11
160.79176393
 21
232.03398058
 31
0.0
  0
LINE
  8
0
  6
CONTINUOUS
 62
       7
  5
C4
 10
-169.87781536
 20
-415.67412988
 30
0.0
 11
-168.19031536
 21
-410.98662988
 31
0.0
  0
LINE
  8
0
  6
CONTINUOUS
 62
       7
  5
C5
 10
-182.36531536
 20
-415.67412988
 30
0.0
 11
-179.74031536
 21
-408.54912988
 31
0.0
  0
LINE
  8
0
  6
CONTINUOUS
 62
       7
  5
C6
 10
-184.80281536
 20
-405.92412988
 30
0.0
 11
-185.74031536
 21
-408.54912988
 31
0.0
  0
LINE
  8
0
  6
CONTINUOUS
 62
       7
  5
C7
 10
-176.17781536
 20
-415.67412988
 30
0.0
 11
-173.36531536
 21
-407.42412988
 31
0.0
  0
LINE
  8
0
  6
CONTINUOUS
 62
       7
  5
C8
 10
-136.84031536
 20
-415.67412988
 30
0.0
 11
-140.02781536
 21
-410.42412988
 31
0.0
  0
LINE
  8
0
  6
CONTINUOUS
 62
       7
  5
C9
 10
-184.80281536
 20
-405.92412988
 30
0.0
 11
-181.24031536
 21
-405.92412988
 31
0.0
  0
LINE
  8
0
  6
CONTINUOUS
 62
       7
  5
CA
 10
-165.75281536
 20
-404.23662988
 30
0.0
 11
-159.56531536
 21
-404.23662988
 31
0.0
  0
LINE
  8
0
  6
CONTINUOUS
 62
       7
  5
CB
 10
-152.44031536
 20
-403.67412988
 30
0.0
 11
-150.56531536
 21
-403.67412988
 31
0.0
  0
LINE
  8
0
  6
CONTINUOUS
 62
       7
  5
CC
 10
-164.44031536
 20
-400.86162988
 30
0.0
 11
-165.75281536
 21
-404.23662988
 31
0.0
  0
LINE
  8
0
  6
CONTINUOUS
 62
       7
  5
CD
 10
-158.44031536
 20
-400.86162988
 30
0.0
 11
-159.56531536
 21
-404.23662988
 31
0.0
  0
LINE
  8
0
  6
CONTINUOUS
 62
       7
  5
CE
 10
-182.36531536
 20
-415.67412988
 30
0.0
 11
-176.17781536
 21
-415.67412988
 31
0.0
  0
LINE
  8
0
  6
CONTINUOUS
 62
       7
  5
CF
 10
-172.80281536
 20
-400.86162988
 30
0.0
 11
-165.86531536
 21
-400.86162988
 31
0.0
  0
LINE
  8
0
  6
CONTINUOUS
 62
       7
  5
D0
 10
-142.21803844
 20
-404.23662988
 30
0.0
 11
-148.84031536
 21
-404.23662988
 31
0.0
  0
LINE
  8
0
  6
CONTINUOUS
 62
       7
  5
D1
 10
-134.96531536
 20
-400.86162988
 30
0.0
 11
-147.71531536
 21
-400.86162988
 31
0.0
  0
LINE
  8
0
  6
CONTINUOUS
 62
       7
  5
D2
 10
-185.74031536
 20
-408.54912988
 30
0.0
 11
-179.74031536
 21
-408.54912988
 31
0.0
  0
LINE
  8
0
  6
CONTINUOUS
 62
       7
  5
D3
 10
-169.87781536
 20
-415.67412988
 30
0.0
 11
-159.94031536
 21
-415.67412988
 31
0.0
  0
LINE
  8
0
  6
CONTINUOUS
 62
       7
  5
D4
 10
-168.19031536
 20
-410.98662988
 30
0.0
 11
-159.19031536
 21
-410.98662988
 31
0.0
  0
LINE
  8
0
  6
CONTINUOUS
 62
       7
  5
D5
 10
-136.84031536
 20
-415.67412988
 30
0.0
 11
-141.52781536
 21
-415.67412988
 31
0.0
  0
LINE
  8
0
  6
CONTINUOUS
 62
       7
  5
D6
 10
-148.84031536
 20
-404.23662988
 30
0.0
 11
-147.71531536
 21
-400.86162988
 31
0.0
  0
LINE
  8
0
  6
CONTINUOUS
 62
       7
  5
D7
 10
-214.05281536
 20
-400.86162988
 30
0.0
 11
-217.24031536
 21
-409.86162988
 31
0.0
  0
LINE
  8
0
  6
CONTINUOUS
 62
       7
  5
D8
 10
-217.24031536
 20
-409.86162988
 30
0.0
 11
-212.92781536
 21
-409.86162988
 31
0.0
  0
LINE
  8
0
  6
CONTINUOUS
 62
       7
  5
D9
 10
-212.92781536
 20
-409.86162988
 30
0.0
 11
-209.55281536
 21
-400.86162988
 31
0.0
  0
LINE
  8
0
  6
CONTINUOUS
 62
       7
  5
DA
 10
-209.55281536
 20
-400.86162988
 30
0.0
 11
-214.05281536
 21
-400.86162988
 31
0.0
  0
LINE
  8
0
  6
CONTINUOUS
 62
       7
  5
DB
 10
-156.94031536
 20
-409.86162988
 30
0.0
 11
-154.87781536
 21
-408.17412988
 31
0.0
  0
LINE
  8
0
  6
CONTINUOUS
 62
       7
  5
DC
 10
-154.87781536
 20
-408.17412988
 30
0.0
 11
-153.37781536
 21
-406.11162988
 31
0.0
  0
LINE
  8
0
  6
CONTINUOUS
 62
       7
  5
DD
 10
-153.37781536
 20
-406.11162988
 30
0.0
 11
-152.44031536
 21
-403.67412988
 31
0.0
  0
LINE
  8
0
  6
CONTINUOUS
 62
       7
  5
DE
 10
-198.64031536
 20
-400.86162988
 30
0.0
 11
-184.95281536
 21
-400.86162988
 31
0.0
  0
LINE
  8
0
  6
CONTINUOUS
 62
       7
  5
DF
 10
-184.95281536
 20
-400.86162988
 30
0.0
 11
-186.07781536
 21
-404.23662988
 31
0.0
  0
LINE
  8
0
  6
CONTINUOUS
 62
       7
  5
E0
 10
-184.95281536
 20
-400.86162988
 30
0.0
 11
-186.07781536
 21
-404.23662988
 31
0.0
  0
LINE
  8
0
  6
CONTINUOUS
 62
       7
  5
E1
 10
-186.07781536
 20
-404.23662988
 30
0.0
 11
-199.76531536
 21
-404.23662988
 31
0.0
  0
LINE
  8
0
  6
CONTINUOUS
 62
       7
  5
E2
 10
-199.76531536
 20
-404.23662988
 30
0.0
 11
-198.64031536
 21
-400.86162988
 31
0.0
  0
LINE
  8
0
  6
CONTINUOUS
 62
       7
  5
E3
 10
-199.76531536
 20
-404.23662988
 30
0.0
 11
-198.64031536
 21
-400.86162988
 31
0.0
  0
LINE
  8
0
  6
CONTINUOUS
 62
       7
  5
E4
 10
-184.95281536
 20
-400.86162988
 30
0.0
 11
-198.64031536
 21
-400.86162988
 31
0.0
  0
LINE
  8
0
  6
CONTINUOUS
 62
       7
  5
E5
 10
-198.64031536
 20
-400.86162988
 30
0.0
 11
-199.76531536
 21
-404.23662988
 31
0.0
  0
LINE
  8
0
  6
CONTINUOUS
 62
       7
  5
E6
 10
-199.76531536
 20
-404.23662988
 30
0.0
 11
-186.07781536
 21
-404.23662988
 31
0.0
  0
LINE
  8
0
  6
CONTINUOUS
 62
       7
  5
E7
 10
-192.82781536
 20
-415.29912988
 30
0.0
 11
-191.32781536
 21
-414.54912988
 31
0.0
  0
LINE
  8
0
  6
CONTINUOUS
 62
       7
  5
E8
 10
-191.32781536
 20
-414.54912988
 30
0.0
 11
-190.20281536
 21
-413.42412988
 31
0.0
  0
LINE
  8
0
  6
CONTINUOUS
 62
       7
  5
E9
 10
-190.20281536
 20
-413.42412988
 30
0.0
 11
-188.89031536
 21
-412.11162988
 31
0.0
  0
LINE
  8
0
  6
CONTINUOUS
 62
       7
  5
EA
 10
-188.89031536
 20
-412.11162988
 30
0.0
 11
-186.64031536
 21
-405.92412988
 31
0.0
  0
LINE
  8
0
  6
CONTINUOUS
 62
       7
  5
EB
 10
-186.64031536
 20
-405.92412988
 30
0.0
 11
-200.14031536
 21
-405.92412988
 31
0.0
  0
LINE
  8
0
  6
CONTINUOUS
 62
       7
  5
EC
 10
-200.14031536
 20
-405.92412988
 30
0.0
 11
-200.89031536
 21
-408.54912988
 31
0.0
  0
LINE
  8
0
  6
CONTINUOUS
 62
       7
  5
ED
 10
-200.89031536
 20
-408.54912988
 30
0.0
 11
-193.01531536
 21
-408.54912988
 31
0.0
  0
LINE
  8
0
  6
CONTINUOUS
 62
       7
  5
EE
 10
-193.01531536
 20
-408.54912988
 30
0.0
 11
-193.39031536
 21
-409.86162988
 31
0.0
  0
LINE
  8
0
  6
CONTINUOUS
 62
       7
  5
EF
 10
-193.39031536
 20
-409.86162988
 30
0.0
 11
-194.32781536
 21
-410.98662988
 31
0.0
  0
LINE
  8
0
  6
CONTINUOUS
 62
       7
  5
F0
 10
-194.32781536
 20
-410.98662988
 30
0.0
 11
-195.26531536
 21
-411.92412988
 31
0.0
  0
LINE
  8
0
  6
CONTINUOUS
 62
       7
  5
F1
 10
-195.26531536
 20
-411.92412988
 30
0.0
 11
-196.57781536
 21
-412.86162988
 31
0.0
  0
LINE
  8
0
  6
CONTINUOUS
 62
       7
  5
F2
 10
-196.57781536
 20
-412.86162988
 30
0.0
 11
-202.76531536
 21
-412.86162988
 31
0.0
  0
LINE
  8
0
  6
CONTINUOUS
 62
       7
  5
F3
 10
-202.76531536
 20
-412.86162988
 30
0.0
 11
-203.89031536
 21
-415.67412988
 31
0.0
  0
LINE
  8
0
  6
CONTINUOUS
 62
       7
  5
F4
 10
-215.92781536
 20
-415.67412988
 30
0.0
 11
-214.99031536
 21
-412.86162988
 31
0.0
  0
LINE
  8
0
  6
CONTINUOUS
 62
       7
  5
F5
 10
-214.99031536
 20
-412.86162988
 30
0.0
 11
-213.30281536
 21
-412.86162988
 31
0.0
  0
LINE
  8
0
  6
CONTINUOUS
 62
       7
  5
F6
 10
-213.30281536
 20
-412.86162988
 30
0.0
 11
-211.80281536
 21
-412.67412988
 31
0.0
  0
LINE
  8
0
  6
CONTINUOUS
 62
       7
  5
F7
 10
-211.80281536
 20
-412.67412988
 30
0.0
 11
-210.30281536
 21
-411.92412988
 31
0.0
  0
LINE
  8
0
  6
CONTINUOUS
 62
       7
  5
F8
 10
-210.30281536
 20
-411.92412988
 30
0.0
 11
-209.36531536
 21
-410.42412988
 31
0.0
  0
LINE
  8
0
  6
CONTINUOUS
 62
       7
  5
F9
 10
-209.36531536
 20
-410.42412988
 30
0.0
 11
-205.80281536
 21
-400.86162988
 31
0.0
  0
LINE
  8
0
  6
CONTINUOUS
 62
       7
  5
FA
 10
-205.80281536
 20
-400.86162988
 30
0.0
 11
-200.74031536
 21
-400.86162988
 31
0.0
  0
LINE
  8
0
  6
CONTINUOUS
 62
       7
  5
FB
 10
-200.74031536
 20
-400.86162988
 30
0.0
 11
-204.49031536
 21
-411.92412988
 31
0.0
  0
LINE
  8
0
  6
CONTINUOUS
 62
       7
  5
FC
 10
-204.49031536
 20
-411.92412988
 30
0.0
 11
-205.99031536
 21
-413.42412988
 31
0.0
  0
LINE
  8
0
  6
CONTINUOUS
 62
       7
  5
FD
 10
-205.99031536
 20
-413.42412988
 30
0.0
 11
-207.49031536
 21
-414.73662988
 31
0.0
  0
LINE
  8
0
  6
CONTINUOUS
 62
       7
  5
FE
 10
-207.49031536
 20
-414.73662988
 30
0.0
 11
-209.36531536
 21
-415.48662988
 31
0.0
  0
LINE
  8
0
  6
CONTINUOUS
 62
       7
  5
FF
 10
-165.86531536
 20
-400.86162988
 30
0.0
 11
-166.99031536
 21
-403.29912988
 31
0.0
  0
LINE
  8
0
  6
CONTINUOUS
 62
       7
  5
100
 10
-166.99031536
 20
-403.29912988
 30
0.0
 11
-168.86531536
 21
-405.17412988
 31
0.0
  0
LINE
  8
0
  6
CONTINUOUS
 62
       7
  5
101
 10
-166.99031536
 20
-403.29912988
 30
0.0
 11
-168.86531536
 21
-405.17412988
 31
0.0
  0
LINE
  8
0
  6
CONTINUOUS
 62
       7
  5
102
 10
-168.86531536
 20
-405.17412988
 30
0.0
 11
-170.92781536
 21
-406.67412988
 31
0.0
  0
LINE
  8
0
  6
CONTINUOUS
 62
       7
  5
103
 10
-170.92781536
 20
-406.67412988
 30
0.0
 11
-173.36531536
 21
-407.42412988
 31
0.0
  0
LINE
  8
0
  6
CONTINUOUS
 62
       7
  5
104
 10
-170.92781536
 20
-406.67412988
 30
0.0
 11
-173.36531536
 21
-407.42412988
 31
0.0
  0
LINE
  8
0
  6
CONTINUOUS
 62
       7
  5
105
 10
-173.36531536
 20
-407.42412988
 30
0.0
 11
-176.17781536
 21
-415.67412988
 31
0.0
  0
LINE
  8
0
  6
CONTINUOUS
 62
       7
  5
106
 10
-176.17781536
 20
-415.67412988
 30
0.0
 11
-182.36531536
 21
-415.67412988
 31
0.0
  0
LINE
  8
0
  6
CONTINUOUS
 62
       7
  5
107
 10
-176.17781536
 20
-415.67412988
 30
0.0
 11
-182.36531536
 21
-415.67412988
 31
0.0
  0
LINE
  8
0
  6
CONTINUOUS
 62
       7
  5
108
 10
-180.04031536
 20
-408.54912988
 30
0.0
 11
-185.74031536
 21
-408.54912988
 31
0.0
  0
LINE
  8
0
  6
CONTINUOUS
 62
       7
  5
109
 10
-185.74031536
 20
-408.54912988
 30
0.0
 11
-184.80281536
 21
-405.92412988
 31
0.0
  0
LINE
  8
0
  6
CONTINUOUS
 62
       7
  5
10A
 10
-182.36531536
 20
-415.67412988
 30
0.0
 11
-179.74031536
 21
-408.54912988
 31
0.0
  0
LINE
  8
0
  6
CONTINUOUS
 62
       7
  5
10B
 10
-182.36531536
 20
-415.67412988
 30
0.0
 11
-179.74031536
 21
-408.54912988
 31
0.0
  0
LINE
  8
0
  6
CONTINUOUS
 62
       7
  5
10C
 10
-184.80281536
 20
-405.92412988
 30
0.0
 11
-181.24031536
 21
-405.92412988
 31
0.0
  0
LINE
  8
0
  6
CONTINUOUS
 62
       7
  5
10D
 10
-184.80281536
 20
-405.92412988
 30
0.0
 11
-181.24031536
 21
-405.92412988
 31
0.0
  0
LINE
  8
0
  6
CONTINUOUS
 62
       7
  5
10E
 10
-181.24031536
 20
-405.92412988
 30
0.0
 11
-178.80281536
 21
-405.73662988
 31
0.0
  0
LINE
  8
0
  6
CONTINUOUS
 62
       7
  5
10F
 10
-181.24031536
 20
-405.92412988
 30
0.0
 11
-178.80281536
 21
-405.73662988
 31
0.0
  0
LINE
  8
0
  6
CONTINUOUS
 62
       7
  5
110
 10
-178.80281536
 20
-405.73662988
 30
0.0
 11
-176.17781536
 21
-404.61162988
 31
0.0
  0
LINE
  8
0
  6
CONTINUOUS
 62
       7
  5
111
 10
-178.80281536
 20
-405.73662988
 30
0.0
 11
-176.17781536
 21
-404.61162988
 31
0.0
  0
LINE
  8
0
  6
CONTINUOUS
 62
       7
  5
112
 10
-176.17781536
 20
-404.61162988
 30
0.0
 11
-174.30281536
 21
-402.92412988
 31
0.0
  0
LINE
  8
0
  6
CONTINUOUS
 62
       7
  5
113
 10
-176.17781536
 20
-404.61162988
 30
0.0
 11
-174.30281536
 21
-402.92412988
 31
0.0
  0
LINE
  8
0
  6
CONTINUOUS
 62
       7
  5
114
 10
-209.55281536
 20
-400.86162988
 30
0.0
 11
-212.92781536
 21
-409.86162988
 31
0.0
  0
LINE
  8
0
  6
CONTINUOUS
 62
       7
  5
115
 10
-212.92781536
 20
-409.86162988
 30
0.0
 11
-217.24031536
 21
-409.86162988
 31
0.0
  0
LINE
  8
0
  6
CONTINUOUS
 62
       7
  5
116
 10
-212.92781536
 20
-409.86162988
 30
0.0
 11
-217.24031536
 21
-409.86162988
 31
0.0
  0
LINE
  8
0
  6
CONTINUOUS
 62
       7
  5
117
 10
-217.24031536
 20
-409.86162988
 30
0.0
 11
-214.05281536
 21
-400.86162988
 31
0.0
  0
LINE
  8
0
  6
CONTINUOUS
 62
       7
  5
118
 10
-214.05281536
 20
-400.86162988
 30
0.0
 11
-209.55281536
 21
-400.86162988
 31
0.0
  0
LINE
  8
0
  6
CONTINUOUS
 62
       7
  5
119
 10
-214.05281536
 20
-400.86162988
 30
0.0
 11
-209.55281536
 21
-400.86162988
 31
0.0
  0
LINE
  8
0
  6
CONTINUOUS
 62
       7
  5
11A
 10
-147.71531536
 20
-400.86162988
 30
0.0
 11
-148.84031536
 21
-404.23662988
 31
0.0
  0
LINE
  8
0
  6
CONTINUOUS
 62
       7
  5
11B
 10
-148.84031536
 20
-404.23662988
 30
0.0
 11
-142.84031536
 21
-404.23662988
 31
0.0
  0
LINE
  8
0
  6
CONTINUOUS
 62
       7
  5
11C
 10
-148.84031536
 20
-404.23662988
 30
0.0
 11
-142.84031536
 21
-404.23662988
 31
0.0
  0
LINE
  8
0
  6
CONTINUOUS
 62
       7
  5
11D
 10
-152.96531536
 20
-412.67412988
 30
0.0
 11
-154.09031536
 21
-415.86162988
 31
0.0
  0
LINE
  8
0
  6
CONTINUOUS
 62
       7
  5
11E
 10
-152.96531536
 20
-412.67412988
 30
0.0
 11
-154.09031536
 21
-415.86162988
 31
0.0
  0
LINE
  8
0
  6
CONTINUOUS
 62
       7
  5
11F
 10
-154.09031536
 20
-415.86162988
 30
0.0
 11
-148.46531536
 21
-414.92412988
 31
0.0
  0
LINE
  8
0
  6
CONTINUOUS
 62
       7
  5
120
 10
-148.46531536
 20
-414.92412988
 30
0.0
 11
-145.84031536
 21
-414.17412988
 31
0.0
  0
LINE
  8
0
  6
CONTINUOUS
 62
       7
  5
121
 10
-148.46531536
 20
-414.92412988
 30
0.0
 11
-145.84031536
 21
-414.17412988
 31
0.0
  0
LINE
  8
0
  6
CONTINUOUS
 62
       7
  5
122
 10
-143.02781536
 20
-413.23662988
 30
0.0
 11
-141.52781536
 21
-415.67412988
 31
0.0
  0
LINE
  8
0
  6
CONTINUOUS
 62
       7
  5
123
 10
-141.52781536
 20
-415.67412988
 30
0.0
 11
-136.84031536
 21
-415.67412988
 31
0.0
  0
LINE
  8
0
  6
CONTINUOUS
 62
       7
  5
124
 10
-141.52781536
 20
-415.67412988
 30
0.0
 11
-136.84031536
 21
-415.67412988
 31
0.0
  0
LINE
  8
0
  6
CONTINUOUS
 62
       7
  5
125
 10
-140.02781536
 20
-410.42412988
 30
0.0
 11
-138.34031536
 21
-408.17412988
 31
0.0
  0
LINE
  8
0
  6
CONTINUOUS
 62
       7
  5
126
 10
-138.34031536
 20
-408.17412988
 30
0.0
 11
-136.84031536
 21
-405.92412988
 31
0.0
  0
LINE
  8
0
  6
CONTINUOUS
 62
       7
  5
127
 10
-136.84031536
 20
-405.92412988
 30
0.0
 11
-135.71531536
 21
-403.48662988
 31
0.0
  0
LINE
  8
0
  6
CONTINUOUS
 62
       7
  5
128
 10
-135.71531536
 20
-403.48662988
 30
0.0
 11
-134.96531536
 21
-400.86162988
 31
0.0
  0
LINE
  8
0
  6
CONTINUOUS
 62
       7
  5
129
 10
-135.71531536
 20
-403.48662988
 30
0.0
 11
-134.96531536
 21
-400.86162988
 31
0.0
  0
LINE
  8
0
  6
CONTINUOUS
 62
       7
  5
12A
 10
-134.96531536
 20
-400.86162988
 30
0.0
 11
-147.71531536
 21
-400.86162988
 31
0.0
  0
LINE
  8
0
  6
CONTINUOUS
 62
       7
  5
12B
 10
-146.40281536
 20
-410.23662988
 30
0.0
 11
-149.40281536
 21
-411.92412988
 31
0.0
  0
LINE
  8
0
  6
CONTINUOUS
 62
       7
  5
12C
 10
-145.84031536
 20
-414.17412988
 30
0.0
 11
-143.02781536
 21
-413.23662988
 31
0.0
  0
LINE
  8
0
  6
CONTINUOUS
 62
       7
  5
12D
 10
-145.84031536
 20
-414.17412988
 30
0.0
 11
-143.02781536
 21
-413.23662988
 31
0.0
  0
LINE
  8
0
  6
CONTINUOUS
 62
       7
  5
12E
 10
-136.84031536
 20
-415.67412988
 30
0.0
 11
-140.02781536
 21
-410.42412988
 31
0.0
  0
LINE
  8
0
  6
CONTINUOUS
 62
       7
  5
12F
 10
-136.84031536
 20
-415.67412988
 30
0.0
 11
-140.02781536
 21
-410.42412988
 31
0.0
  0
LINE
  8
0
  6
CONTINUOUS
 62
       7
  5
130
 10
-143.96531536
 20
-407.42412988
 30
0.0
 11
-146.40281536
 21
-410.23662988
 31
0.0
  0
LINE
  8
0
  6
CONTINUOUS
 62
       7
  5
131
 10
-143.96531536
 20
-407.42412988
 30
0.0
 11
-146.40281536
 21
-410.23662988
 31
0.0
  0
LINE
  8
0
  6
CONTINUOUS
 62
       7
  5
132
 10
-181.24031536
 20
-405.92412988
 30
0.0
 11
-178.80281536
 21
-405.73662988
 31
0.0
  0
LINE
  8
0
  6
CONTINUOUS
 62
       7
  5
133
 10
-178.80281536
 20
-405.73662988
 30
0.0
 11
-176.17781536
 21
-404.61162988
 31
0.0
  0
LINE
  8
0
  6
CONTINUOUS
 62
       7
  5
134
 10
-176.17781536
 20
-404.61162988
 30
0.0
 11
-174.30281536
 21
-402.92412988
 31
0.0
  0
LINE
  8
0
  6
CONTINUOUS
 62
       7
  5
135
 10
-174.30281536
 20
-402.92412988
 30
0.0
 11
-172.80281536
 21
-400.86162988
 31
0.0
  0
LINE
  8
0
  6
CONTINUOUS
 62
       7
  5
136
 10
-159.94031536
 20
-415.67412988
 30
0.0
 11
-156.56531536
 21
-414.17412988
 31
0.0
  0
LINE
  8
0
  6
CONTINUOUS
 62
       7
  5
137
 10
-156.56531536
 20
-414.17412988
 30
0.0
 11
-153.56531536
 21
-411.36162988
 31
0.0
  0
LINE
  8
0
  6
CONTINUOUS
 62
       7
  5
138
 10
-153.56531536
 20
-411.36162988
 30
0.0
 11
-151.31531536
 21
-407.61162988
 31
0.0
  0
LINE
  8
0
  6
CONTINUOUS
 62
       7
  5
139
 10
-151.31531536
 20
-407.61162988
 30
0.0
 11
-150.56531536
 21
-403.67412988
 31
0.0
  0
LINE
  8
0
  6
CONTINUOUS
 62
       7
  5
13A
 10
-152.96531536
 20
-412.67412988
 30
0.0
 11
-149.40281536
 21
-411.92412988
 31
0.0
  0
LINE
  8
0
  6
CONTINUOUS
 62
       7
  5
13B
 10
-149.40281536
 20
-411.92412988
 30
0.0
 11
-146.40281536
 21
-410.23662988
 31
0.0
  0
LINE
  8
0
  6
CONTINUOUS
 62
       7
  5
13C
 10
-146.40281536
 20
-410.23662988
 30
0.0
 11
-143.96531536
 21
-407.42412988
 31
0.0
  0
LINE
  8
0
  6
CONTINUOUS
 62
       7
  5
13D
 10
-173.36531536
 20
-407.42412988
 30
0.0
 11
-170.92781536
 21
-406.67412988
 31
0.0
  0
LINE
  8
0
  6
CONTINUOUS
 62
       7
  5
13E
 10
-170.92781536
 20
-406.67412988
 30
0.0
 11
-168.86531536
 21
-405.17412988
 31
0.0
  0
LINE
  8
0
  6
CONTINUOUS
 62
       7
  5
13F
 10
-168.86531536
 20
-405.17412988
 30
0.0
 11
-166.99031536
 21
-403.29912988
 31
0.0
  0
LINE
  8
0
  6
CONTINUOUS
 62
       7
  5
140
 10
-166.99031536
 20
-403.29912988
 30
0.0
 11
-165.86531536
 21
-400.86162988
 31
0.0
  0
LINE
  8
0
  6
CONTINUOUS
 62
       7
  5
141
 10
-140.02781536
 20
-410.42412988
 30
0.0
 11
-138.34031536
 21
-408.17412988
 31
0.0
  0
LINE
  8
0
  6
CONTINUOUS
 62
       7
  5
142
 10
-138.34031536
 20
-408.17412988
 30
0.0
 11
-136.84031536
 21
-405.92412988
 31
0.0
  0
LINE
  8
0
  6
CONTINUOUS
 62
       7
  5
143
 10
-136.84031536
 20
-405.92412988
 30
0.0
 11
-135.71531536
 21
-403.48662988
 31
0.0
  0
LINE
  8
0
  6
CONTINUOUS
 62
       7
  5
144
 10
-135.71531536
 20
-403.48662988
 30
0.0
 11
-134.96531536
 21
-400.86162988
 31
0.0
  0
LINE
  8
0
  6
CONTINUOUS
 62
       7
  5
145
 10
-148.46531536
 20
-414.92412988
 30
0.0
 11
-145.84031536
 21
-414.17412988
 31
0.0
  0
LINE
  8
0
  6
CONTINUOUS
 62
       7
  5
146
 10
-145.84031536
 20
-414.17412988
 30
0.0
 11
-143.02781536
 21
-413.23662988
 31
0.0
  0
LINE
  8
0
  6
CONTINUOUS
 62
       7
  5
147
 10
-153.37781536
 20
-406.11162988
 30
0.0
 11
-152.44031536
 21
-403.67412988
 31
0.0
  0
LINE
  8
0
  6
CONTINUOUS
 62
       7
  5
148
 10
-152.44031536
 20
-403.67412988
 30
0.0
 11
-150.56531536
 21
-403.67412988
 31
0.0
  0
LINE
  8
0
  6
CONTINUOUS
 62
       7
  5
149
 10
-152.44031536
 20
-403.67412988
 30
0.0
 11
-150.56531536
 21
-403.67412988
 31
0.0
  0
LINE
  8
0
  6
CONTINUOUS
 62
       7
  5
14A
 10
-150.56531536
 20
-403.67412988
 30
0.0
 11
-151.31531536
 21
-407.61162988
 31
0.0
  0
LINE
  8
0
  6
CONTINUOUS
 62
       7
  5
14B
 10
-151.31531536
 20
-407.61162988
 30
0.0
 11
-153.56531536
 21
-411.36162988
 31
0.0
  0
LINE
  8
0
  6
CONTINUOUS
 62
       7
  5
14C
 10
-151.31531536
 20
-407.61162988
 30
0.0
 11
-153.56531536
 21
-411.36162988
 31
0.0
  0
LINE
  8
0
  6
CONTINUOUS
 62
       7
  5
14D
 10
-153.56531536
 20
-411.36162988
 30
0.0
 11
-156.56531536
 21
-414.17412988
 31
0.0
  0
LINE
  8
0
  6
CONTINUOUS
 62
       7
  5
14E
 10
-160.31531536
 20
-415.67412988
 30
0.0
 11
-169.87781536
 21
-415.67412988
 31
0.0
  0
LINE
  8
0
  6
CONTINUOUS
 62
       7
  5
14F
 10
-169.87781536
 20
-415.67412988
 30
0.0
 11
-168.19031536
 21
-410.98662988
 31
0.0
  0
LINE
  8
0
  6
CONTINUOUS
 62
       7
  5
150
 10
-169.87781536
 20
-415.67412988
 30
0.0
 11
-168.19031536
 21
-410.98662988
 31
0.0
  0
LINE
  8
0
  6
CONTINUOUS
 62
       7
  5
151
 10
-154.87781536
 20
-408.17412988
 30
0.0
 11
-153.37781536
 21
-406.11162988
 31
0.0
  0
LINE
  8
0
  6
CONTINUOUS
 62
       7
  5
152
 10
-168.19031536
 20
-410.98662988
 30
0.0
 11
-159.19031536
 21
-410.98662988
 31
0.0
  0
LINE
  8
0
  6
CONTINUOUS
 62
       7
  5
153
 10
-168.19031536
 20
-410.98662988
 30
0.0
 11
-159.19031536
 21
-410.98662988
 31
0.0
  0
LINE
  8
0
  6
CONTINUOUS
 62
       7
  5
154
 10
-159.19031536
 20
-410.98662988
 30
0.0
 11
-156.94031536
 21
-409.86162988
 31
0.0
  0
LINE
  8
0
  6
CONTINUOUS
 62
       7
  5
155
 10
-159.19031536
 20
-410.98662988
 30
0.0
 11
-156.94031536
 21
-409.86162988
 31
0.0
  0
LINE
  8
0
  6
CONTINUOUS
 62
       7
  5
156
 10
-156.94031536
 20
-409.86162988
 30
0.0
 11
-154.87781536
 21
-408.17412988
 31
0.0
  0
LINE
  8
0
  6
CONTINUOUS
 62
       7
  5
157
 10
-186.64031536
 20
-405.92412988
 30
0.0
 11
-188.89031536
 21
-412.11162988
 31
0.0
  0
LINE
  8
0
  6
CONTINUOUS
 62
       7
  5
158
 10
-188.89031536
 20
-412.11162988
 30
0.0
 11
-190.20281536
 21
-413.42412988
 31
0.0
  0
LINE
  8
0
  6
CONTINUOUS
 62
       7
  5
159
 10
-188.89031536
 20
-412.11162988
 30
0.0
 11
-190.20281536
 21
-413.42412988
 31
0.0
  0
LINE
  8
0
  6
CONTINUOUS
 62
       7
  5
15A
 10
-190.20281536
 20
-413.42412988
 30
0.0
 11
-191.32781536
 21
-414.54912988
 31
0.0
  0
LINE
  8
0
  6
CONTINUOUS
 62
       7
  5
15B
 10
-191.32781536
 20
-414.54912988
 30
0.0
 11
-192.82781536
 21
-415.29912988
 31
0.0
  0
LINE
  8
0
  6
CONTINUOUS
 62
       7
  5
15C
 10
-191.32781536
 20
-414.54912988
 30
0.0
 11
-192.82781536
 21
-415.29912988
 31
0.0
  0
LINE
  8
0
  6
CONTINUOUS
 62
       7
  5
15D
 10
-192.82781536
 20
-415.29912988
 30
0.0
 11
-194.32781536
 21
-415.67412988
 31
0.0
  0
LINE
  8
0
  6
CONTINUOUS
 62
       7
  5
15E
 10
-194.32781536
 20
-415.67412988
 30
0.0
 11
-203.89031536
 21
-415.67412988
 31
0.0
  0
LINE
  8
0
  6
CONTINUOUS
 62
       7
  5
15F
 10
-194.32781536
 20
-415.67412988
 30
0.0
 11
-203.89031536
 21
-415.67412988
 31
0.0
  0
LINE
  8
0
  6
CONTINUOUS
 62
       7
  5
160
 10
-203.89031536
 20
-415.67412988
 30
0.0
 11
-202.76531536
 21
-412.86162988
 31
0.0
  0
LINE
  8
0
  6
CONTINUOUS
 62
       7
  5
161
 10
-202.76531536
 20
-412.86162988
 30
0.0
 11
-196.57781536
 21
-412.86162988
 31
0.0
  0
LINE
  8
0
  6
CONTINUOUS
 62
       7
  5
162
 10
-202.76531536
 20
-412.86162988
 30
0.0
 11
-196.57781536
 21
-412.86162988
 31
0.0
  0
LINE
  8
0
  6
CONTINUOUS
 62
       7
  5
163
 10
-193.01531536
 20
-408.54912988
 30
0.0
 11
-200.89031536
 21
-408.54912988
 31
0.0
  0
LINE
  8
0
  6
CONTINUOUS
 62
       7
  5
164
 10
-200.89031536
 20
-408.54912988
 30
0.0
 11
-200.14031536
 21
-405.92412988
 31
0.0
  0
LINE
  8
0
  6
CONTINUOUS
 62
       7
  5
165
 10
-200.89031536
 20
-408.54912988
 30
0.0
 11
-200.14031536
 21
-405.92412988
 31
0.0
  0
LINE
  8
0
  6
CONTINUOUS
 62
       7
  5
166
 10
-196.57781536
 20
-412.86162988
 30
0.0
 11
-195.26531536
 21
-411.92412988
 31
0.0
  0
LINE
  8
0
  6
CONTINUOUS
 62
       7
  5
167
 10
-196.57781536
 20
-412.86162988
 30
0.0
 11
-195.26531536
 21
-411.92412988
 31
0.0
  0
LINE
  8
0
  6
CONTINUOUS
 62
       7
  5
168
 10
-195.26531536
 20
-411.92412988
 30
0.0
 11
-194.32781536
 21
-410.98662988
 31
0.0
  0
LINE
  8
0
  6
CONTINUOUS
 62
       7
  5
169
 10
-195.26531536
 20
-411.92412988
 30
0.0
 11
-194.32781536
 21
-410.98662988
 31
0.0
  0
LINE
  8
0
  6
CONTINUOUS
 62
       7
  5
16A
 10
-194.32781536
 20
-410.98662988
 30
0.0
 11
-193.39031536
 21
-409.86162988
 31
0.0
  0
LINE
  8
0
  6
CONTINUOUS
 62
       7
  5
16B
 10
-194.32781536
 20
-410.98662988
 30
0.0
 11
-193.39031536
 21
-409.86162988
 31
0.0
  0
LINE
  8
0
  6
CONTINUOUS
 62
       7
  5
16C
 10
-193.39031536
 20
-409.86162988
 30
0.0
 11
-193.01531536
 21
-408.54912988
 31
0.0
  0
LINE
  8
0
  6
CONTINUOUS
 62
       7
  5
16D
 10
-193.39031536
 20
-409.86162988
 30
0.0
 11
-193.01531536
 21
-408.54912988
 31
0.0
  0
LINE
  8
0
  6
CONTINUOUS
 62
       7
  5
16E
 10
-205.20281536
 20
-400.86162988
 30
0.0
 11
-201.07930415
 21
-400.86162988
 31
0.0
  0
LINE
  8
0
  6
CONTINUOUS
 62
       7
  5
16F
 10
-204.49031536
 20
-411.92412988
 30
0.0
 11
-205.99031536
 21
-413.42412988
 31
0.0
  0
LINE
  8
0
  6
CONTINUOUS
 62
       7
  5
170
 10
-205.99031536
 20
-413.42412988
 30
0.0
 11
-207.49031536
 21
-414.73662988
 31
0.0
  0
LINE
  8
0
  6
CONTINUOUS
 62
       7
  5
171
 10
-205.99031536
 20
-413.42412988
 30
0.0
 11
-207.49031536
 21
-414.73662988
 31
0.0
  0
LINE
  8
0
  6
CONTINUOUS
 62
       7
  5
172
 10
-207.49031536
 20
-414.73662988
 30
0.0
 11
-209.36531536
 21
-415.48662988
 31
0.0
  0
LINE
  8
0
  6
CONTINUOUS
 62
       7
  5
173
 10
-209.36531536
 20
-415.48662988
 30
0.0
 11
-211.24031536
 21
-415.67412988
 31
0.0
  0
LINE
  8
0
  6
CONTINUOUS
 62
       7
  5
174
 10
-211.24031536
 20
-415.67412988
 30
0.0
 11
-215.92781536
 21
-415.67412988
 31
0.0
  0
LINE
  8
0
  6
CONTINUOUS
 62
       7
  5
175
 10
-215.92781536
 20
-415.67412988
 30
0.0
 11
-214.99031536
 21
-412.86162988
 31
0.0
  0
LINE
  8
0
  6
CONTINUOUS
 62
       7
  5
176
 10
-215.92781536
 20
-415.67412988
 30
0.0
 11
-214.99031536
 21
-412.86162988
 31
0.0
  0
LINE
  8
0
  6
CONTINUOUS
 62
       7
  5
177
 10
-209.36531536
 20
-410.42412988
 30
0.0
 11
-205.80281536
 21
-400.86162988
 31
0.0
  0
LINE
  8
0
  6
CONTINUOUS
 62
       7
  5
178
 10
-214.99031536
 20
-412.86162988
 30
0.0
 11
-213.30281536
 21
-412.86162988
 31
0.0
  0
LINE
  8
0
  6
CONTINUOUS
 62
       7
  5
179
 10
-214.99031536
 20
-412.86162988
 30
0.0
 11
-213.30281536
 21
-412.86162988
 31
0.0
  0
LINE
  8
0
  6
CONTINUOUS
 62
       7
  5
17A
 10
-210.30281536
 20
-411.92412988
 30
0.0
 11
-209.36531536
 21
-410.42412988
 31
0.0
  0
LINE
  8
0
  6
CONTINUOUS
 62
       7
  5
17B
 10
-211.80281536
 20
-412.67412988
 30
0.0
 11
-210.30281536
 21
-411.92412988
 31
0.0
  0
LINE
  8
0
  6
CONTINUOUS
 62
       7
  5
17C
 10
-213.30281536
 20
-412.86162988
 30
0.0
 11
-211.80281536
 21
-412.67412988
 31
0.0
  0
LINE
  8
0
  6
CONTINUOUS
 62
       7
  5
17D
 10
-213.30281536
 20
-412.86162988
 30
0.0
 11
-211.80281536
 21
-412.67412988
 31
0.0
  0
LINE
  8
0
  6
CONTINUOUS
 62
       7
  5
17E
 10
-164.44031536
 20
-400.86162988
 30
0.0
 11
-158.44031536
 21
-400.86162988
 31
0.0
  0
LINE
  8
0
  6
CONTINUOUS
 62
       7
  5
17F
 10
-158.44031536
 20
-400.86162988
 30
0.0
 11
-159.56531536
 21
-404.23662988
 31
0.0
  0
LINE
  8
0
  6
CONTINUOUS
 62
       7
  5
180
 10
-158.44031536
 20
-400.86162988
 30
0.0
 11
-159.56531536
 21
-404.23662988
 31
0.0
  0
LINE
  8
0
  6
CONTINUOUS
 62
       7
  5
181
 10
-159.86531536
 20
-404.23662988
 30
0.0
 11
-165.75281536
 21
-404.23662988
 31
0.0
  0
LINE
  8
0
  6
CONTINUOUS
 62
       7
  5
182
 10
-142.21803844
 20
-404.21168646
 30
0.0
 11
-143.96531536
 21
-407.42412988
 31
0.0
  0
LINE
  8
0
  6
CONTINUOUS
 62
       7
  5
183
 10
-137.02781536
 20
-400.86162988
 30
0.0
 11
-146.40281536
 21
-410.23662988
 31
0.0
  0
LINE
  8
0
  6
CONTINUOUS
 62
       7
  5
184
 10
-146.40281536
 20
-410.23662988
 30
0.0
 11
-151.61531536
 21
-415.44912988
 31
0.0
  0
LINE
  8
0
  6
CONTINUOUS
 62
       7
  5
185
 10
-137.8763435
 20
-400.86162988
 30
0.0
 11
-143.40061177
 21
-406.38589815
 31
0.0
  0
LINE
  8
0
  6
CONTINUOUS
 62
       7
  5
186
 10
-148.34230824
 20
-411.32759463
 30
0.0
 11
-152.63354912
 21
-415.61883551
 31
0.0
  0
LINE
  8
0
  6
CONTINUOUS
 62
       7
  5
187
 10
-138.72487163
 20
-400.86162988
 30
0.0
 11
-142.38870381
 21
-404.52546206
 31
0.0
  0
LINE
  8
0
  6
CONTINUOUS
 62
       7
  5
188
 10
-149.88991997
 20
-412.02667822
 30
0.0
 11
-153.65178289
 21
-415.78854114
 31
0.0
  0
LINE
  8
0
  6
CONTINUOUS
 62
       7
  5
189
 10
-139.57339977
 20
-400.86162988
 30
0.0
 11
-142.94839977
 21
-404.23662988
 31
0.0
  0
LINE
  8
0
  6
CONTINUOUS
 62
       7
  5
18A
 10
-150.96472228
 20
-412.25295239
 30
0.0
 11
-153.82681477
 21
-415.11504488
 31
0.0
  0
LINE
  8
0
  6
CONTINUOUS
 62
       7
  5
18B
 10
-140.42192791
 20
-400.86162988
 30
0.0
 11
-143.79692791
 21
-404.23662988
 31
0.0
  0
LINE
  8
0
  6
CONTINUOUS
 62
       7
  5
18C
 10
-152.03952459
 20
-412.47922656
 30
0.0
 11
-153.36398124
 21
-413.80368321
 31
0.0
  0
LINE
  8
0
  6
CONTINUOUS
 62
       7
  5
18D
 10
-141.27045605
 20
-400.86162988
 30
0.0
 11
-144.64545605
 21
-404.23662988
 31
0.0
  0
LINE
  8
0
  6
CONTINUOUS
 62
       7
  5
18E
 10
-142.11898418
 20
-400.86162988
 30
0.0
 11
-145.49398418
 21
-404.23662988
 31
0.0
  0
LINE
  8
0
  6
CONTINUOUS
 62
       7
  5
18F
 10
-142.96751232
 20
-400.86162988
 30
0.0
 11
-146.34251232
 21
-404.23662988
 31
0.0
  0
LINE
  8
0
  6
CONTINUOUS
 62
       7
  5
190
 10
-143.81604046
 20
-400.86162988
 30
0.0
 11
-147.19104046
 21
-404.23662988
 31
0.0
  0
LINE
  8
0
  6
CONTINUOUS
 62
       7
  5
191
 10
-144.6645686
 20
-400.86162988
 30
0.0
 11
-148.0395686
 21
-404.23662988
 31
0.0
  0
LINE
  8
0
  6
CONTINUOUS
 62
       7
  5
192
 10
-145.51309673
 20
-400.86162988
 30
0.0
 11
-148.81642467
 21
-404.16495782
 31
0.0
  0
LINE
  8
0
  6
CONTINUOUS
 62
       7
  5
193
 10
-146.36162487
 20
-400.86162988
 30
0.0
 11
-148.3921606
 21
-402.89216561
 31
0.0
  0
LINE
  8
0
  6
CONTINUOUS
 62
       7
  5
194
 10
-147.21015301
 20
-400.86162988
 30
0.0
 11
-147.96789653
 21
-401.61937341
 31
0.0
  0
LINE
  8
0
  6
CONTINUOUS
 62
       7
  5
195
 10
-136.17928722
 20
-400.86162988
 30
0.0
 11
-150.59708159
 21
-415.27942425
 31
0.0
  0
LINE
  8
0
  6
CONTINUOUS
 62
       7
  5
196
 10
-135.33075908
 20
-400.86162988
 30
0.0
 11
-149.57884783
 21
-415.10971863
 31
0.0
  0
LINE
  8
0
  6
CONTINUOUS
 62
       7
  5
197
 10
-135.15854912
 20
-401.53794806
 30
0.0
 11
-148.56061406
 21
-414.940013
 31
0.0
  0
LINE
  8
0
  6
CONTINUOUS
 62
       7
  5
198
 10
-135.49796038
 20
-402.72588745
 30
0.0
 11
-147.38855779
 21
-414.61648486
 31
0.0
  0
LINE
  8
0
  6
CONTINUOUS
 62
       7
  5
199
 10
-135.97686452
 20
-404.05331973
 30
0.0
 11
-146.2006184
 21
-414.27707361
 31
0.0
  0
LINE
  8
0
  6
CONTINUOUS
 62
       7
  5
19A
 10
-136.70417435
 20
-405.6291577
 30
0.0
 11
-144.95356212
 21
-413.87854547
 31
0.0
  0
LINE
  8
0
  6
CONTINUOUS
 62
       7
  5
19B
 10
-138.21970928
 20
-407.99322077
 30
0.0
 11
-143.68076992
 21
-413.4542814
 31
0.0
  0
LINE
  8
0
  6
CONTINUOUS
 62
       7
  5
19C
 10
-139.94254143
 20
-410.56458105
 30
0.0
 11
-142.87039627
 21
-413.4924359
 31
0.0
  0
LINE
  8
0
  6
CONTINUOUS
 62
       7
  5
19D
 10
-139.62198636
 20
-411.09255412
 30
0.0
 11
-142.54714746
 21
-414.01771522
 31
0.0
  0
LINE
  8
0
  6
CONTINUOUS
 62
       7
  5
19E
 10
-139.30143128
 20
-411.62052718
 30
0.0
 11
-142.22389865
 21
-414.54299454
 31
0.0
  0
LINE
  8
0
  6
CONTINUOUS
 62
       7
  5
19F
 10
-138.98087621
 20
-412.14850024
 30
0.0
 11
-141.90064983
 21
-415.06827386
 31
0.0
  0
LINE
  8
0
  6
CONTINUOUS
 62
       7
  5
1A0
 10
-138.66032114
 20
-412.67647331
 30
0.0
 11
-141.57740102
 21
-415.59355319
 31
0.0
  0
LINE
  8
0
  6
CONTINUOUS
 62
       7
  5
1A1
 10
-138.33976606
 20
-413.20444637
 30
0.0
 11
-140.80944957
 21
-415.67412988
 31
0.0
  0
LINE
  8
0
  6
CONTINUOUS
 62
       7
  5
1A2
 10
-138.01921099
 20
-413.73241943
 30
0.0
 11
-139.96092144
 21
-415.67412988
 31
0.0
  0
LINE
  8
0
  6
CONTINUOUS
 62
       7
  5
1A3
 10
-137.69865591
 20
-414.2603925
 30
0.0
 11
-139.1123933
 21
-415.67412988
 31
0.0
  0
LINE
  8
0
  6
CONTINUOUS
 62
       7
  5
1A4
 10
-137.37810084
 20
-414.78836556
 30
0.0
 11
-138.26386516
 21
-415.67412988
 31
0.0
  0
LINE
  8
0
  6
CONTINUOUS
 62
       7
  5
1A5
 10
-137.05754577
 20
-415.31633862
 30
0.0
 11
-137.41533702
 21
-415.67412988
 31
0.0
  0
LINE
  8
0
  6
CONTINUOUS
 62
       7
  5
1A6
 10
-160.40906536
 20
-400.86162988
 30
0.0
 11
-163.78406536
 21
-404.23662988
 31
0.0
  0
LINE
  8
0
  6
CONTINUOUS
 62
       7
  5
1A7
 10
-161.2575935
 20
-400.86162988
 30
0.0
 11
-164.6325935
 21
-404.23662988
 31
0.0
  0
LINE
  8
0
  6
CONTINUOUS
 62
       7
  5
1A8
 10
-162.10612163
 20
-400.86162988
 30
0.0
 11
-165.48112163
 21
-404.23662988
 31
0.0
  0
LINE
  8
0
  6
CONTINUOUS
 62
       7
  5
1A9
 10
-162.95464977
 20
-400.86162988
 30
0.0
 11
-165.38573891
 21
-403.29271902
 31
0.0
  0
LINE
  8
0
  6
CONTINUOUS
 62
       7
  5
1AA
 10
-163.80317791
 20
-400.86162988
 30
0.0
 11
-164.84576646
 21
-401.90421844
 31
0.0
  0
LINE
  8
0
  6
CONTINUOUS
 62
       7
  5
1AB
 10
-159.56053722
 20
-400.86162988
 30
0.0
 11
-162.93553722
 21
-404.23662988
 31
0.0
  0
LINE
  8
0
  6
CONTINUOUS
 62
       7
  5
1AC
 10
-158.71200908
 20
-400.86162988
 30
0.0
 11
-162.08700908
 21
-404.23662988
 31
0.0
  0
LINE
  8
0
  6
CONTINUOUS
 62
       7
  5
1AD
 10
-158.72873257
 20
-401.7268815
 30
0.0
 11
-161.23848095
 21
-404.23662988
 31
0.0
  0
LINE
  8
0
  6
CONTINUOUS
 62
       7
  5
1AE
 10
-159.15299663
 20
-402.99967371
 30
0.0
 11
-160.38995281
 21
-404.23662988
 31
0.0
  0
LINE
  8
0
  6
CONTINUOUS
 62
       7
  5
1AF
 10
-159.54142467
 20
-404.23662988
 30
0.0
 11
-159.5772607
 21
-404.27246591
 31
0.0
  0
LINE
  8
0
  6
CONTINUOUS
 62
       7
  5
1B0
 10
-161.53406536
 20
-410.98662988
 30
0.0
 11
-166.22156536
 21
-415.67412988
 31
0.0
  0
LINE
  8
0
  6
CONTINUOUS
 62
       7
  5
1B1
 10
-162.3825935
 20
-410.98662988
 30
0.0
 11
-167.0700935
 21
-415.67412988
 31
0.0
  0
LINE
  8
0
  6
CONTINUOUS
 62
       7
  5
1B2
 10
-163.23112163
 20
-410.98662988
 30
0.0
 11
-167.91862163
 21
-415.67412988
 31
0.0
  0
LINE
  8
0
  6
CONTINUOUS
 62
       7
  5
1B3
 10
-164.07964977
 20
-410.98662988
 30
0.0
 11
-168.76714977
 21
-415.67412988
 31
0.0
  0
LINE
  8
0
  6
CONTINUOUS
 62
       7
  5
1B4
 10
-164.92817791
 20
-410.98662988
 30
0.0
 11
-169.61567791
 21
-415.67412988
 31
0.0
  0
LINE
  8
0
  6
CONTINUOUS
 62
       7
  5
1B5
 10
-165.77670605
 20
-410.98662988
 30
0.0
 11
-169.5479706
 21
-414.75789443
 31
0.0
  0
LINE
  8
0
  6
CONTINUOUS
 62
       7
  5
1B6
 10
-166.62523418
 20
-410.98662988
 30
0.0
 11
-169.07067352
 21
-413.43206922
 31
0.0
  0
LINE
  8
0
  6
CONTINUOUS
 62
       7
  5
1B7
 10
-167.47376232
 20
-410.98662988
 30
0.0
 11
-168.59337644
 21
-412.106244
 31
0.0
  0
LINE
  8
0
  6
CONTINUOUS
 62
       7
  5
1B8
 10
-160.68553722
 20
-410.98662988
 30
0.0
 11
-165.37303722
 21
-415.67412988
 31
0.0
  0
LINE
  8
0
  6
CONTINUOUS
 62
       7
  5
1B9
 10
-159.83700908
 20
-410.98662988
 30
0.0
 11
-164.52450908
 21
-415.67412988
 31
0.0
  0
LINE
  8
0
  6
CONTINUOUS
 62
       7
  5
1BA
 10
-151.67598095
 20
-403.67412988
 30
0.0
 11
-152.91802437
 21
-404.9161733
 31
0.0
  0
LINE
  8
0
  6
CONTINUOUS
 62
       7
  5
1BB
 10
-158.78664653
 20
-410.78479547
 30
0.0
 11
-163.67598095
 21
-415.67412988
 31
0.0
  0
LINE
  8
0
  6
CONTINUOUS
 62
       7
  5
1BC
 10
-150.82745281
 20
-403.67412988
 30
0.0
 11
-153.67878216
 21
-406.52545923
 31
0.0
  0
LINE
  8
0
  6
CONTINUOUS
 62
       7
  5
1BD
 10
-157.08959026
 20
-409.93626733
 30
0.0
 11
-162.82745281
 21
-415.67412988
 31
0.0
  0
LINE
  8
0
  6
CONTINUOUS
 62
       7
  5
1BE
 10
-150.70328964
 20
-404.39849485
 30
0.0
 11
-161.97892467
 21
-415.67412988
 31
0.0
  0
LINE
  8
0
  6
CONTINUOUS
 62
       7
  5
1BF
 10
-150.90294332
 20
-405.44667666
 30
0.0
 11
-161.13039653
 21
-415.67412988
 31
0.0
  0
LINE
  8
0
  6
CONTINUOUS
 62
       7
  5
1C0
 10
-151.102597
 20
-406.49485848
 30
0.0
 11
-160.2818684
 21
-415.67412988
 31
0.0
  0
LINE
  8
0
  6
CONTINUOUS
 62
       7
  5
1C1
 10
-151.30225068
 20
-407.5430403
 30
0.0
 11
-159.02776018
 21
-415.2685498
 31
0.0
  0
LINE
  8
0
  6
CONTINUOUS
 62
       7
  5
1C2
 10
-152.50482021
 20
-409.59413797
 30
0.0
 11
-157.50040953
 21
-414.58972729
 31
0.0
  0
LINE
  8
0
  6
CONTINUOUS
 62
       7
  5
1C3
 10
-168.39656536
 20
-400.86162988
 30
0.0
 11
-181.87312786
 21
-414.33819238
 31
0.0
  0
LINE
  8
0
  6
CONTINUOUS
 62
       7
  5
1C4
 10
-169.2450935
 20
-400.86162988
 30
0.0
 11
-181.37815311
 21
-412.9946895
 31
0.0
  0
LINE
  8
0
  6
CONTINUOUS
 62
       7
  5
1C5
 10
-170.09362163
 20
-400.86162988
 30
0.0
 11
-180.88317837
 21
-411.65118661
 31
0.0
  0
LINE
  8
0
  6
CONTINUOUS
 62
       7
  5
1C6
 10
-170.94214977
 20
-400.86162988
 30
0.0
 11
-180.38820362
 21
-410.30768373
 31
0.0
  0
LINE
  8
0
  6
CONTINUOUS
 62
       7
  5
1C7
 10
-171.79067791
 20
-400.86162988
 30
0.0
 11
-179.89322887
 21
-408.96418084
 31
0.0
  0
LINE
  8
0
  6
CONTINUOUS
 62
       7
  5
1C8
 10
-172.63920605
 20
-400.86162988
 30
0.0
 11
-173.23910686
 21
-401.4615307
 31
0.0
  0
LINE
  8
0
  6
CONTINUOUS
 62
       7
  5
1C9
 10
-176.54774906
 20
-404.7701729
 30
0.0
 11
-180.32670605
 21
-408.54912988
 31
0.0
  0
LINE
  8
0
  6
CONTINUOUS
 62
       7
  5
1CA
 10
-178.0326733
 20
-405.406569
 30
0.0
 11
-181.17523418
 21
-408.54912988
 31
0.0
  0
LINE
  8
0
  6
CONTINUOUS
 62
       7
  5
1CB
 10
-179.24529957
 20
-405.77066713
 30
0.0
 11
-182.02376232
 21
-408.54912988
 31
0.0
  0
LINE
  8
0
  6
CONTINUOUS
 62
       7
  5
1CC
 10
-180.16453838
 20
-405.84137781
 30
0.0
 11
-182.87229046
 21
-408.54912988
 31
0.0
  0
LINE
  8
0
  6
CONTINUOUS
 62
       7
  5
1CD
 10
-181.0837772
 20
-405.91208848
 30
0.0
 11
-183.7208186
 21
-408.54912988
 31
0.0
  0
LINE
  8
0
  6
CONTINUOUS
 62
       7
  5
1CE
 10
-181.94434673
 20
-405.92412988
 30
0.0
 11
-184.56934673
 21
-408.54912988
 31
0.0
  0
LINE
  8
0
  6
CONTINUOUS
 62
       7
  5
1CF
 10
-182.79287487
 20
-405.92412988
 30
0.0
 11
-185.41787487
 21
-408.54912988
 31
0.0
  0
LINE
  8
0
  6
CONTINUOUS
 62
       7
  5
1D0
 10
-183.64140301
 20
-405.92412988
 30
0.0
 11
-185.44804444
 21
-407.73077132
 31
0.0
  0
LINE
  8
0
  6
CONTINUOUS
 62
       7
  5
1D1
 10
-184.48993115
 20
-405.92412988
 30
0.0
 11
-184.97663992
 21
-406.41083866
 31
0.0
  0
LINE
  8
0
  6
CONTINUOUS
 62
       7
  5
1D2
 10
-167.54803722
 20
-400.86162988
 30
0.0
 11
-182.36810261
 21
-415.68169527
 31
0.0
  0
LINE
  8
0
  6
CONTINUOUS
 62
       7
  5
1D3
 10
-166.69950908
 20
-400.86162988
 30
0.0
 11
-173.21609518
 21
-407.37821598
 31
0.0
  0
LINE
  8
0
  6
CONTINUOUS
 62
       7
  5
1D4
 10
-173.41874964
 20
-407.58087044
 30
0.0
 11
-181.51200908
 21
-415.67412988
 31
0.0
  0
LINE
  8
0
  6
CONTINUOUS
 62
       7
  5
1D5
 10
-165.85098095
 20
-400.86162988
 30
0.0
 11
-171.99044343
 21
-407.00109236
 31
0.0
  0
LINE
  8
0
  6
CONTINUOUS
 62
       7
  5
1D6
 10
-173.8576435
 20
-408.86829244
 30
0.0
 11
-180.66348095
 21
-415.67412988
 31
0.0
  0
LINE
  8
0
  6
CONTINUOUS
 62
       7
  5
1D7
 10
-166.60491183
 20
-402.4640889
 30
0.0
 11
-170.51398601
 21
-406.37316308
 31
0.0
  0
LINE
  8
0
  6
CONTINUOUS
 62
       7
  5
1D8
 10
-174.29653737
 20
-410.15571444
 30
0.0
 11
-179.81495281
 21
-415.67412988
 31
0.0
  0
LINE
  8
0
  6
CONTINUOUS
 62
       7
  5
1D9
 10
-174.73543123
 20
-411.44313644
 30
0.0
 11
-178.96642467
 21
-415.67412988
 31
0.0
  0
LINE
  8
0
  6
CONTINUOUS
 62
       7
  5
1DA
 10
-175.1743251
 20
-412.73055844
 30
0.0
 11
-178.11789653
 21
-415.67412988
 31
0.0
  0
LINE
  8
0
  6
CONTINUOUS
 62
       7
  5
1DB
 10
-175.61321896
 20
-414.01798044
 30
0.0
 11
-177.2693684
 21
-415.67412988
 31
0.0
  0
LINE
  8
0
  6
CONTINUOUS
 62
       7
  5
1DC
 10
-176.05211282
 20
-415.30540245
 30
0.0
 11
-176.42084026
 21
-415.67412988
 31
0.0
  0
LINE
  8
0
  6
CONTINUOUS
 62
       7
  5
1DD
 10
-190.67156536
 20
-400.86162988
 30
0.0
 11
-194.04656536
 21
-404.23662988
 31
0.0
  0
LINE
  8
0
  6
CONTINUOUS
 62
       7
  5
1DE
 10
-191.5200935
 20
-400.86162988
 30
0.0
 11
-194.8950935
 21
-404.23662988
 31
0.0
  0
LINE
  8
0
  6
CONTINUOUS
 62
       7
  5
1DF
 10
-192.36862163
 20
-400.86162988
 30
0.0
 11
-195.74362163
 21
-404.23662988
 31
0.0
  0
LINE
  8
0
  6
CONTINUOUS
 62
       7
  5
1E0
 10
-193.21714977
 20
-400.86162988
 30
0.0
 11
-196.59214977
 21
-404.23662988
 31
0.0
  0
LINE
  8
0
  6
CONTINUOUS
 62
       7
  5
1E1
 10
-194.06567791
 20
-400.86162988
 30
0.0
 11
-197.44067791
 21
-404.23662988
 31
0.0
  0
LINE
  8
0
  6
CONTINUOUS
 62
       7
  5
1E2
 10
-194.91420605
 20
-400.86162988
 30
0.0
 11
-198.28920605
 21
-404.23662988
 31
0.0
  0
LINE
  8
0
  6
CONTINUOUS
 62
       7
  5
1E3
 10
-195.76273418
 20
-400.86162988
 30
0.0
 11
-199.13773418
 21
-404.23662988
 31
0.0
  0
LINE
  8
0
  6
CONTINUOUS
 62
       7
  5
1E4
 10
-196.61126232
 20
-400.86162988
 30
0.0
 11
-199.65484188
 21
-403.90520944
 31
0.0
  0
LINE
  8
0
  6
CONTINUOUS
 62
       7
  5
1E5
 10
-197.45979046
 20
-400.86162988
 30
0.0
 11
-199.23057781
 21
-402.63241723
 31
0.0
  0
LINE
  8
0
  6
CONTINUOUS
 62
       7
  5
1E6
 10
-198.3083186
 20
-400.86162988
 30
0.0
 11
-198.80631374
 21
-401.35962503
 31
0.0
  0
LINE
  8
0
  6
CONTINUOUS
 62
       7
  5
1E7
 10
-189.82303722
 20
-400.86162988
 30
0.0
 11
-193.19803722
 21
-404.23662988
 31
0.0
  0
LINE
  8
0
  6
CONTINUOUS
 62
       7
  5
1E8
 10
-188.97450908
 20
-400.86162988
 30
0.0
 11
-192.34950908
 21
-404.23662988
 31
0.0
  0
LINE
  8
0
  6
CONTINUOUS
 62
       7
  5
1E9
 10
-188.12598095
 20
-400.86162988
 30
0.0
 11
-191.50098095
 21
-404.23662988
 31
0.0
  0
LINE
  8
0
  6
CONTINUOUS
 62
       7
  5
1EA
 10
-187.27745281
 20
-400.86162988
 30
0.0
 11
-190.65245281
 21
-404.23662988
 31
0.0
  0
LINE
  8
0
  6
CONTINUOUS
 62
       7
  5
1EB
 10
-186.42892467
 20
-400.86162988
 30
0.0
 11
-189.80392467
 21
-404.23662988
 31
0.0
  0
LINE
  8
0
  6
CONTINUOUS
 62
       7
  5
1EC
 10
-185.58039653
 20
-400.86162988
 30
0.0
 11
-188.95539653
 21
-404.23662988
 31
0.0
  0
LINE
  8
0
  6
CONTINUOUS
 62
       7
  5
1ED
 10
-185.06328884
 20
-401.19305032
 30
0.0
 11
-188.1068684
 21
-404.23662988
 31
0.0
  0
LINE
  8
0
  6
CONTINUOUS
 62
       7
  5
1EE
 10
-185.48755291
 20
-402.46584253
 30
0.0
 11
-187.25834026
 21
-404.23662988
 31
0.0
  0
LINE
  8
0
  6
CONTINUOUS
 62
       7
  5
1EF
 10
-185.91181698
 20
-403.73863474
 30
0.0
 11
-186.40981212
 21
-404.23662988
 31
0.0
  0
LINE
  8
0
  6
CONTINUOUS
 62
       7
  5
1F0
 10
-190.39031536
 20
-405.92412988
 30
0.0
 11
-193.01531536
 21
-408.54912988
 31
0.0
  0
LINE
  8
0
  6
CONTINUOUS
 62
       7
  5
1F1
 10
-197.32781536
 20
-412.86162988
 30
0.0
 11
-200.14031536
 21
-415.67412988
 31
0.0
  0
LINE
  8
0
  6
CONTINUOUS
 62
       7
  5
1F2
 10
-191.2388435
 20
-405.92412988
 30
0.0
 11
-193.8638435
 21
-408.54912988
 31
0.0
  0
LINE
  8
0
  6
CONTINUOUS
 62
       7
  5
1F3
 10
-198.1763435
 20
-412.86162988
 30
0.0
 11
-200.9888435
 21
-415.67412988
 31
0.0
  0
LINE
  8
0
  6
CONTINUOUS
 62
       7
  5
1F4
 10
-192.08737163
 20
-405.92412988
 30
0.0
 11
-194.71237163
 21
-408.54912988
 31
0.0
  0
LINE
  8
0
  6
CONTINUOUS
 62
       7
  5
1F5
 10
-199.02487163
 20
-412.86162988
 30
0.0
 11
-201.83737163
 21
-415.67412988
 31
0.0
  0
LINE
  8
0
  6
CONTINUOUS
 62
       7
  5
1F6
 10
-192.93589977
 20
-405.92412988
 30
0.0
 11
-195.56089977
 21
-408.54912988
 31
0.0
  0
LINE
  8
0
  6
CONTINUOUS
 62
       7
  5
1F7
 10
-199.87339977
 20
-412.86162988
 30
0.0
 11
-202.68589977
 21
-415.67412988
 31
0.0
  0
LINE
  8
0
  6
CONTINUOUS
 62
       7
  5
1F8
 10
-193.78442791
 20
-405.92412988
 30
0.0
 11
-196.40942791
 21
-408.54912988
 31
0.0
  0
LINE
  8
0
  6
CONTINUOUS
 62
       7
  5
1F9
 10
-200.72192791
 20
-412.86162988
 30
0.0
 11
-203.53442791
 21
-415.67412988
 31
0.0
  0
LINE
  8
0
  6
CONTINUOUS
 62
       7
  5
1FA
 10
-194.63295605
 20
-405.92412988
 30
0.0
 11
-197.25795605
 21
-408.54912988
 31
0.0
  0
LINE
  8
0
  6
CONTINUOUS
 62
       7
  5
1FB
 10
-201.57045605
 20
-412.86162988
 30
0.0
 11
-203.56188823
 21
-414.85306207
 31
0.0
  0
LINE
  8
0
  6
CONTINUOUS
 62
       7
  5
1FC
 10
-195.48148418
 20
-405.92412988
 30
0.0
 11
-198.10648418
 21
-408.54912988
 31
0.0
  0
LINE
  8
0
  6
CONTINUOUS
 62
       7
  5
1FD
 10
-202.41898418
 20
-412.86162988
 30
0.0
 11
-202.99620281
 21
-413.43884851
 31
0.0
  0
LINE
  8
0
  6
CONTINUOUS
 62
       7
  5
1FE
 10
-196.33001232
 20
-405.92412988
 30
0.0
 11
-198.95501232
 21
-408.54912988
 31
0.0
  0
LINE
  8
0
  6
CONTINUOUS
 62
       7
  5
1FF
 10
-197.17854046
 20
-405.92412988
 30
0.0
 11
-199.80354046
 21
-408.54912988
 31
0.0
  0
LINE
  8
0
  6
CONTINUOUS
 62
       7
  5
200
 10
-198.0270686
 20
-405.92412988
 30
0.0
 11
-200.6520686
 21
-408.54912988
 31
0.0
  0
LINE
  8
0
  6
CONTINUOUS
 62
       7
  5
201
 10
-198.87559673
 20
-405.92412988
 30
0.0
 11
-200.64620281
 21
-407.69473596
 31
0.0
  0
LINE
  8
0
  6
CONTINUOUS
 62
       7
  5
202
 10
-199.72412487
 20
-405.92412988
 30
0.0
 11
-200.30679155
 21
-406.50679656
 31
0.0
  0
LINE
  8
0
  6
CONTINUOUS
 62
       7
  5
203
 10
-189.54178722
 20
-405.92412988
 30
0.0
 11
-193.35472661
 21
-409.73706927
 31
0.0
  0
LINE
  8
0
  6
CONTINUOUS
 62
       7
  5
204
 10
-196.23296688
 20
-412.61530954
 30
0.0
 11
-199.29178722
 21
-415.67412988
 31
0.0
  0
LINE
  8
0
  6
CONTINUOUS
 62
       7
  5
205
 10
-188.69325908
 20
-405.92412988
 30
0.0
 11
-198.44325908
 21
-415.67412988
 31
0.0
  0
LINE
  8
0
  6
CONTINUOUS
 62
       7
  5
206
 10
-187.84473095
 20
-405.92412988
 30
0.0
 11
-197.59473095
 21
-415.67412988
 31
0.0
  0
LINE
  8
0
  6
CONTINUOUS
 62
       7
  5
207
 10
-186.99620281
 20
-405.92412988
 30
0.0
 11
-196.74620281
 21
-415.67412988
 31
0.0
  0
LINE
  8
0
  6
CONTINUOUS
 62
       7
  5
208
 10
-186.92182432
 20
-406.69827953
 30
0.0
 11
-195.89767467
 21
-415.67412988
 31
0.0
  0
LINE
  8
0
  6
CONTINUOUS
 62
       7
  5
209
 10
-187.40669754
 20
-408.03168089
 30
0.0
 11
-195.04914653
 21
-415.67412988
 31
0.0
  0
LINE
  8
0
  6
CONTINUOUS
 62
       7
  5
20A
 10
-187.89157077
 20
-409.36508225
 30
0.0
 11
-194.15821941
 21
-415.63173089
 31
0.0
  0
LINE
  8
0
  6
CONTINUOUS
 62
       7
  5
20B
 10
-188.37644399
 20
-410.69848361
 30
0.0
 11
-193.02684856
 21
-415.34888818
 31
0.0
  0
LINE
  8
0
  6
CONTINUOUS
 62
       7
  5
20C
 10
-188.86131721
 20
-412.03188497
 30
0.0
 11
-191.42930889
 21
-414.59987664
 31
0.0
  0
LINE
  8
0
  6
CONTINUOUS
 62
       7
  5
20D
 10
-200.92781536
 20
-400.86162988
 30
0.0
 11
-208.69734661
 21
-408.63116113
 31
0.0
  0
LINE
  8
0
  6
CONTINUOUS
 62
       7
  5
20E
 10
-212.87424393
 20
-412.80805845
 30
0.0
 11
-215.74031536
 21
-415.67412988
 31
0.0
  0
LINE
  8
0
  6
CONTINUOUS
 62
       7
  5
20F
 10
-201.7763435
 20
-400.86162988
 30
0.0
 11
-208.19353303
 21
-407.27881941
 31
0.0
  0
LINE
  8
0
  6
CONTINUOUS
 62
       7
  5
210
 10
-213.7763435
 20
-412.86162988
 30
0.0
 11
-215.59730129
 21
-414.68258768
 31
0.0
  0
LINE
  8
0
  6
CONTINUOUS
 62
       7
  5
211
 10
-202.62487163
 20
-400.86162988
 30
0.0
 11
-207.68971945
 21
-405.92647769
 31
0.0
  0
LINE
  8
0
  6
CONTINUOUS
 62
       7
  5
212
 10
-214.62487163
 20
-412.86162988
 30
0.0
 11
-215.17303722
 21
-413.40979547
 31
0.0
  0
LINE
  8
0
  6
CONTINUOUS
 62
       7
  5
213
 10
-203.47339977
 20
-400.86162988
 30
0.0
 11
-207.18590586
 21
-404.57413597
 31
0.0
  0
LINE
  8
0
  6
CONTINUOUS
 62
       7
  5
214
 10
-204.32192791
 20
-400.86162988
 30
0.0
 11
-206.68209228
 21
-403.22179426
 31
0.0
  0
LINE
  8
0
  6
CONTINUOUS
 62
       7
  5
215
 10
-205.17045605
 20
-400.86162988
 30
0.0
 11
-206.1782787
 21
-401.86945254
 31
0.0
  0
LINE
  8
0
  6
CONTINUOUS
 62
       7
  5
216
 10
-201.07930415
 20
-401.86164681
 30
0.0
 11
-209.20116019
 21
-409.98350285
 31
0.0
  0
LINE
  8
0
  6
CONTINUOUS
 62
       7
  5
217
 10
-211.90449749
 20
-412.68684015
 30
0.0
 11
-214.89178722
 21
-415.67412988
 31
0.0
  0
LINE
  8
0
  6
CONTINUOUS
 62
       7
  5
218
 10
-201.51444678
 20
-403.14531758
 30
0.0
 11
-210.28370281
 21
-411.91457361
 31
0.0
  0
LINE
  8
0
  6
CONTINUOUS
 62
       7
  5
219
 10
-210.31874248
 20
-411.94961328
 30
0.0
 11
-214.04325908
 21
-415.67412988
 31
0.0
  0
LINE
  8
0
  6
CONTINUOUS
 62
       7
  5
21A
 10
-201.94958942
 20
-404.42898835
 30
0.0
 11
-213.19473095
 21
-415.67412988
 31
0.0
  0
LINE
  8
0
  6
CONTINUOUS
 62
       7
  5
21B
 10
-202.38473205
 20
-405.71265912
 30
0.0
 11
-212.34620281
 21
-415.67412988
 31
0.0
  0
LINE
  8
0
  6
CONTINUOUS
 62
       7
  5
21C
 10
-202.81987469
 20
-406.9963299
 30
0.0
 11
-211.49767467
 21
-415.67412988
 31
0.0
  0
LINE
  8
0
  6
CONTINUOUS
 62
       7
  5
21D
 10
-203.25501732
 20
-408.28000067
 30
0.0
 11
-210.58346111
 21
-415.60844446
 31
0.0
  0
LINE
  8
0
  6
CONTINUOUS
 62
       7
  5
21E
 10
-203.69015995
 20
-409.56367144
 30
0.0
 11
-209.64065207
 21
-415.51416355
 31
0.0
  0
LINE
  8
0
  6
CONTINUOUS
 62
       7
  5
21F
 10
-204.12530259
 20
-410.84734221
 30
0.0
 11
-208.36410686
 21
-415.08614648
 31
0.0
  0
LINE
  8
0
  6
CONTINUOUS
 62
       7
  5
220
 10
-209.94656536
 20
-401.91162988
 30
0.0
 11
-216.88043633
 21
-408.84550085
 31
0.0
  0
LINE
  8
0
  6
CONTINUOUS
 62
       7
  5
221
 10
-209.7450935
 20
-400.86162988
 30
0.0
 11
-216.41511444
 21
-407.53165083
 31
0.0
  0
LINE
  8
0
  6
CONTINUOUS
 62
       7
  5
222
 10
-210.59362163
 20
-400.86162988
 30
0.0
 11
-215.94979256
 21
-406.21780081
 31
0.0
  0
LINE
  8
0
  6
CONTINUOUS
 62
       7
  5
223
 10
-211.44214977
 20
-400.86162988
 30
0.0
 11
-215.48447068
 21
-404.90395079
 31
0.0
  0
LINE
  8
0
  6
CONTINUOUS
 62
       7
  5
224
 10
-212.29067791
 20
-400.86162988
 30
0.0
 11
-215.0191488
 21
-403.59010077
 31
0.0
  0
LINE
  8
0
  6
CONTINUOUS
 62
       7
  5
225
 10
-213.13920605
 20
-400.86162988
 30
0.0
 11
-214.55382692
 21
-402.27625075
 31
0.0
  0
LINE
  8
0
  6
CONTINUOUS
 62
       7
  5
226
 10
-213.98773418
 20
-400.86162988
 30
0.0
 11
-214.08850504
 21
-400.96240073
 31
0.0
  0
LINE
  8
0
  6
CONTINUOUS
 62
       7
  5
227
 10
-210.45568224
 20
-403.2692749
 30
0.0
 11
-217.04803722
 21
-409.86162988
 31
0.0
  0
LINE
  8
0
  6
CONTINUOUS
 62
       7
  5
228
 10
-210.96479912
 20
-404.62691992
 30
0.0
 11
-216.19950908
 21
-409.86162988
 31
0.0
  0
LINE
  8
0
  6
CONTINUOUS
 62
       7
  5
229
 10
-211.47391601
 20
-405.98456494
 30
0.0
 11
-215.35098095
 21
-409.86162988
 31
0.0
  0
LINE
  8
0
  6
CONTINUOUS
 62
       7
  5
22A
 10
-211.98303289
 20
-407.34220996
 30
0.0
 11
-214.50245281
 21
-409.86162988
 31
0.0
  0
LINE
  8
0
  6
CONTINUOUS
 62
       7
  5
22B
 10
-212.49214977
 20
-408.69985498
 30
0.0
 11
-213.65392467
 21
-409.86162988
 31
0.0
  0
LINE
  8
0
  6
CONTINUOUS
 62
       7
  5
22C
 10
298.53468464
 20
-61.11162988
 30
0.0
 11
315.03468464
 21
-61.11162988
 31
0.0
  0
LINE
  8
0
  6
CONTINUOUS
 62
       7
  5
22D
 10
298.53468464
 20
-76.11162988
 30
0.0
 11
315.03468464
 21
-76.11162988
 31
0.0
  0
LINE
  8
0
  6
CONTINUOUS
 62
       7
  5
22E
 10
315.03468464
 20
-61.11162988
 30
0.0
 11
315.03468464
 21
-76.11162988
 31
0.0
  0
LINE
  8
0
  6
CONTINUOUS
 62
       7
  5
22F
 10
298.53468464
 20
-61.11162988
 30
0.0
 11
298.53468464
 21
-76.11162988
 31
0.0
  0
LINE
  8
0
  6
CONTINUOUS
 62
       7
  5
230
 10
315.03468464
 20
-76.05940042
 30
0.0
 11
314.98245518
 21
-76.11162988
 31
0.0
  0
LINE
  8
0
  6
CONTINUOUS
 62
       7
  5
231
 10
306.23084917
 20
-61.11162988
 30
0.0
 11
298.53468464
 21
-68.80779441
 31
0.0
  0
LINE
  8
0
  6
CONTINUOUS
 62
       7
  5
232
 10
305.38232104
 20
-61.11162988
 30
0.0
 11
298.53468464
 21
-67.95926628
 31
0.0
  0
LINE
  8
0
  6
CONTINUOUS
 62
       7
  5
233
 10
304.5337929
 20
-61.11162988
 30
0.0
 11
298.53468464
 21
-67.11073814
 31
0.0
  0
LINE
  8
0
  6
CONTINUOUS
 62
       7
  5
234
 10
303.68526476
 20
-61.11162988
 30
0.0
 11
298.53468464
 21
-66.26221
 31
0.0
  0
LINE
  8
0
  6
CONTINUOUS
 62
       7
  5
235
 10
302.83673662
 20
-61.11162988
 30
0.0
 11
298.53468464
 21
-65.41368186
 31
0.0
  0
LINE
  8
0
  6
CONTINUOUS
 62
       7
  5
236
 10
301.98820849
 20
-61.11162988
 30
0.0
 11
298.53468464
 21
-64.56515373
 31
0.0
  0
LINE
  8
0
  6
CONTINUOUS
 62
       7
  5
237
 10
301.13968035
 20
-61.11162988
 30
0.0
 11
298.53468464
 21
-63.71662559
 31
0.0
  0
LINE
  8
0
  6
CONTINUOUS
 62
       7
  5
238
 10
300.29115221
 20
-61.11162988
 30
0.0
 11
298.53468464
 21
-62.86809745
 31
0.0
  0
LINE
  8
0
  6
CONTINUOUS
 62
       7
  5
239
 10
299.44262407
 20
-61.11162988
 30
0.0
 11
298.53468464
 21
-62.01956931
 31
0.0
  0
LINE
  8
0
  6
CONTINUOUS
 62
       7
  5
23A
 10
307.07937731
 20
-61.11162988
 30
0.0
 11
298.53468464
 21
-69.65632255
 31
0.0
  0
LINE
  8
0
  6
CONTINUOUS
 62
       7
  5
23B
 10
307.92790545
 20
-61.11162988
 30
0.0
 11
298.53468464
 21
-70.50485069
 31
0.0
  0
LINE
  8
0
  6
CONTINUOUS
 62
       7
  5
23C
 10
308.77643358
 20
-61.11162988
 30
0.0
 11
298.53468464
 21
-71.35337882
 31
0.0
  0
LINE
  8
0
  6
CONTINUOUS
 62
       7
  5
23D
 10
309.62496172
 20
-61.11162988
 30
0.0
 11
298.53468464
 21
-72.20190696
 31
0.0
  0
LINE
  8
0
  6
CONTINUOUS
 62
       7
  5
23E
 10
310.47348986
 20
-61.11162988
 30
0.0
 11
298.53468464
 21
-73.0504351
 31
0.0
  0
LINE
  8
0
  6
CONTINUOUS
 62
       7
  5
23F
 10
311.322018
 20
-61.11162988
 30
0.0
 11
298.53468464
 21
-73.89896324
 31
0.0
  0
LINE
  8
0
  6
CONTINUOUS
 62
       7
  5
240
 10
312.17054613
 20
-61.11162988
 30
0.0
 11
298.53468464
 21
-74.74749137
 31
0.0
  0
LINE
  8
0
  6
CONTINUOUS
 62
       7
  5
241
 10
313.01907427
 20
-61.11162988
 30
0.0
 11
298.53468464
 21
-75.59601951
 31
0.0
  0
LINE
  8
0
  6
CONTINUOUS
 62
       7
  5
242
 10
313.86760241
 20
-61.11162988
 30
0.0
 11
298.86760241
 21
-76.11162988
 31
0.0
  0
LINE
  8
0
  6
CONTINUOUS
 62
       7
  5
243
 10
314.71613055
 20
-61.11162988
 30
0.0
 11
299.71613055
 21
-76.11162988
 31
0.0
  0
LINE
  8
0
  6
CONTINUOUS
 62
       7
  5
244
 10
315.03468464
 20
-61.64160392
 30
0.0
 11
300.56465868
 21
-76.11162988
 31
0.0
  0
LINE
  8
0
  6
CONTINUOUS
 62
       7
  5
245
 10
315.03468464
 20
-62.49013206
 30
0.0
 11
301.41318682
 21
-76.11162988
 31
0.0
  0
LINE
  8
0
  6
CONTINUOUS
 62
       7
  5
246
 10
315.03468464
 20
-63.3386602
 30
0.0
 11
302.26171496
 21
-76.11162988
 31
0.0
  0
LINE
  8
0
  6
CONTINUOUS
 62
       7
  5
247
 10
315.03468464
 20
-64.18718834
 30
0.0
 11
303.1102431
 21
-76.11162988
 31
0.0
  0
LINE
  8
0
  6
CONTINUOUS
 62
       7
  5
248
 10
315.03468464
 20
-65.03571647
 30
0.0
 11
303.95877123
 21
-76.11162988
 31
0.0
  0
LINE
  8
0
  6
CONTINUOUS
 62
       7
  5
249
 10
315.03468464
 20
-65.88424461
 30
0.0
 11
304.80729937
 21
-76.11162988
 31
0.0
  0
LINE
  8
0
  6
CONTINUOUS
 62
       7
  5
24A
 10
315.03468464
 20
-66.73277275
 30
0.0
 11
305.65582751
 21
-76.11162988
 31
0.0
  0
LINE
  8
0
  6
CONTINUOUS
 62
       7
  5
24B
 10
315.03468464
 20
-67.58130089
 30
0.0
 11
306.50435565
 21
-76.11162988
 31
0.0
  0
LINE
  8
0
  6
CONTINUOUS
 62
       7
  5
24C
 10
315.03468464
 20
-68.42982902
 30
0.0
 11
307.35288378
 21
-76.11162988
 31
0.0
  0
LINE
  8
0
  6
CONTINUOUS
 62
       7
  5
24D
 10
315.03468464
 20
-69.27835716
 30
0.0
 11
308.20141192
 21
-76.11162988
 31
0.0
  0
LINE
  8
0
  6
CONTINUOUS
 62
       7
  5
24E
 10
315.03468464
 20
-70.1268853
 30
0.0
 11
309.04994006
 21
-76.11162988
 31
0.0
  0
LINE
  8
0
  6
CONTINUOUS
 62
       7
  5
24F
 10
315.03468464
 20
-70.97541344
 30
0.0
 11
309.8984682
 21
-76.11162988
 31
0.0
  0
LINE
  8
0
  6
CONTINUOUS
 62
       7
  5
250
 10
315.03468464
 20
-71.82394157
 30
0.0
 11
310.74699633
 21
-76.11162988
 31
0.0
  0
LINE
  8
0
  6
CONTINUOUS
 62
       7
  5
251
 10
315.03468464
 20
-72.67246971
 30
0.0
 11
311.59552447
 21
-76.11162988
 31
0.0
  0
LINE
  8
0
  6
CONTINUOUS
 62
       7
  5
252
 10
315.03468464
 20
-73.52099785
 30
0.0
 11
312.44405261
 21
-76.11162988
 31
0.0
  0
LINE
  8
0
  6
CONTINUOUS
 62
       7
  5
253
 10
315.03468464
 20
-74.36952599
 30
0.0
 11
313.29258075
 21
-76.11162988
 31
0.0
  0
LINE
  8
0
  6
CONTINUOUS
 62
       7
  5
254
 10
315.03468464
 20
-75.21805412
 30
0.0
 11
314.14110888
 21
-76.11162988
 31
0.0
  0
LINE
  8
0
  6
CONTINUOUS
 62
       7
  5
255
 10
315.03468464
 20
-76.06658226
 30
0.0
 11
314.98963702
 21
-76.11162988
 31
0.0
  0
LINE
  8
0
  6
CONTINUOUS
 62
       7
  5
256
 10
-242.21531536
 20
417.57587012
 30
0.0
 11
-244.75794579
 21
422.07437012
 31
0.0
  0
LINE
  8
0
  6
CONTINUOUS
 62
       7
  5
257
 10
-254.89198283
 20
426.01337012
 30
0.0
 11
-254.57948283
 21
426.95087012
 31
0.0
  0
LINE
  8
0
  6
CONTINUOUS
 62
       7
  5
258
 10
-230.99620843
 20
418.68542358
 30
0.0
 11
-231.33731536
 21
418.51487012
 31
0.0
  0
LINE
  8
0
  6
CONTINUOUS
 62
       7
  5
259
 10
-230.77781536
 20
417.57587012
 30
0.0
 11
-229.20281536
 21
419.15087012
 31
0.0
  0
LINE
  8
0
  6
CONTINUOUS
 62
       7
  5
25A
 10
-229.46531536
 20
417.57587012
 30
0.0
 11
-229.20281536
 21
419.15087012
 31
0.0
  0
LINE
  8
0
  6
CONTINUOUS
 62
       7
  5
25B
 10
-222.52781536
 20
418.88837012
 30
0.0
 11
-222.52781536
 21
418.51487012
 31
0.0
  0
LINE
  8
0
  6
CONTINUOUS
 62
       7
  5
25C
 10
-214.23275372
 20
417.57587012
 30
0.0
 11
-217.65281536
 21
417.57587012
 31
0.0
  0
LINE
  8
0
  6
CONTINUOUS
 62
       7
  5
25D
 10
-219.50071793
 20
418.91208037
 30
0.0
 11
-221.02781536
 21
417.57587012
 31
0.0
  0
LINE
  8
0
  6
CONTINUOUS
 62
       7
  5
25E
 10
-208.66557135
 20
417.57587012
 30
0.0
 11
-212.59031536
 21
417.57587012
 31
0.0
  0
LINE
  8
0
  6
CONTINUOUS
 62
       7
  5
25F
 10
-247.76944036
 20
418.51487012
 30
0.0
 11
-244.95750286
 21
426.01337012
 31
0.0
  0
LINE
  8
0
  6
CONTINUOUS
 62
       7
  5
260
 10
-245.07965042
 20
423.01337012
 30
0.0
 11
-240.69078182
 21
423.01337012
 31
0.0
  0
LINE
  8
0
  6
CONTINUOUS
 62
       7
  5
261
 10
-216.83463354
 20
419.82587012
 30
0.0
 11
-217.46531536
 21
419.82587012
 31
0.0
  0
LINE
  8
0
  6
CONTINUOUS
 62
       7
  5
262
 10
-217.46531536
 20
419.82587012
 30
0.0
 11
-218.08515769
 21
419.82587012
 31
0.0
  0
LINE
  8
0
  6
CONTINUOUS
 62
       7
  5
263
 10
-223.56954977
 20
417.57587012
 30
0.0
 11
-221.02781536
 21
417.57587012
 31
0.0
  0
CIRCLE
  8
0
  6
CONTINUOUS
 62
       7
  5
264
 10
-227.68954108
 20
422.82587012
 30
0.0
 40
0.56797572
  0
LINE
  8
0
  6
CONTINUOUS
 62
       7
  5
265
 10
-247.06687786
 20
426.01337012
 30
0.0
 11
-244.95750286
 21
426.01337012
 31
0.0
  0
LINE
  8
0
  6
CONTINUOUS
 62
       7
  5
266
 10
-243.95465042
 20
426.01337012
 30
0.0
 11
-240.69078182
 21
426.01337012
 31
0.0
  0
LINE
  8
0
  6
CONTINUOUS
 62
       7
  5
267
 10
-250.27781536
 20
417.57587012
 30
0.0
 11
-249.92569036
 21
418.51487012
 31
0.0
  0
LINE
  8
0
  6
CONTINUOUS
 62
       7
  5
268
 10
-247.06687786
 20
426.01337012
 30
0.0
 11
-246.71531536
 21
426.95087012
 31
0.0
  0
LINE
  8
0
  6
CONTINUOUS
 62
       7
  5
269
 10
-247.53608077
 20
426.01337012
 30
0.0
 11
-247.18451827
 21
426.95087012
 31
0.0
  0
LINE
  8
0
  6
CONTINUOUS
 62
       7
  5
26A
 10
-240.69078182
 20
426.95087012
 30
0.0
 11
-246.71531536
 21
426.95087012
 31
0.0
  0
LINE
  8
0
  6
CONTINUOUS
 62
       7
  5
26B
 10
-247.18451827
 20
426.95087012
 30
0.0
 11
-248.07524641
 21
426.95087012
 31
0.0
  0
LINE
  8
0
  6
CONTINUOUS
 62
       7
  5
26C
 10
-248.42680891
 20
426.01337012
 30
0.0
 11
-247.53608077
 21
426.01337012
 31
0.0
  0
LINE
  8
0
  6
CONTINUOUS
 62
       7
  5
26D
 10
-248.76836624
 20
426.01337012
 30
0.0
 11
-248.41680374
 21
426.95087012
 31
0.0
  0
LINE
  8
0
  6
CONTINUOUS
 62
       7
  5
26E
 10
-248.41680374
 20
426.95087012
 30
0.0
 11
-249.16344241
 21
426.95087012
 31
0.0
  0
LINE
  8
0
  6
CONTINUOUS
 62
       7
  5
26F
 10
-249.51500491
 20
426.01337012
 30
0.0
 11
-248.76836624
 21
426.01337012
 31
0.0
  0
LINE
  8
0
  6
CONTINUOUS
 62
       7
  5
270
 10
-249.51500491
 20
426.01337012
 30
0.0
 11
-249.16344241
 21
426.95087012
 31
0.0
  0
LINE
  8
0
  6
CONTINUOUS
 62
       7
  5
271
 10
-249.8009029
 20
426.95087012
 30
0.0
 11
-250.53255226
 21
426.95087012
 31
0.0
  0
LINE
  8
0
  6
CONTINUOUS
 62
       7
  5
272
 10
-250.88411476
 20
426.01337012
 30
0.0
 11
-250.1524654
 21
426.01337012
 31
0.0
  0
LINE
  8
0
  6
CONTINUOUS
 62
       7
  5
273
 10
-250.88411476
 20
426.01337012
 30
0.0
 11
-250.53255226
 21
426.95087012
 31
0.0
  0
LINE
  8
0
  6
CONTINUOUS
 62
       7
  5
274
 10
-248.42680891
 20
426.01337012
 30
0.0
 11
-248.07524641
 21
426.95087012
 31
0.0
  0
LINE
  8
0
  6
CONTINUOUS
 62
       7
  5
275
 10
-250.1524654
 20
426.01337012
 30
0.0
 11
-249.8009029
 21
426.95087012
 31
0.0
  0
LINE
  8
0
  6
CONTINUOUS
 62
       7
  5
276
 10
-251.43210891
 20
426.01337012
 30
0.0
 11
-251.08054641
 21
426.95087012
 31
0.0
  0
LINE
  8
0
  6
CONTINUOUS
 62
       7
  5
277
 10
-251.08054641
 20
426.95087012
 30
0.0
 11
-251.7570273
 21
426.95087012
 31
0.0
  0
LINE
  8
0
  6
CONTINUOUS
 62
       7
  5
278
 10
-252.1085898
 20
426.01337012
 30
0.0
 11
-251.43210891
 21
426.01337012
 31
0.0
  0
LINE
  8
0
  6
CONTINUOUS
 62
       7
  5
279
 10
-252.1085898
 20
426.01337012
 30
0.0
 11
-251.7570273
 21
426.95087012
 31
0.0
  0
LINE
  8
0
  6
CONTINUOUS
 62
       7
  5
27A
 10
-252.68124296
 20
426.01337012
 30
0.0
 11
-252.32968046
 21
426.95087012
 31
0.0
  0
LINE
  8
0
  6
CONTINUOUS
 62
       7
  5
27B
 10
-252.32968046
 20
426.95087012
 30
0.0
 11
-252.93124296
 21
426.95087012
 31
0.0
  0
LINE
  8
0
  6
CONTINUOUS
 62
       7
  5
27C
 10
-253.24374296
 20
426.01337012
 30
0.0
 11
-252.68124296
 21
426.01337012
 31
0.0
  0
LINE
  8
0
  6
CONTINUOUS
 62
       7
  5
27D
 10
-253.24374296
 20
426.01337012
 30
0.0
 11
-252.93124296
 21
426.95087012
 31
0.0
  0
LINE
  8
0
  6
CONTINUOUS
 62
       7
  5
27E
 10
-253.84276052
 20
426.01337012
 30
0.0
 11
-253.53026052
 21
426.95087012
 31
0.0
  0
LINE
  8
0
  6
CONTINUOUS
 62
       7
  5
27F
 10
-254.32948283
 20
426.01337012
 30
0.0
 11
-254.01698283
 21
426.95087012
 31
0.0
  0
LINE
  8
0
  6
CONTINUOUS
 62
       7
  5
280
 10
-255.23573283
 20
426.01337012
 30
0.0
 11
-254.92323283
 21
426.95087012
 31
0.0
  0
LINE
  8
0
  6
CONTINUOUS
 62
       7
  5
281
 10
-255.82948283
 20
426.01337012
 30
0.0
 11
-255.51698283
 21
426.95087012
 31
0.0
  0
LINE
  8
0
  6
CONTINUOUS
 62
       7
  5
282
 10
-255.98573283
 20
426.01337012
 30
0.0
 11
-255.67323283
 21
426.95087012
 31
0.0
  0
LINE
  8
0
  6
CONTINUOUS
 62
       7
  5
283
 10
-253.53026052
 20
426.95087012
 30
0.0
 11
-254.01698283
 21
426.95087012
 31
0.0
  0
LINE
  8
0
  6
CONTINUOUS
 62
       7
  5
284
 10
-254.32948283
 20
426.01337012
 30
0.0
 11
-253.84276052
 21
426.01337012
 31
0.0
  0
LINE
  8
0
  6
CONTINUOUS
 62
       7
  5
285
 10
-254.57948283
 20
426.95087012
 30
0.0
 11
-254.92323283
 21
426.95087012
 31
0.0
  0
LINE
  8
0
  6
CONTINUOUS
 62
       7
  5
286
 10
-255.51698283
 20
426.95087012
 30
0.0
 11
-255.67323283
 21
426.95087012
 31
0.0
  0
LINE
  8
0
  6
CONTINUOUS
 62
       7
  5
287
 10
-255.23573283
 20
426.01337012
 30
0.0
 11
-254.89198283
 21
426.01337012
 31
0.0
  0
LINE
  8
0
  6
CONTINUOUS
 62
       7
  5
288
 10
-255.82948283
 20
426.01337012
 30
0.0
 11
-255.98573283
 21
426.01337012
 31
0.0
  0
ARC
  8
0
  6
CONTINUOUS
 62
       7
  5
289
 10
-240.69078182
 20
424.51337012
 30
0.0
 40
1.5
 50
269.99999846
 51
450.00000154
  0
LINE
  8
0
  6
CONTINUOUS
 62
       7
  5
28A
 10
-249.92569036
 20
418.51487012
 30
0.0
 11
-247.76944036
 21
418.51487012
 31
0.0
  0
LINE
  8
0
  6
CONTINUOUS
 62
       7
  5
28B
 10
-250.27781536
 20
417.57587012
 30
0.0
 11
-247.11871292
 21
417.57587012
 31
0.0
  0
LINE
  8
0
  6
CONTINUOUS
 62
       7
  5
28C
 10
-247.11871292
 20
417.57587012
 30
0.0
 11
-245.43177542
 21
422.07437012
 31
0.0
  0
LINE
  8
0
  6
CONTINUOUS
 62
       7
  5
28D
 10
-245.07965042
 20
423.01337012
 30
0.0
 11
-243.95465042
 21
426.01337012
 31
0.0
  0
LINE
  8
0
  6
CONTINUOUS
 62
       7
  5
28E
 10
-245.43177542
 20
422.07437012
 30
0.0
 11
-244.75794579
 21
422.07437012
 31
0.0
  0
LINE
  8
0
  6
CONTINUOUS
 62
       7
  5
28F
 10
-243.67933325
 20
422.07437012
 30
0.0
 11
-240.69078182
 21
422.07437012
 31
0.0
  0
LINE
  8
0
  6
CONTINUOUS
 62
       7
  5
290
 10
-241.66744194
 20
418.51487012
 30
0.0
 11
-243.67933325
 21
422.07437012
 31
0.0
  0
ARC
  8
0
  6
CONTINUOUS
 62
       7
  5
291
 10
-240.69078182
 20
424.51337012
 30
0.0
 40
2.4375
 50
269.99999846
 51
450.00000154
  0
LINE
  8
0
  6
CONTINUOUS
 62
       7
  5
292
 10
-242.21531536
 20
417.57587012
 30
0.0
 11
-238.84031536
 21
417.57587012
 31
0.0
  0
LINE
  8
0
  6
CONTINUOUS
 62
       7
  5
293
 10
-241.66744194
 20
418.51487012
 30
0.0
 11
-238.89663746
 21
418.51487012
 31
0.0
  0
ARC
  8
0
  6
CONTINUOUS
 62
       7
  5
294
 10
-239.17595358
 20
420.62077271
 30
0.0
 40
2.12434536
 50
277.55531826
 51
282.61004545
  0
ARC
  8
0
  6
CONTINUOUS
 62
       7
  5
295
 10
-239.17595358
 20
420.62077271
 30
0.0
 40
3.06334536
 50
276.29029126
 51
293.79815571
  0
ARC
  8
0
  6
CONTINUOUS
 62
       7
  5
296
 10
-239.17595358
 20
420.62077271
 30
0.0
 40
3.06334536
 50
316.5712576
 51
318.01426716
  0
ARC
  8
0
  6
CONTINUOUS
 62
       7
  5
297
 10
-236.97570945
 20
419.61183208
 30
0.0
 40
2.03660652
 50
209.33182013
 51
211.50126274
  0
ARC
  8
0
  6
CONTINUOUS
 62
       7
  5
298
 10
-236.97570945
 20
419.61183208
 30
0.0
 40
2.03660652
 50
241.74457628
 51
269.99999846
  0
ARC
  8
0
  6
CONTINUOUS
 62
       7
  5
299
 10
-231.92548248
 20
421.19852531
 30
0.0
 40
3.64232051
 50
241.28311362
 51
264.04345057
  0
LINE
  8
0
  6
CONTINUOUS
 62
       7
  5
29A
 10
-236.97570945
 20
417.57587012
 30
0.0
 11
-234.86266865
 21
417.57587012
 31
0.0
  0
ARC
  8
0
  6
CONTINUOUS
 62
       7
  5
29B
 10
-231.92548248
 20
421.19852531
 30
0.0
 40
2.70332051
 50
251.08707921
 51
263.08482659
  0
ARC
  8
0
  6
CONTINUOUS
 62
       7
  5
29C
 10
-235.65971159
 20
421.64414454
 30
0.0
 40
3.20661627
 50
282.60950804
 51
291.93126858
  0
LINE
  8
0
  6
CONTINUOUS
 62
       7
  5
29D
 10
-236.95126055
 20
418.51487012
 30
0.0
 11
-234.95969055
 21
418.51487012
 31
0.0
  0
ARC
  8
0
  6
CONTINUOUS
 62
       7
  5
29E
 10
-235.65971159
 20
421.64414454
 30
0.0
 40
4.14561627
 50
313.58286062
 51
326.24939208
  0
ARC
  8
0
  6
CONTINUOUS
 62
       7
  5
29F
 10
-235.65971159
 20
421.64414454
 30
0.0
 40
4.14561627
 50
281.08479839
 51
298.59507286
  0
LINE
  8
0
  6
CONTINUOUS
 62
       7
  5
2A0
 10
-232.30346139
 20
417.57587012
 30
0.0
 11
-230.77781536
 21
417.57587012
 31
0.0
  0
LINE
  8
0
  6
CONTINUOUS
 62
       7
  5
2A1
 10
-230.99620843
 20
418.68542358
 30
0.0
 11
-228.44476794
 21
421.23686407
 31
0.0
  0
LINE
  8
0
  6
CONTINUOUS
 62
       7
  5
2A2
 10
-228.35686302
 20
418.51487012
 30
0.0
 11
-227.94431978
 21
420.99012959
 31
0.0
  0
LINE
  8
0
  6
CONTINUOUS
 62
       7
  5
2A3
 10
-232.25096149
 20
418.51487012
 30
0.0
 11
-231.33731536
 21
418.51487012
 31
0.0
  0
ARC
  8
0
  6
CONTINUOUS
 62
       7
  5
2A4
 10
-228.2317101
 20
421.03802798
 30
0.0
 40
0.29142656
 50
350.53767763
 51
496.97750809
  0
LINE
  8
0
  6
CONTINUOUS
 62
       7
  5
2A5
 10
-227.36671312
 20
418.51487012
 30
0.0
 11
-225.80389334
 21
419.26551584
 31
0.0
  0
LINE
  8
0
  6
CONTINUOUS
 62
       7
  5
2A6
 10
-227.21531536
 20
417.57587012
 30
0.0
 11
-225.90686712
 21
418.15565982
 31
0.0
  0
LINE
  8
0
  6
CONTINUOUS
 62
       7
  5
2A7
 10
-228.35686302
 20
418.51487012
 30
0.0
 11
-227.36671312
 21
418.51487012
 31
0.0
  0
LINE
  8
0
  6
CONTINUOUS
 62
       7
  5
2A8
 10
-224.00719299
 20
417.99892524
 30
0.0
 11
-223.56954977
 21
417.57587012
 31
0.0
  0
LINE
  8
0
  6
CONTINUOUS
 62
       7
  5
2A9
 10
-222.52781536
 20
418.51487012
 30
0.0
 11
-221.20867863
 21
418.51487012
 31
0.0
  0
LINE
  8
0
  6
CONTINUOUS
 62
       7
  5
2AA
 10
-218.21039292
 20
421.13837012
 30
0.0
 11
-221.20867863
 21
418.51487012
 31
0.0
  0
LINE
  8
0
  6
CONTINUOUS
 62
       7
  5
2AB
 10
-222.77468473
 20
420.95715764
 30
0.0
 11
-221.77552899
 21
420.95715764
 31
0.0
  0
LINE
  8
0
  6
CONTINUOUS
 62
       7
  5
2AC
 10
-223.00149925
 20
420.33341773
 30
0.0
 11
-222.77468473
 21
420.95715764
 31
0.0
  0
LINE
  8
0
  6
CONTINUOUS
 62
       7
  5
2AD
 10
-222.52781536
 20
418.88837012
 30
0.0
 11
-221.77552899
 21
420.95715764
 31
0.0
  0
LINE
  8
0
  6
CONTINUOUS
 62
       7
  5
2AE
 10
-219.97587121
 20
417.60540886
 30
0.0
 11
-219.50071793
 21
418.91208037
 31
0.0
  0
LINE
  8
0
  6
CONTINUOUS
 62
       7
  5
2AF
 10
-218.08515769
 20
419.82587012
 30
0.0
 11
-218.9033395
 21
417.57587012
 31
0.0
  0
LINE
  8
0
  6
CONTINUOUS
 62
       7
  5
2B0
 10
-217.65281536
 20
417.57587012
 30
0.0
 11
-216.83463354
 21
419.82587012
 31
0.0
  0
LINE
  8
0
  6
CONTINUOUS
 62
       7
  5
2B1
 10
-215.46668629
 20
420.54085006
 30
0.0
 11
-216.20340627
 21
418.51487012
 31
0.0
  0
LINE
  8
0
  6
CONTINUOUS
 62
       7
  5
2B2
 10
-215.77843589
 20
421.13837012
 30
0.0
 11
-215.46668629
 21
420.54085006
 31
0.0
  0
LINE
  8
0
  6
CONTINUOUS
 62
       7
  5
2B3
 10
-217.83551931
 20
420.58066617
 30
0.0
 11
-217.65106642
 21
421.13837012
 31
0.0
  0
LINE
  8
0
  6
CONTINUOUS
 62
       7
  5
2B4
 10
-217.83551931
 20
420.58066617
 30
0.0
 11
-216.83667355
 21
421.13837012
 31
0.0
  0
LINE
  8
0
  6
CONTINUOUS
 62
       7
  5
2B5
 10
-215.77843589
 20
421.13837012
 30
0.0
 11
-216.83667355
 21
421.13837012
 31
0.0
  0
LINE
  8
0
  6
CONTINUOUS
 62
       7
  5
2B6
 10
-217.65106642
 20
421.13837012
 30
0.0
 11
-218.21039292
 21
421.13837012
 31
0.0
  0
ARC
  8
0
  6
CONTINUOUS
 62
       7
  5
2B7
 10
-209.00120957
 20
420.62077271
 30
0.0
 40
2.12434536
 50
277.55531826
 51
282.61004545
  0
ARC
  8
0
  6
CONTINUOUS
 62
       7
  5
2B8
 10
-209.00120957
 20
420.62077271
 30
0.0
 40
3.06334536
 50
276.29029126
 51
293.79815571
  0
ARC
  8
0
  6
CONTINUOUS
 62
       7
  5
2B9
 10
-209.00120957
 20
420.62077271
 30
0.0
 40
3.06334536
 50
316.5712576
 51
318.01426716
  0
ARC
  8
0
  6
CONTINUOUS
 62
       7
  5
2BA
 10
-206.80096544
 20
419.61183208
 30
0.0
 40
2.03660652
 50
209.33182013
 51
211.50126274
  0
ARC
  8
0
  6
CONTINUOUS
 62
       7
  5
2BB
 10
-206.80096544
 20
419.61183208
 30
0.0
 40
2.03660652
 50
241.74457628
 51
269.99999846
  0
LINE
  8
0
  6
CONTINUOUS
 62
       7
  5
2BC
 10
-211.98342119
 20
418.51487012
 30
0.0
 11
-208.72189346
 21
418.51487012
 31
0.0
  0
LINE
  8
0
  6
CONTINUOUS
 62
       7
  5
2BD
 10
-206.80096544
 20
417.57587012
 30
0.0
 11
-204.99534261
 21
417.57587012
 31
0.0
  0
LINE
  8
0
  6
CONTINUOUS
 62
       7
  5
2BE
 10
-206.77651654
 20
418.51487012
 30
0.0
 11
-204.78494654
 21
418.51487012
 31
0.0
  0
LINE
  8
0
  6
CONTINUOUS
 62
       7
  5
2BF
 10
-229.46531536
 20
417.57587012
 30
0.0
 11
-227.21531536
 21
417.57587012
 31
0.0
  0
LINE
  8
0
  6
CONTINUOUS
 62
       7
  5
2C0
 10
-219.97587121
 20
417.60540886
 30
0.0
 11
-218.9033395
 21
417.57587012
 31
0.0
  0
LINE
  8
0
  6
CONTINUOUS
 62
       7
  5
2C1
 10
-216.20340627
 20
418.51487012
 30
0.0
 11
-214.46954752
 21
418.51487012
 31
0.0
  0
LINE
  8
0
  6
CONTINUOUS
 62
       7
  5
2C2
 10
-211.26980381
 20
419.86665426
 30
0.0
 11
-210.56935285
 21
420.43285212
 31
0.0
  0
ARC
  8
0
  6
CONTINUOUS
 62
       7
  5
2C3
 10
-211.98342119
 20
419.38487012
 30
0.0
 40
0.87
 50
34.0753753
 51
269.99999846
  0
ARC
  8
0
  6
CONTINUOUS
 62
       7
  5
2C4
 10
-211.98342119
 20
419.38487012
 30
0.0
 40
1.7600726
 50
36.54256208
 51
190.98611795
  0
LINE
  8
0
  6
CONTINUOUS
 62
       7
  5
2C5
 10
-214.23275372
 20
417.57587012
 30
0.0
 11
-213.34122723
 21
418.23189904
 31
0.0
  0
LINE
  8
0
  6
CONTINUOUS
 62
       7
  5
2C6
 10
-213.72241792
 20
419.06464473
 30
0.0
 11
-214.46954752
 21
418.51487012
 31
0.0
  0
LINE
  8
0
  6
CONTINUOUS
 62
       7
  5
2C7
 10
-213.34122723
 20
418.23189904
 30
0.0
 11
-212.59031536
 21
417.57587012
 31
0.0
  0
LINE
  8
0
  6
CONTINUOUS
 62
       7
  5
2C8
 10
-204.78494654
 20
418.51487012
 30
0.0
 11
-204.99534261
 21
417.57587012
 31
0.0
  0
LINE
  8
0
  6
CONTINUOUS
 62
       7
  5
2C9
 10
-254.64979533
 20
426.73993262
 30
0.0
 11
-255.16542033
 21
426.22430762
 31
0.0
  0
LINE
  8
0
  6
CONTINUOUS
 62
       7
  5
2CA
 10
-253.56482994
 20
426.84716186
 30
0.0
 11
-254.29491341
 21
426.11707838
 31
0.0
  0
LINE
  8
0
  6
CONTINUOUS
 62
       7
  5
2CB
 10
-252.33671171
 20
426.93212012
 30
0.0
 11
-253.23788359
 21
426.03094824
 31
0.0
  0
LINE
  8
0
  6
CONTINUOUS
 62
       7
  5
2CC
 10
-251.1258181
 20
426.95087012
 30
0.0
 11
-252.0633181
 21
426.01337012
 31
0.0
  0
LINE
  8
0
  6
CONTINUOUS
 62
       7
  5
2CD
 10
-249.87375883
 20
426.95087012
 30
0.0
 11
-250.81125883
 21
426.01337012
 31
0.0
  0
LINE
  8
0
  6
CONTINUOUS
 62
       7
  5
2CE
 10
-248.49715433
 20
426.95087012
 30
0.0
 11
-249.43465433
 21
426.01337012
 31
0.0
  0
LINE
  8
0
  6
CONTINUOUS
 62
       7
  5
2CF
 10
-247.33691359
 20
426.95087012
 30
0.0
 11
-248.27441359
 21
426.01337012
 31
0.0
  0
LINE
  8
0
  6
CONTINUOUS
 62
       7
  5
2D0
 10
-247.01255855
 20
417.85894844
 30
0.0
 11
-247.29563687
 21
417.57587012
 31
0.0
  0
LINE
  8
0
  6
CONTINUOUS
 62
       7
  5
2D1
 10
-246.50344167
 20
419.21659346
 30
0.0
 11
-248.14416501
 21
417.57587012
 31
0.0
  0
LINE
  8
0
  6
CONTINUOUS
 62
       7
  5
2D2
 10
-245.99432478
 20
420.57423848
 30
0.0
 11
-247.59888869
 21
418.96967457
 31
0.0
  0
LINE
  8
0
  6
CONTINUOUS
 62
       7
  5
2D3
 10
-248.05369314
 20
418.51487012
 30
0.0
 11
-248.99269314
 21
417.57587012
 31
0.0
  0
LINE
  8
0
  6
CONTINUOUS
 62
       7
  5
2D4
 10
-245.4852079
 20
421.9318835
 30
0.0
 11
-247.08977181
 21
420.32731959
 31
0.0
  0
LINE
  8
0
  6
CONTINUOUS
 62
       7
  5
2D5
 10
-248.90222128
 20
418.51487012
 30
0.0
 11
-249.84122128
 21
417.57587012
 31
0.0
  0
LINE
  8
0
  6
CONTINUOUS
 62
       7
  5
2D6
 10
-249.75074942
 20
418.51487012
 30
0.0
 11
-250.03065492
 21
418.23496461
 31
0.0
  0
LINE
  8
0
  6
CONTINUOUS
 62
       7
  5
2D7
 10
-243.86033383
 20
426.95087012
 30
0.0
 11
-245.05330428
 21
425.75789967
 31
0.0
  0
LINE
  8
0
  6
CONTINUOUS
 62
       7
  5
2D8
 10
-244.70886197
 20
426.95087012
 30
0.0
 11
-245.64636197
 21
426.01337012
 31
0.0
  0
LINE
  8
0
  6
CONTINUOUS
 62
       7
  5
2D9
 10
-245.55739011
 20
426.95087012
 30
0.0
 11
-246.49489011
 21
426.01337012
 31
0.0
  0
LINE
  8
0
  6
CONTINUOUS
 62
       7
  5
2DA
 10
-246.40591824
 20
426.95087012
 30
0.0
 11
-246.90095363
 21
426.45583473
 31
0.0
  0
LINE
  8
0
  6
CONTINUOUS
 62
       7
  5
2DB
 10
-237.80262407
 20
421.12918596
 30
0.0
 11
-238.70019407
 21
420.23161595
 31
0.0
  0
LINE
  8
0
  6
CONTINUOUS
 62
       7
  5
2DC
 10
-236.89901203
 20
421.18426986
 30
0.0
 11
-238.92149366
 21
419.16178823
 31
0.0
  0
LINE
  8
0
  6
CONTINUOUS
 62
       7
  5
2DD
 10
-236.24337189
 20
420.14285372
 30
0.0
 11
-238.80642914
 21
417.57979647
 31
0.0
  0
LINE
  8
0
  6
CONTINUOUS
 62
       7
  5
2DE
 10
-242.16327756
 20
426.95087012
 30
0.0
 11
-243.10077756
 21
426.01337012
 31
0.0
  0
LINE
  8
0
  6
CONTINUOUS
 62
       7
  5
2DF
 10
-244.46697414
 20
424.64717354
 30
0.0
 11
-246.07153804
 21
423.04260963
 31
0.0
  0
LINE
  8
0
  6
CONTINUOUS
 62
       7
  5
2E0
 10
-241.31474942
 20
426.95087012
 30
0.0
 11
-242.25224942
 21
426.01337012
 31
0.0
  0
LINE
  8
0
  6
CONTINUOUS
 62
       7
  5
2E1
 10
-244.97609102
 20
423.28952852
 30
0.0
 11
-246.58065492
 21
421.68496461
 31
0.0
  0
LINE
  8
0
  6
CONTINUOUS
 62
       7
  5
2E2
 10
-240.47572673
 20
426.94136467
 30
0.0
 11
-241.40372128
 21
426.01337012
 31
0.0
  0
LINE
  8
0
  6
CONTINUOUS
 62
       7
  5
2E3
 10
-244.40372128
 20
423.01337012
 30
0.0
 11
-245.34272128
 21
422.07437012
 31
0.0
  0
LINE
  8
0
  6
CONTINUOUS
 62
       7
  5
2E4
 10
-239.79017399
 20
426.77838928
 30
0.0
 11
-240.56083267
 21
426.00773059
 31
0.0
  0
LINE
  8
0
  6
CONTINUOUS
 62
       7
  5
2E5
 10
-243.55519314
 20
423.01337012
 30
0.0
 11
-244.66270178
 21
421.90586148
 31
0.0
  0
LINE
  8
0
  6
CONTINUOUS
 62
       7
  5
2E6
 10
-239.24456108
 20
426.47547405
 30
0.0
 11
-239.91990558
 21
425.80012955
 31
0.0
  0
LINE
  8
0
  6
CONTINUOUS
 62
       7
  5
2E7
 10
-238.80893028
 20
426.0625767
 30
0.0
 11
-239.47692088
 21
425.39458611
 31
0.0
  0
LINE
  8
0
  6
CONTINUOUS
 62
       7
  5
2E8
 10
-238.48096377
 20
425.54201508
 30
0.0
 11
-239.21916887
 21
424.80380998
 31
0.0
  0
LINE
  8
0
  6
CONTINUOUS
 62
       7
  5
2E9
 10
-238.28281192
 20
424.8916388
 30
0.0
 11
-239.36758362
 21
423.80686709
 31
0.0
  0
LINE
  8
0
  6
CONTINUOUS
 62
       7
  5
2EA
 10
-243.01180569
 20
426.95087012
 30
0.0
 11
-243.94930569
 21
426.01337012
 31
0.0
  0
LINE
  8
0
  6
CONTINUOUS
 62
       7
  5
2EB
 10
-243.95785725
 20
426.00481856
 30
0.0
 11
-245.56242116
 21
424.40025465
 31
0.0
  0
LINE
  8
0
  6
CONTINUOUS
 62
       7
  5
2EC
 10
-241.85813687
 20
423.01337012
 30
0.0
 11
-242.79713687
 21
422.07437012
 31
0.0
  0
LINE
  8
0
  6
CONTINUOUS
 62
       7
  5
2ED
 10
-243.36076233
 20
421.51074465
 30
0.0
 11
-244.0498759
 21
420.82163108
 31
0.0
  0
LINE
  8
0
  6
CONTINUOUS
 62
       7
  5
2EE
 10
-242.70666501
 20
423.01337012
 30
0.0
 11
-243.64566501
 21
422.07437012
 31
0.0
  0
LINE
  8
0
  6
CONTINUOUS
 62
       7
  5
2EF
 10
-243.66717527
 20
422.05285985
 30
0.0
 11
-244.35628884
 21
421.36374628
 31
0.0
  0
LINE
  8
0
  6
CONTINUOUS
 62
       7
  5
2F0
 10
-241.00960873
 20
423.01337012
 30
0.0
 11
-241.94860873
 21
422.07437012
 31
0.0
  0
LINE
  8
0
  6
CONTINUOUS
 62
       7
  5
2F1
 10
-243.05434939
 20
420.96862946
 30
0.0
 11
-243.74346297
 21
420.27951588
 31
0.0
  0
LINE
  8
0
  6
CONTINUOUS
 62
       7
  5
2F2
 10
-239.98427879
 20
423.19017192
 30
0.0
 11
-241.10008059
 21
422.07437012
 31
0.0
  0
LINE
  8
0
  6
CONTINUOUS
 62
       7
  5
2F3
 10
-242.74793646
 20
420.42651426
 30
0.0
 11
-243.43705003
 21
419.73740069
 31
0.0
  0
LINE
  8
0
  6
CONTINUOUS
 62
       7
  5
2F4
 10
-238.30316724
 20
424.02275534
 30
0.0
 11
-240.20016704
 21
422.12575554
 31
0.0
  0
LINE
  8
0
  6
CONTINUOUS
 62
       7
  5
2F5
 10
-242.44152352
 20
419.88439906
 30
0.0
 11
-243.13063709
 21
419.19528549
 31
0.0
  0
LINE
  8
0
  6
CONTINUOUS
 62
       7
  5
2F6
 10
-242.13511058
 20
419.34228386
 30
0.0
 11
-242.82422415
 21
418.65317029
 31
0.0
  0
LINE
  8
0
  6
CONTINUOUS
 62
       7
  5
2F7
 10
-241.82869764
 20
418.80016866
 30
0.0
 11
-242.51781121
 21
418.11105509
 31
0.0
  0
LINE
  8
0
  6
CONTINUOUS
 62
       7
  5
2F8
 10
-241.26546804
 20
418.51487012
 30
0.0
 11
-242.20446804
 21
417.57587012
 31
0.0
  0
LINE
  8
0
  6
CONTINUOUS
 62
       7
  5
2F9
 10
-240.41693991
 20
418.51487012
 30
0.0
 11
-241.35593991
 21
417.57587012
 31
0.0
  0
LINE
  8
0
  6
CONTINUOUS
 62
       7
  5
2FA
 10
-239.56841177
 20
418.51487012
 30
0.0
 11
-240.50741177
 21
417.57587012
 31
0.0
  0
LINE
  8
0
  6
CONTINUOUS
 62
       7
  5
2FB
 10
-236.43834597
 20
420.79640778
 30
0.0
 11
-237.21597119
 21
420.01878256
 31
0.0
  0
LINE
  8
0
  6
CONTINUOUS
 62
       7
  5
2FC
 10
-237.92222205
 20
419.3125317
 30
0.0
 11
-239.65888363
 21
417.57587012
 31
0.0
  0
LINE
  8
0
  6
CONTINUOUS
 62
       7
  5
2FD
 10
-231.81909201
 20
423.71860547
 30
0.0
 11
-233.9705992
 21
421.56709827
 31
0.0
  0
LINE
  8
0
  6
CONTINUOUS
 62
       7
  5
2FE
 10
-236.57865712
 20
418.95904035
 30
0.0
 11
-237.79180939
 21
417.74588809
 31
0.0
  0
LINE
  8
0
  6
CONTINUOUS
 62
       7
  5
2FF
 10
-231.23614483
 20
423.45302451
 30
0.0
 11
-234.45470123
 21
420.23446811
 31
0.0
  0
LINE
  8
0
  6
CONTINUOUS
 62
       7
  5
300
 10
-236.17429922
 20
418.51487012
 30
0.0
 11
-237.10954173
 21
417.57962761
 31
0.0
  0
LINE
  8
0
  6
CONTINUOUS
 62
       7
  5
301
 10
-235.32577108
 20
418.51487012
 30
0.0
 11
-236.26477108
 21
417.57587012
 31
0.0
  0
LINE
  8
0
  6
CONTINUOUS
 62
       7
  5
302
 10
-231.02487191
 20
422.8157693
 30
0.0
 11
-232.24666899
 21
421.59397221
 31
0.0
  0
LINE
  8
0
  6
CONTINUOUS
 62
       7
  5
303
 10
-233.34533191
 20
420.4953093
 30
0.0
 11
-234.56712899
 21
419.27351221
 31
0.0
  0
LINE
  8
0
  6
CONTINUOUS
 62
       7
  5
304
 10
-231.07367448
 20
421.91843858
 30
0.0
 11
-235.41624295
 21
417.57587012
 31
0.0
  0
LINE
  8
0
  6
CONTINUOUS
 62
       7
  5
305
 10
-231.44220325
 20
420.70138168
 30
0.0
 11
-234.47096644
 21
417.67261849
 31
0.0
  0
LINE
  8
0
  6
CONTINUOUS
 62
       7
  5
306
 10
-228.27053186
 20
421.32685718
 30
0.0
 11
-232.02151892
 21
417.57587012
 31
0.0
  0
LINE
  8
0
  6
CONTINUOUS
 62
       7
  5
307
 10
-227.9812079
 20
423.31323742
 30
0.0
 11
-228.17690838
 21
423.11753694
 31
0.0
  0
LINE
  8
0
  6
CONTINUOUS
 62
       7
  5
308
 10
-232.68913688
 20
418.60530844
 30
0.0
 11
-233.41827775
 21
417.87616757
 31
0.0
  0
LINE
  8
0
  6
CONTINUOUS
 62
       7
  5
309
 10
-227.25468052
 20
423.19123666
 30
0.0
 11
-228.05490762
 21
422.39100956
 31
0.0
  0
LINE
  8
0
  6
CONTINUOUS
 62
       7
  5
30A
 10
-231.93104706
 20
418.51487012
 30
0.0
 11
-232.78648422
 21
417.65943296
 31
0.0
  0
LINE
  8
0
  6
CONTINUOUS
 62
       7
  5
30B
 10
-223.63528768
 20
420.87093254
 30
0.0
 11
-226.70360477
 21
417.80261545
 31
0.0
  0
LINE
  8
0
  6
CONTINUOUS
 62
       7
  5
30C
 10
-227.68840637
 20
418.51487012
 30
0.0
 11
-228.62740637
 21
417.57587012
 31
0.0
  0
LINE
  8
0
  6
CONTINUOUS
 62
       7
  5
30D
 10
-228.32084873
 20
418.7309559
 30
0.0
 11
-229.47593451
 21
417.57587012
 31
0.0
  0
LINE
  8
0
  6
CONTINUOUS
 62
       7
  5
30E
 10
-228.1511431
 20
419.74918967
 30
0.0
 11
-229.2934859
 21
418.60684687
 31
0.0
  0
LINE
  8
0
  6
CONTINUOUS
 62
       7
  5
30F
 10
-231.17299079
 20
417.57587012
 30
0.0
 11
-227.98143747
 21
420.76742343
 31
0.0
  0
LINE
  8
0
  6
CONTINUOUS
 62
       7
  5
310
 10
-221.8520063
 20
420.95715764
 30
0.0
 11
-225.22764624
 21
417.58151771
 31
0.0
  0
LINE
  8
0
  6
CONTINUOUS
 62
       7
  5
311
 10
-222.21670089
 20
419.74393492
 30
0.0
 11
-223.98406634
 21
417.97656947
 31
0.0
  0
LINE
  8
0
  6
CONTINUOUS
 62
       7
  5
312
 10
-222.52781536
 20
418.58429231
 30
0.0
 11
-223.53623755
 21
417.57587012
 31
0.0
  0
LINE
  8
0
  6
CONTINUOUS
 62
       7
  5
313
 10
-221.74870941
 20
418.51487012
 30
0.0
 11
-222.68770941
 21
417.57587012
 31
0.0
  0
LINE
  8
0
  6
CONTINUOUS
 62
       7
  5
314
 10
-218.74069977
 20
420.67435163
 30
0.0
 11
-221.83918127
 21
417.57587012
 31
0.0
  0
LINE
  8
0
  6
CONTINUOUS
 62
       7
  5
315
 10
-224.91424979
 20
420.44049856
 30
0.0
 11
-225.39651211
 21
419.95823625
 31
0.0
  0
LINE
  8
0
  6
CONTINUOUS
 62
       7
  5
316
 10
-226.35295508
 20
419.00179327
 30
0.0
 11
-227.77887824
 21
417.57587012
 31
0.0
  0
LINE
  8
0
  6
CONTINUOUS
 62
       7
  5
317
 10
-224.62781187
 20
419.02988021
 30
0.0
 11
-225.77052863
 21
417.88716345
 31
0.0
  0
LINE
  8
0
  6
CONTINUOUS
 62
       7
  5
318
 10
-222.70053444
 20
420.95715764
 30
0.0
 11
-222.81705633
 21
420.84063575
 31
0.0
  0
LINE
  8
0
  6
CONTINUOUS
 62
       7
  5
319
 10
-223.11039903
 20
420.54729305
 30
0.0
 11
-223.91711921
 21
419.74057287
 31
0.0
  0
LINE
  8
0
  6
CONTINUOUS
 62
       7
  5
31A
 10
-216.54631278
 20
421.13837012
 30
0.0
 11
-217.85881278
 21
419.82587012
 31
0.0
  0
LINE
  8
0
  6
CONTINUOUS
 62
       7
  5
31B
 10
-218.21449763
 20
419.47018527
 30
0.0
 11
-219.91678387
 21
417.76789903
 31
0.0
  0
LINE
  8
0
  6
CONTINUOUS
 62
       7
  5
31C
 10
93.78468464
 20
429.95087012
 30
0.0
 11
283.15968464
 21
429.95087012
 31
0.0
  0
LINE
  8
0
  6
CONTINUOUS
 62
       7
  5
31D
 10
93.78468464
 20
429.95087012
 30
0.0
 11
93.78468464
 21
400.23245871
 31
0.0
  0
LINE
  8
0
  6
CONTINUOUS
 62
       7
  5
31E
 10
283.15968464
 20
429.95087012
 30
0.0
 11
283.15968464
 21
400.23245871
 31
0.0
  0
LINE
  8
0
  6
CONTINUOUS
 62
       7
  5
31F
 10
-252.34031536
 20
-382.11162988
 30
0.0
 11
-252.34031536
 21
-262.11162988
 31
0.0
  0
LINE
  8
0
  6
CONTINUOUS
 62
       7
  5
320
 10
-112.65281536
 20
-382.11162988
 30
0.0
 11
-112.65281536
 21
-262.11162988
 31
0.0
  0
LINE
  8
0
  6
CONTINUOUS
 62
       7
  5
321
 10
46.72218464
 20
-382.11162988
 30
0.0
 11
46.72218464
 21
-262.11162988
 31
0.0
  0
LINE
  8
0
  6
CONTINUOUS
 62
       7
  5
322
 10
80.09718464
 20
-382.11162988
 30
0.0
 11
80.09718464
 21
-262.11162988
 31
0.0
  0
LINE
  8
0
  6
CONTINUOUS
 62
       7
  5
323
 10
93.03468464
 20
-423.36162988
 30
0.0
 11
93.03468464
 21
-387.17412988
 31
0.0
  0
LINE
  8
0
  6
CONTINUOUS
 62
       7
  5
324
 10
78.03468464
 20
-423.36162988
 30
0.0
 11
78.03468464
 21
-387.17412988
 31
0.0
  0
LINE
  8
0
  6
CONTINUOUS
 62
       7
  5
325
 10
-109.65281536
 20
-423.36162988
 30
0.0
 11
-109.65281536
 21
-387.17412988
 31
0.0
  0
LINE
  8
0
  6
CONTINUOUS
 62
       7
  5
326
 10
-124.65281536
 20
-423.36162988
 30
0.0
 11
-124.65281536
 21
-387.17412988
 31
0.0
  0
LINE
  8
0
  6
CONTINUOUS
 62
       7
  5
327
 10
-273.15281536
 20
-367.11162988
 30
0.0
 11
280.15968464
 21
-367.11162988
 31
0.0
  0
LINE
  8
0
  6
CONTINUOUS
 62
       7
  5
328
 10
-273.15281536
 20
-352.11162988
 30
0.0
 11
280.15968464
 21
-352.11162988
 31
0.0
  0
LINE
  8
0
  6
CONTINUOUS
 62
       7
  5
329
 10
-273.15281536
 20
-337.11162988
 30
0.0
 11
280.15968464
 21
-337.11162988
 31
0.0
  0
LINE
  8
0
  6
CONTINUOUS
 62
       7
  5
32A
 10
-273.15281536
 20
-322.11162988
 30
0.0
 11
280.15968464
 21
-322.11162988
 31
0.0
  0
LINE
  8
0
  6
CONTINUOUS
 62
       7
  5
32B
 10
-273.15281536
 20
-307.11162988
 30
0.0
 11
280.15968464
 21
-307.11162988
 31
0.0
  0
LINE
  8
0
  6
CONTINUOUS
 62
       7
  5
32C
 10
-273.15281536
 20
-292.11162988
 30
0.0
 11
280.15968464
 21
-292.11162988
 31
0.0
  0
LINE
  8
0
  6
CONTINUOUS
 62
       7
  5
32D
 10
-273.15281536
 20
-277.11162988
 30
0.0
 11
280.15968464
 21
-277.11162988
 31
0.0
  0
POINT
  8
0
  6
CONTINUOUS
 62
       7
  5
32E
 10
-273.15281536
 20
120.10353195
 30
0.0
  0
POINT
  8
0
  6
CONTINUOUS
 62
       7
  5
32F
 10
-314.96531536
 20
0.10353195
 30
0.0
  0
POINT
  8
0
  6
CONTINUOUS
 62
       7
  5
330
 10
-273.15281536
 20
-119.89646805
 30
0.0
  0
LINE
  8
0
  6
CONTINUOUS
 62
       7
  5
331
 10
-273.90281536
 20
400.23245871
 30
0.0
 11
283.15968464
 21
400.23245871
 31
0.0
  0
LINE
  8
0
  6
CONTINUOUS
 62
       7
  5
332
 10
-273.15281536
 20
-423.36162988
 30
0.0
 11
280.15968464
 21
-423.36162988
 31
0.0
  0
LINE
  8
0
  6
CONTINUOUS
 62
       7
  5
333
 10
-273.15281536
 20
-387.17412988
 30
0.0
 11
280.15968464
 21
-387.17412988
 31
0.0
  0
LINE
  8
0
  6
CONTINUOUS
 62
       7
  5
334
 10
-273.15281536
 20
-382.11162988
 30
0.0
 11
280.15968464
 21
-382.11162988
 31
0.0
  0
LINE
  8
0
  6
CONTINUOUS
 62
       7
  5
335
 10
-273.15281536
 20
-382.11162988
 30
0.0
 11
-273.15281536
 21
-262.11162988
 31
0.0
  0
LINE
  8
0
  6
CONTINUOUS
 62
       7
  5
336
 10
280.15968464
 20
-382.11162988
 30
0.0
 11
280.15968464
 21
-262.11162988
 31
0.0
  0
LINE
  8
0
  6
CONTINUOUS
 62
       7
  5
337
 10
-273.15281536
 20
-262.11162988
 30
0.0
 11
280.15968464
 21
-262.11162988
 31
0.0
  0
LINE
  8
0
  6
CONTINUOUS
 62
       7
  5
338
 10
-261.34031536
 20
428.63837012
 30
0.0
 11
-261.34031536
 21
414.01337012
 31
0.0
  0
LINE
  8
0
  6
CONTINUOUS
 62
       7
  5
339
 10
-199.46531536
 20
428.63837012
 30
0.0
 11
-199.46531536
 21
414.01337012
 31
0.0
  0
LINE
  8
0
  6
CONTINUOUS
 62
       7
  5
33A
 10
-261.34031536
 20
428.63837012
 30
0.0
 11
-199.46531536
 21
428.63837012
 31
0.0
  0
LINE
  8
0
  6
CONTINUOUS
 62
       7
  5
33B
 10
-261.34031536
 20
414.01337012
 30
0.0
 11
-199.46531536
 21
414.01337012
 31
0.0
  0
LINE
  8
0
  6
CONTINUOUS
 62
       7
  5
33C
 10
-234.31812071
 20
436.62599625
 30
0.0
 11
-242.30574685
 21
428.63837012
 31
0.0
  0
LINE
  8
0
  6
CONTINUOUS
 62
       7
  5
33D
 10
-235.20681026
 20
436.58583484
 30
0.0
 11
-243.15427498
 21
428.63837012
 31
0.0
  0
LINE
  8
0
  6
CONTINUOUS
 62
       7
  5
33E
 10
-236.10454637
 20
436.53662687
 30
0.0
 11
-244.00280312
 21
428.63837012
 31
0.0
  0
LINE
  8
0
  6
CONTINUOUS
 62
       7
  5
33F
 10
-237.0117029
 20
436.47799847
 30
0.0
 11
-244.85133126
 21
428.63837012
 31
0.0
  0
LINE
  8
0
  6
CONTINUOUS
 62
       7
  5
340
 10
-237.92869736
 20
436.40953215
 30
0.0
 11
-245.6998594
 21
428.63837012
 31
0.0
  0
LINE
  8
0
  6
CONTINUOUS
 62
       7
  5
341
 10
-238.85599765
 20
436.33076
 30
0.0
 11
-246.54838753
 21
428.63837012
 31
0.0
  0
LINE
  8
0
  6
CONTINUOUS
 62
       7
  5
342
 10
-239.79413014
 20
436.24115565
 30
0.0
 11
-247.39691567
 21
428.63837012
 31
0.0
  0
LINE
  8
0
  6
CONTINUOUS
 62
       7
  5
343
 10
-240.74368969
 20
436.14012424
 30
0.0
 11
-248.24544381
 21
428.63837012
 31
0.0
  0
LINE
  8
0
  6
CONTINUOUS
 62
       7
  5
344
 10
-241.70535199
 20
436.02699007
 30
0.0
 11
-249.09397194
 21
428.63837012
 31
0.0
  0
LINE
  8
0
  6
CONTINUOUS
 62
       7
  5
345
 10
-242.679889
 20
435.9009812
 30
0.0
 11
-249.94250008
 21
428.63837012
 31
0.0
  0
LINE
  8
0
  6
CONTINUOUS
 62
       7
  5
346
 10
-243.66818852
 20
435.76120982
 30
0.0
 11
-250.79102822
 21
428.63837012
 31
0.0
  0
LINE
  8
0
  6
CONTINUOUS
 62
       7
  5
347
 10
-244.6712793
 20
435.60664717
 30
0.0
 11
-251.63955636
 21
428.63837012
 31
0.0
  0
LINE
  8
0
  6
CONTINUOUS
 62
       7
  5
348
 10
-245.69036375
 20
435.43609086
 30
0.0
 11
-252.48808449
 21
428.63837012
 31
0.0
  0
LINE
  8
0
  6
CONTINUOUS
 62
       7
  5
349
 10
-246.72686119
 20
435.24812156
 30
0.0
 11
-253.33661263
 21
428.63837012
 31
0.0
  0
LINE
  8
0
  6
CONTINUOUS
 62
       7
  5
34A
 10
-247.78246629
 20
435.04104459
 30
0.0
 11
-254.18514077
 21
428.63837012
 31
0.0
  0
LINE
  8
0
  6
CONTINUOUS
 62
       7
  5
34B
 10
-261.34031536
 20
421.48319553
 30
0.0
 11
-261.49764077
 21
421.32587012
 31
0.0
  0
LINE
  8
0
  6
CONTINUOUS
 62
       7
  5
34C
 10
-248.8592297
 20
434.81280933
 30
0.0
 11
-255.03366891
 21
428.63837012
 31
0.0
  0
LINE
  8
0
  6
CONTINUOUS
 62
       7
  5
34D
 10
-261.34031536
 20
422.33172367
 30
0.0
 11
-262.34616891
 21
421.32587012
 31
0.0
  0
LINE
  8
0
  6
CONTINUOUS
 62
       7
  5
34E
 10
-249.95967199
 20
434.56089518
 30
0.0
 11
-255.88219704
 21
428.63837012
 31
0.0
  0
LINE
  8
0
  6
CONTINUOUS
 62
       7
  5
34F
 10
-261.34031536
 20
423.1802518
 30
0.0
 11
-263.19469704
 21
421.32587012
 31
0.0
  0
LINE
  8
0
  6
CONTINUOUS
 62
       7
  5
350
 10
-251.08694995
 20
434.28214535
 30
0.0
 11
-256.73072518
 21
428.63837012
 31
0.0
  0
LINE
  8
0
  6
CONTINUOUS
 62
       7
  5
351
 10
-261.34031536
 20
424.02877994
 30
0.0
 11
-264.04322518
 21
421.32587012
 31
0.0
  0
LINE
  8
0
  6
CONTINUOUS
 62
       7
  5
352
 10
-252.24510762
 20
433.97251582
 30
0.0
 11
-257.57925332
 21
428.63837012
 31
0.0
  0
LINE
  8
0
  6
CONTINUOUS
 62
       7
  5
353
 10
-261.34031536
 20
424.87730808
 30
0.0
 11
-264.89175332
 21
421.32587012
 31
0.0
  0
LINE
  8
0
  6
CONTINUOUS
 62
       7
  5
354
 10
-253.43947211
 20
433.62667946
 30
0.0
 11
-258.42778146
 21
428.63837012
 31
0.0
  0
LINE
  8
0
  6
CONTINUOUS
 62
       7
  5
355
 10
-261.34031536
 20
425.72583622
 30
0.0
 11
-265.74028146
 21
421.32587012
 31
0.0
  0
LINE
  8
0
  6
CONTINUOUS
 62
       7
  5
356
 10
-254.67731208
 20
433.23736763
 30
0.0
 11
-259.27630959
 21
428.63837012
 31
0.0
  0
LINE
  8
0
  6
CONTINUOUS
 62
       7
  5
357
 10
-261.34031536
 20
426.57436435
 30
0.0
 11
-266.58880959
 21
421.32587012
 31
0.0
  0
LINE
  8
0
  6
CONTINUOUS
 62
       7
  5
358
 10
-255.96900982
 20
432.79419803
 30
0.0
 11
-260.12483773
 21
428.63837012
 31
0.0
  0
LINE
  8
0
  6
CONTINUOUS
 62
       7
  5
359
 10
-261.34031536
 20
427.42289249
 30
0.0
 11
-267.43733773
 21
421.32587012
 31
0.0
  0
LINE
  8
0
  6
CONTINUOUS
 62
       7
  5
35A
 10
-257.33034469
 20
432.2813913
 30
0.0
 11
-260.97336587
 21
428.63837012
 31
0.0
  0
LINE
  8
0
  6
CONTINUOUS
 62
       7
  5
35B
 10
-261.34031536
 20
428.27142063
 30
0.0
 11
-268.28586587
 21
421.32587012
 31
0.0
  0
LINE
  8
0
  6
CONTINUOUS
 62
       7
  5
35C
 10
-258.78753798
 20
431.67272614
 30
0.0
 11
-268.8270054
 21
421.63325872
 31
0.0
  0
LINE
  8
0
  6
CONTINUOUS
 62
       7
  5
35D
 10
-260.39074868
 20
430.91804359
 30
0.0
 11
-268.6830809
 21
422.62571136
 31
0.0
  0
LINE
  8
0
  6
CONTINUOUS
 62
       7
  5
35E
 10
-262.26486285
 20
429.89245755
 30
0.0
 11
-268.26825292
 21
423.88906748
 31
0.0
  0
LINE
  8
0
  6
CONTINUOUS
 62
       7
  5
35F
 10
-265.18616063
 20
427.81968791
 30
0.0
 11
-266.80624134
 21
426.1996072
 31
0.0
  0
LINE
  8
0
  6
CONTINUOUS
 62
       7
  5
360
 10
-233.43814202
 20
436.65744681
 30
0.0
 11
-241.45721871
 21
428.63837012
 31
0.0
  0
LINE
  8
0
  6
CONTINUOUS
 62
       7
  5
361
 10
-232.56657196
 20
436.68048873
 30
0.0
 11
-240.60869057
 21
428.63837012
 31
0.0
  0
LINE
  8
0
  6
CONTINUOUS
 62
       7
  5
362
 10
-231.70313793
 20
436.69539462
 30
0.0
 11
-239.76016243
 21
428.63837012
 31
0.0
  0
LINE
  8
0
  6
CONTINUOUS
 62
       7
  5
363
 10
-230.84759364
 20
436.70241078
 30
0.0
 11
-238.9116343
 21
428.63837012
 31
0.0
  0
LINE
  8
0
  6
CONTINUOUS
 62
       7
  5
364
 10
-229.99971632
 20
436.70175995
 30
0.0
 11
-238.06310616
 21
428.63837012
 31
0.0
  0
LINE
  8
0
  6
CONTINUOUS
 62
       7
  5
365
 10
-229.15930437
 20
436.69364377
 30
0.0
 11
-237.21457802
 21
428.63837012
 31
0.0
  0
LINE
  8
0
  6
CONTINUOUS
 62
       7
  5
366
 10
-228.32617525
 20
436.67824476
 30
0.0
 11
-236.36604988
 21
428.63837012
 31
0.0
  0
LINE
  8
0
  6
CONTINUOUS
 62
       7
  5
367
 10
-227.50016378
 20
436.65572808
 30
0.0
 11
-235.51752175
 21
428.63837012
 31
0.0
  0
LINE
  8
0
  6
CONTINUOUS
 62
       7
  5
368
 10
-226.68112061
 20
436.62624311
 30
0.0
 11
-234.66899361
 21
428.63837012
 31
0.0
  0
LINE
  8
0
  6
CONTINUOUS
 62
       7
  5
369
 10
-225.8689109
 20
436.58992469
 30
0.0
 11
-233.82046547
 21
428.63837012
 31
0.0
  0
LINE
  8
0
  6
CONTINUOUS
 62
       7
  5
36A
 10
-225.06341319
 20
436.54689426
 30
0.0
 11
-232.97193733
 21
428.63837012
 31
0.0
  0
LINE
  8
0
  6
CONTINUOUS
 62
       7
  5
36B
 10
-224.26451842
 20
436.49726089
 30
0.0
 11
-232.1234092
 21
428.63837012
 31
0.0
  0
LINE
  8
0
  6
CONTINUOUS
 62
       7
  5
36C
 10
-223.47212908
 20
436.4411221
 30
0.0
 11
-231.27488106
 21
428.63837012
 31
0.0
  0
LINE
  8
0
  6
CONTINUOUS
 62
       7
  5
36D
 10
-222.68615846
 20
436.37856458
 30
0.0
 11
-230.42635292
 21
428.63837012
 31
0.0
  0
LINE
  8
0
  6
CONTINUOUS
 62
       7
  5
36E
 10
-221.90653004
 20
436.30966486
 30
0.0
 11
-229.57782478
 21
428.63837012
 31
0.0
  0
LINE
  8
0
  6
CONTINUOUS
 62
       7
  5
36F
 10
-221.13317694
 20
436.23448983
 30
0.0
 11
-228.72929665
 21
428.63837012
 31
0.0
  0
LINE
  8
0
  6
CONTINUOUS
 62
       7
  5
370
 10
-220.36604143
 20
436.1530972
 30
0.0
 11
-227.88076851
 21
428.63837012
 31
0.0
  0
LINE
  8
0
  6
CONTINUOUS
 62
       7
  5
371
 10
-219.60507456
 20
436.06553593
 30
0.0
 11
-227.03224037
 21
428.63837012
 31
0.0
  0
LINE
  8
0
  6
CONTINUOUS
 62
       7
  5
372
 10
-218.85023582
 20
435.97184653
 30
0.0
 11
-226.18371223
 21
428.63837012
 31
0.0
  0
LINE
  8
0
  6
CONTINUOUS
 62
       7
  5
373
 10
-218.1014929
 20
435.87206132
 30
0.0
 11
-225.3351841
 21
428.63837012
 31
0.0
  0
LINE
  8
0
  6
CONTINUOUS
 62
       7
  5
374
 10
-217.35882144
 20
435.76620464
 30
0.0
 11
-224.48665596
 21
428.63837012
 31
0.0
  0
LINE
  8
0
  6
CONTINUOUS
 62
       7
  5
375
 10
-216.62220492
 20
435.65429303
 30
0.0
 11
-223.63812782
 21
428.63837012
 31
0.0
  0
LINE
  8
0
  6
CONTINUOUS
 62
       7
  5
376
 10
-215.89163449
 20
435.53633531
 30
0.0
 11
-222.78959968
 21
428.63837012
 31
0.0
  0
LINE
  8
0
  6
CONTINUOUS
 62
       7
  5
377
 10
-215.167109
 20
435.41233267
 30
0.0
 11
-221.94107155
 21
428.63837012
 31
0.0
  0
LINE
  8
0
  6
CONTINUOUS
 62
       7
  5
378
 10
-214.44863491
 20
435.28227862
 30
0.0
 11
-221.09254341
 21
428.63837012
 31
0.0
  0
LINE
  8
0
  6
CONTINUOUS
 62
       7
  5
379
 10
-213.73622638
 20
435.14615901
 30
0.0
 11
-220.24401527
 21
428.63837012
 31
0.0
  0
LINE
  8
0
  6
CONTINUOUS
 62
       7
  5
37A
 10
-213.02990536
 20
435.00395189
 30
0.0
 11
-219.39548714
 21
428.63837012
 31
0.0
  0
LINE
  8
0
  6
CONTINUOUS
 62
       7
  5
37B
 10
-212.3297017
 20
434.85562741
 30
0.0
 11
-218.546959
 21
428.63837012
 31
0.0
  0
LINE
  8
0
  6
CONTINUOUS
 62
       7
  5
37C
 10
-211.63565337
 20
434.70114761
 30
0.0
 11
-217.69843086
 21
428.63837012
 31
0.0
  0
LINE
  8
0
  6
CONTINUOUS
 62
       7
  5
37D
 10
-210.94780669
 20
434.54046616
 30
0.0
 11
-216.84990272
 21
428.63837012
 31
0.0
  0
LINE
  8
0
  6
CONTINUOUS
 62
       7
  5
37E
 10
-210.26621665
 20
434.37352806
 30
0.0
 11
-216.00137459
 21
428.63837012
 31
0.0
  0
LINE
  8
0
  6
CONTINUOUS
 62
       7
  5
37F
 10
-209.59094729
 20
434.20026928
 30
0.0
 11
-215.15284645
 21
428.63837012
 31
0.0
  0
LINE
  8
0
  6
CONTINUOUS
 62
       7
  5
380
 10
-208.92207212
 20
434.02061631
 30
0.0
 11
-214.30431831
 21
428.63837012
 31
0.0
  0
LINE
  8
0
  6
CONTINUOUS
 62
       7
  5
381
 10
-208.25967466
 20
433.83448564
 30
0.0
 11
-213.45579017
 21
428.63837012
 31
0.0
  0
LINE
  8
0
  6
CONTINUOUS
 62
       7
  5
382
 10
-207.60384902
 20
433.64178314
 30
0.0
 11
-212.60726204
 21
428.63837012
 31
0.0
  0
LINE
  8
0
  6
CONTINUOUS
 62
       7
  5
383
 10
-206.95470063
 20
433.44240338
 30
0.0
 11
-211.7587339
 21
428.63837012
 31
0.0
  0
LINE
  8
0
  6
CONTINUOUS
 62
       7
  5
384
 10
-206.31234706
 20
433.23622882
 30
0.0
 11
-210.91020576
 21
428.63837012
 31
0.0
  0
LINE
  8
0
  6
CONTINUOUS
 62
       7
  5
385
 10
-205.67691893
 20
433.02312881
 30
0.0
 11
-210.06167762
 21
428.63837012
 31
0.0
  0
LINE
  8
0
  6
CONTINUOUS
 62
       7
  5
386
 10
-205.048561
 20
432.8029586
 30
0.0
 11
-209.21314949
 21
428.63837012
 31
0.0
  0
LINE
  8
0
  6
CONTINUOUS
 62
       7
  5
387
 10
-204.42743345
 20
432.57555802
 30
0.0
 11
-208.36462135
 21
428.63837012
 31
0.0
  0
LINE
  8
0
  6
CONTINUOUS
 62
       7
  5
388
 10
-203.81371331
 20
432.34075002
 30
0.0
 11
-207.51609321
 21
428.63837012
 31
0.0
  0
LINE
  8
0
  6
CONTINUOUS
 62
       7
  5
389
 10
-203.20759613
 20
432.09833906
 30
0.0
 11
-206.66756507
 21
428.63837012
 31
0.0
  0
LINE
  8
0
  6
CONTINUOUS
 62
       7
  5
38A
 10
-202.60929795
 20
431.8481091
 30
0.0
 11
-205.81903694
 21
428.63837012
 31
0.0
  0
LINE
  8
0
  6
CONTINUOUS
 62
       7
  5
38B
 10
-202.01905757
 20
431.58982135
 30
0.0
 11
-204.9705088
 21
428.63837012
 31
0.0
  0
LINE
  8
0
  6
CONTINUOUS
 62
       7
  5
38C
 10
-201.43713919
 20
431.32321159
 30
0.0
 11
-204.12198066
 21
428.63837012
 31
0.0
  0
LINE
  8
0
  6
CONTINUOUS
 62
       7
  5
38D
 10
-200.86383555
 20
431.04798709
 30
0.0
 11
-203.27345252
 21
428.63837012
 31
0.0
  0
LINE
  8
0
  6
CONTINUOUS
 62
       7
  5
38E
 10
-200.29947164
 20
430.76382286
 30
0.0
 11
-202.42492439
 21
428.63837012
 31
0.0
  0
LINE
  8
0
  6
CONTINUOUS
 62
       7
  5
38F
 10
-199.74440907
 20
430.4703573
 30
0.0
 11
-201.57639625
 21
428.63837012
 31
0.0
  0
LINE
  8
0
  6
CONTINUOUS
 62
       7
  5
390
 10
-199.19905129
 20
430.16718694
 30
0.0
 11
-200.72786811
 21
428.63837012
 31
0.0
  0
LINE
  8
0
  6
CONTINUOUS
 62
       7
  5
391
 10
-198.66384995
 20
429.85386015
 30
0.0
 11
-199.87933997
 21
428.63837012
 31
0.0
  0
LINE
  8
0
  6
CONTINUOUS
 62
       7
  5
392
 10
-198.13931251
 20
429.52986944
 30
0.0
 11
-199.46531536
 21
428.2038666
 31
0.0
  0
LINE
  8
0
  6
CONTINUOUS
 62
       7
  5
393
 10
-197.62601164
 20
429.19464218
 30
0.0
 11
-199.46531536
 21
427.35533846
 31
0.0
  0
LINE
  8
0
  6
CONTINUOUS
 62
       7
  5
394
 10
-197.12459673
 20
428.84752895
 30
0.0
 11
-199.46531536
 21
426.50681032
 31
0.0
  0
LINE
  8
0
  6
CONTINUOUS
 62
       7
  5
395
 10
-196.63580833
 20
428.48778921
 30
0.0
 11
-199.46531536
 21
425.65828218
 31
0.0
  0
LINE
  8
0
  6
CONTINUOUS
 62
       7
  5
396
 10
-196.16049632
 20
428.11457309
 30
0.0
 11
-199.46531536
 21
424.80975405
 31
0.0
  0
LINE
  8
0
  6
CONTINUOUS
 62
       7
  5
397
 10
-195.69964312
 20
427.72689814
 30
0.0
 11
-199.46531536
 21
423.96122591
 31
0.0
  0
LINE
  8
0
  6
CONTINUOUS
 62
       7
  5
398
 10
-195.25439382
 20
427.32361931
 30
0.0
 11
-199.46531536
 21
423.11269777
 31
0.0
  0
LINE
  8
0
  6
CONTINUOUS
 62
       7
  5
399
 10
-194.82609577
 20
426.90338923
 30
0.0
 11
-199.46531536
 21
422.26416963
 31
0.0
  0
LINE
  8
0
  6
CONTINUOUS
 62
       7
  5
39A
 10
-194.41635178
 20
426.46460507
 30
0.0
 11
-199.46531536
 21
421.4156415
 31
0.0
  0
LINE
  8
0
  6
CONTINUOUS
 62
       7
  5
39B
 10
-194.02709298
 20
426.00533574
 30
0.0
 11
-198.7065586
 21
421.32587012
 31
0.0
  0
LINE
  8
0
  6
CONTINUOUS
 62
       7
  5
39C
 10
-193.66068095
 20
425.52321963
 30
0.0
 11
-197.85803046
 21
421.32587012
 31
0.0
  0
LINE
  8
0
  6
CONTINUOUS
 62
       7
  5
39D
 10
-193.32005536
 20
425.01531709
 30
0.0
 11
-197.00950233
 21
421.32587012
 31
0.0
  0
LINE
  8
0
  6
CONTINUOUS
 62
       7
  5
39E
 10
-193.00895418
 20
424.47789012
 30
0.0
 11
-196.16097419
 21
421.32587012
 31
0.0
  0
LINE
  8
0
  6
CONTINUOUS
 62
       7
  5
39F
 10
-192.73225624
 20
423.90605993
 30
0.0
 11
-195.31244605
 21
421.32587012
 31
0.0
  0
LINE
  8
0
  6
CONTINUOUS
 62
       7
  5
3A0
 10
-192.49654077
 20
423.29324726
 30
0.0
 11
-194.46391791
 21
421.32587012
 31
0.0
  0
LINE
  8
0
  6
CONTINUOUS
 62
       7
  5
3A1
 10
-192.31106129
 20
422.63019861
 30
0.0
 11
-193.61538978
 21
421.32587012
 31
0.0
  0
LINE
  8
0
  6
CONTINUOUS
 62
       7
  5
3A2
 10
-192.18958546
 20
421.9031463
 30
0.0
 11
-192.76686164
 21
421.32587012
 31
0.0
  0
LINE
  8
0
  6
CONTINUOUS
 62
       7
  5
3A3
 10
-218.58699773
 20
414.01337012
 30
0.0
 11
-226.77956693
 21
405.82080092
 31
0.0
  0
LINE
  8
0
  6
CONTINUOUS
 62
       7
  5
3A4
 10
-219.43552587
 20
414.01337012
 30
0.0
 11
-227.65853566
 21
405.79036032
 31
0.0
  0
LINE
  8
0
  6
CONTINUOUS
 62
       7
  5
3A5
 10
-220.284054
 20
414.01337012
 30
0.0
 11
-228.52912948
 21
405.76829464
 31
0.0
  0
LINE
  8
0
  6
CONTINUOUS
 62
       7
  5
3A6
 10
-221.13258214
 20
414.01337012
 30
0.0
 11
-229.39161773
 21
405.75433453
 31
0.0
  0
LINE
  8
0
  6
CONTINUOUS
 62
       7
  5
3A7
 10
-221.98111028
 20
414.01337012
 30
0.0
 11
-230.24624377
 21
405.74823663
 31
0.0
  0
LINE
  8
0
  6
CONTINUOUS
 62
       7
  5
3A8
 10
-222.82963842
 20
414.01337012
 30
0.0
 11
-231.09322774
 21
405.7497808
 31
0.0
  0
LINE
  8
0
  6
CONTINUOUS
 62
       7
  5
3A9
 10
-223.67816655
 20
414.01337012
 30
0.0
 11
-231.93276891
 21
405.75876776
 31
0.0
  0
LINE
  8
0
  6
CONTINUOUS
 62
       7
  5
3AA
 10
-224.52669469
 20
414.01337012
 30
0.0
 11
-232.76504766
 21
405.77501715
 31
0.0
  0
LINE
  8
0
  6
CONTINUOUS
 62
       7
  5
3AB
 10
-225.37522283
 20
414.01337012
 30
0.0
 11
-233.59022722
 21
405.79836573
 31
0.0
  0
LINE
  8
0
  6
CONTINUOUS
 62
       7
  5
3AC
 10
-226.22375097
 20
414.01337012
 30
0.0
 11
-234.40845517
 21
405.82866592
 31
0.0
  0
LINE
  8
0
  6
CONTINUOUS
 62
       7
  5
3AD
 10
-227.0722791
 20
414.01337012
 30
0.0
 11
-235.21986471
 21
405.86578451
 31
0.0
  0
LINE
  8
0
  6
CONTINUOUS
 62
       7
  5
3AE
 10
-227.92080724
 20
414.01337012
 30
0.0
 11
-236.02457578
 21
405.90960158
 31
0.0
  0
LINE
  8
0
  6
CONTINUOUS
 62
       7
  5
3AF
 10
-228.76933538
 20
414.01337012
 30
0.0
 11
-236.82269604
 21
405.96000946
 31
0.0
  0
LINE
  8
0
  6
CONTINUOUS
 62
       7
  5
3B0
 10
-229.61786352
 20
414.01337012
 30
0.0
 11
-237.61432168
 21
406.01691196
 31
0.0
  0
LINE
  8
0
  6
CONTINUOUS
 62
       7
  5
3B1
 10
-230.46639165
 20
414.01337012
 30
0.0
 11
-238.39953816
 21
406.08022361
 31
0.0
  0
LINE
  8
0
  6
CONTINUOUS
 62
       7
  5
3B2
 10
-231.31491979
 20
414.01337012
 30
0.0
 11
-239.17842085
 21
406.14986906
 31
0.0
  0
LINE
  8
0
  6
CONTINUOUS
 62
       7
  5
3B3
 10
-232.16344793
 20
414.01337012
 30
0.0
 11
-239.95103552
 21
406.22578253
 31
0.0
  0
LINE
  8
0
  6
CONTINUOUS
 62
       7
  5
3B4
 10
-233.01197607
 20
414.01337012
 30
0.0
 11
-240.71743884
 21
406.30790734
 31
0.0
  0
LINE
  8
0
  6
CONTINUOUS
 62
       7
  5
3B5
 10
-233.8605042
 20
414.01337012
 30
0.0
 11
-241.47767876
 21
406.39619557
 31
0.0
  0
LINE
  8
0
  6
CONTINUOUS
 62
       7
  5
3B6
 10
-234.70903234
 20
414.01337012
 30
0.0
 11
-242.23179478
 21
406.49060768
 31
0.0
  0
LINE
  8
0
  6
CONTINUOUS
 62
       7
  5
3B7
 10
-235.55756048
 20
414.01337012
 30
0.0
 11
-242.97981828
 21
406.59111232
 31
0.0
  0
LINE
  8
0
  6
CONTINUOUS
 62
       7
  5
3B8
 10
-236.40608862
 20
414.01337012
 30
0.0
 11
-243.72177267
 21
406.69768606
 31
0.0
  0
LINE
  8
0
  6
CONTINUOUS
 62
       7
  5
3B9
 10
-237.25461675
 20
414.01337012
 30
0.0
 11
-244.45767358
 21
406.81031329
 31
0.0
  0
LINE
  8
0
  6
CONTINUOUS
 62
       7
  5
3BA
 10
-238.10314489
 20
414.01337012
 30
0.0
 11
-245.18752893
 21
406.92898608
 31
0.0
  0
LINE
  8
0
  6
CONTINUOUS
 62
       7
  5
3BB
 10
-238.95167303
 20
414.01337012
 30
0.0
 11
-245.91133898
 21
407.05370417
 31
0.0
  0
LINE
  8
0
  6
CONTINUOUS
 62
       7
  5
3BC
 10
-239.80020116
 20
414.01337012
 30
0.0
 11
-246.62909635
 21
407.18447493
 31
0.0
  0
LINE
  8
0
  6
CONTINUOUS
 62
       7
  5
3BD
 10
-240.6487293
 20
414.01337012
 30
0.0
 11
-247.34078597
 21
407.32131345
 31
0.0
  0
LINE
  8
0
  6
CONTINUOUS
 62
       7
  5
3BE
 10
-241.49725744
 20
414.01337012
 30
0.0
 11
-248.04638497
 21
407.46424259
 31
0.0
  0
LINE
  8
0
  6
CONTINUOUS
 62
       7
  5
3BF
 10
-242.34578558
 20
414.01337012
 30
0.0
 11
-248.74586254
 21
407.61329315
 31
0.0
  0
LINE
  8
0
  6
CONTINUOUS
 62
       7
  5
3C0
 10
-243.19431371
 20
414.01337012
 30
0.0
 11
-249.43917975
 21
407.76850408
 31
0.0
  0
LINE
  8
0
  6
CONTINUOUS
 62
       7
  5
3C1
 10
-244.04284185
 20
414.01337012
 30
0.0
 11
-250.12628926
 21
407.92992271
 31
0.0
  0
LINE
  8
0
  6
CONTINUOUS
 62
       7
  5
3C2
 10
-244.89136999
 20
414.01337012
 30
0.0
 11
-250.80713503
 21
408.09760508
 31
0.0
  0
LINE
  8
0
  6
CONTINUOUS
 62
       7
  5
3C3
 10
-245.73989813
 20
414.01337012
 30
0.0
 11
-251.48165193
 21
408.27161632
 31
0.0
  0
LINE
  8
0
  6
CONTINUOUS
 62
       7
  5
3C4
 10
-246.58842626
 20
414.01337012
 30
0.0
 11
-252.14976529
 21
408.4520311
 31
0.0
  0
LINE
  8
0
  6
CONTINUOUS
 62
       7
  5
3C5
 10
-247.4369544
 20
414.01337012
 30
0.0
 11
-252.81139037
 21
408.63893415
 31
0.0
  0
LINE
  8
0
  6
CONTINUOUS
 62
       7
  5
3C6
 10
-248.28548254
 20
414.01337012
 30
0.0
 11
-253.46643176
 21
408.83242089
 31
0.0
  0
LINE
  8
0
  6
CONTINUOUS
 62
       7
  5
3C7
 10
-249.13401068
 20
414.01337012
 30
0.0
 11
-254.11478264
 21
409.03259816
 31
0.0
  0
LINE
  8
0
  6
CONTINUOUS
 62
       7
  5
3C8
 10
-249.98253881
 20
414.01337012
 30
0.0
 11
-254.75632395
 21
409.23958498
 31
0.0
  0
LINE
  8
0
  6
CONTINUOUS
 62
       7
  5
3C9
 10
-250.83106695
 20
414.01337012
 30
0.0
 11
-255.39092346
 21
409.45351361
 31
0.0
  0
LINE
  8
0
  6
CONTINUOUS
 62
       7
  5
3CA
 10
-251.67959509
 20
414.01337012
 30
0.0
 11
-256.01843464
 21
409.67453057
 31
0.0
  0
LINE
  8
0
  6
CONTINUOUS
 62
       7
  5
3CB
 10
-252.52812323
 20
414.01337012
 30
0.0
 11
-256.63869541
 21
409.90279794
 31
0.0
  0
LINE
  8
0
  6
CONTINUOUS
 62
       7
  5
3CC
 10
-253.37665136
 20
414.01337012
 30
0.0
 11
-257.25152664
 21
410.13849485
 31
0.0
  0
LINE
  8
0
  6
CONTINUOUS
 62
       7
  5
3CD
 10
-254.2251795
 20
414.01337012
 30
0.0
 11
-257.85673045
 21
410.38181917
 31
0.0
  0
LINE
  8
0
  6
CONTINUOUS
 62
       7
  5
3CE
 10
-255.07370764
 20
414.01337012
 30
0.0
 11
-258.45408825
 21
410.63298951
 31
0.0
  0
LINE
  8
0
  6
CONTINUOUS
 62
       7
  5
3CF
 10
-255.92223578
 20
414.01337012
 30
0.0
 11
-259.04335837
 21
410.89224752
 31
0.0
  0
LINE
  8
0
  6
CONTINUOUS
 62
       7
  5
3D0
 10
-256.77076391
 20
414.01337012
 30
0.0
 11
-259.62427342
 21
411.15986061
 31
0.0
  0
LINE
  8
0
  6
CONTINUOUS
 62
       7
  5
3D1
 10
-257.61929205
 20
414.01337012
 30
0.0
 11
-260.19653703
 21
411.43612514
 31
0.0
  0
LINE
  8
0
  6
CONTINUOUS
 62
       7
  5
3D2
 10
-258.46782019
 20
414.01337012
 30
0.0
 11
-260.75982013
 21
411.72137017
 31
0.0
  0
LINE
  8
0
  6
CONTINUOUS
 62
       7
  5
3D3
 10
-259.31634833
 20
414.01337012
 30
0.0
 11
-261.31375647
 21
412.01596198
 31
0.0
  0
LINE
  8
0
  6
CONTINUOUS
 62
       7
  5
3D4
 10
-260.16487646
 20
414.01337012
 30
0.0
 11
-261.85793722
 21
412.32030936
 31
0.0
  0
LINE
  8
0
  6
CONTINUOUS
 62
       7
  5
3D5
 10
-261.0134046
 20
414.01337012
 30
0.0
 11
-262.39190458
 21
412.63487014
 31
0.0
  0
LINE
  8
0
  6
CONTINUOUS
 62
       7
  5
3D6
 10
-261.34031536
 20
414.5349875
 30
0.0
 11
-262.91514388
 21
412.96015898
 31
0.0
  0
LINE
  8
0
  6
CONTINUOUS
 62
       7
  5
3D7
 10
-261.34031536
 20
415.38351564
 30
0.0
 11
-263.42707404
 21
413.29675695
 31
0.0
  0
LINE
  8
0
  6
CONTINUOUS
 62
       7
  5
3D8
 10
-261.34031536
 20
416.23204377
 30
0.0
 11
-263.9270357
 21
413.64532344
 31
0.0
  0
LINE
  8
0
  6
CONTINUOUS
 62
       7
  5
3D9
 10
-261.34031536
 20
417.08057191
 30
0.0
 11
-264.4142764
 21
414.00661087
 31
0.0
  0
LINE
  8
0
  6
CONTINUOUS
 62
       7
  5
3DA
 10
-261.34031536
 20
417.92910005
 30
0.0
 11
-264.8879319
 21
414.3814835
 31
0.0
  0
LINE
  8
0
  6
CONTINUOUS
 62
       7
  5
3DB
 10
-261.34031536
 20
418.77762818
 30
0.0
 11
-265.34700228
 21
414.77094127
 31
0.0
  0
LINE
  8
0
  6
CONTINUOUS
 62
       7
  5
3DC
 10
-261.34031536
 20
419.62615632
 30
0.0
 11
-265.7903208
 21
415.17615088
 31
0.0
  0
LINE
  8
0
  6
CONTINUOUS
 62
       7
  5
3DD
 10
-261.34031536
 20
420.47468446
 30
0.0
 11
-266.21651297
 21
415.59848685
 31
0.0
  0
LINE
  8
0
  6
CONTINUOUS
 62
       7
  5
3DE
 10
-261.33765784
 20
421.32587012
 30
0.0
 11
-266.6239414
 21
416.03958655
 31
0.0
  0
LINE
  8
0
  6
CONTINUOUS
 62
       7
  5
3DF
 10
-262.18618597
 20
421.32587012
 30
0.0
 11
-267.01063009
 21
416.501426
 31
0.0
  0
LINE
  8
0
  6
CONTINUOUS
 62
       7
  5
3E0
 10
-263.03471411
 20
421.32587012
 30
0.0
 11
-267.37415784
 21
416.98642639
 31
0.0
  0
LINE
  8
0
  6
CONTINUOUS
 62
       7
  5
3E1
 10
-263.88324225
 20
421.32587012
 30
0.0
 11
-267.71150384
 21
417.49760853
 31
0.0
  0
LINE
  8
0
  6
CONTINUOUS
 62
       7
  5
3E2
 10
-264.73177039
 20
421.32587012
 30
0.0
 11
-268.01881611
 21
418.0388244
 31
0.0
  0
LINE
  8
0
  6
CONTINUOUS
 62
       7
  5
3E3
 10
-265.58029852
 20
421.32587012
 30
0.0
 11
-268.29104952
 21
418.61511913
 31
0.0
  0
LINE
  8
0
  6
CONTINUOUS
 62
       7
  5
3E4
 10
-266.42882666
 20
421.32587012
 30
0.0
 11
-268.52137043
 21
419.23332635
 31
0.0
  0
LINE
  8
0
  6
CONTINUOUS
 62
       7
  5
3E5
 10
-267.2773548
 20
421.32587012
 30
0.0
 11
-268.70011171
 21
419.90311321
 31
0.0
  0
LINE
  8
0
  6
CONTINUOUS
 62
       7
  5
3E6
 10
-268.12588294
 20
421.32587012
 30
0.0
 11
-268.81277566
 21
420.63897739
 31
0.0
  0
LINE
  8
0
  6
CONTINUOUS
 62
       7
  5
3E7
 10
-217.73846959
 20
414.01337012
 30
0.0
 11
-225.89192477
 21
405.85991494
 31
0.0
  0
LINE
  8
0
  6
CONTINUOUS
 62
       7
  5
3E8
 10
-216.88994145
 20
414.01337012
 30
0.0
 11
-224.99527765
 21
405.90803392
 31
0.0
  0
LINE
  8
0
  6
CONTINUOUS
 62
       7
  5
3E9
 10
-216.04141332
 20
414.01337012
 30
0.0
 11
-224.08925651
 21
405.96552693
 31
0.0
  0
LINE
  8
0
  6
CONTINUOUS
 62
       7
  5
3EA
 10
-215.19288518
 20
414.01337012
 30
0.0
 11
-223.17344931
 21
406.03280599
 31
0.0
  0
LINE
  8
0
  6
CONTINUOUS
 62
       7
  5
3EB
 10
-214.34435704
 20
414.01337012
 30
0.0
 11
-222.24739452
 21
406.11033264
 31
0.0
  0
LINE
  8
0
  6
CONTINUOUS
 62
       7
  5
3EC
 10
-213.4958289
 20
414.01337012
 30
0.0
 11
-221.31057317
 21
406.19862586
 31
0.0
  0
LINE
  8
0
  6
CONTINUOUS
 62
       7
  5
3ED
 10
-212.64730077
 20
414.01337012
 30
0.0
 11
-220.36239907
 21
406.29827182
 31
0.0
  0
LINE
  8
0
  6
CONTINUOUS
 62
       7
  5
3EE
 10
-211.79877263
 20
414.01337012
 30
0.0
 11
-219.40220685
 21
406.4099359
 31
0.0
  0
LINE
  8
0
  6
CONTINUOUS
 62
       7
  5
3EF
 10
-210.95024449
 20
414.01337012
 30
0.0
 11
-218.42923688
 21
406.53437774
 31
0.0
  0
LINE
  8
0
  6
CONTINUOUS
 62
       7
  5
3F0
 10
-210.10171636
 20
414.01337012
 30
0.0
 11
-217.44261623
 21
406.67247025
 31
0.0
  0
LINE
  8
0
  6
CONTINUOUS
 62
       7
  5
3F1
 10
-209.25318822
 20
414.01337012
 30
0.0
 11
-216.44133436
 21
406.82522398
 31
0.0
  0
LINE
  8
0
  6
CONTINUOUS
 62
       7
  5
3F2
 10
-208.40466008
 20
414.01337012
 30
0.0
 11
-215.42421144
 21
406.99381876
 31
0.0
  0
LINE
  8
0
  6
CONTINUOUS
 62
       7
  5
3F3
 10
-207.55613194
 20
414.01337012
 30
0.0
 11
-214.3898565
 21
407.17964556
 31
0.0
  0
LINE
  8
0
  6
CONTINUOUS
 62
       7
  5
3F4
 10
-199.39510381
 20
421.32587012
 30
0.0
 11
-199.46531536
 21
421.25565857
 31
0.0
  0
LINE
  8
0
  6
CONTINUOUS
 62
       7
  5
3F5
 10
-206.70760381
 20
414.01337012
 30
0.0
 11
-213.33661114
 21
407.38436279
 31
0.0
  0
LINE
  8
0
  6
CONTINUOUS
 62
       7
  5
3F6
 10
-198.54657567
 20
421.32587012
 30
0.0
 11
-199.46531536
 21
420.40713043
 31
0.0
  0
LINE
  8
0
  6
CONTINUOUS
 62
       7
  5
3F7
 10
-205.85907567
 20
414.01337012
 30
0.0
 11
-212.26247199
 21
407.6099738
 31
0.0
  0
LINE
  8
0
  6
CONTINUOUS
 62
       7
  5
3F8
 10
-197.69804753
 20
421.32587012
 30
0.0
 11
-199.46531536
 21
419.55860229
 31
0.0
  0
LINE
  8
0
  6
CONTINUOUS
 62
       7
  5
3F9
 10
-205.01054753
 20
414.01337012
 30
0.0
 11
-211.1649815
 21
407.85893615
 31
0.0
  0
LINE
  8
0
  6
CONTINUOUS
 62
       7
  5
3FA
 10
-196.84951939
 20
421.32587012
 30
0.0
 11
-199.46531536
 21
418.71007415
 31
0.0
  0
LINE
  8
0
  6
CONTINUOUS
 62
       7
  5
3FB
 10
-204.16201939
 20
414.01337012
 30
0.0
 11
-210.04106918
 21
408.13432034
 31
0.0
  0
LINE
  8
0
  6
CONTINUOUS
 62
       7
  5
3FC
 10
-196.00099126
 20
421.32587012
 30
0.0
 11
-199.46531536
 21
417.86154602
 31
0.0
  0
LINE
  8
0
  6
CONTINUOUS
 62
       7
  5
3FD
 10
-203.31349126
 20
414.01337012
 30
0.0
 11
-208.88681304
 21
408.44004834
 31
0.0
  0
LINE
  8
0
  6
CONTINUOUS
 62
       7
  5
3FE
 10
-195.15246312
 20
421.32587012
 30
0.0
 11
-199.46531536
 21
417.01301788
 31
0.0
  0
LINE
  8
0
  6
CONTINUOUS
 62
       7
  5
3FF
 10
-202.46496312
 20
414.01337012
 30
0.0
 11
-207.69706542
 21
408.78126782
 31
0.0
  0
LINE
  8
0
  6
CONTINUOUS
 62
       7
  5
400
 10
-194.30393498
 20
421.32587012
 30
0.0
 11
-199.46531536
 21
416.16448974
 31
0.0
  0
LINE
  8
0
  6
CONTINUOUS
 62
       7
  5
401
 10
-201.61643498
 20
414.01337012
 30
0.0
 11
-206.46483506
 21
409.16497004
 31
0.0
  0
LINE
  8
0
  6
CONTINUOUS
 62
       7
  5
402
 10
-193.45540684
 20
421.32587012
 30
0.0
 11
-199.46531536
 21
415.3159616
 31
0.0
  0
LINE
  8
0
  6
CONTINUOUS
 62
       7
  5
403
 10
-200.76790684
 20
414.01337012
 30
0.0
 11
-205.1801968
 21
409.60108017
 31
0.0
  0
LINE
  8
0
  6
CONTINUOUS
 62
       7
  5
404
 10
-192.60687871
 20
421.32587012
 30
0.0
 11
-199.46531536
 21
414.46743347
 31
0.0
  0
LINE
  8
0
  6
CONTINUOUS
 62
       7
  5
405
 10
-199.91937871
 20
414.01337012
 30
0.0
 11
-203.82819337
 21
410.10455545
 31
0.0
  0
LINE
  8
0
  6
CONTINUOUS
 62
       7
  5
406
 10
-192.16008362
 20
420.92413706
 30
0.0
 11
-202.38428007
 21
410.69994061
 31
0.0
  0
LINE
  8
0
  6
CONTINUOUS
 62
       7
  5
407
 10
-192.28260446
 20
419.95308809
 30
0.0
 11
-200.80247305
 21
411.4332195
 31
0.0
  0
LINE
  8
0
  6
CONTINUOUS
 62
       7
  5
408
 10
-192.65266706
 20
418.73449735
 30
0.0
 11
-198.97312425
 21
412.41404016
 31
0.0
  0
LINE
  8
0
  6
CONTINUOUS
 62
       7
  5
409
 10
-193.79734352
 20
416.74129276
 30
0.0
 11
-196.36916161
 21
414.16947467
 31
0.0
  0
POINT
  8
0
  6
CONTINUOUS
 62
       7
  5
40A
 10
120.88102206
 20
68.5028374
 30
0.0
  0
POINT
  8
0
  6
CONTINUOUS
 62
       7
  5
40B
 10
187.63457686
 20
53.30153284
 30
0.0
  0
POINT
  8
0
  6
CONTINUOUS
 62
       7
  5
40C
 10
188.47218464
 20
415.09166442
 30
0.0
  0
POINT
  8
0
  6
CONTINUOUS
 62
       7
  5
40D
 10
-44.67360024
 20
419.59166442
 30
0.0
  0
POINT
  8
0
  6
CONTINUOUS
 62
       7
  5
40E
 10
186.59718464
 20
-405.26787988
 30
0.0
  0
POINT
  8
0
  6
CONTINUOUS
 62
       7
  5
40F
 10
63.40968464
 20
-359.61162988
 30
0.0
  0
POINT
  8
0
  6
CONTINUOUS
 62
       7
  5
410
 10
-249.34031536
 20
-359.61162988
 30
0.0
  0
POINT
  8
0
  6
CONTINUOUS
 62
       7
  5
411
 10
-109.65281536
 20
-359.61162988
 30
0.0
  0
POINT
  8
0
  6
CONTINUOUS
 62
       7
  5
412
 10
83.09718464
 20
-359.61162988
 30
0.0
  0
LINE
  8
0
  6
CONTINUOUS
 62
       7
  5
413
 10
-314.96531536
 20
460.5
 30
0.0
 11
-314.96531536
 21
445.5
 31
0.0
  0
LINE
  8
0
  6
CONTINUOUS
 62
       7
  5
414
 10
-314.96531536
 20
445.5
 30
0.0
 11
-329.96531536
 21
445.5
 31
0.0
  0
LINE
  8
0
  6
CONTINUOUS
 62
       7
  5
415
 10
315.03468464
 20
445.5
 30
0.0
 11
330.03468464
 21
445.5
 31
0.0
  0
LINE
  8
0
  6
CONTINUOUS
 62
       7
  5
416
 10
315.03468464
 20
445.5
 30
0.0
 11
315.03468464
 21
460.5
 31
0.0
  0
LINE
  8
0
  6
CONTINUOUS
 62
       7
  5
417
 10
315.03468464
 20
-460.5
 30
0.0
 11
315.03468464
 21
-445.5
 31
0.0
  0
LINE
  8
0
  6
CONTINUOUS
 62
       7
  5
418
 10
315.03468464
 20
-445.5
 30
0.0
 11
330.03468464
 21
-445.5
 31
0.0
  0
LINE
  8
0
  6
CONTINUOUS
 62
       7
  5
419
 10
-330.03468464
 20
-445.5
 30
0.0
 11
-314.96531536
 21
-445.5
 31
0.0
  0
LINE
  8
0
  6
CONTINUOUS
 62
       7
  5
41A
 10
-314.96531536
 20
-445.60353195
 30
0.0
 11
-314.96531536
 21
-460.4998396
 31
0.0
  0
POINT
  8
0
  6
CONTINUOUS
 62
       7
  5
41B
 10
63.40968464
 20
-344.61162988
 30
0.0
  0
POINT
  8
0
  6
CONTINUOUS
 62
       7
  5
41C
 10
-249.34031536
 20
-344.61162988
 30
0.0
  0
POINT
  8
0
  6
CONTINUOUS
 62
       7
  5
41D
 10
-109.65281536
 20
-344.61162988
 30
0.0
  0
POINT
  8
0
  6
CONTINUOUS
 62
       7
  5
41E
 10
83.09718464
 20
-344.61162988
 30
0.0
  0
POINT
  8
0
  6
CONTINUOUS
 62
       7
  5
41F
 10
63.40968464
 20
-329.61162988
 30
0.0
  0
POINT
  8
0
  6
CONTINUOUS
 62
       7
  5
420
 10
-249.34031536
 20
-329.61162988
 30
0.0
  0
POINT
  8
0
  6
CONTINUOUS
 62
       7
  5
421
 10
-109.65281536
 20
-329.61162988
 30
0.0
  0
POINT
  8
0
  6
CONTINUOUS
 62
       7
  5
422
 10
83.09718464
 20
-329.61162988
 30
0.0
  0
POINT
  8
0
  6
CONTINUOUS
 62
       7
  5
423
 10
63.40968464
 20
-314.61162988
 30
0.0
  0
POINT
  8
0
  6
CONTINUOUS
 62
       7
  5
424
 10
-249.34031536
 20
-314.61162988
 30
0.0
  0
POINT
  8
0
  6
CONTINUOUS
 62
       7
  5
425
 10
-109.65281536
 20
-314.61162988
 30
0.0
  0
POINT
  8
0
  6
CONTINUOUS
 62
       7
  5
426
 10
83.09718464
 20
-314.61162988
 30
0.0
  0
POINT
  8
0
  6
CONTINUOUS
 62
       7
  5
427
 10
63.40968464
 20
-299.61162988
 30
0.0
  0
POINT
  8
0
  6
CONTINUOUS
 62
       7
  5
428
 10
-249.34031536
 20
-299.61162988
 30
0.0
  0
POINT
  8
0
  6
CONTINUOUS
 62
       7
  5
429
 10
-109.65281536
 20
-299.61162988
 30
0.0
  0
POINT
  8
0
  6
CONTINUOUS
 62
       7
  5
42A
 10
83.09718464
 20
-299.61162988
 30
0.0
  0
POINT
  8
0
  6
CONTINUOUS
 62
       7
  5
42B
 10
63.40968464
 20
-284.61162988
 30
0.0
  0
POINT
  8
0
  6
CONTINUOUS
 62
       7
  5
42C
 10
-249.34031536
 20
-284.61162988
 30
0.0
  0
POINT
  8
0
  6
CONTINUOUS
 62
       7
  5
42D
 10
-109.65281536
 20
-284.61162988
 30
0.0
  0
POINT
  8
0
  6
CONTINUOUS
 62
       7
  5
42E
 10
83.09718464
 20
-284.61162988
 30
0.0
  0
POINT
  8
0
  6
CONTINUOUS
 62
       7
  5
42F
 10
63.40968464
 20
-269.61162988
 30
0.0
  0
POINT
  8
0
  6
CONTINUOUS
 62
       7
  5
430
 10
-249.34031536
 20
-269.61162988
 30
0.0
  0
POINT
  8
0
  6
CONTINUOUS
 62
       7
  5
431
 10
-109.65281536
 20
-269.61162988
 30
0.0
  0
POINT
  8
0
  6
CONTINUOUS
 62
       7
  5
432
 10
83.09718464
 20
-269.61162988
 30
0.0
  0
POINT
  8
0
  6
CONTINUOUS
 62
       7
  5
433
 10
-15.80906536
 20
-404.66787988
 30
0.0
  0
POINT
  8
0
  6
CONTINUOUS
 62
       7
  5
434
 10
-44.67360024
 20
419.59166442
 30
0.0
  0
POINT
  8
0
  6
CONTINUOUS
 62
       7
  5
435
 10
188.47218464
 20
415.09166442
 30
0.0
  0
TEXT
  8
0
 62
       7
  5
436
 10
-252.11887833
 20
-415.67412988
 30
0.0
 40
10.2
  1
株式会社
 41
0.8
 72
       5
 11
-219.47887833
 21
-415.67412988
 31
0.0
  0
TEXT
  8
0
 62
       7
  5
437
 10
-120.75429941
 20
-398.7477071
 30
0.0
 40
9.0
  1
品
 41
0.8
 72
       5
 11
-113.55429941
 21
-398.7477071
 31
0.0
  0
TEXT
  8
0
 62
       7
  5
438
 10
-120.75429941
 20
-416.7477071
 30
0.0
 40
9.0
  1
名
 41
0.8
 72
       5
 11
-113.55429941
 21
-416.7477071
 31
0.0
  0
TEXT
  8
0
 62
       7
  5
439
 10
81.75241572
 20
-398.80049651
 30
0.0
 40
9.0
  1
品
 41
0.8
 72
       5
 11
88.95241572
 21
-398.80049651
 31
0.0
  0
TEXT
  8
0
 62
       7
  5
43A
 10
81.75241572
 20
-416.80049651
 30
0.0
 40
9.0
  1
番
 41
0.8
 72
       5
 11
88.95241572
 21
-416.80049651
 31
0.0
  0
TEXT
  8
0
 62
       7
  5
43B
 10
-268.01755435
 20
-365.49173009
 30
0.0
 40
12.0
  1
1
 41
0.8
 72
       5
 11
-258.41755435
 21
-365.49173009
 31
0.0
  0
TEXT
  8
0
 62
       7
  5
43C
 10
-268.01755435
 20
-350.49173009
 30
0.0
 40
12.0
  1
2
 41
0.8
 72
       5
 11
-258.41755435
 21
-350.49173009
 31
0.0
  0
TEXT
  8
0
 62
       7
  5
43D
 10
-268.01755435
 20
-335.49173009
 30
0.0
 40
12.0
  1
3
 41
0.8
 72
       5
 11
-258.41755435
 21
-335.49173009
 31
0.0
  0
TEXT
  8
0
 62
       7
  5
43E
 10
-268.01755435
 20
-320.49173009
 30
0.0
 40
12.0
  1
4
 41
0.8
 72
       5
 11
-258.41755435
 21
-320.49173009
 31
0.0
  0
TEXT
  8
0
 62
       7
  5
43F
 10
-268.01755435
 20
-305.49173009
 30
0.0
 40
12.0
  1
5
 41
0.8
 72
       5
 11
-258.41755435
 21
-305.49173009
 31
0.0
  0
TEXT
  8
0
 62
       7
  5
440
 10
-268.01755435
 20
-290.49173009
 30
0.0
 40
12.0
  1
6
 41
0.8
 72
       5
 11
-258.41755435
 21
-290.49173009
 31
0.0
  0
TEXT
  8
0
 62
       7
  5
441
 10
-268.01755435
 20
-275.49173009
 30
0.0
 40
12.0
  1
7
 41
0.8
 72
       5
 11
-258.41755435
 21
-275.49173009
 31
0.0
  0
TEXT
  8
0
 62
       7
  5
442
 10
155.65098824
 20
-380.43252915
 30
0.0
 40
12.0
  1
摘要・仕上
 41
0.8
 72
       5
 11
203.65098824
 21
-380.43252915
 31
0.0
  0
TEXT
  8
0
 62
       7
  5
443
 10
48.74406852
 20
-380.43252915
 30
0.0
 40
12.0
  1
個　数
 41
0.8
 72
       5
 11
77.54406852
 21
-380.43252915
 31
0.0
  0
TEXT
  8
0
 62
       7
  5
444
 10
-52.04365938
 20
-380.43252915
 30
0.0
 40
12.0
  1
材　　質
 41
0.8
 72
       5
 11
-13.64365938
 21
-380.43252915
 31
0.0
  0
TEXT
  8
0
 62
       7
  5
445
 10
-206.59591866
 20
-380.43252915
 30
0.0
 40
12.0
  1
部　品　名
 41
0.8
 72
       5
 11
-158.59591866
 21
-380.43252915
 31
0.0
  0
TEXT
  8
0
 62
       7
  5
446
 10
-272.72225851
 20
-380.43252915
 30
0.0
 40
12.0
  1
部番
 41
0.8
 72
       5
 11
-253.52225851
 21
-380.43252915
 31
0.0
  0
TEXT
  8
0
 62
       7
  5
447
 10
299.44396269
 20
-77.6668715
 30
0.0
 40
12.0
  1
ウォッシュルーム用品
 50
-90.00000154
 41
0.8
 72
       5
 11
299.44396012
 21
-173.6668715
 31
0.0
  0
TEXT
  8
0
 62
       7
  5
448
 10
150.29705255
 20
377.91534498
 30
0.0
 40
12.0
  1
（ ）内寸法はリベットを含む
 41
0.8
 72
       5
 11
284.69705255
 21
377.91534498
 31
0.0
  0
TEXT
  8
0
 62
       7
  5
449
 10
223.29061
 20
-439.8794885
 30
0.0
 40
12.0
  1
０１１１０１
 41
0.8
 72
       5
 11
280.89061
 21
-439.8794885
 31
0.0
  0
INSERT
  8
0
  6
CONTINUOUS
  5
44A
  2
GROUP_1
 10
0.0
 20
0.0
 30
0.0
  0
INSERT
  8
0
  6
CONTINUOUS
  5
44B
  2
GROUP_2
 10
0.0
 20
0.0
 30
0.0
  0
INSERT
  8
0
  6
CONTINUOUS
  5
44C
  2
GROUP_3
 10
0.0
 20
0.0
 30
0.0
  0
INSERT
  8
0
  6
CONTINUOUS
  5
44D
  2
GROUP_4
 10
0.0
 20
0.0
 30
0.0
  0
INSERT
  8
0
  6
CONTINUOUS
  5
44E
  2
GROUP_5
 10
0.0
 20
0.0
 30
0.0
  0
INSERT
  8
0
  6
CONTINUOUS
  5
44F
  2
GROUP_6
 10
0.0
 20
0.0
 30
0.0
  0
INSERT
  8
0
  6
CONTINUOUS
  5
450
  2
GROUP_7
 10
0.0
 20
0.0
 30
0.0
  0
INSERT
  8
0
  6
CONTINUOUS
  5
451
  2
GROUP_8
 10
0.0
 20
0.0
 30
0.0
  0
INSERT
  8
0
  6
CONTINUOUS
  5
452
  2
GROUP_9
 10
0.0
 20
0.0
 30
0.0
  0
INSERT
  8
0
  6
CONTINUOUS
  5
453
  2
GROUP_10
 10
0.0
 20
0.0
 30
0.0
  0
INSERT
  8
0
  6
CONTINUOUS
  5
454
  2
GROUP_11
 10
0.0
 20
0.0
 30
0.0
  0
INSERT
  8
0
  6
CONTINUOUS
  5
455
  2
GROUP_12
 10
0.0
 20
0.0
 30
0.0
  0
INSERT
  8
0
  6
CONTINUOUS
  5
456
  2
GROUP_13
 10
0.0
 20
0.0
 30
0.0
  0
TEXT
  8
240
 62
       7
  5
457
 10
-249.34031536
 20
-365.61162988
 30
0.0
 40
12.0
  1
表面板
 41
0.8
 72
       5
 11
-220.54031536
 21
-365.61162988
 31
0.0
  0
TEXT
  8
240
 62
       7
  5
458
 10
83.09718464
 20
-365.61162988
 30
0.0
 40
12.0
  1
ヘア－ライン
 41
0.8
 72
       5
 11
140.69718464
 21
-365.61162988
 31
0.0
  0
TEXT
  8
240
 62
       7
  5
459
 10
-109.65281536
 20
-365.61162988
 30
0.0
 40
12.0
  1
SUS304
 41
0.8
 72
       5
 11
-52.05281536
 21
-365.61162988
 31
0.0
  0
TEXT
  8
240
 62
       7
  5
45A
 10
58.60968464
 20
-365.61162988
 30
0.0
 40
12.0
  1
1
 41
0.8
 72
       5
 11
68.20968464
 21
-365.61162988
 31
0.0
  0
TEXT
  8
240
 62
       7
  5
45B
 10
136.19718464
 20
-414.26787988
 30
0.0
 40
18.0
  1
R1010-S
 41
0.8
 72
       5
 11
236.99718464
 21
-414.26787988
 31
0.0
  0
TEXT
  8
240
 62
       7
  5
45C
 10
-58.93673277
 20
-257.72467918
 30
0.0
 40
12.0
  1
取付壁穴寸法　H130XW290XD60m/m　特注で鏡面仕上可能
 41
0.8
 72
       5
 11
257.86326723
 21
-257.72467918
 31
0.0
  0
TEXT
  8
240
 62
       7
  5
45D
 10
-249.34031536
 20
-350.61162988
 30
0.0
 40
12.0
  1
裏箱
 41
0.8
 72
       5
 11
-230.14031536
 21
-350.61162988
 31
0.0
  0
TEXT
  8
240
 62
       7
  5
45E
 10
-109.65281536
 20
-350.61162988
 30
0.0
 40
12.0
  1
SUS304
 41
0.8
 72
       5
 11
-52.05281536
 21
-350.61162988
 31
0.0
  0
TEXT
  8
240
 62
       7
  5
45F
 10
58.60968464
 20
-350.61162988
 30
0.0
 40
12.0
  1
1
 41
0.8
 72
       5
 11
68.20968464
 21
-350.61162988
 31
0.0
  0
TEXT
  8
240
 62
       7
  5
460
 10
83.09718464
 20
-350.61162988
 30
0.0
 40
12.0
  1
２Ｂ
 41
0.8
 72
       5
 11
102.29718464
 21
-350.61162988
 31
0.0
  0
TEXT
  8
240
 62
       7
  5
461
 10
-249.34031536
 20
-335.61162988
 30
0.0
 40
12.0
  1
取付ネジ　４Ｘ３０
 41
0.8
 72
       5
 11
-162.94031536
 21
-335.61162988
 31
0.0
  0
TEXT
  8
240
 62
       7
  5
462
 10
-109.65281536
 20
-335.61162988
 30
0.0
 40
12.0
  1
SUS304
 41
0.8
 72
       5
 11
-52.05281536
 21
-335.61162988
 31
0.0
  0
TEXT
  8
240
 62
       7
  5
463
 10
58.60968464
 20
-335.61162988
 30
0.0
 40
12.0
  1
4
 41
0.8
 72
       5
 11
68.20968464
 21
-335.61162988
 31
0.0
  0
TEXT
  8
240
 62
       7
  5
464
 10
-95.00906536
 20
-404.66787988
 30
0.0
 40
18.0
  1
ペ－パ－タオルホルダ－
 41
0.8
 72
       5
 11
63.39093464
 21
-404.66787988
 31
0.0
  0
TEXT
  8
240
 62
       7
  5
465
 10
-109.40906536
 20
-422.76162988
 30
0.0
 40
18.0
  1
（ティッシュボックス兼用)
 41
0.8
 72
       5
 11
77.79093464
 21
-422.76162988
 31
0.0
  0
TEXT
  8
240
 62
       7
  5
466
 10
-123.87360024
 20
419.59166442
 30
0.0
 40
18.0
  1
ペ－パ－タオルホルダ－
 41
0.8
 72
       5
 11
34.52639976
 21
419.59166442
 31
0.0
  0
TEXT
  8
240
 62
       7
  5
467
 10
-138.27360024
 20
401.49791442
 30
0.0
 40
18.0
  1
（ティッシュボックス兼用)
 41
0.8
 72
       5
 11
48.92639976
 21
401.49791442
 31
0.0
  0
TEXT
  8
240
 62
       7
  5
468
 10
138.07218464
 20
406.09166442
 30
0.0
 40
18.0
  1
R1010-S
 41
0.8
 72
       5
 11
238.87218464
 21
406.09166442
 31
0.0
  0
LINE
  8
1
  6
CONTINUOUS
 62
       7
  5
469
 10
-159.83323607
 20
292.97148058
 30
0.0
 11
-159.83323607
 21
322.97148058
 31
0.0
  0
LINE
  8
1
  6
CONTINUOUS
 62
       7
  5
46A
 10
122.16676393
 20
292.97148058
 30
0.0
 11
122.16676393
 21
322.97148058
 31
0.0
  0
LINE
  8
1
  6
CONTINUOUS
 62
       7
  5
46B
 10
-159.83323607
 20
319.97148058
 30
0.0
 11
122.16676393
 21
319.97148058
 31
0.0
  0
LINE
  8
1
  6
CONTINUOUS
 62
       7
  5
46C
 10
-159.83323607
 20
319.97148058
 30
0.0
 11
-152.49712907
 21
318.4121429
 31
0.0
  0
LINE
  8
1
  6
CONTINUOUS
 62
       7
  5
46D
 10
-159.83323607
 20
319.97148058
 30
0.0
 11
-152.49712907
 21
321.53081826
 31
0.0
  0
LINE
  8
1
  6
CONTINUOUS
 62
       7
  5
46E
 10
122.16676393
 20
319.97148058
 30
0.0
 11
114.83065692
 21
321.53081826
 31
0.0
  0
LINE
  8
1
  6
CONTINUOUS
 62
       7
  5
46F
 10
122.16676393
 20
319.97148058
 30
0.0
 11
114.83065692
 21
318.4121429
 31
0.0
  0
LINE
  8
1
  6
CONTINUOUS
 62
       7
  5
470
 10
131.19606267
 20
232.04136194
 30
0.0
 11
179.05143421
 21
232.04136194
 31
0.0
  0
LINE
  8
1
  6
CONTINUOUS
 62
       7
  5
471
 10
134.16676393
 20
235.03398058
 30
0.0
 11
179.05143421
 21
235.03398058
 31
0.0
  0
LINE
  8
1
  6
CONTINUOUS
 62
       7
  5
472
 10
176.05143421
 20
235.03398058
 30
0.0
 11
176.05143421
 21
232.04136194
 31
0.0
  0
LINE
  8
1
  6
CONTINUOUS
 62
       7
  5
473
 10
176.05143421
 20
259.63398058
 30
0.0
 11
176.05143421
 21
235.03398058
 31
0.0
  0
LINE
  8
1
  6
CONTINUOUS
 62
       7
  5
474
 10
176.05143421
 20
235.03398058
 30
0.0
 11
177.61077189
 21
242.37008759
 31
0.0
  0
LINE
  8
1
  6
CONTINUOUS
 62
       7
  5
475
 10
176.05143421
 20
235.03398058
 30
0.0
 11
174.49209653
 21
242.37008759
 31
0.0
  0
LINE
  8
1
  6
CONTINUOUS
 62
       7
  5
476
 10
176.05143421
 20
217.04136194
 30
0.0
 11
176.05143421
 21
232.04136194
 31
0.0
  0
LINE
  8
1
  6
CONTINUOUS
 62
       7
  5
477
 10
176.05143421
 20
232.04136194
 30
0.0
 11
174.49209653
 21
224.70525494
 31
0.0
  0
LINE
  8
1
  6
CONTINUOUS
 62
       7
  5
478
 10
176.05143421
 20
232.04136194
 30
0.0
 11
177.61077189
 21
224.70525494
 31
0.0
  0
LINE
  8
1
  6
CONTINUOUS
 62
       7
  5
479
 10
-171.83323607
 20
235.03398058
 30
0.0
 11
-201.99395399
 21
235.03398058
 31
0.0
  0
LINE
  8
1
  6
CONTINUOUS
 62
       7
  5
47A
 10
-162.83323607
 20
289.97148058
 30
0.0
 11
-201.99395399
 21
289.97148058
 31
0.0
  0
LINE
  8
1
  6
CONTINUOUS
 62
       7
  5
47B
 10
-198.99395399
 20
289.97148058
 30
0.0
 11
-198.99395399
 21
235.03398058
 31
0.0
  0
LINE
  8
1
  6
CONTINUOUS
 62
       7
  5
47C
 10
-198.99395399
 20
289.97148058
 30
0.0
 11
-200.55329168
 21
282.63537358
 31
0.0
  0
LINE
  8
1
  6
CONTINUOUS
 62
       7
  5
47D
 10
-198.99395399
 20
289.97148058
 30
0.0
 11
-197.43461631
 21
282.63537358
 31
0.0
  0
LINE
  8
1
  6
CONTINUOUS
 62
       7
  5
47E
 10
-198.99395399
 20
235.03398058
 30
0.0
 11
-197.43461631
 21
242.37008759
 31
0.0
  0
LINE
  8
1
  6
CONTINUOUS
 62
       7
  5
47F
 10
-198.99395399
 20
235.03398058
 30
0.0
 11
-200.55329168
 21
242.37008759
 31
0.0
  0
LINE
  8
1
  6
CONTINUOUS
 62
       7
  5
480
 10
-168.86253481
 20
232.04136194
 30
0.0
 11
-231.99395399
 21
232.04136194
 31
0.0
  0
LINE
  8
1
  6
CONTINUOUS
 62
       7
  5
481
 10
-162.83323607
 20
289.97148058
 30
0.0
 11
-231.99395399
 21
289.97148058
 31
0.0
  0
LINE
  8
1
  6
CONTINUOUS
 62
       7
  5
482
 10
-228.99395399
 20
289.97148058
 30
0.0
 11
-228.99395399
 21
232.04136194
 31
0.0
  0
LINE
  8
1
  6
CONTINUOUS
 62
       7
  5
483
 10
-228.99395399
 20
289.97148058
 30
0.0
 11
-230.55329168
 21
282.63537358
 31
0.0
  0
LINE
  8
1
  6
CONTINUOUS
 62
       7
  5
484
 10
-228.99395399
 20
289.97148058
 30
0.0
 11
-227.43461631
 21
282.63537358
 31
0.0
  0
LINE
  8
1
  6
CONTINUOUS
 62
       7
  5
485
 10
-228.99395399
 20
232.04136194
 30
0.0
 11
-227.43461631
 21
239.37746895
 31
0.0
  0
LINE
  8
1
  6
CONTINUOUS
 62
       7
  5
486
 10
-228.99395399
 20
232.04136194
 30
0.0
 11
-230.55329168
 21
239.37746895
 31
0.0
  0
LINE
  8
1
  6
CONTINUOUS
 62
       7
  5
487
 10
100.60426393
 20
1.03398058
 30
0.0
 11
100.60426393
 21
111.09648058
 31
0.0
  0
LINE
  8
1
  6
CONTINUOUS
 62
       7
  5
488
 10
-138.27073607
 20
1.03398058
 30
0.0
 11
-138.27073607
 21
111.09648058
 31
0.0
  0
LINE
  8
1
  6
CONTINUOUS
 62
       7
  5
489
 10
-138.27073607
 20
108.09648058
 30
0.0
 11
100.60426393
 21
108.09648058
 31
0.0
  0
LINE
  8
1
  6
CONTINUOUS
 62
       7
  5
48A
 10
-138.27073607
 20
108.09648058
 30
0.0
 11
-130.93462907
 21
106.5371429
 31
0.0
  0
LINE
  8
1
  6
CONTINUOUS
 62
       7
  5
48B
 10
-138.27073607
 20
108.09648058
 30
0.0
 11
-130.93462907
 21
109.65581826
 31
0.0
  0
LINE
  8
1
  6
CONTINUOUS
 62
       7
  5
48C
 10
100.60426393
 20
108.09648058
 30
0.0
 11
93.26815692
 21
109.65581826
 31
0.0
  0
LINE
  8
1
  6
CONTINUOUS
 62
       7
  5
48D
 10
100.60426393
 20
108.09648058
 30
0.0
 11
93.26815692
 21
106.5371429
 31
0.0
  0
LINE
  8
1
  6
CONTINUOUS
 62
       7
  5
48E
 10
-168.83323607
 20
-78.09101942
 30
0.0
 11
-168.83323607
 21
-130.02851942
 31
0.0
  0
LINE
  8
1
  6
CONTINUOUS
 62
       7
  5
48F
 10
131.16676393
 20
-78.09101942
 30
0.0
 11
131.16676393
 21
-130.02851942
 31
0.0
  0
LINE
  8
1
  6
CONTINUOUS
 62
       7
  5
490
 10
-168.83323607
 20
-127.02851942
 30
0.0
 11
131.16676393
 21
-127.02851942
 31
0.0
  0
LINE
  8
1
  6
CONTINUOUS
 62
       7
  5
491
 10
-168.83323607
 20
-127.02851942
 30
0.0
 11
-161.49712907
 21
-128.5878571
 31
0.0
  0
LINE
  8
1
  6
CONTINUOUS
 62
       7
  5
492
 10
-168.83323607
 20
-127.02851942
 30
0.0
 11
-161.49712907
 21
-125.46918174
 31
0.0
  0
LINE
  8
1
  6
CONTINUOUS
 62
       7
  5
493
 10
131.16676393
 20
-127.02851942
 30
0.0
 11
123.83065692
 21
-125.46918174
 31
0.0
  0
LINE
  8
1
  6
CONTINUOUS
 62
       7
  5
494
 10
131.16676393
 20
-127.02851942
 30
0.0
 11
123.83065692
 21
-128.5878571
 31
0.0
  0
LINE
  8
1
  6
CONTINUOUS
 62
       7
  5
495
 10
-133.77073607
 20
5.53398058
 30
0.0
 11
-192.83323607
 21
5.53398058
 31
0.0
  0
LINE
  8
1
  6
CONTINUOUS
 62
       7
  5
496
 10
-133.77073607
 20
-9.46601942
 30
0.0
 11
-192.83323607
 21
-9.46601942
 31
0.0
  0
LINE
  8
1
  6
CONTINUOUS
 62
       7
  5
497
 10
-189.83323607
 20
5.53398058
 30
0.0
 11
-189.83323607
 21
-9.46601942
 31
0.0
  0
LINE
  8
1
  6
CONTINUOUS
 62
       7
  5
498
 10
-189.83323607
 20
20.53398058
 30
0.0
 11
-189.83323607
 21
5.53398058
 31
0.0
  0
LINE
  8
1
  6
CONTINUOUS
 62
       7
  5
499
 10
-189.83323607
 20
5.53398058
 30
0.0
 11
-188.27389839
 21
12.87008759
 31
0.0
  0
LINE
  8
1
  6
CONTINUOUS
 62
       7
  5
49A
 10
-189.83323607
 20
5.53398058
 30
0.0
 11
-191.39257375
 21
12.87008759
 31
0.0
  0
LINE
  8
1
  6
CONTINUOUS
 62
       7
  5
49B
 10
-189.83323607
 20
-24.46601942
 30
0.0
 11
-189.83323607
 21
-9.46601942
 31
0.0
  0
LINE
  8
1
  6
CONTINUOUS
 62
       7
  5
49C
 10
-189.83323607
 20
-9.46601942
 30
0.0
 11
-191.39257375
 21
-16.80212642
 31
0.0
  0
LINE
  8
1
  6
CONTINUOUS
 62
       7
  5
49D
 10
-189.83323607
 20
-9.46601942
 30
0.0
 11
-188.27389839
 21
-16.80212642
 31
0.0
  0
LINE
  8
1
  6
CONTINUOUS
 62
       7
  5
49E
 10
-28.16175662
 20
28.28101821
 30
0.0
 11
-216.83323607
 21
28.28101821
 31
0.0
  0
LINE
  8
1
  6
CONTINUOUS
 62
       7
  5
49F
 10
-27.53879917
 20
-32.14585457
 30
0.0
 11
-216.83323607
 21
-32.14585457
 31
0.0
  0
LINE
  8
1
  6
CONTINUOUS
 62
       7
  5
4A0
 10
-213.83323607
 20
28.28101821
 30
0.0
 11
-213.83323607
 21
-32.14585457
 31
0.0
  0
LINE
  8
1
  6
CONTINUOUS
 62
       7
  5
4A1
 10
-213.83323607
 20
28.28101821
 30
0.0
 11
-215.39257375
 21
20.94491121
 31
0.0
  0
LINE
  8
1
  6
CONTINUOUS
 62
       7
  5
4A2
 10
-213.83323607
 20
28.28101821
 30
0.0
 11
-212.27389839
 21
20.94491121
 31
0.0
  0
LINE
  8
1
  6
CONTINUOUS
 62
       7
  5
4A3
 10
-213.83323607
 20
-32.14585457
 30
0.0
 11
-212.27389839
 21
-24.80974757
 31
0.0
  0
LINE
  8
1
  6
CONTINUOUS
 62
       7
  5
4A4
 10
-213.83323607
 20
-32.14585457
 30
0.0
 11
-215.39257375
 21
-24.80974757
 31
0.0
  0
LINE
  8
1
  6
CONTINUOUS
 62
       7
  5
4A5
 10
-166.95823607
 20
78.09648058
 30
0.0
 11
-240.83323607
 21
78.09648058
 31
0.0
  0
LINE
  8
1
  6
CONTINUOUS
 62
       7
  5
4A6
 10
-166.95823607
 20
-82.02851942
 30
0.0
 11
-240.83323607
 21
-82.02851942
 31
0.0
  0
LINE
  8
1
  6
CONTINUOUS
 62
       7
  5
4A7
 10
-237.83323607
 20
78.09648058
 30
0.0
 11
-237.83323607
 21
-82.02851942
 31
0.0
  0
LINE
  8
1
  6
CONTINUOUS
 62
       7
  5
4A8
 10
-237.83323607
 20
78.09648058
 30
0.0
 11
-239.39257375
 21
70.76037358
 31
0.0
  0
LINE
  8
1
  6
CONTINUOUS
 62
       7
  5
4A9
 10
-237.83323607
 20
78.09648058
 30
0.0
 11
-236.27389839
 21
70.76037358
 31
0.0
  0
LINE
  8
1
  6
CONTINUOUS
 62
       7
  5
4AA
 10
-237.83323607
 20
-82.02851942
 30
0.0
 11
-236.27389839
 21
-74.69241241
 31
0.0
  0
LINE
  8
1
  6
CONTINUOUS
 62
       7
  5
4AB
 10
-237.83323607
 20
-82.02851942
 30
0.0
 11
-239.39257375
 21
-74.69241241
 31
0.0
  0
LINE
  8
1
  6
CONTINUOUS
 62
       7
  5
4AC
 10
247.97926393
 20
-34.02851942
 30
0.0
 11
269.72610313
 21
-34.02851942
 31
0.0
  0
LINE
  8
1
  6
CONTINUOUS
 62
       7
  5
4AD
 10
248.16676393
 20
30.09648058
 30
0.0
 11
269.72610313
 21
30.09648058
 31
0.0
  0
LINE
  8
1
  6
CONTINUOUS
 62
       7
  5
4AE
 10
266.72610313
 20
30.09648058
 30
0.0
 11
266.72610313
 21
-34.02851942
 31
0.0
  0
LINE
  8
1
  6
CONTINUOUS
 62
       7
  5
4AF
 10
266.72610313
 20
30.09648058
 30
0.0
 11
265.16676545
 21
22.76037358
 31
0.0
  0
LINE
  8
1
  6
CONTINUOUS
 62
       7
  5
4B0
 10
266.72610313
 20
30.09648058
 30
0.0
 11
268.28544081
 21
22.76037358
 31
0.0
  0
LINE
  8
1
  6
CONTINUOUS
 62
       7
  5
4B1
 10
266.72610313
 20
-34.02851942
 30
0.0
 11
268.28544081
 21
-26.69241241
 31
0.0
  0
LINE
  8
1
  6
CONTINUOUS
 62
       7
  5
4B2
 10
266.72610313
 20
-34.02851942
 30
0.0
 11
265.16676545
 21
-26.69241241
 31
0.0
  0
LINE
  8
1
  6
CONTINUOUS
 62
       7
  5
4B3
 10
239.54176393
 20
61.59648058
 30
0.0
 11
288.31065319
 21
61.59648058
 31
0.0
  0
LINE
  8
1
  6
CONTINUOUS
 62
       7
  5
4B4
 10
239.54176393
 20
-65.52851942
 30
0.0
 11
288.31065319
 21
-65.52851942
 31
0.0
  0
LINE
  8
1
  6
CONTINUOUS
 62
       7
  5
4B5
 10
285.31065319
 20
61.59648058
 30
0.0
 11
285.31065319
 21
-65.52851942
 31
0.0
  0
LINE
  8
1
  6
CONTINUOUS
 62
       7
  5
4B6
 10
285.31065319
 20
61.59648058
 30
0.0
 11
283.7513155
 21
54.26037358
 31
0.0
  0
LINE
  8
1
  6
CONTINUOUS
 62
       7
  5
4B7
 10
285.31065319
 20
61.59648058
 30
0.0
 11
286.86999087
 21
54.26037358
 31
0.0
  0
LINE
  8
1
  6
CONTINUOUS
 62
       7
  5
4B8
 10
285.31065319
 20
-65.52851942
 30
0.0
 11
286.86999087
 21
-58.19241241
 31
0.0
  0
LINE
  8
1
  6
CONTINUOUS
 62
       7
  5
4B9
 10
285.31065319
 20
-65.52851942
 30
0.0
 11
283.7513155
 21
-58.19241241
 31
0.0
  0
LINE
  8
1
  6
CONTINUOUS
 62
       7
  5
4BA
 10
220.50626221
 20
-31.82190608
 30
0.0
 11
222.57726565
 21
-36.23513276
 31
0.0
  0
LINE
  8
1
  6
CONTINUOUS
 62
       7
  5
4BB
 10
256.50328405
 20
-108.53014046
 30
0.0
 11
222.57726565
 21
-36.23513276
 31
0.0
  0
LINE
  8
1
  6
CONTINUOUS
 62
       7
  5
4BC
 10
222.57726565
 20
-36.23513276
 30
0.0
 11
224.28216661
 21
-43.5387834
 31
0.0
  0
LINE
  8
1
  6
CONTINUOUS
 62
       7
  5
4BD
 10
222.57726565
 20
-36.23513276
 30
0.0
 11
227.10543252
 21
-42.21390393
 31
0.0
  0
LINE
  8
1
  6
CONTINUOUS
 62
       7
  5
4BE
 10
214.13394393
 20
-18.24274705
 30
0.0
 11
220.50626221
 21
-31.82190608
 31
0.0
  0
LINE
  8
1
  6
CONTINUOUS
 62
       7
  5
4BF
 10
220.50626221
 20
-31.82190608
 30
0.0
 11
218.80136125
 21
-24.51825543
 31
0.0
  0
LINE
  8
1
  6
CONTINUOUS
 62
       7
  5
4C0
 10
220.50626221
 20
-31.82190608
 30
0.0
 11
215.97809534
 21
-25.8431349
 31
0.0
  0
LINE
  8
1
  6
CONTINUOUS
 62
       7
  5
4C1
 10
181.57496519
 20
-85.02113806
 30
0.0
 11
181.57496519
 21
-130.02851942
 31
0.0
  0
LINE
  8
1
  6
CONTINUOUS
 62
       7
  5
4C2
 10
221.54176393
 20
-42.84101942
 30
0.0
 11
221.54176393
 21
-130.02851942
 31
0.0
  0
LINE
  8
1
  6
CONTINUOUS
 62
       7
  5
4C3
 10
181.57496519
 20
-127.02851942
 30
0.0
 11
221.54176393
 21
-127.02851942
 31
0.0
  0
LINE
  8
1
  6
CONTINUOUS
 62
       7
  5
4C4
 10
166.57496519
 20
-127.02851942
 30
0.0
 11
181.57496519
 21
-127.02851942
 31
0.0
  0
LINE
  8
1
  6
CONTINUOUS
 62
       7
  5
4C5
 10
181.57496519
 20
-127.02851942
 30
0.0
 11
174.23885818
 21
-125.46918174
 31
0.0
  0
LINE
  8
1
  6
CONTINUOUS
 62
       7
  5
4C6
 10
181.57496519
 20
-127.02851942
 30
0.0
 11
174.23885818
 21
-128.5878571
 31
0.0
  0
LINE
  8
1
  6
CONTINUOUS
 62
       7
  5
4C7
 10
236.54176393
 20
-127.02851942
 30
0.0
 11
221.54176393
 21
-127.02851942
 31
0.0
  0
LINE
  8
1
  6
CONTINUOUS
 62
       7
  5
4C8
 10
221.54176393
 20
-127.02851942
 30
0.0
 11
228.87787093
 21
-128.5878571
 31
0.0
  0
LINE
  8
1
  6
CONTINUOUS
 62
       7
  5
4C9
 10
221.54176393
 20
-127.02851942
 30
0.0
 11
228.87787093
 21
-125.46918174
 31
0.0
  0
TEXT
  8
1
 62
       7
  5
4CA
 10
-33.23323607
 20
322.97148058
 30
0.0
 40
12.0
  1
282
 41
0.8
 72
       5
 11
-4.43323607
 21
322.97148058
 31
0.0
  0
TEXT
  8
1
 62
       7
  5
4CB
 10
173.05143421
 20
247.03398058
 30
0.0
 40
12.0
  1
5
 50
90.00000154
 41
0.8
 72
       5
 11
173.05143395
 21
256.63398058
 31
0.0
  0
TEXT
  8
1
 62
       7
  5
4CC
 10
-201.99395399
 20
252.90273058
 30
0.0
 40
12.0
  1
57
 50
90.00000154
 41
0.8
 72
       5
 11
-201.99395451
 21
272.10273058
 31
0.0
  0
TEXT
  8
1
 62
       7
  5
4CD
 10
-231.99395399
 20
251.40642126
 30
0.0
 40
12.0
  1
62
 50
90.00000154
 41
0.8
 72
       5
 11
-231.99395451
 21
270.60642126
 31
0.0
  0
TEXT
  8
1
 62
       7
  5
4CE
 10
-33.23323607
 20
111.09648058
 30
0.0
 40
12.0
  1
239
 41
0.8
 72
       5
 11
-4.43323607
 21
111.09648058
 31
0.0
  0
TEXT
  8
1
 62
       7
  5
4CF
 10
-33.23323607
 20
-124.02851942
 30
0.0
 40
12.0
  1
300
 41
0.8
 72
       5
 11
-4.43323607
 21
-124.02851942
 31
0.0
  0
TEXT
  8
1
 62
       7
  5
4D0
 10
-192.83323607
 20
-11.56601942
 30
0.0
 40
12.0
  1
15
 50
90.00000154
 41
0.8
 72
       5
 11
-192.83323659
 21
7.63398058
 31
0.0
  0
TEXT
  8
1
 62
       7
  5
4D1
 10
-216.83323607
 20
-11.53241818
 30
0.0
 40
12.0
  1
60
 50
90.00000154
 41
0.8
 72
       5
 11
-216.83323659
 21
7.66758182
 31
0.0
  0
TEXT
  8
1
 62
       7
  5
4D2
 10
-240.83323607
 20
-16.36601942
 30
0.0
 40
12.0
  1
160
 50
90.00000154
 41
0.8
 72
       5
 11
-240.83323684
 21
12.43398058
 31
0.0
  0
TEXT
  8
1
 62
       7
  5
4D3
 10
263.72610313
 20
-11.56601942
 30
0.0
 40
12.0
  1
64
 50
90.00000154
 41
0.8
 72
       5
 11
263.72610262
 21
7.63398058
 31
0.0
  0
TEXT
  8
1
 62
       7
  5
4D4
 10
282.31065319
 20
-16.36601942
 30
0.0
 40
12.0
  1
127
 50
90.00000154
 41
0.8
 72
       5
 11
282.31065241
 21
12.43398058
 31
0.0
  0
TEXT
  8
1
 62
       7
  5
4D5
 10
241.63151741
 20
-69.7771979
 30
0.0
 40
12.0
  1
4-φ5
 50
-64.86065346
 41
0.8
 72
       5
 11
257.94465153
 21
-104.53984532
 31
0.0
  0
TEXT
  8
1
 62
       7
  5
4D6
 10
191.31346108
 20
-124.02851942
 30
0.0
 40
12.0
  1
40
 41
0.8
 72
       5
 11
210.51346108
 21
-124.02851942
 31
0.0
  0
TEXT
  8
1
 62
       7
  5
4D7
 10
-43.03309034
 20
340.57771942
 30
0.0
 40
12.0
  1
（284）
 41
0.8
 72
       5
 11
4.96690966
 21
340.57771942
 31
0.0
  0
ENDSEC
  0
EOF
