  0
SECTION
  2
HEADER
  9
$ACADVER
  1
AC1009
  9
$INSBASE
 10
0.0
 20
0.0
 30
0.0
  9
$EXTMIN
 10
-344.27075667
 20
-474.92
 30
0.0
  9
$EXTMAX
 10
342.20138739
 20
482.92
 30
0.0
  9
$LIMMIN
 10
-365.72301117
 20
-504.8525
  9
$LIMMAX
 10
363.65364189
 20
512.8525
  9
$ORTHOMODE
 70
       0
  9
$REGENMODE
 70
       1
  9
$FILLMODE
 70
       1
  9
$QTEXTMODE
 70
       0
  9
$MIRRTEXT
 70
       1
  9
$DRAGMODE
 70
       2
  9
$LTSCALE
 40
1.0
  9
$OSMODE
 70
       0
  9
$ATTMODE
 70
       1
  9
$TEXTSIZE
 40
0.2
  9
$TRACEWID
 40
0.05
  9
$TEXTSTYLE
  7
STANDARD
  9
$CLAYER
  8
0
  9
$CELTYPE
  6
CONTINUOUS
  9
$CECOLOR
 62
     256
  9
$DIMSCALE
 40
1.0
  9
$DIMASZ
 40
0.18
  9
$DIMEXO
 40
0.0625
  9
$DIMDLI
 40
0.38
  9
$DIMRND
 40
0.0
  9
$DIMDLE
 40
0.0
  9
$DIMEXE
 40
0.18
  9
$DIMTP
 40
0.0
  9
$DIMTM
 40
0.0
  9
$DIMTXT
 40
0.18
  9
$DIMCEN
 40
0.09
  9
$DIMTSZ
 40
0.0
  9
$DIMTOL
 70
       0
  9
$DIMLIM
 70
       0
  9
$DIMTIH
 70
       1
  9
$DIMTOH
 70
       1
  9
$DIMSE1
 70
       0
  9
$DIMSE2
 70
       0
  9
$DIMTAD
 70
       0
  9
$DIMZIN
 70
       0
  9
$DIMBLK
  1

  9
$DIMASO
 70
       1
  9
$DIMSHO
 70
       1
  9
$DIMPOST
  1

  9
$DIMAPOST
  1

  9
$DIMALT
 70
       0
  9
$DIMALTD
 70
       2
  9
$DIMALTF
 40
25.4
  9
$DIMLFAC
 40
1.0
  9
$DIMTOFL
 70
       0
  9
$DIMTVP
 40
0.0
  9
$DIMTIX
 70
       0
  9
$DIMSOXD
 70
       0
  9
$DIMSAH
 70
       0
  9
$DIMBLK1
  1

  9
$DIMBLK2
  1

  9
$DIMSTYLE
  2
STANDARD
  9
$DIMCLRD
 70
       0
  9
$DIMCLRE
 70
       0
  9
$DIMCLRT
 70
       0
  9
$DIMTFAC
 40
1.0
  9
$DIMGAP
 40
0.09
  9
$LUNITS
 70
       2
  9
$LUPREC
 70
       4
  9
$AXISMODE
 70
       0
  9
$AXISUNIT
 10
0.0
 20
0.0
  9
$SKETCHINC
 40
0.1
  9
$FILLETRAD
 40
0.0
  9
$AUNITS
 70
       0
  9
$AUPREC
 70
       0
  9
$MENU
  1
acad
  9
$ELEVATION
 40
0.0
  9
$PELEVATION
 40
0.0
  9
$THICKNESS
 40
0.0
  9
$LIMCHECK
 70
       0
  9
$BLIPMODE
 70
       1
  9
$CHAMFERA
 40
0.0
  9
$CHAMFERB
 40
0.0
  9
$SKPOLY
 70
       0
  9
$TDCREATE
 40
0.000000000
  9
$TDUPDATE
 40
0.000000000
  9
$TDINDWG
 40
0.0000000000
  9
$TDUSRTIMER
 40
0.0000000000
  9
$USRTIMER
 70
       1
  9
$ANGBASE
 50
0.0
  9
$ANGDIR
 70
       0
  9
$PDMODE
 70
       0
  9
$PDSIZE
 40
1.0
  9
$PLINEWID
 40
0.0
  9
$COORDS
 70
       1
  9
$SPLFRAME
 70
       0
  9
$SPLINETYPE
 70
       6
  9
$SPLINESEGS
 70
       8
  9
$ATTDIA
 70
       0
  9
$ATTREQ
 70
       1
  9
$HANDLING
 70
       1
  9
$HANDSEED
  5
AF9
  9
$SURFTAB1
 70
       6
  9
$SURFTAB2
 70
       6
  9
$SURFTYPE
 70
       6
  9
$SURFU
 70
       6
  9
$SURFV
 70
       6
  9
$UCSNAME
  2

  9
$UCSORG
 10
0.0
 20
0.0
 30
0.0
  9
$UCSXDIR
 10
1.0
 20
0.0
 30
0.0
  9
$UCSYDIR
 10
0.0
 20
1.0
 30
0.0
  9
$PUCSNAME
  2

  9
$PUCSORG
 10
0.0
 20
0.0
 30
0.0
  9
$PUCSXDIR
 10
1.0
 20
0.0
 30
0.0
  9
$PUCSYDIR
 10
0.0
 20
1.0
 30
0.0
  9
$USERI1
 70
       0
  9
$USERI2
 70
       0
  9
$USERI3
 70
       0
  9
$USERI4
 70
       0
  9
$USERI5
 70
       0
  9
$USERR1
 40
0.0
  9
$USERR2
 40
0.0
  9
$USERR3
 40
0.0
  9
$USERR4
 40
0.0
  9
$USERR5
 40
0.0
  9
$WORLDVIEW
 70
       1
  9
$SHADEDGE
 70
       3
  9
$SHADEDIF
 70
      70
  9
$TILEMODE
 70
       1
  9
$MAXACTVP
 70
      16
  9
$PINSBASE
 10
0.0
 20
0.0
 30
0.0
  9
$PLIMCHECK
 70
       0
  9
$PEXTMIN
 10
1.00000000E+20
 20
1.00000000E+20
 30
1.00000000E+20
  9
$PEXTMAX
 10
-1.00000000E+20
 20
-1.00000000E+20
 30
-1.00000000E+20
  9
$PLIMMIN
 10
0.0
 20
0.0
  9
$PLIMMAX
 10
12.0
 20
9.0
  9
$UNITMODE
 70
       0
  9
$VISRETAIN
 70
       0
  9
$PLINEGEN
 70
       1
  9
$PSLTSCALE
 70
       0
  9
$TREEDEPTH
 70
    3020
  9
$DWGCODEPAGE
  3
dos932
  0
ENDSEC
  0
SECTION
  2
TABLES
  0
TABLE
  2
VPORT
 70
       1
  0
VPORT
  2
*ACTIVE
 70
       0
 10
0.0
 20
0.0
 11
1.0
 21
1.0
 12
-1.03468464
 22
4.0
 13
0.0
 23
0.0
 14
1.0
 24
1.0
 15
0.0
 25
0.0
 16
0.0
 26
0.0
 36
1.0
 17
0.0
 27
0.0
 37
0.0
 40
1017.705
 41
0.7166877
 42
50.0
 43
0.0
 44
0.0
 50
0.0
 51
0.0
 71
       0
 72
     100
 73
       1
 74
       1
 75
       0
 76
       0
 77
       0
 78
       0
  0
ENDTAB
  0
TABLE
  2
LTYPE
 70
      28
  0
LTYPE
  2
CONTINUOUS
 70
      64
  3
Solid line
 72
      65
 73
       0
 40
0.0
  0
LTYPE
  2
HIDDENX2
 70
      64
  3
CADPAC LINETYPE
 72
      65
 73
       2
 40
35.64
 49
26.73
 49
-8.91
  0
LTYPE
  2
HIDDEN
 70
      64
  3
CADPAC LINETYPE
 72
      65
 73
       2
 40
26.73
 49
17.82
 49
-8.91
  0
LTYPE
  2
HIDDEN2
 70
      64
  3
CADPAC LINETYPE
 72
      65
 73
       2
 40
22.275
 49
13.365
 49
-8.91
  0
LTYPE
  2
DASHED
 70
      64
  3
CADPAC LINETYPE
 72
      65
 73
       2
 40
26.73
 49
17.82
 49
-8.91
  0
LTYPE
  2
DASHED2
 70
      64
  3
CADPAC LINETYPE
 72
      65
 73
       2
 40
20.0475
 49
13.365
 49
-6.6825
  0
LTYPE
  2
DASHEDX2
 70
      64
  3
CADPAC LINETYPE
 72
      65
 73
       2
 40
40.095
 49
26.73
 49
-13.365
  0
LTYPE
  2
DOTX2
 70
      64
  3
CADPAC LINETYPE
 72
      65
 73
       2
 40
11.1375
 49
0.0
 49
-11.1375
  0
LTYPE
  2
DOT
 70
      64
  3
CADPAC LINETYPE
 72
      65
 73
       2
 40
8.91
 49
0.0
 49
-8.91
  0
LTYPE
  2
DOT2
 70
      64
  3
CADPAC LINETYPE
 72
      65
 73
       2
 40
6.6825
 49
0.0
 49
-6.6825
  0
LTYPE
  2
CENTERX2
 70
      64
  3
CADPAC LINETYPE
 72
      65
 73
       4
 40
53.46
 49
22.275
 49
-11.1375
 49
8.91
 49
-11.1375
  0
LTYPE
  2
CENTER
 70
      64
  3
CADPAC LINETYPE
 72
      65
 73
       4
 40
40.986
 49
17.82
 49
-8.91
 49
5.346
 49
-8.91
  0
LTYPE
  2
CENTER2
 70
      64
  3
CADPAC LINETYPE
 72
      65
 73
       4
 40
28.512
 49
13.365
 49
-6.6825
 49
1.782
 49
-6.6825
  0
LTYPE
  2
DASHDOTX2
 70
      64
  3
CADPAC LINETYPE
 72
      65
 73
       4
 40
44.55
 49
22.275
 49
-11.1375
 49
0.0
 49
-11.1375
  0
LTYPE
  2
DASHDOT
 70
      64
  3
CADPAC LINETYPE
 72
      65
 73
       4
 40
35.64
 49
17.82
 49
-8.91
 49
0.0
 49
-8.91
  0
LTYPE
  2
DASHDOT2
 70
      64
  3
CADPAC LINETYPE
 72
      65
 73
       4
 40
26.73
 49
13.365
 49
-6.6825
 49
0.0
 49
-6.6825
  0
LTYPE
  2
DIVIDEX2
 70
      64
  3
CADPAC LINETYPE
 72
      65
 73
       6
 40
55.6875
 49
22.275
 49
-11.1375
 49
0.0
 49
-11.1375
 49
0.0
 49
-11.1375
  0
LTYPE
  2
DIVIDE
 70
      64
  3
CADPAC LINETYPE
 72
      65
 73
       6
 40
44.55
 49
17.82
 49
-8.91
 49
0.0
 49
-8.91
 49
0.0
 49
-8.91
  0
LTYPE
  2
DIVIDE2
 70
      64
  3
CADPAC LINETYPE
 72
      65
 73
       6
 40
33.4125
 49
13.365
 49
-6.6825
 49
0.0
 49
-6.6825
 49
0.0
 49
-6.6825
  0
LTYPE
  2
BORDERX2
 70
      64
  3
CADPAC LINETYPE
 72
      65
 73
       6
 40
77.9625
 49
22.275
 49
-11.1375
 49
22.275
 49
-11.1375
 49
0.0
 49
-11.1375
  0
LTYPE
  2
BORDER
 70
      64
  3
CADPAC LINETYPE
 72
      65
 73
       6
 40
62.37
 49
17.82
 49
-8.91
 49
17.82
 49
-8.91
 49
0.0
 49
-8.91
  0
LTYPE
  2
BORDER2
 70
      64
  3
CADPAC LINETYPE
 72
      65
 73
       6
 40
46.7775
 49
13.365
 49
-6.6825
 49
13.365
 49
-6.6825
 49
0.0
 49
-6.6825
  0
LTYPE
  2
PHANTOMX2
 70
      64
  3
CADPAC LINETYPE
 72
      65
 73
       6
 40
66.825
 49
22.275
 49
-8.91
 49
8.91
 49
-8.91
 49
8.91
 49
-8.91
  0
LTYPE
  2
PHANTOM
 70
      64
  3
CADPAC LINETYPE
 72
      65
 73
       6
 40
55.242
 49
17.82
 49
-8.91
 49
5.346
 49
-8.91
 49
5.346
 49
-8.91
  0
LTYPE
  2
PHANTOM2
 70
      64
  3
CADPAC LINETYPE
 72
      65
 73
       6
 40
47.223
 49
13.365
 49
-8.91
 49
3.564
 49
-8.91
 49
3.564
 49
-8.91
  0
LTYPE
  2
ACAD_ISO06W100
 70
      64
  3
CADPAC LINETYPE
 72
      65
 73
       8
 40
60.1425
 49
22.275
 49
-11.1375
 49
0.0
 49
-8.91
 49
0.0
 49
-8.91
 49
0.0
 49
-8.91
  0
LTYPE
  2
ACAD_ISO13W100
 70
      64
  3
CADPAC LINETYPE
 72
      65
 73
       8
 40
71.28
 49
17.82
 49
-8.91
 49
17.82
 49
-8.91
 49
0.0
 49
-8.91
 49
0.0
 49
-8.91
  0
LTYPE
  2
ACAD_ISO14W100
 70
      64
  3
CADPAC LINETYPE
 72
      65
 73
       8
 40
53.46
 49
17.82
 49
-8.91
 49
0.0
 49
-8.91
 49
0.0
 49
-8.91
 49
0.0
 49
-8.91
  0
ENDTAB
  0
TABLE
  2
LAYER
 70
       5
  0
LAYER
  2
0
 70
       0
 62
       7
  6
CONTINUOUS
  0
LAYER
  2
1
 70
       0
 62
       7
  6
CONTINUOUS
  0
LAYER
  2
LAYER0240
 70
       0
 62
       7
  6
CONTINUOUS
  0
LAYER
  2
LAYER0256
 70
       0
 62
       7
  6
CONTINUOUS
  0
LAYER
  2
ZUWAKU
 70
       0
 62
       7
  6
CONTINUOUS
  0
ENDTAB
  0
TABLE
  2
STYLE
 70
       2
  0
STYLE
  2
STANDARD
 70
       0
 40
0.0
 41
0.8
 50
0.0
 71
       0
 42
10.2
  3
txt.shx
  4
bigfont.shx
  0
STYLE
  2
FDASTYLE1
 70
       4
 40
0.0
 41
0.8
 50
0.0
 71
       0
 42
9.0
  3
txt.shx
  4
bigfont.shx
  0
ENDTAB
  0
TABLE
  2
VIEW
 70
       0
  0
VIEW
  2
QQQQ
 70
       0
 40
1017.705
 10
-1.03468464
 20
4.0
 41
729.37665306
 11
0.0
 21
0.0
 31
1.0
 12
100.0
 22
100.0
 32
0.0
 42
50.0
 43
0.0
 44
0.0
 50
0.0
 71
       0
  0
ENDTAB
  0
TABLE
  2
UCS
 70
       0
  0
ENDTAB
  0
TABLE
  2
APPID
 70
       1
  0
APPID
  2
ACAD
 70
       0
  0
ENDTAB
  0
TABLE
  2
DIMSTYLE
 70
       1
  0
DIMSTYLE
  2
STANDARD
 70
       0
  3

  4

  5

  6

  7

 40
1.0
 41
0.18
 42
0.0625
 43
0.38
 44
0.18
 45
0.0
 46
0.0
 47
0.0
 48
0.0
 71
       0
 72
       0
 73
       1
 74
       1
 75
       0
 76
       0
 77
       0
 78
       0
140
0.18
141
0.09
142
0.0
143
25.4
144
1.0
145
0.0
146
1.0
147
0.09
170
       0
171
       2
172
       0
173
       0
174
       0
175
       0
176
       0
177
       0
178
       0
  0
ENDTAB
  0
ENDSEC
  0
SECTION
  2
BLOCKS
  0
BLOCK
  8
0
  5
43
  2
GROUP_1
 70
       0
 10
0.0
 20
0.0
 30
0.0
  3
GROUP_1
  0
TEXT
  8
ZUWAKU
 62
       7
  5
44
 10
82.0625
 20
-331.61162988
 30
0.0
 40
12.0
  1
＋ナベタッピンネジ
 41
0.8
 72
       5
 11
168.4625
 21
-331.61162988
 31
0.0
  0
CIRCLE
  8
ZUWAKU
  6
CONTINUOUS
 62
       7
  5
45
 10
87.09229741
 20
-325.61162988
 30
0.0
 40
5.02979741
  0
LINE
  8
ZUWAKU
  6
CONTINUOUS
 62
       7
  5
46
 10
87.09229741
 20
-321.77372304
 30
0.0
 11
87.09229741
 21
-329.44953672
 31
0.0
  0
LINE
  8
ZUWAKU
  6
CONTINUOUS
 62
       7
  5
47
 10
90.93020425
 20
-325.61162988
 30
0.0
 11
83.25439058
 21
-325.61162988
 31
0.0
  0
ENDBLK
  8
0
  5
48
  0
BLOCK
  8
0
  5
49
  2
_OPEN30
 70
       0
 10
0.0
 20
0.0
 30
0.0
  3
_OPEN30
  0
LINE
  8
1
  6
CONTINUOUS
 62
       0
  5
4A
 10
0.0
 20
0.0
 30
0.0
 11
-0.96592583
 21
0.25881905
 31
0.0
  0
LINE
  8
1
  6
CONTINUOUS
 62
       0
  5
4B
 10
0.0
 20
0.0
 30
0.0
 11
-0.96592583
 21
-0.25881905
 31
0.0
  0
ENDBLK
  8
0
  5
4C
  0
BLOCK
  8
0
  5
4D
  2
GROUP_2
 70
       0
 10
0.0
 20
0.0
 30
0.0
  3
GROUP_2
  0
LINE
  8
1
  6
CONTINUOUS
 62
       7
  5
4E
 10
242.40124108
 20
-93.13095347
 30
0.0
 11
272.58078334
 21
-128.81591879
 31
0.0
  0
INSERT
  8
1
  6
CONTINUOUS
 62
       7
  5
4F
  2
_OPEN30
 10
242.40124108
 20
-93.13095347
 30
0.0
 41
9.00000836
 42
8.99996782
 50
130.22191924
  0
CIRCLE
  8
1
  6
CONTINUOUS
 62
       7
  5
50
 10
281.05625
 20
-138.8375
 30
0.0
 40
13.125
  0
TEXT
  8
1
 62
       7
  5
51
 10
276.25625
 20
-144.8375
 30
0.0
 40
12.0
  1
2
 41
0.8
 72
       5
 11
285.85625
 21
-144.8375
 31
0.0
  0
ENDBLK
  8
0
  5
52
  0
BLOCK
  8
0
  5
53
  2
GROUP_3
 70
       0
 10
0.0
 20
0.0
 30
0.0
  3
GROUP_3
  0
LINE
  8
1
  6
CONTINUOUS
 62
       7
  5
54
 10
7.46567873
 20
-95.58597285
 30
0.0
 11
35.56895834
 21
-128.81591879
 31
0.0
  0
INSERT
  8
1
  6
CONTINUOUS
 62
       7
  5
55
  2
_OPEN30
 10
7.46567873
 20
-95.58597285
 30
0.0
 41
9.00000836
 42
8.99996782
 50
130.22191924
  0
CIRCLE
  8
1
  6
CONTINUOUS
 62
       7
  5
56
 10
44.04442499
 20
-138.8375
 30
0.0
 40
13.125
  0
TEXT
  8
1
 62
       7
  5
57
 10
39.24442499
 20
-144.8375
 30
0.0
 40
12.0
  1
1
 41
0.8
 72
       5
 11
48.84442499
 21
-144.8375
 31
0.0
  0
ENDBLK
  8
0
  5
58
  0
BLOCK
  8
0
  5
59
  2
GROUP_4
 70
       0
 10
0.0
 20
0.0
 30
0.0
  3
GROUP_4
  0
LINE
  8
1
  6
CONTINUOUS
 62
       7
  5
5A
 10
244.02720701
 20
33.50655227
 30
0.0
 11
272.58078334
 21
67.26893912
 31
0.0
  0
INSERT
  8
1
  6
CONTINUOUS
 62
       7
  5
5B
  2
_OPEN30
 10
244.02720701
 20
33.50655227
 30
0.0
 41
9.00000836
 42
8.99996782
 50
229.77808076
  0
CIRCLE
  8
1
  6
CONTINUOUS
 62
       7
  5
5C
 10
281.05625
 20
77.29052033
 30
0.0
 40
13.125
  0
TEXT
  8
1
 62
       7
  5
5D
 10
276.25625
 20
71.29052033
 30
0.0
 40
12.0
  1
4
 41
0.8
 72
       5
 11
285.85625
 21
71.29052033
 31
0.0
  0
ENDBLK
  8
0
  5
5E
  0
ENDSEC
  0
SECTION
  2
ENTITIES
  0
LINE
  8
ZUWAKU
  6
CONTINUOUS
 62
       7
  5
5F
 10
-170.9125
 20
-411.67412988
 30
0.0
 11
-169.225
 21
-406.98662988
 31
0.0
  0
LINE
  8
ZUWAKU
  6
CONTINUOUS
 62
       7
  5
60
 10
-183.4
 20
-411.67412988
 30
0.0
 11
-180.775
 21
-404.54912988
 31
0.0
  0
LINE
  8
ZUWAKU
  6
CONTINUOUS
 62
       7
  5
61
 10
-185.8375
 20
-401.92412988
 30
0.0
 11
-186.775
 21
-404.54912988
 31
0.0
  0
LINE
  8
ZUWAKU
  6
CONTINUOUS
 62
       7
  5
62
 10
-177.2125
 20
-411.67412988
 30
0.0
 11
-174.4
 21
-403.42412988
 31
0.0
  0
LINE
  8
ZUWAKU
  6
CONTINUOUS
 62
       7
  5
63
 10
-137.875
 20
-411.67412988
 30
0.0
 11
-141.0625
 21
-406.42412988
 31
0.0
  0
LINE
  8
ZUWAKU
  6
CONTINUOUS
 62
       7
  5
64
 10
-185.8375
 20
-401.92412988
 30
0.0
 11
-182.275
 21
-401.92412988
 31
0.0
  0
LINE
  8
ZUWAKU
  6
CONTINUOUS
 62
       7
  5
65
 10
-166.7875
 20
-400.23662988
 30
0.0
 11
-160.6
 21
-400.23662988
 31
0.0
  0
LINE
  8
ZUWAKU
  6
CONTINUOUS
 62
       7
  5
66
 10
-153.475
 20
-399.67412988
 30
0.0
 11
-151.6
 21
-399.67412988
 31
0.0
  0
LINE
  8
ZUWAKU
  6
CONTINUOUS
 62
       7
  5
67
 10
-165.475
 20
-396.86162988
 30
0.0
 11
-166.7875
 21
-400.23662988
 31
0.0
  0
LINE
  8
ZUWAKU
  6
CONTINUOUS
 62
       7
  5
68
 10
-159.475
 20
-396.86162988
 30
0.0
 11
-160.6
 21
-400.23662988
 31
0.0
  0
LINE
  8
ZUWAKU
  6
CONTINUOUS
 62
       7
  5
69
 10
-183.4
 20
-411.67412988
 30
0.0
 11
-177.2125
 21
-411.67412988
 31
0.0
  0
LINE
  8
ZUWAKU
  6
CONTINUOUS
 62
       7
  5
6A
 10
-173.8375
 20
-396.86162988
 30
0.0
 11
-166.9
 21
-396.86162988
 31
0.0
  0
LINE
  8
ZUWAKU
  6
CONTINUOUS
 62
       7
  5
6B
 10
-143.25272308
 20
-400.23662988
 30
0.0
 11
-149.875
 21
-400.23662988
 31
0.0
  0
LINE
  8
ZUWAKU
  6
CONTINUOUS
 62
       7
  5
6C
 10
-136.0
 20
-396.86162988
 30
0.0
 11
-148.75
 21
-396.86162988
 31
0.0
  0
LINE
  8
ZUWAKU
  6
CONTINUOUS
 62
       7
  5
6D
 10
-186.775
 20
-404.54912988
 30
0.0
 11
-180.775
 21
-404.54912988
 31
0.0
  0
LINE
  8
ZUWAKU
  6
CONTINUOUS
 62
       7
  5
6E
 10
-170.9125
 20
-411.67412988
 30
0.0
 11
-160.975
 21
-411.67412988
 31
0.0
  0
LINE
  8
ZUWAKU
  6
CONTINUOUS
 62
       7
  5
6F
 10
-169.225
 20
-406.98662988
 30
0.0
 11
-160.225
 21
-406.98662988
 31
0.0
  0
LINE
  8
ZUWAKU
  6
CONTINUOUS
 62
       7
  5
70
 10
-137.875
 20
-411.67412988
 30
0.0
 11
-142.5625
 21
-411.67412988
 31
0.0
  0
LINE
  8
ZUWAKU
  6
CONTINUOUS
 62
       7
  5
71
 10
-149.875
 20
-400.23662988
 30
0.0
 11
-148.75
 21
-396.86162988
 31
0.0
  0
LINE
  8
ZUWAKU
  6
CONTINUOUS
 62
       7
  5
72
 10
-215.0875
 20
-396.86162988
 30
0.0
 11
-218.275
 21
-405.86162988
 31
0.0
  0
LINE
  8
ZUWAKU
  6
CONTINUOUS
 62
       7
  5
73
 10
-218.275
 20
-405.86162988
 30
0.0
 11
-213.9625
 21
-405.86162988
 31
0.0
  0
LINE
  8
ZUWAKU
  6
CONTINUOUS
 62
       7
  5
74
 10
-213.9625
 20
-405.86162988
 30
0.0
 11
-210.5875
 21
-396.86162988
 31
0.0
  0
LINE
  8
ZUWAKU
  6
CONTINUOUS
 62
       7
  5
75
 10
-210.5875
 20
-396.86162988
 30
0.0
 11
-215.0875
 21
-396.86162988
 31
0.0
  0
LINE
  8
ZUWAKU
  6
CONTINUOUS
 62
       7
  5
76
 10
-157.975
 20
-405.86162988
 30
0.0
 11
-155.9125
 21
-404.17412988
 31
0.0
  0
LINE
  8
ZUWAKU
  6
CONTINUOUS
 62
       7
  5
77
 10
-155.9125
 20
-404.17412988
 30
0.0
 11
-154.4125
 21
-402.11162988
 31
0.0
  0
LINE
  8
ZUWAKU
  6
CONTINUOUS
 62
       7
  5
78
 10
-154.4125
 20
-402.11162988
 30
0.0
 11
-153.475
 21
-399.67412988
 31
0.0
  0
LINE
  8
ZUWAKU
  6
CONTINUOUS
 62
       7
  5
79
 10
-199.675
 20
-396.86162988
 30
0.0
 11
-185.9875
 21
-396.86162988
 31
0.0
  0
LINE
  8
ZUWAKU
  6
CONTINUOUS
 62
       7
  5
7A
 10
-185.9875
 20
-396.86162988
 30
0.0
 11
-187.1125
 21
-400.23662988
 31
0.0
  0
LINE
  8
ZUWAKU
  6
CONTINUOUS
 62
       7
  5
7B
 10
-185.9875
 20
-396.86162988
 30
0.0
 11
-187.1125
 21
-400.23662988
 31
0.0
  0
LINE
  8
ZUWAKU
  6
CONTINUOUS
 62
       7
  5
7C
 10
-187.1125
 20
-400.23662988
 30
0.0
 11
-200.8
 21
-400.23662988
 31
0.0
  0
LINE
  8
ZUWAKU
  6
CONTINUOUS
 62
       7
  5
7D
 10
-200.8
 20
-400.23662988
 30
0.0
 11
-199.675
 21
-396.86162988
 31
0.0
  0
LINE
  8
ZUWAKU
  6
CONTINUOUS
 62
       7
  5
7E
 10
-200.8
 20
-400.23662988
 30
0.0
 11
-199.675
 21
-396.86162988
 31
0.0
  0
LINE
  8
ZUWAKU
  6
CONTINUOUS
 62
       7
  5
7F
 10
-185.9875
 20
-396.86162988
 30
0.0
 11
-199.675
 21
-396.86162988
 31
0.0
  0
LINE
  8
ZUWAKU
  6
CONTINUOUS
 62
       7
  5
80
 10
-199.675
 20
-396.86162988
 30
0.0
 11
-200.8
 21
-400.23662988
 31
0.0
  0
LINE
  8
ZUWAKU
  6
CONTINUOUS
 62
       7
  5
81
 10
-200.8
 20
-400.23662988
 30
0.0
 11
-187.1125
 21
-400.23662988
 31
0.0
  0
LINE
  8
ZUWAKU
  6
CONTINUOUS
 62
       7
  5
82
 10
-193.8625
 20
-411.29912988
 30
0.0
 11
-192.3625
 21
-410.54912988
 31
0.0
  0
LINE
  8
ZUWAKU
  6
CONTINUOUS
 62
       7
  5
83
 10
-192.3625
 20
-410.54912988
 30
0.0
 11
-191.2375
 21
-409.42412988
 31
0.0
  0
LINE
  8
ZUWAKU
  6
CONTINUOUS
 62
       7
  5
84
 10
-191.2375
 20
-409.42412988
 30
0.0
 11
-189.925
 21
-408.11162988
 31
0.0
  0
LINE
  8
ZUWAKU
  6
CONTINUOUS
 62
       7
  5
85
 10
-189.925
 20
-408.11162988
 30
0.0
 11
-187.675
 21
-401.92412988
 31
0.0
  0
LINE
  8
ZUWAKU
  6
CONTINUOUS
 62
       7
  5
86
 10
-187.675
 20
-401.92412988
 30
0.0
 11
-201.175
 21
-401.92412988
 31
0.0
  0
LINE
  8
ZUWAKU
  6
CONTINUOUS
 62
       7
  5
87
 10
-201.175
 20
-401.92412988
 30
0.0
 11
-201.925
 21
-404.54912988
 31
0.0
  0
LINE
  8
ZUWAKU
  6
CONTINUOUS
 62
       7
  5
88
 10
-201.925
 20
-404.54912988
 30
0.0
 11
-194.05
 21
-404.54912988
 31
0.0
  0
LINE
  8
ZUWAKU
  6
CONTINUOUS
 62
       7
  5
89
 10
-194.05
 20
-404.54912988
 30
0.0
 11
-194.425
 21
-405.86162988
 31
0.0
  0
LINE
  8
ZUWAKU
  6
CONTINUOUS
 62
       7
  5
8A
 10
-194.425
 20
-405.86162988
 30
0.0
 11
-195.3625
 21
-406.98662988
 31
0.0
  0
LINE
  8
ZUWAKU
  6
CONTINUOUS
 62
       7
  5
8B
 10
-195.3625
 20
-406.98662988
 30
0.0
 11
-196.3
 21
-407.92412988
 31
0.0
  0
LINE
  8
ZUWAKU
  6
CONTINUOUS
 62
       7
  5
8C
 10
-196.3
 20
-407.92412988
 30
0.0
 11
-197.6125
 21
-408.86162988
 31
0.0
  0
LINE
  8
ZUWAKU
  6
CONTINUOUS
 62
       7
  5
8D
 10
-197.6125
 20
-408.86162988
 30
0.0
 11
-203.8
 21
-408.86162988
 31
0.0
  0
LINE
  8
ZUWAKU
  6
CONTINUOUS
 62
       7
  5
8E
 10
-203.8
 20
-408.86162988
 30
0.0
 11
-204.925
 21
-411.67412988
 31
0.0
  0
LINE
  8
ZUWAKU
  6
CONTINUOUS
 62
       7
  5
8F
 10
-216.9625
 20
-411.67412988
 30
0.0
 11
-216.025
 21
-408.86162988
 31
0.0
  0
LINE
  8
ZUWAKU
  6
CONTINUOUS
 62
       7
  5
90
 10
-216.025
 20
-408.86162988
 30
0.0
 11
-214.3375
 21
-408.86162988
 31
0.0
  0
LINE
  8
ZUWAKU
  6
CONTINUOUS
 62
       7
  5
91
 10
-214.3375
 20
-408.86162988
 30
0.0
 11
-212.8375
 21
-408.67412988
 31
0.0
  0
LINE
  8
ZUWAKU
  6
CONTINUOUS
 62
       7
  5
92
 10
-212.8375
 20
-408.67412988
 30
0.0
 11
-211.3375
 21
-407.92412988
 31
0.0
  0
LINE
  8
ZUWAKU
  6
CONTINUOUS
 62
       7
  5
93
 10
-211.3375
 20
-407.92412988
 30
0.0
 11
-210.4
 21
-406.42412988
 31
0.0
  0
LINE
  8
ZUWAKU
  6
CONTINUOUS
 62
       7
  5
94
 10
-210.4
 20
-406.42412988
 30
0.0
 11
-206.8375
 21
-396.86162988
 31
0.0
  0
LINE
  8
ZUWAKU
  6
CONTINUOUS
 62
       7
  5
95
 10
-206.8375
 20
-396.86162988
 30
0.0
 11
-201.775
 21
-396.86162988
 31
0.0
  0
LINE
  8
ZUWAKU
  6
CONTINUOUS
 62
       7
  5
96
 10
-201.775
 20
-396.86162988
 30
0.0
 11
-205.525
 21
-407.92412988
 31
0.0
  0
LINE
  8
ZUWAKU
  6
CONTINUOUS
 62
       7
  5
97
 10
-205.525
 20
-407.92412988
 30
0.0
 11
-207.025
 21
-409.42412988
 31
0.0
  0
LINE
  8
ZUWAKU
  6
CONTINUOUS
 62
       7
  5
98
 10
-207.025
 20
-409.42412988
 30
0.0
 11
-208.525
 21
-410.73662988
 31
0.0
  0
LINE
  8
ZUWAKU
  6
CONTINUOUS
 62
       7
  5
99
 10
-208.525
 20
-410.73662988
 30
0.0
 11
-210.4
 21
-411.48662988
 31
0.0
  0
LINE
  8
ZUWAKU
  6
CONTINUOUS
 62
       7
  5
9A
 10
-166.9
 20
-396.86162988
 30
0.0
 11
-168.025
 21
-399.29912988
 31
0.0
  0
LINE
  8
ZUWAKU
  6
CONTINUOUS
 62
       7
  5
9B
 10
-168.025
 20
-399.29912988
 30
0.0
 11
-169.9
 21
-401.17412988
 31
0.0
  0
LINE
  8
ZUWAKU
  6
CONTINUOUS
 62
       7
  5
9C
 10
-168.025
 20
-399.29912988
 30
0.0
 11
-169.9
 21
-401.17412988
 31
0.0
  0
LINE
  8
ZUWAKU
  6
CONTINUOUS
 62
       7
  5
9D
 10
-169.9
 20
-401.17412988
 30
0.0
 11
-171.9625
 21
-402.67412988
 31
0.0
  0
LINE
  8
ZUWAKU
  6
CONTINUOUS
 62
       7
  5
9E
 10
-171.9625
 20
-402.67412988
 30
0.0
 11
-174.4
 21
-403.42412988
 31
0.0
  0
LINE
  8
ZUWAKU
  6
CONTINUOUS
 62
       7
  5
9F
 10
-171.9625
 20
-402.67412988
 30
0.0
 11
-174.4
 21
-403.42412988
 31
0.0
  0
LINE
  8
ZUWAKU
  6
CONTINUOUS
 62
       7
  5
A0
 10
-174.4
 20
-403.42412988
 30
0.0
 11
-177.2125
 21
-411.67412988
 31
0.0
  0
LINE
  8
ZUWAKU
  6
CONTINUOUS
 62
       7
  5
A1
 10
-177.2125
 20
-411.67412988
 30
0.0
 11
-183.4
 21
-411.67412988
 31
0.0
  0
LINE
  8
ZUWAKU
  6
CONTINUOUS
 62
       7
  5
A2
 10
-177.2125
 20
-411.67412988
 30
0.0
 11
-183.4
 21
-411.67412988
 31
0.0
  0
LINE
  8
ZUWAKU
  6
CONTINUOUS
 62
       7
  5
A3
 10
-181.075
 20
-404.54912988
 30
0.0
 11
-186.775
 21
-404.54912988
 31
0.0
  0
LINE
  8
ZUWAKU
  6
CONTINUOUS
 62
       7
  5
A4
 10
-186.775
 20
-404.54912988
 30
0.0
 11
-185.8375
 21
-401.92412988
 31
0.0
  0
LINE
  8
ZUWAKU
  6
CONTINUOUS
 62
       7
  5
A5
 10
-183.4
 20
-411.67412988
 30
0.0
 11
-180.775
 21
-404.54912988
 31
0.0
  0
LINE
  8
ZUWAKU
  6
CONTINUOUS
 62
       7
  5
A6
 10
-183.4
 20
-411.67412988
 30
0.0
 11
-180.775
 21
-404.54912988
 31
0.0
  0
LINE
  8
ZUWAKU
  6
CONTINUOUS
 62
       7
  5
A7
 10
-185.8375
 20
-401.92412988
 30
0.0
 11
-182.275
 21
-401.92412988
 31
0.0
  0
LINE
  8
ZUWAKU
  6
CONTINUOUS
 62
       7
  5
A8
 10
-185.8375
 20
-401.92412988
 30
0.0
 11
-182.275
 21
-401.92412988
 31
0.0
  0
LINE
  8
ZUWAKU
  6
CONTINUOUS
 62
       7
  5
A9
 10
-182.275
 20
-401.92412988
 30
0.0
 11
-179.8375
 21
-401.73662988
 31
0.0
  0
LINE
  8
ZUWAKU
  6
CONTINUOUS
 62
       7
  5
AA
 10
-182.275
 20
-401.92412988
 30
0.0
 11
-179.8375
 21
-401.73662988
 31
0.0
  0
LINE
  8
ZUWAKU
  6
CONTINUOUS
 62
       7
  5
AB
 10
-179.8375
 20
-401.73662988
 30
0.0
 11
-177.2125
 21
-400.61162988
 31
0.0
  0
LINE
  8
ZUWAKU
  6
CONTINUOUS
 62
       7
  5
AC
 10
-179.8375
 20
-401.73662988
 30
0.0
 11
-177.2125
 21
-400.61162988
 31
0.0
  0
LINE
  8
ZUWAKU
  6
CONTINUOUS
 62
       7
  5
AD
 10
-177.2125
 20
-400.61162988
 30
0.0
 11
-175.3375
 21
-398.92412988
 31
0.0
  0
LINE
  8
ZUWAKU
  6
CONTINUOUS
 62
       7
  5
AE
 10
-177.2125
 20
-400.61162988
 30
0.0
 11
-175.3375
 21
-398.92412988
 31
0.0
  0
LINE
  8
ZUWAKU
  6
CONTINUOUS
 62
       7
  5
AF
 10
-210.5875
 20
-396.86162988
 30
0.0
 11
-213.9625
 21
-405.86162988
 31
0.0
  0
LINE
  8
ZUWAKU
  6
CONTINUOUS
 62
       7
  5
B0
 10
-213.9625
 20
-405.86162988
 30
0.0
 11
-218.275
 21
-405.86162988
 31
0.0
  0
LINE
  8
ZUWAKU
  6
CONTINUOUS
 62
       7
  5
B1
 10
-213.9625
 20
-405.86162988
 30
0.0
 11
-218.275
 21
-405.86162988
 31
0.0
  0
LINE
  8
ZUWAKU
  6
CONTINUOUS
 62
       7
  5
B2
 10
-218.275
 20
-405.86162988
 30
0.0
 11
-215.0875
 21
-396.86162988
 31
0.0
  0
LINE
  8
ZUWAKU
  6
CONTINUOUS
 62
       7
  5
B3
 10
-215.0875
 20
-396.86162988
 30
0.0
 11
-210.5875
 21
-396.86162988
 31
0.0
  0
LINE
  8
ZUWAKU
  6
CONTINUOUS
 62
       7
  5
B4
 10
-215.0875
 20
-396.86162988
 30
0.0
 11
-210.5875
 21
-396.86162988
 31
0.0
  0
LINE
  8
ZUWAKU
  6
CONTINUOUS
 62
       7
  5
B5
 10
-148.75
 20
-396.86162988
 30
0.0
 11
-149.875
 21
-400.23662988
 31
0.0
  0
LINE
  8
ZUWAKU
  6
CONTINUOUS
 62
       7
  5
B6
 10
-149.875
 20
-400.23662988
 30
0.0
 11
-143.875
 21
-400.23662988
 31
0.0
  0
LINE
  8
ZUWAKU
  6
CONTINUOUS
 62
       7
  5
B7
 10
-149.875
 20
-400.23662988
 30
0.0
 11
-143.875
 21
-400.23662988
 31
0.0
  0
LINE
  8
ZUWAKU
  6
CONTINUOUS
 62
       7
  5
B8
 10
-154.0
 20
-408.67412988
 30
0.0
 11
-155.125
 21
-411.86162988
 31
0.0
  0
LINE
  8
ZUWAKU
  6
CONTINUOUS
 62
       7
  5
B9
 10
-154.0
 20
-408.67412988
 30
0.0
 11
-155.125
 21
-411.86162988
 31
0.0
  0
LINE
  8
ZUWAKU
  6
CONTINUOUS
 62
       7
  5
BA
 10
-155.125
 20
-411.86162988
 30
0.0
 11
-149.5
 21
-410.92412988
 31
0.0
  0
LINE
  8
ZUWAKU
  6
CONTINUOUS
 62
       7
  5
BB
 10
-149.5
 20
-410.92412988
 30
0.0
 11
-146.875
 21
-410.17412988
 31
0.0
  0
LINE
  8
ZUWAKU
  6
CONTINUOUS
 62
       7
  5
BC
 10
-149.5
 20
-410.92412988
 30
0.0
 11
-146.875
 21
-410.17412988
 31
0.0
  0
LINE
  8
ZUWAKU
  6
CONTINUOUS
 62
       7
  5
BD
 10
-144.0625
 20
-409.23662988
 30
0.0
 11
-142.5625
 21
-411.67412988
 31
0.0
  0
LINE
  8
ZUWAKU
  6
CONTINUOUS
 62
       7
  5
BE
 10
-142.5625
 20
-411.67412988
 30
0.0
 11
-137.875
 21
-411.67412988
 31
0.0
  0
LINE
  8
ZUWAKU
  6
CONTINUOUS
 62
       7
  5
BF
 10
-142.5625
 20
-411.67412988
 30
0.0
 11
-137.875
 21
-411.67412988
 31
0.0
  0
LINE
  8
ZUWAKU
  6
CONTINUOUS
 62
       7
  5
C0
 10
-141.0625
 20
-406.42412988
 30
0.0
 11
-139.375
 21
-404.17412988
 31
0.0
  0
LINE
  8
ZUWAKU
  6
CONTINUOUS
 62
       7
  5
C1
 10
-139.375
 20
-404.17412988
 30
0.0
 11
-137.875
 21
-401.92412988
 31
0.0
  0
LINE
  8
ZUWAKU
  6
CONTINUOUS
 62
       7
  5
C2
 10
-137.875
 20
-401.92412988
 30
0.0
 11
-136.75
 21
-399.48662988
 31
0.0
  0
LINE
  8
ZUWAKU
  6
CONTINUOUS
 62
       7
  5
C3
 10
-136.75
 20
-399.48662988
 30
0.0
 11
-136.0
 21
-396.86162988
 31
0.0
  0
LINE
  8
ZUWAKU
  6
CONTINUOUS
 62
       7
  5
C4
 10
-136.75
 20
-399.48662988
 30
0.0
 11
-136.0
 21
-396.86162988
 31
0.0
  0
LINE
  8
ZUWAKU
  6
CONTINUOUS
 62
       7
  5
C5
 10
-136.0
 20
-396.86162988
 30
0.0
 11
-148.75
 21
-396.86162988
 31
0.0
  0
LINE
  8
ZUWAKU
  6
CONTINUOUS
 62
       7
  5
C6
 10
-147.4375
 20
-406.23662988
 30
0.0
 11
-150.4375
 21
-407.92412988
 31
0.0
  0
LINE
  8
ZUWAKU
  6
CONTINUOUS
 62
       7
  5
C7
 10
-146.875
 20
-410.17412988
 30
0.0
 11
-144.0625
 21
-409.23662988
 31
0.0
  0
LINE
  8
ZUWAKU
  6
CONTINUOUS
 62
       7
  5
C8
 10
-146.875
 20
-410.17412988
 30
0.0
 11
-144.0625
 21
-409.23662988
 31
0.0
  0
LINE
  8
ZUWAKU
  6
CONTINUOUS
 62
       7
  5
C9
 10
-137.875
 20
-411.67412988
 30
0.0
 11
-141.0625
 21
-406.42412988
 31
0.0
  0
LINE
  8
ZUWAKU
  6
CONTINUOUS
 62
       7
  5
CA
 10
-137.875
 20
-411.67412988
 30
0.0
 11
-141.0625
 21
-406.42412988
 31
0.0
  0
LINE
  8
ZUWAKU
  6
CONTINUOUS
 62
       7
  5
CB
 10
-145.0
 20
-403.42412988
 30
0.0
 11
-147.4375
 21
-406.23662988
 31
0.0
  0
LINE
  8
ZUWAKU
  6
CONTINUOUS
 62
       7
  5
CC
 10
-145.0
 20
-403.42412988
 30
0.0
 11
-147.4375
 21
-406.23662988
 31
0.0
  0
LINE
  8
ZUWAKU
  6
CONTINUOUS
 62
       7
  5
CD
 10
-182.275
 20
-401.92412988
 30
0.0
 11
-179.8375
 21
-401.73662988
 31
0.0
  0
LINE
  8
ZUWAKU
  6
CONTINUOUS
 62
       7
  5
CE
 10
-179.8375
 20
-401.73662988
 30
0.0
 11
-177.2125
 21
-400.61162988
 31
0.0
  0
LINE
  8
ZUWAKU
  6
CONTINUOUS
 62
       7
  5
CF
 10
-177.2125
 20
-400.61162988
 30
0.0
 11
-175.3375
 21
-398.92412988
 31
0.0
  0
LINE
  8
ZUWAKU
  6
CONTINUOUS
 62
       7
  5
D0
 10
-175.3375
 20
-398.92412988
 30
0.0
 11
-173.8375
 21
-396.86162988
 31
0.0
  0
LINE
  8
ZUWAKU
  6
CONTINUOUS
 62
       7
  5
D1
 10
-160.975
 20
-411.67412988
 30
0.0
 11
-157.6
 21
-410.17412988
 31
0.0
  0
LINE
  8
ZUWAKU
  6
CONTINUOUS
 62
       7
  5
D2
 10
-157.6
 20
-410.17412988
 30
0.0
 11
-154.6
 21
-407.36162988
 31
0.0
  0
LINE
  8
ZUWAKU
  6
CONTINUOUS
 62
       7
  5
D3
 10
-154.6
 20
-407.36162988
 30
0.0
 11
-152.35
 21
-403.61162988
 31
0.0
  0
LINE
  8
ZUWAKU
  6
CONTINUOUS
 62
       7
  5
D4
 10
-152.35
 20
-403.61162988
 30
0.0
 11
-151.6
 21
-399.67412988
 31
0.0
  0
LINE
  8
ZUWAKU
  6
CONTINUOUS
 62
       7
  5
D5
 10
-154.0
 20
-408.67412988
 30
0.0
 11
-150.4375
 21
-407.92412988
 31
0.0
  0
LINE
  8
ZUWAKU
  6
CONTINUOUS
 62
       7
  5
D6
 10
-150.4375
 20
-407.92412988
 30
0.0
 11
-147.4375
 21
-406.23662988
 31
0.0
  0
LINE
  8
ZUWAKU
  6
CONTINUOUS
 62
       7
  5
D7
 10
-147.4375
 20
-406.23662988
 30
0.0
 11
-145.0
 21
-403.42412988
 31
0.0
  0
LINE
  8
ZUWAKU
  6
CONTINUOUS
 62
       7
  5
D8
 10
-174.4
 20
-403.42412988
 30
0.0
 11
-171.9625
 21
-402.67412988
 31
0.0
  0
LINE
  8
ZUWAKU
  6
CONTINUOUS
 62
       7
  5
D9
 10
-171.9625
 20
-402.67412988
 30
0.0
 11
-169.9
 21
-401.17412988
 31
0.0
  0
LINE
  8
ZUWAKU
  6
CONTINUOUS
 62
       7
  5
DA
 10
-169.9
 20
-401.17412988
 30
0.0
 11
-168.025
 21
-399.29912988
 31
0.0
  0
LINE
  8
ZUWAKU
  6
CONTINUOUS
 62
       7
  5
DB
 10
-168.025
 20
-399.29912988
 30
0.0
 11
-166.9
 21
-396.86162988
 31
0.0
  0
LINE
  8
ZUWAKU
  6
CONTINUOUS
 62
       7
  5
DC
 10
-141.0625
 20
-406.42412988
 30
0.0
 11
-139.375
 21
-404.17412988
 31
0.0
  0
LINE
  8
ZUWAKU
  6
CONTINUOUS
 62
       7
  5
DD
 10
-139.375
 20
-404.17412988
 30
0.0
 11
-137.875
 21
-401.92412988
 31
0.0
  0
LINE
  8
ZUWAKU
  6
CONTINUOUS
 62
       7
  5
DE
 10
-137.875
 20
-401.92412988
 30
0.0
 11
-136.75
 21
-399.48662988
 31
0.0
  0
LINE
  8
ZUWAKU
  6
CONTINUOUS
 62
       7
  5
DF
 10
-136.75
 20
-399.48662988
 30
0.0
 11
-136.0
 21
-396.86162988
 31
0.0
  0
LINE
  8
ZUWAKU
  6
CONTINUOUS
 62
       7
  5
E0
 10
-149.5
 20
-410.92412988
 30
0.0
 11
-146.875
 21
-410.17412988
 31
0.0
  0
LINE
  8
ZUWAKU
  6
CONTINUOUS
 62
       7
  5
E1
 10
-146.875
 20
-410.17412988
 30
0.0
 11
-144.0625
 21
-409.23662988
 31
0.0
  0
LINE
  8
ZUWAKU
  6
CONTINUOUS
 62
       7
  5
E2
 10
-154.4125
 20
-402.11162988
 30
0.0
 11
-153.475
 21
-399.67412988
 31
0.0
  0
LINE
  8
ZUWAKU
  6
CONTINUOUS
 62
       7
  5
E3
 10
-153.475
 20
-399.67412988
 30
0.0
 11
-151.6
 21
-399.67412988
 31
0.0
  0
LINE
  8
ZUWAKU
  6
CONTINUOUS
 62
       7
  5
E4
 10
-153.475
 20
-399.67412988
 30
0.0
 11
-151.6
 21
-399.67412988
 31
0.0
  0
LINE
  8
ZUWAKU
  6
CONTINUOUS
 62
       7
  5
E5
 10
-151.6
 20
-399.67412988
 30
0.0
 11
-152.35
 21
-403.61162988
 31
0.0
  0
LINE
  8
ZUWAKU
  6
CONTINUOUS
 62
       7
  5
E6
 10
-152.35
 20
-403.61162988
 30
0.0
 11
-154.6
 21
-407.36162988
 31
0.0
  0
LINE
  8
ZUWAKU
  6
CONTINUOUS
 62
       7
  5
E7
 10
-152.35
 20
-403.61162988
 30
0.0
 11
-154.6
 21
-407.36162988
 31
0.0
  0
LINE
  8
ZUWAKU
  6
CONTINUOUS
 62
       7
  5
E8
 10
-154.6
 20
-407.36162988
 30
0.0
 11
-157.6
 21
-410.17412988
 31
0.0
  0
LINE
  8
ZUWAKU
  6
CONTINUOUS
 62
       7
  5
E9
 10
-161.35
 20
-411.67412988
 30
0.0
 11
-170.9125
 21
-411.67412988
 31
0.0
  0
LINE
  8
ZUWAKU
  6
CONTINUOUS
 62
       7
  5
EA
 10
-170.9125
 20
-411.67412988
 30
0.0
 11
-169.225
 21
-406.98662988
 31
0.0
  0
LINE
  8
ZUWAKU
  6
CONTINUOUS
 62
       7
  5
EB
 10
-170.9125
 20
-411.67412988
 30
0.0
 11
-169.225
 21
-406.98662988
 31
0.0
  0
LINE
  8
ZUWAKU
  6
CONTINUOUS
 62
       7
  5
EC
 10
-155.9125
 20
-404.17412988
 30
0.0
 11
-154.4125
 21
-402.11162988
 31
0.0
  0
LINE
  8
ZUWAKU
  6
CONTINUOUS
 62
       7
  5
ED
 10
-169.225
 20
-406.98662988
 30
0.0
 11
-160.225
 21
-406.98662988
 31
0.0
  0
LINE
  8
ZUWAKU
  6
CONTINUOUS
 62
       7
  5
EE
 10
-169.225
 20
-406.98662988
 30
0.0
 11
-160.225
 21
-406.98662988
 31
0.0
  0
LINE
  8
ZUWAKU
  6
CONTINUOUS
 62
       7
  5
EF
 10
-160.225
 20
-406.98662988
 30
0.0
 11
-157.975
 21
-405.86162988
 31
0.0
  0
LINE
  8
ZUWAKU
  6
CONTINUOUS
 62
       7
  5
F0
 10
-160.225
 20
-406.98662988
 30
0.0
 11
-157.975
 21
-405.86162988
 31
0.0
  0
LINE
  8
ZUWAKU
  6
CONTINUOUS
 62
       7
  5
F1
 10
-157.975
 20
-405.86162988
 30
0.0
 11
-155.9125
 21
-404.17412988
 31
0.0
  0
LINE
  8
ZUWAKU
  6
CONTINUOUS
 62
       7
  5
F2
 10
-187.675
 20
-401.92412988
 30
0.0
 11
-189.925
 21
-408.11162988
 31
0.0
  0
LINE
  8
ZUWAKU
  6
CONTINUOUS
 62
       7
  5
F3
 10
-189.925
 20
-408.11162988
 30
0.0
 11
-191.2375
 21
-409.42412988
 31
0.0
  0
LINE
  8
ZUWAKU
  6
CONTINUOUS
 62
       7
  5
F4
 10
-189.925
 20
-408.11162988
 30
0.0
 11
-191.2375
 21
-409.42412988
 31
0.0
  0
LINE
  8
ZUWAKU
  6
CONTINUOUS
 62
       7
  5
F5
 10
-191.2375
 20
-409.42412988
 30
0.0
 11
-192.3625
 21
-410.54912988
 31
0.0
  0
LINE
  8
ZUWAKU
  6
CONTINUOUS
 62
       7
  5
F6
 10
-192.3625
 20
-410.54912988
 30
0.0
 11
-193.8625
 21
-411.29912988
 31
0.0
  0
LINE
  8
ZUWAKU
  6
CONTINUOUS
 62
       7
  5
F7
 10
-192.3625
 20
-410.54912988
 30
0.0
 11
-193.8625
 21
-411.29912988
 31
0.0
  0
LINE
  8
ZUWAKU
  6
CONTINUOUS
 62
       7
  5
F8
 10
-193.8625
 20
-411.29912988
 30
0.0
 11
-195.3625
 21
-411.67412988
 31
0.0
  0
LINE
  8
ZUWAKU
  6
CONTINUOUS
 62
       7
  5
F9
 10
-195.3625
 20
-411.67412988
 30
0.0
 11
-204.925
 21
-411.67412988
 31
0.0
  0
LINE
  8
ZUWAKU
  6
CONTINUOUS
 62
       7
  5
FA
 10
-195.3625
 20
-411.67412988
 30
0.0
 11
-204.925
 21
-411.67412988
 31
0.0
  0
LINE
  8
ZUWAKU
  6
CONTINUOUS
 62
       7
  5
FB
 10
-204.925
 20
-411.67412988
 30
0.0
 11
-203.8
 21
-408.86162988
 31
0.0
  0
LINE
  8
ZUWAKU
  6
CONTINUOUS
 62
       7
  5
FC
 10
-203.8
 20
-408.86162988
 30
0.0
 11
-197.6125
 21
-408.86162988
 31
0.0
  0
LINE
  8
ZUWAKU
  6
CONTINUOUS
 62
       7
  5
FD
 10
-203.8
 20
-408.86162988
 30
0.0
 11
-197.6125
 21
-408.86162988
 31
0.0
  0
LINE
  8
ZUWAKU
  6
CONTINUOUS
 62
       7
  5
FE
 10
-194.05
 20
-404.54912988
 30
0.0
 11
-201.925
 21
-404.54912988
 31
0.0
  0
LINE
  8
ZUWAKU
  6
CONTINUOUS
 62
       7
  5
FF
 10
-201.925
 20
-404.54912988
 30
0.0
 11
-201.175
 21
-401.92412988
 31
0.0
  0
LINE
  8
ZUWAKU
  6
CONTINUOUS
 62
       7
  5
100
 10
-201.925
 20
-404.54912988
 30
0.0
 11
-201.175
 21
-401.92412988
 31
0.0
  0
LINE
  8
ZUWAKU
  6
CONTINUOUS
 62
       7
  5
101
 10
-197.6125
 20
-408.86162988
 30
0.0
 11
-196.3
 21
-407.92412988
 31
0.0
  0
LINE
  8
ZUWAKU
  6
CONTINUOUS
 62
       7
  5
102
 10
-197.6125
 20
-408.86162988
 30
0.0
 11
-196.3
 21
-407.92412988
 31
0.0
  0
LINE
  8
ZUWAKU
  6
CONTINUOUS
 62
       7
  5
103
 10
-196.3
 20
-407.92412988
 30
0.0
 11
-195.3625
 21
-406.98662988
 31
0.0
  0
LINE
  8
ZUWAKU
  6
CONTINUOUS
 62
       7
  5
104
 10
-196.3
 20
-407.92412988
 30
0.0
 11
-195.3625
 21
-406.98662988
 31
0.0
  0
LINE
  8
ZUWAKU
  6
CONTINUOUS
 62
       7
  5
105
 10
-195.3625
 20
-406.98662988
 30
0.0
 11
-194.425
 21
-405.86162988
 31
0.0
  0
LINE
  8
ZUWAKU
  6
CONTINUOUS
 62
       7
  5
106
 10
-195.3625
 20
-406.98662988
 30
0.0
 11
-194.425
 21
-405.86162988
 31
0.0
  0
LINE
  8
ZUWAKU
  6
CONTINUOUS
 62
       7
  5
107
 10
-194.425
 20
-405.86162988
 30
0.0
 11
-194.05
 21
-404.54912988
 31
0.0
  0
LINE
  8
ZUWAKU
  6
CONTINUOUS
 62
       7
  5
108
 10
-194.425
 20
-405.86162988
 30
0.0
 11
-194.05
 21
-404.54912988
 31
0.0
  0
LINE
  8
ZUWAKU
  6
CONTINUOUS
 62
       7
  5
109
 10
-206.2375
 20
-396.86162988
 30
0.0
 11
-202.11398879
 21
-396.86162988
 31
0.0
  0
LINE
  8
ZUWAKU
  6
CONTINUOUS
 62
       7
  5
10A
 10
-205.525
 20
-407.92412988
 30
0.0
 11
-207.025
 21
-409.42412988
 31
0.0
  0
LINE
  8
ZUWAKU
  6
CONTINUOUS
 62
       7
  5
10B
 10
-207.025
 20
-409.42412988
 30
0.0
 11
-208.525
 21
-410.73662988
 31
0.0
  0
LINE
  8
ZUWAKU
  6
CONTINUOUS
 62
       7
  5
10C
 10
-207.025
 20
-409.42412988
 30
0.0
 11
-208.525
 21
-410.73662988
 31
0.0
  0
LINE
  8
ZUWAKU
  6
CONTINUOUS
 62
       7
  5
10D
 10
-208.525
 20
-410.73662988
 30
0.0
 11
-210.4
 21
-411.48662988
 31
0.0
  0
LINE
  8
ZUWAKU
  6
CONTINUOUS
 62
       7
  5
10E
 10
-210.4
 20
-411.48662988
 30
0.0
 11
-212.275
 21
-411.67412988
 31
0.0
  0
LINE
  8
ZUWAKU
  6
CONTINUOUS
 62
       7
  5
10F
 10
-212.275
 20
-411.67412988
 30
0.0
 11
-216.9625
 21
-411.67412988
 31
0.0
  0
LINE
  8
ZUWAKU
  6
CONTINUOUS
 62
       7
  5
110
 10
-216.9625
 20
-411.67412988
 30
0.0
 11
-216.025
 21
-408.86162988
 31
0.0
  0
LINE
  8
ZUWAKU
  6
CONTINUOUS
 62
       7
  5
111
 10
-216.9625
 20
-411.67412988
 30
0.0
 11
-216.025
 21
-408.86162988
 31
0.0
  0
LINE
  8
ZUWAKU
  6
CONTINUOUS
 62
       7
  5
112
 10
-210.4
 20
-406.42412988
 30
0.0
 11
-206.8375
 21
-396.86162988
 31
0.0
  0
LINE
  8
ZUWAKU
  6
CONTINUOUS
 62
       7
  5
113
 10
-216.025
 20
-408.86162988
 30
0.0
 11
-214.3375
 21
-408.86162988
 31
0.0
  0
LINE
  8
ZUWAKU
  6
CONTINUOUS
 62
       7
  5
114
 10
-216.025
 20
-408.86162988
 30
0.0
 11
-214.3375
 21
-408.86162988
 31
0.0
  0
LINE
  8
ZUWAKU
  6
CONTINUOUS
 62
       7
  5
115
 10
-211.3375
 20
-407.92412988
 30
0.0
 11
-210.4
 21
-406.42412988
 31
0.0
  0
LINE
  8
ZUWAKU
  6
CONTINUOUS
 62
       7
  5
116
 10
-212.8375
 20
-408.67412988
 30
0.0
 11
-211.3375
 21
-407.92412988
 31
0.0
  0
LINE
  8
ZUWAKU
  6
CONTINUOUS
 62
       7
  5
117
 10
-214.3375
 20
-408.86162988
 30
0.0
 11
-212.8375
 21
-408.67412988
 31
0.0
  0
LINE
  8
ZUWAKU
  6
CONTINUOUS
 62
       7
  5
118
 10
-214.3375
 20
-408.86162988
 30
0.0
 11
-212.8375
 21
-408.67412988
 31
0.0
  0
LINE
  8
ZUWAKU
  6
CONTINUOUS
 62
       7
  5
119
 10
-165.475
 20
-396.86162988
 30
0.0
 11
-159.475
 21
-396.86162988
 31
0.0
  0
LINE
  8
ZUWAKU
  6
CONTINUOUS
 62
       7
  5
11A
 10
-159.475
 20
-396.86162988
 30
0.0
 11
-160.6
 21
-400.23662988
 31
0.0
  0
LINE
  8
ZUWAKU
  6
CONTINUOUS
 62
       7
  5
11B
 10
-159.475
 20
-396.86162988
 30
0.0
 11
-160.6
 21
-400.23662988
 31
0.0
  0
LINE
  8
ZUWAKU
  6
CONTINUOUS
 62
       7
  5
11C
 10
-160.9
 20
-400.23662988
 30
0.0
 11
-166.7875
 21
-400.23662988
 31
0.0
  0
LINE
  8
ZUWAKU
  6
CONTINUOUS
 62
       7
  5
11D
 10
-143.25272308
 20
-400.21168646
 30
0.0
 11
-145.0
 21
-403.42412988
 31
0.0
  0
LINE
  8
ZUWAKU
  6
CONTINUOUS
 62
       7
  5
11E
 10
-138.0625
 20
-396.86162988
 30
0.0
 11
-147.4375
 21
-406.23662988
 31
0.0
  0
LINE
  8
ZUWAKU
  6
CONTINUOUS
 62
       7
  5
11F
 10
-147.4375
 20
-406.23662988
 30
0.0
 11
-152.65
 21
-411.44912988
 31
0.0
  0
LINE
  8
ZUWAKU
  6
CONTINUOUS
 62
       7
  5
120
 10
-138.91102814
 20
-396.86162988
 30
0.0
 11
-144.43529641
 21
-402.38589815
 31
0.0
  0
LINE
  8
ZUWAKU
  6
CONTINUOUS
 62
       7
  5
121
 10
-149.37699289
 20
-407.32759463
 30
0.0
 11
-153.66823376
 21
-411.61883551
 31
0.0
  0
LINE
  8
ZUWAKU
  6
CONTINUOUS
 62
       7
  5
122
 10
-139.75955627
 20
-396.86162988
 30
0.0
 11
-143.42338845
 21
-400.52546206
 31
0.0
  0
LINE
  8
ZUWAKU
  6
CONTINUOUS
 62
       7
  5
123
 10
-150.92460461
 20
-408.02667822
 30
0.0
 11
-154.68646753
 21
-411.78854114
 31
0.0
  0
LINE
  8
ZUWAKU
  6
CONTINUOUS
 62
       7
  5
124
 10
-140.60808441
 20
-396.86162988
 30
0.0
 11
-143.98308441
 21
-400.23662988
 31
0.0
  0
LINE
  8
ZUWAKU
  6
CONTINUOUS
 62
       7
  5
125
 10
-151.99940692
 20
-408.25295239
 30
0.0
 11
-154.86149941
 21
-411.11504488
 31
0.0
  0
LINE
  8
ZUWAKU
  6
CONTINUOUS
 62
       7
  5
126
 10
-141.45661255
 20
-396.86162988
 30
0.0
 11
-144.83161255
 21
-400.23662988
 31
0.0
  0
LINE
  8
ZUWAKU
  6
CONTINUOUS
 62
       7
  5
127
 10
-153.07420923
 20
-408.47922656
 30
0.0
 11
-154.39866588
 21
-409.80368321
 31
0.0
  0
LINE
  8
ZUWAKU
  6
CONTINUOUS
 62
       7
  5
128
 10
-142.30514069
 20
-396.86162988
 30
0.0
 11
-145.68014069
 21
-400.23662988
 31
0.0
  0
LINE
  8
ZUWAKU
  6
CONTINUOUS
 62
       7
  5
129
 10
-143.15366882
 20
-396.86162988
 30
0.0
 11
-146.52866882
 21
-400.23662988
 31
0.0
  0
LINE
  8
ZUWAKU
  6
CONTINUOUS
 62
       7
  5
12A
 10
-144.00219696
 20
-396.86162988
 30
0.0
 11
-147.37719696
 21
-400.23662988
 31
0.0
  0
LINE
  8
ZUWAKU
  6
CONTINUOUS
 62
       7
  5
12B
 10
-144.8507251
 20
-396.86162988
 30
0.0
 11
-148.2257251
 21
-400.23662988
 31
0.0
  0
LINE
  8
ZUWAKU
  6
CONTINUOUS
 62
       7
  5
12C
 10
-145.69925324
 20
-396.86162988
 30
0.0
 11
-149.07425324
 21
-400.23662988
 31
0.0
  0
LINE
  8
ZUWAKU
  6
CONTINUOUS
 62
       7
  5
12D
 10
-146.54778137
 20
-396.86162988
 30
0.0
 11
-149.85110931
 21
-400.16495782
 31
0.0
  0
LINE
  8
ZUWAKU
  6
CONTINUOUS
 62
       7
  5
12E
 10
-147.39630951
 20
-396.86162988
 30
0.0
 11
-149.42684524
 21
-398.89216561
 31
0.0
  0
LINE
  8
ZUWAKU
  6
CONTINUOUS
 62
       7
  5
12F
 10
-148.24483765
 20
-396.86162988
 30
0.0
 11
-149.00258118
 21
-397.61937341
 31
0.0
  0
LINE
  8
ZUWAKU
  6
CONTINUOUS
 62
       7
  5
130
 10
-137.21397186
 20
-396.86162988
 30
0.0
 11
-151.63176624
 21
-411.27942425
 31
0.0
  0
LINE
  8
ZUWAKU
  6
CONTINUOUS
 62
       7
  5
131
 10
-136.36544373
 20
-396.86162988
 30
0.0
 11
-150.61353247
 21
-411.10971863
 31
0.0
  0
LINE
  8
ZUWAKU
  6
CONTINUOUS
 62
       7
  5
132
 10
-136.19323376
 20
-397.53794806
 30
0.0
 11
-149.59529871
 21
-410.940013
 31
0.0
  0
LINE
  8
ZUWAKU
  6
CONTINUOUS
 62
       7
  5
133
 10
-136.53264502
 20
-398.72588745
 30
0.0
 11
-148.42324243
 21
-410.61648486
 31
0.0
  0
LINE
  8
ZUWAKU
  6
CONTINUOUS
 62
       7
  5
134
 10
-137.01154916
 20
-400.05331973
 30
0.0
 11
-147.23530304
 21
-410.27707361
 31
0.0
  0
LINE
  8
ZUWAKU
  6
CONTINUOUS
 62
       7
  5
135
 10
-137.73885899
 20
-401.6291577
 30
0.0
 11
-145.98824676
 21
-409.87854547
 31
0.0
  0
LINE
  8
ZUWAKU
  6
CONTINUOUS
 62
       7
  5
136
 10
-139.25439392
 20
-403.99322077
 30
0.0
 11
-144.71545456
 21
-409.4542814
 31
0.0
  0
LINE
  8
ZUWAKU
  6
CONTINUOUS
 62
       7
  5
137
 10
-140.97722607
 20
-406.56458105
 30
0.0
 11
-143.90508091
 21
-409.4924359
 31
0.0
  0
LINE
  8
ZUWAKU
  6
CONTINUOUS
 62
       7
  5
138
 10
-140.656671
 20
-407.09255412
 30
0.0
 11
-143.5818321
 21
-410.01771522
 31
0.0
  0
LINE
  8
ZUWAKU
  6
CONTINUOUS
 62
       7
  5
139
 10
-140.33611593
 20
-407.62052718
 30
0.0
 11
-143.25858329
 21
-410.54299454
 31
0.0
  0
LINE
  8
ZUWAKU
  6
CONTINUOUS
 62
       7
  5
13A
 10
-140.01556085
 20
-408.14850024
 30
0.0
 11
-142.93533447
 21
-411.06827386
 31
0.0
  0
LINE
  8
ZUWAKU
  6
CONTINUOUS
 62
       7
  5
13B
 10
-139.69500578
 20
-408.67647331
 30
0.0
 11
-142.61208566
 21
-411.59355319
 31
0.0
  0
LINE
  8
ZUWAKU
  6
CONTINUOUS
 62
       7
  5
13C
 10
-139.3744507
 20
-409.20444637
 30
0.0
 11
-141.84413421
 21
-411.67412988
 31
0.0
  0
LINE
  8
ZUWAKU
  6
CONTINUOUS
 62
       7
  5
13D
 10
-139.05389563
 20
-409.73241943
 30
0.0
 11
-140.99560608
 21
-411.67412988
 31
0.0
  0
LINE
  8
ZUWAKU
  6
CONTINUOUS
 62
       7
  5
13E
 10
-138.73334055
 20
-410.2603925
 30
0.0
 11
-140.14707794
 21
-411.67412988
 31
0.0
  0
LINE
  8
ZUWAKU
  6
CONTINUOUS
 62
       7
  5
13F
 10
-138.41278548
 20
-410.78836556
 30
0.0
 11
-139.2985498
 21
-411.67412988
 31
0.0
  0
LINE
  8
ZUWAKU
  6
CONTINUOUS
 62
       7
  5
140
 10
-138.09223041
 20
-411.31633862
 30
0.0
 11
-138.45002166
 21
-411.67412988
 31
0.0
  0
LINE
  8
ZUWAKU
  6
CONTINUOUS
 62
       7
  5
141
 10
-161.44375
 20
-396.86162988
 30
0.0
 11
-164.81875
 21
-400.23662988
 31
0.0
  0
LINE
  8
ZUWAKU
  6
CONTINUOUS
 62
       7
  5
142
 10
-162.29227814
 20
-396.86162988
 30
0.0
 11
-165.66727814
 21
-400.23662988
 31
0.0
  0
LINE
  8
ZUWAKU
  6
CONTINUOUS
 62
       7
  5
143
 10
-163.14080627
 20
-396.86162988
 30
0.0
 11
-166.51580627
 21
-400.23662988
 31
0.0
  0
LINE
  8
ZUWAKU
  6
CONTINUOUS
 62
       7
  5
144
 10
-163.98933441
 20
-396.86162988
 30
0.0
 11
-166.42042356
 21
-399.29271902
 31
0.0
  0
LINE
  8
ZUWAKU
  6
CONTINUOUS
 62
       7
  5
145
 10
-164.83786255
 20
-396.86162988
 30
0.0
 11
-165.8804511
 21
-397.90421844
 31
0.0
  0
LINE
  8
ZUWAKU
  6
CONTINUOUS
 62
       7
  5
146
 10
-160.59522186
 20
-396.86162988
 30
0.0
 11
-163.97022186
 21
-400.23662988
 31
0.0
  0
LINE
  8
ZUWAKU
  6
CONTINUOUS
 62
       7
  5
147
 10
-159.74669373
 20
-396.86162988
 30
0.0
 11
-163.12169373
 21
-400.23662988
 31
0.0
  0
LINE
  8
ZUWAKU
  6
CONTINUOUS
 62
       7
  5
148
 10
-159.76341721
 20
-397.7268815
 30
0.0
 11
-162.27316559
 21
-400.23662988
 31
0.0
  0
LINE
  8
ZUWAKU
  6
CONTINUOUS
 62
       7
  5
149
 10
-160.18768127
 20
-398.99967371
 30
0.0
 11
-161.42463745
 21
-400.23662988
 31
0.0
  0
LINE
  8
ZUWAKU
  6
CONTINUOUS
 62
       7
  5
14A
 10
-160.57610931
 20
-400.23662988
 30
0.0
 11
-160.61194534
 21
-400.27246591
 31
0.0
  0
LINE
  8
ZUWAKU
  6
CONTINUOUS
 62
       7
  5
14B
 10
-162.56875
 20
-406.98662988
 30
0.0
 11
-167.25625
 21
-411.67412988
 31
0.0
  0
LINE
  8
ZUWAKU
  6
CONTINUOUS
 62
       7
  5
14C
 10
-163.41727814
 20
-406.98662988
 30
0.0
 11
-168.10477814
 21
-411.67412988
 31
0.0
  0
LINE
  8
ZUWAKU
  6
CONTINUOUS
 62
       7
  5
14D
 10
-164.26580627
 20
-406.98662988
 30
0.0
 11
-168.95330627
 21
-411.67412988
 31
0.0
  0
LINE
  8
ZUWAKU
  6
CONTINUOUS
 62
       7
  5
14E
 10
-165.11433441
 20
-406.98662988
 30
0.0
 11
-169.80183441
 21
-411.67412988
 31
0.0
  0
LINE
  8
ZUWAKU
  6
CONTINUOUS
 62
       7
  5
14F
 10
-165.96286255
 20
-406.98662988
 30
0.0
 11
-170.65036255
 21
-411.67412988
 31
0.0
  0
LINE
  8
ZUWAKU
  6
CONTINUOUS
 62
       7
  5
150
 10
-166.81139069
 20
-406.98662988
 30
0.0
 11
-170.58265524
 21
-410.75789443
 31
0.0
  0
LINE
  8
ZUWAKU
  6
CONTINUOUS
 62
       7
  5
151
 10
-167.65991882
 20
-406.98662988
 30
0.0
 11
-170.10535816
 21
-409.43206922
 31
0.0
  0
LINE
  8
ZUWAKU
  6
CONTINUOUS
 62
       7
  5
152
 10
-168.50844696
 20
-406.98662988
 30
0.0
 11
-169.62806108
 21
-408.106244
 31
0.0
  0
LINE
  8
ZUWAKU
  6
CONTINUOUS
 62
       7
  5
153
 10
-161.72022186
 20
-406.98662988
 30
0.0
 11
-166.40772186
 21
-411.67412988
 31
0.0
  0
LINE
  8
ZUWAKU
  6
CONTINUOUS
 62
       7
  5
154
 10
-160.87169373
 20
-406.98662988
 30
0.0
 11
-165.55919373
 21
-411.67412988
 31
0.0
  0
LINE
  8
ZUWAKU
  6
CONTINUOUS
 62
       7
  5
155
 10
-152.71066559
 20
-399.67412988
 30
0.0
 11
-153.95270901
 21
-400.9161733
 31
0.0
  0
LINE
  8
ZUWAKU
  6
CONTINUOUS
 62
       7
  5
156
 10
-159.82133118
 20
-406.78479547
 30
0.0
 11
-164.71066559
 21
-411.67412988
 31
0.0
  0
LINE
  8
ZUWAKU
  6
CONTINUOUS
 62
       7
  5
157
 10
-151.86213745
 20
-399.67412988
 30
0.0
 11
-154.7134668
 21
-402.52545923
 31
0.0
  0
LINE
  8
ZUWAKU
  6
CONTINUOUS
 62
       7
  5
158
 10
-158.1242749
 20
-405.93626733
 30
0.0
 11
-163.86213745
 21
-411.67412988
 31
0.0
  0
LINE
  8
ZUWAKU
  6
CONTINUOUS
 62
       7
  5
159
 10
-151.73797428
 20
-400.39849485
 30
0.0
 11
-163.01360931
 21
-411.67412988
 31
0.0
  0
LINE
  8
ZUWAKU
  6
CONTINUOUS
 62
       7
  5
15A
 10
-151.93762796
 20
-401.44667666
 30
0.0
 11
-162.16508118
 21
-411.67412988
 31
0.0
  0
LINE
  8
ZUWAKU
  6
CONTINUOUS
 62
       7
  5
15B
 10
-152.13728164
 20
-402.49485848
 30
0.0
 11
-161.31655304
 21
-411.67412988
 31
0.0
  0
LINE
  8
ZUWAKU
  6
CONTINUOUS
 62
       7
  5
15C
 10
-152.33693532
 20
-403.5430403
 30
0.0
 11
-160.06244482
 21
-411.2685498
 31
0.0
  0
LINE
  8
ZUWAKU
  6
CONTINUOUS
 62
       7
  5
15D
 10
-153.53950486
 20
-405.59413797
 30
0.0
 11
-158.53509417
 21
-410.58972729
 31
0.0
  0
LINE
  8
ZUWAKU
  6
CONTINUOUS
 62
       7
  5
15E
 10
-169.43125
 20
-396.86162988
 30
0.0
 11
-182.9078125
 21
-410.33819238
 31
0.0
  0
LINE
  8
ZUWAKU
  6
CONTINUOUS
 62
       7
  5
15F
 10
-170.27977814
 20
-396.86162988
 30
0.0
 11
-182.41283775
 21
-408.9946895
 31
0.0
  0
LINE
  8
ZUWAKU
  6
CONTINUOUS
 62
       7
  5
160
 10
-171.12830627
 20
-396.86162988
 30
0.0
 11
-181.91786301
 21
-407.65118661
 31
0.0
  0
LINE
  8
ZUWAKU
  6
CONTINUOUS
 62
       7
  5
161
 10
-171.97683441
 20
-396.86162988
 30
0.0
 11
-181.42288826
 21
-406.30768373
 31
0.0
  0
LINE
  8
ZUWAKU
  6
CONTINUOUS
 62
       7
  5
162
 10
-172.82536255
 20
-396.86162988
 30
0.0
 11
-180.92791351
 21
-404.96418084
 31
0.0
  0
LINE
  8
ZUWAKU
  6
CONTINUOUS
 62
       7
  5
163
 10
-173.67389069
 20
-396.86162988
 30
0.0
 11
-174.2737915
 21
-397.4615307
 31
0.0
  0
LINE
  8
ZUWAKU
  6
CONTINUOUS
 62
       7
  5
164
 10
-177.5824337
 20
-400.7701729
 30
0.0
 11
-181.36139069
 21
-404.54912988
 31
0.0
  0
LINE
  8
ZUWAKU
  6
CONTINUOUS
 62
       7
  5
165
 10
-179.06735794
 20
-401.406569
 30
0.0
 11
-182.20991882
 21
-404.54912988
 31
0.0
  0
LINE
  8
ZUWAKU
  6
CONTINUOUS
 62
       7
  5
166
 10
-180.27998421
 20
-401.77066713
 30
0.0
 11
-183.05844696
 21
-404.54912988
 31
0.0
  0
LINE
  8
ZUWAKU
  6
CONTINUOUS
 62
       7
  5
167
 10
-181.19922302
 20
-401.84137781
 30
0.0
 11
-183.9069751
 21
-404.54912988
 31
0.0
  0
LINE
  8
ZUWAKU
  6
CONTINUOUS
 62
       7
  5
168
 10
-182.11846184
 20
-401.91208848
 30
0.0
 11
-184.75550324
 21
-404.54912988
 31
0.0
  0
LINE
  8
ZUWAKU
  6
CONTINUOUS
 62
       7
  5
169
 10
-182.97903137
 20
-401.92412988
 30
0.0
 11
-185.60403137
 21
-404.54912988
 31
0.0
  0
LINE
  8
ZUWAKU
  6
CONTINUOUS
 62
       7
  5
16A
 10
-183.82755951
 20
-401.92412988
 30
0.0
 11
-186.45255951
 21
-404.54912988
 31
0.0
  0
LINE
  8
ZUWAKU
  6
CONTINUOUS
 62
       7
  5
16B
 10
-184.67608765
 20
-401.92412988
 30
0.0
 11
-186.48272908
 21
-403.73077132
 31
0.0
  0
LINE
  8
ZUWAKU
  6
CONTINUOUS
 62
       7
  5
16C
 10
-185.52461579
 20
-401.92412988
 30
0.0
 11
-186.01132456
 21
-402.41083866
 31
0.0
  0
LINE
  8
ZUWAKU
  6
CONTINUOUS
 62
       7
  5
16D
 10
-168.58272186
 20
-396.86162988
 30
0.0
 11
-183.40278725
 21
-411.68169527
 31
0.0
  0
LINE
  8
ZUWAKU
  6
CONTINUOUS
 62
       7
  5
16E
 10
-167.73419373
 20
-396.86162988
 30
0.0
 11
-174.25077983
 21
-403.37821598
 31
0.0
  0
LINE
  8
ZUWAKU
  6
CONTINUOUS
 62
       7
  5
16F
 10
-174.45343428
 20
-403.58087044
 30
0.0
 11
-182.54669373
 21
-411.67412988
 31
0.0
  0
LINE
  8
ZUWAKU
  6
CONTINUOUS
 62
       7
  5
170
 10
-166.88566559
 20
-396.86162988
 30
0.0
 11
-173.02512807
 21
-403.00109236
 31
0.0
  0
LINE
  8
ZUWAKU
  6
CONTINUOUS
 62
       7
  5
171
 10
-174.89232814
 20
-404.86829244
 30
0.0
 11
-181.69816559
 21
-411.67412988
 31
0.0
  0
LINE
  8
ZUWAKU
  6
CONTINUOUS
 62
       7
  5
172
 10
-167.63959647
 20
-398.4640889
 30
0.0
 11
-171.54867065
 21
-402.37316308
 31
0.0
  0
LINE
  8
ZUWAKU
  6
CONTINUOUS
 62
       7
  5
173
 10
-175.33122201
 20
-406.15571444
 30
0.0
 11
-180.84963745
 21
-411.67412988
 31
0.0
  0
LINE
  8
ZUWAKU
  6
CONTINUOUS
 62
       7
  5
174
 10
-175.77011587
 20
-407.44313644
 30
0.0
 11
-180.00110931
 21
-411.67412988
 31
0.0
  0
LINE
  8
ZUWAKU
  6
CONTINUOUS
 62
       7
  5
175
 10
-176.20900974
 20
-408.73055844
 30
0.0
 11
-179.15258118
 21
-411.67412988
 31
0.0
  0
LINE
  8
ZUWAKU
  6
CONTINUOUS
 62
       7
  5
176
 10
-176.6479036
 20
-410.01798044
 30
0.0
 11
-178.30405304
 21
-411.67412988
 31
0.0
  0
LINE
  8
ZUWAKU
  6
CONTINUOUS
 62
       7
  5
177
 10
-177.08679747
 20
-411.30540245
 30
0.0
 11
-177.4555249
 21
-411.67412988
 31
0.0
  0
LINE
  8
ZUWAKU
  6
CONTINUOUS
 62
       7
  5
178
 10
-191.70625
 20
-396.86162988
 30
0.0
 11
-195.08125
 21
-400.23662988
 31
0.0
  0
LINE
  8
ZUWAKU
  6
CONTINUOUS
 62
       7
  5
179
 10
-192.55477814
 20
-396.86162988
 30
0.0
 11
-195.92977814
 21
-400.23662988
 31
0.0
  0
LINE
  8
ZUWAKU
  6
CONTINUOUS
 62
       7
  5
17A
 10
-193.40330627
 20
-396.86162988
 30
0.0
 11
-196.77830627
 21
-400.23662988
 31
0.0
  0
LINE
  8
ZUWAKU
  6
CONTINUOUS
 62
       7
  5
17B
 10
-194.25183441
 20
-396.86162988
 30
0.0
 11
-197.62683441
 21
-400.23662988
 31
0.0
  0
LINE
  8
ZUWAKU
  6
CONTINUOUS
 62
       7
  5
17C
 10
-195.10036255
 20
-396.86162988
 30
0.0
 11
-198.47536255
 21
-400.23662988
 31
0.0
  0
LINE
  8
ZUWAKU
  6
CONTINUOUS
 62
       7
  5
17D
 10
-195.94889069
 20
-396.86162988
 30
0.0
 11
-199.32389069
 21
-400.23662988
 31
0.0
  0
LINE
  8
ZUWAKU
  6
CONTINUOUS
 62
       7
  5
17E
 10
-196.79741882
 20
-396.86162988
 30
0.0
 11
-200.17241882
 21
-400.23662988
 31
0.0
  0
LINE
  8
ZUWAKU
  6
CONTINUOUS
 62
       7
  5
17F
 10
-197.64594696
 20
-396.86162988
 30
0.0
 11
-200.68952652
 21
-399.90520944
 31
0.0
  0
LINE
  8
ZUWAKU
  6
CONTINUOUS
 62
       7
  5
180
 10
-198.4944751
 20
-396.86162988
 30
0.0
 11
-200.26526245
 21
-398.63241723
 31
0.0
  0
LINE
  8
ZUWAKU
  6
CONTINUOUS
 62
       7
  5
181
 10
-199.34300324
 20
-396.86162988
 30
0.0
 11
-199.84099838
 21
-397.35962503
 31
0.0
  0
LINE
  8
ZUWAKU
  6
CONTINUOUS
 62
       7
  5
182
 10
-190.85772186
 20
-396.86162988
 30
0.0
 11
-194.23272186
 21
-400.23662988
 31
0.0
  0
LINE
  8
ZUWAKU
  6
CONTINUOUS
 62
       7
  5
183
 10
-190.00919373
 20
-396.86162988
 30
0.0
 11
-193.38419373
 21
-400.23662988
 31
0.0
  0
LINE
  8
ZUWAKU
  6
CONTINUOUS
 62
       7
  5
184
 10
-189.16066559
 20
-396.86162988
 30
0.0
 11
-192.53566559
 21
-400.23662988
 31
0.0
  0
LINE
  8
ZUWAKU
  6
CONTINUOUS
 62
       7
  5
185
 10
-188.31213745
 20
-396.86162988
 30
0.0
 11
-191.68713745
 21
-400.23662988
 31
0.0
  0
LINE
  8
ZUWAKU
  6
CONTINUOUS
 62
       7
  5
186
 10
-187.46360931
 20
-396.86162988
 30
0.0
 11
-190.83860931
 21
-400.23662988
 31
0.0
  0
LINE
  8
ZUWAKU
  6
CONTINUOUS
 62
       7
  5
187
 10
-186.61508118
 20
-396.86162988
 30
0.0
 11
-189.99008118
 21
-400.23662988
 31
0.0
  0
LINE
  8
ZUWAKU
  6
CONTINUOUS
 62
       7
  5
188
 10
-186.09797348
 20
-397.19305032
 30
0.0
 11
-189.14155304
 21
-400.23662988
 31
0.0
  0
LINE
  8
ZUWAKU
  6
CONTINUOUS
 62
       7
  5
189
 10
-186.52223755
 20
-398.46584253
 30
0.0
 11
-188.2930249
 21
-400.23662988
 31
0.0
  0
LINE
  8
ZUWAKU
  6
CONTINUOUS
 62
       7
  5
18A
 10
-186.94650162
 20
-399.73863474
 30
0.0
 11
-187.44449676
 21
-400.23662988
 31
0.0
  0
LINE
  8
ZUWAKU
  6
CONTINUOUS
 62
       7
  5
18B
 10
-191.425
 20
-401.92412988
 30
0.0
 11
-194.05
 21
-404.54912988
 31
0.0
  0
LINE
  8
ZUWAKU
  6
CONTINUOUS
 62
       7
  5
18C
 10
-198.3625
 20
-408.86162988
 30
0.0
 11
-201.175
 21
-411.67412988
 31
0.0
  0
LINE
  8
ZUWAKU
  6
CONTINUOUS
 62
       7
  5
18D
 10
-192.27352814
 20
-401.92412988
 30
0.0
 11
-194.89852814
 21
-404.54912988
 31
0.0
  0
LINE
  8
ZUWAKU
  6
CONTINUOUS
 62
       7
  5
18E
 10
-199.21102814
 20
-408.86162988
 30
0.0
 11
-202.02352814
 21
-411.67412988
 31
0.0
  0
LINE
  8
ZUWAKU
  6
CONTINUOUS
 62
       7
  5
18F
 10
-193.12205627
 20
-401.92412988
 30
0.0
 11
-195.74705627
 21
-404.54912988
 31
0.0
  0
LINE
  8
ZUWAKU
  6
CONTINUOUS
 62
       7
  5
190
 10
-200.05955627
 20
-408.86162988
 30
0.0
 11
-202.87205627
 21
-411.67412988
 31
0.0
  0
LINE
  8
ZUWAKU
  6
CONTINUOUS
 62
       7
  5
191
 10
-193.97058441
 20
-401.92412988
 30
0.0
 11
-196.59558441
 21
-404.54912988
 31
0.0
  0
LINE
  8
ZUWAKU
  6
CONTINUOUS
 62
       7
  5
192
 10
-200.90808441
 20
-408.86162988
 30
0.0
 11
-203.72058441
 21
-411.67412988
 31
0.0
  0
LINE
  8
ZUWAKU
  6
CONTINUOUS
 62
       7
  5
193
 10
-194.81911255
 20
-401.92412988
 30
0.0
 11
-197.44411255
 21
-404.54912988
 31
0.0
  0
LINE
  8
ZUWAKU
  6
CONTINUOUS
 62
       7
  5
194
 10
-201.75661255
 20
-408.86162988
 30
0.0
 11
-204.56911255
 21
-411.67412988
 31
0.0
  0
LINE
  8
ZUWAKU
  6
CONTINUOUS
 62
       7
  5
195
 10
-195.66764069
 20
-401.92412988
 30
0.0
 11
-198.29264069
 21
-404.54912988
 31
0.0
  0
LINE
  8
ZUWAKU
  6
CONTINUOUS
 62
       7
  5
196
 10
-202.60514069
 20
-408.86162988
 30
0.0
 11
-204.59657288
 21
-410.85306207
 31
0.0
  0
LINE
  8
ZUWAKU
  6
CONTINUOUS
 62
       7
  5
197
 10
-196.51616882
 20
-401.92412988
 30
0.0
 11
-199.14116882
 21
-404.54912988
 31
0.0
  0
LINE
  8
ZUWAKU
  6
CONTINUOUS
 62
       7
  5
198
 10
-203.45366882
 20
-408.86162988
 30
0.0
 11
-204.03088745
 21
-409.43884851
 31
0.0
  0
LINE
  8
ZUWAKU
  6
CONTINUOUS
 62
       7
  5
199
 10
-197.36469696
 20
-401.92412988
 30
0.0
 11
-199.98969696
 21
-404.54912988
 31
0.0
  0
LINE
  8
ZUWAKU
  6
CONTINUOUS
 62
       7
  5
19A
 10
-198.2132251
 20
-401.92412988
 30
0.0
 11
-200.8382251
 21
-404.54912988
 31
0.0
  0
LINE
  8
ZUWAKU
  6
CONTINUOUS
 62
       7
  5
19B
 10
-199.06175324
 20
-401.92412988
 30
0.0
 11
-201.68675324
 21
-404.54912988
 31
0.0
  0
LINE
  8
ZUWAKU
  6
CONTINUOUS
 62
       7
  5
19C
 10
-199.91028137
 20
-401.92412988
 30
0.0
 11
-201.68088745
 21
-403.69473596
 31
0.0
  0
LINE
  8
ZUWAKU
  6
CONTINUOUS
 62
       7
  5
19D
 10
-200.75880951
 20
-401.92412988
 30
0.0
 11
-201.3414762
 21
-402.50679656
 31
0.0
  0
LINE
  8
ZUWAKU
  6
CONTINUOUS
 62
       7
  5
19E
 10
-190.57647186
 20
-401.92412988
 30
0.0
 11
-194.38941125
 21
-405.73706927
 31
0.0
  0
LINE
  8
ZUWAKU
  6
CONTINUOUS
 62
       7
  5
19F
 10
-197.26765152
 20
-408.61530954
 30
0.0
 11
-200.32647186
 21
-411.67412988
 31
0.0
  0
LINE
  8
ZUWAKU
  6
CONTINUOUS
 62
       7
  5
1A0
 10
-189.72794373
 20
-401.92412988
 30
0.0
 11
-199.47794373
 21
-411.67412988
 31
0.0
  0
LINE
  8
ZUWAKU
  6
CONTINUOUS
 62
       7
  5
1A1
 10
-188.87941559
 20
-401.92412988
 30
0.0
 11
-198.62941559
 21
-411.67412988
 31
0.0
  0
LINE
  8
ZUWAKU
  6
CONTINUOUS
 62
       7
  5
1A2
 10
-188.03088745
 20
-401.92412988
 30
0.0
 11
-197.78088745
 21
-411.67412988
 31
0.0
  0
LINE
  8
ZUWAKU
  6
CONTINUOUS
 62
       7
  5
1A3
 10
-187.95650896
 20
-402.69827953
 30
0.0
 11
-196.93235931
 21
-411.67412988
 31
0.0
  0
LINE
  8
ZUWAKU
  6
CONTINUOUS
 62
       7
  5
1A4
 10
-188.44138219
 20
-404.03168089
 30
0.0
 11
-196.08383118
 21
-411.67412988
 31
0.0
  0
LINE
  8
ZUWAKU
  6
CONTINUOUS
 62
       7
  5
1A5
 10
-188.92625541
 20
-405.36508225
 30
0.0
 11
-195.19290405
 21
-411.63173089
 31
0.0
  0
LINE
  8
ZUWAKU
  6
CONTINUOUS
 62
       7
  5
1A6
 10
-189.41112863
 20
-406.69848361
 30
0.0
 11
-194.0615332
 21
-411.34888818
 31
0.0
  0
LINE
  8
ZUWAKU
  6
CONTINUOUS
 62
       7
  5
1A7
 10
-189.89600185
 20
-408.03188497
 30
0.0
 11
-192.46399353
 21
-410.59987664
 31
0.0
  0
LINE
  8
ZUWAKU
  6
CONTINUOUS
 62
       7
  5
1A8
 10
-201.9625
 20
-396.86162988
 30
0.0
 11
-209.73203125
 21
-404.63116113
 31
0.0
  0
LINE
  8
ZUWAKU
  6
CONTINUOUS
 62
       7
  5
1A9
 10
-213.90892857
 20
-408.80805845
 30
0.0
 11
-216.775
 21
-411.67412988
 31
0.0
  0
LINE
  8
ZUWAKU
  6
CONTINUOUS
 62
       7
  5
1AA
 10
-202.81102814
 20
-396.86162988
 30
0.0
 11
-209.22821767
 21
-403.27881941
 31
0.0
  0
LINE
  8
ZUWAKU
  6
CONTINUOUS
 62
       7
  5
1AB
 10
-214.81102814
 20
-408.86162988
 30
0.0
 11
-216.63198593
 21
-410.68258768
 31
0.0
  0
LINE
  8
ZUWAKU
  6
CONTINUOUS
 62
       7
  5
1AC
 10
-203.65955627
 20
-396.86162988
 30
0.0
 11
-208.72440409
 21
-401.92647769
 31
0.0
  0
LINE
  8
ZUWAKU
  6
CONTINUOUS
 62
       7
  5
1AD
 10
-215.65955627
 20
-408.86162988
 30
0.0
 11
-216.20772186
 21
-409.40979547
 31
0.0
  0
LINE
  8
ZUWAKU
  6
CONTINUOUS
 62
       7
  5
1AE
 10
-204.50808441
 20
-396.86162988
 30
0.0
 11
-208.22059051
 21
-400.57413597
 31
0.0
  0
LINE
  8
ZUWAKU
  6
CONTINUOUS
 62
       7
  5
1AF
 10
-205.35661255
 20
-396.86162988
 30
0.0
 11
-207.71677692
 21
-399.22179426
 31
0.0
  0
LINE
  8
ZUWAKU
  6
CONTINUOUS
 62
       7
  5
1B0
 10
-206.20514069
 20
-396.86162988
 30
0.0
 11
-207.21296334
 21
-397.86945254
 31
0.0
  0
LINE
  8
ZUWAKU
  6
CONTINUOUS
 62
       7
  5
1B1
 10
-202.11398879
 20
-397.86164681
 30
0.0
 11
-210.23584483
 21
-405.98350285
 31
0.0
  0
LINE
  8
ZUWAKU
  6
CONTINUOUS
 62
       7
  5
1B2
 10
-212.93918213
 20
-408.68684015
 30
0.0
 11
-215.92647186
 21
-411.67412988
 31
0.0
  0
LINE
  8
ZUWAKU
  6
CONTINUOUS
 62
       7
  5
1B3
 10
-202.54913142
 20
-399.14531758
 30
0.0
 11
-211.31838745
 21
-407.91457361
 31
0.0
  0
LINE
  8
ZUWAKU
  6
CONTINUOUS
 62
       7
  5
1B4
 10
-211.35342712
 20
-407.94961328
 30
0.0
 11
-215.07794373
 21
-411.67412988
 31
0.0
  0
LINE
  8
ZUWAKU
  6
CONTINUOUS
 62
       7
  5
1B5
 10
-202.98427406
 20
-400.42898835
 30
0.0
 11
-214.22941559
 21
-411.67412988
 31
0.0
  0
LINE
  8
ZUWAKU
  6
CONTINUOUS
 62
       7
  5
1B6
 10
-203.41941669
 20
-401.71265912
 30
0.0
 11
-213.38088745
 21
-411.67412988
 31
0.0
  0
LINE
  8
ZUWAKU
  6
CONTINUOUS
 62
       7
  5
1B7
 10
-203.85455933
 20
-402.9963299
 30
0.0
 11
-212.53235931
 21
-411.67412988
 31
0.0
  0
LINE
  8
ZUWAKU
  6
CONTINUOUS
 62
       7
  5
1B8
 10
-204.28970196
 20
-404.28000067
 30
0.0
 11
-211.61814575
 21
-411.60844446
 31
0.0
  0
LINE
  8
ZUWAKU
  6
CONTINUOUS
 62
       7
  5
1B9
 10
-204.7248446
 20
-405.56367144
 30
0.0
 11
-210.67533671
 21
-411.51416355
 31
0.0
  0
LINE
  8
ZUWAKU
  6
CONTINUOUS
 62
       7
  5
1BA
 10
-205.15998723
 20
-406.84734221
 30
0.0
 11
-209.3987915
 21
-411.08614648
 31
0.0
  0
LINE
  8
ZUWAKU
  6
CONTINUOUS
 62
       7
  5
1BB
 10
-210.98125
 20
-397.91162988
 30
0.0
 11
-217.91512097
 21
-404.84550085
 31
0.0
  0
LINE
  8
ZUWAKU
  6
CONTINUOUS
 62
       7
  5
1BC
 10
-210.77977814
 20
-396.86162988
 30
0.0
 11
-217.44979909
 21
-403.53165083
 31
0.0
  0
LINE
  8
ZUWAKU
  6
CONTINUOUS
 62
       7
  5
1BD
 10
-211.62830627
 20
-396.86162988
 30
0.0
 11
-216.9844772
 21
-402.21780081
 31
0.0
  0
LINE
  8
ZUWAKU
  6
CONTINUOUS
 62
       7
  5
1BE
 10
-212.47683441
 20
-396.86162988
 30
0.0
 11
-216.51915532
 21
-400.90395079
 31
0.0
  0
LINE
  8
ZUWAKU
  6
CONTINUOUS
 62
       7
  5
1BF
 10
-213.32536255
 20
-396.86162988
 30
0.0
 11
-216.05383344
 21
-399.59010077
 31
0.0
  0
LINE
  8
ZUWAKU
  6
CONTINUOUS
 62
       7
  5
1C0
 10
-214.17389069
 20
-396.86162988
 30
0.0
 11
-215.58851156
 21
-398.27625075
 31
0.0
  0
LINE
  8
ZUWAKU
  6
CONTINUOUS
 62
       7
  5
1C1
 10
-215.02241882
 20
-396.86162988
 30
0.0
 11
-215.12318968
 21
-396.96240073
 31
0.0
  0
LINE
  8
ZUWAKU
  6
CONTINUOUS
 62
       7
  5
1C2
 10
-211.49036688
 20
-399.2692749
 30
0.0
 11
-218.08272186
 21
-405.86162988
 31
0.0
  0
LINE
  8
ZUWAKU
  6
CONTINUOUS
 62
       7
  5
1C3
 10
-211.99948376
 20
-400.62691992
 30
0.0
 11
-217.23419373
 21
-405.86162988
 31
0.0
  0
LINE
  8
ZUWAKU
  6
CONTINUOUS
 62
       7
  5
1C4
 10
-212.50860065
 20
-401.98456494
 30
0.0
 11
-216.38566559
 21
-405.86162988
 31
0.0
  0
LINE
  8
ZUWAKU
  6
CONTINUOUS
 62
       7
  5
1C5
 10
-213.01771753
 20
-403.34220996
 30
0.0
 11
-215.53713745
 21
-405.86162988
 31
0.0
  0
LINE
  8
ZUWAKU
  6
CONTINUOUS
 62
       7
  5
1C6
 10
-213.52683441
 20
-404.69985498
 30
0.0
 11
-214.68860931
 21
-405.86162988
 31
0.0
  0
LINE
  8
ZUWAKU
  6
CONTINUOUS
 62
       7
  5
1C7
 10
-274.9375
 20
404.23245871
 30
0.0
 11
282.125
 21
404.23245871
 31
0.0
  0
LINE
  8
ZUWAKU
  6
CONTINUOUS
 62
       7
  5
1C8
 10
92.75
 20
433.95087012
 30
0.0
 11
282.125
 21
433.95087012
 31
0.0
  0
LINE
  8
ZUWAKU
  6
CONTINUOUS
 62
       7
  5
1C9
 10
92.75
 20
433.95087012
 30
0.0
 11
92.75
 21
404.23245871
 31
0.0
  0
LINE
  8
ZUWAKU
  6
CONTINUOUS
 62
       7
  5
1CA
 10
282.125
 20
433.95087012
 30
0.0
 11
282.125
 21
404.23245871
 31
0.0
  0
LINE
  8
ZUWAKU
  6
CONTINUOUS
 62
       7
  5
1CB
 10
-274.1875
 20
-419.36162988
 30
0.0
 11
279.125
 21
-419.36162988
 31
0.0
  0
LINE
  8
ZUWAKU
  6
CONTINUOUS
 62
       7
  5
1CC
 10
-274.1875
 20
-383.17412988
 30
0.0
 11
279.125
 21
-383.17412988
 31
0.0
  0
LINE
  8
ZUWAKU
  6
CONTINUOUS
 62
       7
  5
1CD
 10
-274.1875
 20
-378.11162988
 30
0.0
 11
279.125
 21
-378.11162988
 31
0.0
  0
LINE
  8
ZUWAKU
  6
CONTINUOUS
 62
       7
  5
1CE
 10
-274.1875
 20
-378.11162988
 30
0.0
 11
-274.1875
 21
-258.11162988
 31
0.0
  0
LINE
  8
ZUWAKU
  6
CONTINUOUS
 62
       7
  5
1CF
 10
-253.375
 20
-378.11162988
 30
0.0
 11
-253.375
 21
-258.11162988
 31
0.0
  0
LINE
  8
ZUWAKU
  6
CONTINUOUS
 62
       7
  5
1D0
 10
-113.6875
 20
-378.11162988
 30
0.0
 11
-113.6875
 21
-258.11162988
 31
0.0
  0
LINE
  8
ZUWAKU
  6
CONTINUOUS
 62
       7
  5
1D1
 10
45.6875
 20
-378.11162988
 30
0.0
 11
45.6875
 21
-258.11162988
 31
0.0
  0
LINE
  8
ZUWAKU
  6
CONTINUOUS
 62
       7
  5
1D2
 10
79.0625
 20
-378.11162988
 30
0.0
 11
79.0625
 21
-258.11162988
 31
0.0
  0
LINE
  8
ZUWAKU
  6
CONTINUOUS
 62
       7
  5
1D3
 10
279.125
 20
-378.11162988
 30
0.0
 11
279.125
 21
-258.11162988
 31
0.0
  0
LINE
  8
ZUWAKU
  6
CONTINUOUS
 62
       7
  5
1D4
 10
92.0
 20
-419.36162988
 30
0.0
 11
92.0
 21
-383.17412988
 31
0.0
  0
LINE
  8
ZUWAKU
  6
CONTINUOUS
 62
       7
  5
1D5
 10
77.0
 20
-419.36162988
 30
0.0
 11
77.0
 21
-383.17412988
 31
0.0
  0
LINE
  8
ZUWAKU
  6
CONTINUOUS
 62
       7
  5
1D6
 10
-110.6875
 20
-419.36162988
 30
0.0
 11
-110.6875
 21
-383.17412988
 31
0.0
  0
LINE
  8
ZUWAKU
  6
CONTINUOUS
 62
       7
  5
1D7
 10
-125.6875
 20
-419.36162988
 30
0.0
 11
-125.6875
 21
-383.17412988
 31
0.0
  0
LINE
  8
ZUWAKU
  6
CONTINUOUS
 62
       7
  5
1D8
 10
-274.1875
 20
-363.11162988
 30
0.0
 11
279.125
 21
-363.11162988
 31
0.0
  0
LINE
  8
ZUWAKU
  6
CONTINUOUS
 62
       7
  5
1D9
 10
-274.1875
 20
-348.11162988
 30
0.0
 11
279.125
 21
-348.11162988
 31
0.0
  0
LINE
  8
ZUWAKU
  6
CONTINUOUS
 62
       7
  5
1DA
 10
-274.1875
 20
-333.11162988
 30
0.0
 11
279.125
 21
-333.11162988
 31
0.0
  0
LINE
  8
ZUWAKU
  6
CONTINUOUS
 62
       7
  5
1DB
 10
-274.1875
 20
-318.11162988
 30
0.0
 11
279.125
 21
-318.11162988
 31
0.0
  0
LINE
  8
ZUWAKU
  6
CONTINUOUS
 62
       7
  5
1DC
 10
-274.1875
 20
-303.11162988
 30
0.0
 11
279.125
 21
-303.11162988
 31
0.0
  0
LINE
  8
ZUWAKU
  6
CONTINUOUS
 62
       7
  5
1DD
 10
-274.1875
 20
-288.11162988
 30
0.0
 11
279.125
 21
-288.11162988
 31
0.0
  0
LINE
  8
ZUWAKU
  6
CONTINUOUS
 62
       7
  5
1DE
 10
-274.1875
 20
-273.11162988
 30
0.0
 11
279.125
 21
-273.11162988
 31
0.0
  0
LINE
  8
ZUWAKU
  6
CONTINUOUS
 62
       7
  5
1DF
 10
-274.1875
 20
-258.11162988
 30
0.0
 11
279.125
 21
-258.11162988
 31
0.0
  0
LINE
  8
ZUWAKU
  6
CONTINUOUS
 62
       7
  5
1E0
 10
297.5
 20
-57.11162988
 30
0.0
 11
314.0
 21
-57.11162988
 31
0.0
  0
LINE
  8
ZUWAKU
  6
CONTINUOUS
 62
       7
  5
1E1
 10
297.5
 20
-72.11162988
 30
0.0
 11
314.0
 21
-72.11162988
 31
0.0
  0
LINE
  8
ZUWAKU
  6
CONTINUOUS
 62
       7
  5
1E2
 10
314.0
 20
-57.11162988
 30
0.0
 11
314.0
 21
-72.11162988
 31
0.0
  0
LINE
  8
ZUWAKU
  6
CONTINUOUS
 62
       7
  5
1E3
 10
297.5
 20
-57.11162988
 30
0.0
 11
297.5
 21
-72.11162988
 31
0.0
  0
LINE
  8
ZUWAKU
  6
CONTINUOUS
 62
       7
  5
1E4
 10
314.0
 20
-72.05940042
 30
0.0
 11
313.94777054
 21
-72.11162988
 31
0.0
  0
LINE
  8
ZUWAKU
  6
CONTINUOUS
 62
       7
  5
1E5
 10
305.19616453
 20
-57.11162988
 30
0.0
 11
297.5
 21
-64.80779441
 31
0.0
  0
LINE
  8
ZUWAKU
  6
CONTINUOUS
 62
       7
  5
1E6
 10
304.34763639
 20
-57.11162988
 30
0.0
 11
297.5
 21
-63.95926628
 31
0.0
  0
LINE
  8
ZUWAKU
  6
CONTINUOUS
 62
       7
  5
1E7
 10
303.49910826
 20
-57.11162988
 30
0.0
 11
297.5
 21
-63.11073814
 31
0.0
  0
LINE
  8
ZUWAKU
  6
CONTINUOUS
 62
       7
  5
1E8
 10
302.65058012
 20
-57.11162988
 30
0.0
 11
297.5
 21
-62.26221
 31
0.0
  0
LINE
  8
ZUWAKU
  6
CONTINUOUS
 62
       7
  5
1E9
 10
301.80205198
 20
-57.11162988
 30
0.0
 11
297.5
 21
-61.41368186
 31
0.0
  0
LINE
  8
ZUWAKU
  6
CONTINUOUS
 62
       7
  5
1EA
 10
300.95352384
 20
-57.11162988
 30
0.0
 11
297.5
 21
-60.56515373
 31
0.0
  0
LINE
  8
ZUWAKU
  6
CONTINUOUS
 62
       7
  5
1EB
 10
300.10499571
 20
-57.11162988
 30
0.0
 11
297.5
 21
-59.71662559
 31
0.0
  0
LINE
  8
ZUWAKU
  6
CONTINUOUS
 62
       7
  5
1EC
 10
299.25646757
 20
-57.11162988
 30
0.0
 11
297.5
 21
-58.86809745
 31
0.0
  0
LINE
  8
ZUWAKU
  6
CONTINUOUS
 62
       7
  5
1ED
 10
298.40793943
 20
-57.11162988
 30
0.0
 11
297.5
 21
-58.01956931
 31
0.0
  0
LINE
  8
ZUWAKU
  6
CONTINUOUS
 62
       7
  5
1EE
 10
306.04469267
 20
-57.11162988
 30
0.0
 11
297.5
 21
-65.65632255
 31
0.0
  0
LINE
  8
ZUWAKU
  6
CONTINUOUS
 62
       7
  5
1EF
 10
306.89322081
 20
-57.11162988
 30
0.0
 11
297.5
 21
-66.50485069
 31
0.0
  0
LINE
  8
ZUWAKU
  6
CONTINUOUS
 62
       7
  5
1F0
 10
307.74174894
 20
-57.11162988
 30
0.0
 11
297.5
 21
-67.35337882
 31
0.0
  0
LINE
  8
ZUWAKU
  6
CONTINUOUS
 62
       7
  5
1F1
 10
308.59027708
 20
-57.11162988
 30
0.0
 11
297.5
 21
-68.20190696
 31
0.0
  0
LINE
  8
ZUWAKU
  6
CONTINUOUS
 62
       7
  5
1F2
 10
309.43880522
 20
-57.11162988
 30
0.0
 11
297.5
 21
-69.0504351
 31
0.0
  0
LINE
  8
ZUWAKU
  6
CONTINUOUS
 62
       7
  5
1F3
 10
310.28733336
 20
-57.11162988
 30
0.0
 11
297.5
 21
-69.89896324
 31
0.0
  0
LINE
  8
ZUWAKU
  6
CONTINUOUS
 62
       7
  5
1F4
 10
311.13586149
 20
-57.11162988
 30
0.0
 11
297.5
 21
-70.74749137
 31
0.0
  0
LINE
  8
ZUWAKU
  6
CONTINUOUS
 62
       7
  5
1F5
 10
311.98438963
 20
-57.11162988
 30
0.0
 11
297.5
 21
-71.59601951
 31
0.0
  0
LINE
  8
ZUWAKU
  6
CONTINUOUS
 62
       7
  5
1F6
 10
312.83291777
 20
-57.11162988
 30
0.0
 11
297.83291777
 21
-72.11162988
 31
0.0
  0
LINE
  8
ZUWAKU
  6
CONTINUOUS
 62
       7
  5
1F7
 10
313.68144591
 20
-57.11162988
 30
0.0
 11
298.68144591
 21
-72.11162988
 31
0.0
  0
LINE
  8
ZUWAKU
  6
CONTINUOUS
 62
       7
  5
1F8
 10
314.0
 20
-57.64160392
 30
0.0
 11
299.52997404
 21
-72.11162988
 31
0.0
  0
LINE
  8
ZUWAKU
  6
CONTINUOUS
 62
       7
  5
1F9
 10
314.0
 20
-58.49013206
 30
0.0
 11
300.37850218
 21
-72.11162988
 31
0.0
  0
LINE
  8
ZUWAKU
  6
CONTINUOUS
 62
       7
  5
1FA
 10
314.0
 20
-59.3386602
 30
0.0
 11
301.22703032
 21
-72.11162988
 31
0.0
  0
LINE
  8
ZUWAKU
  6
CONTINUOUS
 62
       7
  5
1FB
 10
314.0
 20
-60.18718834
 30
0.0
 11
302.07555846
 21
-72.11162988
 31
0.0
  0
LINE
  8
ZUWAKU
  6
CONTINUOUS
 62
       7
  5
1FC
 10
314.0
 20
-61.03571647
 30
0.0
 11
302.92408659
 21
-72.11162988
 31
0.0
  0
LINE
  8
ZUWAKU
  6
CONTINUOUS
 62
       7
  5
1FD
 10
314.0
 20
-61.88424461
 30
0.0
 11
303.77261473
 21
-72.11162988
 31
0.0
  0
LINE
  8
ZUWAKU
  6
CONTINUOUS
 62
       7
  5
1FE
 10
314.0
 20
-62.73277275
 30
0.0
 11
304.62114287
 21
-72.11162988
 31
0.0
  0
LINE
  8
ZUWAKU
  6
CONTINUOUS
 62
       7
  5
1FF
 10
314.0
 20
-63.58130089
 30
0.0
 11
305.46967101
 21
-72.11162988
 31
0.0
  0
LINE
  8
ZUWAKU
  6
CONTINUOUS
 62
       7
  5
200
 10
314.0
 20
-64.42982902
 30
0.0
 11
306.31819914
 21
-72.11162988
 31
0.0
  0
LINE
  8
ZUWAKU
  6
CONTINUOUS
 62
       7
  5
201
 10
314.0
 20
-65.27835716
 30
0.0
 11
307.16672728
 21
-72.11162988
 31
0.0
  0
LINE
  8
ZUWAKU
  6
CONTINUOUS
 62
       7
  5
202
 10
314.0
 20
-66.1268853
 30
0.0
 11
308.01525542
 21
-72.11162988
 31
0.0
  0
LINE
  8
ZUWAKU
  6
CONTINUOUS
 62
       7
  5
203
 10
314.0
 20
-66.97541344
 30
0.0
 11
308.86378355
 21
-72.11162988
 31
0.0
  0
LINE
  8
ZUWAKU
  6
CONTINUOUS
 62
       7
  5
204
 10
314.0
 20
-67.82394157
 30
0.0
 11
309.71231169
 21
-72.11162988
 31
0.0
  0
LINE
  8
ZUWAKU
  6
CONTINUOUS
 62
       7
  5
205
 10
314.0
 20
-68.67246971
 30
0.0
 11
310.56083983
 21
-72.11162988
 31
0.0
  0
LINE
  8
ZUWAKU
  6
CONTINUOUS
 62
       7
  5
206
 10
314.0
 20
-69.52099785
 30
0.0
 11
311.40936797
 21
-72.11162988
 31
0.0
  0
LINE
  8
ZUWAKU
  6
CONTINUOUS
 62
       7
  5
207
 10
314.0
 20
-70.36952599
 30
0.0
 11
312.2578961
 21
-72.11162988
 31
0.0
  0
LINE
  8
ZUWAKU
  6
CONTINUOUS
 62
       7
  5
208
 10
314.0
 20
-71.21805412
 30
0.0
 11
313.10642424
 21
-72.11162988
 31
0.0
  0
LINE
  8
ZUWAKU
  6
CONTINUOUS
 62
       7
  5
209
 10
314.0
 20
-72.06658226
 30
0.0
 11
313.95495238
 21
-72.11162988
 31
0.0
  0
LINE
  8
ZUWAKU
  6
CONTINUOUS
 62
       7
  5
20A
 10
-243.25
 20
421.57587012
 30
0.0
 11
-245.79263043
 21
426.07437012
 31
0.0
  0
LINE
  8
ZUWAKU
  6
CONTINUOUS
 62
       7
  5
20B
 10
-255.92666748
 20
430.01337012
 30
0.0
 11
-255.61416748
 21
430.95087012
 31
0.0
  0
LINE
  8
ZUWAKU
  6
CONTINUOUS
 62
       7
  5
20C
 10
-232.03089307
 20
422.68542358
 30
0.0
 11
-232.372
 21
422.51487012
 31
0.0
  0
LINE
  8
ZUWAKU
  6
CONTINUOUS
 62
       7
  5
20D
 10
-231.8125
 20
421.57587012
 30
0.0
 11
-230.2375
 21
423.15087012
 31
0.0
  0
LINE
  8
ZUWAKU
  6
CONTINUOUS
 62
       7
  5
20E
 10
-230.5
 20
421.57587012
 30
0.0
 11
-230.2375
 21
423.15087012
 31
0.0
  0
LINE
  8
ZUWAKU
  6
CONTINUOUS
 62
       7
  5
20F
 10
-223.5625
 20
422.88837012
 30
0.0
 11
-223.5625
 21
422.51487012
 31
0.0
  0
LINE
  8
ZUWAKU
  6
CONTINUOUS
 62
       7
  5
210
 10
-215.26743836
 20
421.57587012
 30
0.0
 11
-218.6875
 21
421.57587012
 31
0.0
  0
LINE
  8
ZUWAKU
  6
CONTINUOUS
 62
       7
  5
211
 10
-220.53540257
 20
422.91208037
 30
0.0
 11
-222.0625
 21
421.57587012
 31
0.0
  0
LINE
  8
ZUWAKU
  6
CONTINUOUS
 62
       7
  5
212
 10
-209.70025599
 20
421.57587012
 30
0.0
 11
-213.625
 21
421.57587012
 31
0.0
  0
LINE
  8
ZUWAKU
  6
CONTINUOUS
 62
       7
  5
213
 10
-248.804125
 20
422.51487012
 30
0.0
 11
-245.9921875
 21
430.01337012
 31
0.0
  0
LINE
  8
ZUWAKU
  6
CONTINUOUS
 62
       7
  5
214
 10
-246.11433506
 20
427.01337012
 30
0.0
 11
-241.72546646
 21
427.01337012
 31
0.0
  0
LINE
  8
ZUWAKU
  6
CONTINUOUS
 62
       7
  5
215
 10
-217.86931818
 20
423.82587012
 30
0.0
 11
-218.5
 21
423.82587012
 31
0.0
  0
LINE
  8
ZUWAKU
  6
CONTINUOUS
 62
       7
  5
216
 10
-218.5
 20
423.82587012
 30
0.0
 11
-219.11984233
 21
423.82587012
 31
0.0
  0
LINE
  8
ZUWAKU
  6
CONTINUOUS
 62
       7
  5
217
 10
-224.60423441
 20
421.57587012
 30
0.0
 11
-222.0625
 21
421.57587012
 31
0.0
  0
CIRCLE
  8
ZUWAKU
  6
CONTINUOUS
 62
       7
  5
218
 10
-228.72422572
 20
426.82587012
 30
0.0
 40
0.56797572
  0
LINE
  8
ZUWAKU
  6
CONTINUOUS
 62
       7
  5
219
 10
-248.1015625
 20
430.01337012
 30
0.0
 11
-245.9921875
 21
430.01337012
 31
0.0
  0
LINE
  8
ZUWAKU
  6
CONTINUOUS
 62
       7
  5
21A
 10
-244.98933506
 20
430.01337012
 30
0.0
 11
-241.72546646
 21
430.01337012
 31
0.0
  0
LINE
  8
ZUWAKU
  6
CONTINUOUS
 62
       7
  5
21B
 10
-251.3125
 20
421.57587012
 30
0.0
 11
-250.960375
 21
422.51487012
 31
0.0
  0
LINE
  8
ZUWAKU
  6
CONTINUOUS
 62
       7
  5
21C
 10
-248.1015625
 20
430.01337012
 30
0.0
 11
-247.75
 21
430.95087012
 31
0.0
  0
LINE
  8
ZUWAKU
  6
CONTINUOUS
 62
       7
  5
21D
 10
-248.57076541
 20
430.01337012
 30
0.0
 11
-248.21920291
 21
430.95087012
 31
0.0
  0
LINE
  8
ZUWAKU
  6
CONTINUOUS
 62
       7
  5
21E
 10
-241.72546646
 20
430.95087012
 30
0.0
 11
-247.75
 21
430.95087012
 31
0.0
  0
LINE
  8
ZUWAKU
  6
CONTINUOUS
 62
       7
  5
21F
 10
-248.21920291
 20
430.95087012
 30
0.0
 11
-249.10993105
 21
430.95087012
 31
0.0
  0
LINE
  8
ZUWAKU
  6
CONTINUOUS
 62
       7
  5
220
 10
-249.46149355
 20
430.01337012
 30
0.0
 11
-248.57076541
 21
430.01337012
 31
0.0
  0
LINE
  8
ZUWAKU
  6
CONTINUOUS
 62
       7
  5
221
 10
-249.80305088
 20
430.01337012
 30
0.0
 11
-249.45148838
 21
430.95087012
 31
0.0
  0
LINE
  8
ZUWAKU
  6
CONTINUOUS
 62
       7
  5
222
 10
-249.45148838
 20
430.95087012
 30
0.0
 11
-250.19812705
 21
430.95087012
 31
0.0
  0
LINE
  8
ZUWAKU
  6
CONTINUOUS
 62
       7
  5
223
 10
-250.54968955
 20
430.01337012
 30
0.0
 11
-249.80305088
 21
430.01337012
 31
0.0
  0
LINE
  8
ZUWAKU
  6
CONTINUOUS
 62
       7
  5
224
 10
-250.54968955
 20
430.01337012
 30
0.0
 11
-250.19812705
 21
430.95087012
 31
0.0
  0
LINE
  8
ZUWAKU
  6
CONTINUOUS
 62
       7
  5
225
 10
-250.83558754
 20
430.95087012
 30
0.0
 11
-251.5672369
 21
430.95087012
 31
0.0
  0
LINE
  8
ZUWAKU
  6
CONTINUOUS
 62
       7
  5
226
 10
-251.9187994
 20
430.01337012
 30
0.0
 11
-251.18715004
 21
430.01337012
 31
0.0
  0
LINE
  8
ZUWAKU
  6
CONTINUOUS
 62
       7
  5
227
 10
-251.9187994
 20
430.01337012
 30
0.0
 11
-251.5672369
 21
430.95087012
 31
0.0
  0
LINE
  8
ZUWAKU
  6
CONTINUOUS
 62
       7
  5
228
 10
-249.46149355
 20
430.01337012
 30
0.0
 11
-249.10993105
 21
430.95087012
 31
0.0
  0
LINE
  8
ZUWAKU
  6
CONTINUOUS
 62
       7
  5
229
 10
-251.18715004
 20
430.01337012
 30
0.0
 11
-250.83558754
 21
430.95087012
 31
0.0
  0
LINE
  8
ZUWAKU
  6
CONTINUOUS
 62
       7
  5
22A
 10
-252.46679355
 20
430.01337012
 30
0.0
 11
-252.11523105
 21
430.95087012
 31
0.0
  0
LINE
  8
ZUWAKU
  6
CONTINUOUS
 62
       7
  5
22B
 10
-252.11523105
 20
430.95087012
 30
0.0
 11
-252.79171194
 21
430.95087012
 31
0.0
  0
LINE
  8
ZUWAKU
  6
CONTINUOUS
 62
       7
  5
22C
 10
-253.14327444
 20
430.01337012
 30
0.0
 11
-252.46679355
 21
430.01337012
 31
0.0
  0
LINE
  8
ZUWAKU
  6
CONTINUOUS
 62
       7
  5
22D
 10
-253.14327444
 20
430.01337012
 30
0.0
 11
-252.79171194
 21
430.95087012
 31
0.0
  0
LINE
  8
ZUWAKU
  6
CONTINUOUS
 62
       7
  5
22E
 10
-253.7159276
 20
430.01337012
 30
0.0
 11
-253.3643651
 21
430.95087012
 31
0.0
  0
LINE
  8
ZUWAKU
  6
CONTINUOUS
 62
       7
  5
22F
 10
-253.3643651
 20
430.95087012
 30
0.0
 11
-253.9659276
 21
430.95087012
 31
0.0
  0
LINE
  8
ZUWAKU
  6
CONTINUOUS
 62
       7
  5
230
 10
-254.2784276
 20
430.01337012
 30
0.0
 11
-253.7159276
 21
430.01337012
 31
0.0
  0
LINE
  8
ZUWAKU
  6
CONTINUOUS
 62
       7
  5
231
 10
-254.2784276
 20
430.01337012
 30
0.0
 11
-253.9659276
 21
430.95087012
 31
0.0
  0
LINE
  8
ZUWAKU
  6
CONTINUOUS
 62
       7
  5
232
 10
-254.87744516
 20
430.01337012
 30
0.0
 11
-254.56494516
 21
430.95087012
 31
0.0
  0
LINE
  8
ZUWAKU
  6
CONTINUOUS
 62
       7
  5
233
 10
-255.36416748
 20
430.01337012
 30
0.0
 11
-255.05166748
 21
430.95087012
 31
0.0
  0
LINE
  8
ZUWAKU
  6
CONTINUOUS
 62
       7
  5
234
 10
-256.27041748
 20
430.01337012
 30
0.0
 11
-255.95791748
 21
430.95087012
 31
0.0
  0
LINE
  8
ZUWAKU
  6
CONTINUOUS
 62
       7
  5
235
 10
-256.86416748
 20
430.01337012
 30
0.0
 11
-256.55166748
 21
430.95087012
 31
0.0
  0
LINE
  8
ZUWAKU
  6
CONTINUOUS
 62
       7
  5
236
 10
-257.02041748
 20
430.01337012
 30
0.0
 11
-256.70791748
 21
430.95087012
 31
0.0
  0
LINE
  8
ZUWAKU
  6
CONTINUOUS
 62
       7
  5
237
 10
-254.56494516
 20
430.95087012
 30
0.0
 11
-255.05166748
 21
430.95087012
 31
0.0
  0
LINE
  8
ZUWAKU
  6
CONTINUOUS
 62
       7
  5
238
 10
-255.36416748
 20
430.01337012
 30
0.0
 11
-254.87744516
 21
430.01337012
 31
0.0
  0
LINE
  8
ZUWAKU
  6
CONTINUOUS
 62
       7
  5
239
 10
-255.61416748
 20
430.95087012
 30
0.0
 11
-255.95791748
 21
430.95087012
 31
0.0
  0
LINE
  8
ZUWAKU
  6
CONTINUOUS
 62
       7
  5
23A
 10
-256.55166748
 20
430.95087012
 30
0.0
 11
-256.70791748
 21
430.95087012
 31
0.0
  0
LINE
  8
ZUWAKU
  6
CONTINUOUS
 62
       7
  5
23B
 10
-256.27041748
 20
430.01337012
 30
0.0
 11
-255.92666748
 21
430.01337012
 31
0.0
  0
LINE
  8
ZUWAKU
  6
CONTINUOUS
 62
       7
  5
23C
 10
-256.86416748
 20
430.01337012
 30
0.0
 11
-257.02041748
 21
430.01337012
 31
0.0
  0
POLYLINE
  8
ZUWAKU
  6
CONTINUOUS
 62
       7
  5
23D
 66
       1
 10
0.0
 20
0.0
 30
0.0
 70
     129
  0
VERTEX
  8
ZUWAKU
  6
CONTINUOUS
 62
       7
  5
50D
 10
-269.875
 20
425.22548309
 30
0.0
  0
VERTEX
  8
ZUWAKU
  6
CONTINUOUS
 62
       7
  5
50E
 10
-269.84136602
 20
424.57734947
 30
0.0
  0
VERTEX
  8
ZUWAKU
  6
CONTINUOUS
 62
       7
  5
50F
 10
-269.74052307
 20
423.93035289
 30
0.0
  0
VERTEX
  8
ZUWAKU
  6
CONTINUOUS
 62
       7
  5
510
 10
-269.57264808
 20
423.28562841
 30
0.0
  0
VERTEX
  8
ZUWAKU
  6
CONTINUOUS
 62
       7
  5
511
 10
-269.33803555
 20
422.64430709
 30
0.0
  0
VERTEX
  8
ZUWAKU
  6
CONTINUOUS
 62
       7
  5
512
 10
-269.03709707
 20
422.00751404
 30
0.0
  0
VERTEX
  8
ZUWAKU
  6
CONTINUOUS
 62
       7
  5
513
 10
-268.67036058
 20
421.37636639
 30
0.0
  0
VERTEX
  8
ZUWAKU
  6
CONTINUOUS
 62
       7
  5
514
 10
-268.23846948
 20
420.75197141
 30
0.0
  0
VERTEX
  8
ZUWAKU
  6
CONTINUOUS
 62
       7
  5
515
 10
-267.74218145
 20
420.13542448
 30
0.0
  0
VERTEX
  8
ZUWAKU
  6
CONTINUOUS
 62
       7
  5
516
 10
-267.18236713
 20
419.52780724
 30
0.0
  0
VERTEX
  8
ZUWAKU
  6
CONTINUOUS
 62
       7
  5
517
 10
-266.56000864
 20
418.93018567
 30
0.0
  0
VERTEX
  8
ZUWAKU
  6
CONTINUOUS
 62
       7
  5
518
 10
-265.87619781
 20
418.34360819
 30
0.0
  0
VERTEX
  8
ZUWAKU
  6
CONTINUOUS
 62
       7
  5
519
 10
-265.13213426
 20
417.76910385
 30
0.0
  0
VERTEX
  8
ZUWAKU
  6
CONTINUOUS
 62
       7
  5
51A
 10
-264.32912335
 20
417.20768054
 30
0.0
  0
VERTEX
  8
ZUWAKU
  6
CONTINUOUS
 62
       7
  5
51B
 10
-263.46857382
 20
416.66032317
 30
0.0
  0
VERTEX
  8
ZUWAKU
  6
CONTINUOUS
 62
       7
  5
51C
 10
-262.55199538
 20
416.12799201
 30
0.0
  0
VERTEX
  8
ZUWAKU
  6
CONTINUOUS
 62
       7
  5
51D
 10
-261.580996
 20
415.61162094
 30
0.0
  0
VERTEX
  8
ZUWAKU
  6
CONTINUOUS
 62
       7
  5
51E
 10
-260.55727917
 20
415.11211585
 30
0.0
  0
VERTEX
  8
ZUWAKU
  6
CONTINUOUS
 62
       7
  5
51F
 10
-259.48264081
 20
414.63035304
 30
0.0
  0
VERTEX
  8
ZUWAKU
  6
CONTINUOUS
 62
       7
  5
520
 10
-258.35896621
 20
414.16717769
 30
0.0
  0
VERTEX
  8
ZUWAKU
  6
CONTINUOUS
 62
       7
  5
521
 10
-257.18822669
 20
413.72340236
 30
0.0
  0
VERTEX
  8
ZUWAKU
  6
CONTINUOUS
 62
       7
  5
522
 10
-255.97247611
 20
413.2998056
 30
0.0
  0
VERTEX
  8
ZUWAKU
  6
CONTINUOUS
 62
       7
  5
523
 10
-254.71384731
 20
412.89713052
 30
0.0
  0
VERTEX
  8
ZUWAKU
  6
CONTINUOUS
 62
       7
  5
524
 10
-253.41454836
 20
412.51608356
 30
0.0
  0
VERTEX
  8
ZUWAKU
  6
CONTINUOUS
 62
       7
  5
525
 10
-252.07685867
 20
412.15733321
 30
0.0
  0
VERTEX
  8
ZUWAKU
  6
CONTINUOUS
 62
       7
  5
526
 10
-250.703125
 20
411.82150884
 30
0.0
  0
VERTEX
  8
ZUWAKU
  6
CONTINUOUS
 62
       7
  5
527
 10
-249.29575735
 20
411.50919959
 30
0.0
  0
VERTEX
  8
ZUWAKU
  6
CONTINUOUS
 62
       7
  5
528
 10
-247.85722471
 20
411.22095336
 30
0.0
  0
VERTEX
  8
ZUWAKU
  6
CONTINUOUS
 62
       7
  5
529
 10
-246.39005077
 20
410.95727584
 30
0.0
  0
VERTEX
  8
ZUWAKU
  6
CONTINUOUS
 62
       7
  5
52A
 10
-244.89680944
 20
410.7186296
 30
0.0
  0
VERTEX
  8
ZUWAKU
  6
CONTINUOUS
 62
       7
  5
52B
 10
-243.38012038
 20
410.50543331
 30
0.0
  0
VERTEX
  8
ZUWAKU
  6
CONTINUOUS
 62
       7
  5
52C
 10
-241.84264437
 20
410.31806099
 30
0.0
  0
VERTEX
  8
ZUWAKU
  6
CONTINUOUS
 62
       7
  5
52D
 10
-240.28707868
 20
410.15684135
 30
0.0
  0
VERTEX
  8
ZUWAKU
  6
CONTINUOUS
 62
       7
  5
52E
 10
-238.71615228
 20
410.02205723
 30
0.0
  0
VERTEX
  8
ZUWAKU
  6
CONTINUOUS
 62
       7
  5
52F
 10
-237.13262113
 20
409.91394509
 30
0.0
  0
VERTEX
  8
ZUWAKU
  6
CONTINUOUS
 62
       7
  5
530
 10
-235.53926326
 20
409.83269459
 30
0.0
  0
VERTEX
  8
ZUWAKU
  6
CONTINUOUS
 62
       7
  5
531
 10
-233.93887398
 20
409.77844827
 30
0.0
  0
VERTEX
  8
ZUWAKU
  6
CONTINUOUS
 62
       7
  5
532
 10
-232.33426091
 20
409.75130129
 30
0.0
  0
VERTEX
  8
ZUWAKU
  6
CONTINUOUS
 62
       7
  5
533
 10
-230.72823909
 20
409.75130129
 30
0.0
  0
VERTEX
  8
ZUWAKU
  6
CONTINUOUS
 62
       7
  5
534
 10
-229.12362602
 20
409.77844827
 30
0.0
  0
VERTEX
  8
ZUWAKU
  6
CONTINUOUS
 62
       7
  5
535
 10
-227.52323674
 20
409.83269459
 30
0.0
  0
VERTEX
  8
ZUWAKU
  6
CONTINUOUS
 62
       7
  5
536
 10
-225.92987887
 20
409.91394509
 30
0.0
  0
VERTEX
  8
ZUWAKU
  6
CONTINUOUS
 62
       7
  5
537
 10
-224.34634772
 20
410.02205723
 30
0.0
  0
VERTEX
  8
ZUWAKU
  6
CONTINUOUS
 62
       7
  5
538
 10
-222.77542132
 20
410.15684135
 30
0.0
  0
VERTEX
  8
ZUWAKU
  6
CONTINUOUS
 62
       7
  5
539
 10
-221.21985563
 20
410.31806099
 30
0.0
  0
VERTEX
  8
ZUWAKU
  6
CONTINUOUS
 62
       7
  5
53A
 10
-219.68237962
 20
410.50543331
 30
0.0
  0
VERTEX
  8
ZUWAKU
  6
CONTINUOUS
 62
       7
  5
53B
 10
-218.16569056
 20
410.7186296
 30
0.0
  0
VERTEX
  8
ZUWAKU
  6
CONTINUOUS
 62
       7
  5
53C
 10
-216.67244923
 20
410.95727584
 30
0.0
  0
VERTEX
  8
ZUWAKU
  6
CONTINUOUS
 62
       7
  5
53D
 10
-215.20527529
 20
411.22095336
 30
0.0
  0
VERTEX
  8
ZUWAKU
  6
CONTINUOUS
 62
       7
  5
53E
 10
-213.76674265
 20
411.50919959
 30
0.0
  0
VERTEX
  8
ZUWAKU
  6
CONTINUOUS
 62
       7
  5
53F
 10
-212.359375
 20
411.82150884
 30
0.0
  0
VERTEX
  8
ZUWAKU
  6
CONTINUOUS
 62
       7
  5
540
 10
-210.98564133
 20
412.15733321
 30
0.0
  0
VERTEX
  8
ZUWAKU
  6
CONTINUOUS
 62
       7
  5
541
 10
-209.64795164
 20
412.51608356
 30
0.0
  0
VERTEX
  8
ZUWAKU
  6
CONTINUOUS
 62
       7
  5
542
 10
-208.34865269
 20
412.89713052
 30
0.0
  0
VERTEX
  8
ZUWAKU
  6
CONTINUOUS
 62
       7
  5
543
 10
-207.09002389
 20
413.2998056
 30
0.0
  0
VERTEX
  8
ZUWAKU
  6
CONTINUOUS
 62
       7
  5
544
 10
-205.87427331
 20
413.72340236
 30
0.0
  0
VERTEX
  8
ZUWAKU
  6
CONTINUOUS
 62
       7
  5
545
 10
-204.70353379
 20
414.16717769
 30
0.0
  0
VERTEX
  8
ZUWAKU
  6
CONTINUOUS
 62
       7
  5
546
 10
-203.57985919
 20
414.63035304
 30
0.0
  0
VERTEX
  8
ZUWAKU
  6
CONTINUOUS
 62
       7
  5
547
 10
-202.50522083
 20
415.11211585
 30
0.0
  0
VERTEX
  8
ZUWAKU
  6
CONTINUOUS
 62
       7
  5
548
 10
-201.481504
 20
415.61162094
 30
0.0
  0
VERTEX
  8
ZUWAKU
  6
CONTINUOUS
 62
       7
  5
549
 10
-200.51050462
 20
416.12799201
 30
0.0
  0
VERTEX
  8
ZUWAKU
  6
CONTINUOUS
 62
       7
  5
54A
 10
-199.59392618
 20
416.66032317
 30
0.0
  0
VERTEX
  8
ZUWAKU
  6
CONTINUOUS
 62
       7
  5
54B
 10
-198.73337665
 20
417.20768054
 30
0.0
  0
VERTEX
  8
ZUWAKU
  6
CONTINUOUS
 62
       7
  5
54C
 10
-197.93036574
 20
417.76910385
 30
0.0
  0
VERTEX
  8
ZUWAKU
  6
CONTINUOUS
 62
       7
  5
54D
 10
-197.18630219
 20
418.34360819
 30
0.0
  0
VERTEX
  8
ZUWAKU
  6
CONTINUOUS
 62
       7
  5
54E
 10
-196.50249136
 20
418.93018567
 30
0.0
  0
VERTEX
  8
ZUWAKU
  6
CONTINUOUS
 62
       7
  5
54F
 10
-195.88013287
 20
419.52780724
 30
0.0
  0
VERTEX
  8
ZUWAKU
  6
CONTINUOUS
 62
       7
  5
550
 10
-195.32031855
 20
420.13542448
 30
0.0
  0
VERTEX
  8
ZUWAKU
  6
CONTINUOUS
 62
       7
  5
551
 10
-194.82403052
 20
420.75197141
 30
0.0
  0
VERTEX
  8
ZUWAKU
  6
CONTINUOUS
 62
       7
  5
552
 10
-194.39213942
 20
421.37636639
 30
0.0
  0
VERTEX
  8
ZUWAKU
  6
CONTINUOUS
 62
       7
  5
553
 10
-194.02540293
 20
422.00751404
 30
0.0
  0
VERTEX
  8
ZUWAKU
  6
CONTINUOUS
 62
       7
  5
554
 10
-193.72446445
 20
422.64430709
 30
0.0
  0
VERTEX
  8
ZUWAKU
  6
CONTINUOUS
 62
       7
  5
555
 10
-193.48985192
 20
423.28562841
 30
0.0
  0
VERTEX
  8
ZUWAKU
  6
CONTINUOUS
 62
       7
  5
556
 10
-193.32197693
 20
423.93035289
 30
0.0
  0
VERTEX
  8
ZUWAKU
  6
CONTINUOUS
 62
       7
  5
557
 10
-193.22113398
 20
424.57734947
 30
0.0
  0
VERTEX
  8
ZUWAKU
  6
CONTINUOUS
 62
       7
  5
558
 10
-193.1875
 20
425.22548309
 30
0.0
  0
VERTEX
  8
ZUWAKU
  6
CONTINUOUS
 62
       7
  5
559
 10
-193.22113398
 20
425.87361672
 30
0.0
  0
VERTEX
  8
ZUWAKU
  6
CONTINUOUS
 62
       7
  5
55A
 10
-193.32197693
 20
426.5206133
 30
0.0
  0
VERTEX
  8
ZUWAKU
  6
CONTINUOUS
 62
       7
  5
55B
 10
-193.48985192
 20
427.16533778
 30
0.0
  0
VERTEX
  8
ZUWAKU
  6
CONTINUOUS
 62
       7
  5
55C
 10
-193.72446445
 20
427.80665909
 30
0.0
  0
VERTEX
  8
ZUWAKU
  6
CONTINUOUS
 62
       7
  5
55D
 10
-194.02540293
 20
428.44345215
 30
0.0
  0
VERTEX
  8
ZUWAKU
  6
CONTINUOUS
 62
       7
  5
55E
 10
-194.39213942
 20
429.07459979
 30
0.0
  0
VERTEX
  8
ZUWAKU
  6
CONTINUOUS
 62
       7
  5
55F
 10
-194.82403052
 20
429.69899478
 30
0.0
  0
VERTEX
  8
ZUWAKU
  6
CONTINUOUS
 62
       7
  5
560
 10
-195.32031855
 20
430.31554171
 30
0.0
  0
VERTEX
  8
ZUWAKU
  6
CONTINUOUS
 62
       7
  5
561
 10
-195.88013287
 20
430.92315894
 30
0.0
  0
VERTEX
  8
ZUWAKU
  6
CONTINUOUS
 62
       7
  5
562
 10
-196.50249136
 20
431.52078051
 30
0.0
  0
VERTEX
  8
ZUWAKU
  6
CONTINUOUS
 62
       7
  5
563
 10
-197.18630219
 20
432.107358
 30
0.0
  0
VERTEX
  8
ZUWAKU
  6
CONTINUOUS
 62
       7
  5
564
 10
-197.93036574
 20
432.68186233
 30
0.0
  0
VERTEX
  8
ZUWAKU
  6
CONTINUOUS
 62
       7
  5
565
 10
-198.73337665
 20
433.24328565
 30
0.0
  0
VERTEX
  8
ZUWAKU
  6
CONTINUOUS
 62
       7
  5
566
 10
-199.59392618
 20
433.79064301
 30
0.0
  0
VERTEX
  8
ZUWAKU
  6
CONTINUOUS
 62
       7
  5
567
 10
-200.51050462
 20
434.32297417
 30
0.0
  0
VERTEX
  8
ZUWAKU
  6
CONTINUOUS
 62
       7
  5
568
 10
-201.481504
 20
434.83934525
 30
0.0
  0
VERTEX
  8
ZUWAKU
  6
CONTINUOUS
 62
       7
  5
569
 10
-202.50522083
 20
435.33885034
 30
0.0
  0
VERTEX
  8
ZUWAKU
  6
CONTINUOUS
 62
       7
  5
56A
 10
-203.57985919
 20
435.82061315
 30
0.0
  0
VERTEX
  8
ZUWAKU
  6
CONTINUOUS
 62
       7
  5
56B
 10
-204.70353379
 20
436.2837885
 30
0.0
  0
VERTEX
  8
ZUWAKU
  6
CONTINUOUS
 62
       7
  5
56C
 10
-205.87427331
 20
436.72756382
 30
0.0
  0
VERTEX
  8
ZUWAKU
  6
CONTINUOUS
 62
       7
  5
56D
 10
-207.09002389
 20
437.15116059
 30
0.0
  0
VERTEX
  8
ZUWAKU
  6
CONTINUOUS
 62
       7
  5
56E
 10
-208.34865269
 20
437.55383566
 30
0.0
  0
VERTEX
  8
ZUWAKU
  6
CONTINUOUS
 62
       7
  5
56F
 10
-209.64795164
 20
437.93488262
 30
0.0
  0
VERTEX
  8
ZUWAKU
  6
CONTINUOUS
 62
       7
  5
570
 10
-210.98564133
 20
438.29363297
 30
0.0
  0
VERTEX
  8
ZUWAKU
  6
CONTINUOUS
 62
       7
  5
571
 10
-212.359375
 20
438.62945735
 30
0.0
  0
VERTEX
  8
ZUWAKU
  6
CONTINUOUS
 62
       7
  5
572
 10
-213.76674265
 20
438.9417666
 30
0.0
  0
VERTEX
  8
ZUWAKU
  6
CONTINUOUS
 62
       7
  5
573
 10
-215.20527529
 20
439.23001282
 30
0.0
  0
VERTEX
  8
ZUWAKU
  6
CONTINUOUS
 62
       7
  5
574
 10
-216.67244923
 20
439.49369035
 30
0.0
  0
VERTEX
  8
ZUWAKU
  6
CONTINUOUS
 62
       7
  5
575
 10
-218.16569056
 20
439.73233659
 30
0.0
  0
VERTEX
  8
ZUWAKU
  6
CONTINUOUS
 62
       7
  5
576
 10
-219.68237962
 20
439.94553288
 30
0.0
  0
VERTEX
  8
ZUWAKU
  6
CONTINUOUS
 62
       7
  5
577
 10
-221.21985563
 20
440.1329052
 30
0.0
  0
VERTEX
  8
ZUWAKU
  6
CONTINUOUS
 62
       7
  5
578
 10
-222.77542132
 20
440.29412483
 30
0.0
  0
VERTEX
  8
ZUWAKU
  6
CONTINUOUS
 62
       7
  5
579
 10
-224.34634772
 20
440.42890895
 30
0.0
  0
VERTEX
  8
ZUWAKU
  6
CONTINUOUS
 62
       7
  5
57A
 10
-225.92987887
 20
440.53702109
 30
0.0
  0
VERTEX
  8
ZUWAKU
  6
CONTINUOUS
 62
       7
  5
57B
 10
-227.52323674
 20
440.6182716
 30
0.0
  0
VERTEX
  8
ZUWAKU
  6
CONTINUOUS
 62
       7
  5
57C
 10
-229.12362602
 20
440.67251792
 30
0.0
  0
VERTEX
  8
ZUWAKU
  6
CONTINUOUS
 62
       7
  5
57D
 10
-230.72823909
 20
440.69966489
 30
0.0
  0
VERTEX
  8
ZUWAKU
  6
CONTINUOUS
 62
       7
  5
57E
 10
-232.33426091
 20
440.69966489
 30
0.0
  0
VERTEX
  8
ZUWAKU
  6
CONTINUOUS
 62
       7
  5
57F
 10
-233.93887398
 20
440.67251792
 30
0.0
  0
VERTEX
  8
ZUWAKU
  6
CONTINUOUS
 62
       7
  5
580
 10
-235.53926326
 20
440.6182716
 30
0.0
  0
VERTEX
  8
ZUWAKU
  6
CONTINUOUS
 62
       7
  5
581
 10
-237.13262113
 20
440.53702109
 30
0.0
  0
VERTEX
  8
ZUWAKU
  6
CONTINUOUS
 62
       7
  5
582
 10
-238.71615228
 20
440.42890895
 30
0.0
  0
VERTEX
  8
ZUWAKU
  6
CONTINUOUS
 62
       7
  5
583
 10
-240.28707868
 20
440.29412483
 30
0.0
  0
VERTEX
  8
ZUWAKU
  6
CONTINUOUS
 62
       7
  5
584
 10
-241.84264437
 20
440.1329052
 30
0.0
  0
VERTEX
  8
ZUWAKU
  6
CONTINUOUS
 62
       7
  5
585
 10
-243.38012038
 20
439.94553288
 30
0.0
  0
VERTEX
  8
ZUWAKU
  6
CONTINUOUS
 62
       7
  5
586
 10
-244.89680944
 20
439.73233659
 30
0.0
  0
VERTEX
  8
ZUWAKU
  6
CONTINUOUS
 62
       7
  5
587
 10
-246.39005077
 20
439.49369035
 30
0.0
  0
VERTEX
  8
ZUWAKU
  6
CONTINUOUS
 62
       7
  5
588
 10
-247.85722471
 20
439.23001282
 30
0.0
  0
VERTEX
  8
ZUWAKU
  6
CONTINUOUS
 62
       7
  5
589
 10
-249.29575735
 20
438.9417666
 30
0.0
  0
VERTEX
  8
ZUWAKU
  6
CONTINUOUS
 62
       7
  5
58A
 10
-250.703125
 20
438.62945735
 30
0.0
  0
VERTEX
  8
ZUWAKU
  6
CONTINUOUS
 62
       7
  5
58B
 10
-252.07685867
 20
438.29363297
 30
0.0
  0
VERTEX
  8
ZUWAKU
  6
CONTINUOUS
 62
       7
  5
58C
 10
-253.41454836
 20
437.93488262
 30
0.0
  0
VERTEX
  8
ZUWAKU
  6
CONTINUOUS
 62
       7
  5
58D
 10
-254.71384731
 20
437.55383566
 30
0.0
  0
VERTEX
  8
ZUWAKU
  6
CONTINUOUS
 62
       7
  5
58E
 10
-255.97247611
 20
437.15116059
 30
0.0
  0
VERTEX
  8
ZUWAKU
  6
CONTINUOUS
 62
       7
  5
58F
 10
-257.18822669
 20
436.72756382
 30
0.0
  0
VERTEX
  8
ZUWAKU
  6
CONTINUOUS
 62
       7
  5
590
 10
-258.35896621
 20
436.2837885
 30
0.0
  0
VERTEX
  8
ZUWAKU
  6
CONTINUOUS
 62
       7
  5
591
 10
-259.48264081
 20
435.82061315
 30
0.0
  0
VERTEX
  8
ZUWAKU
  6
CONTINUOUS
 62
       7
  5
592
 10
-260.55727917
 20
435.33885034
 30
0.0
  0
VERTEX
  8
ZUWAKU
  6
CONTINUOUS
 62
       7
  5
593
 10
-261.580996
 20
434.83934525
 30
0.0
  0
VERTEX
  8
ZUWAKU
  6
CONTINUOUS
 62
       7
  5
594
 10
-262.55199538
 20
434.32297417
 30
0.0
  0
VERTEX
  8
ZUWAKU
  6
CONTINUOUS
 62
       7
  5
595
 10
-263.46857382
 20
433.79064301
 30
0.0
  0
VERTEX
  8
ZUWAKU
  6
CONTINUOUS
 62
       7
  5
596
 10
-264.32912335
 20
433.24328565
 30
0.0
  0
VERTEX
  8
ZUWAKU
  6
CONTINUOUS
 62
       7
  5
597
 10
-265.13213426
 20
432.68186233
 30
0.0
  0
VERTEX
  8
ZUWAKU
  6
CONTINUOUS
 62
       7
  5
598
 10
-265.87619781
 20
432.107358
 30
0.0
  0
VERTEX
  8
ZUWAKU
  6
CONTINUOUS
 62
       7
  5
599
 10
-266.56000864
 20
431.52078051
 30
0.0
  0
VERTEX
  8
ZUWAKU
  6
CONTINUOUS
 62
       7
  5
59A
 10
-267.18236713
 20
430.92315894
 30
0.0
  0
VERTEX
  8
ZUWAKU
  6
CONTINUOUS
 62
       7
  5
59B
 10
-267.74218145
 20
430.31554171
 30
0.0
  0
VERTEX
  8
ZUWAKU
  6
CONTINUOUS
 62
       7
  5
59C
 10
-268.23846948
 20
429.69899478
 30
0.0
  0
VERTEX
  8
ZUWAKU
  6
CONTINUOUS
 62
       7
  5
59D
 10
-268.67036058
 20
429.07459979
 30
0.0
  0
VERTEX
  8
ZUWAKU
  6
CONTINUOUS
 62
       7
  5
59E
 10
-269.03709707
 20
428.44345215
 30
0.0
  0
VERTEX
  8
ZUWAKU
  6
CONTINUOUS
 62
       7
  5
59F
 10
-269.33803555
 20
427.80665909
 30
0.0
  0
VERTEX
  8
ZUWAKU
  6
CONTINUOUS
 62
       7
  5
5A0
 10
-269.57264808
 20
427.16533778
 30
0.0
  0
VERTEX
  8
ZUWAKU
  6
CONTINUOUS
 62
       7
  5
5A1
 10
-269.74052307
 20
426.5206133
 30
0.0
  0
VERTEX
  8
ZUWAKU
  6
CONTINUOUS
 62
       7
  5
5A2
 10
-269.84136602
 20
425.87361672
 30
0.0
  0
SEQEND
  8
ZUWAKU
  6
CONTINUOUS
 62
       7
  5
5A3
  0
LINE
  8
ZUWAKU
  6
CONTINUOUS
 62
       7
  5
23E
 10
-262.375
 20
432.63837012
 30
0.0
 11
-262.375
 21
418.01337012
 31
0.0
  0
LINE
  8
ZUWAKU
  6
CONTINUOUS
 62
       7
  5
23F
 10
-200.5
 20
432.63837012
 30
0.0
 11
-200.5
 21
418.01337012
 31
0.0
  0
LINE
  8
ZUWAKU
  6
CONTINUOUS
 62
       7
  5
240
 10
-262.375
 20
432.63837012
 30
0.0
 11
-200.5
 21
432.63837012
 31
0.0
  0
LINE
  8
ZUWAKU
  6
CONTINUOUS
 62
       7
  5
241
 10
-262.375
 20
418.01337012
 30
0.0
 11
-200.5
 21
418.01337012
 31
0.0
  0
LINE
  8
ZUWAKU
  6
CONTINUOUS
 62
       7
  5
242
 10
-235.35280535
 20
440.62599625
 30
0.0
 11
-243.34043149
 21
432.63837012
 31
0.0
  0
LINE
  8
ZUWAKU
  6
CONTINUOUS
 62
       7
  5
243
 10
-236.2414949
 20
440.58583484
 30
0.0
 11
-244.18895962
 21
432.63837012
 31
0.0
  0
LINE
  8
ZUWAKU
  6
CONTINUOUS
 62
       7
  5
244
 10
-237.13923101
 20
440.53662687
 30
0.0
 11
-245.03748776
 21
432.63837012
 31
0.0
  0
LINE
  8
ZUWAKU
  6
CONTINUOUS
 62
       7
  5
245
 10
-238.04638754
 20
440.47799847
 30
0.0
 11
-245.8860159
 21
432.63837012
 31
0.0
  0
LINE
  8
ZUWAKU
  6
CONTINUOUS
 62
       7
  5
246
 10
-238.96338201
 20
440.40953215
 30
0.0
 11
-246.73454404
 21
432.63837012
 31
0.0
  0
LINE
  8
ZUWAKU
  6
CONTINUOUS
 62
       7
  5
247
 10
-239.89068229
 20
440.33076
 30
0.0
 11
-247.58307217
 21
432.63837012
 31
0.0
  0
LINE
  8
ZUWAKU
  6
CONTINUOUS
 62
       7
  5
248
 10
-240.82881478
 20
440.24115565
 30
0.0
 11
-248.43160031
 21
432.63837012
 31
0.0
  0
LINE
  8
ZUWAKU
  6
CONTINUOUS
 62
       7
  5
249
 10
-241.77837433
 20
440.14012424
 30
0.0
 11
-249.28012845
 21
432.63837012
 31
0.0
  0
LINE
  8
ZUWAKU
  6
CONTINUOUS
 62
       7
  5
24A
 10
-242.74003663
 20
440.02699007
 30
0.0
 11
-250.12865659
 21
432.63837012
 31
0.0
  0
LINE
  8
ZUWAKU
  6
CONTINUOUS
 62
       7
  5
24B
 10
-243.71457364
 20
439.9009812
 30
0.0
 11
-250.97718472
 21
432.63837012
 31
0.0
  0
LINE
  8
ZUWAKU
  6
CONTINUOUS
 62
       7
  5
24C
 10
-244.70287316
 20
439.76120982
 30
0.0
 11
-251.82571286
 21
432.63837012
 31
0.0
  0
LINE
  8
ZUWAKU
  6
CONTINUOUS
 62
       7
  5
24D
 10
-245.70596394
 20
439.60664717
 30
0.0
 11
-252.674241
 21
432.63837012
 31
0.0
  0
LINE
  8
ZUWAKU
  6
CONTINUOUS
 62
       7
  5
24E
 10
-246.72504839
 20
439.43609086
 30
0.0
 11
-253.52276914
 21
432.63837012
 31
0.0
  0
LINE
  8
ZUWAKU
  6
CONTINUOUS
 62
       7
  5
24F
 10
-247.76154583
 20
439.24812156
 30
0.0
 11
-254.37129727
 21
432.63837012
 31
0.0
  0
LINE
  8
ZUWAKU
  6
CONTINUOUS
 62
       7
  5
250
 10
-248.81715094
 20
439.04104459
 30
0.0
 11
-255.21982541
 21
432.63837012
 31
0.0
  0
LINE
  8
ZUWAKU
  6
CONTINUOUS
 62
       7
  5
251
 10
-262.375
 20
425.48319553
 30
0.0
 11
-262.53232541
 21
425.32587012
 31
0.0
  0
LINE
  8
ZUWAKU
  6
CONTINUOUS
 62
       7
  5
252
 10
-249.89391434
 20
438.81280933
 30
0.0
 11
-256.06835355
 21
432.63837012
 31
0.0
  0
LINE
  8
ZUWAKU
  6
CONTINUOUS
 62
       7
  5
253
 10
-262.375
 20
426.33172367
 30
0.0
 11
-263.38085355
 21
425.32587012
 31
0.0
  0
LINE
  8
ZUWAKU
  6
CONTINUOUS
 62
       7
  5
254
 10
-250.99435663
 20
438.56089518
 30
0.0
 11
-256.91688169
 21
432.63837012
 31
0.0
  0
LINE
  8
ZUWAKU
  6
CONTINUOUS
 62
       7
  5
255
 10
-262.375
 20
427.1802518
 30
0.0
 11
-264.22938169
 21
425.32587012
 31
0.0
  0
LINE
  8
ZUWAKU
  6
CONTINUOUS
 62
       7
  5
256
 10
-252.12163459
 20
438.28214535
 30
0.0
 11
-257.76540982
 21
432.63837012
 31
0.0
  0
LINE
  8
ZUWAKU
  6
CONTINUOUS
 62
       7
  5
257
 10
-262.375
 20
428.02877994
 30
0.0
 11
-265.07790982
 21
425.32587012
 31
0.0
  0
LINE
  8
ZUWAKU
  6
CONTINUOUS
 62
       7
  5
258
 10
-253.27979226
 20
437.97251582
 30
0.0
 11
-258.61393796
 21
432.63837012
 31
0.0
  0
LINE
  8
ZUWAKU
  6
CONTINUOUS
 62
       7
  5
259
 10
-262.375
 20
428.87730808
 30
0.0
 11
-265.92643796
 21
425.32587012
 31
0.0
  0
LINE
  8
ZUWAKU
  6
CONTINUOUS
 62
       7
  5
25A
 10
-254.47415675
 20
437.62667946
 30
0.0
 11
-259.4624661
 21
432.63837012
 31
0.0
  0
LINE
  8
ZUWAKU
  6
CONTINUOUS
 62
       7
  5
25B
 10
-262.375
 20
429.72583622
 30
0.0
 11
-266.7749661
 21
425.32587012
 31
0.0
  0
LINE
  8
ZUWAKU
  6
CONTINUOUS
 62
       7
  5
25C
 10
-255.71199672
 20
437.23736763
 30
0.0
 11
-260.31099424
 21
432.63837012
 31
0.0
  0
LINE
  8
ZUWAKU
  6
CONTINUOUS
 62
       7
  5
25D
 10
-262.375
 20
430.57436435
 30
0.0
 11
-267.62349424
 21
425.32587012
 31
0.0
  0
LINE
  8
ZUWAKU
  6
CONTINUOUS
 62
       7
  5
25E
 10
-257.00369446
 20
436.79419803
 30
0.0
 11
-261.15952237
 21
432.63837012
 31
0.0
  0
LINE
  8
ZUWAKU
  6
CONTINUOUS
 62
       7
  5
25F
 10
-262.375
 20
431.42289249
 30
0.0
 11
-268.47202237
 21
425.32587012
 31
0.0
  0
LINE
  8
ZUWAKU
  6
CONTINUOUS
 62
       7
  5
260
 10
-258.36502933
 20
436.2813913
 30
0.0
 11
-262.00805051
 21
432.63837012
 31
0.0
  0
LINE
  8
ZUWAKU
  6
CONTINUOUS
 62
       7
  5
261
 10
-262.375
 20
432.27142063
 30
0.0
 11
-269.32055051
 21
425.32587012
 31
0.0
  0
LINE
  8
ZUWAKU
  6
CONTINUOUS
 62
       7
  5
262
 10
-259.82222262
 20
435.67272614
 30
0.0
 11
-269.86169004
 21
425.63325872
 31
0.0
  0
LINE
  8
ZUWAKU
  6
CONTINUOUS
 62
       7
  5
263
 10
-261.42543332
 20
434.91804359
 30
0.0
 11
-269.71776554
 21
426.62571136
 31
0.0
  0
LINE
  8
ZUWAKU
  6
CONTINUOUS
 62
       7
  5
264
 10
-263.29954749
 20
433.89245755
 30
0.0
 11
-269.30293756
 21
427.88906748
 31
0.0
  0
LINE
  8
ZUWAKU
  6
CONTINUOUS
 62
       7
  5
265
 10
-266.22084527
 20
431.81968791
 30
0.0
 11
-267.84092598
 21
430.1996072
 31
0.0
  0
LINE
  8
ZUWAKU
  6
CONTINUOUS
 62
       7
  5
266
 10
-234.47282666
 20
440.65744681
 30
0.0
 11
-242.49190335
 21
432.63837012
 31
0.0
  0
LINE
  8
ZUWAKU
  6
CONTINUOUS
 62
       7
  5
267
 10
-233.6012566
 20
440.68048873
 30
0.0
 11
-241.64337521
 21
432.63837012
 31
0.0
  0
LINE
  8
ZUWAKU
  6
CONTINUOUS
 62
       7
  5
268
 10
-232.73782257
 20
440.69539462
 30
0.0
 11
-240.79484707
 21
432.63837012
 31
0.0
  0
LINE
  8
ZUWAKU
  6
CONTINUOUS
 62
       7
  5
269
 10
-231.88227828
 20
440.70241078
 30
0.0
 11
-239.94631894
 21
432.63837012
 31
0.0
  0
LINE
  8
ZUWAKU
  6
CONTINUOUS
 62
       7
  5
26A
 10
-231.03440096
 20
440.70175995
 30
0.0
 11
-239.0977908
 21
432.63837012
 31
0.0
  0
LINE
  8
ZUWAKU
  6
CONTINUOUS
 62
       7
  5
26B
 10
-230.19398901
 20
440.69364377
 30
0.0
 11
-238.24926266
 21
432.63837012
 31
0.0
  0
LINE
  8
ZUWAKU
  6
CONTINUOUS
 62
       7
  5
26C
 10
-229.36085989
 20
440.67824476
 30
0.0
 11
-237.40073452
 21
432.63837012
 31
0.0
  0
LINE
  8
ZUWAKU
  6
CONTINUOUS
 62
       7
  5
26D
 10
-228.53484842
 20
440.65572808
 30
0.0
 11
-236.55220639
 21
432.63837012
 31
0.0
  0
LINE
  8
ZUWAKU
  6
CONTINUOUS
 62
       7
  5
26E
 10
-227.71580525
 20
440.62624311
 30
0.0
 11
-235.70367825
 21
432.63837012
 31
0.0
  0
LINE
  8
ZUWAKU
  6
CONTINUOUS
 62
       7
  5
26F
 10
-226.90359554
 20
440.58992469
 30
0.0
 11
-234.85515011
 21
432.63837012
 31
0.0
  0
LINE
  8
ZUWAKU
  6
CONTINUOUS
 62
       7
  5
270
 10
-226.09809783
 20
440.54689426
 30
0.0
 11
-234.00662197
 21
432.63837012
 31
0.0
  0
LINE
  8
ZUWAKU
  6
CONTINUOUS
 62
       7
  5
271
 10
-225.29920306
 20
440.49726089
 30
0.0
 11
-233.15809384
 21
432.63837012
 31
0.0
  0
LINE
  8
ZUWAKU
  6
CONTINUOUS
 62
       7
  5
272
 10
-224.50681372
 20
440.4411221
 30
0.0
 11
-232.3095657
 21
432.63837012
 31
0.0
  0
LINE
  8
ZUWAKU
  6
CONTINUOUS
 62
       7
  5
273
 10
-223.7208431
 20
440.37856458
 30
0.0
 11
-231.46103756
 21
432.63837012
 31
0.0
  0
LINE
  8
ZUWAKU
  6
CONTINUOUS
 62
       7
  5
274
 10
-222.94121468
 20
440.30966486
 30
0.0
 11
-230.61250943
 21
432.63837012
 31
0.0
  0
LINE
  8
ZUWAKU
  6
CONTINUOUS
 62
       7
  5
275
 10
-222.16786158
 20
440.23448983
 30
0.0
 11
-229.76398129
 21
432.63837012
 31
0.0
  0
LINE
  8
ZUWAKU
  6
CONTINUOUS
 62
       7
  5
276
 10
-221.40072607
 20
440.1530972
 30
0.0
 11
-228.91545315
 21
432.63837012
 31
0.0
  0
LINE
  8
ZUWAKU
  6
CONTINUOUS
 62
       7
  5
277
 10
-220.6397592
 20
440.06553593
 30
0.0
 11
-228.06692501
 21
432.63837012
 31
0.0
  0
LINE
  8
ZUWAKU
  6
CONTINUOUS
 62
       7
  5
278
 10
-219.88492046
 20
439.97184653
 30
0.0
 11
-227.21839688
 21
432.63837012
 31
0.0
  0
LINE
  8
ZUWAKU
  6
CONTINUOUS
 62
       7
  5
279
 10
-219.13617754
 20
439.87206132
 30
0.0
 11
-226.36986874
 21
432.63837012
 31
0.0
  0
LINE
  8
ZUWAKU
  6
CONTINUOUS
 62
       7
  5
27A
 10
-218.39350608
 20
439.76620464
 30
0.0
 11
-225.5213406
 21
432.63837012
 31
0.0
  0
LINE
  8
ZUWAKU
  6
CONTINUOUS
 62
       7
  5
27B
 10
-217.65688956
 20
439.65429303
 30
0.0
 11
-224.67281246
 21
432.63837012
 31
0.0
  0
LINE
  8
ZUWAKU
  6
CONTINUOUS
 62
       7
  5
27C
 10
-216.92631913
 20
439.53633531
 30
0.0
 11
-223.82428433
 21
432.63837012
 31
0.0
  0
LINE
  8
ZUWAKU
  6
CONTINUOUS
 62
       7
  5
27D
 10
-216.20179364
 20
439.41233267
 30
0.0
 11
-222.97575619
 21
432.63837012
 31
0.0
  0
LINE
  8
ZUWAKU
  6
CONTINUOUS
 62
       7
  5
27E
 10
-215.48331955
 20
439.28227862
 30
0.0
 11
-222.12722805
 21
432.63837012
 31
0.0
  0
LINE
  8
ZUWAKU
  6
CONTINUOUS
 62
       7
  5
27F
 10
-214.77091102
 20
439.14615901
 30
0.0
 11
-221.27869991
 21
432.63837012
 31
0.0
  0
LINE
  8
ZUWAKU
  6
CONTINUOUS
 62
       7
  5
280
 10
-214.06459
 20
439.00395189
 30
0.0
 11
-220.43017178
 21
432.63837012
 31
0.0
  0
LINE
  8
ZUWAKU
  6
CONTINUOUS
 62
       7
  5
281
 10
-213.36438634
 20
438.85562741
 30
0.0
 11
-219.58164364
 21
432.63837012
 31
0.0
  0
LINE
  8
ZUWAKU
  6
CONTINUOUS
 62
       7
  5
282
 10
-212.67033801
 20
438.70114761
 30
0.0
 11
-218.7331155
 21
432.63837012
 31
0.0
  0
LINE
  8
ZUWAKU
  6
CONTINUOUS
 62
       7
  5
283
 10
-211.98249133
 20
438.54046616
 30
0.0
 11
-217.88458736
 21
432.63837012
 31
0.0
  0
LINE
  8
ZUWAKU
  6
CONTINUOUS
 62
       7
  5
284
 10
-211.30090129
 20
438.37352806
 30
0.0
 11
-217.03605923
 21
432.63837012
 31
0.0
  0
LINE
  8
ZUWAKU
  6
CONTINUOUS
 62
       7
  5
285
 10
-210.62563193
 20
438.20026928
 30
0.0
 11
-216.18753109
 21
432.63837012
 31
0.0
  0
LINE
  8
ZUWAKU
  6
CONTINUOUS
 62
       7
  5
286
 10
-209.95675676
 20
438.02061631
 30
0.0
 11
-215.33900295
 21
432.63837012
 31
0.0
  0
LINE
  8
ZUWAKU
  6
CONTINUOUS
 62
       7
  5
287
 10
-209.2943593
 20
437.83448564
 30
0.0
 11
-214.49047481
 21
432.63837012
 31
0.0
  0
LINE
  8
ZUWAKU
  6
CONTINUOUS
 62
       7
  5
288
 10
-208.63853366
 20
437.64178314
 30
0.0
 11
-213.64194668
 21
432.63837012
 31
0.0
  0
LINE
  8
ZUWAKU
  6
CONTINUOUS
 62
       7
  5
289
 10
-207.98938527
 20
437.44240338
 30
0.0
 11
-212.79341854
 21
432.63837012
 31
0.0
  0
LINE
  8
ZUWAKU
  6
CONTINUOUS
 62
       7
  5
28A
 10
-207.3470317
 20
437.23622882
 30
0.0
 11
-211.9448904
 21
432.63837012
 31
0.0
  0
LINE
  8
ZUWAKU
  6
CONTINUOUS
 62
       7
  5
28B
 10
-206.71160357
 20
437.02312881
 30
0.0
 11
-211.09636226
 21
432.63837012
 31
0.0
  0
LINE
  8
ZUWAKU
  6
CONTINUOUS
 62
       7
  5
28C
 10
-206.08324564
 20
436.8029586
 30
0.0
 11
-210.24783413
 21
432.63837012
 31
0.0
  0
LINE
  8
ZUWAKU
  6
CONTINUOUS
 62
       7
  5
28D
 10
-205.46211809
 20
436.57555802
 30
0.0
 11
-209.39930599
 21
432.63837012
 31
0.0
  0
LINE
  8
ZUWAKU
  6
CONTINUOUS
 62
       7
  5
28E
 10
-204.84839795
 20
436.34075002
 30
0.0
 11
-208.55077785
 21
432.63837012
 31
0.0
  0
LINE
  8
ZUWAKU
  6
CONTINUOUS
 62
       7
  5
28F
 10
-204.24228077
 20
436.09833906
 30
0.0
 11
-207.70224971
 21
432.63837012
 31
0.0
  0
LINE
  8
ZUWAKU
  6
CONTINUOUS
 62
       7
  5
290
 10
-203.64398259
 20
435.8481091
 30
0.0
 11
-206.85372158
 21
432.63837012
 31
0.0
  0
LINE
  8
ZUWAKU
  6
CONTINUOUS
 62
       7
  5
291
 10
-203.05374221
 20
435.58982135
 30
0.0
 11
-206.00519344
 21
432.63837012
 31
0.0
  0
LINE
  8
ZUWAKU
  6
CONTINUOUS
 62
       7
  5
292
 10
-202.47182383
 20
435.32321159
 30
0.0
 11
-205.1566653
 21
432.63837012
 31
0.0
  0
LINE
  8
ZUWAKU
  6
CONTINUOUS
 62
       7
  5
293
 10
-201.89852019
 20
435.04798709
 30
0.0
 11
-204.30813717
 21
432.63837012
 31
0.0
  0
LINE
  8
ZUWAKU
  6
CONTINUOUS
 62
       7
  5
294
 10
-201.33415628
 20
434.76382286
 30
0.0
 11
-203.45960903
 21
432.63837012
 31
0.0
  0
LINE
  8
ZUWAKU
  6
CONTINUOUS
 62
       7
  5
295
 10
-200.77909371
 20
434.4703573
 30
0.0
 11
-202.61108089
 21
432.63837012
 31
0.0
  0
LINE
  8
ZUWAKU
  6
CONTINUOUS
 62
       7
  5
296
 10
-200.23373593
 20
434.16718694
 30
0.0
 11
-201.76255275
 21
432.63837012
 31
0.0
  0
LINE
  8
ZUWAKU
  6
CONTINUOUS
 62
       7
  5
297
 10
-199.69853459
 20
433.85386015
 30
0.0
 11
-200.91402462
 21
432.63837012
 31
0.0
  0
LINE
  8
ZUWAKU
  6
CONTINUOUS
 62
       7
  5
298
 10
-199.17399715
 20
433.52986944
 30
0.0
 11
-200.5
 21
432.2038666
 31
0.0
  0
LINE
  8
ZUWAKU
  6
CONTINUOUS
 62
       7
  5
299
 10
-198.66069628
 20
433.19464218
 30
0.0
 11
-200.5
 21
431.35533846
 31
0.0
  0
LINE
  8
ZUWAKU
  6
CONTINUOUS
 62
       7
  5
29A
 10
-198.15928137
 20
432.84752895
 30
0.0
 11
-200.5
 21
430.50681032
 31
0.0
  0
LINE
  8
ZUWAKU
  6
CONTINUOUS
 62
       7
  5
29B
 10
-197.67049297
 20
432.48778921
 30
0.0
 11
-200.5
 21
429.65828218
 31
0.0
  0
LINE
  8
ZUWAKU
  6
CONTINUOUS
 62
       7
  5
29C
 10
-197.19518096
 20
432.11457309
 30
0.0
 11
-200.5
 21
428.80975405
 31
0.0
  0
LINE
  8
ZUWAKU
  6
CONTINUOUS
 62
       7
  5
29D
 10
-196.73432777
 20
431.72689814
 30
0.0
 11
-200.5
 21
427.96122591
 31
0.0
  0
LINE
  8
ZUWAKU
  6
CONTINUOUS
 62
       7
  5
29E
 10
-196.28907846
 20
431.32361931
 30
0.0
 11
-200.5
 21
427.11269777
 31
0.0
  0
LINE
  8
ZUWAKU
  6
CONTINUOUS
 62
       7
  5
29F
 10
-195.86078041
 20
430.90338923
 30
0.0
 11
-200.5
 21
426.26416963
 31
0.0
  0
LINE
  8
ZUWAKU
  6
CONTINUOUS
 62
       7
  5
2A0
 10
-195.45103642
 20
430.46460507
 30
0.0
 11
-200.5
 21
425.4156415
 31
0.0
  0
LINE
  8
ZUWAKU
  6
CONTINUOUS
 62
       7
  5
2A1
 10
-195.06177762
 20
430.00533574
 30
0.0
 11
-199.74124324
 21
425.32587012
 31
0.0
  0
LINE
  8
ZUWAKU
  6
CONTINUOUS
 62
       7
  5
2A2
 10
-194.69536559
 20
429.52321963
 30
0.0
 11
-198.8927151
 21
425.32587012
 31
0.0
  0
LINE
  8
ZUWAKU
  6
CONTINUOUS
 62
       7
  5
2A3
 10
-194.35474
 20
429.01531709
 30
0.0
 11
-198.04418697
 21
425.32587012
 31
0.0
  0
LINE
  8
ZUWAKU
  6
CONTINUOUS
 62
       7
  5
2A4
 10
-194.04363883
 20
428.47789012
 30
0.0
 11
-197.19565883
 21
425.32587012
 31
0.0
  0
LINE
  8
ZUWAKU
  6
CONTINUOUS
 62
       7
  5
2A5
 10
-193.76694088
 20
427.90605993
 30
0.0
 11
-196.34713069
 21
425.32587012
 31
0.0
  0
LINE
  8
ZUWAKU
  6
CONTINUOUS
 62
       7
  5
2A6
 10
-193.53122541
 20
427.29324726
 30
0.0
 11
-195.49860255
 21
425.32587012
 31
0.0
  0
LINE
  8
ZUWAKU
  6
CONTINUOUS
 62
       7
  5
2A7
 10
-193.34574593
 20
426.63019861
 30
0.0
 11
-194.65007442
 21
425.32587012
 31
0.0
  0
LINE
  8
ZUWAKU
  6
CONTINUOUS
 62
       7
  5
2A8
 10
-193.2242701
 20
425.9031463
 30
0.0
 11
-193.80154628
 21
425.32587012
 31
0.0
  0
LINE
  8
ZUWAKU
  6
CONTINUOUS
 62
       7
  5
2A9
 10
-219.62168237
 20
418.01337012
 30
0.0
 11
-227.81425157
 21
409.82080092
 31
0.0
  0
LINE
  8
ZUWAKU
  6
CONTINUOUS
 62
       7
  5
2AA
 10
-220.47021051
 20
418.01337012
 30
0.0
 11
-228.6932203
 21
409.79036032
 31
0.0
  0
LINE
  8
ZUWAKU
  6
CONTINUOUS
 62
       7
  5
2AB
 10
-221.31873865
 20
418.01337012
 30
0.0
 11
-229.56381412
 21
409.76829464
 31
0.0
  0
LINE
  8
ZUWAKU
  6
CONTINUOUS
 62
       7
  5
2AC
 10
-222.16726678
 20
418.01337012
 30
0.0
 11
-230.42630237
 21
409.75433453
 31
0.0
  0
LINE
  8
ZUWAKU
  6
CONTINUOUS
 62
       7
  5
2AD
 10
-223.01579492
 20
418.01337012
 30
0.0
 11
-231.28092841
 21
409.74823663
 31
0.0
  0
LINE
  8
ZUWAKU
  6
CONTINUOUS
 62
       7
  5
2AE
 10
-223.86432306
 20
418.01337012
 30
0.0
 11
-232.12791238
 21
409.7497808
 31
0.0
  0
LINE
  8
ZUWAKU
  6
CONTINUOUS
 62
       7
  5
2AF
 10
-224.71285119
 20
418.01337012
 30
0.0
 11
-232.96745355
 21
409.75876776
 31
0.0
  0
LINE
  8
ZUWAKU
  6
CONTINUOUS
 62
       7
  5
2B0
 10
-225.56137933
 20
418.01337012
 30
0.0
 11
-233.7997323
 21
409.77501715
 31
0.0
  0
LINE
  8
ZUWAKU
  6
CONTINUOUS
 62
       7
  5
2B1
 10
-226.40990747
 20
418.01337012
 30
0.0
 11
-234.62491186
 21
409.79836573
 31
0.0
  0
LINE
  8
ZUWAKU
  6
CONTINUOUS
 62
       7
  5
2B2
 10
-227.25843561
 20
418.01337012
 30
0.0
 11
-235.44313981
 21
409.82866592
 31
0.0
  0
LINE
  8
ZUWAKU
  6
CONTINUOUS
 62
       7
  5
2B3
 10
-228.10696374
 20
418.01337012
 30
0.0
 11
-236.25454935
 21
409.86578451
 31
0.0
  0
LINE
  8
ZUWAKU
  6
CONTINUOUS
 62
       7
  5
2B4
 10
-228.95549188
 20
418.01337012
 30
0.0
 11
-237.05926042
 21
409.90960158
 31
0.0
  0
LINE
  8
ZUWAKU
  6
CONTINUOUS
 62
       7
  5
2B5
 10
-229.80402002
 20
418.01337012
 30
0.0
 11
-237.85738068
 21
409.96000946
 31
0.0
  0
LINE
  8
ZUWAKU
  6
CONTINUOUS
 62
       7
  5
2B6
 10
-230.65254816
 20
418.01337012
 30
0.0
 11
-238.64900632
 21
410.01691196
 31
0.0
  0
LINE
  8
ZUWAKU
  6
CONTINUOUS
 62
       7
  5
2B7
 10
-231.50107629
 20
418.01337012
 30
0.0
 11
-239.4342228
 21
410.08022361
 31
0.0
  0
LINE
  8
ZUWAKU
  6
CONTINUOUS
 62
       7
  5
2B8
 10
-232.34960443
 20
418.01337012
 30
0.0
 11
-240.21310549
 21
410.14986906
 31
0.0
  0
LINE
  8
ZUWAKU
  6
CONTINUOUS
 62
       7
  5
2B9
 10
-233.19813257
 20
418.01337012
 30
0.0
 11
-240.98572016
 21
410.22578253
 31
0.0
  0
LINE
  8
ZUWAKU
  6
CONTINUOUS
 62
       7
  5
2BA
 10
-234.04666071
 20
418.01337012
 30
0.0
 11
-241.75212348
 21
410.30790734
 31
0.0
  0
LINE
  8
ZUWAKU
  6
CONTINUOUS
 62
       7
  5
2BB
 10
-234.89518884
 20
418.01337012
 30
0.0
 11
-242.5123634
 21
410.39619557
 31
0.0
  0
LINE
  8
ZUWAKU
  6
CONTINUOUS
 62
       7
  5
2BC
 10
-235.74371698
 20
418.01337012
 30
0.0
 11
-243.26647942
 21
410.49060768
 31
0.0
  0
LINE
  8
ZUWAKU
  6
CONTINUOUS
 62
       7
  5
2BD
 10
-236.59224512
 20
418.01337012
 30
0.0
 11
-244.01450292
 21
410.59111232
 31
0.0
  0
LINE
  8
ZUWAKU
  6
CONTINUOUS
 62
       7
  5
2BE
 10
-237.44077326
 20
418.01337012
 30
0.0
 11
-244.75645731
 21
410.69768606
 31
0.0
  0
LINE
  8
ZUWAKU
  6
CONTINUOUS
 62
       7
  5
2BF
 10
-238.28930139
 20
418.01337012
 30
0.0
 11
-245.49235823
 21
410.81031329
 31
0.0
  0
LINE
  8
ZUWAKU
  6
CONTINUOUS
 62
       7
  5
2C0
 10
-239.13782953
 20
418.01337012
 30
0.0
 11
-246.22221357
 21
410.92898608
 31
0.0
  0
LINE
  8
ZUWAKU
  6
CONTINUOUS
 62
       7
  5
2C1
 10
-239.98635767
 20
418.01337012
 30
0.0
 11
-246.94602362
 21
411.05370417
 31
0.0
  0
LINE
  8
ZUWAKU
  6
CONTINUOUS
 62
       7
  5
2C2
 10
-240.83488581
 20
418.01337012
 30
0.0
 11
-247.66378099
 21
411.18447493
 31
0.0
  0
LINE
  8
ZUWAKU
  6
CONTINUOUS
 62
       7
  5
2C3
 10
-241.68341394
 20
418.01337012
 30
0.0
 11
-248.37547061
 21
411.32131345
 31
0.0
  0
LINE
  8
ZUWAKU
  6
CONTINUOUS
 62
       7
  5
2C4
 10
-242.53194208
 20
418.01337012
 30
0.0
 11
-249.08106961
 21
411.46424259
 31
0.0
  0
LINE
  8
ZUWAKU
  6
CONTINUOUS
 62
       7
  5
2C5
 10
-243.38047022
 20
418.01337012
 30
0.0
 11
-249.78054718
 21
411.61329315
 31
0.0
  0
LINE
  8
ZUWAKU
  6
CONTINUOUS
 62
       7
  5
2C6
 10
-244.22899836
 20
418.01337012
 30
0.0
 11
-250.47386439
 21
411.76850408
 31
0.0
  0
LINE
  8
ZUWAKU
  6
CONTINUOUS
 62
       7
  5
2C7
 10
-245.07752649
 20
418.01337012
 30
0.0
 11
-251.1609739
 21
411.92992271
 31
0.0
  0
LINE
  8
ZUWAKU
  6
CONTINUOUS
 62
       7
  5
2C8
 10
-245.92605463
 20
418.01337012
 30
0.0
 11
-251.84181967
 21
412.09760508
 31
0.0
  0
LINE
  8
ZUWAKU
  6
CONTINUOUS
 62
       7
  5
2C9
 10
-246.77458277
 20
418.01337012
 30
0.0
 11
-252.51633657
 21
412.27161632
 31
0.0
  0
LINE
  8
ZUWAKU
  6
CONTINUOUS
 62
       7
  5
2CA
 10
-247.62311091
 20
418.01337012
 30
0.0
 11
-253.18444993
 21
412.4520311
 31
0.0
  0
LINE
  8
ZUWAKU
  6
CONTINUOUS
 62
       7
  5
2CB
 10
-248.47163904
 20
418.01337012
 30
0.0
 11
-253.84607501
 21
412.63893415
 31
0.0
  0
LINE
  8
ZUWAKU
  6
CONTINUOUS
 62
       7
  5
2CC
 10
-249.32016718
 20
418.01337012
 30
0.0
 11
-254.5011164
 21
412.83242089
 31
0.0
  0
LINE
  8
ZUWAKU
  6
CONTINUOUS
 62
       7
  5
2CD
 10
-250.16869532
 20
418.01337012
 30
0.0
 11
-255.14946728
 21
413.03259816
 31
0.0
  0
LINE
  8
ZUWAKU
  6
CONTINUOUS
 62
       7
  5
2CE
 10
-251.01722346
 20
418.01337012
 30
0.0
 11
-255.79100859
 21
413.23958498
 31
0.0
  0
LINE
  8
ZUWAKU
  6
CONTINUOUS
 62
       7
  5
2CF
 10
-251.86575159
 20
418.01337012
 30
0.0
 11
-256.4256081
 21
413.45351361
 31
0.0
  0
LINE
  8
ZUWAKU
  6
CONTINUOUS
 62
       7
  5
2D0
 10
-252.71427973
 20
418.01337012
 30
0.0
 11
-257.05311928
 21
413.67453057
 31
0.0
  0
LINE
  8
ZUWAKU
  6
CONTINUOUS
 62
       7
  5
2D1
 10
-253.56280787
 20
418.01337012
 30
0.0
 11
-257.67338005
 21
413.90279794
 31
0.0
  0
LINE
  8
ZUWAKU
  6
CONTINUOUS
 62
       7
  5
2D2
 10
-254.411336
 20
418.01337012
 30
0.0
 11
-258.28621128
 21
414.13849485
 31
0.0
  0
LINE
  8
ZUWAKU
  6
CONTINUOUS
 62
       7
  5
2D3
 10
-255.25986414
 20
418.01337012
 30
0.0
 11
-258.89141509
 21
414.38181917
 31
0.0
  0
LINE
  8
ZUWAKU
  6
CONTINUOUS
 62
       7
  5
2D4
 10
-256.10839228
 20
418.01337012
 30
0.0
 11
-259.48877289
 21
414.63298951
 31
0.0
  0
LINE
  8
ZUWAKU
  6
CONTINUOUS
 62
       7
  5
2D5
 10
-256.95692042
 20
418.01337012
 30
0.0
 11
-260.07804301
 21
414.89224752
 31
0.0
  0
LINE
  8
ZUWAKU
  6
CONTINUOUS
 62
       7
  5
2D6
 10
-257.80544855
 20
418.01337012
 30
0.0
 11
-260.65895806
 21
415.15986061
 31
0.0
  0
LINE
  8
ZUWAKU
  6
CONTINUOUS
 62
       7
  5
2D7
 10
-258.65397669
 20
418.01337012
 30
0.0
 11
-261.23122167
 21
415.43612514
 31
0.0
  0
LINE
  8
ZUWAKU
  6
CONTINUOUS
 62
       7
  5
2D8
 10
-259.50250483
 20
418.01337012
 30
0.0
 11
-261.79450478
 21
415.72137017
 31
0.0
  0
LINE
  8
ZUWAKU
  6
CONTINUOUS
 62
       7
  5
2D9
 10
-260.35103297
 20
418.01337012
 30
0.0
 11
-262.34844111
 21
416.01596198
 31
0.0
  0
LINE
  8
ZUWAKU
  6
CONTINUOUS
 62
       7
  5
2DA
 10
-261.1995611
 20
418.01337012
 30
0.0
 11
-262.89262186
 21
416.32030936
 31
0.0
  0
LINE
  8
ZUWAKU
  6
CONTINUOUS
 62
       7
  5
2DB
 10
-262.04808924
 20
418.01337012
 30
0.0
 11
-263.42658922
 21
416.63487014
 31
0.0
  0
LINE
  8
ZUWAKU
  6
CONTINUOUS
 62
       7
  5
2DC
 10
-262.375
 20
418.5349875
 30
0.0
 11
-263.94982852
 21
416.96015898
 31
0.0
  0
LINE
  8
ZUWAKU
  6
CONTINUOUS
 62
       7
  5
2DD
 10
-262.375
 20
419.38351564
 30
0.0
 11
-264.46175868
 21
417.29675695
 31
0.0
  0
LINE
  8
ZUWAKU
  6
CONTINUOUS
 62
       7
  5
2DE
 10
-262.375
 20
420.23204377
 30
0.0
 11
-264.96172034
 21
417.64532344
 31
0.0
  0
LINE
  8
ZUWAKU
  6
CONTINUOUS
 62
       7
  5
2DF
 10
-262.375
 20
421.08057191
 30
0.0
 11
-265.44896104
 21
418.00661087
 31
0.0
  0
LINE
  8
ZUWAKU
  6
CONTINUOUS
 62
       7
  5
2E0
 10
-262.375
 20
421.92910005
 30
0.0
 11
-265.92261654
 21
418.3814835
 31
0.0
  0
LINE
  8
ZUWAKU
  6
CONTINUOUS
 62
       7
  5
2E1
 10
-262.375
 20
422.77762818
 30
0.0
 11
-266.38168692
 21
418.77094127
 31
0.0
  0
LINE
  8
ZUWAKU
  6
CONTINUOUS
 62
       7
  5
2E2
 10
-262.375
 20
423.62615632
 30
0.0
 11
-266.82500544
 21
419.17615088
 31
0.0
  0
LINE
  8
ZUWAKU
  6
CONTINUOUS
 62
       7
  5
2E3
 10
-262.375
 20
424.47468446
 30
0.0
 11
-267.25119761
 21
419.59848685
 31
0.0
  0
LINE
  8
ZUWAKU
  6
CONTINUOUS
 62
       7
  5
2E4
 10
-262.37234248
 20
425.32587012
 30
0.0
 11
-267.65862605
 21
420.03958655
 31
0.0
  0
LINE
  8
ZUWAKU
  6
CONTINUOUS
 62
       7
  5
2E5
 10
-263.22087062
 20
425.32587012
 30
0.0
 11
-268.04531473
 21
420.501426
 31
0.0
  0
LINE
  8
ZUWAKU
  6
CONTINUOUS
 62
       7
  5
2E6
 10
-264.06939875
 20
425.32587012
 30
0.0
 11
-268.40884248
 21
420.98642639
 31
0.0
  0
LINE
  8
ZUWAKU
  6
CONTINUOUS
 62
       7
  5
2E7
 10
-264.91792689
 20
425.32587012
 30
0.0
 11
-268.74618848
 21
421.49760853
 31
0.0
  0
LINE
  8
ZUWAKU
  6
CONTINUOUS
 62
       7
  5
2E8
 10
-265.76645503
 20
425.32587012
 30
0.0
 11
-269.05350075
 21
422.0388244
 31
0.0
  0
LINE
  8
ZUWAKU
  6
CONTINUOUS
 62
       7
  5
2E9
 10
-266.61498317
 20
425.32587012
 30
0.0
 11
-269.32573416
 21
422.61511913
 31
0.0
  0
LINE
  8
ZUWAKU
  6
CONTINUOUS
 62
       7
  5
2EA
 10
-267.4635113
 20
425.32587012
 30
0.0
 11
-269.55605507
 21
423.23332635
 31
0.0
  0
LINE
  8
ZUWAKU
  6
CONTINUOUS
 62
       7
  5
2EB
 10
-268.31203944
 20
425.32587012
 30
0.0
 11
-269.73479635
 21
423.90311321
 31
0.0
  0
LINE
  8
ZUWAKU
  6
CONTINUOUS
 62
       7
  5
2EC
 10
-269.16056758
 20
425.32587012
 30
0.0
 11
-269.8474603
 21
424.63897739
 31
0.0
  0
LINE
  8
ZUWAKU
  6
CONTINUOUS
 62
       7
  5
2ED
 10
-218.77315423
 20
418.01337012
 30
0.0
 11
-226.92660941
 21
409.85991494
 31
0.0
  0
LINE
  8
ZUWAKU
  6
CONTINUOUS
 62
       7
  5
2EE
 10
-217.9246261
 20
418.01337012
 30
0.0
 11
-226.02996229
 21
409.90803392
 31
0.0
  0
LINE
  8
ZUWAKU
  6
CONTINUOUS
 62
       7
  5
2EF
 10
-217.07609796
 20
418.01337012
 30
0.0
 11
-225.12394115
 21
409.96552693
 31
0.0
  0
LINE
  8
ZUWAKU
  6
CONTINUOUS
 62
       7
  5
2F0
 10
-216.22756982
 20
418.01337012
 30
0.0
 11
-224.20813395
 21
410.03280599
 31
0.0
  0
LINE
  8
ZUWAKU
  6
CONTINUOUS
 62
       7
  5
2F1
 10
-215.37904168
 20
418.01337012
 30
0.0
 11
-223.28207916
 21
410.11033264
 31
0.0
  0
LINE
  8
ZUWAKU
  6
CONTINUOUS
 62
       7
  5
2F2
 10
-214.53051355
 20
418.01337012
 30
0.0
 11
-222.34525781
 21
410.19862586
 31
0.0
  0
LINE
  8
ZUWAKU
  6
CONTINUOUS
 62
       7
  5
2F3
 10
-213.68198541
 20
418.01337012
 30
0.0
 11
-221.39708371
 21
410.29827182
 31
0.0
  0
LINE
  8
ZUWAKU
  6
CONTINUOUS
 62
       7
  5
2F4
 10
-212.83345727
 20
418.01337012
 30
0.0
 11
-220.43689149
 21
410.4099359
 31
0.0
  0
LINE
  8
ZUWAKU
  6
CONTINUOUS
 62
       7
  5
2F5
 10
-211.98492913
 20
418.01337012
 30
0.0
 11
-219.46392152
 21
410.53437774
 31
0.0
  0
LINE
  8
ZUWAKU
  6
CONTINUOUS
 62
       7
  5
2F6
 10
-211.136401
 20
418.01337012
 30
0.0
 11
-218.47730087
 21
410.67247025
 31
0.0
  0
LINE
  8
ZUWAKU
  6
CONTINUOUS
 62
       7
  5
2F7
 10
-210.28787286
 20
418.01337012
 30
0.0
 11
-217.476019
 21
410.82522398
 31
0.0
  0
LINE
  8
ZUWAKU
  6
CONTINUOUS
 62
       7
  5
2F8
 10
-209.43934472
 20
418.01337012
 30
0.0
 11
-216.45889608
 21
410.99381876
 31
0.0
  0
LINE
  8
ZUWAKU
  6
CONTINUOUS
 62
       7
  5
2F9
 10
-208.59081658
 20
418.01337012
 30
0.0
 11
-215.42454114
 21
411.17964556
 31
0.0
  0
LINE
  8
ZUWAKU
  6
CONTINUOUS
 62
       7
  5
2FA
 10
-200.42978845
 20
425.32587012
 30
0.0
 11
-200.5
 21
425.25565857
 31
0.0
  0
LINE
  8
ZUWAKU
  6
CONTINUOUS
 62
       7
  5
2FB
 10
-207.74228845
 20
418.01337012
 30
0.0
 11
-214.37129578
 21
411.38436279
 31
0.0
  0
LINE
  8
ZUWAKU
  6
CONTINUOUS
 62
       7
  5
2FC
 10
-199.58126031
 20
425.32587012
 30
0.0
 11
-200.5
 21
424.40713043
 31
0.0
  0
LINE
  8
ZUWAKU
  6
CONTINUOUS
 62
       7
  5
2FD
 10
-206.89376031
 20
418.01337012
 30
0.0
 11
-213.29715663
 21
411.6099738
 31
0.0
  0
LINE
  8
ZUWAKU
  6
CONTINUOUS
 62
       7
  5
2FE
 10
-198.73273217
 20
425.32587012
 30
0.0
 11
-200.5
 21
423.55860229
 31
0.0
  0
LINE
  8
ZUWAKU
  6
CONTINUOUS
 62
       7
  5
2FF
 10
-206.04523217
 20
418.01337012
 30
0.0
 11
-212.19966614
 21
411.85893615
 31
0.0
  0
LINE
  8
ZUWAKU
  6
CONTINUOUS
 62
       7
  5
300
 10
-197.88420403
 20
425.32587012
 30
0.0
 11
-200.5
 21
422.71007415
 31
0.0
  0
LINE
  8
ZUWAKU
  6
CONTINUOUS
 62
       7
  5
301
 10
-205.19670403
 20
418.01337012
 30
0.0
 11
-211.07575382
 21
412.13432034
 31
0.0
  0
LINE
  8
ZUWAKU
  6
CONTINUOUS
 62
       7
  5
302
 10
-197.0356759
 20
425.32587012
 30
0.0
 11
-200.5
 21
421.86154602
 31
0.0
  0
LINE
  8
ZUWAKU
  6
CONTINUOUS
 62
       7
  5
303
 10
-204.3481759
 20
418.01337012
 30
0.0
 11
-209.92149768
 21
412.44004834
 31
0.0
  0
LINE
  8
ZUWAKU
  6
CONTINUOUS
 62
       7
  5
304
 10
-196.18714776
 20
425.32587012
 30
0.0
 11
-200.5
 21
421.01301788
 31
0.0
  0
LINE
  8
ZUWAKU
  6
CONTINUOUS
 62
       7
  5
305
 10
-203.49964776
 20
418.01337012
 30
0.0
 11
-208.73175006
 21
412.78126782
 31
0.0
  0
LINE
  8
ZUWAKU
  6
CONTINUOUS
 62
       7
  5
306
 10
-195.33861962
 20
425.32587012
 30
0.0
 11
-200.5
 21
420.16448974
 31
0.0
  0
LINE
  8
ZUWAKU
  6
CONTINUOUS
 62
       7
  5
307
 10
-202.65111962
 20
418.01337012
 30
0.0
 11
-207.4995197
 21
413.16497004
 31
0.0
  0
LINE
  8
ZUWAKU
  6
CONTINUOUS
 62
       7
  5
308
 10
-194.49009148
 20
425.32587012
 30
0.0
 11
-200.5
 21
419.3159616
 31
0.0
  0
LINE
  8
ZUWAKU
  6
CONTINUOUS
 62
       7
  5
309
 10
-201.80259148
 20
418.01337012
 30
0.0
 11
-206.21488144
 21
413.60108017
 31
0.0
  0
LINE
  8
ZUWAKU
  6
CONTINUOUS
 62
       7
  5
30A
 10
-193.64156335
 20
425.32587012
 30
0.0
 11
-200.5
 21
418.46743347
 31
0.0
  0
LINE
  8
ZUWAKU
  6
CONTINUOUS
 62
       7
  5
30B
 10
-200.95406335
 20
418.01337012
 30
0.0
 11
-204.86287801
 21
414.10455545
 31
0.0
  0
LINE
  8
ZUWAKU
  6
CONTINUOUS
 62
       7
  5
30C
 10
-193.19476827
 20
424.92413706
 30
0.0
 11
-203.41896472
 21
414.69994061
 31
0.0
  0
LINE
  8
ZUWAKU
  6
CONTINUOUS
 62
       7
  5
30D
 10
-193.3172891
 20
423.95308809
 30
0.0
 11
-201.83715769
 21
415.4332195
 31
0.0
  0
LINE
  8
ZUWAKU
  6
CONTINUOUS
 62
       7
  5
30E
 10
-193.68735171
 20
422.73449735
 30
0.0
 11
-200.00780889
 21
416.41404016
 31
0.0
  0
LINE
  8
ZUWAKU
  6
CONTINUOUS
 62
       7
  5
30F
 10
-194.83202816
 20
420.74129276
 30
0.0
 11
-197.40384625
 21
418.16947467
 31
0.0
  0
ARC
  8
ZUWAKU
  6
CONTINUOUS
 62
       7
  5
310
 10
-241.72546646
 20
428.51337012
 30
0.0
 40
1.5
 50
270.0
 51
450.0
  0
LINE
  8
ZUWAKU
  6
CONTINUOUS
 62
       7
  5
311
 10
-250.960375
 20
422.51487012
 30
0.0
 11
-248.804125
 21
422.51487012
 31
0.0
  0
LINE
  8
ZUWAKU
  6
CONTINUOUS
 62
       7
  5
312
 10
-251.3125
 20
421.57587012
 30
0.0
 11
-248.15339756
 21
421.57587012
 31
0.0
  0
LINE
  8
ZUWAKU
  6
CONTINUOUS
 62
       7
  5
313
 10
-248.15339756
 20
421.57587012
 30
0.0
 11
-246.46646006
 21
426.07437012
 31
0.0
  0
LINE
  8
ZUWAKU
  6
CONTINUOUS
 62
       7
  5
314
 10
-246.11433506
 20
427.01337012
 30
0.0
 11
-244.98933506
 21
430.01337012
 31
0.0
  0
LINE
  8
ZUWAKU
  6
CONTINUOUS
 62
       7
  5
315
 10
-246.46646006
 20
426.07437012
 30
0.0
 11
-245.79263043
 21
426.07437012
 31
0.0
  0
LINE
  8
ZUWAKU
  6
CONTINUOUS
 62
       7
  5
316
 10
-244.71401789
 20
426.07437012
 30
0.0
 11
-241.72546646
 21
426.07437012
 31
0.0
  0
LINE
  8
ZUWAKU
  6
CONTINUOUS
 62
       7
  5
317
 10
-242.70212658
 20
422.51487012
 30
0.0
 11
-244.71401789
 21
426.07437012
 31
0.0
  0
ARC
  8
ZUWAKU
  6
CONTINUOUS
 62
       7
  5
318
 10
-241.72546646
 20
428.51337012
 30
0.0
 40
2.4375
 50
270.0
 51
450.0
  0
POLYLINE
  8
ZUWAKU
  6
CONTINUOUS
 62
       7
  5
319
 66
       1
 10
0.0
 20
0.0
 30
0.0
 70
     129
  0
VERTEX
  8
ZUWAKU
  6
CONTINUOUS
 62
       7
  5
5A4
 10
-238.86680268
 20
423.2367972
 30
0.0
  0
VERTEX
  8
ZUWAKU
  6
CONTINUOUS
 62
       7
  5
5A5
 10
-238.85232679
 20
423.22941656
 30
0.0
  0
VERTEX
  8
ZUWAKU
  6
CONTINUOUS
 62
       7
  5
5A6
 10
-238.83744304
 20
423.22284314
 30
0.0
  0
VERTEX
  8
ZUWAKU
  6
CONTINUOUS
 62
       7
  5
5A7
 10
-238.82217755
 20
423.21708849
 30
0.0
  0
VERTEX
  8
ZUWAKU
  6
CONTINUOUS
 62
       7
  5
5A8
 10
-238.80655711
 20
423.21216269
 30
0.0
  0
VERTEX
  8
ZUWAKU
  6
CONTINUOUS
 62
       7
  5
5A9
 10
-238.79060912
 20
423.2080744
 30
0.0
  0
VERTEX
  8
ZUWAKU
  6
CONTINUOUS
 62
       7
  5
5AA
 10
-238.77436155
 20
423.20483077
 30
0.0
  0
VERTEX
  8
ZUWAKU
  6
CONTINUOUS
 62
       7
  5
5AB
 10
-238.7578429
 20
423.20243751
 30
0.0
  0
VERTEX
  8
ZUWAKU
  6
CONTINUOUS
 62
       7
  5
5AC
 10
-238.74108217
 20
423.20089881
 30
0.0
  0
VERTEX
  8
ZUWAKU
  6
CONTINUOUS
 62
       7
  5
5AD
 10
-238.72410875
 20
423.20021737
 30
0.0
  0
VERTEX
  8
ZUWAKU
  6
CONTINUOUS
 62
       7
  5
5AE
 10
-238.70695241
 20
423.20039438
 30
0.0
  0
VERTEX
  8
ZUWAKU
  6
CONTINUOUS
 62
       7
  5
5AF
 10
-238.68964326
 20
423.20142954
 30
0.0
  0
VERTEX
  8
ZUWAKU
  6
CONTINUOUS
 62
       7
  5
5B0
 10
-238.67221167
 20
423.20332102
 30
0.0
  0
VERTEX
  8
ZUWAKU
  6
CONTINUOUS
 62
       7
  5
5B1
 10
-238.65468821
 20
423.20606552
 30
0.0
  0
VERTEX
  8
ZUWAKU
  6
CONTINUOUS
 62
       7
  5
5B2
 10
-238.63710363
 20
423.20965822
 30
0.0
  0
VERTEX
  8
ZUWAKU
  6
CONTINUOUS
 62
       7
  5
5B3
 10
-238.61948877
 20
423.2140928
 30
0.0
  0
VERTEX
  8
ZUWAKU
  6
CONTINUOUS
 62
       7
  5
5B4
 10
-238.60187454
 20
423.2193615
 30
0.0
  0
VERTEX
  8
ZUWAKU
  6
CONTINUOUS
 62
       7
  5
5B5
 10
-238.58429184
 20
423.22545507
 30
0.0
  0
VERTEX
  8
ZUWAKU
  6
CONTINUOUS
 62
       7
  5
5B6
 10
-238.56677151
 20
423.23236282
 30
0.0
  0
VERTEX
  8
ZUWAKU
  6
CONTINUOUS
 62
       7
  5
5B7
 10
-238.5493443
 20
423.24007263
 30
0.0
  0
VERTEX
  8
ZUWAKU
  6
CONTINUOUS
 62
       7
  5
5B8
 10
-238.53204077
 20
423.24857098
 30
0.0
  0
VERTEX
  8
ZUWAKU
  6
CONTINUOUS
 62
       7
  5
5B9
 10
-238.51489128
 20
423.25784295
 30
0.0
  0
VERTEX
  8
ZUWAKU
  6
CONTINUOUS
 62
       7
  5
5BA
 10
-238.49792592
 20
423.26787229
 30
0.0
  0
VERTEX
  8
ZUWAKU
  6
CONTINUOUS
 62
       7
  5
5BB
 10
-238.48117445
 20
423.27864139
 30
0.0
  0
VERTEX
  8
ZUWAKU
  6
CONTINUOUS
 62
       7
  5
5BC
 10
-238.46466626
 20
423.29013136
 30
0.0
  0
VERTEX
  8
ZUWAKU
  6
CONTINUOUS
 62
       7
  5
5BD
 10
-238.44843031
 20
423.30232205
 30
0.0
  0
VERTEX
  8
ZUWAKU
  6
CONTINUOUS
 62
       7
  5
5BE
 10
-238.43249508
 20
423.31519207
 30
0.0
  0
VERTEX
  8
ZUWAKU
  6
CONTINUOUS
 62
       7
  5
5BF
 10
-238.41688853
 20
423.32871884
 30
0.0
  0
VERTEX
  8
ZUWAKU
  6
CONTINUOUS
 62
       7
  5
5C0
 10
-238.40163804
 20
423.34287862
 30
0.0
  0
VERTEX
  8
ZUWAKU
  6
CONTINUOUS
 62
       7
  5
5C1
 10
-238.38677036
 20
423.35764659
 30
0.0
  0
VERTEX
  8
ZUWAKU
  6
CONTINUOUS
 62
       7
  5
5C2
 10
-238.37231157
 20
423.37299683
 30
0.0
  0
VERTEX
  8
ZUWAKU
  6
CONTINUOUS
 62
       7
  5
5C3
 10
-238.35828704
 20
423.38890241
 30
0.0
  0
VERTEX
  8
ZUWAKU
  6
CONTINUOUS
 62
       7
  5
5C4
 10
-238.34472138
 20
423.40533543
 30
0.0
  0
VERTEX
  8
ZUWAKU
  6
CONTINUOUS
 62
       7
  5
5C5
 10
-238.33163839
 20
423.42226706
 30
0.0
  0
VERTEX
  8
ZUWAKU
  6
CONTINUOUS
 62
       7
  5
5C6
 10
-238.319061
 20
423.43966759
 30
0.0
  0
VERTEX
  8
ZUWAKU
  6
CONTINUOUS
 62
       7
  5
5C7
 10
-238.3070113
 20
423.4575065
 30
0.0
  0
VERTEX
  8
ZUWAKU
  6
CONTINUOUS
 62
       7
  5
5C8
 10
-238.29551042
 20
423.47575249
 30
0.0
  0
VERTEX
  8
ZUWAKU
  6
CONTINUOUS
 62
       7
  5
5C9
 10
-238.28457853
 20
423.49437356
 30
0.0
  0
VERTEX
  8
ZUWAKU
  6
CONTINUOUS
 62
       7
  5
5CA
 10
-238.27423482
 20
423.51333703
 30
0.0
  0
VERTEX
  8
ZUWAKU
  6
CONTINUOUS
 62
       7
  5
5CB
 10
-238.26449743
 20
423.53260964
 30
0.0
  0
VERTEX
  8
ZUWAKU
  6
CONTINUOUS
 62
       7
  5
5CC
 10
-238.25538344
 20
423.55215758
 30
0.0
  0
VERTEX
  8
ZUWAKU
  6
CONTINUOUS
 62
       7
  5
5CD
 10
-238.24690885
 20
423.57194655
 30
0.0
  0
VERTEX
  8
ZUWAKU
  6
CONTINUOUS
 62
       7
  5
5CE
 10
-238.23908851
 20
423.59194183
 30
0.0
  0
VERTEX
  8
ZUWAKU
  6
CONTINUOUS
 62
       7
  5
5CF
 10
-238.23193615
 20
423.61210835
 30
0.0
  0
VERTEX
  8
ZUWAKU
  6
CONTINUOUS
 62
       7
  5
5D0
 10
-238.22546432
 20
423.63241073
 30
0.0
  0
VERTEX
  8
ZUWAKU
  6
CONTINUOUS
 62
       7
  5
5D1
 10
-238.21968437
 20
423.65281336
 30
0.0
  0
VERTEX
  8
ZUWAKU
  6
CONTINUOUS
 62
       7
  5
5D2
 10
-238.21460645
 20
423.67328043
 30
0.0
  0
VERTEX
  8
ZUWAKU
  6
CONTINUOUS
 62
       7
  5
5D3
 10
-238.21023945
 20
423.69377604
 30
0.0
  0
VERTEX
  8
ZUWAKU
  6
CONTINUOUS
 62
       7
  5
5D4
 10
-238.20659104
 20
423.71426424
 30
0.0
  0
VERTEX
  8
ZUWAKU
  6
CONTINUOUS
 62
       7
  5
5D5
 10
-238.20366762
 20
423.73470908
 30
0.0
  0
VERTEX
  8
ZUWAKU
  6
CONTINUOUS
 62
       7
  5
5D6
 10
-238.20147432
 20
423.7550747
 30
0.0
  0
VERTEX
  8
ZUWAKU
  6
CONTINUOUS
 62
       7
  5
5D7
 10
-238.20001499
 20
423.77532536
 30
0.0
  0
VERTEX
  8
ZUWAKU
  6
CONTINUOUS
 62
       7
  5
5D8
 10
-238.19929219
 20
423.79542554
 30
0.0
  0
VERTEX
  8
ZUWAKU
  6
CONTINUOUS
 62
       7
  5
5D9
 10
-238.19930718
 20
423.81533999
 30
0.0
  0
VERTEX
  8
ZUWAKU
  6
CONTINUOUS
 62
       7
  5
5DA
 10
-238.20005994
 20
423.83503375
 30
0.0
  0
VERTEX
  8
ZUWAKU
  6
CONTINUOUS
 62
       7
  5
5DB
 10
-238.20154915
 20
423.85447229
 30
0.0
  0
VERTEX
  8
ZUWAKU
  6
CONTINUOUS
 62
       7
  5
5DC
 10
-238.20377219
 20
423.87362149
 30
0.0
  0
VERTEX
  8
ZUWAKU
  6
CONTINUOUS
 62
       7
  5
5DD
 10
-238.20672517
 20
423.89244777
 30
0.0
  0
VERTEX
  8
ZUWAKU
  6
CONTINUOUS
 62
       7
  5
5DE
 10
-238.21040291
 20
423.9109181
 30
0.0
  0
VERTEX
  8
ZUWAKU
  6
CONTINUOUS
 62
       7
  5
5DF
 10
-238.21479895
 20
423.92900008
 30
0.0
  0
VERTEX
  8
ZUWAKU
  6
CONTINUOUS
 62
       7
  5
5E0
 10
-238.21990558
 20
423.94666197
 30
0.0
  0
VERTEX
  8
ZUWAKU
  6
CONTINUOUS
 62
       7
  5
5E1
 10
-238.22571385
 20
423.96387281
 30
0.0
  0
VERTEX
  8
ZUWAKU
  6
CONTINUOUS
 62
       7
  5
5E2
 10
-238.23221356
 20
423.98060239
 30
0.0
  0
VERTEX
  8
ZUWAKU
  6
CONTINUOUS
 62
       7
  5
5E3
 10
-238.2393933
 20
423.99682136
 30
0.0
  0
VERTEX
  8
ZUWAKU
  6
CONTINUOUS
 62
       7
  5
5E4
 10
-238.2472405
 20
424.01250128
 30
0.0
  0
VERTEX
  8
ZUWAKU
  6
CONTINUOUS
 62
       7
  5
5E5
 10
-238.25574137
 20
424.02761463
 30
0.0
  0
VERTEX
  8
ZUWAKU
  6
CONTINUOUS
 62
       7
  5
5E6
 10
-238.264881
 20
424.0421349
 30
0.0
  0
VERTEX
  8
ZUWAKU
  6
CONTINUOUS
 62
       7
  5
5E7
 10
-238.27464337
 20
424.05603661
 30
0.0
  0
VERTEX
  8
ZUWAKU
  6
CONTINUOUS
 62
       7
  5
5E8
 10
-238.28501134
 20
424.06929539
 30
0.0
  0
VERTEX
  8
ZUWAKU
  6
CONTINUOUS
 62
       7
  5
5E9
 10
-238.29596672
 20
424.08188796
 30
0.0
  0
VERTEX
  8
ZUWAKU
  6
CONTINUOUS
 62
       7
  5
5EA
 10
-238.3074903
 20
424.09379223
 30
0.0
  0
VERTEX
  8
ZUWAKU
  6
CONTINUOUS
 62
       7
  5
5EB
 10
-238.31956186
 20
424.10498733
 30
0.0
  0
VERTEX
  8
ZUWAKU
  6
CONTINUOUS
 62
       7
  5
5EC
 10
-238.33216022
 20
424.11545361
 30
0.0
  0
VERTEX
  8
ZUWAKU
  6
CONTINUOUS
 62
       7
  5
5ED
 10
-238.34526328
 20
424.1251727
 30
0.0
  0
VERTEX
  8
ZUWAKU
  6
CONTINUOUS
 62
       7
  5
5EE
 10
-238.35884805
 20
424.13412757
 30
0.0
  0
VERTEX
  8
ZUWAKU
  6
CONTINUOUS
 62
       7
  5
5EF
 10
-238.3728907
 20
424.1423025
 30
0.0
  0
VERTEX
  8
ZUWAKU
  6
CONTINUOUS
 62
       7
  5
5F0
 10
-238.3873666
 20
424.14968315
 30
0.0
  0
VERTEX
  8
ZUWAKU
  6
CONTINUOUS
 62
       7
  5
5F1
 10
-238.40225035
 20
424.15625656
 30
0.0
  0
VERTEX
  8
ZUWAKU
  6
CONTINUOUS
 62
       7
  5
5F2
 10
-238.41751583
 20
424.16201122
 30
0.0
  0
VERTEX
  8
ZUWAKU
  6
CONTINUOUS
 62
       7
  5
5F3
 10
-238.43313628
 20
424.16693701
 30
0.0
  0
VERTEX
  8
ZUWAKU
  6
CONTINUOUS
 62
       7
  5
5F4
 10
-238.44908427
 20
424.17102531
 30
0.0
  0
VERTEX
  8
ZUWAKU
  6
CONTINUOUS
 62
       7
  5
5F5
 10
-238.46533184
 20
424.17426893
 30
0.0
  0
VERTEX
  8
ZUWAKU
  6
CONTINUOUS
 62
       7
  5
5F6
 10
-238.48185049
 20
424.17666219
 30
0.0
  0
VERTEX
  8
ZUWAKU
  6
CONTINUOUS
 62
       7
  5
5F7
 10
-238.49861122
 20
424.1782009
 30
0.0
  0
VERTEX
  8
ZUWAKU
  6
CONTINUOUS
 62
       7
  5
5F8
 10
-238.51558464
 20
424.17888234
 30
0.0
  0
VERTEX
  8
ZUWAKU
  6
CONTINUOUS
 62
       7
  5
5F9
 10
-238.53274098
 20
424.17870533
 30
0.0
  0
VERTEX
  8
ZUWAKU
  6
CONTINUOUS
 62
       7
  5
5FA
 10
-238.55005012
 20
424.17767017
 30
0.0
  0
VERTEX
  8
ZUWAKU
  6
CONTINUOUS
 62
       7
  5
5FB
 10
-238.56748172
 20
424.17577868
 30
0.0
  0
VERTEX
  8
ZUWAKU
  6
CONTINUOUS
 62
       7
  5
5FC
 10
-238.58500518
 20
424.17303418
 30
0.0
  0
VERTEX
  8
ZUWAKU
  6
CONTINUOUS
 62
       7
  5
5FD
 10
-238.60258976
 20
424.16944149
 30
0.0
  0
VERTEX
  8
ZUWAKU
  6
CONTINUOUS
 62
       7
  5
5FE
 10
-238.62020462
 20
424.1650069
 30
0.0
  0
VERTEX
  8
ZUWAKU
  6
CONTINUOUS
 62
       7
  5
5FF
 10
-238.63781885
 20
424.1597382
 30
0.0
  0
VERTEX
  8
ZUWAKU
  6
CONTINUOUS
 62
       7
  5
600
 10
-238.65540155
 20
424.15364463
 30
0.0
  0
VERTEX
  8
ZUWAKU
  6
CONTINUOUS
 62
       7
  5
601
 10
-238.67292188
 20
424.14673688
 30
0.0
  0
VERTEX
  8
ZUWAKU
  6
CONTINUOUS
 62
       7
  5
602
 10
-238.69034909
 20
424.13902707
 30
0.0
  0
VERTEX
  8
ZUWAKU
  6
CONTINUOUS
 62
       7
  5
603
 10
-238.70765262
 20
424.13052873
 30
0.0
  0
VERTEX
  8
ZUWAKU
  6
CONTINUOUS
 62
       7
  5
604
 10
-238.72480211
 20
424.12125675
 30
0.0
  0
VERTEX
  8
ZUWAKU
  6
CONTINUOUS
 62
       7
  5
605
 10
-238.74176747
 20
424.11122742
 30
0.0
  0
VERTEX
  8
ZUWAKU
  6
CONTINUOUS
 62
       7
  5
606
 10
-238.75851894
 20
424.10045832
 30
0.0
  0
VERTEX
  8
ZUWAKU
  6
CONTINUOUS
 62
       7
  5
607
 10
-238.77502713
 20
424.08896834
 30
0.0
  0
VERTEX
  8
ZUWAKU
  6
CONTINUOUS
 62
       7
  5
608
 10
-238.79126308
 20
424.07677766
 30
0.0
  0
VERTEX
  8
ZUWAKU
  6
CONTINUOUS
 62
       7
  5
609
 10
-238.80719831
 20
424.06390764
 30
0.0
  0
VERTEX
  8
ZUWAKU
  6
CONTINUOUS
 62
       7
  5
60A
 10
-238.82280486
 20
424.05038087
 30
0.0
  0
VERTEX
  8
ZUWAKU
  6
CONTINUOUS
 62
       7
  5
60B
 10
-238.83805535
 20
424.03622108
 30
0.0
  0
VERTEX
  8
ZUWAKU
  6
CONTINUOUS
 62
       7
  5
60C
 10
-238.85292303
 20
424.02145311
 30
0.0
  0
VERTEX
  8
ZUWAKU
  6
CONTINUOUS
 62
       7
  5
60D
 10
-238.86738182
 20
424.00610287
 30
0.0
  0
VERTEX
  8
ZUWAKU
  6
CONTINUOUS
 62
       7
  5
60E
 10
-238.88140634
 20
423.99019729
 30
0.0
  0
VERTEX
  8
ZUWAKU
  6
CONTINUOUS
 62
       7
  5
60F
 10
-238.89497201
 20
423.97376427
 30
0.0
  0
VERTEX
  8
ZUWAKU
  6
CONTINUOUS
 62
       7
  5
610
 10
-238.908055
 20
423.95683265
 30
0.0
  0
VERTEX
  8
ZUWAKU
  6
CONTINUOUS
 62
       7
  5
611
 10
-238.92063239
 20
423.93943211
 30
0.0
  0
VERTEX
  8
ZUWAKU
  6
CONTINUOUS
 62
       7
  5
612
 10
-238.93268209
 20
423.9215932
 30
0.0
  0
VERTEX
  8
ZUWAKU
  6
CONTINUOUS
 62
       7
  5
613
 10
-238.94418297
 20
423.90334721
 30
0.0
  0
VERTEX
  8
ZUWAKU
  6
CONTINUOUS
 62
       7
  5
614
 10
-238.95511486
 20
423.88472614
 30
0.0
  0
VERTEX
  8
ZUWAKU
  6
CONTINUOUS
 62
       7
  5
615
 10
-238.96545857
 20
423.86576267
 30
0.0
  0
VERTEX
  8
ZUWAKU
  6
CONTINUOUS
 62
       7
  5
616
 10
-238.97519596
 20
423.84649006
 30
0.0
  0
VERTEX
  8
ZUWAKU
  6
CONTINUOUS
 62
       7
  5
617
 10
-238.98430995
 20
423.82694213
 30
0.0
  0
VERTEX
  8
ZUWAKU
  6
CONTINUOUS
 62
       7
  5
618
 10
-238.99278454
 20
423.80715316
 30
0.0
  0
VERTEX
  8
ZUWAKU
  6
CONTINUOUS
 62
       7
  5
619
 10
-239.00060488
 20
423.78715787
 30
0.0
  0
VERTEX
  8
ZUWAKU
  6
CONTINUOUS
 62
       7
  5
61A
 10
-239.00775724
 20
423.76699135
 30
0.0
  0
VERTEX
  8
ZUWAKU
  6
CONTINUOUS
 62
       7
  5
61B
 10
-239.01422907
 20
423.74668897
 30
0.0
  0
VERTEX
  8
ZUWAKU
  6
CONTINUOUS
 62
       7
  5
61C
 10
-239.02000901
 20
423.72628635
 30
0.0
  0
VERTEX
  8
ZUWAKU
  6
CONTINUOUS
 62
       7
  5
61D
 10
-239.02508694
 20
423.70581928
 30
0.0
  0
VERTEX
  8
ZUWAKU
  6
CONTINUOUS
 62
       7
  5
61E
 10
-239.02945394
 20
423.68532366
 30
0.0
  0
VERTEX
  8
ZUWAKU
  6
CONTINUOUS
 62
       7
  5
61F
 10
-239.03310235
 20
423.66483547
 30
0.0
  0
VERTEX
  8
ZUWAKU
  6
CONTINUOUS
 62
       7
  5
620
 10
-239.03602577
 20
423.64439062
 30
0.0
  0
VERTEX
  8
ZUWAKU
  6
CONTINUOUS
 62
       7
  5
621
 10
-239.03821907
 20
423.62402501
 30
0.0
  0
VERTEX
  8
ZUWAKU
  6
CONTINUOUS
 62
       7
  5
622
 10
-239.0396784
 20
423.60377434
 30
0.0
  0
VERTEX
  8
ZUWAKU
  6
CONTINUOUS
 62
       7
  5
623
 10
-239.0404012
 20
423.58367416
 30
0.0
  0
VERTEX
  8
ZUWAKU
  6
CONTINUOUS
 62
       7
  5
624
 10
-239.04038621
 20
423.56375972
 30
0.0
  0
VERTEX
  8
ZUWAKU
  6
CONTINUOUS
 62
       7
  5
625
 10
-239.03963345
 20
423.54406595
 30
0.0
  0
VERTEX
  8
ZUWAKU
  6
CONTINUOUS
 62
       7
  5
626
 10
-239.03814424
 20
423.52462742
 30
0.0
  0
VERTEX
  8
ZUWAKU
  6
CONTINUOUS
 62
       7
  5
627
 10
-239.0359212
 20
423.50547821
 30
0.0
  0
VERTEX
  8
ZUWAKU
  6
CONTINUOUS
 62
       7
  5
628
 10
-239.03296821
 20
423.48665193
 30
0.0
  0
VERTEX
  8
ZUWAKU
  6
CONTINUOUS
 62
       7
  5
629
 10
-239.02929048
 20
423.4681816
 30
0.0
  0
VERTEX
  8
ZUWAKU
  6
CONTINUOUS
 62
       7
  5
62A
 10
-239.02489444
 20
423.45009963
 30
0.0
  0
VERTEX
  8
ZUWAKU
  6
CONTINUOUS
 62
       7
  5
62B
 10
-239.0197878
 20
423.43243773
 30
0.0
  0
VERTEX
  8
ZUWAKU
  6
CONTINUOUS
 62
       7
  5
62C
 10
-239.01397954
 20
423.41522689
 30
0.0
  0
VERTEX
  8
ZUWAKU
  6
CONTINUOUS
 62
       7
  5
62D
 10
-239.00747983
 20
423.39849732
 30
0.0
  0
VERTEX
  8
ZUWAKU
  6
CONTINUOUS
 62
       7
  5
62E
 10
-239.00030008
 20
423.38227834
 30
0.0
  0
VERTEX
  8
ZUWAKU
  6
CONTINUOUS
 62
       7
  5
62F
 10
-238.99245289
 20
423.36659843
 30
0.0
  0
VERTEX
  8
ZUWAKU
  6
CONTINUOUS
 62
       7
  5
630
 10
-238.98395202
 20
423.35148508
 30
0.0
  0
VERTEX
  8
ZUWAKU
  6
CONTINUOUS
 62
       7
  5
631
 10
-238.97481239
 20
423.33696481
 30
0.0
  0
VERTEX
  8
ZUWAKU
  6
CONTINUOUS
 62
       7
  5
632
 10
-238.96505002
 20
423.32306309
 30
0.0
  0
VERTEX
  8
ZUWAKU
  6
CONTINUOUS
 62
       7
  5
633
 10
-238.95468205
 20
423.30980432
 30
0.0
  0
VERTEX
  8
ZUWAKU
  6
CONTINUOUS
 62
       7
  5
634
 10
-238.94372667
 20
423.29721175
 30
0.0
  0
VERTEX
  8
ZUWAKU
  6
CONTINUOUS
 62
       7
  5
635
 10
-238.93220309
 20
423.28530747
 30
0.0
  0
VERTEX
  8
ZUWAKU
  6
CONTINUOUS
 62
       7
  5
636
 10
-238.92013153
 20
423.27411238
 30
0.0
  0
VERTEX
  8
ZUWAKU
  6
CONTINUOUS
 62
       7
  5
637
 10
-238.90753317
 20
423.2636461
 30
0.0
  0
VERTEX
  8
ZUWAKU
  6
CONTINUOUS
 62
       7
  5
638
 10
-238.89443011
 20
423.253927
 30
0.0
  0
VERTEX
  8
ZUWAKU
  6
CONTINUOUS
 62
       7
  5
639
 10
-238.88084534
 20
423.24497213
 30
0.0
  0
SEQEND
  8
ZUWAKU
  6
CONTINUOUS
 62
       7
  5
63A
  0
LINE
  8
ZUWAKU
  6
CONTINUOUS
 62
       7
  5
31A
 10
-243.25
 20
421.57587012
 30
0.0
 11
-239.875
 21
421.57587012
 31
0.0
  0
POLYLINE
  8
ZUWAKU
  6
CONTINUOUS
 62
       7
  5
31B
 66
       1
 10
0.0
 20
0.0
 30
0.0
 70
     128
  0
VERTEX
  8
ZUWAKU
  6
CONTINUOUS
 62
       7
  5
63B
 10
-237.93361859
 20
422.57156153
 30
0.0
  0
VERTEX
  8
ZUWAKU
  6
CONTINUOUS
 62
       7
  5
63C
 10
-237.89778046
 20
422.60632677
 30
0.0
  0
VERTEX
  8
ZUWAKU
  6
CONTINUOUS
 62
       7
  5
63D
 10
-237.86265021
 20
422.64215394
 30
0.0
  0
VERTEX
  8
ZUWAKU
  6
CONTINUOUS
 62
       7
  5
63E
 10
-237.82826227
 20
422.67900793
 30
0.0
  0
VERTEX
  8
ZUWAKU
  6
CONTINUOUS
 62
       7
  5
63F
 10
-237.79465037
 20
422.71685261
 30
0.0
  0
VERTEX
  8
ZUWAKU
  6
CONTINUOUS
 62
       7
  5
640
 10
-237.76184746
 20
422.75565088
 30
0.0
  0
VERTEX
  8
ZUWAKU
  6
CONTINUOUS
 62
       7
  5
641
 10
-237.72988568
 20
422.79536469
 30
0.0
  0
VERTEX
  8
ZUWAKU
  6
CONTINUOUS
 62
       7
  5
642
 10
-237.69879638
 20
422.83595513
 30
0.0
  0
VERTEX
  8
ZUWAKU
  6
CONTINUOUS
 62
       7
  5
643
 10
-237.66861004
 20
422.87738239
 30
0.0
  0
VERTEX
  8
ZUWAKU
  6
CONTINUOUS
 62
       7
  5
644
 10
-237.63935624
 20
422.91960586
 30
0.0
  0
VERTEX
  8
ZUWAKU
  6
CONTINUOUS
 62
       7
  5
645
 10
-237.61106367
 20
422.96258414
 30
0.0
  0
VERTEX
  8
ZUWAKU
  6
CONTINUOUS
 62
       7
  5
646
 10
-237.58376007
 20
423.00627511
 30
0.0
  0
VERTEX
  8
ZUWAKU
  6
CONTINUOUS
 62
       7
  5
647
 10
-237.55747219
 20
423.05063593
 30
0.0
  0
VERTEX
  8
ZUWAKU
  6
CONTINUOUS
 62
       7
  5
648
 10
-237.53222582
 20
423.09562311
 30
0.0
  0
VERTEX
  8
ZUWAKU
  6
CONTINUOUS
 62
       7
  5
649
 10
-237.50804569
 20
423.14119255
 30
0.0
  0
VERTEX
  8
ZUWAKU
  6
CONTINUOUS
 62
       7
  5
64A
 10
-237.48495553
 20
423.18729957
 30
0.0
  0
VERTEX
  8
ZUWAKU
  6
CONTINUOUS
 62
       7
  5
64B
 10
-237.46297796
 20
423.23389898
 30
0.0
  0
VERTEX
  8
ZUWAKU
  6
CONTINUOUS
 62
       7
  5
64C
 10
-237.44213453
 20
423.28094508
 30
0.0
  0
VERTEX
  8
ZUWAKU
  6
CONTINUOUS
 62
       7
  5
64D
 10
-237.42244568
 20
423.32839176
 30
0.0
  0
VERTEX
  8
ZUWAKU
  6
CONTINUOUS
 62
       7
  5
64E
 10
-237.4039307
 20
423.37619251
 30
0.0
  0
VERTEX
  8
ZUWAKU
  6
CONTINUOUS
 62
       7
  5
64F
 10
-237.38660774
 20
423.42430045
 30
0.0
  0
VERTEX
  8
ZUWAKU
  6
CONTINUOUS
 62
       7
  5
650
 10
-237.3704938
 20
423.47266843
 30
0.0
  0
VERTEX
  8
ZUWAKU
  6
CONTINUOUS
 62
       7
  5
651
 10
-237.35560466
 20
423.52124904
 30
0.0
  0
VERTEX
  8
ZUWAKU
  6
CONTINUOUS
 62
       7
  5
652
 10
-237.34195493
 20
423.56999463
 30
0.0
  0
VERTEX
  8
ZUWAKU
  6
CONTINUOUS
 62
       7
  5
653
 10
-237.32955798
 20
423.61885744
 30
0.0
  0
VERTEX
  8
ZUWAKU
  6
CONTINUOUS
 62
       7
  5
654
 10
-237.31842597
 20
423.66778954
 30
0.0
  0
VERTEX
  8
ZUWAKU
  6
CONTINUOUS
 62
       7
  5
655
 10
-237.30856982
 20
423.71674298
 30
0.0
  0
VERTEX
  8
ZUWAKU
  6
CONTINUOUS
 62
       7
  5
656
 10
-237.29999917
 20
423.76566976
 30
0.0
  0
VERTEX
  8
ZUWAKU
  6
CONTINUOUS
 62
       7
  5
657
 10
-237.29272245
 20
423.81452192
 30
0.0
  0
VERTEX
  8
ZUWAKU
  6
CONTINUOUS
 62
       7
  5
658
 10
-237.28674677
 20
423.86325156
 30
0.0
  0
VERTEX
  8
ZUWAKU
  6
CONTINUOUS
 62
       7
  5
659
 10
-237.282078
 20
423.91181091
 30
0.0
  0
VERTEX
  8
ZUWAKU
  6
CONTINUOUS
 62
       7
  5
65A
 10
-237.27872072
 20
423.96015236
 30
0.0
  0
VERTEX
  8
ZUWAKU
  6
CONTINUOUS
 62
       7
  5
65B
 10
-237.27667822
 20
424.00822853
 30
0.0
  0
VERTEX
  8
ZUWAKU
  6
CONTINUOUS
 62
       7
  5
65C
 10
-237.27595249
 20
424.05599229
 30
0.0
  0
VERTEX
  8
ZUWAKU
  6
CONTINUOUS
 62
       7
  5
65D
 10
-237.27654426
 20
424.1033968
 30
0.0
  0
VERTEX
  8
ZUWAKU
  6
CONTINUOUS
 62
       7
  5
65E
 10
-237.27845293
 20
424.15039559
 30
0.0
  0
VERTEX
  8
ZUWAKU
  6
CONTINUOUS
 62
       7
  5
65F
 10
-237.28167665
 20
424.19694259
 30
0.0
  0
VERTEX
  8
ZUWAKU
  6
CONTINUOUS
 62
       7
  5
660
 10
-237.28621224
 20
424.24299217
 30
0.0
  0
VERTEX
  8
ZUWAKU
  6
CONTINUOUS
 62
       7
  5
661
 10
-237.29205527
 20
424.28849918
 30
0.0
  0
VERTEX
  8
ZUWAKU
  6
CONTINUOUS
 62
       7
  5
662
 10
-237.2992
 20
424.33341901
 30
0.0
  0
VERTEX
  8
ZUWAKU
  6
CONTINUOUS
 62
       7
  5
663
 10
-237.30763943
 20
424.37770761
 30
0.0
  0
VERTEX
  8
ZUWAKU
  6
CONTINUOUS
 62
       7
  5
664
 10
-237.31736529
 20
424.42132158
 30
0.0
  0
VERTEX
  8
ZUWAKU
  6
CONTINUOUS
 62
       7
  5
665
 10
-237.32836804
 20
424.46421816
 30
0.0
  0
VERTEX
  8
ZUWAKU
  6
CONTINUOUS
 62
       7
  5
666
 10
-237.3406369
 20
424.50635529
 30
0.0
  0
VERTEX
  8
ZUWAKU
  6
CONTINUOUS
 62
       7
  5
667
 10
-237.35415983
 20
424.54769166
 30
0.0
  0
VERTEX
  8
ZUWAKU
  6
CONTINUOUS
 62
       7
  5
668
 10
-237.36892358
 20
424.58818674
 30
0.0
  0
VERTEX
  8
ZUWAKU
  6
CONTINUOUS
 62
       7
  5
669
 10
-237.38491368
 20
424.62780085
 30
0.0
  0
VERTEX
  8
ZUWAKU
  6
CONTINUOUS
 62
       7
  5
66A
 10
-237.40211445
 20
424.66649514
 30
0.0
  0
VERTEX
  8
ZUWAKU
  6
CONTINUOUS
 62
       7
  5
66B
 10
-237.42050902
 20
424.70423168
 30
0.0
  0
VERTEX
  8
ZUWAKU
  6
CONTINUOUS
 62
       7
  5
66C
 10
-237.44007937
 20
424.74097347
 30
0.0
  0
VERTEX
  8
ZUWAKU
  6
CONTINUOUS
 62
       7
  5
66D
 10
-237.46080631
 20
424.77668449
 30
0.0
  0
VERTEX
  8
ZUWAKU
  6
CONTINUOUS
 62
       7
  5
66E
 10
-237.48266952
 20
424.81132974
 30
0.0
  0
VERTEX
  8
ZUWAKU
  6
CONTINUOUS
 62
       7
  5
66F
 10
-237.50564757
 20
424.84487525
 30
0.0
  0
VERTEX
  8
ZUWAKU
  6
CONTINUOUS
 62
       7
  5
670
 10
-237.52971792
 20
424.87728813
 30
0.0
  0
VERTEX
  8
ZUWAKU
  6
CONTINUOUS
 62
       7
  5
671
 10
-237.55485698
 20
424.90853661
 30
0.0
  0
VERTEX
  8
ZUWAKU
  6
CONTINUOUS
 62
       7
  5
672
 10
-237.58104011
 20
424.93859005
 30
0.0
  0
VERTEX
  8
ZUWAKU
  6
CONTINUOUS
 62
       7
  5
673
 10
-237.60824164
 20
424.96741899
 30
0.0
  0
VERTEX
  8
ZUWAKU
  6
CONTINUOUS
 62
       7
  5
674
 10
-237.63643489
 20
424.99499517
 30
0.0
  0
VERTEX
  8
ZUWAKU
  6
CONTINUOUS
 62
       7
  5
675
 10
-237.66559224
 20
425.02129155
 30
0.0
  0
VERTEX
  8
ZUWAKU
  6
CONTINUOUS
 62
       7
  5
676
 10
-237.69568509
 20
425.04628236
 30
0.0
  0
VERTEX
  8
ZUWAKU
  6
CONTINUOUS
 62
       7
  5
677
 10
-237.72668395
 20
425.06994308
 30
0.0
  0
VERTEX
  8
ZUWAKU
  6
CONTINUOUS
 62
       7
  5
678
 10
-237.75855842
 20
425.09225054
 30
0.0
  0
VERTEX
  8
ZUWAKU
  6
CONTINUOUS
 62
       7
  5
679
 10
-237.79127726
 20
425.11318285
 30
0.0
  0
VERTEX
  8
ZUWAKU
  6
CONTINUOUS
 62
       7
  5
67A
 10
-237.82480839
 20
425.1327195
 30
0.0
  0
VERTEX
  8
ZUWAKU
  6
CONTINUOUS
 62
       7
  5
67B
 10
-237.85911894
 20
425.15084133
 30
0.0
  0
VERTEX
  8
ZUWAKU
  6
CONTINUOUS
 62
       7
  5
67C
 10
-237.89417527
 20
425.16753058
 30
0.0
  0
VERTEX
  8
ZUWAKU
  6
CONTINUOUS
 62
       7
  5
67D
 10
-237.92994302
 20
425.18277089
 30
0.0
  0
VERTEX
  8
ZUWAKU
  6
CONTINUOUS
 62
       7
  5
67E
 10
-237.96638711
 20
425.19654732
 30
0.0
  0
VERTEX
  8
ZUWAKU
  6
CONTINUOUS
 62
       7
  5
67F
 10
-238.00347182
 20
425.20884635
 30
0.0
  0
VERTEX
  8
ZUWAKU
  6
CONTINUOUS
 62
       7
  5
680
 10
-238.0411608
 20
425.21965594
 30
0.0
  0
VERTEX
  8
ZUWAKU
  6
CONTINUOUS
 62
       7
  5
681
 10
-238.0794171
 20
425.22896548
 30
0.0
  0
VERTEX
  8
ZUWAKU
  6
CONTINUOUS
 62
       7
  5
682
 10
-238.11820321
 20
425.23676586
 30
0.0
  0
VERTEX
  8
ZUWAKU
  6
CONTINUOUS
 62
       7
  5
683
 10
-238.1574811
 20
425.24304941
 30
0.0
  0
VERTEX
  8
ZUWAKU
  6
CONTINUOUS
 62
       7
  5
684
 10
-238.19721228
 20
425.24780999
 30
0.0
  0
VERTEX
  8
ZUWAKU
  6
CONTINUOUS
 62
       7
  5
685
 10
-238.23735779
 20
425.25104292
 30
0.0
  0
VERTEX
  8
ZUWAKU
  6
CONTINUOUS
 62
       7
  5
686
 10
-238.27787827
 20
425.25274504
 30
0.0
  0
VERTEX
  8
ZUWAKU
  6
CONTINUOUS
 62
       7
  5
687
 10
-238.318734
 20
425.25291467
 30
0.0
  0
VERTEX
  8
ZUWAKU
  6
CONTINUOUS
 62
       7
  5
688
 10
-238.35988493
 20
425.25155166
 30
0.0
  0
VERTEX
  8
ZUWAKU
  6
CONTINUOUS
 62
       7
  5
689
 10
-238.40129072
 20
425.24865733
 30
0.0
  0
VERTEX
  8
ZUWAKU
  6
CONTINUOUS
 62
       7
  5
68A
 10
-238.44291076
 20
425.24423452
 30
0.0
  0
VERTEX
  8
ZUWAKU
  6
CONTINUOUS
 62
       7
  5
68B
 10
-238.48470427
 20
425.23828758
 30
0.0
  0
VERTEX
  8
ZUWAKU
  6
CONTINUOUS
 62
       7
  5
68C
 10
-238.52663026
 20
425.23082233
 30
0.0
  0
VERTEX
  8
ZUWAKU
  6
CONTINUOUS
 62
       7
  5
68D
 10
-238.56864764
 20
425.22184608
 30
0.0
  0
VERTEX
  8
ZUWAKU
  6
CONTINUOUS
 62
       7
  5
68E
 10
-238.61071521
 20
425.21136764
 30
0.0
  0
VERTEX
  8
ZUWAKU
  6
CONTINUOUS
 62
       7
  5
68F
 10
-238.65279173
 20
425.19939729
 30
0.0
  0
VERTEX
  8
ZUWAKU
  6
CONTINUOUS
 62
       7
  5
690
 10
-238.69483595
 20
425.18594675
 30
0.0
  0
VERTEX
  8
ZUWAKU
  6
CONTINUOUS
 62
       7
  5
691
 10
-238.73680666
 20
425.17102921
 30
0.0
  0
VERTEX
  8
ZUWAKU
  6
CONTINUOUS
 62
       7
  5
692
 10
-238.77866271
 20
425.1546593
 30
0.0
  0
VERTEX
  8
ZUWAKU
  6
CONTINUOUS
 62
       7
  5
693
 10
-238.82036306
 20
425.13685307
 30
0.0
  0
VERTEX
  8
ZUWAKU
  6
CONTINUOUS
 62
       7
  5
694
 10
-238.86186684
 20
425.11762797
 30
0.0
  0
VERTEX
  8
ZUWAKU
  6
CONTINUOUS
 62
       7
  5
695
 10
-238.90313334
 20
425.09700284
 30
0.0
  0
VERTEX
  8
ZUWAKU
  6
CONTINUOUS
 62
       7
  5
696
 10
-238.94412213
 20
425.07499792
 30
0.0
  0
VERTEX
  8
ZUWAKU
  6
CONTINUOUS
 62
       7
  5
697
 10
-238.98479302
 20
425.05163477
 30
0.0
  0
VERTEX
  8
ZUWAKU
  6
CONTINUOUS
 62
       7
  5
698
 10
-239.02510612
 20
425.02693629
 30
0.0
  0
VERTEX
  8
ZUWAKU
  6
CONTINUOUS
 62
       7
  5
699
 10
-239.06502193
 20
425.00092671
 30
0.0
  0
VERTEX
  8
ZUWAKU
  6
CONTINUOUS
 62
       7
  5
69A
 10
-239.10450131
 20
424.97363151
 30
0.0
  0
VERTEX
  8
ZUWAKU
  6
CONTINUOUS
 62
       7
  5
69B
 10
-239.14350556
 20
424.94507745
 30
0.0
  0
VERTEX
  8
ZUWAKU
  6
CONTINUOUS
 62
       7
  5
69C
 10
-239.18199644
 20
424.91529254
 30
0.0
  0
VERTEX
  8
ZUWAKU
  6
CONTINUOUS
 62
       7
  5
69D
 10
-239.21993621
 20
424.88430597
 30
0.0
  0
VERTEX
  8
ZUWAKU
  6
CONTINUOUS
 62
       7
  5
69E
 10
-239.25728769
 20
424.85214811
 30
0.0
  0
VERTEX
  8
ZUWAKU
  6
CONTINUOUS
 62
       7
  5
69F
 10
-239.29401424
 20
424.8188505
 30
0.0
  0
VERTEX
  8
ZUWAKU
  6
CONTINUOUS
 62
       7
  5
6A0
 10
-239.33007988
 20
424.78444577
 30
0.0
  0
VERTEX
  8
ZUWAKU
  6
CONTINUOUS
 62
       7
  5
6A1
 10
-239.36544923
 20
424.74896766
 30
0.0
  0
VERTEX
  8
ZUWAKU
  6
CONTINUOUS
 62
       7
  5
6A2
 10
-239.40008763
 20
424.71245094
 30
0.0
  0
VERTEX
  8
ZUWAKU
  6
CONTINUOUS
 62
       7
  5
6A3
 10
-239.43396112
 20
424.67493143
 30
0.0
  0
VERTEX
  8
ZUWAKU
  6
CONTINUOUS
 62
       7
  5
6A4
 10
-239.46703649
 20
424.63644588
 30
0.0
  0
VERTEX
  8
ZUWAKU
  6
CONTINUOUS
 62
       7
  5
6A5
 10
-239.49928131
 20
424.59703205
 30
0.0
  0
VERTEX
  8
ZUWAKU
  6
CONTINUOUS
 62
       7
  5
6A6
 10
-239.53066398
 20
424.55672856
 30
0.0
  0
VERTEX
  8
ZUWAKU
  6
CONTINUOUS
 62
       7
  5
6A7
 10
-239.56115373
 20
424.51557494
 30
0.0
  0
VERTEX
  8
ZUWAKU
  6
CONTINUOUS
 62
       7
  5
6A8
 10
-239.59072066
 20
424.47361151
 30
0.0
  0
VERTEX
  8
ZUWAKU
  6
CONTINUOUS
 62
       7
  5
6A9
 10
-239.61933579
 20
424.43087943
 30
0.0
  0
VERTEX
  8
ZUWAKU
  6
CONTINUOUS
 62
       7
  5
6AA
 10
-239.64697107
 20
424.38742059
 30
0.0
  0
VERTEX
  8
ZUWAKU
  6
CONTINUOUS
 62
       7
  5
6AB
 10
-239.67359941
 20
424.34327758
 30
0.0
  0
VERTEX
  8
ZUWAKU
  6
CONTINUOUS
 62
       7
  5
6AC
 10
-239.69919469
 20
424.29849369
 30
0.0
  0
VERTEX
  8
ZUWAKU
  6
CONTINUOUS
 62
       7
  5
6AD
 10
-239.72373184
 20
424.25311282
 30
0.0
  0
VERTEX
  8
ZUWAKU
  6
CONTINUOUS
 62
       7
  5
6AE
 10
-239.74718678
 20
424.20717946
 30
0.0
  0
VERTEX
  8
ZUWAKU
  6
CONTINUOUS
 62
       7
  5
6AF
 10
-239.76953654
 20
424.16073864
 30
0.0
  0
VERTEX
  8
ZUWAKU
  6
CONTINUOUS
 62
       7
  5
6B0
 10
-239.79075919
 20
424.11383589
 30
0.0
  0
VERTEX
  8
ZUWAKU
  6
CONTINUOUS
 62
       7
  5
6B1
 10
-239.81083394
 20
424.06651719
 30
0.0
  0
VERTEX
  8
ZUWAKU
  6
CONTINUOUS
 62
       7
  5
6B2
 10
-239.8297411
 20
424.01882892
 30
0.0
  0
VERTEX
  8
ZUWAKU
  6
CONTINUOUS
 62
       7
  5
6B3
 10
-239.84746213
 20
423.97081785
 30
0.0
  0
VERTEX
  8
ZUWAKU
  6
CONTINUOUS
 62
       7
  5
6B4
 10
-239.86397967
 20
423.92253104
 30
0.0
  0
VERTEX
  8
ZUWAKU
  6
CONTINUOUS
 62
       7
  5
6B5
 10
-239.87927752
 20
423.87401582
 30
0.0
  0
VERTEX
  8
ZUWAKU
  6
CONTINUOUS
 62
       7
  5
6B6
 10
-239.89334068
 20
423.82531976
 30
0.0
  0
VERTEX
  8
ZUWAKU
  6
CONTINUOUS
 62
       7
  5
6B7
 10
-239.90615537
 20
423.7764906
 30
0.0
  0
VERTEX
  8
ZUWAKU
  6
CONTINUOUS
 62
       7
  5
6B8
 10
-239.91770902
 20
423.7275762
 30
0.0
  0
VERTEX
  8
ZUWAKU
  6
CONTINUOUS
 62
       7
  5
6B9
 10
-239.9279903
 20
423.67862453
 30
0.0
  0
VERTEX
  8
ZUWAKU
  6
CONTINUOUS
 62
       7
  5
6BA
 10
-239.93698915
 20
423.62968356
 30
0.0
  0
VERTEX
  8
ZUWAKU
  6
CONTINUOUS
 62
       7
  5
6BB
 10
-239.94469673
 20
423.58080129
 30
0.0
  0
VERTEX
  8
ZUWAKU
  6
CONTINUOUS
 62
       7
  5
6BC
 10
-239.95110549
 20
423.53202563
 30
0.0
  0
VERTEX
  8
ZUWAKU
  6
CONTINUOUS
 62
       7
  5
6BD
 10
-239.95620914
 20
423.4834044
 30
0.0
  0
VERTEX
  8
ZUWAKU
  6
CONTINUOUS
 62
       7
  5
6BE
 10
-239.96000269
 20
423.43498526
 30
0.0
  0
VERTEX
  8
ZUWAKU
  6
CONTINUOUS
 62
       7
  5
6BF
 10
-239.96248241
 20
423.38681569
 30
0.0
  0
VERTEX
  8
ZUWAKU
  6
CONTINUOUS
 62
       7
  5
6C0
 10
-239.96364588
 20
423.3389429
 30
0.0
  0
VERTEX
  8
ZUWAKU
  6
CONTINUOUS
 62
       7
  5
6C1
 10
-239.96349195
 20
423.29141383
 30
0.0
  0
VERTEX
  8
ZUWAKU
  6
CONTINUOUS
 62
       7
  5
6C2
 10
-239.96202077
 20
423.24427508
 30
0.0
  0
VERTEX
  8
ZUWAKU
  6
CONTINUOUS
 62
       7
  5
6C3
 10
-239.95923378
 20
423.19757285
 30
0.0
  0
VERTEX
  8
ZUWAKU
  6
CONTINUOUS
 62
       7
  5
6C4
 10
-239.95513373
 20
423.15135293
 30
0.0
  0
VERTEX
  8
ZUWAKU
  6
CONTINUOUS
 62
       7
  5
6C5
 10
-239.94972462
 20
423.10566064
 30
0.0
  0
VERTEX
  8
ZUWAKU
  6
CONTINUOUS
 62
       7
  5
6C6
 10
-239.94301176
 20
423.06054076
 30
0.0
  0
VERTEX
  8
ZUWAKU
  6
CONTINUOUS
 62
       7
  5
6C7
 10
-239.93500173
 20
423.01603753
 30
0.0
  0
VERTEX
  8
ZUWAKU
  6
CONTINUOUS
 62
       7
  5
6C8
 10
-239.92570239
 20
422.97219459
 30
0.0
  0
VERTEX
  8
ZUWAKU
  6
CONTINUOUS
 62
       7
  5
6C9
 10
-239.91512285
 20
422.9290549
 30
0.0
  0
VERTEX
  8
ZUWAKU
  6
CONTINUOUS
 62
       7
  5
6CA
 10
-239.90327348
 20
422.88666077
 30
0.0
  0
VERTEX
  8
ZUWAKU
  6
CONTINUOUS
 62
       7
  5
6CB
 10
-239.89016589
 20
422.84505376
 30
0.0
  0
VERTEX
  8
ZUWAKU
  6
CONTINUOUS
 62
       7
  5
6CC
 10
-239.87581295
 20
422.80427465
 30
0.0
  0
VERTEX
  8
ZUWAKU
  6
CONTINUOUS
 62
       7
  5
6CD
 10
-239.86022871
 20
422.76436342
 30
0.0
  0
VERTEX
  8
ZUWAKU
  6
CONTINUOUS
 62
       7
  5
6CE
 10
-239.84342847
 20
422.7253592
 30
0.0
  0
VERTEX
  8
ZUWAKU
  6
CONTINUOUS
 62
       7
  5
6CF
 10
-239.82542868
 20
422.68730022
 30
0.0
  0
VERTEX
  8
ZUWAKU
  6
CONTINUOUS
 62
       7
  5
6D0
 10
-239.80624699
 20
422.65022381
 30
0.0
  0
VERTEX
  8
ZUWAKU
  6
CONTINUOUS
 62
       7
  5
6D1
 10
-239.78590222
 20
422.6141663
 30
0.0
  0
SEQEND
  8
ZUWAKU
  6
CONTINUOUS
 62
       7
  5
6D2
  0
LINE
  8
ZUWAKU
  6
CONTINUOUS
 62
       7
  5
31C
 10
-242.70212658
 20
422.51487012
 30
0.0
 11
-239.9313221
 21
422.51487012
 31
0.0
  0
ARC
  8
ZUWAKU
  6
CONTINUOUS
 62
       7
  5
31D
 10
-240.21063822
 20
424.62077271
 30
0.0
 40
2.12434536
 50
277.55531967
 51
282.61004677
  0
ARC
  8
ZUWAKU
  6
CONTINUOUS
 62
       7
  5
31E
 10
-240.21063822
 20
424.62077271
 30
0.0
 40
3.06334536
 50
276.29029269
 51
293.79815684
  0
ARC
  8
ZUWAKU
  6
CONTINUOUS
 62
       7
  5
31F
 10
-240.21063822
 20
424.62077271
 30
0.0
 40
3.06334536
 50
316.57125834
 51
318.01426788
  0
ARC
  8
ZUWAKU
  6
CONTINUOUS
 62
       7
  5
320
 10
-238.01039409
 20
423.61183208
 30
0.0
 40
2.03660652
 50
209.3318227
 51
211.50126528
  0
ARC
  8
ZUWAKU
  6
CONTINUOUS
 62
       7
  5
321
 10
-238.01039409
 20
423.61183208
 30
0.0
 40
2.03660652
 50
241.74457829
 51
270.0
  0
POLYLINE
  8
ZUWAKU
  6
CONTINUOUS
 62
       7
  5
322
 66
       1
 10
0.0
 20
0.0
 30
0.0
 70
     129
  0
VERTEX
  8
ZUWAKU
  6
CONTINUOUS
 62
       7
  5
6D3
 10
-234.23598592
 20
424.10244998
 30
0.0
  0
VERTEX
  8
ZUWAKU
  6
CONTINUOUS
 62
       7
  5
6D4
 10
-234.21992368
 20
424.09558087
 30
0.0
  0
VERTEX
  8
ZUWAKU
  6
CONTINUOUS
 62
       7
  5
6D5
 10
-234.20316835
 20
424.09021142
 30
0.0
  0
VERTEX
  8
ZUWAKU
  6
CONTINUOUS
 62
       7
  5
6D6
 10
-234.18574934
 20
424.08635104
 30
0.0
  0
VERTEX
  8
ZUWAKU
  6
CONTINUOUS
 62
       7
  5
6D7
 10
-234.1676972
 20
424.08400649
 30
0.0
  0
VERTEX
  8
ZUWAKU
  6
CONTINUOUS
 62
       7
  5
6D8
 10
-234.1490436
 20
424.08318191
 30
0.0
  0
VERTEX
  8
ZUWAKU
  6
CONTINUOUS
 62
       7
  5
6D9
 10
-234.12982127
 20
424.08387872
 30
0.0
  0
VERTEX
  8
ZUWAKU
  6
CONTINUOUS
 62
       7
  5
6DA
 10
-234.11006393
 20
424.08609572
 30
0.0
  0
VERTEX
  8
ZUWAKU
  6
CONTINUOUS
 62
       7
  5
6DB
 10
-234.08980623
 20
424.089829
 30
0.0
  0
VERTEX
  8
ZUWAKU
  6
CONTINUOUS
 62
       7
  5
6DC
 10
-234.06908373
 20
424.09507203
 30
0.0
  0
VERTEX
  8
ZUWAKU
  6
CONTINUOUS
 62
       7
  5
6DD
 10
-234.04793277
 20
424.1018156
 30
0.0
  0
VERTEX
  8
ZUWAKU
  6
CONTINUOUS
 62
       7
  5
6DE
 10
-234.02639045
 20
424.11004788
 30
0.0
  0
VERTEX
  8
ZUWAKU
  6
CONTINUOUS
 62
       7
  5
6DF
 10
-234.00449458
 20
424.11975443
 30
0.0
  0
VERTEX
  8
ZUWAKU
  6
CONTINUOUS
 62
       7
  5
6E0
 10
-233.98228356
 20
424.13091822
 30
0.0
  0
VERTEX
  8
ZUWAKU
  6
CONTINUOUS
 62
       7
  5
6E1
 10
-233.95979637
 20
424.14351967
 30
0.0
  0
VERTEX
  8
ZUWAKU
  6
CONTINUOUS
 62
       7
  5
6E2
 10
-233.93707244
 20
424.15753667
 30
0.0
  0
VERTEX
  8
ZUWAKU
  6
CONTINUOUS
 62
       7
  5
6E3
 10
-233.91415165
 20
424.17294462
 30
0.0
  0
VERTEX
  8
ZUWAKU
  6
CONTINUOUS
 62
       7
  5
6E4
 10
-233.8910742
 20
424.1897165
 30
0.0
  0
VERTEX
  8
ZUWAKU
  6
CONTINUOUS
 62
       7
  5
6E5
 10
-233.86788059
 20
424.20782289
 30
0.0
  0
VERTEX
  8
ZUWAKU
  6
CONTINUOUS
 62
       7
  5
6E6
 10
-233.8446115
 20
424.22723202
 30
0.0
  0
VERTEX
  8
ZUWAKU
  6
CONTINUOUS
 62
       7
  5
6E7
 10
-233.82130775
 20
424.24790983
 30
0.0
  0
VERTEX
  8
ZUWAKU
  6
CONTINUOUS
 62
       7
  5
6E8
 10
-233.79801023
 20
424.26982006
 30
0.0
  0
VERTEX
  8
ZUWAKU
  6
CONTINUOUS
 62
       7
  5
6E9
 10
-233.7747598
 20
424.29292426
 30
0.0
  0
VERTEX
  8
ZUWAKU
  6
CONTINUOUS
 62
       7
  5
6EA
 10
-233.75159727
 20
424.31718191
 30
0.0
  0
VERTEX
  8
ZUWAKU
  6
CONTINUOUS
 62
       7
  5
6EB
 10
-233.72856325
 20
424.34255044
 30
0.0
  0
VERTEX
  8
ZUWAKU
  6
CONTINUOUS
 62
       7
  5
6EC
 10
-233.70569817
 20
424.36898536
 30
0.0
  0
VERTEX
  8
ZUWAKU
  6
CONTINUOUS
 62
       7
  5
6ED
 10
-233.68304213
 20
424.39644028
 30
0.0
  0
VERTEX
  8
ZUWAKU
  6
CONTINUOUS
 62
       7
  5
6EE
 10
-233.66063488
 20
424.42486704
 30
0.0
  0
VERTEX
  8
ZUWAKU
  6
CONTINUOUS
 62
       7
  5
6EF
 10
-233.63851574
 20
424.45421577
 30
0.0
  0
VERTEX
  8
ZUWAKU
  6
CONTINUOUS
 62
       7
  5
6F0
 10
-233.6167235
 20
424.48443498
 30
0.0
  0
VERTEX
  8
ZUWAKU
  6
CONTINUOUS
 62
       7
  5
6F1
 10
-233.59529639
 20
424.51547166
 30
0.0
  0
VERTEX
  8
ZUWAKU
  6
CONTINUOUS
 62
       7
  5
6F2
 10
-233.57427201
 20
424.54727136
 30
0.0
  0
VERTEX
  8
ZUWAKU
  6
CONTINUOUS
 62
       7
  5
6F3
 10
-233.55368725
 20
424.57977829
 30
0.0
  0
VERTEX
  8
ZUWAKU
  6
CONTINUOUS
 62
       7
  5
6F4
 10
-233.5335782
 20
424.61293542
 30
0.0
  0
VERTEX
  8
ZUWAKU
  6
CONTINUOUS
 62
       7
  5
6F5
 10
-233.51398016
 20
424.64668459
 30
0.0
  0
VERTEX
  8
ZUWAKU
  6
CONTINUOUS
 62
       7
  5
6F6
 10
-233.4949275
 20
424.68096659
 30
0.0
  0
VERTEX
  8
ZUWAKU
  6
CONTINUOUS
 62
       7
  5
6F7
 10
-233.47645365
 20
424.71572126
 30
0.0
  0
VERTEX
  8
ZUWAKU
  6
CONTINUOUS
 62
       7
  5
6F8
 10
-233.45859102
 20
424.75088766
 30
0.0
  0
VERTEX
  8
ZUWAKU
  6
CONTINUOUS
 62
       7
  5
6F9
 10
-233.44137094
 20
424.78640407
 30
0.0
  0
VERTEX
  8
ZUWAKU
  6
CONTINUOUS
 62
       7
  5
6FA
 10
-233.42482363
 20
424.82220819
 30
0.0
  0
VERTEX
  8
ZUWAKU
  6
CONTINUOUS
 62
       7
  5
6FB
 10
-233.40897811
 20
424.85823721
 30
0.0
  0
VERTEX
  8
ZUWAKU
  6
CONTINUOUS
 62
       7
  5
6FC
 10
-233.39386218
 20
424.89442792
 30
0.0
  0
VERTEX
  8
ZUWAKU
  6
CONTINUOUS
 62
       7
  5
6FD
 10
-233.37950237
 20
424.93071684
 30
0.0
  0
VERTEX
  8
ZUWAKU
  6
CONTINUOUS
 62
       7
  5
6FE
 10
-233.36592385
 20
424.96704029
 30
0.0
  0
VERTEX
  8
ZUWAKU
  6
CONTINUOUS
 62
       7
  5
6FF
 10
-233.35315047
 20
425.00333455
 30
0.0
  0
VERTEX
  8
ZUWAKU
  6
CONTINUOUS
 62
       7
  5
700
 10
-233.34120461
 20
425.03953596
 30
0.0
  0
VERTEX
  8
ZUWAKU
  6
CONTINUOUS
 62
       7
  5
701
 10
-233.33010724
 20
425.075581
 30
0.0
  0
VERTEX
  8
ZUWAKU
  6
CONTINUOUS
 62
       7
  5
702
 10
-233.31987784
 20
425.11140643
 30
0.0
  0
VERTEX
  8
ZUWAKU
  6
CONTINUOUS
 62
       7
  5
703
 10
-233.31053434
 20
425.14694941
 30
0.0
  0
VERTEX
  8
ZUWAKU
  6
CONTINUOUS
 62
       7
  5
704
 10
-233.30209313
 20
425.18214759
 30
0.0
  0
VERTEX
  8
ZUWAKU
  6
CONTINUOUS
 62
       7
  5
705
 10
-233.29456903
 20
425.21693921
 30
0.0
  0
VERTEX
  8
ZUWAKU
  6
CONTINUOUS
 62
       7
  5
706
 10
-233.28797523
 20
425.25126323
 30
0.0
  0
VERTEX
  8
ZUWAKU
  6
CONTINUOUS
 62
       7
  5
707
 10
-233.28232331
 20
425.28505944
 30
0.0
  0
VERTEX
  8
ZUWAKU
  6
CONTINUOUS
 62
       7
  5
708
 10
-233.27762318
 20
425.31826856
 30
0.0
  0
VERTEX
  8
ZUWAKU
  6
CONTINUOUS
 62
       7
  5
709
 10
-233.27388308
 20
425.35083231
 30
0.0
  0
VERTEX
  8
ZUWAKU
  6
CONTINUOUS
 62
       7
  5
70A
 10
-233.27110957
 20
425.38269358
 30
0.0
  0
VERTEX
  8
ZUWAKU
  6
CONTINUOUS
 62
       7
  5
70B
 10
-233.26930752
 20
425.41379646
 30
0.0
  0
VERTEX
  8
ZUWAKU
  6
CONTINUOUS
 62
       7
  5
70C
 10
-233.2684801
 20
425.4440864
 30
0.0
  0
VERTEX
  8
ZUWAKU
  6
CONTINUOUS
 62
       7
  5
70D
 10
-233.26862875
 20
425.47351024
 30
0.0
  0
VERTEX
  8
ZUWAKU
  6
CONTINUOUS
 62
       7
  5
70E
 10
-233.26975322
 20
425.50201639
 30
0.0
  0
VERTEX
  8
ZUWAKU
  6
CONTINUOUS
 62
       7
  5
70F
 10
-233.27185152
 20
425.52955481
 30
0.0
  0
VERTEX
  8
ZUWAKU
  6
CONTINUOUS
 62
       7
  5
710
 10
-233.27491998
 20
425.55607721
 30
0.0
  0
VERTEX
  8
ZUWAKU
  6
CONTINUOUS
 62
       7
  5
711
 10
-233.27895322
 20
425.58153705
 30
0.0
  0
VERTEX
  8
ZUWAKU
  6
CONTINUOUS
 62
       7
  5
712
 10
-233.28394416
 20
425.60588967
 30
0.0
  0
VERTEX
  8
ZUWAKU
  6
CONTINUOUS
 62
       7
  5
713
 10
-233.28988404
 20
425.62909235
 30
0.0
  0
VERTEX
  8
ZUWAKU
  6
CONTINUOUS
 62
       7
  5
714
 10
-233.29676245
 20
425.65110437
 30
0.0
  0
VERTEX
  8
ZUWAKU
  6
CONTINUOUS
 62
       7
  5
715
 10
-233.30456732
 20
425.67188713
 30
0.0
  0
VERTEX
  8
ZUWAKU
  6
CONTINUOUS
 62
       7
  5
716
 10
-233.31328495
 20
425.69140416
 30
0.0
  0
VERTEX
  8
ZUWAKU
  6
CONTINUOUS
 62
       7
  5
717
 10
-233.32290005
 20
425.70962122
 30
0.0
  0
VERTEX
  8
ZUWAKU
  6
CONTINUOUS
 62
       7
  5
718
 10
-233.33339575
 20
425.72650636
 30
0.0
  0
VERTEX
  8
ZUWAKU
  6
CONTINUOUS
 62
       7
  5
719
 10
-233.34475364
 20
425.74202995
 30
0.0
  0
VERTEX
  8
ZUWAKU
  6
CONTINUOUS
 62
       7
  5
71A
 10
-233.3569538
 20
425.75616476
 30
0.0
  0
VERTEX
  8
ZUWAKU
  6
CONTINUOUS
 62
       7
  5
71B
 10
-233.36997482
 20
425.76888599
 30
0.0
  0
VERTEX
  8
ZUWAKU
  6
CONTINUOUS
 62
       7
  5
71C
 10
-233.38379385
 20
425.78017133
 30
0.0
  0
VERTEX
  8
ZUWAKU
  6
CONTINUOUS
 62
       7
  5
71D
 10
-233.39838666
 20
425.79000097
 30
0.0
  0
VERTEX
  8
ZUWAKU
  6
CONTINUOUS
 62
       7
  5
71E
 10
-233.41372764
 20
425.79835767
 30
0.0
  0
VERTEX
  8
ZUWAKU
  6
CONTINUOUS
 62
       7
  5
71F
 10
-233.42978989
 20
425.80522678
 30
0.0
  0
VERTEX
  8
ZUWAKU
  6
CONTINUOUS
 62
       7
  5
720
 10
-233.44654521
 20
425.81059623
 30
0.0
  0
VERTEX
  8
ZUWAKU
  6
CONTINUOUS
 62
       7
  5
721
 10
-233.46396422
 20
425.81445661
 30
0.0
  0
VERTEX
  8
ZUWAKU
  6
CONTINUOUS
 62
       7
  5
722
 10
-233.48201636
 20
425.81680116
 30
0.0
  0
VERTEX
  8
ZUWAKU
  6
CONTINUOUS
 62
       7
  5
723
 10
-233.50066996
 20
425.81762574
 30
0.0
  0
VERTEX
  8
ZUWAKU
  6
CONTINUOUS
 62
       7
  5
724
 10
-233.51989229
 20
425.81692893
 30
0.0
  0
VERTEX
  8
ZUWAKU
  6
CONTINUOUS
 62
       7
  5
725
 10
-233.53964964
 20
425.81471193
 30
0.0
  0
VERTEX
  8
ZUWAKU
  6
CONTINUOUS
 62
       7
  5
726
 10
-233.55990733
 20
425.81097865
 30
0.0
  0
VERTEX
  8
ZUWAKU
  6
CONTINUOUS
 62
       7
  5
727
 10
-233.58062983
 20
425.80573562
 30
0.0
  0
VERTEX
  8
ZUWAKU
  6
CONTINUOUS
 62
       7
  5
728
 10
-233.6017808
 20
425.79899205
 30
0.0
  0
VERTEX
  8
ZUWAKU
  6
CONTINUOUS
 62
       7
  5
729
 10
-233.62332311
 20
425.79075977
 30
0.0
  0
VERTEX
  8
ZUWAKU
  6
CONTINUOUS
 62
       7
  5
72A
 10
-233.64521898
 20
425.78105322
 30
0.0
  0
VERTEX
  8
ZUWAKU
  6
CONTINUOUS
 62
       7
  5
72B
 10
-233.66743
 20
425.76988943
 30
0.0
  0
VERTEX
  8
ZUWAKU
  6
CONTINUOUS
 62
       7
  5
72C
 10
-233.6899172
 20
425.75728798
 30
0.0
  0
VERTEX
  8
ZUWAKU
  6
CONTINUOUS
 62
       7
  5
72D
 10
-233.71264112
 20
425.74327098
 30
0.0
  0
VERTEX
  8
ZUWAKU
  6
CONTINUOUS
 62
       7
  5
72E
 10
-233.73556192
 20
425.72786303
 30
0.0
  0
VERTEX
  8
ZUWAKU
  6
CONTINUOUS
 62
       7
  5
72F
 10
-233.75863936
 20
425.71109115
 30
0.0
  0
VERTEX
  8
ZUWAKU
  6
CONTINUOUS
 62
       7
  5
730
 10
-233.78183297
 20
425.69298476
 30
0.0
  0
VERTEX
  8
ZUWAKU
  6
CONTINUOUS
 62
       7
  5
731
 10
-233.80510207
 20
425.67357563
 30
0.0
  0
VERTEX
  8
ZUWAKU
  6
CONTINUOUS
 62
       7
  5
732
 10
-233.82840581
 20
425.65289782
 30
0.0
  0
VERTEX
  8
ZUWAKU
  6
CONTINUOUS
 62
       7
  5
733
 10
-233.85170334
 20
425.63098759
 30
0.0
  0
VERTEX
  8
ZUWAKU
  6
CONTINUOUS
 62
       7
  5
734
 10
-233.87495376
 20
425.60788338
 30
0.0
  0
VERTEX
  8
ZUWAKU
  6
CONTINUOUS
 62
       7
  5
735
 10
-233.8981163
 20
425.58362574
 30
0.0
  0
VERTEX
  8
ZUWAKU
  6
CONTINUOUS
 62
       7
  5
736
 10
-233.92115031
 20
425.55825721
 30
0.0
  0
VERTEX
  8
ZUWAKU
  6
CONTINUOUS
 62
       7
  5
737
 10
-233.94401539
 20
425.53182229
 30
0.0
  0
VERTEX
  8
ZUWAKU
  6
CONTINUOUS
 62
       7
  5
738
 10
-233.96667143
 20
425.50436737
 30
0.0
  0
VERTEX
  8
ZUWAKU
  6
CONTINUOUS
 62
       7
  5
739
 10
-233.98907868
 20
425.47594061
 30
0.0
  0
VERTEX
  8
ZUWAKU
  6
CONTINUOUS
 62
       7
  5
73A
 10
-234.01119783
 20
425.44659188
 30
0.0
  0
VERTEX
  8
ZUWAKU
  6
CONTINUOUS
 62
       7
  5
73B
 10
-234.03299007
 20
425.41637267
 30
0.0
  0
VERTEX
  8
ZUWAKU
  6
CONTINUOUS
 62
       7
  5
73C
 10
-234.05441717
 20
425.38533599
 30
0.0
  0
VERTEX
  8
ZUWAKU
  6
CONTINUOUS
 62
       7
  5
73D
 10
-234.07544155
 20
425.35353629
 30
0.0
  0
VERTEX
  8
ZUWAKU
  6
CONTINUOUS
 62
       7
  5
73E
 10
-234.09602632
 20
425.32102936
 30
0.0
  0
VERTEX
  8
ZUWAKU
  6
CONTINUOUS
 62
       7
  5
73F
 10
-234.11613536
 20
425.28787223
 30
0.0
  0
VERTEX
  8
ZUWAKU
  6
CONTINUOUS
 62
       7
  5
740
 10
-234.1357334
 20
425.25412306
 30
0.0
  0
VERTEX
  8
ZUWAKU
  6
CONTINUOUS
 62
       7
  5
741
 10
-234.15478606
 20
425.21984106
 30
0.0
  0
VERTEX
  8
ZUWAKU
  6
CONTINUOUS
 62
       7
  5
742
 10
-234.17325991
 20
425.18508638
 30
0.0
  0
VERTEX
  8
ZUWAKU
  6
CONTINUOUS
 62
       7
  5
743
 10
-234.19112254
 20
425.14991999
 30
0.0
  0
VERTEX
  8
ZUWAKU
  6
CONTINUOUS
 62
       7
  5
744
 10
-234.20834262
 20
425.11440358
 30
0.0
  0
VERTEX
  8
ZUWAKU
  6
CONTINUOUS
 62
       7
  5
745
 10
-234.22488993
 20
425.07859946
 30
0.0
  0
VERTEX
  8
ZUWAKU
  6
CONTINUOUS
 62
       7
  5
746
 10
-234.24073545
 20
425.04257044
 30
0.0
  0
VERTEX
  8
ZUWAKU
  6
CONTINUOUS
 62
       7
  5
747
 10
-234.25585138
 20
425.00637973
 30
0.0
  0
VERTEX
  8
ZUWAKU
  6
CONTINUOUS
 62
       7
  5
748
 10
-234.2702112
 20
424.97009081
 30
0.0
  0
VERTEX
  8
ZUWAKU
  6
CONTINUOUS
 62
       7
  5
749
 10
-234.28378971
 20
424.93376736
 30
0.0
  0
VERTEX
  8
ZUWAKU
  6
CONTINUOUS
 62
       7
  5
74A
 10
-234.2965631
 20
424.8974731
 30
0.0
  0
VERTEX
  8
ZUWAKU
  6
CONTINUOUS
 62
       7
  5
74B
 10
-234.30850895
 20
424.86127169
 30
0.0
  0
VERTEX
  8
ZUWAKU
  6
CONTINUOUS
 62
       7
  5
74C
 10
-234.31960632
 20
424.82522665
 30
0.0
  0
VERTEX
  8
ZUWAKU
  6
CONTINUOUS
 62
       7
  5
74D
 10
-234.32983572
 20
424.78940122
 30
0.0
  0
VERTEX
  8
ZUWAKU
  6
CONTINUOUS
 62
       7
  5
74E
 10
-234.33917923
 20
424.75385823
 30
0.0
  0
VERTEX
  8
ZUWAKU
  6
CONTINUOUS
 62
       7
  5
74F
 10
-234.34762043
 20
424.71866006
 30
0.0
  0
VERTEX
  8
ZUWAKU
  6
CONTINUOUS
 62
       7
  5
750
 10
-234.35514453
 20
424.68386844
 30
0.0
  0
VERTEX
  8
ZUWAKU
  6
CONTINUOUS
 62
       7
  5
751
 10
-234.36173833
 20
424.64954442
 30
0.0
  0
VERTEX
  8
ZUWAKU
  6
CONTINUOUS
 62
       7
  5
752
 10
-234.36739025
 20
424.61574821
 30
0.0
  0
VERTEX
  8
ZUWAKU
  6
CONTINUOUS
 62
       7
  5
753
 10
-234.37209039
 20
424.58253909
 30
0.0
  0
VERTEX
  8
ZUWAKU
  6
CONTINUOUS
 62
       7
  5
754
 10
-234.37583049
 20
424.54997534
 30
0.0
  0
VERTEX
  8
ZUWAKU
  6
CONTINUOUS
 62
       7
  5
755
 10
-234.37860399
 20
424.51811407
 30
0.0
  0
VERTEX
  8
ZUWAKU
  6
CONTINUOUS
 62
       7
  5
756
 10
-234.38040604
 20
424.48701119
 30
0.0
  0
VERTEX
  8
ZUWAKU
  6
CONTINUOUS
 62
       7
  5
757
 10
-234.38123346
 20
424.45672125
 30
0.0
  0
VERTEX
  8
ZUWAKU
  6
CONTINUOUS
 62
       7
  5
758
 10
-234.38108481
 20
424.4272974
 30
0.0
  0
VERTEX
  8
ZUWAKU
  6
CONTINUOUS
 62
       7
  5
759
 10
-234.37996035
 20
424.39879126
 30
0.0
  0
VERTEX
  8
ZUWAKU
  6
CONTINUOUS
 62
       7
  5
75A
 10
-234.37786204
 20
424.37125284
 30
0.0
  0
VERTEX
  8
ZUWAKU
  6
CONTINUOUS
 62
       7
  5
75B
 10
-234.37479358
 20
424.34473044
 30
0.0
  0
VERTEX
  8
ZUWAKU
  6
CONTINUOUS
 62
       7
  5
75C
 10
-234.37076034
 20
424.3192706
 30
0.0
  0
VERTEX
  8
ZUWAKU
  6
CONTINUOUS
 62
       7
  5
75D
 10
-234.3657694
 20
424.29491798
 30
0.0
  0
VERTEX
  8
ZUWAKU
  6
CONTINUOUS
 62
       7
  5
75E
 10
-234.35982952
 20
424.2717153
 30
0.0
  0
VERTEX
  8
ZUWAKU
  6
CONTINUOUS
 62
       7
  5
75F
 10
-234.35295111
 20
424.24970328
 30
0.0
  0
VERTEX
  8
ZUWAKU
  6
CONTINUOUS
 62
       7
  5
760
 10
-234.34514625
 20
424.22892052
 30
0.0
  0
VERTEX
  8
ZUWAKU
  6
CONTINUOUS
 62
       7
  5
761
 10
-234.33642862
 20
424.20940349
 30
0.0
  0
VERTEX
  8
ZUWAKU
  6
CONTINUOUS
 62
       7
  5
762
 10
-234.32681352
 20
424.19118643
 30
0.0
  0
VERTEX
  8
ZUWAKU
  6
CONTINUOUS
 62
       7
  5
763
 10
-234.31631781
 20
424.17430129
 30
0.0
  0
VERTEX
  8
ZUWAKU
  6
CONTINUOUS
 62
       7
  5
764
 10
-234.30495992
 20
424.1587777
 30
0.0
  0
VERTEX
  8
ZUWAKU
  6
CONTINUOUS
 62
       7
  5
765
 10
-234.29275976
 20
424.14464289
 30
0.0
  0
VERTEX
  8
ZUWAKU
  6
CONTINUOUS
 62
       7
  5
766
 10
-234.27973875
 20
424.13192166
 30
0.0
  0
VERTEX
  8
ZUWAKU
  6
CONTINUOUS
 62
       7
  5
767
 10
-234.26591971
 20
424.12063632
 30
0.0
  0
VERTEX
  8
ZUWAKU
  6
CONTINUOUS
 62
       7
  5
768
 10
-234.2513269
 20
424.11080668
 30
0.0
  0
SEQEND
  8
ZUWAKU
  6
CONTINUOUS
 62
       7
  5
769
  0
ARC
  8
ZUWAKU
  6
CONTINUOUS
 62
       7
  5
323
 10
-232.96016712
 20
425.19852531
 30
0.0
 40
3.64232051
 50
241.28311564
 51
264.0434522
  0
LINE
  8
ZUWAKU
  6
CONTINUOUS
 62
       7
  5
324
 10
-238.01039409
 20
421.57587012
 30
0.0
 11
-235.89735329
 21
421.57587012
 31
0.0
  0
ARC
  8
ZUWAKU
  6
CONTINUOUS
 62
       7
  5
325
 10
-232.96016712
 20
425.19852531
 30
0.0
 40
2.70332051
 50
251.08708107
 51
263.08482824
  0
ARC
  8
ZUWAKU
  6
CONTINUOUS
 62
       7
  5
326
 10
-236.69439623
 20
425.64414454
 30
0.0
 40
3.20661627
 50
282.60950936
 51
291.93126974
  0
POLYLINE
  8
ZUWAKU
  6
CONTINUOUS
 62
       7
  5
327
 66
       1
 10
0.0
 20
0.0
 30
0.0
 70
     128
  0
VERTEX
  8
ZUWAKU
  6
CONTINUOUS
 62
       7
  5
76A
 10
-233.24746669
 20
423.34092701
 30
0.0
  0
VERTEX
  8
ZUWAKU
  6
CONTINUOUS
 62
       7
  5
76B
 10
-233.19476047
 20
423.41280773
 30
0.0
  0
VERTEX
  8
ZUWAKU
  6
CONTINUOUS
 62
       7
  5
76C
 10
-233.14268033
 20
423.48621622
 30
0.0
  0
VERTEX
  8
ZUWAKU
  6
CONTINUOUS
 62
       7
  5
76D
 10
-233.09127801
 20
423.56107955
 30
0.0
  0
VERTEX
  8
ZUWAKU
  6
CONTINUOUS
 62
       7
  5
76E
 10
-233.04060458
 20
423.63732334
 30
0.0
  0
VERTEX
  8
ZUWAKU
  6
CONTINUOUS
 62
       7
  5
76F
 10
-232.99071039
 20
423.71487182
 30
0.0
  0
VERTEX
  8
ZUWAKU
  6
CONTINUOUS
 62
       7
  5
770
 10
-232.94164503
 20
423.79364795
 30
0.0
  0
VERTEX
  8
ZUWAKU
  6
CONTINUOUS
 62
       7
  5
771
 10
-232.89345723
 20
423.87357344
 30
0.0
  0
VERTEX
  8
ZUWAKU
  6
CONTINUOUS
 62
       7
  5
772
 10
-232.84619489
 20
423.95456888
 30
0.0
  0
VERTEX
  8
ZUWAKU
  6
CONTINUOUS
 62
       7
  5
773
 10
-232.79990496
 20
424.03655381
 30
0.0
  0
VERTEX
  8
ZUWAKU
  6
CONTINUOUS
 62
       7
  5
774
 10
-232.75463344
 20
424.11944675
 30
0.0
  0
VERTEX
  8
ZUWAKU
  6
CONTINUOUS
 62
       7
  5
775
 10
-232.71042531
 20
424.20316533
 30
0.0
  0
VERTEX
  8
ZUWAKU
  6
CONTINUOUS
 62
       7
  5
776
 10
-232.66732449
 20
424.28762639
 30
0.0
  0
VERTEX
  8
ZUWAKU
  6
CONTINUOUS
 62
       7
  5
777
 10
-232.62537381
 20
424.37274599
 30
0.0
  0
VERTEX
  8
ZUWAKU
  6
CONTINUOUS
 62
       7
  5
778
 10
-232.58461496
 20
424.45843956
 30
0.0
  0
VERTEX
  8
ZUWAKU
  6
CONTINUOUS
 62
       7
  5
779
 10
-232.54508843
 20
424.54462195
 30
0.0
  0
VERTEX
  8
ZUWAKU
  6
CONTINUOUS
 62
       7
  5
77A
 10
-232.5068335
 20
424.63120754
 30
0.0
  0
VERTEX
  8
ZUWAKU
  6
CONTINUOUS
 62
       7
  5
77B
 10
-232.46988817
 20
424.71811028
 30
0.0
  0
VERTEX
  8
ZUWAKU
  6
CONTINUOUS
 62
       7
  5
77C
 10
-232.43428916
 20
424.80524383
 30
0.0
  0
VERTEX
  8
ZUWAKU
  6
CONTINUOUS
 62
       7
  5
77D
 10
-232.40007183
 20
424.89252161
 30
0.0
  0
VERTEX
  8
ZUWAKU
  6
CONTINUOUS
 62
       7
  5
77E
 10
-232.3672702
 20
424.97985691
 30
0.0
  0
VERTEX
  8
ZUWAKU
  6
CONTINUOUS
 62
       7
  5
77F
 10
-232.33591684
 20
425.06716294
 30
0.0
  0
VERTEX
  8
ZUWAKU
  6
CONTINUOUS
 62
       7
  5
780
 10
-232.30604291
 20
425.15435296
 30
0.0
  0
VERTEX
  8
ZUWAKU
  6
CONTINUOUS
 62
       7
  5
781
 10
-232.2776781
 20
425.24134033
 30
0.0
  0
VERTEX
  8
ZUWAKU
  6
CONTINUOUS
 62
       7
  5
782
 10
-232.25085059
 20
425.32803863
 30
0.0
  0
VERTEX
  8
ZUWAKU
  6
CONTINUOUS
 62
       7
  5
783
 10
-232.22558704
 20
425.41436169
 30
0.0
  0
VERTEX
  8
ZUWAKU
  6
CONTINUOUS
 62
       7
  5
784
 10
-232.20191254
 20
425.50022377
 30
0.0
  0
VERTEX
  8
ZUWAKU
  6
CONTINUOUS
 62
       7
  5
785
 10
-232.17985062
 20
425.58553953
 30
0.0
  0
VERTEX
  8
ZUWAKU
  6
CONTINUOUS
 62
       7
  5
786
 10
-232.1594232
 20
425.67022422
 30
0.0
  0
VERTEX
  8
ZUWAKU
  6
CONTINUOUS
 62
       7
  5
787
 10
-232.14065059
 20
425.75419368
 30
0.0
  0
VERTEX
  8
ZUWAKU
  6
CONTINUOUS
 62
       7
  5
788
 10
-232.12355142
 20
425.83736449
 30
0.0
  0
VERTEX
  8
ZUWAKU
  6
CONTINUOUS
 62
       7
  5
789
 10
-232.1081427
 20
425.91965399
 30
0.0
  0
VERTEX
  8
ZUWAKU
  6
CONTINUOUS
 62
       7
  5
78A
 10
-232.09443973
 20
426.00098044
 30
0.0
  0
VERTEX
  8
ZUWAKU
  6
CONTINUOUS
 62
       7
  5
78B
 10
-232.08245612
 20
426.08126302
 30
0.0
  0
VERTEX
  8
ZUWAKU
  6
CONTINUOUS
 62
       7
  5
78C
 10
-232.07220379
 20
426.16042196
 30
0.0
  0
VERTEX
  8
ZUWAKU
  6
CONTINUOUS
 62
       7
  5
78D
 10
-232.06369292
 20
426.23837861
 30
0.0
  0
VERTEX
  8
ZUWAKU
  6
CONTINUOUS
 62
       7
  5
78E
 10
-232.05693197
 20
426.31505551
 30
0.0
  0
VERTEX
  8
ZUWAKU
  6
CONTINUOUS
 62
       7
  5
78F
 10
-232.05192765
 20
426.39037647
 30
0.0
  0
VERTEX
  8
ZUWAKU
  6
CONTINUOUS
 62
       7
  5
790
 10
-232.04868495
 20
426.46426665
 30
0.0
  0
VERTEX
  8
ZUWAKU
  6
CONTINUOUS
 62
       7
  5
791
 10
-232.04720707
 20
426.53665264
 30
0.0
  0
VERTEX
  8
ZUWAKU
  6
CONTINUOUS
 62
       7
  5
792
 10
-232.04749549
 20
426.60746251
 30
0.0
  0
VERTEX
  8
ZUWAKU
  6
CONTINUOUS
 62
       7
  5
793
 10
-232.04954992
 20
426.6766259
 30
0.0
  0
VERTEX
  8
ZUWAKU
  6
CONTINUOUS
 62
       7
  5
794
 10
-232.05336832
 20
426.74407409
 30
0.0
  0
VERTEX
  8
ZUWAKU
  6
CONTINUOUS
 62
       7
  5
795
 10
-232.0589469
 20
426.80974006
 30
0.0
  0
VERTEX
  8
ZUWAKU
  6
CONTINUOUS
 62
       7
  5
796
 10
-232.06628012
 20
426.87355858
 30
0.0
  0
VERTEX
  8
ZUWAKU
  6
CONTINUOUS
 62
       7
  5
797
 10
-232.07536068
 20
426.93546621
 30
0.0
  0
VERTEX
  8
ZUWAKU
  6
CONTINUOUS
 62
       7
  5
798
 10
-232.08617956
 20
426.99540146
 30
0.0
  0
VERTEX
  8
ZUWAKU
  6
CONTINUOUS
 62
       7
  5
799
 10
-232.09872602
 20
427.05330478
 30
0.0
  0
VERTEX
  8
ZUWAKU
  6
CONTINUOUS
 62
       7
  5
79A
 10
-232.11298759
 20
427.10911862
 30
0.0
  0
VERTEX
  8
ZUWAKU
  6
CONTINUOUS
 62
       7
  5
79B
 10
-232.12895009
 20
427.16278752
 30
0.0
  0
VERTEX
  8
ZUWAKU
  6
CONTINUOUS
 62
       7
  5
79C
 10
-232.14659767
 20
427.21425818
 30
0.0
  0
VERTEX
  8
ZUWAKU
  6
CONTINUOUS
 62
       7
  5
79D
 10
-232.1659128
 20
427.26347943
 30
0.0
  0
VERTEX
  8
ZUWAKU
  6
CONTINUOUS
 62
       7
  5
79E
 10
-232.18687627
 20
427.31040238
 30
0.0
  0
VERTEX
  8
ZUWAKU
  6
CONTINUOUS
 62
       7
  5
79F
 10
-232.20946727
 20
427.3549804
 30
0.0
  0
VERTEX
  8
ZUWAKU
  6
CONTINUOUS
 62
       7
  5
7A0
 10
-232.23366334
 20
427.3971692
 30
0.0
  0
VERTEX
  8
ZUWAKU
  6
CONTINUOUS
 62
       7
  5
7A1
 10
-232.25944045
 20
427.43692686
 30
0.0
  0
VERTEX
  8
ZUWAKU
  6
CONTINUOUS
 62
       7
  5
7A2
 10
-232.28677297
 20
427.47421387
 30
0.0
  0
VERTEX
  8
ZUWAKU
  6
CONTINUOUS
 62
       7
  5
7A3
 10
-232.31563376
 20
427.50899319
 30
0.0
  0
VERTEX
  8
ZUWAKU
  6
CONTINUOUS
 62
       7
  5
7A4
 10
-232.34599413
 20
427.54123025
 30
0.0
  0
VERTEX
  8
ZUWAKU
  6
CONTINUOUS
 62
       7
  5
7A5
 10
-232.37782392
 20
427.57089304
 30
0.0
  0
VERTEX
  8
ZUWAKU
  6
CONTINUOUS
 62
       7
  5
7A6
 10
-232.4110915
 20
427.59795207
 30
0.0
  0
VERTEX
  8
ZUWAKU
  6
CONTINUOUS
 62
       7
  5
7A7
 10
-232.44576382
 20
427.62238045
 30
0.0
  0
VERTEX
  8
ZUWAKU
  6
CONTINUOUS
 62
       7
  5
7A8
 10
-232.48180643
 20
427.64415393
 30
0.0
  0
VERTEX
  8
ZUWAKU
  6
CONTINUOUS
 62
       7
  5
7A9
 10
-232.51918351
 20
427.66325085
 30
0.0
  0
VERTEX
  8
ZUWAKU
  6
CONTINUOUS
 62
       7
  5
7AA
 10
-232.55785793
 20
427.67965225
 30
0.0
  0
VERTEX
  8
ZUWAKU
  6
CONTINUOUS
 62
       7
  5
7AB
 10
-232.59779126
 20
427.69334183
 30
0.0
  0
VERTEX
  8
ZUWAKU
  6
CONTINUOUS
 62
       7
  5
7AC
 10
-232.63894381
 20
427.70430598
 30
0.0
  0
VERTEX
  8
ZUWAKU
  6
CONTINUOUS
 62
       7
  5
7AD
 10
-232.68127471
 20
427.71253382
 30
0.0
  0
VERTEX
  8
ZUWAKU
  6
CONTINUOUS
 62
       7
  5
7AE
 10
-232.72474189
 20
427.71801717
 30
0.0
  0
VERTEX
  8
ZUWAKU
  6
CONTINUOUS
 62
       7
  5
7AF
 10
-232.76930215
 20
427.72075058
 30
0.0
  0
VERTEX
  8
ZUWAKU
  6
CONTINUOUS
 62
       7
  5
7B0
 10
-232.81491123
 20
427.72073133
 30
0.0
  0
VERTEX
  8
ZUWAKU
  6
CONTINUOUS
 62
       7
  5
7B1
 10
-232.86152381
 20
427.71795944
 30
0.0
  0
VERTEX
  8
ZUWAKU
  6
CONTINUOUS
 62
       7
  5
7B2
 10
-232.90909357
 20
427.71243767
 30
0.0
  0
VERTEX
  8
ZUWAKU
  6
CONTINUOUS
 62
       7
  5
7B3
 10
-232.95757324
 20
427.7041715
 30
0.0
  0
VERTEX
  8
ZUWAKU
  6
CONTINUOUS
 62
       7
  5
7B4
 10
-233.00691466
 20
427.69316915
 30
0.0
  0
VERTEX
  8
ZUWAKU
  6
CONTINUOUS
 62
       7
  5
7B5
 10
-233.0570688
 20
427.67944155
 30
0.0
  0
VERTEX
  8
ZUWAKU
  6
CONTINUOUS
 62
       7
  5
7B6
 10
-233.10798582
 20
427.66300234
 30
0.0
  0
VERTEX
  8
ZUWAKU
  6
CONTINUOUS
 62
       7
  5
7B7
 10
-233.15961514
 20
427.64386785
 30
0.0
  0
VERTEX
  8
ZUWAKU
  6
CONTINUOUS
 62
       7
  5
7B8
 10
-233.21190545
 20
427.62205709
 30
0.0
  0
VERTEX
  8
ZUWAKU
  6
CONTINUOUS
 62
       7
  5
7B9
 10
-233.2648048
 20
427.59759175
 30
0.0
  0
VERTEX
  8
ZUWAKU
  6
CONTINUOUS
 62
       7
  5
7BA
 10
-233.31826062
 20
427.57049612
 30
0.0
  0
VERTEX
  8
ZUWAKU
  6
CONTINUOUS
 62
       7
  5
7BB
 10
-233.37221981
 20
427.54079712
 30
0.0
  0
VERTEX
  8
ZUWAKU
  6
CONTINUOUS
 62
       7
  5
7BC
 10
-233.42662874
 20
427.50852428
 30
0.0
  0
VERTEX
  8
ZUWAKU
  6
CONTINUOUS
 62
       7
  5
7BD
 10
-233.48143335
 20
427.47370965
 30
0.0
  0
VERTEX
  8
ZUWAKU
  6
CONTINUOUS
 62
       7
  5
7BE
 10
-233.5365792
 20
427.43638783
 30
0.0
  0
VERTEX
  8
ZUWAKU
  6
CONTINUOUS
 62
       7
  5
7BF
 10
-233.59201148
 20
427.39659589
 30
0.0
  0
VERTEX
  8
ZUWAKU
  6
CONTINUOUS
 62
       7
  5
7C0
 10
-233.64767513
 20
427.35437339
 30
0.0
  0
VERTEX
  8
ZUWAKU
  6
CONTINUOUS
 62
       7
  5
7C1
 10
-233.70351482
 20
427.30976227
 30
0.0
  0
VERTEX
  8
ZUWAKU
  6
CONTINUOUS
 62
       7
  5
7C2
 10
-233.75947508
 20
427.26280685
 30
0.0
  0
VERTEX
  8
ZUWAKU
  6
CONTINUOUS
 62
       7
  5
7C3
 10
-233.8155003
 20
427.2135538
 30
0.0
  0
VERTEX
  8
ZUWAKU
  6
CONTINUOUS
 62
       7
  5
7C4
 10
-233.87153482
 20
427.16205205
 30
0.0
  0
VERTEX
  8
ZUWAKU
  6
CONTINUOUS
 62
       7
  5
7C5
 10
-233.92752296
 20
427.10835277
 30
0.0
  0
VERTEX
  8
ZUWAKU
  6
CONTINUOUS
 62
       7
  5
7C6
 10
-233.98340909
 20
427.05250932
 30
0.0
  0
VERTEX
  8
ZUWAKU
  6
CONTINUOUS
 62
       7
  5
7C7
 10
-234.03913768
 20
426.9945772
 30
0.0
  0
VERTEX
  8
ZUWAKU
  6
CONTINUOUS
 62
       7
  5
7C8
 10
-234.09465336
 20
426.93461395
 30
0.0
  0
VERTEX
  8
ZUWAKU
  6
CONTINUOUS
 62
       7
  5
7C9
 10
-234.14990096
 20
426.87267916
 30
0.0
  0
VERTEX
  8
ZUWAKU
  6
CONTINUOUS
 62
       7
  5
7CA
 10
-234.2048256
 20
426.80883437
 30
0.0
  0
VERTEX
  8
ZUWAKU
  6
CONTINUOUS
 62
       7
  5
7CB
 10
-234.25937269
 20
426.74314302
 30
0.0
  0
VERTEX
  8
ZUWAKU
  6
CONTINUOUS
 62
       7
  5
7CC
 10
-234.31348804
 20
426.67567038
 30
0.0
  0
VERTEX
  8
ZUWAKU
  6
CONTINUOUS
 62
       7
  5
7CD
 10
-234.36711788
 20
426.60648348
 30
0.0
  0
VERTEX
  8
ZUWAKU
  6
CONTINUOUS
 62
       7
  5
7CE
 10
-234.42020892
 20
426.53565109
 30
0.0
  0
VERTEX
  8
ZUWAKU
  6
CONTINUOUS
 62
       7
  5
7CF
 10
-234.47270841
 20
426.46324356
 30
0.0
  0
VERTEX
  8
ZUWAKU
  6
CONTINUOUS
 62
       7
  5
7D0
 10
-234.52456419
 20
426.38933286
 30
0.0
  0
VERTEX
  8
ZUWAKU
  6
CONTINUOUS
 62
       7
  5
7D1
 10
-234.57572473
 20
426.31399242
 30
0.0
  0
VERTEX
  8
ZUWAKU
  6
CONTINUOUS
 62
       7
  5
7D2
 10
-234.62613919
 20
426.2372971
 30
0.0
  0
VERTEX
  8
ZUWAKU
  6
CONTINUOUS
 62
       7
  5
7D3
 10
-234.67575749
 20
426.1593231
 30
0.0
  0
VERTEX
  8
ZUWAKU
  6
CONTINUOUS
 62
       7
  5
7D4
 10
-234.72453032
 20
426.0801479
 30
0.0
  0
VERTEX
  8
ZUWAKU
  6
CONTINUOUS
 62
       7
  5
7D5
 10
-234.77240922
 20
425.99985017
 30
0.0
  0
VERTEX
  8
ZUWAKU
  6
CONTINUOUS
 62
       7
  5
7D6
 10
-234.81934663
 20
425.9185097
 30
0.0
  0
VERTEX
  8
ZUWAKU
  6
CONTINUOUS
 62
       7
  5
7D7
 10
-234.86529589
 20
425.8362073
 30
0.0
  0
VERTEX
  8
ZUWAKU
  6
CONTINUOUS
 62
       7
  5
7D8
 10
-234.91021135
 20
425.75302476
 30
0.0
  0
VERTEX
  8
ZUWAKU
  6
CONTINUOUS
 62
       7
  5
7D9
 10
-234.95404839
 20
425.66904472
 30
0.0
  0
VERTEX
  8
ZUWAKU
  6
CONTINUOUS
 62
       7
  5
7DA
 10
-234.99676346
 20
425.58435062
 30
0.0
  0
VERTEX
  8
ZUWAKU
  6
CONTINUOUS
 62
       7
  5
7DB
 10
-235.03831409
 20
425.49902663
 30
0.0
  0
VERTEX
  8
ZUWAKU
  6
CONTINUOUS
 62
       7
  5
7DC
 10
-235.07865902
 20
425.41315752
 30
0.0
  0
VERTEX
  8
ZUWAKU
  6
CONTINUOUS
 62
       7
  5
7DD
 10
-235.11775816
 20
425.32682861
 30
0.0
  0
VERTEX
  8
ZUWAKU
  6
CONTINUOUS
 62
       7
  5
7DE
 10
-235.15557264
 20
425.24012568
 30
0.0
  0
VERTEX
  8
ZUWAKU
  6
CONTINUOUS
 62
       7
  5
7DF
 10
-235.19206491
 20
425.15313488
 30
0.0
  0
VERTEX
  8
ZUWAKU
  6
CONTINUOUS
 62
       7
  5
7E0
 10
-235.2271987
 20
425.06594264
 30
0.0
  0
VERTEX
  8
ZUWAKU
  6
CONTINUOUS
 62
       7
  5
7E1
 10
-235.26093911
 20
424.9786356
 30
0.0
  0
VERTEX
  8
ZUWAKU
  6
CONTINUOUS
 62
       7
  5
7E2
 10
-235.2932526
 20
424.89130051
 30
0.0
  0
VERTEX
  8
ZUWAKU
  6
CONTINUOUS
 62
       7
  5
7E3
 10
-235.32410707
 20
424.80402415
 30
0.0
  0
VERTEX
  8
ZUWAKU
  6
CONTINUOUS
 62
       7
  5
7E4
 10
-235.35347187
 20
424.71689323
 30
0.0
  0
VERTEX
  8
ZUWAKU
  6
CONTINUOUS
 62
       7
  5
7E5
 10
-235.38131781
 20
424.62999432
 30
0.0
  0
VERTEX
  8
ZUWAKU
  6
CONTINUOUS
 62
       7
  5
7E6
 10
-235.40761723
 20
424.54341379
 30
0.0
  0
VERTEX
  8
ZUWAKU
  6
CONTINUOUS
 62
       7
  5
7E7
 10
-235.432344
 20
424.45723764
 30
0.0
  0
VERTEX
  8
ZUWAKU
  6
CONTINUOUS
 62
       7
  5
7E8
 10
-235.45547354
 20
424.37155151
 30
0.0
  0
VERTEX
  8
ZUWAKU
  6
CONTINUOUS
 62
       7
  5
7E9
 10
-235.47698288
 20
424.28644054
 30
0.0
  0
VERTEX
  8
ZUWAKU
  6
CONTINUOUS
 62
       7
  5
7EA
 10
-235.49685065
 20
424.20198929
 30
0.0
  0
VERTEX
  8
ZUWAKU
  6
CONTINUOUS
 62
       7
  5
7EB
 10
-235.51505709
 20
424.11828168
 30
0.0
  0
VERTEX
  8
ZUWAKU
  6
CONTINUOUS
 62
       7
  5
7EC
 10
-235.53158413
 20
424.03540087
 30
0.0
  0
VERTEX
  8
ZUWAKU
  6
CONTINUOUS
 62
       7
  5
7ED
 10
-235.54641534
 20
423.95342922
 30
0.0
  0
VERTEX
  8
ZUWAKU
  6
CONTINUOUS
 62
       7
  5
7EE
 10
-235.55953599
 20
423.87244819
 30
0.0
  0
VERTEX
  8
ZUWAKU
  6
CONTINUOUS
 62
       7
  5
7EF
 10
-235.57093303
 20
423.79253822
 30
0.0
  0
VERTEX
  8
ZUWAKU
  6
CONTINUOUS
 62
       7
  5
7F0
 10
-235.58059515
 20
423.71377873
 30
0.0
  0
VERTEX
  8
ZUWAKU
  6
CONTINUOUS
 62
       7
  5
7F1
 10
-235.58851274
 20
423.63624797
 30
0.0
  0
VERTEX
  8
ZUWAKU
  6
CONTINUOUS
 62
       7
  5
7F2
 10
-235.59467793
 20
423.56002297
 30
0.0
  0
VERTEX
  8
ZUWAKU
  6
CONTINUOUS
 62
       7
  5
7F3
 10
-235.59908461
 20
423.48517947
 30
0.0
  0
VERTEX
  8
ZUWAKU
  6
CONTINUOUS
 62
       7
  5
7F4
 10
-235.60172838
 20
423.41179184
 30
0.0
  0
VERTEX
  8
ZUWAKU
  6
CONTINUOUS
 62
       7
  5
7F5
 10
-235.60260663
 20
423.33993299
 30
0.0
  0
VERTEX
  8
ZUWAKU
  6
CONTINUOUS
 62
       7
  5
7F6
 10
-235.60171849
 20
423.26967434
 30
0.0
  0
VERTEX
  8
ZUWAKU
  6
CONTINUOUS
 62
       7
  5
7F7
 10
-235.59906483
 20
423.20108568
 30
0.0
  0
VERTEX
  8
ZUWAKU
  6
CONTINUOUS
 62
       7
  5
7F8
 10
-235.59464829
 20
423.13423517
 30
0.0
  0
VERTEX
  8
ZUWAKU
  6
CONTINUOUS
 62
       7
  5
7F9
 10
-235.58847326
 20
423.06918923
 30
0.0
  0
VERTEX
  8
ZUWAKU
  6
CONTINUOUS
 62
       7
  5
7FA
 10
-235.58054587
 20
423.00601249
 30
0.0
  0
VERTEX
  8
ZUWAKU
  6
CONTINUOUS
 62
       7
  5
7FB
 10
-235.57087401
 20
422.94476773
 30
0.0
  0
VERTEX
  8
ZUWAKU
  6
CONTINUOUS
 62
       7
  5
7FC
 10
-235.55946728
 20
422.8855158
 30
0.0
  0
VERTEX
  8
ZUWAKU
  6
CONTINUOUS
 62
       7
  5
7FD
 10
-235.54633701
 20
422.82831556
 30
0.0
  0
VERTEX
  8
ZUWAKU
  6
CONTINUOUS
 62
       7
  5
7FE
 10
-235.53149626
 20
422.77322387
 30
0.0
  0
VERTEX
  8
ZUWAKU
  6
CONTINUOUS
 62
       7
  5
7FF
 10
-235.51495977
 20
422.72029545
 30
0.0
  0
VERTEX
  8
ZUWAKU
  6
CONTINUOUS
 62
       7
  5
800
 10
-235.49674396
 20
422.66958291
 30
0.0
  0
SEQEND
  8
ZUWAKU
  6
CONTINUOUS
 62
       7
  5
801
  0
LINE
  8
ZUWAKU
  6
CONTINUOUS
 62
       7
  5
328
 10
-237.98594519
 20
422.51487012
 30
0.0
 11
-235.99437519
 21
422.51487012
 31
0.0
  0
ARC
  8
ZUWAKU
  6
CONTINUOUS
 62
       7
  5
329
 10
-236.69439623
 20
425.64414454
 30
0.0
 40
4.14561627
 50
313.58286141
 51
326.24939265
  0
ARC
  8
ZUWAKU
  6
CONTINUOUS
 62
       7
  5
32A
 10
-236.69439623
 20
425.64414454
 30
0.0
 40
4.14561627
 50
281.08479974
 51
298.5950739
  0
LINE
  8
ZUWAKU
  6
CONTINUOUS
 62
       7
  5
32B
 10
-233.33814603
 20
421.57587012
 30
0.0
 11
-231.8125
 21
421.57587012
 31
0.0
  0
LINE
  8
ZUWAKU
  6
CONTINUOUS
 62
       7
  5
32C
 10
-232.03089307
 20
422.68542358
 30
0.0
 11
-229.47945258
 21
425.23686407
 31
0.0
  0
LINE
  8
ZUWAKU
  6
CONTINUOUS
 62
       7
  5
32D
 10
-229.39154766
 20
422.51487012
 30
0.0
 11
-228.97900442
 21
424.99012959
 31
0.0
  0
LINE
  8
ZUWAKU
  6
CONTINUOUS
 62
       7
  5
32E
 10
-233.28564613
 20
422.51487012
 30
0.0
 11
-232.372
 21
422.51487012
 31
0.0
  0
ARC
  8
ZUWAKU
  6
CONTINUOUS
 62
       7
  5
32F
 10
-229.26639474
 20
425.03802798
 30
0.0
 40
0.29142656
 50
350.53767779
 51
496.97750576
  0
POLYLINE
  8
ZUWAKU
  6
CONTINUOUS
 62
       7
  5
330
 66
       1
 10
0.0
 20
0.0
 30
0.0
 70
     129
  0
VERTEX
  8
ZUWAKU
  6
CONTINUOUS
 62
       7
  5
802
 10
-225.56149437
 20
422.87910692
 30
0.0
  0
VERTEX
  8
ZUWAKU
  6
CONTINUOUS
 62
       7
  5
803
 10
-225.54990666
 20
422.87277331
 30
0.0
  0
VERTEX
  8
ZUWAKU
  6
CONTINUOUS
 62
       7
  5
804
 10
-225.53785939
 20
422.86725904
 30
0.0
  0
VERTEX
  8
ZUWAKU
  6
CONTINUOUS
 62
       7
  5
805
 10
-225.52537369
 20
422.86257379
 30
0.0
  0
VERTEX
  8
ZUWAKU
  6
CONTINUOUS
 62
       7
  5
806
 10
-225.51247147
 20
422.85872579
 30
0.0
  0
VERTEX
  8
ZUWAKU
  6
CONTINUOUS
 62
       7
  5
807
 10
-225.49917536
 20
422.85572178
 30
0.0
  0
VERTEX
  8
ZUWAKU
  6
CONTINUOUS
 62
       7
  5
808
 10
-225.48550869
 20
422.85356703
 30
0.0
  0
VERTEX
  8
ZUWAKU
  6
CONTINUOUS
 62
       7
  5
809
 10
-225.47149544
 20
422.85226532
 30
0.0
  0
VERTEX
  8
ZUWAKU
  6
CONTINUOUS
 62
       7
  5
80A
 10
-225.45716018
 20
422.85181894
 30
0.0
  0
VERTEX
  8
ZUWAKU
  6
CONTINUOUS
 62
       7
  5
80B
 10
-225.44252807
 20
422.85222867
 30
0.0
  0
VERTEX
  8
ZUWAKU
  6
CONTINUOUS
 62
       7
  5
80C
 10
-225.42762477
 20
422.85349379
 30
0.0
  0
VERTEX
  8
ZUWAKU
  6
CONTINUOUS
 62
       7
  5
80D
 10
-225.41247644
 20
422.85561208
 30
0.0
  0
VERTEX
  8
ZUWAKU
  6
CONTINUOUS
 62
       7
  5
80E
 10
-225.39710964
 20
422.85857983
 30
0.0
  0
VERTEX
  8
ZUWAKU
  6
CONTINUOUS
 62
       7
  5
80F
 10
-225.38155135
 20
422.86239182
 30
0.0
  0
VERTEX
  8
ZUWAKU
  6
CONTINUOUS
 62
       7
  5
810
 10
-225.36582884
 20
422.86704137
 30
0.0
  0
VERTEX
  8
ZUWAKU
  6
CONTINUOUS
 62
       7
  5
811
 10
-225.3499697
 20
422.87252033
 30
0.0
  0
VERTEX
  8
ZUWAKU
  6
CONTINUOUS
 62
       7
  5
812
 10
-225.33400176
 20
422.87881908
 30
0.0
  0
VERTEX
  8
ZUWAKU
  6
CONTINUOUS
 62
       7
  5
813
 10
-225.31795303
 20
422.88592658
 30
0.0
  0
VERTEX
  8
ZUWAKU
  6
CONTINUOUS
 62
       7
  5
814
 10
-225.30185166
 20
422.89383034
 30
0.0
  0
VERTEX
  8
ZUWAKU
  6
CONTINUOUS
 62
       7
  5
815
 10
-225.2857259
 20
422.90251652
 30
0.0
  0
VERTEX
  8
ZUWAKU
  6
CONTINUOUS
 62
       7
  5
816
 10
-225.26960405
 20
422.91196986
 30
0.0
  0
VERTEX
  8
ZUWAKU
  6
CONTINUOUS
 62
       7
  5
817
 10
-225.25351438
 20
422.92217378
 30
0.0
  0
VERTEX
  8
ZUWAKU
  6
CONTINUOUS
 62
       7
  5
818
 10
-225.23748511
 20
422.93311039
 30
0.0
  0
VERTEX
  8
ZUWAKU
  6
CONTINUOUS
 62
       7
  5
819
 10
-225.22154438
 20
422.9447605
 30
0.0
  0
VERTEX
  8
ZUWAKU
  6
CONTINUOUS
 62
       7
  5
81A
 10
-225.20572015
 20
422.95710366
 30
0.0
  0
VERTEX
  8
ZUWAKU
  6
CONTINUOUS
 62
       7
  5
81B
 10
-225.19004018
 20
422.97011823
 30
0.0
  0
VERTEX
  8
ZUWAKU
  6
CONTINUOUS
 62
       7
  5
81C
 10
-225.17453197
 20
422.98378137
 30
0.0
  0
VERTEX
  8
ZUWAKU
  6
CONTINUOUS
 62
       7
  5
81D
 10
-225.15922273
 20
422.99806911
 30
0.0
  0
VERTEX
  8
ZUWAKU
  6
CONTINUOUS
 62
       7
  5
81E
 10
-225.14413933
 20
423.01295639
 30
0.0
  0
VERTEX
  8
ZUWAKU
  6
CONTINUOUS
 62
       7
  5
81F
 10
-225.12930822
 20
423.02841709
 30
0.0
  0
VERTEX
  8
ZUWAKU
  6
CONTINUOUS
 62
       7
  5
820
 10
-225.11475541
 20
423.04442408
 30
0.0
  0
VERTEX
  8
ZUWAKU
  6
CONTINUOUS
 62
       7
  5
821
 10
-225.10050645
 20
423.06094929
 30
0.0
  0
VERTEX
  8
ZUWAKU
  6
CONTINUOUS
 62
       7
  5
822
 10
-225.08658633
 20
423.07796372
 30
0.0
  0
VERTEX
  8
ZUWAKU
  6
CONTINUOUS
 62
       7
  5
823
 10
-225.07301947
 20
423.09543753
 30
0.0
  0
VERTEX
  8
ZUWAKU
  6
CONTINUOUS
 62
       7
  5
824
 10
-225.05982967
 20
423.11334006
 30
0.0
  0
VERTEX
  8
ZUWAKU
  6
CONTINUOUS
 62
       7
  5
825
 10
-225.04704006
 20
423.1316399
 30
0.0
  0
VERTEX
  8
ZUWAKU
  6
CONTINUOUS
 62
       7
  5
826
 10
-225.0346731
 20
423.15030495
 30
0.0
  0
VERTEX
  8
ZUWAKU
  6
CONTINUOUS
 62
       7
  5
827
 10
-225.02275046
 20
423.16930246
 30
0.0
  0
VERTEX
  8
ZUWAKU
  6
CONTINUOUS
 62
       7
  5
828
 10
-225.01129308
 20
423.1885991
 30
0.0
  0
VERTEX
  8
ZUWAKU
  6
CONTINUOUS
 62
       7
  5
829
 10
-225.00032105
 20
423.20816103
 30
0.0
  0
VERTEX
  8
ZUWAKU
  6
CONTINUOUS
 62
       7
  5
82A
 10
-224.98985361
 20
423.22795393
 30
0.0
  0
VERTEX
  8
ZUWAKU
  6
CONTINUOUS
 62
       7
  5
82B
 10
-224.97990913
 20
423.24794306
 30
0.0
  0
VERTEX
  8
ZUWAKU
  6
CONTINUOUS
 62
       7
  5
82C
 10
-224.97050507
 20
423.26809337
 30
0.0
  0
VERTEX
  8
ZUWAKU
  6
CONTINUOUS
 62
       7
  5
82D
 10
-224.9616579
 20
423.2883695
 30
0.0
  0
VERTEX
  8
ZUWAKU
  6
CONTINUOUS
 62
       7
  5
82E
 10
-224.95338317
 20
423.30873588
 30
0.0
  0
VERTEX
  8
ZUWAKU
  6
CONTINUOUS
 62
       7
  5
82F
 10
-224.94569538
 20
423.32915678
 30
0.0
  0
VERTEX
  8
ZUWAKU
  6
CONTINUOUS
 62
       7
  5
830
 10
-224.93860801
 20
423.34959638
 30
0.0
  0
VERTEX
  8
ZUWAKU
  6
CONTINUOUS
 62
       7
  5
831
 10
-224.93213351
 20
423.37001882
 30
0.0
  0
VERTEX
  8
ZUWAKU
  6
CONTINUOUS
 62
       7
  5
832
 10
-224.92628324
 20
423.39038827
 30
0.0
  0
VERTEX
  8
ZUWAKU
  6
CONTINUOUS
 62
       7
  5
833
 10
-224.92106744
 20
423.41066899
 30
0.0
  0
VERTEX
  8
ZUWAKU
  6
CONTINUOUS
 62
       7
  5
834
 10
-224.91649529
 20
423.43082541
 30
0.0
  0
VERTEX
  8
ZUWAKU
  6
CONTINUOUS
 62
       7
  5
835
 10
-224.91257479
 20
423.45082217
 30
0.0
  0
VERTEX
  8
ZUWAKU
  6
CONTINUOUS
 62
       7
  5
836
 10
-224.90931282
 20
423.47062418
 30
0.0
  0
VERTEX
  8
ZUWAKU
  6
CONTINUOUS
 62
       7
  5
837
 10
-224.90671512
 20
423.4901967
 30
0.0
  0
VERTEX
  8
ZUWAKU
  6
CONTINUOUS
 62
       7
  5
838
 10
-224.90478623
 20
423.5095054
 30
0.0
  0
VERTEX
  8
ZUWAKU
  6
CONTINUOUS
 62
       7
  5
839
 10
-224.90352953
 20
423.52851641
 30
0.0
  0
VERTEX
  8
ZUWAKU
  6
CONTINUOUS
 62
       7
  5
83A
 10
-224.90294724
 20
423.54719637
 30
0.0
  0
VERTEX
  8
ZUWAKU
  6
CONTINUOUS
 62
       7
  5
83B
 10
-224.90304038
 20
423.56551251
 30
0.0
  0
VERTEX
  8
ZUWAKU
  6
CONTINUOUS
 62
       7
  5
83C
 10
-224.90380877
 20
423.5834327
 30
0.0
  0
VERTEX
  8
ZUWAKU
  6
CONTINUOUS
 62
       7
  5
83D
 10
-224.90525108
 20
423.60092549
 30
0.0
  0
VERTEX
  8
ZUWAKU
  6
CONTINUOUS
 62
       7
  5
83E
 10
-224.90736477
 20
423.61796021
 30
0.0
  0
VERTEX
  8
ZUWAKU
  6
CONTINUOUS
 62
       7
  5
83F
 10
-224.91014614
 20
423.63450697
 30
0.0
  0
VERTEX
  8
ZUWAKU
  6
CONTINUOUS
 62
       7
  5
840
 10
-224.9135903
 20
423.65053674
 30
0.0
  0
VERTEX
  8
ZUWAKU
  6
CONTINUOUS
 62
       7
  5
841
 10
-224.91769122
 20
423.66602139
 30
0.0
  0
VERTEX
  8
ZUWAKU
  6
CONTINUOUS
 62
       7
  5
842
 10
-224.92244169
 20
423.68093376
 30
0.0
  0
VERTEX
  8
ZUWAKU
  6
CONTINUOUS
 62
       7
  5
843
 10
-224.92783339
 20
423.6952477
 30
0.0
  0
VERTEX
  8
ZUWAKU
  6
CONTINUOUS
 62
       7
  5
844
 10
-224.93385685
 20
423.70893808
 30
0.0
  0
VERTEX
  8
ZUWAKU
  6
CONTINUOUS
 62
       7
  5
845
 10
-224.94050152
 20
423.7219809
 30
0.0
  0
VERTEX
  8
ZUWAKU
  6
CONTINUOUS
 62
       7
  5
846
 10
-224.94775572
 20
423.73435326
 30
0.0
  0
VERTEX
  8
ZUWAKU
  6
CONTINUOUS
 62
       7
  5
847
 10
-224.95560675
 20
423.74603347
 30
0.0
  0
VERTEX
  8
ZUWAKU
  6
CONTINUOUS
 62
       7
  5
848
 10
-224.96404081
 20
423.75700103
 30
0.0
  0
VERTEX
  8
ZUWAKU
  6
CONTINUOUS
 62
       7
  5
849
 10
-224.97304312
 20
423.7672367
 30
0.0
  0
VERTEX
  8
ZUWAKU
  6
CONTINUOUS
 62
       7
  5
84A
 10
-224.98259788
 20
423.77672253
 30
0.0
  0
VERTEX
  8
ZUWAKU
  6
CONTINUOUS
 62
       7
  5
84B
 10
-224.99268833
 20
423.78544188
 30
0.0
  0
VERTEX
  8
ZUWAKU
  6
CONTINUOUS
 62
       7
  5
84C
 10
-225.00329677
 20
423.79337944
 30
0.0
  0
VERTEX
  8
ZUWAKU
  6
CONTINUOUS
 62
       7
  5
84D
 10
-225.01440459
 20
423.80052129
 30
0.0
  0
VERTEX
  8
ZUWAKU
  6
CONTINUOUS
 62
       7
  5
84E
 10
-225.0259923
 20
423.80685491
 30
0.0
  0
VERTEX
  8
ZUWAKU
  6
CONTINUOUS
 62
       7
  5
84F
 10
-225.03803957
 20
423.81236917
 30
0.0
  0
VERTEX
  8
ZUWAKU
  6
CONTINUOUS
 62
       7
  5
850
 10
-225.05052527
 20
423.81705442
 30
0.0
  0
VERTEX
  8
ZUWAKU
  6
CONTINUOUS
 62
       7
  5
851
 10
-225.06342749
 20
423.82090242
 30
0.0
  0
VERTEX
  8
ZUWAKU
  6
CONTINUOUS
 62
       7
  5
852
 10
-225.0767236
 20
423.82390644
 30
0.0
  0
VERTEX
  8
ZUWAKU
  6
CONTINUOUS
 62
       7
  5
853
 10
-225.09039027
 20
423.82606119
 30
0.0
  0
VERTEX
  8
ZUWAKU
  6
CONTINUOUS
 62
       7
  5
854
 10
-225.10440353
 20
423.82736289
 30
0.0
  0
VERTEX
  8
ZUWAKU
  6
CONTINUOUS
 62
       7
  5
855
 10
-225.11873878
 20
423.82780927
 30
0.0
  0
VERTEX
  8
ZUWAKU
  6
CONTINUOUS
 62
       7
  5
856
 10
-225.1333709
 20
423.82739954
 30
0.0
  0
VERTEX
  8
ZUWAKU
  6
CONTINUOUS
 62
       7
  5
857
 10
-225.14827419
 20
423.82613442
 30
0.0
  0
VERTEX
  8
ZUWAKU
  6
CONTINUOUS
 62
       7
  5
858
 10
-225.16342252
 20
423.82401613
 30
0.0
  0
VERTEX
  8
ZUWAKU
  6
CONTINUOUS
 62
       7
  5
859
 10
-225.17878932
 20
423.82104839
 30
0.0
  0
VERTEX
  8
ZUWAKU
  6
CONTINUOUS
 62
       7
  5
85A
 10
-225.19434762
 20
423.81723639
 30
0.0
  0
VERTEX
  8
ZUWAKU
  6
CONTINUOUS
 62
       7
  5
85B
 10
-225.21007013
 20
423.81258684
 30
0.0
  0
VERTEX
  8
ZUWAKU
  6
CONTINUOUS
 62
       7
  5
85C
 10
-225.22592926
 20
423.80710788
 30
0.0
  0
VERTEX
  8
ZUWAKU
  6
CONTINUOUS
 62
       7
  5
85D
 10
-225.2418972
 20
423.80080913
 30
0.0
  0
VERTEX
  8
ZUWAKU
  6
CONTINUOUS
 62
       7
  5
85E
 10
-225.25794593
 20
423.79370164
 30
0.0
  0
VERTEX
  8
ZUWAKU
  6
CONTINUOUS
 62
       7
  5
85F
 10
-225.2740473
 20
423.78579787
 30
0.0
  0
VERTEX
  8
ZUWAKU
  6
CONTINUOUS
 62
       7
  5
860
 10
-225.29017306
 20
423.7771117
 30
0.0
  0
VERTEX
  8
ZUWAKU
  6
CONTINUOUS
 62
       7
  5
861
 10
-225.30629492
 20
423.76765836
 30
0.0
  0
VERTEX
  8
ZUWAKU
  6
CONTINUOUS
 62
       7
  5
862
 10
-225.32238459
 20
423.75745443
 30
0.0
  0
VERTEX
  8
ZUWAKU
  6
CONTINUOUS
 62
       7
  5
863
 10
-225.33841385
 20
423.74651782
 30
0.0
  0
VERTEX
  8
ZUWAKU
  6
CONTINUOUS
 62
       7
  5
864
 10
-225.35435458
 20
423.73486772
 30
0.0
  0
VERTEX
  8
ZUWAKU
  6
CONTINUOUS
 62
       7
  5
865
 10
-225.37017881
 20
423.72252455
 30
0.0
  0
VERTEX
  8
ZUWAKU
  6
CONTINUOUS
 62
       7
  5
866
 10
-225.38585878
 20
423.70950999
 30
0.0
  0
VERTEX
  8
ZUWAKU
  6
CONTINUOUS
 62
       7
  5
867
 10
-225.40136699
 20
423.69584685
 30
0.0
  0
VERTEX
  8
ZUWAKU
  6
CONTINUOUS
 62
       7
  5
868
 10
-225.41667623
 20
423.6815591
 30
0.0
  0
VERTEX
  8
ZUWAKU
  6
CONTINUOUS
 62
       7
  5
869
 10
-225.43175963
 20
423.66667183
 30
0.0
  0
VERTEX
  8
ZUWAKU
  6
CONTINUOUS
 62
       7
  5
86A
 10
-225.44659075
 20
423.65121113
 30
0.0
  0
VERTEX
  8
ZUWAKU
  6
CONTINUOUS
 62
       7
  5
86B
 10
-225.46114355
 20
423.63520413
 30
0.0
  0
VERTEX
  8
ZUWAKU
  6
CONTINUOUS
 62
       7
  5
86C
 10
-225.47539251
 20
423.61867892
 30
0.0
  0
VERTEX
  8
ZUWAKU
  6
CONTINUOUS
 62
       7
  5
86D
 10
-225.48931263
 20
423.60166449
 30
0.0
  0
VERTEX
  8
ZUWAKU
  6
CONTINUOUS
 62
       7
  5
86E
 10
-225.50287949
 20
423.58419068
 30
0.0
  0
VERTEX
  8
ZUWAKU
  6
CONTINUOUS
 62
       7
  5
86F
 10
-225.5160693
 20
423.56628816
 30
0.0
  0
VERTEX
  8
ZUWAKU
  6
CONTINUOUS
 62
       7
  5
870
 10
-225.5288589
 20
423.54798832
 30
0.0
  0
VERTEX
  8
ZUWAKU
  6
CONTINUOUS
 62
       7
  5
871
 10
-225.54122587
 20
423.52932327
 30
0.0
  0
VERTEX
  8
ZUWAKU
  6
CONTINUOUS
 62
       7
  5
872
 10
-225.5531485
 20
423.51032576
 30
0.0
  0
VERTEX
  8
ZUWAKU
  6
CONTINUOUS
 62
       7
  5
873
 10
-225.56460588
 20
423.49102911
 30
0.0
  0
VERTEX
  8
ZUWAKU
  6
CONTINUOUS
 62
       7
  5
874
 10
-225.57557792
 20
423.47146718
 30
0.0
  0
VERTEX
  8
ZUWAKU
  6
CONTINUOUS
 62
       7
  5
875
 10
-225.58604535
 20
423.45167429
 30
0.0
  0
VERTEX
  8
ZUWAKU
  6
CONTINUOUS
 62
       7
  5
876
 10
-225.59598983
 20
423.43168515
 30
0.0
  0
VERTEX
  8
ZUWAKU
  6
CONTINUOUS
 62
       7
  5
877
 10
-225.6053939
 20
423.41153485
 30
0.0
  0
VERTEX
  8
ZUWAKU
  6
CONTINUOUS
 62
       7
  5
878
 10
-225.61424106
 20
423.39125872
 30
0.0
  0
VERTEX
  8
ZUWAKU
  6
CONTINUOUS
 62
       7
  5
879
 10
-225.62251579
 20
423.37089234
 30
0.0
  0
VERTEX
  8
ZUWAKU
  6
CONTINUOUS
 62
       7
  5
87A
 10
-225.63020359
 20
423.35047143
 30
0.0
  0
VERTEX
  8
ZUWAKU
  6
CONTINUOUS
 62
       7
  5
87B
 10
-225.63729095
 20
423.33003184
 30
0.0
  0
VERTEX
  8
ZUWAKU
  6
CONTINUOUS
 62
       7
  5
87C
 10
-225.64376545
 20
423.3096094
 30
0.0
  0
VERTEX
  8
ZUWAKU
  6
CONTINUOUS
 62
       7
  5
87D
 10
-225.64961573
 20
423.28923995
 30
0.0
  0
VERTEX
  8
ZUWAKU
  6
CONTINUOUS
 62
       7
  5
87E
 10
-225.65483152
 20
423.26895922
 30
0.0
  0
VERTEX
  8
ZUWAKU
  6
CONTINUOUS
 62
       7
  5
87F
 10
-225.65940367
 20
423.2488028
 30
0.0
  0
VERTEX
  8
ZUWAKU
  6
CONTINUOUS
 62
       7
  5
880
 10
-225.66332417
 20
423.22880605
 30
0.0
  0
VERTEX
  8
ZUWAKU
  6
CONTINUOUS
 62
       7
  5
881
 10
-225.66658614
 20
423.20900404
 30
0.0
  0
VERTEX
  8
ZUWAKU
  6
CONTINUOUS
 62
       7
  5
882
 10
-225.66918385
 20
423.18943151
 30
0.0
  0
VERTEX
  8
ZUWAKU
  6
CONTINUOUS
 62
       7
  5
883
 10
-225.67111274
 20
423.17012281
 30
0.0
  0
VERTEX
  8
ZUWAKU
  6
CONTINUOUS
 62
       7
  5
884
 10
-225.67236943
 20
423.1511118
 30
0.0
  0
VERTEX
  8
ZUWAKU
  6
CONTINUOUS
 62
       7
  5
885
 10
-225.67295172
 20
423.13243185
 30
0.0
  0
VERTEX
  8
ZUWAKU
  6
CONTINUOUS
 62
       7
  5
886
 10
-225.67285859
 20
423.11411571
 30
0.0
  0
VERTEX
  8
ZUWAKU
  6
CONTINUOUS
 62
       7
  5
887
 10
-225.67209019
 20
423.09619552
 30
0.0
  0
VERTEX
  8
ZUWAKU
  6
CONTINUOUS
 62
       7
  5
888
 10
-225.67064788
 20
423.07870272
 30
0.0
  0
VERTEX
  8
ZUWAKU
  6
CONTINUOUS
 62
       7
  5
889
 10
-225.66853419
 20
423.061668
 30
0.0
  0
VERTEX
  8
ZUWAKU
  6
CONTINUOUS
 62
       7
  5
88A
 10
-225.66575282
 20
423.04512124
 30
0.0
  0
VERTEX
  8
ZUWAKU
  6
CONTINUOUS
 62
       7
  5
88B
 10
-225.66230866
 20
423.02909148
 30
0.0
  0
VERTEX
  8
ZUWAKU
  6
CONTINUOUS
 62
       7
  5
88C
 10
-225.65820775
 20
423.01360682
 30
0.0
  0
VERTEX
  8
ZUWAKU
  6
CONTINUOUS
 62
       7
  5
88D
 10
-225.65345727
 20
422.99869445
 30
0.0
  0
VERTEX
  8
ZUWAKU
  6
CONTINUOUS
 62
       7
  5
88E
 10
-225.64806557
 20
422.98438052
 30
0.0
  0
VERTEX
  8
ZUWAKU
  6
CONTINUOUS
 62
       7
  5
88F
 10
-225.64204211
 20
422.97069013
 30
0.0
  0
VERTEX
  8
ZUWAKU
  6
CONTINUOUS
 62
       7
  5
890
 10
-225.63539744
 20
422.95764732
 30
0.0
  0
VERTEX
  8
ZUWAKU
  6
CONTINUOUS
 62
       7
  5
891
 10
-225.62814324
 20
422.94527495
 30
0.0
  0
VERTEX
  8
ZUWAKU
  6
CONTINUOUS
 62
       7
  5
892
 10
-225.62029222
 20
422.93359475
 30
0.0
  0
VERTEX
  8
ZUWAKU
  6
CONTINUOUS
 62
       7
  5
893
 10
-225.61185815
 20
422.92262718
 30
0.0
  0
VERTEX
  8
ZUWAKU
  6
CONTINUOUS
 62
       7
  5
894
 10
-225.60285584
 20
422.91239151
 30
0.0
  0
VERTEX
  8
ZUWAKU
  6
CONTINUOUS
 62
       7
  5
895
 10
-225.59330108
 20
422.90290568
 30
0.0
  0
VERTEX
  8
ZUWAKU
  6
CONTINUOUS
 62
       7
  5
896
 10
-225.58321063
 20
422.89418634
 30
0.0
  0
VERTEX
  8
ZUWAKU
  6
CONTINUOUS
 62
       7
  5
897
 10
-225.57260219
 20
422.88624878
 30
0.0
  0
SEQEND
  8
ZUWAKU
  6
CONTINUOUS
 62
       7
  5
898
  0
LINE
  8
ZUWAKU
  6
CONTINUOUS
 62
       7
  5
331
 10
-228.40139776
 20
422.51487012
 30
0.0
 11
-226.83857798
 21
423.26551584
 31
0.0
  0
LINE
  8
ZUWAKU
  6
CONTINUOUS
 62
       7
  5
332
 10
-228.25
 20
421.57587012
 30
0.0
 11
-226.94155176
 21
422.15565982
 31
0.0
  0
LINE
  8
ZUWAKU
  6
CONTINUOUS
 62
       7
  5
333
 10
-229.39154766
 20
422.51487012
 30
0.0
 11
-228.40139776
 21
422.51487012
 31
0.0
  0
LINE
  8
ZUWAKU
  6
CONTINUOUS
 62
       7
  5
334
 10
-225.04187763
 20
421.99892524
 30
0.0
 11
-224.60423441
 21
421.57587012
 31
0.0
  0
LINE
  8
ZUWAKU
  6
CONTINUOUS
 62
       7
  5
335
 10
-223.5625
 20
422.51487012
 30
0.0
 11
-222.24336327
 21
422.51487012
 31
0.0
  0
LINE
  8
ZUWAKU
  6
CONTINUOUS
 62
       7
  5
336
 10
-219.24507756
 20
425.13837012
 30
0.0
 11
-222.24336327
 21
422.51487012
 31
0.0
  0
POLYLINE
  8
ZUWAKU
  6
CONTINUOUS
 62
       7
  5
337
 66
       1
 10
0.0
 20
0.0
 30
0.0
 70
     128
  0
VERTEX
  8
ZUWAKU
  6
CONTINUOUS
 62
       7
  5
899
 10
-224.03618389
 20
424.33341773
 30
0.0
  0
VERTEX
  8
ZUWAKU
  6
CONTINUOUS
 62
       7
  5
89A
 10
-224.04331592
 20
424.35293636
 30
0.0
  0
VERTEX
  8
ZUWAKU
  6
CONTINUOUS
 62
       7
  5
89B
 10
-224.05081342
 20
424.37216977
 30
0.0
  0
VERTEX
  8
ZUWAKU
  6
CONTINUOUS
 62
       7
  5
89C
 10
-224.05867448
 20
424.39111307
 30
0.0
  0
VERTEX
  8
ZUWAKU
  6
CONTINUOUS
 62
       7
  5
89D
 10
-224.06689711
 20
424.40976146
 30
0.0
  0
VERTEX
  8
ZUWAKU
  6
CONTINUOUS
 62
       7
  5
89E
 10
-224.07547923
 20
424.4281102
 30
0.0
  0
VERTEX
  8
ZUWAKU
  6
CONTINUOUS
 62
       7
  5
89F
 10
-224.08441865
 20
424.44615464
 30
0.0
  0
VERTEX
  8
ZUWAKU
  6
CONTINUOUS
 62
       7
  5
8A0
 10
-224.09371311
 20
424.4638902
 30
0.0
  0
VERTEX
  8
ZUWAKU
  6
CONTINUOUS
 62
       7
  5
8A1
 10
-224.10336025
 20
424.48131238
 30
0.0
  0
VERTEX
  8
ZUWAKU
  6
CONTINUOUS
 62
       7
  5
8A2
 10
-224.11335761
 20
424.49841675
 30
0.0
  0
VERTEX
  8
ZUWAKU
  6
CONTINUOUS
 62
       7
  5
8A3
 10
-224.12370268
 20
424.51519899
 30
0.0
  0
VERTEX
  8
ZUWAKU
  6
CONTINUOUS
 62
       7
  5
8A4
 10
-224.13439281
 20
424.53165483
 30
0.0
  0
VERTEX
  8
ZUWAKU
  6
CONTINUOUS
 62
       7
  5
8A5
 10
-224.1454253
 20
424.54778009
 30
0.0
  0
VERTEX
  8
ZUWAKU
  6
CONTINUOUS
 62
       7
  5
8A6
 10
-224.15679734
 20
424.56357069
 30
0.0
  0
VERTEX
  8
ZUWAKU
  6
CONTINUOUS
 62
       7
  5
8A7
 10
-224.16850606
 20
424.57902261
 30
0.0
  0
VERTEX
  8
ZUWAKU
  6
CONTINUOUS
 62
       7
  5
8A8
 10
-224.18054848
 20
424.59413194
 30
0.0
  0
VERTEX
  8
ZUWAKU
  6
CONTINUOUS
 62
       7
  5
8A9
 10
-224.19292154
 20
424.60889484
 30
0.0
  0
VERTEX
  8
ZUWAKU
  6
CONTINUOUS
 62
       7
  5
8AA
 10
-224.20562211
 20
424.62330756
 30
0.0
  0
VERTEX
  8
ZUWAKU
  6
CONTINUOUS
 62
       7
  5
8AB
 10
-224.21864696
 20
424.63736646
 30
0.0
  0
VERTEX
  8
ZUWAKU
  6
CONTINUOUS
 62
       7
  5
8AC
 10
-224.23199279
 20
424.65106795
 30
0.0
  0
VERTEX
  8
ZUWAKU
  6
CONTINUOUS
 62
       7
  5
8AD
 10
-224.24565621
 20
424.66440858
 30
0.0
  0
VERTEX
  8
ZUWAKU
  6
CONTINUOUS
 62
       7
  5
8AE
 10
-224.25963375
 20
424.67738494
 30
0.0
  0
VERTEX
  8
ZUWAKU
  6
CONTINUOUS
 62
       7
  5
8AF
 10
-224.27392188
 20
424.68999374
 30
0.0
  0
VERTEX
  8
ZUWAKU
  6
CONTINUOUS
 62
       7
  5
8B0
 10
-224.28851695
 20
424.7022318
 30
0.0
  0
VERTEX
  8
ZUWAKU
  6
CONTINUOUS
 62
       7
  5
8B1
 10
-224.30341527
 20
424.71409599
 30
0.0
  0
VERTEX
  8
ZUWAKU
  6
CONTINUOUS
 62
       7
  5
8B2
 10
-224.31861306
 20
424.72558332
 30
0.0
  0
VERTEX
  8
ZUWAKU
  6
CONTINUOUS
 62
       7
  5
8B3
 10
-224.33410647
 20
424.73669087
 30
0.0
  0
VERTEX
  8
ZUWAKU
  6
CONTINUOUS
 62
       7
  5
8B4
 10
-224.34989155
 20
424.74741581
 30
0.0
  0
VERTEX
  8
ZUWAKU
  6
CONTINUOUS
 62
       7
  5
8B5
 10
-224.36596431
 20
424.75775543
 30
0.0
  0
VERTEX
  8
ZUWAKU
  6
CONTINUOUS
 62
       7
  5
8B6
 10
-224.38232067
 20
424.7677071
 30
0.0
  0
VERTEX
  8
ZUWAKU
  6
CONTINUOUS
 62
       7
  5
8B7
 10
-224.39895647
 20
424.77726831
 30
0.0
  0
VERTEX
  8
ZUWAKU
  6
CONTINUOUS
 62
       7
  5
8B8
 10
-224.4158675
 20
424.78643661
 30
0.0
  0
VERTEX
  8
ZUWAKU
  6
CONTINUOUS
 62
       7
  5
8B9
 10
-224.43304946
 20
424.79520969
 30
0.0
  0
VERTEX
  8
ZUWAKU
  6
CONTINUOUS
 62
       7
  5
8BA
 10
-224.450498
 20
424.80358532
 30
0.0
  0
VERTEX
  8
ZUWAKU
  6
CONTINUOUS
 62
       7
  5
8BB
 10
-224.46820868
 20
424.81156138
 30
0.0
  0
VERTEX
  8
ZUWAKU
  6
CONTINUOUS
 62
       7
  5
8BC
 10
-224.48617702
 20
424.81913583
 30
0.0
  0
VERTEX
  8
ZUWAKU
  6
CONTINUOUS
 62
       7
  5
8BD
 10
-224.50439845
 20
424.82630676
 30
0.0
  0
VERTEX
  8
ZUWAKU
  6
CONTINUOUS
 62
       7
  5
8BE
 10
-224.52286835
 20
424.83307236
 30
0.0
  0
VERTEX
  8
ZUWAKU
  6
CONTINUOUS
 62
       7
  5
8BF
 10
-224.54158204
 20
424.83943089
 30
0.0
  0
VERTEX
  8
ZUWAKU
  6
CONTINUOUS
 62
       7
  5
8C0
 10
-224.56053476
 20
424.84538075
 30
0.0
  0
VERTEX
  8
ZUWAKU
  6
CONTINUOUS
 62
       7
  5
8C1
 10
-224.5797217
 20
424.85092044
 30
0.0
  0
VERTEX
  8
ZUWAKU
  6
CONTINUOUS
 62
       7
  5
8C2
 10
-224.59913801
 20
424.85604853
 30
0.0
  0
VERTEX
  8
ZUWAKU
  6
CONTINUOUS
 62
       7
  5
8C3
 10
-224.61877874
 20
424.86076374
 30
0.0
  0
VERTEX
  8
ZUWAKU
  6
CONTINUOUS
 62
       7
  5
8C4
 10
-224.63863892
 20
424.86506486
 30
0.0
  0
VERTEX
  8
ZUWAKU
  6
CONTINUOUS
 62
       7
  5
8C5
 10
-224.65871351
 20
424.86895081
 30
0.0
  0
VERTEX
  8
ZUWAKU
  6
CONTINUOUS
 62
       7
  5
8C6
 10
-224.67899741
 20
424.8724206
 30
0.0
  0
VERTEX
  8
ZUWAKU
  6
CONTINUOUS
 62
       7
  5
8C7
 10
-224.69948548
 20
424.87547334
 30
0.0
  0
VERTEX
  8
ZUWAKU
  6
CONTINUOUS
 62
       7
  5
8C8
 10
-224.72017252
 20
424.87810827
 30
0.0
  0
VERTEX
  8
ZUWAKU
  6
CONTINUOUS
 62
       7
  5
8C9
 10
-224.74105327
 20
424.88032471
 30
0.0
  0
VERTEX
  8
ZUWAKU
  6
CONTINUOUS
 62
       7
  5
8CA
 10
-224.76212245
 20
424.88212211
 30
0.0
  0
VERTEX
  8
ZUWAKU
  6
CONTINUOUS
 62
       7
  5
8CB
 10
-224.7833747
 20
424.8835
 30
0.0
  0
VERTEX
  8
ZUWAKU
  6
CONTINUOUS
 62
       7
  5
8CC
 10
-224.80480463
 20
424.88445803
 30
0.0
  0
VERTEX
  8
ZUWAKU
  6
CONTINUOUS
 62
       7
  5
8CD
 10
-224.82640681
 20
424.88499598
 30
0.0
  0
VERTEX
  8
ZUWAKU
  6
CONTINUOUS
 62
       7
  5
8CE
 10
-224.84817575
 20
424.88511368
 30
0.0
  0
VERTEX
  8
ZUWAKU
  6
CONTINUOUS
 62
       7
  5
8CF
 10
-224.87010593
 20
424.88481113
 30
0.0
  0
VERTEX
  8
ZUWAKU
  6
CONTINUOUS
 62
       7
  5
8D0
 10
-224.89219178
 20
424.88408839
 30
0.0
  0
VERTEX
  8
ZUWAKU
  6
CONTINUOUS
 62
       7
  5
8D1
 10
-224.91442771
 20
424.88294564
 30
0.0
  0
VERTEX
  8
ZUWAKU
  6
CONTINUOUS
 62
       7
  5
8D2
 10
-224.93680806
 20
424.88138319
 30
0.0
  0
VERTEX
  8
ZUWAKU
  6
CONTINUOUS
 62
       7
  5
8D3
 10
-224.95932716
 20
424.87940141
 30
0.0
  0
VERTEX
  8
ZUWAKU
  6
CONTINUOUS
 62
       7
  5
8D4
 10
-224.98197929
 20
424.87700083
 30
0.0
  0
VERTEX
  8
ZUWAKU
  6
CONTINUOUS
 62
       7
  5
8D5
 10
-225.00475872
 20
424.87418204
 30
0.0
  0
VERTEX
  8
ZUWAKU
  6
CONTINUOUS
 62
       7
  5
8D6
 10
-225.02765965
 20
424.87094576
 30
0.0
  0
VERTEX
  8
ZUWAKU
  6
CONTINUOUS
 62
       7
  5
8D7
 10
-225.05067627
 20
424.86729281
 30
0.0
  0
VERTEX
  8
ZUWAKU
  6
CONTINUOUS
 62
       7
  5
8D8
 10
-225.07380275
 20
424.86322412
 30
0.0
  0
VERTEX
  8
ZUWAKU
  6
CONTINUOUS
 62
       7
  5
8D9
 10
-225.09703322
 20
424.85874072
 30
0.0
  0
VERTEX
  8
ZUWAKU
  6
CONTINUOUS
 62
       7
  5
8DA
 10
-225.12036179
 20
424.85384375
 30
0.0
  0
VERTEX
  8
ZUWAKU
  6
CONTINUOUS
 62
       7
  5
8DB
 10
-225.14378252
 20
424.84853446
 30
0.0
  0
VERTEX
  8
ZUWAKU
  6
CONTINUOUS
 62
       7
  5
8DC
 10
-225.16728949
 20
424.84281418
 30
0.0
  0
VERTEX
  8
ZUWAKU
  6
CONTINUOUS
 62
       7
  5
8DD
 10
-225.19087672
 20
424.83668437
 30
0.0
  0
VERTEX
  8
ZUWAKU
  6
CONTINUOUS
 62
       7
  5
8DE
 10
-225.21453824
 20
424.83014659
 30
0.0
  0
VERTEX
  8
ZUWAKU
  6
CONTINUOUS
 62
       7
  5
8DF
 10
-225.23826803
 20
424.82320249
 30
0.0
  0
VERTEX
  8
ZUWAKU
  6
CONTINUOUS
 62
       7
  5
8E0
 10
-225.26206007
 20
424.81585384
 30
0.0
  0
VERTEX
  8
ZUWAKU
  6
CONTINUOUS
 62
       7
  5
8E1
 10
-225.28590834
 20
424.8081025
 30
0.0
  0
VERTEX
  8
ZUWAKU
  6
CONTINUOUS
 62
       7
  5
8E2
 10
-225.30980677
 20
424.79995044
 30
0.0
  0
VERTEX
  8
ZUWAKU
  6
CONTINUOUS
 62
       7
  5
8E3
 10
-225.3337493
 20
424.79139973
 30
0.0
  0
VERTEX
  8
ZUWAKU
  6
CONTINUOUS
 62
       7
  5
8E4
 10
-225.35772987
 20
424.78245253
 30
0.0
  0
VERTEX
  8
ZUWAKU
  6
CONTINUOUS
 62
       7
  5
8E5
 10
-225.38174237
 20
424.77311112
 30
0.0
  0
VERTEX
  8
ZUWAKU
  6
CONTINUOUS
 62
       7
  5
8E6
 10
-225.40578073
 20
424.76337787
 30
0.0
  0
VERTEX
  8
ZUWAKU
  6
CONTINUOUS
 62
       7
  5
8E7
 10
-225.42983884
 20
424.75325524
 30
0.0
  0
VERTEX
  8
ZUWAKU
  6
CONTINUOUS
 62
       7
  5
8E8
 10
-225.45391059
 20
424.74274581
 30
0.0
  0
VERTEX
  8
ZUWAKU
  6
CONTINUOUS
 62
       7
  5
8E9
 10
-225.47798988
 20
424.73185224
 30
0.0
  0
VERTEX
  8
ZUWAKU
  6
CONTINUOUS
 62
       7
  5
8EA
 10
-225.5020706
 20
424.72057729
 30
0.0
  0
VERTEX
  8
ZUWAKU
  6
CONTINUOUS
 62
       7
  5
8EB
 10
-225.52614663
 20
424.70892384
 30
0.0
  0
VERTEX
  8
ZUWAKU
  6
CONTINUOUS
 62
       7
  5
8EC
 10
-225.55021187
 20
424.69689482
 30
0.0
  0
VERTEX
  8
ZUWAKU
  6
CONTINUOUS
 62
       7
  5
8ED
 10
-225.57426022
 20
424.68449331
 30
0.0
  0
VERTEX
  8
ZUWAKU
  6
CONTINUOUS
 62
       7
  5
8EE
 10
-225.59828557
 20
424.67172244
 30
0.0
  0
VERTEX
  8
ZUWAKU
  6
CONTINUOUS
 62
       7
  5
8EF
 10
-225.62228181
 20
424.65858545
 30
0.0
  0
VERTEX
  8
ZUWAKU
  6
CONTINUOUS
 62
       7
  5
8F0
 10
-225.64624288
 20
424.64508567
 30
0.0
  0
VERTEX
  8
ZUWAKU
  6
CONTINUOUS
 62
       7
  5
8F1
 10
-225.67016268
 20
424.63122654
 30
0.0
  0
VERTEX
  8
ZUWAKU
  6
CONTINUOUS
 62
       7
  5
8F2
 10
-225.69403514
 20
424.61701157
 30
0.0
  0
VERTEX
  8
ZUWAKU
  6
CONTINUOUS
 62
       7
  5
8F3
 10
-225.71785421
 20
424.60244437
 30
0.0
  0
VERTEX
  8
ZUWAKU
  6
CONTINUOUS
 62
       7
  5
8F4
 10
-225.74161385
 20
424.58752863
 30
0.0
  0
VERTEX
  8
ZUWAKU
  6
CONTINUOUS
 62
       7
  5
8F5
 10
-225.76530802
 20
424.57226814
 30
0.0
  0
VERTEX
  8
ZUWAKU
  6
CONTINUOUS
 62
       7
  5
8F6
 10
-225.78893071
 20
424.55666676
 30
0.0
  0
VERTEX
  8
ZUWAKU
  6
CONTINUOUS
 62
       7
  5
8F7
 10
-225.81247593
 20
424.54072846
 30
0.0
  0
VERTEX
  8
ZUWAKU
  6
CONTINUOUS
 62
       7
  5
8F8
 10
-225.83593771
 20
424.52445729
 30
0.0
  0
VERTEX
  8
ZUWAKU
  6
CONTINUOUS
 62
       7
  5
8F9
 10
-225.85931009
 20
424.50785737
 30
0.0
  0
VERTEX
  8
ZUWAKU
  6
CONTINUOUS
 62
       7
  5
8FA
 10
-225.88258713
 20
424.49093291
 30
0.0
  0
VERTEX
  8
ZUWAKU
  6
CONTINUOUS
 62
       7
  5
8FB
 10
-225.90576294
 20
424.47368821
 30
0.0
  0
VERTEX
  8
ZUWAKU
  6
CONTINUOUS
 62
       7
  5
8FC
 10
-225.92883164
 20
424.45612764
 30
0.0
  0
VERTEX
  8
ZUWAKU
  6
CONTINUOUS
 62
       7
  5
8FD
 10
-225.95178736
 20
424.43825566
 30
0.0
  0
VERTEX
  8
ZUWAKU
  6
CONTINUOUS
 62
       7
  5
8FE
 10
-225.97462429
 20
424.42007681
 30
0.0
  0
VERTEX
  8
ZUWAKU
  6
CONTINUOUS
 62
       7
  5
8FF
 10
-225.99733663
 20
424.40159569
 30
0.0
  0
VERTEX
  8
ZUWAKU
  6
CONTINUOUS
 62
       7
  5
900
 10
-226.01991862
 20
424.382817
 30
0.0
  0
VERTEX
  8
ZUWAKU
  6
CONTINUOUS
 62
       7
  5
901
 10
-226.04236452
 20
424.36374551
 30
0.0
  0
VERTEX
  8
ZUWAKU
  6
CONTINUOUS
 62
       7
  5
902
 10
-226.06466864
 20
424.34438604
 30
0.0
  0
VERTEX
  8
ZUWAKU
  6
CONTINUOUS
 62
       7
  5
903
 10
-226.08682533
 20
424.32474351
 30
0.0
  0
VERTEX
  8
ZUWAKU
  6
CONTINUOUS
 62
       7
  5
904
 10
-226.10882896
 20
424.30482292
 30
0.0
  0
VERTEX
  8
ZUWAKU
  6
CONTINUOUS
 62
       7
  5
905
 10
-226.13067394
 20
424.2846293
 30
0.0
  0
VERTEX
  8
ZUWAKU
  6
CONTINUOUS
 62
       7
  5
906
 10
-226.15235474
 20
424.26416779
 30
0.0
  0
VERTEX
  8
ZUWAKU
  6
CONTINUOUS
 62
       7
  5
907
 10
-226.17386584
 20
424.24344358
 30
0.0
  0
VERTEX
  8
ZUWAKU
  6
CONTINUOUS
 62
       7
  5
908
 10
-226.19520181
 20
424.22246193
 30
0.0
  0
VERTEX
  8
ZUWAKU
  6
CONTINUOUS
 62
       7
  5
909
 10
-226.21635721
 20
424.20122816
 30
0.0
  0
VERTEX
  8
ZUWAKU
  6
CONTINUOUS
 62
       7
  5
90A
 10
-226.23732668
 20
424.17974765
 30
0.0
  0
VERTEX
  8
ZUWAKU
  6
CONTINUOUS
 62
       7
  5
90B
 10
-226.25810491
 20
424.15802586
 30
0.0
  0
VERTEX
  8
ZUWAKU
  6
CONTINUOUS
 62
       7
  5
90C
 10
-226.27868661
 20
424.13606831
 30
0.0
  0
VERTEX
  8
ZUWAKU
  6
CONTINUOUS
 62
       7
  5
90D
 10
-226.29906658
 20
424.11388056
 30
0.0
  0
VERTEX
  8
ZUWAKU
  6
CONTINUOUS
 62
       7
  5
90E
 10
-226.31923962
 20
424.09146824
 30
0.0
  0
VERTEX
  8
ZUWAKU
  6
CONTINUOUS
 62
       7
  5
90F
 10
-226.33920063
 20
424.06883704
 30
0.0
  0
VERTEX
  8
ZUWAKU
  6
CONTINUOUS
 62
       7
  5
910
 10
-226.35894455
 20
424.0459927
 30
0.0
  0
VERTEX
  8
ZUWAKU
  6
CONTINUOUS
 62
       7
  5
911
 10
-226.37846635
 20
424.02294102
 30
0.0
  0
VERTEX
  8
ZUWAKU
  6
CONTINUOUS
 62
       7
  5
912
 10
-226.3977611
 20
423.99968784
 30
0.0
  0
VERTEX
  8
ZUWAKU
  6
CONTINUOUS
 62
       7
  5
913
 10
-226.41682388
 20
423.97623908
 30
0.0
  0
VERTEX
  8
ZUWAKU
  6
CONTINUOUS
 62
       7
  5
914
 10
-226.43564987
 20
423.95260067
 30
0.0
  0
VERTEX
  8
ZUWAKU
  6
CONTINUOUS
 62
       7
  5
915
 10
-226.45423429
 20
423.92877862
 30
0.0
  0
VERTEX
  8
ZUWAKU
  6
CONTINUOUS
 62
       7
  5
916
 10
-226.47257242
 20
423.90477897
 30
0.0
  0
VERTEX
  8
ZUWAKU
  6
CONTINUOUS
 62
       7
  5
917
 10
-226.49065961
 20
423.88060781
 30
0.0
  0
VERTEX
  8
ZUWAKU
  6
CONTINUOUS
 62
       7
  5
918
 10
-226.50849126
 20
423.85627128
 30
0.0
  0
VERTEX
  8
ZUWAKU
  6
CONTINUOUS
 62
       7
  5
919
 10
-226.52606287
 20
423.83177554
 30
0.0
  0
VERTEX
  8
ZUWAKU
  6
CONTINUOUS
 62
       7
  5
91A
 10
-226.54336996
 20
423.80712682
 30
0.0
  0
VERTEX
  8
ZUWAKU
  6
CONTINUOUS
 62
       7
  5
91B
 10
-226.56040814
 20
423.78233136
 30
0.0
  0
VERTEX
  8
ZUWAKU
  6
CONTINUOUS
 62
       7
  5
91C
 10
-226.5771731
 20
423.75739547
 30
0.0
  0
VERTEX
  8
ZUWAKU
  6
CONTINUOUS
 62
       7
  5
91D
 10
-226.59366057
 20
423.73232547
 30
0.0
  0
VERTEX
  8
ZUWAKU
  6
CONTINUOUS
 62
       7
  5
91E
 10
-226.60986638
 20
423.70712771
 30
0.0
  0
VERTEX
  8
ZUWAKU
  6
CONTINUOUS
 62
       7
  5
91F
 10
-226.62578641
 20
423.6818086
 30
0.0
  0
VERTEX
  8
ZUWAKU
  6
CONTINUOUS
 62
       7
  5
920
 10
-226.64141662
 20
423.65637456
 30
0.0
  0
VERTEX
  8
ZUWAKU
  6
CONTINUOUS
 62
       7
  5
921
 10
-226.65675304
 20
423.63083204
 30
0.0
  0
VERTEX
  8
ZUWAKU
  6
CONTINUOUS
 62
       7
  5
922
 10
-226.67179179
 20
423.60518752
 30
0.0
  0
VERTEX
  8
ZUWAKU
  6
CONTINUOUS
 62
       7
  5
923
 10
-226.68652905
 20
423.57944751
 30
0.0
  0
VERTEX
  8
ZUWAKU
  6
CONTINUOUS
 62
       7
  5
924
 10
-226.70096108
 20
423.55361854
 30
0.0
  0
VERTEX
  8
ZUWAKU
  6
CONTINUOUS
 62
       7
  5
925
 10
-226.71508422
 20
423.52770717
 30
0.0
  0
VERTEX
  8
ZUWAKU
  6
CONTINUOUS
 62
       7
  5
926
 10
-226.72889488
 20
423.50171997
 30
0.0
  0
VERTEX
  8
ZUWAKU
  6
CONTINUOUS
 62
       7
  5
927
 10
-226.74238955
 20
423.47566353
 30
0.0
  0
VERTEX
  8
ZUWAKU
  6
CONTINUOUS
 62
       7
  5
928
 10
-226.75556483
 20
423.44954447
 30
0.0
  0
VERTEX
  8
ZUWAKU
  6
CONTINUOUS
 62
       7
  5
929
 10
-226.76841735
 20
423.42336941
 30
0.0
  0
VERTEX
  8
ZUWAKU
  6
CONTINUOUS
 62
       7
  5
92A
 10
-226.78094386
 20
423.39714499
 30
0.0
  0
VERTEX
  8
ZUWAKU
  6
CONTINUOUS
 62
       7
  5
92B
 10
-226.79314119
 20
423.37087788
 30
0.0
  0
VERTEX
  8
ZUWAKU
  6
CONTINUOUS
 62
       7
  5
92C
 10
-226.80500623
 20
423.34457473
 30
0.0
  0
VERTEX
  8
ZUWAKU
  6
CONTINUOUS
 62
       7
  5
92D
 10
-226.81653598
 20
423.31824221
 30
0.0
  0
VERTEX
  8
ZUWAKU
  6
CONTINUOUS
 62
       7
  5
92E
 10
-226.82772751
 20
423.29188702
 30
0.0
  0
VERTEX
  8
ZUWAKU
  6
CONTINUOUS
 62
       7
  5
92F
 10
-226.83857798
 20
423.26551584
 30
0.0
  0
SEQEND
  8
ZUWAKU
  6
CONTINUOUS
 62
       7
  5
930
  0
POLYLINE
  8
ZUWAKU
  6
CONTINUOUS
 62
       7
  5
338
 66
       1
 10
0.0
 20
0.0
 30
0.0
 70
     128
  0
VERTEX
  8
ZUWAKU
  6
CONTINUOUS
 62
       7
  5
931
 10
-226.94155176
 20
422.15565982
 30
0.0
  0
VERTEX
  8
ZUWAKU
  6
CONTINUOUS
 62
       7
  5
932
 10
-226.93720599
 20
422.14226705
 30
0.0
  0
VERTEX
  8
ZUWAKU
  6
CONTINUOUS
 62
       7
  5
933
 10
-226.9326949
 20
422.12899787
 30
0.0
  0
VERTEX
  8
ZUWAKU
  6
CONTINUOUS
 62
       7
  5
934
 10
-226.92801899
 20
422.11585378
 30
0.0
  0
VERTEX
  8
ZUWAKU
  6
CONTINUOUS
 62
       7
  5
935
 10
-226.92317879
 20
422.10283629
 30
0.0
  0
VERTEX
  8
ZUWAKU
  6
CONTINUOUS
 62
       7
  5
936
 10
-226.91817486
 20
422.08994688
 30
0.0
  0
VERTEX
  8
ZUWAKU
  6
CONTINUOUS
 62
       7
  5
937
 10
-226.91300776
 20
422.077187
 30
0.0
  0
VERTEX
  8
ZUWAKU
  6
CONTINUOUS
 62
       7
  5
938
 10
-226.90767808
 20
422.06455812
 30
0.0
  0
VERTEX
  8
ZUWAKU
  6
CONTINUOUS
 62
       7
  5
939
 10
-226.90218643
 20
422.05206166
 30
0.0
  0
VERTEX
  8
ZUWAKU
  6
CONTINUOUS
 62
       7
  5
93A
 10
-226.89653343
 20
422.03969905
 30
0.0
  0
VERTEX
  8
ZUWAKU
  6
CONTINUOUS
 62
       7
  5
93B
 10
-226.89071973
 20
422.0274717
 30
0.0
  0
VERTEX
  8
ZUWAKU
  6
CONTINUOUS
 62
       7
  5
93C
 10
-226.88474599
 20
422.01538099
 30
0.0
  0
VERTEX
  8
ZUWAKU
  6
CONTINUOUS
 62
       7
  5
93D
 10
-226.87861288
 20
422.00342831
 30
0.0
  0
VERTEX
  8
ZUWAKU
  6
CONTINUOUS
 62
       7
  5
93E
 10
-226.8723211
 20
421.991615
 30
0.0
  0
VERTEX
  8
ZUWAKU
  6
CONTINUOUS
 62
       7
  5
93F
 10
-226.86587138
 20
421.97994242
 30
0.0
  0
VERTEX
  8
ZUWAKU
  6
CONTINUOUS
 62
       7
  5
940
 10
-226.85926443
 20
421.96841189
 30
0.0
  0
VERTEX
  8
ZUWAKU
  6
CONTINUOUS
 62
       7
  5
941
 10
-226.85250102
 20
421.95702472
 30
0.0
  0
VERTEX
  8
ZUWAKU
  6
CONTINUOUS
 62
       7
  5
942
 10
-226.84558192
 20
421.94578221
 30
0.0
  0
VERTEX
  8
ZUWAKU
  6
CONTINUOUS
 62
       7
  5
943
 10
-226.8385079
 20
421.93468564
 30
0.0
  0
VERTEX
  8
ZUWAKU
  6
CONTINUOUS
 62
       7
  5
944
 10
-226.83127978
 20
421.92373627
 30
0.0
  0
VERTEX
  8
ZUWAKU
  6
CONTINUOUS
 62
       7
  5
945
 10
-226.82389838
 20
421.91293534
 30
0.0
  0
VERTEX
  8
ZUWAKU
  6
CONTINUOUS
 62
       7
  5
946
 10
-226.81636453
 20
421.90228409
 30
0.0
  0
VERTEX
  8
ZUWAKU
  6
CONTINUOUS
 62
       7
  5
947
 10
-226.8086791
 20
421.89178372
 30
0.0
  0
VERTEX
  8
ZUWAKU
  6
CONTINUOUS
 62
       7
  5
948
 10
-226.80084295
 20
421.88143543
 30
0.0
  0
VERTEX
  8
ZUWAKU
  6
CONTINUOUS
 62
       7
  5
949
 10
-226.79285699
 20
421.87124039
 30
0.0
  0
VERTEX
  8
ZUWAKU
  6
CONTINUOUS
 62
       7
  5
94A
 10
-226.78472211
 20
421.86119977
 30
0.0
  0
VERTEX
  8
ZUWAKU
  6
CONTINUOUS
 62
       7
  5
94B
 10
-226.77643924
 20
421.85131471
 30
0.0
  0
VERTEX
  8
ZUWAKU
  6
CONTINUOUS
 62
       7
  5
94C
 10
-226.76800933
 20
421.84158633
 30
0.0
  0
VERTEX
  8
ZUWAKU
  6
CONTINUOUS
 62
       7
  5
94D
 10
-226.75943333
 20
421.83201574
 30
0.0
  0
VERTEX
  8
ZUWAKU
  6
CONTINUOUS
 62
       7
  5
94E
 10
-226.75071222
 20
421.82260402
 30
0.0
  0
VERTEX
  8
ZUWAKU
  6
CONTINUOUS
 62
       7
  5
94F
 10
-226.741847
 20
421.81335226
 30
0.0
  0
VERTEX
  8
ZUWAKU
  6
CONTINUOUS
 62
       7
  5
950
 10
-226.73283866
 20
421.80426149
 30
0.0
  0
VERTEX
  8
ZUWAKU
  6
CONTINUOUS
 62
       7
  5
951
 10
-226.72368823
 20
421.79533275
 30
0.0
  0
VERTEX
  8
ZUWAKU
  6
CONTINUOUS
 62
       7
  5
952
 10
-226.71439676
 20
421.78656707
 30
0.0
  0
VERTEX
  8
ZUWAKU
  6
CONTINUOUS
 62
       7
  5
953
 10
-226.70496531
 20
421.77796543
 30
0.0
  0
VERTEX
  8
ZUWAKU
  6
CONTINUOUS
 62
       7
  5
954
 10
-226.69539493
 20
421.76952882
 30
0.0
  0
VERTEX
  8
ZUWAKU
  6
CONTINUOUS
 62
       7
  5
955
 10
-226.68568673
 20
421.76125819
 30
0.0
  0
VERTEX
  8
ZUWAKU
  6
CONTINUOUS
 62
       7
  5
956
 10
-226.67584181
 20
421.75315448
 30
0.0
  0
VERTEX
  8
ZUWAKU
  6
CONTINUOUS
 62
       7
  5
957
 10
-226.66586128
 20
421.74521862
 30
0.0
  0
VERTEX
  8
ZUWAKU
  6
CONTINUOUS
 62
       7
  5
958
 10
-226.65574628
 20
421.73745151
 30
0.0
  0
VERTEX
  8
ZUWAKU
  6
CONTINUOUS
 62
       7
  5
959
 10
-226.64549797
 20
421.72985403
 30
0.0
  0
VERTEX
  8
ZUWAKU
  6
CONTINUOUS
 62
       7
  5
95A
 10
-226.6351175
 20
421.72242705
 30
0.0
  0
VERTEX
  8
ZUWAKU
  6
CONTINUOUS
 62
       7
  5
95B
 10
-226.62460607
 20
421.71517141
 30
0.0
  0
VERTEX
  8
ZUWAKU
  6
CONTINUOUS
 62
       7
  5
95C
 10
-226.61396485
 20
421.70808794
 30
0.0
  0
VERTEX
  8
ZUWAKU
  6
CONTINUOUS
 62
       7
  5
95D
 10
-226.60319508
 20
421.70117744
 30
0.0
  0
VERTEX
  8
ZUWAKU
  6
CONTINUOUS
 62
       7
  5
95E
 10
-226.59229796
 20
421.6944407
 30
0.0
  0
VERTEX
  8
ZUWAKU
  6
CONTINUOUS
 62
       7
  5
95F
 10
-226.58127474
 20
421.68787848
 30
0.0
  0
VERTEX
  8
ZUWAKU
  6
CONTINUOUS
 62
       7
  5
960
 10
-226.57012667
 20
421.68149154
 30
0.0
  0
VERTEX
  8
ZUWAKU
  6
CONTINUOUS
 62
       7
  5
961
 10
-226.55885502
 20
421.67528059
 30
0.0
  0
VERTEX
  8
ZUWAKU
  6
CONTINUOUS
 62
       7
  5
962
 10
-226.54746108
 20
421.66924634
 30
0.0
  0
VERTEX
  8
ZUWAKU
  6
CONTINUOUS
 62
       7
  5
963
 10
-226.53594614
 20
421.66338949
 30
0.0
  0
VERTEX
  8
ZUWAKU
  6
CONTINUOUS
 62
       7
  5
964
 10
-226.5243115
 20
421.65771069
 30
0.0
  0
VERTEX
  8
ZUWAKU
  6
CONTINUOUS
 62
       7
  5
965
 10
-226.51255849
 20
421.6522106
 30
0.0
  0
VERTEX
  8
ZUWAKU
  6
CONTINUOUS
 62
       7
  5
966
 10
-226.50068846
 20
421.64688983
 30
0.0
  0
VERTEX
  8
ZUWAKU
  6
CONTINUOUS
 62
       7
  5
967
 10
-226.48870274
 20
421.64174899
 30
0.0
  0
VERTEX
  8
ZUWAKU
  6
CONTINUOUS
 62
       7
  5
968
 10
-226.47660271
 20
421.63678868
 30
0.0
  0
VERTEX
  8
ZUWAKU
  6
CONTINUOUS
 62
       7
  5
969
 10
-226.46438973
 20
421.63200944
 30
0.0
  0
VERTEX
  8
ZUWAKU
  6
CONTINUOUS
 62
       7
  5
96A
 10
-226.4520652
 20
421.62741183
 30
0.0
  0
VERTEX
  8
ZUWAKU
  6
CONTINUOUS
 62
       7
  5
96B
 10
-226.43963052
 20
421.62299637
 30
0.0
  0
VERTEX
  8
ZUWAKU
  6
CONTINUOUS
 62
       7
  5
96C
 10
-226.4270871
 20
421.61876356
 30
0.0
  0
VERTEX
  8
ZUWAKU
  6
CONTINUOUS
 62
       7
  5
96D
 10
-226.41443637
 20
421.61471388
 30
0.0
  0
VERTEX
  8
ZUWAKU
  6
CONTINUOUS
 62
       7
  5
96E
 10
-226.40167977
 20
421.6108478
 30
0.0
  0
VERTEX
  8
ZUWAKU
  6
CONTINUOUS
 62
       7
  5
96F
 10
-226.38881875
 20
421.60716574
 30
0.0
  0
VERTEX
  8
ZUWAKU
  6
CONTINUOUS
 62
       7
  5
970
 10
-226.37585477
 20
421.60366814
 30
0.0
  0
VERTEX
  8
ZUWAKU
  6
CONTINUOUS
 62
       7
  5
971
 10
-226.36278931
 20
421.60035539
 30
0.0
  0
VERTEX
  8
ZUWAKU
  6
CONTINUOUS
 62
       7
  5
972
 10
-226.34962386
 20
421.59722786
 30
0.0
  0
VERTEX
  8
ZUWAKU
  6
CONTINUOUS
 62
       7
  5
973
 10
-226.3363599
 20
421.59428592
 30
0.0
  0
VERTEX
  8
ZUWAKU
  6
CONTINUOUS
 62
       7
  5
974
 10
-226.32299895
 20
421.59152989
 30
0.0
  0
VERTEX
  8
ZUWAKU
  6
CONTINUOUS
 62
       7
  5
975
 10
-226.30954254
 20
421.58896009
 30
0.0
  0
VERTEX
  8
ZUWAKU
  6
CONTINUOUS
 62
       7
  5
976
 10
-226.29599218
 20
421.58657681
 30
0.0
  0
VERTEX
  8
ZUWAKU
  6
CONTINUOUS
 62
       7
  5
977
 10
-226.28234942
 20
421.58438033
 30
0.0
  0
VERTEX
  8
ZUWAKU
  6
CONTINUOUS
 62
       7
  5
978
 10
-226.26861581
 20
421.58237089
 30
0.0
  0
VERTEX
  8
ZUWAKU
  6
CONTINUOUS
 62
       7
  5
979
 10
-226.25479292
 20
421.58054872
 30
0.0
  0
VERTEX
  8
ZUWAKU
  6
CONTINUOUS
 62
       7
  5
97A
 10
-226.24088232
 20
421.57891402
 30
0.0
  0
VERTEX
  8
ZUWAKU
  6
CONTINUOUS
 62
       7
  5
97B
 10
-226.22688558
 20
421.577467
 30
0.0
  0
VERTEX
  8
ZUWAKU
  6
CONTINUOUS
 62
       7
  5
97C
 10
-226.21280431
 20
421.5762078
 30
0.0
  0
VERTEX
  8
ZUWAKU
  6
CONTINUOUS
 62
       7
  5
97D
 10
-226.1986401
 20
421.57513657
 30
0.0
  0
VERTEX
  8
ZUWAKU
  6
CONTINUOUS
 62
       7
  5
97E
 10
-226.18439456
 20
421.57425344
 30
0.0
  0
VERTEX
  8
ZUWAKU
  6
CONTINUOUS
 62
       7
  5
97F
 10
-226.17006931
 20
421.57355851
 30
0.0
  0
VERTEX
  8
ZUWAKU
  6
CONTINUOUS
 62
       7
  5
980
 10
-226.15566599
 20
421.57305184
 30
0.0
  0
VERTEX
  8
ZUWAKU
  6
CONTINUOUS
 62
       7
  5
981
 10
-226.14118623
 20
421.57273351
 30
0.0
  0
VERTEX
  8
ZUWAKU
  6
CONTINUOUS
 62
       7
  5
982
 10
-226.12663168
 20
421.57260355
 30
0.0
  0
VERTEX
  8
ZUWAKU
  6
CONTINUOUS
 62
       7
  5
983
 10
-226.11200399
 20
421.57266197
 30
0.0
  0
VERTEX
  8
ZUWAKU
  6
CONTINUOUS
 62
       7
  5
984
 10
-226.09730483
 20
421.57290876
 30
0.0
  0
VERTEX
  8
ZUWAKU
  6
CONTINUOUS
 62
       7
  5
985
 10
-226.08253587
 20
421.5733439
 30
0.0
  0
VERTEX
  8
ZUWAKU
  6
CONTINUOUS
 62
       7
  5
986
 10
-226.06769879
 20
421.57396734
 30
0.0
  0
VERTEX
  8
ZUWAKU
  6
CONTINUOUS
 62
       7
  5
987
 10
-226.05279527
 20
421.57477901
 30
0.0
  0
VERTEX
  8
ZUWAKU
  6
CONTINUOUS
 62
       7
  5
988
 10
-226.03782702
 20
421.57577881
 30
0.0
  0
VERTEX
  8
ZUWAKU
  6
CONTINUOUS
 62
       7
  5
989
 10
-226.02279573
 20
421.57696664
 30
0.0
  0
VERTEX
  8
ZUWAKU
  6
CONTINUOUS
 62
       7
  5
98A
 10
-226.00770311
 20
421.57834235
 30
0.0
  0
VERTEX
  8
ZUWAKU
  6
CONTINUOUS
 62
       7
  5
98B
 10
-225.99255089
 20
421.57990578
 30
0.0
  0
VERTEX
  8
ZUWAKU
  6
CONTINUOUS
 62
       7
  5
98C
 10
-225.97734077
 20
421.58165678
 30
0.0
  0
VERTEX
  8
ZUWAKU
  6
CONTINUOUS
 62
       7
  5
98D
 10
-225.96207451
 20
421.58359512
 30
0.0
  0
VERTEX
  8
ZUWAKU
  6
CONTINUOUS
 62
       7
  5
98E
 10
-225.94675382
 20
421.58572059
 30
0.0
  0
VERTEX
  8
ZUWAKU
  6
CONTINUOUS
 62
       7
  5
98F
 10
-225.93138046
 20
421.58803296
 30
0.0
  0
VERTEX
  8
ZUWAKU
  6
CONTINUOUS
 62
       7
  5
990
 10
-225.91595616
 20
421.59053195
 30
0.0
  0
VERTEX
  8
ZUWAKU
  6
CONTINUOUS
 62
       7
  5
991
 10
-225.9004827
 20
421.59321729
 30
0.0
  0
VERTEX
  8
ZUWAKU
  6
CONTINUOUS
 62
       7
  5
992
 10
-225.88496182
 20
421.59608866
 30
0.0
  0
VERTEX
  8
ZUWAKU
  6
CONTINUOUS
 62
       7
  5
993
 10
-225.86939529
 20
421.59914575
 30
0.0
  0
VERTEX
  8
ZUWAKU
  6
CONTINUOUS
 62
       7
  5
994
 10
-225.85378488
 20
421.6023882
 30
0.0
  0
VERTEX
  8
ZUWAKU
  6
CONTINUOUS
 62
       7
  5
995
 10
-225.83813237
 20
421.60581564
 30
0.0
  0
VERTEX
  8
ZUWAKU
  6
CONTINUOUS
 62
       7
  5
996
 10
-225.82243954
 20
421.60942769
 30
0.0
  0
VERTEX
  8
ZUWAKU
  6
CONTINUOUS
 62
       7
  5
997
 10
-225.80670817
 20
421.61322393
 30
0.0
  0
VERTEX
  8
ZUWAKU
  6
CONTINUOUS
 62
       7
  5
998
 10
-225.79094005
 20
421.61720394
 30
0.0
  0
VERTEX
  8
ZUWAKU
  6
CONTINUOUS
 62
       7
  5
999
 10
-225.77513697
 20
421.62136725
 30
0.0
  0
VERTEX
  8
ZUWAKU
  6
CONTINUOUS
 62
       7
  5
99A
 10
-225.75930074
 20
421.6257134
 30
0.0
  0
VERTEX
  8
ZUWAKU
  6
CONTINUOUS
 62
       7
  5
99B
 10
-225.74343315
 20
421.63024189
 30
0.0
  0
VERTEX
  8
ZUWAKU
  6
CONTINUOUS
 62
       7
  5
99C
 10
-225.72753601
 20
421.63495221
 30
0.0
  0
VERTEX
  8
ZUWAKU
  6
CONTINUOUS
 62
       7
  5
99D
 10
-225.71161113
 20
421.63984382
 30
0.0
  0
VERTEX
  8
ZUWAKU
  6
CONTINUOUS
 62
       7
  5
99E
 10
-225.69566032
 20
421.64491617
 30
0.0
  0
VERTEX
  8
ZUWAKU
  6
CONTINUOUS
 62
       7
  5
99F
 10
-225.67968539
 20
421.65016867
 30
0.0
  0
VERTEX
  8
ZUWAKU
  6
CONTINUOUS
 62
       7
  5
9A0
 10
-225.66368815
 20
421.65560073
 30
0.0
  0
VERTEX
  8
ZUWAKU
  6
CONTINUOUS
 62
       7
  5
9A1
 10
-225.64767044
 20
421.66121173
 30
0.0
  0
VERTEX
  8
ZUWAKU
  6
CONTINUOUS
 62
       7
  5
9A2
 10
-225.63163407
 20
421.66700104
 30
0.0
  0
VERTEX
  8
ZUWAKU
  6
CONTINUOUS
 62
       7
  5
9A3
 10
-225.61558086
 20
421.67296799
 30
0.0
  0
VERTEX
  8
ZUWAKU
  6
CONTINUOUS
 62
       7
  5
9A4
 10
-225.59951264
 20
421.67911191
 30
0.0
  0
VERTEX
  8
ZUWAKU
  6
CONTINUOUS
 62
       7
  5
9A5
 10
-225.58343124
 20
421.6854321
 30
0.0
  0
VERTEX
  8
ZUWAKU
  6
CONTINUOUS
 62
       7
  5
9A6
 10
-225.56733849
 20
421.69192784
 30
0.0
  0
VERTEX
  8
ZUWAKU
  6
CONTINUOUS
 62
       7
  5
9A7
 10
-225.55123621
 20
421.69859839
 30
0.0
  0
VERTEX
  8
ZUWAKU
  6
CONTINUOUS
 62
       7
  5
9A8
 10
-225.53512624
 20
421.70544299
 30
0.0
  0
VERTEX
  8
ZUWAKU
  6
CONTINUOUS
 62
       7
  5
9A9
 10
-225.51901042
 20
421.71246086
 30
0.0
  0
VERTEX
  8
ZUWAKU
  6
CONTINUOUS
 62
       7
  5
9AA
 10
-225.50289057
 20
421.71965121
 30
0.0
  0
VERTEX
  8
ZUWAKU
  6
CONTINUOUS
 62
       7
  5
9AB
 10
-225.48676852
 20
421.72701321
 30
0.0
  0
VERTEX
  8
ZUWAKU
  6
CONTINUOUS
 62
       7
  5
9AC
 10
-225.47064612
 20
421.73454604
 30
0.0
  0
VERTEX
  8
ZUWAKU
  6
CONTINUOUS
 62
       7
  5
9AD
 10
-225.4545252
 20
421.74224882
 30
0.0
  0
VERTEX
  8
ZUWAKU
  6
CONTINUOUS
 62
       7
  5
9AE
 10
-225.43840758
 20
421.7501207
 30
0.0
  0
VERTEX
  8
ZUWAKU
  6
CONTINUOUS
 62
       7
  5
9AF
 10
-225.4222951
 20
421.75816077
 30
0.0
  0
VERTEX
  8
ZUWAKU
  6
CONTINUOUS
 62
       7
  5
9B0
 10
-225.4061896
 20
421.76636811
 30
0.0
  0
VERTEX
  8
ZUWAKU
  6
CONTINUOUS
 62
       7
  5
9B1
 10
-225.39009291
 20
421.7747418
 30
0.0
  0
VERTEX
  8
ZUWAKU
  6
CONTINUOUS
 62
       7
  5
9B2
 10
-225.37400685
 20
421.78328087
 30
0.0
  0
VERTEX
  8
ZUWAKU
  6
CONTINUOUS
 62
       7
  5
9B3
 10
-225.35793326
 20
421.79198437
 30
0.0
  0
VERTEX
  8
ZUWAKU
  6
CONTINUOUS
 62
       7
  5
9B4
 10
-225.34187397
 20
421.8008513
 30
0.0
  0
VERTEX
  8
ZUWAKU
  6
CONTINUOUS
 62
       7
  5
9B5
 10
-225.32583079
 20
421.80988065
 30
0.0
  0
VERTEX
  8
ZUWAKU
  6
CONTINUOUS
 62
       7
  5
9B6
 10
-225.30980557
 20
421.8190714
 30
0.0
  0
VERTEX
  8
ZUWAKU
  6
CONTINUOUS
 62
       7
  5
9B7
 10
-225.29380011
 20
421.82842249
 30
0.0
  0
VERTEX
  8
ZUWAKU
  6
CONTINUOUS
 62
       7
  5
9B8
 10
-225.27781624
 20
421.83793287
 30
0.0
  0
VERTEX
  8
ZUWAKU
  6
CONTINUOUS
 62
       7
  5
9B9
 10
-225.26185579
 20
421.84760145
 30
0.0
  0
VERTEX
  8
ZUWAKU
  6
CONTINUOUS
 62
       7
  5
9BA
 10
-225.24592055
 20
421.85742714
 30
0.0
  0
VERTEX
  8
ZUWAKU
  6
CONTINUOUS
 62
       7
  5
9BB
 10
-225.23001235
 20
421.86740881
 30
0.0
  0
VERTEX
  8
ZUWAKU
  6
CONTINUOUS
 62
       7
  5
9BC
 10
-225.21413299
 20
421.87754534
 30
0.0
  0
VERTEX
  8
ZUWAKU
  6
CONTINUOUS
 62
       7
  5
9BD
 10
-225.19828429
 20
421.88783556
 30
0.0
  0
VERTEX
  8
ZUWAKU
  6
CONTINUOUS
 62
       7
  5
9BE
 10
-225.18246804
 20
421.89827831
 30
0.0
  0
VERTEX
  8
ZUWAKU
  6
CONTINUOUS
 62
       7
  5
9BF
 10
-225.16668604
 20
421.9088724
 30
0.0
  0
VERTEX
  8
ZUWAKU
  6
CONTINUOUS
 62
       7
  5
9C0
 10
-225.15094009
 20
421.91961663
 30
0.0
  0
VERTEX
  8
ZUWAKU
  6
CONTINUOUS
 62
       7
  5
9C1
 10
-225.13523197
 20
421.93050977
 30
0.0
  0
VERTEX
  8
ZUWAKU
  6
CONTINUOUS
 62
       7
  5
9C2
 10
-225.11956349
 20
421.94155059
 30
0.0
  0
VERTEX
  8
ZUWAKU
  6
CONTINUOUS
 62
       7
  5
9C3
 10
-225.10393641
 20
421.95273782
 30
0.0
  0
VERTEX
  8
ZUWAKU
  6
CONTINUOUS
 62
       7
  5
9C4
 10
-225.08835251
 20
421.9640702
 30
0.0
  0
VERTEX
  8
ZUWAKU
  6
CONTINUOUS
 62
       7
  5
9C5
 10
-225.07281357
 20
421.97554643
 30
0.0
  0
VERTEX
  8
ZUWAKU
  6
CONTINUOUS
 62
       7
  5
9C6
 10
-225.05732136
 20
421.98716522
 30
0.0
  0
VERTEX
  8
ZUWAKU
  6
CONTINUOUS
 62
       7
  5
9C7
 10
-225.04187763
 20
421.99892524
 30
0.0
  0
SEQEND
  8
ZUWAKU
  6
CONTINUOUS
 62
       7
  5
9C8
  0
LINE
  8
ZUWAKU
  6
CONTINUOUS
 62
       7
  5
339
 10
-223.80936937
 20
424.95715764
 30
0.0
 11
-222.81021363
 21
424.95715764
 31
0.0
  0
LINE
  8
ZUWAKU
  6
CONTINUOUS
 62
       7
  5
33A
 10
-224.03618389
 20
424.33341773
 30
0.0
 11
-223.80936937
 21
424.95715764
 31
0.0
  0
LINE
  8
ZUWAKU
  6
CONTINUOUS
 62
       7
  5
33B
 10
-223.5625
 20
422.88837012
 30
0.0
 11
-222.81021363
 21
424.95715764
 31
0.0
  0
LINE
  8
ZUWAKU
  6
CONTINUOUS
 62
       7
  5
33C
 10
-221.01055585
 20
421.60540886
 30
0.0
 11
-220.53540257
 21
422.91208037
 31
0.0
  0
LINE
  8
ZUWAKU
  6
CONTINUOUS
 62
       7
  5
33D
 10
-219.11984233
 20
423.82587012
 30
0.0
 11
-219.93802415
 21
421.57587012
 31
0.0
  0
LINE
  8
ZUWAKU
  6
CONTINUOUS
 62
       7
  5
33E
 10
-218.6875
 20
421.57587012
 30
0.0
 11
-217.86931818
 21
423.82587012
 31
0.0
  0
LINE
  8
ZUWAKU
  6
CONTINUOUS
 62
       7
  5
33F
 10
-216.50137093
 20
424.54085006
 30
0.0
 11
-217.23809091
 21
422.51487012
 31
0.0
  0
LINE
  8
ZUWAKU
  6
CONTINUOUS
 62
       7
  5
340
 10
-216.81312053
 20
425.13837012
 30
0.0
 11
-216.50137093
 21
424.54085006
 31
0.0
  0
LINE
  8
ZUWAKU
  6
CONTINUOUS
 62
       7
  5
341
 10
-218.87020395
 20
424.58066617
 30
0.0
 11
-218.68575106
 21
425.13837012
 31
0.0
  0
LINE
  8
ZUWAKU
  6
CONTINUOUS
 62
       7
  5
342
 10
-218.87020395
 20
424.58066617
 30
0.0
 11
-217.87135819
 21
425.13837012
 31
0.0
  0
LINE
  8
ZUWAKU
  6
CONTINUOUS
 62
       7
  5
343
 10
-216.81312053
 20
425.13837012
 30
0.0
 11
-217.87135819
 21
425.13837012
 31
0.0
  0
LINE
  8
ZUWAKU
  6
CONTINUOUS
 62
       7
  5
344
 10
-218.68575106
 20
425.13837012
 30
0.0
 11
-219.24507756
 21
425.13837012
 31
0.0
  0
POLYLINE
  8
ZUWAKU
  6
CONTINUOUS
 62
       7
  5
345
 66
       1
 10
0.0
 20
0.0
 30
0.0
 70
     129
  0
VERTEX
  8
ZUWAKU
  6
CONTINUOUS
 62
       7
  5
9C9
 10
-208.69205868
 20
423.2367972
 30
0.0
  0
VERTEX
  8
ZUWAKU
  6
CONTINUOUS
 62
       7
  5
9CA
 10
-208.67758278
 20
423.22941656
 30
0.0
  0
VERTEX
  8
ZUWAKU
  6
CONTINUOUS
 62
       7
  5
9CB
 10
-208.66269903
 20
423.22284314
 30
0.0
  0
VERTEX
  8
ZUWAKU
  6
CONTINUOUS
 62
       7
  5
9CC
 10
-208.64743355
 20
423.21708849
 30
0.0
  0
VERTEX
  8
ZUWAKU
  6
CONTINUOUS
 62
       7
  5
9CD
 10
-208.6318131
 20
423.21216269
 30
0.0
  0
VERTEX
  8
ZUWAKU
  6
CONTINUOUS
 62
       7
  5
9CE
 10
-208.61586511
 20
423.2080744
 30
0.0
  0
VERTEX
  8
ZUWAKU
  6
CONTINUOUS
 62
       7
  5
9CF
 10
-208.59961754
 20
423.20483077
 30
0.0
  0
VERTEX
  8
ZUWAKU
  6
CONTINUOUS
 62
       7
  5
9D0
 10
-208.5830989
 20
423.20243751
 30
0.0
  0
VERTEX
  8
ZUWAKU
  6
CONTINUOUS
 62
       7
  5
9D1
 10
-208.56633816
 20
423.20089881
 30
0.0
  0
VERTEX
  8
ZUWAKU
  6
CONTINUOUS
 62
       7
  5
9D2
 10
-208.54936474
 20
423.20021737
 30
0.0
  0
VERTEX
  8
ZUWAKU
  6
CONTINUOUS
 62
       7
  5
9D3
 10
-208.5322084
 20
423.20039438
 30
0.0
  0
VERTEX
  8
ZUWAKU
  6
CONTINUOUS
 62
       7
  5
9D4
 10
-208.51489926
 20
423.20142954
 30
0.0
  0
VERTEX
  8
ZUWAKU
  6
CONTINUOUS
 62
       7
  5
9D5
 10
-208.49746766
 20
423.20332102
 30
0.0
  0
VERTEX
  8
ZUWAKU
  6
CONTINUOUS
 62
       7
  5
9D6
 10
-208.4799442
 20
423.20606552
 30
0.0
  0
VERTEX
  8
ZUWAKU
  6
CONTINUOUS
 62
       7
  5
9D7
 10
-208.46235962
 20
423.20965822
 30
0.0
  0
VERTEX
  8
ZUWAKU
  6
CONTINUOUS
 62
       7
  5
9D8
 10
-208.44474476
 20
423.2140928
 30
0.0
  0
VERTEX
  8
ZUWAKU
  6
CONTINUOUS
 62
       7
  5
9D9
 10
-208.42713053
 20
423.2193615
 30
0.0
  0
VERTEX
  8
ZUWAKU
  6
CONTINUOUS
 62
       7
  5
9DA
 10
-208.40954783
 20
423.22545507
 30
0.0
  0
VERTEX
  8
ZUWAKU
  6
CONTINUOUS
 62
       7
  5
9DB
 10
-208.3920275
 20
423.23236282
 30
0.0
  0
VERTEX
  8
ZUWAKU
  6
CONTINUOUS
 62
       7
  5
9DC
 10
-208.37460029
 20
423.24007263
 30
0.0
  0
VERTEX
  8
ZUWAKU
  6
CONTINUOUS
 62
       7
  5
9DD
 10
-208.35729676
 20
423.24857098
 30
0.0
  0
VERTEX
  8
ZUWAKU
  6
CONTINUOUS
 62
       7
  5
9DE
 10
-208.34014727
 20
423.25784295
 30
0.0
  0
VERTEX
  8
ZUWAKU
  6
CONTINUOUS
 62
       7
  5
9DF
 10
-208.32318191
 20
423.26787229
 30
0.0
  0
VERTEX
  8
ZUWAKU
  6
CONTINUOUS
 62
       7
  5
9E0
 10
-208.30643044
 20
423.27864139
 30
0.0
  0
VERTEX
  8
ZUWAKU
  6
CONTINUOUS
 62
       7
  5
9E1
 10
-208.28992225
 20
423.29013136
 30
0.0
  0
VERTEX
  8
ZUWAKU
  6
CONTINUOUS
 62
       7
  5
9E2
 10
-208.2736863
 20
423.30232205
 30
0.0
  0
VERTEX
  8
ZUWAKU
  6
CONTINUOUS
 62
       7
  5
9E3
 10
-208.25775107
 20
423.31519207
 30
0.0
  0
VERTEX
  8
ZUWAKU
  6
CONTINUOUS
 62
       7
  5
9E4
 10
-208.24214452
 20
423.32871884
 30
0.0
  0
VERTEX
  8
ZUWAKU
  6
CONTINUOUS
 62
       7
  5
9E5
 10
-208.22689403
 20
423.34287862
 30
0.0
  0
VERTEX
  8
ZUWAKU
  6
CONTINUOUS
 62
       7
  5
9E6
 10
-208.21202635
 20
423.35764659
 30
0.0
  0
VERTEX
  8
ZUWAKU
  6
CONTINUOUS
 62
       7
  5
9E7
 10
-208.19756756
 20
423.37299683
 30
0.0
  0
VERTEX
  8
ZUWAKU
  6
CONTINUOUS
 62
       7
  5
9E8
 10
-208.18354304
 20
423.38890241
 30
0.0
  0
VERTEX
  8
ZUWAKU
  6
CONTINUOUS
 62
       7
  5
9E9
 10
-208.16997737
 20
423.40533543
 30
0.0
  0
VERTEX
  8
ZUWAKU
  6
CONTINUOUS
 62
       7
  5
9EA
 10
-208.15689438
 20
423.42226706
 30
0.0
  0
VERTEX
  8
ZUWAKU
  6
CONTINUOUS
 62
       7
  5
9EB
 10
-208.14431699
 20
423.43966759
 30
0.0
  0
VERTEX
  8
ZUWAKU
  6
CONTINUOUS
 62
       7
  5
9EC
 10
-208.13226729
 20
423.4575065
 30
0.0
  0
VERTEX
  8
ZUWAKU
  6
CONTINUOUS
 62
       7
  5
9ED
 10
-208.12076641
 20
423.47575249
 30
0.0
  0
VERTEX
  8
ZUWAKU
  6
CONTINUOUS
 62
       7
  5
9EE
 10
-208.10983452
 20
423.49437356
 30
0.0
  0
VERTEX
  8
ZUWAKU
  6
CONTINUOUS
 62
       7
  5
9EF
 10
-208.09949081
 20
423.51333703
 30
0.0
  0
VERTEX
  8
ZUWAKU
  6
CONTINUOUS
 62
       7
  5
9F0
 10
-208.08975342
 20
423.53260964
 30
0.0
  0
VERTEX
  8
ZUWAKU
  6
CONTINUOUS
 62
       7
  5
9F1
 10
-208.08063943
 20
423.55215758
 30
0.0
  0
VERTEX
  8
ZUWAKU
  6
CONTINUOUS
 62
       7
  5
9F2
 10
-208.07216484
 20
423.57194655
 30
0.0
  0
VERTEX
  8
ZUWAKU
  6
CONTINUOUS
 62
       7
  5
9F3
 10
-208.0643445
 20
423.59194183
 30
0.0
  0
VERTEX
  8
ZUWAKU
  6
CONTINUOUS
 62
       7
  5
9F4
 10
-208.05719214
 20
423.61210835
 30
0.0
  0
VERTEX
  8
ZUWAKU
  6
CONTINUOUS
 62
       7
  5
9F5
 10
-208.05072031
 20
423.63241073
 30
0.0
  0
VERTEX
  8
ZUWAKU
  6
CONTINUOUS
 62
       7
  5
9F6
 10
-208.04494037
 20
423.65281336
 30
0.0
  0
VERTEX
  8
ZUWAKU
  6
CONTINUOUS
 62
       7
  5
9F7
 10
-208.03986244
 20
423.67328043
 30
0.0
  0
VERTEX
  8
ZUWAKU
  6
CONTINUOUS
 62
       7
  5
9F8
 10
-208.03549544
 20
423.69377604
 30
0.0
  0
VERTEX
  8
ZUWAKU
  6
CONTINUOUS
 62
       7
  5
9F9
 10
-208.03184703
 20
423.71426424
 30
0.0
  0
VERTEX
  8
ZUWAKU
  6
CONTINUOUS
 62
       7
  5
9FA
 10
-208.02892361
 20
423.73470908
 30
0.0
  0
VERTEX
  8
ZUWAKU
  6
CONTINUOUS
 62
       7
  5
9FB
 10
-208.02673031
 20
423.7550747
 30
0.0
  0
VERTEX
  8
ZUWAKU
  6
CONTINUOUS
 62
       7
  5
9FC
 10
-208.02527098
 20
423.77532536
 30
0.0
  0
VERTEX
  8
ZUWAKU
  6
CONTINUOUS
 62
       7
  5
9FD
 10
-208.02454818
 20
423.79542554
 30
0.0
  0
VERTEX
  8
ZUWAKU
  6
CONTINUOUS
 62
       7
  5
9FE
 10
-208.02456317
 20
423.81533999
 30
0.0
  0
VERTEX
  8
ZUWAKU
  6
CONTINUOUS
 62
       7
  5
9FF
 10
-208.02531593
 20
423.83503375
 30
0.0
  0
VERTEX
  8
ZUWAKU
  6
CONTINUOUS
 62
       7
  5
A00
 10
-208.02680514
 20
423.85447229
 30
0.0
  0
VERTEX
  8
ZUWAKU
  6
CONTINUOUS
 62
       7
  5
A01
 10
-208.02902818
 20
423.87362149
 30
0.0
  0
VERTEX
  8
ZUWAKU
  6
CONTINUOUS
 62
       7
  5
A02
 10
-208.03198117
 20
423.89244777
 30
0.0
  0
VERTEX
  8
ZUWAKU
  6
CONTINUOUS
 62
       7
  5
A03
 10
-208.0356589
 20
423.9109181
 30
0.0
  0
VERTEX
  8
ZUWAKU
  6
CONTINUOUS
 62
       7
  5
A04
 10
-208.04005494
 20
423.92900008
 30
0.0
  0
VERTEX
  8
ZUWAKU
  6
CONTINUOUS
 62
       7
  5
A05
 10
-208.04516158
 20
423.94666197
 30
0.0
  0
VERTEX
  8
ZUWAKU
  6
CONTINUOUS
 62
       7
  5
A06
 10
-208.05096984
 20
423.96387281
 30
0.0
  0
VERTEX
  8
ZUWAKU
  6
CONTINUOUS
 62
       7
  5
A07
 10
-208.05746955
 20
423.98060239
 30
0.0
  0
VERTEX
  8
ZUWAKU
  6
CONTINUOUS
 62
       7
  5
A08
 10
-208.0646493
 20
423.99682136
 30
0.0
  0
VERTEX
  8
ZUWAKU
  6
CONTINUOUS
 62
       7
  5
A09
 10
-208.07249649
 20
424.01250128
 30
0.0
  0
VERTEX
  8
ZUWAKU
  6
CONTINUOUS
 62
       7
  5
A0A
 10
-208.08099736
 20
424.02761463
 30
0.0
  0
VERTEX
  8
ZUWAKU
  6
CONTINUOUS
 62
       7
  5
A0B
 10
-208.09013699
 20
424.0421349
 30
0.0
  0
VERTEX
  8
ZUWAKU
  6
CONTINUOUS
 62
       7
  5
A0C
 10
-208.09989936
 20
424.05603661
 30
0.0
  0
VERTEX
  8
ZUWAKU
  6
CONTINUOUS
 62
       7
  5
A0D
 10
-208.11026733
 20
424.06929539
 30
0.0
  0
VERTEX
  8
ZUWAKU
  6
CONTINUOUS
 62
       7
  5
A0E
 10
-208.12122271
 20
424.08188796
 30
0.0
  0
VERTEX
  8
ZUWAKU
  6
CONTINUOUS
 62
       7
  5
A0F
 10
-208.13274629
 20
424.09379223
 30
0.0
  0
VERTEX
  8
ZUWAKU
  6
CONTINUOUS
 62
       7
  5
A10
 10
-208.14481785
 20
424.10498733
 30
0.0
  0
VERTEX
  8
ZUWAKU
  6
CONTINUOUS
 62
       7
  5
A11
 10
-208.15741621
 20
424.11545361
 30
0.0
  0
VERTEX
  8
ZUWAKU
  6
CONTINUOUS
 62
       7
  5
A12
 10
-208.17051927
 20
424.1251727
 30
0.0
  0
VERTEX
  8
ZUWAKU
  6
CONTINUOUS
 62
       7
  5
A13
 10
-208.18410404
 20
424.13412757
 30
0.0
  0
VERTEX
  8
ZUWAKU
  6
CONTINUOUS
 62
       7
  5
A14
 10
-208.1981467
 20
424.1423025
 30
0.0
  0
VERTEX
  8
ZUWAKU
  6
CONTINUOUS
 62
       7
  5
A15
 10
-208.21262259
 20
424.14968315
 30
0.0
  0
VERTEX
  8
ZUWAKU
  6
CONTINUOUS
 62
       7
  5
A16
 10
-208.22750634
 20
424.15625656
 30
0.0
  0
VERTEX
  8
ZUWAKU
  6
CONTINUOUS
 62
       7
  5
A17
 10
-208.24277183
 20
424.16201122
 30
0.0
  0
VERTEX
  8
ZUWAKU
  6
CONTINUOUS
 62
       7
  5
A18
 10
-208.25839227
 20
424.16693701
 30
0.0
  0
VERTEX
  8
ZUWAKU
  6
CONTINUOUS
 62
       7
  5
A19
 10
-208.27434026
 20
424.17102531
 30
0.0
  0
VERTEX
  8
ZUWAKU
  6
CONTINUOUS
 62
       7
  5
A1A
 10
-208.29058783
 20
424.17426893
 30
0.0
  0
VERTEX
  8
ZUWAKU
  6
CONTINUOUS
 62
       7
  5
A1B
 10
-208.30710648
 20
424.17666219
 30
0.0
  0
VERTEX
  8
ZUWAKU
  6
CONTINUOUS
 62
       7
  5
A1C
 10
-208.32386721
 20
424.1782009
 30
0.0
  0
VERTEX
  8
ZUWAKU
  6
CONTINUOUS
 62
       7
  5
A1D
 10
-208.34084063
 20
424.17888234
 30
0.0
  0
VERTEX
  8
ZUWAKU
  6
CONTINUOUS
 62
       7
  5
A1E
 10
-208.35799697
 20
424.17870533
 30
0.0
  0
VERTEX
  8
ZUWAKU
  6
CONTINUOUS
 62
       7
  5
A1F
 10
-208.37530612
 20
424.17767017
 30
0.0
  0
VERTEX
  8
ZUWAKU
  6
CONTINUOUS
 62
       7
  5
A20
 10
-208.39273771
 20
424.17577868
 30
0.0
  0
VERTEX
  8
ZUWAKU
  6
CONTINUOUS
 62
       7
  5
A21
 10
-208.41026117
 20
424.17303418
 30
0.0
  0
VERTEX
  8
ZUWAKU
  6
CONTINUOUS
 62
       7
  5
A22
 10
-208.42784575
 20
424.16944149
 30
0.0
  0
VERTEX
  8
ZUWAKU
  6
CONTINUOUS
 62
       7
  5
A23
 10
-208.44546061
 20
424.1650069
 30
0.0
  0
VERTEX
  8
ZUWAKU
  6
CONTINUOUS
 62
       7
  5
A24
 10
-208.46307484
 20
424.1597382
 30
0.0
  0
VERTEX
  8
ZUWAKU
  6
CONTINUOUS
 62
       7
  5
A25
 10
-208.48065754
 20
424.15364463
 30
0.0
  0
VERTEX
  8
ZUWAKU
  6
CONTINUOUS
 62
       7
  5
A26
 10
-208.49817787
 20
424.14673688
 30
0.0
  0
VERTEX
  8
ZUWAKU
  6
CONTINUOUS
 62
       7
  5
A27
 10
-208.51560508
 20
424.13902707
 30
0.0
  0
VERTEX
  8
ZUWAKU
  6
CONTINUOUS
 62
       7
  5
A28
 10
-208.53290861
 20
424.13052873
 30
0.0
  0
VERTEX
  8
ZUWAKU
  6
CONTINUOUS
 62
       7
  5
A29
 10
-208.5500581
 20
424.12125675
 30
0.0
  0
VERTEX
  8
ZUWAKU
  6
CONTINUOUS
 62
       7
  5
A2A
 10
-208.56702346
 20
424.11122742
 30
0.0
  0
VERTEX
  8
ZUWAKU
  6
CONTINUOUS
 62
       7
  5
A2B
 10
-208.58377493
 20
424.10045832
 30
0.0
  0
VERTEX
  8
ZUWAKU
  6
CONTINUOUS
 62
       7
  5
A2C
 10
-208.60028312
 20
424.08896834
 30
0.0
  0
VERTEX
  8
ZUWAKU
  6
CONTINUOUS
 62
       7
  5
A2D
 10
-208.61651907
 20
424.07677766
 30
0.0
  0
VERTEX
  8
ZUWAKU
  6
CONTINUOUS
 62
       7
  5
A2E
 10
-208.6324543
 20
424.06390764
 30
0.0
  0
VERTEX
  8
ZUWAKU
  6
CONTINUOUS
 62
       7
  5
A2F
 10
-208.64806085
 20
424.05038087
 30
0.0
  0
VERTEX
  8
ZUWAKU
  6
CONTINUOUS
 62
       7
  5
A30
 10
-208.66331134
 20
424.03622108
 30
0.0
  0
VERTEX
  8
ZUWAKU
  6
CONTINUOUS
 62
       7
  5
A31
 10
-208.67817902
 20
424.02145311
 30
0.0
  0
VERTEX
  8
ZUWAKU
  6
CONTINUOUS
 62
       7
  5
A32
 10
-208.69263781
 20
424.00610287
 30
0.0
  0
VERTEX
  8
ZUWAKU
  6
CONTINUOUS
 62
       7
  5
A33
 10
-208.70666234
 20
423.99019729
 30
0.0
  0
VERTEX
  8
ZUWAKU
  6
CONTINUOUS
 62
       7
  5
A34
 10
-208.720228
 20
423.97376427
 30
0.0
  0
VERTEX
  8
ZUWAKU
  6
CONTINUOUS
 62
       7
  5
A35
 10
-208.73331099
 20
423.95683265
 30
0.0
  0
VERTEX
  8
ZUWAKU
  6
CONTINUOUS
 62
       7
  5
A36
 10
-208.74588838
 20
423.93943211
 30
0.0
  0
VERTEX
  8
ZUWAKU
  6
CONTINUOUS
 62
       7
  5
A37
 10
-208.75793808
 20
423.9215932
 30
0.0
  0
VERTEX
  8
ZUWAKU
  6
CONTINUOUS
 62
       7
  5
A38
 10
-208.76943896
 20
423.90334721
 30
0.0
  0
VERTEX
  8
ZUWAKU
  6
CONTINUOUS
 62
       7
  5
A39
 10
-208.78037085
 20
423.88472614
 30
0.0
  0
VERTEX
  8
ZUWAKU
  6
CONTINUOUS
 62
       7
  5
A3A
 10
-208.79071456
 20
423.86576267
 30
0.0
  0
VERTEX
  8
ZUWAKU
  6
CONTINUOUS
 62
       7
  5
A3B
 10
-208.80045195
 20
423.84649006
 30
0.0
  0
VERTEX
  8
ZUWAKU
  6
CONTINUOUS
 62
       7
  5
A3C
 10
-208.80956594
 20
423.82694213
 30
0.0
  0
VERTEX
  8
ZUWAKU
  6
CONTINUOUS
 62
       7
  5
A3D
 10
-208.81804053
 20
423.80715316
 30
0.0
  0
VERTEX
  8
ZUWAKU
  6
CONTINUOUS
 62
       7
  5
A3E
 10
-208.82586087
 20
423.78715787
 30
0.0
  0
VERTEX
  8
ZUWAKU
  6
CONTINUOUS
 62
       7
  5
A3F
 10
-208.83301323
 20
423.76699135
 30
0.0
  0
VERTEX
  8
ZUWAKU
  6
CONTINUOUS
 62
       7
  5
A40
 10
-208.83948506
 20
423.74668897
 30
0.0
  0
VERTEX
  8
ZUWAKU
  6
CONTINUOUS
 62
       7
  5
A41
 10
-208.84526501
 20
423.72628635
 30
0.0
  0
VERTEX
  8
ZUWAKU
  6
CONTINUOUS
 62
       7
  5
A42
 10
-208.85034293
 20
423.70581928
 30
0.0
  0
VERTEX
  8
ZUWAKU
  6
CONTINUOUS
 62
       7
  5
A43
 10
-208.85470993
 20
423.68532366
 30
0.0
  0
VERTEX
  8
ZUWAKU
  6
CONTINUOUS
 62
       7
  5
A44
 10
-208.85835834
 20
423.66483547
 30
0.0
  0
VERTEX
  8
ZUWAKU
  6
CONTINUOUS
 62
       7
  5
A45
 10
-208.86128176
 20
423.64439062
 30
0.0
  0
VERTEX
  8
ZUWAKU
  6
CONTINUOUS
 62
       7
  5
A46
 10
-208.86347506
 20
423.62402501
 30
0.0
  0
VERTEX
  8
ZUWAKU
  6
CONTINUOUS
 62
       7
  5
A47
 10
-208.86493439
 20
423.60377434
 30
0.0
  0
VERTEX
  8
ZUWAKU
  6
CONTINUOUS
 62
       7
  5
A48
 10
-208.8656572
 20
423.58367416
 30
0.0
  0
VERTEX
  8
ZUWAKU
  6
CONTINUOUS
 62
       7
  5
A49
 10
-208.8656422
 20
423.56375972
 30
0.0
  0
VERTEX
  8
ZUWAKU
  6
CONTINUOUS
 62
       7
  5
A4A
 10
-208.86488944
 20
423.54406595
 30
0.0
  0
VERTEX
  8
ZUWAKU
  6
CONTINUOUS
 62
       7
  5
A4B
 10
-208.86340023
 20
423.52462742
 30
0.0
  0
VERTEX
  8
ZUWAKU
  6
CONTINUOUS
 62
       7
  5
A4C
 10
-208.86117719
 20
423.50547821
 30
0.0
  0
VERTEX
  8
ZUWAKU
  6
CONTINUOUS
 62
       7
  5
A4D
 10
-208.85822421
 20
423.48665193
 30
0.0
  0
VERTEX
  8
ZUWAKU
  6
CONTINUOUS
 62
       7
  5
A4E
 10
-208.85454647
 20
423.4681816
 30
0.0
  0
VERTEX
  8
ZUWAKU
  6
CONTINUOUS
 62
       7
  5
A4F
 10
-208.85015043
 20
423.45009963
 30
0.0
  0
VERTEX
  8
ZUWAKU
  6
CONTINUOUS
 62
       7
  5
A50
 10
-208.8450438
 20
423.43243773
 30
0.0
  0
VERTEX
  8
ZUWAKU
  6
CONTINUOUS
 62
       7
  5
A51
 10
-208.83923553
 20
423.41522689
 30
0.0
  0
VERTEX
  8
ZUWAKU
  6
CONTINUOUS
 62
       7
  5
A52
 10
-208.83273582
 20
423.39849732
 30
0.0
  0
VERTEX
  8
ZUWAKU
  6
CONTINUOUS
 62
       7
  5
A53
 10
-208.82555608
 20
423.38227834
 30
0.0
  0
VERTEX
  8
ZUWAKU
  6
CONTINUOUS
 62
       7
  5
A54
 10
-208.81770888
 20
423.36659843
 30
0.0
  0
VERTEX
  8
ZUWAKU
  6
CONTINUOUS
 62
       7
  5
A55
 10
-208.80920801
 20
423.35148508
 30
0.0
  0
VERTEX
  8
ZUWAKU
  6
CONTINUOUS
 62
       7
  5
A56
 10
-208.80006838
 20
423.33696481
 30
0.0
  0
VERTEX
  8
ZUWAKU
  6
CONTINUOUS
 62
       7
  5
A57
 10
-208.79030601
 20
423.32306309
 30
0.0
  0
VERTEX
  8
ZUWAKU
  6
CONTINUOUS
 62
       7
  5
A58
 10
-208.77993805
 20
423.30980432
 30
0.0
  0
VERTEX
  8
ZUWAKU
  6
CONTINUOUS
 62
       7
  5
A59
 10
-208.76898266
 20
423.29721175
 30
0.0
  0
VERTEX
  8
ZUWAKU
  6
CONTINUOUS
 62
       7
  5
A5A
 10
-208.75745908
 20
423.28530747
 30
0.0
  0
VERTEX
  8
ZUWAKU
  6
CONTINUOUS
 62
       7
  5
A5B
 10
-208.74538752
 20
423.27411238
 30
0.0
  0
VERTEX
  8
ZUWAKU
  6
CONTINUOUS
 62
       7
  5
A5C
 10
-208.73278916
 20
423.2636461
 30
0.0
  0
VERTEX
  8
ZUWAKU
  6
CONTINUOUS
 62
       7
  5
A5D
 10
-208.7196861
 20
423.253927
 30
0.0
  0
VERTEX
  8
ZUWAKU
  6
CONTINUOUS
 62
       7
  5
A5E
 10
-208.70610133
 20
423.24497213
 30
0.0
  0
SEQEND
  8
ZUWAKU
  6
CONTINUOUS
 62
       7
  5
A5F
  0
POLYLINE
  8
ZUWAKU
  6
CONTINUOUS
 62
       7
  5
346
 66
       1
 10
0.0
 20
0.0
 30
0.0
 70
     128
  0
VERTEX
  8
ZUWAKU
  6
CONTINUOUS
 62
       7
  5
A60
 10
-207.75887459
 20
422.57156153
 30
0.0
  0
VERTEX
  8
ZUWAKU
  6
CONTINUOUS
 62
       7
  5
A61
 10
-207.72303645
 20
422.60632677
 30
0.0
  0
VERTEX
  8
ZUWAKU
  6
CONTINUOUS
 62
       7
  5
A62
 10
-207.6879062
 20
422.64215394
 30
0.0
  0
VERTEX
  8
ZUWAKU
  6
CONTINUOUS
 62
       7
  5
A63
 10
-207.65351827
 20
422.67900793
 30
0.0
  0
VERTEX
  8
ZUWAKU
  6
CONTINUOUS
 62
       7
  5
A64
 10
-207.61990637
 20
422.71685261
 30
0.0
  0
VERTEX
  8
ZUWAKU
  6
CONTINUOUS
 62
       7
  5
A65
 10
-207.58710345
 20
422.75565088
 30
0.0
  0
VERTEX
  8
ZUWAKU
  6
CONTINUOUS
 62
       7
  5
A66
 10
-207.55514167
 20
422.79536469
 30
0.0
  0
VERTEX
  8
ZUWAKU
  6
CONTINUOUS
 62
       7
  5
A67
 10
-207.52405237
 20
422.83595513
 30
0.0
  0
VERTEX
  8
ZUWAKU
  6
CONTINUOUS
 62
       7
  5
A68
 10
-207.49386603
 20
422.87738239
 30
0.0
  0
VERTEX
  8
ZUWAKU
  6
CONTINUOUS
 62
       7
  5
A69
 10
-207.46461223
 20
422.91960586
 30
0.0
  0
VERTEX
  8
ZUWAKU
  6
CONTINUOUS
 62
       7
  5
A6A
 10
-207.43631966
 20
422.96258414
 30
0.0
  0
VERTEX
  8
ZUWAKU
  6
CONTINUOUS
 62
       7
  5
A6B
 10
-207.40901606
 20
423.00627511
 30
0.0
  0
VERTEX
  8
ZUWAKU
  6
CONTINUOUS
 62
       7
  5
A6C
 10
-207.38272818
 20
423.05063593
 30
0.0
  0
VERTEX
  8
ZUWAKU
  6
CONTINUOUS
 62
       7
  5
A6D
 10
-207.35748181
 20
423.09562311
 30
0.0
  0
VERTEX
  8
ZUWAKU
  6
CONTINUOUS
 62
       7
  5
A6E
 10
-207.33330169
 20
423.14119255
 30
0.0
  0
VERTEX
  8
ZUWAKU
  6
CONTINUOUS
 62
       7
  5
A6F
 10
-207.31021152
 20
423.18729957
 30
0.0
  0
VERTEX
  8
ZUWAKU
  6
CONTINUOUS
 62
       7
  5
A70
 10
-207.28823395
 20
423.23389898
 30
0.0
  0
VERTEX
  8
ZUWAKU
  6
CONTINUOUS
 62
       7
  5
A71
 10
-207.26739052
 20
423.28094508
 30
0.0
  0
VERTEX
  8
ZUWAKU
  6
CONTINUOUS
 62
       7
  5
A72
 10
-207.24770167
 20
423.32839176
 30
0.0
  0
VERTEX
  8
ZUWAKU
  6
CONTINUOUS
 62
       7
  5
A73
 10
-207.22918669
 20
423.37619251
 30
0.0
  0
VERTEX
  8
ZUWAKU
  6
CONTINUOUS
 62
       7
  5
A74
 10
-207.21186374
 20
423.42430045
 30
0.0
  0
VERTEX
  8
ZUWAKU
  6
CONTINUOUS
 62
       7
  5
A75
 10
-207.19574979
 20
423.47266843
 30
0.0
  0
VERTEX
  8
ZUWAKU
  6
CONTINUOUS
 62
       7
  5
A76
 10
-207.18086066
 20
423.52124904
 30
0.0
  0
VERTEX
  8
ZUWAKU
  6
CONTINUOUS
 62
       7
  5
A77
 10
-207.16721092
 20
423.56999463
 30
0.0
  0
VERTEX
  8
ZUWAKU
  6
CONTINUOUS
 62
       7
  5
A78
 10
-207.15481397
 20
423.61885744
 30
0.0
  0
VERTEX
  8
ZUWAKU
  6
CONTINUOUS
 62
       7
  5
A79
 10
-207.14368197
 20
423.66778954
 30
0.0
  0
VERTEX
  8
ZUWAKU
  6
CONTINUOUS
 62
       7
  5
A7A
 10
-207.13382581
 20
423.71674298
 30
0.0
  0
VERTEX
  8
ZUWAKU
  6
CONTINUOUS
 62
       7
  5
A7B
 10
-207.12525516
 20
423.76566976
 30
0.0
  0
VERTEX
  8
ZUWAKU
  6
CONTINUOUS
 62
       7
  5
A7C
 10
-207.11797844
 20
423.81452192
 30
0.0
  0
VERTEX
  8
ZUWAKU
  6
CONTINUOUS
 62
       7
  5
A7D
 10
-207.11200276
 20
423.86325156
 30
0.0
  0
VERTEX
  8
ZUWAKU
  6
CONTINUOUS
 62
       7
  5
A7E
 10
-207.10733399
 20
423.91181091
 30
0.0
  0
VERTEX
  8
ZUWAKU
  6
CONTINUOUS
 62
       7
  5
A7F
 10
-207.10397671
 20
423.96015236
 30
0.0
  0
VERTEX
  8
ZUWAKU
  6
CONTINUOUS
 62
       7
  5
A80
 10
-207.10193421
 20
424.00822853
 30
0.0
  0
VERTEX
  8
ZUWAKU
  6
CONTINUOUS
 62
       7
  5
A81
 10
-207.10120848
 20
424.05599229
 30
0.0
  0
VERTEX
  8
ZUWAKU
  6
CONTINUOUS
 62
       7
  5
A82
 10
-207.10180025
 20
424.1033968
 30
0.0
  0
VERTEX
  8
ZUWAKU
  6
CONTINUOUS
 62
       7
  5
A83
 10
-207.10370892
 20
424.15039559
 30
0.0
  0
VERTEX
  8
ZUWAKU
  6
CONTINUOUS
 62
       7
  5
A84
 10
-207.10693264
 20
424.19694259
 30
0.0
  0
VERTEX
  8
ZUWAKU
  6
CONTINUOUS
 62
       7
  5
A85
 10
-207.11146823
 20
424.24299217
 30
0.0
  0
VERTEX
  8
ZUWAKU
  6
CONTINUOUS
 62
       7
  5
A86
 10
-207.11731126
 20
424.28849918
 30
0.0
  0
VERTEX
  8
ZUWAKU
  6
CONTINUOUS
 62
       7
  5
A87
 10
-207.12445599
 20
424.33341901
 30
0.0
  0
VERTEX
  8
ZUWAKU
  6
CONTINUOUS
 62
       7
  5
A88
 10
-207.13289542
 20
424.37770761
 30
0.0
  0
VERTEX
  8
ZUWAKU
  6
CONTINUOUS
 62
       7
  5
A89
 10
-207.14262128
 20
424.42132158
 30
0.0
  0
VERTEX
  8
ZUWAKU
  6
CONTINUOUS
 62
       7
  5
A8A
 10
-207.15362403
 20
424.46421816
 30
0.0
  0
VERTEX
  8
ZUWAKU
  6
CONTINUOUS
 62
       7
  5
A8B
 10
-207.16589289
 20
424.50635529
 30
0.0
  0
VERTEX
  8
ZUWAKU
  6
CONTINUOUS
 62
       7
  5
A8C
 10
-207.17941582
 20
424.54769166
 30
0.0
  0
VERTEX
  8
ZUWAKU
  6
CONTINUOUS
 62
       7
  5
A8D
 10
-207.19417957
 20
424.58818674
 30
0.0
  0
VERTEX
  8
ZUWAKU
  6
CONTINUOUS
 62
       7
  5
A8E
 10
-207.21016967
 20
424.62780085
 30
0.0
  0
VERTEX
  8
ZUWAKU
  6
CONTINUOUS
 62
       7
  5
A8F
 10
-207.22737044
 20
424.66649514
 30
0.0
  0
VERTEX
  8
ZUWAKU
  6
CONTINUOUS
 62
       7
  5
A90
 10
-207.24576502
 20
424.70423168
 30
0.0
  0
VERTEX
  8
ZUWAKU
  6
CONTINUOUS
 62
       7
  5
A91
 10
-207.26533537
 20
424.74097347
 30
0.0
  0
VERTEX
  8
ZUWAKU
  6
CONTINUOUS
 62
       7
  5
A92
 10
-207.28606231
 20
424.77668449
 30
0.0
  0
VERTEX
  8
ZUWAKU
  6
CONTINUOUS
 62
       7
  5
A93
 10
-207.30792551
 20
424.81132974
 30
0.0
  0
VERTEX
  8
ZUWAKU
  6
CONTINUOUS
 62
       7
  5
A94
 10
-207.33090356
 20
424.84487525
 30
0.0
  0
VERTEX
  8
ZUWAKU
  6
CONTINUOUS
 62
       7
  5
A95
 10
-207.35497391
 20
424.87728813
 30
0.0
  0
VERTEX
  8
ZUWAKU
  6
CONTINUOUS
 62
       7
  5
A96
 10
-207.38011297
 20
424.90853661
 30
0.0
  0
VERTEX
  8
ZUWAKU
  6
CONTINUOUS
 62
       7
  5
A97
 10
-207.4062961
 20
424.93859005
 30
0.0
  0
VERTEX
  8
ZUWAKU
  6
CONTINUOUS
 62
       7
  5
A98
 10
-207.43349763
 20
424.96741899
 30
0.0
  0
VERTEX
  8
ZUWAKU
  6
CONTINUOUS
 62
       7
  5
A99
 10
-207.46169088
 20
424.99499517
 30
0.0
  0
VERTEX
  8
ZUWAKU
  6
CONTINUOUS
 62
       7
  5
A9A
 10
-207.49084823
 20
425.02129155
 30
0.0
  0
VERTEX
  8
ZUWAKU
  6
CONTINUOUS
 62
       7
  5
A9B
 10
-207.52094108
 20
425.04628236
 30
0.0
  0
VERTEX
  8
ZUWAKU
  6
CONTINUOUS
 62
       7
  5
A9C
 10
-207.55193994
 20
425.06994308
 30
0.0
  0
VERTEX
  8
ZUWAKU
  6
CONTINUOUS
 62
       7
  5
A9D
 10
-207.58381442
 20
425.09225054
 30
0.0
  0
VERTEX
  8
ZUWAKU
  6
CONTINUOUS
 62
       7
  5
A9E
 10
-207.61653325
 20
425.11318285
 30
0.0
  0
VERTEX
  8
ZUWAKU
  6
CONTINUOUS
 62
       7
  5
A9F
 10
-207.65006438
 20
425.1327195
 30
0.0
  0
VERTEX
  8
ZUWAKU
  6
CONTINUOUS
 62
       7
  5
AA0
 10
-207.68437493
 20
425.15084133
 30
0.0
  0
VERTEX
  8
ZUWAKU
  6
CONTINUOUS
 62
       7
  5
AA1
 10
-207.71943126
 20
425.16753058
 30
0.0
  0
VERTEX
  8
ZUWAKU
  6
CONTINUOUS
 62
       7
  5
AA2
 10
-207.75519901
 20
425.18277089
 30
0.0
  0
VERTEX
  8
ZUWAKU
  6
CONTINUOUS
 62
       7
  5
AA3
 10
-207.7916431
 20
425.19654732
 30
0.0
  0
VERTEX
  8
ZUWAKU
  6
CONTINUOUS
 62
       7
  5
AA4
 10
-207.82872782
 20
425.20884635
 30
0.0
  0
VERTEX
  8
ZUWAKU
  6
CONTINUOUS
 62
       7
  5
AA5
 10
-207.8664168
 20
425.21965594
 30
0.0
  0
VERTEX
  8
ZUWAKU
  6
CONTINUOUS
 62
       7
  5
AA6
 10
-207.90467309
 20
425.22896548
 30
0.0
  0
VERTEX
  8
ZUWAKU
  6
CONTINUOUS
 62
       7
  5
AA7
 10
-207.9434592
 20
425.23676586
 30
0.0
  0
VERTEX
  8
ZUWAKU
  6
CONTINUOUS
 62
       7
  5
AA8
 10
-207.9827371
 20
425.24304941
 30
0.0
  0
VERTEX
  8
ZUWAKU
  6
CONTINUOUS
 62
       7
  5
AA9
 10
-208.02246827
 20
425.24780999
 30
0.0
  0
VERTEX
  8
ZUWAKU
  6
CONTINUOUS
 62
       7
  5
AAA
 10
-208.06261378
 20
425.25104292
 30
0.0
  0
VERTEX
  8
ZUWAKU
  6
CONTINUOUS
 62
       7
  5
AAB
 10
-208.10313426
 20
425.25274504
 30
0.0
  0
VERTEX
  8
ZUWAKU
  6
CONTINUOUS
 62
       7
  5
AAC
 10
-208.14399
 20
425.25291467
 30
0.0
  0
VERTEX
  8
ZUWAKU
  6
CONTINUOUS
 62
       7
  5
AAD
 10
-208.18514093
 20
425.25155166
 30
0.0
  0
VERTEX
  8
ZUWAKU
  6
CONTINUOUS
 62
       7
  5
AAE
 10
-208.22654671
 20
425.24865733
 30
0.0
  0
VERTEX
  8
ZUWAKU
  6
CONTINUOUS
 62
       7
  5
AAF
 10
-208.26816675
 20
425.24423452
 30
0.0
  0
VERTEX
  8
ZUWAKU
  6
CONTINUOUS
 62
       7
  5
AB0
 10
-208.30996026
 20
425.23828758
 30
0.0
  0
VERTEX
  8
ZUWAKU
  6
CONTINUOUS
 62
       7
  5
AB1
 10
-208.35188625
 20
425.23082233
 30
0.0
  0
VERTEX
  8
ZUWAKU
  6
CONTINUOUS
 62
       7
  5
AB2
 10
-208.39390363
 20
425.22184608
 30
0.0
  0
VERTEX
  8
ZUWAKU
  6
CONTINUOUS
 62
       7
  5
AB3
 10
-208.4359712
 20
425.21136764
 30
0.0
  0
VERTEX
  8
ZUWAKU
  6
CONTINUOUS
 62
       7
  5
AB4
 10
-208.47804772
 20
425.19939729
 30
0.0
  0
VERTEX
  8
ZUWAKU
  6
CONTINUOUS
 62
       7
  5
AB5
 10
-208.52009195
 20
425.18594675
 30
0.0
  0
VERTEX
  8
ZUWAKU
  6
CONTINUOUS
 62
       7
  5
AB6
 10
-208.56206266
 20
425.17102921
 30
0.0
  0
VERTEX
  8
ZUWAKU
  6
CONTINUOUS
 62
       7
  5
AB7
 10
-208.6039187
 20
425.1546593
 30
0.0
  0
VERTEX
  8
ZUWAKU
  6
CONTINUOUS
 62
       7
  5
AB8
 10
-208.64561905
 20
425.13685307
 30
0.0
  0
VERTEX
  8
ZUWAKU
  6
CONTINUOUS
 62
       7
  5
AB9
 10
-208.68712283
 20
425.11762797
 30
0.0
  0
VERTEX
  8
ZUWAKU
  6
CONTINUOUS
 62
       7
  5
ABA
 10
-208.72838934
 20
425.09700284
 30
0.0
  0
VERTEX
  8
ZUWAKU
  6
CONTINUOUS
 62
       7
  5
ABB
 10
-208.76937812
 20
425.07499792
 30
0.0
  0
VERTEX
  8
ZUWAKU
  6
CONTINUOUS
 62
       7
  5
ABC
 10
-208.81004901
 20
425.05163477
 30
0.0
  0
VERTEX
  8
ZUWAKU
  6
CONTINUOUS
 62
       7
  5
ABD
 10
-208.85036212
 20
425.02693629
 30
0.0
  0
VERTEX
  8
ZUWAKU
  6
CONTINUOUS
 62
       7
  5
ABE
 10
-208.89027793
 20
425.00092671
 30
0.0
  0
VERTEX
  8
ZUWAKU
  6
CONTINUOUS
 62
       7
  5
ABF
 10
-208.92975731
 20
424.97363151
 30
0.0
  0
VERTEX
  8
ZUWAKU
  6
CONTINUOUS
 62
       7
  5
AC0
 10
-208.96876156
 20
424.94507745
 30
0.0
  0
VERTEX
  8
ZUWAKU
  6
CONTINUOUS
 62
       7
  5
AC1
 10
-209.00725243
 20
424.91529254
 30
0.0
  0
VERTEX
  8
ZUWAKU
  6
CONTINUOUS
 62
       7
  5
AC2
 10
-209.04519221
 20
424.88430597
 30
0.0
  0
VERTEX
  8
ZUWAKU
  6
CONTINUOUS
 62
       7
  5
AC3
 10
-209.08254368
 20
424.85214811
 30
0.0
  0
VERTEX
  8
ZUWAKU
  6
CONTINUOUS
 62
       7
  5
AC4
 10
-209.11927023
 20
424.8188505
 30
0.0
  0
VERTEX
  8
ZUWAKU
  6
CONTINUOUS
 62
       7
  5
AC5
 10
-209.15533587
 20
424.78444577
 30
0.0
  0
VERTEX
  8
ZUWAKU
  6
CONTINUOUS
 62
       7
  5
AC6
 10
-209.19070522
 20
424.74896766
 30
0.0
  0
VERTEX
  8
ZUWAKU
  6
CONTINUOUS
 62
       7
  5
AC7
 10
-209.22534362
 20
424.71245094
 30
0.0
  0
VERTEX
  8
ZUWAKU
  6
CONTINUOUS
 62
       7
  5
AC8
 10
-209.25921711
 20
424.67493143
 30
0.0
  0
VERTEX
  8
ZUWAKU
  6
CONTINUOUS
 62
       7
  5
AC9
 10
-209.29229248
 20
424.63644588
 30
0.0
  0
VERTEX
  8
ZUWAKU
  6
CONTINUOUS
 62
       7
  5
ACA
 10
-209.32453731
 20
424.59703205
 30
0.0
  0
VERTEX
  8
ZUWAKU
  6
CONTINUOUS
 62
       7
  5
ACB
 10
-209.35591997
 20
424.55672856
 30
0.0
  0
VERTEX
  8
ZUWAKU
  6
CONTINUOUS
 62
       7
  5
ACC
 10
-209.38640972
 20
424.51557494
 30
0.0
  0
VERTEX
  8
ZUWAKU
  6
CONTINUOUS
 62
       7
  5
ACD
 10
-209.41597665
 20
424.47361151
 30
0.0
  0
VERTEX
  8
ZUWAKU
  6
CONTINUOUS
 62
       7
  5
ACE
 10
-209.44459178
 20
424.43087943
 30
0.0
  0
VERTEX
  8
ZUWAKU
  6
CONTINUOUS
 62
       7
  5
ACF
 10
-209.47222706
 20
424.38742059
 30
0.0
  0
VERTEX
  8
ZUWAKU
  6
CONTINUOUS
 62
       7
  5
AD0
 10
-209.4988554
 20
424.34327758
 30
0.0
  0
VERTEX
  8
ZUWAKU
  6
CONTINUOUS
 62
       7
  5
AD1
 10
-209.52445069
 20
424.29849369
 30
0.0
  0
VERTEX
  8
ZUWAKU
  6
CONTINUOUS
 62
       7
  5
AD2
 10
-209.54898783
 20
424.25311282
 30
0.0
  0
VERTEX
  8
ZUWAKU
  6
CONTINUOUS
 62
       7
  5
AD3
 10
-209.57244278
 20
424.20717946
 30
0.0
  0
VERTEX
  8
ZUWAKU
  6
CONTINUOUS
 62
       7
  5
AD4
 10
-209.59479253
 20
424.16073864
 30
0.0
  0
VERTEX
  8
ZUWAKU
  6
CONTINUOUS
 62
       7
  5
AD5
 10
-209.61601519
 20
424.11383589
 30
0.0
  0
VERTEX
  8
ZUWAKU
  6
CONTINUOUS
 62
       7
  5
AD6
 10
-209.63608993
 20
424.06651719
 30
0.0
  0
VERTEX
  8
ZUWAKU
  6
CONTINUOUS
 62
       7
  5
AD7
 10
-209.65499709
 20
424.01882892
 30
0.0
  0
VERTEX
  8
ZUWAKU
  6
CONTINUOUS
 62
       7
  5
AD8
 10
-209.67271812
 20
423.97081785
 30
0.0
  0
VERTEX
  8
ZUWAKU
  6
CONTINUOUS
 62
       7
  5
AD9
 10
-209.68923566
 20
423.92253104
 30
0.0
  0
VERTEX
  8
ZUWAKU
  6
CONTINUOUS
 62
       7
  5
ADA
 10
-209.70453351
 20
423.87401582
 30
0.0
  0
VERTEX
  8
ZUWAKU
  6
CONTINUOUS
 62
       7
  5
ADB
 10
-209.71859667
 20
423.82531976
 30
0.0
  0
VERTEX
  8
ZUWAKU
  6
CONTINUOUS
 62
       7
  5
ADC
 10
-209.73141136
 20
423.7764906
 30
0.0
  0
VERTEX
  8
ZUWAKU
  6
CONTINUOUS
 62
       7
  5
ADD
 10
-209.74296501
 20
423.7275762
 30
0.0
  0
VERTEX
  8
ZUWAKU
  6
CONTINUOUS
 62
       7
  5
ADE
 10
-209.7532463
 20
423.67862453
 30
0.0
  0
VERTEX
  8
ZUWAKU
  6
CONTINUOUS
 62
       7
  5
ADF
 10
-209.76224514
 20
423.62968356
 30
0.0
  0
VERTEX
  8
ZUWAKU
  6
CONTINUOUS
 62
       7
  5
AE0
 10
-209.76995272
 20
423.58080129
 30
0.0
  0
VERTEX
  8
ZUWAKU
  6
CONTINUOUS
 62
       7
  5
AE1
 10
-209.77636148
 20
423.53202563
 30
0.0
  0
VERTEX
  8
ZUWAKU
  6
CONTINUOUS
 62
       7
  5
AE2
 10
-209.78146513
 20
423.4834044
 30
0.0
  0
VERTEX
  8
ZUWAKU
  6
CONTINUOUS
 62
       7
  5
AE3
 10
-209.78525868
 20
423.43498526
 30
0.0
  0
VERTEX
  8
ZUWAKU
  6
CONTINUOUS
 62
       7
  5
AE4
 10
-209.78773841
 20
423.38681569
 30
0.0
  0
VERTEX
  8
ZUWAKU
  6
CONTINUOUS
 62
       7
  5
AE5
 10
-209.78890187
 20
423.3389429
 30
0.0
  0
VERTEX
  8
ZUWAKU
  6
CONTINUOUS
 62
       7
  5
AE6
 10
-209.78874794
 20
423.29141383
 30
0.0
  0
VERTEX
  8
ZUWAKU
  6
CONTINUOUS
 62
       7
  5
AE7
 10
-209.78727676
 20
423.24427508
 30
0.0
  0
VERTEX
  8
ZUWAKU
  6
CONTINUOUS
 62
       7
  5
AE8
 10
-209.78448978
 20
423.19757285
 30
0.0
  0
VERTEX
  8
ZUWAKU
  6
CONTINUOUS
 62
       7
  5
AE9
 10
-209.78038972
 20
423.15135293
 30
0.0
  0
VERTEX
  8
ZUWAKU
  6
CONTINUOUS
 62
       7
  5
AEA
 10
-209.77498061
 20
423.10566064
 30
0.0
  0
VERTEX
  8
ZUWAKU
  6
CONTINUOUS
 62
       7
  5
AEB
 10
-209.76826775
 20
423.06054076
 30
0.0
  0
VERTEX
  8
ZUWAKU
  6
CONTINUOUS
 62
       7
  5
AEC
 10
-209.76025773
 20
423.01603753
 30
0.0
  0
VERTEX
  8
ZUWAKU
  6
CONTINUOUS
 62
       7
  5
AED
 10
-209.75095838
 20
422.97219459
 30
0.0
  0
VERTEX
  8
ZUWAKU
  6
CONTINUOUS
 62
       7
  5
AEE
 10
-209.74037884
 20
422.9290549
 30
0.0
  0
VERTEX
  8
ZUWAKU
  6
CONTINUOUS
 62
       7
  5
AEF
 10
-209.72852947
 20
422.88666077
 30
0.0
  0
VERTEX
  8
ZUWAKU
  6
CONTINUOUS
 62
       7
  5
AF0
 10
-209.71542188
 20
422.84505376
 30
0.0
  0
VERTEX
  8
ZUWAKU
  6
CONTINUOUS
 62
       7
  5
AF1
 10
-209.70106894
 20
422.80427465
 30
0.0
  0
VERTEX
  8
ZUWAKU
  6
CONTINUOUS
 62
       7
  5
AF2
 10
-209.68548471
 20
422.76436342
 30
0.0
  0
VERTEX
  8
ZUWAKU
  6
CONTINUOUS
 62
       7
  5
AF3
 10
-209.66868446
 20
422.7253592
 30
0.0
  0
VERTEX
  8
ZUWAKU
  6
CONTINUOUS
 62
       7
  5
AF4
 10
-209.65068467
 20
422.68730022
 30
0.0
  0
VERTEX
  8
ZUWAKU
  6
CONTINUOUS
 62
       7
  5
AF5
 10
-209.63150298
 20
422.65022381
 30
0.0
  0
VERTEX
  8
ZUWAKU
  6
CONTINUOUS
 62
       7
  5
AF6
 10
-209.61115821
 20
422.6141663
 30
0.0
  0
SEQEND
  8
ZUWAKU
  6
CONTINUOUS
 62
       7
  5
AF7
  0
ARC
  8
ZUWAKU
  6
CONTINUOUS
 62
       7
  5
347
 10
-210.03589421
 20
424.62077271
 30
0.0
 40
2.12434536
 50
277.55531967
 51
282.61004677
  0
ARC
  8
ZUWAKU
  6
CONTINUOUS
 62
       7
  5
348
 10
-210.03589421
 20
424.62077271
 30
0.0
 40
3.06334536
 50
276.29029269
 51
293.79815684
  0
ARC
  8
ZUWAKU
  6
CONTINUOUS
 62
       7
  5
349
 10
-210.03589421
 20
424.62077271
 30
0.0
 40
3.06334536
 50
316.57125834
 51
318.01426788
  0
ARC
  8
ZUWAKU
  6
CONTINUOUS
 62
       7
  5
34A
 10
-207.83565008
 20
423.61183208
 30
0.0
 40
2.03660652
 50
209.3318227
 51
211.50126528
  0
ARC
  8
ZUWAKU
  6
CONTINUOUS
 62
       7
  5
34B
 10
-207.83565008
 20
423.61183208
 30
0.0
 40
2.03660652
 50
241.74457829
 51
270.0
  0
LINE
  8
ZUWAKU
  6
CONTINUOUS
 62
       7
  5
34C
 10
-213.01810583
 20
422.51487012
 30
0.0
 11
-209.7565781
 21
422.51487012
 31
0.0
  0
LINE
  8
ZUWAKU
  6
CONTINUOUS
 62
       7
  5
34D
 10
-207.83565008
 20
421.57587012
 30
0.0
 11
-206.03002725
 21
421.57587012
 31
0.0
  0
LINE
  8
ZUWAKU
  6
CONTINUOUS
 62
       7
  5
34E
 10
-207.81120118
 20
422.51487012
 30
0.0
 11
-205.81963118
 21
422.51487012
 31
0.0
  0
LINE
  8
ZUWAKU
  6
CONTINUOUS
 62
       7
  5
34F
 10
-230.5
 20
421.57587012
 30
0.0
 11
-228.25
 21
421.57587012
 31
0.0
  0
LINE
  8
ZUWAKU
  6
CONTINUOUS
 62
       7
  5
350
 10
-221.01055585
 20
421.60540886
 30
0.0
 11
-219.93802415
 21
421.57587012
 31
0.0
  0
LINE
  8
ZUWAKU
  6
CONTINUOUS
 62
       7
  5
351
 10
-217.23809091
 20
422.51487012
 30
0.0
 11
-215.50423216
 21
422.51487012
 31
0.0
  0
LINE
  8
ZUWAKU
  6
CONTINUOUS
 62
       7
  5
352
 10
-212.30448845
 20
423.86665426
 30
0.0
 11
-211.60403749
 21
424.43285212
 31
0.0
  0
ARC
  8
ZUWAKU
  6
CONTINUOUS
 62
       7
  5
353
 10
-213.01810583
 20
423.38487012
 30
0.0
 40
0.87
 50
34.07537472
 51
270.0
  0
ARC
  8
ZUWAKU
  6
CONTINUOUS
 62
       7
  5
354
 10
-213.01810583
 20
423.38487012
 30
0.0
 40
1.7600726
 50
36.54256145
 51
190.98612084
  0
LINE
  8
ZUWAKU
  6
CONTINUOUS
 62
       7
  5
355
 10
-215.26743836
 20
421.57587012
 30
0.0
 11
-214.37591188
 21
422.23189904
 31
0.0
  0
LINE
  8
ZUWAKU
  6
CONTINUOUS
 62
       7
  5
356
 10
-214.75710256
 20
423.06464473
 30
0.0
 11
-215.50423216
 21
422.51487012
 31
0.0
  0
LINE
  8
ZUWAKU
  6
CONTINUOUS
 62
       7
  5
357
 10
-214.37591188
 20
422.23189904
 30
0.0
 11
-213.625
 21
421.57587012
 31
0.0
  0
LINE
  8
ZUWAKU
  6
CONTINUOUS
 62
       7
  5
358
 10
-205.81963118
 20
422.51487012
 30
0.0
 11
-206.03002725
 21
421.57587012
 31
0.0
  0
LINE
  8
ZUWAKU
  6
CONTINUOUS
 62
       7
  5
359
 10
-255.68447998
 20
430.73993262
 30
0.0
 11
-256.20010498
 21
430.22430762
 31
0.0
  0
LINE
  8
ZUWAKU
  6
CONTINUOUS
 62
       7
  5
35A
 10
-254.59951458
 20
430.84716186
 30
0.0
 11
-255.32959805
 21
430.11707838
 31
0.0
  0
LINE
  8
ZUWAKU
  6
CONTINUOUS
 62
       7
  5
35B
 10
-253.37139635
 20
430.93212012
 30
0.0
 11
-254.27256823
 21
430.03094824
 31
0.0
  0
LINE
  8
ZUWAKU
  6
CONTINUOUS
 62
       7
  5
35C
 10
-252.16050275
 20
430.95087012
 30
0.0
 11
-253.09800275
 21
430.01337012
 31
0.0
  0
LINE
  8
ZUWAKU
  6
CONTINUOUS
 62
       7
  5
35D
 10
-250.90844347
 20
430.95087012
 30
0.0
 11
-251.84594347
 21
430.01337012
 31
0.0
  0
LINE
  8
ZUWAKU
  6
CONTINUOUS
 62
       7
  5
35E
 10
-249.53183897
 20
430.95087012
 30
0.0
 11
-250.46933897
 21
430.01337012
 31
0.0
  0
LINE
  8
ZUWAKU
  6
CONTINUOUS
 62
       7
  5
35F
 10
-248.37159823
 20
430.95087012
 30
0.0
 11
-249.30909823
 21
430.01337012
 31
0.0
  0
LINE
  8
ZUWAKU
  6
CONTINUOUS
 62
       7
  5
360
 10
-248.04724319
 20
421.85894844
 30
0.0
 11
-248.33032151
 21
421.57587012
 31
0.0
  0
LINE
  8
ZUWAKU
  6
CONTINUOUS
 62
       7
  5
361
 10
-247.53812631
 20
423.21659346
 30
0.0
 11
-249.17884965
 21
421.57587012
 31
0.0
  0
LINE
  8
ZUWAKU
  6
CONTINUOUS
 62
       7
  5
362
 10
-247.02900943
 20
424.57423848
 30
0.0
 11
-248.63357333
 21
422.96967457
 31
0.0
  0
LINE
  8
ZUWAKU
  6
CONTINUOUS
 62
       7
  5
363
 10
-249.08837779
 20
422.51487012
 30
0.0
 11
-250.02737779
 21
421.57587012
 31
0.0
  0
LINE
  8
ZUWAKU
  6
CONTINUOUS
 62
       7
  5
364
 10
-246.51989254
 20
425.9318835
 30
0.0
 11
-248.12445645
 21
424.32731959
 31
0.0
  0
LINE
  8
ZUWAKU
  6
CONTINUOUS
 62
       7
  5
365
 10
-249.93690592
 20
422.51487012
 30
0.0
 11
-250.87590592
 21
421.57587012
 31
0.0
  0
LINE
  8
ZUWAKU
  6
CONTINUOUS
 62
       7
  5
366
 10
-250.78543406
 20
422.51487012
 30
0.0
 11
-251.06533956
 21
422.23496461
 31
0.0
  0
LINE
  8
ZUWAKU
  6
CONTINUOUS
 62
       7
  5
367
 10
-244.89501847
 20
430.95087012
 30
0.0
 11
-246.08798892
 21
429.75789967
 31
0.0
  0
LINE
  8
ZUWAKU
  6
CONTINUOUS
 62
       7
  5
368
 10
-245.74354661
 20
430.95087012
 30
0.0
 11
-246.68104661
 21
430.01337012
 31
0.0
  0
LINE
  8
ZUWAKU
  6
CONTINUOUS
 62
       7
  5
369
 10
-246.59207475
 20
430.95087012
 30
0.0
 11
-247.52957475
 21
430.01337012
 31
0.0
  0
LINE
  8
ZUWAKU
  6
CONTINUOUS
 62
       7
  5
36A
 10
-247.44060288
 20
430.95087012
 30
0.0
 11
-247.93563827
 21
430.45583473
 31
0.0
  0
LINE
  8
ZUWAKU
  6
CONTINUOUS
 62
       7
  5
36B
 10
-238.83730871
 20
425.12918596
 30
0.0
 11
-239.73487872
 21
424.23161595
 31
0.0
  0
LINE
  8
ZUWAKU
  6
CONTINUOUS
 62
       7
  5
36C
 10
-237.93369667
 20
425.18426986
 30
0.0
 11
-239.9561783
 21
423.16178823
 31
0.0
  0
LINE
  8
ZUWAKU
  6
CONTINUOUS
 62
       7
  5
36D
 10
-237.27805653
 20
424.14285372
 30
0.0
 11
-239.84111379
 21
421.57979647
 31
0.0
  0
LINE
  8
ZUWAKU
  6
CONTINUOUS
 62
       7
  5
36E
 10
-243.1979622
 20
430.95087012
 30
0.0
 11
-244.1354622
 21
430.01337012
 31
0.0
  0
LINE
  8
ZUWAKU
  6
CONTINUOUS
 62
       7
  5
36F
 10
-245.50165878
 20
428.64717354
 30
0.0
 11
-247.10622268
 21
427.04260963
 31
0.0
  0
LINE
  8
ZUWAKU
  6
CONTINUOUS
 62
       7
  5
370
 10
-242.34943406
 20
430.95087012
 30
0.0
 11
-243.28693406
 21
430.01337012
 31
0.0
  0
LINE
  8
ZUWAKU
  6
CONTINUOUS
 62
       7
  5
371
 10
-246.01077566
 20
427.28952852
 30
0.0
 11
-247.61533956
 21
425.68496461
 31
0.0
  0
LINE
  8
ZUWAKU
  6
CONTINUOUS
 62
       7
  5
372
 10
-241.51041137
 20
430.94136467
 30
0.0
 11
-242.43840592
 21
430.01337012
 31
0.0
  0
LINE
  8
ZUWAKU
  6
CONTINUOUS
 62
       7
  5
373
 10
-245.43840592
 20
427.01337012
 30
0.0
 11
-246.37740592
 21
426.07437012
 31
0.0
  0
LINE
  8
ZUWAKU
  6
CONTINUOUS
 62
       7
  5
374
 10
-240.82485863
 20
430.77838928
 30
0.0
 11
-241.59551731
 21
430.00773059
 31
0.0
  0
LINE
  8
ZUWAKU
  6
CONTINUOUS
 62
       7
  5
375
 10
-244.58987779
 20
427.01337012
 30
0.0
 11
-245.69738642
 21
425.90586148
 31
0.0
  0
LINE
  8
ZUWAKU
  6
CONTINUOUS
 62
       7
  5
376
 10
-240.27924572
 20
430.47547405
 30
0.0
 11
-240.95459022
 21
429.80012955
 31
0.0
  0
LINE
  8
ZUWAKU
  6
CONTINUOUS
 62
       7
  5
377
 10
-239.84361492
 20
430.0625767
 30
0.0
 11
-240.51160552
 21
429.39458611
 31
0.0
  0
LINE
  8
ZUWAKU
  6
CONTINUOUS
 62
       7
  5
378
 10
-239.51564841
 20
429.54201508
 30
0.0
 11
-240.25385351
 21
428.80380998
 31
0.0
  0
LINE
  8
ZUWAKU
  6
CONTINUOUS
 62
       7
  5
379
 10
-239.31749656
 20
428.8916388
 30
0.0
 11
-240.40226826
 21
427.80686709
 31
0.0
  0
LINE
  8
ZUWAKU
  6
CONTINUOUS
 62
       7
  5
37A
 10
-244.04649033
 20
430.95087012
 30
0.0
 11
-244.98399033
 21
430.01337012
 31
0.0
  0
LINE
  8
ZUWAKU
  6
CONTINUOUS
 62
       7
  5
37B
 10
-244.9925419
 20
430.00481856
 30
0.0
 11
-246.5971058
 21
428.40025465
 31
0.0
  0
LINE
  8
ZUWAKU
  6
CONTINUOUS
 62
       7
  5
37C
 10
-242.89282151
 20
427.01337012
 30
0.0
 11
-243.83182151
 21
426.07437012
 31
0.0
  0
LINE
  8
ZUWAKU
  6
CONTINUOUS
 62
       7
  5
37D
 10
-244.39544697
 20
425.51074465
 30
0.0
 11
-245.08456055
 21
424.82163108
 31
0.0
  0
LINE
  8
ZUWAKU
  6
CONTINUOUS
 62
       7
  5
37E
 10
-243.74134965
 20
427.01337012
 30
0.0
 11
-244.68034965
 21
426.07437012
 31
0.0
  0
LINE
  8
ZUWAKU
  6
CONTINUOUS
 62
       7
  5
37F
 10
-244.70185991
 20
426.05285985
 30
0.0
 11
-245.39097348
 21
425.36374628
 31
0.0
  0
LINE
  8
ZUWAKU
  6
CONTINUOUS
 62
       7
  5
380
 10
-242.04429337
 20
427.01337012
 30
0.0
 11
-242.98329337
 21
426.07437012
 31
0.0
  0
LINE
  8
ZUWAKU
  6
CONTINUOUS
 62
       7
  5
381
 10
-244.08903404
 20
424.96862946
 30
0.0
 11
-244.77814761
 21
424.27951588
 31
0.0
  0
LINE
  8
ZUWAKU
  6
CONTINUOUS
 62
       7
  5
382
 10
-241.01896343
 20
427.19017192
 30
0.0
 11
-242.13476524
 21
426.07437012
 31
0.0
  0
LINE
  8
ZUWAKU
  6
CONTINUOUS
 62
       7
  5
383
 10
-243.7826211
 20
424.42651426
 30
0.0
 11
-244.47173467
 21
423.73740069
 31
0.0
  0
LINE
  8
ZUWAKU
  6
CONTINUOUS
 62
       7
  5
384
 10
-239.33785188
 20
428.02275534
 30
0.0
 11
-241.23485168
 21
426.12575554
 31
0.0
  0
LINE
  8
ZUWAKU
  6
CONTINUOUS
 62
       7
  5
385
 10
-243.47620816
 20
423.88439906
 30
0.0
 11
-244.16532173
 21
423.19528549
 31
0.0
  0
LINE
  8
ZUWAKU
  6
CONTINUOUS
 62
       7
  5
386
 10
-243.16979522
 20
423.34228386
 30
0.0
 11
-243.85890879
 21
422.65317029
 31
0.0
  0
LINE
  8
ZUWAKU
  6
CONTINUOUS
 62
       7
  5
387
 10
-242.86338228
 20
422.80016866
 30
0.0
 11
-243.55249585
 21
422.11105509
 31
0.0
  0
LINE
  8
ZUWAKU
  6
CONTINUOUS
 62
       7
  5
388
 10
-242.30015269
 20
422.51487012
 30
0.0
 11
-243.23915269
 21
421.57587012
 31
0.0
  0
LINE
  8
ZUWAKU
  6
CONTINUOUS
 62
       7
  5
389
 10
-241.45162455
 20
422.51487012
 30
0.0
 11
-242.39062455
 21
421.57587012
 31
0.0
  0
LINE
  8
ZUWAKU
  6
CONTINUOUS
 62
       7
  5
38A
 10
-240.60309641
 20
422.51487012
 30
0.0
 11
-241.54209641
 21
421.57587012
 31
0.0
  0
LINE
  8
ZUWAKU
  6
CONTINUOUS
 62
       7
  5
38B
 10
-237.47303061
 20
424.79640778
 30
0.0
 11
-238.25065583
 21
424.01878256
 31
0.0
  0
LINE
  8
ZUWAKU
  6
CONTINUOUS
 62
       7
  5
38C
 10
-238.95690669
 20
423.3125317
 30
0.0
 11
-240.69356827
 21
421.57587012
 31
0.0
  0
LINE
  8
ZUWAKU
  6
CONTINUOUS
 62
       7
  5
38D
 10
-232.85377665
 20
427.71860547
 30
0.0
 11
-235.00528384
 21
425.56709827
 31
0.0
  0
LINE
  8
ZUWAKU
  6
CONTINUOUS
 62
       7
  5
38E
 10
-237.61334177
 20
422.95904035
 30
0.0
 11
-238.82649403
 21
421.74588809
 31
0.0
  0
LINE
  8
ZUWAKU
  6
CONTINUOUS
 62
       7
  5
38F
 10
-232.27082947
 20
427.45302451
 30
0.0
 11
-235.48938587
 21
424.23446811
 31
0.0
  0
LINE
  8
ZUWAKU
  6
CONTINUOUS
 62
       7
  5
390
 10
-237.20898386
 20
422.51487012
 30
0.0
 11
-238.14422637
 21
421.57962761
 31
0.0
  0
LINE
  8
ZUWAKU
  6
CONTINUOUS
 62
       7
  5
391
 10
-236.36045572
 20
422.51487012
 30
0.0
 11
-237.29945572
 21
421.57587012
 31
0.0
  0
LINE
  8
ZUWAKU
  6
CONTINUOUS
 62
       7
  5
392
 10
-232.05955655
 20
426.8157693
 30
0.0
 11
-233.28135363
 21
425.59397221
 31
0.0
  0
LINE
  8
ZUWAKU
  6
CONTINUOUS
 62
       7
  5
393
 10
-234.38001655
 20
424.4953093
 30
0.0
 11
-235.60181363
 21
423.27351221
 31
0.0
  0
LINE
  8
ZUWAKU
  6
CONTINUOUS
 62
       7
  5
394
 10
-232.10835912
 20
425.91843858
 30
0.0
 11
-236.45092759
 21
421.57587012
 31
0.0
  0
LINE
  8
ZUWAKU
  6
CONTINUOUS
 62
       7
  5
395
 10
-232.47688789
 20
424.70138168
 30
0.0
 11
-235.50565108
 21
421.67261849
 31
0.0
  0
LINE
  8
ZUWAKU
  6
CONTINUOUS
 62
       7
  5
396
 10
-229.3052165
 20
425.32685718
 30
0.0
 11
-233.05620356
 21
421.57587012
 31
0.0
  0
LINE
  8
ZUWAKU
  6
CONTINUOUS
 62
       7
  5
397
 10
-229.01589254
 20
427.31323742
 30
0.0
 11
-229.21159302
 21
427.11753694
 31
0.0
  0
LINE
  8
ZUWAKU
  6
CONTINUOUS
 62
       7
  5
398
 10
-233.72382152
 20
422.60530844
 30
0.0
 11
-234.45296239
 21
421.87616757
 31
0.0
  0
LINE
  8
ZUWAKU
  6
CONTINUOUS
 62
       7
  5
399
 10
-228.28936516
 20
427.19123666
 30
0.0
 11
-229.08959226
 21
426.39100956
 31
0.0
  0
LINE
  8
ZUWAKU
  6
CONTINUOUS
 62
       7
  5
39A
 10
-232.9657317
 20
422.51487012
 30
0.0
 11
-233.82116886
 21
421.65943296
 31
0.0
  0
LINE
  8
ZUWAKU
  6
CONTINUOUS
 62
       7
  5
39B
 10
-224.66997232
 20
424.87093254
 30
0.0
 11
-227.73828941
 21
421.80261545
 31
0.0
  0
LINE
  8
ZUWAKU
  6
CONTINUOUS
 62
       7
  5
39C
 10
-228.72309101
 20
422.51487012
 30
0.0
 11
-229.66209101
 21
421.57587012
 31
0.0
  0
LINE
  8
ZUWAKU
  6
CONTINUOUS
 62
       7
  5
39D
 10
-229.35553337
 20
422.7309559
 30
0.0
 11
-230.51061915
 21
421.57587012
 31
0.0
  0
LINE
  8
ZUWAKU
  6
CONTINUOUS
 62
       7
  5
39E
 10
-229.18582774
 20
423.74918967
 30
0.0
 11
-230.32817054
 21
422.60684687
 31
0.0
  0
LINE
  8
ZUWAKU
  6
CONTINUOUS
 62
       7
  5
39F
 10
-232.20767543
 20
421.57587012
 30
0.0
 11
-229.01612211
 21
424.76742343
 31
0.0
  0
LINE
  8
ZUWAKU
  6
CONTINUOUS
 62
       7
  5
3A0
 10
-222.88669094
 20
424.95715764
 30
0.0
 11
-226.26233088
 21
421.58151771
 31
0.0
  0
LINE
  8
ZUWAKU
  6
CONTINUOUS
 62
       7
  5
3A1
 10
-223.25138553
 20
423.74393492
 30
0.0
 11
-225.01875098
 21
421.97656947
 31
0.0
  0
LINE
  8
ZUWAKU
  6
CONTINUOUS
 62
       7
  5
3A2
 10
-223.5625
 20
422.58429231
 30
0.0
 11
-224.57092219
 21
421.57587012
 31
0.0
  0
LINE
  8
ZUWAKU
  6
CONTINUOUS
 62
       7
  5
3A3
 10
-222.78339405
 20
422.51487012
 30
0.0
 11
-223.72239405
 21
421.57587012
 31
0.0
  0
LINE
  8
ZUWAKU
  6
CONTINUOUS
 62
       7
  5
3A4
 10
-219.77538441
 20
424.67435163
 30
0.0
 11
-222.87386591
 21
421.57587012
 31
0.0
  0
LINE
  8
ZUWAKU
  6
CONTINUOUS
 62
       7
  5
3A5
 10
-225.94893444
 20
424.44049856
 30
0.0
 11
-226.43119675
 21
423.95823625
 31
0.0
  0
LINE
  8
ZUWAKU
  6
CONTINUOUS
 62
       7
  5
3A6
 10
-227.38763972
 20
423.00179327
 30
0.0
 11
-228.81356288
 21
421.57587012
 31
0.0
  0
LINE
  8
ZUWAKU
  6
CONTINUOUS
 62
       7
  5
3A7
 10
-225.66249651
 20
423.02988021
 30
0.0
 11
-226.80521327
 21
421.88716345
 31
0.0
  0
LINE
  8
ZUWAKU
  6
CONTINUOUS
 62
       7
  5
3A8
 10
-223.73521908
 20
424.95715764
 30
0.0
 11
-223.85174097
 21
424.84063575
 31
0.0
  0
LINE
  8
ZUWAKU
  6
CONTINUOUS
 62
       7
  5
3A9
 10
-224.14508367
 20
424.54729305
 30
0.0
 11
-224.95180385
 21
423.74057287
 31
0.0
  0
LINE
  8
ZUWAKU
  6
CONTINUOUS
 62
       7
  5
3AA
 10
-217.58099742
 20
425.13837012
 30
0.0
 11
-218.89349742
 21
423.82587012
 31
0.0
  0
LINE
  8
ZUWAKU
  6
CONTINUOUS
 62
       7
  5
3AB
 10
-219.24918227
 20
423.47018527
 30
0.0
 11
-220.95146851
 21
421.76789903
 31
0.0
  0
POINT
  8
ZUWAKU
  6
CONTINUOUS
 62
       7
  5
3AC
 10
187.4375
 20
419.09166442
 30
0.0
  0
POINT
  8
ZUWAKU
  6
CONTINUOUS
 62
       7
  5
3AD
 10
-45.70828488
 20
419.09166442
 30
0.0
  0
POINT
  8
ZUWAKU
  6
CONTINUOUS
 62
       7
  5
3AE
 10
185.5625
 20
-401.26787988
 30
0.0
  0
POINT
  8
ZUWAKU
  6
CONTINUOUS
 62
       7
  5
3AF
 10
-16.84375
 20
-401.26787988
 30
0.0
  0
POINT
  8
ZUWAKU
  6
CONTINUOUS
 62
       7
  5
3B0
 10
62.375
 20
-355.61162988
 30
0.0
  0
POINT
  8
ZUWAKU
  6
CONTINUOUS
 62
       7
  5
3B1
 10
-250.375
 20
-355.61162988
 30
0.0
  0
POINT
  8
ZUWAKU
  6
CONTINUOUS
 62
       7
  5
3B2
 10
-110.6875
 20
-355.61162988
 30
0.0
  0
POINT
  8
ZUWAKU
  6
CONTINUOUS
 62
       7
  5
3B3
 10
82.0625
 20
-355.61162988
 30
0.0
  0
LINE
  8
ZUWAKU
  6
CONTINUOUS
 62
       7
  5
3B4
 10
-316.0
 20
464.5
 30
0.0
 11
-316.0
 21
449.5
 31
0.0
  0
LINE
  8
ZUWAKU
  6
CONTINUOUS
 62
       7
  5
3B5
 10
314.0
 20
449.5
 30
0.0
 11
314.0
 21
464.5
 31
0.0
  0
LINE
  8
ZUWAKU
  6
CONTINUOUS
 62
       7
  5
3B6
 10
314.0
 20
-456.5
 30
0.0
 11
314.0
 21
-441.5
 31
0.0
  0
LINE
  8
ZUWAKU
  6
CONTINUOUS
 62
       7
  5
3B7
 10
-316.0
 20
-441.60353195
 30
0.0
 11
-316.0
 21
-456.4998396
 31
0.0
  0
POINT
  8
ZUWAKU
  6
CONTINUOUS
 62
       7
  5
3B8
 10
-288.63682501
 20
-115.89646805
 30
0.0
  0
POINT
  8
ZUWAKU
  6
CONTINUOUS
 62
       7
  5
3B9
 10
-288.63682501
 20
124.10353195
 30
0.0
  0
POINT
  8
ZUWAKU
  6
CONTINUOUS
 62
       7
  5
3BA
 10
-316.0
 20
4.10353195
 30
0.0
  0
POINT
  8
ZUWAKU
  6
CONTINUOUS
 62
       7
  5
3BB
 10
62.375
 20
-340.61162988
 30
0.0
  0
POINT
  8
ZUWAKU
  6
CONTINUOUS
 62
       7
  5
3BC
 10
-250.375
 20
-340.61162988
 30
0.0
  0
POINT
  8
ZUWAKU
  6
CONTINUOUS
 62
       7
  5
3BD
 10
-110.6875
 20
-340.61162988
 30
0.0
  0
POINT
  8
ZUWAKU
  6
CONTINUOUS
 62
       7
  5
3BE
 10
82.0625
 20
-340.61162988
 30
0.0
  0
POINT
  8
ZUWAKU
  6
CONTINUOUS
 62
       7
  5
3BF
 10
62.375
 20
-325.61162988
 30
0.0
  0
POINT
  8
ZUWAKU
  6
CONTINUOUS
 62
       7
  5
3C0
 10
-250.375
 20
-325.61162988
 30
0.0
  0
POINT
  8
ZUWAKU
  6
CONTINUOUS
 62
       7
  5
3C1
 10
-110.6875
 20
-325.61162988
 30
0.0
  0
POINT
  8
ZUWAKU
  6
CONTINUOUS
 62
       7
  5
3C2
 10
82.0625
 20
-325.61162988
 30
0.0
  0
POINT
  8
ZUWAKU
  6
CONTINUOUS
 62
       7
  5
3C3
 10
62.375
 20
-310.61162988
 30
0.0
  0
POINT
  8
ZUWAKU
  6
CONTINUOUS
 62
       7
  5
3C4
 10
-250.375
 20
-310.61162988
 30
0.0
  0
POINT
  8
ZUWAKU
  6
CONTINUOUS
 62
       7
  5
3C5
 10
-110.6875
 20
-310.61162988
 30
0.0
  0
POINT
  8
ZUWAKU
  6
CONTINUOUS
 62
       7
  5
3C6
 10
82.0625
 20
-310.61162988
 30
0.0
  0
POINT
  8
ZUWAKU
  6
CONTINUOUS
 62
       7
  5
3C7
 10
62.375
 20
-295.61162988
 30
0.0
  0
POINT
  8
ZUWAKU
  6
CONTINUOUS
 62
       7
  5
3C8
 10
-250.375
 20
-295.61162988
 30
0.0
  0
POINT
  8
ZUWAKU
  6
CONTINUOUS
 62
       7
  5
3C9
 10
-110.6875
 20
-295.61162988
 30
0.0
  0
POINT
  8
ZUWAKU
  6
CONTINUOUS
 62
       7
  5
3CA
 10
82.0625
 20
-295.61162988
 30
0.0
  0
POINT
  8
ZUWAKU
  6
CONTINUOUS
 62
       7
  5
3CB
 10
62.375
 20
-280.61162988
 30
0.0
  0
POINT
  8
ZUWAKU
  6
CONTINUOUS
 62
       7
  5
3CC
 10
-250.375
 20
-280.61162988
 30
0.0
  0
POINT
  8
ZUWAKU
  6
CONTINUOUS
 62
       7
  5
3CD
 10
-110.6875
 20
-280.61162988
 30
0.0
  0
POINT
  8
ZUWAKU
  6
CONTINUOUS
 62
       7
  5
3CE
 10
82.0625
 20
-280.61162988
 30
0.0
  0
POINT
  8
ZUWAKU
  6
CONTINUOUS
 62
       7
  5
3CF
 10
62.375
 20
-265.61162988
 30
0.0
  0
POINT
  8
ZUWAKU
  6
CONTINUOUS
 62
       7
  5
3D0
 10
-250.375
 20
-265.61162988
 30
0.0
  0
POINT
  8
ZUWAKU
  6
CONTINUOUS
 62
       7
  5
3D1
 10
-110.6875
 20
-265.61162988
 30
0.0
  0
POINT
  8
ZUWAKU
  6
CONTINUOUS
 62
       7
  5
3D2
 10
82.0625
 20
-265.61162988
 30
0.0
  0
LINE
  8
ZUWAKU
  6
CONTINUOUS
 62
       7
  5
3D3
 10
-316.0
 20
449.5
 30
0.0
 11
-331.0
 21
449.5
 31
0.0
  0
LINE
  8
ZUWAKU
  6
CONTINUOUS
 62
       7
  5
3D4
 10
314.0
 20
449.5
 30
0.0
 11
329.0
 21
449.5
 31
0.0
  0
LINE
  8
ZUWAKU
  6
CONTINUOUS
 62
       7
  5
3D5
 10
314.0
 20
-441.5
 30
0.0
 11
329.0
 21
-441.5
 31
0.0
  0
LINE
  8
ZUWAKU
  6
CONTINUOUS
 62
       7
  5
3D6
 10
-331.06936928
 20
-441.5
 30
0.0
 11
-316.0
 21
-441.5
 31
0.0
  0
TEXT
  8
ZUWAKU
 62
       7
  5
3D7
 10
-253.15356297
 20
-411.67412988
 30
0.0
 40
10.2
  1
株式会社
 41
0.8
 72
       5
 11
-220.51356297
 21
-411.67412988
 31
0.0
  0
TEXT
  8
ZUWAKU
 62
       7
  5
3D8
 10
-118.18898405
 20
-385.7477071
 30
0.0
 40
9.0
  1
品 名
 41
1.03494498
  7
FDASTYLE1
  0
TEXT
  8
ZUWAKU
 62
       7
  5
3D9
 10
84.31773107
 20
-385.80049651
 30
0.0
 40
9.0
  1
品　番
 41
1.03494498
  7
FDASTYLE1
  0
TEXT
  8
ZUWAKU
 62
       7
  5
3DA
 10
-269.05223899
 20
-361.49173009
 30
0.0
 40
12.0
  1
1
 41
0.8
 72
       5
 11
-259.45223899
 21
-361.49173009
 31
0.0
  0
TEXT
  8
ZUWAKU
 62
       7
  5
3DB
 10
-269.05223899
 20
-346.49173009
 30
0.0
 40
12.0
  1
2
 41
0.8
 72
       5
 11
-259.45223899
 21
-346.49173009
 31
0.0
  0
TEXT
  8
ZUWAKU
 62
       7
  5
3DC
 10
-269.05223899
 20
-331.49173009
 30
0.0
 40
12.0
  1
3
 41
0.8
 72
       5
 11
-259.45223899
 21
-331.49173009
 31
0.0
  0
TEXT
  8
ZUWAKU
 62
       7
  5
3DD
 10
-269.05223899
 20
-316.49173009
 30
0.0
 40
12.0
  1
4
 41
0.8
 72
       5
 11
-259.45223899
 21
-316.49173009
 31
0.0
  0
TEXT
  8
ZUWAKU
 62
       7
  5
3DE
 10
-269.05223899
 20
-301.49173009
 30
0.0
 40
12.0
  1
5
 41
0.8
 72
       5
 11
-259.45223899
 21
-301.49173009
 31
0.0
  0
TEXT
  8
ZUWAKU
 62
       7
  5
3DF
 10
-269.05223899
 20
-286.49173009
 30
0.0
 40
12.0
  1
6
 41
0.8
 72
       5
 11
-259.45223899
 21
-286.49173009
 31
0.0
  0
TEXT
  8
ZUWAKU
 62
       7
  5
3E0
 10
-269.05223899
 20
-271.49173009
 30
0.0
 40
12.0
  1
7
 41
0.8
 72
       5
 11
-259.45223899
 21
-271.49173009
 31
0.0
  0
TEXT
  8
ZUWAKU
 62
       7
  5
3E1
 10
154.6163036
 20
-376.43252915
 30
0.0
 40
12.0
  1
摘要・仕上
 41
0.8
 72
       5
 11
202.6163036
 21
-376.43252915
 31
0.0
  0
TEXT
  8
ZUWAKU
 62
       7
  5
3E2
 10
47.70938388
 20
-376.43252915
 30
0.0
 40
12.0
  1
個　数
 41
0.8
 72
       5
 11
76.50938388
 21
-376.43252915
 31
0.0
  0
TEXT
  8
ZUWAKU
 62
       7
  5
3E3
 10
-53.07834402
 20
-376.43252915
 30
0.0
 40
12.0
  1
材　　質
 41
0.8
 72
       5
 11
-14.67834402
 21
-376.43252915
 31
0.0
  0
TEXT
  8
ZUWAKU
 62
       7
  5
3E4
 10
-207.6306033
 20
-376.43252915
 30
0.0
 40
12.0
  1
部　品　名
 41
0.8
 72
       5
 11
-159.6306033
 21
-376.43252915
 31
0.0
  0
TEXT
  8
ZUWAKU
 62
       7
  5
3E5
 10
-273.75694315
 20
-376.43252915
 30
0.0
 40
12.0
  1
部番
 41
0.8
 72
       5
 11
-254.55694315
 21
-376.43252915
 31
0.0
  0
TEXT
  8
ZUWAKU
 62
       7
  5
3E6
 10
298.40927805
 20
-74.18248186
 30
0.0
 40
12.0
  1
ウォッシュルーム用品
 50
-90.0
 41
0.8
 72
       5
 11
298.40927805
 21
-170.18248186
 31
0.0
  0
TEXT
  8
ZUWAKU
 62
       7
  5
3E7
 10
222.25592536
 20
-435.8794885
 30
0.0
 40
12.0
  1
050525
 41
0.8
 72
       5
 11
279.85592536
 21
-435.8794885
 31
0.0
  0
TEXT
  8
LAYER0240
 62
       7
  5
3E8
 10
-250.375
 20
-361.61162988
 30
0.0
 40
12.0
  1
本体
 41
0.8
 72
       5
 11
-231.175
 21
-361.61162988
 31
0.0
  0
TEXT
  8
LAYER0240
 62
       7
  5
3E9
 10
-110.6875
 20
-361.61162988
 30
0.0
 40
12.0
  1
AL
 41
0.8
 72
       5
 11
-91.4875
 21
-361.61162988
 31
0.0
  0
TEXT
  8
LAYER0240
 62
       7
  5
3EA
 10
57.575
 20
-361.61162988
 30
0.0
 40
12.0
  1
1
 41
0.8
 72
       5
 11
67.175
 21
-361.61162988
 31
0.0
  0
TEXT
  8
LAYER0240
 62
       7
  5
3EB
 10
82.0625
 20
-361.61162988
 30
0.0
 40
12.0
  1
アルマイト
 41
0.8
 72
       5
 11
130.0625
 21
-361.61162988
 31
0.0
  0
TEXT
  8
LAYER0240
 62
       7
  5
3EC
 10
-96.04375
 20
-410.26787988
 30
0.0
 40
18.0
  1
ペーパータオルボックス
 41
0.8
 72
       5
 11
62.35625
 21
-410.26787988
 31
0.0
  0
TEXT
  8
LAYER0240
 62
       7
  5
3ED
 10
120.7625
 20
-410.26787988
 30
0.0
 40
18.0
  1
R1012-AL2
 41
0.8
 72
       5
 11
250.3625
 21
-410.26787988
 31
0.0
  0
TEXT
  8
LAYER0240
 62
       7
  5
3EE
 10
-250.375
 20
-346.61162988
 30
0.0
 40
12.0
  1
蝶番
 41
0.8
 72
       5
 11
-231.175
 21
-346.61162988
 31
0.0
  0
TEXT
  8
LAYER0240
 62
       7
  5
3EF
 10
-110.6875
 20
-346.61162988
 30
0.0
 40
12.0
  1
BS-C2801
 41
0.8
 72
       5
 11
-33.8875
 21
-346.61162988
 31
0.0
  0
TEXT
  8
LAYER0240
 62
       7
  5
3F0
 10
57.575
 20
-346.61162988
 30
0.0
 40
12.0
  1
2
 41
0.8
 72
       5
 11
67.175
 21
-346.61162988
 31
0.0
  0
TEXT
  8
LAYER0240
 62
       7
  5
3F1
 10
-250.375
 20
-331.61162988
 30
0.0
 40
12.0
  1
取付ネジ　４Ｘ２５
 41
0.8
 72
       5
 11
-163.975
 21
-331.61162988
 31
0.0
  0
TEXT
  8
LAYER0240
 62
       7
  5
3F2
 10
-110.6875
 20
-331.61162988
 30
0.0
 40
12.0
  1
SUS304
 41
0.8
 72
       5
 11
-53.0875
 21
-331.61162988
 31
0.0
  0
TEXT
  8
LAYER0240
 62
       7
  5
3F3
 10
57.575
 20
-331.61162988
 30
0.0
 40
12.0
  1
3
 41
0.8
 72
       5
 11
67.175
 21
-331.61162988
 31
0.0
  0
TEXT
  8
LAYER0240
 62
       7
  5
3F4
 10
-250.375
 20
-316.61162988
 30
0.0
 40
12.0
  1
黒スポンジ付テ－プ
 41
0.8
 72
       5
 11
-163.975
 21
-316.61162988
 31
0.0
  0
TEXT
  8
LAYER0240
 62
       7
  5
3F5
 10
57.575
 20
-316.61162988
 30
0.0
 40
12.0
  1
4
 41
0.8
 72
       5
 11
67.175
 21
-316.61162988
 31
0.0
  0
TEXT
  8
LAYER0240
 62
       7
  5
3F6
 10
-250.375
 20
-301.61162988
 30
0.0
 40
12.0
  1
両面テ－プ
 41
0.8
 72
       5
 11
-202.375
 21
-301.61162988
 31
0.0
  0
TEXT
  8
LAYER0240
 62
       7
  5
3F7
 10
57.575
 20
-301.61162988
 30
0.0
 40
12.0
  1
3
 41
0.8
 72
       5
 11
67.175
 21
-301.61162988
 31
0.0
  0
TEXT
  8
LAYER0240
 62
       7
  5
3F8
 10
110.39378972
 20
383.25277507
 30
0.0
 40
12.0
  1
（　）内は突起部品を含んだ寸法を示す
 41
0.8
 72
       5
 11
283.19378972
 21
383.25277507
 31
0.0
  0
TEXT
  8
LAYER0240
 62
       7
  5
3F9
 10
-124.90828488
 20
410.09166442
 30
0.0
 40
18.0
  1
ペーパータオルボックス
 41
0.8
 72
       5
 11
33.49171512
 21
410.09166442
 31
0.0
  0
TEXT
  8
LAYER0240
 62
       7
  5
3FA
 10
122.6375
 20
410.09166442
 30
0.0
 40
18.0
  1
R1012-AL2
 41
0.8
 72
       5
 11
252.2375
 21
410.09166442
 31
0.0
  0
INSERT
  8
LAYER0256
  6
CONTINUOUS
  5
3FB
  2
GROUP_1
 10
0.0
 20
0.0
 30
0.0
  0
LINE
  8
0
  6
CONTINUOUS
 62
       7
  5
3FC
 10
-258.0301508
 20
224.59562625
 30
0.0
 11
14.9698492
 21
224.59562625
 31
0.0
  0
LINE
  8
0
  6
CONTINUOUS
 62
       7
  5
3FD
 10
-256.5301508
 20
20.41402715
 30
0.0
 11
13.4698492
 21
20.41402715
 31
0.0
  0
LINE
  8
0
  6
CONTINUOUS
 62
       7
  5
3FE
 10
-256.5301508
 20
17.41402715
 30
0.0
 11
13.4698492
 21
17.41402715
 31
0.0
  0
LINE
  8
0
  6
CONTINUOUS
 62
       7
  5
3FF
 10
-256.5301508
 20
14.91402715
 30
0.0
 11
13.4698492
 21
14.91402715
 31
0.0
  0
LINE
  8
0
  6
CONTINUOUS
 62
       7
  5
400
 10
-256.5301508
 20
11.91402715
 30
0.0
 11
13.4698492
 21
11.91402715
 31
0.0
  0
LINE
  8
0
  6
CONTINUOUS
 62
       7
  5
401
 10
-258.0301508
 20
-95.58597285
 30
0.0
 11
14.9698492
 21
-95.58597285
 31
0.0
  0
LINE
  8
0
  6
CONTINUOUS
 62
       7
  5
402
 10
-258.0301508
 20
54.41402715
 30
0.0
 11
14.9698492
 21
54.41402715
 31
0.0
  0
LINE
  8
0
  6
CONTINUOUS
 62
       7
  5
403
 10
13.4698492
 20
54.41402715
 30
0.0
 11
13.4698492
 21
-95.58597285
 31
0.0
  0
LINE
  8
0
  6
CONTINUOUS
 62
       7
  5
404
 10
-256.5301508
 20
54.41402715
 30
0.0
 11
-256.5301508
 21
-95.58597285
 31
0.0
  0
LINE
  8
0
  6
CONTINUOUS
 62
       7
  5
405
 10
-194.81737736
 20
-11.65052383
 30
0.0
 11
-129.49483327
 21
6.33744038
 31
0.0
  0
ARC
  8
0
  6
CONTINUOUS
 62
       7
  5
406
 10
-121.5301508
 20
-22.58597285
 30
0.0
 40
30.0
 50
74.60396401
 51
105.39603599
  0
ARC
  8
0
  6
CONTINUOUS
 62
       7
  5
407
 10
-205.43695399
 20
26.91402715
 30
0.0
 40
40.0
 50
270.0
 51
285.39603599
  0
ARC
  8
0
  6
CONTINUOUS
 62
       7
  5
408
 10
-37.6233476
 20
26.91402715
 30
0.0
 40
40.0
 50
254.60396401
 51
270.0
  0
LINE
  8
0
  6
CONTINUOUS
 62
       7
  5
409
 10
-48.24292423
 20
-11.65052383
 30
0.0
 11
-113.56546832
 21
6.33744038
 31
0.0
  0
LINE
  8
0
  6
CONTINUOUS
 62
       7
  5
40A
 10
-194.81737736
 20
-29.52142187
 30
0.0
 11
-129.49483327
 21
-47.50938608
 31
0.0
  0
ARC
  8
0
  6
CONTINUOUS
 62
       7
  5
40B
 10
-121.5301508
 20
-18.58597285
 30
0.0
 40
30.0
 50
254.60396401
 51
285.39603599
  0
ARC
  8
0
  6
CONTINUOUS
 62
       7
  5
40C
 10
-205.43695399
 20
-68.08597285
 30
0.0
 40
40.0
 50
74.60396401
 51
90.0
  0
ARC
  8
0
  6
CONTINUOUS
 62
       7
  5
40D
 10
-37.6233476
 20
-68.08597285
 30
0.0
 40
40.0
 50
90.0
 51
105.39603599
  0
LINE
  8
0
  6
CONTINUOUS
 62
       7
  5
40E
 10
-48.24292423
 20
-29.52142187
 30
0.0
 11
-113.56546832
 21
-47.50938608
 31
0.0
  0
LINE
  8
0
  6
CONTINUOUS
 62
       7
  5
40F
 10
-256.5301508
 20
22.91402715
 30
0.0
 11
13.4698492
 21
22.91402715
 31
0.0
  0
LINE
  8
0
  6
CONTINUOUS
 62
       7
  5
410
 10
-256.5301508
 20
25.91402715
 30
0.0
 11
13.4698492
 21
25.91402715
 31
0.0
  0
LINE
  8
0
  6
CONTINUOUS
 62
       7
  5
411
 10
-256.5301508
 20
28.41402715
 30
0.0
 11
13.4698492
 21
28.41402715
 31
0.0
  0
LINE
  8
0
  6
CONTINUOUS
 62
       7
  5
412
 10
-256.5301508
 20
31.41402715
 30
0.0
 11
13.4698492
 21
31.41402715
 31
0.0
  0
LINE
  8
0
  6
CONTINUOUS
 62
       7
  5
413
 10
-256.5301508
 20
-61.58597285
 30
0.0
 11
13.4698492
 21
-61.58597285
 31
0.0
  0
LINE
  8
0
  6
CONTINUOUS
 62
       7
  5
414
 10
-256.5301508
 20
-58.58597285
 30
0.0
 11
13.4698492
 21
-58.58597285
 31
0.0
  0
LINE
  8
0
  6
CONTINUOUS
 62
       7
  5
415
 10
-256.5301508
 20
-56.08597285
 30
0.0
 11
13.4698492
 21
-56.08597285
 31
0.0
  0
LINE
  8
0
  6
CONTINUOUS
 62
       7
  5
416
 10
-256.5301508
 20
-53.08597285
 30
0.0
 11
13.4698492
 21
-53.08597285
 31
0.0
  0
LINE
  8
0
  6
CONTINUOUS
 62
       7
  5
417
 10
-256.5301508
 20
-64.08597285
 30
0.0
 11
13.4698492
 21
-64.08597285
 31
0.0
  0
LINE
  8
0
  6
CONTINUOUS
 62
       7
  5
418
 10
-256.5301508
 20
-67.08597285
 30
0.0
 11
13.4698492
 21
-67.08597285
 31
0.0
  0
LINE
  8
0
  6
CONTINUOUS
 62
       7
  5
419
 10
-256.5301508
 20
-69.58597285
 30
0.0
 11
13.4698492
 21
-69.58597285
 31
0.0
  0
LINE
  8
0
  6
CONTINUOUS
 62
       7
  5
41A
 10
-256.5301508
 20
-72.58597285
 30
0.0
 11
13.4698492
 21
-72.58597285
 31
0.0
  0
LINE
  8
0
  6
CONTINUOUS
 62
       7
  5
41B
 10
-256.5301508
 20
169.59562625
 30
0.0
 11
-256.5301508
 21
224.59562625
 31
0.0
  0
LINE
  8
0
  6
CONTINUOUS
 62
       7
  5
41C
 10
13.4698492
 20
169.59562625
 30
0.0
 11
13.4698492
 21
224.59562625
 31
0.0
  0
LINE
  8
0
  6
CONTINUOUS
 62
       7
  5
41D
 10
-258.0301508
 20
169.59562625
 30
0.0
 11
14.9698492
 21
169.59562625
 31
0.0
  0
LINE
  8
0
  6
CONTINUOUS
 62
       7
  5
41E
 10
14.9698492
 20
169.59562625
 30
0.0
 11
14.9698492
 21
224.59562625
 31
0.0
  0
LINE
  8
0
  6
CONTINUOUS
 62
       7
  5
41F
 10
-258.0301508
 20
169.59562625
 30
0.0
 11
-258.0301508
 21
224.59562625
 31
0.0
  0
LINE
  8
0
  6
CONTINUOUS
 62
       7
  5
420
 10
-258.0301508
 20
54.41402715
 30
0.0
 11
-258.0301508
 21
-95.58597285
 31
0.0
  0
LINE
  8
0
  6
CONTINUOUS
 62
       7
  5
421
 10
14.9698492
 20
54.41402715
 30
0.0
 11
14.9698492
 21
-95.58597285
 31
0.0
  0
LINE
  8
0
  6
CONTINUOUS
 62
       7
  5
422
 10
-29.9301508
 20
-95.58597285
 30
0.0
 11
-29.9301508
 21
-96.58597285
 31
0.0
  0
LINE
  8
0
  6
CONTINUOUS
 62
       7
  5
423
 10
-25.1301508
 20
-95.58597285
 30
0.0
 11
-25.1301508
 21
-96.58597285
 31
0.0
  0
LINE
  8
0
  6
CONTINUOUS
 62
       7
  5
424
 10
-29.9301508
 20
-96.58597285
 30
0.0
 11
-25.1301508
 21
-96.58597285
 31
0.0
  0
LINE
  8
0
  6
CONTINUOUS
 62
       7
  5
425
 10
-47.9301508
 20
-95.58597285
 30
0.0
 11
-47.9301508
 21
-96.58597285
 31
0.0
  0
LINE
  8
0
  6
CONTINUOUS
 62
       7
  5
426
 10
-47.9301508
 20
-96.58597285
 30
0.0
 11
-43.1301508
 21
-96.58597285
 31
0.0
  0
LINE
  8
0
  6
CONTINUOUS
 62
       7
  5
427
 10
-43.1301508
 20
-95.58597285
 30
0.0
 11
-43.1301508
 21
-96.58597285
 31
0.0
  0
LINE
  8
0
  6
CONTINUOUS
 62
       7
  5
428
 10
-199.9301508
 20
-95.58597285
 30
0.0
 11
-199.9301508
 21
-96.58597285
 31
0.0
  0
LINE
  8
0
  6
CONTINUOUS
 62
       7
  5
429
 10
-199.9301508
 20
-96.58597285
 30
0.0
 11
-195.1301508
 21
-96.58597285
 31
0.0
  0
LINE
  8
0
  6
CONTINUOUS
 62
       7
  5
42A
 10
-217.9301508
 20
-96.58597285
 30
0.0
 11
-213.1301508
 21
-96.58597285
 31
0.0
  0
LINE
  8
0
  6
CONTINUOUS
 62
       7
  5
42B
 10
-213.1301508
 20
-95.58597285
 30
0.0
 11
-213.1301508
 21
-96.58597285
 31
0.0
  0
LINE
  8
0
  6
CONTINUOUS
 62
       7
  5
42C
 10
-195.1301508
 20
-95.58597285
 30
0.0
 11
-195.1301508
 21
-96.58597285
 31
0.0
  0
LINE
  8
0
  6
CONTINUOUS
 62
       7
  5
42D
 10
-217.9301508
 20
-95.58597285
 30
0.0
 11
-217.9301508
 21
-96.58597285
 31
0.0
  0
LINE
  8
0
  6
CONTINUOUS
 62
       7
  5
42E
 10
15.9698492
 20
-93.18597285
 30
0.0
 11
15.9698492
 21
-88.38597285
 31
0.0
  0
LINE
  8
0
  6
CONTINUOUS
 62
       7
  5
42F
 10
14.9698492
 20
-88.38597285
 30
0.0
 11
15.9698492
 21
-88.38597285
 31
0.0
  0
LINE
  8
0
  6
CONTINUOUS
 62
       7
  5
430
 10
14.9698492
 20
-93.18597285
 30
0.0
 11
15.9698492
 21
-93.18597285
 31
0.0
  0
LINE
  8
0
  6
CONTINUOUS
 62
       7
  5
431
 10
-259.0301508
 20
-88.38597285
 30
0.0
 11
-259.0301508
 21
-93.18597285
 31
0.0
  0
LINE
  8
0
  6
CONTINUOUS
 62
       7
  5
432
 10
-258.0301508
 20
-93.18597285
 30
0.0
 11
-259.0301508
 21
-93.18597285
 31
0.0
  0
LINE
  8
0
  6
CONTINUOUS
 62
       7
  5
433
 10
-258.0301508
 20
-88.38597285
 30
0.0
 11
-259.0301508
 21
-88.38597285
 31
0.0
  0
ARC
  8
0
  6
CONTINUOUS
 62
       7
  5
434
 10
-2.5301508
 20
-20.58597285
 30
0.0
 40
7.5
 50
270.0
 51
450.0
  0
LINE
  8
0
  6
CONTINUOUS
 62
       7
  5
435
 10
-37.6233476
 20
-13.08597285
 30
0.0
 11
-2.5301508
 21
-13.08597285
 31
0.0
  0
LINE
  8
0
  6
CONTINUOUS
 62
       7
  5
436
 10
-37.6233476
 20
-28.08597285
 30
0.0
 11
-2.5301508
 21
-28.08597285
 31
0.0
  0
ARC
  8
0
  6
CONTINUOUS
 62
       7
  5
437
 10
-240.5301508
 20
-20.58597285
 30
0.0
 40
7.5
 50
90.0
 51
270.0
  0
LINE
  8
0
  6
CONTINUOUS
 62
       7
  5
438
 10
-240.5301508
 20
-13.08597285
 30
0.0
 11
-205.43695399
 21
-13.08597285
 31
0.0
  0
LINE
  8
0
  6
CONTINUOUS
 62
       7
  5
439
 10
-240.5301508
 20
-28.08597285
 30
0.0
 11
-205.43695399
 21
-28.08597285
 31
0.0
  0
LINE
  8
0
  6
CONTINUOUS
 62
       7
  5
43A
 10
202.57252499
 20
54.41402715
 30
0.0
 11
241.67252499
 21
54.41402715
 31
0.0
  0
LINE
  8
0
  6
CONTINUOUS
 62
       7
  5
43B
 10
202.57252499
 20
-95.58597285
 30
0.0
 11
237.07252499
 21
-95.58597285
 31
0.0
  0
ARC
  8
0
  6
CONTINUOUS
 62
       7
  5
43C
 10
202.57252499
 20
39.41402715
 30
0.0
 40
15.0
 50
90.0
 51
180.0
  0
ARC
  8
0
  6
CONTINUOUS
 62
       7
  5
43D
 10
202.57252499
 20
-80.58597285
 30
0.0
 40
15.0
 50
180.0
 51
270.0
  0
ARC
  8
0
  6
CONTINUOUS
 62
       7
  5
43E
 10
185.57252499
 20
29.91402715
 30
0.0
 40
2.5
 50
323.13010235
 51
396.86989765
  0
LINE
  8
0
  6
CONTINUOUS
 62
       7
  5
43F
 10
187.57252499
 20
39.41402715
 30
0.0
 11
187.57252499
 21
31.41402715
 31
0.0
  0
ARC
  8
0
  6
CONTINUOUS
 62
       7
  5
440
 10
185.57252499
 20
24.41402715
 30
0.0
 40
2.5
 50
323.13010235
 51
396.86989765
  0
ARC
  8
0
  6
CONTINUOUS
 62
       7
  5
441
 10
185.57252499
 20
18.91402715
 30
0.0
 40
2.5
 50
323.13010235
 51
396.86989765
  0
ARC
  8
0
  6
CONTINUOUS
 62
       7
  5
442
 10
185.57252499
 20
13.41402715
 30
0.0
 40
2.5
 50
323.13010235
 51
396.86989765
  0
LINE
  8
0
  6
CONTINUOUS
 62
       7
  5
443
 10
187.57252499
 20
28.41402715
 30
0.0
 11
187.57252499
 21
25.91402715
 31
0.0
  0
LINE
  8
0
  6
CONTINUOUS
 62
       7
  5
444
 10
187.57252499
 20
22.91402715
 30
0.0
 11
187.57252499
 21
20.41402715
 31
0.0
  0
LINE
  8
0
  6
CONTINUOUS
 62
       7
  5
445
 10
187.57252499
 20
17.41402715
 30
0.0
 11
187.57252499
 21
14.91402715
 31
0.0
  0
ARC
  8
0
  6
CONTINUOUS
 62
       7
  5
446
 10
185.57252499
 20
-54.58597285
 30
0.0
 40
2.5
 50
323.13010235
 51
396.86989765
  0
ARC
  8
0
  6
CONTINUOUS
 62
       7
  5
447
 10
185.57252499
 20
-60.08597285
 30
0.0
 40
2.5
 50
323.13010235
 51
396.86989765
  0
ARC
  8
0
  6
CONTINUOUS
 62
       7
  5
448
 10
185.57252499
 20
-65.58597285
 30
0.0
 40
2.5
 50
323.13010235
 51
396.86989765
  0
ARC
  8
0
  6
CONTINUOUS
 62
       7
  5
449
 10
185.57252499
 20
-71.08597285
 30
0.0
 40
2.5
 50
323.13010235
 51
396.86989765
  0
LINE
  8
0
  6
CONTINUOUS
 62
       7
  5
44A
 10
187.57252499
 20
11.91402715
 30
0.0
 11
187.57252499
 21
-53.08597285
 31
0.0
  0
LINE
  8
0
  6
CONTINUOUS
 62
       7
  5
44B
 10
187.57252499
 20
-56.08597285
 30
0.0
 11
187.57252499
 21
-58.58597285
 31
0.0
  0
LINE
  8
0
  6
CONTINUOUS
 62
       7
  5
44C
 10
187.57252499
 20
-61.58597285
 30
0.0
 11
187.57252499
 21
-64.08597285
 31
0.0
  0
LINE
  8
0
  6
CONTINUOUS
 62
       7
  5
44D
 10
187.57252499
 20
-67.08597285
 30
0.0
 11
187.57252499
 21
-69.58597285
 31
0.0
  0
LINE
  8
0
  6
CONTINUOUS
 62
       7
  5
44E
 10
187.57252499
 20
-72.58597285
 30
0.0
 11
187.57252499
 21
-80.58597285
 31
0.0
  0
ARC
  8
0
  6
CONTINUOUS
 62
       7
  5
44F
 10
241.67252499
 20
53.51402715
 30
0.0
 40
0.9
 50
270.0
 51
450.0
  0
LINE
  8
0
  6
CONTINUOUS
 62
       7
  5
450
 10
241.67252499
 20
52.61402715
 30
0.0
 11
241.14192298
 21
52.61402715
 31
0.0
  0
LINE
  8
0
  6
CONTINUOUS
 62
       7
  5
451
 10
242.57252499
 20
48.91402715
 30
0.0
 11
242.57252499
 21
-90.30524486
 31
0.0
  0
ARC
  8
0
  6
CONTINUOUS
 62
       7
  5
452
 10
237.07252499
 20
48.91402715
 30
0.0
 40
5.5
 50
360.0
 51
450.0
  0
ARC
  8
0
  6
CONTINUOUS
 62
       7
  5
453
 10
237.07252499
 20
-90.08597285
 30
0.0
 40
5.5
 50
270.0
 51
360.0
  0
LINE
  8
0
  6
CONTINUOUS
 62
       7
  5
454
 10
223.17252499
 20
-96.58597285
 30
0.0
 11
227.97252499
 21
-96.58597285
 31
0.0
  0
LINE
  8
0
  6
CONTINUOUS
 62
       7
  5
455
 10
223.17252499
 20
-95.58597285
 30
0.0
 11
223.17252499
 21
-96.58597285
 31
0.0
  0
LINE
  8
0
  6
CONTINUOUS
 62
       7
  5
456
 10
227.97252499
 20
-95.58597285
 30
0.0
 11
227.97252499
 21
-96.58597285
 31
0.0
  0
ARC
  8
0
  6
CONTINUOUS
 62
       7
  5
457
 10
241.27252499
 20
-92.48597285
 30
0.0
 40
1.3
 50
264.47683629
 51
396.03340112
  0
POINT
  8
0
  6
CONTINUOUS
 62
       7
  5
458
 10
242.57252499
 20
-56.2261914
 30
0.0
  0
LINE
  8
0
  6
CONTINUOUS
 62
       7
  5
459
 10
244.02720701
 20
-82.88129692
 30
0.0
 11
244.02720701
 21
-70.380109
 31
0.0
  0
LINE
  8
0
  6
CONTINUOUS
 62
       7
  5
45A
 10
244.02720701
 20
28.12925173
 30
0.0
 11
244.02720701
 21
40.63043965
 31
0.0
  0
LINE
  8
0
  6
CONTINUOUS
 62
       7
  5
45B
 10
209.29127499
 20
51.46781339
 30
0.0
 11
209.29127499
 21
50.64527715
 31
0.0
  0
LINE
  8
0
  6
CONTINUOUS
 62
       7
  5
45C
 10
209.85377499
 20
51.46781339
 30
0.0
 11
209.85377499
 21
50.64527715
 31
0.0
  0
LINE
  8
0
  6
CONTINUOUS
 62
       7
  5
45D
 10
211.42631123
 20
49.89527715
 30
0.0
 11
210.60377499
 21
49.89527715
 31
0.0
  0
LINE
  8
0
  6
CONTINUOUS
 62
       7
  5
45E
 10
207.71873875
 20
49.89527715
 30
0.0
 11
208.54127499
 21
49.89527715
 31
0.0
  0
LINE
  8
0
  6
CONTINUOUS
 62
       7
  5
45F
 10
207.7122311
 20
49.37965215
 30
0.0
 11
208.54127499
 21
49.37965215
 31
0.0
  0
LINE
  8
0
  6
CONTINUOUS
 62
       7
  5
460
 10
209.29127499
 20
47.78590215
 30
0.0
 11
209.29127499
 21
48.62965215
 31
0.0
  0
LINE
  8
0
  6
CONTINUOUS
 62
       7
  5
461
 10
209.85377499
 20
47.78590215
 30
0.0
 11
209.85377499
 21
48.62965215
 31
0.0
  0
LINE
  8
0
  6
CONTINUOUS
 62
       7
  5
462
 10
211.43281888
 20
49.37965215
 30
0.0
 11
210.60377499
 21
49.37965215
 31
0.0
  0
ARC
  8
0
  6
CONTINUOUS
 62
       7
  5
463
 10
209.57252499
 20
49.61402715
 30
0.0
 40
1.875
 50
171.5
 51
187.18075578
  0
ARC
  8
0
  6
CONTINUOUS
 62
       7
  5
464
 10
209.57252499
 20
49.61402715
 30
0.0
 40
1.875
 50
261.5
 51
278.5
  0
ARC
  8
0
  6
CONTINUOUS
 62
       7
  5
465
 10
209.57252499
 20
49.61402715
 30
0.0
 40
1.875
 50
352.81924422
 51
368.5
  0
ARC
  8
0
  6
CONTINUOUS
 62
       7
  5
466
 10
210.65064999
 20
50.69215215
 30
0.0
 40
0.796875
 50
183.9
 51
266.1
  0
ARC
  8
0
  6
CONTINUOUS
 62
       7
  5
467
 10
209.57252499
 20
49.61402715
 30
0.0
 40
1.875
 50
81.5
 51
98.5
  0
ARC
  8
0
  6
CONTINUOUS
 62
       7
  5
468
 10
208.49439999
 20
50.69215215
 30
0.0
 40
0.796875
 50
273.9
 51
356.1
  0
ARC
  8
0
  6
CONTINUOUS
 62
       7
  5
469
 10
208.49439999
 20
48.58277715
 30
0.0
 40
0.796875
 50
3.9
 51
86.1
  0
ARC
  8
0
  6
CONTINUOUS
 62
       7
  5
46A
 10
210.65064999
 20
48.58277715
 30
0.0
 40
0.796875
 50
93.9
 51
176.1
  0
LINE
  8
0
  6
CONTINUOUS
 62
       7
  5
46B
 10
209.29127499
 20
-88.93218661
 30
0.0
 11
209.29127499
 21
-89.75472285
 31
0.0
  0
LINE
  8
0
  6
CONTINUOUS
 62
       7
  5
46C
 10
209.85377499
 20
-88.93218661
 30
0.0
 11
209.85377499
 21
-89.75472285
 31
0.0
  0
LINE
  8
0
  6
CONTINUOUS
 62
       7
  5
46D
 10
211.42631123
 20
-90.50472285
 30
0.0
 11
210.60377499
 21
-90.50472285
 31
0.0
  0
LINE
  8
0
  6
CONTINUOUS
 62
       7
  5
46E
 10
207.71873875
 20
-90.50472285
 30
0.0
 11
208.54127499
 21
-90.50472285
 31
0.0
  0
LINE
  8
0
  6
CONTINUOUS
 62
       7
  5
46F
 10
207.7122311
 20
-91.02034785
 30
0.0
 11
208.54127499
 21
-91.02034785
 31
0.0
  0
LINE
  8
0
  6
CONTINUOUS
 62
       7
  5
470
 10
209.29127499
 20
-92.61409785
 30
0.0
 11
209.29127499
 21
-91.77034785
 31
0.0
  0
LINE
  8
0
  6
CONTINUOUS
 62
       7
  5
471
 10
209.85377499
 20
-92.61409785
 30
0.0
 11
209.85377499
 21
-91.77034785
 31
0.0
  0
LINE
  8
0
  6
CONTINUOUS
 62
       7
  5
472
 10
211.43281888
 20
-91.02034785
 30
0.0
 11
210.60377499
 21
-91.02034785
 31
0.0
  0
ARC
  8
0
  6
CONTINUOUS
 62
       7
  5
473
 10
209.57252499
 20
-90.78597285
 30
0.0
 40
1.875
 50
171.5
 51
187.18075578
  0
ARC
  8
0
  6
CONTINUOUS
 62
       7
  5
474
 10
209.57252499
 20
-90.78597285
 30
0.0
 40
1.875
 50
261.5
 51
278.5
  0
ARC
  8
0
  6
CONTINUOUS
 62
       7
  5
475
 10
209.57252499
 20
-90.78597285
 30
0.0
 40
1.875
 50
352.81924422
 51
368.5
  0
ARC
  8
0
  6
CONTINUOUS
 62
       7
  5
476
 10
210.65064999
 20
-89.70784785
 30
0.0
 40
0.796875
 50
183.9
 51
266.1
  0
ARC
  8
0
  6
CONTINUOUS
 62
       7
  5
477
 10
209.57252499
 20
-90.78597285
 30
0.0
 40
1.875
 50
81.5
 51
98.5
  0
ARC
  8
0
  6
CONTINUOUS
 62
       7
  5
478
 10
208.49439999
 20
-89.70784785
 30
0.0
 40
0.796875
 50
273.9
 51
356.1
  0
ARC
  8
0
  6
CONTINUOUS
 62
       7
  5
479
 10
208.49439999
 20
-91.81722285
 30
0.0
 40
0.796875
 50
3.9
 51
86.1
  0
ARC
  8
0
  6
CONTINUOUS
 62
       7
  5
47A
 10
210.65064999
 20
-91.81722285
 30
0.0
 40
0.796875
 50
93.9
 51
176.1
  0
LINE
  8
0
  6
CENTERX2
 62
       7
  5
47B
 10
-259.34578618
 20
-20.58597285
 30
0.0
 11
15.04480712
 21
-20.58597285
 31
0.0
  0
LINE
  8
0
  6
CENTERX2
 62
       7
  5
47C
 10
-121.5301508
 20
227.5121926
 30
0.0
 11
-121.5301508
 21
166.51814645
 31
0.0
  0
LINE
  8
0
  6
CENTERX2
 62
       7
  5
47D
 10
-21.5301508
 20
231.83028397
 30
0.0
 11
-21.5301508
 21
216.45909866
 31
0.0
  0
LINE
  8
0
  6
CENTERX2
 62
       7
  5
47E
 10
-221.5301508
 20
232.44758384
 30
0.0
 11
-221.5301508
 21
216.13932895
 31
0.0
  0
LINE
  8
0
  6
CENTERX2
 62
       7
  5
47F
 10
-121.5301508
 20
67.93636392
 30
0.0
 11
-121.5301508
 21
-105.73850748
 31
0.0
  0
LINE
  8
0
  6
CENTERX2
 62
       7
  5
480
 10
176.34177499
 20
-20.58597285
 30
0.0
 11
253.04255798
 21
-20.58597285
 31
0.0
  0
LINE
  8
0
  6
CENTERX2
 62
       7
  5
481
 10
243.08546765
 20
-92.48597285
 30
0.0
 11
239.45597876
 21
-92.48597285
 31
0.0
  0
LINE
  8
0
  6
CENTERX2
 62
       7
  5
482
 10
241.27252499
 20
-90.45398626
 30
0.0
 11
241.27252499
 21
-94.8161696
 31
0.0
  0
LINE
  8
0
  6
CENTERX2
 62
       7
  5
483
 10
-133.63298993
 20
-74.18597285
 30
0.0
 11
-111.65425846
 21
-74.18597285
 31
0.0
  0
LINE
  8
0
  6
CENTERX2
 62
       7
  5
484
 10
-12.74599337
 20
19.81402715
 30
0.0
 11
-225.20379163
 21
19.81402715
 31
0.0
  0
LINE
  8
0
  6
CENTERX2
 62
       7
  5
485
 10
-21.5301508
 20
23.91385476
 30
0.0
 11
-21.5301508
 21
15.60397869
 31
0.0
  0
LINE
  8
0
  6
CENTERX2
 62
       7
  5
486
 10
-221.5301508
 20
28.77245022
 30
0.0
 11
-221.5301508
 21
11.50484581
 31
0.0
  0
LINE
  8
0
  6
CENTERX2
 62
       7
  5
487
 10
254.77006655
 20
19.81402715
 30
0.0
 11
236.16324728
 21
19.81402715
 31
0.0
  0
LINE
  8
0
  6
CENTERX2
 62
       7
  5
488
 10
236.16324728
 20
-74.18597285
 30
0.0
 11
254.77006655
 21
-74.18597285
 31
0.0
  0
LINE
  8
0
  6
CENTERX2
 62
       7
  5
489
 10
217.13502499
 20
49.61402715
 30
0.0
 11
202.32252499
 21
49.61402715
 31
0.0
  0
LINE
  8
0
  6
CENTERX2
 62
       7
  5
48A
 10
209.57252499
 20
55.86402715
 30
0.0
 11
209.57252499
 21
44.05152715
 31
0.0
  0
LINE
  8
0
  6
CENTERX2
 62
       7
  5
48B
 10
209.57252499
 20
-84.53597285
 30
0.0
 11
209.57252499
 21
-96.34847285
 31
0.0
  0
LINE
  8
0
  6
CENTERX2
 62
       7
  5
48C
 10
217.13502499
 20
-90.78597285
 30
0.0
 11
202.32252499
 21
-90.78597285
 31
0.0
  0
LINE
  8
0
  6
CENTERX2
 62
       7
  5
48D
 10
21.96164258
 20
49.61402715
 30
0.0
 11
7.14914258
 21
49.61402715
 31
0.0
  0
LINE
  8
0
  6
CENTERX2
 62
       7
  5
48E
 10
-265.02194418
 20
49.61402715
 30
0.0
 11
-250.20944418
 21
49.61402715
 31
0.0
  0
LINE
  8
0
  6
CENTERX2
 62
       7
  5
48F
 10
21.96164258
 20
191.59562625
 30
0.0
 11
7.14914258
 21
191.59562625
 31
0.0
  0
LINE
  8
0
  6
CENTERX2
 62
       7
  5
490
 10
-265.02194418
 20
191.59562625
 30
0.0
 11
-250.20944418
 21
191.59562625
 31
0.0
  0
POINT
  8
0
  6
DASHED2
 62
       7
  5
491
 10
209.57252499
 20
-90.78597285
 30
0.0
  0
ARC
  8
0
  6
DIVIDE
 62
       7
  5
492
 10
174.53783603
 20
-101.72617247
 30
0.0
 40
2.5
 50
5.24583202
 51
78.98562731
  0
ARC
  8
0
  6
DIVIDE
 62
       7
  5
493
 10
178.22630263
 20
-105.80602714
 30
0.0
 40
2.5
 50
5.24583202
 51
78.98562731
  0
ARC
  8
0
  6
DIVIDE
 62
       7
  5
494
 10
181.91476924
 20
-109.88588181
 30
0.0
 40
2.5
 50
5.24583202
 51
78.98562731
  0
ARC
  8
0
  6
DIVIDE
 62
       7
  5
495
 10
185.60323584
 20
-113.96573648
 30
0.0
 40
2.5
 50
5.24583202
 51
78.98562731
  0
LINE
  8
0
  6
DIVIDE
 62
       7
  5
496
 10
177.02736498
 20
-101.49759953
 30
0.0
 11
178.70394071
 21
-103.35207892
 31
0.0
  0
LINE
  8
0
  6
DIVIDE
 62
       7
  5
497
 10
180.71583159
 20
-105.57745419
 30
0.0
 11
182.39240731
 21
-107.43193359
 31
0.0
  0
LINE
  8
0
  6
DIVIDE
 62
       7
  5
498
 10
184.40429819
 20
-109.65730886
 30
0.0
 11
186.08087392
 21
-111.51178826
 31
0.0
  0
LINE
  8
0
  6
DIVIDE
 62
       7
  5
499
 10
188.09276479
 20
-113.73716353
 30
0.0
 11
193.45780713
 21
-119.67149759
 31
0.0
  0
ARC
  8
0
  6
DIVIDE
 62
       7
  5
49A
 10
117.86957639
 20
-39.04476894
 30
0.0
 40
2.5
 50
5.24583202
 51
78.98562731
  0
ARC
  8
0
  6
DIVIDE
 62
       7
  5
49B
 10
121.55804299
 20
-43.12462361
 30
0.0
 40
2.5
 50
5.24583202
 51
78.98562731
  0
ARC
  8
0
  6
DIVIDE
 62
       7
  5
49C
 10
125.24650959
 20
-47.20447827
 30
0.0
 40
2.5
 50
5.24583202
 51
78.98562731
  0
ARC
  8
0
  6
DIVIDE
 62
       7
  5
49D
 10
128.9349762
 20
-51.28433294
 30
0.0
 40
2.5
 50
5.24583202
 51
78.98562731
  0
LINE
  8
0
  6
DIVIDE
 62
       7
  5
49E
 10
120.35910534
 20
-38.81619599
 30
0.0
 11
122.03568107
 21
-40.67067539
 31
0.0
  0
LINE
  8
0
  6
DIVIDE
 62
       7
  5
49F
 10
124.04757194
 20
-42.89605066
 30
0.0
 11
125.72414767
 21
-44.75053005
 31
0.0
  0
LINE
  8
0
  6
DIVIDE
 62
       7
  5
4A0
 10
127.73603855
 20
-46.97590533
 30
0.0
 11
129.41261428
 21
-48.83038472
 31
0.0
  0
LINE
  8
0
  6
DIVIDE
 62
       7
  5
4A1
 10
147.40973104
 20
13.27520108
 30
0.0
 11
240.77439203
 21
-89.99650742
 31
0.0
  0
ARC
  8
0
  6
DIVIDE
 62
       7
  5
4A2
 10
204.58468349
 20
-109.61204322
 30
0.0
 40
15.0
 50
222.11572967
 51
312.11572967
  0
LINE
  8
0
  6
DIVIDE
 62
       7
  5
4A3
 10
131.42450515
 20
-51.05576
 30
0.0
 11
175.01547411
 21
-99.27222425
 31
0.0
  0
LINE
  8
0
  6
DIVIDE
 62
       7
  5
4A4
 10
114.04959412
 20
-9.47015591
 30
0.0
 11
139.64140977
 21
13.66658915
 31
0.0
  0
ARC
  8
0
  6
DIVIDE
 62
       7
  5
4A5
 10
124.1090485
 20
-20.59703228
 30
0.0
 40
15.0
 50
132.11572967
 51
222.11572967
  0
LINE
  8
0
  6
DIVIDE
 62
       7
  5
4A6
 10
112.98217213
 20
-30.65648666
 30
0.0
 11
118.34721446
 21
-36.59082072
 31
0.0
  0
ARC
  8
0
  6
DIVIDE
 62
       7
  5
4A7
 10
143.32987637
 20
9.58673448
 30
0.0
 40
5.5
 50
42.11572967
 51
132.11572967
  0
LINE
  8
0
  6
DIVIDE
 62
       7
  5
4A8
 10
214.64413787
 20
-120.73891959
 30
0.0
 11
240.23595351
 21
-97.60217452
 31
0.0
  0
ARC
  8
0
  6
DIVIDE
 62
       7
  5
4A9
 10
236.54748691
 20
-93.52231986
 30
0.0
 40
5.5
 50
312.11572967
 51
402.11572967
  0
LINE
  8
1
  6
CONTINUOUS
 62
       7
  5
4AA
 10
-260.0301508
 20
108.6625
 30
0.0
 11
16.9698492
 21
108.6625
 31
0.0
  0
INSERT
  8
1
  6
CONTINUOUS
 62
       7
  5
4AB
  2
_OPEN30
 10
-260.0301508
 20
108.6625
 30
0.0
 41
9.00000836
 42
8.99996782
 50
180.0
  0
INSERT
  8
1
  6
CONTINUOUS
 62
       7
  5
4AC
  2
_OPEN30
 10
16.9698492
 20
108.6625
 30
0.0
 41
9.00000836
 42
8.99996782
 50
360.0
  0
LINE
  8
1
  6
CONTINUOUS
 62
       7
  5
4AD
 10
-258.0301508
 20
87.41891491
 30
0.0
 11
14.9698492
 21
87.41891491
 31
0.0
  0
INSERT
  8
1
  6
CONTINUOUS
 62
       7
  5
4AE
  2
_OPEN30
 10
-258.0301508
 20
87.41891491
 30
0.0
 41
9.00000836
 42
8.99996782
 50
180.0
  0
INSERT
  8
1
  6
CONTINUOUS
 62
       7
  5
4AF
  2
_OPEN30
 10
14.9698492
 20
87.41891491
 30
0.0
 41
9.00000836
 42
8.99996782
 50
360.0
  0
LINE
  8
1
  6
CONTINUOUS
 62
       7
  5
4B0
 10
84.99206466
 20
-95.58597285
 30
0.0
 11
84.99206466
 21
54.41402715
 31
0.0
  0
INSERT
  8
1
  6
CONTINUOUS
 62
       7
  5
4B1
  2
_OPEN30
 10
84.99206466
 20
-95.58597285
 30
0.0
 41
9.00000836
 42
8.99996782
 50
270.0
  0
INSERT
  8
1
  6
CONTINUOUS
 62
       7
  5
4B2
  2
_OPEN30
 10
84.99206466
 20
54.41402715
 30
0.0
 41
9.00000836
 42
8.99996782
 50
90.0
  0
LINE
  8
1
  6
CONTINUOUS
 62
       7
  5
4B3
 10
64.99206466
 20
-48.58597285
 30
0.0
 11
64.99206466
 21
7.41402715
 31
0.0
  0
INSERT
  8
1
  6
CONTINUOUS
 62
       7
  5
4B4
  2
_OPEN30
 10
64.99206466
 20
-48.58597285
 30
0.0
 41
9.00000836
 42
8.99996782
 50
270.0
  0
INSERT
  8
1
  6
CONTINUOUS
 62
       7
  5
4B5
  2
_OPEN30
 10
64.99206466
 20
7.41402715
 30
0.0
 41
9.00000836
 42
8.99996782
 50
90.0
  0
LINE
  8
1
  6
CONTINUOUS
 62
       7
  5
4B6
 10
4.9698492
 20
-145.58597285
 30
0.0
 11
-248.0301508
 21
-145.58597285
 31
0.0
  0
INSERT
  8
1
  6
CONTINUOUS
 62
       7
  5
4B7
  2
_OPEN30
 10
4.9698492
 20
-145.58597285
 30
0.0
 41
9.00000836
 42
8.99996782
 50
360.0
  0
INSERT
  8
1
  6
CONTINUOUS
 62
       7
  5
4B8
  2
_OPEN30
 10
-248.0301508
 20
-145.58597285
 30
0.0
 41
9.00000836
 42
8.99996782
 50
180.0
  0
LINE
  8
1
  6
CONTINUOUS
 62
       7
  5
4B9
 10
187.57252499
 20
108.6625
 30
0.0
 11
244.02720701
 21
108.6625
 31
0.0
  0
INSERT
  8
1
  6
CONTINUOUS
 62
       7
  5
4BA
  2
_OPEN30
 10
187.57252499
 20
108.6625
 30
0.0
 41
9.00000836
 42
8.99996782
 50
180.0
  0
INSERT
  8
1
  6
CONTINUOUS
 62
       7
  5
4BB
  2
_OPEN30
 10
244.02720701
 20
108.6625
 30
0.0
 41
9.00000836
 42
8.99996782
 50
360.0
  0
LINE
  8
1
  6
CONTINUOUS
 62
       7
  5
4BC
 10
-221.5301508
 20
269.59562625
 30
0.0
 11
-121.5301508
 21
269.59562625
 31
0.0
  0
INSERT
  8
1
  6
CONTINUOUS
 62
       7
  5
4BD
  2
_OPEN30
 10
-221.5301508
 20
269.59562625
 30
0.0
 41
9.00000836
 42
8.99996782
 50
180.0
  0
INSERT
  8
1
  6
CONTINUOUS
 62
       7
  5
4BE
  2
_OPEN30
 10
-121.5301508
 20
269.59562625
 30
0.0
 41
9.00000836
 42
8.99996782
 50
360.0
  0
LINE
  8
1
  6
CONTINUOUS
 62
       7
  5
4BF
 10
-121.5301508
 20
269.59562625
 30
0.0
 11
-21.5301508
 21
269.59562625
 31
0.0
  0
INSERT
  8
1
  6
CONTINUOUS
 62
       7
  5
4C0
  2
_OPEN30
 10
-121.5301508
 20
269.59562625
 30
0.0
 41
9.00000836
 42
8.99996782
 50
180.0
  0
INSERT
  8
1
  6
CONTINUOUS
 62
       7
  5
4C1
  2
_OPEN30
 10
-21.5301508
 20
269.59562625
 30
0.0
 41
9.00000836
 42
8.99996782
 50
360.0
  0
LINE
  8
1
  6
CONTINUOUS
 62
       7
  5
4C2
 10
289.71875
 20
-74.18597285
 30
0.0
 11
289.71875
 21
19.81402715
 31
0.0
  0
INSERT
  8
1
  6
CONTINUOUS
 62
       7
  5
4C3
  2
_OPEN30
 10
289.71875
 20
-74.18597285
 30
0.0
 41
9.00000836
 42
8.99996782
 50
270.0
  0
INSERT
  8
1
  6
CONTINUOUS
 62
       7
  5
4C4
  2
_OPEN30
 10
289.71875
 20
19.81402715
 30
0.0
 41
9.00000836
 42
8.99996782
 50
90.0
  0
LINE
  8
1
  6
CONTINUOUS
 62
       7
  5
4C5
 10
187.57252499
 20
87.41891491
 30
0.0
 11
242.57252499
 21
87.41891491
 31
0.0
  0
INSERT
  8
1
  6
CONTINUOUS
 62
       7
  5
4C6
  2
_OPEN30
 10
187.57252499
 20
87.41891491
 30
0.0
 41
9.00000836
 42
8.99996782
 50
180.0
  0
INSERT
  8
1
  6
CONTINUOUS
 62
       7
  5
4C7
  2
_OPEN30
 10
242.57252499
 20
87.41891491
 30
0.0
 41
9.00000836
 42
8.99996782
 50
360.0
  0
LINE
  8
1
  6
CONTINUOUS
 62
       7
  5
4C8
 10
105.27805763
 20
54.41402715
 30
0.0
 11
105.27805763
 21
-96.58597285
 31
0.0
  0
INSERT
  8
1
  6
CONTINUOUS
 62
       7
  5
4C9
  2
_OPEN30
 10
105.27805763
 20
54.41402715
 30
0.0
 41
9.00000836
 42
8.99996782
 50
90.0
  0
INSERT
  8
1
  6
CONTINUOUS
 62
       7
  5
4CA
  2
_OPEN30
 10
105.27805763
 20
-96.58597285
 30
0.0
 41
9.00000836
 42
8.99996782
 50
270.0
  0
LINE
  8
1
  6
CONTINUOUS
 62
       7
  5
4CB
 10
-260.0301508
 20
52.61402715
 30
0.0
 11
-260.0301508
 21
111.6625
 31
0.0
  0
LINE
  8
1
  6
CONTINUOUS
 62
       7
  5
4CC
 10
16.9698492
 20
52.61402715
 30
0.0
 11
16.9698492
 21
111.6625
 31
0.0
  0
LINE
  8
1
  6
CONTINUOUS
 62
       7
  5
4CD
 10
-258.0301508
 20
56.41402715
 30
0.0
 11
-258.0301508
 21
90.41891491
 31
0.0
  0
LINE
  8
1
  6
CONTINUOUS
 62
       7
  5
4CE
 10
14.9698492
 20
56.41402715
 30
0.0
 11
14.9698492
 21
90.41891491
 31
0.0
  0
LINE
  8
1
  6
CONTINUOUS
 62
       7
  5
4CF
 10
16.0610147
 20
-95.58597285
 30
0.0
 11
86.99206466
 21
-95.58597285
 31
0.0
  0
LINE
  8
1
  6
CONTINUOUS
 62
       7
  5
4D0
 10
16.22286125
 20
54.41402715
 30
0.0
 11
86.99206466
 21
54.41402715
 31
0.0
  0
LINE
  8
1
  6
CONTINUOUS
 62
       7
  5
4D1
 10
-119.5301508
 20
-48.58597285
 30
0.0
 11
66.99206466
 21
-48.58597285
 31
0.0
  0
LINE
  8
1
  6
CONTINUOUS
 62
       7
  5
4D2
 10
-119.5301508
 20
7.41402715
 30
0.0
 11
66.99206466
 21
7.41402715
 31
0.0
  0
LINE
  8
1
  6
CONTINUOUS
 62
       7
  5
4D3
 10
4.9698492
 20
-22.58597285
 30
0.0
 11
4.9698492
 21
-147.58597285
 31
0.0
  0
LINE
  8
1
  6
CONTINUOUS
 62
       7
  5
4D4
 10
-248.0301508
 20
-22.58597285
 30
0.0
 11
-248.0301508
 21
-147.58597285
 31
0.0
  0
LINE
  8
1
  6
CONTINUOUS
 62
       7
  5
4D5
 10
244.02720701
 20
-82.88129692
 30
0.0
 11
242.57252499
 21
-82.88129692
 31
0.0
  0
LINE
  8
1
  6
CONTINUOUS
 62
       7
  5
4D6
 10
244.02720701
 20
28.12925173
 30
0.0
 11
242.57252499
 21
28.12925173
 31
0.0
  0
LINE
  8
1
  6
CONTINUOUS
 62
       7
  5
4D7
 10
244.02720701
 20
40.63043965
 30
0.0
 11
242.57252499
 21
40.63043965
 31
0.0
  0
LINE
  8
1
  6
CONTINUOUS
 62
       7
  5
4D8
 10
244.02720701
 20
-70.380109
 30
0.0
 11
242.57252499
 21
-70.380109
 31
0.0
  0
LINE
  8
1
  6
CONTINUOUS
 62
       7
  5
4D9
 10
187.57252499
 20
41.41402715
 30
0.0
 11
187.57252499
 21
111.6625
 31
0.0
  0
LINE
  8
1
  6
CONTINUOUS
 62
       7
  5
4DA
 10
244.02720701
 20
40.63043965
 30
0.0
 11
244.02720701
 21
111.6625
 31
0.0
  0
LINE
  8
1
  6
CONTINUOUS
 62
       7
  5
4DB
 10
199.03699109
 20
42.94956106
 30
0.0
 11
191.96592327
 21
50.02062887
 31
0.0
  0
LINE
  8
1
  6
CONTINUOUS
 62
       7
  5
4DC
 10
-121.5301508
 20
230.5121926
 30
0.0
 11
-121.5301508
 21
272.59562625
 31
0.0
  0
LINE
  8
1
  6
CONTINUOUS
 62
       7
  5
4DD
 10
-221.5301508
 20
235.44758384
 30
0.0
 11
-221.5301508
 21
272.59562625
 31
0.0
  0
LINE
  8
1
  6
CONTINUOUS
 62
       7
  5
4DE
 10
-21.5301508
 20
234.83028397
 30
0.0
 11
-21.5301508
 21
272.59562625
 31
0.0
  0
LINE
  8
1
  6
CONTINUOUS
 62
       7
  5
4DF
 10
257.77006655
 20
-74.18597285
 30
0.0
 11
292.71875
 21
-74.18597285
 31
0.0
  0
LINE
  8
1
  6
CONTINUOUS
 62
       7
  5
4E0
 10
257.77006655
 20
19.81402715
 30
0.0
 11
292.71875
 21
19.81402715
 31
0.0
  0
LINE
  8
1
  6
CONTINUOUS
 62
       7
  5
4E1
 10
187.57252499
 20
42.41402715
 30
0.0
 11
187.57252499
 21
90.41891491
 31
0.0
  0
LINE
  8
1
  6
CONTINUOUS
 62
       7
  5
4E2
 10
242.57252499
 20
51.91402715
 30
0.0
 11
242.57252499
 21
90.41891491
 31
0.0
  0
LINE
  8
1
  6
CONTINUOUS
 62
       7
  5
4E3
 10
-12.10400815
 20
-13.08597285
 30
0.0
 11
46.99206466
 21
-13.08597285
 31
0.0
  0
LINE
  8
1
  6
CONTINUOUS
 62
       7
  5
4E4
 10
-12.10400815
 20
-28.08597285
 30
0.0
 11
46.99206466
 21
-28.08597285
 31
0.0
  0
LINE
  8
1
  6
CONTINUOUS
 62
       7
  5
4E5
 10
44.99206466
 20
-13.08597285
 30
0.0
 11
44.99206466
 21
-28.08597285
 31
0.0
  0
LINE
  8
1
  6
CONTINUOUS
 62
       7
  5
4E6
 10
-22.1301508
 20
-96.58597285
 30
0.0
 11
108.27805763
 21
-96.58597285
 31
0.0
  0
LINE
  8
1
  6
CONTINUOUS
 62
       7
  5
4E7
 10
17.9698492
 20
54.41402715
 30
0.0
 11
108.27805763
 21
54.41402715
 31
0.0
  0
CIRCLE
  8
1
  6
CONTINUOUS
 62
       7
  5
4E8
 10
209.57252499
 20
49.61402715
 30
0.0
 40
3.0
  0
CIRCLE
  8
1
  6
CONTINUOUS
 62
       7
  5
4E9
 10
209.57252499
 20
-90.78597285
 30
0.0
 40
3.0
  0
LINE
  8
1
  6
CONTINUOUS
 62
       7
  5
4EA
 10
16.58890122
 20
52.61402715
 30
0.0
 11
14.9698492
 21
52.61402715
 31
0.0
  0
LINE
  8
1
  6
CONTINUOUS
 62
       7
  5
4EB
 10
16.58890122
 20
46.61402715
 30
0.0
 11
14.9698492
 21
46.61402715
 31
0.0
  0
ARC
  8
1
  6
CONTINUOUS
 62
       7
  5
4EC
 10
4.96673869
 20
49.61402715
 30
0.0
 40
12.00311051
 50
345.52632145
 51
374.47367855
  0
LINE
  8
1
  6
CONTINUOUS
 62
       7
  5
4ED
 10
-259.64920282
 20
52.61402715
 30
0.0
 11
-258.0301508
 21
52.61402715
 31
0.0
  0
LINE
  8
1
  6
CONTINUOUS
 62
       7
  5
4EE
 10
-259.64920282
 20
46.61402715
 30
0.0
 11
-258.0301508
 21
46.61402715
 31
0.0
  0
ARC
  8
1
  6
CONTINUOUS
 62
       7
  5
4EF
 10
-248.02704029
 20
49.61402715
 30
0.0
 40
12.00311051
 50
165.52632145
 51
194.47367855
  0
LINE
  8
1
  6
CONTINUOUS
 62
       7
  5
4F0
 10
16.58890122
 20
194.59562625
 30
0.0
 11
14.9698492
 21
194.59562625
 31
0.0
  0
LINE
  8
1
  6
CONTINUOUS
 62
       7
  5
4F1
 10
16.58890122
 20
188.59562625
 30
0.0
 11
14.9698492
 21
188.59562625
 31
0.0
  0
ARC
  8
1
  6
CONTINUOUS
 62
       7
  5
4F2
 10
4.96673869
 20
191.59562625
 30
0.0
 40
12.00311051
 50
345.52632145
 51
374.47367855
  0
LINE
  8
1
  6
CONTINUOUS
 62
       7
  5
4F3
 10
-259.64920282
 20
194.59562625
 30
0.0
 11
-258.0301508
 21
194.59562625
 31
0.0
  0
LINE
  8
1
  6
CONTINUOUS
 62
       7
  5
4F4
 10
-259.64920282
 20
188.59562625
 30
0.0
 11
-258.0301508
 21
188.59562625
 31
0.0
  0
ARC
  8
1
  6
CONTINUOUS
 62
       7
  5
4F5
 10
-248.02704029
 20
191.59562625
 30
0.0
 40
12.00311051
 50
165.52632145
 51
194.47367855
  0
LINE
  8
1
  6
CONTINUOUS
 62
       7
  5
4F6
 10
164.69534846
 20
77.29120368
 30
0.0
 11
191.96592327
 21
50.02062887
 31
0.0
  0
INSERT
  8
1
  6
CONTINUOUS
 62
       7
  5
4F7
  2
_OPEN30
 10
191.96592327
 20
50.02062887
 30
0.0
 41
9.00000836
 42
8.99996782
 50
315.0
  0
LINE
  8
1
  6
CONTINUOUS
 62
       7
  5
4F8
 10
44.99206466
 20
-76.9135805
 30
0.0
 11
44.99206466
 21
-28.08597285
 31
0.0
  0
INSERT
  8
1
  6
CONTINUOUS
 62
       7
  5
4F9
  2
_OPEN30
 10
44.99206466
 20
-28.08597285
 30
0.0
 41
9.00000836
 42
8.99996782
 50
90.0
  0
LINE
  8
1
  6
CONTINUOUS
 62
       7
  5
4FA
 10
44.99206466
 20
1.91402715
 30
0.0
 11
44.99206466
 21
-13.08597285
 31
0.0
  0
INSERT
  8
1
  6
CONTINUOUS
 62
       7
  5
4FB
  2
_OPEN30
 10
44.99206466
 20
-13.08597285
 30
0.0
 41
9.00000836
 42
8.99996782
 50
270.0
  0
TEXT
  8
1
 62
       7
  5
4FC
 10
-145.5301508
 20
111.6625
 30
0.0
 40
12.0
  1
(277)
 41
0.8
 72
       5
 11
-97.5301508
 21
111.6625
 31
0.0
  0
TEXT
  8
1
 62
       7
  5
4FD
 10
-135.9301508
 20
89.41891491
 30
0.0
 40
12.0
  1
273
 41
0.8
 72
       5
 11
-107.1301508
 21
89.41891491
 31
0.0
  0
TEXT
  8
1
 62
       7
  5
4FE
 10
82.99206466
 20
-34.98597285
 30
0.0
 40
12.0
  1
150
 50
90.0
 41
0.8
 72
       5
 11
82.99206466
 21
-6.18597285
 31
0.0
  0
TEXT
  8
1
 62
       7
  5
4FF
 10
62.99206466
 20
-30.18597285
 30
0.0
 40
12.0
  1
56
 50
90.0
 41
0.8
 72
       5
 11
62.99206466
 21
-10.98597285
 31
0.0
  0
TEXT
  8
1
 62
       7
  5
500
 10
-135.9301508
 20
-143.58597285
 30
0.0
 40
12.0
  1
253
 41
0.8
 72
       5
 11
-107.1301508
 21
-143.58597285
 31
0.0
  0
TEXT
  8
1
 62
       7
  5
501
 10
206.199866
 20
110.6625
 30
0.0
 40
12.0
  1
56
 41
0.8
 72
       5
 11
225.399866
 21
110.6625
 31
0.0
  0
TEXT
  8
1
 62
       7
  5
502
 10
160.73555049
 20
84.07942878
 30
0.0
 40
12.0
  1
R15
 50
-45.0
 41
0.8
 72
       5
 11
181.10022579
 21
63.71475348
 31
0.0
  0
TEXT
  8
1
 62
       7
  5
503
 10
-185.9301508
 20
272.59562625
 30
0.0
 40
12.0
  1
100
 41
0.8
 72
       5
 11
-157.1301508
 21
272.59562625
 31
0.0
  0
TEXT
  8
1
 62
       7
  5
504
 10
-85.9301508
 20
272.59562625
 30
0.0
 40
12.0
  1
100
 41
0.8
 72
       5
 11
-57.1301508
 21
272.59562625
 31
0.0
  0
TEXT
  8
1
 62
       7
  5
505
 10
286.71875
 20
-36.78597285
 30
0.0
 40
12.0
  1
94
 50
90.0
 41
0.8
 72
       5
 11
286.71875
 21
-17.58597285
 31
0.0
  0
TEXT
  8
1
 62
       7
  5
506
 10
205.47252499
 20
90.41891491
 30
0.0
 40
12.0
  1
55
 41
0.8
 72
       5
 11
224.67252499
 21
90.41891491
 31
0.0
  0
TEXT
  8
1
 62
       7
  5
507
 10
44.11497419
 20
-73.9135805
 30
0.0
 40
12.0
  1
15
 50
90.0
 41
0.8
 72
       5
 11
44.11497419
 21
-54.7135805
 31
0.0
  0
TEXT
  8
1
 62
       7
  5
508
 10
102.27805763
 20
-45.08597285
 30
0.0
 40
12.0
  1
(151)
 50
90.0
 41
0.8
 72
       5
 11
102.27805763
 21
2.91402715
 31
0.0
  0
INSERT
  8
1
  6
BORDER
  5
509
  2
GROUP_2
 10
0.0
 20
0.0
 30
0.0
  0
INSERT
  8
1
  6
BORDER
  5
50A
  2
GROUP_3
 10
0.0
 20
0.0
 30
0.0
  0
INSERT
  8
1
  6
BORDER
  5
50B
  2
GROUP_4
 10
0.0
 20
0.0
 30
0.0
  0
ENDSEC
  0
EOF
