  0
SECTION
  2
HEADER
  9
$ACADVER
  1
AC1009
  9
$INSBASE
 10
0.0
 20
0.0
 30
0.0
  9
$EXTMIN
 10
-572.06012004
 20
-789.09285714
 30
0.0
  9
$EXTMAX
 10
572.06012004
 20
807.30714286
 30
0.0
  9
$LIMMIN
 10
-607.81387755
 20
-838.98035714
  9
$LIMMAX
 10
607.81387755
 20
857.19464286
  9
$ORTHOMODE
 70
       0
  9
$REGENMODE
 70
       1
  9
$FILLMODE
 70
       1
  9
$QTEXTMODE
 70
       0
  9
$MIRRTEXT
 70
       1
  9
$DRAGMODE
 70
       2
  9
$LTSCALE
 40
1.0
  9
$OSMODE
 70
       0
  9
$ATTMODE
 70
       1
  9
$TEXTSIZE
 40
0.2
  9
$TRACEWID
 40
0.05
  9
$TEXTSTYLE
  7
STANDARD
  9
$CLAYER
  8
0
  9
$CELTYPE
  6
CONTINUOUS
  9
$CECOLOR
 62
     256
  9
$DIMSCALE
 40
1.0
  9
$DIMASZ
 40
0.18
  9
$DIMEXO
 40
0.0625
  9
$DIMDLI
 40
0.38
  9
$DIMRND
 40
0.0
  9
$DIMDLE
 40
0.0
  9
$DIMEXE
 40
0.18
  9
$DIMTP
 40
0.0
  9
$DIMTM
 40
0.0
  9
$DIMTXT
 40
0.18
  9
$DIMCEN
 40
0.09
  9
$DIMTSZ
 40
0.0
  9
$DIMTOL
 70
       0
  9
$DIMLIM
 70
       0
  9
$DIMTIH
 70
       1
  9
$DIMTOH
 70
       1
  9
$DIMSE1
 70
       0
  9
$DIMSE2
 70
       0
  9
$DIMTAD
 70
       0
  9
$DIMZIN
 70
       0
  9
$DIMBLK
  1

  9
$DIMASO
 70
       1
  9
$DIMSHO
 70
       1
  9
$DIMPOST
  1

  9
$DIMAPOST
  1

  9
$DIMALT
 70
       0
  9
$DIMALTD
 70
       2
  9
$DIMALTF
 40
25.4
  9
$DIMLFAC
 40
1.0
  9
$DIMTOFL
 70
       0
  9
$DIMTVP
 40
0.0
  9
$DIMTIX
 70
       0
  9
$DIMSOXD
 70
       0
  9
$DIMSAH
 70
       0
  9
$DIMBLK1
  1

  9
$DIMBLK2
  1

  9
$DIMSTYLE
  2
STANDARD
  9
$DIMCLRD
 70
       0
  9
$DIMCLRE
 70
       0
  9
$DIMCLRT
 70
       0
  9
$DIMTFAC
 40
1.0
  9
$DIMGAP
 40
0.09
  9
$LUNITS
 70
       2
  9
$LUPREC
 70
       4
  9
$AXISMODE
 70
       0
  9
$AXISUNIT
 10
0.0
 20
0.0
  9
$SKETCHINC
 40
0.1
  9
$FILLETRAD
 40
0.0
  9
$AUNITS
 70
       0
  9
$AUPREC
 70
       0
  9
$MENU
  1
acad
  9
$ELEVATION
 40
0.0
  9
$PELEVATION
 40
0.0
  9
$THICKNESS
 40
0.0
  9
$LIMCHECK
 70
       0
  9
$BLIPMODE
 70
       1
  9
$CHAMFERA
 40
0.0
  9
$CHAMFERB
 40
0.0
  9
$SKPOLY
 70
       0
  9
$TDCREATE
 40
0.000000000
  9
$TDUPDATE
 40
0.000000000
  9
$TDINDWG
 40
0.0000000000
  9
$TDUSRTIMER
 40
0.0000000000
  9
$USRTIMER
 70
       1
  9
$ANGBASE
 50
0.0
  9
$ANGDIR
 70
       0
  9
$PDMODE
 70
       0
  9
$PDSIZE
 40
1.0
  9
$PLINEWID
 40
0.0
  9
$COORDS
 70
       1
  9
$SPLFRAME
 70
       0
  9
$SPLINETYPE
 70
       6
  9
$SPLINESEGS
 70
       8
  9
$ATTDIA
 70
       0
  9
$ATTREQ
 70
       1
  9
$HANDLING
 70
       1
  9
$HANDSEED
  5
8DB
  9
$SURFTAB1
 70
       6
  9
$SURFTAB2
 70
       6
  9
$SURFTYPE
 70
       6
  9
$SURFU
 70
       6
  9
$SURFV
 70
       6
  9
$UCSNAME
  2

  9
$UCSORG
 10
0.0
 20
0.0
 30
0.0
  9
$UCSXDIR
 10
1.0
 20
0.0
 30
0.0
  9
$UCSYDIR
 10
0.0
 20
1.0
 30
0.0
  9
$PUCSNAME
  2

  9
$PUCSORG
 10
0.0
 20
0.0
 30
0.0
  9
$PUCSXDIR
 10
1.0
 20
0.0
 30
0.0
  9
$PUCSYDIR
 10
0.0
 20
1.0
 30
0.0
  9
$USERI1
 70
       0
  9
$USERI2
 70
       0
  9
$USERI3
 70
       0
  9
$USERI4
 70
       0
  9
$USERI5
 70
       0
  9
$USERR1
 40
0.0
  9
$USERR2
 40
0.0
  9
$USERR3
 40
0.0
  9
$USERR4
 40
0.0
  9
$USERR5
 40
0.0
  9
$WORLDVIEW
 70
       1
  9
$SHADEDGE
 70
       3
  9
$SHADEDIF
 70
      70
  9
$TILEMODE
 70
       1
  9
$MAXACTVP
 70
      16
  9
$PINSBASE
 10
0.0
 20
0.0
 30
0.0
  9
$PLIMCHECK
 70
       0
  9
$PEXTMIN
 10
1.00000000E+20
 20
1.00000000E+20
 30
1.00000000E+20
  9
$PEXTMAX
 10
-1.00000000E+20
 20
-1.00000000E+20
 30
-1.00000000E+20
  9
$PLIMMIN
 10
0.0
 20
0.0
  9
$PLIMMAX
 10
12.0
 20
9.0
  9
$UNITMODE
 70
       0
  9
$VISRETAIN
 70
       0
  9
$PLINEGEN
 70
       1
  9
$PSLTSCALE
 70
       0
  9
$TREEDEPTH
 70
    3020
  9
$DWGCODEPAGE
  3
dos932
  0
ENDSEC
  0
SECTION
  2
TABLES
  0
TABLE
  2
VPORT
 70
       1
  0
VPORT
  2
*ACTIVE
 70
       0
 10
0.0
 20
0.0
 11
1.0
 21
1.0
 12
0.0
 22
9.10714286
 13
0.0
 23
0.0
 14
1.0
 24
1.0
 15
0.0
 25
0.0
 16
0.0
 26
0.0
 36
1.0
 17
0.0
 27
0.0
 37
0.0
 40
1696.175
 41
0.7166877
 42
50.0
 43
0.0
 44
0.0
 50
0.0
 51
0.0
 71
       0
 72
     100
 73
       1
 74
       1
 75
       0
 76
       0
 77
       0
 78
       0
  0
ENDTAB
  0
TABLE
  2
LTYPE
 70
      28
  0
LTYPE
  2
CONTINUOUS
 70
      64
  3
Solid line
 72
      65
 73
       0
 40
0.0
  0
LTYPE
  2
HIDDENX2
 70
      64
  3
CADPAC LINETYPE
 72
      65
 73
       2
 40
91.35042365
 49
68.51281773
 49
-22.83760591
  0
LTYPE
  2
HIDDEN
 70
      64
  3
CADPAC LINETYPE
 72
      65
 73
       2
 40
68.51281773
 49
45.67521182
 49
-22.83760591
  0
LTYPE
  2
HIDDEN2
 70
      64
  3
CADPAC LINETYPE
 72
      65
 73
       2
 40
57.09401478
 49
34.25640887
 49
-22.83760591
  0
LTYPE
  2
DASHED
 70
      64
  3
CADPAC LINETYPE
 72
      65
 73
       2
 40
68.51281773
 49
45.67521182
 49
-22.83760591
  0
LTYPE
  2
DASHED2
 70
      64
  3
CADPAC LINETYPE
 72
      65
 73
       2
 40
51.3846133
 49
34.25640887
 49
-17.12820443
  0
LTYPE
  2
DASHEDX2
 70
      64
  3
CADPAC LINETYPE
 72
      65
 73
       2
 40
102.7692266
 49
68.51281773
 49
-34.25640887
  0
LTYPE
  2
DOTX2
 70
      64
  3
CADPAC LINETYPE
 72
      65
 73
       2
 40
28.54700739
 49
0.0
 49
-28.54700739
  0
LTYPE
  2
DOT
 70
      64
  3
CADPAC LINETYPE
 72
      65
 73
       2
 40
22.83760591
 49
0.0
 49
-22.83760591
  0
LTYPE
  2
DOT2
 70
      64
  3
CADPAC LINETYPE
 72
      65
 73
       2
 40
17.12820443
 49
0.0
 49
-17.12820443
  0
LTYPE
  2
CENTERX2
 70
      64
  3
CADPAC LINETYPE
 72
      65
 73
       4
 40
137.02563547
 49
57.09401478
 49
-28.54700739
 49
22.83760591
 49
-28.54700739
  0
LTYPE
  2
CENTER
 70
      64
  3
CADPAC LINETYPE
 72
      65
 73
       4
 40
105.05298719
 49
45.67521182
 49
-22.83760591
 49
13.70256355
 49
-22.83760591
  0
LTYPE
  2
CENTER2
 70
      64
  3
CADPAC LINETYPE
 72
      65
 73
       4
 40
73.08033892
 49
34.25640887
 49
-17.12820443
 49
4.56752118
 49
-17.12820443
  0
LTYPE
  2
DASHDOTX2
 70
      64
  3
CADPAC LINETYPE
 72
      65
 73
       4
 40
114.18802956
 49
57.09401478
 49
-28.54700739
 49
0.0
 49
-28.54700739
  0
LTYPE
  2
DASHDOT
 70
      64
  3
CADPAC LINETYPE
 72
      65
 73
       4
 40
91.35042365
 49
45.67521182
 49
-22.83760591
 49
0.0
 49
-22.83760591
  0
LTYPE
  2
DASHDOT2
 70
      64
  3
CADPAC LINETYPE
 72
      65
 73
       4
 40
68.51281773
 49
34.25640887
 49
-17.12820443
 49
0.0
 49
-17.12820443
  0
LTYPE
  2
DIVIDEX2
 70
      64
  3
CADPAC LINETYPE
 72
      65
 73
       6
 40
142.73503695
 49
57.09401478
 49
-28.54700739
 49
0.0
 49
-28.54700739
 49
0.0
 49
-28.54700739
  0
LTYPE
  2
DIVIDE
 70
      64
  3
CADPAC LINETYPE
 72
      65
 73
       6
 40
114.18802956
 49
45.67521182
 49
-22.83760591
 49
0.0
 49
-22.83760591
 49
0.0
 49
-22.83760591
  0
LTYPE
  2
DIVIDE2
 70
      64
  3
CADPAC LINETYPE
 72
      65
 73
       6
 40
85.64102217
 49
34.25640887
 49
-17.12820443
 49
0.0
 49
-17.12820443
 49
0.0
 49
-17.12820443
  0
LTYPE
  2
BORDERX2
 70
      64
  3
CADPAC LINETYPE
 72
      65
 73
       6
 40
199.82905172
 49
57.09401478
 49
-28.54700739
 49
57.09401478
 49
-28.54700739
 49
0.0
 49
-28.54700739
  0
LTYPE
  2
BORDER
 70
      64
  3
CADPAC LINETYPE
 72
      65
 73
       6
 40
159.86324138
 49
45.67521182
 49
-22.83760591
 49
45.67521182
 49
-22.83760591
 49
0.0
 49
-22.83760591
  0
LTYPE
  2
BORDER2
 70
      64
  3
CADPAC LINETYPE
 72
      65
 73
       6
 40
119.89743103
 49
34.25640887
 49
-17.12820443
 49
34.25640887
 49
-17.12820443
 49
0.0
 49
-17.12820443
  0
LTYPE
  2
PHANTOMX2
 70
      64
  3
CADPAC LINETYPE
 72
      65
 73
       6
 40
171.28204433
 49
57.09401478
 49
-22.83760591
 49
22.83760591
 49
-22.83760591
 49
22.83760591
 49
-22.83760591
  0
LTYPE
  2
PHANTOM
 70
      64
  3
CADPAC LINETYPE
 72
      65
 73
       6
 40
141.59315665
 49
45.67521182
 49
-22.83760591
 49
13.70256355
 49
-22.83760591
 49
13.70256355
 49
-22.83760591
  0
LTYPE
  2
PHANTOM2
 70
      64
  3
CADPAC LINETYPE
 72
      65
 73
       6
 40
121.03931133
 49
34.25640887
 49
-22.83760591
 49
9.13504236
 49
-22.83760591
 49
9.13504236
 49
-22.83760591
  0
LTYPE
  2
ACAD_ISO06W100
 70
      64
  3
CADPAC LINETYPE
 72
      65
 73
       8
 40
154.1538399
 49
57.09401478
 49
-28.54700739
 49
0.0
 49
-22.83760591
 49
0.0
 49
-22.83760591
 49
0.0
 49
-22.83760591
  0
LTYPE
  2
ACAD_ISO13W100
 70
      64
  3
CADPAC LINETYPE
 72
      65
 73
       8
 40
182.70084729
 49
45.67521182
 49
-22.83760591
 49
45.67521182
 49
-22.83760591
 49
0.0
 49
-22.83760591
 49
0.0
 49
-22.83760591
  0
LTYPE
  2
ACAD_ISO14W100
 70
      64
  3
CADPAC LINETYPE
 72
      65
 73
       8
 40
137.02563547
 49
45.67521182
 49
-22.83760591
 49
0.0
 49
-22.83760591
 49
0.0
 49
-22.83760591
 49
0.0
 49
-22.83760591
  0
ENDTAB
  0
TABLE
  2
LAYER
 70
       4
  0
LAYER
  2
0
 70
       0
 62
       7
  6
CONTINUOUS
  0
LAYER
  2
1
 70
       0
 62
       7
  6
CONTINUOUS
  0
LAYER
  2
2
 70
       0
 62
       7
  6
CONTINUOUS
  0
LAYER
  2
240
 70
       0
 62
       7
  6
CONTINUOUS
  0
ENDTAB
  0
TABLE
  2
STYLE
 70
       1
  0
STYLE
  2
STANDARD
 70
       0
 40
0.0
 41
0.8
 50
0.0
 71
       0
 42
20.0
  3
txt.shx
  4
bigfont.shx
  0
ENDTAB
  0
TABLE
  2
VIEW
 70
       0
  0
VIEW
  2
QQQQ
 70
       0
 40
1696.175
 10
0.0
 20
9.10714286
 41
1215.62775509
 11
0.0
 21
0.0
 31
1.0
 12
100.0
 22
100.0
 32
0.0
 42
50.0
 43
0.0
 44
0.0
 50
0.0
 71
       0
  0
ENDTAB
  0
TABLE
  2
UCS
 70
       0
  0
ENDTAB
  0
TABLE
  2
APPID
 70
       1
  0
APPID
  2
ACAD
 70
       0
  0
ENDTAB
  0
TABLE
  2
DIMSTYLE
 70
       1
  0
DIMSTYLE
  2
STANDARD
 70
       0
  3

  4

  5

  6

  7

 40
1.0
 41
0.18
 42
0.0625
 43
0.38
 44
0.18
 45
0.0
 46
0.0
 47
0.0
 48
0.0
 71
       0
 72
       0
 73
       1
 74
       1
 75
       0
 76
       0
 77
       0
 78
       0
140
0.18
141
0.09
142
0.0
143
25.4
144
1.0
145
0.0
146
1.0
147
0.09
170
       0
171
       2
172
       0
173
       0
174
       0
175
       0
176
       0
177
       0
178
       0
  0
ENDTAB
  0
ENDSEC
  0
SECTION
  2
BLOCKS
  0
BLOCK
  8
0
  5
4E
  2
GROUP_1
 70
       0
 10
0.0
 20
0.0
 30
0.0
  3
GROUP_1
  0
ARC
  8
0
  6
CONTINUOUS
 62
       7
  5
4F
 10
-444.62872639
 20
711.14961468
 30
0.0
 40
13.43846587
 50
117.5173678
 51
242.4826322
  0
ARC
  8
0
  6
CONTINUOUS
 62
       7
  5
50
 10
-394.16094227
 20
808.02562547
 30
0.0
 40
122.67197127
 50
242.4826322
 51
297.51736473
  0
ARC
  8
0
  6
CONTINUOUS
 62
       7
  5
51
 10
-343.69315814
 20
711.14961468
 30
0.0
 40
13.43846587
 50
297.51736473
 51
422.48263527
  0
ARC
  8
0
  6
CONTINUOUS
 62
       7
  5
52
 10
-394.16094227
 20
614.27360388
 30
0.0
 40
122.67197127
 50
62.48263527
 51
117.5173678
  0
ENDBLK
  8
0
  5
53
  0
BLOCK
  8
0
  5
54
  2
GROUP_2
 70
       0
 10
0.0
 20
0.0
 30
0.0
  3
GROUP_2
  0
ARC
  8
0
  6
CONTINUOUS
 62
       7
  5
55
 10
-406.13387018
 20
708.29895911
 30
0.0
 40
0.52833267
 50
190.64764618
 51
292.13143044
  0
ARC
  8
0
  6
CONTINUOUS
 62
       7
  5
56
 10
-406.33104814
 20
708.7837867
 30
0.0
 40
1.05172253
 50
292.13143044
 51
370.64764925
  0
ARC
  8
0
  6
CONTINUOUS
 62
       7
  5
57
 10
-405.81667
 20
708.88049278
 30
0.0
 40
0.52833267
 50
10.64764925
 51
112.13143351
  0
ARC
  8
0
  6
CONTINUOUS
 62
       7
  5
58
 10
-405.61949204
 20
708.39566519
 30
0.0
 40
1.05172253
 50
112.13143351
 51
190.64764618
  0
ENDBLK
  8
0
  5
59
  0
BLOCK
  8
0
  5
5A
  2
GROUP_3
 70
       0
 10
0.0
 20
0.0
 30
0.0
  3
GROUP_3
  0
ARC
  8
0
  6
CONTINUOUS
 62
       7
  5
5B
 10
-406.48197964
 20
707.66075843
 30
0.0
 40
1.68796381
 50
190.64764618
 51
211.08494823
  0
ARC
  8
0
  6
CONTINUOUS
 62
       7
  5
5C
 10
-407.11194118
 20
709.20972836
 30
0.0
 40
3.36013586
 50
312.59843321
 51
370.64764925
  0
ARC
  8
0
  6
CONTINUOUS
 62
       7
  5
5D
 10
-405.46856053
 20
709.51869346
 30
0.0
 40
1.68796381
 50
10.64764925
 51
112.13143351
  0
ARC
  8
0
  6
CONTINUOUS
 62
       7
  5
5E
 10
-404.838599
 20
707.96972353
 30
0.0
 40
3.36013586
 50
112.13143351
 51
190.64764618
  0
ENDBLK
  8
0
  5
5F
  0
BLOCK
  8
0
  5
60
  2
GROUP_4
 70
       0
 10
0.0
 20
0.0
 30
0.0
  3
GROUP_4
  0
ARC
  8
0
  6
CONTINUOUS
 62
       7
  5
61
 10
-398.49999765
 20
709.62612081
 30
0.0
 40
0.38699992
 50
183.26137873
 51
305.00590373
  0
ARC
  8
0
  6
CONTINUOUS
 62
       7
  5
62
 10
-399.89492058
 20
711.61784031
 30
0.0
 40
2.81861596
 50
305.00590373
 51
363.2613818
  0
ARC
  8
0
  6
CONTINUOUS
 62
       7
  5
63
 10
-397.46724282
 20
711.75617766
 30
0.0
 40
0.38699992
 50
3.2613818
 51
125.0059068
  0
ARC
  8
0
  6
CONTINUOUS
 62
       7
  5
64
 10
-396.07231989
 20
709.76445816
 30
0.0
 40
2.81861596
 50
125.0059068
 51
183.26137873
  0
ENDBLK
  8
0
  5
65
  0
BLOCK
  8
0
  5
66
  2
GROUP_5
 70
       0
 10
0.0
 20
0.0
 30
0.0
  3
GROUP_5
  0
ARC
  8
0
  6
CONTINUOUS
 62
       7
  5
67
 10
-399.63338834
 20
707.2885025
 30
0.0
 40
1.23642147
 50
183.26137873
 51
200.33363428
  0
ARC
  8
0
  6
CONTINUOUS
 62
       7
  5
68
 10
-404.09001111
 20
713.6518236
 30
0.0
 40
9.0051628
 50
321.55507259
 51
363.2613818
  0
ARC
  8
0
  6
CONTINUOUS
 62
       7
  5
69
 10
-396.33385212
 20
714.09379596
 30
0.0
 40
1.23642147
 50
3.2613818
 51
125.0059068
  0
ARC
  8
0
  6
CONTINUOUS
 62
       7
  5
6A
 10
-391.87722936
 20
707.73047487
 30
0.0
 40
9.0051628
 50
125.0059068
 51
183.26137873
  0
ENDBLK
  8
0
  5
6B
  0
BLOCK
  8
0
  5
6C
  2
GROUP_6
 70
       0
 10
0.0
 20
0.0
 30
0.0
  3
GROUP_6
  0
ARC
  8
0
  6
CONTINUOUS
 62
       7
  5
6D
 10
-384.02749042
 20
707.54864521
 30
0.0
 40
0.36012767
 50
183.73563025
 51
294.86492053
  0
ARC
  8
0
  6
CONTINUOUS
 62
       7
  5
6E
 10
-384.42372284
 20
708.40362514
 30
0.0
 40
1.3024603
 50
294.86492053
 51
363.73563332
  0
ARC
  8
0
  6
CONTINUOUS
 62
       7
  5
6F
 10
-383.48339238
 20
708.46502086
 30
0.0
 40
0.36012767
 50
3.73563332
 51
114.8649236
  0
ARC
  8
0
  6
CONTINUOUS
 62
       7
  5
70
 10
-383.08715997
 20
707.61004093
 30
0.0
 40
1.3024603
 50
114.8649236
 51
183.73563025
  0
ENDBLK
  8
0
  5
71
  0
BLOCK
  8
0
  5
72
  2
GROUP_7
 70
       0
 10
0.0
 20
0.0
 30
0.0
  3
GROUP_7
  0
ARC
  8
0
  6
CONTINUOUS
 62
       7
  5
73
 10
-382.99727723
 20
709.16525042
 30
0.0
 40
1.43555966
 50
20.74730473
 51
105.32121283
  0
ARC
  8
0
  6
CONTINUOUS
 62
       7
  5
74
 10
-382.21691413
 20
706.31686677
 30
0.0
 40
4.38890623
 50
105.32121283
 51
159.10235176
  0
ENDBLK
  8
0
  5
75
  0
BLOCK
  8
0
  5
76
  2
GROUP_8
 70
       0
 10
0.0
 20
0.0
 30
0.0
  3
GROUP_8
  0
ARC
  8
0
  6
CONTINUOUS
 62
       7
  5
77
 10
-385.16583026
 20
706.47857529
 30
0.0
 40
1.43555966
 50
198.54808739
 51
285.32120976
  0
ARC
  8
0
  6
CONTINUOUS
 62
       7
  5
78
 10
-385.94619336
 20
709.32695894
 30
0.0
 40
4.38890623
 50
285.32120976
 51
306.25116607
  0
ENDBLK
  8
0
  5
79
  0
BLOCK
  8
0
  5
7A
  2
GROUP_9
 70
       0
 10
0.0
 20
0.0
 30
0.0
  3
GROUP_9
  0
ARC
  8
0
  6
CONTINUOUS
 62
       7
  5
7B
 10
-355.84263017
 20
708.29895911
 30
0.0
 40
0.52833267
 50
190.64764618
 51
292.13143044
  0
ARC
  8
0
  6
CONTINUOUS
 62
       7
  5
7C
 10
-356.03980813
 20
708.7837867
 30
0.0
 40
1.05172253
 50
292.13143044
 51
370.64764925
  0
ARC
  8
0
  6
CONTINUOUS
 62
       7
  5
7D
 10
-355.52542998
 20
708.88049278
 30
0.0
 40
0.52833267
 50
10.64764925
 51
112.13143351
  0
ARC
  8
0
  6
CONTINUOUS
 62
       7
  5
7E
 10
-355.32825202
 20
708.39566519
 30
0.0
 40
1.05172253
 50
112.13143351
 51
190.64764618
  0
ENDBLK
  8
0
  5
7F
  0
BLOCK
  8
0
  5
80
  2
GROUP_10
 70
       0
 10
0.0
 20
0.0
 30
0.0
  3
GROUP_10
  0
ARC
  8
0
  6
CONTINUOUS
 62
       7
  5
81
 10
-356.19073963
 20
707.66075843
 30
0.0
 40
1.68796381
 50
190.64764618
 51
211.08494823
  0
ARC
  8
0
  6
CONTINUOUS
 62
       7
  5
82
 10
-356.82070117
 20
709.20972836
 30
0.0
 40
3.36013586
 50
312.59843321
 51
370.64764925
  0
ARC
  8
0
  6
CONTINUOUS
 62
       7
  5
83
 10
-355.17732052
 20
709.51869346
 30
0.0
 40
1.68796381
 50
10.64764925
 51
112.13143351
  0
ARC
  8
0
  6
CONTINUOUS
 62
       7
  5
84
 10
-354.54735898
 20
707.96972353
 30
0.0
 40
3.36013586
 50
112.13143351
 51
190.64764618
  0
ENDBLK
  8
0
  5
85
  0
BLOCK
  8
0
  5
86
  2
GROUP_11
 70
       0
 10
0.0
 20
0.0
 30
0.0
  3
GROUP_11
  0
LINE
  8
240
  6
CONTINUOUS
 62
       7
  5
87
 10
125.68684928
 20
244.21654227
 30
0.0
 11
184.57549815
 21
211.30817967
 31
0.0
  0
LINE
  8
240
  6
CONTINUOUS
 62
       7
  5
88
 10
125.68684928
 20
244.21654227
 30
0.0
 11
135.0923969
 21
235.9833367
 31
0.0
  0
LINE
  8
240
  6
CONTINUOUS
 62
       7
  5
89
 10
125.68684928
 20
244.21654227
 30
0.0
 11
137.62799098
 21
240.52071558
 31
0.0
  0
CIRCLE
  8
240
  6
CONTINUOUS
 62
       7
  5
8A
 10
203.67113682
 20
200.63708747
 30
0.0
 40
21.875
  0
TEXT
  8
240
 62
       7
  5
8B
 10
195.67113682
 20
190.63708747
 30
0.0
 40
20.0
  1
1
 41
0.8
 72
       5
 11
211.67113682
 21
190.63708747
 31
0.0
  0
ENDBLK
  8
0
  5
8C
  0
BLOCK
  8
0
  5
8D
  2
GROUP_12
 70
       0
 10
0.0
 20
0.0
 30
0.0
  3
GROUP_12
  0
LINE
  8
240
  6
CONTINUOUS
 62
       7
  5
8E
 10
119.82762585
 20
345.09155195
 30
0.0
 11
184.57549815
 21
308.90891743
 31
0.0
  0
LINE
  8
240
  6
CONTINUOUS
 62
       7
  5
8F
 10
119.82762585
 20
345.09155195
 30
0.0
 11
129.23317347
 21
336.85834638
 31
0.0
  0
LINE
  8
240
  6
CONTINUOUS
 62
       7
  5
90
 10
119.82762585
 20
345.09155195
 30
0.0
 11
131.76876755
 21
341.39572526
 31
0.0
  0
CIRCLE
  8
240
  6
CONTINUOUS
 62
       7
  5
91
 10
203.67113682
 20
298.23782523
 30
0.0
 40
21.875
  0
TEXT
  8
240
 62
       7
  5
92
 10
195.67113682
 20
288.23782523
 30
0.0
 40
20.0
  1
2
 41
0.8
 72
       5
 11
211.67113682
 21
288.23782523
 31
0.0
  0
ENDBLK
  8
0
  5
93
  0
BLOCK
  8
0
  5
94
  2
GROUP_13
 70
       0
 10
0.0
 20
0.0
 30
0.0
  3
GROUP_13
  0
LINE
  8
1
  6
CONTINUOUS
 62
       7
  5
95
 10
32.94591761
 20
-232.18448248
 30
0.0
 11
79.80714875
 21
-241.24342646
 31
0.0
  0
LINE
  8
1
  6
CONTINUOUS
 62
       7
  5
96
 10
79.80714875
 20
-241.24342646
 30
0.0
 11
241.40714875
 21
-241.24342646
 31
0.0
  0
TEXT
  8
1
 62
       7
  5
97
 10
83.80714875
 20
-237.24342646
 30
0.0
 40
16.0
  1
９０度（レバー回転範囲）
 41
0.8
 72
       5
 11
237.40714875
 21
-237.24342646
 31
0.0
  0
ENDBLK
  8
0
  5
98
  0
BLOCK
  8
0
  5
99
  2
GROUP_14
 70
       0
 10
0.0
 20
0.0
 30
0.0
  3
GROUP_14
  0
LINE
  8
240
  6
CONTINUOUS
 62
       7
  5
9A
 10
55.31703873
 20
-210.79990498
 30
0.0
 11
120.42116987
 21
-156.41880721
 31
0.0
  0
LINE
  8
240
  6
CONTINUOUS
 62
       7
  5
9B
 10
55.31703873
 20
-210.79990498
 30
0.0
 11
66.36698569
 21
-204.95621847
 31
0.0
  0
LINE
  8
240
  6
CONTINUOUS
 62
       7
  5
9C
 10
55.31703873
 20
-210.79990498
 30
0.0
 11
63.03482615
 21
-200.96701338
 31
0.0
  0
CIRCLE
  8
240
  6
CONTINUOUS
 62
       7
  5
9D
 10
137.20980951
 20
-142.39535528
 30
0.0
 40
21.875
  0
TEXT
  8
240
 62
       7
  5
9E
 10
129.20980951
 20
-152.39535528
 30
0.0
 40
20.0
  1
5
 41
0.8
 72
       5
 11
145.20980951
 21
-152.39535528
 31
0.0
  0
ENDBLK
  8
0
  5
9F
  0
BLOCK
  8
0
  5
A0
  2
GROUP_15
 70
       0
 10
0.0
 20
0.0
 30
0.0
  3
GROUP_15
  0
LINE
  8
240
  6
CONTINUOUS
 62
       7
  5
A1
 10
24.14319672
 20
-242.58513006
 30
0.0
 11
120.42116987
 21
-323.00555468
 31
0.0
  0
LINE
  8
240
  6
CONTINUOUS
 62
       7
  5
A2
 10
24.14319672
 20
-242.58513006
 30
0.0
 11
31.86098414
 21
-252.41802166
 31
0.0
  0
LINE
  8
240
  6
CONTINUOUS
 62
       7
  5
A3
 10
24.14319672
 20
-242.58513006
 30
0.0
 11
35.19314369
 21
-248.42881658
 31
0.0
  0
CIRCLE
  8
240
  6
CONTINUOUS
 62
       7
  5
A4
 10
137.20980951
 20
-337.02900661
 30
0.0
 40
21.875
  0
TEXT
  8
240
 62
       7
  5
A5
 10
129.20980951
 20
-347.02900661
 30
0.0
 40
20.0
  1
3
 41
0.8
 72
       5
 11
145.20980951
 21
-347.02900661
 31
0.0
  0
ENDBLK
  8
0
  5
A6
  0
BLOCK
  8
0
  5
A7
  2
GROUP_16
 70
       0
 10
0.0
 20
0.0
 30
0.0
  3
GROUP_16
  0
LINE
  8
240
  6
CONTINUOUS
 62
       7
  5
A8
 10
-15.18800541
 20
384.64355544
 30
0.0
 11
184.57549815
 21
496.27610155
 31
0.0
  0
LINE
  8
240
  6
CONTINUOUS
 62
       7
  5
A9
 10
-15.18800541
 20
384.64355544
 30
0.0
 11
-3.24686371
 21
388.33938213
 31
0.0
  0
LINE
  8
240
  6
CONTINUOUS
 62
       7
  5
AA
 10
-15.18800541
 20
384.64355544
 30
0.0
 11
-5.7824578
 21
392.87676102
 31
0.0
  0
CIRCLE
  8
240
  6
CONTINUOUS
 62
       7
  5
AB
 10
203.67113682
 20
506.94719375
 30
0.0
 40
21.875
  0
TEXT
  8
240
 62
       7
  5
AC
 10
195.67113682
 20
496.94719375
 30
0.0
 40
20.0
  1
4
 41
0.8
 72
       5
 11
211.67113682
 21
496.94719375
 31
0.0
  0
ENDBLK
  8
0
  5
AD
  0
BLOCK
  8
0
  5
AE
  2
GROUP_17
 70
       0
 10
0.0
 20
0.0
 30
0.0
  3
GROUP_17
  0
LINE
  8
0
  6
CONTINUOUS
 62
       7
  5
AF
 10
-375.55403019
 20
153.77032923
 30
0.0
 11
-375.55403019
 21
388.77032923
 31
0.0
  0
LINE
  8
0
  6
CONTINUOUS
 62
       7
  5
B0
 10
-375.55403019
 20
153.77032923
 30
0.0
 11
-372.95513406
 21
165.99717424
 31
0.0
  0
LINE
  8
0
  6
CONTINUOUS
 62
       7
  5
B1
 10
-375.55403019
 20
153.77032923
 30
0.0
 11
-378.15292633
 21
165.99717424
 31
0.0
  0
LINE
  8
0
  6
CONTINUOUS
 62
       7
  5
B2
 10
-375.55403019
 20
388.77032923
 30
0.0
 11
-378.15292633
 21
376.54348423
 31
0.0
  0
LINE
  8
0
  6
CONTINUOUS
 62
       7
  5
B3
 10
-375.55403019
 20
388.77032923
 30
0.0
 11
-372.95513406
 21
376.54348423
 31
0.0
  0
LINE
  8
0
  6
CONTINUOUS
 62
       7
  5
B4
 10
-168.30314572
 20
153.77032923
 30
0.0
 11
-379.55403019
 21
153.77032923
 31
0.0
  0
LINE
  8
0
  6
CONTINUOUS
 62
       7
  5
B5
 10
-55.15736674
 20
388.77032923
 30
0.0
 11
-379.55403019
 21
388.77032923
 31
0.0
  0
TEXT
  8
0
 62
       7
  5
B6
 10
-379.55403019
 20
232.47032923
 30
0.0
 40
20.0
  1
235
 50
90.00000154
 41
0.8
 72
       5
 11
-379.55403148
 21
280.47032923
 31
0.0
  0
ENDBLK
  8
0
  5
B7
  0
BLOCK
  8
0
  5
B8
  2
GROUP_18
 70
       0
 10
0.0
 20
0.0
 30
0.0
  3
GROUP_18
  0
LINE
  8
1
  6
CONTINUOUS
 62
       7
  5
B9
 10
-184.30814822
 20
574.20358357
 30
0.0
 11
145.69185178
 21
574.20358357
 31
0.0
  0
LINE
  8
1
  6
CONTINUOUS
 62
       7
  5
BA
 10
-184.30814822
 20
574.20358357
 30
0.0
 11
-172.08130321
 21
571.60468743
 31
0.0
  0
LINE
  8
1
  6
CONTINUOUS
 62
       7
  5
BB
 10
-184.30814822
 20
574.20358357
 30
0.0
 11
-172.08130321
 21
576.80247971
 31
0.0
  0
LINE
  8
1
  6
CONTINUOUS
 62
       7
  5
BC
 10
145.69185178
 20
574.20358357
 30
0.0
 11
133.46500677
 21
576.80247971
 31
0.0
  0
LINE
  8
1
  6
CONTINUOUS
 62
       7
  5
BD
 10
145.69185178
 20
574.20358357
 30
0.0
 11
133.46500677
 21
571.60468743
 31
0.0
  0
LINE
  8
1
  6
CONTINUOUS
 62
       7
  5
BE
 10
-184.30814822
 20
255.29104385
 30
0.0
 11
-184.30814822
 21
578.20358357
 31
0.0
  0
LINE
  8
1
  6
CONTINUOUS
 62
       7
  5
BF
 10
145.69185178
 20
255.29104385
 30
0.0
 11
145.69185178
 21
578.20358357
 31
0.0
  0
TEXT
  8
1
 62
       7
  5
C0
 10
-58.10814822
 20
578.20358357
 30
0.0
 40
20.0
  1
330
 41
0.8
 72
       5
 11
-10.10814822
 21
578.20358357
 31
0.0
  0
ENDBLK
  8
0
  5
C1
  0
ENDSEC
  0
SECTION
  2
ENTITIES
  0
TEXT
  8
240
 62
       7
  5
C2
 10
-425.56719227
 20
-600.24557361
 30
0.0
 40
20.0
  1
外箱
 41
0.8
 72
       5
 11
-393.56719227
 21
-600.24557361
 31
0.0
  0
TEXT
  8
240
 62
       7
  5
C3
 10
-192.75310058
 20
-600.24557361
 30
0.0
 40
20.0
  1
ＳＵＳ３０４
 41
0.7
 72
       5
 11
-108.75310058
 21
-600.24557361
 31
0.0
  0
TEXT
  8
240
 62
       7
  5
C4
 10
87.68280773
 20
-600.24557361
 30
0.0
 40
20.0
  1
１
 41
0.8
 72
       5
 11
103.68280773
 21
-600.24557361
 31
0.0
  0
TEXT
  8
240
 62
       7
  5
C5
 10
-425.56719227
 20
-575.24557361
 30
0.0
 40
20.0
  1
内箱
 41
0.8
 72
       5
 11
-393.56719227
 21
-575.24557361
 31
0.0
  0
TEXT
  8
240
 62
       7
  5
C6
 10
-192.75310058
 20
-575.24557361
 30
0.0
 40
20.0
  1
ＳＵＳ３０４
 41
0.7
 72
       5
 11
-108.75310058
 21
-575.24557361
 31
0.0
  0
TEXT
  8
240
 62
       7
  5
C7
 10
87.68280773
 20
-575.24557361
 30
0.0
 40
20.0
  1
１
 41
0.8
 72
       5
 11
103.68280773
 21
-575.24557361
 31
0.0
  0
TEXT
  8
240
 62
       7
  5
C8
 10
-425.56719227
 20
-550.24557361
 30
0.0
 40
20.0
  1
紙取出し口板
 41
0.8
 72
       5
 11
-329.56719227
 21
-550.24557361
 31
0.0
  0
TEXT
  8
240
 62
       7
  5
C9
 10
87.68280773
 20
-550.24557361
 30
0.0
 40
20.0
  1
１
 41
0.8
 72
       5
 11
103.68280773
 21
-550.24557361
 31
0.0
  0
TEXT
  8
240
 62
       7
  5
CA
 10
-425.56719227
 20
-525.24557361
 30
0.0
 40
20.0
  1
スプリング
 41
0.8
 72
       5
 11
-345.56719227
 21
-525.24557361
 31
0.0
  0
TEXT
  8
240
 62
       7
  5
CB
 10
-190.75310058
 20
-525.24557361
 30
0.0
 40
20.0
  1
ＳＵＳ３０４ＷＰ
 41
0.5
 72
       5
 11
-110.75310058
 21
-525.24557361
 31
0.0
  0
TEXT
  8
240
 62
       7
  5
CC
 10
87.68280773
 20
-525.24557361
 30
0.0
 40
20.0
  1
１
 41
0.8
 72
       5
 11
103.68280773
 21
-525.24557361
 31
0.0
  0
TEXT
  8
240
 62
       7
  5
CD
 10
-425.56719227
 20
-500.24557361
 30
0.0
 40
20.0
  1
ロックツマミ
 41
0.8
 72
       5
 11
-329.56719227
 21
-500.24557361
 31
0.0
  0
TEXT
  8
240
 62
       7
  5
CE
 10
87.68280773
 20
-500.24557361
 30
0.0
 40
20.0
  1
２
 41
0.8
 72
       5
 11
103.68280773
 21
-500.24557361
 31
0.0
  0
TEXT
  8
240
 62
       7
  5
CF
 10
-425.56719227
 20
-475.24557361
 30
0.0
 40
20.0
  1
取付ネジ ４×２０
 41
0.8
 72
       5
 11
-281.56719227
 21
-475.24557361
 31
0.0
  0
TEXT
  8
240
 62
       7
  5
D0
 10
-192.75310058
 20
-475.24557361
 30
0.0
 40
20.0
  1
ＳＵＳ３０４
 41
0.7
 72
       5
 11
-108.75310058
 21
-475.24557361
 31
0.0
  0
TEXT
  8
240
 62
       7
  5
D1
 10
87.68280773
 20
-475.24557361
 30
0.0
 40
20.0
  1
６
 41
0.8
 72
       5
 11
103.68280773
 21
-475.24557361
 31
0.0
  0
TEXT
  8
240
 62
       7
  5
D2
 10
128.49530773
 20
-500.24557361
 30
0.0
 40
20.0
  1
ホワイト
 41
0.8
 72
       5
 11
192.49530773
 21
-500.24557361
 31
0.0
  0
TEXT
  8
240
 62
       7
  5
D3
 10
128.49530773
 20
-475.24557361
 30
0.0
 40
20.0
  1
＋ナベタッピンネジ
 41
0.8
 72
       5
 11
272.49530773
 21
-475.24557361
 31
0.0
  0
TEXT
  8
240
 62
       7
  5
D4
 10
128.49530773
 20
-550.24557361
 30
0.0
 40
20.0
  1
ナチュラル色
 41
0.8
 72
       5
 11
224.49530773
 21
-550.24557361
 31
0.0
  0
TEXT
  8
240
 62
       7
  5
D5
 10
-190.75310058
 20
-500.24557361
 30
0.0
 40
20.0
  1
ＡＢＳ樹脂
 41
0.8
 72
       5
 11
-110.75310058
 21
-500.24557361
 31
0.0
  0
TEXT
  8
240
 62
       7
  5
D6
 10
-240.4560004
 20
685.92658355
 30
0.0
 40
30.0
  1
鏡裏ペーパータオルボックス
 41
0.8
 72
       5
 11
71.5439996
 21
685.92658355
 31
0.0
  0
TEXT
  8
240
 62
       7
  5
D7
 10
244.12030773
 20
685.92658355
 30
0.0
 40
30.0
  1
Ｒ２８３９
 41
0.8
 72
       5
 11
364.12030773
 21
685.92658355
 31
0.0
  0
TEXT
  8
240
 62
       7
  5
D8
 10
240.99530773
 20
-681.33932361
 30
0.0
 40
30.0
  1
R2839
 41
0.8
 72
       5
 11
360.99530773
 21
-681.33932361
 31
0.0
  0
TEXT
  8
240
 62
       7
  5
D9
 10
-182.59844227
 20
-681.33932361
 30
0.0
 40
30.0
  1
鏡裏ペーパータオルボックス
 41
0.75
 72
       5
 11
109.90155773
 21
-681.33932361
 31
0.0
  0
TEXT
  8
240
 62
       7
  5
DA
 10
-190.75310058
 20
-550.24557361
 30
0.0
 40
20.0
  1
ＡＢＳ樹脂
 41
0.8
 72
       5
 11
-110.75310058
 21
-550.24557361
 31
0.0
  0
TEXT
  8
240
 62
       7
  5
DB
 10
369.15780773
 20
-444.59285714
 30
0.0
 40
20.0
  1
受注生産品
 41
0.8
 72
       5
 11
449.15780773
 21
-444.59285714
 31
0.0
  0
TEXT
  8
240
 62
       7
  5
DC
 10
92.55780773
 20
-406.79285714
 30
0.0
 40
20.0
  1
※ 開口Ｈ２６０×Ｗ３６０×Ｄ１７０以上必要
 41
0.8
 72
       5
 11
444.55780773
 21
-406.79285714
 31
0.0
  0
LINE
  8
0
  6
CONTINUOUS
 62
       7
  5
DD
 10
-293.12969227
 20
-683.68307361
 30
0.0
 11
-290.31719227
 21
-675.87057361
 31
0.0
  0
LINE
  8
0
  6
CONTINUOUS
 62
       7
  5
DE
 10
-313.94219227
 20
-683.68307361
 30
0.0
 11
-309.56719227
 21
-671.80807361
 31
0.0
  0
LINE
  8
0
  6
CONTINUOUS
 62
       7
  5
DF
 10
-318.00469227
 20
-667.43307361
 30
0.0
 11
-319.56719227
 21
-671.80807361
 31
0.0
  0
LINE
  8
0
  6
CONTINUOUS
 62
       7
  5
E0
 10
-303.62969227
 20
-683.68307361
 30
0.0
 11
-298.94219227
 21
-669.93307361
 31
0.0
  0
LINE
  8
0
  6
CONTINUOUS
 62
       7
  5
E1
 10
-238.06719227
 20
-683.68307361
 30
0.0
 11
-243.37969227
 21
-674.93307361
 31
0.0
  0
LINE
  8
0
  6
CONTINUOUS
 62
       7
  5
E2
 10
-318.00469227
 20
-667.43307361
 30
0.0
 11
-312.06719227
 21
-667.43307361
 31
0.0
  0
LINE
  8
0
  6
CONTINUOUS
 62
       7
  5
E3
 10
-286.25469227
 20
-664.62057361
 30
0.0
 11
-275.94219227
 21
-664.62057361
 31
0.0
  0
LINE
  8
0
  6
CONTINUOUS
 62
       7
  5
E4
 10
-264.06719227
 20
-663.68307361
 30
0.0
 11
-260.94219227
 21
-663.68307361
 31
0.0
  0
LINE
  8
0
  6
CONTINUOUS
 62
       7
  5
E5
 10
-284.06719227
 20
-658.99557361
 30
0.0
 11
-286.25469227
 21
-664.62057361
 31
0.0
  0
LINE
  8
0
  6
CONTINUOUS
 62
       7
  5
E6
 10
-274.06719227
 20
-658.99557361
 30
0.0
 11
-275.94219227
 21
-664.62057361
 31
0.0
  0
LINE
  8
0
  6
CONTINUOUS
 62
       7
  5
E7
 10
-313.94219227
 20
-683.68307361
 30
0.0
 11
-303.62969227
 21
-683.68307361
 31
0.0
  0
LINE
  8
0
  6
CONTINUOUS
 62
       7
  5
E8
 10
-298.00469227
 20
-658.99557361
 30
0.0
 11
-286.44219227
 21
-658.99557361
 31
0.0
  0
LINE
  8
0
  6
CONTINUOUS
 62
       7
  5
E9
 10
-247.03006406
 20
-664.62057361
 30
0.0
 11
-258.06719227
 21
-664.62057361
 31
0.0
  0
LINE
  8
0
  6
CONTINUOUS
 62
       7
  5
EA
 10
-234.94219227
 20
-658.99557361
 30
0.0
 11
-256.19219227
 21
-658.99557361
 31
0.0
  0
LINE
  8
0
  6
CONTINUOUS
 62
       7
  5
EB
 10
-319.56719227
 20
-671.80807361
 30
0.0
 11
-309.56719227
 21
-671.80807361
 31
0.0
  0
LINE
  8
0
  6
CONTINUOUS
 62
       7
  5
EC
 10
-293.12969227
 20
-683.68307361
 30
0.0
 11
-276.56719227
 21
-683.68307361
 31
0.0
  0
LINE
  8
0
  6
CONTINUOUS
 62
       7
  5
ED
 10
-290.31719227
 20
-675.87057361
 30
0.0
 11
-275.31719227
 21
-675.87057361
 31
0.0
  0
LINE
  8
0
  6
CONTINUOUS
 62
       7
  5
EE
 10
-238.06719227
 20
-683.68307361
 30
0.0
 11
-245.87969227
 21
-683.68307361
 31
0.0
  0
LINE
  8
0
  6
CONTINUOUS
 62
       7
  5
EF
 10
-258.06719227
 20
-664.62057361
 30
0.0
 11
-256.19219227
 21
-658.99557361
 31
0.0
  0
LINE
  8
0
  6
CONTINUOUS
 62
       7
  5
F0
 10
-366.75469227
 20
-658.99557361
 30
0.0
 11
-372.06719227
 21
-673.99557361
 31
0.0
  0
LINE
  8
0
  6
CONTINUOUS
 62
       7
  5
F1
 10
-372.06719227
 20
-673.99557361
 30
0.0
 11
-364.87969227
 21
-673.99557361
 31
0.0
  0
LINE
  8
0
  6
CONTINUOUS
 62
       7
  5
F2
 10
-364.87969227
 20
-673.99557361
 30
0.0
 11
-359.25469227
 21
-658.99557361
 31
0.0
  0
LINE
  8
0
  6
CONTINUOUS
 62
       7
  5
F3
 10
-359.25469227
 20
-658.99557361
 30
0.0
 11
-366.75469227
 21
-658.99557361
 31
0.0
  0
LINE
  8
0
  6
CONTINUOUS
 62
       7
  5
F4
 10
-271.56719227
 20
-673.99557361
 30
0.0
 11
-268.12969227
 21
-671.18307361
 31
0.0
  0
LINE
  8
0
  6
CONTINUOUS
 62
       7
  5
F5
 10
-268.12969227
 20
-671.18307361
 30
0.0
 11
-265.62969227
 21
-667.74557361
 31
0.0
  0
LINE
  8
0
  6
CONTINUOUS
 62
       7
  5
F6
 10
-265.62969227
 20
-667.74557361
 30
0.0
 11
-264.06719227
 21
-663.68307361
 31
0.0
  0
LINE
  8
0
  6
CONTINUOUS
 62
       7
  5
F7
 10
-341.06719227
 20
-658.99557361
 30
0.0
 11
-318.25469227
 21
-658.99557361
 31
0.0
  0
LINE
  8
0
  6
CONTINUOUS
 62
       7
  5
F8
 10
-318.25469227
 20
-658.99557361
 30
0.0
 11
-320.12969227
 21
-664.62057361
 31
0.0
  0
LINE
  8
0
  6
CONTINUOUS
 62
       7
  5
F9
 10
-318.25469227
 20
-658.99557361
 30
0.0
 11
-320.12969227
 21
-664.62057361
 31
0.0
  0
LINE
  8
0
  6
CONTINUOUS
 62
       7
  5
FA
 10
-320.12969227
 20
-664.62057361
 30
0.0
 11
-342.94219227
 21
-664.62057361
 31
0.0
  0
LINE
  8
0
  6
CONTINUOUS
 62
       7
  5
FB
 10
-342.94219227
 20
-664.62057361
 30
0.0
 11
-341.06719227
 21
-658.99557361
 31
0.0
  0
LINE
  8
0
  6
CONTINUOUS
 62
       7
  5
FC
 10
-342.94219227
 20
-664.62057361
 30
0.0
 11
-341.06719227
 21
-658.99557361
 31
0.0
  0
LINE
  8
0
  6
CONTINUOUS
 62
       7
  5
FD
 10
-318.25469227
 20
-658.99557361
 30
0.0
 11
-341.06719227
 21
-658.99557361
 31
0.0
  0
LINE
  8
0
  6
CONTINUOUS
 62
       7
  5
FE
 10
-341.06719227
 20
-658.99557361
 30
0.0
 11
-342.94219227
 21
-664.62057361
 31
0.0
  0
LINE
  8
0
  6
CONTINUOUS
 62
       7
  5
FF
 10
-342.94219227
 20
-664.62057361
 30
0.0
 11
-320.12969227
 21
-664.62057361
 31
0.0
  0
LINE
  8
0
  6
CONTINUOUS
 62
       7
  5
100
 10
-331.37969227
 20
-683.05807361
 30
0.0
 11
-328.87969227
 21
-681.80807361
 31
0.0
  0
LINE
  8
0
  6
CONTINUOUS
 62
       7
  5
101
 10
-328.87969227
 20
-681.80807361
 30
0.0
 11
-327.00469227
 21
-679.93307361
 31
0.0
  0
LINE
  8
0
  6
CONTINUOUS
 62
       7
  5
102
 10
-327.00469227
 20
-679.93307361
 30
0.0
 11
-324.81719227
 21
-677.74557361
 31
0.0
  0
LINE
  8
0
  6
CONTINUOUS
 62
       7
  5
103
 10
-324.81719227
 20
-677.74557361
 30
0.0
 11
-321.06719227
 21
-667.43307361
 31
0.0
  0
LINE
  8
0
  6
CONTINUOUS
 62
       7
  5
104
 10
-321.06719227
 20
-667.43307361
 30
0.0
 11
-343.56719227
 21
-667.43307361
 31
0.0
  0
LINE
  8
0
  6
CONTINUOUS
 62
       7
  5
105
 10
-343.56719227
 20
-667.43307361
 30
0.0
 11
-344.81719227
 21
-671.80807361
 31
0.0
  0
LINE
  8
0
  6
CONTINUOUS
 62
       7
  5
106
 10
-344.81719227
 20
-671.80807361
 30
0.0
 11
-331.69219227
 21
-671.80807361
 31
0.0
  0
LINE
  8
0
  6
CONTINUOUS
 62
       7
  5
107
 10
-331.69219227
 20
-671.80807361
 30
0.0
 11
-332.31719227
 21
-673.99557361
 31
0.0
  0
LINE
  8
0
  6
CONTINUOUS
 62
       7
  5
108
 10
-332.31719227
 20
-673.99557361
 30
0.0
 11
-333.87969227
 21
-675.87057361
 31
0.0
  0
LINE
  8
0
  6
CONTINUOUS
 62
       7
  5
109
 10
-333.87969227
 20
-675.87057361
 30
0.0
 11
-335.44219227
 21
-677.43307361
 31
0.0
  0
LINE
  8
0
  6
CONTINUOUS
 62
       7
  5
10A
 10
-335.44219227
 20
-677.43307361
 30
0.0
 11
-337.62969227
 21
-678.99557361
 31
0.0
  0
LINE
  8
0
  6
CONTINUOUS
 62
       7
  5
10B
 10
-337.62969227
 20
-678.99557361
 30
0.0
 11
-347.94219227
 21
-678.99557361
 31
0.0
  0
LINE
  8
0
  6
CONTINUOUS
 62
       7
  5
10C
 10
-347.94219227
 20
-678.99557361
 30
0.0
 11
-349.81719227
 21
-683.68307361
 31
0.0
  0
LINE
  8
0
  6
CONTINUOUS
 62
       7
  5
10D
 10
-369.87969227
 20
-683.68307361
 30
0.0
 11
-368.31719227
 21
-678.99557361
 31
0.0
  0
LINE
  8
0
  6
CONTINUOUS
 62
       7
  5
10E
 10
-368.31719227
 20
-678.99557361
 30
0.0
 11
-365.50469227
 21
-678.99557361
 31
0.0
  0
LINE
  8
0
  6
CONTINUOUS
 62
       7
  5
10F
 10
-365.50469227
 20
-678.99557361
 30
0.0
 11
-363.00469227
 21
-678.68307361
 31
0.0
  0
LINE
  8
0
  6
CONTINUOUS
 62
       7
  5
110
 10
-363.00469227
 20
-678.68307361
 30
0.0
 11
-360.50469227
 21
-677.43307361
 31
0.0
  0
LINE
  8
0
  6
CONTINUOUS
 62
       7
  5
111
 10
-360.50469227
 20
-677.43307361
 30
0.0
 11
-358.94219227
 21
-674.93307361
 31
0.0
  0
LINE
  8
0
  6
CONTINUOUS
 62
       7
  5
112
 10
-358.94219227
 20
-674.93307361
 30
0.0
 11
-353.00469227
 21
-658.99557361
 31
0.0
  0
LINE
  8
0
  6
CONTINUOUS
 62
       7
  5
113
 10
-353.00469227
 20
-658.99557361
 30
0.0
 11
-344.56719227
 21
-658.99557361
 31
0.0
  0
LINE
  8
0
  6
CONTINUOUS
 62
       7
  5
114
 10
-344.56719227
 20
-658.99557361
 30
0.0
 11
-350.81719227
 21
-677.43307361
 31
0.0
  0
LINE
  8
0
  6
CONTINUOUS
 62
       7
  5
115
 10
-350.81719227
 20
-677.43307361
 30
0.0
 11
-353.31719227
 21
-679.93307361
 31
0.0
  0
LINE
  8
0
  6
CONTINUOUS
 62
       7
  5
116
 10
-353.31719227
 20
-679.93307361
 30
0.0
 11
-355.81719227
 21
-682.12057361
 31
0.0
  0
LINE
  8
0
  6
CONTINUOUS
 62
       7
  5
117
 10
-355.81719227
 20
-682.12057361
 30
0.0
 11
-358.94219227
 21
-683.37057361
 31
0.0
  0
LINE
  8
0
  6
CONTINUOUS
 62
       7
  5
118
 10
-286.44219227
 20
-658.99557361
 30
0.0
 11
-288.31719227
 21
-663.05807361
 31
0.0
  0
LINE
  8
0
  6
CONTINUOUS
 62
       7
  5
119
 10
-288.31719227
 20
-663.05807361
 30
0.0
 11
-291.44219227
 21
-666.18307361
 31
0.0
  0
LINE
  8
0
  6
CONTINUOUS
 62
       7
  5
11A
 10
-288.31719227
 20
-663.05807361
 30
0.0
 11
-291.44219227
 21
-666.18307361
 31
0.0
  0
LINE
  8
0
  6
CONTINUOUS
 62
       7
  5
11B
 10
-291.44219227
 20
-666.18307361
 30
0.0
 11
-294.87969227
 21
-668.68307361
 31
0.0
  0
LINE
  8
0
  6
CONTINUOUS
 62
       7
  5
11C
 10
-294.87969227
 20
-668.68307361
 30
0.0
 11
-298.94219227
 21
-669.93307361
 31
0.0
  0
LINE
  8
0
  6
CONTINUOUS
 62
       7
  5
11D
 10
-294.87969227
 20
-668.68307361
 30
0.0
 11
-298.94219227
 21
-669.93307361
 31
0.0
  0
LINE
  8
0
  6
CONTINUOUS
 62
       7
  5
11E
 10
-298.94219227
 20
-669.93307361
 30
0.0
 11
-303.62969227
 21
-683.68307361
 31
0.0
  0
LINE
  8
0
  6
CONTINUOUS
 62
       7
  5
11F
 10
-303.62969227
 20
-683.68307361
 30
0.0
 11
-313.94219227
 21
-683.68307361
 31
0.0
  0
LINE
  8
0
  6
CONTINUOUS
 62
       7
  5
120
 10
-303.62969227
 20
-683.68307361
 30
0.0
 11
-313.94219227
 21
-683.68307361
 31
0.0
  0
LINE
  8
0
  6
CONTINUOUS
 62
       7
  5
121
 10
-310.06719227
 20
-671.80807361
 30
0.0
 11
-319.56719227
 21
-671.80807361
 31
0.0
  0
LINE
  8
0
  6
CONTINUOUS
 62
       7
  5
122
 10
-319.56719227
 20
-671.80807361
 30
0.0
 11
-318.00469227
 21
-667.43307361
 31
0.0
  0
LINE
  8
0
  6
CONTINUOUS
 62
       7
  5
123
 10
-313.94219227
 20
-683.68307361
 30
0.0
 11
-309.56719227
 21
-671.80807361
 31
0.0
  0
LINE
  8
0
  6
CONTINUOUS
 62
       7
  5
124
 10
-313.94219227
 20
-683.68307361
 30
0.0
 11
-309.56719227
 21
-671.80807361
 31
0.0
  0
LINE
  8
0
  6
CONTINUOUS
 62
       7
  5
125
 10
-318.00469227
 20
-667.43307361
 30
0.0
 11
-312.06719227
 21
-667.43307361
 31
0.0
  0
LINE
  8
0
  6
CONTINUOUS
 62
       7
  5
126
 10
-318.00469227
 20
-667.43307361
 30
0.0
 11
-312.06719227
 21
-667.43307361
 31
0.0
  0
LINE
  8
0
  6
CONTINUOUS
 62
       7
  5
127
 10
-312.06719227
 20
-667.43307361
 30
0.0
 11
-308.00469227
 21
-667.12057361
 31
0.0
  0
LINE
  8
0
  6
CONTINUOUS
 62
       7
  5
128
 10
-312.06719227
 20
-667.43307361
 30
0.0
 11
-308.00469227
 21
-667.12057361
 31
0.0
  0
LINE
  8
0
  6
CONTINUOUS
 62
       7
  5
129
 10
-308.00469227
 20
-667.12057361
 30
0.0
 11
-303.62969227
 21
-665.24557361
 31
0.0
  0
LINE
  8
0
  6
CONTINUOUS
 62
       7
  5
12A
 10
-308.00469227
 20
-667.12057361
 30
0.0
 11
-303.62969227
 21
-665.24557361
 31
0.0
  0
LINE
  8
0
  6
CONTINUOUS
 62
       7
  5
12B
 10
-303.62969227
 20
-665.24557361
 30
0.0
 11
-300.50469227
 21
-662.43307361
 31
0.0
  0
LINE
  8
0
  6
CONTINUOUS
 62
       7
  5
12C
 10
-303.62969227
 20
-665.24557361
 30
0.0
 11
-300.50469227
 21
-662.43307361
 31
0.0
  0
LINE
  8
0
  6
CONTINUOUS
 62
       7
  5
12D
 10
-359.25469227
 20
-658.99557361
 30
0.0
 11
-364.87969227
 21
-673.99557361
 31
0.0
  0
LINE
  8
0
  6
CONTINUOUS
 62
       7
  5
12E
 10
-364.87969227
 20
-673.99557361
 30
0.0
 11
-372.06719227
 21
-673.99557361
 31
0.0
  0
LINE
  8
0
  6
CONTINUOUS
 62
       7
  5
12F
 10
-364.87969227
 20
-673.99557361
 30
0.0
 11
-372.06719227
 21
-673.99557361
 31
0.0
  0
LINE
  8
0
  6
CONTINUOUS
 62
       7
  5
130
 10
-372.06719227
 20
-673.99557361
 30
0.0
 11
-366.75469227
 21
-658.99557361
 31
0.0
  0
LINE
  8
0
  6
CONTINUOUS
 62
       7
  5
131
 10
-366.75469227
 20
-658.99557361
 30
0.0
 11
-359.25469227
 21
-658.99557361
 31
0.0
  0
LINE
  8
0
  6
CONTINUOUS
 62
       7
  5
132
 10
-366.75469227
 20
-658.99557361
 30
0.0
 11
-359.25469227
 21
-658.99557361
 31
0.0
  0
LINE
  8
0
  6
CONTINUOUS
 62
       7
  5
133
 10
-256.19219227
 20
-658.99557361
 30
0.0
 11
-258.06719227
 21
-664.62057361
 31
0.0
  0
LINE
  8
0
  6
CONTINUOUS
 62
       7
  5
134
 10
-258.06719227
 20
-664.62057361
 30
0.0
 11
-248.06719227
 21
-664.62057361
 31
0.0
  0
LINE
  8
0
  6
CONTINUOUS
 62
       7
  5
135
 10
-258.06719227
 20
-664.62057361
 30
0.0
 11
-248.06719227
 21
-664.62057361
 31
0.0
  0
LINE
  8
0
  6
CONTINUOUS
 62
       7
  5
136
 10
-264.94219227
 20
-678.68307361
 30
0.0
 11
-266.81719227
 21
-683.99557361
 31
0.0
  0
LINE
  8
0
  6
CONTINUOUS
 62
       7
  5
137
 10
-264.94219227
 20
-678.68307361
 30
0.0
 11
-266.81719227
 21
-683.99557361
 31
0.0
  0
LINE
  8
0
  6
CONTINUOUS
 62
       7
  5
138
 10
-266.81719227
 20
-683.99557361
 30
0.0
 11
-257.44219227
 21
-682.43307361
 31
0.0
  0
LINE
  8
0
  6
CONTINUOUS
 62
       7
  5
139
 10
-257.44219227
 20
-682.43307361
 30
0.0
 11
-253.06719227
 21
-681.18307361
 31
0.0
  0
LINE
  8
0
  6
CONTINUOUS
 62
       7
  5
13A
 10
-257.44219227
 20
-682.43307361
 30
0.0
 11
-253.06719227
 21
-681.18307361
 31
0.0
  0
LINE
  8
0
  6
CONTINUOUS
 62
       7
  5
13B
 10
-248.37969227
 20
-679.62057361
 30
0.0
 11
-245.87969227
 21
-683.68307361
 31
0.0
  0
LINE
  8
0
  6
CONTINUOUS
 62
       7
  5
13C
 10
-245.87969227
 20
-683.68307361
 30
0.0
 11
-238.06719227
 21
-683.68307361
 31
0.0
  0
LINE
  8
0
  6
CONTINUOUS
 62
       7
  5
13D
 10
-245.87969227
 20
-683.68307361
 30
0.0
 11
-238.06719227
 21
-683.68307361
 31
0.0
  0
LINE
  8
0
  6
CONTINUOUS
 62
       7
  5
13E
 10
-243.37969227
 20
-674.93307361
 30
0.0
 11
-240.56719227
 21
-671.18307361
 31
0.0
  0
LINE
  8
0
  6
CONTINUOUS
 62
       7
  5
13F
 10
-240.56719227
 20
-671.18307361
 30
0.0
 11
-238.06719227
 21
-667.43307361
 31
0.0
  0
LINE
  8
0
  6
CONTINUOUS
 62
       7
  5
140
 10
-238.06719227
 20
-667.43307361
 30
0.0
 11
-236.19219227
 21
-663.37057361
 31
0.0
  0
LINE
  8
0
  6
CONTINUOUS
 62
       7
  5
141
 10
-236.19219227
 20
-663.37057361
 30
0.0
 11
-234.94219227
 21
-658.99557361
 31
0.0
  0
LINE
  8
0
  6
CONTINUOUS
 62
       7
  5
142
 10
-236.19219227
 20
-663.37057361
 30
0.0
 11
-234.94219227
 21
-658.99557361
 31
0.0
  0
LINE
  8
0
  6
CONTINUOUS
 62
       7
  5
143
 10
-234.94219227
 20
-658.99557361
 30
0.0
 11
-256.19219227
 21
-658.99557361
 31
0.0
  0
LINE
  8
0
  6
CONTINUOUS
 62
       7
  5
144
 10
-254.00469227
 20
-674.62057361
 30
0.0
 11
-259.00469227
 21
-677.43307361
 31
0.0
  0
LINE
  8
0
  6
CONTINUOUS
 62
       7
  5
145
 10
-253.06719227
 20
-681.18307361
 30
0.0
 11
-248.37969227
 21
-679.62057361
 31
0.0
  0
LINE
  8
0
  6
CONTINUOUS
 62
       7
  5
146
 10
-253.06719227
 20
-681.18307361
 30
0.0
 11
-248.37969227
 21
-679.62057361
 31
0.0
  0
LINE
  8
0
  6
CONTINUOUS
 62
       7
  5
147
 10
-238.06719227
 20
-683.68307361
 30
0.0
 11
-243.37969227
 21
-674.93307361
 31
0.0
  0
LINE
  8
0
  6
CONTINUOUS
 62
       7
  5
148
 10
-238.06719227
 20
-683.68307361
 30
0.0
 11
-243.37969227
 21
-674.93307361
 31
0.0
  0
LINE
  8
0
  6
CONTINUOUS
 62
       7
  5
149
 10
-249.94219227
 20
-669.93307361
 30
0.0
 11
-254.00469227
 21
-674.62057361
 31
0.0
  0
LINE
  8
0
  6
CONTINUOUS
 62
       7
  5
14A
 10
-249.94219227
 20
-669.93307361
 30
0.0
 11
-254.00469227
 21
-674.62057361
 31
0.0
  0
LINE
  8
0
  6
CONTINUOUS
 62
       7
  5
14B
 10
-312.06719227
 20
-667.43307361
 30
0.0
 11
-308.00469227
 21
-667.12057361
 31
0.0
  0
LINE
  8
0
  6
CONTINUOUS
 62
       7
  5
14C
 10
-308.00469227
 20
-667.12057361
 30
0.0
 11
-303.62969227
 21
-665.24557361
 31
0.0
  0
LINE
  8
0
  6
CONTINUOUS
 62
       7
  5
14D
 10
-303.62969227
 20
-665.24557361
 30
0.0
 11
-300.50469227
 21
-662.43307361
 31
0.0
  0
LINE
  8
0
  6
CONTINUOUS
 62
       7
  5
14E
 10
-300.50469227
 20
-662.43307361
 30
0.0
 11
-298.00469227
 21
-658.99557361
 31
0.0
  0
LINE
  8
0
  6
CONTINUOUS
 62
       7
  5
14F
 10
-276.56719227
 20
-683.68307361
 30
0.0
 11
-270.94219227
 21
-681.18307361
 31
0.0
  0
LINE
  8
0
  6
CONTINUOUS
 62
       7
  5
150
 10
-270.94219227
 20
-681.18307361
 30
0.0
 11
-265.94219227
 21
-676.49557361
 31
0.0
  0
LINE
  8
0
  6
CONTINUOUS
 62
       7
  5
151
 10
-265.94219227
 20
-676.49557361
 30
0.0
 11
-262.19219227
 21
-670.24557361
 31
0.0
  0
LINE
  8
0
  6
CONTINUOUS
 62
       7
  5
152
 10
-262.19219227
 20
-670.24557361
 30
0.0
 11
-260.94219227
 21
-663.68307361
 31
0.0
  0
LINE
  8
0
  6
CONTINUOUS
 62
       7
  5
153
 10
-264.94219227
 20
-678.68307361
 30
0.0
 11
-259.00469227
 21
-677.43307361
 31
0.0
  0
LINE
  8
0
  6
CONTINUOUS
 62
       7
  5
154
 10
-259.00469227
 20
-677.43307361
 30
0.0
 11
-254.00469227
 21
-674.62057361
 31
0.0
  0
LINE
  8
0
  6
CONTINUOUS
 62
       7
  5
155
 10
-254.00469227
 20
-674.62057361
 30
0.0
 11
-249.94219227
 21
-669.93307361
 31
0.0
  0
LINE
  8
0
  6
CONTINUOUS
 62
       7
  5
156
 10
-298.94219227
 20
-669.93307361
 30
0.0
 11
-294.87969227
 21
-668.68307361
 31
0.0
  0
LINE
  8
0
  6
CONTINUOUS
 62
       7
  5
157
 10
-294.87969227
 20
-668.68307361
 30
0.0
 11
-291.44219227
 21
-666.18307361
 31
0.0
  0
LINE
  8
0
  6
CONTINUOUS
 62
       7
  5
158
 10
-291.44219227
 20
-666.18307361
 30
0.0
 11
-288.31719227
 21
-663.05807361
 31
0.0
  0
LINE
  8
0
  6
CONTINUOUS
 62
       7
  5
159
 10
-288.31719227
 20
-663.05807361
 30
0.0
 11
-286.44219227
 21
-658.99557361
 31
0.0
  0
LINE
  8
0
  6
CONTINUOUS
 62
       7
  5
15A
 10
-243.37969227
 20
-674.93307361
 30
0.0
 11
-240.56719227
 21
-671.18307361
 31
0.0
  0
LINE
  8
0
  6
CONTINUOUS
 62
       7
  5
15B
 10
-240.56719227
 20
-671.18307361
 30
0.0
 11
-238.06719227
 21
-667.43307361
 31
0.0
  0
LINE
  8
0
  6
CONTINUOUS
 62
       7
  5
15C
 10
-238.06719227
 20
-667.43307361
 30
0.0
 11
-236.19219227
 21
-663.37057361
 31
0.0
  0
LINE
  8
0
  6
CONTINUOUS
 62
       7
  5
15D
 10
-236.19219227
 20
-663.37057361
 30
0.0
 11
-234.94219227
 21
-658.99557361
 31
0.0
  0
LINE
  8
0
  6
CONTINUOUS
 62
       7
  5
15E
 10
-257.44219227
 20
-682.43307361
 30
0.0
 11
-253.06719227
 21
-681.18307361
 31
0.0
  0
LINE
  8
0
  6
CONTINUOUS
 62
       7
  5
15F
 10
-253.06719227
 20
-681.18307361
 30
0.0
 11
-248.37969227
 21
-679.62057361
 31
0.0
  0
LINE
  8
0
  6
CONTINUOUS
 62
       7
  5
160
 10
-265.62969227
 20
-667.74557361
 30
0.0
 11
-264.06719227
 21
-663.68307361
 31
0.0
  0
LINE
  8
0
  6
CONTINUOUS
 62
       7
  5
161
 10
-264.06719227
 20
-663.68307361
 30
0.0
 11
-260.94219227
 21
-663.68307361
 31
0.0
  0
LINE
  8
0
  6
CONTINUOUS
 62
       7
  5
162
 10
-264.06719227
 20
-663.68307361
 30
0.0
 11
-260.94219227
 21
-663.68307361
 31
0.0
  0
LINE
  8
0
  6
CONTINUOUS
 62
       7
  5
163
 10
-260.94219227
 20
-663.68307361
 30
0.0
 11
-262.19219227
 21
-670.24557361
 31
0.0
  0
LINE
  8
0
  6
CONTINUOUS
 62
       7
  5
164
 10
-262.19219227
 20
-670.24557361
 30
0.0
 11
-265.94219227
 21
-676.49557361
 31
0.0
  0
LINE
  8
0
  6
CONTINUOUS
 62
       7
  5
165
 10
-262.19219227
 20
-670.24557361
 30
0.0
 11
-265.94219227
 21
-676.49557361
 31
0.0
  0
LINE
  8
0
  6
CONTINUOUS
 62
       7
  5
166
 10
-265.94219227
 20
-676.49557361
 30
0.0
 11
-270.94219227
 21
-681.18307361
 31
0.0
  0
LINE
  8
0
  6
CONTINUOUS
 62
       7
  5
167
 10
-277.19219227
 20
-683.68307361
 30
0.0
 11
-293.12969227
 21
-683.68307361
 31
0.0
  0
LINE
  8
0
  6
CONTINUOUS
 62
       7
  5
168
 10
-293.12969227
 20
-683.68307361
 30
0.0
 11
-290.31719227
 21
-675.87057361
 31
0.0
  0
LINE
  8
0
  6
CONTINUOUS
 62
       7
  5
169
 10
-293.12969227
 20
-683.68307361
 30
0.0
 11
-290.31719227
 21
-675.87057361
 31
0.0
  0
LINE
  8
0
  6
CONTINUOUS
 62
       7
  5
16A
 10
-268.12969227
 20
-671.18307361
 30
0.0
 11
-265.62969227
 21
-667.74557361
 31
0.0
  0
LINE
  8
0
  6
CONTINUOUS
 62
       7
  5
16B
 10
-290.31719227
 20
-675.87057361
 30
0.0
 11
-275.31719227
 21
-675.87057361
 31
0.0
  0
LINE
  8
0
  6
CONTINUOUS
 62
       7
  5
16C
 10
-290.31719227
 20
-675.87057361
 30
0.0
 11
-275.31719227
 21
-675.87057361
 31
0.0
  0
LINE
  8
0
  6
CONTINUOUS
 62
       7
  5
16D
 10
-275.31719227
 20
-675.87057361
 30
0.0
 11
-271.56719227
 21
-673.99557361
 31
0.0
  0
LINE
  8
0
  6
CONTINUOUS
 62
       7
  5
16E
 10
-275.31719227
 20
-675.87057361
 30
0.0
 11
-271.56719227
 21
-673.99557361
 31
0.0
  0
LINE
  8
0
  6
CONTINUOUS
 62
       7
  5
16F
 10
-271.56719227
 20
-673.99557361
 30
0.0
 11
-268.12969227
 21
-671.18307361
 31
0.0
  0
LINE
  8
0
  6
CONTINUOUS
 62
       7
  5
170
 10
-321.06719227
 20
-667.43307361
 30
0.0
 11
-324.81719227
 21
-677.74557361
 31
0.0
  0
LINE
  8
0
  6
CONTINUOUS
 62
       7
  5
171
 10
-324.81719227
 20
-677.74557361
 30
0.0
 11
-327.00469227
 21
-679.93307361
 31
0.0
  0
LINE
  8
0
  6
CONTINUOUS
 62
       7
  5
172
 10
-324.81719227
 20
-677.74557361
 30
0.0
 11
-327.00469227
 21
-679.93307361
 31
0.0
  0
LINE
  8
0
  6
CONTINUOUS
 62
       7
  5
173
 10
-327.00469227
 20
-679.93307361
 30
0.0
 11
-328.87969227
 21
-681.80807361
 31
0.0
  0
LINE
  8
0
  6
CONTINUOUS
 62
       7
  5
174
 10
-328.87969227
 20
-681.80807361
 30
0.0
 11
-331.37969227
 21
-683.05807361
 31
0.0
  0
LINE
  8
0
  6
CONTINUOUS
 62
       7
  5
175
 10
-328.87969227
 20
-681.80807361
 30
0.0
 11
-331.37969227
 21
-683.05807361
 31
0.0
  0
LINE
  8
0
  6
CONTINUOUS
 62
       7
  5
176
 10
-331.37969227
 20
-683.05807361
 30
0.0
 11
-333.87969227
 21
-683.68307361
 31
0.0
  0
LINE
  8
0
  6
CONTINUOUS
 62
       7
  5
177
 10
-333.87969227
 20
-683.68307361
 30
0.0
 11
-349.81719227
 21
-683.68307361
 31
0.0
  0
LINE
  8
0
  6
CONTINUOUS
 62
       7
  5
178
 10
-333.87969227
 20
-683.68307361
 30
0.0
 11
-349.81719227
 21
-683.68307361
 31
0.0
  0
LINE
  8
0
  6
CONTINUOUS
 62
       7
  5
179
 10
-349.81719227
 20
-683.68307361
 30
0.0
 11
-347.94219227
 21
-678.99557361
 31
0.0
  0
LINE
  8
0
  6
CONTINUOUS
 62
       7
  5
17A
 10
-347.94219227
 20
-678.99557361
 30
0.0
 11
-337.62969227
 21
-678.99557361
 31
0.0
  0
LINE
  8
0
  6
CONTINUOUS
 62
       7
  5
17B
 10
-347.94219227
 20
-678.99557361
 30
0.0
 11
-337.62969227
 21
-678.99557361
 31
0.0
  0
LINE
  8
0
  6
CONTINUOUS
 62
       7
  5
17C
 10
-331.69219227
 20
-671.80807361
 30
0.0
 11
-344.81719227
 21
-671.80807361
 31
0.0
  0
LINE
  8
0
  6
CONTINUOUS
 62
       7
  5
17D
 10
-344.81719227
 20
-671.80807361
 30
0.0
 11
-343.56719227
 21
-667.43307361
 31
0.0
  0
LINE
  8
0
  6
CONTINUOUS
 62
       7
  5
17E
 10
-344.81719227
 20
-671.80807361
 30
0.0
 11
-343.56719227
 21
-667.43307361
 31
0.0
  0
LINE
  8
0
  6
CONTINUOUS
 62
       7
  5
17F
 10
-337.62969227
 20
-678.99557361
 30
0.0
 11
-335.44219227
 21
-677.43307361
 31
0.0
  0
LINE
  8
0
  6
CONTINUOUS
 62
       7
  5
180
 10
-337.62969227
 20
-678.99557361
 30
0.0
 11
-335.44219227
 21
-677.43307361
 31
0.0
  0
LINE
  8
0
  6
CONTINUOUS
 62
       7
  5
181
 10
-335.44219227
 20
-677.43307361
 30
0.0
 11
-333.87969227
 21
-675.87057361
 31
0.0
  0
LINE
  8
0
  6
CONTINUOUS
 62
       7
  5
182
 10
-335.44219227
 20
-677.43307361
 30
0.0
 11
-333.87969227
 21
-675.87057361
 31
0.0
  0
LINE
  8
0
  6
CONTINUOUS
 62
       7
  5
183
 10
-333.87969227
 20
-675.87057361
 30
0.0
 11
-332.31719227
 21
-673.99557361
 31
0.0
  0
LINE
  8
0
  6
CONTINUOUS
 62
       7
  5
184
 10
-333.87969227
 20
-675.87057361
 30
0.0
 11
-332.31719227
 21
-673.99557361
 31
0.0
  0
LINE
  8
0
  6
CONTINUOUS
 62
       7
  5
185
 10
-332.31719227
 20
-673.99557361
 30
0.0
 11
-331.69219227
 21
-671.80807361
 31
0.0
  0
LINE
  8
0
  6
CONTINUOUS
 62
       7
  5
186
 10
-332.31719227
 20
-673.99557361
 30
0.0
 11
-331.69219227
 21
-671.80807361
 31
0.0
  0
LINE
  8
0
  6
CONTINUOUS
 62
       7
  5
187
 10
-352.00469227
 20
-658.99557361
 30
0.0
 11
-345.13217358
 21
-658.99557361
 31
0.0
  0
LINE
  8
0
  6
CONTINUOUS
 62
       7
  5
188
 10
-350.81719227
 20
-677.43307361
 30
0.0
 11
-353.31719227
 21
-679.93307361
 31
0.0
  0
LINE
  8
0
  6
CONTINUOUS
 62
       7
  5
189
 10
-353.31719227
 20
-679.93307361
 30
0.0
 11
-355.81719227
 21
-682.12057361
 31
0.0
  0
LINE
  8
0
  6
CONTINUOUS
 62
       7
  5
18A
 10
-353.31719227
 20
-679.93307361
 30
0.0
 11
-355.81719227
 21
-682.12057361
 31
0.0
  0
LINE
  8
0
  6
CONTINUOUS
 62
       7
  5
18B
 10
-355.81719227
 20
-682.12057361
 30
0.0
 11
-358.94219227
 21
-683.37057361
 31
0.0
  0
LINE
  8
0
  6
CONTINUOUS
 62
       7
  5
18C
 10
-358.94219227
 20
-683.37057361
 30
0.0
 11
-362.06719227
 21
-683.68307361
 31
0.0
  0
LINE
  8
0
  6
CONTINUOUS
 62
       7
  5
18D
 10
-362.06719227
 20
-683.68307361
 30
0.0
 11
-369.87969227
 21
-683.68307361
 31
0.0
  0
LINE
  8
0
  6
CONTINUOUS
 62
       7
  5
18E
 10
-369.87969227
 20
-683.68307361
 30
0.0
 11
-368.31719227
 21
-678.99557361
 31
0.0
  0
LINE
  8
0
  6
CONTINUOUS
 62
       7
  5
18F
 10
-369.87969227
 20
-683.68307361
 30
0.0
 11
-368.31719227
 21
-678.99557361
 31
0.0
  0
LINE
  8
0
  6
CONTINUOUS
 62
       7
  5
190
 10
-358.94219227
 20
-674.93307361
 30
0.0
 11
-353.00469227
 21
-658.99557361
 31
0.0
  0
LINE
  8
0
  6
CONTINUOUS
 62
       7
  5
191
 10
-368.31719227
 20
-678.99557361
 30
0.0
 11
-365.50469227
 21
-678.99557361
 31
0.0
  0
LINE
  8
0
  6
CONTINUOUS
 62
       7
  5
192
 10
-368.31719227
 20
-678.99557361
 30
0.0
 11
-365.50469227
 21
-678.99557361
 31
0.0
  0
LINE
  8
0
  6
CONTINUOUS
 62
       7
  5
193
 10
-360.50469227
 20
-677.43307361
 30
0.0
 11
-358.94219227
 21
-674.93307361
 31
0.0
  0
LINE
  8
0
  6
CONTINUOUS
 62
       7
  5
194
 10
-363.00469227
 20
-678.68307361
 30
0.0
 11
-360.50469227
 21
-677.43307361
 31
0.0
  0
LINE
  8
0
  6
CONTINUOUS
 62
       7
  5
195
 10
-365.50469227
 20
-678.99557361
 30
0.0
 11
-363.00469227
 21
-678.68307361
 31
0.0
  0
LINE
  8
0
  6
CONTINUOUS
 62
       7
  5
196
 10
-365.50469227
 20
-678.99557361
 30
0.0
 11
-363.00469227
 21
-678.68307361
 31
0.0
  0
LINE
  8
0
  6
CONTINUOUS
 62
       7
  5
197
 10
-284.06719227
 20
-658.99557361
 30
0.0
 11
-274.06719227
 21
-658.99557361
 31
0.0
  0
LINE
  8
0
  6
CONTINUOUS
 62
       7
  5
198
 10
-274.06719227
 20
-658.99557361
 30
0.0
 11
-275.94219227
 21
-664.62057361
 31
0.0
  0
LINE
  8
0
  6
CONTINUOUS
 62
       7
  5
199
 10
-274.06719227
 20
-658.99557361
 30
0.0
 11
-275.94219227
 21
-664.62057361
 31
0.0
  0
LINE
  8
0
  6
CONTINUOUS
 62
       7
  5
19A
 10
-276.44219227
 20
-664.62057361
 30
0.0
 11
-286.25469227
 21
-664.62057361
 31
0.0
  0
LINE
  8
0
  6
CONTINUOUS
 62
       7
  5
19B
 10
-247.03006406
 20
-664.57900124
 30
0.0
 11
-249.94219227
 21
-669.93307361
 31
0.0
  0
LINE
  8
0
  6
CONTINUOUS
 62
       7
  5
19C
 10
-238.37969227
 20
-658.99557361
 30
0.0
 11
-254.00469227
 21
-674.62057361
 31
0.0
  0
LINE
  8
0
  6
CONTINUOUS
 62
       7
  5
19D
 10
-254.00469227
 20
-674.62057361
 30
0.0
 11
-262.69219227
 21
-683.30807361
 31
0.0
  0
LINE
  8
0
  6
CONTINUOUS
 62
       7
  5
19E
 10
-239.79390583
 20
-658.99557361
 30
0.0
 11
-249.00101961
 21
-668.20268739
 31
0.0
  0
LINE
  8
0
  6
CONTINUOUS
 62
       7
  5
19F
 10
-257.23718041
 20
-676.43884819
 30
0.0
 11
-264.38924854
 21
-683.59091632
 31
0.0
  0
LINE
  8
0
  6
CONTINUOUS
 62
       7
  5
1A0
 10
-241.20811939
 20
-658.99557361
 30
0.0
 11
-247.31450635
 21
-665.10196058
 31
0.0
  0
LINE
  8
0
  6
CONTINUOUS
 62
       7
  5
1A1
 10
-259.81653329
 20
-677.60398751
 30
0.0
 11
-266.08630481
 21
-683.87375904
 31
0.0
  0
LINE
  8
0
  6
CONTINUOUS
 62
       7
  5
1A2
 10
-242.62233295
 20
-658.99557361
 30
0.0
 11
-248.24733295
 21
-664.62057361
 31
0.0
  0
LINE
  8
0
  6
CONTINUOUS
 62
       7
  5
1A3
 10
-261.60787047
 20
-677.98111113
 30
0.0
 11
-266.37802462
 21
-682.75126528
 31
0.0
  0
LINE
  8
0
  6
CONTINUOUS
 62
       7
  5
1A4
 10
-244.03654651
 20
-658.99557361
 30
0.0
 11
-249.66154651
 21
-664.62057361
 31
0.0
  0
LINE
  8
0
  6
CONTINUOUS
 62
       7
  5
1A5
 10
-263.39920765
 20
-678.35823474
 30
0.0
 11
-265.6066354
 21
-680.5656625
 31
0.0
  0
LINE
  8
0
  6
CONTINUOUS
 62
       7
  5
1A6
 10
-245.45076008
 20
-658.99557361
 30
0.0
 11
-251.07576008
 21
-664.62057361
 31
0.0
  0
LINE
  8
0
  6
CONTINUOUS
 62
       7
  5
1A7
 10
-246.86497364
 20
-658.99557361
 30
0.0
 11
-252.48997364
 21
-664.62057361
 31
0.0
  0
LINE
  8
0
  6
CONTINUOUS
 62
       7
  5
1A8
 10
-248.2791872
 20
-658.99557361
 30
0.0
 11
-253.9041872
 21
-664.62057361
 31
0.0
  0
LINE
  8
0
  6
CONTINUOUS
 62
       7
  5
1A9
 10
-249.69340076
 20
-658.99557361
 30
0.0
 11
-255.31840076
 21
-664.62057361
 31
0.0
  0
LINE
  8
0
  6
CONTINUOUS
 62
       7
  5
1AA
 10
-251.10761433
 20
-658.99557361
 30
0.0
 11
-256.73261433
 21
-664.62057361
 31
0.0
  0
LINE
  8
0
  6
CONTINUOUS
 62
       7
  5
1AB
 10
-252.52182789
 20
-658.99557361
 30
0.0
 11
-258.02737445
 21
-664.50112018
 31
0.0
  0
LINE
  8
0
  6
CONTINUOUS
 62
       7
  5
1AC
 10
-253.93604145
 20
-658.99557361
 30
0.0
 11
-257.32026767
 21
-662.37979983
 31
0.0
  0
LINE
  8
0
  6
CONTINUOUS
 62
       7
  5
1AD
 10
-255.35025501
 20
-658.99557361
 30
0.0
 11
-256.61316089
 21
-660.25847949
 31
0.0
  0
LINE
  8
0
  6
CONTINUOUS
 62
       7
  5
1AE
 10
-236.9654787
 20
-658.99557361
 30
0.0
 11
-260.99513599
 21
-683.0252309
 31
0.0
  0
LINE
  8
0
  6
CONTINUOUS
 62
       7
  5
1AF
 10
-235.55126514
 20
-658.99557361
 30
0.0
 11
-259.29807972
 21
-682.74238819
 31
0.0
  0
LINE
  8
0
  6
CONTINUOUS
 62
       7
  5
1B0
 10
-235.26424854
 20
-660.12277057
 30
0.0
 11
-257.60102344
 21
-682.45954547
 31
0.0
  0
LINE
  8
0
  6
CONTINUOUS
 62
       7
  5
1B1
 10
-235.82993396
 20
-662.10266956
 30
0.0
 11
-255.64759632
 21
-681.92033191
 31
0.0
  0
LINE
  8
0
  6
CONTINUOUS
 62
       7
  5
1B2
 10
-236.62810753
 20
-664.31505669
 30
0.0
 11
-253.66769733
 21
-681.35464649
 31
0.0
  0
LINE
  8
0
  6
CONTINUOUS
 62
       7
  5
1B3
 10
-237.84029059
 20
-666.94145331
 30
0.0
 11
-251.5892702
 21
-680.69043292
 31
0.0
  0
LINE
  8
0
  6
CONTINUOUS
 62
       7
  5
1B4
 10
-240.36618214
 20
-670.88155842
 30
0.0
 11
-249.46794986
 21
-679.98332614
 31
0.0
  0
LINE
  8
0
  6
CONTINUOUS
 62
       7
  5
1B5
 10
-243.23756905
 20
-675.1671589
 30
0.0
 11
-248.11732712
 21
-680.04691697
 31
0.0
  0
LINE
  8
0
  6
CONTINUOUS
 62
       7
  5
1B6
 10
-242.7033106
 20
-676.04711401
 30
0.0
 11
-247.5785791
 21
-680.92238251
 31
0.0
  0
LINE
  8
0
  6
CONTINUOUS
 62
       7
  5
1B7
 10
-242.16905214
 20
-676.92706911
 30
0.0
 11
-247.03983108
 21
-681.79784805
 31
0.0
  0
LINE
  8
0
  6
CONTINUOUS
 62
       7
  5
1B8
 10
-241.63479368
 20
-677.80702422
 30
0.0
 11
-246.50108305
 21
-682.67331358
 31
0.0
  0
LINE
  8
0
  6
CONTINUOUS
 62
       7
  5
1B9
 10
-241.10053523
 20
-678.68697932
 30
0.0
 11
-245.96233503
 21
-683.54877912
 31
0.0
  0
LINE
  8
0
  6
CONTINUOUS
 62
       7
  5
1BA
 10
-240.56627677
 20
-679.56693443
 30
0.0
 11
-244.68241595
 21
-683.68307361
 31
0.0
  0
LINE
  8
0
  6
CONTINUOUS
 62
       7
  5
1BB
 10
-240.03201831
 20
-680.44688953
 30
0.0
 11
-243.26820239
 21
-683.68307361
 31
0.0
  0
LINE
  8
0
  6
CONTINUOUS
 62
       7
  5
1BC
 10
-239.49775986
 20
-681.32684464
 30
0.0
 11
-241.85398883
 21
-683.68307361
 31
0.0
  0
LINE
  8
0
  6
CONTINUOUS
 62
       7
  5
1BD
 10
-238.9635014
 20
-682.20679974
 30
0.0
 11
-240.43977527
 21
-683.68307361
 31
0.0
  0
LINE
  8
0
  6
CONTINUOUS
 62
       7
  5
1BE
 10
-238.42924294
 20
-683.08675485
 30
0.0
 11
-239.0255617
 21
-683.68307361
 31
0.0
  0
LINE
  8
0
  6
CONTINUOUS
 62
       7
  5
1BF
 10
-277.34844227
 20
-658.99557361
 30
0.0
 11
-282.97344227
 21
-664.62057361
 31
0.0
  0
LINE
  8
0
  6
CONTINUOUS
 62
       7
  5
1C0
 10
-278.76265583
 20
-658.99557361
 30
0.0
 11
-284.38765583
 21
-664.62057361
 31
0.0
  0
LINE
  8
0
  6
CONTINUOUS
 62
       7
  5
1C1
 10
-280.17686939
 20
-658.99557361
 30
0.0
 11
-285.80186939
 21
-664.62057361
 31
0.0
  0
LINE
  8
0
  6
CONTINUOUS
 62
       7
  5
1C2
 10
-281.59108295
 20
-658.99557361
 30
0.0
 11
-285.64289819
 21
-663.04738885
 31
0.0
  0
LINE
  8
0
  6
CONTINUOUS
 62
       7
  5
1C3
 10
-283.00529651
 20
-658.99557361
 30
0.0
 11
-284.74294411
 21
-660.7332212
 31
0.0
  0
LINE
  8
0
  6
CONTINUOUS
 62
       7
  5
1C4
 10
-275.9342287
 20
-658.99557361
 30
0.0
 11
-281.5592287
 21
-664.62057361
 31
0.0
  0
LINE
  8
0
  6
CONTINUOUS
 62
       7
  5
1C5
 10
-274.52001514
 20
-658.99557361
 30
0.0
 11
-280.14501514
 21
-664.62057361
 31
0.0
  0
LINE
  8
0
  6
CONTINUOUS
 62
       7
  5
1C6
 10
-274.54788761
 20
-660.43765964
 30
0.0
 11
-278.73080158
 21
-664.62057361
 31
0.0
  0
LINE
  8
0
  6
CONTINUOUS
 62
       7
  5
1C7
 10
-275.25499439
 20
-662.55897999
 30
0.0
 11
-277.31658802
 21
-664.62057361
 31
0.0
  0
LINE
  8
0
  6
CONTINUOUS
 62
       7
  5
1C8
 10
-275.90237445
 20
-664.62057361
 30
0.0
 11
-275.96210117
 21
-664.68030033
 31
0.0
  0
LINE
  8
0
  6
CONTINUOUS
 62
       7
  5
1C9
 10
-279.22344227
 20
-675.87057361
 30
0.0
 11
-287.03594227
 21
-683.68307361
 31
0.0
  0
LINE
  8
0
  6
CONTINUOUS
 62
       7
  5
1CA
 10
-280.63765583
 20
-675.87057361
 30
0.0
 11
-288.45015583
 21
-683.68307361
 31
0.0
  0
LINE
  8
0
  6
CONTINUOUS
 62
       7
  5
1CB
 10
-282.05186939
 20
-675.87057361
 30
0.0
 11
-289.86436939
 21
-683.68307361
 31
0.0
  0
LINE
  8
0
  6
CONTINUOUS
 62
       7
  5
1CC
 10
-283.46608295
 20
-675.87057361
 30
0.0
 11
-291.27858295
 21
-683.68307361
 31
0.0
  0
LINE
  8
0
  6
CONTINUOUS
 62
       7
  5
1CD
 10
-284.88029651
 20
-675.87057361
 30
0.0
 11
-292.69279651
 21
-683.68307361
 31
0.0
  0
LINE
  8
0
  6
CONTINUOUS
 62
       7
  5
1CE
 10
-286.29451008
 20
-675.87057361
 30
0.0
 11
-292.579951
 21
-682.15601453
 31
0.0
  0
LINE
  8
0
  6
CONTINUOUS
 62
       7
  5
1CF
 10
-287.70872364
 20
-675.87057361
 30
0.0
 11
-291.78445587
 21
-679.94630584
 31
0.0
  0
LINE
  8
0
  6
CONTINUOUS
 62
       7
  5
1D0
 10
-289.1229372
 20
-675.87057361
 30
0.0
 11
-290.98896074
 21
-677.73659715
 31
0.0
  0
LINE
  8
0
  6
CONTINUOUS
 62
       7
  5
1D1
 10
-277.8092287
 20
-675.87057361
 30
0.0
 11
-285.6217287
 21
-683.68307361
 31
0.0
  0
LINE
  8
0
  6
CONTINUOUS
 62
       7
  5
1D2
 10
-276.39501514
 20
-675.87057361
 30
0.0
 11
-284.20751514
 21
-683.68307361
 31
0.0
  0
LINE
  8
0
  6
CONTINUOUS
 62
       7
  5
1D3
 10
-262.79330158
 20
-663.68307361
 30
0.0
 11
-264.86337394
 21
-665.75314598
 31
0.0
  0
LINE
  8
0
  6
CONTINUOUS
 62
       7
  5
1D4
 10
-274.64441089
 20
-675.53418292
 30
0.0
 11
-282.79330158
 21
-683.68307361
 31
0.0
  0
LINE
  8
0
  6
CONTINUOUS
 62
       7
  5
1D5
 10
-261.37908802
 20
-663.68307361
 30
0.0
 11
-266.1313036
 21
-668.43528919
 31
0.0
  0
LINE
  8
0
  6
CONTINUOUS
 62
       7
  5
1D6
 10
-271.81598377
 20
-674.11996936
 30
0.0
 11
-281.37908802
 21
-683.68307361
 31
0.0
  0
LINE
  8
0
  6
CONTINUOUS
 62
       7
  5
1D7
 10
-261.1721494
 20
-664.89034856
 30
0.0
 11
-279.96487445
 21
-683.68307361
 31
0.0
  0
LINE
  8
0
  6
CONTINUOUS
 62
       7
  5
1D8
 10
-261.50490553
 20
-666.63731825
 30
0.0
 11
-278.55066089
 21
-683.68307361
 31
0.0
  0
LINE
  8
0
  6
CONTINUOUS
 62
       7
  5
1D9
 10
-261.83766166
 20
-668.38428794
 30
0.0
 11
-277.13644733
 21
-683.68307361
 31
0.0
  0
LINE
  8
0
  6
CONTINUOUS
 62
       7
  5
1DA
 10
-262.17041779
 20
-670.13125764
 30
0.0
 11
-275.04626697
 21
-683.00710681
 31
0.0
  0
LINE
  8
0
  6
CONTINUOUS
 62
       7
  5
1DB
 10
-264.17470036
 20
-673.54975376
 30
0.0
 11
-272.50068255
 21
-681.87573596
 31
0.0
  0
LINE
  8
0
  6
CONTINUOUS
 62
       7
  5
1DC
 10
-290.66094227
 20
-658.99557361
 30
0.0
 11
-313.12187977
 21
-681.45651111
 31
0.0
  0
LINE
  8
0
  6
CONTINUOUS
 62
       7
  5
1DD
 10
-292.07515583
 20
-658.99557361
 30
0.0
 11
-312.29692185
 21
-679.21733964
 31
0.0
  0
LINE
  8
0
  6
CONTINUOUS
 62
       7
  5
1DE
 10
-293.48936939
 20
-658.99557361
 30
0.0
 11
-311.47196394
 21
-676.97816816
 31
0.0
  0
LINE
  8
0
  6
CONTINUOUS
 62
       7
  5
1DF
 10
-294.90358295
 20
-658.99557361
 30
0.0
 11
-310.64700603
 21
-674.73899669
 31
0.0
  0
LINE
  8
0
  6
CONTINUOUS
 62
       7
  5
1E0
 10
-296.31779651
 20
-658.99557361
 30
0.0
 11
-309.82204812
 21
-672.49982522
 31
0.0
  0
LINE
  8
0
  6
CONTINUOUS
 62
       7
  5
1E1
 10
-297.73201008
 20
-658.99557361
 30
0.0
 11
-298.73184477
 21
-659.9954083
 31
0.0
  0
LINE
  8
0
  6
CONTINUOUS
 62
       7
  5
1E2
 10
-304.24624844
 20
-665.50981197
 30
0.0
 11
-310.54451008
 21
-671.80807361
 31
0.0
  0
LINE
  8
0
  6
CONTINUOUS
 62
       7
  5
1E3
 10
-306.72112217
 20
-666.57047214
 30
0.0
 11
-311.95872364
 21
-671.80807361
 31
0.0
  0
LINE
  8
0
  6
CONTINUOUS
 62
       7
  5
1E4
 10
-308.74216595
 20
-667.17730236
 30
0.0
 11
-313.3729372
 21
-671.80807361
 31
0.0
  0
LINE
  8
0
  6
CONTINUOUS
 62
       7
  5
1E5
 10
-310.27423064
 20
-667.29515349
 30
0.0
 11
-314.78715076
 21
-671.80807361
 31
0.0
  0
LINE
  8
0
  6
CONTINUOUS
 62
       7
  5
1E6
 10
-311.80629533
 20
-667.41300462
 30
0.0
 11
-316.20136433
 21
-671.80807361
 31
0.0
  0
LINE
  8
0
  6
CONTINUOUS
 62
       7
  5
1E7
 10
-313.24057789
 20
-667.43307361
 30
0.0
 11
-317.61557789
 21
-671.80807361
 31
0.0
  0
LINE
  8
0
  6
CONTINUOUS
 62
       7
  5
1E8
 10
-314.65479145
 20
-667.43307361
 30
0.0
 11
-319.02979145
 21
-671.80807361
 31
0.0
  0
LINE
  8
0
  6
CONTINUOUS
 62
       7
  5
1E9
 10
-316.06900501
 20
-667.43307361
 30
0.0
 11
-319.08007407
 21
-670.44414267
 31
0.0
  0
LINE
  8
0
  6
CONTINUOUS
 62
       7
  5
1EA
 10
-317.48321858
 20
-667.43307361
 30
0.0
 11
-318.29439987
 21
-668.24425491
 31
0.0
  0
LINE
  8
0
  6
CONTINUOUS
 62
       7
  5
1EB
 10
-289.2467287
 20
-658.99557361
 30
0.0
 11
-313.94683768
 21
-683.69568259
 31
0.0
  0
LINE
  8
0
  6
CONTINUOUS
 62
       7
  5
1EC
 10
-287.83251514
 20
-658.99557361
 30
0.0
 11
-298.69349197
 21
-669.85655044
 31
0.0
  0
LINE
  8
0
  6
CONTINUOUS
 62
       7
  5
1ED
 10
-299.0312494
 20
-670.19430787
 30
0.0
 11
-312.52001514
 21
-683.68307361
 31
0.0
  0
LINE
  8
0
  6
CONTINUOUS
 62
       7
  5
1EE
 10
-286.41830158
 20
-658.99557361
 30
0.0
 11
-296.65073905
 21
-669.22801108
 31
0.0
  0
LINE
  8
0
  6
CONTINUOUS
 62
       7
  5
1EF
 10
-299.76273917
 20
-672.34001121
 30
0.0
 11
-311.10580158
 21
-683.68307361
 31
0.0
  0
LINE
  8
0
  6
CONTINUOUS
 62
       7
  5
1F0
 10
-287.67485305
 20
-661.66633865
 30
0.0
 11
-294.18997668
 21
-668.18146228
 31
0.0
  0
LINE
  8
0
  6
CONTINUOUS
 62
       7
  5
1F1
 10
-300.49422895
 20
-674.48571454
 30
0.0
 11
-309.69158802
 21
-683.68307361
 31
0.0
  0
LINE
  8
0
  6
CONTINUOUS
 62
       7
  5
1F2
 10
-301.22571872
 20
-676.63141788
 30
0.0
 11
-308.27737445
 21
-683.68307361
 31
0.0
  0
LINE
  8
0
  6
CONTINUOUS
 62
       7
  5
1F3
 10
-301.95720849
 20
-678.77712121
 30
0.0
 11
-306.86316089
 21
-683.68307361
 31
0.0
  0
LINE
  8
0
  6
CONTINUOUS
 62
       7
  5
1F4
 10
-302.68869827
 20
-680.92282455
 30
0.0
 11
-305.44894733
 21
-683.68307361
 31
0.0
  0
LINE
  8
0
  6
CONTINUOUS
 62
       7
  5
1F5
 10
-303.42018804
 20
-683.06852789
 30
0.0
 11
-304.03473377
 21
-683.68307361
 31
0.0
  0
LINE
  8
0
  6
CONTINUOUS
 62
       7
  5
1F6
 10
-327.78594227
 20
-658.99557361
 30
0.0
 11
-333.41094227
 21
-664.62057361
 31
0.0
  0
LINE
  8
0
  6
CONTINUOUS
 62
       7
  5
1F7
 10
-329.20015583
 20
-658.99557361
 30
0.0
 11
-334.82515583
 21
-664.62057361
 31
0.0
  0
LINE
  8
0
  6
CONTINUOUS
 62
       7
  5
1F8
 10
-330.61436939
 20
-658.99557361
 30
0.0
 11
-336.23936939
 21
-664.62057361
 31
0.0
  0
LINE
  8
0
  6
CONTINUOUS
 62
       7
  5
1F9
 10
-332.02858295
 20
-658.99557361
 30
0.0
 11
-337.65358295
 21
-664.62057361
 31
0.0
  0
LINE
  8
0
  6
CONTINUOUS
 62
       7
  5
1FA
 10
-333.44279651
 20
-658.99557361
 30
0.0
 11
-339.06779651
 21
-664.62057361
 31
0.0
  0
LINE
  8
0
  6
CONTINUOUS
 62
       7
  5
1FB
 10
-334.85701008
 20
-658.99557361
 30
0.0
 11
-340.48201008
 21
-664.62057361
 31
0.0
  0
LINE
  8
0
  6
CONTINUOUS
 62
       7
  5
1FC
 10
-336.27122364
 20
-658.99557361
 30
0.0
 11
-341.89622364
 21
-664.62057361
 31
0.0
  0
LINE
  8
0
  6
CONTINUOUS
 62
       7
  5
1FD
 10
-337.6854372
 20
-658.99557361
 30
0.0
 11
-342.7580698
 21
-664.06820621
 31
0.0
  0
LINE
  8
0
  6
CONTINUOUS
 62
       7
  5
1FE
 10
-339.09965076
 20
-658.99557361
 30
0.0
 11
-342.05096302
 21
-661.94688586
 31
0.0
  0
LINE
  8
0
  6
CONTINUOUS
 62
       7
  5
1FF
 10
-340.51386433
 20
-658.99557361
 30
0.0
 11
-341.34385623
 21
-659.82556552
 31
0.0
  0
LINE
  8
0
  6
CONTINUOUS
 62
       7
  5
200
 10
-326.3717287
 20
-658.99557361
 30
0.0
 11
-331.9967287
 21
-664.62057361
 31
0.0
  0
LINE
  8
0
  6
CONTINUOUS
 62
       7
  5
201
 10
-324.95751514
 20
-658.99557361
 30
0.0
 11
-330.58251514
 21
-664.62057361
 31
0.0
  0
LINE
  8
0
  6
CONTINUOUS
 62
       7
  5
202
 10
-323.54330158
 20
-658.99557361
 30
0.0
 11
-329.16830158
 21
-664.62057361
 31
0.0
  0
LINE
  8
0
  6
CONTINUOUS
 62
       7
  5
203
 10
-322.12908802
 20
-658.99557361
 30
0.0
 11
-327.75408802
 21
-664.62057361
 31
0.0
  0
LINE
  8
0
  6
CONTINUOUS
 62
       7
  5
204
 10
-320.71487445
 20
-658.99557361
 30
0.0
 11
-326.33987445
 21
-664.62057361
 31
0.0
  0
LINE
  8
0
  6
CONTINUOUS
 62
       7
  5
205
 10
-319.30066089
 20
-658.99557361
 30
0.0
 11
-324.92566089
 21
-664.62057361
 31
0.0
  0
LINE
  8
0
  6
CONTINUOUS
 62
       7
  5
206
 10
-318.43881473
 20
-659.54794102
 30
0.0
 11
-323.51144733
 21
-664.62057361
 31
0.0
  0
LINE
  8
0
  6
CONTINUOUS
 62
       7
  5
207
 10
-319.14592151
 20
-661.66926136
 30
0.0
 11
-322.09723377
 21
-664.62057361
 31
0.0
  0
LINE
  8
0
  6
CONTINUOUS
 62
       7
  5
208
 10
-319.8530283
 20
-663.7905817
 30
0.0
 11
-320.6830202
 21
-664.62057361
 31
0.0
  0
LINE
  8
0
  6
CONTINUOUS
 62
       7
  5
209
 10
-327.31719227
 20
-667.43307361
 30
0.0
 11
-331.69219227
 21
-671.80807361
 31
0.0
  0
LINE
  8
0
  6
CONTINUOUS
 62
       7
  5
20A
 10
-338.87969227
 20
-678.99557361
 30
0.0
 11
-343.56719227
 21
-683.68307361
 31
0.0
  0
LINE
  8
0
  6
CONTINUOUS
 62
       7
  5
20B
 10
-328.73140583
 20
-667.43307361
 30
0.0
 11
-333.10640583
 21
-671.80807361
 31
0.0
  0
LINE
  8
0
  6
CONTINUOUS
 62
       7
  5
20C
 10
-340.29390583
 20
-678.99557361
 30
0.0
 11
-344.98140583
 21
-683.68307361
 31
0.0
  0
LINE
  8
0
  6
CONTINUOUS
 62
       7
  5
20D
 10
-330.14561939
 20
-667.43307361
 30
0.0
 11
-334.52061939
 21
-671.80807361
 31
0.0
  0
LINE
  8
0
  6
CONTINUOUS
 62
       7
  5
20E
 10
-341.70811939
 20
-678.99557361
 30
0.0
 11
-346.39561939
 21
-683.68307361
 31
0.0
  0
LINE
  8
0
  6
CONTINUOUS
 62
       7
  5
20F
 10
-331.55983295
 20
-667.43307361
 30
0.0
 11
-335.93483295
 21
-671.80807361
 31
0.0
  0
LINE
  8
0
  6
CONTINUOUS
 62
       7
  5
210
 10
-343.12233295
 20
-678.99557361
 30
0.0
 11
-347.80983295
 21
-683.68307361
 31
0.0
  0
LINE
  8
0
  6
CONTINUOUS
 62
       7
  5
211
 10
-332.97404651
 20
-667.43307361
 30
0.0
 11
-337.34904651
 21
-671.80807361
 31
0.0
  0
LINE
  8
0
  6
CONTINUOUS
 62
       7
  5
212
 10
-344.53654651
 20
-678.99557361
 30
0.0
 11
-349.22404651
 21
-683.68307361
 31
0.0
  0
LINE
  8
0
  6
CONTINUOUS
 62
       7
  5
213
 10
-334.38826008
 20
-667.43307361
 30
0.0
 11
-338.76326008
 21
-671.80807361
 31
0.0
  0
LINE
  8
0
  6
CONTINUOUS
 62
       7
  5
214
 10
-345.95076008
 20
-678.99557361
 30
0.0
 11
-349.26981372
 21
-682.31462726
 31
0.0
  0
LINE
  8
0
  6
CONTINUOUS
 62
       7
  5
215
 10
-335.80247364
 20
-667.43307361
 30
0.0
 11
-340.17747364
 21
-671.80807361
 31
0.0
  0
LINE
  8
0
  6
CONTINUOUS
 62
       7
  5
216
 10
-347.36497364
 20
-678.99557361
 30
0.0
 11
-348.32700468
 21
-679.95760465
 31
0.0
  0
LINE
  8
0
  6
CONTINUOUS
 62
       7
  5
217
 10
-337.2166872
 20
-667.43307361
 30
0.0
 11
-341.5916872
 21
-671.80807361
 31
0.0
  0
LINE
  8
0
  6
CONTINUOUS
 62
       7
  5
218
 10
-338.63090076
 20
-667.43307361
 30
0.0
 11
-343.00590076
 21
-671.80807361
 31
0.0
  0
LINE
  8
0
  6
CONTINUOUS
 62
       7
  5
219
 10
-340.04511433
 20
-667.43307361
 30
0.0
 11
-344.42011433
 21
-671.80807361
 31
0.0
  0
LINE
  8
0
  6
CONTINUOUS
 62
       7
  5
21A
 10
-341.45932789
 20
-667.43307361
 30
0.0
 11
-344.41033802
 21
-670.38408374
 31
0.0
  0
LINE
  8
0
  6
CONTINUOUS
 62
       7
  5
21B
 10
-342.87354145
 20
-667.43307361
 30
0.0
 11
-343.84465259
 21
-668.40418475
 31
0.0
  0
LINE
  8
0
  6
CONTINUOUS
 62
       7
  5
21C
 10
-325.9029787
 20
-667.43307361
 30
0.0
 11
-332.25787769
 21
-673.7879726
 31
0.0
  0
LINE
  8
0
  6
CONTINUOUS
 62
       7
  5
21D
 10
-337.0549448
 20
-678.58503971
 30
0.0
 11
-342.1529787
 21
-683.68307361
 31
0.0
  0
LINE
  8
0
  6
CONTINUOUS
 62
       7
  5
21E
 10
-324.48876514
 20
-667.43307361
 30
0.0
 11
-340.73876514
 21
-683.68307361
 31
0.0
  0
LINE
  8
0
  6
CONTINUOUS
 62
       7
  5
21F
 10
-323.07455158
 20
-667.43307361
 30
0.0
 11
-339.32455158
 21
-683.68307361
 31
0.0
  0
LINE
  8
0
  6
CONTINUOUS
 62
       7
  5
220
 10
-321.66033802
 20
-667.43307361
 30
0.0
 11
-337.91033802
 21
-683.68307361
 31
0.0
  0
LINE
  8
0
  6
CONTINUOUS
 62
       7
  5
221
 10
-321.53637387
 20
-668.72332303
 30
0.0
 11
-336.49612445
 21
-683.68307361
 31
0.0
  0
LINE
  8
0
  6
CONTINUOUS
 62
       7
  5
222
 10
-322.34449591
 20
-670.94565863
 30
0.0
 11
-335.08191089
 21
-683.68307361
 31
0.0
  0
LINE
  8
0
  6
CONTINUOUS
 62
       7
  5
223
 10
-323.15261794
 20
-673.16799423
 30
0.0
 11
-333.59703235
 21
-683.61240863
 31
0.0
  0
LINE
  8
0
  6
CONTINUOUS
 62
       7
  5
224
 10
-323.96073998
 20
-675.39032982
 30
0.0
 11
-331.71141427
 21
-683.14100411
 31
0.0
  0
LINE
  8
0
  6
CONTINUOUS
 62
       7
  5
225
 10
-324.76886201
 20
-677.61266542
 30
0.0
 11
-329.04884814
 21
-681.89265155
 31
0.0
  0
LINE
  8
0
  6
CONTINUOUS
 62
       7
  5
226
 10
-344.87969227
 20
-658.99557361
 30
0.0
 11
-357.82891102
 21
-671.94479236
 31
0.0
  0
LINE
  8
0
  6
CONTINUOUS
 62
       7
  5
227
 10
-364.79040655
 20
-678.9062879
 30
0.0
 11
-369.56719227
 21
-683.68307361
 31
0.0
  0
LINE
  8
0
  6
CONTINUOUS
 62
       7
  5
228
 10
-346.29390583
 20
-658.99557361
 30
0.0
 11
-356.98922171
 21
-669.6908895
 31
0.0
  0
LINE
  8
0
  6
CONTINUOUS
 62
       7
  5
229
 10
-366.29390583
 20
-678.99557361
 30
0.0
 11
-369.32883548
 21
-682.03050327
 31
0.0
  0
LINE
  8
0
  6
CONTINUOUS
 62
       7
  5
22A
 10
-347.70811939
 20
-658.99557361
 30
0.0
 11
-356.14953241
 21
-667.43698663
 31
0.0
  0
LINE
  8
0
  6
CONTINUOUS
 62
       7
  5
22B
 10
-367.70811939
 20
-678.99557361
 30
0.0
 11
-368.6217287
 21
-679.90918292
 31
0.0
  0
LINE
  8
0
  6
CONTINUOUS
 62
       7
  5
22C
 10
-349.12233295
 20
-658.99557361
 30
0.0
 11
-355.30984311
 21
-665.18308377
 31
0.0
  0
LINE
  8
0
  6
CONTINUOUS
 62
       7
  5
22D
 10
-350.53654651
 20
-658.99557361
 30
0.0
 11
-354.4701538
 21
-662.9291809
 31
0.0
  0
LINE
  8
0
  6
CONTINUOUS
 62
       7
  5
22E
 10
-351.95076008
 20
-658.99557361
 30
0.0
 11
-353.6304645
 21
-660.67527804
 31
0.0
  0
LINE
  8
0
  6
CONTINUOUS
 62
       7
  5
22F
 10
-345.13217358
 20
-660.66226849
 30
0.0
 11
-358.66860032
 21
-674.19869523
 31
0.0
  0
LINE
  8
0
  6
CONTINUOUS
 62
       7
  5
230
 10
-363.17416248
 20
-678.70425739
 30
0.0
 11
-368.1529787
 21
-683.68307361
 31
0.0
  0
LINE
  8
0
  6
CONTINUOUS
 62
       7
  5
231
 10
-345.8574113
 20
-662.80171977
 30
0.0
 11
-360.47283802
 21
-677.41714649
 31
0.0
  0
LINE
  8
0
  6
CONTINUOUS
 62
       7
  5
232
 10
-360.53123747
 20
-677.47554594
 30
0.0
 11
-366.73876514
 21
-683.68307361
 31
0.0
  0
LINE
  8
0
  6
CONTINUOUS
 62
       7
  5
233
 10
-346.58264903
 20
-664.94117106
 30
0.0
 11
-365.32455158
 21
-683.68307361
 31
0.0
  0
LINE
  8
0
  6
CONTINUOUS
 62
       7
  5
234
 10
-347.30788675
 20
-667.08062235
 30
0.0
 11
-363.91033802
 21
-683.68307361
 31
0.0
  0
LINE
  8
0
  6
CONTINUOUS
 62
       7
  5
235
 10
-348.03312448
 20
-669.22007363
 30
0.0
 11
-362.49612445
 21
-683.68307361
 31
0.0
  0
LINE
  8
0
  6
CONTINUOUS
 62
       7
  5
236
 10
-348.7583622
 20
-671.35952492
 30
0.0
 11
-360.97243518
 21
-683.5735979
 31
0.0
  0
LINE
  8
0
  6
CONTINUOUS
 62
       7
  5
237
 10
-349.48359992
 20
-673.49897621
 30
0.0
 11
-359.40108678
 21
-683.41646306
 31
0.0
  0
LINE
  8
0
  6
CONTINUOUS
 62
       7
  5
238
 10
-350.20883765
 20
-675.63842749
 30
0.0
 11
-357.27351143
 21
-682.70310128
 31
0.0
  0
LINE
  8
0
  6
CONTINUOUS
 62
       7
  5
239
 10
-359.91094227
 20
-660.74557361
 30
0.0
 11
-371.46739388
 21
-672.30202522
 31
0.0
  0
LINE
  8
0
  6
CONTINUOUS
 62
       7
  5
23A
 10
-359.57515583
 20
-658.99557361
 30
0.0
 11
-370.69185741
 21
-670.11227519
 31
0.0
  0
LINE
  8
0
  6
CONTINUOUS
 62
       7
  5
23B
 10
-360.98936939
 20
-658.99557361
 30
0.0
 11
-369.91632094
 21
-667.92252516
 31
0.0
  0
LINE
  8
0
  6
CONTINUOUS
 62
       7
  5
23C
 10
-362.40358295
 20
-658.99557361
 30
0.0
 11
-369.14078447
 21
-665.73277513
 31
0.0
  0
LINE
  8
0
  6
CONTINUOUS
 62
       7
  5
23D
 10
-363.81779651
 20
-658.99557361
 30
0.0
 11
-368.365248
 21
-663.5430251
 31
0.0
  0
LINE
  8
0
  6
CONTINUOUS
 62
       7
  5
23E
 10
-365.23201008
 20
-658.99557361
 30
0.0
 11
-367.58971153
 21
-661.35327506
 31
0.0
  0
LINE
  8
0
  6
CONTINUOUS
 62
       7
  5
23F
 10
-366.64622364
 20
-658.99557361
 30
0.0
 11
-366.81417506
 21
-659.16352503
 31
0.0
  0
LINE
  8
0
  6
CONTINUOUS
 62
       7
  5
240
 10
-360.7594704
 20
-663.00831531
 30
0.0
 11
-371.7467287
 21
-673.99557361
 31
0.0
  0
LINE
  8
0
  6
CONTINUOUS
 62
       7
  5
241
 10
-361.60799854
 20
-665.27105701
 30
0.0
 11
-370.33251514
 21
-673.99557361
 31
0.0
  0
LINE
  8
0
  6
CONTINUOUS
 62
       7
  5
242
 10
-362.45652668
 20
-667.53379871
 30
0.0
 11
-368.91830158
 21
-673.99557361
 31
0.0
  0
LINE
  8
0
  6
CONTINUOUS
 62
       7
  5
243
 10
-363.30505481
 20
-669.79654041
 30
0.0
 11
-367.50408802
 21
-673.99557361
 31
0.0
  0
LINE
  8
0
  6
CONTINUOUS
 62
       7
  5
244
 10
-364.15358295
 20
-672.05928211
 30
0.0
 11
-366.08987445
 21
-673.99557361
 31
0.0
  0
LINE
  8
0
  6
CONTINUOUS
 62
       7
  5
245
 10
487.55780773
 20
207.25442639
 30
0.0
 11
515.05780773
 21
207.25442639
 31
0.0
  0
LINE
  8
0
  6
CONTINUOUS
 62
       7
  5
246
 10
487.55780773
 20
182.25442639
 30
0.0
 11
515.05780773
 21
182.25442639
 31
0.0
  0
LINE
  8
0
  6
CONTINUOUS
 62
       7
  5
247
 10
515.05780773
 20
207.25442639
 30
0.0
 11
515.05780773
 21
182.25442639
 31
0.0
  0
LINE
  8
0
  6
CONTINUOUS
 62
       7
  5
248
 10
487.55780773
 20
207.25442639
 30
0.0
 11
487.55780773
 21
182.25442639
 31
0.0
  0
LINE
  8
0
  6
CONTINUOUS
 62
       7
  5
249
 10
515.05780773
 20
182.34147548
 30
0.0
 11
514.97075864
 21
182.25442639
 31
0.0
  0
LINE
  8
0
  6
CONTINUOUS
 62
       7
  5
24A
 10
500.38474862
 20
207.25442639
 30
0.0
 11
487.55780773
 21
194.4274855
 31
0.0
  0
LINE
  8
0
  6
CONTINUOUS
 62
       7
  5
24B
 10
498.97053506
 20
207.25442639
 30
0.0
 11
487.55780773
 21
195.84169906
 31
0.0
  0
LINE
  8
0
  6
CONTINUOUS
 62
       7
  5
24C
 10
497.5563215
 20
207.25442639
 30
0.0
 11
487.55780773
 21
197.25591263
 31
0.0
  0
LINE
  8
0
  6
CONTINUOUS
 62
       7
  5
24D
 10
496.14210793
 20
207.25442639
 30
0.0
 11
487.55780773
 21
198.67012619
 31
0.0
  0
LINE
  8
0
  6
CONTINUOUS
 62
       7
  5
24E
 10
494.72789437
 20
207.25442639
 30
0.0
 11
487.55780773
 21
200.08433975
 31
0.0
  0
LINE
  8
0
  6
CONTINUOUS
 62
       7
  5
24F
 10
493.31368081
 20
207.25442639
 30
0.0
 11
487.55780773
 21
201.49855331
 31
0.0
  0
LINE
  8
0
  6
CONTINUOUS
 62
       7
  5
250
 10
491.89946725
 20
207.25442639
 30
0.0
 11
487.55780773
 21
202.91276688
 31
0.0
  0
LINE
  8
0
  6
CONTINUOUS
 62
       7
  5
251
 10
490.48525368
 20
207.25442639
 30
0.0
 11
487.55780773
 21
204.32698044
 31
0.0
  0
LINE
  8
0
  6
CONTINUOUS
 62
       7
  5
252
 10
489.07104012
 20
207.25442639
 30
0.0
 11
487.55780773
 21
205.741194
 31
0.0
  0
LINE
  8
0
  6
CONTINUOUS
 62
       7
  5
253
 10
501.79896218
 20
207.25442639
 30
0.0
 11
487.55780773
 21
193.01327194
 31
0.0
  0
LINE
  8
0
  6
CONTINUOUS
 62
       7
  5
254
 10
503.21317575
 20
207.25442639
 30
0.0
 11
487.55780773
 21
191.59905838
 31
0.0
  0
LINE
  8
0
  6
CONTINUOUS
 62
       7
  5
255
 10
504.62738931
 20
207.25442639
 30
0.0
 11
487.55780773
 21
190.18484482
 31
0.0
  0
LINE
  8
0
  6
CONTINUOUS
 62
       7
  5
256
 10
506.04160287
 20
207.25442639
 30
0.0
 11
487.55780773
 21
188.77063125
 31
0.0
  0
LINE
  8
0
  6
CONTINUOUS
 62
       7
  5
257
 10
507.45581643
 20
207.25442639
 30
0.0
 11
487.55780773
 21
187.35641769
 31
0.0
  0
LINE
  8
0
  6
CONTINUOUS
 62
       7
  5
258
 10
508.87003
 20
207.25442639
 30
0.0
 11
487.55780773
 21
185.94220413
 31
0.0
  0
LINE
  8
0
  6
CONTINUOUS
 62
       7
  5
259
 10
510.28424356
 20
207.25442639
 30
0.0
 11
487.55780773
 21
184.52799057
 31
0.0
  0
LINE
  8
0
  6
CONTINUOUS
 62
       7
  5
25A
 10
511.69845712
 20
207.25442639
 30
0.0
 11
487.55780773
 21
183.113777
 31
0.0
  0
LINE
  8
0
  6
CONTINUOUS
 62
       7
  5
25B
 10
513.11267068
 20
207.25442639
 30
0.0
 11
488.11267068
 21
182.25442639
 31
0.0
  0
LINE
  8
0
  6
CONTINUOUS
 62
       7
  5
25C
 10
514.52688424
 20
207.25442639
 30
0.0
 11
489.52688424
 21
182.25442639
 31
0.0
  0
LINE
  8
0
  6
CONTINUOUS
 62
       7
  5
25D
 10
515.05780773
 20
206.37113632
 30
0.0
 11
490.94109781
 21
182.25442639
 31
0.0
  0
LINE
  8
0
  6
CONTINUOUS
 62
       7
  5
25E
 10
515.05780773
 20
204.95692275
 30
0.0
 11
492.35531137
 21
182.25442639
 31
0.0
  0
LINE
  8
0
  6
CONTINUOUS
 62
       7
  5
25F
 10
515.05780773
 20
203.54270919
 30
0.0
 11
493.76952493
 21
182.25442639
 31
0.0
  0
LINE
  8
0
  6
CONTINUOUS
 62
       7
  5
260
 10
515.05780773
 20
202.12849563
 30
0.0
 11
495.18373849
 21
182.25442639
 31
0.0
  0
LINE
  8
0
  6
CONTINUOUS
 62
       7
  5
261
 10
515.05780773
 20
200.71428207
 30
0.0
 11
496.59795206
 21
182.25442639
 31
0.0
  0
LINE
  8
0
  6
CONTINUOUS
 62
       7
  5
262
 10
515.05780773
 20
199.3000685
 30
0.0
 11
498.01216562
 21
182.25442639
 31
0.0
  0
LINE
  8
0
  6
CONTINUOUS
 62
       7
  5
263
 10
515.05780773
 20
197.88585494
 30
0.0
 11
499.42637918
 21
182.25442639
 31
0.0
  0
LINE
  8
0
  6
CONTINUOUS
 62
       7
  5
264
 10
515.05780773
 20
196.47164138
 30
0.0
 11
500.84059274
 21
182.25442639
 31
0.0
  0
LINE
  8
0
  6
CONTINUOUS
 62
       7
  5
265
 10
515.05780773
 20
195.05742782
 30
0.0
 11
502.25480631
 21
182.25442639
 31
0.0
  0
LINE
  8
0
  6
CONTINUOUS
 62
       7
  5
266
 10
515.05780773
 20
193.64321426
 30
0.0
 11
503.66901987
 21
182.25442639
 31
0.0
  0
LINE
  8
0
  6
CONTINUOUS
 62
       7
  5
267
 10
515.05780773
 20
192.22900069
 30
0.0
 11
505.08323343
 21
182.25442639
 31
0.0
  0
LINE
  8
0
  6
CONTINUOUS
 62
       7
  5
268
 10
515.05780773
 20
190.81478713
 30
0.0
 11
506.49744699
 21
182.25442639
 31
0.0
  0
LINE
  8
0
  6
CONTINUOUS
 62
       7
  5
269
 10
515.05780773
 20
189.40057357
 30
0.0
 11
507.91166056
 21
182.25442639
 31
0.0
  0
LINE
  8
0
  6
CONTINUOUS
 62
       7
  5
26A
 10
515.05780773
 20
187.98636001
 30
0.0
 11
509.32587412
 21
182.25442639
 31
0.0
  0
LINE
  8
0
  6
CONTINUOUS
 62
       7
  5
26B
 10
515.05780773
 20
186.57214644
 30
0.0
 11
510.74008768
 21
182.25442639
 31
0.0
  0
LINE
  8
0
  6
CONTINUOUS
 62
       7
  5
26C
 10
515.05780773
 20
185.15793288
 30
0.0
 11
512.15430124
 21
182.25442639
 31
0.0
  0
LINE
  8
0
  6
CONTINUOUS
 62
       7
  5
26D
 10
515.05780773
 20
183.74371932
 30
0.0
 11
513.56851481
 21
182.25442639
 31
0.0
  0
LINE
  8
0
  6
CONTINUOUS
 62
       7
  5
26E
 10
515.05780773
 20
182.32950576
 30
0.0
 11
514.98272837
 21
182.25442639
 31
0.0
  0
LINE
  8
0
  6
CONTINUOUS
 62
       7
  5
26F
 10
-413.69219227
 20
705.06692639
 30
0.0
 11
-417.92990966
 21
712.56442639
 31
0.0
  0
LINE
  8
0
  6
CONTINUOUS
 62
       7
  5
270
 10
-434.81997139
 20
719.12942639
 30
0.0
 11
-434.29913806
 21
720.69192639
 31
0.0
  0
LINE
  8
0
  6
CONTINUOUS
 62
       7
  5
271
 10
-394.99368072
 20
706.91618216
 30
0.0
 11
-395.56219227
 21
706.63192639
 31
0.0
  0
LINE
  8
0
  6
CONTINUOUS
 62
       7
  5
272
 10
-394.62969227
 20
705.06692639
 30
0.0
 11
-392.00469227
 21
707.69192639
 31
0.0
  0
LINE
  8
0
  6
CONTINUOUS
 62
       7
  5
273
 10
-392.44219227
 20
705.06692639
 30
0.0
 11
-392.00469227
 21
707.69192639
 31
0.0
  0
LINE
  8
0
  6
CONTINUOUS
 62
       7
  5
274
 10
-380.87969227
 20
707.25442639
 30
0.0
 11
-380.87969227
 21
706.63192639
 31
0.0
  0
LINE
  8
0
  6
CONTINUOUS
 62
       7
  5
275
 10
-367.05458953
 20
705.06692639
 30
0.0
 11
-372.75469227
 21
705.06692639
 31
0.0
  0
LINE
  8
0
  6
CONTINUOUS
 62
       7
  5
276
 10
-375.83452988
 20
707.29394347
 30
0.0
 11
-378.37969227
 21
705.06692639
 31
0.0
  0
LINE
  8
0
  6
CONTINUOUS
 62
       7
  5
277
 10
-357.77595225
 20
705.06692639
 30
0.0
 11
-364.31719227
 21
705.06692639
 31
0.0
  0
LINE
  8
0
  6
CONTINUOUS
 62
       7
  5
278
 10
-422.94906727
 20
706.63192639
 30
0.0
 11
-418.26250477
 21
719.12942639
 31
0.0
  0
LINE
  8
0
  6
CONTINUOUS
 62
       7
  5
279
 10
-418.46608403
 20
714.12942639
 30
0.0
 11
-411.15130303
 21
714.12942639
 31
0.0
  0
LINE
  8
0
  6
CONTINUOUS
 62
       7
  5
27A
 10
-371.3910559
 20
708.81692639
 30
0.0
 11
-372.44219227
 21
708.81692639
 31
0.0
  0
LINE
  8
0
  6
CONTINUOUS
 62
       7
  5
27B
 10
-372.44219227
 20
708.81692639
 30
0.0
 11
-373.47526281
 21
708.81692639
 31
0.0
  0
LINE
  8
0
  6
CONTINUOUS
 62
       7
  5
27C
 10
-382.61591628
 20
705.06692639
 30
0.0
 11
-378.37969227
 21
705.06692639
 31
0.0
  0
CIRCLE
  8
0
  6
CONTINUOUS
 62
       7
  5
27D
 10
-389.48256846
 20
713.81692639
 30
0.0
 40
0.9466262
  0
LINE
  8
0
  6
CONTINUOUS
 62
       7
  5
27E
 10
-421.77812977
 20
719.12942639
 30
0.0
 11
-418.26250477
 21
719.12942639
 31
0.0
  0
LINE
  8
0
  6
CONTINUOUS
 62
       7
  5
27F
 10
-416.59108403
 20
719.12942639
 30
0.0
 11
-411.15130303
 21
719.12942639
 31
0.0
  0
LINE
  8
0
  6
CONTINUOUS
 62
       7
  5
280
 10
-427.12969227
 20
705.06692639
 30
0.0
 11
-426.54281727
 21
706.63192639
 31
0.0
  0
LINE
  8
0
  6
CONTINUOUS
 62
       7
  5
281
 10
-421.77812977
 20
719.12942639
 30
0.0
 11
-421.19219227
 21
720.69192639
 31
0.0
  0
LINE
  8
0
  6
CONTINUOUS
 62
       7
  5
282
 10
-422.56013462
 20
719.12942639
 30
0.0
 11
-421.97419712
 21
720.69192639
 31
0.0
  0
LINE
  8
0
  6
CONTINUOUS
 62
       7
  5
283
 10
-411.15130303
 20
720.69192639
 30
0.0
 11
-421.19219227
 21
720.69192639
 31
0.0
  0
LINE
  8
0
  6
CONTINUOUS
 62
       7
  5
284
 10
-421.97419712
 20
720.69192639
 30
0.0
 11
-423.45874402
 21
720.69192639
 31
0.0
  0
LINE
  8
0
  6
CONTINUOUS
 62
       7
  5
285
 10
-424.04468152
 20
719.12942639
 30
0.0
 11
-422.56013462
 21
719.12942639
 31
0.0
  0
LINE
  8
0
  6
CONTINUOUS
 62
       7
  5
286
 10
-424.61394374
 20
719.12942639
 30
0.0
 11
-424.02800624
 21
720.69192639
 31
0.0
  0
LINE
  8
0
  6
CONTINUOUS
 62
       7
  5
287
 10
-424.02800624
 20
720.69192639
 30
0.0
 11
-425.27240402
 21
720.69192639
 31
0.0
  0
LINE
  8
0
  6
CONTINUOUS
 62
       7
  5
288
 10
-425.85834152
 20
719.12942639
 30
0.0
 11
-424.61394374
 21
719.12942639
 31
0.0
  0
LINE
  8
0
  6
CONTINUOUS
 62
       7
  5
289
 10
-425.85834152
 20
719.12942639
 30
0.0
 11
-425.27240402
 21
720.69192639
 31
0.0
  0
LINE
  8
0
  6
CONTINUOUS
 62
       7
  5
28A
 10
-426.33483817
 20
720.69192639
 30
0.0
 11
-427.55425376
 21
720.69192639
 31
0.0
  0
LINE
  8
0
  6
CONTINUOUS
 62
       7
  5
28B
 10
-428.14019126
 20
719.12942639
 30
0.0
 11
-426.92077567
 21
719.12942639
 31
0.0
  0
LINE
  8
0
  6
CONTINUOUS
 62
       7
  5
28C
 10
-428.14019126
 20
719.12942639
 30
0.0
 11
-427.55425376
 21
720.69192639
 31
0.0
  0
LINE
  8
0
  6
CONTINUOUS
 62
       7
  5
28D
 10
-424.04468152
 20
719.12942639
 30
0.0
 11
-423.45874402
 21
720.69192639
 31
0.0
  0
LINE
  8
0
  6
CONTINUOUS
 62
       7
  5
28E
 10
-426.92077567
 20
719.12942639
 30
0.0
 11
-426.33483817
 21
720.69192639
 31
0.0
  0
LINE
  8
0
  6
CONTINUOUS
 62
       7
  5
28F
 10
-429.05351484
 20
719.12942639
 30
0.0
 11
-428.46757734
 21
720.69192639
 31
0.0
  0
LINE
  8
0
  6
CONTINUOUS
 62
       7
  5
290
 10
-428.46757734
 20
720.69192639
 30
0.0
 11
-429.59504551
 21
720.69192639
 31
0.0
  0
LINE
  8
0
  6
CONTINUOUS
 62
       7
  5
291
 10
-430.18098301
 20
719.12942639
 30
0.0
 11
-429.05351484
 21
719.12942639
 31
0.0
  0
LINE
  8
0
  6
CONTINUOUS
 62
       7
  5
292
 10
-430.18098301
 20
719.12942639
 30
0.0
 11
-429.59504551
 21
720.69192639
 31
0.0
  0
LINE
  8
0
  6
CONTINUOUS
 62
       7
  5
293
 10
-431.13540494
 20
719.12942639
 30
0.0
 11
-430.54946744
 21
720.69192639
 31
0.0
  0
LINE
  8
0
  6
CONTINUOUS
 62
       7
  5
294
 10
-430.54946744
 20
720.69192639
 30
0.0
 11
-431.55207161
 21
720.69192639
 31
0.0
  0
LINE
  8
0
  6
CONTINUOUS
 62
       7
  5
295
 10
-432.07290494
 20
719.12942639
 30
0.0
 11
-431.13540494
 21
719.12942639
 31
0.0
  0
LINE
  8
0
  6
CONTINUOUS
 62
       7
  5
296
 10
-432.07290494
 20
719.12942639
 30
0.0
 11
-431.55207161
 21
720.69192639
 31
0.0
  0
LINE
  8
0
  6
CONTINUOUS
 62
       7
  5
297
 10
-433.07126753
 20
719.12942639
 30
0.0
 11
-432.55043419
 21
720.69192639
 31
0.0
  0
LINE
  8
0
  6
CONTINUOUS
 62
       7
  5
298
 10
-433.88247139
 20
719.12942639
 30
0.0
 11
-433.36163806
 21
720.69192639
 31
0.0
  0
LINE
  8
0
  6
CONTINUOUS
 62
       7
  5
299
 10
-435.39288806
 20
719.12942639
 30
0.0
 11
-434.87205472
 21
720.69192639
 31
0.0
  0
LINE
  8
0
  6
CONTINUOUS
 62
       7
  5
29A
 10
-436.38247139
 20
719.12942639
 30
0.0
 11
-435.86163806
 21
720.69192639
 31
0.0
  0
LINE
  8
0
  6
CONTINUOUS
 62
       7
  5
29B
 10
-436.64288806
 20
719.12942639
 30
0.0
 11
-436.12205472
 21
720.69192639
 31
0.0
  0
LINE
  8
0
  6
CONTINUOUS
 62
       7
  5
29C
 10
-432.55043419
 20
720.69192639
 30
0.0
 11
-433.36163806
 21
720.69192639
 31
0.0
  0
LINE
  8
0
  6
CONTINUOUS
 62
       7
  5
29D
 10
-433.88247139
 20
719.12942639
 30
0.0
 11
-433.07126753
 21
719.12942639
 31
0.0
  0
LINE
  8
0
  6
CONTINUOUS
 62
       7
  5
29E
 10
-434.29913806
 20
720.69192639
 30
0.0
 11
-434.87205472
 21
720.69192639
 31
0.0
  0
LINE
  8
0
  6
CONTINUOUS
 62
       7
  5
29F
 10
-435.86163806
 20
720.69192639
 30
0.0
 11
-436.12205472
 21
720.69192639
 31
0.0
  0
LINE
  8
0
  6
CONTINUOUS
 62
       7
  5
2A0
 10
-435.39288806
 20
719.12942639
 30
0.0
 11
-434.81997139
 21
719.12942639
 31
0.0
  0
LINE
  8
0
  6
CONTINUOUS
 62
       7
  5
2A1
 10
-436.38247139
 20
719.12942639
 30
0.0
 11
-436.64288806
 21
719.12942639
 31
0.0
  0
ARC
  8
0
  6
CONTINUOUS
 62
       7
  5
2A2
 10
-411.15130303
 20
716.62942639
 30
0.0
 40
2.5
 50
269.99999846
 51
450.00000154
  0
LINE
  8
0
  6
CONTINUOUS
 62
       7
  5
2A3
 10
-426.54281727
 20
706.63192639
 30
0.0
 11
-422.94906727
 21
706.63192639
 31
0.0
  0
LINE
  8
0
  6
CONTINUOUS
 62
       7
  5
2A4
 10
-427.12969227
 20
705.06692639
 30
0.0
 11
-421.86452153
 21
705.06692639
 31
0.0
  0
LINE
  8
0
  6
CONTINUOUS
 62
       7
  5
2A5
 10
-421.86452153
 20
705.06692639
 30
0.0
 11
-419.05295903
 21
712.56442639
 31
0.0
  0
LINE
  8
0
  6
CONTINUOUS
 62
       7
  5
2A6
 10
-418.46608403
 20
714.12942639
 30
0.0
 11
-416.59108403
 21
719.12942639
 31
0.0
  0
LINE
  8
0
  6
CONTINUOUS
 62
       7
  5
2A7
 10
-419.05295903
 20
712.56442639
 30
0.0
 11
-417.92990966
 21
712.56442639
 31
0.0
  0
LINE
  8
0
  6
CONTINUOUS
 62
       7
  5
2A8
 10
-416.13222208
 20
712.56442639
 30
0.0
 11
-411.15130303
 21
712.56442639
 31
0.0
  0
LINE
  8
0
  6
CONTINUOUS
 62
       7
  5
2A9
 10
-412.77906991
 20
706.63192639
 30
0.0
 11
-416.13222208
 21
712.56442639
 31
0.0
  0
ARC
  8
0
  6
CONTINUOUS
 62
       7
  5
2AA
 10
-411.15130303
 20
716.62942639
 30
0.0
 40
4.0625
 50
269.99999846
 51
450.00000154
  0
LINE
  8
0
  6
CONTINUOUS
 62
       7
  5
2AB
 10
-413.69219227
 20
705.06692639
 30
0.0
 11
-408.06719227
 21
705.06692639
 31
0.0
  0
LINE
  8
0
  6
CONTINUOUS
 62
       7
  5
2AC
 10
-412.77906991
 20
706.63192639
 30
0.0
 11
-408.16106244
 21
706.63192639
 31
0.0
  0
ARC
  8
0
  6
CONTINUOUS
 62
       7
  5
2AD
 10
-408.62658929
 20
710.14176404
 30
0.0
 40
3.5405756
 50
277.55531826
 51
282.61004545
  0
ARC
  8
0
  6
CONTINUOUS
 62
       7
  5
2AE
 10
-408.62658929
 20
710.14176404
 30
0.0
 40
5.1055756
 50
276.29029126
 51
293.79815571
  0
ARC
  8
0
  6
CONTINUOUS
 62
       7
  5
2AF
 10
-408.62658929
 20
710.14176404
 30
0.0
 40
5.1055756
 50
316.5712576
 51
318.01426716
  0
ARC
  8
0
  6
CONTINUOUS
 62
       7
  5
2B0
 10
-404.95951575
 20
708.46019633
 30
0.0
 40
3.3943442
 50
209.33182013
 51
211.50126274
  0
ARC
  8
0
  6
CONTINUOUS
 62
       7
  5
2B1
 10
-404.95951575
 20
708.46019633
 30
0.0
 40
3.3943442
 50
241.74457628
 51
269.99999846
  0
ARC
  8
0
  6
CONTINUOUS
 62
       7
  5
2B2
 10
-396.54247079
 20
711.10468504
 30
0.0
 40
6.07053418
 50
241.28311362
 51
264.04345057
  0
LINE
  8
0
  6
CONTINUOUS
 62
       7
  5
2B3
 10
-404.95951575
 20
705.06692639
 30
0.0
 11
-401.43778109
 21
705.06692639
 31
0.0
  0
ARC
  8
0
  6
CONTINUOUS
 62
       7
  5
2B4
 10
-396.54247079
 20
711.10468504
 30
0.0
 40
4.50553418
 50
251.08707921
 51
263.08482659
  0
ARC
  8
0
  6
CONTINUOUS
 62
       7
  5
2B5
 10
-402.76618598
 20
711.84738376
 30
0.0
 40
5.34436044
 50
282.60950804
 51
291.93126858
  0
LINE
  8
0
  6
CONTINUOUS
 62
       7
  5
2B6
 10
-404.91876758
 20
706.63192639
 30
0.0
 11
-401.59948424
 21
706.63192639
 31
0.0
  0
ARC
  8
0
  6
CONTINUOUS
 62
       7
  5
2B7
 10
-402.76618598
 20
711.84738376
 30
0.0
 40
6.90936044
 50
313.58286062
 51
326.24939208
  0
ARC
  8
0
  6
CONTINUOUS
 62
       7
  5
2B8
 10
-402.76618598
 20
711.84738376
 30
0.0
 40
6.90936044
 50
281.08479839
 51
298.59507286
  0
LINE
  8
0
  6
CONTINUOUS
 62
       7
  5
2B9
 10
-397.17243564
 20
705.06692639
 30
0.0
 11
-394.62969227
 21
705.06692639
 31
0.0
  0
LINE
  8
0
  6
CONTINUOUS
 62
       7
  5
2BA
 10
-394.99368072
 20
706.91618216
 30
0.0
 11
-390.7412799
 21
711.16858298
 31
0.0
  0
LINE
  8
0
  6
CONTINUOUS
 62
       7
  5
2BB
 10
-390.59477171
 20
706.63192639
 30
0.0
 11
-389.90719963
 21
710.75735884
 31
0.0
  0
LINE
  8
0
  6
CONTINUOUS
 62
       7
  5
2BC
 10
-397.08493582
 20
706.63192639
 30
0.0
 11
-395.56219227
 21
706.63192639
 31
0.0
  0
ARC
  8
0
  6
CONTINUOUS
 62
       7
  5
2BD
 10
-390.38618349
 20
710.83718949
 30
0.0
 40
0.48571093
 50
350.53767763
 51
496.97750809
  0
LINE
  8
0
  6
CONTINUOUS
 62
       7
  5
2BE
 10
-388.94452187
 20
706.63192639
 30
0.0
 11
-386.33982224
 21
707.88300259
 31
0.0
  0
LINE
  8
0
  6
CONTINUOUS
 62
       7
  5
2BF
 10
-388.69219227
 20
705.06692639
 30
0.0
 11
-386.51144519
 21
706.03324255
 31
0.0
  0
LINE
  8
0
  6
CONTINUOUS
 62
       7
  5
2C0
 10
-390.59477171
 20
706.63192639
 30
0.0
 11
-388.94452187
 21
706.63192639
 31
0.0
  0
LINE
  8
0
  6
CONTINUOUS
 62
       7
  5
2C1
 10
-383.34532165
 20
705.77201825
 30
0.0
 11
-382.61591628
 21
705.06692639
 31
0.0
  0
LINE
  8
0
  6
CONTINUOUS
 62
       7
  5
2C2
 10
-380.87969227
 20
706.63192639
 30
0.0
 11
-378.68113105
 21
706.63192639
 31
0.0
  0
LINE
  8
0
  6
CONTINUOUS
 62
       7
  5
2C3
 10
-373.6839882
 20
711.00442639
 30
0.0
 11
-378.68113105
 21
706.63192639
 31
0.0
  0
LINE
  8
0
  6
CONTINUOUS
 62
       7
  5
2C4
 10
-381.29114122
 20
710.7024056
 30
0.0
 11
-379.62588164
 21
710.7024056
 31
0.0
  0
LINE
  8
0
  6
CONTINUOUS
 62
       7
  5
2C5
 10
-381.66916541
 20
709.66283908
 30
0.0
 11
-381.29114122
 21
710.7024056
 31
0.0
  0
LINE
  8
0
  6
CONTINUOUS
 62
       7
  5
2C6
 10
-380.87969227
 20
707.25442639
 30
0.0
 11
-379.62588164
 21
710.7024056
 31
0.0
  0
LINE
  8
0
  6
CONTINUOUS
 62
       7
  5
2C7
 10
-376.62645201
 20
705.11615763
 30
0.0
 11
-375.83452988
 21
707.29394347
 31
0.0
  0
LINE
  8
0
  6
CONTINUOUS
 62
       7
  5
2C8
 10
-373.47526281
 20
708.81692639
 30
0.0
 11
-374.83889917
 21
705.06692639
 31
0.0
  0
LINE
  8
0
  6
CONTINUOUS
 62
       7
  5
2C9
 10
-372.75469227
 20
705.06692639
 30
0.0
 11
-371.3910559
 21
708.81692639
 31
0.0
  0
LINE
  8
0
  6
CONTINUOUS
 62
       7
  5
2CA
 10
-369.11114382
 20
710.00855962
 30
0.0
 11
-370.33901045
 21
706.63192639
 31
0.0
  0
LINE
  8
0
  6
CONTINUOUS
 62
       7
  5
2CB
 10
-369.63072648
 20
711.00442639
 30
0.0
 11
-369.11114382
 21
710.00855962
 31
0.0
  0
LINE
  8
0
  6
CONTINUOUS
 62
       7
  5
2CC
 10
-373.05919884
 20
710.07491981
 30
0.0
 11
-372.75177737
 21
711.00442639
 31
0.0
  0
LINE
  8
0
  6
CONTINUOUS
 62
       7
  5
2CD
 10
-373.05919884
 20
710.07491981
 30
0.0
 11
-371.39445591
 21
711.00442639
 31
0.0
  0
LINE
  8
0
  6
CONTINUOUS
 62
       7
  5
2CE
 10
-369.63072648
 20
711.00442639
 30
0.0
 11
-371.39445591
 21
711.00442639
 31
0.0
  0
LINE
  8
0
  6
CONTINUOUS
 62
       7
  5
2CF
 10
-372.75177737
 20
711.00442639
 30
0.0
 11
-373.6839882
 21
711.00442639
 31
0.0
  0
ARC
  8
0
  6
CONTINUOUS
 62
       7
  5
2D0
 10
-358.33534928
 20
710.14176404
 30
0.0
 40
3.5405756
 50
277.55531826
 51
282.61004545
  0
ARC
  8
0
  6
CONTINUOUS
 62
       7
  5
2D1
 10
-358.33534928
 20
710.14176404
 30
0.0
 40
5.1055756
 50
276.29029126
 51
293.79815571
  0
ARC
  8
0
  6
CONTINUOUS
 62
       7
  5
2D2
 10
-358.33534928
 20
710.14176404
 30
0.0
 40
5.1055756
 50
316.5712576
 51
318.01426716
  0
ARC
  8
0
  6
CONTINUOUS
 62
       7
  5
2D3
 10
-354.66827574
 20
708.46019633
 30
0.0
 40
3.3943442
 50
209.33182013
 51
211.50126274
  0
ARC
  8
0
  6
CONTINUOUS
 62
       7
  5
2D4
 10
-354.66827574
 20
708.46019633
 30
0.0
 40
3.3943442
 50
241.74457628
 51
269.99999846
  0
LINE
  8
0
  6
CONTINUOUS
 62
       7
  5
2D5
 10
-363.30570199
 20
706.63192639
 30
0.0
 11
-357.86982243
 21
706.63192639
 31
0.0
  0
LINE
  8
0
  6
CONTINUOUS
 62
       7
  5
2D6
 10
-354.66827574
 20
705.06692639
 30
0.0
 11
-351.65890434
 21
705.06692639
 31
0.0
  0
LINE
  8
0
  6
CONTINUOUS
 62
       7
  5
2D7
 10
-354.62752756
 20
706.63192639
 30
0.0
 11
-351.30824423
 21
706.63192639
 31
0.0
  0
LINE
  8
0
  6
CONTINUOUS
 62
       7
  5
2D8
 10
-392.44219227
 20
705.06692639
 30
0.0
 11
-388.69219227
 21
705.06692639
 31
0.0
  0
LINE
  8
0
  6
CONTINUOUS
 62
       7
  5
2D9
 10
-376.62645201
 20
705.11615763
 30
0.0
 11
-374.83889917
 21
705.06692639
 31
0.0
  0
LINE
  8
0
  6
CONTINUOUS
 62
       7
  5
2DA
 10
-370.33901045
 20
706.63192639
 30
0.0
 11
-367.44924587
 21
706.63192639
 31
0.0
  0
LINE
  8
0
  6
CONTINUOUS
 62
       7
  5
2DB
 10
-362.11633968
 20
708.88489996
 30
0.0
 11
-360.94892141
 21
709.82856306
 31
0.0
  0
ARC
  8
0
  6
CONTINUOUS
 62
       7
  5
2DC
 10
-363.30570199
 20
708.08192639
 30
0.0
 40
1.45
 50
34.0753753
 51
269.99999846
  0
ARC
  8
0
  6
CONTINUOUS
 62
       7
  5
2DD
 10
-363.30570199
 20
708.08192639
 30
0.0
 40
2.93345434
 50
36.54256208
 51
190.98611795
  0
LINE
  8
0
  6
CONTINUOUS
 62
       7
  5
2DE
 10
-367.05458953
 20
705.06692639
 30
0.0
 11
-365.56871206
 21
706.16030793
 31
0.0
  0
LINE
  8
0
  6
CONTINUOUS
 62
       7
  5
2DF
 10
-366.20402987
 20
707.5482174
 30
0.0
 11
-367.44924587
 21
706.63192639
 31
0.0
  0
LINE
  8
0
  6
CONTINUOUS
 62
       7
  5
2E0
 10
-365.56871206
 20
706.16030793
 30
0.0
 11
-364.31719227
 21
705.06692639
 31
0.0
  0
LINE
  8
0
  6
CONTINUOUS
 62
       7
  5
2E1
 10
-351.30824423
 20
706.63192639
 30
0.0
 11
-351.65890434
 21
705.06692639
 31
0.0
  0
LINE
  8
0
  6
CONTINUOUS
 62
       7
  5
2E2
 10
-434.41632556
 20
720.34036389
 30
0.0
 11
-435.27570056
 21
719.48098889
 31
0.0
  0
LINE
  8
0
  6
CONTINUOUS
 62
       7
  5
2E3
 10
-432.6080499
 20
720.51907929
 30
0.0
 11
-433.82485569
 21
719.30227349
 31
0.0
  0
LINE
  8
0
  6
CONTINUOUS
 62
       7
  5
2E4
 10
-430.56118619
 20
720.66067639
 30
0.0
 11
-432.06313931
 21
719.15872326
 31
0.0
  0
LINE
  8
0
  6
CONTINUOUS
 62
       7
  5
2E5
 10
-428.54303017
 20
720.69192639
 30
0.0
 11
-430.10553017
 21
719.12942639
 31
0.0
  0
LINE
  8
0
  6
CONTINUOUS
 62
       7
  5
2E6
 10
-426.45626471
 20
720.69192639
 30
0.0
 11
-428.01876471
 21
719.12942639
 31
0.0
  0
LINE
  8
0
  6
CONTINUOUS
 62
       7
  5
2E7
 10
-424.16192388
 20
720.69192639
 30
0.0
 11
-425.72442388
 21
719.12942639
 31
0.0
  0
LINE
  8
0
  6
CONTINUOUS
 62
       7
  5
2E8
 10
-422.22818932
 20
720.69192639
 30
0.0
 11
-423.79068932
 21
719.12942639
 31
0.0
  0
LINE
  8
0
  6
CONTINUOUS
 62
       7
  5
2E9
 10
-421.68759758
 20
705.53872359
 30
0.0
 11
-422.15939478
 21
705.06692639
 31
0.0
  0
LINE
  8
0
  6
CONTINUOUS
 62
       7
  5
2EA
 10
-420.83906945
 20
707.80146529
 30
0.0
 11
-423.57360834
 21
705.06692639
 31
0.0
  0
LINE
  8
0
  6
CONTINUOUS
 62
       7
  5
2EB
 10
-419.99054131
 20
710.06420699
 30
0.0
 11
-422.66481448
 21
707.38993382
 31
0.0
  0
LINE
  8
0
  6
CONTINUOUS
 62
       7
  5
2EC
 10
-423.42282191
 20
706.63192639
 30
0.0
 11
-424.98782191
 21
705.06692639
 31
0.0
  0
LINE
  8
0
  6
CONTINUOUS
 62
       7
  5
2ED
 10
-419.14201317
 20
712.32694869
 30
0.0
 11
-421.81628634
 21
709.65267552
 31
0.0
  0
LINE
  8
0
  6
CONTINUOUS
 62
       7
  5
2EE
 10
-424.83703547
 20
706.63192639
 30
0.0
 11
-426.40203547
 21
705.06692639
 31
0.0
  0
LINE
  8
0
  6
CONTINUOUS
 62
       7
  5
2EF
 10
-426.25124903
 20
706.63192639
 30
0.0
 11
-426.71775821
 21
706.16541722
 31
0.0
  0
LINE
  8
0
  6
CONTINUOUS
 62
       7
  5
2F0
 10
-416.43388972
 20
720.69192639
 30
0.0
 11
-418.42217379
 21
718.70364231
 31
0.0
  0
LINE
  8
0
  6
CONTINUOUS
 62
       7
  5
2F1
 10
-417.84810328
 20
720.69192639
 30
0.0
 11
-419.41060328
 21
719.12942639
 31
0.0
  0
LINE
  8
0
  6
CONTINUOUS
 62
       7
  5
2F2
 10
-419.26231684
 20
720.69192639
 30
0.0
 11
-420.82481684
 21
719.12942639
 31
0.0
  0
LINE
  8
0
  6
CONTINUOUS
 62
       7
  5
2F3
 10
-420.67653041
 20
720.69192639
 30
0.0
 11
-421.50158938
 21
719.86686741
 31
0.0
  0
LINE
  8
0
  6
CONTINUOUS
 62
       7
  5
2F4
 10
-406.33770678
 20
710.98911945
 30
0.0
 11
-407.83365679
 21
709.49316944
 31
0.0
  0
LINE
  8
0
  6
CONTINUOUS
 62
       7
  5
2F5
 10
-404.83168672
 20
711.08092595
 30
0.0
 11
-408.20248943
 21
707.71012324
 31
0.0
  0
LINE
  8
0
  6
CONTINUOUS
 62
       7
  5
2F6
 10
-403.73895315
 20
709.34523239
 30
0.0
 11
-408.01071524
 21
705.07347031
 31
0.0
  0
LINE
  8
0
  6
CONTINUOUS
 62
       7
  5
2F7
 10
-413.60546259
 20
720.69192639
 30
0.0
 11
-415.16796259
 21
719.12942639
 31
0.0
  0
LINE
  8
0
  6
CONTINUOUS
 62
       7
  5
2F8
 10
-417.4449569
 20
716.85243209
 30
0.0
 11
-420.11923007
 21
714.17815891
 31
0.0
  0
LINE
  8
0
  6
CONTINUOUS
 62
       7
  5
2F9
 10
-412.19124903
 20
720.69192639
 30
0.0
 11
-413.75374903
 21
719.12942639
 31
0.0
  0
LINE
  8
0
  6
CONTINUOUS
 62
       7
  5
2FA
 10
-418.29348503
 20
714.58969039
 30
0.0
 11
-420.96775821
 21
711.91541722
 31
0.0
  0
LINE
  8
0
  6
CONTINUOUS
 62
       7
  5
2FB
 10
-410.79287788
 20
720.67608398
 30
0.0
 11
-412.33953547
 21
719.12942639
 31
0.0
  0
LINE
  8
0
  6
CONTINUOUS
 62
       7
  5
2FC
 10
-417.33953547
 20
714.12942639
 30
0.0
 11
-418.90453547
 21
712.56442639
 31
0.0
  0
LINE
  8
0
  6
CONTINUOUS
 62
       7
  5
2FD
 10
-409.65028998
 20
720.40445832
 30
0.0
 11
-410.93472112
 21
719.12002717
 31
0.0
  0
LINE
  8
0
  6
CONTINUOUS
 62
       7
  5
2FE
 10
-415.92532191
 20
714.12942639
 30
0.0
 11
-417.77116964
 21
712.28357866
 31
0.0
  0
LINE
  8
0
  6
CONTINUOUS
 62
       7
  5
2FF
 10
-408.74093513
 20
719.8995996
 30
0.0
 11
-409.8665093
 21
718.77402543
 31
0.0
  0
LINE
  8
0
  6
CONTINUOUS
 62
       7
  5
300
 10
-408.01488381
 20
719.21143736
 30
0.0
 11
-409.12820147
 21
718.0981197
 31
0.0
  0
LINE
  8
0
  6
CONTINUOUS
 62
       7
  5
301
 10
-407.46827296
 20
718.34383465
 30
0.0
 11
-408.69861478
 21
717.11349283
 31
0.0
  0
LINE
  8
0
  6
CONTINUOUS
 62
       7
  5
302
 10
-407.13801986
 20
717.25987419
 30
0.0
 11
-408.9459727
 21
715.45192134
 31
0.0
  0
LINE
  8
0
  6
CONTINUOUS
 62
       7
  5
303
 10
-415.01967616
 20
720.69192639
 30
0.0
 11
-416.58217616
 21
719.12942639
 31
0.0
  0
LINE
  8
0
  6
CONTINUOUS
 62
       7
  5
304
 10
-416.59642876
 20
719.11517379
 30
0.0
 11
-419.27070193
 21
716.44090061
 31
0.0
  0
LINE
  8
0
  6
CONTINUOUS
 62
       7
  5
305
 10
-413.09689478
 20
714.12942639
 30
0.0
 11
-414.66189478
 21
712.56442639
 31
0.0
  0
LINE
  8
0
  6
CONTINUOUS
 62
       7
  5
306
 10
-415.60127056
 20
711.62505062
 30
0.0
 11
-416.74979317
 21
710.476528
 31
0.0
  0
LINE
  8
0
  6
CONTINUOUS
 62
       7
  5
307
 10
-414.51110834
 20
714.12942639
 30
0.0
 11
-416.07610834
 21
712.56442639
 31
0.0
  0
LINE
  8
0
  6
CONTINUOUS
 62
       7
  5
308
 10
-416.11195879
 20
712.52857595
 30
0.0
 11
-417.2604814
 21
711.38005333
 31
0.0
  0
LINE
  8
0
  6
CONTINUOUS
 62
       7
  5
309
 10
-411.68268122
 20
714.12942639
 30
0.0
 11
-413.24768122
 21
712.56442639
 31
0.0
  0
LINE
  8
0
  6
CONTINUOUS
 62
       7
  5
30A
 10
-415.09058232
 20
710.72152528
 30
0.0
 11
-416.23910494
 21
709.57300267
 31
0.0
  0
LINE
  8
0
  6
CONTINUOUS
 62
       7
  5
30B
 10
-409.97379799
 20
714.42409606
 30
0.0
 11
-411.83346766
 21
712.56442639
 31
0.0
  0
LINE
  8
0
  6
CONTINUOUS
 62
       7
  5
30C
 10
-414.57989409
 20
709.81799995
 30
0.0
 11
-415.72841671
 21
708.66947733
 31
0.0
  0
LINE
  8
0
  6
CONTINUOUS
 62
       7
  5
30D
 10
-407.1719454
 20
715.81173508
 30
0.0
 11
-410.33361173
 21
712.65006875
 31
0.0
  0
LINE
  8
0
  6
CONTINUOUS
 62
       7
  5
30E
 10
-414.06920586
 20
708.91447462
 30
0.0
 11
-415.21772848
 21
707.765952
 31
0.0
  0
LINE
  8
0
  6
CONTINUOUS
 62
       7
  5
30F
 10
-413.55851763
 20
708.01094929
 30
0.0
 11
-414.70704025
 21
706.86242667
 31
0.0
  0
LINE
  8
0
  6
CONTINUOUS
 62
       7
  5
310
 10
-413.0478294
 20
707.10742396
 30
0.0
 11
-414.19635202
 21
705.95890134
 31
0.0
  0
LINE
  8
0
  6
CONTINUOUS
 62
       7
  5
311
 10
-412.10911341
 20
706.63192639
 30
0.0
 11
-413.67411341
 21
705.06692639
 31
0.0
  0
LINE
  8
0
  6
CONTINUOUS
 62
       7
  5
312
 10
-410.69489985
 20
706.63192639
 30
0.0
 11
-412.25989985
 21
705.06692639
 31
0.0
  0
LINE
  8
0
  6
CONTINUOUS
 62
       7
  5
313
 10
-409.28068628
 20
706.63192639
 30
0.0
 11
-410.84568628
 21
705.06692639
 31
0.0
  0
LINE
  8
0
  6
CONTINUOUS
 62
       7
  5
314
 10
-404.06390995
 20
710.43448916
 30
0.0
 11
-405.35995198
 21
709.13844713
 31
0.0
  0
LINE
  8
0
  6
CONTINUOUS
 62
       7
  5
315
 10
-406.53703675
 20
707.96136236
 30
0.0
 11
-409.43147272
 21
705.06692639
 31
0.0
  0
LINE
  8
0
  6
CONTINUOUS
 62
       7
  5
316
 10
-396.36515335
 20
715.30481863
 30
0.0
 11
-399.95099867
 21
711.71897331
 31
0.0
  0
LINE
  8
0
  6
CONTINUOUS
 62
       7
  5
317
 10
-404.29776187
 20
707.37221011
 30
0.0
 11
-406.31968232
 21
705.35028967
 31
0.0
  0
LINE
  8
0
  6
CONTINUOUS
 62
       7
  5
318
 10
-395.39357471
 20
714.86218371
 30
0.0
 11
-400.75783538
 21
709.49792304
 31
0.0
  0
LINE
  8
0
  6
CONTINUOUS
 62
       7
  5
319
 10
-403.62383203
 20
706.63192639
 30
0.0
 11
-405.18256955
 21
705.07318887
 31
0.0
  0
LINE
  8
0
  6
CONTINUOUS
 62
       7
  5
31A
 10
-402.20961847
 20
706.63192639
 30
0.0
 11
-403.77461847
 21
705.06692639
 31
0.0
  0
LINE
  8
0
  6
CONTINUOUS
 62
       7
  5
31B
 10
-395.04145318
 20
713.80009168
 30
0.0
 11
-397.07778165
 21
711.76376321
 31
0.0
  0
LINE
  8
0
  6
CONTINUOUS
 62
       7
  5
31C
 10
-398.90888651
 20
709.93265835
 30
0.0
 11
-400.94521498
 21
707.89632988
 31
0.0
  0
LINE
  8
0
  6
CONTINUOUS
 62
       7
  5
31D
 10
-395.1227908
 20
712.3045405
 30
0.0
 11
-402.36040491
 21
705.06692639
 31
0.0
  0
LINE
  8
0
  6
CONTINUOUS
 62
       7
  5
31E
 10
-395.73700541
 20
710.27611232
 30
0.0
 11
-400.78494406
 21
705.22817367
 31
0.0
  0
LINE
  8
0
  6
CONTINUOUS
 62
       7
  5
31F
 10
-390.45088643
 20
711.31857149
 30
0.0
 11
-396.70253154
 21
705.06692639
 31
0.0
  0
LINE
  8
0
  6
CONTINUOUS
 62
       7
  5
320
 10
-389.96867983
 20
714.62920522
 30
0.0
 11
-390.29484729
 21
714.30303776
 31
0.0
  0
LINE
  8
0
  6
CONTINUOUS
 62
       7
  5
321
 10
-397.81522813
 20
706.78265692
 30
0.0
 11
-399.03046291
 21
705.56742214
 31
0.0
  0
LINE
  8
0
  6
CONTINUOUS
 62
       7
  5
322
 10
-388.75780086
 20
714.42587063
 30
0.0
 11
-390.0915127
 21
713.09215879
 31
0.0
  0
LINE
  8
0
  6
CONTINUOUS
 62
       7
  5
323
 10
-396.5517451
 20
706.63192639
 30
0.0
 11
-397.9774737
 21
705.20619779
 31
0.0
  0
LINE
  8
0
  6
CONTINUOUS
 62
       7
  5
324
 10
-382.72547947
 20
710.55869709
 30
0.0
 11
-387.83934128
 21
705.44483527
 31
0.0
  0
LINE
  8
0
  6
CONTINUOUS
 62
       7
  5
325
 10
-389.48067729
 20
706.63192639
 30
0.0
 11
-391.04567729
 21
705.06692639
 31
0.0
  0
LINE
  8
0
  6
CONTINUOUS
 62
       7
  5
326
 10
-390.53474788
 20
706.99206936
 30
0.0
 11
-392.45989085
 21
705.06692639
 31
0.0
  0
LINE
  8
0
  6
CONTINUOUS
 62
       7
  5
327
 10
-390.25190516
 20
708.68912564
 30
0.0
 11
-392.15580984
 21
706.78522097
 31
0.0
  0
LINE
  8
0
  6
CONTINUOUS
 62
       7
  5
328
 10
-395.28831798
 20
705.06692639
 30
0.0
 11
-389.96906245
 21
710.38618191
 31
0.0
  0
LINE
  8
0
  6
CONTINUOUS
 62
       7
  5
329
 10
-379.75334383
 20
710.7024056
 30
0.0
 11
-385.3794104
 21
705.07633903
 31
0.0
  0
LINE
  8
0
  6
CONTINUOUS
 62
       7
  5
32A
 10
-380.36116814
 20
708.68036772
 30
0.0
 11
-383.30677723
 21
705.73475864
 31
0.0
  0
LINE
  8
0
  6
CONTINUOUS
 62
       7
  5
32B
 10
-380.87969227
 20
706.74763004
 30
0.0
 11
-382.56039591
 21
705.06692639
 31
0.0
  0
LINE
  8
0
  6
CONTINUOUS
 62
       7
  5
32C
 10
-379.58118235
 20
706.63192639
 30
0.0
 11
-381.14618235
 21
705.06692639
 31
0.0
  0
LINE
  8
0
  6
CONTINUOUS
 62
       7
  5
32D
 10
-374.56783294
 20
710.23106223
 30
0.0
 11
-379.73196879
 21
705.06692639
 31
0.0
  0
LINE
  8
0
  6
CONTINUOUS
 62
       7
  5
32E
 10
-384.85708299
 20
709.84130712
 30
0.0
 11
-385.66085351
 21
709.0375366
 31
0.0
  0
LINE
  8
0
  6
CONTINUOUS
 62
       7
  5
32F
 10
-387.25492514
 20
707.44346498
 30
0.0
 11
-389.63146373
 21
705.06692639
 31
0.0
  0
LINE
  8
0
  6
CONTINUOUS
 62
       7
  5
330
 10
-384.37968645
 20
707.49027654
 30
0.0
 11
-386.28421438
 21
705.58574861
 31
0.0
  0
LINE
  8
0
  6
CONTINUOUS
 62
       7
  5
331
 10
-381.16755739
 20
710.7024056
 30
0.0
 11
-381.36176055
 21
710.50820244
 31
0.0
  0
LINE
  8
0
  6
CONTINUOUS
 62
       7
  5
332
 10
-381.85066505
 20
710.01929794
 30
0.0
 11
-383.19519869
 21
708.6747643
 31
0.0
  0
LINE
  8
0
  6
CONTINUOUS
 62
       7
  5
333
 10
-362.56488915
 20
710.92029753
 30
0.0
 11
-368.41826029
 21
705.06692639
 31
0.0
  0
LINE
  8
0
  6
CONTINUOUS
 62
       7
  5
334
 10
-351.31655103
 20
706.59485305
 30
0.0
 11
-352.84447769
 21
705.06692639
 31
0.0
  0
LINE
  8
0
  6
CONTINUOUS
 62
       7
  5
335
 10
-352.71112467
 20
706.63192639
 30
0.0
 11
-354.27612467
 21
705.06692639
 31
0.0
  0
LINE
  8
0
  6
CONTINUOUS
 62
       7
  5
336
 10
-354.14665731
 20
710.853248
 30
0.0
 11
-355.60027504
 21
709.39963027
 31
0.0
  0
LINE
  8
0
  6
CONTINUOUS
 62
       7
  5
337
 10
-353.56788525
 20
710.00037308
 30
0.0
 11
-355.00953321
 21
708.55872511
 31
0.0
  0
LINE
  8
0
  6
CONTINUOUS
 62
       7
  5
338
 10
-355.79122712
 20
707.77703121
 30
0.0
 11
-358.50133194
 21
705.06692639
 31
0.0
  0
LINE
  8
0
  6
CONTINUOUS
 62
       7
  5
339
 10
-355.20174033
 20
711.19494512
 30
0.0
 11
-357.87339484
 21
708.52329061
 31
0.0
  0
LINE
  8
0
  6
CONTINUOUS
 62
       7
  5
33A
 10
-359.76475906
 20
706.63192639
 30
0.0
 11
-361.32975906
 21
705.06692639
 31
0.0
  0
LINE
  8
0
  6
CONTINUOUS
 62
       7
  5
33B
 10
-356.35169115
 20
708.64821416
 30
0.0
 11
-357.80530888
 21
707.19459643
 31
0.0
  0
LINE
  8
0
  6
CONTINUOUS
 62
       7
  5
33C
 10
-358.36797892
 20
706.63192639
 30
0.0
 11
-359.93297892
 21
705.06692639
 31
0.0
  0
LINE
  8
0
  6
CONTINUOUS
 62
       7
  5
33D
 10
-353.4902099
 20
708.68126828
 30
0.0
 11
-356.94127913
 21
705.23019905
 31
0.0
  0
LINE
  8
0
  6
CONTINUOUS
 62
       7
  5
33E
 10
-354.10790481
 20
706.63192639
 30
0.0
 11
-355.55587388
 21
705.18395732
 31
0.0
  0
LINE
  8
0
  6
CONTINUOUS
 62
       7
  5
33F
 10
-361.19640604
 20
706.63192639
 30
0.0
 11
-362.76140604
 21
705.06692639
 31
0.0
  0
LINE
  8
0
  6
CONTINUOUS
 62
       7
  5
340
 10
-362.59318619
 20
706.63192639
 30
0.0
 11
-364.15818619
 21
705.06692639
 31
0.0
  0
LINE
  8
0
  6
CONTINUOUS
 62
       7
  5
341
 10
-361.60423394
 20
710.44930576
 30
0.0
 11
-362.6689203
 21
709.3846194
 31
0.0
  0
LINE
  8
0
  6
CONTINUOUS
 62
       7
  5
342
 10
-363.89823819
 20
706.75852137
 30
0.0
 11
-364.99642565
 21
705.6603339
 31
0.0
  0
LINE
  8
0
  6
CONTINUOUS
 62
       7
  5
343
 10
-364.608395
 20
707.4451447
 30
0.0
 11
-366.79725098
 21
705.25628872
 31
0.0
  0
LINE
  8
0
  6
CONTINUOUS
 62
       7
  5
344
 10
-363.93484756
 20
710.94711926
 30
0.0
 11
-366.17089487
 21
708.71107196
 31
0.0
  0
LINE
  8
0
  6
CONTINUOUS
 62
       7
  5
345
 10
-368.25004044
 20
706.63192639
 30
0.0
 11
-369.81504044
 21
705.06692639
 31
0.0
  0
LINE
  8
0
  6
CONTINUOUS
 62
       7
  5
346
 10
-369.68168742
 20
706.63192639
 30
0.0
 11
-371.24668742
 21
705.06692639
 31
0.0
  0
LINE
  8
0
  6
CONTINUOUS
 62
       7
  5
347
 10
-369.91646352
 20
707.79393043
 30
0.0
 11
-372.64346756
 21
705.06692639
 31
0.0
  0
LINE
  8
0
  6
CONTINUOUS
 62
       7
  5
348
 10
-369.11880239
 20
710.02323854
 30
0.0
 11
-372.00016525
 21
707.14187568
 31
0.0
  0
LINE
  8
0
  6
CONTINUOUS
 62
       7
  5
349
 10
-369.60367561
 20
710.95257888
 30
0.0
 11
-371.7393281
 21
708.81692639
 31
0.0
  0
LINE
  8
0
  6
CONTINUOUS
 62
       7
  5
34A
 10
-374.4672255
 20
706.08902899
 30
0.0
 11
-375.4893281
 21
705.06692639
 31
0.0
  0
LINE
  8
0
  6
CONTINUOUS
 62
       7
  5
34B
 10
-370.96604166
 20
711.00442639
 30
0.0
 11
-373.15354166
 21
708.81692639
 31
0.0
  0
LINE
  8
0
  6
CONTINUOUS
 62
       7
  5
34C
 10
-373.65910346
 20
708.31136459
 30
0.0
 11
-376.4962472
 21
705.47422086
 31
0.0
  0
LINE
  8
0
  6
CONTINUOUS
 62
       7
  5
34D
 10
-372.93537586
 20
710.44930576
 30
0.0
 11
-377.88419596
 21
705.50048565
 31
0.0
  0
LINE
  8
0
  6
CONTINUOUS
 62
       7
  5
34E
 10
146.30780773
 20
725.69192639
 30
0.0
 11
461.93280773
 21
725.69192639
 31
0.0
  0
LINE
  8
0
  6
CONTINUOUS
 62
       7
  5
34F
 10
146.30780773
 20
725.69192639
 30
0.0
 11
146.30780773
 21
676.16124071
 31
0.0
  0
LINE
  8
0
  6
CONTINUOUS
 62
       7
  5
350
 10
461.93280773
 20
725.69192639
 30
0.0
 11
461.93280773
 21
676.16124071
 31
0.0
  0
LINE
  8
0
  6
CONTINUOUS
 62
       7
  5
351
 10
-430.56719227
 20
-627.74557361
 30
0.0
 11
-430.56719227
 21
-452.74557361
 31
0.0
  0
LINE
  8
0
  6
CONTINUOUS
 62
       7
  5
352
 10
-197.75469227
 20
-627.74557361
 30
0.0
 11
-197.75469227
 21
-452.74557361
 31
0.0
  0
LINE
  8
0
  6
CONTINUOUS
 62
       7
  5
353
 10
67.87030773
 20
-627.74557361
 30
0.0
 11
67.87030773
 21
-452.74557361
 31
0.0
  0
LINE
  8
0
  6
CONTINUOUS
 62
       7
  5
354
 10
123.49530773
 20
-627.74557361
 30
0.0
 11
123.49530773
 21
-452.74557361
 31
0.0
  0
LINE
  8
0
  6
CONTINUOUS
 62
       7
  5
355
 10
145.05780773
 20
-696.49557361
 30
0.0
 11
145.05780773
 21
-636.18307361
 31
0.0
  0
LINE
  8
0
  6
CONTINUOUS
 62
       7
  5
356
 10
120.05780773
 20
-696.49557361
 30
0.0
 11
120.05780773
 21
-636.18307361
 31
0.0
  0
LINE
  8
0
  6
CONTINUOUS
 62
       7
  5
357
 10
-192.75469227
 20
-696.49557361
 30
0.0
 11
-192.75469227
 21
-636.18307361
 31
0.0
  0
LINE
  8
0
  6
CONTINUOUS
 62
       7
  5
358
 10
-217.75469227
 20
-696.49557361
 30
0.0
 11
-217.75469227
 21
-636.18307361
 31
0.0
  0
LINE
  8
0
  6
CONTINUOUS
 62
       7
  5
359
 10
-465.25469227
 20
-602.74557361
 30
0.0
 11
456.93280773
 21
-602.74557361
 31
0.0
  0
LINE
  8
0
  6
CONTINUOUS
 62
       7
  5
35A
 10
-465.25469227
 20
-577.74557361
 30
0.0
 11
456.93280773
 21
-577.74557361
 31
0.0
  0
LINE
  8
0
  6
CONTINUOUS
 62
       7
  5
35B
 10
-465.25469227
 20
-552.74557361
 30
0.0
 11
456.93280773
 21
-552.74557361
 31
0.0
  0
LINE
  8
0
  6
CONTINUOUS
 62
       7
  5
35C
 10
-465.25469227
 20
-527.74557361
 30
0.0
 11
456.93280773
 21
-527.74557361
 31
0.0
  0
LINE
  8
0
  6
CONTINUOUS
 62
       7
  5
35D
 10
-465.25469227
 20
-502.74557361
 30
0.0
 11
456.93280773
 21
-502.74557361
 31
0.0
  0
LINE
  8
0
  6
CONTINUOUS
 62
       7
  5
35E
 10
-465.25469227
 20
-477.74557361
 30
0.0
 11
456.93280773
 21
-477.74557361
 31
0.0
  0
LINE
  8
0
  6
CONTINUOUS
 62
       7
  5
35F
 10
437.84925683
 20
153.77032923
 30
0.0
 11
437.84925683
 21
153.17810801
 31
0.0
  0
LINE
  8
0
  6
CONTINUOUS
 62
       7
  5
360
 10
121.18684928
 20
153.77032923
 30
0.0
 11
114.18684928
 21
153.77032923
 31
0.0
  0
LINE
  8
0
  6
CONTINUOUS
 62
       7
  5
361
 10
97.68910877
 20
153.77032923
 30
0.0
 11
122.68684928
 21
153.77032923
 31
0.0
  0
LINE
  8
0
  6
CONTINUOUS
 62
       7
  5
362
 10
123.18684928
 20
153.77032923
 30
0.0
 11
-161.81315072
 21
153.77032923
 31
0.0
  0
LINE
  8
0
  6
CONTINUOUS
 62
       7
  5
363
 10
-163.30314572
 20
153.77032923
 30
0.0
 11
-164.30314572
 21
153.77032923
 31
0.0
  0
LINE
  8
0
  6
CONTINUOUS
 62
       7
  5
364
 10
-155.80314572
 20
148.97032923
 30
0.0
 11
-161.80314572
 21
148.97032923
 31
0.0
  0
LINE
  8
0
  6
CONTINUOUS
 62
       7
  5
365
 10
-163.80314572
 20
152.27032923
 30
0.0
 11
-138.80540521
 21
152.27032923
 31
0.0
  0
LINE
  8
0
  6
CONTINUOUS
 62
       7
  5
366
 10
-164.30314572
 20
148.97032923
 30
0.0
 11
-152.30314572
 21
148.97032923
 31
0.0
  0
LINE
  8
0
  6
CONTINUOUS
 62
       7
  5
367
 10
-163.80314572
 20
144.1575663
 30
0.0
 11
-153.80314572
 21
144.1575663
 31
0.0
  0
LINE
  8
0
  6
CONTINUOUS
 62
       7
  5
368
 10
-153.80314572
 20
152.27032923
 30
0.0
 11
-163.80314572
 21
152.27032923
 31
0.0
  0
LINE
  8
0
  6
CONTINUOUS
 62
       7
  5
369
 10
-163.80314572
 20
153.77032923
 30
0.0
 11
-163.80314572
 21
152.27032923
 31
0.0
  0
LINE
  8
0
  6
CONTINUOUS
 62
       7
  5
36A
 10
-138.80540521
 20
152.27032923
 30
0.0
 11
-138.80540521
 21
153.77032923
 31
0.0
  0
ARC
  8
0
  6
CONTINUOUS
 62
       7
  5
36B
 10
-164.30314572
 20
150.47032923
 30
0.0
 40
1.5
 50
179.99999693
 51
269.99999846
  0
LINE
  8
0
  6
CONTINUOUS
 62
       7
  5
36C
 10
-165.80314572
 20
150.47032923
 30
0.0
 11
-165.80314572
 21
168.47032923
 31
0.0
  0
LINE
  8
0
  6
CONTINUOUS
 62
       7
  5
36D
 10
356.65395573
 20
149.17032923
 30
0.0
 11
356.65395573
 21
163.47032923
 31
0.0
  0
LINE
  8
0
  6
CONTINUOUS
 62
       7
  5
36E
 10
336.65395573
 20
149.17032923
 30
0.0
 11
336.65395573
 21
163.47032923
 31
0.0
  0
LINE
  8
0
  6
CONTINUOUS
 62
       7
  5
36F
 10
152.69185178
 20
173.76963923
 30
0.0
 11
125.68684928
 21
173.76963923
 31
0.0
  0
LINE
  8
0
  6
CONTINUOUS
 62
       7
  5
370
 10
-164.30314572
 20
173.76963923
 30
0.0
 11
-191.30814822
 21
173.76963923
 31
0.0
  0
LINE
  8
0
  6
CONTINUOUS
 62
       7
  5
371
 10
155.69185178
 20
250.76687923
 30
0.0
 11
155.69185178
 21
176.76963923
 31
0.0
  0
LINE
  8
0
  6
CONTINUOUS
 62
       7
  5
372
 10
-194.30814822
 20
250.76687923
 30
0.0
 11
-194.30814822
 21
176.76963923
 31
0.0
  0
CIRCLE
  8
0
  6
CONTINUOUS
 62
       7
  5
373
 10
145.69185178
 20
243.76687923
 30
0.0
 40
2.5
  0
CIRCLE
  8
0
  6
CONTINUOUS
 62
       7
  5
374
 10
-184.30814822
 20
243.76687923
 30
0.0
 40
2.5
  0
CIRCLE
  8
0
  6
CONTINUOUS
 62
       7
  5
375
 10
145.69185178
 20
183.76963923
 30
0.0
 40
2.5
  0
CIRCLE
  8
0
  6
CONTINUOUS
 62
       7
  5
376
 10
-184.30814822
 20
183.76963923
 30
0.0
 40
2.5
  0
LINE
  8
0
  6
CONTINUOUS
 62
       7
  5
377
 10
-34.30814822
 20
399.76187673
 30
0.0
 11
-34.30814822
 21
377.76260123
 31
0.0
  0
LINE
  8
0
  6
CONTINUOUS
 62
       7
  5
378
 10
-4.30814822
 20
399.76187673
 30
0.0
 11
-4.30814822
 21
377.76260123
 31
0.0
  0
LINE
  8
0
  6
CONTINUOUS
 62
       7
  5
379
 10
-49.30814822
 20
399.76187673
 30
0.0
 11
10.69185178
 21
399.76187673
 31
0.0
  0
LINE
  8
0
  6
CONTINUOUS
 62
       7
  5
37A
 10
466.65395573
 20
253.76687923
 30
0.0
 11
466.65395573
 21
173.76963923
 31
0.0
  0
LINE
  8
0
  6
CONTINUOUS
 62
       7
  5
37B
 10
465.65395573
 20
253.76687923
 30
0.0
 11
465.65395573
 21
173.76963923
 31
0.0
  0
LINE
  8
0
  6
CONTINUOUS
 62
       7
  5
37C
 10
436.65395573
 20
250.76687923
 30
0.0
 11
436.65395573
 21
176.76963923
 31
0.0
  0
ARC
  8
0
  6
CONTINUOUS
 62
       7
  5
37D
 10
439.65395573
 20
176.76963923
 30
0.0
 40
3.0
 50
180.00000307
 51
269.99999846
  0
ARC
  8
0
  6
CONTINUOUS
 62
       7
  5
37E
 10
439.65395573
 20
250.76687923
 30
0.0
 40
3.0
 50
90.00000154
 51
180.00000307
  0
ARC
  8
0
  6
CONTINUOUS
 62
       7
  5
37F
 10
152.69185178
 20
250.76687923
 30
0.0
 40
3.0
 50
0.0
 51
90.00000154
  0
ARC
  8
0
  6
CONTINUOUS
 62
       7
  5
380
 10
152.69185178
 20
176.76963923
 30
0.0
 40
3.0
 50
269.99999846
 51
360.0
  0
ARC
  8
0
  6
CONTINUOUS
 62
       7
  5
381
 10
-191.30814822
 20
250.76687923
 30
0.0
 40
3.0
 50
90.00000154
 51
180.00000307
  0
ARC
  8
0
  6
CONTINUOUS
 62
       7
  5
382
 10
-191.30814822
 20
176.76963923
 30
0.0
 40
3.0
 50
180.00000307
 51
269.99999846
  0
LINE
  8
0
  6
CONTINUOUS
 62
       7
  5
383
 10
15.69185178
 20
377.76260123
 30
0.0
 11
15.69185178
 21
394.76187673
 31
0.0
  0
LINE
  8
0
  6
CONTINUOUS
 62
       7
  5
384
 10
-54.30814822
 20
377.76260123
 30
0.0
 11
-54.30814822
 21
394.76187673
 31
0.0
  0
LINE
  8
0
  6
CONTINUOUS
 62
       7
  5
385
 10
466.64853923
 20
367.76187673
 30
0.0
 11
466.64853923
 21
398.76187673
 31
0.0
  0
LINE
  8
0
  6
CONTINUOUS
 62
       7
  5
386
 10
466.64853923
 20
367.76187673
 30
0.0
 11
458.64853923
 21
367.76187673
 31
0.0
  0
LINE
  8
0
  6
CONTINUOUS
 62
       7
  5
387
 10
465.64853923
 20
367.76187673
 30
0.0
 11
465.64853923
 21
398.76187673
 31
0.0
  0
CIRCLE
  8
0
  6
CONTINUOUS
 62
       7
  5
388
 10
-45.30814822
 20
388.77032923
 30
0.0
 40
2.5
  0
CIRCLE
  8
0
  6
CONTINUOUS
 62
       7
  5
389
 10
6.69185178
 20
388.77032923
 30
0.0
 40
2.5
  0
ARC
  8
0
  6
CONTINUOUS
 62
       7
  5
38A
 10
-49.30814822
 20
394.76187673
 30
0.0
 40
5.0
 50
90.00000154
 51
180.00000307
  0
ARC
  8
0
  6
CONTINUOUS
 62
       7
  5
38B
 10
10.69185178
 20
394.76187673
 30
0.0
 40
5.0
 50
0.0
 51
90.00000154
  0
LINE
  8
0
  6
CONTINUOUS
 62
       7
  5
38C
 10
-164.30314572
 20
150.47032923
 30
0.0
 11
-164.30314572
 21
153.77032923
 31
0.0
  0
LINE
  8
0
  6
CONTINUOUS
 62
       7
  5
38D
 10
-164.30314572
 20
168.47032923
 30
0.0
 11
-165.80314572
 21
168.47032923
 31
0.0
  0
ARC
  8
0
  6
CONTINUOUS
 62
       7
  5
38E
 10
-156.62347905
 20
153.72964296
 30
0.0
 40
3.17551203
 50
226.65430769
 51
332.6417802
  0
ARC
  8
0
  6
CONTINUOUS
 62
       7
  5
38F
 10
-156.62347905
 20
153.72964296
 30
0.0
 40
3.25908203
 50
228.02565698
 51
332.6417802
  0
ARC
  8
0
  6
CONTINUOUS
 62
       7
  5
390
 10
-160.98281239
 20
148.99738291
 30
0.0
 40
3.17551203
 50
46.65431076
 51
152.36448524
  0
ARC
  8
0
  6
CONTINUOUS
 62
       7
  5
391
 10
-160.98281239
 20
148.99738291
 30
0.0
 40
3.25908203
 50
48.02566005
 51
152.36448524
  0
LINE
  8
0
  6
CONTINUOUS
 62
       7
  5
392
 10
-153.80314579
 20
152.27032927
 30
0.0
 11
-153.72892296
 21
152.23192445
 31
0.0
  0
LINE
  8
0
  6
CONTINUOUS
 62
       7
  5
393
 10
-163.79604991
 20
150.4703292
 30
0.0
 11
-163.870086
 21
150.50909279
 31
0.0
  0
LINE
  8
0
  6
CONTINUOUS
 62
       7
  5
394
 10
-163.80314572
 20
144.1575663
 30
0.0
 11
-154.30314572
 21
144.1575663
 31
0.0
  0
LINE
  8
0
  6
CONTINUOUS
 62
       7
  5
395
 10
-152.30314572
 20
150.47032923
 30
0.0
 11
-152.30314572
 21
148.97032923
 31
0.0
  0
ARC
  8
0
  6
CONTINUOUS
 62
       7
  5
396
 10
-158.80314572
 20
210.82423297
 30
0.0
 40
66.85390373
 50
265.71084506
 51
274.28915187
  0
LINE
  8
0
  6
CONTINUOUS
 62
       7
  5
397
 10
-153.80314572
 20
144.1575663
 30
0.0
 11
-153.40314572
 21
148.97032923
 31
0.0
  0
LINE
  8
0
  6
CONTINUOUS
 62
       7
  5
398
 10
-163.80314572
 20
144.1575663
 30
0.0
 11
-164.20314572
 21
148.97032923
 31
0.0
  0
ARC
  8
0
  6
CONTINUOUS
 62
       7
  5
399
 10
125.68684928
 20
150.47032923
 30
0.0
 40
1.5
 50
269.99999846
 51
360.0
  0
LINE
  8
0
  6
CONTINUOUS
 62
       7
  5
39A
 10
125.18684928
 20
144.1575663
 30
0.0
 11
125.58684928
 21
148.97032923
 31
0.0
  0
LINE
  8
0
  6
CONTINUOUS
 62
       7
  5
39B
 10
115.18684935
 20
152.27032927
 30
0.0
 11
115.11262652
 21
152.23192445
 31
0.0
  0
LINE
  8
0
  6
CONTINUOUS
 62
       7
  5
39C
 10
127.18684928
 20
150.47032923
 30
0.0
 11
127.18684928
 21
168.47032923
 31
0.0
  0
LINE
  8
0
  6
CONTINUOUS
 62
       7
  5
39D
 10
125.68684928
 20
168.47032923
 30
0.0
 11
127.18684928
 21
168.47032923
 31
0.0
  0
LINE
  8
0
  6
CONTINUOUS
 62
       7
  5
39E
 10
125.68684928
 20
148.97032923
 30
0.0
 11
113.68684928
 21
148.97032923
 31
0.0
  0
LINE
  8
0
  6
CONTINUOUS
 62
       7
  5
39F
 10
125.68684928
 20
150.47032923
 30
0.0
 11
125.68684928
 21
153.77032923
 31
0.0
  0
ARC
  8
0
  6
CONTINUOUS
 62
       7
  5
3A0
 10
122.36651595
 20
148.99738291
 30
0.0
 40
3.17551203
 50
27.63551783
 51
133.34569231
  0
LINE
  8
0
  6
CONTINUOUS
 62
       7
  5
3A1
 10
125.17975347
 20
150.4703292
 30
0.0
 11
125.25378956
 21
150.50909279
 31
0.0
  0
ARC
  8
0
  6
CONTINUOUS
 62
       7
  5
3A2
 10
122.36651595
 20
148.99738291
 30
0.0
 40
3.25908203
 50
27.63551783
 51
131.97434302
  0
LINE
  8
0
  6
CONTINUOUS
 62
       7
  5
3A3
 10
125.18684928
 20
152.27032923
 30
0.0
 11
100.18910877
 21
152.27032923
 31
0.0
  0
LINE
  8
0
  6
CONTINUOUS
 62
       7
  5
3A4
 10
115.18684928
 20
152.27032923
 30
0.0
 11
125.18684928
 21
152.27032923
 31
0.0
  0
LINE
  8
0
  6
CONTINUOUS
 62
       7
  5
3A5
 10
125.18684928
 20
153.77032923
 30
0.0
 11
125.18684928
 21
152.27032923
 31
0.0
  0
LINE
  8
0
  6
CONTINUOUS
 62
       7
  5
3A6
 10
117.18684928
 20
148.97032923
 30
0.0
 11
123.18684928
 21
148.97032923
 31
0.0
  0
LINE
  8
0
  6
CONTINUOUS
 62
       7
  5
3A7
 10
125.18684928
 20
144.1575663
 30
0.0
 11
115.18684928
 21
144.1575663
 31
0.0
  0
LINE
  8
0
  6
CONTINUOUS
 62
       7
  5
3A8
 10
125.18684928
 20
144.1575663
 30
0.0
 11
115.68684928
 21
144.1575663
 31
0.0
  0
ARC
  8
0
  6
CONTINUOUS
 62
       7
  5
3A9
 10
120.18684928
 20
210.82423297
 30
0.0
 40
66.85390373
 50
265.71084506
 51
274.28915187
  0
LINE
  8
0
  6
CONTINUOUS
 62
       7
  5
3AA
 10
115.18684928
 20
144.1575663
 30
0.0
 11
114.78684928
 21
148.97032923
 31
0.0
  0
ARC
  8
0
  6
CONTINUOUS
 62
       7
  5
3AB
 10
118.00718261
 20
153.72964296
 30
0.0
 40
3.17551203
 50
207.35821673
 51
313.34568924
  0
ARC
  8
0
  6
CONTINUOUS
 62
       7
  5
3AC
 10
118.00718261
 20
153.72964296
 30
0.0
 40
3.25908203
 50
207.35821673
 51
311.97433995
  0
LINE
  8
0
  6
CONTINUOUS
 62
       7
  5
3AD
 10
113.68684928
 20
150.47032923
 30
0.0
 11
113.68684928
 21
148.97032923
 31
0.0
  0
LINE
  8
0
  6
CONTINUOUS
 62
       7
  5
3AE
 10
100.18910877
 20
152.27032923
 30
0.0
 11
100.18910877
 21
153.77032923
 31
0.0
  0
LINE
  8
0
  6
CONTINUOUS
 62
       7
  5
3AF
 10
351.65395573
 20
144.3575663
 30
0.0
 11
341.65395573
 21
144.3575663
 31
0.0
  0
LINE
  8
0
  6
CONTINUOUS
 62
       7
  5
3B0
 10
351.65395573
 20
144.3575663
 30
0.0
 11
342.15395573
 21
144.3575663
 31
0.0
  0
ARC
  8
0
  6
CONTINUOUS
 62
       7
  5
3B1
 10
346.65395573
 20
211.02423297
 30
0.0
 40
66.85390373
 50
265.71084506
 51
274.28915187
  0
LINE
  8
0
  6
CONTINUOUS
 62
       7
  5
3B2
 10
341.65395573
 20
144.3575663
 30
0.0
 11
341.25395573
 21
149.17032923
 31
0.0
  0
LINE
  8
0
  6
CONTINUOUS
 62
       7
  5
3B3
 10
351.65395573
 20
144.3575663
 30
0.0
 11
352.05395573
 21
149.17032923
 31
0.0
  0
LINE
  8
0
  6
CONTINUOUS
 62
       7
  5
3B4
 10
356.65395573
 20
149.17032923
 30
0.0
 11
336.65395573
 21
149.17032923
 31
0.0
  0
LINE
  8
0
  6
CONTINUOUS
 62
       7
  5
3B5
 10
-157.30314572
 20
150.47032923
 30
0.0
 11
-157.30314572
 21
150.54221941
 31
0.0
  0
LINE
  8
0
  6
CONTINUOUS
 62
       7
  5
3B6
 10
-157.30314572
 20
150.62771938
 30
0.0
 11
-157.30314572
 21
152.27032923
 31
0.0
  0
LINE
  8
0
  6
CONTINUOUS
 62
       7
  5
3B7
 10
-160.30314572
 20
150.47032923
 30
0.0
 11
-160.30314572
 21
152.09930648
 31
0.0
  0
LINE
  8
0
  6
CONTINUOUS
 62
       7
  5
3B8
 10
-160.30314572
 20
152.18480646
 30
0.0
 11
-160.30314572
 21
152.27032923
 31
0.0
  0
LINE
  8
0
  6
CONTINUOUS
 62
       7
  5
3B9
 10
118.68684928
 20
150.62771938
 30
0.0
 11
118.68684928
 21
152.27032923
 31
0.0
  0
LINE
  8
0
  6
CONTINUOUS
 62
       7
  5
3BA
 10
121.68684928
 20
150.47032923
 30
0.0
 11
121.68684928
 21
152.09930648
 31
0.0
  0
LINE
  8
0
  6
CONTINUOUS
 62
       7
  5
3BB
 10
121.68684928
 20
152.18480646
 30
0.0
 11
121.68684928
 21
152.27032923
 31
0.0
  0
LINE
  8
0
  6
CONTINUOUS
 62
       7
  5
3BC
 10
118.68684928
 20
150.47032923
 30
0.0
 11
118.68684928
 21
150.54221941
 31
0.0
  0
LINE
  8
0
  6
CONTINUOUS
 62
       7
  5
3BD
 10
341.65395573
 20
168.47032923
 30
0.0
 11
351.65395573
 21
168.47032923
 31
0.0
  0
ARC
  8
0
  6
CONTINUOUS
 62
       7
  5
3BE
 10
351.65395573
 20
163.47032923
 30
0.0
 40
5.0
 50
0.0
 51
90.00000154
  0
ARC
  8
0
  6
CONTINUOUS
 62
       7
  5
3BF
 10
341.65395573
 20
163.47032923
 30
0.0
 40
5.0
 50
90.00000154
 51
180.00000307
  0
ARC
  8
0
  6
CONTINUOUS
 62
       7
  5
3C0
 10
51.07847078
 20
-214.10969758
 30
0.0
 40
5.0
 50
269.99999846
 51
450.00000154
  0
LINE
  8
0
  6
CONTINUOUS
 62
       7
  5
3C1
 10
46.09185178
 20
-224.0146201
 30
0.0
 11
46.09185178
 21
-216.42996284
 31
0.0
  0
LINE
  8
0
  6
CONTINUOUS
 62
       7
  5
3C2
 10
46.09185178
 20
-211.78943231
 30
0.0
 11
46.09185178
 21
-204.0146201
 31
0.0
  0
CIRCLE
  8
0
  6
CONTINUOUS
 62
       7
  5
3C3
 10
51.07847078
 20
-214.10969758
 30
0.0
 40
5.0
  0
CIRCLE
  8
0
  6
CONTINUOUS
 62
       7
  5
3C4
 10
51.07847078
 20
-214.10969758
 30
0.0
 40
5.5
  0
LINE
  8
0
  6
CONTINUOUS
 62
       7
  5
3C5
 10
46.09185178
 20
-204.0146201
 30
0.0
 11
60.58684928
 21
-204.0146201
 31
0.0
  0
LINE
  8
0
  6
CONTINUOUS
 62
       7
  5
3C6
 10
-224.90335272
 20
-305.2099212
 30
0.0
 11
-224.90335272
 21
-288.2099212
 31
0.0
  0
ARC
  8
0
  6
CONTINUOUS
 62
       7
  5
3C7
 10
-221.90335272
 20
-288.2099212
 30
0.0
 40
3.0
 50
90.00000154
 51
180.00000307
  0
ARC
  8
0
  6
CONTINUOUS
 62
       7
  5
3C8
 10
-217.90814822
 20
-282.2099212
 30
0.0
 40
3.0
 50
269.99999846
 51
360.0
  0
ARC
  8
0
  6
CONTINUOUS
 62
       7
  5
3C9
 10
50.08705628
 20
-288.2099212
 30
0.0
 40
3.0
 50
0.0
 51
90.00000154
  0
ARC
  8
0
  6
CONTINUOUS
 62
       7
  5
3CA
 10
46.09185178
 20
-282.2099212
 30
0.0
 40
3.0
 50
179.99999693
 51
269.99999846
  0
LINE
  8
0
  6
CONTINUOUS
 62
       7
  5
3CB
 10
53.08705628
 20
-305.2099212
 30
0.0
 11
53.08705628
 21
-288.2099212
 31
0.0
  0
LINE
  8
0
  6
CONTINUOUS
 62
       7
  5
3CC
 10
-260.90814822
 20
-334.0146201
 30
0.0
 11
-260.90814822
 21
-333.0146201
 31
0.0
  0
LINE
  8
0
  6
CONTINUOUS
 62
       7
  5
3CD
 10
-231.90314572
 20
-334.0146201
 30
0.0
 11
-260.90814822
 21
-334.0146201
 31
0.0
  0
LINE
  8
0
  6
CONTINUOUS
 62
       7
  5
3CE
 10
-231.90314572
 20
-304.0146201
 30
0.0
 11
-231.90314572
 21
-333.0146201
 31
0.0
  0
LINE
  8
0
  6
CONTINUOUS
 62
       7
  5
3CF
 10
-231.90314572
 20
-304.0146201
 30
0.0
 11
-230.90314572
 21
-304.0146201
 31
0.0
  0
ARC
  8
0
  6
CONTINUOUS
 62
       7
  5
3D0
 10
-231.90314572
 20
-333.0146201
 30
0.0
 40
1.0
 50
269.99999846
 51
360.0
  0
LINE
  8
0
  6
CONTINUOUS
 62
       7
  5
3D1
 10
89.09185178
 20
-334.0146201
 30
0.0
 11
89.09185178
 21
-333.0146201
 31
0.0
  0
ARC
  8
0
  6
CONTINUOUS
 62
       7
  5
3D2
 10
60.08684928
 20
-333.0146201
 30
0.0
 40
1.0
 50
179.99999693
 51
269.99999846
  0
LINE
  8
0
  6
CONTINUOUS
 62
       7
  5
3D3
 10
60.08684928
 20
-334.0146201
 30
0.0
 11
89.09185178
 21
-334.0146201
 31
0.0
  0
LINE
  8
0
  6
CONTINUOUS
 62
       7
  5
3D4
 10
60.08684928
 20
-304.0146201
 30
0.0
 11
60.08684928
 21
-333.0146201
 31
0.0
  0
LINE
  8
0
  6
CONTINUOUS
 62
       7
  5
3D5
 10
60.08684928
 20
-304.0146201
 30
0.0
 11
59.08684928
 21
-304.0146201
 31
0.0
  0
LINE
  8
0
  6
CONTINUOUS
 62
       7
  5
3D6
 10
-229.90318022
 20
-285.2099212
 30
0.0
 11
-228.90321472
 21
-285.2099212
 31
0.0
  0
LINE
  8
0
  6
CONTINUOUS
 62
       7
  5
3D7
 10
-221.90335272
 20
-285.2099212
 30
0.0
 11
-217.90814822
 21
-285.2099212
 31
0.0
  0
LINE
  8
0
  6
CONTINUOUS
 62
       7
  5
3D8
 10
58.08688378
 20
-285.2099212
 30
0.0
 11
57.08691828
 21
-285.2099212
 31
0.0
  0
LINE
  8
0
  6
CONTINUOUS
 62
       7
  5
3D9
 10
50.53764373
 20
-285.2099212
 30
0.0
 11
46.09185178
 21
-285.2099212
 31
0.0
  0
LINE
  8
0
  6
CONTINUOUS
 62
       7
  5
3DA
 10
-70.90814822
 20
-323.0092381
 30
0.0
 11
-100.90814822
 21
-323.0092381
 31
0.0
  0
LINE
  8
0
  6
CONTINUOUS
 62
       7
  5
3DB
 10
-70.90814822
 20
-323.0092381
 30
0.0
 11
-70.90814822
 21
-324.0092381
 31
0.0
  0
LINE
  8
0
  6
CONTINUOUS
 62
       7
  5
3DC
 10
-100.90814822
 20
-323.0092381
 30
0.0
 11
-100.90814822
 21
-324.0092381
 31
0.0
  0
LINE
  8
0
  6
CONTINUOUS
 62
       7
  5
3DD
 10
-68.90814822
 20
-327.0091691
 30
0.0
 11
-68.90814822
 21
-333.0091691
 31
0.0
  0
LINE
  8
0
  6
CONTINUOUS
 62
       7
  5
3DE
 10
-102.90814822
 20
-327.0091691
 30
0.0
 11
-102.90814822
 21
-333.0091691
 31
0.0
  0
LINE
  8
0
  6
CONTINUOUS
 62
       7
  5
3DF
 10
-69.90814822
 20
-333.0091691
 30
0.0
 11
-69.90814822
 21
-327.0091691
 31
0.0
  0
LINE
  8
0
  6
CONTINUOUS
 62
       7
  5
3E0
 10
-101.90814822
 20
-333.0091691
 30
0.0
 11
-101.90814822
 21
-327.0091691
 31
0.0
  0
LINE
  8
0
  6
CONTINUOUS
 62
       7
  5
3E1
 10
-50.40814822
 20
-333.0091691
 30
0.0
 11
-68.90814822
 21
-333.0091691
 31
0.0
  0
LINE
  8
0
  6
CONTINUOUS
 62
       7
  5
3E2
 10
-68.90814822
 20
-334.0091691
 30
0.0
 11
-50.40814822
 21
-334.0091691
 31
0.0
  0
LINE
  8
0
  6
CONTINUOUS
 62
       7
  5
3E3
 10
-102.90814822
 20
-333.0091691
 30
0.0
 11
-121.40814822
 21
-333.0091691
 31
0.0
  0
LINE
  8
0
  6
CONTINUOUS
 62
       7
  5
3E4
 10
-121.40814822
 20
-334.0091691
 30
0.0
 11
-102.90814822
 21
-334.0091691
 31
0.0
  0
LINE
  8
0
  6
CONTINUOUS
 62
       7
  5
3E5
 10
-121.40814822
 20
-333.0091691
 30
0.0
 11
-121.40814822
 21
-334.0091691
 31
0.0
  0
LINE
  8
0
  6
CONTINUOUS
 62
       7
  5
3E6
 10
-50.40814822
 20
-333.0091691
 30
0.0
 11
-50.40814822
 21
-334.0091691
 31
0.0
  0
LINE
  8
0
  6
CONTINUOUS
 62
       7
  5
3E7
 10
-101.90814822
 20
-327.0091691
 30
0.0
 11
-69.90814822
 21
-327.0091691
 31
0.0
  0
ARC
  8
0
  6
CONTINUOUS
 62
       7
  5
3E8
 10
-102.90814822
 20
-333.0091691
 30
0.0
 40
1.0
 50
269.99999846
 51
360.0
  0
ARC
  8
0
  6
CONTINUOUS
 62
       7
  5
3E9
 10
-68.90814822
 20
-333.0091691
 30
0.0
 40
1.0
 50
180.00000307
 51
269.99999846
  0
ARC
  8
0
  6
CONTINUOUS
 62
       7
  5
3EA
 10
-101.90814822
 20
-327.0091691
 30
0.0
 40
1.0
 50
90.00000154
 51
180.00000307
  0
ARC
  8
0
  6
CONTINUOUS
 62
       7
  5
3EB
 10
-69.90814822
 20
-327.0091691
 30
0.0
 40
1.0
 50
0.0
 51
90.00000154
  0
LINE
  8
0
  6
CONTINUOUS
 62
       7
  5
3EC
 10
60.58684928
 20
-224.0146201
 30
0.0
 11
46.09185178
 21
-224.0146201
 31
0.0
  0
LINE
  8
0
  6
CONTINUOUS
 62
       7
  5
3ED
 10
60.58684928
 20
-224.0146201
 30
0.0
 11
60.58684928
 21
-204.0146201
 31
0.0
  0
LINE
  8
0
  6
CONTINUOUS
 62
       7
  5
3EE
 10
-217.90814822
 20
-224.0146201
 30
0.0
 11
-217.90814822
 21
-216.42996284
 31
0.0
  0
LINE
  8
0
  6
CONTINUOUS
 62
       7
  5
3EF
 10
-232.40314572
 20
-224.0146201
 30
0.0
 11
-217.90814822
 21
-224.0146201
 31
0.0
  0
ARC
  8
0
  6
CONTINUOUS
 62
       7
  5
3F0
 10
-222.89476723
 20
-214.10969758
 30
0.0
 40
5.0
 50
90.00000154
 51
269.99999846
  0
CIRCLE
  8
0
  6
CONTINUOUS
 62
       7
  5
3F1
 10
-222.89476723
 20
-214.10969758
 30
0.0
 40
5.0
  0
CIRCLE
  8
0
  6
CONTINUOUS
 62
       7
  5
3F2
 10
-222.89476723
 20
-214.10969758
 30
0.0
 40
5.5
  0
LINE
  8
0
  6
CONTINUOUS
 62
       7
  5
3F3
 10
-217.90814822
 20
-211.78943231
 30
0.0
 11
-217.90814822
 21
-204.0146201
 31
0.0
  0
LINE
  8
0
  6
CONTINUOUS
 62
       7
  5
3F4
 10
-217.90814822
 20
-204.0146201
 30
0.0
 11
-232.40314572
 21
-204.0146201
 31
0.0
  0
LINE
  8
0
  6
CONTINUOUS
 62
       7
  5
3F5
 10
-232.40314572
 20
-224.0146201
 30
0.0
 11
-232.40314572
 21
-204.0146201
 31
0.0
  0
LINE
  8
0
  6
CONTINUOUS
 62
       7
  5
3F6
 10
-466.50469227
 20
676.16124071
 30
0.0
 11
461.93280773
 21
676.16124071
 31
0.0
  0
LINE
  8
0
  6
CONTINUOUS
 62
       7
  5
3F7
 10
-465.25469227
 20
-696.49557361
 30
0.0
 11
456.93280773
 21
-696.49557361
 31
0.0
  0
LINE
  8
0
  6
CONTINUOUS
 62
       7
  5
3F8
 10
-465.25469227
 20
-636.18307361
 30
0.0
 11
456.93280773
 21
-636.18307361
 31
0.0
  0
LINE
  8
0
  6
CONTINUOUS
 62
       7
  5
3F9
 10
-465.25469227
 20
-627.74557361
 30
0.0
 11
456.93280773
 21
-627.74557361
 31
0.0
  0
LINE
  8
0
  6
CONTINUOUS
 62
       7
  5
3FA
 10
-465.25469227
 20
-627.74557361
 30
0.0
 11
-465.25469227
 21
-452.74557361
 31
0.0
  0
LINE
  8
0
  6
CONTINUOUS
 62
       7
  5
3FB
 10
456.93280773
 20
-627.74557361
 30
0.0
 11
456.93280773
 21
-452.74557361
 31
0.0
  0
LINE
  8
0
  6
CONTINUOUS
 62
       7
  5
3FC
 10
-465.25469227
 20
-452.74557361
 30
0.0
 11
456.93280773
 21
-452.74557361
 31
0.0
  0
LINE
  8
0
  6
CONTINUOUS
 62
       7
  5
3FD
 10
-445.56719227
 20
723.50442639
 30
0.0
 11
-445.56719227
 21
699.12942639
 31
0.0
  0
LINE
  8
0
  6
CONTINUOUS
 62
       7
  5
3FE
 10
-342.44219227
 20
723.50442639
 30
0.0
 11
-342.44219227
 21
699.12942639
 31
0.0
  0
LINE
  8
0
  6
CONTINUOUS
 62
       7
  5
3FF
 10
-445.56719227
 20
723.50442639
 30
0.0
 11
-342.44219227
 21
723.50442639
 31
0.0
  0
LINE
  8
0
  6
CONTINUOUS
 62
       7
  5
400
 10
-445.56719227
 20
699.12942639
 30
0.0
 11
-342.44219227
 21
699.12942639
 31
0.0
  0
LINE
  8
0
  6
CONTINUOUS
 62
       7
  5
401
 10
-400.53020119
 20
736.81713661
 30
0.0
 11
-413.84291141
 21
723.50442639
 31
0.0
  0
LINE
  8
0
  6
CONTINUOUS
 62
       7
  5
402
 10
-402.01135043
 20
736.75020093
 30
0.0
 11
-415.25712497
 21
723.50442639
 31
0.0
  0
LINE
  8
0
  6
CONTINUOUS
 62
       7
  5
403
 10
-403.50757729
 20
736.66818763
 30
0.0
 11
-416.67133853
 21
723.50442639
 31
0.0
  0
LINE
  8
0
  6
CONTINUOUS
 62
       7
  5
404
 10
-405.01950484
 20
736.57047365
 30
0.0
 11
-418.0855521
 21
723.50442639
 31
0.0
  0
LINE
  8
0
  6
CONTINUOUS
 62
       7
  5
405
 10
-406.54782894
 20
736.45636311
 30
0.0
 11
-419.49976566
 21
723.50442639
 31
0.0
  0
LINE
  8
0
  6
CONTINUOUS
 62
       7
  5
406
 10
-408.09332941
 20
736.3250762
 30
0.0
 11
-420.91397922
 21
723.50442639
 31
0.0
  0
LINE
  8
0
  6
CONTINUOUS
 62
       7
  5
407
 10
-409.65688356
 20
736.17573561
 30
0.0
 11
-422.32819278
 21
723.50442639
 31
0.0
  0
LINE
  8
0
  6
CONTINUOUS
 62
       7
  5
408
 10
-411.23948282
 20
736.00734992
 30
0.0
 11
-423.74240635
 21
723.50442639
 31
0.0
  0
LINE
  8
0
  6
CONTINUOUS
 62
       7
  5
409
 10
-412.84225332
 20
735.81879298
 30
0.0
 11
-425.15661991
 21
723.50442639
 31
0.0
  0
LINE
  8
0
  6
CONTINUOUS
 62
       7
  5
40A
 10
-414.46648167
 20
735.60877819
 30
0.0
 11
-426.57083347
 21
723.50442639
 31
0.0
  0
LINE
  8
0
  6
CONTINUOUS
 62
       7
  5
40B
 10
-416.11364753
 20
735.37582589
 30
0.0
 11
-427.98504703
 21
723.50442639
 31
0.0
  0
LINE
  8
0
  6
CONTINUOUS
 62
       7
  5
40C
 10
-417.78546551
 20
735.11822148
 30
0.0
 11
-429.3992606
 21
723.50442639
 31
0.0
  0
LINE
  8
0
  6
CONTINUOUS
 62
       7
  5
40D
 10
-419.48393958
 20
734.83396096
 30
0.0
 11
-430.81347416
 21
723.50442639
 31
0.0
  0
LINE
  8
0
  6
CONTINUOUS
 62
       7
  5
40E
 10
-421.21143531
 20
734.5206788
 30
0.0
 11
-432.22768772
 21
723.50442639
 31
0.0
  0
LINE
  8
0
  6
CONTINUOUS
 62
       7
  5
40F
 10
-422.97077716
 20
734.17555051
 30
0.0
 11
-433.64190128
 21
723.50442639
 31
0.0
  0
LINE
  8
0
  6
CONTINUOUS
 62
       7
  5
410
 10
-445.56719227
 20
711.57913541
 30
0.0
 11
-445.82940128
 21
711.31692639
 31
0.0
  0
LINE
  8
0
  6
CONTINUOUS
 62
       7
  5
411
 10
-424.76538283
 20
733.79515841
 30
0.0
 11
-435.05611484
 21
723.50442639
 31
0.0
  0
LINE
  8
0
  6
CONTINUOUS
 62
       7
  5
412
 10
-445.56719227
 20
712.99334897
 30
0.0
 11
-447.24361484
 21
711.31692639
 31
0.0
  0
LINE
  8
0
  6
CONTINUOUS
 62
       7
  5
413
 10
-426.59945331
 20
733.37530148
 30
0.0
 11
-436.47032841
 21
723.50442639
 31
0.0
  0
LINE
  8
0
  6
CONTINUOUS
 62
       7
  5
414
 10
-445.56719227
 20
714.40756253
 30
0.0
 11
-448.65782841
 21
711.31692639
 31
0.0
  0
LINE
  8
0
  6
CONTINUOUS
 62
       7
  5
415
 10
-428.47824992
 20
732.91071844
 30
0.0
 11
-437.88454197
 21
723.50442639
 31
0.0
  0
LINE
  8
0
  6
CONTINUOUS
 62
       7
  5
416
 10
-445.56719227
 20
715.82177609
 30
0.0
 11
-450.07204197
 21
711.31692639
 31
0.0
  0
LINE
  8
0
  6
CONTINUOUS
 62
       7
  5
417
 10
-430.40851269
 20
732.39466923
 30
0.0
 11
-439.29875553
 21
723.50442639
 31
0.0
  0
LINE
  8
0
  6
CONTINUOUS
 62
       7
  5
418
 10
-445.56719227
 20
717.23598966
 30
0.0
 11
-451.48625553
 21
711.31692639
 31
0.0
  0
LINE
  8
0
  6
CONTINUOUS
 62
       7
  5
419
 10
-432.39912019
 20
731.8182753
 30
0.0
 11
-440.71296909
 21
723.50442639
 31
0.0
  0
LINE
  8
0
  6
CONTINUOUS
 62
       7
  5
41A
 10
-445.56719227
 20
718.65020322
 30
0.0
 11
-452.90046909
 21
711.31692639
 31
0.0
  0
LINE
  8
0
  6
CONTINUOUS
 62
       7
  5
41B
 10
-434.4621868
 20
731.16942224
 30
0.0
 11
-442.12718266
 21
723.50442639
 31
0.0
  0
LINE
  8
0
  6
CONTINUOUS
 62
       7
  5
41C
 10
-445.56719227
 20
720.06441678
 30
0.0
 11
-454.31468266
 21
711.31692639
 31
0.0
  0
LINE
  8
0
  6
CONTINUOUS
 62
       7
  5
41D
 10
-436.61501636
 20
730.43080625
 30
0.0
 11
-443.54139622
 21
723.50442639
 31
0.0
  0
LINE
  8
0
  6
CONTINUOUS
 62
       7
  5
41E
 10
-445.56719227
 20
721.47863034
 30
0.0
 11
-455.72889622
 21
711.31692639
 31
0.0
  0
LINE
  8
0
  6
CONTINUOUS
 62
       7
  5
41F
 10
-438.88390782
 20
729.57612835
 30
0.0
 11
-444.95560978
 21
723.50442639
 31
0.0
  0
LINE
  8
0
  6
CONTINUOUS
 62
       7
  5
420
 10
-445.56719227
 20
722.89284391
 30
0.0
 11
-457.14310978
 21
711.31692639
 31
0.0
  0
LINE
  8
0
  6
CONTINUOUS
 62
       7
  5
421
 10
-441.3125633
 20
728.56168643
 30
0.0
 11
-458.04500901
 21
711.82924073
 31
0.0
  0
LINE
  8
0
  6
CONTINUOUS
 62
       7
  5
422
 10
-443.98458113
 20
727.30388217
 30
0.0
 11
-457.80513484
 21
713.48332846
 31
0.0
  0
LINE
  8
0
  6
CONTINUOUS
 62
       7
  5
423
 10
-447.10810476
 20
725.5945721
 30
0.0
 11
-457.11375486
 21
715.588922
 31
0.0
  0
LINE
  8
0
  6
CONTINUOUS
 62
       7
  5
424
 10
-451.97693438
 20
722.13995604
 30
0.0
 11
-454.67706889
 21
719.43982153
 31
0.0
  0
LINE
  8
0
  6
CONTINUOUS
 62
       7
  5
425
 10
-399.06357003
 20
736.86955421
 30
0.0
 11
-412.42869785
 21
723.50442639
 31
0.0
  0
LINE
  8
0
  6
CONTINUOUS
 62
       7
  5
426
 10
-397.61095326
 20
736.90795741
 30
0.0
 11
-411.01448428
 21
723.50442639
 31
0.0
  0
LINE
  8
0
  6
CONTINUOUS
 62
       7
  5
427
 10
-396.17189655
 20
736.93280057
 30
0.0
 11
-409.60027072
 21
723.50442639
 31
0.0
  0
LINE
  8
0
  6
CONTINUOUS
 62
       7
  5
428
 10
-394.74598939
 20
736.94449415
 30
0.0
 11
-408.18605716
 21
723.50442639
 31
0.0
  0
LINE
  8
0
  6
CONTINUOUS
 62
       7
  5
429
 10
-393.33286054
 20
736.94340945
 30
0.0
 11
-406.7718436
 21
723.50442639
 31
0.0
  0
LINE
  8
0
  6
CONTINUOUS
 62
       7
  5
42A
 10
-391.93217394
 20
736.92988248
 30
0.0
 11
-405.35763004
 21
723.50442639
 31
0.0
  0
LINE
  8
0
  6
CONTINUOUS
 62
       7
  5
42B
 10
-390.54362541
 20
736.90421745
 30
0.0
 11
-403.94341647
 21
723.50442639
 31
0.0
  0
LINE
  8
0
  6
CONTINUOUS
 62
       7
  5
42C
 10
-389.16693963
 20
736.86668966
 30
0.0
 11
-402.52920291
 21
723.50442639
 31
0.0
  0
LINE
  8
0
  6
CONTINUOUS
 62
       7
  5
42D
 10
-387.80186769
 20
736.81754805
 30
0.0
 11
-401.11498935
 21
723.50442639
 31
0.0
  0
LINE
  8
0
  6
CONTINUOUS
 62
       7
  5
42E
 10
-386.44818484
 20
736.75701734
 30
0.0
 11
-399.70077579
 21
723.50442639
 31
0.0
  0
LINE
  8
0
  6
CONTINUOUS
 62
       7
  5
42F
 10
-385.10568865
 20
736.68529996
 30
0.0
 11
-398.28656222
 21
723.50442639
 31
0.0
  0
LINE
  8
0
  6
CONTINUOUS
 62
       7
  5
430
 10
-383.77419737
 20
736.60257768
 30
0.0
 11
-396.87234866
 21
723.50442639
 31
0.0
  0
LINE
  8
0
  6
CONTINUOUS
 62
       7
  5
431
 10
-382.45354846
 20
736.50901303
 30
0.0
 11
-395.4581351
 21
723.50442639
 31
0.0
  0
LINE
  8
0
  6
CONTINUOUS
 62
       7
  5
432
 10
-381.14359743
 20
736.4047505
 30
0.0
 11
-394.04392154
 21
723.50442639
 31
0.0
  0
LINE
  8
0
  6
CONTINUOUS
 62
       7
  5
433
 10
-379.84421674
 20
736.28991763
 30
0.0
 11
-392.62970797
 21
723.50442639
 31
0.0
  0
LINE
  8
0
  6
CONTINUOUS
 62
       7
  5
434
 10
-378.5552949
 20
736.1646259
 30
0.0
 11
-391.21549441
 21
723.50442639
 31
0.0
  0
LINE
  8
0
  6
CONTINUOUS
 62
       7
  5
435
 10
-377.27673571
 20
736.02897152
 30
0.0
 11
-389.80128085
 21
723.50442639
 31
0.0
  0
LINE
  8
0
  6
CONTINUOUS
 62
       7
  5
436
 10
-376.00845759
 20
735.88303608
 30
0.0
 11
-388.38706729
 21
723.50442639
 31
0.0
  0
LINE
  8
0
  6
CONTINUOUS
 62
       7
  5
437
 10
-374.75039303
 20
735.72688708
 30
0.0
 11
-386.97285372
 21
723.50442639
 31
0.0
  0
LINE
  8
0
  6
CONTINUOUS
 62
       7
  5
438
 10
-373.50248817
 20
735.56057838
 30
0.0
 11
-385.55864016
 21
723.50442639
 31
0.0
  0
LINE
  8
0
  6
CONTINUOUS
 62
       7
  5
439
 10
-372.2647024
 20
735.38415058
 30
0.0
 11
-384.1444266
 21
723.50442639
 31
0.0
  0
LINE
  8
0
  6
CONTINUOUS
 62
       7
  5
43A
 10
-371.03700819
 20
735.19763123
 30
0.0
 11
-382.73021304
 21
723.50442639
 31
0.0
  0
LINE
  8
0
  6
CONTINUOUS
 62
       7
  5
43B
 10
-369.81939082
 20
735.00103504
 30
0.0
 11
-381.31599947
 21
723.50442639
 31
0.0
  0
LINE
  8
0
  6
CONTINUOUS
 62
       7
  5
43C
 10
-368.61184833
 20
734.79436397
 30
0.0
 11
-379.90178591
 21
723.50442639
 31
0.0
  0
LINE
  8
0
  6
CONTINUOUS
 62
       7
  5
43D
 10
-367.41439151
 20
734.57760723
 30
0.0
 11
-378.48757235
 21
723.50442639
 31
0.0
  0
LINE
  8
0
  6
CONTINUOUS
 62
       7
  5
43E
 10
-366.22704397
 20
734.3507412
 30
0.0
 11
-377.07335879
 21
723.50442639
 31
0.0
  0
LINE
  8
0
  6
CONTINUOUS
 62
       7
  5
43F
 10
-365.04984227
 20
734.11372934
 30
0.0
 11
-375.65914523
 21
723.50442639
 31
0.0
  0
LINE
  8
0
  6
CONTINUOUS
 62
       7
  5
440
 10
-363.88283617
 20
733.86652188
 30
0.0
 11
-374.24493166
 21
723.50442639
 31
0.0
  0
LINE
  8
0
  6
CONTINUOUS
 62
       7
  5
441
 10
-362.72608895
 20
733.60905554
 30
0.0
 11
-372.8307181
 21
723.50442639
 31
0.0
  0
LINE
  8
0
  6
CONTINUOUS
 62
       7
  5
442
 10
-361.57967781
 20
733.34125312
 30
0.0
 11
-371.41650454
 21
723.50442639
 31
0.0
  0
LINE
  8
0
  6
CONTINUOUS
 62
       7
  5
443
 10
-360.44369441
 20
733.06302295
 30
0.0
 11
-370.00229098
 21
723.50442639
 31
0.0
  0
LINE
  8
0
  6
CONTINUOUS
 62
       7
  5
444
 10
-359.31824548
 20
732.77425832
 30
0.0
 11
-368.58807741
 21
723.50442639
 31
0.0
  0
LINE
  8
0
  6
CONTINUOUS
 62
       7
  5
445
 10
-358.20345353
 20
732.47483671
 30
0.0
 11
-367.17386385
 21
723.50442639
 31
0.0
  0
LINE
  8
0
  6
CONTINUOUS
 62
       7
  5
446
 10
-357.09945776
 20
732.16461892
 30
0.0
 11
-365.75965029
 21
723.50442639
 31
0.0
  0
LINE
  8
0
  6
CONTINUOUS
 62
       7
  5
447
 10
-356.00641503
 20
731.84344809
 30
0.0
 11
-364.34543673
 21
723.50442639
 31
0.0
  0
LINE
  8
0
  6
CONTINUOUS
 62
       7
  5
448
 10
-354.92450106
 20
731.5111485
 30
0.0
 11
-362.93122316
 21
723.50442639
 31
0.0
  0
LINE
  8
0
  6
CONTINUOUS
 62
       7
  5
449
 10
-353.85391177
 20
731.16752422
 30
0.0
 11
-361.5170096
 21
723.50442639
 31
0.0
  0
LINE
  8
0
  6
CONTINUOUS
 62
       7
  5
44A
 10
-352.79486488
 20
730.81235755
 30
0.0
 11
-360.10279604
 21
723.50442639
 31
0.0
  0
LINE
  8
0
  6
CONTINUOUS
 62
       7
  5
44B
 10
-351.74760167
 20
730.4454072
 30
0.0
 11
-358.68858248
 21
723.50442639
 31
0.0
  0
LINE
  8
0
  6
CONTINUOUS
 62
       7
  5
44C
 10
-350.71238909
 20
730.06640622
 30
0.0
 11
-357.27436891
 21
723.50442639
 31
0.0
  0
LINE
  8
0
  6
CONTINUOUS
 62
       7
  5
44D
 10
-349.68952218
 20
729.67505956
 30
0.0
 11
-355.86015535
 21
723.50442639
 31
0.0
  0
LINE
  8
0
  6
CONTINUOUS
 62
       7
  5
44E
 10
-348.67932689
 20
729.27104129
 30
0.0
 11
-354.44594179
 21
723.50442639
 31
0.0
  0
LINE
  8
0
  6
CONTINUOUS
 62
       7
  5
44F
 10
-347.68216326
 20
728.85399136
 30
0.0
 11
-353.03172823
 21
723.50442639
 31
0.0
  0
LINE
  8
0
  6
CONTINUOUS
 62
       7
  5
450
 10
-346.69842928
 20
728.42351177
 30
0.0
 11
-351.61751466
 21
723.50442639
 31
0.0
  0
LINE
  8
0
  6
CONTINUOUS
 62
       7
  5
451
 10
-345.72856531
 20
727.97916218
 30
0.0
 11
-350.2033011
 21
723.50442639
 31
0.0
  0
LINE
  8
0
  6
CONTINUOUS
 62
       7
  5
452
 10
-344.77305925
 20
727.52045468
 30
0.0
 11
-348.78908754
 21
723.50442639
 31
0.0
  0
LINE
  8
0
  6
CONTINUOUS
 62
       7
  5
453
 10
-343.83245274
 20
727.04684763
 30
0.0
 11
-347.37487398
 21
723.50442639
 31
0.0
  0
LINE
  8
0
  6
CONTINUOUS
 62
       7
  5
454
 10
-342.90734845
 20
726.55773836
 30
0.0
 11
-345.96066042
 21
723.50442639
 31
0.0
  0
LINE
  8
0
  6
CONTINUOUS
 62
       7
  5
455
 10
-341.99841881
 20
726.05245443
 30
0.0
 11
-344.54644685
 21
723.50442639
 31
0.0
  0
LINE
  8
0
  6
CONTINUOUS
 62
       7
  5
456
 10
-341.10641658
 20
725.5302431
 30
0.0
 11
-343.13223329
 21
723.50442639
 31
0.0
  0
LINE
  8
0
  6
CONTINUOUS
 62
       7
  5
457
 10
-340.23218752
 20
724.9902586
 30
0.0
 11
-342.44219227
 21
722.78025385
 31
0.0
  0
LINE
  8
0
  6
CONTINUOUS
 62
       7
  5
458
 10
-339.37668607
 20
724.43154649
 30
0.0
 11
-342.44219227
 21
721.36604029
 31
0.0
  0
LINE
  8
0
  6
CONTINUOUS
 62
       7
  5
459
 10
-338.54099455
 20
723.85302444
 30
0.0
 11
-342.44219227
 21
719.95182673
 31
0.0
  0
LINE
  8
0
  6
CONTINUOUS
 62
       7
  5
45A
 10
-337.72634722
 20
723.25345821
 30
0.0
 11
-342.44219227
 21
718.53761316
 31
0.0
  0
LINE
  8
0
  6
CONTINUOUS
 62
       7
  5
45B
 10
-336.93416053
 20
722.63143134
 30
0.0
 11
-342.44219227
 21
717.1233996
 31
0.0
  0
LINE
  8
0
  6
CONTINUOUS
 62
       7
  5
45C
 10
-336.16607187
 20
721.98530643
 30
0.0
 11
-342.44219227
 21
715.70918604
 31
0.0
  0
LINE
  8
0
  6
CONTINUOUS
 62
       7
  5
45D
 10
-335.4239897
 20
721.31317504
 30
0.0
 11
-342.44219227
 21
714.29497248
 31
0.0
  0
LINE
  8
0
  6
CONTINUOUS
 62
       7
  5
45E
 10
-334.71015961
 20
720.61279157
 30
0.0
 11
-342.44219227
 21
712.88075892
 31
0.0
  0
LINE
  8
0
  6
CONTINUOUS
 62
       7
  5
45F
 10
-334.02725297
 20
719.88148465
 30
0.0
 11
-342.44219227
 21
711.46654535
 31
0.0
  0
LINE
  8
0
  6
CONTINUOUS
 62
       7
  5
460
 10
-333.37848829
 20
719.11603576
 30
0.0
 11
-341.17759767
 21
711.31692639
 31
0.0
  0
LINE
  8
0
  6
CONTINUOUS
 62
       7
  5
461
 10
-332.76780158
 20
718.31250891
 30
0.0
 11
-339.7633841
 21
711.31692639
 31
0.0
  0
LINE
  8
0
  6
CONTINUOUS
 62
       7
  5
462
 10
-332.20009226
 20
717.46600467
 30
0.0
 11
-338.34917054
 21
711.31692639
 31
0.0
  0
LINE
  8
0
  6
CONTINUOUS
 62
       7
  5
463
 10
-331.68159031
 20
716.57029306
 30
0.0
 11
-336.93495698
 21
711.31692639
 31
0.0
  0
LINE
  8
0
  6
CONTINUOUS
 62
       7
  5
464
 10
-331.22042707
 20
715.61724273
 30
0.0
 11
-335.52074342
 21
711.31692639
 31
0.0
  0
LINE
  8
0
  6
CONTINUOUS
 62
       7
  5
465
 10
-330.82756796
 20
714.59588829
 30
0.0
 11
-334.10652986
 21
711.31692639
 31
0.0
  0
LINE
  8
0
  6
CONTINUOUS
 62
       7
  5
466
 10
-330.51843548
 20
713.4908072
 30
0.0
 11
-332.69231629
 21
711.31692639
 31
0.0
  0
LINE
  8
0
  6
CONTINUOUS
 62
       7
  5
467
 10
-330.31597576
 20
712.27905336
 30
0.0
 11
-331.27810273
 21
711.31692639
 31
0.0
  0
LINE
  8
0
  6
CONTINUOUS
 62
       7
  5
468
 10
-374.31166288
 20
699.12942639
 30
0.0
 11
-387.96594489
 21
685.47514438
 31
0.0
  0
LINE
  8
0
  6
CONTINUOUS
 62
       7
  5
469
 10
-375.72587644
 20
699.12942639
 30
0.0
 11
-389.43089277
 21
685.42441006
 31
0.0
  0
LINE
  8
0
  6
CONTINUOUS
 62
       7
  5
46A
 10
-377.14009001
 20
699.12942639
 30
0.0
 11
-390.88188247
 21
685.38763392
 31
0.0
  0
LINE
  8
0
  6
CONTINUOUS
 62
       7
  5
46B
 10
-378.55430357
 20
699.12942639
 30
0.0
 11
-392.31936288
 21
685.36436708
 31
0.0
  0
LINE
  8
0
  6
CONTINUOUS
 62
       7
  5
46C
 10
-379.96851713
 20
699.12942639
 30
0.0
 11
-393.74373961
 21
685.35420391
 31
0.0
  0
LINE
  8
0
  6
CONTINUOUS
 62
       7
  5
46D
 10
-381.38273069
 20
699.12942639
 30
0.0
 11
-395.15537957
 21
685.35677752
 31
0.0
  0
LINE
  8
0
  6
CONTINUOUS
 62
       7
  5
46E
 10
-382.79694426
 20
699.12942639
 30
0.0
 11
-396.55461485
 21
685.3717558
 31
0.0
  0
LINE
  8
0
  6
CONTINUOUS
 62
       7
  5
46F
 10
-384.21115782
 20
699.12942639
 30
0.0
 11
-397.94174609
 21
685.39883811
 31
0.0
  0
LINE
  8
0
  6
CONTINUOUS
 62
       7
  5
470
 10
-385.62537138
 20
699.12942639
 30
0.0
 11
-399.31704537
 21
685.4377524
 31
0.0
  0
LINE
  8
0
  6
CONTINUOUS
 62
       7
  5
471
 10
-387.03958494
 20
699.12942639
 30
0.0
 11
-400.68075862
 21
685.48825272
 31
0.0
  0
LINE
  8
0
  6
CONTINUOUS
 62
       7
  5
472
 10
-388.45379851
 20
699.12942639
 30
0.0
 11
-402.03310785
 21
685.55011705
 31
0.0
  0
LINE
  8
0
  6
CONTINUOUS
 62
       7
  5
473
 10
-389.86801207
 20
699.12942639
 30
0.0
 11
-403.37429297
 21
685.62314549
 31
0.0
  0
LINE
  8
0
  6
CONTINUOUS
 62
       7
  5
474
 10
-391.28222563
 20
699.12942639
 30
0.0
 11
-404.7044934
 21
685.70715862
 31
0.0
  0
LINE
  8
0
  6
CONTINUOUS
 62
       7
  5
475
 10
-392.69643919
 20
699.12942639
 30
0.0
 11
-406.02386946
 21
685.80199612
 31
0.0
  0
LINE
  8
0
  6
CONTINUOUS
 62
       7
  5
476
 10
-394.11065276
 20
699.12942639
 30
0.0
 11
-407.3325636
 21
685.90751554
 31
0.0
  0
LINE
  8
0
  6
CONTINUOUS
 62
       7
  5
477
 10
-395.52486632
 20
699.12942639
 30
0.0
 11
-408.63070141
 21
686.0235913
 31
0.0
  0
LINE
  8
0
  6
CONTINUOUS
 62
       7
  5
478
 10
-396.93907988
 20
699.12942639
 30
0.0
 11
-409.91839253
 21
686.15011374
 31
0.0
  0
LINE
  8
0
  6
CONTINUOUS
 62
       7
  5
479
 10
-398.35329344
 20
699.12942639
 30
0.0
 11
-411.19573141
 21
686.28698843
 31
0.0
  0
LINE
  8
0
  6
CONTINUOUS
 62
       7
  5
47A
 10
-399.767507
 20
699.12942639
 30
0.0
 11
-412.46279793
 21
686.43413547
 31
0.0
  0
LINE
  8
0
  6
CONTINUOUS
 62
       7
  5
47B
 10
-401.18172057
 20
699.12942639
 30
0.0
 11
-413.71965796
 21
686.59148899
 31
0.0
  0
LINE
  8
0
  6
CONTINUOUS
 62
       7
  5
47C
 10
-402.59593413
 20
699.12942639
 30
0.0
 11
-414.96636379
 21
686.75899673
 31
0.0
  0
LINE
  8
0
  6
CONTINUOUS
 62
       7
  5
47D
 10
-404.01014769
 20
699.12942639
 30
0.0
 11
-416.20295445
 21
686.93661963
 31
0.0
  0
LINE
  8
0
  6
CONTINUOUS
 62
       7
  5
47E
 10
-405.42436125
 20
699.12942639
 30
0.0
 11
-417.42945597
 21
687.12433167
 31
0.0
  0
LINE
  8
0
  6
CONTINUOUS
 62
       7
  5
47F
 10
-406.83857482
 20
699.12942639
 30
0.0
 11
-418.64588155
 21
687.32211965
 31
0.0
  0
LINE
  8
0
  6
CONTINUOUS
 62
       7
  5
480
 10
-408.25278838
 20
699.12942639
 30
0.0
 11
-419.85223163
 21
687.52998314
 31
0.0
  0
LINE
  8
0
  6
CONTINUOUS
 62
       7
  5
481
 10
-409.66700194
 20
699.12942639
 30
0.0
 11
-421.04849392
 21
687.74793441
 31
0.0
  0
LINE
  8
0
  6
CONTINUOUS
 62
       7
  5
482
 10
-411.0812155
 20
699.12942639
 30
0.0
 11
-422.23464328
 21
687.97599861
 31
0.0
  0
LINE
  8
0
  6
CONTINUOUS
 62
       7
  5
483
 10
-412.49542907
 20
699.12942639
 30
0.0
 11
-423.41064161
 21
688.21421384
 31
0.0
  0
LINE
  8
0
  6
CONTINUOUS
 62
       7
  5
484
 10
-413.90964263
 20
699.12942639
 30
0.0
 11
-424.57643757
 21
688.46263144
 31
0.0
  0
LINE
  8
0
  6
CONTINUOUS
 62
       7
  5
485
 10
-415.32385619
 20
699.12942639
 30
0.0
 11
-425.73196626
 21
688.72131632
 31
0.0
  0
LINE
  8
0
  6
CONTINUOUS
 62
       7
  5
486
 10
-416.73806975
 20
699.12942639
 30
0.0
 11
-426.87714877
 21
688.99034737
 31
0.0
  0
LINE
  8
0
  6
CONTINUOUS
 62
       7
  5
487
 10
-418.15228332
 20
699.12942639
 30
0.0
 11
-428.01189172
 21
689.26981799
 31
0.0
  0
LINE
  8
0
  6
CONTINUOUS
 62
       7
  5
488
 10
-419.56649688
 20
699.12942639
 30
0.0
 11
-429.13608655
 21
689.55983672
 31
0.0
  0
LINE
  8
0
  6
CONTINUOUS
 62
       7
  5
489
 10
-420.98071044
 20
699.12942639
 30
0.0
 11
-430.24960881
 21
689.86052802
 31
0.0
  0
LINE
  8
0
  6
CONTINUOUS
 62
       7
  5
48A
 10
-422.394924
 20
699.12942639
 30
0.0
 11
-431.35231729
 21
690.1720331
 31
0.0
  0
LINE
  8
0
  6
CONTINUOUS
 62
       7
  5
48B
 10
-423.80913757
 20
699.12942639
 30
0.0
 11
-432.44405294
 21
690.49451101
 31
0.0
  0
LINE
  8
0
  6
CONTINUOUS
 62
       7
  5
48C
 10
-425.22335113
 20
699.12942639
 30
0.0
 11
-433.52463773
 21
690.82813978
 31
0.0
  0
LINE
  8
0
  6
CONTINUOUS
 62
       7
  5
48D
 10
-426.63756469
 20
699.12942639
 30
0.0
 11
-434.59387325
 21
691.17311783
 31
0.0
  0
LINE
  8
0
  6
CONTINUOUS
 62
       7
  5
48E
 10
-428.05177825
 20
699.12942639
 30
0.0
 11
-435.6515391
 21
691.52966554
 31
0.0
  0
LINE
  8
0
  6
CONTINUOUS
 62
       7
  5
48F
 10
-429.46599181
 20
699.12942639
 30
0.0
 11
-436.69739107
 21
691.89802714
 31
0.0
  0
LINE
  8
0
  6
CONTINUOUS
 62
       7
  5
490
 10
-430.88020538
 20
699.12942639
 30
0.0
 11
-437.73115901
 21
692.27847275
 31
0.0
  0
LINE
  8
0
  6
CONTINUOUS
 62
       7
  5
491
 10
-432.29441894
 20
699.12942639
 30
0.0
 11
-438.75254439
 21
692.67130094
 31
0.0
  0
LINE
  8
0
  6
CONTINUOUS
 62
       7
  5
492
 10
-433.7086325
 20
699.12942639
 30
0.0
 11
-439.76121742
 21
693.07684147
 31
0.0
  0
LINE
  8
0
  6
CONTINUOUS
 62
       7
  5
493
 10
-435.12284606
 20
699.12942639
 30
0.0
 11
-440.75681374
 21
693.49545871
 31
0.0
  0
LINE
  8
0
  6
CONTINUOUS
 62
       7
  5
494
 10
-436.53705963
 20
699.12942639
 30
0.0
 11
-441.73893062
 21
693.92755539
 31
0.0
  0
LINE
  8
0
  6
CONTINUOUS
 62
       7
  5
495
 10
-437.95127319
 20
699.12942639
 30
0.0
 11
-442.70712237
 21
694.37357721
 31
0.0
  0
LINE
  8
0
  6
CONTINUOUS
 62
       7
  5
496
 10
-439.36548675
 20
699.12942639
 30
0.0
 11
-443.66089505
 21
694.83401809
 31
0.0
  0
LINE
  8
0
  6
CONTINUOUS
 62
       7
  5
497
 10
-440.77970031
 20
699.12942639
 30
0.0
 11
-444.59970022
 21
695.30942648
 31
0.0
  0
LINE
  8
0
  6
CONTINUOUS
 62
       7
  5
498
 10
-442.19391388
 20
699.12942639
 30
0.0
 11
-445.52292745
 21
695.80041282
 31
0.0
  0
LINE
  8
0
  6
CONTINUOUS
 62
       7
  5
499
 10
-443.60812744
 20
699.12942639
 30
0.0
 11
-446.42989537
 21
696.30765846
 31
0.0
  0
LINE
  8
0
  6
CONTINUOUS
 62
       7
  5
49A
 10
-445.022341
 20
699.12942639
 30
0.0
 11
-447.31984096
 21
696.83192643
 31
0.0
  0
LINE
  8
0
  6
CONTINUOUS
 62
       7
  5
49B
 10
-445.56719227
 20
699.99878869
 30
0.0
 11
-448.19190646
 21
697.37407449
 31
0.0
  0
LINE
  8
0
  6
CONTINUOUS
 62
       7
  5
49C
 10
-445.56719227
 20
701.41300225
 30
0.0
 11
-449.0451234
 21
697.93507111
 31
0.0
  0
LINE
  8
0
  6
CONTINUOUS
 62
       7
  5
49D
 10
-445.56719227
 20
702.82721581
 30
0.0
 11
-449.87839283
 21
698.51601525
 31
0.0
  0
LINE
  8
0
  6
CONTINUOUS
 62
       7
  5
49E
 10
-445.56719227
 20
704.24142937
 30
0.0
 11
-450.69046066
 21
699.11816098
 31
0.0
  0
LINE
  8
0
  6
CONTINUOUS
 62
       7
  5
49F
 10
-445.56719227
 20
705.65564294
 30
0.0
 11
-451.47988651
 21
699.7429487
 31
0.0
  0
LINE
  8
0
  6
CONTINUOUS
 62
       7
  5
4A0
 10
-445.56719227
 20
707.0698565
 30
0.0
 11
-452.2450038
 21
700.39204497
 31
0.0
  0
LINE
  8
0
  6
CONTINUOUS
 62
       7
  5
4A1
 10
-445.56719227
 20
708.48407006
 30
0.0
 11
-452.983868
 21
701.06739433
 31
0.0
  0
LINE
  8
0
  6
CONTINUOUS
 62
       7
  5
4A2
 10
-445.56719227
 20
709.89828362
 30
0.0
 11
-453.69418829
 21
701.7712876
 31
0.0
  0
LINE
  8
0
  6
CONTINUOUS
 62
       7
  5
4A3
 10
-445.56276306
 20
711.31692639
 30
0.0
 11
-454.37323567
 21
702.50645378
 31
0.0
  0
LINE
  8
0
  6
CONTINUOUS
 62
       7
  5
4A4
 10
-446.97697662
 20
711.31692639
 30
0.0
 11
-455.01771682
 21
703.2761862
 31
0.0
  0
LINE
  8
0
  6
CONTINUOUS
 62
       7
  5
4A5
 10
-448.39119019
 20
711.31692639
 30
0.0
 11
-455.62359639
 21
704.08452018
 31
0.0
  0
LINE
  8
0
  6
CONTINUOUS
 62
       7
  5
4A6
 10
-449.80540375
 20
711.31692639
 30
0.0
 11
-456.18583973
 21
704.9364904
 31
0.0
  0
LINE
  8
0
  6
CONTINUOUS
 62
       7
  5
4A7
 10
-451.21961731
 20
711.31692639
 30
0.0
 11
-456.69802684
 21
705.83851686
 31
0.0
  0
LINE
  8
0
  6
CONTINUOUS
 62
       7
  5
4A8
 10
-452.63383087
 20
711.31692639
 30
0.0
 11
-457.15174919
 21
706.79900807
 31
0.0
  0
LINE
  8
0
  6
CONTINUOUS
 62
       7
  5
4A9
 10
-454.04804444
 20
711.31692639
 30
0.0
 11
-457.53561739
 21
707.82935344
 31
0.0
  0
LINE
  8
0
  6
CONTINUOUS
 62
       7
  5
4AA
 10
-455.462258
 20
711.31692639
 30
0.0
 11
-457.83351952
 21
708.94566487
 31
0.0
  0
LINE
  8
0
  6
CONTINUOUS
 62
       7
  5
4AB
 10
-456.87647156
 20
711.31692639
 30
0.0
 11
-458.02129277
 21
710.17210518
 31
0.0
  0
LINE
  8
0
  6
CONTINUOUS
 62
       7
  5
4AC
 10
-372.89744932
 20
699.12942639
 30
0.0
 11
-386.48654129
 21
685.54033442
 31
0.0
  0
LINE
  8
0
  6
CONTINUOUS
 62
       7
  5
4AD
 10
-371.48323576
 20
699.12942639
 30
0.0
 11
-384.99212942
 21
685.62053273
 31
0.0
  0
LINE
  8
0
  6
CONTINUOUS
 62
       7
  5
4AE
 10
-370.0690222
 20
699.12942639
 30
0.0
 11
-383.48209418
 21
685.71635441
 31
0.0
  0
LINE
  8
0
  6
CONTINUOUS
 62
       7
  5
4AF
 10
-368.65480863
 20
699.12942639
 30
0.0
 11
-381.95574885
 21
685.82848617
 31
0.0
  0
LINE
  8
0
  6
CONTINUOUS
 62
       7
  5
4B0
 10
-367.24059507
 20
699.12942639
 30
0.0
 11
-380.41232421
 21
685.95769725
 31
0.0
  0
LINE
  8
0
  6
CONTINUOUS
 62
       7
  5
4B1
 10
-365.82638151
 20
699.12942639
 30
0.0
 11
-378.85095528
 21
686.10485262
 31
0.0
  0
LINE
  8
0
  6
CONTINUOUS
 62
       7
  5
4B2
 10
-364.41216795
 20
699.12942639
 30
0.0
 11
-377.27066512
 21
686.27092922
 31
0.0
  0
LINE
  8
0
  6
CONTINUOUS
 62
       7
  5
4B3
 10
-362.99795438
 20
699.12942639
 30
0.0
 11
-375.67034475
 21
686.45703602
 31
0.0
  0
LINE
  8
0
  6
CONTINUOUS
 62
       7
  5
4B4
 10
-361.58374082
 20
699.12942639
 30
0.0
 11
-374.04872813
 21
686.66443908
 31
0.0
  0
LINE
  8
0
  6
CONTINUOUS
 62
       7
  5
4B5
 10
-360.16952726
 20
699.12942639
 30
0.0
 11
-372.40436038
 21
686.89459327
 31
0.0
  0
LINE
  8
0
  6
CONTINUOUS
 62
       7
  5
4B6
 10
-358.7553137
 20
699.12942639
 30
0.0
 11
-370.73555726
 21
687.14918282
 31
0.0
  0
LINE
  8
0
  6
CONTINUOUS
 62
       7
  5
4B7
 10
-357.34110013
 20
699.12942639
 30
0.0
 11
-369.0403524
 21
687.43017413
 31
0.0
  0
LINE
  8
0
  6
CONTINUOUS
 62
       7
  5
4B8
 10
-355.92688657
 20
699.12942639
 30
0.0
 11
-367.3164275
 21
687.73988546
 31
0.0
  0
LINE
  8
0
  6
CONTINUOUS
 62
       7
  5
4B9
 10
-342.32517301
 20
711.31692639
 30
0.0
 11
-342.44219227
 21
711.19990713
 31
0.0
  0
LINE
  8
0
  6
CONTINUOUS
 62
       7
  5
4BA
 10
-354.51267301
 20
699.12942639
 30
0.0
 11
-365.56101856
 21
688.08108084
 31
0.0
  0
LINE
  8
0
  6
CONTINUOUS
 62
       7
  5
4BB
 10
-340.91095945
 20
711.31692639
 30
0.0
 11
-342.44219227
 21
709.78569357
 31
0.0
  0
LINE
  8
0
  6
CONTINUOUS
 62
       7
  5
4BC
 10
-353.09845945
 20
699.12942639
 30
0.0
 11
-363.77078665
 21
688.45709919
 31
0.0
  0
LINE
  8
0
  6
CONTINUOUS
 62
       7
  5
4BD
 10
-339.49674588
 20
711.31692639
 30
0.0
 11
-342.44219227
 21
708.37148001
 31
0.0
  0
LINE
  8
0
  6
CONTINUOUS
 62
       7
  5
4BE
 10
-351.68424588
 20
699.12942639
 30
0.0
 11
-361.94163583
 21
688.87203645
 31
0.0
  0
LINE
  8
0
  6
CONTINUOUS
 62
       7
  5
4BF
 10
-338.08253232
 20
711.31692639
 30
0.0
 11
-342.44219227
 21
706.95726645
 31
0.0
  0
LINE
  8
0
  6
CONTINUOUS
 62
       7
  5
4C0
 10
-350.27003232
 20
699.12942639
 30
0.0
 11
-360.06844863
 21
689.33101008
 31
0.0
  0
LINE
  8
0
  6
CONTINUOUS
 62
       7
  5
4C1
 10
-336.66831876
 20
711.31692639
 30
0.0
 11
-342.44219227
 21
705.54305288
 31
0.0
  0
LINE
  8
0
  6
CONTINUOUS
 62
       7
  5
4C2
 10
-348.85581876
 20
699.12942639
 30
0.0
 11
-358.14468839
 21
689.84055675
 31
0.0
  0
LINE
  8
0
  6
CONTINUOUS
 62
       7
  5
4C3
 10
-335.2541052
 20
711.31692639
 30
0.0
 11
-342.44219227
 21
704.12883932
 31
0.0
  0
LINE
  8
0
  6
CONTINUOUS
 62
       7
  5
4C4
 10
-347.4416052
 20
699.12942639
 30
0.0
 11
-356.1617757
 21
690.40925589
 31
0.0
  0
LINE
  8
0
  6
CONTINUOUS
 62
       7
  5
4C5
 10
-333.83989163
 20
711.31692639
 30
0.0
 11
-342.44219227
 21
702.71462576
 31
0.0
  0
LINE
  8
0
  6
CONTINUOUS
 62
       7
  5
4C6
 10
-346.02739163
 20
699.12942639
 30
0.0
 11
-354.10805843
 21
691.0487596
 31
0.0
  0
LINE
  8
0
  6
CONTINUOUS
 62
       7
  5
4C7
 10
-332.42567807
 20
711.31692639
 30
0.0
 11
-342.44219227
 21
701.3004122
 31
0.0
  0
LINE
  8
0
  6
CONTINUOUS
 62
       7
  5
4C8
 10
-344.61317807
 20
699.12942639
 30
0.0
 11
-351.96699466
 21
691.7756098
 31
0.0
  0
LINE
  8
0
  6
CONTINUOUS
 62
       7
  5
4C9
 10
-331.01146451
 20
711.31692639
 30
0.0
 11
-342.44219227
 21
699.88619863
 31
0.0
  0
LINE
  8
0
  6
CONTINUOUS
 62
       7
  5
4CA
 10
-343.19896451
 20
699.12942639
 30
0.0
 11
-349.71365562
 21
692.61473528
 31
0.0
  0
LINE
  8
0
  6
CONTINUOUS
 62
       7
  5
4CB
 10
-330.26680604
 20
710.6473713
 30
0.0
 11
-347.30713346
 21
693.60704388
 31
0.0
  0
LINE
  8
0
  6
CONTINUOUS
 62
       7
  5
4CC
 10
-330.47100744
 20
709.02895634
 30
0.0
 11
-344.67078841
 21
694.82917536
 31
0.0
  0
LINE
  8
0
  6
CONTINUOUS
 62
       7
  5
4CD
 10
-331.08777844
 20
706.99797177
 30
0.0
 11
-341.62187375
 21
696.46387646
 31
0.0
  0
LINE
  8
0
  6
CONTINUOUS
 62
       7
  5
4CE
 10
-332.99557253
 20
703.67596412
 30
0.0
 11
-337.28193601
 21
699.38960064
 31
0.0
  0
POINT
  8
0
  6
CONTINUOUS
 62
       7
  5
4CF
 10
304.12030773
 20
700.92658355
 30
0.0
  0
POINT
  8
0
  6
CONTINUOUS
 62
       7
  5
4D0
 10
-84.4560004
 20
700.92658355
 30
0.0
  0
POINT
  8
0
  6
CONTINUOUS
 62
       7
  5
4D1
 10
300.99530773
 20
-666.33932361
 30
0.0
  0
POINT
  8
0
  6
CONTINUOUS
 62
       7
  5
4D2
 10
-36.34844227
 20
-666.33932361
 30
0.0
  0
POINT
  8
0
  6
CONTINUOUS
 62
       7
  5
4D3
 10
95.68280773
 20
-590.24557361
 30
0.0
  0
POINT
  8
0
  6
CONTINUOUS
 62
       7
  5
4D4
 10
-425.56719227
 20
-590.24557361
 30
0.0
  0
POINT
  8
0
  6
CONTINUOUS
 62
       7
  5
4D5
 10
-192.75469227
 20
-590.24557361
 30
0.0
  0
POINT
  8
0
  6
CONTINUOUS
 62
       7
  5
4D6
 10
128.49530773
 20
-590.24557361
 30
0.0
  0
LINE
  8
0
  6
CONTINUOUS
 62
       7
  5
4D7
 10
-524.94219227
 20
776.60714286
 30
0.0
 11
-524.94219227
 21
751.60714286
 31
0.0
  0
LINE
  8
0
  6
CONTINUOUS
 62
       7
  5
4D8
 10
-524.94219227
 20
751.60714286
 30
0.0
 11
-549.94219227
 21
751.60714286
 31
0.0
  0
LINE
  8
0
  6
CONTINUOUS
 62
       7
  5
4D9
 10
525.05780773
 20
751.60714286
 30
0.0
 11
550.05780773
 21
751.60714286
 31
0.0
  0
LINE
  8
0
  6
CONTINUOUS
 62
       7
  5
4DA
 10
525.05780773
 20
751.60714286
 30
0.0
 11
525.05780773
 21
776.60714286
 31
0.0
  0
LINE
  8
0
  6
CONTINUOUS
 62
       7
  5
4DB
 10
525.05780773
 20
-758.39285714
 30
0.0
 11
525.05780773
 21
-733.39285714
 31
0.0
  0
LINE
  8
0
  6
CONTINUOUS
 62
       7
  5
4DC
 10
525.05780773
 20
-733.39285714
 30
0.0
 11
550.05780773
 21
-733.39285714
 31
0.0
  0
LINE
  8
0
  6
CONTINUOUS
 62
       7
  5
4DD
 10
-550.05780773
 20
-733.39285714
 30
0.0
 11
-524.94219227
 21
-733.39285714
 31
0.0
  0
LINE
  8
0
  6
CONTINUOUS
 62
       7
  5
4DE
 10
-524.94219227
 20
-733.5654104
 30
0.0
 11
-524.94219227
 21
-758.3925898
 31
0.0
  0
POINT
  8
0
  6
CONTINUOUS
 62
       7
  5
4DF
 10
95.68280773
 20
-565.24557361
 30
0.0
  0
POINT
  8
0
  6
CONTINUOUS
 62
       7
  5
4E0
 10
-425.56719227
 20
-565.24557361
 30
0.0
  0
POINT
  8
0
  6
CONTINUOUS
 62
       7
  5
4E1
 10
-192.75469227
 20
-565.24557361
 30
0.0
  0
POINT
  8
0
  6
CONTINUOUS
 62
       7
  5
4E2
 10
128.49530773
 20
-565.24557361
 30
0.0
  0
POINT
  8
0
  6
CONTINUOUS
 62
       7
  5
4E3
 10
95.68280773
 20
-540.24557361
 30
0.0
  0
POINT
  8
0
  6
CONTINUOUS
 62
       7
  5
4E4
 10
-425.56719227
 20
-540.24557361
 30
0.0
  0
POINT
  8
0
  6
CONTINUOUS
 62
       7
  5
4E5
 10
-192.75469227
 20
-540.24557361
 30
0.0
  0
POINT
  8
0
  6
CONTINUOUS
 62
       7
  5
4E6
 10
128.49530773
 20
-540.24557361
 30
0.0
  0
POINT
  8
0
  6
CONTINUOUS
 62
       7
  5
4E7
 10
95.68280773
 20
-515.24557361
 30
0.0
  0
POINT
  8
0
  6
CONTINUOUS
 62
       7
  5
4E8
 10
-425.56719227
 20
-515.24557361
 30
0.0
  0
POINT
  8
0
  6
CONTINUOUS
 62
       7
  5
4E9
 10
-192.75469227
 20
-515.24557361
 30
0.0
  0
POINT
  8
0
  6
CONTINUOUS
 62
       7
  5
4EA
 10
128.49530773
 20
-515.24557361
 30
0.0
  0
POINT
  8
0
  6
CONTINUOUS
 62
       7
  5
4EB
 10
95.68280773
 20
-490.24557361
 30
0.0
  0
POINT
  8
0
  6
CONTINUOUS
 62
       7
  5
4EC
 10
-425.56719227
 20
-490.24557361
 30
0.0
  0
POINT
  8
0
  6
CONTINUOUS
 62
       7
  5
4ED
 10
-192.75469227
 20
-490.24557361
 30
0.0
  0
POINT
  8
0
  6
CONTINUOUS
 62
       7
  5
4EE
 10
128.49530773
 20
-490.24557361
 30
0.0
  0
POINT
  8
0
  6
CONTINUOUS
 62
       7
  5
4EF
 10
95.68280773
 20
-465.24557361
 30
0.0
  0
POINT
  8
0
  6
CONTINUOUS
 62
       7
  5
4F0
 10
-425.56719227
 20
-465.24557361
 30
0.0
  0
POINT
  8
0
  6
CONTINUOUS
 62
       7
  5
4F1
 10
-192.75469227
 20
-465.24557361
 30
0.0
  0
POINT
  8
0
  6
CONTINUOUS
 62
       7
  5
4F2
 10
128.49530773
 20
-465.24557361
 30
0.0
  0
LINE
  8
0
  6
CONTINUOUS
 62
       7
  5
4F3
 10
-153.645817
 20
148.97032923
 30
0.0
 11
-153.90939572
 21
144.1575663
 31
0.0
  0
LINE
  8
0
  6
CONTINUOUS
 62
       7
  5
4F4
 10
-153.952067
 20
148.97032923
 30
0.0
 11
-154.21564572
 21
144.1575663
 31
0.0
  0
LINE
  8
0
  6
CONTINUOUS
 62
       7
  5
4F5
 10
-154.34227772
 20
148.97032923
 30
0.0
 11
-154.5448775
 21
144.1575663
 31
0.0
  0
LINE
  8
0
  6
CONTINUOUS
 62
       7
  5
4F6
 10
-154.75477772
 20
148.97032923
 30
0.0
 11
-154.9573775
 21
144.1575663
 31
0.0
  0
LINE
  8
0
  6
CONTINUOUS
 62
       7
  5
4F7
 10
-155.23602772
 20
148.97032923
 30
0.0
 11
-155.4386275
 21
144.1575663
 31
0.0
  0
LINE
  8
0
  6
CONTINUOUS
 62
       7
  5
4F8
 10
-155.78602772
 20
148.97032923
 30
0.0
 11
-155.9886275
 21
144.1575663
 31
0.0
  0
LINE
  8
0
  6
CONTINUOUS
 62
       7
  5
4F9
 10
-156.33602772
 20
148.97032923
 30
0.0
 11
-156.5386275
 21
144.1575663
 31
0.0
  0
LINE
  8
0
  6
CONTINUOUS
 62
       7
  5
4FA
 10
-156.95477772
 20
148.97032923
 30
0.0
 11
-157.1573775
 21
144.1575663
 31
0.0
  0
LINE
  8
0
  6
CONTINUOUS
 62
       7
  5
4FB
 10
-157.57570287
 20
148.91865836
 30
0.0
 11
-157.7761275
 21
144.1575663
 31
0.0
  0
LINE
  8
0
  6
CONTINUOUS
 62
       7
  5
4FC
 10
-158.80314572
 20
144.1575663
 30
0.0
 11
-158.80314572
 21
148.97032923
 31
0.0
  0
LINE
  8
0
  6
CONTINUOUS
 62
       7
  5
4FD
 10
-158.25925116
 20
148.97032923
 30
0.0
 11
-158.25925116
 21
144.1575663
 31
0.0
  0
LINE
  8
0
  6
CONTINUOUS
 62
       7
  5
4FE
 10
-163.96047444
 20
148.97032923
 30
0.0
 11
-163.69689572
 21
144.1575663
 31
0.0
  0
LINE
  8
0
  6
CONTINUOUS
 62
       7
  5
4FF
 10
-163.65422444
 20
148.97032923
 30
0.0
 11
-163.39064572
 21
144.1575663
 31
0.0
  0
LINE
  8
0
  6
CONTINUOUS
 62
       7
  5
500
 10
-163.26401372
 20
148.97032923
 30
0.0
 11
-163.06141394
 21
144.1575663
 31
0.0
  0
LINE
  8
0
  6
CONTINUOUS
 62
       7
  5
501
 10
-162.85151372
 20
148.97032923
 30
0.0
 11
-162.64891394
 21
144.1575663
 31
0.0
  0
LINE
  8
0
  6
CONTINUOUS
 62
       7
  5
502
 10
-162.37026372
 20
148.97032923
 30
0.0
 11
-162.16766394
 21
144.1575663
 31
0.0
  0
LINE
  8
0
  6
CONTINUOUS
 62
       7
  5
503
 10
-161.82026372
 20
148.97032923
 30
0.0
 11
-161.61766394
 21
144.1575663
 31
0.0
  0
LINE
  8
0
  6
CONTINUOUS
 62
       7
  5
504
 10
-161.27026372
 20
148.97032923
 30
0.0
 11
-161.06766394
 21
144.1575663
 31
0.0
  0
LINE
  8
0
  6
CONTINUOUS
 62
       7
  5
505
 10
-160.65041917
 20
148.94432819
 30
0.0
 11
-160.44891394
 21
144.1575663
 31
0.0
  0
LINE
  8
0
  6
CONTINUOUS
 62
       7
  5
506
 10
-160.03276372
 20
148.97032923
 30
0.0
 11
-159.83016394
 21
144.1575663
 31
0.0
  0
LINE
  8
0
  6
CONTINUOUS
 62
       7
  5
507
 10
-159.34704028
 20
148.97032923
 30
0.0
 11
-159.34704028
 21
144.1575663
 31
0.0
  0
LINE
  8
0
  6
CONTINUOUS
 62
       7
  5
508
 10
125.344178
 20
148.97032923
 30
0.0
 11
125.08059928
 21
144.1575663
 31
0.0
  0
LINE
  8
0
  6
CONTINUOUS
 62
       7
  5
509
 10
125.037928
 20
148.97032923
 30
0.0
 11
124.77434928
 21
144.1575663
 31
0.0
  0
LINE
  8
0
  6
CONTINUOUS
 62
       7
  5
50A
 10
124.64771728
 20
148.97032923
 30
0.0
 11
124.4451175
 21
144.1575663
 31
0.0
  0
LINE
  8
0
  6
CONTINUOUS
 62
       7
  5
50B
 10
124.23521728
 20
148.97032923
 30
0.0
 11
124.0326175
 21
144.1575663
 31
0.0
  0
LINE
  8
0
  6
CONTINUOUS
 62
       7
  5
50C
 10
123.75396728
 20
148.97032923
 30
0.0
 11
123.5513675
 21
144.1575663
 31
0.0
  0
LINE
  8
0
  6
CONTINUOUS
 62
       7
  5
50D
 10
123.20396728
 20
148.97032923
 30
0.0
 11
123.0013675
 21
144.1575663
 31
0.0
  0
LINE
  8
0
  6
CONTINUOUS
 62
       7
  5
50E
 10
115.02952056
 20
148.97032923
 30
0.0
 11
115.29309928
 21
144.1575663
 31
0.0
  0
LINE
  8
0
  6
CONTINUOUS
 62
       7
  5
50F
 10
115.33577056
 20
148.97032923
 30
0.0
 11
115.59934928
 21
144.1575663
 31
0.0
  0
LINE
  8
0
  6
CONTINUOUS
 62
       7
  5
510
 10
115.72598128
 20
148.97032923
 30
0.0
 11
115.92858106
 21
144.1575663
 31
0.0
  0
LINE
  8
0
  6
CONTINUOUS
 62
       7
  5
511
 10
116.13848128
 20
148.97032923
 30
0.0
 11
116.34108106
 21
144.1575663
 31
0.0
  0
LINE
  8
0
  6
CONTINUOUS
 62
       7
  5
512
 10
116.61973128
 20
148.97032923
 30
0.0
 11
116.82233106
 21
144.1575663
 31
0.0
  0
LINE
  8
0
  6
CONTINUOUS
 62
       7
  5
513
 10
117.16973128
 20
148.97032923
 30
0.0
 11
117.37233106
 21
144.1575663
 31
0.0
  0
LINE
  8
0
  6
CONTINUOUS
 62
       7
  5
514
 10
117.71973128
 20
148.97032923
 30
0.0
 11
117.92233106
 21
144.1575663
 31
0.0
  0
LINE
  8
0
  6
CONTINUOUS
 62
       7
  5
515
 10
118.33848128
 20
148.97032923
 30
0.0
 11
118.54108106
 21
144.1575663
 31
0.0
  0
LINE
  8
0
  6
CONTINUOUS
 62
       7
  5
516
 10
118.95940643
 20
148.91865836
 30
0.0
 11
119.15983106
 21
144.1575663
 31
0.0
  0
LINE
  8
0
  6
CONTINUOUS
 62
       7
  5
517
 10
120.18684928
 20
144.1575663
 30
0.0
 11
120.18684928
 21
148.97032923
 31
0.0
  0
LINE
  8
0
  6
CONTINUOUS
 62
       7
  5
518
 10
119.64295472
 20
148.97032923
 30
0.0
 11
119.64295472
 21
144.1575663
 31
0.0
  0
LINE
  8
0
  6
CONTINUOUS
 62
       7
  5
519
 10
122.65396728
 20
148.97032923
 30
0.0
 11
122.4513675
 21
144.1575663
 31
0.0
  0
LINE
  8
0
  6
CONTINUOUS
 62
       7
  5
51A
 10
122.03412273
 20
148.94432819
 30
0.0
 11
121.8326175
 21
144.1575663
 31
0.0
  0
LINE
  8
0
  6
CONTINUOUS
 62
       7
  5
51B
 10
121.41646728
 20
148.97032923
 30
0.0
 11
121.2138675
 21
144.1575663
 31
0.0
  0
LINE
  8
0
  6
CONTINUOUS
 62
       7
  5
51C
 10
120.73074384
 20
148.97032923
 30
0.0
 11
120.73074384
 21
144.1575663
 31
0.0
  0
LINE
  8
0
  6
CONTINUOUS
 62
       7
  5
51D
 10
341.49662701
 20
149.17032923
 30
0.0
 11
341.76020573
 21
144.3575663
 31
0.0
  0
LINE
  8
0
  6
CONTINUOUS
 62
       7
  5
51E
 10
341.80287701
 20
149.17032923
 30
0.0
 11
342.06645573
 21
144.3575663
 31
0.0
  0
LINE
  8
0
  6
CONTINUOUS
 62
       7
  5
51F
 10
342.19308773
 20
149.17032923
 30
0.0
 11
342.39568751
 21
144.3575663
 31
0.0
  0
LINE
  8
0
  6
CONTINUOUS
 62
       7
  5
520
 10
342.60558773
 20
149.17032923
 30
0.0
 11
342.80818751
 21
144.3575663
 31
0.0
  0
LINE
  8
0
  6
CONTINUOUS
 62
       7
  5
521
 10
343.08683773
 20
149.17032923
 30
0.0
 11
343.28943751
 21
144.3575663
 31
0.0
  0
LINE
  8
0
  6
CONTINUOUS
 62
       7
  5
522
 10
343.63683773
 20
149.17032923
 30
0.0
 11
343.83943751
 21
144.3575663
 31
0.0
  0
LINE
  8
0
  6
CONTINUOUS
 62
       7
  5
523
 10
344.18683773
 20
149.17032923
 30
0.0
 11
344.38943751
 21
144.3575663
 31
0.0
  0
LINE
  8
0
  6
CONTINUOUS
 62
       7
  5
524
 10
344.80558773
 20
149.17032923
 30
0.0
 11
345.00818751
 21
144.3575663
 31
0.0
  0
LINE
  8
0
  6
CONTINUOUS
 62
       7
  5
525
 10
345.42651289
 20
149.11865836
 30
0.0
 11
345.62693751
 21
144.3575663
 31
0.0
  0
LINE
  8
0
  6
CONTINUOUS
 62
       7
  5
526
 10
346.65395573
 20
144.3575663
 30
0.0
 11
346.65395573
 21
149.17032923
 31
0.0
  0
LINE
  8
0
  6
CONTINUOUS
 62
       7
  5
527
 10
346.11006117
 20
149.17032923
 30
0.0
 11
346.11006117
 21
144.3575663
 31
0.0
  0
LINE
  8
0
  6
CONTINUOUS
 62
       7
  5
528
 10
349.12107374
 20
149.17032923
 30
0.0
 11
348.91847396
 21
144.3575663
 31
0.0
  0
LINE
  8
0
  6
CONTINUOUS
 62
       7
  5
529
 10
348.50122919
 20
149.14432819
 30
0.0
 11
348.29972396
 21
144.3575663
 31
0.0
  0
LINE
  8
0
  6
CONTINUOUS
 62
       7
  5
52A
 10
347.88357374
 20
149.17032923
 30
0.0
 11
347.68097396
 21
144.3575663
 31
0.0
  0
LINE
  8
0
  6
CONTINUOUS
 62
       7
  5
52B
 10
347.1978503
 20
149.17032923
 30
0.0
 11
347.1978503
 21
144.3575663
 31
0.0
  0
LINE
  8
0
  6
CONTINUOUS
 62
       7
  5
52C
 10
351.81128446
 20
149.17032923
 30
0.0
 11
351.54770573
 21
144.3575663
 31
0.0
  0
LINE
  8
0
  6
CONTINUOUS
 62
       7
  5
52D
 10
351.50503446
 20
149.17032923
 30
0.0
 11
351.24145573
 21
144.3575663
 31
0.0
  0
LINE
  8
0
  6
CONTINUOUS
 62
       7
  5
52E
 10
351.11482374
 20
149.17032923
 30
0.0
 11
350.91222396
 21
144.3575663
 31
0.0
  0
LINE
  8
0
  6
CONTINUOUS
 62
       7
  5
52F
 10
350.70232374
 20
149.17032923
 30
0.0
 11
350.49972396
 21
144.3575663
 31
0.0
  0
LINE
  8
0
  6
CONTINUOUS
 62
       7
  5
530
 10
350.22107374
 20
149.17032923
 30
0.0
 11
350.01847396
 21
144.3575663
 31
0.0
  0
LINE
  8
0
  6
CONTINUOUS
 62
       7
  5
531
 10
349.67107374
 20
149.17032923
 30
0.0
 11
349.46847396
 21
144.3575663
 31
0.0
  0
LINE
  8
0
  6
CONTINUOUS
 62
       7
  5
532
 10
-182.90575491
 20
241.69726744
 30
0.0
 11
-185.71054154
 21
245.83649103
 31
0.0
  0
LINE
  8
0
  6
CONTINUOUS
 62
       7
  5
533
 10
-235.3706341
 20
319.1234301
 30
0.0
 11
-185.71054154
 21
245.83649103
 31
0.0
  0
LINE
  8
0
  6
CONTINUOUS
 62
       7
  5
534
 10
-185.71054154
 20
245.83649103
 30
0.0
 11
-190.41779738
 21
257.41628993
 31
0.0
  0
LINE
  8
0
  6
CONTINUOUS
 62
       7
  5
535
 10
-185.71054154
 20
245.83649103
 30
0.0
 11
-194.72076226
 21
254.50055027
 31
0.0
  0
LINE
  8
0
  6
CONTINUOUS
 62
       7
  5
536
 10
-171.68660839
 20
225.14037306
 30
0.0
 11
-182.90575491
 21
241.69726744
 31
0.0
  0
LINE
  8
0
  6
CONTINUOUS
 62
       7
  5
537
 10
-182.90575491
 20
241.69726744
 30
0.0
 11
-178.19849907
 21
230.11746854
 31
0.0
  0
LINE
  8
0
  6
CONTINUOUS
 62
       7
  5
538
 10
-182.90575491
 20
241.69726744
 30
0.0
 11
-173.89553418
 21
233.0332082
 31
0.0
  0
LINE
  8
0
  6
CONTINUOUS
 62
       7
  5
539
 10
-294.5706341
 20
319.1234301
 30
0.0
 11
-235.3706341
 21
319.1234301
 31
0.0
  0
LINE
  8
0
  6
CONTINUOUS
 62
       7
  5
53A
 10
-254.52443064
 20
143.97032923
 30
0.0
 11
-254.52443064
 21
153.77032923
 31
0.0
  0
LINE
  8
0
  6
CONTINUOUS
 62
       7
  5
53B
 10
-254.52443064
 20
72.77032923
 30
0.0
 11
-254.52443064
 21
143.97032923
 31
0.0
  0
LINE
  8
0
  6
CONTINUOUS
 62
       7
  5
53C
 10
-254.52443064
 20
143.97032923
 30
0.0
 11
-257.12332677
 21
131.74348423
 31
0.0
  0
LINE
  8
0
  6
CONTINUOUS
 62
       7
  5
53D
 10
-254.52443064
 20
143.97032923
 30
0.0
 11
-251.9255345
 21
131.74348423
 31
0.0
  0
LINE
  8
0
  6
CONTINUOUS
 62
       7
  5
53E
 10
-254.52443064
 20
173.77032923
 30
0.0
 11
-254.52443064
 21
153.77032923
 31
0.0
  0
LINE
  8
0
  6
CONTINUOUS
 62
       7
  5
53F
 10
-254.52443064
 20
153.77032923
 30
0.0
 11
-251.9255345
 21
165.99717424
 31
0.0
  0
LINE
  8
0
  6
CONTINUOUS
 62
       7
  5
540
 10
-254.52443064
 20
153.77032923
 30
0.0
 11
-257.12332677
 21
165.99717424
 31
0.0
  0
LINE
  8
0
  6
CONTINUOUS
 62
       7
  5
541
 10
-162.80314572
 20
143.97032923
 30
0.0
 11
-258.52443064
 21
143.97032923
 31
0.0
  0
LINE
  8
0
  6
CONTINUOUS
 62
       7
  5
542
 10
-168.30314572
 20
153.77032923
 30
0.0
 11
-258.52443064
 21
153.77032923
 31
0.0
  0
LINE
  8
0
  6
CONTINUOUS
 62
       7
  5
543
 10
-405.36945305
 20
-334.0146201
 30
0.0
 11
-405.36945305
 21
-169.0146201
 31
0.0
  0
LINE
  8
0
  6
CONTINUOUS
 62
       7
  5
544
 10
-405.36945305
 20
-334.0146201
 30
0.0
 11
-402.77055692
 21
-321.78777509
 31
0.0
  0
LINE
  8
0
  6
CONTINUOUS
 62
       7
  5
545
 10
-405.36945305
 20
-334.0146201
 30
0.0
 11
-407.96834919
 21
-321.78777509
 31
0.0
  0
LINE
  8
0
  6
CONTINUOUS
 62
       7
  5
546
 10
-405.36945305
 20
-169.0146201
 30
0.0
 11
-407.96834919
 21
-181.24146511
 31
0.0
  0
LINE
  8
0
  6
CONTINUOUS
 62
       7
  5
547
 10
-405.36945305
 20
-169.0146201
 30
0.0
 11
-402.77055692
 21
-181.24146511
 31
0.0
  0
LINE
  8
0
  6
CONTINUOUS
 62
       7
  5
548
 10
-264.90814822
 20
-334.0146201
 30
0.0
 11
-409.36945305
 21
-334.0146201
 31
0.0
  0
LINE
  8
0
  6
CONTINUOUS
 62
       7
  5
549
 10
-233.90318022
 20
-169.0146201
 30
0.0
 11
-409.36945305
 21
-169.0146201
 31
0.0
  0
LINE
  8
0
  6
CENTER
 62
       7
  5
54A
 10
432.75464465
 20
369.76287723
 30
0.0
 11
455.61806981
 21
369.76287723
 31
0.0
  0
LINE
  8
0
  6
CENTER
 62
       7
  5
54B
 10
455.61806981
 20
324.76442973
 30
0.0
 11
432.75464465
 21
324.76442973
 31
0.0
  0
LINE
  8
0
  6
CENTER
 62
       7
  5
54C
 10
-19.30814822
 20
407.97527209
 30
0.0
 11
-19.30814822
 21
136.42093144
 31
0.0
  0
LINE
  8
0
  6
CENTER
 62
       7
  5
54D
 10
346.65395573
 20
171.89556194
 30
0.0
 11
346.65395573
 21
140.99848792
 31
0.0
  0
LINE
  8
0
  6
CENTER
 62
       7
  5
54E
 10
152.83413902
 20
243.76687923
 30
0.0
 11
138.81060964
 21
243.76687923
 31
0.0
  0
LINE
  8
0
  6
CENTER
 62
       7
  5
54F
 10
-176.87485107
 20
243.76687923
 30
0.0
 11
-191.80814822
 21
243.76687923
 31
0.0
  0
LINE
  8
0
  6
CENTER
 62
       7
  5
550
 10
152.83413902
 20
183.76963923
 30
0.0
 11
138.81060964
 21
183.76963923
 31
0.0
  0
LINE
  8
0
  6
CENTER
 62
       7
  5
551
 10
-176.87485107
 20
183.76963923
 30
0.0
 11
-191.80814822
 21
183.76963923
 31
0.0
  0
LINE
  8
0
  6
CENTER
 62
       7
  5
552
 10
437.76040836
 20
393.76204923
 30
0.0
 11
449.52627532
 21
393.76204923
 31
0.0
  0
LINE
  8
0
  6
CENTER
 62
       7
  5
553
 10
471.22341719
 20
243.76687923
 30
0.0
 11
462.09859421
 21
243.76687923
 31
0.0
  0
LINE
  8
0
  6
CENTER
 62
       7
  5
554
 10
471.22341719
 20
183.76963923
 30
0.0
 11
462.09859421
 21
183.76963923
 31
0.0
  0
LINE
  8
0
  6
CENTER
 62
       7
  5
555
 10
-45.30814822
 20
382.8822052
 30
0.0
 11
-45.30814822
 21
395.00849273
 31
0.0
  0
LINE
  8
0
  6
CENTER
 62
       7
  5
556
 10
6.69185178
 20
382.8822052
 30
0.0
 11
6.69185178
 21
395.00849273
 31
0.0
  0
LINE
  8
0
  6
CENTER
 62
       7
  5
557
 10
456.13320161
 20
388.77032923
 30
0.0
 11
474.56077124
 21
388.77032923
 31
0.0
  0
LINE
  8
0
  6
CENTER
 62
       7
  5
558
 10
-51.15736674
 20
388.77032923
 30
0.0
 11
-38.89377819
 21
388.77032923
 31
0.0
  0
LINE
  8
0
  6
CENTER
 62
       7
  5
559
 10
1.19613822
 20
388.77032923
 30
0.0
 11
12.98839684
 21
388.77032923
 31
0.0
  0
LINE
  8
0
  6
CENTER
 62
       7
  5
55A
 10
-184.30814822
 20
251.29104385
 30
0.0
 11
-184.30814822
 21
236.60752683
 31
0.0
  0
LINE
  8
0
  6
CENTER
 62
       7
  5
55B
 10
-184.30814822
 20
190.6956849
 30
0.0
 11
-184.30814822
 21
176.01216789
 31
0.0
  0
LINE
  8
0
  6
CENTER
 62
       7
  5
55C
 10
145.69185178
 20
251.29104385
 30
0.0
 11
145.69185178
 21
236.60752683
 31
0.0
  0
LINE
  8
0
  6
CENTER
 62
       7
  5
55D
 10
145.69185178
 20
190.6956849
 30
0.0
 11
145.69185178
 21
176.01216789
 31
0.0
  0
LINE
  8
0
  6
CENTER
 62
       7
  5
55E
 10
41.58620552
 20
-295.2102662
 30
0.0
 11
62.0646254
 21
-295.2102662
 31
0.0
  0
LINE
  8
0
  6
CENTER
 62
       7
  5
55F
 10
-213.40250196
 20
-295.2102662
 30
0.0
 11
-233.88092184
 21
-295.2102662
 31
0.0
  0
LINE
  8
0
  6
CENTER
 62
       7
  5
560
 10
-85.90814822
 20
-150.90286544
 30
0.0
 11
-85.90814822
 21
-342.99705045
 31
0.0
  0
LINE
  8
0
  6
CENTER
 62
       7
  5
561
 10
41.58620552
 20
-295.2102662
 30
0.0
 11
62.0646254
 21
-295.2102662
 31
0.0
  0
LINE
  8
0
  6
CENTER
 62
       7
  5
562
 10
-213.40250196
 20
-295.2102662
 30
0.0
 11
-233.88092184
 21
-295.2102662
 31
0.0
  0
LINE
  8
0
  6
CENTER
 62
       7
  5
563
 10
-250.90814822
 20
-328.75146785
 30
0.0
 11
-250.90814822
 21
-343.43498486
 31
0.0
  0
LINE
  8
0
  6
CENTER
 62
       7
  5
564
 10
79.09185178
 20
-328.75146785
 30
0.0
 11
79.09185178
 21
-343.43498486
 31
0.0
  0
LINE
  8
0
  6
CENTER
 62
       7
  5
565
 10
-59.90814822
 20
-341.18004357
 30
0.0
 11
-59.90814822
 21
-329.05375604
 31
0.0
  0
LINE
  8
0
  6
CENTER
 62
       7
  5
566
 10
-111.90814822
 20
-341.18004357
 30
0.0
 11
-111.90814822
 21
-329.05375604
 31
0.0
  0
LINE
  8
0
  6
CENTERX2
 62
       7
  5
567
 10
-158.80314572
 20
141.81022555
 30
0.0
 11
-158.80314572
 21
158.32200452
 31
0.0
  0
LINE
  8
0
  6
CENTERX2
 62
       7
  5
568
 10
120.18684928
 20
141.81022555
 30
0.0
 11
120.18684928
 21
158.32200452
 31
0.0
  0
LINE
  8
0
  6
CENTERX2
 62
       7
  5
569
 10
51.09185178
 20
-243.07181535
 30
0.0
 11
51.09185178
 21
-204.0146201
 31
0.0
  0
LINE
  8
0
  6
CENTERX2
 62
       7
  5
56A
 10
-231.83441441
 20
-214.0146201
 30
0.0
 11
-199.278583
 21
-214.0146201
 31
0.0
  0
LINE
  8
0
  6
CENTERX2
 62
       7
  5
56B
 10
-222.90814822
 20
-235.64277879
 30
0.0
 11
-222.90814822
 21
-204.0146201
 31
0.0
  0
LINE
  8
0
  6
PHANTOM2
 62
       7
  5
56C
 10
119.68705628
 20
8.77032923
 30
0.0
 11
-158.30335272
 21
8.77032923
 31
0.0
  0
LINE
  8
0
  6
PHANTOM2
 62
       7
  5
56D
 10
98.68778078
 20
38.77032923
 30
0.0
 11
-137.30407722
 21
38.77032923
 31
0.0
  0
LINE
  8
0
  6
PHANTOM2
 62
       7
  5
56E
 10
98.68778078
 20
153.77032923
 30
0.0
 11
98.68778078
 21
8.77032923
 31
0.0
  0
LINE
  8
0
  6
PHANTOM2
 62
       7
  5
56F
 10
-137.30407722
 20
153.77032923
 30
0.0
 11
-137.30407722
 21
8.77032923
 31
0.0
  0
LINE
  8
0
  6
PHANTOM2
 62
       7
  5
570
 10
-148.30369772
 20
153.77032923
 30
0.0
 11
-148.30369772
 21
8.77032923
 31
0.0
  0
LINE
  8
0
  6
PHANTOM2
 62
       7
  5
571
 10
109.68740128
 20
153.77032923
 30
0.0
 11
109.68740128
 21
8.77032923
 31
0.0
  0
LINE
  8
0
  6
PHANTOM2
 62
       7
  5
572
 10
119.68705628
 20
143.97219749
 30
0.0
 11
119.68705628
 21
8.77032923
 31
0.0
  0
LINE
  8
0
  6
PHANTOM2
 62
       7
  5
573
 10
-158.30335272
 20
143.97219749
 30
0.0
 11
-158.30335272
 21
8.77032923
 31
0.0
  0
ARC
  8
0
  6
PHANTOM2
 62
       7
  5
574
 10
51.07847078
 20
-214.10969758
 30
0.0
 40
5.0
 50
0.0
 51
180.00000307
  0
TEXT
  8
0
 62
       7
  5
575
 10
-430.19813054
 20
-683.68307361
 30
0.0
 40
17.0
  1
株式会社
 41
0.8
 72
       5
 11
-375.79813054
 21
-683.68307361
 31
0.0
  0
TEXT
  8
0
 62
       7
  5
576
 10
-211.25716569
 20
-655.47236898
 30
0.0
 40
15.0
  1
品
 41
0.8
 72
       5
 11
-199.25716569
 21
-655.47236898
 31
0.0
  0
TEXT
  8
0
 62
       7
  5
577
 10
-211.25716569
 20
-685.47236898
 30
0.0
 40
15.0
  1
名
 41
0.8
 72
       5
 11
-199.25716569
 21
-685.47236898
 31
0.0
  0
TEXT
  8
0
 62
       7
  5
578
 10
126.25402619
 20
-655.56035132
 30
0.0
 40
15.0
  1
品
 41
0.8
 72
       5
 11
138.25402619
 21
-655.56035132
 31
0.0
  0
TEXT
  8
0
 62
       7
  5
579
 10
126.25402619
 20
-685.56035132
 30
0.0
 40
15.0
  1
番
 41
0.8
 72
       5
 11
138.25402619
 21
-685.56035132
 31
0.0
  0
TEXT
  8
0
 62
       7
  5
57A
 10
-456.69592392
 20
-600.04574062
 30
0.0
 40
20.0
  1
1
 41
0.8
 72
       5
 11
-440.69592392
 21
-600.04574062
 31
0.0
  0
TEXT
  8
0
 62
       7
  5
57B
 10
-456.69592392
 20
-575.04574062
 30
0.0
 40
20.0
  1
2
 41
0.8
 72
       5
 11
-440.69592392
 21
-575.04574062
 31
0.0
  0
TEXT
  8
0
 62
       7
  5
57C
 10
-456.69592392
 20
-550.04574062
 30
0.0
 40
20.0
  1
3
 41
0.8
 72
       5
 11
-440.69592392
 21
-550.04574062
 31
0.0
  0
TEXT
  8
0
 62
       7
  5
57D
 10
-456.69592392
 20
-525.04574062
 30
0.0
 40
20.0
  1
4
 41
0.8
 72
       5
 11
-440.69592392
 21
-525.04574062
 31
0.0
  0
TEXT
  8
0
 62
       7
  5
57E
 10
-456.69592392
 20
-500.04574062
 30
0.0
 40
20.0
  1
5
 41
0.8
 72
       5
 11
-440.69592392
 21
-500.04574062
 31
0.0
  0
TEXT
  8
0
 62
       7
  5
57F
 10
-456.69592392
 20
-475.04574062
 30
0.0
 40
20.0
  1
6
 41
0.8
 72
       5
 11
-440.69592392
 21
-475.04574062
 31
0.0
  0
TEXT
  8
0
 62
       7
  5
580
 10
249.41831373
 20
-624.94707239
 30
0.0
 40
20.0
  1
摘要・仕上
 41
0.8
 72
       5
 11
329.41831373
 21
-624.94707239
 31
0.0
  0
TEXT
  8
0
 62
       7
  5
581
 10
71.2401142
 20
-624.94707239
 30
0.0
 40
20.0
  1
個　数
 41
0.8
 72
       5
 11
119.2401142
 21
-624.94707239
 31
0.0
  0
TEXT
  8
0
 62
       7
  5
582
 10
-96.73943231
 20
-624.94707239
 30
0.0
 40
20.0
  1
材　　質
 41
0.8
 72
       5
 11
-32.73943231
 21
-624.94707239
 31
0.0
  0
TEXT
  8
0
 62
       7
  5
583
 10
-354.3265311
 20
-624.94707239
 30
0.0
 40
20.0
  1
部　品　名
 41
0.8
 72
       5
 11
-274.3265311
 21
-624.94707239
 31
0.0
  0
TEXT
  8
0
 62
       7
  5
584
 10
-464.53709751
 20
-624.94707239
 30
0.0
 40
20.0
  1
部番
 41
0.8
 72
       5
 11
-432.53709751
 21
-624.94707239
 31
0.0
  0
TEXT
  8
0
 62
       7
  5
585
 10
489.07327116
 20
179.66235703
 30
0.0
 40
20.0
  1
ペ－パ－タオルボックス
 50
-90.00000154
 41
0.8
 72
       5
 11
489.07326644
 21
3.66235703
 31
0.0
  0
TEXT
  8
0
 62
       7
  5
586
 10
362.15101666
 20
-724.02533798
 30
0.0
 40
20.0
  1
０２０８２２
 41
0.8
 72
       5
 11
458.15101666
 21
-724.02533798
 31
0.0
  0
TEXT
  8
0
 62
       7
  5
587
 10
-303.3706341
 20
323.1234301
 30
0.0
 40
20.0
  1
6-φ5
 41
0.8
 72
       5
 11
-239.3706341
 21
323.1234301
 31
0.0
  0
TEXT
  8
0
 62
       7
  5
588
 10
-258.52443064
 20
63.97032923
 30
0.0
 40
20.0
  1
(10)
 50
90.00000154
 41
0.8
 72
       5
 11
-258.52443235
 21
127.97032923
 31
0.0
  0
TEXT
  8
0
 62
       7
  5
589
 10
-409.36945305
 20
-275.5146201
 30
0.0
 40
20.0
  1
165
 50
90.00000154
 41
0.8
 72
       5
 11
-409.36945434
 21
-227.5146201
 31
0.0
  0
INSERT
  8
0
  6
CONTINUOUS
  5
58A
  2
GROUP_1
 10
0.0
 20
0.0
 30
0.0
  0
INSERT
  8
0
  6
CONTINUOUS
  5
58B
  2
GROUP_2
 10
0.0
 20
0.0
 30
0.0
  0
INSERT
  8
0
  6
CONTINUOUS
  5
58C
  2
GROUP_3
 10
0.0
 20
0.0
 30
0.0
  0
INSERT
  8
0
  6
CONTINUOUS
  5
58D
  2
GROUP_4
 10
0.0
 20
0.0
 30
0.0
  0
INSERT
  8
0
  6
CONTINUOUS
  5
58E
  2
GROUP_5
 10
0.0
 20
0.0
 30
0.0
  0
INSERT
  8
0
  6
CONTINUOUS
  5
58F
  2
GROUP_6
 10
0.0
 20
0.0
 30
0.0
  0
INSERT
  8
0
  6
CONTINUOUS
  5
590
  2
GROUP_7
 10
0.0
 20
0.0
 30
0.0
  0
INSERT
  8
0
  6
CONTINUOUS
  5
591
  2
GROUP_8
 10
0.0
 20
0.0
 30
0.0
  0
INSERT
  8
0
  6
CONTINUOUS
  5
592
  2
GROUP_9
 10
0.0
 20
0.0
 30
0.0
  0
INSERT
  8
0
  6
CONTINUOUS
  5
593
  2
GROUP_10
 10
0.0
 20
0.0
 30
0.0
  0
INSERT
  8
0
  6
CONTINUOUS
  5
594
  2
GROUP_11
 10
0.0
 20
0.0
 30
0.0
  0
INSERT
  8
0
  6
CONTINUOUS
  5
595
  2
GROUP_12
 10
0.0
 20
0.0
 30
0.0
  0
INSERT
  8
0
  6
CONTINUOUS
  5
596
  2
GROUP_13
 10
0.0
 20
0.0
 30
0.0
  0
INSERT
  8
0
  6
CONTINUOUS
  5
597
  2
GROUP_14
 10
0.0
 20
0.0
 30
0.0
  0
INSERT
  8
0
  6
CONTINUOUS
  5
598
  2
GROUP_15
 10
0.0
 20
0.0
 30
0.0
  0
INSERT
  8
0
  6
CONTINUOUS
  5
599
  2
GROUP_16
 10
0.0
 20
0.0
 30
0.0
  0
INSERT
  8
0
  6
CONTINUOUS
  5
59A
  2
GROUP_17
 10
0.0
 20
0.0
 30
0.0
  0
INSERT
  8
0
  6
CONTINUOUS
  5
59B
  2
GROUP_18
 10
0.0
 20
0.0
 30
0.0
  0
LINE
  8
2
  6
CONTINUOUS
 62
       7
  5
59C
 10
-158.30335272
 20
376.76263573
 30
0.0
 11
-148.30369772
 21
376.76263573
 31
0.0
  0
LINE
  8
2
  6
CONTINUOUS
 62
       7
  5
59D
 10
-158.30335272
 20
375.76267023
 30
0.0
 11
-158.30335272
 21
376.76263573
 31
0.0
  0
LINE
  8
2
  6
CONTINUOUS
 62
       7
  5
59E
 10
-148.30369772
 20
375.76267023
 30
0.0
 11
-158.30335272
 21
375.76267023
 31
0.0
  0
LINE
  8
2
  6
CONTINUOUS
 62
       7
  5
59F
 10
-148.30369772
 20
253.76687923
 30
0.0
 11
-148.30369772
 21
375.76267023
 31
0.0
  0
LINE
  8
2
  6
CONTINUOUS
 62
       7
  5
5A0
 10
-137.30407722
 20
375.76267023
 30
0.0
 11
-148.30369772
 21
375.76267023
 31
0.0
  0
LINE
  8
2
  6
CONTINUOUS
 62
       7
  5
5A1
 10
-137.30407722
 20
253.76687923
 30
0.0
 11
-137.30407722
 21
375.76267023
 31
0.0
  0
LINE
  8
2
  6
CONTINUOUS
 62
       7
  5
5A2
 10
-158.30335272
 20
374.76270473
 30
0.0
 11
-148.30369772
 21
374.76270473
 31
0.0
  0
LINE
  8
2
  6
CONTINUOUS
 62
       7
  5
5A3
 10
-158.30335272
 20
253.76687923
 30
0.0
 11
-158.30335272
 21
374.76270473
 31
0.0
  0
ARC
  8
2
  6
CONTINUOUS
 62
       7
  5
5A4
 10
-148.30369772
 20
375.76267023
 30
0.0
 40
0.9999655
 50
0.0
 51
90.00000154
  0
LINE
  8
2
  6
CONTINUOUS
 62
       7
  5
5A5
 10
450.34882558
 20
364.26306698
 30
0.0
 11
450.34882558
 21
375.26268748
 31
0.0
  0
LINE
  8
2
  6
CONTINUOUS
 62
       7
  5
5A6
 10
445.34899808
 20
375.26268748
 30
0.0
 11
445.34899808
 21
364.26306698
 31
0.0
  0
ARC
  8
2
  6
CONTINUOUS
 62
       7
  5
5A7
 10
447.84891183
 20
375.26268748
 30
0.0
 40
2.49991375
 50
0.0
 51
90.00000154
  0
ARC
  8
2
  6
CONTINUOUS
 62
       7
  5
5A8
 10
447.84891183
 20
375.26268748
 30
0.0
 40
2.49991375
 50
90.00000154
 51
179.99999693
  0
ARC
  8
2
  6
CONTINUOUS
 62
       7
  5
5A9
 10
447.84891183
 20
364.26306698
 30
0.0
 40
2.49991375
 50
179.99999693
 51
269.99999846
  0
ARC
  8
2
  6
CONTINUOUS
 62
       7
  5
5AA
 10
447.84891183
 20
364.26306698
 30
0.0
 40
2.49991375
 50
269.99999846
 51
360.0
  0
LINE
  8
2
  6
CONTINUOUS
 62
       7
  5
5AB
 10
-20.02812338
 20
395.76198023
 30
0.0
 11
-18.58817306
 21
395.76198023
 31
0.0
  0
LINE
  8
2
  6
CONTINUOUS
 62
       7
  5
5AC
 10
-18.58817306
 20
395.76198023
 30
0.0
 11
-18.54994989
 21
395.25749555
 31
0.0
  0
LINE
  8
2
  6
CONTINUOUS
 62
       7
  5
5AD
 10
-17.8127019
 20
394.52024756
 30
0.0
 11
-17.30821722
 21
394.48202439
 31
0.0
  0
LINE
  8
2
  6
CONTINUOUS
 62
       7
  5
5AE
 10
-17.30821722
 20
394.48202439
 30
0.0
 11
-17.30821722
 21
393.04207407
 31
0.0
  0
LINE
  8
2
  6
CONTINUOUS
 62
       7
  5
5AF
 10
-17.30821722
 20
393.04207407
 30
0.0
 11
-17.8127019
 21
393.00385091
 31
0.0
  0
LINE
  8
2
  6
CONTINUOUS
 62
       7
  5
5B0
 10
-18.54994989
 20
392.26660291
 30
0.0
 11
-18.58817306
 21
391.76211823
 31
0.0
  0
LINE
  8
2
  6
CONTINUOUS
 62
       7
  5
5B1
 10
-18.58817306
 20
391.76211823
 30
0.0
 11
-20.02812338
 21
391.76211823
 31
0.0
  0
LINE
  8
2
  6
CONTINUOUS
 62
       7
  5
5B2
 10
-20.02812338
 20
391.76211823
 30
0.0
 11
-20.06634655
 21
392.26660291
 31
0.0
  0
LINE
  8
2
  6
CONTINUOUS
 62
       7
  5
5B3
 10
-20.80359454
 20
393.00385091
 30
0.0
 11
-21.30807922
 21
393.04207407
 31
0.0
  0
LINE
  8
2
  6
CONTINUOUS
 62
       7
  5
5B4
 10
-21.30807922
 20
393.04207407
 30
0.0
 11
-21.30807922
 21
394.48202439
 31
0.0
  0
LINE
  8
2
  6
CONTINUOUS
 62
       7
  5
5B5
 10
-21.30807922
 20
394.48202439
 30
0.0
 11
-20.80359454
 21
394.52024756
 31
0.0
  0
LINE
  8
2
  6
CONTINUOUS
 62
       7
  5
5B6
 10
-20.06634655
 20
395.25749555
 30
0.0
 11
-20.02812338
 21
395.76198023
 31
0.0
  0
ARC
  8
2
  6
CONTINUOUS
 62
       7
  5
5B7
 10
-20.86403262
 20
392.20616483
 30
0.0
 40
0.7999724
 50
4.33283686
 51
85.66716467
  0
ARC
  8
2
  6
CONTINUOUS
 62
       7
  5
5B8
 10
-17.75226382
 20
392.20616483
 30
0.0
 40
0.7999724
 50
94.3328384
 51
175.66716621
  0
ARC
  8
2
  6
CONTINUOUS
 62
       7
  5
5B9
 10
-17.75226382
 20
395.31793364
 30
0.0
 40
0.7999724
 50
184.33283379
 51
265.6671616
  0
ARC
  8
2
  6
CONTINUOUS
 62
       7
  5
5BA
 10
-20.86403262
 20
395.31793364
 30
0.0
 40
0.7999724
 50
274.33283533
 51
355.66716314
  0
CIRCLE
  8
2
  6
CONTINUOUS
 62
       7
  5
5BB
 10
-19.30814822
 20
393.76204923
 30
0.0
 40
4.69983785
  0
LINE
  8
2
  6
CONTINUOUS
 62
       7
  5
5BC
 10
-14.78052665
 20
386.11478681
 30
0.0
 11
-23.83576979
 21
385.6109396
 31
0.0
  0
LINE
  8
2
  6
CONTINUOUS
 62
       7
  5
5BD
 10
-23.83576979
 20
386.61245184
 30
0.0
 11
-14.83608029
 21
387.11320796
 31
0.0
  0
LINE
  8
2
  6
CONTINUOUS
 62
       7
  5
5BE
 10
-19.843258
 20
387.79821189
 30
0.0
 11
-14.74141475
 21
387.10948567
 31
0.0
  0
LINE
  8
2
  6
CONTINUOUS
 62
       7
  5
5BF
 10
-15.84416612
 20
389.76218723
 30
0.0
 11
-14.97817059
 21
389.26220448
 31
0.0
  0
LINE
  8
2
  6
CONTINUOUS
 62
       7
  5
5C0
 10
-23.83576979
 20
383.46256051
 30
0.0
 11
-14.83608029
 21
383.96331663
 31
0.0
  0
LINE
  8
2
  6
CONTINUOUS
 62
       7
  5
5C1
 10
-14.78052665
 20
382.96489548
 30
0.0
 11
-23.83576979
 21
382.46104827
 31
0.0
  0
LINE
  8
2
  6
CONTINUOUS
 62
       7
  5
5C2
 10
-23.83576979
 20
380.31266919
 30
0.0
 11
-14.83608029
 21
380.81342531
 31
0.0
  0
LINE
  8
2
  6
CONTINUOUS
 62
       7
  5
5C3
 10
-14.78052665
 20
379.81500416
 30
0.0
 11
-23.83576979
 21
379.31115695
 31
0.0
  0
ARC
  8
2
  6
CONTINUOUS
 62
       7
  5
5C4
 10
-23.80799297
 20
386.11324126
 30
0.0
 40
0.49998275
 50
93.18474013
 51
273.18473706
  0
ARC
  8
2
  6
CONTINUOUS
 62
       7
  5
5C5
 10
-14.80830347
 20
386.61399738
 30
0.0
 40
0.49998275
 50
273.18473706
 51
453.18474013
  0
ARC
  8
2
  6
CONTINUOUS
 62
       7
  5
5C6
 10
-19.30814822
 20
391.76211823
 30
0.0
 40
3.999862
 50
187.50570721
 51
262.31180014
  0
ARC
  8
2
  6
CONTINUOUS
 62
       7
  5
5C7
 10
-19.30814822
 20
391.76211823
 30
0.0
 40
4.9998275
 50
159.78768212
 51
261.10355183
  0
ARC
  8
2
  6
CONTINUOUS
 62
       7
  5
5C8
 10
-19.30814822
 20
391.76211823
 30
0.0
 40
3.999862
 50
329.99999949
 51
352.49428971
  0
ARC
  8
2
  6
CONTINUOUS
 62
       7
  5
5C9
 10
-19.30814822
 20
391.76211823
 30
0.0
 40
4.9998275
 50
329.99999949
 51
380.21232095
  0
ARC
  8
2
  6
CONTINUOUS
 62
       7
  5
5CA
 10
-14.80830347
 20
383.46410606
 30
0.0
 40
0.49998275
 50
273.18473706
 51
453.18474013
  0
ARC
  8
2
  6
CONTINUOUS
 62
       7
  5
5CB
 10
-23.80799297
 20
382.96334994
 30
0.0
 40
0.49998275
 50
93.18474013
 51
273.18473706
  0
ARC
  8
2
  6
CONTINUOUS
 62
       7
  5
5CC
 10
-14.80830347
 20
380.31421473
 30
0.0
 40
0.49998275
 50
273.18473706
 51
453.18474013
  0
ARC
  8
2
  6
CONTINUOUS
 62
       7
  5
5CD
 10
-23.80799297
 20
379.81345861
 30
0.0
 40
0.49998275
 50
93.18474013
 51
273.18473706
  0
LINE
  8
2
  6
CONTINUOUS
 62
       7
  5
5CE
 10
-164.30314572
 20
253.76687923
 30
0.0
 11
-164.30314572
 21
153.77032923
 31
0.0
  0
LINE
  8
2
  6
CONTINUOUS
 62
       7
  5
5CF
 10
125.68684928
 20
153.77032923
 30
0.0
 11
125.68684928
 21
253.76687923
 31
0.0
  0
LINE
  8
2
  6
CONTINUOUS
 62
       7
  5
5D0
 10
-164.30314572
 20
153.77032923
 30
0.0
 11
125.68684928
 21
153.77032923
 31
0.0
  0
LINE
  8
2
  6
CONTINUOUS
 62
       7
  5
5D1
 10
301.65395573
 20
253.76687923
 30
0.0
 11
301.65395573
 21
153.77032923
 31
0.0
  0
LINE
  8
2
  6
CONTINUOUS
 62
       7
  5
5D2
 10
466.65395573
 20
253.76687923
 30
0.0
 11
301.65395573
 21
253.76687923
 31
0.0
  0
LINE
  8
2
  6
CONTINUOUS
 62
       7
  5
5D3
 10
459.64850473
 20
163.76998423
 30
0.0
 11
459.64850473
 21
173.76963923
 31
0.0
  0
LINE
  8
2
  6
CONTINUOUS
 62
       7
  5
5D4
 10
439.65395573
 20
173.76963923
 30
0.0
 11
466.65395573
 21
173.76963923
 31
0.0
  0
ARC
  8
2
  6
CONTINUOUS
 62
       7
  5
5D5
 10
449.64884973
 20
163.76998423
 30
0.0
 40
9.999655
 50
269.99999846
 51
360.0
  0
LINE
  8
2
  6
CONTINUOUS
 62
       7
  5
5D6
 10
461.84842883
 20
253.76687923
 30
0.0
 11
419.64988473
 21
253.76687923
 31
0.0
  0
LINE
  8
2
  6
CONTINUOUS
 62
       7
  5
5D7
 10
441.64912573
 20
253.76687923
 30
0.0
 11
441.64912573
 21
321.76453323
 31
0.0
  0
LINE
  8
2
  6
CONTINUOUS
 62
       7
  5
5D8
 10
441.64912573
 20
398.76187673
 30
0.0
 11
466.64853923
 21
398.76187673
 31
0.0
  0
LINE
  8
2
  6
CONTINUOUS
 62
       7
  5
5D9
 10
458.64853923
 20
398.76187673
 30
0.0
 11
458.64853923
 21
253.76687923
 31
0.0
  0
LINE
  8
2
  6
CONTINUOUS
 62
       7
  5
5DA
 10
441.64912573
 20
327.76432623
 30
0.0
 11
441.64912573
 21
366.76298073
 31
0.0
  0
LINE
  8
2
  6
CONTINUOUS
 62
       7
  5
5DB
 10
441.64912573
 20
372.76277373
 30
0.0
 11
441.64912573
 21
398.76187673
 31
0.0
  0
LINE
  8
2
  6
CONTINUOUS
 62
       7
  5
5DC
 10
450.54881868
 20
373.26275648
 30
0.0
 11
450.54881868
 21
366.26299798
 31
0.0
  0
LINE
  8
2
  6
CONTINUOUS
 62
       7
  5
5DD
 10
451.14879798
 20
373.26275648
 30
0.0
 11
450.54881868
 21
373.26275648
 31
0.0
  0
LINE
  8
2
  6
CONTINUOUS
 62
       7
  5
5DE
 10
451.14879798
 20
366.26299798
 30
0.0
 11
451.14879798
 21
373.26275648
 31
0.0
  0
LINE
  8
2
  6
CONTINUOUS
 62
       7
  5
5DF
 10
450.54881868
 20
366.26299798
 30
0.0
 11
451.14879798
 21
366.26299798
 31
0.0
  0
LINE
  8
2
  6
CONTINUOUS
 62
       7
  5
5E0
 10
445.34899808
 20
372.76277373
 30
0.0
 11
439.34920508
 21
372.76277373
 31
0.0
  0
LINE
  8
2
  6
CONTINUOUS
 62
       7
  5
5E1
 10
439.34920508
 20
366.76298073
 30
0.0
 11
445.34899808
 21
366.76298073
 31
0.0
  0
LINE
  8
2
  6
CONTINUOUS
 62
       7
  5
5E2
 10
451.24879453
 20
371.76280823
 30
0.0
 11
451.24879453
 21
367.76294623
 31
0.0
  0
LINE
  8
2
  6
CONTINUOUS
 62
       7
  5
5E3
 10
451.24879453
 20
371.76280823
 30
0.0
 11
452.24876003
 21
371.76280823
 31
0.0
  0
LINE
  8
2
  6
CONTINUOUS
 62
       7
  5
5E4
 10
452.24876003
 20
371.76280823
 30
0.0
 11
452.24876003
 21
367.76294623
 31
0.0
  0
LINE
  8
2
  6
CONTINUOUS
 62
       7
  5
5E5
 10
452.24876003
 20
367.76294623
 30
0.0
 11
451.24879453
 21
367.76294623
 31
0.0
  0
LINE
  8
2
  6
CONTINUOUS
 62
       7
  5
5E6
 10
439.34920508
 20
377.76260123
 30
0.0
 11
437.84925683
 21
377.76260123
 31
0.0
  0
LINE
  8
2
  6
CONTINUOUS
 62
       7
  5
5E7
 10
437.84925683
 20
377.76260123
 30
0.0
 11
437.84925683
 21
312.76484373
 31
0.0
  0
LINE
  8
2
  6
CONTINUOUS
 62
       7
  5
5E8
 10
437.84925683
 20
312.76484373
 30
0.0
 11
439.34920508
 21
312.76484373
 31
0.0
  0
LINE
  8
2
  6
CONTINUOUS
 62
       7
  5
5E9
 10
439.34920508
 20
312.76484373
 30
0.0
 11
439.34920508
 21
377.76260123
 31
0.0
  0
LINE
  8
2
  6
CONTINUOUS
 62
       7
  5
5EA
 10
452.24876003
 20
322.76449873
 30
0.0
 11
451.24879453
 21
322.76449873
 31
0.0
  0
LINE
  8
2
  6
CONTINUOUS
 62
       7
  5
5EB
 10
452.24876003
 20
326.76436073
 30
0.0
 11
452.24876003
 21
322.76449873
 31
0.0
  0
LINE
  8
2
  6
CONTINUOUS
 62
       7
  5
5EC
 10
451.24879453
 20
326.76436073
 30
0.0
 11
452.24876003
 21
326.76436073
 31
0.0
  0
LINE
  8
2
  6
CONTINUOUS
 62
       7
  5
5ED
 10
451.24879453
 20
326.76436073
 30
0.0
 11
451.24879453
 21
322.76449873
 31
0.0
  0
LINE
  8
2
  6
CONTINUOUS
 62
       7
  5
5EE
 10
439.34920508
 20
321.76453323
 30
0.0
 11
445.34899808
 21
321.76453323
 31
0.0
  0
LINE
  8
2
  6
CONTINUOUS
 62
       7
  5
5EF
 10
439.34920508
 20
327.76432623
 30
0.0
 11
439.34920508
 21
321.76453323
 31
0.0
  0
LINE
  8
2
  6
CONTINUOUS
 62
       7
  5
5F0
 10
445.34899808
 20
327.76432623
 30
0.0
 11
439.34920508
 21
327.76432623
 31
0.0
  0
LINE
  8
2
  6
CONTINUOUS
 62
       7
  5
5F1
 10
450.54881868
 20
321.26455048
 30
0.0
 11
451.14879798
 21
321.26455048
 31
0.0
  0
LINE
  8
2
  6
CONTINUOUS
 62
       7
  5
5F2
 10
451.14879798
 20
321.26455048
 30
0.0
 11
451.14879798
 21
328.26430898
 31
0.0
  0
LINE
  8
2
  6
CONTINUOUS
 62
       7
  5
5F3
 10
451.14879798
 20
328.26430898
 30
0.0
 11
450.54881868
 21
328.26430898
 31
0.0
  0
LINE
  8
2
  6
CONTINUOUS
 62
       7
  5
5F4
 10
450.54881868
 20
328.26430898
 30
0.0
 11
450.54881868
 21
321.26455048
 31
0.0
  0
LINE
  8
2
  6
CONTINUOUS
 62
       7
  5
5F5
 10
445.34899808
 20
330.26423998
 30
0.0
 11
445.34899808
 21
319.26461948
 31
0.0
  0
LINE
  8
2
  6
CONTINUOUS
 62
       7
  5
5F6
 10
450.34882558
 20
319.26461948
 30
0.0
 11
450.34882558
 21
330.26423998
 31
0.0
  0
ARC
  8
2
  6
CONTINUOUS
 62
       7
  5
5F7
 10
447.84891183
 20
319.26461948
 30
0.0
 40
2.49991375
 50
269.99999846
 51
360.0
  0
ARC
  8
2
  6
CONTINUOUS
 62
       7
  5
5F8
 10
447.84891183
 20
319.26461948
 30
0.0
 40
2.49991375
 50
179.99999693
 51
269.99999846
  0
ARC
  8
2
  6
CONTINUOUS
 62
       7
  5
5F9
 10
447.84891183
 20
330.26423998
 30
0.0
 40
2.49991375
 50
90.00000154
 51
179.99999693
  0
ARC
  8
2
  6
CONTINUOUS
 62
       7
  5
5FA
 10
447.84891183
 20
330.26423998
 30
0.0
 40
2.49991375
 50
0.0
 51
90.00000154
  0
LINE
  8
2
  6
CONTINUOUS
 62
       7
  5
5FB
 10
435.84932583
 20
374.76270473
 30
0.0
 11
436.84929133
 21
374.76270473
 31
0.0
  0
LINE
  8
2
  6
CONTINUOUS
 62
       7
  5
5FC
 10
434.84936033
 20
376.76263573
 30
0.0
 11
434.84936033
 21
375.76267023
 31
0.0
  0
LINE
  8
2
  6
CONTINUOUS
 62
       7
  5
5FD
 10
434.84936033
 20
375.76267023
 30
0.0
 11
435.84932583
 21
374.76270473
 31
0.0
  0
LINE
  8
2
  6
CONTINUOUS
 62
       7
  5
5FE
 10
320.85329333
 20
374.76270473
 30
0.0
 11
320.85329333
 21
376.76263573
 31
0.0
  0
LINE
  8
2
  6
CONTINUOUS
 62
       7
  5
5FF
 10
320.85329333
 20
375.76267023
 30
0.0
 11
434.84936033
 21
375.76267023
 31
0.0
  0
LINE
  8
2
  6
CONTINUOUS
 62
       7
  5
600
 10
435.84932583
 20
374.76270473
 30
0.0
 11
435.84932583
 21
253.76687923
 31
0.0
  0
LINE
  8
2
  6
CONTINUOUS
 62
       7
  5
601
 10
305.85381083
 20
374.76270473
 30
0.0
 11
320.85329333
 21
374.76270473
 31
0.0
  0
LINE
  8
2
  6
CONTINUOUS
 62
       7
  5
602
 10
305.85381083
 20
253.76687923
 30
0.0
 11
305.85381083
 21
374.76270473
 31
0.0
  0
LINE
  8
2
  6
CONTINUOUS
 62
       7
  5
603
 10
436.84929133
 20
377.76260123
 30
0.0
 11
305.85381083
 21
377.76260123
 31
0.0
  0
LINE
  8
2
  6
CONTINUOUS
 62
       7
  5
604
 10
305.85381083
 20
377.76260123
 30
0.0
 11
305.85381083
 21
376.76263573
 31
0.0
  0
LINE
  8
2
  6
CONTINUOUS
 62
       7
  5
605
 10
436.84929133
 20
376.76263573
 30
0.0
 11
305.85381083
 21
376.76263573
 31
0.0
  0
LINE
  8
2
  6
CONTINUOUS
 62
       7
  5
606
 10
436.84929133
 20
253.76687923
 30
0.0
 11
436.84929133
 21
376.76263573
 31
0.0
  0
LINE
  8
2
  6
CONTINUOUS
 62
       7
  5
607
 10
437.84925683
 20
253.76687923
 30
0.0
 11
437.84925683
 21
376.76263573
 31
0.0
  0
ARC
  8
2
  6
CONTINUOUS
 62
       7
  5
608
 10
436.84929133
 20
376.76263573
 30
0.0
 40
0.9999655
 50
0.0
 51
90.00000154
  0
LINE
  8
2
  6
CONTINUOUS
 62
       7
  5
609
 10
-2.30873472
 20
398.76187673
 30
0.0
 11
-2.30873472
 21
377.76260123
 31
0.0
  0
LINE
  8
2
  6
CONTINUOUS
 62
       7
  5
60A
 10
-3.30870022
 20
398.76187673
 30
0.0
 11
-3.30870022
 21
377.76260123
 31
0.0
  0
LINE
  8
2
  6
CONTINUOUS
 62
       7
  5
60B
 10
-36.30756172
 20
377.76260123
 30
0.0
 11
-36.30756172
 21
398.76187673
 31
0.0
  0
LINE
  8
2
  6
CONTINUOUS
 62
       7
  5
60C
 10
-35.30759622
 20
377.76260123
 30
0.0
 11
-35.30759622
 21
398.76187673
 31
0.0
  0
CIRCLE
  8
2
  6
CONTINUOUS
 62
       7
  5
60D
 10
-19.30814822
 20
393.76204923
 30
0.0
 40
2.09992755
  0
LINE
  8
2
  6
CONTINUOUS
 62
       7
  5
60E
 10
152.69185178
 20
253.76687923
 30
0.0
 11
-191.30814822
 21
253.76687923
 31
0.0
  0
LINE
  8
2
  6
CONTINUOUS
 62
       7
  5
60F
 10
119.68705628
 20
374.76270473
 30
0.0
 11
119.68705628
 21
253.76687923
 31
0.0
  0
LINE
  8
2
  6
CONTINUOUS
 62
       7
  5
610
 10
109.68740128
 20
374.76270473
 30
0.0
 11
119.68705628
 21
374.76270473
 31
0.0
  0
LINE
  8
2
  6
CONTINUOUS
 62
       7
  5
611
 10
98.68778078
 20
375.76267023
 30
0.0
 11
98.68778078
 21
253.76687923
 31
0.0
  0
LINE
  8
2
  6
CONTINUOUS
 62
       7
  5
612
 10
109.68740128
 20
375.76267023
 30
0.0
 11
98.68778078
 21
375.76267023
 31
0.0
  0
LINE
  8
2
  6
CONTINUOUS
 62
       7
  5
613
 10
109.68740128
 20
375.76267023
 30
0.0
 11
109.68740128
 21
253.76687923
 31
0.0
  0
LINE
  8
2
  6
CONTINUOUS
 62
       7
  5
614
 10
119.68705628
 20
375.76267023
 30
0.0
 11
109.68740128
 21
375.76267023
 31
0.0
  0
LINE
  8
2
  6
CONTINUOUS
 62
       7
  5
615
 10
119.68705628
 20
376.76263573
 30
0.0
 11
119.68705628
 21
375.76267023
 31
0.0
  0
LINE
  8
2
  6
CONTINUOUS
 62
       7
  5
616
 10
109.68740128
 20
376.76263573
 30
0.0
 11
119.68705628
 21
376.76263573
 31
0.0
  0
ARC
  8
2
  6
CONTINUOUS
 62
       7
  5
617
 10
109.68740128
 20
375.76267023
 30
0.0
 40
0.9999655
 50
90.00000154
 51
179.99999693
  0
LINE
  8
2
  6
CONTINUOUS
 62
       7
  5
618
 10
-158.30335272
 20
377.76260123
 30
0.0
 11
-158.30335272
 21
253.76687923
 31
0.0
  0
LINE
  8
2
  6
CONTINUOUS
 62
       7
  5
619
 10
-158.30335272
 20
377.76260123
 30
0.0
 11
-19.30814822
 21
377.76260123
 31
0.0
  0
LINE
  8
2
  6
CONTINUOUS
 62
       7
  5
61A
 10
-158.30335272
 20
376.76263573
 30
0.0
 11
-19.30814822
 21
376.76263573
 31
0.0
  0
LINE
  8
2
  6
CONTINUOUS
 62
       7
  5
61B
 10
-19.30814822
 20
377.76260123
 30
0.0
 11
119.68705628
 21
377.76260123
 31
0.0
  0
LINE
  8
2
  6
CONTINUOUS
 62
       7
  5
61C
 10
-19.30814822
 20
376.76263573
 30
0.0
 11
119.68705628
 21
376.76263573
 31
0.0
  0
LINE
  8
2
  6
CONTINUOUS
 62
       7
  5
61D
 10
119.68705628
 20
253.76687923
 30
0.0
 11
119.68705628
 21
377.76260123
 31
0.0
  0
LINE
  8
2
  6
CONTINUOUS
 62
       7
  5
61E
 10
451.24879453
 20
326.26437798
 30
0.0
 11
451.14879798
 21
326.26437798
 31
0.0
  0
LINE
  8
2
  6
CONTINUOUS
 62
       7
  5
61F
 10
450.54881868
 20
326.26437798
 30
0.0
 11
450.34882558
 21
326.26437798
 31
0.0
  0
LINE
  8
2
  6
CONTINUOUS
 62
       7
  5
620
 10
450.34882558
 20
323.26448148
 30
0.0
 11
450.54881868
 21
323.26448148
 31
0.0
  0
LINE
  8
2
  6
CONTINUOUS
 62
       7
  5
621
 10
451.14879798
 20
323.26448148
 30
0.0
 11
451.24879453
 21
323.26448148
 31
0.0
  0
LINE
  8
2
  6
CONTINUOUS
 62
       7
  5
622
 10
-101.30531922
 20
153.77032923
 30
0.0
 11
-101.30531922
 21
151.2914286
 31
0.0
  0
LINE
  8
2
  6
CONTINUOUS
 62
       7
  5
623
 10
-101.30531922
 20
151.2914286
 30
0.0
 11
62.68902278
 21
151.2914286
 31
0.0
  0
LINE
  8
2
  6
CONTINUOUS
 62
       7
  5
624
 10
62.68902278
 20
151.2914286
 30
0.0
 11
62.68902278
 21
153.77032923
 31
0.0
  0
LINE
  8
2
  6
CONTINUOUS
 62
       7
  5
625
 10
-36.30756172
 20
398.76187673
 30
0.0
 11
-34.30814822
 21
398.76187673
 31
0.0
  0
LINE
  8
2
  6
CONTINUOUS
 62
       7
  5
626
 10
-4.30814822
 20
398.76187673
 30
0.0
 11
-2.30873472
 21
398.76187673
 31
0.0
  0
LINE
  8
2
  6
CONTINUOUS
 62
       7
  5
627
 10
301.65395573
 20
153.77032923
 30
0.0
 11
336.65395573
 21
153.77032923
 31
0.0
  0
LINE
  8
2
  6
CONTINUOUS
 62
       7
  5
628
 10
356.65395573
 20
153.77032923
 30
0.0
 11
449.64884973
 21
153.77032923
 31
0.0
  0
LINE
  8
2
  6
CONTINUOUS
 62
       7
  5
629
 10
-89.40802747
 20
-320.8093485
 30
0.0
 11
-82.40826897
 21
-320.8093485
 31
0.0
  0
LINE
  8
2
  6
CONTINUOUS
 62
       7
  5
62A
 10
-82.40826897
 20
-320.8093485
 30
0.0
 11
-81.86683577
 21
-321.1219451
 31
0.0
  0
LINE
  8
2
  6
CONTINUOUS
 62
       7
  5
62B
 10
-89.94946067
 20
-321.1219451
 30
0.0
 11
-89.40802747
 21
-320.8093485
 31
0.0
  0
LINE
  8
2
  6
CONTINUOUS
 62
       7
  5
62C
 10
-82.40826897
 20
-324.0092381
 30
0.0
 11
-89.40802747
 21
-324.0092381
 31
0.0
  0
ARC
  8
2
  6
CONTINUOUS
 62
       7
  5
62D
 10
-85.90814822
 20
-327.49651039
 30
0.0
 40
6.68716189
 50
72.41204746
 51
107.58795561
  0
ARC
  8
2
  6
CONTINUOUS
 62
       7
  5
62E
 10
-88.93913256
 20
-322.5983627
 30
0.0
 40
1.7890142
 50
55.61575348
 51
90.00000154
  0
ARC
  8
2
  6
CONTINUOUS
 62
       7
  5
62F
 10
-82.87716388
 20
-322.5983627
 30
0.0
 40
1.7890142
 50
90.00000154
 51
124.38424959
  0
LINE
  8
2
  6
CONTINUOUS
 62
       7
  5
630
 10
-90.40799297
 20
-314.70959345
 30
0.0
 11
-81.40830347
 21
-314.70959345
 31
0.0
  0
LINE
  8
2
  6
CONTINUOUS
 62
       7
  5
631
 10
-81.40830347
 20
-315.70955895
 30
0.0
 11
-90.40799297
 21
-315.70955895
 31
0.0
  0
ARC
  8
2
  6
CONTINUOUS
 62
       7
  5
632
 10
-85.90814822
 20
-315.2095762
 30
0.0
 40
4.9998275
 50
223.54967891
 51
316.45031802
  0
ARC
  8
2
  6
CONTINUOUS
 62
       7
  5
633
 10
-81.40830347
 20
-315.2095762
 30
0.0
 40
0.49998275
 50
269.99999846
 51
450.00000154
  0
ARC
  8
2
  6
CONTINUOUS
 62
       7
  5
634
 10
-90.40799297
 20
-315.2095762
 30
0.0
 40
0.49998275
 50
90.00000154
 51
269.99999846
  0
ARC
  8
2
  6
CONTINUOUS
 62
       7
  5
635
 10
-85.90814822
 20
-315.2095762
 30
0.0
 40
3.999862
 50
120.00000205
 51
172.81924717
  0
ARC
  8
2
  6
CONTINUOUS
 62
       7
  5
636
 10
-85.90814822
 20
-315.2095762
 30
0.0
 40
3.999862
 50
329.99999949
 51
352.8192441
  0
ARC
  8
2
  6
CONTINUOUS
 62
       7
  5
637
 10
-85.90814822
 20
-315.2095762
 30
0.0
 40
4.9998275
 50
335.91097296
 51
360.0
  0
ARC
  8
2
  6
CONTINUOUS
 62
       7
  5
638
 10
-85.90814822
 20
-315.2095762
 30
0.0
 40
3.999862
 50
7.1807559
 51
60.00000102
  0
ARC
  8
2
  6
CONTINUOUS
 62
       7
  5
639
 10
-85.90814822
 20
-315.2095762
 30
0.0
 40
4.9998275
 50
0.0
 51
66.42182265
  0
ARC
  8
2
  6
CONTINUOUS
 62
       7
  5
63A
 10
-85.90814822
 20
-315.2095762
 30
0.0
 40
4.9998275
 50
113.57818042
 51
204.08902397
  0
ARC
  8
2
  6
CONTINUOUS
 62
       7
  5
63B
 10
-85.90814822
 20
-315.2095762
 30
0.0
 40
3.999862
 50
187.18075283
 51
209.99999744
  0
LINE
  8
2
  6
CONTINUOUS
 62
       7
  5
63C
 10
-81.86683577
 20
-329.89646209
 30
0.0
 11
-82.40826897
 21
-330.2090587
 31
0.0
  0
LINE
  8
2
  6
CONTINUOUS
 62
       7
  5
63D
 10
-89.40802747
 20
-330.2090587
 30
0.0
 11
-89.94946067
 21
-329.89646209
 31
0.0
  0
LINE
  8
2
  6
CONTINUOUS
 62
       7
  5
63E
 10
-82.40826897
 20
-330.2090587
 30
0.0
 11
-89.40802747
 21
-330.2090587
 31
0.0
  0
LINE
  8
2
  6
CONTINUOUS
 62
       7
  5
63F
 10
-89.94946067
 20
-329.89646209
 30
0.0
 11
-89.94946067
 21
-327.3217657
 31
0.0
  0
LINE
  8
2
  6
CONTINUOUS
 62
       7
  5
640
 10
-89.94946067
 20
-327.3217657
 30
0.0
 11
-89.40802747
 21
-327.0091691
 31
0.0
  0
LINE
  8
2
  6
CONTINUOUS
 62
       7
  5
641
 10
-87.92880445
 20
-329.89646209
 30
0.0
 11
-87.92880445
 21
-327.3217657
 31
0.0
  0
LINE
  8
2
  6
CONTINUOUS
 62
       7
  5
642
 10
-81.86683577
 20
-329.89646209
 30
0.0
 11
-81.86683577
 21
-327.3217657
 31
0.0
  0
LINE
  8
2
  6
CONTINUOUS
 62
       7
  5
643
 10
-82.40826897
 20
-327.0091691
 30
0.0
 11
-81.86683577
 21
-327.3217657
 31
0.0
  0
LINE
  8
2
  6
CONTINUOUS
 62
       7
  5
644
 10
-83.88749199
 20
-329.89646209
 30
0.0
 11
-83.88749199
 21
-327.3217657
 31
0.0
  0
LINE
  8
2
  6
CONTINUOUS
 62
       7
  5
645
 10
-89.40802747
 20
-327.0091691
 30
0.0
 11
-82.40826897
 21
-327.0091691
 31
0.0
  0
ARC
  8
2
  6
CONTINUOUS
 62
       7
  5
646
 10
-82.87716388
 20
-328.7981833
 30
0.0
 40
1.7890142
 50
90.00000154
 51
124.38424959
  0
ARC
  8
2
  6
CONTINUOUS
 62
       7
  5
647
 10
-88.93913256
 20
-328.4200445
 30
0.0
 40
1.7890142
 50
269.99999846
 51
304.38424652
  0
ARC
  8
2
  6
CONTINUOUS
 62
       7
  5
648
 10
-82.87716388
 20
-328.4200445
 30
0.0
 40
1.7890142
 50
235.61575041
 51
269.99999846
  0
ARC
  8
2
  6
CONTINUOUS
 62
       7
  5
649
 10
-85.90814822
 20
-323.5218968
 30
0.0
 40
6.68716189
 50
252.41204439
 51
287.58795254
  0
ARC
  8
2
  6
CONTINUOUS
 62
       7
  5
64A
 10
-88.93913256
 20
-328.7981833
 30
0.0
 40
1.7890142
 50
55.61575348
 51
90.00000154
  0
ARC
  8
2
  6
CONTINUOUS
 62
       7
  5
64B
 10
-85.90814822
 20
-333.69633099
 30
0.0
 40
6.68716189
 50
72.41204746
 51
107.58795561
  0
LINE
  8
2
  6
CONTINUOUS
 62
       7
  5
64C
 10
-87.90807922
 20
-320.8093485
 30
0.0
 11
-87.90807922
 21
-319.79199379
 31
0.0
  0
LINE
  8
2
  6
CONTINUOUS
 62
       7
  5
64D
 10
-83.90821722
 20
-319.79199379
 30
0.0
 11
-83.90821722
 21
-320.8093485
 31
0.0
  0
LINE
  8
2
  6
CONTINUOUS
 62
       7
  5
64E
 10
-87.90807922
 20
-314.70959345
 30
0.0
 11
-87.90807922
 21
-308.4098108
 31
0.0
  0
LINE
  8
2
  6
CONTINUOUS
 62
       7
  5
64F
 10
-81.35438042
 20
-317.2095072
 30
0.0
 11
-90.46191602
 21
-317.2095072
 31
0.0
  0
LINE
  8
2
  6
CONTINUOUS
 62
       7
  5
650
 10
-90.46191602
 20
-317.2095072
 30
0.0
 11
-90.60798607
 21
-317.76948788
 31
0.0
  0
LINE
  8
2
  6
CONTINUOUS
 62
       7
  5
651
 10
-81.20831037
 20
-317.76948788
 30
0.0
 11
-90.60798607
 21
-317.76948788
 31
0.0
  0
LINE
  8
2
  6
CONTINUOUS
 62
       7
  5
652
 10
-81.20831037
 20
-317.76948788
 30
0.0
 11
-81.35438042
 21
-317.2095072
 31
0.0
  0
LINE
  8
2
  6
CONTINUOUS
 62
       7
  5
653
 10
-83.90821722
 20
-308.4098108
 30
0.0
 11
-83.90821722
 21
-314.70959345
 31
0.0
  0
ARC
  8
2
  6
CONTINUOUS
 62
       7
  5
654
 10
-85.9948119
 20
-313.25631025
 30
0.0
 40
6.4536926
 50
224.37223852
 51
270.76942034
  0
ARC
  8
2
  6
CONTINUOUS
 62
       7
  5
655
 10
-85.82148454
 20
-313.25631025
 30
0.0
 40
6.4536926
 50
269.23057659
 51
315.62775841
  0
LINE
  8
2
  6
CONTINUOUS
 62
       7
  5
656
 10
-82.40826897
 20
-305.2099212
 30
0.0
 11
-81.86683577
 21
-305.5225178
 31
0.0
  0
LINE
  8
2
  6
CONTINUOUS
 62
       7
  5
657
 10
-89.94946067
 20
-305.5225178
 30
0.0
 11
-89.40802747
 21
-305.2099212
 31
0.0
  0
LINE
  8
2
  6
CONTINUOUS
 62
       7
  5
658
 10
-89.40802747
 20
-305.2099212
 30
0.0
 11
-82.40826897
 21
-305.2099212
 31
0.0
  0
LINE
  8
2
  6
CONTINUOUS
 62
       7
  5
659
 10
-89.94946067
 20
-308.09721419
 30
0.0
 11
-89.94946067
 21
-305.5225178
 31
0.0
  0
LINE
  8
2
  6
CONTINUOUS
 62
       7
  5
65A
 10
-89.40802747
 20
-308.4098108
 30
0.0
 11
-89.94946067
 21
-308.09721419
 31
0.0
  0
LINE
  8
2
  6
CONTINUOUS
 62
       7
  5
65B
 10
-87.92880445
 20
-308.09721419
 30
0.0
 11
-87.92880445
 21
-305.5225178
 31
0.0
  0
LINE
  8
2
  6
CONTINUOUS
 62
       7
  5
65C
 10
-81.86683577
 20
-308.09721419
 30
0.0
 11
-81.86683577
 21
-305.5225178
 31
0.0
  0
LINE
  8
2
  6
CONTINUOUS
 62
       7
  5
65D
 10
-81.86683577
 20
-308.09721419
 30
0.0
 11
-82.40826897
 21
-308.4098108
 31
0.0
  0
LINE
  8
2
  6
CONTINUOUS
 62
       7
  5
65E
 10
-83.88749199
 20
-308.09721419
 30
0.0
 11
-83.88749199
 21
-305.5225178
 31
0.0
  0
LINE
  8
2
  6
CONTINUOUS
 62
       7
  5
65F
 10
-82.40826897
 20
-308.4098108
 30
0.0
 11
-89.40802747
 21
-308.4098108
 31
0.0
  0
ARC
  8
2
  6
CONTINUOUS
 62
       7
  5
660
 10
-82.87716388
 20
-306.6207966
 30
0.0
 40
1.7890142
 50
235.61575041
 51
269.99999846
  0
ARC
  8
2
  6
CONTINUOUS
 62
       7
  5
661
 10
-88.93913256
 20
-306.9989354
 30
0.0
 40
1.7890142
 50
55.61575348
 51
90.00000154
  0
ARC
  8
2
  6
CONTINUOUS
 62
       7
  5
662
 10
-82.87716388
 20
-306.9989354
 30
0.0
 40
1.7890142
 50
90.00000154
 51
124.38424959
  0
ARC
  8
2
  6
CONTINUOUS
 62
       7
  5
663
 10
-85.90814822
 20
-311.89708309
 30
0.0
 40
6.68716189
 50
72.41204746
 51
107.58795561
  0
ARC
  8
2
  6
CONTINUOUS
 62
       7
  5
664
 10
-88.93913256
 20
-306.6207966
 30
0.0
 40
1.7890142
 50
269.99999846
 51
304.38424652
  0
ARC
  8
2
  6
CONTINUOUS
 62
       7
  5
665
 10
-85.90814822
 20
-301.7226489
 30
0.0
 40
6.68716189
 50
252.41204439
 51
287.58795254
  0
LINE
  8
2
  6
CONTINUOUS
 62
       7
  5
666
 10
-222.70237807
 20
-323.0092726
 30
0.0
 11
-219.10460337
 21
-323.0092726
 31
0.0
  0
LINE
  8
2
  6
CONTINUOUS
 62
       7
  5
667
 10
-217.70360112
 20
-327.0091346
 30
0.0
 11
-219.30354592
 21
-328.0091001
 31
0.0
  0
LINE
  8
2
  6
CONTINUOUS
 62
       7
  5
668
 10
-219.30354592
 20
-328.0091001
 30
0.0
 11
-222.50343552
 21
-328.0091001
 31
0.0
  0
LINE
  8
2
  6
CONTINUOUS
 62
       7
  5
669
 10
-222.50343552
 20
-328.0091001
 30
0.0
 11
-224.10338032
 21
-327.0091346
 31
0.0
  0
ARC
  8
2
  6
CONTINUOUS
 62
       7
  5
66A
 10
-220.90349072
 20
-323.8831881
 30
0.0
 40
1.999931
 50
154.08910804
 51
214.26540397
  0
ARC
  8
2
  6
CONTINUOUS
 62
       7
  5
66B
 10
-220.90349072
 20
-323.8831881
 30
0.0
 40
1.999931
 50
325.73459296
 51
385.91089503
  0
LINE
  8
2
  6
CONTINUOUS
 62
       7
  5
66C
 10
47.28830693
 20
-323.0092726
 30
0.0
 11
50.88608163
 21
-323.0092726
 31
0.0
  0
ARC
  8
2
  6
CONTINUOUS
 62
       7
  5
66D
 10
49.08719428
 20
-323.8831881
 30
0.0
 40
1.999931
 50
154.08910804
 51
214.26540397
  0
ARC
  8
2
  6
CONTINUOUS
 62
       7
  5
66E
 10
49.08719428
 20
-323.8831881
 30
0.0
 40
1.999931
 50
325.73459296
 51
385.91089503
  0
LINE
  8
2
  6
CONTINUOUS
 62
       7
  5
66F
 10
-41.90966622
 20
-326.0092036
 30
0.0
 11
-13.91063222
 21
-326.0092036
 31
0.0
  0
LINE
  8
2
  6
CONTINUOUS
 62
       7
  5
670
 10
-229.90318022
 20
-170.0145856
 30
0.0
 11
58.08688378
 21
-170.0145856
 31
0.0
  0
LINE
  8
2
  6
CONTINUOUS
 62
       7
  5
671
 10
58.08688378
 20
-169.0146201
 30
0.0
 11
-229.90318022
 21
-169.0146201
 31
0.0
  0
LINE
  8
2
  6
CONTINUOUS
 62
       7
  5
672
 10
58.08688378
 20
-326.0091691
 30
0.0
 11
41.08747028
 21
-326.0091691
 31
0.0
  0
LINE
  8
2
  6
CONTINUOUS
 62
       7
  5
673
 10
-212.90376672
 20
-327.0091346
 30
0.0
 11
-229.90318022
 21
-327.0091346
 31
0.0
  0
LINE
  8
2
  6
CONTINUOUS
 62
       7
  5
674
 10
-212.90376672
 20
-326.0091691
 30
0.0
 11
-212.90376672
 21
-327.0091346
 31
0.0
  0
ARC
  8
2
  6
CONTINUOUS
 62
       7
  5
675
 10
58.08688378
 20
-170.0145856
 30
0.0
 40
0.9999655
 50
0.0
 51
90.00000154
  0
ARC
  8
2
  6
CONTINUOUS
 62
       7
  5
676
 10
-229.90318022
 20
-170.0145856
 30
0.0
 40
0.9999655
 50
90.00000154
 51
179.99999693
  0
ARC
  8
2
  6
CONTINUOUS
 62
       7
  5
677
 10
58.08688378
 20
-326.0091691
 30
0.0
 40
0.9999655
 50
269.99999846
 51
360.0
  0
ARC
  8
2
  6
CONTINUOUS
 62
       7
  5
678
 10
-229.90318022
 20
-326.0091691
 30
0.0
 40
0.9999655
 50
179.99999693
 51
269.99999846
  0
LINE
  8
2
  6
CONTINUOUS
 62
       7
  5
679
 10
46.08729778
 20
-307.70983495
 30
0.0
 11
46.08729778
 21
-318.70945545
 31
0.0
  0
LINE
  8
2
  6
CONTINUOUS
 62
       7
  5
67A
 10
51.08712528
 20
-318.70945545
 30
0.0
 11
51.08712528
 21
-307.70983495
 31
0.0
  0
ARC
  8
2
  6
CONTINUOUS
 62
       7
  5
67B
 10
48.58721153
 20
-307.70983495
 30
0.0
 40
2.49991375
 50
90.00000154
 51
179.99999693
  0
ARC
  8
2
  6
CONTINUOUS
 62
       7
  5
67C
 10
48.58721153
 20
-307.70983495
 30
0.0
 40
2.49991375
 50
0.0
 51
90.00000154
  0
ARC
  8
2
  6
CONTINUOUS
 62
       7
  5
67D
 10
48.58721153
 20
-318.70945545
 30
0.0
 40
2.49991375
 50
269.99999846
 51
360.0
  0
ARC
  8
2
  6
CONTINUOUS
 62
       7
  5
67E
 10
48.58721153
 20
-318.70945545
 30
0.0
 40
2.49991375
 50
179.99999693
 51
269.99999846
  0
LINE
  8
2
  6
CONTINUOUS
 62
       7
  5
67F
 10
45.88730468
 20
-316.70952445
 30
0.0
 11
45.88730468
 21
-309.70976595
 31
0.0
  0
LINE
  8
2
  6
CONTINUOUS
 62
       7
  5
680
 10
45.88730468
 20
-309.70976595
 30
0.0
 11
45.28732538
 21
-309.70976595
 31
0.0
  0
LINE
  8
2
  6
CONTINUOUS
 62
       7
  5
681
 10
45.28732538
 20
-309.70976595
 30
0.0
 11
45.28732538
 21
-316.70952445
 31
0.0
  0
LINE
  8
2
  6
CONTINUOUS
 62
       7
  5
682
 10
45.28732538
 20
-316.70952445
 30
0.0
 11
45.88730468
 21
-316.70952445
 31
0.0
  0
LINE
  8
2
  6
CONTINUOUS
 62
       7
  5
683
 10
51.08712528
 20
-316.2095417
 30
0.0
 11
51.08712528
 21
-310.2097487
 31
0.0
  0
LINE
  8
2
  6
CONTINUOUS
 62
       7
  5
684
 10
57.08691828
 20
-310.2097487
 30
0.0
 11
51.08712528
 21
-310.2097487
 31
0.0
  0
LINE
  8
2
  6
CONTINUOUS
 62
       7
  5
685
 10
51.08712528
 20
-316.2095417
 30
0.0
 11
57.08691828
 21
-316.2095417
 31
0.0
  0
LINE
  8
2
  6
CONTINUOUS
 62
       7
  5
686
 10
45.18732883
 20
-315.2095762
 30
0.0
 11
45.18732883
 21
-311.2097142
 31
0.0
  0
LINE
  8
2
  6
CONTINUOUS
 62
       7
  5
687
 10
44.18736333
 20
-311.2097142
 30
0.0
 11
45.18732883
 21
-311.2097142
 31
0.0
  0
LINE
  8
2
  6
CONTINUOUS
 62
       7
  5
688
 10
44.18736333
 20
-315.2095762
 30
0.0
 11
44.18736333
 21
-311.2097142
 31
0.0
  0
LINE
  8
2
  6
CONTINUOUS
 62
       7
  5
689
 10
45.18732883
 20
-315.2095762
 30
0.0
 11
44.18736333
 21
-315.2095762
 31
0.0
  0
LINE
  8
2
  6
CONTINUOUS
 62
       7
  5
68A
 10
-228.90321472
 20
-325.0092036
 30
0.0
 11
-228.90321472
 21
-285.2099212
 31
0.0
  0
LINE
  8
2
  6
CONTINUOUS
 62
       7
  5
68B
 10
58.08688378
 20
-326.0092036
 30
0.0
 11
58.08688378
 21
-289.0104801
 31
0.0
  0
LINE
  8
2
  6
CONTINUOUS
 62
       7
  5
68C
 10
57.08691828
 20
-285.2099212
 30
0.0
 11
57.08691828
 21
-325.0092036
 31
0.0
  0
LINE
  8
2
  6
CONTINUOUS
 62
       7
  5
68D
 10
57.08691828
 20
-325.0092036
 30
0.0
 11
-228.90321472
 21
-325.0092036
 31
0.0
  0
LINE
  8
2
  6
CONTINUOUS
 62
       7
  5
68E
 10
57.08691828
 20
-326.0091691
 30
0.0
 11
-229.90318022
 21
-326.0091691
 31
0.0
  0
ARC
  8
2
  6
CONTINUOUS
 62
       7
  5
68F
 10
-228.90321472
 20
-325.0092036
 30
0.0
 40
0.9999655
 50
179.99999693
 51
269.99999846
  0
ARC
  8
2
  6
CONTINUOUS
 62
       7
  5
690
 10
57.08691828
 20
-325.0092036
 30
0.0
 40
0.9999655
 50
269.99999846
 51
360.0
  0
LINE
  8
2
  6
CONTINUOUS
 62
       7
  5
691
 10
-102.90756172
 20
-308.0097901
 30
0.0
 11
-102.90756172
 21
-324.0092381
 31
0.0
  0
LINE
  8
2
  6
CONTINUOUS
 62
       7
  5
692
 10
-101.90759622
 20
-325.0092036
 30
0.0
 11
-69.90870022
 21
-325.0092036
 31
0.0
  0
LINE
  8
2
  6
CONTINUOUS
 62
       7
  5
693
 10
-68.90873472
 20
-324.0092381
 30
0.0
 11
-68.90873472
 21
-308.0097901
 31
0.0
  0
LINE
  8
2
  6
CONTINUOUS
 62
       7
  5
694
 10
-68.90873472
 20
-308.0097901
 30
0.0
 11
-69.90870022
 21
-308.0097901
 31
0.0
  0
LINE
  8
2
  6
CONTINUOUS
 62
       7
  5
695
 10
-69.90870022
 20
-308.0097901
 30
0.0
 11
-69.90870022
 21
-324.0092381
 31
0.0
  0
LINE
  8
2
  6
CONTINUOUS
 62
       7
  5
696
 10
-69.90870022
 20
-324.0092381
 30
0.0
 11
-101.90759622
 21
-324.0092381
 31
0.0
  0
LINE
  8
2
  6
CONTINUOUS
 62
       7
  5
697
 10
-101.90759622
 20
-324.0092381
 30
0.0
 11
-101.90759622
 21
-308.0097901
 31
0.0
  0
LINE
  8
2
  6
CONTINUOUS
 62
       7
  5
698
 10
-101.90759622
 20
-308.0097901
 30
0.0
 11
-102.90756172
 21
-308.0097901
 31
0.0
  0
ARC
  8
2
  6
CONTINUOUS
 62
       7
  5
699
 10
-69.90870022
 20
-324.0092381
 30
0.0
 40
0.9999655
 50
269.99999846
 51
360.0
  0
ARC
  8
2
  6
CONTINUOUS
 62
       7
  5
69A
 10
-101.90759622
 20
-324.0092381
 30
0.0
 40
0.9999655
 50
179.99999693
 51
269.99999846
  0
LINE
  8
2
  6
CONTINUOUS
 62
       7
  5
69B
 10
-116.40709597
 20
-317.70948995
 30
0.0
 11
-105.40747547
 21
-317.70948995
 31
0.0
  0
LINE
  8
2
  6
CONTINUOUS
 62
       7
  5
69C
 10
-105.40747547
 20
-312.70966245
 30
0.0
 11
-116.40709597
 21
-312.70966245
 31
0.0
  0
ARC
  8
2
  6
CONTINUOUS
 62
       7
  5
69D
 10
-116.40709597
 20
-315.2095762
 30
0.0
 40
2.49991375
 50
179.99999693
 51
269.99999846
  0
ARC
  8
2
  6
CONTINUOUS
 62
       7
  5
69E
 10
-116.40709597
 20
-315.2095762
 30
0.0
 40
2.49991375
 50
90.00000154
 51
179.99999693
  0
ARC
  8
2
  6
CONTINUOUS
 62
       7
  5
69F
 10
-105.40747547
 20
-315.2095762
 30
0.0
 40
2.49991375
 50
0.0
 51
90.00000154
  0
ARC
  8
2
  6
CONTINUOUS
 62
       7
  5
6A0
 10
-105.40747547
 20
-315.2095762
 30
0.0
 40
2.49991375
 50
269.99999846
 51
360.0
  0
LINE
  8
2
  6
CONTINUOUS
 62
       7
  5
6A1
 10
-107.40740647
 20
-317.90948305
 30
0.0
 11
-114.40716497
 21
-317.90948305
 31
0.0
  0
LINE
  8
2
  6
CONTINUOUS
 62
       7
  5
6A2
 10
-114.40716497
 20
-317.90948305
 30
0.0
 11
-114.40716497
 21
-318.50946235
 31
0.0
  0
LINE
  8
2
  6
CONTINUOUS
 62
       7
  5
6A3
 10
-114.40716497
 20
-318.50946235
 30
0.0
 11
-107.40740647
 21
-318.50946235
 31
0.0
  0
LINE
  8
2
  6
CONTINUOUS
 62
       7
  5
6A4
 10
-107.40740647
 20
-318.50946235
 30
0.0
 11
-107.40740647
 21
-317.90948305
 31
0.0
  0
LINE
  8
2
  6
CONTINUOUS
 62
       7
  5
6A5
 10
-107.90738922
 20
-312.70966245
 30
0.0
 11
-113.90718222
 21
-312.70966245
 31
0.0
  0
LINE
  8
2
  6
CONTINUOUS
 62
       7
  5
6A6
 10
-113.90718222
 20
-306.70986945
 30
0.0
 11
-113.90718222
 21
-312.70966245
 31
0.0
  0
LINE
  8
2
  6
CONTINUOUS
 62
       7
  5
6A7
 10
-107.90738922
 20
-312.70966245
 30
0.0
 11
-107.90738922
 21
-306.70986945
 31
0.0
  0
LINE
  8
2
  6
CONTINUOUS
 62
       7
  5
6A8
 10
-108.90735472
 20
-318.6094589
 30
0.0
 11
-112.90721672
 21
-318.6094589
 31
0.0
  0
LINE
  8
2
  6
CONTINUOUS
 62
       7
  5
6A9
 10
-112.90721672
 20
-319.6094244
 30
0.0
 11
-112.90721672
 21
-318.6094589
 31
0.0
  0
LINE
  8
2
  6
CONTINUOUS
 62
       7
  5
6AA
 10
-108.90735472
 20
-319.6094244
 30
0.0
 11
-112.90721672
 21
-319.6094244
 31
0.0
  0
LINE
  8
2
  6
CONTINUOUS
 62
       7
  5
6AB
 10
-108.90735472
 20
-318.6094589
 30
0.0
 11
-108.90735472
 21
-319.6094244
 31
0.0
  0
LINE
  8
2
  6
CONTINUOUS
 62
       7
  5
6AC
 10
-203.90852772
 20
-174.2144407
 30
0.0
 11
-203.90852772
 21
-176.2143717
 31
0.0
  0
LINE
  8
2
  6
CONTINUOUS
 62
       7
  5
6AD
 10
-204.90849322
 20
-176.2143717
 30
0.0
 11
-204.90849322
 21
-174.2144407
 31
0.0
  0
LINE
  8
2
  6
CONTINUOUS
 62
       7
  5
6AE
 10
-198.90870022
 20
-174.2144407
 30
0.0
 11
-194.90883822
 21
-174.2144407
 31
0.0
  0
LINE
  8
2
  6
CONTINUOUS
 62
       7
  5
6AF
 10
-203.90852772
 20
-173.2144752
 30
0.0
 11
-194.90883822
 21
-173.2144752
 31
0.0
  0
LINE
  8
2
  6
CONTINUOUS
 62
       7
  5
6B0
 10
-203.90852772
 20
-174.2144407
 30
0.0
 11
-198.90870022
 21
-174.2144407
 31
0.0
  0
ARC
  8
2
  6
CONTINUOUS
 62
       7
  5
6B1
 10
-203.90852772
 20
-174.2144407
 30
0.0
 40
0.9999655
 50
90.00000154
 51
179.99999693
  0
ARC
  8
2
  6
CONTINUOUS
 62
       7
  5
6B2
 10
-194.90883822
 20
-174.2144407
 30
0.0
 40
0.9999655
 50
0.0
 51
90.00000154
  0
LINE
  8
2
  6
CONTINUOUS
 62
       7
  5
6B3
 10
-204.90849322
 20
-176.2143717
 30
0.0
 11
-203.90852772
 21
-176.2143717
 31
0.0
  0
LINE
  8
2
  6
CONTINUOUS
 62
       7
  5
6B4
 10
-203.90852772
 20
-174.2144407
 30
0.0
 11
-203.90852772
 21
-176.2143717
 31
0.0
  0
LINE
  8
2
  6
CONTINUOUS
 62
       7
  5
6B5
 10
-224.90335272
 20
-305.2099212
 30
0.0
 11
-75.91294372
 21
-305.2099212
 31
0.0
  0
LINE
  8
2
  6
CONTINUOUS
 62
       7
  5
6B6
 10
32.09223128
 20
-176.2143717
 30
0.0
 11
33.09219678
 21
-176.2143717
 31
0.0
  0
LINE
  8
2
  6
CONTINUOUS
 62
       7
  5
6B7
 10
-85.90814822
 20
-305.2099212
 30
0.0
 11
53.08705628
 21
-305.2099212
 31
0.0
  0
LINE
  8
2
  6
CONTINUOUS
 62
       7
  5
6B8
 10
32.09223128
 20
-174.2144407
 30
0.0
 11
-203.90852772
 21
-174.2144407
 31
0.0
  0
LINE
  8
2
  6
CONTINUOUS
 62
       7
  5
6B9
 10
-203.90852772
 20
-173.2144752
 30
0.0
 11
32.09223128
 21
-173.2144752
 31
0.0
  0
ARC
  8
2
  6
CONTINUOUS
 62
       7
  5
6BA
 10
-204.90849322
 20
-186.2140267
 30
0.0
 40
9.999655
 50
90.00000154
 51
179.99999693
  0
ARC
  8
2
  6
CONTINUOUS
 62
       7
  5
6BB
 10
33.09219678
 20
-186.2140267
 30
0.0
 40
9.999655
 50
0.0
 51
90.00000154
  0
LINE
  8
2
  6
CONTINUOUS
 62
       7
  5
6BC
 10
-115.90711322
 20
-305.2099212
 30
0.0
 11
-115.90711322
 21
-306.70986945
 31
0.0
  0
LINE
  8
2
  6
CONTINUOUS
 62
       7
  5
6BD
 10
27.09240378
 20
-174.2144407
 30
0.0
 11
32.09223128
 21
-174.2144407
 31
0.0
  0
LINE
  8
2
  6
CONTINUOUS
 62
       7
  5
6BE
 10
23.09254178
 20
-173.2144752
 30
0.0
 11
32.09223128
 21
-173.2144752
 31
0.0
  0
LINE
  8
2
  6
CONTINUOUS
 62
       7
  5
6BF
 10
23.09254178
 20
-174.2144407
 30
0.0
 11
27.09240378
 21
-174.2144407
 31
0.0
  0
LINE
  8
2
  6
CONTINUOUS
 62
       7
  5
6C0
 10
33.09219678
 20
-174.2144407
 30
0.0
 11
33.09219678
 21
-176.2143717
 31
0.0
  0
LINE
  8
2
  6
CONTINUOUS
 62
       7
  5
6C1
 10
32.09223128
 20
-176.2143717
 30
0.0
 11
32.09223128
 21
-174.2144407
 31
0.0
  0
ARC
  8
2
  6
CONTINUOUS
 62
       7
  5
6C2
 10
32.09223128
 20
-174.2144407
 30
0.0
 40
0.9999655
 50
0.0
 51
90.00000154
  0
ARC
  8
2
  6
CONTINUOUS
 62
       7
  5
6C3
 10
23.09254178
 20
-174.2144407
 30
0.0
 40
0.9999655
 50
90.00000154
 51
179.99999693
  0
LINE
  8
2
  6
CONTINUOUS
 62
       7
  5
6C4
 10
45.18732883
 20
-314.70959345
 30
0.0
 11
45.28732538
 21
-314.70959345
 31
0.0
  0
LINE
  8
2
  6
CONTINUOUS
 62
       7
  5
6C5
 10
45.88730468
 20
-314.70959345
 30
0.0
 11
46.08729778
 21
-314.70959345
 31
0.0
  0
LINE
  8
2
  6
CONTINUOUS
 62
       7
  5
6C6
 10
45.18732883
 20
-311.70969695
 30
0.0
 11
45.28732538
 21
-311.70969695
 31
0.0
  0
LINE
  8
2
  6
CONTINUOUS
 62
       7
  5
6C7
 10
45.88730468
 20
-311.70969695
 30
0.0
 11
46.08729778
 21
-311.70969695
 31
0.0
  0
LINE
  8
2
  6
CONTINUOUS
 62
       7
  5
6C8
 10
-217.90359422
 20
-307.70983495
 30
0.0
 11
-217.90359422
 21
-318.70945545
 31
0.0
  0
LINE
  8
2
  6
CONTINUOUS
 62
       7
  5
6C9
 10
-222.90342172
 20
-318.70945545
 30
0.0
 11
-222.90342172
 21
-307.70983495
 31
0.0
  0
LINE
  8
2
  6
CONTINUOUS
 62
       7
  5
6CA
 10
-217.70360112
 20
-316.70952445
 30
0.0
 11
-217.70360112
 21
-309.70976595
 31
0.0
  0
LINE
  8
2
  6
CONTINUOUS
 62
       7
  5
6CB
 10
-217.70360112
 20
-309.70976595
 30
0.0
 11
-217.10362182
 21
-309.70976595
 31
0.0
  0
LINE
  8
2
  6
CONTINUOUS
 62
       7
  5
6CC
 10
-217.10362182
 20
-309.70976595
 30
0.0
 11
-217.10362182
 21
-316.70952445
 31
0.0
  0
LINE
  8
2
  6
CONTINUOUS
 62
       7
  5
6CD
 10
-217.10362182
 20
-316.70952445
 30
0.0
 11
-217.70360112
 21
-316.70952445
 31
0.0
  0
LINE
  8
2
  6
CONTINUOUS
 62
       7
  5
6CE
 10
-222.90342172
 20
-316.2095417
 30
0.0
 11
-222.90342172
 21
-310.2097487
 31
0.0
  0
LINE
  8
2
  6
CONTINUOUS
 62
       7
  5
6CF
 10
-217.00362527
 20
-315.2095762
 30
0.0
 11
-217.00362527
 21
-311.2097142
 31
0.0
  0
LINE
  8
2
  6
CONTINUOUS
 62
       7
  5
6D0
 10
-216.00365977
 20
-311.2097142
 30
0.0
 11
-217.00362527
 21
-311.2097142
 31
0.0
  0
LINE
  8
2
  6
CONTINUOUS
 62
       7
  5
6D1
 10
-216.00365977
 20
-315.2095762
 30
0.0
 11
-216.00365977
 21
-311.2097142
 31
0.0
  0
LINE
  8
2
  6
CONTINUOUS
 62
       7
  5
6D2
 10
-217.00362527
 20
-315.2095762
 30
0.0
 11
-216.00365977
 21
-315.2095762
 31
0.0
  0
LINE
  8
2
  6
CONTINUOUS
 62
       7
  5
6D3
 10
-217.00362527
 20
-314.70959345
 30
0.0
 11
-217.10362182
 21
-314.70959345
 31
0.0
  0
LINE
  8
2
  6
CONTINUOUS
 62
       7
  5
6D4
 10
-217.70360112
 20
-314.70959345
 30
0.0
 11
-217.90359422
 21
-314.70959345
 31
0.0
  0
LINE
  8
2
  6
CONTINUOUS
 62
       7
  5
6D5
 10
-217.00362527
 20
-311.70969695
 30
0.0
 11
-217.10362182
 21
-311.70969695
 31
0.0
  0
LINE
  8
2
  6
CONTINUOUS
 62
       7
  5
6D6
 10
-217.70360112
 20
-311.70969695
 30
0.0
 11
-217.90359422
 21
-311.70969695
 31
0.0
  0
ARC
  8
2
  6
CONTINUOUS
 62
       7
  5
6D7
 10
-220.40350797
 20
-307.70983495
 30
0.0
 40
2.49991375
 50
0.0
 51
90.00000154
  0
ARC
  8
2
  6
CONTINUOUS
 62
       7
  5
6D8
 10
-220.40350797
 20
-307.70983495
 30
0.0
 40
2.49991375
 50
90.00000154
 51
180.00000307
  0
ARC
  8
2
  6
CONTINUOUS
 62
       7
  5
6D9
 10
-220.40350797
 20
-318.70945545
 30
0.0
 40
2.49991375
 50
180.00000307
 51
269.99999846
  0
ARC
  8
2
  6
CONTINUOUS
 62
       7
  5
6DA
 10
-220.40350797
 20
-318.70945545
 30
0.0
 40
2.49991375
 50
269.99999846
 51
360.0
  0
LINE
  8
2
  6
CONTINUOUS
 62
       7
  5
6DB
 10
-228.90321472
 20
-310.2097487
 30
0.0
 11
-222.90342172
 21
-310.2097487
 31
0.0
  0
LINE
  8
2
  6
CONTINUOUS
 62
       7
  5
6DC
 10
-222.90342172
 20
-316.2095417
 30
0.0
 11
-228.90321472
 21
-316.2095417
 31
0.0
  0
LINE
  8
2
  6
CONTINUOUS
 62
       7
  5
6DD
 10
-109.40733747
 20
-317.70948995
 30
0.0
 11
-109.40733747
 21
-317.90948305
 31
0.0
  0
LINE
  8
2
  6
CONTINUOUS
 62
       7
  5
6DE
 10
-109.40733747
 20
-318.50946235
 30
0.0
 11
-109.40733747
 21
-318.6094589
 31
0.0
  0
LINE
  8
2
  6
CONTINUOUS
 62
       7
  5
6DF
 10
-112.40723397
 20
-318.6094589
 30
0.0
 11
-112.40723397
 21
-318.50946235
 31
0.0
  0
LINE
  8
2
  6
CONTINUOUS
 62
       7
  5
6E0
 10
-112.40723397
 20
-317.90948305
 30
0.0
 11
-112.40723397
 21
-317.70948995
 31
0.0
  0
ARC
  8
2
  6
CONTINUOUS
 62
       7
  5
6E1
 10
-55.40920047
 20
-315.2095762
 30
0.0
 40
2.49991375
 50
269.99999846
 51
360.0
  0
ARC
  8
2
  6
CONTINUOUS
 62
       7
  5
6E2
 10
-55.40920047
 20
-315.2095762
 30
0.0
 40
2.49991375
 50
0.0
 51
90.00000154
  0
LINE
  8
2
  6
CONTINUOUS
 62
       7
  5
6E3
 10
-64.40888997
 20
-317.90948305
 30
0.0
 11
-57.40913147
 21
-317.90948305
 31
0.0
  0
LINE
  8
2
  6
CONTINUOUS
 62
       7
  5
6E4
 10
-57.40913147
 20
-317.90948305
 30
0.0
 11
-57.40913147
 21
-318.50946235
 31
0.0
  0
LINE
  8
2
  6
CONTINUOUS
 62
       7
  5
6E5
 10
-57.40913147
 20
-318.50946235
 30
0.0
 11
-64.40888997
 21
-318.50946235
 31
0.0
  0
LINE
  8
2
  6
CONTINUOUS
 62
       7
  5
6E6
 10
-64.40888997
 20
-318.50946235
 30
0.0
 11
-64.40888997
 21
-317.90948305
 31
0.0
  0
LINE
  8
2
  6
CONTINUOUS
 62
       7
  5
6E7
 10
-63.90890722
 20
-312.70966245
 30
0.0
 11
-57.90911422
 21
-312.70966245
 31
0.0
  0
LINE
  8
2
  6
CONTINUOUS
 62
       7
  5
6E8
 10
-62.90894172
 20
-318.6094589
 30
0.0
 11
-58.90907972
 21
-318.6094589
 31
0.0
  0
LINE
  8
2
  6
CONTINUOUS
 62
       7
  5
6E9
 10
-58.90907972
 20
-319.6094244
 30
0.0
 11
-58.90907972
 21
-318.6094589
 31
0.0
  0
LINE
  8
2
  6
CONTINUOUS
 62
       7
  5
6EA
 10
-62.90894172
 20
-319.6094244
 30
0.0
 11
-58.90907972
 21
-319.6094244
 31
0.0
  0
LINE
  8
2
  6
CONTINUOUS
 62
       7
  5
6EB
 10
-62.90894172
 20
-318.6094589
 30
0.0
 11
-62.90894172
 21
-319.6094244
 31
0.0
  0
LINE
  8
2
  6
CONTINUOUS
 62
       7
  5
6EC
 10
-62.40895897
 20
-317.70948995
 30
0.0
 11
-62.40895897
 21
-317.90948305
 31
0.0
  0
LINE
  8
2
  6
CONTINUOUS
 62
       7
  5
6ED
 10
-62.40895897
 20
-318.50946235
 30
0.0
 11
-62.40895897
 21
-318.6094589
 31
0.0
  0
LINE
  8
2
  6
CONTINUOUS
 62
       7
  5
6EE
 10
-59.40906247
 20
-318.6094589
 30
0.0
 11
-59.40906247
 21
-318.50946235
 31
0.0
  0
LINE
  8
2
  6
CONTINUOUS
 62
       7
  5
6EF
 10
-59.40906247
 20
-317.90948305
 30
0.0
 11
-59.40906247
 21
-317.70948995
 31
0.0
  0
LINE
  8
2
  6
CONTINUOUS
 62
       7
  5
6F0
 10
-55.40920047
 20
-317.70948995
 30
0.0
 11
-66.40882097
 21
-317.70948995
 31
0.0
  0
LINE
  8
2
  6
CONTINUOUS
 62
       7
  5
6F1
 10
-66.40882097
 20
-312.70966245
 30
0.0
 11
-55.40920047
 21
-312.70966245
 31
0.0
  0
LINE
  8
2
  6
CONTINUOUS
 62
       7
  5
6F2
 10
-57.90911422
 20
-306.70986945
 30
0.0
 11
-57.90911422
 21
-312.70966245
 31
0.0
  0
LINE
  8
2
  6
CONTINUOUS
 62
       7
  5
6F3
 10
-63.90890722
 20
-312.70966245
 30
0.0
 11
-63.90890722
 21
-306.70986945
 31
0.0
  0
ARC
  8
2
  6
CONTINUOUS
 62
       7
  5
6F4
 10
-66.40882097
 20
-315.2095762
 30
0.0
 40
2.49991375
 50
90.00000154
 51
179.99999693
  0
ARC
  8
2
  6
CONTINUOUS
 62
       7
  5
6F5
 10
-66.40882097
 20
-315.2095762
 30
0.0
 40
2.49991375
 50
179.99999693
 51
269.99999846
  0
LINE
  8
2
  6
CONTINUOUS
 62
       7
  5
6F6
 10
-115.90711322
 20
-306.70986945
 30
0.0
 11
-89.94946067
 21
-306.70986945
 31
0.0
  0
LINE
  8
2
  6
CONTINUOUS
 62
       7
  5
6F7
 10
-81.86683577
 20
-306.70986945
 30
0.0
 11
-55.90918322
 21
-306.70986945
 31
0.0
  0
LINE
  8
2
  6
CONTINUOUS
 62
       7
  5
6F8
 10
-89.50001539
 20
-313.44963692
 30
0.0
 11
-87.90807922
 21
-313.44963692
 31
0.0
  0
LINE
  8
2
  6
CONTINUOUS
 62
       7
  5
6F9
 10
-83.90821722
 20
-313.44963692
 30
0.0
 11
-82.31628105
 21
-313.44963692
 31
0.0
  0
LINE
  8
2
  6
CONTINUOUS
 62
       7
  5
6FA
 10
-89.72377338
 20
-314.0096176
 30
0.0
 11
-87.90807922
 21
-314.0096176
 31
0.0
  0
LINE
  8
2
  6
CONTINUOUS
 62
       7
  5
6FB
 10
-83.90821722
 20
-314.0096176
 30
0.0
 11
-82.09252306
 21
-314.0096176
 31
0.0
  0
LINE
  8
2
  6
CONTINUOUS
 62
       7
  5
6FC
 10
-83.90821722
 20
-315.70955895
 30
0.0
 11
-83.90821722
 21
-317.2095072
 31
0.0
  0
LINE
  8
2
  6
CONTINUOUS
 62
       7
  5
6FD
 10
-87.90807922
 20
-317.2095072
 30
0.0
 11
-87.90807922
 21
-315.70955895
 31
0.0
  0
LINE
  8
2
  6
CONTINUOUS
 62
       7
  5
6FE
 10
-214.90814822
 20
-186.2140267
 30
0.0
 11
-214.90814822
 21
-209.10969758
 31
0.0
  0
LINE
  8
2
  6
CONTINUOUS
 62
       7
  5
6FF
 10
-214.90814822
 20
-219.10969758
 30
0.0
 11
-214.90814822
 21
-282.2099212
 31
0.0
  0
LINE
  8
2
  6
CONTINUOUS
 62
       7
  5
700
 10
43.09185178
 20
-282.2099212
 30
0.0
 11
43.09185178
 21
-219.10969758
 31
0.0
  0
LINE
  8
2
  6
CONTINUOUS
 62
       7
  5
701
 10
43.09185178
 20
-209.10969758
 30
0.0
 11
43.09185178
 21
-186.2140267
 31
0.0
  0
LINE
  8
2
  6
CONTINUOUS
 62
       7
  5
702
 10
-186.90466372
 20
-230.2125087
 30
0.0
 11
-158.45907372
 21
-230.2125087
 31
0.0
  0
LINE
  8
2
  6
CONTINUOUS
 62
       7
  5
703
 10
-167.90531922
 20
-228.2125777
 30
0.0
 11
-158.45907372
 21
-228.2125777
 31
0.0
  0
LINE
  8
2
  6
CONTINUOUS
 62
       7
  5
704
 10
-167.90531922
 20
-230.2125087
 30
0.0
 11
-167.90531922
 21
-228.2125777
 31
0.0
  0
LINE
  8
2
  6
CONTINUOUS
 62
       7
  5
705
 10
-187.90462922
 20
-227.71259495
 30
0.0
 11
-165.81940748
 21
-227.71259495
 31
0.0
  0
LINE
  8
2
  6
CONTINUOUS
 62
       7
  5
706
 10
-163.40547447
 20
-227.71259495
 30
0.0
 11
-165.81940748
 21
-227.71259495
 31
0.0
  0
LINE
  8
2
  6
CONTINUOUS
 62
       7
  5
707
 10
-13.35722273
 20
-230.2125087
 30
0.0
 11
15.08836728
 21
-230.2125087
 31
0.0
  0
LINE
  8
2
  6
CONTINUOUS
 62
       7
  5
708
 10
-13.35722273
 20
-228.2125777
 30
0.0
 11
-3.91097722
 21
-228.2125777
 31
0.0
  0
LINE
  8
2
  6
CONTINUOUS
 62
       7
  5
709
 10
-3.91097722
 20
-230.2125087
 30
0.0
 11
-3.91097722
 21
-228.2125777
 31
0.0
  0
ARC
  8
2
  6
CONTINUOUS
 62
       7
  5
70A
 10
-13.35722273
 20
-210.2131987
 30
0.0
 40
19.99931
 50
255.7020373
 51
269.99999846
  0
ARC
  8
2
  6
CONTINUOUS
 62
       7
  5
70B
 10
-13.35722273
 20
-210.2131987
 30
0.0
 40
17.999379
 50
255.7020373
 51
269.99999846
  0
LINE
  8
2
  6
CONTINUOUS
 62
       7
  5
70C
 10
-5.99688896
 20
-227.71259495
 30
0.0
 11
16.08833278
 21
-227.71259495
 31
0.0
  0
LINE
  8
2
  6
CONTINUOUS
 62
       7
  5
70D
 10
-5.99688896
 20
-227.71259495
 30
0.0
 11
-8.41082197
 21
-227.71259495
 31
0.0
  0
ARC
  8
2
  6
CONTINUOUS
 62
       7
  5
70E
 10
-5.99688896
 20
-207.71328495
 30
0.0
 40
19.99931
 50
256.44124082
 51
269.99999846
  0
ARC
  8
2
  6
CONTINUOUS
 62
       7
  5
70F
 10
-85.90814822
 20
-539.07027379
 30
0.0
 40
320.85735109
 50
76.02302184
 51
76.44124389
  0
LINE
  8
2
  6
CONTINUOUS
 62
       7
  5
710
 10
15.08836728
 20
-249.2118532
 30
0.0
 11
-13.35722273
 21
-249.2118532
 31
0.0
  0
LINE
  8
2
  6
CONTINUOUS
 62
       7
  5
711
 10
-3.91097722
 20
-251.2117842
 30
0.0
 11
-13.35722273
 21
-251.2117842
 31
0.0
  0
LINE
  8
2
  6
CONTINUOUS
 62
       7
  5
712
 10
-3.91097722
 20
-251.2117842
 30
0.0
 11
-3.91097722
 21
-249.2118532
 31
0.0
  0
ARC
  8
2
  6
CONTINUOUS
 62
       7
  5
713
 10
-13.35722273
 20
-269.2111632
 30
0.0
 40
19.99931
 50
90.00000154
 51
104.2979627
  0
ARC
  8
2
  6
CONTINUOUS
 62
       7
  5
714
 10
-13.35722273
 20
-269.2111632
 30
0.0
 40
17.999379
 50
90.00000154
 51
104.2979627
  0
LINE
  8
2
  6
CONTINUOUS
 62
       7
  5
715
 10
16.08833278
 20
-251.71176695
 30
0.0
 11
-5.99688896
 21
-251.71176695
 31
0.0
  0
LINE
  8
2
  6
CONTINUOUS
 62
       7
  5
716
 10
-8.41082197
 20
-251.71176695
 30
0.0
 11
-5.99688896
 21
-251.71176695
 31
0.0
  0
ARC
  8
2
  6
CONTINUOUS
 62
       7
  5
717
 10
-5.99688896
 20
-271.71107695
 30
0.0
 40
19.99931
 50
90.00000154
 51
103.55875918
  0
ARC
  8
2
  6
CONTINUOUS
 62
       7
  5
718
 10
-85.90814822
 20
59.6459119
 30
0.0
 40
320.85735109
 50
283.55875611
 51
283.97697816
  0
ARC
  8
2
  6
CONTINUOUS
 62
       7
  5
719
 10
-158.45907372
 20
-269.2111632
 30
0.0
 40
19.99931
 50
75.70204037
 51
90.00000154
  0
ARC
  8
2
  6
CONTINUOUS
 62
       7
  5
71A
 10
-158.45907372
 20
-269.2111632
 30
0.0
 40
17.999379
 50
75.70204037
 51
90.00000154
  0
LINE
  8
2
  6
CONTINUOUS
 62
       7
  5
71B
 10
-165.81940748
 20
-251.71176695
 30
0.0
 11
-163.40547447
 21
-251.71176695
 31
0.0
  0
ARC
  8
2
  6
CONTINUOUS
 62
       7
  5
71C
 10
-165.81940748
 20
-271.71107695
 30
0.0
 40
19.99931
 50
76.44124389
 51
90.00000154
  0
ARC
  8
2
  6
CONTINUOUS
 62
       7
  5
71D
 10
-85.90814822
 20
59.6459119
 30
0.0
 40
320.85735109
 50
256.02301877
 51
256.44124082
  0
ARC
  8
2
  6
CONTINUOUS
 62
       7
  5
71E
 10
-186.90466372
 20
-239.71218095
 30
0.0
 40
9.49967225
 50
90.00000154
 51
179.99999693
  0
ARC
  8
2
  6
CONTINUOUS
 62
       7
  5
71F
 10
-158.45907372
 20
-210.2131987
 30
0.0
 40
19.99931
 50
269.99999846
 51
284.29795963
  0
ARC
  8
2
  6
CONTINUOUS
 62
       7
  5
720
 10
-158.45907372
 20
-210.2131987
 30
0.0
 40
17.999379
 50
269.99999846
 51
284.29795963
  0
ARC
  8
2
  6
CONTINUOUS
 62
       7
  5
721
 10
-165.81940748
 20
-207.71328495
 30
0.0
 40
19.99931
 50
269.99999846
 51
283.55875611
  0
ARC
  8
2
  6
CONTINUOUS
 62
       7
  5
722
 10
-187.90462922
 20
-239.71218095
 30
0.0
 40
11.999586
 50
90.00000154
 51
179.99999693
  0
ARC
  8
2
  6
CONTINUOUS
 62
       7
  5
723
 10
-85.90814822
 20
-539.07027379
 30
0.0
 40
320.85735109
 50
103.55875918
 51
103.97698123
  0
ARC
  8
2
  6
CONTINUOUS
 62
       7
  5
724
 10
-85.90814822
 20
-494.88414644
 30
0.0
 40
273.77132379
 50
90.00000154
 51
104.2979627
  0
ARC
  8
2
  6
CONTINUOUS
 62
       7
  5
725
 10
-85.90814822
 20
-494.88414644
 30
0.0
 40
275.77125479
 50
75.70204037
 51
104.2979627
  0
ARC
  8
2
  6
CONTINUOUS
 62
       7
  5
726
 10
-85.90814822
 20
-539.07027379
 30
0.0
 40
320.85735109
 50
90.00000154
 51
103.55875918
  0
ARC
  8
2
  6
CONTINUOUS
 62
       7
  5
727
 10
15.08836728
 20
-239.71218095
 30
0.0
 40
9.49967225
 50
0.0
 51
90.00000154
  0
ARC
  8
2
  6
CONTINUOUS
 62
       7
  5
728
 10
-85.90814822
 20
-494.88414644
 30
0.0
 40
273.77132379
 50
75.70204037
 51
90.00000154
  0
ARC
  8
2
  6
CONTINUOUS
 62
       7
  5
729
 10
16.08833278
 20
-239.71218095
 30
0.0
 40
11.999586
 50
0.0
 51
90.00000154
  0
ARC
  8
2
  6
CONTINUOUS
 62
       7
  5
72A
 10
-85.90814822
 20
-539.07027379
 30
0.0
 40
320.85735109
 50
76.44124389
 51
90.00000154
  0
ARC
  8
2
  6
CONTINUOUS
 62
       7
  5
72B
 10
15.08836728
 20
-239.71218095
 30
0.0
 40
9.49967225
 50
269.99999846
 51
360.0
  0
ARC
  8
2
  6
CONTINUOUS
 62
       7
  5
72C
 10
-85.90814822
 20
15.45978455
 30
0.0
 40
273.77132379
 50
269.99999846
 51
284.29795963
  0
ARC
  8
2
  6
CONTINUOUS
 62
       7
  5
72D
 10
-85.90814822
 20
15.45978455
 30
0.0
 40
275.77125479
 50
255.7020373
 51
284.29795963
  0
ARC
  8
2
  6
CONTINUOUS
 62
       7
  5
72E
 10
16.08833278
 20
-239.71218095
 30
0.0
 40
11.999586
 50
269.99999846
 51
360.0
  0
ARC
  8
2
  6
CONTINUOUS
 62
       7
  5
72F
 10
-85.90814822
 20
59.6459119
 30
0.0
 40
320.85735109
 50
269.99999846
 51
283.55875611
  0
ARC
  8
2
  6
CONTINUOUS
 62
       7
  5
730
 10
-85.90814822
 20
15.45978455
 30
0.0
 40
273.77132379
 50
255.7020373
 51
269.99999846
  0
ARC
  8
2
  6
CONTINUOUS
 62
       7
  5
731
 10
-85.90814822
 20
59.6459119
 30
0.0
 40
320.85735109
 50
256.44124082
 51
269.99999846
  0
LINE
  8
2
  6
CONTINUOUS
 62
       7
  5
732
 10
-158.45907372
 20
-249.2118532
 30
0.0
 11
-186.90466372
 21
-249.2118532
 31
0.0
  0
LINE
  8
2
  6
CONTINUOUS
 62
       7
  5
733
 10
-167.90531922
 20
-251.2117842
 30
0.0
 11
-167.90531922
 21
-249.2118532
 31
0.0
  0
LINE
  8
2
  6
CONTINUOUS
 62
       7
  5
734
 10
-158.45907372
 20
-251.2117842
 30
0.0
 11
-167.90531922
 21
-251.2117842
 31
0.0
  0
LINE
  8
2
  6
CONTINUOUS
 62
       7
  5
735
 10
-165.81940748
 20
-251.71176695
 30
0.0
 11
-187.90462922
 21
-251.71176695
 31
0.0
  0
ARC
  8
2
  6
CONTINUOUS
 62
       7
  5
736
 10
-186.90466372
 20
-239.71218095
 30
0.0
 40
9.49967225
 50
179.99999693
 51
269.99999846
  0
ARC
  8
2
  6
CONTINUOUS
 62
       7
  5
737
 10
-187.90462922
 20
-239.71218095
 30
0.0
 40
11.999586
 50
179.99999693
 51
269.99999846
  0
LINE
  8
2
  6
CONTINUOUS
 62
       7
  5
738
 10
57.08691828
 20
-292.2103697
 30
0.0
 11
53.08705628
 21
-292.2103697
 31
0.0
  0
LINE
  8
2
  6
CONTINUOUS
 62
       7
  5
739
 10
53.08705628
 20
-298.2101627
 30
0.0
 11
57.08691828
 21
-298.2101627
 31
0.0
  0
LINE
  8
2
  6
CONTINUOUS
 62
       7
  5
73A
 10
-228.90321472
 20
-292.2103697
 30
0.0
 11
-224.90335272
 21
-292.2103697
 31
0.0
  0
LINE
  8
2
  6
CONTINUOUS
 62
       7
  5
73B
 10
-224.90335272
 20
-298.2101627
 30
0.0
 11
-228.90321472
 21
-298.2101627
 31
0.0
  0
LINE
  8
2
  6
CONTINUOUS
 62
       7
  5
73C
 10
43.09185178
 20
-188.2139577
 30
0.0
 11
43.09185178
 21
-194.10969758
 31
0.0
  0
LINE
  8
2
  6
CONTINUOUS
 62
       7
  5
73D
 10
59.08684928
 20
-327.0091691
 30
0.0
 11
59.08684928
 21
-305.2099212
 31
0.0
  0
LINE
  8
2
  6
CONTINUOUS
 62
       7
  5
73E
 10
58.08688378
 20
-305.2099212
 30
0.0
 11
58.08688378
 21
-326.0091691
 31
0.0
  0
LINE
  8
2
  6
CONTINUOUS
 62
       7
  5
73F
 10
-230.90314572
 20
-305.2099212
 30
0.0
 11
-230.90314572
 21
-333.0146201
 31
0.0
  0
LINE
  8
2
  6
CONTINUOUS
 62
       7
  5
740
 10
-229.90318022
 20
-224.0146201
 30
0.0
 11
-229.90318022
 21
-326.0091691
 31
0.0
  0
LINE
  8
2
  6
CONTINUOUS
 62
       7
  5
741
 10
-231.90314572
 20
-333.0146201
 30
0.0
 11
-260.90814822
 21
-333.0146201
 31
0.0
  0
LINE
  8
2
  6
CONTINUOUS
 62
       7
  5
742
 10
-212.90376672
 20
-327.0091346
 30
0.0
 11
-212.90376672
 21
-326.0091691
 31
0.0
  0
LINE
  8
2
  6
CONTINUOUS
 62
       7
  5
743
 10
45.88730468
 20
-327.0091346
 30
0.0
 11
47.48724948
 21
-328.0091001
 31
0.0
  0
LINE
  8
2
  6
CONTINUOUS
 62
       7
  5
744
 10
60.08684928
 20
-333.0146201
 30
0.0
 11
89.09185178
 21
-333.0146201
 31
0.0
  0
LINE
  8
2
  6
CONTINUOUS
 62
       7
  5
745
 10
59.08684928
 20
-305.2099212
 30
0.0
 11
59.08684928
 21
-333.0146201
 31
0.0
  0
LINE
  8
2
  6
CONTINUOUS
 62
       7
  5
746
 10
47.48724948
 20
-328.0091001
 30
0.0
 11
50.68713908
 21
-328.0091001
 31
0.0
  0
LINE
  8
2
  6
CONTINUOUS
 62
       7
  5
747
 10
50.68713908
 20
-328.0091001
 30
0.0
 11
52.28708388
 21
-327.0091346
 31
0.0
  0
LINE
  8
2
  6
CONTINUOUS
 62
       7
  5
748
 10
41.08747028
 20
-327.0091346
 30
0.0
 11
58.08688378
 21
-327.0091346
 31
0.0
  0
LINE
  8
2
  6
CONTINUOUS
 62
       7
  5
749
 10
41.08747028
 20
-326.0091691
 30
0.0
 11
41.08747028
 21
-327.0091346
 31
0.0
  0
LINE
  8
2
  6
CONTINUOUS
 62
       7
  5
74A
 10
41.08747028
 20
-327.0091346
 30
0.0
 11
41.08747028
 21
-326.0091691
 31
0.0
  0
ARC
  8
2
  6
CONTINUOUS
 62
       7
  5
74B
 10
58.08688378
 20
-326.0091691
 30
0.0
 40
0.9999655
 50
269.99999846
 51
360.0
  0
LINE
  8
2
  6
CONTINUOUS
 62
       7
  5
74C
 10
-81.86683577
 20
-323.0092381
 30
0.0
 11
-81.86683577
 21
-321.1219451
 31
0.0
  0
LINE
  8
2
  6
CONTINUOUS
 62
       7
  5
74D
 10
-83.88749199
 20
-323.0092381
 30
0.0
 11
-83.88749199
 21
-321.1219451
 31
0.0
  0
LINE
  8
2
  6
CONTINUOUS
 62
       7
  5
74E
 10
-87.92880445
 20
-323.0092381
 30
0.0
 11
-87.92880445
 21
-321.1219451
 31
0.0
  0
LINE
  8
2
  6
CONTINUOUS
 62
       7
  5
74F
 10
-89.94946067
 20
-323.0092381
 30
0.0
 11
-89.94946067
 21
-321.1219451
 31
0.0
  0
LINE
  8
2
  6
CONTINUOUS
 62
       7
  5
750
 10
58.08688378
 20
-170.0145856
 30
0.0
 11
58.08688378
 21
-204.0146201
 31
0.0
  0
LINE
  8
2
  6
CONTINUOUS
 62
       7
  5
751
 10
58.08688378
 20
-224.0146201
 30
0.0
 11
58.08688378
 21
-305.2099212
 31
0.0
  0
LINE
  8
2
  6
CONTINUOUS
 62
       7
  5
752
 10
59.08684928
 20
-306.85564081
 30
0.0
 11
59.08684928
 21
-224.0146201
 31
0.0
  0
LINE
  8
2
  6
CONTINUOUS
 62
       7
  5
753
 10
59.08684928
 20
-204.0146201
 30
0.0
 11
59.08684928
 21
-170.0145856
 31
0.0
  0
LINE
  8
2
  6
CONTINUOUS
 62
       7
  5
754
 10
-229.90318022
 20
-170.0145856
 30
0.0
 11
-229.90318022
 21
-204.0146201
 31
0.0
  0
LINE
  8
2
  6
CONTINUOUS
 62
       7
  5
755
 10
-230.90314572
 20
-170.0145856
 30
0.0
 11
-230.90314572
 21
-204.0146201
 31
0.0
  0
LINE
  8
2
  6
CONTINUOUS
 62
       7
  5
756
 10
-230.90314572
 20
-224.0146201
 30
0.0
 11
-230.90314572
 21
-305.2099212
 31
0.0
  0
LINE
  8
2
  6
CONTINUOUS
 62
       7
  5
757
 10
-87.30809992
 20
-320.8093485
 30
0.0
 11
-87.30809992
 21
-320.0094106
 31
0.0
  0
LINE
  8
2
  6
CONTINUOUS
 62
       7
  5
758
 10
-84.50819652
 20
-320.0094106
 30
0.0
 11
-84.50819652
 21
-320.8093485
 31
0.0
  0
LINE
  8
2
  6
CONTINUOUS
 62
       7
  5
759
 10
-87.30809992
 20
-314.70959345
 30
0.0
 11
-87.30809992
 21
-308.6098039
 31
0.0
  0
LINE
  8
2
  6
CONTINUOUS
 62
       7
  5
75A
 10
-84.50819652
 20
-308.4098108
 30
0.0
 11
-84.50819652
 21
-314.70959345
 31
0.0
  0
LINE
  8
2
  6
CONTINUOUS
 62
       7
  5
75B
 10
-84.50819652
 20
-315.70955895
 30
0.0
 11
-84.50819652
 21
-317.2095072
 31
0.0
  0
LINE
  8
2
  6
CONTINUOUS
 62
       7
  5
75C
 10
-87.30809992
 20
-317.2095072
 30
0.0
 11
-87.30809992
 21
-315.70955895
 31
0.0
  0
LINE
  8
2
  6
CONTINUOUS
 62
       7
  5
75D
 10
-23.78021615
 20
386.61554292
 30
0.0
 11
-23.83576979
 21
386.61245184
 31
0.0
  0
LINE
  8
2
  6
CONTINUOUS
 62
       7
  5
75E
 10
-23.78021615
 20
383.4656516
 30
0.0
 11
-23.83576979
 21
383.46256051
 31
0.0
  0
LINE
  8
2
  6
CONTINUOUS
 62
       7
  5
75F
 10
-23.78021615
 20
380.31576027
 30
0.0
 11
-23.83576979
 21
380.31266919
 31
0.0
  0
LINE
  8
2
  6
CONTINUOUS
 62
       7
  5
760
 10
439.34920508
 20
372.76277373
 30
0.0
 11
439.34920508
 21
366.76298073
 31
0.0
  0
LINE
  8
2
  6
CONTINUOUS
 62
       7
  5
761
 10
-10.91073572
 20
-305.22361764
 30
0.0
 11
-44.90956272
 21
-305.22361764
 31
0.0
  0
LINE
  8
2
  6
CONTINUOUS
 62
       7
  5
762
 10
-55.90918322
 20
-306.70986945
 30
0.0
 11
-55.90918322
 21
-305.2099212
 31
0.0
  0
LINE
  8
2
  6
CONTINUOUS
 62
       7
  5
763
 10
445.34899808
 20
327.76432623
 30
0.0
 11
445.34899808
 21
321.76453323
 31
0.0
  0
LINE
  8
2
  6
CONTINUOUS
 62
       7
  5
764
 10
436.84929133
 20
374.76270473
 30
0.0
 11
436.84929133
 21
253.76687923
 31
0.0
  0
LINE
  8
2
  6
CONTINUOUS
 62
       7
  5
765
 10
320.85329333
 20
376.76263573
 30
0.0
 11
434.84936033
 21
376.76263573
 31
0.0
  0
LINE
  8
2
  6
CONTINUOUS
 62
       7
  5
766
 10
-224.10338032
 20
-327.0091346
 30
0.0
 11
-217.70360112
 21
-327.0091346
 31
0.0
  0
LINE
  8
2
  6
CONTINUOUS
 62
       7
  5
767
 10
-16.91052872
 20
-326.0092036
 30
0.0
 11
-20.91039072
 21
-326.0092036
 31
0.0
  0
LINE
  8
2
  6
CONTINUOUS
 62
       7
  5
768
 10
-34.90990772
 20
-326.0092036
 30
0.0
 11
-38.90976972
 21
-326.0092036
 31
0.0
  0
LINE
  8
2
  6
CONTINUOUS
 62
       7
  5
769
 10
-228.90321472
 20
-310.0097556
 30
0.0
 11
-228.90321472
 21
-316.0095486
 31
0.0
  0
LINE
  8
2
  6
CONTINUOUS
 62
       7
  5
76A
 10
57.08691828
 20
-298.2101627
 30
0.0
 11
57.08691828
 21
-292.2103697
 31
0.0
  0
LINE
  8
2
  6
CONTINUOUS
 62
       7
  5
76B
 10
57.08691828
 20
-316.0095486
 30
0.0
 11
57.08691828
 21
-310.0097556
 31
0.0
  0
LINE
  8
2
  6
CONTINUOUS
 62
       7
  5
76C
 10
32.09223128
 20
-176.2143717
 30
0.0
 11
32.09223128
 21
-174.2144407
 31
0.0
  0
ARC
  8
2
  6
CONTINUOUS
 62
       7
  5
76D
 10
-85.82148454
 20
-317.96281454
 30
0.0
 40
6.4536926
 50
71.01030162
 51
72.75484302
  0
ARC
  8
2
  6
CONTINUOUS
 62
       7
  5
76E
 10
-85.9948119
 20
-317.96281454
 30
0.0
 40
6.4536926
 50
107.03914134
 51
108.98970145
  0
LINE
  8
2
  6
CONTINUOUS
 62
       7
  5
76F
 10
52.28708388
 20
-327.0091346
 30
0.0
 11
45.88730468
 21
-327.0091346
 31
0.0
  0
LINE
  8
2
  6
PHANTOM2
 62
       7
  5
770
 10
442.1768853
 20
35.71740958
 30
0.0
 11
451.1765748
 21
36.2181657
 31
0.0
  0
LINE
  8
2
  6
PHANTOM2
 62
       7
  5
771
 10
442.12133167
 20
36.71583073
 30
0.0
 11
444.64902223
 21
36.85647519
 31
0.0
  0
LINE
  8
2
  6
PHANTOM2
 62
       7
  5
772
 10
442.1768853
 20
30.72531577
 30
0.0
 11
451.1765748
 21
31.22607189
 31
0.0
  0
LINE
  8
2
  6
PHANTOM2
 62
       7
  5
773
 10
442.12133167
 20
31.72373692
 30
0.0
 11
451.12102117
 21
32.22449304
 31
0.0
  0
LINE
  8
2
  6
PHANTOM2
 62
       7
  5
774
 10
442.12133167
 20
35.71431849
 30
0.0
 11
442.1768853
 21
35.71740958
 31
0.0
  0
LINE
  8
2
  6
PHANTOM2
 62
       7
  5
775
 10
444.64902223
 20
36.85647519
 30
0.0
 11
451.12102117
 21
37.21658685
 31
0.0
  0
LINE
  8
2
  6
PHANTOM2
 62
       7
  5
776
 10
442.12133167
 20
30.72222468
 30
0.0
 11
442.1768853
 21
30.72531577
 31
0.0
  0
LINE
  8
2
  6
PHANTOM2
 62
       7
  5
777
 10
442.12133167
 20
139.6906229
 30
0.0
 11
442.1768853
 21
139.69371398
 31
0.0
  0
LINE
  8
2
  6
PHANTOM2
 62
       7
  5
778
 10
442.12133167
 20
134.68924866
 30
0.0
 11
442.1768853
 21
134.69233975
 31
0.0
  0
LINE
  8
2
  6
PHANTOM2
 62
       7
  5
779
 10
444.64902223
 20
145.82487341
 30
0.0
 11
451.12102117
 21
146.18498506
 31
0.0
  0
LINE
  8
2
  6
PHANTOM2
 62
       7
  5
77A
 10
442.12133167
 20
145.68422894
 30
0.0
 11
443.64905673
 21
145.76923384
 31
0.0
  0
LINE
  8
2
  6
PHANTOM2
 62
       7
  5
77B
 10
442.12133167
 20
149.68409094
 30
0.0
 11
442.1768853
 21
149.68718203
 31
0.0
  0
LINE
  8
2
  6
PHANTOM2
 62
       7
  5
77C
 10
442.12133167
 20
144.68271671
 30
0.0
 11
442.1768853
 21
144.68580779
 31
0.0
  0
LINE
  8
2
  6
PHANTOM2
 62
       7
  5
77D
 10
446.14897048
 20
30.7467993
 30
0.0
 11
446.14897048
 21
21.36156416
 31
0.0
  0
LINE
  8
2
  6
PHANTOM2
 62
       7
  5
77E
 10
447.14893598
 20
21.36156416
 30
0.0
 11
447.14893598
 21
30.80243887
 31
0.0
  0
LINE
  8
2
  6
PHANTOM2
 62
       7
  5
77F
 10
442.12133167
 20
135.6907609
 30
0.0
 11
451.12102117
 21
136.19151702
 31
0.0
  0
LINE
  8
2
  6
PHANTOM2
 62
       7
  5
780
 10
442.12133167
 20
140.69213513
 30
0.0
 11
451.12102117
 21
141.19289125
 31
0.0
  0
LINE
  8
2
  6
PHANTOM2
 62
       7
  5
781
 10
442.1768853
 20
139.69371398
 30
0.0
 11
451.1765748
 21
140.1944701
 31
0.0
  0
LINE
  8
2
  6
PHANTOM2
 62
       7
  5
782
 10
442.1768853
 20
134.69233975
 30
0.0
 11
451.1765748
 21
135.19309586
 31
0.0
  0
LINE
  8
2
  6
PHANTOM2
 62
       7
  5
783
 10
443.64905673
 20
145.76923384
 30
0.0
 11
444.64902223
 21
145.82487341
 31
0.0
  0
LINE
  8
2
  6
PHANTOM2
 62
       7
  5
784
 10
442.12133167
 20
150.68560318
 30
0.0
 11
451.12102117
 21
151.1863593
 31
0.0
  0
LINE
  8
2
  6
PHANTOM2
 62
       7
  5
785
 10
442.1768853
 20
149.68718203
 30
0.0
 11
451.1765748
 21
150.18793815
 31
0.0
  0
LINE
  8
2
  6
PHANTOM2
 62
       7
  5
786
 10
442.1768853
 20
144.68580779
 30
0.0
 11
451.1765748
 21
145.18656391
 31
0.0
  0
LINE
  8
2
  6
PHANTOM2
 62
       7
  5
787
 10
442.12133167
 20
124.69578061
 30
0.0
 11
442.1768853
 21
124.6988717
 31
0.0
  0
LINE
  8
2
  6
PHANTOM2
 62
       7
  5
788
 10
442.12133167
 20
119.69440637
 30
0.0
 11
442.1768853
 21
119.69749746
 31
0.0
  0
LINE
  8
2
  6
PHANTOM2
 62
       7
  5
789
 10
444.64902223
 20
130.83003112
 30
0.0
 11
451.12102117
 21
131.19014278
 31
0.0
  0
LINE
  8
2
  6
PHANTOM2
 62
       7
  5
78A
 10
442.12133167
 20
129.68787442
 30
0.0
 11
442.1768853
 21
129.69096551
 31
0.0
  0
LINE
  8
2
  6
PHANTOM2
 62
       7
  5
78B
 10
442.12133167
 20
120.69591861
 30
0.0
 11
451.12102117
 21
121.19667473
 31
0.0
  0
LINE
  8
2
  6
PHANTOM2
 62
       7
  5
78C
 10
442.12133167
 20
125.69729285
 30
0.0
 11
451.12102117
 21
126.19804897
 31
0.0
  0
LINE
  8
2
  6
PHANTOM2
 62
       7
  5
78D
 10
442.1768853
 20
124.6988717
 30
0.0
 11
451.1765748
 21
125.19962782
 31
0.0
  0
LINE
  8
2
  6
PHANTOM2
 62
       7
  5
78E
 10
442.1768853
 20
119.69749746
 30
0.0
 11
451.1765748
 21
120.19825358
 31
0.0
  0
LINE
  8
2
  6
PHANTOM2
 62
       7
  5
78F
 10
442.12133167
 20
130.68938666
 30
0.0
 11
444.64902223
 21
130.83003112
 31
0.0
  0
LINE
  8
2
  6
PHANTOM2
 62
       7
  5
790
 10
442.1768853
 20
129.69096551
 30
0.0
 11
451.1765748
 21
130.19172163
 31
0.0
  0
LINE
  8
2
  6
PHANTOM2
 62
       7
  5
791
 10
442.12133167
 20
109.70093832
 30
0.0
 11
442.1768853
 21
109.70402941
 31
0.0
  0
LINE
  8
2
  6
PHANTOM2
 62
       7
  5
792
 10
442.12133167
 20
104.69956409
 30
0.0
 11
442.1768853
 21
104.70265517
 31
0.0
  0
LINE
  8
2
  6
PHANTOM2
 62
       7
  5
793
 10
444.64902223
 20
115.83518884
 30
0.0
 11
451.12102117
 21
116.19530049
 31
0.0
  0
LINE
  8
2
  6
PHANTOM2
 62
       7
  5
794
 10
442.12133167
 20
114.69303213
 30
0.0
 11
442.1768853
 21
114.69612322
 31
0.0
  0
LINE
  8
2
  6
PHANTOM2
 62
       7
  5
795
 10
442.12133167
 20
105.70107632
 30
0.0
 11
451.12102117
 21
106.20183244
 31
0.0
  0
LINE
  8
2
  6
PHANTOM2
 62
       7
  5
796
 10
442.12133167
 20
110.70245056
 30
0.0
 11
451.12102117
 21
111.20320668
 31
0.0
  0
LINE
  8
2
  6
PHANTOM2
 62
       7
  5
797
 10
442.1768853
 20
109.70402941
 30
0.0
 11
451.1765748
 21
110.20478553
 31
0.0
  0
LINE
  8
2
  6
PHANTOM2
 62
       7
  5
798
 10
442.1768853
 20
104.70265517
 30
0.0
 11
451.1765748
 21
105.20341129
 31
0.0
  0
LINE
  8
2
  6
PHANTOM2
 62
       7
  5
799
 10
442.12133167
 20
115.69454437
 30
0.0
 11
444.64902223
 21
115.83518884
 31
0.0
  0
LINE
  8
2
  6
PHANTOM2
 62
       7
  5
79A
 10
442.1768853
 20
114.69612322
 30
0.0
 11
451.1765748
 21
115.19687934
 31
0.0
  0
LINE
  8
2
  6
PHANTOM2
 62
       7
  5
79B
 10
442.12133167
 20
94.70609604
 30
0.0
 11
442.1768853
 21
94.70918713
 31
0.0
  0
LINE
  8
2
  6
PHANTOM2
 62
       7
  5
79C
 10
442.12133167
 20
89.7047218
 30
0.0
 11
442.1768853
 21
89.70781289
 31
0.0
  0
LINE
  8
2
  6
PHANTOM2
 62
       7
  5
79D
 10
444.64902223
 20
100.84034655
 30
0.0
 11
451.12102117
 21
101.20045821
 31
0.0
  0
LINE
  8
2
  6
PHANTOM2
 62
       7
  5
79E
 10
442.12133167
 20
99.69818985
 30
0.0
 11
442.1768853
 21
99.70128094
 31
0.0
  0
LINE
  8
2
  6
PHANTOM2
 62
       7
  5
79F
 10
442.12133167
 20
90.70623404
 30
0.0
 11
451.12102117
 21
91.20699016
 31
0.0
  0
LINE
  8
2
  6
PHANTOM2
 62
       7
  5
7A0
 10
442.12133167
 20
95.70760828
 30
0.0
 11
451.12102117
 21
96.2083644
 31
0.0
  0
LINE
  8
2
  6
PHANTOM2
 62
       7
  5
7A1
 10
442.1768853
 20
94.70918713
 30
0.0
 11
451.1765748
 21
95.20994324
 31
0.0
  0
LINE
  8
2
  6
PHANTOM2
 62
       7
  5
7A2
 10
442.1768853
 20
89.70781289
 30
0.0
 11
451.1765748
 21
90.20856901
 31
0.0
  0
LINE
  8
2
  6
PHANTOM2
 62
       7
  5
7A3
 10
442.12133167
 20
100.69970209
 30
0.0
 11
444.64902223
 21
100.84034655
 31
0.0
  0
LINE
  8
2
  6
PHANTOM2
 62
       7
  5
7A4
 10
442.1768853
 20
99.70128094
 30
0.0
 11
451.1765748
 21
100.20203705
 31
0.0
  0
LINE
  8
2
  6
PHANTOM2
 62
       7
  5
7A5
 10
442.12133167
 20
79.71125375
 30
0.0
 11
442.1768853
 21
79.71434484
 31
0.0
  0
LINE
  8
2
  6
PHANTOM2
 62
       7
  5
7A6
 10
442.12133167
 20
74.70987951
 30
0.0
 11
442.1768853
 21
74.7129706
 31
0.0
  0
LINE
  8
2
  6
PHANTOM2
 62
       7
  5
7A7
 10
444.64902223
 20
85.84550427
 30
0.0
 11
451.12102117
 21
86.20561592
 31
0.0
  0
LINE
  8
2
  6
PHANTOM2
 62
       7
  5
7A8
 10
442.12133167
 20
84.70334756
 30
0.0
 11
442.1768853
 21
84.70643865
 31
0.0
  0
LINE
  8
2
  6
PHANTOM2
 62
       7
  5
7A9
 10
442.12133167
 20
75.71139175
 30
0.0
 11
451.12102117
 21
76.21214787
 31
0.0
  0
LINE
  8
2
  6
PHANTOM2
 62
       7
  5
7AA
 10
442.12133167
 20
80.71276599
 30
0.0
 11
451.12102117
 21
81.21352211
 31
0.0
  0
LINE
  8
2
  6
PHANTOM2
 62
       7
  5
7AB
 10
442.1768853
 20
79.71434484
 30
0.0
 11
451.1765748
 21
80.21510096
 31
0.0
  0
LINE
  8
2
  6
PHANTOM2
 62
       7
  5
7AC
 10
442.1768853
 20
74.7129706
 30
0.0
 11
451.1765748
 21
75.21372672
 31
0.0
  0
LINE
  8
2
  6
PHANTOM2
 62
       7
  5
7AD
 10
442.12133167
 20
85.7048598
 30
0.0
 11
444.64902223
 21
85.84550427
 31
0.0
  0
LINE
  8
2
  6
PHANTOM2
 62
       7
  5
7AE
 10
442.1768853
 20
84.70643865
 30
0.0
 11
451.1765748
 21
85.20719477
 31
0.0
  0
LINE
  8
2
  6
PHANTOM2
 62
       7
  5
7AF
 10
442.12133167
 20
64.71641147
 30
0.0
 11
442.1768853
 21
64.71950255
 31
0.0
  0
LINE
  8
2
  6
PHANTOM2
 62
       7
  5
7B0
 10
442.12133167
 20
59.71503723
 30
0.0
 11
442.1768853
 21
59.71812832
 31
0.0
  0
LINE
  8
2
  6
PHANTOM2
 62
       7
  5
7B1
 10
444.64902223
 20
70.85066198
 30
0.0
 11
451.12102117
 21
71.21077363
 31
0.0
  0
LINE
  8
2
  6
PHANTOM2
 62
       7
  5
7B2
 10
442.12133167
 20
69.70850528
 30
0.0
 11
442.1768853
 21
69.71159636
 31
0.0
  0
LINE
  8
2
  6
PHANTOM2
 62
       7
  5
7B3
 10
442.12133167
 20
60.71654947
 30
0.0
 11
451.12102117
 21
61.21730559
 31
0.0
  0
LINE
  8
2
  6
PHANTOM2
 62
       7
  5
7B4
 10
442.12133167
 20
65.7179237
 30
0.0
 11
451.12102117
 21
66.21867982
 31
0.0
  0
LINE
  8
2
  6
PHANTOM2
 62
       7
  5
7B5
 10
442.1768853
 20
64.71950255
 30
0.0
 11
451.1765748
 21
65.22025867
 31
0.0
  0
LINE
  8
2
  6
PHANTOM2
 62
       7
  5
7B6
 10
442.1768853
 20
59.71812832
 30
0.0
 11
451.1765748
 21
60.21888443
 31
0.0
  0
LINE
  8
2
  6
PHANTOM2
 62
       7
  5
7B7
 10
442.12133167
 20
70.71001751
 30
0.0
 11
444.64902223
 21
70.85066198
 31
0.0
  0
LINE
  8
2
  6
PHANTOM2
 62
       7
  5
7B8
 10
442.1768853
 20
69.71159636
 30
0.0
 11
451.1765748
 21
70.21235248
 31
0.0
  0
LINE
  8
2
  6
PHANTOM2
 62
       7
  5
7B9
 10
442.12133167
 20
49.72156918
 30
0.0
 11
442.1768853
 21
49.72466027
 31
0.0
  0
LINE
  8
2
  6
PHANTOM2
 62
       7
  5
7BA
 10
444.64902223
 20
55.85581969
 30
0.0
 11
451.12102117
 21
56.21593135
 31
0.0
  0
LINE
  8
2
  6
PHANTOM2
 62
       7
  5
7BB
 10
442.12133167
 20
54.71366299
 30
0.0
 11
442.1768853
 21
54.71675408
 31
0.0
  0
LINE
  8
2
  6
PHANTOM2
 62
       7
  5
7BC
 10
442.12133167
 20
50.72308142
 30
0.0
 11
451.12102117
 21
51.22383754
 31
0.0
  0
LINE
  8
2
  6
PHANTOM2
 62
       7
  5
7BD
 10
442.1768853
 20
49.72466027
 30
0.0
 11
451.1765748
 21
50.22541639
 31
0.0
  0
LINE
  8
2
  6
PHANTOM2
 62
       7
  5
7BE
 10
442.12133167
 20
55.71517523
 30
0.0
 11
444.64902223
 21
55.85581969
 31
0.0
  0
LINE
  8
2
  6
PHANTOM2
 62
       7
  5
7BF
 10
442.1768853
 20
54.71675408
 30
0.0
 11
451.1765748
 21
55.2175102
 31
0.0
  0
LINE
  8
2
  6
PHANTOM2
 62
       7
  5
7C0
 10
442.12133167
 20
35.7189587
 30
0.0
 11
442.1768853
 21
35.72204979
 31
0.0
  0
LINE
  8
2
  6
PHANTOM2
 62
       7
  5
7C1
 10
442.1768853
 20
44.73256646
 30
0.0
 11
451.1765748
 21
45.23332258
 31
0.0
  0
LINE
  8
2
  6
PHANTOM2
 62
       7
  5
7C2
 10
442.12133167
 20
45.73098761
 30
0.0
 11
451.12102117
 21
46.23174373
 31
0.0
  0
LINE
  8
2
  6
PHANTOM2
 62
       7
  5
7C3
 10
442.12133167
 20
44.72947537
 30
0.0
 11
442.1768853
 21
44.73256646
 31
0.0
  0
LINE
  8
2
  6
PHANTOM2
 62
       7
  5
7C4
 10
442.12133167
 20
39.73738156
 30
0.0
 11
442.1768853
 21
39.74047265
 31
0.0
  0
LINE
  8
2
  6
PHANTOM2
 62
       7
  5
7C5
 10
442.12133167
 20
40.7388938
 30
0.0
 11
451.12102117
 21
41.23964992
 31
0.0
  0
LINE
  8
2
  6
PHANTOM2
 62
       7
  5
7C6
 10
442.1768853
 20
39.74047265
 30
0.0
 11
451.1765748
 21
40.24122877
 31
0.0
  0
ARC
  8
2
  6
PHANTOM2
 62
       7
  5
7C7
 10
442.14910848
 20
36.21662015
 30
0.0
 40
0.49998275
 50
93.18474013
 51
273.18473706
  0
ARC
  8
2
  6
PHANTOM2
 62
       7
  5
7C8
 10
451.14879798
 20
36.71737627
 30
0.0
 40
0.49998275
 50
273.18473706
 51
453.18474013
  0
ARC
  8
2
  6
PHANTOM2
 62
       7
  5
7C9
 10
442.14910848
 20
31.22452634
 30
0.0
 40
0.49998275
 50
93.18474013
 51
273.18473706
  0
ARC
  8
2
  6
PHANTOM2
 62
       7
  5
7CA
 10
451.14879798
 20
31.72528246
 30
0.0
 40
0.49998275
 50
273.18473706
 51
453.18474013
  0
ARC
  8
2
  6
PHANTOM2
 62
       7
  5
7CB
 10
451.14879798
 20
140.69368068
 30
0.0
 40
0.49998275
 50
273.18473706
 51
453.18474013
  0
ARC
  8
2
  6
PHANTOM2
 62
       7
  5
7CC
 10
451.14879798
 20
135.69230644
 30
0.0
 40
0.49998275
 50
273.18473706
 51
453.18474013
  0
ARC
  8
2
  6
PHANTOM2
 62
       7
  5
7CD
 10
442.14910848
 20
135.19155032
 30
0.0
 40
0.49998275
 50
93.18474013
 51
273.18473706
  0
ARC
  8
2
  6
PHANTOM2
 62
       7
  5
7CE
 10
442.14910848
 20
140.19292456
 30
0.0
 40
0.49998275
 50
93.18474013
 51
273.18473706
  0
ARC
  8
2
  6
PHANTOM2
 62
       7
  5
7CF
 10
451.14879798
 20
150.68714873
 30
0.0
 40
0.49998275
 50
273.18473706
 51
453.18474013
  0
ARC
  8
2
  6
PHANTOM2
 62
       7
  5
7D0
 10
442.14910848
 20
150.18639261
 30
0.0
 40
0.49998275
 50
93.18474013
 51
273.18473706
  0
ARC
  8
2
  6
PHANTOM2
 62
       7
  5
7D1
 10
451.14879798
 20
145.68577449
 30
0.0
 40
0.49998275
 50
273.18473706
 51
453.18474013
  0
ARC
  8
2
  6
PHANTOM2
 62
       7
  5
7D2
 10
442.14910848
 20
145.18501837
 30
0.0
 40
0.49998275
 50
93.18474013
 51
273.18473706
  0
ARC
  8
2
  6
PHANTOM2
 62
       7
  5
7D3
 10
446.64895323
 20
21.36156416
 30
0.0
 40
0.49998275
 50
179.99999693
 51
360.0
  0
ARC
  8
2
  6
PHANTOM2
 62
       7
  5
7D4
 10
451.14879798
 20
125.69883839
 30
0.0
 40
0.49998275
 50
273.18473706
 51
453.18474013
  0
ARC
  8
2
  6
PHANTOM2
 62
       7
  5
7D5
 10
451.14879798
 20
120.69746415
 30
0.0
 40
0.49998275
 50
273.18473706
 51
453.18474013
  0
ARC
  8
2
  6
PHANTOM2
 62
       7
  5
7D6
 10
442.14910848
 20
120.19670804
 30
0.0
 40
0.49998275
 50
93.18474013
 51
273.18473706
  0
ARC
  8
2
  6
PHANTOM2
 62
       7
  5
7D7
 10
442.14910848
 20
125.19808227
 30
0.0
 40
0.49998275
 50
93.18474013
 51
273.18473706
  0
ARC
  8
2
  6
PHANTOM2
 62
       7
  5
7D8
 10
451.14879798
 20
130.6909322
 30
0.0
 40
0.49998275
 50
273.18473706
 51
453.18474013
  0
ARC
  8
2
  6
PHANTOM2
 62
       7
  5
7D9
 10
451.14879798
 20
110.70399611
 30
0.0
 40
0.49998275
 50
273.18473706
 51
453.18474013
  0
ARC
  8
2
  6
PHANTOM2
 62
       7
  5
7DA
 10
451.14879798
 20
105.70262187
 30
0.0
 40
0.49998275
 50
273.18473706
 51
453.18474013
  0
ARC
  8
2
  6
PHANTOM2
 62
       7
  5
7DB
 10
442.14910848
 20
105.20186575
 30
0.0
 40
0.49998275
 50
93.18474013
 51
273.18473706
  0
ARC
  8
2
  6
PHANTOM2
 62
       7
  5
7DC
 10
442.14910848
 20
110.20323999
 30
0.0
 40
0.49998275
 50
93.18474013
 51
273.18473706
  0
ARC
  8
2
  6
PHANTOM2
 62
       7
  5
7DD
 10
451.14879798
 20
115.69608992
 30
0.0
 40
0.49998275
 50
273.18473706
 51
453.18474013
  0
ARC
  8
2
  6
PHANTOM2
 62
       7
  5
7DE
 10
442.14910848
 20
115.1953338
 30
0.0
 40
0.49998275
 50
93.18474013
 51
273.18473706
  0
ARC
  8
2
  6
PHANTOM2
 62
       7
  5
7DF
 10
451.14879798
 20
95.70915382
 30
0.0
 40
0.49998275
 50
273.18473706
 51
453.18474013
  0
ARC
  8
2
  6
PHANTOM2
 62
       7
  5
7E0
 10
451.14879798
 20
90.70777958
 30
0.0
 40
0.49998275
 50
273.18473706
 51
453.18474013
  0
ARC
  8
2
  6
PHANTOM2
 62
       7
  5
7E1
 10
442.14910848
 20
90.20702346
 30
0.0
 40
0.49998275
 50
93.18474013
 51
273.18473706
  0
ARC
  8
2
  6
PHANTOM2
 62
       7
  5
7E2
 10
442.14910848
 20
95.2083977
 30
0.0
 40
0.49998275
 50
93.18474013
 51
273.18473706
  0
ARC
  8
2
  6
PHANTOM2
 62
       7
  5
7E3
 10
451.14879798
 20
100.70124763
 30
0.0
 40
0.49998275
 50
273.18473706
 51
453.18474013
  0
ARC
  8
2
  6
PHANTOM2
 62
       7
  5
7E4
 10
442.14910848
 20
100.20049151
 30
0.0
 40
0.49998275
 50
93.18474013
 51
273.18473706
  0
ARC
  8
2
  6
PHANTOM2
 62
       7
  5
7E5
 10
451.14879798
 20
80.71431153
 30
0.0
 40
0.49998275
 50
273.18473706
 51
453.18474013
  0
ARC
  8
2
  6
PHANTOM2
 62
       7
  5
7E6
 10
451.14879798
 20
75.7129373
 30
0.0
 40
0.49998275
 50
273.18473706
 51
453.18474013
  0
ARC
  8
2
  6
PHANTOM2
 62
       7
  5
7E7
 10
442.14910848
 20
75.21218118
 30
0.0
 40
0.49998275
 50
93.18474013
 51
273.18473706
  0
ARC
  8
2
  6
PHANTOM2
 62
       7
  5
7E8
 10
442.14910848
 20
80.21355541
 30
0.0
 40
0.49998275
 50
93.18474013
 51
273.18473706
  0
ARC
  8
2
  6
PHANTOM2
 62
       7
  5
7E9
 10
451.14879798
 20
85.70640534
 30
0.0
 40
0.49998275
 50
273.18473706
 51
453.18474013
  0
ARC
  8
2
  6
PHANTOM2
 62
       7
  5
7EA
 10
442.14910848
 20
85.20564922
 30
0.0
 40
0.49998275
 50
93.18474013
 51
273.18473706
  0
ARC
  8
2
  6
PHANTOM2
 62
       7
  5
7EB
 10
451.14879798
 20
65.71946925
 30
0.0
 40
0.49998275
 50
273.18473706
 51
453.18474013
  0
ARC
  8
2
  6
PHANTOM2
 62
       7
  5
7EC
 10
451.14879798
 20
60.71809501
 30
0.0
 40
0.49998275
 50
273.18473706
 51
453.18474013
  0
ARC
  8
2
  6
PHANTOM2
 62
       7
  5
7ED
 10
442.14910848
 20
60.21733889
 30
0.0
 40
0.49998275
 50
93.18474013
 51
273.18473706
  0
ARC
  8
2
  6
PHANTOM2
 62
       7
  5
7EE
 10
442.14910848
 20
65.21871313
 30
0.0
 40
0.49998275
 50
93.18474013
 51
273.18473706
  0
ARC
  8
2
  6
PHANTOM2
 62
       7
  5
7EF
 10
451.14879798
 20
70.71156306
 30
0.0
 40
0.49998275
 50
273.18473706
 51
453.18474013
  0
ARC
  8
2
  6
PHANTOM2
 62
       7
  5
7F0
 10
442.14910848
 20
70.21080694
 30
0.0
 40
0.49998275
 50
93.18474013
 51
273.18473706
  0
ARC
  8
2
  6
PHANTOM2
 62
       7
  5
7F1
 10
451.14879798
 20
50.72462696
 30
0.0
 40
0.49998275
 50
273.18473706
 51
453.18474013
  0
ARC
  8
2
  6
PHANTOM2
 62
       7
  5
7F2
 10
442.14910848
 20
50.22387084
 30
0.0
 40
0.49998275
 50
93.18474013
 51
273.18473706
  0
ARC
  8
2
  6
PHANTOM2
 62
       7
  5
7F3
 10
451.14879798
 20
55.71672077
 30
0.0
 40
0.49998275
 50
273.18473706
 51
453.18474013
  0
ARC
  8
2
  6
PHANTOM2
 62
       7
  5
7F4
 10
442.14910848
 20
55.21596465
 30
0.0
 40
0.49998275
 50
93.18474013
 51
273.18473706
  0
ARC
  8
2
  6
PHANTOM2
 62
       7
  5
7F5
 10
442.14910848
 20
130.19017608
 30
0.0
 40
0.49998275
 50
93.18474013
 51
273.18473706
  0
ARC
  8
2
  6
PHANTOM2
 62
       7
  5
7F6
 10
442.14910848
 20
45.23177703
 30
0.0
 40
0.49998275
 50
93.18474013
 51
273.18473706
  0
ARC
  8
2
  6
PHANTOM2
 62
       7
  5
7F7
 10
451.14879798
 20
45.73253315
 30
0.0
 40
0.49998275
 50
273.18473706
 51
453.18474013
  0
ARC
  8
2
  6
PHANTOM2
 62
       7
  5
7F8
 10
451.14879798
 20
40.74043934
 30
0.0
 40
0.49998275
 50
273.18473706
 51
453.18474013
  0
ARC
  8
2
  6
PHANTOM2
 62
       7
  5
7F9
 10
442.14910848
 20
40.23968322
 30
0.0
 40
0.49998275
 50
93.18474013
 51
273.18473706
  0
LINE
  8
2
  6
PHANTOM2
 62
       7
  5
7FA
 10
307.85374183
 20
8.77533173
 30
0.0
 11
436.84929133
 21
8.77533173
 31
0.0
  0
LINE
  8
2
  6
PHANTOM2
 62
       7
  5
7FB
 10
305.85381083
 20
232.76760373
 30
0.0
 11
305.85381083
 21
231.76763823
 31
0.0
  0
LINE
  8
2
  6
PHANTOM2
 62
       7
  5
7FC
 10
436.84929133
 20
232.76760373
 30
0.0
 11
305.85381083
 21
232.76760373
 31
0.0
  0
LINE
  8
2
  6
PHANTOM2
 62
       7
  5
7FD
 10
306.85377633
 20
11.77522823
 30
0.0
 11
306.85377633
 21
9.77529723
 31
0.0
  0
LINE
  8
2
  6
PHANTOM2
 62
       7
  5
7FE
 10
439.34920508
 20
36.77436573
 30
0.0
 11
439.34920508
 21
27.81612669
 31
0.0
  0
LINE
  8
2
  6
PHANTOM2
 62
       7
  5
7FF
 10
448.34889458
 20
46.27403798
 30
0.0
 11
439.84918783
 21
46.27403798
 31
0.0
  0
LINE
  8
2
  6
PHANTOM2
 62
       7
  5
800
 10
448.34889458
 20
47.77398623
 30
0.0
 11
448.34889458
 21
46.27403798
 31
0.0
  0
LINE
  8
2
  6
PHANTOM2
 62
       7
  5
801
 10
439.84918783
 20
47.77398623
 30
0.0
 11
448.34889458
 21
47.77398623
 31
0.0
  0
LINE
  8
2
  6
PHANTOM2
 62
       7
  5
802
 10
439.34920508
 20
8.77533173
 30
0.0
 11
455.84863583
 21
8.77533173
 31
0.0
  0
LINE
  8
2
  6
PHANTOM2
 62
       7
  5
803
 10
455.84863583
 20
8.77533173
 30
0.0
 11
455.84863583
 21
7.27538348
 31
0.0
  0
LINE
  8
2
  6
PHANTOM2
 62
       7
  5
804
 10
455.84863583
 20
7.27538348
 30
0.0
 11
438.84922233
 21
7.27538348
 31
0.0
  0
LINE
  8
2
  6
PHANTOM2
 62
       7
  5
805
 10
437.84925683
 20
20.27493498
 30
0.0
 11
437.84925683
 21
27.27469348
 31
0.0
  0
LINE
  8
2
  6
PHANTOM2
 62
       7
  5
806
 10
440.73654983
 20
25.79547046
 30
0.0
 11
438.16185344
 21
25.79547046
 31
0.0
  0
LINE
  8
2
  6
PHANTOM2
 62
       7
  5
807
 10
437.84925683
 20
27.27469348
 30
0.0
 11
438.16185344
 21
27.81612669
 31
0.0
  0
LINE
  8
2
  6
PHANTOM2
 62
       7
  5
808
 10
440.73654983
 20
27.81612669
 30
0.0
 11
438.16185344
 21
27.81612669
 31
0.0
  0
LINE
  8
2
  6
PHANTOM2
 62
       7
  5
809
 10
440.73654983
 20
21.75415801
 30
0.0
 11
438.16185344
 21
21.75415801
 31
0.0
  0
LINE
  8
2
  6
PHANTOM2
 62
       7
  5
80A
 10
438.16185344
 20
19.73350178
 30
0.0
 11
437.84925683
 21
20.27493498
 31
0.0
  0
LINE
  8
2
  6
PHANTOM2
 62
       7
  5
80B
 10
440.73654983
 20
19.73350178
 30
0.0
 11
438.16185344
 21
19.73350178
 31
0.0
  0
LINE
  8
2
  6
PHANTOM2
 62
       7
  5
80C
 10
441.04914643
 20
27.27469348
 30
0.0
 11
441.04914643
 21
20.27493498
 31
0.0
  0
LINE
  8
2
  6
PHANTOM2
 62
       7
  5
80D
 10
441.04914643
 20
20.27493498
 30
0.0
 11
440.73654983
 21
19.73350178
 31
0.0
  0
LINE
  8
2
  6
PHANTOM2
 62
       7
  5
80E
 10
440.73654983
 20
27.81612669
 30
0.0
 11
441.04914643
 21
27.27469348
 31
0.0
  0
LINE
  8
2
  6
PHANTOM2
 62
       7
  5
80F
 10
320.85329333
 20
229.76770723
 30
0.0
 11
320.85329333
 21
231.76763823
 31
0.0
  0
LINE
  8
2
  6
PHANTOM2
 62
       7
  5
810
 10
320.85329333
 20
231.76763823
 30
0.0
 11
305.85381083
 21
231.76763823
 31
0.0
  0
LINE
  8
2
  6
PHANTOM2
 62
       7
  5
811
 10
305.85381083
 20
229.76770723
 30
0.0
 11
320.85329333
 21
229.76770723
 31
0.0
  0
LINE
  8
2
  6
PHANTOM2
 62
       7
  5
812
 10
305.85381083
 20
11.77522823
 30
0.0
 11
305.85381083
 21
153.77032923
 31
0.0
  0
LINE
  8
2
  6
PHANTOM2
 62
       7
  5
813
 10
437.84925683
 20
82.77277873
 30
0.0
 11
439.84918783
 21
82.77277873
 31
0.0
  0
LINE
  8
2
  6
PHANTOM2
 62
       7
  5
814
 10
439.84918783
 20
82.77277873
 30
0.0
 11
439.84918783
 21
36.77436573
 31
0.0
  0
LINE
  8
2
  6
PHANTOM2
 62
       7
  5
815
 10
439.84918783
 20
36.77436573
 30
0.0
 11
437.84925683
 21
36.77436573
 31
0.0
  0
LINE
  8
2
  6
PHANTOM2
 62
       7
  5
816
 10
440.84915333
 20
45.77405523
 30
0.0
 11
441.84911883
 21
44.17411043
 31
0.0
  0
LINE
  8
2
  6
PHANTOM2
 62
       7
  5
817
 10
441.84911883
 20
44.17411043
 30
0.0
 11
441.84911883
 21
39.37427603
 31
0.0
  0
LINE
  8
2
  6
PHANTOM2
 62
       7
  5
818
 10
441.84911883
 20
39.37427603
 30
0.0
 11
440.84915333
 21
37.77433123
 31
0.0
  0
LINE
  8
2
  6
PHANTOM2
 62
       7
  5
819
 10
441.04914643
 20
25.77474523
 30
0.0
 11
449.84884283
 21
25.77474523
 31
0.0
  0
LINE
  8
2
  6
PHANTOM2
 62
       7
  5
81A
 10
441.04914643
 20
25.17476593
 30
0.0
 11
449.84884283
 21
25.17476593
 31
0.0
  0
LINE
  8
2
  6
PHANTOM2
 62
       7
  5
81B
 10
449.84884283
 20
22.37486253
 30
0.0
 11
441.04914643
 21
22.37486253
 31
0.0
  0
LINE
  8
2
  6
PHANTOM2
 62
       7
  5
81C
 10
449.84884283
 20
21.77488323
 30
0.0
 11
441.04914643
 21
21.77488323
 31
0.0
  0
LINE
  8
2
  6
PHANTOM2
 62
       7
  5
81D
 10
450.33833277
 20
22.52987731
 30
0.0
 11
452.00988279
 21
21.81427267
 31
0.0
  0
LINE
  8
2
  6
PHANTOM2
 62
       7
  5
81E
 10
452.00988279
 20
25.7353558
 30
0.0
 11
450.33833277
 21
25.01975116
 31
0.0
  0
LINE
  8
2
  6
PHANTOM2
 62
       7
  5
81F
 10
449.84884283
 20
28.32858204
 30
0.0
 11
449.84884283
 21
27.46785804
 31
0.0
  0
LINE
  8
2
  6
PHANTOM2
 62
       7
  5
820
 10
450.40882351
 20
28.47465208
 30
0.0
 11
450.40882351
 21
19.07497638
 31
0.0
  0
LINE
  8
2
  6
PHANTOM2
 62
       7
  5
821
 10
450.33833277
 20
25.01975116
 30
0.0
 11
449.84884283
 21
23.77481423
 31
0.0
  0
LINE
  8
2
  6
PHANTOM2
 62
       7
  5
822
 10
449.84884283
 20
23.77481423
 30
0.0
 11
450.33833277
 21
22.52987731
 31
0.0
  0
LINE
  8
2
  6
PHANTOM2
 62
       7
  5
823
 10
450.40882351
 20
28.47465208
 30
0.0
 11
449.84884283
 21
28.32858204
 31
0.0
  0
LINE
  8
2
  6
PHANTOM2
 62
       7
  5
824
 10
449.84884283
 20
19.22104643
 30
0.0
 11
450.40882351
 21
19.07497638
 31
0.0
  0
LINE
  8
2
  6
PHANTOM2
 62
       7
  5
825
 10
449.84884283
 20
27.46785804
 30
0.0
 11
449.84884283
 21
19.22104643
 31
0.0
  0
LINE
  8
2
  6
PHANTOM2
 62
       7
  5
826
 10
439.34920508
 20
19.73350178
 30
0.0
 11
439.34920508
 21
8.77533173
 31
0.0
  0
LINE
  8
2
  6
PHANTOM2
 62
       7
  5
827
 10
440.84915333
 20
37.27434848
 30
0.0
 11
439.84918783
 21
37.27434848
 31
0.0
  0
LINE
  8
2
  6
PHANTOM2
 62
       7
  5
828
 10
440.84915333
 20
46.27403798
 30
0.0
 11
440.84915333
 21
37.27434848
 31
0.0
  0
LINE
  8
2
  6
PHANTOM2
 62
       7
  5
829
 10
439.84918783
 20
46.27403798
 30
0.0
 11
440.84915333
 21
46.27403798
 31
0.0
  0
LINE
  8
2
  6
PHANTOM2
 62
       7
  5
82A
 10
306.85377633
 20
11.77522823
 30
0.0
 11
305.85381083
 21
11.77522823
 31
0.0
  0
LINE
  8
2
  6
PHANTOM2
 62
       7
  5
82B
 10
437.84925683
 20
153.27034648
 30
0.0
 11
437.84925683
 21
231.76763823
 31
0.0
  0
LINE
  8
2
  6
PHANTOM2
 62
       7
  5
82C
 10
305.85381083
 20
153.77032923
 30
0.0
 11
305.85381083
 21
229.76770723
 31
0.0
  0
LINE
  8
2
  6
PHANTOM2
 62
       7
  5
82D
 10
437.84925683
 20
9.77529723
 30
0.0
 11
437.84925683
 21
153.27034648
 31
0.0
  0
ARC
  8
2
  6
PHANTOM2
 62
       7
  5
82E
 10
436.84929133
 20
9.77529723
 30
0.0
 40
0.9999655
 50
269.99999846
 51
360.0
  0
ARC
  8
2
  6
PHANTOM2
 62
       7
  5
82F
 10
307.85374183
 20
9.77529723
 30
0.0
 40
0.9999655
 50
179.99999693
 51
269.99999846
  0
ARC
  8
2
  6
PHANTOM2
 62
       7
  5
830
 10
436.84929133
 20
231.76763823
 30
0.0
 40
0.9999655
 50
0.0
 51
90.00000154
  0
ARC
  8
2
  6
PHANTOM2
 62
       7
  5
831
 10
438.84922233
 20
8.27534898
 30
0.0
 40
0.9999655
 50
179.99999693
 51
269.99999846
  0
ARC
  8
2
  6
PHANTOM2
 62
       7
  5
832
 10
444.53641873
 20
23.77481423
 30
0.0
 40
6.68716189
 50
162.412049
 51
197.587951
  0
ARC
  8
2
  6
PHANTOM2
 62
       7
  5
833
 10
439.63827104
 20
20.74382989
 30
0.0
 40
1.7890142
 50
145.61575502
 51
179.99999693
  0
ARC
  8
2
  6
PHANTOM2
 62
       7
  5
834
 10
434.36198454
 20
23.77481423
 30
0.0
 40
6.68716189
 50
342.41204593
 51
377.58795407
  0
ARC
  8
2
  6
PHANTOM2
 62
       7
  5
835
 10
439.26013223
 20
26.80579858
 30
0.0
 40
1.7890142
 50
325.61575195
 51
360.0
  0
ARC
  8
2
  6
PHANTOM2
 62
       7
  5
836
 10
439.26013223
 20
20.74382989
 30
0.0
 40
1.7890142
 50
360.0
 51
394.38424805
  0
ARC
  8
2
  6
PHANTOM2
 62
       7
  5
837
 10
439.63827104
 20
26.80579858
 30
0.0
 40
1.7890142
 50
179.99999693
 51
214.38424498
  0
ARC
  8
2
  6
PHANTOM2
 62
       7
  5
838
 10
445.89564589
 20
23.68815056
 30
0.0
 40
6.4536926
 50
324.48625435
 51
337.28506674
  0
ARC
  8
2
  6
PHANTOM2
 62
       7
  5
839
 10
445.89564589
 20
23.86147791
 30
0.0
 40
6.4536926
 50
359.23057813
 51
405.62775995
  0
ARC
  8
2
  6
PHANTOM2
 62
       7
  5
83A
 10
445.89564589
 20
23.68815056
 30
0.0
 40
6.4536926
 50
337.28506674
 51
360.76942187
  0
ARC
  8
2
  6
PHANTOM2
 62
       7
  5
83B
 10
445.89564589
 20
23.68815056
 30
0.0
 40
6.4536926
 50
314.37224005
 51
324.48625435
  0
LINE
  8
2
  6
PHANTOM2
 62
       7
  5
83C
 10
-101.30531922
 20
8.77032923
 30
0.0
 11
-101.30531922
 21
6.2914286
 31
0.0
  0
LINE
  8
2
  6
PHANTOM2
 62
       7
  5
83D
 10
-101.30531922
 20
6.2914286
 30
0.0
 11
62.68902278
 21
6.2914286
 31
0.0
  0
LINE
  8
2
  6
PHANTOM2
 62
       7
  5
83E
 10
62.68902278
 20
6.2914286
 30
0.0
 11
62.68902278
 21
8.77032923
 31
0.0
  0
LINE
  8
2
  6
CENTER
 62
       7
  5
83F
 10
-25.56393239
 20
393.76204923
 30
0.0
 11
-13.05236405
 21
393.76204923
 31
0.0
  0
LINE
  8
2
  6
CENTER
 62
       7
  5
840
 10
372.35151658
 20
402.68390977
 30
0.0
 11
372.35151658
 21
136.42093144
 31
0.0
  0
LINE
  8
2
  6
CENTER
 62
       7
  5
841
 10
41.58620552
 20
-313.2096452
 30
0.0
 11
62.0646254
 21
-313.2096452
 31
0.0
  0
LINE
  8
2
  6
CENTER
 62
       7
  5
842
 10
-110.90728572
 20
-320.10497974
 30
0.0
 11
-110.90728572
 21
-304.80550759
 31
0.0
  0
LINE
  8
2
  6
CENTER
 62
       7
  5
843
 10
53.08705628
 20
-239.71218095
 30
0.0
 11
-224.90335272
 21
-239.71218095
 31
0.0
  0
LINE
  8
2
  6
CENTER
 62
       7
  5
844
 10
-213.40250196
 20
-313.2096452
 30
0.0
 11
-233.88092184
 21
-313.2096452
 31
0.0
  0
LINE
  8
2
  6
CENTER
 62
       7
  5
845
 10
-60.90901072
 20
-320.10497974
 30
0.0
 11
-60.90901072
 21
-304.80550759
 31
0.0
  0
LINE
  8
2
  6
CENTER
 62
       7
  5
846
 10
23.54741109
 20
-214.0146201
 30
0.0
 11
62.61211162
 21
-214.0146201
 31
0.0
  0
LINE
  8
2
  6
PHANTOM
 62
       7
  5
847
 10
-0.91108072
 20
-305.2099212
 30
0.0
 11
-54.90921772
 21
-305.2099212
 31
0.0
  0
LINE
  8
2
  6
DASHED
 62
       7
  5
848
 10
10.69081678
 20
377.76260123
 30
0.0
 11
-49.30711322
 21
377.76260123
 31
0.0
  0
LINE
  8
2
  6
DASHED
 62
       7
  5
849
 10
47.48724948
 20
-325.0092036
 30
0.0
 11
47.43437453
 21
-325.0092036
 31
0.0
  0
LINE
  8
2
  6
DASHED
 62
       7
  5
84A
 10
50.74001402
 20
-325.0092036
 30
0.0
 11
50.68713908
 21
-325.0092036
 31
0.0
  0
LINE
  8
1
  6
CONTINUOUS
 62
       7
  5
84B
 10
-164.30314572
 20
150.47032923
 30
0.0
 11
-152.30314572
 21
150.47032923
 31
0.0
  0
LINE
  8
1
  6
CONTINUOUS
 62
       7
  5
84C
 10
125.68684928
 20
150.47032923
 30
0.0
 11
113.68684928
 21
150.47032923
 31
0.0
  0
LINE
  8
1
  6
CONTINUOUS
 62
       7
  5
84D
 10
351.65395573
 20
161.36552215
 30
0.0
 11
351.65395573
 21
156.16611092
 31
0.0
  0
LINE
  8
1
  6
CONTINUOUS
 62
       7
  5
84E
 10
349.77713997
 20
156.94351347
 30
0.0
 11
353.5307715
 21
160.697145
 31
0.0
  0
LINE
  8
1
  6
CONTINUOUS
 62
       7
  5
84F
 10
349.77713997
 20
160.697145
 30
0.0
 11
353.5307715
 21
156.94351347
 31
0.0
  0
LINE
  8
1
  6
CONTINUOUS
 62
       7
  5
850
 10
341.65395573
 20
161.36552215
 30
0.0
 11
341.65395573
 21
156.16611092
 31
0.0
  0
LINE
  8
1
  6
CONTINUOUS
 62
       7
  5
851
 10
343.5307715
 20
156.94351347
 30
0.0
 11
339.77713997
 21
160.697145
 31
0.0
  0
LINE
  8
1
  6
CONTINUOUS
 62
       7
  5
852
 10
343.5307715
 20
160.697145
 30
0.0
 11
339.77713997
 21
156.94351347
 31
0.0
  0
LINE
  8
1
  6
CONTINUOUS
 62
       7
  5
853
 10
36.07526495
 20
-209.10969758
 30
0.0
 11
46.09185178
 21
-209.10969758
 31
0.0
  0
LINE
  8
1
  6
CONTINUOUS
 62
       7
  5
854
 10
46.09185178
 20
-219.10969758
 30
0.0
 11
36.58684928
 21
-219.10969758
 31
0.0
  0
LINE
  8
1
  6
CONTINUOUS
 62
       7
  5
855
 10
33.58684928
 20
-212.10969758
 30
0.0
 11
33.58684928
 21
-216.10969758
 31
0.0
  0
ARC
  8
1
  6
CONTINUOUS
 62
       7
  5
856
 10
36.58684928
 20
-212.10969758
 30
0.0
 40
3.0
 50
90.00000154
 51
180.00000307
  0
ARC
  8
1
  6
CONTINUOUS
 62
       7
  5
857
 10
36.58684928
 20
-216.10969758
 30
0.0
 40
3.0
 50
180.00000307
 51
269.99999846
  0
LINE
  8
1
  6
CONTINUOUS
 62
       7
  5
858
 10
-207.89156139
 20
-209.10969758
 30
0.0
 11
-217.90814822
 21
-209.10969758
 31
0.0
  0
ARC
  8
1
  6
CONTINUOUS
 62
       7
  5
859
 10
-208.40314572
 20
-212.10969758
 30
0.0
 40
3.0
 50
0.0
 51
90.00000154
  0
LINE
  8
1
  6
CONTINUOUS
 62
       7
  5
85A
 10
-205.40314572
 20
-212.10969758
 30
0.0
 11
-205.40314572
 21
-216.10969758
 31
0.0
  0
ARC
  8
1
  6
CONTINUOUS
 62
       7
  5
85B
 10
-208.40314572
 20
-216.10969758
 30
0.0
 40
3.0
 50
269.99999846
 51
360.0
  0
LINE
  8
1
  6
CONTINUOUS
 62
       7
  5
85C
 10
-217.90814822
 20
-219.10969758
 30
0.0
 11
-208.40314572
 21
-219.10969758
 31
0.0
  0
LINE
  8
1
  6
CONTINUOUS
 62
       7
  5
85D
 10
-158.30335272
 20
494.20358357
 30
0.0
 11
119.68705628
 21
494.20358357
 31
0.0
  0
LINE
  8
1
  6
CONTINUOUS
 62
       7
  5
85E
 10
-158.30335272
 20
494.20358357
 30
0.0
 11
-146.07650771
 21
491.60468743
 31
0.0
  0
LINE
  8
1
  6
CONTINUOUS
 62
       7
  5
85F
 10
-158.30335272
 20
494.20358357
 30
0.0
 11
-146.07650771
 21
496.80247971
 31
0.0
  0
LINE
  8
1
  6
CONTINUOUS
 62
       7
  5
860
 10
119.68705628
 20
494.20358357
 30
0.0
 11
107.46021127
 21
496.80247971
 31
0.0
  0
LINE
  8
1
  6
CONTINUOUS
 62
       7
  5
861
 10
119.68705628
 20
494.20358357
 30
0.0
 11
107.46021127
 21
491.60468743
 31
0.0
  0
LINE
  8
1
  6
CONTINUOUS
 62
       7
  5
862
 10
-158.30335272
 20
381.76260123
 30
0.0
 11
-158.30335272
 21
498.20358357
 31
0.0
  0
LINE
  8
1
  6
CONTINUOUS
 62
       7
  5
863
 10
119.68705628
 20
381.76260123
 30
0.0
 11
119.68705628
 21
498.20358357
 31
0.0
  0
LINE
  8
1
  6
CONTINUOUS
 62
       7
  5
864
 10
191.36648565
 20
38.77032923
 30
0.0
 11
191.36648565
 21
153.77032923
 31
0.0
  0
LINE
  8
1
  6
CONTINUOUS
 62
       7
  5
865
 10
102.68778078
 20
38.77032923
 30
0.0
 11
195.36648565
 21
38.77032923
 31
0.0
  0
LINE
  8
1
  6
CONTINUOUS
 62
       7
  5
866
 10
129.68684928
 20
153.77032923
 30
0.0
 11
195.36648565
 21
153.77032923
 31
0.0
  0
LINE
  8
1
  6
CONTINUOUS
 62
       7
  5
867
 10
191.36648565
 20
-177.39184651
 30
0.0
 11
191.36648565
 21
38.77032923
 31
0.0
  0
LINE
  8
1
  6
CONTINUOUS
 62
       7
  5
868
 10
191.36648565
 20
38.77032923
 30
0.0
 11
188.76758951
 21
26.54348423
 31
0.0
  0
LINE
  8
1
  6
CONTINUOUS
 62
       7
  5
869
 10
191.36648565
 20
38.77032923
 30
0.0
 11
193.96538178
 21
26.54348423
 31
0.0
  0
LINE
  8
1
  6
CONTINUOUS
 62
       7
  5
86A
 10
191.36648565
 20
178.77032923
 30
0.0
 11
191.36648565
 21
153.77032923
 31
0.0
  0
LINE
  8
1
  6
CONTINUOUS
 62
       7
  5
86B
 10
191.36648565
 20
153.77032923
 30
0.0
 11
193.96538178
 21
165.99717424
 31
0.0
  0
LINE
  8
1
  6
CONTINUOUS
 62
       7
  5
86C
 10
191.36648565
 20
153.77032923
 30
0.0
 11
188.76758951
 21
165.99717424
 31
0.0
  0
LINE
  8
1
  6
CONTINUOUS
 62
       7
  5
86D
 10
98.68778078
 20
4.77032923
 30
0.0
 11
98.68778078
 21
-55.22967077
 31
0.0
  0
LINE
  8
1
  6
CONTINUOUS
 62
       7
  5
86E
 10
-137.30407722
 20
4.77032923
 30
0.0
 11
-137.30407722
 21
-55.22967077
 31
0.0
  0
LINE
  8
1
  6
CONTINUOUS
 62
       7
  5
86F
 10
-137.30407722
 20
-51.22967077
 30
0.0
 11
98.68778078
 21
-51.22967077
 31
0.0
  0
LINE
  8
1
  6
CONTINUOUS
 62
       7
  5
870
 10
-137.30407722
 20
-51.22967077
 30
0.0
 11
-125.07723221
 21
-53.8285669
 31
0.0
  0
LINE
  8
1
  6
CONTINUOUS
 62
       7
  5
871
 10
-137.30407722
 20
-51.22967077
 30
0.0
 11
-125.07723221
 21
-48.63077463
 31
0.0
  0
LINE
  8
1
  6
CONTINUOUS
 62
       7
  5
872
 10
98.68778078
 20
-51.22967077
 30
0.0
 11
86.46093577
 21
-48.63077463
 31
0.0
  0
LINE
  8
1
  6
CONTINUOUS
 62
       7
  5
873
 10
98.68778078
 20
-51.22967077
 30
0.0
 11
86.46093577
 21
-53.8285669
 31
0.0
  0
LINE
  8
1
  6
CONTINUOUS
 62
       7
  5
874
 10
-194.30814822
 20
608.27440687
 30
0.0
 11
155.69185178
 21
608.27440687
 31
0.0
  0
LINE
  8
1
  6
CONTINUOUS
 62
       7
  5
875
 10
-194.30814822
 20
608.27440687
 30
0.0
 11
-182.08130321
 21
605.67551073
 31
0.0
  0
LINE
  8
1
  6
CONTINUOUS
 62
       7
  5
876
 10
-194.30814822
 20
608.27440687
 30
0.0
 11
-182.08130321
 21
610.873303
 31
0.0
  0
LINE
  8
1
  6
CONTINUOUS
 62
       7
  5
877
 10
155.69185178
 20
608.27440687
 30
0.0
 11
143.46500677
 21
610.873303
 31
0.0
  0
LINE
  8
1
  6
CONTINUOUS
 62
       7
  5
878
 10
155.69185178
 20
608.27440687
 30
0.0
 11
143.46500677
 21
605.67551073
 31
0.0
  0
LINE
  8
1
  6
CONTINUOUS
 62
       7
  5
879
 10
-194.30814822
 20
254.76687923
 30
0.0
 11
-194.30814822
 21
612.27440687
 31
0.0
  0
LINE
  8
1
  6
CONTINUOUS
 62
       7
  5
87A
 10
155.69185178
 20
254.76687923
 30
0.0
 11
155.69185178
 21
612.27440687
 31
0.0
  0
LINE
  8
1
  6
CONTINUOUS
 62
       7
  5
87B
 10
-294.52443064
 20
153.77032923
 30
0.0
 11
-294.52443064
 21
183.76963923
 31
0.0
  0
LINE
  8
1
  6
CONTINUOUS
 62
       7
  5
87C
 10
-294.52443064
 20
78.57032923
 30
0.0
 11
-294.52443064
 21
153.77032923
 31
0.0
  0
LINE
  8
1
  6
CONTINUOUS
 62
       7
  5
87D
 10
-294.52443064
 20
153.77032923
 30
0.0
 11
-297.12332677
 21
141.54348423
 31
0.0
  0
LINE
  8
1
  6
CONTINUOUS
 62
       7
  5
87E
 10
-294.52443064
 20
153.77032923
 30
0.0
 11
-291.9255345
 21
141.54348423
 31
0.0
  0
LINE
  8
1
  6
CONTINUOUS
 62
       7
  5
87F
 10
-294.52443064
 20
203.76963923
 30
0.0
 11
-294.52443064
 21
183.76963923
 31
0.0
  0
LINE
  8
1
  6
CONTINUOUS
 62
       7
  5
880
 10
-294.52443064
 20
183.76963923
 30
0.0
 11
-291.9255345
 21
195.99648424
 31
0.0
  0
LINE
  8
1
  6
CONTINUOUS
 62
       7
  5
881
 10
-294.52443064
 20
183.76963923
 30
0.0
 11
-297.12332677
 21
195.99648424
 31
0.0
  0
LINE
  8
1
  6
CONTINUOUS
 62
       7
  5
882
 10
-168.30314572
 20
153.77032923
 30
0.0
 11
-298.52443064
 21
153.77032923
 31
0.0
  0
LINE
  8
1
  6
CONTINUOUS
 62
       7
  5
883
 10
-195.80814822
 20
183.76963923
 30
0.0
 11
-298.52443064
 21
183.76963923
 31
0.0
  0
LINE
  8
1
  6
CONTINUOUS
 62
       7
  5
884
 10
-164.30314572
 20
257.76687923
 30
0.0
 11
-164.30314572
 21
538.20358357
 31
0.0
  0
LINE
  8
1
  6
CONTINUOUS
 62
       7
  5
885
 10
125.68684928
 20
257.76687923
 30
0.0
 11
125.68684928
 21
538.20358357
 31
0.0
  0
LINE
  8
1
  6
CONTINUOUS
 62
       7
  5
886
 10
-164.30314572
 20
534.20358357
 30
0.0
 11
125.68684928
 21
534.20358357
 31
0.0
  0
LINE
  8
1
  6
CONTINUOUS
 62
       7
  5
887
 10
-164.30314572
 20
534.20358357
 30
0.0
 11
-152.07630071
 21
531.60468743
 31
0.0
  0
LINE
  8
1
  6
CONTINUOUS
 62
       7
  5
888
 10
-164.30314572
 20
534.20358357
 30
0.0
 11
-152.07630071
 21
536.80247971
 31
0.0
  0
LINE
  8
1
  6
CONTINUOUS
 62
       7
  5
889
 10
125.68684928
 20
534.20358357
 30
0.0
 11
113.46000427
 21
536.80247971
 31
0.0
  0
LINE
  8
1
  6
CONTINUOUS
 62
       7
  5
88A
 10
125.68684928
 20
534.20358357
 30
0.0
 11
113.46000427
 21
531.60468743
 31
0.0
  0
LINE
  8
1
  6
CONTINUOUS
 62
       7
  5
88B
 10
123.68705628
 20
8.77032923
 30
0.0
 11
235.36648565
 21
8.77032923
 31
0.0
  0
LINE
  8
1
  6
CONTINUOUS
 62
       7
  5
88C
 10
129.68684928
 20
153.77032923
 30
0.0
 11
235.36648565
 21
153.77032923
 31
0.0
  0
LINE
  8
1
  6
CONTINUOUS
 62
       7
  5
88D
 10
231.36648565
 20
153.77032923
 30
0.0
 11
231.36648565
 21
8.77032923
 31
0.0
  0
LINE
  8
1
  6
CONTINUOUS
 62
       7
  5
88E
 10
231.36648565
 20
-176.22967077
 30
0.0
 11
231.36648565
 21
8.77032923
 31
0.0
  0
LINE
  8
1
  6
CONTINUOUS
 62
       7
  5
88F
 10
231.36648565
 20
8.77032923
 30
0.0
 11
228.76758951
 21
-3.45651577
 31
0.0
  0
LINE
  8
1
  6
CONTINUOUS
 62
       7
  5
890
 10
231.36648565
 20
8.77032923
 30
0.0
 11
233.96538178
 21
-3.45651577
 31
0.0
  0
LINE
  8
1
  6
CONTINUOUS
 62
       7
  5
891
 10
231.36648565
 20
178.77032923
 30
0.0
 11
231.36648565
 21
153.77032923
 31
0.0
  0
LINE
  8
1
  6
CONTINUOUS
 62
       7
  5
892
 10
231.36648565
 20
153.77032923
 30
0.0
 11
233.96538178
 21
165.99717424
 31
0.0
  0
LINE
  8
1
  6
CONTINUOUS
 62
       7
  5
893
 10
231.36648565
 20
153.77032923
 30
0.0
 11
228.76758951
 21
165.99717424
 31
0.0
  0
ARC
  8
1
  6
CONTINUOUS
 62
       7
  5
894
 10
51.07847078
 20
-214.10969758
 30
0.0
 40
25.60248687
 50
179.78722878
 51
270.02994378
  0
LINE
  8
1
  6
CONTINUOUS
 62
       7
  5
895
 10
25.47616046
 20
-214.0146201
 30
0.0
 11
24.77560906
 21
-226.49497377
 31
0.0
  0
LINE
  8
1
  6
CONTINUOUS
 62
       7
  5
896
 10
25.47616046
 20
-214.0146201
 30
0.0
 11
29.91239207
 21
-225.70093043
 31
0.0
  0
LINE
  8
1
  6
CONTINUOUS
 62
       7
  5
897
 10
51.09185178
 20
-239.71218095
 30
0.0
 11
39.41975679
 21
-235.23868135
 31
0.0
  0
LINE
  8
1
  6
CONTINUOUS
 62
       7
  5
898
 10
51.09185178
 20
-239.71218095
 30
0.0
 11
38.60932622
 21
-240.37290444
 31
0.0
  0
LINE
  8
1
  6
CONTINUOUS
 62
       7
  5
899
 10
-414.76485876
 20
153.77032923
 30
0.0
 11
-414.76485876
 21
398.76187673
 31
0.0
  0
LINE
  8
1
  6
CONTINUOUS
 62
       7
  5
89A
 10
-414.76485876
 20
153.77032923
 30
0.0
 11
-412.16596263
 21
165.99717424
 31
0.0
  0
LINE
  8
1
  6
CONTINUOUS
 62
       7
  5
89B
 10
-414.76485876
 20
153.77032923
 30
0.0
 11
-417.3637549
 21
165.99717424
 31
0.0
  0
LINE
  8
1
  6
CONTINUOUS
 62
       7
  5
89C
 10
-414.76485876
 20
398.76187673
 30
0.0
 11
-417.3637549
 21
386.53503173
 31
0.0
  0
LINE
  8
1
  6
CONTINUOUS
 62
       7
  5
89D
 10
-414.76485876
 20
398.76187673
 30
0.0
 11
-412.16596263
 21
386.53503173
 31
0.0
  0
LINE
  8
1
  6
CONTINUOUS
 62
       7
  5
89E
 10
-165.81315072
 20
153.77032923
 30
0.0
 11
-418.76485876
 21
153.77032923
 31
0.0
  0
LINE
  8
1
  6
CONTINUOUS
 62
       7
  5
89F
 10
-58.12973235
 20
398.76187673
 30
0.0
 11
-418.76485876
 21
398.76187673
 31
0.0
  0
LINE
  8
1
  6
CONTINUOUS
 62
       7
  5
8A0
 10
-338.76945305
 20
153.77032923
 30
0.0
 11
-338.76945305
 21
243.76687923
 31
0.0
  0
LINE
  8
1
  6
CONTINUOUS
 62
       7
  5
8A1
 10
-338.76945305
 20
153.77032923
 30
0.0
 11
-336.17055692
 21
165.99717424
 31
0.0
  0
LINE
  8
1
  6
CONTINUOUS
 62
       7
  5
8A2
 10
-338.76945305
 20
153.77032923
 30
0.0
 11
-341.36834919
 21
165.99717424
 31
0.0
  0
LINE
  8
1
  6
CONTINUOUS
 62
       7
  5
8A3
 10
-338.76945305
 20
243.76687923
 30
0.0
 11
-341.36834919
 21
231.54003423
 31
0.0
  0
LINE
  8
1
  6
CONTINUOUS
 62
       7
  5
8A4
 10
-338.76945305
 20
243.76687923
 30
0.0
 11
-336.17055692
 21
231.54003423
 31
0.0
  0
LINE
  8
1
  6
CONTINUOUS
 62
       7
  5
8A5
 10
-168.30314572
 20
153.77032923
 30
0.0
 11
-342.76945305
 21
153.77032923
 31
0.0
  0
LINE
  8
1
  6
CONTINUOUS
 62
       7
  5
8A6
 10
-195.80814822
 20
243.76687923
 30
0.0
 11
-342.76945305
 21
243.76687923
 31
0.0
  0
LINE
  8
1
  6
CONTINUOUS
 62
       7
  5
8A7
 10
-361.12443064
 20
-305.2099212
 30
0.0
 11
-361.12443064
 21
-173.2144752
 31
0.0
  0
LINE
  8
1
  6
CONTINUOUS
 62
       7
  5
8A8
 10
-361.12443064
 20
-305.2099212
 30
0.0
 11
-358.5255345
 21
-292.98307619
 31
0.0
  0
LINE
  8
1
  6
CONTINUOUS
 62
       7
  5
8A9
 10
-361.12443064
 20
-305.2099212
 30
0.0
 11
-363.72332677
 21
-292.98307619
 31
0.0
  0
LINE
  8
1
  6
CONTINUOUS
 62
       7
  5
8AA
 10
-361.12443064
 20
-173.2144752
 30
0.0
 11
-363.72332677
 21
-185.44132021
 31
0.0
  0
LINE
  8
1
  6
CONTINUOUS
 62
       7
  5
8AB
 10
-361.12443064
 20
-173.2144752
 30
0.0
 11
-358.5255345
 21
-185.44132021
 31
0.0
  0
LINE
  8
1
  6
CONTINUOUS
 62
       7
  5
8AC
 10
-225.96922042
 20
-305.2099212
 30
0.0
 11
-365.12443064
 21
-305.2099212
 31
0.0
  0
LINE
  8
1
  6
CONTINUOUS
 62
       7
  5
8AD
 10
-206.24182086
 20
-173.2144752
 30
0.0
 11
-365.12443064
 21
-173.2144752
 31
0.0
  0
LINE
  8
1
  6
CONTINUOUS
 62
       7
  5
8AE
 10
-321.12443064
 20
-214.0146201
 30
0.0
 11
-321.12443064
 21
-169.0146201
 31
0.0
  0
LINE
  8
1
  6
CONTINUOUS
 62
       7
  5
8AF
 10
-321.12443064
 20
-214.0146201
 30
0.0
 11
-318.5255345
 21
-201.78777509
 31
0.0
  0
LINE
  8
1
  6
CONTINUOUS
 62
       7
  5
8B0
 10
-321.12443064
 20
-214.0146201
 30
0.0
 11
-323.72332677
 21
-201.78777509
 31
0.0
  0
LINE
  8
1
  6
CONTINUOUS
 62
       7
  5
8B1
 10
-321.12443064
 20
-169.0146201
 30
0.0
 11
-323.72332677
 21
-181.24146511
 31
0.0
  0
LINE
  8
1
  6
CONTINUOUS
 62
       7
  5
8B2
 10
-321.12443064
 20
-169.0146201
 30
0.0
 11
-318.5255345
 21
-181.24146511
 31
0.0
  0
LINE
  8
1
  6
CONTINUOUS
 62
       7
  5
8B3
 10
-235.83441441
 20
-214.0146201
 30
0.0
 11
-325.12443064
 21
-214.0146201
 31
0.0
  0
LINE
  8
1
  6
CONTINUOUS
 62
       7
  5
8B4
 10
-233.90318022
 20
-169.0146201
 30
0.0
 11
-325.12443064
 21
-169.0146201
 31
0.0
  0
LINE
  8
1
  6
CONTINUOUS
 62
       7
  5
8B5
 10
-45.30814822
 20
400.00849273
 30
0.0
 11
-45.30814822
 21
459.94874416
 31
0.0
  0
LINE
  8
1
  6
CONTINUOUS
 62
       7
  5
8B6
 10
6.69185178
 20
400.00849273
 30
0.0
 11
6.69185178
 21
459.94874416
 31
0.0
  0
LINE
  8
1
  6
CONTINUOUS
 62
       7
  5
8B7
 10
-45.30814822
 20
454.94874416
 30
0.0
 11
6.69185178
 21
454.94874416
 31
0.0
  0
LINE
  8
1
  6
CONTINUOUS
 62
       7
  5
8B8
 10
100.69185178
 20
454.94874416
 30
0.0
 11
6.69185178
 21
454.94874416
 31
0.0
  0
LINE
  8
1
  6
CONTINUOUS
 62
       7
  5
8B9
 10
6.69185178
 20
454.94874416
 30
0.0
 11
18.91869679
 21
452.34984802
 31
0.0
  0
LINE
  8
1
  6
CONTINUOUS
 62
       7
  5
8BA
 10
6.69185178
 20
454.94874416
 30
0.0
 11
18.91869679
 21
457.54764029
 31
0.0
  0
LINE
  8
1
  6
CONTINUOUS
 62
       7
  5
8BB
 10
-70.30814822
 20
454.94874416
 30
0.0
 11
-45.30814822
 21
454.94874416
 31
0.0
  0
LINE
  8
1
  6
CONTINUOUS
 62
       7
  5
8BC
 10
-45.30814822
 20
454.94874416
 30
0.0
 11
-57.53499323
 21
457.54764029
 31
0.0
  0
LINE
  8
1
  6
CONTINUOUS
 62
       7
  5
8BD
 10
-45.30814822
 20
454.94874416
 30
0.0
 11
-57.53499323
 21
452.34984802
 31
0.0
  0
ARC
  8
1
  6
PHANTOM2
 62
       7
  5
8BE
 10
49.07847078
 20
-228.5062416
 30
0.0
 40
3.0
 50
180.00000307
 51
269.99999846
  0
LINE
  8
1
  6
PHANTOM2
 62
       7
  5
8BF
 10
46.07847078
 20
-229.01782593
 30
0.0
 11
46.07847078
 21
-216.40098542
 31
0.0
  0
LINE
  8
1
  6
PHANTOM2
 62
       7
  5
8C0
 10
49.07847078
 20
-231.5062416
 30
0.0
 11
53.07847078
 21
-231.5062416
 31
0.0
  0
ARC
  8
1
  6
PHANTOM2
 62
       7
  5
8C1
 10
53.07847078
 20
-228.5062416
 30
0.0
 40
3.0
 50
269.99999846
 51
360.0
  0
LINE
  8
1
  6
PHANTOM2
 62
       7
  5
8C2
 10
56.07847078
 20
-216.40098542
 30
0.0
 11
56.07847078
 21
-228.5062416
 31
0.0
  0
LINE
  8
1
  6
PHANTOM2
 62
       7
  5
8C3
 10
-217.89476723
 20
-229.01782593
 30
0.0
 11
-217.89476723
 21
-216.40098542
 31
0.0
  0
ARC
  8
1
  6
PHANTOM2
 62
       7
  5
8C4
 10
-220.89476723
 20
-228.5062416
 30
0.0
 40
3.0
 50
269.99999846
 51
360.0
  0
ARC
  8
1
  6
PHANTOM2
 62
       7
  5
8C5
 10
-224.89476723
 20
-228.5062416
 30
0.0
 40
3.0
 50
179.99999693
 51
269.99999846
  0
LINE
  8
1
  6
PHANTOM2
 62
       7
  5
8C6
 10
-227.89476723
 20
-216.40098542
 30
0.0
 11
-227.89476723
 21
-228.5062416
 31
0.0
  0
LINE
  8
1
  6
PHANTOM2
 62
       7
  5
8C7
 10
-220.89476723
 20
-231.5062416
 30
0.0
 11
-224.89476723
 21
-231.5062416
 31
0.0
  0
TEXT
  8
1
 62
       7
  5
8C8
 10
-43.30814822
 20
498.20358357
 30
0.0
 40
20.0
  1
278
 41
0.8
 72
       5
 11
4.69185178
 21
498.20358357
 31
0.0
  0
TEXT
  8
1
 62
       7
  5
8C9
 10
186.36648565
 20
-172.39184651
 30
0.0
 40
20.0
  1
115(内箱開口）
 50
90.00000154
 41
0.8
 72
       5
 11
186.36648179
 21
-28.39184651
 31
0.0
  0
TEXT
  8
1
 62
       7
  5
8CA
 10
-93.30814822
 20
-47.22967077
 30
0.0
 40
20.0
  1
236(内箱開口）
 41
0.8
 72
       5
 11
50.69185178
 21
-47.22967077
 31
0.0
  0
TEXT
  8
1
 62
       7
  5
8CB
 10
-45.30814822
 20
612.27440687
 30
0.0
 40
20.0
  1
350
 41
0.8
 72
       5
 11
2.69185178
 21
612.27440687
 31
0.0
  0
TEXT
  8
1
 62
       7
  5
8CC
 10
-298.52443064
 20
76.17032923
 30
0.0
 40
20.0
  1
30
 50
90.00000154
 41
0.8
 72
       5
 11
-298.52443149
 21
108.17032923
 31
0.0
  0
TEXT
  8
1
 62
       7
  5
8CD
 10
-45.30814822
 20
538.20358357
 30
0.0
 40
20.0
  1
293
 41
0.8
 72
       5
 11
2.69185178
 21
538.20358357
 31
0.0
  0
TEXT
  8
1
 62
       7
  5
8CE
 10
226.36648565
 20
-171.22967077
 30
0.0
 40
20.0
  1
145(ストローク）
 50
90.00000154
 41
0.8
 72
       5
 11
226.36648136
 21
-11.22967077
 31
0.0
  0
TEXT
  8
1
 62
       7
  5
8CF
 10
-418.76485876
 20
252.26610298
 30
0.0
 40
20.0
  1
245
 50
90.00000154
 41
0.8
 72
       5
 11
-418.76486005
 21
300.26610298
 31
0.0
  0
TEXT
  8
1
 62
       7
  5
8D0
 10
-342.76945305
 20
167.96860423
 30
0.0
 40
20.0
  1
90
 50
90.00000154
 41
0.8
 72
       5
 11
-342.76945391
 21
199.96860423
 31
0.0
  0
TEXT
  8
1
 62
       7
  5
8D1
 10
-365.12443064
 20
-263.2121982
 30
0.0
 40
20.0
  1
132
 50
90.00000154
 41
0.8
 72
       5
 11
-365.12443192
 21
-215.2121982
 31
0.0
  0
TEXT
  8
1
 62
       7
  5
8D2
 10
-325.12443064
 20
-209.5146201
 30
0.0
 40
20.0
  1
45
 50
90.00000154
 41
0.8
 72
       5
 11
-325.12443149
 21
-177.5146201
 31
0.0
  0
TEXT
  8
1
 62
       7
  5
8D3
 10
26.69185178
 20
459.94874416
 30
0.0
 40
20.0
  1
52
 41
0.8
 72
       5
 11
58.69185178
 21
459.94874416
 31
0.0
  0
CIRCLE
  8
240
  6
CONTINUOUS
 62
       7
  5
8D4
 10
136.49530773
 20
-465.24557361
 30
0.0
 40
9.59725576
  0
LINE
  8
240
  6
CONTINUOUS
 62
       7
  5
8D5
 10
455.28603992
 20
-447.36937429
 30
0.0
 11
365.18155444
 21
-447.36937429
 31
0.0
  0
LINE
  8
240
  6
CONTINUOUS
 62
       7
  5
8D6
 10
365.18155444
 20
-421.84958538
 30
0.0
 11
455.28603992
 21
-421.84958538
 31
0.0
  0
LINE
  8
240
  6
CONTINUOUS
 62
       7
  5
8D7
 10
455.28603992
 20
-421.84958538
 30
0.0
 11
455.28603992
 21
-447.36937429
 31
0.0
  0
LINE
  8
240
  6
CONTINUOUS
 62
       7
  5
8D8
 10
365.18155444
 20
-447.36937429
 30
0.0
 11
365.18155444
 21
-421.84958538
 31
0.0
  0
ENDSEC
  0
EOF
