  0
SECTION
  2
HEADER
  9
$ACADVER
  1
AC1014
  9
$ACADMAINTVER
 70
       0
  9
$DWGCODEPAGE
  3
ANSI_932
  9
$INSBASE
 10
0.0
 20
0.0
 30
0.0
  9
$EXTMIN
 10
-991.13873856
 20
-1380.5
 30
0.0
  9
$EXTMAX
 10
989.06936928
 20
1382.5
 30
0.0
  9
$LIMMIN
 10
-315.0
 20
-445.5
  9
$LIMMAX
 10
315.0
 20
445.5
  9
$ORTHOMODE
 70
       0
  9
$REGENMODE
 70
       1
  9
$FILLMODE
 70
       1
  9
$QTEXTMODE
 70
       0
  9
$MIRRTEXT
 70
       1
  9
$DRAGMODE
 70
       2
  9
$LTSCALE
 40
3.0
  9
$OSMODE
 70
       0
  9
$ATTMODE
 70
       1
  9
$TEXTSIZE
 40
0.2
  9
$TRACEWID
 40
0.05
  9
$TEXTSTYLE
  7
STANDARD
  9
$CLAYER
  8
0
  9
$CELTYPE
  6
CONTINUOUS
  9
$CECOLOR
 62
     256
  9
$CELTSCALE
 40
1.0
  9
$DELOBJ
 70
       1
  9
$DISPSILH
 70
       0
  9
$DIMSCALE
 40
1.0
  9
$DIMASZ
 40
6.0
  9
$DIMEXO
 40
0.0625
  9
$DIMDLI
 40
0.38
  9
$DIMRND
 40
0.0
  9
$DIMDLE
 40
0.0
  9
$DIMEXE
 40
0.18
  9
$DIMTP
 40
0.0
  9
$DIMTM
 40
0.0
  9
$DIMTXT
 40
6.0
  9
$DIMCEN
 40
0.09
  9
$DIMTSZ
 40
0.0
  9
$DIMTOL
 70
       0
  9
$DIMLIM
 70
       0
  9
$DIMTIH
 70
       1
  9
$DIMTOH
 70
       1
  9
$DIMSE1
 70
       0
  9
$DIMSE2
 70
       0
  9
$DIMTAD
 70
       0
  9
$DIMZIN
 70
       0
  9
$DIMBLK
  1

  9
$DIMASO
 70
       1
  9
$DIMSHO
 70
       1
  9
$DIMPOST
  1

  9
$DIMAPOST
  1

  9
$DIMALT
 70
       0
  9
$DIMALTD
 70
       2
  9
$DIMALTF
 40
25.4
  9
$DIMLFAC
 40
1.0
  9
$DIMTOFL
 70
       0
  9
$DIMTVP
 40
0.0
  9
$DIMTIX
 70
       0
  9
$DIMSOXD
 70
       0
  9
$DIMSAH
 70
       0
  9
$DIMBLK1
  1

  9
$DIMBLK2
  1

  9
$DIMSTYLE
  2
STANDARD
  9
$DIMCLRD
 70
       0
  9
$DIMCLRE
 70
       0
  9
$DIMCLRT
 70
       0
  9
$DIMTFAC
 40
1.0
  9
$DIMGAP
 40
0.09
  9
$DIMJUST
 70
       0
  9
$DIMSD1
 70
       0
  9
$DIMSD2
 70
       0
  9
$DIMTOLJ
 70
       1
  9
$DIMTZIN
 70
       0
  9
$DIMALTZ
 70
       0
  9
$DIMALTTZ
 70
       0
  9
$DIMFIT
 70
       3
  9
$DIMUPT
 70
       0
  9
$DIMUNIT
 70
       2
  9
$DIMDEC
 70
       4
  9
$DIMTDEC
 70
       4
  9
$DIMALTU
 70
       2
  9
$DIMALTTD
 70
       2
  9
$DIMTXSTY
  7
STANDARD
  9
$DIMAUNIT
 70
       0
  9
$LUNITS
 70
       2
  9
$LUPREC
 70
       4
  9
$SKETCHINC
 40
0.1
  9
$FILLETRAD
 40
0.0
  9
$AUNITS
 70
       0
  9
$AUPREC
 70
       0
  9
$MENU
  1
acad
  9
$ELEVATION
 40
0.0
  9
$PELEVATION
 40
0.0
  9
$THICKNESS
 40
0.0
  9
$LIMCHECK
 70
       0
  9
$BLIPMODE
 70
       1
  9
$CHAMFERA
 40
0.0
  9
$CHAMFERB
 40
0.0
  9
$CHAMFERC
 40
0.0
  9
$CHAMFERD
 40
0.0
  9
$SKPOLY
 70
       0
  9
$TDCREATE
 40
0.000000000
  9
$TDUPDATE
 40
0.000000000
  9
$TDINDWG
 40
0.0000000000
  9
$TDUSRTIMER
 40
0.0000000000
  9
$USRTIMER
 70
       1
  9
$ANGBASE
 50
0.0
  9
$ANGDIR
 70
       0
  9
$PDMODE
 70
       0
  9
$PDSIZE
 40
1.0
  9
$PLINEWID
 40
0.0
  9
$COORDS
 70
       1
  9
$SPLFRAME
 70
       0
  9
$SPLINETYPE
 70
       6
  9
$SPLINESEGS
 70
       8
  9
$ATTDIA
 70
       0
  9
$ATTREQ
 70
       1
  9
$HANDLING
 70
       1
  9
$HANDSEED
  5
557
  9
$SURFTAB1
 70
       6
  9
$SURFTAB2
 70
       6
  9
$SURFTYPE
 70
       6
  9
$SURFU
 70
       6
  9
$SURFV
 70
       6
  9
$UCSNAME
  2

  9
$UCSORG
 10
0.0
 20
0.0
 30
0.0
  9
$UCSXDIR
 10
1.0
 20
0.0
 30
0.0
  9
$UCSYDIR
 10
0.0
 20
1.0
 30
0.0
  9
$PUCSNAME
  2

  9
$PUCSORG
 10
0.0
 20
0.0
 30
0.0
  9
$PUCSXDIR
 10
1.0
 20
0.0
 30
0.0
  9
$PUCSYDIR
 10
0.0
 20
1.0
 30
0.0
  9
$USERI1
 70
       0
  9
$USERI2
 70
       0
  9
$USERI3
 70
       0
  9
$USERI4
 70
       0
  9
$USERI5
 70
       0
  9
$USERR1
 40
0.0
  9
$USERR2
 40
0.0
  9
$USERR3
 40
0.0
  9
$USERR4
 40
0.0
  9
$USERR5
 40
0.0
  9
$WORLDVIEW
 70
       1
  9
$SHADEDGE
 70
       3
  9
$SHADEDIF
 70
      70
  9
$TILEMODE
 70
       1
  9
$MAXACTVP
 70
      16
  9
$PINSBASE
 10
0.0
 20
0.0
 30
0.0
  9
$PLIMCHECK
 70
       0
  9
$PEXTMIN
 10
1.00000000E+20
 20
1.00000000E+20
 30
1.00000000E+20
  9
$PEXTMAX
 10
-1.00000000E+20
 20
-1.00000000E+20
 30
-1.00000000E+20
  9
$PLIMMIN
 10
0.0
 20
0.0
  9
$PLIMMAX
 10
12.0
 20
9.0
  9
$UNITMODE
 70
       0
  9
$VISRETAIN
 70
       0
  9
$PLINEGEN
 70
       1
  9
$PSLTSCALE
 70
       0
  9
$TREEDEPTH
 70
    3020
  9
$PICKSTYLE
 70
       1
  9
$CMLSTYLE
  2
STANDARD
  9
$CMLJUST
 70
       0
  9
$CMLSCALE
 40
1.0
  9
$PROXYGRAPHICS
 70
       0
  9
$MEASUREMENT
 70
       0
  0
ENDSEC
  0
SECTION
  2
CLASSES
  0
CLASS
  1
LWPOLYLINE
  2
AcDbPolyline
  3
"AutoCAD"
 90
        0
280
       0
281
       1
  0
CLASS
  1
IMAGE
  2
AcDbRasterImage
  3
ISM
 90
      127
280
       0
281
       1
  0
CLASS
  1
OLE2FRAME
  2
AcDbOle2Frame
  3
""
 90
        0
280
       0
281
       1
  0
CLASS
  1
HATCH
  2
AcDbHatch
  3
"ACAD_SEDONA"
 90
        0
280
       0
281
       1
  0
CLASS
  1
DICTIONARYVAR
  2
AcDbDictionaryVar
  3
"AutoCAD"
 90
        0
280
       0
281
       0
  0
CLASS
  1
RASTERVARIABLES
  2
AcDbRasterVariables
  3
ISM
 90
        0
280
       0
281
       0
  0
CLASS
  1
IMAGEDEF
  2
AcDbRasterImageDef
  3
ISM
 90
        0
280
       0
281
       0
  0
CLASS
  1
IMAGEDEF_REACTOR
  2
AcDbRasterImageDefReactor
  3
ISM
 90
        1
280
       0
281
       0
  0
CLASS
  1
IDBUFFER
  2
AcDbIdBuffer
  3
"Acad"
 90
        0
280
       0
281
       0
  0
CLASS
  1
SPATIAL_FILTER
  2
AcDbSpatialFilter
  3
"Acad"
 90
        0
280
       0
281
       0
  0
CLASS
  1
XRECORD
  2
AcDbXrecord
  3
"<Built In>"
 90
        0
280
       0
281
       0
  0
CLASS
  1
SORTENTSTABLE
  2
AcDbSortentsTable
  3
"AutoCAD"
 90
        0
280
       0
281
       0
  0
CLASS
  1
LAYER_INDEX
  2
AcDbLayerIndex
  3
"Acad"
 90
        0
280
       0
281
       0
  0
CLASS
  1
SPATIAL_INDEX
  2
AcDbSpatialIndex
  3
"Acad"
 90
        0
280
       0
281
       0
  0
CLASS
  1
OBJECT_PTR
  2
CAseDLPNTableRecord
  3
"ASE-LPNTableRecord"
 90
        1
280
       0
281
       0
  0
CLASS
  1
LAYOUT
  2
AcDbLayout
  3
"AutoCAD 2000"
 90
        0
280
       0
281
       0
  0
CLASS
  1
PLOTSETTINGS
  2
AcDbPlotSettings
  3
"AutoCAD 2000"
 90
        0
280
       0
281
       0
  0
CLASS
  1
ACDBDICTIONARYWDFLT
  2
AcDbDictionaryWithDefault
  3
"AutoCAD 2000"
 90
        0
280
       0
281
       0
  0
CLASS
  1
ACDBPLACEHOLDER
  2
AcDbPlaceHolder
  3
"AutoCAD 2000"
 90
        0
280
       0
281
       0
  0
CLASS
  1
VBA_PROJECT
  2
AcDbVbaProject
  3
"acadvba"
 90
        0
280
       0
281
       0
  0
CLASS
  1
WIPEOUT
  2
AcDbWipeout
  3
WipeOut|AutoCAD Express Tool|expresstools@autodesk.com
 90
      127
280
       0
281
       1
  0
CLASS
  1
WIPEOUTVARIABLES
  2
AcDbWipeoutVariables
  3
WipeOut|AutoCAD Express Tool|expresstools@autodesk.com
 90
        0
280
       0
281
       0
  0
CLASS
  1
RTEXT
  2
RText
  3
RText|AutoCAD Express Tool|expresstools@autodesk.com
 90
        0
280
       0
281
       1
  0
CLASS
  1
ARCALIGNEDTEXT
  2
AcDbArcAlignedText
  3
ATEXT|AutoCAD Express Tool|expresstools@autodesk.com
 90
        0
280
       0
281
       1
  0
ENDSEC
  0
SECTION
  2
TABLES
  0
TABLE
  2
VPORT
  5
7
100
AcDbSymbolTable
 70
       1
  0
VPORT
  5
15
100
AcDbSymbolTableRecord
100
AcDbViewportTableRecord
  2
*ACTIVE
 70
       0
 10
0.0
 20
0.0
 11
1.0
 21
1.0
 12
0.0
 22
0.0
 13
0.0
 23
0.0
 14
1.0
 24
1.0
 15
0.0
 25
0.0
 16
0.0
 26
0.0
 36
1.0
 17
0.0
 27
0.0
 37
0.0
 40
891.0
 41
0.70707071
 42
50.0
 43
0.0
 44
0.0
 50
0.0
 51
0.0
 71
       0
 72
     100
 73
       1
 74
       1
 75
       0
 76
       0
 77
       0
 78
       0
  0
ENDTAB
  0
TABLE
  2
LTYPE
  5
4
100
AcDbSymbolTable
 70
      30
  0
LTYPE
  5
11
100
AcDbSymbolTableRecord
100
AcDbLinetypeTableRecord
  2
BYBLOCK
 70
      64
  3

 72
      65
 73
       0
 40
0.0
  0
LTYPE
  5
12
100
AcDbSymbolTableRecord
100
AcDbLinetypeTableRecord
  2
BYLAYER
 70
      64
  3

 72
      65
 73
       0
 40
0.0
  0
LTYPE
  5
13
100
AcDbSymbolTableRecord
100
AcDbLinetypeTableRecord
  2
CONTINUOUS
 70
      64
  3
Solid line
 72
      65
 73
       0
 40
0.0
  0
LTYPE
  5
1D
100
AcDbSymbolTableRecord
100
AcDbLinetypeTableRecord
  2
HIDDENX2
 70
      64
  3
CADPAC LINETYPE
 72
      65
 73
       2
 40
7.30627306
 49
5.4797048
 74
       0
 49
-1.82656827
 74
       0
  0
LTYPE
  5
1E
100
AcDbSymbolTableRecord
100
AcDbLinetypeTableRecord
  2
HIDDEN
 70
      64
  3
CADPAC LINETYPE
 72
      65
 73
       2
 40
5.4797048
 49
3.65313653
 74
       0
 49
-1.82656827
 74
       0
  0
LTYPE
  5
1F
100
AcDbSymbolTableRecord
100
AcDbLinetypeTableRecord
  2
HIDDEN2
 70
      64
  3
CADPAC LINETYPE
 72
      65
 73
       2
 40
4.56642066
 49
2.7398524
 74
       0
 49
-1.82656827
 74
       0
  0
LTYPE
  5
20
100
AcDbSymbolTableRecord
100
AcDbLinetypeTableRecord
  2
DASHED
 70
      64
  3
CADPAC LINETYPE
 72
      65
 73
       2
 40
5.11439114
 49
3.65313653
 74
       0
 49
-1.46125461
 74
       0
  0
LTYPE
  5
21
100
AcDbSymbolTableRecord
100
AcDbLinetypeTableRecord
  2
DASHED2
 70
      64
  3
CADPAC LINETYPE
 72
      65
 73
       2
 40
3.28782288
 49
2.19188192
 74
       0
 49
-1.09594096
 74
       0
  0
LTYPE
  5
22
100
AcDbSymbolTableRecord
100
AcDbLinetypeTableRecord
  2
DASHEDX2
 70
      64
  3
CADPAC LINETYPE
 72
      65
 73
       2
 40
8.76752768
 49
7.30627306
 74
       0
 49
-1.46125461
 74
       0
  0
LTYPE
  5
23
100
AcDbSymbolTableRecord
100
AcDbLinetypeTableRecord
  2
DOTX2
 70
      64
  3
CADPAC LINETYPE
 72
      65
 73
       2
 40
3.19649446
 49
0.0
 74
       0
 49
-3.19649446
 74
       0
  0
LTYPE
  5
24
100
AcDbSymbolTableRecord
100
AcDbLinetypeTableRecord
  2
DOT
 70
      64
  3
CADPAC LINETYPE
 72
      65
 73
       2
 40
2.55719557
 49
0.0
 74
       0
 49
-2.55719557
 74
       0
  0
LTYPE
  5
25
100
AcDbSymbolTableRecord
100
AcDbLinetypeTableRecord
  2
DOT2
 70
      64
  3
CADPAC LINETYPE
 72
      65
 73
       2
 40
1.91789668
 49
0.0
 74
       0
 49
-1.91789668
 74
       0
  0
LTYPE
  5
26
100
AcDbSymbolTableRecord
100
AcDbLinetypeTableRecord
  2
CENTERX2
 70
      64
  3
CADPAC LINETYPE
 72
      65
 73
       4
 40
10.95940959
 49
4.56642066
 74
       0
 49
-2.28321033
 74
       0
 49
1.82656827
 74
       0
 49
-2.28321033
 74
       0
  0
LTYPE
  5
27
100
AcDbSymbolTableRecord
100
AcDbLinetypeTableRecord
  2
CENTER
 70
      64
  3
CADPAC LINETYPE
 72
      65
 73
       4
 40
8.40221402
 49
3.65313653
 74
       0
 49
-1.82656827
 74
       0
 49
1.09594096
 74
       0
 49
-1.82656827
 74
       0
  0
LTYPE
  5
28
100
AcDbSymbolTableRecord
100
AcDbLinetypeTableRecord
  2
CENTER2
 70
      64
  3
CADPAC LINETYPE
 72
      65
 73
       4
 40
5.84501845
 49
2.7398524
 74
       0
 49
-1.3699262
 74
       0
 49
0.36531365
 74
       0
 49
-1.3699262
 74
       0
  0
LTYPE
  5
29
100
AcDbSymbolTableRecord
100
AcDbLinetypeTableRecord
  2
DASHDOTX2
 70
      64
  3
CADPAC LINETYPE
 72
      65
 73
       4
 40
17.53505535
 49
8.76752768
 74
       0
 49
-2.92250923
 74
       0
 49
2.92250923
 74
       0
 49
-2.92250923
 74
       0
  0
LTYPE
  5
2A
100
AcDbSymbolTableRecord
100
AcDbLinetypeTableRecord
  2
DASHDOT
 70
      64
  3
CADPAC LINETYPE
 72
      65
 73
       4
 40
8.76752768
 49
4.38376384
 74
       0
 49
-1.46125461
 74
       0
 49
1.46125461
 74
       0
 49
-1.46125461
 74
       0
  0
LTYPE
  5
2B
100
AcDbSymbolTableRecord
100
AcDbLinetypeTableRecord
  2
DASHDOT2
 70
      64
  3
CADPAC LINETYPE
 72
      65
 73
       4
 40
5.62583026
 49
3.28782288
 74
       0
 49
-1.09594096
 74
       0
 49
0.14612546
 74
       0
 49
-1.09594096
 74
       0
  0
LTYPE
  5
2C
100
AcDbSymbolTableRecord
100
AcDbLinetypeTableRecord
  2
DIVIDEX2
 70
      64
  3
CADPAC LINETYPE
 72
      65
 73
       6
 40
23.3800738
 49
8.76752768
 74
       0
 49
-2.92250923
 74
       0
 49
2.92250923
 74
       0
 49
-2.92250923
 74
       0
 49
2.92250923
 74
       0
 49
-2.92250923
 74
       0
  0
LTYPE
  5
2D
100
AcDbSymbolTableRecord
100
AcDbLinetypeTableRecord
  2
DIVIDE
 70
      64
  3
CADPAC LINETYPE
 72
      65
 73
       6
 40
11.6900369
 49
4.38376384
 74
       0
 49
-1.46125461
 74
       0
 49
1.46125461
 74
       0
 49
-1.46125461
 74
       0
 49
1.46125461
 74
       0
 49
-1.46125461
 74
       0
  0
LTYPE
  5
2E
100
AcDbSymbolTableRecord
100
AcDbLinetypeTableRecord
  2
DIVIDE2
 70
      64
  3
CADPAC LINETYPE
 72
      65
 73
       6
 40
8.76752768
 49
3.28782288
 74
       0
 49
-1.09594096
 74
       0
 49
1.09594096
 74
       0
 49
-1.09594096
 74
       0
 49
1.09594096
 74
       0
 49
-1.09594096
 74
       0
  0
LTYPE
  5
2F
100
AcDbSymbolTableRecord
100
AcDbLinetypeTableRecord
  2
BORDERX2
 70
      64
  3
CADPAC LINETYPE
 72
      65
 73
       6
 40
15.98247232
 49
4.56642066
 74
       0
 49
-2.28321033
 74
       0
 49
4.56642066
 74
       0
 49
-2.28321033
 74
       0
 49
0.0
 74
       0
 49
-2.28321033
 74
       0
  0
LTYPE
  5
30
100
AcDbSymbolTableRecord
100
AcDbLinetypeTableRecord
  2
BORDER
 70
      64
  3
CADPAC LINETYPE
 72
      65
 73
       6
 40
12.78597786
 49
3.65313653
 74
       0
 49
-1.82656827
 74
       0
 49
3.65313653
 74
       0
 49
-1.82656827
 74
       0
 49
0.0
 74
       0
 49
-1.82656827
 74
       0
  0
LTYPE
  5
31
100
AcDbSymbolTableRecord
100
AcDbLinetypeTableRecord
  2
BORDER2
 70
      64
  3
CADPAC LINETYPE
 72
      65
 73
       6
 40
9.49815498
 49
2.92250923
 74
       0
 49
-1.82656827
 74
       0
 49
1.09594096
 74
       0
 49
-1.82656827
 74
       0
 49
0.0
 74
       0
 49
-1.82656827
 74
       0
  0
LTYPE
  5
32
100
AcDbSymbolTableRecord
100
AcDbLinetypeTableRecord
  2
PHANTOMX2
 70
      64
  3
CADPAC LINETYPE
 72
      65
 73
       6
 40
13.69926199
 49
4.56642066
 74
       0
 49
-1.82656827
 74
       0
 49
1.82656827
 74
       0
 49
-1.82656827
 74
       0
 49
1.82656827
 74
       0
 49
-1.82656827
 74
       0
  0
LTYPE
  5
33
100
AcDbSymbolTableRecord
100
AcDbLinetypeTableRecord
  2
PHANTOM
 70
      64
  3
CADPAC LINETYPE
 72
      65
 73
       6
 40
11.32472325
 49
3.65313653
 74
       0
 49
-1.82656827
 74
       0
 49
1.09594096
 74
       0
 49
-1.82656827
 74
       0
 49
1.09594096
 74
       0
 49
-1.82656827
 74
       0
  0
LTYPE
  5
34
100
AcDbSymbolTableRecord
100
AcDbLinetypeTableRecord
  2
PHANTOM2
 70
      64
  3
CADPAC LINETYPE
 72
      65
 73
       6
 40
9.68081181
 49
2.7398524
 74
       0
 49
-1.82656827
 74
       0
 49
0.73062731
 74
       0
 49
-1.82656827
 74
       0
 49
0.73062731
 74
       0
 49
-1.82656827
 74
       0
  0
LTYPE
  5
35
100
AcDbSymbolTableRecord
100
AcDbLinetypeTableRecord
  2
ACAD_ISO06W100
 70
      64
  3
CADPAC LINETYPE
 72
      65
 73
       8
 40
19.36162362
 49
8.76752768
 74
       0
 49
-1.82656827
 74
       0
 49
1.09594096
 74
       0
 49
-1.82656827
 74
       0
 49
1.09594096
 74
       0
 49
-1.82656827
 74
       0
 49
1.09594096
 74
       0
 49
-1.82656827
 74
       0
  0
LTYPE
  5
36
100
AcDbSymbolTableRecord
100
AcDbLinetypeTableRecord
  2
ACAD_ISO13W100
 70
      64
  3
CADPAC LINETYPE
 72
      65
 73
       8
 40
14.61254613
 49
3.65313653
 74
       0
 49
-1.82656827
 74
       0
 49
3.65313653
 74
       0
 49
-1.82656827
 74
       0
 49
0.0
 74
       0
 49
-1.82656827
 74
       0
 49
0.0
 74
       0
 49
-1.82656827
 74
       0
  0
LTYPE
  5
37
100
AcDbSymbolTableRecord
100
AcDbLinetypeTableRecord
  2
ACAD_ISO14W100
 70
      64
  3
CADPAC LINETYPE
 72
      65
 73
       8
 40
10.95940959
 49
3.65313653
 74
       0
 49
-1.82656827
 74
       0
 49
0.0
 74
       0
 49
-1.82656827
 74
       0
 49
0.0
 74
       0
 49
-1.82656827
 74
       0
 49
0.0
 74
       0
 49
-1.82656827
 74
       0
  0
ENDTAB
  0
TABLE
  2
LAYER
  5
2
100
AcDbSymbolTable
 70
       6
  0
LAYER
  5
14
100
AcDbSymbolTableRecord
100
AcDbLayerTableRecord
  2
0
 70
       0
 62
       7
  6
CONTINUOUS
  0
LAYER
  5
38
100
AcDbSymbolTableRecord
100
AcDbLayerTableRecord
  2
LAYER0001
 70
       0
 62
       7
  6
CONTINUOUS
  0
LAYER
  5
39
100
AcDbSymbolTableRecord
100
AcDbLayerTableRecord
  2
LAYER0240
 70
       0
 62
       7
  6
CONTINUOUS
  0
LAYER
  5
3A
100
AcDbSymbolTableRecord
100
AcDbLayerTableRecord
  2
LAYER0241
 70
       0
 62
       7
  6
CONTINUOUS
  0
LAYER
  5
3B
100
AcDbSymbolTableRecord
100
AcDbLayerTableRecord
  2
LAYER0256
 70
       0
 62
       7
  6
CONTINUOUS
  0
LAYER
  5
3C
100
AcDbSymbolTableRecord
100
AcDbLayerTableRecord
  2
ZUWAKU
 70
       0
 62
       7
  6
CONTINUOUS
  0
ENDTAB
  0
TABLE
  2
STYLE
  5
3
100
AcDbSymbolTable
 70
       2
  0
STYLE
  5
17
100
AcDbSymbolTableRecord
100
AcDbTextStyleTableRecord
  2
STANDARD
 70
       0
 40
10.2
 41
0.8
 50
0.0
 71
       0
 42
10.2
  3
txt.shx
  4
bigfont.shx
  0
STYLE
  5
3D
100
AcDbSymbolTableRecord
100
AcDbTextStyleTableRecord
  2
FDASTYLE1
 70
       4
 40
9.0
 41
0.8
 50
0.0
 71
       0
 42
9.0
  3
txt.shx
  4
bigfont.shx
  0
ENDTAB
  0
TABLE
  2
VIEW
  5
5
100
AcDbSymbolTable
 70
       1
  0
VIEW
  5
3E
100
AcDbSymbolTableRecord
100
AcDbViewTableRecord
  2
QQQQ
 70
       0
 40
891.0
 10
0.0
 20
0.0
 41
630.0
 11
0.0
 21
0.0
 31
1.0
 12
100.0
 22
100.0
 32
0.0
 42
50.0
 43
0.0
 44
0.0
 50
0.0
 71
       0
  0
ENDTAB
  0
TABLE
  2
UCS
  5
6
100
AcDbSymbolTable
 70
       0
  0
ENDTAB
  0
TABLE
  2
APPID
  5
8
100
AcDbSymbolTable
 70
       1
  0
APPID
  5
16
100
AcDbSymbolTableRecord
100
AcDbRegAppTableRecord
  2
ACAD
 70
       0
  0
ENDTAB
  0
TABLE
  2
DIMSTYLE
  5
9
100
AcDbSymbolTable
 70
       1
  0
DIMSTYLE
105
18
100
AcDbSymbolTableRecord
100
AcDbDimStyleTableRecord
  2
STANDARD
 70
       0
  3

  4

  5

  6

  7

 40
1.0
 41
0.18
 42
0.0625
 43
0.38
 44
0.18
 45
0.0
 46
0.0
 47
0.0
 48
0.0
 71
       0
 72
       0
 73
       1
 74
       1
 75
       0
 76
       0
 77
       0
 78
       0
140
0.18
141
0.09
142
0.0
143
25.4
144
1.0
145
0.0
146
1.0
147
0.09
170
       0
171
       2
172
       0
173
       0
174
       0
175
       0
176
       0
177
       0
178
       0
270
       2
271
       4
272
       4
273
       2
274
       2
275
       0
280
       0
281
       0
282
       0
283
       1
284
       0
285
       0
286
       0
287
       3
288
       0
340
17
  0
ENDTAB
  0
TABLE
  2
BLOCK_RECORD
  5
1
100
AcDbSymbolTable
 70
      20
  0
BLOCK_RECORD
  5
A
100
AcDbSymbolTableRecord
100
AcDbBlockTableRecord
  2
*MODEL_SPACE
  0
BLOCK_RECORD
  5
B
100
AcDbSymbolTableRecord
100
AcDbBlockTableRecord
  2
*PAPER_SPACE
  0
BLOCK_RECORD
  5
3F
100
AcDbSymbolTableRecord
100
AcDbBlockTableRecord
  2
GROUP_1
  0
BLOCK_RECORD
  5
40
100
AcDbSymbolTableRecord
100
AcDbBlockTableRecord
  2
DA_IMAGEDIMGROUP_1
  0
BLOCK_RECORD
  5
41
100
AcDbSymbolTableRecord
100
AcDbBlockTableRecord
  2
_OPEN30
  0
BLOCK_RECORD
  5
42
100
AcDbSymbolTableRecord
100
AcDbBlockTableRecord
  2
DA_IMAGEDIMGROUP_2
  0
BLOCK_RECORD
  5
43
100
AcDbSymbolTableRecord
100
AcDbBlockTableRecord
  2
DA_IMAGEDIMGROUP_3
  0
BLOCK_RECORD
  5
44
100
AcDbSymbolTableRecord
100
AcDbBlockTableRecord
  2
DA_IMAGEDIMGROUP_4
  0
BLOCK_RECORD
  5
45
100
AcDbSymbolTableRecord
100
AcDbBlockTableRecord
  2
DA_IMAGEDIMGROUP_5
  0
BLOCK_RECORD
  5
46
100
AcDbSymbolTableRecord
100
AcDbBlockTableRecord
  2
DA_IMAGEDIMGROUP_6
  0
BLOCK_RECORD
  5
47
100
AcDbSymbolTableRecord
100
AcDbBlockTableRecord
  2
DA_IMAGEDIMGROUP_7
  0
BLOCK_RECORD
  5
48
100
AcDbSymbolTableRecord
100
AcDbBlockTableRecord
  2
DA_IMAGEDIMGROUP_8
  0
BLOCK_RECORD
  5
49
100
AcDbSymbolTableRecord
100
AcDbBlockTableRecord
  2
DA_IMAGEDIMGROUP_9
  0
BLOCK_RECORD
  5
4A
100
AcDbSymbolTableRecord
100
AcDbBlockTableRecord
  2
DA_IMAGEDIMGROUP_10
  0
BLOCK_RECORD
  5
4B
100
AcDbSymbolTableRecord
100
AcDbBlockTableRecord
  2
DA_IMAGEDIMGROUP_11
  0
BLOCK_RECORD
  5
4C
100
AcDbSymbolTableRecord
100
AcDbBlockTableRecord
  2
GROUP_2
  0
BLOCK_RECORD
  5
4D
100
AcDbSymbolTableRecord
100
AcDbBlockTableRecord
  2
_ORIGIN
  0
BLOCK_RECORD
  5
4E
100
AcDbSymbolTableRecord
100
AcDbBlockTableRecord
  2
_DOT
  0
BLOCK_RECORD
  5
4F
100
AcDbSymbolTableRecord
100
AcDbBlockTableRecord
  2
GROUP_3
  0
BLOCK_RECORD
  5
50
100
AcDbSymbolTableRecord
100
AcDbBlockTableRecord
  2
GROUP_4
  0
BLOCK_RECORD
  5
51
100
AcDbSymbolTableRecord
100
AcDbBlockTableRecord
  2
GROUP_5
  0
BLOCK_RECORD
  5
52
100
AcDbSymbolTableRecord
100
AcDbBlockTableRecord
  2
GROUP_6
  0
ENDTAB
  0
ENDSEC
  0
SECTION
  2
BLOCKS
  0
BLOCK
  5
D
100
AcDbEntity
  8
0
100
AcDbBlockBegin
  2
*MODEL_SPACE
 70
       0
 10
0.0
 20
0.0
 30
0.0
  3
*MODEL_SPACE
  1

  0
ENDBLK
  5
E
100
AcDbEntity
  8
0
100
AcDbBlockEnd
  0
BLOCK
  5
F
100
AcDbEntity
 67
       1
  8
0
100
AcDbBlockBegin
  2
*PAPER_SPACE
 70
       0
 10
0.0
 20
0.0
 30
0.0
  3
*PAPER_SPACE
  1

  0
ENDBLK
  5
10
100
AcDbEntity
 67
       1
  8
0
100
AcDbBlockEnd
  0
BLOCK
  5
53
100
AcDbEntity
  8
0
100
AcDbBlockBegin
  2
GROUP_1
 70
       0
 10
0.0
 20
0.0
 30
0.0
  3
GROUP_1
  1

  0
TEXT
  5
54
100
AcDbEntity
  8
ZUWAKU
 62
       7
100
AcDbText
 10
82.0625
 20
-289.61162988
 30
0.0
 40
12.0
  1
＋ナベ小ネジ
 41
0.6667
 72
       5
 11
139.6625
 21
-289.61162988
 31
0.0
100
AcDbText
  0
CIRCLE
  5
55
100
AcDbEntity
  8
ZUWAKU
  6
CONTINUOUS
 62
       7
100
AcDbCircle
 10
87.09229741
 20
-283.61162988
 30
0.0
 40
5.02979741
  0
LINE
  5
56
100
AcDbEntity
  8
ZUWAKU
  6
CONTINUOUS
 62
       7
100
AcDbLine
 10
87.09229741
 20
-279.77372304
 30
0.0
 11
87.09229741
 21
-287.44953672
 31
0.0
  0
LINE
  5
57
100
AcDbEntity
  8
ZUWAKU
  6
CONTINUOUS
 62
       7
100
AcDbLine
 10
90.93020425
 20
-283.61162988
 30
0.0
 11
83.25439058
 21
-283.61162988
 31
0.0
  0
ENDBLK
  5
58
100
AcDbEntity
  8
0
100
AcDbBlockEnd
  0
BLOCK
  5
59
100
AcDbEntity
  8
0
100
AcDbBlockBegin
  2
DA_IMAGEDIMGROUP_1
 70
       0
 10
0.0
 20
0.0
 30
0.0
  3
DA_IMAGEDIMGROUP_1
  1

  0
LINE
  5
5A
100
AcDbEntity
  8
0
  6
CONTINUOUS
 62
       7
100
AcDbLine
 10
-212.97389999
 20
-5.53742731
 30
0.0
 11
-212.97389999
 21
41.5647885
 31
0.0
  0
LINE
  5
5B
100
AcDbEntity
  8
0
  6
CONTINUOUS
 62
       7
100
AcDbLine
 10
-197.97389999
 20
-20.53742731
 30
0.0
 11
-197.97389999
 21
41.5647885
 31
0.0
  0
LINE
  5
5C
100
AcDbEntity
  8
0
  6
CONTINUOUS
 62
       7
100
AcDbLine
 10
-212.97389999
 20
38.5647885
 30
0.0
 11
-197.97389999
 21
38.5647885
 31
0.0
  0
LINE
  5
5D
100
AcDbEntity
  8
0
  6
CONTINUOUS
 62
       7
100
AcDbLine
 10
-62.97389999
 20
-20.53742731
 30
0.0
 11
-62.97389999
 21
41.5647885
 31
0.0
  0
LINE
  5
5E
100
AcDbEntity
  8
0
  6
CONTINUOUS
 62
       7
100
AcDbLine
 10
-49.97439999
 20
-20.53742731
 30
0.0
 11
-49.97439999
 21
41.5647885
 31
0.0
  0
LINE
  5
5F
100
AcDbEntity
  8
0
  6
CONTINUOUS
 62
       7
100
AcDbLine
 10
85.02560001
 20
-20.53742731
 30
0.0
 11
85.02560001
 21
41.5647885
 31
0.0
  0
LINE
  5
60
100
AcDbEntity
  8
0
  6
CONTINUOUS
 62
       7
100
AcDbLine
 10
100.02560001
 20
-5.53742731
 30
0.0
 11
100.02560001
 21
41.5647885
 31
0.0
  0
LINE
  5
61
100
AcDbEntity
  8
0
  6
CONTINUOUS
 62
       7
100
AcDbLine
 10
85.02560001
 20
38.5647885
 30
0.0
 11
100.02560001
 21
38.5647885
 31
0.0
  0
LINE
  5
62
100
AcDbEntity
  8
0
  6
CONTINUOUS
 62
       7
100
AcDbLine
 10
-247.17389999
 20
38.5647885
 30
0.0
 11
-212.97389999
 21
38.5647885
 31
0.0
  0
INSERT
  5
63
100
AcDbEntity
  8
0
  6
CONTINUOUS
 62
       7
100
AcDbBlockReference
  2
_OPEN30
 10
-212.97389999
 20
38.5647885
 30
0.0
 41
9.00000836
 42
8.99996782
 50
360.0
  0
LINE
  5
64
100
AcDbEntity
  8
0
  6
CONTINUOUS
 62
       7
100
AcDbLine
 10
134.22560001
 20
38.5647885
 30
0.0
 11
100.02560001
 21
38.5647885
 31
0.0
  0
INSERT
  5
65
100
AcDbEntity
  8
0
  6
CONTINUOUS
 62
       7
100
AcDbBlockReference
  2
_OPEN30
 10
100.02560001
 20
38.5647885
 30
0.0
 41
9.00000836
 42
8.99996782
 50
180.0
  0
LINE
  5
66
100
AcDbEntity
  8
0
  6
CONTINUOUS
 62
       7
100
AcDbLine
 10
-197.97389999
 20
38.5647885
 30
0.0
 11
-62.97389999
 21
38.5647885
 31
0.0
  0
INSERT
  5
67
100
AcDbEntity
  8
0
  6
CONTINUOUS
 62
       7
100
AcDbBlockReference
  2
_OPEN30
 10
-197.97389999
 20
38.5647885
 30
0.0
 41
9.00000836
 42
8.99996782
 50
180.0
  0
INSERT
  5
68
100
AcDbEntity
  8
0
  6
CONTINUOUS
 62
       7
100
AcDbBlockReference
  2
_OPEN30
 10
-62.97389999
 20
38.5647885
 30
0.0
 41
9.00000836
 42
8.99996782
 50
360.0
  0
LINE
  5
69
100
AcDbEntity
  8
0
  6
CONTINUOUS
 62
       7
100
AcDbLine
 10
-62.97389999
 20
38.5647885
 30
0.0
 11
-49.97439999
 21
38.5647885
 31
0.0
  0
INSERT
  5
6A
100
AcDbEntity
  8
0
  6
CONTINUOUS
 62
       7
100
AcDbBlockReference
  2
_OPEN30
 10
-62.97389999
 20
38.5647885
 30
0.0
 41
9.00000836
 42
8.99996782
 50
180.0
  0
INSERT
  5
6B
100
AcDbEntity
  8
0
  6
CONTINUOUS
 62
       7
100
AcDbBlockReference
  2
_OPEN30
 10
-49.97439999
 20
38.5647885
 30
0.0
 41
9.00000836
 42
8.99996782
 50
360.0
  0
LINE
  5
6C
100
AcDbEntity
  8
0
  6
CONTINUOUS
 62
       7
100
AcDbLine
 10
-49.97439999
 20
38.5647885
 30
0.0
 11
85.02560001
 21
38.5647885
 31
0.0
  0
INSERT
  5
6D
100
AcDbEntity
  8
0
  6
CONTINUOUS
 62
       7
100
AcDbBlockReference
  2
_OPEN30
 10
-49.97439999
 20
38.5647885
 30
0.0
 41
9.00000836
 42
8.99996782
 50
180.0
  0
INSERT
  5
6E
100
AcDbEntity
  8
0
  6
CONTINUOUS
 62
       7
100
AcDbBlockReference
  2
_OPEN30
 10
85.02560001
 20
38.5647885
 30
0.0
 41
9.00000836
 42
8.99996782
 50
360.0
  0
TEXT
  5
6F
100
AcDbEntity
  8
0
 62
       7
100
AcDbText
 10
-244.17389999
 20
40.0647885
 30
0.0
 40
12.0
  1
15
 41
0.8
 72
       5
 11
-224.97389999
 21
40.0647885
 31
0.0
100
AcDbText
  0
TEXT
  5
70
100
AcDbEntity
  8
0
 62
       7
100
AcDbText
 10
-144.87389999
 20
40.0647885
 30
0.0
 40
12.0
  1
135
 41
0.8
 72
       5
 11
-116.07389999
 21
40.0647885
 31
0.0
100
AcDbText
  0
TEXT
  5
71
100
AcDbEntity
  8
0
 62
       7
100
AcDbText
 10
-66.10514999
 20
40.0647885
 30
0.0
 40
12.0
  1
13
 41
0.8
 72
       5
 11
-46.90514999
 21
40.0647885
 31
0.0
100
AcDbText
  0
TEXT
  5
72
100
AcDbEntity
  8
0
 62
       7
100
AcDbText
 10
3.12560001
 20
40.0647885
 30
0.0
 40
12.0
  1
135
 41
0.8
 72
       5
 11
31.92560001
 21
40.0647885
 31
0.0
100
AcDbText
  0
TEXT
  5
73
100
AcDbEntity
  8
0
 62
       7
100
AcDbText
 10
112.02560001
 20
40.0647885
 30
0.0
 40
12.0
  1
15
 41
0.8
 72
       5
 11
131.22560001
 21
40.0647885
 31
0.0
100
AcDbText
  0
ENDBLK
  5
74
100
AcDbEntity
  8
0
100
AcDbBlockEnd
  0
BLOCK
  5
75
100
AcDbEntity
  8
0
100
AcDbBlockBegin
  2
_OPEN30
 70
       0
 10
0.0
 20
0.0
 30
0.0
  3
_OPEN30
  1

  0
LINE
  5
76
100
AcDbEntity
  8
0
  6
CONTINUOUS
 62
       0
100
AcDbLine
 10
0.0
 20
0.0
 30
0.0
 11
-0.96592583
 21
0.25881905
 31
0.0
  0
LINE
  5
77
100
AcDbEntity
  8
0
  6
CONTINUOUS
 62
       0
100
AcDbLine
 10
0.0
 20
0.0
 30
0.0
 11
-0.96592583
 21
-0.25881905
 31
0.0
  0
LINE
  5
78
100
AcDbEntity
  8
0
  6
CONTINUOUS
 62
       0
100
AcDbLine
 10
0.0
 20
0.0
 30
0.0
 11
-1.0
 21
0.0
 31
0.0
  0
ENDBLK
  5
79
100
AcDbEntity
  8
0
100
AcDbBlockEnd
  0
BLOCK
  5
7A
100
AcDbEntity
  8
0
100
AcDbBlockBegin
  2
DA_IMAGEDIMGROUP_2
 70
       0
 10
0.0
 20
0.0
 30
0.0
  3
DA_IMAGEDIMGROUP_2
  1

  0
LINE
  5
7B
100
AcDbEntity
  8
0
  6
CONTINUOUS
 62
       7
100
AcDbLine
 10
100.02560001
 20
41.5647885
 30
0.0
 11
100.02560001
 21
73.10456588
 31
0.0
  0
LINE
  5
7C
100
AcDbEntity
  8
0
  6
CONTINUOUS
 62
       7
100
AcDbLine
 10
-212.97389999
 20
41.5647885
 30
0.0
 11
-212.97389999
 21
73.10456588
 31
0.0
  0
LINE
  5
7D
100
AcDbEntity
  8
0
  6
CONTINUOUS
 62
       7
100
AcDbLine
 10
100.02560001
 20
70.10456588
 30
0.0
 11
-212.97389999
 21
70.10456588
 31
0.0
  0
INSERT
  5
7E
100
AcDbEntity
  8
0
  6
CONTINUOUS
 62
       7
100
AcDbBlockReference
  2
_OPEN30
 10
100.02560001
 20
70.10456588
 30
0.0
 41
9.00000836
 42
8.99996782
 50
360.0
  0
INSERT
  5
7F
100
AcDbEntity
  8
0
  6
CONTINUOUS
 62
       7
100
AcDbBlockReference
  2
_OPEN30
 10
-212.97389999
 20
70.10456588
 30
0.0
 41
9.00000836
 42
8.99996782
 50
180.0
  0
TEXT
  5
80
100
AcDbEntity
  8
0
 62
       7
100
AcDbText
 10
-70.90514999
 20
71.60456588
 30
0.0
 40
12.0
  1
313
 41
0.8
 72
       5
 11
-42.10514999
 21
71.60456588
 31
0.0
100
AcDbText
  0
ENDBLK
  5
81
100
AcDbEntity
  8
0
100
AcDbBlockEnd
  0
BLOCK
  5
82
100
AcDbEntity
  8
0
100
AcDbBlockBegin
  2
DA_IMAGEDIMGROUP_3
 70
       0
 10
0.0
 20
0.0
 30
0.0
  3
DA_IMAGEDIMGROUP_3
  1

  0
LINE
  5
83
100
AcDbEntity
  8
0
  6
CONTINUOUS
 62
       7
100
AcDbLine
 10
-214.09889999
 20
185.90701767
 30
0.0
 11
-228.86661801
 21
185.90701767
 31
0.0
  0
LINE
  5
84
100
AcDbEntity
  8
0
  6
CONTINUOUS
 62
       7
100
AcDbLine
 10
-215.97389999
 20
188.90701767
 30
0.0
 11
-228.86661801
 21
188.90701767
 31
0.0
  0
LINE
  5
85
100
AcDbEntity
  8
0
  6
CONTINUOUS
 62
       7
100
AcDbLine
 10
-225.86661801
 20
185.90701767
 30
0.0
 11
-225.86661801
 21
188.90701767
 31
0.0
  0
LINE
  5
86
100
AcDbEntity
  8
0
  6
CONTINUOUS
 62
       7
100
AcDbLine
 10
-202.66139999
 20
259.96951767
 30
0.0
 11
-228.86661801
 21
259.96951767
 31
0.0
  0
LINE
  5
87
100
AcDbEntity
  8
0
  6
CONTINUOUS
 62
       7
100
AcDbLine
 10
-225.86661801
 20
161.30701767
 30
0.0
 11
-225.86661801
 21
185.90701767
 31
0.0
  0
INSERT
  5
88
100
AcDbEntity
  8
0
  6
CONTINUOUS
 62
       7
100
AcDbBlockReference
  2
_OPEN30
 10
-225.86661801
 20
185.90701767
 30
0.0
 41
9.00000836
 42
8.99996782
 50
90.0
  0
LINE
  5
89
100
AcDbEntity
  8
0
  6
CONTINUOUS
 62
       7
100
AcDbLine
 10
-225.86661801
 20
188.90701767
 30
0.0
 11
-225.86661801
 21
259.96951767
 31
0.0
  0
INSERT
  5
8A
100
AcDbEntity
  8
0
  6
CONTINUOUS
 62
       7
100
AcDbBlockReference
  2
_OPEN30
 10
-225.86661801
 20
188.90701767
 30
0.0
 41
9.00000836
 42
8.99996782
 50
270.0
  0
INSERT
  5
8B
100
AcDbEntity
  8
0
  6
CONTINUOUS
 62
       7
100
AcDbBlockReference
  2
_OPEN30
 10
-225.86661801
 20
259.96951767
 30
0.0
 41
9.00000836
 42
8.99996782
 50
90.0
  0
TEXT
  5
8C
100
AcDbEntity
  8
0
 62
       7
100
AcDbText
 10
-227.36661801
 20
164.30701767
 30
0.0
 40
12.0
  1
3
 50
90.0
 41
0.8
 72
       5
 11
-227.36661801
 21
173.90701767
 31
0.0
100
AcDbText
  0
TEXT
  5
8D
100
AcDbEntity
  8
0
 62
       7
100
AcDbText
 10
-227.36661801
 20
214.83826767
 30
0.0
 40
12.0
  1
71
 50
90.0
 41
0.8
 72
       5
 11
-227.36661801
 21
234.03826767
 31
0.0
100
AcDbText
  0
ENDBLK
  5
8E
100
AcDbEntity
  8
0
100
AcDbBlockEnd
  0
BLOCK
  5
8F
100
AcDbEntity
  8
0
100
AcDbBlockBegin
  2
DA_IMAGEDIMGROUP_4
 70
       0
 10
0.0
 20
0.0
 30
0.0
  3
DA_IMAGEDIMGROUP_4
  1

  0
LINE
  5
90
100
AcDbEntity
  8
0
  6
CONTINUOUS
 62
       7
100
AcDbLine
 10
83.52560001
 20
136.43036093
 30
0.0
 11
83.52560001
 21
108.39908421
 31
0.0
  0
LINE
  5
91
100
AcDbEntity
  8
0
  6
CONTINUOUS
 62
       7
100
AcDbLine
 10
-48.47439999
 20
136.43036093
 30
0.0
 11
-48.47439999
 21
108.39908421
 31
0.0
  0
LINE
  5
92
100
AcDbEntity
  8
0
  6
CONTINUOUS
 62
       7
100
AcDbLine
 10
-48.47439999
 20
111.39908421
 30
0.0
 11
83.52560001
 21
111.39908421
 31
0.0
  0
INSERT
  5
93
100
AcDbEntity
  8
0
  6
CONTINUOUS
 62
       7
100
AcDbBlockReference
  2
_OPEN30
 10
-48.47439999
 20
111.39908421
 30
0.0
 41
9.00000836
 42
8.99996782
 50
180.0
  0
INSERT
  5
94
100
AcDbEntity
  8
0
  6
CONTINUOUS
 62
       7
100
AcDbBlockReference
  2
_OPEN30
 10
83.52560001
 20
111.39908421
 30
0.0
 41
9.00000836
 42
8.99996782
 50
360.0
  0
TEXT
  5
95
100
AcDbEntity
  8
0
 62
       7
100
AcDbText
 10
3.12560001
 20
112.89908421
 30
0.0
 40
12.0
  1
132
 41
0.8
 72
       5
 11
31.92560001
 21
112.89908421
 31
0.0
100
AcDbText
  0
ENDBLK
  5
96
100
AcDbEntity
  8
0
100
AcDbBlockEnd
  0
BLOCK
  5
97
100
AcDbEntity
  8
0
100
AcDbBlockBegin
  2
DA_IMAGEDIMGROUP_5
 70
       0
 10
0.0
 20
0.0
 30
0.0
  3
DA_IMAGEDIMGROUP_5
  1

  0
LINE
  5
98
100
AcDbEntity
  8
0
  6
CONTINUOUS
 62
       7
100
AcDbLine
 10
-196.47389999
 20
136.43036093
 30
0.0
 11
-196.47389999
 21
108.39908421
 31
0.0
  0
LINE
  5
99
100
AcDbEntity
  8
0
  6
CONTINUOUS
 62
       7
100
AcDbLine
 10
-64.47389999
 20
136.43036093
 30
0.0
 11
-64.47389999
 21
108.39908421
 31
0.0
  0
LINE
  5
9A
100
AcDbEntity
  8
0
  6
CONTINUOUS
 62
       7
100
AcDbLine
 10
-64.47389999
 20
111.39908421
 30
0.0
 11
-196.47389999
 21
111.39908421
 31
0.0
  0
INSERT
  5
9B
100
AcDbEntity
  8
0
  6
CONTINUOUS
 62
       7
100
AcDbBlockReference
  2
_OPEN30
 10
-64.47389999
 20
111.39908421
 30
0.0
 41
9.00000836
 42
8.99996782
 50
360.0
  0
INSERT
  5
9C
100
AcDbEntity
  8
0
  6
CONTINUOUS
 62
       7
100
AcDbBlockReference
  2
_OPEN30
 10
-196.47389999
 20
111.39908421
 30
0.0
 41
9.00000836
 42
8.99996782
 50
180.0
  0
TEXT
  5
9D
100
AcDbEntity
  8
0
 62
       7
100
AcDbText
 10
-144.87389999
 20
112.89908421
 30
0.0
 40
12.0
  1
132
 41
0.8
 72
       5
 11
-116.07389999
 21
112.89908421
 31
0.0
100
AcDbText
  0
ENDBLK
  5
9E
100
AcDbEntity
  8
0
100
AcDbBlockEnd
  0
BLOCK
  5
9F
100
AcDbEntity
  8
0
100
AcDbBlockBegin
  2
DA_IMAGEDIMGROUP_6
 70
       0
 10
0.0
 20
0.0
 30
0.0
  3
DA_IMAGEDIMGROUP_6
  1

  0
LINE
  5
A0
100
AcDbEntity
  8
0
  6
CONTINUOUS
 62
       7
100
AcDbLine
 10
86.90060001
 20
262.96951767
 30
0.0
 11
86.90060001
 21
348.73307342
 31
0.0
  0
LINE
  5
A1
100
AcDbEntity
  8
0
  6
CONTINUOUS
 62
       7
100
AcDbLine
 10
-199.66139999
 20
262.96951767
 30
0.0
 11
-199.66139999
 21
348.73307342
 31
0.0
  0
LINE
  5
A2
100
AcDbEntity
  8
0
  6
CONTINUOUS
 62
       7
100
AcDbLine
 10
-199.66139999
 20
345.73307342
 30
0.0
 11
86.90060001
 21
345.73307342
 31
0.0
  0
INSERT
  5
A3
100
AcDbEntity
  8
0
  6
CONTINUOUS
 62
       7
100
AcDbBlockReference
  2
_OPEN30
 10
-199.66139999
 20
345.73307342
 30
0.0
 41
9.00000836
 42
8.99996782
 50
180.0
  0
INSERT
  5
A4
100
AcDbEntity
  8
0
  6
CONTINUOUS
 62
       7
100
AcDbBlockReference
  2
_OPEN30
 10
86.90060001
 20
345.73307342
 30
0.0
 41
9.00000836
 42
8.99996782
 50
360.0
  0
TEXT
  5
A5
100
AcDbEntity
  8
0
 62
       7
100
AcDbText
 10
-70.78039999
 20
347.23307342
 30
0.0
 40
12.0
  1
287
 41
0.8
 72
       5
 11
-41.98039999
 21
347.23307342
 31
0.0
100
AcDbText
  0
ENDBLK
  5
A6
100
AcDbEntity
  8
0
100
AcDbBlockEnd
  0
BLOCK
  5
A7
100
AcDbEntity
  8
0
100
AcDbBlockBegin
  2
DA_IMAGEDIMGROUP_7
 70
       0
 10
0.0
 20
0.0
 30
0.0
  3
DA_IMAGEDIMGROUP_7
  1

  0
LINE
  5
A8
100
AcDbEntity
  8
0
  6
CONTINUOUS
 62
       7
100
AcDbLine
 10
-152.47414999
 20
275.80849644
 30
0.0
 11
-152.47414999
 21
314.26384952
 31
0.0
  0
LINE
  5
A9
100
AcDbEntity
  8
0
  6
CONTINUOUS
 62
       7
100
AcDbLine
 10
-102.47414999
 20
275.80849644
 30
0.0
 11
-102.47414999
 21
314.26384952
 31
0.0
  0
LINE
  5
AA
100
AcDbEntity
  8
0
  6
CONTINUOUS
 62
       7
100
AcDbLine
 10
-10.47414999
 20
275.80849644
 30
0.0
 11
-10.47414999
 21
314.26384952
 31
0.0
  0
LINE
  5
AB
100
AcDbEntity
  8
0
  6
CONTINUOUS
 62
       7
100
AcDbLine
 10
39.52585001
 20
275.80849644
 30
0.0
 11
39.52585001
 21
314.26384952
 31
0.0
  0
LINE
  5
AC
100
AcDbEntity
  8
0
  6
CONTINUOUS
 62
       7
100
AcDbLine
 10
-152.47414999
 20
311.26384952
 30
0.0
 11
-102.47414999
 21
311.26384952
 31
0.0
  0
INSERT
  5
AD
100
AcDbEntity
  8
0
  6
CONTINUOUS
 62
       7
100
AcDbBlockReference
  2
_OPEN30
 10
-152.47414999
 20
311.26384952
 30
0.0
 41
9.00000836
 42
8.99996782
 50
180.0
  0
INSERT
  5
AE
100
AcDbEntity
  8
0
  6
CONTINUOUS
 62
       7
100
AcDbBlockReference
  2
_OPEN30
 10
-102.47414999
 20
311.26384952
 30
0.0
 41
9.00000836
 42
8.99996782
 50
360.0
  0
LINE
  5
AF
100
AcDbEntity
  8
0
  6
CONTINUOUS
 62
       7
100
AcDbLine
 10
-102.47414999
 20
311.26384952
 30
0.0
 11
-10.47414999
 21
311.26384952
 31
0.0
  0
INSERT
  5
B0
100
AcDbEntity
  8
0
  6
CONTINUOUS
 62
       7
100
AcDbBlockReference
  2
_OPEN30
 10
-102.47414999
 20
311.26384952
 30
0.0
 41
9.00000836
 42
8.99996782
 50
180.0
  0
INSERT
  5
B1
100
AcDbEntity
  8
0
  6
CONTINUOUS
 62
       7
100
AcDbBlockReference
  2
_OPEN30
 10
-10.47414999
 20
311.26384952
 30
0.0
 41
9.00000836
 42
8.99996782
 50
360.0
  0
LINE
  5
B2
100
AcDbEntity
  8
0
  6
CONTINUOUS
 62
       7
100
AcDbLine
 10
-10.47414999
 20
311.26384952
 30
0.0
 11
39.52585001
 21
311.26384952
 31
0.0
  0
INSERT
  5
B3
100
AcDbEntity
  8
0
  6
CONTINUOUS
 62
       7
100
AcDbBlockReference
  2
_OPEN30
 10
-10.47414999
 20
311.26384952
 30
0.0
 41
9.00000836
 42
8.99996782
 50
180.0
  0
INSERT
  5
B4
100
AcDbEntity
  8
0
  6
CONTINUOUS
 62
       7
100
AcDbBlockReference
  2
_OPEN30
 10
39.52585001
 20
311.26384952
 30
0.0
 41
9.00000836
 42
8.99996782
 50
360.0
  0
TEXT
  5
B5
100
AcDbEntity
  8
0
 62
       7
100
AcDbText
 10
-137.07414999
 20
312.76384952
 30
0.0
 40
12.0
  1
50
 41
0.8
 72
       5
 11
-117.87414999
 21
312.76384952
 31
0.0
100
AcDbText
  0
TEXT
  5
B6
100
AcDbEntity
  8
0
 62
       7
100
AcDbText
 10
-66.07414999
 20
312.76384952
 30
0.0
 40
12.0
  1
92
 41
0.8
 72
       5
 11
-46.87414999
 21
312.76384952
 31
0.0
100
AcDbText
  0
TEXT
  5
B7
100
AcDbEntity
  8
0
 62
       7
100
AcDbText
 10
4.92585001
 20
312.76384952
 30
0.0
 40
12.0
  1
50
 41
0.8
 72
       5
 11
24.12585001
 21
312.76384952
 31
0.0
100
AcDbText
  0
ENDBLK
  5
B8
100
AcDbEntity
  8
0
100
AcDbBlockEnd
  0
BLOCK
  5
B9
100
AcDbEntity
  8
0
100
AcDbBlockBegin
  2
DA_IMAGEDIMGROUP_8
 70
       0
 10
0.0
 20
0.0
 30
0.0
  3
DA_IMAGEDIMGROUP_8
  1

  0
LINE
  5
BA
100
AcDbEntity
  8
0
  6
CONTINUOUS
 62
       7
100
AcDbLine
 10
-228.44762485
 20
-165.84992731
 30
0.0
 11
-228.44762485
 21
-150.84992731
 31
0.0
  0
LINE
  5
BB
100
AcDbEntity
  8
0
  6
CONTINUOUS
 62
       7
100
AcDbLine
 10
-228.44762485
 20
-15.84992731
 30
0.0
 11
-228.44762485
 21
-0.84992731
 31
0.0
  0
LINE
  5
BC
100
AcDbEntity
  8
0
  6
CONTINUOUS
 62
       7
100
AcDbLine
 10
-208.28639999
 20
-165.84992731
 30
0.0
 11
-231.44762485
 21
-165.84992731
 31
0.0
  0
LINE
  5
BD
100
AcDbEntity
  8
0
  6
CONTINUOUS
 62
       7
100
AcDbLine
 10
-193.28639999
 20
-150.84992731
 30
0.0
 11
-231.44762485
 21
-150.84992731
 31
0.0
  0
LINE
  5
BE
100
AcDbEntity
  8
0
  6
CONTINUOUS
 62
       7
100
AcDbLine
 10
-193.28639999
 20
-15.84992731
 30
0.0
 11
-231.44762485
 21
-15.84992731
 31
0.0
  0
LINE
  5
BF
100
AcDbEntity
  8
0
  6
CONTINUOUS
 62
       7
100
AcDbLine
 10
-208.28639999
 20
-0.84992731
 30
0.0
 11
-231.44762485
 21
-0.84992731
 31
0.0
  0
LINE
  5
C0
100
AcDbEntity
  8
0
  6
CONTINUOUS
 62
       7
100
AcDbLine
 10
-228.44762485
 20
-200.04992731
 30
0.0
 11
-228.44762485
 21
-165.84992731
 31
0.0
  0
INSERT
  5
C1
100
AcDbEntity
  8
0
  6
CONTINUOUS
 62
       7
100
AcDbBlockReference
  2
_OPEN30
 10
-228.44762485
 20
-165.84992731
 30
0.0
 41
9.00000836
 42
8.99996782
 50
90.0
  0
LINE
  5
C2
100
AcDbEntity
  8
0
  6
CONTINUOUS
 62
       7
100
AcDbLine
 10
-228.44762485
 20
33.35007269
 30
0.0
 11
-228.44762485
 21
-0.84992731
 31
0.0
  0
INSERT
  5
C3
100
AcDbEntity
  8
0
  6
CONTINUOUS
 62
       7
100
AcDbBlockReference
  2
_OPEN30
 10
-228.44762485
 20
-0.84992731
 30
0.0
 41
9.00000836
 42
8.99996782
 50
270.0
  0
LINE
  5
C4
100
AcDbEntity
  8
0
  6
CONTINUOUS
 62
       7
100
AcDbLine
 10
-228.44762485
 20
-150.84992731
 30
0.0
 11
-228.44762485
 21
-15.84992731
 31
0.0
  0
INSERT
  5
C5
100
AcDbEntity
  8
0
  6
CONTINUOUS
 62
       7
100
AcDbBlockReference
  2
_OPEN30
 10
-228.44762485
 20
-150.84992731
 30
0.0
 41
9.00000836
 42
8.99996782
 50
270.0
  0
INSERT
  5
C6
100
AcDbEntity
  8
0
  6
CONTINUOUS
 62
       7
100
AcDbBlockReference
  2
_OPEN30
 10
-228.44762485
 20
-15.84992731
 30
0.0
 41
9.00000836
 42
8.99996782
 50
90.0
  0
TEXT
  5
C7
100
AcDbEntity
  8
0
 62
       7
100
AcDbText
 10
-229.94762485
 20
-197.04992731
 30
0.0
 40
12.0
  1
15
 50
90.0
 41
0.8
 72
       5
 11
-229.94762485
 21
-177.84992731
 31
0.0
100
AcDbText
  0
TEXT
  5
C8
100
AcDbEntity
  8
0
 62
       7
100
AcDbText
 10
-229.94762485
 20
-97.74992731
 30
0.0
 40
12.0
  1
135
 50
90.0
 41
0.8
 72
       5
 11
-229.94762485
 21
-68.94992731
 31
0.0
100
AcDbText
  0
TEXT
  5
C9
100
AcDbEntity
  8
0
 62
       7
100
AcDbText
 10
-229.94762485
 20
11.15007269
 30
0.0
 40
12.0
  1
15
 50
90.0
 41
0.8
 72
       5
 11
-229.94762485
 21
30.35007269
 31
0.0
100
AcDbText
  0
ENDBLK
  5
CA
100
AcDbEntity
  8
0
100
AcDbBlockEnd
  0
BLOCK
  5
CB
100
AcDbEntity
  8
0
100
AcDbBlockBegin
  2
DA_IMAGEDIMGROUP_9
 70
       0
 10
0.0
 20
0.0
 30
0.0
  3
DA_IMAGEDIMGROUP_9
  1

  0
LINE
  5
CC
100
AcDbEntity
  8
0
  6
CONTINUOUS
 62
       7
100
AcDbLine
 10
-249.06760049
 20
-165.84992731
 30
0.0
 11
-249.06760049
 21
-0.84992731
 31
0.0
  0
INSERT
  5
CD
100
AcDbEntity
  8
0
  6
CONTINUOUS
 62
       7
100
AcDbBlockReference
  2
_OPEN30
 10
-249.06760049
 20
-165.84992731
 30
0.0
 41
9.00000836
 42
8.99996782
 50
270.0
  0
INSERT
  5
CE
100
AcDbEntity
  8
0
  6
CONTINUOUS
 62
       7
100
AcDbBlockReference
  2
_OPEN30
 10
-249.06760049
 20
-0.84992731
 30
0.0
 41
9.00000836
 42
8.99996782
 50
90.0
  0
LINE
  5
CF
100
AcDbEntity
  8
0
  6
CONTINUOUS
 62
       7
100
AcDbLine
 10
-208.28639999
 20
-165.84992731
 30
0.0
 11
-252.06760049
 21
-165.84992731
 31
0.0
  0
LINE
  5
D0
100
AcDbEntity
  8
0
  6
CONTINUOUS
 62
       7
100
AcDbLine
 10
-208.28639999
 20
-0.84992731
 30
0.0
 11
-252.06760049
 21
-0.84992731
 31
0.0
  0
TEXT
  5
D1
100
AcDbEntity
  8
0
 62
       7
100
AcDbText
 10
-250.56760049
 20
-97.74992731
 30
0.0
 40
12.0
  1
165
 50
90.0
 41
0.8
 72
       5
 11
-250.56760049
 21
-68.94992731
 31
0.0
100
AcDbText
  0
ENDBLK
  5
D2
100
AcDbEntity
  8
0
100
AcDbBlockEnd
  0
BLOCK
  5
D3
100
AcDbEntity
  8
0
100
AcDbBlockBegin
  2
DA_IMAGEDIMGROUP_10
 70
       0
 10
0.0
 20
0.0
 30
0.0
  3
DA_IMAGEDIMGROUP_10
  1

  0
LINE
  5
D4
100
AcDbEntity
  8
0
  6
CONTINUOUS
 62
       7
100
AcDbLine
 10
266.11388551
 20
-151.6143025
 30
0.0
 11
266.11388551
 21
-81.6143025
 31
0.0
  0
INSERT
  5
D5
100
AcDbEntity
  8
0
  6
CONTINUOUS
 62
       7
100
AcDbBlockReference
  2
_OPEN30
 10
266.11388551
 20
-151.6143025
 30
0.0
 41
9.00000836
 42
8.99996782
 50
270.0
  0
INSERT
  5
D6
100
AcDbEntity
  8
0
  6
CONTINUOUS
 62
       7
100
AcDbBlockReference
  2
_OPEN30
 10
266.11388551
 20
-81.6143025
 30
0.0
 41
9.00000836
 42
8.99996782
 50
90.0
  0
LINE
  5
D7
100
AcDbEntity
  8
0
  6
CONTINUOUS
 62
       7
100
AcDbLine
 10
266.11388551
 20
-81.6143025
 30
0.0
 11
266.11388551
 21
-11.6143025
 31
0.0
  0
INSERT
  5
D8
100
AcDbEntity
  8
0
  6
CONTINUOUS
 62
       7
100
AcDbBlockReference
  2
_OPEN30
 10
266.11388551
 20
-81.6143025
 30
0.0
 41
9.00000836
 42
8.99996782
 50
270.0
  0
INSERT
  5
D9
100
AcDbEntity
  8
0
  6
CONTINUOUS
 62
       7
100
AcDbBlockReference
  2
_OPEN30
 10
266.11388551
 20
-11.6143025
 30
0.0
 41
9.00000836
 42
8.99996782
 50
90.0
  0
LINE
  5
DA
100
AcDbEntity
  8
0
  6
CONTINUOUS
 62
       7
100
AcDbLine
 10
251.37430412
 20
-151.6143025
 30
0.0
 11
269.11388551
 21
-151.6143025
 31
0.0
  0
LINE
  5
DB
100
AcDbEntity
  8
0
  6
CONTINUOUS
 62
       7
100
AcDbLine
 10
251.37430412
 20
-11.6143025
 30
0.0
 11
269.11388551
 21
-11.6143025
 31
0.0
  0
TEXT
  5
DC
100
AcDbEntity
  8
0
 62
       7
100
AcDbText
 10
264.61388551
 20
-126.2143025
 30
0.0
 40
12.0
  1
70
 50
90.0
 41
0.8
 72
       5
 11
264.61388551
 21
-107.0143025
 31
0.0
100
AcDbText
  0
TEXT
  5
DD
100
AcDbEntity
  8
0
 62
       7
100
AcDbText
 10
264.61388551
 20
-56.2143025
 30
0.0
 40
12.0
  1
70
 50
90.0
 41
0.8
 72
       5
 11
264.61388551
 21
-37.0143025
 31
0.0
100
AcDbText
  0
ENDBLK
  5
DE
100
AcDbEntity
  8
0
100
AcDbBlockEnd
  0
BLOCK
  5
DF
100
AcDbEntity
  8
0
100
AcDbBlockBegin
  2
DA_IMAGEDIMGROUP_11
 70
       0
 10
0.0
 20
0.0
 30
0.0
  3
DA_IMAGEDIMGROUP_11
  1

  0
LINE
  5
E0
100
AcDbEntity
  8
0
  6
CONTINUOUS
 62
       7
100
AcDbLine
 10
287.05176614
 20
-151.6143025
 30
0.0
 11
287.05176614
 21
-11.6143025
 31
0.0
  0
INSERT
  5
E1
100
AcDbEntity
  8
0
  6
CONTINUOUS
 62
       7
100
AcDbBlockReference
  2
_OPEN30
 10
287.05176614
 20
-151.6143025
 30
0.0
 41
9.00000836
 42
8.99996782
 50
270.0
  0
INSERT
  5
E2
100
AcDbEntity
  8
0
  6
CONTINUOUS
 62
       7
100
AcDbBlockReference
  2
_OPEN30
 10
287.05176614
 20
-11.6143025
 30
0.0
 41
9.00000836
 42
8.99996782
 50
90.0
  0
LINE
  5
E3
100
AcDbEntity
  8
0
  6
CONTINUOUS
 62
       7
100
AcDbLine
 10
269.11388551
 20
-151.6143025
 30
0.0
 11
290.05176614
 21
-151.6143025
 31
0.0
  0
LINE
  5
E4
100
AcDbEntity
  8
0
  6
CONTINUOUS
 62
       7
100
AcDbLine
 10
290.05176614
 20
-11.6143025
 30
0.0
 11
266.11388551
 21
-11.6143025
 31
0.0
  0
TEXT
  5
E5
100
AcDbEntity
  8
0
 62
       7
100
AcDbText
 10
285.55176614
 20
-96.0143025
 30
0.0
 40
12.0
  1
140
 50
90.0
 41
0.8
 72
       5
 11
285.55176614
 21
-67.2143025
 31
0.0
100
AcDbText
  0
ENDBLK
  5
E6
100
AcDbEntity
  8
0
100
AcDbBlockEnd
  0
BLOCK
  5
E7
100
AcDbEntity
  8
0
100
AcDbBlockBegin
  2
GROUP_2
 70
       0
 10
0.0
 20
0.0
 30
0.0
  3
GROUP_2
  1

  0
LINE
  5
E8
100
AcDbEntity
  8
0
  6
CONTINUOUS
 62
       7
100
AcDbLine
 10
92.03346993
 20
-13.09223589
 30
0.0
 11
111.55682492
 21
7.79253539
 31
0.0
  0
INSERT
  5
E9
100
AcDbEntity
  8
0
  6
CONTINUOUS
 62
       7
100
AcDbBlockReference
  2
_DOT
 10
92.03346993
 20
-13.09223589
 30
0.0
 41
7.5
 42
7.5
 50
226.92965921
  0
CIRCLE
  5
EA
100
AcDbEntity
  8
0
  6
CONTINUOUS
 62
       7
100
AcDbCircle
 10
120.51983116
 20
17.38055626
 30
0.0
 40
13.125
  0
TEXT
  5
EB
100
AcDbEntity
  8
0
 62
       7
100
AcDbText
 10
115.71983116
 20
11.38055626
 30
0.0
 40
12.0
  1
1
 41
0.8
 72
       5
 11
125.31983116
 21
11.38055626
 31
0.0
100
AcDbText
  0
ENDBLK
  5
EC
100
AcDbEntity
  8
0
100
AcDbBlockEnd
  0
BLOCK
  5
ED
100
AcDbEntity
  8
0
100
AcDbBlockBegin
  2
_ORIGIN
 70
       0
 10
0.0
 20
0.0
 30
0.0
  3
_ORIGIN
  1

  0
CIRCLE
  5
EE
100
AcDbEntity
  8
0
  6
CONTINUOUS
 62
       0
100
AcDbCircle
 10
0.0
 20
0.0
 30
0.0
 40
0.5
  0
ENDBLK
  5
EF
100
AcDbEntity
  8
0
100
AcDbBlockEnd
  0
BLOCK
  5
F0
100
AcDbEntity
  8
0
100
AcDbBlockBegin
  2
_DOT
 70
       0
 10
0.0
 20
0.0
 30
0.0
  3
_DOT
  1

  0
HATCH
  5
F1
100
AcDbEntity
  8
0
  6
CONTINUOUS
 62
       0
100
AcDbHatch
 10
0.0
 20
0.0
 30
0.0
210
0.0
220
0.0
230
1.0
  2
SOLID
 70
       1
 71
       1
 91
        1
 92
        1
 93
        1
 72
       2
 10
0.0
 20
0.0
 40
0.5
 50
0.0
 51
360.0
 73
       1
 97
        0
 75
       0
 76
       1
 98
        0
  0
ENDBLK
  5
F2
100
AcDbEntity
  8
0
100
AcDbBlockEnd
  0
BLOCK
  5
F3
100
AcDbEntity
  8
0
100
AcDbBlockBegin
  2
GROUP_3
 70
       0
 10
0.0
 20
0.0
 30
0.0
  3
GROUP_3
  1

  0
LINE
  5
F4
100
AcDbEntity
  8
0
  6
CONTINUOUS
 62
       7
100
AcDbLine
 10
64.05844763
 20
-72.53915828
 30
0.0
 11
110.94636228
 21
-28.56498519
 31
0.0
  0
INSERT
  5
F5
100
AcDbEntity
  8
0
  6
CONTINUOUS
 62
       7
100
AcDbBlockReference
  2
_DOT
 10
64.05844763
 20
-72.53915828
 30
0.0
 41
7.5
 42
7.5
 50
223.16328342
  0
CIRCLE
  5
F6
100
AcDbEntity
  8
0
  6
CONTINUOUS
 62
       7
100
AcDbCircle
 10
120.51983116
 20
-19.5864375
 30
0.0
 40
13.125
  0
TEXT
  5
F7
100
AcDbEntity
  8
0
 62
       7
100
AcDbText
 10
115.71983116
 20
-25.5864375
 30
0.0
 40
12.0
  1
3
 41
0.8
 72
       5
 11
125.31983116
 21
-25.5864375
 31
0.0
100
AcDbText
  0
ENDBLK
  5
F8
100
AcDbEntity
  8
0
100
AcDbBlockEnd
  0
BLOCK
  5
F9
100
AcDbEntity
  8
0
100
AcDbBlockBegin
  2
GROUP_4
 70
       0
 10
0.0
 20
0.0
 30
0.0
  3
GROUP_4
  1

  0
LINE
  5
FA
100
AcDbEntity
  8
0
  6
CONTINUOUS
 62
       7
100
AcDbLine
 10
81.54283657
 20
-72.53915828
 30
0.0
 11
112.69155348
 21
-114.45744524
 31
0.0
  0
INSERT
  5
FB
100
AcDbEntity
  8
0
  6
CONTINUOUS
 62
       7
100
AcDbBlockReference
  2
_DOT
 10
81.54283657
 20
-72.53915828
 30
0.0
 41
7.5
 42
7.5
 50
126.61536923
  0
CIRCLE
  5
FC
100
AcDbEntity
  8
0
  6
CONTINUOUS
 62
       7
100
AcDbCircle
 10
120.51983116
 20
-124.9923251
 30
0.0
 40
13.125
  0
TEXT
  5
FD
100
AcDbEntity
  8
0
 62
       7
100
AcDbText
 10
115.71983116
 20
-130.9923251
 30
0.0
 40
12.0
  1
4
 41
0.8
 72
       5
 11
125.31983116
 21
-130.9923251
 31
0.0
100
AcDbText
  0
ENDBLK
  5
FE
100
AcDbEntity
  8
0
100
AcDbBlockEnd
  0
BLOCK
  5
FF
100
AcDbEntity
  8
0
100
AcDbBlockBegin
  2
GROUP_5
 70
       0
 10
0.0
 20
0.0
 30
0.0
  3
GROUP_5
  1

  0
LINE
  5
100
100
AcDbEntity
  8
0
  6
CONTINUOUS
 62
       7
100
AcDbLine
 10
69.80331828
 20
166.6429753
 30
0.0
 11
103.09688645
 21
157.15995413
 31
0.0
  0
INSERT
  5
101
100
AcDbEntity
  8
0
  6
CONTINUOUS
 62
       7
100
AcDbBlockReference
  2
_DOT
 10
69.80331828
 20
166.6429753
 30
0.0
 41
7.5
 42
7.5
 50
164.10143451
  0
CIRCLE
  5
102
100
AcDbEntity
  8
0
  6
CONTINUOUS
 62
       7
100
AcDbCircle
 10
115.71983116
 20
153.56455542
 30
0.0
 40
13.125
  0
TEXT
  5
103
100
AcDbEntity
  8
0
 62
       7
100
AcDbText
 10
110.91983116
 20
147.56455542
 30
0.0
 40
12.0
  1
2
 41
0.8
 72
       5
 11
120.51983116
 21
147.56455542
 31
0.0
100
AcDbText
  0
ENDBLK
  5
104
100
AcDbEntity
  8
0
100
AcDbBlockEnd
  0
BLOCK
  5
105
100
AcDbEntity
  8
0
100
AcDbBlockBegin
  2
GROUP_6
 70
       0
 10
0.0
 20
0.0
 30
0.0
  3
GROUP_6
  1

  0
LINE
  5
106
100
AcDbEntity
  8
0
  6
CONTINUOUS
 62
       7
100
AcDbLine
 10
67.55532542
 20
221.71880045
 30
0.0
 11
106.34643311
 21
259.73942935
 31
0.0
  0
INSERT
  5
107
100
AcDbEntity
  8
0
  6
CONTINUOUS
 62
       7
100
AcDbBlockReference
  2
_DOT
 10
67.55532542
 20
221.71880045
 30
0.0
 41
7.5
 42
7.5
 50
224.42530003
  0
CIRCLE
  5
108
100
AcDbEntity
  8
0
  6
CONTINUOUS
 62
       7
100
AcDbCircle
 10
115.71983116
 20
268.92665059
 30
0.0
 40
13.125
  0
TEXT
  5
109
100
AcDbEntity
  8
0
 62
       7
100
AcDbText
 10
110.91983116
 20
262.92665059
 30
0.0
 40
12.0
  1
5
 41
0.8
 72
       5
 11
120.51983116
 21
262.92665059
 31
0.0
100
AcDbText
  0
ENDBLK
  5
10A
100
AcDbEntity
  8
0
100
AcDbBlockEnd
  0
ENDSEC
  0
SECTION
  2
ENTITIES
  0
LINE
  5
10B
100
AcDbEntity
  8
ZUWAKU
  6
CONTINUOUS
 62
       7
100
AcDbLine
 10
-170.9125
 20
-414.67412988
 30
0.0
 11
-169.225
 21
-409.98662988
 31
0.0
  0
LINE
  5
10C
100
AcDbEntity
  8
ZUWAKU
  6
CONTINUOUS
 62
       7
100
AcDbLine
 10
-183.4
 20
-414.67412988
 30
0.0
 11
-180.775
 21
-407.54912988
 31
0.0
  0
LINE
  5
10D
100
AcDbEntity
  8
ZUWAKU
  6
CONTINUOUS
 62
       7
100
AcDbLine
 10
-185.8375
 20
-404.92412988
 30
0.0
 11
-186.775
 21
-407.54912988
 31
0.0
  0
LINE
  5
10E
100
AcDbEntity
  8
ZUWAKU
  6
CONTINUOUS
 62
       7
100
AcDbLine
 10
-177.2125
 20
-414.67412988
 30
0.0
 11
-174.4
 21
-406.42412988
 31
0.0
  0
LINE
  5
10F
100
AcDbEntity
  8
ZUWAKU
  6
CONTINUOUS
 62
       7
100
AcDbLine
 10
-137.875
 20
-414.67412988
 30
0.0
 11
-141.0625
 21
-409.42412988
 31
0.0
  0
LINE
  5
110
100
AcDbEntity
  8
ZUWAKU
  6
CONTINUOUS
 62
       7
100
AcDbLine
 10
-185.8375
 20
-404.92412988
 30
0.0
 11
-182.275
 21
-404.92412988
 31
0.0
  0
LINE
  5
111
100
AcDbEntity
  8
ZUWAKU
  6
CONTINUOUS
 62
       7
100
AcDbLine
 10
-166.7875
 20
-403.23662988
 30
0.0
 11
-160.6
 21
-403.23662988
 31
0.0
  0
LINE
  5
112
100
AcDbEntity
  8
ZUWAKU
  6
CONTINUOUS
 62
       7
100
AcDbLine
 10
-153.475
 20
-402.67412988
 30
0.0
 11
-151.6
 21
-402.67412988
 31
0.0
  0
LINE
  5
113
100
AcDbEntity
  8
ZUWAKU
  6
CONTINUOUS
 62
       7
100
AcDbLine
 10
-165.475
 20
-399.86162988
 30
0.0
 11
-166.7875
 21
-403.23662988
 31
0.0
  0
LINE
  5
114
100
AcDbEntity
  8
ZUWAKU
  6
CONTINUOUS
 62
       7
100
AcDbLine
 10
-159.475
 20
-399.86162988
 30
0.0
 11
-160.6
 21
-403.23662988
 31
0.0
  0
LINE
  5
115
100
AcDbEntity
  8
ZUWAKU
  6
CONTINUOUS
 62
       7
100
AcDbLine
 10
-183.4
 20
-414.67412988
 30
0.0
 11
-177.2125
 21
-414.67412988
 31
0.0
  0
LINE
  5
116
100
AcDbEntity
  8
ZUWAKU
  6
CONTINUOUS
 62
       7
100
AcDbLine
 10
-173.8375
 20
-399.86162988
 30
0.0
 11
-166.9
 21
-399.86162988
 31
0.0
  0
LINE
  5
117
100
AcDbEntity
  8
ZUWAKU
  6
CONTINUOUS
 62
       7
100
AcDbLine
 10
-143.25272308
 20
-403.23662988
 30
0.0
 11
-149.875
 21
-403.23662988
 31
0.0
  0
LINE
  5
118
100
AcDbEntity
  8
ZUWAKU
  6
CONTINUOUS
 62
       7
100
AcDbLine
 10
-136.0
 20
-399.86162988
 30
0.0
 11
-148.75
 21
-399.86162988
 31
0.0
  0
LINE
  5
119
100
AcDbEntity
  8
ZUWAKU
  6
CONTINUOUS
 62
       7
100
AcDbLine
 10
-186.775
 20
-407.54912988
 30
0.0
 11
-180.775
 21
-407.54912988
 31
0.0
  0
LINE
  5
11A
100
AcDbEntity
  8
ZUWAKU
  6
CONTINUOUS
 62
       7
100
AcDbLine
 10
-170.9125
 20
-414.67412988
 30
0.0
 11
-160.975
 21
-414.67412988
 31
0.0
  0
LINE
  5
11B
100
AcDbEntity
  8
ZUWAKU
  6
CONTINUOUS
 62
       7
100
AcDbLine
 10
-169.225
 20
-409.98662988
 30
0.0
 11
-160.225
 21
-409.98662988
 31
0.0
  0
LINE
  5
11C
100
AcDbEntity
  8
ZUWAKU
  6
CONTINUOUS
 62
       7
100
AcDbLine
 10
-137.875
 20
-414.67412988
 30
0.0
 11
-142.5625
 21
-414.67412988
 31
0.0
  0
LINE
  5
11D
100
AcDbEntity
  8
ZUWAKU
  6
CONTINUOUS
 62
       7
100
AcDbLine
 10
-149.875
 20
-403.23662988
 30
0.0
 11
-148.75
 21
-399.86162988
 31
0.0
  0
LINE
  5
11E
100
AcDbEntity
  8
ZUWAKU
  6
CONTINUOUS
 62
       7
100
AcDbLine
 10
-215.0875
 20
-399.86162988
 30
0.0
 11
-218.275
 21
-408.86162988
 31
0.0
  0
LINE
  5
11F
100
AcDbEntity
  8
ZUWAKU
  6
CONTINUOUS
 62
       7
100
AcDbLine
 10
-218.275
 20
-408.86162988
 30
0.0
 11
-213.9625
 21
-408.86162988
 31
0.0
  0
LINE
  5
120
100
AcDbEntity
  8
ZUWAKU
  6
CONTINUOUS
 62
       7
100
AcDbLine
 10
-213.9625
 20
-408.86162988
 30
0.0
 11
-210.5875
 21
-399.86162988
 31
0.0
  0
LINE
  5
121
100
AcDbEntity
  8
ZUWAKU
  6
CONTINUOUS
 62
       7
100
AcDbLine
 10
-210.5875
 20
-399.86162988
 30
0.0
 11
-215.0875
 21
-399.86162988
 31
0.0
  0
LINE
  5
122
100
AcDbEntity
  8
ZUWAKU
  6
CONTINUOUS
 62
       7
100
AcDbLine
 10
-157.975
 20
-408.86162988
 30
0.0
 11
-155.9125
 21
-407.17412988
 31
0.0
  0
LINE
  5
123
100
AcDbEntity
  8
ZUWAKU
  6
CONTINUOUS
 62
       7
100
AcDbLine
 10
-155.9125
 20
-407.17412988
 30
0.0
 11
-154.4125
 21
-405.11162988
 31
0.0
  0
LINE
  5
124
100
AcDbEntity
  8
ZUWAKU
  6
CONTINUOUS
 62
       7
100
AcDbLine
 10
-154.4125
 20
-405.11162988
 30
0.0
 11
-153.475
 21
-402.67412988
 31
0.0
  0
LINE
  5
125
100
AcDbEntity
  8
ZUWAKU
  6
CONTINUOUS
 62
       7
100
AcDbLine
 10
-199.675
 20
-399.86162988
 30
0.0
 11
-185.9875
 21
-399.86162988
 31
0.0
  0
LINE
  5
126
100
AcDbEntity
  8
ZUWAKU
  6
CONTINUOUS
 62
       7
100
AcDbLine
 10
-185.9875
 20
-399.86162988
 30
0.0
 11
-187.1125
 21
-403.23662988
 31
0.0
  0
LINE
  5
127
100
AcDbEntity
  8
ZUWAKU
  6
CONTINUOUS
 62
       7
100
AcDbLine
 10
-185.9875
 20
-399.86162988
 30
0.0
 11
-187.1125
 21
-403.23662988
 31
0.0
  0
LINE
  5
128
100
AcDbEntity
  8
ZUWAKU
  6
CONTINUOUS
 62
       7
100
AcDbLine
 10
-187.1125
 20
-403.23662988
 30
0.0
 11
-200.8
 21
-403.23662988
 31
0.0
  0
LINE
  5
129
100
AcDbEntity
  8
ZUWAKU
  6
CONTINUOUS
 62
       7
100
AcDbLine
 10
-200.8
 20
-403.23662988
 30
0.0
 11
-199.675
 21
-399.86162988
 31
0.0
  0
LINE
  5
12A
100
AcDbEntity
  8
ZUWAKU
  6
CONTINUOUS
 62
       7
100
AcDbLine
 10
-200.8
 20
-403.23662988
 30
0.0
 11
-199.675
 21
-399.86162988
 31
0.0
  0
LINE
  5
12B
100
AcDbEntity
  8
ZUWAKU
  6
CONTINUOUS
 62
       7
100
AcDbLine
 10
-185.9875
 20
-399.86162988
 30
0.0
 11
-199.675
 21
-399.86162988
 31
0.0
  0
LINE
  5
12C
100
AcDbEntity
  8
ZUWAKU
  6
CONTINUOUS
 62
       7
100
AcDbLine
 10
-199.675
 20
-399.86162988
 30
0.0
 11
-200.8
 21
-403.23662988
 31
0.0
  0
LINE
  5
12D
100
AcDbEntity
  8
ZUWAKU
  6
CONTINUOUS
 62
       7
100
AcDbLine
 10
-200.8
 20
-403.23662988
 30
0.0
 11
-187.1125
 21
-403.23662988
 31
0.0
  0
LINE
  5
12E
100
AcDbEntity
  8
ZUWAKU
  6
CONTINUOUS
 62
       7
100
AcDbLine
 10
-193.8625
 20
-414.29912988
 30
0.0
 11
-192.3625
 21
-413.54912988
 31
0.0
  0
LINE
  5
12F
100
AcDbEntity
  8
ZUWAKU
  6
CONTINUOUS
 62
       7
100
AcDbLine
 10
-192.3625
 20
-413.54912988
 30
0.0
 11
-191.2375
 21
-412.42412988
 31
0.0
  0
LINE
  5
130
100
AcDbEntity
  8
ZUWAKU
  6
CONTINUOUS
 62
       7
100
AcDbLine
 10
-191.2375
 20
-412.42412988
 30
0.0
 11
-189.925
 21
-411.11162988
 31
0.0
  0
LINE
  5
131
100
AcDbEntity
  8
ZUWAKU
  6
CONTINUOUS
 62
       7
100
AcDbLine
 10
-189.925
 20
-411.11162988
 30
0.0
 11
-187.675
 21
-404.92412988
 31
0.0
  0
LINE
  5
132
100
AcDbEntity
  8
ZUWAKU
  6
CONTINUOUS
 62
       7
100
AcDbLine
 10
-187.675
 20
-404.92412988
 30
0.0
 11
-201.175
 21
-404.92412988
 31
0.0
  0
LINE
  5
133
100
AcDbEntity
  8
ZUWAKU
  6
CONTINUOUS
 62
       7
100
AcDbLine
 10
-201.175
 20
-404.92412988
 30
0.0
 11
-201.925
 21
-407.54912988
 31
0.0
  0
LINE
  5
134
100
AcDbEntity
  8
ZUWAKU
  6
CONTINUOUS
 62
       7
100
AcDbLine
 10
-201.925
 20
-407.54912988
 30
0.0
 11
-194.05
 21
-407.54912988
 31
0.0
  0
LINE
  5
135
100
AcDbEntity
  8
ZUWAKU
  6
CONTINUOUS
 62
       7
100
AcDbLine
 10
-194.05
 20
-407.54912988
 30
0.0
 11
-194.425
 21
-408.86162988
 31
0.0
  0
LINE
  5
136
100
AcDbEntity
  8
ZUWAKU
  6
CONTINUOUS
 62
       7
100
AcDbLine
 10
-194.425
 20
-408.86162988
 30
0.0
 11
-195.3625
 21
-409.98662988
 31
0.0
  0
LINE
  5
137
100
AcDbEntity
  8
ZUWAKU
  6
CONTINUOUS
 62
       7
100
AcDbLine
 10
-195.3625
 20
-409.98662988
 30
0.0
 11
-196.3
 21
-410.92412988
 31
0.0
  0
LINE
  5
138
100
AcDbEntity
  8
ZUWAKU
  6
CONTINUOUS
 62
       7
100
AcDbLine
 10
-196.3
 20
-410.92412988
 30
0.0
 11
-197.6125
 21
-411.86162988
 31
0.0
  0
LINE
  5
139
100
AcDbEntity
  8
ZUWAKU
  6
CONTINUOUS
 62
       7
100
AcDbLine
 10
-197.6125
 20
-411.86162988
 30
0.0
 11
-203.8
 21
-411.86162988
 31
0.0
  0
LINE
  5
13A
100
AcDbEntity
  8
ZUWAKU
  6
CONTINUOUS
 62
       7
100
AcDbLine
 10
-203.8
 20
-411.86162988
 30
0.0
 11
-204.925
 21
-414.67412988
 31
0.0
  0
LINE
  5
13B
100
AcDbEntity
  8
ZUWAKU
  6
CONTINUOUS
 62
       7
100
AcDbLine
 10
-216.9625
 20
-414.67412988
 30
0.0
 11
-216.025
 21
-411.86162988
 31
0.0
  0
LINE
  5
13C
100
AcDbEntity
  8
ZUWAKU
  6
CONTINUOUS
 62
       7
100
AcDbLine
 10
-216.025
 20
-411.86162988
 30
0.0
 11
-214.3375
 21
-411.86162988
 31
0.0
  0
LINE
  5
13D
100
AcDbEntity
  8
ZUWAKU
  6
CONTINUOUS
 62
       7
100
AcDbLine
 10
-214.3375
 20
-411.86162988
 30
0.0
 11
-212.8375
 21
-411.67412988
 31
0.0
  0
LINE
  5
13E
100
AcDbEntity
  8
ZUWAKU
  6
CONTINUOUS
 62
       7
100
AcDbLine
 10
-212.8375
 20
-411.67412988
 30
0.0
 11
-211.3375
 21
-410.92412988
 31
0.0
  0
LINE
  5
13F
100
AcDbEntity
  8
ZUWAKU
  6
CONTINUOUS
 62
       7
100
AcDbLine
 10
-211.3375
 20
-410.92412988
 30
0.0
 11
-210.4
 21
-409.42412988
 31
0.0
  0
LINE
  5
140
100
AcDbEntity
  8
ZUWAKU
  6
CONTINUOUS
 62
       7
100
AcDbLine
 10
-210.4
 20
-409.42412988
 30
0.0
 11
-206.8375
 21
-399.86162988
 31
0.0
  0
LINE
  5
141
100
AcDbEntity
  8
ZUWAKU
  6
CONTINUOUS
 62
       7
100
AcDbLine
 10
-206.8375
 20
-399.86162988
 30
0.0
 11
-201.775
 21
-399.86162988
 31
0.0
  0
LINE
  5
142
100
AcDbEntity
  8
ZUWAKU
  6
CONTINUOUS
 62
       7
100
AcDbLine
 10
-201.775
 20
-399.86162988
 30
0.0
 11
-205.525
 21
-410.92412988
 31
0.0
  0
LINE
  5
143
100
AcDbEntity
  8
ZUWAKU
  6
CONTINUOUS
 62
       7
100
AcDbLine
 10
-205.525
 20
-410.92412988
 30
0.0
 11
-207.025
 21
-412.42412988
 31
0.0
  0
LINE
  5
144
100
AcDbEntity
  8
ZUWAKU
  6
CONTINUOUS
 62
       7
100
AcDbLine
 10
-207.025
 20
-412.42412988
 30
0.0
 11
-208.525
 21
-413.73662988
 31
0.0
  0
LINE
  5
145
100
AcDbEntity
  8
ZUWAKU
  6
CONTINUOUS
 62
       7
100
AcDbLine
 10
-208.525
 20
-413.73662988
 30
0.0
 11
-210.4
 21
-414.48662988
 31
0.0
  0
LINE
  5
146
100
AcDbEntity
  8
ZUWAKU
  6
CONTINUOUS
 62
       7
100
AcDbLine
 10
-166.9
 20
-399.86162988
 30
0.0
 11
-168.025
 21
-402.29912988
 31
0.0
  0
LINE
  5
147
100
AcDbEntity
  8
ZUWAKU
  6
CONTINUOUS
 62
       7
100
AcDbLine
 10
-168.025
 20
-402.29912988
 30
0.0
 11
-169.9
 21
-404.17412988
 31
0.0
  0
LINE
  5
148
100
AcDbEntity
  8
ZUWAKU
  6
CONTINUOUS
 62
       7
100
AcDbLine
 10
-168.025
 20
-402.29912988
 30
0.0
 11
-169.9
 21
-404.17412988
 31
0.0
  0
LINE
  5
149
100
AcDbEntity
  8
ZUWAKU
  6
CONTINUOUS
 62
       7
100
AcDbLine
 10
-169.9
 20
-404.17412988
 30
0.0
 11
-171.9625
 21
-405.67412988
 31
0.0
  0
LINE
  5
14A
100
AcDbEntity
  8
ZUWAKU
  6
CONTINUOUS
 62
       7
100
AcDbLine
 10
-171.9625
 20
-405.67412988
 30
0.0
 11
-174.4
 21
-406.42412988
 31
0.0
  0
LINE
  5
14B
100
AcDbEntity
  8
ZUWAKU
  6
CONTINUOUS
 62
       7
100
AcDbLine
 10
-171.9625
 20
-405.67412988
 30
0.0
 11
-174.4
 21
-406.42412988
 31
0.0
  0
LINE
  5
14C
100
AcDbEntity
  8
ZUWAKU
  6
CONTINUOUS
 62
       7
100
AcDbLine
 10
-174.4
 20
-406.42412988
 30
0.0
 11
-177.2125
 21
-414.67412988
 31
0.0
  0
LINE
  5
14D
100
AcDbEntity
  8
ZUWAKU
  6
CONTINUOUS
 62
       7
100
AcDbLine
 10
-177.2125
 20
-414.67412988
 30
0.0
 11
-183.4
 21
-414.67412988
 31
0.0
  0
LINE
  5
14E
100
AcDbEntity
  8
ZUWAKU
  6
CONTINUOUS
 62
       7
100
AcDbLine
 10
-177.2125
 20
-414.67412988
 30
0.0
 11
-183.4
 21
-414.67412988
 31
0.0
  0
LINE
  5
14F
100
AcDbEntity
  8
ZUWAKU
  6
CONTINUOUS
 62
       7
100
AcDbLine
 10
-181.075
 20
-407.54912988
 30
0.0
 11
-186.775
 21
-407.54912988
 31
0.0
  0
LINE
  5
150
100
AcDbEntity
  8
ZUWAKU
  6
CONTINUOUS
 62
       7
100
AcDbLine
 10
-186.775
 20
-407.54912988
 30
0.0
 11
-185.8375
 21
-404.92412988
 31
0.0
  0
LINE
  5
151
100
AcDbEntity
  8
ZUWAKU
  6
CONTINUOUS
 62
       7
100
AcDbLine
 10
-183.4
 20
-414.67412988
 30
0.0
 11
-180.775
 21
-407.54912988
 31
0.0
  0
LINE
  5
152
100
AcDbEntity
  8
ZUWAKU
  6
CONTINUOUS
 62
       7
100
AcDbLine
 10
-183.4
 20
-414.67412988
 30
0.0
 11
-180.775
 21
-407.54912988
 31
0.0
  0
LINE
  5
153
100
AcDbEntity
  8
ZUWAKU
  6
CONTINUOUS
 62
       7
100
AcDbLine
 10
-185.8375
 20
-404.92412988
 30
0.0
 11
-182.275
 21
-404.92412988
 31
0.0
  0
LINE
  5
154
100
AcDbEntity
  8
ZUWAKU
  6
CONTINUOUS
 62
       7
100
AcDbLine
 10
-185.8375
 20
-404.92412988
 30
0.0
 11
-182.275
 21
-404.92412988
 31
0.0
  0
LINE
  5
155
100
AcDbEntity
  8
ZUWAKU
  6
CONTINUOUS
 62
       7
100
AcDbLine
 10
-182.275
 20
-404.92412988
 30
0.0
 11
-179.8375
 21
-404.73662988
 31
0.0
  0
LINE
  5
156
100
AcDbEntity
  8
ZUWAKU
  6
CONTINUOUS
 62
       7
100
AcDbLine
 10
-182.275
 20
-404.92412988
 30
0.0
 11
-179.8375
 21
-404.73662988
 31
0.0
  0
LINE
  5
157
100
AcDbEntity
  8
ZUWAKU
  6
CONTINUOUS
 62
       7
100
AcDbLine
 10
-179.8375
 20
-404.73662988
 30
0.0
 11
-177.2125
 21
-403.61162988
 31
0.0
  0
LINE
  5
158
100
AcDbEntity
  8
ZUWAKU
  6
CONTINUOUS
 62
       7
100
AcDbLine
 10
-179.8375
 20
-404.73662988
 30
0.0
 11
-177.2125
 21
-403.61162988
 31
0.0
  0
LINE
  5
159
100
AcDbEntity
  8
ZUWAKU
  6
CONTINUOUS
 62
       7
100
AcDbLine
 10
-177.2125
 20
-403.61162988
 30
0.0
 11
-175.3375
 21
-401.92412988
 31
0.0
  0
LINE
  5
15A
100
AcDbEntity
  8
ZUWAKU
  6
CONTINUOUS
 62
       7
100
AcDbLine
 10
-177.2125
 20
-403.61162988
 30
0.0
 11
-175.3375
 21
-401.92412988
 31
0.0
  0
LINE
  5
15B
100
AcDbEntity
  8
ZUWAKU
  6
CONTINUOUS
 62
       7
100
AcDbLine
 10
-210.5875
 20
-399.86162988
 30
0.0
 11
-213.9625
 21
-408.86162988
 31
0.0
  0
LINE
  5
15C
100
AcDbEntity
  8
ZUWAKU
  6
CONTINUOUS
 62
       7
100
AcDbLine
 10
-213.9625
 20
-408.86162988
 30
0.0
 11
-218.275
 21
-408.86162988
 31
0.0
  0
LINE
  5
15D
100
AcDbEntity
  8
ZUWAKU
  6
CONTINUOUS
 62
       7
100
AcDbLine
 10
-213.9625
 20
-408.86162988
 30
0.0
 11
-218.275
 21
-408.86162988
 31
0.0
  0
LINE
  5
15E
100
AcDbEntity
  8
ZUWAKU
  6
CONTINUOUS
 62
       7
100
AcDbLine
 10
-218.275
 20
-408.86162988
 30
0.0
 11
-215.0875
 21
-399.86162988
 31
0.0
  0
LINE
  5
15F
100
AcDbEntity
  8
ZUWAKU
  6
CONTINUOUS
 62
       7
100
AcDbLine
 10
-215.0875
 20
-399.86162988
 30
0.0
 11
-210.5875
 21
-399.86162988
 31
0.0
  0
LINE
  5
160
100
AcDbEntity
  8
ZUWAKU
  6
CONTINUOUS
 62
       7
100
AcDbLine
 10
-215.0875
 20
-399.86162988
 30
0.0
 11
-210.5875
 21
-399.86162988
 31
0.0
  0
LINE
  5
161
100
AcDbEntity
  8
ZUWAKU
  6
CONTINUOUS
 62
       7
100
AcDbLine
 10
-148.75
 20
-399.86162988
 30
0.0
 11
-149.875
 21
-403.23662988
 31
0.0
  0
LINE
  5
162
100
AcDbEntity
  8
ZUWAKU
  6
CONTINUOUS
 62
       7
100
AcDbLine
 10
-149.875
 20
-403.23662988
 30
0.0
 11
-143.875
 21
-403.23662988
 31
0.0
  0
LINE
  5
163
100
AcDbEntity
  8
ZUWAKU
  6
CONTINUOUS
 62
       7
100
AcDbLine
 10
-149.875
 20
-403.23662988
 30
0.0
 11
-143.875
 21
-403.23662988
 31
0.0
  0
LINE
  5
164
100
AcDbEntity
  8
ZUWAKU
  6
CONTINUOUS
 62
       7
100
AcDbLine
 10
-154.0
 20
-411.67412988
 30
0.0
 11
-155.125
 21
-414.86162988
 31
0.0
  0
LINE
  5
165
100
AcDbEntity
  8
ZUWAKU
  6
CONTINUOUS
 62
       7
100
AcDbLine
 10
-154.0
 20
-411.67412988
 30
0.0
 11
-155.125
 21
-414.86162988
 31
0.0
  0
LINE
  5
166
100
AcDbEntity
  8
ZUWAKU
  6
CONTINUOUS
 62
       7
100
AcDbLine
 10
-155.125
 20
-414.86162988
 30
0.0
 11
-149.5
 21
-413.92412988
 31
0.0
  0
LINE
  5
167
100
AcDbEntity
  8
ZUWAKU
  6
CONTINUOUS
 62
       7
100
AcDbLine
 10
-149.5
 20
-413.92412988
 30
0.0
 11
-146.875
 21
-413.17412988
 31
0.0
  0
LINE
  5
168
100
AcDbEntity
  8
ZUWAKU
  6
CONTINUOUS
 62
       7
100
AcDbLine
 10
-149.5
 20
-413.92412988
 30
0.0
 11
-146.875
 21
-413.17412988
 31
0.0
  0
LINE
  5
169
100
AcDbEntity
  8
ZUWAKU
  6
CONTINUOUS
 62
       7
100
AcDbLine
 10
-144.0625
 20
-412.23662988
 30
0.0
 11
-142.5625
 21
-414.67412988
 31
0.0
  0
LINE
  5
16A
100
AcDbEntity
  8
ZUWAKU
  6
CONTINUOUS
 62
       7
100
AcDbLine
 10
-142.5625
 20
-414.67412988
 30
0.0
 11
-137.875
 21
-414.67412988
 31
0.0
  0
LINE
  5
16B
100
AcDbEntity
  8
ZUWAKU
  6
CONTINUOUS
 62
       7
100
AcDbLine
 10
-142.5625
 20
-414.67412988
 30
0.0
 11
-137.875
 21
-414.67412988
 31
0.0
  0
LINE
  5
16C
100
AcDbEntity
  8
ZUWAKU
  6
CONTINUOUS
 62
       7
100
AcDbLine
 10
-141.0625
 20
-409.42412988
 30
0.0
 11
-139.375
 21
-407.17412988
 31
0.0
  0
LINE
  5
16D
100
AcDbEntity
  8
ZUWAKU
  6
CONTINUOUS
 62
       7
100
AcDbLine
 10
-139.375
 20
-407.17412988
 30
0.0
 11
-137.875
 21
-404.92412988
 31
0.0
  0
LINE
  5
16E
100
AcDbEntity
  8
ZUWAKU
  6
CONTINUOUS
 62
       7
100
AcDbLine
 10
-137.875
 20
-404.92412988
 30
0.0
 11
-136.75
 21
-402.48662988
 31
0.0
  0
LINE
  5
16F
100
AcDbEntity
  8
ZUWAKU
  6
CONTINUOUS
 62
       7
100
AcDbLine
 10
-136.75
 20
-402.48662988
 30
0.0
 11
-136.0
 21
-399.86162988
 31
0.0
  0
LINE
  5
170
100
AcDbEntity
  8
ZUWAKU
  6
CONTINUOUS
 62
       7
100
AcDbLine
 10
-136.75
 20
-402.48662988
 30
0.0
 11
-136.0
 21
-399.86162988
 31
0.0
  0
LINE
  5
171
100
AcDbEntity
  8
ZUWAKU
  6
CONTINUOUS
 62
       7
100
AcDbLine
 10
-136.0
 20
-399.86162988
 30
0.0
 11
-148.75
 21
-399.86162988
 31
0.0
  0
LINE
  5
172
100
AcDbEntity
  8
ZUWAKU
  6
CONTINUOUS
 62
       7
100
AcDbLine
 10
-147.4375
 20
-409.23662988
 30
0.0
 11
-150.4375
 21
-410.92412988
 31
0.0
  0
LINE
  5
173
100
AcDbEntity
  8
ZUWAKU
  6
CONTINUOUS
 62
       7
100
AcDbLine
 10
-146.875
 20
-413.17412988
 30
0.0
 11
-144.0625
 21
-412.23662988
 31
0.0
  0
LINE
  5
174
100
AcDbEntity
  8
ZUWAKU
  6
CONTINUOUS
 62
       7
100
AcDbLine
 10
-146.875
 20
-413.17412988
 30
0.0
 11
-144.0625
 21
-412.23662988
 31
0.0
  0
LINE
  5
175
100
AcDbEntity
  8
ZUWAKU
  6
CONTINUOUS
 62
       7
100
AcDbLine
 10
-137.875
 20
-414.67412988
 30
0.0
 11
-141.0625
 21
-409.42412988
 31
0.0
  0
LINE
  5
176
100
AcDbEntity
  8
ZUWAKU
  6
CONTINUOUS
 62
       7
100
AcDbLine
 10
-137.875
 20
-414.67412988
 30
0.0
 11
-141.0625
 21
-409.42412988
 31
0.0
  0
LINE
  5
177
100
AcDbEntity
  8
ZUWAKU
  6
CONTINUOUS
 62
       7
100
AcDbLine
 10
-145.0
 20
-406.42412988
 30
0.0
 11
-147.4375
 21
-409.23662988
 31
0.0
  0
LINE
  5
178
100
AcDbEntity
  8
ZUWAKU
  6
CONTINUOUS
 62
       7
100
AcDbLine
 10
-145.0
 20
-406.42412988
 30
0.0
 11
-147.4375
 21
-409.23662988
 31
0.0
  0
LINE
  5
179
100
AcDbEntity
  8
ZUWAKU
  6
CONTINUOUS
 62
       7
100
AcDbLine
 10
-182.275
 20
-404.92412988
 30
0.0
 11
-179.8375
 21
-404.73662988
 31
0.0
  0
LINE
  5
17A
100
AcDbEntity
  8
ZUWAKU
  6
CONTINUOUS
 62
       7
100
AcDbLine
 10
-179.8375
 20
-404.73662988
 30
0.0
 11
-177.2125
 21
-403.61162988
 31
0.0
  0
LINE
  5
17B
100
AcDbEntity
  8
ZUWAKU
  6
CONTINUOUS
 62
       7
100
AcDbLine
 10
-177.2125
 20
-403.61162988
 30
0.0
 11
-175.3375
 21
-401.92412988
 31
0.0
  0
LINE
  5
17C
100
AcDbEntity
  8
ZUWAKU
  6
CONTINUOUS
 62
       7
100
AcDbLine
 10
-175.3375
 20
-401.92412988
 30
0.0
 11
-173.8375
 21
-399.86162988
 31
0.0
  0
LINE
  5
17D
100
AcDbEntity
  8
ZUWAKU
  6
CONTINUOUS
 62
       7
100
AcDbLine
 10
-160.975
 20
-414.67412988
 30
0.0
 11
-157.6
 21
-413.17412988
 31
0.0
  0
LINE
  5
17E
100
AcDbEntity
  8
ZUWAKU
  6
CONTINUOUS
 62
       7
100
AcDbLine
 10
-157.6
 20
-413.17412988
 30
0.0
 11
-154.6
 21
-410.36162988
 31
0.0
  0
LINE
  5
17F
100
AcDbEntity
  8
ZUWAKU
  6
CONTINUOUS
 62
       7
100
AcDbLine
 10
-154.6
 20
-410.36162988
 30
0.0
 11
-152.35
 21
-406.61162988
 31
0.0
  0
LINE
  5
180
100
AcDbEntity
  8
ZUWAKU
  6
CONTINUOUS
 62
       7
100
AcDbLine
 10
-152.35
 20
-406.61162988
 30
0.0
 11
-151.6
 21
-402.67412988
 31
0.0
  0
LINE
  5
181
100
AcDbEntity
  8
ZUWAKU
  6
CONTINUOUS
 62
       7
100
AcDbLine
 10
-154.0
 20
-411.67412988
 30
0.0
 11
-150.4375
 21
-410.92412988
 31
0.0
  0
LINE
  5
182
100
AcDbEntity
  8
ZUWAKU
  6
CONTINUOUS
 62
       7
100
AcDbLine
 10
-150.4375
 20
-410.92412988
 30
0.0
 11
-147.4375
 21
-409.23662988
 31
0.0
  0
LINE
  5
183
100
AcDbEntity
  8
ZUWAKU
  6
CONTINUOUS
 62
       7
100
AcDbLine
 10
-147.4375
 20
-409.23662988
 30
0.0
 11
-145.0
 21
-406.42412988
 31
0.0
  0
LINE
  5
184
100
AcDbEntity
  8
ZUWAKU
  6
CONTINUOUS
 62
       7
100
AcDbLine
 10
-174.4
 20
-406.42412988
 30
0.0
 11
-171.9625
 21
-405.67412988
 31
0.0
  0
LINE
  5
185
100
AcDbEntity
  8
ZUWAKU
  6
CONTINUOUS
 62
       7
100
AcDbLine
 10
-171.9625
 20
-405.67412988
 30
0.0
 11
-169.9
 21
-404.17412988
 31
0.0
  0
LINE
  5
186
100
AcDbEntity
  8
ZUWAKU
  6
CONTINUOUS
 62
       7
100
AcDbLine
 10
-169.9
 20
-404.17412988
 30
0.0
 11
-168.025
 21
-402.29912988
 31
0.0
  0
LINE
  5
187
100
AcDbEntity
  8
ZUWAKU
  6
CONTINUOUS
 62
       7
100
AcDbLine
 10
-168.025
 20
-402.29912988
 30
0.0
 11
-166.9
 21
-399.86162988
 31
0.0
  0
LINE
  5
188
100
AcDbEntity
  8
ZUWAKU
  6
CONTINUOUS
 62
       7
100
AcDbLine
 10
-141.0625
 20
-409.42412988
 30
0.0
 11
-139.375
 21
-407.17412988
 31
0.0
  0
LINE
  5
189
100
AcDbEntity
  8
ZUWAKU
  6
CONTINUOUS
 62
       7
100
AcDbLine
 10
-139.375
 20
-407.17412988
 30
0.0
 11
-137.875
 21
-404.92412988
 31
0.0
  0
LINE
  5
18A
100
AcDbEntity
  8
ZUWAKU
  6
CONTINUOUS
 62
       7
100
AcDbLine
 10
-137.875
 20
-404.92412988
 30
0.0
 11
-136.75
 21
-402.48662988
 31
0.0
  0
LINE
  5
18B
100
AcDbEntity
  8
ZUWAKU
  6
CONTINUOUS
 62
       7
100
AcDbLine
 10
-136.75
 20
-402.48662988
 30
0.0
 11
-136.0
 21
-399.86162988
 31
0.0
  0
LINE
  5
18C
100
AcDbEntity
  8
ZUWAKU
  6
CONTINUOUS
 62
       7
100
AcDbLine
 10
-149.5
 20
-413.92412988
 30
0.0
 11
-146.875
 21
-413.17412988
 31
0.0
  0
LINE
  5
18D
100
AcDbEntity
  8
ZUWAKU
  6
CONTINUOUS
 62
       7
100
AcDbLine
 10
-146.875
 20
-413.17412988
 30
0.0
 11
-144.0625
 21
-412.23662988
 31
0.0
  0
LINE
  5
18E
100
AcDbEntity
  8
ZUWAKU
  6
CONTINUOUS
 62
       7
100
AcDbLine
 10
-154.4125
 20
-405.11162988
 30
0.0
 11
-153.475
 21
-402.67412988
 31
0.0
  0
LINE
  5
18F
100
AcDbEntity
  8
ZUWAKU
  6
CONTINUOUS
 62
       7
100
AcDbLine
 10
-153.475
 20
-402.67412988
 30
0.0
 11
-151.6
 21
-402.67412988
 31
0.0
  0
LINE
  5
190
100
AcDbEntity
  8
ZUWAKU
  6
CONTINUOUS
 62
       7
100
AcDbLine
 10
-153.475
 20
-402.67412988
 30
0.0
 11
-151.6
 21
-402.67412988
 31
0.0
  0
LINE
  5
191
100
AcDbEntity
  8
ZUWAKU
  6
CONTINUOUS
 62
       7
100
AcDbLine
 10
-151.6
 20
-402.67412988
 30
0.0
 11
-152.35
 21
-406.61162988
 31
0.0
  0
LINE
  5
192
100
AcDbEntity
  8
ZUWAKU
  6
CONTINUOUS
 62
       7
100
AcDbLine
 10
-152.35
 20
-406.61162988
 30
0.0
 11
-154.6
 21
-410.36162988
 31
0.0
  0
LINE
  5
193
100
AcDbEntity
  8
ZUWAKU
  6
CONTINUOUS
 62
       7
100
AcDbLine
 10
-152.35
 20
-406.61162988
 30
0.0
 11
-154.6
 21
-410.36162988
 31
0.0
  0
LINE
  5
194
100
AcDbEntity
  8
ZUWAKU
  6
CONTINUOUS
 62
       7
100
AcDbLine
 10
-154.6
 20
-410.36162988
 30
0.0
 11
-157.6
 21
-413.17412988
 31
0.0
  0
LINE
  5
195
100
AcDbEntity
  8
ZUWAKU
  6
CONTINUOUS
 62
       7
100
AcDbLine
 10
-161.35
 20
-414.67412988
 30
0.0
 11
-170.9125
 21
-414.67412988
 31
0.0
  0
LINE
  5
196
100
AcDbEntity
  8
ZUWAKU
  6
CONTINUOUS
 62
       7
100
AcDbLine
 10
-170.9125
 20
-414.67412988
 30
0.0
 11
-169.225
 21
-409.98662988
 31
0.0
  0
LINE
  5
197
100
AcDbEntity
  8
ZUWAKU
  6
CONTINUOUS
 62
       7
100
AcDbLine
 10
-170.9125
 20
-414.67412988
 30
0.0
 11
-169.225
 21
-409.98662988
 31
0.0
  0
LINE
  5
198
100
AcDbEntity
  8
ZUWAKU
  6
CONTINUOUS
 62
       7
100
AcDbLine
 10
-155.9125
 20
-407.17412988
 30
0.0
 11
-154.4125
 21
-405.11162988
 31
0.0
  0
LINE
  5
199
100
AcDbEntity
  8
ZUWAKU
  6
CONTINUOUS
 62
       7
100
AcDbLine
 10
-169.225
 20
-409.98662988
 30
0.0
 11
-160.225
 21
-409.98662988
 31
0.0
  0
LINE
  5
19A
100
AcDbEntity
  8
ZUWAKU
  6
CONTINUOUS
 62
       7
100
AcDbLine
 10
-169.225
 20
-409.98662988
 30
0.0
 11
-160.225
 21
-409.98662988
 31
0.0
  0
LINE
  5
19B
100
AcDbEntity
  8
ZUWAKU
  6
CONTINUOUS
 62
       7
100
AcDbLine
 10
-160.225
 20
-409.98662988
 30
0.0
 11
-157.975
 21
-408.86162988
 31
0.0
  0
LINE
  5
19C
100
AcDbEntity
  8
ZUWAKU
  6
CONTINUOUS
 62
       7
100
AcDbLine
 10
-160.225
 20
-409.98662988
 30
0.0
 11
-157.975
 21
-408.86162988
 31
0.0
  0
LINE
  5
19D
100
AcDbEntity
  8
ZUWAKU
  6
CONTINUOUS
 62
       7
100
AcDbLine
 10
-157.975
 20
-408.86162988
 30
0.0
 11
-155.9125
 21
-407.17412988
 31
0.0
  0
LINE
  5
19E
100
AcDbEntity
  8
ZUWAKU
  6
CONTINUOUS
 62
       7
100
AcDbLine
 10
-187.675
 20
-404.92412988
 30
0.0
 11
-189.925
 21
-411.11162988
 31
0.0
  0
LINE
  5
19F
100
AcDbEntity
  8
ZUWAKU
  6
CONTINUOUS
 62
       7
100
AcDbLine
 10
-189.925
 20
-411.11162988
 30
0.0
 11
-191.2375
 21
-412.42412988
 31
0.0
  0
LINE
  5
1A0
100
AcDbEntity
  8
ZUWAKU
  6
CONTINUOUS
 62
       7
100
AcDbLine
 10
-189.925
 20
-411.11162988
 30
0.0
 11
-191.2375
 21
-412.42412988
 31
0.0
  0
LINE
  5
1A1
100
AcDbEntity
  8
ZUWAKU
  6
CONTINUOUS
 62
       7
100
AcDbLine
 10
-191.2375
 20
-412.42412988
 30
0.0
 11
-192.3625
 21
-413.54912988
 31
0.0
  0
LINE
  5
1A2
100
AcDbEntity
  8
ZUWAKU
  6
CONTINUOUS
 62
       7
100
AcDbLine
 10
-192.3625
 20
-413.54912988
 30
0.0
 11
-193.8625
 21
-414.29912988
 31
0.0
  0
LINE
  5
1A3
100
AcDbEntity
  8
ZUWAKU
  6
CONTINUOUS
 62
       7
100
AcDbLine
 10
-192.3625
 20
-413.54912988
 30
0.0
 11
-193.8625
 21
-414.29912988
 31
0.0
  0
LINE
  5
1A4
100
AcDbEntity
  8
ZUWAKU
  6
CONTINUOUS
 62
       7
100
AcDbLine
 10
-193.8625
 20
-414.29912988
 30
0.0
 11
-195.3625
 21
-414.67412988
 31
0.0
  0
LINE
  5
1A5
100
AcDbEntity
  8
ZUWAKU
  6
CONTINUOUS
 62
       7
100
AcDbLine
 10
-195.3625
 20
-414.67412988
 30
0.0
 11
-204.925
 21
-414.67412988
 31
0.0
  0
LINE
  5
1A6
100
AcDbEntity
  8
ZUWAKU
  6
CONTINUOUS
 62
       7
100
AcDbLine
 10
-195.3625
 20
-414.67412988
 30
0.0
 11
-204.925
 21
-414.67412988
 31
0.0
  0
LINE
  5
1A7
100
AcDbEntity
  8
ZUWAKU
  6
CONTINUOUS
 62
       7
100
AcDbLine
 10
-204.925
 20
-414.67412988
 30
0.0
 11
-203.8
 21
-411.86162988
 31
0.0
  0
LINE
  5
1A8
100
AcDbEntity
  8
ZUWAKU
  6
CONTINUOUS
 62
       7
100
AcDbLine
 10
-203.8
 20
-411.86162988
 30
0.0
 11
-197.6125
 21
-411.86162988
 31
0.0
  0
LINE
  5
1A9
100
AcDbEntity
  8
ZUWAKU
  6
CONTINUOUS
 62
       7
100
AcDbLine
 10
-203.8
 20
-411.86162988
 30
0.0
 11
-197.6125
 21
-411.86162988
 31
0.0
  0
LINE
  5
1AA
100
AcDbEntity
  8
ZUWAKU
  6
CONTINUOUS
 62
       7
100
AcDbLine
 10
-194.05
 20
-407.54912988
 30
0.0
 11
-201.925
 21
-407.54912988
 31
0.0
  0
LINE
  5
1AB
100
AcDbEntity
  8
ZUWAKU
  6
CONTINUOUS
 62
       7
100
AcDbLine
 10
-201.925
 20
-407.54912988
 30
0.0
 11
-201.175
 21
-404.92412988
 31
0.0
  0
LINE
  5
1AC
100
AcDbEntity
  8
ZUWAKU
  6
CONTINUOUS
 62
       7
100
AcDbLine
 10
-201.925
 20
-407.54912988
 30
0.0
 11
-201.175
 21
-404.92412988
 31
0.0
  0
LINE
  5
1AD
100
AcDbEntity
  8
ZUWAKU
  6
CONTINUOUS
 62
       7
100
AcDbLine
 10
-197.6125
 20
-411.86162988
 30
0.0
 11
-196.3
 21
-410.92412988
 31
0.0
  0
LINE
  5
1AE
100
AcDbEntity
  8
ZUWAKU
  6
CONTINUOUS
 62
       7
100
AcDbLine
 10
-197.6125
 20
-411.86162988
 30
0.0
 11
-196.3
 21
-410.92412988
 31
0.0
  0
LINE
  5
1AF
100
AcDbEntity
  8
ZUWAKU
  6
CONTINUOUS
 62
       7
100
AcDbLine
 10
-196.3
 20
-410.92412988
 30
0.0
 11
-195.3625
 21
-409.98662988
 31
0.0
  0
LINE
  5
1B0
100
AcDbEntity
  8
ZUWAKU
  6
CONTINUOUS
 62
       7
100
AcDbLine
 10
-196.3
 20
-410.92412988
 30
0.0
 11
-195.3625
 21
-409.98662988
 31
0.0
  0
LINE
  5
1B1
100
AcDbEntity
  8
ZUWAKU
  6
CONTINUOUS
 62
       7
100
AcDbLine
 10
-195.3625
 20
-409.98662988
 30
0.0
 11
-194.425
 21
-408.86162988
 31
0.0
  0
LINE
  5
1B2
100
AcDbEntity
  8
ZUWAKU
  6
CONTINUOUS
 62
       7
100
AcDbLine
 10
-195.3625
 20
-409.98662988
 30
0.0
 11
-194.425
 21
-408.86162988
 31
0.0
  0
LINE
  5
1B3
100
AcDbEntity
  8
ZUWAKU
  6
CONTINUOUS
 62
       7
100
AcDbLine
 10
-194.425
 20
-408.86162988
 30
0.0
 11
-194.05
 21
-407.54912988
 31
0.0
  0
LINE
  5
1B4
100
AcDbEntity
  8
ZUWAKU
  6
CONTINUOUS
 62
       7
100
AcDbLine
 10
-194.425
 20
-408.86162988
 30
0.0
 11
-194.05
 21
-407.54912988
 31
0.0
  0
LINE
  5
1B5
100
AcDbEntity
  8
ZUWAKU
  6
CONTINUOUS
 62
       7
100
AcDbLine
 10
-206.2375
 20
-399.86162988
 30
0.0
 11
-202.11398879
 21
-399.86162988
 31
0.0
  0
LINE
  5
1B6
100
AcDbEntity
  8
ZUWAKU
  6
CONTINUOUS
 62
       7
100
AcDbLine
 10
-205.525
 20
-410.92412988
 30
0.0
 11
-207.025
 21
-412.42412988
 31
0.0
  0
LINE
  5
1B7
100
AcDbEntity
  8
ZUWAKU
  6
CONTINUOUS
 62
       7
100
AcDbLine
 10
-207.025
 20
-412.42412988
 30
0.0
 11
-208.525
 21
-413.73662988
 31
0.0
  0
LINE
  5
1B8
100
AcDbEntity
  8
ZUWAKU
  6
CONTINUOUS
 62
       7
100
AcDbLine
 10
-207.025
 20
-412.42412988
 30
0.0
 11
-208.525
 21
-413.73662988
 31
0.0
  0
LINE
  5
1B9
100
AcDbEntity
  8
ZUWAKU
  6
CONTINUOUS
 62
       7
100
AcDbLine
 10
-208.525
 20
-413.73662988
 30
0.0
 11
-210.4
 21
-414.48662988
 31
0.0
  0
LINE
  5
1BA
100
AcDbEntity
  8
ZUWAKU
  6
CONTINUOUS
 62
       7
100
AcDbLine
 10
-210.4
 20
-414.48662988
 30
0.0
 11
-212.275
 21
-414.67412988
 31
0.0
  0
LINE
  5
1BB
100
AcDbEntity
  8
ZUWAKU
  6
CONTINUOUS
 62
       7
100
AcDbLine
 10
-212.275
 20
-414.67412988
 30
0.0
 11
-216.9625
 21
-414.67412988
 31
0.0
  0
LINE
  5
1BC
100
AcDbEntity
  8
ZUWAKU
  6
CONTINUOUS
 62
       7
100
AcDbLine
 10
-216.9625
 20
-414.67412988
 30
0.0
 11
-216.025
 21
-411.86162988
 31
0.0
  0
LINE
  5
1BD
100
AcDbEntity
  8
ZUWAKU
  6
CONTINUOUS
 62
       7
100
AcDbLine
 10
-216.9625
 20
-414.67412988
 30
0.0
 11
-216.025
 21
-411.86162988
 31
0.0
  0
LINE
  5
1BE
100
AcDbEntity
  8
ZUWAKU
  6
CONTINUOUS
 62
       7
100
AcDbLine
 10
-210.4
 20
-409.42412988
 30
0.0
 11
-206.8375
 21
-399.86162988
 31
0.0
  0
LINE
  5
1BF
100
AcDbEntity
  8
ZUWAKU
  6
CONTINUOUS
 62
       7
100
AcDbLine
 10
-216.025
 20
-411.86162988
 30
0.0
 11
-214.3375
 21
-411.86162988
 31
0.0
  0
LINE
  5
1C0
100
AcDbEntity
  8
ZUWAKU
  6
CONTINUOUS
 62
       7
100
AcDbLine
 10
-216.025
 20
-411.86162988
 30
0.0
 11
-214.3375
 21
-411.86162988
 31
0.0
  0
LINE
  5
1C1
100
AcDbEntity
  8
ZUWAKU
  6
CONTINUOUS
 62
       7
100
AcDbLine
 10
-211.3375
 20
-410.92412988
 30
0.0
 11
-210.4
 21
-409.42412988
 31
0.0
  0
LINE
  5
1C2
100
AcDbEntity
  8
ZUWAKU
  6
CONTINUOUS
 62
       7
100
AcDbLine
 10
-212.8375
 20
-411.67412988
 30
0.0
 11
-211.3375
 21
-410.92412988
 31
0.0
  0
LINE
  5
1C3
100
AcDbEntity
  8
ZUWAKU
  6
CONTINUOUS
 62
       7
100
AcDbLine
 10
-214.3375
 20
-411.86162988
 30
0.0
 11
-212.8375
 21
-411.67412988
 31
0.0
  0
LINE
  5
1C4
100
AcDbEntity
  8
ZUWAKU
  6
CONTINUOUS
 62
       7
100
AcDbLine
 10
-214.3375
 20
-411.86162988
 30
0.0
 11
-212.8375
 21
-411.67412988
 31
0.0
  0
LINE
  5
1C5
100
AcDbEntity
  8
ZUWAKU
  6
CONTINUOUS
 62
       7
100
AcDbLine
 10
-165.475
 20
-399.86162988
 30
0.0
 11
-159.475
 21
-399.86162988
 31
0.0
  0
LINE
  5
1C6
100
AcDbEntity
  8
ZUWAKU
  6
CONTINUOUS
 62
       7
100
AcDbLine
 10
-159.475
 20
-399.86162988
 30
0.0
 11
-160.6
 21
-403.23662988
 31
0.0
  0
LINE
  5
1C7
100
AcDbEntity
  8
ZUWAKU
  6
CONTINUOUS
 62
       7
100
AcDbLine
 10
-159.475
 20
-399.86162988
 30
0.0
 11
-160.6
 21
-403.23662988
 31
0.0
  0
LINE
  5
1C8
100
AcDbEntity
  8
ZUWAKU
  6
CONTINUOUS
 62
       7
100
AcDbLine
 10
-160.9
 20
-403.23662988
 30
0.0
 11
-166.7875
 21
-403.23662988
 31
0.0
  0
LINE
  5
1C9
100
AcDbEntity
  8
ZUWAKU
  6
CONTINUOUS
 62
       7
100
AcDbLine
 10
-143.25272308
 20
-403.21168646
 30
0.0
 11
-145.0
 21
-406.42412988
 31
0.0
  0
LINE
  5
1CA
100
AcDbEntity
  8
ZUWAKU
  6
CONTINUOUS
 62
       7
100
AcDbLine
 10
-138.0625
 20
-399.86162988
 30
0.0
 11
-147.4375
 21
-409.23662988
 31
0.0
  0
LINE
  5
1CB
100
AcDbEntity
  8
ZUWAKU
  6
CONTINUOUS
 62
       7
100
AcDbLine
 10
-147.4375
 20
-409.23662988
 30
0.0
 11
-152.65
 21
-414.44912988
 31
0.0
  0
LINE
  5
1CC
100
AcDbEntity
  8
ZUWAKU
  6
CONTINUOUS
 62
       7
100
AcDbLine
 10
-138.91102814
 20
-399.86162988
 30
0.0
 11
-144.43529641
 21
-405.38589815
 31
0.0
  0
LINE
  5
1CD
100
AcDbEntity
  8
ZUWAKU
  6
CONTINUOUS
 62
       7
100
AcDbLine
 10
-149.37699289
 20
-410.32759463
 30
0.0
 11
-153.66823376
 21
-414.61883551
 31
0.0
  0
LINE
  5
1CE
100
AcDbEntity
  8
ZUWAKU
  6
CONTINUOUS
 62
       7
100
AcDbLine
 10
-139.75955627
 20
-399.86162988
 30
0.0
 11
-143.42338845
 21
-403.52546206
 31
0.0
  0
LINE
  5
1CF
100
AcDbEntity
  8
ZUWAKU
  6
CONTINUOUS
 62
       7
100
AcDbLine
 10
-150.92460461
 20
-411.02667822
 30
0.0
 11
-154.68646753
 21
-414.78854114
 31
0.0
  0
LINE
  5
1D0
100
AcDbEntity
  8
ZUWAKU
  6
CONTINUOUS
 62
       7
100
AcDbLine
 10
-140.60808441
 20
-399.86162988
 30
0.0
 11
-143.98308441
 21
-403.23662988
 31
0.0
  0
LINE
  5
1D1
100
AcDbEntity
  8
ZUWAKU
  6
CONTINUOUS
 62
       7
100
AcDbLine
 10
-151.99940692
 20
-411.25295239
 30
0.0
 11
-154.86149941
 21
-414.11504488
 31
0.0
  0
LINE
  5
1D2
100
AcDbEntity
  8
ZUWAKU
  6
CONTINUOUS
 62
       7
100
AcDbLine
 10
-141.45661255
 20
-399.86162988
 30
0.0
 11
-144.83161255
 21
-403.23662988
 31
0.0
  0
LINE
  5
1D3
100
AcDbEntity
  8
ZUWAKU
  6
CONTINUOUS
 62
       7
100
AcDbLine
 10
-153.07420923
 20
-411.47922656
 30
0.0
 11
-154.39866588
 21
-412.80368321
 31
0.0
  0
LINE
  5
1D4
100
AcDbEntity
  8
ZUWAKU
  6
CONTINUOUS
 62
       7
100
AcDbLine
 10
-142.30514069
 20
-399.86162988
 30
0.0
 11
-145.68014069
 21
-403.23662988
 31
0.0
  0
LINE
  5
1D5
100
AcDbEntity
  8
ZUWAKU
  6
CONTINUOUS
 62
       7
100
AcDbLine
 10
-143.15366882
 20
-399.86162988
 30
0.0
 11
-146.52866882
 21
-403.23662988
 31
0.0
  0
LINE
  5
1D6
100
AcDbEntity
  8
ZUWAKU
  6
CONTINUOUS
 62
       7
100
AcDbLine
 10
-144.00219696
 20
-399.86162988
 30
0.0
 11
-147.37719696
 21
-403.23662988
 31
0.0
  0
LINE
  5
1D7
100
AcDbEntity
  8
ZUWAKU
  6
CONTINUOUS
 62
       7
100
AcDbLine
 10
-144.8507251
 20
-399.86162988
 30
0.0
 11
-148.2257251
 21
-403.23662988
 31
0.0
  0
LINE
  5
1D8
100
AcDbEntity
  8
ZUWAKU
  6
CONTINUOUS
 62
       7
100
AcDbLine
 10
-145.69925324
 20
-399.86162988
 30
0.0
 11
-149.07425324
 21
-403.23662988
 31
0.0
  0
LINE
  5
1D9
100
AcDbEntity
  8
ZUWAKU
  6
CONTINUOUS
 62
       7
100
AcDbLine
 10
-146.54778137
 20
-399.86162988
 30
0.0
 11
-149.85110931
 21
-403.16495782
 31
0.0
  0
LINE
  5
1DA
100
AcDbEntity
  8
ZUWAKU
  6
CONTINUOUS
 62
       7
100
AcDbLine
 10
-147.39630951
 20
-399.86162988
 30
0.0
 11
-149.42684524
 21
-401.89216561
 31
0.0
  0
LINE
  5
1DB
100
AcDbEntity
  8
ZUWAKU
  6
CONTINUOUS
 62
       7
100
AcDbLine
 10
-148.24483765
 20
-399.86162988
 30
0.0
 11
-149.00258118
 21
-400.61937341
 31
0.0
  0
LINE
  5
1DC
100
AcDbEntity
  8
ZUWAKU
  6
CONTINUOUS
 62
       7
100
AcDbLine
 10
-137.21397186
 20
-399.86162988
 30
0.0
 11
-151.63176624
 21
-414.27942425
 31
0.0
  0
LINE
  5
1DD
100
AcDbEntity
  8
ZUWAKU
  6
CONTINUOUS
 62
       7
100
AcDbLine
 10
-136.36544373
 20
-399.86162988
 30
0.0
 11
-150.61353247
 21
-414.10971863
 31
0.0
  0
LINE
  5
1DE
100
AcDbEntity
  8
ZUWAKU
  6
CONTINUOUS
 62
       7
100
AcDbLine
 10
-136.19323376
 20
-400.53794806
 30
0.0
 11
-149.59529871
 21
-413.940013
 31
0.0
  0
LINE
  5
1DF
100
AcDbEntity
  8
ZUWAKU
  6
CONTINUOUS
 62
       7
100
AcDbLine
 10
-136.53264502
 20
-401.72588745
 30
0.0
 11
-148.42324243
 21
-413.61648486
 31
0.0
  0
LINE
  5
1E0
100
AcDbEntity
  8
ZUWAKU
  6
CONTINUOUS
 62
       7
100
AcDbLine
 10
-137.01154916
 20
-403.05331973
 30
0.0
 11
-147.23530304
 21
-413.27707361
 31
0.0
  0
LINE
  5
1E1
100
AcDbEntity
  8
ZUWAKU
  6
CONTINUOUS
 62
       7
100
AcDbLine
 10
-137.73885899
 20
-404.6291577
 30
0.0
 11
-145.98824676
 21
-412.87854547
 31
0.0
  0
LINE
  5
1E2
100
AcDbEntity
  8
ZUWAKU
  6
CONTINUOUS
 62
       7
100
AcDbLine
 10
-139.25439392
 20
-406.99322077
 30
0.0
 11
-144.71545456
 21
-412.4542814
 31
0.0
  0
LINE
  5
1E3
100
AcDbEntity
  8
ZUWAKU
  6
CONTINUOUS
 62
       7
100
AcDbLine
 10
-140.97722607
 20
-409.56458105
 30
0.0
 11
-143.90508091
 21
-412.4924359
 31
0.0
  0
LINE
  5
1E4
100
AcDbEntity
  8
ZUWAKU
  6
CONTINUOUS
 62
       7
100
AcDbLine
 10
-140.656671
 20
-410.09255412
 30
0.0
 11
-143.5818321
 21
-413.01771522
 31
0.0
  0
LINE
  5
1E5
100
AcDbEntity
  8
ZUWAKU
  6
CONTINUOUS
 62
       7
100
AcDbLine
 10
-140.33611593
 20
-410.62052718
 30
0.0
 11
-143.25858329
 21
-413.54299454
 31
0.0
  0
LINE
  5
1E6
100
AcDbEntity
  8
ZUWAKU
  6
CONTINUOUS
 62
       7
100
AcDbLine
 10
-140.01556085
 20
-411.14850024
 30
0.0
 11
-142.93533447
 21
-414.06827386
 31
0.0
  0
LINE
  5
1E7
100
AcDbEntity
  8
ZUWAKU
  6
CONTINUOUS
 62
       7
100
AcDbLine
 10
-139.69500578
 20
-411.67647331
 30
0.0
 11
-142.61208566
 21
-414.59355319
 31
0.0
  0
LINE
  5
1E8
100
AcDbEntity
  8
ZUWAKU
  6
CONTINUOUS
 62
       7
100
AcDbLine
 10
-139.3744507
 20
-412.20444637
 30
0.0
 11
-141.84413421
 21
-414.67412988
 31
0.0
  0
LINE
  5
1E9
100
AcDbEntity
  8
ZUWAKU
  6
CONTINUOUS
 62
       7
100
AcDbLine
 10
-139.05389563
 20
-412.73241943
 30
0.0
 11
-140.99560608
 21
-414.67412988
 31
0.0
  0
LINE
  5
1EA
100
AcDbEntity
  8
ZUWAKU
  6
CONTINUOUS
 62
       7
100
AcDbLine
 10
-138.73334055
 20
-413.2603925
 30
0.0
 11
-140.14707794
 21
-414.67412988
 31
0.0
  0
LINE
  5
1EB
100
AcDbEntity
  8
ZUWAKU
  6
CONTINUOUS
 62
       7
100
AcDbLine
 10
-138.41278548
 20
-413.78836556
 30
0.0
 11
-139.2985498
 21
-414.67412988
 31
0.0
  0
LINE
  5
1EC
100
AcDbEntity
  8
ZUWAKU
  6
CONTINUOUS
 62
       7
100
AcDbLine
 10
-138.09223041
 20
-414.31633862
 30
0.0
 11
-138.45002166
 21
-414.67412988
 31
0.0
  0
LINE
  5
1ED
100
AcDbEntity
  8
ZUWAKU
  6
CONTINUOUS
 62
       7
100
AcDbLine
 10
-161.44375
 20
-399.86162988
 30
0.0
 11
-164.81875
 21
-403.23662988
 31
0.0
  0
LINE
  5
1EE
100
AcDbEntity
  8
ZUWAKU
  6
CONTINUOUS
 62
       7
100
AcDbLine
 10
-162.29227814
 20
-399.86162988
 30
0.0
 11
-165.66727814
 21
-403.23662988
 31
0.0
  0
LINE
  5
1EF
100
AcDbEntity
  8
ZUWAKU
  6
CONTINUOUS
 62
       7
100
AcDbLine
 10
-163.14080627
 20
-399.86162988
 30
0.0
 11
-166.51580627
 21
-403.23662988
 31
0.0
  0
LINE
  5
1F0
100
AcDbEntity
  8
ZUWAKU
  6
CONTINUOUS
 62
       7
100
AcDbLine
 10
-163.98933441
 20
-399.86162988
 30
0.0
 11
-166.42042356
 21
-402.29271902
 31
0.0
  0
LINE
  5
1F1
100
AcDbEntity
  8
ZUWAKU
  6
CONTINUOUS
 62
       7
100
AcDbLine
 10
-164.83786255
 20
-399.86162988
 30
0.0
 11
-165.8804511
 21
-400.90421844
 31
0.0
  0
LINE
  5
1F2
100
AcDbEntity
  8
ZUWAKU
  6
CONTINUOUS
 62
       7
100
AcDbLine
 10
-160.59522186
 20
-399.86162988
 30
0.0
 11
-163.97022186
 21
-403.23662988
 31
0.0
  0
LINE
  5
1F3
100
AcDbEntity
  8
ZUWAKU
  6
CONTINUOUS
 62
       7
100
AcDbLine
 10
-159.74669373
 20
-399.86162988
 30
0.0
 11
-163.12169373
 21
-403.23662988
 31
0.0
  0
LINE
  5
1F4
100
AcDbEntity
  8
ZUWAKU
  6
CONTINUOUS
 62
       7
100
AcDbLine
 10
-159.76341721
 20
-400.7268815
 30
0.0
 11
-162.27316559
 21
-403.23662988
 31
0.0
  0
LINE
  5
1F5
100
AcDbEntity
  8
ZUWAKU
  6
CONTINUOUS
 62
       7
100
AcDbLine
 10
-160.18768127
 20
-401.99967371
 30
0.0
 11
-161.42463745
 21
-403.23662988
 31
0.0
  0
LINE
  5
1F6
100
AcDbEntity
  8
ZUWAKU
  6
CONTINUOUS
 62
       7
100
AcDbLine
 10
-160.57610931
 20
-403.23662988
 30
0.0
 11
-160.61194534
 21
-403.27246591
 31
0.0
  0
LINE
  5
1F7
100
AcDbEntity
  8
ZUWAKU
  6
CONTINUOUS
 62
       7
100
AcDbLine
 10
-162.56875
 20
-409.98662988
 30
0.0
 11
-167.25625
 21
-414.67412988
 31
0.0
  0
LINE
  5
1F8
100
AcDbEntity
  8
ZUWAKU
  6
CONTINUOUS
 62
       7
100
AcDbLine
 10
-163.41727814
 20
-409.98662988
 30
0.0
 11
-168.10477814
 21
-414.67412988
 31
0.0
  0
LINE
  5
1F9
100
AcDbEntity
  8
ZUWAKU
  6
CONTINUOUS
 62
       7
100
AcDbLine
 10
-164.26580627
 20
-409.98662988
 30
0.0
 11
-168.95330627
 21
-414.67412988
 31
0.0
  0
LINE
  5
1FA
100
AcDbEntity
  8
ZUWAKU
  6
CONTINUOUS
 62
       7
100
AcDbLine
 10
-165.11433441
 20
-409.98662988
 30
0.0
 11
-169.80183441
 21
-414.67412988
 31
0.0
  0
LINE
  5
1FB
100
AcDbEntity
  8
ZUWAKU
  6
CONTINUOUS
 62
       7
100
AcDbLine
 10
-165.96286255
 20
-409.98662988
 30
0.0
 11
-170.65036255
 21
-414.67412988
 31
0.0
  0
LINE
  5
1FC
100
AcDbEntity
  8
ZUWAKU
  6
CONTINUOUS
 62
       7
100
AcDbLine
 10
-166.81139069
 20
-409.98662988
 30
0.0
 11
-170.58265524
 21
-413.75789443
 31
0.0
  0
LINE
  5
1FD
100
AcDbEntity
  8
ZUWAKU
  6
CONTINUOUS
 62
       7
100
AcDbLine
 10
-167.65991882
 20
-409.98662988
 30
0.0
 11
-170.10535816
 21
-412.43206922
 31
0.0
  0
LINE
  5
1FE
100
AcDbEntity
  8
ZUWAKU
  6
CONTINUOUS
 62
       7
100
AcDbLine
 10
-168.50844696
 20
-409.98662988
 30
0.0
 11
-169.62806108
 21
-411.106244
 31
0.0
  0
LINE
  5
1FF
100
AcDbEntity
  8
ZUWAKU
  6
CONTINUOUS
 62
       7
100
AcDbLine
 10
-161.72022186
 20
-409.98662988
 30
0.0
 11
-166.40772186
 21
-414.67412988
 31
0.0
  0
LINE
  5
200
100
AcDbEntity
  8
ZUWAKU
  6
CONTINUOUS
 62
       7
100
AcDbLine
 10
-160.87169373
 20
-409.98662988
 30
0.0
 11
-165.55919373
 21
-414.67412988
 31
0.0
  0
LINE
  5
201
100
AcDbEntity
  8
ZUWAKU
  6
CONTINUOUS
 62
       7
100
AcDbLine
 10
-152.71066559
 20
-402.67412988
 30
0.0
 11
-153.95270901
 21
-403.9161733
 31
0.0
  0
LINE
  5
202
100
AcDbEntity
  8
ZUWAKU
  6
CONTINUOUS
 62
       7
100
AcDbLine
 10
-159.82133118
 20
-409.78479547
 30
0.0
 11
-164.71066559
 21
-414.67412988
 31
0.0
  0
LINE
  5
203
100
AcDbEntity
  8
ZUWAKU
  6
CONTINUOUS
 62
       7
100
AcDbLine
 10
-151.86213745
 20
-402.67412988
 30
0.0
 11
-154.7134668
 21
-405.52545923
 31
0.0
  0
LINE
  5
204
100
AcDbEntity
  8
ZUWAKU
  6
CONTINUOUS
 62
       7
100
AcDbLine
 10
-158.1242749
 20
-408.93626733
 30
0.0
 11
-163.86213745
 21
-414.67412988
 31
0.0
  0
LINE
  5
205
100
AcDbEntity
  8
ZUWAKU
  6
CONTINUOUS
 62
       7
100
AcDbLine
 10
-151.73797428
 20
-403.39849485
 30
0.0
 11
-163.01360931
 21
-414.67412988
 31
0.0
  0
LINE
  5
206
100
AcDbEntity
  8
ZUWAKU
  6
CONTINUOUS
 62
       7
100
AcDbLine
 10
-151.93762796
 20
-404.44667666
 30
0.0
 11
-162.16508118
 21
-414.67412988
 31
0.0
  0
LINE
  5
207
100
AcDbEntity
  8
ZUWAKU
  6
CONTINUOUS
 62
       7
100
AcDbLine
 10
-152.13728164
 20
-405.49485848
 30
0.0
 11
-161.31655304
 21
-414.67412988
 31
0.0
  0
LINE
  5
208
100
AcDbEntity
  8
ZUWAKU
  6
CONTINUOUS
 62
       7
100
AcDbLine
 10
-152.33693532
 20
-406.5430403
 30
0.0
 11
-160.06244482
 21
-414.2685498
 31
0.0
  0
LINE
  5
209
100
AcDbEntity
  8
ZUWAKU
  6
CONTINUOUS
 62
       7
100
AcDbLine
 10
-153.53950486
 20
-408.59413797
 30
0.0
 11
-158.53509417
 21
-413.58972729
 31
0.0
  0
LINE
  5
20A
100
AcDbEntity
  8
ZUWAKU
  6
CONTINUOUS
 62
       7
100
AcDbLine
 10
-169.43125
 20
-399.86162988
 30
0.0
 11
-182.9078125
 21
-413.33819238
 31
0.0
  0
LINE
  5
20B
100
AcDbEntity
  8
ZUWAKU
  6
CONTINUOUS
 62
       7
100
AcDbLine
 10
-170.27977814
 20
-399.86162988
 30
0.0
 11
-182.41283775
 21
-411.9946895
 31
0.0
  0
LINE
  5
20C
100
AcDbEntity
  8
ZUWAKU
  6
CONTINUOUS
 62
       7
100
AcDbLine
 10
-171.12830627
 20
-399.86162988
 30
0.0
 11
-181.91786301
 21
-410.65118661
 31
0.0
  0
LINE
  5
20D
100
AcDbEntity
  8
ZUWAKU
  6
CONTINUOUS
 62
       7
100
AcDbLine
 10
-171.97683441
 20
-399.86162988
 30
0.0
 11
-181.42288826
 21
-409.30768373
 31
0.0
  0
LINE
  5
20E
100
AcDbEntity
  8
ZUWAKU
  6
CONTINUOUS
 62
       7
100
AcDbLine
 10
-172.82536255
 20
-399.86162988
 30
0.0
 11
-180.92791351
 21
-407.96418084
 31
0.0
  0
LINE
  5
20F
100
AcDbEntity
  8
ZUWAKU
  6
CONTINUOUS
 62
       7
100
AcDbLine
 10
-173.67389069
 20
-399.86162988
 30
0.0
 11
-174.2737915
 21
-400.4615307
 31
0.0
  0
LINE
  5
210
100
AcDbEntity
  8
ZUWAKU
  6
CONTINUOUS
 62
       7
100
AcDbLine
 10
-177.5824337
 20
-403.7701729
 30
0.0
 11
-181.36139069
 21
-407.54912988
 31
0.0
  0
LINE
  5
211
100
AcDbEntity
  8
ZUWAKU
  6
CONTINUOUS
 62
       7
100
AcDbLine
 10
-179.06735794
 20
-404.406569
 30
0.0
 11
-182.20991882
 21
-407.54912988
 31
0.0
  0
LINE
  5
212
100
AcDbEntity
  8
ZUWAKU
  6
CONTINUOUS
 62
       7
100
AcDbLine
 10
-180.27998421
 20
-404.77066713
 30
0.0
 11
-183.05844696
 21
-407.54912988
 31
0.0
  0
LINE
  5
213
100
AcDbEntity
  8
ZUWAKU
  6
CONTINUOUS
 62
       7
100
AcDbLine
 10
-181.19922302
 20
-404.84137781
 30
0.0
 11
-183.9069751
 21
-407.54912988
 31
0.0
  0
LINE
  5
214
100
AcDbEntity
  8
ZUWAKU
  6
CONTINUOUS
 62
       7
100
AcDbLine
 10
-182.11846184
 20
-404.91208848
 30
0.0
 11
-184.75550324
 21
-407.54912988
 31
0.0
  0
LINE
  5
215
100
AcDbEntity
  8
ZUWAKU
  6
CONTINUOUS
 62
       7
100
AcDbLine
 10
-182.97903137
 20
-404.92412988
 30
0.0
 11
-185.60403137
 21
-407.54912988
 31
0.0
  0
LINE
  5
216
100
AcDbEntity
  8
ZUWAKU
  6
CONTINUOUS
 62
       7
100
AcDbLine
 10
-183.82755951
 20
-404.92412988
 30
0.0
 11
-186.45255951
 21
-407.54912988
 31
0.0
  0
LINE
  5
217
100
AcDbEntity
  8
ZUWAKU
  6
CONTINUOUS
 62
       7
100
AcDbLine
 10
-184.67608765
 20
-404.92412988
 30
0.0
 11
-186.48272908
 21
-406.73077132
 31
0.0
  0
LINE
  5
218
100
AcDbEntity
  8
ZUWAKU
  6
CONTINUOUS
 62
       7
100
AcDbLine
 10
-185.52461579
 20
-404.92412988
 30
0.0
 11
-186.01132456
 21
-405.41083866
 31
0.0
  0
LINE
  5
219
100
AcDbEntity
  8
ZUWAKU
  6
CONTINUOUS
 62
       7
100
AcDbLine
 10
-168.58272186
 20
-399.86162988
 30
0.0
 11
-183.40278725
 21
-414.68169527
 31
0.0
  0
LINE
  5
21A
100
AcDbEntity
  8
ZUWAKU
  6
CONTINUOUS
 62
       7
100
AcDbLine
 10
-167.73419373
 20
-399.86162988
 30
0.0
 11
-174.25077983
 21
-406.37821598
 31
0.0
  0
LINE
  5
21B
100
AcDbEntity
  8
ZUWAKU
  6
CONTINUOUS
 62
       7
100
AcDbLine
 10
-174.45343428
 20
-406.58087044
 30
0.0
 11
-182.54669373
 21
-414.67412988
 31
0.0
  0
LINE
  5
21C
100
AcDbEntity
  8
ZUWAKU
  6
CONTINUOUS
 62
       7
100
AcDbLine
 10
-166.88566559
 20
-399.86162988
 30
0.0
 11
-173.02512807
 21
-406.00109236
 31
0.0
  0
LINE
  5
21D
100
AcDbEntity
  8
ZUWAKU
  6
CONTINUOUS
 62
       7
100
AcDbLine
 10
-174.89232814
 20
-407.86829244
 30
0.0
 11
-181.69816559
 21
-414.67412988
 31
0.0
  0
LINE
  5
21E
100
AcDbEntity
  8
ZUWAKU
  6
CONTINUOUS
 62
       7
100
AcDbLine
 10
-167.63959647
 20
-401.4640889
 30
0.0
 11
-171.54867065
 21
-405.37316308
 31
0.0
  0
LINE
  5
21F
100
AcDbEntity
  8
ZUWAKU
  6
CONTINUOUS
 62
       7
100
AcDbLine
 10
-175.33122201
 20
-409.15571444
 30
0.0
 11
-180.84963745
 21
-414.67412988
 31
0.0
  0
LINE
  5
220
100
AcDbEntity
  8
ZUWAKU
  6
CONTINUOUS
 62
       7
100
AcDbLine
 10
-175.77011587
 20
-410.44313644
 30
0.0
 11
-180.00110931
 21
-414.67412988
 31
0.0
  0
LINE
  5
221
100
AcDbEntity
  8
ZUWAKU
  6
CONTINUOUS
 62
       7
100
AcDbLine
 10
-176.20900974
 20
-411.73055844
 30
0.0
 11
-179.15258118
 21
-414.67412988
 31
0.0
  0
LINE
  5
222
100
AcDbEntity
  8
ZUWAKU
  6
CONTINUOUS
 62
       7
100
AcDbLine
 10
-176.6479036
 20
-413.01798044
 30
0.0
 11
-178.30405304
 21
-414.67412988
 31
0.0
  0
LINE
  5
223
100
AcDbEntity
  8
ZUWAKU
  6
CONTINUOUS
 62
       7
100
AcDbLine
 10
-177.08679747
 20
-414.30540245
 30
0.0
 11
-177.4555249
 21
-414.67412988
 31
0.0
  0
LINE
  5
224
100
AcDbEntity
  8
ZUWAKU
  6
CONTINUOUS
 62
       7
100
AcDbLine
 10
-191.70625
 20
-399.86162988
 30
0.0
 11
-195.08125
 21
-403.23662988
 31
0.0
  0
LINE
  5
225
100
AcDbEntity
  8
ZUWAKU
  6
CONTINUOUS
 62
       7
100
AcDbLine
 10
-192.55477814
 20
-399.86162988
 30
0.0
 11
-195.92977814
 21
-403.23662988
 31
0.0
  0
LINE
  5
226
100
AcDbEntity
  8
ZUWAKU
  6
CONTINUOUS
 62
       7
100
AcDbLine
 10
-193.40330627
 20
-399.86162988
 30
0.0
 11
-196.77830627
 21
-403.23662988
 31
0.0
  0
LINE
  5
227
100
AcDbEntity
  8
ZUWAKU
  6
CONTINUOUS
 62
       7
100
AcDbLine
 10
-194.25183441
 20
-399.86162988
 30
0.0
 11
-197.62683441
 21
-403.23662988
 31
0.0
  0
LINE
  5
228
100
AcDbEntity
  8
ZUWAKU
  6
CONTINUOUS
 62
       7
100
AcDbLine
 10
-195.10036255
 20
-399.86162988
 30
0.0
 11
-198.47536255
 21
-403.23662988
 31
0.0
  0
LINE
  5
229
100
AcDbEntity
  8
ZUWAKU
  6
CONTINUOUS
 62
       7
100
AcDbLine
 10
-195.94889069
 20
-399.86162988
 30
0.0
 11
-199.32389069
 21
-403.23662988
 31
0.0
  0
LINE
  5
22A
100
AcDbEntity
  8
ZUWAKU
  6
CONTINUOUS
 62
       7
100
AcDbLine
 10
-196.79741882
 20
-399.86162988
 30
0.0
 11
-200.17241882
 21
-403.23662988
 31
0.0
  0
LINE
  5
22B
100
AcDbEntity
  8
ZUWAKU
  6
CONTINUOUS
 62
       7
100
AcDbLine
 10
-197.64594696
 20
-399.86162988
 30
0.0
 11
-200.68952652
 21
-402.90520944
 31
0.0
  0
LINE
  5
22C
100
AcDbEntity
  8
ZUWAKU
  6
CONTINUOUS
 62
       7
100
AcDbLine
 10
-198.4944751
 20
-399.86162988
 30
0.0
 11
-200.26526245
 21
-401.63241723
 31
0.0
  0
LINE
  5
22D
100
AcDbEntity
  8
ZUWAKU
  6
CONTINUOUS
 62
       7
100
AcDbLine
 10
-199.34300324
 20
-399.86162988
 30
0.0
 11
-199.84099838
 21
-400.35962503
 31
0.0
  0
LINE
  5
22E
100
AcDbEntity
  8
ZUWAKU
  6
CONTINUOUS
 62
       7
100
AcDbLine
 10
-190.85772186
 20
-399.86162988
 30
0.0
 11
-194.23272186
 21
-403.23662988
 31
0.0
  0
LINE
  5
22F
100
AcDbEntity
  8
ZUWAKU
  6
CONTINUOUS
 62
       7
100
AcDbLine
 10
-190.00919373
 20
-399.86162988
 30
0.0
 11
-193.38419373
 21
-403.23662988
 31
0.0
  0
LINE
  5
230
100
AcDbEntity
  8
ZUWAKU
  6
CONTINUOUS
 62
       7
100
AcDbLine
 10
-189.16066559
 20
-399.86162988
 30
0.0
 11
-192.53566559
 21
-403.23662988
 31
0.0
  0
LINE
  5
231
100
AcDbEntity
  8
ZUWAKU
  6
CONTINUOUS
 62
       7
100
AcDbLine
 10
-188.31213745
 20
-399.86162988
 30
0.0
 11
-191.68713745
 21
-403.23662988
 31
0.0
  0
LINE
  5
232
100
AcDbEntity
  8
ZUWAKU
  6
CONTINUOUS
 62
       7
100
AcDbLine
 10
-187.46360931
 20
-399.86162988
 30
0.0
 11
-190.83860931
 21
-403.23662988
 31
0.0
  0
LINE
  5
233
100
AcDbEntity
  8
ZUWAKU
  6
CONTINUOUS
 62
       7
100
AcDbLine
 10
-186.61508118
 20
-399.86162988
 30
0.0
 11
-189.99008118
 21
-403.23662988
 31
0.0
  0
LINE
  5
234
100
AcDbEntity
  8
ZUWAKU
  6
CONTINUOUS
 62
       7
100
AcDbLine
 10
-186.09797348
 20
-400.19305032
 30
0.0
 11
-189.14155304
 21
-403.23662988
 31
0.0
  0
LINE
  5
235
100
AcDbEntity
  8
ZUWAKU
  6
CONTINUOUS
 62
       7
100
AcDbLine
 10
-186.52223755
 20
-401.46584253
 30
0.0
 11
-188.2930249
 21
-403.23662988
 31
0.0
  0
LINE
  5
236
100
AcDbEntity
  8
ZUWAKU
  6
CONTINUOUS
 62
       7
100
AcDbLine
 10
-186.94650162
 20
-402.73863474
 30
0.0
 11
-187.44449676
 21
-403.23662988
 31
0.0
  0
LINE
  5
237
100
AcDbEntity
  8
ZUWAKU
  6
CONTINUOUS
 62
       7
100
AcDbLine
 10
-191.425
 20
-404.92412988
 30
0.0
 11
-194.05
 21
-407.54912988
 31
0.0
  0
LINE
  5
238
100
AcDbEntity
  8
ZUWAKU
  6
CONTINUOUS
 62
       7
100
AcDbLine
 10
-198.3625
 20
-411.86162988
 30
0.0
 11
-201.175
 21
-414.67412988
 31
0.0
  0
LINE
  5
239
100
AcDbEntity
  8
ZUWAKU
  6
CONTINUOUS
 62
       7
100
AcDbLine
 10
-192.27352814
 20
-404.92412988
 30
0.0
 11
-194.89852814
 21
-407.54912988
 31
0.0
  0
LINE
  5
23A
100
AcDbEntity
  8
ZUWAKU
  6
CONTINUOUS
 62
       7
100
AcDbLine
 10
-199.21102814
 20
-411.86162988
 30
0.0
 11
-202.02352814
 21
-414.67412988
 31
0.0
  0
LINE
  5
23B
100
AcDbEntity
  8
ZUWAKU
  6
CONTINUOUS
 62
       7
100
AcDbLine
 10
-193.12205627
 20
-404.92412988
 30
0.0
 11
-195.74705627
 21
-407.54912988
 31
0.0
  0
LINE
  5
23C
100
AcDbEntity
  8
ZUWAKU
  6
CONTINUOUS
 62
       7
100
AcDbLine
 10
-200.05955627
 20
-411.86162988
 30
0.0
 11
-202.87205627
 21
-414.67412988
 31
0.0
  0
LINE
  5
23D
100
AcDbEntity
  8
ZUWAKU
  6
CONTINUOUS
 62
       7
100
AcDbLine
 10
-193.97058441
 20
-404.92412988
 30
0.0
 11
-196.59558441
 21
-407.54912988
 31
0.0
  0
LINE
  5
23E
100
AcDbEntity
  8
ZUWAKU
  6
CONTINUOUS
 62
       7
100
AcDbLine
 10
-200.90808441
 20
-411.86162988
 30
0.0
 11
-203.72058441
 21
-414.67412988
 31
0.0
  0
LINE
  5
23F
100
AcDbEntity
  8
ZUWAKU
  6
CONTINUOUS
 62
       7
100
AcDbLine
 10
-194.81911255
 20
-404.92412988
 30
0.0
 11
-197.44411255
 21
-407.54912988
 31
0.0
  0
LINE
  5
240
100
AcDbEntity
  8
ZUWAKU
  6
CONTINUOUS
 62
       7
100
AcDbLine
 10
-201.75661255
 20
-411.86162988
 30
0.0
 11
-204.56911255
 21
-414.67412988
 31
0.0
  0
LINE
  5
241
100
AcDbEntity
  8
ZUWAKU
  6
CONTINUOUS
 62
       7
100
AcDbLine
 10
-195.66764069
 20
-404.92412988
 30
0.0
 11
-198.29264069
 21
-407.54912988
 31
0.0
  0
LINE
  5
242
100
AcDbEntity
  8
ZUWAKU
  6
CONTINUOUS
 62
       7
100
AcDbLine
 10
-202.60514069
 20
-411.86162988
 30
0.0
 11
-204.59657288
 21
-413.85306207
 31
0.0
  0
LINE
  5
243
100
AcDbEntity
  8
ZUWAKU
  6
CONTINUOUS
 62
       7
100
AcDbLine
 10
-196.51616882
 20
-404.92412988
 30
0.0
 11
-199.14116882
 21
-407.54912988
 31
0.0
  0
LINE
  5
244
100
AcDbEntity
  8
ZUWAKU
  6
CONTINUOUS
 62
       7
100
AcDbLine
 10
-203.45366882
 20
-411.86162988
 30
0.0
 11
-204.03088745
 21
-412.43884851
 31
0.0
  0
LINE
  5
245
100
AcDbEntity
  8
ZUWAKU
  6
CONTINUOUS
 62
       7
100
AcDbLine
 10
-197.36469696
 20
-404.92412988
 30
0.0
 11
-199.98969696
 21
-407.54912988
 31
0.0
  0
LINE
  5
246
100
AcDbEntity
  8
ZUWAKU
  6
CONTINUOUS
 62
       7
100
AcDbLine
 10
-198.2132251
 20
-404.92412988
 30
0.0
 11
-200.8382251
 21
-407.54912988
 31
0.0
  0
LINE
  5
247
100
AcDbEntity
  8
ZUWAKU
  6
CONTINUOUS
 62
       7
100
AcDbLine
 10
-199.06175324
 20
-404.92412988
 30
0.0
 11
-201.68675324
 21
-407.54912988
 31
0.0
  0
LINE
  5
248
100
AcDbEntity
  8
ZUWAKU
  6
CONTINUOUS
 62
       7
100
AcDbLine
 10
-199.91028137
 20
-404.92412988
 30
0.0
 11
-201.68088745
 21
-406.69473596
 31
0.0
  0
LINE
  5
249
100
AcDbEntity
  8
ZUWAKU
  6
CONTINUOUS
 62
       7
100
AcDbLine
 10
-200.75880951
 20
-404.92412988
 30
0.0
 11
-201.3414762
 21
-405.50679656
 31
0.0
  0
LINE
  5
24A
100
AcDbEntity
  8
ZUWAKU
  6
CONTINUOUS
 62
       7
100
AcDbLine
 10
-190.57647186
 20
-404.92412988
 30
0.0
 11
-194.38941125
 21
-408.73706927
 31
0.0
  0
LINE
  5
24B
100
AcDbEntity
  8
ZUWAKU
  6
CONTINUOUS
 62
       7
100
AcDbLine
 10
-197.26765152
 20
-411.61530954
 30
0.0
 11
-200.32647186
 21
-414.67412988
 31
0.0
  0
LINE
  5
24C
100
AcDbEntity
  8
ZUWAKU
  6
CONTINUOUS
 62
       7
100
AcDbLine
 10
-189.72794373
 20
-404.92412988
 30
0.0
 11
-199.47794373
 21
-414.67412988
 31
0.0
  0
LINE
  5
24D
100
AcDbEntity
  8
ZUWAKU
  6
CONTINUOUS
 62
       7
100
AcDbLine
 10
-188.87941559
 20
-404.92412988
 30
0.0
 11
-198.62941559
 21
-414.67412988
 31
0.0
  0
LINE
  5
24E
100
AcDbEntity
  8
ZUWAKU
  6
CONTINUOUS
 62
       7
100
AcDbLine
 10
-188.03088745
 20
-404.92412988
 30
0.0
 11
-197.78088745
 21
-414.67412988
 31
0.0
  0
LINE
  5
24F
100
AcDbEntity
  8
ZUWAKU
  6
CONTINUOUS
 62
       7
100
AcDbLine
 10
-187.95650896
 20
-405.69827953
 30
0.0
 11
-196.93235931
 21
-414.67412988
 31
0.0
  0
LINE
  5
250
100
AcDbEntity
  8
ZUWAKU
  6
CONTINUOUS
 62
       7
100
AcDbLine
 10
-188.44138219
 20
-407.03168089
 30
0.0
 11
-196.08383118
 21
-414.67412988
 31
0.0
  0
LINE
  5
251
100
AcDbEntity
  8
ZUWAKU
  6
CONTINUOUS
 62
       7
100
AcDbLine
 10
-188.92625541
 20
-408.36508225
 30
0.0
 11
-195.19290405
 21
-414.63173089
 31
0.0
  0
LINE
  5
252
100
AcDbEntity
  8
ZUWAKU
  6
CONTINUOUS
 62
       7
100
AcDbLine
 10
-189.41112863
 20
-409.69848361
 30
0.0
 11
-194.0615332
 21
-414.34888818
 31
0.0
  0
LINE
  5
253
100
AcDbEntity
  8
ZUWAKU
  6
CONTINUOUS
 62
       7
100
AcDbLine
 10
-189.89600185
 20
-411.03188497
 30
0.0
 11
-192.46399353
 21
-413.59987664
 31
0.0
  0
LINE
  5
254
100
AcDbEntity
  8
ZUWAKU
  6
CONTINUOUS
 62
       7
100
AcDbLine
 10
-201.9625
 20
-399.86162988
 30
0.0
 11
-209.73203125
 21
-407.63116113
 31
0.0
  0
LINE
  5
255
100
AcDbEntity
  8
ZUWAKU
  6
CONTINUOUS
 62
       7
100
AcDbLine
 10
-213.90892857
 20
-411.80805845
 30
0.0
 11
-216.775
 21
-414.67412988
 31
0.0
  0
LINE
  5
256
100
AcDbEntity
  8
ZUWAKU
  6
CONTINUOUS
 62
       7
100
AcDbLine
 10
-202.81102814
 20
-399.86162988
 30
0.0
 11
-209.22821767
 21
-406.27881941
 31
0.0
  0
LINE
  5
257
100
AcDbEntity
  8
ZUWAKU
  6
CONTINUOUS
 62
       7
100
AcDbLine
 10
-214.81102814
 20
-411.86162988
 30
0.0
 11
-216.63198593
 21
-413.68258768
 31
0.0
  0
LINE
  5
258
100
AcDbEntity
  8
ZUWAKU
  6
CONTINUOUS
 62
       7
100
AcDbLine
 10
-203.65955627
 20
-399.86162988
 30
0.0
 11
-208.72440409
 21
-404.92647769
 31
0.0
  0
LINE
  5
259
100
AcDbEntity
  8
ZUWAKU
  6
CONTINUOUS
 62
       7
100
AcDbLine
 10
-215.65955627
 20
-411.86162988
 30
0.0
 11
-216.20772186
 21
-412.40979547
 31
0.0
  0
LINE
  5
25A
100
AcDbEntity
  8
ZUWAKU
  6
CONTINUOUS
 62
       7
100
AcDbLine
 10
-204.50808441
 20
-399.86162988
 30
0.0
 11
-208.22059051
 21
-403.57413597
 31
0.0
  0
LINE
  5
25B
100
AcDbEntity
  8
ZUWAKU
  6
CONTINUOUS
 62
       7
100
AcDbLine
 10
-205.35661255
 20
-399.86162988
 30
0.0
 11
-207.71677692
 21
-402.22179426
 31
0.0
  0
LINE
  5
25C
100
AcDbEntity
  8
ZUWAKU
  6
CONTINUOUS
 62
       7
100
AcDbLine
 10
-206.20514069
 20
-399.86162988
 30
0.0
 11
-207.21296334
 21
-400.86945254
 31
0.0
  0
LINE
  5
25D
100
AcDbEntity
  8
ZUWAKU
  6
CONTINUOUS
 62
       7
100
AcDbLine
 10
-202.11398879
 20
-400.86164681
 30
0.0
 11
-210.23584483
 21
-408.98350285
 31
0.0
  0
LINE
  5
25E
100
AcDbEntity
  8
ZUWAKU
  6
CONTINUOUS
 62
       7
100
AcDbLine
 10
-212.93918213
 20
-411.68684015
 30
0.0
 11
-215.92647186
 21
-414.67412988
 31
0.0
  0
LINE
  5
25F
100
AcDbEntity
  8
ZUWAKU
  6
CONTINUOUS
 62
       7
100
AcDbLine
 10
-202.54913142
 20
-402.14531758
 30
0.0
 11
-211.31838745
 21
-410.91457361
 31
0.0
  0
LINE
  5
260
100
AcDbEntity
  8
ZUWAKU
  6
CONTINUOUS
 62
       7
100
AcDbLine
 10
-211.35342712
 20
-410.94961328
 30
0.0
 11
-215.07794373
 21
-414.67412988
 31
0.0
  0
LINE
  5
261
100
AcDbEntity
  8
ZUWAKU
  6
CONTINUOUS
 62
       7
100
AcDbLine
 10
-202.98427406
 20
-403.42898835
 30
0.0
 11
-214.22941559
 21
-414.67412988
 31
0.0
  0
LINE
  5
262
100
AcDbEntity
  8
ZUWAKU
  6
CONTINUOUS
 62
       7
100
AcDbLine
 10
-203.41941669
 20
-404.71265912
 30
0.0
 11
-213.38088745
 21
-414.67412988
 31
0.0
  0
LINE
  5
263
100
AcDbEntity
  8
ZUWAKU
  6
CONTINUOUS
 62
       7
100
AcDbLine
 10
-203.85455933
 20
-405.9963299
 30
0.0
 11
-212.53235931
 21
-414.67412988
 31
0.0
  0
LINE
  5
264
100
AcDbEntity
  8
ZUWAKU
  6
CONTINUOUS
 62
       7
100
AcDbLine
 10
-204.28970196
 20
-407.28000067
 30
0.0
 11
-211.61814575
 21
-414.60844446
 31
0.0
  0
LINE
  5
265
100
AcDbEntity
  8
ZUWAKU
  6
CONTINUOUS
 62
       7
100
AcDbLine
 10
-204.7248446
 20
-408.56367144
 30
0.0
 11
-210.67533671
 21
-414.51416355
 31
0.0
  0
LINE
  5
266
100
AcDbEntity
  8
ZUWAKU
  6
CONTINUOUS
 62
       7
100
AcDbLine
 10
-205.15998723
 20
-409.84734221
 30
0.0
 11
-209.3987915
 21
-414.08614648
 31
0.0
  0
LINE
  5
267
100
AcDbEntity
  8
ZUWAKU
  6
CONTINUOUS
 62
       7
100
AcDbLine
 10
-210.98125
 20
-400.91162988
 30
0.0
 11
-217.91512097
 21
-407.84550085
 31
0.0
  0
LINE
  5
268
100
AcDbEntity
  8
ZUWAKU
  6
CONTINUOUS
 62
       7
100
AcDbLine
 10
-210.77977814
 20
-399.86162988
 30
0.0
 11
-217.44979909
 21
-406.53165083
 31
0.0
  0
LINE
  5
269
100
AcDbEntity
  8
ZUWAKU
  6
CONTINUOUS
 62
       7
100
AcDbLine
 10
-211.62830627
 20
-399.86162988
 30
0.0
 11
-216.9844772
 21
-405.21780081
 31
0.0
  0
LINE
  5
26A
100
AcDbEntity
  8
ZUWAKU
  6
CONTINUOUS
 62
       7
100
AcDbLine
 10
-212.47683441
 20
-399.86162988
 30
0.0
 11
-216.51915532
 21
-403.90395079
 31
0.0
  0
LINE
  5
26B
100
AcDbEntity
  8
ZUWAKU
  6
CONTINUOUS
 62
       7
100
AcDbLine
 10
-213.32536255
 20
-399.86162988
 30
0.0
 11
-216.05383344
 21
-402.59010077
 31
0.0
  0
LINE
  5
26C
100
AcDbEntity
  8
ZUWAKU
  6
CONTINUOUS
 62
       7
100
AcDbLine
 10
-214.17389069
 20
-399.86162988
 30
0.0
 11
-215.58851156
 21
-401.27625075
 31
0.0
  0
LINE
  5
26D
100
AcDbEntity
  8
ZUWAKU
  6
CONTINUOUS
 62
       7
100
AcDbLine
 10
-215.02241882
 20
-399.86162988
 30
0.0
 11
-215.12318968
 21
-399.96240073
 31
0.0
  0
LINE
  5
26E
100
AcDbEntity
  8
ZUWAKU
  6
CONTINUOUS
 62
       7
100
AcDbLine
 10
-211.49036688
 20
-402.2692749
 30
0.0
 11
-218.08272186
 21
-408.86162988
 31
0.0
  0
LINE
  5
26F
100
AcDbEntity
  8
ZUWAKU
  6
CONTINUOUS
 62
       7
100
AcDbLine
 10
-211.99948376
 20
-403.62691992
 30
0.0
 11
-217.23419373
 21
-408.86162988
 31
0.0
  0
LINE
  5
270
100
AcDbEntity
  8
ZUWAKU
  6
CONTINUOUS
 62
       7
100
AcDbLine
 10
-212.50860065
 20
-404.98456494
 30
0.0
 11
-216.38566559
 21
-408.86162988
 31
0.0
  0
LINE
  5
271
100
AcDbEntity
  8
ZUWAKU
  6
CONTINUOUS
 62
       7
100
AcDbLine
 10
-213.01771753
 20
-406.34220996
 30
0.0
 11
-215.53713745
 21
-408.86162988
 31
0.0
  0
LINE
  5
272
100
AcDbEntity
  8
ZUWAKU
  6
CONTINUOUS
 62
       7
100
AcDbLine
 10
-213.52683441
 20
-407.69985498
 30
0.0
 11
-214.68860931
 21
-408.86162988
 31
0.0
  0
LINE
  5
273
100
AcDbEntity
  8
ZUWAKU
  6
CONTINUOUS
 62
       7
100
AcDbLine
 10
-298.33423183
 20
422.23595872
 30
0.0
 11
-298.34470746
 21
422.22548309
 31
0.0
  0
LINE
  5
274
100
AcDbEntity
  8
ZUWAKU
  6
CONTINUOUS
 62
       7
100
AcDbLine
 10
-298.76178987
 20
422.23266475
 30
0.0
 11
-298.76897153
 21
422.22548309
 31
0.0
  0
LINE
  5
275
100
AcDbEntity
  8
ZUWAKU
  6
CONTINUOUS
 62
       7
100
AcDbLine
 10
-299.18934791
 20
422.22937078
 30
0.0
 11
-299.1932356
 21
422.22548309
 31
0.0
  0
LINE
  5
276
100
AcDbEntity
  8
ZUWAKU
  6
CONTINUOUS
 62
       7
100
AcDbLine
 10
-274.9375
 20
401.23245871
 30
0.0
 11
282.125
 21
401.23245871
 31
0.0
  0
LINE
  5
277
100
AcDbEntity
  8
ZUWAKU
  6
CONTINUOUS
 62
       7
100
AcDbLine
 10
92.75
 20
430.95087012
 30
0.0
 11
282.125
 21
430.95087012
 31
0.0
  0
LINE
  5
278
100
AcDbEntity
  8
ZUWAKU
  6
CONTINUOUS
 62
       7
100
AcDbLine
 10
92.75
 20
430.95087012
 30
0.0
 11
92.75
 21
401.23245871
 31
0.0
  0
LINE
  5
279
100
AcDbEntity
  8
ZUWAKU
  6
CONTINUOUS
 62
       7
100
AcDbLine
 10
282.125
 20
430.95087012
 30
0.0
 11
282.125
 21
401.23245871
 31
0.0
  0
LINE
  5
27A
100
AcDbEntity
  8
ZUWAKU
  6
CONTINUOUS
 62
       7
100
AcDbLine
 10
-274.1875
 20
-422.36162988
 30
0.0
 11
279.125
 21
-422.36162988
 31
0.0
  0
LINE
  5
27B
100
AcDbEntity
  8
ZUWAKU
  6
CONTINUOUS
 62
       7
100
AcDbLine
 10
-274.1875
 20
-386.17412988
 30
0.0
 11
279.125
 21
-386.17412988
 31
0.0
  0
LINE
  5
27C
100
AcDbEntity
  8
ZUWAKU
  6
CONTINUOUS
 62
       7
100
AcDbLine
 10
-274.1875
 20
-381.11162988
 30
0.0
 11
279.125
 21
-381.11162988
 31
0.0
  0
LINE
  5
27D
100
AcDbEntity
  8
ZUWAKU
  6
CONTINUOUS
 62
       7
100
AcDbLine
 10
-274.1875
 20
-381.11162988
 30
0.0
 11
-274.1875
 21
-276.11162988
 31
0.0
  0
LINE
  5
27E
100
AcDbEntity
  8
ZUWAKU
  6
CONTINUOUS
 62
       7
100
AcDbLine
 10
-253.375
 20
-381.11162988
 30
0.0
 11
-253.375
 21
-276.11162988
 31
0.0
  0
LINE
  5
27F
100
AcDbEntity
  8
ZUWAKU
  6
CONTINUOUS
 62
       7
100
AcDbLine
 10
-113.6875
 20
-381.11162988
 30
0.0
 11
-113.6875
 21
-276.11162988
 31
0.0
  0
LINE
  5
280
100
AcDbEntity
  8
ZUWAKU
  6
CONTINUOUS
 62
       7
100
AcDbLine
 10
45.6875
 20
-381.11162988
 30
0.0
 11
45.6875
 21
-276.11162988
 31
0.0
  0
LINE
  5
281
100
AcDbEntity
  8
ZUWAKU
  6
CONTINUOUS
 62
       7
100
AcDbLine
 10
79.0625
 20
-381.11162988
 30
0.0
 11
79.0625
 21
-276.11162988
 31
0.0
  0
LINE
  5
282
100
AcDbEntity
  8
ZUWAKU
  6
CONTINUOUS
 62
       7
100
AcDbLine
 10
279.125
 20
-381.11162988
 30
0.0
 11
279.125
 21
-276.11162988
 31
0.0
  0
LINE
  5
283
100
AcDbEntity
  8
ZUWAKU
  6
CONTINUOUS
 62
       7
100
AcDbLine
 10
92.0
 20
-422.36162988
 30
0.0
 11
92.0
 21
-386.17412988
 31
0.0
  0
LINE
  5
284
100
AcDbEntity
  8
ZUWAKU
  6
CONTINUOUS
 62
       7
100
AcDbLine
 10
77.0
 20
-422.36162988
 30
0.0
 11
77.0
 21
-386.17412988
 31
0.0
  0
LINE
  5
285
100
AcDbEntity
  8
ZUWAKU
  6
CONTINUOUS
 62
       7
100
AcDbLine
 10
-110.6875
 20
-422.36162988
 30
0.0
 11
-110.6875
 21
-386.17412988
 31
0.0
  0
LINE
  5
286
100
AcDbEntity
  8
ZUWAKU
  6
CONTINUOUS
 62
       7
100
AcDbLine
 10
-125.6875
 20
-422.36162988
 30
0.0
 11
-125.6875
 21
-386.17412988
 31
0.0
  0
LINE
  5
287
100
AcDbEntity
  8
ZUWAKU
  6
CONTINUOUS
 62
       7
100
AcDbLine
 10
-274.1875
 20
-366.11162988
 30
0.0
 11
279.125
 21
-366.11162988
 31
0.0
  0
LINE
  5
288
100
AcDbEntity
  8
ZUWAKU
  6
CONTINUOUS
 62
       7
100
AcDbLine
 10
-274.1875
 20
-351.11162988
 30
0.0
 11
279.125
 21
-351.11162988
 31
0.0
  0
LINE
  5
289
100
AcDbEntity
  8
ZUWAKU
  6
CONTINUOUS
 62
       7
100
AcDbLine
 10
-274.1875
 20
-336.11162988
 30
0.0
 11
279.125
 21
-336.11162988
 31
0.0
  0
LINE
  5
28A
100
AcDbEntity
  8
ZUWAKU
  6
CONTINUOUS
 62
       7
100
AcDbLine
 10
-274.1875
 20
-321.11162988
 30
0.0
 11
279.125
 21
-321.11162988
 31
0.0
  0
LINE
  5
28B
100
AcDbEntity
  8
ZUWAKU
  6
CONTINUOUS
 62
       7
100
AcDbLine
 10
-274.1875
 20
-306.11162988
 30
0.0
 11
279.125
 21
-306.11162988
 31
0.0
  0
LINE
  5
28C
100
AcDbEntity
  8
ZUWAKU
  6
CONTINUOUS
 62
       7
100
AcDbLine
 10
-274.1875
 20
-291.11162988
 30
0.0
 11
279.125
 21
-291.11162988
 31
0.0
  0
LINE
  5
28D
100
AcDbEntity
  8
ZUWAKU
  6
CONTINUOUS
 62
       7
100
AcDbLine
 10
-274.1875
 20
-276.11162988
 30
0.0
 11
279.125
 21
-276.11162988
 31
0.0
  0
LINE
  5
28E
100
AcDbEntity
  8
ZUWAKU
  6
CONTINUOUS
 62
       7
100
AcDbLine
 10
297.5
 20
179.88837012
 30
0.0
 11
314.0
 21
179.88837012
 31
0.0
  0
LINE
  5
28F
100
AcDbEntity
  8
ZUWAKU
  6
CONTINUOUS
 62
       7
100
AcDbLine
 10
297.5
 20
164.88837012
 30
0.0
 11
314.0
 21
164.88837012
 31
0.0
  0
LINE
  5
290
100
AcDbEntity
  8
ZUWAKU
  6
CONTINUOUS
 62
       7
100
AcDbLine
 10
314.0
 20
179.88837012
 30
0.0
 11
314.0
 21
164.88837012
 31
0.0
  0
LINE
  5
291
100
AcDbEntity
  8
ZUWAKU
  6
CONTINUOUS
 62
       7
100
AcDbLine
 10
297.5
 20
179.88837012
 30
0.0
 11
297.5
 21
164.88837012
 31
0.0
  0
LINE
  5
292
100
AcDbEntity
  8
ZUWAKU
  6
CONTINUOUS
 62
       7
100
AcDbLine
 10
314.0
 20
164.94059958
 30
0.0
 11
313.94777054
 21
164.88837012
 31
0.0
  0
LINE
  5
293
100
AcDbEntity
  8
ZUWAKU
  6
CONTINUOUS
 62
       7
100
AcDbLine
 10
305.19616453
 20
179.88837012
 30
0.0
 11
297.5
 21
172.19220559
 31
0.0
  0
LINE
  5
294
100
AcDbEntity
  8
ZUWAKU
  6
CONTINUOUS
 62
       7
100
AcDbLine
 10
304.34763639
 20
179.88837012
 30
0.0
 11
297.5
 21
173.04073372
 31
0.0
  0
LINE
  5
295
100
AcDbEntity
  8
ZUWAKU
  6
CONTINUOUS
 62
       7
100
AcDbLine
 10
303.49910826
 20
179.88837012
 30
0.0
 11
297.5
 21
173.88926186
 31
0.0
  0
LINE
  5
296
100
AcDbEntity
  8
ZUWAKU
  6
CONTINUOUS
 62
       7
100
AcDbLine
 10
302.65058012
 20
179.88837012
 30
0.0
 11
297.5
 21
174.73779
 31
0.0
  0
LINE
  5
297
100
AcDbEntity
  8
ZUWAKU
  6
CONTINUOUS
 62
       7
100
AcDbLine
 10
301.80205198
 20
179.88837012
 30
0.0
 11
297.5
 21
175.58631814
 31
0.0
  0
LINE
  5
298
100
AcDbEntity
  8
ZUWAKU
  6
CONTINUOUS
 62
       7
100
AcDbLine
 10
300.95352384
 20
179.88837012
 30
0.0
 11
297.5
 21
176.43484627
 31
0.0
  0
LINE
  5
299
100
AcDbEntity
  8
ZUWAKU
  6
CONTINUOUS
 62
       7
100
AcDbLine
 10
300.10499571
 20
179.88837012
 30
0.0
 11
297.5
 21
177.28337441
 31
0.0
  0
LINE
  5
29A
100
AcDbEntity
  8
ZUWAKU
  6
CONTINUOUS
 62
       7
100
AcDbLine
 10
299.25646757
 20
179.88837012
 30
0.0
 11
297.5
 21
178.13190255
 31
0.0
  0
LINE
  5
29B
100
AcDbEntity
  8
ZUWAKU
  6
CONTINUOUS
 62
       7
100
AcDbLine
 10
298.40793943
 20
179.88837012
 30
0.0
 11
297.5
 21
178.98043069
 31
0.0
  0
LINE
  5
29C
100
AcDbEntity
  8
ZUWAKU
  6
CONTINUOUS
 62
       7
100
AcDbLine
 10
306.04469267
 20
179.88837012
 30
0.0
 11
297.5
 21
171.34367745
 31
0.0
  0
LINE
  5
29D
100
AcDbEntity
  8
ZUWAKU
  6
CONTINUOUS
 62
       7
100
AcDbLine
 10
306.89322081
 20
179.88837012
 30
0.0
 11
297.5
 21
170.49514931
 31
0.0
  0
LINE
  5
29E
100
AcDbEntity
  8
ZUWAKU
  6
CONTINUOUS
 62
       7
100
AcDbLine
 10
307.74174894
 20
179.88837012
 30
0.0
 11
297.5
 21
169.64662118
 31
0.0
  0
LINE
  5
29F
100
AcDbEntity
  8
ZUWAKU
  6
CONTINUOUS
 62
       7
100
AcDbLine
 10
308.59027708
 20
179.88837012
 30
0.0
 11
297.5
 21
168.79809304
 31
0.0
  0
LINE
  5
2A0
100
AcDbEntity
  8
ZUWAKU
  6
CONTINUOUS
 62
       7
100
AcDbLine
 10
309.43880522
 20
179.88837012
 30
0.0
 11
297.5
 21
167.9495649
 31
0.0
  0
LINE
  5
2A1
100
AcDbEntity
  8
ZUWAKU
  6
CONTINUOUS
 62
       7
100
AcDbLine
 10
310.28733336
 20
179.88837012
 30
0.0
 11
297.5
 21
167.10103676
 31
0.0
  0
LINE
  5
2A2
100
AcDbEntity
  8
ZUWAKU
  6
CONTINUOUS
 62
       7
100
AcDbLine
 10
311.13586149
 20
179.88837012
 30
0.0
 11
297.5
 21
166.25250863
 31
0.0
  0
LINE
  5
2A3
100
AcDbEntity
  8
ZUWAKU
  6
CONTINUOUS
 62
       7
100
AcDbLine
 10
311.98438963
 20
179.88837012
 30
0.0
 11
297.5
 21
165.40398049
 31
0.0
  0
LINE
  5
2A4
100
AcDbEntity
  8
ZUWAKU
  6
CONTINUOUS
 62
       7
100
AcDbLine
 10
312.83291777
 20
179.88837012
 30
0.0
 11
297.83291777
 21
164.88837012
 31
0.0
  0
LINE
  5
2A5
100
AcDbEntity
  8
ZUWAKU
  6
CONTINUOUS
 62
       7
100
AcDbLine
 10
313.68144591
 20
179.88837012
 30
0.0
 11
298.68144591
 21
164.88837012
 31
0.0
  0
LINE
  5
2A6
100
AcDbEntity
  8
ZUWAKU
  6
CONTINUOUS
 62
       7
100
AcDbLine
 10
314.0
 20
179.35839608
 30
0.0
 11
299.52997404
 21
164.88837012
 31
0.0
  0
LINE
  5
2A7
100
AcDbEntity
  8
ZUWAKU
  6
CONTINUOUS
 62
       7
100
AcDbLine
 10
314.0
 20
178.50986794
 30
0.0
 11
300.37850218
 21
164.88837012
 31
0.0
  0
LINE
  5
2A8
100
AcDbEntity
  8
ZUWAKU
  6
CONTINUOUS
 62
       7
100
AcDbLine
 10
314.0
 20
177.6613398
 30
0.0
 11
301.22703032
 21
164.88837012
 31
0.0
  0
LINE
  5
2A9
100
AcDbEntity
  8
ZUWAKU
  6
CONTINUOUS
 62
       7
100
AcDbLine
 10
314.0
 20
176.81281166
 30
0.0
 11
302.07555846
 21
164.88837012
 31
0.0
  0
LINE
  5
2AA
100
AcDbEntity
  8
ZUWAKU
  6
CONTINUOUS
 62
       7
100
AcDbLine
 10
314.0
 20
175.96428353
 30
0.0
 11
302.92408659
 21
164.88837012
 31
0.0
  0
LINE
  5
2AB
100
AcDbEntity
  8
ZUWAKU
  6
CONTINUOUS
 62
       7
100
AcDbLine
 10
314.0
 20
175.11575539
 30
0.0
 11
303.77261473
 21
164.88837012
 31
0.0
  0
LINE
  5
2AC
100
AcDbEntity
  8
ZUWAKU
  6
CONTINUOUS
 62
       7
100
AcDbLine
 10
314.0
 20
174.26722725
 30
0.0
 11
304.62114287
 21
164.88837012
 31
0.0
  0
LINE
  5
2AD
100
AcDbEntity
  8
ZUWAKU
  6
CONTINUOUS
 62
       7
100
AcDbLine
 10
314.0
 20
173.41869911
 30
0.0
 11
305.46967101
 21
164.88837012
 31
0.0
  0
LINE
  5
2AE
100
AcDbEntity
  8
ZUWAKU
  6
CONTINUOUS
 62
       7
100
AcDbLine
 10
314.0
 20
172.57017098
 30
0.0
 11
306.31819914
 21
164.88837012
 31
0.0
  0
LINE
  5
2AF
100
AcDbEntity
  8
ZUWAKU
  6
CONTINUOUS
 62
       7
100
AcDbLine
 10
314.0
 20
171.72164284
 30
0.0
 11
307.16672728
 21
164.88837012
 31
0.0
  0
LINE
  5
2B0
100
AcDbEntity
  8
ZUWAKU
  6
CONTINUOUS
 62
       7
100
AcDbLine
 10
314.0
 20
170.8731147
 30
0.0
 11
308.01525542
 21
164.88837012
 31
0.0
  0
LINE
  5
2B1
100
AcDbEntity
  8
ZUWAKU
  6
CONTINUOUS
 62
       7
100
AcDbLine
 10
314.0
 20
170.02458656
 30
0.0
 11
308.86378355
 21
164.88837012
 31
0.0
  0
LINE
  5
2B2
100
AcDbEntity
  8
ZUWAKU
  6
CONTINUOUS
 62
       7
100
AcDbLine
 10
314.0
 20
169.17605843
 30
0.0
 11
309.71231169
 21
164.88837012
 31
0.0
  0
LINE
  5
2B3
100
AcDbEntity
  8
ZUWAKU
  6
CONTINUOUS
 62
       7
100
AcDbLine
 10
314.0
 20
168.32753029
 30
0.0
 11
310.56083983
 21
164.88837012
 31
0.0
  0
LINE
  5
2B4
100
AcDbEntity
  8
ZUWAKU
  6
CONTINUOUS
 62
       7
100
AcDbLine
 10
314.0
 20
167.47900215
 30
0.0
 11
311.40936797
 21
164.88837012
 31
0.0
  0
LINE
  5
2B5
100
AcDbEntity
  8
ZUWAKU
  6
CONTINUOUS
 62
       7
100
AcDbLine
 10
314.0
 20
166.63047401
 30
0.0
 11
312.2578961
 21
164.88837012
 31
0.0
  0
LINE
  5
2B6
100
AcDbEntity
  8
ZUWAKU
  6
CONTINUOUS
 62
       7
100
AcDbLine
 10
314.0
 20
165.78194588
 30
0.0
 11
313.10642424
 21
164.88837012
 31
0.0
  0
LINE
  5
2B7
100
AcDbEntity
  8
ZUWAKU
  6
CONTINUOUS
 62
       7
100
AcDbLine
 10
314.0
 20
164.93341774
 30
0.0
 11
313.95495238
 21
164.88837012
 31
0.0
  0
LINE
  5
2B8
100
AcDbEntity
  8
ZUWAKU
  6
CONTINUOUS
 62
       7
100
AcDbLine
 10
-243.25
 20
418.57587012
 30
0.0
 11
-245.79263043
 21
423.07437012
 31
0.0
  0
LINE
  5
2B9
100
AcDbEntity
  8
ZUWAKU
  6
CONTINUOUS
 62
       7
100
AcDbLine
 10
-255.92666748
 20
427.01337012
 30
0.0
 11
-255.61416748
 21
427.95087012
 31
0.0
  0
LINE
  5
2BA
100
AcDbEntity
  8
ZUWAKU
  6
CONTINUOUS
 62
       7
100
AcDbLine
 10
-232.03089307
 20
419.68542358
 30
0.0
 11
-232.372
 21
419.51487012
 31
0.0
  0
LINE
  5
2BB
100
AcDbEntity
  8
ZUWAKU
  6
CONTINUOUS
 62
       7
100
AcDbLine
 10
-231.8125
 20
418.57587012
 30
0.0
 11
-230.2375
 21
420.15087012
 31
0.0
  0
LINE
  5
2BC
100
AcDbEntity
  8
ZUWAKU
  6
CONTINUOUS
 62
       7
100
AcDbLine
 10
-230.5
 20
418.57587012
 30
0.0
 11
-230.2375
 21
420.15087012
 31
0.0
  0
LINE
  5
2BD
100
AcDbEntity
  8
ZUWAKU
  6
CONTINUOUS
 62
       7
100
AcDbLine
 10
-223.5625
 20
419.88837012
 30
0.0
 11
-223.5625
 21
419.51487012
 31
0.0
  0
LINE
  5
2BE
100
AcDbEntity
  8
ZUWAKU
  6
CONTINUOUS
 62
       7
100
AcDbLine
 10
-215.26743836
 20
418.57587012
 30
0.0
 11
-218.6875
 21
418.57587012
 31
0.0
  0
LINE
  5
2BF
100
AcDbEntity
  8
ZUWAKU
  6
CONTINUOUS
 62
       7
100
AcDbLine
 10
-220.53540257
 20
419.91208037
 30
0.0
 11
-222.0625
 21
418.57587012
 31
0.0
  0
LINE
  5
2C0
100
AcDbEntity
  8
ZUWAKU
  6
CONTINUOUS
 62
       7
100
AcDbLine
 10
-209.70025599
 20
418.57587012
 30
0.0
 11
-213.625
 21
418.57587012
 31
0.0
  0
LINE
  5
2C1
100
AcDbEntity
  8
ZUWAKU
  6
CONTINUOUS
 62
       7
100
AcDbLine
 10
-248.804125
 20
419.51487012
 30
0.0
 11
-245.9921875
 21
427.01337012
 31
0.0
  0
LINE
  5
2C2
100
AcDbEntity
  8
ZUWAKU
  6
CONTINUOUS
 62
       7
100
AcDbLine
 10
-246.11433506
 20
424.01337012
 30
0.0
 11
-241.72546646
 21
424.01337012
 31
0.0
  0
LINE
  5
2C3
100
AcDbEntity
  8
ZUWAKU
  6
CONTINUOUS
 62
       7
100
AcDbLine
 10
-217.86931818
 20
420.82587012
 30
0.0
 11
-218.5
 21
420.82587012
 31
0.0
  0
LINE
  5
2C4
100
AcDbEntity
  8
ZUWAKU
  6
CONTINUOUS
 62
       7
100
AcDbLine
 10
-218.5
 20
420.82587012
 30
0.0
 11
-219.11984233
 21
420.82587012
 31
0.0
  0
LINE
  5
2C5
100
AcDbEntity
  8
ZUWAKU
  6
CONTINUOUS
 62
       7
100
AcDbLine
 10
-224.60423441
 20
418.57587012
 30
0.0
 11
-222.0625
 21
418.57587012
 31
0.0
  0
CIRCLE
  5
2C6
100
AcDbEntity
  8
ZUWAKU
  6
CONTINUOUS
 62
       7
100
AcDbCircle
 10
-228.72422572
 20
423.82587012
 30
0.0
 40
0.56797572
  0
LINE
  5
2C7
100
AcDbEntity
  8
ZUWAKU
  6
CONTINUOUS
 62
       7
100
AcDbLine
 10
-248.1015625
 20
427.01337012
 30
0.0
 11
-245.9921875
 21
427.01337012
 31
0.0
  0
LINE
  5
2C8
100
AcDbEntity
  8
ZUWAKU
  6
CONTINUOUS
 62
       7
100
AcDbLine
 10
-244.98933506
 20
427.01337012
 30
0.0
 11
-241.72546646
 21
427.01337012
 31
0.0
  0
LINE
  5
2C9
100
AcDbEntity
  8
ZUWAKU
  6
CONTINUOUS
 62
       7
100
AcDbLine
 10
-251.3125
 20
418.57587012
 30
0.0
 11
-250.960375
 21
419.51487012
 31
0.0
  0
LINE
  5
2CA
100
AcDbEntity
  8
ZUWAKU
  6
CONTINUOUS
 62
       7
100
AcDbLine
 10
-248.1015625
 20
427.01337012
 30
0.0
 11
-247.75
 21
427.95087012
 31
0.0
  0
LINE
  5
2CB
100
AcDbEntity
  8
ZUWAKU
  6
CONTINUOUS
 62
       7
100
AcDbLine
 10
-248.57076541
 20
427.01337012
 30
0.0
 11
-248.21920291
 21
427.95087012
 31
0.0
  0
LINE
  5
2CC
100
AcDbEntity
  8
ZUWAKU
  6
CONTINUOUS
 62
       7
100
AcDbLine
 10
-241.72546646
 20
427.95087012
 30
0.0
 11
-247.75
 21
427.95087012
 31
0.0
  0
LINE
  5
2CD
100
AcDbEntity
  8
ZUWAKU
  6
CONTINUOUS
 62
       7
100
AcDbLine
 10
-248.21920291
 20
427.95087012
 30
0.0
 11
-249.10993105
 21
427.95087012
 31
0.0
  0
LINE
  5
2CE
100
AcDbEntity
  8
ZUWAKU
  6
CONTINUOUS
 62
       7
100
AcDbLine
 10
-249.46149355
 20
427.01337012
 30
0.0
 11
-248.57076541
 21
427.01337012
 31
0.0
  0
LINE
  5
2CF
100
AcDbEntity
  8
ZUWAKU
  6
CONTINUOUS
 62
       7
100
AcDbLine
 10
-249.80305088
 20
427.01337012
 30
0.0
 11
-249.45148838
 21
427.95087012
 31
0.0
  0
LINE
  5
2D0
100
AcDbEntity
  8
ZUWAKU
  6
CONTINUOUS
 62
       7
100
AcDbLine
 10
-249.45148838
 20
427.95087012
 30
0.0
 11
-250.19812705
 21
427.95087012
 31
0.0
  0
LINE
  5
2D1
100
AcDbEntity
  8
ZUWAKU
  6
CONTINUOUS
 62
       7
100
AcDbLine
 10
-250.54968955
 20
427.01337012
 30
0.0
 11
-249.80305088
 21
427.01337012
 31
0.0
  0
LINE
  5
2D2
100
AcDbEntity
  8
ZUWAKU
  6
CONTINUOUS
 62
       7
100
AcDbLine
 10
-250.54968955
 20
427.01337012
 30
0.0
 11
-250.19812705
 21
427.95087012
 31
0.0
  0
LINE
  5
2D3
100
AcDbEntity
  8
ZUWAKU
  6
CONTINUOUS
 62
       7
100
AcDbLine
 10
-250.83558754
 20
427.95087012
 30
0.0
 11
-251.5672369
 21
427.95087012
 31
0.0
  0
LINE
  5
2D4
100
AcDbEntity
  8
ZUWAKU
  6
CONTINUOUS
 62
       7
100
AcDbLine
 10
-251.9187994
 20
427.01337012
 30
0.0
 11
-251.18715004
 21
427.01337012
 31
0.0
  0
LINE
  5
2D5
100
AcDbEntity
  8
ZUWAKU
  6
CONTINUOUS
 62
       7
100
AcDbLine
 10
-251.9187994
 20
427.01337012
 30
0.0
 11
-251.5672369
 21
427.95087012
 31
0.0
  0
LINE
  5
2D6
100
AcDbEntity
  8
ZUWAKU
  6
CONTINUOUS
 62
       7
100
AcDbLine
 10
-249.46149355
 20
427.01337012
 30
0.0
 11
-249.10993105
 21
427.95087012
 31
0.0
  0
LINE
  5
2D7
100
AcDbEntity
  8
ZUWAKU
  6
CONTINUOUS
 62
       7
100
AcDbLine
 10
-251.18715004
 20
427.01337012
 30
0.0
 11
-250.83558754
 21
427.95087012
 31
0.0
  0
LINE
  5
2D8
100
AcDbEntity
  8
ZUWAKU
  6
CONTINUOUS
 62
       7
100
AcDbLine
 10
-252.46679355
 20
427.01337012
 30
0.0
 11
-252.11523105
 21
427.95087012
 31
0.0
  0
LINE
  5
2D9
100
AcDbEntity
  8
ZUWAKU
  6
CONTINUOUS
 62
       7
100
AcDbLine
 10
-252.11523105
 20
427.95087012
 30
0.0
 11
-252.79171194
 21
427.95087012
 31
0.0
  0
LINE
  5
2DA
100
AcDbEntity
  8
ZUWAKU
  6
CONTINUOUS
 62
       7
100
AcDbLine
 10
-253.14327444
 20
427.01337012
 30
0.0
 11
-252.46679355
 21
427.01337012
 31
0.0
  0
LINE
  5
2DB
100
AcDbEntity
  8
ZUWAKU
  6
CONTINUOUS
 62
       7
100
AcDbLine
 10
-253.14327444
 20
427.01337012
 30
0.0
 11
-252.79171194
 21
427.95087012
 31
0.0
  0
LINE
  5
2DC
100
AcDbEntity
  8
ZUWAKU
  6
CONTINUOUS
 62
       7
100
AcDbLine
 10
-253.7159276
 20
427.01337012
 30
0.0
 11
-253.3643651
 21
427.95087012
 31
0.0
  0
LINE
  5
2DD
100
AcDbEntity
  8
ZUWAKU
  6
CONTINUOUS
 62
       7
100
AcDbLine
 10
-253.3643651
 20
427.95087012
 30
0.0
 11
-253.9659276
 21
427.95087012
 31
0.0
  0
LINE
  5
2DE
100
AcDbEntity
  8
ZUWAKU
  6
CONTINUOUS
 62
       7
100
AcDbLine
 10
-254.2784276
 20
427.01337012
 30
0.0
 11
-253.7159276
 21
427.01337012
 31
0.0
  0
LINE
  5
2DF
100
AcDbEntity
  8
ZUWAKU
  6
CONTINUOUS
 62
       7
100
AcDbLine
 10
-254.2784276
 20
427.01337012
 30
0.0
 11
-253.9659276
 21
427.95087012
 31
0.0
  0
LINE
  5
2E0
100
AcDbEntity
  8
ZUWAKU
  6
CONTINUOUS
 62
       7
100
AcDbLine
 10
-254.87744516
 20
427.01337012
 30
0.0
 11
-254.56494516
 21
427.95087012
 31
0.0
  0
LINE
  5
2E1
100
AcDbEntity
  8
ZUWAKU
  6
CONTINUOUS
 62
       7
100
AcDbLine
 10
-255.36416748
 20
427.01337012
 30
0.0
 11
-255.05166748
 21
427.95087012
 31
0.0
  0
LINE
  5
2E2
100
AcDbEntity
  8
ZUWAKU
  6
CONTINUOUS
 62
       7
100
AcDbLine
 10
-256.27041748
 20
427.01337012
 30
0.0
 11
-255.95791748
 21
427.95087012
 31
0.0
  0
LINE
  5
2E3
100
AcDbEntity
  8
ZUWAKU
  6
CONTINUOUS
 62
       7
100
AcDbLine
 10
-256.86416748
 20
427.01337012
 30
0.0
 11
-256.55166748
 21
427.95087012
 31
0.0
  0
LINE
  5
2E4
100
AcDbEntity
  8
ZUWAKU
  6
CONTINUOUS
 62
       7
100
AcDbLine
 10
-257.02041748
 20
427.01337012
 30
0.0
 11
-256.70791748
 21
427.95087012
 31
0.0
  0
LINE
  5
2E5
100
AcDbEntity
  8
ZUWAKU
  6
CONTINUOUS
 62
       7
100
AcDbLine
 10
-254.56494516
 20
427.95087012
 30
0.0
 11
-255.05166748
 21
427.95087012
 31
0.0
  0
LINE
  5
2E6
100
AcDbEntity
  8
ZUWAKU
  6
CONTINUOUS
 62
       7
100
AcDbLine
 10
-255.36416748
 20
427.01337012
 30
0.0
 11
-254.87744516
 21
427.01337012
 31
0.0
  0
LINE
  5
2E7
100
AcDbEntity
  8
ZUWAKU
  6
CONTINUOUS
 62
       7
100
AcDbLine
 10
-255.61416748
 20
427.95087012
 30
0.0
 11
-255.95791748
 21
427.95087012
 31
0.0
  0
LINE
  5
2E8
100
AcDbEntity
  8
ZUWAKU
  6
CONTINUOUS
 62
       7
100
AcDbLine
 10
-256.55166748
 20
427.95087012
 30
0.0
 11
-256.70791748
 21
427.95087012
 31
0.0
  0
LINE
  5
2E9
100
AcDbEntity
  8
ZUWAKU
  6
CONTINUOUS
 62
       7
100
AcDbLine
 10
-256.27041748
 20
427.01337012
 30
0.0
 11
-255.92666748
 21
427.01337012
 31
0.0
  0
LINE
  5
2EA
100
AcDbEntity
  8
ZUWAKU
  6
CONTINUOUS
 62
       7
100
AcDbLine
 10
-256.86416748
 20
427.01337012
 30
0.0
 11
-257.02041748
 21
427.01337012
 31
0.0
  0
ELLIPSE
  5
2EB
100
AcDbEntity
  8
ZUWAKU
  6
CONTINUOUS
 62
       7
100
AcDbEllipse
 10
-231.53125
 20
422.22548309
 30
0.0
 11
-38.34375
 21
0.0
 31
0.0
210
0.0
220
0.0
230
1.0
 40
0.40365317
 41
0.0
 42
6.2831853071796004
  0
LINE
  5
2EC
100
AcDbEntity
  8
ZUWAKU
  6
CONTINUOUS
 62
       7
100
AcDbLine
 10
-262.375
 20
429.63837012
 30
0.0
 11
-262.375
 21
415.01337012
 31
0.0
  0
LINE
  5
2ED
100
AcDbEntity
  8
ZUWAKU
  6
CONTINUOUS
 62
       7
100
AcDbLine
 10
-200.5
 20
429.63837012
 30
0.0
 11
-200.5
 21
415.01337012
 31
0.0
  0
LINE
  5
2EE
100
AcDbEntity
  8
ZUWAKU
  6
CONTINUOUS
 62
       7
100
AcDbLine
 10
-262.375
 20
429.63837012
 30
0.0
 11
-200.5
 21
429.63837012
 31
0.0
  0
LINE
  5
2EF
100
AcDbEntity
  8
ZUWAKU
  6
CONTINUOUS
 62
       7
100
AcDbLine
 10
-262.375
 20
415.01337012
 30
0.0
 11
-200.5
 21
415.01337012
 31
0.0
  0
LINE
  5
2F0
100
AcDbEntity
  8
ZUWAKU
  6
CONTINUOUS
 62
       7
100
AcDbLine
 10
-235.35280535
 20
437.62599625
 30
0.0
 11
-243.34043149
 21
429.63837012
 31
0.0
  0
LINE
  5
2F1
100
AcDbEntity
  8
ZUWAKU
  6
CONTINUOUS
 62
       7
100
AcDbLine
 10
-236.2414949
 20
437.58583484
 30
0.0
 11
-244.18895962
 21
429.63837012
 31
0.0
  0
LINE
  5
2F2
100
AcDbEntity
  8
ZUWAKU
  6
CONTINUOUS
 62
       7
100
AcDbLine
 10
-237.13923101
 20
437.53662687
 30
0.0
 11
-245.03748776
 21
429.63837012
 31
0.0
  0
LINE
  5
2F3
100
AcDbEntity
  8
ZUWAKU
  6
CONTINUOUS
 62
       7
100
AcDbLine
 10
-238.04638754
 20
437.47799847
 30
0.0
 11
-245.8860159
 21
429.63837012
 31
0.0
  0
LINE
  5
2F4
100
AcDbEntity
  8
ZUWAKU
  6
CONTINUOUS
 62
       7
100
AcDbLine
 10
-238.96338201
 20
437.40953215
 30
0.0
 11
-246.73454404
 21
429.63837012
 31
0.0
  0
LINE
  5
2F5
100
AcDbEntity
  8
ZUWAKU
  6
CONTINUOUS
 62
       7
100
AcDbLine
 10
-239.89068229
 20
437.33076
 30
0.0
 11
-247.58307217
 21
429.63837012
 31
0.0
  0
LINE
  5
2F6
100
AcDbEntity
  8
ZUWAKU
  6
CONTINUOUS
 62
       7
100
AcDbLine
 10
-240.82881478
 20
437.24115565
 30
0.0
 11
-248.43160031
 21
429.63837012
 31
0.0
  0
LINE
  5
2F7
100
AcDbEntity
  8
ZUWAKU
  6
CONTINUOUS
 62
       7
100
AcDbLine
 10
-241.77837433
 20
437.14012424
 30
0.0
 11
-249.28012845
 21
429.63837012
 31
0.0
  0
LINE
  5
2F8
100
AcDbEntity
  8
ZUWAKU
  6
CONTINUOUS
 62
       7
100
AcDbLine
 10
-242.74003663
 20
437.02699007
 30
0.0
 11
-250.12865659
 21
429.63837012
 31
0.0
  0
LINE
  5
2F9
100
AcDbEntity
  8
ZUWAKU
  6
CONTINUOUS
 62
       7
100
AcDbLine
 10
-243.71457364
 20
436.9009812
 30
0.0
 11
-250.97718472
 21
429.63837012
 31
0.0
  0
LINE
  5
2FA
100
AcDbEntity
  8
ZUWAKU
  6
CONTINUOUS
 62
       7
100
AcDbLine
 10
-244.70287316
 20
436.76120982
 30
0.0
 11
-251.82571286
 21
429.63837012
 31
0.0
  0
LINE
  5
2FB
100
AcDbEntity
  8
ZUWAKU
  6
CONTINUOUS
 62
       7
100
AcDbLine
 10
-245.70596394
 20
436.60664717
 30
0.0
 11
-252.674241
 21
429.63837012
 31
0.0
  0
LINE
  5
2FC
100
AcDbEntity
  8
ZUWAKU
  6
CONTINUOUS
 62
       7
100
AcDbLine
 10
-246.72504839
 20
436.43609086
 30
0.0
 11
-253.52276914
 21
429.63837012
 31
0.0
  0
LINE
  5
2FD
100
AcDbEntity
  8
ZUWAKU
  6
CONTINUOUS
 62
       7
100
AcDbLine
 10
-247.76154583
 20
436.24812156
 30
0.0
 11
-254.37129727
 21
429.63837012
 31
0.0
  0
LINE
  5
2FE
100
AcDbEntity
  8
ZUWAKU
  6
CONTINUOUS
 62
       7
100
AcDbLine
 10
-248.81715094
 20
436.04104459
 30
0.0
 11
-255.21982541
 21
429.63837012
 31
0.0
  0
LINE
  5
2FF
100
AcDbEntity
  8
ZUWAKU
  6
CONTINUOUS
 62
       7
100
AcDbLine
 10
-262.375
 20
422.48319553
 30
0.0
 11
-262.53232541
 21
422.32587012
 31
0.0
  0
LINE
  5
300
100
AcDbEntity
  8
ZUWAKU
  6
CONTINUOUS
 62
       7
100
AcDbLine
 10
-249.89391434
 20
435.81280933
 30
0.0
 11
-256.06835355
 21
429.63837012
 31
0.0
  0
LINE
  5
301
100
AcDbEntity
  8
ZUWAKU
  6
CONTINUOUS
 62
       7
100
AcDbLine
 10
-262.375
 20
423.33172367
 30
0.0
 11
-263.38085355
 21
422.32587012
 31
0.0
  0
LINE
  5
302
100
AcDbEntity
  8
ZUWAKU
  6
CONTINUOUS
 62
       7
100
AcDbLine
 10
-250.99435663
 20
435.56089518
 30
0.0
 11
-256.91688169
 21
429.63837012
 31
0.0
  0
LINE
  5
303
100
AcDbEntity
  8
ZUWAKU
  6
CONTINUOUS
 62
       7
100
AcDbLine
 10
-262.375
 20
424.1802518
 30
0.0
 11
-264.22938169
 21
422.32587012
 31
0.0
  0
LINE
  5
304
100
AcDbEntity
  8
ZUWAKU
  6
CONTINUOUS
 62
       7
100
AcDbLine
 10
-252.12163459
 20
435.28214535
 30
0.0
 11
-257.76540982
 21
429.63837012
 31
0.0
  0
LINE
  5
305
100
AcDbEntity
  8
ZUWAKU
  6
CONTINUOUS
 62
       7
100
AcDbLine
 10
-262.375
 20
425.02877994
 30
0.0
 11
-265.07790982
 21
422.32587012
 31
0.0
  0
LINE
  5
306
100
AcDbEntity
  8
ZUWAKU
  6
CONTINUOUS
 62
       7
100
AcDbLine
 10
-253.27979226
 20
434.97251582
 30
0.0
 11
-258.61393796
 21
429.63837012
 31
0.0
  0
LINE
  5
307
100
AcDbEntity
  8
ZUWAKU
  6
CONTINUOUS
 62
       7
100
AcDbLine
 10
-262.375
 20
425.87730808
 30
0.0
 11
-265.92643796
 21
422.32587012
 31
0.0
  0
LINE
  5
308
100
AcDbEntity
  8
ZUWAKU
  6
CONTINUOUS
 62
       7
100
AcDbLine
 10
-254.47415675
 20
434.62667946
 30
0.0
 11
-259.4624661
 21
429.63837012
 31
0.0
  0
LINE
  5
309
100
AcDbEntity
  8
ZUWAKU
  6
CONTINUOUS
 62
       7
100
AcDbLine
 10
-262.375
 20
426.72583622
 30
0.0
 11
-266.7749661
 21
422.32587012
 31
0.0
  0
LINE
  5
30A
100
AcDbEntity
  8
ZUWAKU
  6
CONTINUOUS
 62
       7
100
AcDbLine
 10
-255.71199672
 20
434.23736763
 30
0.0
 11
-260.31099424
 21
429.63837012
 31
0.0
  0
LINE
  5
30B
100
AcDbEntity
  8
ZUWAKU
  6
CONTINUOUS
 62
       7
100
AcDbLine
 10
-262.375
 20
427.57436435
 30
0.0
 11
-267.62349424
 21
422.32587012
 31
0.0
  0
LINE
  5
30C
100
AcDbEntity
  8
ZUWAKU
  6
CONTINUOUS
 62
       7
100
AcDbLine
 10
-257.00369446
 20
433.79419803
 30
0.0
 11
-261.15952237
 21
429.63837012
 31
0.0
  0
LINE
  5
30D
100
AcDbEntity
  8
ZUWAKU
  6
CONTINUOUS
 62
       7
100
AcDbLine
 10
-262.375
 20
428.42289249
 30
0.0
 11
-268.47202237
 21
422.32587012
 31
0.0
  0
LINE
  5
30E
100
AcDbEntity
  8
ZUWAKU
  6
CONTINUOUS
 62
       7
100
AcDbLine
 10
-258.36502933
 20
433.2813913
 30
0.0
 11
-262.00805051
 21
429.63837012
 31
0.0
  0
LINE
  5
30F
100
AcDbEntity
  8
ZUWAKU
  6
CONTINUOUS
 62
       7
100
AcDbLine
 10
-262.375
 20
429.27142063
 30
0.0
 11
-269.32055051
 21
422.32587012
 31
0.0
  0
LINE
  5
310
100
AcDbEntity
  8
ZUWAKU
  6
CONTINUOUS
 62
       7
100
AcDbLine
 10
-259.82222262
 20
432.67272614
 30
0.0
 11
-269.86169004
 21
422.63325872
 31
0.0
  0
LINE
  5
311
100
AcDbEntity
  8
ZUWAKU
  6
CONTINUOUS
 62
       7
100
AcDbLine
 10
-261.42543332
 20
431.91804359
 30
0.0
 11
-269.71776554
 21
423.62571136
 31
0.0
  0
LINE
  5
312
100
AcDbEntity
  8
ZUWAKU
  6
CONTINUOUS
 62
       7
100
AcDbLine
 10
-263.29954749
 20
430.89245755
 30
0.0
 11
-269.30293756
 21
424.88906748
 31
0.0
  0
LINE
  5
313
100
AcDbEntity
  8
ZUWAKU
  6
CONTINUOUS
 62
       7
100
AcDbLine
 10
-266.22084527
 20
428.81968791
 30
0.0
 11
-267.84092598
 21
427.1996072
 31
0.0
  0
LINE
  5
314
100
AcDbEntity
  8
ZUWAKU
  6
CONTINUOUS
 62
       7
100
AcDbLine
 10
-234.47282666
 20
437.65744681
 30
0.0
 11
-242.49190335
 21
429.63837012
 31
0.0
  0
LINE
  5
315
100
AcDbEntity
  8
ZUWAKU
  6
CONTINUOUS
 62
       7
100
AcDbLine
 10
-233.6012566
 20
437.68048873
 30
0.0
 11
-241.64337521
 21
429.63837012
 31
0.0
  0
LINE
  5
316
100
AcDbEntity
  8
ZUWAKU
  6
CONTINUOUS
 62
       7
100
AcDbLine
 10
-232.73782257
 20
437.69539462
 30
0.0
 11
-240.79484707
 21
429.63837012
 31
0.0
  0
LINE
  5
317
100
AcDbEntity
  8
ZUWAKU
  6
CONTINUOUS
 62
       7
100
AcDbLine
 10
-231.88227828
 20
437.70241078
 30
0.0
 11
-239.94631894
 21
429.63837012
 31
0.0
  0
LINE
  5
318
100
AcDbEntity
  8
ZUWAKU
  6
CONTINUOUS
 62
       7
100
AcDbLine
 10
-231.03440096
 20
437.70175995
 30
0.0
 11
-239.0977908
 21
429.63837012
 31
0.0
  0
LINE
  5
319
100
AcDbEntity
  8
ZUWAKU
  6
CONTINUOUS
 62
       7
100
AcDbLine
 10
-230.19398901
 20
437.69364377
 30
0.0
 11
-238.24926266
 21
429.63837012
 31
0.0
  0
LINE
  5
31A
100
AcDbEntity
  8
ZUWAKU
  6
CONTINUOUS
 62
       7
100
AcDbLine
 10
-229.36085989
 20
437.67824476
 30
0.0
 11
-237.40073452
 21
429.63837012
 31
0.0
  0
LINE
  5
31B
100
AcDbEntity
  8
ZUWAKU
  6
CONTINUOUS
 62
       7
100
AcDbLine
 10
-228.53484842
 20
437.65572808
 30
0.0
 11
-236.55220639
 21
429.63837012
 31
0.0
  0
LINE
  5
31C
100
AcDbEntity
  8
ZUWAKU
  6
CONTINUOUS
 62
       7
100
AcDbLine
 10
-227.71580525
 20
437.62624311
 30
0.0
 11
-235.70367825
 21
429.63837012
 31
0.0
  0
LINE
  5
31D
100
AcDbEntity
  8
ZUWAKU
  6
CONTINUOUS
 62
       7
100
AcDbLine
 10
-226.90359554
 20
437.58992469
 30
0.0
 11
-234.85515011
 21
429.63837012
 31
0.0
  0
LINE
  5
31E
100
AcDbEntity
  8
ZUWAKU
  6
CONTINUOUS
 62
       7
100
AcDbLine
 10
-226.09809783
 20
437.54689426
 30
0.0
 11
-234.00662197
 21
429.63837012
 31
0.0
  0
LINE
  5
31F
100
AcDbEntity
  8
ZUWAKU
  6
CONTINUOUS
 62
       7
100
AcDbLine
 10
-225.29920306
 20
437.49726089
 30
0.0
 11
-233.15809384
 21
429.63837012
 31
0.0
  0
LINE
  5
320
100
AcDbEntity
  8
ZUWAKU
  6
CONTINUOUS
 62
       7
100
AcDbLine
 10
-224.50681372
 20
437.4411221
 30
0.0
 11
-232.3095657
 21
429.63837012
 31
0.0
  0
LINE
  5
321
100
AcDbEntity
  8
ZUWAKU
  6
CONTINUOUS
 62
       7
100
AcDbLine
 10
-223.7208431
 20
437.37856458
 30
0.0
 11
-231.46103756
 21
429.63837012
 31
0.0
  0
LINE
  5
322
100
AcDbEntity
  8
ZUWAKU
  6
CONTINUOUS
 62
       7
100
AcDbLine
 10
-222.94121468
 20
437.30966486
 30
0.0
 11
-230.61250943
 21
429.63837012
 31
0.0
  0
LINE
  5
323
100
AcDbEntity
  8
ZUWAKU
  6
CONTINUOUS
 62
       7
100
AcDbLine
 10
-222.16786158
 20
437.23448983
 30
0.0
 11
-229.76398129
 21
429.63837012
 31
0.0
  0
LINE
  5
324
100
AcDbEntity
  8
ZUWAKU
  6
CONTINUOUS
 62
       7
100
AcDbLine
 10
-221.40072607
 20
437.1530972
 30
0.0
 11
-228.91545315
 21
429.63837012
 31
0.0
  0
LINE
  5
325
100
AcDbEntity
  8
ZUWAKU
  6
CONTINUOUS
 62
       7
100
AcDbLine
 10
-220.6397592
 20
437.06553593
 30
0.0
 11
-228.06692501
 21
429.63837012
 31
0.0
  0
LINE
  5
326
100
AcDbEntity
  8
ZUWAKU
  6
CONTINUOUS
 62
       7
100
AcDbLine
 10
-219.88492046
 20
436.97184653
 30
0.0
 11
-227.21839688
 21
429.63837012
 31
0.0
  0
LINE
  5
327
100
AcDbEntity
  8
ZUWAKU
  6
CONTINUOUS
 62
       7
100
AcDbLine
 10
-219.13617754
 20
436.87206132
 30
0.0
 11
-226.36986874
 21
429.63837012
 31
0.0
  0
LINE
  5
328
100
AcDbEntity
  8
ZUWAKU
  6
CONTINUOUS
 62
       7
100
AcDbLine
 10
-218.39350608
 20
436.76620464
 30
0.0
 11
-225.5213406
 21
429.63837012
 31
0.0
  0
LINE
  5
329
100
AcDbEntity
  8
ZUWAKU
  6
CONTINUOUS
 62
       7
100
AcDbLine
 10
-217.65688956
 20
436.65429303
 30
0.0
 11
-224.67281246
 21
429.63837012
 31
0.0
  0
LINE
  5
32A
100
AcDbEntity
  8
ZUWAKU
  6
CONTINUOUS
 62
       7
100
AcDbLine
 10
-216.92631913
 20
436.53633531
 30
0.0
 11
-223.82428433
 21
429.63837012
 31
0.0
  0
LINE
  5
32B
100
AcDbEntity
  8
ZUWAKU
  6
CONTINUOUS
 62
       7
100
AcDbLine
 10
-216.20179364
 20
436.41233267
 30
0.0
 11
-222.97575619
 21
429.63837012
 31
0.0
  0
LINE
  5
32C
100
AcDbEntity
  8
ZUWAKU
  6
CONTINUOUS
 62
       7
100
AcDbLine
 10
-215.48331955
 20
436.28227862
 30
0.0
 11
-222.12722805
 21
429.63837012
 31
0.0
  0
LINE
  5
32D
100
AcDbEntity
  8
ZUWAKU
  6
CONTINUOUS
 62
       7
100
AcDbLine
 10
-214.77091102
 20
436.14615901
 30
0.0
 11
-221.27869991
 21
429.63837012
 31
0.0
  0
LINE
  5
32E
100
AcDbEntity
  8
ZUWAKU
  6
CONTINUOUS
 62
       7
100
AcDbLine
 10
-214.06459
 20
436.00395189
 30
0.0
 11
-220.43017178
 21
429.63837012
 31
0.0
  0
LINE
  5
32F
100
AcDbEntity
  8
ZUWAKU
  6
CONTINUOUS
 62
       7
100
AcDbLine
 10
-213.36438634
 20
435.85562741
 30
0.0
 11
-219.58164364
 21
429.63837012
 31
0.0
  0
LINE
  5
330
100
AcDbEntity
  8
ZUWAKU
  6
CONTINUOUS
 62
       7
100
AcDbLine
 10
-212.67033801
 20
435.70114761
 30
0.0
 11
-218.7331155
 21
429.63837012
 31
0.0
  0
LINE
  5
331
100
AcDbEntity
  8
ZUWAKU
  6
CONTINUOUS
 62
       7
100
AcDbLine
 10
-211.98249133
 20
435.54046616
 30
0.0
 11
-217.88458736
 21
429.63837012
 31
0.0
  0
LINE
  5
332
100
AcDbEntity
  8
ZUWAKU
  6
CONTINUOUS
 62
       7
100
AcDbLine
 10
-211.30090129
 20
435.37352806
 30
0.0
 11
-217.03605923
 21
429.63837012
 31
0.0
  0
LINE
  5
333
100
AcDbEntity
  8
ZUWAKU
  6
CONTINUOUS
 62
       7
100
AcDbLine
 10
-210.62563193
 20
435.20026928
 30
0.0
 11
-216.18753109
 21
429.63837012
 31
0.0
  0
LINE
  5
334
100
AcDbEntity
  8
ZUWAKU
  6
CONTINUOUS
 62
       7
100
AcDbLine
 10
-209.95675676
 20
435.02061631
 30
0.0
 11
-215.33900295
 21
429.63837012
 31
0.0
  0
LINE
  5
335
100
AcDbEntity
  8
ZUWAKU
  6
CONTINUOUS
 62
       7
100
AcDbLine
 10
-209.2943593
 20
434.83448564
 30
0.0
 11
-214.49047481
 21
429.63837012
 31
0.0
  0
LINE
  5
336
100
AcDbEntity
  8
ZUWAKU
  6
CONTINUOUS
 62
       7
100
AcDbLine
 10
-208.63853366
 20
434.64178314
 30
0.0
 11
-213.64194668
 21
429.63837012
 31
0.0
  0
LINE
  5
337
100
AcDbEntity
  8
ZUWAKU
  6
CONTINUOUS
 62
       7
100
AcDbLine
 10
-207.98938527
 20
434.44240338
 30
0.0
 11
-212.79341854
 21
429.63837012
 31
0.0
  0
LINE
  5
338
100
AcDbEntity
  8
ZUWAKU
  6
CONTINUOUS
 62
       7
100
AcDbLine
 10
-207.3470317
 20
434.23622882
 30
0.0
 11
-211.9448904
 21
429.63837012
 31
0.0
  0
LINE
  5
339
100
AcDbEntity
  8
ZUWAKU
  6
CONTINUOUS
 62
       7
100
AcDbLine
 10
-206.71160357
 20
434.02312881
 30
0.0
 11
-211.09636226
 21
429.63837012
 31
0.0
  0
LINE
  5
33A
100
AcDbEntity
  8
ZUWAKU
  6
CONTINUOUS
 62
       7
100
AcDbLine
 10
-206.08324564
 20
433.8029586
 30
0.0
 11
-210.24783413
 21
429.63837012
 31
0.0
  0
LINE
  5
33B
100
AcDbEntity
  8
ZUWAKU
  6
CONTINUOUS
 62
       7
100
AcDbLine
 10
-205.46211809
 20
433.57555802
 30
0.0
 11
-209.39930599
 21
429.63837012
 31
0.0
  0
LINE
  5
33C
100
AcDbEntity
  8
ZUWAKU
  6
CONTINUOUS
 62
       7
100
AcDbLine
 10
-204.84839795
 20
433.34075002
 30
0.0
 11
-208.55077785
 21
429.63837012
 31
0.0
  0
LINE
  5
33D
100
AcDbEntity
  8
ZUWAKU
  6
CONTINUOUS
 62
       7
100
AcDbLine
 10
-204.24228077
 20
433.09833906
 30
0.0
 11
-207.70224971
 21
429.63837012
 31
0.0
  0
LINE
  5
33E
100
AcDbEntity
  8
ZUWAKU
  6
CONTINUOUS
 62
       7
100
AcDbLine
 10
-203.64398259
 20
432.8481091
 30
0.0
 11
-206.85372158
 21
429.63837012
 31
0.0
  0
LINE
  5
33F
100
AcDbEntity
  8
ZUWAKU
  6
CONTINUOUS
 62
       7
100
AcDbLine
 10
-203.05374221
 20
432.58982135
 30
0.0
 11
-206.00519344
 21
429.63837012
 31
0.0
  0
LINE
  5
340
100
AcDbEntity
  8
ZUWAKU
  6
CONTINUOUS
 62
       7
100
AcDbLine
 10
-202.47182383
 20
432.32321159
 30
0.0
 11
-205.1566653
 21
429.63837012
 31
0.0
  0
LINE
  5
341
100
AcDbEntity
  8
ZUWAKU
  6
CONTINUOUS
 62
       7
100
AcDbLine
 10
-201.89852019
 20
432.04798709
 30
0.0
 11
-204.30813717
 21
429.63837012
 31
0.0
  0
LINE
  5
342
100
AcDbEntity
  8
ZUWAKU
  6
CONTINUOUS
 62
       7
100
AcDbLine
 10
-201.33415628
 20
431.76382286
 30
0.0
 11
-203.45960903
 21
429.63837012
 31
0.0
  0
LINE
  5
343
100
AcDbEntity
  8
ZUWAKU
  6
CONTINUOUS
 62
       7
100
AcDbLine
 10
-200.77909371
 20
431.4703573
 30
0.0
 11
-202.61108089
 21
429.63837012
 31
0.0
  0
LINE
  5
344
100
AcDbEntity
  8
ZUWAKU
  6
CONTINUOUS
 62
       7
100
AcDbLine
 10
-200.23373593
 20
431.16718694
 30
0.0
 11
-201.76255275
 21
429.63837012
 31
0.0
  0
LINE
  5
345
100
AcDbEntity
  8
ZUWAKU
  6
CONTINUOUS
 62
       7
100
AcDbLine
 10
-199.69853459
 20
430.85386015
 30
0.0
 11
-200.91402462
 21
429.63837012
 31
0.0
  0
LINE
  5
346
100
AcDbEntity
  8
ZUWAKU
  6
CONTINUOUS
 62
       7
100
AcDbLine
 10
-199.17399715
 20
430.52986944
 30
0.0
 11
-200.5
 21
429.2038666
 31
0.0
  0
LINE
  5
347
100
AcDbEntity
  8
ZUWAKU
  6
CONTINUOUS
 62
       7
100
AcDbLine
 10
-198.66069628
 20
430.19464218
 30
0.0
 11
-200.5
 21
428.35533846
 31
0.0
  0
LINE
  5
348
100
AcDbEntity
  8
ZUWAKU
  6
CONTINUOUS
 62
       7
100
AcDbLine
 10
-198.15928137
 20
429.84752895
 30
0.0
 11
-200.5
 21
427.50681032
 31
0.0
  0
LINE
  5
349
100
AcDbEntity
  8
ZUWAKU
  6
CONTINUOUS
 62
       7
100
AcDbLine
 10
-197.67049297
 20
429.48778921
 30
0.0
 11
-200.5
 21
426.65828218
 31
0.0
  0
LINE
  5
34A
100
AcDbEntity
  8
ZUWAKU
  6
CONTINUOUS
 62
       7
100
AcDbLine
 10
-197.19518096
 20
429.11457309
 30
0.0
 11
-200.5
 21
425.80975405
 31
0.0
  0
LINE
  5
34B
100
AcDbEntity
  8
ZUWAKU
  6
CONTINUOUS
 62
       7
100
AcDbLine
 10
-196.73432777
 20
428.72689814
 30
0.0
 11
-200.5
 21
424.96122591
 31
0.0
  0
LINE
  5
34C
100
AcDbEntity
  8
ZUWAKU
  6
CONTINUOUS
 62
       7
100
AcDbLine
 10
-196.28907846
 20
428.32361931
 30
0.0
 11
-200.5
 21
424.11269777
 31
0.0
  0
LINE
  5
34D
100
AcDbEntity
  8
ZUWAKU
  6
CONTINUOUS
 62
       7
100
AcDbLine
 10
-195.86078041
 20
427.90338923
 30
0.0
 11
-200.5
 21
423.26416963
 31
0.0
  0
LINE
  5
34E
100
AcDbEntity
  8
ZUWAKU
  6
CONTINUOUS
 62
       7
100
AcDbLine
 10
-195.45103642
 20
427.46460507
 30
0.0
 11
-200.5
 21
422.4156415
 31
0.0
  0
LINE
  5
34F
100
AcDbEntity
  8
ZUWAKU
  6
CONTINUOUS
 62
       7
100
AcDbLine
 10
-195.06177762
 20
427.00533574
 30
0.0
 11
-199.74124324
 21
422.32587012
 31
0.0
  0
LINE
  5
350
100
AcDbEntity
  8
ZUWAKU
  6
CONTINUOUS
 62
       7
100
AcDbLine
 10
-194.69536559
 20
426.52321963
 30
0.0
 11
-198.8927151
 21
422.32587012
 31
0.0
  0
LINE
  5
351
100
AcDbEntity
  8
ZUWAKU
  6
CONTINUOUS
 62
       7
100
AcDbLine
 10
-194.35474
 20
426.01531709
 30
0.0
 11
-198.04418697
 21
422.32587012
 31
0.0
  0
LINE
  5
352
100
AcDbEntity
  8
ZUWAKU
  6
CONTINUOUS
 62
       7
100
AcDbLine
 10
-194.04363883
 20
425.47789012
 30
0.0
 11
-197.19565883
 21
422.32587012
 31
0.0
  0
LINE
  5
353
100
AcDbEntity
  8
ZUWAKU
  6
CONTINUOUS
 62
       7
100
AcDbLine
 10
-193.76694088
 20
424.90605993
 30
0.0
 11
-196.34713069
 21
422.32587012
 31
0.0
  0
LINE
  5
354
100
AcDbEntity
  8
ZUWAKU
  6
CONTINUOUS
 62
       7
100
AcDbLine
 10
-193.53122541
 20
424.29324726
 30
0.0
 11
-195.49860255
 21
422.32587012
 31
0.0
  0
LINE
  5
355
100
AcDbEntity
  8
ZUWAKU
  6
CONTINUOUS
 62
       7
100
AcDbLine
 10
-193.34574593
 20
423.63019861
 30
0.0
 11
-194.65007442
 21
422.32587012
 31
0.0
  0
LINE
  5
356
100
AcDbEntity
  8
ZUWAKU
  6
CONTINUOUS
 62
       7
100
AcDbLine
 10
-193.2242701
 20
422.9031463
 30
0.0
 11
-193.80154628
 21
422.32587012
 31
0.0
  0
LINE
  5
357
100
AcDbEntity
  8
ZUWAKU
  6
CONTINUOUS
 62
       7
100
AcDbLine
 10
-219.62168237
 20
415.01337012
 30
0.0
 11
-227.81425157
 21
406.82080092
 31
0.0
  0
LINE
  5
358
100
AcDbEntity
  8
ZUWAKU
  6
CONTINUOUS
 62
       7
100
AcDbLine
 10
-220.47021051
 20
415.01337012
 30
0.0
 11
-228.6932203
 21
406.79036032
 31
0.0
  0
LINE
  5
359
100
AcDbEntity
  8
ZUWAKU
  6
CONTINUOUS
 62
       7
100
AcDbLine
 10
-221.31873865
 20
415.01337012
 30
0.0
 11
-229.56381412
 21
406.76829464
 31
0.0
  0
LINE
  5
35A
100
AcDbEntity
  8
ZUWAKU
  6
CONTINUOUS
 62
       7
100
AcDbLine
 10
-222.16726678
 20
415.01337012
 30
0.0
 11
-230.42630237
 21
406.75433453
 31
0.0
  0
LINE
  5
35B
100
AcDbEntity
  8
ZUWAKU
  6
CONTINUOUS
 62
       7
100
AcDbLine
 10
-223.01579492
 20
415.01337012
 30
0.0
 11
-231.28092841
 21
406.74823663
 31
0.0
  0
LINE
  5
35C
100
AcDbEntity
  8
ZUWAKU
  6
CONTINUOUS
 62
       7
100
AcDbLine
 10
-223.86432306
 20
415.01337012
 30
0.0
 11
-232.12791238
 21
406.7497808
 31
0.0
  0
LINE
  5
35D
100
AcDbEntity
  8
ZUWAKU
  6
CONTINUOUS
 62
       7
100
AcDbLine
 10
-224.71285119
 20
415.01337012
 30
0.0
 11
-232.96745355
 21
406.75876776
 31
0.0
  0
LINE
  5
35E
100
AcDbEntity
  8
ZUWAKU
  6
CONTINUOUS
 62
       7
100
AcDbLine
 10
-225.56137933
 20
415.01337012
 30
0.0
 11
-233.7997323
 21
406.77501715
 31
0.0
  0
LINE
  5
35F
100
AcDbEntity
  8
ZUWAKU
  6
CONTINUOUS
 62
       7
100
AcDbLine
 10
-226.40990747
 20
415.01337012
 30
0.0
 11
-234.62491186
 21
406.79836573
 31
0.0
  0
LINE
  5
360
100
AcDbEntity
  8
ZUWAKU
  6
CONTINUOUS
 62
       7
100
AcDbLine
 10
-227.25843561
 20
415.01337012
 30
0.0
 11
-235.44313981
 21
406.82866592
 31
0.0
  0
LINE
  5
361
100
AcDbEntity
  8
ZUWAKU
  6
CONTINUOUS
 62
       7
100
AcDbLine
 10
-228.10696374
 20
415.01337012
 30
0.0
 11
-236.25454935
 21
406.86578451
 31
0.0
  0
LINE
  5
362
100
AcDbEntity
  8
ZUWAKU
  6
CONTINUOUS
 62
       7
100
AcDbLine
 10
-228.95549188
 20
415.01337012
 30
0.0
 11
-237.05926042
 21
406.90960158
 31
0.0
  0
LINE
  5
363
100
AcDbEntity
  8
ZUWAKU
  6
CONTINUOUS
 62
       7
100
AcDbLine
 10
-229.80402002
 20
415.01337012
 30
0.0
 11
-237.85738068
 21
406.96000946
 31
0.0
  0
LINE
  5
364
100
AcDbEntity
  8
ZUWAKU
  6
CONTINUOUS
 62
       7
100
AcDbLine
 10
-230.65254816
 20
415.01337012
 30
0.0
 11
-238.64900632
 21
407.01691196
 31
0.0
  0
LINE
  5
365
100
AcDbEntity
  8
ZUWAKU
  6
CONTINUOUS
 62
       7
100
AcDbLine
 10
-231.50107629
 20
415.01337012
 30
0.0
 11
-239.4342228
 21
407.08022361
 31
0.0
  0
LINE
  5
366
100
AcDbEntity
  8
ZUWAKU
  6
CONTINUOUS
 62
       7
100
AcDbLine
 10
-232.34960443
 20
415.01337012
 30
0.0
 11
-240.21310549
 21
407.14986906
 31
0.0
  0
LINE
  5
367
100
AcDbEntity
  8
ZUWAKU
  6
CONTINUOUS
 62
       7
100
AcDbLine
 10
-233.19813257
 20
415.01337012
 30
0.0
 11
-240.98572016
 21
407.22578253
 31
0.0
  0
LINE
  5
368
100
AcDbEntity
  8
ZUWAKU
  6
CONTINUOUS
 62
       7
100
AcDbLine
 10
-234.04666071
 20
415.01337012
 30
0.0
 11
-241.75212348
 21
407.30790734
 31
0.0
  0
LINE
  5
369
100
AcDbEntity
  8
ZUWAKU
  6
CONTINUOUS
 62
       7
100
AcDbLine
 10
-234.89518884
 20
415.01337012
 30
0.0
 11
-242.5123634
 21
407.39619557
 31
0.0
  0
LINE
  5
36A
100
AcDbEntity
  8
ZUWAKU
  6
CONTINUOUS
 62
       7
100
AcDbLine
 10
-235.74371698
 20
415.01337012
 30
0.0
 11
-243.26647942
 21
407.49060768
 31
0.0
  0
LINE
  5
36B
100
AcDbEntity
  8
ZUWAKU
  6
CONTINUOUS
 62
       7
100
AcDbLine
 10
-236.59224512
 20
415.01337012
 30
0.0
 11
-244.01450292
 21
407.59111232
 31
0.0
  0
LINE
  5
36C
100
AcDbEntity
  8
ZUWAKU
  6
CONTINUOUS
 62
       7
100
AcDbLine
 10
-237.44077326
 20
415.01337012
 30
0.0
 11
-244.75645731
 21
407.69768606
 31
0.0
  0
LINE
  5
36D
100
AcDbEntity
  8
ZUWAKU
  6
CONTINUOUS
 62
       7
100
AcDbLine
 10
-238.28930139
 20
415.01337012
 30
0.0
 11
-245.49235823
 21
407.81031329
 31
0.0
  0
LINE
  5
36E
100
AcDbEntity
  8
ZUWAKU
  6
CONTINUOUS
 62
       7
100
AcDbLine
 10
-239.13782953
 20
415.01337012
 30
0.0
 11
-246.22221357
 21
407.92898608
 31
0.0
  0
LINE
  5
36F
100
AcDbEntity
  8
ZUWAKU
  6
CONTINUOUS
 62
       7
100
AcDbLine
 10
-239.98635767
 20
415.01337012
 30
0.0
 11
-246.94602362
 21
408.05370417
 31
0.0
  0
LINE
  5
370
100
AcDbEntity
  8
ZUWAKU
  6
CONTINUOUS
 62
       7
100
AcDbLine
 10
-240.83488581
 20
415.01337012
 30
0.0
 11
-247.66378099
 21
408.18447493
 31
0.0
  0
LINE
  5
371
100
AcDbEntity
  8
ZUWAKU
  6
CONTINUOUS
 62
       7
100
AcDbLine
 10
-241.68341394
 20
415.01337012
 30
0.0
 11
-248.37547061
 21
408.32131345
 31
0.0
  0
LINE
  5
372
100
AcDbEntity
  8
ZUWAKU
  6
CONTINUOUS
 62
       7
100
AcDbLine
 10
-242.53194208
 20
415.01337012
 30
0.0
 11
-249.08106961
 21
408.46424259
 31
0.0
  0
LINE
  5
373
100
AcDbEntity
  8
ZUWAKU
  6
CONTINUOUS
 62
       7
100
AcDbLine
 10
-243.38047022
 20
415.01337012
 30
0.0
 11
-249.78054718
 21
408.61329315
 31
0.0
  0
LINE
  5
374
100
AcDbEntity
  8
ZUWAKU
  6
CONTINUOUS
 62
       7
100
AcDbLine
 10
-244.22899836
 20
415.01337012
 30
0.0
 11
-250.47386439
 21
408.76850408
 31
0.0
  0
LINE
  5
375
100
AcDbEntity
  8
ZUWAKU
  6
CONTINUOUS
 62
       7
100
AcDbLine
 10
-245.07752649
 20
415.01337012
 30
0.0
 11
-251.1609739
 21
408.92992271
 31
0.0
  0
LINE
  5
376
100
AcDbEntity
  8
ZUWAKU
  6
CONTINUOUS
 62
       7
100
AcDbLine
 10
-245.92605463
 20
415.01337012
 30
0.0
 11
-251.84181967
 21
409.09760508
 31
0.0
  0
LINE
  5
377
100
AcDbEntity
  8
ZUWAKU
  6
CONTINUOUS
 62
       7
100
AcDbLine
 10
-246.77458277
 20
415.01337012
 30
0.0
 11
-252.51633657
 21
409.27161632
 31
0.0
  0
LINE
  5
378
100
AcDbEntity
  8
ZUWAKU
  6
CONTINUOUS
 62
       7
100
AcDbLine
 10
-247.62311091
 20
415.01337012
 30
0.0
 11
-253.18444993
 21
409.4520311
 31
0.0
  0
LINE
  5
379
100
AcDbEntity
  8
ZUWAKU
  6
CONTINUOUS
 62
       7
100
AcDbLine
 10
-248.47163904
 20
415.01337012
 30
0.0
 11
-253.84607501
 21
409.63893415
 31
0.0
  0
LINE
  5
37A
100
AcDbEntity
  8
ZUWAKU
  6
CONTINUOUS
 62
       7
100
AcDbLine
 10
-249.32016718
 20
415.01337012
 30
0.0
 11
-254.5011164
 21
409.83242089
 31
0.0
  0
LINE
  5
37B
100
AcDbEntity
  8
ZUWAKU
  6
CONTINUOUS
 62
       7
100
AcDbLine
 10
-250.16869532
 20
415.01337012
 30
0.0
 11
-255.14946728
 21
410.03259816
 31
0.0
  0
LINE
  5
37C
100
AcDbEntity
  8
ZUWAKU
  6
CONTINUOUS
 62
       7
100
AcDbLine
 10
-251.01722346
 20
415.01337012
 30
0.0
 11
-255.79100859
 21
410.23958498
 31
0.0
  0
LINE
  5
37D
100
AcDbEntity
  8
ZUWAKU
  6
CONTINUOUS
 62
       7
100
AcDbLine
 10
-251.86575159
 20
415.01337012
 30
0.0
 11
-256.4256081
 21
410.45351361
 31
0.0
  0
LINE
  5
37E
100
AcDbEntity
  8
ZUWAKU
  6
CONTINUOUS
 62
       7
100
AcDbLine
 10
-252.71427973
 20
415.01337012
 30
0.0
 11
-257.05311928
 21
410.67453057
 31
0.0
  0
LINE
  5
37F
100
AcDbEntity
  8
ZUWAKU
  6
CONTINUOUS
 62
       7
100
AcDbLine
 10
-253.56280787
 20
415.01337012
 30
0.0
 11
-257.67338005
 21
410.90279794
 31
0.0
  0
LINE
  5
380
100
AcDbEntity
  8
ZUWAKU
  6
CONTINUOUS
 62
       7
100
AcDbLine
 10
-254.411336
 20
415.01337012
 30
0.0
 11
-258.28621128
 21
411.13849485
 31
0.0
  0
LINE
  5
381
100
AcDbEntity
  8
ZUWAKU
  6
CONTINUOUS
 62
       7
100
AcDbLine
 10
-255.25986414
 20
415.01337012
 30
0.0
 11
-258.89141509
 21
411.38181917
 31
0.0
  0
LINE
  5
382
100
AcDbEntity
  8
ZUWAKU
  6
CONTINUOUS
 62
       7
100
AcDbLine
 10
-256.10839228
 20
415.01337012
 30
0.0
 11
-259.48877289
 21
411.63298951
 31
0.0
  0
LINE
  5
383
100
AcDbEntity
  8
ZUWAKU
  6
CONTINUOUS
 62
       7
100
AcDbLine
 10
-256.95692042
 20
415.01337012
 30
0.0
 11
-260.07804301
 21
411.89224752
 31
0.0
  0
LINE
  5
384
100
AcDbEntity
  8
ZUWAKU
  6
CONTINUOUS
 62
       7
100
AcDbLine
 10
-257.80544855
 20
415.01337012
 30
0.0
 11
-260.65895806
 21
412.15986061
 31
0.0
  0
LINE
  5
385
100
AcDbEntity
  8
ZUWAKU
  6
CONTINUOUS
 62
       7
100
AcDbLine
 10
-258.65397669
 20
415.01337012
 30
0.0
 11
-261.23122167
 21
412.43612514
 31
0.0
  0
LINE
  5
386
100
AcDbEntity
  8
ZUWAKU
  6
CONTINUOUS
 62
       7
100
AcDbLine
 10
-259.50250483
 20
415.01337012
 30
0.0
 11
-261.79450478
 21
412.72137017
 31
0.0
  0
LINE
  5
387
100
AcDbEntity
  8
ZUWAKU
  6
CONTINUOUS
 62
       7
100
AcDbLine
 10
-260.35103297
 20
415.01337012
 30
0.0
 11
-262.34844111
 21
413.01596198
 31
0.0
  0
LINE
  5
388
100
AcDbEntity
  8
ZUWAKU
  6
CONTINUOUS
 62
       7
100
AcDbLine
 10
-261.1995611
 20
415.01337012
 30
0.0
 11
-262.89262186
 21
413.32030936
 31
0.0
  0
LINE
  5
389
100
AcDbEntity
  8
ZUWAKU
  6
CONTINUOUS
 62
       7
100
AcDbLine
 10
-262.04808924
 20
415.01337012
 30
0.0
 11
-263.42658922
 21
413.63487014
 31
0.0
  0
LINE
  5
38A
100
AcDbEntity
  8
ZUWAKU
  6
CONTINUOUS
 62
       7
100
AcDbLine
 10
-262.375
 20
415.5349875
 30
0.0
 11
-263.94982852
 21
413.96015898
 31
0.0
  0
LINE
  5
38B
100
AcDbEntity
  8
ZUWAKU
  6
CONTINUOUS
 62
       7
100
AcDbLine
 10
-262.375
 20
416.38351564
 30
0.0
 11
-264.46175868
 21
414.29675695
 31
0.0
  0
LINE
  5
38C
100
AcDbEntity
  8
ZUWAKU
  6
CONTINUOUS
 62
       7
100
AcDbLine
 10
-262.375
 20
417.23204377
 30
0.0
 11
-264.96172034
 21
414.64532344
 31
0.0
  0
LINE
  5
38D
100
AcDbEntity
  8
ZUWAKU
  6
CONTINUOUS
 62
       7
100
AcDbLine
 10
-262.375
 20
418.08057191
 30
0.0
 11
-265.44896104
 21
415.00661087
 31
0.0
  0
LINE
  5
38E
100
AcDbEntity
  8
ZUWAKU
  6
CONTINUOUS
 62
       7
100
AcDbLine
 10
-262.375
 20
418.92910005
 30
0.0
 11
-265.92261654
 21
415.3814835
 31
0.0
  0
LINE
  5
38F
100
AcDbEntity
  8
ZUWAKU
  6
CONTINUOUS
 62
       7
100
AcDbLine
 10
-262.375
 20
419.77762818
 30
0.0
 11
-266.38168692
 21
415.77094127
 31
0.0
  0
LINE
  5
390
100
AcDbEntity
  8
ZUWAKU
  6
CONTINUOUS
 62
       7
100
AcDbLine
 10
-262.375
 20
420.62615632
 30
0.0
 11
-266.82500544
 21
416.17615088
 31
0.0
  0
LINE
  5
391
100
AcDbEntity
  8
ZUWAKU
  6
CONTINUOUS
 62
       7
100
AcDbLine
 10
-262.375
 20
421.47468446
 30
0.0
 11
-267.25119761
 21
416.59848685
 31
0.0
  0
LINE
  5
392
100
AcDbEntity
  8
ZUWAKU
  6
CONTINUOUS
 62
       7
100
AcDbLine
 10
-262.37234248
 20
422.32587012
 30
0.0
 11
-267.65862605
 21
417.03958655
 31
0.0
  0
LINE
  5
393
100
AcDbEntity
  8
ZUWAKU
  6
CONTINUOUS
 62
       7
100
AcDbLine
 10
-263.22087062
 20
422.32587012
 30
0.0
 11
-268.04531473
 21
417.501426
 31
0.0
  0
LINE
  5
394
100
AcDbEntity
  8
ZUWAKU
  6
CONTINUOUS
 62
       7
100
AcDbLine
 10
-264.06939875
 20
422.32587012
 30
0.0
 11
-268.40884248
 21
417.98642639
 31
0.0
  0
LINE
  5
395
100
AcDbEntity
  8
ZUWAKU
  6
CONTINUOUS
 62
       7
100
AcDbLine
 10
-264.91792689
 20
422.32587012
 30
0.0
 11
-268.74618848
 21
418.49760853
 31
0.0
  0
LINE
  5
396
100
AcDbEntity
  8
ZUWAKU
  6
CONTINUOUS
 62
       7
100
AcDbLine
 10
-265.76645503
 20
422.32587012
 30
0.0
 11
-269.05350075
 21
419.0388244
 31
0.0
  0
LINE
  5
397
100
AcDbEntity
  8
ZUWAKU
  6
CONTINUOUS
 62
       7
100
AcDbLine
 10
-266.61498317
 20
422.32587012
 30
0.0
 11
-269.32573416
 21
419.61511913
 31
0.0
  0
LINE
  5
398
100
AcDbEntity
  8
ZUWAKU
  6
CONTINUOUS
 62
       7
100
AcDbLine
 10
-267.4635113
 20
422.32587012
 30
0.0
 11
-269.55605507
 21
420.23332635
 31
0.0
  0
LINE
  5
399
100
AcDbEntity
  8
ZUWAKU
  6
CONTINUOUS
 62
       7
100
AcDbLine
 10
-268.31203944
 20
422.32587012
 30
0.0
 11
-269.73479635
 21
420.90311321
 31
0.0
  0
LINE
  5
39A
100
AcDbEntity
  8
ZUWAKU
  6
CONTINUOUS
 62
       7
100
AcDbLine
 10
-269.16056758
 20
422.32587012
 30
0.0
 11
-269.8474603
 21
421.63897739
 31
0.0
  0
LINE
  5
39B
100
AcDbEntity
  8
ZUWAKU
  6
CONTINUOUS
 62
       7
100
AcDbLine
 10
-218.77315423
 20
415.01337012
 30
0.0
 11
-226.92660941
 21
406.85991494
 31
0.0
  0
LINE
  5
39C
100
AcDbEntity
  8
ZUWAKU
  6
CONTINUOUS
 62
       7
100
AcDbLine
 10
-217.9246261
 20
415.01337012
 30
0.0
 11
-226.02996229
 21
406.90803392
 31
0.0
  0
LINE
  5
39D
100
AcDbEntity
  8
ZUWAKU
  6
CONTINUOUS
 62
       7
100
AcDbLine
 10
-217.07609796
 20
415.01337012
 30
0.0
 11
-225.12394115
 21
406.96552693
 31
0.0
  0
LINE
  5
39E
100
AcDbEntity
  8
ZUWAKU
  6
CONTINUOUS
 62
       7
100
AcDbLine
 10
-216.22756982
 20
415.01337012
 30
0.0
 11
-224.20813395
 21
407.03280599
 31
0.0
  0
LINE
  5
39F
100
AcDbEntity
  8
ZUWAKU
  6
CONTINUOUS
 62
       7
100
AcDbLine
 10
-215.37904168
 20
415.01337012
 30
0.0
 11
-223.28207916
 21
407.11033264
 31
0.0
  0
LINE
  5
3A0
100
AcDbEntity
  8
ZUWAKU
  6
CONTINUOUS
 62
       7
100
AcDbLine
 10
-214.53051355
 20
415.01337012
 30
0.0
 11
-222.34525781
 21
407.19862586
 31
0.0
  0
LINE
  5
3A1
100
AcDbEntity
  8
ZUWAKU
  6
CONTINUOUS
 62
       7
100
AcDbLine
 10
-213.68198541
 20
415.01337012
 30
0.0
 11
-221.39708371
 21
407.29827182
 31
0.0
  0
LINE
  5
3A2
100
AcDbEntity
  8
ZUWAKU
  6
CONTINUOUS
 62
       7
100
AcDbLine
 10
-212.83345727
 20
415.01337012
 30
0.0
 11
-220.43689149
 21
407.4099359
 31
0.0
  0
LINE
  5
3A3
100
AcDbEntity
  8
ZUWAKU
  6
CONTINUOUS
 62
       7
100
AcDbLine
 10
-211.98492913
 20
415.01337012
 30
0.0
 11
-219.46392152
 21
407.53437774
 31
0.0
  0
LINE
  5
3A4
100
AcDbEntity
  8
ZUWAKU
  6
CONTINUOUS
 62
       7
100
AcDbLine
 10
-211.136401
 20
415.01337012
 30
0.0
 11
-218.47730087
 21
407.67247025
 31
0.0
  0
LINE
  5
3A5
100
AcDbEntity
  8
ZUWAKU
  6
CONTINUOUS
 62
       7
100
AcDbLine
 10
-210.28787286
 20
415.01337012
 30
0.0
 11
-217.476019
 21
407.82522398
 31
0.0
  0
LINE
  5
3A6
100
AcDbEntity
  8
ZUWAKU
  6
CONTINUOUS
 62
       7
100
AcDbLine
 10
-209.43934472
 20
415.01337012
 30
0.0
 11
-216.45889608
 21
407.99381876
 31
0.0
  0
LINE
  5
3A7
100
AcDbEntity
  8
ZUWAKU
  6
CONTINUOUS
 62
       7
100
AcDbLine
 10
-208.59081658
 20
415.01337012
 30
0.0
 11
-215.42454114
 21
408.17964556
 31
0.0
  0
LINE
  5
3A8
100
AcDbEntity
  8
ZUWAKU
  6
CONTINUOUS
 62
       7
100
AcDbLine
 10
-200.42978845
 20
422.32587012
 30
0.0
 11
-200.5
 21
422.25565857
 31
0.0
  0
LINE
  5
3A9
100
AcDbEntity
  8
ZUWAKU
  6
CONTINUOUS
 62
       7
100
AcDbLine
 10
-207.74228845
 20
415.01337012
 30
0.0
 11
-214.37129578
 21
408.38436279
 31
0.0
  0
LINE
  5
3AA
100
AcDbEntity
  8
ZUWAKU
  6
CONTINUOUS
 62
       7
100
AcDbLine
 10
-199.58126031
 20
422.32587012
 30
0.0
 11
-200.5
 21
421.40713043
 31
0.0
  0
LINE
  5
3AB
100
AcDbEntity
  8
ZUWAKU
  6
CONTINUOUS
 62
       7
100
AcDbLine
 10
-206.89376031
 20
415.01337012
 30
0.0
 11
-213.29715663
 21
408.6099738
 31
0.0
  0
LINE
  5
3AC
100
AcDbEntity
  8
ZUWAKU
  6
CONTINUOUS
 62
       7
100
AcDbLine
 10
-198.73273217
 20
422.32587012
 30
0.0
 11
-200.5
 21
420.55860229
 31
0.0
  0
LINE
  5
3AD
100
AcDbEntity
  8
ZUWAKU
  6
CONTINUOUS
 62
       7
100
AcDbLine
 10
-206.04523217
 20
415.01337012
 30
0.0
 11
-212.19966614
 21
408.85893615
 31
0.0
  0
LINE
  5
3AE
100
AcDbEntity
  8
ZUWAKU
  6
CONTINUOUS
 62
       7
100
AcDbLine
 10
-197.88420403
 20
422.32587012
 30
0.0
 11
-200.5
 21
419.71007415
 31
0.0
  0
LINE
  5
3AF
100
AcDbEntity
  8
ZUWAKU
  6
CONTINUOUS
 62
       7
100
AcDbLine
 10
-205.19670403
 20
415.01337012
 30
0.0
 11
-211.07575382
 21
409.13432034
 31
0.0
  0
LINE
  5
3B0
100
AcDbEntity
  8
ZUWAKU
  6
CONTINUOUS
 62
       7
100
AcDbLine
 10
-197.0356759
 20
422.32587012
 30
0.0
 11
-200.5
 21
418.86154602
 31
0.0
  0
LINE
  5
3B1
100
AcDbEntity
  8
ZUWAKU
  6
CONTINUOUS
 62
       7
100
AcDbLine
 10
-204.3481759
 20
415.01337012
 30
0.0
 11
-209.92149768
 21
409.44004834
 31
0.0
  0
LINE
  5
3B2
100
AcDbEntity
  8
ZUWAKU
  6
CONTINUOUS
 62
       7
100
AcDbLine
 10
-196.18714776
 20
422.32587012
 30
0.0
 11
-200.5
 21
418.01301788
 31
0.0
  0
LINE
  5
3B3
100
AcDbEntity
  8
ZUWAKU
  6
CONTINUOUS
 62
       7
100
AcDbLine
 10
-203.49964776
 20
415.01337012
 30
0.0
 11
-208.73175006
 21
409.78126782
 31
0.0
  0
LINE
  5
3B4
100
AcDbEntity
  8
ZUWAKU
  6
CONTINUOUS
 62
       7
100
AcDbLine
 10
-195.33861962
 20
422.32587012
 30
0.0
 11
-200.5
 21
417.16448974
 31
0.0
  0
LINE
  5
3B5
100
AcDbEntity
  8
ZUWAKU
  6
CONTINUOUS
 62
       7
100
AcDbLine
 10
-202.65111962
 20
415.01337012
 30
0.0
 11
-207.4995197
 21
410.16497004
 31
0.0
  0
LINE
  5
3B6
100
AcDbEntity
  8
ZUWAKU
  6
CONTINUOUS
 62
       7
100
AcDbLine
 10
-194.49009148
 20
422.32587012
 30
0.0
 11
-200.5
 21
416.3159616
 31
0.0
  0
LINE
  5
3B7
100
AcDbEntity
  8
ZUWAKU
  6
CONTINUOUS
 62
       7
100
AcDbLine
 10
-201.80259148
 20
415.01337012
 30
0.0
 11
-206.21488144
 21
410.60108017
 31
0.0
  0
LINE
  5
3B8
100
AcDbEntity
  8
ZUWAKU
  6
CONTINUOUS
 62
       7
100
AcDbLine
 10
-193.64156335
 20
422.32587012
 30
0.0
 11
-200.5
 21
415.46743347
 31
0.0
  0
LINE
  5
3B9
100
AcDbEntity
  8
ZUWAKU
  6
CONTINUOUS
 62
       7
100
AcDbLine
 10
-200.95406335
 20
415.01337012
 30
0.0
 11
-204.86287801
 21
411.10455545
 31
0.0
  0
LINE
  5
3BA
100
AcDbEntity
  8
ZUWAKU
  6
CONTINUOUS
 62
       7
100
AcDbLine
 10
-193.19476827
 20
421.92413706
 30
0.0
 11
-203.41896472
 21
411.69994061
 31
0.0
  0
LINE
  5
3BB
100
AcDbEntity
  8
ZUWAKU
  6
CONTINUOUS
 62
       7
100
AcDbLine
 10
-193.3172891
 20
420.95308809
 30
0.0
 11
-201.83715769
 21
412.4332195
 31
0.0
  0
LINE
  5
3BC
100
AcDbEntity
  8
ZUWAKU
  6
CONTINUOUS
 62
       7
100
AcDbLine
 10
-193.68735171
 20
419.73449735
 30
0.0
 11
-200.00780889
 21
413.41404016
 31
0.0
  0
LINE
  5
3BD
100
AcDbEntity
  8
ZUWAKU
  6
CONTINUOUS
 62
       7
100
AcDbLine
 10
-194.83202816
 20
417.74129276
 30
0.0
 11
-197.40384625
 21
415.16947467
 31
0.0
  0
ARC
  5
3BE
100
AcDbEntity
  8
ZUWAKU
  6
CONTINUOUS
 62
       7
100
AcDbCircle
 10
-241.72546646
 20
425.51337012
 30
0.0
 40
1.5
100
AcDbArc
 50
270.0
 51
450.0
  0
LINE
  5
3BF
100
AcDbEntity
  8
ZUWAKU
  6
CONTINUOUS
 62
       7
100
AcDbLine
 10
-250.960375
 20
419.51487012
 30
0.0
 11
-248.804125
 21
419.51487012
 31
0.0
  0
LINE
  5
3C0
100
AcDbEntity
  8
ZUWAKU
  6
CONTINUOUS
 62
       7
100
AcDbLine
 10
-251.3125
 20
418.57587012
 30
0.0
 11
-248.15339756
 21
418.57587012
 31
0.0
  0
LINE
  5
3C1
100
AcDbEntity
  8
ZUWAKU
  6
CONTINUOUS
 62
       7
100
AcDbLine
 10
-248.15339756
 20
418.57587012
 30
0.0
 11
-246.46646006
 21
423.07437012
 31
0.0
  0
LINE
  5
3C2
100
AcDbEntity
  8
ZUWAKU
  6
CONTINUOUS
 62
       7
100
AcDbLine
 10
-246.11433506
 20
424.01337012
 30
0.0
 11
-244.98933506
 21
427.01337012
 31
0.0
  0
LINE
  5
3C3
100
AcDbEntity
  8
ZUWAKU
  6
CONTINUOUS
 62
       7
100
AcDbLine
 10
-246.46646006
 20
423.07437012
 30
0.0
 11
-245.79263043
 21
423.07437012
 31
0.0
  0
LINE
  5
3C4
100
AcDbEntity
  8
ZUWAKU
  6
CONTINUOUS
 62
       7
100
AcDbLine
 10
-244.71401789
 20
423.07437012
 30
0.0
 11
-241.72546646
 21
423.07437012
 31
0.0
  0
LINE
  5
3C5
100
AcDbEntity
  8
ZUWAKU
  6
CONTINUOUS
 62
       7
100
AcDbLine
 10
-242.70212658
 20
419.51487012
 30
0.0
 11
-244.71401789
 21
423.07437012
 31
0.0
  0
ARC
  5
3C6
100
AcDbEntity
  8
ZUWAKU
  6
CONTINUOUS
 62
       7
100
AcDbCircle
 10
-241.72546646
 20
425.51337012
 30
0.0
 40
2.4375
100
AcDbArc
 50
270.0
 51
450.0
  0
ELLIPSE
  5
3C7
100
AcDbEntity
  8
ZUWAKU
  6
CONTINUOUS
 62
       7
100
AcDbEllipse
 10
-238.61984669
 20
420.68954985
 30
0.0
 11
-0.2469559898248122
 21
-0.4527526480119377
 31
0.0
210
0.0
220
0.0
230
1.0
 40
0.75209874
 41
0.0
 42
6.2831853071796004
  0
LINE
  5
3C8
100
AcDbEntity
  8
ZUWAKU
  6
CONTINUOUS
 62
       7
100
AcDbLine
 10
-243.25
 20
418.57587012
 30
0.0
 11
-239.875
 21
418.57587012
 31
0.0
  0
ELLIPSE
  5
3C9
100
AcDbEntity
  8
ZUWAKU
  6
CONTINUOUS
 62
       7
100
AcDbEllipse
 10
-238.61984669
 20
420.68954985
 30
0.0
 11
-0.7889967726031273
 21
-1.4464940831052218
 31
0.0
210
0.0
220
0.0
230
1.0
 40
0.75209874
 41
1.1633802511780513
 42
5.8601607076995661
  0
LINE
  5
3CA
100
AcDbEntity
  8
ZUWAKU
  6
CONTINUOUS
 62
       7
100
AcDbLine
 10
-242.70212658
 20
419.51487012
 30
0.0
 11
-239.9313221
 21
419.51487012
 31
0.0
  0
ARC
  5
3CB
100
AcDbEntity
  8
ZUWAKU
  6
CONTINUOUS
 62
       7
100
AcDbCircle
 10
-240.21063822
 20
421.62077271
 30
0.0
 40
2.12434536
100
AcDbArc
 50
277.55531967
 51
282.61004677
  0
ARC
  5
3CC
100
AcDbEntity
  8
ZUWAKU
  6
CONTINUOUS
 62
       7
100
AcDbCircle
 10
-240.21063822
 20
421.62077271
 30
0.0
 40
3.06334536
100
AcDbArc
 50
276.29029269
 51
293.79815684
  0
ARC
  5
3CD
100
AcDbEntity
  8
ZUWAKU
  6
CONTINUOUS
 62
       7
100
AcDbCircle
 10
-240.21063822
 20
421.62077271
 30
0.0
 40
3.06334536
100
AcDbArc
 50
316.57125834
 51
318.01426788
  0
ARC
  5
3CE
100
AcDbEntity
  8
ZUWAKU
  6
CONTINUOUS
 62
       7
100
AcDbCircle
 10
-238.01039409
 20
420.61183208
 30
0.0
 40
2.03660652
100
AcDbArc
 50
209.3318227
 51
211.50126528
  0
ARC
  5
3CF
100
AcDbEntity
  8
ZUWAKU
  6
CONTINUOUS
 62
       7
100
AcDbCircle
 10
-238.01039409
 20
420.61183208
 30
0.0
 40
2.03660652
100
AcDbArc
 50
241.74457829
 51
270.0
  0
ELLIPSE
  5
3D0
100
AcDbEntity
  8
ZUWAKU
  6
CONTINUOUS
 62
       7
100
AcDbEllipse
 10
-233.82485678
 20
421.95040382
 30
0.0
 11
-0.4111291384866433
 21
-0.8479538481288955
 31
0.0
210
0.0
220
0.0
230
1.0
 40
0.44219156
 41
0.0
 42
6.2831853071796004
  0
ARC
  5
3D1
100
AcDbEntity
  8
ZUWAKU
  6
CONTINUOUS
 62
       7
100
AcDbCircle
 10
-232.96016712
 20
422.19852531
 30
0.0
 40
3.64232051
100
AcDbArc
 50
241.28311564
 51
264.0434522
  0
LINE
  5
3D2
100
AcDbEntity
  8
ZUWAKU
  6
CONTINUOUS
 62
       7
100
AcDbLine
 10
-238.01039409
 20
418.57587012
 30
0.0
 11
-235.89735329
 21
418.57587012
 31
0.0
  0
ARC
  5
3D3
100
AcDbEntity
  8
ZUWAKU
  6
CONTINUOUS
 62
       7
100
AcDbCircle
 10
-232.96016712
 20
422.19852531
 30
0.0
 40
2.70332051
100
AcDbArc
 50
251.08708107
 51
263.08482824
  0
ARC
  5
3D4
100
AcDbEntity
  8
ZUWAKU
  6
CONTINUOUS
 62
       7
100
AcDbCircle
 10
-236.69439623
 20
422.64414454
 30
0.0
 40
3.20661627
100
AcDbArc
 50
282.60950936
 51
291.93126974
  0
ELLIPSE
  5
3D5
100
AcDbEntity
  8
ZUWAKU
  6
CONTINUOUS
 62
       7
100
AcDbEllipse
 10
-233.82485678
 20
421.95040382
 30
0.0
 11
-1.3135116245580321
 21
-2.7091177256514811
 31
0.0
210
0.0
220
0.0
230
1.0
 40
0.44219156
 41
1.1621663820477923
 42
5.8906096214263028
  0
LINE
  5
3D6
100
AcDbEntity
  8
ZUWAKU
  6
CONTINUOUS
 62
       7
100
AcDbLine
 10
-237.98594519
 20
419.51487012
 30
0.0
 11
-235.99437519
 21
419.51487012
 31
0.0
  0
ARC
  5
3D7
100
AcDbEntity
  8
ZUWAKU
  6
CONTINUOUS
 62
       7
100
AcDbCircle
 10
-236.69439623
 20
422.64414454
 30
0.0
 40
4.14561627
100
AcDbArc
 50
313.58286141
 51
326.24939265
  0
ARC
  5
3D8
100
AcDbEntity
  8
ZUWAKU
  6
CONTINUOUS
 62
       7
100
AcDbCircle
 10
-236.69439623
 20
422.64414454
 30
0.0
 40
4.14561627
100
AcDbArc
 50
281.08479974
 51
298.5950739
  0
LINE
  5
3D9
100
AcDbEntity
  8
ZUWAKU
  6
CONTINUOUS
 62
       7
100
AcDbLine
 10
-233.33814603
 20
418.57587012
 30
0.0
 11
-231.8125
 21
418.57587012
 31
0.0
  0
LINE
  5
3DA
100
AcDbEntity
  8
ZUWAKU
  6
CONTINUOUS
 62
       7
100
AcDbLine
 10
-232.03089307
 20
419.68542358
 30
0.0
 11
-229.47945258
 21
422.23686407
 31
0.0
  0
LINE
  5
3DB
100
AcDbEntity
  8
ZUWAKU
  6
CONTINUOUS
 62
       7
100
AcDbLine
 10
-229.39154766
 20
419.51487012
 30
0.0
 11
-228.97900442
 21
421.99012959
 31
0.0
  0
LINE
  5
3DC
100
AcDbEntity
  8
ZUWAKU
  6
CONTINUOUS
 62
       7
100
AcDbLine
 10
-233.28564613
 20
419.51487012
 30
0.0
 11
-232.372
 21
419.51487012
 31
0.0
  0
ARC
  5
3DD
100
AcDbEntity
  8
ZUWAKU
  6
CONTINUOUS
 62
       7
100
AcDbCircle
 10
-229.26639474
 20
422.03802798
 30
0.0
 40
0.29142656
100
AcDbArc
 50
350.53767779
 51
496.97750576
  0
ELLIPSE
  5
3DE
100
AcDbEntity
  8
ZUWAKU
  6
CONTINUOUS
 62
       7
100
AcDbEllipse
 10
-225.28794948
 20
420.33981411
 30
0.0
 11
-0.2735448899301787
 21
-0.460707183040256
 31
0.0
210
0.0
220
0.0
230
1.0
 40
0.58819821
 41
0.0
 42
6.2831853071796004
  0
LINE
  5
3DF
100
AcDbEntity
  8
ZUWAKU
  6
CONTINUOUS
 62
       7
100
AcDbLine
 10
-228.40139776
 20
419.51487012
 30
0.0
 11
-226.83857798
 21
420.26551584
 31
0.0
  0
LINE
  5
3E0
100
AcDbEntity
  8
ZUWAKU
  6
CONTINUOUS
 62
       7
100
AcDbLine
 10
-228.25
 20
418.57587012
 30
0.0
 11
-226.94155176
 21
419.15565982
 31
0.0
  0
LINE
  5
3E1
100
AcDbEntity
  8
ZUWAKU
  6
CONTINUOUS
 62
       7
100
AcDbLine
 10
-229.39154766
 20
419.51487012
 30
0.0
 11
-228.40139776
 21
419.51487012
 31
0.0
  0
LINE
  5
3E2
100
AcDbEntity
  8
ZUWAKU
  6
CONTINUOUS
 62
       7
100
AcDbLine
 10
-225.04187763
 20
418.99892524
 30
0.0
 11
-224.60423441
 21
418.57587012
 31
0.0
  0
LINE
  5
3E3
100
AcDbEntity
  8
ZUWAKU
  6
CONTINUOUS
 62
       7
100
AcDbLine
 10
-223.5625
 20
419.51487012
 30
0.0
 11
-222.24336327
 21
419.51487012
 31
0.0
  0
LINE
  5
3E4
100
AcDbEntity
  8
ZUWAKU
  6
CONTINUOUS
 62
       7
100
AcDbLine
 10
-219.24507756
 20
422.13837012
 30
0.0
 11
-222.24336327
 21
419.51487012
 31
0.0
  0
ELLIPSE
  5
3E5
100
AcDbEntity
  8
ZUWAKU
  6
CONTINUOUS
 62
       7
100
AcDbEllipse
 10
-225.48361689
 20
420.228862
 30
0.0
 11
-1.1915556281608701
 21
-1.4762483691800412
 31
0.0
210
0.0
220
0.0
230
1.0
 40
0.63020876
 41
2.7713952963881363
 42
5.1608192210644264
  0
ELLIPSE
  5
3E6
100
AcDbEntity
  8
ZUWAKU
  6
CONTINUOUS
 62
       7
100
AcDbEllipse
 10
-225.48361689
 20
420.228862
 30
0.0
 11
-1.1915556281608701
 21
-1.4762483691800412
 31
0.0
210
0.0
220
0.0
230
1.0
 40
0.63020876
 41
5.8878630804447223
 42
7.4876029260781598
  0
LINE
  5
3E7
100
AcDbEntity
  8
ZUWAKU
  6
CONTINUOUS
 62
       7
100
AcDbLine
 10
-223.80936937
 20
421.95715764
 30
0.0
 11
-222.81021363
 21
421.95715764
 31
0.0
  0
LINE
  5
3E8
100
AcDbEntity
  8
ZUWAKU
  6
CONTINUOUS
 62
       7
100
AcDbLine
 10
-224.03618389
 20
421.33341773
 30
0.0
 11
-223.80936937
 21
421.95715764
 31
0.0
  0
LINE
  5
3E9
100
AcDbEntity
  8
ZUWAKU
  6
CONTINUOUS
 62
       7
100
AcDbLine
 10
-223.5625
 20
419.88837012
 30
0.0
 11
-222.81021363
 21
421.95715764
 31
0.0
  0
LINE
  5
3EA
100
AcDbEntity
  8
ZUWAKU
  6
CONTINUOUS
 62
       7
100
AcDbLine
 10
-221.01055585
 20
418.60540886
 30
0.0
 11
-220.53540257
 21
419.91208037
 31
0.0
  0
LINE
  5
3EB
100
AcDbEntity
  8
ZUWAKU
  6
CONTINUOUS
 62
       7
100
AcDbLine
 10
-219.11984233
 20
420.82587012
 30
0.0
 11
-219.93802415
 21
418.57587012
 31
0.0
  0
LINE
  5
3EC
100
AcDbEntity
  8
ZUWAKU
  6
CONTINUOUS
 62
       7
100
AcDbLine
 10
-218.6875
 20
418.57587012
 30
0.0
 11
-217.86931818
 21
420.82587012
 31
0.0
  0
LINE
  5
3ED
100
AcDbEntity
  8
ZUWAKU
  6
CONTINUOUS
 62
       7
100
AcDbLine
 10
-216.50137093
 20
421.54085006
 30
0.0
 11
-217.23809091
 21
419.51487012
 31
0.0
  0
LINE
  5
3EE
100
AcDbEntity
  8
ZUWAKU
  6
CONTINUOUS
 62
       7
100
AcDbLine
 10
-216.81312053
 20
422.13837012
 30
0.0
 11
-216.50137093
 21
421.54085006
 31
0.0
  0
LINE
  5
3EF
100
AcDbEntity
  8
ZUWAKU
  6
CONTINUOUS
 62
       7
100
AcDbLine
 10
-218.87020395
 20
421.58066617
 30
0.0
 11
-218.68575106
 21
422.13837012
 31
0.0
  0
LINE
  5
3F0
100
AcDbEntity
  8
ZUWAKU
  6
CONTINUOUS
 62
       7
100
AcDbLine
 10
-218.87020395
 20
421.58066617
 30
0.0
 11
-217.87135819
 21
422.13837012
 31
0.0
  0
LINE
  5
3F1
100
AcDbEntity
  8
ZUWAKU
  6
CONTINUOUS
 62
       7
100
AcDbLine
 10
-216.81312053
 20
422.13837012
 30
0.0
 11
-217.87135819
 21
422.13837012
 31
0.0
  0
LINE
  5
3F2
100
AcDbEntity
  8
ZUWAKU
  6
CONTINUOUS
 62
       7
100
AcDbLine
 10
-218.68575106
 20
422.13837012
 30
0.0
 11
-219.24507756
 21
422.13837012
 31
0.0
  0
ELLIPSE
  5
3F3
100
AcDbEntity
  8
ZUWAKU
  6
CONTINUOUS
 62
       7
100
AcDbEllipse
 10
-208.44510269
 20
420.68954985
 30
0.0
 11
-0.2469559898247837
 21
-0.4527526480119377
 31
0.0
210
0.0
220
0.0
230
1.0
 40
0.75209874
 41
0.0
 42
6.2831853071796004
  0
ELLIPSE
  5
3F4
100
AcDbEntity
  8
ZUWAKU
  6
CONTINUOUS
 62
       7
100
AcDbEllipse
 10
-208.44510269
 20
420.68954985
 30
0.0
 11
-0.7889967726031273
 21
-1.4464940831052218
 31
0.0
210
0.0
220
0.0
230
1.0
 40
0.75209874
 41
1.1633802511780513
 42
5.8601607076995661
  0
ARC
  5
3F5
100
AcDbEntity
  8
ZUWAKU
  6
CONTINUOUS
 62
       7
100
AcDbCircle
 10
-210.03589421
 20
421.62077271
 30
0.0
 40
2.12434536
100
AcDbArc
 50
277.55531967
 51
282.61004677
  0
ARC
  5
3F6
100
AcDbEntity
  8
ZUWAKU
  6
CONTINUOUS
 62
       7
100
AcDbCircle
 10
-210.03589421
 20
421.62077271
 30
0.0
 40
3.06334536
100
AcDbArc
 50
276.29029269
 51
293.79815684
  0
ARC
  5
3F7
100
AcDbEntity
  8
ZUWAKU
  6
CONTINUOUS
 62
       7
100
AcDbCircle
 10
-210.03589421
 20
421.62077271
 30
0.0
 40
3.06334536
100
AcDbArc
 50
316.57125834
 51
318.01426788
  0
ARC
  5
3F8
100
AcDbEntity
  8
ZUWAKU
  6
CONTINUOUS
 62
       7
100
AcDbCircle
 10
-207.83565008
 20
420.61183208
 30
0.0
 40
2.03660652
100
AcDbArc
 50
209.3318227
 51
211.50126528
  0
ARC
  5
3F9
100
AcDbEntity
  8
ZUWAKU
  6
CONTINUOUS
 62
       7
100
AcDbCircle
 10
-207.83565008
 20
420.61183208
 30
0.0
 40
2.03660652
100
AcDbArc
 50
241.74457829
 51
270.0
  0
LINE
  5
3FA
100
AcDbEntity
  8
ZUWAKU
  6
CONTINUOUS
 62
       7
100
AcDbLine
 10
-213.01810583
 20
419.51487012
 30
0.0
 11
-209.7565781
 21
419.51487012
 31
0.0
  0
LINE
  5
3FB
100
AcDbEntity
  8
ZUWAKU
  6
CONTINUOUS
 62
       7
100
AcDbLine
 10
-207.83565008
 20
418.57587012
 30
0.0
 11
-206.03002725
 21
418.57587012
 31
0.0
  0
LINE
  5
3FC
100
AcDbEntity
  8
ZUWAKU
  6
CONTINUOUS
 62
       7
100
AcDbLine
 10
-207.81120118
 20
419.51487012
 30
0.0
 11
-205.81963118
 21
419.51487012
 31
0.0
  0
LINE
  5
3FD
100
AcDbEntity
  8
ZUWAKU
  6
CONTINUOUS
 62
       7
100
AcDbLine
 10
-230.5
 20
418.57587012
 30
0.0
 11
-228.25
 21
418.57587012
 31
0.0
  0
LINE
  5
3FE
100
AcDbEntity
  8
ZUWAKU
  6
CONTINUOUS
 62
       7
100
AcDbLine
 10
-221.01055585
 20
418.60540886
 30
0.0
 11
-219.93802415
 21
418.57587012
 31
0.0
  0
LINE
  5
3FF
100
AcDbEntity
  8
ZUWAKU
  6
CONTINUOUS
 62
       7
100
AcDbLine
 10
-217.23809091
 20
419.51487012
 30
0.0
 11
-215.50423216
 21
419.51487012
 31
0.0
  0
LINE
  5
400
100
AcDbEntity
  8
ZUWAKU
  6
CONTINUOUS
 62
       7
100
AcDbLine
 10
-212.30448845
 20
420.86665426
 30
0.0
 11
-211.60403749
 21
421.43285212
 31
0.0
  0
ARC
  5
401
100
AcDbEntity
  8
ZUWAKU
  6
CONTINUOUS
 62
       7
100
AcDbCircle
 10
-213.01810583
 20
420.38487012
 30
0.0
 40
0.87
100
AcDbArc
 50
34.07537472
 51
270.0
  0
ARC
  5
402
100
AcDbEntity
  8
ZUWAKU
  6
CONTINUOUS
 62
       7
100
AcDbCircle
 10
-213.01810583
 20
420.38487012
 30
0.0
 40
1.7600726
100
AcDbArc
 50
36.54256145
 51
190.98612084
  0
LINE
  5
403
100
AcDbEntity
  8
ZUWAKU
  6
CONTINUOUS
 62
       7
100
AcDbLine
 10
-215.26743836
 20
418.57587012
 30
0.0
 11
-214.37591188
 21
419.23189904
 31
0.0
  0
LINE
  5
404
100
AcDbEntity
  8
ZUWAKU
  6
CONTINUOUS
 62
       7
100
AcDbLine
 10
-214.75710256
 20
420.06464473
 30
0.0
 11
-215.50423216
 21
419.51487012
 31
0.0
  0
LINE
  5
405
100
AcDbEntity
  8
ZUWAKU
  6
CONTINUOUS
 62
       7
100
AcDbLine
 10
-214.37591188
 20
419.23189904
 30
0.0
 11
-213.625
 21
418.57587012
 31
0.0
  0
LINE
  5
406
100
AcDbEntity
  8
ZUWAKU
  6
CONTINUOUS
 62
       7
100
AcDbLine
 10
-205.81963118
 20
419.51487012
 30
0.0
 11
-206.03002725
 21
418.57587012
 31
0.0
  0
LINE
  5
407
100
AcDbEntity
  8
ZUWAKU
  6
CONTINUOUS
 62
       7
100
AcDbLine
 10
-255.68447998
 20
427.73993262
 30
0.0
 11
-256.20010498
 21
427.22430762
 31
0.0
  0
LINE
  5
408
100
AcDbEntity
  8
ZUWAKU
  6
CONTINUOUS
 62
       7
100
AcDbLine
 10
-254.59951458
 20
427.84716186
 30
0.0
 11
-255.32959805
 21
427.11707838
 31
0.0
  0
LINE
  5
409
100
AcDbEntity
  8
ZUWAKU
  6
CONTINUOUS
 62
       7
100
AcDbLine
 10
-253.37139635
 20
427.93212012
 30
0.0
 11
-254.27256823
 21
427.03094824
 31
0.0
  0
LINE
  5
40A
100
AcDbEntity
  8
ZUWAKU
  6
CONTINUOUS
 62
       7
100
AcDbLine
 10
-252.16050275
 20
427.95087012
 30
0.0
 11
-253.09800275
 21
427.01337012
 31
0.0
  0
LINE
  5
40B
100
AcDbEntity
  8
ZUWAKU
  6
CONTINUOUS
 62
       7
100
AcDbLine
 10
-250.90844347
 20
427.95087012
 30
0.0
 11
-251.84594347
 21
427.01337012
 31
0.0
  0
LINE
  5
40C
100
AcDbEntity
  8
ZUWAKU
  6
CONTINUOUS
 62
       7
100
AcDbLine
 10
-249.53183897
 20
427.95087012
 30
0.0
 11
-250.46933897
 21
427.01337012
 31
0.0
  0
LINE
  5
40D
100
AcDbEntity
  8
ZUWAKU
  6
CONTINUOUS
 62
       7
100
AcDbLine
 10
-248.37159823
 20
427.95087012
 30
0.0
 11
-249.30909823
 21
427.01337012
 31
0.0
  0
LINE
  5
40E
100
AcDbEntity
  8
ZUWAKU
  6
CONTINUOUS
 62
       7
100
AcDbLine
 10
-248.04724319
 20
418.85894844
 30
0.0
 11
-248.33032151
 21
418.57587012
 31
0.0
  0
LINE
  5
40F
100
AcDbEntity
  8
ZUWAKU
  6
CONTINUOUS
 62
       7
100
AcDbLine
 10
-247.53812631
 20
420.21659346
 30
0.0
 11
-249.17884965
 21
418.57587012
 31
0.0
  0
LINE
  5
410
100
AcDbEntity
  8
ZUWAKU
  6
CONTINUOUS
 62
       7
100
AcDbLine
 10
-247.02900943
 20
421.57423848
 30
0.0
 11
-248.63357333
 21
419.96967457
 31
0.0
  0
LINE
  5
411
100
AcDbEntity
  8
ZUWAKU
  6
CONTINUOUS
 62
       7
100
AcDbLine
 10
-249.08837779
 20
419.51487012
 30
0.0
 11
-250.02737779
 21
418.57587012
 31
0.0
  0
LINE
  5
412
100
AcDbEntity
  8
ZUWAKU
  6
CONTINUOUS
 62
       7
100
AcDbLine
 10
-246.51989254
 20
422.9318835
 30
0.0
 11
-248.12445645
 21
421.32731959
 31
0.0
  0
LINE
  5
413
100
AcDbEntity
  8
ZUWAKU
  6
CONTINUOUS
 62
       7
100
AcDbLine
 10
-249.93690592
 20
419.51487012
 30
0.0
 11
-250.87590592
 21
418.57587012
 31
0.0
  0
LINE
  5
414
100
AcDbEntity
  8
ZUWAKU
  6
CONTINUOUS
 62
       7
100
AcDbLine
 10
-250.78543406
 20
419.51487012
 30
0.0
 11
-251.06533956
 21
419.23496461
 31
0.0
  0
LINE
  5
415
100
AcDbEntity
  8
ZUWAKU
  6
CONTINUOUS
 62
       7
100
AcDbLine
 10
-244.89501847
 20
427.95087012
 30
0.0
 11
-246.08798892
 21
426.75789967
 31
0.0
  0
LINE
  5
416
100
AcDbEntity
  8
ZUWAKU
  6
CONTINUOUS
 62
       7
100
AcDbLine
 10
-245.74354661
 20
427.95087012
 30
0.0
 11
-246.68104661
 21
427.01337012
 31
0.0
  0
LINE
  5
417
100
AcDbEntity
  8
ZUWAKU
  6
CONTINUOUS
 62
       7
100
AcDbLine
 10
-246.59207475
 20
427.95087012
 30
0.0
 11
-247.52957475
 21
427.01337012
 31
0.0
  0
LINE
  5
418
100
AcDbEntity
  8
ZUWAKU
  6
CONTINUOUS
 62
       7
100
AcDbLine
 10
-247.44060288
 20
427.95087012
 30
0.0
 11
-247.93563827
 21
427.45583473
 31
0.0
  0
LINE
  5
419
100
AcDbEntity
  8
ZUWAKU
  6
CONTINUOUS
 62
       7
100
AcDbLine
 10
-238.83730871
 20
422.12918596
 30
0.0
 11
-239.73487872
 21
421.23161595
 31
0.0
  0
LINE
  5
41A
100
AcDbEntity
  8
ZUWAKU
  6
CONTINUOUS
 62
       7
100
AcDbLine
 10
-237.93369667
 20
422.18426986
 30
0.0
 11
-239.9561783
 21
420.16178823
 31
0.0
  0
LINE
  5
41B
100
AcDbEntity
  8
ZUWAKU
  6
CONTINUOUS
 62
       7
100
AcDbLine
 10
-237.27805653
 20
421.14285372
 30
0.0
 11
-239.84111379
 21
418.57979647
 31
0.0
  0
LINE
  5
41C
100
AcDbEntity
  8
ZUWAKU
  6
CONTINUOUS
 62
       7
100
AcDbLine
 10
-243.1979622
 20
427.95087012
 30
0.0
 11
-244.1354622
 21
427.01337012
 31
0.0
  0
LINE
  5
41D
100
AcDbEntity
  8
ZUWAKU
  6
CONTINUOUS
 62
       7
100
AcDbLine
 10
-245.50165878
 20
425.64717354
 30
0.0
 11
-247.10622268
 21
424.04260963
 31
0.0
  0
LINE
  5
41E
100
AcDbEntity
  8
ZUWAKU
  6
CONTINUOUS
 62
       7
100
AcDbLine
 10
-242.34943406
 20
427.95087012
 30
0.0
 11
-243.28693406
 21
427.01337012
 31
0.0
  0
LINE
  5
41F
100
AcDbEntity
  8
ZUWAKU
  6
CONTINUOUS
 62
       7
100
AcDbLine
 10
-246.01077566
 20
424.28952852
 30
0.0
 11
-247.61533956
 21
422.68496461
 31
0.0
  0
LINE
  5
420
100
AcDbEntity
  8
ZUWAKU
  6
CONTINUOUS
 62
       7
100
AcDbLine
 10
-241.51041137
 20
427.94136467
 30
0.0
 11
-242.43840592
 21
427.01337012
 31
0.0
  0
LINE
  5
421
100
AcDbEntity
  8
ZUWAKU
  6
CONTINUOUS
 62
       7
100
AcDbLine
 10
-245.43840592
 20
424.01337012
 30
0.0
 11
-246.37740592
 21
423.07437012
 31
0.0
  0
LINE
  5
422
100
AcDbEntity
  8
ZUWAKU
  6
CONTINUOUS
 62
       7
100
AcDbLine
 10
-240.82485863
 20
427.77838928
 30
0.0
 11
-241.59551731
 21
427.00773059
 31
0.0
  0
LINE
  5
423
100
AcDbEntity
  8
ZUWAKU
  6
CONTINUOUS
 62
       7
100
AcDbLine
 10
-244.58987779
 20
424.01337012
 30
0.0
 11
-245.69738642
 21
422.90586148
 31
0.0
  0
LINE
  5
424
100
AcDbEntity
  8
ZUWAKU
  6
CONTINUOUS
 62
       7
100
AcDbLine
 10
-240.27924572
 20
427.47547405
 30
0.0
 11
-240.95459022
 21
426.80012955
 31
0.0
  0
LINE
  5
425
100
AcDbEntity
  8
ZUWAKU
  6
CONTINUOUS
 62
       7
100
AcDbLine
 10
-239.84361492
 20
427.0625767
 30
0.0
 11
-240.51160552
 21
426.39458611
 31
0.0
  0
LINE
  5
426
100
AcDbEntity
  8
ZUWAKU
  6
CONTINUOUS
 62
       7
100
AcDbLine
 10
-239.51564841
 20
426.54201508
 30
0.0
 11
-240.25385351
 21
425.80380998
 31
0.0
  0
LINE
  5
427
100
AcDbEntity
  8
ZUWAKU
  6
CONTINUOUS
 62
       7
100
AcDbLine
 10
-239.31749656
 20
425.8916388
 30
0.0
 11
-240.40226826
 21
424.80686709
 31
0.0
  0
LINE
  5
428
100
AcDbEntity
  8
ZUWAKU
  6
CONTINUOUS
 62
       7
100
AcDbLine
 10
-244.04649033
 20
427.95087012
 30
0.0
 11
-244.98399033
 21
427.01337012
 31
0.0
  0
LINE
  5
429
100
AcDbEntity
  8
ZUWAKU
  6
CONTINUOUS
 62
       7
100
AcDbLine
 10
-244.9925419
 20
427.00481856
 30
0.0
 11
-246.5971058
 21
425.40025465
 31
0.0
  0
LINE
  5
42A
100
AcDbEntity
  8
ZUWAKU
  6
CONTINUOUS
 62
       7
100
AcDbLine
 10
-242.89282151
 20
424.01337012
 30
0.0
 11
-243.83182151
 21
423.07437012
 31
0.0
  0
LINE
  5
42B
100
AcDbEntity
  8
ZUWAKU
  6
CONTINUOUS
 62
       7
100
AcDbLine
 10
-244.39544697
 20
422.51074465
 30
0.0
 11
-245.08456055
 21
421.82163108
 31
0.0
  0
LINE
  5
42C
100
AcDbEntity
  8
ZUWAKU
  6
CONTINUOUS
 62
       7
100
AcDbLine
 10
-243.74134965
 20
424.01337012
 30
0.0
 11
-244.68034965
 21
423.07437012
 31
0.0
  0
LINE
  5
42D
100
AcDbEntity
  8
ZUWAKU
  6
CONTINUOUS
 62
       7
100
AcDbLine
 10
-244.70185991
 20
423.05285985
 30
0.0
 11
-245.39097348
 21
422.36374628
 31
0.0
  0
LINE
  5
42E
100
AcDbEntity
  8
ZUWAKU
  6
CONTINUOUS
 62
       7
100
AcDbLine
 10
-242.04429337
 20
424.01337012
 30
0.0
 11
-242.98329337
 21
423.07437012
 31
0.0
  0
LINE
  5
42F
100
AcDbEntity
  8
ZUWAKU
  6
CONTINUOUS
 62
       7
100
AcDbLine
 10
-244.08903404
 20
421.96862946
 30
0.0
 11
-244.77814761
 21
421.27951588
 31
0.0
  0
LINE
  5
430
100
AcDbEntity
  8
ZUWAKU
  6
CONTINUOUS
 62
       7
100
AcDbLine
 10
-241.01896343
 20
424.19017192
 30
0.0
 11
-242.13476524
 21
423.07437012
 31
0.0
  0
LINE
  5
431
100
AcDbEntity
  8
ZUWAKU
  6
CONTINUOUS
 62
       7
100
AcDbLine
 10
-243.7826211
 20
421.42651426
 30
0.0
 11
-244.47173467
 21
420.73740069
 31
0.0
  0
LINE
  5
432
100
AcDbEntity
  8
ZUWAKU
  6
CONTINUOUS
 62
       7
100
AcDbLine
 10
-239.33785188
 20
425.02275534
 30
0.0
 11
-241.23485168
 21
423.12575554
 31
0.0
  0
LINE
  5
433
100
AcDbEntity
  8
ZUWAKU
  6
CONTINUOUS
 62
       7
100
AcDbLine
 10
-243.47620816
 20
420.88439906
 30
0.0
 11
-244.16532173
 21
420.19528549
 31
0.0
  0
LINE
  5
434
100
AcDbEntity
  8
ZUWAKU
  6
CONTINUOUS
 62
       7
100
AcDbLine
 10
-243.16979522
 20
420.34228386
 30
0.0
 11
-243.85890879
 21
419.65317029
 31
0.0
  0
LINE
  5
435
100
AcDbEntity
  8
ZUWAKU
  6
CONTINUOUS
 62
       7
100
AcDbLine
 10
-242.86338228
 20
419.80016866
 30
0.0
 11
-243.55249585
 21
419.11105509
 31
0.0
  0
LINE
  5
436
100
AcDbEntity
  8
ZUWAKU
  6
CONTINUOUS
 62
       7
100
AcDbLine
 10
-242.30015269
 20
419.51487012
 30
0.0
 11
-243.23915269
 21
418.57587012
 31
0.0
  0
LINE
  5
437
100
AcDbEntity
  8
ZUWAKU
  6
CONTINUOUS
 62
       7
100
AcDbLine
 10
-241.45162455
 20
419.51487012
 30
0.0
 11
-242.39062455
 21
418.57587012
 31
0.0
  0
LINE
  5
438
100
AcDbEntity
  8
ZUWAKU
  6
CONTINUOUS
 62
       7
100
AcDbLine
 10
-240.60309641
 20
419.51487012
 30
0.0
 11
-241.54209641
 21
418.57587012
 31
0.0
  0
LINE
  5
439
100
AcDbEntity
  8
ZUWAKU
  6
CONTINUOUS
 62
       7
100
AcDbLine
 10
-237.47303061
 20
421.79640778
 30
0.0
 11
-238.25065583
 21
421.01878256
 31
0.0
  0
LINE
  5
43A
100
AcDbEntity
  8
ZUWAKU
  6
CONTINUOUS
 62
       7
100
AcDbLine
 10
-238.95690669
 20
420.3125317
 30
0.0
 11
-240.69356827
 21
418.57587012
 31
0.0
  0
LINE
  5
43B
100
AcDbEntity
  8
ZUWAKU
  6
CONTINUOUS
 62
       7
100
AcDbLine
 10
-232.85377665
 20
424.71860547
 30
0.0
 11
-235.00528384
 21
422.56709827
 31
0.0
  0
LINE
  5
43C
100
AcDbEntity
  8
ZUWAKU
  6
CONTINUOUS
 62
       7
100
AcDbLine
 10
-237.61334177
 20
419.95904035
 30
0.0
 11
-238.82649403
 21
418.74588809
 31
0.0
  0
LINE
  5
43D
100
AcDbEntity
  8
ZUWAKU
  6
CONTINUOUS
 62
       7
100
AcDbLine
 10
-232.27082947
 20
424.45302451
 30
0.0
 11
-235.48938587
 21
421.23446811
 31
0.0
  0
LINE
  5
43E
100
AcDbEntity
  8
ZUWAKU
  6
CONTINUOUS
 62
       7
100
AcDbLine
 10
-237.20898386
 20
419.51487012
 30
0.0
 11
-238.14422637
 21
418.57962761
 31
0.0
  0
LINE
  5
43F
100
AcDbEntity
  8
ZUWAKU
  6
CONTINUOUS
 62
       7
100
AcDbLine
 10
-236.36045572
 20
419.51487012
 30
0.0
 11
-237.29945572
 21
418.57587012
 31
0.0
  0
LINE
  5
440
100
AcDbEntity
  8
ZUWAKU
  6
CONTINUOUS
 62
       7
100
AcDbLine
 10
-232.05955655
 20
423.8157693
 30
0.0
 11
-233.28135363
 21
422.59397221
 31
0.0
  0
LINE
  5
441
100
AcDbEntity
  8
ZUWAKU
  6
CONTINUOUS
 62
       7
100
AcDbLine
 10
-234.38001655
 20
421.4953093
 30
0.0
 11
-235.60181363
 21
420.27351221
 31
0.0
  0
LINE
  5
442
100
AcDbEntity
  8
ZUWAKU
  6
CONTINUOUS
 62
       7
100
AcDbLine
 10
-232.10835912
 20
422.91843858
 30
0.0
 11
-236.45092759
 21
418.57587012
 31
0.0
  0
LINE
  5
443
100
AcDbEntity
  8
ZUWAKU
  6
CONTINUOUS
 62
       7
100
AcDbLine
 10
-232.47688789
 20
421.70138168
 30
0.0
 11
-235.50565108
 21
418.67261849
 31
0.0
  0
LINE
  5
444
100
AcDbEntity
  8
ZUWAKU
  6
CONTINUOUS
 62
       7
100
AcDbLine
 10
-229.3052165
 20
422.32685718
 30
0.0
 11
-233.05620356
 21
418.57587012
 31
0.0
  0
LINE
  5
445
100
AcDbEntity
  8
ZUWAKU
  6
CONTINUOUS
 62
       7
100
AcDbLine
 10
-229.01589254
 20
424.31323742
 30
0.0
 11
-229.21159302
 21
424.11753694
 31
0.0
  0
LINE
  5
446
100
AcDbEntity
  8
ZUWAKU
  6
CONTINUOUS
 62
       7
100
AcDbLine
 10
-233.72382152
 20
419.60530844
 30
0.0
 11
-234.45296239
 21
418.87616757
 31
0.0
  0
LINE
  5
447
100
AcDbEntity
  8
ZUWAKU
  6
CONTINUOUS
 62
       7
100
AcDbLine
 10
-228.28936516
 20
424.19123666
 30
0.0
 11
-229.08959226
 21
423.39100956
 31
0.0
  0
LINE
  5
448
100
AcDbEntity
  8
ZUWAKU
  6
CONTINUOUS
 62
       7
100
AcDbLine
 10
-232.9657317
 20
419.51487012
 30
0.0
 11
-233.82116886
 21
418.65943296
 31
0.0
  0
LINE
  5
449
100
AcDbEntity
  8
ZUWAKU
  6
CONTINUOUS
 62
       7
100
AcDbLine
 10
-224.66997232
 20
421.87093254
 30
0.0
 11
-227.73828941
 21
418.80261545
 31
0.0
  0
LINE
  5
44A
100
AcDbEntity
  8
ZUWAKU
  6
CONTINUOUS
 62
       7
100
AcDbLine
 10
-228.72309101
 20
419.51487012
 30
0.0
 11
-229.66209101
 21
418.57587012
 31
0.0
  0
LINE
  5
44B
100
AcDbEntity
  8
ZUWAKU
  6
CONTINUOUS
 62
       7
100
AcDbLine
 10
-229.35553337
 20
419.7309559
 30
0.0
 11
-230.51061915
 21
418.57587012
 31
0.0
  0
LINE
  5
44C
100
AcDbEntity
  8
ZUWAKU
  6
CONTINUOUS
 62
       7
100
AcDbLine
 10
-229.18582774
 20
420.74918967
 30
0.0
 11
-230.32817054
 21
419.60684687
 31
0.0
  0
LINE
  5
44D
100
AcDbEntity
  8
ZUWAKU
  6
CONTINUOUS
 62
       7
100
AcDbLine
 10
-232.20767543
 20
418.57587012
 30
0.0
 11
-229.01612211
 21
421.76742343
 31
0.0
  0
LINE
  5
44E
100
AcDbEntity
  8
ZUWAKU
  6
CONTINUOUS
 62
       7
100
AcDbLine
 10
-222.88669094
 20
421.95715764
 30
0.0
 11
-226.26233088
 21
418.58151771
 31
0.0
  0
LINE
  5
44F
100
AcDbEntity
  8
ZUWAKU
  6
CONTINUOUS
 62
       7
100
AcDbLine
 10
-223.25138553
 20
420.74393492
 30
0.0
 11
-225.01875098
 21
418.97656947
 31
0.0
  0
LINE
  5
450
100
AcDbEntity
  8
ZUWAKU
  6
CONTINUOUS
 62
       7
100
AcDbLine
 10
-223.5625
 20
419.58429231
 30
0.0
 11
-224.57092219
 21
418.57587012
 31
0.0
  0
LINE
  5
451
100
AcDbEntity
  8
ZUWAKU
  6
CONTINUOUS
 62
       7
100
AcDbLine
 10
-222.78339405
 20
419.51487012
 30
0.0
 11
-223.72239405
 21
418.57587012
 31
0.0
  0
LINE
  5
452
100
AcDbEntity
  8
ZUWAKU
  6
CONTINUOUS
 62
       7
100
AcDbLine
 10
-219.77538441
 20
421.67435163
 30
0.0
 11
-222.87386591
 21
418.57587012
 31
0.0
  0
LINE
  5
453
100
AcDbEntity
  8
ZUWAKU
  6
CONTINUOUS
 62
       7
100
AcDbLine
 10
-225.94893444
 20
421.44049856
 30
0.0
 11
-226.43119675
 21
420.95823625
 31
0.0
  0
LINE
  5
454
100
AcDbEntity
  8
ZUWAKU
  6
CONTINUOUS
 62
       7
100
AcDbLine
 10
-227.38763972
 20
420.00179327
 30
0.0
 11
-228.81356288
 21
418.57587012
 31
0.0
  0
LINE
  5
455
100
AcDbEntity
  8
ZUWAKU
  6
CONTINUOUS
 62
       7
100
AcDbLine
 10
-225.66249651
 20
420.02988021
 30
0.0
 11
-226.80521327
 21
418.88716345
 31
0.0
  0
LINE
  5
456
100
AcDbEntity
  8
ZUWAKU
  6
CONTINUOUS
 62
       7
100
AcDbLine
 10
-223.73521908
 20
421.95715764
 30
0.0
 11
-223.85174097
 21
421.84063575
 31
0.0
  0
LINE
  5
457
100
AcDbEntity
  8
ZUWAKU
  6
CONTINUOUS
 62
       7
100
AcDbLine
 10
-224.14508367
 20
421.54729305
 30
0.0
 11
-224.95180385
 21
420.74057287
 31
0.0
  0
LINE
  5
458
100
AcDbEntity
  8
ZUWAKU
  6
CONTINUOUS
 62
       7
100
AcDbLine
 10
-217.58099742
 20
422.13837012
 30
0.0
 11
-218.89349742
 21
420.82587012
 31
0.0
  0
LINE
  5
459
100
AcDbEntity
  8
ZUWAKU
  6
CONTINUOUS
 62
       7
100
AcDbLine
 10
-219.24918227
 20
420.47018527
 30
0.0
 11
-220.95146851
 21
418.76789903
 31
0.0
  0
POINT
  5
45A
100
AcDbEntity
  8
ZUWAKU
  6
CONTINUOUS
 62
       7
100
AcDbPoint
 10
187.4375
 20
416.09166442
 30
0.0
  0
POINT
  5
45B
100
AcDbEntity
  8
ZUWAKU
  6
CONTINUOUS
 62
       7
100
AcDbPoint
 10
-45.70828488
 20
416.09166442
 30
0.0
  0
POINT
  5
45C
100
AcDbEntity
  8
ZUWAKU
  6
CONTINUOUS
 62
       7
100
AcDbPoint
 10
185.5625
 20
-404.26787988
 30
0.0
  0
POINT
  5
45D
100
AcDbEntity
  8
ZUWAKU
  6
CONTINUOUS
 62
       7
100
AcDbPoint
 10
-16.84375
 20
-404.26787988
 30
0.0
  0
POINT
  5
45E
100
AcDbEntity
  8
ZUWAKU
  6
CONTINUOUS
 62
       7
100
AcDbPoint
 10
62.375
 20
-358.61162988
 30
0.0
  0
POINT
  5
45F
100
AcDbEntity
  8
ZUWAKU
  6
CONTINUOUS
 62
       7
100
AcDbPoint
 10
-250.375
 20
-358.61162988
 30
0.0
  0
POINT
  5
460
100
AcDbEntity
  8
ZUWAKU
  6
CONTINUOUS
 62
       7
100
AcDbPoint
 10
-110.6875
 20
-358.61162988
 30
0.0
  0
POINT
  5
461
100
AcDbEntity
  8
ZUWAKU
  6
CONTINUOUS
 62
       7
100
AcDbPoint
 10
82.0625
 20
-358.61162988
 30
0.0
  0
LINE
  5
462
100
AcDbEntity
  8
ZUWAKU
  6
CONTINUOUS
 62
       7
100
AcDbLine
 10
-316.0
 20
461.5
 30
0.0
 11
-316.0
 21
446.5
 31
0.0
  0
LINE
  5
463
100
AcDbEntity
  8
ZUWAKU
  6
CONTINUOUS
 62
       7
100
AcDbLine
 10
-316.0
 20
446.5
 30
0.0
 11
-331.0
 21
446.5
 31
0.0
  0
LINE
  5
464
100
AcDbEntity
  8
ZUWAKU
  6
CONTINUOUS
 62
       7
100
AcDbLine
 10
314.0
 20
446.5
 30
0.0
 11
329.0
 21
446.5
 31
0.0
  0
LINE
  5
465
100
AcDbEntity
  8
ZUWAKU
  6
CONTINUOUS
 62
       7
100
AcDbLine
 10
314.0
 20
446.5
 30
0.0
 11
314.0
 21
461.5
 31
0.0
  0
LINE
  5
466
100
AcDbEntity
  8
ZUWAKU
  6
CONTINUOUS
 62
       7
100
AcDbLine
 10
314.0
 20
-459.5
 30
0.0
 11
314.0
 21
-444.5
 31
0.0
  0
LINE
  5
467
100
AcDbEntity
  8
ZUWAKU
  6
CONTINUOUS
 62
       7
100
AcDbLine
 10
314.0
 20
-444.5
 30
0.0
 11
329.0
 21
-444.5
 31
0.0
  0
LINE
  5
468
100
AcDbEntity
  8
ZUWAKU
  6
CONTINUOUS
 62
       7
100
AcDbLine
 10
-331.06936928
 20
-444.5
 30
0.0
 11
-316.0
 21
-444.5
 31
0.0
  0
LINE
  5
469
100
AcDbEntity
  8
ZUWAKU
  6
CONTINUOUS
 62
       7
100
AcDbLine
 10
-316.0
 20
-444.60353195
 30
0.0
 11
-316.0
 21
-459.4998396
 31
0.0
  0
POINT
  5
46A
100
AcDbEntity
  8
ZUWAKU
  6
CONTINUOUS
 62
       7
100
AcDbPoint
 10
-274.1875
 20
-118.89646805
 30
0.0
  0
POINT
  5
46B
100
AcDbEntity
  8
ZUWAKU
  6
CONTINUOUS
 62
       7
100
AcDbPoint
 10
-274.1875
 20
121.10353195
 30
0.0
  0
POINT
  5
46C
100
AcDbEntity
  8
ZUWAKU
  6
CONTINUOUS
 62
       7
100
AcDbPoint
 10
-316.0
 20
1.10353195
 30
0.0
  0
POINT
  5
46D
100
AcDbEntity
  8
ZUWAKU
  6
CONTINUOUS
 62
       7
100
AcDbPoint
 10
62.375
 20
-343.61162988
 30
0.0
  0
POINT
  5
46E
100
AcDbEntity
  8
ZUWAKU
  6
CONTINUOUS
 62
       7
100
AcDbPoint
 10
-250.375
 20
-343.61162988
 30
0.0
  0
POINT
  5
46F
100
AcDbEntity
  8
ZUWAKU
  6
CONTINUOUS
 62
       7
100
AcDbPoint
 10
-110.6875
 20
-343.61162988
 30
0.0
  0
POINT
  5
470
100
AcDbEntity
  8
ZUWAKU
  6
CONTINUOUS
 62
       7
100
AcDbPoint
 10
82.0625
 20
-343.61162988
 30
0.0
  0
POINT
  5
471
100
AcDbEntity
  8
ZUWAKU
  6
CONTINUOUS
 62
       7
100
AcDbPoint
 10
62.375
 20
-328.61162988
 30
0.0
  0
POINT
  5
472
100
AcDbEntity
  8
ZUWAKU
  6
CONTINUOUS
 62
       7
100
AcDbPoint
 10
-250.375
 20
-328.61162988
 30
0.0
  0
POINT
  5
473
100
AcDbEntity
  8
ZUWAKU
  6
CONTINUOUS
 62
       7
100
AcDbPoint
 10
-110.6875
 20
-328.61162988
 30
0.0
  0
POINT
  5
474
100
AcDbEntity
  8
ZUWAKU
  6
CONTINUOUS
 62
       7
100
AcDbPoint
 10
82.0625
 20
-328.61162988
 30
0.0
  0
POINT
  5
475
100
AcDbEntity
  8
ZUWAKU
  6
CONTINUOUS
 62
       7
100
AcDbPoint
 10
62.375
 20
-313.61162988
 30
0.0
  0
POINT
  5
476
100
AcDbEntity
  8
ZUWAKU
  6
CONTINUOUS
 62
       7
100
AcDbPoint
 10
-250.375
 20
-313.61162988
 30
0.0
  0
POINT
  5
477
100
AcDbEntity
  8
ZUWAKU
  6
CONTINUOUS
 62
       7
100
AcDbPoint
 10
-110.6875
 20
-313.61162988
 30
0.0
  0
POINT
  5
478
100
AcDbEntity
  8
ZUWAKU
  6
CONTINUOUS
 62
       7
100
AcDbPoint
 10
82.0625
 20
-313.61162988
 30
0.0
  0
POINT
  5
479
100
AcDbEntity
  8
ZUWAKU
  6
CONTINUOUS
 62
       7
100
AcDbPoint
 10
62.375
 20
-298.61162988
 30
0.0
  0
POINT
  5
47A
100
AcDbEntity
  8
ZUWAKU
  6
CONTINUOUS
 62
       7
100
AcDbPoint
 10
-250.375
 20
-298.61162988
 30
0.0
  0
POINT
  5
47B
100
AcDbEntity
  8
ZUWAKU
  6
CONTINUOUS
 62
       7
100
AcDbPoint
 10
-110.6875
 20
-298.61162988
 30
0.0
  0
POINT
  5
47C
100
AcDbEntity
  8
ZUWAKU
  6
CONTINUOUS
 62
       7
100
AcDbPoint
 10
82.0625
 20
-298.61162988
 30
0.0
  0
POINT
  5
47D
100
AcDbEntity
  8
ZUWAKU
  6
CONTINUOUS
 62
       7
100
AcDbPoint
 10
62.375
 20
-283.61162988
 30
0.0
  0
POINT
  5
47E
100
AcDbEntity
  8
ZUWAKU
  6
CONTINUOUS
 62
       7
100
AcDbPoint
 10
-250.375
 20
-283.61162988
 30
0.0
  0
POINT
  5
47F
100
AcDbEntity
  8
ZUWAKU
  6
CONTINUOUS
 62
       7
100
AcDbPoint
 10
-110.6875
 20
-283.61162988
 30
0.0
  0
POINT
  5
480
100
AcDbEntity
  8
ZUWAKU
  6
CONTINUOUS
 62
       7
100
AcDbPoint
 10
82.0625
 20
-283.61162988
 30
0.0
  0
POINT
  5
481
100
AcDbEntity
  8
ZUWAKU
  6
CONTINUOUS
 62
       7
100
AcDbPoint
 10
37.40221978
 20
365.97211486
 30
0.0
  0
POINT
  5
482
100
AcDbEntity
  8
ZUWAKU
  6
CONTINUOUS
 62
       7
100
AcDbPoint
 10
37.40221978
 20
365.97211486
 30
0.0
  0
TEXT
  5
483
100
AcDbEntity
  8
ZUWAKU
 62
       7
100
AcDbText
 10
-253.15356297
 20
-414.67412988
 30
0.0
 40
10.2
  1
株式会社
 41
0.6667
 72
       5
 11
-220.51356297
 21
-414.67412988
 31
0.0
100
AcDbText
  0
TEXT
  5
484
100
AcDbEntity
  8
ZUWAKU
 62
       7
100
AcDbText
 10
-118.18898405
 20
-388.7477071
 30
0.0
 40
7.497
  1
品 名
 41
0.8
  7
FDASTYLE1
100
AcDbText
  0
TEXT
  5
485
100
AcDbEntity
  8
ZUWAKU
 62
       7
100
AcDbText
 10
84.31773107
 20
-388.80049651
 30
0.0
 40
7.497
  1
品　番
 41
0.8
  7
FDASTYLE1
100
AcDbText
  0
TEXT
  5
486
100
AcDbEntity
  8
ZUWAKU
 62
       7
100
AcDbText
 10
-269.05223899
 20
-364.49173009
 30
0.0
 40
12.0
  1
1
 41
0.8
 72
       5
 11
-259.45223899
 21
-364.49173009
 31
0.0
100
AcDbText
  0
TEXT
  5
487
100
AcDbEntity
  8
ZUWAKU
 62
       7
100
AcDbText
 10
-269.05223899
 20
-349.49173009
 30
0.0
 40
12.0
  1
2
 41
0.8
 72
       5
 11
-259.45223899
 21
-349.49173009
 31
0.0
100
AcDbText
  0
TEXT
  5
488
100
AcDbEntity
  8
ZUWAKU
 62
       7
100
AcDbText
 10
-269.05223899
 20
-334.49173009
 30
0.0
 40
12.0
  1
3
 41
0.8
 72
       5
 11
-259.45223899
 21
-334.49173009
 31
0.0
100
AcDbText
  0
TEXT
  5
489
100
AcDbEntity
  8
ZUWAKU
 62
       7
100
AcDbText
 10
-269.05223899
 20
-319.49173009
 30
0.0
 40
12.0
  1
4
 41
0.8
 72
       5
 11
-259.45223899
 21
-319.49173009
 31
0.0
100
AcDbText
  0
TEXT
  5
48A
100
AcDbEntity
  8
ZUWAKU
 62
       7
100
AcDbText
 10
-269.05223899
 20
-304.49173009
 30
0.0
 40
12.0
  1
5
 41
0.8
 72
       5
 11
-259.45223899
 21
-304.49173009
 31
0.0
100
AcDbText
  0
TEXT
  5
48B
100
AcDbEntity
  8
ZUWAKU
 62
       7
100
AcDbText
 10
-269.05223899
 20
-289.49173009
 30
0.0
 40
12.0
  1
6
 41
0.8
 72
       5
 11
-259.45223899
 21
-289.49173009
 31
0.0
100
AcDbText
  0
TEXT
  5
48C
100
AcDbEntity
  8
ZUWAKU
 62
       7
100
AcDbText
 10
154.6163036
 20
-379.43252915
 30
0.0
 40
12.0
  1
摘要・仕上
 41
0.7143
 72
       5
 11
202.6163036
 21
-379.43252915
 31
0.0
100
AcDbText
  0
TEXT
  5
48D
100
AcDbEntity
  8
ZUWAKU
 62
       7
100
AcDbText
 10
47.70938388
 20
-379.43252915
 30
0.0
 40
12.0
  1
個　数
 41
0.75
 72
       5
 11
76.50938388
 21
-379.43252915
 31
0.0
100
AcDbText
  0
TEXT
  5
48E
100
AcDbEntity
  8
ZUWAKU
 62
       7
100
AcDbText
 10
-53.07834402
 20
-379.43252915
 30
0.0
 40
12.0
  1
材　　質
 41
0.6667
 72
       5
 11
-14.67834402
 21
-379.43252915
 31
0.0
100
AcDbText
  0
TEXT
  5
48F
100
AcDbEntity
  8
ZUWAKU
 62
       7
100
AcDbText
 10
-207.6306033
 20
-379.43252915
 30
0.0
 40
12.0
  1
部　品　名
 41
0.7143
 72
       5
 11
-159.6306033
 21
-379.43252915
 31
0.0
100
AcDbText
  0
TEXT
  5
490
100
AcDbEntity
  8
ZUWAKU
 62
       7
100
AcDbText
 10
-273.75694315
 20
-379.43252915
 30
0.0
 40
12.0
  1
部番
 41
0.6667
 72
       5
 11
-254.55694315
 21
-379.43252915
 31
0.0
100
AcDbText
  0
TEXT
  5
491
100
AcDbEntity
  8
ZUWAKU
 62
       7
100
AcDbText
 10
298.40927805
 20
162.81751814
 30
0.0
 40
12.0
  1
ペーパーホルダー
 50
-90.0
 41
0.6667
 72
       5
 11
298.40927805
 21
86.01751814
 31
0.0
100
AcDbText
  0
TEXT
  5
492
100
AcDbEntity
  8
ZUWAKU
 62
       7
100
AcDbText
 10
222.25592536
 20
-438.8794885
 30
0.0
 40
12.0
  1
040602
 41
0.8
 72
       5
 11
279.85592536
 21
-438.8794885
 31
0.0
100
AcDbText
  0
INSERT
  5
493
100
AcDbEntity
  8
LAYER0256
  6
CONTINUOUS
100
AcDbBlockReference
  2
GROUP_1
 10
0.0
 20
0.0
 30
0.0
  0
TEXT
  5
494
100
AcDbEntity
  8
LAYER0240
 62
       7
100
AcDbText
 10
48.36650485
 20
-236.40348634
 30
0.0
 40
12.0
  1
取付壁穴寸法　H148XW294XD76m/m
 41
0.6214
 72
       5
 11
269.16650485
 21
-236.40348634
 31
0.0
100
AcDbText
  0
TEXT
  5
495
100
AcDbEntity
  8
LAYER0240
 62
       7
100
AcDbText
 10
148.91504854
 20
379.44822006
 30
0.0
 40
12.0
  1
（　）内寸法はリベットを含む
 41
0.6667
 72
       5
 11
283.31504854
 21
379.44822006
 31
0.0
100
AcDbText
  0
TEXT
  5
496
100
AcDbEntity
  8
LAYER0240
 62
       7
100
AcDbText
 10
-250.375
 20
-364.61162988
 30
0.0
 40
12.0
  1
本体枠
 41
0.75
 72
       5
 11
-221.575
 21
-364.61162988
 31
0.0
100
AcDbText
  0
TEXT
  5
497
100
AcDbEntity
  8
LAYER0240
 62
       7
100
AcDbText
 10
-110.6875
 20
-364.61162988
 30
0.0
 40
12.0
  1
BS-C2801
 41
0.8
 72
       5
 11
-33.8875
 21
-364.61162988
 31
0.0
100
AcDbText
  0
TEXT
  5
498
100
AcDbEntity
  8
LAYER0240
 62
       7
100
AcDbText
 10
82.0625
 20
-364.61162988
 30
0.0
 40
12.0
  1
クロムメッキ
 41
0.6667
 72
       5
 11
139.6625
 21
-364.61162988
 31
0.0
100
AcDbText
  0
TEXT
  5
499
100
AcDbEntity
  8
LAYER0240
 62
       7
100
AcDbText
 10
57.575
 20
-364.61162988
 30
0.0
 40
12.0
  1
1
 41
0.8
 72
       5
 11
67.175
 21
-364.61162988
 31
0.0
100
AcDbText
  0
TEXT
  5
49A
100
AcDbEntity
  8
LAYER0240
 62
       7
100
AcDbText
 10
-104.59375
 20
-413.26787988
 30
0.0
 40
18.0
  1
2連ペーパーホルダー背面取付型  
 41
0.4818
 72
       5
 11
70.90625
 21
-413.26787988
 31
0.0
100
AcDbText
  0
TEXT
  5
49B
100
AcDbEntity
  8
LAYER0240
 62
       7
100
AcDbText
 10
135.1625
 20
-413.26787988
 30
0.0
 40
18.0
  1
R2976-S
 41
0.8
 72
       5
 11
235.9625
 21
-413.26787988
 31
0.0
100
AcDbText
  0
TEXT
  5
49C
100
AcDbEntity
  8
LAYER0240
 62
       7
100
AcDbText
 10
-250.375
 20
-349.61162988
 30
0.0
 40
12.0
  1
カッタ－
 41
0.6667
 72
       5
 11
-211.975
 21
-349.61162988
 31
0.0
100
AcDbText
  0
TEXT
  5
49D
100
AcDbEntity
  8
LAYER0240
 62
       7
100
AcDbText
 10
-110.6875
 20
-349.61162988
 30
0.0
 40
12.0
  1
BS-C2801
 41
0.8
 72
       5
 11
-33.8875
 21
-349.61162988
 31
0.0
100
AcDbText
  0
TEXT
  5
49E
100
AcDbEntity
  8
LAYER0240
 62
       7
100
AcDbText
 10
57.575
 20
-349.61162988
 30
0.0
 40
12.0
  1
2
 41
0.8
 72
       5
 11
67.175
 21
-349.61162988
 31
0.0
100
AcDbText
  0
TEXT
  5
49F
100
AcDbEntity
  8
LAYER0240
 62
       7
100
AcDbText
 10
82.0625
 20
-349.61162988
 30
0.0
 40
12.0
  1
クロムメッキ
 41
0.6667
 72
       5
 11
139.6625
 21
-349.61162988
 31
0.0
100
AcDbText
  0
TEXT
  5
4A0
100
AcDbEntity
  8
LAYER0240
 62
       7
100
AcDbText
 10
-250.375
 20
-334.61162988
 30
0.0
 40
12.0
  1
ロ－ラ－
 41
0.6667
 72
       5
 11
-211.975
 21
-334.61162988
 31
0.0
100
AcDbText
  0
TEXT
  5
4A1
100
AcDbEntity
  8
LAYER0240
 62
       7
100
AcDbText
 10
-110.6875
 20
-334.61162988
 30
0.0
 40
12.0
  1
PP
 41
0.8
 72
       5
 11
-91.4875
 21
-334.61162988
 31
0.0
100
AcDbText
  0
TEXT
  5
4A2
100
AcDbEntity
  8
LAYER0240
 62
       7
100
AcDbText
 10
57.575
 20
-334.61162988
 30
0.0
 40
12.0
  1
2
 41
0.8
 72
       5
 11
67.175
 21
-334.61162988
 31
0.0
100
AcDbText
  0
TEXT
  5
4A3
100
AcDbEntity
  8
LAYER0240
 62
       7
100
AcDbText
 10
82.0625
 20
-334.61162988
 30
0.0
 40
12.0
  1
乳白色
 41
0.75
 72
       5
 11
110.8625
 21
-334.61162988
 31
0.0
100
AcDbText
  0
TEXT
  5
4A4
100
AcDbEntity
  8
LAYER0240
 62
       7
100
AcDbText
 10
-250.375
 20
-319.61162988
 30
0.0
 40
12.0
  1
ロ－ラ－ブラケット
 41
0.6923
 72
       5
 11
-163.975
 21
-319.61162988
 31
0.0
100
AcDbText
  0
TEXT
  5
4A5
100
AcDbEntity
  8
LAYER0240
 62
       7
100
AcDbText
 10
-110.6875
 20
-319.61162988
 30
0.0
 40
12.0
  1
BS-C2801
 41
0.8
 72
       5
 11
-33.8875
 21
-319.61162988
 31
0.0
100
AcDbText
  0
TEXT
  5
4A6
100
AcDbEntity
  8
LAYER0240
 62
       7
100
AcDbText
 10
57.575
 20
-319.61162988
 30
0.0
 40
12.0
  1
1
 41
0.8
 72
       5
 11
67.175
 21
-319.61162988
 31
0.0
100
AcDbText
  0
TEXT
  5
4A7
100
AcDbEntity
  8
LAYER0240
 62
       7
100
AcDbText
 10
82.0625
 20
-319.61162988
 30
0.0
 40
12.0
  1
クロムメッキ
 41
0.6667
 72
       5
 11
139.6625
 21
-319.61162988
 31
0.0
100
AcDbText
  0
TEXT
  5
4A8
100
AcDbEntity
  8
LAYER0240
 62
       7
100
AcDbText
 10
-250.375
 20
-304.61162988
 30
0.0
 40
12.0
  1
裏箱
 41
0.6667
 72
       5
 11
-231.175
 21
-304.61162988
 31
0.0
100
AcDbText
  0
TEXT
  5
4A9
100
AcDbEntity
  8
LAYER0240
 62
       7
100
AcDbText
 10
-110.6875
 20
-304.61162988
 30
0.0
 40
12.0
  1
SUS304
 41
0.8
 72
       5
 11
-53.0875
 21
-304.61162988
 31
0.0
100
AcDbText
  0
TEXT
  5
4AA
100
AcDbEntity
  8
LAYER0240
 62
       7
100
AcDbText
 10
57.575
 20
-304.61162988
 30
0.0
 40
12.0
  1
1
 41
0.8
 72
       5
 11
67.175
 21
-304.61162988
 31
0.0
100
AcDbText
  0
TEXT
  5
4AB
100
AcDbEntity
  8
LAYER0240
 62
       7
100
AcDbText
 10
82.0625
 20
-304.61162988
 30
0.0
 40
12.0
  1
研磨(内側)
 41
0.75
 72
       5
 11
139.6625
 21
-304.61162988
 31
0.0
100
AcDbText
  0
TEXT
  5
4AC
100
AcDbEntity
  8
LAYER0240
 62
       7
100
AcDbText
 10
-250.375
 20
-289.61162988
 30
0.0
 40
12.0
  1
取付ネジ　４Ｘ１５
 41
0.6923
 72
       5
 11
-163.975
 21
-289.61162988
 31
0.0
100
AcDbText
  0
TEXT
  5
4AD
100
AcDbEntity
  8
LAYER0240
 62
       7
100
AcDbText
 10
-110.6875
 20
-289.61162988
 30
0.0
 40
12.0
  1
SUS304
 41
0.8
 72
       5
 11
-53.0875
 21
-289.61162988
 31
0.0
100
AcDbText
  0
TEXT
  5
4AE
100
AcDbEntity
  8
LAYER0240
 62
       7
100
AcDbText
 10
57.575
 20
-289.61162988
 30
0.0
 40
12.0
  1
4
 41
0.8
 72
       5
 11
67.175
 21
-289.61162988
 31
0.0
100
AcDbText
  0
TEXT
  5
4AF
100
AcDbEntity
  8
LAYER0240
 62
       7
100
AcDbText
 10
-133.45828488
 20
407.09166442
 30
0.0
 40
18.0
  1
2連ペーパーホルダー背面取付型  
 41
0.4818
 72
       5
 11
42.04171512
 21
407.09166442
 31
0.0
100
AcDbText
  0
TEXT
  5
4B0
100
AcDbEntity
  8
LAYER0240
 62
       7
100
AcDbText
 10
137.0375
 20
407.09166442
 30
0.0
 40
18.0
  1
R2976-S
 41
0.8
 72
       5
 11
237.8375
 21
407.09166442
 31
0.0
100
AcDbText
  0
TEXT
  5
4B1
100
AcDbEntity
  8
LAYER0240
 62
       7
100
AcDbText
 10
228.83699208
 20
-270.88580445
 30
0.0
 40
12.0
  1
受注生産品
 41
0.7143
 72
       5
 11
276.83699208
 21
-270.88580445
 31
0.0
100
AcDbText
  0
TEXT
  5
4B2
100
AcDbEntity
  8
LAYER0241
 62
       7
100
AcDbText
 10
138.02881095
 20
350.44862123
 30
0.0
 40
12.0
  1
紙幅
 41
0.6667
 72
       5
 11
157.22881095
 21
350.44862123
 31
0.0
100
AcDbText
  0
TEXT
  5
4B3
100
AcDbEntity
  8
LAYER0241
 62
       7
100
AcDbText
 10
133.22881095
 20
335.44862123
 30
0.0
 40
12.0
  1
芯の径
 41
0.75
 72
       5
 11
162.02881095
 21
335.44862123
 31
0.0
100
AcDbText
  0
TEXT
  5
4B4
100
AcDbEntity
  8
LAYER0241
 62
       7
100
AcDbText
 10
196.0886778
 20
335.44862123
 30
0.0
 40
12.0
  1
３８±1m/m
 41
0.7778
 72
       5
 11
263.2886778
 21
335.44862123
 31
0.0
100
AcDbText
  0
TEXT
  5
4B5
100
AcDbEntity
  8
LAYER0241
 62
       7
100
AcDbText
 10
186.44976498
 20
350.44862123
 30
0.0
 40
12.0
  1
１１４±２m/m
 41
0.7273
 72
       5
 11
263.24976498
 21
350.44862123
 31
0.0
100
AcDbText
  0
TEXT
  5
4B6
100
AcDbEntity
  8
LAYER0241
 62
       7
100
AcDbText
 10
123.62881095
 20
320.44862123
 30
0.0
 40
12.0
  1
巻取りの径
 41
0.7143
 72
       5
 11
171.62881095
 21
320.44862123
 31
0.0
100
AcDbText
  0
TEXT
  5
4B7
100
AcDbEntity
  8
LAYER0241
 62
       7
100
AcDbText
 10
198.68202387
 20
320.44862123
 30
0.0
 40
12.0
  1
φ１１５m/m以下
 41
0.75
 72
       5
 11
279.68202387
 21
320.44862123
 31
0.0
100
AcDbText
  0
TEXT
  5
4B8
100
AcDbEntity
  8
LAYER0241
 62
       7
100
AcDbText
 10
110.49475341
 20
366.96243969
 30
0.0
 40
12.0
  1
使用紙サイズ
 41
0.6667
 72
       5
 11
168.09475341
 21
366.96243969
 31
0.0
100
AcDbText
  0
POINT
  5
4B9
100
AcDbEntity
  8
LAYER0241
  6
CONTINUOUS
 62
       7
100
AcDbPoint
 10
110.35309549
 20
363.94862123
 30
0.0
  0
LINE
  5
4BA
100
AcDbEntity
  8
LAYER0241
  6
CONTINUOUS
 62
       7
100
AcDbLine
 10
282.125
 20
318.94862123
 30
0.0
 11
110.35309549
 21
318.94862123
 31
0.0
  0
LINE
  5
4BB
100
AcDbEntity
  8
LAYER0241
  6
CONTINUOUS
 62
       7
100
AcDbLine
 10
282.125
 20
363.94862123
 30
0.0
 11
110.35309549
 21
363.94862123
 31
0.0
  0
LINE
  5
4BC
100
AcDbEntity
  8
LAYER0241
  6
CONTINUOUS
 62
       7
100
AcDbLine
 10
282.125
 20
348.94862123
 30
0.0
 11
110.35309549
 21
348.94862123
 31
0.0
  0
LINE
  5
4BD
100
AcDbEntity
  8
LAYER0241
  6
CONTINUOUS
 62
       7
100
AcDbLine
 10
282.125
 20
333.94862123
 30
0.0
 11
110.35309549
 21
333.94862123
 31
0.0
  0
LINE
  5
4BE
100
AcDbEntity
  8
LAYER0241
  6
CONTINUOUS
 62
       7
100
AcDbLine
 10
110.35309549
 20
363.94862123
 30
0.0
 11
110.35309549
 21
318.94862123
 31
0.0
  0
LINE
  5
4BF
100
AcDbEntity
  8
LAYER0241
  6
CONTINUOUS
 62
       7
100
AcDbLine
 10
184.90452641
 20
363.94862123
 30
0.0
 11
184.90452641
 21
318.94862123
 31
0.0
  0
LINE
  5
4C0
100
AcDbEntity
  8
LAYER0241
  6
CONTINUOUS
 62
       7
100
AcDbLine
 10
282.125
 20
363.94862123
 30
0.0
 11
282.125
 21
318.94862123
 31
0.0
  0
LINE
  5
4C1
100
AcDbEntity
  8
0
  6
CONTINUOUS
 62
       7
100
AcDbLine
 10
-49.97439999
 20
-143.16242731
 30
0.0
 11
-49.97439999
 21
-23.53742731
 31
0.0
  0
LINE
  5
4C2
100
AcDbEntity
  8
0
  6
CONTINUOUS
 62
       7
100
AcDbLine
 10
-70.66139999
 20
-15.84992731
 30
0.0
 11
-190.28639999
 21
-15.84992731
 31
0.0
  0
LINE
  5
4C3
100
AcDbEntity
  8
0
  6
CONTINUOUS
 62
       7
100
AcDbLine
 10
77.15060001
 20
-15.84992731
 30
0.0
 11
-42.28689999
 21
-15.84992731
 31
0.0
  0
LINE
  5
4C4
100
AcDbEntity
  8
0
  6
CONTINUOUS
 62
       7
100
AcDbLine
 10
-70.66139999
 20
-150.84992731
 30
0.0
 11
-190.28639999
 21
-150.84992731
 31
0.0
  0
LINE
  5
4C5
100
AcDbEntity
  8
0
  6
CONTINUOUS
 62
       7
100
AcDbLine
 10
92.33810001
 20
-0.84992731
 30
0.0
 11
-205.28639999
 21
-0.84992731
 31
0.0
  0
LINE
  5
4C6
100
AcDbEntity
  8
0
  6
CONTINUOUS
 62
       7
100
AcDbLine
 10
77.15060001
 20
-150.84992731
 30
0.0
 11
-42.28689999
 21
-150.84992731
 31
0.0
  0
LINE
  5
4C7
100
AcDbEntity
  8
0
  6
CONTINUOUS
 62
       7
100
AcDbLine
 10
-49.97439999
 20
-139.59992731
 30
0.0
 11
-49.97439999
 21
-27.09992731
 31
0.0
  0
LINE
  5
4C8
100
AcDbEntity
  8
0
  6
CONTINUOUS
 62
       7
100
AcDbLine
 10
85.02560001
 20
-143.16242731
 30
0.0
 11
85.02560001
 21
-23.53742731
 31
0.0
  0
LINE
  5
4C9
100
AcDbEntity
  8
0
  6
CONTINUOUS
 62
       7
100
AcDbLine
 10
92.33810001
 20
-165.84992731
 30
0.0
 11
-205.28639999
 21
-165.84992731
 31
0.0
  0
LINE
  5
4CA
100
AcDbEntity
  8
0
  6
CONTINUOUS
 62
       7
100
AcDbLine
 10
100.02560001
 20
-158.16242731
 30
0.0
 11
100.02560001
 21
-8.53742731
 31
0.0
  0
LINE
  5
4CB
100
AcDbEntity
  8
0
  6
CONTINUOUS
 62
       7
100
AcDbLine
 10
-62.97389999
 20
-143.16242731
 30
0.0
 11
-62.97389999
 21
-23.53742731
 31
0.0
  0
ARC
  5
4CC
100
AcDbEntity
  8
0
  6
CONTINUOUS
 62
       7
100
AcDbCircle
 10
92.33810001
 20
-8.53742731
 30
0.0
 40
7.6875
100
AcDbArc
 50
0.0
 51
90.0
  0
ARC
  5
4CD
100
AcDbEntity
  8
0
  6
CONTINUOUS
 62
       7
100
AcDbCircle
 10
-42.28689999
 20
-23.53742731
 30
0.0
 40
7.6875
100
AcDbArc
 50
90.0
 51
180.0
  0
ARC
  5
4CE
100
AcDbEntity
  8
0
  6
CONTINUOUS
 62
       7
100
AcDbCircle
 10
-42.28689999
 20
-143.16242731
 30
0.0
 40
7.6875
100
AcDbArc
 50
180.0
 51
270.0
  0
ARC
  5
4CF
100
AcDbEntity
  8
0
  6
CONTINUOUS
 62
       7
100
AcDbCircle
 10
77.33810001
 20
-23.53742731
 30
0.0
 40
7.6875
100
AcDbArc
 50
0.0
 51
91.4
  0
ARC
  5
4D0
100
AcDbEntity
  8
0
  6
CONTINUOUS
 62
       7
100
AcDbCircle
 10
-70.66139999
 20
-143.16242731
 30
0.0
 40
7.6875
100
AcDbArc
 50
270.0
 51
360.0
  0
ARC
  5
4D1
100
AcDbEntity
  8
0
  6
CONTINUOUS
 62
       7
100
AcDbCircle
 10
-70.66139999
 20
-23.53742731
 30
0.0
 40
7.6875
100
AcDbArc
 50
0.0
 51
90.0
  0
ARC
  5
4D2
100
AcDbEntity
  8
0
  6
CONTINUOUS
 62
       7
100
AcDbCircle
 10
-205.28639999
 20
-8.53742731
 30
0.0
 40
7.6875
100
AcDbArc
 50
90.0
 51
180.0
  0
ARC
  5
4D3
100
AcDbEntity
  8
0
  6
CONTINUOUS
 62
       7
100
AcDbCircle
 10
77.33810001
 20
-143.16242731
 30
0.0
 40
7.6875
100
AcDbArc
 50
268.6
 51
361.4
  0
ARC
  5
4D4
100
AcDbEntity
  8
0
  6
CONTINUOUS
 62
       7
100
AcDbCircle
 10
92.33810001
 20
-158.16242731
 30
0.0
 40
7.6875
100
AcDbArc
 50
268.6
 51
361.4
  0
ARC
  5
4D5
100
AcDbEntity
  8
0
  6
CONTINUOUS
 62
       7
100
AcDbCircle
 10
-190.28639999
 20
-143.16242731
 30
0.0
 40
7.6875
100
AcDbArc
 50
180.0
 51
270.0
  0
ARC
  5
4D6
100
AcDbEntity
  8
0
  6
CONTINUOUS
 62
       7
100
AcDbCircle
 10
-190.28639999
 20
-23.53742731
 30
0.0
 40
7.6875
100
AcDbArc
 50
90.0
 51
180.0
  0
ARC
  5
4D7
100
AcDbEntity
  8
0
  6
CONTINUOUS
 62
       7
100
AcDbCircle
 10
-205.28639999
 20
-158.16242731
 30
0.0
 40
7.6875
100
AcDbArc
 50
180.0
 51
270.0
  0
LINE
  5
4D8
100
AcDbEntity
  8
0
  6
CONTINUOUS
 62
       7
100
AcDbLine
 10
80.52560001
 20
-67.44257612
 30
0.0
 11
-45.47439999
 21
-67.44257612
 31
0.0
  0
LINE
  5
4D9
100
AcDbEntity
  8
0
  6
CONTINUOUS
 62
       7
100
AcDbLine
 10
-48.47439999
 20
-64.44257612
 30
0.0
 11
-48.47439999
 21
-20.88742731
 31
0.0
  0
LINE
  5
4DA
100
AcDbEntity
  8
0
  6
CONTINUOUS
 62
       7
100
AcDbLine
 10
83.52560001
 20
-64.44257612
 30
0.0
 11
83.52560001
 21
-20.88742731
 31
0.0
  0
LINE
  5
4DB
100
AcDbEntity
  8
0
  6
CONTINUOUS
 62
       7
100
AcDbLine
 10
-48.47439999
 20
-20.88742731
 30
0.0
 11
83.52560001
 21
-20.88742731
 31
0.0
  0
LINE
  5
4DC
100
AcDbEntity
  8
0
  6
CONTINUOUS
 62
       7
100
AcDbLine
 10
-49.97033387
 20
-23.28742731
 30
0.0
 11
-48.47439999
 21
-23.28742731
 31
0.0
  0
LINE
  5
4DD
100
AcDbEntity
  8
0
  6
CONTINUOUS
 62
       7
100
AcDbLine
 10
-49.97439999
 20
-25.28742731
 30
0.0
 11
-48.47439999
 21
-25.28742731
 31
0.0
  0
LINE
  5
4DE
100
AcDbEntity
  8
0
  6
CONTINUOUS
 62
       7
100
AcDbLine
 10
83.52560001
 20
-23.28742731
 30
0.0
 11
85.0215339
 21
-23.28742731
 31
0.0
  0
LINE
  5
4DF
100
AcDbEntity
  8
0
  6
CONTINUOUS
 62
       7
100
AcDbLine
 10
83.52560001
 20
-25.28742731
 30
0.0
 11
85.02560001
 21
-25.28742731
 31
0.0
  0
LINE
  5
4E0
100
AcDbEntity
  8
0
  6
CONTINUOUS
 62
       7
100
AcDbLine
 10
-196.47389999
 20
-20.88742731
 30
0.0
 11
-64.47389999
 21
-20.88742731
 31
0.0
  0
LINE
  5
4E1
100
AcDbEntity
  8
0
  6
CONTINUOUS
 62
       7
100
AcDbLine
 10
-64.47389999
 20
-23.28742731
 30
0.0
 11
-62.9779661
 21
-23.28742731
 31
0.0
  0
LINE
  5
4E2
100
AcDbEntity
  8
0
  6
CONTINUOUS
 62
       7
100
AcDbLine
 10
-64.47389999
 20
-25.28742731
 30
0.0
 11
-62.97389999
 21
-25.28742731
 31
0.0
  0
LINE
  5
4E3
100
AcDbEntity
  8
0
  6
CONTINUOUS
 62
       7
100
AcDbLine
 10
-64.47389999
 20
-64.44257612
 30
0.0
 11
-64.47389999
 21
-20.88742731
 31
0.0
  0
LINE
  5
4E4
100
AcDbEntity
  8
0
  6
CONTINUOUS
 62
       7
100
AcDbLine
 10
-197.96983387
 20
-23.28742731
 30
0.0
 11
-196.47389999
 21
-23.28742731
 31
0.0
  0
LINE
  5
4E5
100
AcDbEntity
  8
0
  6
CONTINUOUS
 62
       7
100
AcDbLine
 10
-197.97389999
 20
-25.28742731
 30
0.0
 11
-196.47389999
 21
-25.28742731
 31
0.0
  0
ARC
  5
4E6
100
AcDbEntity
  8
0
  6
CONTINUOUS
 62
       7
100
AcDbCircle
 10
-45.47439999
 20
-64.44257612
 30
0.0
 40
3.0
100
AcDbArc
 50
180.0
 51
270.0
  0
ARC
  5
4E7
100
AcDbEntity
  8
0
  6
CONTINUOUS
 62
       7
100
AcDbCircle
 10
80.52560001
 20
-64.44257612
 30
0.0
 40
3.0
100
AcDbArc
 50
270.0
 51
360.0
  0
LINE
  5
4E8
100
AcDbEntity
  8
0
  6
CONTINUOUS
 62
       7
100
AcDbLine
 10
-197.97389999
 20
-23.53742731
 30
0.0
 11
-197.97389999
 21
-143.16242731
 31
0.0
  0
LINE
  5
4E9
100
AcDbEntity
  8
0
  6
CONTINUOUS
 62
       7
100
AcDbLine
 10
-212.97389999
 20
-8.53742731
 30
0.0
 11
-212.97389999
 21
-158.16242731
 31
0.0
  0
CIRCLE
  5
4EA
100
AcDbEntity
  8
0
  6
CONTINUOUS
 62
       7
100
AcDbCircle
 10
-10.47414999
 20
-83.34992731
 30
0.0
 40
2.5
  0
LINE
  5
4EB
100
AcDbEntity
  8
0
  6
CONTINUOUS
 62
       7
100
AcDbLine
 10
-2.72439999
 20
-79.72492731
 30
0.0
 11
-43.97439999
 21
-79.72492731
 31
0.0
  0
LINE
  5
4EC
100
AcDbEntity
  8
0
  6
CONTINUOUS
 62
       7
100
AcDbLine
 10
-2.72439999
 20
-82.34992731
 30
0.0
 11
-2.72439999
 21
-67.44257612
 31
0.0
  0
LINE
  5
4ED
100
AcDbEntity
  8
0
  6
CONTINUOUS
 62
       7
100
AcDbLine
 10
-43.97439999
 20
-84.03742731
 30
0.0
 11
-49.97439999
 21
-84.03742731
 31
0.0
  0
LINE
  5
4EE
100
AcDbEntity
  8
0
  6
CONTINUOUS
 62
       7
100
AcDbLine
 10
85.02560001
 20
-84.03742731
 30
0.0
 11
79.02560001
 21
-84.03742731
 31
0.0
  0
LINE
  5
4EF
100
AcDbEntity
  8
0
  6
CONTINUOUS
 62
       7
100
AcDbLine
 10
-2.72439999
 20
-82.34992731
 30
0.0
 11
79.02560001
 21
-82.34992731
 31
0.0
  0
LINE
  5
4F0
100
AcDbEntity
  8
0
  6
CONTINUOUS
 62
       7
100
AcDbLine
 10
79.02560001
 20
-67.44257612
 30
0.0
 11
79.02560001
 21
-84.03742731
 31
0.0
  0
LINE
  5
4F1
100
AcDbEntity
  8
0
  6
CONTINUOUS
 62
       7
100
AcDbLine
 10
83.52560001
 20
-55.53742731
 30
0.0
 11
85.02560001
 21
-55.53742731
 31
0.0
  0
LINE
  5
4F2
100
AcDbEntity
  8
0
  6
CONTINUOUS
 62
       7
100
AcDbLine
 10
-48.47439999
 20
-55.53742731
 30
0.0
 11
-49.97439999
 21
-55.53742731
 31
0.0
  0
LINE
  5
4F3
100
AcDbEntity
  8
0
  6
CONTINUOUS
 62
       7
100
AcDbLine
 10
-43.97439999
 20
-84.03742731
 30
0.0
 11
-43.97439999
 21
-67.44257612
 31
0.0
  0
LINE
  5
4F4
100
AcDbEntity
  8
0
  6
CONTINUOUS
 62
       7
100
AcDbLine
 10
-67.47389999
 20
-67.44257612
 30
0.0
 11
-193.47389999
 21
-67.44257612
 31
0.0
  0
ARC
  5
4F5
100
AcDbEntity
  8
0
  6
CONTINUOUS
 62
       7
100
AcDbCircle
 10
-193.47389999
 20
-64.44257612
 30
0.0
 40
3.0
100
AcDbArc
 50
180.0
 51
270.0
  0
ARC
  5
4F6
100
AcDbEntity
  8
0
  6
CONTINUOUS
 62
       7
100
AcDbCircle
 10
-67.47389999
 20
-64.44257612
 30
0.0
 40
3.0
100
AcDbArc
 50
270.0
 51
360.0
  0
LINE
  5
4F7
100
AcDbEntity
  8
0
  6
CONTINUOUS
 62
       7
100
AcDbLine
 10
-150.72389999
 20
-79.72492731
 30
0.0
 11
-191.97389999
 21
-79.72492731
 31
0.0
  0
LINE
  5
4F8
100
AcDbEntity
  8
0
  6
CONTINUOUS
 62
       7
100
AcDbLine
 10
-150.72389999
 20
-82.34992731
 30
0.0
 11
-150.72389999
 21
-67.44257612
 31
0.0
  0
LINE
  5
4F9
100
AcDbEntity
  8
0
  6
CONTINUOUS
 62
       7
100
AcDbLine
 10
-191.97389999
 20
-84.03742731
 30
0.0
 11
-197.97389999
 21
-84.03742731
 31
0.0
  0
LINE
  5
4FA
100
AcDbEntity
  8
0
  6
CONTINUOUS
 62
       7
100
AcDbLine
 10
-62.97389999
 20
-84.03742731
 30
0.0
 11
-68.97389999
 21
-84.03742731
 31
0.0
  0
LINE
  5
4FB
100
AcDbEntity
  8
0
  6
CONTINUOUS
 62
       7
100
AcDbLine
 10
-150.72389999
 20
-82.34992731
 30
0.0
 11
-68.97389999
 21
-82.34992731
 31
0.0
  0
LINE
  5
4FC
100
AcDbEntity
  8
0
  6
CONTINUOUS
 62
       7
100
AcDbLine
 10
-68.97389999
 20
-67.44257612
 30
0.0
 11
-68.97389999
 21
-84.03742731
 31
0.0
  0
LINE
  5
4FD
100
AcDbEntity
  8
0
  6
CONTINUOUS
 62
       7
100
AcDbLine
 10
-64.47389999
 20
-55.53742731
 30
0.0
 11
-62.97389999
 21
-55.53742731
 31
0.0
  0
LINE
  5
4FE
100
AcDbEntity
  8
0
  6
CONTINUOUS
 62
       7
100
AcDbLine
 10
-196.47389999
 20
-55.53742731
 30
0.0
 11
-197.97389999
 21
-55.53742731
 31
0.0
  0
LINE
  5
4FF
100
AcDbEntity
  8
0
  6
CONTINUOUS
 62
       7
100
AcDbLine
 10
-191.97389999
 20
-84.03742731
 30
0.0
 11
-191.97389999
 21
-67.44257612
 31
0.0
  0
LINE
  5
500
100
AcDbEntity
  8
0
  6
CONTINUOUS
 62
       7
100
AcDbLine
 10
-196.47389999
 20
-64.44257612
 30
0.0
 11
-196.47389999
 21
-20.88742731
 31
0.0
  0
LINE
  5
501
100
AcDbEntity
  8
0
  6
CONTINUOUS
 62
       7
100
AcDbLine
 10
100.02560001
 20
188.90701767
 30
0.0
 11
-212.97389999
 21
188.90701767
 31
0.0
  0
LINE
  5
502
100
AcDbEntity
  8
0
  6
CONTINUOUS
 62
       7
100
AcDbLine
 10
100.02560001
 20
187.78201767
 30
0.0
 11
100.02560001
 21
188.90701767
 31
0.0
  0
LINE
  5
503
100
AcDbEntity
  8
0
  6
CONTINUOUS
 62
       7
100
AcDbLine
 10
-212.97389999
 20
187.78201767
 30
0.0
 11
-212.97389999
 21
188.90701767
 31
0.0
  0
LINE
  5
504
100
AcDbEntity
  8
0
  6
CONTINUOUS
 62
       7
100
AcDbLine
 10
-211.09889999
 20
185.90701767
 30
0.0
 11
98.15060001
 21
185.90701767
 31
0.0
  0
LINE
  5
505
100
AcDbEntity
  8
0
  6
CONTINUOUS
 62
       7
100
AcDbLine
 10
-199.66139999
 20
188.90701767
 30
0.0
 11
-199.66139999
 21
259.96951767
 31
0.0
  0
LINE
  5
506
100
AcDbEntity
  8
0
  6
CONTINUOUS
 62
       7
100
AcDbLine
 10
86.90060001
 20
188.90701767
 30
0.0
 11
86.90060001
 21
259.96951767
 31
0.0
  0
LINE
  5
507
100
AcDbEntity
  8
0
  6
CONTINUOUS
 62
       7
100
AcDbLine
 10
-199.66139999
 20
259.96951767
 30
0.0
 11
86.90060001
 21
259.96951767
 31
0.0
  0
ARC
  5
508
100
AcDbEntity
  8
0
  6
CONTINUOUS
 62
       7
100
AcDbCircle
 10
98.15060001
 20
187.78201767
 30
0.0
 40
1.875
100
AcDbArc
 50
271.4
 51
358.6
  0
ARC
  5
509
100
AcDbEntity
  8
0
  6
CONTINUOUS
 62
       7
100
AcDbCircle
 10
-211.09889999
 20
187.78201767
 30
0.0
 40
1.875
100
AcDbArc
 50
181.4
 51
268.6
  0
ARC
  5
50A
100
AcDbEntity
  8
0
  6
CONTINUOUS
 62
       7
100
AcDbCircle
 10
-102.47414999
 20
-83.34992731
 30
0.0
 40
2.5
100
AcDbArc
 50
156.42182152
 51
383.57817848
  0
ARC
  5
50B
100
AcDbEntity
  8
0
  6
CONTINUOUS
 62
       7
100
AcDbCircle
 10
-152.47414999
 20
-83.34992731
 30
0.0
 40
2.5
100
AcDbArc
 50
45.56497243
 51
383.57817848
  0
ARC
  5
50C
100
AcDbEntity
  8
0
  6
CONTINUOUS
 62
       7
100
AcDbCircle
 10
39.52585001
 20
-83.34992731
 30
0.0
 40
2.5
100
AcDbArc
 50
156.42182152
 51
383.57817848
  0
LINE
  5
50D
100
AcDbEntity
  8
0
  6
CONTINUOUS
 62
       7
100
AcDbLine
 10
83.52560001
 20
139.43036093
 30
0.0
 11
-48.47439999
 21
139.43036093
 31
0.0
  0
LINE
  5
50E
100
AcDbEntity
  8
0
  6
CONTINUOUS
 62
       7
100
AcDbLine
 10
-48.47439999
 20
139.43036093
 30
0.0
 11
-48.47439999
 21
185.90701767
 31
0.0
  0
LINE
  5
50F
100
AcDbEntity
  8
0
  6
CONTINUOUS
 62
       7
100
AcDbLine
 10
83.52560001
 20
139.43036093
 30
0.0
 11
83.52560001
 21
185.90701767
 31
0.0
  0
LINE
  5
510
100
AcDbEntity
  8
0
  6
CONTINUOUS
 62
       7
100
AcDbLine
 10
-196.47389999
 20
139.43036093
 30
0.0
 11
-64.47389999
 21
139.43036093
 31
0.0
  0
LINE
  5
511
100
AcDbEntity
  8
0
  6
CONTINUOUS
 62
       7
100
AcDbLine
 10
-64.47389999
 20
139.43036093
 30
0.0
 11
-64.47389999
 21
185.90701767
 31
0.0
  0
LINE
  5
512
100
AcDbEntity
  8
0
  6
CONTINUOUS
 62
       7
100
AcDbLine
 10
-196.47389999
 20
139.43036093
 30
0.0
 11
-196.47389999
 21
185.90701767
 31
0.0
  0
LINE
  5
513
100
AcDbEntity
  8
0
  6
CONTINUOUS
 62
       7
100
AcDbLine
 10
176.18680412
 20
-164.1143025
 30
0.0
 11
177.31180412
 21
-164.1143025
 31
0.0
  0
ARC
  5
514
100
AcDbEntity
  8
0
  6
CONTINUOUS
 62
       7
100
AcDbCircle
 10
176.18680412
 20
-162.2393025
 30
0.0
 40
1.875
100
AcDbArc
 50
181.4
 51
268.6
  0
LINE
  5
515
100
AcDbEntity
  8
0
  6
CONTINUOUS
 62
       7
100
AcDbLine
 10
248.37430412
 20
-151.6143025
 30
0.0
 11
248.37430412
 21
-11.6143025
 31
0.0
  0
LINE
  5
516
100
AcDbEntity
  8
0
  6
CONTINUOUS
 62
       7
100
AcDbLine
 10
177.31180412
 20
0.8856975
 30
0.0
 11
177.31180412
 21
-164.1143025
 31
0.0
  0
LINE
  5
517
100
AcDbEntity
  8
0
  6
CONTINUOUS
 62
       7
100
AcDbLine
 10
174.31180412
 20
-162.28511283
 30
0.0
 11
174.31180412
 21
-0.94349216
 31
0.0
  0
LINE
  5
518
100
AcDbEntity
  8
0
  6
CONTINUOUS
 62
       7
100
AcDbLine
 10
176.14099379
 20
0.8856975
 30
0.0
 11
177.31180412
 21
0.8856975
 31
0.0
  0
ARC
  5
519
100
AcDbEntity
  8
0
  6
CONTINUOUS
 62
       7
100
AcDbCircle
 10
176.18680412
 20
-0.9893025
 30
0.0
 40
1.875
100
AcDbArc
 50
91.4
 51
178.6
  0
LINE
  5
51A
100
AcDbEntity
  8
0
  6
CONTINUOUS
 62
       7
100
AcDbLine
 10
177.31180412
 20
-11.6143025
 30
0.0
 11
248.37430412
 21
-11.6143025
 31
0.0
  0
LINE
  5
51B
100
AcDbEntity
  8
0
  6
CONTINUOUS
 62
       7
100
AcDbLine
 10
177.31180412
 20
-151.6143025
 30
0.0
 11
248.37430412
 21
-151.6143025
 31
0.0
  0
LINE
  5
51C
100
AcDbEntity
  8
0
  6
CONTINUOUS
 62
       7
100
AcDbLine
 10
172.64610643
 20
-20.56144777
 30
0.0
 11
174.33127152
 21
-20.65018817
 31
0.0
  0
LINE
  5
51D
100
AcDbEntity
  8
0
  6
CONTINUOUS
 62
       7
100
AcDbLine
 10
172.50816608
 20
-19.6153849
 30
0.0
 11
174.38057174
 21
-19.71398534
 31
0.0
  0
ARC
  5
51E
100
AcDbEntity
  8
0
  6
CONTINUOUS
 62
       7
100
AcDbCircle
 10
184.77579897
 20
-75.46277485
 30
0.0
 40
57.75
100
AcDbArc
 50
109.08560205
 51
170.27576525
  0
ARC
  5
51F
100
AcDbEntity
  8
0
  6
CONTINUOUS
 62
       7
100
AcDbCircle
 10
184.77579897
 20
-75.46277485
 30
0.0
 40
56.8125
100
AcDbArc
 50
109.08560205
 51
170.27576525
  0
ARC
  5
520
100
AcDbEntity
  8
0
  6
CONTINUOUS
 62
       7
100
AcDbCircle
 10
171.75880273
 20
-33.84566791
 30
0.0
 40
13.3125
100
AcDbArc
 50
85.98560205
 51
114.48560205
  0
ARC
  5
521
100
AcDbEntity
  8
0
  6
CONTINUOUS
 62
       7
100
AcDbCircle
 10
171.75880273
 20
-33.84566791
 30
0.0
 40
14.25
100
AcDbArc
 50
85.98560205
 51
114.48560205
  0
LINE
  5
522
100
AcDbEntity
  8
0
  6
CONTINUOUS
 62
       7
100
AcDbLine
 10
127.85554439
 20
-65.43674355
 30
0.0
 11
128.77957449
 21
-65.5950932
 31
0.0
  0
LINE
  5
523
100
AcDbEntity
  8
0
  6
CONTINUOUS
 62
       7
100
AcDbLine
 10
172.64610643
 20
-20.56144777
 30
0.0
 11
174.33127152
 21
-20.65018817
 31
0.0
  0
LINE
  5
524
100
AcDbEntity
  8
0
  6
CONTINUOUS
 62
       7
100
AcDbLine
 10
172.50816608
 20
-19.6153849
 30
0.0
 11
174.38057174
 21
-19.71398534
 31
0.0
  0
ARC
  5
525
100
AcDbEntity
  8
0
  6
CONTINUOUS
 62
       7
100
AcDbCircle
 10
184.77579897
 20
-75.46277485
 30
0.0
 40
57.75
100
AcDbArc
 50
109.08560205
 51
170.27576525
  0
ARC
  5
526
100
AcDbEntity
  8
0
  6
CONTINUOUS
 62
       7
100
AcDbCircle
 10
184.77579897
 20
-75.46277485
 30
0.0
 40
56.8125
100
AcDbArc
 50
109.08560205
 51
170.27576525
  0
ARC
  5
527
100
AcDbEntity
  8
0
  6
CONTINUOUS
 62
       7
100
AcDbCircle
 10
171.75880273
 20
-33.84566791
 30
0.0
 40
13.3125
100
AcDbArc
 50
85.98560205
 51
114.48560205
  0
ARC
  5
528
100
AcDbEntity
  8
0
  6
CONTINUOUS
 62
       7
100
AcDbCircle
 10
171.75880273
 20
-33.84566791
 30
0.0
 40
14.25
100
AcDbArc
 50
85.98560205
 51
114.48560205
  0
LINE
  5
529
100
AcDbEntity
  8
0
  6
CONTINUOUS
 62
       7
100
AcDbLine
 10
127.85554439
 20
-65.43674355
 30
0.0
 11
128.77957449
 21
-65.5950932
 31
0.0
  0
LINE
  5
52A
100
AcDbEntity
  8
0
  6
CENTER
 62
       7
100
AcDbLine
 10
-72.16139999
 20
-24.28742731
 30
0.0
 11
-57.16139999
 21
-24.28742731
 31
0.0
  0
LINE
  5
52B
100
AcDbEntity
  8
0
  6
CENTER
 62
       7
100
AcDbLine
 10
-187.28639999
 20
-24.28742731
 30
0.0
 11
-204.72389999
 21
-24.28742731
 31
0.0
  0
LINE
  5
52C
100
AcDbEntity
  8
0
  6
CENTER
 62
       7
100
AcDbLine
 10
-58.44754385
 20
-77.84992731
 30
0.0
 11
-204.47097261
 21
-77.84992731
 31
0.0
  0
LINE
  5
52D
100
AcDbEntity
  8
0
  6
CENTER
 62
       7
100
AcDbLine
 10
75.83810001
 20
-24.28742731
 30
0.0
 11
90.83810001
 21
-24.28742731
 31
0.0
  0
LINE
  5
52E
100
AcDbEntity
  8
0
  6
CENTER
 62
       7
100
AcDbLine
 10
-39.28689999
 20
-24.28742731
 30
0.0
 11
-56.72439999
 21
-24.28742731
 31
0.0
  0
LINE
  5
52F
100
AcDbEntity
  8
0
  6
CENTER
 62
       7
100
AcDbLine
 10
89.55195615
 20
-77.84992731
 30
0.0
 11
-56.47147261
 21
-77.84992731
 31
0.0
  0
LINE
  5
530
100
AcDbEntity
  8
0
  6
CENTER
 62
       7
100
AcDbLine
 10
89.55195615
 20
-77.84992731
 30
0.0
 11
-56.47147261
 21
-77.84992731
 31
0.0
  0
LINE
  5
531
100
AcDbEntity
  8
0
  6
CENTER
 62
       7
100
AcDbLine
 10
-222.95925448
 20
-83.34992731
 30
0.0
 11
116.57464842
 21
-83.34992731
 31
0.0
  0
LINE
  5
532
100
AcDbEntity
  8
0
  6
CENTER
 62
       7
100
AcDbLine
 10
-58.44754385
 20
-77.84992731
 30
0.0
 11
-204.47097261
 21
-77.84992731
 31
0.0
  0
LINE
  5
533
100
AcDbEntity
  8
0
  6
CENTER
 62
       7
100
AcDbLine
 10
-58.44754385
 20
-77.84992731
 30
0.0
 11
-204.47097261
 21
-77.84992731
 31
0.0
  0
LINE
  5
534
100
AcDbEntity
  8
0
  6
CENTER
 62
       7
100
AcDbLine
 10
230.43399901
 20
-81.6143025
 30
0.0
 11
269.6502703
 21
-81.6143025
 31
0.0
  0
LINE
  5
535
100
AcDbEntity
  8
0
  6
CENTERX2
 62
       7
100
AcDbLine
 10
-56.47414999
 20
6.45286095
 30
0.0
 11
-56.47414999
 21
-189.22249263
 31
0.0
  0
LINE
  5
536
100
AcDbEntity
  8
0
  6
CENTERX2
 62
       7
100
AcDbLine
 10
39.52585001
 20
-97.62197738
 30
0.0
 11
39.52585001
 21
-70.15876986
 31
0.0
  0
LINE
  5
537
100
AcDbEntity
  8
0
  6
CENTERX2
 62
       7
100
AcDbLine
 10
-10.47414999
 20
-70.15876986
 30
0.0
 11
-10.47414999
 21
-97.62197738
 31
0.0
  0
LINE
  5
538
100
AcDbEntity
  8
0
  6
CENTERX2
 62
       7
100
AcDbLine
 10
-102.47414999
 20
-70.15876986
 30
0.0
 11
-102.47414999
 21
-97.62197738
 31
0.0
  0
LINE
  5
539
100
AcDbEntity
  8
0
  6
CENTERX2
 62
       7
100
AcDbLine
 10
-152.47414999
 20
-70.15876986
 30
0.0
 11
-152.47414999
 21
-97.62197738
 31
0.0
  0
LINE
  5
53A
100
AcDbEntity
  8
0
  6
CENTERX2
 62
       7
100
AcDbLine
 10
-102.47414999
 20
245.34528892
 30
0.0
 11
-102.47414999
 21
272.80849644
 31
0.0
  0
LINE
  5
53B
100
AcDbEntity
  8
0
  6
CENTERX2
 62
       7
100
AcDbLine
 10
-10.47414999
 20
245.34528892
 30
0.0
 11
-10.47414999
 21
272.80849644
 31
0.0
  0
LINE
  5
53C
100
AcDbEntity
  8
0
  6
CENTERX2
 62
       7
100
AcDbLine
 10
-152.47414999
 20
272.80849644
 30
0.0
 11
-152.47414999
 21
245.34528892
 31
0.0
  0
LINE
  5
53D
100
AcDbEntity
  8
0
  6
CENTERX2
 62
       7
100
AcDbLine
 10
39.52585001
 20
245.34528892
 30
0.0
 11
39.52585001
 21
272.80849644
 31
0.0
  0
LINE
  5
53E
100
AcDbEntity
  8
0
  6
CENTERX2
 62
       7
100
AcDbLine
 10
-56.47414999
 20
164.05225164
 30
0.0
 11
-56.47414999
 21
272.80849644
 31
0.0
  0
ARC
  5
53F
100
AcDbEntity
  8
0
  6
DIVIDE
 62
       7
100
AcDbCircle
 10
186.82743788
 20
-83.34992731
 30
0.0
 40
60.0
100
AcDbArc
 50
102.03996368
 51
257.96003632
  0
ARC
  5
540
100
AcDbEntity
  8
0
  6
DIVIDE
 62
       7
100
AcDbCircle
 10
186.82743788
 20
-83.34992731
 30
0.0
 40
60.0
100
AcDbArc
 50
102.03996368
 51
257.96003632
  0
INSERT
  5
541
100
AcDbEntity
  8
0
  6
CONTINUOUS
100
AcDbBlockReference
  2
DA_IMAGEDIMGROUP_1
 10
0.0
 20
0.0
 30
0.0
  0
INSERT
  5
542
100
AcDbEntity
  8
0
  6
CONTINUOUS
100
AcDbBlockReference
  2
DA_IMAGEDIMGROUP_2
 10
0.0
 20
0.0
 30
0.0
  0
INSERT
  5
543
100
AcDbEntity
  8
0
  6
CONTINUOUS
100
AcDbBlockReference
  2
DA_IMAGEDIMGROUP_3
 10
0.0
 20
0.0
 30
0.0
  0
INSERT
  5
544
100
AcDbEntity
  8
0
  6
CONTINUOUS
100
AcDbBlockReference
  2
DA_IMAGEDIMGROUP_4
 10
0.0
 20
0.0
 30
0.0
  0
INSERT
  5
545
100
AcDbEntity
  8
0
  6
CONTINUOUS
100
AcDbBlockReference
  2
DA_IMAGEDIMGROUP_5
 10
0.0
 20
0.0
 30
0.0
  0
INSERT
  5
546
100
AcDbEntity
  8
0
  6
CONTINUOUS
100
AcDbBlockReference
  2
DA_IMAGEDIMGROUP_6
 10
0.0
 20
0.0
 30
0.0
  0
INSERT
  5
547
100
AcDbEntity
  8
0
  6
CONTINUOUS
100
AcDbBlockReference
  2
DA_IMAGEDIMGROUP_7
 10
0.0
 20
0.0
 30
0.0
  0
INSERT
  5
548
100
AcDbEntity
  8
0
  6
CONTINUOUS
100
AcDbBlockReference
  2
DA_IMAGEDIMGROUP_8
 10
0.0
 20
0.0
 30
0.0
  0
INSERT
  5
549
100
AcDbEntity
  8
0
  6
CONTINUOUS
100
AcDbBlockReference
  2
DA_IMAGEDIMGROUP_9
 10
0.0
 20
0.0
 30
0.0
  0
INSERT
  5
54A
100
AcDbEntity
  8
0
  6
CONTINUOUS
100
AcDbBlockReference
  2
DA_IMAGEDIMGROUP_10
 10
0.0
 20
0.0
 30
0.0
  0
INSERT
  5
54B
100
AcDbEntity
  8
0
  6
CONTINUOUS
100
AcDbBlockReference
  2
DA_IMAGEDIMGROUP_11
 10
0.0
 20
0.0
 30
0.0
  0
LINE
  5
54C
100
AcDbEntity
  8
LAYER0240
  6
CENTERX2
 62
       7
100
AcDbLine
 10
254.58413217
 20
-83.34992731
 30
0.0
 11
116.51462501
 21
-83.34992731
 31
0.0
  0
LINE
  5
54D
100
AcDbEntity
  8
LAYER0240
  6
CENTERX2
 62
       7
100
AcDbLine
 10
186.82743788
 20
-17.34992731
 30
0.0
 11
186.82743788
 21
-149.34992731
 31
0.0
  0
LINE
  5
54E
100
AcDbEntity
  8
LAYER0001
  6
CONTINUOUS
 62
       7
100
AcDbLine
 10
278.56828496
 20
-272.67957784
 30
0.0
 11
227.50717678
 21
-272.67957784
 31
0.0
  0
LINE
  5
54F
100
AcDbEntity
  8
LAYER0001
  6
CONTINUOUS
 62
       7
100
AcDbLine
 10
227.50717678
 20
-257.96992084
 30
0.0
 11
278.56828496
 21
-257.96992084
 31
0.0
  0
LINE
  5
550
100
AcDbEntity
  8
LAYER0001
  6
CONTINUOUS
 62
       7
100
AcDbLine
 10
278.56828496
 20
-257.96992084
 30
0.0
 11
278.56828496
 21
-272.67957784
 31
0.0
  0
LINE
  5
551
100
AcDbEntity
  8
LAYER0001
  6
CONTINUOUS
 62
       7
100
AcDbLine
 10
227.50717678
 20
-272.67957784
 30
0.0
 11
227.50717678
 21
-257.96992084
 31
0.0
  0
INSERT
  5
552
100
AcDbEntity
  8
0
  6
CENTER
100
AcDbBlockReference
  2
GROUP_2
 10
0.0
 20
0.0
 30
0.0
  0
INSERT
  5
553
100
AcDbEntity
  8
0
  6
CENTER
100
AcDbBlockReference
  2
GROUP_3
 10
0.0
 20
0.0
 30
0.0
  0
INSERT
  5
554
100
AcDbEntity
  8
0
  6
CENTER
100
AcDbBlockReference
  2
GROUP_4
 10
0.0
 20
0.0
 30
0.0
  0
INSERT
  5
555
100
AcDbEntity
  8
0
  6
CENTER
100
AcDbBlockReference
  2
GROUP_5
 10
0.0
 20
0.0
 30
0.0
  0
INSERT
  5
556
100
AcDbEntity
  8
0
  6
CENTER
100
AcDbBlockReference
  2
GROUP_6
 10
0.0
 20
0.0
 30
0.0
  0
ENDSEC
  0
SECTION
  2
OBJECTS
  0
DICTIONARY
  5
19
100
AcDbDictionary
  3
ACAD_GROUP
350
1A
  3
ACAD_MLINESTYLE
350
1B
  0
DICTIONARY
  5
1A
102
{ACAD_REACTORS
330
19
102
}
100
AcDbDictionary
  0
DICTIONARY
  5
1B
102
{ACAD_REACTORS
330
19
102
}
100
AcDbDictionary
  3
STANDARD
350
1C
  0
MLINESTYLE
  5
1C
102
{ACAD_REACTORS
330
1B
102
}
100
AcDbMlineStyle
  2
STANDARD
 70
       0
  3

 62
       0
 51
90.0
 52
90.0
 71
       2
 49
0.5
 62
     256
  6
BYLAYER
 49
-0.5
 62
     256
  6
BYLAYER
  0
ENDSEC
  0
EOF
