  0
SECTION
  2
HEADER
  9
$ACADVER
  1
AC1012
  9
$DWGCODEPAGE
  3
dos932
  9
$INSBASE
 10
0.0
 20
0.0
 30
0.0
  9
$EXTMIN
 10
-799.96509889
 20
-1117.48
 30
0.0
  9
$EXTMAX
 10
801.80323723
 20
1117.48
 30
0.0
  9
$LIMMIN
 10
-850.0203594
 20
-1187.3225
  9
$LIMMAX
 10
851.85849774
 20
1187.3225
  9
$ORTHOMODE
 70
       0
  9
$REGENMODE
 70
       1
  9
$FILLMODE
 70
       1
  9
$QTEXTMODE
 70
       0
  9
$MIRRTEXT
 70
       1
  9
$DRAGMODE
 70
       2
  9
$LTSCALE
 40
1.0
  9
$OSMODE
 70
       0
  9
$ATTMODE
 70
       1
  9
$TEXTSIZE
 40
0.2
  9
$TRACEWID
 40
0.05
  9
$TEXTSTYLE
  7
STANDARD
  9
$CLAYER
  8
0
  9
$CELTYPE
  6
CONTINUOUS
  9
$CECOLOR
 62
     256
  9
$CELTSCALE
 40
1.0
  9
$DELOBJ
 70
       1
  9
$DISPSILH
 70
       0
  9
$DIMSCALE
 40
1.0
  9
$DIMASZ
 40
0.18
  9
$DIMEXO
 40
0.0625
  9
$DIMDLI
 40
0.38
  9
$DIMRND
 40
0.0
  9
$DIMDLE
 40
0.0
  9
$DIMEXE
 40
0.18
  9
$DIMTP
 40
0.0
  9
$DIMTM
 40
0.0
  9
$DIMTXT
 40
0.18
  9
$DIMCEN
 40
0.09
  9
$DIMTSZ
 40
0.0
  9
$DIMTOL
 70
       0
  9
$DIMLIM
 70
       0
  9
$DIMTIH
 70
       1
  9
$DIMTOH
 70
       1
  9
$DIMSE1
 70
       0
  9
$DIMSE2
 70
       0
  9
$DIMTAD
 70
       0
  9
$DIMZIN
 70
       0
  9
$DIMBLK
  1

  9
$DIMASO
 70
       1
  9
$DIMSHO
 70
       1
  9
$DIMPOST
  1

  9
$DIMAPOST
  1

  9
$DIMALT
 70
       0
  9
$DIMALTD
 70
       2
  9
$DIMALTF
 40
25.4
  9
$DIMLFAC
 40
1.0
  9
$DIMTOFL
 70
       0
  9
$DIMTVP
 40
0.0
  9
$DIMTIX
 70
       0
  9
$DIMSOXD
 70
       0
  9
$DIMSAH
 70
       0
  9
$DIMBLK1
  1

  9
$DIMBLK2
  1

  9
$DIMSTYLE
  2
STANDARD
  9
$DIMCLRD
 70
       0
  9
$DIMCLRE
 70
       0
  9
$DIMCLRT
 70
       0
  9
$DIMTFAC
 40
1.0
  9
$DIMGAP
 40
0.09
  9
$DIMJUST
 70
       0
  9
$DIMSD1
 70
       0
  9
$DIMSD2
 70
       0
  9
$DIMTOLJ
 70
       1
  9
$DIMTZIN
 70
       0
  9
$DIMALTZ
 70
       0
  9
$DIMALTTZ
 70
       0
  9
$DIMFIT
 70
       3
  9
$DIMUPT
 70
       0
  9
$DIMUNIT
 70
       2
  9
$DIMDEC
 70
       4
  9
$DIMTDEC
 70
       4
  9
$DIMALTU
 70
       2
  9
$DIMALTTD
 70
       2
  9
$DIMTXSTY
  7
STANDARD
  9
$DIMAUNIT
 70
       0
  9
$LUNITS
 70
       2
  9
$LUPREC
 70
       4
  9
$SKETCHINC
 40
0.1
  9
$FILLETRAD
 40
0.0
  9
$AUNITS
 70
       0
  9
$AUPREC
 70
       0
  9
$MENU
  1
acad
  9
$ELEVATION
 40
0.0
  9
$PELEVATION
 40
0.0
  9
$THICKNESS
 40
0.0
  9
$LIMCHECK
 70
       0
  9
$BLIPMODE
 70
       1
  9
$CHAMFERA
 40
0.0
  9
$CHAMFERB
 40
0.0
  9
$CHAMFERC
 40
0.0
  9
$CHAMFERD
 40
0.0
  9
$SKPOLY
 70
       0
  9
$TDCREATE
 40
0.000000000
  9
$TDUPDATE
 40
0.000000000
  9
$TDINDWG
 40
0.0000000000
  9
$TDUSRTIMER
 40
0.0000000000
  9
$USRTIMER
 70
       1
  9
$ANGBASE
 50
0.0
  9
$ANGDIR
 70
       0
  9
$PDMODE
 70
       0
  9
$PDSIZE
 40
1.0
  9
$PLINEWID
 40
0.0
  9
$COORDS
 70
       1
  9
$SPLFRAME
 70
       0
  9
$SPLINETYPE
 70
       6
  9
$SPLINESEGS
 70
       8
  9
$ATTDIA
 70
       0
  9
$ATTREQ
 70
       1
  9
$HANDLING
 70
       1
  9
$HANDSEED
  5
4AD
  9
$SURFTAB1
 70
       6
  9
$SURFTAB2
 70
       6
  9
$SURFTYPE
 70
       6
  9
$SURFU
 70
       6
  9
$SURFV
 70
       6
  9
$UCSNAME
  2

  9
$UCSORG
 10
0.0
 20
0.0
 30
0.0
  9
$UCSXDIR
 10
1.0
 20
0.0
 30
0.0
  9
$UCSYDIR
 10
0.0
 20
1.0
 30
0.0
  9
$PUCSNAME
  2

  9
$PUCSORG
 10
0.0
 20
0.0
 30
0.0
  9
$PUCSXDIR
 10
1.0
 20
0.0
 30
0.0
  9
$PUCSYDIR
 10
0.0
 20
1.0
 30
0.0
  9
$USERI1
 70
       0
  9
$USERI2
 70
       0
  9
$USERI3
 70
       0
  9
$USERI4
 70
       0
  9
$USERI5
 70
       0
  9
$USERR1
 40
0.0
  9
$USERR2
 40
0.0
  9
$USERR3
 40
0.0
  9
$USERR4
 40
0.0
  9
$USERR5
 40
0.0
  9
$WORLDVIEW
 70
       1
  9
$SHADEDGE
 70
       3
  9
$SHADEDIF
 70
      70
  9
$TILEMODE
 70
       1
  9
$MAXACTVP
 70
      16
  9
$PINSBASE
 10
0.0
 20
0.0
 30
0.0
  9
$PLIMCHECK
 70
       0
  9
$PEXTMIN
 10
1.00000000E+20
 20
1.00000000E+20
 30
1.00000000E+20
  9
$PEXTMAX
 10
-1.00000000E+20
 20
-1.00000000E+20
 30
-1.00000000E+20
  9
$PLIMMIN
 10
0.0
 20
0.0
  9
$PLIMMAX
 10
12.0
 20
9.0
  9
$UNITMODE
 70
       0
  9
$VISRETAIN
 70
       0
  9
$PLINEGEN
 70
       1
  9
$PSLTSCALE
 70
       0
  9
$TREEDEPTH
 70
    3020
  9
$PICKSTYLE
 70
       1
  9
$CMLSTYLE
  2
STANDARD
  9
$CMLJUST
 70
       0
  9
$CMLSCALE
 40
1.0
  9
$SAVEIMAGES
 70
       0
  0
ENDSEC
  0
SECTION
  2
CLASSES
  0
CLASS
  1
LWPOLYLINE
  2
AcDbPolyline
  3
"AutoCAD"
 90
        0
280
       0
281
       1
  0
CLASS
  1
IMAGE
  2
AcDbRasterImage
  3
ISM
 90
      127
280
       0
281
       1
  0
CLASS
  1
OLE2FRAME
  2
AcDbOle2Frame
  3
""
 90
        0
280
       0
281
       1
  0
CLASS
  1
HATCH
  2
AcDbHatch
  3
"ACAD_SEDONA"
 90
        0
280
       0
281
       1
  0
CLASS
  1
DICTIONARYVAR
  2
AcDbDictionaryVar
  3
"AutoCAD"
 90
        0
280
       0
281
       0
  0
CLASS
  1
RASTERVARIABLES
  2
AcDbRasterVariables
  3
ISM
 90
        0
280
       0
281
       0
  0
CLASS
  1
IMAGEDEF
  2
AcDbRasterImageDef
  3
ISM
 90
        0
280
       0
281
       0
  0
CLASS
  1
IMAGEDEF_REACTOR
  2
AcDbRasterImageDefReactor
  3
ISM
 90
        1
280
       0
281
       0
  0
CLASS
  1
IDBUFFER
  2
AcDbIdBuffer
  3
"Acad"
 90
        0
280
       0
281
       0
  0
CLASS
  1
SPATIAL_FILTER
  2
AcDbSpatialFilter
  3
"Acad"
 90
        0
280
       0
281
       0
  0
CLASS
  1
XRECORD
  2
AcDbXrecord
  3
"<Built In>"
 90
        0
280
       0
281
       0
  0
CLASS
  1
SORTENTSTABLE
  2
AcDbSortentsTable
  3
"AutoCAD"
 90
        0
280
       0
281
       0
  0
CLASS
  1
LAYER_INDEX
  2
AcDbLayerIndex
  3
"Acad"
 90
        0
280
       0
281
       0
  0
CLASS
  1
SPATIAL_INDEX
  2
AcDbSpatialIndex
  3
"Acad"
 90
        0
280
       0
281
       0
  0
CLASS
  1
OBJECT_PTR
  2
CAseDLPNTableRecord
  3
"ASE-LPNTableRecord"
 90
        1
280
       0
281
       0
  0
CLASS
  1
LAYOUT
  2
AcDbLayout
  3
"AutoCAD 2000"
 90
        1
280
       0
281
       0
  0
CLASS
  1
PLOTSETTINGS
  2
AcDbPlotSettings
  3
"AutoCAD 2000"
 90
        1
280
       0
281
       0
  0
CLASS
  1
ACDBDICTIONARYWDFLT
  2
AcDbDictionaryWithDefault
  3
"AutoCAD 2000"
 90
        1
280
       0
281
       0
  0
CLASS
  1
ACDBPLACEHOLDER
  2
AcDbPlaceHolder
  3
"AutoCAD 2000"
 90
        1
280
       0
281
       0
  0
CLASS
  1
VBA_PROJECT
  2
AcDbVbaProject
  3
"acadvba"
 90
        1
280
       0
281
       0
  0
CLASS
  1
WIPEOUT
  2
AcDbWipeout
  3
WipeOut|AutoCAD Express Tool|expresstools@autodesk.com
 90
      127
280
       0
281
       1
  0
CLASS
  1
WIPEOUTVARIABLES
  2
AcDbWipeoutVariables
  3
WipeOut|AutoCAD Express Tool|expresstools@autodesk.com
 90
        0
280
       0
281
       0
  0
CLASS
  1
RTEXT
  2
RText
  3
RText|AutoCAD Express Tool|expresstools@autodesk.com
 90
        0
280
       0
281
       1
  0
CLASS
  1
ARCALIGNEDTEXT
  2
AcDbArcAlignedText
  3
ATEXT|AutoCAD Express Tool|expresstools@autodesk.com
 90
        0
280
       0
281
       1
  0
ENDSEC
  0
SECTION
  2
TABLES
  0
TABLE
  2
VPORT
  5
7
100
AcDbSymbolTable
 70
       1
  0
VPORT
  5
15
100
AcDbSymbolTableRecord
100
AcDbViewportTableRecord
  2
*ACTIVE
 70
       0
 10
0.0
 20
0.0
 11
1.0
 21
1.0
 12
0.91906917
 22
0.0
 13
0.0
 23
0.0
 14
1.0
 24
1.0
 15
0.0
 25
0.0
 16
0.0
 26
0.0
 36
1.0
 17
0.0
 27
0.0
 37
0.0
 40
2374.645
 41
0.7166877
 42
50.0
 43
0.0
 44
0.0
 50
0.0
 51
0.0
 71
       0
 72
     100
 73
       1
 74
       1
 75
       0
 76
       0
 77
       0
 78
       0
  0
ENDTAB
  0
TABLE
  2
LTYPE
  5
4
100
AcDbSymbolTable
 70
      30
  0
LTYPE
  5
11
100
AcDbSymbolTableRecord
100
AcDbLinetypeTableRecord
  2
BYBLOCK
 70
      64
  3

 72
      65
 73
       0
 40
0.0
  0
LTYPE
  5
12
100
AcDbSymbolTableRecord
100
AcDbLinetypeTableRecord
  2
BYLAYER
 70
      64
  3

 72
      65
 73
       0
 40
0.0
  0
LTYPE
  5
13
100
AcDbSymbolTableRecord
100
AcDbLinetypeTableRecord
  2
CONTINUOUS
 70
      64
  3
Solid line
 72
      65
 73
       0
 40
0.0
  0
LTYPE
  5
1D
100
AcDbSymbolTableRecord
100
AcDbLinetypeTableRecord
  2
HIDDENX2
 70
      64
  3
CADPAC LINETYPE
 72
      65
 73
       2
 40
83.16
 49
62.37
 74
       0
 49
-20.79
 74
       0
  0
LTYPE
  5
1E
100
AcDbSymbolTableRecord
100
AcDbLinetypeTableRecord
  2
HIDDEN
 70
      64
  3
CADPAC LINETYPE
 72
      65
 73
       2
 40
62.37
 49
41.58
 74
       0
 49
-20.79
 74
       0
  0
LTYPE
  5
1F
100
AcDbSymbolTableRecord
100
AcDbLinetypeTableRecord
  2
HIDDEN2
 70
      64
  3
CADPAC LINETYPE
 72
      65
 73
       2
 40
51.975
 49
31.185
 74
       0
 49
-20.79
 74
       0
  0
LTYPE
  5
20
100
AcDbSymbolTableRecord
100
AcDbLinetypeTableRecord
  2
DASHED
 70
      64
  3
CADPAC LINETYPE
 72
      65
 73
       2
 40
62.37
 49
41.58
 74
       0
 49
-20.79
 74
       0
  0
LTYPE
  5
21
100
AcDbSymbolTableRecord
100
AcDbLinetypeTableRecord
  2
DASHED2
 70
      64
  3
CADPAC LINETYPE
 72
      65
 73
       2
 40
46.7775
 49
31.185
 74
       0
 49
-15.5925
 74
       0
  0
LTYPE
  5
22
100
AcDbSymbolTableRecord
100
AcDbLinetypeTableRecord
  2
DASHEDX2
 70
      64
  3
CADPAC LINETYPE
 72
      65
 73
       2
 40
93.555
 49
62.37
 74
       0
 49
-31.185
 74
       0
  0
LTYPE
  5
23
100
AcDbSymbolTableRecord
100
AcDbLinetypeTableRecord
  2
DOTX2
 70
      64
  3
CADPAC LINETYPE
 72
      65
 73
       2
 40
25.9875
 49
0.0
 74
       0
 49
-25.9875
 74
       0
  0
LTYPE
  5
24
100
AcDbSymbolTableRecord
100
AcDbLinetypeTableRecord
  2
DOT
 70
      64
  3
CADPAC LINETYPE
 72
      65
 73
       2
 40
20.79
 49
0.0
 74
       0
 49
-20.79
 74
       0
  0
LTYPE
  5
25
100
AcDbSymbolTableRecord
100
AcDbLinetypeTableRecord
  2
DOT2
 70
      64
  3
CADPAC LINETYPE
 72
      65
 73
       2
 40
15.5925
 49
0.0
 74
       0
 49
-15.5925
 74
       0
  0
LTYPE
  5
26
100
AcDbSymbolTableRecord
100
AcDbLinetypeTableRecord
  2
CENTERX2
 70
      64
  3
CADPAC LINETYPE
 72
      65
 73
       4
 40
124.74
 49
51.975
 74
       0
 49
-25.9875
 74
       0
 49
20.79
 74
       0
 49
-25.9875
 74
       0
  0
LTYPE
  5
27
100
AcDbSymbolTableRecord
100
AcDbLinetypeTableRecord
  2
CENTER
 70
      64
  3
CADPAC LINETYPE
 72
      65
 73
       4
 40
95.634
 49
41.58
 74
       0
 49
-20.79
 74
       0
 49
12.474
 74
       0
 49
-20.79
 74
       0
  0
LTYPE
  5
28
100
AcDbSymbolTableRecord
100
AcDbLinetypeTableRecord
  2
CENTER2
 70
      64
  3
CADPAC LINETYPE
 72
      65
 73
       4
 40
66.528
 49
31.185
 74
       0
 49
-15.5925
 74
       0
 49
4.158
 74
       0
 49
-15.5925
 74
       0
  0
LTYPE
  5
29
100
AcDbSymbolTableRecord
100
AcDbLinetypeTableRecord
  2
DASHDOTX2
 70
      64
  3
CADPAC LINETYPE
 72
      65
 73
       4
 40
103.95
 49
51.975
 74
       0
 49
-25.9875
 74
       0
 49
0.0
 74
       0
 49
-25.9875
 74
       0
  0
LTYPE
  5
2A
100
AcDbSymbolTableRecord
100
AcDbLinetypeTableRecord
  2
DASHDOT
 70
      64
  3
CADPAC LINETYPE
 72
      65
 73
       4
 40
83.16
 49
41.58
 74
       0
 49
-20.79
 74
       0
 49
0.0
 74
       0
 49
-20.79
 74
       0
  0
LTYPE
  5
2B
100
AcDbSymbolTableRecord
100
AcDbLinetypeTableRecord
  2
DASHDOT2
 70
      64
  3
CADPAC LINETYPE
 72
      65
 73
       4
 40
62.37
 49
31.185
 74
       0
 49
-15.5925
 74
       0
 49
0.0
 74
       0
 49
-15.5925
 74
       0
  0
LTYPE
  5
2C
100
AcDbSymbolTableRecord
100
AcDbLinetypeTableRecord
  2
DIVIDEX2
 70
      64
  3
CADPAC LINETYPE
 72
      65
 73
       6
 40
129.9375
 49
51.975
 74
       0
 49
-25.9875
 74
       0
 49
0.0
 74
       0
 49
-25.9875
 74
       0
 49
0.0
 74
       0
 49
-25.9875
 74
       0
  0
LTYPE
  5
2D
100
AcDbSymbolTableRecord
100
AcDbLinetypeTableRecord
  2
DIVIDE
 70
      64
  3
CADPAC LINETYPE
 72
      65
 73
       6
 40
103.95
 49
41.58
 74
       0
 49
-20.79
 74
       0
 49
0.0
 74
       0
 49
-20.79
 74
       0
 49
0.0
 74
       0
 49
-20.79
 74
       0
  0
LTYPE
  5
2E
100
AcDbSymbolTableRecord
100
AcDbLinetypeTableRecord
  2
DIVIDE2
 70
      64
  3
CADPAC LINETYPE
 72
      65
 73
       6
 40
77.9625
 49
31.185
 74
       0
 49
-15.5925
 74
       0
 49
0.0
 74
       0
 49
-15.5925
 74
       0
 49
0.0
 74
       0
 49
-15.5925
 74
       0
  0
LTYPE
  5
2F
100
AcDbSymbolTableRecord
100
AcDbLinetypeTableRecord
  2
BORDERX2
 70
      64
  3
CADPAC LINETYPE
 72
      65
 73
       6
 40
181.9125
 49
51.975
 74
       0
 49
-25.9875
 74
       0
 49
51.975
 74
       0
 49
-25.9875
 74
       0
 49
0.0
 74
       0
 49
-25.9875
 74
       0
  0
LTYPE
  5
30
100
AcDbSymbolTableRecord
100
AcDbLinetypeTableRecord
  2
BORDER
 70
      64
  3
CADPAC LINETYPE
 72
      65
 73
       6
 40
145.53
 49
41.58
 74
       0
 49
-20.79
 74
       0
 49
41.58
 74
       0
 49
-20.79
 74
       0
 49
0.0
 74
       0
 49
-20.79
 74
       0
  0
LTYPE
  5
31
100
AcDbSymbolTableRecord
100
AcDbLinetypeTableRecord
  2
BORDER2
 70
      64
  3
CADPAC LINETYPE
 72
      65
 73
       6
 40
109.1475
 49
31.185
 74
       0
 49
-15.5925
 74
       0
 49
31.185
 74
       0
 49
-15.5925
 74
       0
 49
0.0
 74
       0
 49
-15.5925
 74
       0
  0
LTYPE
  5
32
100
AcDbSymbolTableRecord
100
AcDbLinetypeTableRecord
  2
PHANTOMX2
 70
      64
  3
CADPAC LINETYPE
 72
      65
 73
       6
 40
155.925
 49
51.975
 74
       0
 49
-20.79
 74
       0
 49
20.79
 74
       0
 49
-20.79
 74
       0
 49
20.79
 74
       0
 49
-20.79
 74
       0
  0
LTYPE
  5
33
100
AcDbSymbolTableRecord
100
AcDbLinetypeTableRecord
  2
PHANTOM
 70
      64
  3
CADPAC LINETYPE
 72
      65
 73
       6
 40
128.898
 49
41.58
 74
       0
 49
-20.79
 74
       0
 49
12.474
 74
       0
 49
-20.79
 74
       0
 49
12.474
 74
       0
 49
-20.79
 74
       0
  0
LTYPE
  5
34
100
AcDbSymbolTableRecord
100
AcDbLinetypeTableRecord
  2
PHANTOM2
 70
      64
  3
CADPAC LINETYPE
 72
      65
 73
       6
 40
110.187
 49
31.185
 74
       0
 49
-20.79
 74
       0
 49
8.316
 74
       0
 49
-20.79
 74
       0
 49
8.316
 74
       0
 49
-20.79
 74
       0
  0
LTYPE
  5
35
100
AcDbSymbolTableRecord
100
AcDbLinetypeTableRecord
  2
ACAD_ISO06W100
 70
      64
  3
CADPAC LINETYPE
 72
      65
 73
       8
 40
140.3325
 49
51.975
 74
       0
 49
-25.9875
 74
       0
 49
0.0
 74
       0
 49
-20.79
 74
       0
 49
0.0
 74
       0
 49
-20.79
 74
       0
 49
0.0
 74
       0
 49
-20.79
 74
       0
  0
LTYPE
  5
36
100
AcDbSymbolTableRecord
100
AcDbLinetypeTableRecord
  2
ACAD_ISO13W100
 70
      64
  3
CADPAC LINETYPE
 72
      65
 73
       8
 40
166.32
 49
41.58
 74
       0
 49
-20.79
 74
       0
 49
41.58
 74
       0
 49
-20.79
 74
       0
 49
0.0
 74
       0
 49
-20.79
 74
       0
 49
0.0
 74
       0
 49
-20.79
 74
       0
  0
LTYPE
  5
37
100
AcDbSymbolTableRecord
100
AcDbLinetypeTableRecord
  2
ACAD_ISO14W100
 70
      64
  3
CADPAC LINETYPE
 72
      65
 73
       8
 40
124.74
 49
41.58
 74
       0
 49
-20.79
 74
       0
 49
0.0
 74
       0
 49
-20.79
 74
       0
 49
0.0
 74
       0
 49
-20.79
 74
       0
 49
0.0
 74
       0
 49
-20.79
 74
       0
  0
ENDTAB
  0
TABLE
  2
LAYER
  5
2
100
AcDbSymbolTable
 70
       5
  0
LAYER
  5
14
100
AcDbSymbolTableRecord
100
AcDbLayerTableRecord
  2
0
 70
       0
 62
       7
  6
CONTINUOUS
  0
LAYER
  5
38
100
AcDbSymbolTableRecord
100
AcDbLayerTableRecord
  2
LAYER0001
 70
       0
 62
       7
  6
CONTINUOUS
  0
LAYER
  5
39
100
AcDbSymbolTableRecord
100
AcDbLayerTableRecord
  2
LAYER0240
 70
       0
 62
       7
  6
CONTINUOUS
  0
LAYER
  5
3A
100
AcDbSymbolTableRecord
100
AcDbLayerTableRecord
  2
LAYER0256
 70
       0
 62
       7
  6
CONTINUOUS
  0
LAYER
  5
3B
100
AcDbSymbolTableRecord
100
AcDbLayerTableRecord
  2
ZUWAKU
 70
       0
 62
       7
  6
CONTINUOUS
  0
ENDTAB
  0
TABLE
  2
STYLE
  5
3
100
AcDbSymbolTable
 70
       2
  0
STYLE
  5
17
100
AcDbSymbolTableRecord
100
AcDbTextStyleTableRecord
  2
STANDARD
 70
       0
 40
0.0
 41
0.8
 50
0.0
 71
       0
 42
23.8
  3
txt.shx
  4
bigfont.shx
  0
STYLE
  5
3C
100
AcDbSymbolTableRecord
100
AcDbTextStyleTableRecord
  2
FDASTYLE1
 70
       4
 40
0.0
 41
0.8
 50
0.0
 71
       0
 42
21.0
  3
txt.shx
  4
bigfont.shx
  0
ENDTAB
  0
TABLE
  2
VIEW
  5
5
100
AcDbSymbolTable
 70
       1
  0
VIEW
  5
3D
100
AcDbSymbolTableRecord
100
AcDbViewTableRecord
  2
QQQQ
 70
       0
 40
2374.645
 10
0.91906917
 20
0.0
 41
1701.87885713
 11
0.0
 21
0.0
 31
1.0
 12
100.0
 22
100.0
 32
0.0
 42
50.0
 43
0.0
 44
0.0
 50
0.0
 71
       0
  0
ENDTAB
  0
TABLE
  2
UCS
  5
6
100
AcDbSymbolTable
 70
       0
  0
ENDTAB
  0
TABLE
  2
APPID
  5
8
100
AcDbSymbolTable
 70
       1
  0
APPID
  5
16
100
AcDbSymbolTableRecord
100
AcDbRegAppTableRecord
  2
ACAD
 70
       0
  0
ENDTAB
  0
TABLE
  2
DIMSTYLE
  5
9
100
AcDbSymbolTable
 70
       1
  0
DIMSTYLE
105
18
100
AcDbSymbolTableRecord
100
AcDbDimStyleTableRecord
  2
STANDARD
 70
       0
  3

  4

  5

  6

  7

 40
1.0
 41
0.18
 42
0.0625
 43
0.38
 44
0.18
 45
0.0
 46
0.0
 47
0.0
 48
0.0
 71
       0
 72
       0
 73
       1
 74
       1
 75
       0
 76
       0
 77
       0
 78
       0
140
0.18
141
0.09
142
0.0
143
25.4
144
1.0
145
0.0
146
1.0
147
0.09
170
       0
171
       2
172
       0
173
       0
174
       0
175
       0
176
       0
177
       0
178
       0
270
       2
271
       4
272
       4
273
       2
274
       2
275
       0
280
       0
281
       0
282
       0
283
       1
284
       0
285
       0
286
       0
287
       0
288
       0
340
17
  0
ENDTAB
  0
TABLE
  2
BLOCK_RECORD
  5
1
100
AcDbSymbolTable
 70
       5
  0
BLOCK_RECORD
  5
A
100
AcDbSymbolTableRecord
100
AcDbBlockTableRecord
  2
*MODEL_SPACE
  0
BLOCK_RECORD
  5
B
100
AcDbSymbolTableRecord
100
AcDbBlockTableRecord
  2
*PAPER_SPACE
  0
BLOCK_RECORD
  5
3E
100
AcDbSymbolTableRecord
100
AcDbBlockTableRecord
  2
GROUP_1
  0
BLOCK_RECORD
  5
3F
100
AcDbSymbolTableRecord
100
AcDbBlockTableRecord
  2
_OPEN30
  0
BLOCK_RECORD
  5
40
100
AcDbSymbolTableRecord
100
AcDbBlockTableRecord
  2
GROUP_2
  0
BLOCK_RECORD
  5
41
100
AcDbSymbolTableRecord
100
AcDbBlockTableRecord
  2
_ORIGIN
  0
BLOCK_RECORD
  5
42
100
AcDbSymbolTableRecord
100
AcDbBlockTableRecord
  2
_DOT
  0
ENDTAB
  0
ENDSEC
  0
SECTION
  2
BLOCKS
  0
BLOCK
  5
D
100
AcDbEntity
  8
0
100
AcDbBlockBegin
  2
*MODEL_SPACE
 70
       0
 10
0.0
 20
0.0
 30
0.0
  3
*MODEL_SPACE
  1

  0
ENDBLK
  5
E
100
AcDbEntity
  8
0
100
AcDbBlockEnd
  0
BLOCK
  5
F
100
AcDbEntity
 67
       1
  8
0
100
AcDbBlockBegin
  2
*PAPER_SPACE
 70
       0
 10
0.0
 20
0.0
 30
0.0
  3
*PAPER_SPACE
  1

  0
ENDBLK
  5
10
100
AcDbEntity
 67
       1
  8
0
100
AcDbBlockEnd
  0
BLOCK
  5
43
100
AcDbEntity
  8
0
100
AcDbBlockBegin
  2
GROUP_1
 70
       0
 10
0.0
 20
0.0
 30
0.0
  3
GROUP_1
  1

  0
TEXT
  5
44
100
AcDbEntity
  8
ZUWAKU
 62
       4
100
AcDbText
 10
194.8125
 20
-748.09380306
 30
0.0
 40
28.0
  1
　ナベタッピンネジ
 41
0.8
 72
       5
 11
396.4125
 21
-748.09380306
 31
0.0
100
AcDbText
  0
CIRCLE
  5
45
100
AcDbEntity
  8
ZUWAKU
  6
CONTINUOUS
 62
       4
100
AcDbCircle
 10
206.54869397
 20
-734.09380306
 30
0.0
 40
11.73619397
  0
LINE
  5
46
100
AcDbEntity
  8
ZUWAKU
  6
CONTINUOUS
 62
       4
100
AcDbLine
 10
206.54869397
 20
-725.1386871
 30
0.0
 11
206.54869397
 21
-743.04891901
 31
0.0
  0
LINE
  5
47
100
AcDbEntity
  8
ZUWAKU
  6
CONTINUOUS
 62
       4
100
AcDbLine
 10
215.50380992
 20
-734.09380306
 30
0.0
 11
197.59357801
 21
-734.09380306
 31
0.0
  0
ENDBLK
  5
48
100
AcDbEntity
  8
0
100
AcDbBlockEnd
  0
BLOCK
  5
49
100
AcDbEntity
  8
0
100
AcDbBlockBegin
  2
_OPEN30
 70
       0
 10
0.0
 20
0.0
 30
0.0
  3
_OPEN30
  1

  0
LINE
  5
4A
100
AcDbEntity
  8
LAYER0001
  6
CONTINUOUS
 62
       0
100
AcDbLine
 10
0.0
 20
0.0
 30
0.0
 11
-0.96592583
 21
0.25881905
 31
0.0
  0
LINE
  5
4B
100
AcDbEntity
  8
LAYER0001
  6
CONTINUOUS
 62
       0
100
AcDbLine
 10
0.0
 20
0.0
 30
0.0
 11
-0.96592583
 21
-0.25881905
 31
0.0
  0
ENDBLK
  5
4C
100
AcDbEntity
  8
0
100
AcDbBlockEnd
  0
BLOCK
  5
4D
100
AcDbEntity
  8
0
100
AcDbBlockBegin
  2
GROUP_2
 70
       0
 10
0.0
 20
0.0
 30
0.0
  3
GROUP_2
  1

  0
LINE
  5
4E
100
AcDbEntity
  8
LAYER0001
  6
CONTINUOUS
 62
       9
100
AcDbLine
 10
-405.1868932
 20
638.18567961
 30
0.0
 11
-475.1868932
 21
638.18567961
 31
0.0
  0
LINE
  5
4F
100
AcDbEntity
  8
LAYER0001
  6
CONTINUOUS
 62
       9
100
AcDbLine
 10
-405.1868932
 20
651.31067961
 30
0.0
 11
-475.1868932
 21
651.31067961
 31
0.0
  0
LINE
  5
50
100
AcDbEntity
  8
LAYER0001
  6
CONTINUOUS
 62
       9
100
AcDbLine
 10
-468.1868932
 20
638.18567961
 30
0.0
 11
-468.1868932
 21
651.31067961
 31
0.0
  0
LINE
  5
51
100
AcDbEntity
  8
LAYER0001
  6
CONTINUOUS
 62
       9
100
AcDbLine
 10
-405.1868932
 20
655.24817961
 30
0.0
 11
-475.1868932
 21
655.24817961
 31
0.0
  0
LINE
  5
52
100
AcDbEntity
  8
LAYER0001
  6
CONTINUOUS
 62
       9
100
AcDbLine
 10
-468.1868932
 20
651.31067961
 30
0.0
 11
-468.1868932
 21
655.24817961
 31
0.0
  0
INSERT
  5
53
100
AcDbEntity
  8
LAYER0001
  6
CONTINUOUS
 62
       9
100
AcDbBlockReference
  2
_DOT
 10
-468.1868932
 20
651.31067961
 30
0.0
 41
17.5
 42
17.5
 50
270.0
  0
LINE
  5
54
100
AcDbEntity
  8
LAYER0001
  6
CONTINUOUS
 62
       9
100
AcDbLine
 10
-468.1868932
 20
714.00974745
 30
0.0
 11
-468.1868932
 21
655.24817961
 31
0.0
  0
INSERT
  5
55
100
AcDbEntity
  8
LAYER0001
  6
CONTINUOUS
 62
       9
100
AcDbBlockReference
  2
_OPEN30
 10
-468.1868932
 20
655.24817961
 30
0.0
 41
21.00001951
 42
20.99992492
 50
270.0
  0
LINE
  5
56
100
AcDbEntity
  8
LAYER0001
  6
CONTINUOUS
 62
       9
100
AcDbLine
 10
-468.1868932
 20
574.13449367
 30
0.0
 11
-468.1868932
 21
638.18567961
 31
0.0
  0
INSERT
  5
57
100
AcDbEntity
  8
LAYER0001
  6
CONTINUOUS
 62
       9
100
AcDbBlockReference
  2
_OPEN30
 10
-468.1868932
 20
638.18567961
 30
0.0
 41
21.00001951
 42
20.99992492
 50
90.0
  0
TEXT
  5
58
100
AcDbEntity
  8
LAYER0001
 62
       7
100
AcDbText
 10
-475.1868932
 20
565.33755675
 30
0.0
 40
28.0
  1
13
 50
90.0
 41
0.8
 72
       5
 11
-475.1868932
 21
610.13755675
 31
0.0
100
AcDbText
  0
TEXT
  5
59
100
AcDbEntity
  8
LAYER0001
 62
       7
100
AcDbText
 10
-475.1868932
 20
684.60974745
 30
0.0
 40
28.0
  1
3
 50
90.0
 41
0.8
 72
       5
 11
-475.1868932
 21
707.00974745
 31
0.0
100
AcDbText
  0
ENDBLK
  5
5A
100
AcDbEntity
  8
0
100
AcDbBlockEnd
  0
BLOCK
  5
5B
100
AcDbEntity
  8
0
100
AcDbBlockBegin
  2
_ORIGIN
 70
       0
 10
0.0
 20
0.0
 30
0.0
  3
_ORIGIN
  1

  0
CIRCLE
  5
5C
100
AcDbEntity
  8
LAYER0001
  6
CONTINUOUS
 62
       0
100
AcDbCircle
 10
0.0
 20
0.0
 30
0.0
 40
0.5
  0
ENDBLK
  5
5D
100
AcDbEntity
  8
0
100
AcDbBlockEnd
  0
BLOCK
  5
5E
100
AcDbEntity
  8
0
100
AcDbBlockBegin
  2
_DOT
 70
       0
 10
0.0
 20
0.0
 30
0.0
  3
_DOT
  1

  0
HATCH
  5
5F
100
AcDbEntity
  8
LAYER0001
  6
CONTINUOUS
 62
       0
100
AcDbHatch
 10
0.0
 20
0.0
 30
0.0
210
0.0
220
0.0
230
1.0
  2
SOLID
 70
       1
 71
       1
 91
        1
 92
        1
 93
        1
 72
       2
 10
0.0
 20
0.0
 40
0.5
 50
0.0
 51
360.0
 73
       1
 97
        0
 75
       0
 76
       1
 98
        0
  0
ENDBLK
  5
60
100
AcDbEntity
  8
0
100
AcDbBlockEnd
  0
ENDSEC
  0
SECTION
  2
ENTITIES
  0
LINE
  5
61
100
AcDbEntity
  8
0
  6
CONTINUOUS
 62
       3
100
AcDbLine
 10
-100.2493932
 20
-549.18932039
 30
0.0
 11
-100.2493932
 21
430.81067961
 31
0.0
  0
LINE
  5
62
100
AcDbEntity
  8
0
  6
CONTINUOUS
 62
       3
100
AcDbLine
 10
-398.1868932
 20
-549.18932039
 30
0.0
 11
-100.2493932
 21
-549.18932039
 31
0.0
  0
LINE
  5
63
100
AcDbEntity
  8
0
  6
CONTINUOUS
 62
       3
100
AcDbLine
 10
-398.1868932
 20
-549.18932039
 30
0.0
 11
-398.1868932
 21
430.81067961
 31
0.0
  0
LINE
  5
64
100
AcDbEntity
  8
0
  6
CONTINUOUS
 62
       3
100
AcDbLine
 10
-100.2493932
 20
430.81067961
 30
0.0
 11
-398.1868932
 21
430.81067961
 31
0.0
  0
LINE
  5
65
100
AcDbEntity
  8
0
  6
CONTINUOUS
 62
       3
100
AcDbLine
 10
-134.8118932
 20
360.81067961
 30
0.0
 11
-134.8118932
 21
201.56067961
 31
0.0
  0
LINE
  5
66
100
AcDbEntity
  8
0
  6
CONTINUOUS
 62
       3
100
AcDbLine
 10
-363.6243932
 20
360.81067961
 30
0.0
 11
-363.6243932
 21
201.56067961
 31
0.0
  0
LINE
  5
67
100
AcDbEntity
  8
0
  6
CONTINUOUS
 62
       3
100
AcDbLine
 10
-154.9368932
 20
380.93567961
 30
0.0
 11
-343.4993932
 21
380.93567961
 31
0.0
  0
LINE
  5
68
100
AcDbEntity
  8
0
  6
CONTINUOUS
 62
       3
100
AcDbLine
 10
317.5631068
 20
-531.68932039
 30
0.0
 11
317.5631068
 21
413.31067961
 31
0.0
  0
LINE
  5
69
100
AcDbEntity
  8
0
  6
CONTINUOUS
 62
       3
100
AcDbLine
 10
189.3756068
 20
-531.68932039
 30
0.0
 11
317.5631068
 21
-531.68932039
 31
0.0
  0
LINE
  5
6A
100
AcDbEntity
  8
0
  6
CONTINUOUS
 62
       3
100
AcDbLine
 10
173.1881068
 20
-549.18932039
 30
0.0
 11
173.1881068
 21
430.81067961
 31
0.0
  0
LINE
  5
6B
100
AcDbEntity
  8
0
  6
CONTINUOUS
 62
       3
100
AcDbLine
 10
189.3756068
 20
413.31067961
 30
0.0
 11
317.5631068
 21
413.31067961
 31
0.0
  0
LINE
  5
6C
100
AcDbEntity
  8
0
  6
CONTINUOUS
 62
       3
100
AcDbLine
 10
171.0006068
 20
103.56067961
 30
0.0
 11
173.1881068
 21
103.56067961
 31
0.0
  0
LINE
  5
6D
100
AcDbEntity
  8
0
  6
CONTINUOUS
 62
       3
100
AcDbLine
 10
173.1881068
 20
430.81067961
 30
0.0
 11
189.3756068
 21
430.81067961
 31
0.0
  0
LINE
  5
6E
100
AcDbEntity
  8
0
  6
CONTINUOUS
 62
       3
100
AcDbLine
 10
173.1881068
 20
-549.18932039
 30
0.0
 11
189.3756068
 21
-549.18932039
 31
0.0
  0
LINE
  5
6F
100
AcDbEntity
  8
0
  6
CONTINUOUS
 62
       3
100
AcDbLine
 10
171.0006068
 20
123.68567961
 30
0.0
 11
173.1881068
 21
123.68567961
 31
0.0
  0
LINE
  5
70
100
AcDbEntity
  8
0
  6
CONTINUOUS
 62
       3
100
AcDbLine
 10
-345.2493932
 20
635.99817961
 30
0.0
 11
-345.2493932
 21
638.18567961
 31
0.0
  0
LINE
  5
71
100
AcDbEntity
  8
0
  6
CONTINUOUS
 62
       3
100
AcDbLine
 10
-381.1243932
 20
780.37317961
 30
0.0
 11
-117.3118932
 21
780.37317961
 31
0.0
  0
LINE
  5
72
100
AcDbEntity
  8
0
  6
CONTINUOUS
 62
       3
100
AcDbLine
 10
-381.1243932
 20
780.37317961
 30
0.0
 11
-381.1243932
 21
655.68567961
 31
0.0
  0
LINE
  5
73
100
AcDbEntity
  8
0
  6
CONTINUOUS
 62
       3
100
AcDbLine
 10
-398.1868932
 20
638.18567961
 30
0.0
 11
-100.2493932
 21
638.18567961
 31
0.0
  0
LINE
  5
74
100
AcDbEntity
  8
0
  6
CONTINUOUS
 62
       3
100
AcDbLine
 10
-117.3118932
 20
780.37317961
 30
0.0
 11
-117.3118932
 21
655.68567961
 31
0.0
  0
LINE
  5
75
100
AcDbEntity
  8
0
  6
CONTINUOUS
 62
       3
100
AcDbLine
 10
-100.2493932
 20
638.18567961
 30
0.0
 11
-100.2493932
 21
655.24817961
 31
0.0
  0
LINE
  5
76
100
AcDbEntity
  8
0
  6
CONTINUOUS
 62
       3
100
AcDbLine
 10
-365.3743932
 20
638.18567961
 30
0.0
 11
-365.3743932
 21
635.99817961
 31
0.0
  0
LINE
  5
77
100
AcDbEntity
  8
0
  6
CONTINUOUS
 62
       3
100
AcDbLine
 10
171.0006068
 20
123.68567961
 30
0.0
 11
171.0006068
 21
103.56067961
 31
0.0
  0
LINE
  5
78
100
AcDbEntity
  8
0
  6
CONTINUOUS
 62
       3
100
AcDbLine
 10
245.8131068
 20
65.06067961
 30
0.0
 11
245.8131068
 21
71.18567961
 31
0.0
  0
LINE
  5
79
100
AcDbEntity
  8
0
  6
CONTINUOUS
 62
       3
100
AcDbLine
 10
240.5631068
 20
-479.18932039
 30
0.0
 11
240.5631068
 21
-484.87682039
 31
0.0
  0
LINE
  5
7A
100
AcDbEntity
  8
0
  6
CONTINUOUS
 62
       3
100
AcDbLine
 10
-345.2493932
 20
635.99817961
 30
0.0
 11
-365.3743932
 21
635.99817961
 31
0.0
  0
LINE
  5
7B
100
AcDbEntity
  8
0
  6
CONTINUOUS
 62
       3
100
AcDbLine
 10
-398.1868932
 20
638.18567961
 30
0.0
 11
-398.1868932
 21
655.24817961
 31
0.0
  0
LINE
  5
7C
100
AcDbEntity
  8
0
  6
CONTINUOUS
 62
       3
100
AcDbLine
 10
240.5631068
 20
70.74817961
 30
0.0
 11
240.5631068
 21
65.06067961
 31
0.0
  0
LINE
  5
7D
100
AcDbEntity
  8
0
  6
CONTINUOUS
 62
       3
100
AcDbLine
 10
-398.1868932
 20
651.31067961
 30
0.0
 11
-100.2493932
 21
651.31067961
 31
0.0
  0
LINE
  5
7E
100
AcDbEntity
  8
0
  6
CONTINUOUS
 62
       3
100
AcDbLine
 10
245.8131068
 20
-484.87682039
 30
0.0
 11
245.8131068
 21
-478.75182039
 31
0.0
  0
LINE
  5
7F
100
AcDbEntity
  8
0
  6
CONTINUOUS
 62
       3
100
AcDbLine
 10
-398.1868932
 20
655.24817961
 30
0.0
 11
-100.2493932
 21
655.24817961
 31
0.0
  0
ARC
  5
80
100
AcDbEntity
  8
0
  6
CONTINUOUS
 62
       3
100
AcDbCircle
 10
243.1881068
 20
-478.75182039
 30
0.0
 40
2.625
100
AcDbArc
 50
354.8
 51
545.2
  0
CIRCLE
  5
81
100
AcDbEntity
  8
0
  6
CONTINUOUS
 62
       3
100
AcDbCircle
 10
-355.3118932
 20
109.24817961
 30
0.0
 40
4.8125
  0
ARC
  5
82
100
AcDbEntity
  8
0
  6
CONTINUOUS
 62
       3
100
AcDbCircle
 10
-343.4993932
 20
201.56067961
 30
0.0
 40
20.125
100
AcDbArc
 50
180.0
 51
243.4
  0
ARC
  5
83
100
AcDbEntity
  8
0
  6
CONTINUOUS
 62
       3
100
AcDbCircle
 10
-248.9993932
 20
600.99817961
 30
0.0
 40
430.0625
100
AcDbArc
 50
256.1
 51
283.8
  0
ARC
  5
84
100
AcDbEntity
  8
0
  6
CONTINUOUS
 62
       3
100
AcDbCircle
 10
-154.9368932
 20
360.81067961
 30
0.0
 40
20.125
100
AcDbArc
 50
360.0
 51
450.0
  0
ARC
  5
85
100
AcDbEntity
  8
0
  6
CONTINUOUS
 62
       3
100
AcDbCircle
 10
-343.4993932
 20
360.81067961
 30
0.0
 40
20.125
100
AcDbArc
 50
90.0
 51
180.0
  0
ARC
  5
86
100
AcDbEntity
  8
0
  6
CONTINUOUS
 62
       3
100
AcDbCircle
 10
-154.9368932
 20
201.56067961
 30
0.0
 40
20.125
100
AcDbArc
 50
296.0
 51
360.0
  0
CIRCLE
  5
87
100
AcDbEntity
  8
0
  6
CONTINUOUS
 62
       3
100
AcDbCircle
 10
-355.3118932
 20
113.62317961
 30
0.0
 40
9.1875
  0
CIRCLE
  5
88
100
AcDbEntity
  8
0
  6
CONTINUOUS
 62
       3
100
AcDbCircle
 10
-355.3118932
 20
113.62317961
 30
0.0
 40
10.0625
  0
ARC
  5
89
100
AcDbEntity
  8
0
  6
CONTINUOUS
 62
       3
100
AcDbCircle
 10
243.1881068
 20
-484.87682039
 30
0.0
 40
2.625
100
AcDbArc
 50
174.8
 51
360.0
  0
ARC
  5
8A
100
AcDbEntity
  8
0
  6
CONTINUOUS
 62
       3
100
AcDbCircle
 10
243.1881068
 20
65.06067961
 30
0.0
 40
2.625
100
AcDbArc
 50
174.8
 51
360.0
  0
ARC
  5
8B
100
AcDbEntity
  8
0
  6
CONTINUOUS
 62
       3
100
AcDbCircle
 10
243.1881068
 20
71.18567961
 30
0.0
 40
2.625
100
AcDbArc
 50
354.8
 51
545.2
  0
LINE
  5
8C
100
AcDbEntity
  8
0
  6
CONTINUOUS
 62
       3
100
AcDbLine
 10
186.3131068
 20
-549.18932039
 30
0.0
 11
186.3131068
 21
430.81067961
 31
0.0
  0
LINE
  5
8D
100
AcDbEntity
  8
0
  6
CONTINUOUS
 62
       3
100
AcDbLine
 10
189.3756068
 20
-549.18932039
 30
0.0
 11
189.3756068
 21
430.81067961
 31
0.0
  0
LINE
  5
8E
100
AcDbEntity
  8
0
  6
CENTER
 62
       9
100
AcDbLine
 10
-248.9993932
 20
462.31067961
 30
0.0
 11
-248.9993932
 21
-577.18932039
 31
0.0
  0
LINE
  5
8F
100
AcDbEntity
  8
0
  6
CENTER
 62
       9
100
AcDbLine
 10
-248.9993932
 20
814.93567961
 30
0.0
 11
-248.9993932
 21
609.31067961
 31
0.0
  0
LINE
  5
90
100
AcDbEntity
  8
0
  6
CENTER
 62
       9
100
AcDbLine
 10
-355.3118932
 20
88.68567961
 30
0.0
 11
-355.3118932
 21
135.49817961
 31
0.0
  0
LINE
  5
91
100
AcDbEntity
  8
0
  6
CENTER
 62
       9
100
AcDbLine
 10
-376.3118932
 20
113.62317961
 30
0.0
 11
-333.8743932
 21
113.62317961
 31
0.0
  0
LINE
  5
92
100
AcDbEntity
  8
0
  6
CENTER
 62
       9
100
AcDbLine
 10
-100.2493932
 20
707.74817961
 30
0.0
 11
-136.5618932
 21
707.74817961
 31
0.0
  0
LINE
  5
93
100
AcDbEntity
  8
0
  6
CENTER
 62
       9
100
AcDbLine
 10
-355.3118932
 20
610.18567961
 30
0.0
 11
-355.3118932
 21
675.81067961
 31
0.0
  0
LINE
  5
94
100
AcDbEntity
  8
0
  6
CENTER
 62
       9
100
AcDbLine
 10
146.9381068
 20
113.62317961
 30
0.0
 11
216.5006068
 21
113.62317961
 31
0.0
  0
LINE
  5
95
100
AcDbEntity
  8
0
  6
CENTER
 62
       9
100
AcDbLine
 10
-398.1868932
 20
707.74817961
 30
0.0
 11
-365.8118932
 21
707.74817961
 31
0.0
  0
LINE
  5
96
100
AcDbEntity
  8
0
  6
CENTER
 62
       9
100
AcDbLine
 10
243.1881068
 20
-507.18932039
 30
0.0
 11
243.1881068
 21
-460.37682039
 31
0.0
  0
LINE
  5
97
100
AcDbEntity
  8
0
  6
CENTER
 62
       9
100
AcDbLine
 10
261.5631068
 20
-481.81432039
 30
0.0
 11
217.8131068
 21
-481.81432039
 31
0.0
  0
LINE
  5
98
100
AcDbEntity
  8
0
  6
CENTER
 62
       9
100
AcDbLine
 10
-66.1243932
 20
68.12317961
 30
0.0
 11
-113.3743932
 21
68.12317961
 31
0.0
  0
LINE
  5
99
100
AcDbEntity
  8
0
  6
CENTER
 62
       9
100
AcDbLine
 10
-67.4368932
 20
-481.81432039
 30
0.0
 11
-113.8118932
 21
-481.81432039
 31
0.0
  0
LINE
  5
9A
100
AcDbEntity
  8
0
  6
CENTER
 62
       9
100
AcDbLine
 10
-387.2493932
 20
-481.81432039
 30
0.0
 11
-431.8743932
 21
-481.81432039
 31
0.0
  0
LINE
  5
9B
100
AcDbEntity
  8
0
  6
CENTER
 62
       9
100
AcDbLine
 10
-387.6868932
 20
68.12317961
 30
0.0
 11
-435.8118932
 21
68.12317961
 31
0.0
  0
LINE
  5
9C
100
AcDbEntity
  8
0
  6
CENTER
 62
       9
100
AcDbLine
 10
243.1881068
 20
36.18567961
 30
0.0
 11
243.1881068
 21
101.81067961
 31
0.0
  0
LINE
  5
9D
100
AcDbEntity
  8
0
  6
CENTER
 62
       9
100
AcDbLine
 10
261.5631068
 20
68.12317961
 30
0.0
 11
217.8131068
 21
68.12317961
 31
0.0
  0
LINE
  5
9E
100
AcDbEntity
  8
0
  6
DIVIDE
 62
       1
100
AcDbLine
 10
-397.81307181
 20
431.03797637
 30
0.0
 11
-398.5607146
 21
430.58338285
 31
0.0
  0
LINE
  5
9F
100
AcDbEntity
  8
0
  6
DIVIDE
 62
       1
100
AcDbLine
 10
-397.81307181
 20
431.03797637
 30
0.0
 11
-398.5607146
 21
430.58338285
 31
0.0
  0
LINE
  5
A0
100
AcDbEntity
  8
0
  6
DIVIDE
 62
       1
100
AcDbLine
 10
-397.81307181
 20
-549.41661715
 30
0.0
 11
-398.5607146
 21
-548.96202363
 31
0.0
  0
LINE
  5
A1
100
AcDbEntity
  8
ZUWAKU
  6
CONTINUOUS
 62
      32
100
AcDbLine
 10
-395.4625
 20
-969.90630306
 30
0.0
 11
-391.525
 21
-958.96880306
 31
0.0
  0
LINE
  5
A2
100
AcDbEntity
  8
ZUWAKU
  6
CONTINUOUS
 62
      32
100
AcDbLine
 10
-424.6
 20
-969.90630306
 30
0.0
 11
-418.475
 21
-953.28130306
 31
0.0
  0
LINE
  5
A3
100
AcDbEntity
  8
ZUWAKU
  6
CONTINUOUS
 62
      32
100
AcDbLine
 10
-430.2875
 20
-947.15630306
 30
0.0
 11
-432.475
 21
-953.28130306
 31
0.0
  0
LINE
  5
A4
100
AcDbEntity
  8
ZUWAKU
  6
CONTINUOUS
 62
      32
100
AcDbLine
 10
-410.1625
 20
-969.90630306
 30
0.0
 11
-403.6
 21
-950.65630306
 31
0.0
  0
LINE
  5
A5
100
AcDbEntity
  8
ZUWAKU
  6
CONTINUOUS
 62
      32
100
AcDbLine
 10
-318.375
 20
-969.90630306
 30
0.0
 11
-325.8125
 21
-957.65630306
 31
0.0
  0
LINE
  5
A6
100
AcDbEntity
  8
ZUWAKU
  6
CONTINUOUS
 62
      32
100
AcDbLine
 10
-430.2875
 20
-947.15630306
 30
0.0
 11
-421.975
 21
-947.15630306
 31
0.0
  0
LINE
  5
A7
100
AcDbEntity
  8
ZUWAKU
  6
CONTINUOUS
 62
      32
100
AcDbLine
 10
-385.8375
 20
-943.21880306
 30
0.0
 11
-371.4
 21
-943.21880306
 31
0.0
  0
LINE
  5
A8
100
AcDbEntity
  8
ZUWAKU
  6
CONTINUOUS
 62
      32
100
AcDbLine
 10
-354.775
 20
-941.90630306
 30
0.0
 11
-350.4
 21
-941.90630306
 31
0.0
  0
LINE
  5
A9
100
AcDbEntity
  8
ZUWAKU
  6
CONTINUOUS
 62
      32
100
AcDbLine
 10
-382.775
 20
-935.34380306
 30
0.0
 11
-385.8375
 21
-943.21880306
 31
0.0
  0
LINE
  5
AA
100
AcDbEntity
  8
ZUWAKU
  6
CONTINUOUS
 62
      32
100
AcDbLine
 10
-368.775
 20
-935.34380306
 30
0.0
 11
-371.4
 21
-943.21880306
 31
0.0
  0
LINE
  5
AB
100
AcDbEntity
  8
ZUWAKU
  6
CONTINUOUS
 62
      32
100
AcDbLine
 10
-424.6
 20
-969.90630306
 30
0.0
 11
-410.1625
 21
-969.90630306
 31
0.0
  0
LINE
  5
AC
100
AcDbEntity
  8
ZUWAKU
  6
CONTINUOUS
 62
      32
100
AcDbLine
 10
-402.2875
 20
-935.34380306
 30
0.0
 11
-386.1
 21
-935.34380306
 31
0.0
  0
LINE
  5
AD
100
AcDbEntity
  8
ZUWAKU
  6
CONTINUOUS
 62
      32
100
AcDbLine
 10
-330.92302052
 20
-943.21880306
 30
0.0
 11
-346.375
 21
-943.21880306
 31
0.0
  0
LINE
  5
AE
100
AcDbEntity
  8
ZUWAKU
  6
CONTINUOUS
 62
      32
100
AcDbLine
 10
-314.0
 20
-935.34380306
 30
0.0
 11
-343.75
 21
-935.34380306
 31
0.0
  0
LINE
  5
AF
100
AcDbEntity
  8
ZUWAKU
  6
CONTINUOUS
 62
      32
100
AcDbLine
 10
-432.475
 20
-953.28130306
 30
0.0
 11
-418.475
 21
-953.28130306
 31
0.0
  0
LINE
  5
B0
100
AcDbEntity
  8
ZUWAKU
  6
CONTINUOUS
 62
      32
100
AcDbLine
 10
-395.4625
 20
-969.90630306
 30
0.0
 11
-372.275
 21
-969.90630306
 31
0.0
  0
LINE
  5
B1
100
AcDbEntity
  8
ZUWAKU
  6
CONTINUOUS
 62
      32
100
AcDbLine
 10
-391.525
 20
-958.96880306
 30
0.0
 11
-370.525
 21
-958.96880306
 31
0.0
  0
LINE
  5
B2
100
AcDbEntity
  8
ZUWAKU
  6
CONTINUOUS
 62
      32
100
AcDbLine
 10
-318.375
 20
-969.90630306
 30
0.0
 11
-329.3125
 21
-969.90630306
 31
0.0
  0
LINE
  5
B3
100
AcDbEntity
  8
ZUWAKU
  6
CONTINUOUS
 62
      32
100
AcDbLine
 10
-346.375
 20
-943.21880306
 30
0.0
 11
-343.75
 21
-935.34380306
 31
0.0
  0
LINE
  5
B4
100
AcDbEntity
  8
ZUWAKU
  6
CONTINUOUS
 62
      32
100
AcDbLine
 10
-498.5375
 20
-935.34380306
 30
0.0
 11
-505.975
 21
-956.34380306
 31
0.0
  0
LINE
  5
B5
100
AcDbEntity
  8
ZUWAKU
  6
CONTINUOUS
 62
      32
100
AcDbLine
 10
-505.975
 20
-956.34380306
 30
0.0
 11
-495.9125
 21
-956.34380306
 31
0.0
  0
LINE
  5
B6
100
AcDbEntity
  8
ZUWAKU
  6
CONTINUOUS
 62
      32
100
AcDbLine
 10
-495.9125
 20
-956.34380306
 30
0.0
 11
-488.0375
 21
-935.34380306
 31
0.0
  0
LINE
  5
B7
100
AcDbEntity
  8
ZUWAKU
  6
CONTINUOUS
 62
      32
100
AcDbLine
 10
-488.0375
 20
-935.34380306
 30
0.0
 11
-498.5375
 21
-935.34380306
 31
0.0
  0
LINE
  5
B8
100
AcDbEntity
  8
ZUWAKU
  6
CONTINUOUS
 62
      32
100
AcDbLine
 10
-365.275
 20
-956.34380306
 30
0.0
 11
-360.4625
 21
-952.40630306
 31
0.0
  0
LINE
  5
B9
100
AcDbEntity
  8
ZUWAKU
  6
CONTINUOUS
 62
      32
100
AcDbLine
 10
-360.4625
 20
-952.40630306
 30
0.0
 11
-356.9625
 21
-947.59380306
 31
0.0
  0
LINE
  5
BA
100
AcDbEntity
  8
ZUWAKU
  6
CONTINUOUS
 62
      32
100
AcDbLine
 10
-356.9625
 20
-947.59380306
 30
0.0
 11
-354.775
 21
-941.90630306
 31
0.0
  0
LINE
  5
BB
100
AcDbEntity
  8
ZUWAKU
  6
CONTINUOUS
 62
      32
100
AcDbLine
 10
-462.575
 20
-935.34380306
 30
0.0
 11
-430.6375
 21
-935.34380306
 31
0.0
  0
LINE
  5
BC
100
AcDbEntity
  8
ZUWAKU
  6
CONTINUOUS
 62
      32
100
AcDbLine
 10
-430.6375
 20
-935.34380306
 30
0.0
 11
-433.2625
 21
-943.21880306
 31
0.0
  0
LINE
  5
BD
100
AcDbEntity
  8
ZUWAKU
  6
CONTINUOUS
 62
      32
100
AcDbLine
 10
-430.6375
 20
-935.34380306
 30
0.0
 11
-433.2625
 21
-943.21880306
 31
0.0
  0
LINE
  5
BE
100
AcDbEntity
  8
ZUWAKU
  6
CONTINUOUS
 62
      32
100
AcDbLine
 10
-433.2625
 20
-943.21880306
 30
0.0
 11
-465.2
 21
-943.21880306
 31
0.0
  0
LINE
  5
BF
100
AcDbEntity
  8
ZUWAKU
  6
CONTINUOUS
 62
      32
100
AcDbLine
 10
-465.2
 20
-943.21880306
 30
0.0
 11
-462.575
 21
-935.34380306
 31
0.0
  0
LINE
  5
C0
100
AcDbEntity
  8
ZUWAKU
  6
CONTINUOUS
 62
      32
100
AcDbLine
 10
-465.2
 20
-943.21880306
 30
0.0
 11
-462.575
 21
-935.34380306
 31
0.0
  0
LINE
  5
C1
100
AcDbEntity
  8
ZUWAKU
  6
CONTINUOUS
 62
      32
100
AcDbLine
 10
-430.6375
 20
-935.34380306
 30
0.0
 11
-462.575
 21
-935.34380306
 31
0.0
  0
LINE
  5
C2
100
AcDbEntity
  8
ZUWAKU
  6
CONTINUOUS
 62
      32
100
AcDbLine
 10
-462.575
 20
-935.34380306
 30
0.0
 11
-465.2
 21
-943.21880306
 31
0.0
  0
LINE
  5
C3
100
AcDbEntity
  8
ZUWAKU
  6
CONTINUOUS
 62
      32
100
AcDbLine
 10
-465.2
 20
-943.21880306
 30
0.0
 11
-433.2625
 21
-943.21880306
 31
0.0
  0
LINE
  5
C4
100
AcDbEntity
  8
ZUWAKU
  6
CONTINUOUS
 62
      32
100
AcDbLine
 10
-449.0125
 20
-969.03130306
 30
0.0
 11
-445.5125
 21
-967.28130306
 31
0.0
  0
LINE
  5
C5
100
AcDbEntity
  8
ZUWAKU
  6
CONTINUOUS
 62
      32
100
AcDbLine
 10
-445.5125
 20
-967.28130306
 30
0.0
 11
-442.8875
 21
-964.65630306
 31
0.0
  0
LINE
  5
C6
100
AcDbEntity
  8
ZUWAKU
  6
CONTINUOUS
 62
      32
100
AcDbLine
 10
-442.8875
 20
-964.65630306
 30
0.0
 11
-439.825
 21
-961.59380306
 31
0.0
  0
LINE
  5
C7
100
AcDbEntity
  8
ZUWAKU
  6
CONTINUOUS
 62
      32
100
AcDbLine
 10
-439.825
 20
-961.59380306
 30
0.0
 11
-434.575
 21
-947.15630306
 31
0.0
  0
LINE
  5
C8
100
AcDbEntity
  8
ZUWAKU
  6
CONTINUOUS
 62
      32
100
AcDbLine
 10
-434.575
 20
-947.15630306
 30
0.0
 11
-466.075
 21
-947.15630306
 31
0.0
  0
LINE
  5
C9
100
AcDbEntity
  8
ZUWAKU
  6
CONTINUOUS
 62
      32
100
AcDbLine
 10
-466.075
 20
-947.15630306
 30
0.0
 11
-467.825
 21
-953.28130306
 31
0.0
  0
LINE
  5
CA
100
AcDbEntity
  8
ZUWAKU
  6
CONTINUOUS
 62
      32
100
AcDbLine
 10
-467.825
 20
-953.28130306
 30
0.0
 11
-449.45
 21
-953.28130306
 31
0.0
  0
LINE
  5
CB
100
AcDbEntity
  8
ZUWAKU
  6
CONTINUOUS
 62
      32
100
AcDbLine
 10
-449.45
 20
-953.28130306
 30
0.0
 11
-450.325
 21
-956.34380306
 31
0.0
  0
LINE
  5
CC
100
AcDbEntity
  8
ZUWAKU
  6
CONTINUOUS
 62
      32
100
AcDbLine
 10
-450.325
 20
-956.34380306
 30
0.0
 11
-452.5125
 21
-958.96880306
 31
0.0
  0
LINE
  5
CD
100
AcDbEntity
  8
ZUWAKU
  6
CONTINUOUS
 62
      32
100
AcDbLine
 10
-452.5125
 20
-958.96880306
 30
0.0
 11
-454.7
 21
-961.15630306
 31
0.0
  0
LINE
  5
CE
100
AcDbEntity
  8
ZUWAKU
  6
CONTINUOUS
 62
      32
100
AcDbLine
 10
-454.7
 20
-961.15630306
 30
0.0
 11
-457.7625
 21
-963.34380306
 31
0.0
  0
LINE
  5
CF
100
AcDbEntity
  8
ZUWAKU
  6
CONTINUOUS
 62
      32
100
AcDbLine
 10
-457.7625
 20
-963.34380306
 30
0.0
 11
-472.2
 21
-963.34380306
 31
0.0
  0
LINE
  5
D0
100
AcDbEntity
  8
ZUWAKU
  6
CONTINUOUS
 62
      32
100
AcDbLine
 10
-472.2
 20
-963.34380306
 30
0.0
 11
-474.825
 21
-969.90630306
 31
0.0
  0
LINE
  5
D1
100
AcDbEntity
  8
ZUWAKU
  6
CONTINUOUS
 62
      32
100
AcDbLine
 10
-502.9125
 20
-969.90630306
 30
0.0
 11
-500.725
 21
-963.34380306
 31
0.0
  0
LINE
  5
D2
100
AcDbEntity
  8
ZUWAKU
  6
CONTINUOUS
 62
      32
100
AcDbLine
 10
-500.725
 20
-963.34380306
 30
0.0
 11
-496.7875
 21
-963.34380306
 31
0.0
  0
LINE
  5
D3
100
AcDbEntity
  8
ZUWAKU
  6
CONTINUOUS
 62
      32
100
AcDbLine
 10
-496.7875
 20
-963.34380306
 30
0.0
 11
-493.2875
 21
-962.90630306
 31
0.0
  0
LINE
  5
D4
100
AcDbEntity
  8
ZUWAKU
  6
CONTINUOUS
 62
      32
100
AcDbLine
 10
-493.2875
 20
-962.90630306
 30
0.0
 11
-489.7875
 21
-961.15630306
 31
0.0
  0
LINE
  5
D5
100
AcDbEntity
  8
ZUWAKU
  6
CONTINUOUS
 62
      32
100
AcDbLine
 10
-489.7875
 20
-961.15630306
 30
0.0
 11
-487.6
 21
-957.65630306
 31
0.0
  0
LINE
  5
D6
100
AcDbEntity
  8
ZUWAKU
  6
CONTINUOUS
 62
      32
100
AcDbLine
 10
-487.6
 20
-957.65630306
 30
0.0
 11
-479.2875
 21
-935.34380306
 31
0.0
  0
LINE
  5
D7
100
AcDbEntity
  8
ZUWAKU
  6
CONTINUOUS
 62
      32
100
AcDbLine
 10
-479.2875
 20
-935.34380306
 30
0.0
 11
-467.475
 21
-935.34380306
 31
0.0
  0
LINE
  5
D8
100
AcDbEntity
  8
ZUWAKU
  6
CONTINUOUS
 62
      32
100
AcDbLine
 10
-467.475
 20
-935.34380306
 30
0.0
 11
-476.225
 21
-961.15630306
 31
0.0
  0
LINE
  5
D9
100
AcDbEntity
  8
ZUWAKU
  6
CONTINUOUS
 62
      32
100
AcDbLine
 10
-476.225
 20
-961.15630306
 30
0.0
 11
-479.725
 21
-964.65630306
 31
0.0
  0
LINE
  5
DA
100
AcDbEntity
  8
ZUWAKU
  6
CONTINUOUS
 62
      32
100
AcDbLine
 10
-479.725
 20
-964.65630306
 30
0.0
 11
-483.225
 21
-967.71880306
 31
0.0
  0
LINE
  5
DB
100
AcDbEntity
  8
ZUWAKU
  6
CONTINUOUS
 62
      32
100
AcDbLine
 10
-483.225
 20
-967.71880306
 30
0.0
 11
-487.6
 21
-969.46880306
 31
0.0
  0
LINE
  5
DC
100
AcDbEntity
  8
ZUWAKU
  6
CONTINUOUS
 62
      32
100
AcDbLine
 10
-386.1
 20
-935.34380306
 30
0.0
 11
-388.725
 21
-941.03130306
 31
0.0
  0
LINE
  5
DD
100
AcDbEntity
  8
ZUWAKU
  6
CONTINUOUS
 62
      32
100
AcDbLine
 10
-388.725
 20
-941.03130306
 30
0.0
 11
-393.1
 21
-945.40630306
 31
0.0
  0
LINE
  5
DE
100
AcDbEntity
  8
ZUWAKU
  6
CONTINUOUS
 62
      32
100
AcDbLine
 10
-388.725
 20
-941.03130306
 30
0.0
 11
-393.1
 21
-945.40630306
 31
0.0
  0
LINE
  5
DF
100
AcDbEntity
  8
ZUWAKU
  6
CONTINUOUS
 62
      32
100
AcDbLine
 10
-393.1
 20
-945.40630306
 30
0.0
 11
-397.9125
 21
-948.90630306
 31
0.0
  0
LINE
  5
E0
100
AcDbEntity
  8
ZUWAKU
  6
CONTINUOUS
 62
      32
100
AcDbLine
 10
-397.9125
 20
-948.90630306
 30
0.0
 11
-403.6
 21
-950.65630306
 31
0.0
  0
LINE
  5
E1
100
AcDbEntity
  8
ZUWAKU
  6
CONTINUOUS
 62
      32
100
AcDbLine
 10
-397.9125
 20
-948.90630306
 30
0.0
 11
-403.6
 21
-950.65630306
 31
0.0
  0
LINE
  5
E2
100
AcDbEntity
  8
ZUWAKU
  6
CONTINUOUS
 62
      32
100
AcDbLine
 10
-403.6
 20
-950.65630306
 30
0.0
 11
-410.1625
 21
-969.90630306
 31
0.0
  0
LINE
  5
E3
100
AcDbEntity
  8
ZUWAKU
  6
CONTINUOUS
 62
      32
100
AcDbLine
 10
-410.1625
 20
-969.90630306
 30
0.0
 11
-424.6
 21
-969.90630306
 31
0.0
  0
LINE
  5
E4
100
AcDbEntity
  8
ZUWAKU
  6
CONTINUOUS
 62
      32
100
AcDbLine
 10
-410.1625
 20
-969.90630306
 30
0.0
 11
-424.6
 21
-969.90630306
 31
0.0
  0
LINE
  5
E5
100
AcDbEntity
  8
ZUWAKU
  6
CONTINUOUS
 62
      32
100
AcDbLine
 10
-419.175
 20
-953.28130306
 30
0.0
 11
-432.475
 21
-953.28130306
 31
0.0
  0
LINE
  5
E6
100
AcDbEntity
  8
ZUWAKU
  6
CONTINUOUS
 62
      32
100
AcDbLine
 10
-432.475
 20
-953.28130306
 30
0.0
 11
-430.2875
 21
-947.15630306
 31
0.0
  0
LINE
  5
E7
100
AcDbEntity
  8
ZUWAKU
  6
CONTINUOUS
 62
      32
100
AcDbLine
 10
-424.6
 20
-969.90630306
 30
0.0
 11
-418.475
 21
-953.28130306
 31
0.0
  0
LINE
  5
E8
100
AcDbEntity
  8
ZUWAKU
  6
CONTINUOUS
 62
      32
100
AcDbLine
 10
-424.6
 20
-969.90630306
 30
0.0
 11
-418.475
 21
-953.28130306
 31
0.0
  0
LINE
  5
E9
100
AcDbEntity
  8
ZUWAKU
  6
CONTINUOUS
 62
      32
100
AcDbLine
 10
-430.2875
 20
-947.15630306
 30
0.0
 11
-421.975
 21
-947.15630306
 31
0.0
  0
LINE
  5
EA
100
AcDbEntity
  8
ZUWAKU
  6
CONTINUOUS
 62
      32
100
AcDbLine
 10
-430.2875
 20
-947.15630306
 30
0.0
 11
-421.975
 21
-947.15630306
 31
0.0
  0
LINE
  5
EB
100
AcDbEntity
  8
ZUWAKU
  6
CONTINUOUS
 62
      32
100
AcDbLine
 10
-421.975
 20
-947.15630306
 30
0.0
 11
-416.2875
 21
-946.71880306
 31
0.0
  0
LINE
  5
EC
100
AcDbEntity
  8
ZUWAKU
  6
CONTINUOUS
 62
      32
100
AcDbLine
 10
-421.975
 20
-947.15630306
 30
0.0
 11
-416.2875
 21
-946.71880306
 31
0.0
  0
LINE
  5
ED
100
AcDbEntity
  8
ZUWAKU
  6
CONTINUOUS
 62
      32
100
AcDbLine
 10
-416.2875
 20
-946.71880306
 30
0.0
 11
-410.1625
 21
-944.09380306
 31
0.0
  0
LINE
  5
EE
100
AcDbEntity
  8
ZUWAKU
  6
CONTINUOUS
 62
      32
100
AcDbLine
 10
-416.2875
 20
-946.71880306
 30
0.0
 11
-410.1625
 21
-944.09380306
 31
0.0
  0
LINE
  5
EF
100
AcDbEntity
  8
ZUWAKU
  6
CONTINUOUS
 62
      32
100
AcDbLine
 10
-410.1625
 20
-944.09380306
 30
0.0
 11
-405.7875
 21
-940.15630306
 31
0.0
  0
LINE
  5
F0
100
AcDbEntity
  8
ZUWAKU
  6
CONTINUOUS
 62
      32
100
AcDbLine
 10
-410.1625
 20
-944.09380306
 30
0.0
 11
-405.7875
 21
-940.15630306
 31
0.0
  0
LINE
  5
F1
100
AcDbEntity
  8
ZUWAKU
  6
CONTINUOUS
 62
      32
100
AcDbLine
 10
-488.0375
 20
-935.34380306
 30
0.0
 11
-495.9125
 21
-956.34380306
 31
0.0
  0
LINE
  5
F2
100
AcDbEntity
  8
ZUWAKU
  6
CONTINUOUS
 62
      32
100
AcDbLine
 10
-495.9125
 20
-956.34380306
 30
0.0
 11
-505.975
 21
-956.34380306
 31
0.0
  0
LINE
  5
F3
100
AcDbEntity
  8
ZUWAKU
  6
CONTINUOUS
 62
      32
100
AcDbLine
 10
-495.9125
 20
-956.34380306
 30
0.0
 11
-505.975
 21
-956.34380306
 31
0.0
  0
LINE
  5
F4
100
AcDbEntity
  8
ZUWAKU
  6
CONTINUOUS
 62
      32
100
AcDbLine
 10
-505.975
 20
-956.34380306
 30
0.0
 11
-498.5375
 21
-935.34380306
 31
0.0
  0
LINE
  5
F5
100
AcDbEntity
  8
ZUWAKU
  6
CONTINUOUS
 62
      32
100
AcDbLine
 10
-498.5375
 20
-935.34380306
 30
0.0
 11
-488.0375
 21
-935.34380306
 31
0.0
  0
LINE
  5
F6
100
AcDbEntity
  8
ZUWAKU
  6
CONTINUOUS
 62
      32
100
AcDbLine
 10
-498.5375
 20
-935.34380306
 30
0.0
 11
-488.0375
 21
-935.34380306
 31
0.0
  0
LINE
  5
F7
100
AcDbEntity
  8
ZUWAKU
  6
CONTINUOUS
 62
      32
100
AcDbLine
 10
-343.75
 20
-935.34380306
 30
0.0
 11
-346.375
 21
-943.21880306
 31
0.0
  0
LINE
  5
F8
100
AcDbEntity
  8
ZUWAKU
  6
CONTINUOUS
 62
      32
100
AcDbLine
 10
-346.375
 20
-943.21880306
 30
0.0
 11
-332.375
 21
-943.21880306
 31
0.0
  0
LINE
  5
F9
100
AcDbEntity
  8
ZUWAKU
  6
CONTINUOUS
 62
      32
100
AcDbLine
 10
-346.375
 20
-943.21880306
 30
0.0
 11
-332.375
 21
-943.21880306
 31
0.0
  0
LINE
  5
FA
100
AcDbEntity
  8
ZUWAKU
  6
CONTINUOUS
 62
      32
100
AcDbLine
 10
-356.0
 20
-962.90630306
 30
0.0
 11
-358.625
 21
-970.34380306
 31
0.0
  0
LINE
  5
FB
100
AcDbEntity
  8
ZUWAKU
  6
CONTINUOUS
 62
      32
100
AcDbLine
 10
-356.0
 20
-962.90630306
 30
0.0
 11
-358.625
 21
-970.34380306
 31
0.0
  0
LINE
  5
FC
100
AcDbEntity
  8
ZUWAKU
  6
CONTINUOUS
 62
      32
100
AcDbLine
 10
-358.625
 20
-970.34380306
 30
0.0
 11
-345.5
 21
-968.15630306
 31
0.0
  0
LINE
  5
FD
100
AcDbEntity
  8
ZUWAKU
  6
CONTINUOUS
 62
      32
100
AcDbLine
 10
-345.5
 20
-968.15630306
 30
0.0
 11
-339.375
 21
-966.40630306
 31
0.0
  0
LINE
  5
FE
100
AcDbEntity
  8
ZUWAKU
  6
CONTINUOUS
 62
      32
100
AcDbLine
 10
-345.5
 20
-968.15630306
 30
0.0
 11
-339.375
 21
-966.40630306
 31
0.0
  0
LINE
  5
FF
100
AcDbEntity
  8
ZUWAKU
  6
CONTINUOUS
 62
      32
100
AcDbLine
 10
-332.8125
 20
-964.21880306
 30
0.0
 11
-329.3125
 21
-969.90630306
 31
0.0
  0
LINE
  5
100
100
AcDbEntity
  8
ZUWAKU
  6
CONTINUOUS
 62
      32
100
AcDbLine
 10
-329.3125
 20
-969.90630306
 30
0.0
 11
-318.375
 21
-969.90630306
 31
0.0
  0
LINE
  5
101
100
AcDbEntity
  8
ZUWAKU
  6
CONTINUOUS
 62
      32
100
AcDbLine
 10
-329.3125
 20
-969.90630306
 30
0.0
 11
-318.375
 21
-969.90630306
 31
0.0
  0
LINE
  5
102
100
AcDbEntity
  8
ZUWAKU
  6
CONTINUOUS
 62
      32
100
AcDbLine
 10
-325.8125
 20
-957.65630306
 30
0.0
 11
-321.875
 21
-952.40630306
 31
0.0
  0
LINE
  5
103
100
AcDbEntity
  8
ZUWAKU
  6
CONTINUOUS
 62
      32
100
AcDbLine
 10
-321.875
 20
-952.40630306
 30
0.0
 11
-318.375
 21
-947.15630306
 31
0.0
  0
LINE
  5
104
100
AcDbEntity
  8
ZUWAKU
  6
CONTINUOUS
 62
      32
100
AcDbLine
 10
-318.375
 20
-947.15630306
 30
0.0
 11
-315.75
 21
-941.46880306
 31
0.0
  0
LINE
  5
105
100
AcDbEntity
  8
ZUWAKU
  6
CONTINUOUS
 62
      32
100
AcDbLine
 10
-315.75
 20
-941.46880306
 30
0.0
 11
-314.0
 21
-935.34380306
 31
0.0
  0
LINE
  5
106
100
AcDbEntity
  8
ZUWAKU
  6
CONTINUOUS
 62
      32
100
AcDbLine
 10
-315.75
 20
-941.46880306
 30
0.0
 11
-314.0
 21
-935.34380306
 31
0.0
  0
LINE
  5
107
100
AcDbEntity
  8
ZUWAKU
  6
CONTINUOUS
 62
      32
100
AcDbLine
 10
-314.0
 20
-935.34380306
 30
0.0
 11
-343.75
 21
-935.34380306
 31
0.0
  0
LINE
  5
108
100
AcDbEntity
  8
ZUWAKU
  6
CONTINUOUS
 62
      32
100
AcDbLine
 10
-340.6875
 20
-957.21880306
 30
0.0
 11
-347.6875
 21
-961.15630306
 31
0.0
  0
LINE
  5
109
100
AcDbEntity
  8
ZUWAKU
  6
CONTINUOUS
 62
      32
100
AcDbLine
 10
-339.375
 20
-966.40630306
 30
0.0
 11
-332.8125
 21
-964.21880306
 31
0.0
  0
LINE
  5
10A
100
AcDbEntity
  8
ZUWAKU
  6
CONTINUOUS
 62
      32
100
AcDbLine
 10
-339.375
 20
-966.40630306
 30
0.0
 11
-332.8125
 21
-964.21880306
 31
0.0
  0
LINE
  5
10B
100
AcDbEntity
  8
ZUWAKU
  6
CONTINUOUS
 62
      32
100
AcDbLine
 10
-318.375
 20
-969.90630306
 30
0.0
 11
-325.8125
 21
-957.65630306
 31
0.0
  0
LINE
  5
10C
100
AcDbEntity
  8
ZUWAKU
  6
CONTINUOUS
 62
      32
100
AcDbLine
 10
-318.375
 20
-969.90630306
 30
0.0
 11
-325.8125
 21
-957.65630306
 31
0.0
  0
LINE
  5
10D
100
AcDbEntity
  8
ZUWAKU
  6
CONTINUOUS
 62
      32
100
AcDbLine
 10
-335.0
 20
-950.65630306
 30
0.0
 11
-340.6875
 21
-957.21880306
 31
0.0
  0
LINE
  5
10E
100
AcDbEntity
  8
ZUWAKU
  6
CONTINUOUS
 62
      32
100
AcDbLine
 10
-335.0
 20
-950.65630306
 30
0.0
 11
-340.6875
 21
-957.21880306
 31
0.0
  0
LINE
  5
10F
100
AcDbEntity
  8
ZUWAKU
  6
CONTINUOUS
 62
      32
100
AcDbLine
 10
-421.975
 20
-947.15630306
 30
0.0
 11
-416.2875
 21
-946.71880306
 31
0.0
  0
LINE
  5
110
100
AcDbEntity
  8
ZUWAKU
  6
CONTINUOUS
 62
      32
100
AcDbLine
 10
-416.2875
 20
-946.71880306
 30
0.0
 11
-410.1625
 21
-944.09380306
 31
0.0
  0
LINE
  5
111
100
AcDbEntity
  8
ZUWAKU
  6
CONTINUOUS
 62
      32
100
AcDbLine
 10
-410.1625
 20
-944.09380306
 30
0.0
 11
-405.7875
 21
-940.15630306
 31
0.0
  0
LINE
  5
112
100
AcDbEntity
  8
ZUWAKU
  6
CONTINUOUS
 62
      32
100
AcDbLine
 10
-405.7875
 20
-940.15630306
 30
0.0
 11
-402.2875
 21
-935.34380306
 31
0.0
  0
LINE
  5
113
100
AcDbEntity
  8
ZUWAKU
  6
CONTINUOUS
 62
      32
100
AcDbLine
 10
-372.275
 20
-969.90630306
 30
0.0
 11
-364.4
 21
-966.40630306
 31
0.0
  0
LINE
  5
114
100
AcDbEntity
  8
ZUWAKU
  6
CONTINUOUS
 62
      32
100
AcDbLine
 10
-364.4
 20
-966.40630306
 30
0.0
 11
-357.4
 21
-959.84380306
 31
0.0
  0
LINE
  5
115
100
AcDbEntity
  8
ZUWAKU
  6
CONTINUOUS
 62
      32
100
AcDbLine
 10
-357.4
 20
-959.84380306
 30
0.0
 11
-352.15
 21
-951.09380306
 31
0.0
  0
LINE
  5
116
100
AcDbEntity
  8
ZUWAKU
  6
CONTINUOUS
 62
      32
100
AcDbLine
 10
-352.15
 20
-951.09380306
 30
0.0
 11
-350.4
 21
-941.90630306
 31
0.0
  0
LINE
  5
117
100
AcDbEntity
  8
ZUWAKU
  6
CONTINUOUS
 62
      32
100
AcDbLine
 10
-356.0
 20
-962.90630306
 30
0.0
 11
-347.6875
 21
-961.15630306
 31
0.0
  0
LINE
  5
118
100
AcDbEntity
  8
ZUWAKU
  6
CONTINUOUS
 62
      32
100
AcDbLine
 10
-347.6875
 20
-961.15630306
 30
0.0
 11
-340.6875
 21
-957.21880306
 31
0.0
  0
LINE
  5
119
100
AcDbEntity
  8
ZUWAKU
  6
CONTINUOUS
 62
      32
100
AcDbLine
 10
-340.6875
 20
-957.21880306
 30
0.0
 11
-335.0
 21
-950.65630306
 31
0.0
  0
LINE
  5
11A
100
AcDbEntity
  8
ZUWAKU
  6
CONTINUOUS
 62
      32
100
AcDbLine
 10
-403.6
 20
-950.65630306
 30
0.0
 11
-397.9125
 21
-948.90630306
 31
0.0
  0
LINE
  5
11B
100
AcDbEntity
  8
ZUWAKU
  6
CONTINUOUS
 62
      32
100
AcDbLine
 10
-397.9125
 20
-948.90630306
 30
0.0
 11
-393.1
 21
-945.40630306
 31
0.0
  0
LINE
  5
11C
100
AcDbEntity
  8
ZUWAKU
  6
CONTINUOUS
 62
      32
100
AcDbLine
 10
-393.1
 20
-945.40630306
 30
0.0
 11
-388.725
 21
-941.03130306
 31
0.0
  0
LINE
  5
11D
100
AcDbEntity
  8
ZUWAKU
  6
CONTINUOUS
 62
      32
100
AcDbLine
 10
-388.725
 20
-941.03130306
 30
0.0
 11
-386.1
 21
-935.34380306
 31
0.0
  0
LINE
  5
11E
100
AcDbEntity
  8
ZUWAKU
  6
CONTINUOUS
 62
      32
100
AcDbLine
 10
-325.8125
 20
-957.65630306
 30
0.0
 11
-321.875
 21
-952.40630306
 31
0.0
  0
LINE
  5
11F
100
AcDbEntity
  8
ZUWAKU
  6
CONTINUOUS
 62
      32
100
AcDbLine
 10
-321.875
 20
-952.40630306
 30
0.0
 11
-318.375
 21
-947.15630306
 31
0.0
  0
LINE
  5
120
100
AcDbEntity
  8
ZUWAKU
  6
CONTINUOUS
 62
      32
100
AcDbLine
 10
-318.375
 20
-947.15630306
 30
0.0
 11
-315.75
 21
-941.46880306
 31
0.0
  0
LINE
  5
121
100
AcDbEntity
  8
ZUWAKU
  6
CONTINUOUS
 62
      32
100
AcDbLine
 10
-315.75
 20
-941.46880306
 30
0.0
 11
-314.0
 21
-935.34380306
 31
0.0
  0
LINE
  5
122
100
AcDbEntity
  8
ZUWAKU
  6
CONTINUOUS
 62
      32
100
AcDbLine
 10
-345.5
 20
-968.15630306
 30
0.0
 11
-339.375
 21
-966.40630306
 31
0.0
  0
LINE
  5
123
100
AcDbEntity
  8
ZUWAKU
  6
CONTINUOUS
 62
      32
100
AcDbLine
 10
-339.375
 20
-966.40630306
 30
0.0
 11
-332.8125
 21
-964.21880306
 31
0.0
  0
LINE
  5
124
100
AcDbEntity
  8
ZUWAKU
  6
CONTINUOUS
 62
      32
100
AcDbLine
 10
-356.9625
 20
-947.59380306
 30
0.0
 11
-354.775
 21
-941.90630306
 31
0.0
  0
LINE
  5
125
100
AcDbEntity
  8
ZUWAKU
  6
CONTINUOUS
 62
      32
100
AcDbLine
 10
-354.775
 20
-941.90630306
 30
0.0
 11
-350.4
 21
-941.90630306
 31
0.0
  0
LINE
  5
126
100
AcDbEntity
  8
ZUWAKU
  6
CONTINUOUS
 62
      32
100
AcDbLine
 10
-354.775
 20
-941.90630306
 30
0.0
 11
-350.4
 21
-941.90630306
 31
0.0
  0
LINE
  5
127
100
AcDbEntity
  8
ZUWAKU
  6
CONTINUOUS
 62
      32
100
AcDbLine
 10
-350.4
 20
-941.90630306
 30
0.0
 11
-352.15
 21
-951.09380306
 31
0.0
  0
LINE
  5
128
100
AcDbEntity
  8
ZUWAKU
  6
CONTINUOUS
 62
      32
100
AcDbLine
 10
-352.15
 20
-951.09380306
 30
0.0
 11
-357.4
 21
-959.84380306
 31
0.0
  0
LINE
  5
129
100
AcDbEntity
  8
ZUWAKU
  6
CONTINUOUS
 62
      32
100
AcDbLine
 10
-352.15
 20
-951.09380306
 30
0.0
 11
-357.4
 21
-959.84380306
 31
0.0
  0
LINE
  5
12A
100
AcDbEntity
  8
ZUWAKU
  6
CONTINUOUS
 62
      32
100
AcDbLine
 10
-357.4
 20
-959.84380306
 30
0.0
 11
-364.4
 21
-966.40630306
 31
0.0
  0
LINE
  5
12B
100
AcDbEntity
  8
ZUWAKU
  6
CONTINUOUS
 62
      32
100
AcDbLine
 10
-373.15
 20
-969.90630306
 30
0.0
 11
-395.4625
 21
-969.90630306
 31
0.0
  0
LINE
  5
12C
100
AcDbEntity
  8
ZUWAKU
  6
CONTINUOUS
 62
      32
100
AcDbLine
 10
-395.4625
 20
-969.90630306
 30
0.0
 11
-391.525
 21
-958.96880306
 31
0.0
  0
LINE
  5
12D
100
AcDbEntity
  8
ZUWAKU
  6
CONTINUOUS
 62
      32
100
AcDbLine
 10
-395.4625
 20
-969.90630306
 30
0.0
 11
-391.525
 21
-958.96880306
 31
0.0
  0
LINE
  5
12E
100
AcDbEntity
  8
ZUWAKU
  6
CONTINUOUS
 62
      32
100
AcDbLine
 10
-360.4625
 20
-952.40630306
 30
0.0
 11
-356.9625
 21
-947.59380306
 31
0.0
  0
LINE
  5
12F
100
AcDbEntity
  8
ZUWAKU
  6
CONTINUOUS
 62
      32
100
AcDbLine
 10
-391.525
 20
-958.96880306
 30
0.0
 11
-370.525
 21
-958.96880306
 31
0.0
  0
LINE
  5
130
100
AcDbEntity
  8
ZUWAKU
  6
CONTINUOUS
 62
      32
100
AcDbLine
 10
-391.525
 20
-958.96880306
 30
0.0
 11
-370.525
 21
-958.96880306
 31
0.0
  0
LINE
  5
131
100
AcDbEntity
  8
ZUWAKU
  6
CONTINUOUS
 62
      32
100
AcDbLine
 10
-370.525
 20
-958.96880306
 30
0.0
 11
-365.275
 21
-956.34380306
 31
0.0
  0
LINE
  5
132
100
AcDbEntity
  8
ZUWAKU
  6
CONTINUOUS
 62
      32
100
AcDbLine
 10
-370.525
 20
-958.96880306
 30
0.0
 11
-365.275
 21
-956.34380306
 31
0.0
  0
LINE
  5
133
100
AcDbEntity
  8
ZUWAKU
  6
CONTINUOUS
 62
      32
100
AcDbLine
 10
-365.275
 20
-956.34380306
 30
0.0
 11
-360.4625
 21
-952.40630306
 31
0.0
  0
LINE
  5
134
100
AcDbEntity
  8
ZUWAKU
  6
CONTINUOUS
 62
      32
100
AcDbLine
 10
-434.575
 20
-947.15630306
 30
0.0
 11
-439.825
 21
-961.59380306
 31
0.0
  0
LINE
  5
135
100
AcDbEntity
  8
ZUWAKU
  6
CONTINUOUS
 62
      32
100
AcDbLine
 10
-439.825
 20
-961.59380306
 30
0.0
 11
-442.8875
 21
-964.65630306
 31
0.0
  0
LINE
  5
136
100
AcDbEntity
  8
ZUWAKU
  6
CONTINUOUS
 62
      32
100
AcDbLine
 10
-439.825
 20
-961.59380306
 30
0.0
 11
-442.8875
 21
-964.65630306
 31
0.0
  0
LINE
  5
137
100
AcDbEntity
  8
ZUWAKU
  6
CONTINUOUS
 62
      32
100
AcDbLine
 10
-442.8875
 20
-964.65630306
 30
0.0
 11
-445.5125
 21
-967.28130306
 31
0.0
  0
LINE
  5
138
100
AcDbEntity
  8
ZUWAKU
  6
CONTINUOUS
 62
      32
100
AcDbLine
 10
-445.5125
 20
-967.28130306
 30
0.0
 11
-449.0125
 21
-969.03130306
 31
0.0
  0
LINE
  5
139
100
AcDbEntity
  8
ZUWAKU
  6
CONTINUOUS
 62
      32
100
AcDbLine
 10
-445.5125
 20
-967.28130306
 30
0.0
 11
-449.0125
 21
-969.03130306
 31
0.0
  0
LINE
  5
13A
100
AcDbEntity
  8
ZUWAKU
  6
CONTINUOUS
 62
      32
100
AcDbLine
 10
-449.0125
 20
-969.03130306
 30
0.0
 11
-452.5125
 21
-969.90630306
 31
0.0
  0
LINE
  5
13B
100
AcDbEntity
  8
ZUWAKU
  6
CONTINUOUS
 62
      32
100
AcDbLine
 10
-452.5125
 20
-969.90630306
 30
0.0
 11
-474.825
 21
-969.90630306
 31
0.0
  0
LINE
  5
13C
100
AcDbEntity
  8
ZUWAKU
  6
CONTINUOUS
 62
      32
100
AcDbLine
 10
-452.5125
 20
-969.90630306
 30
0.0
 11
-474.825
 21
-969.90630306
 31
0.0
  0
LINE
  5
13D
100
AcDbEntity
  8
ZUWAKU
  6
CONTINUOUS
 62
      32
100
AcDbLine
 10
-474.825
 20
-969.90630306
 30
0.0
 11
-472.2
 21
-963.34380306
 31
0.0
  0
LINE
  5
13E
100
AcDbEntity
  8
ZUWAKU
  6
CONTINUOUS
 62
      32
100
AcDbLine
 10
-472.2
 20
-963.34380306
 30
0.0
 11
-457.7625
 21
-963.34380306
 31
0.0
  0
LINE
  5
13F
100
AcDbEntity
  8
ZUWAKU
  6
CONTINUOUS
 62
      32
100
AcDbLine
 10
-472.2
 20
-963.34380306
 30
0.0
 11
-457.7625
 21
-963.34380306
 31
0.0
  0
LINE
  5
140
100
AcDbEntity
  8
ZUWAKU
  6
CONTINUOUS
 62
      32
100
AcDbLine
 10
-449.45
 20
-953.28130306
 30
0.0
 11
-467.825
 21
-953.28130306
 31
0.0
  0
LINE
  5
141
100
AcDbEntity
  8
ZUWAKU
  6
CONTINUOUS
 62
      32
100
AcDbLine
 10
-467.825
 20
-953.28130306
 30
0.0
 11
-466.075
 21
-947.15630306
 31
0.0
  0
LINE
  5
142
100
AcDbEntity
  8
ZUWAKU
  6
CONTINUOUS
 62
      32
100
AcDbLine
 10
-467.825
 20
-953.28130306
 30
0.0
 11
-466.075
 21
-947.15630306
 31
0.0
  0
LINE
  5
143
100
AcDbEntity
  8
ZUWAKU
  6
CONTINUOUS
 62
      32
100
AcDbLine
 10
-457.7625
 20
-963.34380306
 30
0.0
 11
-454.7
 21
-961.15630306
 31
0.0
  0
LINE
  5
144
100
AcDbEntity
  8
ZUWAKU
  6
CONTINUOUS
 62
      32
100
AcDbLine
 10
-457.7625
 20
-963.34380306
 30
0.0
 11
-454.7
 21
-961.15630306
 31
0.0
  0
LINE
  5
145
100
AcDbEntity
  8
ZUWAKU
  6
CONTINUOUS
 62
      32
100
AcDbLine
 10
-454.7
 20
-961.15630306
 30
0.0
 11
-452.5125
 21
-958.96880306
 31
0.0
  0
LINE
  5
146
100
AcDbEntity
  8
ZUWAKU
  6
CONTINUOUS
 62
      32
100
AcDbLine
 10
-454.7
 20
-961.15630306
 30
0.0
 11
-452.5125
 21
-958.96880306
 31
0.0
  0
LINE
  5
147
100
AcDbEntity
  8
ZUWAKU
  6
CONTINUOUS
 62
      32
100
AcDbLine
 10
-452.5125
 20
-958.96880306
 30
0.0
 11
-450.325
 21
-956.34380306
 31
0.0
  0
LINE
  5
148
100
AcDbEntity
  8
ZUWAKU
  6
CONTINUOUS
 62
      32
100
AcDbLine
 10
-452.5125
 20
-958.96880306
 30
0.0
 11
-450.325
 21
-956.34380306
 31
0.0
  0
LINE
  5
149
100
AcDbEntity
  8
ZUWAKU
  6
CONTINUOUS
 62
      32
100
AcDbLine
 10
-450.325
 20
-956.34380306
 30
0.0
 11
-449.45
 21
-953.28130306
 31
0.0
  0
LINE
  5
14A
100
AcDbEntity
  8
ZUWAKU
  6
CONTINUOUS
 62
      32
100
AcDbLine
 10
-450.325
 20
-956.34380306
 30
0.0
 11
-449.45
 21
-953.28130306
 31
0.0
  0
LINE
  5
14B
100
AcDbEntity
  8
ZUWAKU
  6
CONTINUOUS
 62
      32
100
AcDbLine
 10
-477.8875
 20
-935.34380306
 30
0.0
 11
-468.26597384
 21
-935.34380306
 31
0.0
  0
LINE
  5
14C
100
AcDbEntity
  8
ZUWAKU
  6
CONTINUOUS
 62
      32
100
AcDbLine
 10
-476.225
 20
-961.15630306
 30
0.0
 11
-479.725
 21
-964.65630306
 31
0.0
  0
LINE
  5
14D
100
AcDbEntity
  8
ZUWAKU
  6
CONTINUOUS
 62
      32
100
AcDbLine
 10
-479.725
 20
-964.65630306
 30
0.0
 11
-483.225
 21
-967.71880306
 31
0.0
  0
LINE
  5
14E
100
AcDbEntity
  8
ZUWAKU
  6
CONTINUOUS
 62
      32
100
AcDbLine
 10
-479.725
 20
-964.65630306
 30
0.0
 11
-483.225
 21
-967.71880306
 31
0.0
  0
LINE
  5
14F
100
AcDbEntity
  8
ZUWAKU
  6
CONTINUOUS
 62
      32
100
AcDbLine
 10
-483.225
 20
-967.71880306
 30
0.0
 11
-487.6
 21
-969.46880306
 31
0.0
  0
LINE
  5
150
100
AcDbEntity
  8
ZUWAKU
  6
CONTINUOUS
 62
      32
100
AcDbLine
 10
-487.6
 20
-969.46880306
 30
0.0
 11
-491.975
 21
-969.90630306
 31
0.0
  0
LINE
  5
151
100
AcDbEntity
  8
ZUWAKU
  6
CONTINUOUS
 62
      32
100
AcDbLine
 10
-491.975
 20
-969.90630306
 30
0.0
 11
-502.9125
 21
-969.90630306
 31
0.0
  0
LINE
  5
152
100
AcDbEntity
  8
ZUWAKU
  6
CONTINUOUS
 62
      32
100
AcDbLine
 10
-502.9125
 20
-969.90630306
 30
0.0
 11
-500.725
 21
-963.34380306
 31
0.0
  0
LINE
  5
153
100
AcDbEntity
  8
ZUWAKU
  6
CONTINUOUS
 62
      32
100
AcDbLine
 10
-502.9125
 20
-969.90630306
 30
0.0
 11
-500.725
 21
-963.34380306
 31
0.0
  0
LINE
  5
154
100
AcDbEntity
  8
ZUWAKU
  6
CONTINUOUS
 62
      32
100
AcDbLine
 10
-487.6
 20
-957.65630306
 30
0.0
 11
-479.2875
 21
-935.34380306
 31
0.0
  0
LINE
  5
155
100
AcDbEntity
  8
ZUWAKU
  6
CONTINUOUS
 62
      32
100
AcDbLine
 10
-500.725
 20
-963.34380306
 30
0.0
 11
-496.7875
 21
-963.34380306
 31
0.0
  0
LINE
  5
156
100
AcDbEntity
  8
ZUWAKU
  6
CONTINUOUS
 62
      32
100
AcDbLine
 10
-500.725
 20
-963.34380306
 30
0.0
 11
-496.7875
 21
-963.34380306
 31
0.0
  0
LINE
  5
157
100
AcDbEntity
  8
ZUWAKU
  6
CONTINUOUS
 62
      32
100
AcDbLine
 10
-489.7875
 20
-961.15630306
 30
0.0
 11
-487.6
 21
-957.65630306
 31
0.0
  0
LINE
  5
158
100
AcDbEntity
  8
ZUWAKU
  6
CONTINUOUS
 62
      32
100
AcDbLine
 10
-493.2875
 20
-962.90630306
 30
0.0
 11
-489.7875
 21
-961.15630306
 31
0.0
  0
LINE
  5
159
100
AcDbEntity
  8
ZUWAKU
  6
CONTINUOUS
 62
      32
100
AcDbLine
 10
-496.7875
 20
-963.34380306
 30
0.0
 11
-493.2875
 21
-962.90630306
 31
0.0
  0
LINE
  5
15A
100
AcDbEntity
  8
ZUWAKU
  6
CONTINUOUS
 62
      32
100
AcDbLine
 10
-496.7875
 20
-963.34380306
 30
0.0
 11
-493.2875
 21
-962.90630306
 31
0.0
  0
LINE
  5
15B
100
AcDbEntity
  8
ZUWAKU
  6
CONTINUOUS
 62
      32
100
AcDbLine
 10
-382.775
 20
-935.34380306
 30
0.0
 11
-368.775
 21
-935.34380306
 31
0.0
  0
LINE
  5
15C
100
AcDbEntity
  8
ZUWAKU
  6
CONTINUOUS
 62
      32
100
AcDbLine
 10
-368.775
 20
-935.34380306
 30
0.0
 11
-371.4
 21
-943.21880306
 31
0.0
  0
LINE
  5
15D
100
AcDbEntity
  8
ZUWAKU
  6
CONTINUOUS
 62
      32
100
AcDbLine
 10
-368.775
 20
-935.34380306
 30
0.0
 11
-371.4
 21
-943.21880306
 31
0.0
  0
LINE
  5
15E
100
AcDbEntity
  8
ZUWAKU
  6
CONTINUOUS
 62
      32
100
AcDbLine
 10
-372.1
 20
-943.21880306
 30
0.0
 11
-385.8375
 21
-943.21880306
 31
0.0
  0
LINE
  5
15F
100
AcDbEntity
  8
ZUWAKU
  6
CONTINUOUS
 62
      32
100
AcDbLine
 10
-330.92302052
 20
-943.16060174
 30
0.0
 11
-335.0
 21
-950.65630306
 31
0.0
  0
LINE
  5
160
100
AcDbEntity
  8
ZUWAKU
  6
CONTINUOUS
 62
      32
100
AcDbLine
 10
-318.8125
 20
-935.34380306
 30
0.0
 11
-340.6875
 21
-957.21880306
 31
0.0
  0
LINE
  5
161
100
AcDbEntity
  8
ZUWAKU
  6
CONTINUOUS
 62
      32
100
AcDbLine
 10
-340.6875
 20
-957.21880306
 30
0.0
 11
-352.85
 21
-969.38130306
 31
0.0
  0
LINE
  5
162
100
AcDbEntity
  8
ZUWAKU
  6
CONTINUOUS
 62
      32
100
AcDbLine
 10
-320.79239899
 20
-935.34380306
 30
0.0
 11
-333.68235828
 21
-948.23376235
 31
0.0
  0
LINE
  5
163
100
AcDbEntity
  8
ZUWAKU
  6
CONTINUOUS
 62
      32
100
AcDbLine
 10
-345.2129834
 20
-959.76438747
 30
0.0
 11
-355.22587878
 21
-969.77728285
 31
0.0
  0
LINE
  5
164
100
AcDbEntity
  8
ZUWAKU
  6
CONTINUOUS
 62
      32
100
AcDbLine
 10
-322.77229797
 20
-935.34380306
 30
0.0
 11
-331.32123972
 21
-943.89274481
 31
0.0
  0
LINE
  5
165
100
AcDbEntity
  8
ZUWAKU
  6
CONTINUOUS
 62
      32
100
AcDbLine
 10
-348.82407743
 20
-961.39558252
 30
0.0
 11
-357.60175757
 21
-970.17326265
 31
0.0
  0
LINE
  5
166
100
AcDbEntity
  8
ZUWAKU
  6
CONTINUOUS
 62
      32
100
AcDbLine
 10
-324.75219696
 20
-935.34380306
 30
0.0
 11
-332.62719696
 21
-943.21880306
 31
0.0
  0
LINE
  5
167
100
AcDbEntity
  8
ZUWAKU
  6
CONTINUOUS
 62
      32
100
AcDbLine
 10
-351.33194949
 20
-961.92355558
 30
0.0
 11
-358.01016529
 21
-968.60177139
 31
0.0
  0
LINE
  5
168
100
AcDbEntity
  8
ZUWAKU
  6
CONTINUOUS
 62
      32
100
AcDbLine
 10
-326.73209595
 20
-935.34380306
 30
0.0
 11
-334.60709595
 21
-943.21880306
 31
0.0
  0
LINE
  5
169
100
AcDbEntity
  8
ZUWAKU
  6
CONTINUOUS
 62
      32
100
AcDbLine
 10
-353.83982154
 20
-962.45152864
 30
0.0
 11
-356.93022039
 21
-965.5419275
 31
0.0
  0
LINE
  5
16A
100
AcDbEntity
  8
ZUWAKU
  6
CONTINUOUS
 62
      32
100
AcDbLine
 10
-328.71199494
 20
-935.34380306
 30
0.0
 11
-336.58699494
 21
-943.21880306
 31
0.0
  0
LINE
  5
16B
100
AcDbEntity
  8
ZUWAKU
  6
CONTINUOUS
 62
      32
100
AcDbLine
 10
-330.69189392
 20
-935.34380306
 30
0.0
 11
-338.56689392
 21
-943.21880306
 31
0.0
  0
LINE
  5
16C
100
AcDbEntity
  8
ZUWAKU
  6
CONTINUOUS
 62
      32
100
AcDbLine
 10
-332.67179291
 20
-935.34380306
 30
0.0
 11
-340.54679291
 21
-943.21880306
 31
0.0
  0
LINE
  5
16D
100
AcDbEntity
  8
ZUWAKU
  6
CONTINUOUS
 62
      32
100
AcDbLine
 10
-334.6516919
 20
-935.34380306
 30
0.0
 11
-342.5266919
 21
-943.21880306
 31
0.0
  0
LINE
  5
16E
100
AcDbEntity
  8
ZUWAKU
  6
CONTINUOUS
 62
      32
100
AcDbLine
 10
-336.63159089
 20
-935.34380306
 30
0.0
 11
-344.50659089
 21
-943.21880306
 31
0.0
  0
LINE
  5
16F
100
AcDbEntity
  8
ZUWAKU
  6
CONTINUOUS
 62
      32
100
AcDbLine
 10
-338.61148987
 20
-935.34380306
 30
0.0
 11
-346.31925506
 21
-943.05156825
 31
0.0
  0
LINE
  5
170
100
AcDbEntity
  8
ZUWAKU
  6
CONTINUOUS
 62
      32
100
AcDbLine
 10
-340.59138886
 20
-935.34380306
 30
0.0
 11
-345.32930557
 21
-940.08171977
 31
0.0
  0
LINE
  5
171
100
AcDbEntity
  8
ZUWAKU
  6
CONTINUOUS
 62
      32
100
AcDbLine
 10
-342.57128785
 20
-935.34380306
 30
0.0
 11
-344.33935608
 21
-937.11187128
 31
0.0
  0
LINE
  5
172
100
AcDbEntity
  8
ZUWAKU
  6
CONTINUOUS
 62
      32
100
AcDbLine
 10
-316.83260101
 20
-935.34380306
 30
0.0
 11
-350.47412122
 21
-968.98532326
 31
0.0
  0
LINE
  5
173
100
AcDbEntity
  8
ZUWAKU
  6
CONTINUOUS
 62
      32
100
AcDbLine
 10
-314.85270203
 20
-935.34380306
 30
0.0
 11
-348.09824243
 21
-968.58934346
 31
0.0
  0
LINE
  5
174
100
AcDbEntity
  8
ZUWAKU
  6
CONTINUOUS
 62
      32
100
AcDbLine
 10
-314.45087878
 20
-936.9218788
 30
0.0
 11
-345.72236365
 21
-968.19336366
 31
0.0
  0
LINE
  5
175
100
AcDbEntity
  8
ZUWAKU
  6
CONTINUOUS
 62
      32
100
AcDbLine
 10
-315.24283838
 20
-939.69373739
 30
0.0
 11
-342.98756567
 21
-967.43846468
 31
0.0
  0
LINE
  5
176
100
AcDbEntity
  8
ZUWAKU
  6
CONTINUOUS
 62
      32
100
AcDbLine
 10
-316.36028137
 20
-942.79107937
 30
0.0
 11
-340.21570709
 21
-966.64650508
 31
0.0
  0
LINE
  5
177
100
AcDbEntity
  8
ZUWAKU
  6
CONTINUOUS
 62
      32
100
AcDbLine
 10
-318.05733765
 20
-946.46803463
 30
0.0
 11
-337.30590911
 21
-965.71660609
 31
0.0
  0
LINE
  5
178
100
AcDbEntity
  8
ZUWAKU
  6
CONTINUOUS
 62
      32
100
AcDbLine
 10
-321.59358582
 20
-951.98418179
 30
0.0
 11
-334.33606063
 21
-964.7266566
 31
0.0
  0
LINE
  5
179
100
AcDbEntity
  8
ZUWAKU
  6
CONTINUOUS
 62
      32
100
AcDbLine
 10
-325.6135275
 20
-957.98402246
 30
0.0
 11
-332.4451888
 21
-964.81568376
 31
0.0
  0
LINE
  5
17A
100
AcDbEntity
  8
ZUWAKU
  6
CONTINUOUS
 62
      32
100
AcDbLine
 10
-324.86556567
 20
-959.21595961
 30
0.0
 11
-331.69094157
 21
-966.04133551
 31
0.0
  0
LINE
  5
17B
100
AcDbEntity
  8
ZUWAKU
  6
CONTINUOUS
 62
      32
100
AcDbLine
 10
-324.11760383
 20
-960.44789675
 30
0.0
 11
-330.93669433
 21
-967.26698726
 31
0.0
  0
LINE
  5
17C
100
AcDbEntity
  8
ZUWAKU
  6
CONTINUOUS
 62
      32
100
AcDbLine
 10
-323.36964199
 20
-961.6798339
 30
0.0
 11
-330.1824471
 21
-968.49263902
 31
0.0
  0
LINE
  5
17D
100
AcDbEntity
  8
ZUWAKU
  6
CONTINUOUS
 62
      32
100
AcDbLine
 10
-322.62168015
 20
-962.91177105
 30
0.0
 11
-329.42819987
 21
-969.71829077
 31
0.0
  0
LINE
  5
17E
100
AcDbEntity
  8
ZUWAKU
  6
CONTINUOUS
 62
      32
100
AcDbLine
 10
-321.87371831
 20
-964.1437082
 30
0.0
 11
-327.63631316
 21
-969.90630306
 31
0.0
  0
LINE
  5
17F
100
AcDbEntity
  8
ZUWAKU
  6
CONTINUOUS
 62
      32
100
AcDbLine
 10
-321.12575647
 20
-965.37564535
 30
0.0
 11
-325.65641418
 21
-969.90630306
 31
0.0
  0
LINE
  5
180
100
AcDbEntity
  8
ZUWAKU
  6
CONTINUOUS
 62
      32
100
AcDbLine
 10
-320.37779463
 20
-966.60758249
 30
0.0
 11
-323.67651519
 21
-969.90630306
 31
0.0
  0
LINE
  5
181
100
AcDbEntity
  8
ZUWAKU
  6
CONTINUOUS
 62
      32
100
AcDbLine
 10
-319.62983279
 20
-967.83951964
 30
0.0
 11
-321.6966162
 21
-969.90630306
 31
0.0
  0
LINE
  5
182
100
AcDbEntity
  8
ZUWAKU
  6
CONTINUOUS
 62
      32
100
AcDbLine
 10
-318.88187095
 20
-969.07145679
 30
0.0
 11
-319.71671722
 21
-969.90630306
 31
0.0
  0
LINE
  5
183
100
AcDbEntity
  8
ZUWAKU
  6
CONTINUOUS
 62
      32
100
AcDbLine
 10
-373.36875
 20
-935.34380306
 30
0.0
 11
-381.24375
 21
-943.21880306
 31
0.0
  0
LINE
  5
184
100
AcDbEntity
  8
ZUWAKU
  6
CONTINUOUS
 62
      32
100
AcDbLine
 10
-375.34864899
 20
-935.34380306
 30
0.0
 11
-383.22364899
 21
-943.21880306
 31
0.0
  0
LINE
  5
185
100
AcDbEntity
  8
ZUWAKU
  6
CONTINUOUS
 62
      32
100
AcDbLine
 10
-377.32854797
 20
-935.34380306
 30
0.0
 11
-385.20354797
 21
-943.21880306
 31
0.0
  0
LINE
  5
186
100
AcDbEntity
  8
ZUWAKU
  6
CONTINUOUS
 62
      32
100
AcDbLine
 10
-379.30844696
 20
-935.34380306
 30
0.0
 11
-384.9809883
 21
-941.01634439
 31
0.0
  0
LINE
  5
187
100
AcDbEntity
  8
ZUWAKU
  6
CONTINUOUS
 62
      32
100
AcDbLine
 10
-381.28834595
 20
-935.34380306
 30
0.0
 11
-383.72105258
 21
-937.77650968
 31
0.0
  0
LINE
  5
188
100
AcDbEntity
  8
ZUWAKU
  6
CONTINUOUS
 62
      32
100
AcDbLine
 10
-371.38885101
 20
-935.34380306
 30
0.0
 11
-379.26385101
 21
-943.21880306
 31
0.0
  0
LINE
  5
189
100
AcDbEntity
  8
ZUWAKU
  6
CONTINUOUS
 62
      32
100
AcDbLine
 10
-369.40895203
 20
-935.34380306
 30
0.0
 11
-377.28395203
 21
-943.21880306
 31
0.0
  0
LINE
  5
18A
100
AcDbEntity
  8
ZUWAKU
  6
CONTINUOUS
 62
      32
100
AcDbLine
 10
-369.44797348
 20
-937.3627235
 30
0.0
 11
-375.30405304
 21
-943.21880306
 31
0.0
  0
LINE
  5
18B
100
AcDbEntity
  8
ZUWAKU
  6
CONTINUOUS
 62
      32
100
AcDbLine
 10
-370.43792297
 20
-940.33257198
 30
0.0
 11
-373.32415405
 21
-943.21880306
 31
0.0
  0
LINE
  5
18C
100
AcDbEntity
  8
ZUWAKU
  6
CONTINUOUS
 62
      32
100
AcDbLine
 10
-371.34425506
 20
-943.21880306
 30
0.0
 11
-371.42787247
 21
-943.30242046
 31
0.0
  0
LINE
  5
18D
100
AcDbEntity
  8
ZUWAKU
  6
CONTINUOUS
 62
      32
100
AcDbLine
 10
-375.99375
 20
-958.96880306
 30
0.0
 11
-386.93125
 21
-969.90630306
 31
0.0
  0
LINE
  5
18E
100
AcDbEntity
  8
ZUWAKU
  6
CONTINUOUS
 62
      32
100
AcDbLine
 10
-377.97364899
 20
-958.96880306
 30
0.0
 11
-388.91114899
 21
-969.90630306
 31
0.0
  0
LINE
  5
18F
100
AcDbEntity
  8
ZUWAKU
  6
CONTINUOUS
 62
      32
100
AcDbLine
 10
-379.95354797
 20
-958.96880306
 30
0.0
 11
-390.89104797
 21
-969.90630306
 31
0.0
  0
LINE
  5
190
100
AcDbEntity
  8
ZUWAKU
  6
CONTINUOUS
 62
      32
100
AcDbLine
 10
-381.93344696
 20
-958.96880306
 30
0.0
 11
-392.87094696
 21
-969.90630306
 31
0.0
  0
LINE
  5
191
100
AcDbEntity
  8
ZUWAKU
  6
CONTINUOUS
 62
      32
100
AcDbLine
 10
-383.91334595
 20
-958.96880306
 30
0.0
 11
-394.85084595
 21
-969.90630306
 31
0.0
  0
LINE
  5
192
100
AcDbEntity
  8
ZUWAKU
  6
CONTINUOUS
 62
      32
100
AcDbLine
 10
-385.89324494
 20
-958.96880306
 30
0.0
 11
-394.69286222
 21
-967.76842034
 31
0.0
  0
LINE
  5
193
100
AcDbEntity
  8
ZUWAKU
  6
CONTINUOUS
 62
      32
100
AcDbLine
 10
-387.87314392
 20
-958.96880306
 30
0.0
 11
-393.57916904
 21
-964.67482817
 31
0.0
  0
LINE
  5
194
100
AcDbEntity
  8
ZUWAKU
  6
CONTINUOUS
 62
      32
100
AcDbLine
 10
-389.85304291
 20
-958.96880306
 30
0.0
 11
-392.46547586
 21
-961.58123601
 31
0.0
  0
LINE
  5
195
100
AcDbEntity
  8
ZUWAKU
  6
CONTINUOUS
 62
      32
100
AcDbLine
 10
-374.01385101
 20
-958.96880306
 30
0.0
 11
-384.95135101
 21
-969.90630306
 31
0.0
  0
LINE
  5
196
100
AcDbEntity
  8
ZUWAKU
  6
CONTINUOUS
 62
      32
100
AcDbLine
 10
-372.03395203
 20
-958.96880306
 30
0.0
 11
-382.97145203
 21
-969.90630306
 31
0.0
  0
LINE
  5
197
100
AcDbEntity
  8
ZUWAKU
  6
CONTINUOUS
 62
      32
100
AcDbLine
 10
-352.99155304
 20
-941.90630306
 30
0.0
 11
-355.88965435
 21
-944.80440437
 31
0.0
  0
LINE
  5
198
100
AcDbEntity
  8
ZUWAKU
  6
CONTINUOUS
 62
      32
100
AcDbLine
 10
-369.58310608
 20
-958.49785609
 30
0.0
 11
-380.99155304
 21
-969.90630306
 31
0.0
  0
LINE
  5
199
100
AcDbEntity
  8
ZUWAKU
  6
CONTINUOUS
 62
      32
100
AcDbLine
 10
-351.01165405
 20
-941.90630306
 30
0.0
 11
-357.66475586
 21
-948.55940487
 31
0.0
  0
LINE
  5
19A
100
AcDbEntity
  8
ZUWAKU
  6
CONTINUOUS
 62
      32
100
AcDbLine
 10
-365.6233081
 20
-956.51795711
 30
0.0
 11
-379.01165405
 21
-969.90630306
 31
0.0
  0
LINE
  5
19B
100
AcDbEntity
  8
ZUWAKU
  6
CONTINUOUS
 62
      32
100
AcDbLine
 10
-350.72193999
 20
-943.59648798
 30
0.0
 11
-377.03175506
 21
-969.90630306
 31
0.0
  0
LINE
  5
19C
100
AcDbEntity
  8
ZUWAKU
  6
CONTINUOUS
 62
      32
100
AcDbLine
 10
-351.18779857
 20
-946.04224555
 30
0.0
 11
-375.05185608
 21
-969.90630306
 31
0.0
  0
LINE
  5
19D
100
AcDbEntity
  8
ZUWAKU
  6
CONTINUOUS
 62
      32
100
AcDbLine
 10
-351.65365716
 20
-948.48800312
 30
0.0
 11
-373.07195709
 21
-969.90630306
 31
0.0
  0
LINE
  5
19E
100
AcDbEntity
  8
ZUWAKU
  6
CONTINUOUS
 62
      32
100
AcDbLine
 10
-352.11951574
 20
-950.9337607
 30
0.0
 11
-370.14570458
 21
-968.95994954
 31
0.0
  0
LINE
  5
19F
100
AcDbEntity
  8
ZUWAKU
  6
CONTINUOUS
 62
      32
100
AcDbLine
 10
-354.92551133
 20
-955.71965527
 30
0.0
 11
-366.58188641
 21
-967.37603035
 31
0.0
  0
LINE
  5
1A0
100
AcDbEntity
  8
ZUWAKU
  6
CONTINUOUS
 62
      32
100
AcDbLine
 10
-392.00625
 20
-935.34380306
 30
0.0
 11
-423.4515625
 21
-966.78911556
 31
0.0
  0
LINE
  5
1A1
100
AcDbEntity
  8
ZUWAKU
  6
CONTINUOUS
 62
      32
100
AcDbLine
 10
-393.98614899
 20
-935.34380306
 30
0.0
 11
-422.29662142
 21
-963.65427549
 31
0.0
  0
LINE
  5
1A2
100
AcDbEntity
  8
ZUWAKU
  6
CONTINUOUS
 62
      32
100
AcDbLine
 10
-395.96604797
 20
-935.34380306
 30
0.0
 11
-421.14168035
 21
-960.51943543
 31
0.0
  0
LINE
  5
1A3
100
AcDbEntity
  8
ZUWAKU
  6
CONTINUOUS
 62
      32
100
AcDbLine
 10
-397.94594696
 20
-935.34380306
 30
0.0
 11
-419.98673927
 21
-957.38459537
 31
0.0
  0
LINE
  5
1A4
100
AcDbEntity
  8
ZUWAKU
  6
CONTINUOUS
 62
      32
100
AcDbLine
 10
-399.92584595
 20
-935.34380306
 30
0.0
 11
-418.8317982
 21
-954.2497553
 31
0.0
  0
LINE
  5
1A5
100
AcDbEntity
  8
ZUWAKU
  6
CONTINUOUS
 62
      32
100
AcDbLine
 10
-401.90574494
 20
-935.34380306
 30
0.0
 11
-403.3055135
 21
-936.74357162
 31
0.0
  0
LINE
  5
1A6
100
AcDbEntity
  8
ZUWAKU
  6
CONTINUOUS
 62
      32
100
AcDbLine
 10
-411.02567864
 20
-944.46373676
 30
0.0
 11
-419.84324494
 21
-953.28130306
 31
0.0
  0
LINE
  5
1A7
100
AcDbEntity
  8
ZUWAKU
  6
CONTINUOUS
 62
      32
100
AcDbLine
 10
-414.49050187
 20
-945.948661
 30
0.0
 11
-421.82314392
 21
-953.28130306
 31
0.0
  0
LINE
  5
1A8
100
AcDbEntity
  8
ZUWAKU
  6
CONTINUOUS
 62
      32
100
AcDbLine
 10
-417.31996315
 20
-946.7982233
 30
0.0
 11
-423.80304291
 21
-953.28130306
 31
0.0
  0
LINE
  5
1A9
100
AcDbEntity
  8
ZUWAKU
  6
CONTINUOUS
 62
      32
100
AcDbLine
 10
-419.46485372
 20
-946.96321488
 30
0.0
 11
-425.7829419
 21
-953.28130306
 31
0.0
  0
LINE
  5
1AA
100
AcDbEntity
  8
ZUWAKU
  6
CONTINUOUS
 62
      32
100
AcDbLine
 10
-421.60974429
 20
-947.12820646
 30
0.0
 11
-427.76284089
 21
-953.28130306
 31
0.0
  0
LINE
  5
1AB
100
AcDbEntity
  8
ZUWAKU
  6
CONTINUOUS
 62
      32
100
AcDbLine
 10
-423.61773987
 20
-947.15630306
 30
0.0
 11
-429.74273987
 21
-953.28130306
 31
0.0
  0
LINE
  5
1AC
100
AcDbEntity
  8
ZUWAKU
  6
CONTINUOUS
 62
      32
100
AcDbLine
 10
-425.59763886
 20
-947.15630306
 30
0.0
 11
-431.72263886
 21
-953.28130306
 31
0.0
  0
LINE
  5
1AD
100
AcDbEntity
  8
ZUWAKU
  6
CONTINUOUS
 62
      32
100
AcDbLine
 10
-427.57753785
 20
-947.15630306
 30
0.0
 11
-431.79303453
 21
-951.37179974
 31
0.0
  0
LINE
  5
1AE
100
AcDbEntity
  8
ZUWAKU
  6
CONTINUOUS
 62
      32
100
AcDbLine
 10
-429.55743684
 20
-947.15630306
 30
0.0
 11
-430.69309065
 21
-948.29195687
 31
0.0
  0
LINE
  5
1AF
100
AcDbEntity
  8
ZUWAKU
  6
CONTINUOUS
 62
      32
100
AcDbLine
 10
-390.02635101
 20
-935.34380306
 30
0.0
 11
-424.60650358
 21
-969.92395562
 31
0.0
  0
LINE
  5
1B0
100
AcDbEntity
  8
ZUWAKU
  6
CONTINUOUS
 62
      32
100
AcDbLine
 10
-388.04645203
 20
-935.34380306
 30
0.0
 11
-403.25181959
 21
-950.54917062
 31
0.0
  0
LINE
  5
1B1
100
AcDbEntity
  8
ZUWAKU
  6
CONTINUOUS
 62
      32
100
AcDbLine
 10
-403.72467999
 20
-951.02203102
 30
0.0
 11
-422.60895203
 21
-969.90630306
 31
0.0
  0
LINE
  5
1B2
100
AcDbEntity
  8
ZUWAKU
  6
CONTINUOUS
 62
      32
100
AcDbLine
 10
-386.06655304
 20
-935.34380306
 30
0.0
 11
-400.3919655
 21
-949.66921552
 31
0.0
  0
LINE
  5
1B3
100
AcDbEntity
  8
ZUWAKU
  6
CONTINUOUS
 62
      32
100
AcDbLine
 10
-404.74876567
 20
-954.02601569
 30
0.0
 11
-420.62905304
 21
-969.90630306
 31
0.0
  0
LINE
  5
1B4
100
AcDbEntity
  8
ZUWAKU
  6
CONTINUOUS
 62
      32
100
AcDbLine
 10
-387.8257251
 20
-939.0828741
 30
0.0
 11
-396.94689819
 21
-948.20404719
 31
0.0
  0
LINE
  5
1B5
100
AcDbEntity
  8
ZUWAKU
  6
CONTINUOUS
 62
      32
100
AcDbLine
 10
-405.77285135
 20
-957.03000036
 30
0.0
 11
-418.64915405
 21
-969.90630306
 31
0.0
  0
LINE
  5
1B6
100
AcDbEntity
  8
ZUWAKU
  6
CONTINUOUS
 62
      32
100
AcDbLine
 10
-406.79693704
 20
-960.03398503
 30
0.0
 11
-416.66925506
 21
-969.90630306
 31
0.0
  0
LINE
  5
1B7
100
AcDbEntity
  8
ZUWAKU
  6
CONTINUOUS
 62
      32
100
AcDbLine
 10
-407.82102272
 20
-963.0379697
 30
0.0
 11
-414.68935608
 21
-969.90630306
 31
0.0
  0
LINE
  5
1B8
100
AcDbEntity
  8
ZUWAKU
  6
CONTINUOUS
 62
      32
100
AcDbLine
 10
-408.8451084
 20
-966.04195437
 30
0.0
 11
-412.70945709
 21
-969.90630306
 31
0.0
  0
LINE
  5
1B9
100
AcDbEntity
  8
ZUWAKU
  6
CONTINUOUS
 62
      32
100
AcDbLine
 10
-409.86919409
 20
-969.04593904
 30
0.0
 11
-410.7295581
 21
-969.90630306
 31
0.0
  0
LINE
  5
1BA
100
AcDbEntity
  8
ZUWAKU
  6
CONTINUOUS
 62
      32
100
AcDbLine
 10
-443.98125
 20
-935.34380306
 30
0.0
 11
-451.85625
 21
-943.21880306
 31
0.0
  0
LINE
  5
1BB
100
AcDbEntity
  8
ZUWAKU
  6
CONTINUOUS
 62
      32
100
AcDbLine
 10
-445.96114899
 20
-935.34380306
 30
0.0
 11
-453.83614899
 21
-943.21880306
 31
0.0
  0
LINE
  5
1BC
100
AcDbEntity
  8
ZUWAKU
  6
CONTINUOUS
 62
      32
100
AcDbLine
 10
-447.94104797
 20
-935.34380306
 30
0.0
 11
-455.81604797
 21
-943.21880306
 31
0.0
  0
LINE
  5
1BD
100
AcDbEntity
  8
ZUWAKU
  6
CONTINUOUS
 62
      32
100
AcDbLine
 10
-449.92094696
 20
-935.34380306
 30
0.0
 11
-457.79594696
 21
-943.21880306
 31
0.0
  0
LINE
  5
1BE
100
AcDbEntity
  8
ZUWAKU
  6
CONTINUOUS
 62
      32
100
AcDbLine
 10
-451.90084595
 20
-935.34380306
 30
0.0
 11
-459.77584595
 21
-943.21880306
 31
0.0
  0
LINE
  5
1BF
100
AcDbEntity
  8
ZUWAKU
  6
CONTINUOUS
 62
      32
100
AcDbLine
 10
-453.88074494
 20
-935.34380306
 30
0.0
 11
-461.75574494
 21
-943.21880306
 31
0.0
  0
LINE
  5
1C0
100
AcDbEntity
  8
ZUWAKU
  6
CONTINUOUS
 62
      32
100
AcDbLine
 10
-455.86064392
 20
-935.34380306
 30
0.0
 11
-463.73564392
 21
-943.21880306
 31
0.0
  0
LINE
  5
1C1
100
AcDbEntity
  8
ZUWAKU
  6
CONTINUOUS
 62
      32
100
AcDbLine
 10
-457.84054291
 20
-935.34380306
 30
0.0
 11
-464.94222854
 21
-942.44548869
 31
0.0
  0
LINE
  5
1C2
100
AcDbEntity
  8
ZUWAKU
  6
CONTINUOUS
 62
      32
100
AcDbLine
 10
-459.8204419
 20
-935.34380306
 30
0.0
 11
-463.95227905
 21
-939.47564021
 31
0.0
  0
LINE
  5
1C3
100
AcDbEntity
  8
ZUWAKU
  6
CONTINUOUS
 62
      32
100
AcDbLine
 10
-461.80034089
 20
-935.34380306
 30
0.0
 11
-462.96232956
 21
-936.50579173
 31
0.0
  0
LINE
  5
1C4
100
AcDbEntity
  8
ZUWAKU
  6
CONTINUOUS
 62
      32
100
AcDbLine
 10
-442.00135101
 20
-935.34380306
 30
0.0
 11
-449.87635101
 21
-943.21880306
 31
0.0
  0
LINE
  5
1C5
100
AcDbEntity
  8
ZUWAKU
  6
CONTINUOUS
 62
      32
100
AcDbLine
 10
-440.02145203
 20
-935.34380306
 30
0.0
 11
-447.89645203
 21
-943.21880306
 31
0.0
  0
LINE
  5
1C6
100
AcDbEntity
  8
ZUWAKU
  6
CONTINUOUS
 62
      32
100
AcDbLine
 10
-438.04155304
 20
-935.34380306
 30
0.0
 11
-445.91655304
 21
-943.21880306
 31
0.0
  0
LINE
  5
1C7
100
AcDbEntity
  8
ZUWAKU
  6
CONTINUOUS
 62
      32
100
AcDbLine
 10
-436.06165405
 20
-935.34380306
 30
0.0
 11
-443.93665405
 21
-943.21880306
 31
0.0
  0
LINE
  5
1C8
100
AcDbEntity
  8
ZUWAKU
  6
CONTINUOUS
 62
      32
100
AcDbLine
 10
-434.08175506
 20
-935.34380306
 30
0.0
 11
-441.95675506
 21
-943.21880306
 31
0.0
  0
LINE
  5
1C9
100
AcDbEntity
  8
ZUWAKU
  6
CONTINUOUS
 62
      32
100
AcDbLine
 10
-432.10185608
 20
-935.34380306
 30
0.0
 11
-439.97685608
 21
-943.21880306
 31
0.0
  0
LINE
  5
1CA
100
AcDbEntity
  8
ZUWAKU
  6
CONTINUOUS
 62
      32
100
AcDbLine
 10
-430.89527146
 20
-936.11711742
 30
0.0
 11
-437.99695709
 21
-943.21880306
 31
0.0
  0
LINE
  5
1CB
100
AcDbEntity
  8
ZUWAKU
  6
CONTINUOUS
 62
      32
100
AcDbLine
 10
-431.88522095
 20
-939.0869659
 30
0.0
 11
-436.0170581
 21
-943.21880306
 31
0.0
  0
LINE
  5
1CC
100
AcDbEntity
  8
ZUWAKU
  6
CONTINUOUS
 62
      32
100
AcDbLine
 10
-432.87517044
 20
-942.05681438
 30
0.0
 11
-434.03715911
 21
-943.21880306
 31
0.0
  0
LINE
  5
1CD
100
AcDbEntity
  8
ZUWAKU
  6
CONTINUOUS
 62
      32
100
AcDbLine
 10
-443.325
 20
-947.15630306
 30
0.0
 11
-449.45
 21
-953.28130306
 31
0.0
  0
LINE
  5
1CE
100
AcDbEntity
  8
ZUWAKU
  6
CONTINUOUS
 62
      32
100
AcDbLine
 10
-459.5125
 20
-963.34380306
 30
0.0
 11
-466.075
 21
-969.90630306
 31
0.0
  0
LINE
  5
1CF
100
AcDbEntity
  8
ZUWAKU
  6
CONTINUOUS
 62
      32
100
AcDbLine
 10
-445.30489899
 20
-947.15630306
 30
0.0
 11
-451.42989899
 21
-953.28130306
 31
0.0
  0
LINE
  5
1D0
100
AcDbEntity
  8
ZUWAKU
  6
CONTINUOUS
 62
      32
100
AcDbLine
 10
-461.49239899
 20
-963.34380306
 30
0.0
 11
-468.05489899
 21
-969.90630306
 31
0.0
  0
LINE
  5
1D1
100
AcDbEntity
  8
ZUWAKU
  6
CONTINUOUS
 62
      32
100
AcDbLine
 10
-447.28479797
 20
-947.15630306
 30
0.0
 11
-453.40979797
 21
-953.28130306
 31
0.0
  0
LINE
  5
1D2
100
AcDbEntity
  8
ZUWAKU
  6
CONTINUOUS
 62
      32
100
AcDbLine
 10
-463.47229797
 20
-963.34380306
 30
0.0
 11
-470.03479797
 21
-969.90630306
 31
0.0
  0
LINE
  5
1D3
100
AcDbEntity
  8
ZUWAKU
  6
CONTINUOUS
 62
      32
100
AcDbLine
 10
-449.26469696
 20
-947.15630306
 30
0.0
 11
-455.38969696
 21
-953.28130306
 31
0.0
  0
LINE
  5
1D4
100
AcDbEntity
  8
ZUWAKU
  6
CONTINUOUS
 62
      32
100
AcDbLine
 10
-465.45219696
 20
-963.34380306
 30
0.0
 11
-472.01469696
 21
-969.90630306
 31
0.0
  0
LINE
  5
1D5
100
AcDbEntity
  8
ZUWAKU
  6
CONTINUOUS
 62
      32
100
AcDbLine
 10
-451.24459595
 20
-947.15630306
 30
0.0
 11
-457.36959595
 21
-953.28130306
 31
0.0
  0
LINE
  5
1D6
100
AcDbEntity
  8
ZUWAKU
  6
CONTINUOUS
 62
      32
100
AcDbLine
 10
-467.43209595
 20
-963.34380306
 30
0.0
 11
-473.99459595
 21
-969.90630306
 31
0.0
  0
LINE
  5
1D7
100
AcDbEntity
  8
ZUWAKU
  6
CONTINUOUS
 62
      32
100
AcDbLine
 10
-453.22449494
 20
-947.15630306
 30
0.0
 11
-459.34949494
 21
-953.28130306
 31
0.0
  0
LINE
  5
1D8
100
AcDbEntity
  8
ZUWAKU
  6
CONTINUOUS
 62
      32
100
AcDbLine
 10
-469.41199494
 20
-963.34380306
 30
0.0
 11
-474.05867004
 21
-967.99047816
 31
0.0
  0
LINE
  5
1D9
100
AcDbEntity
  8
ZUWAKU
  6
CONTINUOUS
 62
      32
100
AcDbLine
 10
-455.20439392
 20
-947.15630306
 30
0.0
 11
-461.32939392
 21
-953.28130306
 31
0.0
  0
LINE
  5
1DA
100
AcDbEntity
  8
ZUWAKU
  6
CONTINUOUS
 62
      32
100
AcDbLine
 10
-471.39189392
 20
-963.34380306
 30
0.0
 11
-472.73873738
 21
-964.69064652
 31
0.0
  0
LINE
  5
1DB
100
AcDbEntity
  8
ZUWAKU
  6
CONTINUOUS
 62
      32
100
AcDbLine
 10
-457.18429291
 20
-947.15630306
 30
0.0
 11
-463.30929291
 21
-953.28130306
 31
0.0
  0
LINE
  5
1DC
100
AcDbEntity
  8
ZUWAKU
  6
CONTINUOUS
 62
      32
100
AcDbLine
 10
-459.1641919
 20
-947.15630306
 30
0.0
 11
-465.2891919
 21
-953.28130306
 31
0.0
  0
LINE
  5
1DD
100
AcDbEntity
  8
ZUWAKU
  6
CONTINUOUS
 62
      32
100
AcDbLine
 10
-461.14409089
 20
-947.15630306
 30
0.0
 11
-467.26909089
 21
-953.28130306
 31
0.0
  0
LINE
  5
1DE
100
AcDbEntity
  8
ZUWAKU
  6
CONTINUOUS
 62
      32
100
AcDbLine
 10
-463.12398987
 20
-947.15630306
 30
0.0
 11
-467.25540405
 21
-951.28771723
 31
0.0
  0
LINE
  5
1DF
100
AcDbEntity
  8
ZUWAKU
  6
CONTINUOUS
 62
      32
100
AcDbLine
 10
-465.10388886
 20
-947.15630306
 30
0.0
 11
-466.46344446
 21
-948.51585865
 31
0.0
  0
LINE
  5
1E0
100
AcDbEntity
  8
ZUWAKU
  6
CONTINUOUS
 62
      32
100
AcDbLine
 10
-441.34510101
 20
-947.15630306
 30
0.0
 11
-450.24195959
 21
-956.05316164
 31
0.0
  0
LINE
  5
1E1
100
AcDbEntity
  8
ZUWAKU
  6
CONTINUOUS
 62
      32
100
AcDbLine
 10
-456.95785354
 20
-962.76905559
 30
0.0
 11
-464.09510101
 21
-969.90630306
 31
0.0
  0
LINE
  5
1E2
100
AcDbEntity
  8
ZUWAKU
  6
CONTINUOUS
 62
      32
100
AcDbLine
 10
-439.36520203
 20
-947.15630306
 30
0.0
 11
-462.11520203
 21
-969.90630306
 31
0.0
  0
LINE
  5
1E3
100
AcDbEntity
  8
ZUWAKU
  6
CONTINUOUS
 62
      32
100
AcDbLine
 10
-437.38530304
 20
-947.15630306
 30
0.0
 11
-460.13530304
 21
-969.90630306
 31
0.0
  0
LINE
  5
1E4
100
AcDbEntity
  8
ZUWAKU
  6
CONTINUOUS
 62
      32
100
AcDbLine
 10
-435.40540405
 20
-947.15630306
 30
0.0
 11
-458.15540405
 21
-969.90630306
 31
0.0
  0
LINE
  5
1E5
100
AcDbEntity
  8
ZUWAKU
  6
CONTINUOUS
 62
      32
100
AcDbLine
 10
-435.23185425
 20
-948.96265224
 30
0.0
 11
-456.17550506
 21
-969.90630306
 31
0.0
  0
LINE
  5
1E6
100
AcDbEntity
  8
ZUWAKU
  6
CONTINUOUS
 62
      32
100
AcDbLine
 10
-436.3632251
 20
-952.07392208
 30
0.0
 11
-454.19560608
 21
-969.90630306
 31
0.0
  0
LINE
  5
1E7
100
AcDbEntity
  8
ZUWAKU
  6
CONTINUOUS
 62
      32
100
AcDbLine
 10
-437.49459595
 20
-955.18519192
 30
0.0
 11
-452.11677612
 21
-969.80737209
 31
0.0
  0
LINE
  5
1E8
100
AcDbEntity
  8
ZUWAKU
  6
CONTINUOUS
 62
      32
100
AcDbLine
 10
-438.6259668
 20
-958.29646175
 30
0.0
 11
-449.4769108
 21
-969.14740576
 31
0.0
  0
LINE
  5
1E9
100
AcDbEntity
  8
ZUWAKU
  6
CONTINUOUS
 62
      32
100
AcDbLine
 10
-439.75733765
 20
-961.40773159
 30
0.0
 11
-445.74931823
 21
-967.39971217
 31
0.0
  0
LINE
  5
1EA
100
AcDbEntity
  8
ZUWAKU
  6
CONTINUOUS
 62
      32
100
AcDbLine
 10
-467.9125
 20
-935.34380306
 30
0.0
 11
-486.04140625
 21
-953.47270931
 31
0.0
  0
LINE
  5
1EB
100
AcDbEntity
  8
ZUWAKU
  6
CONTINUOUS
 62
      32
100
AcDbLine
 10
-495.7875
 20
-963.21880306
 30
0.0
 11
-502.475
 21
-969.90630306
 31
0.0
  0
LINE
  5
1EC
100
AcDbEntity
  8
ZUWAKU
  6
CONTINUOUS
 62
      32
100
AcDbLine
 10
-469.89239899
 20
-935.34380306
 30
0.0
 11
-484.86584123
 21
-950.31724529
 31
0.0
  0
LINE
  5
1ED
100
AcDbEntity
  8
ZUWAKU
  6
CONTINUOUS
 62
      32
100
AcDbLine
 10
-497.89239899
 20
-963.34380306
 30
0.0
 11
-502.14130051
 21
-967.59270458
 31
0.0
  0
LINE
  5
1EE
100
AcDbEntity
  8
ZUWAKU
  6
CONTINUOUS
 62
      32
100
AcDbLine
 10
-471.87229797
 20
-935.34380306
 30
0.0
 11
-483.6902762
 21
-947.16178128
 31
0.0
  0
LINE
  5
1EF
100
AcDbEntity
  8
ZUWAKU
  6
CONTINUOUS
 62
      32
100
AcDbLine
 10
-499.87229797
 20
-963.34380306
 30
0.0
 11
-501.15135101
 21
-964.62285609
 31
0.0
  0
LINE
  5
1F0
100
AcDbEntity
  8
ZUWAKU
  6
CONTINUOUS
 62
      32
100
AcDbLine
 10
-473.85219696
 20
-935.34380306
 30
0.0
 11
-482.51471118
 21
-944.00631727
 31
0.0
  0
LINE
  5
1F1
100
AcDbEntity
  8
ZUWAKU
  6
CONTINUOUS
 62
      32
100
AcDbLine
 10
-475.83209595
 20
-935.34380306
 30
0.0
 11
-481.33914616
 21
-940.85085326
 31
0.0
  0
LINE
  5
1F2
100
AcDbEntity
  8
ZUWAKU
  6
CONTINUOUS
 62
      32
100
AcDbLine
 10
-477.81199494
 20
-935.34380306
 30
0.0
 11
-480.16358113
 21
-937.69538925
 31
0.0
  0
LINE
  5
1F3
100
AcDbEntity
  8
ZUWAKU
  6
CONTINUOUS
 62
      32
100
AcDbLine
 10
-468.26597384
 20
-937.67717588
 30
0.0
 11
-487.21697127
 21
-956.62817332
 31
0.0
  0
LINE
  5
1F4
100
AcDbEntity
  8
ZUWAKU
  6
CONTINUOUS
 62
      32
100
AcDbLine
 10
-493.5247583
 20
-962.93596034
 30
0.0
 11
-500.49510101
 21
-969.90630306
 31
0.0
  0
LINE
  5
1F5
100
AcDbEntity
  8
ZUWAKU
  6
CONTINUOUS
 62
      32
100
AcDbLine
 10
-469.28130665
 20
-940.67240768
 30
0.0
 11
-489.74290405
 21
-961.13400508
 31
0.0
  0
LINE
  5
1F6
100
AcDbEntity
  8
ZUWAKU
  6
CONTINUOUS
 62
      32
100
AcDbLine
 10
-489.82466329
 20
-961.21576432
 30
0.0
 11
-498.51520203
 21
-969.90630306
 31
0.0
  0
LINE
  5
1F7
100
AcDbEntity
  8
ZUWAKU
  6
CONTINUOUS
 62
      32
100
AcDbLine
 10
-470.29663947
 20
-943.66763949
 30
0.0
 11
-496.53530304
 21
-969.90630306
 31
0.0
  0
LINE
  5
1F8
100
AcDbEntity
  8
ZUWAKU
  6
CONTINUOUS
 62
      32
100
AcDbLine
 10
-471.31197228
 20
-946.66287129
 30
0.0
 11
-494.55540405
 21
-969.90630306
 31
0.0
  0
LINE
  5
1F9
100
AcDbEntity
  8
ZUWAKU
  6
CONTINUOUS
 62
      32
100
AcDbLine
 10
-472.3273051
 20
-949.65810309
 30
0.0
 11
-492.57550506
 21
-969.90630306
 31
0.0
  0
LINE
  5
1FA
100
AcDbEntity
  8
ZUWAKU
  6
CONTINUOUS
 62
      32
100
AcDbLine
 10
-473.34263791
 20
-952.65333489
 30
0.0
 11
-490.44234008
 21
-969.75303706
 31
0.0
  0
LINE
  5
1FB
100
AcDbEntity
  8
ZUWAKU
  6
CONTINUOUS
 62
      32
100
AcDbLine
 10
-474.35797072
 20
-955.64856669
 30
0.0
 11
-488.24245232
 21
-969.53304829
 31
0.0
  0
LINE
  5
1FC
100
AcDbEntity
  8
ZUWAKU
  6
CONTINUOUS
 62
      32
100
AcDbLine
 10
-475.37330354
 20
-958.64379849
 30
0.0
 11
-485.26384684
 21
-968.53434179
 31
0.0
  0
LINE
  5
1FD
100
AcDbEntity
  8
ZUWAKU
  6
CONTINUOUS
 62
      32
100
AcDbLine
 10
-488.95625
 20
-937.79380306
 30
0.0
 11
-505.13528226
 21
-953.97283531
 31
0.0
  0
LINE
  5
1FE
100
AcDbEntity
  8
ZUWAKU
  6
CONTINUOUS
 62
      32
100
AcDbLine
 10
-488.48614899
 20
-935.34380306
 30
0.0
 11
-504.0495312
 21
-950.90718527
 31
0.0
  0
LINE
  5
1FF
100
AcDbEntity
  8
ZUWAKU
  6
CONTINUOUS
 62
      32
100
AcDbLine
 10
-490.46604797
 20
-935.34380306
 30
0.0
 11
-502.96378014
 21
-947.84153522
 31
0.0
  0
LINE
  5
200
100
AcDbEntity
  8
ZUWAKU
  6
CONTINUOUS
 62
      32
100
AcDbLine
 10
-492.44594696
 20
-935.34380306
 30
0.0
 11
-501.87802909
 21
-944.77588518
 31
0.0
  0
LINE
  5
201
100
AcDbEntity
  8
ZUWAKU
  6
CONTINUOUS
 62
      32
100
AcDbLine
 10
-494.42584595
 20
-935.34380306
 30
0.0
 11
-500.79227803
 21
-941.71023513
 31
0.0
  0
LINE
  5
202
100
AcDbEntity
  8
ZUWAKU
  6
CONTINUOUS
 62
      32
100
AcDbLine
 10
-496.40574494
 20
-935.34380306
 30
0.0
 11
-499.70652697
 21
-938.64458509
 31
0.0
  0
LINE
  5
203
100
AcDbEntity
  8
ZUWAKU
  6
CONTINUOUS
 62
      32
100
AcDbLine
 10
-498.38564392
 20
-935.34380306
 30
0.0
 11
-498.62077591
 21
-935.57893504
 31
0.0
  0
LINE
  5
204
100
AcDbEntity
  8
ZUWAKU
  6
CONTINUOUS
 62
      32
100
AcDbLine
 10
-490.14418939
 20
-940.96164144
 30
0.0
 11
-505.52635101
 21
-956.34380306
 31
0.0
  0
LINE
  5
205
100
AcDbEntity
  8
ZUWAKU
  6
CONTINUOUS
 62
      32
100
AcDbLine
 10
-491.33212878
 20
-944.12947982
 30
0.0
 11
-503.54645203
 21
-956.34380306
 31
0.0
  0
LINE
  5
206
100
AcDbEntity
  8
ZUWAKU
  6
CONTINUOUS
 62
      32
100
AcDbLine
 10
-492.52006818
 20
-947.2973182
 30
0.0
 11
-501.56655304
 21
-956.34380306
 31
0.0
  0
LINE
  5
207
100
AcDbEntity
  8
ZUWAKU
  6
CONTINUOUS
 62
      32
100
AcDbLine
 10
-493.70800757
 20
-950.46515657
 30
0.0
 11
-499.58665405
 21
-956.34380306
 31
0.0
  0
LINE
  5
208
100
AcDbEntity
  8
ZUWAKU
  6
CONTINUOUS
 62
      32
100
AcDbLine
 10
-494.89594696
 20
-953.63299495
 30
0.0
 11
-497.60675506
 21
-956.34380306
 31
0.0
  0
LINE
  5
209
100
AcDbEntity
  8
ZUWAKU
  6
CONTINUOUS
 62
      32
100
AcDbLine
 10
697.5
 20
-142.59380306
 30
0.0
 11
736.0
 21
-142.59380306
 31
0.0
  0
LINE
  5
20A
100
AcDbEntity
  8
ZUWAKU
  6
CONTINUOUS
 62
      32
100
AcDbLine
 10
697.5
 20
-177.59380306
 30
0.0
 11
736.0
 21
-177.59380306
 31
0.0
  0
LINE
  5
20B
100
AcDbEntity
  8
ZUWAKU
  6
CONTINUOUS
 62
      32
100
AcDbLine
 10
736.0
 20
-142.59380306
 30
0.0
 11
736.0
 21
-177.59380306
 31
0.0
  0
LINE
  5
20C
100
AcDbEntity
  8
ZUWAKU
  6
CONTINUOUS
 62
      32
100
AcDbLine
 10
697.5
 20
-142.59380306
 30
0.0
 11
697.5
 21
-177.59380306
 31
0.0
  0
LINE
  5
20D
100
AcDbEntity
  8
ZUWAKU
  6
CONTINUOUS
 62
      32
100
AcDbLine
 10
736.0
 20
-177.47193432
 30
0.0
 11
735.87813127
 21
-177.59380306
 31
0.0
  0
LINE
  5
20E
100
AcDbEntity
  8
ZUWAKU
  6
CONTINUOUS
 62
      32
100
AcDbLine
 10
715.45771724
 20
-142.59380306
 30
0.0
 11
697.5
 21
-160.5515203
 31
0.0
  0
LINE
  5
20F
100
AcDbEntity
  8
ZUWAKU
  6
CONTINUOUS
 62
      32
100
AcDbLine
 10
713.47781825
 20
-142.59380306
 30
0.0
 11
697.5
 21
-158.57162131
 31
0.0
  0
LINE
  5
210
100
AcDbEntity
  8
ZUWAKU
  6
CONTINUOUS
 62
      32
100
AcDbLine
 10
711.49791927
 20
-142.59380306
 30
0.0
 11
697.5
 21
-156.59172232
 31
0.0
  0
LINE
  5
211
100
AcDbEntity
  8
ZUWAKU
  6
CONTINUOUS
 62
      32
100
AcDbLine
 10
709.51802028
 20
-142.59380306
 30
0.0
 11
697.5
 21
-154.61182333
 31
0.0
  0
LINE
  5
212
100
AcDbEntity
  8
ZUWAKU
  6
CONTINUOUS
 62
      32
100
AcDbLine
 10
707.53812129
 20
-142.59380306
 30
0.0
 11
697.5
 21
-152.63192435
 31
0.0
  0
LINE
  5
213
100
AcDbEntity
  8
ZUWAKU
  6
CONTINUOUS
 62
      32
100
AcDbLine
 10
705.5582223
 20
-142.59380306
 30
0.0
 11
697.5
 21
-150.65202536
 31
0.0
  0
LINE
  5
214
100
AcDbEntity
  8
ZUWAKU
  6
CONTINUOUS
 62
      32
100
AcDbLine
 10
703.57832332
 20
-142.59380306
 30
0.0
 11
697.5
 21
-148.67212637
 31
0.0
  0
LINE
  5
215
100
AcDbEntity
  8
ZUWAKU
  6
CONTINUOUS
 62
      32
100
AcDbLine
 10
701.59842433
 20
-142.59380306
 30
0.0
 11
697.5
 21
-146.69222739
 31
0.0
  0
LINE
  5
216
100
AcDbEntity
  8
ZUWAKU
  6
CONTINUOUS
 62
      32
100
AcDbLine
 10
699.61852534
 20
-142.59380306
 30
0.0
 11
697.5
 21
-144.7123284
 31
0.0
  0
LINE
  5
217
100
AcDbEntity
  8
ZUWAKU
  6
CONTINUOUS
 62
      32
100
AcDbLine
 10
717.43761623
 20
-142.59380306
 30
0.0
 11
697.5
 21
-162.53141928
 31
0.0
  0
LINE
  5
218
100
AcDbEntity
  8
ZUWAKU
  6
CONTINUOUS
 62
      32
100
AcDbLine
 10
719.41751521
 20
-142.59380306
 30
0.0
 11
697.5
 21
-164.51131827
 31
0.0
  0
LINE
  5
219
100
AcDbEntity
  8
ZUWAKU
  6
CONTINUOUS
 62
      32
100
AcDbLine
 10
721.3974142
 20
-142.59380306
 30
0.0
 11
697.5
 21
-166.49121726
 31
0.0
  0
LINE
  5
21A
100
AcDbEntity
  8
ZUWAKU
  6
CONTINUOUS
 62
      32
100
AcDbLine
 10
723.37731319
 20
-142.59380306
 30
0.0
 11
697.5
 21
-168.47111625
 31
0.0
  0
LINE
  5
21B
100
AcDbEntity
  8
ZUWAKU
  6
CONTINUOUS
 62
      32
100
AcDbLine
 10
725.35721218
 20
-142.59380306
 30
0.0
 11
697.5
 21
-170.45101523
 31
0.0
  0
LINE
  5
21C
100
AcDbEntity
  8
ZUWAKU
  6
CONTINUOUS
 62
      32
100
AcDbLine
 10
727.33711116
 20
-142.59380306
 30
0.0
 11
697.5
 21
-172.43091422
 31
0.0
  0
LINE
  5
21D
100
AcDbEntity
  8
ZUWAKU
  6
CONTINUOUS
 62
      32
100
AcDbLine
 10
729.31701015
 20
-142.59380306
 30
0.0
 11
697.5
 21
-174.41081321
 31
0.0
  0
LINE
  5
21E
100
AcDbEntity
  8
ZUWAKU
  6
CONTINUOUS
 62
      32
100
AcDbLine
 10
731.29690914
 20
-142.59380306
 30
0.0
 11
697.5
 21
-176.39071219
 31
0.0
  0
LINE
  5
21F
100
AcDbEntity
  8
ZUWAKU
  6
CONTINUOUS
 62
      32
100
AcDbLine
 10
733.27680813
 20
-142.59380306
 30
0.0
 11
698.27680813
 21
-177.59380306
 31
0.0
  0
LINE
  5
220
100
AcDbEntity
  8
ZUWAKU
  6
CONTINUOUS
 62
      32
100
AcDbLine
 10
735.25670711
 20
-142.59380306
 30
0.0
 11
700.25670711
 21
-177.59380306
 31
0.0
  0
LINE
  5
221
100
AcDbEntity
  8
ZUWAKU
  6
CONTINUOUS
 62
      32
100
AcDbLine
 10
736.0
 20
-143.83040916
 30
0.0
 11
702.2366061
 21
-177.59380306
 31
0.0
  0
LINE
  5
222
100
AcDbEntity
  8
ZUWAKU
  6
CONTINUOUS
 62
      32
100
AcDbLine
 10
736.0
 20
-145.81030814
 30
0.0
 11
704.21650509
 21
-177.59380306
 31
0.0
  0
LINE
  5
223
100
AcDbEntity
  8
ZUWAKU
  6
CONTINUOUS
 62
      32
100
AcDbLine
 10
736.0
 20
-147.79020713
 30
0.0
 11
706.19640408
 21
-177.59380306
 31
0.0
  0
LINE
  5
224
100
AcDbEntity
  8
ZUWAKU
  6
CONTINUOUS
 62
      32
100
AcDbLine
 10
736.0
 20
-149.77010612
 30
0.0
 11
708.17630306
 21
-177.59380306
 31
0.0
  0
LINE
  5
225
100
AcDbEntity
  8
ZUWAKU
  6
CONTINUOUS
 62
      32
100
AcDbLine
 10
736.0
 20
-151.75000511
 30
0.0
 11
710.15620205
 21
-177.59380306
 31
0.0
  0
LINE
  5
226
100
AcDbEntity
  8
ZUWAKU
  6
CONTINUOUS
 62
      32
100
AcDbLine
 10
736.0
 20
-153.72990409
 30
0.0
 11
712.13610104
 21
-177.59380306
 31
0.0
  0
LINE
  5
227
100
AcDbEntity
  8
ZUWAKU
  6
CONTINUOUS
 62
      32
100
AcDbLine
 10
736.0
 20
-155.70980308
 30
0.0
 11
714.11600002
 21
-177.59380306
 31
0.0
  0
LINE
  5
228
100
AcDbEntity
  8
ZUWAKU
  6
CONTINUOUS
 62
      32
100
AcDbLine
 10
736.0
 20
-157.68970207
 30
0.0
 11
716.09589901
 21
-177.59380306
 31
0.0
  0
LINE
  5
229
100
AcDbEntity
  8
ZUWAKU
  6
CONTINUOUS
 62
      32
100
AcDbLine
 10
736.0
 20
-159.66960106
 30
0.0
 11
718.075798
 21
-177.59380306
 31
0.0
  0
LINE
  5
22A
100
AcDbEntity
  8
ZUWAKU
  6
CONTINUOUS
 62
      32
100
AcDbLine
 10
736.0
 20
-161.64950004
 30
0.0
 11
720.05569699
 21
-177.59380306
 31
0.0
  0
LINE
  5
22B
100
AcDbEntity
  8
ZUWAKU
  6
CONTINUOUS
 62
      32
100
AcDbLine
 10
736.0
 20
-163.62939903
 30
0.0
 11
722.03559597
 21
-177.59380306
 31
0.0
  0
LINE
  5
22C
100
AcDbEntity
  8
ZUWAKU
  6
CONTINUOUS
 62
      32
100
AcDbLine
 10
736.0
 20
-165.60929802
 30
0.0
 11
724.01549496
 21
-177.59380306
 31
0.0
  0
LINE
  5
22D
100
AcDbEntity
  8
ZUWAKU
  6
CONTINUOUS
 62
      32
100
AcDbLine
 10
736.0
 20
-167.589197
 30
0.0
 11
725.99539395
 21
-177.59380306
 31
0.0
  0
LINE
  5
22E
100
AcDbEntity
  8
ZUWAKU
  6
CONTINUOUS
 62
      32
100
AcDbLine
 10
736.0
 20
-169.56909599
 30
0.0
 11
727.97529294
 21
-177.59380306
 31
0.0
  0
LINE
  5
22F
100
AcDbEntity
  8
ZUWAKU
  6
CONTINUOUS
 62
      32
100
AcDbLine
 10
736.0
 20
-171.54899498
 30
0.0
 11
729.95519192
 21
-177.59380306
 31
0.0
  0
LINE
  5
230
100
AcDbEntity
  8
ZUWAKU
  6
CONTINUOUS
 62
      32
100
AcDbLine
 10
736.0
 20
-173.52889397
 30
0.0
 11
731.93509091
 21
-177.59380306
 31
0.0
  0
LINE
  5
231
100
AcDbEntity
  8
ZUWAKU
  6
CONTINUOUS
 62
      32
100
AcDbLine
 10
736.0
 20
-175.50879295
 30
0.0
 11
733.9149899
 21
-177.59380306
 31
0.0
  0
LINE
  5
232
100
AcDbEntity
  8
ZUWAKU
  6
CONTINUOUS
 62
      32
100
AcDbLine
 10
736.0
 20
-177.48869194
 30
0.0
 11
735.89488889
 21
-177.59380306
 31
0.0
  0
LINE
  5
233
100
AcDbEntity
  8
ZUWAKU
  6
CONTINUOUS
 62
      32
100
AcDbLine
 10
-564.25
 20
974.34369694
 30
0.0
 11
-570.18280435
 21
984.84019694
 31
0.0
  0
LINE
  5
234
100
AcDbEntity
  8
ZUWAKU
  6
CONTINUOUS
 62
      32
100
AcDbLine
 10
-593.82889078
 20
994.03119694
 30
0.0
 11
-593.09972411
 21
996.21869694
 31
0.0
  0
LINE
  5
235
100
AcDbEntity
  8
ZUWAKU
  6
CONTINUOUS
 62
      32
100
AcDbLine
 10
-538.07208383
 20
976.93265503
 30
0.0
 11
-538.868
 21
976.53469694
 31
0.0
  0
LINE
  5
236
100
AcDbEntity
  8
ZUWAKU
  6
CONTINUOUS
 62
      32
100
AcDbLine
 10
-537.5625
 20
974.34369694
 30
0.0
 11
-533.8875
 21
978.01869694
 31
0.0
  0
LINE
  5
237
100
AcDbEntity
  8
ZUWAKU
  6
CONTINUOUS
 62
      32
100
AcDbLine
 10
-534.5
 20
974.34369694
 30
0.0
 11
-533.8875
 21
978.01869694
 31
0.0
  0
LINE
  5
238
100
AcDbEntity
  8
ZUWAKU
  6
CONTINUOUS
 62
      32
100
AcDbLine
 10
-518.3125
 20
977.40619694
 30
0.0
 11
-518.3125
 21
976.53469694
 31
0.0
  0
LINE
  5
239
100
AcDbEntity
  8
ZUWAKU
  6
CONTINUOUS
 62
      32
100
AcDbLine
 10
-498.95735618
 20
974.34369694
 30
0.0
 11
-506.9375
 21
974.34369694
 31
0.0
  0
LINE
  5
23A
100
AcDbEntity
  8
ZUWAKU
  6
CONTINUOUS
 62
      32
100
AcDbLine
 10
-511.24927266
 20
977.46152086
 30
0.0
 11
-514.8125
 21
974.34369694
 31
0.0
  0
LINE
  5
23B
100
AcDbEntity
  8
ZUWAKU
  6
CONTINUOUS
 62
      32
100
AcDbLine
 10
-485.96726398
 20
974.34369694
 30
0.0
 11
-495.125
 21
974.34369694
 31
0.0
  0
LINE
  5
23C
100
AcDbEntity
  8
ZUWAKU
  6
CONTINUOUS
 62
      32
100
AcDbLine
 10
-577.209625
 20
976.53469694
 30
0.0
 11
-570.6484375
 21
994.03119694
 31
0.0
  0
LINE
  5
23D
100
AcDbEntity
  8
ZUWAKU
  6
CONTINUOUS
 62
      32
100
AcDbLine
 10
-570.93344847
 20
987.03119694
 30
0.0
 11
-560.69275508
 21
987.03119694
 31
0.0
  0
LINE
  5
23E
100
AcDbEntity
  8
ZUWAKU
  6
CONTINUOUS
 62
      32
100
AcDbLine
 10
-505.02840909
 20
979.59369694
 30
0.0
 11
-506.5
 21
979.59369694
 31
0.0
  0
LINE
  5
23F
100
AcDbEntity
  8
ZUWAKU
  6
CONTINUOUS
 62
      32
100
AcDbLine
 10
-506.5
 20
979.59369694
 30
0.0
 11
-507.94629876
 21
979.59369694
 31
0.0
  0
LINE
  5
240
100
AcDbEntity
  8
ZUWAKU
  6
CONTINUOUS
 62
      32
100
AcDbLine
 10
-520.74321362
 20
974.34369694
 30
0.0
 11
-514.8125
 21
974.34369694
 31
0.0
  0
CIRCLE
  5
241
100
AcDbEntity
  8
ZUWAKU
  6
CONTINUOUS
 62
      32
100
AcDbCircle
 10
-530.35652668
 20
986.59369694
 30
0.0
 40
1.32527668
  0
LINE
  5
242
100
AcDbEntity
  8
ZUWAKU
  6
CONTINUOUS
 62
      32
100
AcDbLine
 10
-575.5703125
 20
994.03119694
 30
0.0
 11
-570.6484375
 21
994.03119694
 31
0.0
  0
LINE
  5
243
100
AcDbEntity
  8
ZUWAKU
  6
CONTINUOUS
 62
      32
100
AcDbLine
 10
-568.30844847
 20
994.03119694
 30
0.0
 11
-560.69275508
 21
994.03119694
 31
0.0
  0
LINE
  5
244
100
AcDbEntity
  8
ZUWAKU
  6
CONTINUOUS
 62
      32
100
AcDbLine
 10
-583.0625
 20
974.34369694
 30
0.0
 11
-582.240875
 21
976.53469694
 31
0.0
  0
LINE
  5
245
100
AcDbEntity
  8
ZUWAKU
  6
CONTINUOUS
 62
      32
100
AcDbLine
 10
-575.5703125
 20
994.03119694
 30
0.0
 11
-574.75
 21
996.21869694
 31
0.0
  0
LINE
  5
246
100
AcDbEntity
  8
ZUWAKU
  6
CONTINUOUS
 62
      32
100
AcDbLine
 10
-576.66511929
 20
994.03119694
 30
0.0
 11
-575.84480679
 21
996.21869694
 31
0.0
  0
LINE
  5
247
100
AcDbEntity
  8
ZUWAKU
  6
CONTINUOUS
 62
      32
100
AcDbLine
 10
-560.69275508
 20
996.21869694
 30
0.0
 11
-574.75
 21
996.21869694
 31
0.0
  0
LINE
  5
248
100
AcDbEntity
  8
ZUWAKU
  6
CONTINUOUS
 62
      32
100
AcDbLine
 10
-575.84480679
 20
996.21869694
 30
0.0
 11
-577.92317246
 21
996.21869694
 31
0.0
  0
LINE
  5
249
100
AcDbEntity
  8
ZUWAKU
  6
CONTINUOUS
 62
      32
100
AcDbLine
 10
-578.74348496
 20
994.03119694
 30
0.0
 11
-576.66511929
 21
994.03119694
 31
0.0
  0
LINE
  5
24A
100
AcDbEntity
  8
ZUWAKU
  6
CONTINUOUS
 62
      32
100
AcDbLine
 10
-579.54045206
 20
994.03119694
 30
0.0
 11
-578.72013956
 21
996.21869694
 31
0.0
  0
LINE
  5
24B
100
AcDbEntity
  8
ZUWAKU
  6
CONTINUOUS
 62
      32
100
AcDbLine
 10
-578.72013956
 20
996.21869694
 30
0.0
 11
-580.46229645
 21
996.21869694
 31
0.0
  0
LINE
  5
24C
100
AcDbEntity
  8
ZUWAKU
  6
CONTINUOUS
 62
      32
100
AcDbLine
 10
-581.28260895
 20
994.03119694
 30
0.0
 11
-579.54045206
 21
994.03119694
 31
0.0
  0
LINE
  5
24D
100
AcDbEntity
  8
ZUWAKU
  6
CONTINUOUS
 62
      32
100
AcDbLine
 10
-581.28260895
 20
994.03119694
 30
0.0
 11
-580.46229645
 21
996.21869694
 31
0.0
  0
LINE
  5
24E
100
AcDbEntity
  8
ZUWAKU
  6
CONTINUOUS
 62
      32
100
AcDbLine
 10
-581.94970426
 20
996.21869694
 30
0.0
 11
-583.65688609
 21
996.21869694
 31
0.0
  0
LINE
  5
24F
100
AcDbEntity
  8
ZUWAKU
  6
CONTINUOUS
 62
      32
100
AcDbLine
 10
-584.47719859
 20
994.03119694
 30
0.0
 11
-582.77001676
 21
994.03119694
 31
0.0
  0
LINE
  5
250
100
AcDbEntity
  8
ZUWAKU
  6
CONTINUOUS
 62
      32
100
AcDbLine
 10
-584.47719859
 20
994.03119694
 30
0.0
 11
-583.65688609
 21
996.21869694
 31
0.0
  0
LINE
  5
251
100
AcDbEntity
  8
ZUWAKU
  6
CONTINUOUS
 62
      32
100
AcDbLine
 10
-578.74348496
 20
994.03119694
 30
0.0
 11
-577.92317246
 21
996.21869694
 31
0.0
  0
LINE
  5
252
100
AcDbEntity
  8
ZUWAKU
  6
CONTINUOUS
 62
      32
100
AcDbLine
 10
-582.77001676
 20
994.03119694
 30
0.0
 11
-581.94970426
 21
996.21869694
 31
0.0
  0
LINE
  5
253
100
AcDbEntity
  8
ZUWAKU
  6
CONTINUOUS
 62
      32
100
AcDbLine
 10
-585.75585161
 20
994.03119694
 30
0.0
 11
-584.93553911
 21
996.21869694
 31
0.0
  0
LINE
  5
254
100
AcDbEntity
  8
ZUWAKU
  6
CONTINUOUS
 62
      32
100
AcDbLine
 10
-584.93553911
 20
996.21869694
 30
0.0
 11
-586.51399454
 21
996.21869694
 31
0.0
  0
LINE
  5
255
100
AcDbEntity
  8
ZUWAKU
  6
CONTINUOUS
 62
      32
100
AcDbLine
 10
-587.33430704
 20
994.03119694
 30
0.0
 11
-585.75585161
 21
994.03119694
 31
0.0
  0
LINE
  5
256
100
AcDbEntity
  8
ZUWAKU
  6
CONTINUOUS
 62
      32
100
AcDbLine
 10
-587.33430704
 20
994.03119694
 30
0.0
 11
-586.51399454
 21
996.21869694
 31
0.0
  0
LINE
  5
257
100
AcDbEntity
  8
ZUWAKU
  6
CONTINUOUS
 62
      32
100
AcDbLine
 10
-588.67049774
 20
994.03119694
 30
0.0
 11
-587.85018524
 21
996.21869694
 31
0.0
  0
LINE
  5
258
100
AcDbEntity
  8
ZUWAKU
  6
CONTINUOUS
 62
      32
100
AcDbLine
 10
-587.85018524
 20
996.21869694
 30
0.0
 11
-589.25383108
 21
996.21869694
 31
0.0
  0
LINE
  5
259
100
AcDbEntity
  8
ZUWAKU
  6
CONTINUOUS
 62
      32
100
AcDbLine
 10
-589.98299774
 20
994.03119694
 30
0.0
 11
-588.67049774
 21
994.03119694
 31
0.0
  0
LINE
  5
25A
100
AcDbEntity
  8
ZUWAKU
  6
CONTINUOUS
 62
      32
100
AcDbLine
 10
-589.98299774
 20
994.03119694
 30
0.0
 11
-589.25383108
 21
996.21869694
 31
0.0
  0
LINE
  5
25B
100
AcDbEntity
  8
ZUWAKU
  6
CONTINUOUS
 62
      32
100
AcDbLine
 10
-591.38070537
 20
994.03119694
 30
0.0
 11
-590.6515387
 21
996.21869694
 31
0.0
  0
LINE
  5
25C
100
AcDbEntity
  8
ZUWAKU
  6
CONTINUOUS
 62
      32
100
AcDbLine
 10
-592.51639078
 20
994.03119694
 30
0.0
 11
-591.78722411
 21
996.21869694
 31
0.0
  0
LINE
  5
25D
100
AcDbEntity
  8
ZUWAKU
  6
CONTINUOUS
 62
      32
100
AcDbLine
 10
-594.63097411
 20
994.03119694
 30
0.0
 11
-593.90180744
 21
996.21869694
 31
0.0
  0
LINE
  5
25E
100
AcDbEntity
  8
ZUWAKU
  6
CONTINUOUS
 62
      32
100
AcDbLine
 10
-596.01639078
 20
994.03119694
 30
0.0
 11
-595.28722411
 21
996.21869694
 31
0.0
  0
LINE
  5
25F
100
AcDbEntity
  8
ZUWAKU
  6
CONTINUOUS
 62
      32
100
AcDbLine
 10
-596.38097411
 20
994.03119694
 30
0.0
 11
-595.65180744
 21
996.21869694
 31
0.0
  0
LINE
  5
260
100
AcDbEntity
  8
ZUWAKU
  6
CONTINUOUS
 62
      32
100
AcDbLine
 10
-590.6515387
 20
996.21869694
 30
0.0
 11
-591.78722411
 21
996.21869694
 31
0.0
  0
LINE
  5
261
100
AcDbEntity
  8
ZUWAKU
  6
CONTINUOUS
 62
      32
100
AcDbLine
 10
-592.51639078
 20
994.03119694
 30
0.0
 11
-591.38070537
 21
994.03119694
 31
0.0
  0
LINE
  5
262
100
AcDbEntity
  8
ZUWAKU
  6
CONTINUOUS
 62
      32
100
AcDbLine
 10
-593.09972411
 20
996.21869694
 30
0.0
 11
-593.90180744
 21
996.21869694
 31
0.0
  0
LINE
  5
263
100
AcDbEntity
  8
ZUWAKU
  6
CONTINUOUS
 62
      32
100
AcDbLine
 10
-595.28722411
 20
996.21869694
 30
0.0
 11
-595.65180744
 21
996.21869694
 31
0.0
  0
LINE
  5
264
100
AcDbEntity
  8
ZUWAKU
  6
CONTINUOUS
 62
      32
100
AcDbLine
 10
-594.63097411
 20
994.03119694
 30
0.0
 11
-593.82889078
 21
994.03119694
 31
0.0
  0
LINE
  5
265
100
AcDbEntity
  8
ZUWAKU
  6
CONTINUOUS
 62
      32
100
AcDbLine
 10
-596.01639078
 20
994.03119694
 30
0.0
 11
-596.38097411
 21
994.03119694
 31
0.0
  0
ARC
  5
266
100
AcDbEntity
  8
ZUWAKU
  6
CONTINUOUS
 62
      32
100
AcDbCircle
 10
-560.69275508
 20
990.53119694
 30
0.0
 40
3.5
100
AcDbArc
 50
270.0
 51
450.0
  0
LINE
  5
267
100
AcDbEntity
  8
ZUWAKU
  6
CONTINUOUS
 62
      32
100
AcDbLine
 10
-582.240875
 20
976.53469694
 30
0.0
 11
-577.209625
 21
976.53469694
 31
0.0
  0
LINE
  5
268
100
AcDbEntity
  8
ZUWAKU
  6
CONTINUOUS
 62
      32
100
AcDbLine
 10
-583.0625
 20
974.34369694
 30
0.0
 11
-575.69126097
 21
974.34369694
 31
0.0
  0
LINE
  5
269
100
AcDbEntity
  8
ZUWAKU
  6
CONTINUOUS
 62
      32
100
AcDbLine
 10
-575.69126097
 20
974.34369694
 30
0.0
 11
-571.75507347
 21
984.84019694
 31
0.0
  0
LINE
  5
26A
100
AcDbEntity
  8
ZUWAKU
  6
CONTINUOUS
 62
      32
100
AcDbLine
 10
-570.93344847
 20
987.03119694
 30
0.0
 11
-568.30844847
 21
994.03119694
 31
0.0
  0
LINE
  5
26B
100
AcDbEntity
  8
ZUWAKU
  6
CONTINUOUS
 62
      32
100
AcDbLine
 10
-571.75507347
 20
984.84019694
 30
0.0
 11
-570.18280435
 21
984.84019694
 31
0.0
  0
LINE
  5
26C
100
AcDbEntity
  8
ZUWAKU
  6
CONTINUOUS
 62
      32
100
AcDbLine
 10
-567.66604174
 20
984.84019694
 30
0.0
 11
-560.69275508
 21
984.84019694
 31
0.0
  0
LINE
  5
26D
100
AcDbEntity
  8
ZUWAKU
  6
CONTINUOUS
 62
      32
100
AcDbLine
 10
-562.9716287
 20
976.53469694
 30
0.0
 11
-567.66604174
 21
984.84019694
 31
0.0
  0
ARC
  5
26E
100
AcDbEntity
  8
ZUWAKU
  6
CONTINUOUS
 62
      32
100
AcDbCircle
 10
-560.69275508
 20
990.53119694
 30
0.0
 40
5.6875
100
AcDbArc
 50
270.0
 51
450.0
  0
ELLIPSE
  5
26F
100
AcDbEntity
  8
ZUWAKU
  6
CONTINUOUS
 62
      32
100
AcDbEllipse
 10
-553.44630895
 20
979.27561632
 30
0.0
 11
-0.5762306429245427
 21
-1.0564228453613396
 31
0.0
210
0.0
220
0.0
230
1.0
 40
0.75209874
 41
0.0
 42
6.2831853071796004
  0
LINE
  5
270
100
AcDbEntity
  8
ZUWAKU
  6
CONTINUOUS
 62
      32
100
AcDbLine
 10
-564.25
 20
974.34369694
 30
0.0
 11
-556.375
 21
974.34369694
 31
0.0
  0
ELLIPSE
  5
271
100
AcDbEntity
  8
ZUWAKU
  6
CONTINUOUS
 62
      32
100
AcDbEllipse
 10
-553.44630895
 20
979.27561632
 30
0.0
 11
-1.840992469407297
 21
-3.3751528605788508
 31
0.0
210
0.0
220
0.0
230
1.0
 40
0.75209874
 41
1.163380251178052
 42
5.8601607076995661
  0
LINE
  5
272
100
AcDbEntity
  8
ZUWAKU
  6
CONTINUOUS
 62
      32
100
AcDbLine
 10
-562.9716287
 20
976.53469694
 30
0.0
 11
-556.50641824
 21
976.53469694
 31
0.0
  0
ARC
  5
273
100
AcDbEntity
  8
ZUWAKU
  6
CONTINUOUS
 62
      32
100
AcDbCircle
 10
-557.15815584
 20
981.44846966
 30
0.0
 40
4.95680584
100
AcDbArc
 50
277.55531967
 51
282.61004677
  0
ARC
  5
274
100
AcDbEntity
  8
ZUWAKU
  6
CONTINUOUS
 62
      32
100
AcDbCircle
 10
-557.15815584
 20
981.44846966
 30
0.0
 40
7.14780584
100
AcDbArc
 50
276.29029269
 51
293.79815684
  0
ARC
  5
275
100
AcDbEntity
  8
ZUWAKU
  6
CONTINUOUS
 62
      32
100
AcDbCircle
 10
-557.15815584
 20
981.44846966
 30
0.0
 40
7.14780584
100
AcDbArc
 50
316.57125834
 51
318.01426788
  0
ARC
  5
276
100
AcDbEntity
  8
ZUWAKU
  6
CONTINUOUS
 62
      32
100
AcDbCircle
 10
-552.02425288
 20
979.09427486
 30
0.0
 40
4.75208188
100
AcDbArc
 50
209.3318227
 51
211.50126528
  0
ARC
  5
277
100
AcDbEntity
  8
ZUWAKU
  6
CONTINUOUS
 62
      32
100
AcDbCircle
 10
-552.02425288
 20
979.09427486
 30
0.0
 40
4.75208188
100
AcDbArc
 50
241.74457829
 51
270.0
  0
ELLIPSE
  5
278
100
AcDbEntity
  8
ZUWAKU
  6
CONTINUOUS
 62
      32
100
AcDbEllipse
 10
-542.25799916
 20
982.21760892
 30
0.0
 11
-0.9593013231354917
 21
-1.9785589789672713
 31
0.0
210
0.0
220
0.0
230
1.0
 40
0.44219156
 41
0.0
 42
6.2831853071796004
  0
ARC
  5
279
100
AcDbEntity
  8
ZUWAKU
  6
CONTINUOUS
 62
      32
100
AcDbCircle
 10
-540.24038994
 20
982.79655906
 30
0.0
 40
8.49874786
100
AcDbArc
 50
241.28311564
 51
264.0434522
  0
LINE
  5
27A
100
AcDbEntity
  8
ZUWAKU
  6
CONTINUOUS
 62
      32
100
AcDbLine
 10
-552.02425288
 20
974.34369694
 30
0.0
 11
-547.09382435
 21
974.34369694
 31
0.0
  0
ARC
  5
27B
100
AcDbEntity
  8
ZUWAKU
  6
CONTINUOUS
 62
      32
100
AcDbCircle
 10
-540.24038994
 20
982.79655906
 30
0.0
 40
6.30774786
100
AcDbArc
 50
251.08708107
 51
263.08482824
  0
ARC
  5
27C
100
AcDbEntity
  8
ZUWAKU
  6
CONTINUOUS
 62
      32
100
AcDbCircle
 10
-548.9535912
 20
983.83633727
 30
0.0
 40
7.48210462
100
AcDbArc
 50
282.60950936
 51
291.93126974
  0
ELLIPSE
  5
27D
100
AcDbEntity
  8
ZUWAKU
  6
CONTINUOUS
 62
      32
100
AcDbEllipse
 10
-542.25799916
 20
982.21760892
 30
0.0
 11
-3.0648604573020748
 21
-6.3212746931867514
 31
0.0
210
0.0
220
0.0
230
1.0
 40
0.44219156
 41
1.1621663820477943
 42
5.8906096214263082
  0
LINE
  5
27E
100
AcDbEntity
  8
ZUWAKU
  6
CONTINUOUS
 62
      32
100
AcDbLine
 10
-551.96720543
 20
976.53469694
 30
0.0
 11
-547.32020877
 21
976.53469694
 31
0.0
  0
ARC
  5
27F
100
AcDbEntity
  8
ZUWAKU
  6
CONTINUOUS
 62
      32
100
AcDbCircle
 10
-548.9535912
 20
983.83633727
 30
0.0
 40
9.67310462
100
AcDbArc
 50
313.58286141
 51
326.24939265
  0
ARC
  5
280
100
AcDbEntity
  8
ZUWAKU
  6
CONTINUOUS
 62
      32
100
AcDbCircle
 10
-548.9535912
 20
983.83633727
 30
0.0
 40
9.67310462
100
AcDbArc
 50
281.08479974
 51
298.5950739
  0
LINE
  5
281
100
AcDbEntity
  8
ZUWAKU
  6
CONTINUOUS
 62
      32
100
AcDbLine
 10
-541.12234073
 20
974.34369694
 30
0.0
 11
-537.5625
 21
974.34369694
 31
0.0
  0
LINE
  5
282
100
AcDbEntity
  8
ZUWAKU
  6
CONTINUOUS
 62
      32
100
AcDbLine
 10
-538.07208383
 20
976.93265503
 30
0.0
 11
-532.11872269
 21
982.88601617
 31
0.0
  0
LINE
  5
283
100
AcDbEntity
  8
ZUWAKU
  6
CONTINUOUS
 62
      32
100
AcDbLine
 10
-531.91361122
 20
976.53469694
 30
0.0
 11
-530.95101031
 21
982.31030238
 31
0.0
  0
LINE
  5
284
100
AcDbEntity
  8
ZUWAKU
  6
CONTINUOUS
 62
      32
100
AcDbLine
 10
-540.99984098
 20
976.53469694
 30
0.0
 11
-538.868
 21
976.53469694
 31
0.0
  0
ARC
  5
285
100
AcDbEntity
  8
ZUWAKU
  6
CONTINUOUS
 62
      32
100
AcDbCircle
 10
-531.62158772
 20
982.42206528
 30
0.0
 40
0.6799953
100
AcDbArc
 50
350.53767779
 51
496.97750576
  0
ELLIPSE
  5
286
100
AcDbEntity
  8
ZUWAKU
  6
CONTINUOUS
 62
      32
100
AcDbEllipse
 10
-522.33854879
 20
978.45956625
 30
0.0
 11
-0.6382714098371025
 21
-1.0749834270939118
 31
0.0
210
0.0
220
0.0
230
1.0
 40
0.58819821
 41
0.0
 42
6.2831853071796004
  0
LINE
  5
287
100
AcDbEntity
  8
ZUWAKU
  6
CONTINUOUS
 62
      32
100
AcDbLine
 10
-529.60326145
 20
976.53469694
 30
0.0
 11
-525.95668196
 21
978.28620363
 31
0.0
  0
LINE
  5
288
100
AcDbEntity
  8
ZUWAKU
  6
CONTINUOUS
 62
      32
100
AcDbLine
 10
-529.25
 20
974.34369694
 30
0.0
 11
-526.1969541
 21
975.69653958
 31
0.0
  0
LINE
  5
289
100
AcDbEntity
  8
ZUWAKU
  6
CONTINUOUS
 62
      32
100
AcDbLine
 10
-531.91361122
 20
976.53469694
 30
0.0
 11
-529.60326145
 21
976.53469694
 31
0.0
  0
LINE
  5
28A
100
AcDbEntity
  8
ZUWAKU
  6
CONTINUOUS
 62
      32
100
AcDbLine
 10
-521.76438114
 20
975.33082555
 30
0.0
 11
-520.74321362
 21
974.34369694
 31
0.0
  0
LINE
  5
28B
100
AcDbEntity
  8
ZUWAKU
  6
CONTINUOUS
 62
      32
100
AcDbLine
 10
-518.3125
 20
976.53469694
 30
0.0
 11
-515.2345143
 21
976.53469694
 31
0.0
  0
LINE
  5
28C
100
AcDbEntity
  8
ZUWAKU
  6
CONTINUOUS
 62
      32
100
AcDbLine
 10
-508.2385143
 20
982.65619694
 30
0.0
 11
-515.2345143
 21
976.53469694
 31
0.0
  0
ELLIPSE
  5
28D
100
AcDbEntity
  8
ZUWAKU
  6
CONTINUOUS
 62
      32
100
AcDbEllipse
 10
-522.79510607
 20
978.200678
 30
0.0
 11
-2.7802964657087159
 21
-3.4445795280868197
 31
0.0
210
0.0
220
0.0
230
1.0
 40
0.63020876
 41
2.7713952963881305
 42
5.1608192210644228
  0
ELLIPSE
  5
28E
100
AcDbEntity
  8
ZUWAKU
  6
CONTINUOUS
 62
      32
100
AcDbEllipse
 10
-522.79510607
 20
978.200678
 30
0.0
 11
-2.7802964657087159
 21
-3.4445795280868197
 31
0.0
210
0.0
220
0.0
230
1.0
 40
0.63020876
 41
5.887863080444717
 42
7.4876029260781563
  0
LINE
  5
28F
100
AcDbEntity
  8
ZUWAKU
  6
CONTINUOUS
 62
      32
100
AcDbLine
 10
-518.88852854
 20
982.23336784
 30
0.0
 11
-516.55716513
 21
982.23336784
 31
0.0
  0
LINE
  5
290
100
AcDbEntity
  8
ZUWAKU
  6
CONTINUOUS
 62
      32
100
AcDbLine
 10
-519.4177624
 20
980.77797471
 30
0.0
 11
-518.88852854
 21
982.23336784
 31
0.0
  0
LINE
  5
291
100
AcDbEntity
  8
ZUWAKU
  6
CONTINUOUS
 62
      32
100
AcDbLine
 10
-518.3125
 20
977.40619694
 30
0.0
 11
-516.55716513
 21
982.23336784
 31
0.0
  0
LINE
  5
292
100
AcDbEntity
  8
ZUWAKU
  6
CONTINUOUS
 62
      32
100
AcDbLine
 10
-512.35796364
 20
974.41262068
 30
0.0
 11
-511.24927266
 21
977.46152086
 31
0.0
  0
LINE
  5
293
100
AcDbEntity
  8
ZUWAKU
  6
CONTINUOUS
 62
      32
100
AcDbLine
 10
-507.94629876
 20
979.59369694
 30
0.0
 11
-509.85538967
 21
974.34369694
 31
0.0
  0
LINE
  5
294
100
AcDbEntity
  8
ZUWAKU
  6
CONTINUOUS
 62
      32
100
AcDbLine
 10
-506.9375
 20
974.34369694
 30
0.0
 11
-505.02840909
 21
979.59369694
 31
0.0
  0
LINE
  5
295
100
AcDbEntity
  8
ZUWAKU
  6
CONTINUOUS
 62
      32
100
AcDbLine
 10
-501.83653217
 20
981.26198347
 30
0.0
 11
-503.55554545
 21
976.53469694
 31
0.0
  0
LINE
  5
296
100
AcDbEntity
  8
ZUWAKU
  6
CONTINUOUS
 62
      32
100
AcDbLine
 10
-502.5639479
 20
982.65619694
 30
0.0
 11
-501.83653217
 21
981.26198347
 31
0.0
  0
LINE
  5
297
100
AcDbEntity
  8
ZUWAKU
  6
CONTINUOUS
 62
      32
100
AcDbLine
 10
-507.36380921
 20
981.35488773
 30
0.0
 11
-506.93341914
 21
982.65619694
 31
0.0
  0
LINE
  5
298
100
AcDbEntity
  8
ZUWAKU
  6
CONTINUOUS
 62
      32
100
AcDbLine
 10
-507.36380921
 20
981.35488773
 30
0.0
 11
-505.03316911
 21
982.65619694
 31
0.0
  0
LINE
  5
299
100
AcDbEntity
  8
ZUWAKU
  6
CONTINUOUS
 62
      32
100
AcDbLine
 10
-502.5639479
 20
982.65619694
 30
0.0
 11
-505.03316911
 21
982.65619694
 31
0.0
  0
LINE
  5
29A
100
AcDbEntity
  8
ZUWAKU
  6
CONTINUOUS
 62
      32
100
AcDbLine
 10
-506.93341914
 20
982.65619694
 30
0.0
 11
-508.2385143
 21
982.65619694
 31
0.0
  0
ELLIPSE
  5
29B
100
AcDbEntity
  8
ZUWAKU
  6
CONTINUOUS
 62
      32
100
AcDbEllipse
 10
-483.03857293
 20
979.27561632
 30
0.0
 11
-0.5762306429245427
 21
-1.0564228453613396
 31
0.0
210
0.0
220
0.0
230
1.0
 40
0.75209874
 41
0.0
 42
6.2831853071796004
  0
ELLIPSE
  5
29C
100
AcDbEntity
  8
ZUWAKU
  6
CONTINUOUS
 62
      32
100
AcDbEllipse
 10
-483.03857293
 20
979.27561632
 30
0.0
 11
-1.840992469407297
 21
-3.3751528605788508
 31
0.0
210
0.0
220
0.0
230
1.0
 40
0.75209874
 41
1.163380251178052
 42
5.8601607076995661
  0
ARC
  5
29D
100
AcDbEntity
  8
ZUWAKU
  6
CONTINUOUS
 62
      32
100
AcDbCircle
 10
-486.75041982
 20
981.44846966
 30
0.0
 40
4.95680584
100
AcDbArc
 50
277.55531967
 51
282.61004677
  0
ARC
  5
29E
100
AcDbEntity
  8
ZUWAKU
  6
CONTINUOUS
 62
      32
100
AcDbCircle
 10
-486.75041982
 20
981.44846966
 30
0.0
 40
7.14780584
100
AcDbArc
 50
276.29029269
 51
293.79815684
  0
ARC
  5
29F
100
AcDbEntity
  8
ZUWAKU
  6
CONTINUOUS
 62
      32
100
AcDbCircle
 10
-486.75041982
 20
981.44846966
 30
0.0
 40
7.14780584
100
AcDbArc
 50
316.57125834
 51
318.01426788
  0
ARC
  5
2A0
100
AcDbEntity
  8
ZUWAKU
  6
CONTINUOUS
 62
      32
100
AcDbCircle
 10
-481.61651686
 20
979.09427486
 30
0.0
 40
4.75208188
100
AcDbArc
 50
209.3318227
 51
211.50126528
  0
ARC
  5
2A1
100
AcDbEntity
  8
ZUWAKU
  6
CONTINUOUS
 62
      32
100
AcDbCircle
 10
-481.61651686
 20
979.09427486
 30
0.0
 40
4.75208188
100
AcDbArc
 50
241.74457829
 51
270.0
  0
LINE
  5
2A2
100
AcDbEntity
  8
ZUWAKU
  6
CONTINUOUS
 62
      32
100
AcDbLine
 10
-493.70891361
 20
976.53469694
 30
0.0
 11
-486.09868223
 21
976.53469694
 31
0.0
  0
LINE
  5
2A3
100
AcDbEntity
  8
ZUWAKU
  6
CONTINUOUS
 62
      32
100
AcDbLine
 10
-481.61651686
 20
974.34369694
 30
0.0
 11
-477.40339691
 21
974.34369694
 31
0.0
  0
LINE
  5
2A4
100
AcDbEntity
  8
ZUWAKU
  6
CONTINUOUS
 62
      32
100
AcDbLine
 10
-481.55946941
 20
976.53469694
 30
0.0
 11
-476.91247275
 21
976.53469694
 31
0.0
  0
LINE
  5
2A5
100
AcDbEntity
  8
ZUWAKU
  6
CONTINUOUS
 62
      32
100
AcDbLine
 10
-534.5
 20
974.34369694
 30
0.0
 11
-529.25
 21
974.34369694
 31
0.0
  0
LINE
  5
2A6
100
AcDbEntity
  8
ZUWAKU
  6
CONTINUOUS
 62
      32
100
AcDbLine
 10
-512.35796364
 20
974.41262068
 30
0.0
 11
-509.85538967
 21
974.34369694
 31
0.0
  0
LINE
  5
2A7
100
AcDbEntity
  8
ZUWAKU
  6
CONTINUOUS
 62
      32
100
AcDbLine
 10
-503.55554545
 20
976.53469694
 30
0.0
 11
-499.50987504
 21
976.53469694
 31
0.0
  0
LINE
  5
2A8
100
AcDbEntity
  8
ZUWAKU
  6
CONTINUOUS
 62
      32
100
AcDbLine
 10
-492.04380638
 20
979.68885995
 30
0.0
 11
-490.4094208
 21
981.00998829
 31
0.0
  0
ARC
  5
2A9
100
AcDbEntity
  8
ZUWAKU
  6
CONTINUOUS
 62
      32
100
AcDbCircle
 10
-493.70891361
 20
978.56469694
 30
0.0
 40
2.03
100
AcDbArc
 50
34.07537472
 51
270.0
  0
ARC
  5
2AA
100
AcDbEntity
  8
ZUWAKU
  6
CONTINUOUS
 62
      32
100
AcDbCircle
 10
-493.70891361
 20
978.56469694
 30
0.0
 40
4.10683608
100
AcDbArc
 50
36.54256145
 51
190.98612084
  0
LINE
  5
2AB
100
AcDbEntity
  8
ZUWAKU
  6
CONTINUOUS
 62
      32
100
AcDbLine
 10
-498.95735618
 20
974.34369694
 30
0.0
 11
-496.87712771
 21
975.8744311
 31
0.0
  0
LINE
  5
2AC
100
AcDbEntity
  8
ZUWAKU
  6
CONTINUOUS
 62
      32
100
AcDbLine
 10
-497.76657265
 20
977.81750436
 30
0.0
 11
-499.50987504
 21
976.53469694
 31
0.0
  0
LINE
  5
2AD
100
AcDbEntity
  8
ZUWAKU
  6
CONTINUOUS
 62
      32
100
AcDbLine
 10
-496.87712771
 20
975.8744311
 30
0.0
 11
-495.125
 21
974.34369694
 31
0.0
  0
LINE
  5
2AE
100
AcDbEntity
  8
ZUWAKU
  6
CONTINUOUS
 62
      32
100
AcDbLine
 10
-476.91247275
 20
976.53469694
 30
0.0
 11
-477.40339691
 21
974.34369694
 31
0.0
  0
LINE
  5
2AF
100
AcDbEntity
  8
ZUWAKU
  6
CONTINUOUS
 62
      32
100
AcDbLine
 10
-593.26378661
 20
995.72650944
 30
0.0
 11
-594.46691161
 21
994.52338444
 31
0.0
  0
LINE
  5
2B0
100
AcDbEntity
  8
ZUWAKU
  6
CONTINUOUS
 62
      32
100
AcDbLine
 10
-590.73220068
 20
995.976711
 30
0.0
 11
-592.43572879
 21
994.27318289
 31
0.0
  0
LINE
  5
2B1
100
AcDbEntity
  8
ZUWAKU
  6
CONTINUOUS
 62
      32
100
AcDbLine
 10
-587.86659149
 20
996.17494694
 30
0.0
 11
-589.96932587
 21
994.07221257
 31
0.0
  0
LINE
  5
2B2
100
AcDbEntity
  8
ZUWAKU
  6
CONTINUOUS
 62
      32
100
AcDbLine
 10
-585.04117307
 20
996.21869694
 30
0.0
 11
-587.22867307
 21
994.03119694
 31
0.0
  0
LINE
  5
2B3
100
AcDbEntity
  8
ZUWAKU
  6
CONTINUOUS
 62
      32
100
AcDbLine
 10
-582.11970143
 20
996.21869694
 30
0.0
 11
-584.30720143
 21
994.03119694
 31
0.0
  0
LINE
  5
2B4
100
AcDbEntity
  8
ZUWAKU
  6
CONTINUOUS
 62
      32
100
AcDbLine
 10
-578.90762426
 20
996.21869694
 30
0.0
 11
-581.09512426
 21
994.03119694
 31
0.0
  0
LINE
  5
2B5
100
AcDbEntity
  8
ZUWAKU
  6
CONTINUOUS
 62
      32
100
AcDbLine
 10
-576.20039587
 20
996.21869694
 30
0.0
 11
-578.38789587
 21
994.03119694
 31
0.0
  0
LINE
  5
2B6
100
AcDbEntity
  8
ZUWAKU
  6
CONTINUOUS
 62
      32
100
AcDbLine
 10
-575.44356744
 20
975.00421302
 30
0.0
 11
-576.10408352
 21
974.34369694
 31
0.0
  0
LINE
  5
2B7
100
AcDbEntity
  8
ZUWAKU
  6
CONTINUOUS
 62
      32
100
AcDbLine
 10
-574.25562805
 20
978.1720514
 30
0.0
 11
-578.08398251
 21
974.34369694
 31
0.0
  0
LINE
  5
2B8
100
AcDbEntity
  8
ZUWAKU
  6
CONTINUOUS
 62
      32
100
AcDbLine
 10
-573.06768866
 20
981.33988978
 30
0.0
 11
-576.8116711
 21
977.59590734
 31
0.0
  0
LINE
  5
2B9
100
AcDbEntity
  8
ZUWAKU
  6
CONTINUOUS
 62
      32
100
AcDbLine
 10
-577.8728815
 20
976.53469694
 30
0.0
 11
-580.0638815
 21
974.34369694
 31
0.0
  0
LINE
  5
2BA
100
AcDbEntity
  8
ZUWAKU
  6
CONTINUOUS
 62
      32
100
AcDbLine
 10
-571.87974927
 20
984.50772816
 30
0.0
 11
-575.62373171
 21
980.76374572
 31
0.0
  0
LINE
  5
2BB
100
AcDbEntity
  8
ZUWAKU
  6
CONTINUOUS
 62
      32
100
AcDbLine
 10
-579.85278049
 20
976.53469694
 30
0.0
 11
-582.04378049
 21
974.34369694
 31
0.0
  0
LINE
  5
2BC
100
AcDbEntity
  8
ZUWAKU
  6
CONTINUOUS
 62
      32
100
AcDbLine
 10
-581.83267947
 20
976.53469694
 30
0.0
 11
-582.48579232
 21
975.8815841
 31
0.0
  0
LINE
  5
2BD
100
AcDbEntity
  8
ZUWAKU
  6
CONTINUOUS
 62
      32
100
AcDbLine
 10
-568.08837644
 20
996.21869694
 30
0.0
 11
-570.87197414
 21
993.43509924
 31
0.0
  0
LINE
  5
2BE
100
AcDbEntity
  8
ZUWAKU
  6
CONTINUOUS
 62
      32
100
AcDbLine
 10
-570.06827542
 20
996.21869694
 30
0.0
 11
-572.25577542
 21
994.03119694
 31
0.0
  0
LINE
  5
2BF
100
AcDbEntity
  8
ZUWAKU
  6
CONTINUOUS
 62
      32
100
AcDbLine
 10
-572.04817441
 20
996.21869694
 30
0.0
 11
-574.23567441
 21
994.03119694
 31
0.0
  0
LINE
  5
2C0
100
AcDbEntity
  8
ZUWAKU
  6
CONTINUOUS
 62
      32
100
AcDbLine
 10
-574.0280734
 20
996.21869694
 30
0.0
 11
-575.18315596
 21
995.06361438
 31
0.0
  0
LINE
  5
2C1
100
AcDbEntity
  8
ZUWAKU
  6
CONTINUOUS
 62
      32
100
AcDbLine
 10
-553.95372033
 20
982.63476723
 30
0.0
 11
-556.04805034
 21
980.54043722
 31
0.0
  0
LINE
  5
2C2
100
AcDbEntity
  8
ZUWAKU
  6
CONTINUOUS
 62
      32
100
AcDbLine
 10
-551.84529224
 20
982.76329633
 30
0.0
 11
-556.56441603
 21
978.04417254
 31
0.0
  0
LINE
  5
2C3
100
AcDbEntity
  8
ZUWAKU
  6
CONTINUOUS
 62
      32
100
AcDbLine
 10
-550.31546524
 20
980.33332535
 30
0.0
 11
-556.29593217
 21
974.35285843
 31
0.0
  0
LINE
  5
2C4
100
AcDbEntity
  8
ZUWAKU
  6
CONTINUOUS
 62
      32
100
AcDbLine
 10
-564.12857846
 20
996.21869694
 30
0.0
 11
-566.31607846
 21
994.03119694
 31
0.0
  0
LINE
  5
2C5
100
AcDbEntity
  8
ZUWAKU
  6
CONTINUOUS
 62
      32
100
AcDbLine
 10
-569.50387048
 20
990.84340492
 30
0.0
 11
-573.24785292
 21
987.09942248
 31
0.0
  0
LINE
  5
2C6
100
AcDbEntity
  8
ZUWAKU
  6
CONTINUOUS
 62
      32
100
AcDbLine
 10
-562.14867947
 20
996.21869694
 30
0.0
 11
-564.33617947
 21
994.03119694
 31
0.0
  0
LINE
  5
2C7
100
AcDbEntity
  8
ZUWAKU
  6
CONTINUOUS
 62
      32
100
AcDbLine
 10
-570.69180987
 20
987.67556654
 30
0.0
 11
-574.43579232
 21
983.9315841
 31
0.0
  0
LINE
  5
2C8
100
AcDbEntity
  8
ZUWAKU
  6
CONTINUOUS
 62
      32
100
AcDbLine
 10
-560.19095986
 20
996.19651757
 30
0.0
 11
-562.35628049
 21
994.03119694
 31
0.0
  0
LINE
  5
2C9
100
AcDbEntity
  8
ZUWAKU
  6
CONTINUOUS
 62
      32
100
AcDbLine
 10
-569.35628049
 20
987.03119694
 30
0.0
 11
-571.54728049
 21
984.84019694
 31
0.0
  0
LINE
  5
2CA
100
AcDbEntity
  8
ZUWAKU
  6
CONTINUOUS
 62
      32
100
AcDbLine
 10
-558.5913368
 20
995.81624164
 30
0.0
 11
-560.3895404
 21
994.01803804
 31
0.0
  0
LINE
  5
2CB
100
AcDbEntity
  8
ZUWAKU
  6
CONTINUOUS
 62
      32
100
AcDbLine
 10
-567.3763815
 20
987.03119694
 30
0.0
 11
-569.96056832
 21
984.44701012
 31
0.0
  0
LINE
  5
2CC
100
AcDbEntity
  8
ZUWAKU
  6
CONTINUOUS
 62
      32
100
AcDbLine
 10
-557.31824001
 20
995.10943944
 30
0.0
 11
-558.89404385
 21
993.53363561
 31
0.0
  0
LINE
  5
2CD
100
AcDbEntity
  8
ZUWAKU
  6
CONTINUOUS
 62
      32
100
AcDbLine
 10
-556.30176816
 20
994.14601231
 30
0.0
 11
-557.86041288
 21
992.58736759
 31
0.0
  0
LINE
  5
2CE
100
AcDbEntity
  8
ZUWAKU
  6
CONTINUOUS
 62
      32
100
AcDbLine
 10
-555.53651297
 20
992.93136851
 30
0.0
 11
-557.25899152
 21
991.20888996
 31
0.0
  0
LINE
  5
2CF
100
AcDbEntity
  8
ZUWAKU
  6
CONTINUOUS
 62
      32
100
AcDbLine
 10
-555.07415863
 20
991.41382386
 30
0.0
 11
-557.60529261
 21
988.88268988
 31
0.0
  0
LINE
  5
2D0
100
AcDbEntity
  8
ZUWAKU
  6
CONTINUOUS
 62
      32
100
AcDbLine
 10
-566.10847745
 20
996.21869694
 30
0.0
 11
-568.29597745
 21
994.03119694
 31
0.0
  0
LINE
  5
2D1
100
AcDbEntity
  8
ZUWAKU
  6
CONTINUOUS
 62
      32
100
AcDbLine
 10
-568.31593109
 20
994.0112433
 30
0.0
 11
-572.05991353
 21
990.26726086
 31
0.0
  0
LINE
  5
2D2
100
AcDbEntity
  8
ZUWAKU
  6
CONTINUOUS
 62
      32
100
AcDbLine
 10
-563.41658352
 20
987.03119694
 30
0.0
 11
-565.60758352
 21
984.84019694
 31
0.0
  0
LINE
  5
2D3
100
AcDbEntity
  8
ZUWAKU
  6
CONTINUOUS
 62
      32
100
AcDbLine
 10
-566.92270961
 20
983.52507086
 30
0.0
 11
-568.53064127
 21
981.9171392
 31
0.0
  0
LINE
  5
2D4
100
AcDbEntity
  8
ZUWAKU
  6
CONTINUOUS
 62
      32
100
AcDbLine
 10
-565.39648251
 20
987.03119694
 30
0.0
 11
-567.58748251
 21
984.84019694
 31
0.0
  0
LINE
  5
2D5
100
AcDbEntity
  8
ZUWAKU
  6
CONTINUOUS
 62
      32
100
AcDbLine
 10
-567.63767313
 20
984.79000633
 30
0.0
 11
-569.2456048
 21
983.18207466
 31
0.0
  0
LINE
  5
2D6
100
AcDbEntity
  8
ZUWAKU
  6
CONTINUOUS
 62
      32
100
AcDbLine
 10
-561.43668454
 20
987.03119694
 30
0.0
 11
-563.62768454
 21
984.84019694
 31
0.0
  0
LINE
  5
2D7
100
AcDbEntity
  8
ZUWAKU
  6
CONTINUOUS
 62
      32
100
AcDbLine
 10
-566.20774608
 20
982.2601354
 30
0.0
 11
-567.81567775
 21
980.65220373
 31
0.0
  0
LINE
  5
2D8
100
AcDbEntity
  8
ZUWAKU
  6
CONTINUOUS
 62
      32
100
AcDbLine
 10
-559.04424801
 20
987.44373448
 30
0.0
 11
-561.64778555
 21
984.84019694
 31
0.0
  0
LINE
  5
2D9
100
AcDbEntity
  8
ZUWAKU
  6
CONTINUOUS
 62
      32
100
AcDbLine
 10
-565.49278256
 20
980.99519993
 30
0.0
 11
-567.10071423
 21
979.38726827
 31
0.0
  0
LINE
  5
2DA
100
AcDbEntity
  8
ZUWAKU
  6
CONTINUOUS
 62
      32
100
AcDbLine
 10
-555.12165439
 20
989.38642912
 30
0.0
 11
-559.54798725
 21
984.96009626
 31
0.0
  0
LINE
  5
2DB
100
AcDbEntity
  8
ZUWAKU
  6
CONTINUOUS
 62
      32
100
AcDbLine
 10
-564.77781904
 20
979.73026447
 30
0.0
 11
-566.3857507
 21
978.1223328
 31
0.0
  0
LINE
  5
2DC
100
AcDbEntity
  8
ZUWAKU
  6
CONTINUOUS
 62
      32
100
AcDbLine
 10
-564.06285551
 20
978.465329
 30
0.0
 11
-565.67078718
 21
976.85739734
 31
0.0
  0
LINE
  5
2DD
100
AcDbEntity
  8
ZUWAKU
  6
CONTINUOUS
 62
      32
100
AcDbLine
 10
-563.34789199
 20
977.20039354
 30
0.0
 11
-564.95582366
 21
975.59246187
 31
0.0
  0
LINE
  5
2DE
100
AcDbEntity
  8
ZUWAKU
  6
CONTINUOUS
 62
      32
100
AcDbLine
 10
-562.0336896
 20
976.53469694
 30
0.0
 11
-564.2246896
 21
974.34369694
 31
0.0
  0
LINE
  5
2DF
100
AcDbEntity
  8
ZUWAKU
  6
CONTINUOUS
 62
      32
100
AcDbLine
 10
-560.05379061
 20
976.53469694
 30
0.0
 11
-562.24479061
 21
974.34369694
 31
0.0
  0
LINE
  5
2E0
100
AcDbEntity
  8
ZUWAKU
  6
CONTINUOUS
 62
      32
100
AcDbLine
 10
-558.07389163
 20
976.53469694
 30
0.0
 11
-560.26489163
 21
974.34369694
 31
0.0
  0
LINE
  5
2E1
100
AcDbEntity
  8
ZUWAKU
  6
CONTINUOUS
 62
      32
100
AcDbLine
 10
-550.77040475
 20
981.85828483
 30
0.0
 11
-552.5848636
 21
980.04382598
 31
0.0
  0
LINE
  5
2E2
100
AcDbEntity
  8
ZUWAKU
  6
CONTINUOUS
 62
      32
100
AcDbLine
 10
-554.23278228
 20
978.3959073
 30
0.0
 11
-558.28499264
 21
974.34369694
 31
0.0
  0
LINE
  5
2E3
100
AcDbEntity
  8
ZUWAKU
  6
CONTINUOUS
 62
      32
100
AcDbLine
 10
-539.99214552
 20
988.67674609
 30
0.0
 11
-545.01232897
 21
983.65656264
 31
0.0
  0
LINE
  5
2E4
100
AcDbEntity
  8
ZUWAKU
  6
CONTINUOUS
 62
      32
100
AcDbLine
 10
-551.09779745
 20
977.57109415
 30
0.0
 11
-553.92848607
 21
974.74040554
 31
0.0
  0
LINE
  5
2E5
100
AcDbEntity
  8
ZUWAKU
  6
CONTINUOUS
 62
      32
100
AcDbLine
 10
-538.63193542
 20
988.0570572
 30
0.0
 11
-546.14190036
 21
980.54709226
 31
0.0
  0
LINE
  5
2E6
100
AcDbEntity
  8
ZUWAKU
  6
CONTINUOUS
 62
      32
100
AcDbLine
 10
-550.15429568
 20
976.53469694
 30
0.0
 11
-552.3365282
 21
974.35246442
 31
0.0
  0
LINE
  5
2E7
100
AcDbEntity
  8
ZUWAKU
  6
CONTINUOUS
 62
      32
100
AcDbLine
 10
-548.17439669
 20
976.53469694
 30
0.0
 11
-550.36539669
 21
974.34369694
 31
0.0
  0
LINE
  5
2E8
100
AcDbEntity
  8
ZUWAKU
  6
CONTINUOUS
 62
      32
100
AcDbLine
 10
-538.13896528
 20
986.57012836
 30
0.0
 11
-540.98982513
 21
983.7192685
 31
0.0
  0
LINE
  5
2E9
100
AcDbEntity
  8
ZUWAKU
  6
CONTINUOUS
 62
      32
100
AcDbLine
 10
-543.55337194
 20
981.15572169
 30
0.0
 11
-546.4042318
 21
978.30486183
 31
0.0
  0
LINE
  5
2EA
100
AcDbEntity
  8
ZUWAKU
  6
CONTINUOUS
 62
      32
100
AcDbLine
 10
-538.25283795
 20
984.47635669
 30
0.0
 11
-548.3854977
 21
974.34369694
 31
0.0
  0
LINE
  5
2EB
100
AcDbEntity
  8
ZUWAKU
  6
CONTINUOUS
 62
      32
100
AcDbLine
 10
-539.1127384
 20
981.63655725
 30
0.0
 11
-546.17985252
 21
974.56944314
 31
0.0
  0
LINE
  5
2EC
100
AcDbEntity
  8
ZUWAKU
  6
CONTINUOUS
 62
      32
100
AcDbLine
 10
-531.71217184
 20
983.09600009
 30
0.0
 11
-540.46447498
 21
974.34369694
 31
0.0
  0
LINE
  5
2ED
100
AcDbEntity
  8
ZUWAKU
  6
CONTINUOUS
 62
      32
100
AcDbLine
 10
-531.03708259
 20
987.73088731
 30
0.0
 11
-531.49371704
 21
987.27425286
 31
0.0
  0
LINE
  5
2EE
100
AcDbEntity
  8
ZUWAKU
  6
CONTINUOUS
 62
      32
100
AcDbLine
 10
-542.02225021
 20
976.74571969
 30
0.0
 11
-543.72357891
 21
975.04439099
 31
0.0
  0
LINE
  5
2EF
100
AcDbEntity
  8
ZUWAKU
  6
CONTINUOUS
 62
      32
100
AcDbLine
 10
-529.34185204
 20
987.44621888
 30
0.0
 11
-531.20904861
 21
985.5790223
 31
0.0
  0
LINE
  5
2F0
100
AcDbEntity
  8
ZUWAKU
  6
CONTINUOUS
 62
      32
100
AcDbLine
 10
-540.25337397
 20
976.53469694
 30
0.0
 11
-542.24939401
 21
974.5386769
 31
0.0
  0
LINE
  5
2F1
100
AcDbEntity
  8
ZUWAKU
  6
CONTINUOUS
 62
      32
100
AcDbLine
 10
-520.89660208
 20
982.03217592
 30
0.0
 11
-528.05600862
 21
974.87276938
 31
0.0
  0
LINE
  5
2F2
100
AcDbEntity
  8
ZUWAKU
  6
CONTINUOUS
 62
      32
100
AcDbLine
 10
-530.35387903
 20
976.53469694
 30
0.0
 11
-532.54487903
 21
974.34369694
 31
0.0
  0
LINE
  5
2F3
100
AcDbEntity
  8
ZUWAKU
  6
CONTINUOUS
 62
      32
100
AcDbLine
 10
-531.82957786
 20
977.03889711
 30
0.0
 11
-534.52477802
 21
974.34369694
 31
0.0
  0
LINE
  5
2F4
100
AcDbEntity
  8
ZUWAKU
  6
CONTINUOUS
 62
      32
100
AcDbLine
 10
-531.43359806
 20
979.41477589
 30
0.0
 11
-534.0990646
 21
976.74930935
 31
0.0
  0
LINE
  5
2F5
100
AcDbEntity
  8
ZUWAKU
  6
CONTINUOUS
 62
      32
100
AcDbLine
 10
-538.48457599
 20
974.34369694
 30
0.0
 11
-531.03761826
 21
981.79065468
 31
0.0
  0
LINE
  5
2F6
100
AcDbEntity
  8
ZUWAKU
  6
CONTINUOUS
 62
      32
100
AcDbLine
 10
-516.73561219
 20
982.23336784
 30
0.0
 11
-524.61210538
 21
974.35687465
 31
0.0
  0
LINE
  5
2F7
100
AcDbEntity
  8
ZUWAKU
  6
CONTINUOUS
 62
      32
100
AcDbLine
 10
-517.58656623
 20
979.40251481
 30
0.0
 11
-521.71041894
 21
975.2786621
 31
0.0
  0
LINE
  5
2F8
100
AcDbEntity
  8
ZUWAKU
  6
CONTINUOUS
 62
      32
100
AcDbLine
 10
-518.3125
 20
976.69668205
 30
0.0
 11
-520.66548511
 21
974.34369694
 31
0.0
  0
LINE
  5
2F9
100
AcDbEntity
  8
ZUWAKU
  6
CONTINUOUS
 62
      32
100
AcDbLine
 10
-516.49458612
 20
976.53469694
 30
0.0
 11
-518.68558612
 21
974.34369694
 31
0.0
  0
LINE
  5
2FA
100
AcDbEntity
  8
ZUWAKU
  6
CONTINUOUS
 62
      32
100
AcDbLine
 10
-509.47589695
 20
981.57348713
 30
0.0
 11
-516.70568713
 21
974.34369694
 31
0.0
  0
LINE
  5
2FB
100
AcDbEntity
  8
ZUWAKU
  6
CONTINUOUS
 62
      32
100
AcDbLine
 10
-523.88084702
 20
981.02782997
 30
0.0
 11
-525.00612574
 21
979.90255125
 31
0.0
  0
LINE
  5
2FC
100
AcDbEntity
  8
ZUWAKU
  6
CONTINUOUS
 62
      32
100
AcDbLine
 10
-527.23782602
 20
977.67085097
 30
0.0
 11
-530.56498005
 21
974.34369694
 31
0.0
  0
LINE
  5
2FD
100
AcDbEntity
  8
ZUWAKU
  6
CONTINUOUS
 62
      32
100
AcDbLine
 10
-523.21249186
 20
977.73638715
 30
0.0
 11
-525.87883096
 21
975.07004805
 31
0.0
  0
LINE
  5
2FE
100
AcDbEntity
  8
ZUWAKU
  6
CONTINUOUS
 62
      32
100
AcDbLine
 10
-518.71551118
 20
982.23336784
 30
0.0
 11
-518.9873956
 21
981.96148341
 31
0.0
  0
LINE
  5
2FF
100
AcDbEntity
  8
ZUWAKU
  6
CONTINUOUS
 62
      32
100
AcDbLine
 10
-519.67186189
 20
981.27701712
 30
0.0
 11
-521.55420899
 21
979.39467002
 31
0.0
  0
LINE
  5
300
100
AcDbEntity
  8
ZUWAKU
  6
CONTINUOUS
 62
      32
100
AcDbLine
 10
-504.35566065
 20
982.65619694
 30
0.0
 11
-507.41816065
 21
979.59369694
 31
0.0
  0
LINE
  5
301
100
AcDbEntity
  8
ZUWAKU
  6
CONTINUOUS
 62
      32
100
AcDbLine
 10
-508.24809197
 20
978.76376563
 30
0.0
 11
-512.22009319
 21
974.7917644
 31
0.0
  0
TEXT
  5
302
100
AcDbEntity
  8
ZUWAKU
 62
      32
100
AcDbText
 10
-587.35831359
 20
-969.90630306
 30
0.0
 40
23.8
  1
株式会社
 41
0.8
 72
       5
 11
-511.19831359
 21
-969.90630306
 31
0.0
100
AcDbText
  0
LINE
  5
303
100
AcDbEntity
  8
ZUWAKU
  6
CONTINUOUS
 62
      43
100
AcDbLine
 10
-638.1875
 20
933.875737
 30
0.0
 11
661.625
 21
933.875737
 31
0.0
  0
LINE
  5
304
100
AcDbEntity
  8
ZUWAKU
  6
CONTINUOUS
 62
      43
100
AcDbLine
 10
-636.4375
 20
-987.84380306
 30
0.0
 11
654.625
 21
-987.84380306
 31
0.0
  0
LINE
  5
305
100
AcDbEntity
  8
ZUWAKU
  6
CONTINUOUS
 62
      43
100
AcDbLine
 10
-636.4375
 20
-903.40630306
 30
0.0
 11
654.625
 21
-903.40630306
 31
0.0
  0
LINE
  5
306
100
AcDbEntity
  8
ZUWAKU
  6
CONTINUOUS
 62
      43
100
AcDbLine
 10
-636.4375
 20
-891.59380306
 30
0.0
 11
654.625
 21
-891.59380306
 31
0.0
  0
LINE
  5
307
100
AcDbEntity
  8
ZUWAKU
  6
CONTINUOUS
 62
      43
100
AcDbLine
 10
-636.4375
 20
-891.59380306
 30
0.0
 11
-636.4375
 21
-611.59380306
 31
0.0
  0
LINE
  5
308
100
AcDbEntity
  8
ZUWAKU
  6
CONTINUOUS
 62
      43
100
AcDbLine
 10
654.625
 20
-891.59380306
 30
0.0
 11
654.625
 21
-611.59380306
 31
0.0
  0
LINE
  5
309
100
AcDbEntity
  8
ZUWAKU
  6
CONTINUOUS
 62
      43
100
AcDbLine
 10
-636.4375
 20
-611.59380306
 30
0.0
 11
654.625
 21
-611.59380306
 31
0.0
  0
ELLIPSE
  5
30A
100
AcDbEntity
  8
ZUWAKU
  6
CONTINUOUS
 62
      43
100
AcDbEllipse
 10
-536.90625
 20
982.85946055
 30
0.0
 11
-89.46875
 21
0.0
 31
0.0
210
0.0
220
0.0
230
1.0
 40
0.40365317
 41
0.0
 42
6.2831853071796004
  0
LINE
  5
30B
100
AcDbEntity
  8
ZUWAKU
  6
CONTINUOUS
 62
      43
100
AcDbLine
 10
-608.875
 20
1000.15619694
 30
0.0
 11
-608.875
 21
966.03119694
 31
0.0
  0
LINE
  5
30C
100
AcDbEntity
  8
ZUWAKU
  6
CONTINUOUS
 62
      43
100
AcDbLine
 10
-464.5
 20
1000.15619694
 30
0.0
 11
-464.5
 21
966.03119694
 31
0.0
  0
LINE
  5
30D
100
AcDbEntity
  8
ZUWAKU
  6
CONTINUOUS
 62
      43
100
AcDbLine
 10
-608.875
 20
1000.15619694
 30
0.0
 11
-464.5
 21
1000.15619694
 31
0.0
  0
LINE
  5
30E
100
AcDbEntity
  8
ZUWAKU
  6
CONTINUOUS
 62
      43
100
AcDbLine
 10
-608.875
 20
966.03119694
 30
0.0
 11
-464.5
 21
966.03119694
 31
0.0
  0
LINE
  5
30F
100
AcDbEntity
  8
ZUWAKU
  6
CONTINUOUS
 62
      43
100
AcDbLine
 10
-545.82321249
 20
1018.79399126
 30
0.0
 11
-564.4610068
 21
1000.15619694
 31
0.0
  0
LINE
  5
310
100
AcDbEntity
  8
ZUWAKU
  6
CONTINUOUS
 62
      43
100
AcDbLine
 10
-547.89682143
 20
1018.7002813
 30
0.0
 11
-566.44090579
 21
1000.15619694
 31
0.0
  0
LINE
  5
311
100
AcDbEntity
  8
ZUWAKU
  6
CONTINUOUS
 62
      43
100
AcDbLine
 10
-549.99153903
 20
1018.58546269
 30
0.0
 11
-568.42080478
 21
1000.15619694
 31
0.0
  0
LINE
  5
312
100
AcDbEntity
  8
ZUWAKU
  6
CONTINUOUS
 62
      43
100
AcDbLine
 10
-552.1082376
 20
1018.44866311
 30
0.0
 11
-570.40070376
 21
1000.15619694
 31
0.0
  0
LINE
  5
313
100
AcDbEntity
  8
ZUWAKU
  6
CONTINUOUS
 62
      43
100
AcDbLine
 10
-554.24789135
 20
1018.28890835
 30
0.0
 11
-572.38060275
 21
1000.15619694
 31
0.0
  0
LINE
  5
314
100
AcDbEntity
  8
ZUWAKU
  6
CONTINUOUS
 62
      43
100
AcDbLine
 10
-556.411592
 20
1018.10510668
 30
0.0
 11
-574.36050174
 21
1000.15619694
 31
0.0
  0
LINE
  5
315
100
AcDbEntity
  8
ZUWAKU
  6
CONTINUOUS
 62
      43
100
AcDbLine
 10
-558.60056781
 20
1017.89602986
 30
0.0
 11
-576.34040073
 21
1000.15619694
 31
0.0
  0
LINE
  5
316
100
AcDbEntity
  8
ZUWAKU
  6
CONTINUOUS
 62
      43
100
AcDbLine
 10
-560.81620677
 20
1017.66028988
 30
0.0
 11
-578.32029971
 21
1000.15619694
 31
0.0
  0
LINE
  5
317
100
AcDbEntity
  8
ZUWAKU
  6
CONTINUOUS
 62
      43
100
AcDbLine
 10
-563.06008548
 20
1017.39631017
 30
0.0
 11
-580.3001987
 21
1000.15619694
 31
0.0
  0
LINE
  5
318
100
AcDbEntity
  8
ZUWAKU
  6
CONTINUOUS
 62
      43
100
AcDbLine
 10
-565.33400516
 20
1017.10228947
 30
0.0
 11
-582.28009769
 21
1000.15619694
 31
0.0
  0
LINE
  5
319
100
AcDbEntity
  8
ZUWAKU
  6
CONTINUOUS
 62
      43
100
AcDbLine
 10
-567.64003737
 20
1016.77615625
 30
0.0
 11
-584.25999668
 21
1000.15619694
 31
0.0
  0
LINE
  5
31A
100
AcDbEntity
  8
ZUWAKU
  6
CONTINUOUS
 62
      43
100
AcDbLine
 10
-569.98058254
 20
1016.41551007
 30
0.0
 11
-586.23989566
 21
1000.15619694
 31
0.0
  0
LINE
  5
31B
100
AcDbEntity
  8
ZUWAKU
  6
CONTINUOUS
 62
      43
100
AcDbLine
 10
-572.35844625
 20
1016.01754535
 30
0.0
 11
-588.21979465
 21
1000.15619694
 31
0.0
  0
LINE
  5
31C
100
AcDbEntity
  8
ZUWAKU
  6
CONTINUOUS
 62
      43
100
AcDbLine
 10
-574.77694026
 20
1015.57895032
 30
0.0
 11
-590.19969364
 21
1000.15619694
 31
0.0
  0
LINE
  5
31D
100
AcDbEntity
  8
ZUWAKU
  6
CONTINUOUS
 62
      43
100
AcDbLine
 10
-577.24001885
 20
1015.09577072
 30
0.0
 11
-592.17959262
 21
1000.15619694
 31
0.0
  0
LINE
  5
31E
100
AcDbEntity
  8
ZUWAKU
  6
CONTINUOUS
 62
      43
100
AcDbLine
 10
-608.875
 20
983.46078957
 30
0.0
 11
-609.24209262
 21
983.09369694
 31
0.0
  0
LINE
  5
31F
100
AcDbEntity
  8
ZUWAKU
  6
CONTINUOUS
 62
      43
100
AcDbLine
 10
-579.75246679
 20
1014.56322177
 30
0.0
 11
-594.15949161
 21
1000.15619694
 31
0.0
  0
LINE
  5
320
100
AcDbEntity
  8
ZUWAKU
  6
CONTINUOUS
 62
      43
100
AcDbLine
 10
-608.875
 20
985.44068856
 30
0.0
 11
-611.22199161
 21
983.09369694
 31
0.0
  0
LINE
  5
321
100
AcDbEntity
  8
ZUWAKU
  6
CONTINUOUS
 62
      43
100
AcDbLine
 10
-582.32016547
 20
1013.97542208
 30
0.0
 11
-596.1393906
 21
1000.15619694
 31
0.0
  0
LINE
  5
322
100
AcDbEntity
  8
ZUWAKU
  6
CONTINUOUS
 62
      43
100
AcDbLine
 10
-608.875
 20
987.42058754
 30
0.0
 11
-613.2018906
 21
983.09369694
 31
0.0
  0
LINE
  5
323
100
AcDbEntity
  8
ZUWAKU
  6
CONTINUOUS
 62
      43
100
AcDbLine
 10
-584.95048072
 20
1013.32500582
 30
0.0
 11
-598.11928959
 21
1000.15619694
 31
0.0
  0
LINE
  5
324
100
AcDbEntity
  8
ZUWAKU
  6
CONTINUOUS
 62
      43
100
AcDbLine
 10
-608.875
 20
989.40048653
 30
0.0
 11
-615.18178959
 21
983.09369694
 31
0.0
  0
LINE
  5
325
100
AcDbEntity
  8
ZUWAKU
  6
CONTINUOUS
 62
      43
100
AcDbLine
 10
-587.6528486
 20
1012.60253692
 30
0.0
 11
-600.09918857
 21
1000.15619694
 31
0.0
  0
LINE
  5
326
100
AcDbEntity
  8
ZUWAKU
  6
CONTINUOUS
 62
      43
100
AcDbLine
 10
-608.875
 20
991.38038552
 30
0.0
 11
-617.16168857
 21
983.09369694
 31
0.0
  0
LINE
  5
327
100
AcDbEntity
  8
ZUWAKU
  6
CONTINUOUS
 62
      43
100
AcDbLine
 10
-590.43969909
 20
1011.79558541
 30
0.0
 11
-602.07908756
 21
1000.15619694
 31
0.0
  0
LINE
  5
328
100
AcDbEntity
  8
ZUWAKU
  6
CONTINUOUS
 62
      43
100
AcDbLine
 10
-608.875
 20
993.36028451
 30
0.0
 11
-619.14158756
 21
983.09369694
 31
0.0
  0
LINE
  5
329
100
AcDbEntity
  8
ZUWAKU
  6
CONTINUOUS
 62
      43
100
AcDbLine
 10
-593.32799235
 20
1010.88719114
 30
0.0
 11
-604.05898655
 21
1000.15619694
 31
0.0
  0
LINE
  5
32A
100
AcDbEntity
  8
ZUWAKU
  6
CONTINUOUS
 62
      43
100
AcDbLine
 10
-608.875
 20
995.34018349
 30
0.0
 11
-621.12148655
 21
983.09369694
 31
0.0
  0
LINE
  5
32B
100
AcDbEntity
  8
ZUWAKU
  6
CONTINUOUS
 62
      43
100
AcDbLine
 10
-596.34195374
 20
1009.85312874
 30
0.0
 11
-606.03888554
 21
1000.15619694
 31
0.0
  0
LINE
  5
32C
100
AcDbEntity
  8
ZUWAKU
  6
CONTINUOUS
 62
      43
100
AcDbLine
 10
-608.875
 20
997.32008248
 30
0.0
 11
-623.10138554
 21
983.09369694
 31
0.0
  0
LINE
  5
32D
100
AcDbEntity
  8
ZUWAKU
  6
CONTINUOUS
 62
      43
100
AcDbLine
 10
-599.51840177
 20
1008.65657969
 30
0.0
 11
-608.01878452
 21
1000.15619694
 31
0.0
  0
LINE
  5
32E
100
AcDbEntity
  8
ZUWAKU
  6
CONTINUOUS
 62
      43
100
AcDbLine
 10
-608.875
 20
999.29998147
 30
0.0
 11
-625.08128452
 21
983.09369694
 31
0.0
  0
LINE
  5
32F
100
AcDbEntity
  8
ZUWAKU
  6
CONTINUOUS
 62
      43
100
AcDbLine
 10
-602.91851946
 20
1007.236361
 30
0.0
 11
-626.34394344
 21
983.81093702
 31
0.0
  0
LINE
  5
330
100
AcDbEntity
  8
ZUWAKU
  6
CONTINUOUS
 62
      43
100
AcDbLine
 10
-606.6593444
 20
1005.47543504
 30
0.0
 11
-626.0081196
 21
986.12665984
 31
0.0
  0
LINE
  5
331
100
AcDbEntity
  8
ZUWAKU
  6
CONTINUOUS
 62
      43
100
AcDbLine
 10
-611.03227749
 20
1003.08240094
 30
0.0
 11
-625.04018763
 21
989.0744908
 31
0.0
  0
LINE
  5
332
100
AcDbEntity
  8
ZUWAKU
  6
CONTINUOUS
 62
      43
100
AcDbLine
 10
-617.84863895
 20
998.24593846
 30
0.0
 11
-621.62882728
 21
994.46575014
 31
0.0
  0
LINE
  5
333
100
AcDbEntity
  8
ZUWAKU
  6
CONTINUOUS
 62
      43
100
AcDbLine
 10
-543.76992887
 20
1018.86737589
 30
0.0
 11
-562.48110781
 21
1000.15619694
 31
0.0
  0
LINE
  5
334
100
AcDbEntity
  8
ZUWAKU
  6
CONTINUOUS
 62
      43
100
AcDbLine
 10
-541.7362654
 20
1018.92114037
 30
0.0
 11
-560.50120883
 21
1000.15619694
 31
0.0
  0
LINE
  5
335
100
AcDbEntity
  8
ZUWAKU
  6
CONTINUOUS
 62
      43
100
AcDbLine
 10
-539.72158599
 20
1018.95592079
 30
0.0
 11
-558.52130984
 21
1000.15619694
 31
0.0
  0
LINE
  5
336
100
AcDbEntity
  8
ZUWAKU
  6
CONTINUOUS
 62
      43
100
AcDbLine
 10
-537.72531598
 20
1018.97229182
 30
0.0
 11
-556.54141085
 21
1000.15619694
 31
0.0
  0
LINE
  5
337
100
AcDbEntity
  8
ZUWAKU
  6
CONTINUOUS
 62
      43
100
AcDbLine
 10
-535.74693558
 20
1018.97077323
 30
0.0
 11
-554.56151187
 21
1000.15619694
 31
0.0
  0
LINE
  5
338
100
AcDbEntity
  8
ZUWAKU
  6
CONTINUOUS
 62
      43
100
AcDbLine
 10
-533.78597435
 20
1018.95183547
 30
0.0
 11
-552.58161288
 21
1000.15619694
 31
0.0
  0
LINE
  5
339
100
AcDbEntity
  8
ZUWAKU
  6
CONTINUOUS
 62
      43
100
AcDbLine
 10
-531.8420064
 20
1018.91590443
 30
0.0
 11
-550.60171389
 21
1000.15619694
 31
0.0
  0
LINE
  5
33A
100
AcDbEntity
  8
ZUWAKU
  6
CONTINUOUS
 62
      43
100
AcDbLine
 10
-529.91464632
 20
1018.86336553
 30
0.0
 11
-548.6218149
 21
1000.15619694
 31
0.0
  0
LINE
  5
33B
100
AcDbEntity
  8
ZUWAKU
  6
CONTINUOUS
 62
      43
100
AcDbLine
 10
-528.00354559
 20
1018.79456727
 30
0.0
 11
-546.64191592
 21
1000.15619694
 31
0.0
  0
LINE
  5
33C
100
AcDbEntity
  8
ZUWAKU
  6
CONTINUOUS
 62
      43
100
AcDbLine
 10
-526.1083896
 20
1018.70982427
 30
0.0
 11
-544.66201693
 21
1000.15619694
 31
0.0
  0
LINE
  5
33D
100
AcDbEntity
  8
ZUWAKU
  6
CONTINUOUS
 62
      43
100
AcDbLine
 10
-524.22889495
 20
1018.60941994
 30
0.0
 11
-542.68211794
 21
1000.15619694
 31
0.0
  0
LINE
  5
33E
100
AcDbEntity
  8
ZUWAKU
  6
CONTINUOUS
 62
      43
100
AcDbLine
 10
-522.36480714
 20
1018.49360875
 30
0.0
 11
-540.70221895
 21
1000.15619694
 31
0.0
  0
LINE
  5
33F
100
AcDbEntity
  8
ZUWAKU
  6
CONTINUOUS
 62
      43
100
AcDbLine
 10
-520.51589867
 20
1018.36261824
 30
0.0
 11
-538.72231997
 21
1000.15619694
 31
0.0
  0
LINE
  5
340
100
AcDbEntity
  8
ZUWAKU
  6
CONTINUOUS
 62
      43
100
AcDbLine
 10
-518.68196723
 20
1018.2166507
 30
0.0
 11
-536.74242098
 21
1000.15619694
 31
0.0
  0
LINE
  5
341
100
AcDbEntity
  8
ZUWAKU
  6
CONTINUOUS
 62
      43
100
AcDbLine
 10
-516.86283426
 20
1018.05588468
 30
0.0
 11
-534.76252199
 21
1000.15619694
 31
0.0
  0
LINE
  5
342
100
AcDbEntity
  8
ZUWAKU
  6
CONTINUOUS
 62
      43
100
AcDbLine
 10
-515.05834369
 20
1017.88047626
 30
0.0
 11
-532.782623
 21
1000.15619694
 31
0.0
  0
LINE
  5
343
100
AcDbEntity
  8
ZUWAKU
  6
CONTINUOUS
 62
      43
100
AcDbLine
 10
-513.26836083
 20
1017.69056013
 30
0.0
 11
-530.80272402
 21
1000.15619694
 31
0.0
  0
LINE
  5
344
100
AcDbEntity
  8
ZUWAKU
  6
CONTINUOUS
 62
      43
100
AcDbLine
 10
-511.49277146
 20
1017.48625051
 30
0.0
 11
-528.82282503
 21
1000.15619694
 31
0.0
  0
LINE
  5
345
100
AcDbEntity
  8
ZUWAKU
  6
CONTINUOUS
 62
      43
100
AcDbLine
 10
-509.73148108
 20
1017.26764191
 30
0.0
 11
-526.84292604
 21
1000.15619694
 31
0.0
  0
LINE
  5
346
100
AcDbEntity
  8
ZUWAKU
  6
CONTINUOUS
 62
      43
100
AcDbLine
 10
-507.98441426
 20
1017.03480974
 30
0.0
 11
-524.86302706
 21
1000.15619694
 31
0.0
  0
LINE
  5
347
100
AcDbEntity
  8
ZUWAKU
  6
CONTINUOUS
 62
      43
100
AcDbLine
 10
-506.2515142
 20
1016.78781082
 30
0.0
 11
-522.88312807
 21
1000.15619694
 31
0.0
  0
LINE
  5
348
100
AcDbEntity
  8
ZUWAKU
  6
CONTINUOUS
 62
      43
100
AcDbLine
 10
-504.5327423
 20
1016.52668373
 30
0.0
 11
-520.90322908
 21
1000.15619694
 31
0.0
  0
LINE
  5
349
100
AcDbEntity
  8
ZUWAKU
  6
CONTINUOUS
 62
      43
100
AcDbLine
 10
-502.82807798
 20
1016.25144906
 30
0.0
 11
-518.92333009
 21
1000.15619694
 31
0.0
  0
LINE
  5
34A
100
AcDbEntity
  8
ZUWAKU
  6
CONTINUOUS
 62
      43
100
AcDbLine
 10
-501.13751849
 20
1015.96210956
 30
0.0
 11
-516.94343111
 21
1000.15619694
 31
0.0
  0
LINE
  5
34B
100
AcDbEntity
  8
ZUWAKU
  6
CONTINUOUS
 62
      43
100
AcDbLine
 10
-499.46107895
 20
1015.65865012
 30
0.0
 11
-514.96353212
 21
1000.15619694
 31
0.0
  0
LINE
  5
34C
100
AcDbEntity
  8
ZUWAKU
  6
CONTINUOUS
 62
      43
100
AcDbLine
 10
-497.79879239
 20
1015.34103768
 30
0.0
 11
-512.98363313
 21
1000.15619694
 31
0.0
  0
LINE
  5
34D
100
AcDbEntity
  8
ZUWAKU
  6
CONTINUOUS
 62
      43
100
AcDbLine
 10
-496.15071001
 20
1015.00922108
 30
0.0
 11
-511.00373414
 21
1000.15619694
 31
0.0
  0
LINE
  5
34E
100
AcDbEntity
  8
ZUWAKU
  6
CONTINUOUS
 62
      43
100
AcDbLine
 10
-494.51690147
 20
1014.66313063
 30
0.0
 11
-509.02383516
 21
1000.15619694
 31
0.0
  0
LINE
  5
34F
100
AcDbEntity
  8
ZUWAKU
  6
CONTINUOUS
 62
      43
100
AcDbLine
 10
-492.89745535
 20
1014.30267776
 30
0.0
 11
-507.04393617
 21
1000.15619694
 31
0.0
  0
LINE
  5
350
100
AcDbEntity
  8
ZUWAKU
  6
CONTINUOUS
 62
      43
100
AcDbLine
 10
-491.29247976
 20
1013.92775436
 30
0.0
 11
-505.06403718
 21
1000.15619694
 31
0.0
  0
LINE
  5
351
100
AcDbEntity
  8
ZUWAKU
  6
CONTINUOUS
 62
      43
100
AcDbLine
 10
-489.70210301
 20
1013.53823213
 30
0.0
 11
-503.08413819
 21
1000.15619694
 31
0.0
  0
LINE
  5
352
100
AcDbEntity
  8
ZUWAKU
  6
CONTINUOUS
 62
      43
100
AcDbLine
 10
-488.1264745
 20
1013.13396165
 30
0.0
 11
-501.10423921
 21
1000.15619694
 31
0.0
  0
LINE
  5
353
100
AcDbEntity
  8
ZUWAKU
  6
CONTINUOUS
 62
      43
100
AcDbLine
 10
-486.56576578
 20
1012.71477139
 30
0.0
 11
-499.12434022
 21
1000.15619694
 31
0.0
  0
LINE
  5
354
100
AcDbEntity
  8
ZUWAKU
  6
CONTINUOUS
 62
      43
100
AcDbLine
 10
-485.02017169
 20
1012.28046649
 30
0.0
 11
-497.14444123
 21
1000.15619694
 31
0.0
  0
LINE
  5
355
100
AcDbEntity
  8
ZUWAKU
  6
CONTINUOUS
 62
      43
100
AcDbLine
 10
-483.48991187
 20
1011.83082732
 30
0.0
 11
-495.16454225
 21
1000.15619694
 31
0.0
  0
LINE
  5
356
100
AcDbEntity
  8
ZUWAKU
  6
CONTINUOUS
 62
      43
100
AcDbLine
 10
-481.97523231
 20
1011.3656079
 30
0.0
 11
-493.18464326
 21
1000.15619694
 31
0.0
  0
LINE
  5
357
100
AcDbEntity
  8
ZUWAKU
  6
CONTINUOUS
 62
      43
100
AcDbLine
 10
-480.47640731
 20
1010.8845339
 30
0.0
 11
-491.20474427
 21
1000.15619694
 31
0.0
  0
LINE
  5
358
100
AcDbEntity
  8
ZUWAKU
  6
CONTINUOUS
 62
      43
100
AcDbLine
 10
-478.99374166
 20
1010.38730056
 30
0.0
 11
-489.22484528
 21
1000.15619694
 31
0.0
  0
LINE
  5
359
100
AcDbEntity
  8
ZUWAKU
  6
CONTINUOUS
 62
      43
100
AcDbLine
 10
-477.52757316
 20
1009.87357008
 30
0.0
 11
-487.2449463
 21
1000.15619694
 31
0.0
  0
LINE
  5
35A
100
AcDbEntity
  8
ZUWAKU
  6
CONTINUOUS
 62
      43
100
AcDbLine
 10
-476.07827555
 20
1009.3429687
 30
0.0
 11
-485.26504731
 21
1000.15619694
 31
0.0
  0
LINE
  5
35B
100
AcDbEntity
  8
ZUWAKU
  6
CONTINUOUS
 62
      43
100
AcDbLine
 10
-474.64626189
 20
1008.79508338
 30
0.0
 11
-483.28514832
 21
1000.15619694
 31
0.0
  0
LINE
  5
35C
100
AcDbEntity
  8
ZUWAKU
  6
CONTINUOUS
 62
      43
100
AcDbLine
 10
-473.23198847
 20
1008.22945781
 30
0.0
 11
-481.30524933
 21
1000.15619694
 31
0.0
  0
LINE
  5
35D
100
AcDbEntity
  8
ZUWAKU
  6
CONTINUOUS
 62
      43
100
AcDbLine
 10
-471.83595939
 20
1007.6455879
 30
0.0
 11
-479.32535035
 21
1000.15619694
 31
0.0
  0
LINE
  5
35E
100
AcDbEntity
  8
ZUWAKU
  6
CONTINUOUS
 62
      43
100
AcDbLine
 10
-470.45873182
 20
1007.04291648
 30
0.0
 11
-477.34545136
 21
1000.15619694
 31
0.0
  0
LINE
  5
35F
100
AcDbEntity
  8
ZUWAKU
  6
CONTINUOUS
 62
      43
100
AcDbLine
 10
-469.10092226
 20
1006.42082705
 30
0.0
 11
-475.36555237
 21
1000.15619694
 31
0.0
  0
LINE
  5
360
100
AcDbEntity
  8
ZUWAKU
  6
CONTINUOUS
 62
      43
100
AcDbLine
 10
-467.76321378
 20
1005.77863655
 30
0.0
 11
-473.38565339
 21
1000.15619694
 31
0.0
  0
LINE
  5
361
100
AcDbEntity
  8
ZUWAKU
  6
CONTINUOUS
 62
      43
100
AcDbLine
 10
-466.44636466
 20
1005.11558668
 30
0.0
 11
-471.4057544
 21
1000.15619694
 31
0.0
  0
LINE
  5
362
100
AcDbEntity
  8
ZUWAKU
  6
CONTINUOUS
 62
      43
100
AcDbLine
 10
-465.15121865
 20
1004.4308337
 30
0.0
 11
-469.42585541
 21
1000.15619694
 31
0.0
  0
LINE
  5
363
100
AcDbEntity
  8
ZUWAKU
  6
CONTINUOUS
 62
      43
100
AcDbLine
 10
-463.87871717
 20
1003.7234362
 30
0.0
 11
-467.44595642
 21
1000.15619694
 31
0.0
  0
LINE
  5
364
100
AcDbEntity
  8
ZUWAKU
  6
CONTINUOUS
 62
      43
100
AcDbLine
 10
-462.62991404
 20
1002.99234034
 30
0.0
 11
-465.46605744
 21
1000.15619694
 31
0.0
  0
LINE
  5
365
100
AcDbEntity
  8
ZUWAKU
  6
CONTINUOUS
 62
      43
100
AcDbLine
 10
-461.40599336
 20
1002.23636204
 30
0.0
 11
-464.5
 21
999.14235539
 31
0.0
  0
LINE
  5
366
100
AcDbEntity
  8
ZUWAKU
  6
CONTINUOUS
 62
      43
100
AcDbLine
 10
-460.20829132
 20
1001.45416508
 30
0.0
 11
-464.5
 21
997.16245641
 31
0.0
  0
LINE
  5
367
100
AcDbEntity
  8
ZUWAKU
  6
CONTINUOUS
 62
      43
100
AcDbLine
 10
-459.0383232
 20
1000.64423422
 30
0.0
 11
-464.5
 21
995.18255742
 31
0.0
  0
LINE
  5
368
100
AcDbEntity
  8
ZUWAKU
  6
CONTINUOUS
 62
      43
100
AcDbLine
 10
-457.89781693
 20
999.8048415
 30
0.0
 11
-464.5
 21
993.20265843
 31
0.0
  0
LINE
  5
369
100
AcDbEntity
  8
ZUWAKU
  6
CONTINUOUS
 62
      43
100
AcDbLine
 10
-456.78875557
 20
998.93400387
 30
0.0
 11
-464.5
 21
991.22275944
 31
0.0
  0
LINE
  5
36A
100
AcDbEntity
  8
ZUWAKU
  6
CONTINUOUS
 62
      43
100
AcDbLine
 10
-455.71343145
 20
998.029429
 30
0.0
 11
-464.5
 21
989.24286046
 31
0.0
  0
LINE
  5
36B
100
AcDbEntity
  8
ZUWAKU
  6
CONTINUOUS
 62
      43
100
AcDbLine
 10
-454.67451641
 20
997.08844506
 30
0.0
 11
-464.5
 21
987.26296147
 31
0.0
  0
LINE
  5
36C
100
AcDbEntity
  8
ZUWAKU
  6
CONTINUOUS
 62
      43
100
AcDbLine
 10
-453.67515428
 20
996.1079082
 30
0.0
 11
-464.5
 21
985.28306248
 31
0.0
  0
LINE
  5
36D
100
AcDbEntity
  8
ZUWAKU
  6
CONTINUOUS
 62
      43
100
AcDbLine
 10
-452.71908499
 20
995.08407851
 30
0.0
 11
-464.5
 21
983.30316349
 31
0.0
  0
LINE
  5
36E
100
AcDbEntity
  8
ZUWAKU
  6
CONTINUOUS
 62
      43
100
AcDbLine
 10
-451.81081444
 20
994.01245007
 30
0.0
 11
-462.72956756
 21
983.09369694
 31
0.0
  0
LINE
  5
36F
100
AcDbEntity
  8
ZUWAKU
  6
CONTINUOUS
 62
      43
100
AcDbLine
 10
-450.95585304
 20
992.88751248
 30
0.0
 11
-460.74966858
 21
983.09369694
 31
0.0
  0
LINE
  5
370
100
AcDbEntity
  8
ZUWAKU
  6
CONTINUOUS
 62
      43
100
AcDbLine
 10
-450.16105999
 20
991.70240654
 30
0.0
 11
-458.76976959
 21
983.09369694
 31
0.0
  0
LINE
  5
371
100
AcDbEntity
  8
ZUWAKU
  6
CONTINUOUS
 62
      43
100
AcDbLine
 10
-449.43515726
 20
990.44841028
 30
0.0
 11
-456.7898706
 21
983.09369694
 31
0.0
  0
LINE
  5
372
100
AcDbEntity
  8
ZUWAKU
  6
CONTINUOUS
 62
      43
100
AcDbLine
 10
-448.78952873
 20
989.11413983
 30
0.0
 11
-454.80997161
 21
983.09369694
 31
0.0
  0
LINE
  5
373
100
AcDbEntity
  8
ZUWAKU
  6
CONTINUOUS
 62
      43
100
AcDbLine
 10
-448.23952597
 20
987.6842436
 30
0.0
 11
-452.83007263
 21
983.09369694
 31
0.0
  0
LINE
  5
374
100
AcDbEntity
  8
ZUWAKU
  6
CONTINUOUS
 62
      43
100
AcDbLine
 10
-447.8067405
 20
986.13713009
 30
0.0
 11
-450.85017364
 21
983.09369694
 31
0.0
  0
LINE
  5
375
100
AcDbEntity
  8
ZUWAKU
  6
CONTINUOUS
 62
      43
100
AcDbLine
 10
-447.52329689
 20
984.4406747
 30
0.0
 11
-448.87027465
 21
983.09369694
 31
0.0
  0
LINE
  5
376
100
AcDbEntity
  8
ZUWAKU
  6
CONTINUOUS
 62
      43
100
AcDbLine
 10
-509.11725886
 20
966.03119694
 30
0.0
 11
-528.23325367
 21
946.91520214
 31
0.0
  0
LINE
  5
377
100
AcDbEntity
  8
ZUWAKU
  6
CONTINUOUS
 62
      43
100
AcDbLine
 10
-511.09715785
 20
966.03119694
 30
0.0
 11
-530.28418071
 21
946.84417409
 31
0.0
  0
LINE
  5
378
100
AcDbEntity
  8
ZUWAKU
  6
CONTINUOUS
 62
      43
100
AcDbLine
 10
-513.07705684
 20
966.03119694
 30
0.0
 11
-532.31556629
 21
946.79268749
 31
0.0
  0
LINE
  5
379
100
AcDbEntity
  8
ZUWAKU
  6
CONTINUOUS
 62
      43
100
AcDbLine
 10
-515.05695583
 20
966.03119694
 30
0.0
 11
-534.32803886
 21
946.76011391
 31
0.0
  0
LINE
  5
37A
100
AcDbEntity
  8
ZUWAKU
  6
CONTINUOUS
 62
      43
100
AcDbLine
 10
-517.03685481
 20
966.03119694
 30
0.0
 11
-536.32216628
 21
946.74588547
 31
0.0
  0
LINE
  5
37B
100
AcDbEntity
  8
ZUWAKU
  6
CONTINUOUS
 62
      43
100
AcDbLine
 10
-519.0167538
 20
966.03119694
 30
0.0
 11
-538.29846222
 21
946.74948852
 31
0.0
  0
LINE
  5
37C
100
AcDbEntity
  8
ZUWAKU
  6
CONTINUOUS
 62
      43
100
AcDbLine
 10
-520.99665279
 20
966.03119694
 30
0.0
 11
-540.25739162
 21
946.77045812
 31
0.0
  0
LINE
  5
37D
100
AcDbEntity
  8
ZUWAKU
  6
CONTINUOUS
 62
      43
100
AcDbLine
 10
-522.97655178
 20
966.03119694
 30
0.0
 11
-542.19937536
 21
946.80837336
 31
0.0
  0
LINE
  5
37E
100
AcDbEntity
  8
ZUWAKU
  6
CONTINUOUS
 62
      43
100
AcDbLine
 10
-524.95645076
 20
966.03119694
 30
0.0
 11
-544.12479434
 21
946.86285337
 31
0.0
  0
LINE
  5
37F
100
AcDbEntity
  8
ZUWAKU
  6
CONTINUOUS
 62
      43
100
AcDbLine
 10
-526.93634975
 20
966.03119694
 30
0.0
 11
-546.03399289
 21
946.9335538
 31
0.0
  0
LINE
  5
380
100
AcDbEntity
  8
ZUWAKU
  6
CONTINUOUS
 62
      43
100
AcDbLine
 10
-528.91624874
 20
966.03119694
 30
0.0
 11
-547.92728181
 21
947.02016387
 31
0.0
  0
LINE
  5
381
100
AcDbEntity
  8
ZUWAKU
  6
CONTINUOUS
 62
      43
100
AcDbLine
 10
-530.89614772
 20
966.03119694
 30
0.0
 11
-549.80494098
 21
947.12240369
 31
0.0
  0
LINE
  5
382
100
AcDbEntity
  8
ZUWAKU
  6
CONTINUOUS
 62
      43
100
AcDbLine
 10
-532.87604671
 20
966.03119694
 30
0.0
 11
-551.66722158
 21
947.24002207
 31
0.0
  0
LINE
  5
383
100
AcDbEntity
  8
ZUWAKU
  6
CONTINUOUS
 62
      43
100
AcDbLine
 10
-534.8559457
 20
966.03119694
 30
0.0
 11
-553.51434807
 21
947.37279457
 31
0.0
  0
LINE
  5
384
100
AcDbEntity
  8
ZUWAKU
  6
CONTINUOUS
 62
      43
100
AcDbLine
 10
-536.83584469
 20
966.03119694
 30
0.0
 11
-555.34651987
 21
947.52052176
 31
0.0
  0
LINE
  5
385
100
AcDbEntity
  8
ZUWAKU
  6
CONTINUOUS
 62
      43
100
AcDbLine
 10
-538.81574367
 20
966.03119694
 30
0.0
 11
-557.1639128
 21
947.68302781
 31
0.0
  0
LINE
  5
386
100
AcDbEntity
  8
ZUWAKU
  6
CONTINUOUS
 62
      43
100
AcDbLine
 10
-540.79564266
 20
966.03119694
 30
0.0
 11
-558.96668037
 21
947.86015923
 31
0.0
  0
LINE
  5
387
100
AcDbEntity
  8
ZUWAKU
  6
CONTINUOUS
 62
      43
100
AcDbLine
 10
-542.77554165
 20
966.03119694
 30
0.0
 11
-560.7549548
 21
948.0517838
 31
0.0
  0
LINE
  5
388
100
AcDbEntity
  8
ZUWAKU
  6
CONTINUOUS
 62
      43
100
AcDbLine
 10
-544.75544064
 20
966.03119694
 30
0.0
 11
-562.52884792
 21
948.25778966
 31
0.0
  0
LINE
  5
389
100
AcDbEntity
  8
ZUWAKU
  6
CONTINUOUS
 62
      43
100
AcDbLine
 10
-546.73533962
 20
966.03119694
 30
0.0
 11
-564.28845197
 21
948.47808459
 31
0.0
  0
LINE
  5
38A
100
AcDbEntity
  8
ZUWAKU
  6
CONTINUOUS
 62
      43
100
AcDbLine
 10
-548.71523861
 20
966.03119694
 30
0.0
 11
-566.03384014
 21
948.71259542
 31
0.0
  0
LINE
  5
38B
100
AcDbEntity
  8
ZUWAKU
  6
CONTINUOUS
 62
      43
100
AcDbLine
 10
-550.6951376
 20
966.03119694
 30
0.0
 11
-567.76506706
 21
948.96126748
 31
0.0
  0
LINE
  5
38C
100
AcDbEntity
  8
ZUWAKU
  6
CONTINUOUS
 62
      43
100
AcDbLine
 10
-552.67503659
 20
966.03119694
 30
0.0
 11
-569.48216919
 21
949.22406434
 31
0.0
  0
LINE
  5
38D
100
AcDbEntity
  8
ZUWAKU
  6
CONTINUOUS
 62
      43
100
AcDbLine
 10
-554.65493557
 20
966.03119694
 30
0.0
 11
-571.185165
 21
949.50096752
 31
0.0
  0
LINE
  5
38E
100
AcDbEntity
  8
ZUWAKU
  6
CONTINUOUS
 62
      43
100
AcDbLine
 10
-556.63483456
 20
966.03119694
 30
0.0
 11
-572.87405511
 21
949.79197639
 31
0.0
  0
LINE
  5
38F
100
AcDbEntity
  8
ZUWAKU
  6
CONTINUOUS
 62
      43
100
AcDbLine
 10
-558.61473355
 20
966.03119694
 30
0.0
 11
-574.54882232
 21
950.09710818
 31
0.0
  0
LINE
  5
390
100
AcDbEntity
  8
ZUWAKU
  6
CONTINUOUS
 62
      43
100
AcDbLine
 10
-560.59463253
 20
966.03119694
 30
0.0
 11
-576.20943143
 21
950.41639805
 31
0.0
  0
LINE
  5
391
100
AcDbEntity
  8
ZUWAKU
  6
CONTINUOUS
 62
      43
100
AcDbLine
 10
-562.57453152
 20
966.03119694
 30
0.0
 11
-577.85582909
 21
950.74989938
 31
0.0
  0
LINE
  5
392
100
AcDbEntity
  8
ZUWAKU
  6
CONTINUOUS
 62
      43
100
AcDbLine
 10
-564.55443051
 20
966.03119694
 30
0.0
 11
-579.48794343
 21
951.09768402
 31
0.0
  0
LINE
  5
393
100
AcDbEntity
  8
ZUWAKU
  6
CONTINUOUS
 62
      43
100
AcDbLine
 10
-566.5343295
 20
966.03119694
 30
0.0
 11
-581.10568359
 21
951.45984285
 31
0.0
  0
LINE
  5
394
100
AcDbEntity
  8
ZUWAKU
  6
CONTINUOUS
 62
      43
100
AcDbLine
 10
-568.51422848
 20
966.03119694
 30
0.0
 11
-582.70893911
 21
951.83648632
 31
0.0
  0
LINE
  5
395
100
AcDbEntity
  8
ZUWAKU
  6
CONTINUOUS
 62
      43
100
AcDbLine
 10
-570.49412747
 20
966.03119694
 30
0.0
 11
-584.29757923
 21
952.22774518
 31
0.0
  0
LINE
  5
396
100
AcDbEntity
  8
ZUWAKU
  6
CONTINUOUS
 62
      43
100
AcDbLine
 10
-572.47402646
 20
966.03119694
 30
0.0
 11
-585.87145199
 21
952.63377141
 31
0.0
  0
LINE
  5
397
100
AcDbEntity
  8
ZUWAKU
  6
CONTINUOUS
 62
      43
100
AcDbLine
 10
-574.45392545
 20
966.03119694
 30
0.0
 11
-587.43038316
 21
953.05473922
 31
0.0
  0
LINE
  5
398
100
AcDbEntity
  8
ZUWAKU
  6
CONTINUOUS
 62
      43
100
AcDbLine
 10
-576.43382443
 20
966.03119694
 30
0.0
 11
-588.97417503
 21
953.49084635
 31
0.0
  0
LINE
  5
399
100
AcDbEntity
  8
ZUWAKU
  6
CONTINUOUS
 62
      43
100
AcDbLine
 10
-578.41372342
 20
966.03119694
 30
0.0
 11
-590.50260494
 21
953.94231542
 31
0.0
  0
LINE
  5
39A
100
AcDbEntity
  8
ZUWAKU
  6
CONTINUOUS
 62
      43
100
AcDbLine
 10
-580.39362241
 20
966.03119694
 30
0.0
 11
-592.01542366
 21
954.4093957
 31
0.0
  0
LINE
  5
39B
100
AcDbEntity
  8
ZUWAKU
  6
CONTINUOUS
 62
      43
100
AcDbLine
 10
-582.3735214
 20
966.03119694
 30
0.0
 11
-593.51235338
 21
954.89236496
 31
0.0
  0
LINE
  5
39C
100
AcDbEntity
  8
ZUWAKU
  6
CONTINUOUS
 62
      43
100
AcDbLine
 10
-584.35342038
 20
966.03119694
 30
0.0
 11
-594.99308557
 21
955.39153176
 31
0.0
  0
LINE
  5
39D
100
AcDbEntity
  8
ZUWAKU
  6
CONTINUOUS
 62
      43
100
AcDbLine
 10
-586.33331937
 20
966.03119694
 30
0.0
 11
-596.45727832
 21
955.90723799
 31
0.0
  0
LINE
  5
39E
100
AcDbEntity
  8
ZUWAKU
  6
CONTINUOUS
 62
      43
100
AcDbLine
 10
-588.31321836
 20
966.03119694
 30
0.0
 11
-597.90455345
 21
956.43986185
 31
0.0
  0
LINE
  5
39F
100
AcDbEntity
  8
ZUWAKU
  6
CONTINUOUS
 62
      43
100
AcDbLine
 10
-590.29311734
 20
966.03119694
 30
0.0
 11
-599.33449298
 21
956.98982131
 31
0.0
  0
LINE
  5
3A0
100
AcDbEntity
  8
ZUWAKU
  6
CONTINUOUS
 62
      43
100
AcDbLine
 10
-592.27301633
 20
966.03119694
 30
0.0
 11
-600.74663521
 21
957.55757806
 31
0.0
  0
LINE
  5
3A1
100
AcDbEntity
  8
ZUWAKU
  6
CONTINUOUS
 62
      43
100
AcDbLine
 10
-594.25291532
 20
966.03119694
 30
0.0
 11
-602.14047007
 21
958.14364219
 31
0.0
  0
LINE
  5
3A2
100
AcDbEntity
  8
ZUWAKU
  6
CONTINUOUS
 62
      43
100
AcDbLine
 10
-596.23281431
 20
966.03119694
 30
0.0
 11
-603.5154337
 21
958.74857755
 31
0.0
  0
LINE
  5
3A3
100
AcDbEntity
  8
ZUWAKU
  6
CONTINUOUS
 62
      43
100
AcDbLine
 10
-598.21271329
 20
966.03119694
 30
0.0
 11
-604.87090214
 21
959.3730081
 31
0.0
  0
LINE
  5
3A4
100
AcDbEntity
  8
ZUWAKU
  6
CONTINUOUS
 62
      43
100
AcDbLine
 10
-600.19261228
 20
966.03119694
 30
0.0
 11
-606.2061839
 21
960.01762533
 31
0.0
  0
LINE
  5
3A5
100
AcDbEntity
  8
ZUWAKU
  6
CONTINUOUS
 62
      43
100
AcDbLine
 10
-602.17251127
 20
966.03119694
 30
0.0
 11
-607.52051114
 21
960.68319707
 31
0.0
  0
LINE
  5
3A6
100
AcDbEntity
  8
ZUWAKU
  6
CONTINUOUS
 62
      43
100
AcDbLine
 10
-604.15241026
 20
966.03119694
 30
0.0
 11
-608.81302926
 21
961.37057794
 31
0.0
  0
LINE
  5
3A7
100
AcDbEntity
  8
ZUWAKU
  6
CONTINUOUS
 62
      43
100
AcDbLine
 10
-606.13230924
 20
966.03119694
 30
0.0
 11
-610.08278435
 21
962.08072184
 31
0.0
  0
LINE
  5
3A8
100
AcDbEntity
  8
ZUWAKU
  6
CONTINUOUS
 62
      43
100
AcDbLine
 10
-608.11220823
 20
966.03119694
 30
0.0
 11
-611.32870818
 21
962.814697
 31
0.0
  0
LINE
  5
3A9
100
AcDbEntity
  8
ZUWAKU
  6
CONTINUOUS
 62
      43
100
AcDbLine
 10
-608.875
 20
967.24830416
 30
0.0
 11
-612.54959988
 21
963.57370428
 31
0.0
  0
LINE
  5
3AA
100
AcDbEntity
  8
ZUWAKU
  6
CONTINUOUS
 62
      43
100
AcDbLine
 10
-608.875
 20
969.22820315
 30
0.0
 11
-613.74410359
 21
964.35909956
 31
0.0
  0
LINE
  5
3AB
100
AcDbEntity
  8
ZUWAKU
  6
CONTINUOUS
 62
      43
100
AcDbLine
 10
-608.875
 20
971.20810214
 30
0.0
 11
-614.91068079
 21
965.17242135
 31
0.0
  0
LINE
  5
3AC
100
AcDbEntity
  8
ZUWAKU
  6
CONTINUOUS
 62
      43
100
AcDbLine
 10
-608.875
 20
973.18800112
 30
0.0
 11
-616.04757575
 21
966.01542537
 31
0.0
  0
LINE
  5
3AD
100
AcDbEntity
  8
ZUWAKU
  6
CONTINUOUS
 62
      43
100
AcDbLine
 10
-608.875
 20
975.16790011
 30
0.0
 11
-617.15277194
 21
966.89012817
 31
0.0
  0
LINE
  5
3AE
100
AcDbEntity
  8
ZUWAKU
  6
CONTINUOUS
 62
      43
100
AcDbLine
 10
-608.875
 20
977.1477991
 30
0.0
 11
-618.22393614
 21
967.79886296
 31
0.0
  0
LINE
  5
3AF
100
AcDbEntity
  8
ZUWAKU
  6
CONTINUOUS
 62
      43
100
AcDbLine
 10
-608.875
 20
979.12769809
 30
0.0
 11
-619.25834603
 21
968.74435206
 31
0.0
  0
LINE
  5
3B0
100
AcDbEntity
  8
ZUWAKU
  6
CONTINUOUS
 62
      43
100
AcDbLine
 10
-608.875
 20
981.10759707
 30
0.0
 11
-620.25279443
 21
969.72980264
 31
0.0
  0
LINE
  5
3B1
100
AcDbEntity
  8
ZUWAKU
  6
CONTINUOUS
 62
      43
100
AcDbLine
 10
-608.86879912
 20
983.09369694
 30
0.0
 11
-621.20346077
 21
970.75903529
 31
0.0
  0
LINE
  5
3B2
100
AcDbEntity
  8
ZUWAKU
  6
CONTINUOUS
 62
      43
100
AcDbLine
 10
-610.8486981
 20
983.09369694
 30
0.0
 11
-622.10573437
 21
971.83666068
 31
0.0
  0
LINE
  5
3B3
100
AcDbEntity
  8
ZUWAKU
  6
CONTINUOUS
 62
      43
100
AcDbLine
 10
-612.82859709
 20
983.09369694
 30
0.0
 11
-622.95396578
 21
972.96832825
 31
0.0
  0
LINE
  5
3B4
100
AcDbEntity
  8
ZUWAKU
  6
CONTINUOUS
 62
      43
100
AcDbLine
 10
-614.80849608
 20
983.09369694
 30
0.0
 11
-623.74110646
 21
974.16108657
 31
0.0
  0
LINE
  5
3B5
100
AcDbEntity
  8
ZUWAKU
  6
CONTINUOUS
 62
      43
100
AcDbLine
 10
-616.78839507
 20
983.09369694
 30
0.0
 11
-624.45816841
 21
975.4239236
 31
0.0
  0
LINE
  5
3B6
100
AcDbEntity
  8
ZUWAKU
  6
CONTINUOUS
 62
      43
100
AcDbLine
 10
-618.76829405
 20
983.09369694
 30
0.0
 11
-625.0933797
 21
976.7686113
 31
0.0
  0
LINE
  5
3B7
100
AcDbEntity
  8
ZUWAKU
  6
CONTINUOUS
 62
      43
100
AcDbLine
 10
-620.74819304
 20
983.09369694
 30
0.0
 11
-625.63079517
 21
978.21109482
 31
0.0
  0
LINE
  5
3B8
100
AcDbEntity
  8
ZUWAKU
  6
CONTINUOUS
 62
      43
100
AcDbLine
 10
-622.72809203
 20
983.09369694
 30
0.0
 11
-626.04785816
 21
979.77393081
 31
0.0
  0
LINE
  5
3B9
100
AcDbEntity
  8
ZUWAKU
  6
CONTINUOUS
 62
      43
100
AcDbLine
 10
-624.70799101
 20
983.09369694
 30
0.0
 11
-626.31074071
 21
981.49094725
 31
0.0
  0
LINE
  5
3BA
100
AcDbEntity
  8
ZUWAKU
  6
CONTINUOUS
 62
      43
100
AcDbLine
 10
-507.13735988
 20
966.03119694
 30
0.0
 11
-526.16208863
 21
947.00646819
 31
0.0
  0
LINE
  5
3BB
100
AcDbEntity
  8
ZUWAKU
  6
CONTINUOUS
 62
      43
100
AcDbLine
 10
-505.15746089
 20
966.03119694
 30
0.0
 11
-524.06991201
 21
947.11874582
 31
0.0
  0
LINE
  5
3BC
100
AcDbEntity
  8
ZUWAKU
  6
CONTINUOUS
 62
      43
100
AcDbLine
 10
-503.1775619
 20
966.03119694
 30
0.0
 11
-521.95586268
 21
947.25289617
 31
0.0
  0
LINE
  5
3BD
100
AcDbEntity
  8
ZUWAKU
  6
CONTINUOUS
 62
      43
100
AcDbLine
 10
-501.19766291
 20
966.03119694
 30
0.0
 11
-519.81897922
 21
947.40988064
 31
0.0
  0
LINE
  5
3BE
100
AcDbEntity
  8
ZUWAKU
  6
CONTINUOUS
 62
      43
100
AcDbLine
 10
-499.21776393
 20
966.03119694
 30
0.0
 11
-517.65818472
 21
947.59077615
 31
0.0
  0
LINE
  5
3BF
100
AcDbEntity
  8
ZUWAKU
  6
CONTINUOUS
 62
      43
100
AcDbLine
 10
-497.23786494
 20
966.03119694
 30
0.0
 11
-515.47226821
 21
947.79679367
 31
0.0
  0
LINE
  5
3C0
100
AcDbEntity
  8
ZUWAKU
  6
CONTINUOUS
 62
      43
100
AcDbLine
 10
-495.25796595
 20
966.03119694
 30
0.0
 11
-513.25986199
 21
948.02930091
 31
0.0
  0
LINE
  5
3C1
100
AcDbEntity
  8
ZUWAKU
  6
CONTINUOUS
 62
      43
100
AcDbLine
 10
-493.27806697
 20
966.03119694
 30
0.0
 11
-511.01941348
 21
948.28985042
 31
0.0
  0
LINE
  5
3C2
100
AcDbEntity
  8
ZUWAKU
  6
CONTINUOUS
 62
      43
100
AcDbLine
 10
-491.29816798
 20
966.03119694
 30
0.0
 11
-508.7491502
 21
948.58021472
 31
0.0
  0
LINE
  5
3C3
100
AcDbEntity
  8
ZUWAKU
  6
CONTINUOUS
 62
      43
100
AcDbLine
 10
-489.31826899
 20
966.03119694
 30
0.0
 11
-506.44703536
 21
948.90243058
 31
0.0
  0
LINE
  5
3C4
100
AcDbEntity
  8
ZUWAKU
  6
CONTINUOUS
 62
      43
100
AcDbLine
 10
-487.33837
 20
966.03119694
 30
0.0
 11
-504.110711
 21
949.25885595
 31
0.0
  0
LINE
  5
3C5
100
AcDbEntity
  8
ZUWAKU
  6
CONTINUOUS
 62
      43
100
AcDbLine
 10
-485.35847102
 20
966.03119694
 30
0.0
 11
-501.73742418
 21
949.65224378
 31
0.0
  0
LINE
  5
3C6
100
AcDbEntity
  8
ZUWAKU
  6
CONTINUOUS
 62
      43
100
AcDbLine
 10
-483.37857203
 20
966.03119694
 30
0.0
 11
-499.32392933
 21
950.08583964
 31
0.0
  0
LINE
  5
3C7
100
AcDbEntity
  8
ZUWAKU
  6
CONTINUOUS
 62
      43
100
AcDbLine
 10
-464.33617304
 20
983.09369694
 30
0.0
 11
-464.5
 21
982.92986999
 31
0.0
  0
LINE
  5
3C8
100
AcDbEntity
  8
ZUWAKU
  6
CONTINUOUS
 62
      43
100
AcDbLine
 10
-481.39867304
 20
966.03119694
 30
0.0
 11
-496.86635681
 21
950.56351317
 31
0.0
  0
LINE
  5
3C9
100
AcDbEntity
  8
ZUWAKU
  6
CONTINUOUS
 62
      43
100
AcDbLine
 10
-462.35627405
 20
983.09369694
 30
0.0
 11
-464.5
 21
980.949971
 31
0.0
  0
LINE
  5
3CA
100
AcDbEntity
  8
ZUWAKU
  6
CONTINUOUS
 62
      43
100
AcDbLine
 10
-479.41877405
 20
966.03119694
 30
0.0
 11
-494.36003214
 21
951.08993886
 31
0.0
  0
LINE
  5
3CB
100
AcDbEntity
  8
ZUWAKU
  6
CONTINUOUS
 62
      43
100
AcDbLine
 10
-460.37637507
 20
983.09369694
 30
0.0
 11
-464.5
 21
978.97007201
 31
0.0
  0
LINE
  5
3CC
100
AcDbEntity
  8
ZUWAKU
  6
CONTINUOUS
 62
      43
100
AcDbLine
 10
-477.43887507
 20
966.03119694
 30
0.0
 11
-491.79922099
 21
951.67085103
 31
0.0
  0
LINE
  5
3CD
100
AcDbEntity
  8
ZUWAKU
  6
CONTINUOUS
 62
      43
100
AcDbLine
 10
-458.39647608
 20
983.09369694
 30
0.0
 11
-464.5
 21
976.99017302
 31
0.0
  0
LINE
  5
3CE
100
AcDbEntity
  8
ZUWAKU
  6
CONTINUOUS
 62
      43
100
AcDbLine
 10
-475.45897608
 20
966.03119694
 30
0.0
 11
-489.17675891
 21
952.31341412
 31
0.0
  0
LINE
  5
3CF
100
AcDbEntity
  8
ZUWAKU
  6
CONTINUOUS
 62
      43
100
AcDbLine
 10
-456.41657709
 20
983.09369694
 30
0.0
 11
-464.5
 21
975.01027404
 31
0.0
  0
LINE
  5
3D0
100
AcDbEntity
  8
ZUWAKU
  6
CONTINUOUS
 62
      43
100
AcDbLine
 10
-473.47907709
 20
966.03119694
 30
0.0
 11
-486.48349458
 21
953.02677946
 31
0.0
  0
LINE
  5
3D1
100
AcDbEntity
  8
ZUWAKU
  6
CONTINUOUS
 62
      43
100
AcDbLine
 10
-454.4366781
 20
983.09369694
 30
0.0
 11
-464.5
 21
973.03037505
 31
0.0
  0
LINE
  5
3D2
100
AcDbEntity
  8
ZUWAKU
  6
CONTINUOUS
 62
      43
100
AcDbLine
 10
-471.4991781
 20
966.03119694
 30
0.0
 11
-483.70741681
 21
953.82295824
 31
0.0
  0
LINE
  5
3D3
100
AcDbEntity
  8
ZUWAKU
  6
CONTINUOUS
 62
      43
100
AcDbLine
 10
-452.45677912
 20
983.09369694
 30
0.0
 11
-464.5
 21
971.05047606
 31
0.0
  0
LINE
  5
3D4
100
AcDbEntity
  8
ZUWAKU
  6
CONTINUOUS
 62
      43
100
AcDbLine
 10
-469.51927912
 20
966.03119694
 30
0.0
 11
-480.83221263
 21
954.71826343
 31
0.0
  0
LINE
  5
3D5
100
AcDbEntity
  8
ZUWAKU
  6
CONTINUOUS
 62
      43
100
AcDbLine
 10
-450.47688013
 20
983.09369694
 30
0.0
 11
-464.5
 21
969.07057707
 31
0.0
  0
LINE
  5
3D6
100
AcDbEntity
  8
ZUWAKU
  6
CONTINUOUS
 62
      43
100
AcDbLine
 10
-467.53938013
 20
966.03119694
 30
0.0
 11
-477.83472335
 21
955.73585372
 31
0.0
  0
LINE
  5
3D7
100
AcDbEntity
  8
ZUWAKU
  6
CONTINUOUS
 62
      43
100
AcDbLine
 10
-448.49698114
 20
983.09369694
 30
0.0
 11
-464.5
 21
967.09067809
 31
0.0
  0
LINE
  5
3D8
100
AcDbEntity
  8
ZUWAKU
  6
CONTINUOUS
 62
      43
100
AcDbLine
 10
-465.55948114
 20
966.03119694
 30
0.0
 11
-474.6800487
 21
956.91062939
 31
0.0
  0
LINE
  5
3D9
100
AcDbEntity
  8
ZUWAKU
  6
CONTINUOUS
 62
      43
100
AcDbLine
 10
-447.45445929
 20
982.15631981
 30
0.0
 11
-471.31091767
 21
958.29986143
 31
0.0
  0
LINE
  5
3DA
100
AcDbEntity
  8
ZUWAKU
  6
CONTINUOUS
 62
      43
100
AcDbLine
 10
-447.74034124
 20
979.89053887
 30
0.0
 11
-467.6200346
 21
960.01084551
 31
0.0
  0
LINE
  5
3DB
100
AcDbEntity
  8
ZUWAKU
  6
CONTINUOUS
 62
      43
100
AcDbLine
 10
-448.60382065
 20
977.04716048
 30
0.0
 11
-463.35155409
 21
962.29942704
 31
0.0
  0
LINE
  5
3DC
100
AcDbEntity
  8
ZUWAKU
  6
CONTINUOUS
 62
      43
100
AcDbLine
 10
-451.27473237
 20
972.39634977
 30
0.0
 11
-457.27564125
 21
966.39544089
 31
0.0
  0
LINE
  5
3DD
100
AcDbEntity
  8
ZUWAKU
  6
CONTINUOUS
 62
       3
100
AcDbLine
 10
219.75
 20
1003.21869694
 30
0.0
 11
661.625
 21
1003.21869694
 31
0.0
  0
LINE
  5
3DE
100
AcDbEntity
  8
ZUWAKU
  6
CONTINUOUS
 62
       3
100
AcDbLine
 10
219.75
 20
1003.21869694
 30
0.0
 11
219.75
 21
933.875737
 31
0.0
  0
LINE
  5
3DF
100
AcDbEntity
  8
ZUWAKU
  6
CONTINUOUS
 62
       3
100
AcDbLine
 10
661.625
 20
1003.21869694
 30
0.0
 11
661.625
 21
933.875737
 31
0.0
  0
LINE
  5
3E0
100
AcDbEntity
  8
ZUWAKU
  6
CONTINUOUS
 62
       3
100
AcDbLine
 10
-587.875
 20
-891.59380306
 30
0.0
 11
-587.875
 21
-611.59380306
 31
0.0
  0
LINE
  5
3E1
100
AcDbEntity
  8
ZUWAKU
  6
CONTINUOUS
 62
       3
100
AcDbLine
 10
-261.9375
 20
-891.59380306
 30
0.0
 11
-261.9375
 21
-611.59380306
 31
0.0
  0
LINE
  5
3E2
100
AcDbEntity
  8
ZUWAKU
  6
CONTINUOUS
 62
       3
100
AcDbLine
 10
109.9375
 20
-891.59380306
 30
0.0
 11
109.9375
 21
-611.59380306
 31
0.0
  0
LINE
  5
3E3
100
AcDbEntity
  8
ZUWAKU
  6
CONTINUOUS
 62
       3
100
AcDbLine
 10
187.8125
 20
-891.59380306
 30
0.0
 11
187.8125
 21
-611.59380306
 31
0.0
  0
LINE
  5
3E4
100
AcDbEntity
  8
ZUWAKU
  6
CONTINUOUS
 62
       3
100
AcDbLine
 10
218.0
 20
-987.84380306
 30
0.0
 11
218.0
 21
-903.40630306
 31
0.0
  0
LINE
  5
3E5
100
AcDbEntity
  8
ZUWAKU
  6
CONTINUOUS
 62
       3
100
AcDbLine
 10
183.0
 20
-987.84380306
 30
0.0
 11
183.0
 21
-903.40630306
 31
0.0
  0
LINE
  5
3E6
100
AcDbEntity
  8
ZUWAKU
  6
CONTINUOUS
 62
       3
100
AcDbLine
 10
-254.9375
 20
-987.84380306
 30
0.0
 11
-254.9375
 21
-903.40630306
 31
0.0
  0
LINE
  5
3E7
100
AcDbEntity
  8
ZUWAKU
  6
CONTINUOUS
 62
       3
100
AcDbLine
 10
-289.9375
 20
-987.84380306
 30
0.0
 11
-289.9375
 21
-903.40630306
 31
0.0
  0
LINE
  5
3E8
100
AcDbEntity
  8
ZUWAKU
  6
CONTINUOUS
 62
       3
100
AcDbLine
 10
-636.4375
 20
-856.59380306
 30
0.0
 11
654.625
 21
-856.59380306
 31
0.0
  0
LINE
  5
3E9
100
AcDbEntity
  8
ZUWAKU
  6
CONTINUOUS
 62
       3
100
AcDbLine
 10
-636.4375
 20
-821.59380306
 30
0.0
 11
654.625
 21
-821.59380306
 31
0.0
  0
LINE
  5
3EA
100
AcDbEntity
  8
ZUWAKU
  6
CONTINUOUS
 62
       3
100
AcDbLine
 10
-636.4375
 20
-786.59380306
 30
0.0
 11
654.625
 21
-786.59380306
 31
0.0
  0
LINE
  5
3EB
100
AcDbEntity
  8
ZUWAKU
  6
CONTINUOUS
 62
       3
100
AcDbLine
 10
-636.4375
 20
-751.59380306
 30
0.0
 11
654.625
 21
-751.59380306
 31
0.0
  0
LINE
  5
3EC
100
AcDbEntity
  8
ZUWAKU
  6
CONTINUOUS
 62
       3
100
AcDbLine
 10
-636.4375
 20
-716.59380306
 30
0.0
 11
654.625
 21
-716.59380306
 31
0.0
  0
LINE
  5
3ED
100
AcDbEntity
  8
ZUWAKU
  6
CONTINUOUS
 62
       3
100
AcDbLine
 10
-636.4375
 20
-681.59380306
 30
0.0
 11
654.625
 21
-681.59380306
 31
0.0
  0
LINE
  5
3EE
100
AcDbEntity
  8
ZUWAKU
  6
CONTINUOUS
 62
       3
100
AcDbLine
 10
-636.4375
 20
-646.59380306
 30
0.0
 11
654.625
 21
-646.59380306
 31
0.0
  0
POINT
  5
3EF
100
AcDbEntity
  8
ZUWAKU
  6
CONTINUOUS
 62
       3
100
AcDbPoint
 10
-636.4375
 20
-279.75842545
 30
0.0
  0
POINT
  5
3F0
100
AcDbEntity
  8
ZUWAKU
  6
CONTINUOUS
 62
       3
100
AcDbPoint
 10
-636.4375
 20
280.24157455
 30
0.0
  0
POINT
  5
3F1
100
AcDbEntity
  8
ZUWAKU
  6
CONTINUOUS
 62
       3
100
AcDbPoint
 10
-734.0
 20
0.24157455
 30
0.0
  0
TEXT
  5
3F2
100
AcDbEntity
  8
ZUWAKU
 62
       4
100
AcDbText
 10
-272.44096279
 20
-909.41131657
 30
0.0
 40
21.0
  1
品 名
 41
1.03494498
  7
FDASTYLE1
100
AcDbText
  0
TEXT
  5
3F3
100
AcDbEntity
  8
ZUWAKU
 62
       4
100
AcDbText
 10
200.07470584
 20
-909.53449185
 30
0.0
 40
21.0
  1
品　番
 41
1.03494498
  7
FDASTYLE1
100
AcDbText
  0
TEXT
  5
3F4
100
AcDbEntity
  8
ZUWAKU
 62
       4
100
AcDbText
 10
-624.45522431
 20
-852.81403687
 30
0.0
 40
28.0
  1
1
 41
0.8
 72
       5
 11
-602.05522431
 21
-852.81403687
 31
0.0
100
AcDbText
  0
TEXT
  5
3F5
100
AcDbEntity
  8
ZUWAKU
 62
       4
100
AcDbText
 10
-624.45522431
 20
-817.81403687
 30
0.0
 40
28.0
  1
2
 41
0.8
 72
       5
 11
-602.05522431
 21
-817.81403687
 31
0.0
100
AcDbText
  0
TEXT
  5
3F6
100
AcDbEntity
  8
ZUWAKU
 62
       4
100
AcDbText
 10
-624.45522431
 20
-782.81403687
 30
0.0
 40
28.0
  1
3
 41
0.8
 72
       5
 11
-602.05522431
 21
-782.81403687
 31
0.0
100
AcDbText
  0
TEXT
  5
3F7
100
AcDbEntity
  8
ZUWAKU
 62
       4
100
AcDbText
 10
-624.45522431
 20
-747.81403687
 30
0.0
 40
28.0
  1
4
 41
0.8
 72
       5
 11
-602.05522431
 21
-747.81403687
 31
0.0
100
AcDbText
  0
TEXT
  5
3F8
100
AcDbEntity
  8
ZUWAKU
 62
       4
100
AcDbText
 10
-624.45522431
 20
-712.81403687
 30
0.0
 40
28.0
  1
5
 41
0.8
 72
       5
 11
-602.05522431
 21
-712.81403687
 31
0.0
100
AcDbText
  0
TEXT
  5
3F9
100
AcDbEntity
  8
ZUWAKU
 62
       4
100
AcDbText
 10
-624.45522431
 20
-677.81403687
 30
0.0
 40
28.0
  1
6
 41
0.8
 72
       5
 11
-602.05522431
 21
-677.81403687
 31
0.0
100
AcDbText
  0
TEXT
  5
3FA
100
AcDbEntity
  8
ZUWAKU
 62
       4
100
AcDbText
 10
-624.45522431
 20
-642.81403687
 30
0.0
 40
28.0
  1
7
 41
0.8
 72
       5
 11
-602.05522431
 21
-642.81403687
 31
0.0
100
AcDbText
  0
TEXT
  5
3FB
100
AcDbEntity
  8
ZUWAKU
 62
       4
100
AcDbText
 10
364.10470839
 20
-887.67590135
 30
0.0
 40
28.0
  1
摘要・仕上
 41
0.8
 72
       5
 11
476.10470839
 21
-887.67590135
 31
0.0
100
AcDbText
  0
TEXT
  5
3FC
100
AcDbEntity
  8
ZUWAKU
 62
       4
100
AcDbText
 10
114.65522905
 20
-887.67590135
 30
0.0
 40
28.0
  1
個　数
 41
0.8
 72
       5
 11
181.85522905
 21
-887.67590135
 31
0.0
100
AcDbText
  0
TEXT
  5
3FD
100
AcDbEntity
  8
ZUWAKU
 62
       4
100
AcDbText
 10
-120.51613606
 20
-887.67590135
 30
0.0
 40
28.0
  1
材　　質
 41
0.8
 72
       5
 11
-30.91613606
 21
-887.67590135
 31
0.0
100
AcDbText
  0
TEXT
  5
3FE
100
AcDbEntity
  8
ZUWAKU
 62
       4
100
AcDbText
 10
-481.13807437
 20
-887.67590135
 30
0.0
 40
28.0
  1
部　品　名
 41
0.8
 72
       5
 11
-369.13807437
 21
-887.67590135
 31
0.0
100
AcDbText
  0
TEXT
  5
3FF
100
AcDbEntity
  8
ZUWAKU
 62
       4
100
AcDbText
 10
-635.43286734
 20
-887.67590135
 30
0.0
 40
28.0
  1
部番
 41
0.8
 72
       5
 11
-590.63286734
 21
-887.67590135
 31
0.0
100
AcDbText
  0
TEXT
  5
400
100
AcDbEntity
  8
ZUWAKU
 62
       4
100
AcDbText
 10
699.62164879
 20
-182.42579102
 30
0.0
 40
28.0
  1
ウォッシュルーム用品
 50
-90.0
 41
0.8
 72
       5
 11
699.62164879
 21
-406.42579102
 31
0.0
100
AcDbText
  0
TEXT
  5
401
100
AcDbEntity
  8
ZUWAKU
 62
       4
100
AcDbText
 10
521.9304925
 20
-1026.38547318
 30
0.0
 40
28.0
  1
０１１１０１
 41
0.8
 72
       5
 11
656.3304925
 21
-1026.38547318
 31
0.0
100
AcDbText
  0
POINT
  5
402
100
AcDbEntity
  8
ZUWAKU
  6
CONTINUOUS
 62
       9
100
AcDbPoint
 10
440.6875
 20
968.54721697
 30
0.0
  0
POINT
  5
403
100
AcDbEntity
  8
ZUWAKU
  6
CONTINUOUS
 62
       9
100
AcDbPoint
 10
-103.3193314
 20
968.54721697
 30
0.0
  0
POINT
  5
404
100
AcDbEntity
  8
ZUWAKU
  6
CONTINUOUS
 62
       9
100
AcDbPoint
 10
436.3125
 20
-945.62505306
 30
0.0
  0
POINT
  5
405
100
AcDbEntity
  8
ZUWAKU
  6
CONTINUOUS
 62
       9
100
AcDbPoint
 10
-35.96875
 20
-945.62505306
 30
0.0
  0
POINT
  5
406
100
AcDbEntity
  8
ZUWAKU
  6
CONTINUOUS
 62
       9
100
AcDbPoint
 10
148.875
 20
-839.09380306
 30
0.0
  0
POINT
  5
407
100
AcDbEntity
  8
ZUWAKU
  6
CONTINUOUS
 62
       9
100
AcDbPoint
 10
-580.875
 20
-839.09380306
 30
0.0
  0
POINT
  5
408
100
AcDbEntity
  8
ZUWAKU
  6
CONTINUOUS
 62
       9
100
AcDbPoint
 10
-254.9375
 20
-839.09380306
 30
0.0
  0
POINT
  5
409
100
AcDbEntity
  8
ZUWAKU
  6
CONTINUOUS
 62
       9
100
AcDbPoint
 10
194.8125
 20
-839.09380306
 30
0.0
  0
LINE
  5
40A
100
AcDbEntity
  8
ZUWAKU
  6
CONTINUOUS
 62
       9
100
AcDbLine
 10
-734.0
 20
1074.5
 30
0.0
 11
-734.0
 21
1039.5
 31
0.0
  0
LINE
  5
40B
100
AcDbEntity
  8
ZUWAKU
  6
CONTINUOUS
 62
       9
100
AcDbLine
 10
-734.0
 20
1039.5
 30
0.0
 11
-769.0
 21
1039.5
 31
0.0
  0
LINE
  5
40C
100
AcDbEntity
  8
ZUWAKU
  6
CONTINUOUS
 62
       9
100
AcDbLine
 10
736.0
 20
1039.5
 30
0.0
 11
771.0
 21
1039.5
 31
0.0
  0
LINE
  5
40D
100
AcDbEntity
  8
ZUWAKU
  6
CONTINUOUS
 62
       9
100
AcDbLine
 10
736.0
 20
1039.5
 30
0.0
 11
736.0
 21
1074.5
 31
0.0
  0
LINE
  5
40E
100
AcDbEntity
  8
ZUWAKU
  6
CONTINUOUS
 62
       9
100
AcDbLine
 10
736.0
 20
-1074.5
 30
0.0
 11
736.0
 21
-1039.5
 31
0.0
  0
LINE
  5
40F
100
AcDbEntity
  8
ZUWAKU
  6
CONTINUOUS
 62
       9
100
AcDbLine
 10
736.0
 20
-1039.5
 30
0.0
 11
771.0
 21
-1039.5
 31
0.0
  0
LINE
  5
410
100
AcDbEntity
  8
ZUWAKU
  6
CONTINUOUS
 62
       9
100
AcDbLine
 10
-769.16186166
 20
-1039.5
 30
0.0
 11
-734.0
 21
-1039.5
 31
0.0
  0
LINE
  5
411
100
AcDbEntity
  8
ZUWAKU
  6
CONTINUOUS
 62
       9
100
AcDbLine
 10
-734.0
 20
-1039.74157455
 30
0.0
 11
-734.0
 21
-1074.49962572
 31
0.0
  0
POINT
  5
412
100
AcDbEntity
  8
ZUWAKU
  6
CONTINUOUS
 62
       9
100
AcDbPoint
 10
148.875
 20
-804.09380306
 30
0.0
  0
POINT
  5
413
100
AcDbEntity
  8
ZUWAKU
  6
CONTINUOUS
 62
       9
100
AcDbPoint
 10
-580.875
 20
-804.09380306
 30
0.0
  0
POINT
  5
414
100
AcDbEntity
  8
ZUWAKU
  6
CONTINUOUS
 62
       9
100
AcDbPoint
 10
-254.9375
 20
-804.09380306
 30
0.0
  0
POINT
  5
415
100
AcDbEntity
  8
ZUWAKU
  6
CONTINUOUS
 62
       9
100
AcDbPoint
 10
194.8125
 20
-804.09380306
 30
0.0
  0
POINT
  5
416
100
AcDbEntity
  8
ZUWAKU
  6
CONTINUOUS
 62
       9
100
AcDbPoint
 10
148.875
 20
-769.09380306
 30
0.0
  0
POINT
  5
417
100
AcDbEntity
  8
ZUWAKU
  6
CONTINUOUS
 62
       9
100
AcDbPoint
 10
-580.875
 20
-769.09380306
 30
0.0
  0
POINT
  5
418
100
AcDbEntity
  8
ZUWAKU
  6
CONTINUOUS
 62
       9
100
AcDbPoint
 10
-254.9375
 20
-769.09380306
 30
0.0
  0
POINT
  5
419
100
AcDbEntity
  8
ZUWAKU
  6
CONTINUOUS
 62
       9
100
AcDbPoint
 10
194.8125
 20
-769.09380306
 30
0.0
  0
POINT
  5
41A
100
AcDbEntity
  8
ZUWAKU
  6
CONTINUOUS
 62
       9
100
AcDbPoint
 10
148.875
 20
-734.09380306
 30
0.0
  0
POINT
  5
41B
100
AcDbEntity
  8
ZUWAKU
  6
CONTINUOUS
 62
       9
100
AcDbPoint
 10
-580.875
 20
-734.09380306
 30
0.0
  0
POINT
  5
41C
100
AcDbEntity
  8
ZUWAKU
  6
CONTINUOUS
 62
       9
100
AcDbPoint
 10
-254.9375
 20
-734.09380306
 30
0.0
  0
POINT
  5
41D
100
AcDbEntity
  8
ZUWAKU
  6
CONTINUOUS
 62
       9
100
AcDbPoint
 10
194.8125
 20
-734.09380306
 30
0.0
  0
POINT
  5
41E
100
AcDbEntity
  8
ZUWAKU
  6
CONTINUOUS
 62
       9
100
AcDbPoint
 10
148.875
 20
-699.09380306
 30
0.0
  0
POINT
  5
41F
100
AcDbEntity
  8
ZUWAKU
  6
CONTINUOUS
 62
       9
100
AcDbPoint
 10
-580.875
 20
-699.09380306
 30
0.0
  0
POINT
  5
420
100
AcDbEntity
  8
ZUWAKU
  6
CONTINUOUS
 62
       9
100
AcDbPoint
 10
-254.9375
 20
-699.09380306
 30
0.0
  0
POINT
  5
421
100
AcDbEntity
  8
ZUWAKU
  6
CONTINUOUS
 62
       9
100
AcDbPoint
 10
194.8125
 20
-699.09380306
 30
0.0
  0
POINT
  5
422
100
AcDbEntity
  8
ZUWAKU
  6
CONTINUOUS
 62
       9
100
AcDbPoint
 10
148.875
 20
-664.09380306
 30
0.0
  0
POINT
  5
423
100
AcDbEntity
  8
ZUWAKU
  6
CONTINUOUS
 62
       9
100
AcDbPoint
 10
-580.875
 20
-664.09380306
 30
0.0
  0
POINT
  5
424
100
AcDbEntity
  8
ZUWAKU
  6
CONTINUOUS
 62
       9
100
AcDbPoint
 10
-254.9375
 20
-664.09380306
 30
0.0
  0
POINT
  5
425
100
AcDbEntity
  8
ZUWAKU
  6
CONTINUOUS
 62
       9
100
AcDbPoint
 10
194.8125
 20
-664.09380306
 30
0.0
  0
POINT
  5
426
100
AcDbEntity
  8
ZUWAKU
  6
CONTINUOUS
 62
       9
100
AcDbPoint
 10
148.875
 20
-629.09380306
 30
0.0
  0
POINT
  5
427
100
AcDbEntity
  8
ZUWAKU
  6
CONTINUOUS
 62
       9
100
AcDbPoint
 10
-580.875
 20
-629.09380306
 30
0.0
  0
POINT
  5
428
100
AcDbEntity
  8
ZUWAKU
  6
CONTINUOUS
 62
       9
100
AcDbPoint
 10
-254.9375
 20
-629.09380306
 30
0.0
  0
POINT
  5
429
100
AcDbEntity
  8
ZUWAKU
  6
CONTINUOUS
 62
       9
100
AcDbPoint
 10
194.8125
 20
-629.09380306
 30
0.0
  0
TEXT
  5
42A
100
AcDbEntity
  8
LAYER0240
 62
       4
100
AcDbText
 10
-580.875
 20
-853.09380306
 30
0.0
 40
28.0
  1
本体
 41
0.8
 72
       5
 11
-536.075
 21
-853.09380306
 31
0.0
100
AcDbText
  0
TEXT
  5
42B
100
AcDbEntity
  8
LAYER0240
 62
       4
100
AcDbText
 10
-254.9375
 20
-853.09380306
 30
0.0
 40
28.0
  1
SUS304
 41
0.8
 72
       5
 11
-120.5375
 21
-853.09380306
 31
0.0
100
AcDbText
  0
TEXT
  5
42C
100
AcDbEntity
  8
LAYER0240
 62
       4
100
AcDbText
 10
114.78851133
 20
-597.9789644
 30
0.0
 40
28.0
  1
取付壁穴寸法　H954XW274XD132m/m
 41
0.8
 72
       5
 11
652.38851133
 21
-597.9789644
 31
0.0
100
AcDbText
  0
TEXT
  5
42D
100
AcDbEntity
  8
LAYER0240
 62
       4
100
AcDbText
 10
350.67718447
 20
887.8635383
 30
0.0
 40
28.0
  1
（　）内寸法はリベットを含む
 41
0.8
 72
       5
 11
664.27718447
 21
887.8635383
 31
0.0
100
AcDbText
  0
TEXT
  5
42E
100
AcDbEntity
  8
LAYER0240
 62
       4
100
AcDbText
 10
194.8125
 20
-853.09380306
 30
0.0
 40
28.0
  1
ヘア－ライン
 41
0.8
 72
       5
 11
329.2125
 21
-853.09380306
 31
0.0
100
AcDbText
  0
TEXT
  5
42F
100
AcDbEntity
  8
LAYER0240
 62
       4
100
AcDbText
 10
137.675
 20
-853.09380306
 30
0.0
 40
28.0
  1
1
 41
0.8
 72
       5
 11
160.075
 21
-853.09380306
 31
0.0
100
AcDbText
  0
TEXT
  5
430
100
AcDbEntity
  8
LAYER0240
 62
       4
100
AcDbText
 10
-237.56875
 20
-966.62505306
 30
0.0
 40
42.0
  1
ダストボックス（埋込型）
 41
0.8
 72
       5
 11
165.63125
 21
-966.62505306
 31
0.0
100
AcDbText
  0
TEXT
  5
431
100
AcDbEntity
  8
LAYER0240
 62
       4
100
AcDbText
 10
352.3125
 20
-966.62505306
 30
0.0
 40
42.0
  1
R3618
 41
0.8
 72
       5
 11
520.3125
 21
-966.62505306
 31
0.0
100
AcDbText
  0
TEXT
  5
432
100
AcDbEntity
  8
LAYER0240
 62
       4
100
AcDbText
 10
-580.875
 20
-818.09380306
 30
0.0
 40
28.0
  1
ドア
 41
0.8
 72
       5
 11
-536.075
 21
-818.09380306
 31
0.0
100
AcDbText
  0
TEXT
  5
433
100
AcDbEntity
  8
LAYER0240
 62
       4
100
AcDbText
 10
-254.9375
 20
-818.09380306
 30
0.0
 40
28.0
  1
SUS304
 41
0.8
 72
       5
 11
-120.5375
 21
-818.09380306
 31
0.0
100
AcDbText
  0
TEXT
  5
434
100
AcDbEntity
  8
LAYER0240
 62
       4
100
AcDbText
 10
137.675
 20
-818.09380306
 30
0.0
 40
28.0
  1
1
 41
0.8
 72
       5
 11
160.075
 21
-818.09380306
 31
0.0
100
AcDbText
  0
TEXT
  5
435
100
AcDbEntity
  8
LAYER0240
 62
       4
100
AcDbText
 10
194.8125
 20
-818.09380306
 30
0.0
 40
28.0
  1
ヘア－ライン
 41
0.8
 72
       5
 11
329.2125
 21
-818.09380306
 31
0.0
100
AcDbText
  0
TEXT
  5
436
100
AcDbEntity
  8
LAYER0240
 62
       4
100
AcDbText
 10
-580.875
 20
-783.09380306
 30
0.0
 40
28.0
  1
キ－シリンダ－
 41
0.8
 72
       5
 11
-424.075
 21
-783.09380306
 31
0.0
100
AcDbText
  0
TEXT
  5
437
100
AcDbEntity
  8
LAYER0240
 62
       4
100
AcDbText
 10
-254.9375
 20
-783.09380306
 30
0.0
 40
28.0
  1
ZDC-2
 41
0.8
 72
       5
 11
-142.9375
 21
-783.09380306
 31
0.0
100
AcDbText
  0
TEXT
  5
438
100
AcDbEntity
  8
LAYER0240
 62
       4
100
AcDbText
 10
137.675
 20
-783.09380306
 30
0.0
 40
28.0
  1
1
 41
0.8
 72
       5
 11
160.075
 21
-783.09380306
 31
0.0
100
AcDbText
  0
TEXT
  5
439
100
AcDbEntity
  8
LAYER0240
 62
       4
100
AcDbText
 10
194.8125
 20
-783.09380306
 30
0.0
 40
28.0
  1
クロムメッキ
 41
0.8
 72
       5
 11
329.2125
 21
-783.09380306
 31
0.0
100
AcDbText
  0
TEXT
  5
43A
100
AcDbEntity
  8
LAYER0240
 62
       4
100
AcDbText
 10
-580.875
 20
-748.09380306
 30
0.0
 40
28.0
  1
取付ネジ　４Ｘ２５
 41
0.8
 72
       5
 11
-379.275
 21
-748.09380306
 31
0.0
100
AcDbText
  0
TEXT
  5
43B
100
AcDbEntity
  8
LAYER0240
 62
       4
100
AcDbText
 10
-254.9375
 20
-748.09380306
 30
0.0
 40
28.0
  1
SUS304
 41
0.8
 72
       5
 11
-120.5375
 21
-748.09380306
 31
0.0
100
AcDbText
  0
TEXT
  5
43C
100
AcDbEntity
  8
LAYER0240
 62
       4
100
AcDbText
 10
137.675
 20
-748.09380306
 30
0.0
 40
28.0
  1
4
 41
0.8
 72
       5
 11
160.075
 21
-748.09380306
 31
0.0
100
AcDbText
  0
TEXT
  5
43D
100
AcDbEntity
  8
LAYER0240
 62
       4
100
AcDbText
 10
-304.9193314
 20
947.54721697
 30
0.0
 40
42.0
  1
ダストボックス（埋込型）
 41
0.8
 72
       5
 11
98.2806686
 21
947.54721697
 31
0.0
100
AcDbText
  0
TEXT
  5
43E
100
AcDbEntity
  8
LAYER0240
 62
       4
100
AcDbText
 10
356.6875
 20
947.54721697
 30
0.0
 40
42.0
  1
R3618
 41
0.8
 72
       5
 11
524.6875
 21
947.54721697
 31
0.0
100
AcDbText
  0
INSERT
  5
43F
100
AcDbEntity
  8
LAYER0256
  6
CONTINUOUS
100
AcDbBlockReference
  2
GROUP_1
 10
0.0
 20
0.0
 30
0.0
  0
LINE
  5
440
100
AcDbEntity
  8
0
  6
DIVIDE
 62
       6
100
AcDbLine
 10
-398.5607146
 20
430.58338285
 30
0.0
 11
-100.2493932
 21
-59.18932039
 31
0.0
  0
LINE
  5
441
100
AcDbEntity
  8
0
  6
DIVIDE
 62
       6
100
AcDbLine
 10
-397.81307181
 20
-549.41661715
 30
0.0
 11
-100.2493932
 21
-59.18932039
 31
0.0
  0
LINE
  5
442
100
AcDbEntity
  8
LAYER0001
  6
CONTINUOUS
 62
       9
100
AcDbLine
 10
-381.1243932
 20
787.37317961
 30
0.0
 11
-381.1243932
 21
857.37317961
 31
0.0
  0
LINE
  5
443
100
AcDbEntity
  8
LAYER0001
  6
CONTINUOUS
 62
       9
100
AcDbLine
 10
-117.3118932
 20
787.37317961
 30
0.0
 11
-117.3118932
 21
857.37317961
 31
0.0
  0
LINE
  5
444
100
AcDbEntity
  8
LAYER0001
  6
CONTINUOUS
 62
       9
100
AcDbLine
 10
-110.3118932
 20
780.37317961
 30
0.0
 11
67.7506068
 21
780.37317961
 31
0.0
  0
LINE
  5
445
100
AcDbEntity
  8
LAYER0001
  6
CONTINUOUS
 62
       9
100
AcDbLine
 10
-93.2493932
 20
638.18567961
 30
0.0
 11
67.7506068
 21
638.18567961
 31
0.0
  0
LINE
  5
446
100
AcDbEntity
  8
LAYER0001
  6
CONTINUOUS
 62
       9
100
AcDbLine
 10
-110.3118932
 20
780.37317961
 30
0.0
 11
11.7506068
 21
780.37317961
 31
0.0
  0
LINE
  5
447
100
AcDbEntity
  8
LAYER0001
  6
CONTINUOUS
 62
       9
100
AcDbLine
 10
-93.2493932
 20
655.24817961
 30
0.0
 11
11.7506068
 21
655.24817961
 31
0.0
  0
LINE
  5
448
100
AcDbEntity
  8
LAYER0001
  6
CONTINUOUS
 62
       9
100
AcDbLine
 10
-361.52025309
 20
376.76971048
 30
0.0
 11
-361.52025309
 21
507.81067961
 31
0.0
  0
LINE
  5
449
100
AcDbEntity
  8
LAYER0001
  6
CONTINUOUS
 62
       9
100
AcDbLine
 10
-397.81307181
 20
438.03797637
 30
0.0
 11
-397.81307181
 21
507.81067961
 31
0.0
  0
LINE
  5
44A
100
AcDbEntity
  8
LAYER0001
  6
CONTINUOUS
 62
       9
100
AcDbLine
 10
-397.81307181
 20
500.81067961
 30
0.0
 11
-361.52025309
 21
500.81067961
 31
0.0
  0
LINE
  5
44B
100
AcDbEntity
  8
LAYER0001
  6
CONTINUOUS
 62
       9
100
AcDbLine
 10
-134.8118932
 20
367.81067961
 30
0.0
 11
-134.8118932
 21
507.81067961
 31
0.0
  0
LINE
  5
44C
100
AcDbEntity
  8
LAYER0001
  6
CONTINUOUS
 62
       9
100
AcDbLine
 10
-100.2493932
 20
437.81067961
 30
0.0
 11
-100.2493932
 21
507.81067961
 31
0.0
  0
LINE
  5
44D
100
AcDbEntity
  8
LAYER0001
  6
CONTINUOUS
 62
       9
100
AcDbLine
 10
-134.8118932
 20
500.81067961
 30
0.0
 11
-100.2493932
 21
500.81067961
 31
0.0
  0
LINE
  5
44E
100
AcDbEntity
  8
LAYER0001
  6
CONTINUOUS
 62
       9
100
AcDbLine
 10
-405.5607146
 20
-548.96202363
 30
0.0
 11
-475.5607146
 21
-548.96202363
 31
0.0
  0
LINE
  5
44F
100
AcDbEntity
  8
LAYER0001
  6
CONTINUOUS
 62
       9
100
AcDbLine
 10
-383.3118932
 20
113.62317961
 30
0.0
 11
-475.5607146
 21
113.62317961
 31
0.0
  0
CIRCLE
  5
450
100
AcDbEntity
  8
LAYER0001
  6
CONTINUOUS
 62
       9
100
AcDbCircle
 10
-532.99762658
 20
190.2721519
 30
0.0
 40
30.70439708
  0
LINE
  5
451
100
AcDbEntity
  8
LAYER0001
  6
CONTINUOUS
 62
       9
100
AcDbLine
 10
-93.2493932
 20
-549.18932039
 30
0.0
 11
67.7506068
 21
-549.18932039
 31
0.0
  0
LINE
  5
452
100
AcDbEntity
  8
LAYER0001
  6
CONTINUOUS
 62
       9
100
AcDbLine
 10
-93.2493932
 20
430.81067961
 30
0.0
 11
67.7506068
 21
430.81067961
 31
0.0
  0
LINE
  5
453
100
AcDbEntity
  8
LAYER0001
  6
CONTINUOUS
 62
       9
100
AcDbLine
 10
-241.9993932
 20
170.93567961
 30
0.0
 11
11.7506068
 21
170.93567961
 31
0.0
  0
LINE
  5
454
100
AcDbEntity
  8
LAYER0001
  6
CONTINUOUS
 62
       9
100
AcDbLine
 10
-147.9368932
 20
380.93567961
 30
0.0
 11
11.7506068
 21
380.93567961
 31
0.0
  0
LINE
  5
455
100
AcDbEntity
  8
LAYER0001
  6
CONTINUOUS
 62
       9
100
AcDbLine
 10
-93.2493932
 20
430.81067961
 30
0.0
 11
11.7506068
 21
430.81067961
 31
0.0
  0
CIRCLE
  5
456
100
AcDbEntity
  8
LAYER0001
  6
CONTINUOUS
 62
       9
100
AcDbCircle
 10
-5.72863924
 20
-380.70094937
 30
0.0
 40
30.70439708
  0
LINE
  5
457
100
AcDbEntity
  8
LAYER0001
  6
CONTINUOUS
 62
       9
100
AcDbLine
 10
-398.5607146
 20
437.58338285
 30
0.0
 11
-398.5607146
 21
563.81067961
 31
0.0
  0
LINE
  5
458
100
AcDbEntity
  8
LAYER0001
  6
CONTINUOUS
 62
       9
100
AcDbLine
 10
-100.2493932
 20
437.81067961
 30
0.0
 11
-100.2493932
 21
563.81067961
 31
0.0
  0
LINE
  5
459
100
AcDbEntity
  8
LAYER0001
  6
CONTINUOUS
 62
       9
100
AcDbLine
 10
243.1881068
 20
108.81067961
 30
0.0
 11
243.1881068
 21
507.81067961
 31
0.0
  0
LINE
  5
45A
100
AcDbEntity
  8
LAYER0001
  6
CONTINUOUS
 62
       9
100
AcDbLine
 10
189.3756068
 20
437.81067961
 30
0.0
 11
189.3756068
 21
507.81067961
 31
0.0
  0
LINE
  5
45B
100
AcDbEntity
  8
LAYER0001
  6
CONTINUOUS
 62
       9
100
AcDbLine
 10
324.5631068
 20
-531.68932039
 30
0.0
 11
485.5631068
 21
-531.68932039
 31
0.0
  0
LINE
  5
45C
100
AcDbEntity
  8
LAYER0001
  6
CONTINUOUS
 62
       9
100
AcDbLine
 10
324.5631068
 20
413.31067961
 30
0.0
 11
485.5631068
 21
413.31067961
 31
0.0
  0
LINE
  5
45D
100
AcDbEntity
  8
LAYER0001
  6
CONTINUOUS
 62
       9
100
AcDbLine
 10
268.5631068
 20
-481.81432039
 30
0.0
 11
429.5631068
 21
-481.81432039
 31
0.0
  0
LINE
  5
45E
100
AcDbEntity
  8
LAYER0001
  6
CONTINUOUS
 62
       9
100
AcDbLine
 10
324.5631068
 20
-531.68932039
 30
0.0
 11
429.5631068
 21
-531.68932039
 31
0.0
  0
LINE
  5
45F
100
AcDbEntity
  8
LAYER0001
  6
CONTINUOUS
 62
       9
100
AcDbLine
 10
268.5631068
 20
68.12317961
 30
0.0
 11
429.5631068
 21
68.12317961
 31
0.0
  0
LINE
  5
460
100
AcDbEntity
  8
LAYER0001
  6
CONTINUOUS
 62
       9
100
AcDbLine
 10
321.8866693
 20
147.37856013
 30
0.0
 11
470.2866693
 21
147.37856013
 31
0.0
  0
CIRCLE
  5
461
100
AcDbEntity
  8
LAYER0001
  6
CONTINUOUS
 62
       9
100
AcDbCircle
 10
359.64181171
 20
-38.16099684
 30
0.0
 40
30.70439708
  0
LINE
  5
462
100
AcDbEntity
  8
LAYER0001
  6
CONTINUOUS
 62
       9
100
AcDbLine
 10
-381.1243932
 20
850.37317961
 30
0.0
 11
-117.3118932
 21
850.37317961
 31
0.0
  0
INSERT
  5
463
100
AcDbEntity
  8
LAYER0001
  6
CONTINUOUS
 62
       9
100
AcDbBlockReference
  2
_OPEN30
 10
-381.1243932
 20
850.37317961
 30
0.0
 41
21.00001951
 42
20.99992492
 50
180.0
  0
INSERT
  5
464
100
AcDbEntity
  8
LAYER0001
  6
CONTINUOUS
 62
       9
100
AcDbBlockReference
  2
_OPEN30
 10
-117.3118932
 20
850.37317961
 30
0.0
 41
21.00001951
 42
20.99992492
 50
360.0
  0
LINE
  5
465
100
AcDbEntity
  8
LAYER0001
  6
CONTINUOUS
 62
       9
100
AcDbLine
 10
60.7506068
 20
638.18567961
 30
0.0
 11
60.7506068
 21
780.37317961
 31
0.0
  0
INSERT
  5
466
100
AcDbEntity
  8
LAYER0001
  6
CONTINUOUS
 62
       9
100
AcDbBlockReference
  2
_OPEN30
 10
60.7506068
 20
638.18567961
 30
0.0
 41
21.00001951
 42
20.99992492
 50
270.0
  0
INSERT
  5
467
100
AcDbEntity
  8
LAYER0001
  6
CONTINUOUS
 62
       9
100
AcDbBlockReference
  2
_OPEN30
 10
60.7506068
 20
780.37317961
 30
0.0
 41
21.00001951
 42
20.99992492
 50
90.0
  0
LINE
  5
468
100
AcDbEntity
  8
LAYER0001
  6
CONTINUOUS
 62
       9
100
AcDbLine
 10
4.7506068
 20
655.24817961
 30
0.0
 11
4.7506068
 21
780.37317961
 31
0.0
  0
INSERT
  5
469
100
AcDbEntity
  8
LAYER0001
  6
CONTINUOUS
 62
       9
100
AcDbBlockReference
  2
_OPEN30
 10
4.7506068
 20
655.24817961
 30
0.0
 41
21.00001951
 42
20.99992492
 50
270.0
  0
INSERT
  5
46A
100
AcDbEntity
  8
LAYER0001
  6
CONTINUOUS
 62
       9
100
AcDbBlockReference
  2
_OPEN30
 10
4.7506068
 20
780.37317961
 30
0.0
 41
21.00001951
 42
20.99992492
 50
90.0
  0
LINE
  5
46B
100
AcDbEntity
  8
LAYER0001
  6
CONTINUOUS
 62
       9
100
AcDbLine
 10
-361.52025309
 20
500.81067961
 30
0.0
 11
-134.8118932
 21
500.81067961
 31
0.0
  0
INSERT
  5
46C
100
AcDbEntity
  8
LAYER0001
  6
CONTINUOUS
 62
       9
100
AcDbBlockReference
  2
_OPEN30
 10
-361.52025309
 20
500.81067961
 30
0.0
 41
21.00001951
 42
20.99992492
 50
180.0
  0
INSERT
  5
46D
100
AcDbEntity
  8
LAYER0001
  6
CONTINUOUS
 62
       9
100
AcDbBlockReference
  2
_OPEN30
 10
-134.8118932
 20
500.81067961
 30
0.0
 41
21.00001951
 42
20.99992492
 50
360.0
  0
LINE
  5
46E
100
AcDbEntity
  8
LAYER0001
  6
CONTINUOUS
 62
       9
100
AcDbLine
 10
-468.5607146
 20
113.62317961
 30
0.0
 11
-468.5607146
 21
-548.96202363
 31
0.0
  0
INSERT
  5
46F
100
AcDbEntity
  8
LAYER0001
  6
CONTINUOUS
 62
       9
100
AcDbBlockReference
  2
_OPEN30
 10
-468.5607146
 20
113.62317961
 30
0.0
 41
21.00001951
 42
20.99992492
 50
90.0
  0
INSERT
  5
470
100
AcDbEntity
  8
LAYER0001
  6
CONTINUOUS
 62
       9
100
AcDbBlockReference
  2
_OPEN30
 10
-468.5607146
 20
-548.96202363
 30
0.0
 41
21.00001951
 42
20.99992492
 50
270.0
  0
LINE
  5
471
100
AcDbEntity
  8
LAYER0001
  6
CONTINUOUS
 62
       9
100
AcDbLine
 10
60.7506068
 20
-549.18932039
 30
0.0
 11
60.7506068
 21
430.81067961
 31
0.0
  0
INSERT
  5
472
100
AcDbEntity
  8
LAYER0001
  6
CONTINUOUS
 62
       9
100
AcDbBlockReference
  2
_OPEN30
 10
60.7506068
 20
-549.18932039
 30
0.0
 41
21.00001951
 42
20.99992492
 50
270.0
  0
INSERT
  5
473
100
AcDbEntity
  8
LAYER0001
  6
CONTINUOUS
 62
       9
100
AcDbBlockReference
  2
_OPEN30
 10
60.7506068
 20
430.81067961
 30
0.0
 41
21.00001951
 42
20.99992492
 50
90.0
  0
LINE
  5
474
100
AcDbEntity
  8
LAYER0001
  6
CONTINUOUS
 62
       9
100
AcDbLine
 10
4.7506068
 20
170.93567961
 30
0.0
 11
4.7506068
 21
380.93567961
 31
0.0
  0
INSERT
  5
475
100
AcDbEntity
  8
LAYER0001
  6
CONTINUOUS
 62
       9
100
AcDbBlockReference
  2
_OPEN30
 10
4.7506068
 20
170.93567961
 30
0.0
 41
21.00001951
 42
20.99992492
 50
270.0
  0
INSERT
  5
476
100
AcDbEntity
  8
LAYER0001
  6
CONTINUOUS
 62
       9
100
AcDbBlockReference
  2
_OPEN30
 10
4.7506068
 20
380.93567961
 30
0.0
 41
21.00001951
 42
20.99992492
 50
90.0
  0
LINE
  5
477
100
AcDbEntity
  8
LAYER0001
  6
CONTINUOUS
 62
       9
100
AcDbLine
 10
4.7506068
 20
380.93567961
 30
0.0
 11
4.7506068
 21
430.81067961
 31
0.0
  0
INSERT
  5
478
100
AcDbEntity
  8
LAYER0001
  6
CONTINUOUS
 62
       9
100
AcDbBlockReference
  2
_OPEN30
 10
4.7506068
 20
380.93567961
 30
0.0
 41
21.00001951
 42
20.99992492
 50
270.0
  0
INSERT
  5
479
100
AcDbEntity
  8
LAYER0001
  6
CONTINUOUS
 62
       9
100
AcDbBlockReference
  2
_OPEN30
 10
4.7506068
 20
430.81067961
 30
0.0
 41
21.00001951
 42
20.99992492
 50
90.0
  0
LINE
  5
47A
100
AcDbEntity
  8
LAYER0001
  6
CONTINUOUS
 62
       9
100
AcDbLine
 10
-398.5607146
 20
556.81067961
 30
0.0
 11
-100.2493932
 21
556.81067961
 31
0.0
  0
INSERT
  5
47B
100
AcDbEntity
  8
LAYER0001
  6
CONTINUOUS
 62
       9
100
AcDbBlockReference
  2
_OPEN30
 10
-398.5607146
 20
556.81067961
 30
0.0
 41
21.00001951
 42
20.99992492
 50
180.0
  0
INSERT
  5
47C
100
AcDbEntity
  8
LAYER0001
  6
CONTINUOUS
 62
       9
100
AcDbBlockReference
  2
_OPEN30
 10
-100.2493932
 20
556.81067961
 30
0.0
 41
21.00001951
 42
20.99992492
 50
360.0
  0
LINE
  5
47D
100
AcDbEntity
  8
LAYER0001
  6
CONTINUOUS
 62
       9
100
AcDbLine
 10
189.3756068
 20
500.81067961
 30
0.0
 11
243.1881068
 21
500.81067961
 31
0.0
  0
INSERT
  5
47E
100
AcDbEntity
  8
LAYER0001
  6
CONTINUOUS
 62
       9
100
AcDbBlockReference
  2
_OPEN30
 10
189.3756068
 20
500.81067961
 30
0.0
 41
21.00001951
 42
20.99992492
 50
180.0
  0
INSERT
  5
47F
100
AcDbEntity
  8
LAYER0001
  6
CONTINUOUS
 62
       9
100
AcDbBlockReference
  2
_OPEN30
 10
243.1881068
 20
500.81067961
 30
0.0
 41
21.00001951
 42
20.99992492
 50
360.0
  0
LINE
  5
480
100
AcDbEntity
  8
LAYER0001
  6
CONTINUOUS
 62
       9
100
AcDbLine
 10
478.5631068
 20
-531.68932039
 30
0.0
 11
478.5631068
 21
413.31067961
 31
0.0
  0
INSERT
  5
481
100
AcDbEntity
  8
LAYER0001
  6
CONTINUOUS
 62
       9
100
AcDbBlockReference
  2
_OPEN30
 10
478.5631068
 20
-531.68932039
 30
0.0
 41
21.00001951
 42
20.99992492
 50
270.0
  0
INSERT
  5
482
100
AcDbEntity
  8
LAYER0001
  6
CONTINUOUS
 62
       9
100
AcDbBlockReference
  2
_OPEN30
 10
478.5631068
 20
413.31067961
 30
0.0
 41
21.00001951
 42
20.99992492
 50
90.0
  0
LINE
  5
483
100
AcDbEntity
  8
LAYER0001
  6
CONTINUOUS
 62
       9
100
AcDbLine
 10
422.5631068
 20
-531.68932039
 30
0.0
 11
422.5631068
 21
-481.81432039
 31
0.0
  0
INSERT
  5
484
100
AcDbEntity
  8
LAYER0001
  6
CONTINUOUS
 62
       9
100
AcDbBlockReference
  2
_OPEN30
 10
422.5631068
 20
-531.68932039
 30
0.0
 41
21.00001951
 42
20.99992492
 50
270.0
  0
INSERT
  5
485
100
AcDbEntity
  8
LAYER0001
  6
CONTINUOUS
 62
       9
100
AcDbBlockReference
  2
_OPEN30
 10
422.5631068
 20
-481.81432039
 30
0.0
 41
21.00001951
 42
20.99992492
 50
90.0
  0
LINE
  5
486
100
AcDbEntity
  8
LAYER0001
  6
CONTINUOUS
 62
       9
100
AcDbLine
 10
422.5631068
 20
-481.81432039
 30
0.0
 11
422.5631068
 21
68.12317961
 31
0.0
  0
INSERT
  5
487
100
AcDbEntity
  8
LAYER0001
  6
CONTINUOUS
 62
       9
100
AcDbBlockReference
  2
_OPEN30
 10
422.5631068
 20
-481.81432039
 30
0.0
 41
21.00001951
 42
20.99992492
 50
270.0
  0
INSERT
  5
488
100
AcDbEntity
  8
LAYER0001
  6
CONTINUOUS
 62
       9
100
AcDbBlockReference
  2
_OPEN30
 10
422.5631068
 20
68.12317961
 30
0.0
 41
21.00001951
 42
20.99992492
 50
90.0
  0
LINE
  5
489
100
AcDbEntity
  8
LAYER0001
  6
CONTINUOUS
 62
       9
100
AcDbLine
 10
-477.61307181
 20
500.81067961
 30
0.0
 11
-397.81307181
 21
500.81067961
 31
0.0
  0
INSERT
  5
48A
100
AcDbEntity
  8
LAYER0001
  6
CONTINUOUS
 62
       9
100
AcDbBlockReference
  2
_OPEN30
 10
-397.81307181
 20
500.81067961
 30
0.0
 41
21.00001951
 42
20.99992492
 50
360.0
  0
LINE
  5
48B
100
AcDbEntity
  8
LAYER0001
  6
CONTINUOUS
 62
       9
100
AcDbLine
 10
-20.4493932
 20
500.81067961
 30
0.0
 11
-100.2493932
 21
500.81067961
 31
0.0
  0
INSERT
  5
48C
100
AcDbEntity
  8
LAYER0001
  6
CONTINUOUS
 62
       9
100
AcDbBlockReference
  2
_OPEN30
 10
-100.2493932
 20
500.81067961
 30
0.0
 41
21.00001951
 42
20.99992492
 50
180.0
  0
LINE
  5
48D
100
AcDbEntity
  8
LAYER0001
  6
CONTINUOUS
 62
       9
100
AcDbLine
 10
-363.53077693
 20
120.28001292
 30
0.0
 11
-504.61843906
 21
178.55115725
 31
0.0
  0
INSERT
  5
48E
100
AcDbEntity
  8
LAYER0001
  6
CONTINUOUS
 62
       9
100
AcDbBlockReference
  2
_DOT
 10
-363.53077693
 20
120.28001292
 30
0.0
 41
17.5
 42
17.5
 50
337.55870174
  0
LINE
  5
48F
100
AcDbEntity
  8
LAYER0001
  6
CONTINUOUS
 62
       9
100
AcDbLine
 10
-150.93908228
 20
-328.53797468
 30
0.0
 11
-34.62516591
 21
-370.32064367
 31
0.0
  0
INSERT
  5
490
100
AcDbEntity
  8
LAYER0001
  6
CONTINUOUS
 62
       9
100
AcDbBlockReference
  2
_DOT
 10
-150.93908228
 20
-328.53797468
 30
0.0
 41
17.5
 42
17.5
 50
160.24052926
  0
LINE
  5
491
100
AcDbEntity
  8
LAYER0001
  6
CONTINUOUS
 62
       9
100
AcDbLine
 10
260.3997231
 20
-102.8840981
 30
0.0
 11
333.92348335
 21
-54.93381968
 31
0.0
  0
INSERT
  5
492
100
AcDbEntity
  8
LAYER0001
  6
CONTINUOUS
 62
       9
100
AcDbBlockReference
  2
_DOT
 10
260.3997231
 20
-102.8840981
 30
0.0
 41
17.5
 42
17.5
 50
213.11134196
  0
LINE
  5
493
100
AcDbEntity
  8
LAYER0001
  6
CONTINUOUS
 62
       9
100
AcDbLine
 10
245.8131068
 20
71.18567961
 30
0.0
 11
321.8866693
 21
147.37856013
 31
0.0
  0
INSERT
  5
494
100
AcDbEntity
  8
LAYER0001
  6
CONTINUOUS
 62
       9
100
AcDbBlockReference
  2
_OPEN30
 10
245.8131068
 20
71.18567961
 30
0.0
 41
21.00001951
 42
20.99992492
 50
225.04489772
  0
TEXT
  5
495
100
AcDbEntity
  8
LAYER0001
 62
       7
100
AcDbText
 10
-282.8181432
 20
857.37317961
 30
0.0
 40
28.0
  1
264
 41
0.8
 72
       5
 11
-215.6181432
 21
857.37317961
 31
0.0
100
AcDbText
  0
TEXT
  5
496
100
AcDbEntity
  8
LAYER0001
 62
       7
100
AcDbText
 10
-305.2181432
 20
887.37317961
 30
0.0
 40
28.0
  1
(267)
 41
0.8
 72
       5
 11
-193.2181432
 21
887.37317961
 31
0.0
100
AcDbText
  0
TEXT
  5
497
100
AcDbEntity
  8
LAYER0001
 62
       7
100
AcDbText
 10
53.7506068
 20
675.67942961
 30
0.0
 40
28.0
  1
142
 50
90.0
 41
0.8
 72
       5
 11
53.7506068
 21
742.87942961
 31
0.0
100
AcDbText
  0
TEXT
  5
498
100
AcDbEntity
  8
LAYER0001
 62
       7
100
AcDbText
 10
-2.2493932
 20
683.28103008
 30
0.0
 40
28.0
  1
126
 50
90.0
 41
0.8
 72
       5
 11
-2.2493932
 21
750.48103008
 31
0.0
100
AcDbText
  0
TEXT
  5
499
100
AcDbEntity
  8
LAYER0001
 62
       7
100
AcDbText
 10
-470.61307181
 20
507.81067961
 30
0.0
 40
28.0
  1
34
 41
0.8
 72
       5
 11
-425.81307181
 21
507.81067961
 31
0.0
100
AcDbText
  0
TEXT
  5
49A
100
AcDbEntity
  8
LAYER0001
 62
       7
100
AcDbText
 10
-281.76607314
 20
507.81067961
 30
0.0
 40
28.0
  1
230
 41
0.8
 72
       5
 11
-214.56607314
 21
507.81067961
 31
0.0
100
AcDbText
  0
TEXT
  5
49B
100
AcDbEntity
  8
LAYER0001
 62
       7
100
AcDbText
 10
-72.2493932
 20
507.81067961
 30
0.0
 40
28.0
  1
34
 41
0.8
 72
       5
 11
-27.4493932
 21
507.81067961
 31
0.0
100
AcDbText
  0
TEXT
  5
49C
100
AcDbEntity
  8
LAYER0001
 62
       7
100
AcDbText
 10
-475.5607146
 20
-251.26942201
 30
0.0
 40
28.0
  1
663
 50
90.0
 41
0.8
 72
       5
 11
-475.5607146
 21
-184.06942201
 31
0.0
100
AcDbText
  0
TEXT
  5
49D
100
AcDbEntity
  8
LAYER0001
 62
       7
100
AcDbText
 10
53.7506068
 20
-92.78932039
 30
0.0
 40
28.0
  1
980
 50
90.0
 41
0.8
 72
       5
 11
53.7506068
 21
-25.58932039
 31
0.0
100
AcDbText
  0
TEXT
  5
49E
100
AcDbEntity
  8
LAYER0001
 62
       7
100
AcDbText
 10
-2.2493932
 20
242.33567961
 30
0.0
 40
28.0
  1
210
 50
90.0
 41
0.8
 72
       5
 11
-2.2493932
 21
309.53567961
 31
0.0
100
AcDbText
  0
TEXT
  5
49F
100
AcDbEntity
  8
LAYER0001
 62
       7
100
AcDbText
 10
-2.2493932
 20
383.57310127
 30
0.0
 40
28.0
  1
50
 50
90.0
 41
0.8
 72
       5
 11
-2.2493932
 21
428.37310127
 31
0.0
100
AcDbText
  0
TEXT
  5
4A0
100
AcDbEntity
  8
LAYER0001
 62
       7
100
AcDbText
 10
-283.0050539
 20
563.81067961
 30
0.0
 40
28.0
  1
298
 41
0.8
 72
       5
 11
-215.8050539
 21
563.81067961
 31
0.0
100
AcDbText
  0
TEXT
  5
4A1
100
AcDbEntity
  8
LAYER0001
 62
       7
100
AcDbText
 10
192.18623418
 20
507.81067961
 30
0.0
 40
28.0
  1
54
 41
0.8
 72
       5
 11
236.98623418
 21
507.81067961
 31
0.0
100
AcDbText
  0
TEXT
  5
4A2
100
AcDbEntity
  8
LAYER0001
 62
       7
100
AcDbText
 10
471.5631068
 20
-92.78932039
 30
0.0
 40
28.0
  1
945
 50
90.0
 41
0.8
 72
       5
 11
471.5631068
 21
-25.58932039
 31
0.0
100
AcDbText
  0
TEXT
  5
4A3
100
AcDbEntity
  8
LAYER0001
 62
       7
100
AcDbText
 10
415.5631068
 20
-529.01313291
 30
0.0
 40
28.0
  1
50
 50
90.0
 41
0.8
 72
       5
 11
415.5631068
 21
-484.21313291
 31
0.0
100
AcDbText
  0
TEXT
  5
4A4
100
AcDbEntity
  8
LAYER0001
 62
       7
100
AcDbText
 10
415.5631068
 20
-240.44557039
 30
0.0
 40
28.0
  1
550
 50
90.0
 41
0.8
 72
       5
 11
415.5631068
 21
-173.24557039
 31
0.0
100
AcDbText
  0
POINT
  5
4A5
100
AcDbEntity
  8
0
  6
CONTINUOUS
 62
       5
100
AcDbPoint
 10
1.0
 20
-30.0
 30
0.0
  0
INSERT
  5
4A6
100
AcDbEntity
  8
0
  6
CONTINUOUS
100
AcDbBlockReference
  2
GROUP_2
 10
0.0
 20
0.0
 30
0.0
  0
TEXT
  5
4A7
100
AcDbEntity
  8
LAYER0001
 62
       4
100
AcDbText
 10
-544.19762658
 20
176.2721519
 30
0.0
 40
28.0
  1
3
 41
0.8
 72
       5
 11
-521.79762658
 21
176.2721519
 31
0.0
100
AcDbText
  0
TEXT
  5
4A8
100
AcDbEntity
  8
LAYER0001
 62
       4
100
AcDbText
 10
-16.92863924
 20
-394.70094937
 30
0.0
 40
28.0
  1
2
 41
0.8
 72
       5
 11
5.47136076
 21
-394.70094937
 31
0.0
100
AcDbText
  0
TEXT
  5
4A9
100
AcDbEntity
  8
LAYER0001
 62
       4
100
AcDbText
 10
328.8866693
 20
154.37856013
 30
0.0
 40
28.0
  1
4-11×5
 41
0.8
 72
       5
 11
463.2866693
 21
154.37856013
 31
0.0
100
AcDbText
  0
TEXT
  5
4AA
100
AcDbEntity
  8
LAYER0001
 62
       4
100
AcDbText
 10
348.44181171
 20
-52.16099684
 30
0.0
 40
28.0
  1
1
 41
0.8
 72
       5
 11
370.84181171
 21
-52.16099684
 31
0.0
100
AcDbText
  0
ENDSEC
  0
SECTION
  2
OBJECTS
  0
DICTIONARY
  5
19
100
AcDbDictionary
  3
ACAD_GROUP
350
1A
  3
ACAD_MLINESTYLE
350
1B
  0
DICTIONARY
  5
1A
102
{ACAD_REACTORS
330
19
102
}
100
AcDbDictionary
  0
DICTIONARY
  5
1B
102
{ACAD_REACTORS
330
19
102
}
100
AcDbDictionary
  3
STANDARD
350
1C
  0
MLINESTYLE
  5
1C
102
{ACAD_REACTORS
330
1B
102
}
100
AcDbMlineStyle
  2
STANDARD
 70
       0
  3

 62
       0
 51
90.0
 52
90.0
 71
       2
 49
0.5
 62
     256
  6
BYLAYER
 49
-0.5
 62
     256
  6
BYLAYER
  0
ENDSEC
  0
EOF
