  0
SECTION
  2
HEADER
  9
$ACADVER
  1
AC1014
  9
$ACADMAINTVER
 70
       0
  9
$DWGCODEPAGE
  3
ANSI_932
  9
$INSBASE
 10
0.0
 20
0.0
 30
0.0
  9
$EXTMIN
 10
-991.13873856
 20
-1380.0
 30
0.0
  9
$EXTMAX
 10
989.06936928
 20
1383.0
 30
0.0
  9
$LIMMIN
 10
-315.0
 20
-445.5
  9
$LIMMAX
 10
315.0
 20
445.5
  9
$ORTHOMODE
 70
       0
  9
$REGENMODE
 70
       1
  9
$FILLMODE
 70
       1
  9
$QTEXTMODE
 70
       0
  9
$MIRRTEXT
 70
       1
  9
$DRAGMODE
 70
       2
  9
$LTSCALE
 40
3.0
  9
$OSMODE
 70
       0
  9
$ATTMODE
 70
       1
  9
$TEXTSIZE
 40
0.2
  9
$TRACEWID
 40
0.05
  9
$TEXTSTYLE
  7
STANDARD
  9
$CLAYER
  8
0
  9
$CELTYPE
  6
CONTINUOUS
  9
$CECOLOR
 62
     256
  9
$CELTSCALE
 40
1.0
  9
$DELOBJ
 70
       1
  9
$DISPSILH
 70
       0
  9
$DIMSCALE
 40
1.0
  9
$DIMASZ
 40
6.0
  9
$DIMEXO
 40
0.0625
  9
$DIMDLI
 40
0.38
  9
$DIMRND
 40
0.0
  9
$DIMDLE
 40
0.0
  9
$DIMEXE
 40
0.18
  9
$DIMTP
 40
0.0
  9
$DIMTM
 40
0.0
  9
$DIMTXT
 40
6.0
  9
$DIMCEN
 40
0.09
  9
$DIMTSZ
 40
0.0
  9
$DIMTOL
 70
       0
  9
$DIMLIM
 70
       0
  9
$DIMTIH
 70
       1
  9
$DIMTOH
 70
       1
  9
$DIMSE1
 70
       0
  9
$DIMSE2
 70
       0
  9
$DIMTAD
 70
       0
  9
$DIMZIN
 70
       0
  9
$DIMBLK
  1

  9
$DIMASO
 70
       1
  9
$DIMSHO
 70
       1
  9
$DIMPOST
  1

  9
$DIMAPOST
  1

  9
$DIMALT
 70
       0
  9
$DIMALTD
 70
       2
  9
$DIMALTF
 40
25.4
  9
$DIMLFAC
 40
1.0
  9
$DIMTOFL
 70
       0
  9
$DIMTVP
 40
0.0
  9
$DIMTIX
 70
       0
  9
$DIMSOXD
 70
       0
  9
$DIMSAH
 70
       0
  9
$DIMBLK1
  1

  9
$DIMBLK2
  1

  9
$DIMSTYLE
  2
STANDARD
  9
$DIMCLRD
 70
       0
  9
$DIMCLRE
 70
       0
  9
$DIMCLRT
 70
       0
  9
$DIMTFAC
 40
1.0
  9
$DIMGAP
 40
0.09
  9
$DIMJUST
 70
       0
  9
$DIMSD1
 70
       0
  9
$DIMSD2
 70
       0
  9
$DIMTOLJ
 70
       1
  9
$DIMTZIN
 70
       0
  9
$DIMALTZ
 70
       0
  9
$DIMALTTZ
 70
       0
  9
$DIMFIT
 70
       3
  9
$DIMUPT
 70
       0
  9
$DIMUNIT
 70
       2
  9
$DIMDEC
 70
       4
  9
$DIMTDEC
 70
       4
  9
$DIMALTU
 70
       2
  9
$DIMALTTD
 70
       2
  9
$DIMTXSTY
  7
STANDARD
  9
$DIMAUNIT
 70
       0
  9
$LUNITS
 70
       2
  9
$LUPREC
 70
       4
  9
$SKETCHINC
 40
0.1
  9
$FILLETRAD
 40
0.0
  9
$AUNITS
 70
       0
  9
$AUPREC
 70
       0
  9
$MENU
  1
acad
  9
$ELEVATION
 40
0.0
  9
$PELEVATION
 40
0.0
  9
$THICKNESS
 40
0.0
  9
$LIMCHECK
 70
       0
  9
$BLIPMODE
 70
       1
  9
$CHAMFERA
 40
0.0
  9
$CHAMFERB
 40
0.0
  9
$CHAMFERC
 40
0.0
  9
$CHAMFERD
 40
0.0
  9
$SKPOLY
 70
       0
  9
$TDCREATE
 40
0.000000000
  9
$TDUPDATE
 40
0.000000000
  9
$TDINDWG
 40
0.0000000000
  9
$TDUSRTIMER
 40
0.0000000000
  9
$USRTIMER
 70
       1
  9
$ANGBASE
 50
0.0
  9
$ANGDIR
 70
       0
  9
$PDMODE
 70
       0
  9
$PDSIZE
 40
1.0
  9
$PLINEWID
 40
0.0
  9
$COORDS
 70
       1
  9
$SPLFRAME
 70
       0
  9
$SPLINETYPE
 70
       6
  9
$SPLINESEGS
 70
       8
  9
$ATTDIA
 70
       0
  9
$ATTREQ
 70
       1
  9
$HANDLING
 70
       1
  9
$HANDSEED
  5
69F
  9
$SURFTAB1
 70
       6
  9
$SURFTAB2
 70
       6
  9
$SURFTYPE
 70
       6
  9
$SURFU
 70
       6
  9
$SURFV
 70
       6
  9
$UCSNAME
  2

  9
$UCSORG
 10
0.0
 20
0.0
 30
0.0
  9
$UCSXDIR
 10
1.0
 20
0.0
 30
0.0
  9
$UCSYDIR
 10
0.0
 20
1.0
 30
0.0
  9
$PUCSNAME
  2

  9
$PUCSORG
 10
0.0
 20
0.0
 30
0.0
  9
$PUCSXDIR
 10
1.0
 20
0.0
 30
0.0
  9
$PUCSYDIR
 10
0.0
 20
1.0
 30
0.0
  9
$USERI1
 70
       0
  9
$USERI2
 70
       0
  9
$USERI3
 70
       0
  9
$USERI4
 70
       0
  9
$USERI5
 70
       0
  9
$USERR1
 40
0.0
  9
$USERR2
 40
0.0
  9
$USERR3
 40
0.0
  9
$USERR4
 40
0.0
  9
$USERR5
 40
0.0
  9
$WORLDVIEW
 70
       1
  9
$SHADEDGE
 70
       3
  9
$SHADEDIF
 70
      70
  9
$TILEMODE
 70
       1
  9
$MAXACTVP
 70
      16
  9
$PINSBASE
 10
0.0
 20
0.0
 30
0.0
  9
$PLIMCHECK
 70
       0
  9
$PEXTMIN
 10
1.00000000E+20
 20
1.00000000E+20
 30
1.00000000E+20
  9
$PEXTMAX
 10
-1.00000000E+20
 20
-1.00000000E+20
 30
-1.00000000E+20
  9
$PLIMMIN
 10
0.0
 20
0.0
  9
$PLIMMAX
 10
12.0
 20
9.0
  9
$UNITMODE
 70
       0
  9
$VISRETAIN
 70
       0
  9
$PLINEGEN
 70
       1
  9
$PSLTSCALE
 70
       0
  9
$TREEDEPTH
 70
    3020
  9
$PICKSTYLE
 70
       1
  9
$CMLSTYLE
  2
STANDARD
  9
$CMLJUST
 70
       0
  9
$CMLSCALE
 40
1.0
  9
$PROXYGRAPHICS
 70
       0
  9
$MEASUREMENT
 70
       0
  0
ENDSEC
  0
SECTION
  2
CLASSES
  0
CLASS
  1
LWPOLYLINE
  2
AcDbPolyline
  3
"AutoCAD"
 90
        0
280
       0
281
       1
  0
CLASS
  1
IMAGE
  2
AcDbRasterImage
  3
ISM
 90
      127
280
       0
281
       1
  0
CLASS
  1
OLE2FRAME
  2
AcDbOle2Frame
  3
""
 90
        0
280
       0
281
       1
  0
CLASS
  1
HATCH
  2
AcDbHatch
  3
"ACAD_SEDONA"
 90
        0
280
       0
281
       1
  0
CLASS
  1
DICTIONARYVAR
  2
AcDbDictionaryVar
  3
"AutoCAD"
 90
        0
280
       0
281
       0
  0
CLASS
  1
RASTERVARIABLES
  2
AcDbRasterVariables
  3
ISM
 90
        0
280
       0
281
       0
  0
CLASS
  1
IMAGEDEF
  2
AcDbRasterImageDef
  3
ISM
 90
        0
280
       0
281
       0
  0
CLASS
  1
IMAGEDEF_REACTOR
  2
AcDbRasterImageDefReactor
  3
ISM
 90
        1
280
       0
281
       0
  0
CLASS
  1
IDBUFFER
  2
AcDbIdBuffer
  3
"Acad"
 90
        0
280
       0
281
       0
  0
CLASS
  1
SPATIAL_FILTER
  2
AcDbSpatialFilter
  3
"Acad"
 90
        0
280
       0
281
       0
  0
CLASS
  1
XRECORD
  2
AcDbXrecord
  3
"<Built In>"
 90
        0
280
       0
281
       0
  0
CLASS
  1
SORTENTSTABLE
  2
AcDbSortentsTable
  3
"AutoCAD"
 90
        0
280
       0
281
       0
  0
CLASS
  1
LAYER_INDEX
  2
AcDbLayerIndex
  3
"Acad"
 90
        0
280
       0
281
       0
  0
CLASS
  1
SPATIAL_INDEX
  2
AcDbSpatialIndex
  3
"Acad"
 90
        0
280
       0
281
       0
  0
CLASS
  1
OBJECT_PTR
  2
CAseDLPNTableRecord
  3
"ASE-LPNTableRecord"
 90
        1
280
       0
281
       0
  0
CLASS
  1
LAYOUT
  2
AcDbLayout
  3
"AutoCAD 2000"
 90
        0
280
       0
281
       0
  0
CLASS
  1
PLOTSETTINGS
  2
AcDbPlotSettings
  3
"AutoCAD 2000"
 90
        0
280
       0
281
       0
  0
CLASS
  1
ACDBDICTIONARYWDFLT
  2
AcDbDictionaryWithDefault
  3
"AutoCAD 2000"
 90
        0
280
       0
281
       0
  0
CLASS
  1
ACDBPLACEHOLDER
  2
AcDbPlaceHolder
  3
"AutoCAD 2000"
 90
        0
280
       0
281
       0
  0
CLASS
  1
VBA_PROJECT
  2
AcDbVbaProject
  3
"acadvba"
 90
        0
280
       0
281
       0
  0
CLASS
  1
WIPEOUT
  2
AcDbWipeout
  3
WipeOut|AutoCAD Express Tool|expresstools@autodesk.com
 90
      127
280
       0
281
       1
  0
CLASS
  1
WIPEOUTVARIABLES
  2
AcDbWipeoutVariables
  3
WipeOut|AutoCAD Express Tool|expresstools@autodesk.com
 90
        0
280
       0
281
       0
  0
CLASS
  1
RTEXT
  2
RText
  3
RText|AutoCAD Express Tool|expresstools@autodesk.com
 90
        0
280
       0
281
       1
  0
CLASS
  1
ARCALIGNEDTEXT
  2
AcDbArcAlignedText
  3
ATEXT|AutoCAD Express Tool|expresstools@autodesk.com
 90
        0
280
       0
281
       1
  0
ENDSEC
  0
SECTION
  2
TABLES
  0
TABLE
  2
VPORT
  5
7
100
AcDbSymbolTable
 70
       1
  0
VPORT
  5
15
100
AcDbSymbolTableRecord
100
AcDbViewportTableRecord
  2
*ACTIVE
 70
       0
 10
0.0
 20
0.0
 11
1.0
 21
1.0
 12
0.0
 22
0.0
 13
0.0
 23
0.0
 14
1.0
 24
1.0
 15
0.0
 25
0.0
 16
0.0
 26
0.0
 36
1.0
 17
0.0
 27
0.0
 37
0.0
 40
891.0
 41
0.70707071
 42
50.0
 43
0.0
 44
0.0
 50
0.0
 51
0.0
 71
       0
 72
     100
 73
       1
 74
       1
 75
       0
 76
       0
 77
       0
 78
       0
  0
ENDTAB
  0
TABLE
  2
LTYPE
  5
4
100
AcDbSymbolTable
 70
      30
  0
LTYPE
  5
11
100
AcDbSymbolTableRecord
100
AcDbLinetypeTableRecord
  2
BYBLOCK
 70
      64
  3

 72
      65
 73
       0
 40
0.0
  0
LTYPE
  5
12
100
AcDbSymbolTableRecord
100
AcDbLinetypeTableRecord
  2
BYLAYER
 70
      64
  3

 72
      65
 73
       0
 40
0.0
  0
LTYPE
  5
13
100
AcDbSymbolTableRecord
100
AcDbLinetypeTableRecord
  2
CONTINUOUS
 70
      64
  3
Solid line
 72
      65
 73
       0
 40
0.0
  0
LTYPE
  5
1D
100
AcDbSymbolTableRecord
100
AcDbLinetypeTableRecord
  2
HIDDENX2
 70
      64
  3
CADPAC LINETYPE
 72
      65
 73
       2
 40
14.22754491
 49
10.67065868
 74
       0
 49
-3.55688623
 74
       0
  0
LTYPE
  5
1E
100
AcDbSymbolTableRecord
100
AcDbLinetypeTableRecord
  2
HIDDEN
 70
      64
  3
CADPAC LINETYPE
 72
      65
 73
       2
 40
10.67065868
 49
7.11377246
 74
       0
 49
-3.55688623
 74
       0
  0
LTYPE
  5
1F
100
AcDbSymbolTableRecord
100
AcDbLinetypeTableRecord
  2
HIDDEN2
 70
      64
  3
CADPAC LINETYPE
 72
      65
 73
       2
 40
8.89221557
 49
5.33532934
 74
       0
 49
-3.55688623
 74
       0
  0
LTYPE
  5
20
100
AcDbSymbolTableRecord
100
AcDbLinetypeTableRecord
  2
DASHED
 70
      64
  3
CADPAC LINETYPE
 72
      65
 73
       2
 40
9.95928144
 49
7.11377246
 74
       0
 49
-2.84550898
 74
       0
  0
LTYPE
  5
21
100
AcDbSymbolTableRecord
100
AcDbLinetypeTableRecord
  2
DASHED2
 70
      64
  3
CADPAC LINETYPE
 72
      65
 73
       2
 40
6.40239521
 49
4.26826347
 74
       0
 49
-2.13413174
 74
       0
  0
LTYPE
  5
22
100
AcDbSymbolTableRecord
100
AcDbLinetypeTableRecord
  2
DASHEDX2
 70
      64
  3
CADPAC LINETYPE
 72
      65
 73
       2
 40
17.07305389
 49
14.22754491
 74
       0
 49
-2.84550898
 74
       0
  0
LTYPE
  5
23
100
AcDbSymbolTableRecord
100
AcDbLinetypeTableRecord
  2
DOTX2
 70
      64
  3
CADPAC LINETYPE
 72
      65
 73
       2
 40
6.2245509
 49
0.0
 74
       0
 49
-6.2245509
 74
       0
  0
LTYPE
  5
24
100
AcDbSymbolTableRecord
100
AcDbLinetypeTableRecord
  2
DOT
 70
      64
  3
CADPAC LINETYPE
 72
      65
 73
       2
 40
4.97964072
 49
0.0
 74
       0
 49
-4.97964072
 74
       0
  0
LTYPE
  5
25
100
AcDbSymbolTableRecord
100
AcDbLinetypeTableRecord
  2
DOT2
 70
      64
  3
CADPAC LINETYPE
 72
      65
 73
       2
 40
3.73473054
 49
0.0
 74
       0
 49
-3.73473054
 74
       0
  0
LTYPE
  5
26
100
AcDbSymbolTableRecord
100
AcDbLinetypeTableRecord
  2
CENTERX2
 70
      64
  3
CADPAC LINETYPE
 72
      65
 73
       4
 40
21.34131737
 49
8.89221557
 74
       0
 49
-4.44610778
 74
       0
 49
3.55688623
 74
       0
 49
-4.44610778
 74
       0
  0
LTYPE
  5
27
100
AcDbSymbolTableRecord
100
AcDbLinetypeTableRecord
  2
CENTER
 70
      64
  3
CADPAC LINETYPE
 72
      65
 73
       4
 40
16.36167665
 49
7.11377246
 74
       0
 49
-3.55688623
 74
       0
 49
2.13413174
 74
       0
 49
-3.55688623
 74
       0
  0
LTYPE
  5
28
100
AcDbSymbolTableRecord
100
AcDbLinetypeTableRecord
  2
CENTER2
 70
      64
  3
CADPAC LINETYPE
 72
      65
 73
       4
 40
11.38203593
 49
5.33532934
 74
       0
 49
-2.66766467
 74
       0
 49
0.71137725
 74
       0
 49
-2.66766467
 74
       0
  0
LTYPE
  5
29
100
AcDbSymbolTableRecord
100
AcDbLinetypeTableRecord
  2
DASHDOTX2
 70
      64
  3
CADPAC LINETYPE
 72
      65
 73
       4
 40
34.14610778
 49
17.07305389
 74
       0
 49
-5.69101796
 74
       0
 49
5.69101796
 74
       0
 49
-5.69101796
 74
       0
  0
LTYPE
  5
2A
100
AcDbSymbolTableRecord
100
AcDbLinetypeTableRecord
  2
DASHDOT
 70
      64
  3
CADPAC LINETYPE
 72
      65
 73
       4
 40
17.07305389
 49
8.53652695
 74
       0
 49
-2.84550898
 74
       0
 49
2.84550898
 74
       0
 49
-2.84550898
 74
       0
  0
LTYPE
  5
2B
100
AcDbSymbolTableRecord
100
AcDbLinetypeTableRecord
  2
DASHDOT2
 70
      64
  3
CADPAC LINETYPE
 72
      65
 73
       4
 40
10.95520958
 49
6.40239521
 74
       0
 49
-2.13413174
 74
       0
 49
0.2845509
 74
       0
 49
-2.13413174
 74
       0
  0
LTYPE
  5
2C
100
AcDbSymbolTableRecord
100
AcDbLinetypeTableRecord
  2
DIVIDEX2
 70
      64
  3
CADPAC LINETYPE
 72
      65
 73
       6
 40
45.52814371
 49
17.07305389
 74
       0
 49
-5.69101796
 74
       0
 49
5.69101796
 74
       0
 49
-5.69101796
 74
       0
 49
5.69101796
 74
       0
 49
-5.69101796
 74
       0
  0
LTYPE
  5
2D
100
AcDbSymbolTableRecord
100
AcDbLinetypeTableRecord
  2
DIVIDE
 70
      64
  3
CADPAC LINETYPE
 72
      65
 73
       6
 40
22.76407186
 49
8.53652695
 74
       0
 49
-2.84550898
 74
       0
 49
2.84550898
 74
       0
 49
-2.84550898
 74
       0
 49
2.84550898
 74
       0
 49
-2.84550898
 74
       0
  0
LTYPE
  5
2E
100
AcDbSymbolTableRecord
100
AcDbLinetypeTableRecord
  2
DIVIDE2
 70
      64
  3
CADPAC LINETYPE
 72
      65
 73
       6
 40
17.07305389
 49
6.40239521
 74
       0
 49
-2.13413174
 74
       0
 49
2.13413174
 74
       0
 49
-2.13413174
 74
       0
 49
2.13413174
 74
       0
 49
-2.13413174
 74
       0
  0
LTYPE
  5
2F
100
AcDbSymbolTableRecord
100
AcDbLinetypeTableRecord
  2
BORDERX2
 70
      64
  3
CADPAC LINETYPE
 72
      65
 73
       6
 40
31.12275449
 49
8.89221557
 74
       0
 49
-4.44610778
 74
       0
 49
8.89221557
 74
       0
 49
-4.44610778
 74
       0
 49
0.0
 74
       0
 49
-4.44610778
 74
       0
  0
LTYPE
  5
30
100
AcDbSymbolTableRecord
100
AcDbLinetypeTableRecord
  2
BORDER
 70
      64
  3
CADPAC LINETYPE
 72
      65
 73
       6
 40
24.89820359
 49
7.11377246
 74
       0
 49
-3.55688623
 74
       0
 49
7.11377246
 74
       0
 49
-3.55688623
 74
       0
 49
0.0
 74
       0
 49
-3.55688623
 74
       0
  0
LTYPE
  5
31
100
AcDbSymbolTableRecord
100
AcDbLinetypeTableRecord
  2
BORDER2
 70
      64
  3
CADPAC LINETYPE
 72
      65
 73
       6
 40
18.49580838
 49
5.69101796
 74
       0
 49
-3.55688623
 74
       0
 49
2.13413174
 74
       0
 49
-3.55688623
 74
       0
 49
0.0
 74
       0
 49
-3.55688623
 74
       0
  0
LTYPE
  5
32
100
AcDbSymbolTableRecord
100
AcDbLinetypeTableRecord
  2
PHANTOMX2
 70
      64
  3
CADPAC LINETYPE
 72
      65
 73
       6
 40
26.67664671
 49
8.89221557
 74
       0
 49
-3.55688623
 74
       0
 49
3.55688623
 74
       0
 49
-3.55688623
 74
       0
 49
3.55688623
 74
       0
 49
-3.55688623
 74
       0
  0
LTYPE
  5
33
100
AcDbSymbolTableRecord
100
AcDbLinetypeTableRecord
  2
PHANTOM
 70
      64
  3
CADPAC LINETYPE
 72
      65
 73
       6
 40
22.05269461
 49
7.11377246
 74
       0
 49
-3.55688623
 74
       0
 49
2.13413174
 74
       0
 49
-3.55688623
 74
       0
 49
2.13413174
 74
       0
 49
-3.55688623
 74
       0
  0
LTYPE
  5
34
100
AcDbSymbolTableRecord
100
AcDbLinetypeTableRecord
  2
PHANTOM2
 70
      64
  3
CADPAC LINETYPE
 72
      65
 73
       6
 40
18.85149701
 49
5.33532934
 74
       0
 49
-3.55688623
 74
       0
 49
1.42275449
 74
       0
 49
-3.55688623
 74
       0
 49
1.42275449
 74
       0
 49
-3.55688623
 74
       0
  0
LTYPE
  5
35
100
AcDbSymbolTableRecord
100
AcDbLinetypeTableRecord
  2
ACAD_ISO06W100
 70
      64
  3
CADPAC LINETYPE
 72
      65
 73
       8
 40
37.70299401
 49
17.07305389
 74
       0
 49
-3.55688623
 74
       0
 49
2.13413174
 74
       0
 49
-3.55688623
 74
       0
 49
2.13413174
 74
       0
 49
-3.55688623
 74
       0
 49
2.13413174
 74
       0
 49
-3.55688623
 74
       0
  0
LTYPE
  5
36
100
AcDbSymbolTableRecord
100
AcDbLinetypeTableRecord
  2
ACAD_ISO13W100
 70
      64
  3
CADPAC LINETYPE
 72
      65
 73
       8
 40
28.45508982
 49
7.11377246
 74
       0
 49
-3.55688623
 74
       0
 49
7.11377246
 74
       0
 49
-3.55688623
 74
       0
 49
0.0
 74
       0
 49
-3.55688623
 74
       0
 49
0.0
 74
       0
 49
-3.55688623
 74
       0
  0
LTYPE
  5
37
100
AcDbSymbolTableRecord
100
AcDbLinetypeTableRecord
  2
ACAD_ISO14W100
 70
      64
  3
CADPAC LINETYPE
 72
      65
 73
       8
 40
21.34131737
 49
7.11377246
 74
       0
 49
-3.55688623
 74
       0
 49
0.0
 74
       0
 49
-3.55688623
 74
       0
 49
0.0
 74
       0
 49
-3.55688623
 74
       0
 49
0.0
 74
       0
 49
-3.55688623
 74
       0
  0
ENDTAB
  0
TABLE
  2
LAYER
  5
2
100
AcDbSymbolTable
 70
       7
  0
LAYER
  5
14
100
AcDbSymbolTableRecord
100
AcDbLayerTableRecord
  2
0
 70
       0
 62
       7
  6
CONTINUOUS
  0
LAYER
  5
38
100
AcDbSymbolTableRecord
100
AcDbLayerTableRecord
  2
LAYER0001
 70
       0
 62
       7
  6
CONTINUOUS
  0
LAYER
  5
39
100
AcDbSymbolTableRecord
100
AcDbLayerTableRecord
  2
LAYER0016
 70
       0
 62
       7
  6
CONTINUOUS
  0
LAYER
  5
3A
100
AcDbSymbolTableRecord
100
AcDbLayerTableRecord
  2
LAYER0017
 70
       0
 62
       7
  6
CONTINUOUS
  0
LAYER
  5
3B
100
AcDbSymbolTableRecord
100
AcDbLayerTableRecord
  2
LAYER0240
 70
       0
 62
       7
  6
CONTINUOUS
  0
LAYER
  5
3C
100
AcDbSymbolTableRecord
100
AcDbLayerTableRecord
  2
LAYER0256
 70
       0
 62
       7
  6
CONTINUOUS
  0
LAYER
  5
3D
100
AcDbSymbolTableRecord
100
AcDbLayerTableRecord
  2
ZUWAKU
 70
       0
 62
       7
  6
CONTINUOUS
  0
ENDTAB
  0
TABLE
  2
STYLE
  5
3
100
AcDbSymbolTable
 70
       2
  0
STYLE
  5
17
100
AcDbSymbolTableRecord
100
AcDbTextStyleTableRecord
  2
STANDARD
 70
       0
 40
10.2
 41
0.8
 50
0.0
 71
       0
 42
10.2
  3
txt.shx
  4
bigfont.shx
  0
STYLE
  5
3E
100
AcDbSymbolTableRecord
100
AcDbTextStyleTableRecord
  2
FDASTYLE1
 70
       4
 40
9.0
 41
0.8
 50
0.0
 71
       0
 42
9.0
  3
txt.shx
  4
bigfont.shx
  0
ENDTAB
  0
TABLE
  2
VIEW
  5
5
100
AcDbSymbolTable
 70
       1
  0
VIEW
  5
3F
100
AcDbSymbolTableRecord
100
AcDbViewTableRecord
  2
QQQQ
 70
       0
 40
891.0
 10
0.0
 20
0.0
 41
630.0
 11
0.0
 21
0.0
 31
1.0
 12
100.0
 22
100.0
 32
0.0
 42
50.0
 43
0.0
 44
0.0
 50
0.0
 71
       0
  0
ENDTAB
  0
TABLE
  2
UCS
  5
6
100
AcDbSymbolTable
 70
       0
  0
ENDTAB
  0
TABLE
  2
APPID
  5
8
100
AcDbSymbolTable
 70
       1
  0
APPID
  5
16
100
AcDbSymbolTableRecord
100
AcDbRegAppTableRecord
  2
ACAD
 70
       0
  0
ENDTAB
  0
TABLE
  2
DIMSTYLE
  5
9
100
AcDbSymbolTable
 70
       1
  0
DIMSTYLE
105
18
100
AcDbSymbolTableRecord
100
AcDbDimStyleTableRecord
  2
STANDARD
 70
       0
  3

  4

  5

  6

  7

 40
1.0
 41
0.18
 42
0.0625
 43
0.38
 44
0.18
 45
0.0
 46
0.0
 47
0.0
 48
0.0
 71
       0
 72
       0
 73
       1
 74
       1
 75
       0
 76
       0
 77
       0
 78
       0
140
0.18
141
0.09
142
0.0
143
25.4
144
1.0
145
0.0
146
1.0
147
0.09
170
       0
171
       2
172
       0
173
       0
174
       0
175
       0
176
       0
177
       0
178
       0
270
       2
271
       4
272
       4
273
       2
274
       2
275
       0
280
       0
281
       0
282
       0
283
       1
284
       0
285
       0
286
       0
287
       3
288
       0
340
17
  0
ENDTAB
  0
TABLE
  2
BLOCK_RECORD
  5
1
100
AcDbSymbolTable
 70
      12
  0
BLOCK_RECORD
  5
A
100
AcDbSymbolTableRecord
100
AcDbBlockTableRecord
  2
*MODEL_SPACE
  0
BLOCK_RECORD
  5
B
100
AcDbSymbolTableRecord
100
AcDbBlockTableRecord
  2
*PAPER_SPACE
  0
BLOCK_RECORD
  5
40
100
AcDbSymbolTableRecord
100
AcDbBlockTableRecord
  2
GROUP_1
  0
BLOCK_RECORD
  5
41
100
AcDbSymbolTableRecord
100
AcDbBlockTableRecord
  2
GROUP_2
  0
BLOCK_RECORD
  5
42
100
AcDbSymbolTableRecord
100
AcDbBlockTableRecord
  2
GROUP_3
  0
BLOCK_RECORD
  5
43
100
AcDbSymbolTableRecord
100
AcDbBlockTableRecord
  2
_OPEN30
  0
BLOCK_RECORD
  5
44
100
AcDbSymbolTableRecord
100
AcDbBlockTableRecord
  2
DA_IMAGEDIMGROUP_1
  0
BLOCK_RECORD
  5
45
100
AcDbSymbolTableRecord
100
AcDbBlockTableRecord
  2
_ORIGIN
  0
BLOCK_RECORD
  5
46
100
AcDbSymbolTableRecord
100
AcDbBlockTableRecord
  2
_DOT
  0
BLOCK_RECORD
  5
47
100
AcDbSymbolTableRecord
100
AcDbBlockTableRecord
  2
DA_IMAGEDIMGROUP_2
  0
BLOCK_RECORD
  5
48
100
AcDbSymbolTableRecord
100
AcDbBlockTableRecord
  2
DA_IMAGEDIMGROUP_3
  0
BLOCK_RECORD
  5
49
100
AcDbSymbolTableRecord
100
AcDbBlockTableRecord
  2
GROUP_4
  0
BLOCK_RECORD
  5
4A
100
AcDbSymbolTableRecord
100
AcDbBlockTableRecord
  2
DA_IMAGEDIMGROUP_4
  0
BLOCK_RECORD
  5
4B
100
AcDbSymbolTableRecord
100
AcDbBlockTableRecord
  2
DA_IMAGEDIMGROUP_5
  0
ENDTAB
  0
ENDSEC
  0
SECTION
  2
BLOCKS
  0
BLOCK
  5
D
100
AcDbEntity
  8
0
100
AcDbBlockBegin
  2
*MODEL_SPACE
 70
       0
 10
0.0
 20
0.0
 30
0.0
  3
*MODEL_SPACE
  1

  0
ENDBLK
  5
E
100
AcDbEntity
  8
0
100
AcDbBlockEnd
  0
BLOCK
  5
F
100
AcDbEntity
 67
       1
  8
0
100
AcDbBlockBegin
  2
*PAPER_SPACE
 70
       0
 10
0.0
 20
0.0
 30
0.0
  3
*PAPER_SPACE
  1

  0
ENDBLK
  5
10
100
AcDbEntity
 67
       1
  8
0
100
AcDbBlockEnd
  0
BLOCK
  5
4C
100
AcDbEntity
  8
0
100
AcDbBlockBegin
  2
GROUP_1
 70
       0
 10
0.0
 20
0.0
 30
0.0
  3
GROUP_1
  1

  0
TEXT
  5
4D
100
AcDbEntity
  8
ZUWAKU
 62
       4
100
AcDbText
 10
82.0625
 20
-244.11162988
 30
0.0
 40
12.0
  1
　皿タッピンネジ
 41
0.6667
 72
       5
 11
158.8625
 21
-244.11162988
 31
0.0
100
AcDbText
  0
CIRCLE
  5
4E
100
AcDbEntity
  8
ZUWAKU
  6
CONTINUOUS
 62
       4
100
AcDbCircle
 10
87.09229741
 20
-238.11162988
 30
0.0
 40
5.02979741
  0
LINE
  5
4F
100
AcDbEntity
  8
ZUWAKU
  6
CONTINUOUS
 62
       4
100
AcDbLine
 10
87.09229741
 20
-234.27372304
 30
0.0
 11
87.09229741
 21
-241.94953672
 31
0.0
  0
LINE
  5
50
100
AcDbEntity
  8
ZUWAKU
  6
CONTINUOUS
 62
       4
100
AcDbLine
 10
90.93020425
 20
-238.11162988
 30
0.0
 11
83.25439058
 21
-238.11162988
 31
0.0
  0
ENDBLK
  5
51
100
AcDbEntity
  8
0
100
AcDbBlockEnd
  0
BLOCK
  5
52
100
AcDbEntity
  8
0
100
AcDbBlockBegin
  2
GROUP_2
 70
       0
 10
0.0
 20
0.0
 30
0.0
  3
GROUP_2
  1

  0
TEXT
  5
53
100
AcDbEntity
  8
ZUWAKU
 62
       4
100
AcDbText
 10
81.98933152
 20
-259.11162988
 30
0.0
 40
12.0
  1
　六角ボルト
 41
0.6667
 72
       5
 11
139.58933152
 21
-259.11162988
 31
0.0
100
AcDbText
  0
CIRCLE
  5
54
100
AcDbEntity
  8
ZUWAKU
  6
CONTINUOUS
 62
       4
100
AcDbCircle
 10
87.01912894
 20
-253.11162988
 30
0.0
 40
5.02979741
  0
LINE
  5
55
100
AcDbEntity
  8
ZUWAKU
  6
CONTINUOUS
 62
       4
100
AcDbLine
 10
90.85703577
 20
-253.11162988
 30
0.0
 11
83.1812221
 21
-253.11162988
 31
0.0
  0
ENDBLK
  5
56
100
AcDbEntity
  8
0
100
AcDbBlockEnd
  0
BLOCK
  5
57
100
AcDbEntity
  8
0
100
AcDbBlockBegin
  2
GROUP_3
 70
       0
 10
0.0
 20
0.0
 30
0.0
  3
GROUP_3
  1

  0
LINE
  5
58
100
AcDbEntity
  8
ZUWAKU
  6
CONTINUOUS
 62
       4
100
AcDbLine
 10
100.98979908
 20
-268.11162988
 30
0.0
 11
93.3139854
 21
-268.11162988
 31
0.0
  0
LINE
  5
59
100
AcDbEntity
  8
ZUWAKU
  6
CONTINUOUS
 62
       4
100
AcDbLine
 10
87.09229741
 20
-264.27372304
 30
0.0
 11
87.09229741
 21
-271.94953672
 31
0.0
  0
CIRCLE
  5
5A
100
AcDbEntity
  8
ZUWAKU
  6
CONTINUOUS
 62
       4
100
AcDbCircle
 10
87.09229741
 20
-268.11162988
 30
0.0
 40
5.02979741
  0
LINE
  5
5B
100
AcDbEntity
  8
ZUWAKU
  6
CONTINUOUS
 62
       4
100
AcDbLine
 10
90.93020425
 20
-268.11162988
 30
0.0
 11
83.25439058
 21
-268.11162988
 31
0.0
  0
CIRCLE
  5
5C
100
AcDbEntity
  8
ZUWAKU
  6
CONTINUOUS
 62
       4
100
AcDbCircle
 10
97.15189224
 20
-268.11162988
 30
0.0
 40
5.02979741
  0
TEXT
  5
5D
100
AcDbEntity
  8
ZUWAKU
 62
       4
100
AcDbText
 10
82.0625
 20
-274.11162988
 30
0.0
 40
12.0
  1
　　六角タッピンネジ
 41
0.6667
 72
       5
 11
178.0625
 21
-274.11162988
 31
0.0
100
AcDbText
  0
ENDBLK
  5
5E
100
AcDbEntity
  8
0
100
AcDbBlockEnd
  0
BLOCK
  5
5F
100
AcDbEntity
  8
0
100
AcDbBlockBegin
  2
_OPEN30
 70
       0
 10
0.0
 20
0.0
 30
0.0
  3
_OPEN30
  1

  0
LINE
  5
60
100
AcDbEntity
  8
0
  6
CONTINUOUS
 62
       0
100
AcDbLine
 10
0.0
 20
0.0
 30
0.0
 11
-0.96592583
 21
0.25881905
 31
0.0
  0
LINE
  5
61
100
AcDbEntity
  8
0
  6
CONTINUOUS
 62
       0
100
AcDbLine
 10
0.0
 20
0.0
 30
0.0
 11
-0.96592583
 21
-0.25881905
 31
0.0
  0
LINE
  5
62
100
AcDbEntity
  8
0
  6
CONTINUOUS
 62
       0
100
AcDbLine
 10
0.0
 20
0.0
 30
0.0
 11
-1.0
 21
0.0
 31
0.0
  0
ENDBLK
  5
63
100
AcDbEntity
  8
0
100
AcDbBlockEnd
  0
BLOCK
  5
64
100
AcDbEntity
  8
0
100
AcDbBlockBegin
  2
DA_IMAGEDIMGROUP_1
 70
       0
 10
0.0
 20
0.0
 30
0.0
  3
DA_IMAGEDIMGROUP_1
  1

  0
LINE
  5
65
100
AcDbEntity
  8
LAYER0001
  6
CONTINUOUS
 62
       9
100
AcDbLine
 10
107.54171481
 20
88.14298273
 30
0.0
 11
192.54171481
 21
88.14298273
 31
0.0
  0
LINE
  5
66
100
AcDbEntity
  8
LAYER0001
  6
CONTINUOUS
 62
       9
100
AcDbLine
 10
147.54171481
 20
296.14298273
 30
0.0
 11
192.54171481
 21
296.14298273
 31
0.0
  0
LINE
  5
67
100
AcDbEntity
  8
LAYER0001
  6
CONTINUOUS
 62
       9
100
AcDbLine
 10
134.54171481
 20
331.14298273
 30
0.0
 11
192.54171481
 21
331.14298273
 31
0.0
  0
LINE
  5
68
100
AcDbEntity
  8
LAYER0001
  6
CONTINUOUS
 62
       9
100
AcDbLine
 10
189.54171481
 20
88.14298273
 30
0.0
 11
189.54171481
 21
296.14298273
 31
0.0
  0
INSERT
  5
69
100
AcDbEntity
  8
LAYER0001
  6
CONTINUOUS
 62
       9
100
AcDbBlockReference
  2
_OPEN30
 10
189.54171481
 20
88.14298273
 30
0.0
 41
9.00000836
 42
8.99996782
 50
270.0
  0
INSERT
  5
6A
100
AcDbEntity
  8
LAYER0001
  6
CONTINUOUS
 62
       9
100
AcDbBlockReference
  2
_OPEN30
 10
189.54171481
 20
296.14298273
 30
0.0
 41
9.00000836
 42
8.99996782
 50
90.0
  0
LINE
  5
6B
100
AcDbEntity
  8
LAYER0001
  6
CONTINUOUS
 62
       9
100
AcDbLine
 10
189.54171481
 20
296.14298273
 30
0.0
 11
189.54171481
 21
331.14298273
 31
0.0
  0
INSERT
  5
6C
100
AcDbEntity
  8
LAYER0001
  6
CONTINUOUS
 62
       9
100
AcDbBlockReference
  2
_OPEN30
 10
189.54171481
 20
296.14298273
 30
0.0
 41
9.00000836
 42
8.99996782
 50
270.0
  0
INSERT
  5
6D
100
AcDbEntity
  8
LAYER0001
  6
CONTINUOUS
 62
       9
100
AcDbBlockReference
  2
_OPEN30
 10
189.54171481
 20
331.14298273
 30
0.0
 41
9.00000836
 42
8.99996782
 50
90.0
  0
TEXT
  5
6E
100
AcDbEntity
  8
LAYER0001
 62
       7
100
AcDbText
 10
186.54171481
 20
177.74298273
 30
0.0
 40
12.0
  1
208
 50
90.0
 41
0.8
 72
       5
 11
186.54171481
 21
206.54298273
 31
0.0
100
AcDbText
  0
TEXT
  5
6F
100
AcDbEntity
  8
LAYER0001
 62
       7
100
AcDbText
 10
186.54171481
 20
294.44298273
 30
0.0
 40
12.0
  1
(35)
 50
90.0
 41
0.8
 72
       5
 11
186.54171481
 21
332.84298273
 31
0.0
100
AcDbText
  0
ENDBLK
  5
70
100
AcDbEntity
  8
0
100
AcDbBlockEnd
  0
BLOCK
  5
71
100
AcDbEntity
  8
0
100
AcDbBlockBegin
  2
_ORIGIN
 70
       0
 10
0.0
 20
0.0
 30
0.0
  3
_ORIGIN
  1

  0
CIRCLE
  5
72
100
AcDbEntity
  8
0
  6
CONTINUOUS
 62
       0
100
AcDbCircle
 10
0.0
 20
0.0
 30
0.0
 40
0.5
  0
ENDBLK
  5
73
100
AcDbEntity
  8
0
100
AcDbBlockEnd
  0
BLOCK
  5
74
100
AcDbEntity
  8
0
100
AcDbBlockBegin
  2
_DOT
 70
       0
 10
0.0
 20
0.0
 30
0.0
  3
_DOT
  1

  0
HATCH
  5
75
100
AcDbEntity
  8
0
  6
CONTINUOUS
 62
       0
100
AcDbHatch
 10
0.0
 20
0.0
 30
0.0
210
0.0
220
0.0
230
1.0
  2
SOLID
 70
       1
 71
       1
 91
        1
 92
        1
 93
        1
 72
       2
 10
0.0
 20
0.0
 40
0.5
 50
0.0
 51
360.0
 73
       1
 97
        0
 75
       0
 76
       1
 98
        0
  0
ENDBLK
  5
76
100
AcDbEntity
  8
0
100
AcDbBlockEnd
  0
BLOCK
  5
77
100
AcDbEntity
  8
0
100
AcDbBlockBegin
  2
DA_IMAGEDIMGROUP_2
 70
       0
 10
0.0
 20
0.0
 30
0.0
  3
DA_IMAGEDIMGROUP_2
  1

  0
LINE
  5
78
100
AcDbEntity
  8
LAYER0001
  6
CONTINUOUS
 62
       9
100
AcDbLine
 10
11.91709869
 20
246.94298273
 30
0.0
 11
-2.27714065
 21
246.94298273
 31
0.0
  0
LINE
  5
79
100
AcDbEntity
  8
LAYER0001
  6
CONTINUOUS
 62
       9
100
AcDbLine
 10
17.91709869
 20
255.34298273
 30
0.0
 11
-2.27714065
 21
255.34298273
 31
0.0
  0
LINE
  5
7A
100
AcDbEntity
  8
LAYER0001
  6
CONTINUOUS
 62
       9
100
AcDbLine
 10
0.72285935
 20
255.34298273
 30
0.0
 11
0.72285935
 21
246.94298273
 31
0.0
  0
LINE
  5
7B
100
AcDbEntity
  8
LAYER0001
  6
CONTINUOUS
 62
       9
100
AcDbLine
 10
0.72285935
 20
308.74298273
 30
0.0
 11
0.72285935
 21
255.34298273
 31
0.0
  0
INSERT
  5
7C
100
AcDbEntity
  8
LAYER0001
  6
CONTINUOUS
 62
       9
100
AcDbBlockReference
  2
_OPEN30
 10
0.72285935
 20
255.34298273
 30
0.0
 41
9.00000836
 42
8.99996782
 50
270.0
  0
LINE
  5
7D
100
AcDbEntity
  8
LAYER0001
  6
CONTINUOUS
 62
       9
100
AcDbLine
 10
0.72285935
 20
231.94298273
 30
0.0
 11
0.72285935
 21
246.94298273
 31
0.0
  0
INSERT
  5
7E
100
AcDbEntity
  8
LAYER0001
  6
CONTINUOUS
 62
       9
100
AcDbBlockReference
  2
_OPEN30
 10
0.72285935
 20
246.94298273
 30
0.0
 41
9.00000836
 42
8.99996782
 50
90.0
  0
TEXT
  5
7F
100
AcDbEntity
  8
LAYER0001
 62
       7
100
AcDbText
 10
-2.27714065
 20
267.34298273
 30
0.0
 40
12.0
  1
φ8.4
 50
90.0
 41
0.8
 72
       5
 11
-2.27714065
 21
305.74298273
 31
0.0
100
AcDbText
  0
ENDBLK
  5
80
100
AcDbEntity
  8
0
100
AcDbBlockEnd
  0
BLOCK
  5
81
100
AcDbEntity
  8
0
100
AcDbBlockBegin
  2
DA_IMAGEDIMGROUP_3
 70
       0
 10
0.0
 20
0.0
 30
0.0
  3
DA_IMAGEDIMGROUP_3
  1

  0
LINE
  5
82
100
AcDbEntity
  8
LAYER0001
  6
CONTINUOUS
 62
       9
100
AcDbLine
 10
14.91709869
 20
155.14298273
 30
0.0
 11
-2.27714065
 21
155.14298273
 31
0.0
  0
LINE
  5
83
100
AcDbEntity
  8
LAYER0001
  6
CONTINUOUS
 62
       9
100
AcDbLine
 10
14.91709869
 20
147.14298273
 30
0.0
 11
-2.27714065
 21
147.14298273
 31
0.0
  0
LINE
  5
84
100
AcDbEntity
  8
LAYER0001
  6
CONTINUOUS
 62
       9
100
AcDbLine
 10
0.72285935
 20
155.14298273
 30
0.0
 11
0.72285935
 21
147.14298273
 31
0.0
  0
LINE
  5
85
100
AcDbEntity
  8
LAYER0001
  6
CONTINUOUS
 62
       9
100
AcDbLine
 10
0.72285935
 20
189.34298273
 30
0.0
 11
0.72285935
 21
155.14298273
 31
0.0
  0
INSERT
  5
86
100
AcDbEntity
  8
LAYER0001
  6
CONTINUOUS
 62
       9
100
AcDbBlockReference
  2
_OPEN30
 10
0.72285935
 20
155.14298273
 30
0.0
 41
9.00000836
 42
8.99996782
 50
270.0
  0
LINE
  5
87
100
AcDbEntity
  8
LAYER0001
  6
CONTINUOUS
 62
       9
100
AcDbLine
 10
0.72285935
 20
132.14298273
 30
0.0
 11
0.72285935
 21
147.14298273
 31
0.0
  0
INSERT
  5
88
100
AcDbEntity
  8
LAYER0001
  6
CONTINUOUS
 62
       9
100
AcDbBlockReference
  2
_OPEN30
 10
0.72285935
 20
147.14298273
 30
0.0
 41
9.00000836
 42
8.99996782
 50
90.0
  0
TEXT
  5
89
100
AcDbEntity
  8
LAYER0001
 62
       7
100
AcDbText
 10
-2.27714065
 20
167.14298273
 30
0.0
 40
12.0
  1
φ8
 50
90.0
 41
0.8
 72
       5
 11
-2.27714065
 21
186.34298273
 31
0.0
100
AcDbText
  0
ENDBLK
  5
8A
100
AcDbEntity
  8
0
100
AcDbBlockEnd
  0
BLOCK
  5
8B
100
AcDbEntity
  8
0
100
AcDbBlockBegin
  2
GROUP_4
 70
       0
 10
0.0
 20
0.0
 30
0.0
  3
GROUP_4
  1

  0
LINE
  5
8C
100
AcDbEntity
  8
LAYER0240
  6
CONTINUOUS
 62
       9
100
AcDbLine
 10
-63.53796022
 20
151.14298273
 30
0.0
 11
-125.17891063
 21
76.62183373
 31
0.0
  0
INSERT
  5
8D
100
AcDbEntity
  8
LAYER0240
  6
CONTINUOUS
 62
       9
100
AcDbBlockReference
  2
_DOT
 10
-63.53796022
 20
151.14298273
 30
0.0
 41
7.5
 42
7.5
 50
50.40379136
  0
CIRCLE
  5
8E
100
AcDbEntity
  8
LAYER0240
  6
CONTINUOUS
 62
       9
100
AcDbCircle
 10
-133.54443128
 20
66.50829384
 30
0.0
 40
13.125
  0
TEXT
  5
8F
100
AcDbEntity
  8
LAYER0240
 62
       4
100
AcDbText
 10
-138.34443128
 20
60.50829384
 30
0.0
 40
12.0
  1
4
 41
0.8
 72
       5
 11
-128.74443128
 21
60.50829384
 31
0.0
100
AcDbText
  0
ENDBLK
  5
90
100
AcDbEntity
  8
0
100
AcDbBlockEnd
  0
BLOCK
  5
91
100
AcDbEntity
  8
0
100
AcDbBlockBegin
  2
DA_IMAGEDIMGROUP_4
 70
       0
 10
0.0
 20
0.0
 30
0.0
  3
DA_IMAGEDIMGROUP_4
  1

  0
LINE
  5
92
100
AcDbEntity
  8
0
  6
CONTINUOUS
 62
       9
100
AcDbLine
 10
-96.11113518
 20
151.14298273
 30
0.0
 11
-137.0568356
 21
151.14298273
 31
0.0
  0
LINE
  5
93
100
AcDbEntity
  8
0
  6
CONTINUOUS
 62
       9
100
AcDbLine
 10
-66.88212983
 20
96.14298273
 30
0.0
 11
-137.0568356
 21
96.14298273
 31
0.0
  0
LINE
  5
94
100
AcDbEntity
  8
0
  6
CONTINUOUS
 62
       9
100
AcDbLine
 10
-96.11113518
 20
201.14298273
 30
0.0
 11
-137.0568356
 21
201.14298273
 31
0.0
  0
LINE
  5
95
100
AcDbEntity
  8
0
  6
CONTINUOUS
 62
       9
100
AcDbLine
 10
-96.11113518
 20
251.14298273
 30
0.0
 11
-137.0568356
 21
251.14298273
 31
0.0
  0
LINE
  5
96
100
AcDbEntity
  8
0
  6
CONTINUOUS
 62
       9
100
AcDbLine
 10
-100.10988203
 20
276.14298273
 30
0.0
 11
-137.0568356
 21
276.14298273
 31
0.0
  0
LINE
  5
97
100
AcDbEntity
  8
0
  6
CONTINUOUS
 62
       9
100
AcDbLine
 10
-106.88212983
 20
296.14298273
 30
0.0
 11
-137.0568356
 21
296.14298273
 31
0.0
  0
LINE
  5
98
100
AcDbEntity
  8
0
  6
CONTINUOUS
 62
       9
100
AcDbLine
 10
-134.0568356
 20
96.14298273
 30
0.0
 11
-134.0568356
 21
151.14298273
 31
0.0
  0
INSERT
  5
99
100
AcDbEntity
  8
0
  6
CONTINUOUS
 62
       9
100
AcDbBlockReference
  2
_OPEN30
 10
-134.0568356
 20
96.14298273
 30
0.0
 41
9.00000836
 42
8.99996782
 50
270.0
  0
INSERT
  5
9A
100
AcDbEntity
  8
0
  6
CONTINUOUS
 62
       9
100
AcDbBlockReference
  2
_OPEN30
 10
-134.0568356
 20
151.14298273
 30
0.0
 41
9.00000836
 42
8.99996782
 50
90.0
  0
LINE
  5
9B
100
AcDbEntity
  8
0
  6
CONTINUOUS
 62
       9
100
AcDbLine
 10
-134.0568356
 20
151.14298273
 30
0.0
 11
-134.0568356
 21
201.14298273
 31
0.0
  0
INSERT
  5
9C
100
AcDbEntity
  8
0
  6
CONTINUOUS
 62
       9
100
AcDbBlockReference
  2
_OPEN30
 10
-134.0568356
 20
151.14298273
 30
0.0
 41
9.00000836
 42
8.99996782
 50
270.0
  0
INSERT
  5
9D
100
AcDbEntity
  8
0
  6
CONTINUOUS
 62
       9
100
AcDbBlockReference
  2
_OPEN30
 10
-134.0568356
 20
201.14298273
 30
0.0
 41
9.00000836
 42
8.99996782
 50
90.0
  0
LINE
  5
9E
100
AcDbEntity
  8
0
  6
CONTINUOUS
 62
       9
100
AcDbLine
 10
-134.0568356
 20
201.14298273
 30
0.0
 11
-134.0568356
 21
251.14298273
 31
0.0
  0
INSERT
  5
9F
100
AcDbEntity
  8
0
  6
CONTINUOUS
 62
       9
100
AcDbBlockReference
  2
_OPEN30
 10
-134.0568356
 20
201.14298273
 30
0.0
 41
9.00000836
 42
8.99996782
 50
270.0
  0
INSERT
  5
A0
100
AcDbEntity
  8
0
  6
CONTINUOUS
 62
       9
100
AcDbBlockReference
  2
_OPEN30
 10
-134.0568356
 20
251.14298273
 30
0.0
 41
9.00000836
 42
8.99996782
 50
90.0
  0
LINE
  5
A1
100
AcDbEntity
  8
0
  6
CONTINUOUS
 62
       9
100
AcDbLine
 10
-134.0568356
 20
251.14298273
 30
0.0
 11
-134.0568356
 21
276.14298273
 31
0.0
  0
INSERT
  5
A2
100
AcDbEntity
  8
0
  6
CONTINUOUS
 62
       9
100
AcDbBlockReference
  2
_OPEN30
 10
-134.0568356
 20
251.14298273
 30
0.0
 41
9.00000836
 42
8.99996782
 50
270.0
  0
INSERT
  5
A3
100
AcDbEntity
  8
0
  6
CONTINUOUS
 62
       9
100
AcDbBlockReference
  2
_OPEN30
 10
-134.0568356
 20
276.14298273
 30
0.0
 41
9.00000836
 42
8.99996782
 50
90.0
  0
LINE
  5
A4
100
AcDbEntity
  8
0
  6
CONTINUOUS
 62
       9
100
AcDbLine
 10
-134.0568356
 20
276.14298273
 30
0.0
 11
-134.0568356
 21
296.14298273
 31
0.0
  0
INSERT
  5
A5
100
AcDbEntity
  8
0
  6
CONTINUOUS
 62
       9
100
AcDbBlockReference
  2
_OPEN30
 10
-134.0568356
 20
276.14298273
 30
0.0
 41
9.00000836
 42
8.99996782
 50
270.0
  0
INSERT
  5
A6
100
AcDbEntity
  8
0
  6
CONTINUOUS
 62
       9
100
AcDbBlockReference
  2
_OPEN30
 10
-134.0568356
 20
296.14298273
 30
0.0
 41
9.00000836
 42
8.99996782
 50
90.0
  0
TEXT
  5
A7
100
AcDbEntity
  8
0
 62
       7
100
AcDbText
 10
-137.0568356
 20
114.04298273
 30
0.0
 40
12.0
  1
55
 50
90.0
 41
0.8
 72
       5
 11
-137.0568356
 21
133.24298273
 31
0.0
100
AcDbText
  0
TEXT
  5
A8
100
AcDbEntity
  8
0
 62
       7
100
AcDbText
 10
-137.0568356
 20
166.54298273
 30
0.0
 40
12.0
  1
50
 50
90.0
 41
0.8
 72
       5
 11
-137.0568356
 21
185.74298273
 31
0.0
100
AcDbText
  0
TEXT
  5
A9
100
AcDbEntity
  8
0
 62
       7
100
AcDbText
 10
-137.0568356
 20
216.54298273
 30
0.0
 40
12.0
  1
50
 50
90.0
 41
0.8
 72
       5
 11
-137.0568356
 21
235.74298273
 31
0.0
100
AcDbText
  0
TEXT
  5
AA
100
AcDbEntity
  8
0
 62
       7
100
AcDbText
 10
-137.0568356
 20
254.04298273
 30
0.0
 40
12.0
  1
25
 50
90.0
 41
0.8
 72
       5
 11
-137.0568356
 21
273.24298273
 31
0.0
100
AcDbText
  0
TEXT
  5
AB
100
AcDbEntity
  8
0
 62
       7
100
AcDbText
 10
-137.0568356
 20
276.54298273
 30
0.0
 40
12.0
  1
20
 50
90.0
 41
0.8
 72
       5
 11
-137.0568356
 21
295.74298273
 31
0.0
100
AcDbText
  0
ENDBLK
  5
AC
100
AcDbEntity
  8
0
100
AcDbBlockEnd
  0
BLOCK
  5
AD
100
AcDbEntity
  8
0
100
AcDbBlockBegin
  2
DA_IMAGEDIMGROUP_5
 70
       0
 10
0.0
 20
0.0
 30
0.0
  3
DA_IMAGEDIMGROUP_5
  1

  0
LINE
  5
AE
100
AcDbEntity
  8
LAYER0016
  6
CONTINUOUS
 62
       9
100
AcDbLine
 10
-104.84112983
 20
296.64298273
 30
0.0
 11
-136.96071693
 21
296.64298273
 31
0.0
  0
LINE
  5
AF
100
AcDbEntity
  8
LAYER0016
  6
CONTINUOUS
 62
       9
100
AcDbLine
 10
-91.88212983
 20
341.64298273
 30
0.0
 11
-136.96071693
 21
341.64298273
 31
0.0
  0
LINE
  5
B0
100
AcDbEntity
  8
LAYER0016
  6
CONTINUOUS
 62
       9
100
AcDbLine
 10
-133.96071693
 20
296.64298273
 30
0.0
 11
-133.96071693
 21
341.64298273
 31
0.0
  0
INSERT
  5
B1
100
AcDbEntity
  8
LAYER0016
  6
CONTINUOUS
 62
       9
100
AcDbBlockReference
  2
_OPEN30
 10
-133.96071693
 20
296.64298273
 30
0.0
 41
9.00000836
 42
8.99996782
 50
270.0
  0
INSERT
  5
B2
100
AcDbEntity
  8
LAYER0016
  6
CONTINUOUS
 62
       9
100
AcDbBlockReference
  2
_OPEN30
 10
-133.96071693
 20
341.64298273
 30
0.0
 41
9.00000836
 42
8.99996782
 50
90.0
  0
TEXT
  5
B3
100
AcDbEntity
  8
LAYER0016
 62
       7
100
AcDbText
 10
-136.96071693
 20
299.94298273
 30
0.0
 40
12.0
  1
(45)
 50
90.0
 41
0.8
 72
       5
 11
-136.96071693
 21
338.34298273
 31
0.0
100
AcDbText
  0
ENDBLK
  5
B4
100
AcDbEntity
  8
0
100
AcDbBlockEnd
  0
ENDSEC
  0
SECTION
  2
ENTITIES
  0
LINE
  5
B5
100
AcDbEntity
  8
ZUWAKU
  6
CONTINUOUS
 62
      32
100
AcDbLine
 10
-170.9125
 20
-414.17412988
 30
0.0
 11
-169.225
 21
-409.48662988
 31
0.0
  0
LINE
  5
B6
100
AcDbEntity
  8
ZUWAKU
  6
CONTINUOUS
 62
      32
100
AcDbLine
 10
-183.4
 20
-414.17412988
 30
0.0
 11
-180.775
 21
-407.04912988
 31
0.0
  0
LINE
  5
B7
100
AcDbEntity
  8
ZUWAKU
  6
CONTINUOUS
 62
      32
100
AcDbLine
 10
-185.8375
 20
-404.42412988
 30
0.0
 11
-186.775
 21
-407.04912988
 31
0.0
  0
LINE
  5
B8
100
AcDbEntity
  8
ZUWAKU
  6
CONTINUOUS
 62
      32
100
AcDbLine
 10
-177.2125
 20
-414.17412988
 30
0.0
 11
-174.4
 21
-405.92412988
 31
0.0
  0
LINE
  5
B9
100
AcDbEntity
  8
ZUWAKU
  6
CONTINUOUS
 62
      32
100
AcDbLine
 10
-137.875
 20
-414.17412988
 30
0.0
 11
-141.0625
 21
-408.92412988
 31
0.0
  0
LINE
  5
BA
100
AcDbEntity
  8
ZUWAKU
  6
CONTINUOUS
 62
      32
100
AcDbLine
 10
-185.8375
 20
-404.42412988
 30
0.0
 11
-182.275
 21
-404.42412988
 31
0.0
  0
LINE
  5
BB
100
AcDbEntity
  8
ZUWAKU
  6
CONTINUOUS
 62
      32
100
AcDbLine
 10
-166.7875
 20
-402.73662988
 30
0.0
 11
-160.6
 21
-402.73662988
 31
0.0
  0
LINE
  5
BC
100
AcDbEntity
  8
ZUWAKU
  6
CONTINUOUS
 62
      32
100
AcDbLine
 10
-153.475
 20
-402.17412988
 30
0.0
 11
-151.6
 21
-402.17412988
 31
0.0
  0
LINE
  5
BD
100
AcDbEntity
  8
ZUWAKU
  6
CONTINUOUS
 62
      32
100
AcDbLine
 10
-165.475
 20
-399.36162988
 30
0.0
 11
-166.7875
 21
-402.73662988
 31
0.0
  0
LINE
  5
BE
100
AcDbEntity
  8
ZUWAKU
  6
CONTINUOUS
 62
      32
100
AcDbLine
 10
-159.475
 20
-399.36162988
 30
0.0
 11
-160.6
 21
-402.73662988
 31
0.0
  0
LINE
  5
BF
100
AcDbEntity
  8
ZUWAKU
  6
CONTINUOUS
 62
      32
100
AcDbLine
 10
-183.4
 20
-414.17412988
 30
0.0
 11
-177.2125
 21
-414.17412988
 31
0.0
  0
LINE
  5
C0
100
AcDbEntity
  8
ZUWAKU
  6
CONTINUOUS
 62
      32
100
AcDbLine
 10
-173.8375
 20
-399.36162988
 30
0.0
 11
-166.9
 21
-399.36162988
 31
0.0
  0
LINE
  5
C1
100
AcDbEntity
  8
ZUWAKU
  6
CONTINUOUS
 62
      32
100
AcDbLine
 10
-143.25272308
 20
-402.73662988
 30
0.0
 11
-149.875
 21
-402.73662988
 31
0.0
  0
LINE
  5
C2
100
AcDbEntity
  8
ZUWAKU
  6
CONTINUOUS
 62
      32
100
AcDbLine
 10
-136.0
 20
-399.36162988
 30
0.0
 11
-148.75
 21
-399.36162988
 31
0.0
  0
LINE
  5
C3
100
AcDbEntity
  8
ZUWAKU
  6
CONTINUOUS
 62
      32
100
AcDbLine
 10
-186.775
 20
-407.04912988
 30
0.0
 11
-180.775
 21
-407.04912988
 31
0.0
  0
LINE
  5
C4
100
AcDbEntity
  8
ZUWAKU
  6
CONTINUOUS
 62
      32
100
AcDbLine
 10
-170.9125
 20
-414.17412988
 30
0.0
 11
-160.975
 21
-414.17412988
 31
0.0
  0
LINE
  5
C5
100
AcDbEntity
  8
ZUWAKU
  6
CONTINUOUS
 62
      32
100
AcDbLine
 10
-169.225
 20
-409.48662988
 30
0.0
 11
-160.225
 21
-409.48662988
 31
0.0
  0
LINE
  5
C6
100
AcDbEntity
  8
ZUWAKU
  6
CONTINUOUS
 62
      32
100
AcDbLine
 10
-137.875
 20
-414.17412988
 30
0.0
 11
-142.5625
 21
-414.17412988
 31
0.0
  0
LINE
  5
C7
100
AcDbEntity
  8
ZUWAKU
  6
CONTINUOUS
 62
      32
100
AcDbLine
 10
-149.875
 20
-402.73662988
 30
0.0
 11
-148.75
 21
-399.36162988
 31
0.0
  0
LINE
  5
C8
100
AcDbEntity
  8
ZUWAKU
  6
CONTINUOUS
 62
      32
100
AcDbLine
 10
-215.0875
 20
-399.36162988
 30
0.0
 11
-218.275
 21
-408.36162988
 31
0.0
  0
LINE
  5
C9
100
AcDbEntity
  8
ZUWAKU
  6
CONTINUOUS
 62
      32
100
AcDbLine
 10
-218.275
 20
-408.36162988
 30
0.0
 11
-213.9625
 21
-408.36162988
 31
0.0
  0
LINE
  5
CA
100
AcDbEntity
  8
ZUWAKU
  6
CONTINUOUS
 62
      32
100
AcDbLine
 10
-213.9625
 20
-408.36162988
 30
0.0
 11
-210.5875
 21
-399.36162988
 31
0.0
  0
LINE
  5
CB
100
AcDbEntity
  8
ZUWAKU
  6
CONTINUOUS
 62
      32
100
AcDbLine
 10
-210.5875
 20
-399.36162988
 30
0.0
 11
-215.0875
 21
-399.36162988
 31
0.0
  0
LINE
  5
CC
100
AcDbEntity
  8
ZUWAKU
  6
CONTINUOUS
 62
      32
100
AcDbLine
 10
-157.975
 20
-408.36162988
 30
0.0
 11
-155.9125
 21
-406.67412988
 31
0.0
  0
LINE
  5
CD
100
AcDbEntity
  8
ZUWAKU
  6
CONTINUOUS
 62
      32
100
AcDbLine
 10
-155.9125
 20
-406.67412988
 30
0.0
 11
-154.4125
 21
-404.61162988
 31
0.0
  0
LINE
  5
CE
100
AcDbEntity
  8
ZUWAKU
  6
CONTINUOUS
 62
      32
100
AcDbLine
 10
-154.4125
 20
-404.61162988
 30
0.0
 11
-153.475
 21
-402.17412988
 31
0.0
  0
LINE
  5
CF
100
AcDbEntity
  8
ZUWAKU
  6
CONTINUOUS
 62
      32
100
AcDbLine
 10
-199.675
 20
-399.36162988
 30
0.0
 11
-185.9875
 21
-399.36162988
 31
0.0
  0
LINE
  5
D0
100
AcDbEntity
  8
ZUWAKU
  6
CONTINUOUS
 62
      32
100
AcDbLine
 10
-185.9875
 20
-399.36162988
 30
0.0
 11
-187.1125
 21
-402.73662988
 31
0.0
  0
LINE
  5
D1
100
AcDbEntity
  8
ZUWAKU
  6
CONTINUOUS
 62
      32
100
AcDbLine
 10
-185.9875
 20
-399.36162988
 30
0.0
 11
-187.1125
 21
-402.73662988
 31
0.0
  0
LINE
  5
D2
100
AcDbEntity
  8
ZUWAKU
  6
CONTINUOUS
 62
      32
100
AcDbLine
 10
-187.1125
 20
-402.73662988
 30
0.0
 11
-200.8
 21
-402.73662988
 31
0.0
  0
LINE
  5
D3
100
AcDbEntity
  8
ZUWAKU
  6
CONTINUOUS
 62
      32
100
AcDbLine
 10
-200.8
 20
-402.73662988
 30
0.0
 11
-199.675
 21
-399.36162988
 31
0.0
  0
LINE
  5
D4
100
AcDbEntity
  8
ZUWAKU
  6
CONTINUOUS
 62
      32
100
AcDbLine
 10
-200.8
 20
-402.73662988
 30
0.0
 11
-199.675
 21
-399.36162988
 31
0.0
  0
LINE
  5
D5
100
AcDbEntity
  8
ZUWAKU
  6
CONTINUOUS
 62
      32
100
AcDbLine
 10
-185.9875
 20
-399.36162988
 30
0.0
 11
-199.675
 21
-399.36162988
 31
0.0
  0
LINE
  5
D6
100
AcDbEntity
  8
ZUWAKU
  6
CONTINUOUS
 62
      32
100
AcDbLine
 10
-199.675
 20
-399.36162988
 30
0.0
 11
-200.8
 21
-402.73662988
 31
0.0
  0
LINE
  5
D7
100
AcDbEntity
  8
ZUWAKU
  6
CONTINUOUS
 62
      32
100
AcDbLine
 10
-200.8
 20
-402.73662988
 30
0.0
 11
-187.1125
 21
-402.73662988
 31
0.0
  0
LINE
  5
D8
100
AcDbEntity
  8
ZUWAKU
  6
CONTINUOUS
 62
      32
100
AcDbLine
 10
-193.8625
 20
-413.79912988
 30
0.0
 11
-192.3625
 21
-413.04912988
 31
0.0
  0
LINE
  5
D9
100
AcDbEntity
  8
ZUWAKU
  6
CONTINUOUS
 62
      32
100
AcDbLine
 10
-192.3625
 20
-413.04912988
 30
0.0
 11
-191.2375
 21
-411.92412988
 31
0.0
  0
LINE
  5
DA
100
AcDbEntity
  8
ZUWAKU
  6
CONTINUOUS
 62
      32
100
AcDbLine
 10
-191.2375
 20
-411.92412988
 30
0.0
 11
-189.925
 21
-410.61162988
 31
0.0
  0
LINE
  5
DB
100
AcDbEntity
  8
ZUWAKU
  6
CONTINUOUS
 62
      32
100
AcDbLine
 10
-189.925
 20
-410.61162988
 30
0.0
 11
-187.675
 21
-404.42412988
 31
0.0
  0
LINE
  5
DC
100
AcDbEntity
  8
ZUWAKU
  6
CONTINUOUS
 62
      32
100
AcDbLine
 10
-187.675
 20
-404.42412988
 30
0.0
 11
-201.175
 21
-404.42412988
 31
0.0
  0
LINE
  5
DD
100
AcDbEntity
  8
ZUWAKU
  6
CONTINUOUS
 62
      32
100
AcDbLine
 10
-201.175
 20
-404.42412988
 30
0.0
 11
-201.925
 21
-407.04912988
 31
0.0
  0
LINE
  5
DE
100
AcDbEntity
  8
ZUWAKU
  6
CONTINUOUS
 62
      32
100
AcDbLine
 10
-201.925
 20
-407.04912988
 30
0.0
 11
-194.05
 21
-407.04912988
 31
0.0
  0
LINE
  5
DF
100
AcDbEntity
  8
ZUWAKU
  6
CONTINUOUS
 62
      32
100
AcDbLine
 10
-194.05
 20
-407.04912988
 30
0.0
 11
-194.425
 21
-408.36162988
 31
0.0
  0
LINE
  5
E0
100
AcDbEntity
  8
ZUWAKU
  6
CONTINUOUS
 62
      32
100
AcDbLine
 10
-194.425
 20
-408.36162988
 30
0.0
 11
-195.3625
 21
-409.48662988
 31
0.0
  0
LINE
  5
E1
100
AcDbEntity
  8
ZUWAKU
  6
CONTINUOUS
 62
      32
100
AcDbLine
 10
-195.3625
 20
-409.48662988
 30
0.0
 11
-196.3
 21
-410.42412988
 31
0.0
  0
LINE
  5
E2
100
AcDbEntity
  8
ZUWAKU
  6
CONTINUOUS
 62
      32
100
AcDbLine
 10
-196.3
 20
-410.42412988
 30
0.0
 11
-197.6125
 21
-411.36162988
 31
0.0
  0
LINE
  5
E3
100
AcDbEntity
  8
ZUWAKU
  6
CONTINUOUS
 62
      32
100
AcDbLine
 10
-197.6125
 20
-411.36162988
 30
0.0
 11
-203.8
 21
-411.36162988
 31
0.0
  0
LINE
  5
E4
100
AcDbEntity
  8
ZUWAKU
  6
CONTINUOUS
 62
      32
100
AcDbLine
 10
-203.8
 20
-411.36162988
 30
0.0
 11
-204.925
 21
-414.17412988
 31
0.0
  0
LINE
  5
E5
100
AcDbEntity
  8
ZUWAKU
  6
CONTINUOUS
 62
      32
100
AcDbLine
 10
-216.9625
 20
-414.17412988
 30
0.0
 11
-216.025
 21
-411.36162988
 31
0.0
  0
LINE
  5
E6
100
AcDbEntity
  8
ZUWAKU
  6
CONTINUOUS
 62
      32
100
AcDbLine
 10
-216.025
 20
-411.36162988
 30
0.0
 11
-214.3375
 21
-411.36162988
 31
0.0
  0
LINE
  5
E7
100
AcDbEntity
  8
ZUWAKU
  6
CONTINUOUS
 62
      32
100
AcDbLine
 10
-214.3375
 20
-411.36162988
 30
0.0
 11
-212.8375
 21
-411.17412988
 31
0.0
  0
LINE
  5
E8
100
AcDbEntity
  8
ZUWAKU
  6
CONTINUOUS
 62
      32
100
AcDbLine
 10
-212.8375
 20
-411.17412988
 30
0.0
 11
-211.3375
 21
-410.42412988
 31
0.0
  0
LINE
  5
E9
100
AcDbEntity
  8
ZUWAKU
  6
CONTINUOUS
 62
      32
100
AcDbLine
 10
-211.3375
 20
-410.42412988
 30
0.0
 11
-210.4
 21
-408.92412988
 31
0.0
  0
LINE
  5
EA
100
AcDbEntity
  8
ZUWAKU
  6
CONTINUOUS
 62
      32
100
AcDbLine
 10
-210.4
 20
-408.92412988
 30
0.0
 11
-206.8375
 21
-399.36162988
 31
0.0
  0
LINE
  5
EB
100
AcDbEntity
  8
ZUWAKU
  6
CONTINUOUS
 62
      32
100
AcDbLine
 10
-206.8375
 20
-399.36162988
 30
0.0
 11
-201.775
 21
-399.36162988
 31
0.0
  0
LINE
  5
EC
100
AcDbEntity
  8
ZUWAKU
  6
CONTINUOUS
 62
      32
100
AcDbLine
 10
-201.775
 20
-399.36162988
 30
0.0
 11
-205.525
 21
-410.42412988
 31
0.0
  0
LINE
  5
ED
100
AcDbEntity
  8
ZUWAKU
  6
CONTINUOUS
 62
      32
100
AcDbLine
 10
-205.525
 20
-410.42412988
 30
0.0
 11
-207.025
 21
-411.92412988
 31
0.0
  0
LINE
  5
EE
100
AcDbEntity
  8
ZUWAKU
  6
CONTINUOUS
 62
      32
100
AcDbLine
 10
-207.025
 20
-411.92412988
 30
0.0
 11
-208.525
 21
-413.23662988
 31
0.0
  0
LINE
  5
EF
100
AcDbEntity
  8
ZUWAKU
  6
CONTINUOUS
 62
      32
100
AcDbLine
 10
-208.525
 20
-413.23662988
 30
0.0
 11
-210.4
 21
-413.98662988
 31
0.0
  0
LINE
  5
F0
100
AcDbEntity
  8
ZUWAKU
  6
CONTINUOUS
 62
      32
100
AcDbLine
 10
-166.9
 20
-399.36162988
 30
0.0
 11
-168.025
 21
-401.79912988
 31
0.0
  0
LINE
  5
F1
100
AcDbEntity
  8
ZUWAKU
  6
CONTINUOUS
 62
      32
100
AcDbLine
 10
-168.025
 20
-401.79912988
 30
0.0
 11
-169.9
 21
-403.67412988
 31
0.0
  0
LINE
  5
F2
100
AcDbEntity
  8
ZUWAKU
  6
CONTINUOUS
 62
      32
100
AcDbLine
 10
-168.025
 20
-401.79912988
 30
0.0
 11
-169.9
 21
-403.67412988
 31
0.0
  0
LINE
  5
F3
100
AcDbEntity
  8
ZUWAKU
  6
CONTINUOUS
 62
      32
100
AcDbLine
 10
-169.9
 20
-403.67412988
 30
0.0
 11
-171.9625
 21
-405.17412988
 31
0.0
  0
LINE
  5
F4
100
AcDbEntity
  8
ZUWAKU
  6
CONTINUOUS
 62
      32
100
AcDbLine
 10
-171.9625
 20
-405.17412988
 30
0.0
 11
-174.4
 21
-405.92412988
 31
0.0
  0
LINE
  5
F5
100
AcDbEntity
  8
ZUWAKU
  6
CONTINUOUS
 62
      32
100
AcDbLine
 10
-171.9625
 20
-405.17412988
 30
0.0
 11
-174.4
 21
-405.92412988
 31
0.0
  0
LINE
  5
F6
100
AcDbEntity
  8
ZUWAKU
  6
CONTINUOUS
 62
      32
100
AcDbLine
 10
-174.4
 20
-405.92412988
 30
0.0
 11
-177.2125
 21
-414.17412988
 31
0.0
  0
LINE
  5
F7
100
AcDbEntity
  8
ZUWAKU
  6
CONTINUOUS
 62
      32
100
AcDbLine
 10
-177.2125
 20
-414.17412988
 30
0.0
 11
-183.4
 21
-414.17412988
 31
0.0
  0
LINE
  5
F8
100
AcDbEntity
  8
ZUWAKU
  6
CONTINUOUS
 62
      32
100
AcDbLine
 10
-177.2125
 20
-414.17412988
 30
0.0
 11
-183.4
 21
-414.17412988
 31
0.0
  0
LINE
  5
F9
100
AcDbEntity
  8
ZUWAKU
  6
CONTINUOUS
 62
      32
100
AcDbLine
 10
-181.075
 20
-407.04912988
 30
0.0
 11
-186.775
 21
-407.04912988
 31
0.0
  0
LINE
  5
FA
100
AcDbEntity
  8
ZUWAKU
  6
CONTINUOUS
 62
      32
100
AcDbLine
 10
-186.775
 20
-407.04912988
 30
0.0
 11
-185.8375
 21
-404.42412988
 31
0.0
  0
LINE
  5
FB
100
AcDbEntity
  8
ZUWAKU
  6
CONTINUOUS
 62
      32
100
AcDbLine
 10
-183.4
 20
-414.17412988
 30
0.0
 11
-180.775
 21
-407.04912988
 31
0.0
  0
LINE
  5
FC
100
AcDbEntity
  8
ZUWAKU
  6
CONTINUOUS
 62
      32
100
AcDbLine
 10
-183.4
 20
-414.17412988
 30
0.0
 11
-180.775
 21
-407.04912988
 31
0.0
  0
LINE
  5
FD
100
AcDbEntity
  8
ZUWAKU
  6
CONTINUOUS
 62
      32
100
AcDbLine
 10
-185.8375
 20
-404.42412988
 30
0.0
 11
-182.275
 21
-404.42412988
 31
0.0
  0
LINE
  5
FE
100
AcDbEntity
  8
ZUWAKU
  6
CONTINUOUS
 62
      32
100
AcDbLine
 10
-185.8375
 20
-404.42412988
 30
0.0
 11
-182.275
 21
-404.42412988
 31
0.0
  0
LINE
  5
FF
100
AcDbEntity
  8
ZUWAKU
  6
CONTINUOUS
 62
      32
100
AcDbLine
 10
-182.275
 20
-404.42412988
 30
0.0
 11
-179.8375
 21
-404.23662988
 31
0.0
  0
LINE
  5
100
100
AcDbEntity
  8
ZUWAKU
  6
CONTINUOUS
 62
      32
100
AcDbLine
 10
-182.275
 20
-404.42412988
 30
0.0
 11
-179.8375
 21
-404.23662988
 31
0.0
  0
LINE
  5
101
100
AcDbEntity
  8
ZUWAKU
  6
CONTINUOUS
 62
      32
100
AcDbLine
 10
-179.8375
 20
-404.23662988
 30
0.0
 11
-177.2125
 21
-403.11162988
 31
0.0
  0
LINE
  5
102
100
AcDbEntity
  8
ZUWAKU
  6
CONTINUOUS
 62
      32
100
AcDbLine
 10
-179.8375
 20
-404.23662988
 30
0.0
 11
-177.2125
 21
-403.11162988
 31
0.0
  0
LINE
  5
103
100
AcDbEntity
  8
ZUWAKU
  6
CONTINUOUS
 62
      32
100
AcDbLine
 10
-177.2125
 20
-403.11162988
 30
0.0
 11
-175.3375
 21
-401.42412988
 31
0.0
  0
LINE
  5
104
100
AcDbEntity
  8
ZUWAKU
  6
CONTINUOUS
 62
      32
100
AcDbLine
 10
-177.2125
 20
-403.11162988
 30
0.0
 11
-175.3375
 21
-401.42412988
 31
0.0
  0
LINE
  5
105
100
AcDbEntity
  8
ZUWAKU
  6
CONTINUOUS
 62
      32
100
AcDbLine
 10
-210.5875
 20
-399.36162988
 30
0.0
 11
-213.9625
 21
-408.36162988
 31
0.0
  0
LINE
  5
106
100
AcDbEntity
  8
ZUWAKU
  6
CONTINUOUS
 62
      32
100
AcDbLine
 10
-213.9625
 20
-408.36162988
 30
0.0
 11
-218.275
 21
-408.36162988
 31
0.0
  0
LINE
  5
107
100
AcDbEntity
  8
ZUWAKU
  6
CONTINUOUS
 62
      32
100
AcDbLine
 10
-213.9625
 20
-408.36162988
 30
0.0
 11
-218.275
 21
-408.36162988
 31
0.0
  0
LINE
  5
108
100
AcDbEntity
  8
ZUWAKU
  6
CONTINUOUS
 62
      32
100
AcDbLine
 10
-218.275
 20
-408.36162988
 30
0.0
 11
-215.0875
 21
-399.36162988
 31
0.0
  0
LINE
  5
109
100
AcDbEntity
  8
ZUWAKU
  6
CONTINUOUS
 62
      32
100
AcDbLine
 10
-215.0875
 20
-399.36162988
 30
0.0
 11
-210.5875
 21
-399.36162988
 31
0.0
  0
LINE
  5
10A
100
AcDbEntity
  8
ZUWAKU
  6
CONTINUOUS
 62
      32
100
AcDbLine
 10
-215.0875
 20
-399.36162988
 30
0.0
 11
-210.5875
 21
-399.36162988
 31
0.0
  0
LINE
  5
10B
100
AcDbEntity
  8
ZUWAKU
  6
CONTINUOUS
 62
      32
100
AcDbLine
 10
-148.75
 20
-399.36162988
 30
0.0
 11
-149.875
 21
-402.73662988
 31
0.0
  0
LINE
  5
10C
100
AcDbEntity
  8
ZUWAKU
  6
CONTINUOUS
 62
      32
100
AcDbLine
 10
-149.875
 20
-402.73662988
 30
0.0
 11
-143.875
 21
-402.73662988
 31
0.0
  0
LINE
  5
10D
100
AcDbEntity
  8
ZUWAKU
  6
CONTINUOUS
 62
      32
100
AcDbLine
 10
-149.875
 20
-402.73662988
 30
0.0
 11
-143.875
 21
-402.73662988
 31
0.0
  0
LINE
  5
10E
100
AcDbEntity
  8
ZUWAKU
  6
CONTINUOUS
 62
      32
100
AcDbLine
 10
-154.0
 20
-411.17412988
 30
0.0
 11
-155.125
 21
-414.36162988
 31
0.0
  0
LINE
  5
10F
100
AcDbEntity
  8
ZUWAKU
  6
CONTINUOUS
 62
      32
100
AcDbLine
 10
-154.0
 20
-411.17412988
 30
0.0
 11
-155.125
 21
-414.36162988
 31
0.0
  0
LINE
  5
110
100
AcDbEntity
  8
ZUWAKU
  6
CONTINUOUS
 62
      32
100
AcDbLine
 10
-155.125
 20
-414.36162988
 30
0.0
 11
-149.5
 21
-413.42412988
 31
0.0
  0
LINE
  5
111
100
AcDbEntity
  8
ZUWAKU
  6
CONTINUOUS
 62
      32
100
AcDbLine
 10
-149.5
 20
-413.42412988
 30
0.0
 11
-146.875
 21
-412.67412988
 31
0.0
  0
LINE
  5
112
100
AcDbEntity
  8
ZUWAKU
  6
CONTINUOUS
 62
      32
100
AcDbLine
 10
-149.5
 20
-413.42412988
 30
0.0
 11
-146.875
 21
-412.67412988
 31
0.0
  0
LINE
  5
113
100
AcDbEntity
  8
ZUWAKU
  6
CONTINUOUS
 62
      32
100
AcDbLine
 10
-144.0625
 20
-411.73662988
 30
0.0
 11
-142.5625
 21
-414.17412988
 31
0.0
  0
LINE
  5
114
100
AcDbEntity
  8
ZUWAKU
  6
CONTINUOUS
 62
      32
100
AcDbLine
 10
-142.5625
 20
-414.17412988
 30
0.0
 11
-137.875
 21
-414.17412988
 31
0.0
  0
LINE
  5
115
100
AcDbEntity
  8
ZUWAKU
  6
CONTINUOUS
 62
      32
100
AcDbLine
 10
-142.5625
 20
-414.17412988
 30
0.0
 11
-137.875
 21
-414.17412988
 31
0.0
  0
LINE
  5
116
100
AcDbEntity
  8
ZUWAKU
  6
CONTINUOUS
 62
      32
100
AcDbLine
 10
-141.0625
 20
-408.92412988
 30
0.0
 11
-139.375
 21
-406.67412988
 31
0.0
  0
LINE
  5
117
100
AcDbEntity
  8
ZUWAKU
  6
CONTINUOUS
 62
      32
100
AcDbLine
 10
-139.375
 20
-406.67412988
 30
0.0
 11
-137.875
 21
-404.42412988
 31
0.0
  0
LINE
  5
118
100
AcDbEntity
  8
ZUWAKU
  6
CONTINUOUS
 62
      32
100
AcDbLine
 10
-137.875
 20
-404.42412988
 30
0.0
 11
-136.75
 21
-401.98662988
 31
0.0
  0
LINE
  5
119
100
AcDbEntity
  8
ZUWAKU
  6
CONTINUOUS
 62
      32
100
AcDbLine
 10
-136.75
 20
-401.98662988
 30
0.0
 11
-136.0
 21
-399.36162988
 31
0.0
  0
LINE
  5
11A
100
AcDbEntity
  8
ZUWAKU
  6
CONTINUOUS
 62
      32
100
AcDbLine
 10
-136.75
 20
-401.98662988
 30
0.0
 11
-136.0
 21
-399.36162988
 31
0.0
  0
LINE
  5
11B
100
AcDbEntity
  8
ZUWAKU
  6
CONTINUOUS
 62
      32
100
AcDbLine
 10
-136.0
 20
-399.36162988
 30
0.0
 11
-148.75
 21
-399.36162988
 31
0.0
  0
LINE
  5
11C
100
AcDbEntity
  8
ZUWAKU
  6
CONTINUOUS
 62
      32
100
AcDbLine
 10
-147.4375
 20
-408.73662988
 30
0.0
 11
-150.4375
 21
-410.42412988
 31
0.0
  0
LINE
  5
11D
100
AcDbEntity
  8
ZUWAKU
  6
CONTINUOUS
 62
      32
100
AcDbLine
 10
-146.875
 20
-412.67412988
 30
0.0
 11
-144.0625
 21
-411.73662988
 31
0.0
  0
LINE
  5
11E
100
AcDbEntity
  8
ZUWAKU
  6
CONTINUOUS
 62
      32
100
AcDbLine
 10
-146.875
 20
-412.67412988
 30
0.0
 11
-144.0625
 21
-411.73662988
 31
0.0
  0
LINE
  5
11F
100
AcDbEntity
  8
ZUWAKU
  6
CONTINUOUS
 62
      32
100
AcDbLine
 10
-137.875
 20
-414.17412988
 30
0.0
 11
-141.0625
 21
-408.92412988
 31
0.0
  0
LINE
  5
120
100
AcDbEntity
  8
ZUWAKU
  6
CONTINUOUS
 62
      32
100
AcDbLine
 10
-137.875
 20
-414.17412988
 30
0.0
 11
-141.0625
 21
-408.92412988
 31
0.0
  0
LINE
  5
121
100
AcDbEntity
  8
ZUWAKU
  6
CONTINUOUS
 62
      32
100
AcDbLine
 10
-145.0
 20
-405.92412988
 30
0.0
 11
-147.4375
 21
-408.73662988
 31
0.0
  0
LINE
  5
122
100
AcDbEntity
  8
ZUWAKU
  6
CONTINUOUS
 62
      32
100
AcDbLine
 10
-145.0
 20
-405.92412988
 30
0.0
 11
-147.4375
 21
-408.73662988
 31
0.0
  0
LINE
  5
123
100
AcDbEntity
  8
ZUWAKU
  6
CONTINUOUS
 62
      32
100
AcDbLine
 10
-182.275
 20
-404.42412988
 30
0.0
 11
-179.8375
 21
-404.23662988
 31
0.0
  0
LINE
  5
124
100
AcDbEntity
  8
ZUWAKU
  6
CONTINUOUS
 62
      32
100
AcDbLine
 10
-179.8375
 20
-404.23662988
 30
0.0
 11
-177.2125
 21
-403.11162988
 31
0.0
  0
LINE
  5
125
100
AcDbEntity
  8
ZUWAKU
  6
CONTINUOUS
 62
      32
100
AcDbLine
 10
-177.2125
 20
-403.11162988
 30
0.0
 11
-175.3375
 21
-401.42412988
 31
0.0
  0
LINE
  5
126
100
AcDbEntity
  8
ZUWAKU
  6
CONTINUOUS
 62
      32
100
AcDbLine
 10
-175.3375
 20
-401.42412988
 30
0.0
 11
-173.8375
 21
-399.36162988
 31
0.0
  0
LINE
  5
127
100
AcDbEntity
  8
ZUWAKU
  6
CONTINUOUS
 62
      32
100
AcDbLine
 10
-160.975
 20
-414.17412988
 30
0.0
 11
-157.6
 21
-412.67412988
 31
0.0
  0
LINE
  5
128
100
AcDbEntity
  8
ZUWAKU
  6
CONTINUOUS
 62
      32
100
AcDbLine
 10
-157.6
 20
-412.67412988
 30
0.0
 11
-154.6
 21
-409.86162988
 31
0.0
  0
LINE
  5
129
100
AcDbEntity
  8
ZUWAKU
  6
CONTINUOUS
 62
      32
100
AcDbLine
 10
-154.6
 20
-409.86162988
 30
0.0
 11
-152.35
 21
-406.11162988
 31
0.0
  0
LINE
  5
12A
100
AcDbEntity
  8
ZUWAKU
  6
CONTINUOUS
 62
      32
100
AcDbLine
 10
-152.35
 20
-406.11162988
 30
0.0
 11
-151.6
 21
-402.17412988
 31
0.0
  0
LINE
  5
12B
100
AcDbEntity
  8
ZUWAKU
  6
CONTINUOUS
 62
      32
100
AcDbLine
 10
-154.0
 20
-411.17412988
 30
0.0
 11
-150.4375
 21
-410.42412988
 31
0.0
  0
LINE
  5
12C
100
AcDbEntity
  8
ZUWAKU
  6
CONTINUOUS
 62
      32
100
AcDbLine
 10
-150.4375
 20
-410.42412988
 30
0.0
 11
-147.4375
 21
-408.73662988
 31
0.0
  0
LINE
  5
12D
100
AcDbEntity
  8
ZUWAKU
  6
CONTINUOUS
 62
      32
100
AcDbLine
 10
-147.4375
 20
-408.73662988
 30
0.0
 11
-145.0
 21
-405.92412988
 31
0.0
  0
LINE
  5
12E
100
AcDbEntity
  8
ZUWAKU
  6
CONTINUOUS
 62
      32
100
AcDbLine
 10
-174.4
 20
-405.92412988
 30
0.0
 11
-171.9625
 21
-405.17412988
 31
0.0
  0
LINE
  5
12F
100
AcDbEntity
  8
ZUWAKU
  6
CONTINUOUS
 62
      32
100
AcDbLine
 10
-171.9625
 20
-405.17412988
 30
0.0
 11
-169.9
 21
-403.67412988
 31
0.0
  0
LINE
  5
130
100
AcDbEntity
  8
ZUWAKU
  6
CONTINUOUS
 62
      32
100
AcDbLine
 10
-169.9
 20
-403.67412988
 30
0.0
 11
-168.025
 21
-401.79912988
 31
0.0
  0
LINE
  5
131
100
AcDbEntity
  8
ZUWAKU
  6
CONTINUOUS
 62
      32
100
AcDbLine
 10
-168.025
 20
-401.79912988
 30
0.0
 11
-166.9
 21
-399.36162988
 31
0.0
  0
LINE
  5
132
100
AcDbEntity
  8
ZUWAKU
  6
CONTINUOUS
 62
      32
100
AcDbLine
 10
-141.0625
 20
-408.92412988
 30
0.0
 11
-139.375
 21
-406.67412988
 31
0.0
  0
LINE
  5
133
100
AcDbEntity
  8
ZUWAKU
  6
CONTINUOUS
 62
      32
100
AcDbLine
 10
-139.375
 20
-406.67412988
 30
0.0
 11
-137.875
 21
-404.42412988
 31
0.0
  0
LINE
  5
134
100
AcDbEntity
  8
ZUWAKU
  6
CONTINUOUS
 62
      32
100
AcDbLine
 10
-137.875
 20
-404.42412988
 30
0.0
 11
-136.75
 21
-401.98662988
 31
0.0
  0
LINE
  5
135
100
AcDbEntity
  8
ZUWAKU
  6
CONTINUOUS
 62
      32
100
AcDbLine
 10
-136.75
 20
-401.98662988
 30
0.0
 11
-136.0
 21
-399.36162988
 31
0.0
  0
LINE
  5
136
100
AcDbEntity
  8
ZUWAKU
  6
CONTINUOUS
 62
      32
100
AcDbLine
 10
-149.5
 20
-413.42412988
 30
0.0
 11
-146.875
 21
-412.67412988
 31
0.0
  0
LINE
  5
137
100
AcDbEntity
  8
ZUWAKU
  6
CONTINUOUS
 62
      32
100
AcDbLine
 10
-146.875
 20
-412.67412988
 30
0.0
 11
-144.0625
 21
-411.73662988
 31
0.0
  0
LINE
  5
138
100
AcDbEntity
  8
ZUWAKU
  6
CONTINUOUS
 62
      32
100
AcDbLine
 10
-154.4125
 20
-404.61162988
 30
0.0
 11
-153.475
 21
-402.17412988
 31
0.0
  0
LINE
  5
139
100
AcDbEntity
  8
ZUWAKU
  6
CONTINUOUS
 62
      32
100
AcDbLine
 10
-153.475
 20
-402.17412988
 30
0.0
 11
-151.6
 21
-402.17412988
 31
0.0
  0
LINE
  5
13A
100
AcDbEntity
  8
ZUWAKU
  6
CONTINUOUS
 62
      32
100
AcDbLine
 10
-153.475
 20
-402.17412988
 30
0.0
 11
-151.6
 21
-402.17412988
 31
0.0
  0
LINE
  5
13B
100
AcDbEntity
  8
ZUWAKU
  6
CONTINUOUS
 62
      32
100
AcDbLine
 10
-151.6
 20
-402.17412988
 30
0.0
 11
-152.35
 21
-406.11162988
 31
0.0
  0
LINE
  5
13C
100
AcDbEntity
  8
ZUWAKU
  6
CONTINUOUS
 62
      32
100
AcDbLine
 10
-152.35
 20
-406.11162988
 30
0.0
 11
-154.6
 21
-409.86162988
 31
0.0
  0
LINE
  5
13D
100
AcDbEntity
  8
ZUWAKU
  6
CONTINUOUS
 62
      32
100
AcDbLine
 10
-152.35
 20
-406.11162988
 30
0.0
 11
-154.6
 21
-409.86162988
 31
0.0
  0
LINE
  5
13E
100
AcDbEntity
  8
ZUWAKU
  6
CONTINUOUS
 62
      32
100
AcDbLine
 10
-154.6
 20
-409.86162988
 30
0.0
 11
-157.6
 21
-412.67412988
 31
0.0
  0
LINE
  5
13F
100
AcDbEntity
  8
ZUWAKU
  6
CONTINUOUS
 62
      32
100
AcDbLine
 10
-161.35
 20
-414.17412988
 30
0.0
 11
-170.9125
 21
-414.17412988
 31
0.0
  0
LINE
  5
140
100
AcDbEntity
  8
ZUWAKU
  6
CONTINUOUS
 62
      32
100
AcDbLine
 10
-170.9125
 20
-414.17412988
 30
0.0
 11
-169.225
 21
-409.48662988
 31
0.0
  0
LINE
  5
141
100
AcDbEntity
  8
ZUWAKU
  6
CONTINUOUS
 62
      32
100
AcDbLine
 10
-170.9125
 20
-414.17412988
 30
0.0
 11
-169.225
 21
-409.48662988
 31
0.0
  0
LINE
  5
142
100
AcDbEntity
  8
ZUWAKU
  6
CONTINUOUS
 62
      32
100
AcDbLine
 10
-155.9125
 20
-406.67412988
 30
0.0
 11
-154.4125
 21
-404.61162988
 31
0.0
  0
LINE
  5
143
100
AcDbEntity
  8
ZUWAKU
  6
CONTINUOUS
 62
      32
100
AcDbLine
 10
-169.225
 20
-409.48662988
 30
0.0
 11
-160.225
 21
-409.48662988
 31
0.0
  0
LINE
  5
144
100
AcDbEntity
  8
ZUWAKU
  6
CONTINUOUS
 62
      32
100
AcDbLine
 10
-169.225
 20
-409.48662988
 30
0.0
 11
-160.225
 21
-409.48662988
 31
0.0
  0
LINE
  5
145
100
AcDbEntity
  8
ZUWAKU
  6
CONTINUOUS
 62
      32
100
AcDbLine
 10
-160.225
 20
-409.48662988
 30
0.0
 11
-157.975
 21
-408.36162988
 31
0.0
  0
LINE
  5
146
100
AcDbEntity
  8
ZUWAKU
  6
CONTINUOUS
 62
      32
100
AcDbLine
 10
-160.225
 20
-409.48662988
 30
0.0
 11
-157.975
 21
-408.36162988
 31
0.0
  0
LINE
  5
147
100
AcDbEntity
  8
ZUWAKU
  6
CONTINUOUS
 62
      32
100
AcDbLine
 10
-157.975
 20
-408.36162988
 30
0.0
 11
-155.9125
 21
-406.67412988
 31
0.0
  0
LINE
  5
148
100
AcDbEntity
  8
ZUWAKU
  6
CONTINUOUS
 62
      32
100
AcDbLine
 10
-187.675
 20
-404.42412988
 30
0.0
 11
-189.925
 21
-410.61162988
 31
0.0
  0
LINE
  5
149
100
AcDbEntity
  8
ZUWAKU
  6
CONTINUOUS
 62
      32
100
AcDbLine
 10
-189.925
 20
-410.61162988
 30
0.0
 11
-191.2375
 21
-411.92412988
 31
0.0
  0
LINE
  5
14A
100
AcDbEntity
  8
ZUWAKU
  6
CONTINUOUS
 62
      32
100
AcDbLine
 10
-189.925
 20
-410.61162988
 30
0.0
 11
-191.2375
 21
-411.92412988
 31
0.0
  0
LINE
  5
14B
100
AcDbEntity
  8
ZUWAKU
  6
CONTINUOUS
 62
      32
100
AcDbLine
 10
-191.2375
 20
-411.92412988
 30
0.0
 11
-192.3625
 21
-413.04912988
 31
0.0
  0
LINE
  5
14C
100
AcDbEntity
  8
ZUWAKU
  6
CONTINUOUS
 62
      32
100
AcDbLine
 10
-192.3625
 20
-413.04912988
 30
0.0
 11
-193.8625
 21
-413.79912988
 31
0.0
  0
LINE
  5
14D
100
AcDbEntity
  8
ZUWAKU
  6
CONTINUOUS
 62
      32
100
AcDbLine
 10
-192.3625
 20
-413.04912988
 30
0.0
 11
-193.8625
 21
-413.79912988
 31
0.0
  0
LINE
  5
14E
100
AcDbEntity
  8
ZUWAKU
  6
CONTINUOUS
 62
      32
100
AcDbLine
 10
-193.8625
 20
-413.79912988
 30
0.0
 11
-195.3625
 21
-414.17412988
 31
0.0
  0
LINE
  5
14F
100
AcDbEntity
  8
ZUWAKU
  6
CONTINUOUS
 62
      32
100
AcDbLine
 10
-195.3625
 20
-414.17412988
 30
0.0
 11
-204.925
 21
-414.17412988
 31
0.0
  0
LINE
  5
150
100
AcDbEntity
  8
ZUWAKU
  6
CONTINUOUS
 62
      32
100
AcDbLine
 10
-195.3625
 20
-414.17412988
 30
0.0
 11
-204.925
 21
-414.17412988
 31
0.0
  0
LINE
  5
151
100
AcDbEntity
  8
ZUWAKU
  6
CONTINUOUS
 62
      32
100
AcDbLine
 10
-204.925
 20
-414.17412988
 30
0.0
 11
-203.8
 21
-411.36162988
 31
0.0
  0
LINE
  5
152
100
AcDbEntity
  8
ZUWAKU
  6
CONTINUOUS
 62
      32
100
AcDbLine
 10
-203.8
 20
-411.36162988
 30
0.0
 11
-197.6125
 21
-411.36162988
 31
0.0
  0
LINE
  5
153
100
AcDbEntity
  8
ZUWAKU
  6
CONTINUOUS
 62
      32
100
AcDbLine
 10
-203.8
 20
-411.36162988
 30
0.0
 11
-197.6125
 21
-411.36162988
 31
0.0
  0
LINE
  5
154
100
AcDbEntity
  8
ZUWAKU
  6
CONTINUOUS
 62
      32
100
AcDbLine
 10
-194.05
 20
-407.04912988
 30
0.0
 11
-201.925
 21
-407.04912988
 31
0.0
  0
LINE
  5
155
100
AcDbEntity
  8
ZUWAKU
  6
CONTINUOUS
 62
      32
100
AcDbLine
 10
-201.925
 20
-407.04912988
 30
0.0
 11
-201.175
 21
-404.42412988
 31
0.0
  0
LINE
  5
156
100
AcDbEntity
  8
ZUWAKU
  6
CONTINUOUS
 62
      32
100
AcDbLine
 10
-201.925
 20
-407.04912988
 30
0.0
 11
-201.175
 21
-404.42412988
 31
0.0
  0
LINE
  5
157
100
AcDbEntity
  8
ZUWAKU
  6
CONTINUOUS
 62
      32
100
AcDbLine
 10
-197.6125
 20
-411.36162988
 30
0.0
 11
-196.3
 21
-410.42412988
 31
0.0
  0
LINE
  5
158
100
AcDbEntity
  8
ZUWAKU
  6
CONTINUOUS
 62
      32
100
AcDbLine
 10
-197.6125
 20
-411.36162988
 30
0.0
 11
-196.3
 21
-410.42412988
 31
0.0
  0
LINE
  5
159
100
AcDbEntity
  8
ZUWAKU
  6
CONTINUOUS
 62
      32
100
AcDbLine
 10
-196.3
 20
-410.42412988
 30
0.0
 11
-195.3625
 21
-409.48662988
 31
0.0
  0
LINE
  5
15A
100
AcDbEntity
  8
ZUWAKU
  6
CONTINUOUS
 62
      32
100
AcDbLine
 10
-196.3
 20
-410.42412988
 30
0.0
 11
-195.3625
 21
-409.48662988
 31
0.0
  0
LINE
  5
15B
100
AcDbEntity
  8
ZUWAKU
  6
CONTINUOUS
 62
      32
100
AcDbLine
 10
-195.3625
 20
-409.48662988
 30
0.0
 11
-194.425
 21
-408.36162988
 31
0.0
  0
LINE
  5
15C
100
AcDbEntity
  8
ZUWAKU
  6
CONTINUOUS
 62
      32
100
AcDbLine
 10
-195.3625
 20
-409.48662988
 30
0.0
 11
-194.425
 21
-408.36162988
 31
0.0
  0
LINE
  5
15D
100
AcDbEntity
  8
ZUWAKU
  6
CONTINUOUS
 62
      32
100
AcDbLine
 10
-194.425
 20
-408.36162988
 30
0.0
 11
-194.05
 21
-407.04912988
 31
0.0
  0
LINE
  5
15E
100
AcDbEntity
  8
ZUWAKU
  6
CONTINUOUS
 62
      32
100
AcDbLine
 10
-194.425
 20
-408.36162988
 30
0.0
 11
-194.05
 21
-407.04912988
 31
0.0
  0
LINE
  5
15F
100
AcDbEntity
  8
ZUWAKU
  6
CONTINUOUS
 62
      32
100
AcDbLine
 10
-206.2375
 20
-399.36162988
 30
0.0
 11
-202.11398879
 21
-399.36162988
 31
0.0
  0
LINE
  5
160
100
AcDbEntity
  8
ZUWAKU
  6
CONTINUOUS
 62
      32
100
AcDbLine
 10
-205.525
 20
-410.42412988
 30
0.0
 11
-207.025
 21
-411.92412988
 31
0.0
  0
LINE
  5
161
100
AcDbEntity
  8
ZUWAKU
  6
CONTINUOUS
 62
      32
100
AcDbLine
 10
-207.025
 20
-411.92412988
 30
0.0
 11
-208.525
 21
-413.23662988
 31
0.0
  0
LINE
  5
162
100
AcDbEntity
  8
ZUWAKU
  6
CONTINUOUS
 62
      32
100
AcDbLine
 10
-207.025
 20
-411.92412988
 30
0.0
 11
-208.525
 21
-413.23662988
 31
0.0
  0
LINE
  5
163
100
AcDbEntity
  8
ZUWAKU
  6
CONTINUOUS
 62
      32
100
AcDbLine
 10
-208.525
 20
-413.23662988
 30
0.0
 11
-210.4
 21
-413.98662988
 31
0.0
  0
LINE
  5
164
100
AcDbEntity
  8
ZUWAKU
  6
CONTINUOUS
 62
      32
100
AcDbLine
 10
-210.4
 20
-413.98662988
 30
0.0
 11
-212.275
 21
-414.17412988
 31
0.0
  0
LINE
  5
165
100
AcDbEntity
  8
ZUWAKU
  6
CONTINUOUS
 62
      32
100
AcDbLine
 10
-212.275
 20
-414.17412988
 30
0.0
 11
-216.9625
 21
-414.17412988
 31
0.0
  0
LINE
  5
166
100
AcDbEntity
  8
ZUWAKU
  6
CONTINUOUS
 62
      32
100
AcDbLine
 10
-216.9625
 20
-414.17412988
 30
0.0
 11
-216.025
 21
-411.36162988
 31
0.0
  0
LINE
  5
167
100
AcDbEntity
  8
ZUWAKU
  6
CONTINUOUS
 62
      32
100
AcDbLine
 10
-216.9625
 20
-414.17412988
 30
0.0
 11
-216.025
 21
-411.36162988
 31
0.0
  0
LINE
  5
168
100
AcDbEntity
  8
ZUWAKU
  6
CONTINUOUS
 62
      32
100
AcDbLine
 10
-210.4
 20
-408.92412988
 30
0.0
 11
-206.8375
 21
-399.36162988
 31
0.0
  0
LINE
  5
169
100
AcDbEntity
  8
ZUWAKU
  6
CONTINUOUS
 62
      32
100
AcDbLine
 10
-216.025
 20
-411.36162988
 30
0.0
 11
-214.3375
 21
-411.36162988
 31
0.0
  0
LINE
  5
16A
100
AcDbEntity
  8
ZUWAKU
  6
CONTINUOUS
 62
      32
100
AcDbLine
 10
-216.025
 20
-411.36162988
 30
0.0
 11
-214.3375
 21
-411.36162988
 31
0.0
  0
LINE
  5
16B
100
AcDbEntity
  8
ZUWAKU
  6
CONTINUOUS
 62
      32
100
AcDbLine
 10
-211.3375
 20
-410.42412988
 30
0.0
 11
-210.4
 21
-408.92412988
 31
0.0
  0
LINE
  5
16C
100
AcDbEntity
  8
ZUWAKU
  6
CONTINUOUS
 62
      32
100
AcDbLine
 10
-212.8375
 20
-411.17412988
 30
0.0
 11
-211.3375
 21
-410.42412988
 31
0.0
  0
LINE
  5
16D
100
AcDbEntity
  8
ZUWAKU
  6
CONTINUOUS
 62
      32
100
AcDbLine
 10
-214.3375
 20
-411.36162988
 30
0.0
 11
-212.8375
 21
-411.17412988
 31
0.0
  0
LINE
  5
16E
100
AcDbEntity
  8
ZUWAKU
  6
CONTINUOUS
 62
      32
100
AcDbLine
 10
-214.3375
 20
-411.36162988
 30
0.0
 11
-212.8375
 21
-411.17412988
 31
0.0
  0
LINE
  5
16F
100
AcDbEntity
  8
ZUWAKU
  6
CONTINUOUS
 62
      32
100
AcDbLine
 10
-165.475
 20
-399.36162988
 30
0.0
 11
-159.475
 21
-399.36162988
 31
0.0
  0
LINE
  5
170
100
AcDbEntity
  8
ZUWAKU
  6
CONTINUOUS
 62
      32
100
AcDbLine
 10
-159.475
 20
-399.36162988
 30
0.0
 11
-160.6
 21
-402.73662988
 31
0.0
  0
LINE
  5
171
100
AcDbEntity
  8
ZUWAKU
  6
CONTINUOUS
 62
      32
100
AcDbLine
 10
-159.475
 20
-399.36162988
 30
0.0
 11
-160.6
 21
-402.73662988
 31
0.0
  0
LINE
  5
172
100
AcDbEntity
  8
ZUWAKU
  6
CONTINUOUS
 62
      32
100
AcDbLine
 10
-160.9
 20
-402.73662988
 30
0.0
 11
-166.7875
 21
-402.73662988
 31
0.0
  0
LINE
  5
173
100
AcDbEntity
  8
ZUWAKU
  6
CONTINUOUS
 62
      32
100
AcDbLine
 10
-143.25272308
 20
-402.71168646
 30
0.0
 11
-145.0
 21
-405.92412988
 31
0.0
  0
LINE
  5
174
100
AcDbEntity
  8
ZUWAKU
  6
CONTINUOUS
 62
      32
100
AcDbLine
 10
-138.0625
 20
-399.36162988
 30
0.0
 11
-147.4375
 21
-408.73662988
 31
0.0
  0
LINE
  5
175
100
AcDbEntity
  8
ZUWAKU
  6
CONTINUOUS
 62
      32
100
AcDbLine
 10
-147.4375
 20
-408.73662988
 30
0.0
 11
-152.65
 21
-413.94912988
 31
0.0
  0
LINE
  5
176
100
AcDbEntity
  8
ZUWAKU
  6
CONTINUOUS
 62
      32
100
AcDbLine
 10
-138.91102814
 20
-399.36162988
 30
0.0
 11
-144.43529641
 21
-404.88589815
 31
0.0
  0
LINE
  5
177
100
AcDbEntity
  8
ZUWAKU
  6
CONTINUOUS
 62
      32
100
AcDbLine
 10
-149.37699289
 20
-409.82759463
 30
0.0
 11
-153.66823376
 21
-414.11883551
 31
0.0
  0
LINE
  5
178
100
AcDbEntity
  8
ZUWAKU
  6
CONTINUOUS
 62
      32
100
AcDbLine
 10
-139.75955627
 20
-399.36162988
 30
0.0
 11
-143.42338845
 21
-403.02546206
 31
0.0
  0
LINE
  5
179
100
AcDbEntity
  8
ZUWAKU
  6
CONTINUOUS
 62
      32
100
AcDbLine
 10
-150.92460461
 20
-410.52667822
 30
0.0
 11
-154.68646753
 21
-414.28854114
 31
0.0
  0
LINE
  5
17A
100
AcDbEntity
  8
ZUWAKU
  6
CONTINUOUS
 62
      32
100
AcDbLine
 10
-140.60808441
 20
-399.36162988
 30
0.0
 11
-143.98308441
 21
-402.73662988
 31
0.0
  0
LINE
  5
17B
100
AcDbEntity
  8
ZUWAKU
  6
CONTINUOUS
 62
      32
100
AcDbLine
 10
-151.99940692
 20
-410.75295239
 30
0.0
 11
-154.86149941
 21
-413.61504488
 31
0.0
  0
LINE
  5
17C
100
AcDbEntity
  8
ZUWAKU
  6
CONTINUOUS
 62
      32
100
AcDbLine
 10
-141.45661255
 20
-399.36162988
 30
0.0
 11
-144.83161255
 21
-402.73662988
 31
0.0
  0
LINE
  5
17D
100
AcDbEntity
  8
ZUWAKU
  6
CONTINUOUS
 62
      32
100
AcDbLine
 10
-153.07420923
 20
-410.97922656
 30
0.0
 11
-154.39866588
 21
-412.30368321
 31
0.0
  0
LINE
  5
17E
100
AcDbEntity
  8
ZUWAKU
  6
CONTINUOUS
 62
      32
100
AcDbLine
 10
-142.30514069
 20
-399.36162988
 30
0.0
 11
-145.68014069
 21
-402.73662988
 31
0.0
  0
LINE
  5
17F
100
AcDbEntity
  8
ZUWAKU
  6
CONTINUOUS
 62
      32
100
AcDbLine
 10
-143.15366882
 20
-399.36162988
 30
0.0
 11
-146.52866882
 21
-402.73662988
 31
0.0
  0
LINE
  5
180
100
AcDbEntity
  8
ZUWAKU
  6
CONTINUOUS
 62
      32
100
AcDbLine
 10
-144.00219696
 20
-399.36162988
 30
0.0
 11
-147.37719696
 21
-402.73662988
 31
0.0
  0
LINE
  5
181
100
AcDbEntity
  8
ZUWAKU
  6
CONTINUOUS
 62
      32
100
AcDbLine
 10
-144.8507251
 20
-399.36162988
 30
0.0
 11
-148.2257251
 21
-402.73662988
 31
0.0
  0
LINE
  5
182
100
AcDbEntity
  8
ZUWAKU
  6
CONTINUOUS
 62
      32
100
AcDbLine
 10
-145.69925324
 20
-399.36162988
 30
0.0
 11
-149.07425324
 21
-402.73662988
 31
0.0
  0
LINE
  5
183
100
AcDbEntity
  8
ZUWAKU
  6
CONTINUOUS
 62
      32
100
AcDbLine
 10
-146.54778137
 20
-399.36162988
 30
0.0
 11
-149.85110931
 21
-402.66495782
 31
0.0
  0
LINE
  5
184
100
AcDbEntity
  8
ZUWAKU
  6
CONTINUOUS
 62
      32
100
AcDbLine
 10
-147.39630951
 20
-399.36162988
 30
0.0
 11
-149.42684524
 21
-401.39216561
 31
0.0
  0
LINE
  5
185
100
AcDbEntity
  8
ZUWAKU
  6
CONTINUOUS
 62
      32
100
AcDbLine
 10
-148.24483765
 20
-399.36162988
 30
0.0
 11
-149.00258118
 21
-400.11937341
 31
0.0
  0
LINE
  5
186
100
AcDbEntity
  8
ZUWAKU
  6
CONTINUOUS
 62
      32
100
AcDbLine
 10
-137.21397186
 20
-399.36162988
 30
0.0
 11
-151.63176624
 21
-413.77942425
 31
0.0
  0
LINE
  5
187
100
AcDbEntity
  8
ZUWAKU
  6
CONTINUOUS
 62
      32
100
AcDbLine
 10
-136.36544373
 20
-399.36162988
 30
0.0
 11
-150.61353247
 21
-413.60971863
 31
0.0
  0
LINE
  5
188
100
AcDbEntity
  8
ZUWAKU
  6
CONTINUOUS
 62
      32
100
AcDbLine
 10
-136.19323376
 20
-400.03794806
 30
0.0
 11
-149.59529871
 21
-413.440013
 31
0.0
  0
LINE
  5
189
100
AcDbEntity
  8
ZUWAKU
  6
CONTINUOUS
 62
      32
100
AcDbLine
 10
-136.53264502
 20
-401.22588745
 30
0.0
 11
-148.42324243
 21
-413.11648486
 31
0.0
  0
LINE
  5
18A
100
AcDbEntity
  8
ZUWAKU
  6
CONTINUOUS
 62
      32
100
AcDbLine
 10
-137.01154916
 20
-402.55331973
 30
0.0
 11
-147.23530304
 21
-412.77707361
 31
0.0
  0
LINE
  5
18B
100
AcDbEntity
  8
ZUWAKU
  6
CONTINUOUS
 62
      32
100
AcDbLine
 10
-137.73885899
 20
-404.1291577
 30
0.0
 11
-145.98824676
 21
-412.37854547
 31
0.0
  0
LINE
  5
18C
100
AcDbEntity
  8
ZUWAKU
  6
CONTINUOUS
 62
      32
100
AcDbLine
 10
-139.25439392
 20
-406.49322077
 30
0.0
 11
-144.71545456
 21
-411.9542814
 31
0.0
  0
LINE
  5
18D
100
AcDbEntity
  8
ZUWAKU
  6
CONTINUOUS
 62
      32
100
AcDbLine
 10
-140.97722607
 20
-409.06458105
 30
0.0
 11
-143.90508091
 21
-411.9924359
 31
0.0
  0
LINE
  5
18E
100
AcDbEntity
  8
ZUWAKU
  6
CONTINUOUS
 62
      32
100
AcDbLine
 10
-140.656671
 20
-409.59255412
 30
0.0
 11
-143.5818321
 21
-412.51771522
 31
0.0
  0
LINE
  5
18F
100
AcDbEntity
  8
ZUWAKU
  6
CONTINUOUS
 62
      32
100
AcDbLine
 10
-140.33611593
 20
-410.12052718
 30
0.0
 11
-143.25858329
 21
-413.04299454
 31
0.0
  0
LINE
  5
190
100
AcDbEntity
  8
ZUWAKU
  6
CONTINUOUS
 62
      32
100
AcDbLine
 10
-140.01556085
 20
-410.64850024
 30
0.0
 11
-142.93533447
 21
-413.56827386
 31
0.0
  0
LINE
  5
191
100
AcDbEntity
  8
ZUWAKU
  6
CONTINUOUS
 62
      32
100
AcDbLine
 10
-139.69500578
 20
-411.17647331
 30
0.0
 11
-142.61208566
 21
-414.09355319
 31
0.0
  0
LINE
  5
192
100
AcDbEntity
  8
ZUWAKU
  6
CONTINUOUS
 62
      32
100
AcDbLine
 10
-139.3744507
 20
-411.70444637
 30
0.0
 11
-141.84413421
 21
-414.17412988
 31
0.0
  0
LINE
  5
193
100
AcDbEntity
  8
ZUWAKU
  6
CONTINUOUS
 62
      32
100
AcDbLine
 10
-139.05389563
 20
-412.23241943
 30
0.0
 11
-140.99560608
 21
-414.17412988
 31
0.0
  0
LINE
  5
194
100
AcDbEntity
  8
ZUWAKU
  6
CONTINUOUS
 62
      32
100
AcDbLine
 10
-138.73334055
 20
-412.7603925
 30
0.0
 11
-140.14707794
 21
-414.17412988
 31
0.0
  0
LINE
  5
195
100
AcDbEntity
  8
ZUWAKU
  6
CONTINUOUS
 62
      32
100
AcDbLine
 10
-138.41278548
 20
-413.28836556
 30
0.0
 11
-139.2985498
 21
-414.17412988
 31
0.0
  0
LINE
  5
196
100
AcDbEntity
  8
ZUWAKU
  6
CONTINUOUS
 62
      32
100
AcDbLine
 10
-138.09223041
 20
-413.81633862
 30
0.0
 11
-138.45002166
 21
-414.17412988
 31
0.0
  0
LINE
  5
197
100
AcDbEntity
  8
ZUWAKU
  6
CONTINUOUS
 62
      32
100
AcDbLine
 10
-161.44375
 20
-399.36162988
 30
0.0
 11
-164.81875
 21
-402.73662988
 31
0.0
  0
LINE
  5
198
100
AcDbEntity
  8
ZUWAKU
  6
CONTINUOUS
 62
      32
100
AcDbLine
 10
-162.29227814
 20
-399.36162988
 30
0.0
 11
-165.66727814
 21
-402.73662988
 31
0.0
  0
LINE
  5
199
100
AcDbEntity
  8
ZUWAKU
  6
CONTINUOUS
 62
      32
100
AcDbLine
 10
-163.14080627
 20
-399.36162988
 30
0.0
 11
-166.51580627
 21
-402.73662988
 31
0.0
  0
LINE
  5
19A
100
AcDbEntity
  8
ZUWAKU
  6
CONTINUOUS
 62
      32
100
AcDbLine
 10
-163.98933441
 20
-399.36162988
 30
0.0
 11
-166.42042356
 21
-401.79271902
 31
0.0
  0
LINE
  5
19B
100
AcDbEntity
  8
ZUWAKU
  6
CONTINUOUS
 62
      32
100
AcDbLine
 10
-164.83786255
 20
-399.36162988
 30
0.0
 11
-165.8804511
 21
-400.40421844
 31
0.0
  0
LINE
  5
19C
100
AcDbEntity
  8
ZUWAKU
  6
CONTINUOUS
 62
      32
100
AcDbLine
 10
-160.59522186
 20
-399.36162988
 30
0.0
 11
-163.97022186
 21
-402.73662988
 31
0.0
  0
LINE
  5
19D
100
AcDbEntity
  8
ZUWAKU
  6
CONTINUOUS
 62
      32
100
AcDbLine
 10
-159.74669373
 20
-399.36162988
 30
0.0
 11
-163.12169373
 21
-402.73662988
 31
0.0
  0
LINE
  5
19E
100
AcDbEntity
  8
ZUWAKU
  6
CONTINUOUS
 62
      32
100
AcDbLine
 10
-159.76341721
 20
-400.2268815
 30
0.0
 11
-162.27316559
 21
-402.73662988
 31
0.0
  0
LINE
  5
19F
100
AcDbEntity
  8
ZUWAKU
  6
CONTINUOUS
 62
      32
100
AcDbLine
 10
-160.18768127
 20
-401.49967371
 30
0.0
 11
-161.42463745
 21
-402.73662988
 31
0.0
  0
LINE
  5
1A0
100
AcDbEntity
  8
ZUWAKU
  6
CONTINUOUS
 62
      32
100
AcDbLine
 10
-160.57610931
 20
-402.73662988
 30
0.0
 11
-160.61194534
 21
-402.77246591
 31
0.0
  0
LINE
  5
1A1
100
AcDbEntity
  8
ZUWAKU
  6
CONTINUOUS
 62
      32
100
AcDbLine
 10
-162.56875
 20
-409.48662988
 30
0.0
 11
-167.25625
 21
-414.17412988
 31
0.0
  0
LINE
  5
1A2
100
AcDbEntity
  8
ZUWAKU
  6
CONTINUOUS
 62
      32
100
AcDbLine
 10
-163.41727814
 20
-409.48662988
 30
0.0
 11
-168.10477814
 21
-414.17412988
 31
0.0
  0
LINE
  5
1A3
100
AcDbEntity
  8
ZUWAKU
  6
CONTINUOUS
 62
      32
100
AcDbLine
 10
-164.26580627
 20
-409.48662988
 30
0.0
 11
-168.95330627
 21
-414.17412988
 31
0.0
  0
LINE
  5
1A4
100
AcDbEntity
  8
ZUWAKU
  6
CONTINUOUS
 62
      32
100
AcDbLine
 10
-165.11433441
 20
-409.48662988
 30
0.0
 11
-169.80183441
 21
-414.17412988
 31
0.0
  0
LINE
  5
1A5
100
AcDbEntity
  8
ZUWAKU
  6
CONTINUOUS
 62
      32
100
AcDbLine
 10
-165.96286255
 20
-409.48662988
 30
0.0
 11
-170.65036255
 21
-414.17412988
 31
0.0
  0
LINE
  5
1A6
100
AcDbEntity
  8
ZUWAKU
  6
CONTINUOUS
 62
      32
100
AcDbLine
 10
-166.81139069
 20
-409.48662988
 30
0.0
 11
-170.58265524
 21
-413.25789443
 31
0.0
  0
LINE
  5
1A7
100
AcDbEntity
  8
ZUWAKU
  6
CONTINUOUS
 62
      32
100
AcDbLine
 10
-167.65991882
 20
-409.48662988
 30
0.0
 11
-170.10535816
 21
-411.93206922
 31
0.0
  0
LINE
  5
1A8
100
AcDbEntity
  8
ZUWAKU
  6
CONTINUOUS
 62
      32
100
AcDbLine
 10
-168.50844696
 20
-409.48662988
 30
0.0
 11
-169.62806108
 21
-410.606244
 31
0.0
  0
LINE
  5
1A9
100
AcDbEntity
  8
ZUWAKU
  6
CONTINUOUS
 62
      32
100
AcDbLine
 10
-161.72022186
 20
-409.48662988
 30
0.0
 11
-166.40772186
 21
-414.17412988
 31
0.0
  0
LINE
  5
1AA
100
AcDbEntity
  8
ZUWAKU
  6
CONTINUOUS
 62
      32
100
AcDbLine
 10
-160.87169373
 20
-409.48662988
 30
0.0
 11
-165.55919373
 21
-414.17412988
 31
0.0
  0
LINE
  5
1AB
100
AcDbEntity
  8
ZUWAKU
  6
CONTINUOUS
 62
      32
100
AcDbLine
 10
-152.71066559
 20
-402.17412988
 30
0.0
 11
-153.95270901
 21
-403.4161733
 31
0.0
  0
LINE
  5
1AC
100
AcDbEntity
  8
ZUWAKU
  6
CONTINUOUS
 62
      32
100
AcDbLine
 10
-159.82133118
 20
-409.28479547
 30
0.0
 11
-164.71066559
 21
-414.17412988
 31
0.0
  0
LINE
  5
1AD
100
AcDbEntity
  8
ZUWAKU
  6
CONTINUOUS
 62
      32
100
AcDbLine
 10
-151.86213745
 20
-402.17412988
 30
0.0
 11
-154.7134668
 21
-405.02545923
 31
0.0
  0
LINE
  5
1AE
100
AcDbEntity
  8
ZUWAKU
  6
CONTINUOUS
 62
      32
100
AcDbLine
 10
-158.1242749
 20
-408.43626733
 30
0.0
 11
-163.86213745
 21
-414.17412988
 31
0.0
  0
LINE
  5
1AF
100
AcDbEntity
  8
ZUWAKU
  6
CONTINUOUS
 62
      32
100
AcDbLine
 10
-151.73797428
 20
-402.89849485
 30
0.0
 11
-163.01360931
 21
-414.17412988
 31
0.0
  0
LINE
  5
1B0
100
AcDbEntity
  8
ZUWAKU
  6
CONTINUOUS
 62
      32
100
AcDbLine
 10
-151.93762796
 20
-403.94667666
 30
0.0
 11
-162.16508118
 21
-414.17412988
 31
0.0
  0
LINE
  5
1B1
100
AcDbEntity
  8
ZUWAKU
  6
CONTINUOUS
 62
      32
100
AcDbLine
 10
-152.13728164
 20
-404.99485848
 30
0.0
 11
-161.31655304
 21
-414.17412988
 31
0.0
  0
LINE
  5
1B2
100
AcDbEntity
  8
ZUWAKU
  6
CONTINUOUS
 62
      32
100
AcDbLine
 10
-152.33693532
 20
-406.0430403
 30
0.0
 11
-160.06244482
 21
-413.7685498
 31
0.0
  0
LINE
  5
1B3
100
AcDbEntity
  8
ZUWAKU
  6
CONTINUOUS
 62
      32
100
AcDbLine
 10
-153.53950486
 20
-408.09413797
 30
0.0
 11
-158.53509417
 21
-413.08972729
 31
0.0
  0
LINE
  5
1B4
100
AcDbEntity
  8
ZUWAKU
  6
CONTINUOUS
 62
      32
100
AcDbLine
 10
-169.43125
 20
-399.36162988
 30
0.0
 11
-182.9078125
 21
-412.83819238
 31
0.0
  0
LINE
  5
1B5
100
AcDbEntity
  8
ZUWAKU
  6
CONTINUOUS
 62
      32
100
AcDbLine
 10
-170.27977814
 20
-399.36162988
 30
0.0
 11
-182.41283775
 21
-411.4946895
 31
0.0
  0
LINE
  5
1B6
100
AcDbEntity
  8
ZUWAKU
  6
CONTINUOUS
 62
      32
100
AcDbLine
 10
-171.12830627
 20
-399.36162988
 30
0.0
 11
-181.91786301
 21
-410.15118661
 31
0.0
  0
LINE
  5
1B7
100
AcDbEntity
  8
ZUWAKU
  6
CONTINUOUS
 62
      32
100
AcDbLine
 10
-171.97683441
 20
-399.36162988
 30
0.0
 11
-181.42288826
 21
-408.80768373
 31
0.0
  0
LINE
  5
1B8
100
AcDbEntity
  8
ZUWAKU
  6
CONTINUOUS
 62
      32
100
AcDbLine
 10
-172.82536255
 20
-399.36162988
 30
0.0
 11
-180.92791351
 21
-407.46418084
 31
0.0
  0
LINE
  5
1B9
100
AcDbEntity
  8
ZUWAKU
  6
CONTINUOUS
 62
      32
100
AcDbLine
 10
-173.67389069
 20
-399.36162988
 30
0.0
 11
-174.2737915
 21
-399.9615307
 31
0.0
  0
LINE
  5
1BA
100
AcDbEntity
  8
ZUWAKU
  6
CONTINUOUS
 62
      32
100
AcDbLine
 10
-177.5824337
 20
-403.2701729
 30
0.0
 11
-181.36139069
 21
-407.04912988
 31
0.0
  0
LINE
  5
1BB
100
AcDbEntity
  8
ZUWAKU
  6
CONTINUOUS
 62
      32
100
AcDbLine
 10
-179.06735794
 20
-403.906569
 30
0.0
 11
-182.20991882
 21
-407.04912988
 31
0.0
  0
LINE
  5
1BC
100
AcDbEntity
  8
ZUWAKU
  6
CONTINUOUS
 62
      32
100
AcDbLine
 10
-180.27998421
 20
-404.27066713
 30
0.0
 11
-183.05844696
 21
-407.04912988
 31
0.0
  0
LINE
  5
1BD
100
AcDbEntity
  8
ZUWAKU
  6
CONTINUOUS
 62
      32
100
AcDbLine
 10
-181.19922302
 20
-404.34137781
 30
0.0
 11
-183.9069751
 21
-407.04912988
 31
0.0
  0
LINE
  5
1BE
100
AcDbEntity
  8
ZUWAKU
  6
CONTINUOUS
 62
      32
100
AcDbLine
 10
-182.11846184
 20
-404.41208848
 30
0.0
 11
-184.75550324
 21
-407.04912988
 31
0.0
  0
LINE
  5
1BF
100
AcDbEntity
  8
ZUWAKU
  6
CONTINUOUS
 62
      32
100
AcDbLine
 10
-182.97903137
 20
-404.42412988
 30
0.0
 11
-185.60403137
 21
-407.04912988
 31
0.0
  0
LINE
  5
1C0
100
AcDbEntity
  8
ZUWAKU
  6
CONTINUOUS
 62
      32
100
AcDbLine
 10
-183.82755951
 20
-404.42412988
 30
0.0
 11
-186.45255951
 21
-407.04912988
 31
0.0
  0
LINE
  5
1C1
100
AcDbEntity
  8
ZUWAKU
  6
CONTINUOUS
 62
      32
100
AcDbLine
 10
-184.67608765
 20
-404.42412988
 30
0.0
 11
-186.48272908
 21
-406.23077132
 31
0.0
  0
LINE
  5
1C2
100
AcDbEntity
  8
ZUWAKU
  6
CONTINUOUS
 62
      32
100
AcDbLine
 10
-185.52461579
 20
-404.42412988
 30
0.0
 11
-186.01132456
 21
-404.91083866
 31
0.0
  0
LINE
  5
1C3
100
AcDbEntity
  8
ZUWAKU
  6
CONTINUOUS
 62
      32
100
AcDbLine
 10
-168.58272186
 20
-399.36162988
 30
0.0
 11
-183.40278725
 21
-414.18169527
 31
0.0
  0
LINE
  5
1C4
100
AcDbEntity
  8
ZUWAKU
  6
CONTINUOUS
 62
      32
100
AcDbLine
 10
-167.73419373
 20
-399.36162988
 30
0.0
 11
-174.25077983
 21
-405.87821598
 31
0.0
  0
LINE
  5
1C5
100
AcDbEntity
  8
ZUWAKU
  6
CONTINUOUS
 62
      32
100
AcDbLine
 10
-174.45343428
 20
-406.08087044
 30
0.0
 11
-182.54669373
 21
-414.17412988
 31
0.0
  0
LINE
  5
1C6
100
AcDbEntity
  8
ZUWAKU
  6
CONTINUOUS
 62
      32
100
AcDbLine
 10
-166.88566559
 20
-399.36162988
 30
0.0
 11
-173.02512807
 21
-405.50109236
 31
0.0
  0
LINE
  5
1C7
100
AcDbEntity
  8
ZUWAKU
  6
CONTINUOUS
 62
      32
100
AcDbLine
 10
-174.89232814
 20
-407.36829244
 30
0.0
 11
-181.69816559
 21
-414.17412988
 31
0.0
  0
LINE
  5
1C8
100
AcDbEntity
  8
ZUWAKU
  6
CONTINUOUS
 62
      32
100
AcDbLine
 10
-167.63959647
 20
-400.9640889
 30
0.0
 11
-171.54867065
 21
-404.87316308
 31
0.0
  0
LINE
  5
1C9
100
AcDbEntity
  8
ZUWAKU
  6
CONTINUOUS
 62
      32
100
AcDbLine
 10
-175.33122201
 20
-408.65571444
 30
0.0
 11
-180.84963745
 21
-414.17412988
 31
0.0
  0
LINE
  5
1CA
100
AcDbEntity
  8
ZUWAKU
  6
CONTINUOUS
 62
      32
100
AcDbLine
 10
-175.77011587
 20
-409.94313644
 30
0.0
 11
-180.00110931
 21
-414.17412988
 31
0.0
  0
LINE
  5
1CB
100
AcDbEntity
  8
ZUWAKU
  6
CONTINUOUS
 62
      32
100
AcDbLine
 10
-176.20900974
 20
-411.23055844
 30
0.0
 11
-179.15258118
 21
-414.17412988
 31
0.0
  0
LINE
  5
1CC
100
AcDbEntity
  8
ZUWAKU
  6
CONTINUOUS
 62
      32
100
AcDbLine
 10
-176.6479036
 20
-412.51798044
 30
0.0
 11
-178.30405304
 21
-414.17412988
 31
0.0
  0
LINE
  5
1CD
100
AcDbEntity
  8
ZUWAKU
  6
CONTINUOUS
 62
      32
100
AcDbLine
 10
-177.08679747
 20
-413.80540245
 30
0.0
 11
-177.4555249
 21
-414.17412988
 31
0.0
  0
LINE
  5
1CE
100
AcDbEntity
  8
ZUWAKU
  6
CONTINUOUS
 62
      32
100
AcDbLine
 10
-191.70625
 20
-399.36162988
 30
0.0
 11
-195.08125
 21
-402.73662988
 31
0.0
  0
LINE
  5
1CF
100
AcDbEntity
  8
ZUWAKU
  6
CONTINUOUS
 62
      32
100
AcDbLine
 10
-192.55477814
 20
-399.36162988
 30
0.0
 11
-195.92977814
 21
-402.73662988
 31
0.0
  0
LINE
  5
1D0
100
AcDbEntity
  8
ZUWAKU
  6
CONTINUOUS
 62
      32
100
AcDbLine
 10
-193.40330627
 20
-399.36162988
 30
0.0
 11
-196.77830627
 21
-402.73662988
 31
0.0
  0
LINE
  5
1D1
100
AcDbEntity
  8
ZUWAKU
  6
CONTINUOUS
 62
      32
100
AcDbLine
 10
-194.25183441
 20
-399.36162988
 30
0.0
 11
-197.62683441
 21
-402.73662988
 31
0.0
  0
LINE
  5
1D2
100
AcDbEntity
  8
ZUWAKU
  6
CONTINUOUS
 62
      32
100
AcDbLine
 10
-195.10036255
 20
-399.36162988
 30
0.0
 11
-198.47536255
 21
-402.73662988
 31
0.0
  0
LINE
  5
1D3
100
AcDbEntity
  8
ZUWAKU
  6
CONTINUOUS
 62
      32
100
AcDbLine
 10
-195.94889069
 20
-399.36162988
 30
0.0
 11
-199.32389069
 21
-402.73662988
 31
0.0
  0
LINE
  5
1D4
100
AcDbEntity
  8
ZUWAKU
  6
CONTINUOUS
 62
      32
100
AcDbLine
 10
-196.79741882
 20
-399.36162988
 30
0.0
 11
-200.17241882
 21
-402.73662988
 31
0.0
  0
LINE
  5
1D5
100
AcDbEntity
  8
ZUWAKU
  6
CONTINUOUS
 62
      32
100
AcDbLine
 10
-197.64594696
 20
-399.36162988
 30
0.0
 11
-200.68952652
 21
-402.40520944
 31
0.0
  0
LINE
  5
1D6
100
AcDbEntity
  8
ZUWAKU
  6
CONTINUOUS
 62
      32
100
AcDbLine
 10
-198.4944751
 20
-399.36162988
 30
0.0
 11
-200.26526245
 21
-401.13241723
 31
0.0
  0
LINE
  5
1D7
100
AcDbEntity
  8
ZUWAKU
  6
CONTINUOUS
 62
      32
100
AcDbLine
 10
-199.34300324
 20
-399.36162988
 30
0.0
 11
-199.84099838
 21
-399.85962503
 31
0.0
  0
LINE
  5
1D8
100
AcDbEntity
  8
ZUWAKU
  6
CONTINUOUS
 62
      32
100
AcDbLine
 10
-190.85772186
 20
-399.36162988
 30
0.0
 11
-194.23272186
 21
-402.73662988
 31
0.0
  0
LINE
  5
1D9
100
AcDbEntity
  8
ZUWAKU
  6
CONTINUOUS
 62
      32
100
AcDbLine
 10
-190.00919373
 20
-399.36162988
 30
0.0
 11
-193.38419373
 21
-402.73662988
 31
0.0
  0
LINE
  5
1DA
100
AcDbEntity
  8
ZUWAKU
  6
CONTINUOUS
 62
      32
100
AcDbLine
 10
-189.16066559
 20
-399.36162988
 30
0.0
 11
-192.53566559
 21
-402.73662988
 31
0.0
  0
LINE
  5
1DB
100
AcDbEntity
  8
ZUWAKU
  6
CONTINUOUS
 62
      32
100
AcDbLine
 10
-188.31213745
 20
-399.36162988
 30
0.0
 11
-191.68713745
 21
-402.73662988
 31
0.0
  0
LINE
  5
1DC
100
AcDbEntity
  8
ZUWAKU
  6
CONTINUOUS
 62
      32
100
AcDbLine
 10
-187.46360931
 20
-399.36162988
 30
0.0
 11
-190.83860931
 21
-402.73662988
 31
0.0
  0
LINE
  5
1DD
100
AcDbEntity
  8
ZUWAKU
  6
CONTINUOUS
 62
      32
100
AcDbLine
 10
-186.61508118
 20
-399.36162988
 30
0.0
 11
-189.99008118
 21
-402.73662988
 31
0.0
  0
LINE
  5
1DE
100
AcDbEntity
  8
ZUWAKU
  6
CONTINUOUS
 62
      32
100
AcDbLine
 10
-186.09797348
 20
-399.69305032
 30
0.0
 11
-189.14155304
 21
-402.73662988
 31
0.0
  0
LINE
  5
1DF
100
AcDbEntity
  8
ZUWAKU
  6
CONTINUOUS
 62
      32
100
AcDbLine
 10
-186.52223755
 20
-400.96584253
 30
0.0
 11
-188.2930249
 21
-402.73662988
 31
0.0
  0
LINE
  5
1E0
100
AcDbEntity
  8
ZUWAKU
  6
CONTINUOUS
 62
      32
100
AcDbLine
 10
-186.94650162
 20
-402.23863474
 30
0.0
 11
-187.44449676
 21
-402.73662988
 31
0.0
  0
LINE
  5
1E1
100
AcDbEntity
  8
ZUWAKU
  6
CONTINUOUS
 62
      32
100
AcDbLine
 10
-191.425
 20
-404.42412988
 30
0.0
 11
-194.05
 21
-407.04912988
 31
0.0
  0
LINE
  5
1E2
100
AcDbEntity
  8
ZUWAKU
  6
CONTINUOUS
 62
      32
100
AcDbLine
 10
-198.3625
 20
-411.36162988
 30
0.0
 11
-201.175
 21
-414.17412988
 31
0.0
  0
LINE
  5
1E3
100
AcDbEntity
  8
ZUWAKU
  6
CONTINUOUS
 62
      32
100
AcDbLine
 10
-192.27352814
 20
-404.42412988
 30
0.0
 11
-194.89852814
 21
-407.04912988
 31
0.0
  0
LINE
  5
1E4
100
AcDbEntity
  8
ZUWAKU
  6
CONTINUOUS
 62
      32
100
AcDbLine
 10
-199.21102814
 20
-411.36162988
 30
0.0
 11
-202.02352814
 21
-414.17412988
 31
0.0
  0
LINE
  5
1E5
100
AcDbEntity
  8
ZUWAKU
  6
CONTINUOUS
 62
      32
100
AcDbLine
 10
-193.12205627
 20
-404.42412988
 30
0.0
 11
-195.74705627
 21
-407.04912988
 31
0.0
  0
LINE
  5
1E6
100
AcDbEntity
  8
ZUWAKU
  6
CONTINUOUS
 62
      32
100
AcDbLine
 10
-200.05955627
 20
-411.36162988
 30
0.0
 11
-202.87205627
 21
-414.17412988
 31
0.0
  0
LINE
  5
1E7
100
AcDbEntity
  8
ZUWAKU
  6
CONTINUOUS
 62
      32
100
AcDbLine
 10
-193.97058441
 20
-404.42412988
 30
0.0
 11
-196.59558441
 21
-407.04912988
 31
0.0
  0
LINE
  5
1E8
100
AcDbEntity
  8
ZUWAKU
  6
CONTINUOUS
 62
      32
100
AcDbLine
 10
-200.90808441
 20
-411.36162988
 30
0.0
 11
-203.72058441
 21
-414.17412988
 31
0.0
  0
LINE
  5
1E9
100
AcDbEntity
  8
ZUWAKU
  6
CONTINUOUS
 62
      32
100
AcDbLine
 10
-194.81911255
 20
-404.42412988
 30
0.0
 11
-197.44411255
 21
-407.04912988
 31
0.0
  0
LINE
  5
1EA
100
AcDbEntity
  8
ZUWAKU
  6
CONTINUOUS
 62
      32
100
AcDbLine
 10
-201.75661255
 20
-411.36162988
 30
0.0
 11
-204.56911255
 21
-414.17412988
 31
0.0
  0
LINE
  5
1EB
100
AcDbEntity
  8
ZUWAKU
  6
CONTINUOUS
 62
      32
100
AcDbLine
 10
-195.66764069
 20
-404.42412988
 30
0.0
 11
-198.29264069
 21
-407.04912988
 31
0.0
  0
LINE
  5
1EC
100
AcDbEntity
  8
ZUWAKU
  6
CONTINUOUS
 62
      32
100
AcDbLine
 10
-202.60514069
 20
-411.36162988
 30
0.0
 11
-204.59657288
 21
-413.35306207
 31
0.0
  0
LINE
  5
1ED
100
AcDbEntity
  8
ZUWAKU
  6
CONTINUOUS
 62
      32
100
AcDbLine
 10
-196.51616882
 20
-404.42412988
 30
0.0
 11
-199.14116882
 21
-407.04912988
 31
0.0
  0
LINE
  5
1EE
100
AcDbEntity
  8
ZUWAKU
  6
CONTINUOUS
 62
      32
100
AcDbLine
 10
-203.45366882
 20
-411.36162988
 30
0.0
 11
-204.03088745
 21
-411.93884851
 31
0.0
  0
LINE
  5
1EF
100
AcDbEntity
  8
ZUWAKU
  6
CONTINUOUS
 62
      32
100
AcDbLine
 10
-197.36469696
 20
-404.42412988
 30
0.0
 11
-199.98969696
 21
-407.04912988
 31
0.0
  0
LINE
  5
1F0
100
AcDbEntity
  8
ZUWAKU
  6
CONTINUOUS
 62
      32
100
AcDbLine
 10
-198.2132251
 20
-404.42412988
 30
0.0
 11
-200.8382251
 21
-407.04912988
 31
0.0
  0
LINE
  5
1F1
100
AcDbEntity
  8
ZUWAKU
  6
CONTINUOUS
 62
      32
100
AcDbLine
 10
-199.06175324
 20
-404.42412988
 30
0.0
 11
-201.68675324
 21
-407.04912988
 31
0.0
  0
LINE
  5
1F2
100
AcDbEntity
  8
ZUWAKU
  6
CONTINUOUS
 62
      32
100
AcDbLine
 10
-199.91028137
 20
-404.42412988
 30
0.0
 11
-201.68088745
 21
-406.19473596
 31
0.0
  0
LINE
  5
1F3
100
AcDbEntity
  8
ZUWAKU
  6
CONTINUOUS
 62
      32
100
AcDbLine
 10
-200.75880951
 20
-404.42412988
 30
0.0
 11
-201.3414762
 21
-405.00679656
 31
0.0
  0
LINE
  5
1F4
100
AcDbEntity
  8
ZUWAKU
  6
CONTINUOUS
 62
      32
100
AcDbLine
 10
-190.57647186
 20
-404.42412988
 30
0.0
 11
-194.38941125
 21
-408.23706927
 31
0.0
  0
LINE
  5
1F5
100
AcDbEntity
  8
ZUWAKU
  6
CONTINUOUS
 62
      32
100
AcDbLine
 10
-197.26765152
 20
-411.11530954
 30
0.0
 11
-200.32647186
 21
-414.17412988
 31
0.0
  0
LINE
  5
1F6
100
AcDbEntity
  8
ZUWAKU
  6
CONTINUOUS
 62
      32
100
AcDbLine
 10
-189.72794373
 20
-404.42412988
 30
0.0
 11
-199.47794373
 21
-414.17412988
 31
0.0
  0
LINE
  5
1F7
100
AcDbEntity
  8
ZUWAKU
  6
CONTINUOUS
 62
      32
100
AcDbLine
 10
-188.87941559
 20
-404.42412988
 30
0.0
 11
-198.62941559
 21
-414.17412988
 31
0.0
  0
LINE
  5
1F8
100
AcDbEntity
  8
ZUWAKU
  6
CONTINUOUS
 62
      32
100
AcDbLine
 10
-188.03088745
 20
-404.42412988
 30
0.0
 11
-197.78088745
 21
-414.17412988
 31
0.0
  0
LINE
  5
1F9
100
AcDbEntity
  8
ZUWAKU
  6
CONTINUOUS
 62
      32
100
AcDbLine
 10
-187.95650896
 20
-405.19827953
 30
0.0
 11
-196.93235931
 21
-414.17412988
 31
0.0
  0
LINE
  5
1FA
100
AcDbEntity
  8
ZUWAKU
  6
CONTINUOUS
 62
      32
100
AcDbLine
 10
-188.44138219
 20
-406.53168089
 30
0.0
 11
-196.08383118
 21
-414.17412988
 31
0.0
  0
LINE
  5
1FB
100
AcDbEntity
  8
ZUWAKU
  6
CONTINUOUS
 62
      32
100
AcDbLine
 10
-188.92625541
 20
-407.86508225
 30
0.0
 11
-195.19290405
 21
-414.13173089
 31
0.0
  0
LINE
  5
1FC
100
AcDbEntity
  8
ZUWAKU
  6
CONTINUOUS
 62
      32
100
AcDbLine
 10
-189.41112863
 20
-409.19848361
 30
0.0
 11
-194.0615332
 21
-413.84888818
 31
0.0
  0
LINE
  5
1FD
100
AcDbEntity
  8
ZUWAKU
  6
CONTINUOUS
 62
      32
100
AcDbLine
 10
-189.89600185
 20
-410.53188497
 30
0.0
 11
-192.46399353
 21
-413.09987664
 31
0.0
  0
LINE
  5
1FE
100
AcDbEntity
  8
ZUWAKU
  6
CONTINUOUS
 62
      32
100
AcDbLine
 10
-201.9625
 20
-399.36162988
 30
0.0
 11
-209.73203125
 21
-407.13116113
 31
0.0
  0
LINE
  5
1FF
100
AcDbEntity
  8
ZUWAKU
  6
CONTINUOUS
 62
      32
100
AcDbLine
 10
-213.90892857
 20
-411.30805845
 30
0.0
 11
-216.775
 21
-414.17412988
 31
0.0
  0
LINE
  5
200
100
AcDbEntity
  8
ZUWAKU
  6
CONTINUOUS
 62
      32
100
AcDbLine
 10
-202.81102814
 20
-399.36162988
 30
0.0
 11
-209.22821767
 21
-405.77881941
 31
0.0
  0
LINE
  5
201
100
AcDbEntity
  8
ZUWAKU
  6
CONTINUOUS
 62
      32
100
AcDbLine
 10
-214.81102814
 20
-411.36162988
 30
0.0
 11
-216.63198593
 21
-413.18258768
 31
0.0
  0
LINE
  5
202
100
AcDbEntity
  8
ZUWAKU
  6
CONTINUOUS
 62
      32
100
AcDbLine
 10
-203.65955627
 20
-399.36162988
 30
0.0
 11
-208.72440409
 21
-404.42647769
 31
0.0
  0
LINE
  5
203
100
AcDbEntity
  8
ZUWAKU
  6
CONTINUOUS
 62
      32
100
AcDbLine
 10
-215.65955627
 20
-411.36162988
 30
0.0
 11
-216.20772186
 21
-411.90979547
 31
0.0
  0
LINE
  5
204
100
AcDbEntity
  8
ZUWAKU
  6
CONTINUOUS
 62
      32
100
AcDbLine
 10
-204.50808441
 20
-399.36162988
 30
0.0
 11
-208.22059051
 21
-403.07413597
 31
0.0
  0
LINE
  5
205
100
AcDbEntity
  8
ZUWAKU
  6
CONTINUOUS
 62
      32
100
AcDbLine
 10
-205.35661255
 20
-399.36162988
 30
0.0
 11
-207.71677692
 21
-401.72179426
 31
0.0
  0
LINE
  5
206
100
AcDbEntity
  8
ZUWAKU
  6
CONTINUOUS
 62
      32
100
AcDbLine
 10
-206.20514069
 20
-399.36162988
 30
0.0
 11
-207.21296334
 21
-400.36945254
 31
0.0
  0
LINE
  5
207
100
AcDbEntity
  8
ZUWAKU
  6
CONTINUOUS
 62
      32
100
AcDbLine
 10
-202.11398879
 20
-400.36164681
 30
0.0
 11
-210.23584483
 21
-408.48350285
 31
0.0
  0
LINE
  5
208
100
AcDbEntity
  8
ZUWAKU
  6
CONTINUOUS
 62
      32
100
AcDbLine
 10
-212.93918213
 20
-411.18684015
 30
0.0
 11
-215.92647186
 21
-414.17412988
 31
0.0
  0
LINE
  5
209
100
AcDbEntity
  8
ZUWAKU
  6
CONTINUOUS
 62
      32
100
AcDbLine
 10
-202.54913142
 20
-401.64531758
 30
0.0
 11
-211.31838745
 21
-410.41457361
 31
0.0
  0
LINE
  5
20A
100
AcDbEntity
  8
ZUWAKU
  6
CONTINUOUS
 62
      32
100
AcDbLine
 10
-211.35342712
 20
-410.44961328
 30
0.0
 11
-215.07794373
 21
-414.17412988
 31
0.0
  0
LINE
  5
20B
100
AcDbEntity
  8
ZUWAKU
  6
CONTINUOUS
 62
      32
100
AcDbLine
 10
-202.98427406
 20
-402.92898835
 30
0.0
 11
-214.22941559
 21
-414.17412988
 31
0.0
  0
LINE
  5
20C
100
AcDbEntity
  8
ZUWAKU
  6
CONTINUOUS
 62
      32
100
AcDbLine
 10
-203.41941669
 20
-404.21265912
 30
0.0
 11
-213.38088745
 21
-414.17412988
 31
0.0
  0
LINE
  5
20D
100
AcDbEntity
  8
ZUWAKU
  6
CONTINUOUS
 62
      32
100
AcDbLine
 10
-203.85455933
 20
-405.4963299
 30
0.0
 11
-212.53235931
 21
-414.17412988
 31
0.0
  0
LINE
  5
20E
100
AcDbEntity
  8
ZUWAKU
  6
CONTINUOUS
 62
      32
100
AcDbLine
 10
-204.28970196
 20
-406.78000067
 30
0.0
 11
-211.61814575
 21
-414.10844446
 31
0.0
  0
LINE
  5
20F
100
AcDbEntity
  8
ZUWAKU
  6
CONTINUOUS
 62
      32
100
AcDbLine
 10
-204.7248446
 20
-408.06367144
 30
0.0
 11
-210.67533671
 21
-414.01416355
 31
0.0
  0
LINE
  5
210
100
AcDbEntity
  8
ZUWAKU
  6
CONTINUOUS
 62
      32
100
AcDbLine
 10
-205.15998723
 20
-409.34734221
 30
0.0
 11
-209.3987915
 21
-413.58614648
 31
0.0
  0
LINE
  5
211
100
AcDbEntity
  8
ZUWAKU
  6
CONTINUOUS
 62
      32
100
AcDbLine
 10
-210.98125
 20
-400.41162988
 30
0.0
 11
-217.91512097
 21
-407.34550085
 31
0.0
  0
LINE
  5
212
100
AcDbEntity
  8
ZUWAKU
  6
CONTINUOUS
 62
      32
100
AcDbLine
 10
-210.77977814
 20
-399.36162988
 30
0.0
 11
-217.44979909
 21
-406.03165083
 31
0.0
  0
LINE
  5
213
100
AcDbEntity
  8
ZUWAKU
  6
CONTINUOUS
 62
      32
100
AcDbLine
 10
-211.62830627
 20
-399.36162988
 30
0.0
 11
-216.9844772
 21
-404.71780081
 31
0.0
  0
LINE
  5
214
100
AcDbEntity
  8
ZUWAKU
  6
CONTINUOUS
 62
      32
100
AcDbLine
 10
-212.47683441
 20
-399.36162988
 30
0.0
 11
-216.51915532
 21
-403.40395079
 31
0.0
  0
LINE
  5
215
100
AcDbEntity
  8
ZUWAKU
  6
CONTINUOUS
 62
      32
100
AcDbLine
 10
-213.32536255
 20
-399.36162988
 30
0.0
 11
-216.05383344
 21
-402.09010077
 31
0.0
  0
LINE
  5
216
100
AcDbEntity
  8
ZUWAKU
  6
CONTINUOUS
 62
      32
100
AcDbLine
 10
-214.17389069
 20
-399.36162988
 30
0.0
 11
-215.58851156
 21
-400.77625075
 31
0.0
  0
LINE
  5
217
100
AcDbEntity
  8
ZUWAKU
  6
CONTINUOUS
 62
      32
100
AcDbLine
 10
-215.02241882
 20
-399.36162988
 30
0.0
 11
-215.12318968
 21
-399.46240073
 31
0.0
  0
LINE
  5
218
100
AcDbEntity
  8
ZUWAKU
  6
CONTINUOUS
 62
      32
100
AcDbLine
 10
-211.49036688
 20
-401.7692749
 30
0.0
 11
-218.08272186
 21
-408.36162988
 31
0.0
  0
LINE
  5
219
100
AcDbEntity
  8
ZUWAKU
  6
CONTINUOUS
 62
      32
100
AcDbLine
 10
-211.99948376
 20
-403.12691992
 30
0.0
 11
-217.23419373
 21
-408.36162988
 31
0.0
  0
LINE
  5
21A
100
AcDbEntity
  8
ZUWAKU
  6
CONTINUOUS
 62
      32
100
AcDbLine
 10
-212.50860065
 20
-404.48456494
 30
0.0
 11
-216.38566559
 21
-408.36162988
 31
0.0
  0
LINE
  5
21B
100
AcDbEntity
  8
ZUWAKU
  6
CONTINUOUS
 62
      32
100
AcDbLine
 10
-213.01771753
 20
-405.84220996
 30
0.0
 11
-215.53713745
 21
-408.36162988
 31
0.0
  0
LINE
  5
21C
100
AcDbEntity
  8
ZUWAKU
  6
CONTINUOUS
 62
      32
100
AcDbLine
 10
-213.52683441
 20
-407.19985498
 30
0.0
 11
-214.68860931
 21
-408.36162988
 31
0.0
  0
LINE
  5
21D
100
AcDbEntity
  8
ZUWAKU
  6
CONTINUOUS
 62
      32
100
AcDbLine
 10
297.5
 20
300.38837012
 30
0.0
 11
314.0
 21
300.38837012
 31
0.0
  0
LINE
  5
21E
100
AcDbEntity
  8
ZUWAKU
  6
CONTINUOUS
 62
      32
100
AcDbLine
 10
297.5
 20
285.38837012
 30
0.0
 11
314.0
 21
285.38837012
 31
0.0
  0
LINE
  5
21F
100
AcDbEntity
  8
ZUWAKU
  6
CONTINUOUS
 62
      32
100
AcDbLine
 10
314.0
 20
300.38837012
 30
0.0
 11
314.0
 21
285.38837012
 31
0.0
  0
LINE
  5
220
100
AcDbEntity
  8
ZUWAKU
  6
CONTINUOUS
 62
      32
100
AcDbLine
 10
297.5
 20
300.38837012
 30
0.0
 11
297.5
 21
285.38837012
 31
0.0
  0
LINE
  5
221
100
AcDbEntity
  8
ZUWAKU
  6
CONTINUOUS
 62
      32
100
AcDbLine
 10
314.0
 20
285.44059958
 30
0.0
 11
313.94777054
 21
285.38837012
 31
0.0
  0
LINE
  5
222
100
AcDbEntity
  8
ZUWAKU
  6
CONTINUOUS
 62
      32
100
AcDbLine
 10
305.19616453
 20
300.38837012
 30
0.0
 11
297.5
 21
292.69220559
 31
0.0
  0
LINE
  5
223
100
AcDbEntity
  8
ZUWAKU
  6
CONTINUOUS
 62
      32
100
AcDbLine
 10
304.34763639
 20
300.38837012
 30
0.0
 11
297.5
 21
293.54073372
 31
0.0
  0
LINE
  5
224
100
AcDbEntity
  8
ZUWAKU
  6
CONTINUOUS
 62
      32
100
AcDbLine
 10
303.49910826
 20
300.38837012
 30
0.0
 11
297.5
 21
294.38926186
 31
0.0
  0
LINE
  5
225
100
AcDbEntity
  8
ZUWAKU
  6
CONTINUOUS
 62
      32
100
AcDbLine
 10
302.65058012
 20
300.38837012
 30
0.0
 11
297.5
 21
295.23779
 31
0.0
  0
LINE
  5
226
100
AcDbEntity
  8
ZUWAKU
  6
CONTINUOUS
 62
      32
100
AcDbLine
 10
301.80205198
 20
300.38837012
 30
0.0
 11
297.5
 21
296.08631814
 31
0.0
  0
LINE
  5
227
100
AcDbEntity
  8
ZUWAKU
  6
CONTINUOUS
 62
      32
100
AcDbLine
 10
300.95352384
 20
300.38837012
 30
0.0
 11
297.5
 21
296.93484627
 31
0.0
  0
LINE
  5
228
100
AcDbEntity
  8
ZUWAKU
  6
CONTINUOUS
 62
      32
100
AcDbLine
 10
300.10499571
 20
300.38837012
 30
0.0
 11
297.5
 21
297.78337441
 31
0.0
  0
LINE
  5
229
100
AcDbEntity
  8
ZUWAKU
  6
CONTINUOUS
 62
      32
100
AcDbLine
 10
299.25646757
 20
300.38837012
 30
0.0
 11
297.5
 21
298.63190255
 31
0.0
  0
LINE
  5
22A
100
AcDbEntity
  8
ZUWAKU
  6
CONTINUOUS
 62
      32
100
AcDbLine
 10
298.40793943
 20
300.38837012
 30
0.0
 11
297.5
 21
299.48043069
 31
0.0
  0
LINE
  5
22B
100
AcDbEntity
  8
ZUWAKU
  6
CONTINUOUS
 62
      32
100
AcDbLine
 10
306.04469267
 20
300.38837012
 30
0.0
 11
297.5
 21
291.84367745
 31
0.0
  0
LINE
  5
22C
100
AcDbEntity
  8
ZUWAKU
  6
CONTINUOUS
 62
      32
100
AcDbLine
 10
306.89322081
 20
300.38837012
 30
0.0
 11
297.5
 21
290.99514931
 31
0.0
  0
LINE
  5
22D
100
AcDbEntity
  8
ZUWAKU
  6
CONTINUOUS
 62
      32
100
AcDbLine
 10
307.74174894
 20
300.38837012
 30
0.0
 11
297.5
 21
290.14662118
 31
0.0
  0
LINE
  5
22E
100
AcDbEntity
  8
ZUWAKU
  6
CONTINUOUS
 62
      32
100
AcDbLine
 10
308.59027708
 20
300.38837012
 30
0.0
 11
297.5
 21
289.29809304
 31
0.0
  0
LINE
  5
22F
100
AcDbEntity
  8
ZUWAKU
  6
CONTINUOUS
 62
      32
100
AcDbLine
 10
309.43880522
 20
300.38837012
 30
0.0
 11
297.5
 21
288.4495649
 31
0.0
  0
LINE
  5
230
100
AcDbEntity
  8
ZUWAKU
  6
CONTINUOUS
 62
      32
100
AcDbLine
 10
310.28733336
 20
300.38837012
 30
0.0
 11
297.5
 21
287.60103676
 31
0.0
  0
LINE
  5
231
100
AcDbEntity
  8
ZUWAKU
  6
CONTINUOUS
 62
      32
100
AcDbLine
 10
311.13586149
 20
300.38837012
 30
0.0
 11
297.5
 21
286.75250863
 31
0.0
  0
LINE
  5
232
100
AcDbEntity
  8
ZUWAKU
  6
CONTINUOUS
 62
      32
100
AcDbLine
 10
311.98438963
 20
300.38837012
 30
0.0
 11
297.5
 21
285.90398049
 31
0.0
  0
LINE
  5
233
100
AcDbEntity
  8
ZUWAKU
  6
CONTINUOUS
 62
      32
100
AcDbLine
 10
312.83291777
 20
300.38837012
 30
0.0
 11
297.83291777
 21
285.38837012
 31
0.0
  0
LINE
  5
234
100
AcDbEntity
  8
ZUWAKU
  6
CONTINUOUS
 62
      32
100
AcDbLine
 10
313.68144591
 20
300.38837012
 30
0.0
 11
298.68144591
 21
285.38837012
 31
0.0
  0
LINE
  5
235
100
AcDbEntity
  8
ZUWAKU
  6
CONTINUOUS
 62
      32
100
AcDbLine
 10
314.0
 20
299.85839608
 30
0.0
 11
299.52997404
 21
285.38837012
 31
0.0
  0
LINE
  5
236
100
AcDbEntity
  8
ZUWAKU
  6
CONTINUOUS
 62
      32
100
AcDbLine
 10
314.0
 20
299.00986794
 30
0.0
 11
300.37850218
 21
285.38837012
 31
0.0
  0
LINE
  5
237
100
AcDbEntity
  8
ZUWAKU
  6
CONTINUOUS
 62
      32
100
AcDbLine
 10
314.0
 20
298.1613398
 30
0.0
 11
301.22703032
 21
285.38837012
 31
0.0
  0
LINE
  5
238
100
AcDbEntity
  8
ZUWAKU
  6
CONTINUOUS
 62
      32
100
AcDbLine
 10
314.0
 20
297.31281166
 30
0.0
 11
302.07555846
 21
285.38837012
 31
0.0
  0
LINE
  5
239
100
AcDbEntity
  8
ZUWAKU
  6
CONTINUOUS
 62
      32
100
AcDbLine
 10
314.0
 20
296.46428353
 30
0.0
 11
302.92408659
 21
285.38837012
 31
0.0
  0
LINE
  5
23A
100
AcDbEntity
  8
ZUWAKU
  6
CONTINUOUS
 62
      32
100
AcDbLine
 10
314.0
 20
295.61575539
 30
0.0
 11
303.77261473
 21
285.38837012
 31
0.0
  0
LINE
  5
23B
100
AcDbEntity
  8
ZUWAKU
  6
CONTINUOUS
 62
      32
100
AcDbLine
 10
314.0
 20
294.76722725
 30
0.0
 11
304.62114287
 21
285.38837012
 31
0.0
  0
LINE
  5
23C
100
AcDbEntity
  8
ZUWAKU
  6
CONTINUOUS
 62
      32
100
AcDbLine
 10
314.0
 20
293.91869911
 30
0.0
 11
305.46967101
 21
285.38837012
 31
0.0
  0
LINE
  5
23D
100
AcDbEntity
  8
ZUWAKU
  6
CONTINUOUS
 62
      32
100
AcDbLine
 10
314.0
 20
293.07017098
 30
0.0
 11
306.31819914
 21
285.38837012
 31
0.0
  0
LINE
  5
23E
100
AcDbEntity
  8
ZUWAKU
  6
CONTINUOUS
 62
      32
100
AcDbLine
 10
314.0
 20
292.22164284
 30
0.0
 11
307.16672728
 21
285.38837012
 31
0.0
  0
LINE
  5
23F
100
AcDbEntity
  8
ZUWAKU
  6
CONTINUOUS
 62
      32
100
AcDbLine
 10
314.0
 20
291.3731147
 30
0.0
 11
308.01525542
 21
285.38837012
 31
0.0
  0
LINE
  5
240
100
AcDbEntity
  8
ZUWAKU
  6
CONTINUOUS
 62
      32
100
AcDbLine
 10
314.0
 20
290.52458656
 30
0.0
 11
308.86378355
 21
285.38837012
 31
0.0
  0
LINE
  5
241
100
AcDbEntity
  8
ZUWAKU
  6
CONTINUOUS
 62
      32
100
AcDbLine
 10
314.0
 20
289.67605843
 30
0.0
 11
309.71231169
 21
285.38837012
 31
0.0
  0
LINE
  5
242
100
AcDbEntity
  8
ZUWAKU
  6
CONTINUOUS
 62
      32
100
AcDbLine
 10
314.0
 20
288.82753029
 30
0.0
 11
310.56083983
 21
285.38837012
 31
0.0
  0
LINE
  5
243
100
AcDbEntity
  8
ZUWAKU
  6
CONTINUOUS
 62
      32
100
AcDbLine
 10
314.0
 20
287.97900215
 30
0.0
 11
311.40936797
 21
285.38837012
 31
0.0
  0
LINE
  5
244
100
AcDbEntity
  8
ZUWAKU
  6
CONTINUOUS
 62
      32
100
AcDbLine
 10
314.0
 20
287.13047401
 30
0.0
 11
312.2578961
 21
285.38837012
 31
0.0
  0
LINE
  5
245
100
AcDbEntity
  8
ZUWAKU
  6
CONTINUOUS
 62
      32
100
AcDbLine
 10
314.0
 20
286.28194588
 30
0.0
 11
313.10642424
 21
285.38837012
 31
0.0
  0
LINE
  5
246
100
AcDbEntity
  8
ZUWAKU
  6
CONTINUOUS
 62
      32
100
AcDbLine
 10
314.0
 20
285.43341774
 30
0.0
 11
313.95495238
 21
285.38837012
 31
0.0
  0
LINE
  5
247
100
AcDbEntity
  8
ZUWAKU
  6
CONTINUOUS
 62
      32
100
AcDbLine
 10
-243.25
 20
419.07587012
 30
0.0
 11
-245.79263043
 21
423.57437012
 31
0.0
  0
LINE
  5
248
100
AcDbEntity
  8
ZUWAKU
  6
CONTINUOUS
 62
      32
100
AcDbLine
 10
-255.92666748
 20
427.51337012
 30
0.0
 11
-255.61416748
 21
428.45087012
 31
0.0
  0
LINE
  5
249
100
AcDbEntity
  8
ZUWAKU
  6
CONTINUOUS
 62
      32
100
AcDbLine
 10
-232.03089307
 20
420.18542358
 30
0.0
 11
-232.372
 21
420.01487012
 31
0.0
  0
LINE
  5
24A
100
AcDbEntity
  8
ZUWAKU
  6
CONTINUOUS
 62
      32
100
AcDbLine
 10
-231.8125
 20
419.07587012
 30
0.0
 11
-230.2375
 21
420.65087012
 31
0.0
  0
LINE
  5
24B
100
AcDbEntity
  8
ZUWAKU
  6
CONTINUOUS
 62
      32
100
AcDbLine
 10
-230.5
 20
419.07587012
 30
0.0
 11
-230.2375
 21
420.65087012
 31
0.0
  0
LINE
  5
24C
100
AcDbEntity
  8
ZUWAKU
  6
CONTINUOUS
 62
      32
100
AcDbLine
 10
-223.5625
 20
420.38837012
 30
0.0
 11
-223.5625
 21
420.01487012
 31
0.0
  0
LINE
  5
24D
100
AcDbEntity
  8
ZUWAKU
  6
CONTINUOUS
 62
      32
100
AcDbLine
 10
-215.26743836
 20
419.07587012
 30
0.0
 11
-218.6875
 21
419.07587012
 31
0.0
  0
LINE
  5
24E
100
AcDbEntity
  8
ZUWAKU
  6
CONTINUOUS
 62
      32
100
AcDbLine
 10
-220.53540257
 20
420.41208037
 30
0.0
 11
-222.0625
 21
419.07587012
 31
0.0
  0
LINE
  5
24F
100
AcDbEntity
  8
ZUWAKU
  6
CONTINUOUS
 62
      32
100
AcDbLine
 10
-209.70025599
 20
419.07587012
 30
0.0
 11
-213.625
 21
419.07587012
 31
0.0
  0
LINE
  5
250
100
AcDbEntity
  8
ZUWAKU
  6
CONTINUOUS
 62
      32
100
AcDbLine
 10
-248.804125
 20
420.01487012
 30
0.0
 11
-245.9921875
 21
427.51337012
 31
0.0
  0
LINE
  5
251
100
AcDbEntity
  8
ZUWAKU
  6
CONTINUOUS
 62
      32
100
AcDbLine
 10
-246.11433506
 20
424.51337012
 30
0.0
 11
-241.72546646
 21
424.51337012
 31
0.0
  0
LINE
  5
252
100
AcDbEntity
  8
ZUWAKU
  6
CONTINUOUS
 62
      32
100
AcDbLine
 10
-217.86931818
 20
421.32587012
 30
0.0
 11
-218.5
 21
421.32587012
 31
0.0
  0
LINE
  5
253
100
AcDbEntity
  8
ZUWAKU
  6
CONTINUOUS
 62
      32
100
AcDbLine
 10
-218.5
 20
421.32587012
 30
0.0
 11
-219.11984233
 21
421.32587012
 31
0.0
  0
LINE
  5
254
100
AcDbEntity
  8
ZUWAKU
  6
CONTINUOUS
 62
      32
100
AcDbLine
 10
-224.60423441
 20
419.07587012
 30
0.0
 11
-222.0625
 21
419.07587012
 31
0.0
  0
CIRCLE
  5
255
100
AcDbEntity
  8
ZUWAKU
  6
CONTINUOUS
 62
      32
100
AcDbCircle
 10
-228.72422572
 20
424.32587012
 30
0.0
 40
0.56797572
  0
LINE
  5
256
100
AcDbEntity
  8
ZUWAKU
  6
CONTINUOUS
 62
      32
100
AcDbLine
 10
-248.1015625
 20
427.51337012
 30
0.0
 11
-245.9921875
 21
427.51337012
 31
0.0
  0
LINE
  5
257
100
AcDbEntity
  8
ZUWAKU
  6
CONTINUOUS
 62
      32
100
AcDbLine
 10
-244.98933506
 20
427.51337012
 30
0.0
 11
-241.72546646
 21
427.51337012
 31
0.0
  0
LINE
  5
258
100
AcDbEntity
  8
ZUWAKU
  6
CONTINUOUS
 62
      32
100
AcDbLine
 10
-251.3125
 20
419.07587012
 30
0.0
 11
-250.960375
 21
420.01487012
 31
0.0
  0
LINE
  5
259
100
AcDbEntity
  8
ZUWAKU
  6
CONTINUOUS
 62
      32
100
AcDbLine
 10
-248.1015625
 20
427.51337012
 30
0.0
 11
-247.75
 21
428.45087012
 31
0.0
  0
LINE
  5
25A
100
AcDbEntity
  8
ZUWAKU
  6
CONTINUOUS
 62
      32
100
AcDbLine
 10
-248.57076541
 20
427.51337012
 30
0.0
 11
-248.21920291
 21
428.45087012
 31
0.0
  0
LINE
  5
25B
100
AcDbEntity
  8
ZUWAKU
  6
CONTINUOUS
 62
      32
100
AcDbLine
 10
-241.72546646
 20
428.45087012
 30
0.0
 11
-247.75
 21
428.45087012
 31
0.0
  0
LINE
  5
25C
100
AcDbEntity
  8
ZUWAKU
  6
CONTINUOUS
 62
      32
100
AcDbLine
 10
-248.21920291
 20
428.45087012
 30
0.0
 11
-249.10993105
 21
428.45087012
 31
0.0
  0
LINE
  5
25D
100
AcDbEntity
  8
ZUWAKU
  6
CONTINUOUS
 62
      32
100
AcDbLine
 10
-249.46149355
 20
427.51337012
 30
0.0
 11
-248.57076541
 21
427.51337012
 31
0.0
  0
LINE
  5
25E
100
AcDbEntity
  8
ZUWAKU
  6
CONTINUOUS
 62
      32
100
AcDbLine
 10
-249.80305088
 20
427.51337012
 30
0.0
 11
-249.45148838
 21
428.45087012
 31
0.0
  0
LINE
  5
25F
100
AcDbEntity
  8
ZUWAKU
  6
CONTINUOUS
 62
      32
100
AcDbLine
 10
-249.45148838
 20
428.45087012
 30
0.0
 11
-250.19812705
 21
428.45087012
 31
0.0
  0
LINE
  5
260
100
AcDbEntity
  8
ZUWAKU
  6
CONTINUOUS
 62
      32
100
AcDbLine
 10
-250.54968955
 20
427.51337012
 30
0.0
 11
-249.80305088
 21
427.51337012
 31
0.0
  0
LINE
  5
261
100
AcDbEntity
  8
ZUWAKU
  6
CONTINUOUS
 62
      32
100
AcDbLine
 10
-250.54968955
 20
427.51337012
 30
0.0
 11
-250.19812705
 21
428.45087012
 31
0.0
  0
LINE
  5
262
100
AcDbEntity
  8
ZUWAKU
  6
CONTINUOUS
 62
      32
100
AcDbLine
 10
-250.83558754
 20
428.45087012
 30
0.0
 11
-251.5672369
 21
428.45087012
 31
0.0
  0
LINE
  5
263
100
AcDbEntity
  8
ZUWAKU
  6
CONTINUOUS
 62
      32
100
AcDbLine
 10
-251.9187994
 20
427.51337012
 30
0.0
 11
-251.18715004
 21
427.51337012
 31
0.0
  0
LINE
  5
264
100
AcDbEntity
  8
ZUWAKU
  6
CONTINUOUS
 62
      32
100
AcDbLine
 10
-251.9187994
 20
427.51337012
 30
0.0
 11
-251.5672369
 21
428.45087012
 31
0.0
  0
LINE
  5
265
100
AcDbEntity
  8
ZUWAKU
  6
CONTINUOUS
 62
      32
100
AcDbLine
 10
-249.46149355
 20
427.51337012
 30
0.0
 11
-249.10993105
 21
428.45087012
 31
0.0
  0
LINE
  5
266
100
AcDbEntity
  8
ZUWAKU
  6
CONTINUOUS
 62
      32
100
AcDbLine
 10
-251.18715004
 20
427.51337012
 30
0.0
 11
-250.83558754
 21
428.45087012
 31
0.0
  0
LINE
  5
267
100
AcDbEntity
  8
ZUWAKU
  6
CONTINUOUS
 62
      32
100
AcDbLine
 10
-252.46679355
 20
427.51337012
 30
0.0
 11
-252.11523105
 21
428.45087012
 31
0.0
  0
LINE
  5
268
100
AcDbEntity
  8
ZUWAKU
  6
CONTINUOUS
 62
      32
100
AcDbLine
 10
-252.11523105
 20
428.45087012
 30
0.0
 11
-252.79171194
 21
428.45087012
 31
0.0
  0
LINE
  5
269
100
AcDbEntity
  8
ZUWAKU
  6
CONTINUOUS
 62
      32
100
AcDbLine
 10
-253.14327444
 20
427.51337012
 30
0.0
 11
-252.46679355
 21
427.51337012
 31
0.0
  0
LINE
  5
26A
100
AcDbEntity
  8
ZUWAKU
  6
CONTINUOUS
 62
      32
100
AcDbLine
 10
-253.14327444
 20
427.51337012
 30
0.0
 11
-252.79171194
 21
428.45087012
 31
0.0
  0
LINE
  5
26B
100
AcDbEntity
  8
ZUWAKU
  6
CONTINUOUS
 62
      32
100
AcDbLine
 10
-253.7159276
 20
427.51337012
 30
0.0
 11
-253.3643651
 21
428.45087012
 31
0.0
  0
LINE
  5
26C
100
AcDbEntity
  8
ZUWAKU
  6
CONTINUOUS
 62
      32
100
AcDbLine
 10
-253.3643651
 20
428.45087012
 30
0.0
 11
-253.9659276
 21
428.45087012
 31
0.0
  0
LINE
  5
26D
100
AcDbEntity
  8
ZUWAKU
  6
CONTINUOUS
 62
      32
100
AcDbLine
 10
-254.2784276
 20
427.51337012
 30
0.0
 11
-253.7159276
 21
427.51337012
 31
0.0
  0
LINE
  5
26E
100
AcDbEntity
  8
ZUWAKU
  6
CONTINUOUS
 62
      32
100
AcDbLine
 10
-254.2784276
 20
427.51337012
 30
0.0
 11
-253.9659276
 21
428.45087012
 31
0.0
  0
LINE
  5
26F
100
AcDbEntity
  8
ZUWAKU
  6
CONTINUOUS
 62
      32
100
AcDbLine
 10
-254.87744516
 20
427.51337012
 30
0.0
 11
-254.56494516
 21
428.45087012
 31
0.0
  0
LINE
  5
270
100
AcDbEntity
  8
ZUWAKU
  6
CONTINUOUS
 62
      32
100
AcDbLine
 10
-255.36416748
 20
427.51337012
 30
0.0
 11
-255.05166748
 21
428.45087012
 31
0.0
  0
LINE
  5
271
100
AcDbEntity
  8
ZUWAKU
  6
CONTINUOUS
 62
      32
100
AcDbLine
 10
-256.27041748
 20
427.51337012
 30
0.0
 11
-255.95791748
 21
428.45087012
 31
0.0
  0
LINE
  5
272
100
AcDbEntity
  8
ZUWAKU
  6
CONTINUOUS
 62
      32
100
AcDbLine
 10
-256.86416748
 20
427.51337012
 30
0.0
 11
-256.55166748
 21
428.45087012
 31
0.0
  0
LINE
  5
273
100
AcDbEntity
  8
ZUWAKU
  6
CONTINUOUS
 62
      32
100
AcDbLine
 10
-257.02041748
 20
427.51337012
 30
0.0
 11
-256.70791748
 21
428.45087012
 31
0.0
  0
LINE
  5
274
100
AcDbEntity
  8
ZUWAKU
  6
CONTINUOUS
 62
      32
100
AcDbLine
 10
-254.56494516
 20
428.45087012
 30
0.0
 11
-255.05166748
 21
428.45087012
 31
0.0
  0
LINE
  5
275
100
AcDbEntity
  8
ZUWAKU
  6
CONTINUOUS
 62
      32
100
AcDbLine
 10
-255.36416748
 20
427.51337012
 30
0.0
 11
-254.87744516
 21
427.51337012
 31
0.0
  0
LINE
  5
276
100
AcDbEntity
  8
ZUWAKU
  6
CONTINUOUS
 62
      32
100
AcDbLine
 10
-255.61416748
 20
428.45087012
 30
0.0
 11
-255.95791748
 21
428.45087012
 31
0.0
  0
LINE
  5
277
100
AcDbEntity
  8
ZUWAKU
  6
CONTINUOUS
 62
      32
100
AcDbLine
 10
-256.55166748
 20
428.45087012
 30
0.0
 11
-256.70791748
 21
428.45087012
 31
0.0
  0
LINE
  5
278
100
AcDbEntity
  8
ZUWAKU
  6
CONTINUOUS
 62
      32
100
AcDbLine
 10
-256.27041748
 20
427.51337012
 30
0.0
 11
-255.92666748
 21
427.51337012
 31
0.0
  0
LINE
  5
279
100
AcDbEntity
  8
ZUWAKU
  6
CONTINUOUS
 62
      32
100
AcDbLine
 10
-256.86416748
 20
427.51337012
 30
0.0
 11
-257.02041748
 21
427.51337012
 31
0.0
  0
ARC
  5
27A
100
AcDbEntity
  8
ZUWAKU
  6
CONTINUOUS
 62
      32
100
AcDbCircle
 10
-241.72546646
 20
426.01337012
 30
0.0
 40
1.5
100
AcDbArc
 50
270.0
 51
450.0
  0
LINE
  5
27B
100
AcDbEntity
  8
ZUWAKU
  6
CONTINUOUS
 62
      32
100
AcDbLine
 10
-250.960375
 20
420.01487012
 30
0.0
 11
-248.804125
 21
420.01487012
 31
0.0
  0
LINE
  5
27C
100
AcDbEntity
  8
ZUWAKU
  6
CONTINUOUS
 62
      32
100
AcDbLine
 10
-251.3125
 20
419.07587012
 30
0.0
 11
-248.15339756
 21
419.07587012
 31
0.0
  0
LINE
  5
27D
100
AcDbEntity
  8
ZUWAKU
  6
CONTINUOUS
 62
      32
100
AcDbLine
 10
-248.15339756
 20
419.07587012
 30
0.0
 11
-246.46646006
 21
423.57437012
 31
0.0
  0
LINE
  5
27E
100
AcDbEntity
  8
ZUWAKU
  6
CONTINUOUS
 62
      32
100
AcDbLine
 10
-246.11433506
 20
424.51337012
 30
0.0
 11
-244.98933506
 21
427.51337012
 31
0.0
  0
LINE
  5
27F
100
AcDbEntity
  8
ZUWAKU
  6
CONTINUOUS
 62
      32
100
AcDbLine
 10
-246.46646006
 20
423.57437012
 30
0.0
 11
-245.79263043
 21
423.57437012
 31
0.0
  0
LINE
  5
280
100
AcDbEntity
  8
ZUWAKU
  6
CONTINUOUS
 62
      32
100
AcDbLine
 10
-244.71401789
 20
423.57437012
 30
0.0
 11
-241.72546646
 21
423.57437012
 31
0.0
  0
LINE
  5
281
100
AcDbEntity
  8
ZUWAKU
  6
CONTINUOUS
 62
      32
100
AcDbLine
 10
-242.70212658
 20
420.01487012
 30
0.0
 11
-244.71401789
 21
423.57437012
 31
0.0
  0
ARC
  5
282
100
AcDbEntity
  8
ZUWAKU
  6
CONTINUOUS
 62
      32
100
AcDbCircle
 10
-241.72546646
 20
426.01337012
 30
0.0
 40
2.4375
100
AcDbArc
 50
270.0
 51
450.0
  0
ELLIPSE
  5
283
100
AcDbEntity
  8
ZUWAKU
  6
CONTINUOUS
 62
      32
100
AcDbEllipse
 10
-238.61984669
 20
421.18954985
 30
0.0
 11
-0.2469559898248122
 21
-0.4527526480119946
 31
0.0
210
0.0
220
0.0
230
1.0
 40
0.75209874
 41
0.0
 42
6.2831853071796004
  0
LINE
  5
284
100
AcDbEntity
  8
ZUWAKU
  6
CONTINUOUS
 62
      32
100
AcDbLine
 10
-243.25
 20
419.07587012
 30
0.0
 11
-239.875
 21
419.07587012
 31
0.0
  0
ELLIPSE
  5
285
100
AcDbEntity
  8
ZUWAKU
  6
CONTINUOUS
 62
      32
100
AcDbEllipse
 10
-238.61984669
 20
421.18954985
 30
0.0
 11
-0.7889967726031273
 21
-1.4464940831052218
 31
0.0
210
0.0
220
0.0
230
1.0
 40
0.75209874
 41
1.163380251178052
 42
5.8601607076995661
  0
LINE
  5
286
100
AcDbEntity
  8
ZUWAKU
  6
CONTINUOUS
 62
      32
100
AcDbLine
 10
-242.70212658
 20
420.01487012
 30
0.0
 11
-239.9313221
 21
420.01487012
 31
0.0
  0
ARC
  5
287
100
AcDbEntity
  8
ZUWAKU
  6
CONTINUOUS
 62
      32
100
AcDbCircle
 10
-240.21063822
 20
422.12077271
 30
0.0
 40
2.12434536
100
AcDbArc
 50
277.55531967
 51
282.61004677
  0
ARC
  5
288
100
AcDbEntity
  8
ZUWAKU
  6
CONTINUOUS
 62
      32
100
AcDbCircle
 10
-240.21063822
 20
422.12077271
 30
0.0
 40
3.06334536
100
AcDbArc
 50
276.29029269
 51
293.79815684
  0
ARC
  5
289
100
AcDbEntity
  8
ZUWAKU
  6
CONTINUOUS
 62
      32
100
AcDbCircle
 10
-240.21063822
 20
422.12077271
 30
0.0
 40
3.06334536
100
AcDbArc
 50
316.57125834
 51
318.01426788
  0
ARC
  5
28A
100
AcDbEntity
  8
ZUWAKU
  6
CONTINUOUS
 62
      32
100
AcDbCircle
 10
-238.01039409
 20
421.11183208
 30
0.0
 40
2.03660652
100
AcDbArc
 50
209.3318227
 51
211.50126528
  0
ARC
  5
28B
100
AcDbEntity
  8
ZUWAKU
  6
CONTINUOUS
 62
      32
100
AcDbCircle
 10
-238.01039409
 20
421.11183208
 30
0.0
 40
2.03660652
100
AcDbArc
 50
241.74457829
 51
270.0
  0
ELLIPSE
  5
28C
100
AcDbEntity
  8
ZUWAKU
  6
CONTINUOUS
 62
      32
100
AcDbEllipse
 10
-233.82485678
 20
422.45040382
 30
0.0
 11
-0.4111291384866433
 21
-0.8479538481288387
 31
0.0
210
0.0
220
0.0
230
1.0
 40
0.44219156
 41
0.0
 42
6.2831853071796004
  0
ARC
  5
28D
100
AcDbEntity
  8
ZUWAKU
  6
CONTINUOUS
 62
      32
100
AcDbCircle
 10
-232.96016712
 20
422.69852531
 30
0.0
 40
3.64232051
100
AcDbArc
 50
241.28311564
 51
264.0434522
  0
LINE
  5
28E
100
AcDbEntity
  8
ZUWAKU
  6
CONTINUOUS
 62
      32
100
AcDbLine
 10
-238.01039409
 20
419.07587012
 30
0.0
 11
-235.89735329
 21
419.07587012
 31
0.0
  0
ARC
  5
28F
100
AcDbEntity
  8
ZUWAKU
  6
CONTINUOUS
 62
      32
100
AcDbCircle
 10
-232.96016712
 20
422.69852531
 30
0.0
 40
2.70332051
100
AcDbArc
 50
251.08708107
 51
263.08482824
  0
ARC
  5
290
100
AcDbEntity
  8
ZUWAKU
  6
CONTINUOUS
 62
      32
100
AcDbCircle
 10
-236.69439623
 20
423.14414454
 30
0.0
 40
3.20661627
100
AcDbArc
 50
282.60950936
 51
291.93126974
  0
ELLIPSE
  5
291
100
AcDbEntity
  8
ZUWAKU
  6
CONTINUOUS
 62
      32
100
AcDbEllipse
 10
-233.82485678
 20
422.45040382
 30
0.0
 11
-1.3135116245580321
 21
-2.7091177256514811
 31
0.0
210
0.0
220
0.0
230
1.0
 40
0.44219156
 41
1.162166382047793
 42
5.8906096214263046
  0
LINE
  5
292
100
AcDbEntity
  8
ZUWAKU
  6
CONTINUOUS
 62
      32
100
AcDbLine
 10
-237.98594519
 20
420.01487012
 30
0.0
 11
-235.99437519
 21
420.01487012
 31
0.0
  0
ARC
  5
293
100
AcDbEntity
  8
ZUWAKU
  6
CONTINUOUS
 62
      32
100
AcDbCircle
 10
-236.69439623
 20
423.14414454
 30
0.0
 40
4.14561627
100
AcDbArc
 50
313.58286141
 51
326.24939265
  0
ARC
  5
294
100
AcDbEntity
  8
ZUWAKU
  6
CONTINUOUS
 62
      32
100
AcDbCircle
 10
-236.69439623
 20
423.14414454
 30
0.0
 40
4.14561627
100
AcDbArc
 50
281.08479974
 51
298.5950739
  0
LINE
  5
295
100
AcDbEntity
  8
ZUWAKU
  6
CONTINUOUS
 62
      32
100
AcDbLine
 10
-233.33814603
 20
419.07587012
 30
0.0
 11
-231.8125
 21
419.07587012
 31
0.0
  0
LINE
  5
296
100
AcDbEntity
  8
ZUWAKU
  6
CONTINUOUS
 62
      32
100
AcDbLine
 10
-232.03089307
 20
420.18542358
 30
0.0
 11
-229.47945258
 21
422.73686407
 31
0.0
  0
LINE
  5
297
100
AcDbEntity
  8
ZUWAKU
  6
CONTINUOUS
 62
      32
100
AcDbLine
 10
-229.39154766
 20
420.01487012
 30
0.0
 11
-228.97900442
 21
422.49012959
 31
0.0
  0
LINE
  5
298
100
AcDbEntity
  8
ZUWAKU
  6
CONTINUOUS
 62
      32
100
AcDbLine
 10
-233.28564613
 20
420.01487012
 30
0.0
 11
-232.372
 21
420.01487012
 31
0.0
  0
ARC
  5
299
100
AcDbEntity
  8
ZUWAKU
  6
CONTINUOUS
 62
      32
100
AcDbCircle
 10
-229.26639474
 20
422.53802798
 30
0.0
 40
0.29142656
100
AcDbArc
 50
350.53767779
 51
496.97750576
  0
ELLIPSE
  5
29A
100
AcDbEntity
  8
ZUWAKU
  6
CONTINUOUS
 62
      32
100
AcDbEllipse
 10
-225.28794948
 20
420.83981411
 30
0.0
 11
-0.2735448899301787
 21
-0.460707183040256
 31
0.0
210
0.0
220
0.0
230
1.0
 40
0.58819821
 41
0.0
 42
6.2831853071796004
  0
LINE
  5
29B
100
AcDbEntity
  8
ZUWAKU
  6
CONTINUOUS
 62
      32
100
AcDbLine
 10
-228.40139776
 20
420.01487012
 30
0.0
 11
-226.83857798
 21
420.76551584
 31
0.0
  0
LINE
  5
29C
100
AcDbEntity
  8
ZUWAKU
  6
CONTINUOUS
 62
      32
100
AcDbLine
 10
-228.25
 20
419.07587012
 30
0.0
 11
-226.94155176
 21
419.65565982
 31
0.0
  0
LINE
  5
29D
100
AcDbEntity
  8
ZUWAKU
  6
CONTINUOUS
 62
      32
100
AcDbLine
 10
-229.39154766
 20
420.01487012
 30
0.0
 11
-228.40139776
 21
420.01487012
 31
0.0
  0
LINE
  5
29E
100
AcDbEntity
  8
ZUWAKU
  6
CONTINUOUS
 62
      32
100
AcDbLine
 10
-225.04187763
 20
419.49892524
 30
0.0
 11
-224.60423441
 21
419.07587012
 31
0.0
  0
LINE
  5
29F
100
AcDbEntity
  8
ZUWAKU
  6
CONTINUOUS
 62
      32
100
AcDbLine
 10
-223.5625
 20
420.01487012
 30
0.0
 11
-222.24336327
 21
420.01487012
 31
0.0
  0
LINE
  5
2A0
100
AcDbEntity
  8
ZUWAKU
  6
CONTINUOUS
 62
      32
100
AcDbLine
 10
-219.24507756
 20
422.63837012
 30
0.0
 11
-222.24336327
 21
420.01487012
 31
0.0
  0
ELLIPSE
  5
2A1
100
AcDbEntity
  8
ZUWAKU
  6
CONTINUOUS
 62
      32
100
AcDbEllipse
 10
-225.48361689
 20
420.728862
 30
0.0
 11
-1.1915556281608701
 21
-1.4762483691800981
 31
0.0
210
0.0
220
0.0
230
1.0
 40
0.63020876
 41
2.7713952963881097
 42
5.1608192210644113
  0
ELLIPSE
  5
2A2
100
AcDbEntity
  8
ZUWAKU
  6
CONTINUOUS
 62
      32
100
AcDbEllipse
 10
-225.48361689
 20
420.728862
 30
0.0
 11
-1.1915556281608701
 21
-1.4762483691800981
 31
0.0
210
0.0
220
0.0
230
1.0
 40
0.63020876
 41
5.8878630804446965
 42
7.4876029260781456
  0
LINE
  5
2A3
100
AcDbEntity
  8
ZUWAKU
  6
CONTINUOUS
 62
      32
100
AcDbLine
 10
-223.80936937
 20
422.45715764
 30
0.0
 11
-222.81021363
 21
422.45715764
 31
0.0
  0
LINE
  5
2A4
100
AcDbEntity
  8
ZUWAKU
  6
CONTINUOUS
 62
      32
100
AcDbLine
 10
-224.03618389
 20
421.83341773
 30
0.0
 11
-223.80936937
 21
422.45715764
 31
0.0
  0
LINE
  5
2A5
100
AcDbEntity
  8
ZUWAKU
  6
CONTINUOUS
 62
      32
100
AcDbLine
 10
-223.5625
 20
420.38837012
 30
0.0
 11
-222.81021363
 21
422.45715764
 31
0.0
  0
LINE
  5
2A6
100
AcDbEntity
  8
ZUWAKU
  6
CONTINUOUS
 62
      32
100
AcDbLine
 10
-221.01055585
 20
419.10540886
 30
0.0
 11
-220.53540257
 21
420.41208037
 31
0.0
  0
LINE
  5
2A7
100
AcDbEntity
  8
ZUWAKU
  6
CONTINUOUS
 62
      32
100
AcDbLine
 10
-219.11984233
 20
421.32587012
 30
0.0
 11
-219.93802415
 21
419.07587012
 31
0.0
  0
LINE
  5
2A8
100
AcDbEntity
  8
ZUWAKU
  6
CONTINUOUS
 62
      32
100
AcDbLine
 10
-218.6875
 20
419.07587012
 30
0.0
 11
-217.86931818
 21
421.32587012
 31
0.0
  0
LINE
  5
2A9
100
AcDbEntity
  8
ZUWAKU
  6
CONTINUOUS
 62
      32
100
AcDbLine
 10
-216.50137093
 20
422.04085006
 30
0.0
 11
-217.23809091
 21
420.01487012
 31
0.0
  0
LINE
  5
2AA
100
AcDbEntity
  8
ZUWAKU
  6
CONTINUOUS
 62
      32
100
AcDbLine
 10
-216.81312053
 20
422.63837012
 30
0.0
 11
-216.50137093
 21
422.04085006
 31
0.0
  0
LINE
  5
2AB
100
AcDbEntity
  8
ZUWAKU
  6
CONTINUOUS
 62
      32
100
AcDbLine
 10
-218.87020395
 20
422.08066617
 30
0.0
 11
-218.68575106
 21
422.63837012
 31
0.0
  0
LINE
  5
2AC
100
AcDbEntity
  8
ZUWAKU
  6
CONTINUOUS
 62
      32
100
AcDbLine
 10
-218.87020395
 20
422.08066617
 30
0.0
 11
-217.87135819
 21
422.63837012
 31
0.0
  0
LINE
  5
2AD
100
AcDbEntity
  8
ZUWAKU
  6
CONTINUOUS
 62
      32
100
AcDbLine
 10
-216.81312053
 20
422.63837012
 30
0.0
 11
-217.87135819
 21
422.63837012
 31
0.0
  0
LINE
  5
2AE
100
AcDbEntity
  8
ZUWAKU
  6
CONTINUOUS
 62
      32
100
AcDbLine
 10
-218.68575106
 20
422.63837012
 30
0.0
 11
-219.24507756
 21
422.63837012
 31
0.0
  0
ELLIPSE
  5
2AF
100
AcDbEntity
  8
ZUWAKU
  6
CONTINUOUS
 62
      32
100
AcDbEllipse
 10
-208.44510269
 20
421.18954985
 30
0.0
 11
-0.2469559898247837
 21
-0.4527526480119946
 31
0.0
210
0.0
220
0.0
230
1.0
 40
0.75209874
 41
0.0
 42
6.2831853071796004
  0
ELLIPSE
  5
2B0
100
AcDbEntity
  8
ZUWAKU
  6
CONTINUOUS
 62
      32
100
AcDbEllipse
 10
-208.44510269
 20
421.18954985
 30
0.0
 11
-0.7889967726031273
 21
-1.4464940831052218
 31
0.0
210
0.0
220
0.0
230
1.0
 40
0.75209874
 41
1.163380251178052
 42
5.8601607076995661
  0
ARC
  5
2B1
100
AcDbEntity
  8
ZUWAKU
  6
CONTINUOUS
 62
      32
100
AcDbCircle
 10
-210.03589421
 20
422.12077271
 30
0.0
 40
2.12434536
100
AcDbArc
 50
277.55531967
 51
282.61004677
  0
ARC
  5
2B2
100
AcDbEntity
  8
ZUWAKU
  6
CONTINUOUS
 62
      32
100
AcDbCircle
 10
-210.03589421
 20
422.12077271
 30
0.0
 40
3.06334536
100
AcDbArc
 50
276.29029269
 51
293.79815684
  0
ARC
  5
2B3
100
AcDbEntity
  8
ZUWAKU
  6
CONTINUOUS
 62
      32
100
AcDbCircle
 10
-210.03589421
 20
422.12077271
 30
0.0
 40
3.06334536
100
AcDbArc
 50
316.57125834
 51
318.01426788
  0
ARC
  5
2B4
100
AcDbEntity
  8
ZUWAKU
  6
CONTINUOUS
 62
      32
100
AcDbCircle
 10
-207.83565008
 20
421.11183208
 30
0.0
 40
2.03660652
100
AcDbArc
 50
209.3318227
 51
211.50126528
  0
ARC
  5
2B5
100
AcDbEntity
  8
ZUWAKU
  6
CONTINUOUS
 62
      32
100
AcDbCircle
 10
-207.83565008
 20
421.11183208
 30
0.0
 40
2.03660652
100
AcDbArc
 50
241.74457829
 51
270.0
  0
LINE
  5
2B6
100
AcDbEntity
  8
ZUWAKU
  6
CONTINUOUS
 62
      32
100
AcDbLine
 10
-213.01810583
 20
420.01487012
 30
0.0
 11
-209.7565781
 21
420.01487012
 31
0.0
  0
LINE
  5
2B7
100
AcDbEntity
  8
ZUWAKU
  6
CONTINUOUS
 62
      32
100
AcDbLine
 10
-207.83565008
 20
419.07587012
 30
0.0
 11
-206.03002725
 21
419.07587012
 31
0.0
  0
LINE
  5
2B8
100
AcDbEntity
  8
ZUWAKU
  6
CONTINUOUS
 62
      32
100
AcDbLine
 10
-207.81120118
 20
420.01487012
 30
0.0
 11
-205.81963118
 21
420.01487012
 31
0.0
  0
LINE
  5
2B9
100
AcDbEntity
  8
ZUWAKU
  6
CONTINUOUS
 62
      32
100
AcDbLine
 10
-230.5
 20
419.07587012
 30
0.0
 11
-228.25
 21
419.07587012
 31
0.0
  0
LINE
  5
2BA
100
AcDbEntity
  8
ZUWAKU
  6
CONTINUOUS
 62
      32
100
AcDbLine
 10
-221.01055585
 20
419.10540886
 30
0.0
 11
-219.93802415
 21
419.07587012
 31
0.0
  0
LINE
  5
2BB
100
AcDbEntity
  8
ZUWAKU
  6
CONTINUOUS
 62
      32
100
AcDbLine
 10
-217.23809091
 20
420.01487012
 30
0.0
 11
-215.50423216
 21
420.01487012
 31
0.0
  0
LINE
  5
2BC
100
AcDbEntity
  8
ZUWAKU
  6
CONTINUOUS
 62
      32
100
AcDbLine
 10
-212.30448845
 20
421.36665426
 30
0.0
 11
-211.60403749
 21
421.93285212
 31
0.0
  0
ARC
  5
2BD
100
AcDbEntity
  8
ZUWAKU
  6
CONTINUOUS
 62
      32
100
AcDbCircle
 10
-213.01810583
 20
420.88487012
 30
0.0
 40
0.87
100
AcDbArc
 50
34.07537472
 51
270.0
  0
ARC
  5
2BE
100
AcDbEntity
  8
ZUWAKU
  6
CONTINUOUS
 62
      32
100
AcDbCircle
 10
-213.01810583
 20
420.88487012
 30
0.0
 40
1.7600726
100
AcDbArc
 50
36.54256145
 51
190.98612084
  0
LINE
  5
2BF
100
AcDbEntity
  8
ZUWAKU
  6
CONTINUOUS
 62
      32
100
AcDbLine
 10
-215.26743836
 20
419.07587012
 30
0.0
 11
-214.37591188
 21
419.73189904
 31
0.0
  0
LINE
  5
2C0
100
AcDbEntity
  8
ZUWAKU
  6
CONTINUOUS
 62
      32
100
AcDbLine
 10
-214.75710256
 20
420.56464473
 30
0.0
 11
-215.50423216
 21
420.01487012
 31
0.0
  0
LINE
  5
2C1
100
AcDbEntity
  8
ZUWAKU
  6
CONTINUOUS
 62
      32
100
AcDbLine
 10
-214.37591188
 20
419.73189904
 30
0.0
 11
-213.625
 21
419.07587012
 31
0.0
  0
LINE
  5
2C2
100
AcDbEntity
  8
ZUWAKU
  6
CONTINUOUS
 62
      32
100
AcDbLine
 10
-205.81963118
 20
420.01487012
 30
0.0
 11
-206.03002725
 21
419.07587012
 31
0.0
  0
LINE
  5
2C3
100
AcDbEntity
  8
ZUWAKU
  6
CONTINUOUS
 62
      32
100
AcDbLine
 10
-255.68447998
 20
428.23993262
 30
0.0
 11
-256.20010498
 21
427.72430762
 31
0.0
  0
LINE
  5
2C4
100
AcDbEntity
  8
ZUWAKU
  6
CONTINUOUS
 62
      32
100
AcDbLine
 10
-254.59951458
 20
428.34716186
 30
0.0
 11
-255.32959805
 21
427.61707838
 31
0.0
  0
LINE
  5
2C5
100
AcDbEntity
  8
ZUWAKU
  6
CONTINUOUS
 62
      32
100
AcDbLine
 10
-253.37139635
 20
428.43212012
 30
0.0
 11
-254.27256823
 21
427.53094824
 31
0.0
  0
LINE
  5
2C6
100
AcDbEntity
  8
ZUWAKU
  6
CONTINUOUS
 62
      32
100
AcDbLine
 10
-252.16050275
 20
428.45087012
 30
0.0
 11
-253.09800275
 21
427.51337012
 31
0.0
  0
LINE
  5
2C7
100
AcDbEntity
  8
ZUWAKU
  6
CONTINUOUS
 62
      32
100
AcDbLine
 10
-250.90844347
 20
428.45087012
 30
0.0
 11
-251.84594347
 21
427.51337012
 31
0.0
  0
LINE
  5
2C8
100
AcDbEntity
  8
ZUWAKU
  6
CONTINUOUS
 62
      32
100
AcDbLine
 10
-249.53183897
 20
428.45087012
 30
0.0
 11
-250.46933897
 21
427.51337012
 31
0.0
  0
LINE
  5
2C9
100
AcDbEntity
  8
ZUWAKU
  6
CONTINUOUS
 62
      32
100
AcDbLine
 10
-248.37159823
 20
428.45087012
 30
0.0
 11
-249.30909823
 21
427.51337012
 31
0.0
  0
LINE
  5
2CA
100
AcDbEntity
  8
ZUWAKU
  6
CONTINUOUS
 62
      32
100
AcDbLine
 10
-248.04724319
 20
419.35894844
 30
0.0
 11
-248.33032151
 21
419.07587012
 31
0.0
  0
LINE
  5
2CB
100
AcDbEntity
  8
ZUWAKU
  6
CONTINUOUS
 62
      32
100
AcDbLine
 10
-247.53812631
 20
420.71659346
 30
0.0
 11
-249.17884965
 21
419.07587012
 31
0.0
  0
LINE
  5
2CC
100
AcDbEntity
  8
ZUWAKU
  6
CONTINUOUS
 62
      32
100
AcDbLine
 10
-247.02900943
 20
422.07423848
 30
0.0
 11
-248.63357333
 21
420.46967457
 31
0.0
  0
LINE
  5
2CD
100
AcDbEntity
  8
ZUWAKU
  6
CONTINUOUS
 62
      32
100
AcDbLine
 10
-249.08837779
 20
420.01487012
 30
0.0
 11
-250.02737779
 21
419.07587012
 31
0.0
  0
LINE
  5
2CE
100
AcDbEntity
  8
ZUWAKU
  6
CONTINUOUS
 62
      32
100
AcDbLine
 10
-246.51989254
 20
423.4318835
 30
0.0
 11
-248.12445645
 21
421.82731959
 31
0.0
  0
LINE
  5
2CF
100
AcDbEntity
  8
ZUWAKU
  6
CONTINUOUS
 62
      32
100
AcDbLine
 10
-249.93690592
 20
420.01487012
 30
0.0
 11
-250.87590592
 21
419.07587012
 31
0.0
  0
LINE
  5
2D0
100
AcDbEntity
  8
ZUWAKU
  6
CONTINUOUS
 62
      32
100
AcDbLine
 10
-250.78543406
 20
420.01487012
 30
0.0
 11
-251.06533956
 21
419.73496461
 31
0.0
  0
LINE
  5
2D1
100
AcDbEntity
  8
ZUWAKU
  6
CONTINUOUS
 62
      32
100
AcDbLine
 10
-244.89501847
 20
428.45087012
 30
0.0
 11
-246.08798892
 21
427.25789967
 31
0.0
  0
LINE
  5
2D2
100
AcDbEntity
  8
ZUWAKU
  6
CONTINUOUS
 62
      32
100
AcDbLine
 10
-245.74354661
 20
428.45087012
 30
0.0
 11
-246.68104661
 21
427.51337012
 31
0.0
  0
LINE
  5
2D3
100
AcDbEntity
  8
ZUWAKU
  6
CONTINUOUS
 62
      32
100
AcDbLine
 10
-246.59207475
 20
428.45087012
 30
0.0
 11
-247.52957475
 21
427.51337012
 31
0.0
  0
LINE
  5
2D4
100
AcDbEntity
  8
ZUWAKU
  6
CONTINUOUS
 62
      32
100
AcDbLine
 10
-247.44060288
 20
428.45087012
 30
0.0
 11
-247.93563827
 21
427.95583473
 31
0.0
  0
LINE
  5
2D5
100
AcDbEntity
  8
ZUWAKU
  6
CONTINUOUS
 62
      32
100
AcDbLine
 10
-238.83730871
 20
422.62918596
 30
0.0
 11
-239.73487872
 21
421.73161595
 31
0.0
  0
LINE
  5
2D6
100
AcDbEntity
  8
ZUWAKU
  6
CONTINUOUS
 62
      32
100
AcDbLine
 10
-237.93369667
 20
422.68426986
 30
0.0
 11
-239.9561783
 21
420.66178823
 31
0.0
  0
LINE
  5
2D7
100
AcDbEntity
  8
ZUWAKU
  6
CONTINUOUS
 62
      32
100
AcDbLine
 10
-237.27805653
 20
421.64285372
 30
0.0
 11
-239.84111379
 21
419.07979647
 31
0.0
  0
LINE
  5
2D8
100
AcDbEntity
  8
ZUWAKU
  6
CONTINUOUS
 62
      32
100
AcDbLine
 10
-243.1979622
 20
428.45087012
 30
0.0
 11
-244.1354622
 21
427.51337012
 31
0.0
  0
LINE
  5
2D9
100
AcDbEntity
  8
ZUWAKU
  6
CONTINUOUS
 62
      32
100
AcDbLine
 10
-245.50165878
 20
426.14717354
 30
0.0
 11
-247.10622268
 21
424.54260963
 31
0.0
  0
LINE
  5
2DA
100
AcDbEntity
  8
ZUWAKU
  6
CONTINUOUS
 62
      32
100
AcDbLine
 10
-242.34943406
 20
428.45087012
 30
0.0
 11
-243.28693406
 21
427.51337012
 31
0.0
  0
LINE
  5
2DB
100
AcDbEntity
  8
ZUWAKU
  6
CONTINUOUS
 62
      32
100
AcDbLine
 10
-246.01077566
 20
424.78952852
 30
0.0
 11
-247.61533956
 21
423.18496461
 31
0.0
  0
LINE
  5
2DC
100
AcDbEntity
  8
ZUWAKU
  6
CONTINUOUS
 62
      32
100
AcDbLine
 10
-241.51041137
 20
428.44136467
 30
0.0
 11
-242.43840592
 21
427.51337012
 31
0.0
  0
LINE
  5
2DD
100
AcDbEntity
  8
ZUWAKU
  6
CONTINUOUS
 62
      32
100
AcDbLine
 10
-245.43840592
 20
424.51337012
 30
0.0
 11
-246.37740592
 21
423.57437012
 31
0.0
  0
LINE
  5
2DE
100
AcDbEntity
  8
ZUWAKU
  6
CONTINUOUS
 62
      32
100
AcDbLine
 10
-240.82485863
 20
428.27838928
 30
0.0
 11
-241.59551731
 21
427.50773059
 31
0.0
  0
LINE
  5
2DF
100
AcDbEntity
  8
ZUWAKU
  6
CONTINUOUS
 62
      32
100
AcDbLine
 10
-244.58987779
 20
424.51337012
 30
0.0
 11
-245.69738642
 21
423.40586148
 31
0.0
  0
LINE
  5
2E0
100
AcDbEntity
  8
ZUWAKU
  6
CONTINUOUS
 62
      32
100
AcDbLine
 10
-240.27924572
 20
427.97547405
 30
0.0
 11
-240.95459022
 21
427.30012955
 31
0.0
  0
LINE
  5
2E1
100
AcDbEntity
  8
ZUWAKU
  6
CONTINUOUS
 62
      32
100
AcDbLine
 10
-239.84361492
 20
427.5625767
 30
0.0
 11
-240.51160552
 21
426.89458611
 31
0.0
  0
LINE
  5
2E2
100
AcDbEntity
  8
ZUWAKU
  6
CONTINUOUS
 62
      32
100
AcDbLine
 10
-239.51564841
 20
427.04201508
 30
0.0
 11
-240.25385351
 21
426.30380998
 31
0.0
  0
LINE
  5
2E3
100
AcDbEntity
  8
ZUWAKU
  6
CONTINUOUS
 62
      32
100
AcDbLine
 10
-239.31749656
 20
426.3916388
 30
0.0
 11
-240.40226826
 21
425.30686709
 31
0.0
  0
LINE
  5
2E4
100
AcDbEntity
  8
ZUWAKU
  6
CONTINUOUS
 62
      32
100
AcDbLine
 10
-244.04649033
 20
428.45087012
 30
0.0
 11
-244.98399033
 21
427.51337012
 31
0.0
  0
LINE
  5
2E5
100
AcDbEntity
  8
ZUWAKU
  6
CONTINUOUS
 62
      32
100
AcDbLine
 10
-244.9925419
 20
427.50481856
 30
0.0
 11
-246.5971058
 21
425.90025465
 31
0.0
  0
LINE
  5
2E6
100
AcDbEntity
  8
ZUWAKU
  6
CONTINUOUS
 62
      32
100
AcDbLine
 10
-242.89282151
 20
424.51337012
 30
0.0
 11
-243.83182151
 21
423.57437012
 31
0.0
  0
LINE
  5
2E7
100
AcDbEntity
  8
ZUWAKU
  6
CONTINUOUS
 62
      32
100
AcDbLine
 10
-244.39544697
 20
423.01074465
 30
0.0
 11
-245.08456055
 21
422.32163108
 31
0.0
  0
LINE
  5
2E8
100
AcDbEntity
  8
ZUWAKU
  6
CONTINUOUS
 62
      32
100
AcDbLine
 10
-243.74134965
 20
424.51337012
 30
0.0
 11
-244.68034965
 21
423.57437012
 31
0.0
  0
LINE
  5
2E9
100
AcDbEntity
  8
ZUWAKU
  6
CONTINUOUS
 62
      32
100
AcDbLine
 10
-244.70185991
 20
423.55285985
 30
0.0
 11
-245.39097348
 21
422.86374628
 31
0.0
  0
LINE
  5
2EA
100
AcDbEntity
  8
ZUWAKU
  6
CONTINUOUS
 62
      32
100
AcDbLine
 10
-242.04429337
 20
424.51337012
 30
0.0
 11
-242.98329337
 21
423.57437012
 31
0.0
  0
LINE
  5
2EB
100
AcDbEntity
  8
ZUWAKU
  6
CONTINUOUS
 62
      32
100
AcDbLine
 10
-244.08903404
 20
422.46862946
 30
0.0
 11
-244.77814761
 21
421.77951588
 31
0.0
  0
LINE
  5
2EC
100
AcDbEntity
  8
ZUWAKU
  6
CONTINUOUS
 62
      32
100
AcDbLine
 10
-241.01896343
 20
424.69017192
 30
0.0
 11
-242.13476524
 21
423.57437012
 31
0.0
  0
LINE
  5
2ED
100
AcDbEntity
  8
ZUWAKU
  6
CONTINUOUS
 62
      32
100
AcDbLine
 10
-243.7826211
 20
421.92651426
 30
0.0
 11
-244.47173467
 21
421.23740069
 31
0.0
  0
LINE
  5
2EE
100
AcDbEntity
  8
ZUWAKU
  6
CONTINUOUS
 62
      32
100
AcDbLine
 10
-239.33785188
 20
425.52275534
 30
0.0
 11
-241.23485168
 21
423.62575554
 31
0.0
  0
LINE
  5
2EF
100
AcDbEntity
  8
ZUWAKU
  6
CONTINUOUS
 62
      32
100
AcDbLine
 10
-243.47620816
 20
421.38439906
 30
0.0
 11
-244.16532173
 21
420.69528549
 31
0.0
  0
LINE
  5
2F0
100
AcDbEntity
  8
ZUWAKU
  6
CONTINUOUS
 62
      32
100
AcDbLine
 10
-243.16979522
 20
420.84228386
 30
0.0
 11
-243.85890879
 21
420.15317029
 31
0.0
  0
LINE
  5
2F1
100
AcDbEntity
  8
ZUWAKU
  6
CONTINUOUS
 62
      32
100
AcDbLine
 10
-242.86338228
 20
420.30016866
 30
0.0
 11
-243.55249585
 21
419.61105509
 31
0.0
  0
LINE
  5
2F2
100
AcDbEntity
  8
ZUWAKU
  6
CONTINUOUS
 62
      32
100
AcDbLine
 10
-242.30015269
 20
420.01487012
 30
0.0
 11
-243.23915269
 21
419.07587012
 31
0.0
  0
LINE
  5
2F3
100
AcDbEntity
  8
ZUWAKU
  6
CONTINUOUS
 62
      32
100
AcDbLine
 10
-241.45162455
 20
420.01487012
 30
0.0
 11
-242.39062455
 21
419.07587012
 31
0.0
  0
LINE
  5
2F4
100
AcDbEntity
  8
ZUWAKU
  6
CONTINUOUS
 62
      32
100
AcDbLine
 10
-240.60309641
 20
420.01487012
 30
0.0
 11
-241.54209641
 21
419.07587012
 31
0.0
  0
LINE
  5
2F5
100
AcDbEntity
  8
ZUWAKU
  6
CONTINUOUS
 62
      32
100
AcDbLine
 10
-237.47303061
 20
422.29640778
 30
0.0
 11
-238.25065583
 21
421.51878256
 31
0.0
  0
LINE
  5
2F6
100
AcDbEntity
  8
ZUWAKU
  6
CONTINUOUS
 62
      32
100
AcDbLine
 10
-238.95690669
 20
420.8125317
 30
0.0
 11
-240.69356827
 21
419.07587012
 31
0.0
  0
LINE
  5
2F7
100
AcDbEntity
  8
ZUWAKU
  6
CONTINUOUS
 62
      32
100
AcDbLine
 10
-232.85377665
 20
425.21860547
 30
0.0
 11
-235.00528384
 21
423.06709827
 31
0.0
  0
LINE
  5
2F8
100
AcDbEntity
  8
ZUWAKU
  6
CONTINUOUS
 62
      32
100
AcDbLine
 10
-237.61334177
 20
420.45904035
 30
0.0
 11
-238.82649403
 21
419.24588809
 31
0.0
  0
LINE
  5
2F9
100
AcDbEntity
  8
ZUWAKU
  6
CONTINUOUS
 62
      32
100
AcDbLine
 10
-232.27082947
 20
424.95302451
 30
0.0
 11
-235.48938587
 21
421.73446811
 31
0.0
  0
LINE
  5
2FA
100
AcDbEntity
  8
ZUWAKU
  6
CONTINUOUS
 62
      32
100
AcDbLine
 10
-237.20898386
 20
420.01487012
 30
0.0
 11
-238.14422637
 21
419.07962761
 31
0.0
  0
LINE
  5
2FB
100
AcDbEntity
  8
ZUWAKU
  6
CONTINUOUS
 62
      32
100
AcDbLine
 10
-236.36045572
 20
420.01487012
 30
0.0
 11
-237.29945572
 21
419.07587012
 31
0.0
  0
LINE
  5
2FC
100
AcDbEntity
  8
ZUWAKU
  6
CONTINUOUS
 62
      32
100
AcDbLine
 10
-232.05955655
 20
424.3157693
 30
0.0
 11
-233.28135363
 21
423.09397221
 31
0.0
  0
LINE
  5
2FD
100
AcDbEntity
  8
ZUWAKU
  6
CONTINUOUS
 62
      32
100
AcDbLine
 10
-234.38001655
 20
421.9953093
 30
0.0
 11
-235.60181363
 21
420.77351221
 31
0.0
  0
LINE
  5
2FE
100
AcDbEntity
  8
ZUWAKU
  6
CONTINUOUS
 62
      32
100
AcDbLine
 10
-232.10835912
 20
423.41843858
 30
0.0
 11
-236.45092759
 21
419.07587012
 31
0.0
  0
LINE
  5
2FF
100
AcDbEntity
  8
ZUWAKU
  6
CONTINUOUS
 62
      32
100
AcDbLine
 10
-232.47688789
 20
422.20138168
 30
0.0
 11
-235.50565108
 21
419.17261849
 31
0.0
  0
LINE
  5
300
100
AcDbEntity
  8
ZUWAKU
  6
CONTINUOUS
 62
      32
100
AcDbLine
 10
-229.3052165
 20
422.82685718
 30
0.0
 11
-233.05620356
 21
419.07587012
 31
0.0
  0
LINE
  5
301
100
AcDbEntity
  8
ZUWAKU
  6
CONTINUOUS
 62
      32
100
AcDbLine
 10
-229.01589254
 20
424.81323742
 30
0.0
 11
-229.21159302
 21
424.61753694
 31
0.0
  0
LINE
  5
302
100
AcDbEntity
  8
ZUWAKU
  6
CONTINUOUS
 62
      32
100
AcDbLine
 10
-233.72382152
 20
420.10530844
 30
0.0
 11
-234.45296239
 21
419.37616757
 31
0.0
  0
LINE
  5
303
100
AcDbEntity
  8
ZUWAKU
  6
CONTINUOUS
 62
      32
100
AcDbLine
 10
-228.28936516
 20
424.69123666
 30
0.0
 11
-229.08959226
 21
423.89100956
 31
0.0
  0
LINE
  5
304
100
AcDbEntity
  8
ZUWAKU
  6
CONTINUOUS
 62
      32
100
AcDbLine
 10
-232.9657317
 20
420.01487012
 30
0.0
 11
-233.82116886
 21
419.15943296
 31
0.0
  0
LINE
  5
305
100
AcDbEntity
  8
ZUWAKU
  6
CONTINUOUS
 62
      32
100
AcDbLine
 10
-224.66997232
 20
422.37093254
 30
0.0
 11
-227.73828941
 21
419.30261545
 31
0.0
  0
LINE
  5
306
100
AcDbEntity
  8
ZUWAKU
  6
CONTINUOUS
 62
      32
100
AcDbLine
 10
-228.72309101
 20
420.01487012
 30
0.0
 11
-229.66209101
 21
419.07587012
 31
0.0
  0
LINE
  5
307
100
AcDbEntity
  8
ZUWAKU
  6
CONTINUOUS
 62
      32
100
AcDbLine
 10
-229.35553337
 20
420.2309559
 30
0.0
 11
-230.51061915
 21
419.07587012
 31
0.0
  0
LINE
  5
308
100
AcDbEntity
  8
ZUWAKU
  6
CONTINUOUS
 62
      32
100
AcDbLine
 10
-229.18582774
 20
421.24918967
 30
0.0
 11
-230.32817054
 21
420.10684687
 31
0.0
  0
LINE
  5
309
100
AcDbEntity
  8
ZUWAKU
  6
CONTINUOUS
 62
      32
100
AcDbLine
 10
-232.20767543
 20
419.07587012
 30
0.0
 11
-229.01612211
 21
422.26742343
 31
0.0
  0
LINE
  5
30A
100
AcDbEntity
  8
ZUWAKU
  6
CONTINUOUS
 62
      32
100
AcDbLine
 10
-222.88669094
 20
422.45715764
 30
0.0
 11
-226.26233088
 21
419.08151771
 31
0.0
  0
LINE
  5
30B
100
AcDbEntity
  8
ZUWAKU
  6
CONTINUOUS
 62
      32
100
AcDbLine
 10
-223.25138553
 20
421.24393492
 30
0.0
 11
-225.01875098
 21
419.47656947
 31
0.0
  0
LINE
  5
30C
100
AcDbEntity
  8
ZUWAKU
  6
CONTINUOUS
 62
      32
100
AcDbLine
 10
-223.5625
 20
420.08429231
 30
0.0
 11
-224.57092219
 21
419.07587012
 31
0.0
  0
LINE
  5
30D
100
AcDbEntity
  8
ZUWAKU
  6
CONTINUOUS
 62
      32
100
AcDbLine
 10
-222.78339405
 20
420.01487012
 30
0.0
 11
-223.72239405
 21
419.07587012
 31
0.0
  0
LINE
  5
30E
100
AcDbEntity
  8
ZUWAKU
  6
CONTINUOUS
 62
      32
100
AcDbLine
 10
-219.77538441
 20
422.17435163
 30
0.0
 11
-222.87386591
 21
419.07587012
 31
0.0
  0
LINE
  5
30F
100
AcDbEntity
  8
ZUWAKU
  6
CONTINUOUS
 62
      32
100
AcDbLine
 10
-225.94893444
 20
421.94049856
 30
0.0
 11
-226.43119675
 21
421.45823625
 31
0.0
  0
LINE
  5
310
100
AcDbEntity
  8
ZUWAKU
  6
CONTINUOUS
 62
      32
100
AcDbLine
 10
-227.38763972
 20
420.50179327
 30
0.0
 11
-228.81356288
 21
419.07587012
 31
0.0
  0
LINE
  5
311
100
AcDbEntity
  8
ZUWAKU
  6
CONTINUOUS
 62
      32
100
AcDbLine
 10
-225.66249651
 20
420.52988021
 30
0.0
 11
-226.80521327
 21
419.38716345
 31
0.0
  0
LINE
  5
312
100
AcDbEntity
  8
ZUWAKU
  6
CONTINUOUS
 62
      32
100
AcDbLine
 10
-223.73521908
 20
422.45715764
 30
0.0
 11
-223.85174097
 21
422.34063575
 31
0.0
  0
LINE
  5
313
100
AcDbEntity
  8
ZUWAKU
  6
CONTINUOUS
 62
      32
100
AcDbLine
 10
-224.14508367
 20
422.04729305
 30
0.0
 11
-224.95180385
 21
421.24057287
 31
0.0
  0
LINE
  5
314
100
AcDbEntity
  8
ZUWAKU
  6
CONTINUOUS
 62
      32
100
AcDbLine
 10
-217.58099742
 20
422.63837012
 30
0.0
 11
-218.89349742
 21
421.32587012
 31
0.0
  0
LINE
  5
315
100
AcDbEntity
  8
ZUWAKU
  6
CONTINUOUS
 62
      32
100
AcDbLine
 10
-219.24918227
 20
420.97018527
 30
0.0
 11
-220.95146851
 21
419.26789903
 31
0.0
  0
TEXT
  5
316
100
AcDbEntity
  8
ZUWAKU
 62
      32
100
AcDbText
 10
-253.15356297
 20
-414.17412988
 30
0.0
 40
10.2
  1
株式会社
 41
0.6667
 72
       5
 11
-220.51356297
 21
-414.17412988
 31
0.0
100
AcDbText
  0
LINE
  5
317
100
AcDbEntity
  8
ZUWAKU
  6
CONTINUOUS
 62
       3
100
AcDbLine
 10
-298.33423183
 20
422.73595872
 30
0.0
 11
-298.34470746
 21
422.72548309
 31
0.0
  0
LINE
  5
318
100
AcDbEntity
  8
ZUWAKU
  6
CONTINUOUS
 62
       3
100
AcDbLine
 10
-298.76178987
 20
422.73266475
 30
0.0
 11
-298.76897153
 21
422.72548309
 31
0.0
  0
LINE
  5
319
100
AcDbEntity
  8
ZUWAKU
  6
CONTINUOUS
 62
       3
100
AcDbLine
 10
-299.18934791
 20
422.72937078
 30
0.0
 11
-299.1932356
 21
422.72548309
 31
0.0
  0
LINE
  5
31A
100
AcDbEntity
  8
ZUWAKU
  6
CONTINUOUS
 62
       3
100
AcDbLine
 10
92.75
 20
431.45087012
 30
0.0
 11
282.125
 21
431.45087012
 31
0.0
  0
LINE
  5
31B
100
AcDbEntity
  8
ZUWAKU
  6
CONTINUOUS
 62
       3
100
AcDbLine
 10
92.75
 20
431.45087012
 30
0.0
 11
92.75
 21
401.73245871
 31
0.0
  0
LINE
  5
31C
100
AcDbEntity
  8
ZUWAKU
  6
CONTINUOUS
 62
       3
100
AcDbLine
 10
282.125
 20
431.45087012
 30
0.0
 11
282.125
 21
401.73245871
 31
0.0
  0
LINE
  5
31D
100
AcDbEntity
  8
ZUWAKU
  6
CONTINUOUS
 62
       3
100
AcDbLine
 10
-253.375
 20
-380.61162988
 30
0.0
 11
-253.375
 21
-230.61162988
 31
0.0
  0
LINE
  5
31E
100
AcDbEntity
  8
ZUWAKU
  6
CONTINUOUS
 62
       3
100
AcDbLine
 10
-113.6875
 20
-380.61162988
 30
0.0
 11
-113.6875
 21
-230.61162988
 31
0.0
  0
LINE
  5
31F
100
AcDbEntity
  8
ZUWAKU
  6
CONTINUOUS
 62
       3
100
AcDbLine
 10
45.6875
 20
-380.61162988
 30
0.0
 11
45.6875
 21
-230.61162988
 31
0.0
  0
LINE
  5
320
100
AcDbEntity
  8
ZUWAKU
  6
CONTINUOUS
 62
       3
100
AcDbLine
 10
79.0625
 20
-380.61162988
 30
0.0
 11
79.0625
 21
-230.61162988
 31
0.0
  0
LINE
  5
321
100
AcDbEntity
  8
ZUWAKU
  6
CONTINUOUS
 62
       3
100
AcDbLine
 10
92.0
 20
-421.86162988
 30
0.0
 11
92.0
 21
-385.67412988
 31
0.0
  0
LINE
  5
322
100
AcDbEntity
  8
ZUWAKU
  6
CONTINUOUS
 62
       3
100
AcDbLine
 10
77.0
 20
-421.86162988
 30
0.0
 11
77.0
 21
-385.67412988
 31
0.0
  0
LINE
  5
323
100
AcDbEntity
  8
ZUWAKU
  6
CONTINUOUS
 62
       3
100
AcDbLine
 10
-110.6875
 20
-421.86162988
 30
0.0
 11
-110.6875
 21
-385.67412988
 31
0.0
  0
LINE
  5
324
100
AcDbEntity
  8
ZUWAKU
  6
CONTINUOUS
 62
       3
100
AcDbLine
 10
-125.6875
 20
-421.86162988
 30
0.0
 11
-125.6875
 21
-385.67412988
 31
0.0
  0
LINE
  5
325
100
AcDbEntity
  8
ZUWAKU
  6
CONTINUOUS
 62
       3
100
AcDbLine
 10
-274.1875
 20
-365.61162988
 30
0.0
 11
279.125
 21
-365.61162988
 31
0.0
  0
LINE
  5
326
100
AcDbEntity
  8
ZUWAKU
  6
CONTINUOUS
 62
       3
100
AcDbLine
 10
-274.1875
 20
-350.61162988
 30
0.0
 11
279.125
 21
-350.61162988
 31
0.0
  0
LINE
  5
327
100
AcDbEntity
  8
ZUWAKU
  6
CONTINUOUS
 62
       3
100
AcDbLine
 10
-274.1875
 20
-335.61162988
 30
0.0
 11
279.125
 21
-335.61162988
 31
0.0
  0
LINE
  5
328
100
AcDbEntity
  8
ZUWAKU
  6
CONTINUOUS
 62
       3
100
AcDbLine
 10
-274.1875
 20
-305.61162988
 30
0.0
 11
279.125
 21
-305.61162988
 31
0.0
  0
LINE
  5
329
100
AcDbEntity
  8
ZUWAKU
  6
CONTINUOUS
 62
       3
100
AcDbLine
 10
-274.1875
 20
-290.61162988
 30
0.0
 11
279.125
 21
-290.61162988
 31
0.0
  0
LINE
  5
32A
100
AcDbEntity
  8
ZUWAKU
  6
CONTINUOUS
 62
       3
100
AcDbLine
 10
-274.1875
 20
-275.61162988
 30
0.0
 11
279.125
 21
-275.61162988
 31
0.0
  0
LINE
  5
32B
100
AcDbEntity
  8
ZUWAKU
  6
CONTINUOUS
 62
       3
100
AcDbLine
 10
-274.1875
 20
-260.61162988
 30
0.0
 11
279.125
 21
-260.61162988
 31
0.0
  0
POINT
  5
32C
100
AcDbEntity
  8
ZUWAKU
  6
CONTINUOUS
 62
       3
100
AcDbPoint
 10
-274.1875
 20
-118.39646805
 30
0.0
  0
POINT
  5
32D
100
AcDbEntity
  8
ZUWAKU
  6
CONTINUOUS
 62
       3
100
AcDbPoint
 10
-274.1875
 20
121.60353195
 30
0.0
  0
POINT
  5
32E
100
AcDbEntity
  8
ZUWAKU
  6
CONTINUOUS
 62
       3
100
AcDbPoint
 10
-316.0
 20
1.60353195
 30
0.0
  0
LINE
  5
32F
100
AcDbEntity
  8
ZUWAKU
  6
CONTINUOUS
 62
       3
100
AcDbLine
 10
-274.1875
 20
-245.61162988
 30
0.0
 11
279.125
 21
-245.61162988
 31
0.0
  0
LINE
  5
330
100
AcDbEntity
  8
ZUWAKU
  6
CONTINUOUS
 62
       3
100
AcDbLine
 10
-274.1875
 20
-320.61162988
 30
0.0
 11
279.125
 21
-320.61162988
 31
0.0
  0
LINE
  5
331
100
AcDbEntity
  8
ZUWAKU
  6
CONTINUOUS
 62
      43
100
AcDbLine
 10
-274.9375
 20
401.73245871
 30
0.0
 11
282.125
 21
401.73245871
 31
0.0
  0
LINE
  5
332
100
AcDbEntity
  8
ZUWAKU
  6
CONTINUOUS
 62
      43
100
AcDbLine
 10
-274.1875
 20
-421.86162988
 30
0.0
 11
279.125
 21
-421.86162988
 31
0.0
  0
LINE
  5
333
100
AcDbEntity
  8
ZUWAKU
  6
CONTINUOUS
 62
      43
100
AcDbLine
 10
-274.1875
 20
-385.67412988
 30
0.0
 11
279.125
 21
-385.67412988
 31
0.0
  0
LINE
  5
334
100
AcDbEntity
  8
ZUWAKU
  6
CONTINUOUS
 62
      43
100
AcDbLine
 10
-274.1875
 20
-380.61162988
 30
0.0
 11
279.125
 21
-380.61162988
 31
0.0
  0
LINE
  5
335
100
AcDbEntity
  8
ZUWAKU
  6
CONTINUOUS
 62
      43
100
AcDbLine
 10
-274.1875
 20
-380.61162988
 30
0.0
 11
-274.1875
 21
-230.61162988
 31
0.0
  0
LINE
  5
336
100
AcDbEntity
  8
ZUWAKU
  6
CONTINUOUS
 62
      43
100
AcDbLine
 10
279.125
 20
-380.61162988
 30
0.0
 11
279.125
 21
-230.61162988
 31
0.0
  0
LINE
  5
337
100
AcDbEntity
  8
ZUWAKU
  6
CONTINUOUS
 62
      43
100
AcDbLine
 10
-274.1875
 20
-230.61162988
 30
0.0
 11
279.125
 21
-230.61162988
 31
0.0
  0
ELLIPSE
  5
338
100
AcDbEntity
  8
ZUWAKU
  6
CONTINUOUS
 62
      43
100
AcDbEllipse
 10
-231.53125
 20
422.72548309
 30
0.0
 11
-38.34375
 21
0.0
 31
0.0
210
0.0
220
0.0
230
1.0
 40
0.40365317
 41
0.0
 42
6.2831853071796004
  0
LINE
  5
339
100
AcDbEntity
  8
ZUWAKU
  6
CONTINUOUS
 62
      43
100
AcDbLine
 10
-262.375
 20
430.13837012
 30
0.0
 11
-262.375
 21
415.51337012
 31
0.0
  0
LINE
  5
33A
100
AcDbEntity
  8
ZUWAKU
  6
CONTINUOUS
 62
      43
100
AcDbLine
 10
-200.5
 20
430.13837012
 30
0.0
 11
-200.5
 21
415.51337012
 31
0.0
  0
LINE
  5
33B
100
AcDbEntity
  8
ZUWAKU
  6
CONTINUOUS
 62
      43
100
AcDbLine
 10
-262.375
 20
430.13837012
 30
0.0
 11
-200.5
 21
430.13837012
 31
0.0
  0
LINE
  5
33C
100
AcDbEntity
  8
ZUWAKU
  6
CONTINUOUS
 62
      43
100
AcDbLine
 10
-262.375
 20
415.51337012
 30
0.0
 11
-200.5
 21
415.51337012
 31
0.0
  0
LINE
  5
33D
100
AcDbEntity
  8
ZUWAKU
  6
CONTINUOUS
 62
      43
100
AcDbLine
 10
-235.35280535
 20
438.12599625
 30
0.0
 11
-243.34043149
 21
430.13837012
 31
0.0
  0
LINE
  5
33E
100
AcDbEntity
  8
ZUWAKU
  6
CONTINUOUS
 62
      43
100
AcDbLine
 10
-236.2414949
 20
438.08583484
 30
0.0
 11
-244.18895962
 21
430.13837012
 31
0.0
  0
LINE
  5
33F
100
AcDbEntity
  8
ZUWAKU
  6
CONTINUOUS
 62
      43
100
AcDbLine
 10
-237.13923101
 20
438.03662687
 30
0.0
 11
-245.03748776
 21
430.13837012
 31
0.0
  0
LINE
  5
340
100
AcDbEntity
  8
ZUWAKU
  6
CONTINUOUS
 62
      43
100
AcDbLine
 10
-238.04638754
 20
437.97799847
 30
0.0
 11
-245.8860159
 21
430.13837012
 31
0.0
  0
LINE
  5
341
100
AcDbEntity
  8
ZUWAKU
  6
CONTINUOUS
 62
      43
100
AcDbLine
 10
-238.96338201
 20
437.90953215
 30
0.0
 11
-246.73454404
 21
430.13837012
 31
0.0
  0
LINE
  5
342
100
AcDbEntity
  8
ZUWAKU
  6
CONTINUOUS
 62
      43
100
AcDbLine
 10
-239.89068229
 20
437.83076
 30
0.0
 11
-247.58307217
 21
430.13837012
 31
0.0
  0
LINE
  5
343
100
AcDbEntity
  8
ZUWAKU
  6
CONTINUOUS
 62
      43
100
AcDbLine
 10
-240.82881478
 20
437.74115565
 30
0.0
 11
-248.43160031
 21
430.13837012
 31
0.0
  0
LINE
  5
344
100
AcDbEntity
  8
ZUWAKU
  6
CONTINUOUS
 62
      43
100
AcDbLine
 10
-241.77837433
 20
437.64012424
 30
0.0
 11
-249.28012845
 21
430.13837012
 31
0.0
  0
LINE
  5
345
100
AcDbEntity
  8
ZUWAKU
  6
CONTINUOUS
 62
      43
100
AcDbLine
 10
-242.74003663
 20
437.52699007
 30
0.0
 11
-250.12865659
 21
430.13837012
 31
0.0
  0
LINE
  5
346
100
AcDbEntity
  8
ZUWAKU
  6
CONTINUOUS
 62
      43
100
AcDbLine
 10
-243.71457364
 20
437.4009812
 30
0.0
 11
-250.97718472
 21
430.13837012
 31
0.0
  0
LINE
  5
347
100
AcDbEntity
  8
ZUWAKU
  6
CONTINUOUS
 62
      43
100
AcDbLine
 10
-244.70287316
 20
437.26120982
 30
0.0
 11
-251.82571286
 21
430.13837012
 31
0.0
  0
LINE
  5
348
100
AcDbEntity
  8
ZUWAKU
  6
CONTINUOUS
 62
      43
100
AcDbLine
 10
-245.70596394
 20
437.10664717
 30
0.0
 11
-252.674241
 21
430.13837012
 31
0.0
  0
LINE
  5
349
100
AcDbEntity
  8
ZUWAKU
  6
CONTINUOUS
 62
      43
100
AcDbLine
 10
-246.72504839
 20
436.93609086
 30
0.0
 11
-253.52276914
 21
430.13837012
 31
0.0
  0
LINE
  5
34A
100
AcDbEntity
  8
ZUWAKU
  6
CONTINUOUS
 62
      43
100
AcDbLine
 10
-247.76154583
 20
436.74812156
 30
0.0
 11
-254.37129727
 21
430.13837012
 31
0.0
  0
LINE
  5
34B
100
AcDbEntity
  8
ZUWAKU
  6
CONTINUOUS
 62
      43
100
AcDbLine
 10
-248.81715094
 20
436.54104459
 30
0.0
 11
-255.21982541
 21
430.13837012
 31
0.0
  0
LINE
  5
34C
100
AcDbEntity
  8
ZUWAKU
  6
CONTINUOUS
 62
      43
100
AcDbLine
 10
-262.375
 20
422.98319553
 30
0.0
 11
-262.53232541
 21
422.82587012
 31
0.0
  0
LINE
  5
34D
100
AcDbEntity
  8
ZUWAKU
  6
CONTINUOUS
 62
      43
100
AcDbLine
 10
-249.89391434
 20
436.31280933
 30
0.0
 11
-256.06835355
 21
430.13837012
 31
0.0
  0
LINE
  5
34E
100
AcDbEntity
  8
ZUWAKU
  6
CONTINUOUS
 62
      43
100
AcDbLine
 10
-262.375
 20
423.83172367
 30
0.0
 11
-263.38085355
 21
422.82587012
 31
0.0
  0
LINE
  5
34F
100
AcDbEntity
  8
ZUWAKU
  6
CONTINUOUS
 62
      43
100
AcDbLine
 10
-250.99435663
 20
436.06089518
 30
0.0
 11
-256.91688169
 21
430.13837012
 31
0.0
  0
LINE
  5
350
100
AcDbEntity
  8
ZUWAKU
  6
CONTINUOUS
 62
      43
100
AcDbLine
 10
-262.375
 20
424.6802518
 30
0.0
 11
-264.22938169
 21
422.82587012
 31
0.0
  0
LINE
  5
351
100
AcDbEntity
  8
ZUWAKU
  6
CONTINUOUS
 62
      43
100
AcDbLine
 10
-252.12163459
 20
435.78214535
 30
0.0
 11
-257.76540982
 21
430.13837012
 31
0.0
  0
LINE
  5
352
100
AcDbEntity
  8
ZUWAKU
  6
CONTINUOUS
 62
      43
100
AcDbLine
 10
-262.375
 20
425.52877994
 30
0.0
 11
-265.07790982
 21
422.82587012
 31
0.0
  0
LINE
  5
353
100
AcDbEntity
  8
ZUWAKU
  6
CONTINUOUS
 62
      43
100
AcDbLine
 10
-253.27979226
 20
435.47251582
 30
0.0
 11
-258.61393796
 21
430.13837012
 31
0.0
  0
LINE
  5
354
100
AcDbEntity
  8
ZUWAKU
  6
CONTINUOUS
 62
      43
100
AcDbLine
 10
-262.375
 20
426.37730808
 30
0.0
 11
-265.92643796
 21
422.82587012
 31
0.0
  0
LINE
  5
355
100
AcDbEntity
  8
ZUWAKU
  6
CONTINUOUS
 62
      43
100
AcDbLine
 10
-254.47415675
 20
435.12667946
 30
0.0
 11
-259.4624661
 21
430.13837012
 31
0.0
  0
LINE
  5
356
100
AcDbEntity
  8
ZUWAKU
  6
CONTINUOUS
 62
      43
100
AcDbLine
 10
-262.375
 20
427.22583622
 30
0.0
 11
-266.7749661
 21
422.82587012
 31
0.0
  0
LINE
  5
357
100
AcDbEntity
  8
ZUWAKU
  6
CONTINUOUS
 62
      43
100
AcDbLine
 10
-255.71199672
 20
434.73736763
 30
0.0
 11
-260.31099424
 21
430.13837012
 31
0.0
  0
LINE
  5
358
100
AcDbEntity
  8
ZUWAKU
  6
CONTINUOUS
 62
      43
100
AcDbLine
 10
-262.375
 20
428.07436435
 30
0.0
 11
-267.62349424
 21
422.82587012
 31
0.0
  0
LINE
  5
359
100
AcDbEntity
  8
ZUWAKU
  6
CONTINUOUS
 62
      43
100
AcDbLine
 10
-257.00369446
 20
434.29419803
 30
0.0
 11
-261.15952237
 21
430.13837012
 31
0.0
  0
LINE
  5
35A
100
AcDbEntity
  8
ZUWAKU
  6
CONTINUOUS
 62
      43
100
AcDbLine
 10
-262.375
 20
428.92289249
 30
0.0
 11
-268.47202237
 21
422.82587012
 31
0.0
  0
LINE
  5
35B
100
AcDbEntity
  8
ZUWAKU
  6
CONTINUOUS
 62
      43
100
AcDbLine
 10
-258.36502933
 20
433.7813913
 30
0.0
 11
-262.00805051
 21
430.13837012
 31
0.0
  0
LINE
  5
35C
100
AcDbEntity
  8
ZUWAKU
  6
CONTINUOUS
 62
      43
100
AcDbLine
 10
-262.375
 20
429.77142063
 30
0.0
 11
-269.32055051
 21
422.82587012
 31
0.0
  0
LINE
  5
35D
100
AcDbEntity
  8
ZUWAKU
  6
CONTINUOUS
 62
      43
100
AcDbLine
 10
-259.82222262
 20
433.17272614
 30
0.0
 11
-269.86169004
 21
423.13325872
 31
0.0
  0
LINE
  5
35E
100
AcDbEntity
  8
ZUWAKU
  6
CONTINUOUS
 62
      43
100
AcDbLine
 10
-261.42543332
 20
432.41804359
 30
0.0
 11
-269.71776554
 21
424.12571136
 31
0.0
  0
LINE
  5
35F
100
AcDbEntity
  8
ZUWAKU
  6
CONTINUOUS
 62
      43
100
AcDbLine
 10
-263.29954749
 20
431.39245755
 30
0.0
 11
-269.30293756
 21
425.38906748
 31
0.0
  0
LINE
  5
360
100
AcDbEntity
  8
ZUWAKU
  6
CONTINUOUS
 62
      43
100
AcDbLine
 10
-266.22084527
 20
429.31968791
 30
0.0
 11
-267.84092598
 21
427.6996072
 31
0.0
  0
LINE
  5
361
100
AcDbEntity
  8
ZUWAKU
  6
CONTINUOUS
 62
      43
100
AcDbLine
 10
-234.47282666
 20
438.15744681
 30
0.0
 11
-242.49190335
 21
430.13837012
 31
0.0
  0
LINE
  5
362
100
AcDbEntity
  8
ZUWAKU
  6
CONTINUOUS
 62
      43
100
AcDbLine
 10
-233.6012566
 20
438.18048873
 30
0.0
 11
-241.64337521
 21
430.13837012
 31
0.0
  0
LINE
  5
363
100
AcDbEntity
  8
ZUWAKU
  6
CONTINUOUS
 62
      43
100
AcDbLine
 10
-232.73782257
 20
438.19539462
 30
0.0
 11
-240.79484707
 21
430.13837012
 31
0.0
  0
LINE
  5
364
100
AcDbEntity
  8
ZUWAKU
  6
CONTINUOUS
 62
      43
100
AcDbLine
 10
-231.88227828
 20
438.20241078
 30
0.0
 11
-239.94631894
 21
430.13837012
 31
0.0
  0
LINE
  5
365
100
AcDbEntity
  8
ZUWAKU
  6
CONTINUOUS
 62
      43
100
AcDbLine
 10
-231.03440096
 20
438.20175995
 30
0.0
 11
-239.0977908
 21
430.13837012
 31
0.0
  0
LINE
  5
366
100
AcDbEntity
  8
ZUWAKU
  6
CONTINUOUS
 62
      43
100
AcDbLine
 10
-230.19398901
 20
438.19364377
 30
0.0
 11
-238.24926266
 21
430.13837012
 31
0.0
  0
LINE
  5
367
100
AcDbEntity
  8
ZUWAKU
  6
CONTINUOUS
 62
      43
100
AcDbLine
 10
-229.36085989
 20
438.17824476
 30
0.0
 11
-237.40073452
 21
430.13837012
 31
0.0
  0
LINE
  5
368
100
AcDbEntity
  8
ZUWAKU
  6
CONTINUOUS
 62
      43
100
AcDbLine
 10
-228.53484842
 20
438.15572808
 30
0.0
 11
-236.55220639
 21
430.13837012
 31
0.0
  0
LINE
  5
369
100
AcDbEntity
  8
ZUWAKU
  6
CONTINUOUS
 62
      43
100
AcDbLine
 10
-227.71580525
 20
438.12624311
 30
0.0
 11
-235.70367825
 21
430.13837012
 31
0.0
  0
LINE
  5
36A
100
AcDbEntity
  8
ZUWAKU
  6
CONTINUOUS
 62
      43
100
AcDbLine
 10
-226.90359554
 20
438.08992469
 30
0.0
 11
-234.85515011
 21
430.13837012
 31
0.0
  0
LINE
  5
36B
100
AcDbEntity
  8
ZUWAKU
  6
CONTINUOUS
 62
      43
100
AcDbLine
 10
-226.09809783
 20
438.04689426
 30
0.0
 11
-234.00662197
 21
430.13837012
 31
0.0
  0
LINE
  5
36C
100
AcDbEntity
  8
ZUWAKU
  6
CONTINUOUS
 62
      43
100
AcDbLine
 10
-225.29920306
 20
437.99726089
 30
0.0
 11
-233.15809384
 21
430.13837012
 31
0.0
  0
LINE
  5
36D
100
AcDbEntity
  8
ZUWAKU
  6
CONTINUOUS
 62
      43
100
AcDbLine
 10
-224.50681372
 20
437.9411221
 30
0.0
 11
-232.3095657
 21
430.13837012
 31
0.0
  0
LINE
  5
36E
100
AcDbEntity
  8
ZUWAKU
  6
CONTINUOUS
 62
      43
100
AcDbLine
 10
-223.7208431
 20
437.87856458
 30
0.0
 11
-231.46103756
 21
430.13837012
 31
0.0
  0
LINE
  5
36F
100
AcDbEntity
  8
ZUWAKU
  6
CONTINUOUS
 62
      43
100
AcDbLine
 10
-222.94121468
 20
437.80966486
 30
0.0
 11
-230.61250943
 21
430.13837012
 31
0.0
  0
LINE
  5
370
100
AcDbEntity
  8
ZUWAKU
  6
CONTINUOUS
 62
      43
100
AcDbLine
 10
-222.16786158
 20
437.73448983
 30
0.0
 11
-229.76398129
 21
430.13837012
 31
0.0
  0
LINE
  5
371
100
AcDbEntity
  8
ZUWAKU
  6
CONTINUOUS
 62
      43
100
AcDbLine
 10
-221.40072607
 20
437.6530972
 30
0.0
 11
-228.91545315
 21
430.13837012
 31
0.0
  0
LINE
  5
372
100
AcDbEntity
  8
ZUWAKU
  6
CONTINUOUS
 62
      43
100
AcDbLine
 10
-220.6397592
 20
437.56553593
 30
0.0
 11
-228.06692501
 21
430.13837012
 31
0.0
  0
LINE
  5
373
100
AcDbEntity
  8
ZUWAKU
  6
CONTINUOUS
 62
      43
100
AcDbLine
 10
-219.88492046
 20
437.47184653
 30
0.0
 11
-227.21839688
 21
430.13837012
 31
0.0
  0
LINE
  5
374
100
AcDbEntity
  8
ZUWAKU
  6
CONTINUOUS
 62
      43
100
AcDbLine
 10
-219.13617754
 20
437.37206132
 30
0.0
 11
-226.36986874
 21
430.13837012
 31
0.0
  0
LINE
  5
375
100
AcDbEntity
  8
ZUWAKU
  6
CONTINUOUS
 62
      43
100
AcDbLine
 10
-218.39350608
 20
437.26620464
 30
0.0
 11
-225.5213406
 21
430.13837012
 31
0.0
  0
LINE
  5
376
100
AcDbEntity
  8
ZUWAKU
  6
CONTINUOUS
 62
      43
100
AcDbLine
 10
-217.65688956
 20
437.15429303
 30
0.0
 11
-224.67281246
 21
430.13837012
 31
0.0
  0
LINE
  5
377
100
AcDbEntity
  8
ZUWAKU
  6
CONTINUOUS
 62
      43
100
AcDbLine
 10
-216.92631913
 20
437.03633531
 30
0.0
 11
-223.82428433
 21
430.13837012
 31
0.0
  0
LINE
  5
378
100
AcDbEntity
  8
ZUWAKU
  6
CONTINUOUS
 62
      43
100
AcDbLine
 10
-216.20179364
 20
436.91233267
 30
0.0
 11
-222.97575619
 21
430.13837012
 31
0.0
  0
LINE
  5
379
100
AcDbEntity
  8
ZUWAKU
  6
CONTINUOUS
 62
      43
100
AcDbLine
 10
-215.48331955
 20
436.78227862
 30
0.0
 11
-222.12722805
 21
430.13837012
 31
0.0
  0
LINE
  5
37A
100
AcDbEntity
  8
ZUWAKU
  6
CONTINUOUS
 62
      43
100
AcDbLine
 10
-214.77091102
 20
436.64615901
 30
0.0
 11
-221.27869991
 21
430.13837012
 31
0.0
  0
LINE
  5
37B
100
AcDbEntity
  8
ZUWAKU
  6
CONTINUOUS
 62
      43
100
AcDbLine
 10
-214.06459
 20
436.50395189
 30
0.0
 11
-220.43017178
 21
430.13837012
 31
0.0
  0
LINE
  5
37C
100
AcDbEntity
  8
ZUWAKU
  6
CONTINUOUS
 62
      43
100
AcDbLine
 10
-213.36438634
 20
436.35562741
 30
0.0
 11
-219.58164364
 21
430.13837012
 31
0.0
  0
LINE
  5
37D
100
AcDbEntity
  8
ZUWAKU
  6
CONTINUOUS
 62
      43
100
AcDbLine
 10
-212.67033801
 20
436.20114761
 30
0.0
 11
-218.7331155
 21
430.13837012
 31
0.0
  0
LINE
  5
37E
100
AcDbEntity
  8
ZUWAKU
  6
CONTINUOUS
 62
      43
100
AcDbLine
 10
-211.98249133
 20
436.04046616
 30
0.0
 11
-217.88458736
 21
430.13837012
 31
0.0
  0
LINE
  5
37F
100
AcDbEntity
  8
ZUWAKU
  6
CONTINUOUS
 62
      43
100
AcDbLine
 10
-211.30090129
 20
435.87352806
 30
0.0
 11
-217.03605923
 21
430.13837012
 31
0.0
  0
LINE
  5
380
100
AcDbEntity
  8
ZUWAKU
  6
CONTINUOUS
 62
      43
100
AcDbLine
 10
-210.62563193
 20
435.70026928
 30
0.0
 11
-216.18753109
 21
430.13837012
 31
0.0
  0
LINE
  5
381
100
AcDbEntity
  8
ZUWAKU
  6
CONTINUOUS
 62
      43
100
AcDbLine
 10
-209.95675676
 20
435.52061631
 30
0.0
 11
-215.33900295
 21
430.13837012
 31
0.0
  0
LINE
  5
382
100
AcDbEntity
  8
ZUWAKU
  6
CONTINUOUS
 62
      43
100
AcDbLine
 10
-209.2943593
 20
435.33448564
 30
0.0
 11
-214.49047481
 21
430.13837012
 31
0.0
  0
LINE
  5
383
100
AcDbEntity
  8
ZUWAKU
  6
CONTINUOUS
 62
      43
100
AcDbLine
 10
-208.63853366
 20
435.14178314
 30
0.0
 11
-213.64194668
 21
430.13837012
 31
0.0
  0
LINE
  5
384
100
AcDbEntity
  8
ZUWAKU
  6
CONTINUOUS
 62
      43
100
AcDbLine
 10
-207.98938527
 20
434.94240338
 30
0.0
 11
-212.79341854
 21
430.13837012
 31
0.0
  0
LINE
  5
385
100
AcDbEntity
  8
ZUWAKU
  6
CONTINUOUS
 62
      43
100
AcDbLine
 10
-207.3470317
 20
434.73622882
 30
0.0
 11
-211.9448904
 21
430.13837012
 31
0.0
  0
LINE
  5
386
100
AcDbEntity
  8
ZUWAKU
  6
CONTINUOUS
 62
      43
100
AcDbLine
 10
-206.71160357
 20
434.52312881
 30
0.0
 11
-211.09636226
 21
430.13837012
 31
0.0
  0
LINE
  5
387
100
AcDbEntity
  8
ZUWAKU
  6
CONTINUOUS
 62
      43
100
AcDbLine
 10
-206.08324564
 20
434.3029586
 30
0.0
 11
-210.24783413
 21
430.13837012
 31
0.0
  0
LINE
  5
388
100
AcDbEntity
  8
ZUWAKU
  6
CONTINUOUS
 62
      43
100
AcDbLine
 10
-205.46211809
 20
434.07555802
 30
0.0
 11
-209.39930599
 21
430.13837012
 31
0.0
  0
LINE
  5
389
100
AcDbEntity
  8
ZUWAKU
  6
CONTINUOUS
 62
      43
100
AcDbLine
 10
-204.84839795
 20
433.84075002
 30
0.0
 11
-208.55077785
 21
430.13837012
 31
0.0
  0
LINE
  5
38A
100
AcDbEntity
  8
ZUWAKU
  6
CONTINUOUS
 62
      43
100
AcDbLine
 10
-204.24228077
 20
433.59833906
 30
0.0
 11
-207.70224971
 21
430.13837012
 31
0.0
  0
LINE
  5
38B
100
AcDbEntity
  8
ZUWAKU
  6
CONTINUOUS
 62
      43
100
AcDbLine
 10
-203.64398259
 20
433.3481091
 30
0.0
 11
-206.85372158
 21
430.13837012
 31
0.0
  0
LINE
  5
38C
100
AcDbEntity
  8
ZUWAKU
  6
CONTINUOUS
 62
      43
100
AcDbLine
 10
-203.05374221
 20
433.08982135
 30
0.0
 11
-206.00519344
 21
430.13837012
 31
0.0
  0
LINE
  5
38D
100
AcDbEntity
  8
ZUWAKU
  6
CONTINUOUS
 62
      43
100
AcDbLine
 10
-202.47182383
 20
432.82321159
 30
0.0
 11
-205.1566653
 21
430.13837012
 31
0.0
  0
LINE
  5
38E
100
AcDbEntity
  8
ZUWAKU
  6
CONTINUOUS
 62
      43
100
AcDbLine
 10
-201.89852019
 20
432.54798709
 30
0.0
 11
-204.30813717
 21
430.13837012
 31
0.0
  0
LINE
  5
38F
100
AcDbEntity
  8
ZUWAKU
  6
CONTINUOUS
 62
      43
100
AcDbLine
 10
-201.33415628
 20
432.26382286
 30
0.0
 11
-203.45960903
 21
430.13837012
 31
0.0
  0
LINE
  5
390
100
AcDbEntity
  8
ZUWAKU
  6
CONTINUOUS
 62
      43
100
AcDbLine
 10
-200.77909371
 20
431.9703573
 30
0.0
 11
-202.61108089
 21
430.13837012
 31
0.0
  0
LINE
  5
391
100
AcDbEntity
  8
ZUWAKU
  6
CONTINUOUS
 62
      43
100
AcDbLine
 10
-200.23373593
 20
431.66718694
 30
0.0
 11
-201.76255275
 21
430.13837012
 31
0.0
  0
LINE
  5
392
100
AcDbEntity
  8
ZUWAKU
  6
CONTINUOUS
 62
      43
100
AcDbLine
 10
-199.69853459
 20
431.35386015
 30
0.0
 11
-200.91402462
 21
430.13837012
 31
0.0
  0
LINE
  5
393
100
AcDbEntity
  8
ZUWAKU
  6
CONTINUOUS
 62
      43
100
AcDbLine
 10
-199.17399715
 20
431.02986944
 30
0.0
 11
-200.5
 21
429.7038666
 31
0.0
  0
LINE
  5
394
100
AcDbEntity
  8
ZUWAKU
  6
CONTINUOUS
 62
      43
100
AcDbLine
 10
-198.66069628
 20
430.69464218
 30
0.0
 11
-200.5
 21
428.85533846
 31
0.0
  0
LINE
  5
395
100
AcDbEntity
  8
ZUWAKU
  6
CONTINUOUS
 62
      43
100
AcDbLine
 10
-198.15928137
 20
430.34752895
 30
0.0
 11
-200.5
 21
428.00681032
 31
0.0
  0
LINE
  5
396
100
AcDbEntity
  8
ZUWAKU
  6
CONTINUOUS
 62
      43
100
AcDbLine
 10
-197.67049297
 20
429.98778921
 30
0.0
 11
-200.5
 21
427.15828218
 31
0.0
  0
LINE
  5
397
100
AcDbEntity
  8
ZUWAKU
  6
CONTINUOUS
 62
      43
100
AcDbLine
 10
-197.19518096
 20
429.61457309
 30
0.0
 11
-200.5
 21
426.30975405
 31
0.0
  0
LINE
  5
398
100
AcDbEntity
  8
ZUWAKU
  6
CONTINUOUS
 62
      43
100
AcDbLine
 10
-196.73432777
 20
429.22689814
 30
0.0
 11
-200.5
 21
425.46122591
 31
0.0
  0
LINE
  5
399
100
AcDbEntity
  8
ZUWAKU
  6
CONTINUOUS
 62
      43
100
AcDbLine
 10
-196.28907846
 20
428.82361931
 30
0.0
 11
-200.5
 21
424.61269777
 31
0.0
  0
LINE
  5
39A
100
AcDbEntity
  8
ZUWAKU
  6
CONTINUOUS
 62
      43
100
AcDbLine
 10
-195.86078041
 20
428.40338923
 30
0.0
 11
-200.5
 21
423.76416963
 31
0.0
  0
LINE
  5
39B
100
AcDbEntity
  8
ZUWAKU
  6
CONTINUOUS
 62
      43
100
AcDbLine
 10
-195.45103642
 20
427.96460507
 30
0.0
 11
-200.5
 21
422.9156415
 31
0.0
  0
LINE
  5
39C
100
AcDbEntity
  8
ZUWAKU
  6
CONTINUOUS
 62
      43
100
AcDbLine
 10
-195.06177762
 20
427.50533574
 30
0.0
 11
-199.74124324
 21
422.82587012
 31
0.0
  0
LINE
  5
39D
100
AcDbEntity
  8
ZUWAKU
  6
CONTINUOUS
 62
      43
100
AcDbLine
 10
-194.69536559
 20
427.02321963
 30
0.0
 11
-198.8927151
 21
422.82587012
 31
0.0
  0
LINE
  5
39E
100
AcDbEntity
  8
ZUWAKU
  6
CONTINUOUS
 62
      43
100
AcDbLine
 10
-194.35474
 20
426.51531709
 30
0.0
 11
-198.04418697
 21
422.82587012
 31
0.0
  0
LINE
  5
39F
100
AcDbEntity
  8
ZUWAKU
  6
CONTINUOUS
 62
      43
100
AcDbLine
 10
-194.04363883
 20
425.97789012
 30
0.0
 11
-197.19565883
 21
422.82587012
 31
0.0
  0
LINE
  5
3A0
100
AcDbEntity
  8
ZUWAKU
  6
CONTINUOUS
 62
      43
100
AcDbLine
 10
-193.76694088
 20
425.40605993
 30
0.0
 11
-196.34713069
 21
422.82587012
 31
0.0
  0
LINE
  5
3A1
100
AcDbEntity
  8
ZUWAKU
  6
CONTINUOUS
 62
      43
100
AcDbLine
 10
-193.53122541
 20
424.79324726
 30
0.0
 11
-195.49860255
 21
422.82587012
 31
0.0
  0
LINE
  5
3A2
100
AcDbEntity
  8
ZUWAKU
  6
CONTINUOUS
 62
      43
100
AcDbLine
 10
-193.34574593
 20
424.13019861
 30
0.0
 11
-194.65007442
 21
422.82587012
 31
0.0
  0
LINE
  5
3A3
100
AcDbEntity
  8
ZUWAKU
  6
CONTINUOUS
 62
      43
100
AcDbLine
 10
-193.2242701
 20
423.4031463
 30
0.0
 11
-193.80154628
 21
422.82587012
 31
0.0
  0
LINE
  5
3A4
100
AcDbEntity
  8
ZUWAKU
  6
CONTINUOUS
 62
      43
100
AcDbLine
 10
-219.62168237
 20
415.51337012
 30
0.0
 11
-227.81425157
 21
407.32080092
 31
0.0
  0
LINE
  5
3A5
100
AcDbEntity
  8
ZUWAKU
  6
CONTINUOUS
 62
      43
100
AcDbLine
 10
-220.47021051
 20
415.51337012
 30
0.0
 11
-228.6932203
 21
407.29036032
 31
0.0
  0
LINE
  5
3A6
100
AcDbEntity
  8
ZUWAKU
  6
CONTINUOUS
 62
      43
100
AcDbLine
 10
-221.31873865
 20
415.51337012
 30
0.0
 11
-229.56381412
 21
407.26829464
 31
0.0
  0
LINE
  5
3A7
100
AcDbEntity
  8
ZUWAKU
  6
CONTINUOUS
 62
      43
100
AcDbLine
 10
-222.16726678
 20
415.51337012
 30
0.0
 11
-230.42630237
 21
407.25433453
 31
0.0
  0
LINE
  5
3A8
100
AcDbEntity
  8
ZUWAKU
  6
CONTINUOUS
 62
      43
100
AcDbLine
 10
-223.01579492
 20
415.51337012
 30
0.0
 11
-231.28092841
 21
407.24823663
 31
0.0
  0
LINE
  5
3A9
100
AcDbEntity
  8
ZUWAKU
  6
CONTINUOUS
 62
      43
100
AcDbLine
 10
-223.86432306
 20
415.51337012
 30
0.0
 11
-232.12791238
 21
407.2497808
 31
0.0
  0
LINE
  5
3AA
100
AcDbEntity
  8
ZUWAKU
  6
CONTINUOUS
 62
      43
100
AcDbLine
 10
-224.71285119
 20
415.51337012
 30
0.0
 11
-232.96745355
 21
407.25876776
 31
0.0
  0
LINE
  5
3AB
100
AcDbEntity
  8
ZUWAKU
  6
CONTINUOUS
 62
      43
100
AcDbLine
 10
-225.56137933
 20
415.51337012
 30
0.0
 11
-233.7997323
 21
407.27501715
 31
0.0
  0
LINE
  5
3AC
100
AcDbEntity
  8
ZUWAKU
  6
CONTINUOUS
 62
      43
100
AcDbLine
 10
-226.40990747
 20
415.51337012
 30
0.0
 11
-234.62491186
 21
407.29836573
 31
0.0
  0
LINE
  5
3AD
100
AcDbEntity
  8
ZUWAKU
  6
CONTINUOUS
 62
      43
100
AcDbLine
 10
-227.25843561
 20
415.51337012
 30
0.0
 11
-235.44313981
 21
407.32866592
 31
0.0
  0
LINE
  5
3AE
100
AcDbEntity
  8
ZUWAKU
  6
CONTINUOUS
 62
      43
100
AcDbLine
 10
-228.10696374
 20
415.51337012
 30
0.0
 11
-236.25454935
 21
407.36578451
 31
0.0
  0
LINE
  5
3AF
100
AcDbEntity
  8
ZUWAKU
  6
CONTINUOUS
 62
      43
100
AcDbLine
 10
-228.95549188
 20
415.51337012
 30
0.0
 11
-237.05926042
 21
407.40960158
 31
0.0
  0
LINE
  5
3B0
100
AcDbEntity
  8
ZUWAKU
  6
CONTINUOUS
 62
      43
100
AcDbLine
 10
-229.80402002
 20
415.51337012
 30
0.0
 11
-237.85738068
 21
407.46000946
 31
0.0
  0
LINE
  5
3B1
100
AcDbEntity
  8
ZUWAKU
  6
CONTINUOUS
 62
      43
100
AcDbLine
 10
-230.65254816
 20
415.51337012
 30
0.0
 11
-238.64900632
 21
407.51691196
 31
0.0
  0
LINE
  5
3B2
100
AcDbEntity
  8
ZUWAKU
  6
CONTINUOUS
 62
      43
100
AcDbLine
 10
-231.50107629
 20
415.51337012
 30
0.0
 11
-239.4342228
 21
407.58022361
 31
0.0
  0
LINE
  5
3B3
100
AcDbEntity
  8
ZUWAKU
  6
CONTINUOUS
 62
      43
100
AcDbLine
 10
-232.34960443
 20
415.51337012
 30
0.0
 11
-240.21310549
 21
407.64986906
 31
0.0
  0
LINE
  5
3B4
100
AcDbEntity
  8
ZUWAKU
  6
CONTINUOUS
 62
      43
100
AcDbLine
 10
-233.19813257
 20
415.51337012
 30
0.0
 11
-240.98572016
 21
407.72578253
 31
0.0
  0
LINE
  5
3B5
100
AcDbEntity
  8
ZUWAKU
  6
CONTINUOUS
 62
      43
100
AcDbLine
 10
-234.04666071
 20
415.51337012
 30
0.0
 11
-241.75212348
 21
407.80790734
 31
0.0
  0
LINE
  5
3B6
100
AcDbEntity
  8
ZUWAKU
  6
CONTINUOUS
 62
      43
100
AcDbLine
 10
-234.89518884
 20
415.51337012
 30
0.0
 11
-242.5123634
 21
407.89619557
 31
0.0
  0
LINE
  5
3B7
100
AcDbEntity
  8
ZUWAKU
  6
CONTINUOUS
 62
      43
100
AcDbLine
 10
-235.74371698
 20
415.51337012
 30
0.0
 11
-243.26647942
 21
407.99060768
 31
0.0
  0
LINE
  5
3B8
100
AcDbEntity
  8
ZUWAKU
  6
CONTINUOUS
 62
      43
100
AcDbLine
 10
-236.59224512
 20
415.51337012
 30
0.0
 11
-244.01450292
 21
408.09111232
 31
0.0
  0
LINE
  5
3B9
100
AcDbEntity
  8
ZUWAKU
  6
CONTINUOUS
 62
      43
100
AcDbLine
 10
-237.44077326
 20
415.51337012
 30
0.0
 11
-244.75645731
 21
408.19768606
 31
0.0
  0
LINE
  5
3BA
100
AcDbEntity
  8
ZUWAKU
  6
CONTINUOUS
 62
      43
100
AcDbLine
 10
-238.28930139
 20
415.51337012
 30
0.0
 11
-245.49235823
 21
408.31031329
 31
0.0
  0
LINE
  5
3BB
100
AcDbEntity
  8
ZUWAKU
  6
CONTINUOUS
 62
      43
100
AcDbLine
 10
-239.13782953
 20
415.51337012
 30
0.0
 11
-246.22221357
 21
408.42898608
 31
0.0
  0
LINE
  5
3BC
100
AcDbEntity
  8
ZUWAKU
  6
CONTINUOUS
 62
      43
100
AcDbLine
 10
-239.98635767
 20
415.51337012
 30
0.0
 11
-246.94602362
 21
408.55370417
 31
0.0
  0
LINE
  5
3BD
100
AcDbEntity
  8
ZUWAKU
  6
CONTINUOUS
 62
      43
100
AcDbLine
 10
-240.83488581
 20
415.51337012
 30
0.0
 11
-247.66378099
 21
408.68447493
 31
0.0
  0
LINE
  5
3BE
100
AcDbEntity
  8
ZUWAKU
  6
CONTINUOUS
 62
      43
100
AcDbLine
 10
-241.68341394
 20
415.51337012
 30
0.0
 11
-248.37547061
 21
408.82131345
 31
0.0
  0
LINE
  5
3BF
100
AcDbEntity
  8
ZUWAKU
  6
CONTINUOUS
 62
      43
100
AcDbLine
 10
-242.53194208
 20
415.51337012
 30
0.0
 11
-249.08106961
 21
408.96424259
 31
0.0
  0
LINE
  5
3C0
100
AcDbEntity
  8
ZUWAKU
  6
CONTINUOUS
 62
      43
100
AcDbLine
 10
-243.38047022
 20
415.51337012
 30
0.0
 11
-249.78054718
 21
409.11329315
 31
0.0
  0
LINE
  5
3C1
100
AcDbEntity
  8
ZUWAKU
  6
CONTINUOUS
 62
      43
100
AcDbLine
 10
-244.22899836
 20
415.51337012
 30
0.0
 11
-250.47386439
 21
409.26850408
 31
0.0
  0
LINE
  5
3C2
100
AcDbEntity
  8
ZUWAKU
  6
CONTINUOUS
 62
      43
100
AcDbLine
 10
-245.07752649
 20
415.51337012
 30
0.0
 11
-251.1609739
 21
409.42992271
 31
0.0
  0
LINE
  5
3C3
100
AcDbEntity
  8
ZUWAKU
  6
CONTINUOUS
 62
      43
100
AcDbLine
 10
-245.92605463
 20
415.51337012
 30
0.0
 11
-251.84181967
 21
409.59760508
 31
0.0
  0
LINE
  5
3C4
100
AcDbEntity
  8
ZUWAKU
  6
CONTINUOUS
 62
      43
100
AcDbLine
 10
-246.77458277
 20
415.51337012
 30
0.0
 11
-252.51633657
 21
409.77161632
 31
0.0
  0
LINE
  5
3C5
100
AcDbEntity
  8
ZUWAKU
  6
CONTINUOUS
 62
      43
100
AcDbLine
 10
-247.62311091
 20
415.51337012
 30
0.0
 11
-253.18444993
 21
409.9520311
 31
0.0
  0
LINE
  5
3C6
100
AcDbEntity
  8
ZUWAKU
  6
CONTINUOUS
 62
      43
100
AcDbLine
 10
-248.47163904
 20
415.51337012
 30
0.0
 11
-253.84607501
 21
410.13893415
 31
0.0
  0
LINE
  5
3C7
100
AcDbEntity
  8
ZUWAKU
  6
CONTINUOUS
 62
      43
100
AcDbLine
 10
-249.32016718
 20
415.51337012
 30
0.0
 11
-254.5011164
 21
410.33242089
 31
0.0
  0
LINE
  5
3C8
100
AcDbEntity
  8
ZUWAKU
  6
CONTINUOUS
 62
      43
100
AcDbLine
 10
-250.16869532
 20
415.51337012
 30
0.0
 11
-255.14946728
 21
410.53259816
 31
0.0
  0
LINE
  5
3C9
100
AcDbEntity
  8
ZUWAKU
  6
CONTINUOUS
 62
      43
100
AcDbLine
 10
-251.01722346
 20
415.51337012
 30
0.0
 11
-255.79100859
 21
410.73958498
 31
0.0
  0
LINE
  5
3CA
100
AcDbEntity
  8
ZUWAKU
  6
CONTINUOUS
 62
      43
100
AcDbLine
 10
-251.86575159
 20
415.51337012
 30
0.0
 11
-256.4256081
 21
410.95351361
 31
0.0
  0
LINE
  5
3CB
100
AcDbEntity
  8
ZUWAKU
  6
CONTINUOUS
 62
      43
100
AcDbLine
 10
-252.71427973
 20
415.51337012
 30
0.0
 11
-257.05311928
 21
411.17453057
 31
0.0
  0
LINE
  5
3CC
100
AcDbEntity
  8
ZUWAKU
  6
CONTINUOUS
 62
      43
100
AcDbLine
 10
-253.56280787
 20
415.51337012
 30
0.0
 11
-257.67338005
 21
411.40279794
 31
0.0
  0
LINE
  5
3CD
100
AcDbEntity
  8
ZUWAKU
  6
CONTINUOUS
 62
      43
100
AcDbLine
 10
-254.411336
 20
415.51337012
 30
0.0
 11
-258.28621128
 21
411.63849485
 31
0.0
  0
LINE
  5
3CE
100
AcDbEntity
  8
ZUWAKU
  6
CONTINUOUS
 62
      43
100
AcDbLine
 10
-255.25986414
 20
415.51337012
 30
0.0
 11
-258.89141509
 21
411.88181917
 31
0.0
  0
LINE
  5
3CF
100
AcDbEntity
  8
ZUWAKU
  6
CONTINUOUS
 62
      43
100
AcDbLine
 10
-256.10839228
 20
415.51337012
 30
0.0
 11
-259.48877289
 21
412.13298951
 31
0.0
  0
LINE
  5
3D0
100
AcDbEntity
  8
ZUWAKU
  6
CONTINUOUS
 62
      43
100
AcDbLine
 10
-256.95692042
 20
415.51337012
 30
0.0
 11
-260.07804301
 21
412.39224752
 31
0.0
  0
LINE
  5
3D1
100
AcDbEntity
  8
ZUWAKU
  6
CONTINUOUS
 62
      43
100
AcDbLine
 10
-257.80544855
 20
415.51337012
 30
0.0
 11
-260.65895806
 21
412.65986061
 31
0.0
  0
LINE
  5
3D2
100
AcDbEntity
  8
ZUWAKU
  6
CONTINUOUS
 62
      43
100
AcDbLine
 10
-258.65397669
 20
415.51337012
 30
0.0
 11
-261.23122167
 21
412.93612514
 31
0.0
  0
LINE
  5
3D3
100
AcDbEntity
  8
ZUWAKU
  6
CONTINUOUS
 62
      43
100
AcDbLine
 10
-259.50250483
 20
415.51337012
 30
0.0
 11
-261.79450478
 21
413.22137017
 31
0.0
  0
LINE
  5
3D4
100
AcDbEntity
  8
ZUWAKU
  6
CONTINUOUS
 62
      43
100
AcDbLine
 10
-260.35103297
 20
415.51337012
 30
0.0
 11
-262.34844111
 21
413.51596198
 31
0.0
  0
LINE
  5
3D5
100
AcDbEntity
  8
ZUWAKU
  6
CONTINUOUS
 62
      43
100
AcDbLine
 10
-261.1995611
 20
415.51337012
 30
0.0
 11
-262.89262186
 21
413.82030936
 31
0.0
  0
LINE
  5
3D6
100
AcDbEntity
  8
ZUWAKU
  6
CONTINUOUS
 62
      43
100
AcDbLine
 10
-262.04808924
 20
415.51337012
 30
0.0
 11
-263.42658922
 21
414.13487014
 31
0.0
  0
LINE
  5
3D7
100
AcDbEntity
  8
ZUWAKU
  6
CONTINUOUS
 62
      43
100
AcDbLine
 10
-262.375
 20
416.0349875
 30
0.0
 11
-263.94982852
 21
414.46015898
 31
0.0
  0
LINE
  5
3D8
100
AcDbEntity
  8
ZUWAKU
  6
CONTINUOUS
 62
      43
100
AcDbLine
 10
-262.375
 20
416.88351564
 30
0.0
 11
-264.46175868
 21
414.79675695
 31
0.0
  0
LINE
  5
3D9
100
AcDbEntity
  8
ZUWAKU
  6
CONTINUOUS
 62
      43
100
AcDbLine
 10
-262.375
 20
417.73204377
 30
0.0
 11
-264.96172034
 21
415.14532344
 31
0.0
  0
LINE
  5
3DA
100
AcDbEntity
  8
ZUWAKU
  6
CONTINUOUS
 62
      43
100
AcDbLine
 10
-262.375
 20
418.58057191
 30
0.0
 11
-265.44896104
 21
415.50661087
 31
0.0
  0
LINE
  5
3DB
100
AcDbEntity
  8
ZUWAKU
  6
CONTINUOUS
 62
      43
100
AcDbLine
 10
-262.375
 20
419.42910005
 30
0.0
 11
-265.92261654
 21
415.8814835
 31
0.0
  0
LINE
  5
3DC
100
AcDbEntity
  8
ZUWAKU
  6
CONTINUOUS
 62
      43
100
AcDbLine
 10
-262.375
 20
420.27762818
 30
0.0
 11
-266.38168692
 21
416.27094127
 31
0.0
  0
LINE
  5
3DD
100
AcDbEntity
  8
ZUWAKU
  6
CONTINUOUS
 62
      43
100
AcDbLine
 10
-262.375
 20
421.12615632
 30
0.0
 11
-266.82500544
 21
416.67615088
 31
0.0
  0
LINE
  5
3DE
100
AcDbEntity
  8
ZUWAKU
  6
CONTINUOUS
 62
      43
100
AcDbLine
 10
-262.375
 20
421.97468446
 30
0.0
 11
-267.25119761
 21
417.09848685
 31
0.0
  0
LINE
  5
3DF
100
AcDbEntity
  8
ZUWAKU
  6
CONTINUOUS
 62
      43
100
AcDbLine
 10
-262.37234248
 20
422.82587012
 30
0.0
 11
-267.65862605
 21
417.53958655
 31
0.0
  0
LINE
  5
3E0
100
AcDbEntity
  8
ZUWAKU
  6
CONTINUOUS
 62
      43
100
AcDbLine
 10
-263.22087062
 20
422.82587012
 30
0.0
 11
-268.04531473
 21
418.001426
 31
0.0
  0
LINE
  5
3E1
100
AcDbEntity
  8
ZUWAKU
  6
CONTINUOUS
 62
      43
100
AcDbLine
 10
-264.06939875
 20
422.82587012
 30
0.0
 11
-268.40884248
 21
418.48642639
 31
0.0
  0
LINE
  5
3E2
100
AcDbEntity
  8
ZUWAKU
  6
CONTINUOUS
 62
      43
100
AcDbLine
 10
-264.91792689
 20
422.82587012
 30
0.0
 11
-268.74618848
 21
418.99760853
 31
0.0
  0
LINE
  5
3E3
100
AcDbEntity
  8
ZUWAKU
  6
CONTINUOUS
 62
      43
100
AcDbLine
 10
-265.76645503
 20
422.82587012
 30
0.0
 11
-269.05350075
 21
419.5388244
 31
0.0
  0
LINE
  5
3E4
100
AcDbEntity
  8
ZUWAKU
  6
CONTINUOUS
 62
      43
100
AcDbLine
 10
-266.61498317
 20
422.82587012
 30
0.0
 11
-269.32573416
 21
420.11511913
 31
0.0
  0
LINE
  5
3E5
100
AcDbEntity
  8
ZUWAKU
  6
CONTINUOUS
 62
      43
100
AcDbLine
 10
-267.4635113
 20
422.82587012
 30
0.0
 11
-269.55605507
 21
420.73332635
 31
0.0
  0
LINE
  5
3E6
100
AcDbEntity
  8
ZUWAKU
  6
CONTINUOUS
 62
      43
100
AcDbLine
 10
-268.31203944
 20
422.82587012
 30
0.0
 11
-269.73479635
 21
421.40311321
 31
0.0
  0
LINE
  5
3E7
100
AcDbEntity
  8
ZUWAKU
  6
CONTINUOUS
 62
      43
100
AcDbLine
 10
-269.16056758
 20
422.82587012
 30
0.0
 11
-269.8474603
 21
422.13897739
 31
0.0
  0
LINE
  5
3E8
100
AcDbEntity
  8
ZUWAKU
  6
CONTINUOUS
 62
      43
100
AcDbLine
 10
-218.77315423
 20
415.51337012
 30
0.0
 11
-226.92660941
 21
407.35991494
 31
0.0
  0
LINE
  5
3E9
100
AcDbEntity
  8
ZUWAKU
  6
CONTINUOUS
 62
      43
100
AcDbLine
 10
-217.9246261
 20
415.51337012
 30
0.0
 11
-226.02996229
 21
407.40803392
 31
0.0
  0
LINE
  5
3EA
100
AcDbEntity
  8
ZUWAKU
  6
CONTINUOUS
 62
      43
100
AcDbLine
 10
-217.07609796
 20
415.51337012
 30
0.0
 11
-225.12394115
 21
407.46552693
 31
0.0
  0
LINE
  5
3EB
100
AcDbEntity
  8
ZUWAKU
  6
CONTINUOUS
 62
      43
100
AcDbLine
 10
-216.22756982
 20
415.51337012
 30
0.0
 11
-224.20813395
 21
407.53280599
 31
0.0
  0
LINE
  5
3EC
100
AcDbEntity
  8
ZUWAKU
  6
CONTINUOUS
 62
      43
100
AcDbLine
 10
-215.37904168
 20
415.51337012
 30
0.0
 11
-223.28207916
 21
407.61033264
 31
0.0
  0
LINE
  5
3ED
100
AcDbEntity
  8
ZUWAKU
  6
CONTINUOUS
 62
      43
100
AcDbLine
 10
-214.53051355
 20
415.51337012
 30
0.0
 11
-222.34525781
 21
407.69862586
 31
0.0
  0
LINE
  5
3EE
100
AcDbEntity
  8
ZUWAKU
  6
CONTINUOUS
 62
      43
100
AcDbLine
 10
-213.68198541
 20
415.51337012
 30
0.0
 11
-221.39708371
 21
407.79827182
 31
0.0
  0
LINE
  5
3EF
100
AcDbEntity
  8
ZUWAKU
  6
CONTINUOUS
 62
      43
100
AcDbLine
 10
-212.83345727
 20
415.51337012
 30
0.0
 11
-220.43689149
 21
407.9099359
 31
0.0
  0
LINE
  5
3F0
100
AcDbEntity
  8
ZUWAKU
  6
CONTINUOUS
 62
      43
100
AcDbLine
 10
-211.98492913
 20
415.51337012
 30
0.0
 11
-219.46392152
 21
408.03437774
 31
0.0
  0
LINE
  5
3F1
100
AcDbEntity
  8
ZUWAKU
  6
CONTINUOUS
 62
      43
100
AcDbLine
 10
-211.136401
 20
415.51337012
 30
0.0
 11
-218.47730087
 21
408.17247025
 31
0.0
  0
LINE
  5
3F2
100
AcDbEntity
  8
ZUWAKU
  6
CONTINUOUS
 62
      43
100
AcDbLine
 10
-210.28787286
 20
415.51337012
 30
0.0
 11
-217.476019
 21
408.32522398
 31
0.0
  0
LINE
  5
3F3
100
AcDbEntity
  8
ZUWAKU
  6
CONTINUOUS
 62
      43
100
AcDbLine
 10
-209.43934472
 20
415.51337012
 30
0.0
 11
-216.45889608
 21
408.49381876
 31
0.0
  0
LINE
  5
3F4
100
AcDbEntity
  8
ZUWAKU
  6
CONTINUOUS
 62
      43
100
AcDbLine
 10
-208.59081658
 20
415.51337012
 30
0.0
 11
-215.42454114
 21
408.67964556
 31
0.0
  0
LINE
  5
3F5
100
AcDbEntity
  8
ZUWAKU
  6
CONTINUOUS
 62
      43
100
AcDbLine
 10
-200.42978845
 20
422.82587012
 30
0.0
 11
-200.5
 21
422.75565857
 31
0.0
  0
LINE
  5
3F6
100
AcDbEntity
  8
ZUWAKU
  6
CONTINUOUS
 62
      43
100
AcDbLine
 10
-207.74228845
 20
415.51337012
 30
0.0
 11
-214.37129578
 21
408.88436279
 31
0.0
  0
LINE
  5
3F7
100
AcDbEntity
  8
ZUWAKU
  6
CONTINUOUS
 62
      43
100
AcDbLine
 10
-199.58126031
 20
422.82587012
 30
0.0
 11
-200.5
 21
421.90713043
 31
0.0
  0
LINE
  5
3F8
100
AcDbEntity
  8
ZUWAKU
  6
CONTINUOUS
 62
      43
100
AcDbLine
 10
-206.89376031
 20
415.51337012
 30
0.0
 11
-213.29715663
 21
409.1099738
 31
0.0
  0
LINE
  5
3F9
100
AcDbEntity
  8
ZUWAKU
  6
CONTINUOUS
 62
      43
100
AcDbLine
 10
-198.73273217
 20
422.82587012
 30
0.0
 11
-200.5
 21
421.05860229
 31
0.0
  0
LINE
  5
3FA
100
AcDbEntity
  8
ZUWAKU
  6
CONTINUOUS
 62
      43
100
AcDbLine
 10
-206.04523217
 20
415.51337012
 30
0.0
 11
-212.19966614
 21
409.35893615
 31
0.0
  0
LINE
  5
3FB
100
AcDbEntity
  8
ZUWAKU
  6
CONTINUOUS
 62
      43
100
AcDbLine
 10
-197.88420403
 20
422.82587012
 30
0.0
 11
-200.5
 21
420.21007415
 31
0.0
  0
LINE
  5
3FC
100
AcDbEntity
  8
ZUWAKU
  6
CONTINUOUS
 62
      43
100
AcDbLine
 10
-205.19670403
 20
415.51337012
 30
0.0
 11
-211.07575382
 21
409.63432034
 31
0.0
  0
LINE
  5
3FD
100
AcDbEntity
  8
ZUWAKU
  6
CONTINUOUS
 62
      43
100
AcDbLine
 10
-197.0356759
 20
422.82587012
 30
0.0
 11
-200.5
 21
419.36154602
 31
0.0
  0
LINE
  5
3FE
100
AcDbEntity
  8
ZUWAKU
  6
CONTINUOUS
 62
      43
100
AcDbLine
 10
-204.3481759
 20
415.51337012
 30
0.0
 11
-209.92149768
 21
409.94004834
 31
0.0
  0
LINE
  5
3FF
100
AcDbEntity
  8
ZUWAKU
  6
CONTINUOUS
 62
      43
100
AcDbLine
 10
-196.18714776
 20
422.82587012
 30
0.0
 11
-200.5
 21
418.51301788
 31
0.0
  0
LINE
  5
400
100
AcDbEntity
  8
ZUWAKU
  6
CONTINUOUS
 62
      43
100
AcDbLine
 10
-203.49964776
 20
415.51337012
 30
0.0
 11
-208.73175006
 21
410.28126782
 31
0.0
  0
LINE
  5
401
100
AcDbEntity
  8
ZUWAKU
  6
CONTINUOUS
 62
      43
100
AcDbLine
 10
-195.33861962
 20
422.82587012
 30
0.0
 11
-200.5
 21
417.66448974
 31
0.0
  0
LINE
  5
402
100
AcDbEntity
  8
ZUWAKU
  6
CONTINUOUS
 62
      43
100
AcDbLine
 10
-202.65111962
 20
415.51337012
 30
0.0
 11
-207.4995197
 21
410.66497004
 31
0.0
  0
LINE
  5
403
100
AcDbEntity
  8
ZUWAKU
  6
CONTINUOUS
 62
      43
100
AcDbLine
 10
-194.49009148
 20
422.82587012
 30
0.0
 11
-200.5
 21
416.8159616
 31
0.0
  0
LINE
  5
404
100
AcDbEntity
  8
ZUWAKU
  6
CONTINUOUS
 62
      43
100
AcDbLine
 10
-201.80259148
 20
415.51337012
 30
0.0
 11
-206.21488144
 21
411.10108017
 31
0.0
  0
LINE
  5
405
100
AcDbEntity
  8
ZUWAKU
  6
CONTINUOUS
 62
      43
100
AcDbLine
 10
-193.64156335
 20
422.82587012
 30
0.0
 11
-200.5
 21
415.96743347
 31
0.0
  0
LINE
  5
406
100
AcDbEntity
  8
ZUWAKU
  6
CONTINUOUS
 62
      43
100
AcDbLine
 10
-200.95406335
 20
415.51337012
 30
0.0
 11
-204.86287801
 21
411.60455545
 31
0.0
  0
LINE
  5
407
100
AcDbEntity
  8
ZUWAKU
  6
CONTINUOUS
 62
      43
100
AcDbLine
 10
-193.19476827
 20
422.42413706
 30
0.0
 11
-203.41896472
 21
412.19994061
 31
0.0
  0
LINE
  5
408
100
AcDbEntity
  8
ZUWAKU
  6
CONTINUOUS
 62
      43
100
AcDbLine
 10
-193.3172891
 20
421.45308809
 30
0.0
 11
-201.83715769
 21
412.9332195
 31
0.0
  0
LINE
  5
409
100
AcDbEntity
  8
ZUWAKU
  6
CONTINUOUS
 62
      43
100
AcDbLine
 10
-193.68735171
 20
420.23449735
 30
0.0
 11
-200.00780889
 21
413.91404016
 31
0.0
  0
LINE
  5
40A
100
AcDbEntity
  8
ZUWAKU
  6
CONTINUOUS
 62
      43
100
AcDbLine
 10
-194.83202816
 20
418.24129276
 30
0.0
 11
-197.40384625
 21
415.66947467
 31
0.0
  0
TEXT
  5
40B
100
AcDbEntity
  8
ZUWAKU
 62
       4
100
AcDbText
 10
-118.18898405
 20
-388.2477071
 30
0.0
 40
7.497
  1
品 名
 41
0.8
  7
FDASTYLE1
100
AcDbText
  0
TEXT
  5
40C
100
AcDbEntity
  8
ZUWAKU
 62
       4
100
AcDbText
 10
84.31773107
 20
-388.30049651
 30
0.0
 40
7.497
  1
品　番
 41
0.8
  7
FDASTYLE1
100
AcDbText
  0
TEXT
  5
40D
100
AcDbEntity
  8
ZUWAKU
 62
       4
100
AcDbText
 10
-269.05223899
 20
-363.99173009
 30
0.0
 40
12.0
  1
1
 41
0.8
 72
       5
 11
-259.45223899
 21
-363.99173009
 31
0.0
100
AcDbText
  0
TEXT
  5
40E
100
AcDbEntity
  8
ZUWAKU
 62
       4
100
AcDbText
 10
-269.05223899
 20
-348.99173009
 30
0.0
 40
12.0
  1
2
 41
0.8
 72
       5
 11
-259.45223899
 21
-348.99173009
 31
0.0
100
AcDbText
  0
TEXT
  5
40F
100
AcDbEntity
  8
ZUWAKU
 62
       4
100
AcDbText
 10
-269.05223899
 20
-333.99173009
 30
0.0
 40
12.0
  1
3
 41
0.8
 72
       5
 11
-259.45223899
 21
-333.99173009
 31
0.0
100
AcDbText
  0
TEXT
  5
410
100
AcDbEntity
  8
ZUWAKU
 62
       4
100
AcDbText
 10
-269.05223899
 20
-318.99173009
 30
0.0
 40
12.0
  1
4
 41
0.8
 72
       5
 11
-259.45223899
 21
-318.99173009
 31
0.0
100
AcDbText
  0
TEXT
  5
411
100
AcDbEntity
  8
ZUWAKU
 62
       4
100
AcDbText
 10
-269.05223899
 20
-303.99173009
 30
0.0
 40
12.0
  1
5
 41
0.8
 72
       5
 11
-259.45223899
 21
-303.99173009
 31
0.0
100
AcDbText
  0
TEXT
  5
412
100
AcDbEntity
  8
ZUWAKU
 62
       4
100
AcDbText
 10
-269.05223899
 20
-288.99173009
 30
0.0
 40
12.0
  1
6
 41
0.8
 72
       5
 11
-259.45223899
 21
-288.99173009
 31
0.0
100
AcDbText
  0
TEXT
  5
413
100
AcDbEntity
  8
ZUWAKU
 62
       4
100
AcDbText
 10
-269.05223899
 20
-273.99173009
 30
0.0
 40
12.0
  1
7
 41
0.8
 72
       5
 11
-259.45223899
 21
-273.99173009
 31
0.0
100
AcDbText
  0
TEXT
  5
414
100
AcDbEntity
  8
ZUWAKU
 62
       4
100
AcDbText
 10
154.6163036
 20
-378.93252915
 30
0.0
 40
12.0
  1
摘要・仕上
 41
0.7143
 72
       5
 11
202.6163036
 21
-378.93252915
 31
0.0
100
AcDbText
  0
TEXT
  5
415
100
AcDbEntity
  8
ZUWAKU
 62
       4
100
AcDbText
 10
47.70938388
 20
-378.93252915
 30
0.0
 40
12.0
  1
個　数
 41
0.75
 72
       5
 11
76.50938388
 21
-378.93252915
 31
0.0
100
AcDbText
  0
TEXT
  5
416
100
AcDbEntity
  8
ZUWAKU
 62
       4
100
AcDbText
 10
-53.07834402
 20
-378.93252915
 30
0.0
 40
12.0
  1
材　　質
 41
0.6667
 72
       5
 11
-14.67834402
 21
-378.93252915
 31
0.0
100
AcDbText
  0
TEXT
  5
417
100
AcDbEntity
  8
ZUWAKU
 62
       4
100
AcDbText
 10
-207.6306033
 20
-378.93252915
 30
0.0
 40
12.0
  1
部　品　名
 41
0.7143
 72
       5
 11
-159.6306033
 21
-378.93252915
 31
0.0
100
AcDbText
  0
TEXT
  5
418
100
AcDbEntity
  8
ZUWAKU
 62
       4
100
AcDbText
 10
-273.75694315
 20
-378.93252915
 30
0.0
 40
12.0
  1
部番
 41
0.6667
 72
       5
 11
-254.55694315
 21
-378.93252915
 31
0.0
100
AcDbText
  0
TEXT
  5
419
100
AcDbEntity
  8
ZUWAKU
 62
       4
100
AcDbText
 10
298.40927805
 20
283.8331285
 30
0.0
 40
12.0
  1
タオル棚
 50
-90.0
 41
0.6667
 72
       5
 11
298.40927805
 21
245.4331285
 31
0.0
100
AcDbText
  0
TEXT
  5
41A
100
AcDbEntity
  8
ZUWAKU
 62
       4
100
AcDbText
 10
-269.05223899
 20
-258.99173009
 30
0.0
 40
12.0
  1
8
 41
0.8
 72
       5
 11
-259.45223899
 21
-258.99173009
 31
0.0
100
AcDbText
  0
TEXT
  5
41B
100
AcDbEntity
  8
ZUWAKU
 62
       4
100
AcDbText
 10
222.25592536
 20
-438.3794885
 30
0.0
 40
12.0
  1
080410
 41
0.8
 72
       5
 11
279.85592536
 21
-438.3794885
 31
0.0
100
AcDbText
  0
TEXT
  5
41C
100
AcDbEntity
  8
ZUWAKU
 62
       4
100
AcDbText
 10
-269.05223899
 20
-243.99173009
 30
0.0
 40
12.0
  1
9
 41
0.8
 72
       5
 11
-259.45223899
 21
-243.99173009
 31
0.0
100
AcDbText
  0
POINT
  5
41D
100
AcDbEntity
  8
ZUWAKU
  6
CONTINUOUS
 62
       9
100
AcDbPoint
 10
187.4375
 20
416.59166442
 30
0.0
  0
POINT
  5
41E
100
AcDbEntity
  8
ZUWAKU
  6
CONTINUOUS
 62
       9
100
AcDbPoint
 10
-45.70828488
 20
416.59166442
 30
0.0
  0
POINT
  5
41F
100
AcDbEntity
  8
ZUWAKU
  6
CONTINUOUS
 62
       9
100
AcDbPoint
 10
185.5625
 20
-403.76787988
 30
0.0
  0
POINT
  5
420
100
AcDbEntity
  8
ZUWAKU
  6
CONTINUOUS
 62
       9
100
AcDbPoint
 10
-16.84375
 20
-403.76787988
 30
0.0
  0
POINT
  5
421
100
AcDbEntity
  8
ZUWAKU
  6
CONTINUOUS
 62
       9
100
AcDbPoint
 10
62.375
 20
-358.11162988
 30
0.0
  0
POINT
  5
422
100
AcDbEntity
  8
ZUWAKU
  6
CONTINUOUS
 62
       9
100
AcDbPoint
 10
-250.375
 20
-358.11162988
 30
0.0
  0
POINT
  5
423
100
AcDbEntity
  8
ZUWAKU
  6
CONTINUOUS
 62
       9
100
AcDbPoint
 10
-110.6875
 20
-358.11162988
 30
0.0
  0
POINT
  5
424
100
AcDbEntity
  8
ZUWAKU
  6
CONTINUOUS
 62
       9
100
AcDbPoint
 10
82.0625
 20
-358.11162988
 30
0.0
  0
LINE
  5
425
100
AcDbEntity
  8
ZUWAKU
  6
CONTINUOUS
 62
       9
100
AcDbLine
 10
-316.0
 20
462.0
 30
0.0
 11
-316.0
 21
447.0
 31
0.0
  0
LINE
  5
426
100
AcDbEntity
  8
ZUWAKU
  6
CONTINUOUS
 62
       9
100
AcDbLine
 10
-316.0
 20
447.0
 30
0.0
 11
-331.0
 21
447.0
 31
0.0
  0
LINE
  5
427
100
AcDbEntity
  8
ZUWAKU
  6
CONTINUOUS
 62
       9
100
AcDbLine
 10
314.0
 20
447.0
 30
0.0
 11
329.0
 21
447.0
 31
0.0
  0
LINE
  5
428
100
AcDbEntity
  8
ZUWAKU
  6
CONTINUOUS
 62
       9
100
AcDbLine
 10
314.0
 20
447.0
 30
0.0
 11
314.0
 21
462.0
 31
0.0
  0
LINE
  5
429
100
AcDbEntity
  8
ZUWAKU
  6
CONTINUOUS
 62
       9
100
AcDbLine
 10
314.0
 20
-459.0
 30
0.0
 11
314.0
 21
-444.0
 31
0.0
  0
LINE
  5
42A
100
AcDbEntity
  8
ZUWAKU
  6
CONTINUOUS
 62
       9
100
AcDbLine
 10
314.0
 20
-444.0
 30
0.0
 11
329.0
 21
-444.0
 31
0.0
  0
LINE
  5
42B
100
AcDbEntity
  8
ZUWAKU
  6
CONTINUOUS
 62
       9
100
AcDbLine
 10
-331.06936928
 20
-444.0
 30
0.0
 11
-316.0
 21
-444.0
 31
0.0
  0
LINE
  5
42C
100
AcDbEntity
  8
ZUWAKU
  6
CONTINUOUS
 62
       9
100
AcDbLine
 10
-316.0
 20
-444.10353195
 30
0.0
 11
-316.0
 21
-458.9998396
 31
0.0
  0
POINT
  5
42D
100
AcDbEntity
  8
ZUWAKU
  6
CONTINUOUS
 62
       9
100
AcDbPoint
 10
62.375
 20
-343.11162988
 30
0.0
  0
POINT
  5
42E
100
AcDbEntity
  8
ZUWAKU
  6
CONTINUOUS
 62
       9
100
AcDbPoint
 10
-250.375
 20
-343.11162988
 30
0.0
  0
POINT
  5
42F
100
AcDbEntity
  8
ZUWAKU
  6
CONTINUOUS
 62
       9
100
AcDbPoint
 10
-110.6875
 20
-343.11162988
 30
0.0
  0
POINT
  5
430
100
AcDbEntity
  8
ZUWAKU
  6
CONTINUOUS
 62
       9
100
AcDbPoint
 10
82.0625
 20
-343.11162988
 30
0.0
  0
POINT
  5
431
100
AcDbEntity
  8
ZUWAKU
  6
CONTINUOUS
 62
       9
100
AcDbPoint
 10
62.375
 20
-313.11162988
 30
0.0
  0
POINT
  5
432
100
AcDbEntity
  8
ZUWAKU
  6
CONTINUOUS
 62
       9
100
AcDbPoint
 10
-250.375
 20
-313.11162988
 30
0.0
  0
POINT
  5
433
100
AcDbEntity
  8
ZUWAKU
  6
CONTINUOUS
 62
       9
100
AcDbPoint
 10
-110.6875
 20
-313.11162988
 30
0.0
  0
POINT
  5
434
100
AcDbEntity
  8
ZUWAKU
  6
CONTINUOUS
 62
       9
100
AcDbPoint
 10
82.0625
 20
-313.11162988
 30
0.0
  0
POINT
  5
435
100
AcDbEntity
  8
ZUWAKU
  6
CONTINUOUS
 62
       9
100
AcDbPoint
 10
62.375
 20
-298.11162988
 30
0.0
  0
POINT
  5
436
100
AcDbEntity
  8
ZUWAKU
  6
CONTINUOUS
 62
       9
100
AcDbPoint
 10
-250.375
 20
-298.11162988
 30
0.0
  0
POINT
  5
437
100
AcDbEntity
  8
ZUWAKU
  6
CONTINUOUS
 62
       9
100
AcDbPoint
 10
-110.6875
 20
-298.11162988
 30
0.0
  0
POINT
  5
438
100
AcDbEntity
  8
ZUWAKU
  6
CONTINUOUS
 62
       9
100
AcDbPoint
 10
82.0625
 20
-298.11162988
 30
0.0
  0
POINT
  5
439
100
AcDbEntity
  8
ZUWAKU
  6
CONTINUOUS
 62
       9
100
AcDbPoint
 10
62.375
 20
-283.11162988
 30
0.0
  0
POINT
  5
43A
100
AcDbEntity
  8
ZUWAKU
  6
CONTINUOUS
 62
       9
100
AcDbPoint
 10
-250.375
 20
-283.11162988
 30
0.0
  0
POINT
  5
43B
100
AcDbEntity
  8
ZUWAKU
  6
CONTINUOUS
 62
       9
100
AcDbPoint
 10
-110.6875
 20
-283.11162988
 30
0.0
  0
POINT
  5
43C
100
AcDbEntity
  8
ZUWAKU
  6
CONTINUOUS
 62
       9
100
AcDbPoint
 10
82.0625
 20
-283.11162988
 30
0.0
  0
POINT
  5
43D
100
AcDbEntity
  8
ZUWAKU
  6
CONTINUOUS
 62
       9
100
AcDbPoint
 10
62.375
 20
-268.11162988
 30
0.0
  0
POINT
  5
43E
100
AcDbEntity
  8
ZUWAKU
  6
CONTINUOUS
 62
       9
100
AcDbPoint
 10
-250.375
 20
-268.11162988
 30
0.0
  0
POINT
  5
43F
100
AcDbEntity
  8
ZUWAKU
  6
CONTINUOUS
 62
       9
100
AcDbPoint
 10
-110.6875
 20
-268.11162988
 30
0.0
  0
POINT
  5
440
100
AcDbEntity
  8
ZUWAKU
  6
CONTINUOUS
 62
       9
100
AcDbPoint
 10
82.0625
 20
-268.11162988
 30
0.0
  0
POINT
  5
441
100
AcDbEntity
  8
ZUWAKU
  6
CONTINUOUS
 62
       9
100
AcDbPoint
 10
62.375
 20
-253.11162988
 30
0.0
  0
POINT
  5
442
100
AcDbEntity
  8
ZUWAKU
  6
CONTINUOUS
 62
       9
100
AcDbPoint
 10
-250.375
 20
-253.11162988
 30
0.0
  0
POINT
  5
443
100
AcDbEntity
  8
ZUWAKU
  6
CONTINUOUS
 62
       9
100
AcDbPoint
 10
-110.6875
 20
-253.11162988
 30
0.0
  0
POINT
  5
444
100
AcDbEntity
  8
ZUWAKU
  6
CONTINUOUS
 62
       9
100
AcDbPoint
 10
82.0625
 20
-253.11162988
 30
0.0
  0
POINT
  5
445
100
AcDbEntity
  8
ZUWAKU
  6
CONTINUOUS
 62
       9
100
AcDbPoint
 10
62.375
 20
-238.11162988
 30
0.0
  0
POINT
  5
446
100
AcDbEntity
  8
ZUWAKU
  6
CONTINUOUS
 62
       9
100
AcDbPoint
 10
-250.375
 20
-238.11162988
 30
0.0
  0
POINT
  5
447
100
AcDbEntity
  8
ZUWAKU
  6
CONTINUOUS
 62
       9
100
AcDbPoint
 10
-110.6875
 20
-238.11162988
 30
0.0
  0
POINT
  5
448
100
AcDbEntity
  8
ZUWAKU
  6
CONTINUOUS
 62
       9
100
AcDbPoint
 10
82.0625
 20
-238.11162988
 30
0.0
  0
POINT
  5
449
100
AcDbEntity
  8
ZUWAKU
  6
CONTINUOUS
 62
       9
100
AcDbPoint
 10
62.375
 20
-328.11162988
 30
0.0
  0
POINT
  5
44A
100
AcDbEntity
  8
ZUWAKU
  6
CONTINUOUS
 62
       9
100
AcDbPoint
 10
-110.6875
 20
-328.11162988
 30
0.0
  0
POINT
  5
44B
100
AcDbEntity
  8
ZUWAKU
  6
CONTINUOUS
 62
       9
100
AcDbPoint
 10
82.0625
 20
-328.11162988
 30
0.0
  0
TEXT
  5
44C
100
AcDbEntity
  8
LAYER0240
 62
       4
100
AcDbText
 10
-74.50828488
 20
407.59166442
 30
0.0
 40
18.0
  1
タオル棚
 41
0.6667
 72
       5
 11
-16.90828488
 21
407.59166442
 31
0.0
100
AcDbText
  0
TEXT
  5
44D
100
AcDbEntity
  8
LAYER0240
 62
       4
100
AcDbText
 10
151.4375
 20
407.59166442
 30
0.0
 40
18.0
  1
R6205
 41
0.8
 72
       5
 11
223.4375
 21
407.59166442
 31
0.0
100
AcDbText
  0
TEXT
  5
44E
100
AcDbEntity
  8
LAYER0240
 62
       4
100
AcDbText
 10
-250.375
 20
-364.11162988
 30
0.0
 40
12.0
  1
ブラケットキャップ
 41
0.6923
 72
       5
 11
-163.975
 21
-364.11162988
 31
0.0
100
AcDbText
  0
TEXT
  5
44F
100
AcDbEntity
  8
LAYER0240
 62
       4
100
AcDbText
 10
-111.17374738
 20
-364.77207952
 30
0.0
 40
12.0
  1
BS-C3604
 41
0.8
 72
       5
 11
-34.37374738
 21
-364.77207952
 31
0.0
100
AcDbText
  0
TEXT
  5
450
100
AcDbEntity
  8
LAYER0240
 62
       4
100
AcDbText
 10
57.575
 20
-364.11162988
 30
0.0
 40
12.0
  1
2
 41
0.8
 72
       5
 11
67.175
 21
-364.11162988
 31
0.0
100
AcDbText
  0
TEXT
  5
451
100
AcDbEntity
  8
LAYER0240
 62
       4
100
AcDbText
 10
82.0625
 20
-364.11162988
 30
0.0
 40
12.0
  1
クロムメッキ
 41
0.6667
 72
       5
 11
139.6625
 21
-364.11162988
 31
0.0
100
AcDbText
  0
TEXT
  5
452
100
AcDbEntity
  8
LAYER0240
 62
       4
100
AcDbText
 10
-250.375
 20
-349.11162988
 30
0.0
 40
12.0
  1
枠パイプ
 41
0.6667
 72
       5
 11
-211.975
 21
-349.11162988
 31
0.0
100
AcDbText
  0
TEXT
  5
453
100
AcDbEntity
  8
LAYER0240
 62
       4
100
AcDbText
 10
-111.23956658
 20
-349.77207952
 30
0.0
 40
12.0
  1
BS-C2700
 41
0.8
 72
       5
 11
-34.43956658
 21
-349.77207952
 31
0.0
100
AcDbText
  0
TEXT
  5
454
100
AcDbEntity
  8
LAYER0240
 62
       4
100
AcDbText
 10
57.575
 20
-349.11162988
 30
0.0
 40
12.0
  1
1
 41
0.8
 72
       5
 11
67.175
 21
-349.11162988
 31
0.0
100
AcDbText
  0
TEXT
  5
455
100
AcDbEntity
  8
LAYER0240
 62
       4
100
AcDbText
 10
82.0625
 20
-349.11162988
 30
0.0
 40
12.0
  1
φ1６　クロムメッキ
 41
0.7143
 72
       5
 11
178.0625
 21
-349.11162988
 31
0.0
100
AcDbText
  0
TEXT
  5
456
100
AcDbEntity
  8
LAYER0240
 62
       4
100
AcDbText
 10
-250.85891107
 20
-244.11162988
 30
0.0
 40
12.0
  1
Cタ イプ取付ネジ　４×３０
 41
0.6842
 72
       5
 11
-126.05891107
 21
-244.11162988
 31
0.0
100
AcDbText
  0
TEXT
  5
457
100
AcDbEntity
  8
LAYER0240
 62
       4
100
AcDbText
 10
-112.18905806
 20
-244.77207952
 30
0.0
 40
12.0
  1
SUS304
 41
0.8
 72
       5
 11
-54.58905806
 21
-244.77207952
 31
0.0
100
AcDbText
  0
TEXT
  5
458
100
AcDbEntity
  8
LAYER0240
 62
       4
100
AcDbText
 10
57.575
 20
-244.11162988
 30
0.0
 40
12.0
  1
4
 41
0.8
 72
       5
 11
67.175
 21
-244.11162988
 31
0.0
100
AcDbText
  0
TEXT
  5
459
100
AcDbEntity
  8
LAYER0240
 62
       4
100
AcDbText
 10
-250.53864268
 20
-259.11162988
 30
0.0
 40
12.0
  1
Bタ イプ取付ネジ　M6×４０
 41
0.7
 72
       5
 11
-116.13864268
 21
-259.11162988
 31
0.0
100
AcDbText
  0
TEXT
  5
45A
100
AcDbEntity
  8
LAYER0240
 62
       4
100
AcDbText
 10
-112.18905806
 20
-259.77207952
 30
0.0
 40
12.0
  1
SUS304
 41
0.8
 72
       5
 11
-54.58905806
 21
-259.77207952
 31
0.0
100
AcDbText
  0
TEXT
  5
45B
100
AcDbEntity
  8
LAYER0240
 62
       4
100
AcDbText
 10
57.575
 20
-259.11162988
 30
0.0
 40
12.0
  1
2
 41
0.8
 72
       5
 11
67.175
 21
-259.11162988
 31
0.0
100
AcDbText
  0
TEXT
  5
45C
100
AcDbEntity
  8
LAYER0240
 62
       4
100
AcDbText
 10
-250.41060943
 20
-274.11162988
 30
0.0
 40
12.0
  1
Aタ イプ取付ネジ　６×５０
 41
0.6842
 72
       5
 11
-125.61060943
 21
-274.11162988
 31
0.0
100
AcDbText
  0
TEXT
  5
45D
100
AcDbEntity
  8
LAYER0240
 62
       4
100
AcDbText
 10
-112.18905806
 20
-274.77207952
 30
0.0
 40
12.0
  1
SUS304
 41
0.8
 72
       5
 11
-54.58905806
 21
-274.77207952
 31
0.0
100
AcDbText
  0
TEXT
  5
45E
100
AcDbEntity
  8
LAYER0240
 62
       4
100
AcDbText
 10
57.575
 20
-274.11162988
 30
0.0
 40
12.0
  1
2
 41
0.8
 72
       5
 11
67.175
 21
-274.11162988
 31
0.0
100
AcDbText
  0
TEXT
  5
45F
100
AcDbEntity
  8
LAYER0240
 62
       4
100
AcDbText
 10
80.89568757
 20
-304.11162988
 30
0.0
 40
12.0
  1
クロメートメッキ
 41
0.6667
 72
       5
 11
157.69568757
 21
-304.11162988
 31
0.0
100
AcDbText
  0
TEXT
  5
460
100
AcDbEntity
  8
LAYER0240
 62
       4
100
AcDbText
 10
57.575
 20
-304.11162988
 30
0.0
 40
12.0
  1
2
 41
0.8
 72
       5
 11
67.175
 21
-304.11162988
 31
0.0
100
AcDbText
  0
TEXT
  5
461
100
AcDbEntity
  8
LAYER0240
 62
       4
100
AcDbText
 10
-111.54534677
 20
-304.77207952
 30
0.0
 40
12.0
  1
ZDC-2
 41
0.8
 72
       5
 11
-63.54534677
 21
-304.77207952
 31
0.0
100
AcDbText
  0
TEXT
  5
462
100
AcDbEntity
  8
LAYER0240
 62
       4
100
AcDbText
 10
-250.375
 20
-304.11162988
 30
0.0
 40
12.0
  1
取付座
 41
0.75
 72
       5
 11
-221.575
 21
-304.11162988
 31
0.0
100
AcDbText
  0
TEXT
  5
463
100
AcDbEntity
  8
LAYER0240
 62
       4
100
AcDbText
 10
57.575
 20
-289.11162988
 30
0.0
 40
12.0
  1
2
 41
0.8
 72
       5
 11
67.175
 21
-289.11162988
 31
0.0
100
AcDbText
  0
TEXT
  5
464
100
AcDbEntity
  8
LAYER0240
 62
       4
100
AcDbText
 10
-111.88699498
 20
-289.77207952
 30
0.0
 40
12.0
  1
PE
 41
0.8
 72
       5
 11
-92.68699498
 21
-289.77207952
 31
0.0
100
AcDbText
  0
TEXT
  5
465
100
AcDbEntity
  8
LAYER0240
 62
       4
100
AcDbText
 10
-249.79981054
 20
-289.11162988
 30
0.0
 40
12.0
  1
パッキン
 41
0.6667
 72
       5
 11
-211.39981054
 21
-289.11162988
 31
0.0
100
AcDbText
  0
TEXT
  5
466
100
AcDbEntity
  8
LAYER0240
 62
       4
100
AcDbText
 10
82.0625
 20
-289.11162988
 30
0.0
 40
12.0
  1
半透明
 41
0.75
 72
       5
 11
110.8625
 21
-289.11162988
 31
0.0
100
AcDbText
  0
TEXT
  5
467
100
AcDbEntity
  8
LAYER0240
 62
       4
100
AcDbText
 10
-45.64375
 20
-412.76787988
 30
0.0
 40
18.0
  1
タオル棚
 41
0.6667
 72
       5
 11
11.95625
 21
-412.76787988
 31
0.0
100
AcDbText
  0
TEXT
  5
468
100
AcDbEntity
  8
LAYER0240
 62
       4
100
AcDbText
 10
149.5625
 20
-412.76787988
 30
0.0
 40
18.0
  1
R6205
 41
0.8
 72
       5
 11
221.5625
 21
-412.76787988
 31
0.0
100
AcDbText
  0
TEXT
  5
469
100
AcDbEntity
  8
LAYER0240
 62
       4
100
AcDbText
 10
-250.375
 20
-319.11162988
 30
0.0
 40
12.0
  1
棚パイプ（φ8）
 41
0.7273
 72
       5
 11
-173.575
 21
-319.11162988
 31
0.0
100
AcDbText
  0
TEXT
  5
46A
100
AcDbEntity
  8
LAYER0240
 62
       4
100
AcDbText
 10
-111.08685481
 20
-319.77207952
 30
0.0
 40
12.0
  1
BS-C2700
 41
0.8
 72
       5
 11
-34.28685481
 21
-319.77207952
 31
0.0
100
AcDbText
  0
TEXT
  5
46B
100
AcDbEntity
  8
LAYER0240
 62
       4
100
AcDbText
 10
57.575
 20
-319.11162988
 30
0.0
 40
12.0
  1
2
 41
0.8
 72
       5
 11
67.175
 21
-319.11162988
 31
0.0
100
AcDbText
  0
TEXT
  5
46C
100
AcDbEntity
  8
LAYER0240
 62
       4
100
AcDbText
 10
82.0625
 20
-319.11162988
 30
0.0
 40
12.0
  1
φ8　クロムメッキ
 41
0.6923
 72
       5
 11
168.4625
 21
-319.11162988
 31
0.0
100
AcDbText
  0
TEXT
  5
46D
100
AcDbEntity
  8
LAYER0240
 62
       4
100
AcDbText
 10
-154.79982791
 20
-204.71454232
 30
0.0
 40
12.0
  1
標準パイプ寸法　L-400/500m/m(特注サイズ250～500m/m以内受注生産可能)
 41
0.7627
 72
       5
 11
277.20017209
 21
-204.71454232
 31
0.0
100
AcDbText
  0
TEXT
  5
46E
100
AcDbEntity
  8
LAYER0240
 62
       4
100
AcDbText
 10
-133.14338367
 20
-222.94107953
 30
0.0
 40
12.0
  1
Ａタイプは従来工法の取付方法。Ｂタイプはパネル工法の取付方法で壁補強板をご使用下さい。
 41
0.6719
 72
       5
 11
279.65661633
 21
-222.94107953
 31
0.0
100
AcDbText
  0
TEXT
  5
46F
100
AcDbEntity
  8
LAYER0240
 62
       4
100
AcDbText
 10
-250.375
 20
-334.11162988
 30
0.0
 40
12.0
  1
棚パイプ（φ8.4）
 41
0.7143
 72
       5
 11
-154.375
 21
-334.11162988
 31
0.0
100
AcDbText
  0
TEXT
  5
470
100
AcDbEntity
  8
LAYER0240
 62
       4
100
AcDbText
 10
-111.08685481
 20
-334.77207952
 30
0.0
 40
12.0
  1
BS-C2700
 41
0.8
 72
       5
 11
-34.28685481
 21
-334.77207952
 31
0.0
100
AcDbText
  0
TEXT
  5
471
100
AcDbEntity
  8
LAYER0240
 62
       4
100
AcDbText
 10
57.575
 20
-334.11162988
 30
0.0
 40
12.0
  1
1
 41
0.8
 72
       5
 11
67.175
 21
-334.11162988
 31
0.0
100
AcDbText
  0
TEXT
  5
472
100
AcDbEntity
  8
LAYER0240
 62
       4
100
AcDbText
 10
82.0625
 20
-334.11162988
 30
0.0
 40
12.0
  1
φ8.4　クロムメッキ
 41
0.7333
 72
       5
 11
187.6625
 21
-334.11162988
 31
0.0
100
AcDbText
  0
INSERT
  5
473
100
AcDbEntity
  8
LAYER0256
  6
CONTINUOUS
100
AcDbBlockReference
  2
GROUP_1
 10
0.0
 20
0.0
 30
0.0
  0
INSERT
  5
474
100
AcDbEntity
  8
LAYER0240
  6
CONTINUOUS
100
AcDbBlockReference
  2
GROUP_2
 10
0.0
 20
0.0
 30
0.0
  0
INSERT
  5
475
100
AcDbEntity
  8
LAYER0240
  6
CONTINUOUS
100
AcDbBlockReference
  2
GROUP_3
 10
0.0
 20
0.0
 30
0.0
  0
LINE
  5
476
100
AcDbEntity
  8
LAYER0016
  6
CENTER
 62
       9
100
AcDbLine
 10
134.55341005
 20
-100.86243222
 30
0.0
 11
134.55341005
 21
-158.41169526
 31
0.0
  0
LINE
  5
477
100
AcDbEntity
  8
LAYER0016
  6
CENTER
 62
       9
100
AcDbLine
 10
177.092133
 20
-129.86556817
 30
0.0
 11
202.36504641
 21
-129.86556817
 31
0.0
  0
LINE
  5
478
100
AcDbEntity
  8
LAYER0016
  6
CENTER
 62
       9
100
AcDbLine
 10
161.31882602
 20
-129.86556817
 30
0.0
 11
106.30850105
 21
-129.86556817
 31
0.0
  0
LINE
  5
479
100
AcDbEntity
  8
LAYER0016
  6
CENTER
 62
       9
100
AcDbLine
 10
146.55341005
 20
-116.67237345
 30
0.0
 11
146.55341005
 21
-145.27577209
 31
0.0
  0
LINE
  5
47A
100
AcDbEntity
  8
LAYER0016
  6
CENTER
 62
       9
100
AcDbLine
 10
122.55341005
 20
-115.34198281
 30
0.0
 11
122.55341005
 21
-146.27356507
 31
0.0
  0
LINE
  5
47B
100
AcDbEntity
  8
LAYER0016
  6
CENTER
 62
       9
100
AcDbLine
 10
-74.17504525
 20
-117.98621187
 30
0.0
 11
-74.17504525
 21
-132.86687749
 31
0.0
  0
LINE
  5
47C
100
AcDbEntity
  8
LAYER0016
  6
CENTER
 62
       9
100
AcDbLine
 10
-50.17504525
 20
-117.98621187
 30
0.0
 11
-50.17504525
 21
-132.47268767
 31
0.0
  0
LINE
  5
47D
100
AcDbEntity
  8
LAYER0016
  6
CENTER
 62
       9
100
AcDbLine
 10
-87.89866726
 20
-125.53855433
 30
0.0
 11
-36.20976156
 21
-125.53855433
 31
0.0
  0
LINE
  5
47E
100
AcDbEntity
  8
LAYER0016
  6
CENTER
 62
       9
100
AcDbLine
 10
-62.17504525
 20
-100.53078607
 30
0.0
 11
-62.17504525
 21
-152.23047602
 31
0.0
  0
LINE
  5
47F
100
AcDbEntity
  8
LAYER0016
  6
CENTER
 62
       9
100
AcDbLine
 10
-13.36118701
 20
-125.53855433
 30
0.0
 11
21.62754478
 21
-125.53855433
 31
0.0
  0
CIRCLE
  5
480
100
AcDbEntity
  8
LAYER0016
  6
CONTINUOUS
 62
       9
100
AcDbCircle
 10
-62.17504525
 20
-125.53855433
 30
0.0
 40
19.4385
  0
LINE
  5
481
100
AcDbEntity
  8
LAYER0016
  6
CONTINUOUS
 62
       9
100
AcDbLine
 10
0.91329013
 20
-144.97705433
 30
0.0
 11
8.86329013
 21
-144.97705433
 31
0.0
  0
LINE
  5
482
100
AcDbEntity
  8
LAYER0016
  6
CONTINUOUS
 62
       9
100
AcDbLine
 10
0.91329013
 20
-106.10005433
 30
0.0
 11
8.86329013
 21
-106.10005433
 31
0.0
  0
LINE
  5
483
100
AcDbEntity
  8
LAYER0016
  6
CONTINUOUS
 62
       9
100
AcDbLine
 10
-75.92312983
 20
296.14298273
 30
0.0
 11
-75.92312983
 21
296.64298273
 31
0.0
  0
LINE
  5
484
100
AcDbEntity
  8
LAYER0016
  6
CONTINUOUS
 62
       9
100
AcDbLine
 10
-101.84112983
 20
296.14298273
 30
0.0
 11
-101.84112983
 21
296.64298273
 31
0.0
  0
LINE
  5
485
100
AcDbEntity
  8
LAYER0016
  6
CONTINUOUS
 62
       9
100
AcDbLine
 10
116.58271481
 20
296.14298273
 30
0.0
 11
116.58271481
 21
296.64298273
 31
0.0
  0
LINE
  5
486
100
AcDbEntity
  8
LAYER0016
  6
CONTINUOUS
 62
       9
100
AcDbLine
 10
142.50071481
 20
296.14298273
 30
0.0
 11
142.50071481
 21
296.64298273
 31
0.0
  0
CIRCLE
  5
487
100
AcDbEntity
  8
LAYER0016
  6
CONTINUOUS
 62
       3
100
AcDbCircle
 10
134.55341005
 20
-129.86556817
 30
0.0
 40
22.5
  0
LINE
  5
488
100
AcDbEntity
  8
LAYER0016
  6
CONTINUOUS
 62
       3
100
AcDbLine
 10
188.76263324
 20
-107.36556817
 30
0.0
 11
189.96263324
 21
-107.36556817
 31
0.0
  0
LINE
  5
489
100
AcDbEntity
  8
LAYER0016
  6
CONTINUOUS
 62
       3
100
AcDbLine
 10
189.96263324
 20
-107.36556817
 30
0.0
 11
189.96263324
 21
-152.36556817
 31
0.0
  0
LINE
  5
48A
100
AcDbEntity
  8
LAYER0016
  6
CONTINUOUS
 62
       3
100
AcDbLine
 10
188.76263324
 20
-107.36556817
 30
0.0
 11
188.76263324
 21
-152.36556817
 31
0.0
  0
LINE
  5
48B
100
AcDbEntity
  8
LAYER0016
  6
CONTINUOUS
 62
       3
100
AcDbLine
 10
188.76263324
 20
-152.36556817
 30
0.0
 11
189.96263324
 21
-152.36556817
 31
0.0
  0
CIRCLE
  5
48C
100
AcDbEntity
  8
LAYER0016
  6
CONTINUOUS
 62
       3
100
AcDbCircle
 10
134.55341005
 20
-129.86556817
 30
0.0
 40
6.1125
  0
CIRCLE
  5
48D
100
AcDbEntity
  8
LAYER0016
  6
CONTINUOUS
 62
       3
100
AcDbCircle
 10
146.55341005
 20
-129.86556817
 30
0.0
 40
3.75
  0
CIRCLE
  5
48E
100
AcDbEntity
  8
LAYER0016
  6
CONTINUOUS
 62
       3
100
AcDbCircle
 10
122.55341005
 20
-129.86556817
 30
0.0
 40
3.75
  0
CIRCLE
  5
48F
100
AcDbEntity
  8
LAYER0016
  6
CONTINUOUS
 62
       3
100
AcDbCircle
 10
-62.17504525
 20
-125.53855433
 30
0.0
 40
20.25
  0
LINE
  5
490
100
AcDbEntity
  8
LAYER0016
  6
CONTINUOUS
 62
       3
100
AcDbLine
 10
-2.08670987
 20
-107.83855433
 30
0.0
 11
0.91329013
 21
-107.83855433
 31
0.0
  0
LINE
  5
491
100
AcDbEntity
  8
LAYER0016
  6
CONTINUOUS
 62
       3
100
AcDbLine
 10
-2.08670987
 20
-143.23855433
 30
0.0
 11
0.91329013
 21
-143.23855433
 31
0.0
  0
LINE
  5
492
100
AcDbEntity
  8
LAYER0016
  6
CONTINUOUS
 62
       3
100
AcDbLine
 10
-2.08670987
 20
-116.83855433
 30
0.0
 11
0.91329013
 21
-116.83855433
 31
0.0
  0
LINE
  5
493
100
AcDbEntity
  8
LAYER0016
  6
CONTINUOUS
 62
       3
100
AcDbLine
 10
-2.08670987
 20
-134.23855433
 30
0.0
 11
0.91329013
 21
-134.23855433
 31
0.0
  0
ARC
  5
494
100
AcDbEntity
  8
LAYER0016
  6
CONTINUOUS
 62
       3
100
AcDbCircle
 10
-62.17504525
 20
-125.53855433
 30
0.0
 40
10.95
100
AcDbArc
 50
223.23022079
 51
316.76977921
  0
ARC
  5
495
100
AcDbEntity
  8
LAYER0016
  6
CONTINUOUS
 62
       3
100
AcDbCircle
 10
-62.17504525
 20
-125.53855433
 30
0.0
 40
10.95
100
AcDbArc
 50
43.23022079
 51
136.76977921
  0
LINE
  5
496
100
AcDbEntity
  8
LAYER0016
  6
CONTINUOUS
 62
       3
100
AcDbLine
 10
-70.15329694
 20
-118.03855433
 30
0.0
 11
-54.19679356
 21
-118.03855433
 31
0.0
  0
LINE
  5
497
100
AcDbEntity
  8
LAYER0016
  6
CONTINUOUS
 62
       3
100
AcDbLine
 10
-70.15329694
 20
-133.03855433
 30
0.0
 11
-54.19679356
 21
-133.03855433
 31
0.0
  0
ARC
  5
498
100
AcDbEntity
  8
LAYER0016
  6
CONTINUOUS
 62
       3
100
AcDbCircle
 10
-62.17504525
 20
-125.53855433
 30
0.0
 40
17.7
100
AcDbArc
 50
29.44089265
 51
150.55910735
  0
ARC
  5
499
100
AcDbEntity
  8
LAYER0016
  6
CONTINUOUS
 62
       3
100
AcDbCircle
 10
-62.17504525
 20
-125.53855433
 30
0.0
 40
17.7
100
AcDbArc
 50
209.44089265
 51
330.55910735
  0
ARC
  5
49A
100
AcDbEntity
  8
LAYER0016
  6
CONTINUOUS
 62
       3
100
AcDbCircle
 10
-62.17504525
 20
-125.53855433
 30
0.0
 40
14.25
100
AcDbArc
 50
37.62756876
 51
142.37243124
  0
ARC
  5
49B
100
AcDbEntity
  8
LAYER0016
  6
CONTINUOUS
 62
       3
100
AcDbCircle
 10
-62.17504525
 20
-125.53855433
 30
0.0
 40
14.25
100
AcDbArc
 50
217.62756876
 51
322.37243124
  0
LINE
  5
49C
100
AcDbEntity
  8
LAYER0016
  6
CONTINUOUS
 62
       3
100
AcDbLine
 10
1.72479013
 20
-145.78855433
 30
0.0
 11
1.72479013
 21
-105.28855433
 31
0.0
  0
LINE
  5
49D
100
AcDbEntity
  8
LAYER0016
  6
CONTINUOUS
 62
       3
100
AcDbLine
 10
8.05179013
 20
-145.78855433
 30
0.0
 11
8.05179013
 21
-105.28855433
 31
0.0
  0
LINE
  5
49E
100
AcDbEntity
  8
LAYER0016
  6
CONTINUOUS
 62
       3
100
AcDbLine
 10
0.91329013
 20
-144.97705433
 30
0.0
 11
1.72479013
 21
-145.78855433
 31
0.0
  0
LINE
  5
49F
100
AcDbEntity
  8
LAYER0016
  6
CONTINUOUS
 62
       3
100
AcDbLine
 10
8.86329013
 20
-144.97705433
 30
0.0
 11
8.05179013
 21
-145.78855433
 31
0.0
  0
LINE
  5
4A0
100
AcDbEntity
  8
LAYER0016
  6
CONTINUOUS
 62
       3
100
AcDbLine
 10
0.91329013
 20
-106.10005433
 30
0.0
 11
1.72479013
 21
-105.28855433
 31
0.0
  0
LINE
  5
4A1
100
AcDbEntity
  8
LAYER0016
  6
CONTINUOUS
 62
       3
100
AcDbLine
 10
8.86329013
 20
-106.10005433
 30
0.0
 11
8.05179013
 21
-105.28855433
 31
0.0
  0
LINE
  5
4A2
100
AcDbEntity
  8
LAYER0016
  6
CONTINUOUS
 62
       3
100
AcDbLine
 10
1.72479013
 20
-105.28855433
 30
0.0
 11
8.05179013
 21
-105.28855433
 31
0.0
  0
LINE
  5
4A3
100
AcDbEntity
  8
LAYER0016
  6
CONTINUOUS
 62
       3
100
AcDbLine
 10
8.86329013
 20
-144.97705433
 30
0.0
 11
8.86329013
 21
-106.10005433
 31
0.0
  0
LINE
  5
4A4
100
AcDbEntity
  8
LAYER0016
  6
CONTINUOUS
 62
       3
100
AcDbLine
 10
1.72479013
 20
-145.78855433
 30
0.0
 11
8.05179013
 21
-145.78855433
 31
0.0
  0
LINE
  5
4A5
100
AcDbEntity
  8
LAYER0016
  6
CONTINUOUS
 62
       3
100
AcDbLine
 10
0.91329013
 20
-144.97705433
 30
0.0
 11
0.91329013
 21
-106.10005433
 31
0.0
  0
LINE
  5
4A6
100
AcDbEntity
  8
LAYER0016
  6
CONTINUOUS
 62
       3
100
AcDbLine
 10
-77.58932434
 20
-134.23855433
 30
0.0
 11
-73.46098783
 21
-134.23855433
 31
0.0
  0
LINE
  5
4A7
100
AcDbEntity
  8
LAYER0016
  6
CONTINUOUS
 62
       3
100
AcDbLine
 10
-77.58932434
 20
-116.83855433
 30
0.0
 11
-73.46098783
 21
-116.83855433
 31
0.0
  0
LINE
  5
4A8
100
AcDbEntity
  8
LAYER0016
  6
CONTINUOUS
 62
       3
100
AcDbLine
 10
-50.88910267
 20
-116.83855433
 30
0.0
 11
-46.76076615
 21
-116.83855433
 31
0.0
  0
LINE
  5
4A9
100
AcDbEntity
  8
LAYER0016
  6
CONTINUOUS
 62
       3
100
AcDbLine
 10
-50.88910267
 20
-134.23855433
 30
0.0
 11
-46.76076615
 21
-134.23855433
 31
0.0
  0
CIRCLE
  5
4AA
100
AcDbEntity
  8
LAYER0016
  6
CONTINUOUS
 62
       3
100
AcDbCircle
 10
-62.17504525
 20
-125.53855433
 30
0.0
 40
6.0
  0
LINE
  5
4AB
100
AcDbEntity
  8
LAYER0016
  6
CONTINUOUS
 62
       3
100
AcDbLine
 10
-2.08670987
 20
-118.03855433
 30
0.0
 11
-2.08670987
 21
-107.83855433
 31
0.0
  0
LINE
  5
4AC
100
AcDbEntity
  8
LAYER0016
  6
CONTINUOUS
 62
       3
100
AcDbLine
 10
-2.08670987
 20
-143.23855433
 30
0.0
 11
-2.08670987
 21
-133.03855433
 31
0.0
  0
LINE
  5
4AD
100
AcDbEntity
  8
LAYER0016
  6
CONTINUOUS
 62
       3
100
AcDbLine
 10
0.91329013
 20
-118.03855433
 30
0.0
 11
-2.08670987
 21
-118.03855433
 31
0.0
  0
LINE
  5
4AE
100
AcDbEntity
  8
LAYER0016
  6
CONTINUOUS
 62
       3
100
AcDbLine
 10
-2.08670987
 20
-133.03855433
 30
0.0
 11
0.91329013
 21
-133.03855433
 31
0.0
  0
CIRCLE
  5
4AF
100
AcDbEntity
  8
LAYER0016
  6
CONTINUOUS
 62
       3
100
AcDbCircle
 10
-74.17504525
 20
-125.53855433
 30
0.0
 40
3.375
  0
CIRCLE
  5
4B0
100
AcDbEntity
  8
LAYER0016
  6
CONTINUOUS
 62
       3
100
AcDbCircle
 10
-50.17504525
 20
-125.53855433
 30
0.0
 40
3.375
  0
CIRCLE
  5
4B1
100
AcDbEntity
  8
LAYER0016
  6
CONTINUOUS
 62
       3
100
AcDbCircle
 10
-74.17504525
 20
-125.53855433
 30
0.0
 40
6.0
  0
CIRCLE
  5
4B2
100
AcDbEntity
  8
LAYER0016
  6
CONTINUOUS
 62
       3
100
AcDbCircle
 10
-50.17504525
 20
-125.53855433
 30
0.0
 40
6.0
  0
LINE
  5
4B3
100
AcDbEntity
  8
LAYER0016
  6
CONTINUOUS
 62
       3
100
AcDbLine
 10
-75.92312983
 20
296.64298273
 30
0.0
 11
-101.84112983
 21
296.64298273
 31
0.0
  0
LINE
  5
4B4
100
AcDbEntity
  8
LAYER0016
  6
CONTINUOUS
 62
       3
100
AcDbLine
 10
-75.92312983
 20
296.64298273
 30
0.0
 11
-75.42312983
 21
296.14298273
 31
0.0
  0
LINE
  5
4B5
100
AcDbEntity
  8
LAYER0016
  6
CONTINUOUS
 62
       3
100
AcDbLine
 10
-101.84112983
 20
296.64298273
 30
0.0
 11
-102.34112983
 21
296.14298273
 31
0.0
  0
LINE
  5
4B6
100
AcDbEntity
  8
LAYER0016
  6
CONTINUOUS
 62
       3
100
AcDbLine
 10
142.50071481
 20
296.64298273
 30
0.0
 11
116.58271481
 21
296.64298273
 31
0.0
  0
LINE
  5
4B7
100
AcDbEntity
  8
LAYER0016
  6
CONTINUOUS
 62
       3
100
AcDbLine
 10
116.58271481
 20
296.64298273
 30
0.0
 11
116.08271481
 21
296.14298273
 31
0.0
  0
LINE
  5
4B8
100
AcDbEntity
  8
LAYER0016
  6
CONTINUOUS
 62
       3
100
AcDbLine
 10
142.50071481
 20
296.64298273
 30
0.0
 11
143.00071481
 21
296.14298273
 31
0.0
  0
LINE
  5
4B9
100
AcDbEntity
  8
LAYER0017
  6
CONTINUOUS
 62
       9
100
AcDbLine
 10
-74.17504525
 20
-135.86687749
 30
0.0
 11
-74.17504525
 21
-177.6035987
 31
0.0
  0
LINE
  5
4BA
100
AcDbEntity
  8
LAYER0017
  6
CONTINUOUS
 62
       9
100
AcDbLine
 10
-50.17504525
 20
-134.61355433
 30
0.0
 11
-50.17504525
 21
-177.6035987
 31
0.0
  0
LINE
  5
4BB
100
AcDbEntity
  8
LAYER0017
  6
CONTINUOUS
 62
       9
100
AcDbLine
 10
8.86329013
 20
-147.97705433
 30
0.0
 11
8.86329013
 21
-177.6035987
 31
0.0
  0
LINE
  5
4BC
100
AcDbEntity
  8
LAYER0017
  6
CONTINUOUS
 62
       9
100
AcDbLine
 10
0.91329013
 20
-147.97705433
 30
0.0
 11
0.91329013
 21
-177.6035987
 31
0.0
  0
LINE
  5
4BD
100
AcDbEntity
  8
LAYER0017
  6
CONTINUOUS
 62
       9
100
AcDbLine
 10
0.91329013
 20
-174.6035987
 30
0.0
 11
8.86329013
 21
-174.6035987
 31
0.0
  0
LINE
  5
4BE
100
AcDbEntity
  8
LAYER0017
  6
CONTINUOUS
 62
       9
100
AcDbLine
 10
-16.3998144
 20
-86.20242954
 30
0.0
 11
-41.5998144
 21
-86.20242954
 31
0.0
  0
LINE
  5
4BF
100
AcDbEntity
  8
LAYER0017
  6
CONTINUOUS
 62
       9
100
AcDbLine
 10
-62.17504525
 20
-125.53855433
 30
0.0
 11
-59.39412252
 21
-120.2219324
 31
0.0
  0
LINE
  5
4C0
100
AcDbEntity
  8
LAYER0017
  6
CONTINUOUS
 62
       9
100
AcDbLine
 10
122.55341005
 20
-149.27356507
 30
0.0
 11
122.55341005
 21
-177.6035987
 31
0.0
  0
LINE
  5
4C1
100
AcDbEntity
  8
LAYER0017
  6
CONTINUOUS
 62
       9
100
AcDbLine
 10
146.55341005
 20
-148.27577209
 30
0.0
 11
146.55341005
 21
-177.6035987
 31
0.0
  0
LINE
  5
4C2
100
AcDbEntity
  8
LAYER0017
  6
CONTINUOUS
 62
       9
100
AcDbLine
 10
189.96263324
 20
-155.36556817
 30
0.0
 11
189.96263324
 21
-177.91479275
 31
0.0
  0
LINE
  5
4C3
100
AcDbEntity
  8
LAYER0017
  6
CONTINUOUS
 62
       9
100
AcDbLine
 10
188.76263324
 20
-155.36556817
 30
0.0
 11
188.76263324
 21
-177.91479275
 31
0.0
  0
LINE
  5
4C4
100
AcDbEntity
  8
LAYER0017
  6
CONTINUOUS
 62
       9
100
AcDbLine
 10
189.96263324
 20
-174.91479275
 30
0.0
 11
188.76263324
 21
-174.91479275
 31
0.0
  0
LINE
  5
4C5
100
AcDbEntity
  8
LAYER0017
  6
CONTINUOUS
 62
       9
100
AcDbLine
 10
-195.80832356
 20
-105.97992132
 30
0.0
 11
-88.50072346
 21
-105.97992132
 31
0.0
  0
CIRCLE
  5
4C6
100
AcDbEntity
  8
LAYER0017
  6
CONTINUOUS
 62
       9
100
AcDbCircle
 10
74.0
 20
-60.10900474
 30
0.0
 40
12.183
  0
CIRCLE
  5
4C7
100
AcDbEntity
  8
LAYER0017
  6
CONTINUOUS
 62
       9
100
AcDbCircle
 10
-106.0
 20
-60.10900474
 30
0.0
 40
12.183
  0
LINE
  5
4C8
100
AcDbEntity
  8
LAYER0017
  6
CONTINUOUS
 62
       9
100
AcDbLine
 10
-74.17504525
 20
-174.6035987
 30
0.0
 11
-50.17504525
 21
-174.6035987
 31
0.0
  0
INSERT
  5
4C9
100
AcDbEntity
  8
LAYER0017
  6
CONTINUOUS
 62
       9
100
AcDbBlockReference
  2
_OPEN30
 10
-74.17504525
 20
-174.6035987
 30
0.0
 41
9.00000836
 42
8.99996782
 50
180.0
  0
INSERT
  5
4CA
100
AcDbEntity
  8
LAYER0017
  6
CONTINUOUS
 62
       9
100
AcDbBlockReference
  2
_OPEN30
 10
-50.17504525
 20
-174.6035987
 30
0.0
 41
9.00000836
 42
8.99996782
 50
360.0
  0
LINE
  5
4CB
100
AcDbEntity
  8
LAYER0017
  6
CONTINUOUS
 62
       9
100
AcDbLine
 10
122.55341005
 20
-174.6035987
 30
0.0
 11
146.55341005
 21
-174.6035987
 31
0.0
  0
INSERT
  5
4CC
100
AcDbEntity
  8
LAYER0017
  6
CONTINUOUS
 62
       9
100
AcDbBlockReference
  2
_OPEN30
 10
122.55341005
 20
-174.6035987
 30
0.0
 41
9.00000836
 42
8.99996782
 50
180.0
  0
INSERT
  5
4CD
100
AcDbEntity
  8
LAYER0017
  6
CONTINUOUS
 62
       9
100
AcDbBlockReference
  2
_OPEN30
 10
146.55341005
 20
-174.6035987
 30
0.0
 41
9.00000836
 42
8.99996782
 50
360.0
  0
LINE
  5
4CE
100
AcDbEntity
  8
LAYER0017
  6
CONTINUOUS
 62
       9
100
AcDbLine
 10
52.66329013
 20
-174.6035987
 30
0.0
 11
8.86329013
 21
-174.6035987
 31
0.0
  0
INSERT
  5
4CF
100
AcDbEntity
  8
LAYER0017
  6
CONTINUOUS
 62
       9
100
AcDbBlockReference
  2
_OPEN30
 10
8.86329013
 20
-174.6035987
 30
0.0
 41
9.00000836
 42
8.99996782
 50
180.0
  0
LINE
  5
4D0
100
AcDbEntity
  8
LAYER0017
  6
CONTINUOUS
 62
       9
100
AcDbLine
 10
-14.08670987
 20
-174.6035987
 30
0.0
 11
0.91329013
 21
-174.6035987
 31
0.0
  0
INSERT
  5
4D1
100
AcDbEntity
  8
LAYER0017
  6
CONTINUOUS
 62
       9
100
AcDbBlockReference
  2
_OPEN30
 10
0.91329013
 20
-174.6035987
 30
0.0
 41
9.00000836
 42
8.99996782
 50
360.0
  0
LINE
  5
4D2
100
AcDbEntity
  8
LAYER0017
  6
CONTINUOUS
 62
       9
100
AcDbLine
 10
-41.5998144
 20
-86.20242954
 30
0.0
 11
-59.39412252
 21
-120.2219324
 31
0.0
  0
INSERT
  5
4D3
100
AcDbEntity
  8
LAYER0017
  6
CONTINUOUS
 62
       9
100
AcDbBlockReference
  2
_OPEN30
 10
-59.39412252
 20
-120.2219324
 30
0.0
 41
9.00000836
 42
8.99996782
 50
242.38764495
  0
LINE
  5
4D4
100
AcDbEntity
  8
LAYER0017
  6
CONTINUOUS
 62
       9
100
AcDbLine
 10
173.76263324
 20
-174.91479275
 30
0.0
 11
188.76263324
 21
-174.91479275
 31
0.0
  0
INSERT
  5
4D5
100
AcDbEntity
  8
LAYER0017
  6
CONTINUOUS
 62
       9
100
AcDbBlockReference
  2
_OPEN30
 10
188.76263324
 20
-174.91479275
 30
0.0
 41
9.00000836
 42
8.99996782
 50
360.0
  0
LINE
  5
4D6
100
AcDbEntity
  8
LAYER0017
  6
CONTINUOUS
 62
       9
100
AcDbLine
 10
-88.50072346
 20
-105.97992132
 30
0.0
 11
-77.76475675
 21
-120.63757521
 31
0.0
  0
INSERT
  5
4D7
100
AcDbEntity
  8
LAYER0017
  6
CONTINUOUS
 62
       9
100
AcDbBlockReference
  2
_OPEN30
 10
-77.76475675
 20
-120.63757521
 30
0.0
 41
9.00000836
 42
8.99996782
 50
306.22083082
  0
LINE
  5
4D8
100
AcDbEntity
  8
LAYER0017
  6
CONTINUOUS
 62
       9
100
AcDbLine
 10
233.76263324
 20
-174.91479275
 30
0.0
 11
189.96263324
 21
-174.91479275
 31
0.0
  0
INSERT
  5
4D9
100
AcDbEntity
  8
LAYER0017
  6
CONTINUOUS
 62
       9
100
AcDbBlockReference
  2
_OPEN30
 10
189.96263324
 20
-174.91479275
 30
0.0
 41
9.00000836
 42
8.99996782
 50
180.0
  0
LINE
  5
4DA
100
AcDbEntity
  8
LAYER0017
  6
CONTINUOUS
 62
       9
100
AcDbLine
 10
124.0
 20
-120.10900474
 30
0.0
 11
81.79936654
 21
-69.46824459
 31
0.0
  0
INSERT
  5
4DB
100
AcDbEntity
  8
LAYER0017
  6
CONTINUOUS
 62
       9
100
AcDbBlockReference
  2
_DOT
 10
124.0
 20
-120.10900474
 30
0.0
 41
7.5
 42
7.5
 50
309.80557109
  0
LINE
  5
4DC
100
AcDbEntity
  8
LAYER0017
  6
CONTINUOUS
 62
       9
100
AcDbLine
 10
-66.0
 20
-120.10900474
 30
0.0
 11
-99.24208751
 21
-70.24587348
 31
0.0
  0
INSERT
  5
4DD
100
AcDbEntity
  8
LAYER0017
  6
CONTINUOUS
 62
       9
100
AcDbBlockReference
  2
_DOT
 10
-66.0
 20
-120.10900474
 30
0.0
 41
7.5
 42
7.5
 50
303.69006753
  0
TEXT
  5
4DE
100
AcDbEntity
  8
LAYER0017
 62
       7
100
AcDbText
 10
-71.77504525
 20
-171.6035987
 30
0.0
 40
12.0
  1
16
 41
0.8
 72
       5
 11
-52.57504525
 21
-171.6035987
 31
0.0
100
AcDbText
  0
TEXT
  5
4DF
100
AcDbEntity
  8
LAYER0017
 62
       7
100
AcDbText
 10
20.86329013
 20
-171.6035987
 30
0.0
 40
12.0
  1
5.3
 41
0.8
 72
       5
 11
49.66329013
 21
-171.6035987
 31
0.0
100
AcDbText
  0
TEXT
  5
4E0
100
AcDbEntity
  8
LAYER0017
 62
       7
100
AcDbText
 10
-38.5998144
 20
-83.20242954
 30
0.0
 40
12.0
  1
φ8
 41
0.8
 72
       5
 11
-19.3998144
 21
-83.20242954
 31
0.0
100
AcDbText
  0
TEXT
  5
4E1
100
AcDbEntity
  8
LAYER0017
 62
       7
100
AcDbText
 10
124.95341005
 20
-171.6035987
 30
0.0
 40
12.0
  1
16
 41
0.8
 72
       5
 11
144.15341005
 21
-171.6035987
 31
0.0
100
AcDbText
  0
TEXT
  5
4E2
100
AcDbEntity
  8
LAYER0017
 62
       7
100
AcDbText
 10
-192.90072346
 20
-102.97992132
 30
0.0
 40
12.0
  1
2-φ4.5、φ8皿ザグリ
 41
0.5647
 72
       5
 11
-91.50072346
 21
-102.97992132
 31
0.0
100
AcDbText
  0
TEXT
  5
4E3
100
AcDbEntity
  8
LAYER0017
 62
       7
100
AcDbText
 10
201.96263324
 20
-171.91479275
 30
0.0
 40
12.0
  1
0.8
 41
0.8
 72
       5
 11
230.76263324
 21
-171.91479275
 31
0.0
100
AcDbText
  0
LINE
  5
4E4
100
AcDbEntity
  8
0
  6
CENTER
 62
       9
100
AcDbLine
 10
104.54171481
 20
96.14298273
 30
0.0
 11
-63.88212983
 21
96.14298273
 31
0.0
  0
LINE
  5
4E5
100
AcDbEntity
  8
0
  6
CENTER
 62
       9
100
AcDbLine
 10
147.6566085
 20
9.2832363
 30
0.0
 11
-99.59859115
 21
9.2832363
 31
0.0
  0
ARC
  5
4E6
100
AcDbEntity
  8
0
  6
CENTER
 62
       9
100
AcDbCircle
 10
-63.88212983
 20
121.14298273
 30
0.0
 40
25.0
100
AcDbArc
 50
180.0
 51
270.0
  0
ARC
  5
4E7
100
AcDbEntity
  8
0
  6
CENTER
 62
       9
100
AcDbCircle
 10
104.54171481
 20
121.14298273
 30
0.0
 40
25.0
100
AcDbArc
 50
270.0
 51
360.0
  0
LINE
  5
4E8
100
AcDbEntity
  8
0
  6
CENTER
 62
       9
100
AcDbLine
 10
129.54171481
 20
29.80566813
 30
0.0
 11
129.54171481
 21
-13.14787614
 31
0.0
  0
LINE
  5
4E9
100
AcDbEntity
  8
0
  6
CENTER
 62
       9
100
AcDbLine
 10
129.54171481
 20
121.14298273
 30
0.0
 11
129.54171481
 21
344.2744438
 31
0.0
  0
LINE
  5
4EA
100
AcDbEntity
  8
0
  6
CENTER
 62
       9
100
AcDbLine
 10
-88.88212983
 20
121.14298273
 30
0.0
 11
-88.88212983
 21
348.49583241
 31
0.0
  0
LINE
  5
4EB
100
AcDbEntity
  8
0
  6
CENTER
 62
       9
100
AcDbLine
 10
-88.88212983
 20
29.80566813
 30
0.0
 11
-88.88212983
 21
-13.14787614
 31
0.0
  0
LINE
  5
4EC
100
AcDbEntity
  8
0
  6
CENTER
 62
       9
100
AcDbLine
 10
-88.88212983
 20
314.8276833
 30
0.0
 11
-88.88212983
 21
290.25891935
 31
0.0
  0
LINE
  5
4ED
100
AcDbEntity
  8
0
  6
CENTER
 62
       9
100
AcDbLine
 10
-93.11113518
 20
251.14298273
 30
0.0
 11
134.37396874
 21
251.14298273
 31
0.0
  0
LINE
  5
4EE
100
AcDbEntity
  8
0
  6
CENTER
 62
       9
100
AcDbLine
 10
-93.11113518
 20
201.14298273
 30
0.0
 11
134.37396874
 21
201.14298273
 31
0.0
  0
LINE
  5
4EF
100
AcDbEntity
  8
0
  6
CENTER
 62
       9
100
AcDbLine
 10
-93.11113518
 20
151.14298273
 30
0.0
 11
134.37396874
 21
151.14298273
 31
0.0
  0
ELLIPSE
  5
4F0
100
AcDbEntity
  8
0
  6
CONTINUOUS
 62
       9
100
AcDbEllipse
 10
16.78089233
 20
100.14298273
 30
0.0
 11
0.0
 21
-4.0000000000001137
 31
0.0
210
0.0
220
0.0
230
1.0
 40
0.57730838
 41
0.0
 42
6.2831853071796004
  0
ELLIPSE
  5
4F1
100
AcDbEntity
  8
0
  6
CONTINUOUS
 62
       9
100
AcDbEllipse
 10
23.87869265
 20
92.14298273
 30
0.0
 11
0.0
 21
-4.0000000000001137
 31
0.0
210
0.0
220
0.0
230
1.0
 40
0.57730838
 41
0.0
 42
6.2831853071796004
  0
ELLIPSE
  5
4F2
100
AcDbEntity
  8
0
  6
CONTINUOUS
 62
       9
100
AcDbEllipse
 10
16.78089233
 20
92.14298273
 30
0.0
 11
0.0
 21
-4.0000000000001137
 31
0.0
210
0.0
220
0.0
230
1.0
 40
0.57730838
 41
0.0
 42
3.1415924227419949
  0
ELLIPSE
  5
4F3
100
AcDbEntity
  8
0
  6
CONTINUOUS
 62
       9
100
AcDbEllipse
 10
23.87869265
 20
100.14298273
 30
0.0
 11
0.0
 21
-4.0000000000001137
 31
0.0
210
0.0
220
0.0
230
1.0
 40
0.57730838
 41
3.1415926535897931
 42
6.2831853071795862
  0
ELLIPSE
  5
4F4
100
AcDbEntity
  8
0
  6
CONTINUOUS
 62
       9
100
AcDbEllipse
 10
16.78089233
 20
5.2832363
 30
0.0
 11
0.0
 21
4.0000000000001137
 31
0.0
210
0.0
220
0.0
230
1.0
 40
0.57730838
 41
0.0
 42
6.2831853071796004
  0
ELLIPSE
  5
4F5
100
AcDbEntity
  8
0
  6
CONTINUOUS
 62
       9
100
AcDbEllipse
 10
23.87869265
 20
13.2832363
 30
0.0
 11
0.0
 21
4.0000000000001137
 31
0.0
210
0.0
220
0.0
230
1.0
 40
0.57730838
 41
0.0
 42
6.2831853071796004
  0
ELLIPSE
  5
4F6
100
AcDbEntity
  8
0
  6
CONTINUOUS
 62
       9
100
AcDbEllipse
 10
16.78089233
 20
13.2832363
 30
0.0
 11
0.0
 21
4.0000000000001137
 31
0.0
210
0.0
220
0.0
230
1.0
 40
0.57730838
 41
3.1415928844375913
 42
6.2831853071795862
  0
ELLIPSE
  5
4F7
100
AcDbEntity
  8
0
  6
CONTINUOUS
 62
       9
100
AcDbEllipse
 10
23.87869265
 20
5.2832363
 30
0.0
 11
0.0
 21
4.0000000000001137
 31
0.0
210
0.0
220
0.0
230
1.0
 40
0.57730838
 41
0.0
 42
3.1415926535897931
  0
LINE
  5
4F8
100
AcDbEntity
  8
0
  6
CONTINUOUS
 62
       9
100
AcDbLine
 10
127.04171481
 20
296.64298273
 30
0.0
 11
127.04171481
 21
331.14298273
 31
0.0
  0
LINE
  5
4F9
100
AcDbEntity
  8
0
  6
CONTINUOUS
 62
       9
100
AcDbLine
 10
132.04171481
 20
296.64298273
 30
0.0
 11
132.04171481
 21
331.14298273
 31
0.0
  0
ELLIPSE
  5
4FA
100
AcDbEntity
  8
0
  6
CONTINUOUS
 62
       9
100
AcDbEllipse
 10
17.91709869
 20
203.14298273
 30
0.0
 11
0.0
 21
-2.0
 31
0.0
210
0.0
220
0.0
230
1.0
 40
0.56810318
 41
0.0
 42
6.2831853071796004
  0
ELLIPSE
  5
4FB
100
AcDbEntity
  8
0
  6
CONTINUOUS
 62
       9
100
AcDbEllipse
 10
22.74248629
 20
199.14298273
 30
0.0
 11
0.0
 21
-2.0
 31
0.0
210
0.0
220
0.0
230
1.0
 40
0.56810318
 41
0.0
 42
6.2831853071796004
  0
ELLIPSE
  5
4FC
100
AcDbEntity
  8
0
  6
CONTINUOUS
 62
       9
100
AcDbEllipse
 10
17.91709869
 20
199.14298273
 30
0.0
 11
0.0
 21
-2.0
 31
0.0
210
0.0
220
0.0
230
1.0
 40
0.56810318
 41
0.0000000000000031
 42
3.1415926535897931
  0
ELLIPSE
  5
4FD
100
AcDbEntity
  8
0
  6
CONTINUOUS
 62
       9
100
AcDbEllipse
 10
22.74248629
 20
203.14298273
 30
0.0
 11
0.0
 21
-2.0
 31
0.0
210
0.0
220
0.0
230
1.0
 40
0.56810318
 41
3.1415926535897838
 42
6.283185307179596
  0
ELLIPSE
  5
4FE
100
AcDbEntity
  8
0
  6
CONTINUOUS
 62
       9
100
AcDbEllipse
 10
17.91709869
 20
153.14298273
 30
0.0
 11
0.0
 21
-2.0
 31
0.0
210
0.0
220
0.0
230
1.0
 40
0.56810318
 41
0.0
 42
6.2831853071796004
  0
ELLIPSE
  5
4FF
100
AcDbEntity
  8
0
  6
CONTINUOUS
 62
       9
100
AcDbEllipse
 10
22.74248629
 20
149.14298273
 30
0.0
 11
0.0
 21
-2.0
 31
0.0
210
0.0
220
0.0
230
1.0
 40
0.56810318
 41
0.0
 42
6.2831853071796004
  0
ELLIPSE
  5
500
100
AcDbEntity
  8
0
  6
CONTINUOUS
 62
       9
100
AcDbEllipse
 10
17.91709869
 20
149.14298273
 30
0.0
 11
0.0
 21
-2.0
 31
0.0
210
0.0
220
0.0
230
1.0
 40
0.56810318
 41
0.0000000000000031
 42
3.1415926535897931
  0
ELLIPSE
  5
501
100
AcDbEntity
  8
0
  6
CONTINUOUS
 62
       9
100
AcDbEllipse
 10
22.74248629
 20
153.14298273
 30
0.0
 11
0.0
 21
-2.0
 31
0.0
210
0.0
220
0.0
230
1.0
 40
0.56810318
 41
3.1415926535897838
 42
6.283185307179596
  0
LINE
  5
502
100
AcDbEntity
  8
0
  6
CONTINUOUS
 62
       3
100
AcDbLine
 10
104.54171481
 20
88.14298273
 30
0.0
 11
23.87869265
 21
88.14298273
 31
0.0
  0
LINE
  5
503
100
AcDbEntity
  8
0
  6
CONTINUOUS
 62
       3
100
AcDbLine
 10
16.78089233
 20
88.14298273
 30
0.0
 11
-63.88212983
 21
88.14298273
 31
0.0
  0
LINE
  5
504
100
AcDbEntity
  8
0
  6
CONTINUOUS
 62
       3
100
AcDbLine
 10
104.54171481
 20
104.14298273
 30
0.0
 11
23.87869265
 21
104.14298273
 31
0.0
  0
LINE
  5
505
100
AcDbEntity
  8
0
  6
CONTINUOUS
 62
       3
100
AcDbLine
 10
16.78089233
 20
104.14298273
 30
0.0
 11
-64.45355841
 21
104.14298273
 31
0.0
  0
LINE
  5
506
100
AcDbEntity
  8
0
  6
CONTINUOUS
 62
       3
100
AcDbLine
 10
129.54171481
 20
17.2832363
 30
0.0
 11
23.87869265
 21
17.2832363
 31
0.0
  0
LINE
  5
507
100
AcDbEntity
  8
0
  6
CONTINUOUS
 62
       3
100
AcDbLine
 10
16.78089233
 20
17.2832363
 30
0.0
 11
-88.88212983
 21
17.2832363
 31
0.0
  0
LINE
  5
508
100
AcDbEntity
  8
0
  6
CONTINUOUS
 62
       3
100
AcDbLine
 10
129.54171481
 20
1.2832363
 30
0.0
 11
23.5595008
 21
1.2832363
 31
0.0
  0
LINE
  5
509
100
AcDbEntity
  8
0
  6
CONTINUOUS
 62
       3
100
AcDbLine
 10
16.82589592
 20
1.2832363
 30
0.0
 11
-88.88212983
 21
1.2832363
 31
0.0
  0
LINE
  5
50A
100
AcDbEntity
  8
0
  6
CONTINUOUS
 62
       3
100
AcDbLine
 10
137.54171481
 20
121.14298273
 30
0.0
 11
137.54171481
 21
276.14298273
 31
0.0
  0
ARC
  5
50B
100
AcDbEntity
  8
0
  6
CONTINUOUS
 62
       3
100
AcDbCircle
 10
-63.88212983
 20
121.14298273
 30
0.0
 40
33.0
100
AcDbArc
 50
180.0
 51
270.0
  0
ARC
  5
50C
100
AcDbEntity
  8
0
  6
CONTINUOUS
 62
       3
100
AcDbCircle
 10
104.54171481
 20
121.14298273
 30
0.0
 40
33.0
100
AcDbArc
 50
270.0
 51
360.0
  0
ARC
  5
50D
100
AcDbEntity
  8
0
  6
CONTINUOUS
 62
       3
100
AcDbCircle
 10
-63.88212983
 20
121.14298273
 30
0.0
 40
17.0
100
AcDbArc
 50
180.0
 51
270.0
  0
ARC
  5
50E
100
AcDbEntity
  8
0
  6
CONTINUOUS
 62
       3
100
AcDbCircle
 10
104.54171481
 20
121.14298273
 30
0.0
 40
17.0
100
AcDbArc
 50
270.0
 51
360.0
  0
LINE
  5
50F
100
AcDbEntity
  8
0
  6
CONTINUOUS
 62
       3
100
AcDbLine
 10
-96.88212983
 20
121.14298273
 30
0.0
 11
-96.88212983
 21
276.14298273
 31
0.0
  0
LINE
  5
510
100
AcDbEntity
  8
0
  6
CONTINUOUS
 62
       3
100
AcDbLine
 10
126.54171481
 20
296.89298273
 30
0.0
 11
126.54171481
 21
330.64298273
 31
0.0
  0
LINE
  5
511
100
AcDbEntity
  8
0
  6
CONTINUOUS
 62
       3
100
AcDbLine
 10
126.54171481
 20
330.64298273
 30
0.0
 11
132.54171481
 21
330.64298273
 31
0.0
  0
LINE
  5
512
100
AcDbEntity
  8
0
  6
CONTINUOUS
 62
       3
100
AcDbLine
 10
132.54171481
 20
296.89298273
 30
0.0
 11
132.54171481
 21
330.64298273
 31
0.0
  0
LINE
  5
513
100
AcDbEntity
  8
0
  6
CONTINUOUS
 62
       3
100
AcDbLine
 10
127.54171481
 20
331.64298273
 30
0.0
 11
131.54171481
 21
331.64298273
 31
0.0
  0
LINE
  5
514
100
AcDbEntity
  8
0
  6
CONTINUOUS
 62
       3
100
AcDbLine
 10
126.54171481
 20
330.64298273
 30
0.0
 11
127.54171481
 21
331.64298273
 31
0.0
  0
LINE
  5
515
100
AcDbEntity
  8
0
  6
CONTINUOUS
 62
       3
100
AcDbLine
 10
132.54171481
 20
330.64298273
 30
0.0
 11
131.54171481
 21
331.64298273
 31
0.0
  0
LINE
  5
516
100
AcDbEntity
  8
0
  6
CONTINUOUS
 62
       3
100
AcDbLine
 10
-86.72587983
 20
297.76798273
 30
0.0
 11
-86.72587983
 21
296.64298273
 31
0.0
  0
LINE
  5
517
100
AcDbEntity
  8
0
  6
CONTINUOUS
 62
       3
100
AcDbLine
 10
-88.88212983
 20
341.64298273
 30
0.0
 11
-89.72587983
 21
339.67423273
 31
0.0
  0
LINE
  5
518
100
AcDbEntity
  8
0
  6
CONTINUOUS
 62
       3
100
AcDbLine
 10
-91.41337983
 20
336.51891762
 30
0.0
 11
-86.81962983
 21
337.55016762
 31
0.0
  0
LINE
  5
519
100
AcDbEntity
  8
0
  6
CONTINUOUS
 62
       3
100
AcDbLine
 10
-88.88212983
 20
341.64298273
 30
0.0
 11
-88.31962983
 21
340.04923273
 31
0.0
  0
LINE
  5
51A
100
AcDbEntity
  8
0
  6
CONTINUOUS
 62
       3
100
AcDbLine
 10
-88.31962983
 20
340.04923273
 30
0.0
 11
-89.72587983
 21
339.67423273
 31
0.0
  0
LINE
  5
51B
100
AcDbEntity
  8
0
  6
CONTINUOUS
 62
       3
100
AcDbLine
 10
-90.56931821
 20
337.20652149
 30
0.0
 11
-90.19462983
 21
338.45548273
 31
0.0
  0
LINE
  5
51C
100
AcDbEntity
  8
0
  6
CONTINUOUS
 62
       3
100
AcDbLine
 10
-90.73149406
 20
338.85497212
 30
0.0
 11
-87.48184287
 21
339.52156724
 31
0.0
  0
LINE
  5
51D
100
AcDbEntity
  8
0
  6
CONTINUOUS
 62
       3
100
AcDbLine
 10
-87.25928501
 20
337.27538314
 30
0.0
 11
-86.81962983
 21
337.55016762
 31
0.0
  0
LINE
  5
51E
100
AcDbEntity
  8
0
  6
CONTINUOUS
 62
       3
100
AcDbLine
 10
-90.66337983
 20
337.17516762
 30
0.0
 11
-91.41337983
 21
336.70641762
 31
0.0
  0
LINE
  5
51F
100
AcDbEntity
  8
0
  6
CONTINUOUS
 62
       3
100
AcDbLine
 10
-87.56962983
 20
338.20641762
 30
0.0
 11
-86.81962983
 21
337.73766762
 31
0.0
  0
LINE
  5
520
100
AcDbEntity
  8
0
  6
CONTINUOUS
 62
       3
100
AcDbLine
 10
-86.72587983
 20
301.23673273
 30
0.0
 11
-91.03837983
 21
300.04391359
 31
0.0
  0
LINE
  5
521
100
AcDbEntity
  8
0
  6
CONTINUOUS
 62
       3
100
AcDbLine
 10
-91.41337983
 20
336.70641762
 30
0.0
 11
-86.81962983
 21
337.73766762
 31
0.0
  0
LINE
  5
522
100
AcDbEntity
  8
0
  6
CONTINUOUS
 62
       3
100
AcDbLine
 10
-87.94462983
 20
339.11173273
 30
0.0
 11
-90.19462983
 21
338.45548273
 31
0.0
  0
LINE
  5
523
100
AcDbEntity
  8
0
  6
CONTINUOUS
 62
       3
100
AcDbLine
 10
-90.66337983
 20
337.17516762
 30
0.0
 11
-87.56962983
 21
338.20641762
 31
0.0
  0
LINE
  5
524
100
AcDbEntity
  8
0
  6
CONTINUOUS
 62
       3
100
AcDbLine
 10
-91.41337983
 20
336.51891762
 30
0.0
 11
-91.41337983
 21
336.70641762
 31
0.0
  0
LINE
  5
525
100
AcDbEntity
  8
0
  6
CONTINUOUS
 62
       3
100
AcDbLine
 10
-86.81962983
 20
337.73766762
 30
0.0
 11
-86.81962983
 21
337.55016762
 31
0.0
  0
LINE
  5
526
100
AcDbEntity
  8
0
  6
CONTINUOUS
 62
       3
100
AcDbLine
 10
-87.6355353
 20
338.18444913
 30
0.0
 11
-87.94462983
 21
339.11173273
 31
0.0
  0
LINE
  5
527
100
AcDbEntity
  8
0
  6
CONTINUOUS
 62
       3
100
AcDbLine
 10
-85.97587983
 20
300.76798273
 30
0.0
 11
-86.72587983
 21
301.23673273
 31
0.0
  0
LINE
  5
528
100
AcDbEntity
  8
0
  6
CONTINUOUS
 62
       3
100
AcDbLine
 10
-85.97587983
 20
302.92423273
 30
0.0
 11
-86.72587983
 21
302.45548273
 31
0.0
  0
LINE
  5
529
100
AcDbEntity
  8
0
  6
CONTINUOUS
 62
       3
100
AcDbLine
 10
-91.78837983
 20
299.56857797
 30
0.0
 11
-85.97587983
 21
300.76798273
 31
0.0
  0
LINE
  5
52A
100
AcDbEntity
  8
0
  6
CONTINUOUS
 62
       3
100
AcDbLine
 10
-85.97587983
 20
300.58048273
 30
0.0
 11
-91.78045824
 21
299.38271259
 31
0.0
  0
LINE
  5
52B
100
AcDbEntity
  8
0
  6
CONTINUOUS
 62
       3
100
AcDbLine
 10
-86.72587983
 20
300.11173273
 30
0.0
 11
-91.03837983
 21
298.91891359
 31
0.0
  0
LINE
  5
52C
100
AcDbEntity
  8
0
  6
CONTINUOUS
 62
       3
100
AcDbLine
 10
-91.78837983
 20
299.38766359
 30
0.0
 11
-91.03837983
 21
298.91891359
 31
0.0
  0
LINE
  5
52D
100
AcDbEntity
  8
0
  6
CONTINUOUS
 62
       3
100
AcDbLine
 10
-91.78837983
 20
299.38766359
 30
0.0
 11
-91.78837983
 21
299.57516359
 31
0.0
  0
LINE
  5
52E
100
AcDbEntity
  8
0
  6
CONTINUOUS
 62
       3
100
AcDbLine
 10
-86.72587983
 20
304.79923273
 30
0.0
 11
-86.72587983
 21
303.58048273
 31
0.0
  0
LINE
  5
52F
100
AcDbEntity
  8
0
  6
CONTINUOUS
 62
       3
100
AcDbLine
 10
-86.72587983
 20
301.23673273
 30
0.0
 11
-86.72587983
 21
302.45548273
 31
0.0
  0
LINE
  5
530
100
AcDbEntity
  8
0
  6
CONTINUOUS
 62
       3
100
AcDbLine
 10
-91.03837983
 20
300.04391359
 30
0.0
 11
-91.78837983
 21
299.57516359
 31
0.0
  0
LINE
  5
531
100
AcDbEntity
  8
0
  6
CONTINUOUS
 62
       3
100
AcDbLine
 10
-85.97587983
 20
300.76798273
 30
0.0
 11
-85.97587983
 21
300.58048273
 31
0.0
  0
LINE
  5
532
100
AcDbEntity
  8
0
  6
CONTINUOUS
 62
       3
100
AcDbLine
 10
-86.72587983
 20
300.11173273
 30
0.0
 11
-85.97587983
 21
300.58048273
 31
0.0
  0
LINE
  5
533
100
AcDbEntity
  8
0
  6
CONTINUOUS
 62
       3
100
AcDbLine
 10
-91.78837983
 20
301.73141359
 30
0.0
 11
-91.78837983
 21
301.91891359
 31
0.0
  0
LINE
  5
534
100
AcDbEntity
  8
0
  6
CONTINUOUS
 62
       3
100
AcDbLine
 10
-91.03837983
 20
302.38766359
 30
0.0
 11
-91.78837983
 21
301.91891359
 31
0.0
  0
LINE
  5
535
100
AcDbEntity
  8
0
  6
CONTINUOUS
 62
       3
100
AcDbLine
 10
-86.72587983
 20
303.58048273
 30
0.0
 11
-85.97587983
 21
303.11173273
 31
0.0
  0
LINE
  5
536
100
AcDbEntity
  8
0
  6
CONTINUOUS
 62
       3
100
AcDbLine
 10
-85.97587983
 20
303.11173273
 30
0.0
 11
-85.97587983
 21
302.92423273
 31
0.0
  0
LINE
  5
537
100
AcDbEntity
  8
0
  6
CONTINUOUS
 62
       3
100
AcDbLine
 10
-86.72587983
 20
298.89298273
 30
0.0
 11
-86.72587983
 21
300.11173273
 31
0.0
  0
LINE
  5
538
100
AcDbEntity
  8
0
  6
CONTINUOUS
 62
       3
100
AcDbLine
 10
-91.03837983
 20
302.38766359
 30
0.0
 11
-86.72587983
 21
303.58048273
 31
0.0
  0
LINE
  5
539
100
AcDbEntity
  8
0
  6
CONTINUOUS
 62
       3
100
AcDbLine
 10
-91.78837983
 20
301.91232797
 30
0.0
 11
-85.97587983
 21
303.11173273
 31
0.0
  0
LINE
  5
53A
100
AcDbEntity
  8
0
  6
CONTINUOUS
 62
       3
100
AcDbLine
 10
-85.97587983
 20
302.92423273
 30
0.0
 11
-91.78045824
 21
301.72646259
 31
0.0
  0
LINE
  5
53B
100
AcDbEntity
  8
0
  6
CONTINUOUS
 62
       3
100
AcDbLine
 10
-91.78837983
 20
301.73141359
 30
0.0
 11
-91.03837983
 21
301.26266359
 31
0.0
  0
LINE
  5
53C
100
AcDbEntity
  8
0
  6
CONTINUOUS
 62
       3
100
AcDbLine
 10
-86.72587983
 20
302.45548273
 30
0.0
 11
-91.03837983
 21
301.26266359
 31
0.0
  0
LINE
  5
53D
100
AcDbEntity
  8
0
  6
CONTINUOUS
 62
       3
100
AcDbLine
 10
-91.41337983
 20
336.51891762
 30
0.0
 11
-90.93632283
 21
336.06586598
 31
0.0
  0
LINE
  5
53E
100
AcDbEntity
  8
0
  6
CONTINUOUS
 62
       3
100
AcDbLine
 10
-90.93632283
 20
336.06586598
 30
0.0
 11
-87.25928501
 21
337.27538314
 31
0.0
  0
LINE
  5
53F
100
AcDbEntity
  8
0
  6
CONTINUOUS
 62
       3
100
AcDbLine
 10
-86.98228303
 20
336.3220627
 30
0.0
 11
-87.33306858
 21
337.25111292
 31
0.0
  0
LINE
  5
540
100
AcDbEntity
  8
0
  6
CONTINUOUS
 62
       3
100
AcDbLine
 10
-90.73149406
 20
339.04330699
 30
0.0
 11
-87.4844944
 21
339.73206449
 31
0.0
  0
LINE
  5
541
100
AcDbEntity
  8
0
  6
CONTINUOUS
 62
       3
100
AcDbLine
 10
-87.94462983
 20
339.11173273
 30
0.0
 11
-87.48184287
 21
339.52156724
 31
0.0
  0
LINE
  5
542
100
AcDbEntity
  8
0
  6
CONTINUOUS
 62
       3
100
AcDbLine
 10
-87.48184287
 20
339.52156724
 30
0.0
 11
-87.4844944
 21
339.73206449
 31
0.0
  0
LINE
  5
543
100
AcDbEntity
  8
0
  6
CONTINUOUS
 62
       3
100
AcDbLine
 10
-88.31962983
 20
340.04923273
 30
0.0
 11
-87.4844944
 21
339.73206449
 31
0.0
  0
LINE
  5
544
100
AcDbEntity
  8
0
  6
CONTINUOUS
 62
       3
100
AcDbLine
 10
-91.03837983
 20
298.91891359
 30
0.0
 11
-91.03837983
 21
297.70016359
 31
0.0
  0
LINE
  5
545
100
AcDbEntity
  8
0
  6
CONTINUOUS
 62
       3
100
AcDbLine
 10
-91.03837983
 20
300.04391359
 30
0.0
 11
-91.03837983
 21
301.26266359
 31
0.0
  0
LINE
  5
546
100
AcDbEntity
  8
0
  6
CONTINUOUS
 62
       3
100
AcDbLine
 10
-91.03837983
 20
302.38766359
 30
0.0
 11
-91.03837983
 21
303.60641359
 31
0.0
  0
LINE
  5
547
100
AcDbEntity
  8
0
  6
CONTINUOUS
 62
       3
100
AcDbLine
 10
-90.9824189
 20
335.21564214
 30
0.0
 11
-90.91986686
 21
336.07127897
 31
0.0
  0
LINE
  5
548
100
AcDbEntity
  8
0
  6
CONTINUOUS
 62
       3
100
AcDbLine
 10
-90.19462983
 20
338.45548273
 30
0.0
 11
-90.7334542
 21
338.85643069
 31
0.0
  0
LINE
  5
549
100
AcDbEntity
  8
0
  6
CONTINUOUS
 62
       3
100
AcDbLine
 10
-90.73149406
 20
338.85643069
 30
0.0
 11
-90.73149406
 21
339.04330699
 31
0.0
  0
LINE
  5
54A
100
AcDbEntity
  8
0
  6
CONTINUOUS
 62
       3
100
AcDbLine
 10
-90.73149406
 20
339.04330699
 30
0.0
 11
-89.72587983
 21
339.67423273
 31
0.0
  0
LINE
  5
54B
100
AcDbEntity
  8
0
  6
CONTINUOUS
 62
       3
100
AcDbLine
 10
-85.97587983
 20
305.26798273
 30
0.0
 11
-86.72587983
 21
304.79923273
 31
0.0
  0
LINE
  5
54C
100
AcDbEntity
  8
0
  6
CONTINUOUS
 62
       3
100
AcDbLine
 10
-91.78837983
 20
304.07516359
 30
0.0
 11
-91.78837983
 21
304.26266359
 31
0.0
  0
LINE
  5
54D
100
AcDbEntity
  8
0
  6
CONTINUOUS
 62
       3
100
AcDbLine
 10
-91.03837983
 20
304.73141359
 30
0.0
 11
-91.78837983
 21
304.26266359
 31
0.0
  0
LINE
  5
54E
100
AcDbEntity
  8
0
  6
CONTINUOUS
 62
       3
100
AcDbLine
 10
-86.72587983
 20
305.92423273
 30
0.0
 11
-85.97587983
 21
305.45548273
 31
0.0
  0
LINE
  5
54F
100
AcDbEntity
  8
0
  6
CONTINUOUS
 62
       3
100
AcDbLine
 10
-85.97587983
 20
305.45548273
 30
0.0
 11
-85.97587983
 21
305.26798273
 31
0.0
  0
LINE
  5
550
100
AcDbEntity
  8
0
  6
CONTINUOUS
 62
       3
100
AcDbLine
 10
-91.03837983
 20
304.73141359
 30
0.0
 11
-86.72587983
 21
305.92423273
 31
0.0
  0
LINE
  5
551
100
AcDbEntity
  8
0
  6
CONTINUOUS
 62
       3
100
AcDbLine
 10
-91.78837983
 20
304.25607797
 30
0.0
 11
-85.97587983
 21
305.45548273
 31
0.0
  0
LINE
  5
552
100
AcDbEntity
  8
0
  6
CONTINUOUS
 62
       3
100
AcDbLine
 10
-85.97587983
 20
305.26798273
 30
0.0
 11
-91.78045824
 21
304.07021259
 31
0.0
  0
LINE
  5
553
100
AcDbEntity
  8
0
  6
CONTINUOUS
 62
       3
100
AcDbLine
 10
-91.78837983
 20
304.07516359
 30
0.0
 11
-91.03837983
 21
303.60641359
 31
0.0
  0
LINE
  5
554
100
AcDbEntity
  8
0
  6
CONTINUOUS
 62
       3
100
AcDbLine
 10
-86.72587983
 20
304.79923273
 30
0.0
 11
-91.03837983
 21
303.60641359
 31
0.0
  0
LINE
  5
555
100
AcDbEntity
  8
0
  6
CONTINUOUS
 62
       3
100
AcDbLine
 10
-86.72587983
 20
307.14298273
 30
0.0
 11
-86.72587983
 21
305.92423273
 31
0.0
  0
LINE
  5
556
100
AcDbEntity
  8
0
  6
CONTINUOUS
 62
       3
100
AcDbLine
 10
-85.97587983
 20
307.61173273
 30
0.0
 11
-86.72587983
 21
307.14298273
 31
0.0
  0
LINE
  5
557
100
AcDbEntity
  8
0
  6
CONTINUOUS
 62
       3
100
AcDbLine
 10
-91.78837983
 20
306.41891359
 30
0.0
 11
-91.78837983
 21
306.60641359
 31
0.0
  0
LINE
  5
558
100
AcDbEntity
  8
0
  6
CONTINUOUS
 62
       3
100
AcDbLine
 10
-91.03837983
 20
307.07516359
 30
0.0
 11
-91.78837983
 21
306.60641359
 31
0.0
  0
LINE
  5
559
100
AcDbEntity
  8
0
  6
CONTINUOUS
 62
       3
100
AcDbLine
 10
-86.72587983
 20
308.26798273
 30
0.0
 11
-85.97587983
 21
307.79923273
 31
0.0
  0
LINE
  5
55A
100
AcDbEntity
  8
0
  6
CONTINUOUS
 62
       3
100
AcDbLine
 10
-85.97587983
 20
307.79923273
 30
0.0
 11
-85.97587983
 21
307.61173273
 31
0.0
  0
LINE
  5
55B
100
AcDbEntity
  8
0
  6
CONTINUOUS
 62
       3
100
AcDbLine
 10
-91.03837983
 20
307.07516359
 30
0.0
 11
-86.72587983
 21
308.26798273
 31
0.0
  0
LINE
  5
55C
100
AcDbEntity
  8
0
  6
CONTINUOUS
 62
       3
100
AcDbLine
 10
-91.78837983
 20
306.59982797
 30
0.0
 11
-85.97587983
 21
307.79923273
 31
0.0
  0
LINE
  5
55D
100
AcDbEntity
  8
0
  6
CONTINUOUS
 62
       3
100
AcDbLine
 10
-85.97587983
 20
307.61173273
 30
0.0
 11
-91.78045824
 21
306.41396259
 31
0.0
  0
LINE
  5
55E
100
AcDbEntity
  8
0
  6
CONTINUOUS
 62
       3
100
AcDbLine
 10
-91.78837983
 20
306.41891359
 30
0.0
 11
-91.03837983
 21
305.95016359
 31
0.0
  0
LINE
  5
55F
100
AcDbEntity
  8
0
  6
CONTINUOUS
 62
       3
100
AcDbLine
 10
-86.72587983
 20
307.14298273
 30
0.0
 11
-91.03837983
 21
305.95016359
 31
0.0
  0
LINE
  5
560
100
AcDbEntity
  8
0
  6
CONTINUOUS
 62
       3
100
AcDbLine
 10
-91.03837983
 20
304.73141359
 30
0.0
 11
-91.03837983
 21
305.95016359
 31
0.0
  0
LINE
  5
561
100
AcDbEntity
  8
0
  6
CONTINUOUS
 62
       3
100
AcDbLine
 10
-86.72587983
 20
309.48673273
 30
0.0
 11
-86.72587983
 21
308.26798273
 31
0.0
  0
LINE
  5
562
100
AcDbEntity
  8
0
  6
CONTINUOUS
 62
       3
100
AcDbLine
 10
-85.97587983
 20
309.95548273
 30
0.0
 11
-86.72587983
 21
309.48673273
 31
0.0
  0
LINE
  5
563
100
AcDbEntity
  8
0
  6
CONTINUOUS
 62
       3
100
AcDbLine
 10
-91.78837983
 20
308.76266359
 30
0.0
 11
-91.78837983
 21
308.95016359
 31
0.0
  0
LINE
  5
564
100
AcDbEntity
  8
0
  6
CONTINUOUS
 62
       3
100
AcDbLine
 10
-91.03837983
 20
309.41891359
 30
0.0
 11
-91.78837983
 21
308.95016359
 31
0.0
  0
LINE
  5
565
100
AcDbEntity
  8
0
  6
CONTINUOUS
 62
       3
100
AcDbLine
 10
-86.72587983
 20
310.61173273
 30
0.0
 11
-85.97587983
 21
310.14298273
 31
0.0
  0
LINE
  5
566
100
AcDbEntity
  8
0
  6
CONTINUOUS
 62
       3
100
AcDbLine
 10
-85.97587983
 20
310.14298273
 30
0.0
 11
-85.97587983
 21
309.95548273
 31
0.0
  0
LINE
  5
567
100
AcDbEntity
  8
0
  6
CONTINUOUS
 62
       3
100
AcDbLine
 10
-91.03837983
 20
309.41891359
 30
0.0
 11
-86.72587983
 21
310.61173273
 31
0.0
  0
LINE
  5
568
100
AcDbEntity
  8
0
  6
CONTINUOUS
 62
       3
100
AcDbLine
 10
-91.78837983
 20
308.94357797
 30
0.0
 11
-85.97587983
 21
310.14298273
 31
0.0
  0
LINE
  5
569
100
AcDbEntity
  8
0
  6
CONTINUOUS
 62
       3
100
AcDbLine
 10
-85.97587983
 20
309.95548273
 30
0.0
 11
-91.78045824
 21
308.75771259
 31
0.0
  0
LINE
  5
56A
100
AcDbEntity
  8
0
  6
CONTINUOUS
 62
       3
100
AcDbLine
 10
-91.78837983
 20
308.76266359
 30
0.0
 11
-91.03837983
 21
308.29391359
 31
0.0
  0
LINE
  5
56B
100
AcDbEntity
  8
0
  6
CONTINUOUS
 62
       3
100
AcDbLine
 10
-86.72587983
 20
309.48673273
 30
0.0
 11
-91.03837983
 21
308.29391359
 31
0.0
  0
LINE
  5
56C
100
AcDbEntity
  8
0
  6
CONTINUOUS
 62
       3
100
AcDbLine
 10
-91.03837983
 20
307.07516359
 30
0.0
 11
-91.03837983
 21
308.29391359
 31
0.0
  0
LINE
  5
56D
100
AcDbEntity
  8
0
  6
CONTINUOUS
 62
       3
100
AcDbLine
 10
-86.72587983
 20
311.83048273
 30
0.0
 11
-86.72587983
 21
310.61173273
 31
0.0
  0
LINE
  5
56E
100
AcDbEntity
  8
0
  6
CONTINUOUS
 62
       3
100
AcDbLine
 10
-85.97587983
 20
312.29923273
 30
0.0
 11
-86.72587983
 21
311.83048273
 31
0.0
  0
LINE
  5
56F
100
AcDbEntity
  8
0
  6
CONTINUOUS
 62
       3
100
AcDbLine
 10
-91.78837983
 20
311.10641359
 30
0.0
 11
-91.78837983
 21
311.29391359
 31
0.0
  0
LINE
  5
570
100
AcDbEntity
  8
0
  6
CONTINUOUS
 62
       3
100
AcDbLine
 10
-91.03837983
 20
311.76266359
 30
0.0
 11
-91.78837983
 21
311.29391359
 31
0.0
  0
LINE
  5
571
100
AcDbEntity
  8
0
  6
CONTINUOUS
 62
       3
100
AcDbLine
 10
-86.72587983
 20
312.95548273
 30
0.0
 11
-85.97587983
 21
312.48673273
 31
0.0
  0
LINE
  5
572
100
AcDbEntity
  8
0
  6
CONTINUOUS
 62
       3
100
AcDbLine
 10
-85.97587983
 20
312.48673273
 30
0.0
 11
-85.97587983
 21
312.29923273
 31
0.0
  0
LINE
  5
573
100
AcDbEntity
  8
0
  6
CONTINUOUS
 62
       3
100
AcDbLine
 10
-91.03837983
 20
311.76266359
 30
0.0
 11
-86.72587983
 21
312.95548273
 31
0.0
  0
LINE
  5
574
100
AcDbEntity
  8
0
  6
CONTINUOUS
 62
       3
100
AcDbLine
 10
-91.78837983
 20
311.28732797
 30
0.0
 11
-85.97587983
 21
312.48673273
 31
0.0
  0
LINE
  5
575
100
AcDbEntity
  8
0
  6
CONTINUOUS
 62
       3
100
AcDbLine
 10
-85.97587983
 20
312.29923273
 30
0.0
 11
-91.78045824
 21
311.10146259
 31
0.0
  0
LINE
  5
576
100
AcDbEntity
  8
0
  6
CONTINUOUS
 62
       3
100
AcDbLine
 10
-91.78837983
 20
311.10641359
 30
0.0
 11
-91.03837983
 21
310.63766359
 31
0.0
  0
LINE
  5
577
100
AcDbEntity
  8
0
  6
CONTINUOUS
 62
       3
100
AcDbLine
 10
-86.72587983
 20
311.83048273
 30
0.0
 11
-91.03837983
 21
310.63766359
 31
0.0
  0
LINE
  5
578
100
AcDbEntity
  8
0
  6
CONTINUOUS
 62
       3
100
AcDbLine
 10
-91.03837983
 20
309.41891359
 30
0.0
 11
-91.03837983
 21
310.63766359
 31
0.0
  0
LINE
  5
579
100
AcDbEntity
  8
0
  6
CONTINUOUS
 62
       3
100
AcDbLine
 10
-86.72587983
 20
314.17423273
 30
0.0
 11
-86.72587983
 21
312.95548273
 31
0.0
  0
LINE
  5
57A
100
AcDbEntity
  8
0
  6
CONTINUOUS
 62
       3
100
AcDbLine
 10
-85.97587983
 20
314.64298273
 30
0.0
 11
-86.72587983
 21
314.17423273
 31
0.0
  0
LINE
  5
57B
100
AcDbEntity
  8
0
  6
CONTINUOUS
 62
       3
100
AcDbLine
 10
-91.78837983
 20
313.45016359
 30
0.0
 11
-91.78837983
 21
313.63766359
 31
0.0
  0
LINE
  5
57C
100
AcDbEntity
  8
0
  6
CONTINUOUS
 62
       3
100
AcDbLine
 10
-91.03837983
 20
314.10641359
 30
0.0
 11
-91.78837983
 21
313.63766359
 31
0.0
  0
LINE
  5
57D
100
AcDbEntity
  8
0
  6
CONTINUOUS
 62
       3
100
AcDbLine
 10
-86.72587983
 20
315.29923273
 30
0.0
 11
-85.97587983
 21
314.83048273
 31
0.0
  0
LINE
  5
57E
100
AcDbEntity
  8
0
  6
CONTINUOUS
 62
       3
100
AcDbLine
 10
-85.97587983
 20
314.83048273
 30
0.0
 11
-85.97587983
 21
314.64298273
 31
0.0
  0
LINE
  5
57F
100
AcDbEntity
  8
0
  6
CONTINUOUS
 62
       3
100
AcDbLine
 10
-91.03837983
 20
314.10641359
 30
0.0
 11
-86.72587983
 21
315.29923273
 31
0.0
  0
LINE
  5
580
100
AcDbEntity
  8
0
  6
CONTINUOUS
 62
       3
100
AcDbLine
 10
-91.78837983
 20
313.63107797
 30
0.0
 11
-85.97587983
 21
314.83048273
 31
0.0
  0
LINE
  5
581
100
AcDbEntity
  8
0
  6
CONTINUOUS
 62
       3
100
AcDbLine
 10
-85.97587983
 20
314.64298273
 30
0.0
 11
-91.78045824
 21
313.44521259
 31
0.0
  0
LINE
  5
582
100
AcDbEntity
  8
0
  6
CONTINUOUS
 62
       3
100
AcDbLine
 10
-91.78837983
 20
313.45016359
 30
0.0
 11
-91.03837983
 21
312.98141359
 31
0.0
  0
LINE
  5
583
100
AcDbEntity
  8
0
  6
CONTINUOUS
 62
       3
100
AcDbLine
 10
-86.72587983
 20
314.17423273
 30
0.0
 11
-91.03837983
 21
312.98141359
 31
0.0
  0
LINE
  5
584
100
AcDbEntity
  8
0
  6
CONTINUOUS
 62
       3
100
AcDbLine
 10
-91.03837983
 20
311.76266359
 30
0.0
 11
-91.03837983
 21
312.98141359
 31
0.0
  0
LINE
  5
585
100
AcDbEntity
  8
0
  6
CONTINUOUS
 62
       3
100
AcDbLine
 10
-86.72587983
 20
316.51798273
 30
0.0
 11
-86.72587983
 21
315.29923273
 31
0.0
  0
LINE
  5
586
100
AcDbEntity
  8
0
  6
CONTINUOUS
 62
       3
100
AcDbLine
 10
-85.97587983
 20
316.98673273
 30
0.0
 11
-86.72587983
 21
316.51798273
 31
0.0
  0
LINE
  5
587
100
AcDbEntity
  8
0
  6
CONTINUOUS
 62
       3
100
AcDbLine
 10
-91.78837983
 20
315.79391359
 30
0.0
 11
-91.78837983
 21
315.98141359
 31
0.0
  0
LINE
  5
588
100
AcDbEntity
  8
0
  6
CONTINUOUS
 62
       3
100
AcDbLine
 10
-91.03837983
 20
316.45016359
 30
0.0
 11
-91.78837983
 21
315.98141359
 31
0.0
  0
LINE
  5
589
100
AcDbEntity
  8
0
  6
CONTINUOUS
 62
       3
100
AcDbLine
 10
-86.72587983
 20
317.64298273
 30
0.0
 11
-85.97587983
 21
317.17423273
 31
0.0
  0
LINE
  5
58A
100
AcDbEntity
  8
0
  6
CONTINUOUS
 62
       3
100
AcDbLine
 10
-85.97587983
 20
317.17423273
 30
0.0
 11
-85.97587983
 21
316.98673273
 31
0.0
  0
LINE
  5
58B
100
AcDbEntity
  8
0
  6
CONTINUOUS
 62
       3
100
AcDbLine
 10
-91.03837983
 20
316.45016359
 30
0.0
 11
-86.72587983
 21
317.64298273
 31
0.0
  0
LINE
  5
58C
100
AcDbEntity
  8
0
  6
CONTINUOUS
 62
       3
100
AcDbLine
 10
-91.78837983
 20
315.97482797
 30
0.0
 11
-85.97587983
 21
317.17423273
 31
0.0
  0
LINE
  5
58D
100
AcDbEntity
  8
0
  6
CONTINUOUS
 62
       3
100
AcDbLine
 10
-85.97587983
 20
316.98673273
 30
0.0
 11
-91.78045824
 21
315.78896259
 31
0.0
  0
LINE
  5
58E
100
AcDbEntity
  8
0
  6
CONTINUOUS
 62
       3
100
AcDbLine
 10
-91.78837983
 20
315.79391359
 30
0.0
 11
-91.03837983
 21
315.32516359
 31
0.0
  0
LINE
  5
58F
100
AcDbEntity
  8
0
  6
CONTINUOUS
 62
       3
100
AcDbLine
 10
-86.72587983
 20
316.51798273
 30
0.0
 11
-91.03837983
 21
315.32516359
 31
0.0
  0
LINE
  5
590
100
AcDbEntity
  8
0
  6
CONTINUOUS
 62
       3
100
AcDbLine
 10
-91.03837983
 20
314.10641359
 30
0.0
 11
-91.03837983
 21
315.32516359
 31
0.0
  0
LINE
  5
591
100
AcDbEntity
  8
0
  6
CONTINUOUS
 62
       3
100
AcDbLine
 10
-86.72587983
 20
318.86173273
 30
0.0
 11
-86.72587983
 21
317.64298273
 31
0.0
  0
LINE
  5
592
100
AcDbEntity
  8
0
  6
CONTINUOUS
 62
       3
100
AcDbLine
 10
-85.97587983
 20
319.33048273
 30
0.0
 11
-86.72587983
 21
318.86173273
 31
0.0
  0
LINE
  5
593
100
AcDbEntity
  8
0
  6
CONTINUOUS
 62
       3
100
AcDbLine
 10
-91.78837983
 20
318.13766359
 30
0.0
 11
-91.78837983
 21
318.32516359
 31
0.0
  0
LINE
  5
594
100
AcDbEntity
  8
0
  6
CONTINUOUS
 62
       3
100
AcDbLine
 10
-91.03837983
 20
318.79391359
 30
0.0
 11
-91.78837983
 21
318.32516359
 31
0.0
  0
LINE
  5
595
100
AcDbEntity
  8
0
  6
CONTINUOUS
 62
       3
100
AcDbLine
 10
-86.72587983
 20
319.98673273
 30
0.0
 11
-85.97587983
 21
319.51798273
 31
0.0
  0
LINE
  5
596
100
AcDbEntity
  8
0
  6
CONTINUOUS
 62
       3
100
AcDbLine
 10
-85.97587983
 20
319.51798273
 30
0.0
 11
-85.97587983
 21
319.33048273
 31
0.0
  0
LINE
  5
597
100
AcDbEntity
  8
0
  6
CONTINUOUS
 62
       3
100
AcDbLine
 10
-91.03837983
 20
318.79391359
 30
0.0
 11
-86.72587983
 21
319.98673273
 31
0.0
  0
LINE
  5
598
100
AcDbEntity
  8
0
  6
CONTINUOUS
 62
       3
100
AcDbLine
 10
-91.78837983
 20
318.31857797
 30
0.0
 11
-85.97587983
 21
319.51798273
 31
0.0
  0
LINE
  5
599
100
AcDbEntity
  8
0
  6
CONTINUOUS
 62
       3
100
AcDbLine
 10
-85.97587983
 20
319.33048273
 30
0.0
 11
-91.78045824
 21
318.13271259
 31
0.0
  0
LINE
  5
59A
100
AcDbEntity
  8
0
  6
CONTINUOUS
 62
       3
100
AcDbLine
 10
-91.78837983
 20
318.13766359
 30
0.0
 11
-91.03837983
 21
317.66891359
 31
0.0
  0
LINE
  5
59B
100
AcDbEntity
  8
0
  6
CONTINUOUS
 62
       3
100
AcDbLine
 10
-86.72587983
 20
318.86173273
 30
0.0
 11
-91.03837983
 21
317.66891359
 31
0.0
  0
LINE
  5
59C
100
AcDbEntity
  8
0
  6
CONTINUOUS
 62
       3
100
AcDbLine
 10
-91.03837983
 20
316.45016359
 30
0.0
 11
-91.03837983
 21
317.66891359
 31
0.0
  0
LINE
  5
59D
100
AcDbEntity
  8
0
  6
CONTINUOUS
 62
       3
100
AcDbLine
 10
-86.72587983
 20
321.20548273
 30
0.0
 11
-86.72587983
 21
319.98673273
 31
0.0
  0
LINE
  5
59E
100
AcDbEntity
  8
0
  6
CONTINUOUS
 62
       3
100
AcDbLine
 10
-85.97587983
 20
321.67423273
 30
0.0
 11
-86.72587983
 21
321.20548273
 31
0.0
  0
LINE
  5
59F
100
AcDbEntity
  8
0
  6
CONTINUOUS
 62
       3
100
AcDbLine
 10
-91.78837983
 20
320.48141359
 30
0.0
 11
-91.78837983
 21
320.66891359
 31
0.0
  0
LINE
  5
5A0
100
AcDbEntity
  8
0
  6
CONTINUOUS
 62
       3
100
AcDbLine
 10
-91.03837983
 20
321.13766359
 30
0.0
 11
-91.78837983
 21
320.66891359
 31
0.0
  0
LINE
  5
5A1
100
AcDbEntity
  8
0
  6
CONTINUOUS
 62
       3
100
AcDbLine
 10
-86.72587983
 20
322.33048273
 30
0.0
 11
-85.97587983
 21
321.86173273
 31
0.0
  0
LINE
  5
5A2
100
AcDbEntity
  8
0
  6
CONTINUOUS
 62
       3
100
AcDbLine
 10
-85.97587983
 20
321.86173273
 30
0.0
 11
-85.97587983
 21
321.67423273
 31
0.0
  0
LINE
  5
5A3
100
AcDbEntity
  8
0
  6
CONTINUOUS
 62
       3
100
AcDbLine
 10
-91.03837983
 20
321.13766359
 30
0.0
 11
-86.72587983
 21
322.33048273
 31
0.0
  0
LINE
  5
5A4
100
AcDbEntity
  8
0
  6
CONTINUOUS
 62
       3
100
AcDbLine
 10
-91.78837983
 20
320.66232797
 30
0.0
 11
-85.97587983
 21
321.86173273
 31
0.0
  0
LINE
  5
5A5
100
AcDbEntity
  8
0
  6
CONTINUOUS
 62
       3
100
AcDbLine
 10
-85.97587983
 20
321.67423273
 30
0.0
 11
-91.78045824
 21
320.47646259
 31
0.0
  0
LINE
  5
5A6
100
AcDbEntity
  8
0
  6
CONTINUOUS
 62
       3
100
AcDbLine
 10
-91.78837983
 20
320.48141359
 30
0.0
 11
-91.03837983
 21
320.01266359
 31
0.0
  0
LINE
  5
5A7
100
AcDbEntity
  8
0
  6
CONTINUOUS
 62
       3
100
AcDbLine
 10
-86.72587983
 20
321.20548273
 30
0.0
 11
-91.03837983
 21
320.01266359
 31
0.0
  0
LINE
  5
5A8
100
AcDbEntity
  8
0
  6
CONTINUOUS
 62
       3
100
AcDbLine
 10
-91.03837983
 20
318.79391359
 30
0.0
 11
-91.03837983
 21
320.01266359
 31
0.0
  0
LINE
  5
5A9
100
AcDbEntity
  8
0
  6
CONTINUOUS
 62
       3
100
AcDbLine
 10
-86.72587983
 20
323.54923273
 30
0.0
 11
-86.72587983
 21
322.33048273
 31
0.0
  0
LINE
  5
5AA
100
AcDbEntity
  8
0
  6
CONTINUOUS
 62
       3
100
AcDbLine
 10
-85.97587983
 20
324.01798273
 30
0.0
 11
-86.72587983
 21
323.54923273
 31
0.0
  0
LINE
  5
5AB
100
AcDbEntity
  8
0
  6
CONTINUOUS
 62
       3
100
AcDbLine
 10
-91.78837983
 20
322.82516359
 30
0.0
 11
-91.78837983
 21
323.01266359
 31
0.0
  0
LINE
  5
5AC
100
AcDbEntity
  8
0
  6
CONTINUOUS
 62
       3
100
AcDbLine
 10
-91.03837983
 20
323.48141359
 30
0.0
 11
-91.78837983
 21
323.01266359
 31
0.0
  0
LINE
  5
5AD
100
AcDbEntity
  8
0
  6
CONTINUOUS
 62
       3
100
AcDbLine
 10
-86.72587983
 20
324.67423273
 30
0.0
 11
-85.97587983
 21
324.20548273
 31
0.0
  0
LINE
  5
5AE
100
AcDbEntity
  8
0
  6
CONTINUOUS
 62
       3
100
AcDbLine
 10
-85.97587983
 20
324.20548273
 30
0.0
 11
-85.97587983
 21
324.01798273
 31
0.0
  0
LINE
  5
5AF
100
AcDbEntity
  8
0
  6
CONTINUOUS
 62
       3
100
AcDbLine
 10
-91.03837983
 20
323.48141359
 30
0.0
 11
-86.72587983
 21
324.67423273
 31
0.0
  0
LINE
  5
5B0
100
AcDbEntity
  8
0
  6
CONTINUOUS
 62
       3
100
AcDbLine
 10
-91.78837983
 20
323.00607797
 30
0.0
 11
-85.97587983
 21
324.20548273
 31
0.0
  0
LINE
  5
5B1
100
AcDbEntity
  8
0
  6
CONTINUOUS
 62
       3
100
AcDbLine
 10
-85.97587983
 20
324.01798273
 30
0.0
 11
-91.78045824
 21
322.82021259
 31
0.0
  0
LINE
  5
5B2
100
AcDbEntity
  8
0
  6
CONTINUOUS
 62
       3
100
AcDbLine
 10
-91.78837983
 20
322.82516359
 30
0.0
 11
-91.03837983
 21
322.35641359
 31
0.0
  0
LINE
  5
5B3
100
AcDbEntity
  8
0
  6
CONTINUOUS
 62
       3
100
AcDbLine
 10
-86.72587983
 20
323.54923273
 30
0.0
 11
-91.03837983
 21
322.35641359
 31
0.0
  0
LINE
  5
5B4
100
AcDbEntity
  8
0
  6
CONTINUOUS
 62
       3
100
AcDbLine
 10
-91.03837983
 20
321.13766359
 30
0.0
 11
-91.03837983
 21
322.35641359
 31
0.0
  0
LINE
  5
5B5
100
AcDbEntity
  8
0
  6
CONTINUOUS
 62
       3
100
AcDbLine
 10
-86.72587983
 20
325.89298273
 30
0.0
 11
-86.72587983
 21
324.67423273
 31
0.0
  0
LINE
  5
5B6
100
AcDbEntity
  8
0
  6
CONTINUOUS
 62
       3
100
AcDbLine
 10
-85.97587983
 20
326.36173273
 30
0.0
 11
-86.72587983
 21
325.89298273
 31
0.0
  0
LINE
  5
5B7
100
AcDbEntity
  8
0
  6
CONTINUOUS
 62
       3
100
AcDbLine
 10
-91.78837983
 20
325.16891359
 30
0.0
 11
-91.78837983
 21
325.35641359
 31
0.0
  0
LINE
  5
5B8
100
AcDbEntity
  8
0
  6
CONTINUOUS
 62
       3
100
AcDbLine
 10
-91.03837983
 20
325.82516359
 30
0.0
 11
-91.78837983
 21
325.35641359
 31
0.0
  0
LINE
  5
5B9
100
AcDbEntity
  8
0
  6
CONTINUOUS
 62
       3
100
AcDbLine
 10
-86.72587983
 20
327.01798273
 30
0.0
 11
-85.97587983
 21
326.54923273
 31
0.0
  0
LINE
  5
5BA
100
AcDbEntity
  8
0
  6
CONTINUOUS
 62
       3
100
AcDbLine
 10
-85.97587983
 20
326.54923273
 30
0.0
 11
-85.97587983
 21
326.36173273
 31
0.0
  0
LINE
  5
5BB
100
AcDbEntity
  8
0
  6
CONTINUOUS
 62
       3
100
AcDbLine
 10
-91.03837983
 20
325.82516359
 30
0.0
 11
-86.72587983
 21
327.01798273
 31
0.0
  0
LINE
  5
5BC
100
AcDbEntity
  8
0
  6
CONTINUOUS
 62
       3
100
AcDbLine
 10
-91.78837983
 20
325.34982797
 30
0.0
 11
-85.97587983
 21
326.54923273
 31
0.0
  0
LINE
  5
5BD
100
AcDbEntity
  8
0
  6
CONTINUOUS
 62
       3
100
AcDbLine
 10
-85.97587983
 20
326.36173273
 30
0.0
 11
-91.78045824
 21
325.16396259
 31
0.0
  0
LINE
  5
5BE
100
AcDbEntity
  8
0
  6
CONTINUOUS
 62
       3
100
AcDbLine
 10
-91.78837983
 20
325.16891359
 30
0.0
 11
-91.03837983
 21
324.70016359
 31
0.0
  0
LINE
  5
5BF
100
AcDbEntity
  8
0
  6
CONTINUOUS
 62
       3
100
AcDbLine
 10
-86.72587983
 20
325.89298273
 30
0.0
 11
-91.03837983
 21
324.70016359
 31
0.0
  0
LINE
  5
5C0
100
AcDbEntity
  8
0
  6
CONTINUOUS
 62
       3
100
AcDbLine
 10
-91.03837983
 20
323.48141359
 30
0.0
 11
-91.03837983
 21
324.70016359
 31
0.0
  0
LINE
  5
5C1
100
AcDbEntity
  8
0
  6
CONTINUOUS
 62
       3
100
AcDbLine
 10
-86.72587983
 20
328.23673273
 30
0.0
 11
-86.72587983
 21
327.01798273
 31
0.0
  0
LINE
  5
5C2
100
AcDbEntity
  8
0
  6
CONTINUOUS
 62
       3
100
AcDbLine
 10
-85.97587983
 20
328.70548273
 30
0.0
 11
-86.72587983
 21
328.23673273
 31
0.0
  0
LINE
  5
5C3
100
AcDbEntity
  8
0
  6
CONTINUOUS
 62
       3
100
AcDbLine
 10
-91.78837983
 20
327.51266359
 30
0.0
 11
-91.78837983
 21
327.70016359
 31
0.0
  0
LINE
  5
5C4
100
AcDbEntity
  8
0
  6
CONTINUOUS
 62
       3
100
AcDbLine
 10
-91.03837983
 20
328.16891359
 30
0.0
 11
-91.78837983
 21
327.70016359
 31
0.0
  0
LINE
  5
5C5
100
AcDbEntity
  8
0
  6
CONTINUOUS
 62
       3
100
AcDbLine
 10
-86.72587983
 20
329.36173273
 30
0.0
 11
-85.97587983
 21
328.89298273
 31
0.0
  0
LINE
  5
5C6
100
AcDbEntity
  8
0
  6
CONTINUOUS
 62
       3
100
AcDbLine
 10
-85.97587983
 20
328.89298273
 30
0.0
 11
-85.97587983
 21
328.70548273
 31
0.0
  0
LINE
  5
5C7
100
AcDbEntity
  8
0
  6
CONTINUOUS
 62
       3
100
AcDbLine
 10
-91.03837983
 20
328.16891359
 30
0.0
 11
-86.72587983
 21
329.36173273
 31
0.0
  0
LINE
  5
5C8
100
AcDbEntity
  8
0
  6
CONTINUOUS
 62
       3
100
AcDbLine
 10
-91.78837983
 20
327.69357797
 30
0.0
 11
-85.97587983
 21
328.89298273
 31
0.0
  0
LINE
  5
5C9
100
AcDbEntity
  8
0
  6
CONTINUOUS
 62
       3
100
AcDbLine
 10
-85.97587983
 20
328.70548273
 30
0.0
 11
-91.78045824
 21
327.50771259
 31
0.0
  0
LINE
  5
5CA
100
AcDbEntity
  8
0
  6
CONTINUOUS
 62
       3
100
AcDbLine
 10
-91.78837983
 20
327.51266359
 30
0.0
 11
-91.03837983
 21
327.04391359
 31
0.0
  0
LINE
  5
5CB
100
AcDbEntity
  8
0
  6
CONTINUOUS
 62
       3
100
AcDbLine
 10
-86.72587983
 20
328.23673273
 30
0.0
 11
-91.03837983
 21
327.04391359
 31
0.0
  0
LINE
  5
5CC
100
AcDbEntity
  8
0
  6
CONTINUOUS
 62
       3
100
AcDbLine
 10
-91.03837983
 20
325.82516359
 30
0.0
 11
-91.03837983
 21
327.04391359
 31
0.0
  0
LINE
  5
5CD
100
AcDbEntity
  8
0
  6
CONTINUOUS
 62
       3
100
AcDbLine
 10
-86.72587983
 20
330.58048273
 30
0.0
 11
-86.72587983
 21
329.36173273
 31
0.0
  0
LINE
  5
5CE
100
AcDbEntity
  8
0
  6
CONTINUOUS
 62
       3
100
AcDbLine
 10
-85.97587983
 20
331.04923273
 30
0.0
 11
-86.72587983
 21
330.58048273
 31
0.0
  0
LINE
  5
5CF
100
AcDbEntity
  8
0
  6
CONTINUOUS
 62
       3
100
AcDbLine
 10
-91.78837983
 20
329.85641359
 30
0.0
 11
-91.78837983
 21
330.04391359
 31
0.0
  0
LINE
  5
5D0
100
AcDbEntity
  8
0
  6
CONTINUOUS
 62
       3
100
AcDbLine
 10
-91.03837983
 20
330.51266359
 30
0.0
 11
-91.78837983
 21
330.04391359
 31
0.0
  0
LINE
  5
5D1
100
AcDbEntity
  8
0
  6
CONTINUOUS
 62
       3
100
AcDbLine
 10
-86.72587983
 20
331.70548273
 30
0.0
 11
-85.97587983
 21
331.23673273
 31
0.0
  0
LINE
  5
5D2
100
AcDbEntity
  8
0
  6
CONTINUOUS
 62
       3
100
AcDbLine
 10
-85.97587983
 20
331.23673273
 30
0.0
 11
-85.97587983
 21
331.04923273
 31
0.0
  0
LINE
  5
5D3
100
AcDbEntity
  8
0
  6
CONTINUOUS
 62
       3
100
AcDbLine
 10
-91.03837983
 20
330.51266359
 30
0.0
 11
-86.72587983
 21
331.70548273
 31
0.0
  0
LINE
  5
5D4
100
AcDbEntity
  8
0
  6
CONTINUOUS
 62
       3
100
AcDbLine
 10
-91.78837983
 20
330.03732797
 30
0.0
 11
-85.97587983
 21
331.23673273
 31
0.0
  0
LINE
  5
5D5
100
AcDbEntity
  8
0
  6
CONTINUOUS
 62
       3
100
AcDbLine
 10
-85.97587983
 20
331.04923273
 30
0.0
 11
-91.78045824
 21
329.85146259
 31
0.0
  0
LINE
  5
5D6
100
AcDbEntity
  8
0
  6
CONTINUOUS
 62
       3
100
AcDbLine
 10
-91.78837983
 20
329.85641359
 30
0.0
 11
-91.03837983
 21
329.38766359
 31
0.0
  0
LINE
  5
5D7
100
AcDbEntity
  8
0
  6
CONTINUOUS
 62
       3
100
AcDbLine
 10
-86.72587983
 20
330.58048273
 30
0.0
 11
-91.03837983
 21
329.38766359
 31
0.0
  0
LINE
  5
5D8
100
AcDbEntity
  8
0
  6
CONTINUOUS
 62
       3
100
AcDbLine
 10
-91.03837983
 20
328.16891359
 30
0.0
 11
-91.03837983
 21
329.38766359
 31
0.0
  0
LINE
  5
5D9
100
AcDbEntity
  8
0
  6
CONTINUOUS
 62
       3
100
AcDbLine
 10
-86.72587983
 20
332.92423273
 30
0.0
 11
-86.72587983
 21
331.70548273
 31
0.0
  0
LINE
  5
5DA
100
AcDbEntity
  8
0
  6
CONTINUOUS
 62
       3
100
AcDbLine
 10
-85.97587983
 20
333.39298273
 30
0.0
 11
-86.72587983
 21
332.92423273
 31
0.0
  0
LINE
  5
5DB
100
AcDbEntity
  8
0
  6
CONTINUOUS
 62
       3
100
AcDbLine
 10
-91.78837983
 20
332.20016359
 30
0.0
 11
-91.78837983
 21
332.38766359
 31
0.0
  0
LINE
  5
5DC
100
AcDbEntity
  8
0
  6
CONTINUOUS
 62
       3
100
AcDbLine
 10
-91.03837983
 20
332.85641359
 30
0.0
 11
-91.78837983
 21
332.38766359
 31
0.0
  0
LINE
  5
5DD
100
AcDbEntity
  8
0
  6
CONTINUOUS
 62
       3
100
AcDbLine
 10
-86.72587983
 20
334.04923273
 30
0.0
 11
-85.97587983
 21
333.58048273
 31
0.0
  0
LINE
  5
5DE
100
AcDbEntity
  8
0
  6
CONTINUOUS
 62
       3
100
AcDbLine
 10
-85.97587983
 20
333.58048273
 30
0.0
 11
-85.97587983
 21
333.39298273
 31
0.0
  0
LINE
  5
5DF
100
AcDbEntity
  8
0
  6
CONTINUOUS
 62
       3
100
AcDbLine
 10
-91.03837983
 20
332.85641359
 30
0.0
 11
-86.72587983
 21
334.04923273
 31
0.0
  0
LINE
  5
5E0
100
AcDbEntity
  8
0
  6
CONTINUOUS
 62
       3
100
AcDbLine
 10
-91.78837983
 20
332.38107797
 30
0.0
 11
-85.97587983
 21
333.58048273
 31
0.0
  0
LINE
  5
5E1
100
AcDbEntity
  8
0
  6
CONTINUOUS
 62
       3
100
AcDbLine
 10
-85.97587983
 20
333.39298273
 30
0.0
 11
-91.78045824
 21
332.19521259
 31
0.0
  0
LINE
  5
5E2
100
AcDbEntity
  8
0
  6
CONTINUOUS
 62
       3
100
AcDbLine
 10
-91.78837983
 20
332.20016359
 30
0.0
 11
-91.03837983
 21
331.73141359
 31
0.0
  0
LINE
  5
5E3
100
AcDbEntity
  8
0
  6
CONTINUOUS
 62
       3
100
AcDbLine
 10
-86.72587983
 20
332.92423273
 30
0.0
 11
-91.03837983
 21
331.73141359
 31
0.0
  0
LINE
  5
5E4
100
AcDbEntity
  8
0
  6
CONTINUOUS
 62
       3
100
AcDbLine
 10
-91.03837983
 20
330.51266359
 30
0.0
 11
-91.03837983
 21
331.73141359
 31
0.0
  0
LINE
  5
5E5
100
AcDbEntity
  8
0
  6
CONTINUOUS
 62
       3
100
AcDbLine
 10
-86.72587983
 20
335.26798273
 30
0.0
 11
-86.72587983
 21
334.04923273
 31
0.0
  0
LINE
  5
5E6
100
AcDbEntity
  8
0
  6
CONTINUOUS
 62
       3
100
AcDbLine
 10
-85.97587983
 20
335.73673273
 30
0.0
 11
-86.72587983
 21
335.26798273
 31
0.0
  0
LINE
  5
5E7
100
AcDbEntity
  8
0
  6
CONTINUOUS
 62
       3
100
AcDbLine
 10
-91.78837983
 20
334.54391359
 30
0.0
 11
-91.78837983
 21
334.73141359
 31
0.0
  0
LINE
  5
5E8
100
AcDbEntity
  8
0
  6
CONTINUOUS
 62
       3
100
AcDbLine
 10
-91.03837983
 20
335.20016359
 30
0.0
 11
-91.78837983
 21
334.73141359
 31
0.0
  0
LINE
  5
5E9
100
AcDbEntity
  8
0
  6
CONTINUOUS
 62
       3
100
AcDbLine
 10
-86.72587983
 20
336.39298273
 30
0.0
 11
-85.97587983
 21
335.92423273
 31
0.0
  0
LINE
  5
5EA
100
AcDbEntity
  8
0
  6
CONTINUOUS
 62
       3
100
AcDbLine
 10
-85.97587983
 20
335.92423273
 30
0.0
 11
-85.97587983
 21
335.73673273
 31
0.0
  0
LINE
  5
5EB
100
AcDbEntity
  8
0
  6
CONTINUOUS
 62
       3
100
AcDbLine
 10
-91.03837983
 20
335.20016359
 30
0.0
 11
-86.72587983
 21
336.39298273
 31
0.0
  0
LINE
  5
5EC
100
AcDbEntity
  8
0
  6
CONTINUOUS
 62
       3
100
AcDbLine
 10
-91.78837983
 20
334.72482797
 30
0.0
 11
-85.97587983
 21
335.92423273
 31
0.0
  0
LINE
  5
5ED
100
AcDbEntity
  8
0
  6
CONTINUOUS
 62
       3
100
AcDbLine
 10
-85.97587983
 20
335.73673273
 30
0.0
 11
-91.78045824
 21
334.53896259
 31
0.0
  0
LINE
  5
5EE
100
AcDbEntity
  8
0
  6
CONTINUOUS
 62
       3
100
AcDbLine
 10
-91.78837983
 20
334.54391359
 30
0.0
 11
-91.03837983
 21
334.07516359
 31
0.0
  0
LINE
  5
5EF
100
AcDbEntity
  8
0
  6
CONTINUOUS
 62
       3
100
AcDbLine
 10
-86.72587983
 20
335.26798273
 30
0.0
 11
-91.03837983
 21
334.07516359
 31
0.0
  0
LINE
  5
5F0
100
AcDbEntity
  8
0
  6
CONTINUOUS
 62
       3
100
AcDbLine
 10
-91.03837983
 20
332.85641359
 30
0.0
 11
-91.03837983
 21
334.07516359
 31
0.0
  0
LINE
  5
5F1
100
AcDbEntity
  8
0
  6
CONTINUOUS
 62
       3
100
AcDbLine
 10
-86.72587983
 20
298.89298273
 30
0.0
 11
-91.03837983
 21
297.70016359
 31
0.0
  0
LINE
  5
5F2
100
AcDbEntity
  8
0
  6
CONTINUOUS
 62
       3
100
AcDbLine
 10
-85.97587983
 20
298.42423273
 30
0.0
 11
-86.72587983
 21
298.89298273
 31
0.0
  0
LINE
  5
5F3
100
AcDbEntity
  8
0
  6
CONTINUOUS
 62
       3
100
AcDbLine
 10
-91.78837983
 20
297.22482797
 30
0.0
 11
-85.97587983
 21
298.42423273
 31
0.0
  0
LINE
  5
5F4
100
AcDbEntity
  8
0
  6
CONTINUOUS
 62
       3
100
AcDbLine
 10
-85.97587983
 20
298.23673273
 30
0.0
 11
-91.78045824
 21
297.03896259
 31
0.0
  0
LINE
  5
5F5
100
AcDbEntity
  8
0
  6
CONTINUOUS
 62
       3
100
AcDbLine
 10
-86.72587983
 20
297.76798273
 30
0.0
 11
-90.79318753
 21
296.64298273
 31
0.0
  0
LINE
  5
5F6
100
AcDbEntity
  8
0
  6
CONTINUOUS
 62
       3
100
AcDbLine
 10
-91.78837983
 20
297.04391359
 30
0.0
 11
-91.14689047
 21
296.64298273
 31
0.0
  0
LINE
  5
5F7
100
AcDbEntity
  8
0
  6
CONTINUOUS
 62
       3
100
AcDbLine
 10
-91.78837983
 20
297.04391359
 30
0.0
 11
-91.78837983
 21
297.23141359
 31
0.0
  0
LINE
  5
5F8
100
AcDbEntity
  8
0
  6
CONTINUOUS
 62
       3
100
AcDbLine
 10
-91.03837983
 20
297.70016359
 30
0.0
 11
-91.78837983
 21
297.23141359
 31
0.0
  0
LINE
  5
5F9
100
AcDbEntity
  8
0
  6
CONTINUOUS
 62
       3
100
AcDbLine
 10
-85.97587983
 20
298.42423273
 30
0.0
 11
-85.97587983
 21
298.23673273
 31
0.0
  0
LINE
  5
5FA
100
AcDbEntity
  8
0
  6
CONTINUOUS
 62
       3
100
AcDbLine
 10
-86.72587983
 20
297.76798273
 30
0.0
 11
-85.97587983
 21
298.23673273
 31
0.0
  0
LINE
  5
5FB
100
AcDbEntity
  8
0
  6
CONTINUOUS
 62
       3
100
AcDbLine
 10
-86.72587983
 20
296.83048273
 30
0.0
 11
-86.72587983
 21
297.76798273
 31
0.0
  0
LINE
  5
5FC
100
AcDbEntity
  8
0
  6
CONTINUOUS
 62
       3
100
AcDbLine
 10
140.61828061
 20
19.39806157
 30
0.0
 11
143.83969334
 21
13.81841104
 31
0.0
  0
LINE
  5
5FD
100
AcDbEntity
  8
0
  6
CONTINUOUS
 62
       3
100
AcDbLine
 10
132.76312754
 20
23.9332363
 30
0.0
 11
126.32030207
 21
23.9332363
 31
0.0
  0
LINE
  5
5FE
100
AcDbEntity
  8
0
  6
CONTINUOUS
 62
       3
100
AcDbLine
 10
126.32030207
 20
-5.3667637
 30
0.0
 11
132.76312754
 21
-5.3667637
 31
0.0
  0
LINE
  5
5FF
100
AcDbEntity
  8
0
  6
CONTINUOUS
 62
       3
100
AcDbLine
 10
140.61828061
 20
-0.83158896
 30
0.0
 11
143.83969334
 21
4.74806157
 31
0.0
  0
ARC
  5
600
100
AcDbEntity
  8
0
  6
CONTINUOUS
 62
       3
100
AcDbCircle
 10
129.54171481
 20
9.2832363
 30
0.0
 40
15.0
100
AcDbArc
 50
42.40149722
 51
77.59850278
  0
ARC
  5
601
100
AcDbEntity
  8
0
  6
CONTINUOUS
 62
       3
100
AcDbCircle
 10
129.54171481
 20
9.2832363
 30
0.0
 40
15.0
100
AcDbArc
 50
342.40149722
 51
377.59850278
  0
ARC
  5
602
100
AcDbEntity
  8
0
  6
CONTINUOUS
 62
       3
100
AcDbCircle
 10
129.54171481
 20
9.2832363
 30
0.0
 40
15.0
100
AcDbArc
 50
282.40149722
 51
317.59850278
  0
LINE
  5
603
100
AcDbEntity
  8
0
  6
CONTINUOUS
 62
       3
100
AcDbLine
 10
114.54171481
 20
296.14298273
 30
0.0
 11
144.54171481
 21
296.14298273
 31
0.0
  0
LINE
  5
604
100
AcDbEntity
  8
0
  6
CONTINUOUS
 62
       3
100
AcDbLine
 10
117.09159449
 20
281.58962616
 30
0.0
 11
119.56895058
 21
277.165776
 31
0.0
  0
LINE
  5
605
100
AcDbEntity
  8
0
  6
CONTINUOUS
 62
       3
100
AcDbLine
 10
114.54171481
 20
291.36169354
 30
0.0
 11
114.54171481
 21
296.14298273
 31
0.0
  0
LINE
  5
606
100
AcDbEntity
  8
0
  6
CONTINUOUS
 62
       3
100
AcDbLine
 10
144.54171481
 20
291.36169354
 30
0.0
 11
144.54171481
 21
296.14298273
 31
0.0
  0
LINE
  5
607
100
AcDbEntity
  8
0
  6
CONTINUOUS
 62
       3
100
AcDbLine
 10
121.31396261
 20
276.14298273
 30
0.0
 11
137.769467
 21
276.14298273
 31
0.0
  0
LINE
  5
608
100
AcDbEntity
  8
0
  6
CONTINUOUS
 62
       3
100
AcDbLine
 10
141.99183513
 20
281.58962616
 30
0.0
 11
139.51447903
 21
277.165776
 31
0.0
  0
ARC
  5
609
100
AcDbEntity
  8
0
  6
CONTINUOUS
 62
       3
100
AcDbCircle
 10
121.31396261
 20
278.14298273
 30
0.0
 40
2.0
100
AcDbArc
 50
209.24882634
 51
270.0
  0
ARC
  5
60A
100
AcDbEntity
  8
0
  6
CONTINUOUS
 62
       3
100
AcDbCircle
 10
137.769467
 20
278.14298273
 30
0.0
 40
2.0
100
AcDbArc
 50
270.0
 51
330.75117366
  0
ARC
  5
60B
100
AcDbEntity
  8
0
  6
CONTINUOUS
 62
       3
100
AcDbCircle
 10
134.54171481
 20
291.36169354
 30
0.0
 40
20.0
100
AcDbArc
 50
180.0
 51
209.24882634
  0
ARC
  5
60C
100
AcDbEntity
  8
0
  6
CONTINUOUS
 62
       3
100
AcDbCircle
 10
124.54171481
 20
291.36169354
 30
0.0
 40
20.0
100
AcDbArc
 50
330.75117366
 51
360.0
  0
ARC
  5
60D
100
AcDbEntity
  8
0
  6
CONTINUOUS
 62
       3
100
AcDbCircle
 10
129.54171481
 20
9.2832363
 30
0.0
 40
8.0
100
AcDbArc
 50
270.0
 51
450.0
  0
ARC
  5
60E
100
AcDbEntity
  8
0
  6
CONTINUOUS
 62
       3
100
AcDbCircle
 10
129.54171481
 20
9.2832363
 30
0.0
 40
8.2
100
AcDbArc
 50
257.31961651
 51
462.68038349
  0
ARC
  5
60F
100
AcDbEntity
  8
0
  6
CONTINUOUS
 62
       3
100
AcDbCircle
 10
129.54171481
 20
9.2832363
 30
0.0
 40
8.7
100
AcDbArc
 50
246.85895897
 51
473.14104103
  0
LINE
  5
610
100
AcDbEntity
  8
0
  6
CONTINUOUS
 62
       3
100
AcDbLine
 10
118.46514901
 20
19.39806157
 30
0.0
 11
117.24415407
 21
17.2832363
 31
0.0
  0
LINE
  5
611
100
AcDbEntity
  8
0
  6
CONTINUOUS
 62
       3
100
AcDbLine
 10
118.46514901
 20
-0.83158896
 30
0.0
 11
117.24415407
 21
1.2832363
 31
0.0
  0
ARC
  5
612
100
AcDbEntity
  8
0
  6
CONTINUOUS
 62
       3
100
AcDbCircle
 10
129.54171481
 20
9.2832363
 30
0.0
 40
15.0
100
AcDbArc
 50
102.40149722
 51
137.59850278
  0
ARC
  5
613
100
AcDbEntity
  8
0
  6
CONTINUOUS
 62
       3
100
AcDbCircle
 10
129.54171481
 20
9.2832363
 30
0.0
 40
15.0
100
AcDbArc
 50
222.40149722
 51
257.59850278
  0
LINE
  5
614
100
AcDbEntity
  8
0
  6
CONTINUOUS
 62
       3
100
AcDbLine
 10
126.32030207
 20
296.14298273
 30
0.0
 11
126.32030207
 21
291.35891659
 31
0.0
  0
LINE
  5
615
100
AcDbEntity
  8
0
  6
CONTINUOUS
 62
       3
100
AcDbLine
 10
132.76312754
 20
296.14298273
 30
0.0
 11
132.76312754
 21
291.35891659
 31
0.0
  0
ARC
  5
616
100
AcDbEntity
  8
0
  6
CONTINUOUS
 62
       3
100
AcDbCircle
 10
129.54171481
 20
291.35891659
 30
0.0
 40
3.22141273
100
AcDbArc
 50
180.0
 51
360.0
  0
LINE
  5
617
100
AcDbEntity
  8
0
  6
CONTINUOUS
 62
       3
100
AcDbLine
 10
140.61828061
 20
296.14298273
 30
0.0
 11
140.61828061
 21
291.35891659
 31
0.0
  0
LINE
  5
618
100
AcDbEntity
  8
0
  6
CONTINUOUS
 62
       3
100
AcDbLine
 10
143.83969334
 20
296.14298273
 30
0.0
 11
143.83969334
 21
291.35891659
 31
0.0
  0
ELLIPSE
  5
619
100
AcDbEntity
  8
0
  6
CONTINUOUS
 62
       3
100
AcDbEllipse
 10
142.22898697
 20
291.35891659
 30
0.0
 11
0.0
 21
-3.2214127335688261
 31
0.0
210
0.0
220
0.0
230
1.0
 40
0.5
 41
4.7123889803851897
 42
7.8539816339739827
  0
LINE
  5
61A
100
AcDbEntity
  8
0
  6
CONTINUOUS
 62
       3
100
AcDbLine
 10
118.46514901
 20
296.14298273
 30
0.0
 11
118.46514901
 21
291.35891659
 31
0.0
  0
LINE
  5
61B
100
AcDbEntity
  8
0
  6
CONTINUOUS
 62
       3
100
AcDbLine
 10
115.24373628
 20
296.14298273
 30
0.0
 11
115.24373628
 21
291.35891659
 31
0.0
  0
ELLIPSE
  5
61C
100
AcDbEntity
  8
0
  6
CONTINUOUS
 62
       3
100
AcDbEllipse
 10
116.85444264
 20
291.35891659
 30
0.0
 11
0.0
 21
3.2214127335688261
 31
0.0
210
0.0
220
0.0
230
1.0
 40
0.5
 41
1.570796326794901
 42
4.7123889803851897
  0
LINE
  5
61D
100
AcDbEntity
  8
0
  6
CONTINUOUS
 62
       3
100
AcDbLine
 10
-77.80556404
 20
19.39806157
 30
0.0
 11
-76.5845691
 21
17.2832363
 31
0.0
  0
LINE
  5
61E
100
AcDbEntity
  8
0
  6
CONTINUOUS
 62
       3
100
AcDbLine
 10
-85.6607171
 20
23.9332363
 30
0.0
 11
-92.10354257
 21
23.9332363
 31
0.0
  0
LINE
  5
61F
100
AcDbEntity
  8
0
  6
CONTINUOUS
 62
       3
100
AcDbLine
 10
-92.10354257
 20
-5.3667637
 30
0.0
 11
-85.6607171
 21
-5.3667637
 31
0.0
  0
LINE
  5
620
100
AcDbEntity
  8
0
  6
CONTINUOUS
 62
       3
100
AcDbLine
 10
-77.80556404
 20
-0.83158896
 30
0.0
 11
-76.5845691
 21
1.2832363
 31
0.0
  0
ARC
  5
621
100
AcDbEntity
  8
0
  6
CONTINUOUS
 62
       3
100
AcDbCircle
 10
-88.88212983
 20
9.2832363
 30
0.0
 40
15.0
100
AcDbArc
 50
42.40149722
 51
77.59850278
  0
ARC
  5
622
100
AcDbEntity
  8
0
  6
CONTINUOUS
 62
       3
100
AcDbCircle
 10
-88.88212983
 20
9.2832363
 30
0.0
 40
15.0
100
AcDbArc
 50
282.40149722
 51
317.59850278
  0
ARC
  5
623
100
AcDbEntity
  8
0
  6
CONTINUOUS
 62
       3
100
AcDbCircle
 10
-88.88212983
 20
9.2832363
 30
0.0
 40
8.0
100
AcDbArc
 50
90.0
 51
270.0
  0
ARC
  5
624
100
AcDbEntity
  8
0
  6
CONTINUOUS
 62
       3
100
AcDbCircle
 10
-88.88212983
 20
9.2832363
 30
0.0
 40
8.2
100
AcDbArc
 50
77.31961651
 51
282.68038349
  0
ARC
  5
625
100
AcDbEntity
  8
0
  6
CONTINUOUS
 62
       3
100
AcDbCircle
 10
-88.88212983
 20
9.2832363
 30
0.0
 40
8.7
100
AcDbArc
 50
66.85895897
 51
293.14104103
  0
LINE
  5
626
100
AcDbEntity
  8
0
  6
CONTINUOUS
 62
       3
100
AcDbLine
 10
-99.95869563
 20
19.39806157
 30
0.0
 11
-103.18010837
 21
13.81841104
 31
0.0
  0
LINE
  5
627
100
AcDbEntity
  8
0
  6
CONTINUOUS
 62
       3
100
AcDbLine
 10
-99.95869563
 20
-0.83158896
 30
0.0
 11
-103.18010837
 21
4.74806157
 31
0.0
  0
ARC
  5
628
100
AcDbEntity
  8
0
  6
CONTINUOUS
 62
       3
100
AcDbCircle
 10
-88.88212983
 20
9.2832363
 30
0.0
 40
15.0
100
AcDbArc
 50
102.40149722
 51
137.59850278
  0
ARC
  5
629
100
AcDbEntity
  8
0
  6
CONTINUOUS
 62
       3
100
AcDbCircle
 10
-88.88212983
 20
9.2832363
 30
0.0
 40
15.0
100
AcDbArc
 50
162.40149722
 51
197.59850278
  0
ARC
  5
62A
100
AcDbEntity
  8
0
  6
CONTINUOUS
 62
       3
100
AcDbCircle
 10
-88.88212983
 20
9.2832363
 30
0.0
 40
15.0
100
AcDbArc
 50
222.40149722
 51
257.59850278
  0
LINE
  5
62B
100
AcDbEntity
  8
0
  6
CONTINUOUS
 62
       3
100
AcDbLine
 10
-103.88212983
 20
296.14298273
 30
0.0
 11
-73.88212983
 21
296.14298273
 31
0.0
  0
LINE
  5
62C
100
AcDbEntity
  8
0
  6
CONTINUOUS
 62
       3
100
AcDbLine
 10
-101.33225015
 20
281.58962616
 30
0.0
 11
-98.85489406
 21
277.165776
 31
0.0
  0
LINE
  5
62D
100
AcDbEntity
  8
0
  6
CONTINUOUS
 62
       3
100
AcDbLine
 10
-103.88212983
 20
291.36169354
 30
0.0
 11
-103.88212983
 21
296.14298273
 31
0.0
  0
LINE
  5
62E
100
AcDbEntity
  8
0
  6
CONTINUOUS
 62
       3
100
AcDbLine
 10
-73.88212983
 20
291.36169354
 30
0.0
 11
-73.88212983
 21
296.14298273
 31
0.0
  0
LINE
  5
62F
100
AcDbEntity
  8
0
  6
CONTINUOUS
 62
       3
100
AcDbLine
 10
-97.10988203
 20
276.14298273
 30
0.0
 11
-80.65437764
 21
276.14298273
 31
0.0
  0
LINE
  5
630
100
AcDbEntity
  8
0
  6
CONTINUOUS
 62
       3
100
AcDbLine
 10
-76.43200952
 20
281.58962616
 30
0.0
 11
-78.90936561
 21
277.165776
 31
0.0
  0
ARC
  5
631
100
AcDbEntity
  8
0
  6
CONTINUOUS
 62
       3
100
AcDbCircle
 10
-97.10988203
 20
278.14298273
 30
0.0
 40
2.0
100
AcDbArc
 50
209.24882634
 51
270.0
  0
ARC
  5
632
100
AcDbEntity
  8
0
  6
CONTINUOUS
 62
       3
100
AcDbCircle
 10
-80.65437764
 20
278.14298273
 30
0.0
 40
2.0
100
AcDbArc
 50
270.0
 51
330.75117366
  0
ARC
  5
633
100
AcDbEntity
  8
0
  6
CONTINUOUS
 62
       3
100
AcDbCircle
 10
-83.88212983
 20
291.36169354
 30
0.0
 40
20.0
100
AcDbArc
 50
180.0
 51
209.24882634
  0
ARC
  5
634
100
AcDbEntity
  8
0
  6
CONTINUOUS
 62
       3
100
AcDbCircle
 10
-93.88212983
 20
291.36169354
 30
0.0
 40
20.0
100
AcDbArc
 50
330.75117366
 51
360.0
  0
LINE
  5
635
100
AcDbEntity
  8
0
  6
CONTINUOUS
 62
       3
100
AcDbLine
 10
-92.10354257
 20
296.14298273
 30
0.0
 11
-92.10354257
 21
291.35891659
 31
0.0
  0
LINE
  5
636
100
AcDbEntity
  8
0
  6
CONTINUOUS
 62
       3
100
AcDbLine
 10
-85.6607171
 20
296.14298273
 30
0.0
 11
-85.6607171
 21
291.35891659
 31
0.0
  0
ARC
  5
637
100
AcDbEntity
  8
0
  6
CONTINUOUS
 62
       3
100
AcDbCircle
 10
-88.88212983
 20
291.35891659
 30
0.0
 40
3.22141273
100
AcDbArc
 50
180.0
 51
360.0
  0
LINE
  5
638
100
AcDbEntity
  8
0
  6
CONTINUOUS
 62
       3
100
AcDbLine
 10
-77.80556404
 20
296.14298273
 30
0.0
 11
-77.80556404
 21
291.35891659
 31
0.0
  0
LINE
  5
639
100
AcDbEntity
  8
0
  6
CONTINUOUS
 62
       3
100
AcDbLine
 10
-74.5841513
 20
296.14298273
 30
0.0
 11
-74.5841513
 21
291.35891659
 31
0.0
  0
ELLIPSE
  5
63A
100
AcDbEntity
  8
0
  6
CONTINUOUS
 62
       3
100
AcDbEllipse
 10
-76.19485767
 20
291.35891659
 30
0.0
 11
0.0
 21
-3.2214127335688261
 31
0.0
210
0.0
220
0.0
230
1.0
 40
0.5
 41
4.7123889803851897
 42
7.8539816339739827
  0
LINE
  5
63B
100
AcDbEntity
  8
0
  6
CONTINUOUS
 62
       3
100
AcDbLine
 10
-99.95869563
 20
296.14298273
 30
0.0
 11
-99.95869563
 21
291.35891659
 31
0.0
  0
LINE
  5
63C
100
AcDbEntity
  8
0
  6
CONTINUOUS
 62
       3
100
AcDbLine
 10
-103.18010837
 20
296.14298273
 30
0.0
 11
-103.18010837
 21
291.35891659
 31
0.0
  0
ELLIPSE
  5
63D
100
AcDbEntity
  8
0
  6
CONTINUOUS
 62
       3
100
AcDbEllipse
 10
-101.569402
 20
291.35891659
 30
0.0
 11
0.0
 21
3.2214127335688261
 31
0.0
210
0.0
220
0.0
230
1.0
 40
0.5
 41
1.570796326794901
 42
4.7123889803851897
  0
ARC
  5
63E
100
AcDbEntity
  8
0
  6
CONTINUOUS
 62
       3
100
AcDbCircle
 10
121.54171481
 20
201.14298273
 30
0.0
 40
4.0
100
AcDbArc
 50
270.0
 51
450.0
  0
ARC
  5
63F
100
AcDbEntity
  8
0
  6
CONTINUOUS
 62
       3
100
AcDbCircle
 10
-80.88212983
 20
201.14298273
 30
0.0
 40
4.0
100
AcDbArc
 50
90.0
 51
270.0
  0
LINE
  5
640
100
AcDbEntity
  8
0
  6
CONTINUOUS
 62
       3
100
AcDbLine
 10
-80.88212983
 20
205.14298273
 30
0.0
 11
17.91709869
 21
205.14298273
 31
0.0
  0
LINE
  5
641
100
AcDbEntity
  8
0
  6
CONTINUOUS
 62
       3
100
AcDbLine
 10
22.74248629
 20
205.14298273
 30
0.0
 11
121.54171481
 21
205.14298273
 31
0.0
  0
LINE
  5
642
100
AcDbEntity
  8
0
  6
CONTINUOUS
 62
       3
100
AcDbLine
 10
22.74248629
 20
197.14298273
 30
0.0
 11
121.54171481
 21
197.14298273
 31
0.0
  0
LINE
  5
643
100
AcDbEntity
  8
0
  6
CONTINUOUS
 62
       3
100
AcDbLine
 10
-80.88212983
 20
197.14298273
 30
0.0
 11
17.91709869
 21
197.14298273
 31
0.0
  0
ARC
  5
644
100
AcDbEntity
  8
0
  6
CONTINUOUS
 62
       3
100
AcDbCircle
 10
121.54171481
 20
151.14298273
 30
0.0
 40
4.0
100
AcDbArc
 50
270.0
 51
450.0
  0
ARC
  5
645
100
AcDbEntity
  8
0
  6
CONTINUOUS
 62
       3
100
AcDbCircle
 10
-80.88212983
 20
151.14298273
 30
0.0
 40
4.0
100
AcDbArc
 50
90.0
 51
270.0
  0
LINE
  5
646
100
AcDbEntity
  8
0
  6
CONTINUOUS
 62
       3
100
AcDbLine
 10
-80.88212983
 20
155.14298273
 30
0.0
 11
17.91709869
 21
155.14298273
 31
0.0
  0
LINE
  5
647
100
AcDbEntity
  8
0
  6
CONTINUOUS
 62
       3
100
AcDbLine
 10
22.74248629
 20
155.14298273
 30
0.0
 11
121.54171481
 21
155.14298273
 31
0.0
  0
LINE
  5
648
100
AcDbEntity
  8
0
  6
CONTINUOUS
 62
       3
100
AcDbLine
 10
22.74248629
 20
147.14298273
 30
0.0
 11
121.54171481
 21
147.14298273
 31
0.0
  0
LINE
  5
649
100
AcDbEntity
  8
0
  6
CONTINUOUS
 62
       3
100
AcDbLine
 10
-80.88212983
 20
147.14298273
 30
0.0
 11
17.91709869
 21
147.14298273
 31
0.0
  0
LINE
  5
64A
100
AcDbEntity
  8
0
  6
CONTINUOUS
 62
       3
100
AcDbLine
 10
121.54171481
 20
155.14298273
 30
0.0
 11
121.54171481
 21
197.14298273
 31
0.0
  0
LINE
  5
64B
100
AcDbEntity
  8
0
  6
CONTINUOUS
 62
       3
100
AcDbLine
 10
121.54171481
 20
121.14298273
 30
0.0
 11
121.54171481
 21
147.14298273
 31
0.0
  0
LINE
  5
64C
100
AcDbEntity
  8
0
  6
CONTINUOUS
 62
       3
100
AcDbLine
 10
-80.88212983
 20
155.14298273
 30
0.0
 11
-80.88212983
 21
197.14298273
 31
0.0
  0
LINE
  5
64D
100
AcDbEntity
  8
0
  6
CONTINUOUS
 62
       3
100
AcDbLine
 10
-80.88212983
 20
121.14298273
 30
0.0
 11
-80.88212983
 21
147.14298273
 31
0.0
  0
LINE
  5
64E
100
AcDbEntity
  8
0
  6
CONTINUOUS
 62
       3
100
AcDbLine
 10
-80.88212983
 20
255.34298273
 30
0.0
 11
-80.88212983
 21
276.14298273
 31
0.0
  0
LINE
  5
64F
100
AcDbEntity
  8
0
  6
CONTINUOUS
 62
       3
100
AcDbLine
 10
-80.88212983
 20
205.14298273
 30
0.0
 11
-80.88212983
 21
246.94298273
 31
0.0
  0
LINE
  5
650
100
AcDbEntity
  8
0
  6
CONTINUOUS
 62
       3
100
AcDbLine
 10
121.54171481
 20
255.34298273
 30
0.0
 11
121.54171481
 21
276.14298273
 31
0.0
  0
LINE
  5
651
100
AcDbEntity
  8
0
  6
CONTINUOUS
 62
       3
100
AcDbLine
 10
121.54171481
 20
205.14298273
 30
0.0
 11
121.54171481
 21
246.94298273
 31
0.0
  0
LINE
  5
652
100
AcDbEntity
  8
0
  6
CONTINUOUS
 62
       3
100
AcDbLine
 10
-80.88212983
 20
255.34298273
 30
0.0
 11
17.91709869
 21
255.34298273
 31
0.0
  0
LINE
  5
653
100
AcDbEntity
  8
0
  6
CONTINUOUS
 62
       3
100
AcDbLine
 10
-80.88212983
 20
246.94298273
 30
0.0
 11
17.91709869
 21
246.94298273
 31
0.0
  0
LINE
  5
654
100
AcDbEntity
  8
0
  6
CONTINUOUS
 62
       3
100
AcDbLine
 10
22.74248629
 20
255.34298273
 30
0.0
 11
121.54171481
 21
255.34298273
 31
0.0
  0
LINE
  5
655
100
AcDbEntity
  8
0
  6
CONTINUOUS
 62
       3
100
AcDbLine
 10
22.74248629
 20
246.94298273
 30
0.0
 11
121.54171481
 21
246.94298273
 31
0.0
  0
LINE
  5
656
100
AcDbEntity
  8
LAYER0001
  6
CONTINUOUS
 62
       9
100
AcDbLine
 10
14.78089233
 20
1.2832363
 30
0.0
 11
-10.14369201
 21
1.2832363
 31
0.0
  0
LINE
  5
657
100
AcDbEntity
  8
LAYER0001
  6
CONTINUOUS
 62
       9
100
AcDbLine
 10
14.78089233
 20
17.2832363
 30
0.0
 11
-10.14369201
 21
17.2832363
 31
0.0
  0
LINE
  5
658
100
AcDbEntity
  8
LAYER0001
  6
CONTINUOUS
 62
       9
100
AcDbLine
 10
-8.14369201
 20
17.2832363
 30
0.0
 11
-8.14369201
 21
1.2832363
 31
0.0
  0
LINE
  5
659
100
AcDbEntity
  8
LAYER0001
  6
CONTINUOUS
 62
       9
100
AcDbLine
 10
-103.88212983
 20
298.14298273
 30
0.0
 11
-103.88212983
 21
358.31459407
 31
0.0
  0
LINE
  5
65A
100
AcDbEntity
  8
LAYER0001
  6
CONTINUOUS
 62
       9
100
AcDbLine
 10
-73.88212983
 20
298.14298273
 30
0.0
 11
-73.88212983
 21
358.31459407
 31
0.0
  0
LINE
  5
65B
100
AcDbEntity
  8
LAYER0001
  6
CONTINUOUS
 62
       9
100
AcDbLine
 10
-88.88212983
 20
-15.14787614
 30
0.0
 11
-88.88212983
 21
-36.57198782
 31
0.0
  0
LINE
  5
65C
100
AcDbEntity
  8
LAYER0001
  6
CONTINUOUS
 62
       9
100
AcDbLine
 10
129.54171481
 20
-15.14787614
 30
0.0
 11
129.54171481
 21
-36.57198782
 31
0.0
  0
LINE
  5
65D
100
AcDbEntity
  8
LAYER0001
  6
CONTINUOUS
 62
       9
100
AcDbLine
 10
134.76312754
 20
23.9332363
 30
0.0
 11
164.63375213
 21
23.9332363
 31
0.0
  0
LINE
  5
65E
100
AcDbEntity
  8
LAYER0001
  6
CONTINUOUS
 62
       9
100
AcDbLine
 10
134.76312754
 20
-5.3667637
 30
0.0
 11
164.63375213
 21
-5.3667637
 31
0.0
  0
LINE
  5
65F
100
AcDbEntity
  8
LAYER0001
  6
CONTINUOUS
 62
       9
100
AcDbLine
 10
162.63375213
 20
23.9332363
 30
0.0
 11
162.63375213
 21
-5.3667637
 31
0.0
  0
CIRCLE
  5
660
100
AcDbEntity
  8
LAYER0001
  6
CONTINUOUS
 62
       9
100
AcDbCircle
 10
-26.0
 20
323.0
 30
0.0
 40
12.183
  0
CIRCLE
  5
661
100
AcDbEntity
  8
LAYER0001
  6
CONTINUOUS
 62
       9
100
AcDbCircle
 10
54.0
 20
323.0
 30
0.0
 40
12.183
  0
CIRCLE
  5
662
100
AcDbEntity
  8
LAYER0001
  6
CONTINUOUS
 62
       9
100
AcDbCircle
 10
-26.0
 20
369.70765912
 30
0.0
 40
12.183
  0
CIRCLE
  5
663
100
AcDbEntity
  8
LAYER0001
  6
CONTINUOUS
 62
       9
100
AcDbCircle
 10
54.0
 20
369.70765912
 30
0.0
 40
12.183
  0
CIRCLE
  5
664
100
AcDbEntity
  8
LAYER0001
  6
CONTINUOUS
 62
       9
100
AcDbCircle
 10
94.0
 20
62.50118483
 30
0.0
 40
12.183
  0
LINE
  5
665
100
AcDbEntity
  8
LAYER0001
  6
CONTINUOUS
 62
       9
100
AcDbLine
 10
-77.44873801
 20
341.79989213
 30
0.0
 11
-6.09951456
 21
341.79989213
 31
0.0
  0
LINE
  5
666
100
AcDbEntity
  8
LAYER0001
  6
CONTINUOUS
 62
       9
100
AcDbLine
 10
33.01159655
 20
341.79989213
 30
0.0
 11
103.27673915
 21
341.79989213
 31
0.0
  0
ARC
  5
667
100
AcDbEntity
  8
LAYER0001
  6
CONTINUOUS
 62
       9
100
AcDbCircle
 10
19.7691246
 20
253.24298273
 30
0.0
 40
2.8
100
AcDbArc
 50
131.40962211
 51
228.59037789
  0
ARC
  5
668
100
AcDbEntity
  8
LAYER0001
  6
CONTINUOUS
 62
       9
100
AcDbCircle
 10
16.06507277
 20
249.04298273
 30
0.0
 40
2.8
100
AcDbArc
 50
311.40962211
 51
408.59037789
  0
ARC
  5
669
100
AcDbEntity
  8
LAYER0001
  6
CONTINUOUS
 62
       9
100
AcDbCircle
 10
16.06507277
 20
253.24298273
 30
0.0
 40
2.8
100
AcDbArc
 50
311.40962211
 51
408.59037789
  0
ARC
  5
66A
100
AcDbEntity
  8
LAYER0001
  6
CONTINUOUS
 62
       9
100
AcDbCircle
 10
24.5945122
 20
253.24298273
 30
0.0
 40
2.8
100
AcDbArc
 50
131.40962211
 51
228.59037789
  0
ARC
  5
66B
100
AcDbEntity
  8
LAYER0001
  6
CONTINUOUS
 62
       9
100
AcDbCircle
 10
20.89046037
 20
249.04298273
 30
0.0
 40
2.8
100
AcDbArc
 50
311.40962211
 51
408.59037789
  0
ARC
  5
66C
100
AcDbEntity
  8
LAYER0001
  6
CONTINUOUS
 62
       9
100
AcDbCircle
 10
24.5945122
 20
249.04298273
 30
0.0
 40
2.8
100
AcDbArc
 50
131.40962211
 51
228.59037789
  0
LINE
  5
66D
100
AcDbEntity
  8
LAYER0001
  6
CONTINUOUS
 62
       9
100
AcDbLine
 10
-8.14369201
 20
57.0832363
 30
0.0
 11
-8.14369201
 21
17.2832363
 31
0.0
  0
INSERT
  5
66E
100
AcDbEntity
  8
LAYER0001
  6
CONTINUOUS
 62
       9
100
AcDbBlockReference
  2
_OPEN30
 10
-8.14369201
 20
17.2832363
 30
0.0
 41
9.00000836
 42
8.99996782
 50
270.0
  0
LINE
  5
66F
100
AcDbEntity
  8
LAYER0001
  6
CONTINUOUS
 62
       9
100
AcDbLine
 10
-8.14369201
 20
-8.7167637
 30
0.0
 11
-8.14369201
 21
1.2832363
 31
0.0
  0
INSERT
  5
670
100
AcDbEntity
  8
LAYER0001
  6
CONTINUOUS
 62
       9
100
AcDbBlockReference
  2
_OPEN30
 10
-8.14369201
 20
1.2832363
 30
0.0
 41
9.00000836
 42
8.99996782
 50
90.0
  0
LINE
  5
671
100
AcDbEntity
  8
LAYER0001
  6
CONTINUOUS
 62
       9
100
AcDbLine
 10
94.3935867
 20
130.67563599
 30
0.0
 11
122.76330798
 21
104.02651282
 31
0.0
  0
INSERT
  5
672
100
AcDbEntity
  8
LAYER0001
  6
CONTINUOUS
 62
       9
100
AcDbBlockReference
  2
_OPEN30
 10
122.76330798
 20
104.02651282
 30
0.0
 41
9.00000836
 42
8.99996782
 50
316.79122066
  0
LINE
  5
673
100
AcDbEntity
  8
LAYER0001
  6
CONTINUOUS
 62
       9
100
AcDbLine
 10
162.63375213
 20
-58.7667637
 30
0.0
 11
162.63375213
 21
-5.3667637
 31
0.0
  0
INSERT
  5
674
100
AcDbEntity
  8
LAYER0001
  6
CONTINUOUS
 62
       9
100
AcDbBlockReference
  2
_OPEN30
 10
162.63375213
 20
-5.3667637
 30
0.0
 41
9.00000836
 42
8.99996782
 50
90.0
  0
LINE
  5
675
100
AcDbEntity
  8
LAYER0001
  6
CONTINUOUS
 62
       9
100
AcDbLine
 10
162.63375213
 20
38.9332363
 30
0.0
 11
162.63375213
 21
23.9332363
 31
0.0
  0
INSERT
  5
676
100
AcDbEntity
  8
LAYER0001
  6
CONTINUOUS
 62
       9
100
AcDbBlockReference
  2
_OPEN30
 10
162.63375213
 20
23.9332363
 30
0.0
 41
9.00000836
 42
8.99996782
 50
270.0
  0
LINE
  5
677
100
AcDbEntity
  8
LAYER0001
  6
CONTINUOUS
 62
       9
100
AcDbLine
 10
-103.88212983
 20
356.31459407
 30
0.0
 11
-73.88212983
 21
356.31459407
 31
0.0
  0
INSERT
  5
678
100
AcDbEntity
  8
LAYER0001
  6
CONTINUOUS
 62
       9
100
AcDbBlockReference
  2
_OPEN30
 10
-103.88212983
 20
356.31459407
 30
0.0
 41
9.00000836
 42
8.99996782
 50
180.0
  0
INSERT
  5
679
100
AcDbEntity
  8
LAYER0001
  6
CONTINUOUS
 62
       9
100
AcDbBlockReference
  2
_OPEN30
 10
-73.88212983
 20
356.31459407
 30
0.0
 41
9.00000836
 42
8.99996782
 50
360.0
  0
LINE
  5
67A
100
AcDbEntity
  8
LAYER0001
  6
CONTINUOUS
 62
       9
100
AcDbLine
 10
-88.88212983
 20
-34.57198782
 30
0.0
 11
129.54171481
 21
-34.57198782
 31
0.0
  0
INSERT
  5
67B
100
AcDbEntity
  8
LAYER0001
  6
CONTINUOUS
 62
       9
100
AcDbBlockReference
  2
_OPEN30
 10
-88.88212983
 20
-34.57198782
 30
0.0
 41
9.00000836
 42
8.99996782
 50
180.0
  0
INSERT
  5
67C
100
AcDbEntity
  8
LAYER0001
  6
CONTINUOUS
 62
       9
100
AcDbBlockReference
  2
_OPEN30
 10
129.54171481
 20
-34.57198782
 30
0.0
 41
9.00000836
 42
8.99996782
 50
360.0
  0
LINE
  5
67D
100
AcDbEntity
  8
LAYER0001
  6
CONTINUOUS
 62
       9
100
AcDbLine
 10
-86.0
 20
283.0
 30
0.0
 11
-36.13686874
 21
316.24208751
 31
0.0
  0
INSERT
  5
67E
100
AcDbEntity
  8
LAYER0001
  6
CONTINUOUS
 62
       9
100
AcDbBlockReference
  2
_DOT
 10
-86.0
 20
283.0
 30
0.0
 41
7.5
 42
7.5
 50
213.69006753
  0
LINE
  5
67F
100
AcDbEntity
  8
LAYER0001
  6
CONTINUOUS
 62
       9
100
AcDbLine
 10
104.0
 20
253.0
 30
0.0
 11
61.08122491
 21
313.08628512
 31
0.0
  0
INSERT
  5
680
100
AcDbEntity
  8
LAYER0001
  6
CONTINUOUS
 62
       9
100
AcDbBlockReference
  2
_DOT
 10
104.0
 20
253.0
 30
0.0
 41
7.5
 42
7.5
 50
305.53767779
  0
LINE
  5
681
100
AcDbEntity
  8
LAYER0001
  6
CONTINUOUS
 62
       9
100
AcDbLine
 10
-88.88212983
 20
335.59798227
 30
0.0
 11
-36.7089514
 21
363.89871352
 31
0.0
  0
INSERT
  5
682
100
AcDbEntity
  8
LAYER0001
  6
CONTINUOUS
 62
       9
100
AcDbBlockReference
  2
_DOT
 10
-88.88212983
 20
335.59798227
 30
0.0
 41
7.5
 42
7.5
 50
208.47710063
  0
LINE
  5
683
100
AcDbEntity
  8
LAYER0001
  6
CONTINUOUS
 62
       9
100
AcDbLine
 10
129.4018783
 20
327.00398012
 30
0.0
 11
64.60093043
 21
363.70384674
 31
0.0
  0
INSERT
  5
684
100
AcDbEntity
  8
LAYER0001
  6
CONTINUOUS
 62
       9
100
AcDbBlockReference
  2
_DOT
 10
129.4018783
 20
327.00398012
 30
0.0
 41
7.5
 42
7.5
 50
330.4750538
  0
LINE
  5
685
100
AcDbEntity
  8
LAYER0001
  6
CONTINUOUS
 62
       9
100
AcDbLine
 10
58.17759793
 20
11.85622756
 30
0.0
 11
86.9647003
 21
52.55482635
 31
0.0
  0
INSERT
  5
686
100
AcDbEntity
  8
LAYER0001
  6
CONTINUOUS
 62
       9
100
AcDbBlockReference
  2
_DOT
 10
58.17759793
 20
11.85622756
 30
0.0
 41
7.5
 42
7.5
 50
234.72730775
  0
TEXT
  5
687
100
AcDbEntity
  8
LAYER0001
 62
       7
100
AcDbText
 10
-10.14369201
 20
25.2832363
 30
0.0
 40
12.0
  1
φ1６
 50
90.0
 41
0.75
 72
       5
 11
-10.14369201
 21
54.0832363
 31
0.0
100
AcDbText
  0
TEXT
  5
688
100
AcDbEntity
  8
LAYER0001
 62
       7
100
AcDbText
 10
-103.28212983
 20
358.31459407
 30
0.0
 40
12.0
  1
φ30
 41
0.8
 72
       5
 11
-74.48212983
 21
358.31459407
 31
0.0
100
AcDbText
  0
TEXT
  5
689
100
AcDbEntity
  8
LAYER0001
 62
       7
100
AcDbText
 10
15.52979249
 20
-32.57198782
 30
0.0
 40
12.0
  1
L
 41
0.8
 72
       5
 11
25.12979249
 21
-32.57198782
 31
0.0
100
AcDbText
  0
TEXT
  5
68A
100
AcDbEntity
  8
LAYER0001
 62
       7
100
AcDbText
 10
159.63375213
 20
-55.7667637
 30
0.0
 40
12.0
  1
29.4
 50
90.0
 41
0.8
 72
       5
 11
159.63375213
 21
-17.3667637
 31
0.0
100
AcDbText
  0
TEXT
  5
68B
100
AcDbEntity
  8
LAYER0001
 62
       7
100
AcDbText
 10
90.22353997
 20
137.3367703
 30
0.0
 40
12.0
  1
R25
 50
-43.20877934
 41
0.8
 72
       5
 11
111.2148153
 21
117.61859695
 31
0.0
100
AcDbText
  0
INSERT
  5
68C
100
AcDbEntity
  8
LAYER0001
  6
CONTINUOUS
100
AcDbBlockReference
  2
DA_IMAGEDIMGROUP_1
 10
0.0
 20
0.0
 30
0.0
  0
INSERT
  5
68D
100
AcDbEntity
  8
LAYER0001
  6
CONTINUOUS
100
AcDbBlockReference
  2
DA_IMAGEDIMGROUP_2
 10
0.0
 20
0.0
 30
0.0
  0
INSERT
  5
68E
100
AcDbEntity
  8
LAYER0001
  6
CONTINUOUS
100
AcDbBlockReference
  2
DA_IMAGEDIMGROUP_3
 10
0.0
 20
0.0
 30
0.0
  0
TEXT
  5
68F
100
AcDbEntity
  8
LAYER0001
 62
       4
100
AcDbText
 10
-30.8
 20
317.0
 30
0.0
 40
12.0
  1
1
 41
0.8
 72
       5
 11
-21.2
 21
317.0
 31
0.0
100
AcDbText
  0
TEXT
  5
690
100
AcDbEntity
  8
LAYER0001
 62
       4
100
AcDbText
 10
49.2
 20
317.0
 30
0.0
 40
12.0
  1
3
 41
0.8
 72
       5
 11
58.8
 21
317.0
 31
0.0
100
AcDbText
  0
TEXT
  5
691
100
AcDbEntity
  8
LAYER0001
 62
       4
100
AcDbText
 10
-30.8
 20
363.70765912
 30
0.0
 40
12.0
  1
7
 41
0.8
 72
       5
 11
-21.2
 21
363.70765912
 31
0.0
100
AcDbText
  0
TEXT
  5
692
100
AcDbEntity
  8
LAYER0001
 62
       4
100
AcDbText
 10
49.2
 20
363.70765912
 30
0.0
 40
12.0
  1
8
 41
0.8
 72
       5
 11
58.8
 21
363.70765912
 31
0.0
100
AcDbText
  0
TEXT
  5
693
100
AcDbEntity
  8
LAYER0001
 62
       4
100
AcDbText
 10
89.2
 20
56.50118483
 30
0.0
 40
12.0
  1
2
 41
0.8
 72
       5
 11
98.8
 21
56.50118483
 31
0.0
100
AcDbText
  0
TEXT
  5
694
100
AcDbEntity
  8
LAYER0001
 62
       4
100
AcDbText
 10
-45.5903452
 20
343.01456311
 30
0.0
 40
12.0
  1
Ａタイプ
 41
0.6667
 72
       5
 11
-7.1903452
 21
343.01456311
 31
0.0
100
AcDbText
  0
TEXT
  5
695
100
AcDbEntity
  8
LAYER0001
 62
       4
100
AcDbText
 10
35.66963323
 20
344.15372168
 30
0.0
 40
12.0
  1
Ｂタイプ
 41
0.6667
 72
       5
 11
74.06963323
 21
344.15372168
 31
0.0
100
AcDbText
  0
TEXT
  5
696
100
AcDbEntity
  8
LAYER0017
 62
       4
100
AcDbText
 10
69.2
 20
-66.10900474
 30
0.0
 40
12.0
  1
6
 41
0.8
 72
       5
 11
78.8
 21
-66.10900474
 31
0.0
100
AcDbText
  0
TEXT
  5
697
100
AcDbEntity
  8
LAYER0017
 62
       4
100
AcDbText
 10
-110.8
 20
-66.10900474
 30
0.0
 40
12.0
  1
5
 41
0.8
 72
       5
 11
-101.2
 21
-66.10900474
 31
0.0
100
AcDbText
  0
ARC
  5
698
100
AcDbEntity
  8
LAYER0001
  6
CONTINUOUS
 62
       3
100
AcDbCircle
 10
-80.88212983
 20
251.14298273
 30
0.0
 40
4.2
100
AcDbArc
 50
90.0
 51
270.0
  0
ARC
  5
699
100
AcDbEntity
  8
LAYER0001
  6
CONTINUOUS
 62
       3
100
AcDbCircle
 10
121.54171481
 20
251.14298273
 30
0.0
 40
4.2
100
AcDbArc
 50
270.0
 51
450.0
  0
INSERT
  5
69A
100
AcDbEntity
  8
LAYER0240
  6
DASHED
100
AcDbBlockReference
  2
GROUP_4
 10
0.0
 20
0.0
 30
0.0
  0
LINE
  5
69B
100
AcDbEntity
  8
LAYER0240
  6
CONTINUOUS
 62
       9
100
AcDbLine
 10
-61.19714318
 20
201.14298273
 30
0.0
 11
-125.17891063
 21
76.62183373
 31
0.0
  0
INSERT
  5
69C
100
AcDbEntity
  8
LAYER0240
  6
CONTINUOUS
 62
       9
100
AcDbBlockReference
  2
_DOT
 10
-61.19714318
 20
201.14298273
 30
0.0
 41
7.5
 42
7.5
 50
62.80488151
  0
INSERT
  5
69D
100
AcDbEntity
  8
0
  6
CONTINUOUS
100
AcDbBlockReference
  2
DA_IMAGEDIMGROUP_4
 10
0.0
 20
0.0
 30
0.0
  0
INSERT
  5
69E
100
AcDbEntity
  8
LAYER0016
  6
CONTINUOUS
100
AcDbBlockReference
  2
DA_IMAGEDIMGROUP_5
 10
0.0
 20
0.0
 30
0.0
  0
ENDSEC
  0
SECTION
  2
OBJECTS
  0
DICTIONARY
  5
19
100
AcDbDictionary
  3
ACAD_GROUP
350
1A
  3
ACAD_MLINESTYLE
350
1B
  0
DICTIONARY
  5
1A
102
{ACAD_REACTORS
330
19
102
}
100
AcDbDictionary
  0
DICTIONARY
  5
1B
102
{ACAD_REACTORS
330
19
102
}
100
AcDbDictionary
  3
STANDARD
350
1C
  0
MLINESTYLE
  5
1C
102
{ACAD_REACTORS
330
1B
102
}
100
AcDbMlineStyle
  2
STANDARD
 70
       0
  3

 62
       0
 51
90.0
 52
90.0
 71
       2
 49
0.5
 62
     256
  6
BYLAYER
 49
-0.5
 62
     256
  6
BYLAYER
  0
ENDSEC
  0
EOF
