  0
SECTION
  2
HEADER
  9
$ACADVER
  1
AC1014
  9
$ACADMAINTVER
 70
       0
  9
$DWGCODEPAGE
  3
ANSI_932
  9
$INSBASE
 10
0.0
 20
0.0
 30
0.0
  9
$EXTMIN
 10
-352.45639344
 20
-478.92
 30
0.0
  9
$EXTMAX
 10
350.45639344
 20
478.92
 30
0.0
  9
$LIMMIN
 10
-374.42241803
 20
-508.8525
  9
$LIMMAX
 10
372.42241803
 20
508.8525
  9
$ORTHOMODE
 70
       0
  9
$REGENMODE
 70
       1
  9
$FILLMODE
 70
       1
  9
$QTEXTMODE
 70
       0
  9
$MIRRTEXT
 70
       1
  9
$DRAGMODE
 70
       2
  9
$LTSCALE
 40
1.0
  9
$OSMODE
 70
       0
  9
$ATTMODE
 70
       1
  9
$TEXTSIZE
 40
0.2
  9
$TRACEWID
 40
0.05
  9
$TEXTSTYLE
  7
STANDARD
  9
$CLAYER
  8
0
  9
$CELTYPE
  6
CONTINUOUS
  9
$CECOLOR
 62
     256
  9
$CELTSCALE
 40
1.0
  9
$DELOBJ
 70
       1
  9
$DISPSILH
 70
       0
  9
$DIMSCALE
 40
1.0
  9
$DIMASZ
 40
0.18
  9
$DIMEXO
 40
0.0625
  9
$DIMDLI
 40
0.38
  9
$DIMRND
 40
0.0
  9
$DIMDLE
 40
0.0
  9
$DIMEXE
 40
0.18
  9
$DIMTP
 40
0.0
  9
$DIMTM
 40
0.0
  9
$DIMTXT
 40
0.18
  9
$DIMCEN
 40
0.09
  9
$DIMTSZ
 40
0.0
  9
$DIMTOL
 70
       0
  9
$DIMLIM
 70
       0
  9
$DIMTIH
 70
       1
  9
$DIMTOH
 70
       1
  9
$DIMSE1
 70
       0
  9
$DIMSE2
 70
       0
  9
$DIMTAD
 70
       0
  9
$DIMZIN
 70
       0
  9
$DIMBLK
  1

  9
$DIMASO
 70
       1
  9
$DIMSHO
 70
       1
  9
$DIMPOST
  1

  9
$DIMAPOST
  1

  9
$DIMALT
 70
       0
  9
$DIMALTD
 70
       2
  9
$DIMALTF
 40
25.4
  9
$DIMLFAC
 40
1.0
  9
$DIMTOFL
 70
       0
  9
$DIMTVP
 40
0.0
  9
$DIMTIX
 70
       0
  9
$DIMSOXD
 70
       0
  9
$DIMSAH
 70
       0
  9
$DIMBLK1
  1

  9
$DIMBLK2
  1

  9
$DIMSTYLE
  2
STANDARD
  9
$DIMCLRD
 70
       0
  9
$DIMCLRE
 70
       0
  9
$DIMCLRT
 70
       0
  9
$DIMTFAC
 40
1.0
  9
$DIMGAP
 40
0.09
  9
$DIMJUST
 70
       0
  9
$DIMSD1
 70
       0
  9
$DIMSD2
 70
       0
  9
$DIMTOLJ
 70
       1
  9
$DIMTZIN
 70
       0
  9
$DIMALTZ
 70
       0
  9
$DIMALTTZ
 70
       0
  9
$DIMFIT
 70
       3
  9
$DIMUPT
 70
       0
  9
$DIMUNIT
 70
       2
  9
$DIMDEC
 70
       4
  9
$DIMTDEC
 70
       4
  9
$DIMALTU
 70
       2
  9
$DIMALTTD
 70
       2
  9
$DIMTXSTY
  7
STANDARD
  9
$DIMAUNIT
 70
       0
  9
$LUNITS
 70
       2
  9
$LUPREC
 70
       4
  9
$SKETCHINC
 40
0.1
  9
$FILLETRAD
 40
0.0
  9
$AUNITS
 70
       0
  9
$AUPREC
 70
       0
  9
$MENU
  1
acad
  9
$ELEVATION
 40
0.0
  9
$PELEVATION
 40
0.0
  9
$THICKNESS
 40
0.0
  9
$LIMCHECK
 70
       0
  9
$BLIPMODE
 70
       1
  9
$CHAMFERA
 40
0.0
  9
$CHAMFERB
 40
0.0
  9
$CHAMFERC
 40
0.0
  9
$CHAMFERD
 40
0.0
  9
$SKPOLY
 70
       0
  9
$TDCREATE
 40
0.000000000
  9
$TDUPDATE
 40
0.000000000
  9
$TDINDWG
 40
0.0000000000
  9
$TDUSRTIMER
 40
0.0000000000
  9
$USRTIMER
 70
       1
  9
$ANGBASE
 50
0.0
  9
$ANGDIR
 70
       0
  9
$PDMODE
 70
       0
  9
$PDSIZE
 40
1.0
  9
$PLINEWID
 40
0.0
  9
$COORDS
 70
       1
  9
$SPLFRAME
 70
       0
  9
$SPLINETYPE
 70
       6
  9
$SPLINESEGS
 70
       8
  9
$ATTDIA
 70
       0
  9
$ATTREQ
 70
       1
  9
$HANDLING
 70
       1
  9
$HANDSEED
  5
5EE
  9
$SURFTAB1
 70
       6
  9
$SURFTAB2
 70
       6
  9
$SURFTYPE
 70
       6
  9
$SURFU
 70
       6
  9
$SURFV
 70
       6
  9
$UCSNAME
  2

  9
$UCSORG
 10
0.0
 20
0.0
 30
0.0
  9
$UCSXDIR
 10
1.0
 20
0.0
 30
0.0
  9
$UCSYDIR
 10
0.0
 20
1.0
 30
0.0
  9
$PUCSNAME
  2

  9
$PUCSORG
 10
0.0
 20
0.0
 30
0.0
  9
$PUCSXDIR
 10
1.0
 20
0.0
 30
0.0
  9
$PUCSYDIR
 10
0.0
 20
1.0
 30
0.0
  9
$USERI1
 70
       0
  9
$USERI2
 70
       0
  9
$USERI3
 70
       0
  9
$USERI4
 70
       0
  9
$USERI5
 70
       0
  9
$USERR1
 40
0.0
  9
$USERR2
 40
0.0
  9
$USERR3
 40
0.0
  9
$USERR4
 40
0.0
  9
$USERR5
 40
0.0
  9
$WORLDVIEW
 70
       1
  9
$SHADEDGE
 70
       3
  9
$SHADEDIF
 70
      70
  9
$TILEMODE
 70
       1
  9
$MAXACTVP
 70
      16
  9
$PINSBASE
 10
0.0
 20
0.0
 30
0.0
  9
$PLIMCHECK
 70
       0
  9
$PEXTMIN
 10
1.00000000E+20
 20
1.00000000E+20
 30
1.00000000E+20
  9
$PEXTMAX
 10
-1.00000000E+20
 20
-1.00000000E+20
 30
-1.00000000E+20
  9
$PLIMMIN
 10
0.0
 20
0.0
  9
$PLIMMAX
 10
12.0
 20
9.0
  9
$UNITMODE
 70
       0
  9
$VISRETAIN
 70
       0
  9
$PLINEGEN
 70
       1
  9
$PSLTSCALE
 70
       0
  9
$TREEDEPTH
 70
    3020
  9
$PICKSTYLE
 70
       1
  9
$CMLSTYLE
  2
STANDARD
  9
$CMLJUST
 70
       0
  9
$CMLSCALE
 40
1.0
  9
$PROXYGRAPHICS
 70
       0
  9
$MEASUREMENT
 70
       0
  0
ENDSEC
  0
SECTION
  2
CLASSES
  0
CLASS
  1
LWPOLYLINE
  2
AcDbPolyline
  3
"AutoCAD"
 90
        0
280
       0
281
       1
  0
CLASS
  1
IMAGE
  2
AcDbRasterImage
  3
ISM
 90
      127
280
       0
281
       1
  0
CLASS
  1
OLE2FRAME
  2
AcDbOle2Frame
  3
""
 90
        0
280
       0
281
       1
  0
CLASS
  1
HATCH
  2
AcDbHatch
  3
"ACAD_SEDONA"
 90
        0
280
       0
281
       1
  0
CLASS
  1
DICTIONARYVAR
  2
AcDbDictionaryVar
  3
"AutoCAD"
 90
        0
280
       0
281
       0
  0
CLASS
  1
RASTERVARIABLES
  2
AcDbRasterVariables
  3
ISM
 90
        0
280
       0
281
       0
  0
CLASS
  1
IMAGEDEF
  2
AcDbRasterImageDef
  3
ISM
 90
        0
280
       0
281
       0
  0
CLASS
  1
IMAGEDEF_REACTOR
  2
AcDbRasterImageDefReactor
  3
ISM
 90
        1
280
       0
281
       0
  0
CLASS
  1
IDBUFFER
  2
AcDbIdBuffer
  3
"Acad"
 90
        0
280
       0
281
       0
  0
CLASS
  1
SPATIAL_FILTER
  2
AcDbSpatialFilter
  3
"Acad"
 90
        0
280
       0
281
       0
  0
CLASS
  1
XRECORD
  2
AcDbXrecord
  3
"<Built In>"
 90
        0
280
       0
281
       0
  0
CLASS
  1
SORTENTSTABLE
  2
AcDbSortentsTable
  3
"AutoCAD"
 90
        0
280
       0
281
       0
  0
CLASS
  1
LAYER_INDEX
  2
AcDbLayerIndex
  3
"Acad"
 90
        0
280
       0
281
       0
  0
CLASS
  1
SPATIAL_INDEX
  2
AcDbSpatialIndex
  3
"Acad"
 90
        0
280
       0
281
       0
  0
CLASS
  1
OBJECT_PTR
  2
CAseDLPNTableRecord
  3
"ASE-LPNTableRecord"
 90
        1
280
       0
281
       0
  0
CLASS
  1
LAYOUT
  2
AcDbLayout
  3
"AutoCAD 2000"
 90
        1
280
       0
281
       0
  0
CLASS
  1
PLOTSETTINGS
  2
AcDbPlotSettings
  3
"AutoCAD 2000"
 90
        1
280
       0
281
       0
  0
CLASS
  1
ACDBDICTIONARYWDFLT
  2
AcDbDictionaryWithDefault
  3
"AutoCAD 2000"
 90
        1
280
       0
281
       0
  0
CLASS
  1
ACDBPLACEHOLDER
  2
AcDbPlaceHolder
  3
"AutoCAD 2000"
 90
        1
280
       0
281
       0
  0
CLASS
  1
VBA_PROJECT
  2
AcDbVbaProject
  3
"acadvba"
 90
        1
280
       0
281
       0
  0
CLASS
  1
WIPEOUT
  2
AcDbWipeout
  3
WipeOut|AutoCAD Express Tool|expresstools@autodesk.com
 90
      127
280
       0
281
       1
  0
CLASS
  1
WIPEOUTVARIABLES
  2
AcDbWipeoutVariables
  3
WipeOut|AutoCAD Express Tool|expresstools@autodesk.com
 90
        0
280
       0
281
       0
  0
CLASS
  1
RTEXT
  2
RText
  3
RText|AutoCAD Express Tool|expresstools@autodesk.com
 90
        0
280
       0
281
       1
  0
CLASS
  1
ARCALIGNEDTEXT
  2
AcDbArcAlignedText
  3
ATEXT|AutoCAD Express Tool|expresstools@autodesk.com
 90
        0
280
       0
281
       1
  0
ENDSEC
  0
SECTION
  2
TABLES
  0
TABLE
  2
VPORT
  5
7
100
AcDbSymbolTable
 70
       1
  0
VPORT
  5
15
100
AcDbSymbolTableRecord
100
AcDbViewportTableRecord
  2
*ACTIVE
 70
       0
 10
0.0
 20
0.0
 11
1.0
 21
1.0
 12
-1.0
 22
0.0
 13
0.0
 23
0.0
 14
1.0
 24
1.0
 15
0.0
 25
0.0
 16
0.0
 26
0.0
 36
1.0
 17
0.0
 27
0.0
 37
0.0
 40
1017.705
 41
0.73385199
 42
50.0
 43
0.0
 44
0.0
 50
0.0
 51
0.0
 71
       0
 72
     100
 73
       1
 74
       1
 75
       0
 76
       0
 77
       0
 78
       0
  0
ENDTAB
  0
TABLE
  2
LTYPE
  5
4
100
AcDbSymbolTable
 70
      30
  0
LTYPE
  5
11
100
AcDbSymbolTableRecord
100
AcDbLinetypeTableRecord
  2
BYBLOCK
 70
      64
  3

 72
      65
 73
       0
 40
0.0
  0
LTYPE
  5
12
100
AcDbSymbolTableRecord
100
AcDbLinetypeTableRecord
  2
BYLAYER
 70
      64
  3

 72
      65
 73
       0
 40
0.0
  0
LTYPE
  5
13
100
AcDbSymbolTableRecord
100
AcDbLinetypeTableRecord
  2
CONTINUOUS
 70
      64
  3
Solid line
 72
      65
 73
       0
 40
0.0
  0
LTYPE
  5
1D
100
AcDbSymbolTableRecord
100
AcDbLinetypeTableRecord
  2
HIDDENX2
 70
      64
  3
CADPAC LINETYPE
 72
      65
 73
       2
 40
54.16750345
 49
40.62562759
 74
       0
 49
-13.54187586
 74
       0
  0
LTYPE
  5
1E
100
AcDbSymbolTableRecord
100
AcDbLinetypeTableRecord
  2
HIDDEN
 70
      64
  3
CADPAC LINETYPE
 72
      65
 73
       2
 40
40.62562759
 49
27.08375172
 74
       0
 49
-13.54187586
 74
       0
  0
LTYPE
  5
1F
100
AcDbSymbolTableRecord
100
AcDbLinetypeTableRecord
  2
HIDDEN2
 70
      64
  3
CADPAC LINETYPE
 72
      65
 73
       2
 40
33.85468966
 49
20.31281379
 74
       0
 49
-13.54187586
 74
       0
  0
LTYPE
  5
20
100
AcDbSymbolTableRecord
100
AcDbLinetypeTableRecord
  2
DASHED
 70
      64
  3
CADPAC LINETYPE
 72
      65
 73
       2
 40
40.62562759
 49
27.08375172
 74
       0
 49
-13.54187586
 74
       0
  0
LTYPE
  5
21
100
AcDbSymbolTableRecord
100
AcDbLinetypeTableRecord
  2
DASHED2
 70
      64
  3
CADPAC LINETYPE
 72
      65
 73
       2
 40
30.46922069
 49
20.31281379
 74
       0
 49
-10.1564069
 74
       0
  0
LTYPE
  5
22
100
AcDbSymbolTableRecord
100
AcDbLinetypeTableRecord
  2
DASHEDX2
 70
      64
  3
CADPAC LINETYPE
 72
      65
 73
       2
 40
60.93844138
 49
40.62562759
 74
       0
 49
-20.31281379
 74
       0
  0
LTYPE
  5
23
100
AcDbSymbolTableRecord
100
AcDbLinetypeTableRecord
  2
DOTX2
 70
      64
  3
CADPAC LINETYPE
 72
      65
 73
       2
 40
16.92734483
 49
0.0
 74
       0
 49
-16.92734483
 74
       0
  0
LTYPE
  5
24
100
AcDbSymbolTableRecord
100
AcDbLinetypeTableRecord
  2
DOT
 70
      64
  3
CADPAC LINETYPE
 72
      65
 73
       2
 40
13.54187586
 49
0.0
 74
       0
 49
-13.54187586
 74
       0
  0
LTYPE
  5
25
100
AcDbSymbolTableRecord
100
AcDbLinetypeTableRecord
  2
DOT2
 70
      64
  3
CADPAC LINETYPE
 72
      65
 73
       2
 40
10.1564069
 49
0.0
 74
       0
 49
-10.1564069
 74
       0
  0
LTYPE
  5
26
100
AcDbSymbolTableRecord
100
AcDbLinetypeTableRecord
  2
CENTERX2
 70
      64
  3
CADPAC LINETYPE
 72
      65
 73
       4
 40
81.25125517
 49
33.85468966
 74
       0
 49
-16.92734483
 74
       0
 49
13.54187586
 74
       0
 49
-16.92734483
 74
       0
  0
LTYPE
  5
27
100
AcDbSymbolTableRecord
100
AcDbLinetypeTableRecord
  2
CENTER
 70
      64
  3
CADPAC LINETYPE
 72
      65
 73
       4
 40
62.29262897
 49
27.08375172
 74
       0
 49
-13.54187586
 74
       0
 49
8.12512552
 74
       0
 49
-13.54187586
 74
       0
  0
LTYPE
  5
28
100
AcDbSymbolTableRecord
100
AcDbLinetypeTableRecord
  2
CENTER2
 70
      64
  3
CADPAC LINETYPE
 72
      65
 73
       4
 40
43.33400276
 49
20.31281379
 74
       0
 49
-10.1564069
 74
       0
 49
2.70837517
 74
       0
 49
-10.1564069
 74
       0
  0
LTYPE
  5
29
100
AcDbSymbolTableRecord
100
AcDbLinetypeTableRecord
  2
DASHDOTX2
 70
      64
  3
CADPAC LINETYPE
 72
      65
 73
       4
 40
67.70937931
 49
33.85468966
 74
       0
 49
-16.92734483
 74
       0
 49
0.0
 74
       0
 49
-16.92734483
 74
       0
  0
LTYPE
  5
2A
100
AcDbSymbolTableRecord
100
AcDbLinetypeTableRecord
  2
DASHDOT
 70
      64
  3
CADPAC LINETYPE
 72
      65
 73
       4
 40
54.16750345
 49
27.08375172
 74
       0
 49
-13.54187586
 74
       0
 49
0.0
 74
       0
 49
-13.54187586
 74
       0
  0
LTYPE
  5
2B
100
AcDbSymbolTableRecord
100
AcDbLinetypeTableRecord
  2
DASHDOT2
 70
      64
  3
CADPAC LINETYPE
 72
      65
 73
       4
 40
40.62562759
 49
20.31281379
 74
       0
 49
-10.1564069
 74
       0
 49
0.0
 74
       0
 49
-10.1564069
 74
       0
  0
LTYPE
  5
2C
100
AcDbSymbolTableRecord
100
AcDbLinetypeTableRecord
  2
DIVIDEX2
 70
      64
  3
CADPAC LINETYPE
 72
      65
 73
       6
 40
84.63672414
 49
33.85468966
 74
       0
 49
-16.92734483
 74
       0
 49
0.0
 74
       0
 49
-16.92734483
 74
       0
 49
0.0
 74
       0
 49
-16.92734483
 74
       0
  0
LTYPE
  5
2D
100
AcDbSymbolTableRecord
100
AcDbLinetypeTableRecord
  2
DIVIDE
 70
      64
  3
CADPAC LINETYPE
 72
      65
 73
       6
 40
67.70937931
 49
27.08375172
 74
       0
 49
-13.54187586
 74
       0
 49
0.0
 74
       0
 49
-13.54187586
 74
       0
 49
0.0
 74
       0
 49
-13.54187586
 74
       0
  0
LTYPE
  5
2E
100
AcDbSymbolTableRecord
100
AcDbLinetypeTableRecord
  2
DIVIDE2
 70
      64
  3
CADPAC LINETYPE
 72
      65
 73
       6
 40
50.78203448
 49
20.31281379
 74
       0
 49
-10.1564069
 74
       0
 49
0.0
 74
       0
 49
-10.1564069
 74
       0
 49
0.0
 74
       0
 49
-10.1564069
 74
       0
  0
LTYPE
  5
2F
100
AcDbSymbolTableRecord
100
AcDbLinetypeTableRecord
  2
BORDERX2
 70
      64
  3
CADPAC LINETYPE
 72
      65
 73
       6
 40
118.49141379
 49
33.85468966
 74
       0
 49
-16.92734483
 74
       0
 49
33.85468966
 74
       0
 49
-16.92734483
 74
       0
 49
0.0
 74
       0
 49
-16.92734483
 74
       0
  0
LTYPE
  5
30
100
AcDbSymbolTableRecord
100
AcDbLinetypeTableRecord
  2
BORDER
 70
      64
  3
CADPAC LINETYPE
 72
      65
 73
       6
 40
94.79313103
 49
27.08375172
 74
       0
 49
-13.54187586
 74
       0
 49
27.08375172
 74
       0
 49
-13.54187586
 74
       0
 49
0.0
 74
       0
 49
-13.54187586
 74
       0
  0
LTYPE
  5
31
100
AcDbSymbolTableRecord
100
AcDbLinetypeTableRecord
  2
BORDER2
 70
      64
  3
CADPAC LINETYPE
 72
      65
 73
       6
 40
71.09484828
 49
20.31281379
 74
       0
 49
-10.1564069
 74
       0
 49
20.31281379
 74
       0
 49
-10.1564069
 74
       0
 49
0.0
 74
       0
 49
-10.1564069
 74
       0
  0
LTYPE
  5
32
100
AcDbSymbolTableRecord
100
AcDbLinetypeTableRecord
  2
PHANTOMX2
 70
      64
  3
CADPAC LINETYPE
 72
      65
 73
       6
 40
101.56406897
 49
33.85468966
 74
       0
 49
-13.54187586
 74
       0
 49
13.54187586
 74
       0
 49
-13.54187586
 74
       0
 49
13.54187586
 74
       0
 49
-13.54187586
 74
       0
  0
LTYPE
  5
33
100
AcDbSymbolTableRecord
100
AcDbLinetypeTableRecord
  2
PHANTOM
 70
      64
  3
CADPAC LINETYPE
 72
      65
 73
       6
 40
83.95963034
 49
27.08375172
 74
       0
 49
-13.54187586
 74
       0
 49
8.12512552
 74
       0
 49
-13.54187586
 74
       0
 49
8.12512552
 74
       0
 49
-13.54187586
 74
       0
  0
LTYPE
  5
34
100
AcDbSymbolTableRecord
100
AcDbLinetypeTableRecord
  2
PHANTOM2
 70
      64
  3
CADPAC LINETYPE
 72
      65
 73
       6
 40
71.77194207
 49
20.31281379
 74
       0
 49
-13.54187586
 74
       0
 49
5.41675034
 74
       0
 49
-13.54187586
 74
       0
 49
5.41675034
 74
       0
 49
-13.54187586
 74
       0
  0
LTYPE
  5
35
100
AcDbSymbolTableRecord
100
AcDbLinetypeTableRecord
  2
ACAD_ISO06W100
 70
      64
  3
CADPAC LINETYPE
 72
      65
 73
       8
 40
91.40766207
 49
33.85468966
 74
       0
 49
-16.92734483
 74
       0
 49
0.0
 74
       0
 49
-13.54187586
 74
       0
 49
0.0
 74
       0
 49
-13.54187586
 74
       0
 49
0.0
 74
       0
 49
-13.54187586
 74
       0
  0
LTYPE
  5
36
100
AcDbSymbolTableRecord
100
AcDbLinetypeTableRecord
  2
ACAD_ISO13W100
 70
      64
  3
CADPAC LINETYPE
 72
      65
 73
       8
 40
108.3350069
 49
27.08375172
 74
       0
 49
-13.54187586
 74
       0
 49
27.08375172
 74
       0
 49
-13.54187586
 74
       0
 49
0.0
 74
       0
 49
-13.54187586
 74
       0
 49
0.0
 74
       0
 49
-13.54187586
 74
       0
  0
LTYPE
  5
37
100
AcDbSymbolTableRecord
100
AcDbLinetypeTableRecord
  2
ACAD_ISO14W100
 70
      64
  3
CADPAC LINETYPE
 72
      65
 73
       8
 40
81.25125517
 49
27.08375172
 74
       0
 49
-13.54187586
 74
       0
 49
0.0
 74
       0
 49
-13.54187586
 74
       0
 49
0.0
 74
       0
 49
-13.54187586
 74
       0
 49
0.0
 74
       0
 49
-13.54187586
 74
       0
  0
ENDTAB
  0
TABLE
  2
LAYER
  5
2
100
AcDbSymbolTable
 70
       5
  0
LAYER
  5
14
100
AcDbSymbolTableRecord
100
AcDbLayerTableRecord
  2
0
 70
       0
 62
       7
  6
CONTINUOUS
  0
LAYER
  5
38
100
AcDbSymbolTableRecord
100
AcDbLayerTableRecord
  2
1
 70
       0
 62
       7
  6
CONTINUOUS
  0
LAYER
  5
39
100
AcDbSymbolTableRecord
100
AcDbLayerTableRecord
  2
16
 70
       0
 62
       7
  6
CONTINUOUS
  0
LAYER
  5
3A
100
AcDbSymbolTableRecord
100
AcDbLayerTableRecord
  2
17
 70
       0
 62
       7
  6
CONTINUOUS
  0
LAYER
  5
3B
100
AcDbSymbolTableRecord
100
AcDbLayerTableRecord
  2
240
 70
       0
 62
       7
  6
CONTINUOUS
  0
ENDTAB
  0
TABLE
  2
STYLE
  5
3
100
AcDbSymbolTable
 70
       1
  0
STYLE
  5
17
100
AcDbSymbolTableRecord
100
AcDbTextStyleTableRecord
  2
STANDARD
 70
       0
 40
0.0
 41
0.8
 50
0.0
 71
       0
 42
12.0
  3
txt.shx
  4
bigfont.shx
  0
ENDTAB
  0
TABLE
  2
VIEW
  5
5
100
AcDbSymbolTable
 70
       1
  0
VIEW
  5
3C
100
AcDbSymbolTableRecord
100
AcDbViewTableRecord
  2
QQQQ
 70
       0
 40
1017.705
 10
-1.0
 20
0.0
 41
746.84483607
 11
0.0
 21
0.0
 31
1.0
 12
100.0
 22
100.0
 32
0.0
 42
50.0
 43
0.0
 44
0.0
 50
0.0
 71
       0
  0
ENDTAB
  0
TABLE
  2
UCS
  5
6
100
AcDbSymbolTable
 70
       0
  0
ENDTAB
  0
TABLE
  2
APPID
  5
8
100
AcDbSymbolTable
 70
       1
  0
APPID
  5
16
100
AcDbSymbolTableRecord
100
AcDbRegAppTableRecord
  2
ACAD
 70
       0
  0
ENDTAB
  0
TABLE
  2
DIMSTYLE
  5
9
100
AcDbSymbolTable
 70
       1
  0
DIMSTYLE
105
18
100
AcDbSymbolTableRecord
100
AcDbDimStyleTableRecord
  2
STANDARD
 70
       0
  3

  4

  5

  6

  7

 40
1.0
 41
0.18
 42
0.0625
 43
0.38
 44
0.18
 45
0.0
 46
0.0
 47
0.0
 48
0.0
 71
       0
 72
       0
 73
       1
 74
       1
 75
       0
 76
       0
 77
       0
 78
       0
140
0.18
141
0.09
142
0.0
143
25.4
144
1.0
145
0.0
146
1.0
147
0.09
170
       0
171
       2
172
       0
173
       0
174
       0
175
       0
176
       0
177
       0
178
       0
270
       2
271
       4
272
       4
273
       2
274
       2
275
       0
280
       0
281
       0
282
       0
283
       1
284
       0
285
       0
286
       0
287
       0
288
       0
340
17
  0
ENDTAB
  0
TABLE
  2
BLOCK_RECORD
  5
1
100
AcDbSymbolTable
 70
      18
  0
BLOCK_RECORD
  5
A
100
AcDbSymbolTableRecord
100
AcDbBlockTableRecord
  2
*MODEL_SPACE
  0
BLOCK_RECORD
  5
B
100
AcDbSymbolTableRecord
100
AcDbBlockTableRecord
  2
*PAPER_SPACE
  0
BLOCK_RECORD
  5
3D
100
AcDbSymbolTableRecord
100
AcDbBlockTableRecord
  2
GROUP_1
  0
BLOCK_RECORD
  5
3E
100
AcDbSymbolTableRecord
100
AcDbBlockTableRecord
  2
GROUP_2
  0
BLOCK_RECORD
  5
3F
100
AcDbSymbolTableRecord
100
AcDbBlockTableRecord
  2
GROUP_3
  0
BLOCK_RECORD
  5
40
100
AcDbSymbolTableRecord
100
AcDbBlockTableRecord
  2
GROUP_4
  0
BLOCK_RECORD
  5
41
100
AcDbSymbolTableRecord
100
AcDbBlockTableRecord
  2
GROUP_5
  0
BLOCK_RECORD
  5
42
100
AcDbSymbolTableRecord
100
AcDbBlockTableRecord
  2
GROUP_6
  0
BLOCK_RECORD
  5
43
100
AcDbSymbolTableRecord
100
AcDbBlockTableRecord
  2
GROUP_7
  0
BLOCK_RECORD
  5
44
100
AcDbSymbolTableRecord
100
AcDbBlockTableRecord
  2
GROUP_8
  0
BLOCK_RECORD
  5
45
100
AcDbSymbolTableRecord
100
AcDbBlockTableRecord
  2
GROUP_9
  0
BLOCK_RECORD
  5
46
100
AcDbSymbolTableRecord
100
AcDbBlockTableRecord
  2
GROUP_10
  0
BLOCK_RECORD
  5
47
100
AcDbSymbolTableRecord
100
AcDbBlockTableRecord
  2
GROUP_11
  0
BLOCK_RECORD
  5
48
100
AcDbSymbolTableRecord
100
AcDbBlockTableRecord
  2
GROUP_12
  0
BLOCK_RECORD
  5
49
100
AcDbSymbolTableRecord
100
AcDbBlockTableRecord
  2
GROUP_13
  0
BLOCK_RECORD
  5
4A
100
AcDbSymbolTableRecord
100
AcDbBlockTableRecord
  2
GROUP_14
  0
BLOCK_RECORD
  5
4B
100
AcDbSymbolTableRecord
100
AcDbBlockTableRecord
  2
GROUP_15
  0
BLOCK_RECORD
  5
4C
100
AcDbSymbolTableRecord
100
AcDbBlockTableRecord
  2
GROUP_16
  0
BLOCK_RECORD
  5
4D
100
AcDbSymbolTableRecord
100
AcDbBlockTableRecord
  2
GROUP_17
  0
BLOCK_RECORD
  5
4E
100
AcDbSymbolTableRecord
100
AcDbBlockTableRecord
  2
GROUP_18
  0
ENDTAB
  0
ENDSEC
  0
SECTION
  2
BLOCKS
  0
BLOCK
  5
D
100
AcDbEntity
  8
0
100
AcDbBlockBegin
  2
*MODEL_SPACE
 70
       0
 10
0.0
 20
0.0
 30
0.0
  3
*MODEL_SPACE
  1

  0
ENDBLK
  5
E
100
AcDbEntity
  8
0
100
AcDbBlockEnd
  0
BLOCK
  5
F
100
AcDbEntity
 67
       1
  8
0
100
AcDbBlockBegin
  2
*PAPER_SPACE
 70
       0
 10
0.0
 20
0.0
 30
0.0
  3
*PAPER_SPACE
  1

  0
ENDBLK
  5
10
100
AcDbEntity
 67
       1
  8
0
100
AcDbBlockEnd
  0
BLOCK
  5
4F
100
AcDbEntity
  8
0
100
AcDbBlockBegin
  2
GROUP_1
 70
       0
 10
0.0
 20
0.0
 30
0.0
  3
GROUP_1
  1

  0
CIRCLE
  5
50
100
AcDbEntity
  8
17
  6
CONTINUOUS
 62
       7
100
AcDbCircle
 10
143.84191582
 20
335.84097268
 30
0.0
 40
13.15902732
  0
TEXT
  5
51
100
AcDbEntity
  8
17
 62
       7
100
AcDbText
 10
139.04191582
 20
329.84097268
 30
0.0
 40
12.0
  1
3
 41
0.8
 72
       5
 11
148.64191582
 21
329.84097268
 31
0.0
100
AcDbText
  0
ENDBLK
  5
52
100
AcDbEntity
  8
0
100
AcDbBlockEnd
  0
BLOCK
  5
53
100
AcDbEntity
  8
0
100
AcDbBlockBegin
  2
GROUP_2
 70
       0
 10
0.0
 20
0.0
 30
0.0
  3
GROUP_2
  1

  0
CIRCLE
  5
54
100
AcDbEntity
  8
17
  6
CONTINUOUS
 62
       7
100
AcDbCircle
 10
83.84191582
 20
215.84097268
 30
0.0
 40
13.15902732
  0
TEXT
  5
55
100
AcDbEntity
  8
17
 62
       7
100
AcDbText
 10
79.04191582
 20
209.84097268
 30
0.0
 40
12.0
  1
6
 41
0.8
 72
       5
 11
88.64191582
 21
209.84097268
 31
0.0
100
AcDbText
  0
ENDBLK
  5
56
100
AcDbEntity
  8
0
100
AcDbBlockEnd
  0
BLOCK
  5
57
100
AcDbEntity
  8
0
100
AcDbBlockBegin
  2
GROUP_3
 70
       0
 10
0.0
 20
0.0
 30
0.0
  3
GROUP_3
  1

  0
CIRCLE
  5
58
100
AcDbEntity
  8
17
  6
CONTINUOUS
 62
       7
100
AcDbCircle
 10
110.15997046
 20
215.84097268
 30
0.0
 40
13.15902732
  0
TEXT
  5
59
100
AcDbEntity
  8
17
 62
       7
100
AcDbText
 10
105.35997046
 20
209.84097268
 30
0.0
 40
12.0
  1
7
 41
0.8
 72
       5
 11
114.95997046
 21
209.84097268
 31
0.0
100
AcDbText
  0
ENDBLK
  5
5A
100
AcDbEntity
  8
0
100
AcDbBlockEnd
  0
BLOCK
  5
5B
100
AcDbEntity
  8
0
100
AcDbBlockBegin
  2
GROUP_4
 70
       0
 10
0.0
 20
0.0
 30
0.0
  3
GROUP_4
  1

  0
CIRCLE
  5
5C
100
AcDbEntity
  8
17
  6
CONTINUOUS
 62
       7
100
AcDbCircle
 10
233.84191582
 20
215.84097268
 30
0.0
 40
13.15902732
  0
TEXT
  5
5D
100
AcDbEntity
  8
17
 62
       7
100
AcDbText
 10
229.04191582
 20
209.84097268
 30
0.0
 40
12.0
  1
8
 41
0.8
 72
       5
 11
238.64191582
 21
209.84097268
 31
0.0
100
AcDbText
  0
ENDBLK
  5
5E
100
AcDbEntity
  8
0
100
AcDbBlockEnd
  0
BLOCK
  5
5F
100
AcDbEntity
  8
0
100
AcDbBlockBegin
  2
GROUP_5
 70
       0
 10
0.0
 20
0.0
 30
0.0
  3
GROUP_5
  1

  0
CIRCLE
  5
60
100
AcDbEntity
  8
17
  6
CONTINUOUS
 62
       7
100
AcDbCircle
 10
143.84191582
 20
155.84097268
 30
0.0
 40
13.15902732
  0
TEXT
  5
61
100
AcDbEntity
  8
17
 62
       7
100
AcDbText
 10
139.04191582
 20
149.84097268
 30
0.0
 40
12.0
  1
4
 41
0.8
 72
       5
 11
148.64191582
 21
149.84097268
 31
0.0
100
AcDbText
  0
ENDBLK
  5
62
100
AcDbEntity
  8
0
100
AcDbBlockEnd
  0
BLOCK
  5
63
100
AcDbEntity
  8
0
100
AcDbBlockBegin
  2
GROUP_6
 70
       0
 10
0.0
 20
0.0
 30
0.0
  3
GROUP_6
  1

  0
CIRCLE
  5
64
100
AcDbEntity
  8
1
  6
CONTINUOUS
 62
       7
100
AcDbCircle
 10
-105.55430501
 20
335.84097268
 30
0.0
 40
13.15902732
  0
TEXT
  5
65
100
AcDbEntity
  8
1
 62
       7
100
AcDbText
 10
-110.35430501
 20
329.84097268
 30
0.0
 40
12.0
  1
1
 41
0.8
 72
       5
 11
-100.75430501
 21
329.84097268
 31
0.0
100
AcDbText
  0
ENDBLK
  5
66
100
AcDbEntity
  8
0
100
AcDbBlockEnd
  0
BLOCK
  5
67
100
AcDbEntity
  8
0
100
AcDbBlockBegin
  2
GROUP_7
 70
       0
 10
0.0
 20
0.0
 30
0.0
  3
GROUP_7
  1

  0
CIRCLE
  5
68
100
AcDbEntity
  8
1
  6
CONTINUOUS
 62
       7
100
AcDbCircle
 10
-105.55430501
 20
215.84097268
 30
0.0
 40
13.15902732
  0
TEXT
  5
69
100
AcDbEntity
  8
1
 62
       7
100
AcDbText
 10
-110.35430501
 20
209.84097268
 30
0.0
 40
12.0
  1
2
 41
0.8
 72
       5
 11
-100.75430501
 21
209.84097268
 31
0.0
100
AcDbText
  0
ENDBLK
  5
6A
100
AcDbEntity
  8
0
100
AcDbBlockEnd
  0
BLOCK
  5
6B
100
AcDbEntity
  8
0
100
AcDbBlockBegin
  2
GROUP_8
 70
       0
 10
0.0
 20
0.0
 30
0.0
  3
GROUP_8
  1

  0
CIRCLE
  5
6C
100
AcDbEntity
  8
17
  6
CONTINUOUS
 62
       7
100
AcDbCircle
 10
143.84191582
 20
-24.15902732
 30
0.0
 40
13.15902732
  0
TEXT
  5
6D
100
AcDbEntity
  8
17
 62
       7
100
AcDbText
 10
139.04191582
 20
-30.15902732
 30
0.0
 40
12.0
  1
5
 41
0.8
 72
       5
 11
148.64191582
 21
-30.15902732
 31
0.0
100
AcDbText
  0
ENDBLK
  5
6E
100
AcDbEntity
  8
0
100
AcDbBlockEnd
  0
BLOCK
  5
6F
100
AcDbEntity
  8
0
100
AcDbBlockBegin
  2
GROUP_9
 70
       0
 10
0.0
 20
0.0
 30
0.0
  3
GROUP_9
  1

  0
ARC
  5
70
100
AcDbEntity
  8
0
  6
CONTINUOUS
 62
       7
100
AcDbCircle
 10
-269.75076033
 20
421.22548309
 30
0.0
 40
8.06307952
100
AcDbArc
 50
117.5173678
 51
242.4826322
  0
ARC
  5
71
100
AcDbEntity
  8
0
  6
CONTINUOUS
 62
       7
100
AcDbCircle
 10
-239.47008985
 20
479.35108957
 30
0.0
 40
73.60318276
100
AcDbArc
 50
242.4826322
 51
297.51736473
  0
ARC
  5
72
100
AcDbEntity
  8
0
  6
CONTINUOUS
 62
       7
100
AcDbCircle
 10
-209.18941937
 20
421.22548309
 30
0.0
 40
8.06307952
100
AcDbArc
 50
297.51736473
 51
422.48263527
  0
ARC
  5
73
100
AcDbEntity
  8
0
  6
CONTINUOUS
 62
       7
100
AcDbCircle
 10
-239.47008985
 20
363.09987661
 30
0.0
 40
73.60318276
100
AcDbArc
 50
62.48263527
 51
117.5173678
  0
ENDBLK
  5
74
100
AcDbEntity
  8
0
100
AcDbBlockEnd
  0
BLOCK
  5
75
100
AcDbEntity
  8
0
100
AcDbBlockBegin
  2
GROUP_10
 70
       0
 10
0.0
 20
0.0
 30
0.0
  3
GROUP_10
  1

  0
ARC
  5
76
100
AcDbEntity
  8
0
  6
CONTINUOUS
 62
       7
100
AcDbCircle
 10
-246.6538466
 20
419.51508975
 30
0.0
 40
0.3169996
100
AcDbArc
 50
190.64764618
 51
292.13143044
  0
ARC
  5
77
100
AcDbEntity
  8
0
  6
CONTINUOUS
 62
       7
100
AcDbCircle
 10
-246.77215337
 20
419.80598631
 30
0.0
 40
0.63103352
100
AcDbArc
 50
292.13143044
 51
370.64764925
  0
ARC
  5
78
100
AcDbEntity
  8
0
  6
CONTINUOUS
 62
       7
100
AcDbCircle
 10
-246.46352649
 20
419.86400995
 30
0.0
 40
0.3169996
100
AcDbArc
 50
10.64764925
 51
112.13143351
  0
ARC
  5
79
100
AcDbEntity
  8
0
  6
CONTINUOUS
 62
       7
100
AcDbCircle
 10
-246.34521971
 20
419.5731134
 30
0.0
 40
0.63103352
100
AcDbArc
 50
112.13143351
 51
190.64764618
  0
ENDBLK
  5
7A
100
AcDbEntity
  8
0
100
AcDbBlockEnd
  0
BLOCK
  5
7B
100
AcDbEntity
  8
0
100
AcDbBlockBegin
  2
GROUP_11
 70
       0
 10
0.0
 20
0.0
 30
0.0
  3
GROUP_11
  1

  0
ARC
  5
7C
100
AcDbEntity
  8
0
  6
CONTINUOUS
 62
       7
100
AcDbCircle
 10
-246.86271228
 20
419.13216934
 30
0.0
 40
1.01277828
100
AcDbArc
 50
190.64764618
 51
211.08494823
  0
ARC
  5
7D
100
AcDbEntity
  8
0
  6
CONTINUOUS
 62
       7
100
AcDbCircle
 10
-247.2406892
 20
420.0615513
 30
0.0
 40
2.01608152
100
AcDbArc
 50
312.59843321
 51
370.64764925
  0
ARC
  5
7E
100
AcDbEntity
  8
0
  6
CONTINUOUS
 62
       7
100
AcDbCircle
 10
-246.25466081
 20
420.24693036
 30
0.0
 40
1.01277828
100
AcDbArc
 50
10.64764925
 51
112.13143351
  0
ARC
  5
7F
100
AcDbEntity
  8
0
  6
CONTINUOUS
 62
       7
100
AcDbCircle
 10
-245.87668389
 20
419.3175484
 30
0.0
 40
2.01608152
100
AcDbArc
 50
112.13143351
 51
190.64764618
  0
ENDBLK
  5
80
100
AcDbEntity
  8
0
100
AcDbBlockEnd
  0
BLOCK
  5
81
100
AcDbEntity
  8
0
100
AcDbBlockBegin
  2
GROUP_12
 70
       0
 10
0.0
 20
0.0
 30
0.0
  3
GROUP_12
  1

  0
ARC
  5
82
100
AcDbEntity
  8
0
  6
CONTINUOUS
 62
       7
100
AcDbCircle
 10
-242.07352308
 20
420.31138677
 30
0.0
 40
0.23219995
100
AcDbArc
 50
183.26137873
 51
305.00590373
  0
ARC
  5
83
100
AcDbEntity
  8
0
  6
CONTINUOUS
 62
       7
100
AcDbCircle
 10
-242.91047684
 20
421.50641847
 30
0.0
 40
1.69116957
100
AcDbArc
 50
305.00590373
 51
363.2613818
  0
ARC
  5
84
100
AcDbEntity
  8
0
  6
CONTINUOUS
 62
       7
100
AcDbCircle
 10
-241.45387018
 20
421.58942088
 30
0.0
 40
0.23219995
100
AcDbArc
 50
3.2613818
 51
125.0059068
  0
ARC
  5
85
100
AcDbEntity
  8
0
  6
CONTINUOUS
 62
       7
100
AcDbCircle
 10
-240.61691642
 20
420.39438918
 30
0.0
 40
1.69116957
100
AcDbArc
 50
125.0059068
 51
183.26137873
  0
ENDBLK
  5
86
100
AcDbEntity
  8
0
100
AcDbBlockEnd
  0
BLOCK
  5
87
100
AcDbEntity
  8
0
100
AcDbBlockBegin
  2
GROUP_13
 70
       0
 10
0.0
 20
0.0
 30
0.0
  3
GROUP_13
  1

  0
ARC
  5
88
100
AcDbEntity
  8
0
  6
CONTINUOUS
 62
       7
100
AcDbCircle
 10
-242.7535575
 20
418.90881579
 30
0.0
 40
0.74185288
100
AcDbArc
 50
183.26137873
 51
200.33363428
  0
ARC
  5
89
100
AcDbEntity
  8
0
  6
CONTINUOUS
 62
       7
100
AcDbCircle
 10
-245.42753116
 20
422.72680844
 30
0.0
 40
5.40309768
100
AcDbArc
 50
321.55507259
 51
363.2613818
  0
ARC
  5
8A
100
AcDbEntity
  8
0
  6
CONTINUOUS
 62
       7
100
AcDbCircle
 10
-240.77383576
 20
422.99199186
 30
0.0
 40
0.74185288
100
AcDbArc
 50
3.2613818
 51
125.0059068
  0
ARC
  5
8B
100
AcDbEntity
  8
0
  6
CONTINUOUS
 62
       7
100
AcDbCircle
 10
-238.0998621
 20
419.17399921
 30
0.0
 40
5.40309768
100
AcDbArc
 50
125.0059068
 51
183.26137873
  0
ENDBLK
  5
8C
100
AcDbEntity
  8
0
100
AcDbBlockEnd
  0
BLOCK
  5
8D
100
AcDbEntity
  8
0
100
AcDbBlockBegin
  2
GROUP_14
 70
       0
 10
0.0
 20
0.0
 30
0.0
  3
GROUP_14
  1

  0
ARC
  5
8E
100
AcDbEntity
  8
0
  6
CONTINUOUS
 62
       7
100
AcDbCircle
 10
-233.39001874
 20
419.06490141
 30
0.0
 40
0.2160766
100
AcDbArc
 50
183.73563025
 51
294.86492053
  0
ARC
  5
8F
100
AcDbEntity
  8
0
  6
CONTINUOUS
 62
       7
100
AcDbCircle
 10
-233.62775819
 20
419.57788937
 30
0.0
 40
0.78147618
100
AcDbArc
 50
294.86492053
 51
363.73563332
  0
ARC
  5
90
100
AcDbEntity
  8
0
  6
CONTINUOUS
 62
       7
100
AcDbCircle
 10
-233.06355992
 20
419.6147268
 30
0.0
 40
0.2160766
100
AcDbArc
 50
3.73563332
 51
114.8649236
  0
ARC
  5
91
100
AcDbEntity
  8
0
  6
CONTINUOUS
 62
       7
100
AcDbCircle
 10
-232.82582047
 20
419.10173885
 30
0.0
 40
0.78147618
100
AcDbArc
 50
114.8649236
 51
183.73563025
  0
ENDBLK
  5
92
100
AcDbEntity
  8
0
100
AcDbBlockEnd
  0
BLOCK
  5
93
100
AcDbEntity
  8
0
100
AcDbBlockBegin
  2
GROUP_15
 70
       0
 10
0.0
 20
0.0
 30
0.0
  3
GROUP_15
  1

  0
ARC
  5
94
100
AcDbEntity
  8
0
  6
CONTINUOUS
 62
       7
100
AcDbCircle
 10
-232.77189083
 20
420.03486454
 30
0.0
 40
0.8613358
100
AcDbArc
 50
20.74730473
 51
105.32121283
  0
ARC
  5
95
100
AcDbEntity
  8
0
  6
CONTINUOUS
 62
       7
100
AcDbCircle
 10
-232.30367297
 20
418.32583435
 30
0.0
 40
2.63334374
100
AcDbArc
 50
105.32121283
 51
159.10235176
  0
ENDBLK
  5
96
100
AcDbEntity
  8
0
100
AcDbBlockEnd
  0
BLOCK
  5
97
100
AcDbEntity
  8
0
100
AcDbBlockBegin
  2
GROUP_16
 70
       0
 10
0.0
 20
0.0
 30
0.0
  3
GROUP_16
  1

  0
ARC
  5
98
100
AcDbEntity
  8
0
  6
CONTINUOUS
 62
       7
100
AcDbCircle
 10
-234.07302264
 20
418.42285946
 30
0.0
 40
0.8613358
100
AcDbArc
 50
198.54808739
 51
285.32120976
  0
ARC
  5
99
100
AcDbEntity
  8
0
  6
CONTINUOUS
 62
       7
100
AcDbCircle
 10
-234.5412405
 20
420.13188965
 30
0.0
 40
2.63334374
100
AcDbArc
 50
285.32120976
 51
306.25116607
  0
ENDBLK
  5
9A
100
AcDbEntity
  8
0
100
AcDbBlockEnd
  0
BLOCK
  5
9B
100
AcDbEntity
  8
0
100
AcDbBlockBegin
  2
GROUP_17
 70
       0
 10
0.0
 20
0.0
 30
0.0
  3
GROUP_17
  1

  0
ARC
  5
9C
100
AcDbEntity
  8
0
  6
CONTINUOUS
 62
       7
100
AcDbCircle
 10
-216.47910259
 20
419.51508975
 30
0.0
 40
0.3169996
100
AcDbArc
 50
190.64764618
 51
292.13143044
  0
ARC
  5
9D
100
AcDbEntity
  8
0
  6
CONTINUOUS
 62
       7
100
AcDbCircle
 10
-216.59740937
 20
419.80598631
 30
0.0
 40
0.63103352
100
AcDbArc
 50
292.13143044
 51
370.64764925
  0
ARC
  5
9E
100
AcDbEntity
  8
0
  6
CONTINUOUS
 62
       7
100
AcDbCircle
 10
-216.28878248
 20
419.86400995
 30
0.0
 40
0.3169996
100
AcDbArc
 50
10.64764925
 51
112.13143351
  0
ARC
  5
9F
100
AcDbEntity
  8
0
  6
CONTINUOUS
 62
       7
100
AcDbCircle
 10
-216.1704757
 20
419.5731134
 30
0.0
 40
0.63103352
100
AcDbArc
 50
112.13143351
 51
190.64764618
  0
ENDBLK
  5
A0
100
AcDbEntity
  8
0
100
AcDbBlockEnd
  0
BLOCK
  5
A1
100
AcDbEntity
  8
0
100
AcDbBlockBegin
  2
GROUP_18
 70
       0
 10
0.0
 20
0.0
 30
0.0
  3
GROUP_18
  1

  0
ARC
  5
A2
100
AcDbEntity
  8
0
  6
CONTINUOUS
 62
       7
100
AcDbCircle
 10
-216.68796827
 20
419.13216934
 30
0.0
 40
1.01277828
100
AcDbArc
 50
190.64764618
 51
211.08494823
  0
ARC
  5
A3
100
AcDbEntity
  8
0
  6
CONTINUOUS
 62
       7
100
AcDbCircle
 10
-217.06594519
 20
420.0615513
 30
0.0
 40
2.01608152
100
AcDbArc
 50
312.59843321
 51
370.64764925
  0
ARC
  5
A4
100
AcDbEntity
  8
0
  6
CONTINUOUS
 62
       7
100
AcDbCircle
 10
-216.0799168
 20
420.24693036
 30
0.0
 40
1.01277828
100
AcDbArc
 50
10.64764925
 51
112.13143351
  0
ARC
  5
A5
100
AcDbEntity
  8
0
  6
CONTINUOUS
 62
       7
100
AcDbCircle
 10
-215.70193988
 20
419.3175484
 30
0.0
 40
2.01608152
100
AcDbArc
 50
112.13143351
 51
190.64764618
  0
ENDBLK
  5
A6
100
AcDbEntity
  8
0
100
AcDbBlockEnd
  0
ENDSEC
  0
SECTION
  2
ENTITIES
  0
LINE
  5
A7
100
AcDbEntity
  8
240
  6
CONTINUOUS
 62
       7
100
AcDbLine
 10
15.58616015
 20
-232.11162988
 30
0.0
 11
271.18616015
 21
-232.11162988
 31
0.0
  0
LINE
  5
A8
100
AcDbEntity
  8
240
  6
CONTINUOUS
 62
       7
100
AcDbLine
 10
79.79946831
 20
-285.15606112
 30
0.0
 11
84.59946831
 21
-285.15606112
 31
0.0
  0
LINE
  5
A9
100
AcDbEntity
  8
240
  6
CONTINUOUS
 62
       7
100
AcDbLine
 10
82.19946831
 20
-287.55606112
 30
0.0
 11
82.19946831
 21
-282.75606112
 31
0.0
  0
CIRCLE
  5
AA
100
AcDbEntity
  8
240
  6
CONTINUOUS
 62
       7
100
AcDbCircle
 10
82.19946831
 20
-285.15606112
 30
0.0
 40
3.9
  0
LINE
  5
AB
100
AcDbEntity
  8
240
  6
CONTINUOUS
 62
       7
100
AcDbLine
 10
79.79946831
 20
-255.15606112
 30
0.0
 11
84.59946831
 21
-255.15606112
 31
0.0
  0
LINE
  5
AC
100
AcDbEntity
  8
240
  6
CONTINUOUS
 62
       7
100
AcDbLine
 10
82.19946831
 20
-257.55606112
 30
0.0
 11
82.19946831
 21
-252.75606112
 31
0.0
  0
CIRCLE
  5
AD
100
AcDbEntity
  8
240
  6
CONTINUOUS
 62
       7
100
AcDbCircle
 10
82.19946831
 20
-255.15606112
 30
0.0
 40
3.9
  0
LINE
  5
AE
100
AcDbEntity
  8
240
  6
CONTINUOUS
 62
       7
100
AcDbLine
 10
87.59946831
 20
-285.15606112
 30
0.0
 11
92.39946831
 21
-285.15606112
 31
0.0
  0
CIRCLE
  5
AF
100
AcDbEntity
  8
240
  6
CONTINUOUS
 62
       7
100
AcDbCircle
 10
89.99946831
 20
-285.15606112
 30
0.0
 40
3.9
  0
CIRCLE
  5
B0
100
AcDbEntity
  8
240
  6
CONTINUOUS
 62
       7
100
AcDbCircle
 10
82.19946831
 20
-270.15606112
 30
0.0
 40
3.9
  0
LINE
  5
B1
100
AcDbEntity
  8
240
  6
CONTINUOUS
 62
       7
100
AcDbLine
 10
87.59946831
 20
-270.15606112
 30
0.0
 11
92.39946831
 21
-270.15606112
 31
0.0
  0
CIRCLE
  5
B2
100
AcDbEntity
  8
240
  6
CONTINUOUS
 62
       7
100
AcDbCircle
 10
89.99946831
 20
-270.15606112
 30
0.0
 40
3.9
  0
LINE
  5
B3
100
AcDbEntity
  8
240
  6
CONTINUOUS
 62
       7
100
AcDbLine
 10
79.79946831
 20
-270.15606112
 30
0.0
 11
84.59946831
 21
-270.15606112
 31
0.0
  0
LINE
  5
B4
100
AcDbEntity
  8
240
  6
CONTINUOUS
 62
       7
100
AcDbLine
 10
82.19946831
 20
-272.55606112
 30
0.0
 11
82.19946831
 21
-267.75606112
 31
0.0
  0
TEXT
  5
B5
100
AcDbEntity
  8
240
 62
       7
100
AcDbText
 10
18.58616015
 20
-229.11162988
 30
0.0
 40
12.0
  1
※L=350,400,500,600,800,850
 41
0.8
 72
       5
 11
268.18616015
 21
-229.11162988
 31
0.0
100
AcDbText
  0
TEXT
  5
B6
100
AcDbEntity
  8
240
 62
       7
100
AcDbText
 10
-104.04712473
 20
406.09166442
 30
0.0
 40
18.0
  1
樹脂ニギリバ-
 41
0.8
 72
       5
 11
-3.24712473
 21
406.09166442
 31
0.0
100
AcDbText
  0
TEXT
  5
B7
100
AcDbEntity
  8
240
 62
       7
100
AcDbText
 10
105.62366015
 20
-414.26787988
 30
0.0
 40
18.0
  1
R7107(色:W)
 41
0.8
 72
       5
 11
249.62366015
 21
-414.26787988
 31
0.0
100
AcDbText
  0
TEXT
  5
B8
100
AcDbEntity
  8
240
 62
       7
100
AcDbText
 10
77.80047807
 20
-365.61162988
 30
0.0
 40
12.0
  1
表面:ABS樹脂
 41
0.8
 72
       5
 11
154.60047807
 21
-365.61162988
 31
0.0
100
AcDbText
  0
TEXT
  5
B9
100
AcDbEntity
  8
240
 62
       7
100
AcDbText
 10
49.63616015
 20
-290.61162988
 30
0.0
 40
12.0
  1
2
 41
0.8
 72
       5
 11
59.23616015
 21
-290.61162988
 31
0.0
100
AcDbText
  0
TEXT
  5
BA
100
AcDbEntity
  8
240
 62
       7
100
AcDbText
 10
49.63616015
 20
-305.61162988
 30
0.0
 40
12.0
  1
2
 41
0.8
 72
       5
 11
59.23616015
 21
-305.61162988
 31
0.0
100
AcDbText
  0
TEXT
  5
BB
100
AcDbEntity
  8
240
 62
       7
100
AcDbText
 10
49.63616015
 20
-335.61162988
 30
0.0
 40
12.0
  1
2
 41
0.8
 72
       5
 11
59.23616015
 21
-335.61162988
 31
0.0
100
AcDbText
  0
TEXT
  5
BC
100
AcDbEntity
  8
240
 62
       7
100
AcDbText
 10
49.63616015
 20
-350.61162988
 30
0.0
 40
12.0
  1
1
 41
0.8
 72
       5
 11
59.23616015
 21
-350.61162988
 31
0.0
100
AcDbText
  0
TEXT
  5
BD
100
AcDbEntity
  8
240
 62
       7
100
AcDbText
 10
49.63616015
 20
-365.61162988
 30
0.0
 40
12.0
  1
2
 41
0.8
 72
       5
 11
59.23616015
 21
-365.61162988
 31
0.0
100
AcDbText
  0
TEXT
  5
BE
100
AcDbEntity
  8
240
 62
       7
100
AcDbText
 10
-114.94952193
 20
-365.61162988
 30
0.0
 40
12.0
  1
POM
 41
0.8
 72
       5
 11
-86.14952193
 21
-365.61162988
 31
0.0
100
AcDbText
  0
TEXT
  5
BF
100
AcDbEntity
  8
240
 62
       7
100
AcDbText
 10
-114.94952193
 20
-305.61162988
 30
0.0
 40
12.0
  1
PP
 41
0.8
 72
       5
 11
-95.74952193
 21
-305.61162988
 31
0.0
100
AcDbText
  0
TEXT
  5
C0
100
AcDbEntity
  8
240
 62
       7
100
AcDbText
 10
-114.94952193
 20
-290.61162988
 30
0.0
 40
12.0
  1
SUS304
 41
0.8
 72
       5
 11
-57.34952193
 21
-290.61162988
 31
0.0
100
AcDbText
  0
TEXT
  5
C1
100
AcDbEntity
  8
240
 62
       7
100
AcDbText
 10
-254.63702193
 20
-305.61162988
 30
0.0
 40
12.0
  1
パッキン
 41
0.8
 72
       5
 11
-216.23702193
 21
-305.61162988
 31
0.0
100
AcDbText
  0
TEXT
  5
C2
100
AcDbEntity
  8
240
 62
       7
100
AcDbText
 10
-254.63702193
 20
-335.61162988
 30
0.0
 40
12.0
  1
取付座A
 41
0.8
 72
       5
 11
-216.23702193
 21
-335.61162988
 31
0.0
100
AcDbText
  0
TEXT
  5
C3
100
AcDbEntity
  8
240
 62
       7
100
AcDbText
 10
-254.63702193
 20
-350.61162988
 30
0.0
 40
12.0
  1
パイプ
 41
0.8
 72
       5
 11
-225.83702193
 21
-350.61162988
 31
0.0
100
AcDbText
  0
TEXT
  5
C4
100
AcDbEntity
  8
240
 62
       7
100
AcDbText
 10
107.49866015
 20
406.09166442
 30
0.0
 40
18.0
  1
R7107(色:W)
 41
0.8
 72
       5
 11
251.49866015
 21
406.09166442
 31
0.0
100
AcDbText
  0
TEXT
  5
C5
100
AcDbEntity
  8
240
 62
       7
100
AcDbText
 10
-75.18258985
 20
-414.26787988
 30
0.0
 40
18.0
  1
樹脂ニギリバ-
 41
0.8
 72
       5
 11
25.61741015
 21
-414.26787988
 31
0.0
100
AcDbText
  0
TEXT
  5
C6
100
AcDbEntity
  8
240
 62
       7
100
AcDbText
 10
77.69946831
 20
-290.61162988
 30
0.0
 40
12.0
  1
　　六角タッピンネジ
 41
0.8
 72
       5
 11
173.69946831
 21
-290.61162988
 31
0.0
100
AcDbText
  0
TEXT
  5
C7
100
AcDbEntity
  8
240
 62
       7
100
AcDbText
 10
86.36506712
 20
-275.61162988
 30
0.0
 40
12.0
  1
　六角ボルト
 41
0.8
 72
       5
 11
143.96506712
 21
-275.61162988
 31
0.0
100
AcDbText
  0
TEXT
  5
C8
100
AcDbEntity
  8
240
 62
       7
100
AcDbText
 10
-114.94952193
 20
-335.61162988
 30
0.0
 40
12.0
  1
POM
 41
0.8
 72
       5
 11
-86.14952193
 21
-335.61162988
 31
0.0
100
AcDbText
  0
TEXT
  5
C9
100
AcDbEntity
  8
240
 62
       7
100
AcDbText
 10
-254.63702193
 20
-290.61162988
 30
0.0
 40
12.0
  1
Aタ イプ取付ネジ　６Ｘ６０
 41
0.8
 72
       5
 11
-129.83702193
 21
-290.61162988
 31
0.0
100
AcDbText
  0
TEXT
  5
CA
100
AcDbEntity
  8
240
 62
       7
100
AcDbText
 10
-254.63702193
 20
-365.61162988
 30
0.0
 40
12.0
  1
サイドブラケット
 41
0.8
 72
       5
 11
-177.83702193
 21
-365.61162988
 31
0.0
100
AcDbText
  0
TEXT
  5
CB
100
AcDbEntity
  8
240
 62
       7
100
AcDbText
 10
-254.63702193
 20
-275.61162988
 30
0.0
 40
12.0
  1
Bタ イプ取付ネジ　Ｍ６Ｘ５０
 41
0.75
 72
       5
 11
-128.63702193
 21
-275.61162988
 31
0.0
100
AcDbText
  0
TEXT
  5
CC
100
AcDbEntity
  8
240
 62
       7
100
AcDbText
 10
-254.63702193
 20
-260.61162988
 30
0.0
 40
12.0
  1
Cタ イプ取付ネジ　４Ｘ４５
 41
0.8
 72
       5
 11
-129.83702193
 21
-260.61162988
 31
0.0
100
AcDbText
  0
TEXT
  5
CD
100
AcDbEntity
  8
240
 62
       7
100
AcDbText
 10
-114.94952193
 20
-260.61162988
 30
0.0
 40
12.0
  1
SUS304
 41
0.8
 72
       5
 11
-57.34952193
 21
-260.61162988
 31
0.0
100
AcDbText
  0
TEXT
  5
CE
100
AcDbEntity
  8
240
 62
       7
100
AcDbText
 10
-114.94952193
 20
-275.61162988
 30
0.0
 40
12.0
  1
SUS304
 41
0.8
 72
       5
 11
-57.34952193
 21
-275.61162988
 31
0.0
100
AcDbText
  0
TEXT
  5
CF
100
AcDbEntity
  8
240
 62
       7
100
AcDbText
 10
-114.94952193
 20
-350.61162988
 30
0.0
 40
12.0
  1
SUS304
 41
0.8
 72
       5
 11
-57.34952193
 21
-350.61162988
 31
0.0
100
AcDbText
  0
TEXT
  5
D0
100
AcDbEntity
  8
240
 62
       7
100
AcDbText
 10
49.63616015
 20
-260.61162988
 30
0.0
 40
12.0
  1
4
 41
0.8
 72
       5
 11
59.23616015
 21
-260.61162988
 31
0.0
100
AcDbText
  0
TEXT
  5
D1
100
AcDbEntity
  8
240
 62
       7
100
AcDbText
 10
49.63616015
 20
-275.61162988
 30
0.0
 40
12.0
  1
2
 41
0.8
 72
       5
 11
59.23616015
 21
-275.61162988
 31
0.0
100
AcDbText
  0
TEXT
  5
D2
100
AcDbEntity
  8
240
 62
       7
100
AcDbText
 10
77.80047807
 20
-350.61162988
 30
0.0
 40
12.0
  1
φ30 表面:PVC
 41
0.8
 72
       5
 11
173.80047807
 21
-350.61162988
 31
0.0
100
AcDbText
  0
TEXT
  5
D3
100
AcDbEntity
  8
240
 62
       7
100
AcDbText
 10
77.69946831
 20
-260.61162988
 30
0.0
 40
12.0
  1
　ナベタッピンネジ
 41
0.8
 72
       5
 11
164.09946831
 21
-260.61162988
 31
0.0
100
AcDbText
  0
TEXT
  5
D4
100
AcDbEntity
  8
240
 62
       7
100
AcDbText
 10
-114.94952193
 20
-320.61162988
 30
0.0
 40
12.0
  1
POM
 41
0.8
 72
       5
 11
-86.14952193
 21
-320.61162988
 31
0.0
100
AcDbText
  0
TEXT
  5
D5
100
AcDbEntity
  8
240
 62
       7
100
AcDbText
 10
49.63616015
 20
-320.61162988
 30
0.0
 40
12.0
  1
2
 41
0.8
 72
       5
 11
59.23616015
 21
-320.61162988
 31
0.0
100
AcDbText
  0
TEXT
  5
D6
100
AcDbEntity
  8
240
 62
       7
100
AcDbText
 10
-254.63702193
 20
-320.61162988
 30
0.0
 40
12.0
  1
取付座B
 41
0.8
 72
       5
 11
-216.23702193
 21
-320.61162988
 31
0.0
100
AcDbText
  0
LINE
  5
D7
100
AcDbEntity
  8
0
  6
CENTER
 62
       7
100
AcDbLine
 10
-38.8527726
 20
-83.0
 30
0.0
 11
-38.8527726
 21
237.0
 31
0.0
  0
LINE
  5
D8
100
AcDbEntity
  8
0
  6
CENTER
 62
       7
100
AcDbLine
 10
1.1472274
 20
-123.0
 30
0.0
 11
30.4472274
 21
-123.0
 31
0.0
  0
LINE
  5
D9
100
AcDbEntity
  8
0
  6
CENTER
 62
       7
100
AcDbLine
 10
-200.51380879
 20
-123.0
 30
0.0
 11
-119.59480123
 21
-123.0
 31
0.0
  0
LINE
  5
DA
100
AcDbEntity
  8
0
  6
CENTER
 62
       7
100
AcDbLine
 10
-200.51380879
 20
277.0
 30
0.0
 11
-119.59480123
 21
277.0
 31
0.0
  0
LINE
  5
DB
100
AcDbEntity
  8
0
  6
CENTER
 62
       7
100
AcDbLine
 10
-160.05430501
 20
-163.45950378
 30
0.0
 11
-160.05430501
 21
317.45950378
 31
0.0
  0
LINE
  5
DC
100
AcDbEntity
  8
0
  6
CENTER
 62
       7
100
AcDbLine
 10
1.1472274
 20
277.0
 30
0.0
 11
30.4472274
 21
277.0
 31
0.0
  0
ARC
  5
DD
100
AcDbEntity
  8
0
  6
CENTER
 62
       7
100
AcDbCircle
 10
1.1472274
 20
237.0
 30
0.0
 40
40.0
100
AcDbArc
 50
90.00000154
 51
180.00000307
  0
ARC
  5
DE
100
AcDbEntity
  8
0
  6
CENTER
 62
       7
100
AcDbCircle
 10
1.1472274
 20
-83.0
 30
0.0
 40
40.0
100
AcDbArc
 50
180.00000307
 51
269.99999846
  0
ARC
  5
DF
100
AcDbEntity
  8
0
  6
CONTINUOUS
 62
       7
100
AcDbCircle
 10
-152.55430501
 20
92.375
 30
0.0
 40
10.875
100
AcDbArc
 50
226.39717875
 51
313.60281818
  0
ARC
  5
E0
100
AcDbEntity
  8
0
  6
CONTINUOUS
 62
       7
100
AcDbCircle
 10
-152.55430501
 20
76.625
 30
0.0
 40
10.875
100
AcDbArc
 50
46.39718182
 51
133.60282125
  0
ARC
  5
E1
100
AcDbEntity
  8
0
  6
CONTINUOUS
 62
       7
100
AcDbCircle
 10
-167.55430501
 20
92.375
 30
0.0
 40
10.875
100
AcDbArc
 50
226.39717875
 51
313.60281818
  0
ARC
  5
E2
100
AcDbEntity
  8
0
  6
CONTINUOUS
 62
       7
100
AcDbCircle
 10
-167.55430501
 20
77.375
 30
0.0
 40
10.875
100
AcDbArc
 50
226.39717875
 51
313.60281818
  0
ARC
  5
E3
100
AcDbEntity
  8
0
  6
CONTINUOUS
 62
       7
100
AcDbCircle
 10
-167.55430501
 20
61.625
 30
0.0
 40
10.875
100
AcDbArc
 50
46.39718182
 51
133.60282125
  0
ARC
  5
E4
100
AcDbEntity
  8
0
  6
CONTINUOUS
 62
       7
100
AcDbCircle
 10
-152.55430501
 20
61.625
 30
0.0
 40
10.875
100
AcDbArc
 50
46.39718182
 51
133.60282125
  0
ARC
  5
E5
100
AcDbEntity
  8
0
  6
CONTINUOUS
 62
       7
100
AcDbCircle
 10
-31.3527726
 20
92.375
 30
0.0
 40
10.875
100
AcDbArc
 50
226.39717875
 51
313.60281818
  0
ARC
  5
E6
100
AcDbEntity
  8
0
  6
CONTINUOUS
 62
       7
100
AcDbCircle
 10
-31.3527726
 20
76.625
 30
0.0
 40
10.875
100
AcDbArc
 50
46.39718182
 51
133.60282125
  0
ARC
  5
E7
100
AcDbEntity
  8
0
  6
CONTINUOUS
 62
       7
100
AcDbCircle
 10
-46.3527726
 20
92.375
 30
0.0
 40
10.875
100
AcDbArc
 50
226.39717875
 51
313.60281818
  0
ARC
  5
E8
100
AcDbEntity
  8
0
  6
CONTINUOUS
 62
       7
100
AcDbCircle
 10
-46.3527726
 20
77.375
 30
0.0
 40
10.875
100
AcDbArc
 50
226.39717875
 51
313.60281818
  0
ARC
  5
E9
100
AcDbEntity
  8
0
  6
CONTINUOUS
 62
       7
100
AcDbCircle
 10
-46.3527726
 20
61.625
 30
0.0
 40
10.875
100
AcDbArc
 50
46.39718182
 51
133.60282125
  0
ARC
  5
EA
100
AcDbEntity
  8
0
  6
CONTINUOUS
 62
       7
100
AcDbCircle
 10
-31.3527726
 20
61.625
 30
0.0
 40
10.875
100
AcDbArc
 50
46.39718182
 51
133.60282125
  0
POINT
  5
EB
100
AcDbEntity
  8
0
  6
CONTINUOUS
 62
       7
100
AcDbPoint
 10
-53.64712473
 20
415.09166442
 30
0.0
  0
POINT
  5
EC
100
AcDbEntity
  8
0
  6
CONTINUOUS
 62
       7
100
AcDbPoint
 10
177.62366015
 20
-405.26787988
 30
0.0
  0
POINT
  5
ED
100
AcDbEntity
  8
0
  6
CONTINUOUS
 62
       7
100
AcDbPoint
 10
-24.78258985
 20
-405.26787988
 30
0.0
  0
POINT
  5
EE
100
AcDbEntity
  8
0
  6
CONTINUOUS
 62
       7
100
AcDbPoint
 10
54.43616015
 20
-359.61162988
 30
0.0
  0
POINT
  5
EF
100
AcDbEntity
  8
0
  6
CONTINUOUS
 62
       7
100
AcDbPoint
 10
-254.63702193
 20
-359.61162988
 30
0.0
  0
POINT
  5
F0
100
AcDbEntity
  8
0
  6
CONTINUOUS
 62
       7
100
AcDbPoint
 10
-114.94952193
 20
-359.61162988
 30
0.0
  0
POINT
  5
F1
100
AcDbEntity
  8
0
  6
CONTINUOUS
 62
       7
100
AcDbPoint
 10
77.80047807
 20
-359.61162988
 30
0.0
  0
LINE
  5
F2
100
AcDbEntity
  8
0
  6
CONTINUOUS
 62
       7
100
AcDbLine
 10
-323.93883985
 20
445.5
 30
0.0
 11
-323.93883985
 21
460.5
 31
0.0
  0
LINE
  5
F3
100
AcDbEntity
  8
0
  6
CONTINUOUS
 62
       7
100
AcDbLine
 10
-323.93883985
 20
445.5
 30
0.0
 11
-338.93883985
 21
445.5
 31
0.0
  0
LINE
  5
F4
100
AcDbEntity
  8
0
  6
CONTINUOUS
 62
       7
100
AcDbLine
 10
-323.93883985
 20
-445.5
 30
0.0
 11
-323.93883985
 21
-460.5
 31
0.0
  0
LINE
  5
F5
100
AcDbEntity
  8
0
  6
CONTINUOUS
 62
       7
100
AcDbLine
 10
-323.93883985
 20
-445.5
 30
0.0
 11
-338.93883985
 21
-445.5
 31
0.0
  0
LINE
  5
F6
100
AcDbEntity
  8
0
  6
CONTINUOUS
 62
       7
100
AcDbLine
 10
306.06116015
 20
-445.5
 30
0.0
 11
306.06116015
 21
-460.5
 31
0.0
  0
LINE
  5
F7
100
AcDbEntity
  8
0
  6
CONTINUOUS
 62
       7
100
AcDbLine
 10
306.06116015
 20
-445.5
 30
0.0
 11
321.06116015
 21
-445.5
 31
0.0
  0
LINE
  5
F8
100
AcDbEntity
  8
0
  6
CONTINUOUS
 62
       7
100
AcDbLine
 10
306.06116015
 20
445.5
 30
0.0
 11
321.06116015
 21
445.5
 31
0.0
  0
LINE
  5
F9
100
AcDbEntity
  8
0
  6
CONTINUOUS
 62
       7
100
AcDbLine
 10
306.06116015
 20
445.5
 30
0.0
 11
306.06116015
 21
460.5
 31
0.0
  0
LINE
  5
FA
100
AcDbEntity
  8
0
  6
CONTINUOUS
 62
       7
100
AcDbLine
 10
-135.55430501
 20
-129.92360692
 30
0.0
 11
-135.55430501
 21
-116.07639308
 31
0.0
  0
LINE
  5
FB
100
AcDbEntity
  8
0
  6
CONTINUOUS
 62
       7
100
AcDbLine
 10
-184.55430501
 20
-129.92360692
 30
0.0
 11
-184.55430501
 21
-116.07639308
 31
0.0
  0
LINE
  5
FC
100
AcDbEntity
  8
0
  6
CONTINUOUS
 62
       7
100
AcDbLine
 10
-166.30828553
 20
-147.67942585
 30
0.0
 11
-178.30032449
 21
-140.75581893
 31
0.0
  0
LINE
  5
FD
100
AcDbEntity
  8
0
  6
CONTINUOUS
 62
       7
100
AcDbLine
 10
-141.80828553
 20
-140.75581893
 30
0.0
 11
-153.80032449
 21
-147.67942585
 31
0.0
  0
ARC
  5
FE
100
AcDbEntity
  8
0
  6
CONTINUOUS
 62
       7
100
AcDbCircle
 10
-160.05430501
 20
-123.0
 30
0.0
 40
25.45950378
100
AcDbArc
 50
315.78008961
 51
344.21990937
  0
ARC
  5
FF
100
AcDbEntity
  8
0
  6
CONTINUOUS
 62
       7
100
AcDbCircle
 10
-160.05430501
 20
-123.0
 30
0.0
 40
25.45950378
100
AcDbArc
 50
195.78008756
 51
224.21990732
  0
ARC
  5
100
100
AcDbEntity
  8
0
  6
CONTINUOUS
 62
       7
100
AcDbCircle
 10
-160.05430501
 20
-123.0
 30
0.0
 40
25.45950378
100
AcDbArc
 50
255.78008859
 51
284.21990834
  0
ARC
  5
101
100
AcDbEntity
  8
0
  6
CONTINUOUS
 62
       7
100
AcDbCircle
 10
-160.05430501
 20
-123.0
 30
0.0
 40
24.0
100
AcDbArc
 50
153.76714355
 51
386.23285953
  0
ARC
  5
102
100
AcDbEntity
  8
0
  6
CONTINUOUS
 62
       7
100
AcDbCircle
 10
-160.05430501
 20
-123.0
 30
0.0
 40
25.45950378
100
AcDbArc
 50
137.28277169
 51
164.21991244
  0
ARC
  5
103
100
AcDbEntity
  8
0
  6
CONTINUOUS
 62
       7
100
AcDbCircle
 10
-160.05430501
 20
-123.0
 30
0.0
 40
25.45950378
100
AcDbArc
 50
15.78009063
 51
42.71723138
  0
LINE
  5
104
100
AcDbEntity
  8
0
  6
CONTINUOUS
 62
       7
100
AcDbLine
 10
-175.05430501
 20
-68.0
 30
0.0
 11
-145.05430501
 21
-68.0
 31
0.0
  0
ARC
  5
105
100
AcDbEntity
  8
0
  6
CONTINUOUS
 62
       7
100
AcDbCircle
 10
-174.77591679
 20
-68.75
 30
0.0
 40
0.8
100
AcDbArc
 50
110.36413669
 51
249.63586331
  0
ARC
  5
106
100
AcDbEntity
  8
0
  6
CONTINUOUS
 62
       7
100
AcDbCircle
 10
-145.33269323
 20
-68.75
 30
0.0
 40
0.8
100
AcDbArc
 50
290.36413362
 51
429.63586638
  0
LINE
  5
107
100
AcDbEntity
  8
0
  6
CONTINUOUS
 62
       7
100
AcDbLine
 10
-175.05430501
 20
-69.5
 30
0.0
 11
-145.05430501
 21
-69.5
 31
0.0
  0
ARC
  5
108
100
AcDbEntity
  8
0
  6
CONTINUOUS
 62
       7
100
AcDbCircle
 10
-238.43720373
 20
-84.37497991
 30
0.0
 40
63.38289872
100
AcDbArc
 50
333.76714047
 51
360.0
  0
ARC
  5
109
100
AcDbEntity
  8
0
  6
CONTINUOUS
 62
       7
100
AcDbCircle
 10
-81.67140629
 20
-84.37497991
 30
0.0
 40
63.38289872
100
AcDbArc
 50
180.00000307
 51
206.23285645
  0
LINE
  5
10A
100
AcDbEntity
  8
0
  6
CONTINUOUS
 62
       7
100
AcDbLine
 10
-175.05430501
 20
-69.5
 30
0.0
 11
-175.05430501
 21
-84.37497991
 31
0.0
  0
LINE
  5
10B
100
AcDbEntity
  8
0
  6
CONTINUOUS
 62
       7
100
AcDbLine
 10
-145.05430501
 20
-69.5
 30
0.0
 11
-145.05430501
 21
-84.37497991
 31
0.0
  0
LINE
  5
10C
100
AcDbEntity
  8
0
  6
CONTINUOUS
 62
       7
100
AcDbLine
 10
15.4472274
 20
-123.0
 30
0.0
 11
15.4472274
 21
-99.0
 31
0.0
  0
LINE
  5
10D
100
AcDbEntity
  8
0
  6
CONTINUOUS
 62
       7
100
AcDbLine
 10
0.4472274
 20
-99.0
 30
0.0
 11
0.4472274
 21
-123.0
 31
0.0
  0
ARC
  5
10E
100
AcDbEntity
  8
0
  6
CONTINUOUS
 62
       7
100
AcDbCircle
 10
7.9472274
 20
-117.54049622
 30
0.0
 40
20.0
100
AcDbArc
 50
67.97568832
 51
112.02431475
  0
ARC
  5
10F
100
AcDbEntity
  8
0
  6
CONTINUOUS
 62
       7
100
AcDbCircle
 10
7.82654405
 20
-121.89748487
 30
0.0
 40
5.81389943
100
AcDbArc
 50
48.99403135
 51
143.31713031
  0
ARC
  5
110
100
AcDbEntity
  8
0
  6
CONTINUOUS
 62
       7
100
AcDbCircle
 10
9.13244218
 20
-122.8702642
 30
0.0
 40
7.4422942
100
AcDbArc
 50
143.31713031
 51
229.10524687
  0
ARC
  5
111
100
AcDbEntity
  8
0
  6
CONTINUOUS
 62
       7
100
AcDbCircle
 10
8.06791074
 20
-124.10251513
 30
0.0
 40
5.81389943
100
AcDbArc
 50
229.08528061
 51
323.20031638
  0
ARC
  5
112
100
AcDbEntity
  8
0
  6
CONTINUOUS
 62
       7
100
AcDbCircle
 10
6.76201261
 20
-123.1297358
 30
0.0
 40
7.4422942
100
AcDbArc
 50
323.22587491
 51
409.03396385
  0
ARC
  5
113
100
AcDbEntity
  8
0
  6
CONTINUOUS
 62
       7
100
AcDbCircle
 10
3.96806268
 20
-101.78026634
 30
0.0
 40
2.27083529
100
AcDbArc
 50
123.09481936
 51
236.72267598
  0
ARC
  5
114
100
AcDbEntity
  8
0
  6
CONTINUOUS
 62
       7
100
AcDbCircle
 10
7.9472274
 20
-95.71733875
 30
0.0
 40
9.52292759
100
AcDbArc
 50
236.72267598
 51
303.25556094
  0
ARC
  5
115
100
AcDbEntity
  8
0
  6
CONTINUOUS
 62
       7
100
AcDbCircle
 10
11.92639211
 20
-101.78026634
 30
0.0
 40
2.27083529
100
AcDbArc
 50
303.18606862
 51
416.340009
  0
ARC
  5
116
100
AcDbEntity
  8
0
  6
CONTINUOUS
 62
       7
100
AcDbCircle
 10
7.9472274
 20
-107.84319393
 30
0.0
 40
9.52292759
100
AcDbArc
 50
56.63142672
 51
123.23380402
  0
LINE
  5
117
100
AcDbEntity
  8
0
  6
CONTINUOUS
 62
       7
100
AcDbLine
 10
0.4472274
 20
-147.0
 30
0.0
 11
0.4472274
 21
-123.0
 31
0.0
  0
LINE
  5
118
100
AcDbEntity
  8
0
  6
CONTINUOUS
 62
       7
100
AcDbLine
 10
15.4472274
 20
-123.0
 30
0.0
 11
15.4472274
 21
-147.0
 31
0.0
  0
ARC
  5
119
100
AcDbEntity
  8
0
  6
CONTINUOUS
 62
       7
100
AcDbCircle
 10
7.9472274
 20
-128.45950378
 30
0.0
 40
20.0
100
AcDbArc
 50
247.97568525
 51
292.02431168
  0
ARC
  5
11A
100
AcDbEntity
  8
0
  6
CONTINUOUS
 62
       7
100
AcDbCircle
 10
3.96806268
 20
-144.21973366
 30
0.0
 40
2.27083529
100
AcDbArc
 50
123.27732402
 51
236.90518064
  0
ARC
  5
11B
100
AcDbEntity
  8
0
  6
CONTINUOUS
 62
       7
100
AcDbCircle
 10
7.9472274
 20
-150.28266125
 30
0.0
 40
9.52292759
100
AcDbArc
 50
56.74443906
 51
123.27732402
  0
ARC
  5
11C
100
AcDbEntity
  8
0
  6
CONTINUOUS
 62
       7
100
AcDbCircle
 10
11.92639211
 20
-144.21973366
 30
0.0
 40
2.27083529
100
AcDbArc
 50
303.659991
 51
416.81393138
  0
ARC
  5
11D
100
AcDbEntity
  8
0
  6
CONTINUOUS
 62
       7
100
AcDbCircle
 10
7.9472274
 20
-138.15680607
 30
0.0
 40
9.52292759
100
AcDbArc
 50
236.76619598
 51
303.36857328
  0
LINE
  5
11E
100
AcDbEntity
  8
0
  6
CONTINUOUS
 62
       7
100
AcDbLine
 10
-53.8527726
 20
-68.0
 30
0.0
 11
-23.8527726
 21
-68.0
 31
0.0
  0
ARC
  5
11F
100
AcDbEntity
  8
0
  6
CONTINUOUS
 62
       7
100
AcDbCircle
 10
-53.57438439
 20
-68.75
 30
0.0
 40
0.8
100
AcDbArc
 50
110.36413669
 51
249.63586331
  0
ARC
  5
120
100
AcDbEntity
  8
0
  6
CONTINUOUS
 62
       7
100
AcDbCircle
 10
-24.13116082
 20
-68.75
 30
0.0
 40
0.8
100
AcDbArc
 50
290.36413362
 51
429.63586638
  0
ARC
  5
121
100
AcDbEntity
  8
0
  6
CONTINUOUS
 62
       7
100
AcDbCircle
 10
0.1472274
 20
-93.0
 30
0.0
 40
54.0
100
AcDbArc
 50
180.00000307
 51
269.6891457
  0
LINE
  5
122
100
AcDbEntity
  8
0
  6
CONTINUOUS
 62
       7
100
AcDbLine
 10
-53.8527726
 20
-69.5
 30
0.0
 11
-23.8527726
 21
-69.5
 31
0.0
  0
LINE
  5
123
100
AcDbEntity
  8
0
  6
CONTINUOUS
 62
       7
100
AcDbLine
 10
0.4472274
 20
-99.0
 30
0.0
 11
-3.8527726
 21
-99.0
 31
0.0
  0
LINE
  5
124
100
AcDbEntity
  8
0
  6
CONTINUOUS
 62
       7
100
AcDbLine
 10
-23.8527726
 20
-69.5
 30
0.0
 11
-23.8527726
 21
-79.0
 31
0.0
  0
ARC
  5
125
100
AcDbEntity
  8
0
  6
CONTINUOUS
 62
       7
100
AcDbCircle
 10
-3.8527726
 20
-79.0
 30
0.0
 40
20.0
100
AcDbArc
 50
180.00000307
 51
269.99999846
  0
LINE
  5
126
100
AcDbEntity
  8
0
  6
CONTINUOUS
 62
       7
100
AcDbLine
 10
-53.8527726
 20
-93.0
 30
0.0
 11
-53.8527726
 21
-69.5
 31
0.0
  0
LINE
  5
127
100
AcDbEntity
  8
0
  6
CONTINUOUS
 62
       7
100
AcDbLine
 10
-0.14574299
 20
-146.99920526
 30
0.0
 11
0.4472274
 21
-147.0
 31
0.0
  0
LINE
  5
128
100
AcDbEntity
  8
0
  6
CONTINUOUS
 62
       7
100
AcDbLine
 10
-135.55430501
 20
283.92360692
 30
0.0
 11
-135.55430501
 21
270.07639308
 31
0.0
  0
LINE
  5
129
100
AcDbEntity
  8
0
  6
CONTINUOUS
 62
       7
100
AcDbLine
 10
-184.55430501
 20
283.92360692
 30
0.0
 11
-184.55430501
 21
270.07639308
 31
0.0
  0
LINE
  5
12A
100
AcDbEntity
  8
0
  6
CONTINUOUS
 62
       7
100
AcDbLine
 10
-166.30828553
 20
301.67942585
 30
0.0
 11
-178.30032449
 21
294.75581893
 31
0.0
  0
LINE
  5
12B
100
AcDbEntity
  8
0
  6
CONTINUOUS
 62
       7
100
AcDbLine
 10
-141.80828553
 20
294.75581893
 30
0.0
 11
-153.80032449
 21
301.67942585
 31
0.0
  0
ARC
  5
12C
100
AcDbEntity
  8
0
  6
CONTINUOUS
 62
       7
100
AcDbCircle
 10
-160.05430501
 20
277.0
 30
0.0
 40
25.45950378
100
AcDbArc
 50
15.78009063
 51
44.21991039
  0
ARC
  5
12D
100
AcDbEntity
  8
0
  6
CONTINUOUS
 62
       7
100
AcDbCircle
 10
-160.05430501
 20
277.0
 30
0.0
 40
25.45950378
100
AcDbArc
 50
135.78009268
 51
164.21991244
  0
ARC
  5
12E
100
AcDbEntity
  8
0
  6
CONTINUOUS
 62
       7
100
AcDbCircle
 10
-160.05430501
 20
277.0
 30
0.0
 40
25.45950378
100
AcDbArc
 50
75.78009166
 51
104.21991141
  0
ARC
  5
12F
100
AcDbEntity
  8
0
  6
CONTINUOUS
 62
       7
100
AcDbCircle
 10
-160.05430501
 20
277.0
 30
0.0
 40
24.0
100
AcDbArc
 50
333.76714047
 51
566.23285645
  0
ARC
  5
130
100
AcDbEntity
  8
0
  6
CONTINUOUS
 62
       7
100
AcDbCircle
 10
-160.05430501
 20
277.0
 30
0.0
 40
25.45950378
100
AcDbArc
 50
195.78008756
 51
222.71722831
  0
ARC
  5
131
100
AcDbEntity
  8
0
  6
CONTINUOUS
 62
       7
100
AcDbCircle
 10
-160.05430501
 20
277.0
 30
0.0
 40
25.45950378
100
AcDbArc
 50
317.28276862
 51
344.21990937
  0
LINE
  5
132
100
AcDbEntity
  8
0
  6
CONTINUOUS
 62
       7
100
AcDbLine
 10
-175.05430501
 20
222.0
 30
0.0
 11
-145.05430501
 21
222.0
 31
0.0
  0
ARC
  5
133
100
AcDbEntity
  8
0
  6
CONTINUOUS
 62
       7
100
AcDbCircle
 10
-174.77591679
 20
222.75
 30
0.0
 40
0.8
100
AcDbArc
 50
110.36413669
 51
249.63586331
  0
ARC
  5
134
100
AcDbEntity
  8
0
  6
CONTINUOUS
 62
       7
100
AcDbCircle
 10
-145.33269323
 20
222.75
 30
0.0
 40
0.8
100
AcDbArc
 50
290.36413362
 51
429.63586638
  0
LINE
  5
135
100
AcDbEntity
  8
0
  6
CONTINUOUS
 62
       7
100
AcDbLine
 10
-175.05430501
 20
223.5
 30
0.0
 11
-145.05430501
 21
223.5
 31
0.0
  0
ARC
  5
136
100
AcDbEntity
  8
0
  6
CONTINUOUS
 62
       7
100
AcDbCircle
 10
-238.43720373
 20
238.37497991
 30
0.0
 40
63.38289872
100
AcDbArc
 50
360.0
 51
386.23285953
  0
ARC
  5
137
100
AcDbEntity
  8
0
  6
CONTINUOUS
 62
       7
100
AcDbCircle
 10
-81.67140629
 20
238.37497991
 30
0.0
 40
63.38289872
100
AcDbArc
 50
153.76714355
 51
180.00000307
  0
LINE
  5
138
100
AcDbEntity
  8
0
  6
CONTINUOUS
 62
       7
100
AcDbLine
 10
-175.05430501
 20
223.5
 30
0.0
 11
-175.05430501
 21
238.37497991
 31
0.0
  0
LINE
  5
139
100
AcDbEntity
  8
0
  6
CONTINUOUS
 62
       7
100
AcDbLine
 10
-145.05430501
 20
223.5
 30
0.0
 11
-145.05430501
 21
238.37497991
 31
0.0
  0
LINE
  5
13A
100
AcDbEntity
  8
0
  6
CONTINUOUS
 62
       7
100
AcDbLine
 10
15.4472274
 20
301.0
 30
0.0
 11
15.4472274
 21
253.0
 31
0.0
  0
LINE
  5
13B
100
AcDbEntity
  8
0
  6
CONTINUOUS
 62
       7
100
AcDbLine
 10
0.4472274
 20
253.0
 30
0.0
 11
0.4472274
 21
301.0
 31
0.0
  0
ARC
  5
13C
100
AcDbEntity
  8
0
  6
CONTINUOUS
 62
       7
100
AcDbCircle
 10
7.9472274
 20
271.54049622
 30
0.0
 40
20.0
100
AcDbArc
 50
247.97568525
 51
292.02431168
  0
ARC
  5
13D
100
AcDbEntity
  8
0
  6
CONTINUOUS
 62
       7
100
AcDbCircle
 10
7.82654405
 20
275.89748487
 30
0.0
 40
5.81389943
100
AcDbArc
 50
216.68286969
 51
311.00596865
  0
ARC
  5
13E
100
AcDbEntity
  8
0
  6
CONTINUOUS
 62
       7
100
AcDbCircle
 10
9.13244218
 20
276.8702642
 30
0.0
 40
7.4422942
100
AcDbArc
 50
130.89475313
 51
216.68286969
  0
ARC
  5
13F
100
AcDbEntity
  8
0
  6
CONTINUOUS
 62
       7
100
AcDbCircle
 10
8.06791074
 20
278.10251513
 30
0.0
 40
5.81389943
100
AcDbArc
 50
36.79968362
 51
130.91471939
  0
ARC
  5
140
100
AcDbEntity
  8
0
  6
CONTINUOUS
 62
       7
100
AcDbCircle
 10
6.76201261
 20
277.1297358
 30
0.0
 40
7.4422942
100
AcDbArc
 50
310.96603615
 51
396.77412509
  0
ARC
  5
141
100
AcDbEntity
  8
0
  6
CONTINUOUS
 62
       7
100
AcDbCircle
 10
3.96806268
 20
255.78026634
 30
0.0
 40
2.27083529
100
AcDbArc
 50
123.27732402
 51
236.90518064
  0
ARC
  5
142
100
AcDbEntity
  8
0
  6
CONTINUOUS
 62
       7
100
AcDbCircle
 10
7.9472274
 20
249.71733875
 30
0.0
 40
9.52292759
100
AcDbArc
 50
56.74443906
 51
123.27732402
  0
ARC
  5
143
100
AcDbEntity
  8
0
  6
CONTINUOUS
 62
       7
100
AcDbCircle
 10
11.92639211
 20
255.78026634
 30
0.0
 40
2.27083529
100
AcDbArc
 50
303.659991
 51
416.81393138
  0
ARC
  5
144
100
AcDbEntity
  8
0
  6
CONTINUOUS
 62
       7
100
AcDbCircle
 10
7.9472274
 20
261.84319393
 30
0.0
 40
9.52292759
100
AcDbArc
 50
236.76619598
 51
303.36857328
  0
ARC
  5
145
100
AcDbEntity
  8
0
  6
CONTINUOUS
 62
       7
100
AcDbCircle
 10
7.9472274
 20
282.45950378
 30
0.0
 40
20.0
100
AcDbArc
 50
67.97568832
 51
112.02431475
  0
ARC
  5
146
100
AcDbEntity
  8
0
  6
CONTINUOUS
 62
       7
100
AcDbCircle
 10
3.96806268
 20
298.21973366
 30
0.0
 40
2.27083529
100
AcDbArc
 50
123.09481936
 51
236.72267598
  0
ARC
  5
147
100
AcDbEntity
  8
0
  6
CONTINUOUS
 62
       7
100
AcDbCircle
 10
7.9472274
 20
304.28266125
 30
0.0
 40
9.52292759
100
AcDbArc
 50
236.72267598
 51
303.25556094
  0
ARC
  5
148
100
AcDbEntity
  8
0
  6
CONTINUOUS
 62
       7
100
AcDbCircle
 10
11.92639211
 20
298.21973366
 30
0.0
 40
2.27083529
100
AcDbArc
 50
303.18606862
 51
416.340009
  0
ARC
  5
149
100
AcDbEntity
  8
0
  6
CONTINUOUS
 62
       7
100
AcDbCircle
 10
7.9472274
 20
292.15680607
 30
0.0
 40
9.52292759
100
AcDbArc
 50
56.63142672
 51
123.23380402
  0
LINE
  5
14A
100
AcDbEntity
  8
0
  6
CONTINUOUS
 62
       7
100
AcDbLine
 10
-53.8527726
 20
222.0
 30
0.0
 11
-23.8527726
 21
222.0
 31
0.0
  0
ARC
  5
14B
100
AcDbEntity
  8
0
  6
CONTINUOUS
 62
       7
100
AcDbCircle
 10
-53.57438439
 20
222.75
 30
0.0
 40
0.8
100
AcDbArc
 50
110.36413669
 51
249.63586331
  0
ARC
  5
14C
100
AcDbEntity
  8
0
  6
CONTINUOUS
 62
       7
100
AcDbCircle
 10
-24.13116082
 20
222.75
 30
0.0
 40
0.8
100
AcDbArc
 50
290.36413362
 51
429.63586638
  0
ARC
  5
14D
100
AcDbEntity
  8
0
  6
CONTINUOUS
 62
       7
100
AcDbCircle
 10
0.1472274
 20
247.0
 30
0.0
 40
54.0
100
AcDbArc
 50
90.3108543
 51
180.00000307
  0
LINE
  5
14E
100
AcDbEntity
  8
0
  6
CONTINUOUS
 62
       7
100
AcDbLine
 10
-53.8527726
 20
223.5
 30
0.0
 11
-23.8527726
 21
223.5
 31
0.0
  0
LINE
  5
14F
100
AcDbEntity
  8
0
  6
CONTINUOUS
 62
       7
100
AcDbLine
 10
0.4472274
 20
253.0
 30
0.0
 11
-3.8527726
 21
253.0
 31
0.0
  0
LINE
  5
150
100
AcDbEntity
  8
0
  6
CONTINUOUS
 62
       7
100
AcDbLine
 10
-23.8527726
 20
223.5
 30
0.0
 11
-23.8527726
 21
233.0
 31
0.0
  0
ARC
  5
151
100
AcDbEntity
  8
0
  6
CONTINUOUS
 62
       7
100
AcDbCircle
 10
-3.8527726
 20
233.0
 30
0.0
 40
20.0
100
AcDbArc
 50
90.00000154
 51
180.00000307
  0
LINE
  5
152
100
AcDbEntity
  8
0
  6
CONTINUOUS
 62
       7
100
AcDbLine
 10
-53.8527726
 20
247.0
 30
0.0
 11
-53.8527726
 21
223.5
 31
0.0
  0
LINE
  5
153
100
AcDbEntity
  8
0
  6
CONTINUOUS
 62
       7
100
AcDbLine
 10
-0.14574299
 20
300.99920526
 30
0.0
 11
0.4472274
 21
301.0
 31
0.0
  0
LINE
  5
154
100
AcDbEntity
  8
0
  6
CONTINUOUS
 62
       7
100
AcDbLine
 10
-175.05430501
 20
222.0
 30
0.0
 11
-175.05430501
 21
84.5
 31
0.0
  0
LINE
  5
155
100
AcDbEntity
  8
0
  6
CONTINUOUS
 62
       7
100
AcDbLine
 10
-175.05430501
 20
69.5
 30
0.0
 11
-175.05430501
 21
-68.0
 31
0.0
  0
LINE
  5
156
100
AcDbEntity
  8
0
  6
CONTINUOUS
 62
       7
100
AcDbLine
 10
-145.05430501
 20
222.0
 30
0.0
 11
-145.05430501
 21
84.5
 31
0.0
  0
LINE
  5
157
100
AcDbEntity
  8
0
  6
CONTINUOUS
 62
       7
100
AcDbLine
 10
-145.05430501
 20
69.5
 30
0.0
 11
-145.05430501
 21
-68.0
 31
0.0
  0
LINE
  5
158
100
AcDbEntity
  8
0
  6
CONTINUOUS
 62
       7
100
AcDbLine
 10
-53.8527726
 20
222.0
 30
0.0
 11
-53.8527726
 21
84.5
 31
0.0
  0
LINE
  5
159
100
AcDbEntity
  8
0
  6
CONTINUOUS
 62
       7
100
AcDbLine
 10
-53.8527726
 20
69.5
 30
0.0
 11
-53.8527726
 21
-68.0
 31
0.0
  0
LINE
  5
15A
100
AcDbEntity
  8
0
  6
CONTINUOUS
 62
       7
100
AcDbLine
 10
-23.8527726
 20
222.0
 30
0.0
 11
-23.8527726
 21
84.5
 31
0.0
  0
LINE
  5
15B
100
AcDbEntity
  8
0
  6
CONTINUOUS
 62
       7
100
AcDbLine
 10
-23.8527726
 20
69.5
 30
0.0
 11
-23.8527726
 21
-68.0
 31
0.0
  0
LINE
  5
15C
100
AcDbEntity
  8
0
  6
CONTINUOUS
 62
       7
100
AcDbLine
 10
84.81116015
 20
429.95087012
 30
0.0
 11
274.18616015
 21
429.95087012
 31
0.0
  0
LINE
  5
15D
100
AcDbEntity
  8
0
  6
CONTINUOUS
 62
       7
100
AcDbLine
 10
84.81116015
 20
429.95087012
 30
0.0
 11
84.81116015
 21
400.23245871
 31
0.0
  0
LINE
  5
15E
100
AcDbEntity
  8
0
  6
CONTINUOUS
 62
       7
100
AcDbLine
 10
274.18616015
 20
429.95087012
 30
0.0
 11
274.18616015
 21
400.23245871
 31
0.0
  0
LINE
  5
15F
100
AcDbEntity
  8
0
  6
CONTINUOUS
 62
       7
100
AcDbLine
 10
-261.31383985
 20
-382.11162988
 30
0.0
 11
-261.31383985
 21
-247.11162988
 31
0.0
  0
LINE
  5
160
100
AcDbEntity
  8
0
  6
CONTINUOUS
 62
       7
100
AcDbLine
 10
-121.62633985
 20
-382.11162988
 30
0.0
 11
-121.62633985
 21
-247.11162988
 31
0.0
  0
LINE
  5
161
100
AcDbEntity
  8
0
  6
CONTINUOUS
 62
       7
100
AcDbLine
 10
37.74866015
 20
-382.11162988
 30
0.0
 11
37.74866015
 21
-247.11162988
 31
0.0
  0
LINE
  5
162
100
AcDbEntity
  8
0
  6
CONTINUOUS
 62
       7
100
AcDbLine
 10
71.12366015
 20
-382.11162988
 30
0.0
 11
71.12366015
 21
-247.11162988
 31
0.0
  0
LINE
  5
163
100
AcDbEntity
  8
0
  6
CONTINUOUS
 62
       7
100
AcDbLine
 10
84.06116015
 20
-423.36162988
 30
0.0
 11
84.06116015
 21
-387.17412988
 31
0.0
  0
LINE
  5
164
100
AcDbEntity
  8
0
  6
CONTINUOUS
 62
       7
100
AcDbLine
 10
69.06116015
 20
-423.36162988
 30
0.0
 11
69.06116015
 21
-387.17412988
 31
0.0
  0
LINE
  5
165
100
AcDbEntity
  8
0
  6
CONTINUOUS
 62
       7
100
AcDbLine
 10
-118.62633985
 20
-423.36162988
 30
0.0
 11
-118.62633985
 21
-387.17412988
 31
0.0
  0
LINE
  5
166
100
AcDbEntity
  8
0
  6
CONTINUOUS
 62
       7
100
AcDbLine
 10
-133.62633985
 20
-423.36162988
 30
0.0
 11
-133.62633985
 21
-387.17412988
 31
0.0
  0
LINE
  5
167
100
AcDbEntity
  8
0
  6
CONTINUOUS
 62
       7
100
AcDbLine
 10
-282.12633985
 20
-367.11162988
 30
0.0
 11
271.18616015
 21
-367.11162988
 31
0.0
  0
LINE
  5
168
100
AcDbEntity
  8
0
  6
CONTINUOUS
 62
       7
100
AcDbLine
 10
-282.12633985
 20
-352.11162988
 30
0.0
 11
271.18616015
 21
-352.11162988
 31
0.0
  0
LINE
  5
169
100
AcDbEntity
  8
0
  6
CONTINUOUS
 62
       7
100
AcDbLine
 10
-282.12633985
 20
-337.11162988
 30
0.0
 11
271.18616015
 21
-337.11162988
 31
0.0
  0
LINE
  5
16A
100
AcDbEntity
  8
0
  6
CONTINUOUS
 62
       7
100
AcDbLine
 10
-282.12633985
 20
-322.11162988
 30
0.0
 11
271.18616015
 21
-322.11162988
 31
0.0
  0
LINE
  5
16B
100
AcDbEntity
  8
0
  6
CONTINUOUS
 62
       7
100
AcDbLine
 10
-282.12633985
 20
-307.11162988
 30
0.0
 11
271.18616015
 21
-307.11162988
 31
0.0
  0
LINE
  5
16C
100
AcDbEntity
  8
0
  6
CONTINUOUS
 62
       7
100
AcDbLine
 10
-282.12633985
 20
-292.11162988
 30
0.0
 11
271.18616015
 21
-292.11162988
 31
0.0
  0
LINE
  5
16D
100
AcDbEntity
  8
0
  6
CONTINUOUS
 62
       7
100
AcDbLine
 10
-282.12633985
 20
-277.11162988
 30
0.0
 11
271.18616015
 21
-277.11162988
 31
0.0
  0
LINE
  5
16E
100
AcDbEntity
  8
0
  6
CONTINUOUS
 62
       7
100
AcDbLine
 10
-282.12633985
 20
-262.11162988
 30
0.0
 11
271.18616015
 21
-262.11162988
 31
0.0
  0
LINE
  5
16F
100
AcDbEntity
  8
0
  6
CONTINUOUS
 62
       7
100
AcDbLine
 10
-178.85133985
 20
-415.67412988
 30
0.0
 11
-177.16383985
 21
-410.98662988
 31
0.0
  0
LINE
  5
170
100
AcDbEntity
  8
0
  6
CONTINUOUS
 62
       7
100
AcDbLine
 10
-191.33883985
 20
-415.67412988
 30
0.0
 11
-188.71383985
 21
-408.54912988
 31
0.0
  0
LINE
  5
171
100
AcDbEntity
  8
0
  6
CONTINUOUS
 62
       7
100
AcDbLine
 10
-193.77633985
 20
-405.92412988
 30
0.0
 11
-194.71383985
 21
-408.54912988
 31
0.0
  0
LINE
  5
172
100
AcDbEntity
  8
0
  6
CONTINUOUS
 62
       7
100
AcDbLine
 10
-185.15133985
 20
-415.67412988
 30
0.0
 11
-182.33883985
 21
-407.42412988
 31
0.0
  0
LINE
  5
173
100
AcDbEntity
  8
0
  6
CONTINUOUS
 62
       7
100
AcDbLine
 10
-145.81383985
 20
-415.67412988
 30
0.0
 11
-149.00133985
 21
-410.42412988
 31
0.0
  0
LINE
  5
174
100
AcDbEntity
  8
0
  6
CONTINUOUS
 62
       7
100
AcDbLine
 10
-193.77633985
 20
-405.92412988
 30
0.0
 11
-190.21383985
 21
-405.92412988
 31
0.0
  0
LINE
  5
175
100
AcDbEntity
  8
0
  6
CONTINUOUS
 62
       7
100
AcDbLine
 10
-174.72633985
 20
-404.23662988
 30
0.0
 11
-168.53883985
 21
-404.23662988
 31
0.0
  0
LINE
  5
176
100
AcDbEntity
  8
0
  6
CONTINUOUS
 62
       7
100
AcDbLine
 10
-161.41383985
 20
-403.67412988
 30
0.0
 11
-159.53883985
 21
-403.67412988
 31
0.0
  0
LINE
  5
177
100
AcDbEntity
  8
0
  6
CONTINUOUS
 62
       7
100
AcDbLine
 10
-173.41383985
 20
-400.86162988
 30
0.0
 11
-174.72633985
 21
-404.23662988
 31
0.0
  0
LINE
  5
178
100
AcDbEntity
  8
0
  6
CONTINUOUS
 62
       7
100
AcDbLine
 10
-167.41383985
 20
-400.86162988
 30
0.0
 11
-168.53883985
 21
-404.23662988
 31
0.0
  0
LINE
  5
179
100
AcDbEntity
  8
0
  6
CONTINUOUS
 62
       7
100
AcDbLine
 10
-191.33883985
 20
-415.67412988
 30
0.0
 11
-185.15133985
 21
-415.67412988
 31
0.0
  0
LINE
  5
17A
100
AcDbEntity
  8
0
  6
CONTINUOUS
 62
       7
100
AcDbLine
 10
-181.77633985
 20
-400.86162988
 30
0.0
 11
-174.83883985
 21
-400.86162988
 31
0.0
  0
LINE
  5
17B
100
AcDbEntity
  8
0
  6
CONTINUOUS
 62
       7
100
AcDbLine
 10
-151.19156293
 20
-404.23662988
 30
0.0
 11
-157.81383985
 21
-404.23662988
 31
0.0
  0
LINE
  5
17C
100
AcDbEntity
  8
0
  6
CONTINUOUS
 62
       7
100
AcDbLine
 10
-143.93883985
 20
-400.86162988
 30
0.0
 11
-156.68883985
 21
-400.86162988
 31
0.0
  0
LINE
  5
17D
100
AcDbEntity
  8
0
  6
CONTINUOUS
 62
       7
100
AcDbLine
 10
-194.71383985
 20
-408.54912988
 30
0.0
 11
-188.71383985
 21
-408.54912988
 31
0.0
  0
LINE
  5
17E
100
AcDbEntity
  8
0
  6
CONTINUOUS
 62
       7
100
AcDbLine
 10
-178.85133985
 20
-415.67412988
 30
0.0
 11
-168.91383985
 21
-415.67412988
 31
0.0
  0
LINE
  5
17F
100
AcDbEntity
  8
0
  6
CONTINUOUS
 62
       7
100
AcDbLine
 10
-177.16383985
 20
-410.98662988
 30
0.0
 11
-168.16383985
 21
-410.98662988
 31
0.0
  0
LINE
  5
180
100
AcDbEntity
  8
0
  6
CONTINUOUS
 62
       7
100
AcDbLine
 10
-145.81383985
 20
-415.67412988
 30
0.0
 11
-150.50133985
 21
-415.67412988
 31
0.0
  0
LINE
  5
181
100
AcDbEntity
  8
0
  6
CONTINUOUS
 62
       7
100
AcDbLine
 10
-157.81383985
 20
-404.23662988
 30
0.0
 11
-156.68883985
 21
-400.86162988
 31
0.0
  0
LINE
  5
182
100
AcDbEntity
  8
0
  6
CONTINUOUS
 62
       7
100
AcDbLine
 10
-223.02633985
 20
-400.86162988
 30
0.0
 11
-226.21383985
 21
-409.86162988
 31
0.0
  0
LINE
  5
183
100
AcDbEntity
  8
0
  6
CONTINUOUS
 62
       7
100
AcDbLine
 10
-226.21383985
 20
-409.86162988
 30
0.0
 11
-221.90133985
 21
-409.86162988
 31
0.0
  0
LINE
  5
184
100
AcDbEntity
  8
0
  6
CONTINUOUS
 62
       7
100
AcDbLine
 10
-221.90133985
 20
-409.86162988
 30
0.0
 11
-218.52633985
 21
-400.86162988
 31
0.0
  0
LINE
  5
185
100
AcDbEntity
  8
0
  6
CONTINUOUS
 62
       7
100
AcDbLine
 10
-218.52633985
 20
-400.86162988
 30
0.0
 11
-223.02633985
 21
-400.86162988
 31
0.0
  0
LINE
  5
186
100
AcDbEntity
  8
0
  6
CONTINUOUS
 62
       7
100
AcDbLine
 10
-165.91383985
 20
-409.86162988
 30
0.0
 11
-163.85133985
 21
-408.17412988
 31
0.0
  0
LINE
  5
187
100
AcDbEntity
  8
0
  6
CONTINUOUS
 62
       7
100
AcDbLine
 10
-163.85133985
 20
-408.17412988
 30
0.0
 11
-162.35133985
 21
-406.11162988
 31
0.0
  0
LINE
  5
188
100
AcDbEntity
  8
0
  6
CONTINUOUS
 62
       7
100
AcDbLine
 10
-162.35133985
 20
-406.11162988
 30
0.0
 11
-161.41383985
 21
-403.67412988
 31
0.0
  0
LINE
  5
189
100
AcDbEntity
  8
0
  6
CONTINUOUS
 62
       7
100
AcDbLine
 10
-207.61383985
 20
-400.86162988
 30
0.0
 11
-193.92633985
 21
-400.86162988
 31
0.0
  0
LINE
  5
18A
100
AcDbEntity
  8
0
  6
CONTINUOUS
 62
       7
100
AcDbLine
 10
-193.92633985
 20
-400.86162988
 30
0.0
 11
-195.05133985
 21
-404.23662988
 31
0.0
  0
LINE
  5
18B
100
AcDbEntity
  8
0
  6
CONTINUOUS
 62
       7
100
AcDbLine
 10
-193.92633985
 20
-400.86162988
 30
0.0
 11
-195.05133985
 21
-404.23662988
 31
0.0
  0
LINE
  5
18C
100
AcDbEntity
  8
0
  6
CONTINUOUS
 62
       7
100
AcDbLine
 10
-195.05133985
 20
-404.23662988
 30
0.0
 11
-208.73883985
 21
-404.23662988
 31
0.0
  0
LINE
  5
18D
100
AcDbEntity
  8
0
  6
CONTINUOUS
 62
       7
100
AcDbLine
 10
-208.73883985
 20
-404.23662988
 30
0.0
 11
-207.61383985
 21
-400.86162988
 31
0.0
  0
LINE
  5
18E
100
AcDbEntity
  8
0
  6
CONTINUOUS
 62
       7
100
AcDbLine
 10
-208.73883985
 20
-404.23662988
 30
0.0
 11
-207.61383985
 21
-400.86162988
 31
0.0
  0
LINE
  5
18F
100
AcDbEntity
  8
0
  6
CONTINUOUS
 62
       7
100
AcDbLine
 10
-193.92633985
 20
-400.86162988
 30
0.0
 11
-207.61383985
 21
-400.86162988
 31
0.0
  0
LINE
  5
190
100
AcDbEntity
  8
0
  6
CONTINUOUS
 62
       7
100
AcDbLine
 10
-207.61383985
 20
-400.86162988
 30
0.0
 11
-208.73883985
 21
-404.23662988
 31
0.0
  0
LINE
  5
191
100
AcDbEntity
  8
0
  6
CONTINUOUS
 62
       7
100
AcDbLine
 10
-208.73883985
 20
-404.23662988
 30
0.0
 11
-195.05133985
 21
-404.23662988
 31
0.0
  0
LINE
  5
192
100
AcDbEntity
  8
0
  6
CONTINUOUS
 62
       7
100
AcDbLine
 10
-201.80133985
 20
-415.29912988
 30
0.0
 11
-200.30133985
 21
-414.54912988
 31
0.0
  0
LINE
  5
193
100
AcDbEntity
  8
0
  6
CONTINUOUS
 62
       7
100
AcDbLine
 10
-200.30133985
 20
-414.54912988
 30
0.0
 11
-199.17633985
 21
-413.42412988
 31
0.0
  0
LINE
  5
194
100
AcDbEntity
  8
0
  6
CONTINUOUS
 62
       7
100
AcDbLine
 10
-199.17633985
 20
-413.42412988
 30
0.0
 11
-197.86383985
 21
-412.11162988
 31
0.0
  0
LINE
  5
195
100
AcDbEntity
  8
0
  6
CONTINUOUS
 62
       7
100
AcDbLine
 10
-197.86383985
 20
-412.11162988
 30
0.0
 11
-195.61383985
 21
-405.92412988
 31
0.0
  0
LINE
  5
196
100
AcDbEntity
  8
0
  6
CONTINUOUS
 62
       7
100
AcDbLine
 10
-195.61383985
 20
-405.92412988
 30
0.0
 11
-209.11383985
 21
-405.92412988
 31
0.0
  0
LINE
  5
197
100
AcDbEntity
  8
0
  6
CONTINUOUS
 62
       7
100
AcDbLine
 10
-209.11383985
 20
-405.92412988
 30
0.0
 11
-209.86383985
 21
-408.54912988
 31
0.0
  0
LINE
  5
198
100
AcDbEntity
  8
0
  6
CONTINUOUS
 62
       7
100
AcDbLine
 10
-209.86383985
 20
-408.54912988
 30
0.0
 11
-201.98883985
 21
-408.54912988
 31
0.0
  0
LINE
  5
199
100
AcDbEntity
  8
0
  6
CONTINUOUS
 62
       7
100
AcDbLine
 10
-201.98883985
 20
-408.54912988
 30
0.0
 11
-202.36383985
 21
-409.86162988
 31
0.0
  0
LINE
  5
19A
100
AcDbEntity
  8
0
  6
CONTINUOUS
 62
       7
100
AcDbLine
 10
-202.36383985
 20
-409.86162988
 30
0.0
 11
-203.30133985
 21
-410.98662988
 31
0.0
  0
LINE
  5
19B
100
AcDbEntity
  8
0
  6
CONTINUOUS
 62
       7
100
AcDbLine
 10
-203.30133985
 20
-410.98662988
 30
0.0
 11
-204.23883985
 21
-411.92412988
 31
0.0
  0
LINE
  5
19C
100
AcDbEntity
  8
0
  6
CONTINUOUS
 62
       7
100
AcDbLine
 10
-204.23883985
 20
-411.92412988
 30
0.0
 11
-205.55133985
 21
-412.86162988
 31
0.0
  0
LINE
  5
19D
100
AcDbEntity
  8
0
  6
CONTINUOUS
 62
       7
100
AcDbLine
 10
-205.55133985
 20
-412.86162988
 30
0.0
 11
-211.73883985
 21
-412.86162988
 31
0.0
  0
LINE
  5
19E
100
AcDbEntity
  8
0
  6
CONTINUOUS
 62
       7
100
AcDbLine
 10
-211.73883985
 20
-412.86162988
 30
0.0
 11
-212.86383985
 21
-415.67412988
 31
0.0
  0
LINE
  5
19F
100
AcDbEntity
  8
0
  6
CONTINUOUS
 62
       7
100
AcDbLine
 10
-224.90133985
 20
-415.67412988
 30
0.0
 11
-223.96383985
 21
-412.86162988
 31
0.0
  0
LINE
  5
1A0
100
AcDbEntity
  8
0
  6
CONTINUOUS
 62
       7
100
AcDbLine
 10
-223.96383985
 20
-412.86162988
 30
0.0
 11
-222.27633985
 21
-412.86162988
 31
0.0
  0
LINE
  5
1A1
100
AcDbEntity
  8
0
  6
CONTINUOUS
 62
       7
100
AcDbLine
 10
-222.27633985
 20
-412.86162988
 30
0.0
 11
-220.77633985
 21
-412.67412988
 31
0.0
  0
LINE
  5
1A2
100
AcDbEntity
  8
0
  6
CONTINUOUS
 62
       7
100
AcDbLine
 10
-220.77633985
 20
-412.67412988
 30
0.0
 11
-219.27633985
 21
-411.92412988
 31
0.0
  0
LINE
  5
1A3
100
AcDbEntity
  8
0
  6
CONTINUOUS
 62
       7
100
AcDbLine
 10
-219.27633985
 20
-411.92412988
 30
0.0
 11
-218.33883985
 21
-410.42412988
 31
0.0
  0
LINE
  5
1A4
100
AcDbEntity
  8
0
  6
CONTINUOUS
 62
       7
100
AcDbLine
 10
-218.33883985
 20
-410.42412988
 30
0.0
 11
-214.77633985
 21
-400.86162988
 31
0.0
  0
LINE
  5
1A5
100
AcDbEntity
  8
0
  6
CONTINUOUS
 62
       7
100
AcDbLine
 10
-214.77633985
 20
-400.86162988
 30
0.0
 11
-209.71383985
 21
-400.86162988
 31
0.0
  0
LINE
  5
1A6
100
AcDbEntity
  8
0
  6
CONTINUOUS
 62
       7
100
AcDbLine
 10
-209.71383985
 20
-400.86162988
 30
0.0
 11
-213.46383985
 21
-411.92412988
 31
0.0
  0
LINE
  5
1A7
100
AcDbEntity
  8
0
  6
CONTINUOUS
 62
       7
100
AcDbLine
 10
-213.46383985
 20
-411.92412988
 30
0.0
 11
-214.96383985
 21
-413.42412988
 31
0.0
  0
LINE
  5
1A8
100
AcDbEntity
  8
0
  6
CONTINUOUS
 62
       7
100
AcDbLine
 10
-214.96383985
 20
-413.42412988
 30
0.0
 11
-216.46383985
 21
-414.73662988
 31
0.0
  0
LINE
  5
1A9
100
AcDbEntity
  8
0
  6
CONTINUOUS
 62
       7
100
AcDbLine
 10
-216.46383985
 20
-414.73662988
 30
0.0
 11
-218.33883985
 21
-415.48662988
 31
0.0
  0
LINE
  5
1AA
100
AcDbEntity
  8
0
  6
CONTINUOUS
 62
       7
100
AcDbLine
 10
-174.83883985
 20
-400.86162988
 30
0.0
 11
-175.96383985
 21
-403.29912988
 31
0.0
  0
LINE
  5
1AB
100
AcDbEntity
  8
0
  6
CONTINUOUS
 62
       7
100
AcDbLine
 10
-175.96383985
 20
-403.29912988
 30
0.0
 11
-177.83883985
 21
-405.17412988
 31
0.0
  0
LINE
  5
1AC
100
AcDbEntity
  8
0
  6
CONTINUOUS
 62
       7
100
AcDbLine
 10
-175.96383985
 20
-403.29912988
 30
0.0
 11
-177.83883985
 21
-405.17412988
 31
0.0
  0
LINE
  5
1AD
100
AcDbEntity
  8
0
  6
CONTINUOUS
 62
       7
100
AcDbLine
 10
-177.83883985
 20
-405.17412988
 30
0.0
 11
-179.90133985
 21
-406.67412988
 31
0.0
  0
LINE
  5
1AE
100
AcDbEntity
  8
0
  6
CONTINUOUS
 62
       7
100
AcDbLine
 10
-179.90133985
 20
-406.67412988
 30
0.0
 11
-182.33883985
 21
-407.42412988
 31
0.0
  0
LINE
  5
1AF
100
AcDbEntity
  8
0
  6
CONTINUOUS
 62
       7
100
AcDbLine
 10
-179.90133985
 20
-406.67412988
 30
0.0
 11
-182.33883985
 21
-407.42412988
 31
0.0
  0
LINE
  5
1B0
100
AcDbEntity
  8
0
  6
CONTINUOUS
 62
       7
100
AcDbLine
 10
-182.33883985
 20
-407.42412988
 30
0.0
 11
-185.15133985
 21
-415.67412988
 31
0.0
  0
LINE
  5
1B1
100
AcDbEntity
  8
0
  6
CONTINUOUS
 62
       7
100
AcDbLine
 10
-185.15133985
 20
-415.67412988
 30
0.0
 11
-191.33883985
 21
-415.67412988
 31
0.0
  0
LINE
  5
1B2
100
AcDbEntity
  8
0
  6
CONTINUOUS
 62
       7
100
AcDbLine
 10
-185.15133985
 20
-415.67412988
 30
0.0
 11
-191.33883985
 21
-415.67412988
 31
0.0
  0
LINE
  5
1B3
100
AcDbEntity
  8
0
  6
CONTINUOUS
 62
       7
100
AcDbLine
 10
-189.01383985
 20
-408.54912988
 30
0.0
 11
-194.71383985
 21
-408.54912988
 31
0.0
  0
LINE
  5
1B4
100
AcDbEntity
  8
0
  6
CONTINUOUS
 62
       7
100
AcDbLine
 10
-194.71383985
 20
-408.54912988
 30
0.0
 11
-193.77633985
 21
-405.92412988
 31
0.0
  0
LINE
  5
1B5
100
AcDbEntity
  8
0
  6
CONTINUOUS
 62
       7
100
AcDbLine
 10
-191.33883985
 20
-415.67412988
 30
0.0
 11
-188.71383985
 21
-408.54912988
 31
0.0
  0
LINE
  5
1B6
100
AcDbEntity
  8
0
  6
CONTINUOUS
 62
       7
100
AcDbLine
 10
-191.33883985
 20
-415.67412988
 30
0.0
 11
-188.71383985
 21
-408.54912988
 31
0.0
  0
LINE
  5
1B7
100
AcDbEntity
  8
0
  6
CONTINUOUS
 62
       7
100
AcDbLine
 10
-193.77633985
 20
-405.92412988
 30
0.0
 11
-190.21383985
 21
-405.92412988
 31
0.0
  0
LINE
  5
1B8
100
AcDbEntity
  8
0
  6
CONTINUOUS
 62
       7
100
AcDbLine
 10
-193.77633985
 20
-405.92412988
 30
0.0
 11
-190.21383985
 21
-405.92412988
 31
0.0
  0
LINE
  5
1B9
100
AcDbEntity
  8
0
  6
CONTINUOUS
 62
       7
100
AcDbLine
 10
-190.21383985
 20
-405.92412988
 30
0.0
 11
-187.77633985
 21
-405.73662988
 31
0.0
  0
LINE
  5
1BA
100
AcDbEntity
  8
0
  6
CONTINUOUS
 62
       7
100
AcDbLine
 10
-190.21383985
 20
-405.92412988
 30
0.0
 11
-187.77633985
 21
-405.73662988
 31
0.0
  0
LINE
  5
1BB
100
AcDbEntity
  8
0
  6
CONTINUOUS
 62
       7
100
AcDbLine
 10
-187.77633985
 20
-405.73662988
 30
0.0
 11
-185.15133985
 21
-404.61162988
 31
0.0
  0
LINE
  5
1BC
100
AcDbEntity
  8
0
  6
CONTINUOUS
 62
       7
100
AcDbLine
 10
-187.77633985
 20
-405.73662988
 30
0.0
 11
-185.15133985
 21
-404.61162988
 31
0.0
  0
LINE
  5
1BD
100
AcDbEntity
  8
0
  6
CONTINUOUS
 62
       7
100
AcDbLine
 10
-185.15133985
 20
-404.61162988
 30
0.0
 11
-183.27633985
 21
-402.92412988
 31
0.0
  0
LINE
  5
1BE
100
AcDbEntity
  8
0
  6
CONTINUOUS
 62
       7
100
AcDbLine
 10
-185.15133985
 20
-404.61162988
 30
0.0
 11
-183.27633985
 21
-402.92412988
 31
0.0
  0
LINE
  5
1BF
100
AcDbEntity
  8
0
  6
CONTINUOUS
 62
       7
100
AcDbLine
 10
-218.52633985
 20
-400.86162988
 30
0.0
 11
-221.90133985
 21
-409.86162988
 31
0.0
  0
LINE
  5
1C0
100
AcDbEntity
  8
0
  6
CONTINUOUS
 62
       7
100
AcDbLine
 10
-221.90133985
 20
-409.86162988
 30
0.0
 11
-226.21383985
 21
-409.86162988
 31
0.0
  0
LINE
  5
1C1
100
AcDbEntity
  8
0
  6
CONTINUOUS
 62
       7
100
AcDbLine
 10
-221.90133985
 20
-409.86162988
 30
0.0
 11
-226.21383985
 21
-409.86162988
 31
0.0
  0
LINE
  5
1C2
100
AcDbEntity
  8
0
  6
CONTINUOUS
 62
       7
100
AcDbLine
 10
-226.21383985
 20
-409.86162988
 30
0.0
 11
-223.02633985
 21
-400.86162988
 31
0.0
  0
LINE
  5
1C3
100
AcDbEntity
  8
0
  6
CONTINUOUS
 62
       7
100
AcDbLine
 10
-223.02633985
 20
-400.86162988
 30
0.0
 11
-218.52633985
 21
-400.86162988
 31
0.0
  0
LINE
  5
1C4
100
AcDbEntity
  8
0
  6
CONTINUOUS
 62
       7
100
AcDbLine
 10
-223.02633985
 20
-400.86162988
 30
0.0
 11
-218.52633985
 21
-400.86162988
 31
0.0
  0
LINE
  5
1C5
100
AcDbEntity
  8
0
  6
CONTINUOUS
 62
       7
100
AcDbLine
 10
-156.68883985
 20
-400.86162988
 30
0.0
 11
-157.81383985
 21
-404.23662988
 31
0.0
  0
LINE
  5
1C6
100
AcDbEntity
  8
0
  6
CONTINUOUS
 62
       7
100
AcDbLine
 10
-157.81383985
 20
-404.23662988
 30
0.0
 11
-151.81383985
 21
-404.23662988
 31
0.0
  0
LINE
  5
1C7
100
AcDbEntity
  8
0
  6
CONTINUOUS
 62
       7
100
AcDbLine
 10
-157.81383985
 20
-404.23662988
 30
0.0
 11
-151.81383985
 21
-404.23662988
 31
0.0
  0
LINE
  5
1C8
100
AcDbEntity
  8
0
  6
CONTINUOUS
 62
       7
100
AcDbLine
 10
-161.93883985
 20
-412.67412988
 30
0.0
 11
-163.06383985
 21
-415.86162988
 31
0.0
  0
LINE
  5
1C9
100
AcDbEntity
  8
0
  6
CONTINUOUS
 62
       7
100
AcDbLine
 10
-161.93883985
 20
-412.67412988
 30
0.0
 11
-163.06383985
 21
-415.86162988
 31
0.0
  0
LINE
  5
1CA
100
AcDbEntity
  8
0
  6
CONTINUOUS
 62
       7
100
AcDbLine
 10
-163.06383985
 20
-415.86162988
 30
0.0
 11
-157.43883985
 21
-414.92412988
 31
0.0
  0
LINE
  5
1CB
100
AcDbEntity
  8
0
  6
CONTINUOUS
 62
       7
100
AcDbLine
 10
-157.43883985
 20
-414.92412988
 30
0.0
 11
-154.81383985
 21
-414.17412988
 31
0.0
  0
LINE
  5
1CC
100
AcDbEntity
  8
0
  6
CONTINUOUS
 62
       7
100
AcDbLine
 10
-157.43883985
 20
-414.92412988
 30
0.0
 11
-154.81383985
 21
-414.17412988
 31
0.0
  0
LINE
  5
1CD
100
AcDbEntity
  8
0
  6
CONTINUOUS
 62
       7
100
AcDbLine
 10
-152.00133985
 20
-413.23662988
 30
0.0
 11
-150.50133985
 21
-415.67412988
 31
0.0
  0
LINE
  5
1CE
100
AcDbEntity
  8
0
  6
CONTINUOUS
 62
       7
100
AcDbLine
 10
-150.50133985
 20
-415.67412988
 30
0.0
 11
-145.81383985
 21
-415.67412988
 31
0.0
  0
LINE
  5
1CF
100
AcDbEntity
  8
0
  6
CONTINUOUS
 62
       7
100
AcDbLine
 10
-150.50133985
 20
-415.67412988
 30
0.0
 11
-145.81383985
 21
-415.67412988
 31
0.0
  0
LINE
  5
1D0
100
AcDbEntity
  8
0
  6
CONTINUOUS
 62
       7
100
AcDbLine
 10
-149.00133985
 20
-410.42412988
 30
0.0
 11
-147.31383985
 21
-408.17412988
 31
0.0
  0
LINE
  5
1D1
100
AcDbEntity
  8
0
  6
CONTINUOUS
 62
       7
100
AcDbLine
 10
-147.31383985
 20
-408.17412988
 30
0.0
 11
-145.81383985
 21
-405.92412988
 31
0.0
  0
LINE
  5
1D2
100
AcDbEntity
  8
0
  6
CONTINUOUS
 62
       7
100
AcDbLine
 10
-145.81383985
 20
-405.92412988
 30
0.0
 11
-144.68883985
 21
-403.48662988
 31
0.0
  0
LINE
  5
1D3
100
AcDbEntity
  8
0
  6
CONTINUOUS
 62
       7
100
AcDbLine
 10
-144.68883985
 20
-403.48662988
 30
0.0
 11
-143.93883985
 21
-400.86162988
 31
0.0
  0
LINE
  5
1D4
100
AcDbEntity
  8
0
  6
CONTINUOUS
 62
       7
100
AcDbLine
 10
-144.68883985
 20
-403.48662988
 30
0.0
 11
-143.93883985
 21
-400.86162988
 31
0.0
  0
LINE
  5
1D5
100
AcDbEntity
  8
0
  6
CONTINUOUS
 62
       7
100
AcDbLine
 10
-143.93883985
 20
-400.86162988
 30
0.0
 11
-156.68883985
 21
-400.86162988
 31
0.0
  0
LINE
  5
1D6
100
AcDbEntity
  8
0
  6
CONTINUOUS
 62
       7
100
AcDbLine
 10
-155.37633985
 20
-410.23662988
 30
0.0
 11
-158.37633985
 21
-411.92412988
 31
0.0
  0
LINE
  5
1D7
100
AcDbEntity
  8
0
  6
CONTINUOUS
 62
       7
100
AcDbLine
 10
-154.81383985
 20
-414.17412988
 30
0.0
 11
-152.00133985
 21
-413.23662988
 31
0.0
  0
LINE
  5
1D8
100
AcDbEntity
  8
0
  6
CONTINUOUS
 62
       7
100
AcDbLine
 10
-154.81383985
 20
-414.17412988
 30
0.0
 11
-152.00133985
 21
-413.23662988
 31
0.0
  0
LINE
  5
1D9
100
AcDbEntity
  8
0
  6
CONTINUOUS
 62
       7
100
AcDbLine
 10
-145.81383985
 20
-415.67412988
 30
0.0
 11
-149.00133985
 21
-410.42412988
 31
0.0
  0
LINE
  5
1DA
100
AcDbEntity
  8
0
  6
CONTINUOUS
 62
       7
100
AcDbLine
 10
-145.81383985
 20
-415.67412988
 30
0.0
 11
-149.00133985
 21
-410.42412988
 31
0.0
  0
LINE
  5
1DB
100
AcDbEntity
  8
0
  6
CONTINUOUS
 62
       7
100
AcDbLine
 10
-152.93883985
 20
-407.42412988
 30
0.0
 11
-155.37633985
 21
-410.23662988
 31
0.0
  0
LINE
  5
1DC
100
AcDbEntity
  8
0
  6
CONTINUOUS
 62
       7
100
AcDbLine
 10
-152.93883985
 20
-407.42412988
 30
0.0
 11
-155.37633985
 21
-410.23662988
 31
0.0
  0
LINE
  5
1DD
100
AcDbEntity
  8
0
  6
CONTINUOUS
 62
       7
100
AcDbLine
 10
-190.21383985
 20
-405.92412988
 30
0.0
 11
-187.77633985
 21
-405.73662988
 31
0.0
  0
LINE
  5
1DE
100
AcDbEntity
  8
0
  6
CONTINUOUS
 62
       7
100
AcDbLine
 10
-187.77633985
 20
-405.73662988
 30
0.0
 11
-185.15133985
 21
-404.61162988
 31
0.0
  0
LINE
  5
1DF
100
AcDbEntity
  8
0
  6
CONTINUOUS
 62
       7
100
AcDbLine
 10
-185.15133985
 20
-404.61162988
 30
0.0
 11
-183.27633985
 21
-402.92412988
 31
0.0
  0
LINE
  5
1E0
100
AcDbEntity
  8
0
  6
CONTINUOUS
 62
       7
100
AcDbLine
 10
-183.27633985
 20
-402.92412988
 30
0.0
 11
-181.77633985
 21
-400.86162988
 31
0.0
  0
LINE
  5
1E1
100
AcDbEntity
  8
0
  6
CONTINUOUS
 62
       7
100
AcDbLine
 10
-168.91383985
 20
-415.67412988
 30
0.0
 11
-165.53883985
 21
-414.17412988
 31
0.0
  0
LINE
  5
1E2
100
AcDbEntity
  8
0
  6
CONTINUOUS
 62
       7
100
AcDbLine
 10
-165.53883985
 20
-414.17412988
 30
0.0
 11
-162.53883985
 21
-411.36162988
 31
0.0
  0
LINE
  5
1E3
100
AcDbEntity
  8
0
  6
CONTINUOUS
 62
       7
100
AcDbLine
 10
-162.53883985
 20
-411.36162988
 30
0.0
 11
-160.28883985
 21
-407.61162988
 31
0.0
  0
LINE
  5
1E4
100
AcDbEntity
  8
0
  6
CONTINUOUS
 62
       7
100
AcDbLine
 10
-160.28883985
 20
-407.61162988
 30
0.0
 11
-159.53883985
 21
-403.67412988
 31
0.0
  0
LINE
  5
1E5
100
AcDbEntity
  8
0
  6
CONTINUOUS
 62
       7
100
AcDbLine
 10
-161.93883985
 20
-412.67412988
 30
0.0
 11
-158.37633985
 21
-411.92412988
 31
0.0
  0
LINE
  5
1E6
100
AcDbEntity
  8
0
  6
CONTINUOUS
 62
       7
100
AcDbLine
 10
-158.37633985
 20
-411.92412988
 30
0.0
 11
-155.37633985
 21
-410.23662988
 31
0.0
  0
LINE
  5
1E7
100
AcDbEntity
  8
0
  6
CONTINUOUS
 62
       7
100
AcDbLine
 10
-155.37633985
 20
-410.23662988
 30
0.0
 11
-152.93883985
 21
-407.42412988
 31
0.0
  0
LINE
  5
1E8
100
AcDbEntity
  8
0
  6
CONTINUOUS
 62
       7
100
AcDbLine
 10
-182.33883985
 20
-407.42412988
 30
0.0
 11
-179.90133985
 21
-406.67412988
 31
0.0
  0
LINE
  5
1E9
100
AcDbEntity
  8
0
  6
CONTINUOUS
 62
       7
100
AcDbLine
 10
-179.90133985
 20
-406.67412988
 30
0.0
 11
-177.83883985
 21
-405.17412988
 31
0.0
  0
LINE
  5
1EA
100
AcDbEntity
  8
0
  6
CONTINUOUS
 62
       7
100
AcDbLine
 10
-177.83883985
 20
-405.17412988
 30
0.0
 11
-175.96383985
 21
-403.29912988
 31
0.0
  0
LINE
  5
1EB
100
AcDbEntity
  8
0
  6
CONTINUOUS
 62
       7
100
AcDbLine
 10
-175.96383985
 20
-403.29912988
 30
0.0
 11
-174.83883985
 21
-400.86162988
 31
0.0
  0
LINE
  5
1EC
100
AcDbEntity
  8
0
  6
CONTINUOUS
 62
       7
100
AcDbLine
 10
-149.00133985
 20
-410.42412988
 30
0.0
 11
-147.31383985
 21
-408.17412988
 31
0.0
  0
LINE
  5
1ED
100
AcDbEntity
  8
0
  6
CONTINUOUS
 62
       7
100
AcDbLine
 10
-147.31383985
 20
-408.17412988
 30
0.0
 11
-145.81383985
 21
-405.92412988
 31
0.0
  0
LINE
  5
1EE
100
AcDbEntity
  8
0
  6
CONTINUOUS
 62
       7
100
AcDbLine
 10
-145.81383985
 20
-405.92412988
 30
0.0
 11
-144.68883985
 21
-403.48662988
 31
0.0
  0
LINE
  5
1EF
100
AcDbEntity
  8
0
  6
CONTINUOUS
 62
       7
100
AcDbLine
 10
-144.68883985
 20
-403.48662988
 30
0.0
 11
-143.93883985
 21
-400.86162988
 31
0.0
  0
LINE
  5
1F0
100
AcDbEntity
  8
0
  6
CONTINUOUS
 62
       7
100
AcDbLine
 10
-157.43883985
 20
-414.92412988
 30
0.0
 11
-154.81383985
 21
-414.17412988
 31
0.0
  0
LINE
  5
1F1
100
AcDbEntity
  8
0
  6
CONTINUOUS
 62
       7
100
AcDbLine
 10
-154.81383985
 20
-414.17412988
 30
0.0
 11
-152.00133985
 21
-413.23662988
 31
0.0
  0
LINE
  5
1F2
100
AcDbEntity
  8
0
  6
CONTINUOUS
 62
       7
100
AcDbLine
 10
-162.35133985
 20
-406.11162988
 30
0.0
 11
-161.41383985
 21
-403.67412988
 31
0.0
  0
LINE
  5
1F3
100
AcDbEntity
  8
0
  6
CONTINUOUS
 62
       7
100
AcDbLine
 10
-161.41383985
 20
-403.67412988
 30
0.0
 11
-159.53883985
 21
-403.67412988
 31
0.0
  0
LINE
  5
1F4
100
AcDbEntity
  8
0
  6
CONTINUOUS
 62
       7
100
AcDbLine
 10
-161.41383985
 20
-403.67412988
 30
0.0
 11
-159.53883985
 21
-403.67412988
 31
0.0
  0
LINE
  5
1F5
100
AcDbEntity
  8
0
  6
CONTINUOUS
 62
       7
100
AcDbLine
 10
-159.53883985
 20
-403.67412988
 30
0.0
 11
-160.28883985
 21
-407.61162988
 31
0.0
  0
LINE
  5
1F6
100
AcDbEntity
  8
0
  6
CONTINUOUS
 62
       7
100
AcDbLine
 10
-160.28883985
 20
-407.61162988
 30
0.0
 11
-162.53883985
 21
-411.36162988
 31
0.0
  0
LINE
  5
1F7
100
AcDbEntity
  8
0
  6
CONTINUOUS
 62
       7
100
AcDbLine
 10
-160.28883985
 20
-407.61162988
 30
0.0
 11
-162.53883985
 21
-411.36162988
 31
0.0
  0
LINE
  5
1F8
100
AcDbEntity
  8
0
  6
CONTINUOUS
 62
       7
100
AcDbLine
 10
-162.53883985
 20
-411.36162988
 30
0.0
 11
-165.53883985
 21
-414.17412988
 31
0.0
  0
LINE
  5
1F9
100
AcDbEntity
  8
0
  6
CONTINUOUS
 62
       7
100
AcDbLine
 10
-169.28883985
 20
-415.67412988
 30
0.0
 11
-178.85133985
 21
-415.67412988
 31
0.0
  0
LINE
  5
1FA
100
AcDbEntity
  8
0
  6
CONTINUOUS
 62
       7
100
AcDbLine
 10
-178.85133985
 20
-415.67412988
 30
0.0
 11
-177.16383985
 21
-410.98662988
 31
0.0
  0
LINE
  5
1FB
100
AcDbEntity
  8
0
  6
CONTINUOUS
 62
       7
100
AcDbLine
 10
-178.85133985
 20
-415.67412988
 30
0.0
 11
-177.16383985
 21
-410.98662988
 31
0.0
  0
LINE
  5
1FC
100
AcDbEntity
  8
0
  6
CONTINUOUS
 62
       7
100
AcDbLine
 10
-163.85133985
 20
-408.17412988
 30
0.0
 11
-162.35133985
 21
-406.11162988
 31
0.0
  0
LINE
  5
1FD
100
AcDbEntity
  8
0
  6
CONTINUOUS
 62
       7
100
AcDbLine
 10
-177.16383985
 20
-410.98662988
 30
0.0
 11
-168.16383985
 21
-410.98662988
 31
0.0
  0
LINE
  5
1FE
100
AcDbEntity
  8
0
  6
CONTINUOUS
 62
       7
100
AcDbLine
 10
-177.16383985
 20
-410.98662988
 30
0.0
 11
-168.16383985
 21
-410.98662988
 31
0.0
  0
LINE
  5
1FF
100
AcDbEntity
  8
0
  6
CONTINUOUS
 62
       7
100
AcDbLine
 10
-168.16383985
 20
-410.98662988
 30
0.0
 11
-165.91383985
 21
-409.86162988
 31
0.0
  0
LINE
  5
200
100
AcDbEntity
  8
0
  6
CONTINUOUS
 62
       7
100
AcDbLine
 10
-168.16383985
 20
-410.98662988
 30
0.0
 11
-165.91383985
 21
-409.86162988
 31
0.0
  0
LINE
  5
201
100
AcDbEntity
  8
0
  6
CONTINUOUS
 62
       7
100
AcDbLine
 10
-165.91383985
 20
-409.86162988
 30
0.0
 11
-163.85133985
 21
-408.17412988
 31
0.0
  0
LINE
  5
202
100
AcDbEntity
  8
0
  6
CONTINUOUS
 62
       7
100
AcDbLine
 10
-195.61383985
 20
-405.92412988
 30
0.0
 11
-197.86383985
 21
-412.11162988
 31
0.0
  0
LINE
  5
203
100
AcDbEntity
  8
0
  6
CONTINUOUS
 62
       7
100
AcDbLine
 10
-197.86383985
 20
-412.11162988
 30
0.0
 11
-199.17633985
 21
-413.42412988
 31
0.0
  0
LINE
  5
204
100
AcDbEntity
  8
0
  6
CONTINUOUS
 62
       7
100
AcDbLine
 10
-197.86383985
 20
-412.11162988
 30
0.0
 11
-199.17633985
 21
-413.42412988
 31
0.0
  0
LINE
  5
205
100
AcDbEntity
  8
0
  6
CONTINUOUS
 62
       7
100
AcDbLine
 10
-199.17633985
 20
-413.42412988
 30
0.0
 11
-200.30133985
 21
-414.54912988
 31
0.0
  0
LINE
  5
206
100
AcDbEntity
  8
0
  6
CONTINUOUS
 62
       7
100
AcDbLine
 10
-200.30133985
 20
-414.54912988
 30
0.0
 11
-201.80133985
 21
-415.29912988
 31
0.0
  0
LINE
  5
207
100
AcDbEntity
  8
0
  6
CONTINUOUS
 62
       7
100
AcDbLine
 10
-200.30133985
 20
-414.54912988
 30
0.0
 11
-201.80133985
 21
-415.29912988
 31
0.0
  0
LINE
  5
208
100
AcDbEntity
  8
0
  6
CONTINUOUS
 62
       7
100
AcDbLine
 10
-201.80133985
 20
-415.29912988
 30
0.0
 11
-203.30133985
 21
-415.67412988
 31
0.0
  0
LINE
  5
209
100
AcDbEntity
  8
0
  6
CONTINUOUS
 62
       7
100
AcDbLine
 10
-203.30133985
 20
-415.67412988
 30
0.0
 11
-212.86383985
 21
-415.67412988
 31
0.0
  0
LINE
  5
20A
100
AcDbEntity
  8
0
  6
CONTINUOUS
 62
       7
100
AcDbLine
 10
-203.30133985
 20
-415.67412988
 30
0.0
 11
-212.86383985
 21
-415.67412988
 31
0.0
  0
LINE
  5
20B
100
AcDbEntity
  8
0
  6
CONTINUOUS
 62
       7
100
AcDbLine
 10
-212.86383985
 20
-415.67412988
 30
0.0
 11
-211.73883985
 21
-412.86162988
 31
0.0
  0
LINE
  5
20C
100
AcDbEntity
  8
0
  6
CONTINUOUS
 62
       7
100
AcDbLine
 10
-211.73883985
 20
-412.86162988
 30
0.0
 11
-205.55133985
 21
-412.86162988
 31
0.0
  0
LINE
  5
20D
100
AcDbEntity
  8
0
  6
CONTINUOUS
 62
       7
100
AcDbLine
 10
-211.73883985
 20
-412.86162988
 30
0.0
 11
-205.55133985
 21
-412.86162988
 31
0.0
  0
LINE
  5
20E
100
AcDbEntity
  8
0
  6
CONTINUOUS
 62
       7
100
AcDbLine
 10
-201.98883985
 20
-408.54912988
 30
0.0
 11
-209.86383985
 21
-408.54912988
 31
0.0
  0
LINE
  5
20F
100
AcDbEntity
  8
0
  6
CONTINUOUS
 62
       7
100
AcDbLine
 10
-209.86383985
 20
-408.54912988
 30
0.0
 11
-209.11383985
 21
-405.92412988
 31
0.0
  0
LINE
  5
210
100
AcDbEntity
  8
0
  6
CONTINUOUS
 62
       7
100
AcDbLine
 10
-209.86383985
 20
-408.54912988
 30
0.0
 11
-209.11383985
 21
-405.92412988
 31
0.0
  0
LINE
  5
211
100
AcDbEntity
  8
0
  6
CONTINUOUS
 62
       7
100
AcDbLine
 10
-205.55133985
 20
-412.86162988
 30
0.0
 11
-204.23883985
 21
-411.92412988
 31
0.0
  0
LINE
  5
212
100
AcDbEntity
  8
0
  6
CONTINUOUS
 62
       7
100
AcDbLine
 10
-205.55133985
 20
-412.86162988
 30
0.0
 11
-204.23883985
 21
-411.92412988
 31
0.0
  0
LINE
  5
213
100
AcDbEntity
  8
0
  6
CONTINUOUS
 62
       7
100
AcDbLine
 10
-204.23883985
 20
-411.92412988
 30
0.0
 11
-203.30133985
 21
-410.98662988
 31
0.0
  0
LINE
  5
214
100
AcDbEntity
  8
0
  6
CONTINUOUS
 62
       7
100
AcDbLine
 10
-204.23883985
 20
-411.92412988
 30
0.0
 11
-203.30133985
 21
-410.98662988
 31
0.0
  0
LINE
  5
215
100
AcDbEntity
  8
0
  6
CONTINUOUS
 62
       7
100
AcDbLine
 10
-203.30133985
 20
-410.98662988
 30
0.0
 11
-202.36383985
 21
-409.86162988
 31
0.0
  0
LINE
  5
216
100
AcDbEntity
  8
0
  6
CONTINUOUS
 62
       7
100
AcDbLine
 10
-203.30133985
 20
-410.98662988
 30
0.0
 11
-202.36383985
 21
-409.86162988
 31
0.0
  0
LINE
  5
217
100
AcDbEntity
  8
0
  6
CONTINUOUS
 62
       7
100
AcDbLine
 10
-202.36383985
 20
-409.86162988
 30
0.0
 11
-201.98883985
 21
-408.54912988
 31
0.0
  0
LINE
  5
218
100
AcDbEntity
  8
0
  6
CONTINUOUS
 62
       7
100
AcDbLine
 10
-202.36383985
 20
-409.86162988
 30
0.0
 11
-201.98883985
 21
-408.54912988
 31
0.0
  0
LINE
  5
219
100
AcDbEntity
  8
0
  6
CONTINUOUS
 62
       7
100
AcDbLine
 10
-214.17633985
 20
-400.86162988
 30
0.0
 11
-210.05282864
 21
-400.86162988
 31
0.0
  0
LINE
  5
21A
100
AcDbEntity
  8
0
  6
CONTINUOUS
 62
       7
100
AcDbLine
 10
-213.46383985
 20
-411.92412988
 30
0.0
 11
-214.96383985
 21
-413.42412988
 31
0.0
  0
LINE
  5
21B
100
AcDbEntity
  8
0
  6
CONTINUOUS
 62
       7
100
AcDbLine
 10
-214.96383985
 20
-413.42412988
 30
0.0
 11
-216.46383985
 21
-414.73662988
 31
0.0
  0
LINE
  5
21C
100
AcDbEntity
  8
0
  6
CONTINUOUS
 62
       7
100
AcDbLine
 10
-214.96383985
 20
-413.42412988
 30
0.0
 11
-216.46383985
 21
-414.73662988
 31
0.0
  0
LINE
  5
21D
100
AcDbEntity
  8
0
  6
CONTINUOUS
 62
       7
100
AcDbLine
 10
-216.46383985
 20
-414.73662988
 30
0.0
 11
-218.33883985
 21
-415.48662988
 31
0.0
  0
LINE
  5
21E
100
AcDbEntity
  8
0
  6
CONTINUOUS
 62
       7
100
AcDbLine
 10
-218.33883985
 20
-415.48662988
 30
0.0
 11
-220.21383985
 21
-415.67412988
 31
0.0
  0
LINE
  5
21F
100
AcDbEntity
  8
0
  6
CONTINUOUS
 62
       7
100
AcDbLine
 10
-220.21383985
 20
-415.67412988
 30
0.0
 11
-224.90133985
 21
-415.67412988
 31
0.0
  0
LINE
  5
220
100
AcDbEntity
  8
0
  6
CONTINUOUS
 62
       7
100
AcDbLine
 10
-224.90133985
 20
-415.67412988
 30
0.0
 11
-223.96383985
 21
-412.86162988
 31
0.0
  0
LINE
  5
221
100
AcDbEntity
  8
0
  6
CONTINUOUS
 62
       7
100
AcDbLine
 10
-224.90133985
 20
-415.67412988
 30
0.0
 11
-223.96383985
 21
-412.86162988
 31
0.0
  0
LINE
  5
222
100
AcDbEntity
  8
0
  6
CONTINUOUS
 62
       7
100
AcDbLine
 10
-218.33883985
 20
-410.42412988
 30
0.0
 11
-214.77633985
 21
-400.86162988
 31
0.0
  0
LINE
  5
223
100
AcDbEntity
  8
0
  6
CONTINUOUS
 62
       7
100
AcDbLine
 10
-223.96383985
 20
-412.86162988
 30
0.0
 11
-222.27633985
 21
-412.86162988
 31
0.0
  0
LINE
  5
224
100
AcDbEntity
  8
0
  6
CONTINUOUS
 62
       7
100
AcDbLine
 10
-223.96383985
 20
-412.86162988
 30
0.0
 11
-222.27633985
 21
-412.86162988
 31
0.0
  0
LINE
  5
225
100
AcDbEntity
  8
0
  6
CONTINUOUS
 62
       7
100
AcDbLine
 10
-219.27633985
 20
-411.92412988
 30
0.0
 11
-218.33883985
 21
-410.42412988
 31
0.0
  0
LINE
  5
226
100
AcDbEntity
  8
0
  6
CONTINUOUS
 62
       7
100
AcDbLine
 10
-220.77633985
 20
-412.67412988
 30
0.0
 11
-219.27633985
 21
-411.92412988
 31
0.0
  0
LINE
  5
227
100
AcDbEntity
  8
0
  6
CONTINUOUS
 62
       7
100
AcDbLine
 10
-222.27633985
 20
-412.86162988
 30
0.0
 11
-220.77633985
 21
-412.67412988
 31
0.0
  0
LINE
  5
228
100
AcDbEntity
  8
0
  6
CONTINUOUS
 62
       7
100
AcDbLine
 10
-222.27633985
 20
-412.86162988
 30
0.0
 11
-220.77633985
 21
-412.67412988
 31
0.0
  0
LINE
  5
229
100
AcDbEntity
  8
0
  6
CONTINUOUS
 62
       7
100
AcDbLine
 10
-173.41383985
 20
-400.86162988
 30
0.0
 11
-167.41383985
 21
-400.86162988
 31
0.0
  0
LINE
  5
22A
100
AcDbEntity
  8
0
  6
CONTINUOUS
 62
       7
100
AcDbLine
 10
-167.41383985
 20
-400.86162988
 30
0.0
 11
-168.53883985
 21
-404.23662988
 31
0.0
  0
LINE
  5
22B
100
AcDbEntity
  8
0
  6
CONTINUOUS
 62
       7
100
AcDbLine
 10
-167.41383985
 20
-400.86162988
 30
0.0
 11
-168.53883985
 21
-404.23662988
 31
0.0
  0
LINE
  5
22C
100
AcDbEntity
  8
0
  6
CONTINUOUS
 62
       7
100
AcDbLine
 10
-168.83883985
 20
-404.23662988
 30
0.0
 11
-174.72633985
 21
-404.23662988
 31
0.0
  0
LINE
  5
22D
100
AcDbEntity
  8
0
  6
CONTINUOUS
 62
       7
100
AcDbLine
 10
-151.19156293
 20
-404.21168646
 30
0.0
 11
-152.93883985
 21
-407.42412988
 31
0.0
  0
LINE
  5
22E
100
AcDbEntity
  8
0
  6
CONTINUOUS
 62
       7
100
AcDbLine
 10
-146.00133985
 20
-400.86162988
 30
0.0
 11
-155.37633985
 21
-410.23662988
 31
0.0
  0
LINE
  5
22F
100
AcDbEntity
  8
0
  6
CONTINUOUS
 62
       7
100
AcDbLine
 10
-155.37633985
 20
-410.23662988
 30
0.0
 11
-160.58883985
 21
-415.44912988
 31
0.0
  0
LINE
  5
230
100
AcDbEntity
  8
0
  6
CONTINUOUS
 62
       7
100
AcDbLine
 10
-146.84986799
 20
-400.86162988
 30
0.0
 11
-152.37413626
 21
-406.38589815
 31
0.0
  0
LINE
  5
231
100
AcDbEntity
  8
0
  6
CONTINUOUS
 62
       7
100
AcDbLine
 10
-157.31583273
 20
-411.32759463
 30
0.0
 11
-161.60707361
 21
-415.61883551
 31
0.0
  0
LINE
  5
232
100
AcDbEntity
  8
0
  6
CONTINUOUS
 62
       7
100
AcDbLine
 10
-147.69839612
 20
-400.86162988
 30
0.0
 11
-151.3622283
 21
-404.52546206
 31
0.0
  0
LINE
  5
233
100
AcDbEntity
  8
0
  6
CONTINUOUS
 62
       7
100
AcDbLine
 10
-158.86344446
 20
-412.02667822
 30
0.0
 11
-162.62530738
 21
-415.78854114
 31
0.0
  0
LINE
  5
234
100
AcDbEntity
  8
0
  6
CONTINUOUS
 62
       7
100
AcDbLine
 10
-148.54692426
 20
-400.86162988
 30
0.0
 11
-151.92192426
 21
-404.23662988
 31
0.0
  0
LINE
  5
235
100
AcDbEntity
  8
0
  6
CONTINUOUS
 62
       7
100
AcDbLine
 10
-159.93824677
 20
-412.25295239
 30
0.0
 11
-162.80033926
 21
-415.11504488
 31
0.0
  0
LINE
  5
236
100
AcDbEntity
  8
0
  6
CONTINUOUS
 62
       7
100
AcDbLine
 10
-149.3954524
 20
-400.86162988
 30
0.0
 11
-152.7704524
 21
-404.23662988
 31
0.0
  0
LINE
  5
237
100
AcDbEntity
  8
0
  6
CONTINUOUS
 62
       7
100
AcDbLine
 10
-161.01304908
 20
-412.47922656
 30
0.0
 11
-162.33750573
 21
-413.80368321
 31
0.0
  0
LINE
  5
238
100
AcDbEntity
  8
0
  6
CONTINUOUS
 62
       7
100
AcDbLine
 10
-150.24398054
 20
-400.86162988
 30
0.0
 11
-153.61898054
 21
-404.23662988
 31
0.0
  0
LINE
  5
239
100
AcDbEntity
  8
0
  6
CONTINUOUS
 62
       7
100
AcDbLine
 10
-151.09250867
 20
-400.86162988
 30
0.0
 11
-154.46750867
 21
-404.23662988
 31
0.0
  0
LINE
  5
23A
100
AcDbEntity
  8
0
  6
CONTINUOUS
 62
       7
100
AcDbLine
 10
-151.94103681
 20
-400.86162988
 30
0.0
 11
-155.31603681
 21
-404.23662988
 31
0.0
  0
LINE
  5
23B
100
AcDbEntity
  8
0
  6
CONTINUOUS
 62
       7
100
AcDbLine
 10
-152.78956495
 20
-400.86162988
 30
0.0
 11
-156.16456495
 21
-404.23662988
 31
0.0
  0
LINE
  5
23C
100
AcDbEntity
  8
0
  6
CONTINUOUS
 62
       7
100
AcDbLine
 10
-153.63809309
 20
-400.86162988
 30
0.0
 11
-157.01309309
 21
-404.23662988
 31
0.0
  0
LINE
  5
23D
100
AcDbEntity
  8
0
  6
CONTINUOUS
 62
       7
100
AcDbLine
 10
-154.48662122
 20
-400.86162988
 30
0.0
 11
-157.78994916
 21
-404.16495782
 31
0.0
  0
LINE
  5
23E
100
AcDbEntity
  8
0
  6
CONTINUOUS
 62
       7
100
AcDbLine
 10
-155.33514936
 20
-400.86162988
 30
0.0
 11
-157.36568509
 21
-402.89216561
 31
0.0
  0
LINE
  5
23F
100
AcDbEntity
  8
0
  6
CONTINUOUS
 62
       7
100
AcDbLine
 10
-156.1836775
 20
-400.86162988
 30
0.0
 11
-156.94142102
 21
-401.61937341
 31
0.0
  0
LINE
  5
240
100
AcDbEntity
  8
0
  6
CONTINUOUS
 62
       7
100
AcDbLine
 10
-145.15281171
 20
-400.86162988
 30
0.0
 11
-159.57060608
 21
-415.27942425
 31
0.0
  0
LINE
  5
241
100
AcDbEntity
  8
0
  6
CONTINUOUS
 62
       7
100
AcDbLine
 10
-144.30428357
 20
-400.86162988
 30
0.0
 11
-158.55237232
 21
-415.10971863
 31
0.0
  0
LINE
  5
242
100
AcDbEntity
  8
0
  6
CONTINUOUS
 62
       7
100
AcDbLine
 10
-144.13207361
 20
-401.53794806
 30
0.0
 11
-157.53413855
 21
-414.940013
 31
0.0
  0
LINE
  5
243
100
AcDbEntity
  8
0
  6
CONTINUOUS
 62
       7
100
AcDbLine
 10
-144.47148487
 20
-402.72588745
 30
0.0
 11
-156.36208228
 21
-414.61648486
 31
0.0
  0
LINE
  5
244
100
AcDbEntity
  8
0
  6
CONTINUOUS
 62
       7
100
AcDbLine
 10
-144.95038901
 20
-404.05331973
 30
0.0
 11
-155.17414289
 21
-414.27707361
 31
0.0
  0
LINE
  5
245
100
AcDbEntity
  8
0
  6
CONTINUOUS
 62
       7
100
AcDbLine
 10
-145.67769884
 20
-405.6291577
 30
0.0
 11
-153.92708661
 21
-413.87854547
 31
0.0
  0
LINE
  5
246
100
AcDbEntity
  8
0
  6
CONTINUOUS
 62
       7
100
AcDbLine
 10
-147.19323377
 20
-407.99322077
 30
0.0
 11
-152.65429441
 21
-413.4542814
 31
0.0
  0
LINE
  5
247
100
AcDbEntity
  8
0
  6
CONTINUOUS
 62
       7
100
AcDbLine
 10
-148.91606592
 20
-410.56458105
 30
0.0
 11
-151.84392076
 21
-413.4924359
 31
0.0
  0
LINE
  5
248
100
AcDbEntity
  8
0
  6
CONTINUOUS
 62
       7
100
AcDbLine
 10
-148.59551085
 20
-411.09255412
 30
0.0
 11
-151.52067195
 21
-414.01771522
 31
0.0
  0
LINE
  5
249
100
AcDbEntity
  8
0
  6
CONTINUOUS
 62
       7
100
AcDbLine
 10
-148.27495577
 20
-411.62052718
 30
0.0
 11
-151.19742313
 21
-414.54299454
 31
0.0
  0
LINE
  5
24A
100
AcDbEntity
  8
0
  6
CONTINUOUS
 62
       7
100
AcDbLine
 10
-147.9544007
 20
-412.14850024
 30
0.0
 11
-150.87417432
 21
-415.06827386
 31
0.0
  0
LINE
  5
24B
100
AcDbEntity
  8
0
  6
CONTINUOUS
 62
       7
100
AcDbLine
 10
-147.63384563
 20
-412.67647331
 30
0.0
 11
-150.55092551
 21
-415.59355319
 31
0.0
  0
LINE
  5
24C
100
AcDbEntity
  8
0
  6
CONTINUOUS
 62
       7
100
AcDbLine
 10
-147.31329055
 20
-413.20444637
 30
0.0
 11
-149.78297406
 21
-415.67412988
 31
0.0
  0
LINE
  5
24D
100
AcDbEntity
  8
0
  6
CONTINUOUS
 62
       7
100
AcDbLine
 10
-146.99273548
 20
-413.73241943
 30
0.0
 11
-148.93444592
 21
-415.67412988
 31
0.0
  0
LINE
  5
24E
100
AcDbEntity
  8
0
  6
CONTINUOUS
 62
       7
100
AcDbLine
 10
-146.6721804
 20
-414.2603925
 30
0.0
 11
-148.08591779
 21
-415.67412988
 31
0.0
  0
LINE
  5
24F
100
AcDbEntity
  8
0
  6
CONTINUOUS
 62
       7
100
AcDbLine
 10
-146.35162533
 20
-414.78836556
 30
0.0
 11
-147.23738965
 21
-415.67412988
 31
0.0
  0
LINE
  5
250
100
AcDbEntity
  8
0
  6
CONTINUOUS
 62
       7
100
AcDbLine
 10
-146.03107025
 20
-415.31633862
 30
0.0
 11
-146.38886151
 21
-415.67412988
 31
0.0
  0
LINE
  5
251
100
AcDbEntity
  8
0
  6
CONTINUOUS
 62
       7
100
AcDbLine
 10
-169.38258985
 20
-400.86162988
 30
0.0
 11
-172.75758985
 21
-404.23662988
 31
0.0
  0
LINE
  5
252
100
AcDbEntity
  8
0
  6
CONTINUOUS
 62
       7
100
AcDbLine
 10
-170.23111799
 20
-400.86162988
 30
0.0
 11
-173.60611799
 21
-404.23662988
 31
0.0
  0
LINE
  5
253
100
AcDbEntity
  8
0
  6
CONTINUOUS
 62
       7
100
AcDbLine
 10
-171.07964612
 20
-400.86162988
 30
0.0
 11
-174.45464612
 21
-404.23662988
 31
0.0
  0
LINE
  5
254
100
AcDbEntity
  8
0
  6
CONTINUOUS
 62
       7
100
AcDbLine
 10
-171.92817426
 20
-400.86162988
 30
0.0
 11
-174.3592634
 21
-403.29271902
 31
0.0
  0
LINE
  5
255
100
AcDbEntity
  8
0
  6
CONTINUOUS
 62
       7
100
AcDbLine
 10
-172.7767024
 20
-400.86162988
 30
0.0
 11
-173.81929095
 21
-401.90421844
 31
0.0
  0
LINE
  5
256
100
AcDbEntity
  8
0
  6
CONTINUOUS
 62
       7
100
AcDbLine
 10
-168.53406171
 20
-400.86162988
 30
0.0
 11
-171.90906171
 21
-404.23662988
 31
0.0
  0
LINE
  5
257
100
AcDbEntity
  8
0
  6
CONTINUOUS
 62
       7
100
AcDbLine
 10
-167.68553357
 20
-400.86162988
 30
0.0
 11
-171.06053357
 21
-404.23662988
 31
0.0
  0
LINE
  5
258
100
AcDbEntity
  8
0
  6
CONTINUOUS
 62
       7
100
AcDbLine
 10
-167.70225705
 20
-401.7268815
 30
0.0
 11
-170.21200544
 21
-404.23662988
 31
0.0
  0
LINE
  5
259
100
AcDbEntity
  8
0
  6
CONTINUOUS
 62
       7
100
AcDbLine
 10
-168.12652112
 20
-402.99967371
 30
0.0
 11
-169.3634773
 21
-404.23662988
 31
0.0
  0
LINE
  5
25A
100
AcDbEntity
  8
0
  6
CONTINUOUS
 62
       7
100
AcDbLine
 10
-168.51494916
 20
-404.23662988
 30
0.0
 11
-168.55078519
 21
-404.27246591
 31
0.0
  0
LINE
  5
25B
100
AcDbEntity
  8
0
  6
CONTINUOUS
 62
       7
100
AcDbLine
 10
-170.50758985
 20
-410.98662988
 30
0.0
 11
-175.19508985
 21
-415.67412988
 31
0.0
  0
LINE
  5
25C
100
AcDbEntity
  8
0
  6
CONTINUOUS
 62
       7
100
AcDbLine
 10
-171.35611799
 20
-410.98662988
 30
0.0
 11
-176.04361799
 21
-415.67412988
 31
0.0
  0
LINE
  5
25D
100
AcDbEntity
  8
0
  6
CONTINUOUS
 62
       7
100
AcDbLine
 10
-172.20464612
 20
-410.98662988
 30
0.0
 11
-176.89214612
 21
-415.67412988
 31
0.0
  0
LINE
  5
25E
100
AcDbEntity
  8
0
  6
CONTINUOUS
 62
       7
100
AcDbLine
 10
-173.05317426
 20
-410.98662988
 30
0.0
 11
-177.74067426
 21
-415.67412988
 31
0.0
  0
LINE
  5
25F
100
AcDbEntity
  8
0
  6
CONTINUOUS
 62
       7
100
AcDbLine
 10
-173.9017024
 20
-410.98662988
 30
0.0
 11
-178.5892024
 21
-415.67412988
 31
0.0
  0
LINE
  5
260
100
AcDbEntity
  8
0
  6
CONTINUOUS
 62
       7
100
AcDbLine
 10
-174.75023054
 20
-410.98662988
 30
0.0
 11
-178.52149509
 21
-414.75789443
 31
0.0
  0
LINE
  5
261
100
AcDbEntity
  8
0
  6
CONTINUOUS
 62
       7
100
AcDbLine
 10
-175.59875867
 20
-410.98662988
 30
0.0
 11
-178.04419801
 21
-413.43206922
 31
0.0
  0
LINE
  5
262
100
AcDbEntity
  8
0
  6
CONTINUOUS
 62
       7
100
AcDbLine
 10
-176.44728681
 20
-410.98662988
 30
0.0
 11
-177.56690093
 21
-412.106244
 31
0.0
  0
LINE
  5
263
100
AcDbEntity
  8
0
  6
CONTINUOUS
 62
       7
100
AcDbLine
 10
-169.65906171
 20
-410.98662988
 30
0.0
 11
-174.34656171
 21
-415.67412988
 31
0.0
  0
LINE
  5
264
100
AcDbEntity
  8
0
  6
CONTINUOUS
 62
       7
100
AcDbLine
 10
-168.81053357
 20
-410.98662988
 30
0.0
 11
-173.49803357
 21
-415.67412988
 31
0.0
  0
LINE
  5
265
100
AcDbEntity
  8
0
  6
CONTINUOUS
 62
       7
100
AcDbLine
 10
-160.64950544
 20
-403.67412988
 30
0.0
 11
-161.89154886
 21
-404.9161733
 31
0.0
  0
LINE
  5
266
100
AcDbEntity
  8
0
  6
CONTINUOUS
 62
       7
100
AcDbLine
 10
-167.76017102
 20
-410.78479547
 30
0.0
 11
-172.64950544
 21
-415.67412988
 31
0.0
  0
LINE
  5
267
100
AcDbEntity
  8
0
  6
CONTINUOUS
 62
       7
100
AcDbLine
 10
-159.8009773
 20
-403.67412988
 30
0.0
 11
-162.65230665
 21
-406.52545923
 31
0.0
  0
LINE
  5
268
100
AcDbEntity
  8
0
  6
CONTINUOUS
 62
       7
100
AcDbLine
 10
-166.06311475
 20
-409.93626733
 30
0.0
 11
-171.8009773
 21
-415.67412988
 31
0.0
  0
LINE
  5
269
100
AcDbEntity
  8
0
  6
CONTINUOUS
 62
       7
100
AcDbLine
 10
-159.67681413
 20
-404.39849485
 30
0.0
 11
-170.95244916
 21
-415.67412988
 31
0.0
  0
LINE
  5
26A
100
AcDbEntity
  8
0
  6
CONTINUOUS
 62
       7
100
AcDbLine
 10
-159.87646781
 20
-405.44667666
 30
0.0
 11
-170.10392102
 21
-415.67412988
 31
0.0
  0
LINE
  5
26B
100
AcDbEntity
  8
0
  6
CONTINUOUS
 62
       7
100
AcDbLine
 10
-160.07612149
 20
-406.49485848
 30
0.0
 11
-169.25539289
 21
-415.67412988
 31
0.0
  0
LINE
  5
26C
100
AcDbEntity
  8
0
  6
CONTINUOUS
 62
       7
100
AcDbLine
 10
-160.27577517
 20
-407.5430403
 30
0.0
 11
-168.00128467
 21
-415.2685498
 31
0.0
  0
LINE
  5
26D
100
AcDbEntity
  8
0
  6
CONTINUOUS
 62
       7
100
AcDbLine
 10
-161.4783447
 20
-409.59413797
 30
0.0
 11
-166.47393402
 21
-414.58972729
 31
0.0
  0
LINE
  5
26E
100
AcDbEntity
  8
0
  6
CONTINUOUS
 62
       7
100
AcDbLine
 10
-177.37008985
 20
-400.86162988
 30
0.0
 11
-190.84665235
 21
-414.33819238
 31
0.0
  0
LINE
  5
26F
100
AcDbEntity
  8
0
  6
CONTINUOUS
 62
       7
100
AcDbLine
 10
-178.21861799
 20
-400.86162988
 30
0.0
 11
-190.3516776
 21
-412.9946895
 31
0.0
  0
LINE
  5
270
100
AcDbEntity
  8
0
  6
CONTINUOUS
 62
       7
100
AcDbLine
 10
-179.06714612
 20
-400.86162988
 30
0.0
 11
-189.85670286
 21
-411.65118661
 31
0.0
  0
LINE
  5
271
100
AcDbEntity
  8
0
  6
CONTINUOUS
 62
       7
100
AcDbLine
 10
-179.91567426
 20
-400.86162988
 30
0.0
 11
-189.36172811
 21
-410.30768373
 31
0.0
  0
LINE
  5
272
100
AcDbEntity
  8
0
  6
CONTINUOUS
 62
       7
100
AcDbLine
 10
-180.7642024
 20
-400.86162988
 30
0.0
 11
-188.86675336
 21
-408.96418084
 31
0.0
  0
LINE
  5
273
100
AcDbEntity
  8
0
  6
CONTINUOUS
 62
       7
100
AcDbLine
 10
-181.61273054
 20
-400.86162988
 30
0.0
 11
-182.21263135
 21
-401.4615307
 31
0.0
  0
LINE
  5
274
100
AcDbEntity
  8
0
  6
CONTINUOUS
 62
       7
100
AcDbLine
 10
-185.52127355
 20
-404.7701729
 30
0.0
 11
-189.30023054
 21
-408.54912988
 31
0.0
  0
LINE
  5
275
100
AcDbEntity
  8
0
  6
CONTINUOUS
 62
       7
100
AcDbLine
 10
-187.00619779
 20
-405.406569
 30
0.0
 11
-190.14875867
 21
-408.54912988
 31
0.0
  0
LINE
  5
276
100
AcDbEntity
  8
0
  6
CONTINUOUS
 62
       7
100
AcDbLine
 10
-188.21882406
 20
-405.77066713
 30
0.0
 11
-190.99728681
 21
-408.54912988
 31
0.0
  0
LINE
  5
277
100
AcDbEntity
  8
0
  6
CONTINUOUS
 62
       7
100
AcDbLine
 10
-189.13806287
 20
-405.84137781
 30
0.0
 11
-191.84581495
 21
-408.54912988
 31
0.0
  0
LINE
  5
278
100
AcDbEntity
  8
0
  6
CONTINUOUS
 62
       7
100
AcDbLine
 10
-190.05730169
 20
-405.91208848
 30
0.0
 11
-192.69434309
 21
-408.54912988
 31
0.0
  0
LINE
  5
279
100
AcDbEntity
  8
0
  6
CONTINUOUS
 62
       7
100
AcDbLine
 10
-190.91787122
 20
-405.92412988
 30
0.0
 11
-193.54287122
 21
-408.54912988
 31
0.0
  0
LINE
  5
27A
100
AcDbEntity
  8
0
  6
CONTINUOUS
 62
       7
100
AcDbLine
 10
-191.76639936
 20
-405.92412988
 30
0.0
 11
-194.39139936
 21
-408.54912988
 31
0.0
  0
LINE
  5
27B
100
AcDbEntity
  8
0
  6
CONTINUOUS
 62
       7
100
AcDbLine
 10
-192.6149275
 20
-405.92412988
 30
0.0
 11
-194.42156893
 21
-407.73077132
 31
0.0
  0
LINE
  5
27C
100
AcDbEntity
  8
0
  6
CONTINUOUS
 62
       7
100
AcDbLine
 10
-193.46345564
 20
-405.92412988
 30
0.0
 11
-193.95016441
 21
-406.41083866
 31
0.0
  0
LINE
  5
27D
100
AcDbEntity
  8
0
  6
CONTINUOUS
 62
       7
100
AcDbLine
 10
-176.52156171
 20
-400.86162988
 30
0.0
 11
-191.3416271
 21
-415.68169527
 31
0.0
  0
LINE
  5
27E
100
AcDbEntity
  8
0
  6
CONTINUOUS
 62
       7
100
AcDbLine
 10
-175.67303357
 20
-400.86162988
 30
0.0
 11
-182.18961967
 21
-407.37821598
 31
0.0
  0
LINE
  5
27F
100
AcDbEntity
  8
0
  6
CONTINUOUS
 62
       7
100
AcDbLine
 10
-182.39227413
 20
-407.58087044
 30
0.0
 11
-190.48553357
 21
-415.67412988
 31
0.0
  0
LINE
  5
280
100
AcDbEntity
  8
0
  6
CONTINUOUS
 62
       7
100
AcDbLine
 10
-174.82450544
 20
-400.86162988
 30
0.0
 11
-180.96396792
 21
-407.00109236
 31
0.0
  0
LINE
  5
281
100
AcDbEntity
  8
0
  6
CONTINUOUS
 62
       7
100
AcDbLine
 10
-182.83116799
 20
-408.86829244
 30
0.0
 11
-189.63700544
 21
-415.67412988
 31
0.0
  0
LINE
  5
282
100
AcDbEntity
  8
0
  6
CONTINUOUS
 62
       7
100
AcDbLine
 10
-175.57843632
 20
-402.4640889
 30
0.0
 11
-179.4875105
 21
-406.37316308
 31
0.0
  0
LINE
  5
283
100
AcDbEntity
  8
0
  6
CONTINUOUS
 62
       7
100
AcDbLine
 10
-183.27006186
 20
-410.15571444
 30
0.0
 11
-188.7884773
 21
-415.67412988
 31
0.0
  0
LINE
  5
284
100
AcDbEntity
  8
0
  6
CONTINUOUS
 62
       7
100
AcDbLine
 10
-183.70895572
 20
-411.44313644
 30
0.0
 11
-187.93994916
 21
-415.67412988
 31
0.0
  0
LINE
  5
285
100
AcDbEntity
  8
0
  6
CONTINUOUS
 62
       7
100
AcDbLine
 10
-184.14784959
 20
-412.73055844
 30
0.0
 11
-187.09142102
 21
-415.67412988
 31
0.0
  0
LINE
  5
286
100
AcDbEntity
  8
0
  6
CONTINUOUS
 62
       7
100
AcDbLine
 10
-184.58674345
 20
-414.01798044
 30
0.0
 11
-186.24289289
 21
-415.67412988
 31
0.0
  0
LINE
  5
287
100
AcDbEntity
  8
0
  6
CONTINUOUS
 62
       7
100
AcDbLine
 10
-185.02563731
 20
-415.30540245
 30
0.0
 11
-185.39436475
 21
-415.67412988
 31
0.0
  0
LINE
  5
288
100
AcDbEntity
  8
0
  6
CONTINUOUS
 62
       7
100
AcDbLine
 10
-199.64508985
 20
-400.86162988
 30
0.0
 11
-203.02008985
 21
-404.23662988
 31
0.0
  0
LINE
  5
289
100
AcDbEntity
  8
0
  6
CONTINUOUS
 62
       7
100
AcDbLine
 10
-200.49361799
 20
-400.86162988
 30
0.0
 11
-203.86861799
 21
-404.23662988
 31
0.0
  0
LINE
  5
28A
100
AcDbEntity
  8
0
  6
CONTINUOUS
 62
       7
100
AcDbLine
 10
-201.34214612
 20
-400.86162988
 30
0.0
 11
-204.71714612
 21
-404.23662988
 31
0.0
  0
LINE
  5
28B
100
AcDbEntity
  8
0
  6
CONTINUOUS
 62
       7
100
AcDbLine
 10
-202.19067426
 20
-400.86162988
 30
0.0
 11
-205.56567426
 21
-404.23662988
 31
0.0
  0
LINE
  5
28C
100
AcDbEntity
  8
0
  6
CONTINUOUS
 62
       7
100
AcDbLine
 10
-203.0392024
 20
-400.86162988
 30
0.0
 11
-206.4142024
 21
-404.23662988
 31
0.0
  0
LINE
  5
28D
100
AcDbEntity
  8
0
  6
CONTINUOUS
 62
       7
100
AcDbLine
 10
-203.88773054
 20
-400.86162988
 30
0.0
 11
-207.26273054
 21
-404.23662988
 31
0.0
  0
LINE
  5
28E
100
AcDbEntity
  8
0
  6
CONTINUOUS
 62
       7
100
AcDbLine
 10
-204.73625867
 20
-400.86162988
 30
0.0
 11
-208.11125867
 21
-404.23662988
 31
0.0
  0
LINE
  5
28F
100
AcDbEntity
  8
0
  6
CONTINUOUS
 62
       7
100
AcDbLine
 10
-205.58478681
 20
-400.86162988
 30
0.0
 11
-208.62836637
 21
-403.90520944
 31
0.0
  0
LINE
  5
290
100
AcDbEntity
  8
0
  6
CONTINUOUS
 62
       7
100
AcDbLine
 10
-206.43331495
 20
-400.86162988
 30
0.0
 11
-208.2041023
 21
-402.63241723
 31
0.0
  0
LINE
  5
291
100
AcDbEntity
  8
0
  6
CONTINUOUS
 62
       7
100
AcDbLine
 10
-207.28184309
 20
-400.86162988
 30
0.0
 11
-207.77983823
 21
-401.35962503
 31
0.0
  0
LINE
  5
292
100
AcDbEntity
  8
0
  6
CONTINUOUS
 62
       7
100
AcDbLine
 10
-198.79656171
 20
-400.86162988
 30
0.0
 11
-202.17156171
 21
-404.23662988
 31
0.0
  0
LINE
  5
293
100
AcDbEntity
  8
0
  6
CONTINUOUS
 62
       7
100
AcDbLine
 10
-197.94803357
 20
-400.86162988
 30
0.0
 11
-201.32303357
 21
-404.23662988
 31
0.0
  0
LINE
  5
294
100
AcDbEntity
  8
0
  6
CONTINUOUS
 62
       7
100
AcDbLine
 10
-197.09950544
 20
-400.86162988
 30
0.0
 11
-200.47450544
 21
-404.23662988
 31
0.0
  0
LINE
  5
295
100
AcDbEntity
  8
0
  6
CONTINUOUS
 62
       7
100
AcDbLine
 10
-196.2509773
 20
-400.86162988
 30
0.0
 11
-199.6259773
 21
-404.23662988
 31
0.0
  0
LINE
  5
296
100
AcDbEntity
  8
0
  6
CONTINUOUS
 62
       7
100
AcDbLine
 10
-195.40244916
 20
-400.86162988
 30
0.0
 11
-198.77744916
 21
-404.23662988
 31
0.0
  0
LINE
  5
297
100
AcDbEntity
  8
0
  6
CONTINUOUS
 62
       7
100
AcDbLine
 10
-194.55392102
 20
-400.86162988
 30
0.0
 11
-197.92892102
 21
-404.23662988
 31
0.0
  0
LINE
  5
298
100
AcDbEntity
  8
0
  6
CONTINUOUS
 62
       7
100
AcDbLine
 10
-194.03681333
 20
-401.19305032
 30
0.0
 11
-197.08039289
 21
-404.23662988
 31
0.0
  0
LINE
  5
299
100
AcDbEntity
  8
0
  6
CONTINUOUS
 62
       7
100
AcDbLine
 10
-194.4610774
 20
-402.46584253
 30
0.0
 11
-196.23186475
 21
-404.23662988
 31
0.0
  0
LINE
  5
29A
100
AcDbEntity
  8
0
  6
CONTINUOUS
 62
       7
100
AcDbLine
 10
-194.88534147
 20
-403.73863474
 30
0.0
 11
-195.38333661
 21
-404.23662988
 31
0.0
  0
LINE
  5
29B
100
AcDbEntity
  8
0
  6
CONTINUOUS
 62
       7
100
AcDbLine
 10
-199.36383985
 20
-405.92412988
 30
0.0
 11
-201.98883985
 21
-408.54912988
 31
0.0
  0
LINE
  5
29C
100
AcDbEntity
  8
0
  6
CONTINUOUS
 62
       7
100
AcDbLine
 10
-206.30133985
 20
-412.86162988
 30
0.0
 11
-209.11383985
 21
-415.67412988
 31
0.0
  0
LINE
  5
29D
100
AcDbEntity
  8
0
  6
CONTINUOUS
 62
       7
100
AcDbLine
 10
-200.21236799
 20
-405.92412988
 30
0.0
 11
-202.83736799
 21
-408.54912988
 31
0.0
  0
LINE
  5
29E
100
AcDbEntity
  8
0
  6
CONTINUOUS
 62
       7
100
AcDbLine
 10
-207.14986799
 20
-412.86162988
 30
0.0
 11
-209.96236799
 21
-415.67412988
 31
0.0
  0
LINE
  5
29F
100
AcDbEntity
  8
0
  6
CONTINUOUS
 62
       7
100
AcDbLine
 10
-201.06089612
 20
-405.92412988
 30
0.0
 11
-203.68589612
 21
-408.54912988
 31
0.0
  0
LINE
  5
2A0
100
AcDbEntity
  8
0
  6
CONTINUOUS
 62
       7
100
AcDbLine
 10
-207.99839612
 20
-412.86162988
 30
0.0
 11
-210.81089612
 21
-415.67412988
 31
0.0
  0
LINE
  5
2A1
100
AcDbEntity
  8
0
  6
CONTINUOUS
 62
       7
100
AcDbLine
 10
-201.90942426
 20
-405.92412988
 30
0.0
 11
-204.53442426
 21
-408.54912988
 31
0.0
  0
LINE
  5
2A2
100
AcDbEntity
  8
0
  6
CONTINUOUS
 62
       7
100
AcDbLine
 10
-208.84692426
 20
-412.86162988
 30
0.0
 11
-211.65942426
 21
-415.67412988
 31
0.0
  0
LINE
  5
2A3
100
AcDbEntity
  8
0
  6
CONTINUOUS
 62
       7
100
AcDbLine
 10
-202.7579524
 20
-405.92412988
 30
0.0
 11
-205.3829524
 21
-408.54912988
 31
0.0
  0
LINE
  5
2A4
100
AcDbEntity
  8
0
  6
CONTINUOUS
 62
       7
100
AcDbLine
 10
-209.6954524
 20
-412.86162988
 30
0.0
 11
-212.5079524
 21
-415.67412988
 31
0.0
  0
LINE
  5
2A5
100
AcDbEntity
  8
0
  6
CONTINUOUS
 62
       7
100
AcDbLine
 10
-203.60648054
 20
-405.92412988
 30
0.0
 11
-206.23148054
 21
-408.54912988
 31
0.0
  0
LINE
  5
2A6
100
AcDbEntity
  8
0
  6
CONTINUOUS
 62
       7
100
AcDbLine
 10
-210.54398054
 20
-412.86162988
 30
0.0
 11
-212.53541272
 21
-414.85306207
 31
0.0
  0
LINE
  5
2A7
100
AcDbEntity
  8
0
  6
CONTINUOUS
 62
       7
100
AcDbLine
 10
-204.45500867
 20
-405.92412988
 30
0.0
 11
-207.08000867
 21
-408.54912988
 31
0.0
  0
LINE
  5
2A8
100
AcDbEntity
  8
0
  6
CONTINUOUS
 62
       7
100
AcDbLine
 10
-211.39250867
 20
-412.86162988
 30
0.0
 11
-211.9697273
 21
-413.43884851
 31
0.0
  0
LINE
  5
2A9
100
AcDbEntity
  8
0
  6
CONTINUOUS
 62
       7
100
AcDbLine
 10
-205.30353681
 20
-405.92412988
 30
0.0
 11
-207.92853681
 21
-408.54912988
 31
0.0
  0
LINE
  5
2AA
100
AcDbEntity
  8
0
  6
CONTINUOUS
 62
       7
100
AcDbLine
 10
-206.15206495
 20
-405.92412988
 30
0.0
 11
-208.77706495
 21
-408.54912988
 31
0.0
  0
LINE
  5
2AB
100
AcDbEntity
  8
0
  6
CONTINUOUS
 62
       7
100
AcDbLine
 10
-207.00059309
 20
-405.92412988
 30
0.0
 11
-209.62559309
 21
-408.54912988
 31
0.0
  0
LINE
  5
2AC
100
AcDbEntity
  8
0
  6
CONTINUOUS
 62
       7
100
AcDbLine
 10
-207.84912122
 20
-405.92412988
 30
0.0
 11
-209.6197273
 21
-407.69473596
 31
0.0
  0
LINE
  5
2AD
100
AcDbEntity
  8
0
  6
CONTINUOUS
 62
       7
100
AcDbLine
 10
-208.69764936
 20
-405.92412988
 30
0.0
 11
-209.28031604
 21
-406.50679656
 31
0.0
  0
LINE
  5
2AE
100
AcDbEntity
  8
0
  6
CONTINUOUS
 62
       7
100
AcDbLine
 10
-198.51531171
 20
-405.92412988
 30
0.0
 11
-202.3282511
 21
-409.73706927
 31
0.0
  0
LINE
  5
2AF
100
AcDbEntity
  8
0
  6
CONTINUOUS
 62
       7
100
AcDbLine
 10
-205.20649137
 20
-412.61530954
 30
0.0
 11
-208.26531171
 21
-415.67412988
 31
0.0
  0
LINE
  5
2B0
100
AcDbEntity
  8
0
  6
CONTINUOUS
 62
       7
100
AcDbLine
 10
-197.66678357
 20
-405.92412988
 30
0.0
 11
-207.41678357
 21
-415.67412988
 31
0.0
  0
LINE
  5
2B1
100
AcDbEntity
  8
0
  6
CONTINUOUS
 62
       7
100
AcDbLine
 10
-196.81825544
 20
-405.92412988
 30
0.0
 11
-206.56825544
 21
-415.67412988
 31
0.0
  0
LINE
  5
2B2
100
AcDbEntity
  8
0
  6
CONTINUOUS
 62
       7
100
AcDbLine
 10
-195.9697273
 20
-405.92412988
 30
0.0
 11
-205.7197273
 21
-415.67412988
 31
0.0
  0
LINE
  5
2B3
100
AcDbEntity
  8
0
  6
CONTINUOUS
 62
       7
100
AcDbLine
 10
-195.89534881
 20
-406.69827953
 30
0.0
 11
-204.87119916
 21
-415.67412988
 31
0.0
  0
LINE
  5
2B4
100
AcDbEntity
  8
0
  6
CONTINUOUS
 62
       7
100
AcDbLine
 10
-196.38022203
 20
-408.03168089
 30
0.0
 11
-204.02267102
 21
-415.67412988
 31
0.0
  0
LINE
  5
2B5
100
AcDbEntity
  8
0
  6
CONTINUOUS
 62
       7
100
AcDbLine
 10
-196.86509526
 20
-409.36508225
 30
0.0
 11
-203.1317439
 21
-415.63173089
 31
0.0
  0
LINE
  5
2B6
100
AcDbEntity
  8
0
  6
CONTINUOUS
 62
       7
100
AcDbLine
 10
-197.34996848
 20
-410.69848361
 30
0.0
 11
-202.00037305
 21
-415.34888818
 31
0.0
  0
LINE
  5
2B7
100
AcDbEntity
  8
0
  6
CONTINUOUS
 62
       7
100
AcDbLine
 10
-197.8348417
 20
-412.03188497
 30
0.0
 11
-200.40283338
 21
-414.59987664
 31
0.0
  0
LINE
  5
2B8
100
AcDbEntity
  8
0
  6
CONTINUOUS
 62
       7
100
AcDbLine
 10
-209.90133985
 20
-400.86162988
 30
0.0
 11
-217.6708711
 21
-408.63116113
 31
0.0
  0
LINE
  5
2B9
100
AcDbEntity
  8
0
  6
CONTINUOUS
 62
       7
100
AcDbLine
 10
-221.84776842
 20
-412.80805845
 30
0.0
 11
-224.71383985
 21
-415.67412988
 31
0.0
  0
LINE
  5
2BA
100
AcDbEntity
  8
0
  6
CONTINUOUS
 62
       7
100
AcDbLine
 10
-210.74986799
 20
-400.86162988
 30
0.0
 11
-217.16705752
 21
-407.27881941
 31
0.0
  0
LINE
  5
2BB
100
AcDbEntity
  8
0
  6
CONTINUOUS
 62
       7
100
AcDbLine
 10
-222.74986799
 20
-412.86162988
 30
0.0
 11
-224.57082578
 21
-414.68258768
 31
0.0
  0
LINE
  5
2BC
100
AcDbEntity
  8
0
  6
CONTINUOUS
 62
       7
100
AcDbLine
 10
-211.59839612
 20
-400.86162988
 30
0.0
 11
-216.66324394
 21
-405.92647769
 31
0.0
  0
LINE
  5
2BD
100
AcDbEntity
  8
0
  6
CONTINUOUS
 62
       7
100
AcDbLine
 10
-223.59839612
 20
-412.86162988
 30
0.0
 11
-224.14656171
 21
-413.40979547
 31
0.0
  0
LINE
  5
2BE
100
AcDbEntity
  8
0
  6
CONTINUOUS
 62
       7
100
AcDbLine
 10
-212.44692426
 20
-400.86162988
 30
0.0
 11
-216.15943035
 21
-404.57413597
 31
0.0
  0
LINE
  5
2BF
100
AcDbEntity
  8
0
  6
CONTINUOUS
 62
       7
100
AcDbLine
 10
-213.2954524
 20
-400.86162988
 30
0.0
 11
-215.65561677
 21
-403.22179426
 31
0.0
  0
LINE
  5
2C0
100
AcDbEntity
  8
0
  6
CONTINUOUS
 62
       7
100
AcDbLine
 10
-214.14398054
 20
-400.86162988
 30
0.0
 11
-215.15180319
 21
-401.86945254
 31
0.0
  0
LINE
  5
2C1
100
AcDbEntity
  8
0
  6
CONTINUOUS
 62
       7
100
AcDbLine
 10
-210.05282864
 20
-401.86164681
 30
0.0
 11
-218.17468468
 21
-409.98350285
 31
0.0
  0
LINE
  5
2C2
100
AcDbEntity
  8
0
  6
CONTINUOUS
 62
       7
100
AcDbLine
 10
-220.87802198
 20
-412.68684015
 30
0.0
 11
-223.86531171
 21
-415.67412988
 31
0.0
  0
LINE
  5
2C3
100
AcDbEntity
  8
0
  6
CONTINUOUS
 62
       7
100
AcDbLine
 10
-210.48797127
 20
-403.14531758
 30
0.0
 11
-219.2572273
 21
-411.91457361
 31
0.0
  0
LINE
  5
2C4
100
AcDbEntity
  8
0
  6
CONTINUOUS
 62
       7
100
AcDbLine
 10
-219.29226697
 20
-411.94961328
 30
0.0
 11
-223.01678357
 21
-415.67412988
 31
0.0
  0
LINE
  5
2C5
100
AcDbEntity
  8
0
  6
CONTINUOUS
 62
       7
100
AcDbLine
 10
-210.92311391
 20
-404.42898835
 30
0.0
 11
-222.16825544
 21
-415.67412988
 31
0.0
  0
LINE
  5
2C6
100
AcDbEntity
  8
0
  6
CONTINUOUS
 62
       7
100
AcDbLine
 10
-211.35825654
 20
-405.71265912
 30
0.0
 11
-221.3197273
 21
-415.67412988
 31
0.0
  0
LINE
  5
2C7
100
AcDbEntity
  8
0
  6
CONTINUOUS
 62
       7
100
AcDbLine
 10
-211.79339918
 20
-406.9963299
 30
0.0
 11
-220.47119916
 21
-415.67412988
 31
0.0
  0
LINE
  5
2C8
100
AcDbEntity
  8
0
  6
CONTINUOUS
 62
       7
100
AcDbLine
 10
-212.22854181
 20
-408.28000067
 30
0.0
 11
-219.5569856
 21
-415.60844446
 31
0.0
  0
LINE
  5
2C9
100
AcDbEntity
  8
0
  6
CONTINUOUS
 62
       7
100
AcDbLine
 10
-212.66368444
 20
-409.56367144
 30
0.0
 11
-218.61417656
 21
-415.51416355
 31
0.0
  0
LINE
  5
2CA
100
AcDbEntity
  8
0
  6
CONTINUOUS
 62
       7
100
AcDbLine
 10
-213.09882708
 20
-410.84734221
 30
0.0
 11
-217.33763135
 21
-415.08614648
 31
0.0
  0
LINE
  5
2CB
100
AcDbEntity
  8
0
  6
CONTINUOUS
 62
       7
100
AcDbLine
 10
-218.92008985
 20
-401.91162988
 30
0.0
 11
-225.85396082
 21
-408.84550085
 31
0.0
  0
LINE
  5
2CC
100
AcDbEntity
  8
0
  6
CONTINUOUS
 62
       7
100
AcDbLine
 10
-218.71861799
 20
-400.86162988
 30
0.0
 11
-225.38863893
 21
-407.53165083
 31
0.0
  0
LINE
  5
2CD
100
AcDbEntity
  8
0
  6
CONTINUOUS
 62
       7
100
AcDbLine
 10
-219.56714612
 20
-400.86162988
 30
0.0
 11
-224.92331705
 21
-406.21780081
 31
0.0
  0
LINE
  5
2CE
100
AcDbEntity
  8
0
  6
CONTINUOUS
 62
       7
100
AcDbLine
 10
-220.41567426
 20
-400.86162988
 30
0.0
 11
-224.45799517
 21
-404.90395079
 31
0.0
  0
LINE
  5
2CF
100
AcDbEntity
  8
0
  6
CONTINUOUS
 62
       7
100
AcDbLine
 10
-221.2642024
 20
-400.86162988
 30
0.0
 11
-223.99267329
 21
-403.59010077
 31
0.0
  0
LINE
  5
2D0
100
AcDbEntity
  8
0
  6
CONTINUOUS
 62
       7
100
AcDbLine
 10
-222.11273054
 20
-400.86162988
 30
0.0
 11
-223.52735141
 21
-402.27625075
 31
0.0
  0
LINE
  5
2D1
100
AcDbEntity
  8
0
  6
CONTINUOUS
 62
       7
100
AcDbLine
 10
-222.96125867
 20
-400.86162988
 30
0.0
 11
-223.06202953
 21
-400.96240073
 31
0.0
  0
LINE
  5
2D2
100
AcDbEntity
  8
0
  6
CONTINUOUS
 62
       7
100
AcDbLine
 10
-219.42920673
 20
-403.2692749
 30
0.0
 11
-226.02156171
 21
-409.86162988
 31
0.0
  0
LINE
  5
2D3
100
AcDbEntity
  8
0
  6
CONTINUOUS
 62
       7
100
AcDbLine
 10
-219.93832361
 20
-404.62691992
 30
0.0
 11
-225.17303357
 21
-409.86162988
 31
0.0
  0
LINE
  5
2D4
100
AcDbEntity
  8
0
  6
CONTINUOUS
 62
       7
100
AcDbLine
 10
-220.4474405
 20
-405.98456494
 30
0.0
 11
-224.32450544
 21
-409.86162988
 31
0.0
  0
LINE
  5
2D5
100
AcDbEntity
  8
0
  6
CONTINUOUS
 62
       7
100
AcDbLine
 10
-220.95655738
 20
-407.34220996
 30
0.0
 11
-223.4759773
 21
-409.86162988
 31
0.0
  0
LINE
  5
2D6
100
AcDbEntity
  8
0
  6
CONTINUOUS
 62
       7
100
AcDbLine
 10
-221.46567426
 20
-408.69985498
 30
0.0
 11
-222.62744916
 21
-409.86162988
 31
0.0
  0
LINE
  5
2D7
100
AcDbEntity
  8
0
  6
CONTINUOUS
 62
       7
100
AcDbLine
 10
289.56116015
 20
238.88837012
 30
0.0
 11
306.06116015
 21
238.88837012
 31
0.0
  0
LINE
  5
2D8
100
AcDbEntity
  8
0
  6
CONTINUOUS
 62
       7
100
AcDbLine
 10
289.56116015
 20
223.88837012
 30
0.0
 11
306.06116015
 21
223.88837012
 31
0.0
  0
LINE
  5
2D9
100
AcDbEntity
  8
0
  6
CONTINUOUS
 62
       7
100
AcDbLine
 10
306.06116015
 20
238.88837012
 30
0.0
 11
306.06116015
 21
223.88837012
 31
0.0
  0
LINE
  5
2DA
100
AcDbEntity
  8
0
  6
CONTINUOUS
 62
       7
100
AcDbLine
 10
289.56116015
 20
238.88837012
 30
0.0
 11
289.56116015
 21
223.88837012
 31
0.0
  0
LINE
  5
2DB
100
AcDbEntity
  8
0
  6
CONTINUOUS
 62
       7
100
AcDbLine
 10
306.06116015
 20
223.94059958
 30
0.0
 11
306.00893069
 21
223.88837012
 31
0.0
  0
LINE
  5
2DC
100
AcDbEntity
  8
0
  6
CONTINUOUS
 62
       7
100
AcDbLine
 10
297.25732468
 20
238.88837012
 30
0.0
 11
289.56116015
 21
231.19220559
 31
0.0
  0
LINE
  5
2DD
100
AcDbEntity
  8
0
  6
CONTINUOUS
 62
       7
100
AcDbLine
 10
296.40879655
 20
238.88837012
 30
0.0
 11
289.56116015
 21
232.04073372
 31
0.0
  0
LINE
  5
2DE
100
AcDbEntity
  8
0
  6
CONTINUOUS
 62
       7
100
AcDbLine
 10
295.56026841
 20
238.88837012
 30
0.0
 11
289.56116015
 21
232.88926186
 31
0.0
  0
LINE
  5
2DF
100
AcDbEntity
  8
0
  6
CONTINUOUS
 62
       7
100
AcDbLine
 10
294.71174027
 20
238.88837012
 30
0.0
 11
289.56116015
 21
233.73779
 31
0.0
  0
LINE
  5
2E0
100
AcDbEntity
  8
0
  6
CONTINUOUS
 62
       7
100
AcDbLine
 10
293.86321213
 20
238.88837012
 30
0.0
 11
289.56116015
 21
234.58631814
 31
0.0
  0
LINE
  5
2E1
100
AcDbEntity
  8
0
  6
CONTINUOUS
 62
       7
100
AcDbLine
 10
293.014684
 20
238.88837012
 30
0.0
 11
289.56116015
 21
235.43484627
 31
0.0
  0
LINE
  5
2E2
100
AcDbEntity
  8
0
  6
CONTINUOUS
 62
       7
100
AcDbLine
 10
292.16615586
 20
238.88837012
 30
0.0
 11
289.56116015
 21
236.28337441
 31
0.0
  0
LINE
  5
2E3
100
AcDbEntity
  8
0
  6
CONTINUOUS
 62
       7
100
AcDbLine
 10
291.31762772
 20
238.88837012
 30
0.0
 11
289.56116015
 21
237.13190255
 31
0.0
  0
LINE
  5
2E4
100
AcDbEntity
  8
0
  6
CONTINUOUS
 62
       7
100
AcDbLine
 10
290.46909958
 20
238.88837012
 30
0.0
 11
289.56116015
 21
237.98043069
 31
0.0
  0
LINE
  5
2E5
100
AcDbEntity
  8
0
  6
CONTINUOUS
 62
       7
100
AcDbLine
 10
298.10585282
 20
238.88837012
 30
0.0
 11
289.56116015
 21
230.34367745
 31
0.0
  0
LINE
  5
2E6
100
AcDbEntity
  8
0
  6
CONTINUOUS
 62
       7
100
AcDbLine
 10
298.95438096
 20
238.88837012
 30
0.0
 11
289.56116015
 21
229.49514931
 31
0.0
  0
LINE
  5
2E7
100
AcDbEntity
  8
0
  6
CONTINUOUS
 62
       7
100
AcDbLine
 10
299.8029091
 20
238.88837012
 30
0.0
 11
289.56116015
 21
228.64662118
 31
0.0
  0
LINE
  5
2E8
100
AcDbEntity
  8
0
  6
CONTINUOUS
 62
       7
100
AcDbLine
 10
300.65143723
 20
238.88837012
 30
0.0
 11
289.56116015
 21
227.79809304
 31
0.0
  0
LINE
  5
2E9
100
AcDbEntity
  8
0
  6
CONTINUOUS
 62
       7
100
AcDbLine
 10
301.49996537
 20
238.88837012
 30
0.0
 11
289.56116015
 21
226.9495649
 31
0.0
  0
LINE
  5
2EA
100
AcDbEntity
  8
0
  6
CONTINUOUS
 62
       7
100
AcDbLine
 10
302.34849351
 20
238.88837012
 30
0.0
 11
289.56116015
 21
226.10103676
 31
0.0
  0
LINE
  5
2EB
100
AcDbEntity
  8
0
  6
CONTINUOUS
 62
       7
100
AcDbLine
 10
303.19702164
 20
238.88837012
 30
0.0
 11
289.56116015
 21
225.25250863
 31
0.0
  0
LINE
  5
2EC
100
AcDbEntity
  8
0
  6
CONTINUOUS
 62
       7
100
AcDbLine
 10
304.04554978
 20
238.88837012
 30
0.0
 11
289.56116015
 21
224.40398049
 31
0.0
  0
LINE
  5
2ED
100
AcDbEntity
  8
0
  6
CONTINUOUS
 62
       7
100
AcDbLine
 10
304.89407792
 20
238.88837012
 30
0.0
 11
289.89407792
 21
223.88837012
 31
0.0
  0
LINE
  5
2EE
100
AcDbEntity
  8
0
  6
CONTINUOUS
 62
       7
100
AcDbLine
 10
305.74260606
 20
238.88837012
 30
0.0
 11
290.74260606
 21
223.88837012
 31
0.0
  0
LINE
  5
2EF
100
AcDbEntity
  8
0
  6
CONTINUOUS
 62
       7
100
AcDbLine
 10
306.06116015
 20
238.35839608
 30
0.0
 11
291.59113419
 21
223.88837012
 31
0.0
  0
LINE
  5
2F0
100
AcDbEntity
  8
0
  6
CONTINUOUS
 62
       7
100
AcDbLine
 10
306.06116015
 20
237.50986794
 30
0.0
 11
292.43966233
 21
223.88837012
 31
0.0
  0
LINE
  5
2F1
100
AcDbEntity
  8
0
  6
CONTINUOUS
 62
       7
100
AcDbLine
 10
306.06116015
 20
236.6613398
 30
0.0
 11
293.28819047
 21
223.88837012
 31
0.0
  0
LINE
  5
2F2
100
AcDbEntity
  8
0
  6
CONTINUOUS
 62
       7
100
AcDbLine
 10
306.06116015
 20
235.81281166
 30
0.0
 11
294.13671861
 21
223.88837012
 31
0.0
  0
LINE
  5
2F3
100
AcDbEntity
  8
0
  6
CONTINUOUS
 62
       7
100
AcDbLine
 10
306.06116015
 20
234.96428353
 30
0.0
 11
294.98524674
 21
223.88837012
 31
0.0
  0
LINE
  5
2F4
100
AcDbEntity
  8
0
  6
CONTINUOUS
 62
       7
100
AcDbLine
 10
306.06116015
 20
234.11575539
 30
0.0
 11
295.83377488
 21
223.88837012
 31
0.0
  0
LINE
  5
2F5
100
AcDbEntity
  8
0
  6
CONTINUOUS
 62
       7
100
AcDbLine
 10
306.06116015
 20
233.26722725
 30
0.0
 11
296.68230302
 21
223.88837012
 31
0.0
  0
LINE
  5
2F6
100
AcDbEntity
  8
0
  6
CONTINUOUS
 62
       7
100
AcDbLine
 10
306.06116015
 20
232.41869911
 30
0.0
 11
297.53083116
 21
223.88837012
 31
0.0
  0
LINE
  5
2F7
100
AcDbEntity
  8
0
  6
CONTINUOUS
 62
       7
100
AcDbLine
 10
306.06116015
 20
231.57017098
 30
0.0
 11
298.37935929
 21
223.88837012
 31
0.0
  0
LINE
  5
2F8
100
AcDbEntity
  8
0
  6
CONTINUOUS
 62
       7
100
AcDbLine
 10
306.06116015
 20
230.72164284
 30
0.0
 11
299.22788743
 21
223.88837012
 31
0.0
  0
LINE
  5
2F9
100
AcDbEntity
  8
0
  6
CONTINUOUS
 62
       7
100
AcDbLine
 10
306.06116015
 20
229.8731147
 30
0.0
 11
300.07641557
 21
223.88837012
 31
0.0
  0
LINE
  5
2FA
100
AcDbEntity
  8
0
  6
CONTINUOUS
 62
       7
100
AcDbLine
 10
306.06116015
 20
229.02458656
 30
0.0
 11
300.92494371
 21
223.88837012
 31
0.0
  0
LINE
  5
2FB
100
AcDbEntity
  8
0
  6
CONTINUOUS
 62
       7
100
AcDbLine
 10
306.06116015
 20
228.17605843
 30
0.0
 11
301.77347184
 21
223.88837012
 31
0.0
  0
LINE
  5
2FC
100
AcDbEntity
  8
0
  6
CONTINUOUS
 62
       7
100
AcDbLine
 10
306.06116015
 20
227.32753029
 30
0.0
 11
302.62199998
 21
223.88837012
 31
0.0
  0
LINE
  5
2FD
100
AcDbEntity
  8
0
  6
CONTINUOUS
 62
       7
100
AcDbLine
 10
306.06116015
 20
226.47900215
 30
0.0
 11
303.47052812
 21
223.88837012
 31
0.0
  0
LINE
  5
2FE
100
AcDbEntity
  8
0
  6
CONTINUOUS
 62
       7
100
AcDbLine
 10
306.06116015
 20
225.63047401
 30
0.0
 11
304.31905626
 21
223.88837012
 31
0.0
  0
LINE
  5
2FF
100
AcDbEntity
  8
0
  6
CONTINUOUS
 62
       7
100
AcDbLine
 10
306.06116015
 20
224.78194588
 30
0.0
 11
305.16758439
 21
223.88837012
 31
0.0
  0
LINE
  5
300
100
AcDbEntity
  8
0
  6
CONTINUOUS
 62
       7
100
AcDbLine
 10
306.06116015
 20
223.93341774
 30
0.0
 11
306.01611253
 21
223.88837012
 31
0.0
  0
LINE
  5
301
100
AcDbEntity
  8
0
  6
CONTINUOUS
 62
       7
100
AcDbLine
 10
-251.18883985
 20
417.57587012
 30
0.0
 11
-253.73147028
 21
422.07437012
 31
0.0
  0
LINE
  5
302
100
AcDbEntity
  8
0
  6
CONTINUOUS
 62
       7
100
AcDbLine
 10
-263.86550732
 20
426.01337012
 30
0.0
 11
-263.55300732
 21
426.95087012
 31
0.0
  0
LINE
  5
303
100
AcDbEntity
  8
0
  6
CONTINUOUS
 62
       7
100
AcDbLine
 10
-239.96973292
 20
418.68542358
 30
0.0
 11
-240.31083985
 21
418.51487012
 31
0.0
  0
LINE
  5
304
100
AcDbEntity
  8
0
  6
CONTINUOUS
 62
       7
100
AcDbLine
 10
-239.75133985
 20
417.57587012
 30
0.0
 11
-238.17633985
 21
419.15087012
 31
0.0
  0
LINE
  5
305
100
AcDbEntity
  8
0
  6
CONTINUOUS
 62
       7
100
AcDbLine
 10
-238.43883985
 20
417.57587012
 30
0.0
 11
-238.17633985
 21
419.15087012
 31
0.0
  0
LINE
  5
306
100
AcDbEntity
  8
0
  6
CONTINUOUS
 62
       7
100
AcDbLine
 10
-231.50133985
 20
418.88837012
 30
0.0
 11
-231.50133985
 21
418.51487012
 31
0.0
  0
LINE
  5
307
100
AcDbEntity
  8
0
  6
CONTINUOUS
 62
       7
100
AcDbLine
 10
-223.20627821
 20
417.57587012
 30
0.0
 11
-226.62633985
 21
417.57587012
 31
0.0
  0
LINE
  5
308
100
AcDbEntity
  8
0
  6
CONTINUOUS
 62
       7
100
AcDbLine
 10
-228.47424242
 20
418.91208037
 30
0.0
 11
-230.00133985
 21
417.57587012
 31
0.0
  0
LINE
  5
309
100
AcDbEntity
  8
0
  6
CONTINUOUS
 62
       7
100
AcDbLine
 10
-217.63909584
 20
417.57587012
 30
0.0
 11
-221.56383985
 21
417.57587012
 31
0.0
  0
LINE
  5
30A
100
AcDbEntity
  8
0
  6
CONTINUOUS
 62
       7
100
AcDbLine
 10
-256.74296485
 20
418.51487012
 30
0.0
 11
-253.93102735
 21
426.01337012
 31
0.0
  0
LINE
  5
30B
100
AcDbEntity
  8
0
  6
CONTINUOUS
 62
       7
100
AcDbLine
 10
-254.05317491
 20
423.01337012
 30
0.0
 11
-249.66430631
 21
423.01337012
 31
0.0
  0
LINE
  5
30C
100
AcDbEntity
  8
0
  6
CONTINUOUS
 62
       7
100
AcDbLine
 10
-225.80815803
 20
419.82587012
 30
0.0
 11
-226.43883985
 21
419.82587012
 31
0.0
  0
LINE
  5
30D
100
AcDbEntity
  8
0
  6
CONTINUOUS
 62
       7
100
AcDbLine
 10
-226.43883985
 20
419.82587012
 30
0.0
 11
-227.05868218
 21
419.82587012
 31
0.0
  0
LINE
  5
30E
100
AcDbEntity
  8
0
  6
CONTINUOUS
 62
       7
100
AcDbLine
 10
-232.54307426
 20
417.57587012
 30
0.0
 11
-230.00133985
 21
417.57587012
 31
0.0
  0
CIRCLE
  5
30F
100
AcDbEntity
  8
0
  6
CONTINUOUS
 62
       7
100
AcDbCircle
 10
-236.66306557
 20
422.82587012
 30
0.0
 40
0.56797572
  0
LINE
  5
310
100
AcDbEntity
  8
0
  6
CONTINUOUS
 62
       7
100
AcDbLine
 10
-256.04040235
 20
426.01337012
 30
0.0
 11
-253.93102735
 21
426.01337012
 31
0.0
  0
LINE
  5
311
100
AcDbEntity
  8
0
  6
CONTINUOUS
 62
       7
100
AcDbLine
 10
-252.92817491
 20
426.01337012
 30
0.0
 11
-249.66430631
 21
426.01337012
 31
0.0
  0
LINE
  5
312
100
AcDbEntity
  8
0
  6
CONTINUOUS
 62
       7
100
AcDbLine
 10
-259.25133985
 20
417.57587012
 30
0.0
 11
-258.89921485
 21
418.51487012
 31
0.0
  0
LINE
  5
313
100
AcDbEntity
  8
0
  6
CONTINUOUS
 62
       7
100
AcDbLine
 10
-256.04040235
 20
426.01337012
 30
0.0
 11
-255.68883985
 21
426.95087012
 31
0.0
  0
LINE
  5
314
100
AcDbEntity
  8
0
  6
CONTINUOUS
 62
       7
100
AcDbLine
 10
-256.50960526
 20
426.01337012
 30
0.0
 11
-256.15804276
 21
426.95087012
 31
0.0
  0
LINE
  5
315
100
AcDbEntity
  8
0
  6
CONTINUOUS
 62
       7
100
AcDbLine
 10
-249.66430631
 20
426.95087012
 30
0.0
 11
-255.68883985
 21
426.95087012
 31
0.0
  0
LINE
  5
316
100
AcDbEntity
  8
0
  6
CONTINUOUS
 62
       7
100
AcDbLine
 10
-256.15804276
 20
426.95087012
 30
0.0
 11
-257.0487709
 21
426.95087012
 31
0.0
  0
LINE
  5
317
100
AcDbEntity
  8
0
  6
CONTINUOUS
 62
       7
100
AcDbLine
 10
-257.4003334
 20
426.01337012
 30
0.0
 11
-256.50960526
 21
426.01337012
 31
0.0
  0
LINE
  5
318
100
AcDbEntity
  8
0
  6
CONTINUOUS
 62
       7
100
AcDbLine
 10
-257.74189073
 20
426.01337012
 30
0.0
 11
-257.39032823
 21
426.95087012
 31
0.0
  0
LINE
  5
319
100
AcDbEntity
  8
0
  6
CONTINUOUS
 62
       7
100
AcDbLine
 10
-257.39032823
 20
426.95087012
 30
0.0
 11
-258.1369669
 21
426.95087012
 31
0.0
  0
LINE
  5
31A
100
AcDbEntity
  8
0
  6
CONTINUOUS
 62
       7
100
AcDbLine
 10
-258.4885294
 20
426.01337012
 30
0.0
 11
-257.74189073
 21
426.01337012
 31
0.0
  0
LINE
  5
31B
100
AcDbEntity
  8
0
  6
CONTINUOUS
 62
       7
100
AcDbLine
 10
-258.4885294
 20
426.01337012
 30
0.0
 11
-258.1369669
 21
426.95087012
 31
0.0
  0
LINE
  5
31C
100
AcDbEntity
  8
0
  6
CONTINUOUS
 62
       7
100
AcDbLine
 10
-258.77442739
 20
426.95087012
 30
0.0
 11
-259.50607675
 21
426.95087012
 31
0.0
  0
LINE
  5
31D
100
AcDbEntity
  8
0
  6
CONTINUOUS
 62
       7
100
AcDbLine
 10
-259.85763925
 20
426.01337012
 30
0.0
 11
-259.12598989
 21
426.01337012
 31
0.0
  0
LINE
  5
31E
100
AcDbEntity
  8
0
  6
CONTINUOUS
 62
       7
100
AcDbLine
 10
-259.85763925
 20
426.01337012
 30
0.0
 11
-259.50607675
 21
426.95087012
 31
0.0
  0
LINE
  5
31F
100
AcDbEntity
  8
0
  6
CONTINUOUS
 62
       7
100
AcDbLine
 10
-257.4003334
 20
426.01337012
 30
0.0
 11
-257.0487709
 21
426.95087012
 31
0.0
  0
LINE
  5
320
100
AcDbEntity
  8
0
  6
CONTINUOUS
 62
       7
100
AcDbLine
 10
-259.12598989
 20
426.01337012
 30
0.0
 11
-258.77442739
 21
426.95087012
 31
0.0
  0
LINE
  5
321
100
AcDbEntity
  8
0
  6
CONTINUOUS
 62
       7
100
AcDbLine
 10
-260.4056334
 20
426.01337012
 30
0.0
 11
-260.0540709
 21
426.95087012
 31
0.0
  0
LINE
  5
322
100
AcDbEntity
  8
0
  6
CONTINUOUS
 62
       7
100
AcDbLine
 10
-260.0540709
 20
426.95087012
 30
0.0
 11
-260.73055179
 21
426.95087012
 31
0.0
  0
LINE
  5
323
100
AcDbEntity
  8
0
  6
CONTINUOUS
 62
       7
100
AcDbLine
 10
-261.08211429
 20
426.01337012
 30
0.0
 11
-260.4056334
 21
426.01337012
 31
0.0
  0
LINE
  5
324
100
AcDbEntity
  8
0
  6
CONTINUOUS
 62
       7
100
AcDbLine
 10
-261.08211429
 20
426.01337012
 30
0.0
 11
-260.73055179
 21
426.95087012
 31
0.0
  0
LINE
  5
325
100
AcDbEntity
  8
0
  6
CONTINUOUS
 62
       7
100
AcDbLine
 10
-261.65476745
 20
426.01337012
 30
0.0
 11
-261.30320495
 21
426.95087012
 31
0.0
  0
LINE
  5
326
100
AcDbEntity
  8
0
  6
CONTINUOUS
 62
       7
100
AcDbLine
 10
-261.30320495
 20
426.95087012
 30
0.0
 11
-261.90476745
 21
426.95087012
 31
0.0
  0
LINE
  5
327
100
AcDbEntity
  8
0
  6
CONTINUOUS
 62
       7
100
AcDbLine
 10
-262.21726745
 20
426.01337012
 30
0.0
 11
-261.65476745
 21
426.01337012
 31
0.0
  0
LINE
  5
328
100
AcDbEntity
  8
0
  6
CONTINUOUS
 62
       7
100
AcDbLine
 10
-262.21726745
 20
426.01337012
 30
0.0
 11
-261.90476745
 21
426.95087012
 31
0.0
  0
LINE
  5
329
100
AcDbEntity
  8
0
  6
CONTINUOUS
 62
       7
100
AcDbLine
 10
-262.81628501
 20
426.01337012
 30
0.0
 11
-262.50378501
 21
426.95087012
 31
0.0
  0
LINE
  5
32A
100
AcDbEntity
  8
0
  6
CONTINUOUS
 62
       7
100
AcDbLine
 10
-263.30300732
 20
426.01337012
 30
0.0
 11
-262.99050732
 21
426.95087012
 31
0.0
  0
LINE
  5
32B
100
AcDbEntity
  8
0
  6
CONTINUOUS
 62
       7
100
AcDbLine
 10
-264.20925732
 20
426.01337012
 30
0.0
 11
-263.89675732
 21
426.95087012
 31
0.0
  0
LINE
  5
32C
100
AcDbEntity
  8
0
  6
CONTINUOUS
 62
       7
100
AcDbLine
 10
-264.80300732
 20
426.01337012
 30
0.0
 11
-264.49050732
 21
426.95087012
 31
0.0
  0
LINE
  5
32D
100
AcDbEntity
  8
0
  6
CONTINUOUS
 62
       7
100
AcDbLine
 10
-264.95925732
 20
426.01337012
 30
0.0
 11
-264.64675732
 21
426.95087012
 31
0.0
  0
LINE
  5
32E
100
AcDbEntity
  8
0
  6
CONTINUOUS
 62
       7
100
AcDbLine
 10
-262.50378501
 20
426.95087012
 30
0.0
 11
-262.99050732
 21
426.95087012
 31
0.0
  0
LINE
  5
32F
100
AcDbEntity
  8
0
  6
CONTINUOUS
 62
       7
100
AcDbLine
 10
-263.30300732
 20
426.01337012
 30
0.0
 11
-262.81628501
 21
426.01337012
 31
0.0
  0
LINE
  5
330
100
AcDbEntity
  8
0
  6
CONTINUOUS
 62
       7
100
AcDbLine
 10
-263.55300732
 20
426.95087012
 30
0.0
 11
-263.89675732
 21
426.95087012
 31
0.0
  0
LINE
  5
331
100
AcDbEntity
  8
0
  6
CONTINUOUS
 62
       7
100
AcDbLine
 10
-264.49050732
 20
426.95087012
 30
0.0
 11
-264.64675732
 21
426.95087012
 31
0.0
  0
LINE
  5
332
100
AcDbEntity
  8
0
  6
CONTINUOUS
 62
       7
100
AcDbLine
 10
-264.20925732
 20
426.01337012
 30
0.0
 11
-263.86550732
 21
426.01337012
 31
0.0
  0
LINE
  5
333
100
AcDbEntity
  8
0
  6
CONTINUOUS
 62
       7
100
AcDbLine
 10
-264.80300732
 20
426.01337012
 30
0.0
 11
-264.95925732
 21
426.01337012
 31
0.0
  0
ARC
  5
334
100
AcDbEntity
  8
0
  6
CONTINUOUS
 62
       7
100
AcDbCircle
 10
-249.66430631
 20
424.51337012
 30
0.0
 40
1.5
100
AcDbArc
 50
269.99999846
 51
450.00000154
  0
LINE
  5
335
100
AcDbEntity
  8
0
  6
CONTINUOUS
 62
       7
100
AcDbLine
 10
-258.89921485
 20
418.51487012
 30
0.0
 11
-256.74296485
 21
418.51487012
 31
0.0
  0
LINE
  5
336
100
AcDbEntity
  8
0
  6
CONTINUOUS
 62
       7
100
AcDbLine
 10
-259.25133985
 20
417.57587012
 30
0.0
 11
-256.09223741
 21
417.57587012
 31
0.0
  0
LINE
  5
337
100
AcDbEntity
  8
0
  6
CONTINUOUS
 62
       7
100
AcDbLine
 10
-256.09223741
 20
417.57587012
 30
0.0
 11
-254.40529991
 21
422.07437012
 31
0.0
  0
LINE
  5
338
100
AcDbEntity
  8
0
  6
CONTINUOUS
 62
       7
100
AcDbLine
 10
-254.05317491
 20
423.01337012
 30
0.0
 11
-252.92817491
 21
426.01337012
 31
0.0
  0
LINE
  5
339
100
AcDbEntity
  8
0
  6
CONTINUOUS
 62
       7
100
AcDbLine
 10
-254.40529991
 20
422.07437012
 30
0.0
 11
-253.73147028
 21
422.07437012
 31
0.0
  0
LINE
  5
33A
100
AcDbEntity
  8
0
  6
CONTINUOUS
 62
       7
100
AcDbLine
 10
-252.65285774
 20
422.07437012
 30
0.0
 11
-249.66430631
 21
422.07437012
 31
0.0
  0
LINE
  5
33B
100
AcDbEntity
  8
0
  6
CONTINUOUS
 62
       7
100
AcDbLine
 10
-250.64096643
 20
418.51487012
 30
0.0
 11
-252.65285774
 21
422.07437012
 31
0.0
  0
ARC
  5
33C
100
AcDbEntity
  8
0
  6
CONTINUOUS
 62
       7
100
AcDbCircle
 10
-249.66430631
 20
424.51337012
 30
0.0
 40
2.4375
100
AcDbArc
 50
269.99999846
 51
450.00000154
  0
LINE
  5
33D
100
AcDbEntity
  8
0
  6
CONTINUOUS
 62
       7
100
AcDbLine
 10
-251.18883985
 20
417.57587012
 30
0.0
 11
-247.81383985
 21
417.57587012
 31
0.0
  0
LINE
  5
33E
100
AcDbEntity
  8
0
  6
CONTINUOUS
 62
       7
100
AcDbLine
 10
-250.64096643
 20
418.51487012
 30
0.0
 11
-247.87016195
 21
418.51487012
 31
0.0
  0
ARC
  5
33F
100
AcDbEntity
  8
0
  6
CONTINUOUS
 62
       7
100
AcDbCircle
 10
-248.14947807
 20
420.62077271
 30
0.0
 40
2.12434536
100
AcDbArc
 50
277.55531826
 51
282.61004545
  0
ARC
  5
340
100
AcDbEntity
  8
0
  6
CONTINUOUS
 62
       7
100
AcDbCircle
 10
-248.14947807
 20
420.62077271
 30
0.0
 40
3.06334536
100
AcDbArc
 50
276.29029126
 51
293.79815571
  0
ARC
  5
341
100
AcDbEntity
  8
0
  6
CONTINUOUS
 62
       7
100
AcDbCircle
 10
-248.14947807
 20
420.62077271
 30
0.0
 40
3.06334536
100
AcDbArc
 50
316.5712576
 51
318.01426716
  0
ARC
  5
342
100
AcDbEntity
  8
0
  6
CONTINUOUS
 62
       7
100
AcDbCircle
 10
-245.94923394
 20
419.61183208
 30
0.0
 40
2.03660652
100
AcDbArc
 50
209.33182013
 51
211.50126274
  0
ARC
  5
343
100
AcDbEntity
  8
0
  6
CONTINUOUS
 62
       7
100
AcDbCircle
 10
-245.94923394
 20
419.61183208
 30
0.0
 40
2.03660652
100
AcDbArc
 50
241.74457628
 51
269.99999846
  0
ARC
  5
344
100
AcDbEntity
  8
0
  6
CONTINUOUS
 62
       7
100
AcDbCircle
 10
-240.89900697
 20
421.19852531
 30
0.0
 40
3.64232051
100
AcDbArc
 50
241.28311362
 51
264.04345057
  0
LINE
  5
345
100
AcDbEntity
  8
0
  6
CONTINUOUS
 62
       7
100
AcDbLine
 10
-245.94923394
 20
417.57587012
 30
0.0
 11
-243.83619314
 21
417.57587012
 31
0.0
  0
ARC
  5
346
100
AcDbEntity
  8
0
  6
CONTINUOUS
 62
       7
100
AcDbCircle
 10
-240.89900697
 20
421.19852531
 30
0.0
 40
2.70332051
100
AcDbArc
 50
251.08707921
 51
263.08482659
  0
ARC
  5
347
100
AcDbEntity
  8
0
  6
CONTINUOUS
 62
       7
100
AcDbCircle
 10
-244.63323608
 20
421.64414454
 30
0.0
 40
3.20661627
100
AcDbArc
 50
282.60950804
 51
291.93126858
  0
LINE
  5
348
100
AcDbEntity
  8
0
  6
CONTINUOUS
 62
       7
100
AcDbLine
 10
-245.92478503
 20
418.51487012
 30
0.0
 11
-243.93321503
 21
418.51487012
 31
0.0
  0
ARC
  5
349
100
AcDbEntity
  8
0
  6
CONTINUOUS
 62
       7
100
AcDbCircle
 10
-244.63323608
 20
421.64414454
 30
0.0
 40
4.14561627
100
AcDbArc
 50
313.58286062
 51
326.24939208
  0
ARC
  5
34A
100
AcDbEntity
  8
0
  6
CONTINUOUS
 62
       7
100
AcDbCircle
 10
-244.63323608
 20
421.64414454
 30
0.0
 40
4.14561627
100
AcDbArc
 50
281.08479839
 51
298.59507286
  0
LINE
  5
34B
100
AcDbEntity
  8
0
  6
CONTINUOUS
 62
       7
100
AcDbLine
 10
-241.27698588
 20
417.57587012
 30
0.0
 11
-239.75133985
 21
417.57587012
 31
0.0
  0
LINE
  5
34C
100
AcDbEntity
  8
0
  6
CONTINUOUS
 62
       7
100
AcDbLine
 10
-239.96973292
 20
418.68542358
 30
0.0
 11
-237.41829243
 21
421.23686407
 31
0.0
  0
LINE
  5
34D
100
AcDbEntity
  8
0
  6
CONTINUOUS
 62
       7
100
AcDbLine
 10
-237.33038751
 20
418.51487012
 30
0.0
 11
-236.91784427
 21
420.99012959
 31
0.0
  0
LINE
  5
34E
100
AcDbEntity
  8
0
  6
CONTINUOUS
 62
       7
100
AcDbLine
 10
-241.22448598
 20
418.51487012
 30
0.0
 11
-240.31083985
 21
418.51487012
 31
0.0
  0
ARC
  5
34F
100
AcDbEntity
  8
0
  6
CONTINUOUS
 62
       7
100
AcDbCircle
 10
-237.20523459
 20
421.03802798
 30
0.0
 40
0.29142656
100
AcDbArc
 50
350.53767763
 51
496.97750809
  0
LINE
  5
350
100
AcDbEntity
  8
0
  6
CONTINUOUS
 62
       7
100
AcDbLine
 10
-236.34023761
 20
418.51487012
 30
0.0
 11
-234.77741783
 21
419.26551584
 31
0.0
  0
LINE
  5
351
100
AcDbEntity
  8
0
  6
CONTINUOUS
 62
       7
100
AcDbLine
 10
-236.18883985
 20
417.57587012
 30
0.0
 11
-234.8803916
 21
418.15565982
 31
0.0
  0
LINE
  5
352
100
AcDbEntity
  8
0
  6
CONTINUOUS
 62
       7
100
AcDbLine
 10
-237.33038751
 20
418.51487012
 30
0.0
 11
-236.34023761
 21
418.51487012
 31
0.0
  0
LINE
  5
353
100
AcDbEntity
  8
0
  6
CONTINUOUS
 62
       7
100
AcDbLine
 10
-232.98071748
 20
417.99892524
 30
0.0
 11
-232.54307426
 21
417.57587012
 31
0.0
  0
LINE
  5
354
100
AcDbEntity
  8
0
  6
CONTINUOUS
 62
       7
100
AcDbLine
 10
-231.50133985
 20
418.51487012
 30
0.0
 11
-230.18220312
 21
418.51487012
 31
0.0
  0
LINE
  5
355
100
AcDbEntity
  8
0
  6
CONTINUOUS
 62
       7
100
AcDbLine
 10
-227.18391741
 20
421.13837012
 30
0.0
 11
-230.18220312
 21
418.51487012
 31
0.0
  0
LINE
  5
356
100
AcDbEntity
  8
0
  6
CONTINUOUS
 62
       7
100
AcDbLine
 10
-231.74820922
 20
420.95715764
 30
0.0
 11
-230.74905348
 21
420.95715764
 31
0.0
  0
LINE
  5
357
100
AcDbEntity
  8
0
  6
CONTINUOUS
 62
       7
100
AcDbLine
 10
-231.97502374
 20
420.33341773
 30
0.0
 11
-231.74820922
 21
420.95715764
 31
0.0
  0
LINE
  5
358
100
AcDbEntity
  8
0
  6
CONTINUOUS
 62
       7
100
AcDbLine
 10
-231.50133985
 20
418.88837012
 30
0.0
 11
-230.74905348
 21
420.95715764
 31
0.0
  0
LINE
  5
359
100
AcDbEntity
  8
0
  6
CONTINUOUS
 62
       7
100
AcDbLine
 10
-228.94939569
 20
417.60540886
 30
0.0
 11
-228.47424242
 21
418.91208037
 31
0.0
  0
LINE
  5
35A
100
AcDbEntity
  8
0
  6
CONTINUOUS
 62
       7
100
AcDbLine
 10
-227.05868218
 20
419.82587012
 30
0.0
 11
-227.87686399
 21
417.57587012
 31
0.0
  0
LINE
  5
35B
100
AcDbEntity
  8
0
  6
CONTINUOUS
 62
       7
100
AcDbLine
 10
-226.62633985
 20
417.57587012
 30
0.0
 11
-225.80815803
 21
419.82587012
 31
0.0
  0
LINE
  5
35C
100
AcDbEntity
  8
0
  6
CONTINUOUS
 62
       7
100
AcDbLine
 10
-224.44021078
 20
420.54085006
 30
0.0
 11
-225.17693076
 21
418.51487012
 31
0.0
  0
LINE
  5
35D
100
AcDbEntity
  8
0
  6
CONTINUOUS
 62
       7
100
AcDbLine
 10
-224.75196038
 20
421.13837012
 30
0.0
 11
-224.44021078
 21
420.54085006
 31
0.0
  0
LINE
  5
35E
100
AcDbEntity
  8
0
  6
CONTINUOUS
 62
       7
100
AcDbLine
 10
-226.8090438
 20
420.58066617
 30
0.0
 11
-226.62459091
 21
421.13837012
 31
0.0
  0
LINE
  5
35F
100
AcDbEntity
  8
0
  6
CONTINUOUS
 62
       7
100
AcDbLine
 10
-226.8090438
 20
420.58066617
 30
0.0
 11
-225.81019804
 21
421.13837012
 31
0.0
  0
LINE
  5
360
100
AcDbEntity
  8
0
  6
CONTINUOUS
 62
       7
100
AcDbLine
 10
-224.75196038
 20
421.13837012
 30
0.0
 11
-225.81019804
 21
421.13837012
 31
0.0
  0
LINE
  5
361
100
AcDbEntity
  8
0
  6
CONTINUOUS
 62
       7
100
AcDbLine
 10
-226.62459091
 20
421.13837012
 30
0.0
 11
-227.18391741
 21
421.13837012
 31
0.0
  0
ARC
  5
362
100
AcDbEntity
  8
0
  6
CONTINUOUS
 62
       7
100
AcDbCircle
 10
-217.97473406
 20
420.62077271
 30
0.0
 40
2.12434536
100
AcDbArc
 50
277.55531826
 51
282.61004545
  0
ARC
  5
363
100
AcDbEntity
  8
0
  6
CONTINUOUS
 62
       7
100
AcDbCircle
 10
-217.97473406
 20
420.62077271
 30
0.0
 40
3.06334536
100
AcDbArc
 50
276.29029126
 51
293.79815571
  0
ARC
  5
364
100
AcDbEntity
  8
0
  6
CONTINUOUS
 62
       7
100
AcDbCircle
 10
-217.97473406
 20
420.62077271
 30
0.0
 40
3.06334536
100
AcDbArc
 50
316.5712576
 51
318.01426716
  0
ARC
  5
365
100
AcDbEntity
  8
0
  6
CONTINUOUS
 62
       7
100
AcDbCircle
 10
-215.77448993
 20
419.61183208
 30
0.0
 40
2.03660652
100
AcDbArc
 50
209.33182013
 51
211.50126274
  0
ARC
  5
366
100
AcDbEntity
  8
0
  6
CONTINUOUS
 62
       7
100
AcDbCircle
 10
-215.77448993
 20
419.61183208
 30
0.0
 40
2.03660652
100
AcDbArc
 50
241.74457628
 51
269.99999846
  0
LINE
  5
367
100
AcDbEntity
  8
0
  6
CONTINUOUS
 62
       7
100
AcDbLine
 10
-220.95694568
 20
418.51487012
 30
0.0
 11
-217.69541795
 21
418.51487012
 31
0.0
  0
LINE
  5
368
100
AcDbEntity
  8
0
  6
CONTINUOUS
 62
       7
100
AcDbLine
 10
-215.77448993
 20
417.57587012
 30
0.0
 11
-213.9688671
 21
417.57587012
 31
0.0
  0
LINE
  5
369
100
AcDbEntity
  8
0
  6
CONTINUOUS
 62
       7
100
AcDbLine
 10
-215.75004103
 20
418.51487012
 30
0.0
 11
-213.75847103
 21
418.51487012
 31
0.0
  0
LINE
  5
36A
100
AcDbEntity
  8
0
  6
CONTINUOUS
 62
       7
100
AcDbLine
 10
-238.43883985
 20
417.57587012
 30
0.0
 11
-236.18883985
 21
417.57587012
 31
0.0
  0
LINE
  5
36B
100
AcDbEntity
  8
0
  6
CONTINUOUS
 62
       7
100
AcDbLine
 10
-228.94939569
 20
417.60540886
 30
0.0
 11
-227.87686399
 21
417.57587012
 31
0.0
  0
LINE
  5
36C
100
AcDbEntity
  8
0
  6
CONTINUOUS
 62
       7
100
AcDbLine
 10
-225.17693076
 20
418.51487012
 30
0.0
 11
-223.44307201
 21
418.51487012
 31
0.0
  0
LINE
  5
36D
100
AcDbEntity
  8
0
  6
CONTINUOUS
 62
       7
100
AcDbLine
 10
-220.2433283
 20
419.86665426
 30
0.0
 11
-219.54287734
 21
420.43285212
 31
0.0
  0
ARC
  5
36E
100
AcDbEntity
  8
0
  6
CONTINUOUS
 62
       7
100
AcDbCircle
 10
-220.95694568
 20
419.38487012
 30
0.0
 40
0.87
100
AcDbArc
 50
34.0753753
 51
269.99999846
  0
ARC
  5
36F
100
AcDbEntity
  8
0
  6
CONTINUOUS
 62
       7
100
AcDbCircle
 10
-220.95694568
 20
419.38487012
 30
0.0
 40
1.7600726
100
AcDbArc
 50
36.54256208
 51
190.98611795
  0
LINE
  5
370
100
AcDbEntity
  8
0
  6
CONTINUOUS
 62
       7
100
AcDbLine
 10
-223.20627821
 20
417.57587012
 30
0.0
 11
-222.31475172
 21
418.23189904
 31
0.0
  0
LINE
  5
371
100
AcDbEntity
  8
0
  6
CONTINUOUS
 62
       7
100
AcDbLine
 10
-222.69594241
 20
419.06464473
 30
0.0
 11
-223.44307201
 21
418.51487012
 31
0.0
  0
LINE
  5
372
100
AcDbEntity
  8
0
  6
CONTINUOUS
 62
       7
100
AcDbLine
 10
-222.31475172
 20
418.23189904
 30
0.0
 11
-221.56383985
 21
417.57587012
 31
0.0
  0
LINE
  5
373
100
AcDbEntity
  8
0
  6
CONTINUOUS
 62
       7
100
AcDbLine
 10
-213.75847103
 20
418.51487012
 30
0.0
 11
-213.9688671
 21
417.57587012
 31
0.0
  0
LINE
  5
374
100
AcDbEntity
  8
0
  6
CONTINUOUS
 62
       7
100
AcDbLine
 10
-263.62331982
 20
426.73993262
 30
0.0
 11
-264.13894482
 21
426.22430762
 31
0.0
  0
LINE
  5
375
100
AcDbEntity
  8
0
  6
CONTINUOUS
 62
       7
100
AcDbLine
 10
-262.53835443
 20
426.84716186
 30
0.0
 11
-263.2684379
 21
426.11707838
 31
0.0
  0
LINE
  5
376
100
AcDbEntity
  8
0
  6
CONTINUOUS
 62
       7
100
AcDbLine
 10
-261.3102362
 20
426.93212012
 30
0.0
 11
-262.21140808
 21
426.03094824
 31
0.0
  0
LINE
  5
377
100
AcDbEntity
  8
0
  6
CONTINUOUS
 62
       7
100
AcDbLine
 10
-260.09934259
 20
426.95087012
 30
0.0
 11
-261.03684259
 21
426.01337012
 31
0.0
  0
LINE
  5
378
100
AcDbEntity
  8
0
  6
CONTINUOUS
 62
       7
100
AcDbLine
 10
-258.84728332
 20
426.95087012
 30
0.0
 11
-259.78478332
 21
426.01337012
 31
0.0
  0
LINE
  5
379
100
AcDbEntity
  8
0
  6
CONTINUOUS
 62
       7
100
AcDbLine
 10
-257.47067882
 20
426.95087012
 30
0.0
 11
-258.40817882
 21
426.01337012
 31
0.0
  0
LINE
  5
37A
100
AcDbEntity
  8
0
  6
CONTINUOUS
 62
       7
100
AcDbLine
 10
-256.31043808
 20
426.95087012
 30
0.0
 11
-257.24793808
 21
426.01337012
 31
0.0
  0
LINE
  5
37B
100
AcDbEntity
  8
0
  6
CONTINUOUS
 62
       7
100
AcDbLine
 10
-255.98608304
 20
417.85894844
 30
0.0
 11
-256.26916136
 21
417.57587012
 31
0.0
  0
LINE
  5
37C
100
AcDbEntity
  8
0
  6
CONTINUOUS
 62
       7
100
AcDbLine
 10
-255.47696616
 20
419.21659346
 30
0.0
 11
-257.1176895
 21
417.57587012
 31
0.0
  0
LINE
  5
37D
100
AcDbEntity
  8
0
  6
CONTINUOUS
 62
       7
100
AcDbLine
 10
-254.96784927
 20
420.57423848
 30
0.0
 11
-256.57241318
 21
418.96967457
 31
0.0
  0
LINE
  5
37E
100
AcDbEntity
  8
0
  6
CONTINUOUS
 62
       7
100
AcDbLine
 10
-257.02721763
 20
418.51487012
 30
0.0
 11
-257.96621763
 21
417.57587012
 31
0.0
  0
LINE
  5
37F
100
AcDbEntity
  8
0
  6
CONTINUOUS
 62
       7
100
AcDbLine
 10
-254.45873239
 20
421.9318835
 30
0.0
 11
-256.0632963
 21
420.32731959
 31
0.0
  0
LINE
  5
380
100
AcDbEntity
  8
0
  6
CONTINUOUS
 62
       7
100
AcDbLine
 10
-257.87574577
 20
418.51487012
 30
0.0
 11
-258.81474577
 21
417.57587012
 31
0.0
  0
LINE
  5
381
100
AcDbEntity
  8
0
  6
CONTINUOUS
 62
       7
100
AcDbLine
 10
-258.72427391
 20
418.51487012
 30
0.0
 11
-259.00417941
 21
418.23496461
 31
0.0
  0
LINE
  5
382
100
AcDbEntity
  8
0
  6
CONTINUOUS
 62
       7
100
AcDbLine
 10
-252.83385832
 20
426.95087012
 30
0.0
 11
-254.02682877
 21
425.75789967
 31
0.0
  0
LINE
  5
383
100
AcDbEntity
  8
0
  6
CONTINUOUS
 62
       7
100
AcDbLine
 10
-253.68238646
 20
426.95087012
 30
0.0
 11
-254.61988646
 21
426.01337012
 31
0.0
  0
LINE
  5
384
100
AcDbEntity
  8
0
  6
CONTINUOUS
 62
       7
100
AcDbLine
 10
-254.5309146
 20
426.95087012
 30
0.0
 11
-255.4684146
 21
426.01337012
 31
0.0
  0
LINE
  5
385
100
AcDbEntity
  8
0
  6
CONTINUOUS
 62
       7
100
AcDbLine
 10
-255.37944273
 20
426.95087012
 30
0.0
 11
-255.87447812
 21
426.45583473
 31
0.0
  0
LINE
  5
386
100
AcDbEntity
  8
0
  6
CONTINUOUS
 62
       7
100
AcDbLine
 10
-246.77614856
 20
421.12918596
 30
0.0
 11
-247.67371856
 21
420.23161595
 31
0.0
  0
LINE
  5
387
100
AcDbEntity
  8
0
  6
CONTINUOUS
 62
       7
100
AcDbLine
 10
-245.87253652
 20
421.18426986
 30
0.0
 11
-247.89501815
 21
419.16178823
 31
0.0
  0
LINE
  5
388
100
AcDbEntity
  8
0
  6
CONTINUOUS
 62
       7
100
AcDbLine
 10
-245.21689638
 20
420.14285372
 30
0.0
 11
-247.77995363
 21
417.57979647
 31
0.0
  0
LINE
  5
389
100
AcDbEntity
  8
0
  6
CONTINUOUS
 62
       7
100
AcDbLine
 10
-251.13680205
 20
426.95087012
 30
0.0
 11
-252.07430205
 21
426.01337012
 31
0.0
  0
LINE
  5
38A
100
AcDbEntity
  8
0
  6
CONTINUOUS
 62
       7
100
AcDbLine
 10
-253.44049863
 20
424.64717354
 30
0.0
 11
-255.04506253
 21
423.04260963
 31
0.0
  0
LINE
  5
38B
100
AcDbEntity
  8
0
  6
CONTINUOUS
 62
       7
100
AcDbLine
 10
-250.28827391
 20
426.95087012
 30
0.0
 11
-251.22577391
 21
426.01337012
 31
0.0
  0
LINE
  5
38C
100
AcDbEntity
  8
0
  6
CONTINUOUS
 62
       7
100
AcDbLine
 10
-253.94961551
 20
423.28952852
 30
0.0
 11
-255.55417941
 21
421.68496461
 31
0.0
  0
LINE
  5
38D
100
AcDbEntity
  8
0
  6
CONTINUOUS
 62
       7
100
AcDbLine
 10
-249.44925122
 20
426.94136467
 30
0.0
 11
-250.37724577
 21
426.01337012
 31
0.0
  0
LINE
  5
38E
100
AcDbEntity
  8
0
  6
CONTINUOUS
 62
       7
100
AcDbLine
 10
-253.37724577
 20
423.01337012
 30
0.0
 11
-254.31624577
 21
422.07437012
 31
0.0
  0
LINE
  5
38F
100
AcDbEntity
  8
0
  6
CONTINUOUS
 62
       7
100
AcDbLine
 10
-248.76369848
 20
426.77838928
 30
0.0
 11
-249.53435716
 21
426.00773059
 31
0.0
  0
LINE
  5
390
100
AcDbEntity
  8
0
  6
CONTINUOUS
 62
       7
100
AcDbLine
 10
-252.52871763
 20
423.01337012
 30
0.0
 11
-253.63622627
 21
421.90586148
 31
0.0
  0
LINE
  5
391
100
AcDbEntity
  8
0
  6
CONTINUOUS
 62
       7
100
AcDbLine
 10
-248.21808557
 20
426.47547405
 30
0.0
 11
-248.89343007
 21
425.80012955
 31
0.0
  0
LINE
  5
392
100
AcDbEntity
  8
0
  6
CONTINUOUS
 62
       7
100
AcDbLine
 10
-247.78245477
 20
426.0625767
 30
0.0
 11
-248.45044537
 21
425.39458611
 31
0.0
  0
LINE
  5
393
100
AcDbEntity
  8
0
  6
CONTINUOUS
 62
       7
100
AcDbLine
 10
-247.45448826
 20
425.54201508
 30
0.0
 11
-248.19269336
 21
424.80380998
 31
0.0
  0
LINE
  5
394
100
AcDbEntity
  8
0
  6
CONTINUOUS
 62
       7
100
AcDbLine
 10
-247.25633641
 20
424.8916388
 30
0.0
 11
-248.34110811
 21
423.80686709
 31
0.0
  0
LINE
  5
395
100
AcDbEntity
  8
0
  6
CONTINUOUS
 62
       7
100
AcDbLine
 10
-251.98533018
 20
426.95087012
 30
0.0
 11
-252.92283018
 21
426.01337012
 31
0.0
  0
LINE
  5
396
100
AcDbEntity
  8
0
  6
CONTINUOUS
 62
       7
100
AcDbLine
 10
-252.93138174
 20
426.00481856
 30
0.0
 11
-254.53594565
 21
424.40025465
 31
0.0
  0
LINE
  5
397
100
AcDbEntity
  8
0
  6
CONTINUOUS
 62
       7
100
AcDbLine
 10
-250.83166136
 20
423.01337012
 30
0.0
 11
-251.77066136
 21
422.07437012
 31
0.0
  0
LINE
  5
398
100
AcDbEntity
  8
0
  6
CONTINUOUS
 62
       7
100
AcDbLine
 10
-252.33428682
 20
421.51074465
 30
0.0
 11
-253.02340039
 21
420.82163108
 31
0.0
  0
LINE
  5
399
100
AcDbEntity
  8
0
  6
CONTINUOUS
 62
       7
100
AcDbLine
 10
-251.6801895
 20
423.01337012
 30
0.0
 11
-252.6191895
 21
422.07437012
 31
0.0
  0
LINE
  5
39A
100
AcDbEntity
  8
0
  6
CONTINUOUS
 62
       7
100
AcDbLine
 10
-252.64069976
 20
422.05285985
 30
0.0
 11
-253.32981333
 21
421.36374628
 31
0.0
  0
LINE
  5
39B
100
AcDbEntity
  8
0
  6
CONTINUOUS
 62
       7
100
AcDbLine
 10
-249.98313322
 20
423.01337012
 30
0.0
 11
-250.92213322
 21
422.07437012
 31
0.0
  0
LINE
  5
39C
100
AcDbEntity
  8
0
  6
CONTINUOUS
 62
       7
100
AcDbLine
 10
-252.02787388
 20
420.96862946
 30
0.0
 11
-252.71698746
 21
420.27951588
 31
0.0
  0
LINE
  5
39D
100
AcDbEntity
  8
0
  6
CONTINUOUS
 62
       7
100
AcDbLine
 10
-248.95780328
 20
423.19017192
 30
0.0
 11
-250.07360508
 21
422.07437012
 31
0.0
  0
LINE
  5
39E
100
AcDbEntity
  8
0
  6
CONTINUOUS
 62
       7
100
AcDbLine
 10
-251.72146095
 20
420.42651426
 30
0.0
 11
-252.41057452
 21
419.73740069
 31
0.0
  0
LINE
  5
39F
100
AcDbEntity
  8
0
  6
CONTINUOUS
 62
       7
100
AcDbLine
 10
-247.27669173
 20
424.02275534
 30
0.0
 11
-249.17369153
 21
422.12575554
 31
0.0
  0
LINE
  5
3A0
100
AcDbEntity
  8
0
  6
CONTINUOUS
 62
       7
100
AcDbLine
 10
-251.41504801
 20
419.88439906
 30
0.0
 11
-252.10416158
 21
419.19528549
 31
0.0
  0
LINE
  5
3A1
100
AcDbEntity
  8
0
  6
CONTINUOUS
 62
       7
100
AcDbLine
 10
-251.10863507
 20
419.34228386
 30
0.0
 11
-251.79774864
 21
418.65317029
 31
0.0
  0
LINE
  5
3A2
100
AcDbEntity
  8
0
  6
CONTINUOUS
 62
       7
100
AcDbLine
 10
-250.80222213
 20
418.80016866
 30
0.0
 11
-251.4913357
 21
418.11105509
 31
0.0
  0
LINE
  5
3A3
100
AcDbEntity
  8
0
  6
CONTINUOUS
 62
       7
100
AcDbLine
 10
-250.23899253
 20
418.51487012
 30
0.0
 11
-251.17799253
 21
417.57587012
 31
0.0
  0
LINE
  5
3A4
100
AcDbEntity
  8
0
  6
CONTINUOUS
 62
       7
100
AcDbLine
 10
-249.3904644
 20
418.51487012
 30
0.0
 11
-250.3294644
 21
417.57587012
 31
0.0
  0
LINE
  5
3A5
100
AcDbEntity
  8
0
  6
CONTINUOUS
 62
       7
100
AcDbLine
 10
-248.54193626
 20
418.51487012
 30
0.0
 11
-249.48093626
 21
417.57587012
 31
0.0
  0
LINE
  5
3A6
100
AcDbEntity
  8
0
  6
CONTINUOUS
 62
       7
100
AcDbLine
 10
-245.41187046
 20
420.79640778
 30
0.0
 11
-246.18949568
 21
420.01878256
 31
0.0
  0
LINE
  5
3A7
100
AcDbEntity
  8
0
  6
CONTINUOUS
 62
       7
100
AcDbLine
 10
-246.89574654
 20
419.3125317
 30
0.0
 11
-248.63240812
 21
417.57587012
 31
0.0
  0
LINE
  5
3A8
100
AcDbEntity
  8
0
  6
CONTINUOUS
 62
       7
100
AcDbLine
 10
-240.7926165
 20
423.71860547
 30
0.0
 11
-242.94412369
 21
421.56709827
 31
0.0
  0
LINE
  5
3A9
100
AcDbEntity
  8
0
  6
CONTINUOUS
 62
       7
100
AcDbLine
 10
-245.55218161
 20
418.95904035
 30
0.0
 11
-246.76533388
 21
417.74588809
 31
0.0
  0
LINE
  5
3AA
100
AcDbEntity
  8
0
  6
CONTINUOUS
 62
       7
100
AcDbLine
 10
-240.20966932
 20
423.45302451
 30
0.0
 11
-243.42822572
 21
420.23446811
 31
0.0
  0
LINE
  5
3AB
100
AcDbEntity
  8
0
  6
CONTINUOUS
 62
       7
100
AcDbLine
 10
-245.14782371
 20
418.51487012
 30
0.0
 11
-246.08306622
 21
417.57962761
 31
0.0
  0
LINE
  5
3AC
100
AcDbEntity
  8
0
  6
CONTINUOUS
 62
       7
100
AcDbLine
 10
-244.29929557
 20
418.51487012
 30
0.0
 11
-245.23829557
 21
417.57587012
 31
0.0
  0
LINE
  5
3AD
100
AcDbEntity
  8
0
  6
CONTINUOUS
 62
       7
100
AcDbLine
 10
-239.9983964
 20
422.8157693
 30
0.0
 11
-241.22019348
 21
421.59397221
 31
0.0
  0
LINE
  5
3AE
100
AcDbEntity
  8
0
  6
CONTINUOUS
 62
       7
100
AcDbLine
 10
-242.3188564
 20
420.4953093
 30
0.0
 11
-243.54065348
 21
419.27351221
 31
0.0
  0
LINE
  5
3AF
100
AcDbEntity
  8
0
  6
CONTINUOUS
 62
       7
100
AcDbLine
 10
-240.04719897
 20
421.91843858
 30
0.0
 11
-244.38976743
 21
417.57587012
 31
0.0
  0
LINE
  5
3B0
100
AcDbEntity
  8
0
  6
CONTINUOUS
 62
       7
100
AcDbLine
 10
-240.41572774
 20
420.70138168
 30
0.0
 11
-243.44449093
 21
417.67261849
 31
0.0
  0
LINE
  5
3B1
100
AcDbEntity
  8
0
  6
CONTINUOUS
 62
       7
100
AcDbLine
 10
-237.24405635
 20
421.32685718
 30
0.0
 11
-240.99504341
 21
417.57587012
 31
0.0
  0
LINE
  5
3B2
100
AcDbEntity
  8
0
  6
CONTINUOUS
 62
       7
100
AcDbLine
 10
-236.95473239
 20
423.31323742
 30
0.0
 11
-237.15043287
 21
423.11753694
 31
0.0
  0
LINE
  5
3B3
100
AcDbEntity
  8
0
  6
CONTINUOUS
 62
       7
100
AcDbLine
 10
-241.66266137
 20
418.60530844
 30
0.0
 11
-242.39180224
 21
417.87616757
 31
0.0
  0
LINE
  5
3B4
100
AcDbEntity
  8
0
  6
CONTINUOUS
 62
       7
100
AcDbLine
 10
-236.22820501
 20
423.19123666
 30
0.0
 11
-237.02843211
 21
422.39100956
 31
0.0
  0
LINE
  5
3B5
100
AcDbEntity
  8
0
  6
CONTINUOUS
 62
       7
100
AcDbLine
 10
-240.90457155
 20
418.51487012
 30
0.0
 11
-241.76000871
 21
417.65943296
 31
0.0
  0
LINE
  5
3B6
100
AcDbEntity
  8
0
  6
CONTINUOUS
 62
       7
100
AcDbLine
 10
-232.60881217
 20
420.87093254
 30
0.0
 11
-235.67712926
 21
417.80261545
 31
0.0
  0
LINE
  5
3B7
100
AcDbEntity
  8
0
  6
CONTINUOUS
 62
       7
100
AcDbLine
 10
-236.66193086
 20
418.51487012
 30
0.0
 11
-237.60093086
 21
417.57587012
 31
0.0
  0
LINE
  5
3B8
100
AcDbEntity
  8
0
  6
CONTINUOUS
 62
       7
100
AcDbLine
 10
-237.29437322
 20
418.7309559
 30
0.0
 11
-238.449459
 21
417.57587012
 31
0.0
  0
LINE
  5
3B9
100
AcDbEntity
  8
0
  6
CONTINUOUS
 62
       7
100
AcDbLine
 10
-237.12466759
 20
419.74918967
 30
0.0
 11
-238.26701039
 21
418.60684687
 31
0.0
  0
LINE
  5
3BA
100
AcDbEntity
  8
0
  6
CONTINUOUS
 62
       7
100
AcDbLine
 10
-240.14651527
 20
417.57587012
 30
0.0
 11
-236.95496196
 21
420.76742343
 31
0.0
  0
LINE
  5
3BB
100
AcDbEntity
  8
0
  6
CONTINUOUS
 62
       7
100
AcDbLine
 10
-230.82553079
 20
420.95715764
 30
0.0
 11
-234.20117073
 21
417.58151771
 31
0.0
  0
LINE
  5
3BC
100
AcDbEntity
  8
0
  6
CONTINUOUS
 62
       7
100
AcDbLine
 10
-231.19022538
 20
419.74393492
 30
0.0
 11
-232.95759082
 21
417.97656947
 31
0.0
  0
LINE
  5
3BD
100
AcDbEntity
  8
0
  6
CONTINUOUS
 62
       7
100
AcDbLine
 10
-231.50133985
 20
418.58429231
 30
0.0
 11
-232.50976204
 21
417.57587012
 31
0.0
  0
LINE
  5
3BE
100
AcDbEntity
  8
0
  6
CONTINUOUS
 62
       7
100
AcDbLine
 10
-230.7222339
 20
418.51487012
 30
0.0
 11
-231.6612339
 21
417.57587012
 31
0.0
  0
LINE
  5
3BF
100
AcDbEntity
  8
0
  6
CONTINUOUS
 62
       7
100
AcDbLine
 10
-227.71422426
 20
420.67435163
 30
0.0
 11
-230.81270576
 21
417.57587012
 31
0.0
  0
LINE
  5
3C0
100
AcDbEntity
  8
0
  6
CONTINUOUS
 62
       7
100
AcDbLine
 10
-233.88777428
 20
420.44049856
 30
0.0
 11
-234.3700366
 21
419.95823625
 31
0.0
  0
LINE
  5
3C1
100
AcDbEntity
  8
0
  6
CONTINUOUS
 62
       7
100
AcDbLine
 10
-235.32647957
 20
419.00179327
 30
0.0
 11
-236.75240273
 21
417.57587012
 31
0.0
  0
LINE
  5
3C2
100
AcDbEntity
  8
0
  6
CONTINUOUS
 62
       7
100
AcDbLine
 10
-233.60133636
 20
419.02988021
 30
0.0
 11
-234.74405312
 21
417.88716345
 31
0.0
  0
LINE
  5
3C3
100
AcDbEntity
  8
0
  6
CONTINUOUS
 62
       7
100
AcDbLine
 10
-231.67405893
 20
420.95715764
 30
0.0
 11
-231.79058082
 21
420.84063575
 31
0.0
  0
LINE
  5
3C4
100
AcDbEntity
  8
0
  6
CONTINUOUS
 62
       7
100
AcDbLine
 10
-232.08392352
 20
420.54729305
 30
0.0
 11
-232.8906437
 21
419.74057287
 31
0.0
  0
LINE
  5
3C5
100
AcDbEntity
  8
0
  6
CONTINUOUS
 62
       7
100
AcDbLine
 10
-225.51983727
 20
421.13837012
 30
0.0
 11
-226.83233727
 21
419.82587012
 31
0.0
  0
LINE
  5
3C6
100
AcDbEntity
  8
0
  6
CONTINUOUS
 62
       7
100
AcDbLine
 10
-227.18802212
 20
419.47018527
 30
0.0
 11
-228.89030836
 21
417.76789903
 31
0.0
  0
LINE
  5
3C7
100
AcDbEntity
  8
0
  6
CONTINUOUS
 62
       7
100
AcDbLine
 10
-282.87633985
 20
400.23245871
 30
0.0
 11
274.18616015
 21
400.23245871
 31
0.0
  0
LINE
  5
3C8
100
AcDbEntity
  8
0
  6
CONTINUOUS
 62
       7
100
AcDbLine
 10
-282.12633985
 20
-423.36162988
 30
0.0
 11
271.18616015
 21
-423.36162988
 31
0.0
  0
LINE
  5
3C9
100
AcDbEntity
  8
0
  6
CONTINUOUS
 62
       7
100
AcDbLine
 10
-282.12633985
 20
-387.17412988
 30
0.0
 11
271.18616015
 21
-387.17412988
 31
0.0
  0
LINE
  5
3CA
100
AcDbEntity
  8
0
  6
CONTINUOUS
 62
       7
100
AcDbLine
 10
-282.12633985
 20
-382.11162988
 30
0.0
 11
271.18616015
 21
-382.11162988
 31
0.0
  0
LINE
  5
3CB
100
AcDbEntity
  8
0
  6
CONTINUOUS
 62
       7
100
AcDbLine
 10
-282.12633985
 20
-382.11162988
 30
0.0
 11
-282.12633985
 21
-247.11162988
 31
0.0
  0
LINE
  5
3CC
100
AcDbEntity
  8
0
  6
CONTINUOUS
 62
       7
100
AcDbLine
 10
271.18616015
 20
-382.11162988
 30
0.0
 11
271.18616015
 21
-247.11162988
 31
0.0
  0
LINE
  5
3CD
100
AcDbEntity
  8
0
  6
CONTINUOUS
 62
       7
100
AcDbLine
 10
-282.12633985
 20
-247.11162988
 30
0.0
 11
271.18616015
 21
-247.11162988
 31
0.0
  0
LINE
  5
3CE
100
AcDbEntity
  8
0
  6
CONTINUOUS
 62
       7
100
AcDbLine
 10
-270.31383985
 20
428.63837012
 30
0.0
 11
-270.31383985
 21
414.01337012
 31
0.0
  0
LINE
  5
3CF
100
AcDbEntity
  8
0
  6
CONTINUOUS
 62
       7
100
AcDbLine
 10
-208.43883985
 20
428.63837012
 30
0.0
 11
-208.43883985
 21
414.01337012
 31
0.0
  0
LINE
  5
3D0
100
AcDbEntity
  8
0
  6
CONTINUOUS
 62
       7
100
AcDbLine
 10
-270.31383985
 20
428.63837012
 30
0.0
 11
-208.43883985
 21
428.63837012
 31
0.0
  0
LINE
  5
3D1
100
AcDbEntity
  8
0
  6
CONTINUOUS
 62
       7
100
AcDbLine
 10
-270.31383985
 20
414.01337012
 30
0.0
 11
-208.43883985
 21
414.01337012
 31
0.0
  0
LINE
  5
3D2
100
AcDbEntity
  8
0
  6
CONTINUOUS
 62
       7
100
AcDbLine
 10
-243.2916452
 20
436.62599625
 30
0.0
 11
-251.27927134
 21
428.63837012
 31
0.0
  0
LINE
  5
3D3
100
AcDbEntity
  8
0
  6
CONTINUOUS
 62
       7
100
AcDbLine
 10
-244.18033475
 20
436.58583484
 30
0.0
 11
-252.12779947
 21
428.63837012
 31
0.0
  0
LINE
  5
3D4
100
AcDbEntity
  8
0
  6
CONTINUOUS
 62
       7
100
AcDbLine
 10
-245.07807086
 20
436.53662687
 30
0.0
 11
-252.97632761
 21
428.63837012
 31
0.0
  0
LINE
  5
3D5
100
AcDbEntity
  8
0
  6
CONTINUOUS
 62
       7
100
AcDbLine
 10
-245.98522739
 20
436.47799847
 30
0.0
 11
-253.82485575
 21
428.63837012
 31
0.0
  0
LINE
  5
3D6
100
AcDbEntity
  8
0
  6
CONTINUOUS
 62
       7
100
AcDbLine
 10
-246.90222185
 20
436.40953215
 30
0.0
 11
-254.67338388
 21
428.63837012
 31
0.0
  0
LINE
  5
3D7
100
AcDbEntity
  8
0
  6
CONTINUOUS
 62
       7
100
AcDbLine
 10
-247.82952214
 20
436.33076
 30
0.0
 11
-255.52191202
 21
428.63837012
 31
0.0
  0
LINE
  5
3D8
100
AcDbEntity
  8
0
  6
CONTINUOUS
 62
       7
100
AcDbLine
 10
-248.76765463
 20
436.24115565
 30
0.0
 11
-256.37044016
 21
428.63837012
 31
0.0
  0
LINE
  5
3D9
100
AcDbEntity
  8
0
  6
CONTINUOUS
 62
       7
100
AcDbLine
 10
-249.71721418
 20
436.14012424
 30
0.0
 11
-257.2189683
 21
428.63837012
 31
0.0
  0
LINE
  5
3DA
100
AcDbEntity
  8
0
  6
CONTINUOUS
 62
       7
100
AcDbLine
 10
-250.67887648
 20
436.02699007
 30
0.0
 11
-258.06749643
 21
428.63837012
 31
0.0
  0
LINE
  5
3DB
100
AcDbEntity
  8
0
  6
CONTINUOUS
 62
       7
100
AcDbLine
 10
-251.65341349
 20
435.9009812
 30
0.0
 11
-258.91602457
 21
428.63837012
 31
0.0
  0
LINE
  5
3DC
100
AcDbEntity
  8
0
  6
CONTINUOUS
 62
       7
100
AcDbLine
 10
-252.64171301
 20
435.76120982
 30
0.0
 11
-259.76455271
 21
428.63837012
 31
0.0
  0
LINE
  5
3DD
100
AcDbEntity
  8
0
  6
CONTINUOUS
 62
       7
100
AcDbLine
 10
-253.64480379
 20
435.60664717
 30
0.0
 11
-260.61308085
 21
428.63837012
 31
0.0
  0
LINE
  5
3DE
100
AcDbEntity
  8
0
  6
CONTINUOUS
 62
       7
100
AcDbLine
 10
-254.66388824
 20
435.43609086
 30
0.0
 11
-261.46160898
 21
428.63837012
 31
0.0
  0
LINE
  5
3DF
100
AcDbEntity
  8
0
  6
CONTINUOUS
 62
       7
100
AcDbLine
 10
-255.70038568
 20
435.24812156
 30
0.0
 11
-262.31013712
 21
428.63837012
 31
0.0
  0
LINE
  5
3E0
100
AcDbEntity
  8
0
  6
CONTINUOUS
 62
       7
100
AcDbLine
 10
-256.75599078
 20
435.04104459
 30
0.0
 11
-263.15866526
 21
428.63837012
 31
0.0
  0
LINE
  5
3E1
100
AcDbEntity
  8
0
  6
CONTINUOUS
 62
       7
100
AcDbLine
 10
-270.31383985
 20
421.48319553
 30
0.0
 11
-270.47116526
 21
421.32587012
 31
0.0
  0
LINE
  5
3E2
100
AcDbEntity
  8
0
  6
CONTINUOUS
 62
       7
100
AcDbLine
 10
-257.83275419
 20
434.81280933
 30
0.0
 11
-264.0071934
 21
428.63837012
 31
0.0
  0
LINE
  5
3E3
100
AcDbEntity
  8
0
  6
CONTINUOUS
 62
       7
100
AcDbLine
 10
-270.31383985
 20
422.33172367
 30
0.0
 11
-271.3196934
 21
421.32587012
 31
0.0
  0
LINE
  5
3E4
100
AcDbEntity
  8
0
  6
CONTINUOUS
 62
       7
100
AcDbLine
 10
-258.93319648
 20
434.56089518
 30
0.0
 11
-264.85572153
 21
428.63837012
 31
0.0
  0
LINE
  5
3E5
100
AcDbEntity
  8
0
  6
CONTINUOUS
 62
       7
100
AcDbLine
 10
-270.31383985
 20
423.1802518
 30
0.0
 11
-272.16822153
 21
421.32587012
 31
0.0
  0
LINE
  5
3E6
100
AcDbEntity
  8
0
  6
CONTINUOUS
 62
       7
100
AcDbLine
 10
-260.06047444
 20
434.28214535
 30
0.0
 11
-265.70424967
 21
428.63837012
 31
0.0
  0
LINE
  5
3E7
100
AcDbEntity
  8
0
  6
CONTINUOUS
 62
       7
100
AcDbLine
 10
-270.31383985
 20
424.02877994
 30
0.0
 11
-273.01674967
 21
421.32587012
 31
0.0
  0
LINE
  5
3E8
100
AcDbEntity
  8
0
  6
CONTINUOUS
 62
       7
100
AcDbLine
 10
-261.21863211
 20
433.97251582
 30
0.0
 11
-266.55277781
 21
428.63837012
 31
0.0
  0
LINE
  5
3E9
100
AcDbEntity
  8
0
  6
CONTINUOUS
 62
       7
100
AcDbLine
 10
-270.31383985
 20
424.87730808
 30
0.0
 11
-273.86527781
 21
421.32587012
 31
0.0
  0
LINE
  5
3EA
100
AcDbEntity
  8
0
  6
CONTINUOUS
 62
       7
100
AcDbLine
 10
-262.4129966
 20
433.62667946
 30
0.0
 11
-267.40130595
 21
428.63837012
 31
0.0
  0
LINE
  5
3EB
100
AcDbEntity
  8
0
  6
CONTINUOUS
 62
       7
100
AcDbLine
 10
-270.31383985
 20
425.72583622
 30
0.0
 11
-274.71380595
 21
421.32587012
 31
0.0
  0
LINE
  5
3EC
100
AcDbEntity
  8
0
  6
CONTINUOUS
 62
       7
100
AcDbLine
 10
-263.65083657
 20
433.23736763
 30
0.0
 11
-268.24983408
 21
428.63837012
 31
0.0
  0
LINE
  5
3ED
100
AcDbEntity
  8
0
  6
CONTINUOUS
 62
       7
100
AcDbLine
 10
-270.31383985
 20
426.57436435
 30
0.0
 11
-275.56233408
 21
421.32587012
 31
0.0
  0
LINE
  5
3EE
100
AcDbEntity
  8
0
  6
CONTINUOUS
 62
       7
100
AcDbLine
 10
-264.94253431
 20
432.79419803
 30
0.0
 11
-269.09836222
 21
428.63837012
 31
0.0
  0
LINE
  5
3EF
100
AcDbEntity
  8
0
  6
CONTINUOUS
 62
       7
100
AcDbLine
 10
-270.31383985
 20
427.42289249
 30
0.0
 11
-276.41086222
 21
421.32587012
 31
0.0
  0
LINE
  5
3F0
100
AcDbEntity
  8
0
  6
CONTINUOUS
 62
       7
100
AcDbLine
 10
-266.30386918
 20
432.2813913
 30
0.0
 11
-269.94689036
 21
428.63837012
 31
0.0
  0
LINE
  5
3F1
100
AcDbEntity
  8
0
  6
CONTINUOUS
 62
       7
100
AcDbLine
 10
-270.31383985
 20
428.27142063
 30
0.0
 11
-277.25939036
 21
421.32587012
 31
0.0
  0
LINE
  5
3F2
100
AcDbEntity
  8
0
  6
CONTINUOUS
 62
       7
100
AcDbLine
 10
-267.76106247
 20
431.67272614
 30
0.0
 11
-277.80052989
 21
421.63325872
 31
0.0
  0
LINE
  5
3F3
100
AcDbEntity
  8
0
  6
CONTINUOUS
 62
       7
100
AcDbLine
 10
-269.36427317
 20
430.91804359
 30
0.0
 11
-277.65660539
 21
422.62571136
 31
0.0
  0
LINE
  5
3F4
100
AcDbEntity
  8
0
  6
CONTINUOUS
 62
       7
100
AcDbLine
 10
-271.23838734
 20
429.89245755
 30
0.0
 11
-277.24177741
 21
423.88906748
 31
0.0
  0
LINE
  5
3F5
100
AcDbEntity
  8
0
  6
CONTINUOUS
 62
       7
100
AcDbLine
 10
-274.15968511
 20
427.81968791
 30
0.0
 11
-275.77976582
 21
426.1996072
 31
0.0
  0
LINE
  5
3F6
100
AcDbEntity
  8
0
  6
CONTINUOUS
 62
       7
100
AcDbLine
 10
-242.41166651
 20
436.65744681
 30
0.0
 11
-250.4307432
 21
428.63837012
 31
0.0
  0
LINE
  5
3F7
100
AcDbEntity
  8
0
  6
CONTINUOUS
 62
       7
100
AcDbLine
 10
-241.54009645
 20
436.68048873
 30
0.0
 11
-249.58221506
 21
428.63837012
 31
0.0
  0
LINE
  5
3F8
100
AcDbEntity
  8
0
  6
CONTINUOUS
 62
       7
100
AcDbLine
 10
-240.67666242
 20
436.69539462
 30
0.0
 11
-248.73368692
 21
428.63837012
 31
0.0
  0
LINE
  5
3F9
100
AcDbEntity
  8
0
  6
CONTINUOUS
 62
       7
100
AcDbLine
 10
-239.82111813
 20
436.70241078
 30
0.0
 11
-247.88515879
 21
428.63837012
 31
0.0
  0
LINE
  5
3FA
100
AcDbEntity
  8
0
  6
CONTINUOUS
 62
       7
100
AcDbLine
 10
-238.97324081
 20
436.70175995
 30
0.0
 11
-247.03663065
 21
428.63837012
 31
0.0
  0
LINE
  5
3FB
100
AcDbEntity
  8
0
  6
CONTINUOUS
 62
       7
100
AcDbLine
 10
-238.13282886
 20
436.69364377
 30
0.0
 11
-246.18810251
 21
428.63837012
 31
0.0
  0
LINE
  5
3FC
100
AcDbEntity
  8
0
  6
CONTINUOUS
 62
       7
100
AcDbLine
 10
-237.29969974
 20
436.67824476
 30
0.0
 11
-245.33957437
 21
428.63837012
 31
0.0
  0
LINE
  5
3FD
100
AcDbEntity
  8
0
  6
CONTINUOUS
 62
       7
100
AcDbLine
 10
-236.47368827
 20
436.65572808
 30
0.0
 11
-244.49104624
 21
428.63837012
 31
0.0
  0
LINE
  5
3FE
100
AcDbEntity
  8
0
  6
CONTINUOUS
 62
       7
100
AcDbLine
 10
-235.6546451
 20
436.62624311
 30
0.0
 11
-243.6425181
 21
428.63837012
 31
0.0
  0
LINE
  5
3FF
100
AcDbEntity
  8
0
  6
CONTINUOUS
 62
       7
100
AcDbLine
 10
-234.84243539
 20
436.58992469
 30
0.0
 11
-242.79398996
 21
428.63837012
 31
0.0
  0
LINE
  5
400
100
AcDbEntity
  8
0
  6
CONTINUOUS
 62
       7
100
AcDbLine
 10
-234.03693768
 20
436.54689426
 30
0.0
 11
-241.94546182
 21
428.63837012
 31
0.0
  0
LINE
  5
401
100
AcDbEntity
  8
0
  6
CONTINUOUS
 62
       7
100
AcDbLine
 10
-233.23804291
 20
436.49726089
 30
0.0
 11
-241.09693369
 21
428.63837012
 31
0.0
  0
LINE
  5
402
100
AcDbEntity
  8
0
  6
CONTINUOUS
 62
       7
100
AcDbLine
 10
-232.44565356
 20
436.4411221
 30
0.0
 11
-240.24840555
 21
428.63837012
 31
0.0
  0
LINE
  5
403
100
AcDbEntity
  8
0
  6
CONTINUOUS
 62
       7
100
AcDbLine
 10
-231.65968295
 20
436.37856458
 30
0.0
 11
-239.39987741
 21
428.63837012
 31
0.0
  0
LINE
  5
404
100
AcDbEntity
  8
0
  6
CONTINUOUS
 62
       7
100
AcDbLine
 10
-230.88005453
 20
436.30966486
 30
0.0
 11
-238.55134927
 21
428.63837012
 31
0.0
  0
LINE
  5
405
100
AcDbEntity
  8
0
  6
CONTINUOUS
 62
       7
100
AcDbLine
 10
-230.10670143
 20
436.23448983
 30
0.0
 11
-237.70282114
 21
428.63837012
 31
0.0
  0
LINE
  5
406
100
AcDbEntity
  8
0
  6
CONTINUOUS
 62
       7
100
AcDbLine
 10
-229.33956592
 20
436.1530972
 30
0.0
 11
-236.854293
 21
428.63837012
 31
0.0
  0
LINE
  5
407
100
AcDbEntity
  8
0
  6
CONTINUOUS
 62
       7
100
AcDbLine
 10
-228.57859905
 20
436.06553593
 30
0.0
 11
-236.00576486
 21
428.63837012
 31
0.0
  0
LINE
  5
408
100
AcDbEntity
  8
0
  6
CONTINUOUS
 62
       7
100
AcDbLine
 10
-227.82376031
 20
435.97184653
 30
0.0
 11
-235.15723672
 21
428.63837012
 31
0.0
  0
LINE
  5
409
100
AcDbEntity
  8
0
  6
CONTINUOUS
 62
       7
100
AcDbLine
 10
-227.07501739
 20
435.87206132
 30
0.0
 11
-234.30870859
 21
428.63837012
 31
0.0
  0
LINE
  5
40A
100
AcDbEntity
  8
0
  6
CONTINUOUS
 62
       7
100
AcDbLine
 10
-226.33234593
 20
435.76620464
 30
0.0
 11
-233.46018045
 21
428.63837012
 31
0.0
  0
LINE
  5
40B
100
AcDbEntity
  8
0
  6
CONTINUOUS
 62
       7
100
AcDbLine
 10
-225.59572941
 20
435.65429303
 30
0.0
 11
-232.61165231
 21
428.63837012
 31
0.0
  0
LINE
  5
40C
100
AcDbEntity
  8
0
  6
CONTINUOUS
 62
       7
100
AcDbLine
 10
-224.86515898
 20
435.53633531
 30
0.0
 11
-231.76312417
 21
428.63837012
 31
0.0
  0
LINE
  5
40D
100
AcDbEntity
  8
0
  6
CONTINUOUS
 62
       7
100
AcDbLine
 10
-224.14063349
 20
435.41233267
 30
0.0
 11
-230.91459604
 21
428.63837012
 31
0.0
  0
LINE
  5
40E
100
AcDbEntity
  8
0
  6
CONTINUOUS
 62
       7
100
AcDbLine
 10
-223.4221594
 20
435.28227862
 30
0.0
 11
-230.0660679
 21
428.63837012
 31
0.0
  0
LINE
  5
40F
100
AcDbEntity
  8
0
  6
CONTINUOUS
 62
       7
100
AcDbLine
 10
-222.70975087
 20
435.14615901
 30
0.0
 11
-229.21753976
 21
428.63837012
 31
0.0
  0
LINE
  5
410
100
AcDbEntity
  8
0
  6
CONTINUOUS
 62
       7
100
AcDbLine
 10
-222.00342985
 20
435.00395189
 30
0.0
 11
-228.36901162
 21
428.63837012
 31
0.0
  0
LINE
  5
411
100
AcDbEntity
  8
0
  6
CONTINUOUS
 62
       7
100
AcDbLine
 10
-221.30322619
 20
434.85562741
 30
0.0
 11
-227.52048349
 21
428.63837012
 31
0.0
  0
LINE
  5
412
100
AcDbEntity
  8
0
  6
CONTINUOUS
 62
       7
100
AcDbLine
 10
-220.60917786
 20
434.70114761
 30
0.0
 11
-226.67195535
 21
428.63837012
 31
0.0
  0
LINE
  5
413
100
AcDbEntity
  8
0
  6
CONTINUOUS
 62
       7
100
AcDbLine
 10
-219.92133118
 20
434.54046616
 30
0.0
 11
-225.82342721
 21
428.63837012
 31
0.0
  0
LINE
  5
414
100
AcDbEntity
  8
0
  6
CONTINUOUS
 62
       7
100
AcDbLine
 10
-219.23974114
 20
434.37352806
 30
0.0
 11
-224.97489908
 21
428.63837012
 31
0.0
  0
LINE
  5
415
100
AcDbEntity
  8
0
  6
CONTINUOUS
 62
       7
100
AcDbLine
 10
-218.56447178
 20
434.20026928
 30
0.0
 11
-224.12637094
 21
428.63837012
 31
0.0
  0
LINE
  5
416
100
AcDbEntity
  8
0
  6
CONTINUOUS
 62
       7
100
AcDbLine
 10
-217.89559661
 20
434.02061631
 30
0.0
 11
-223.2778428
 21
428.63837012
 31
0.0
  0
LINE
  5
417
100
AcDbEntity
  8
0
  6
CONTINUOUS
 62
       7
100
AcDbLine
 10
-217.23319915
 20
433.83448564
 30
0.0
 11
-222.42931466
 21
428.63837012
 31
0.0
  0
LINE
  5
418
100
AcDbEntity
  8
0
  6
CONTINUOUS
 62
       7
100
AcDbLine
 10
-216.57737351
 20
433.64178314
 30
0.0
 11
-221.58078653
 21
428.63837012
 31
0.0
  0
LINE
  5
419
100
AcDbEntity
  8
0
  6
CONTINUOUS
 62
       7
100
AcDbLine
 10
-215.92822512
 20
433.44240338
 30
0.0
 11
-220.73225839
 21
428.63837012
 31
0.0
  0
LINE
  5
41A
100
AcDbEntity
  8
0
  6
CONTINUOUS
 62
       7
100
AcDbLine
 10
-215.28587155
 20
433.23622882
 30
0.0
 11
-219.88373025
 21
428.63837012
 31
0.0
  0
LINE
  5
41B
100
AcDbEntity
  8
0
  6
CONTINUOUS
 62
       7
100
AcDbLine
 10
-214.65044342
 20
433.02312881
 30
0.0
 11
-219.03520211
 21
428.63837012
 31
0.0
  0
LINE
  5
41C
100
AcDbEntity
  8
0
  6
CONTINUOUS
 62
       7
100
AcDbLine
 10
-214.02208549
 20
432.8029586
 30
0.0
 11
-218.18667398
 21
428.63837012
 31
0.0
  0
LINE
  5
41D
100
AcDbEntity
  8
0
  6
CONTINUOUS
 62
       7
100
AcDbLine
 10
-213.40095794
 20
432.57555802
 30
0.0
 11
-217.33814584
 21
428.63837012
 31
0.0
  0
LINE
  5
41E
100
AcDbEntity
  8
0
  6
CONTINUOUS
 62
       7
100
AcDbLine
 10
-212.7872378
 20
432.34075002
 30
0.0
 11
-216.4896177
 21
428.63837012
 31
0.0
  0
LINE
  5
41F
100
AcDbEntity
  8
0
  6
CONTINUOUS
 62
       7
100
AcDbLine
 10
-212.18112062
 20
432.09833906
 30
0.0
 11
-215.64108956
 21
428.63837012
 31
0.0
  0
LINE
  5
420
100
AcDbEntity
  8
0
  6
CONTINUOUS
 62
       7
100
AcDbLine
 10
-211.58282244
 20
431.8481091
 30
0.0
 11
-214.79256143
 21
428.63837012
 31
0.0
  0
LINE
  5
421
100
AcDbEntity
  8
0
  6
CONTINUOUS
 62
       7
100
AcDbLine
 10
-210.99258206
 20
431.58982135
 30
0.0
 11
-213.94403329
 21
428.63837012
 31
0.0
  0
LINE
  5
422
100
AcDbEntity
  8
0
  6
CONTINUOUS
 62
       7
100
AcDbLine
 10
-210.41066368
 20
431.32321159
 30
0.0
 11
-213.09550515
 21
428.63837012
 31
0.0
  0
LINE
  5
423
100
AcDbEntity
  8
0
  6
CONTINUOUS
 62
       7
100
AcDbLine
 10
-209.83736004
 20
431.04798709
 30
0.0
 11
-212.24697701
 21
428.63837012
 31
0.0
  0
LINE
  5
424
100
AcDbEntity
  8
0
  6
CONTINUOUS
 62
       7
100
AcDbLine
 10
-209.27299613
 20
430.76382286
 30
0.0
 11
-211.39844888
 21
428.63837012
 31
0.0
  0
LINE
  5
425
100
AcDbEntity
  8
0
  6
CONTINUOUS
 62
       7
100
AcDbLine
 10
-208.71793356
 20
430.4703573
 30
0.0
 11
-210.54992074
 21
428.63837012
 31
0.0
  0
LINE
  5
426
100
AcDbEntity
  8
0
  6
CONTINUOUS
 62
       7
100
AcDbLine
 10
-208.17257578
 20
430.16718694
 30
0.0
 11
-209.7013926
 21
428.63837012
 31
0.0
  0
LINE
  5
427
100
AcDbEntity
  8
0
  6
CONTINUOUS
 62
       7
100
AcDbLine
 10
-207.63737444
 20
429.85386015
 30
0.0
 11
-208.85286446
 21
428.63837012
 31
0.0
  0
LINE
  5
428
100
AcDbEntity
  8
0
  6
CONTINUOUS
 62
       7
100
AcDbLine
 10
-207.112837
 20
429.52986944
 30
0.0
 11
-208.43883985
 21
428.2038666
 31
0.0
  0
LINE
  5
429
100
AcDbEntity
  8
0
  6
CONTINUOUS
 62
       7
100
AcDbLine
 10
-206.59953613
 20
429.19464218
 30
0.0
 11
-208.43883985
 21
427.35533846
 31
0.0
  0
LINE
  5
42A
100
AcDbEntity
  8
0
  6
CONTINUOUS
 62
       7
100
AcDbLine
 10
-206.09812122
 20
428.84752895
 30
0.0
 11
-208.43883985
 21
426.50681032
 31
0.0
  0
LINE
  5
42B
100
AcDbEntity
  8
0
  6
CONTINUOUS
 62
       7
100
AcDbLine
 10
-205.60933282
 20
428.48778921
 30
0.0
 11
-208.43883985
 21
425.65828218
 31
0.0
  0
LINE
  5
42C
100
AcDbEntity
  8
0
  6
CONTINUOUS
 62
       7
100
AcDbLine
 10
-205.13402081
 20
428.11457309
 30
0.0
 11
-208.43883985
 21
424.80975405
 31
0.0
  0
LINE
  5
42D
100
AcDbEntity
  8
0
  6
CONTINUOUS
 62
       7
100
AcDbLine
 10
-204.67316761
 20
427.72689814
 30
0.0
 11
-208.43883985
 21
423.96122591
 31
0.0
  0
LINE
  5
42E
100
AcDbEntity
  8
0
  6
CONTINUOUS
 62
       7
100
AcDbLine
 10
-204.22791831
 20
427.32361931
 30
0.0
 11
-208.43883985
 21
423.11269777
 31
0.0
  0
LINE
  5
42F
100
AcDbEntity
  8
0
  6
CONTINUOUS
 62
       7
100
AcDbLine
 10
-203.79962026
 20
426.90338923
 30
0.0
 11
-208.43883985
 21
422.26416963
 31
0.0
  0
LINE
  5
430
100
AcDbEntity
  8
0
  6
CONTINUOUS
 62
       7
100
AcDbLine
 10
-203.38987627
 20
426.46460507
 30
0.0
 11
-208.43883985
 21
421.4156415
 31
0.0
  0
LINE
  5
431
100
AcDbEntity
  8
0
  6
CONTINUOUS
 62
       7
100
AcDbLine
 10
-203.00061747
 20
426.00533574
 30
0.0
 11
-207.68008309
 21
421.32587012
 31
0.0
  0
LINE
  5
432
100
AcDbEntity
  8
0
  6
CONTINUOUS
 62
       7
100
AcDbLine
 10
-202.63420544
 20
425.52321963
 30
0.0
 11
-206.83155495
 21
421.32587012
 31
0.0
  0
LINE
  5
433
100
AcDbEntity
  8
0
  6
CONTINUOUS
 62
       7
100
AcDbLine
 10
-202.29357984
 20
425.01531709
 30
0.0
 11
-205.98302681
 21
421.32587012
 31
0.0
  0
LINE
  5
434
100
AcDbEntity
  8
0
  6
CONTINUOUS
 62
       7
100
AcDbLine
 10
-201.98247867
 20
424.47789012
 30
0.0
 11
-205.13449868
 21
421.32587012
 31
0.0
  0
LINE
  5
435
100
AcDbEntity
  8
0
  6
CONTINUOUS
 62
       7
100
AcDbLine
 10
-201.70578073
 20
423.90605993
 30
0.0
 11
-204.28597054
 21
421.32587012
 31
0.0
  0
LINE
  5
436
100
AcDbEntity
  8
0
  6
CONTINUOUS
 62
       7
100
AcDbLine
 10
-201.47006526
 20
423.29324726
 30
0.0
 11
-203.4374424
 21
421.32587012
 31
0.0
  0
LINE
  5
437
100
AcDbEntity
  8
0
  6
CONTINUOUS
 62
       7
100
AcDbLine
 10
-201.28458578
 20
422.63019861
 30
0.0
 11
-202.58891427
 21
421.32587012
 31
0.0
  0
LINE
  5
438
100
AcDbEntity
  8
0
  6
CONTINUOUS
 62
       7
100
AcDbLine
 10
-201.16310995
 20
421.9031463
 30
0.0
 11
-201.74038613
 21
421.32587012
 31
0.0
  0
LINE
  5
439
100
AcDbEntity
  8
0
  6
CONTINUOUS
 62
       7
100
AcDbLine
 10
-227.56052222
 20
414.01337012
 30
0.0
 11
-235.75309142
 21
405.82080092
 31
0.0
  0
LINE
  5
43A
100
AcDbEntity
  8
0
  6
CONTINUOUS
 62
       7
100
AcDbLine
 10
-228.40905036
 20
414.01337012
 30
0.0
 11
-236.63206015
 21
405.79036032
 31
0.0
  0
LINE
  5
43B
100
AcDbEntity
  8
0
  6
CONTINUOUS
 62
       7
100
AcDbLine
 10
-229.25757849
 20
414.01337012
 30
0.0
 11
-237.50265397
 21
405.76829464
 31
0.0
  0
LINE
  5
43C
100
AcDbEntity
  8
0
  6
CONTINUOUS
 62
       7
100
AcDbLine
 10
-230.10610663
 20
414.01337012
 30
0.0
 11
-238.36514222
 21
405.75433453
 31
0.0
  0
LINE
  5
43D
100
AcDbEntity
  8
0
  6
CONTINUOUS
 62
       7
100
AcDbLine
 10
-230.95463477
 20
414.01337012
 30
0.0
 11
-239.21976826
 21
405.74823663
 31
0.0
  0
LINE
  5
43E
100
AcDbEntity
  8
0
  6
CONTINUOUS
 62
       7
100
AcDbLine
 10
-231.80316291
 20
414.01337012
 30
0.0
 11
-240.06675223
 21
405.7497808
 31
0.0
  0
LINE
  5
43F
100
AcDbEntity
  8
0
  6
CONTINUOUS
 62
       7
100
AcDbLine
 10
-232.65169104
 20
414.01337012
 30
0.0
 11
-240.9062934
 21
405.75876776
 31
0.0
  0
LINE
  5
440
100
AcDbEntity
  8
0
  6
CONTINUOUS
 62
       7
100
AcDbLine
 10
-233.50021918
 20
414.01337012
 30
0.0
 11
-241.73857215
 21
405.77501715
 31
0.0
  0
LINE
  5
441
100
AcDbEntity
  8
0
  6
CONTINUOUS
 62
       7
100
AcDbLine
 10
-234.34874732
 20
414.01337012
 30
0.0
 11
-242.56375171
 21
405.79836573
 31
0.0
  0
LINE
  5
442
100
AcDbEntity
  8
0
  6
CONTINUOUS
 62
       7
100
AcDbLine
 10
-235.19727546
 20
414.01337012
 30
0.0
 11
-243.38197966
 21
405.82866592
 31
0.0
  0
LINE
  5
443
100
AcDbEntity
  8
0
  6
CONTINUOUS
 62
       7
100
AcDbLine
 10
-236.04580359
 20
414.01337012
 30
0.0
 11
-244.1933892
 21
405.86578451
 31
0.0
  0
LINE
  5
444
100
AcDbEntity
  8
0
  6
CONTINUOUS
 62
       7
100
AcDbLine
 10
-236.89433173
 20
414.01337012
 30
0.0
 11
-244.99810027
 21
405.90960158
 31
0.0
  0
LINE
  5
445
100
AcDbEntity
  8
0
  6
CONTINUOUS
 62
       7
100
AcDbLine
 10
-237.74285987
 20
414.01337012
 30
0.0
 11
-245.79622053
 21
405.96000946
 31
0.0
  0
LINE
  5
446
100
AcDbEntity
  8
0
  6
CONTINUOUS
 62
       7
100
AcDbLine
 10
-238.59138801
 20
414.01337012
 30
0.0
 11
-246.58784617
 21
406.01691196
 31
0.0
  0
LINE
  5
447
100
AcDbEntity
  8
0
  6
CONTINUOUS
 62
       7
100
AcDbLine
 10
-239.43991614
 20
414.01337012
 30
0.0
 11
-247.37306265
 21
406.08022361
 31
0.0
  0
LINE
  5
448
100
AcDbEntity
  8
0
  6
CONTINUOUS
 62
       7
100
AcDbLine
 10
-240.28844428
 20
414.01337012
 30
0.0
 11
-248.15194534
 21
406.14986906
 31
0.0
  0
LINE
  5
449
100
AcDbEntity
  8
0
  6
CONTINUOUS
 62
       7
100
AcDbLine
 10
-241.13697242
 20
414.01337012
 30
0.0
 11
-248.92456001
 21
406.22578253
 31
0.0
  0
LINE
  5
44A
100
AcDbEntity
  8
0
  6
CONTINUOUS
 62
       7
100
AcDbLine
 10
-241.98550056
 20
414.01337012
 30
0.0
 11
-249.69096333
 21
406.30790734
 31
0.0
  0
LINE
  5
44B
100
AcDbEntity
  8
0
  6
CONTINUOUS
 62
       7
100
AcDbLine
 10
-242.83402869
 20
414.01337012
 30
0.0
 11
-250.45120324
 21
406.39619557
 31
0.0
  0
LINE
  5
44C
100
AcDbEntity
  8
0
  6
CONTINUOUS
 62
       7
100
AcDbLine
 10
-243.68255683
 20
414.01337012
 30
0.0
 11
-251.20531927
 21
406.49060768
 31
0.0
  0
LINE
  5
44D
100
AcDbEntity
  8
0
  6
CONTINUOUS
 62
       7
100
AcDbLine
 10
-244.53108497
 20
414.01337012
 30
0.0
 11
-251.95334277
 21
406.59111232
 31
0.0
  0
LINE
  5
44E
100
AcDbEntity
  8
0
  6
CONTINUOUS
 62
       7
100
AcDbLine
 10
-245.3796131
 20
414.01337012
 30
0.0
 11
-252.69529716
 21
406.69768606
 31
0.0
  0
LINE
  5
44F
100
AcDbEntity
  8
0
  6
CONTINUOUS
 62
       7
100
AcDbLine
 10
-246.22814124
 20
414.01337012
 30
0.0
 11
-253.43119807
 21
406.81031329
 31
0.0
  0
LINE
  5
450
100
AcDbEntity
  8
0
  6
CONTINUOUS
 62
       7
100
AcDbLine
 10
-247.07666938
 20
414.01337012
 30
0.0
 11
-254.16105342
 21
406.92898608
 31
0.0
  0
LINE
  5
451
100
AcDbEntity
  8
0
  6
CONTINUOUS
 62
       7
100
AcDbLine
 10
-247.92519752
 20
414.01337012
 30
0.0
 11
-254.88486347
 21
407.05370417
 31
0.0
  0
LINE
  5
452
100
AcDbEntity
  8
0
  6
CONTINUOUS
 62
       7
100
AcDbLine
 10
-248.77372565
 20
414.01337012
 30
0.0
 11
-255.60262084
 21
407.18447493
 31
0.0
  0
LINE
  5
453
100
AcDbEntity
  8
0
  6
CONTINUOUS
 62
       7
100
AcDbLine
 10
-249.62225379
 20
414.01337012
 30
0.0
 11
-256.31431046
 21
407.32131345
 31
0.0
  0
LINE
  5
454
100
AcDbEntity
  8
0
  6
CONTINUOUS
 62
       7
100
AcDbLine
 10
-250.47078193
 20
414.01337012
 30
0.0
 11
-257.01990946
 21
407.46424259
 31
0.0
  0
LINE
  5
455
100
AcDbEntity
  8
0
  6
CONTINUOUS
 62
       7
100
AcDbLine
 10
-251.31931007
 20
414.01337012
 30
0.0
 11
-257.71938703
 21
407.61329315
 31
0.0
  0
LINE
  5
456
100
AcDbEntity
  8
0
  6
CONTINUOUS
 62
       7
100
AcDbLine
 10
-252.1678382
 20
414.01337012
 30
0.0
 11
-258.41270424
 21
407.76850408
 31
0.0
  0
LINE
  5
457
100
AcDbEntity
  8
0
  6
CONTINUOUS
 62
       7
100
AcDbLine
 10
-253.01636634
 20
414.01337012
 30
0.0
 11
-259.09981375
 21
407.92992271
 31
0.0
  0
LINE
  5
458
100
AcDbEntity
  8
0
  6
CONTINUOUS
 62
       7
100
AcDbLine
 10
-253.86489448
 20
414.01337012
 30
0.0
 11
-259.78065952
 21
408.09760508
 31
0.0
  0
LINE
  5
459
100
AcDbEntity
  8
0
  6
CONTINUOUS
 62
       7
100
AcDbLine
 10
-254.71342262
 20
414.01337012
 30
0.0
 11
-260.45517642
 21
408.27161632
 31
0.0
  0
LINE
  5
45A
100
AcDbEntity
  8
0
  6
CONTINUOUS
 62
       7
100
AcDbLine
 10
-255.56195075
 20
414.01337012
 30
0.0
 11
-261.12328978
 21
408.4520311
 31
0.0
  0
LINE
  5
45B
100
AcDbEntity
  8
0
  6
CONTINUOUS
 62
       7
100
AcDbLine
 10
-256.41047889
 20
414.01337012
 30
0.0
 11
-261.78491486
 21
408.63893415
 31
0.0
  0
LINE
  5
45C
100
AcDbEntity
  8
0
  6
CONTINUOUS
 62
       7
100
AcDbLine
 10
-257.25900703
 20
414.01337012
 30
0.0
 11
-262.43995625
 21
408.83242089
 31
0.0
  0
LINE
  5
45D
100
AcDbEntity
  8
0
  6
CONTINUOUS
 62
       7
100
AcDbLine
 10
-258.10753517
 20
414.01337012
 30
0.0
 11
-263.08830713
 21
409.03259816
 31
0.0
  0
LINE
  5
45E
100
AcDbEntity
  8
0
  6
CONTINUOUS
 62
       7
100
AcDbLine
 10
-258.9560633
 20
414.01337012
 30
0.0
 11
-263.72984844
 21
409.23958498
 31
0.0
  0
LINE
  5
45F
100
AcDbEntity
  8
0
  6
CONTINUOUS
 62
       7
100
AcDbLine
 10
-259.80459144
 20
414.01337012
 30
0.0
 11
-264.36444795
 21
409.45351361
 31
0.0
  0
LINE
  5
460
100
AcDbEntity
  8
0
  6
CONTINUOUS
 62
       7
100
AcDbLine
 10
-260.65311958
 20
414.01337012
 30
0.0
 11
-264.99195913
 21
409.67453057
 31
0.0
  0
LINE
  5
461
100
AcDbEntity
  8
0
  6
CONTINUOUS
 62
       7
100
AcDbLine
 10
-261.50164772
 20
414.01337012
 30
0.0
 11
-265.6122199
 21
409.90279794
 31
0.0
  0
LINE
  5
462
100
AcDbEntity
  8
0
  6
CONTINUOUS
 62
       7
100
AcDbLine
 10
-262.35017585
 20
414.01337012
 30
0.0
 11
-266.22505113
 21
410.13849485
 31
0.0
  0
LINE
  5
463
100
AcDbEntity
  8
0
  6
CONTINUOUS
 62
       7
100
AcDbLine
 10
-263.19870399
 20
414.01337012
 30
0.0
 11
-266.83025494
 21
410.38181917
 31
0.0
  0
LINE
  5
464
100
AcDbEntity
  8
0
  6
CONTINUOUS
 62
       7
100
AcDbLine
 10
-264.04723213
 20
414.01337012
 30
0.0
 11
-267.42761274
 21
410.63298951
 31
0.0
  0
LINE
  5
465
100
AcDbEntity
  8
0
  6
CONTINUOUS
 62
       7
100
AcDbLine
 10
-264.89576027
 20
414.01337012
 30
0.0
 11
-268.01688286
 21
410.89224752
 31
0.0
  0
LINE
  5
466
100
AcDbEntity
  8
0
  6
CONTINUOUS
 62
       7
100
AcDbLine
 10
-265.7442884
 20
414.01337012
 30
0.0
 11
-268.59779791
 21
411.15986061
 31
0.0
  0
LINE
  5
467
100
AcDbEntity
  8
0
  6
CONTINUOUS
 62
       7
100
AcDbLine
 10
-266.59281654
 20
414.01337012
 30
0.0
 11
-269.17006152
 21
411.43612514
 31
0.0
  0
LINE
  5
468
100
AcDbEntity
  8
0
  6
CONTINUOUS
 62
       7
100
AcDbLine
 10
-267.44134468
 20
414.01337012
 30
0.0
 11
-269.73334462
 21
411.72137017
 31
0.0
  0
LINE
  5
469
100
AcDbEntity
  8
0
  6
CONTINUOUS
 62
       7
100
AcDbLine
 10
-268.28987282
 20
414.01337012
 30
0.0
 11
-270.28728096
 21
412.01596198
 31
0.0
  0
LINE
  5
46A
100
AcDbEntity
  8
0
  6
CONTINUOUS
 62
       7
100
AcDbLine
 10
-269.13840095
 20
414.01337012
 30
0.0
 11
-270.83146171
 21
412.32030936
 31
0.0
  0
LINE
  5
46B
100
AcDbEntity
  8
0
  6
CONTINUOUS
 62
       7
100
AcDbLine
 10
-269.98692909
 20
414.01337012
 30
0.0
 11
-271.36542907
 21
412.63487014
 31
0.0
  0
LINE
  5
46C
100
AcDbEntity
  8
0
  6
CONTINUOUS
 62
       7
100
AcDbLine
 10
-270.31383985
 20
414.5349875
 30
0.0
 11
-271.88866837
 21
412.96015898
 31
0.0
  0
LINE
  5
46D
100
AcDbEntity
  8
0
  6
CONTINUOUS
 62
       7
100
AcDbLine
 10
-270.31383985
 20
415.38351564
 30
0.0
 11
-272.40059853
 21
413.29675695
 31
0.0
  0
LINE
  5
46E
100
AcDbEntity
  8
0
  6
CONTINUOUS
 62
       7
100
AcDbLine
 10
-270.31383985
 20
416.23204377
 30
0.0
 11
-272.90056019
 21
413.64532344
 31
0.0
  0
LINE
  5
46F
100
AcDbEntity
  8
0
  6
CONTINUOUS
 62
       7
100
AcDbLine
 10
-270.31383985
 20
417.08057191
 30
0.0
 11
-273.38780088
 21
414.00661087
 31
0.0
  0
LINE
  5
470
100
AcDbEntity
  8
0
  6
CONTINUOUS
 62
       7
100
AcDbLine
 10
-270.31383985
 20
417.92910005
 30
0.0
 11
-273.86145639
 21
414.3814835
 31
0.0
  0
LINE
  5
471
100
AcDbEntity
  8
0
  6
CONTINUOUS
 62
       7
100
AcDbLine
 10
-270.31383985
 20
418.77762818
 30
0.0
 11
-274.32052677
 21
414.77094127
 31
0.0
  0
LINE
  5
472
100
AcDbEntity
  8
0
  6
CONTINUOUS
 62
       7
100
AcDbLine
 10
-270.31383985
 20
419.62615632
 30
0.0
 11
-274.76384529
 21
415.17615088
 31
0.0
  0
LINE
  5
473
100
AcDbEntity
  8
0
  6
CONTINUOUS
 62
       7
100
AcDbLine
 10
-270.31383985
 20
420.47468446
 30
0.0
 11
-275.19003746
 21
415.59848685
 31
0.0
  0
LINE
  5
474
100
AcDbEntity
  8
0
  6
CONTINUOUS
 62
       7
100
AcDbLine
 10
-270.31118233
 20
421.32587012
 30
0.0
 11
-275.59746589
 21
416.03958655
 31
0.0
  0
LINE
  5
475
100
AcDbEntity
  8
0
  6
CONTINUOUS
 62
       7
100
AcDbLine
 10
-271.15971046
 20
421.32587012
 30
0.0
 11
-275.98415458
 21
416.501426
 31
0.0
  0
LINE
  5
476
100
AcDbEntity
  8
0
  6
CONTINUOUS
 62
       7
100
AcDbLine
 10
-272.0082386
 20
421.32587012
 30
0.0
 11
-276.34768233
 21
416.98642639
 31
0.0
  0
LINE
  5
477
100
AcDbEntity
  8
0
  6
CONTINUOUS
 62
       7
100
AcDbLine
 10
-272.85676674
 20
421.32587012
 30
0.0
 11
-276.68502833
 21
417.49760853
 31
0.0
  0
LINE
  5
478
100
AcDbEntity
  8
0
  6
CONTINUOUS
 62
       7
100
AcDbLine
 10
-273.70529488
 20
421.32587012
 30
0.0
 11
-276.9923406
 21
418.0388244
 31
0.0
  0
LINE
  5
479
100
AcDbEntity
  8
0
  6
CONTINUOUS
 62
       7
100
AcDbLine
 10
-274.55382301
 20
421.32587012
 30
0.0
 11
-277.26457401
 21
418.61511913
 31
0.0
  0
LINE
  5
47A
100
AcDbEntity
  8
0
  6
CONTINUOUS
 62
       7
100
AcDbLine
 10
-275.40235115
 20
421.32587012
 30
0.0
 11
-277.49489492
 21
419.23332635
 31
0.0
  0
LINE
  5
47B
100
AcDbEntity
  8
0
  6
CONTINUOUS
 62
       7
100
AcDbLine
 10
-276.25087929
 20
421.32587012
 30
0.0
 11
-277.6736362
 21
419.90311321
 31
0.0
  0
LINE
  5
47C
100
AcDbEntity
  8
0
  6
CONTINUOUS
 62
       7
100
AcDbLine
 10
-277.09940743
 20
421.32587012
 30
0.0
 11
-277.78630015
 21
420.63897739
 31
0.0
  0
LINE
  5
47D
100
AcDbEntity
  8
0
  6
CONTINUOUS
 62
       7
100
AcDbLine
 10
-226.71199408
 20
414.01337012
 30
0.0
 11
-234.86544926
 21
405.85991494
 31
0.0
  0
LINE
  5
47E
100
AcDbEntity
  8
0
  6
CONTINUOUS
 62
       7
100
AcDbLine
 10
-225.86346594
 20
414.01337012
 30
0.0
 11
-233.96880214
 21
405.90803392
 31
0.0
  0
LINE
  5
47F
100
AcDbEntity
  8
0
  6
CONTINUOUS
 62
       7
100
AcDbLine
 10
-225.01493781
 20
414.01337012
 30
0.0
 11
-233.062781
 21
405.96552693
 31
0.0
  0
LINE
  5
480
100
AcDbEntity
  8
0
  6
CONTINUOUS
 62
       7
100
AcDbLine
 10
-224.16640967
 20
414.01337012
 30
0.0
 11
-232.1469738
 21
406.03280599
 31
0.0
  0
LINE
  5
481
100
AcDbEntity
  8
0
  6
CONTINUOUS
 62
       7
100
AcDbLine
 10
-223.31788153
 20
414.01337012
 30
0.0
 11
-231.22091901
 21
406.11033264
 31
0.0
  0
LINE
  5
482
100
AcDbEntity
  8
0
  6
CONTINUOUS
 62
       7
100
AcDbLine
 10
-222.46935339
 20
414.01337012
 30
0.0
 11
-230.28409766
 21
406.19862586
 31
0.0
  0
LINE
  5
483
100
AcDbEntity
  8
0
  6
CONTINUOUS
 62
       7
100
AcDbLine
 10
-221.62082526
 20
414.01337012
 30
0.0
 11
-229.33592356
 21
406.29827182
 31
0.0
  0
LINE
  5
484
100
AcDbEntity
  8
0
  6
CONTINUOUS
 62
       7
100
AcDbLine
 10
-220.77229712
 20
414.01337012
 30
0.0
 11
-228.37573134
 21
406.4099359
 31
0.0
  0
LINE
  5
485
100
AcDbEntity
  8
0
  6
CONTINUOUS
 62
       7
100
AcDbLine
 10
-219.92376898
 20
414.01337012
 30
0.0
 11
-227.40276137
 21
406.53437774
 31
0.0
  0
LINE
  5
486
100
AcDbEntity
  8
0
  6
CONTINUOUS
 62
       7
100
AcDbLine
 10
-219.07524084
 20
414.01337012
 30
0.0
 11
-226.41614072
 21
406.67247025
 31
0.0
  0
LINE
  5
487
100
AcDbEntity
  8
0
  6
CONTINUOUS
 62
       7
100
AcDbLine
 10
-218.22671271
 20
414.01337012
 30
0.0
 11
-225.41485885
 21
406.82522398
 31
0.0
  0
LINE
  5
488
100
AcDbEntity
  8
0
  6
CONTINUOUS
 62
       7
100
AcDbLine
 10
-217.37818457
 20
414.01337012
 30
0.0
 11
-224.39773593
 21
406.99381876
 31
0.0
  0
LINE
  5
489
100
AcDbEntity
  8
0
  6
CONTINUOUS
 62
       7
100
AcDbLine
 10
-216.52965643
 20
414.01337012
 30
0.0
 11
-223.36338099
 21
407.17964556
 31
0.0
  0
LINE
  5
48A
100
AcDbEntity
  8
0
  6
CONTINUOUS
 62
       7
100
AcDbLine
 10
-208.3686283
 20
421.32587012
 30
0.0
 11
-208.43883985
 21
421.25565857
 31
0.0
  0
LINE
  5
48B
100
AcDbEntity
  8
0
  6
CONTINUOUS
 62
       7
100
AcDbLine
 10
-215.6811283
 20
414.01337012
 30
0.0
 11
-222.31013562
 21
407.38436279
 31
0.0
  0
LINE
  5
48C
100
AcDbEntity
  8
0
  6
CONTINUOUS
 62
       7
100
AcDbLine
 10
-207.52010016
 20
421.32587012
 30
0.0
 11
-208.43883985
 21
420.40713043
 31
0.0
  0
LINE
  5
48D
100
AcDbEntity
  8
0
  6
CONTINUOUS
 62
       7
100
AcDbLine
 10
-214.83260016
 20
414.01337012
 30
0.0
 11
-221.23599648
 21
407.6099738
 31
0.0
  0
LINE
  5
48E
100
AcDbEntity
  8
0
  6
CONTINUOUS
 62
       7
100
AcDbLine
 10
-206.67157202
 20
421.32587012
 30
0.0
 11
-208.43883985
 21
419.55860229
 31
0.0
  0
LINE
  5
48F
100
AcDbEntity
  8
0
  6
CONTINUOUS
 62
       7
100
AcDbLine
 10
-213.98407202
 20
414.01337012
 30
0.0
 11
-220.13850599
 21
407.85893615
 31
0.0
  0
LINE
  5
490
100
AcDbEntity
  8
0
  6
CONTINUOUS
 62
       7
100
AcDbLine
 10
-205.82304388
 20
421.32587012
 30
0.0
 11
-208.43883985
 21
418.71007415
 31
0.0
  0
LINE
  5
491
100
AcDbEntity
  8
0
  6
CONTINUOUS
 62
       7
100
AcDbLine
 10
-213.13554388
 20
414.01337012
 30
0.0
 11
-219.01459367
 21
408.13432034
 31
0.0
  0
LINE
  5
492
100
AcDbEntity
  8
0
  6
CONTINUOUS
 62
       7
100
AcDbLine
 10
-204.97451575
 20
421.32587012
 30
0.0
 11
-208.43883985
 21
417.86154602
 31
0.0
  0
LINE
  5
493
100
AcDbEntity
  8
0
  6
CONTINUOUS
 62
       7
100
AcDbLine
 10
-212.28701575
 20
414.01337012
 30
0.0
 11
-217.86033753
 21
408.44004834
 31
0.0
  0
LINE
  5
494
100
AcDbEntity
  8
0
  6
CONTINUOUS
 62
       7
100
AcDbLine
 10
-204.12598761
 20
421.32587012
 30
0.0
 11
-208.43883985
 21
417.01301788
 31
0.0
  0
LINE
  5
495
100
AcDbEntity
  8
0
  6
CONTINUOUS
 62
       7
100
AcDbLine
 10
-211.43848761
 20
414.01337012
 30
0.0
 11
-216.67058991
 21
408.78126782
 31
0.0
  0
LINE
  5
496
100
AcDbEntity
  8
0
  6
CONTINUOUS
 62
       7
100
AcDbLine
 10
-203.27745947
 20
421.32587012
 30
0.0
 11
-208.43883985
 21
416.16448974
 31
0.0
  0
LINE
  5
497
100
AcDbEntity
  8
0
  6
CONTINUOUS
 62
       7
100
AcDbLine
 10
-210.58995947
 20
414.01337012
 30
0.0
 11
-215.43835955
 21
409.16497004
 31
0.0
  0
LINE
  5
498
100
AcDbEntity
  8
0
  6
CONTINUOUS
 62
       7
100
AcDbLine
 10
-202.42893133
 20
421.32587012
 30
0.0
 11
-208.43883985
 21
415.3159616
 31
0.0
  0
LINE
  5
499
100
AcDbEntity
  8
0
  6
CONTINUOUS
 62
       7
100
AcDbLine
 10
-209.74143133
 20
414.01337012
 30
0.0
 11
-214.15372129
 21
409.60108017
 31
0.0
  0
LINE
  5
49A
100
AcDbEntity
  8
0
  6
CONTINUOUS
 62
       7
100
AcDbLine
 10
-201.5804032
 20
421.32587012
 30
0.0
 11
-208.43883985
 21
414.46743347
 31
0.0
  0
LINE
  5
49B
100
AcDbEntity
  8
0
  6
CONTINUOUS
 62
       7
100
AcDbLine
 10
-208.8929032
 20
414.01337012
 30
0.0
 11
-212.80171786
 21
410.10455545
 31
0.0
  0
LINE
  5
49C
100
AcDbEntity
  8
0
  6
CONTINUOUS
 62
       7
100
AcDbLine
 10
-201.13360811
 20
420.92413706
 30
0.0
 11
-211.35780456
 21
410.69994061
 31
0.0
  0
LINE
  5
49D
100
AcDbEntity
  8
0
  6
CONTINUOUS
 62
       7
100
AcDbLine
 10
-201.25612895
 20
419.95308809
 30
0.0
 11
-209.77599753
 21
411.4332195
 31
0.0
  0
LINE
  5
49E
100
AcDbEntity
  8
0
  6
CONTINUOUS
 62
       7
100
AcDbLine
 10
-201.62619155
 20
418.73449735
 30
0.0
 11
-207.94664874
 21
412.41404016
 31
0.0
  0
LINE
  5
49F
100
AcDbEntity
  8
0
  6
CONTINUOUS
 62
       7
100
AcDbLine
 10
-202.77086801
 20
416.74129276
 30
0.0
 11
-205.3426861
 21
414.16947467
 31
0.0
  0
POINT
  5
4A0
100
AcDbEntity
  8
0
  6
CONTINUOUS
 62
       7
100
AcDbPoint
 10
336.43883985
 20
-319.53530895
 30
0.0
  0
LINE
  5
4A1
100
AcDbEntity
  8
1
  6
CONTINUOUS
 62
       7
100
AcDbLine
 10
-175.05430501
 20
117.58119077
 30
0.0
 11
-145.05430501
 21
117.58119077
 31
0.0
  0
LINE
  5
4A2
100
AcDbEntity
  8
1
  6
CONTINUOUS
 62
       7
100
AcDbLine
 10
-104.25430501
 20
117.58119077
 30
0.0
 11
-145.05430501
 21
117.58119077
 31
0.0
  0
LINE
  5
4A3
100
AcDbEntity
  8
1
  6
CONTINUOUS
 62
       7
100
AcDbLine
 10
-145.05430501
 20
117.58119077
 30
0.0
 11
-137.71819801
 21
116.02185309
 31
0.0
  0
LINE
  5
4A4
100
AcDbEntity
  8
1
  6
CONTINUOUS
 62
       7
100
AcDbLine
 10
-145.05430501
 20
117.58119077
 30
0.0
 11
-137.71819801
 21
119.14052845
 31
0.0
  0
LINE
  5
4A5
100
AcDbEntity
  8
1
  6
CONTINUOUS
 62
       7
100
AcDbLine
 10
-190.05430501
 20
117.58119077
 30
0.0
 11
-175.05430501
 21
117.58119077
 31
0.0
  0
LINE
  5
4A6
100
AcDbEntity
  8
1
  6
CONTINUOUS
 62
       7
100
AcDbLine
 10
-175.05430501
 20
117.58119077
 30
0.0
 11
-182.39041202
 21
119.14052845
 31
0.0
  0
LINE
  5
4A7
100
AcDbEntity
  8
1
  6
CONTINUOUS
 62
       7
100
AcDbLine
 10
-175.05430501
 20
117.58119077
 30
0.0
 11
-182.39041202
 21
116.02185309
 31
0.0
  0
LINE
  5
4A8
100
AcDbEntity
  8
1
  6
CONTINUOUS
 62
       7
100
AcDbLine
 10
-38.8527726
 20
238.5
 30
0.0
 11
-38.8527726
 21
335.45950378
 31
0.0
  0
LINE
  5
4A9
100
AcDbEntity
  8
1
  6
CONTINUOUS
 62
       7
100
AcDbLine
 10
15.4472274
 20
302.5
 30
0.0
 11
15.4472274
 21
335.45950378
 31
0.0
  0
LINE
  5
4AA
100
AcDbEntity
  8
1
  6
CONTINUOUS
 62
       7
100
AcDbLine
 10
-38.8527726
 20
332.45950378
 30
0.0
 11
15.4472274
 21
332.45950378
 31
0.0
  0
LINE
  5
4AB
100
AcDbEntity
  8
1
  6
CONTINUOUS
 62
       7
100
AcDbLine
 10
-38.8527726
 20
332.45950378
 30
0.0
 11
-31.5166656
 21
330.9001661
 31
0.0
  0
LINE
  5
4AC
100
AcDbEntity
  8
1
  6
CONTINUOUS
 62
       7
100
AcDbLine
 10
-38.8527726
 20
332.45950378
 30
0.0
 11
-31.5166656
 21
334.01884146
 31
0.0
  0
LINE
  5
4AD
100
AcDbEntity
  8
1
  6
CONTINUOUS
 62
       7
100
AcDbLine
 10
15.4472274
 20
332.45950378
 30
0.0
 11
8.11112039
 21
334.01884146
 31
0.0
  0
LINE
  5
4AE
100
AcDbEntity
  8
1
  6
CONTINUOUS
 62
       7
100
AcDbLine
 10
15.4472274
 20
332.45950378
 30
0.0
 11
8.11112039
 21
330.9001661
 31
0.0
  0
LINE
  5
4AF
100
AcDbEntity
  8
1
  6
CONTINUOUS
 62
       7
100
AcDbLine
 10
16.9472274
 20
301.0
 30
0.0
 11
63.4472274
 21
301.0
 31
0.0
  0
LINE
  5
4B0
100
AcDbEntity
  8
1
  6
CONTINUOUS
 62
       7
100
AcDbLine
 10
16.9472274
 20
253.0
 30
0.0
 11
63.4472274
 21
253.0
 31
0.0
  0
LINE
  5
4B1
100
AcDbEntity
  8
1
  6
CONTINUOUS
 62
       7
100
AcDbLine
 10
60.4472274
 20
301.0
 30
0.0
 11
60.4472274
 21
253.0
 31
0.0
  0
LINE
  5
4B2
100
AcDbEntity
  8
1
  6
CONTINUOUS
 62
       7
100
AcDbLine
 10
60.4472274
 20
301.0
 30
0.0
 11
58.88788971
 21
293.66389299
 31
0.0
  0
LINE
  5
4B3
100
AcDbEntity
  8
1
  6
CONTINUOUS
 62
       7
100
AcDbLine
 10
60.4472274
 20
301.0
 30
0.0
 11
62.00656508
 21
293.66389299
 31
0.0
  0
LINE
  5
4B4
100
AcDbEntity
  8
1
  6
CONTINUOUS
 62
       7
100
AcDbLine
 10
60.4472274
 20
253.0
 30
0.0
 11
62.00656508
 21
260.33610701
 31
0.0
  0
LINE
  5
4B5
100
AcDbEntity
  8
1
  6
CONTINUOUS
 62
       7
100
AcDbLine
 10
60.4472274
 20
253.0
 30
0.0
 11
58.88788971
 21
260.33610701
 31
0.0
  0
LINE
  5
4B6
100
AcDbEntity
  8
1
  6
CONTINUOUS
 62
       7
100
AcDbLine
 10
-202.01380879
 20
277.0
 30
0.0
 11
-217.55430501
 21
277.0
 31
0.0
  0
LINE
  5
4B7
100
AcDbEntity
  8
1
  6
CONTINUOUS
 62
       7
100
AcDbLine
 10
-176.55430501
 20
222.0
 30
0.0
 11
-217.55430501
 21
222.0
 31
0.0
  0
LINE
  5
4B8
100
AcDbEntity
  8
1
  6
CONTINUOUS
 62
       7
100
AcDbLine
 10
-214.55430501
 20
277.0
 30
0.0
 11
-214.55430501
 21
222.0
 31
0.0
  0
LINE
  5
4B9
100
AcDbEntity
  8
1
  6
CONTINUOUS
 62
       7
100
AcDbLine
 10
-214.55430501
 20
277.0
 30
0.0
 11
-216.11364269
 21
269.66389299
 31
0.0
  0
LINE
  5
4BA
100
AcDbEntity
  8
1
  6
CONTINUOUS
 62
       7
100
AcDbLine
 10
-214.55430501
 20
277.0
 30
0.0
 11
-212.99496733
 21
269.66389299
 31
0.0
  0
LINE
  5
4BB
100
AcDbEntity
  8
1
  6
CONTINUOUS
 62
       7
100
AcDbLine
 10
-214.55430501
 20
222.0
 30
0.0
 11
-212.99496733
 21
229.33610701
 31
0.0
  0
LINE
  5
4BC
100
AcDbEntity
  8
1
  6
CONTINUOUS
 62
       7
100
AcDbLine
 10
-214.55430501
 20
222.0
 30
0.0
 11
-216.11364269
 21
229.33610701
 31
0.0
  0
LINE
  5
4BD
100
AcDbEntity
  8
1
  6
CONTINUOUS
 62
       7
100
AcDbLine
 10
-202.01380879
 20
277.0
 30
0.0
 11
-247.55430501
 21
277.0
 31
0.0
  0
LINE
  5
4BE
100
AcDbEntity
  8
1
  6
CONTINUOUS
 62
       7
100
AcDbLine
 10
-202.01380879
 20
-123.0
 30
0.0
 11
-247.55430501
 21
-123.0
 31
0.0
  0
LINE
  5
4BF
100
AcDbEntity
  8
1
  6
CONTINUOUS
 62
       7
100
AcDbLine
 10
-244.55430501
 20
277.0
 30
0.0
 11
-244.55430501
 21
-123.0
 31
0.0
  0
LINE
  5
4C0
100
AcDbEntity
  8
1
  6
CONTINUOUS
 62
       7
100
AcDbLine
 10
-244.55430501
 20
277.0
 30
0.0
 11
-246.11364269
 21
269.66389299
 31
0.0
  0
LINE
  5
4C1
100
AcDbEntity
  8
1
  6
CONTINUOUS
 62
       7
100
AcDbLine
 10
-244.55430501
 20
277.0
 30
0.0
 11
-242.99496733
 21
269.66389299
 31
0.0
  0
LINE
  5
4C2
100
AcDbEntity
  8
1
  6
CONTINUOUS
 62
       7
100
AcDbLine
 10
-244.55430501
 20
-123.0
 30
0.0
 11
-242.99496733
 21
-115.66389299
 31
0.0
  0
LINE
  5
4C3
100
AcDbEntity
  8
1
  6
CONTINUOUS
 62
       7
100
AcDbLine
 10
-244.55430501
 20
-123.0
 30
0.0
 11
-246.11364269
 21
-115.66389299
 31
0.0
  0
LINE
  5
4C4
100
AcDbEntity
  8
1
  6
CONTINUOUS
 62
       7
100
AcDbLine
 10
-202.01380879
 20
-123.0
 30
0.0
 11
-217.55430501
 21
-123.0
 31
0.0
  0
LINE
  5
4C5
100
AcDbEntity
  8
1
  6
CONTINUOUS
 62
       7
100
AcDbLine
 10
-176.55430501
 20
-68.0
 30
0.0
 11
-217.55430501
 21
-68.0
 31
0.0
  0
LINE
  5
4C6
100
AcDbEntity
  8
1
  6
CONTINUOUS
 62
       7
100
AcDbLine
 10
-214.55430501
 20
-68.0
 30
0.0
 11
-214.55430501
 21
-123.0
 31
0.0
  0
LINE
  5
4C7
100
AcDbEntity
  8
1
  6
CONTINUOUS
 62
       7
100
AcDbLine
 10
-214.55430501
 20
-68.0
 30
0.0
 11
-216.11364269
 21
-75.33610701
 31
0.0
  0
LINE
  5
4C8
100
AcDbEntity
  8
1
  6
CONTINUOUS
 62
       7
100
AcDbLine
 10
-214.55430501
 20
-68.0
 30
0.0
 11
-212.99496733
 21
-75.33610701
 31
0.0
  0
LINE
  5
4C9
100
AcDbEntity
  8
1
  6
CONTINUOUS
 62
       7
100
AcDbLine
 10
-214.55430501
 20
-123.0
 30
0.0
 11
-212.99496733
 21
-115.66389299
 31
0.0
  0
LINE
  5
4CA
100
AcDbEntity
  8
1
  6
CONTINUOUS
 62
       7
100
AcDbLine
 10
-214.55430501
 20
-123.0
 30
0.0
 11
-216.11364269
 21
-115.66389299
 31
0.0
  0
LINE
  5
4CB
100
AcDbEntity
  8
1
  6
CONTINUOUS
 62
       7
100
AcDbLine
 10
-145.05430501
 20
202.01895254
 30
0.0
 11
-117.97485504
 21
211.49471717
 31
0.0
  0
LINE
  5
4CC
100
AcDbEntity
  8
1
  6
CONTINUOUS
 62
       7
100
AcDbLine
 10
-145.05430501
 20
202.01895254
 30
0.0
 11
-137.6148673
 21
202.97014472
 31
0.0
  0
LINE
  5
4CD
100
AcDbEntity
  8
1
  6
CONTINUOUS
 62
       7
100
AcDbLine
 10
-145.05430501
 20
202.01895254
 30
0.0
 11
-138.6449252
 21
205.91380176
 31
0.0
  0
LINE
  5
4CE
100
AcDbEntity
  8
1
  6
CONTINUOUS
 62
       7
100
AcDbLine
 10
-142.98119478
 20
295.4329984
 30
0.0
 11
-114.49621005
 21
326.18683708
 31
0.0
  0
LINE
  5
4CF
100
AcDbEntity
  8
1
  6
CONTINUOUS
 62
       7
100
AcDbLine
 10
-142.98119478
 20
295.4329984
 30
0.0
 11
-136.85210729
 21
299.75553083
 31
0.0
  0
LINE
  5
4D0
100
AcDbEntity
  8
1
  6
CONTINUOUS
 62
       7
100
AcDbLine
 10
-142.98119478
 20
295.4329984
 30
0.0
 11
-139.14012708
 21
301.87475274
 31
0.0
  0
TEXT
  5
4D1
100
AcDbEntity
  8
1
 62
       7
100
AcDbText
 10
-136.05430501
 20
120.58119077
 30
0.0
 40
12.0
  1
φ30
 41
0.8
 72
       5
 11
-107.25430501
 21
120.58119077
 31
0.0
100
AcDbText
  0
TEXT
  5
4D2
100
AcDbEntity
  8
1
 62
       7
100
AcDbText
 10
-21.3027726
 20
335.45950378
 30
0.0
 40
12.0
  1
55
 41
0.8
 72
       5
 11
-2.1027726
 21
335.45950378
 31
0.0
100
AcDbText
  0
TEXT
  5
4D3
100
AcDbEntity
  8
1
 62
       7
100
AcDbText
 10
57.4472274
 20
262.6
 30
0.0
 40
12.0
  1
φ48
 50
90.00000154
 41
0.8
 72
       5
 11
57.44722662
 21
291.4
 31
0.0
100
AcDbText
  0
TEXT
  5
4D4
100
AcDbEntity
  8
1
 62
       7
100
AcDbText
 10
-217.55430501
 20
239.9
 30
0.0
 40
12.0
  1
55
 50
90.00000154
 41
0.8
 72
       5
 11
-217.55430553
 21
259.1
 31
0.0
100
AcDbText
  0
TEXT
  5
4D5
100
AcDbEntity
  8
1
 62
       7
100
AcDbText
 10
-247.55430501
 20
72.2
 30
0.0
 40
12.0
  1
L
 50
90.00000154
 41
0.8
 72
       5
 11
-247.55430527
 21
81.8
 31
0.0
100
AcDbText
  0
TEXT
  5
4D6
100
AcDbEntity
  8
1
 62
       7
100
AcDbText
 10
-217.55430501
 20
-105.1
 30
0.0
 40
12.0
  1
55
 50
90.00000154
 41
0.8
 72
       5
 11
-217.55430553
 21
-85.9
 31
0.0
100
AcDbText
  0
CIRCLE
  5
4D7
100
AcDbEntity
  8
16
  6
CONTINUOUS
 62
       7
100
AcDbCircle
 10
155.95472874
 20
277.0
 30
0.0
 40
18.0
  0
LINE
  5
4D8
100
AcDbEntity
  8
16
  6
CONTINUOUS
 62
       7
100
AcDbLine
 10
250.28423107
 20
295.0
 30
0.0
 11
251.28423107
 21
295.0
 31
0.0
  0
ARC
  5
4D9
100
AcDbEntity
  8
16
  6
CONTINUOUS
 62
       7
100
AcDbCircle
 10
251.28423107
 20
294.2
 30
0.0
 40
0.8
100
AcDbArc
 50
0.0
 51
90.0
  0
ARC
  5
4DA
100
AcDbEntity
  8
16
  6
CONTINUOUS
 62
       7
100
AcDbCircle
 10
251.28423107
 20
259.8
 30
0.0
 40
0.8
100
AcDbArc
 50
270.0
 51
360.0
  0
LINE
  5
4DB
100
AcDbEntity
  8
16
  6
CONTINUOUS
 62
       7
100
AcDbLine
 10
250.28423107
 20
295.0
 30
0.0
 11
250.28423107
 21
259.0
 31
0.0
  0
LINE
  5
4DC
100
AcDbEntity
  8
16
  6
CONTINUOUS
 62
       7
100
AcDbLine
 10
250.28423107
 20
259.0
 30
0.0
 11
251.28423107
 21
259.0
 31
0.0
  0
LINE
  5
4DD
100
AcDbEntity
  8
16
  6
CONTINUOUS
 62
       7
100
AcDbLine
 10
259.78423107
 20
288.29619246
 30
0.0
 11
259.78423107
 21
265.70380754
 31
0.0
  0
LINE
  5
4DE
100
AcDbEntity
  8
16
  6
CONTINUOUS
 62
       7
100
AcDbLine
 10
255.78423107
 20
288.57589971
 30
0.0
 11
259.78423107
 21
288.29619246
 31
0.0
  0
LINE
  5
4DF
100
AcDbEntity
  8
16
  6
CONTINUOUS
 62
       7
100
AcDbLine
 10
252.08423107
 20
294.2
 30
0.0
 11
252.08423107
 21
277.0
 31
0.0
  0
LINE
  5
4E0
100
AcDbEntity
  8
16
  6
CONTINUOUS
 62
       7
100
AcDbLine
 10
253.01447459
 20
264.25708995
 30
0.0
 11
255.80369493
 21
264.45213123
 31
0.0
  0
ARC
  5
4E1
100
AcDbEntity
  8
16
  6
CONTINUOUS
 62
       7
100
AcDbCircle
 10
253.08423107
 20
263.2595259
 30
0.0
 40
1.0
100
AcDbArc
 50
94.0000016
 51
180.0
  0
LINE
  5
4E2
100
AcDbEntity
  8
16
  6
CONTINUOUS
 62
       7
100
AcDbLine
 10
252.08423107
 20
277.0
 30
0.0
 11
252.08423107
 21
259.8
 31
0.0
  0
ARC
  5
4E3
100
AcDbEntity
  8
16
  6
CONTINUOUS
 62
       7
100
AcDbCircle
 10
253.08423107
 20
290.7404741
 30
0.0
 40
1.0
100
AcDbArc
 50
180.0
 51
265.9999984
  0
LINE
  5
4E4
100
AcDbEntity
  8
16
  6
CONTINUOUS
 62
       7
100
AcDbLine
 10
253.01447459
 20
289.74291005
 30
0.0
 11
255.80369493
 21
289.54786877
 31
0.0
  0
LINE
  5
4E5
100
AcDbEntity
  8
16
  6
CONTINUOUS
 62
       7
100
AcDbLine
 10
255.78423107
 20
265.42410029
 30
0.0
 11
259.78423107
 21
265.70380754
 31
0.0
  0
LINE
  5
4E6
100
AcDbEntity
  8
16
  6
CONTINUOUS
 62
       7
100
AcDbLine
 10
255.78423107
 20
289.54786877
 30
0.0
 11
255.78423107
 21
277.0
 31
0.0
  0
LINE
  5
4E7
100
AcDbEntity
  8
16
  6
CONTINUOUS
 62
       7
100
AcDbLine
 10
255.78423107
 20
277.0
 30
0.0
 11
255.78423107
 21
264.45213123
 31
0.0
  0
CIRCLE
  5
4E8
100
AcDbEntity
  8
16
  6
CONTINUOUS
 62
       7
100
AcDbCircle
 10
155.95472874
 20
285.0
 30
0.0
 40
4.06
  0
CIRCLE
  5
4E9
100
AcDbEntity
  8
16
  6
CONTINUOUS
 62
       7
100
AcDbCircle
 10
155.95472874
 20
269.0
 30
0.0
 40
4.06
  0
ARC
  5
4EA
100
AcDbEntity
  8
16
  6
CONTINUOUS
 62
       7
100
AcDbCircle
 10
155.95472874
 20
277.0
 30
0.0
 40
9.0
100
AcDbArc
 50
132.25342541
 51
222.65300752
  0
LINE
  5
4EB
100
AcDbEntity
  8
16
  6
CONTINUOUS
 62
       7
100
AcDbLine
 10
161.05472874
 20
277.0
 30
0.0
 11
161.05472874
 21
283.39452891
 31
0.0
  0
ARC
  5
4EC
100
AcDbEntity
  8
16
  6
CONTINUOUS
 62
       7
100
AcDbCircle
 10
161.55472874
 20
283.39452891
 30
0.0
 40
0.5
100
AcDbArc
 50
48.78979077
 51
180.0
  0
ARC
  5
4ED
100
AcDbEntity
  8
16
  6
CONTINUOUS
 62
       7
100
AcDbCircle
 10
155.95472874
 20
277.0
 30
0.0
 40
9.0
100
AcDbArc
 50
0.0
 51
48.78979077
  0
ARC
  5
4EE
100
AcDbEntity
  8
16
  6
CONTINUOUS
 62
       7
100
AcDbCircle
 10
161.55472874
 20
270.60547109
 30
0.0
 40
0.5
100
AcDbArc
 50
180.0
 51
311.21020923
  0
LINE
  5
4EF
100
AcDbEntity
  8
16
  6
CONTINUOUS
 62
       7
100
AcDbLine
 10
161.05472874
 20
277.0
 30
0.0
 11
161.05472874
 21
270.60547109
 31
0.0
  0
ARC
  5
4F0
100
AcDbEntity
  8
16
  6
CONTINUOUS
 62
       7
100
AcDbCircle
 10
155.95472874
 20
277.0
 30
0.0
 40
9.0
100
AcDbArc
 50
311.21020923
 51
360.0
  0
LINE
  5
4F1
100
AcDbEntity
  8
16
  6
CONTINUOUS
 62
       7
100
AcDbLine
 10
150.85472874
 20
277.0
 30
0.0
 11
150.85472874
 21
283.39452891
 31
0.0
  0
ARC
  5
4F2
100
AcDbEntity
  8
16
  6
CONTINUOUS
 62
       7
100
AcDbCircle
 10
150.35472874
 20
283.39452891
 30
0.0
 40
0.5
100
AcDbArc
 50
0.00000307
 51
131.2102123
  0
ARC
  5
4F3
100
AcDbEntity
  8
16
  6
CONTINUOUS
 62
       7
100
AcDbCircle
 10
155.95472874
 20
277.0
 30
0.0
 40
9.0
100
AcDbArc
 50
131.2102123
 51
180.00000307
  0
ARC
  5
4F4
100
AcDbEntity
  8
16
  6
CONTINUOUS
 62
       7
100
AcDbCircle
 10
150.35472874
 20
270.60547109
 30
0.0
 40
0.5
100
AcDbArc
 50
228.7897877
 51
359.99999693
  0
LINE
  5
4F5
100
AcDbEntity
  8
16
  6
CONTINUOUS
 62
       7
100
AcDbLine
 10
150.85472874
 20
277.0
 30
0.0
 11
150.85472874
 21
270.60547109
 31
0.0
  0
ARC
  5
4F6
100
AcDbEntity
  8
16
  6
CONTINUOUS
 62
       7
100
AcDbCircle
 10
155.95472874
 20
277.0
 30
0.0
 40
9.0
100
AcDbArc
 50
180.00000307
 51
228.7897877
  0
LINE
  5
4F7
100
AcDbEntity
  8
16
  6
CONTINUOUS
 62
       7
100
AcDbLine
 10
247.28423107
 20
283.7897666
 30
0.0
 11
247.28423107
 21
270.2102334
 31
0.0
  0
LINE
  5
4F8
100
AcDbEntity
  8
16
  6
CONTINUOUS
 62
       7
100
AcDbLine
 10
250.28423107
 20
283.89452891
 30
0.0
 11
247.28788499
 21
283.7898942
 31
0.0
  0
LINE
  5
4F9
100
AcDbEntity
  8
16
  6
CONTINUOUS
 62
       7
100
AcDbLine
 10
250.28423107
 20
270.10547109
 30
0.0
 11
247.28423107
 21
270.2102334
 31
0.0
  0
CIRCLE
  5
4FA
100
AcDbEntity
  8
16
  6
CONTINUOUS
 62
       7
100
AcDbCircle
 10
155.95472874
 20
277.0
 30
0.0
 40
3.53174731
  0
CIRCLE
  5
4FB
100
AcDbEntity
  8
16
  6
CONTINUOUS
 62
       7
100
AcDbCircle
 10
155.95472874
 20
285.0
 30
0.0
 40
2.4734056
  0
CIRCLE
  5
4FC
100
AcDbEntity
  8
16
  6
CONTINUOUS
 62
       7
100
AcDbCircle
 10
155.95472874
 20
269.0
 30
0.0
 40
2.4734056
  0
LINE
  5
4FD
100
AcDbEntity
  8
16
  6
CONTINUOUS
 62
       7
100
AcDbLine
 10
226.47189167
 20
118.0
 30
0.0
 11
226.47189167
 21
76.0
 31
0.0
  0
CIRCLE
  5
4FE
100
AcDbEntity
  8
16
  6
CONTINUOUS
 62
       7
100
AcDbCircle
 10
155.95472874
 20
97.0
 30
0.0
 40
21.0
  0
ARC
  5
4FF
100
AcDbEntity
  8
16
  6
CONTINUOUS
 62
       7
100
AcDbCircle
 10
139.7889212
 20
97.0
 30
0.0
 40
28.8
100
AcDbArc
 50
337.49524938
 51
382.50475062
  0
ARC
  5
500
100
AcDbEntity
  8
16
  6
CONTINUOUS
 62
       7
100
AcDbCircle
 10
161.03742065
 20
105.80348063
 30
0.0
 40
5.8
100
AcDbArc
 50
22.50475062
 51
97.49525143
  0
ARC
  5
501
100
AcDbEntity
  8
16
  6
CONTINUOUS
 62
       7
100
AcDbCircle
 10
164.03763251
 20
83.0
 30
0.0
 40
28.8
100
AcDbArc
 50
97.49525143
 51
142.50475267
  0
ARC
  5
502
100
AcDbEntity
  8
16
  6
CONTINUOUS
 62
       7
100
AcDbCircle
 10
145.78934492
 20
97.0
 30
0.0
 40
5.8
100
AcDbArc
 50
142.50475267
 51
217.49524733
  0
ARC
  5
503
100
AcDbEntity
  8
16
  6
CONTINUOUS
 62
       7
100
AcDbCircle
 10
164.03763251
 20
111.0
 30
0.0
 40
28.8
100
AcDbArc
 50
217.49524733
 51
262.50474857
  0
ARC
  5
504
100
AcDbEntity
  8
16
  6
CONTINUOUS
 62
       7
100
AcDbCircle
 10
161.03742065
 20
88.19651937
 30
0.0
 40
5.8
100
AcDbArc
 50
262.50474857
 51
337.49524938
  0
CIRCLE
  5
505
100
AcDbEntity
  8
16
  6
CONTINUOUS
 62
       7
100
AcDbCircle
 10
155.95472874
 20
97.0
 30
0.0
 40
19.0
  0
CIRCLE
  5
506
100
AcDbEntity
  8
16
  6
CONTINUOUS
 62
       7
100
AcDbCircle
 10
155.95472874
 20
97.0
 30
0.0
 40
20.0
  0
LINE
  5
507
100
AcDbEntity
  8
16
  6
CONTINUOUS
 62
       7
100
AcDbLine
 10
226.47189167
 20
118.0
 30
0.0
 11
219.07189167
 21
118.0
 31
0.0
  0
LINE
  5
508
100
AcDbEntity
  8
16
  6
CONTINUOUS
 62
       7
100
AcDbLine
 10
226.47189167
 20
76.0
 30
0.0
 11
219.07189167
 21
76.0
 31
0.0
  0
LINE
  5
509
100
AcDbEntity
  8
16
  6
CONTINUOUS
 62
       7
100
AcDbLine
 10
216.97189167
 20
117.0
 30
0.0
 11
216.97189167
 21
77.0
 31
0.0
  0
CIRCLE
  5
50A
100
AcDbEntity
  8
16
  6
CONTINUOUS
 62
       7
100
AcDbCircle
 10
155.95472874
 20
97.0
 30
0.0
 40
12.1
  0
ARC
  5
50B
100
AcDbEntity
  8
16
  6
CONTINUOUS
 62
       7
100
AcDbCircle
 10
161.03742065
 20
105.80348063
 30
0.0
 40
5.54
100
AcDbArc
 50
22.50475062
 51
97.49525143
  0
ARC
  5
50C
100
AcDbEntity
  8
16
  6
CONTINUOUS
 62
       7
100
AcDbCircle
 10
164.03763251
 20
83.0
 30
0.0
 40
28.54
100
AcDbArc
 50
97.49525143
 51
142.50475267
  0
ARC
  5
50D
100
AcDbEntity
  8
16
  6
CONTINUOUS
 62
       7
100
AcDbCircle
 10
145.78934492
 20
97.0
 30
0.0
 40
5.54
100
AcDbArc
 50
142.50475267
 51
217.49524733
  0
ARC
  5
50E
100
AcDbEntity
  8
16
  6
CONTINUOUS
 62
       7
100
AcDbCircle
 10
164.03763251
 20
111.0
 30
0.0
 40
28.54
100
AcDbArc
 50
217.49524733
 51
262.50474857
  0
ARC
  5
50F
100
AcDbEntity
  8
16
  6
CONTINUOUS
 62
       7
100
AcDbCircle
 10
161.03742065
 20
88.19651937
 30
0.0
 40
5.54
100
AcDbArc
 50
262.50474857
 51
337.49524938
  0
ARC
  5
510
100
AcDbEntity
  8
16
  6
CONTINUOUS
 62
       7
100
AcDbCircle
 10
139.7889212
 20
97.0
 30
0.0
 40
28.54
100
AcDbArc
 50
337.49524938
 51
382.50475062
  0
CIRCLE
  5
511
100
AcDbEntity
  8
16
  6
CONTINUOUS
 62
       7
100
AcDbCircle
 10
155.95472874
 20
97.0
 30
0.0
 40
12.375
  0
LINE
  5
512
100
AcDbEntity
  8
16
  6
CONTINUOUS
 62
       7
100
AcDbLine
 10
219.07189167
 20
118.0
 30
0.0
 11
219.07189167
 21
97.0
 31
0.0
  0
LINE
  5
513
100
AcDbEntity
  8
16
  6
CONTINUOUS
 62
       7
100
AcDbLine
 10
219.07189167
 20
76.0
 30
0.0
 11
219.07189167
 21
97.0
 31
0.0
  0
LINE
  5
514
100
AcDbEntity
  8
16
  6
CONTINUOUS
 62
       7
100
AcDbLine
 10
219.07189167
 20
77.0
 30
0.0
 11
216.97189167
 21
77.0
 31
0.0
  0
LINE
  5
515
100
AcDbEntity
  8
16
  6
CONTINUOUS
 62
       7
100
AcDbLine
 10
219.07189167
 20
117.0
 30
0.0
 11
216.97189167
 21
117.0
 31
0.0
  0
CIRCLE
  5
516
100
AcDbEntity
  8
16
  6
CONTINUOUS
 62
       7
100
AcDbCircle
 10
155.95472874
 20
-78.15902732
 30
0.0
 40
2.4
  0
CIRCLE
  5
517
100
AcDbEntity
  8
16
  6
CONTINUOUS
 62
       7
100
AcDbCircle
 10
155.95472874
 20
-94.15902732
 30
0.0
 40
2.4
  0
CIRCLE
  5
518
100
AcDbEntity
  8
16
  6
CONTINUOUS
 62
       7
100
AcDbCircle
 10
155.95472874
 20
-86.15902732
 30
0.0
 40
3.25
  0
CIRCLE
  5
519
100
AcDbEntity
  8
16
  6
CONTINUOUS
 62
       7
100
AcDbCircle
 10
155.95472874
 20
-86.15902732
 30
0.0
 40
24.6
  0
CIRCLE
  5
51A
100
AcDbEntity
  8
16
  6
CONTINUOUS
 62
       7
100
AcDbCircle
 10
155.95472874
 20
-86.15902732
 30
0.0
 40
24.0
  0
ARC
  5
51B
100
AcDbEntity
  8
16
  6
CONTINUOUS
 62
       7
100
AcDbCircle
 10
155.95472874
 20
-86.15902732
 30
0.0
 40
16.0
100
AcDbArc
 50
171.15064275
 51
189.93790413
  0
ARC
  5
51C
100
AcDbEntity
  8
16
  6
CONTINUOUS
 62
       7
100
AcDbCircle
 10
155.95472874
 20
-86.15902732
 30
0.0
 40
15.0
100
AcDbArc
 50
171.15064275
 51
189.93790413
  0
LINE
  5
51D
100
AcDbEntity
  8
16
  6
CONTINUOUS
 62
       7
100
AcDbLine
 10
143.56430864
 20
-82.32138617
 30
0.0
 11
142.63901978
 21
-82.07345577
 31
0.0
  0
LINE
  5
51E
100
AcDbEntity
  8
16
  6
CONTINUOUS
 62
       7
100
AcDbLine
 10
143.30548959
 20
-83.28731199
 30
0.0
 11
142.38020074
 21
-83.03938159
 31
0.0
  0
LINE
  5
51F
100
AcDbEntity
  8
16
  6
CONTINUOUS
 62
       7
100
AcDbLine
 10
139.46862664
 20
-90.05882698
 30
0.0
 11
138.46550635
 21
-90.32761224
 31
0.0
  0
LINE
  5
520
100
AcDbEntity
  8
16
  6
CONTINUOUS
 62
       7
100
AcDbLine
 10
139.72744568
 20
-91.0247528
 30
0.0
 11
138.7243254
 21
-91.29353807
 31
0.0
  0
ARC
  5
521
100
AcDbEntity
  8
16
  6
CONTINUOUS
 62
       7
100
AcDbCircle
 10
142.12138169
 20
-84.00530742
 30
0.0
 40
1.0
100
AcDbArc
 50
75.00000128
 51
171.15064275
  0
ARC
  5
522
100
AcDbEntity
  8
16
  6
CONTINUOUS
 62
       7
100
AcDbCircle
 10
139.20980759
 20
-89.09290115
 30
0.0
 40
1.0
100
AcDbArc
 50
284.99999872
 51
369.93790721
  0
ARC
  5
523
100
AcDbEntity
  8
16
  6
CONTINUOUS
 62
       7
100
AcDbCircle
 10
142.12138169
 20
-84.00530742
 30
0.0
 40
2.0
100
AcDbArc
 50
75.00000128
 51
171.15064275
  0
ARC
  5
524
100
AcDbEntity
  8
16
  6
CONTINUOUS
 62
       7
100
AcDbCircle
 10
139.20980759
 20
-89.09290115
 30
0.0
 40
2.0
100
AcDbArc
 50
284.99999872
 51
369.93790721
  0
ARC
  5
525
100
AcDbEntity
  8
16
  6
CONTINUOUS
 62
       7
100
AcDbCircle
 10
155.95472874
 20
-86.15902732
 30
0.0
 40
12.5
100
AcDbArc
 50
169.41172868
 51
280.58827286
  0
ARC
  5
526
100
AcDbEntity
  8
16
  6
CONTINUOUS
 62
       7
100
AcDbCircle
 10
155.95472874
 20
-86.15902732
 30
0.0
 40
18.5
100
AcDbArc
 50
78.18473987
 51
191.81525859
  0
ARC
  5
527
100
AcDbEntity
  8
16
  6
CONTINUOUS
 62
       7
100
AcDbCircle
 10
143.69371816
 20
-81.83842326
 30
0.0
 40
0.5
100
AcDbArc
 50
254.99999821
 51
340.58827388
  0
ARC
  5
528
100
AcDbEntity
  8
16
  6
CONTINUOUS
 62
       7
100
AcDbCircle
 10
143.17608007
 20
-83.77027491
 30
0.0
 40
0.5
100
AcDbArc
 50
349.41172561
 51
435.00000128
  0
ARC
  5
529
100
AcDbEntity
  8
16
  6
CONTINUOUS
 62
       7
100
AcDbCircle
 10
138.33609683
 20
-89.84464933
 30
0.0
 40
0.5
100
AcDbArc
 50
191.81525859
 51
284.99999872
  0
ARC
  5
52A
100
AcDbEntity
  8
16
  6
CONTINUOUS
 62
       7
100
AcDbCircle
 10
138.85373492
 20
-91.77650098
 30
0.0
 40
0.5
100
AcDbArc
 50
105.00000179
 51
198.18473578
  0
ARC
  5
52B
100
AcDbEntity
  8
16
  6
CONTINUOUS
 62
       7
100
AcDbCircle
 10
155.95472874
 20
-86.15902732
 30
0.0
 40
16.0
100
AcDbArc
 50
291.15063865
 51
309.93790618
  0
ARC
  5
52C
100
AcDbEntity
  8
16
  6
CONTINUOUS
 62
       7
100
AcDbCircle
 10
155.95472874
 20
-86.15902732
 30
0.0
 40
15.0
100
AcDbArc
 50
291.15063865
 51
309.93790618
  0
LINE
  5
52D
100
AcDbEntity
  8
16
  6
CONTINUOUS
 62
       7
100
AcDbLine
 10
158.82644407
 20
-98.80826647
 30
0.0
 11
159.07437447
 21
-99.73355532
 31
0.0
  0
LINE
  5
52E
100
AcDbEntity
  8
16
  6
CONTINUOUS
 62
       7
100
AcDbLine
 10
159.79236989
 20
-98.54944743
 30
0.0
 11
160.04030029
 21
-99.47473628
 31
0.0
  0
LINE
  5
52F
100
AcDbEntity
  8
16
  6
CONTINUOUS
 62
       7
100
AcDbLine
 10
167.57510537
 20
-98.48651073
 30
0.0
 11
168.30944038
 21
-99.22084574
 31
0.0
  0
LINE
  5
530
100
AcDbEntity
  8
16
  6
CONTINUOUS
 62
       7
100
AcDbLine
 10
168.28221215
 20
-97.77940394
 30
0.0
 11
169.01654716
 21
-98.51373896
 31
0.0
  0
ARC
  5
531
100
AcDbEntity
  8
16
  6
CONTINUOUS
 62
       7
100
AcDbCircle
 10
161.00622612
 20
-99.21591723
 30
0.0
 40
1.0
100
AcDbArc
 50
194.99999719
 51
291.15063865
  0
ARC
  5
532
100
AcDbEntity
  8
16
  6
CONTINUOUS
 62
       7
100
AcDbCircle
 10
166.86799859
 20
-99.19361751
 30
0.0
 40
1.0
100
AcDbArc
 50
45.00000077
 51
129.93790925
  0
ARC
  5
533
100
AcDbEntity
  8
16
  6
CONTINUOUS
 62
       7
100
AcDbCircle
 10
161.00622612
 20
-99.21591723
 30
0.0
 40
2.0
100
AcDbArc
 50
194.99999719
 51
291.15063865
  0
ARC
  5
534
100
AcDbEntity
  8
16
  6
CONTINUOUS
 62
       7
100
AcDbCircle
 10
166.86799859
 20
-99.19361751
 30
0.0
 40
2.0
100
AcDbArc
 50
45.00000077
 51
129.93790925
  0
ARC
  5
535
100
AcDbEntity
  8
16
  6
CONTINUOUS
 62
       7
100
AcDbCircle
 10
155.95472874
 20
-86.15902732
 30
0.0
 40
18.5
100
AcDbArc
 50
198.18473578
 51
311.81526064
  0
ARC
  5
536
100
AcDbEntity
  8
16
  6
CONTINUOUS
 62
       7
100
AcDbCircle
 10
158.34348115
 20
-98.93767599
 30
0.0
 40
0.5
100
AcDbArc
 50
15.00000026
 51
100.58827593
  0
ARC
  5
537
100
AcDbEntity
  8
16
  6
CONTINUOUS
 62
       7
100
AcDbCircle
 10
160.27533281
 20
-98.4200379
 30
0.0
 40
0.5
100
AcDbArc
 50
109.41172765
 51
194.99999719
  0
ARC
  5
538
100
AcDbEntity
  8
16
  6
CONTINUOUS
 62
       7
100
AcDbCircle
 10
167.95588699
 20
-99.57439913
 30
0.0
 40
0.5
100
AcDbArc
 50
311.81526064
 51
405.00000077
  0
ARC
  5
539
100
AcDbEntity
  8
16
  6
CONTINUOUS
 62
       7
100
AcDbCircle
 10
169.37010055
 20
-98.16018557
 30
0.0
 40
0.5
100
AcDbArc
 50
224.9999977
 51
318.18473782
  0
ARC
  5
53A
100
AcDbEntity
  8
16
  6
CONTINUOUS
 62
       7
100
AcDbCircle
 10
155.95472874
 20
-86.15902732
 30
0.0
 40
12.5
100
AcDbArc
 50
289.41172458
 51
400.58827491
  0
ARC
  5
53B
100
AcDbEntity
  8
16
  6
CONTINUOUS
 62
       7
100
AcDbCircle
 10
155.95472874
 20
-86.15902732
 30
0.0
 40
16.0
100
AcDbArc
 50
51.1506407
 51
69.93790823
  0
ARC
  5
53C
100
AcDbEntity
  8
16
  6
CONTINUOUS
 62
       7
100
AcDbCircle
 10
155.95472874
 20
-86.15902732
 30
0.0
 40
15.0
100
AcDbArc
 50
51.1506407
 51
69.93790823
  0
LINE
  5
53D
100
AcDbEntity
  8
16
  6
CONTINUOUS
 62
       7
100
AcDbLine
 10
165.47343352
 20
-77.34742932
 30
0.0
 11
166.15079198
 21
-76.67007087
 31
0.0
  0
LINE
  5
53E
100
AcDbEntity
  8
16
  6
CONTINUOUS
 62
       7
100
AcDbLine
 10
164.76632674
 20
-76.64032254
 30
0.0
 11
165.44368519
 21
-75.96296409
 31
0.0
  0
LINE
  5
53F
100
AcDbEntity
  8
16
  6
CONTINUOUS
 62
       7
100
AcDbLine
 10
160.82045422
 20
-69.93174426
 30
0.0
 11
161.08923949
 21
-68.92862398
 31
0.0
  0
LINE
  5
540
100
AcDbEntity
  8
16
  6
CONTINUOUS
 62
       7
100
AcDbLine
 10
159.8545284
 20
-69.67292521
 30
0.0
 11
160.12331367
 21
-68.66980493
 31
0.0
  0
ARC
  5
541
100
AcDbEntity
  8
16
  6
CONTINUOUS
 62
       7
100
AcDbCircle
 10
164.73657841
 20
-75.25585731
 30
0.0
 40
1.0
100
AcDbArc
 50
314.99999923
 51
411.1506407
  0
ARC
  5
542
100
AcDbEntity
  8
16
  6
CONTINUOUS
 62
       7
100
AcDbCircle
 10
161.78638005
 20
-70.1905633
 30
0.0
 40
1.0
100
AcDbArc
 50
165.00000281
 51
249.93790516
  0
ARC
  5
543
100
AcDbEntity
  8
16
  6
CONTINUOUS
 62
       7
100
AcDbCircle
 10
164.73657841
 20
-75.25585731
 30
0.0
 40
2.0
100
AcDbArc
 50
314.99999923
 51
411.1506407
  0
ARC
  5
544
100
AcDbEntity
  8
16
  6
CONTINUOUS
 62
       7
100
AcDbCircle
 10
161.78638005
 20
-70.1905633
 30
0.0
 40
2.0
100
AcDbArc
 50
165.00000281
 51
249.93790516
  0
ARC
  5
545
100
AcDbEntity
  8
16
  6
CONTINUOUS
 62
       7
100
AcDbCircle
 10
155.95472874
 20
-86.15902732
 30
0.0
 40
18.5
100
AcDbArc
 50
318.18473782
 51
431.81526269
  0
ARC
  5
546
100
AcDbEntity
  8
16
  6
CONTINUOUS
 62
       7
100
AcDbCircle
 10
165.82698691
 20
-77.70098271
 30
0.0
 40
0.5
100
AcDbArc
 50
135.0000023
 51
220.58827184
  0
ARC
  5
547
100
AcDbEntity
  8
16
  6
CONTINUOUS
 62
       7
100
AcDbCircle
 10
164.41277335
 20
-76.28676915
 30
0.0
 40
0.5
100
AcDbArc
 50
229.41172356
 51
314.99999923
  0
ARC
  5
548
100
AcDbEntity
  8
16
  6
CONTINUOUS
 62
       7
100
AcDbCircle
 10
161.57220241
 20
-69.0580335
 30
0.0
 40
0.5
100
AcDbArc
 50
71.81526269
 51
165.00000281
  0
ARC
  5
549
100
AcDbEntity
  8
16
  6
CONTINUOUS
 62
       7
100
AcDbCircle
 10
159.64035075
 20
-68.54039541
 30
0.0
 40
0.5
100
AcDbArc
 50
344.99999974
 51
438.18473987
  0
ARC
  5
54A
100
AcDbEntity
  8
16
  6
CONTINUOUS
 62
       7
100
AcDbCircle
 10
155.95472874
 20
-86.15902732
 30
0.0
 40
12.5
100
AcDbArc
 50
49.41172663
 51
160.58827695
  0
LINE
  5
54B
100
AcDbEntity
  8
16
  6
CONTINUOUS
 62
       7
100
AcDbLine
 10
247.28423107
 20
-61.55902732
 30
0.0
 11
249.51423107
 21
-61.55902732
 31
0.0
  0
LINE
  5
54C
100
AcDbEntity
  8
16
  6
CONTINUOUS
 62
       7
100
AcDbLine
 10
249.51423107
 20
-110.75902732
 30
0.0
 11
249.51423107
 21
-61.55902732
 31
0.0
  0
LINE
  5
54D
100
AcDbEntity
  8
16
  6
CONTINUOUS
 62
       7
100
AcDbLine
 10
247.28423107
 20
-110.75902732
 30
0.0
 11
249.51423107
 21
-110.75902732
 31
0.0
  0
LINE
  5
54E
100
AcDbEntity
  8
16
  6
CONTINUOUS
 62
       7
100
AcDbLine
 10
247.28423107
 20
-61.55902732
 30
0.0
 11
247.28423107
 21
-110.75902732
 31
0.0
  0
LINE
  5
54F
100
AcDbEntity
  8
16
  6
CONTINUOUS
 62
       7
100
AcDbLine
 10
219.07189167
 20
77.0
 30
0.0
 11
226.47189167
 21
77.0
 31
0.0
  0
LINE
  5
550
100
AcDbEntity
  8
16
  6
CONTINUOUS
 62
       7
100
AcDbLine
 10
219.07189167
 20
117.0
 30
0.0
 11
226.47189167
 21
117.0
 31
0.0
  0
CIRCLE
  5
551
100
AcDbEntity
  8
16
  6
CONTINUOUS
 62
       7
100
AcDbCircle
 10
155.95472874
 20
97.0
 30
0.0
 40
20.0
  0
LINE
  5
552
100
AcDbEntity
  8
16
  6
CENTER
 62
       7
100
AcDbLine
 10
239.78423107
 20
277.0
 30
0.0
 11
267.28423107
 21
277.0
 31
0.0
  0
LINE
  5
553
100
AcDbEntity
  8
16
  6
CENTER
 62
       7
100
AcDbLine
 10
262.78423107
 20
285.0
 30
0.0
 11
247.28423107
 21
285.0
 31
0.0
  0
LINE
  5
554
100
AcDbEntity
  8
16
  6
CENTER
 62
       7
100
AcDbLine
 10
262.78423107
 20
269.0
 30
0.0
 11
247.28423107
 21
269.0
 31
0.0
  0
LINE
  5
555
100
AcDbEntity
  8
16
  6
CENTER
 62
       7
100
AcDbLine
 10
130.45472874
 20
277.0
 30
0.0
 11
181.45472874
 21
277.0
 31
0.0
  0
LINE
  5
556
100
AcDbEntity
  8
16
  6
CENTER
 62
       7
100
AcDbLine
 10
155.95472874
 20
302.5
 30
0.0
 11
155.95472874
 21
251.5
 31
0.0
  0
LINE
  5
557
100
AcDbEntity
  8
16
  6
CENTER
 62
       7
100
AcDbLine
 10
163.01472874
 20
285.0
 30
0.0
 11
148.89472874
 21
285.0
 31
0.0
  0
LINE
  5
558
100
AcDbEntity
  8
16
  6
CENTER
 62
       7
100
AcDbLine
 10
163.01472874
 20
269.0
 30
0.0
 11
148.89472874
 21
269.0
 31
0.0
  0
LINE
  5
559
100
AcDbEntity
  8
16
  6
CENTER
 62
       7
100
AcDbLine
 10
233.97189167
 20
97.0
 30
0.0
 11
209.47189167
 21
97.0
 31
0.0
  0
LINE
  5
55A
100
AcDbEntity
  8
16
  6
CENTER
 62
       7
100
AcDbLine
 10
155.95472874
 20
125.5
 30
0.0
 11
155.95472874
 21
68.5
 31
0.0
  0
LINE
  5
55B
100
AcDbEntity
  8
16
  6
CENTER
 62
       7
100
AcDbLine
 10
184.45472874
 20
97.0
 30
0.0
 11
127.45472874
 21
97.0
 31
0.0
  0
LINE
  5
55C
100
AcDbEntity
  8
16
  6
CENTER
 62
       7
100
AcDbLine
 10
150.55472874
 20
-94.15902732
 30
0.0
 11
161.35472874
 21
-94.15902732
 31
0.0
  0
LINE
  5
55D
100
AcDbEntity
  8
16
  6
CENTER
 62
       7
100
AcDbLine
 10
150.55472874
 20
-78.15902732
 30
0.0
 11
161.35472874
 21
-78.15902732
 31
0.0
  0
LINE
  5
55E
100
AcDbEntity
  8
16
  6
CENTER
 62
       7
100
AcDbLine
 10
188.05472874
 20
-86.15902732
 30
0.0
 11
123.85472874
 21
-86.15902732
 31
0.0
  0
LINE
  5
55F
100
AcDbEntity
  8
16
  6
CENTER
 62
       7
100
AcDbLine
 10
155.95472874
 20
-54.05902732
 30
0.0
 11
155.95472874
 21
-118.25902732
 31
0.0
  0
LINE
  5
560
100
AcDbEntity
  8
16
  6
CENTER
 62
       7
100
AcDbLine
 10
239.78423107
 20
-86.15902732
 30
0.0
 11
257.01423107
 21
-86.15902732
 31
0.0
  0
LINE
  5
561
100
AcDbEntity
  8
16
  6
CENTER
 62
       7
100
AcDbLine
 10
244.28423107
 20
-78.15902732
 30
0.0
 11
252.51423107
 21
-78.15902732
 31
0.0
  0
LINE
  5
562
100
AcDbEntity
  8
16
  6
CENTER
 62
       7
100
AcDbLine
 10
244.28423107
 20
-94.15902732
 30
0.0
 11
252.51423107
 21
-94.15902732
 31
0.0
  0
LINE
  5
563
100
AcDbEntity
  8
17
  6
CONTINUOUS
 62
       7
100
AcDbLine
 10
154.32972874
 20
274.18541744
 30
0.0
 11
128.24191582
 21
229.0
 31
0.0
  0
LINE
  5
564
100
AcDbEntity
  8
17
  6
CONTINUOUS
 62
       7
100
AcDbLine
 10
154.32972874
 20
274.18541744
 30
0.0
 11
149.31124919
 21
268.61183125
 31
0.0
  0
LINE
  5
565
100
AcDbEntity
  8
17
  6
CONTINUOUS
 62
       7
100
AcDbLine
 10
154.32972874
 20
274.18541744
 30
0.0
 11
152.01210128
 21
267.05249357
 31
0.0
  0
LINE
  5
566
100
AcDbEntity
  8
17
  6
CONTINUOUS
 62
       7
100
AcDbLine
 10
157.19143154
 20
266.85796792
 30
0.0
 11
179.04873951
 21
229.0
 31
0.0
  0
LINE
  5
567
100
AcDbEntity
  8
17
  6
CONTINUOUS
 62
       7
100
AcDbLine
 10
157.19143154
 20
266.85796792
 30
0.0
 11
159.509059
 21
259.72504405
 31
0.0
  0
LINE
  5
568
100
AcDbEntity
  8
17
  6
CONTINUOUS
 62
       7
100
AcDbLine
 10
157.19143154
 20
266.85796792
 30
0.0
 11
162.20991109
 21
261.28438173
 31
0.0
  0
LINE
  5
569
100
AcDbEntity
  8
17
  6
CONTINUOUS
 62
       7
100
AcDbLine
 10
179.04873951
 20
229.0
 30
0.0
 11
242.64873951
 21
229.0
 31
0.0
  0
LINE
  5
56A
100
AcDbEntity
  8
17
  6
CONTINUOUS
 62
       7
100
AcDbLine
 10
152.32540877
 20
294.63031584
 30
0.0
 11
146.49515586
 21
322.95220558
 31
0.0
  0
LINE
  5
56B
100
AcDbEntity
  8
17
  6
CONTINUOUS
 62
       7
100
AcDbLine
 10
152.32540877
 20
294.63031584
 30
0.0
 11
152.37354966
 21
302.13016133
 31
0.0
  0
LINE
  5
56C
100
AcDbEntity
  8
17
  6
CONTINUOUS
 62
       7
100
AcDbLine
 10
152.32540877
 20
294.63031584
 30
0.0
 11
149.31892568
 21
301.50134629
 31
0.0
  0
LINE
  5
56D
100
AcDbEntity
  8
17
  6
CONTINUOUS
 62
       7
100
AcDbLine
 10
248.78423107
 20
295.0
 30
0.0
 11
214.28423107
 21
295.0
 31
0.0
  0
LINE
  5
56E
100
AcDbEntity
  8
17
  6
CONTINUOUS
 62
       7
100
AcDbLine
 10
248.78423107
 20
259.0
 30
0.0
 11
214.28423107
 21
259.0
 31
0.0
  0
LINE
  5
56F
100
AcDbEntity
  8
17
  6
CONTINUOUS
 62
       7
100
AcDbLine
 10
217.28423107
 20
295.0
 30
0.0
 11
217.28423107
 21
259.0
 31
0.0
  0
LINE
  5
570
100
AcDbEntity
  8
17
  6
CONTINUOUS
 62
       7
100
AcDbLine
 10
217.28423107
 20
295.0
 30
0.0
 11
215.72489339
 21
287.66389299
 31
0.0
  0
LINE
  5
571
100
AcDbEntity
  8
17
  6
CONTINUOUS
 62
       7
100
AcDbLine
 10
217.28423107
 20
295.0
 30
0.0
 11
218.84356875
 21
287.66389299
 31
0.0
  0
LINE
  5
572
100
AcDbEntity
  8
17
  6
CONTINUOUS
 62
       7
100
AcDbLine
 10
217.28423107
 20
259.0
 30
0.0
 11
218.84356875
 21
266.33610701
 31
0.0
  0
LINE
  5
573
100
AcDbEntity
  8
17
  6
CONTINUOUS
 62
       7
100
AcDbLine
 10
217.28423107
 20
259.0
 30
0.0
 11
215.72489339
 21
266.33610701
 31
0.0
  0
LINE
  5
574
100
AcDbEntity
  8
17
  6
CONTINUOUS
 62
       7
100
AcDbLine
 10
147.39472874
 20
285.0
 30
0.0
 11
104.95472874
 21
285.0
 31
0.0
  0
LINE
  5
575
100
AcDbEntity
  8
17
  6
CONTINUOUS
 62
       7
100
AcDbLine
 10
147.39472874
 20
269.0
 30
0.0
 11
104.95472874
 21
269.0
 31
0.0
  0
LINE
  5
576
100
AcDbEntity
  8
17
  6
CONTINUOUS
 62
       7
100
AcDbLine
 10
107.95472874
 20
285.0
 30
0.0
 11
107.95472874
 21
269.0
 31
0.0
  0
LINE
  5
577
100
AcDbEntity
  8
17
  6
CONTINUOUS
 62
       7
100
AcDbLine
 10
107.95472874
 20
300.0
 30
0.0
 11
107.95472874
 21
285.0
 31
0.0
  0
LINE
  5
578
100
AcDbEntity
  8
17
  6
CONTINUOUS
 62
       7
100
AcDbLine
 10
107.95472874
 20
285.0
 30
0.0
 11
109.51406642
 21
292.33610701
 31
0.0
  0
LINE
  5
579
100
AcDbEntity
  8
17
  6
CONTINUOUS
 62
       7
100
AcDbLine
 10
107.95472874
 20
285.0
 30
0.0
 11
106.39539106
 21
292.33610701
 31
0.0
  0
LINE
  5
57A
100
AcDbEntity
  8
17
  6
CONTINUOUS
 62
       7
100
AcDbLine
 10
107.95472874
 20
254.0
 30
0.0
 11
107.95472874
 21
269.0
 31
0.0
  0
LINE
  5
57B
100
AcDbEntity
  8
17
  6
CONTINUOUS
 62
       7
100
AcDbLine
 10
107.95472874
 20
269.0
 30
0.0
 11
106.39539106
 21
261.66389299
 31
0.0
  0
LINE
  5
57C
100
AcDbEntity
  8
17
  6
CONTINUOUS
 62
       7
100
AcDbLine
 10
107.95472874
 20
269.0
 30
0.0
 11
109.51406642
 21
261.66389299
 31
0.0
  0
LINE
  5
57D
100
AcDbEntity
  8
17
  6
CONTINUOUS
 62
       7
100
AcDbLine
 10
128.24191582
 20
229.0
 30
0.0
 11
83.84191582
 21
229.0
 31
0.0
  0
LINE
  5
57E
100
AcDbEntity
  8
17
  6
CONTINUOUS
 62
       7
100
AcDbLine
 10
259.78423107
 20
289.79619246
 30
0.0
 11
259.78423107
 21
328.0
 31
0.0
  0
LINE
  5
57F
100
AcDbEntity
  8
17
  6
CONTINUOUS
 62
       7
100
AcDbLine
 10
250.28423107
 20
296.5
 30
0.0
 11
250.28423107
 21
328.0
 31
0.0
  0
LINE
  5
580
100
AcDbEntity
  8
17
  6
CONTINUOUS
 62
       7
100
AcDbLine
 10
250.28423107
 20
325.0
 30
0.0
 11
259.78423107
 21
325.0
 31
0.0
  0
LINE
  5
581
100
AcDbEntity
  8
17
  6
CONTINUOUS
 62
       7
100
AcDbLine
 10
219.08423107
 20
325.0
 30
0.0
 11
250.28423107
 21
325.0
 31
0.0
  0
LINE
  5
582
100
AcDbEntity
  8
17
  6
CONTINUOUS
 62
       7
100
AcDbLine
 10
250.28423107
 20
325.0
 30
0.0
 11
242.94812406
 21
326.55933768
 31
0.0
  0
LINE
  5
583
100
AcDbEntity
  8
17
  6
CONTINUOUS
 62
       7
100
AcDbLine
 10
250.28423107
 20
325.0
 30
0.0
 11
242.94812406
 21
323.44066232
 31
0.0
  0
LINE
  5
584
100
AcDbEntity
  8
17
  6
CONTINUOUS
 62
       7
100
AcDbLine
 10
274.78423107
 20
325.0
 30
0.0
 11
259.78423107
 21
325.0
 31
0.0
  0
LINE
  5
585
100
AcDbEntity
  8
17
  6
CONTINUOUS
 62
       7
100
AcDbLine
 10
259.78423107
 20
325.0
 30
0.0
 11
267.12033807
 21
323.44066232
 31
0.0
  0
LINE
  5
586
100
AcDbEntity
  8
17
  6
CONTINUOUS
 62
       7
100
AcDbLine
 10
259.78423107
 20
325.0
 30
0.0
 11
267.12033807
 21
326.55933768
 31
0.0
  0
LINE
  5
587
100
AcDbEntity
  8
17
  6
CONTINUOUS
 62
       7
100
AcDbLine
 10
216.97189167
 20
118.5
 30
0.0
 11
216.97189167
 21
148.0
 31
0.0
  0
LINE
  5
588
100
AcDbEntity
  8
17
  6
CONTINUOUS
 62
       7
100
AcDbLine
 10
226.47189167
 20
119.5
 30
0.0
 11
226.47189167
 21
148.0
 31
0.0
  0
LINE
  5
589
100
AcDbEntity
  8
17
  6
CONTINUOUS
 62
       7
100
AcDbLine
 10
216.97189167
 20
145.0
 30
0.0
 11
226.47189167
 21
145.0
 31
0.0
  0
LINE
  5
58A
100
AcDbEntity
  8
17
  6
CONTINUOUS
 62
       7
100
AcDbLine
 10
176.36168192
 20
145.0
 30
0.0
 11
216.97189167
 21
145.0
 31
0.0
  0
LINE
  5
58B
100
AcDbEntity
  8
17
  6
CONTINUOUS
 62
       7
100
AcDbLine
 10
216.97189167
 20
145.0
 30
0.0
 11
209.63578466
 21
146.55933768
 31
0.0
  0
LINE
  5
58C
100
AcDbEntity
  8
17
  6
CONTINUOUS
 62
       7
100
AcDbLine
 10
216.97189167
 20
145.0
 30
0.0
 11
209.63578466
 21
143.44066232
 31
0.0
  0
LINE
  5
58D
100
AcDbEntity
  8
17
  6
CONTINUOUS
 62
       7
100
AcDbLine
 10
241.47189167
 20
145.0
 30
0.0
 11
226.47189167
 21
145.0
 31
0.0
  0
LINE
  5
58E
100
AcDbEntity
  8
17
  6
CONTINUOUS
 62
       7
100
AcDbLine
 10
226.47189167
 20
145.0
 30
0.0
 11
233.80799867
 21
143.44066232
 31
0.0
  0
LINE
  5
58F
100
AcDbEntity
  8
17
  6
CONTINUOUS
 62
       7
100
AcDbLine
 10
226.47189167
 20
145.0
 30
0.0
 11
233.80799867
 21
146.55933768
 31
0.0
  0
LINE
  5
590
100
AcDbEntity
  8
17
  6
CONTINUOUS
 62
       7
100
AcDbLine
 10
154.32972874
 20
-88.97360988
 30
0.0
 11
124.43140404
 21
-140.75902732
 31
0.0
  0
LINE
  5
591
100
AcDbEntity
  8
17
  6
CONTINUOUS
 62
       7
100
AcDbLine
 10
154.32972874
 20
-88.97360988
 30
0.0
 11
149.31124919
 21
-94.54719607
 31
0.0
  0
LINE
  5
592
100
AcDbEntity
  8
17
  6
CONTINUOUS
 62
       7
100
AcDbLine
 10
154.32972874
 20
-88.97360988
 30
0.0
 11
152.01210128
 21
-96.10653375
 31
0.0
  0
LINE
  5
593
100
AcDbEntity
  8
17
  6
CONTINUOUS
 62
       7
100
AcDbLine
 10
245.78423107
 20
-110.75902732
 30
0.0
 11
214.28423107
 21
-110.75902732
 31
0.0
  0
LINE
  5
594
100
AcDbEntity
  8
17
  6
CONTINUOUS
 62
       7
100
AcDbLine
 10
245.78423107
 20
-61.55902732
 30
0.0
 11
214.28423107
 21
-61.55902732
 31
0.0
  0
LINE
  5
595
100
AcDbEntity
  8
17
  6
CONTINUOUS
 62
       7
100
AcDbLine
 10
217.28423107
 20
-61.55902732
 30
0.0
 11
217.28423107
 21
-110.75902732
 31
0.0
  0
LINE
  5
596
100
AcDbEntity
  8
17
  6
CONTINUOUS
 62
       7
100
AcDbLine
 10
217.28423107
 20
-61.55902732
 30
0.0
 11
215.72489339
 21
-68.89513433
 31
0.0
  0
LINE
  5
597
100
AcDbEntity
  8
17
  6
CONTINUOUS
 62
       7
100
AcDbLine
 10
217.28423107
 20
-61.55902732
 30
0.0
 11
218.84356875
 21
-68.89513433
 31
0.0
  0
LINE
  5
598
100
AcDbEntity
  8
17
  6
CONTINUOUS
 62
       7
100
AcDbLine
 10
217.28423107
 20
-110.75902732
 30
0.0
 11
218.84356875
 21
-103.42292031
 31
0.0
  0
LINE
  5
599
100
AcDbEntity
  8
17
  6
CONTINUOUS
 62
       7
100
AcDbLine
 10
217.28423107
 20
-110.75902732
 30
0.0
 11
215.72489339
 21
-103.42292031
 31
0.0
  0
LINE
  5
59A
100
AcDbEntity
  8
17
  6
CONTINUOUS
 62
       7
100
AcDbLine
 10
124.43140404
 20
-140.75902732
 30
0.0
 11
80.03140404
 21
-140.75902732
 31
0.0
  0
LINE
  5
59B
100
AcDbEntity
  8
17
  6
CONTINUOUS
 62
       7
100
AcDbLine
 10
149.05472874
 20
-78.15902732
 30
0.0
 11
98.35472874
 21
-78.15902732
 31
0.0
  0
LINE
  5
59C
100
AcDbEntity
  8
17
  6
CONTINUOUS
 62
       7
100
AcDbLine
 10
149.05472874
 20
-94.15902732
 30
0.0
 11
98.35472874
 21
-94.15902732
 31
0.0
  0
LINE
  5
59D
100
AcDbEntity
  8
17
  6
CONTINUOUS
 62
       7
100
AcDbLine
 10
101.35472874
 20
-78.15902732
 30
0.0
 11
101.35472874
 21
-94.15902732
 31
0.0
  0
LINE
  5
59E
100
AcDbEntity
  8
17
  6
CONTINUOUS
 62
       7
100
AcDbLine
 10
101.35472874
 20
-63.15902732
 30
0.0
 11
101.35472874
 21
-78.15902732
 31
0.0
  0
LINE
  5
59F
100
AcDbEntity
  8
17
  6
CONTINUOUS
 62
       7
100
AcDbLine
 10
101.35472874
 20
-78.15902732
 30
0.0
 11
102.91406642
 21
-70.82292031
 31
0.0
  0
LINE
  5
5A0
100
AcDbEntity
  8
17
  6
CONTINUOUS
 62
       7
100
AcDbLine
 10
101.35472874
 20
-78.15902732
 30
0.0
 11
99.79539106
 21
-70.82292031
 31
0.0
  0
LINE
  5
5A1
100
AcDbEntity
  8
17
  6
CONTINUOUS
 62
       7
100
AcDbLine
 10
101.35472874
 20
-109.15902732
 30
0.0
 11
101.35472874
 21
-94.15902732
 31
0.0
  0
LINE
  5
5A2
100
AcDbEntity
  8
17
  6
CONTINUOUS
 62
       7
100
AcDbLine
 10
101.35472874
 20
-94.15902732
 30
0.0
 11
99.79539106
 21
-101.49513433
 31
0.0
  0
LINE
  5
5A3
100
AcDbEntity
  8
17
  6
CONTINUOUS
 62
       7
100
AcDbLine
 10
101.35472874
 20
-94.15902732
 30
0.0
 11
102.91406642
 21
-101.49513433
 31
0.0
  0
LINE
  5
5A4
100
AcDbEntity
  8
17
  6
CONTINUOUS
 62
       7
100
AcDbLine
 10
247.28423107
 20
-60.05902732
 30
0.0
 11
247.28423107
 21
-28.55902732
 31
0.0
  0
LINE
  5
5A5
100
AcDbEntity
  8
17
  6
CONTINUOUS
 62
       7
100
AcDbLine
 10
249.51423107
 20
-60.05902732
 30
0.0
 11
249.51423107
 21
-28.55902732
 31
0.0
  0
LINE
  5
5A6
100
AcDbEntity
  8
17
  6
CONTINUOUS
 62
       7
100
AcDbLine
 10
247.28423107
 20
-31.55902732
 30
0.0
 11
249.51423107
 21
-31.55902732
 31
0.0
  0
LINE
  5
5A7
100
AcDbEntity
  8
17
  6
CONTINUOUS
 62
       7
100
AcDbLine
 10
206.48423107
 20
-31.55902732
 30
0.0
 11
247.28423107
 21
-31.55902732
 31
0.0
  0
LINE
  5
5A8
100
AcDbEntity
  8
17
  6
CONTINUOUS
 62
       7
100
AcDbLine
 10
247.28423107
 20
-31.55902732
 30
0.0
 11
239.94812406
 21
-29.99968964
 31
0.0
  0
LINE
  5
5A9
100
AcDbEntity
  8
17
  6
CONTINUOUS
 62
       7
100
AcDbLine
 10
247.28423107
 20
-31.55902732
 30
0.0
 11
239.94812406
 21
-33.118365
 31
0.0
  0
LINE
  5
5AA
100
AcDbEntity
  8
17
  6
CONTINUOUS
 62
       7
100
AcDbLine
 10
264.51423107
 20
-31.55902732
 30
0.0
 11
249.51423107
 21
-31.55902732
 31
0.0
  0
LINE
  5
5AB
100
AcDbEntity
  8
17
  6
CONTINUOUS
 62
       7
100
AcDbLine
 10
249.51423107
 20
-31.55902732
 30
0.0
 11
256.85033807
 21
-33.118365
 31
0.0
  0
LINE
  5
5AC
100
AcDbEntity
  8
17
  6
CONTINUOUS
 62
       7
100
AcDbLine
 10
249.51423107
 20
-31.55902732
 30
0.0
 11
256.85033807
 21
-29.99968964
 31
0.0
  0
LINE
  5
5AD
100
AcDbEntity
  8
17
  6
CONTINUOUS
 62
       7
100
AcDbLine
 10
145.45472874
 20
78.81346652
 30
0.0
 11
128.24191582
 21
49.0
 31
0.0
  0
LINE
  5
5AE
100
AcDbEntity
  8
17
  6
CONTINUOUS
 62
       7
100
AcDbLine
 10
145.45472874
 20
78.81346652
 30
0.0
 11
140.43624919
 21
73.23988033
 31
0.0
  0
LINE
  5
5AF
100
AcDbEntity
  8
17
  6
CONTINUOUS
 62
       7
100
AcDbLine
 10
145.45472874
 20
78.81346652
 30
0.0
 11
143.13710128
 21
71.68054265
 31
0.0
  0
LINE
  5
5B0
100
AcDbEntity
  8
17
  6
CONTINUOUS
 62
       7
100
AcDbLine
 10
128.24191582
 20
49.0
 30
0.0
 11
74.24191582
 21
49.0
 31
0.0
  0
LINE
  5
5B1
100
AcDbEntity
  8
17
  6
CONTINUOUS
 62
       7
100
AcDbLine
 10
151.72052211
 20
117.56870181
 30
0.0
 11
146.49515586
 21
142.95220558
 31
0.0
  0
LINE
  5
5B2
100
AcDbEntity
  8
17
  6
CONTINUOUS
 62
       7
100
AcDbLine
 10
151.72052211
 20
117.56870181
 30
0.0
 11
151.768663
 21
125.06854731
 31
0.0
  0
LINE
  5
5B3
100
AcDbEntity
  8
17
  6
CONTINUOUS
 62
       7
100
AcDbLine
 10
151.72052211
 20
117.56870181
 30
0.0
 11
148.71403902
 21
124.43973226
 31
0.0
  0
LINE
  5
5B4
100
AcDbEntity
  8
17
  6
CONTINUOUS
 62
       7
100
AcDbLine
 10
151.23785257
 20
-62.01547582
 30
0.0
 11
146.36506633
 21
-37.0738913
 31
0.0
  0
LINE
  5
5B5
100
AcDbEntity
  8
17
  6
CONTINUOUS
 62
       7
100
AcDbLine
 10
151.23785257
 20
-62.01547582
 30
0.0
 11
151.36161035
 21
-54.51649695
 31
0.0
  0
LINE
  5
5B6
100
AcDbEntity
  8
17
  6
CONTINUOUS
 62
       7
100
AcDbLine
 10
151.23785257
 20
-62.01547582
 30
0.0
 11
148.30080144
 21
-55.11448092
 31
0.0
  0
LINE
  5
5B7
100
AcDbEntity
  8
17
  6
CONTINUOUS
 62
       7
100
AcDbLine
 10
182.85925129
 20
-140.75902732
 30
0.0
 11
246.45925129
 21
-140.75902732
 31
0.0
  0
LINE
  5
5B8
100
AcDbEntity
  8
17
  6
CONTINUOUS
 62
       7
100
AcDbLine
 10
157.19143154
 20
-96.3010594
 30
0.0
 11
182.85925129
 21
-140.75902732
 31
0.0
  0
LINE
  5
5B9
100
AcDbEntity
  8
17
  6
CONTINUOUS
 62
       7
100
AcDbLine
 10
157.19143154
 20
-96.3010594
 30
0.0
 11
159.509059
 21
-103.43398327
 31
0.0
  0
LINE
  5
5BA
100
AcDbEntity
  8
17
  6
CONTINUOUS
 62
       7
100
AcDbLine
 10
157.19143154
 20
-96.3010594
 30
0.0
 11
162.20991109
 21
-101.87464559
 31
0.0
  0
TEXT
  5
5BB
100
AcDbEntity
  8
17
 62
       7
100
AcDbText
 10
86.84191582
 20
232.0
 30
0.0
 40
12.0
  1
φ6.5
 41
0.8
 72
       5
 11
125.24191582
 21
232.0
 31
0.0
100
AcDbText
  0
TEXT
  5
5BC
100
AcDbEntity
  8
17
 62
       7
100
AcDbText
 10
182.04873951
 20
232.0
 30
0.0
 40
12.0
  1
2-φ4.5
 41
0.8
 72
       5
 11
239.64873951
 21
232.0
 31
0.0
100
AcDbText
  0
TEXT
  5
5BD
100
AcDbEntity
  8
17
 62
       7
100
AcDbText
 10
182.04873951
 20
214.0
 30
0.0
 40
12.0
  1
φ７．２
 41
0.8
 72
       5
 11
220.44873951
 21
214.0
 31
0.0
100
AcDbText
  0
TEXT
  5
5BE
100
AcDbEntity
  8
17
 62
       7
100
AcDbText
 10
83.03140404
 20
-137.75902732
 30
0.0
 40
12.0
  1
φ6.5
 41
0.8
 72
       5
 11
121.43140404
 21
-137.75902732
 31
0.0
100
AcDbText
  0
TEXT
  5
5BF
100
AcDbEntity
  8
17
 62
       7
100
AcDbText
 10
77.24191582
 20
52.0
 30
0.0
 40
12.0
  1
M42X2
 41
0.8
 72
       5
 11
125.24191582
 21
52.0
 31
0.0
100
AcDbText
  0
TEXT
  5
5C0
100
AcDbEntity
  8
17
 62
       7
100
AcDbText
 10
185.85925129
 20
-137.75902732
 30
0.0
 40
12.0
  1
2-φ4.8
 41
0.8
 72
       5
 11
243.45925129
 21
-137.75902732
 31
0.0
100
AcDbText
  0
TEXT
  5
5C1
100
AcDbEntity
  8
17
 62
       7
100
AcDbText
 10
214.28423107
 20
262.6
 30
0.0
 40
12.0
  1
φ36
 50
90.00000154
 41
0.8
 72
       5
 11
214.2842303
 21
291.4
 31
0.0
100
AcDbText
  0
TEXT
  5
5C2
100
AcDbEntity
  8
17
 62
       7
100
AcDbText
 10
104.95472874
 20
267.4
 30
0.0
 40
12.0
  1
16
 50
90.00000154
 41
0.8
 72
       5
 11
104.95472823
 21
286.6
 31
0.0
100
AcDbText
  0
TEXT
  5
5C3
100
AcDbEntity
  8
17
 62
       7
100
AcDbText
 10
222.08423107
 20
328.0
 30
0.0
 40
12.0
  1
10
 41
0.8
 72
       5
 11
241.28423107
 21
328.0
 31
0.0
100
AcDbText
  0
TEXT
  5
5C4
100
AcDbEntity
  8
17
 62
       7
100
AcDbText
 10
179.36168192
 20
148.0
 30
0.0
 40
12.0
  1
9.5
 41
0.8
 72
       5
 11
208.16168192
 21
148.0
 31
0.0
100
AcDbText
  0
TEXT
  5
5C5
100
AcDbEntity
  8
17
 62
       7
100
AcDbText
 10
214.28423107
 20
-110.15902732
 30
0.0
 40
12.0
  1
φ49.2
 50
90.00000154
 41
0.8
 72
       5
 11
214.28422978
 21
-62.15902732
 31
0.0
100
AcDbText
  0
TEXT
  5
5C6
100
AcDbEntity
  8
17
 62
       7
100
AcDbText
 10
98.35472874
 20
-95.75902732
 30
0.0
 40
12.0
  1
16
 50
90.00000154
 41
0.8
 72
       5
 11
98.35472823
 21
-76.55902732
 31
0.0
100
AcDbText
  0
TEXT
  5
5C7
100
AcDbEntity
  8
17
 62
       7
100
AcDbText
 10
209.48423107
 20
-28.55902732
 30
0.0
 40
12.0
  1
2.2
 41
0.8
 72
       5
 11
238.28423107
 21
-28.55902732
 31
0.0
100
AcDbText
  0
INSERT
  5
5C8
100
AcDbEntity
  8
0
  6
CONTINUOUS
100
AcDbBlockReference
  2
GROUP_1
 10
0.0
 20
0.0
 30
0.0
  0
INSERT
  5
5C9
100
AcDbEntity
  8
0
  6
CONTINUOUS
100
AcDbBlockReference
  2
GROUP_2
 10
0.0
 20
0.0
 30
0.0
  0
INSERT
  5
5CA
100
AcDbEntity
  8
0
  6
CONTINUOUS
100
AcDbBlockReference
  2
GROUP_3
 10
0.0
 20
0.0
 30
0.0
  0
INSERT
  5
5CB
100
AcDbEntity
  8
0
  6
CONTINUOUS
100
AcDbBlockReference
  2
GROUP_4
 10
0.0
 20
0.0
 30
0.0
  0
INSERT
  5
5CC
100
AcDbEntity
  8
0
  6
CONTINUOUS
100
AcDbBlockReference
  2
GROUP_5
 10
0.0
 20
0.0
 30
0.0
  0
INSERT
  5
5CD
100
AcDbEntity
  8
0
  6
CONTINUOUS
100
AcDbBlockReference
  2
GROUP_6
 10
0.0
 20
0.0
 30
0.0
  0
INSERT
  5
5CE
100
AcDbEntity
  8
0
  6
CONTINUOUS
100
AcDbBlockReference
  2
GROUP_7
 10
0.0
 20
0.0
 30
0.0
  0
INSERT
  5
5CF
100
AcDbEntity
  8
0
  6
CONTINUOUS
100
AcDbBlockReference
  2
GROUP_8
 10
0.0
 20
0.0
 30
0.0
  0
INSERT
  5
5D0
100
AcDbEntity
  8
0
  6
CONTINUOUS
100
AcDbBlockReference
  2
GROUP_9
 10
0.0
 20
0.0
 30
0.0
  0
INSERT
  5
5D1
100
AcDbEntity
  8
0
  6
CONTINUOUS
100
AcDbBlockReference
  2
GROUP_10
 10
0.0
 20
0.0
 30
0.0
  0
INSERT
  5
5D2
100
AcDbEntity
  8
0
  6
CONTINUOUS
100
AcDbBlockReference
  2
GROUP_11
 10
0.0
 20
0.0
 30
0.0
  0
INSERT
  5
5D3
100
AcDbEntity
  8
0
  6
CONTINUOUS
100
AcDbBlockReference
  2
GROUP_12
 10
0.0
 20
0.0
 30
0.0
  0
INSERT
  5
5D4
100
AcDbEntity
  8
0
  6
CONTINUOUS
100
AcDbBlockReference
  2
GROUP_13
 10
0.0
 20
0.0
 30
0.0
  0
INSERT
  5
5D5
100
AcDbEntity
  8
0
  6
CONTINUOUS
100
AcDbBlockReference
  2
GROUP_14
 10
0.0
 20
0.0
 30
0.0
  0
INSERT
  5
5D6
100
AcDbEntity
  8
0
  6
CONTINUOUS
100
AcDbBlockReference
  2
GROUP_15
 10
0.0
 20
0.0
 30
0.0
  0
INSERT
  5
5D7
100
AcDbEntity
  8
0
  6
CONTINUOUS
100
AcDbBlockReference
  2
GROUP_16
 10
0.0
 20
0.0
 30
0.0
  0
INSERT
  5
5D8
100
AcDbEntity
  8
0
  6
CONTINUOUS
100
AcDbBlockReference
  2
GROUP_17
 10
0.0
 20
0.0
 30
0.0
  0
INSERT
  5
5D9
100
AcDbEntity
  8
0
  6
CONTINUOUS
100
AcDbBlockReference
  2
GROUP_18
 10
0.0
 20
0.0
 30
0.0
  0
TEXT
  5
5DA
100
AcDbEntity
  8
0
 62
       7
100
AcDbText
 10
-261.09240282
 20
-415.67412988
 30
0.0
 40
10.2
  1
株式会社
 41
0.8
 72
       5
 11
-228.45240282
 21
-415.67412988
 31
0.0
100
AcDbText
  0
TEXT
  5
5DB
100
AcDbEntity
  8
0
 62
       7
100
AcDbText
 10
-129.7278239
 20
-398.7477071
 30
0.0
 40
9.0
  1
品
 41
0.8
 72
       5
 11
-122.5278239
 21
-398.7477071
 31
0.0
100
AcDbText
  0
TEXT
  5
5DC
100
AcDbEntity
  8
0
 62
       7
100
AcDbText
 10
-129.7278239
 20
-416.7477071
 30
0.0
 40
9.0
  1
名
 41
0.8
 72
       5
 11
-122.5278239
 21
-416.7477071
 31
0.0
100
AcDbText
  0
TEXT
  5
5DD
100
AcDbEntity
  8
0
 62
       7
100
AcDbText
 10
72.77889123
 20
-398.80049651
 30
0.0
 40
9.0
  1
品
 41
0.8
 72
       5
 11
79.97889123
 21
-398.80049651
 31
0.0
100
AcDbText
  0
TEXT
  5
5DE
100
AcDbEntity
  8
0
 62
       7
100
AcDbText
 10
72.77889123
 20
-416.80049651
 30
0.0
 40
9.0
  1
番
 41
0.8
 72
       5
 11
79.97889123
 21
-416.80049651
 31
0.0
100
AcDbText
  0
TEXT
  5
5DF
100
AcDbEntity
  8
0
 62
       7
100
AcDbText
 10
-276.99107884
 20
-365.49173009
 30
0.0
 40
12.0
  1
1
 41
0.8
 72
       5
 11
-267.39107884
 21
-365.49173009
 31
0.0
100
AcDbText
  0
TEXT
  5
5E0
100
AcDbEntity
  8
0
 62
       7
100
AcDbText
 10
-276.99107884
 20
-350.49173009
 30
0.0
 40
12.0
  1
2
 41
0.8
 72
       5
 11
-267.39107884
 21
-350.49173009
 31
0.0
100
AcDbText
  0
TEXT
  5
5E1
100
AcDbEntity
  8
0
 62
       7
100
AcDbText
 10
-276.99107884
 20
-335.49173009
 30
0.0
 40
12.0
  1
3
 41
0.8
 72
       5
 11
-267.39107884
 21
-335.49173009
 31
0.0
100
AcDbText
  0
TEXT
  5
5E2
100
AcDbEntity
  8
0
 62
       7
100
AcDbText
 10
-276.99107884
 20
-320.49173009
 30
0.0
 40
12.0
  1
4
 41
0.8
 72
       5
 11
-267.39107884
 21
-320.49173009
 31
0.0
100
AcDbText
  0
TEXT
  5
5E3
100
AcDbEntity
  8
0
 62
       7
100
AcDbText
 10
-276.99107884
 20
-305.49173009
 30
0.0
 40
12.0
  1
5
 41
0.8
 72
       5
 11
-267.39107884
 21
-305.49173009
 31
0.0
100
AcDbText
  0
TEXT
  5
5E4
100
AcDbEntity
  8
0
 62
       7
100
AcDbText
 10
-276.99107884
 20
-290.49173009
 30
0.0
 40
12.0
  1
6
 41
0.8
 72
       5
 11
-267.39107884
 21
-290.49173009
 31
0.0
100
AcDbText
  0
TEXT
  5
5E5
100
AcDbEntity
  8
0
 62
       7
100
AcDbText
 10
-276.99107884
 20
-275.49173009
 30
0.0
 40
12.0
  1
7
 41
0.8
 72
       5
 11
-267.39107884
 21
-275.49173009
 31
0.0
100
AcDbText
  0
TEXT
  5
5E6
100
AcDbEntity
  8
0
 62
       7
100
AcDbText
 10
146.67746375
 20
-380.43252915
 30
0.0
 40
12.0
  1
摘要・仕上
 41
0.8
 72
       5
 11
194.67746375
 21
-380.43252915
 31
0.0
100
AcDbText
  0
TEXT
  5
5E7
100
AcDbEntity
  8
0
 62
       7
100
AcDbText
 10
39.77054403
 20
-380.43252915
 30
0.0
 40
12.0
  1
個　数
 41
0.8
 72
       5
 11
68.57054403
 21
-380.43252915
 31
0.0
100
AcDbText
  0
TEXT
  5
5E8
100
AcDbEntity
  8
0
 62
       7
100
AcDbText
 10
-61.01718387
 20
-380.43252915
 30
0.0
 40
12.0
  1
材　　質
 41
0.8
 72
       5
 11
-22.61718387
 21
-380.43252915
 31
0.0
100
AcDbText
  0
TEXT
  5
5E9
100
AcDbEntity
  8
0
 62
       7
100
AcDbText
 10
-215.56944315
 20
-380.43252915
 30
0.0
 40
12.0
  1
部　品　名
 41
0.8
 72
       5
 11
-167.56944315
 21
-380.43252915
 31
0.0
100
AcDbText
  0
TEXT
  5
5EA
100
AcDbEntity
  8
0
 62
       7
100
AcDbText
 10
-281.69578299
 20
-380.43252915
 30
0.0
 40
12.0
  1
部番
 41
0.8
 72
       5
 11
-262.49578299
 21
-380.43252915
 31
0.0
100
AcDbText
  0
TEXT
  5
5EB
100
AcDbEntity
  8
0
 62
       7
100
AcDbText
 10
290.4704382
 20
221.81751814
 30
0.0
 40
12.0
  1
ニギリバー
 50
-90.00000154
 41
0.8
 72
       5
 11
290.47043692
 21
173.81751814
 31
0.0
100
AcDbText
  0
TEXT
  5
5EC
100
AcDbEntity
  8
0
 62
       7
100
AcDbText
 10
-276.99107884
 20
-260.49173009
 30
0.0
 40
12.0
  1
8
 41
0.8
 72
       5
 11
-267.39107884
 21
-260.49173009
 31
0.0
100
AcDbText
  0
TEXT
  5
5ED
100
AcDbEntity
  8
0
 62
       7
100
AcDbText
 10
214.31708551
 20
-439.8794885
 30
0.0
 40
12.0
  1
０１１１０１
 41
0.8
 72
       5
 11
271.91708551
 21
-439.8794885
 31
0.0
100
AcDbText
  0
ENDSEC
  0
SECTION
  2
OBJECTS
  0
DICTIONARY
  5
19
100
AcDbDictionary
  3
ACAD_GROUP
350
1A
  3
ACAD_MLINESTYLE
350
1B
  0
DICTIONARY
  5
1A
102
{ACAD_REACTORS
330
19
102
}
100
AcDbDictionary
  0
DICTIONARY
  5
1B
102
{ACAD_REACTORS
330
19
102
}
100
AcDbDictionary
  3
STANDARD
350
1C
  0
MLINESTYLE
  5
1C
102
{ACAD_REACTORS
330
1B
102
}
100
AcDbMlineStyle
  2
STANDARD
 70
       0
  3

 62
       0
 51
90.0
 52
90.0
 71
       2
 49
0.5
 62
     256
  6
BYLAYER
 49
-0.5
 62
     256
  6
BYLAYER
  0
ENDSEC
  0
EOF
