  0
SECTION
  2
HEADER
  9
$ACADVER
  1
AC1014
  9
$ACADMAINTVER
 70
       0
  9
$DWGCODEPAGE
  3
ANSI_932
  9
$INSBASE
 10
0.0
 20
0.0
 30
0.0
  9
$EXTMIN
 10
-343.2
 20
-478.92
 30
0.0
  9
$EXTMAX
 10
343.2
 20
478.92
 30
0.0
  9
$LIMMIN
 10
-364.65
 20
-508.8525
  9
$LIMMAX
 10
364.65
 20
508.8525
  9
$ORTHOMODE
 70
       0
  9
$REGENMODE
 70
       1
  9
$FILLMODE
 70
       1
  9
$QTEXTMODE
 70
       0
  9
$MIRRTEXT
 70
       1
  9
$DRAGMODE
 70
       2
  9
$LTSCALE
 40
1.0
  9
$OSMODE
 70
       0
  9
$ATTMODE
 70
       1
  9
$TEXTSIZE
 40
0.2
  9
$TRACEWID
 40
0.05
  9
$TEXTSTYLE
  7
STANDARD
  9
$CLAYER
  8
0
  9
$CELTYPE
  6
CONTINUOUS
  9
$CECOLOR
 62
     256
  9
$CELTSCALE
 40
1.0
  9
$DELOBJ
 70
       1
  9
$DISPSILH
 70
       0
  9
$DIMSCALE
 40
1.0
  9
$DIMASZ
 40
0.18
  9
$DIMEXO
 40
0.0625
  9
$DIMDLI
 40
0.38
  9
$DIMRND
 40
0.0
  9
$DIMDLE
 40
0.0
  9
$DIMEXE
 40
0.18
  9
$DIMTP
 40
0.0
  9
$DIMTM
 40
0.0
  9
$DIMTXT
 40
0.18
  9
$DIMCEN
 40
0.09
  9
$DIMTSZ
 40
0.0
  9
$DIMTOL
 70
       0
  9
$DIMLIM
 70
       0
  9
$DIMTIH
 70
       1
  9
$DIMTOH
 70
       1
  9
$DIMSE1
 70
       0
  9
$DIMSE2
 70
       0
  9
$DIMTAD
 70
       0
  9
$DIMZIN
 70
       0
  9
$DIMBLK
  1

  9
$DIMASO
 70
       1
  9
$DIMSHO
 70
       1
  9
$DIMPOST
  1

  9
$DIMAPOST
  1

  9
$DIMALT
 70
       0
  9
$DIMALTD
 70
       2
  9
$DIMALTF
 40
25.4
  9
$DIMLFAC
 40
1.0
  9
$DIMTOFL
 70
       0
  9
$DIMTVP
 40
0.0
  9
$DIMTIX
 70
       0
  9
$DIMSOXD
 70
       0
  9
$DIMSAH
 70
       0
  9
$DIMBLK1
  1

  9
$DIMBLK2
  1

  9
$DIMSTYLE
  2
STANDARD
  9
$DIMCLRD
 70
       0
  9
$DIMCLRE
 70
       0
  9
$DIMCLRT
 70
       0
  9
$DIMTFAC
 40
1.0
  9
$DIMGAP
 40
0.09
  9
$DIMJUST
 70
       0
  9
$DIMSD1
 70
       0
  9
$DIMSD2
 70
       0
  9
$DIMTOLJ
 70
       1
  9
$DIMTZIN
 70
       0
  9
$DIMALTZ
 70
       0
  9
$DIMALTTZ
 70
       0
  9
$DIMFIT
 70
       3
  9
$DIMUPT
 70
       0
  9
$DIMUNIT
 70
       2
  9
$DIMDEC
 70
       4
  9
$DIMTDEC
 70
       4
  9
$DIMALTU
 70
       2
  9
$DIMALTTD
 70
       2
  9
$DIMTXSTY
  7
STANDARD
  9
$DIMAUNIT
 70
       0
  9
$LUNITS
 70
       2
  9
$LUPREC
 70
       4
  9
$SKETCHINC
 40
0.1
  9
$FILLETRAD
 40
0.0
  9
$AUNITS
 70
       0
  9
$AUPREC
 70
       0
  9
$MENU
  1
acad
  9
$ELEVATION
 40
0.0
  9
$PELEVATION
 40
0.0
  9
$THICKNESS
 40
0.0
  9
$LIMCHECK
 70
       0
  9
$BLIPMODE
 70
       1
  9
$CHAMFERA
 40
0.0
  9
$CHAMFERB
 40
0.0
  9
$CHAMFERC
 40
0.0
  9
$CHAMFERD
 40
0.0
  9
$SKPOLY
 70
       0
  9
$TDCREATE
 40
0.000000000
  9
$TDUPDATE
 40
0.000000000
  9
$TDINDWG
 40
0.0000000000
  9
$TDUSRTIMER
 40
0.0000000000
  9
$USRTIMER
 70
       1
  9
$ANGBASE
 50
0.0
  9
$ANGDIR
 70
       0
  9
$PDMODE
 70
       0
  9
$PDSIZE
 40
1.0
  9
$PLINEWID
 40
0.0
  9
$COORDS
 70
       1
  9
$SPLFRAME
 70
       0
  9
$SPLINETYPE
 70
       6
  9
$SPLINESEGS
 70
       8
  9
$ATTDIA
 70
       0
  9
$ATTREQ
 70
       1
  9
$HANDLING
 70
       1
  9
$HANDSEED
  5
63D
  9
$SURFTAB1
 70
       6
  9
$SURFTAB2
 70
       6
  9
$SURFTYPE
 70
       6
  9
$SURFU
 70
       6
  9
$SURFV
 70
       6
  9
$UCSNAME
  2

  9
$UCSORG
 10
0.0
 20
0.0
 30
0.0
  9
$UCSXDIR
 10
1.0
 20
0.0
 30
0.0
  9
$UCSYDIR
 10
0.0
 20
1.0
 30
0.0
  9
$PUCSNAME
  2

  9
$PUCSORG
 10
0.0
 20
0.0
 30
0.0
  9
$PUCSXDIR
 10
1.0
 20
0.0
 30
0.0
  9
$PUCSYDIR
 10
0.0
 20
1.0
 30
0.0
  9
$USERI1
 70
       0
  9
$USERI2
 70
       0
  9
$USERI3
 70
       0
  9
$USERI4
 70
       0
  9
$USERI5
 70
       0
  9
$USERR1
 40
0.0
  9
$USERR2
 40
0.0
  9
$USERR3
 40
0.0
  9
$USERR4
 40
0.0
  9
$USERR5
 40
0.0
  9
$WORLDVIEW
 70
       1
  9
$SHADEDGE
 70
       3
  9
$SHADEDIF
 70
      70
  9
$TILEMODE
 70
       1
  9
$MAXACTVP
 70
      16
  9
$PINSBASE
 10
0.0
 20
0.0
 30
0.0
  9
$PLIMCHECK
 70
       0
  9
$PEXTMIN
 10
1.00000000E+20
 20
1.00000000E+20
 30
1.00000000E+20
  9
$PEXTMAX
 10
-1.00000000E+20
 20
-1.00000000E+20
 30
-1.00000000E+20
  9
$PLIMMIN
 10
0.0
 20
0.0
  9
$PLIMMAX
 10
12.0
 20
9.0
  9
$UNITMODE
 70
       0
  9
$VISRETAIN
 70
       0
  9
$PLINEGEN
 70
       1
  9
$PSLTSCALE
 70
       0
  9
$TREEDEPTH
 70
    3020
  9
$PICKSTYLE
 70
       1
  9
$CMLSTYLE
  2
STANDARD
  9
$CMLJUST
 70
       0
  9
$CMLSCALE
 40
1.0
  9
$PROXYGRAPHICS
 70
       0
  9
$MEASUREMENT
 70
       0
  0
ENDSEC
  0
SECTION
  2
CLASSES
  0
CLASS
  1
LWPOLYLINE
  2
AcDbPolyline
  3
"AutoCAD"
 90
        0
280
       0
281
       1
  0
CLASS
  1
IMAGE
  2
AcDbRasterImage
  3
ISM
 90
      127
280
       0
281
       1
  0
CLASS
  1
OLE2FRAME
  2
AcDbOle2Frame
  3
""
 90
        0
280
       0
281
       1
  0
CLASS
  1
HATCH
  2
AcDbHatch
  3
"ACAD_SEDONA"
 90
        0
280
       0
281
       1
  0
CLASS
  1
DICTIONARYVAR
  2
AcDbDictionaryVar
  3
"AutoCAD"
 90
        0
280
       0
281
       0
  0
CLASS
  1
RASTERVARIABLES
  2
AcDbRasterVariables
  3
ISM
 90
        0
280
       0
281
       0
  0
CLASS
  1
IMAGEDEF
  2
AcDbRasterImageDef
  3
ISM
 90
        0
280
       0
281
       0
  0
CLASS
  1
IMAGEDEF_REACTOR
  2
AcDbRasterImageDefReactor
  3
ISM
 90
        1
280
       0
281
       0
  0
CLASS
  1
IDBUFFER
  2
AcDbIdBuffer
  3
"Acad"
 90
        0
280
       0
281
       0
  0
CLASS
  1
SPATIAL_FILTER
  2
AcDbSpatialFilter
  3
"Acad"
 90
        0
280
       0
281
       0
  0
CLASS
  1
XRECORD
  2
AcDbXrecord
  3
"<Built In>"
 90
        0
280
       0
281
       0
  0
CLASS
  1
SORTENTSTABLE
  2
AcDbSortentsTable
  3
"AutoCAD"
 90
        0
280
       0
281
       0
  0
CLASS
  1
LAYER_INDEX
  2
AcDbLayerIndex
  3
"Acad"
 90
        0
280
       0
281
       0
  0
CLASS
  1
SPATIAL_INDEX
  2
AcDbSpatialIndex
  3
"Acad"
 90
        0
280
       0
281
       0
  0
CLASS
  1
OBJECT_PTR
  2
CAseDLPNTableRecord
  3
"ASE-LPNTableRecord"
 90
        1
280
       0
281
       0
  0
CLASS
  1
LAYOUT
  2
AcDbLayout
  3
"AutoCAD 2000"
 90
        1
280
       0
281
       0
  0
CLASS
  1
PLOTSETTINGS
  2
AcDbPlotSettings
  3
"AutoCAD 2000"
 90
        1
280
       0
281
       0
  0
CLASS
  1
ACDBDICTIONARYWDFLT
  2
AcDbDictionaryWithDefault
  3
"AutoCAD 2000"
 90
        1
280
       0
281
       0
  0
CLASS
  1
ACDBPLACEHOLDER
  2
AcDbPlaceHolder
  3
"AutoCAD 2000"
 90
        1
280
       0
281
       0
  0
CLASS
  1
VBA_PROJECT
  2
AcDbVbaProject
  3
"acadvba"
 90
        1
280
       0
281
       0
  0
CLASS
  1
WIPEOUT
  2
AcDbWipeout
  3
WipeOut|AutoCAD Express Tool|expresstools@autodesk.com
 90
      127
280
       0
281
       1
  0
CLASS
  1
WIPEOUTVARIABLES
  2
AcDbWipeoutVariables
  3
WipeOut|AutoCAD Express Tool|expresstools@autodesk.com
 90
        0
280
       0
281
       0
  0
CLASS
  1
RTEXT
  2
RText
  3
RText|AutoCAD Express Tool|expresstools@autodesk.com
 90
        0
280
       0
281
       1
  0
CLASS
  1
ARCALIGNEDTEXT
  2
AcDbArcAlignedText
  3
ATEXT|AutoCAD Express Tool|expresstools@autodesk.com
 90
        0
280
       0
281
       1
  0
ENDSEC
  0
SECTION
  2
TABLES
  0
TABLE
  2
VPORT
  5
7
100
AcDbSymbolTable
 70
       1
  0
VPORT
  5
15
100
AcDbSymbolTableRecord
100
AcDbViewportTableRecord
  2
*ACTIVE
 70
       0
 10
0.0
 20
0.0
 11
1.0
 21
1.0
 12
0.0
 22
0.0
 13
0.0
 23
0.0
 14
1.0
 24
1.0
 15
0.0
 25
0.0
 16
0.0
 26
0.0
 36
1.0
 17
0.0
 27
0.0
 37
0.0
 40
1017.705
 41
0.71661238
 42
50.0
 43
0.0
 44
0.0
 50
0.0
 51
0.0
 71
       0
 72
     100
 73
       1
 74
       1
 75
       0
 76
       0
 77
       0
 78
       0
  0
ENDTAB
  0
TABLE
  2
LTYPE
  5
4
100
AcDbSymbolTable
 70
      30
  0
LTYPE
  5
11
100
AcDbSymbolTableRecord
100
AcDbLinetypeTableRecord
  2
BYBLOCK
 70
      64
  3

 72
      65
 73
       0
 40
0.0
  0
LTYPE
  5
12
100
AcDbSymbolTableRecord
100
AcDbLinetypeTableRecord
  2
BYLAYER
 70
      64
  3

 72
      65
 73
       0
 40
0.0
  0
LTYPE
  5
13
100
AcDbSymbolTableRecord
100
AcDbLinetypeTableRecord
  2
CONTINUOUS
 70
      64
  3
Solid line
 72
      65
 73
       0
 40
0.0
  0
LTYPE
  5
1D
100
AcDbSymbolTableRecord
100
AcDbLinetypeTableRecord
  2
HIDDENX2
 70
      64
  3
CADPAC LINETYPE
 72
      65
 73
       2
 40
54.16750345
 49
40.62562759
 74
       0
 49
-13.54187586
 74
       0
  0
LTYPE
  5
1E
100
AcDbSymbolTableRecord
100
AcDbLinetypeTableRecord
  2
HIDDEN
 70
      64
  3
CADPAC LINETYPE
 72
      65
 73
       2
 40
40.62562759
 49
27.08375172
 74
       0
 49
-13.54187586
 74
       0
  0
LTYPE
  5
1F
100
AcDbSymbolTableRecord
100
AcDbLinetypeTableRecord
  2
HIDDEN2
 70
      64
  3
CADPAC LINETYPE
 72
      65
 73
       2
 40
33.85468966
 49
20.31281379
 74
       0
 49
-13.54187586
 74
       0
  0
LTYPE
  5
20
100
AcDbSymbolTableRecord
100
AcDbLinetypeTableRecord
  2
DASHED
 70
      64
  3
CADPAC LINETYPE
 72
      65
 73
       2
 40
40.62562759
 49
27.08375172
 74
       0
 49
-13.54187586
 74
       0
  0
LTYPE
  5
21
100
AcDbSymbolTableRecord
100
AcDbLinetypeTableRecord
  2
DASHED2
 70
      64
  3
CADPAC LINETYPE
 72
      65
 73
       2
 40
30.46922069
 49
20.31281379
 74
       0
 49
-10.1564069
 74
       0
  0
LTYPE
  5
22
100
AcDbSymbolTableRecord
100
AcDbLinetypeTableRecord
  2
DASHEDX2
 70
      64
  3
CADPAC LINETYPE
 72
      65
 73
       2
 40
60.93844138
 49
40.62562759
 74
       0
 49
-20.31281379
 74
       0
  0
LTYPE
  5
23
100
AcDbSymbolTableRecord
100
AcDbLinetypeTableRecord
  2
DOTX2
 70
      64
  3
CADPAC LINETYPE
 72
      65
 73
       2
 40
16.92734483
 49
0.0
 74
       0
 49
-16.92734483
 74
       0
  0
LTYPE
  5
24
100
AcDbSymbolTableRecord
100
AcDbLinetypeTableRecord
  2
DOT
 70
      64
  3
CADPAC LINETYPE
 72
      65
 73
       2
 40
13.54187586
 49
0.0
 74
       0
 49
-13.54187586
 74
       0
  0
LTYPE
  5
25
100
AcDbSymbolTableRecord
100
AcDbLinetypeTableRecord
  2
DOT2
 70
      64
  3
CADPAC LINETYPE
 72
      65
 73
       2
 40
10.1564069
 49
0.0
 74
       0
 49
-10.1564069
 74
       0
  0
LTYPE
  5
26
100
AcDbSymbolTableRecord
100
AcDbLinetypeTableRecord
  2
CENTERX2
 70
      64
  3
CADPAC LINETYPE
 72
      65
 73
       4
 40
81.25125517
 49
33.85468966
 74
       0
 49
-16.92734483
 74
       0
 49
13.54187586
 74
       0
 49
-16.92734483
 74
       0
  0
LTYPE
  5
27
100
AcDbSymbolTableRecord
100
AcDbLinetypeTableRecord
  2
CENTER
 70
      64
  3
CADPAC LINETYPE
 72
      65
 73
       4
 40
62.29262897
 49
27.08375172
 74
       0
 49
-13.54187586
 74
       0
 49
8.12512552
 74
       0
 49
-13.54187586
 74
       0
  0
LTYPE
  5
28
100
AcDbSymbolTableRecord
100
AcDbLinetypeTableRecord
  2
CENTER2
 70
      64
  3
CADPAC LINETYPE
 72
      65
 73
       4
 40
43.33400276
 49
20.31281379
 74
       0
 49
-10.1564069
 74
       0
 49
2.70837517
 74
       0
 49
-10.1564069
 74
       0
  0
LTYPE
  5
29
100
AcDbSymbolTableRecord
100
AcDbLinetypeTableRecord
  2
DASHDOTX2
 70
      64
  3
CADPAC LINETYPE
 72
      65
 73
       4
 40
67.70937931
 49
33.85468966
 74
       0
 49
-16.92734483
 74
       0
 49
0.0
 74
       0
 49
-16.92734483
 74
       0
  0
LTYPE
  5
2A
100
AcDbSymbolTableRecord
100
AcDbLinetypeTableRecord
  2
DASHDOT
 70
      64
  3
CADPAC LINETYPE
 72
      65
 73
       4
 40
54.16750345
 49
27.08375172
 74
       0
 49
-13.54187586
 74
       0
 49
0.0
 74
       0
 49
-13.54187586
 74
       0
  0
LTYPE
  5
2B
100
AcDbSymbolTableRecord
100
AcDbLinetypeTableRecord
  2
DASHDOT2
 70
      64
  3
CADPAC LINETYPE
 72
      65
 73
       4
 40
40.62562759
 49
20.31281379
 74
       0
 49
-10.1564069
 74
       0
 49
0.0
 74
       0
 49
-10.1564069
 74
       0
  0
LTYPE
  5
2C
100
AcDbSymbolTableRecord
100
AcDbLinetypeTableRecord
  2
DIVIDEX2
 70
      64
  3
CADPAC LINETYPE
 72
      65
 73
       6
 40
84.63672414
 49
33.85468966
 74
       0
 49
-16.92734483
 74
       0
 49
0.0
 74
       0
 49
-16.92734483
 74
       0
 49
0.0
 74
       0
 49
-16.92734483
 74
       0
  0
LTYPE
  5
2D
100
AcDbSymbolTableRecord
100
AcDbLinetypeTableRecord
  2
DIVIDE
 70
      64
  3
CADPAC LINETYPE
 72
      65
 73
       6
 40
67.70937931
 49
27.08375172
 74
       0
 49
-13.54187586
 74
       0
 49
0.0
 74
       0
 49
-13.54187586
 74
       0
 49
0.0
 74
       0
 49
-13.54187586
 74
       0
  0
LTYPE
  5
2E
100
AcDbSymbolTableRecord
100
AcDbLinetypeTableRecord
  2
DIVIDE2
 70
      64
  3
CADPAC LINETYPE
 72
      65
 73
       6
 40
50.78203448
 49
20.31281379
 74
       0
 49
-10.1564069
 74
       0
 49
0.0
 74
       0
 49
-10.1564069
 74
       0
 49
0.0
 74
       0
 49
-10.1564069
 74
       0
  0
LTYPE
  5
2F
100
AcDbSymbolTableRecord
100
AcDbLinetypeTableRecord
  2
BORDERX2
 70
      64
  3
CADPAC LINETYPE
 72
      65
 73
       6
 40
118.49141379
 49
33.85468966
 74
       0
 49
-16.92734483
 74
       0
 49
33.85468966
 74
       0
 49
-16.92734483
 74
       0
 49
0.0
 74
       0
 49
-16.92734483
 74
       0
  0
LTYPE
  5
30
100
AcDbSymbolTableRecord
100
AcDbLinetypeTableRecord
  2
BORDER
 70
      64
  3
CADPAC LINETYPE
 72
      65
 73
       6
 40
94.79313103
 49
27.08375172
 74
       0
 49
-13.54187586
 74
       0
 49
27.08375172
 74
       0
 49
-13.54187586
 74
       0
 49
0.0
 74
       0
 49
-13.54187586
 74
       0
  0
LTYPE
  5
31
100
AcDbSymbolTableRecord
100
AcDbLinetypeTableRecord
  2
BORDER2
 70
      64
  3
CADPAC LINETYPE
 72
      65
 73
       6
 40
71.09484828
 49
20.31281379
 74
       0
 49
-10.1564069
 74
       0
 49
20.31281379
 74
       0
 49
-10.1564069
 74
       0
 49
0.0
 74
       0
 49
-10.1564069
 74
       0
  0
LTYPE
  5
32
100
AcDbSymbolTableRecord
100
AcDbLinetypeTableRecord
  2
PHANTOMX2
 70
      64
  3
CADPAC LINETYPE
 72
      65
 73
       6
 40
101.56406897
 49
33.85468966
 74
       0
 49
-13.54187586
 74
       0
 49
13.54187586
 74
       0
 49
-13.54187586
 74
       0
 49
13.54187586
 74
       0
 49
-13.54187586
 74
       0
  0
LTYPE
  5
33
100
AcDbSymbolTableRecord
100
AcDbLinetypeTableRecord
  2
PHANTOM
 70
      64
  3
CADPAC LINETYPE
 72
      65
 73
       6
 40
83.95963034
 49
27.08375172
 74
       0
 49
-13.54187586
 74
       0
 49
8.12512552
 74
       0
 49
-13.54187586
 74
       0
 49
8.12512552
 74
       0
 49
-13.54187586
 74
       0
  0
LTYPE
  5
34
100
AcDbSymbolTableRecord
100
AcDbLinetypeTableRecord
  2
PHANTOM2
 70
      64
  3
CADPAC LINETYPE
 72
      65
 73
       6
 40
71.77194207
 49
20.31281379
 74
       0
 49
-13.54187586
 74
       0
 49
5.41675034
 74
       0
 49
-13.54187586
 74
       0
 49
5.41675034
 74
       0
 49
-13.54187586
 74
       0
  0
LTYPE
  5
35
100
AcDbSymbolTableRecord
100
AcDbLinetypeTableRecord
  2
ACAD_ISO06W100
 70
      64
  3
CADPAC LINETYPE
 72
      65
 73
       8
 40
91.40766207
 49
33.85468966
 74
       0
 49
-16.92734483
 74
       0
 49
0.0
 74
       0
 49
-13.54187586
 74
       0
 49
0.0
 74
       0
 49
-13.54187586
 74
       0
 49
0.0
 74
       0
 49
-13.54187586
 74
       0
  0
LTYPE
  5
36
100
AcDbSymbolTableRecord
100
AcDbLinetypeTableRecord
  2
ACAD_ISO13W100
 70
      64
  3
CADPAC LINETYPE
 72
      65
 73
       8
 40
108.3350069
 49
27.08375172
 74
       0
 49
-13.54187586
 74
       0
 49
27.08375172
 74
       0
 49
-13.54187586
 74
       0
 49
0.0
 74
       0
 49
-13.54187586
 74
       0
 49
0.0
 74
       0
 49
-13.54187586
 74
       0
  0
LTYPE
  5
37
100
AcDbSymbolTableRecord
100
AcDbLinetypeTableRecord
  2
ACAD_ISO14W100
 70
      64
  3
CADPAC LINETYPE
 72
      65
 73
       8
 40
81.25125517
 49
27.08375172
 74
       0
 49
-13.54187586
 74
       0
 49
0.0
 74
       0
 49
-13.54187586
 74
       0
 49
0.0
 74
       0
 49
-13.54187586
 74
       0
 49
0.0
 74
       0
 49
-13.54187586
 74
       0
  0
ENDTAB
  0
TABLE
  2
LAYER
  5
2
100
AcDbSymbolTable
 70
       5
  0
LAYER
  5
14
100
AcDbSymbolTableRecord
100
AcDbLayerTableRecord
  2
0
 70
       0
 62
       7
  6
CONTINUOUS
  0
LAYER
  5
38
100
AcDbSymbolTableRecord
100
AcDbLayerTableRecord
  2
1
 70
       0
 62
       7
  6
CONTINUOUS
  0
LAYER
  5
39
100
AcDbSymbolTableRecord
100
AcDbLayerTableRecord
  2
16
 70
       0
 62
       7
  6
CONTINUOUS
  0
LAYER
  5
3A
100
AcDbSymbolTableRecord
100
AcDbLayerTableRecord
  2
17
 70
       0
 62
       7
  6
CONTINUOUS
  0
LAYER
  5
3B
100
AcDbSymbolTableRecord
100
AcDbLayerTableRecord
  2
240
 70
       0
 62
       7
  6
CONTINUOUS
  0
ENDTAB
  0
TABLE
  2
STYLE
  5
3
100
AcDbSymbolTable
 70
       1
  0
STYLE
  5
17
100
AcDbSymbolTableRecord
100
AcDbTextStyleTableRecord
  2
STANDARD
 70
       0
 40
0.0
 41
0.8
 50
0.0
 71
       0
 42
12.0
  3
txt.shx
  4
bigfont.shx
  0
ENDTAB
  0
TABLE
  2
VIEW
  5
5
100
AcDbSymbolTable
 70
       1
  0
VIEW
  5
3C
100
AcDbSymbolTableRecord
100
AcDbViewTableRecord
  2
QQQQ
 70
       0
 40
1017.705
 10
0.0
 20
0.0
 41
729.3
 11
0.0
 21
0.0
 31
1.0
 12
100.0
 22
100.0
 32
0.0
 42
50.0
 43
0.0
 44
0.0
 50
0.0
 71
       0
  0
ENDTAB
  0
TABLE
  2
UCS
  5
6
100
AcDbSymbolTable
 70
       0
  0
ENDTAB
  0
TABLE
  2
APPID
  5
8
100
AcDbSymbolTable
 70
       1
  0
APPID
  5
16
100
AcDbSymbolTableRecord
100
AcDbRegAppTableRecord
  2
ACAD
 70
       0
  0
ENDTAB
  0
TABLE
  2
DIMSTYLE
  5
9
100
AcDbSymbolTable
 70
       1
  0
DIMSTYLE
105
18
100
AcDbSymbolTableRecord
100
AcDbDimStyleTableRecord
  2
STANDARD
 70
       0
  3

  4

  5

  6

  7

 40
1.0
 41
0.18
 42
0.0625
 43
0.38
 44
0.18
 45
0.0
 46
0.0
 47
0.0
 48
0.0
 71
       0
 72
       0
 73
       1
 74
       1
 75
       0
 76
       0
 77
       0
 78
       0
140
0.18
141
0.09
142
0.0
143
25.4
144
1.0
145
0.0
146
1.0
147
0.09
170
       0
171
       2
172
       0
173
       0
174
       0
175
       0
176
       0
177
       0
178
       0
270
       2
271
       4
272
       4
273
       2
274
       2
275
       0
280
       0
281
       0
282
       0
283
       1
284
       0
285
       0
286
       0
287
       0
288
       0
340
17
  0
ENDTAB
  0
TABLE
  2
BLOCK_RECORD
  5
1
100
AcDbSymbolTable
 70
      26
  0
BLOCK_RECORD
  5
A
100
AcDbSymbolTableRecord
100
AcDbBlockTableRecord
  2
*MODEL_SPACE
  0
BLOCK_RECORD
  5
B
100
AcDbSymbolTableRecord
100
AcDbBlockTableRecord
  2
*PAPER_SPACE
  0
BLOCK_RECORD
  5
3D
100
AcDbSymbolTableRecord
100
AcDbBlockTableRecord
  2
GROUP_1
  0
BLOCK_RECORD
  5
3E
100
AcDbSymbolTableRecord
100
AcDbBlockTableRecord
  2
GROUP_2
  0
BLOCK_RECORD
  5
3F
100
AcDbSymbolTableRecord
100
AcDbBlockTableRecord
  2
GROUP_3
  0
BLOCK_RECORD
  5
40
100
AcDbSymbolTableRecord
100
AcDbBlockTableRecord
  2
GROUP_4
  0
BLOCK_RECORD
  5
41
100
AcDbSymbolTableRecord
100
AcDbBlockTableRecord
  2
GROUP_5
  0
BLOCK_RECORD
  5
42
100
AcDbSymbolTableRecord
100
AcDbBlockTableRecord
  2
GROUP_6
  0
BLOCK_RECORD
  5
43
100
AcDbSymbolTableRecord
100
AcDbBlockTableRecord
  2
GROUP_7
  0
BLOCK_RECORD
  5
44
100
AcDbSymbolTableRecord
100
AcDbBlockTableRecord
  2
GROUP_8
  0
BLOCK_RECORD
  5
45
100
AcDbSymbolTableRecord
100
AcDbBlockTableRecord
  2
GROUP_9
  0
BLOCK_RECORD
  5
46
100
AcDbSymbolTableRecord
100
AcDbBlockTableRecord
  2
GROUP_10
  0
BLOCK_RECORD
  5
47
100
AcDbSymbolTableRecord
100
AcDbBlockTableRecord
  2
GROUP_11
  0
BLOCK_RECORD
  5
48
100
AcDbSymbolTableRecord
100
AcDbBlockTableRecord
  2
GROUP_12
  0
BLOCK_RECORD
  5
49
100
AcDbSymbolTableRecord
100
AcDbBlockTableRecord
  2
GROUP_13
  0
BLOCK_RECORD
  5
4A
100
AcDbSymbolTableRecord
100
AcDbBlockTableRecord
  2
GROUP_14
  0
BLOCK_RECORD
  5
4B
100
AcDbSymbolTableRecord
100
AcDbBlockTableRecord
  2
GROUP_15
  0
BLOCK_RECORD
  5
4C
100
AcDbSymbolTableRecord
100
AcDbBlockTableRecord
  2
GROUP_16
  0
BLOCK_RECORD
  5
4D
100
AcDbSymbolTableRecord
100
AcDbBlockTableRecord
  2
GROUP_17
  0
BLOCK_RECORD
  5
4E
100
AcDbSymbolTableRecord
100
AcDbBlockTableRecord
  2
GROUP_18
  0
BLOCK_RECORD
  5
4F
100
AcDbSymbolTableRecord
100
AcDbBlockTableRecord
  2
GROUP_19
  0
BLOCK_RECORD
  5
50
100
AcDbSymbolTableRecord
100
AcDbBlockTableRecord
  2
GROUP_20
  0
BLOCK_RECORD
  5
51
100
AcDbSymbolTableRecord
100
AcDbBlockTableRecord
  2
GROUP_21
  0
BLOCK_RECORD
  5
52
100
AcDbSymbolTableRecord
100
AcDbBlockTableRecord
  2
GROUP_22
  0
BLOCK_RECORD
  5
53
100
AcDbSymbolTableRecord
100
AcDbBlockTableRecord
  2
GROUP_23
  0
BLOCK_RECORD
  5
54
100
AcDbSymbolTableRecord
100
AcDbBlockTableRecord
  2
GROUP_24
  0
BLOCK_RECORD
  5
55
100
AcDbSymbolTableRecord
100
AcDbBlockTableRecord
  2
GROUP_25
  0
BLOCK_RECORD
  5
56
100
AcDbSymbolTableRecord
100
AcDbBlockTableRecord
  2
GROUP_26
  0
ENDTAB
  0
ENDSEC
  0
SECTION
  2
BLOCKS
  0
BLOCK
  5
D
100
AcDbEntity
  8
0
100
AcDbBlockBegin
  2
*MODEL_SPACE
 70
       0
 10
0.0
 20
0.0
 30
0.0
  3
*MODEL_SPACE
  1

  0
ENDBLK
  5
E
100
AcDbEntity
  8
0
100
AcDbBlockEnd
  0
BLOCK
  5
F
100
AcDbEntity
 67
       1
  8
0
100
AcDbBlockBegin
  2
*PAPER_SPACE
 70
       0
 10
0.0
 20
0.0
 30
0.0
  3
*PAPER_SPACE
  1

  0
ENDBLK
  5
10
100
AcDbEntity
 67
       1
  8
0
100
AcDbBlockEnd
  0
BLOCK
  5
57
100
AcDbEntity
  8
0
100
AcDbBlockBegin
  2
GROUP_1
 70
       0
 10
0.0
 20
0.0
 30
0.0
  3
GROUP_1
  1

  0
ARC
  5
58
100
AcDbEntity
  8
0
  6
CONTINUOUS
 62
       7
100
AcDbCircle
 10
-176.27751307
 20
56.25187037
 30
0.0
 40
4.27480747
100
AcDbArc
 50
306.93660934
 51
413.06339066
  0
ARC
  5
59
100
AcDbEntity
  8
0
  6
CONTINUOUS
 62
       7
100
AcDbCircle
 10
-180.5027056
 20
50.63192477
 30
0.0
 40
11.30588423
100
AcDbArc
 50
53.06339066
 51
126.93661241
  0
ARC
  5
5A
100
AcDbEntity
  8
0
  6
CONTINUOUS
 62
       7
100
AcDbCircle
 10
-184.72789813
 20
56.25187037
 30
0.0
 40
4.27480747
100
AcDbArc
 50
126.93661241
 51
233.06338759
  0
ARC
  5
5B
100
AcDbEntity
  8
0
  6
CONTINUOUS
 62
       7
100
AcDbCircle
 10
-180.5027056
 20
61.87181596
 30
0.0
 40
11.30588423
100
AcDbArc
 50
233.06338759
 51
306.93660934
  0
ENDBLK
  5
5C
100
AcDbEntity
  8
0
100
AcDbBlockEnd
  0
BLOCK
  5
5D
100
AcDbEntity
  8
0
100
AcDbBlockBegin
  2
GROUP_2
 70
       0
 10
0.0
 20
0.0
 30
0.0
  3
GROUP_2
  1

  0
ARC
  5
5E
100
AcDbEntity
  8
0
  6
CONTINUOUS
 62
       7
100
AcDbCircle
 10
-159.27751307
 20
37.05962481
 30
0.0
 40
4.27480747
100
AcDbArc
 50
306.93660934
 51
413.06339066
  0
ARC
  5
5F
100
AcDbEntity
  8
0
  6
CONTINUOUS
 62
       7
100
AcDbCircle
 10
-163.5027056
 20
31.43967921
 30
0.0
 40
11.30588423
100
AcDbArc
 50
53.06339066
 51
126.93661241
  0
ARC
  5
60
100
AcDbEntity
  8
0
  6
CONTINUOUS
 62
       7
100
AcDbCircle
 10
-167.72789813
 20
37.05962481
 30
0.0
 40
4.27480747
100
AcDbArc
 50
126.93661241
 51
233.06338759
  0
ARC
  5
61
100
AcDbEntity
  8
0
  6
CONTINUOUS
 62
       7
100
AcDbCircle
 10
-163.5027056
 20
42.6795704
 30
0.0
 40
11.30588423
100
AcDbArc
 50
233.06338759
 51
306.93660934
  0
ENDBLK
  5
62
100
AcDbEntity
  8
0
100
AcDbBlockEnd
  0
BLOCK
  5
63
100
AcDbEntity
  8
0
100
AcDbBlockBegin
  2
GROUP_3
 70
       0
 10
0.0
 20
0.0
 30
0.0
  3
GROUP_3
  1

  0
ARC
  5
64
100
AcDbEntity
  8
0
  6
CONTINUOUS
 62
       7
100
AcDbCircle
 10
-159.27751307
 20
56.25187037
 30
0.0
 40
4.27480747
100
AcDbArc
 50
306.93660934
 51
360.0
  0
ARC
  5
65
100
AcDbEntity
  8
0
  6
CONTINUOUS
 62
       7
100
AcDbCircle
 10
-167.72789813
 20
56.25187037
 30
0.0
 40
4.27480747
100
AcDbArc
 50
180.00000307
 51
233.06338759
  0
ARC
  5
66
100
AcDbEntity
  8
0
  6
CONTINUOUS
 62
       7
100
AcDbCircle
 10
-163.5027056
 20
61.87181596
 30
0.0
 40
11.30588423
100
AcDbArc
 50
233.06338759
 51
306.93660934
  0
ENDBLK
  5
67
100
AcDbEntity
  8
0
100
AcDbBlockEnd
  0
BLOCK
  5
68
100
AcDbEntity
  8
0
100
AcDbBlockBegin
  2
GROUP_4
 70
       0
 10
0.0
 20
0.0
 30
0.0
  3
GROUP_4
  1

  0
ARC
  5
69
100
AcDbEntity
  8
0
  6
CONTINUOUS
 62
       7
100
AcDbCircle
 10
-176.27751307
 20
37.05962481
 30
0.0
 40
4.27480747
100
AcDbArc
 50
359.99999689
 51
413.06339066
  0
ARC
  5
6A
100
AcDbEntity
  8
0
  6
CONTINUOUS
 62
       7
100
AcDbCircle
 10
-180.5027056
 20
31.43967921
 30
0.0
 40
11.30588423
100
AcDbArc
 50
53.06339066
 51
126.93661241
  0
ARC
  5
6B
100
AcDbEntity
  8
0
  6
CONTINUOUS
 62
       7
100
AcDbCircle
 10
-184.72789813
 20
37.05962481
 30
0.0
 40
4.27480747
100
AcDbArc
 50
126.93661241
 51
180.00000307
  0
ENDBLK
  5
6C
100
AcDbEntity
  8
0
100
AcDbBlockEnd
  0
BLOCK
  5
6D
100
AcDbEntity
  8
0
100
AcDbBlockBegin
  2
GROUP_5
 70
       0
 10
0.0
 20
0.0
 30
0.0
  3
GROUP_5
  1

  0
ARC
  5
6E
100
AcDbEntity
  8
0
  6
CONTINUOUS
 62
       7
100
AcDbCircle
 10
-34.97408098
 20
56.25187037
 30
0.0
 40
4.27480747
100
AcDbArc
 50
306.93660934
 51
413.06339066
  0
ARC
  5
6F
100
AcDbEntity
  8
0
  6
CONTINUOUS
 62
       7
100
AcDbCircle
 10
-39.19927351
 20
50.63192477
 30
0.0
 40
11.30588423
100
AcDbArc
 50
53.06339066
 51
126.93661241
  0
ARC
  5
70
100
AcDbEntity
  8
0
  6
CONTINUOUS
 62
       7
100
AcDbCircle
 10
-43.42446603
 20
56.25187037
 30
0.0
 40
4.27480747
100
AcDbArc
 50
126.93661241
 51
233.06338759
  0
ARC
  5
71
100
AcDbEntity
  8
0
  6
CONTINUOUS
 62
       7
100
AcDbCircle
 10
-39.19927351
 20
61.87181596
 30
0.0
 40
11.30588423
100
AcDbArc
 50
233.06338759
 51
306.93660934
  0
ENDBLK
  5
72
100
AcDbEntity
  8
0
100
AcDbBlockEnd
  0
BLOCK
  5
73
100
AcDbEntity
  8
0
100
AcDbBlockBegin
  2
GROUP_6
 70
       0
 10
0.0
 20
0.0
 30
0.0
  3
GROUP_6
  1

  0
ARC
  5
74
100
AcDbEntity
  8
0
  6
CONTINUOUS
 62
       7
100
AcDbCircle
 10
-17.97408098
 20
37.05962481
 30
0.0
 40
4.27480747
100
AcDbArc
 50
306.93660934
 51
413.06339066
  0
ARC
  5
75
100
AcDbEntity
  8
0
  6
CONTINUOUS
 62
       7
100
AcDbCircle
 10
-22.19927351
 20
31.43967921
 30
0.0
 40
11.30588423
100
AcDbArc
 50
53.06339066
 51
126.93661241
  0
ARC
  5
76
100
AcDbEntity
  8
0
  6
CONTINUOUS
 62
       7
100
AcDbCircle
 10
-26.42446603
 20
37.05962481
 30
0.0
 40
4.27480747
100
AcDbArc
 50
126.93661241
 51
233.06338759
  0
ARC
  5
77
100
AcDbEntity
  8
0
  6
CONTINUOUS
 62
       7
100
AcDbCircle
 10
-22.19927351
 20
42.6795704
 30
0.0
 40
11.30588423
100
AcDbArc
 50
233.06338759
 51
306.93660934
  0
ENDBLK
  5
78
100
AcDbEntity
  8
0
100
AcDbBlockEnd
  0
BLOCK
  5
79
100
AcDbEntity
  8
0
100
AcDbBlockBegin
  2
GROUP_7
 70
       0
 10
0.0
 20
0.0
 30
0.0
  3
GROUP_7
  1

  0
ARC
  5
7A
100
AcDbEntity
  8
0
  6
CONTINUOUS
 62
       7
100
AcDbCircle
 10
-17.97408098
 20
56.25187037
 30
0.0
 40
4.27480747
100
AcDbArc
 50
306.93660934
 51
360.0
  0
ARC
  5
7B
100
AcDbEntity
  8
0
  6
CONTINUOUS
 62
       7
100
AcDbCircle
 10
-26.42446603
 20
56.25187037
 30
0.0
 40
4.27480747
100
AcDbArc
 50
180.00000307
 51
233.06338759
  0
ARC
  5
7C
100
AcDbEntity
  8
0
  6
CONTINUOUS
 62
       7
100
AcDbCircle
 10
-22.19927351
 20
61.87181596
 30
0.0
 40
11.30588423
100
AcDbArc
 50
233.06338759
 51
306.93660934
  0
ENDBLK
  5
7D
100
AcDbEntity
  8
0
100
AcDbBlockEnd
  0
BLOCK
  5
7E
100
AcDbEntity
  8
0
100
AcDbBlockBegin
  2
GROUP_8
 70
       0
 10
0.0
 20
0.0
 30
0.0
  3
GROUP_8
  1

  0
ARC
  5
7F
100
AcDbEntity
  8
0
  6
CONTINUOUS
 62
       7
100
AcDbCircle
 10
-34.97408098
 20
37.05962481
 30
0.0
 40
4.27480747
100
AcDbArc
 50
359.99999689
 51
413.06339066
  0
ARC
  5
80
100
AcDbEntity
  8
0
  6
CONTINUOUS
 62
       7
100
AcDbCircle
 10
-39.19927351
 20
31.43967921
 30
0.0
 40
11.30588423
100
AcDbArc
 50
53.06339066
 51
126.93661241
  0
ARC
  5
81
100
AcDbEntity
  8
0
  6
CONTINUOUS
 62
       7
100
AcDbCircle
 10
-43.42446603
 20
37.05962481
 30
0.0
 40
4.27480747
100
AcDbArc
 50
126.93661241
 51
180.00000307
  0
ENDBLK
  5
82
100
AcDbEntity
  8
0
100
AcDbBlockEnd
  0
BLOCK
  5
83
100
AcDbEntity
  8
0
100
AcDbBlockBegin
  2
GROUP_9
 70
       0
 10
0.0
 20
0.0
 30
0.0
  3
GROUP_9
  1

  0
ARC
  5
84
100
AcDbEntity
  8
0
  6
CONTINUOUS
 62
       7
100
AcDbCircle
 10
-260.81192048
 20
421.22548309
 30
0.0
 40
8.06307952
100
AcDbArc
 50
117.5173678
 51
242.4826322
  0
ARC
  5
85
100
AcDbEntity
  8
0
  6
CONTINUOUS
 62
       7
100
AcDbCircle
 10
-230.53125
 20
479.35108957
 30
0.0
 40
73.60318276
100
AcDbArc
 50
242.4826322
 51
297.51736473
  0
ARC
  5
86
100
AcDbEntity
  8
0
  6
CONTINUOUS
 62
       7
100
AcDbCircle
 10
-200.25057952
 20
421.22548309
 30
0.0
 40
8.06307952
100
AcDbArc
 50
297.51736473
 51
422.48263527
  0
ARC
  5
87
100
AcDbEntity
  8
0
  6
CONTINUOUS
 62
       7
100
AcDbCircle
 10
-230.53125
 20
363.09987661
 30
0.0
 40
73.60318276
100
AcDbArc
 50
62.48263527
 51
117.5173678
  0
ENDBLK
  5
88
100
AcDbEntity
  8
0
100
AcDbBlockEnd
  0
BLOCK
  5
89
100
AcDbEntity
  8
0
100
AcDbBlockBegin
  2
GROUP_10
 70
       0
 10
0.0
 20
0.0
 30
0.0
  3
GROUP_10
  1

  0
ARC
  5
8A
100
AcDbEntity
  8
0
  6
CONTINUOUS
 62
       7
100
AcDbCircle
 10
-237.71500675
 20
419.51508975
 30
0.0
 40
0.3169996
100
AcDbArc
 50
190.64764618
 51
292.13143044
  0
ARC
  5
8B
100
AcDbEntity
  8
0
  6
CONTINUOUS
 62
       7
100
AcDbCircle
 10
-237.83331353
 20
419.80598631
 30
0.0
 40
0.63103352
100
AcDbArc
 50
292.13143044
 51
370.64764925
  0
ARC
  5
8C
100
AcDbEntity
  8
0
  6
CONTINUOUS
 62
       7
100
AcDbCircle
 10
-237.52468664
 20
419.86400995
 30
0.0
 40
0.3169996
100
AcDbArc
 50
10.64764925
 51
112.13143351
  0
ARC
  5
8D
100
AcDbEntity
  8
0
  6
CONTINUOUS
 62
       7
100
AcDbCircle
 10
-237.40637986
 20
419.5731134
 30
0.0
 40
0.63103352
100
AcDbArc
 50
112.13143351
 51
190.64764618
  0
ENDBLK
  5
8E
100
AcDbEntity
  8
0
100
AcDbBlockEnd
  0
BLOCK
  5
8F
100
AcDbEntity
  8
0
100
AcDbBlockBegin
  2
GROUP_11
 70
       0
 10
0.0
 20
0.0
 30
0.0
  3
GROUP_11
  1

  0
ARC
  5
90
100
AcDbEntity
  8
0
  6
CONTINUOUS
 62
       7
100
AcDbCircle
 10
-237.92387243
 20
419.13216934
 30
0.0
 40
1.01277828
100
AcDbArc
 50
190.64764618
 51
211.08494823
  0
ARC
  5
91
100
AcDbEntity
  8
0
  6
CONTINUOUS
 62
       7
100
AcDbCircle
 10
-238.30184935
 20
420.0615513
 30
0.0
 40
2.01608152
100
AcDbArc
 50
312.59843321
 51
370.64764925
  0
ARC
  5
92
100
AcDbEntity
  8
0
  6
CONTINUOUS
 62
       7
100
AcDbCircle
 10
-237.31582096
 20
420.24693036
 30
0.0
 40
1.01277828
100
AcDbArc
 50
10.64764925
 51
112.13143351
  0
ARC
  5
93
100
AcDbEntity
  8
0
  6
CONTINUOUS
 62
       7
100
AcDbCircle
 10
-236.93784404
 20
419.3175484
 30
0.0
 40
2.01608152
100
AcDbArc
 50
112.13143351
 51
190.64764618
  0
ENDBLK
  5
94
100
AcDbEntity
  8
0
100
AcDbBlockEnd
  0
BLOCK
  5
95
100
AcDbEntity
  8
0
100
AcDbBlockBegin
  2
GROUP_12
 70
       0
 10
0.0
 20
0.0
 30
0.0
  3
GROUP_12
  1

  0
ARC
  5
96
100
AcDbEntity
  8
0
  6
CONTINUOUS
 62
       7
100
AcDbCircle
 10
-233.13468323
 20
420.31138677
 30
0.0
 40
0.23219995
100
AcDbArc
 50
183.26137873
 51
305.00590373
  0
ARC
  5
97
100
AcDbEntity
  8
0
  6
CONTINUOUS
 62
       7
100
AcDbCircle
 10
-233.97163699
 20
421.50641847
 30
0.0
 40
1.69116957
100
AcDbArc
 50
305.00590373
 51
363.2613818
  0
ARC
  5
98
100
AcDbEntity
  8
0
  6
CONTINUOUS
 62
       7
100
AcDbCircle
 10
-232.51503033
 20
421.58942088
 30
0.0
 40
0.23219995
100
AcDbArc
 50
3.2613818
 51
125.0059068
  0
ARC
  5
99
100
AcDbEntity
  8
0
  6
CONTINUOUS
 62
       7
100
AcDbCircle
 10
-231.67807657
 20
420.39438918
 30
0.0
 40
1.69116957
100
AcDbArc
 50
125.0059068
 51
183.26137873
  0
ENDBLK
  5
9A
100
AcDbEntity
  8
0
100
AcDbBlockEnd
  0
BLOCK
  5
9B
100
AcDbEntity
  8
0
100
AcDbBlockBegin
  2
GROUP_13
 70
       0
 10
0.0
 20
0.0
 30
0.0
  3
GROUP_13
  1

  0
ARC
  5
9C
100
AcDbEntity
  8
0
  6
CONTINUOUS
 62
       7
100
AcDbCircle
 10
-233.81471765
 20
418.90881579
 30
0.0
 40
0.74185288
100
AcDbArc
 50
183.26137873
 51
200.33363428
  0
ARC
  5
9D
100
AcDbEntity
  8
0
  6
CONTINUOUS
 62
       7
100
AcDbCircle
 10
-236.48869131
 20
422.72680844
 30
0.0
 40
5.40309768
100
AcDbArc
 50
321.55507259
 51
363.2613818
  0
ARC
  5
9E
100
AcDbEntity
  8
0
  6
CONTINUOUS
 62
       7
100
AcDbCircle
 10
-231.83499592
 20
422.99199186
 30
0.0
 40
0.74185288
100
AcDbArc
 50
3.2613818
 51
125.0059068
  0
ARC
  5
9F
100
AcDbEntity
  8
0
  6
CONTINUOUS
 62
       7
100
AcDbCircle
 10
-229.16102225
 20
419.17399921
 30
0.0
 40
5.40309768
100
AcDbArc
 50
125.0059068
 51
183.26137873
  0
ENDBLK
  5
A0
100
AcDbEntity
  8
0
100
AcDbBlockEnd
  0
BLOCK
  5
A1
100
AcDbEntity
  8
0
100
AcDbBlockBegin
  2
GROUP_14
 70
       0
 10
0.0
 20
0.0
 30
0.0
  3
GROUP_14
  1

  0
ARC
  5
A2
100
AcDbEntity
  8
0
  6
CONTINUOUS
 62
       7
100
AcDbCircle
 10
-224.45117889
 20
419.06490141
 30
0.0
 40
0.2160766
100
AcDbArc
 50
183.73563025
 51
294.86492053
  0
ARC
  5
A3
100
AcDbEntity
  8
0
  6
CONTINUOUS
 62
       7
100
AcDbCircle
 10
-224.68891834
 20
419.57788937
 30
0.0
 40
0.78147618
100
AcDbArc
 50
294.86492053
 51
363.73563332
  0
ARC
  5
A4
100
AcDbEntity
  8
0
  6
CONTINUOUS
 62
       7
100
AcDbCircle
 10
-224.12472007
 20
419.6147268
 30
0.0
 40
0.2160766
100
AcDbArc
 50
3.73563332
 51
114.8649236
  0
ARC
  5
A5
100
AcDbEntity
  8
0
  6
CONTINUOUS
 62
       7
100
AcDbCircle
 10
-223.88698062
 20
419.10173885
 30
0.0
 40
0.78147618
100
AcDbArc
 50
114.8649236
 51
183.73563025
  0
ENDBLK
  5
A6
100
AcDbEntity
  8
0
100
AcDbBlockEnd
  0
BLOCK
  5
A7
100
AcDbEntity
  8
0
100
AcDbBlockBegin
  2
GROUP_15
 70
       0
 10
0.0
 20
0.0
 30
0.0
  3
GROUP_15
  1

  0
ARC
  5
A8
100
AcDbEntity
  8
0
  6
CONTINUOUS
 62
       7
100
AcDbCircle
 10
-223.83305098
 20
420.03486454
 30
0.0
 40
0.8613358
100
AcDbArc
 50
20.74730473
 51
105.32121283
  0
ARC
  5
A9
100
AcDbEntity
  8
0
  6
CONTINUOUS
 62
       7
100
AcDbCircle
 10
-223.36483312
 20
418.32583435
 30
0.0
 40
2.63334374
100
AcDbArc
 50
105.32121283
 51
159.10235176
  0
ENDBLK
  5
AA
100
AcDbEntity
  8
0
100
AcDbBlockEnd
  0
BLOCK
  5
AB
100
AcDbEntity
  8
0
100
AcDbBlockBegin
  2
GROUP_16
 70
       0
 10
0.0
 20
0.0
 30
0.0
  3
GROUP_16
  1

  0
ARC
  5
AC
100
AcDbEntity
  8
0
  6
CONTINUOUS
 62
       7
100
AcDbCircle
 10
-225.1341828
 20
418.42285946
 30
0.0
 40
0.8613358
100
AcDbArc
 50
198.54808739
 51
285.32120976
  0
ARC
  5
AD
100
AcDbEntity
  8
0
  6
CONTINUOUS
 62
       7
100
AcDbCircle
 10
-225.60240065
 20
420.13188965
 30
0.0
 40
2.63334374
100
AcDbArc
 50
285.32120976
 51
306.25116607
  0
ENDBLK
  5
AE
100
AcDbEntity
  8
0
100
AcDbBlockEnd
  0
BLOCK
  5
AF
100
AcDbEntity
  8
0
100
AcDbBlockBegin
  2
GROUP_17
 70
       0
 10
0.0
 20
0.0
 30
0.0
  3
GROUP_17
  1

  0
ARC
  5
B0
100
AcDbEntity
  8
0
  6
CONTINUOUS
 62
       7
100
AcDbCircle
 10
-207.54026274
 20
419.51508975
 30
0.0
 40
0.3169996
100
AcDbArc
 50
190.64764618
 51
292.13143044
  0
ARC
  5
B1
100
AcDbEntity
  8
0
  6
CONTINUOUS
 62
       7
100
AcDbCircle
 10
-207.65856952
 20
419.80598631
 30
0.0
 40
0.63103352
100
AcDbArc
 50
292.13143044
 51
370.64764925
  0
ARC
  5
B2
100
AcDbEntity
  8
0
  6
CONTINUOUS
 62
       7
100
AcDbCircle
 10
-207.34994263
 20
419.86400995
 30
0.0
 40
0.3169996
100
AcDbArc
 50
10.64764925
 51
112.13143351
  0
ARC
  5
B3
100
AcDbEntity
  8
0
  6
CONTINUOUS
 62
       7
100
AcDbCircle
 10
-207.23163585
 20
419.5731134
 30
0.0
 40
0.63103352
100
AcDbArc
 50
112.13143351
 51
190.64764618
  0
ENDBLK
  5
B4
100
AcDbEntity
  8
0
100
AcDbBlockEnd
  0
BLOCK
  5
B5
100
AcDbEntity
  8
0
100
AcDbBlockBegin
  2
GROUP_18
 70
       0
 10
0.0
 20
0.0
 30
0.0
  3
GROUP_18
  1

  0
ARC
  5
B6
100
AcDbEntity
  8
0
  6
CONTINUOUS
 62
       7
100
AcDbCircle
 10
-207.74912842
 20
419.13216934
 30
0.0
 40
1.01277828
100
AcDbArc
 50
190.64764618
 51
211.08494823
  0
ARC
  5
B7
100
AcDbEntity
  8
0
  6
CONTINUOUS
 62
       7
100
AcDbCircle
 10
-208.12710534
 20
420.0615513
 30
0.0
 40
2.01608152
100
AcDbArc
 50
312.59843321
 51
370.64764925
  0
ARC
  5
B8
100
AcDbEntity
  8
0
  6
CONTINUOUS
 62
       7
100
AcDbCircle
 10
-207.14107695
 20
420.24693036
 30
0.0
 40
1.01277828
100
AcDbArc
 50
10.64764925
 51
112.13143351
  0
ARC
  5
B9
100
AcDbEntity
  8
0
  6
CONTINUOUS
 62
       7
100
AcDbCircle
 10
-206.76310003
 20
419.3175484
 30
0.0
 40
2.01608152
100
AcDbArc
 50
112.13143351
 51
190.64764618
  0
ENDBLK
  5
BA
100
AcDbEntity
  8
0
100
AcDbBlockEnd
  0
BLOCK
  5
BB
100
AcDbEntity
  8
0
100
AcDbBlockBegin
  2
GROUP_19
 70
       0
 10
0.0
 20
0.0
 30
0.0
  3
GROUP_19
  1

  0
CIRCLE
  5
BC
100
AcDbEntity
  8
17
  6
CONTINUOUS
 62
       7
100
AcDbCircle
 10
152.78075567
 20
335.84097268
 30
0.0
 40
13.15902732
  0
TEXT
  5
BD
100
AcDbEntity
  8
17
 62
       7
100
AcDbText
 10
147.98075567
 20
329.84097268
 30
0.0
 40
12.0
  1
3
 41
0.8
 72
       5
 11
157.58075567
 21
329.84097268
 31
0.0
100
AcDbText
  0
ENDBLK
  5
BE
100
AcDbEntity
  8
0
100
AcDbBlockEnd
  0
BLOCK
  5
BF
100
AcDbEntity
  8
0
100
AcDbBlockBegin
  2
GROUP_20
 70
       0
 10
0.0
 20
0.0
 30
0.0
  3
GROUP_20
  1

  0
CIRCLE
  5
C0
100
AcDbEntity
  8
17
  6
CONTINUOUS
 62
       7
100
AcDbCircle
 10
119.09881031
 20
215.84097268
 30
0.0
 40
13.15902732
  0
TEXT
  5
C1
100
AcDbEntity
  8
17
 62
       7
100
AcDbText
 10
114.29881031
 20
209.84097268
 30
0.0
 40
12.0
  1
7
 41
0.8
 72
       5
 11
123.89881031
 21
209.84097268
 31
0.0
100
AcDbText
  0
ENDBLK
  5
C2
100
AcDbEntity
  8
0
100
AcDbBlockEnd
  0
BLOCK
  5
C3
100
AcDbEntity
  8
0
100
AcDbBlockBegin
  2
GROUP_21
 70
       0
 10
0.0
 20
0.0
 30
0.0
  3
GROUP_21
  1

  0
CIRCLE
  5
C4
100
AcDbEntity
  8
17
  6
CONTINUOUS
 62
       7
100
AcDbCircle
 10
242.78075567
 20
215.84097268
 30
0.0
 40
13.15902732
  0
TEXT
  5
C5
100
AcDbEntity
  8
17
 62
       7
100
AcDbText
 10
237.98075567
 20
209.84097268
 30
0.0
 40
12.0
  1
8
 41
0.8
 72
       5
 11
247.58075567
 21
209.84097268
 31
0.0
100
AcDbText
  0
ENDBLK
  5
C6
100
AcDbEntity
  8
0
100
AcDbBlockEnd
  0
BLOCK
  5
C7
100
AcDbEntity
  8
0
100
AcDbBlockBegin
  2
GROUP_22
 70
       0
 10
0.0
 20
0.0
 30
0.0
  3
GROUP_22
  1

  0
CIRCLE
  5
C8
100
AcDbEntity
  8
17
  6
CONTINUOUS
 62
       7
100
AcDbCircle
 10
152.78075567
 20
155.84097268
 30
0.0
 40
13.15902732
  0
TEXT
  5
C9
100
AcDbEntity
  8
17
 62
       7
100
AcDbText
 10
147.98075567
 20
149.84097268
 30
0.0
 40
12.0
  1
4
 41
0.8
 72
       5
 11
157.58075567
 21
149.84097268
 31
0.0
100
AcDbText
  0
ENDBLK
  5
CA
100
AcDbEntity
  8
0
100
AcDbBlockEnd
  0
BLOCK
  5
CB
100
AcDbEntity
  8
0
100
AcDbBlockBegin
  2
GROUP_23
 70
       0
 10
0.0
 20
0.0
 30
0.0
  3
GROUP_23
  1

  0
CIRCLE
  5
CC
100
AcDbEntity
  8
17
  6
CONTINUOUS
 62
       7
100
AcDbCircle
 10
152.78075567
 20
-24.15902732
 30
0.0
 40
13.15902732
  0
TEXT
  5
CD
100
AcDbEntity
  8
17
 62
       7
100
AcDbText
 10
147.98075567
 20
-30.15902732
 30
0.0
 40
12.0
  1
5
 41
0.8
 72
       5
 11
157.58075567
 21
-30.15902732
 31
0.0
100
AcDbText
  0
ENDBLK
  5
CE
100
AcDbEntity
  8
0
100
AcDbBlockEnd
  0
BLOCK
  5
CF
100
AcDbEntity
  8
0
100
AcDbBlockBegin
  2
GROUP_24
 70
       0
 10
0.0
 20
0.0
 30
0.0
  3
GROUP_24
  1

  0
CIRCLE
  5
D0
100
AcDbEntity
  8
17
  6
CONTINUOUS
 62
       7
100
AcDbCircle
 10
92.78075567
 20
215.84097268
 30
0.0
 40
13.15902732
  0
TEXT
  5
D1
100
AcDbEntity
  8
17
 62
       7
100
AcDbText
 10
87.98075567
 20
209.84097268
 30
0.0
 40
12.0
  1
6
 41
0.8
 72
       5
 11
97.58075567
 21
209.84097268
 31
0.0
100
AcDbText
  0
ENDBLK
  5
D2
100
AcDbEntity
  8
0
100
AcDbBlockEnd
  0
BLOCK
  5
D3
100
AcDbEntity
  8
0
100
AcDbBlockBegin
  2
GROUP_25
 70
       0
 10
0.0
 20
0.0
 30
0.0
  3
GROUP_25
  1

  0
CIRCLE
  5
D4
100
AcDbEntity
  8
1
  6
CONTINUOUS
 62
       7
100
AcDbCircle
 10
-117.5027056
 20
309.59892738
 30
0.0
 40
13.15902732
  0
TEXT
  5
D5
100
AcDbEntity
  8
1
 62
       7
100
AcDbText
 10
-122.3027056
 20
303.59892738
 30
0.0
 40
12.0
  1
1
 41
0.8
 72
       5
 11
-112.7027056
 21
303.59892738
 31
0.0
100
AcDbText
  0
ENDBLK
  5
D6
100
AcDbEntity
  8
0
100
AcDbBlockEnd
  0
BLOCK
  5
D7
100
AcDbEntity
  8
0
100
AcDbBlockBegin
  2
GROUP_26
 70
       0
 10
0.0
 20
0.0
 30
0.0
  3
GROUP_26
  1

  0
CIRCLE
  5
D8
100
AcDbEntity
  8
1
  6
CONTINUOUS
 62
       7
100
AcDbCircle
 10
-115.52747253
 20
156.43735455
 30
0.0
 40
13.15902732
  0
TEXT
  5
D9
100
AcDbEntity
  8
1
 62
       7
100
AcDbText
 10
-120.32747253
 20
150.43735455
 30
0.0
 40
12.0
  1
2
 41
0.8
 72
       5
 11
-110.72747253
 21
150.43735455
 31
0.0
100
AcDbText
  0
ENDBLK
  5
DA
100
AcDbEntity
  8
0
100
AcDbBlockEnd
  0
ENDSEC
  0
SECTION
  2
ENTITIES
  0
LINE
  5
DB
100
AcDbEntity
  8
0
  6
CENTERX2
 62
       7
100
AcDbLine
 10
-131.27640866
 20
250.7579547
 30
0.0
 11
-210.09979963
 21
250.7579547
 31
0.0
  0
LINE
  5
DC
100
AcDbEntity
  8
0
  6
CENTERX2
 62
       7
100
AcDbLine
 10
-131.27640866
 20
-165.02062425
 30
0.0
 11
-210.09979963
 21
-165.02062425
 31
0.0
  0
LINE
  5
DD
100
AcDbEntity
  8
0
  6
CENTERX2
 62
       7
100
AcDbLine
 10
4.30072649
 20
250.7579547
 30
0.0
 11
43.83534624
 21
250.7579547
 31
0.0
  0
LINE
  5
DE
100
AcDbEntity
  8
0
  6
CENTERX2
 62
       7
100
AcDbLine
 10
4.30072649
 20
-165.02062425
 30
0.0
 11
47.64919414
 21
-165.02062425
 31
0.0
  0
ARC
  5
DF
100
AcDbEntity
  8
0
  6
CENTERX2
 62
       7
100
AcDbCircle
 10
4.30072649
 20
-130.02062425
 30
0.0
 40
35.0
100
AcDbArc
 50
180.00000307
 51
269.99999846
  0
ARC
  5
E0
100
AcDbEntity
  8
0
  6
CENTERX2
 62
       7
100
AcDbCircle
 10
4.30072649
 20
215.7579547
 30
0.0
 40
35.0
100
AcDbArc
 50
90.00000154
 51
180.00000307
  0
LINE
  5
E1
100
AcDbEntity
  8
0
  6
CENTERX2
 62
       7
100
AcDbLine
 10
-172.0027056
 20
294.80239932
 30
0.0
 11
-172.0027056
 21
-202.54639744
 31
0.0
  0
LINE
  5
E2
100
AcDbEntity
  8
0
  6
CENTERX2
 62
       7
100
AcDbLine
 10
-30.69927351
 20
-130.02062425
 30
0.0
 11
-30.69927351
 21
215.7579547
 31
0.0
  0
POINT
  5
E3
100
AcDbEntity
  8
0
  6
CONTINUOUS
 62
       7
100
AcDbPoint
 10
188.4375
 20
415.09166442
 30
0.0
  0
POINT
  5
E4
100
AcDbEntity
  8
0
  6
CONTINUOUS
 62
       7
100
AcDbPoint
 10
-44.70828488
 20
415.09166442
 30
0.0
  0
POINT
  5
E5
100
AcDbEntity
  8
0
  6
CONTINUOUS
 62
       7
100
AcDbPoint
 10
186.5625
 20
-405.26787988
 30
0.0
  0
POINT
  5
E6
100
AcDbEntity
  8
0
  6
CONTINUOUS
 62
       7
100
AcDbPoint
 10
-15.84375
 20
-405.26787988
 30
0.0
  0
POINT
  5
E7
100
AcDbEntity
  8
0
  6
CONTINUOUS
 62
       7
100
AcDbPoint
 10
63.375
 20
-359.61162988
 30
0.0
  0
POINT
  5
E8
100
AcDbEntity
  8
0
  6
CONTINUOUS
 62
       7
100
AcDbPoint
 10
-245.69818209
 20
-359.61162988
 30
0.0
  0
POINT
  5
E9
100
AcDbEntity
  8
0
  6
CONTINUOUS
 62
       7
100
AcDbPoint
 10
-106.01068209
 20
-359.61162988
 30
0.0
  0
POINT
  5
EA
100
AcDbEntity
  8
0
  6
CONTINUOUS
 62
       7
100
AcDbPoint
 10
86.73931791
 20
-359.61162988
 30
0.0
  0
LINE
  5
EB
100
AcDbEntity
  8
0
  6
CONTINUOUS
 62
       7
100
AcDbLine
 10
-315.0
 20
445.5
 30
0.0
 11
-315.0
 21
460.5
 31
0.0
  0
LINE
  5
EC
100
AcDbEntity
  8
0
  6
CONTINUOUS
 62
       7
100
AcDbLine
 10
-315.0
 20
445.5
 30
0.0
 11
-330.0
 21
445.5
 31
0.0
  0
LINE
  5
ED
100
AcDbEntity
  8
0
  6
CONTINUOUS
 62
       7
100
AcDbLine
 10
-315.0
 20
-445.5
 30
0.0
 11
-315.0
 21
-460.5
 31
0.0
  0
LINE
  5
EE
100
AcDbEntity
  8
0
  6
CONTINUOUS
 62
       7
100
AcDbLine
 10
-315.0
 20
-445.5
 30
0.0
 11
-330.0
 21
-445.5
 31
0.0
  0
LINE
  5
EF
100
AcDbEntity
  8
0
  6
CONTINUOUS
 62
       7
100
AcDbLine
 10
315.0
 20
-445.5
 30
0.0
 11
315.0
 21
-460.5
 31
0.0
  0
LINE
  5
F0
100
AcDbEntity
  8
0
  6
CONTINUOUS
 62
       7
100
AcDbLine
 10
315.0
 20
-445.5
 30
0.0
 11
330.0
 21
-445.5
 31
0.0
  0
LINE
  5
F1
100
AcDbEntity
  8
0
  6
CONTINUOUS
 62
       7
100
AcDbLine
 10
315.0
 20
445.5
 30
0.0
 11
330.0
 21
445.5
 31
0.0
  0
LINE
  5
F2
100
AcDbEntity
  8
0
  6
CONTINUOUS
 62
       7
100
AcDbLine
 10
315.0
 20
445.5
 30
0.0
 11
315.0
 21
460.5
 31
0.0
  0
POINT
  5
F3
100
AcDbEntity
  8
0
  6
CONTINUOUS
 62
       7
100
AcDbPoint
 10
63.375
 20
-344.61162988
 30
0.0
  0
POINT
  5
F4
100
AcDbEntity
  8
0
  6
CONTINUOUS
 62
       7
100
AcDbPoint
 10
-245.69818209
 20
-344.61162988
 30
0.0
  0
POINT
  5
F5
100
AcDbEntity
  8
0
  6
CONTINUOUS
 62
       7
100
AcDbPoint
 10
-106.01068209
 20
-344.61162988
 30
0.0
  0
POINT
  5
F6
100
AcDbEntity
  8
0
  6
CONTINUOUS
 62
       7
100
AcDbPoint
 10
86.73931791
 20
-344.61162988
 30
0.0
  0
POINT
  5
F7
100
AcDbEntity
  8
0
  6
CONTINUOUS
 62
       7
100
AcDbPoint
 10
63.375
 20
-329.61162988
 30
0.0
  0
POINT
  5
F8
100
AcDbEntity
  8
0
  6
CONTINUOUS
 62
       7
100
AcDbPoint
 10
-245.69818209
 20
-329.61162988
 30
0.0
  0
POINT
  5
F9
100
AcDbEntity
  8
0
  6
CONTINUOUS
 62
       7
100
AcDbPoint
 10
-106.01068209
 20
-329.61162988
 30
0.0
  0
POINT
  5
FA
100
AcDbEntity
  8
0
  6
CONTINUOUS
 62
       7
100
AcDbPoint
 10
86.73931791
 20
-329.61162988
 30
0.0
  0
POINT
  5
FB
100
AcDbEntity
  8
0
  6
CONTINUOUS
 62
       7
100
AcDbPoint
 10
63.375
 20
-314.61162988
 30
0.0
  0
POINT
  5
FC
100
AcDbEntity
  8
0
  6
CONTINUOUS
 62
       7
100
AcDbPoint
 10
-245.69818209
 20
-314.61162988
 30
0.0
  0
POINT
  5
FD
100
AcDbEntity
  8
0
  6
CONTINUOUS
 62
       7
100
AcDbPoint
 10
-106.01068209
 20
-314.61162988
 30
0.0
  0
POINT
  5
FE
100
AcDbEntity
  8
0
  6
CONTINUOUS
 62
       7
100
AcDbPoint
 10
86.73931791
 20
-314.61162988
 30
0.0
  0
POINT
  5
FF
100
AcDbEntity
  8
0
  6
CONTINUOUS
 62
       7
100
AcDbPoint
 10
63.375
 20
-299.61162988
 30
0.0
  0
POINT
  5
100
100
AcDbEntity
  8
0
  6
CONTINUOUS
 62
       7
100
AcDbPoint
 10
-245.69818209
 20
-299.61162988
 30
0.0
  0
POINT
  5
101
100
AcDbEntity
  8
0
  6
CONTINUOUS
 62
       7
100
AcDbPoint
 10
-106.01068209
 20
-299.61162988
 30
0.0
  0
POINT
  5
102
100
AcDbEntity
  8
0
  6
CONTINUOUS
 62
       7
100
AcDbPoint
 10
86.73931791
 20
-299.61162988
 30
0.0
  0
POINT
  5
103
100
AcDbEntity
  8
0
  6
CONTINUOUS
 62
       7
100
AcDbPoint
 10
63.375
 20
-284.61162988
 30
0.0
  0
POINT
  5
104
100
AcDbEntity
  8
0
  6
CONTINUOUS
 62
       7
100
AcDbPoint
 10
-245.69818209
 20
-284.61162988
 30
0.0
  0
POINT
  5
105
100
AcDbEntity
  8
0
  6
CONTINUOUS
 62
       7
100
AcDbPoint
 10
-106.01068209
 20
-284.61162988
 30
0.0
  0
POINT
  5
106
100
AcDbEntity
  8
0
  6
CONTINUOUS
 62
       7
100
AcDbPoint
 10
86.73931791
 20
-284.61162988
 30
0.0
  0
POINT
  5
107
100
AcDbEntity
  8
0
  6
CONTINUOUS
 62
       7
100
AcDbPoint
 10
63.375
 20
-269.61162988
 30
0.0
  0
POINT
  5
108
100
AcDbEntity
  8
0
  6
CONTINUOUS
 62
       7
100
AcDbPoint
 10
-245.69818209
 20
-269.61162988
 30
0.0
  0
POINT
  5
109
100
AcDbEntity
  8
0
  6
CONTINUOUS
 62
       7
100
AcDbPoint
 10
-106.01068209
 20
-269.61162988
 30
0.0
  0
POINT
  5
10A
100
AcDbEntity
  8
0
  6
CONTINUOUS
 62
       7
100
AcDbPoint
 10
86.73931791
 20
-269.61162988
 30
0.0
  0
POINT
  5
10B
100
AcDbEntity
  8
0
  6
CONTINUOUS
 62
       7
100
AcDbPoint
 10
63.375
 20
-254.61162988
 30
0.0
  0
POINT
  5
10C
100
AcDbEntity
  8
0
  6
CONTINUOUS
 62
       7
100
AcDbPoint
 10
-245.69818209
 20
-254.61162988
 30
0.0
  0
POINT
  5
10D
100
AcDbEntity
  8
0
  6
CONTINUOUS
 62
       7
100
AcDbPoint
 10
-106.01068209
 20
-254.61162988
 30
0.0
  0
POINT
  5
10E
100
AcDbEntity
  8
0
  6
CONTINUOUS
 62
       7
100
AcDbPoint
 10
86.73931791
 20
-254.61162988
 30
0.0
  0
LINE
  5
10F
100
AcDbEntity
  8
0
  6
CONTINUOUS
 62
       7
100
AcDbLine
 10
-189.0027056
 20
195.7579547
 30
0.0
 11
-155.0027056
 21
195.7579547
 31
0.0
  0
LINE
  5
110
100
AcDbEntity
  8
0
  6
CONTINUOUS
 62
       7
100
AcDbLine
 10
-189.0027056
 20
197.2579547
 30
0.0
 11
-155.0027056
 21
197.2579547
 31
0.0
  0
ARC
  5
111
100
AcDbEntity
  8
0
  6
CONTINUOUS
 62
       7
100
AcDbCircle
 10
-155.0027056
 20
196.5079547
 30
0.0
 40
0.75
100
AcDbArc
 50
269.99999846
 51
450.00000154
  0
ARC
  5
112
100
AcDbEntity
  8
0
  6
CONTINUOUS
 62
       7
100
AcDbCircle
 10
-189.0027056
 20
196.5079547
 30
0.0
 40
0.75
100
AcDbArc
 50
90.00000154
 51
269.99999846
  0
LINE
  5
113
100
AcDbEntity
  8
0
  6
CONTINUOUS
 62
       7
100
AcDbLine
 10
-155.0027056
 20
197.2579547
 30
0.0
 11
-155.0027056
 21
205.3773421
 31
0.0
  0
LINE
  5
114
100
AcDbEntity
  8
0
  6
CONTINUOUS
 62
       7
100
AcDbLine
 10
-189.0027056
 20
197.2579547
 30
0.0
 11
-189.0027056
 21
205.3773421
 31
0.0
  0
LINE
  5
115
100
AcDbEntity
  8
0
  6
CONTINUOUS
 62
       7
100
AcDbLine
 10
-147.5027056
 20
257.68156162
 30
0.0
 11
-147.5027056
 21
243.83434777
 31
0.0
  0
LINE
  5
116
100
AcDbEntity
  8
0
  6
CONTINUOUS
 62
       7
100
AcDbLine
 10
-196.5027056
 20
257.68156162
 30
0.0
 11
-196.5027056
 21
243.83434777
 31
0.0
  0
LINE
  5
117
100
AcDbEntity
  8
0
  6
CONTINUOUS
 62
       7
100
AcDbLine
 10
-178.25668612
 20
275.43738055
 30
0.0
 11
-190.24872508
 21
268.51377363
 31
0.0
  0
LINE
  5
118
100
AcDbEntity
  8
0
  6
CONTINUOUS
 62
       7
100
AcDbLine
 10
-153.75668612
 20
268.51377363
 30
0.0
 11
-165.74872508
 21
275.43738055
 31
0.0
  0
ARC
  5
119
100
AcDbEntity
  8
0
  6
CONTINUOUS
 62
       7
100
AcDbCircle
 10
-172.0027056
 20
250.7579547
 30
0.0
 40
25.45950378
100
AcDbArc
 50
15.78009063
 51
44.21991039
  0
ARC
  5
11A
100
AcDbEntity
  8
0
  6
CONTINUOUS
 62
       7
100
AcDbCircle
 10
-172.0027056
 20
250.7579547
 30
0.0
 40
25.45950378
100
AcDbArc
 50
135.78009268
 51
164.21991244
  0
ARC
  5
11B
100
AcDbEntity
  8
0
  6
CONTINUOUS
 62
       7
100
AcDbCircle
 10
-172.0027056
 20
250.7579547
 30
0.0
 40
25.45950378
100
AcDbArc
 50
75.78009166
 51
104.21991141
  0
ARC
  5
11C
100
AcDbEntity
  8
0
  6
CONTINUOUS
 62
       7
100
AcDbCircle
 10
-172.0027056
 20
250.7579547
 30
0.0
 40
24.0
100
AcDbArc
 50
342.46237065
 51
557.53762628
  0
ARC
  5
11D
100
AcDbEntity
  8
0
  6
CONTINUOUS
 62
       7
100
AcDbCircle
 10
-172.0027056
 20
250.7579547
 30
0.0
 40
25.45950378
100
AcDbArc
 50
195.78008756
 51
215.34557131
  0
ARC
  5
11E
100
AcDbEntity
  8
0
  6
CONTINUOUS
 62
       7
100
AcDbCircle
 10
-172.0027056
 20
250.7579547
 30
0.0
 40
25.45950378
100
AcDbArc
 50
324.65442562
 51
344.21990937
  0
ARC
  5
11F
100
AcDbEntity
  8
0
  6
CONTINUOUS
 62
       7
100
AcDbCircle
 10
-315.6027056
 20
205.3773421
 30
0.0
 40
126.6
100
AcDbArc
 50
360.0
 51
377.53762935
  0
ARC
  5
120
100
AcDbEntity
  8
0
  6
CONTINUOUS
 62
       7
100
AcDbCircle
 10
-28.4027056
 20
205.3773421
 30
0.0
 40
126.6
100
AcDbArc
 50
162.46237372
 51
180.00000307
  0
LINE
  5
121
100
AcDbEntity
  8
0
  6
CONTINUOUS
 62
       7
100
AcDbLine
 10
34.30072649
 20
250.7579547
 30
0.0
 11
34.30072649
 21
226.7579547
 31
0.0
  0
ARC
  5
122
100
AcDbEntity
  8
0
  6
CONTINUOUS
 62
       7
100
AcDbCircle
 10
26.80072649
 20
245.29845091
 30
0.0
 40
20.0
100
AcDbArc
 50
247.97568525
 51
292.02431168
  0
ARC
  5
123
100
AcDbEntity
  8
0
  6
CONTINUOUS
 62
       7
100
AcDbCircle
 10
26.68004315
 20
249.65543957
 30
0.0
 40
5.81389943
100
AcDbArc
 50
216.68286969
 51
311.00596865
  0
ARC
  5
124
100
AcDbEntity
  8
0
  6
CONTINUOUS
 62
       7
100
AcDbCircle
 10
27.98594128
 20
250.6282189
 30
0.0
 40
7.4422942
100
AcDbArc
 50
130.89475313
 51
216.68286969
  0
ARC
  5
125
100
AcDbEntity
  8
0
  6
CONTINUOUS
 62
       7
100
AcDbCircle
 10
26.92140984
 20
251.86046983
 30
0.0
 40
5.81389943
100
AcDbArc
 50
36.79968362
 51
130.91471939
  0
ARC
  5
126
100
AcDbEntity
  8
0
  6
CONTINUOUS
 62
       7
100
AcDbCircle
 10
25.61551171
 20
250.8876905
 30
0.0
 40
7.4422942
100
AcDbArc
 50
310.96603615
 51
396.77412509
  0
ARC
  5
127
100
AcDbEntity
  8
0
  6
CONTINUOUS
 62
       7
100
AcDbCircle
 10
22.82156178
 20
229.53822104
 30
0.0
 40
2.27083529
100
AcDbArc
 50
123.27732402
 51
236.90518064
  0
ARC
  5
128
100
AcDbEntity
  8
0
  6
CONTINUOUS
 62
       7
100
AcDbCircle
 10
26.80072649
 20
223.47529345
 30
0.0
 40
9.52292759
100
AcDbArc
 50
56.74443906
 51
123.27732402
  0
ARC
  5
129
100
AcDbEntity
  8
0
  6
CONTINUOUS
 62
       7
100
AcDbCircle
 10
30.77989121
 20
229.53822104
 30
0.0
 40
2.27083529
100
AcDbArc
 50
303.659991
 51
416.81393138
  0
ARC
  5
12A
100
AcDbEntity
  8
0
  6
CONTINUOUS
 62
       7
100
AcDbCircle
 10
26.80072649
 20
235.60114863
 30
0.0
 40
9.52292759
100
AcDbArc
 50
236.76619598
 51
303.36857328
  0
LINE
  5
12B
100
AcDbEntity
  8
0
  6
CONTINUOUS
 62
       7
100
AcDbLine
 10
19.30072649
 20
274.7579547
 30
0.0
 11
19.30072649
 21
226.7579547
 31
0.0
  0
LINE
  5
12C
100
AcDbEntity
  8
0
  6
CONTINUOUS
 62
       7
100
AcDbLine
 10
34.30072649
 20
250.7579547
 30
0.0
 11
34.30072649
 21
274.7579547
 31
0.0
  0
ARC
  5
12D
100
AcDbEntity
  8
0
  6
CONTINUOUS
 62
       7
100
AcDbCircle
 10
26.80072649
 20
256.21745848
 30
0.0
 40
20.0
100
AcDbArc
 50
67.97568832
 51
112.02431475
  0
ARC
  5
12E
100
AcDbEntity
  8
0
  6
CONTINUOUS
 62
       7
100
AcDbCircle
 10
22.82156178
 20
271.97768835
 30
0.0
 40
2.27083529
100
AcDbArc
 50
123.09481936
 51
236.72267598
  0
ARC
  5
12F
100
AcDbEntity
  8
0
  6
CONTINUOUS
 62
       7
100
AcDbCircle
 10
26.80072649
 20
278.04061594
 30
0.0
 40
9.52292759
100
AcDbArc
 50
236.72267598
 51
303.25556094
  0
ARC
  5
130
100
AcDbEntity
  8
0
  6
CONTINUOUS
 62
       7
100
AcDbCircle
 10
30.77989121
 20
271.97768835
 30
0.0
 40
2.27083529
100
AcDbArc
 50
303.18606862
 51
416.340009
  0
ARC
  5
131
100
AcDbEntity
  8
0
  6
CONTINUOUS
 62
       7
100
AcDbCircle
 10
26.80072649
 20
265.91476076
 30
0.0
 40
9.52292759
100
AcDbArc
 50
56.63142672
 51
123.23380402
  0
LINE
  5
132
100
AcDbEntity
  8
0
  6
CONTINUOUS
 62
       7
100
AcDbLine
 10
-47.69927351
 20
195.7579547
 30
0.0
 11
-13.69927351
 21
195.7579547
 31
0.0
  0
LINE
  5
133
100
AcDbEntity
  8
0
  6
CONTINUOUS
 62
       7
100
AcDbLine
 10
-47.69927351
 20
197.2579547
 30
0.0
 11
-13.69927351
 21
197.2579547
 31
0.0
  0
ARC
  5
134
100
AcDbEntity
  8
0
  6
CONTINUOUS
 62
       7
100
AcDbCircle
 10
-13.69927351
 20
196.5079547
 30
0.0
 40
0.75
100
AcDbArc
 50
269.99999846
 51
450.00000154
  0
ARC
  5
135
100
AcDbEntity
  8
0
  6
CONTINUOUS
 62
       7
100
AcDbCircle
 10
-47.69927351
 20
196.5079547
 30
0.0
 40
0.75
100
AcDbArc
 50
90.00000154
 51
269.99999846
  0
LINE
  5
136
100
AcDbEntity
  8
0
  6
CONTINUOUS
 62
       7
100
AcDbLine
 10
-47.69927351
 20
197.2579547
 30
0.0
 11
-47.69927351
 21
208.2579547
 31
0.0
  0
LINE
  5
137
100
AcDbEntity
  8
0
  6
CONTINUOUS
 62
       7
100
AcDbLine
 10
-13.69927351
 20
197.2579547
 30
0.0
 11
-13.69927351
 21
200.2579547
 31
0.0
  0
LINE
  5
138
100
AcDbEntity
  8
0
  6
CONTINUOUS
 62
       7
100
AcDbLine
 10
12.80072649
 20
226.7579547
 30
0.0
 11
19.30072649
 21
226.7579547
 31
0.0
  0
LINE
  5
139
100
AcDbEntity
  8
0
  6
CONTINUOUS
 62
       7
100
AcDbLine
 10
19.30072649
 20
274.7579547
 30
0.0
 11
18.80072649
 21
274.7579547
 31
0.0
  0
ARC
  5
13A
100
AcDbEntity
  8
0
  6
CONTINUOUS
 62
       7
100
AcDbCircle
 10
12.80072649
 20
200.2579547
 30
0.0
 40
26.5
100
AcDbArc
 50
90.00000154
 51
180.00000307
  0
ARC
  5
13B
100
AcDbEntity
  8
0
  6
CONTINUOUS
 62
       7
100
AcDbCircle
 10
18.80072649
 20
208.2579547
 30
0.0
 40
66.5
100
AcDbArc
 50
90.00000154
 51
180.00000307
  0
POINT
  5
13C
100
AcDbEntity
  8
0
  6
CONTINUOUS
 62
       7
100
AcDbPoint
 10
34.30072649
 20
250.7579547
 30
0.0
  0
LINE
  5
13D
100
AcDbEntity
  8
0
  6
CONTINUOUS
 62
       7
100
AcDbLine
 10
-189.0027056
 20
-110.02062425
 30
0.0
 11
-155.0027056
 21
-110.02062425
 31
0.0
  0
LINE
  5
13E
100
AcDbEntity
  8
0
  6
CONTINUOUS
 62
       7
100
AcDbLine
 10
-189.0027056
 20
-111.52062425
 30
0.0
 11
-155.0027056
 21
-111.52062425
 31
0.0
  0
ARC
  5
13F
100
AcDbEntity
  8
0
  6
CONTINUOUS
 62
       7
100
AcDbCircle
 10
-155.0027056
 20
-110.77062425
 30
0.0
 40
0.75
100
AcDbArc
 50
269.99999846
 51
450.00000154
  0
ARC
  5
140
100
AcDbEntity
  8
0
  6
CONTINUOUS
 62
       7
100
AcDbCircle
 10
-189.0027056
 20
-110.77062425
 30
0.0
 40
0.75
100
AcDbArc
 50
90.00000154
 51
269.99999846
  0
LINE
  5
141
100
AcDbEntity
  8
0
  6
CONTINUOUS
 62
       7
100
AcDbLine
 10
-155.0027056
 20
-111.52062425
 30
0.0
 11
-155.0027056
 21
-119.64001165
 31
0.0
  0
LINE
  5
142
100
AcDbEntity
  8
0
  6
CONTINUOUS
 62
       7
100
AcDbLine
 10
-189.0027056
 20
-111.52062425
 30
0.0
 11
-189.0027056
 21
-119.64001165
 31
0.0
  0
LINE
  5
143
100
AcDbEntity
  8
0
  6
CONTINUOUS
 62
       7
100
AcDbLine
 10
-147.5027056
 20
-171.94423117
 30
0.0
 11
-147.5027056
 21
-158.09701732
 31
0.0
  0
LINE
  5
144
100
AcDbEntity
  8
0
  6
CONTINUOUS
 62
       7
100
AcDbLine
 10
-196.5027056
 20
-171.94423117
 30
0.0
 11
-196.5027056
 21
-158.09701732
 31
0.0
  0
LINE
  5
145
100
AcDbEntity
  8
0
  6
CONTINUOUS
 62
       7
100
AcDbLine
 10
-178.25668612
 20
-189.7000501
 30
0.0
 11
-190.24872508
 21
-182.77644318
 31
0.0
  0
LINE
  5
146
100
AcDbEntity
  8
0
  6
CONTINUOUS
 62
       7
100
AcDbLine
 10
-153.75668612
 20
-182.77644318
 30
0.0
 11
-165.74872508
 21
-189.7000501
 31
0.0
  0
ARC
  5
147
100
AcDbEntity
  8
0
  6
CONTINUOUS
 62
       7
100
AcDbCircle
 10
-172.0027056
 20
-165.02062425
 30
0.0
 40
25.45950378
100
AcDbArc
 50
315.78008961
 51
344.21990937
  0
ARC
  5
148
100
AcDbEntity
  8
0
  6
CONTINUOUS
 62
       7
100
AcDbCircle
 10
-172.0027056
 20
-165.02062425
 30
0.0
 40
25.45950378
100
AcDbArc
 50
195.78008756
 51
224.21990732
  0
ARC
  5
149
100
AcDbEntity
  8
0
  6
CONTINUOUS
 62
       7
100
AcDbCircle
 10
-172.0027056
 20
-165.02062425
 30
0.0
 40
25.45950378
100
AcDbArc
 50
255.78008859
 51
284.21990834
  0
ARC
  5
14A
100
AcDbEntity
  8
0
  6
CONTINUOUS
 62
       7
100
AcDbCircle
 10
-172.0027056
 20
-165.02062425
 30
0.0
 40
24.0
100
AcDbArc
 50
162.46237372
 51
377.53762935
  0
ARC
  5
14B
100
AcDbEntity
  8
0
  6
CONTINUOUS
 62
       7
100
AcDbCircle
 10
-172.0027056
 20
-165.02062425
 30
0.0
 40
25.45950378
100
AcDbArc
 50
144.65442869
 51
164.21991244
  0
ARC
  5
14C
100
AcDbEntity
  8
0
  6
CONTINUOUS
 62
       7
100
AcDbCircle
 10
-172.0027056
 20
-165.02062425
 30
0.0
 40
25.45950378
100
AcDbArc
 50
15.78009063
 51
35.34557438
  0
ARC
  5
14D
100
AcDbEntity
  8
0
  6
CONTINUOUS
 62
       7
100
AcDbCircle
 10
-315.6027056
 20
-119.64001165
 30
0.0
 40
126.6
100
AcDbArc
 50
342.46237065
 51
360.0
  0
ARC
  5
14E
100
AcDbEntity
  8
0
  6
CONTINUOUS
 62
       7
100
AcDbCircle
 10
-28.4027056
 20
-119.64001165
 30
0.0
 40
126.6
100
AcDbArc
 50
180.00000307
 51
197.53762628
  0
LINE
  5
14F
100
AcDbEntity
  8
0
  6
CONTINUOUS
 62
       7
100
AcDbLine
 10
34.30072649
 20
-165.02062425
 30
0.0
 11
34.30072649
 21
-141.02062425
 31
0.0
  0
ARC
  5
150
100
AcDbEntity
  8
0
  6
CONTINUOUS
 62
       7
100
AcDbCircle
 10
26.80072649
 20
-159.56112047
 30
0.0
 40
20.0
100
AcDbArc
 50
67.97568832
 51
112.02431475
  0
ARC
  5
151
100
AcDbEntity
  8
0
  6
CONTINUOUS
 62
       7
100
AcDbCircle
 10
26.68004315
 20
-163.91810912
 30
0.0
 40
5.81389943
100
AcDbArc
 50
48.99403135
 51
143.31713031
  0
ARC
  5
152
100
AcDbEntity
  8
0
  6
CONTINUOUS
 62
       7
100
AcDbCircle
 10
27.98594128
 20
-164.89088845
 30
0.0
 40
7.4422942
100
AcDbArc
 50
143.31713031
 51
229.10524687
  0
ARC
  5
153
100
AcDbEntity
  8
0
  6
CONTINUOUS
 62
       7
100
AcDbCircle
 10
26.92140984
 20
-166.12313938
 30
0.0
 40
5.81389943
100
AcDbArc
 50
229.08528061
 51
323.20031638
  0
ARC
  5
154
100
AcDbEntity
  8
0
  6
CONTINUOUS
 62
       7
100
AcDbCircle
 10
25.61551171
 20
-165.15036005
 30
0.0
 40
7.4422942
100
AcDbArc
 50
323.22587491
 51
409.03396385
  0
ARC
  5
155
100
AcDbEntity
  8
0
  6
CONTINUOUS
 62
       7
100
AcDbCircle
 10
22.82156178
 20
-143.80089059
 30
0.0
 40
2.27083529
100
AcDbArc
 50
123.09481936
 51
236.72267598
  0
ARC
  5
156
100
AcDbEntity
  8
0
  6
CONTINUOUS
 62
       7
100
AcDbCircle
 10
26.80072649
 20
-137.737963
 30
0.0
 40
9.52292759
100
AcDbArc
 50
236.72267598
 51
303.25556094
  0
ARC
  5
157
100
AcDbEntity
  8
0
  6
CONTINUOUS
 62
       7
100
AcDbCircle
 10
30.77989121
 20
-143.80089059
 30
0.0
 40
2.27083529
100
AcDbArc
 50
303.18606862
 51
416.340009
  0
ARC
  5
158
100
AcDbEntity
  8
0
  6
CONTINUOUS
 62
       7
100
AcDbCircle
 10
26.80072649
 20
-149.86381818
 30
0.0
 40
9.52292759
100
AcDbArc
 50
56.63142672
 51
123.23380402
  0
LINE
  5
159
100
AcDbEntity
  8
0
  6
CONTINUOUS
 62
       7
100
AcDbLine
 10
19.30072649
 20
-189.02062425
 30
0.0
 11
19.30072649
 21
-141.02062425
 31
0.0
  0
LINE
  5
15A
100
AcDbEntity
  8
0
  6
CONTINUOUS
 62
       7
100
AcDbLine
 10
34.30072649
 20
-165.02062425
 30
0.0
 11
34.30072649
 21
-189.02062425
 31
0.0
  0
ARC
  5
15B
100
AcDbEntity
  8
0
  6
CONTINUOUS
 62
       7
100
AcDbCircle
 10
26.80072649
 20
-170.48012803
 30
0.0
 40
20.0
100
AcDbArc
 50
247.97568525
 51
292.02431168
  0
ARC
  5
15C
100
AcDbEntity
  8
0
  6
CONTINUOUS
 62
       7
100
AcDbCircle
 10
22.82156178
 20
-186.24035791
 30
0.0
 40
2.27083529
100
AcDbArc
 50
123.27732402
 51
236.90518064
  0
ARC
  5
15D
100
AcDbEntity
  8
0
  6
CONTINUOUS
 62
       7
100
AcDbCircle
 10
26.80072649
 20
-192.3032855
 30
0.0
 40
9.52292759
100
AcDbArc
 50
56.74443906
 51
123.27732402
  0
ARC
  5
15E
100
AcDbEntity
  8
0
  6
CONTINUOUS
 62
       7
100
AcDbCircle
 10
30.77989121
 20
-186.24035791
 30
0.0
 40
2.27083529
100
AcDbArc
 50
303.659991
 51
416.81393138
  0
ARC
  5
15F
100
AcDbEntity
  8
0
  6
CONTINUOUS
 62
       7
100
AcDbCircle
 10
26.80072649
 20
-180.17743032
 30
0.0
 40
9.52292759
100
AcDbArc
 50
236.76619598
 51
303.36857328
  0
LINE
  5
160
100
AcDbEntity
  8
0
  6
CONTINUOUS
 62
       7
100
AcDbLine
 10
-47.69927351
 20
-110.02062425
 30
0.0
 11
-13.69927351
 21
-110.02062425
 31
0.0
  0
LINE
  5
161
100
AcDbEntity
  8
0
  6
CONTINUOUS
 62
       7
100
AcDbLine
 10
-47.69927351
 20
-111.52062425
 30
0.0
 11
-13.69927351
 21
-111.52062425
 31
0.0
  0
ARC
  5
162
100
AcDbEntity
  8
0
  6
CONTINUOUS
 62
       7
100
AcDbCircle
 10
-13.69927351
 20
-110.77062425
 30
0.0
 40
0.75
100
AcDbArc
 50
269.99999846
 51
450.00000154
  0
ARC
  5
163
100
AcDbEntity
  8
0
  6
CONTINUOUS
 62
       7
100
AcDbCircle
 10
-47.69927351
 20
-110.77062425
 30
0.0
 40
0.75
100
AcDbArc
 50
90.00000154
 51
269.99999846
  0
LINE
  5
164
100
AcDbEntity
  8
0
  6
CONTINUOUS
 62
       7
100
AcDbLine
 10
-47.69927351
 20
-111.52062425
 30
0.0
 11
-47.69927351
 21
-122.52062425
 31
0.0
  0
LINE
  5
165
100
AcDbEntity
  8
0
  6
CONTINUOUS
 62
       7
100
AcDbLine
 10
-13.69927351
 20
-111.52062425
 30
0.0
 11
-13.69927351
 21
-114.52062425
 31
0.0
  0
LINE
  5
166
100
AcDbEntity
  8
0
  6
CONTINUOUS
 62
       7
100
AcDbLine
 10
12.80072649
 20
-141.02062425
 30
0.0
 11
19.30072649
 21
-141.02062425
 31
0.0
  0
LINE
  5
167
100
AcDbEntity
  8
0
  6
CONTINUOUS
 62
       7
100
AcDbLine
 10
19.30072649
 20
-189.02062425
 30
0.0
 11
18.80072649
 21
-189.02062425
 31
0.0
  0
ARC
  5
168
100
AcDbEntity
  8
0
  6
CONTINUOUS
 62
       7
100
AcDbCircle
 10
12.80072649
 20
-114.52062425
 30
0.0
 40
26.5
100
AcDbArc
 50
180.00000307
 51
269.99999846
  0
ARC
  5
169
100
AcDbEntity
  8
0
  6
CONTINUOUS
 62
       7
100
AcDbCircle
 10
18.80072649
 20
-122.52062425
 30
0.0
 40
66.5
100
AcDbArc
 50
180.00000307
 51
269.99999846
  0
POINT
  5
16A
100
AcDbEntity
  8
0
  6
CONTINUOUS
 62
       7
100
AcDbPoint
 10
34.30072649
 20
-165.02062425
 30
0.0
  0
LINE
  5
16B
100
AcDbEntity
  8
0
  6
CONTINUOUS
 62
       7
100
AcDbLine
 10
-189.0027056
 20
-110.02062425
 30
0.0
 11
-189.0027056
 21
37.05962481
 31
0.0
  0
LINE
  5
16C
100
AcDbEntity
  8
0
  6
CONTINUOUS
 62
       7
100
AcDbLine
 10
-189.0027056
 20
56.25187037
 30
0.0
 11
-189.0027056
 21
195.7579547
 31
0.0
  0
LINE
  5
16D
100
AcDbEntity
  8
0
  6
CONTINUOUS
 62
       7
100
AcDbLine
 10
-155.0027056
 20
-110.02062425
 30
0.0
 11
-155.0027056
 21
37.05962481
 31
0.0
  0
LINE
  5
16E
100
AcDbEntity
  8
0
  6
CONTINUOUS
 62
       7
100
AcDbLine
 10
-155.0027056
 20
56.25187037
 30
0.0
 11
-155.0027056
 21
195.7579547
 31
0.0
  0
LINE
  5
16F
100
AcDbEntity
  8
0
  6
CONTINUOUS
 62
       7
100
AcDbLine
 10
-47.69927351
 20
-110.02062425
 30
0.0
 11
-47.69927351
 21
37.05962481
 31
0.0
  0
LINE
  5
170
100
AcDbEntity
  8
0
  6
CONTINUOUS
 62
       7
100
AcDbLine
 10
-47.69927351
 20
56.25187037
 30
0.0
 11
-47.69927351
 21
195.7579547
 31
0.0
  0
LINE
  5
171
100
AcDbEntity
  8
0
  6
CONTINUOUS
 62
       7
100
AcDbLine
 10
-13.69927351
 20
-110.02062425
 30
0.0
 11
-13.69927351
 21
37.05962481
 31
0.0
  0
LINE
  5
172
100
AcDbEntity
  8
0
  6
CONTINUOUS
 62
       7
100
AcDbLine
 10
-13.69927351
 20
56.25187037
 30
0.0
 11
-13.69927351
 21
195.7579547
 31
0.0
  0
POINT
  5
173
100
AcDbEntity
  8
0
  6
CONTINUOUS
 62
       7
100
AcDbPoint
 10
-163.5027056
 20
56.25187037
 30
0.0
  0
POINT
  5
174
100
AcDbEntity
  8
0
  6
CONTINUOUS
 62
       7
100
AcDbPoint
 10
-180.5027056
 20
56.25187037
 30
0.0
  0
POINT
  5
175
100
AcDbEntity
  8
0
  6
CONTINUOUS
 62
       7
100
AcDbPoint
 10
-163.5027056
 20
37.05962481
 30
0.0
  0
POINT
  5
176
100
AcDbEntity
  8
0
  6
CONTINUOUS
 62
       7
100
AcDbPoint
 10
-180.5027056
 20
37.05962481
 30
0.0
  0
POINT
  5
177
100
AcDbEntity
  8
0
  6
CONTINUOUS
 62
       7
100
AcDbPoint
 10
-22.19927351
 20
56.25187037
 30
0.0
  0
POINT
  5
178
100
AcDbEntity
  8
0
  6
CONTINUOUS
 62
       7
100
AcDbPoint
 10
-39.19927351
 20
56.25187037
 30
0.0
  0
POINT
  5
179
100
AcDbEntity
  8
0
  6
CONTINUOUS
 62
       7
100
AcDbPoint
 10
-22.19927351
 20
37.05962481
 30
0.0
  0
POINT
  5
17A
100
AcDbEntity
  8
0
  6
CONTINUOUS
 62
       7
100
AcDbPoint
 10
-39.19927351
 20
37.05962481
 30
0.0
  0
LINE
  5
17B
100
AcDbEntity
  8
0
  6
CONTINUOUS
 62
       7
100
AcDbLine
 10
93.75
 20
429.95087012
 30
0.0
 11
283.125
 21
429.95087012
 31
0.0
  0
LINE
  5
17C
100
AcDbEntity
  8
0
  6
CONTINUOUS
 62
       7
100
AcDbLine
 10
93.75
 20
429.95087012
 30
0.0
 11
93.75
 21
400.23245871
 31
0.0
  0
LINE
  5
17D
100
AcDbEntity
  8
0
  6
CONTINUOUS
 62
       7
100
AcDbLine
 10
283.125
 20
429.95087012
 30
0.0
 11
283.125
 21
400.23245871
 31
0.0
  0
LINE
  5
17E
100
AcDbEntity
  8
0
  6
CONTINUOUS
 62
       7
100
AcDbLine
 10
-252.375
 20
-382.11162988
 30
0.0
 11
-252.375
 21
-247.11162988
 31
0.0
  0
LINE
  5
17F
100
AcDbEntity
  8
0
  6
CONTINUOUS
 62
       7
100
AcDbLine
 10
-112.6875
 20
-382.11162988
 30
0.0
 11
-112.6875
 21
-247.11162988
 31
0.0
  0
LINE
  5
180
100
AcDbEntity
  8
0
  6
CONTINUOUS
 62
       7
100
AcDbLine
 10
46.6875
 20
-382.11162988
 30
0.0
 11
46.6875
 21
-247.11162988
 31
0.0
  0
LINE
  5
181
100
AcDbEntity
  8
0
  6
CONTINUOUS
 62
       7
100
AcDbLine
 10
80.0625
 20
-382.11162988
 30
0.0
 11
80.0625
 21
-247.11162988
 31
0.0
  0
LINE
  5
182
100
AcDbEntity
  8
0
  6
CONTINUOUS
 62
       7
100
AcDbLine
 10
93.0
 20
-423.36162988
 30
0.0
 11
93.0
 21
-387.17412988
 31
0.0
  0
LINE
  5
183
100
AcDbEntity
  8
0
  6
CONTINUOUS
 62
       7
100
AcDbLine
 10
78.0
 20
-423.36162988
 30
0.0
 11
78.0
 21
-387.17412988
 31
0.0
  0
LINE
  5
184
100
AcDbEntity
  8
0
  6
CONTINUOUS
 62
       7
100
AcDbLine
 10
-109.6875
 20
-423.36162988
 30
0.0
 11
-109.6875
 21
-387.17412988
 31
0.0
  0
LINE
  5
185
100
AcDbEntity
  8
0
  6
CONTINUOUS
 62
       7
100
AcDbLine
 10
-124.6875
 20
-423.36162988
 30
0.0
 11
-124.6875
 21
-387.17412988
 31
0.0
  0
LINE
  5
186
100
AcDbEntity
  8
0
  6
CONTINUOUS
 62
       7
100
AcDbLine
 10
-273.1875
 20
-367.11162988
 30
0.0
 11
280.125
 21
-367.11162988
 31
0.0
  0
LINE
  5
187
100
AcDbEntity
  8
0
  6
CONTINUOUS
 62
       7
100
AcDbLine
 10
-273.1875
 20
-352.11162988
 30
0.0
 11
280.125
 21
-352.11162988
 31
0.0
  0
LINE
  5
188
100
AcDbEntity
  8
0
  6
CONTINUOUS
 62
       7
100
AcDbLine
 10
-273.1875
 20
-337.11162988
 30
0.0
 11
280.125
 21
-337.11162988
 31
0.0
  0
LINE
  5
189
100
AcDbEntity
  8
0
  6
CONTINUOUS
 62
       7
100
AcDbLine
 10
-273.1875
 20
-322.11162988
 30
0.0
 11
280.125
 21
-322.11162988
 31
0.0
  0
LINE
  5
18A
100
AcDbEntity
  8
0
  6
CONTINUOUS
 62
       7
100
AcDbLine
 10
-273.1875
 20
-307.11162988
 30
0.0
 11
280.125
 21
-307.11162988
 31
0.0
  0
LINE
  5
18B
100
AcDbEntity
  8
0
  6
CONTINUOUS
 62
       7
100
AcDbLine
 10
-273.1875
 20
-292.11162988
 30
0.0
 11
280.125
 21
-292.11162988
 31
0.0
  0
LINE
  5
18C
100
AcDbEntity
  8
0
  6
CONTINUOUS
 62
       7
100
AcDbLine
 10
-273.1875
 20
-277.11162988
 30
0.0
 11
280.125
 21
-277.11162988
 31
0.0
  0
LINE
  5
18D
100
AcDbEntity
  8
0
  6
CONTINUOUS
 62
       7
100
AcDbLine
 10
-273.1875
 20
-262.11162988
 30
0.0
 11
280.125
 21
-262.11162988
 31
0.0
  0
LINE
  5
18E
100
AcDbEntity
  8
0
  6
CONTINUOUS
 62
       7
100
AcDbLine
 10
-169.9125
 20
-415.67412988
 30
0.0
 11
-168.225
 21
-410.98662988
 31
0.0
  0
LINE
  5
18F
100
AcDbEntity
  8
0
  6
CONTINUOUS
 62
       7
100
AcDbLine
 10
-182.4
 20
-415.67412988
 30
0.0
 11
-179.775
 21
-408.54912988
 31
0.0
  0
LINE
  5
190
100
AcDbEntity
  8
0
  6
CONTINUOUS
 62
       7
100
AcDbLine
 10
-184.8375
 20
-405.92412988
 30
0.0
 11
-185.775
 21
-408.54912988
 31
0.0
  0
LINE
  5
191
100
AcDbEntity
  8
0
  6
CONTINUOUS
 62
       7
100
AcDbLine
 10
-176.2125
 20
-415.67412988
 30
0.0
 11
-173.4
 21
-407.42412988
 31
0.0
  0
LINE
  5
192
100
AcDbEntity
  8
0
  6
CONTINUOUS
 62
       7
100
AcDbLine
 10
-136.875
 20
-415.67412988
 30
0.0
 11
-140.0625
 21
-410.42412988
 31
0.0
  0
LINE
  5
193
100
AcDbEntity
  8
0
  6
CONTINUOUS
 62
       7
100
AcDbLine
 10
-184.8375
 20
-405.92412988
 30
0.0
 11
-181.275
 21
-405.92412988
 31
0.0
  0
LINE
  5
194
100
AcDbEntity
  8
0
  6
CONTINUOUS
 62
       7
100
AcDbLine
 10
-165.7875
 20
-404.23662988
 30
0.0
 11
-159.6
 21
-404.23662988
 31
0.0
  0
LINE
  5
195
100
AcDbEntity
  8
0
  6
CONTINUOUS
 62
       7
100
AcDbLine
 10
-152.475
 20
-403.67412988
 30
0.0
 11
-150.6
 21
-403.67412988
 31
0.0
  0
LINE
  5
196
100
AcDbEntity
  8
0
  6
CONTINUOUS
 62
       7
100
AcDbLine
 10
-164.475
 20
-400.86162988
 30
0.0
 11
-165.7875
 21
-404.23662988
 31
0.0
  0
LINE
  5
197
100
AcDbEntity
  8
0
  6
CONTINUOUS
 62
       7
100
AcDbLine
 10
-158.475
 20
-400.86162988
 30
0.0
 11
-159.6
 21
-404.23662988
 31
0.0
  0
LINE
  5
198
100
AcDbEntity
  8
0
  6
CONTINUOUS
 62
       7
100
AcDbLine
 10
-182.4
 20
-415.67412988
 30
0.0
 11
-176.2125
 21
-415.67412988
 31
0.0
  0
LINE
  5
199
100
AcDbEntity
  8
0
  6
CONTINUOUS
 62
       7
100
AcDbLine
 10
-172.8375
 20
-400.86162988
 30
0.0
 11
-165.9
 21
-400.86162988
 31
0.0
  0
LINE
  5
19A
100
AcDbEntity
  8
0
  6
CONTINUOUS
 62
       7
100
AcDbLine
 10
-142.25272308
 20
-404.23662988
 30
0.0
 11
-148.875
 21
-404.23662988
 31
0.0
  0
LINE
  5
19B
100
AcDbEntity
  8
0
  6
CONTINUOUS
 62
       7
100
AcDbLine
 10
-135.0
 20
-400.86162988
 30
0.0
 11
-147.75
 21
-400.86162988
 31
0.0
  0
LINE
  5
19C
100
AcDbEntity
  8
0
  6
CONTINUOUS
 62
       7
100
AcDbLine
 10
-185.775
 20
-408.54912988
 30
0.0
 11
-179.775
 21
-408.54912988
 31
0.0
  0
LINE
  5
19D
100
AcDbEntity
  8
0
  6
CONTINUOUS
 62
       7
100
AcDbLine
 10
-169.9125
 20
-415.67412988
 30
0.0
 11
-159.975
 21
-415.67412988
 31
0.0
  0
LINE
  5
19E
100
AcDbEntity
  8
0
  6
CONTINUOUS
 62
       7
100
AcDbLine
 10
-168.225
 20
-410.98662988
 30
0.0
 11
-159.225
 21
-410.98662988
 31
0.0
  0
LINE
  5
19F
100
AcDbEntity
  8
0
  6
CONTINUOUS
 62
       7
100
AcDbLine
 10
-136.875
 20
-415.67412988
 30
0.0
 11
-141.5625
 21
-415.67412988
 31
0.0
  0
LINE
  5
1A0
100
AcDbEntity
  8
0
  6
CONTINUOUS
 62
       7
100
AcDbLine
 10
-148.875
 20
-404.23662988
 30
0.0
 11
-147.75
 21
-400.86162988
 31
0.0
  0
LINE
  5
1A1
100
AcDbEntity
  8
0
  6
CONTINUOUS
 62
       7
100
AcDbLine
 10
-214.0875
 20
-400.86162988
 30
0.0
 11
-217.275
 21
-409.86162988
 31
0.0
  0
LINE
  5
1A2
100
AcDbEntity
  8
0
  6
CONTINUOUS
 62
       7
100
AcDbLine
 10
-217.275
 20
-409.86162988
 30
0.0
 11
-212.9625
 21
-409.86162988
 31
0.0
  0
LINE
  5
1A3
100
AcDbEntity
  8
0
  6
CONTINUOUS
 62
       7
100
AcDbLine
 10
-212.9625
 20
-409.86162988
 30
0.0
 11
-209.5875
 21
-400.86162988
 31
0.0
  0
LINE
  5
1A4
100
AcDbEntity
  8
0
  6
CONTINUOUS
 62
       7
100
AcDbLine
 10
-209.5875
 20
-400.86162988
 30
0.0
 11
-214.0875
 21
-400.86162988
 31
0.0
  0
LINE
  5
1A5
100
AcDbEntity
  8
0
  6
CONTINUOUS
 62
       7
100
AcDbLine
 10
-156.975
 20
-409.86162988
 30
0.0
 11
-154.9125
 21
-408.17412988
 31
0.0
  0
LINE
  5
1A6
100
AcDbEntity
  8
0
  6
CONTINUOUS
 62
       7
100
AcDbLine
 10
-154.9125
 20
-408.17412988
 30
0.0
 11
-153.4125
 21
-406.11162988
 31
0.0
  0
LINE
  5
1A7
100
AcDbEntity
  8
0
  6
CONTINUOUS
 62
       7
100
AcDbLine
 10
-153.4125
 20
-406.11162988
 30
0.0
 11
-152.475
 21
-403.67412988
 31
0.0
  0
LINE
  5
1A8
100
AcDbEntity
  8
0
  6
CONTINUOUS
 62
       7
100
AcDbLine
 10
-198.675
 20
-400.86162988
 30
0.0
 11
-184.9875
 21
-400.86162988
 31
0.0
  0
LINE
  5
1A9
100
AcDbEntity
  8
0
  6
CONTINUOUS
 62
       7
100
AcDbLine
 10
-184.9875
 20
-400.86162988
 30
0.0
 11
-186.1125
 21
-404.23662988
 31
0.0
  0
LINE
  5
1AA
100
AcDbEntity
  8
0
  6
CONTINUOUS
 62
       7
100
AcDbLine
 10
-184.9875
 20
-400.86162988
 30
0.0
 11
-186.1125
 21
-404.23662988
 31
0.0
  0
LINE
  5
1AB
100
AcDbEntity
  8
0
  6
CONTINUOUS
 62
       7
100
AcDbLine
 10
-186.1125
 20
-404.23662988
 30
0.0
 11
-199.8
 21
-404.23662988
 31
0.0
  0
LINE
  5
1AC
100
AcDbEntity
  8
0
  6
CONTINUOUS
 62
       7
100
AcDbLine
 10
-199.8
 20
-404.23662988
 30
0.0
 11
-198.675
 21
-400.86162988
 31
0.0
  0
LINE
  5
1AD
100
AcDbEntity
  8
0
  6
CONTINUOUS
 62
       7
100
AcDbLine
 10
-199.8
 20
-404.23662988
 30
0.0
 11
-198.675
 21
-400.86162988
 31
0.0
  0
LINE
  5
1AE
100
AcDbEntity
  8
0
  6
CONTINUOUS
 62
       7
100
AcDbLine
 10
-184.9875
 20
-400.86162988
 30
0.0
 11
-198.675
 21
-400.86162988
 31
0.0
  0
LINE
  5
1AF
100
AcDbEntity
  8
0
  6
CONTINUOUS
 62
       7
100
AcDbLine
 10
-198.675
 20
-400.86162988
 30
0.0
 11
-199.8
 21
-404.23662988
 31
0.0
  0
LINE
  5
1B0
100
AcDbEntity
  8
0
  6
CONTINUOUS
 62
       7
100
AcDbLine
 10
-199.8
 20
-404.23662988
 30
0.0
 11
-186.1125
 21
-404.23662988
 31
0.0
  0
LINE
  5
1B1
100
AcDbEntity
  8
0
  6
CONTINUOUS
 62
       7
100
AcDbLine
 10
-192.8625
 20
-415.29912988
 30
0.0
 11
-191.3625
 21
-414.54912988
 31
0.0
  0
LINE
  5
1B2
100
AcDbEntity
  8
0
  6
CONTINUOUS
 62
       7
100
AcDbLine
 10
-191.3625
 20
-414.54912988
 30
0.0
 11
-190.2375
 21
-413.42412988
 31
0.0
  0
LINE
  5
1B3
100
AcDbEntity
  8
0
  6
CONTINUOUS
 62
       7
100
AcDbLine
 10
-190.2375
 20
-413.42412988
 30
0.0
 11
-188.925
 21
-412.11162988
 31
0.0
  0
LINE
  5
1B4
100
AcDbEntity
  8
0
  6
CONTINUOUS
 62
       7
100
AcDbLine
 10
-188.925
 20
-412.11162988
 30
0.0
 11
-186.675
 21
-405.92412988
 31
0.0
  0
LINE
  5
1B5
100
AcDbEntity
  8
0
  6
CONTINUOUS
 62
       7
100
AcDbLine
 10
-186.675
 20
-405.92412988
 30
0.0
 11
-200.175
 21
-405.92412988
 31
0.0
  0
LINE
  5
1B6
100
AcDbEntity
  8
0
  6
CONTINUOUS
 62
       7
100
AcDbLine
 10
-200.175
 20
-405.92412988
 30
0.0
 11
-200.925
 21
-408.54912988
 31
0.0
  0
LINE
  5
1B7
100
AcDbEntity
  8
0
  6
CONTINUOUS
 62
       7
100
AcDbLine
 10
-200.925
 20
-408.54912988
 30
0.0
 11
-193.05
 21
-408.54912988
 31
0.0
  0
LINE
  5
1B8
100
AcDbEntity
  8
0
  6
CONTINUOUS
 62
       7
100
AcDbLine
 10
-193.05
 20
-408.54912988
 30
0.0
 11
-193.425
 21
-409.86162988
 31
0.0
  0
LINE
  5
1B9
100
AcDbEntity
  8
0
  6
CONTINUOUS
 62
       7
100
AcDbLine
 10
-193.425
 20
-409.86162988
 30
0.0
 11
-194.3625
 21
-410.98662988
 31
0.0
  0
LINE
  5
1BA
100
AcDbEntity
  8
0
  6
CONTINUOUS
 62
       7
100
AcDbLine
 10
-194.3625
 20
-410.98662988
 30
0.0
 11
-195.3
 21
-411.92412988
 31
0.0
  0
LINE
  5
1BB
100
AcDbEntity
  8
0
  6
CONTINUOUS
 62
       7
100
AcDbLine
 10
-195.3
 20
-411.92412988
 30
0.0
 11
-196.6125
 21
-412.86162988
 31
0.0
  0
LINE
  5
1BC
100
AcDbEntity
  8
0
  6
CONTINUOUS
 62
       7
100
AcDbLine
 10
-196.6125
 20
-412.86162988
 30
0.0
 11
-202.8
 21
-412.86162988
 31
0.0
  0
LINE
  5
1BD
100
AcDbEntity
  8
0
  6
CONTINUOUS
 62
       7
100
AcDbLine
 10
-202.8
 20
-412.86162988
 30
0.0
 11
-203.925
 21
-415.67412988
 31
0.0
  0
LINE
  5
1BE
100
AcDbEntity
  8
0
  6
CONTINUOUS
 62
       7
100
AcDbLine
 10
-215.9625
 20
-415.67412988
 30
0.0
 11
-215.025
 21
-412.86162988
 31
0.0
  0
LINE
  5
1BF
100
AcDbEntity
  8
0
  6
CONTINUOUS
 62
       7
100
AcDbLine
 10
-215.025
 20
-412.86162988
 30
0.0
 11
-213.3375
 21
-412.86162988
 31
0.0
  0
LINE
  5
1C0
100
AcDbEntity
  8
0
  6
CONTINUOUS
 62
       7
100
AcDbLine
 10
-213.3375
 20
-412.86162988
 30
0.0
 11
-211.8375
 21
-412.67412988
 31
0.0
  0
LINE
  5
1C1
100
AcDbEntity
  8
0
  6
CONTINUOUS
 62
       7
100
AcDbLine
 10
-211.8375
 20
-412.67412988
 30
0.0
 11
-210.3375
 21
-411.92412988
 31
0.0
  0
LINE
  5
1C2
100
AcDbEntity
  8
0
  6
CONTINUOUS
 62
       7
100
AcDbLine
 10
-210.3375
 20
-411.92412988
 30
0.0
 11
-209.4
 21
-410.42412988
 31
0.0
  0
LINE
  5
1C3
100
AcDbEntity
  8
0
  6
CONTINUOUS
 62
       7
100
AcDbLine
 10
-209.4
 20
-410.42412988
 30
0.0
 11
-205.8375
 21
-400.86162988
 31
0.0
  0
LINE
  5
1C4
100
AcDbEntity
  8
0
  6
CONTINUOUS
 62
       7
100
AcDbLine
 10
-205.8375
 20
-400.86162988
 30
0.0
 11
-200.775
 21
-400.86162988
 31
0.0
  0
LINE
  5
1C5
100
AcDbEntity
  8
0
  6
CONTINUOUS
 62
       7
100
AcDbLine
 10
-200.775
 20
-400.86162988
 30
0.0
 11
-204.525
 21
-411.92412988
 31
0.0
  0
LINE
  5
1C6
100
AcDbEntity
  8
0
  6
CONTINUOUS
 62
       7
100
AcDbLine
 10
-204.525
 20
-411.92412988
 30
0.0
 11
-206.025
 21
-413.42412988
 31
0.0
  0
LINE
  5
1C7
100
AcDbEntity
  8
0
  6
CONTINUOUS
 62
       7
100
AcDbLine
 10
-206.025
 20
-413.42412988
 30
0.0
 11
-207.525
 21
-414.73662988
 31
0.0
  0
LINE
  5
1C8
100
AcDbEntity
  8
0
  6
CONTINUOUS
 62
       7
100
AcDbLine
 10
-207.525
 20
-414.73662988
 30
0.0
 11
-209.4
 21
-415.48662988
 31
0.0
  0
LINE
  5
1C9
100
AcDbEntity
  8
0
  6
CONTINUOUS
 62
       7
100
AcDbLine
 10
-165.9
 20
-400.86162988
 30
0.0
 11
-167.025
 21
-403.29912988
 31
0.0
  0
LINE
  5
1CA
100
AcDbEntity
  8
0
  6
CONTINUOUS
 62
       7
100
AcDbLine
 10
-167.025
 20
-403.29912988
 30
0.0
 11
-168.9
 21
-405.17412988
 31
0.0
  0
LINE
  5
1CB
100
AcDbEntity
  8
0
  6
CONTINUOUS
 62
       7
100
AcDbLine
 10
-167.025
 20
-403.29912988
 30
0.0
 11
-168.9
 21
-405.17412988
 31
0.0
  0
LINE
  5
1CC
100
AcDbEntity
  8
0
  6
CONTINUOUS
 62
       7
100
AcDbLine
 10
-168.9
 20
-405.17412988
 30
0.0
 11
-170.9625
 21
-406.67412988
 31
0.0
  0
LINE
  5
1CD
100
AcDbEntity
  8
0
  6
CONTINUOUS
 62
       7
100
AcDbLine
 10
-170.9625
 20
-406.67412988
 30
0.0
 11
-173.4
 21
-407.42412988
 31
0.0
  0
LINE
  5
1CE
100
AcDbEntity
  8
0
  6
CONTINUOUS
 62
       7
100
AcDbLine
 10
-170.9625
 20
-406.67412988
 30
0.0
 11
-173.4
 21
-407.42412988
 31
0.0
  0
LINE
  5
1CF
100
AcDbEntity
  8
0
  6
CONTINUOUS
 62
       7
100
AcDbLine
 10
-173.4
 20
-407.42412988
 30
0.0
 11
-176.2125
 21
-415.67412988
 31
0.0
  0
LINE
  5
1D0
100
AcDbEntity
  8
0
  6
CONTINUOUS
 62
       7
100
AcDbLine
 10
-176.2125
 20
-415.67412988
 30
0.0
 11
-182.4
 21
-415.67412988
 31
0.0
  0
LINE
  5
1D1
100
AcDbEntity
  8
0
  6
CONTINUOUS
 62
       7
100
AcDbLine
 10
-176.2125
 20
-415.67412988
 30
0.0
 11
-182.4
 21
-415.67412988
 31
0.0
  0
LINE
  5
1D2
100
AcDbEntity
  8
0
  6
CONTINUOUS
 62
       7
100
AcDbLine
 10
-180.075
 20
-408.54912988
 30
0.0
 11
-185.775
 21
-408.54912988
 31
0.0
  0
LINE
  5
1D3
100
AcDbEntity
  8
0
  6
CONTINUOUS
 62
       7
100
AcDbLine
 10
-185.775
 20
-408.54912988
 30
0.0
 11
-184.8375
 21
-405.92412988
 31
0.0
  0
LINE
  5
1D4
100
AcDbEntity
  8
0
  6
CONTINUOUS
 62
       7
100
AcDbLine
 10
-182.4
 20
-415.67412988
 30
0.0
 11
-179.775
 21
-408.54912988
 31
0.0
  0
LINE
  5
1D5
100
AcDbEntity
  8
0
  6
CONTINUOUS
 62
       7
100
AcDbLine
 10
-182.4
 20
-415.67412988
 30
0.0
 11
-179.775
 21
-408.54912988
 31
0.0
  0
LINE
  5
1D6
100
AcDbEntity
  8
0
  6
CONTINUOUS
 62
       7
100
AcDbLine
 10
-184.8375
 20
-405.92412988
 30
0.0
 11
-181.275
 21
-405.92412988
 31
0.0
  0
LINE
  5
1D7
100
AcDbEntity
  8
0
  6
CONTINUOUS
 62
       7
100
AcDbLine
 10
-184.8375
 20
-405.92412988
 30
0.0
 11
-181.275
 21
-405.92412988
 31
0.0
  0
LINE
  5
1D8
100
AcDbEntity
  8
0
  6
CONTINUOUS
 62
       7
100
AcDbLine
 10
-181.275
 20
-405.92412988
 30
0.0
 11
-178.8375
 21
-405.73662988
 31
0.0
  0
LINE
  5
1D9
100
AcDbEntity
  8
0
  6
CONTINUOUS
 62
       7
100
AcDbLine
 10
-181.275
 20
-405.92412988
 30
0.0
 11
-178.8375
 21
-405.73662988
 31
0.0
  0
LINE
  5
1DA
100
AcDbEntity
  8
0
  6
CONTINUOUS
 62
       7
100
AcDbLine
 10
-178.8375
 20
-405.73662988
 30
0.0
 11
-176.2125
 21
-404.61162988
 31
0.0
  0
LINE
  5
1DB
100
AcDbEntity
  8
0
  6
CONTINUOUS
 62
       7
100
AcDbLine
 10
-178.8375
 20
-405.73662988
 30
0.0
 11
-176.2125
 21
-404.61162988
 31
0.0
  0
LINE
  5
1DC
100
AcDbEntity
  8
0
  6
CONTINUOUS
 62
       7
100
AcDbLine
 10
-176.2125
 20
-404.61162988
 30
0.0
 11
-174.3375
 21
-402.92412988
 31
0.0
  0
LINE
  5
1DD
100
AcDbEntity
  8
0
  6
CONTINUOUS
 62
       7
100
AcDbLine
 10
-176.2125
 20
-404.61162988
 30
0.0
 11
-174.3375
 21
-402.92412988
 31
0.0
  0
LINE
  5
1DE
100
AcDbEntity
  8
0
  6
CONTINUOUS
 62
       7
100
AcDbLine
 10
-209.5875
 20
-400.86162988
 30
0.0
 11
-212.9625
 21
-409.86162988
 31
0.0
  0
LINE
  5
1DF
100
AcDbEntity
  8
0
  6
CONTINUOUS
 62
       7
100
AcDbLine
 10
-212.9625
 20
-409.86162988
 30
0.0
 11
-217.275
 21
-409.86162988
 31
0.0
  0
LINE
  5
1E0
100
AcDbEntity
  8
0
  6
CONTINUOUS
 62
       7
100
AcDbLine
 10
-212.9625
 20
-409.86162988
 30
0.0
 11
-217.275
 21
-409.86162988
 31
0.0
  0
LINE
  5
1E1
100
AcDbEntity
  8
0
  6
CONTINUOUS
 62
       7
100
AcDbLine
 10
-217.275
 20
-409.86162988
 30
0.0
 11
-214.0875
 21
-400.86162988
 31
0.0
  0
LINE
  5
1E2
100
AcDbEntity
  8
0
  6
CONTINUOUS
 62
       7
100
AcDbLine
 10
-214.0875
 20
-400.86162988
 30
0.0
 11
-209.5875
 21
-400.86162988
 31
0.0
  0
LINE
  5
1E3
100
AcDbEntity
  8
0
  6
CONTINUOUS
 62
       7
100
AcDbLine
 10
-214.0875
 20
-400.86162988
 30
0.0
 11
-209.5875
 21
-400.86162988
 31
0.0
  0
LINE
  5
1E4
100
AcDbEntity
  8
0
  6
CONTINUOUS
 62
       7
100
AcDbLine
 10
-147.75
 20
-400.86162988
 30
0.0
 11
-148.875
 21
-404.23662988
 31
0.0
  0
LINE
  5
1E5
100
AcDbEntity
  8
0
  6
CONTINUOUS
 62
       7
100
AcDbLine
 10
-148.875
 20
-404.23662988
 30
0.0
 11
-142.875
 21
-404.23662988
 31
0.0
  0
LINE
  5
1E6
100
AcDbEntity
  8
0
  6
CONTINUOUS
 62
       7
100
AcDbLine
 10
-148.875
 20
-404.23662988
 30
0.0
 11
-142.875
 21
-404.23662988
 31
0.0
  0
LINE
  5
1E7
100
AcDbEntity
  8
0
  6
CONTINUOUS
 62
       7
100
AcDbLine
 10
-153.0
 20
-412.67412988
 30
0.0
 11
-154.125
 21
-415.86162988
 31
0.0
  0
LINE
  5
1E8
100
AcDbEntity
  8
0
  6
CONTINUOUS
 62
       7
100
AcDbLine
 10
-153.0
 20
-412.67412988
 30
0.0
 11
-154.125
 21
-415.86162988
 31
0.0
  0
LINE
  5
1E9
100
AcDbEntity
  8
0
  6
CONTINUOUS
 62
       7
100
AcDbLine
 10
-154.125
 20
-415.86162988
 30
0.0
 11
-148.5
 21
-414.92412988
 31
0.0
  0
LINE
  5
1EA
100
AcDbEntity
  8
0
  6
CONTINUOUS
 62
       7
100
AcDbLine
 10
-148.5
 20
-414.92412988
 30
0.0
 11
-145.875
 21
-414.17412988
 31
0.0
  0
LINE
  5
1EB
100
AcDbEntity
  8
0
  6
CONTINUOUS
 62
       7
100
AcDbLine
 10
-148.5
 20
-414.92412988
 30
0.0
 11
-145.875
 21
-414.17412988
 31
0.0
  0
LINE
  5
1EC
100
AcDbEntity
  8
0
  6
CONTINUOUS
 62
       7
100
AcDbLine
 10
-143.0625
 20
-413.23662988
 30
0.0
 11
-141.5625
 21
-415.67412988
 31
0.0
  0
LINE
  5
1ED
100
AcDbEntity
  8
0
  6
CONTINUOUS
 62
       7
100
AcDbLine
 10
-141.5625
 20
-415.67412988
 30
0.0
 11
-136.875
 21
-415.67412988
 31
0.0
  0
LINE
  5
1EE
100
AcDbEntity
  8
0
  6
CONTINUOUS
 62
       7
100
AcDbLine
 10
-141.5625
 20
-415.67412988
 30
0.0
 11
-136.875
 21
-415.67412988
 31
0.0
  0
LINE
  5
1EF
100
AcDbEntity
  8
0
  6
CONTINUOUS
 62
       7
100
AcDbLine
 10
-140.0625
 20
-410.42412988
 30
0.0
 11
-138.375
 21
-408.17412988
 31
0.0
  0
LINE
  5
1F0
100
AcDbEntity
  8
0
  6
CONTINUOUS
 62
       7
100
AcDbLine
 10
-138.375
 20
-408.17412988
 30
0.0
 11
-136.875
 21
-405.92412988
 31
0.0
  0
LINE
  5
1F1
100
AcDbEntity
  8
0
  6
CONTINUOUS
 62
       7
100
AcDbLine
 10
-136.875
 20
-405.92412988
 30
0.0
 11
-135.75
 21
-403.48662988
 31
0.0
  0
LINE
  5
1F2
100
AcDbEntity
  8
0
  6
CONTINUOUS
 62
       7
100
AcDbLine
 10
-135.75
 20
-403.48662988
 30
0.0
 11
-135.0
 21
-400.86162988
 31
0.0
  0
LINE
  5
1F3
100
AcDbEntity
  8
0
  6
CONTINUOUS
 62
       7
100
AcDbLine
 10
-135.75
 20
-403.48662988
 30
0.0
 11
-135.0
 21
-400.86162988
 31
0.0
  0
LINE
  5
1F4
100
AcDbEntity
  8
0
  6
CONTINUOUS
 62
       7
100
AcDbLine
 10
-135.0
 20
-400.86162988
 30
0.0
 11
-147.75
 21
-400.86162988
 31
0.0
  0
LINE
  5
1F5
100
AcDbEntity
  8
0
  6
CONTINUOUS
 62
       7
100
AcDbLine
 10
-146.4375
 20
-410.23662988
 30
0.0
 11
-149.4375
 21
-411.92412988
 31
0.0
  0
LINE
  5
1F6
100
AcDbEntity
  8
0
  6
CONTINUOUS
 62
       7
100
AcDbLine
 10
-145.875
 20
-414.17412988
 30
0.0
 11
-143.0625
 21
-413.23662988
 31
0.0
  0
LINE
  5
1F7
100
AcDbEntity
  8
0
  6
CONTINUOUS
 62
       7
100
AcDbLine
 10
-145.875
 20
-414.17412988
 30
0.0
 11
-143.0625
 21
-413.23662988
 31
0.0
  0
LINE
  5
1F8
100
AcDbEntity
  8
0
  6
CONTINUOUS
 62
       7
100
AcDbLine
 10
-136.875
 20
-415.67412988
 30
0.0
 11
-140.0625
 21
-410.42412988
 31
0.0
  0
LINE
  5
1F9
100
AcDbEntity
  8
0
  6
CONTINUOUS
 62
       7
100
AcDbLine
 10
-136.875
 20
-415.67412988
 30
0.0
 11
-140.0625
 21
-410.42412988
 31
0.0
  0
LINE
  5
1FA
100
AcDbEntity
  8
0
  6
CONTINUOUS
 62
       7
100
AcDbLine
 10
-144.0
 20
-407.42412988
 30
0.0
 11
-146.4375
 21
-410.23662988
 31
0.0
  0
LINE
  5
1FB
100
AcDbEntity
  8
0
  6
CONTINUOUS
 62
       7
100
AcDbLine
 10
-144.0
 20
-407.42412988
 30
0.0
 11
-146.4375
 21
-410.23662988
 31
0.0
  0
LINE
  5
1FC
100
AcDbEntity
  8
0
  6
CONTINUOUS
 62
       7
100
AcDbLine
 10
-181.275
 20
-405.92412988
 30
0.0
 11
-178.8375
 21
-405.73662988
 31
0.0
  0
LINE
  5
1FD
100
AcDbEntity
  8
0
  6
CONTINUOUS
 62
       7
100
AcDbLine
 10
-178.8375
 20
-405.73662988
 30
0.0
 11
-176.2125
 21
-404.61162988
 31
0.0
  0
LINE
  5
1FE
100
AcDbEntity
  8
0
  6
CONTINUOUS
 62
       7
100
AcDbLine
 10
-176.2125
 20
-404.61162988
 30
0.0
 11
-174.3375
 21
-402.92412988
 31
0.0
  0
LINE
  5
1FF
100
AcDbEntity
  8
0
  6
CONTINUOUS
 62
       7
100
AcDbLine
 10
-174.3375
 20
-402.92412988
 30
0.0
 11
-172.8375
 21
-400.86162988
 31
0.0
  0
LINE
  5
200
100
AcDbEntity
  8
0
  6
CONTINUOUS
 62
       7
100
AcDbLine
 10
-159.975
 20
-415.67412988
 30
0.0
 11
-156.6
 21
-414.17412988
 31
0.0
  0
LINE
  5
201
100
AcDbEntity
  8
0
  6
CONTINUOUS
 62
       7
100
AcDbLine
 10
-156.6
 20
-414.17412988
 30
0.0
 11
-153.6
 21
-411.36162988
 31
0.0
  0
LINE
  5
202
100
AcDbEntity
  8
0
  6
CONTINUOUS
 62
       7
100
AcDbLine
 10
-153.6
 20
-411.36162988
 30
0.0
 11
-151.35
 21
-407.61162988
 31
0.0
  0
LINE
  5
203
100
AcDbEntity
  8
0
  6
CONTINUOUS
 62
       7
100
AcDbLine
 10
-151.35
 20
-407.61162988
 30
0.0
 11
-150.6
 21
-403.67412988
 31
0.0
  0
LINE
  5
204
100
AcDbEntity
  8
0
  6
CONTINUOUS
 62
       7
100
AcDbLine
 10
-153.0
 20
-412.67412988
 30
0.0
 11
-149.4375
 21
-411.92412988
 31
0.0
  0
LINE
  5
205
100
AcDbEntity
  8
0
  6
CONTINUOUS
 62
       7
100
AcDbLine
 10
-149.4375
 20
-411.92412988
 30
0.0
 11
-146.4375
 21
-410.23662988
 31
0.0
  0
LINE
  5
206
100
AcDbEntity
  8
0
  6
CONTINUOUS
 62
       7
100
AcDbLine
 10
-146.4375
 20
-410.23662988
 30
0.0
 11
-144.0
 21
-407.42412988
 31
0.0
  0
LINE
  5
207
100
AcDbEntity
  8
0
  6
CONTINUOUS
 62
       7
100
AcDbLine
 10
-173.4
 20
-407.42412988
 30
0.0
 11
-170.9625
 21
-406.67412988
 31
0.0
  0
LINE
  5
208
100
AcDbEntity
  8
0
  6
CONTINUOUS
 62
       7
100
AcDbLine
 10
-170.9625
 20
-406.67412988
 30
0.0
 11
-168.9
 21
-405.17412988
 31
0.0
  0
LINE
  5
209
100
AcDbEntity
  8
0
  6
CONTINUOUS
 62
       7
100
AcDbLine
 10
-168.9
 20
-405.17412988
 30
0.0
 11
-167.025
 21
-403.29912988
 31
0.0
  0
LINE
  5
20A
100
AcDbEntity
  8
0
  6
CONTINUOUS
 62
       7
100
AcDbLine
 10
-167.025
 20
-403.29912988
 30
0.0
 11
-165.9
 21
-400.86162988
 31
0.0
  0
LINE
  5
20B
100
AcDbEntity
  8
0
  6
CONTINUOUS
 62
       7
100
AcDbLine
 10
-140.0625
 20
-410.42412988
 30
0.0
 11
-138.375
 21
-408.17412988
 31
0.0
  0
LINE
  5
20C
100
AcDbEntity
  8
0
  6
CONTINUOUS
 62
       7
100
AcDbLine
 10
-138.375
 20
-408.17412988
 30
0.0
 11
-136.875
 21
-405.92412988
 31
0.0
  0
LINE
  5
20D
100
AcDbEntity
  8
0
  6
CONTINUOUS
 62
       7
100
AcDbLine
 10
-136.875
 20
-405.92412988
 30
0.0
 11
-135.75
 21
-403.48662988
 31
0.0
  0
LINE
  5
20E
100
AcDbEntity
  8
0
  6
CONTINUOUS
 62
       7
100
AcDbLine
 10
-135.75
 20
-403.48662988
 30
0.0
 11
-135.0
 21
-400.86162988
 31
0.0
  0
LINE
  5
20F
100
AcDbEntity
  8
0
  6
CONTINUOUS
 62
       7
100
AcDbLine
 10
-148.5
 20
-414.92412988
 30
0.0
 11
-145.875
 21
-414.17412988
 31
0.0
  0
LINE
  5
210
100
AcDbEntity
  8
0
  6
CONTINUOUS
 62
       7
100
AcDbLine
 10
-145.875
 20
-414.17412988
 30
0.0
 11
-143.0625
 21
-413.23662988
 31
0.0
  0
LINE
  5
211
100
AcDbEntity
  8
0
  6
CONTINUOUS
 62
       7
100
AcDbLine
 10
-153.4125
 20
-406.11162988
 30
0.0
 11
-152.475
 21
-403.67412988
 31
0.0
  0
LINE
  5
212
100
AcDbEntity
  8
0
  6
CONTINUOUS
 62
       7
100
AcDbLine
 10
-152.475
 20
-403.67412988
 30
0.0
 11
-150.6
 21
-403.67412988
 31
0.0
  0
LINE
  5
213
100
AcDbEntity
  8
0
  6
CONTINUOUS
 62
       7
100
AcDbLine
 10
-152.475
 20
-403.67412988
 30
0.0
 11
-150.6
 21
-403.67412988
 31
0.0
  0
LINE
  5
214
100
AcDbEntity
  8
0
  6
CONTINUOUS
 62
       7
100
AcDbLine
 10
-150.6
 20
-403.67412988
 30
0.0
 11
-151.35
 21
-407.61162988
 31
0.0
  0
LINE
  5
215
100
AcDbEntity
  8
0
  6
CONTINUOUS
 62
       7
100
AcDbLine
 10
-151.35
 20
-407.61162988
 30
0.0
 11
-153.6
 21
-411.36162988
 31
0.0
  0
LINE
  5
216
100
AcDbEntity
  8
0
  6
CONTINUOUS
 62
       7
100
AcDbLine
 10
-151.35
 20
-407.61162988
 30
0.0
 11
-153.6
 21
-411.36162988
 31
0.0
  0
LINE
  5
217
100
AcDbEntity
  8
0
  6
CONTINUOUS
 62
       7
100
AcDbLine
 10
-153.6
 20
-411.36162988
 30
0.0
 11
-156.6
 21
-414.17412988
 31
0.0
  0
LINE
  5
218
100
AcDbEntity
  8
0
  6
CONTINUOUS
 62
       7
100
AcDbLine
 10
-160.35
 20
-415.67412988
 30
0.0
 11
-169.9125
 21
-415.67412988
 31
0.0
  0
LINE
  5
219
100
AcDbEntity
  8
0
  6
CONTINUOUS
 62
       7
100
AcDbLine
 10
-169.9125
 20
-415.67412988
 30
0.0
 11
-168.225
 21
-410.98662988
 31
0.0
  0
LINE
  5
21A
100
AcDbEntity
  8
0
  6
CONTINUOUS
 62
       7
100
AcDbLine
 10
-169.9125
 20
-415.67412988
 30
0.0
 11
-168.225
 21
-410.98662988
 31
0.0
  0
LINE
  5
21B
100
AcDbEntity
  8
0
  6
CONTINUOUS
 62
       7
100
AcDbLine
 10
-154.9125
 20
-408.17412988
 30
0.0
 11
-153.4125
 21
-406.11162988
 31
0.0
  0
LINE
  5
21C
100
AcDbEntity
  8
0
  6
CONTINUOUS
 62
       7
100
AcDbLine
 10
-168.225
 20
-410.98662988
 30
0.0
 11
-159.225
 21
-410.98662988
 31
0.0
  0
LINE
  5
21D
100
AcDbEntity
  8
0
  6
CONTINUOUS
 62
       7
100
AcDbLine
 10
-168.225
 20
-410.98662988
 30
0.0
 11
-159.225
 21
-410.98662988
 31
0.0
  0
LINE
  5
21E
100
AcDbEntity
  8
0
  6
CONTINUOUS
 62
       7
100
AcDbLine
 10
-159.225
 20
-410.98662988
 30
0.0
 11
-156.975
 21
-409.86162988
 31
0.0
  0
LINE
  5
21F
100
AcDbEntity
  8
0
  6
CONTINUOUS
 62
       7
100
AcDbLine
 10
-159.225
 20
-410.98662988
 30
0.0
 11
-156.975
 21
-409.86162988
 31
0.0
  0
LINE
  5
220
100
AcDbEntity
  8
0
  6
CONTINUOUS
 62
       7
100
AcDbLine
 10
-156.975
 20
-409.86162988
 30
0.0
 11
-154.9125
 21
-408.17412988
 31
0.0
  0
LINE
  5
221
100
AcDbEntity
  8
0
  6
CONTINUOUS
 62
       7
100
AcDbLine
 10
-186.675
 20
-405.92412988
 30
0.0
 11
-188.925
 21
-412.11162988
 31
0.0
  0
LINE
  5
222
100
AcDbEntity
  8
0
  6
CONTINUOUS
 62
       7
100
AcDbLine
 10
-188.925
 20
-412.11162988
 30
0.0
 11
-190.2375
 21
-413.42412988
 31
0.0
  0
LINE
  5
223
100
AcDbEntity
  8
0
  6
CONTINUOUS
 62
       7
100
AcDbLine
 10
-188.925
 20
-412.11162988
 30
0.0
 11
-190.2375
 21
-413.42412988
 31
0.0
  0
LINE
  5
224
100
AcDbEntity
  8
0
  6
CONTINUOUS
 62
       7
100
AcDbLine
 10
-190.2375
 20
-413.42412988
 30
0.0
 11
-191.3625
 21
-414.54912988
 31
0.0
  0
LINE
  5
225
100
AcDbEntity
  8
0
  6
CONTINUOUS
 62
       7
100
AcDbLine
 10
-191.3625
 20
-414.54912988
 30
0.0
 11
-192.8625
 21
-415.29912988
 31
0.0
  0
LINE
  5
226
100
AcDbEntity
  8
0
  6
CONTINUOUS
 62
       7
100
AcDbLine
 10
-191.3625
 20
-414.54912988
 30
0.0
 11
-192.8625
 21
-415.29912988
 31
0.0
  0
LINE
  5
227
100
AcDbEntity
  8
0
  6
CONTINUOUS
 62
       7
100
AcDbLine
 10
-192.8625
 20
-415.29912988
 30
0.0
 11
-194.3625
 21
-415.67412988
 31
0.0
  0
LINE
  5
228
100
AcDbEntity
  8
0
  6
CONTINUOUS
 62
       7
100
AcDbLine
 10
-194.3625
 20
-415.67412988
 30
0.0
 11
-203.925
 21
-415.67412988
 31
0.0
  0
LINE
  5
229
100
AcDbEntity
  8
0
  6
CONTINUOUS
 62
       7
100
AcDbLine
 10
-194.3625
 20
-415.67412988
 30
0.0
 11
-203.925
 21
-415.67412988
 31
0.0
  0
LINE
  5
22A
100
AcDbEntity
  8
0
  6
CONTINUOUS
 62
       7
100
AcDbLine
 10
-203.925
 20
-415.67412988
 30
0.0
 11
-202.8
 21
-412.86162988
 31
0.0
  0
LINE
  5
22B
100
AcDbEntity
  8
0
  6
CONTINUOUS
 62
       7
100
AcDbLine
 10
-202.8
 20
-412.86162988
 30
0.0
 11
-196.6125
 21
-412.86162988
 31
0.0
  0
LINE
  5
22C
100
AcDbEntity
  8
0
  6
CONTINUOUS
 62
       7
100
AcDbLine
 10
-202.8
 20
-412.86162988
 30
0.0
 11
-196.6125
 21
-412.86162988
 31
0.0
  0
LINE
  5
22D
100
AcDbEntity
  8
0
  6
CONTINUOUS
 62
       7
100
AcDbLine
 10
-193.05
 20
-408.54912988
 30
0.0
 11
-200.925
 21
-408.54912988
 31
0.0
  0
LINE
  5
22E
100
AcDbEntity
  8
0
  6
CONTINUOUS
 62
       7
100
AcDbLine
 10
-200.925
 20
-408.54912988
 30
0.0
 11
-200.175
 21
-405.92412988
 31
0.0
  0
LINE
  5
22F
100
AcDbEntity
  8
0
  6
CONTINUOUS
 62
       7
100
AcDbLine
 10
-200.925
 20
-408.54912988
 30
0.0
 11
-200.175
 21
-405.92412988
 31
0.0
  0
LINE
  5
230
100
AcDbEntity
  8
0
  6
CONTINUOUS
 62
       7
100
AcDbLine
 10
-196.6125
 20
-412.86162988
 30
0.0
 11
-195.3
 21
-411.92412988
 31
0.0
  0
LINE
  5
231
100
AcDbEntity
  8
0
  6
CONTINUOUS
 62
       7
100
AcDbLine
 10
-196.6125
 20
-412.86162988
 30
0.0
 11
-195.3
 21
-411.92412988
 31
0.0
  0
LINE
  5
232
100
AcDbEntity
  8
0
  6
CONTINUOUS
 62
       7
100
AcDbLine
 10
-195.3
 20
-411.92412988
 30
0.0
 11
-194.3625
 21
-410.98662988
 31
0.0
  0
LINE
  5
233
100
AcDbEntity
  8
0
  6
CONTINUOUS
 62
       7
100
AcDbLine
 10
-195.3
 20
-411.92412988
 30
0.0
 11
-194.3625
 21
-410.98662988
 31
0.0
  0
LINE
  5
234
100
AcDbEntity
  8
0
  6
CONTINUOUS
 62
       7
100
AcDbLine
 10
-194.3625
 20
-410.98662988
 30
0.0
 11
-193.425
 21
-409.86162988
 31
0.0
  0
LINE
  5
235
100
AcDbEntity
  8
0
  6
CONTINUOUS
 62
       7
100
AcDbLine
 10
-194.3625
 20
-410.98662988
 30
0.0
 11
-193.425
 21
-409.86162988
 31
0.0
  0
LINE
  5
236
100
AcDbEntity
  8
0
  6
CONTINUOUS
 62
       7
100
AcDbLine
 10
-193.425
 20
-409.86162988
 30
0.0
 11
-193.05
 21
-408.54912988
 31
0.0
  0
LINE
  5
237
100
AcDbEntity
  8
0
  6
CONTINUOUS
 62
       7
100
AcDbLine
 10
-193.425
 20
-409.86162988
 30
0.0
 11
-193.05
 21
-408.54912988
 31
0.0
  0
LINE
  5
238
100
AcDbEntity
  8
0
  6
CONTINUOUS
 62
       7
100
AcDbLine
 10
-205.2375
 20
-400.86162988
 30
0.0
 11
-201.11398879
 21
-400.86162988
 31
0.0
  0
LINE
  5
239
100
AcDbEntity
  8
0
  6
CONTINUOUS
 62
       7
100
AcDbLine
 10
-204.525
 20
-411.92412988
 30
0.0
 11
-206.025
 21
-413.42412988
 31
0.0
  0
LINE
  5
23A
100
AcDbEntity
  8
0
  6
CONTINUOUS
 62
       7
100
AcDbLine
 10
-206.025
 20
-413.42412988
 30
0.0
 11
-207.525
 21
-414.73662988
 31
0.0
  0
LINE
  5
23B
100
AcDbEntity
  8
0
  6
CONTINUOUS
 62
       7
100
AcDbLine
 10
-206.025
 20
-413.42412988
 30
0.0
 11
-207.525
 21
-414.73662988
 31
0.0
  0
LINE
  5
23C
100
AcDbEntity
  8
0
  6
CONTINUOUS
 62
       7
100
AcDbLine
 10
-207.525
 20
-414.73662988
 30
0.0
 11
-209.4
 21
-415.48662988
 31
0.0
  0
LINE
  5
23D
100
AcDbEntity
  8
0
  6
CONTINUOUS
 62
       7
100
AcDbLine
 10
-209.4
 20
-415.48662988
 30
0.0
 11
-211.275
 21
-415.67412988
 31
0.0
  0
LINE
  5
23E
100
AcDbEntity
  8
0
  6
CONTINUOUS
 62
       7
100
AcDbLine
 10
-211.275
 20
-415.67412988
 30
0.0
 11
-215.9625
 21
-415.67412988
 31
0.0
  0
LINE
  5
23F
100
AcDbEntity
  8
0
  6
CONTINUOUS
 62
       7
100
AcDbLine
 10
-215.9625
 20
-415.67412988
 30
0.0
 11
-215.025
 21
-412.86162988
 31
0.0
  0
LINE
  5
240
100
AcDbEntity
  8
0
  6
CONTINUOUS
 62
       7
100
AcDbLine
 10
-215.9625
 20
-415.67412988
 30
0.0
 11
-215.025
 21
-412.86162988
 31
0.0
  0
LINE
  5
241
100
AcDbEntity
  8
0
  6
CONTINUOUS
 62
       7
100
AcDbLine
 10
-209.4
 20
-410.42412988
 30
0.0
 11
-205.8375
 21
-400.86162988
 31
0.0
  0
LINE
  5
242
100
AcDbEntity
  8
0
  6
CONTINUOUS
 62
       7
100
AcDbLine
 10
-215.025
 20
-412.86162988
 30
0.0
 11
-213.3375
 21
-412.86162988
 31
0.0
  0
LINE
  5
243
100
AcDbEntity
  8
0
  6
CONTINUOUS
 62
       7
100
AcDbLine
 10
-215.025
 20
-412.86162988
 30
0.0
 11
-213.3375
 21
-412.86162988
 31
0.0
  0
LINE
  5
244
100
AcDbEntity
  8
0
  6
CONTINUOUS
 62
       7
100
AcDbLine
 10
-210.3375
 20
-411.92412988
 30
0.0
 11
-209.4
 21
-410.42412988
 31
0.0
  0
LINE
  5
245
100
AcDbEntity
  8
0
  6
CONTINUOUS
 62
       7
100
AcDbLine
 10
-211.8375
 20
-412.67412988
 30
0.0
 11
-210.3375
 21
-411.92412988
 31
0.0
  0
LINE
  5
246
100
AcDbEntity
  8
0
  6
CONTINUOUS
 62
       7
100
AcDbLine
 10
-213.3375
 20
-412.86162988
 30
0.0
 11
-211.8375
 21
-412.67412988
 31
0.0
  0
LINE
  5
247
100
AcDbEntity
  8
0
  6
CONTINUOUS
 62
       7
100
AcDbLine
 10
-213.3375
 20
-412.86162988
 30
0.0
 11
-211.8375
 21
-412.67412988
 31
0.0
  0
LINE
  5
248
100
AcDbEntity
  8
0
  6
CONTINUOUS
 62
       7
100
AcDbLine
 10
-164.475
 20
-400.86162988
 30
0.0
 11
-158.475
 21
-400.86162988
 31
0.0
  0
LINE
  5
249
100
AcDbEntity
  8
0
  6
CONTINUOUS
 62
       7
100
AcDbLine
 10
-158.475
 20
-400.86162988
 30
0.0
 11
-159.6
 21
-404.23662988
 31
0.0
  0
LINE
  5
24A
100
AcDbEntity
  8
0
  6
CONTINUOUS
 62
       7
100
AcDbLine
 10
-158.475
 20
-400.86162988
 30
0.0
 11
-159.6
 21
-404.23662988
 31
0.0
  0
LINE
  5
24B
100
AcDbEntity
  8
0
  6
CONTINUOUS
 62
       7
100
AcDbLine
 10
-159.9
 20
-404.23662988
 30
0.0
 11
-165.7875
 21
-404.23662988
 31
0.0
  0
LINE
  5
24C
100
AcDbEntity
  8
0
  6
CONTINUOUS
 62
       7
100
AcDbLine
 10
-142.25272308
 20
-404.21168646
 30
0.0
 11
-144.0
 21
-407.42412988
 31
0.0
  0
LINE
  5
24D
100
AcDbEntity
  8
0
  6
CONTINUOUS
 62
       7
100
AcDbLine
 10
-137.0625
 20
-400.86162988
 30
0.0
 11
-146.4375
 21
-410.23662988
 31
0.0
  0
LINE
  5
24E
100
AcDbEntity
  8
0
  6
CONTINUOUS
 62
       7
100
AcDbLine
 10
-146.4375
 20
-410.23662988
 30
0.0
 11
-151.65
 21
-415.44912988
 31
0.0
  0
LINE
  5
24F
100
AcDbEntity
  8
0
  6
CONTINUOUS
 62
       7
100
AcDbLine
 10
-137.91102814
 20
-400.86162988
 30
0.0
 11
-143.43529641
 21
-406.38589815
 31
0.0
  0
LINE
  5
250
100
AcDbEntity
  8
0
  6
CONTINUOUS
 62
       7
100
AcDbLine
 10
-148.37699289
 20
-411.32759463
 30
0.0
 11
-152.66823376
 21
-415.61883551
 31
0.0
  0
LINE
  5
251
100
AcDbEntity
  8
0
  6
CONTINUOUS
 62
       7
100
AcDbLine
 10
-138.75955627
 20
-400.86162988
 30
0.0
 11
-142.42338845
 21
-404.52546206
 31
0.0
  0
LINE
  5
252
100
AcDbEntity
  8
0
  6
CONTINUOUS
 62
       7
100
AcDbLine
 10
-149.92460461
 20
-412.02667822
 30
0.0
 11
-153.68646753
 21
-415.78854114
 31
0.0
  0
LINE
  5
253
100
AcDbEntity
  8
0
  6
CONTINUOUS
 62
       7
100
AcDbLine
 10
-139.60808441
 20
-400.86162988
 30
0.0
 11
-142.98308441
 21
-404.23662988
 31
0.0
  0
LINE
  5
254
100
AcDbEntity
  8
0
  6
CONTINUOUS
 62
       7
100
AcDbLine
 10
-150.99940692
 20
-412.25295239
 30
0.0
 11
-153.86149941
 21
-415.11504488
 31
0.0
  0
LINE
  5
255
100
AcDbEntity
  8
0
  6
CONTINUOUS
 62
       7
100
AcDbLine
 10
-140.45661255
 20
-400.86162988
 30
0.0
 11
-143.83161255
 21
-404.23662988
 31
0.0
  0
LINE
  5
256
100
AcDbEntity
  8
0
  6
CONTINUOUS
 62
       7
100
AcDbLine
 10
-152.07420923
 20
-412.47922656
 30
0.0
 11
-153.39866588
 21
-413.80368321
 31
0.0
  0
LINE
  5
257
100
AcDbEntity
  8
0
  6
CONTINUOUS
 62
       7
100
AcDbLine
 10
-141.30514069
 20
-400.86162988
 30
0.0
 11
-144.68014069
 21
-404.23662988
 31
0.0
  0
LINE
  5
258
100
AcDbEntity
  8
0
  6
CONTINUOUS
 62
       7
100
AcDbLine
 10
-142.15366882
 20
-400.86162988
 30
0.0
 11
-145.52866882
 21
-404.23662988
 31
0.0
  0
LINE
  5
259
100
AcDbEntity
  8
0
  6
CONTINUOUS
 62
       7
100
AcDbLine
 10
-143.00219696
 20
-400.86162988
 30
0.0
 11
-146.37719696
 21
-404.23662988
 31
0.0
  0
LINE
  5
25A
100
AcDbEntity
  8
0
  6
CONTINUOUS
 62
       7
100
AcDbLine
 10
-143.8507251
 20
-400.86162988
 30
0.0
 11
-147.2257251
 21
-404.23662988
 31
0.0
  0
LINE
  5
25B
100
AcDbEntity
  8
0
  6
CONTINUOUS
 62
       7
100
AcDbLine
 10
-144.69925324
 20
-400.86162988
 30
0.0
 11
-148.07425324
 21
-404.23662988
 31
0.0
  0
LINE
  5
25C
100
AcDbEntity
  8
0
  6
CONTINUOUS
 62
       7
100
AcDbLine
 10
-145.54778137
 20
-400.86162988
 30
0.0
 11
-148.85110931
 21
-404.16495782
 31
0.0
  0
LINE
  5
25D
100
AcDbEntity
  8
0
  6
CONTINUOUS
 62
       7
100
AcDbLine
 10
-146.39630951
 20
-400.86162988
 30
0.0
 11
-148.42684524
 21
-402.89216561
 31
0.0
  0
LINE
  5
25E
100
AcDbEntity
  8
0
  6
CONTINUOUS
 62
       7
100
AcDbLine
 10
-147.24483765
 20
-400.86162988
 30
0.0
 11
-148.00258118
 21
-401.61937341
 31
0.0
  0
LINE
  5
25F
100
AcDbEntity
  8
0
  6
CONTINUOUS
 62
       7
100
AcDbLine
 10
-136.21397186
 20
-400.86162988
 30
0.0
 11
-150.63176624
 21
-415.27942425
 31
0.0
  0
LINE
  5
260
100
AcDbEntity
  8
0
  6
CONTINUOUS
 62
       7
100
AcDbLine
 10
-135.36544373
 20
-400.86162988
 30
0.0
 11
-149.61353247
 21
-415.10971863
 31
0.0
  0
LINE
  5
261
100
AcDbEntity
  8
0
  6
CONTINUOUS
 62
       7
100
AcDbLine
 10
-135.19323376
 20
-401.53794806
 30
0.0
 11
-148.59529871
 21
-414.940013
 31
0.0
  0
LINE
  5
262
100
AcDbEntity
  8
0
  6
CONTINUOUS
 62
       7
100
AcDbLine
 10
-135.53264502
 20
-402.72588745
 30
0.0
 11
-147.42324243
 21
-414.61648486
 31
0.0
  0
LINE
  5
263
100
AcDbEntity
  8
0
  6
CONTINUOUS
 62
       7
100
AcDbLine
 10
-136.01154916
 20
-404.05331973
 30
0.0
 11
-146.23530304
 21
-414.27707361
 31
0.0
  0
LINE
  5
264
100
AcDbEntity
  8
0
  6
CONTINUOUS
 62
       7
100
AcDbLine
 10
-136.73885899
 20
-405.6291577
 30
0.0
 11
-144.98824676
 21
-413.87854547
 31
0.0
  0
LINE
  5
265
100
AcDbEntity
  8
0
  6
CONTINUOUS
 62
       7
100
AcDbLine
 10
-138.25439392
 20
-407.99322077
 30
0.0
 11
-143.71545456
 21
-413.4542814
 31
0.0
  0
LINE
  5
266
100
AcDbEntity
  8
0
  6
CONTINUOUS
 62
       7
100
AcDbLine
 10
-139.97722607
 20
-410.56458105
 30
0.0
 11
-142.90508091
 21
-413.4924359
 31
0.0
  0
LINE
  5
267
100
AcDbEntity
  8
0
  6
CONTINUOUS
 62
       7
100
AcDbLine
 10
-139.656671
 20
-411.09255412
 30
0.0
 11
-142.5818321
 21
-414.01771522
 31
0.0
  0
LINE
  5
268
100
AcDbEntity
  8
0
  6
CONTINUOUS
 62
       7
100
AcDbLine
 10
-139.33611593
 20
-411.62052718
 30
0.0
 11
-142.25858329
 21
-414.54299454
 31
0.0
  0
LINE
  5
269
100
AcDbEntity
  8
0
  6
CONTINUOUS
 62
       7
100
AcDbLine
 10
-139.01556085
 20
-412.14850024
 30
0.0
 11
-141.93533447
 21
-415.06827386
 31
0.0
  0
LINE
  5
26A
100
AcDbEntity
  8
0
  6
CONTINUOUS
 62
       7
100
AcDbLine
 10
-138.69500578
 20
-412.67647331
 30
0.0
 11
-141.61208566
 21
-415.59355319
 31
0.0
  0
LINE
  5
26B
100
AcDbEntity
  8
0
  6
CONTINUOUS
 62
       7
100
AcDbLine
 10
-138.3744507
 20
-413.20444637
 30
0.0
 11
-140.84413421
 21
-415.67412988
 31
0.0
  0
LINE
  5
26C
100
AcDbEntity
  8
0
  6
CONTINUOUS
 62
       7
100
AcDbLine
 10
-138.05389563
 20
-413.73241943
 30
0.0
 11
-139.99560608
 21
-415.67412988
 31
0.0
  0
LINE
  5
26D
100
AcDbEntity
  8
0
  6
CONTINUOUS
 62
       7
100
AcDbLine
 10
-137.73334055
 20
-414.2603925
 30
0.0
 11
-139.14707794
 21
-415.67412988
 31
0.0
  0
LINE
  5
26E
100
AcDbEntity
  8
0
  6
CONTINUOUS
 62
       7
100
AcDbLine
 10
-137.41278548
 20
-414.78836556
 30
0.0
 11
-138.2985498
 21
-415.67412988
 31
0.0
  0
LINE
  5
26F
100
AcDbEntity
  8
0
  6
CONTINUOUS
 62
       7
100
AcDbLine
 10
-137.09223041
 20
-415.31633862
 30
0.0
 11
-137.45002166
 21
-415.67412988
 31
0.0
  0
LINE
  5
270
100
AcDbEntity
  8
0
  6
CONTINUOUS
 62
       7
100
AcDbLine
 10
-160.44375
 20
-400.86162988
 30
0.0
 11
-163.81875
 21
-404.23662988
 31
0.0
  0
LINE
  5
271
100
AcDbEntity
  8
0
  6
CONTINUOUS
 62
       7
100
AcDbLine
 10
-161.29227814
 20
-400.86162988
 30
0.0
 11
-164.66727814
 21
-404.23662988
 31
0.0
  0
LINE
  5
272
100
AcDbEntity
  8
0
  6
CONTINUOUS
 62
       7
100
AcDbLine
 10
-162.14080627
 20
-400.86162988
 30
0.0
 11
-165.51580627
 21
-404.23662988
 31
0.0
  0
LINE
  5
273
100
AcDbEntity
  8
0
  6
CONTINUOUS
 62
       7
100
AcDbLine
 10
-162.98933441
 20
-400.86162988
 30
0.0
 11
-165.42042356
 21
-403.29271902
 31
0.0
  0
LINE
  5
274
100
AcDbEntity
  8
0
  6
CONTINUOUS
 62
       7
100
AcDbLine
 10
-163.83786255
 20
-400.86162988
 30
0.0
 11
-164.8804511
 21
-401.90421844
 31
0.0
  0
LINE
  5
275
100
AcDbEntity
  8
0
  6
CONTINUOUS
 62
       7
100
AcDbLine
 10
-159.59522186
 20
-400.86162988
 30
0.0
 11
-162.97022186
 21
-404.23662988
 31
0.0
  0
LINE
  5
276
100
AcDbEntity
  8
0
  6
CONTINUOUS
 62
       7
100
AcDbLine
 10
-158.74669373
 20
-400.86162988
 30
0.0
 11
-162.12169373
 21
-404.23662988
 31
0.0
  0
LINE
  5
277
100
AcDbEntity
  8
0
  6
CONTINUOUS
 62
       7
100
AcDbLine
 10
-158.76341721
 20
-401.7268815
 30
0.0
 11
-161.27316559
 21
-404.23662988
 31
0.0
  0
LINE
  5
278
100
AcDbEntity
  8
0
  6
CONTINUOUS
 62
       7
100
AcDbLine
 10
-159.18768127
 20
-402.99967371
 30
0.0
 11
-160.42463745
 21
-404.23662988
 31
0.0
  0
LINE
  5
279
100
AcDbEntity
  8
0
  6
CONTINUOUS
 62
       7
100
AcDbLine
 10
-159.57610931
 20
-404.23662988
 30
0.0
 11
-159.61194534
 21
-404.27246591
 31
0.0
  0
LINE
  5
27A
100
AcDbEntity
  8
0
  6
CONTINUOUS
 62
       7
100
AcDbLine
 10
-161.56875
 20
-410.98662988
 30
0.0
 11
-166.25625
 21
-415.67412988
 31
0.0
  0
LINE
  5
27B
100
AcDbEntity
  8
0
  6
CONTINUOUS
 62
       7
100
AcDbLine
 10
-162.41727814
 20
-410.98662988
 30
0.0
 11
-167.10477814
 21
-415.67412988
 31
0.0
  0
LINE
  5
27C
100
AcDbEntity
  8
0
  6
CONTINUOUS
 62
       7
100
AcDbLine
 10
-163.26580627
 20
-410.98662988
 30
0.0
 11
-167.95330627
 21
-415.67412988
 31
0.0
  0
LINE
  5
27D
100
AcDbEntity
  8
0
  6
CONTINUOUS
 62
       7
100
AcDbLine
 10
-164.11433441
 20
-410.98662988
 30
0.0
 11
-168.80183441
 21
-415.67412988
 31
0.0
  0
LINE
  5
27E
100
AcDbEntity
  8
0
  6
CONTINUOUS
 62
       7
100
AcDbLine
 10
-164.96286255
 20
-410.98662988
 30
0.0
 11
-169.65036255
 21
-415.67412988
 31
0.0
  0
LINE
  5
27F
100
AcDbEntity
  8
0
  6
CONTINUOUS
 62
       7
100
AcDbLine
 10
-165.81139069
 20
-410.98662988
 30
0.0
 11
-169.58265524
 21
-414.75789443
 31
0.0
  0
LINE
  5
280
100
AcDbEntity
  8
0
  6
CONTINUOUS
 62
       7
100
AcDbLine
 10
-166.65991882
 20
-410.98662988
 30
0.0
 11
-169.10535816
 21
-413.43206922
 31
0.0
  0
LINE
  5
281
100
AcDbEntity
  8
0
  6
CONTINUOUS
 62
       7
100
AcDbLine
 10
-167.50844696
 20
-410.98662988
 30
0.0
 11
-168.62806108
 21
-412.106244
 31
0.0
  0
LINE
  5
282
100
AcDbEntity
  8
0
  6
CONTINUOUS
 62
       7
100
AcDbLine
 10
-160.72022186
 20
-410.98662988
 30
0.0
 11
-165.40772186
 21
-415.67412988
 31
0.0
  0
LINE
  5
283
100
AcDbEntity
  8
0
  6
CONTINUOUS
 62
       7
100
AcDbLine
 10
-159.87169373
 20
-410.98662988
 30
0.0
 11
-164.55919373
 21
-415.67412988
 31
0.0
  0
LINE
  5
284
100
AcDbEntity
  8
0
  6
CONTINUOUS
 62
       7
100
AcDbLine
 10
-151.71066559
 20
-403.67412988
 30
0.0
 11
-152.95270901
 21
-404.9161733
 31
0.0
  0
LINE
  5
285
100
AcDbEntity
  8
0
  6
CONTINUOUS
 62
       7
100
AcDbLine
 10
-158.82133118
 20
-410.78479547
 30
0.0
 11
-163.71066559
 21
-415.67412988
 31
0.0
  0
LINE
  5
286
100
AcDbEntity
  8
0
  6
CONTINUOUS
 62
       7
100
AcDbLine
 10
-150.86213745
 20
-403.67412988
 30
0.0
 11
-153.7134668
 21
-406.52545923
 31
0.0
  0
LINE
  5
287
100
AcDbEntity
  8
0
  6
CONTINUOUS
 62
       7
100
AcDbLine
 10
-157.1242749
 20
-409.93626733
 30
0.0
 11
-162.86213745
 21
-415.67412988
 31
0.0
  0
LINE
  5
288
100
AcDbEntity
  8
0
  6
CONTINUOUS
 62
       7
100
AcDbLine
 10
-150.73797428
 20
-404.39849485
 30
0.0
 11
-162.01360931
 21
-415.67412988
 31
0.0
  0
LINE
  5
289
100
AcDbEntity
  8
0
  6
CONTINUOUS
 62
       7
100
AcDbLine
 10
-150.93762796
 20
-405.44667666
 30
0.0
 11
-161.16508118
 21
-415.67412988
 31
0.0
  0
LINE
  5
28A
100
AcDbEntity
  8
0
  6
CONTINUOUS
 62
       7
100
AcDbLine
 10
-151.13728164
 20
-406.49485848
 30
0.0
 11
-160.31655304
 21
-415.67412988
 31
0.0
  0
LINE
  5
28B
100
AcDbEntity
  8
0
  6
CONTINUOUS
 62
       7
100
AcDbLine
 10
-151.33693532
 20
-407.5430403
 30
0.0
 11
-159.06244482
 21
-415.2685498
 31
0.0
  0
LINE
  5
28C
100
AcDbEntity
  8
0
  6
CONTINUOUS
 62
       7
100
AcDbLine
 10
-152.53950486
 20
-409.59413797
 30
0.0
 11
-157.53509417
 21
-414.58972729
 31
0.0
  0
LINE
  5
28D
100
AcDbEntity
  8
0
  6
CONTINUOUS
 62
       7
100
AcDbLine
 10
-168.43125
 20
-400.86162988
 30
0.0
 11
-181.9078125
 21
-414.33819238
 31
0.0
  0
LINE
  5
28E
100
AcDbEntity
  8
0
  6
CONTINUOUS
 62
       7
100
AcDbLine
 10
-169.27977814
 20
-400.86162988
 30
0.0
 11
-181.41283775
 21
-412.9946895
 31
0.0
  0
LINE
  5
28F
100
AcDbEntity
  8
0
  6
CONTINUOUS
 62
       7
100
AcDbLine
 10
-170.12830627
 20
-400.86162988
 30
0.0
 11
-180.91786301
 21
-411.65118661
 31
0.0
  0
LINE
  5
290
100
AcDbEntity
  8
0
  6
CONTINUOUS
 62
       7
100
AcDbLine
 10
-170.97683441
 20
-400.86162988
 30
0.0
 11
-180.42288826
 21
-410.30768373
 31
0.0
  0
LINE
  5
291
100
AcDbEntity
  8
0
  6
CONTINUOUS
 62
       7
100
AcDbLine
 10
-171.82536255
 20
-400.86162988
 30
0.0
 11
-179.92791351
 21
-408.96418084
 31
0.0
  0
LINE
  5
292
100
AcDbEntity
  8
0
  6
CONTINUOUS
 62
       7
100
AcDbLine
 10
-172.67389069
 20
-400.86162988
 30
0.0
 11
-173.2737915
 21
-401.4615307
 31
0.0
  0
LINE
  5
293
100
AcDbEntity
  8
0
  6
CONTINUOUS
 62
       7
100
AcDbLine
 10
-176.5824337
 20
-404.7701729
 30
0.0
 11
-180.36139069
 21
-408.54912988
 31
0.0
  0
LINE
  5
294
100
AcDbEntity
  8
0
  6
CONTINUOUS
 62
       7
100
AcDbLine
 10
-178.06735794
 20
-405.406569
 30
0.0
 11
-181.20991882
 21
-408.54912988
 31
0.0
  0
LINE
  5
295
100
AcDbEntity
  8
0
  6
CONTINUOUS
 62
       7
100
AcDbLine
 10
-179.27998421
 20
-405.77066713
 30
0.0
 11
-182.05844696
 21
-408.54912988
 31
0.0
  0
LINE
  5
296
100
AcDbEntity
  8
0
  6
CONTINUOUS
 62
       7
100
AcDbLine
 10
-180.19922302
 20
-405.84137781
 30
0.0
 11
-182.9069751
 21
-408.54912988
 31
0.0
  0
LINE
  5
297
100
AcDbEntity
  8
0
  6
CONTINUOUS
 62
       7
100
AcDbLine
 10
-181.11846184
 20
-405.91208848
 30
0.0
 11
-183.75550324
 21
-408.54912988
 31
0.0
  0
LINE
  5
298
100
AcDbEntity
  8
0
  6
CONTINUOUS
 62
       7
100
AcDbLine
 10
-181.97903137
 20
-405.92412988
 30
0.0
 11
-184.60403137
 21
-408.54912988
 31
0.0
  0
LINE
  5
299
100
AcDbEntity
  8
0
  6
CONTINUOUS
 62
       7
100
AcDbLine
 10
-182.82755951
 20
-405.92412988
 30
0.0
 11
-185.45255951
 21
-408.54912988
 31
0.0
  0
LINE
  5
29A
100
AcDbEntity
  8
0
  6
CONTINUOUS
 62
       7
100
AcDbLine
 10
-183.67608765
 20
-405.92412988
 30
0.0
 11
-185.48272908
 21
-407.73077132
 31
0.0
  0
LINE
  5
29B
100
AcDbEntity
  8
0
  6
CONTINUOUS
 62
       7
100
AcDbLine
 10
-184.52461579
 20
-405.92412988
 30
0.0
 11
-185.01132456
 21
-406.41083866
 31
0.0
  0
LINE
  5
29C
100
AcDbEntity
  8
0
  6
CONTINUOUS
 62
       7
100
AcDbLine
 10
-167.58272186
 20
-400.86162988
 30
0.0
 11
-182.40278725
 21
-415.68169527
 31
0.0
  0
LINE
  5
29D
100
AcDbEntity
  8
0
  6
CONTINUOUS
 62
       7
100
AcDbLine
 10
-166.73419373
 20
-400.86162988
 30
0.0
 11
-173.25077983
 21
-407.37821598
 31
0.0
  0
LINE
  5
29E
100
AcDbEntity
  8
0
  6
CONTINUOUS
 62
       7
100
AcDbLine
 10
-173.45343428
 20
-407.58087044
 30
0.0
 11
-181.54669373
 21
-415.67412988
 31
0.0
  0
LINE
  5
29F
100
AcDbEntity
  8
0
  6
CONTINUOUS
 62
       7
100
AcDbLine
 10
-165.88566559
 20
-400.86162988
 30
0.0
 11
-172.02512807
 21
-407.00109236
 31
0.0
  0
LINE
  5
2A0
100
AcDbEntity
  8
0
  6
CONTINUOUS
 62
       7
100
AcDbLine
 10
-173.89232814
 20
-408.86829244
 30
0.0
 11
-180.69816559
 21
-415.67412988
 31
0.0
  0
LINE
  5
2A1
100
AcDbEntity
  8
0
  6
CONTINUOUS
 62
       7
100
AcDbLine
 10
-166.63959647
 20
-402.4640889
 30
0.0
 11
-170.54867065
 21
-406.37316308
 31
0.0
  0
LINE
  5
2A2
100
AcDbEntity
  8
0
  6
CONTINUOUS
 62
       7
100
AcDbLine
 10
-174.33122201
 20
-410.15571444
 30
0.0
 11
-179.84963745
 21
-415.67412988
 31
0.0
  0
LINE
  5
2A3
100
AcDbEntity
  8
0
  6
CONTINUOUS
 62
       7
100
AcDbLine
 10
-174.77011587
 20
-411.44313644
 30
0.0
 11
-179.00110931
 21
-415.67412988
 31
0.0
  0
LINE
  5
2A4
100
AcDbEntity
  8
0
  6
CONTINUOUS
 62
       7
100
AcDbLine
 10
-175.20900974
 20
-412.73055844
 30
0.0
 11
-178.15258118
 21
-415.67412988
 31
0.0
  0
LINE
  5
2A5
100
AcDbEntity
  8
0
  6
CONTINUOUS
 62
       7
100
AcDbLine
 10
-175.6479036
 20
-414.01798044
 30
0.0
 11
-177.30405304
 21
-415.67412988
 31
0.0
  0
LINE
  5
2A6
100
AcDbEntity
  8
0
  6
CONTINUOUS
 62
       7
100
AcDbLine
 10
-176.08679747
 20
-415.30540245
 30
0.0
 11
-176.4555249
 21
-415.67412988
 31
0.0
  0
LINE
  5
2A7
100
AcDbEntity
  8
0
  6
CONTINUOUS
 62
       7
100
AcDbLine
 10
-190.70625
 20
-400.86162988
 30
0.0
 11
-194.08125
 21
-404.23662988
 31
0.0
  0
LINE
  5
2A8
100
AcDbEntity
  8
0
  6
CONTINUOUS
 62
       7
100
AcDbLine
 10
-191.55477814
 20
-400.86162988
 30
0.0
 11
-194.92977814
 21
-404.23662988
 31
0.0
  0
LINE
  5
2A9
100
AcDbEntity
  8
0
  6
CONTINUOUS
 62
       7
100
AcDbLine
 10
-192.40330627
 20
-400.86162988
 30
0.0
 11
-195.77830627
 21
-404.23662988
 31
0.0
  0
LINE
  5
2AA
100
AcDbEntity
  8
0
  6
CONTINUOUS
 62
       7
100
AcDbLine
 10
-193.25183441
 20
-400.86162988
 30
0.0
 11
-196.62683441
 21
-404.23662988
 31
0.0
  0
LINE
  5
2AB
100
AcDbEntity
  8
0
  6
CONTINUOUS
 62
       7
100
AcDbLine
 10
-194.10036255
 20
-400.86162988
 30
0.0
 11
-197.47536255
 21
-404.23662988
 31
0.0
  0
LINE
  5
2AC
100
AcDbEntity
  8
0
  6
CONTINUOUS
 62
       7
100
AcDbLine
 10
-194.94889069
 20
-400.86162988
 30
0.0
 11
-198.32389069
 21
-404.23662988
 31
0.0
  0
LINE
  5
2AD
100
AcDbEntity
  8
0
  6
CONTINUOUS
 62
       7
100
AcDbLine
 10
-195.79741882
 20
-400.86162988
 30
0.0
 11
-199.17241882
 21
-404.23662988
 31
0.0
  0
LINE
  5
2AE
100
AcDbEntity
  8
0
  6
CONTINUOUS
 62
       7
100
AcDbLine
 10
-196.64594696
 20
-400.86162988
 30
0.0
 11
-199.68952652
 21
-403.90520944
 31
0.0
  0
LINE
  5
2AF
100
AcDbEntity
  8
0
  6
CONTINUOUS
 62
       7
100
AcDbLine
 10
-197.4944751
 20
-400.86162988
 30
0.0
 11
-199.26526245
 21
-402.63241723
 31
0.0
  0
LINE
  5
2B0
100
AcDbEntity
  8
0
  6
CONTINUOUS
 62
       7
100
AcDbLine
 10
-198.34300324
 20
-400.86162988
 30
0.0
 11
-198.84099838
 21
-401.35962503
 31
0.0
  0
LINE
  5
2B1
100
AcDbEntity
  8
0
  6
CONTINUOUS
 62
       7
100
AcDbLine
 10
-189.85772186
 20
-400.86162988
 30
0.0
 11
-193.23272186
 21
-404.23662988
 31
0.0
  0
LINE
  5
2B2
100
AcDbEntity
  8
0
  6
CONTINUOUS
 62
       7
100
AcDbLine
 10
-189.00919373
 20
-400.86162988
 30
0.0
 11
-192.38419373
 21
-404.23662988
 31
0.0
  0
LINE
  5
2B3
100
AcDbEntity
  8
0
  6
CONTINUOUS
 62
       7
100
AcDbLine
 10
-188.16066559
 20
-400.86162988
 30
0.0
 11
-191.53566559
 21
-404.23662988
 31
0.0
  0
LINE
  5
2B4
100
AcDbEntity
  8
0
  6
CONTINUOUS
 62
       7
100
AcDbLine
 10
-187.31213745
 20
-400.86162988
 30
0.0
 11
-190.68713745
 21
-404.23662988
 31
0.0
  0
LINE
  5
2B5
100
AcDbEntity
  8
0
  6
CONTINUOUS
 62
       7
100
AcDbLine
 10
-186.46360931
 20
-400.86162988
 30
0.0
 11
-189.83860931
 21
-404.23662988
 31
0.0
  0
LINE
  5
2B6
100
AcDbEntity
  8
0
  6
CONTINUOUS
 62
       7
100
AcDbLine
 10
-185.61508118
 20
-400.86162988
 30
0.0
 11
-188.99008118
 21
-404.23662988
 31
0.0
  0
LINE
  5
2B7
100
AcDbEntity
  8
0
  6
CONTINUOUS
 62
       7
100
AcDbLine
 10
-185.09797348
 20
-401.19305032
 30
0.0
 11
-188.14155304
 21
-404.23662988
 31
0.0
  0
LINE
  5
2B8
100
AcDbEntity
  8
0
  6
CONTINUOUS
 62
       7
100
AcDbLine
 10
-185.52223755
 20
-402.46584253
 30
0.0
 11
-187.2930249
 21
-404.23662988
 31
0.0
  0
LINE
  5
2B9
100
AcDbEntity
  8
0
  6
CONTINUOUS
 62
       7
100
AcDbLine
 10
-185.94650162
 20
-403.73863474
 30
0.0
 11
-186.44449676
 21
-404.23662988
 31
0.0
  0
LINE
  5
2BA
100
AcDbEntity
  8
0
  6
CONTINUOUS
 62
       7
100
AcDbLine
 10
-190.425
 20
-405.92412988
 30
0.0
 11
-193.05
 21
-408.54912988
 31
0.0
  0
LINE
  5
2BB
100
AcDbEntity
  8
0
  6
CONTINUOUS
 62
       7
100
AcDbLine
 10
-197.3625
 20
-412.86162988
 30
0.0
 11
-200.175
 21
-415.67412988
 31
0.0
  0
LINE
  5
2BC
100
AcDbEntity
  8
0
  6
CONTINUOUS
 62
       7
100
AcDbLine
 10
-191.27352814
 20
-405.92412988
 30
0.0
 11
-193.89852814
 21
-408.54912988
 31
0.0
  0
LINE
  5
2BD
100
AcDbEntity
  8
0
  6
CONTINUOUS
 62
       7
100
AcDbLine
 10
-198.21102814
 20
-412.86162988
 30
0.0
 11
-201.02352814
 21
-415.67412988
 31
0.0
  0
LINE
  5
2BE
100
AcDbEntity
  8
0
  6
CONTINUOUS
 62
       7
100
AcDbLine
 10
-192.12205627
 20
-405.92412988
 30
0.0
 11
-194.74705627
 21
-408.54912988
 31
0.0
  0
LINE
  5
2BF
100
AcDbEntity
  8
0
  6
CONTINUOUS
 62
       7
100
AcDbLine
 10
-199.05955627
 20
-412.86162988
 30
0.0
 11
-201.87205627
 21
-415.67412988
 31
0.0
  0
LINE
  5
2C0
100
AcDbEntity
  8
0
  6
CONTINUOUS
 62
       7
100
AcDbLine
 10
-192.97058441
 20
-405.92412988
 30
0.0
 11
-195.59558441
 21
-408.54912988
 31
0.0
  0
LINE
  5
2C1
100
AcDbEntity
  8
0
  6
CONTINUOUS
 62
       7
100
AcDbLine
 10
-199.90808441
 20
-412.86162988
 30
0.0
 11
-202.72058441
 21
-415.67412988
 31
0.0
  0
LINE
  5
2C2
100
AcDbEntity
  8
0
  6
CONTINUOUS
 62
       7
100
AcDbLine
 10
-193.81911255
 20
-405.92412988
 30
0.0
 11
-196.44411255
 21
-408.54912988
 31
0.0
  0
LINE
  5
2C3
100
AcDbEntity
  8
0
  6
CONTINUOUS
 62
       7
100
AcDbLine
 10
-200.75661255
 20
-412.86162988
 30
0.0
 11
-203.56911255
 21
-415.67412988
 31
0.0
  0
LINE
  5
2C4
100
AcDbEntity
  8
0
  6
CONTINUOUS
 62
       7
100
AcDbLine
 10
-194.66764069
 20
-405.92412988
 30
0.0
 11
-197.29264069
 21
-408.54912988
 31
0.0
  0
LINE
  5
2C5
100
AcDbEntity
  8
0
  6
CONTINUOUS
 62
       7
100
AcDbLine
 10
-201.60514069
 20
-412.86162988
 30
0.0
 11
-203.59657288
 21
-414.85306207
 31
0.0
  0
LINE
  5
2C6
100
AcDbEntity
  8
0
  6
CONTINUOUS
 62
       7
100
AcDbLine
 10
-195.51616882
 20
-405.92412988
 30
0.0
 11
-198.14116882
 21
-408.54912988
 31
0.0
  0
LINE
  5
2C7
100
AcDbEntity
  8
0
  6
CONTINUOUS
 62
       7
100
AcDbLine
 10
-202.45366882
 20
-412.86162988
 30
0.0
 11
-203.03088745
 21
-413.43884851
 31
0.0
  0
LINE
  5
2C8
100
AcDbEntity
  8
0
  6
CONTINUOUS
 62
       7
100
AcDbLine
 10
-196.36469696
 20
-405.92412988
 30
0.0
 11
-198.98969696
 21
-408.54912988
 31
0.0
  0
LINE
  5
2C9
100
AcDbEntity
  8
0
  6
CONTINUOUS
 62
       7
100
AcDbLine
 10
-197.2132251
 20
-405.92412988
 30
0.0
 11
-199.8382251
 21
-408.54912988
 31
0.0
  0
LINE
  5
2CA
100
AcDbEntity
  8
0
  6
CONTINUOUS
 62
       7
100
AcDbLine
 10
-198.06175324
 20
-405.92412988
 30
0.0
 11
-200.68675324
 21
-408.54912988
 31
0.0
  0
LINE
  5
2CB
100
AcDbEntity
  8
0
  6
CONTINUOUS
 62
       7
100
AcDbLine
 10
-198.91028137
 20
-405.92412988
 30
0.0
 11
-200.68088745
 21
-407.69473596
 31
0.0
  0
LINE
  5
2CC
100
AcDbEntity
  8
0
  6
CONTINUOUS
 62
       7
100
AcDbLine
 10
-199.75880951
 20
-405.92412988
 30
0.0
 11
-200.3414762
 21
-406.50679656
 31
0.0
  0
LINE
  5
2CD
100
AcDbEntity
  8
0
  6
CONTINUOUS
 62
       7
100
AcDbLine
 10
-189.57647186
 20
-405.92412988
 30
0.0
 11
-193.38941125
 21
-409.73706927
 31
0.0
  0
LINE
  5
2CE
100
AcDbEntity
  8
0
  6
CONTINUOUS
 62
       7
100
AcDbLine
 10
-196.26765152
 20
-412.61530954
 30
0.0
 11
-199.32647186
 21
-415.67412988
 31
0.0
  0
LINE
  5
2CF
100
AcDbEntity
  8
0
  6
CONTINUOUS
 62
       7
100
AcDbLine
 10
-188.72794373
 20
-405.92412988
 30
0.0
 11
-198.47794373
 21
-415.67412988
 31
0.0
  0
LINE
  5
2D0
100
AcDbEntity
  8
0
  6
CONTINUOUS
 62
       7
100
AcDbLine
 10
-187.87941559
 20
-405.92412988
 30
0.0
 11
-197.62941559
 21
-415.67412988
 31
0.0
  0
LINE
  5
2D1
100
AcDbEntity
  8
0
  6
CONTINUOUS
 62
       7
100
AcDbLine
 10
-187.03088745
 20
-405.92412988
 30
0.0
 11
-196.78088745
 21
-415.67412988
 31
0.0
  0
LINE
  5
2D2
100
AcDbEntity
  8
0
  6
CONTINUOUS
 62
       7
100
AcDbLine
 10
-186.95650896
 20
-406.69827953
 30
0.0
 11
-195.93235931
 21
-415.67412988
 31
0.0
  0
LINE
  5
2D3
100
AcDbEntity
  8
0
  6
CONTINUOUS
 62
       7
100
AcDbLine
 10
-187.44138219
 20
-408.03168089
 30
0.0
 11
-195.08383118
 21
-415.67412988
 31
0.0
  0
LINE
  5
2D4
100
AcDbEntity
  8
0
  6
CONTINUOUS
 62
       7
100
AcDbLine
 10
-187.92625541
 20
-409.36508225
 30
0.0
 11
-194.19290405
 21
-415.63173089
 31
0.0
  0
LINE
  5
2D5
100
AcDbEntity
  8
0
  6
CONTINUOUS
 62
       7
100
AcDbLine
 10
-188.41112863
 20
-410.69848361
 30
0.0
 11
-193.0615332
 21
-415.34888818
 31
0.0
  0
LINE
  5
2D6
100
AcDbEntity
  8
0
  6
CONTINUOUS
 62
       7
100
AcDbLine
 10
-188.89600185
 20
-412.03188497
 30
0.0
 11
-191.46399353
 21
-414.59987664
 31
0.0
  0
LINE
  5
2D7
100
AcDbEntity
  8
0
  6
CONTINUOUS
 62
       7
100
AcDbLine
 10
-200.9625
 20
-400.86162988
 30
0.0
 11
-208.73203125
 21
-408.63116113
 31
0.0
  0
LINE
  5
2D8
100
AcDbEntity
  8
0
  6
CONTINUOUS
 62
       7
100
AcDbLine
 10
-212.90892857
 20
-412.80805845
 30
0.0
 11
-215.775
 21
-415.67412988
 31
0.0
  0
LINE
  5
2D9
100
AcDbEntity
  8
0
  6
CONTINUOUS
 62
       7
100
AcDbLine
 10
-201.81102814
 20
-400.86162988
 30
0.0
 11
-208.22821767
 21
-407.27881941
 31
0.0
  0
LINE
  5
2DA
100
AcDbEntity
  8
0
  6
CONTINUOUS
 62
       7
100
AcDbLine
 10
-213.81102814
 20
-412.86162988
 30
0.0
 11
-215.63198593
 21
-414.68258768
 31
0.0
  0
LINE
  5
2DB
100
AcDbEntity
  8
0
  6
CONTINUOUS
 62
       7
100
AcDbLine
 10
-202.65955627
 20
-400.86162988
 30
0.0
 11
-207.72440409
 21
-405.92647769
 31
0.0
  0
LINE
  5
2DC
100
AcDbEntity
  8
0
  6
CONTINUOUS
 62
       7
100
AcDbLine
 10
-214.65955627
 20
-412.86162988
 30
0.0
 11
-215.20772186
 21
-413.40979547
 31
0.0
  0
LINE
  5
2DD
100
AcDbEntity
  8
0
  6
CONTINUOUS
 62
       7
100
AcDbLine
 10
-203.50808441
 20
-400.86162988
 30
0.0
 11
-207.22059051
 21
-404.57413597
 31
0.0
  0
LINE
  5
2DE
100
AcDbEntity
  8
0
  6
CONTINUOUS
 62
       7
100
AcDbLine
 10
-204.35661255
 20
-400.86162988
 30
0.0
 11
-206.71677692
 21
-403.22179426
 31
0.0
  0
LINE
  5
2DF
100
AcDbEntity
  8
0
  6
CONTINUOUS
 62
       7
100
AcDbLine
 10
-205.20514069
 20
-400.86162988
 30
0.0
 11
-206.21296334
 21
-401.86945254
 31
0.0
  0
LINE
  5
2E0
100
AcDbEntity
  8
0
  6
CONTINUOUS
 62
       7
100
AcDbLine
 10
-201.11398879
 20
-401.86164681
 30
0.0
 11
-209.23584483
 21
-409.98350285
 31
0.0
  0
LINE
  5
2E1
100
AcDbEntity
  8
0
  6
CONTINUOUS
 62
       7
100
AcDbLine
 10
-211.93918213
 20
-412.68684015
 30
0.0
 11
-214.92647186
 21
-415.67412988
 31
0.0
  0
LINE
  5
2E2
100
AcDbEntity
  8
0
  6
CONTINUOUS
 62
       7
100
AcDbLine
 10
-201.54913142
 20
-403.14531758
 30
0.0
 11
-210.31838745
 21
-411.91457361
 31
0.0
  0
LINE
  5
2E3
100
AcDbEntity
  8
0
  6
CONTINUOUS
 62
       7
100
AcDbLine
 10
-210.35342712
 20
-411.94961328
 30
0.0
 11
-214.07794373
 21
-415.67412988
 31
0.0
  0
LINE
  5
2E4
100
AcDbEntity
  8
0
  6
CONTINUOUS
 62
       7
100
AcDbLine
 10
-201.98427406
 20
-404.42898835
 30
0.0
 11
-213.22941559
 21
-415.67412988
 31
0.0
  0
LINE
  5
2E5
100
AcDbEntity
  8
0
  6
CONTINUOUS
 62
       7
100
AcDbLine
 10
-202.41941669
 20
-405.71265912
 30
0.0
 11
-212.38088745
 21
-415.67412988
 31
0.0
  0
LINE
  5
2E6
100
AcDbEntity
  8
0
  6
CONTINUOUS
 62
       7
100
AcDbLine
 10
-202.85455933
 20
-406.9963299
 30
0.0
 11
-211.53235931
 21
-415.67412988
 31
0.0
  0
LINE
  5
2E7
100
AcDbEntity
  8
0
  6
CONTINUOUS
 62
       7
100
AcDbLine
 10
-203.28970196
 20
-408.28000067
 30
0.0
 11
-210.61814575
 21
-415.60844446
 31
0.0
  0
LINE
  5
2E8
100
AcDbEntity
  8
0
  6
CONTINUOUS
 62
       7
100
AcDbLine
 10
-203.7248446
 20
-409.56367144
 30
0.0
 11
-209.67533671
 21
-415.51416355
 31
0.0
  0
LINE
  5
2E9
100
AcDbEntity
  8
0
  6
CONTINUOUS
 62
       7
100
AcDbLine
 10
-204.15998723
 20
-410.84734221
 30
0.0
 11
-208.3987915
 21
-415.08614648
 31
0.0
  0
LINE
  5
2EA
100
AcDbEntity
  8
0
  6
CONTINUOUS
 62
       7
100
AcDbLine
 10
-209.98125
 20
-401.91162988
 30
0.0
 11
-216.91512097
 21
-408.84550085
 31
0.0
  0
LINE
  5
2EB
100
AcDbEntity
  8
0
  6
CONTINUOUS
 62
       7
100
AcDbLine
 10
-209.77977814
 20
-400.86162988
 30
0.0
 11
-216.44979909
 21
-407.53165083
 31
0.0
  0
LINE
  5
2EC
100
AcDbEntity
  8
0
  6
CONTINUOUS
 62
       7
100
AcDbLine
 10
-210.62830627
 20
-400.86162988
 30
0.0
 11
-215.9844772
 21
-406.21780081
 31
0.0
  0
LINE
  5
2ED
100
AcDbEntity
  8
0
  6
CONTINUOUS
 62
       7
100
AcDbLine
 10
-211.47683441
 20
-400.86162988
 30
0.0
 11
-215.51915532
 21
-404.90395079
 31
0.0
  0
LINE
  5
2EE
100
AcDbEntity
  8
0
  6
CONTINUOUS
 62
       7
100
AcDbLine
 10
-212.32536255
 20
-400.86162988
 30
0.0
 11
-215.05383344
 21
-403.59010077
 31
0.0
  0
LINE
  5
2EF
100
AcDbEntity
  8
0
  6
CONTINUOUS
 62
       7
100
AcDbLine
 10
-213.17389069
 20
-400.86162988
 30
0.0
 11
-214.58851156
 21
-402.27625075
 31
0.0
  0
LINE
  5
2F0
100
AcDbEntity
  8
0
  6
CONTINUOUS
 62
       7
100
AcDbLine
 10
-214.02241882
 20
-400.86162988
 30
0.0
 11
-214.12318968
 21
-400.96240073
 31
0.0
  0
LINE
  5
2F1
100
AcDbEntity
  8
0
  6
CONTINUOUS
 62
       7
100
AcDbLine
 10
-210.49036688
 20
-403.2692749
 30
0.0
 11
-217.08272186
 21
-409.86162988
 31
0.0
  0
LINE
  5
2F2
100
AcDbEntity
  8
0
  6
CONTINUOUS
 62
       7
100
AcDbLine
 10
-210.99948376
 20
-404.62691992
 30
0.0
 11
-216.23419373
 21
-409.86162988
 31
0.0
  0
LINE
  5
2F3
100
AcDbEntity
  8
0
  6
CONTINUOUS
 62
       7
100
AcDbLine
 10
-211.50860065
 20
-405.98456494
 30
0.0
 11
-215.38566559
 21
-409.86162988
 31
0.0
  0
LINE
  5
2F4
100
AcDbEntity
  8
0
  6
CONTINUOUS
 62
       7
100
AcDbLine
 10
-212.01771753
 20
-407.34220996
 30
0.0
 11
-214.53713745
 21
-409.86162988
 31
0.0
  0
LINE
  5
2F5
100
AcDbEntity
  8
0
  6
CONTINUOUS
 62
       7
100
AcDbLine
 10
-212.52683441
 20
-408.69985498
 30
0.0
 11
-213.68860931
 21
-409.86162988
 31
0.0
  0
LINE
  5
2F6
100
AcDbEntity
  8
0
  6
CONTINUOUS
 62
       7
100
AcDbLine
 10
298.5
 20
238.88837012
 30
0.0
 11
315.0
 21
238.88837012
 31
0.0
  0
LINE
  5
2F7
100
AcDbEntity
  8
0
  6
CONTINUOUS
 62
       7
100
AcDbLine
 10
298.5
 20
223.88837012
 30
0.0
 11
315.0
 21
223.88837012
 31
0.0
  0
LINE
  5
2F8
100
AcDbEntity
  8
0
  6
CONTINUOUS
 62
       7
100
AcDbLine
 10
315.0
 20
238.88837012
 30
0.0
 11
315.0
 21
223.88837012
 31
0.0
  0
LINE
  5
2F9
100
AcDbEntity
  8
0
  6
CONTINUOUS
 62
       7
100
AcDbLine
 10
298.5
 20
238.88837012
 30
0.0
 11
298.5
 21
223.88837012
 31
0.0
  0
LINE
  5
2FA
100
AcDbEntity
  8
0
  6
CONTINUOUS
 62
       7
100
AcDbLine
 10
315.0
 20
223.94059958
 30
0.0
 11
314.94777054
 21
223.88837012
 31
0.0
  0
LINE
  5
2FB
100
AcDbEntity
  8
0
  6
CONTINUOUS
 62
       7
100
AcDbLine
 10
306.19616453
 20
238.88837012
 30
0.0
 11
298.5
 21
231.19220559
 31
0.0
  0
LINE
  5
2FC
100
AcDbEntity
  8
0
  6
CONTINUOUS
 62
       7
100
AcDbLine
 10
305.34763639
 20
238.88837012
 30
0.0
 11
298.5
 21
232.04073372
 31
0.0
  0
LINE
  5
2FD
100
AcDbEntity
  8
0
  6
CONTINUOUS
 62
       7
100
AcDbLine
 10
304.49910826
 20
238.88837012
 30
0.0
 11
298.5
 21
232.88926186
 31
0.0
  0
LINE
  5
2FE
100
AcDbEntity
  8
0
  6
CONTINUOUS
 62
       7
100
AcDbLine
 10
303.65058012
 20
238.88837012
 30
0.0
 11
298.5
 21
233.73779
 31
0.0
  0
LINE
  5
2FF
100
AcDbEntity
  8
0
  6
CONTINUOUS
 62
       7
100
AcDbLine
 10
302.80205198
 20
238.88837012
 30
0.0
 11
298.5
 21
234.58631814
 31
0.0
  0
LINE
  5
300
100
AcDbEntity
  8
0
  6
CONTINUOUS
 62
       7
100
AcDbLine
 10
301.95352384
 20
238.88837012
 30
0.0
 11
298.5
 21
235.43484627
 31
0.0
  0
LINE
  5
301
100
AcDbEntity
  8
0
  6
CONTINUOUS
 62
       7
100
AcDbLine
 10
301.10499571
 20
238.88837012
 30
0.0
 11
298.5
 21
236.28337441
 31
0.0
  0
LINE
  5
302
100
AcDbEntity
  8
0
  6
CONTINUOUS
 62
       7
100
AcDbLine
 10
300.25646757
 20
238.88837012
 30
0.0
 11
298.5
 21
237.13190255
 31
0.0
  0
LINE
  5
303
100
AcDbEntity
  8
0
  6
CONTINUOUS
 62
       7
100
AcDbLine
 10
299.40793943
 20
238.88837012
 30
0.0
 11
298.5
 21
237.98043069
 31
0.0
  0
LINE
  5
304
100
AcDbEntity
  8
0
  6
CONTINUOUS
 62
       7
100
AcDbLine
 10
307.04469267
 20
238.88837012
 30
0.0
 11
298.5
 21
230.34367745
 31
0.0
  0
LINE
  5
305
100
AcDbEntity
  8
0
  6
CONTINUOUS
 62
       7
100
AcDbLine
 10
307.89322081
 20
238.88837012
 30
0.0
 11
298.5
 21
229.49514931
 31
0.0
  0
LINE
  5
306
100
AcDbEntity
  8
0
  6
CONTINUOUS
 62
       7
100
AcDbLine
 10
308.74174894
 20
238.88837012
 30
0.0
 11
298.5
 21
228.64662118
 31
0.0
  0
LINE
  5
307
100
AcDbEntity
  8
0
  6
CONTINUOUS
 62
       7
100
AcDbLine
 10
309.59027708
 20
238.88837012
 30
0.0
 11
298.5
 21
227.79809304
 31
0.0
  0
LINE
  5
308
100
AcDbEntity
  8
0
  6
CONTINUOUS
 62
       7
100
AcDbLine
 10
310.43880522
 20
238.88837012
 30
0.0
 11
298.5
 21
226.9495649
 31
0.0
  0
LINE
  5
309
100
AcDbEntity
  8
0
  6
CONTINUOUS
 62
       7
100
AcDbLine
 10
311.28733336
 20
238.88837012
 30
0.0
 11
298.5
 21
226.10103676
 31
0.0
  0
LINE
  5
30A
100
AcDbEntity
  8
0
  6
CONTINUOUS
 62
       7
100
AcDbLine
 10
312.13586149
 20
238.88837012
 30
0.0
 11
298.5
 21
225.25250863
 31
0.0
  0
LINE
  5
30B
100
AcDbEntity
  8
0
  6
CONTINUOUS
 62
       7
100
AcDbLine
 10
312.98438963
 20
238.88837012
 30
0.0
 11
298.5
 21
224.40398049
 31
0.0
  0
LINE
  5
30C
100
AcDbEntity
  8
0
  6
CONTINUOUS
 62
       7
100
AcDbLine
 10
313.83291777
 20
238.88837012
 30
0.0
 11
298.83291777
 21
223.88837012
 31
0.0
  0
LINE
  5
30D
100
AcDbEntity
  8
0
  6
CONTINUOUS
 62
       7
100
AcDbLine
 10
314.68144591
 20
238.88837012
 30
0.0
 11
299.68144591
 21
223.88837012
 31
0.0
  0
LINE
  5
30E
100
AcDbEntity
  8
0
  6
CONTINUOUS
 62
       7
100
AcDbLine
 10
315.0
 20
238.35839608
 30
0.0
 11
300.52997404
 21
223.88837012
 31
0.0
  0
LINE
  5
30F
100
AcDbEntity
  8
0
  6
CONTINUOUS
 62
       7
100
AcDbLine
 10
315.0
 20
237.50986794
 30
0.0
 11
301.37850218
 21
223.88837012
 31
0.0
  0
LINE
  5
310
100
AcDbEntity
  8
0
  6
CONTINUOUS
 62
       7
100
AcDbLine
 10
315.0
 20
236.6613398
 30
0.0
 11
302.22703032
 21
223.88837012
 31
0.0
  0
LINE
  5
311
100
AcDbEntity
  8
0
  6
CONTINUOUS
 62
       7
100
AcDbLine
 10
315.0
 20
235.81281166
 30
0.0
 11
303.07555846
 21
223.88837012
 31
0.0
  0
LINE
  5
312
100
AcDbEntity
  8
0
  6
CONTINUOUS
 62
       7
100
AcDbLine
 10
315.0
 20
234.96428353
 30
0.0
 11
303.92408659
 21
223.88837012
 31
0.0
  0
LINE
  5
313
100
AcDbEntity
  8
0
  6
CONTINUOUS
 62
       7
100
AcDbLine
 10
315.0
 20
234.11575539
 30
0.0
 11
304.77261473
 21
223.88837012
 31
0.0
  0
LINE
  5
314
100
AcDbEntity
  8
0
  6
CONTINUOUS
 62
       7
100
AcDbLine
 10
315.0
 20
233.26722725
 30
0.0
 11
305.62114287
 21
223.88837012
 31
0.0
  0
LINE
  5
315
100
AcDbEntity
  8
0
  6
CONTINUOUS
 62
       7
100
AcDbLine
 10
315.0
 20
232.41869911
 30
0.0
 11
306.46967101
 21
223.88837012
 31
0.0
  0
LINE
  5
316
100
AcDbEntity
  8
0
  6
CONTINUOUS
 62
       7
100
AcDbLine
 10
315.0
 20
231.57017098
 30
0.0
 11
307.31819914
 21
223.88837012
 31
0.0
  0
LINE
  5
317
100
AcDbEntity
  8
0
  6
CONTINUOUS
 62
       7
100
AcDbLine
 10
315.0
 20
230.72164284
 30
0.0
 11
308.16672728
 21
223.88837012
 31
0.0
  0
LINE
  5
318
100
AcDbEntity
  8
0
  6
CONTINUOUS
 62
       7
100
AcDbLine
 10
315.0
 20
229.8731147
 30
0.0
 11
309.01525542
 21
223.88837012
 31
0.0
  0
LINE
  5
319
100
AcDbEntity
  8
0
  6
CONTINUOUS
 62
       7
100
AcDbLine
 10
315.0
 20
229.02458656
 30
0.0
 11
309.86378355
 21
223.88837012
 31
0.0
  0
LINE
  5
31A
100
AcDbEntity
  8
0
  6
CONTINUOUS
 62
       7
100
AcDbLine
 10
315.0
 20
228.17605843
 30
0.0
 11
310.71231169
 21
223.88837012
 31
0.0
  0
LINE
  5
31B
100
AcDbEntity
  8
0
  6
CONTINUOUS
 62
       7
100
AcDbLine
 10
315.0
 20
227.32753029
 30
0.0
 11
311.56083983
 21
223.88837012
 31
0.0
  0
LINE
  5
31C
100
AcDbEntity
  8
0
  6
CONTINUOUS
 62
       7
100
AcDbLine
 10
315.0
 20
226.47900215
 30
0.0
 11
312.40936797
 21
223.88837012
 31
0.0
  0
LINE
  5
31D
100
AcDbEntity
  8
0
  6
CONTINUOUS
 62
       7
100
AcDbLine
 10
315.0
 20
225.63047401
 30
0.0
 11
313.2578961
 21
223.88837012
 31
0.0
  0
LINE
  5
31E
100
AcDbEntity
  8
0
  6
CONTINUOUS
 62
       7
100
AcDbLine
 10
315.0
 20
224.78194588
 30
0.0
 11
314.10642424
 21
223.88837012
 31
0.0
  0
LINE
  5
31F
100
AcDbEntity
  8
0
  6
CONTINUOUS
 62
       7
100
AcDbLine
 10
315.0
 20
223.93341774
 30
0.0
 11
314.95495238
 21
223.88837012
 31
0.0
  0
LINE
  5
320
100
AcDbEntity
  8
0
  6
CONTINUOUS
 62
       7
100
AcDbLine
 10
-242.25
 20
417.57587012
 30
0.0
 11
-244.79263043
 21
422.07437012
 31
0.0
  0
LINE
  5
321
100
AcDbEntity
  8
0
  6
CONTINUOUS
 62
       7
100
AcDbLine
 10
-254.92666748
 20
426.01337012
 30
0.0
 11
-254.61416748
 21
426.95087012
 31
0.0
  0
LINE
  5
322
100
AcDbEntity
  8
0
  6
CONTINUOUS
 62
       7
100
AcDbLine
 10
-231.03089307
 20
418.68542358
 30
0.0
 11
-231.372
 21
418.51487012
 31
0.0
  0
LINE
  5
323
100
AcDbEntity
  8
0
  6
CONTINUOUS
 62
       7
100
AcDbLine
 10
-230.8125
 20
417.57587012
 30
0.0
 11
-229.2375
 21
419.15087012
 31
0.0
  0
LINE
  5
324
100
AcDbEntity
  8
0
  6
CONTINUOUS
 62
       7
100
AcDbLine
 10
-229.5
 20
417.57587012
 30
0.0
 11
-229.2375
 21
419.15087012
 31
0.0
  0
LINE
  5
325
100
AcDbEntity
  8
0
  6
CONTINUOUS
 62
       7
100
AcDbLine
 10
-222.5625
 20
418.88837012
 30
0.0
 11
-222.5625
 21
418.51487012
 31
0.0
  0
LINE
  5
326
100
AcDbEntity
  8
0
  6
CONTINUOUS
 62
       7
100
AcDbLine
 10
-214.26743836
 20
417.57587012
 30
0.0
 11
-217.6875
 21
417.57587012
 31
0.0
  0
LINE
  5
327
100
AcDbEntity
  8
0
  6
CONTINUOUS
 62
       7
100
AcDbLine
 10
-219.53540257
 20
418.91208037
 30
0.0
 11
-221.0625
 21
417.57587012
 31
0.0
  0
LINE
  5
328
100
AcDbEntity
  8
0
  6
CONTINUOUS
 62
       7
100
AcDbLine
 10
-208.70025599
 20
417.57587012
 30
0.0
 11
-212.625
 21
417.57587012
 31
0.0
  0
LINE
  5
329
100
AcDbEntity
  8
0
  6
CONTINUOUS
 62
       7
100
AcDbLine
 10
-247.804125
 20
418.51487012
 30
0.0
 11
-244.9921875
 21
426.01337012
 31
0.0
  0
LINE
  5
32A
100
AcDbEntity
  8
0
  6
CONTINUOUS
 62
       7
100
AcDbLine
 10
-245.11433506
 20
423.01337012
 30
0.0
 11
-240.72546646
 21
423.01337012
 31
0.0
  0
LINE
  5
32B
100
AcDbEntity
  8
0
  6
CONTINUOUS
 62
       7
100
AcDbLine
 10
-216.86931818
 20
419.82587012
 30
0.0
 11
-217.5
 21
419.82587012
 31
0.0
  0
LINE
  5
32C
100
AcDbEntity
  8
0
  6
CONTINUOUS
 62
       7
100
AcDbLine
 10
-217.5
 20
419.82587012
 30
0.0
 11
-218.11984233
 21
419.82587012
 31
0.0
  0
LINE
  5
32D
100
AcDbEntity
  8
0
  6
CONTINUOUS
 62
       7
100
AcDbLine
 10
-223.60423441
 20
417.57587012
 30
0.0
 11
-221.0625
 21
417.57587012
 31
0.0
  0
CIRCLE
  5
32E
100
AcDbEntity
  8
0
  6
CONTINUOUS
 62
       7
100
AcDbCircle
 10
-227.72422572
 20
422.82587012
 30
0.0
 40
0.56797572
  0
LINE
  5
32F
100
AcDbEntity
  8
0
  6
CONTINUOUS
 62
       7
100
AcDbLine
 10
-247.1015625
 20
426.01337012
 30
0.0
 11
-244.9921875
 21
426.01337012
 31
0.0
  0
LINE
  5
330
100
AcDbEntity
  8
0
  6
CONTINUOUS
 62
       7
100
AcDbLine
 10
-243.98933506
 20
426.01337012
 30
0.0
 11
-240.72546646
 21
426.01337012
 31
0.0
  0
LINE
  5
331
100
AcDbEntity
  8
0
  6
CONTINUOUS
 62
       7
100
AcDbLine
 10
-250.3125
 20
417.57587012
 30
0.0
 11
-249.960375
 21
418.51487012
 31
0.0
  0
LINE
  5
332
100
AcDbEntity
  8
0
  6
CONTINUOUS
 62
       7
100
AcDbLine
 10
-247.1015625
 20
426.01337012
 30
0.0
 11
-246.75
 21
426.95087012
 31
0.0
  0
LINE
  5
333
100
AcDbEntity
  8
0
  6
CONTINUOUS
 62
       7
100
AcDbLine
 10
-247.57076541
 20
426.01337012
 30
0.0
 11
-247.21920291
 21
426.95087012
 31
0.0
  0
LINE
  5
334
100
AcDbEntity
  8
0
  6
CONTINUOUS
 62
       7
100
AcDbLine
 10
-240.72546646
 20
426.95087012
 30
0.0
 11
-246.75
 21
426.95087012
 31
0.0
  0
LINE
  5
335
100
AcDbEntity
  8
0
  6
CONTINUOUS
 62
       7
100
AcDbLine
 10
-247.21920291
 20
426.95087012
 30
0.0
 11
-248.10993105
 21
426.95087012
 31
0.0
  0
LINE
  5
336
100
AcDbEntity
  8
0
  6
CONTINUOUS
 62
       7
100
AcDbLine
 10
-248.46149355
 20
426.01337012
 30
0.0
 11
-247.57076541
 21
426.01337012
 31
0.0
  0
LINE
  5
337
100
AcDbEntity
  8
0
  6
CONTINUOUS
 62
       7
100
AcDbLine
 10
-248.80305088
 20
426.01337012
 30
0.0
 11
-248.45148838
 21
426.95087012
 31
0.0
  0
LINE
  5
338
100
AcDbEntity
  8
0
  6
CONTINUOUS
 62
       7
100
AcDbLine
 10
-248.45148838
 20
426.95087012
 30
0.0
 11
-249.19812705
 21
426.95087012
 31
0.0
  0
LINE
  5
339
100
AcDbEntity
  8
0
  6
CONTINUOUS
 62
       7
100
AcDbLine
 10
-249.54968955
 20
426.01337012
 30
0.0
 11
-248.80305088
 21
426.01337012
 31
0.0
  0
LINE
  5
33A
100
AcDbEntity
  8
0
  6
CONTINUOUS
 62
       7
100
AcDbLine
 10
-249.54968955
 20
426.01337012
 30
0.0
 11
-249.19812705
 21
426.95087012
 31
0.0
  0
LINE
  5
33B
100
AcDbEntity
  8
0
  6
CONTINUOUS
 62
       7
100
AcDbLine
 10
-249.83558754
 20
426.95087012
 30
0.0
 11
-250.5672369
 21
426.95087012
 31
0.0
  0
LINE
  5
33C
100
AcDbEntity
  8
0
  6
CONTINUOUS
 62
       7
100
AcDbLine
 10
-250.9187994
 20
426.01337012
 30
0.0
 11
-250.18715004
 21
426.01337012
 31
0.0
  0
LINE
  5
33D
100
AcDbEntity
  8
0
  6
CONTINUOUS
 62
       7
100
AcDbLine
 10
-250.9187994
 20
426.01337012
 30
0.0
 11
-250.5672369
 21
426.95087012
 31
0.0
  0
LINE
  5
33E
100
AcDbEntity
  8
0
  6
CONTINUOUS
 62
       7
100
AcDbLine
 10
-248.46149355
 20
426.01337012
 30
0.0
 11
-248.10993105
 21
426.95087012
 31
0.0
  0
LINE
  5
33F
100
AcDbEntity
  8
0
  6
CONTINUOUS
 62
       7
100
AcDbLine
 10
-250.18715004
 20
426.01337012
 30
0.0
 11
-249.83558754
 21
426.95087012
 31
0.0
  0
LINE
  5
340
100
AcDbEntity
  8
0
  6
CONTINUOUS
 62
       7
100
AcDbLine
 10
-251.46679355
 20
426.01337012
 30
0.0
 11
-251.11523105
 21
426.95087012
 31
0.0
  0
LINE
  5
341
100
AcDbEntity
  8
0
  6
CONTINUOUS
 62
       7
100
AcDbLine
 10
-251.11523105
 20
426.95087012
 30
0.0
 11
-251.79171194
 21
426.95087012
 31
0.0
  0
LINE
  5
342
100
AcDbEntity
  8
0
  6
CONTINUOUS
 62
       7
100
AcDbLine
 10
-252.14327444
 20
426.01337012
 30
0.0
 11
-251.46679355
 21
426.01337012
 31
0.0
  0
LINE
  5
343
100
AcDbEntity
  8
0
  6
CONTINUOUS
 62
       7
100
AcDbLine
 10
-252.14327444
 20
426.01337012
 30
0.0
 11
-251.79171194
 21
426.95087012
 31
0.0
  0
LINE
  5
344
100
AcDbEntity
  8
0
  6
CONTINUOUS
 62
       7
100
AcDbLine
 10
-252.7159276
 20
426.01337012
 30
0.0
 11
-252.3643651
 21
426.95087012
 31
0.0
  0
LINE
  5
345
100
AcDbEntity
  8
0
  6
CONTINUOUS
 62
       7
100
AcDbLine
 10
-252.3643651
 20
426.95087012
 30
0.0
 11
-252.9659276
 21
426.95087012
 31
0.0
  0
LINE
  5
346
100
AcDbEntity
  8
0
  6
CONTINUOUS
 62
       7
100
AcDbLine
 10
-253.2784276
 20
426.01337012
 30
0.0
 11
-252.7159276
 21
426.01337012
 31
0.0
  0
LINE
  5
347
100
AcDbEntity
  8
0
  6
CONTINUOUS
 62
       7
100
AcDbLine
 10
-253.2784276
 20
426.01337012
 30
0.0
 11
-252.9659276
 21
426.95087012
 31
0.0
  0
LINE
  5
348
100
AcDbEntity
  8
0
  6
CONTINUOUS
 62
       7
100
AcDbLine
 10
-253.87744516
 20
426.01337012
 30
0.0
 11
-253.56494516
 21
426.95087012
 31
0.0
  0
LINE
  5
349
100
AcDbEntity
  8
0
  6
CONTINUOUS
 62
       7
100
AcDbLine
 10
-254.36416748
 20
426.01337012
 30
0.0
 11
-254.05166748
 21
426.95087012
 31
0.0
  0
LINE
  5
34A
100
AcDbEntity
  8
0
  6
CONTINUOUS
 62
       7
100
AcDbLine
 10
-255.27041748
 20
426.01337012
 30
0.0
 11
-254.95791748
 21
426.95087012
 31
0.0
  0
LINE
  5
34B
100
AcDbEntity
  8
0
  6
CONTINUOUS
 62
       7
100
AcDbLine
 10
-255.86416748
 20
426.01337012
 30
0.0
 11
-255.55166748
 21
426.95087012
 31
0.0
  0
LINE
  5
34C
100
AcDbEntity
  8
0
  6
CONTINUOUS
 62
       7
100
AcDbLine
 10
-256.02041748
 20
426.01337012
 30
0.0
 11
-255.70791748
 21
426.95087012
 31
0.0
  0
LINE
  5
34D
100
AcDbEntity
  8
0
  6
CONTINUOUS
 62
       7
100
AcDbLine
 10
-253.56494516
 20
426.95087012
 30
0.0
 11
-254.05166748
 21
426.95087012
 31
0.0
  0
LINE
  5
34E
100
AcDbEntity
  8
0
  6
CONTINUOUS
 62
       7
100
AcDbLine
 10
-254.36416748
 20
426.01337012
 30
0.0
 11
-253.87744516
 21
426.01337012
 31
0.0
  0
LINE
  5
34F
100
AcDbEntity
  8
0
  6
CONTINUOUS
 62
       7
100
AcDbLine
 10
-254.61416748
 20
426.95087012
 30
0.0
 11
-254.95791748
 21
426.95087012
 31
0.0
  0
LINE
  5
350
100
AcDbEntity
  8
0
  6
CONTINUOUS
 62
       7
100
AcDbLine
 10
-255.55166748
 20
426.95087012
 30
0.0
 11
-255.70791748
 21
426.95087012
 31
0.0
  0
LINE
  5
351
100
AcDbEntity
  8
0
  6
CONTINUOUS
 62
       7
100
AcDbLine
 10
-255.27041748
 20
426.01337012
 30
0.0
 11
-254.92666748
 21
426.01337012
 31
0.0
  0
LINE
  5
352
100
AcDbEntity
  8
0
  6
CONTINUOUS
 62
       7
100
AcDbLine
 10
-255.86416748
 20
426.01337012
 30
0.0
 11
-256.02041748
 21
426.01337012
 31
0.0
  0
ARC
  5
353
100
AcDbEntity
  8
0
  6
CONTINUOUS
 62
       7
100
AcDbCircle
 10
-240.72546646
 20
424.51337012
 30
0.0
 40
1.5
100
AcDbArc
 50
269.99999846
 51
450.00000154
  0
LINE
  5
354
100
AcDbEntity
  8
0
  6
CONTINUOUS
 62
       7
100
AcDbLine
 10
-249.960375
 20
418.51487012
 30
0.0
 11
-247.804125
 21
418.51487012
 31
0.0
  0
LINE
  5
355
100
AcDbEntity
  8
0
  6
CONTINUOUS
 62
       7
100
AcDbLine
 10
-250.3125
 20
417.57587012
 30
0.0
 11
-247.15339756
 21
417.57587012
 31
0.0
  0
LINE
  5
356
100
AcDbEntity
  8
0
  6
CONTINUOUS
 62
       7
100
AcDbLine
 10
-247.15339756
 20
417.57587012
 30
0.0
 11
-245.46646006
 21
422.07437012
 31
0.0
  0
LINE
  5
357
100
AcDbEntity
  8
0
  6
CONTINUOUS
 62
       7
100
AcDbLine
 10
-245.11433506
 20
423.01337012
 30
0.0
 11
-243.98933506
 21
426.01337012
 31
0.0
  0
LINE
  5
358
100
AcDbEntity
  8
0
  6
CONTINUOUS
 62
       7
100
AcDbLine
 10
-245.46646006
 20
422.07437012
 30
0.0
 11
-244.79263043
 21
422.07437012
 31
0.0
  0
LINE
  5
359
100
AcDbEntity
  8
0
  6
CONTINUOUS
 62
       7
100
AcDbLine
 10
-243.71401789
 20
422.07437012
 30
0.0
 11
-240.72546646
 21
422.07437012
 31
0.0
  0
LINE
  5
35A
100
AcDbEntity
  8
0
  6
CONTINUOUS
 62
       7
100
AcDbLine
 10
-241.70212658
 20
418.51487012
 30
0.0
 11
-243.71401789
 21
422.07437012
 31
0.0
  0
ARC
  5
35B
100
AcDbEntity
  8
0
  6
CONTINUOUS
 62
       7
100
AcDbCircle
 10
-240.72546646
 20
424.51337012
 30
0.0
 40
2.4375
100
AcDbArc
 50
269.99999846
 51
450.00000154
  0
LINE
  5
35C
100
AcDbEntity
  8
0
  6
CONTINUOUS
 62
       7
100
AcDbLine
 10
-242.25
 20
417.57587012
 30
0.0
 11
-238.875
 21
417.57587012
 31
0.0
  0
LINE
  5
35D
100
AcDbEntity
  8
0
  6
CONTINUOUS
 62
       7
100
AcDbLine
 10
-241.70212658
 20
418.51487012
 30
0.0
 11
-238.9313221
 21
418.51487012
 31
0.0
  0
ARC
  5
35E
100
AcDbEntity
  8
0
  6
CONTINUOUS
 62
       7
100
AcDbCircle
 10
-239.21063822
 20
420.62077271
 30
0.0
 40
2.12434536
100
AcDbArc
 50
277.55531826
 51
282.61004545
  0
ARC
  5
35F
100
AcDbEntity
  8
0
  6
CONTINUOUS
 62
       7
100
AcDbCircle
 10
-239.21063822
 20
420.62077271
 30
0.0
 40
3.06334536
100
AcDbArc
 50
276.29029126
 51
293.79815571
  0
ARC
  5
360
100
AcDbEntity
  8
0
  6
CONTINUOUS
 62
       7
100
AcDbCircle
 10
-239.21063822
 20
420.62077271
 30
0.0
 40
3.06334536
100
AcDbArc
 50
316.5712576
 51
318.01426716
  0
ARC
  5
361
100
AcDbEntity
  8
0
  6
CONTINUOUS
 62
       7
100
AcDbCircle
 10
-237.01039409
 20
419.61183208
 30
0.0
 40
2.03660652
100
AcDbArc
 50
209.33182013
 51
211.50126274
  0
ARC
  5
362
100
AcDbEntity
  8
0
  6
CONTINUOUS
 62
       7
100
AcDbCircle
 10
-237.01039409
 20
419.61183208
 30
0.0
 40
2.03660652
100
AcDbArc
 50
241.74457628
 51
269.99999846
  0
ARC
  5
363
100
AcDbEntity
  8
0
  6
CONTINUOUS
 62
       7
100
AcDbCircle
 10
-231.96016712
 20
421.19852531
 30
0.0
 40
3.64232051
100
AcDbArc
 50
241.28311362
 51
264.04345057
  0
LINE
  5
364
100
AcDbEntity
  8
0
  6
CONTINUOUS
 62
       7
100
AcDbLine
 10
-237.01039409
 20
417.57587012
 30
0.0
 11
-234.89735329
 21
417.57587012
 31
0.0
  0
ARC
  5
365
100
AcDbEntity
  8
0
  6
CONTINUOUS
 62
       7
100
AcDbCircle
 10
-231.96016712
 20
421.19852531
 30
0.0
 40
2.70332051
100
AcDbArc
 50
251.08707921
 51
263.08482659
  0
ARC
  5
366
100
AcDbEntity
  8
0
  6
CONTINUOUS
 62
       7
100
AcDbCircle
 10
-235.69439623
 20
421.64414454
 30
0.0
 40
3.20661627
100
AcDbArc
 50
282.60950804
 51
291.93126858
  0
LINE
  5
367
100
AcDbEntity
  8
0
  6
CONTINUOUS
 62
       7
100
AcDbLine
 10
-236.98594519
 20
418.51487012
 30
0.0
 11
-234.99437519
 21
418.51487012
 31
0.0
  0
ARC
  5
368
100
AcDbEntity
  8
0
  6
CONTINUOUS
 62
       7
100
AcDbCircle
 10
-235.69439623
 20
421.64414454
 30
0.0
 40
4.14561627
100
AcDbArc
 50
313.58286062
 51
326.24939208
  0
ARC
  5
369
100
AcDbEntity
  8
0
  6
CONTINUOUS
 62
       7
100
AcDbCircle
 10
-235.69439623
 20
421.64414454
 30
0.0
 40
4.14561627
100
AcDbArc
 50
281.08479839
 51
298.59507286
  0
LINE
  5
36A
100
AcDbEntity
  8
0
  6
CONTINUOUS
 62
       7
100
AcDbLine
 10
-232.33814603
 20
417.57587012
 30
0.0
 11
-230.8125
 21
417.57587012
 31
0.0
  0
LINE
  5
36B
100
AcDbEntity
  8
0
  6
CONTINUOUS
 62
       7
100
AcDbLine
 10
-231.03089307
 20
418.68542358
 30
0.0
 11
-228.47945258
 21
421.23686407
 31
0.0
  0
LINE
  5
36C
100
AcDbEntity
  8
0
  6
CONTINUOUS
 62
       7
100
AcDbLine
 10
-228.39154766
 20
418.51487012
 30
0.0
 11
-227.97900442
 21
420.99012959
 31
0.0
  0
LINE
  5
36D
100
AcDbEntity
  8
0
  6
CONTINUOUS
 62
       7
100
AcDbLine
 10
-232.28564613
 20
418.51487012
 30
0.0
 11
-231.372
 21
418.51487012
 31
0.0
  0
ARC
  5
36E
100
AcDbEntity
  8
0
  6
CONTINUOUS
 62
       7
100
AcDbCircle
 10
-228.26639474
 20
421.03802798
 30
0.0
 40
0.29142656
100
AcDbArc
 50
350.53767763
 51
496.97750809
  0
LINE
  5
36F
100
AcDbEntity
  8
0
  6
CONTINUOUS
 62
       7
100
AcDbLine
 10
-227.40139776
 20
418.51487012
 30
0.0
 11
-225.83857798
 21
419.26551584
 31
0.0
  0
LINE
  5
370
100
AcDbEntity
  8
0
  6
CONTINUOUS
 62
       7
100
AcDbLine
 10
-227.25
 20
417.57587012
 30
0.0
 11
-225.94155176
 21
418.15565982
 31
0.0
  0
LINE
  5
371
100
AcDbEntity
  8
0
  6
CONTINUOUS
 62
       7
100
AcDbLine
 10
-228.39154766
 20
418.51487012
 30
0.0
 11
-227.40139776
 21
418.51487012
 31
0.0
  0
LINE
  5
372
100
AcDbEntity
  8
0
  6
CONTINUOUS
 62
       7
100
AcDbLine
 10
-224.04187763
 20
417.99892524
 30
0.0
 11
-223.60423441
 21
417.57587012
 31
0.0
  0
LINE
  5
373
100
AcDbEntity
  8
0
  6
CONTINUOUS
 62
       7
100
AcDbLine
 10
-222.5625
 20
418.51487012
 30
0.0
 11
-221.24336327
 21
418.51487012
 31
0.0
  0
LINE
  5
374
100
AcDbEntity
  8
0
  6
CONTINUOUS
 62
       7
100
AcDbLine
 10
-218.24507756
 20
421.13837012
 30
0.0
 11
-221.24336327
 21
418.51487012
 31
0.0
  0
LINE
  5
375
100
AcDbEntity
  8
0
  6
CONTINUOUS
 62
       7
100
AcDbLine
 10
-222.80936937
 20
420.95715764
 30
0.0
 11
-221.81021363
 21
420.95715764
 31
0.0
  0
LINE
  5
376
100
AcDbEntity
  8
0
  6
CONTINUOUS
 62
       7
100
AcDbLine
 10
-223.03618389
 20
420.33341773
 30
0.0
 11
-222.80936937
 21
420.95715764
 31
0.0
  0
LINE
  5
377
100
AcDbEntity
  8
0
  6
CONTINUOUS
 62
       7
100
AcDbLine
 10
-222.5625
 20
418.88837012
 30
0.0
 11
-221.81021363
 21
420.95715764
 31
0.0
  0
LINE
  5
378
100
AcDbEntity
  8
0
  6
CONTINUOUS
 62
       7
100
AcDbLine
 10
-220.01055585
 20
417.60540886
 30
0.0
 11
-219.53540257
 21
418.91208037
 31
0.0
  0
LINE
  5
379
100
AcDbEntity
  8
0
  6
CONTINUOUS
 62
       7
100
AcDbLine
 10
-218.11984233
 20
419.82587012
 30
0.0
 11
-218.93802415
 21
417.57587012
 31
0.0
  0
LINE
  5
37A
100
AcDbEntity
  8
0
  6
CONTINUOUS
 62
       7
100
AcDbLine
 10
-217.6875
 20
417.57587012
 30
0.0
 11
-216.86931818
 21
419.82587012
 31
0.0
  0
LINE
  5
37B
100
AcDbEntity
  8
0
  6
CONTINUOUS
 62
       7
100
AcDbLine
 10
-215.50137093
 20
420.54085006
 30
0.0
 11
-216.23809091
 21
418.51487012
 31
0.0
  0
LINE
  5
37C
100
AcDbEntity
  8
0
  6
CONTINUOUS
 62
       7
100
AcDbLine
 10
-215.81312053
 20
421.13837012
 30
0.0
 11
-215.50137093
 21
420.54085006
 31
0.0
  0
LINE
  5
37D
100
AcDbEntity
  8
0
  6
CONTINUOUS
 62
       7
100
AcDbLine
 10
-217.87020395
 20
420.58066617
 30
0.0
 11
-217.68575106
 21
421.13837012
 31
0.0
  0
LINE
  5
37E
100
AcDbEntity
  8
0
  6
CONTINUOUS
 62
       7
100
AcDbLine
 10
-217.87020395
 20
420.58066617
 30
0.0
 11
-216.87135819
 21
421.13837012
 31
0.0
  0
LINE
  5
37F
100
AcDbEntity
  8
0
  6
CONTINUOUS
 62
       7
100
AcDbLine
 10
-215.81312053
 20
421.13837012
 30
0.0
 11
-216.87135819
 21
421.13837012
 31
0.0
  0
LINE
  5
380
100
AcDbEntity
  8
0
  6
CONTINUOUS
 62
       7
100
AcDbLine
 10
-217.68575106
 20
421.13837012
 30
0.0
 11
-218.24507756
 21
421.13837012
 31
0.0
  0
ARC
  5
381
100
AcDbEntity
  8
0
  6
CONTINUOUS
 62
       7
100
AcDbCircle
 10
-209.03589421
 20
420.62077271
 30
0.0
 40
2.12434536
100
AcDbArc
 50
277.55531826
 51
282.61004545
  0
ARC
  5
382
100
AcDbEntity
  8
0
  6
CONTINUOUS
 62
       7
100
AcDbCircle
 10
-209.03589421
 20
420.62077271
 30
0.0
 40
3.06334536
100
AcDbArc
 50
276.29029126
 51
293.79815571
  0
ARC
  5
383
100
AcDbEntity
  8
0
  6
CONTINUOUS
 62
       7
100
AcDbCircle
 10
-209.03589421
 20
420.62077271
 30
0.0
 40
3.06334536
100
AcDbArc
 50
316.5712576
 51
318.01426716
  0
ARC
  5
384
100
AcDbEntity
  8
0
  6
CONTINUOUS
 62
       7
100
AcDbCircle
 10
-206.83565008
 20
419.61183208
 30
0.0
 40
2.03660652
100
AcDbArc
 50
209.33182013
 51
211.50126274
  0
ARC
  5
385
100
AcDbEntity
  8
0
  6
CONTINUOUS
 62
       7
100
AcDbCircle
 10
-206.83565008
 20
419.61183208
 30
0.0
 40
2.03660652
100
AcDbArc
 50
241.74457628
 51
269.99999846
  0
LINE
  5
386
100
AcDbEntity
  8
0
  6
CONTINUOUS
 62
       7
100
AcDbLine
 10
-212.01810583
 20
418.51487012
 30
0.0
 11
-208.7565781
 21
418.51487012
 31
0.0
  0
LINE
  5
387
100
AcDbEntity
  8
0
  6
CONTINUOUS
 62
       7
100
AcDbLine
 10
-206.83565008
 20
417.57587012
 30
0.0
 11
-205.03002725
 21
417.57587012
 31
0.0
  0
LINE
  5
388
100
AcDbEntity
  8
0
  6
CONTINUOUS
 62
       7
100
AcDbLine
 10
-206.81120118
 20
418.51487012
 30
0.0
 11
-204.81963118
 21
418.51487012
 31
0.0
  0
LINE
  5
389
100
AcDbEntity
  8
0
  6
CONTINUOUS
 62
       7
100
AcDbLine
 10
-229.5
 20
417.57587012
 30
0.0
 11
-227.25
 21
417.57587012
 31
0.0
  0
LINE
  5
38A
100
AcDbEntity
  8
0
  6
CONTINUOUS
 62
       7
100
AcDbLine
 10
-220.01055585
 20
417.60540886
 30
0.0
 11
-218.93802415
 21
417.57587012
 31
0.0
  0
LINE
  5
38B
100
AcDbEntity
  8
0
  6
CONTINUOUS
 62
       7
100
AcDbLine
 10
-216.23809091
 20
418.51487012
 30
0.0
 11
-214.50423216
 21
418.51487012
 31
0.0
  0
LINE
  5
38C
100
AcDbEntity
  8
0
  6
CONTINUOUS
 62
       7
100
AcDbLine
 10
-211.30448845
 20
419.86665426
 30
0.0
 11
-210.60403749
 21
420.43285212
 31
0.0
  0
ARC
  5
38D
100
AcDbEntity
  8
0
  6
CONTINUOUS
 62
       7
100
AcDbCircle
 10
-212.01810583
 20
419.38487012
 30
0.0
 40
0.87
100
AcDbArc
 50
34.0753753
 51
269.99999846
  0
ARC
  5
38E
100
AcDbEntity
  8
0
  6
CONTINUOUS
 62
       7
100
AcDbCircle
 10
-212.01810583
 20
419.38487012
 30
0.0
 40
1.7600726
100
AcDbArc
 50
36.54256208
 51
190.98611795
  0
LINE
  5
38F
100
AcDbEntity
  8
0
  6
CONTINUOUS
 62
       7
100
AcDbLine
 10
-214.26743836
 20
417.57587012
 30
0.0
 11
-213.37591188
 21
418.23189904
 31
0.0
  0
LINE
  5
390
100
AcDbEntity
  8
0
  6
CONTINUOUS
 62
       7
100
AcDbLine
 10
-213.75710256
 20
419.06464473
 30
0.0
 11
-214.50423216
 21
418.51487012
 31
0.0
  0
LINE
  5
391
100
AcDbEntity
  8
0
  6
CONTINUOUS
 62
       7
100
AcDbLine
 10
-213.37591188
 20
418.23189904
 30
0.0
 11
-212.625
 21
417.57587012
 31
0.0
  0
LINE
  5
392
100
AcDbEntity
  8
0
  6
CONTINUOUS
 62
       7
100
AcDbLine
 10
-204.81963118
 20
418.51487012
 30
0.0
 11
-205.03002725
 21
417.57587012
 31
0.0
  0
LINE
  5
393
100
AcDbEntity
  8
0
  6
CONTINUOUS
 62
       7
100
AcDbLine
 10
-254.68447998
 20
426.73993262
 30
0.0
 11
-255.20010498
 21
426.22430762
 31
0.0
  0
LINE
  5
394
100
AcDbEntity
  8
0
  6
CONTINUOUS
 62
       7
100
AcDbLine
 10
-253.59951458
 20
426.84716186
 30
0.0
 11
-254.32959805
 21
426.11707838
 31
0.0
  0
LINE
  5
395
100
AcDbEntity
  8
0
  6
CONTINUOUS
 62
       7
100
AcDbLine
 10
-252.37139635
 20
426.93212012
 30
0.0
 11
-253.27256823
 21
426.03094824
 31
0.0
  0
LINE
  5
396
100
AcDbEntity
  8
0
  6
CONTINUOUS
 62
       7
100
AcDbLine
 10
-251.16050275
 20
426.95087012
 30
0.0
 11
-252.09800275
 21
426.01337012
 31
0.0
  0
LINE
  5
397
100
AcDbEntity
  8
0
  6
CONTINUOUS
 62
       7
100
AcDbLine
 10
-249.90844347
 20
426.95087012
 30
0.0
 11
-250.84594347
 21
426.01337012
 31
0.0
  0
LINE
  5
398
100
AcDbEntity
  8
0
  6
CONTINUOUS
 62
       7
100
AcDbLine
 10
-248.53183897
 20
426.95087012
 30
0.0
 11
-249.46933897
 21
426.01337012
 31
0.0
  0
LINE
  5
399
100
AcDbEntity
  8
0
  6
CONTINUOUS
 62
       7
100
AcDbLine
 10
-247.37159823
 20
426.95087012
 30
0.0
 11
-248.30909823
 21
426.01337012
 31
0.0
  0
LINE
  5
39A
100
AcDbEntity
  8
0
  6
CONTINUOUS
 62
       7
100
AcDbLine
 10
-247.04724319
 20
417.85894844
 30
0.0
 11
-247.33032151
 21
417.57587012
 31
0.0
  0
LINE
  5
39B
100
AcDbEntity
  8
0
  6
CONTINUOUS
 62
       7
100
AcDbLine
 10
-246.53812631
 20
419.21659346
 30
0.0
 11
-248.17884965
 21
417.57587012
 31
0.0
  0
LINE
  5
39C
100
AcDbEntity
  8
0
  6
CONTINUOUS
 62
       7
100
AcDbLine
 10
-246.02900943
 20
420.57423848
 30
0.0
 11
-247.63357333
 21
418.96967457
 31
0.0
  0
LINE
  5
39D
100
AcDbEntity
  8
0
  6
CONTINUOUS
 62
       7
100
AcDbLine
 10
-248.08837779
 20
418.51487012
 30
0.0
 11
-249.02737779
 21
417.57587012
 31
0.0
  0
LINE
  5
39E
100
AcDbEntity
  8
0
  6
CONTINUOUS
 62
       7
100
AcDbLine
 10
-245.51989254
 20
421.9318835
 30
0.0
 11
-247.12445645
 21
420.32731959
 31
0.0
  0
LINE
  5
39F
100
AcDbEntity
  8
0
  6
CONTINUOUS
 62
       7
100
AcDbLine
 10
-248.93690592
 20
418.51487012
 30
0.0
 11
-249.87590592
 21
417.57587012
 31
0.0
  0
LINE
  5
3A0
100
AcDbEntity
  8
0
  6
CONTINUOUS
 62
       7
100
AcDbLine
 10
-249.78543406
 20
418.51487012
 30
0.0
 11
-250.06533956
 21
418.23496461
 31
0.0
  0
LINE
  5
3A1
100
AcDbEntity
  8
0
  6
CONTINUOUS
 62
       7
100
AcDbLine
 10
-243.89501847
 20
426.95087012
 30
0.0
 11
-245.08798892
 21
425.75789967
 31
0.0
  0
LINE
  5
3A2
100
AcDbEntity
  8
0
  6
CONTINUOUS
 62
       7
100
AcDbLine
 10
-244.74354661
 20
426.95087012
 30
0.0
 11
-245.68104661
 21
426.01337012
 31
0.0
  0
LINE
  5
3A3
100
AcDbEntity
  8
0
  6
CONTINUOUS
 62
       7
100
AcDbLine
 10
-245.59207475
 20
426.95087012
 30
0.0
 11
-246.52957475
 21
426.01337012
 31
0.0
  0
LINE
  5
3A4
100
AcDbEntity
  8
0
  6
CONTINUOUS
 62
       7
100
AcDbLine
 10
-246.44060288
 20
426.95087012
 30
0.0
 11
-246.93563827
 21
426.45583473
 31
0.0
  0
LINE
  5
3A5
100
AcDbEntity
  8
0
  6
CONTINUOUS
 62
       7
100
AcDbLine
 10
-237.83730871
 20
421.12918596
 30
0.0
 11
-238.73487872
 21
420.23161595
 31
0.0
  0
LINE
  5
3A6
100
AcDbEntity
  8
0
  6
CONTINUOUS
 62
       7
100
AcDbLine
 10
-236.93369667
 20
421.18426986
 30
0.0
 11
-238.9561783
 21
419.16178823
 31
0.0
  0
LINE
  5
3A7
100
AcDbEntity
  8
0
  6
CONTINUOUS
 62
       7
100
AcDbLine
 10
-236.27805653
 20
420.14285372
 30
0.0
 11
-238.84111379
 21
417.57979647
 31
0.0
  0
LINE
  5
3A8
100
AcDbEntity
  8
0
  6
CONTINUOUS
 62
       7
100
AcDbLine
 10
-242.1979622
 20
426.95087012
 30
0.0
 11
-243.1354622
 21
426.01337012
 31
0.0
  0
LINE
  5
3A9
100
AcDbEntity
  8
0
  6
CONTINUOUS
 62
       7
100
AcDbLine
 10
-244.50165878
 20
424.64717354
 30
0.0
 11
-246.10622268
 21
423.04260963
 31
0.0
  0
LINE
  5
3AA
100
AcDbEntity
  8
0
  6
CONTINUOUS
 62
       7
100
AcDbLine
 10
-241.34943406
 20
426.95087012
 30
0.0
 11
-242.28693406
 21
426.01337012
 31
0.0
  0
LINE
  5
3AB
100
AcDbEntity
  8
0
  6
CONTINUOUS
 62
       7
100
AcDbLine
 10
-245.01077566
 20
423.28952852
 30
0.0
 11
-246.61533956
 21
421.68496461
 31
0.0
  0
LINE
  5
3AC
100
AcDbEntity
  8
0
  6
CONTINUOUS
 62
       7
100
AcDbLine
 10
-240.51041137
 20
426.94136467
 30
0.0
 11
-241.43840592
 21
426.01337012
 31
0.0
  0
LINE
  5
3AD
100
AcDbEntity
  8
0
  6
CONTINUOUS
 62
       7
100
AcDbLine
 10
-244.43840592
 20
423.01337012
 30
0.0
 11
-245.37740592
 21
422.07437012
 31
0.0
  0
LINE
  5
3AE
100
AcDbEntity
  8
0
  6
CONTINUOUS
 62
       7
100
AcDbLine
 10
-239.82485863
 20
426.77838928
 30
0.0
 11
-240.59551731
 21
426.00773059
 31
0.0
  0
LINE
  5
3AF
100
AcDbEntity
  8
0
  6
CONTINUOUS
 62
       7
100
AcDbLine
 10
-243.58987779
 20
423.01337012
 30
0.0
 11
-244.69738642
 21
421.90586148
 31
0.0
  0
LINE
  5
3B0
100
AcDbEntity
  8
0
  6
CONTINUOUS
 62
       7
100
AcDbLine
 10
-239.27924572
 20
426.47547405
 30
0.0
 11
-239.95459022
 21
425.80012955
 31
0.0
  0
LINE
  5
3B1
100
AcDbEntity
  8
0
  6
CONTINUOUS
 62
       7
100
AcDbLine
 10
-238.84361492
 20
426.0625767
 30
0.0
 11
-239.51160552
 21
425.39458611
 31
0.0
  0
LINE
  5
3B2
100
AcDbEntity
  8
0
  6
CONTINUOUS
 62
       7
100
AcDbLine
 10
-238.51564841
 20
425.54201508
 30
0.0
 11
-239.25385351
 21
424.80380998
 31
0.0
  0
LINE
  5
3B3
100
AcDbEntity
  8
0
  6
CONTINUOUS
 62
       7
100
AcDbLine
 10
-238.31749656
 20
424.8916388
 30
0.0
 11
-239.40226826
 21
423.80686709
 31
0.0
  0
LINE
  5
3B4
100
AcDbEntity
  8
0
  6
CONTINUOUS
 62
       7
100
AcDbLine
 10
-243.04649033
 20
426.95087012
 30
0.0
 11
-243.98399033
 21
426.01337012
 31
0.0
  0
LINE
  5
3B5
100
AcDbEntity
  8
0
  6
CONTINUOUS
 62
       7
100
AcDbLine
 10
-243.9925419
 20
426.00481856
 30
0.0
 11
-245.5971058
 21
424.40025465
 31
0.0
  0
LINE
  5
3B6
100
AcDbEntity
  8
0
  6
CONTINUOUS
 62
       7
100
AcDbLine
 10
-241.89282151
 20
423.01337012
 30
0.0
 11
-242.83182151
 21
422.07437012
 31
0.0
  0
LINE
  5
3B7
100
AcDbEntity
  8
0
  6
CONTINUOUS
 62
       7
100
AcDbLine
 10
-243.39544697
 20
421.51074465
 30
0.0
 11
-244.08456055
 21
420.82163108
 31
0.0
  0
LINE
  5
3B8
100
AcDbEntity
  8
0
  6
CONTINUOUS
 62
       7
100
AcDbLine
 10
-242.74134965
 20
423.01337012
 30
0.0
 11
-243.68034965
 21
422.07437012
 31
0.0
  0
LINE
  5
3B9
100
AcDbEntity
  8
0
  6
CONTINUOUS
 62
       7
100
AcDbLine
 10
-243.70185991
 20
422.05285985
 30
0.0
 11
-244.39097348
 21
421.36374628
 31
0.0
  0
LINE
  5
3BA
100
AcDbEntity
  8
0
  6
CONTINUOUS
 62
       7
100
AcDbLine
 10
-241.04429337
 20
423.01337012
 30
0.0
 11
-241.98329337
 21
422.07437012
 31
0.0
  0
LINE
  5
3BB
100
AcDbEntity
  8
0
  6
CONTINUOUS
 62
       7
100
AcDbLine
 10
-243.08903404
 20
420.96862946
 30
0.0
 11
-243.77814761
 21
420.27951588
 31
0.0
  0
LINE
  5
3BC
100
AcDbEntity
  8
0
  6
CONTINUOUS
 62
       7
100
AcDbLine
 10
-240.01896343
 20
423.19017192
 30
0.0
 11
-241.13476524
 21
422.07437012
 31
0.0
  0
LINE
  5
3BD
100
AcDbEntity
  8
0
  6
CONTINUOUS
 62
       7
100
AcDbLine
 10
-242.7826211
 20
420.42651426
 30
0.0
 11
-243.47173467
 21
419.73740069
 31
0.0
  0
LINE
  5
3BE
100
AcDbEntity
  8
0
  6
CONTINUOUS
 62
       7
100
AcDbLine
 10
-238.33785188
 20
424.02275534
 30
0.0
 11
-240.23485168
 21
422.12575554
 31
0.0
  0
LINE
  5
3BF
100
AcDbEntity
  8
0
  6
CONTINUOUS
 62
       7
100
AcDbLine
 10
-242.47620816
 20
419.88439906
 30
0.0
 11
-243.16532173
 21
419.19528549
 31
0.0
  0
LINE
  5
3C0
100
AcDbEntity
  8
0
  6
CONTINUOUS
 62
       7
100
AcDbLine
 10
-242.16979522
 20
419.34228386
 30
0.0
 11
-242.85890879
 21
418.65317029
 31
0.0
  0
LINE
  5
3C1
100
AcDbEntity
  8
0
  6
CONTINUOUS
 62
       7
100
AcDbLine
 10
-241.86338228
 20
418.80016866
 30
0.0
 11
-242.55249585
 21
418.11105509
 31
0.0
  0
LINE
  5
3C2
100
AcDbEntity
  8
0
  6
CONTINUOUS
 62
       7
100
AcDbLine
 10
-241.30015269
 20
418.51487012
 30
0.0
 11
-242.23915269
 21
417.57587012
 31
0.0
  0
LINE
  5
3C3
100
AcDbEntity
  8
0
  6
CONTINUOUS
 62
       7
100
AcDbLine
 10
-240.45162455
 20
418.51487012
 30
0.0
 11
-241.39062455
 21
417.57587012
 31
0.0
  0
LINE
  5
3C4
100
AcDbEntity
  8
0
  6
CONTINUOUS
 62
       7
100
AcDbLine
 10
-239.60309641
 20
418.51487012
 30
0.0
 11
-240.54209641
 21
417.57587012
 31
0.0
  0
LINE
  5
3C5
100
AcDbEntity
  8
0
  6
CONTINUOUS
 62
       7
100
AcDbLine
 10
-236.47303061
 20
420.79640778
 30
0.0
 11
-237.25065583
 21
420.01878256
 31
0.0
  0
LINE
  5
3C6
100
AcDbEntity
  8
0
  6
CONTINUOUS
 62
       7
100
AcDbLine
 10
-237.95690669
 20
419.3125317
 30
0.0
 11
-239.69356827
 21
417.57587012
 31
0.0
  0
LINE
  5
3C7
100
AcDbEntity
  8
0
  6
CONTINUOUS
 62
       7
100
AcDbLine
 10
-231.85377665
 20
423.71860547
 30
0.0
 11
-234.00528384
 21
421.56709827
 31
0.0
  0
LINE
  5
3C8
100
AcDbEntity
  8
0
  6
CONTINUOUS
 62
       7
100
AcDbLine
 10
-236.61334177
 20
418.95904035
 30
0.0
 11
-237.82649403
 21
417.74588809
 31
0.0
  0
LINE
  5
3C9
100
AcDbEntity
  8
0
  6
CONTINUOUS
 62
       7
100
AcDbLine
 10
-231.27082947
 20
423.45302451
 30
0.0
 11
-234.48938587
 21
420.23446811
 31
0.0
  0
LINE
  5
3CA
100
AcDbEntity
  8
0
  6
CONTINUOUS
 62
       7
100
AcDbLine
 10
-236.20898386
 20
418.51487012
 30
0.0
 11
-237.14422637
 21
417.57962761
 31
0.0
  0
LINE
  5
3CB
100
AcDbEntity
  8
0
  6
CONTINUOUS
 62
       7
100
AcDbLine
 10
-235.36045572
 20
418.51487012
 30
0.0
 11
-236.29945572
 21
417.57587012
 31
0.0
  0
LINE
  5
3CC
100
AcDbEntity
  8
0
  6
CONTINUOUS
 62
       7
100
AcDbLine
 10
-231.05955655
 20
422.8157693
 30
0.0
 11
-232.28135363
 21
421.59397221
 31
0.0
  0
LINE
  5
3CD
100
AcDbEntity
  8
0
  6
CONTINUOUS
 62
       7
100
AcDbLine
 10
-233.38001655
 20
420.4953093
 30
0.0
 11
-234.60181363
 21
419.27351221
 31
0.0
  0
LINE
  5
3CE
100
AcDbEntity
  8
0
  6
CONTINUOUS
 62
       7
100
AcDbLine
 10
-231.10835912
 20
421.91843858
 30
0.0
 11
-235.45092759
 21
417.57587012
 31
0.0
  0
LINE
  5
3CF
100
AcDbEntity
  8
0
  6
CONTINUOUS
 62
       7
100
AcDbLine
 10
-231.47688789
 20
420.70138168
 30
0.0
 11
-234.50565108
 21
417.67261849
 31
0.0
  0
LINE
  5
3D0
100
AcDbEntity
  8
0
  6
CONTINUOUS
 62
       7
100
AcDbLine
 10
-228.3052165
 20
421.32685718
 30
0.0
 11
-232.05620356
 21
417.57587012
 31
0.0
  0
LINE
  5
3D1
100
AcDbEntity
  8
0
  6
CONTINUOUS
 62
       7
100
AcDbLine
 10
-228.01589254
 20
423.31323742
 30
0.0
 11
-228.21159302
 21
423.11753694
 31
0.0
  0
LINE
  5
3D2
100
AcDbEntity
  8
0
  6
CONTINUOUS
 62
       7
100
AcDbLine
 10
-232.72382152
 20
418.60530844
 30
0.0
 11
-233.45296239
 21
417.87616757
 31
0.0
  0
LINE
  5
3D3
100
AcDbEntity
  8
0
  6
CONTINUOUS
 62
       7
100
AcDbLine
 10
-227.28936516
 20
423.19123666
 30
0.0
 11
-228.08959226
 21
422.39100956
 31
0.0
  0
LINE
  5
3D4
100
AcDbEntity
  8
0
  6
CONTINUOUS
 62
       7
100
AcDbLine
 10
-231.9657317
 20
418.51487012
 30
0.0
 11
-232.82116886
 21
417.65943296
 31
0.0
  0
LINE
  5
3D5
100
AcDbEntity
  8
0
  6
CONTINUOUS
 62
       7
100
AcDbLine
 10
-223.66997232
 20
420.87093254
 30
0.0
 11
-226.73828941
 21
417.80261545
 31
0.0
  0
LINE
  5
3D6
100
AcDbEntity
  8
0
  6
CONTINUOUS
 62
       7
100
AcDbLine
 10
-227.72309101
 20
418.51487012
 30
0.0
 11
-228.66209101
 21
417.57587012
 31
0.0
  0
LINE
  5
3D7
100
AcDbEntity
  8
0
  6
CONTINUOUS
 62
       7
100
AcDbLine
 10
-228.35553337
 20
418.7309559
 30
0.0
 11
-229.51061915
 21
417.57587012
 31
0.0
  0
LINE
  5
3D8
100
AcDbEntity
  8
0
  6
CONTINUOUS
 62
       7
100
AcDbLine
 10
-228.18582774
 20
419.74918967
 30
0.0
 11
-229.32817054
 21
418.60684687
 31
0.0
  0
LINE
  5
3D9
100
AcDbEntity
  8
0
  6
CONTINUOUS
 62
       7
100
AcDbLine
 10
-231.20767543
 20
417.57587012
 30
0.0
 11
-228.01612211
 21
420.76742343
 31
0.0
  0
LINE
  5
3DA
100
AcDbEntity
  8
0
  6
CONTINUOUS
 62
       7
100
AcDbLine
 10
-221.88669094
 20
420.95715764
 30
0.0
 11
-225.26233088
 21
417.58151771
 31
0.0
  0
LINE
  5
3DB
100
AcDbEntity
  8
0
  6
CONTINUOUS
 62
       7
100
AcDbLine
 10
-222.25138553
 20
419.74393492
 30
0.0
 11
-224.01875098
 21
417.97656947
 31
0.0
  0
LINE
  5
3DC
100
AcDbEntity
  8
0
  6
CONTINUOUS
 62
       7
100
AcDbLine
 10
-222.5625
 20
418.58429231
 30
0.0
 11
-223.57092219
 21
417.57587012
 31
0.0
  0
LINE
  5
3DD
100
AcDbEntity
  8
0
  6
CONTINUOUS
 62
       7
100
AcDbLine
 10
-221.78339405
 20
418.51487012
 30
0.0
 11
-222.72239405
 21
417.57587012
 31
0.0
  0
LINE
  5
3DE
100
AcDbEntity
  8
0
  6
CONTINUOUS
 62
       7
100
AcDbLine
 10
-218.77538441
 20
420.67435163
 30
0.0
 11
-221.87386591
 21
417.57587012
 31
0.0
  0
LINE
  5
3DF
100
AcDbEntity
  8
0
  6
CONTINUOUS
 62
       7
100
AcDbLine
 10
-224.94893444
 20
420.44049856
 30
0.0
 11
-225.43119675
 21
419.95823625
 31
0.0
  0
LINE
  5
3E0
100
AcDbEntity
  8
0
  6
CONTINUOUS
 62
       7
100
AcDbLine
 10
-226.38763972
 20
419.00179327
 30
0.0
 11
-227.81356288
 21
417.57587012
 31
0.0
  0
LINE
  5
3E1
100
AcDbEntity
  8
0
  6
CONTINUOUS
 62
       7
100
AcDbLine
 10
-224.66249651
 20
419.02988021
 30
0.0
 11
-225.80521327
 21
417.88716345
 31
0.0
  0
LINE
  5
3E2
100
AcDbEntity
  8
0
  6
CONTINUOUS
 62
       7
100
AcDbLine
 10
-222.73521908
 20
420.95715764
 30
0.0
 11
-222.85174097
 21
420.84063575
 31
0.0
  0
LINE
  5
3E3
100
AcDbEntity
  8
0
  6
CONTINUOUS
 62
       7
100
AcDbLine
 10
-223.14508367
 20
420.54729305
 30
0.0
 11
-223.95180385
 21
419.74057287
 31
0.0
  0
LINE
  5
3E4
100
AcDbEntity
  8
0
  6
CONTINUOUS
 62
       7
100
AcDbLine
 10
-216.58099742
 20
421.13837012
 30
0.0
 11
-217.89349742
 21
419.82587012
 31
0.0
  0
LINE
  5
3E5
100
AcDbEntity
  8
0
  6
CONTINUOUS
 62
       7
100
AcDbLine
 10
-218.24918227
 20
419.47018527
 30
0.0
 11
-219.95146851
 21
417.76789903
 31
0.0
  0
LINE
  5
3E6
100
AcDbEntity
  8
0
  6
CONTINUOUS
 62
       7
100
AcDbLine
 10
-273.9375
 20
400.23245871
 30
0.0
 11
283.125
 21
400.23245871
 31
0.0
  0
LINE
  5
3E7
100
AcDbEntity
  8
0
  6
CONTINUOUS
 62
       7
100
AcDbLine
 10
-273.1875
 20
-423.36162988
 30
0.0
 11
280.125
 21
-423.36162988
 31
0.0
  0
LINE
  5
3E8
100
AcDbEntity
  8
0
  6
CONTINUOUS
 62
       7
100
AcDbLine
 10
-273.1875
 20
-387.17412988
 30
0.0
 11
280.125
 21
-387.17412988
 31
0.0
  0
LINE
  5
3E9
100
AcDbEntity
  8
0
  6
CONTINUOUS
 62
       7
100
AcDbLine
 10
-273.1875
 20
-382.11162988
 30
0.0
 11
280.125
 21
-382.11162988
 31
0.0
  0
LINE
  5
3EA
100
AcDbEntity
  8
0
  6
CONTINUOUS
 62
       7
100
AcDbLine
 10
-273.1875
 20
-382.11162988
 30
0.0
 11
-273.1875
 21
-247.11162988
 31
0.0
  0
LINE
  5
3EB
100
AcDbEntity
  8
0
  6
CONTINUOUS
 62
       7
100
AcDbLine
 10
280.125
 20
-382.11162988
 30
0.0
 11
280.125
 21
-247.11162988
 31
0.0
  0
LINE
  5
3EC
100
AcDbEntity
  8
0
  6
CONTINUOUS
 62
       7
100
AcDbLine
 10
-273.1875
 20
-247.11162988
 30
0.0
 11
280.125
 21
-247.11162988
 31
0.0
  0
LINE
  5
3ED
100
AcDbEntity
  8
0
  6
CONTINUOUS
 62
       7
100
AcDbLine
 10
-261.375
 20
428.63837012
 30
0.0
 11
-261.375
 21
414.01337012
 31
0.0
  0
LINE
  5
3EE
100
AcDbEntity
  8
0
  6
CONTINUOUS
 62
       7
100
AcDbLine
 10
-199.5
 20
428.63837012
 30
0.0
 11
-199.5
 21
414.01337012
 31
0.0
  0
LINE
  5
3EF
100
AcDbEntity
  8
0
  6
CONTINUOUS
 62
       7
100
AcDbLine
 10
-261.375
 20
428.63837012
 30
0.0
 11
-199.5
 21
428.63837012
 31
0.0
  0
LINE
  5
3F0
100
AcDbEntity
  8
0
  6
CONTINUOUS
 62
       7
100
AcDbLine
 10
-261.375
 20
414.01337012
 30
0.0
 11
-199.5
 21
414.01337012
 31
0.0
  0
LINE
  5
3F1
100
AcDbEntity
  8
0
  6
CONTINUOUS
 62
       7
100
AcDbLine
 10
-234.35280535
 20
436.62599625
 30
0.0
 11
-242.34043149
 21
428.63837012
 31
0.0
  0
LINE
  5
3F2
100
AcDbEntity
  8
0
  6
CONTINUOUS
 62
       7
100
AcDbLine
 10
-235.2414949
 20
436.58583484
 30
0.0
 11
-243.18895962
 21
428.63837012
 31
0.0
  0
LINE
  5
3F3
100
AcDbEntity
  8
0
  6
CONTINUOUS
 62
       7
100
AcDbLine
 10
-236.13923101
 20
436.53662687
 30
0.0
 11
-244.03748776
 21
428.63837012
 31
0.0
  0
LINE
  5
3F4
100
AcDbEntity
  8
0
  6
CONTINUOUS
 62
       7
100
AcDbLine
 10
-237.04638754
 20
436.47799847
 30
0.0
 11
-244.8860159
 21
428.63837012
 31
0.0
  0
LINE
  5
3F5
100
AcDbEntity
  8
0
  6
CONTINUOUS
 62
       7
100
AcDbLine
 10
-237.96338201
 20
436.40953215
 30
0.0
 11
-245.73454404
 21
428.63837012
 31
0.0
  0
LINE
  5
3F6
100
AcDbEntity
  8
0
  6
CONTINUOUS
 62
       7
100
AcDbLine
 10
-238.89068229
 20
436.33076
 30
0.0
 11
-246.58307217
 21
428.63837012
 31
0.0
  0
LINE
  5
3F7
100
AcDbEntity
  8
0
  6
CONTINUOUS
 62
       7
100
AcDbLine
 10
-239.82881478
 20
436.24115565
 30
0.0
 11
-247.43160031
 21
428.63837012
 31
0.0
  0
LINE
  5
3F8
100
AcDbEntity
  8
0
  6
CONTINUOUS
 62
       7
100
AcDbLine
 10
-240.77837433
 20
436.14012424
 30
0.0
 11
-248.28012845
 21
428.63837012
 31
0.0
  0
LINE
  5
3F9
100
AcDbEntity
  8
0
  6
CONTINUOUS
 62
       7
100
AcDbLine
 10
-241.74003663
 20
436.02699007
 30
0.0
 11
-249.12865659
 21
428.63837012
 31
0.0
  0
LINE
  5
3FA
100
AcDbEntity
  8
0
  6
CONTINUOUS
 62
       7
100
AcDbLine
 10
-242.71457364
 20
435.9009812
 30
0.0
 11
-249.97718472
 21
428.63837012
 31
0.0
  0
LINE
  5
3FB
100
AcDbEntity
  8
0
  6
CONTINUOUS
 62
       7
100
AcDbLine
 10
-243.70287316
 20
435.76120982
 30
0.0
 11
-250.82571286
 21
428.63837012
 31
0.0
  0
LINE
  5
3FC
100
AcDbEntity
  8
0
  6
CONTINUOUS
 62
       7
100
AcDbLine
 10
-244.70596394
 20
435.60664717
 30
0.0
 11
-251.674241
 21
428.63837012
 31
0.0
  0
LINE
  5
3FD
100
AcDbEntity
  8
0
  6
CONTINUOUS
 62
       7
100
AcDbLine
 10
-245.72504839
 20
435.43609086
 30
0.0
 11
-252.52276914
 21
428.63837012
 31
0.0
  0
LINE
  5
3FE
100
AcDbEntity
  8
0
  6
CONTINUOUS
 62
       7
100
AcDbLine
 10
-246.76154583
 20
435.24812156
 30
0.0
 11
-253.37129727
 21
428.63837012
 31
0.0
  0
LINE
  5
3FF
100
AcDbEntity
  8
0
  6
CONTINUOUS
 62
       7
100
AcDbLine
 10
-247.81715094
 20
435.04104459
 30
0.0
 11
-254.21982541
 21
428.63837012
 31
0.0
  0
LINE
  5
400
100
AcDbEntity
  8
0
  6
CONTINUOUS
 62
       7
100
AcDbLine
 10
-261.375
 20
421.48319553
 30
0.0
 11
-261.53232541
 21
421.32587012
 31
0.0
  0
LINE
  5
401
100
AcDbEntity
  8
0
  6
CONTINUOUS
 62
       7
100
AcDbLine
 10
-248.89391434
 20
434.81280933
 30
0.0
 11
-255.06835355
 21
428.63837012
 31
0.0
  0
LINE
  5
402
100
AcDbEntity
  8
0
  6
CONTINUOUS
 62
       7
100
AcDbLine
 10
-261.375
 20
422.33172367
 30
0.0
 11
-262.38085355
 21
421.32587012
 31
0.0
  0
LINE
  5
403
100
AcDbEntity
  8
0
  6
CONTINUOUS
 62
       7
100
AcDbLine
 10
-249.99435663
 20
434.56089518
 30
0.0
 11
-255.91688169
 21
428.63837012
 31
0.0
  0
LINE
  5
404
100
AcDbEntity
  8
0
  6
CONTINUOUS
 62
       7
100
AcDbLine
 10
-261.375
 20
423.1802518
 30
0.0
 11
-263.22938169
 21
421.32587012
 31
0.0
  0
LINE
  5
405
100
AcDbEntity
  8
0
  6
CONTINUOUS
 62
       7
100
AcDbLine
 10
-251.12163459
 20
434.28214535
 30
0.0
 11
-256.76540982
 21
428.63837012
 31
0.0
  0
LINE
  5
406
100
AcDbEntity
  8
0
  6
CONTINUOUS
 62
       7
100
AcDbLine
 10
-261.375
 20
424.02877994
 30
0.0
 11
-264.07790982
 21
421.32587012
 31
0.0
  0
LINE
  5
407
100
AcDbEntity
  8
0
  6
CONTINUOUS
 62
       7
100
AcDbLine
 10
-252.27979226
 20
433.97251582
 30
0.0
 11
-257.61393796
 21
428.63837012
 31
0.0
  0
LINE
  5
408
100
AcDbEntity
  8
0
  6
CONTINUOUS
 62
       7
100
AcDbLine
 10
-261.375
 20
424.87730808
 30
0.0
 11
-264.92643796
 21
421.32587012
 31
0.0
  0
LINE
  5
409
100
AcDbEntity
  8
0
  6
CONTINUOUS
 62
       7
100
AcDbLine
 10
-253.47415675
 20
433.62667946
 30
0.0
 11
-258.4624661
 21
428.63837012
 31
0.0
  0
LINE
  5
40A
100
AcDbEntity
  8
0
  6
CONTINUOUS
 62
       7
100
AcDbLine
 10
-261.375
 20
425.72583622
 30
0.0
 11
-265.7749661
 21
421.32587012
 31
0.0
  0
LINE
  5
40B
100
AcDbEntity
  8
0
  6
CONTINUOUS
 62
       7
100
AcDbLine
 10
-254.71199672
 20
433.23736763
 30
0.0
 11
-259.31099424
 21
428.63837012
 31
0.0
  0
LINE
  5
40C
100
AcDbEntity
  8
0
  6
CONTINUOUS
 62
       7
100
AcDbLine
 10
-261.375
 20
426.57436435
 30
0.0
 11
-266.62349424
 21
421.32587012
 31
0.0
  0
LINE
  5
40D
100
AcDbEntity
  8
0
  6
CONTINUOUS
 62
       7
100
AcDbLine
 10
-256.00369446
 20
432.79419803
 30
0.0
 11
-260.15952237
 21
428.63837012
 31
0.0
  0
LINE
  5
40E
100
AcDbEntity
  8
0
  6
CONTINUOUS
 62
       7
100
AcDbLine
 10
-261.375
 20
427.42289249
 30
0.0
 11
-267.47202237
 21
421.32587012
 31
0.0
  0
LINE
  5
40F
100
AcDbEntity
  8
0
  6
CONTINUOUS
 62
       7
100
AcDbLine
 10
-257.36502933
 20
432.2813913
 30
0.0
 11
-261.00805051
 21
428.63837012
 31
0.0
  0
LINE
  5
410
100
AcDbEntity
  8
0
  6
CONTINUOUS
 62
       7
100
AcDbLine
 10
-261.375
 20
428.27142063
 30
0.0
 11
-268.32055051
 21
421.32587012
 31
0.0
  0
LINE
  5
411
100
AcDbEntity
  8
0
  6
CONTINUOUS
 62
       7
100
AcDbLine
 10
-258.82222262
 20
431.67272614
 30
0.0
 11
-268.86169004
 21
421.63325872
 31
0.0
  0
LINE
  5
412
100
AcDbEntity
  8
0
  6
CONTINUOUS
 62
       7
100
AcDbLine
 10
-260.42543332
 20
430.91804359
 30
0.0
 11
-268.71776554
 21
422.62571136
 31
0.0
  0
LINE
  5
413
100
AcDbEntity
  8
0
  6
CONTINUOUS
 62
       7
100
AcDbLine
 10
-262.29954749
 20
429.89245755
 30
0.0
 11
-268.30293756
 21
423.88906748
 31
0.0
  0
LINE
  5
414
100
AcDbEntity
  8
0
  6
CONTINUOUS
 62
       7
100
AcDbLine
 10
-265.22084527
 20
427.81968791
 30
0.0
 11
-266.84092598
 21
426.1996072
 31
0.0
  0
LINE
  5
415
100
AcDbEntity
  8
0
  6
CONTINUOUS
 62
       7
100
AcDbLine
 10
-233.47282666
 20
436.65744681
 30
0.0
 11
-241.49190335
 21
428.63837012
 31
0.0
  0
LINE
  5
416
100
AcDbEntity
  8
0
  6
CONTINUOUS
 62
       7
100
AcDbLine
 10
-232.6012566
 20
436.68048873
 30
0.0
 11
-240.64337521
 21
428.63837012
 31
0.0
  0
LINE
  5
417
100
AcDbEntity
  8
0
  6
CONTINUOUS
 62
       7
100
AcDbLine
 10
-231.73782257
 20
436.69539462
 30
0.0
 11
-239.79484707
 21
428.63837012
 31
0.0
  0
LINE
  5
418
100
AcDbEntity
  8
0
  6
CONTINUOUS
 62
       7
100
AcDbLine
 10
-230.88227828
 20
436.70241078
 30
0.0
 11
-238.94631894
 21
428.63837012
 31
0.0
  0
LINE
  5
419
100
AcDbEntity
  8
0
  6
CONTINUOUS
 62
       7
100
AcDbLine
 10
-230.03440096
 20
436.70175995
 30
0.0
 11
-238.0977908
 21
428.63837012
 31
0.0
  0
LINE
  5
41A
100
AcDbEntity
  8
0
  6
CONTINUOUS
 62
       7
100
AcDbLine
 10
-229.19398901
 20
436.69364377
 30
0.0
 11
-237.24926266
 21
428.63837012
 31
0.0
  0
LINE
  5
41B
100
AcDbEntity
  8
0
  6
CONTINUOUS
 62
       7
100
AcDbLine
 10
-228.36085989
 20
436.67824476
 30
0.0
 11
-236.40073452
 21
428.63837012
 31
0.0
  0
LINE
  5
41C
100
AcDbEntity
  8
0
  6
CONTINUOUS
 62
       7
100
AcDbLine
 10
-227.53484842
 20
436.65572808
 30
0.0
 11
-235.55220639
 21
428.63837012
 31
0.0
  0
LINE
  5
41D
100
AcDbEntity
  8
0
  6
CONTINUOUS
 62
       7
100
AcDbLine
 10
-226.71580525
 20
436.62624311
 30
0.0
 11
-234.70367825
 21
428.63837012
 31
0.0
  0
LINE
  5
41E
100
AcDbEntity
  8
0
  6
CONTINUOUS
 62
       7
100
AcDbLine
 10
-225.90359554
 20
436.58992469
 30
0.0
 11
-233.85515011
 21
428.63837012
 31
0.0
  0
LINE
  5
41F
100
AcDbEntity
  8
0
  6
CONTINUOUS
 62
       7
100
AcDbLine
 10
-225.09809783
 20
436.54689426
 30
0.0
 11
-233.00662197
 21
428.63837012
 31
0.0
  0
LINE
  5
420
100
AcDbEntity
  8
0
  6
CONTINUOUS
 62
       7
100
AcDbLine
 10
-224.29920306
 20
436.49726089
 30
0.0
 11
-232.15809384
 21
428.63837012
 31
0.0
  0
LINE
  5
421
100
AcDbEntity
  8
0
  6
CONTINUOUS
 62
       7
100
AcDbLine
 10
-223.50681372
 20
436.4411221
 30
0.0
 11
-231.3095657
 21
428.63837012
 31
0.0
  0
LINE
  5
422
100
AcDbEntity
  8
0
  6
CONTINUOUS
 62
       7
100
AcDbLine
 10
-222.7208431
 20
436.37856458
 30
0.0
 11
-230.46103756
 21
428.63837012
 31
0.0
  0
LINE
  5
423
100
AcDbEntity
  8
0
  6
CONTINUOUS
 62
       7
100
AcDbLine
 10
-221.94121468
 20
436.30966486
 30
0.0
 11
-229.61250943
 21
428.63837012
 31
0.0
  0
LINE
  5
424
100
AcDbEntity
  8
0
  6
CONTINUOUS
 62
       7
100
AcDbLine
 10
-221.16786158
 20
436.23448983
 30
0.0
 11
-228.76398129
 21
428.63837012
 31
0.0
  0
LINE
  5
425
100
AcDbEntity
  8
0
  6
CONTINUOUS
 62
       7
100
AcDbLine
 10
-220.40072607
 20
436.1530972
 30
0.0
 11
-227.91545315
 21
428.63837012
 31
0.0
  0
LINE
  5
426
100
AcDbEntity
  8
0
  6
CONTINUOUS
 62
       7
100
AcDbLine
 10
-219.6397592
 20
436.06553593
 30
0.0
 11
-227.06692501
 21
428.63837012
 31
0.0
  0
LINE
  5
427
100
AcDbEntity
  8
0
  6
CONTINUOUS
 62
       7
100
AcDbLine
 10
-218.88492046
 20
435.97184653
 30
0.0
 11
-226.21839688
 21
428.63837012
 31
0.0
  0
LINE
  5
428
100
AcDbEntity
  8
0
  6
CONTINUOUS
 62
       7
100
AcDbLine
 10
-218.13617754
 20
435.87206132
 30
0.0
 11
-225.36986874
 21
428.63837012
 31
0.0
  0
LINE
  5
429
100
AcDbEntity
  8
0
  6
CONTINUOUS
 62
       7
100
AcDbLine
 10
-217.39350608
 20
435.76620464
 30
0.0
 11
-224.5213406
 21
428.63837012
 31
0.0
  0
LINE
  5
42A
100
AcDbEntity
  8
0
  6
CONTINUOUS
 62
       7
100
AcDbLine
 10
-216.65688956
 20
435.65429303
 30
0.0
 11
-223.67281246
 21
428.63837012
 31
0.0
  0
LINE
  5
42B
100
AcDbEntity
  8
0
  6
CONTINUOUS
 62
       7
100
AcDbLine
 10
-215.92631913
 20
435.53633531
 30
0.0
 11
-222.82428433
 21
428.63837012
 31
0.0
  0
LINE
  5
42C
100
AcDbEntity
  8
0
  6
CONTINUOUS
 62
       7
100
AcDbLine
 10
-215.20179364
 20
435.41233267
 30
0.0
 11
-221.97575619
 21
428.63837012
 31
0.0
  0
LINE
  5
42D
100
AcDbEntity
  8
0
  6
CONTINUOUS
 62
       7
100
AcDbLine
 10
-214.48331955
 20
435.28227862
 30
0.0
 11
-221.12722805
 21
428.63837012
 31
0.0
  0
LINE
  5
42E
100
AcDbEntity
  8
0
  6
CONTINUOUS
 62
       7
100
AcDbLine
 10
-213.77091102
 20
435.14615901
 30
0.0
 11
-220.27869991
 21
428.63837012
 31
0.0
  0
LINE
  5
42F
100
AcDbEntity
  8
0
  6
CONTINUOUS
 62
       7
100
AcDbLine
 10
-213.06459
 20
435.00395189
 30
0.0
 11
-219.43017178
 21
428.63837012
 31
0.0
  0
LINE
  5
430
100
AcDbEntity
  8
0
  6
CONTINUOUS
 62
       7
100
AcDbLine
 10
-212.36438634
 20
434.85562741
 30
0.0
 11
-218.58164364
 21
428.63837012
 31
0.0
  0
LINE
  5
431
100
AcDbEntity
  8
0
  6
CONTINUOUS
 62
       7
100
AcDbLine
 10
-211.67033801
 20
434.70114761
 30
0.0
 11
-217.7331155
 21
428.63837012
 31
0.0
  0
LINE
  5
432
100
AcDbEntity
  8
0
  6
CONTINUOUS
 62
       7
100
AcDbLine
 10
-210.98249133
 20
434.54046616
 30
0.0
 11
-216.88458736
 21
428.63837012
 31
0.0
  0
LINE
  5
433
100
AcDbEntity
  8
0
  6
CONTINUOUS
 62
       7
100
AcDbLine
 10
-210.30090129
 20
434.37352806
 30
0.0
 11
-216.03605923
 21
428.63837012
 31
0.0
  0
LINE
  5
434
100
AcDbEntity
  8
0
  6
CONTINUOUS
 62
       7
100
AcDbLine
 10
-209.62563193
 20
434.20026928
 30
0.0
 11
-215.18753109
 21
428.63837012
 31
0.0
  0
LINE
  5
435
100
AcDbEntity
  8
0
  6
CONTINUOUS
 62
       7
100
AcDbLine
 10
-208.95675676
 20
434.02061631
 30
0.0
 11
-214.33900295
 21
428.63837012
 31
0.0
  0
LINE
  5
436
100
AcDbEntity
  8
0
  6
CONTINUOUS
 62
       7
100
AcDbLine
 10
-208.2943593
 20
433.83448564
 30
0.0
 11
-213.49047481
 21
428.63837012
 31
0.0
  0
LINE
  5
437
100
AcDbEntity
  8
0
  6
CONTINUOUS
 62
       7
100
AcDbLine
 10
-207.63853366
 20
433.64178314
 30
0.0
 11
-212.64194668
 21
428.63837012
 31
0.0
  0
LINE
  5
438
100
AcDbEntity
  8
0
  6
CONTINUOUS
 62
       7
100
AcDbLine
 10
-206.98938527
 20
433.44240338
 30
0.0
 11
-211.79341854
 21
428.63837012
 31
0.0
  0
LINE
  5
439
100
AcDbEntity
  8
0
  6
CONTINUOUS
 62
       7
100
AcDbLine
 10
-206.3470317
 20
433.23622882
 30
0.0
 11
-210.9448904
 21
428.63837012
 31
0.0
  0
LINE
  5
43A
100
AcDbEntity
  8
0
  6
CONTINUOUS
 62
       7
100
AcDbLine
 10
-205.71160357
 20
433.02312881
 30
0.0
 11
-210.09636226
 21
428.63837012
 31
0.0
  0
LINE
  5
43B
100
AcDbEntity
  8
0
  6
CONTINUOUS
 62
       7
100
AcDbLine
 10
-205.08324564
 20
432.8029586
 30
0.0
 11
-209.24783413
 21
428.63837012
 31
0.0
  0
LINE
  5
43C
100
AcDbEntity
  8
0
  6
CONTINUOUS
 62
       7
100
AcDbLine
 10
-204.46211809
 20
432.57555802
 30
0.0
 11
-208.39930599
 21
428.63837012
 31
0.0
  0
LINE
  5
43D
100
AcDbEntity
  8
0
  6
CONTINUOUS
 62
       7
100
AcDbLine
 10
-203.84839795
 20
432.34075002
 30
0.0
 11
-207.55077785
 21
428.63837012
 31
0.0
  0
LINE
  5
43E
100
AcDbEntity
  8
0
  6
CONTINUOUS
 62
       7
100
AcDbLine
 10
-203.24228077
 20
432.09833906
 30
0.0
 11
-206.70224971
 21
428.63837012
 31
0.0
  0
LINE
  5
43F
100
AcDbEntity
  8
0
  6
CONTINUOUS
 62
       7
100
AcDbLine
 10
-202.64398259
 20
431.8481091
 30
0.0
 11
-205.85372158
 21
428.63837012
 31
0.0
  0
LINE
  5
440
100
AcDbEntity
  8
0
  6
CONTINUOUS
 62
       7
100
AcDbLine
 10
-202.05374221
 20
431.58982135
 30
0.0
 11
-205.00519344
 21
428.63837012
 31
0.0
  0
LINE
  5
441
100
AcDbEntity
  8
0
  6
CONTINUOUS
 62
       7
100
AcDbLine
 10
-201.47182383
 20
431.32321159
 30
0.0
 11
-204.1566653
 21
428.63837012
 31
0.0
  0
LINE
  5
442
100
AcDbEntity
  8
0
  6
CONTINUOUS
 62
       7
100
AcDbLine
 10
-200.89852019
 20
431.04798709
 30
0.0
 11
-203.30813717
 21
428.63837012
 31
0.0
  0
LINE
  5
443
100
AcDbEntity
  8
0
  6
CONTINUOUS
 62
       7
100
AcDbLine
 10
-200.33415628
 20
430.76382286
 30
0.0
 11
-202.45960903
 21
428.63837012
 31
0.0
  0
LINE
  5
444
100
AcDbEntity
  8
0
  6
CONTINUOUS
 62
       7
100
AcDbLine
 10
-199.77909371
 20
430.4703573
 30
0.0
 11
-201.61108089
 21
428.63837012
 31
0.0
  0
LINE
  5
445
100
AcDbEntity
  8
0
  6
CONTINUOUS
 62
       7
100
AcDbLine
 10
-199.23373593
 20
430.16718694
 30
0.0
 11
-200.76255275
 21
428.63837012
 31
0.0
  0
LINE
  5
446
100
AcDbEntity
  8
0
  6
CONTINUOUS
 62
       7
100
AcDbLine
 10
-198.69853459
 20
429.85386015
 30
0.0
 11
-199.91402462
 21
428.63837012
 31
0.0
  0
LINE
  5
447
100
AcDbEntity
  8
0
  6
CONTINUOUS
 62
       7
100
AcDbLine
 10
-198.17399715
 20
429.52986944
 30
0.0
 11
-199.5
 21
428.2038666
 31
0.0
  0
LINE
  5
448
100
AcDbEntity
  8
0
  6
CONTINUOUS
 62
       7
100
AcDbLine
 10
-197.66069628
 20
429.19464218
 30
0.0
 11
-199.5
 21
427.35533846
 31
0.0
  0
LINE
  5
449
100
AcDbEntity
  8
0
  6
CONTINUOUS
 62
       7
100
AcDbLine
 10
-197.15928137
 20
428.84752895
 30
0.0
 11
-199.5
 21
426.50681032
 31
0.0
  0
LINE
  5
44A
100
AcDbEntity
  8
0
  6
CONTINUOUS
 62
       7
100
AcDbLine
 10
-196.67049297
 20
428.48778921
 30
0.0
 11
-199.5
 21
425.65828218
 31
0.0
  0
LINE
  5
44B
100
AcDbEntity
  8
0
  6
CONTINUOUS
 62
       7
100
AcDbLine
 10
-196.19518096
 20
428.11457309
 30
0.0
 11
-199.5
 21
424.80975405
 31
0.0
  0
LINE
  5
44C
100
AcDbEntity
  8
0
  6
CONTINUOUS
 62
       7
100
AcDbLine
 10
-195.73432777
 20
427.72689814
 30
0.0
 11
-199.5
 21
423.96122591
 31
0.0
  0
LINE
  5
44D
100
AcDbEntity
  8
0
  6
CONTINUOUS
 62
       7
100
AcDbLine
 10
-195.28907846
 20
427.32361931
 30
0.0
 11
-199.5
 21
423.11269777
 31
0.0
  0
LINE
  5
44E
100
AcDbEntity
  8
0
  6
CONTINUOUS
 62
       7
100
AcDbLine
 10
-194.86078041
 20
426.90338923
 30
0.0
 11
-199.5
 21
422.26416963
 31
0.0
  0
LINE
  5
44F
100
AcDbEntity
  8
0
  6
CONTINUOUS
 62
       7
100
AcDbLine
 10
-194.45103642
 20
426.46460507
 30
0.0
 11
-199.5
 21
421.4156415
 31
0.0
  0
LINE
  5
450
100
AcDbEntity
  8
0
  6
CONTINUOUS
 62
       7
100
AcDbLine
 10
-194.06177762
 20
426.00533574
 30
0.0
 11
-198.74124324
 21
421.32587012
 31
0.0
  0
LINE
  5
451
100
AcDbEntity
  8
0
  6
CONTINUOUS
 62
       7
100
AcDbLine
 10
-193.69536559
 20
425.52321963
 30
0.0
 11
-197.8927151
 21
421.32587012
 31
0.0
  0
LINE
  5
452
100
AcDbEntity
  8
0
  6
CONTINUOUS
 62
       7
100
AcDbLine
 10
-193.35474
 20
425.01531709
 30
0.0
 11
-197.04418697
 21
421.32587012
 31
0.0
  0
LINE
  5
453
100
AcDbEntity
  8
0
  6
CONTINUOUS
 62
       7
100
AcDbLine
 10
-193.04363883
 20
424.47789012
 30
0.0
 11
-196.19565883
 21
421.32587012
 31
0.0
  0
LINE
  5
454
100
AcDbEntity
  8
0
  6
CONTINUOUS
 62
       7
100
AcDbLine
 10
-192.76694088
 20
423.90605993
 30
0.0
 11
-195.34713069
 21
421.32587012
 31
0.0
  0
LINE
  5
455
100
AcDbEntity
  8
0
  6
CONTINUOUS
 62
       7
100
AcDbLine
 10
-192.53122541
 20
423.29324726
 30
0.0
 11
-194.49860255
 21
421.32587012
 31
0.0
  0
LINE
  5
456
100
AcDbEntity
  8
0
  6
CONTINUOUS
 62
       7
100
AcDbLine
 10
-192.34574593
 20
422.63019861
 30
0.0
 11
-193.65007442
 21
421.32587012
 31
0.0
  0
LINE
  5
457
100
AcDbEntity
  8
0
  6
CONTINUOUS
 62
       7
100
AcDbLine
 10
-192.2242701
 20
421.9031463
 30
0.0
 11
-192.80154628
 21
421.32587012
 31
0.0
  0
LINE
  5
458
100
AcDbEntity
  8
0
  6
CONTINUOUS
 62
       7
100
AcDbLine
 10
-218.62168237
 20
414.01337012
 30
0.0
 11
-226.81425157
 21
405.82080092
 31
0.0
  0
LINE
  5
459
100
AcDbEntity
  8
0
  6
CONTINUOUS
 62
       7
100
AcDbLine
 10
-219.47021051
 20
414.01337012
 30
0.0
 11
-227.6932203
 21
405.79036032
 31
0.0
  0
LINE
  5
45A
100
AcDbEntity
  8
0
  6
CONTINUOUS
 62
       7
100
AcDbLine
 10
-220.31873865
 20
414.01337012
 30
0.0
 11
-228.56381412
 21
405.76829464
 31
0.0
  0
LINE
  5
45B
100
AcDbEntity
  8
0
  6
CONTINUOUS
 62
       7
100
AcDbLine
 10
-221.16726678
 20
414.01337012
 30
0.0
 11
-229.42630237
 21
405.75433453
 31
0.0
  0
LINE
  5
45C
100
AcDbEntity
  8
0
  6
CONTINUOUS
 62
       7
100
AcDbLine
 10
-222.01579492
 20
414.01337012
 30
0.0
 11
-230.28092841
 21
405.74823663
 31
0.0
  0
LINE
  5
45D
100
AcDbEntity
  8
0
  6
CONTINUOUS
 62
       7
100
AcDbLine
 10
-222.86432306
 20
414.01337012
 30
0.0
 11
-231.12791238
 21
405.7497808
 31
0.0
  0
LINE
  5
45E
100
AcDbEntity
  8
0
  6
CONTINUOUS
 62
       7
100
AcDbLine
 10
-223.71285119
 20
414.01337012
 30
0.0
 11
-231.96745355
 21
405.75876776
 31
0.0
  0
LINE
  5
45F
100
AcDbEntity
  8
0
  6
CONTINUOUS
 62
       7
100
AcDbLine
 10
-224.56137933
 20
414.01337012
 30
0.0
 11
-232.7997323
 21
405.77501715
 31
0.0
  0
LINE
  5
460
100
AcDbEntity
  8
0
  6
CONTINUOUS
 62
       7
100
AcDbLine
 10
-225.40990747
 20
414.01337012
 30
0.0
 11
-233.62491186
 21
405.79836573
 31
0.0
  0
LINE
  5
461
100
AcDbEntity
  8
0
  6
CONTINUOUS
 62
       7
100
AcDbLine
 10
-226.25843561
 20
414.01337012
 30
0.0
 11
-234.44313981
 21
405.82866592
 31
0.0
  0
LINE
  5
462
100
AcDbEntity
  8
0
  6
CONTINUOUS
 62
       7
100
AcDbLine
 10
-227.10696374
 20
414.01337012
 30
0.0
 11
-235.25454935
 21
405.86578451
 31
0.0
  0
LINE
  5
463
100
AcDbEntity
  8
0
  6
CONTINUOUS
 62
       7
100
AcDbLine
 10
-227.95549188
 20
414.01337012
 30
0.0
 11
-236.05926042
 21
405.90960158
 31
0.0
  0
LINE
  5
464
100
AcDbEntity
  8
0
  6
CONTINUOUS
 62
       7
100
AcDbLine
 10
-228.80402002
 20
414.01337012
 30
0.0
 11
-236.85738068
 21
405.96000946
 31
0.0
  0
LINE
  5
465
100
AcDbEntity
  8
0
  6
CONTINUOUS
 62
       7
100
AcDbLine
 10
-229.65254816
 20
414.01337012
 30
0.0
 11
-237.64900632
 21
406.01691196
 31
0.0
  0
LINE
  5
466
100
AcDbEntity
  8
0
  6
CONTINUOUS
 62
       7
100
AcDbLine
 10
-230.50107629
 20
414.01337012
 30
0.0
 11
-238.4342228
 21
406.08022361
 31
0.0
  0
LINE
  5
467
100
AcDbEntity
  8
0
  6
CONTINUOUS
 62
       7
100
AcDbLine
 10
-231.34960443
 20
414.01337012
 30
0.0
 11
-239.21310549
 21
406.14986906
 31
0.0
  0
LINE
  5
468
100
AcDbEntity
  8
0
  6
CONTINUOUS
 62
       7
100
AcDbLine
 10
-232.19813257
 20
414.01337012
 30
0.0
 11
-239.98572016
 21
406.22578253
 31
0.0
  0
LINE
  5
469
100
AcDbEntity
  8
0
  6
CONTINUOUS
 62
       7
100
AcDbLine
 10
-233.04666071
 20
414.01337012
 30
0.0
 11
-240.75212348
 21
406.30790734
 31
0.0
  0
LINE
  5
46A
100
AcDbEntity
  8
0
  6
CONTINUOUS
 62
       7
100
AcDbLine
 10
-233.89518884
 20
414.01337012
 30
0.0
 11
-241.5123634
 21
406.39619557
 31
0.0
  0
LINE
  5
46B
100
AcDbEntity
  8
0
  6
CONTINUOUS
 62
       7
100
AcDbLine
 10
-234.74371698
 20
414.01337012
 30
0.0
 11
-242.26647942
 21
406.49060768
 31
0.0
  0
LINE
  5
46C
100
AcDbEntity
  8
0
  6
CONTINUOUS
 62
       7
100
AcDbLine
 10
-235.59224512
 20
414.01337012
 30
0.0
 11
-243.01450292
 21
406.59111232
 31
0.0
  0
LINE
  5
46D
100
AcDbEntity
  8
0
  6
CONTINUOUS
 62
       7
100
AcDbLine
 10
-236.44077326
 20
414.01337012
 30
0.0
 11
-243.75645731
 21
406.69768606
 31
0.0
  0
LINE
  5
46E
100
AcDbEntity
  8
0
  6
CONTINUOUS
 62
       7
100
AcDbLine
 10
-237.28930139
 20
414.01337012
 30
0.0
 11
-244.49235823
 21
406.81031329
 31
0.0
  0
LINE
  5
46F
100
AcDbEntity
  8
0
  6
CONTINUOUS
 62
       7
100
AcDbLine
 10
-238.13782953
 20
414.01337012
 30
0.0
 11
-245.22221357
 21
406.92898608
 31
0.0
  0
LINE
  5
470
100
AcDbEntity
  8
0
  6
CONTINUOUS
 62
       7
100
AcDbLine
 10
-238.98635767
 20
414.01337012
 30
0.0
 11
-245.94602362
 21
407.05370417
 31
0.0
  0
LINE
  5
471
100
AcDbEntity
  8
0
  6
CONTINUOUS
 62
       7
100
AcDbLine
 10
-239.83488581
 20
414.01337012
 30
0.0
 11
-246.66378099
 21
407.18447493
 31
0.0
  0
LINE
  5
472
100
AcDbEntity
  8
0
  6
CONTINUOUS
 62
       7
100
AcDbLine
 10
-240.68341394
 20
414.01337012
 30
0.0
 11
-247.37547061
 21
407.32131345
 31
0.0
  0
LINE
  5
473
100
AcDbEntity
  8
0
  6
CONTINUOUS
 62
       7
100
AcDbLine
 10
-241.53194208
 20
414.01337012
 30
0.0
 11
-248.08106961
 21
407.46424259
 31
0.0
  0
LINE
  5
474
100
AcDbEntity
  8
0
  6
CONTINUOUS
 62
       7
100
AcDbLine
 10
-242.38047022
 20
414.01337012
 30
0.0
 11
-248.78054718
 21
407.61329315
 31
0.0
  0
LINE
  5
475
100
AcDbEntity
  8
0
  6
CONTINUOUS
 62
       7
100
AcDbLine
 10
-243.22899836
 20
414.01337012
 30
0.0
 11
-249.47386439
 21
407.76850408
 31
0.0
  0
LINE
  5
476
100
AcDbEntity
  8
0
  6
CONTINUOUS
 62
       7
100
AcDbLine
 10
-244.07752649
 20
414.01337012
 30
0.0
 11
-250.1609739
 21
407.92992271
 31
0.0
  0
LINE
  5
477
100
AcDbEntity
  8
0
  6
CONTINUOUS
 62
       7
100
AcDbLine
 10
-244.92605463
 20
414.01337012
 30
0.0
 11
-250.84181967
 21
408.09760508
 31
0.0
  0
LINE
  5
478
100
AcDbEntity
  8
0
  6
CONTINUOUS
 62
       7
100
AcDbLine
 10
-245.77458277
 20
414.01337012
 30
0.0
 11
-251.51633657
 21
408.27161632
 31
0.0
  0
LINE
  5
479
100
AcDbEntity
  8
0
  6
CONTINUOUS
 62
       7
100
AcDbLine
 10
-246.62311091
 20
414.01337012
 30
0.0
 11
-252.18444993
 21
408.4520311
 31
0.0
  0
LINE
  5
47A
100
AcDbEntity
  8
0
  6
CONTINUOUS
 62
       7
100
AcDbLine
 10
-247.47163904
 20
414.01337012
 30
0.0
 11
-252.84607501
 21
408.63893415
 31
0.0
  0
LINE
  5
47B
100
AcDbEntity
  8
0
  6
CONTINUOUS
 62
       7
100
AcDbLine
 10
-248.32016718
 20
414.01337012
 30
0.0
 11
-253.5011164
 21
408.83242089
 31
0.0
  0
LINE
  5
47C
100
AcDbEntity
  8
0
  6
CONTINUOUS
 62
       7
100
AcDbLine
 10
-249.16869532
 20
414.01337012
 30
0.0
 11
-254.14946728
 21
409.03259816
 31
0.0
  0
LINE
  5
47D
100
AcDbEntity
  8
0
  6
CONTINUOUS
 62
       7
100
AcDbLine
 10
-250.01722346
 20
414.01337012
 30
0.0
 11
-254.79100859
 21
409.23958498
 31
0.0
  0
LINE
  5
47E
100
AcDbEntity
  8
0
  6
CONTINUOUS
 62
       7
100
AcDbLine
 10
-250.86575159
 20
414.01337012
 30
0.0
 11
-255.4256081
 21
409.45351361
 31
0.0
  0
LINE
  5
47F
100
AcDbEntity
  8
0
  6
CONTINUOUS
 62
       7
100
AcDbLine
 10
-251.71427973
 20
414.01337012
 30
0.0
 11
-256.05311928
 21
409.67453057
 31
0.0
  0
LINE
  5
480
100
AcDbEntity
  8
0
  6
CONTINUOUS
 62
       7
100
AcDbLine
 10
-252.56280787
 20
414.01337012
 30
0.0
 11
-256.67338005
 21
409.90279794
 31
0.0
  0
LINE
  5
481
100
AcDbEntity
  8
0
  6
CONTINUOUS
 62
       7
100
AcDbLine
 10
-253.411336
 20
414.01337012
 30
0.0
 11
-257.28621128
 21
410.13849485
 31
0.0
  0
LINE
  5
482
100
AcDbEntity
  8
0
  6
CONTINUOUS
 62
       7
100
AcDbLine
 10
-254.25986414
 20
414.01337012
 30
0.0
 11
-257.89141509
 21
410.38181917
 31
0.0
  0
LINE
  5
483
100
AcDbEntity
  8
0
  6
CONTINUOUS
 62
       7
100
AcDbLine
 10
-255.10839228
 20
414.01337012
 30
0.0
 11
-258.48877289
 21
410.63298951
 31
0.0
  0
LINE
  5
484
100
AcDbEntity
  8
0
  6
CONTINUOUS
 62
       7
100
AcDbLine
 10
-255.95692042
 20
414.01337012
 30
0.0
 11
-259.07804301
 21
410.89224752
 31
0.0
  0
LINE
  5
485
100
AcDbEntity
  8
0
  6
CONTINUOUS
 62
       7
100
AcDbLine
 10
-256.80544855
 20
414.01337012
 30
0.0
 11
-259.65895806
 21
411.15986061
 31
0.0
  0
LINE
  5
486
100
AcDbEntity
  8
0
  6
CONTINUOUS
 62
       7
100
AcDbLine
 10
-257.65397669
 20
414.01337012
 30
0.0
 11
-260.23122167
 21
411.43612514
 31
0.0
  0
LINE
  5
487
100
AcDbEntity
  8
0
  6
CONTINUOUS
 62
       7
100
AcDbLine
 10
-258.50250483
 20
414.01337012
 30
0.0
 11
-260.79450478
 21
411.72137017
 31
0.0
  0
LINE
  5
488
100
AcDbEntity
  8
0
  6
CONTINUOUS
 62
       7
100
AcDbLine
 10
-259.35103297
 20
414.01337012
 30
0.0
 11
-261.34844111
 21
412.01596198
 31
0.0
  0
LINE
  5
489
100
AcDbEntity
  8
0
  6
CONTINUOUS
 62
       7
100
AcDbLine
 10
-260.1995611
 20
414.01337012
 30
0.0
 11
-261.89262186
 21
412.32030936
 31
0.0
  0
LINE
  5
48A
100
AcDbEntity
  8
0
  6
CONTINUOUS
 62
       7
100
AcDbLine
 10
-261.04808924
 20
414.01337012
 30
0.0
 11
-262.42658922
 21
412.63487014
 31
0.0
  0
LINE
  5
48B
100
AcDbEntity
  8
0
  6
CONTINUOUS
 62
       7
100
AcDbLine
 10
-261.375
 20
414.5349875
 30
0.0
 11
-262.94982852
 21
412.96015898
 31
0.0
  0
LINE
  5
48C
100
AcDbEntity
  8
0
  6
CONTINUOUS
 62
       7
100
AcDbLine
 10
-261.375
 20
415.38351564
 30
0.0
 11
-263.46175868
 21
413.29675695
 31
0.0
  0
LINE
  5
48D
100
AcDbEntity
  8
0
  6
CONTINUOUS
 62
       7
100
AcDbLine
 10
-261.375
 20
416.23204377
 30
0.0
 11
-263.96172034
 21
413.64532344
 31
0.0
  0
LINE
  5
48E
100
AcDbEntity
  8
0
  6
CONTINUOUS
 62
       7
100
AcDbLine
 10
-261.375
 20
417.08057191
 30
0.0
 11
-264.44896104
 21
414.00661087
 31
0.0
  0
LINE
  5
48F
100
AcDbEntity
  8
0
  6
CONTINUOUS
 62
       7
100
AcDbLine
 10
-261.375
 20
417.92910005
 30
0.0
 11
-264.92261654
 21
414.3814835
 31
0.0
  0
LINE
  5
490
100
AcDbEntity
  8
0
  6
CONTINUOUS
 62
       7
100
AcDbLine
 10
-261.375
 20
418.77762818
 30
0.0
 11
-265.38168692
 21
414.77094127
 31
0.0
  0
LINE
  5
491
100
AcDbEntity
  8
0
  6
CONTINUOUS
 62
       7
100
AcDbLine
 10
-261.375
 20
419.62615632
 30
0.0
 11
-265.82500544
 21
415.17615088
 31
0.0
  0
LINE
  5
492
100
AcDbEntity
  8
0
  6
CONTINUOUS
 62
       7
100
AcDbLine
 10
-261.375
 20
420.47468446
 30
0.0
 11
-266.25119761
 21
415.59848685
 31
0.0
  0
LINE
  5
493
100
AcDbEntity
  8
0
  6
CONTINUOUS
 62
       7
100
AcDbLine
 10
-261.37234248
 20
421.32587012
 30
0.0
 11
-266.65862605
 21
416.03958655
 31
0.0
  0
LINE
  5
494
100
AcDbEntity
  8
0
  6
CONTINUOUS
 62
       7
100
AcDbLine
 10
-262.22087062
 20
421.32587012
 30
0.0
 11
-267.04531473
 21
416.501426
 31
0.0
  0
LINE
  5
495
100
AcDbEntity
  8
0
  6
CONTINUOUS
 62
       7
100
AcDbLine
 10
-263.06939875
 20
421.32587012
 30
0.0
 11
-267.40884248
 21
416.98642639
 31
0.0
  0
LINE
  5
496
100
AcDbEntity
  8
0
  6
CONTINUOUS
 62
       7
100
AcDbLine
 10
-263.91792689
 20
421.32587012
 30
0.0
 11
-267.74618848
 21
417.49760853
 31
0.0
  0
LINE
  5
497
100
AcDbEntity
  8
0
  6
CONTINUOUS
 62
       7
100
AcDbLine
 10
-264.76645503
 20
421.32587012
 30
0.0
 11
-268.05350075
 21
418.0388244
 31
0.0
  0
LINE
  5
498
100
AcDbEntity
  8
0
  6
CONTINUOUS
 62
       7
100
AcDbLine
 10
-265.61498317
 20
421.32587012
 30
0.0
 11
-268.32573416
 21
418.61511913
 31
0.0
  0
LINE
  5
499
100
AcDbEntity
  8
0
  6
CONTINUOUS
 62
       7
100
AcDbLine
 10
-266.4635113
 20
421.32587012
 30
0.0
 11
-268.55605507
 21
419.23332635
 31
0.0
  0
LINE
  5
49A
100
AcDbEntity
  8
0
  6
CONTINUOUS
 62
       7
100
AcDbLine
 10
-267.31203944
 20
421.32587012
 30
0.0
 11
-268.73479635
 21
419.90311321
 31
0.0
  0
LINE
  5
49B
100
AcDbEntity
  8
0
  6
CONTINUOUS
 62
       7
100
AcDbLine
 10
-268.16056758
 20
421.32587012
 30
0.0
 11
-268.8474603
 21
420.63897739
 31
0.0
  0
LINE
  5
49C
100
AcDbEntity
  8
0
  6
CONTINUOUS
 62
       7
100
AcDbLine
 10
-217.77315423
 20
414.01337012
 30
0.0
 11
-225.92660941
 21
405.85991494
 31
0.0
  0
LINE
  5
49D
100
AcDbEntity
  8
0
  6
CONTINUOUS
 62
       7
100
AcDbLine
 10
-216.9246261
 20
414.01337012
 30
0.0
 11
-225.02996229
 21
405.90803392
 31
0.0
  0
LINE
  5
49E
100
AcDbEntity
  8
0
  6
CONTINUOUS
 62
       7
100
AcDbLine
 10
-216.07609796
 20
414.01337012
 30
0.0
 11
-224.12394115
 21
405.96552693
 31
0.0
  0
LINE
  5
49F
100
AcDbEntity
  8
0
  6
CONTINUOUS
 62
       7
100
AcDbLine
 10
-215.22756982
 20
414.01337012
 30
0.0
 11
-223.20813395
 21
406.03280599
 31
0.0
  0
LINE
  5
4A0
100
AcDbEntity
  8
0
  6
CONTINUOUS
 62
       7
100
AcDbLine
 10
-214.37904168
 20
414.01337012
 30
0.0
 11
-222.28207916
 21
406.11033264
 31
0.0
  0
LINE
  5
4A1
100
AcDbEntity
  8
0
  6
CONTINUOUS
 62
       7
100
AcDbLine
 10
-213.53051355
 20
414.01337012
 30
0.0
 11
-221.34525781
 21
406.19862586
 31
0.0
  0
LINE
  5
4A2
100
AcDbEntity
  8
0
  6
CONTINUOUS
 62
       7
100
AcDbLine
 10
-212.68198541
 20
414.01337012
 30
0.0
 11
-220.39708371
 21
406.29827182
 31
0.0
  0
LINE
  5
4A3
100
AcDbEntity
  8
0
  6
CONTINUOUS
 62
       7
100
AcDbLine
 10
-211.83345727
 20
414.01337012
 30
0.0
 11
-219.43689149
 21
406.4099359
 31
0.0
  0
LINE
  5
4A4
100
AcDbEntity
  8
0
  6
CONTINUOUS
 62
       7
100
AcDbLine
 10
-210.98492913
 20
414.01337012
 30
0.0
 11
-218.46392152
 21
406.53437774
 31
0.0
  0
LINE
  5
4A5
100
AcDbEntity
  8
0
  6
CONTINUOUS
 62
       7
100
AcDbLine
 10
-210.136401
 20
414.01337012
 30
0.0
 11
-217.47730087
 21
406.67247025
 31
0.0
  0
LINE
  5
4A6
100
AcDbEntity
  8
0
  6
CONTINUOUS
 62
       7
100
AcDbLine
 10
-209.28787286
 20
414.01337012
 30
0.0
 11
-216.476019
 21
406.82522398
 31
0.0
  0
LINE
  5
4A7
100
AcDbEntity
  8
0
  6
CONTINUOUS
 62
       7
100
AcDbLine
 10
-208.43934472
 20
414.01337012
 30
0.0
 11
-215.45889608
 21
406.99381876
 31
0.0
  0
LINE
  5
4A8
100
AcDbEntity
  8
0
  6
CONTINUOUS
 62
       7
100
AcDbLine
 10
-207.59081658
 20
414.01337012
 30
0.0
 11
-214.42454114
 21
407.17964556
 31
0.0
  0
LINE
  5
4A9
100
AcDbEntity
  8
0
  6
CONTINUOUS
 62
       7
100
AcDbLine
 10
-199.42978845
 20
421.32587012
 30
0.0
 11
-199.5
 21
421.25565857
 31
0.0
  0
LINE
  5
4AA
100
AcDbEntity
  8
0
  6
CONTINUOUS
 62
       7
100
AcDbLine
 10
-206.74228845
 20
414.01337012
 30
0.0
 11
-213.37129578
 21
407.38436279
 31
0.0
  0
LINE
  5
4AB
100
AcDbEntity
  8
0
  6
CONTINUOUS
 62
       7
100
AcDbLine
 10
-198.58126031
 20
421.32587012
 30
0.0
 11
-199.5
 21
420.40713043
 31
0.0
  0
LINE
  5
4AC
100
AcDbEntity
  8
0
  6
CONTINUOUS
 62
       7
100
AcDbLine
 10
-205.89376031
 20
414.01337012
 30
0.0
 11
-212.29715663
 21
407.6099738
 31
0.0
  0
LINE
  5
4AD
100
AcDbEntity
  8
0
  6
CONTINUOUS
 62
       7
100
AcDbLine
 10
-197.73273217
 20
421.32587012
 30
0.0
 11
-199.5
 21
419.55860229
 31
0.0
  0
LINE
  5
4AE
100
AcDbEntity
  8
0
  6
CONTINUOUS
 62
       7
100
AcDbLine
 10
-205.04523217
 20
414.01337012
 30
0.0
 11
-211.19966614
 21
407.85893615
 31
0.0
  0
LINE
  5
4AF
100
AcDbEntity
  8
0
  6
CONTINUOUS
 62
       7
100
AcDbLine
 10
-196.88420403
 20
421.32587012
 30
0.0
 11
-199.5
 21
418.71007415
 31
0.0
  0
LINE
  5
4B0
100
AcDbEntity
  8
0
  6
CONTINUOUS
 62
       7
100
AcDbLine
 10
-204.19670403
 20
414.01337012
 30
0.0
 11
-210.07575382
 21
408.13432034
 31
0.0
  0
LINE
  5
4B1
100
AcDbEntity
  8
0
  6
CONTINUOUS
 62
       7
100
AcDbLine
 10
-196.0356759
 20
421.32587012
 30
0.0
 11
-199.5
 21
417.86154602
 31
0.0
  0
LINE
  5
4B2
100
AcDbEntity
  8
0
  6
CONTINUOUS
 62
       7
100
AcDbLine
 10
-203.3481759
 20
414.01337012
 30
0.0
 11
-208.92149768
 21
408.44004834
 31
0.0
  0
LINE
  5
4B3
100
AcDbEntity
  8
0
  6
CONTINUOUS
 62
       7
100
AcDbLine
 10
-195.18714776
 20
421.32587012
 30
0.0
 11
-199.5
 21
417.01301788
 31
0.0
  0
LINE
  5
4B4
100
AcDbEntity
  8
0
  6
CONTINUOUS
 62
       7
100
AcDbLine
 10
-202.49964776
 20
414.01337012
 30
0.0
 11
-207.73175006
 21
408.78126782
 31
0.0
  0
LINE
  5
4B5
100
AcDbEntity
  8
0
  6
CONTINUOUS
 62
       7
100
AcDbLine
 10
-194.33861962
 20
421.32587012
 30
0.0
 11
-199.5
 21
416.16448974
 31
0.0
  0
LINE
  5
4B6
100
AcDbEntity
  8
0
  6
CONTINUOUS
 62
       7
100
AcDbLine
 10
-201.65111962
 20
414.01337012
 30
0.0
 11
-206.4995197
 21
409.16497004
 31
0.0
  0
LINE
  5
4B7
100
AcDbEntity
  8
0
  6
CONTINUOUS
 62
       7
100
AcDbLine
 10
-193.49009148
 20
421.32587012
 30
0.0
 11
-199.5
 21
415.3159616
 31
0.0
  0
LINE
  5
4B8
100
AcDbEntity
  8
0
  6
CONTINUOUS
 62
       7
100
AcDbLine
 10
-200.80259148
 20
414.01337012
 30
0.0
 11
-205.21488144
 21
409.60108017
 31
0.0
  0
LINE
  5
4B9
100
AcDbEntity
  8
0
  6
CONTINUOUS
 62
       7
100
AcDbLine
 10
-192.64156335
 20
421.32587012
 30
0.0
 11
-199.5
 21
414.46743347
 31
0.0
  0
LINE
  5
4BA
100
AcDbEntity
  8
0
  6
CONTINUOUS
 62
       7
100
AcDbLine
 10
-199.95406335
 20
414.01337012
 30
0.0
 11
-203.86287801
 21
410.10455545
 31
0.0
  0
LINE
  5
4BB
100
AcDbEntity
  8
0
  6
CONTINUOUS
 62
       7
100
AcDbLine
 10
-192.19476827
 20
420.92413706
 30
0.0
 11
-202.41896472
 21
410.69994061
 31
0.0
  0
LINE
  5
4BC
100
AcDbEntity
  8
0
  6
CONTINUOUS
 62
       7
100
AcDbLine
 10
-192.3172891
 20
419.95308809
 30
0.0
 11
-200.83715769
 21
411.4332195
 31
0.0
  0
LINE
  5
4BD
100
AcDbEntity
  8
0
  6
CONTINUOUS
 62
       7
100
AcDbLine
 10
-192.68735171
 20
418.73449735
 30
0.0
 11
-199.00780889
 21
412.41404016
 31
0.0
  0
LINE
  5
4BE
100
AcDbEntity
  8
0
  6
CONTINUOUS
 62
       7
100
AcDbLine
 10
-193.83202816
 20
416.74129276
 30
0.0
 11
-196.40384625
 21
414.16947467
 31
0.0
  0
INSERT
  5
4BF
100
AcDbEntity
  8
0
  6
CONTINUOUS
100
AcDbBlockReference
  2
GROUP_1
 10
0.0
 20
0.0
 30
0.0
  0
INSERT
  5
4C0
100
AcDbEntity
  8
0
  6
CONTINUOUS
100
AcDbBlockReference
  2
GROUP_2
 10
0.0
 20
0.0
 30
0.0
  0
INSERT
  5
4C1
100
AcDbEntity
  8
0
  6
CONTINUOUS
100
AcDbBlockReference
  2
GROUP_3
 10
0.0
 20
0.0
 30
0.0
  0
INSERT
  5
4C2
100
AcDbEntity
  8
0
  6
CONTINUOUS
100
AcDbBlockReference
  2
GROUP_4
 10
0.0
 20
0.0
 30
0.0
  0
INSERT
  5
4C3
100
AcDbEntity
  8
0
  6
CONTINUOUS
100
AcDbBlockReference
  2
GROUP_5
 10
0.0
 20
0.0
 30
0.0
  0
INSERT
  5
4C4
100
AcDbEntity
  8
0
  6
CONTINUOUS
100
AcDbBlockReference
  2
GROUP_6
 10
0.0
 20
0.0
 30
0.0
  0
INSERT
  5
4C5
100
AcDbEntity
  8
0
  6
CONTINUOUS
100
AcDbBlockReference
  2
GROUP_7
 10
0.0
 20
0.0
 30
0.0
  0
INSERT
  5
4C6
100
AcDbEntity
  8
0
  6
CONTINUOUS
100
AcDbBlockReference
  2
GROUP_8
 10
0.0
 20
0.0
 30
0.0
  0
INSERT
  5
4C7
100
AcDbEntity
  8
0
  6
CONTINUOUS
100
AcDbBlockReference
  2
GROUP_9
 10
0.0
 20
0.0
 30
0.0
  0
INSERT
  5
4C8
100
AcDbEntity
  8
0
  6
CONTINUOUS
100
AcDbBlockReference
  2
GROUP_10
 10
0.0
 20
0.0
 30
0.0
  0
INSERT
  5
4C9
100
AcDbEntity
  8
0
  6
CONTINUOUS
100
AcDbBlockReference
  2
GROUP_11
 10
0.0
 20
0.0
 30
0.0
  0
INSERT
  5
4CA
100
AcDbEntity
  8
0
  6
CONTINUOUS
100
AcDbBlockReference
  2
GROUP_12
 10
0.0
 20
0.0
 30
0.0
  0
INSERT
  5
4CB
100
AcDbEntity
  8
0
  6
CONTINUOUS
100
AcDbBlockReference
  2
GROUP_13
 10
0.0
 20
0.0
 30
0.0
  0
INSERT
  5
4CC
100
AcDbEntity
  8
0
  6
CONTINUOUS
100
AcDbBlockReference
  2
GROUP_14
 10
0.0
 20
0.0
 30
0.0
  0
INSERT
  5
4CD
100
AcDbEntity
  8
0
  6
CONTINUOUS
100
AcDbBlockReference
  2
GROUP_15
 10
0.0
 20
0.0
 30
0.0
  0
INSERT
  5
4CE
100
AcDbEntity
  8
0
  6
CONTINUOUS
100
AcDbBlockReference
  2
GROUP_16
 10
0.0
 20
0.0
 30
0.0
  0
INSERT
  5
4CF
100
AcDbEntity
  8
0
  6
CONTINUOUS
100
AcDbBlockReference
  2
GROUP_17
 10
0.0
 20
0.0
 30
0.0
  0
INSERT
  5
4D0
100
AcDbEntity
  8
0
  6
CONTINUOUS
100
AcDbBlockReference
  2
GROUP_18
 10
0.0
 20
0.0
 30
0.0
  0
INSERT
  5
4D1
100
AcDbEntity
  8
0
  6
CONTINUOUS
100
AcDbBlockReference
  2
GROUP_19
 10
0.0
 20
0.0
 30
0.0
  0
INSERT
  5
4D2
100
AcDbEntity
  8
0
  6
CONTINUOUS
100
AcDbBlockReference
  2
GROUP_20
 10
0.0
 20
0.0
 30
0.0
  0
INSERT
  5
4D3
100
AcDbEntity
  8
0
  6
CONTINUOUS
100
AcDbBlockReference
  2
GROUP_21
 10
0.0
 20
0.0
 30
0.0
  0
INSERT
  5
4D4
100
AcDbEntity
  8
0
  6
CONTINUOUS
100
AcDbBlockReference
  2
GROUP_22
 10
0.0
 20
0.0
 30
0.0
  0
INSERT
  5
4D5
100
AcDbEntity
  8
0
  6
CONTINUOUS
100
AcDbBlockReference
  2
GROUP_23
 10
0.0
 20
0.0
 30
0.0
  0
INSERT
  5
4D6
100
AcDbEntity
  8
0
  6
CONTINUOUS
100
AcDbBlockReference
  2
GROUP_24
 10
0.0
 20
0.0
 30
0.0
  0
INSERT
  5
4D7
100
AcDbEntity
  8
0
  6
CONTINUOUS
100
AcDbBlockReference
  2
GROUP_25
 10
0.0
 20
0.0
 30
0.0
  0
INSERT
  5
4D8
100
AcDbEntity
  8
0
  6
CONTINUOUS
100
AcDbBlockReference
  2
GROUP_26
 10
0.0
 20
0.0
 30
0.0
  0
LINE
  5
4D9
100
AcDbEntity
  8
1
  6
CONTINUOUS
 62
       7
100
AcDbLine
 10
-212.09979963
 20
-165.02062425
 30
0.0
 11
-238.6417525
 21
-165.02062425
 31
0.0
  0
LINE
  5
4DA
100
AcDbEntity
  8
1
  6
CONTINUOUS
 62
       7
100
AcDbLine
 10
-212.09979963
 20
250.7579547
 30
0.0
 11
-238.6417525
 21
250.7579547
 31
0.0
  0
LINE
  5
4DB
100
AcDbEntity
  8
1
  6
CONTINUOUS
 62
       7
100
AcDbLine
 10
-236.6417525
 20
250.7579547
 30
0.0
 11
-236.6417525
 21
-165.02062425
 31
0.0
  0
LINE
  5
4DC
100
AcDbEntity
  8
1
  6
CONTINUOUS
 62
       7
100
AcDbLine
 10
-236.6417525
 20
250.7579547
 30
0.0
 11
-238.20109018
 21
243.42184769
 31
0.0
  0
LINE
  5
4DD
100
AcDbEntity
  8
1
  6
CONTINUOUS
 62
       7
100
AcDbLine
 10
-236.6417525
 20
250.7579547
 30
0.0
 11
-235.08241482
 21
243.42184769
 31
0.0
  0
LINE
  5
4DE
100
AcDbEntity
  8
1
  6
CONTINUOUS
 62
       7
100
AcDbLine
 10
-236.6417525
 20
-165.02062425
 30
0.0
 11
-235.08241482
 21
-157.68451724
 31
0.0
  0
LINE
  5
4DF
100
AcDbEntity
  8
1
  6
CONTINUOUS
 62
       7
100
AcDbLine
 10
-236.6417525
 20
-165.02062425
 30
0.0
 11
-238.20109018
 21
-157.68451724
 31
0.0
  0
LINE
  5
4E0
100
AcDbEntity
  8
1
  6
CONTINUOUS
 62
       7
100
AcDbLine
 10
-155.0027056
 20
84.13719147
 30
0.0
 11
-155.0027056
 21
91.80308496
 31
0.0
  0
LINE
  5
4E1
100
AcDbEntity
  8
1
  6
CONTINUOUS
 62
       7
100
AcDbLine
 10
-189.0027056
 20
84.13719147
 30
0.0
 11
-189.0027056
 21
91.80308496
 31
0.0
  0
LINE
  5
4E2
100
AcDbEntity
  8
1
  6
CONTINUOUS
 62
       7
100
AcDbLine
 10
-189.0027056
 20
89.80308496
 30
0.0
 11
-155.0027056
 21
89.80308496
 31
0.0
  0
LINE
  5
4E3
100
AcDbEntity
  8
1
  6
CONTINUOUS
 62
       7
100
AcDbLine
 10
-125.8027056
 20
89.80308496
 30
0.0
 11
-155.0027056
 21
89.80308496
 31
0.0
  0
LINE
  5
4E4
100
AcDbEntity
  8
1
  6
CONTINUOUS
 62
       7
100
AcDbLine
 10
-155.0027056
 20
89.80308496
 30
0.0
 11
-147.66659859
 21
88.24374728
 31
0.0
  0
LINE
  5
4E5
100
AcDbEntity
  8
1
  6
CONTINUOUS
 62
       7
100
AcDbLine
 10
-155.0027056
 20
89.80308496
 30
0.0
 11
-147.66659859
 21
91.36242264
 31
0.0
  0
LINE
  5
4E6
100
AcDbEntity
  8
1
  6
CONTINUOUS
 62
       7
100
AcDbLine
 10
-199.0027056
 20
89.80308496
 30
0.0
 11
-189.0027056
 21
89.80308496
 31
0.0
  0
LINE
  5
4E7
100
AcDbEntity
  8
1
  6
CONTINUOUS
 62
       7
100
AcDbLine
 10
-189.0027056
 20
89.80308496
 30
0.0
 11
-196.33881261
 21
91.36242264
 31
0.0
  0
LINE
  5
4E8
100
AcDbEntity
  8
1
  6
CONTINUOUS
 62
       7
100
AcDbLine
 10
-189.0027056
 20
89.80308496
 30
0.0
 11
-196.33881261
 21
88.24374728
 31
0.0
  0
LINE
  5
4E9
100
AcDbEntity
  8
1
  6
CONTINUOUS
 62
       7
100
AcDbLine
 10
37.30072649
 20
274.7579547
 30
0.0
 11
67.30072649
 21
274.7579547
 31
0.0
  0
LINE
  5
4EA
100
AcDbEntity
  8
1
  6
CONTINUOUS
 62
       7
100
AcDbLine
 10
37.30072649
 20
226.7579547
 30
0.0
 11
67.30072649
 21
226.7579547
 31
0.0
  0
LINE
  5
4EB
100
AcDbEntity
  8
1
  6
CONTINUOUS
 62
       7
100
AcDbLine
 10
64.30072649
 20
274.7579547
 30
0.0
 11
64.30072649
 21
226.7579547
 31
0.0
  0
LINE
  5
4EC
100
AcDbEntity
  8
1
  6
CONTINUOUS
 62
       7
100
AcDbLine
 10
64.30072649
 20
274.7579547
 30
0.0
 11
62.74138881
 21
267.42184769
 31
0.0
  0
LINE
  5
4ED
100
AcDbEntity
  8
1
  6
CONTINUOUS
 62
       7
100
AcDbLine
 10
64.30072649
 20
274.7579547
 30
0.0
 11
65.86006417
 21
267.42184769
 31
0.0
  0
LINE
  5
4EE
100
AcDbEntity
  8
1
  6
CONTINUOUS
 62
       7
100
AcDbLine
 10
64.30072649
 20
226.7579547
 30
0.0
 11
65.86006417
 21
234.0940617
 31
0.0
  0
LINE
  5
4EF
100
AcDbEntity
  8
1
  6
CONTINUOUS
 62
       7
100
AcDbLine
 10
64.30072649
 20
226.7579547
 30
0.0
 11
62.74138881
 21
234.0940617
 31
0.0
  0
LINE
  5
4F0
100
AcDbEntity
  8
1
  6
CONTINUOUS
 62
       7
100
AcDbLine
 10
-153.0027056
 20
195.7579547
 30
0.0
 11
-117.95280394
 21
195.7579547
 31
0.0
  0
LINE
  5
4F1
100
AcDbEntity
  8
1
  6
CONTINUOUS
 62
       7
100
AcDbLine
 10
-129.27640866
 20
250.7579547
 30
0.0
 11
-117.95280394
 21
250.7579547
 31
0.0
  0
LINE
  5
4F2
100
AcDbEntity
  8
1
  6
CONTINUOUS
 62
       7
100
AcDbLine
 10
-119.95280394
 20
250.7579547
 30
0.0
 11
-119.95280394
 21
195.7579547
 31
0.0
  0
LINE
  5
4F3
100
AcDbEntity
  8
1
  6
CONTINUOUS
 62
       7
100
AcDbLine
 10
-119.95280394
 20
250.7579547
 30
0.0
 11
-121.51214163
 21
243.42184769
 31
0.0
  0
LINE
  5
4F4
100
AcDbEntity
  8
1
  6
CONTINUOUS
 62
       7
100
AcDbLine
 10
-119.95280394
 20
250.7579547
 30
0.0
 11
-118.39346626
 21
243.42184769
 31
0.0
  0
LINE
  5
4F5
100
AcDbEntity
  8
1
  6
CONTINUOUS
 62
       7
100
AcDbLine
 10
-119.95280394
 20
195.7579547
 30
0.0
 11
-118.39346626
 21
203.0940617
 31
0.0
  0
LINE
  5
4F6
100
AcDbEntity
  8
1
  6
CONTINUOUS
 62
       7
100
AcDbLine
 10
-119.95280394
 20
195.7579547
 30
0.0
 11
-121.51214163
 21
203.0940617
 31
0.0
  0
LINE
  5
4F7
100
AcDbEntity
  8
1
  6
CONTINUOUS
 62
       7
100
AcDbLine
 10
-30.69927351
 20
217.7579547
 30
0.0
 11
-30.69927351
 21
292.51367173
 31
0.0
  0
LINE
  5
4F8
100
AcDbEntity
  8
1
  6
CONTINUOUS
 62
       7
100
AcDbLine
 10
34.30072649
 20
276.7579547
 30
0.0
 11
34.30072649
 21
292.51367173
 31
0.0
  0
LINE
  5
4F9
100
AcDbEntity
  8
1
  6
CONTINUOUS
 62
       7
100
AcDbLine
 10
34.30072649
 20
290.51367173
 30
0.0
 11
-30.69927351
 21
290.51367173
 31
0.0
  0
LINE
  5
4FA
100
AcDbEntity
  8
1
  6
CONTINUOUS
 62
       7
100
AcDbLine
 10
34.30072649
 20
290.51367173
 30
0.0
 11
26.96461949
 21
292.07300941
 31
0.0
  0
LINE
  5
4FB
100
AcDbEntity
  8
1
  6
CONTINUOUS
 62
       7
100
AcDbLine
 10
34.30072649
 20
290.51367173
 30
0.0
 11
26.96461949
 21
288.95433405
 31
0.0
  0
LINE
  5
4FC
100
AcDbEntity
  8
1
  6
CONTINUOUS
 62
       7
100
AcDbLine
 10
-30.69927351
 20
290.51367173
 30
0.0
 11
-23.3631665
 21
288.95433405
 31
0.0
  0
LINE
  5
4FD
100
AcDbEntity
  8
1
  6
CONTINUOUS
 62
       7
100
AcDbLine
 10
-30.69927351
 20
290.51367173
 30
0.0
 11
-23.3631665
 21
292.07300941
 31
0.0
  0
LINE
  5
4FE
100
AcDbEntity
  8
1
  6
CONTINUOUS
 62
       7
100
AcDbLine
 10
-154.92959537
 20
269.1909531
 30
0.0
 11
-126.44461064
 21
299.94479178
 31
0.0
  0
LINE
  5
4FF
100
AcDbEntity
  8
1
  6
CONTINUOUS
 62
       7
100
AcDbLine
 10
-154.92959537
 20
269.1909531
 30
0.0
 11
-148.80050788
 21
273.51348553
 31
0.0
  0
LINE
  5
500
100
AcDbEntity
  8
1
  6
CONTINUOUS
 62
       7
100
AcDbLine
 10
-154.92959537
 20
269.1909531
 30
0.0
 11
-151.08852767
 21
275.63270743
 31
0.0
  0
LINE
  5
501
100
AcDbEntity
  8
1
  6
CONTINUOUS
 62
       7
100
AcDbLine
 10
-155.02747253
 20
142.61533441
 30
0.0
 11
-127.94802256
 21
152.09109904
 31
0.0
  0
LINE
  5
502
100
AcDbEntity
  8
1
  6
CONTINUOUS
 62
       7
100
AcDbLine
 10
-155.02747253
 20
142.61533441
 30
0.0
 11
-147.58803482
 21
143.56652659
 31
0.0
  0
LINE
  5
503
100
AcDbEntity
  8
1
  6
CONTINUOUS
 62
       7
100
AcDbLine
 10
-155.02747253
 20
142.61533441
 30
0.0
 11
-148.61809271
 21
146.51018362
 31
0.0
  0
TEXT
  5
504
100
AcDbEntity
  8
1
 62
       7
100
AcDbText
 10
-238.6417525
 20
37.38747256
 30
0.0
 40
12.0
  1
L
 50
90.00000154
 41
0.8
 72
       5
 11
-238.64175275
 21
46.98747256
 31
0.0
100
AcDbText
  0
TEXT
  5
505
100
AcDbEntity
  8
1
 62
       7
100
AcDbText
 10
-147.0027056
 20
91.80308496
 30
0.0
 40
12.0
  1
φ34
 41
0.8
 72
       5
 11
-118.2027056
 21
91.80308496
 31
0.0
100
AcDbText
  0
TEXT
  5
506
100
AcDbEntity
  8
1
 62
       7
100
AcDbText
 10
62.80072649
 20
236.3579547
 30
0.0
 40
12.0
  1
φ48
 50
90.00000154
 41
0.8
 72
       5
 11
62.80072572
 21
265.1579547
 31
0.0
100
AcDbText
  0
TEXT
  5
507
100
AcDbEntity
  8
1
 62
       7
100
AcDbText
 10
-122.95280394
 20
213.6579547
 30
0.0
 40
12.0
  1
55
 50
90.00000154
 41
0.8
 72
       5
 11
-122.95280446
 21
232.8579547
 31
0.0
100
AcDbText
  0
TEXT
  5
508
100
AcDbEntity
  8
1
 62
       7
100
AcDbText
 10
-7.79927351
 20
292.51367173
 30
0.0
 40
12.0
  1
65
 41
0.8
 72
       5
 11
11.40072649
 21
292.51367173
 31
0.0
100
AcDbText
  0
TEXT
  5
509
100
AcDbEntity
  8
1
 62
       7
100
AcDbText
 10
32.81873969
 20
-239.56580931
 30
0.0
 40
12.0
  1
※Ｌ＝３５０，４００，５００，６００，６５０，８００
 41
0.8
 72
       5
 11
282.41873969
 21
-239.56580931
 31
0.0
100
AcDbText
  0
TEXT
  5
50A
100
AcDbEntity
  8
240
 62
       7
100
AcDbText
 10
-245.69818209
 20
-365.61162988
 30
0.0
 40
12.0
  1
サイドブラケット 
 41
0.8
 72
       5
 11
-159.29818209
 21
-365.61162988
 31
0.0
100
AcDbText
  0
TEXT
  5
50B
100
AcDbEntity
  8
240
 62
       7
100
AcDbText
 10
-245.69818209
 20
-350.61162988
 30
0.0
 40
12.0
  1
パイプ
 41
0.8
 72
       5
 11
-216.89818209
 21
-350.61162988
 31
0.0
100
AcDbText
  0
TEXT
  5
50C
100
AcDbEntity
  8
240
 62
       7
100
AcDbText
 10
-245.10853557
 20
-335.79419575
 30
0.0
 40
12.0
  1
取付座Ａ
 41
0.8
 72
       5
 11
-206.70853557
 21
-335.79419575
 31
0.0
100
AcDbText
  0
TEXT
  5
50D
100
AcDbEntity
  8
240
 62
       7
100
AcDbText
 10
-245.69818209
 20
-305.61162988
 30
0.0
 40
12.0
  1
パッキン
 41
0.8
 72
       5
 11
-207.29818209
 21
-305.61162988
 31
0.0
100
AcDbText
  0
TEXT
  5
50E
100
AcDbEntity
  8
240
 62
       7
100
AcDbText
 10
-106.01068209
 20
-365.61162988
 30
0.0
 40
12.0
  1
POM 
 41
0.8
 72
       5
 11
-67.61068209
 21
-365.61162988
 31
0.0
100
AcDbText
  0
TEXT
  5
50F
100
AcDbEntity
  8
240
 62
       7
100
AcDbText
 10
-106.01068209
 20
-350.61162988
 30
0.0
 40
12.0
  1
SUS304
 41
0.8
 72
       5
 11
-48.41068209
 21
-350.61162988
 31
0.0
100
AcDbText
  0
TEXT
  5
510
100
AcDbEntity
  8
240
 62
       7
100
AcDbText
 10
-106.01068209
 20
-335.61162988
 30
0.0
 40
12.0
  1
POM 
 41
0.8
 72
       5
 11
-67.61068209
 21
-335.61162988
 31
0.0
100
AcDbText
  0
TEXT
  5
511
100
AcDbEntity
  8
240
 62
       7
100
AcDbText
 10
-106.01068209
 20
-305.61162988
 30
0.0
 40
12.0
  1
PP
 41
0.8
 72
       5
 11
-86.81068209
 21
-305.61162988
 31
0.0
100
AcDbText
  0
TEXT
  5
512
100
AcDbEntity
  8
240
 62
       7
100
AcDbText
 10
58.575
 20
-365.61162988
 30
0.0
 40
12.0
  1
2
 41
0.8
 72
       5
 11
68.175
 21
-365.61162988
 31
0.0
100
AcDbText
  0
TEXT
  5
513
100
AcDbEntity
  8
240
 62
       7
100
AcDbText
 10
58.75094067
 20
-350.80929647
 30
0.0
 40
12.0
  1
1
 41
0.8
 72
       5
 11
68.35094067
 21
-350.80929647
 31
0.0
100
AcDbText
  0
TEXT
  5
514
100
AcDbEntity
  8
240
 62
       7
100
AcDbText
 10
58.575
 20
-335.61162988
 30
0.0
 40
12.0
  1
2
 41
0.8
 72
       5
 11
68.175
 21
-335.61162988
 31
0.0
100
AcDbText
  0
TEXT
  5
515
100
AcDbEntity
  8
240
 62
       7
100
AcDbText
 10
58.575
 20
-320.61162988
 30
0.0
 40
12.0
  1
2
 41
0.8
 72
       5
 11
68.175
 21
-320.61162988
 31
0.0
100
AcDbText
  0
TEXT
  5
516
100
AcDbEntity
  8
240
 62
       7
100
AcDbText
 10
86.73931791
 20
-365.61162988
 30
0.0
 40
12.0
  1
表面:ABS樹脂
 41
0.8
 72
       5
 11
163.53931791
 21
-365.61162988
 31
0.0
100
AcDbText
  0
TEXT
  5
517
100
AcDbEntity
  8
240
 62
       7
100
AcDbText
 10
86.51471183
 20
-349.95938511
 30
0.0
 40
12.0
  1
φ34 表面:PVC
 41
0.8
 72
       5
 11
182.51471183
 21
-349.95938511
 31
0.0
100
AcDbText
  0
TEXT
  5
518
100
AcDbEntity
  8
240
 62
       7
100
AcDbText
 10
-66.24375
 20
-414.26787988
 30
0.0
 40
18.0
  1
樹脂ニギリバー
 41
0.8
 72
       5
 11
34.55625
 21
-414.26787988
 31
0.0
100
AcDbText
  0
TEXT
  5
519
100
AcDbEntity
  8
240
 62
       7
100
AcDbText
 10
102.0375
 20
406.09166442
 30
0.0
 40
18.0
  1
R7247(色：W,C)
 41
0.8
 72
       5
 11
274.8375
 21
406.09166442
 31
0.0
100
AcDbText
  0
TEXT
  5
51A
100
AcDbEntity
  8
240
 62
       7
100
AcDbText
 10
-95.10828488
 20
406.09166442
 30
0.0
 40
18.0
  1
樹脂ニギリバー
 41
0.8
 72
       5
 11
5.69171512
 21
406.09166442
 31
0.0
100
AcDbText
  0
TEXT
  5
51B
100
AcDbEntity
  8
240
 62
       7
100
AcDbText
 10
100.1625
 20
-414.26787988
 30
0.0
 40
18.0
  1
R7247(色：W,C)
 41
0.8
 72
       5
 11
272.9625
 21
-414.26787988
 31
0.0
100
AcDbText
  0
TEXT
  5
51C
100
AcDbEntity
  8
240
 62
       7
100
AcDbText
 10
58.575
 20
-305.61162988
 30
0.0
 40
12.0
  1
2
 41
0.8
 72
       5
 11
68.175
 21
-305.61162988
 31
0.0
100
AcDbText
  0
TEXT
  5
51D
100
AcDbEntity
  8
240
 62
       7
100
AcDbText
 10
-106.01068209
 20
-290.61162988
 30
0.0
 40
12.0
  1
SUS304
 41
0.8
 72
       5
 11
-48.41068209
 21
-290.61162988
 31
0.0
100
AcDbText
  0
TEXT
  5
51E
100
AcDbEntity
  8
240
 62
       7
100
AcDbText
 10
-245.69818209
 20
-290.61162988
 30
0.0
 40
12.0
  1
Ａタイプ取付ネジ　６Ｘ６０
 41
0.8
 72
       5
 11
-120.89818209
 21
-290.61162988
 31
0.0
100
AcDbText
  0
TEXT
  5
51F
100
AcDbEntity
  8
240
 62
       7
100
AcDbText
 10
58.575
 20
-290.61162988
 30
0.0
 40
12.0
  1
2
 41
0.8
 72
       5
 11
68.175
 21
-290.61162988
 31
0.0
100
AcDbText
  0
TEXT
  5
520
100
AcDbEntity
  8
240
 62
       7
100
AcDbText
 10
-106.01068209
 20
-275.61162988
 30
0.0
 40
12.0
  1
SUS304
 41
0.8
 72
       5
 11
-48.41068209
 21
-275.61162988
 31
0.0
100
AcDbText
  0
TEXT
  5
521
100
AcDbEntity
  8
240
 62
       7
100
AcDbText
 10
-245.69818209
 20
-275.61162988
 30
0.0
 40
12.0
  1
Ｂタイプ取付ネジ　Ｍ６Ｘ５０
 41
0.75
 72
       5
 11
-119.69818209
 21
-275.61162988
 31
0.0
100
AcDbText
  0
TEXT
  5
522
100
AcDbEntity
  8
240
 62
       7
100
AcDbText
 10
58.575
 20
-260.61162988
 30
0.0
 40
12.0
  1
4
 41
0.8
 72
       5
 11
68.175
 21
-260.61162988
 31
0.0
100
AcDbText
  0
TEXT
  5
523
100
AcDbEntity
  8
240
 62
       7
100
AcDbText
 10
-106.01068209
 20
-260.61162988
 30
0.0
 40
12.0
  1
SUS304
 41
0.8
 72
       5
 11
-48.41068209
 21
-260.61162988
 31
0.0
100
AcDbText
  0
TEXT
  5
524
100
AcDbEntity
  8
240
 62
       7
100
AcDbText
 10
-245.69818209
 20
-260.61162988
 30
0.0
 40
12.0
  1
Ｃタイプ取付ネジ　４Ｘ４５
 41
0.8
 72
       5
 11
-120.89818209
 21
-260.61162988
 31
0.0
100
AcDbText
  0
TEXT
  5
525
100
AcDbEntity
  8
240
 62
       7
100
AcDbText
 10
-106.01068209
 20
-320.61162988
 30
0.0
 40
12.0
  1
POM 
 41
0.8
 72
       5
 11
-67.61068209
 21
-320.61162988
 31
0.0
100
AcDbText
  0
TEXT
  5
526
100
AcDbEntity
  8
240
 62
       7
100
AcDbText
 10
-245.10853557
 20
-320.79419575
 30
0.0
 40
12.0
  1
取付座Ｂ
 41
0.8
 72
       5
 11
-206.70853557
 21
-320.79419575
 31
0.0
100
AcDbText
  0
TEXT
  5
527
100
AcDbEntity
  8
240
 62
       7
100
AcDbText
 10
58.575
 20
-275.61162988
 30
0.0
 40
12.0
  1
2
 41
0.8
 72
       5
 11
68.175
 21
-275.61162988
 31
0.0
100
AcDbText
  0
TEXT
  5
528
100
AcDbEntity
  8
240
 62
       7
100
AcDbText
 10
86.63830816
 20
-260.61162988
 30
0.0
 40
12.0
  1
　ナベタッピンネジ
 41
0.8
 72
       5
 11
173.03830816
 21
-260.61162988
 31
0.0
100
AcDbText
  0
TEXT
  5
529
100
AcDbEntity
  8
240
 62
       7
100
AcDbText
 10
95.43338848
 20
-275.61162988
 30
0.0
 40
12.0
  1
　六角ボルト
 41
0.8
 72
       5
 11
153.03338848
 21
-275.61162988
 31
0.0
100
AcDbText
  0
TEXT
  5
52A
100
AcDbEntity
  8
240
 62
       7
100
AcDbText
 10
86.63830816
 20
-290.61162988
 30
0.0
 40
12.0
  1
　　六角タッピンネジ
 41
0.8
 72
       5
 11
182.63830816
 21
-290.61162988
 31
0.0
100
AcDbText
  0
TEXT
  5
52B
100
AcDbEntity
  8
0
 62
       7
100
AcDbText
 10
-252.15356297
 20
-415.67412988
 30
0.0
 40
10.2
  1
株式会社
 41
0.8
 72
       5
 11
-219.51356297
 21
-415.67412988
 31
0.0
100
AcDbText
  0
TEXT
  5
52C
100
AcDbEntity
  8
0
 62
       7
100
AcDbText
 10
-120.78898405
 20
-398.7477071
 30
0.0
 40
9.0
  1
品
 41
0.8
 72
       5
 11
-113.58898405
 21
-398.7477071
 31
0.0
100
AcDbText
  0
TEXT
  5
52D
100
AcDbEntity
  8
0
 62
       7
100
AcDbText
 10
-120.78898405
 20
-416.7477071
 30
0.0
 40
9.0
  1
名
 41
0.8
 72
       5
 11
-113.58898405
 21
-416.7477071
 31
0.0
100
AcDbText
  0
TEXT
  5
52E
100
AcDbEntity
  8
0
 62
       7
100
AcDbText
 10
81.71773107
 20
-398.80049651
 30
0.0
 40
9.0
  1
品
 41
0.8
 72
       5
 11
88.91773107
 21
-398.80049651
 31
0.0
100
AcDbText
  0
TEXT
  5
52F
100
AcDbEntity
  8
0
 62
       7
100
AcDbText
 10
81.71773107
 20
-416.80049651
 30
0.0
 40
9.0
  1
番
 41
0.8
 72
       5
 11
88.91773107
 21
-416.80049651
 31
0.0
100
AcDbText
  0
TEXT
  5
530
100
AcDbEntity
  8
0
 62
       7
100
AcDbText
 10
-268.05223899
 20
-365.49173009
 30
0.0
 40
12.0
  1
1
 41
0.8
 72
       5
 11
-258.45223899
 21
-365.49173009
 31
0.0
100
AcDbText
  0
TEXT
  5
531
100
AcDbEntity
  8
0
 62
       7
100
AcDbText
 10
-268.05223899
 20
-350.49173009
 30
0.0
 40
12.0
  1
2
 41
0.8
 72
       5
 11
-258.45223899
 21
-350.49173009
 31
0.0
100
AcDbText
  0
TEXT
  5
532
100
AcDbEntity
  8
0
 62
       7
100
AcDbText
 10
-268.05223899
 20
-335.49173009
 30
0.0
 40
12.0
  1
3
 41
0.8
 72
       5
 11
-258.45223899
 21
-335.49173009
 31
0.0
100
AcDbText
  0
TEXT
  5
533
100
AcDbEntity
  8
0
 62
       7
100
AcDbText
 10
-268.05223899
 20
-320.49173009
 30
0.0
 40
12.0
  1
4
 41
0.8
 72
       5
 11
-258.45223899
 21
-320.49173009
 31
0.0
100
AcDbText
  0
TEXT
  5
534
100
AcDbEntity
  8
0
 62
       7
100
AcDbText
 10
-268.05223899
 20
-305.49173009
 30
0.0
 40
12.0
  1
5
 41
0.8
 72
       5
 11
-258.45223899
 21
-305.49173009
 31
0.0
100
AcDbText
  0
TEXT
  5
535
100
AcDbEntity
  8
0
 62
       7
100
AcDbText
 10
-268.05223899
 20
-290.49173009
 30
0.0
 40
12.0
  1
6
 41
0.8
 72
       5
 11
-258.45223899
 21
-290.49173009
 31
0.0
100
AcDbText
  0
TEXT
  5
536
100
AcDbEntity
  8
0
 62
       7
100
AcDbText
 10
-268.05223899
 20
-275.49173009
 30
0.0
 40
12.0
  1
7
 41
0.8
 72
       5
 11
-258.45223899
 21
-275.49173009
 31
0.0
100
AcDbText
  0
TEXT
  5
537
100
AcDbEntity
  8
0
 62
       7
100
AcDbText
 10
155.6163036
 20
-380.43252915
 30
0.0
 40
12.0
  1
摘要・仕上
 41
0.8
 72
       5
 11
203.6163036
 21
-380.43252915
 31
0.0
100
AcDbText
  0
TEXT
  5
538
100
AcDbEntity
  8
0
 62
       7
100
AcDbText
 10
48.70938388
 20
-380.43252915
 30
0.0
 40
12.0
  1
個　数
 41
0.8
 72
       5
 11
77.50938388
 21
-380.43252915
 31
0.0
100
AcDbText
  0
TEXT
  5
539
100
AcDbEntity
  8
0
 62
       7
100
AcDbText
 10
-52.07834402
 20
-380.43252915
 30
0.0
 40
12.0
  1
材　　質
 41
0.8
 72
       5
 11
-13.67834402
 21
-380.43252915
 31
0.0
100
AcDbText
  0
TEXT
  5
53A
100
AcDbEntity
  8
0
 62
       7
100
AcDbText
 10
-206.6306033
 20
-380.43252915
 30
0.0
 40
12.0
  1
部　品　名
 41
0.8
 72
       5
 11
-158.6306033
 21
-380.43252915
 31
0.0
100
AcDbText
  0
TEXT
  5
53B
100
AcDbEntity
  8
0
 62
       7
100
AcDbText
 10
-272.75694315
 20
-380.43252915
 30
0.0
 40
12.0
  1
部番
 41
0.8
 72
       5
 11
-253.55694315
 21
-380.43252915
 31
0.0
100
AcDbText
  0
TEXT
  5
53C
100
AcDbEntity
  8
0
 62
       7
100
AcDbText
 10
299.74219582
 20
221.81751814
 30
0.0
 40
12.0
  1
ニギリバー
 50
-90.00000154
 41
0.8
 72
       5
 11
299.74219453
 21
173.81751814
 31
0.0
100
AcDbText
  0
TEXT
  5
53D
100
AcDbEntity
  8
0
 62
       7
100
AcDbText
 10
-268.05223899
 20
-260.49173009
 30
0.0
 40
12.0
  1
8
 41
0.8
 72
       5
 11
-258.45223899
 21
-260.49173009
 31
0.0
100
AcDbText
  0
TEXT
  5
53E
100
AcDbEntity
  8
0
 62
       7
100
AcDbText
 10
223.25592536
 20
-439.8794885
 30
0.0
 40
12.0
  1
０１１１０１
 41
0.8
 72
       5
 11
280.85592536
 21
-439.8794885
 31
0.0
100
AcDbText
  0
CIRCLE
  5
53F
100
AcDbEntity
  8
16
  6
CONTINUOUS
 62
       7
100
AcDbCircle
 10
164.89356859
 20
277.0
 30
0.0
 40
18.0
  0
LINE
  5
540
100
AcDbEntity
  8
16
  6
CONTINUOUS
 62
       7
100
AcDbLine
 10
259.22307092
 20
295.0
 30
0.0
 11
260.22307092
 21
295.0
 31
0.0
  0
ARC
  5
541
100
AcDbEntity
  8
16
  6
CONTINUOUS
 62
       7
100
AcDbCircle
 10
260.22307092
 20
294.2
 30
0.0
 40
0.8
100
AcDbArc
 50
0.0
 51
90.0
  0
ARC
  5
542
100
AcDbEntity
  8
16
  6
CONTINUOUS
 62
       7
100
AcDbCircle
 10
260.22307092
 20
259.8
 30
0.0
 40
0.8
100
AcDbArc
 50
270.0
 51
360.0
  0
LINE
  5
543
100
AcDbEntity
  8
16
  6
CONTINUOUS
 62
       7
100
AcDbLine
 10
259.22307092
 20
295.0
 30
0.0
 11
259.22307092
 21
259.0
 31
0.0
  0
LINE
  5
544
100
AcDbEntity
  8
16
  6
CONTINUOUS
 62
       7
100
AcDbLine
 10
259.22307092
 20
259.0
 30
0.0
 11
260.22307092
 21
259.0
 31
0.0
  0
LINE
  5
545
100
AcDbEntity
  8
16
  6
CONTINUOUS
 62
       7
100
AcDbLine
 10
268.72307092
 20
288.29619246
 30
0.0
 11
268.72307092
 21
265.70380754
 31
0.0
  0
LINE
  5
546
100
AcDbEntity
  8
16
  6
CONTINUOUS
 62
       7
100
AcDbLine
 10
264.72307092
 20
288.57589971
 30
0.0
 11
268.72307092
 21
288.29619246
 31
0.0
  0
LINE
  5
547
100
AcDbEntity
  8
16
  6
CONTINUOUS
 62
       7
100
AcDbLine
 10
261.02307092
 20
294.2
 30
0.0
 11
261.02307092
 21
277.0
 31
0.0
  0
LINE
  5
548
100
AcDbEntity
  8
16
  6
CONTINUOUS
 62
       7
100
AcDbLine
 10
261.95331444
 20
264.25708995
 30
0.0
 11
264.74253478
 21
264.45213123
 31
0.0
  0
ARC
  5
549
100
AcDbEntity
  8
16
  6
CONTINUOUS
 62
       7
100
AcDbCircle
 10
262.02307092
 20
263.2595259
 30
0.0
 40
1.0
100
AcDbArc
 50
94.0000016
 51
180.0
  0
LINE
  5
54A
100
AcDbEntity
  8
16
  6
CONTINUOUS
 62
       7
100
AcDbLine
 10
261.02307092
 20
277.0
 30
0.0
 11
261.02307092
 21
259.8
 31
0.0
  0
ARC
  5
54B
100
AcDbEntity
  8
16
  6
CONTINUOUS
 62
       7
100
AcDbCircle
 10
262.02307092
 20
290.7404741
 30
0.0
 40
1.0
100
AcDbArc
 50
180.0
 51
265.9999984
  0
LINE
  5
54C
100
AcDbEntity
  8
16
  6
CONTINUOUS
 62
       7
100
AcDbLine
 10
261.95331444
 20
289.74291005
 30
0.0
 11
264.74253478
 21
289.54786877
 31
0.0
  0
LINE
  5
54D
100
AcDbEntity
  8
16
  6
CONTINUOUS
 62
       7
100
AcDbLine
 10
264.72307092
 20
265.42410029
 30
0.0
 11
268.72307092
 21
265.70380754
 31
0.0
  0
LINE
  5
54E
100
AcDbEntity
  8
16
  6
CONTINUOUS
 62
       7
100
AcDbLine
 10
264.72307092
 20
289.54786877
 30
0.0
 11
264.72307092
 21
277.0
 31
0.0
  0
LINE
  5
54F
100
AcDbEntity
  8
16
  6
CONTINUOUS
 62
       7
100
AcDbLine
 10
264.72307092
 20
277.0
 30
0.0
 11
264.72307092
 21
264.45213123
 31
0.0
  0
CIRCLE
  5
550
100
AcDbEntity
  8
16
  6
CONTINUOUS
 62
       7
100
AcDbCircle
 10
164.89356859
 20
285.0
 30
0.0
 40
4.06
  0
CIRCLE
  5
551
100
AcDbEntity
  8
16
  6
CONTINUOUS
 62
       7
100
AcDbCircle
 10
164.89356859
 20
269.0
 30
0.0
 40
4.06
  0
ARC
  5
552
100
AcDbEntity
  8
16
  6
CONTINUOUS
 62
       7
100
AcDbCircle
 10
164.89356859
 20
277.0
 30
0.0
 40
9.0
100
AcDbArc
 50
132.25342541
 51
222.65300752
  0
LINE
  5
553
100
AcDbEntity
  8
16
  6
CONTINUOUS
 62
       7
100
AcDbLine
 10
169.99356859
 20
277.0
 30
0.0
 11
169.99356859
 21
283.39452891
 31
0.0
  0
ARC
  5
554
100
AcDbEntity
  8
16
  6
CONTINUOUS
 62
       7
100
AcDbCircle
 10
170.49356859
 20
283.39452891
 30
0.0
 40
0.5
100
AcDbArc
 50
48.78979077
 51
180.0
  0
ARC
  5
555
100
AcDbEntity
  8
16
  6
CONTINUOUS
 62
       7
100
AcDbCircle
 10
164.89356859
 20
277.0
 30
0.0
 40
9.0
100
AcDbArc
 50
0.0
 51
48.78979077
  0
ARC
  5
556
100
AcDbEntity
  8
16
  6
CONTINUOUS
 62
       7
100
AcDbCircle
 10
170.49356859
 20
270.60547109
 30
0.0
 40
0.5
100
AcDbArc
 50
180.0
 51
311.21020923
  0
LINE
  5
557
100
AcDbEntity
  8
16
  6
CONTINUOUS
 62
       7
100
AcDbLine
 10
169.99356859
 20
277.0
 30
0.0
 11
169.99356859
 21
270.60547109
 31
0.0
  0
ARC
  5
558
100
AcDbEntity
  8
16
  6
CONTINUOUS
 62
       7
100
AcDbCircle
 10
164.89356859
 20
277.0
 30
0.0
 40
9.0
100
AcDbArc
 50
311.21020923
 51
360.0
  0
LINE
  5
559
100
AcDbEntity
  8
16
  6
CONTINUOUS
 62
       7
100
AcDbLine
 10
159.79356859
 20
277.0
 30
0.0
 11
159.79356859
 21
283.39452891
 31
0.0
  0
ARC
  5
55A
100
AcDbEntity
  8
16
  6
CONTINUOUS
 62
       7
100
AcDbCircle
 10
159.29356859
 20
283.39452891
 30
0.0
 40
0.5
100
AcDbArc
 50
0.00000307
 51
131.2102123
  0
ARC
  5
55B
100
AcDbEntity
  8
16
  6
CONTINUOUS
 62
       7
100
AcDbCircle
 10
164.89356859
 20
277.0
 30
0.0
 40
9.0
100
AcDbArc
 50
131.2102123
 51
180.00000307
  0
ARC
  5
55C
100
AcDbEntity
  8
16
  6
CONTINUOUS
 62
       7
100
AcDbCircle
 10
159.29356859
 20
270.60547109
 30
0.0
 40
0.5
100
AcDbArc
 50
228.7897877
 51
359.99999693
  0
LINE
  5
55D
100
AcDbEntity
  8
16
  6
CONTINUOUS
 62
       7
100
AcDbLine
 10
159.79356859
 20
277.0
 30
0.0
 11
159.79356859
 21
270.60547109
 31
0.0
  0
ARC
  5
55E
100
AcDbEntity
  8
16
  6
CONTINUOUS
 62
       7
100
AcDbCircle
 10
164.89356859
 20
277.0
 30
0.0
 40
9.0
100
AcDbArc
 50
180.00000307
 51
228.7897877
  0
LINE
  5
55F
100
AcDbEntity
  8
16
  6
CONTINUOUS
 62
       7
100
AcDbLine
 10
256.22307092
 20
283.7897666
 30
0.0
 11
256.22307092
 21
270.2102334
 31
0.0
  0
LINE
  5
560
100
AcDbEntity
  8
16
  6
CONTINUOUS
 62
       7
100
AcDbLine
 10
259.22307092
 20
283.89452891
 30
0.0
 11
256.22672484
 21
283.7898942
 31
0.0
  0
LINE
  5
561
100
AcDbEntity
  8
16
  6
CONTINUOUS
 62
       7
100
AcDbLine
 10
259.22307092
 20
270.10547109
 30
0.0
 11
256.22307092
 21
270.2102334
 31
0.0
  0
CIRCLE
  5
562
100
AcDbEntity
  8
16
  6
CONTINUOUS
 62
       7
100
AcDbCircle
 10
164.89356859
 20
277.0
 30
0.0
 40
3.53174731
  0
CIRCLE
  5
563
100
AcDbEntity
  8
16
  6
CONTINUOUS
 62
       7
100
AcDbCircle
 10
164.89356859
 20
285.0
 30
0.0
 40
2.4734056
  0
CIRCLE
  5
564
100
AcDbEntity
  8
16
  6
CONTINUOUS
 62
       7
100
AcDbCircle
 10
164.89356859
 20
269.0
 30
0.0
 40
2.4734056
  0
LINE
  5
565
100
AcDbEntity
  8
16
  6
CONTINUOUS
 62
       7
100
AcDbLine
 10
235.41073151
 20
118.0
 30
0.0
 11
235.41073151
 21
76.0
 31
0.0
  0
CIRCLE
  5
566
100
AcDbEntity
  8
16
  6
CONTINUOUS
 62
       7
100
AcDbCircle
 10
164.89356859
 20
97.0
 30
0.0
 40
21.0
  0
ARC
  5
567
100
AcDbEntity
  8
16
  6
CONTINUOUS
 62
       7
100
AcDbCircle
 10
148.72776105
 20
97.0
 30
0.0
 40
28.8
100
AcDbArc
 50
337.49524938
 51
382.50475062
  0
ARC
  5
568
100
AcDbEntity
  8
16
  6
CONTINUOUS
 62
       7
100
AcDbCircle
 10
169.9762605
 20
105.80348063
 30
0.0
 40
5.8
100
AcDbArc
 50
22.50475062
 51
97.49525143
  0
ARC
  5
569
100
AcDbEntity
  8
16
  6
CONTINUOUS
 62
       7
100
AcDbCircle
 10
172.97647236
 20
83.0
 30
0.0
 40
28.8
100
AcDbArc
 50
97.49525143
 51
142.50475267
  0
ARC
  5
56A
100
AcDbEntity
  8
16
  6
CONTINUOUS
 62
       7
100
AcDbCircle
 10
154.72818477
 20
97.0
 30
0.0
 40
5.8
100
AcDbArc
 50
142.50475267
 51
217.49524733
  0
ARC
  5
56B
100
AcDbEntity
  8
16
  6
CONTINUOUS
 62
       7
100
AcDbCircle
 10
172.97647236
 20
111.0
 30
0.0
 40
28.8
100
AcDbArc
 50
217.49524733
 51
262.50474857
  0
ARC
  5
56C
100
AcDbEntity
  8
16
  6
CONTINUOUS
 62
       7
100
AcDbCircle
 10
169.9762605
 20
88.19651937
 30
0.0
 40
5.8
100
AcDbArc
 50
262.50474857
 51
337.49524938
  0
CIRCLE
  5
56D
100
AcDbEntity
  8
16
  6
CONTINUOUS
 62
       7
100
AcDbCircle
 10
164.89356859
 20
97.0
 30
0.0
 40
19.0
  0
CIRCLE
  5
56E
100
AcDbEntity
  8
16
  6
CONTINUOUS
 62
       7
100
AcDbCircle
 10
164.89356859
 20
97.0
 30
0.0
 40
20.0
  0
LINE
  5
56F
100
AcDbEntity
  8
16
  6
CONTINUOUS
 62
       7
100
AcDbLine
 10
235.41073151
 20
118.0
 30
0.0
 11
228.01073151
 21
118.0
 31
0.0
  0
LINE
  5
570
100
AcDbEntity
  8
16
  6
CONTINUOUS
 62
       7
100
AcDbLine
 10
235.41073151
 20
76.0
 30
0.0
 11
228.01073151
 21
76.0
 31
0.0
  0
LINE
  5
571
100
AcDbEntity
  8
16
  6
CONTINUOUS
 62
       7
100
AcDbLine
 10
225.91073151
 20
117.0
 30
0.0
 11
225.91073151
 21
77.0
 31
0.0
  0
CIRCLE
  5
572
100
AcDbEntity
  8
16
  6
CONTINUOUS
 62
       7
100
AcDbCircle
 10
164.89356859
 20
97.0
 30
0.0
 40
12.1
  0
ARC
  5
573
100
AcDbEntity
  8
16
  6
CONTINUOUS
 62
       7
100
AcDbCircle
 10
169.9762605
 20
105.80348063
 30
0.0
 40
5.54
100
AcDbArc
 50
22.50475062
 51
97.49525143
  0
ARC
  5
574
100
AcDbEntity
  8
16
  6
CONTINUOUS
 62
       7
100
AcDbCircle
 10
172.97647236
 20
83.0
 30
0.0
 40
28.54
100
AcDbArc
 50
97.49525143
 51
142.50475267
  0
ARC
  5
575
100
AcDbEntity
  8
16
  6
CONTINUOUS
 62
       7
100
AcDbCircle
 10
154.72818477
 20
97.0
 30
0.0
 40
5.54
100
AcDbArc
 50
142.50475267
 51
217.49524733
  0
ARC
  5
576
100
AcDbEntity
  8
16
  6
CONTINUOUS
 62
       7
100
AcDbCircle
 10
172.97647236
 20
111.0
 30
0.0
 40
28.54
100
AcDbArc
 50
217.49524733
 51
262.50474857
  0
ARC
  5
577
100
AcDbEntity
  8
16
  6
CONTINUOUS
 62
       7
100
AcDbCircle
 10
169.9762605
 20
88.19651937
 30
0.0
 40
5.54
100
AcDbArc
 50
262.50474857
 51
337.49524938
  0
ARC
  5
578
100
AcDbEntity
  8
16
  6
CONTINUOUS
 62
       7
100
AcDbCircle
 10
148.72776105
 20
97.0
 30
0.0
 40
28.54
100
AcDbArc
 50
337.49524938
 51
382.50475062
  0
CIRCLE
  5
579
100
AcDbEntity
  8
16
  6
CONTINUOUS
 62
       7
100
AcDbCircle
 10
164.89356859
 20
97.0
 30
0.0
 40
12.375
  0
LINE
  5
57A
100
AcDbEntity
  8
16
  6
CONTINUOUS
 62
       7
100
AcDbLine
 10
228.01073151
 20
118.0
 30
0.0
 11
228.01073151
 21
97.0
 31
0.0
  0
LINE
  5
57B
100
AcDbEntity
  8
16
  6
CONTINUOUS
 62
       7
100
AcDbLine
 10
228.01073151
 20
76.0
 30
0.0
 11
228.01073151
 21
97.0
 31
0.0
  0
LINE
  5
57C
100
AcDbEntity
  8
16
  6
CONTINUOUS
 62
       7
100
AcDbLine
 10
228.01073151
 20
77.0
 30
0.0
 11
225.91073151
 21
77.0
 31
0.0
  0
LINE
  5
57D
100
AcDbEntity
  8
16
  6
CONTINUOUS
 62
       7
100
AcDbLine
 10
228.01073151
 20
117.0
 30
0.0
 11
225.91073151
 21
117.0
 31
0.0
  0
CIRCLE
  5
57E
100
AcDbEntity
  8
16
  6
CONTINUOUS
 62
       7
100
AcDbCircle
 10
164.89356859
 20
-78.15902732
 30
0.0
 40
2.4
  0
CIRCLE
  5
57F
100
AcDbEntity
  8
16
  6
CONTINUOUS
 62
       7
100
AcDbCircle
 10
164.89356859
 20
-94.15902732
 30
0.0
 40
2.4
  0
CIRCLE
  5
580
100
AcDbEntity
  8
16
  6
CONTINUOUS
 62
       7
100
AcDbCircle
 10
164.89356859
 20
-86.15902732
 30
0.0
 40
3.25
  0
CIRCLE
  5
581
100
AcDbEntity
  8
16
  6
CONTINUOUS
 62
       7
100
AcDbCircle
 10
164.89356859
 20
-86.15902732
 30
0.0
 40
24.6
  0
CIRCLE
  5
582
100
AcDbEntity
  8
16
  6
CONTINUOUS
 62
       7
100
AcDbCircle
 10
164.89356859
 20
-86.15902732
 30
0.0
 40
24.0
  0
ARC
  5
583
100
AcDbEntity
  8
16
  6
CONTINUOUS
 62
       7
100
AcDbCircle
 10
164.89356859
 20
-86.15902732
 30
0.0
 40
16.0
100
AcDbArc
 50
171.15064275
 51
189.93790413
  0
ARC
  5
584
100
AcDbEntity
  8
16
  6
CONTINUOUS
 62
       7
100
AcDbCircle
 10
164.89356859
 20
-86.15902732
 30
0.0
 40
15.0
100
AcDbArc
 50
171.15064275
 51
189.93790413
  0
LINE
  5
585
100
AcDbEntity
  8
16
  6
CONTINUOUS
 62
       7
100
AcDbLine
 10
152.50314849
 20
-82.32138617
 30
0.0
 11
151.57785963
 21
-82.07345577
 31
0.0
  0
LINE
  5
586
100
AcDbEntity
  8
16
  6
CONTINUOUS
 62
       7
100
AcDbLine
 10
152.24432944
 20
-83.28731199
 30
0.0
 11
151.31904059
 21
-83.03938159
 31
0.0
  0
LINE
  5
587
100
AcDbEntity
  8
16
  6
CONTINUOUS
 62
       7
100
AcDbLine
 10
148.40746648
 20
-90.05882698
 30
0.0
 11
147.4043462
 21
-90.32761224
 31
0.0
  0
LINE
  5
588
100
AcDbEntity
  8
16
  6
CONTINUOUS
 62
       7
100
AcDbLine
 10
148.66628553
 20
-91.0247528
 30
0.0
 11
147.66316525
 21
-91.29353807
 31
0.0
  0
ARC
  5
589
100
AcDbEntity
  8
16
  6
CONTINUOUS
 62
       7
100
AcDbCircle
 10
151.06022154
 20
-84.00530742
 30
0.0
 40
1.0
100
AcDbArc
 50
75.00000128
 51
171.15064275
  0
ARC
  5
58A
100
AcDbEntity
  8
16
  6
CONTINUOUS
 62
       7
100
AcDbCircle
 10
148.14864744
 20
-89.09290115
 30
0.0
 40
1.0
100
AcDbArc
 50
284.99999872
 51
369.93790721
  0
ARC
  5
58B
100
AcDbEntity
  8
16
  6
CONTINUOUS
 62
       7
100
AcDbCircle
 10
151.06022154
 20
-84.00530742
 30
0.0
 40
2.0
100
AcDbArc
 50
75.00000128
 51
171.15064275
  0
ARC
  5
58C
100
AcDbEntity
  8
16
  6
CONTINUOUS
 62
       7
100
AcDbCircle
 10
148.14864744
 20
-89.09290115
 30
0.0
 40
2.0
100
AcDbArc
 50
284.99999872
 51
369.93790721
  0
ARC
  5
58D
100
AcDbEntity
  8
16
  6
CONTINUOUS
 62
       7
100
AcDbCircle
 10
164.89356859
 20
-86.15902732
 30
0.0
 40
12.5
100
AcDbArc
 50
169.41172868
 51
280.58827286
  0
ARC
  5
58E
100
AcDbEntity
  8
16
  6
CONTINUOUS
 62
       7
100
AcDbCircle
 10
164.89356859
 20
-86.15902732
 30
0.0
 40
18.5
100
AcDbArc
 50
78.18473987
 51
191.81525859
  0
ARC
  5
58F
100
AcDbEntity
  8
16
  6
CONTINUOUS
 62
       7
100
AcDbCircle
 10
152.63255801
 20
-81.83842326
 30
0.0
 40
0.5
100
AcDbArc
 50
254.99999821
 51
340.58827388
  0
ARC
  5
590
100
AcDbEntity
  8
16
  6
CONTINUOUS
 62
       7
100
AcDbCircle
 10
152.11491992
 20
-83.77027491
 30
0.0
 40
0.5
100
AcDbArc
 50
349.41172561
 51
435.00000128
  0
ARC
  5
591
100
AcDbEntity
  8
16
  6
CONTINUOUS
 62
       7
100
AcDbCircle
 10
147.27493668
 20
-89.84464933
 30
0.0
 40
0.5
100
AcDbArc
 50
191.81525859
 51
284.99999872
  0
ARC
  5
592
100
AcDbEntity
  8
16
  6
CONTINUOUS
 62
       7
100
AcDbCircle
 10
147.79257477
 20
-91.77650098
 30
0.0
 40
0.5
100
AcDbArc
 50
105.00000179
 51
198.18473578
  0
ARC
  5
593
100
AcDbEntity
  8
16
  6
CONTINUOUS
 62
       7
100
AcDbCircle
 10
164.89356859
 20
-86.15902732
 30
0.0
 40
16.0
100
AcDbArc
 50
291.15063865
 51
309.93790618
  0
ARC
  5
594
100
AcDbEntity
  8
16
  6
CONTINUOUS
 62
       7
100
AcDbCircle
 10
164.89356859
 20
-86.15902732
 30
0.0
 40
15.0
100
AcDbArc
 50
291.15063865
 51
309.93790618
  0
LINE
  5
595
100
AcDbEntity
  8
16
  6
CONTINUOUS
 62
       7
100
AcDbLine
 10
167.76528392
 20
-98.80826647
 30
0.0
 11
168.01321432
 21
-99.73355532
 31
0.0
  0
LINE
  5
596
100
AcDbEntity
  8
16
  6
CONTINUOUS
 62
       7
100
AcDbLine
 10
168.73120974
 20
-98.54944743
 30
0.0
 11
168.97914014
 21
-99.47473628
 31
0.0
  0
LINE
  5
597
100
AcDbEntity
  8
16
  6
CONTINUOUS
 62
       7
100
AcDbLine
 10
176.51394522
 20
-98.48651073
 30
0.0
 11
177.24828023
 21
-99.22084574
 31
0.0
  0
LINE
  5
598
100
AcDbEntity
  8
16
  6
CONTINUOUS
 62
       7
100
AcDbLine
 10
177.221052
 20
-97.77940394
 30
0.0
 11
177.95538701
 21
-98.51373896
 31
0.0
  0
ARC
  5
599
100
AcDbEntity
  8
16
  6
CONTINUOUS
 62
       7
100
AcDbCircle
 10
169.94506597
 20
-99.21591723
 30
0.0
 40
1.0
100
AcDbArc
 50
194.99999719
 51
291.15063865
  0
ARC
  5
59A
100
AcDbEntity
  8
16
  6
CONTINUOUS
 62
       7
100
AcDbCircle
 10
175.80683843
 20
-99.19361751
 30
0.0
 40
1.0
100
AcDbArc
 50
45.00000077
 51
129.93790925
  0
ARC
  5
59B
100
AcDbEntity
  8
16
  6
CONTINUOUS
 62
       7
100
AcDbCircle
 10
169.94506597
 20
-99.21591723
 30
0.0
 40
2.0
100
AcDbArc
 50
194.99999719
 51
291.15063865
  0
ARC
  5
59C
100
AcDbEntity
  8
16
  6
CONTINUOUS
 62
       7
100
AcDbCircle
 10
175.80683843
 20
-99.19361751
 30
0.0
 40
2.0
100
AcDbArc
 50
45.00000077
 51
129.93790925
  0
ARC
  5
59D
100
AcDbEntity
  8
16
  6
CONTINUOUS
 62
       7
100
AcDbCircle
 10
164.89356859
 20
-86.15902732
 30
0.0
 40
18.5
100
AcDbArc
 50
198.18473578
 51
311.81526064
  0
ARC
  5
59E
100
AcDbEntity
  8
16
  6
CONTINUOUS
 62
       7
100
AcDbCircle
 10
167.282321
 20
-98.93767599
 30
0.0
 40
0.5
100
AcDbArc
 50
15.00000026
 51
100.58827593
  0
ARC
  5
59F
100
AcDbEntity
  8
16
  6
CONTINUOUS
 62
       7
100
AcDbCircle
 10
169.21417266
 20
-98.4200379
 30
0.0
 40
0.5
100
AcDbArc
 50
109.41172765
 51
194.99999719
  0
ARC
  5
5A0
100
AcDbEntity
  8
16
  6
CONTINUOUS
 62
       7
100
AcDbCircle
 10
176.89472684
 20
-99.57439913
 30
0.0
 40
0.5
100
AcDbArc
 50
311.81526064
 51
405.00000077
  0
ARC
  5
5A1
100
AcDbEntity
  8
16
  6
CONTINUOUS
 62
       7
100
AcDbCircle
 10
178.3089404
 20
-98.16018557
 30
0.0
 40
0.5
100
AcDbArc
 50
224.9999977
 51
318.18473782
  0
ARC
  5
5A2
100
AcDbEntity
  8
16
  6
CONTINUOUS
 62
       7
100
AcDbCircle
 10
164.89356859
 20
-86.15902732
 30
0.0
 40
12.5
100
AcDbArc
 50
289.41172458
 51
400.58827491
  0
ARC
  5
5A3
100
AcDbEntity
  8
16
  6
CONTINUOUS
 62
       7
100
AcDbCircle
 10
164.89356859
 20
-86.15902732
 30
0.0
 40
16.0
100
AcDbArc
 50
51.1506407
 51
69.93790823
  0
ARC
  5
5A4
100
AcDbEntity
  8
16
  6
CONTINUOUS
 62
       7
100
AcDbCircle
 10
164.89356859
 20
-86.15902732
 30
0.0
 40
15.0
100
AcDbArc
 50
51.1506407
 51
69.93790823
  0
LINE
  5
5A5
100
AcDbEntity
  8
16
  6
CONTINUOUS
 62
       7
100
AcDbLine
 10
174.41227337
 20
-77.34742932
 30
0.0
 11
175.08963182
 21
-76.67007087
 31
0.0
  0
LINE
  5
5A6
100
AcDbEntity
  8
16
  6
CONTINUOUS
 62
       7
100
AcDbLine
 10
173.70516659
 20
-76.64032254
 30
0.0
 11
174.38252504
 21
-75.96296409
 31
0.0
  0
LINE
  5
5A7
100
AcDbEntity
  8
16
  6
CONTINUOUS
 62
       7
100
AcDbLine
 10
169.75929407
 20
-69.93174426
 30
0.0
 11
170.02807934
 21
-68.92862398
 31
0.0
  0
LINE
  5
5A8
100
AcDbEntity
  8
16
  6
CONTINUOUS
 62
       7
100
AcDbLine
 10
168.79336825
 20
-69.67292521
 30
0.0
 11
169.06215352
 21
-68.66980493
 31
0.0
  0
ARC
  5
5A9
100
AcDbEntity
  8
16
  6
CONTINUOUS
 62
       7
100
AcDbCircle
 10
173.67541826
 20
-75.25585731
 30
0.0
 40
1.0
100
AcDbArc
 50
314.99999923
 51
411.1506407
  0
ARC
  5
5AA
100
AcDbEntity
  8
16
  6
CONTINUOUS
 62
       7
100
AcDbCircle
 10
170.7252199
 20
-70.1905633
 30
0.0
 40
1.0
100
AcDbArc
 50
165.00000281
 51
249.93790516
  0
ARC
  5
5AB
100
AcDbEntity
  8
16
  6
CONTINUOUS
 62
       7
100
AcDbCircle
 10
173.67541826
 20
-75.25585731
 30
0.0
 40
2.0
100
AcDbArc
 50
314.99999923
 51
411.1506407
  0
ARC
  5
5AC
100
AcDbEntity
  8
16
  6
CONTINUOUS
 62
       7
100
AcDbCircle
 10
170.7252199
 20
-70.1905633
 30
0.0
 40
2.0
100
AcDbArc
 50
165.00000281
 51
249.93790516
  0
ARC
  5
5AD
100
AcDbEntity
  8
16
  6
CONTINUOUS
 62
       7
100
AcDbCircle
 10
164.89356859
 20
-86.15902732
 30
0.0
 40
18.5
100
AcDbArc
 50
318.18473782
 51
431.81526269
  0
ARC
  5
5AE
100
AcDbEntity
  8
16
  6
CONTINUOUS
 62
       7
100
AcDbCircle
 10
174.76582676
 20
-77.70098271
 30
0.0
 40
0.5
100
AcDbArc
 50
135.0000023
 51
220.58827184
  0
ARC
  5
5AF
100
AcDbEntity
  8
16
  6
CONTINUOUS
 62
       7
100
AcDbCircle
 10
173.3516132
 20
-76.28676915
 30
0.0
 40
0.5
100
AcDbArc
 50
229.41172356
 51
314.99999923
  0
ARC
  5
5B0
100
AcDbEntity
  8
16
  6
CONTINUOUS
 62
       7
100
AcDbCircle
 10
170.51104226
 20
-69.0580335
 30
0.0
 40
0.5
100
AcDbArc
 50
71.81526269
 51
165.00000281
  0
ARC
  5
5B1
100
AcDbEntity
  8
16
  6
CONTINUOUS
 62
       7
100
AcDbCircle
 10
168.5791906
 20
-68.54039541
 30
0.0
 40
0.5
100
AcDbArc
 50
344.99999974
 51
438.18473987
  0
ARC
  5
5B2
100
AcDbEntity
  8
16
  6
CONTINUOUS
 62
       7
100
AcDbCircle
 10
164.89356859
 20
-86.15902732
 30
0.0
 40
12.5
100
AcDbArc
 50
49.41172663
 51
160.58827695
  0
LINE
  5
5B3
100
AcDbEntity
  8
16
  6
CONTINUOUS
 62
       7
100
AcDbLine
 10
256.22307092
 20
-61.55902732
 30
0.0
 11
258.45307092
 21
-61.55902732
 31
0.0
  0
LINE
  5
5B4
100
AcDbEntity
  8
16
  6
CONTINUOUS
 62
       7
100
AcDbLine
 10
258.45307092
 20
-110.75902732
 30
0.0
 11
258.45307092
 21
-61.55902732
 31
0.0
  0
LINE
  5
5B5
100
AcDbEntity
  8
16
  6
CONTINUOUS
 62
       7
100
AcDbLine
 10
256.22307092
 20
-110.75902732
 30
0.0
 11
258.45307092
 21
-110.75902732
 31
0.0
  0
LINE
  5
5B6
100
AcDbEntity
  8
16
  6
CONTINUOUS
 62
       7
100
AcDbLine
 10
256.22307092
 20
-61.55902732
 30
0.0
 11
256.22307092
 21
-110.75902732
 31
0.0
  0
LINE
  5
5B7
100
AcDbEntity
  8
16
  6
CONTINUOUS
 62
       7
100
AcDbLine
 10
228.01073151
 20
77.0
 30
0.0
 11
235.41073151
 21
77.0
 31
0.0
  0
LINE
  5
5B8
100
AcDbEntity
  8
16
  6
CONTINUOUS
 62
       7
100
AcDbLine
 10
228.01073151
 20
117.0
 30
0.0
 11
235.41073151
 21
117.0
 31
0.0
  0
CIRCLE
  5
5B9
100
AcDbEntity
  8
16
  6
CONTINUOUS
 62
       7
100
AcDbCircle
 10
164.89356859
 20
97.0
 30
0.0
 40
20.0
  0
LINE
  5
5BA
100
AcDbEntity
  8
16
  6
CENTER
 62
       7
100
AcDbLine
 10
248.72307092
 20
277.0
 30
0.0
 11
276.22307092
 21
277.0
 31
0.0
  0
LINE
  5
5BB
100
AcDbEntity
  8
16
  6
CENTER
 62
       7
100
AcDbLine
 10
271.72307092
 20
285.0
 30
0.0
 11
256.22307092
 21
285.0
 31
0.0
  0
LINE
  5
5BC
100
AcDbEntity
  8
16
  6
CENTER
 62
       7
100
AcDbLine
 10
271.72307092
 20
269.0
 30
0.0
 11
256.22307092
 21
269.0
 31
0.0
  0
LINE
  5
5BD
100
AcDbEntity
  8
16
  6
CENTER
 62
       7
100
AcDbLine
 10
139.39356859
 20
277.0
 30
0.0
 11
190.39356859
 21
277.0
 31
0.0
  0
LINE
  5
5BE
100
AcDbEntity
  8
16
  6
CENTER
 62
       7
100
AcDbLine
 10
164.89356859
 20
302.5
 30
0.0
 11
164.89356859
 21
251.5
 31
0.0
  0
LINE
  5
5BF
100
AcDbEntity
  8
16
  6
CENTER
 62
       7
100
AcDbLine
 10
171.95356859
 20
285.0
 30
0.0
 11
157.83356859
 21
285.0
 31
0.0
  0
LINE
  5
5C0
100
AcDbEntity
  8
16
  6
CENTER
 62
       7
100
AcDbLine
 10
171.95356859
 20
269.0
 30
0.0
 11
157.83356859
 21
269.0
 31
0.0
  0
LINE
  5
5C1
100
AcDbEntity
  8
16
  6
CENTER
 62
       7
100
AcDbLine
 10
242.91073151
 20
97.0
 30
0.0
 11
218.41073151
 21
97.0
 31
0.0
  0
LINE
  5
5C2
100
AcDbEntity
  8
16
  6
CENTER
 62
       7
100
AcDbLine
 10
164.89356859
 20
125.5
 30
0.0
 11
164.89356859
 21
68.5
 31
0.0
  0
LINE
  5
5C3
100
AcDbEntity
  8
16
  6
CENTER
 62
       7
100
AcDbLine
 10
193.39356859
 20
97.0
 30
0.0
 11
136.39356859
 21
97.0
 31
0.0
  0
LINE
  5
5C4
100
AcDbEntity
  8
16
  6
CENTER
 62
       7
100
AcDbLine
 10
159.49356859
 20
-94.15902732
 30
0.0
 11
170.29356859
 21
-94.15902732
 31
0.0
  0
LINE
  5
5C5
100
AcDbEntity
  8
16
  6
CENTER
 62
       7
100
AcDbLine
 10
159.49356859
 20
-78.15902732
 30
0.0
 11
170.29356859
 21
-78.15902732
 31
0.0
  0
LINE
  5
5C6
100
AcDbEntity
  8
16
  6
CENTER
 62
       7
100
AcDbLine
 10
196.99356859
 20
-86.15902732
 30
0.0
 11
132.79356859
 21
-86.15902732
 31
0.0
  0
LINE
  5
5C7
100
AcDbEntity
  8
16
  6
CENTER
 62
       7
100
AcDbLine
 10
164.89356859
 20
-54.05902732
 30
0.0
 11
164.89356859
 21
-118.25902732
 31
0.0
  0
LINE
  5
5C8
100
AcDbEntity
  8
16
  6
CENTER
 62
       7
100
AcDbLine
 10
248.72307092
 20
-86.15902732
 30
0.0
 11
265.95307092
 21
-86.15902732
 31
0.0
  0
LINE
  5
5C9
100
AcDbEntity
  8
16
  6
CENTER
 62
       7
100
AcDbLine
 10
253.22307092
 20
-78.15902732
 30
0.0
 11
261.45307092
 21
-78.15902732
 31
0.0
  0
LINE
  5
5CA
100
AcDbEntity
  8
16
  6
CENTER
 62
       7
100
AcDbLine
 10
253.22307092
 20
-94.15902732
 30
0.0
 11
261.45307092
 21
-94.15902732
 31
0.0
  0
LINE
  5
5CB
100
AcDbEntity
  8
17
  6
CONTINUOUS
 62
       7
100
AcDbLine
 10
163.26856859
 20
274.18541744
 30
0.0
 11
137.18075567
 21
229.0
 31
0.0
  0
LINE
  5
5CC
100
AcDbEntity
  8
17
  6
CONTINUOUS
 62
       7
100
AcDbLine
 10
163.26856859
 20
274.18541744
 30
0.0
 11
158.25008904
 21
268.61183125
 31
0.0
  0
LINE
  5
5CD
100
AcDbEntity
  8
17
  6
CONTINUOUS
 62
       7
100
AcDbLine
 10
163.26856859
 20
274.18541744
 30
0.0
 11
160.95094113
 21
267.05249357
 31
0.0
  0
LINE
  5
5CE
100
AcDbEntity
  8
17
  6
CONTINUOUS
 62
       7
100
AcDbLine
 10
166.13027139
 20
266.85796792
 30
0.0
 11
187.98757936
 21
229.0
 31
0.0
  0
LINE
  5
5CF
100
AcDbEntity
  8
17
  6
CONTINUOUS
 62
       7
100
AcDbLine
 10
166.13027139
 20
266.85796792
 30
0.0
 11
168.44789885
 21
259.72504405
 31
0.0
  0
LINE
  5
5D0
100
AcDbEntity
  8
17
  6
CONTINUOUS
 62
       7
100
AcDbLine
 10
166.13027139
 20
266.85796792
 30
0.0
 11
171.14875094
 21
261.28438173
 31
0.0
  0
LINE
  5
5D1
100
AcDbEntity
  8
17
  6
CONTINUOUS
 62
       7
100
AcDbLine
 10
187.98757936
 20
229.0
 30
0.0
 11
251.58757936
 21
229.0
 31
0.0
  0
LINE
  5
5D2
100
AcDbEntity
  8
17
  6
CONTINUOUS
 62
       7
100
AcDbLine
 10
161.26424862
 20
294.63031584
 30
0.0
 11
155.43399571
 21
322.95220558
 31
0.0
  0
LINE
  5
5D3
100
AcDbEntity
  8
17
  6
CONTINUOUS
 62
       7
100
AcDbLine
 10
161.26424862
 20
294.63031584
 30
0.0
 11
161.31238951
 21
302.13016133
 31
0.0
  0
LINE
  5
5D4
100
AcDbEntity
  8
17
  6
CONTINUOUS
 62
       7
100
AcDbLine
 10
161.26424862
 20
294.63031584
 30
0.0
 11
158.25776553
 21
301.50134629
 31
0.0
  0
LINE
  5
5D5
100
AcDbEntity
  8
17
  6
CONTINUOUS
 62
       7
100
AcDbLine
 10
163.26856859
 20
-88.97360988
 30
0.0
 11
133.37024389
 21
-140.75902732
 31
0.0
  0
LINE
  5
5D6
100
AcDbEntity
  8
17
  6
CONTINUOUS
 62
       7
100
AcDbLine
 10
163.26856859
 20
-88.97360988
 30
0.0
 11
158.25008904
 21
-94.54719607
 31
0.0
  0
LINE
  5
5D7
100
AcDbEntity
  8
17
  6
CONTINUOUS
 62
       7
100
AcDbLine
 10
163.26856859
 20
-88.97360988
 30
0.0
 11
160.95094113
 21
-96.10653375
 31
0.0
  0
LINE
  5
5D8
100
AcDbEntity
  8
17
  6
CONTINUOUS
 62
       7
100
AcDbLine
 10
154.39356859
 20
78.81346652
 30
0.0
 11
137.18075567
 21
49.0
 31
0.0
  0
LINE
  5
5D9
100
AcDbEntity
  8
17
  6
CONTINUOUS
 62
       7
100
AcDbLine
 10
154.39356859
 20
78.81346652
 30
0.0
 11
149.37508904
 21
73.23988033
 31
0.0
  0
LINE
  5
5DA
100
AcDbEntity
  8
17
  6
CONTINUOUS
 62
       7
100
AcDbLine
 10
154.39356859
 20
78.81346652
 30
0.0
 11
152.07594113
 21
71.68054265
 31
0.0
  0
LINE
  5
5DB
100
AcDbEntity
  8
17
  6
CONTINUOUS
 62
       7
100
AcDbLine
 10
160.65936195
 20
117.56870181
 30
0.0
 11
155.43399571
 21
142.95220558
 31
0.0
  0
LINE
  5
5DC
100
AcDbEntity
  8
17
  6
CONTINUOUS
 62
       7
100
AcDbLine
 10
160.65936195
 20
117.56870181
 30
0.0
 11
160.70750285
 21
125.06854731
 31
0.0
  0
LINE
  5
5DD
100
AcDbEntity
  8
17
  6
CONTINUOUS
 62
       7
100
AcDbLine
 10
160.65936195
 20
117.56870181
 30
0.0
 11
157.65287887
 21
124.43973226
 31
0.0
  0
LINE
  5
5DE
100
AcDbEntity
  8
17
  6
CONTINUOUS
 62
       7
100
AcDbLine
 10
160.17669242
 20
-62.01547582
 30
0.0
 11
155.30390617
 21
-37.0738913
 31
0.0
  0
LINE
  5
5DF
100
AcDbEntity
  8
17
  6
CONTINUOUS
 62
       7
100
AcDbLine
 10
160.17669242
 20
-62.01547582
 30
0.0
 11
160.3004502
 21
-54.51649695
 31
0.0
  0
LINE
  5
5E0
100
AcDbEntity
  8
17
  6
CONTINUOUS
 62
       7
100
AcDbLine
 10
160.17669242
 20
-62.01547582
 30
0.0
 11
157.23964128
 21
-55.11448092
 31
0.0
  0
LINE
  5
5E1
100
AcDbEntity
  8
17
  6
CONTINUOUS
 62
       7
100
AcDbLine
 10
191.79809114
 20
-140.75902732
 30
0.0
 11
255.39809114
 21
-140.75902732
 31
0.0
  0
LINE
  5
5E2
100
AcDbEntity
  8
17
  6
CONTINUOUS
 62
       7
100
AcDbLine
 10
166.13027139
 20
-96.3010594
 30
0.0
 11
191.79809114
 21
-140.75902732
 31
0.0
  0
LINE
  5
5E3
100
AcDbEntity
  8
17
  6
CONTINUOUS
 62
       7
100
AcDbLine
 10
166.13027139
 20
-96.3010594
 30
0.0
 11
168.44789885
 21
-103.43398327
 31
0.0
  0
LINE
  5
5E4
100
AcDbEntity
  8
17
  6
CONTINUOUS
 62
       7
100
AcDbLine
 10
166.13027139
 20
-96.3010594
 30
0.0
 11
171.14875094
 21
-101.87464559
 31
0.0
  0
LINE
  5
5E5
100
AcDbEntity
  8
17
  6
CONTINUOUS
 62
       7
100
AcDbLine
 10
257.72307092
 20
295.0
 30
0.0
 11
223.22307092
 21
295.0
 31
0.0
  0
LINE
  5
5E6
100
AcDbEntity
  8
17
  6
CONTINUOUS
 62
       7
100
AcDbLine
 10
257.72307092
 20
259.0
 30
0.0
 11
223.22307092
 21
259.0
 31
0.0
  0
LINE
  5
5E7
100
AcDbEntity
  8
17
  6
CONTINUOUS
 62
       7
100
AcDbLine
 10
226.22307092
 20
295.0
 30
0.0
 11
226.22307092
 21
259.0
 31
0.0
  0
LINE
  5
5E8
100
AcDbEntity
  8
17
  6
CONTINUOUS
 62
       7
100
AcDbLine
 10
226.22307092
 20
295.0
 30
0.0
 11
224.66373324
 21
287.66389299
 31
0.0
  0
LINE
  5
5E9
100
AcDbEntity
  8
17
  6
CONTINUOUS
 62
       7
100
AcDbLine
 10
226.22307092
 20
295.0
 30
0.0
 11
227.7824086
 21
287.66389299
 31
0.0
  0
LINE
  5
5EA
100
AcDbEntity
  8
17
  6
CONTINUOUS
 62
       7
100
AcDbLine
 10
226.22307092
 20
259.0
 30
0.0
 11
227.7824086
 21
266.33610701
 31
0.0
  0
LINE
  5
5EB
100
AcDbEntity
  8
17
  6
CONTINUOUS
 62
       7
100
AcDbLine
 10
226.22307092
 20
259.0
 30
0.0
 11
224.66373324
 21
266.33610701
 31
0.0
  0
LINE
  5
5EC
100
AcDbEntity
  8
17
  6
CONTINUOUS
 62
       7
100
AcDbLine
 10
156.33356859
 20
285.0
 30
0.0
 11
113.89356859
 21
285.0
 31
0.0
  0
LINE
  5
5ED
100
AcDbEntity
  8
17
  6
CONTINUOUS
 62
       7
100
AcDbLine
 10
156.33356859
 20
269.0
 30
0.0
 11
113.89356859
 21
269.0
 31
0.0
  0
LINE
  5
5EE
100
AcDbEntity
  8
17
  6
CONTINUOUS
 62
       7
100
AcDbLine
 10
116.89356859
 20
285.0
 30
0.0
 11
116.89356859
 21
269.0
 31
0.0
  0
LINE
  5
5EF
100
AcDbEntity
  8
17
  6
CONTINUOUS
 62
       7
100
AcDbLine
 10
116.89356859
 20
300.0
 30
0.0
 11
116.89356859
 21
285.0
 31
0.0
  0
LINE
  5
5F0
100
AcDbEntity
  8
17
  6
CONTINUOUS
 62
       7
100
AcDbLine
 10
116.89356859
 20
285.0
 30
0.0
 11
118.45290627
 21
292.33610701
 31
0.0
  0
LINE
  5
5F1
100
AcDbEntity
  8
17
  6
CONTINUOUS
 62
       7
100
AcDbLine
 10
116.89356859
 20
285.0
 30
0.0
 11
115.33423091
 21
292.33610701
 31
0.0
  0
LINE
  5
5F2
100
AcDbEntity
  8
17
  6
CONTINUOUS
 62
       7
100
AcDbLine
 10
116.89356859
 20
254.0
 30
0.0
 11
116.89356859
 21
269.0
 31
0.0
  0
LINE
  5
5F3
100
AcDbEntity
  8
17
  6
CONTINUOUS
 62
       7
100
AcDbLine
 10
116.89356859
 20
269.0
 30
0.0
 11
115.33423091
 21
261.66389299
 31
0.0
  0
LINE
  5
5F4
100
AcDbEntity
  8
17
  6
CONTINUOUS
 62
       7
100
AcDbLine
 10
116.89356859
 20
269.0
 30
0.0
 11
118.45290627
 21
261.66389299
 31
0.0
  0
LINE
  5
5F5
100
AcDbEntity
  8
17
  6
CONTINUOUS
 62
       7
100
AcDbLine
 10
268.72307092
 20
289.79619246
 30
0.0
 11
268.72307092
 21
328.0
 31
0.0
  0
LINE
  5
5F6
100
AcDbEntity
  8
17
  6
CONTINUOUS
 62
       7
100
AcDbLine
 10
259.22307092
 20
296.5
 30
0.0
 11
259.22307092
 21
328.0
 31
0.0
  0
LINE
  5
5F7
100
AcDbEntity
  8
17
  6
CONTINUOUS
 62
       7
100
AcDbLine
 10
259.22307092
 20
325.0
 30
0.0
 11
268.72307092
 21
325.0
 31
0.0
  0
LINE
  5
5F8
100
AcDbEntity
  8
17
  6
CONTINUOUS
 62
       7
100
AcDbLine
 10
228.02307092
 20
325.0
 30
0.0
 11
259.22307092
 21
325.0
 31
0.0
  0
LINE
  5
5F9
100
AcDbEntity
  8
17
  6
CONTINUOUS
 62
       7
100
AcDbLine
 10
259.22307092
 20
325.0
 30
0.0
 11
251.88696391
 21
326.55933768
 31
0.0
  0
LINE
  5
5FA
100
AcDbEntity
  8
17
  6
CONTINUOUS
 62
       7
100
AcDbLine
 10
259.22307092
 20
325.0
 30
0.0
 11
251.88696391
 21
323.44066232
 31
0.0
  0
LINE
  5
5FB
100
AcDbEntity
  8
17
  6
CONTINUOUS
 62
       7
100
AcDbLine
 10
283.72307092
 20
325.0
 30
0.0
 11
268.72307092
 21
325.0
 31
0.0
  0
LINE
  5
5FC
100
AcDbEntity
  8
17
  6
CONTINUOUS
 62
       7
100
AcDbLine
 10
268.72307092
 20
325.0
 30
0.0
 11
276.05917792
 21
323.44066232
 31
0.0
  0
LINE
  5
5FD
100
AcDbEntity
  8
17
  6
CONTINUOUS
 62
       7
100
AcDbLine
 10
268.72307092
 20
325.0
 30
0.0
 11
276.05917792
 21
326.55933768
 31
0.0
  0
LINE
  5
5FE
100
AcDbEntity
  8
17
  6
CONTINUOUS
 62
       7
100
AcDbLine
 10
225.91073151
 20
118.5
 30
0.0
 11
225.91073151
 21
148.0
 31
0.0
  0
LINE
  5
5FF
100
AcDbEntity
  8
17
  6
CONTINUOUS
 62
       7
100
AcDbLine
 10
235.41073151
 20
119.5
 30
0.0
 11
235.41073151
 21
148.0
 31
0.0
  0
LINE
  5
600
100
AcDbEntity
  8
17
  6
CONTINUOUS
 62
       7
100
AcDbLine
 10
225.91073151
 20
145.0
 30
0.0
 11
235.41073151
 21
145.0
 31
0.0
  0
LINE
  5
601
100
AcDbEntity
  8
17
  6
CONTINUOUS
 62
       7
100
AcDbLine
 10
185.30052177
 20
145.0
 30
0.0
 11
225.91073151
 21
145.0
 31
0.0
  0
LINE
  5
602
100
AcDbEntity
  8
17
  6
CONTINUOUS
 62
       7
100
AcDbLine
 10
225.91073151
 20
145.0
 30
0.0
 11
218.57462451
 21
146.55933768
 31
0.0
  0
LINE
  5
603
100
AcDbEntity
  8
17
  6
CONTINUOUS
 62
       7
100
AcDbLine
 10
225.91073151
 20
145.0
 30
0.0
 11
218.57462451
 21
143.44066232
 31
0.0
  0
LINE
  5
604
100
AcDbEntity
  8
17
  6
CONTINUOUS
 62
       7
100
AcDbLine
 10
250.41073151
 20
145.0
 30
0.0
 11
235.41073151
 21
145.0
 31
0.0
  0
LINE
  5
605
100
AcDbEntity
  8
17
  6
CONTINUOUS
 62
       7
100
AcDbLine
 10
235.41073151
 20
145.0
 30
0.0
 11
242.74683852
 21
143.44066232
 31
0.0
  0
LINE
  5
606
100
AcDbEntity
  8
17
  6
CONTINUOUS
 62
       7
100
AcDbLine
 10
235.41073151
 20
145.0
 30
0.0
 11
242.74683852
 21
146.55933768
 31
0.0
  0
LINE
  5
607
100
AcDbEntity
  8
17
  6
CONTINUOUS
 62
       7
100
AcDbLine
 10
254.72307092
 20
-110.75902732
 30
0.0
 11
223.22307092
 21
-110.75902732
 31
0.0
  0
LINE
  5
608
100
AcDbEntity
  8
17
  6
CONTINUOUS
 62
       7
100
AcDbLine
 10
254.72307092
 20
-61.55902732
 30
0.0
 11
223.22307092
 21
-61.55902732
 31
0.0
  0
LINE
  5
609
100
AcDbEntity
  8
17
  6
CONTINUOUS
 62
       7
100
AcDbLine
 10
226.22307092
 20
-61.55902732
 30
0.0
 11
226.22307092
 21
-110.75902732
 31
0.0
  0
LINE
  5
60A
100
AcDbEntity
  8
17
  6
CONTINUOUS
 62
       7
100
AcDbLine
 10
226.22307092
 20
-61.55902732
 30
0.0
 11
224.66373324
 21
-68.89513433
 31
0.0
  0
LINE
  5
60B
100
AcDbEntity
  8
17
  6
CONTINUOUS
 62
       7
100
AcDbLine
 10
226.22307092
 20
-61.55902732
 30
0.0
 11
227.7824086
 21
-68.89513433
 31
0.0
  0
LINE
  5
60C
100
AcDbEntity
  8
17
  6
CONTINUOUS
 62
       7
100
AcDbLine
 10
226.22307092
 20
-110.75902732
 30
0.0
 11
227.7824086
 21
-103.42292031
 31
0.0
  0
LINE
  5
60D
100
AcDbEntity
  8
17
  6
CONTINUOUS
 62
       7
100
AcDbLine
 10
226.22307092
 20
-110.75902732
 30
0.0
 11
224.66373324
 21
-103.42292031
 31
0.0
  0
LINE
  5
60E
100
AcDbEntity
  8
17
  6
CONTINUOUS
 62
       7
100
AcDbLine
 10
256.22307092
 20
-60.05902732
 30
0.0
 11
256.22307092
 21
-28.55902732
 31
0.0
  0
LINE
  5
60F
100
AcDbEntity
  8
17
  6
CONTINUOUS
 62
       7
100
AcDbLine
 10
258.45307092
 20
-60.05902732
 30
0.0
 11
258.45307092
 21
-28.55902732
 31
0.0
  0
LINE
  5
610
100
AcDbEntity
  8
17
  6
CONTINUOUS
 62
       7
100
AcDbLine
 10
256.22307092
 20
-31.55902732
 30
0.0
 11
258.45307092
 21
-31.55902732
 31
0.0
  0
LINE
  5
611
100
AcDbEntity
  8
17
  6
CONTINUOUS
 62
       7
100
AcDbLine
 10
215.42307092
 20
-31.55902732
 30
0.0
 11
256.22307092
 21
-31.55902732
 31
0.0
  0
LINE
  5
612
100
AcDbEntity
  8
17
  6
CONTINUOUS
 62
       7
100
AcDbLine
 10
256.22307092
 20
-31.55902732
 30
0.0
 11
248.88696391
 21
-29.99968964
 31
0.0
  0
LINE
  5
613
100
AcDbEntity
  8
17
  6
CONTINUOUS
 62
       7
100
AcDbLine
 10
256.22307092
 20
-31.55902732
 30
0.0
 11
248.88696391
 21
-33.118365
 31
0.0
  0
LINE
  5
614
100
AcDbEntity
  8
17
  6
CONTINUOUS
 62
       7
100
AcDbLine
 10
273.45307092
 20
-31.55902732
 30
0.0
 11
258.45307092
 21
-31.55902732
 31
0.0
  0
LINE
  5
615
100
AcDbEntity
  8
17
  6
CONTINUOUS
 62
       7
100
AcDbLine
 10
258.45307092
 20
-31.55902732
 30
0.0
 11
265.78917792
 21
-33.118365
 31
0.0
  0
LINE
  5
616
100
AcDbEntity
  8
17
  6
CONTINUOUS
 62
       7
100
AcDbLine
 10
258.45307092
 20
-31.55902732
 30
0.0
 11
265.78917792
 21
-29.99968964
 31
0.0
  0
LINE
  5
617
100
AcDbEntity
  8
17
  6
CONTINUOUS
 62
       7
100
AcDbLine
 10
137.18075567
 20
229.0
 30
0.0
 11
92.78075567
 21
229.0
 31
0.0
  0
LINE
  5
618
100
AcDbEntity
  8
17
  6
CONTINUOUS
 62
       7
100
AcDbLine
 10
133.37024389
 20
-140.75902732
 30
0.0
 11
88.97024389
 21
-140.75902732
 31
0.0
  0
LINE
  5
619
100
AcDbEntity
  8
17
  6
CONTINUOUS
 62
       7
100
AcDbLine
 10
137.18075567
 20
49.0
 30
0.0
 11
83.18075567
 21
49.0
 31
0.0
  0
LINE
  5
61A
100
AcDbEntity
  8
17
  6
CONTINUOUS
 62
       7
100
AcDbLine
 10
157.99356859
 20
-78.15902732
 30
0.0
 11
107.29356859
 21
-78.15902732
 31
0.0
  0
LINE
  5
61B
100
AcDbEntity
  8
17
  6
CONTINUOUS
 62
       7
100
AcDbLine
 10
157.99356859
 20
-94.15902732
 30
0.0
 11
107.29356859
 21
-94.15902732
 31
0.0
  0
LINE
  5
61C
100
AcDbEntity
  8
17
  6
CONTINUOUS
 62
       7
100
AcDbLine
 10
110.29356859
 20
-78.15902732
 30
0.0
 11
110.29356859
 21
-94.15902732
 31
0.0
  0
LINE
  5
61D
100
AcDbEntity
  8
17
  6
CONTINUOUS
 62
       7
100
AcDbLine
 10
110.29356859
 20
-63.15902732
 30
0.0
 11
110.29356859
 21
-78.15902732
 31
0.0
  0
LINE
  5
61E
100
AcDbEntity
  8
17
  6
CONTINUOUS
 62
       7
100
AcDbLine
 10
110.29356859
 20
-78.15902732
 30
0.0
 11
111.85290627
 21
-70.82292031
 31
0.0
  0
LINE
  5
61F
100
AcDbEntity
  8
17
  6
CONTINUOUS
 62
       7
100
AcDbLine
 10
110.29356859
 20
-78.15902732
 30
0.0
 11
108.73423091
 21
-70.82292031
 31
0.0
  0
LINE
  5
620
100
AcDbEntity
  8
17
  6
CONTINUOUS
 62
       7
100
AcDbLine
 10
110.29356859
 20
-109.15902732
 30
0.0
 11
110.29356859
 21
-94.15902732
 31
0.0
  0
LINE
  5
621
100
AcDbEntity
  8
17
  6
CONTINUOUS
 62
       7
100
AcDbLine
 10
110.29356859
 20
-94.15902732
 30
0.0
 11
108.73423091
 21
-101.49513433
 31
0.0
  0
LINE
  5
622
100
AcDbEntity
  8
17
  6
CONTINUOUS
 62
       7
100
AcDbLine
 10
110.29356859
 20
-94.15902732
 30
0.0
 11
111.85290627
 21
-101.49513433
 31
0.0
  0
TEXT
  5
623
100
AcDbEntity
  8
17
 62
       7
100
AcDbText
 10
190.98757936
 20
232.0
 30
0.0
 40
12.0
  1
2-φ4.5
 41
0.8
 72
       5
 11
248.58757936
 21
232.0
 31
0.0
100
AcDbText
  0
TEXT
  5
624
100
AcDbEntity
  8
17
 62
       7
100
AcDbText
 10
190.98757936
 20
214.0
 30
0.0
 40
12.0
  1
φ７．２
 41
0.8
 72
       5
 11
229.38757936
 21
214.0
 31
0.0
100
AcDbText
  0
TEXT
  5
625
100
AcDbEntity
  8
17
 62
       7
100
AcDbText
 10
194.79809114
 20
-137.75902732
 30
0.0
 40
12.0
  1
2-φ4.8
 41
0.8
 72
       5
 11
252.39809114
 21
-137.75902732
 31
0.0
100
AcDbText
  0
TEXT
  5
626
100
AcDbEntity
  8
17
 62
       7
100
AcDbText
 10
95.78075567
 20
232.0
 30
0.0
 40
12.0
  1
φ6.5
 41
0.8
 72
       5
 11
134.18075567
 21
232.0
 31
0.0
100
AcDbText
  0
TEXT
  5
627
100
AcDbEntity
  8
17
 62
       7
100
AcDbText
 10
91.97024389
 20
-137.75902732
 30
0.0
 40
12.0
  1
φ6.5
 41
0.8
 72
       5
 11
130.37024389
 21
-137.75902732
 31
0.0
100
AcDbText
  0
TEXT
  5
628
100
AcDbEntity
  8
17
 62
       7
100
AcDbText
 10
86.18075567
 20
52.0
 30
0.0
 40
12.0
  1
M42X2
 41
0.8
 72
       5
 11
134.18075567
 21
52.0
 31
0.0
100
AcDbText
  0
TEXT
  5
629
100
AcDbEntity
  8
17
 62
       7
100
AcDbText
 10
223.22307092
 20
262.6
 30
0.0
 40
12.0
  1
φ36
 50
90.00000154
 41
0.8
 72
       5
 11
223.22307014
 21
291.4
 31
0.0
100
AcDbText
  0
TEXT
  5
62A
100
AcDbEntity
  8
17
 62
       7
100
AcDbText
 10
113.89356859
 20
267.4
 30
0.0
 40
12.0
  1
16
 50
90.00000154
 41
0.8
 72
       5
 11
113.89356808
 21
286.6
 31
0.0
100
AcDbText
  0
TEXT
  5
62B
100
AcDbEntity
  8
17
 62
       7
100
AcDbText
 10
231.02307092
 20
328.0
 30
0.0
 40
12.0
  1
10
 41
0.8
 72
       5
 11
250.22307092
 21
328.0
 31
0.0
100
AcDbText
  0
TEXT
  5
62C
100
AcDbEntity
  8
17
 62
       7
100
AcDbText
 10
188.30052177
 20
148.0
 30
0.0
 40
12.0
  1
9.5
 41
0.8
 72
       5
 11
217.10052177
 21
148.0
 31
0.0
100
AcDbText
  0
TEXT
  5
62D
100
AcDbEntity
  8
17
 62
       7
100
AcDbText
 10
223.22307092
 20
-110.15902732
 30
0.0
 40
12.0
  1
φ49.2
 50
90.00000154
 41
0.8
 72
       5
 11
223.22306963
 21
-62.15902732
 31
0.0
100
AcDbText
  0
TEXT
  5
62E
100
AcDbEntity
  8
17
 62
       7
100
AcDbText
 10
218.42307092
 20
-28.55902732
 30
0.0
 40
12.0
  1
2.2
 41
0.8
 72
       5
 11
247.22307092
 21
-28.55902732
 31
0.0
100
AcDbText
  0
TEXT
  5
62F
100
AcDbEntity
  8
17
 62
       7
100
AcDbText
 10
107.29356859
 20
-95.75902732
 30
0.0
 40
12.0
  1
16
 50
90.00000154
 41
0.8
 72
       5
 11
107.29356808
 21
-76.55902732
 31
0.0
100
AcDbText
  0
LINE
  5
630
100
AcDbEntity
  8
240
  6
CONTINUOUS
 62
       7
100
AcDbLine
 10
88.73830816
 20
-285.15606112
 30
0.0
 11
93.53830816
 21
-285.15606112
 31
0.0
  0
LINE
  5
631
100
AcDbEntity
  8
240
  6
CONTINUOUS
 62
       7
100
AcDbLine
 10
91.13830816
 20
-287.55606112
 30
0.0
 11
91.13830816
 21
-282.75606112
 31
0.0
  0
CIRCLE
  5
632
100
AcDbEntity
  8
240
  6
CONTINUOUS
 62
       7
100
AcDbCircle
 10
91.13830816
 20
-285.15606112
 30
0.0
 40
3.9
  0
LINE
  5
633
100
AcDbEntity
  8
240
  6
CONTINUOUS
 62
       7
100
AcDbLine
 10
96.53830816
 20
-285.15606112
 30
0.0
 11
101.33830816
 21
-285.15606112
 31
0.0
  0
CIRCLE
  5
634
100
AcDbEntity
  8
240
  6
CONTINUOUS
 62
       7
100
AcDbCircle
 10
98.93830816
 20
-285.15606112
 30
0.0
 40
3.9
  0
LINE
  5
635
100
AcDbEntity
  8
240
  6
CONTINUOUS
 62
       7
100
AcDbLine
 10
88.73830816
 20
-255.15606112
 30
0.0
 11
93.53830816
 21
-255.15606112
 31
0.0
  0
LINE
  5
636
100
AcDbEntity
  8
240
  6
CONTINUOUS
 62
       7
100
AcDbLine
 10
91.13830816
 20
-257.55606112
 30
0.0
 11
91.13830816
 21
-252.75606112
 31
0.0
  0
CIRCLE
  5
637
100
AcDbEntity
  8
240
  6
CONTINUOUS
 62
       7
100
AcDbCircle
 10
91.13830816
 20
-255.15606112
 30
0.0
 40
3.9
  0
LINE
  5
638
100
AcDbEntity
  8
240
  6
CONTINUOUS
 62
       7
100
AcDbLine
 10
88.73830816
 20
-270.15606112
 30
0.0
 11
93.53830816
 21
-270.15606112
 31
0.0
  0
LINE
  5
639
100
AcDbEntity
  8
240
  6
CONTINUOUS
 62
       7
100
AcDbLine
 10
91.13830816
 20
-272.55606112
 30
0.0
 11
91.13830816
 21
-267.75606112
 31
0.0
  0
CIRCLE
  5
63A
100
AcDbEntity
  8
240
  6
CONTINUOUS
 62
       7
100
AcDbCircle
 10
91.13830816
 20
-270.15606112
 30
0.0
 40
3.9
  0
CIRCLE
  5
63B
100
AcDbEntity
  8
240
  6
CONTINUOUS
 62
       7
100
AcDbCircle
 10
98.93830816
 20
-270.15606112
 30
0.0
 40
3.9
  0
LINE
  5
63C
100
AcDbEntity
  8
240
  6
CONTINUOUS
 62
       7
100
AcDbLine
 10
96.53830816
 20
-270.15606112
 30
0.0
 11
101.33830816
 21
-270.15606112
 31
0.0
  0
ENDSEC
  0
SECTION
  2
OBJECTS
  0
DICTIONARY
  5
19
100
AcDbDictionary
  3
ACAD_GROUP
350
1A
  3
ACAD_MLINESTYLE
350
1B
  0
DICTIONARY
  5
1A
102
{ACAD_REACTORS
330
19
102
}
100
AcDbDictionary
  0
DICTIONARY
  5
1B
102
{ACAD_REACTORS
330
19
102
}
100
AcDbDictionary
  3
STANDARD
350
1C
  0
MLINESTYLE
  5
1C
102
{ACAD_REACTORS
330
1B
102
}
100
AcDbMlineStyle
  2
STANDARD
 70
       0
  3

 62
       0
 51
90.0
 52
90.0
 71
       2
 49
0.5
 62
     256
  6
BYLAYER
 49
-0.5
 62
     256
  6
BYLAYER
  0
ENDSEC
  0
EOF
