  0
SECTION
  2
HEADER
  9
$ACADVER
  1
AC1014
  9
$ACADMAINTVER
 70
       0
  9
$DWGCODEPAGE
  3
ANSI_932
  9
$INSBASE
 10
0.0
 20
0.0
 30
0.0
  9
$EXTMIN
 10
-1322.18498475
 20
-1840.0
 30
0.0
  9
$EXTMAX
 10
1318.09249238
 20
1844.0
 30
0.0
  9
$LIMMIN
 10
-420.0
 20
-594.0
  9
$LIMMAX
 10
420.0
 20
594.0
  9
$ORTHOMODE
 70
       0
  9
$REGENMODE
 70
       1
  9
$FILLMODE
 70
       1
  9
$QTEXTMODE
 70
       0
  9
$MIRRTEXT
 70
       1
  9
$DRAGMODE
 70
       2
  9
$LTSCALE
 40
4.0
  9
$OSMODE
 70
       0
  9
$ATTMODE
 70
       1
  9
$TEXTSIZE
 40
0.2
  9
$TRACEWID
 40
0.05
  9
$TEXTSTYLE
  7
STANDARD
  9
$CLAYER
  8
0
  9
$CELTYPE
  6
CONTINUOUS
  9
$CECOLOR
 62
     256
  9
$CELTSCALE
 40
1.0
  9
$DELOBJ
 70
       1
  9
$DISPSILH
 70
       0
  9
$DIMSCALE
 40
1.0
  9
$DIMASZ
 40
8.0
  9
$DIMEXO
 40
0.0625
  9
$DIMDLI
 40
0.38
  9
$DIMRND
 40
0.0
  9
$DIMDLE
 40
0.0
  9
$DIMEXE
 40
0.18
  9
$DIMTP
 40
0.0
  9
$DIMTM
 40
0.0
  9
$DIMTXT
 40
8.0
  9
$DIMCEN
 40
0.09
  9
$DIMTSZ
 40
0.0
  9
$DIMTOL
 70
       0
  9
$DIMLIM
 70
       0
  9
$DIMTIH
 70
       1
  9
$DIMTOH
 70
       1
  9
$DIMSE1
 70
       0
  9
$DIMSE2
 70
       0
  9
$DIMTAD
 70
       0
  9
$DIMZIN
 70
       0
  9
$DIMBLK
  1

  9
$DIMASO
 70
       1
  9
$DIMSHO
 70
       1
  9
$DIMPOST
  1

  9
$DIMAPOST
  1

  9
$DIMALT
 70
       0
  9
$DIMALTD
 70
       2
  9
$DIMALTF
 40
25.4
  9
$DIMLFAC
 40
1.0
  9
$DIMTOFL
 70
       0
  9
$DIMTVP
 40
0.0
  9
$DIMTIX
 70
       0
  9
$DIMSOXD
 70
       0
  9
$DIMSAH
 70
       0
  9
$DIMBLK1
  1

  9
$DIMBLK2
  1

  9
$DIMSTYLE
  2
STANDARD
  9
$DIMCLRD
 70
       0
  9
$DIMCLRE
 70
       0
  9
$DIMCLRT
 70
       0
  9
$DIMTFAC
 40
1.0
  9
$DIMGAP
 40
0.09
  9
$DIMJUST
 70
       0
  9
$DIMSD1
 70
       0
  9
$DIMSD2
 70
       0
  9
$DIMTOLJ
 70
       1
  9
$DIMTZIN
 70
       0
  9
$DIMALTZ
 70
       0
  9
$DIMALTTZ
 70
       0
  9
$DIMFIT
 70
       3
  9
$DIMUPT
 70
       0
  9
$DIMUNIT
 70
       2
  9
$DIMDEC
 70
       4
  9
$DIMTDEC
 70
       4
  9
$DIMALTU
 70
       2
  9
$DIMALTTD
 70
       2
  9
$DIMTXSTY
  7
STANDARD
  9
$DIMAUNIT
 70
       0
  9
$LUNITS
 70
       2
  9
$LUPREC
 70
       4
  9
$SKETCHINC
 40
0.1
  9
$FILLETRAD
 40
0.0
  9
$AUNITS
 70
       0
  9
$AUPREC
 70
       0
  9
$MENU
  1
acad
  9
$ELEVATION
 40
0.0
  9
$PELEVATION
 40
0.0
  9
$THICKNESS
 40
0.0
  9
$LIMCHECK
 70
       0
  9
$BLIPMODE
 70
       1
  9
$CHAMFERA
 40
0.0
  9
$CHAMFERB
 40
0.0
  9
$CHAMFERC
 40
0.0
  9
$CHAMFERD
 40
0.0
  9
$SKPOLY
 70
       0
  9
$TDCREATE
 40
0.000000000
  9
$TDUPDATE
 40
0.000000000
  9
$TDINDWG
 40
0.0000000000
  9
$TDUSRTIMER
 40
0.0000000000
  9
$USRTIMER
 70
       1
  9
$ANGBASE
 50
0.0
  9
$ANGDIR
 70
       0
  9
$PDMODE
 70
       0
  9
$PDSIZE
 40
1.0
  9
$PLINEWID
 40
0.0
  9
$COORDS
 70
       1
  9
$SPLFRAME
 70
       0
  9
$SPLINETYPE
 70
       6
  9
$SPLINESEGS
 70
       8
  9
$ATTDIA
 70
       0
  9
$ATTREQ
 70
       1
  9
$HANDLING
 70
       1
  9
$HANDSEED
  5
485
  9
$SURFTAB1
 70
       6
  9
$SURFTAB2
 70
       6
  9
$SURFTYPE
 70
       6
  9
$SURFU
 70
       6
  9
$SURFV
 70
       6
  9
$UCSNAME
  2

  9
$UCSORG
 10
0.0
 20
0.0
 30
0.0
  9
$UCSXDIR
 10
1.0
 20
0.0
 30
0.0
  9
$UCSYDIR
 10
0.0
 20
1.0
 30
0.0
  9
$PUCSNAME
  2

  9
$PUCSORG
 10
0.0
 20
0.0
 30
0.0
  9
$PUCSXDIR
 10
1.0
 20
0.0
 30
0.0
  9
$PUCSYDIR
 10
0.0
 20
1.0
 30
0.0
  9
$USERI1
 70
       0
  9
$USERI2
 70
       0
  9
$USERI3
 70
       0
  9
$USERI4
 70
       0
  9
$USERI5
 70
       0
  9
$USERR1
 40
0.0
  9
$USERR2
 40
0.0
  9
$USERR3
 40
0.0
  9
$USERR4
 40
0.0
  9
$USERR5
 40
0.0
  9
$WORLDVIEW
 70
       1
  9
$SHADEDGE
 70
       3
  9
$SHADEDIF
 70
      70
  9
$TILEMODE
 70
       1
  9
$MAXACTVP
 70
      16
  9
$PINSBASE
 10
0.0
 20
0.0
 30
0.0
  9
$PLIMCHECK
 70
       0
  9
$PEXTMIN
 10
1.00000000E+20
 20
1.00000000E+20
 30
1.00000000E+20
  9
$PEXTMAX
 10
-1.00000000E+20
 20
-1.00000000E+20
 30
-1.00000000E+20
  9
$PLIMMIN
 10
0.0
 20
0.0
  9
$PLIMMAX
 10
12.0
 20
9.0
  9
$UNITMODE
 70
       0
  9
$VISRETAIN
 70
       0
  9
$PLINEGEN
 70
       1
  9
$PSLTSCALE
 70
       0
  9
$TREEDEPTH
 70
    3020
  9
$PICKSTYLE
 70
       1
  9
$CMLSTYLE
  2
STANDARD
  9
$CMLJUST
 70
       0
  9
$CMLSCALE
 40
1.0
  9
$PROXYGRAPHICS
 70
       0
  9
$MEASUREMENT
 70
       0
  0
ENDSEC
  0
SECTION
  2
CLASSES
  0
CLASS
  1
LWPOLYLINE
  2
AcDbPolyline
  3
"AutoCAD"
 90
        0
280
       0
281
       1
  0
CLASS
  1
IMAGE
  2
AcDbRasterImage
  3
ISM
 90
      127
280
       0
281
       1
  0
CLASS
  1
OLE2FRAME
  2
AcDbOle2Frame
  3
""
 90
        0
280
       0
281
       1
  0
CLASS
  1
HATCH
  2
AcDbHatch
  3
"ACAD_SEDONA"
 90
        0
280
       0
281
       1
  0
CLASS
  1
DICTIONARYVAR
  2
AcDbDictionaryVar
  3
"AutoCAD"
 90
        0
280
       0
281
       0
  0
CLASS
  1
RASTERVARIABLES
  2
AcDbRasterVariables
  3
ISM
 90
        0
280
       0
281
       0
  0
CLASS
  1
IMAGEDEF
  2
AcDbRasterImageDef
  3
ISM
 90
        0
280
       0
281
       0
  0
CLASS
  1
IMAGEDEF_REACTOR
  2
AcDbRasterImageDefReactor
  3
ISM
 90
        1
280
       0
281
       0
  0
CLASS
  1
IDBUFFER
  2
AcDbIdBuffer
  3
"Acad"
 90
        0
280
       0
281
       0
  0
CLASS
  1
SPATIAL_FILTER
  2
AcDbSpatialFilter
  3
"Acad"
 90
        0
280
       0
281
       0
  0
CLASS
  1
XRECORD
  2
AcDbXrecord
  3
"<Built In>"
 90
        0
280
       0
281
       0
  0
CLASS
  1
SORTENTSTABLE
  2
AcDbSortentsTable
  3
"AutoCAD"
 90
        0
280
       0
281
       0
  0
CLASS
  1
LAYER_INDEX
  2
AcDbLayerIndex
  3
"Acad"
 90
        0
280
       0
281
       0
  0
CLASS
  1
SPATIAL_INDEX
  2
AcDbSpatialIndex
  3
"Acad"
 90
        0
280
       0
281
       0
  0
CLASS
  1
OBJECT_PTR
  2
CAseDLPNTableRecord
  3
"ASE-LPNTableRecord"
 90
        1
280
       0
281
       0
  0
CLASS
  1
LAYOUT
  2
AcDbLayout
  3
"AutoCAD 2000"
 90
        0
280
       0
281
       0
  0
CLASS
  1
PLOTSETTINGS
  2
AcDbPlotSettings
  3
"AutoCAD 2000"
 90
        0
280
       0
281
       0
  0
CLASS
  1
ACDBDICTIONARYWDFLT
  2
AcDbDictionaryWithDefault
  3
"AutoCAD 2000"
 90
        0
280
       0
281
       0
  0
CLASS
  1
ACDBPLACEHOLDER
  2
AcDbPlaceHolder
  3
"AutoCAD 2000"
 90
        0
280
       0
281
       0
  0
CLASS
  1
VBA_PROJECT
  2
AcDbVbaProject
  3
"acadvba"
 90
        0
280
       0
281
       0
  0
CLASS
  1
WIPEOUT
  2
AcDbWipeout
  3
WipeOut|AutoCAD Express Tool|expresstools@autodesk.com
 90
      127
280
       0
281
       1
  0
CLASS
  1
WIPEOUTVARIABLES
  2
AcDbWipeoutVariables
  3
WipeOut|AutoCAD Express Tool|expresstools@autodesk.com
 90
        0
280
       0
281
       0
  0
CLASS
  1
RTEXT
  2
RText
  3
RText|AutoCAD Express Tool|expresstools@autodesk.com
 90
        0
280
       0
281
       1
  0
CLASS
  1
ARCALIGNEDTEXT
  2
AcDbArcAlignedText
  3
ATEXT|AutoCAD Express Tool|expresstools@autodesk.com
 90
        0
280
       0
281
       1
  0
ENDSEC
  0
SECTION
  2
TABLES
  0
TABLE
  2
VPORT
  5
7
100
AcDbSymbolTable
 70
       1
  0
VPORT
  5
15
100
AcDbSymbolTableRecord
100
AcDbViewportTableRecord
  2
*ACTIVE
 70
       0
 10
0.0
 20
0.0
 11
1.0
 21
1.0
 12
0.0
 22
0.0
 13
0.0
 23
0.0
 14
1.0
 24
1.0
 15
0.0
 25
0.0
 16
0.0
 26
0.0
 36
1.0
 17
0.0
 27
0.0
 37
0.0
 40
1188.0
 41
0.70707071
 42
50.0
 43
0.0
 44
0.0
 50
0.0
 51
0.0
 71
       0
 72
     100
 73
       1
 74
       1
 75
       0
 76
       0
 77
       0
 78
       0
  0
ENDTAB
  0
TABLE
  2
LTYPE
  5
4
100
AcDbSymbolTable
 70
      30
  0
LTYPE
  5
11
100
AcDbSymbolTableRecord
100
AcDbLinetypeTableRecord
  2
BYBLOCK
 70
      64
  3

 72
      65
 73
       0
 40
0.0
  0
LTYPE
  5
12
100
AcDbSymbolTableRecord
100
AcDbLinetypeTableRecord
  2
BYLAYER
 70
      64
  3

 72
      65
 73
       0
 40
0.0
  0
LTYPE
  5
13
100
AcDbSymbolTableRecord
100
AcDbLinetypeTableRecord
  2
CONTINUOUS
 70
      64
  3
Solid line
 72
      65
 73
       0
 40
0.0
  0
LTYPE
  5
1D
100
AcDbSymbolTableRecord
100
AcDbLinetypeTableRecord
  2
HIDDENX2
 70
      64
  3
CADPAC LINETYPE
 72
      65
 73
       2
 40
6.66666667
 49
5.0
 74
       0
 49
-1.66666667
 74
       0
  0
LTYPE
  5
1E
100
AcDbSymbolTableRecord
100
AcDbLinetypeTableRecord
  2
HIDDEN
 70
      64
  3
CADPAC LINETYPE
 72
      65
 73
       2
 40
5.0
 49
3.33333333
 74
       0
 49
-1.66666667
 74
       0
  0
LTYPE
  5
1F
100
AcDbSymbolTableRecord
100
AcDbLinetypeTableRecord
  2
HIDDEN2
 70
      64
  3
CADPAC LINETYPE
 72
      65
 73
       2
 40
4.16666667
 49
2.5
 74
       0
 49
-1.66666667
 74
       0
  0
LTYPE
  5
20
100
AcDbSymbolTableRecord
100
AcDbLinetypeTableRecord
  2
DASHED
 70
      64
  3
CADPAC LINETYPE
 72
      65
 73
       2
 40
4.66666667
 49
3.33333333
 74
       0
 49
-1.33333333
 74
       0
  0
LTYPE
  5
21
100
AcDbSymbolTableRecord
100
AcDbLinetypeTableRecord
  2
DASHED2
 70
      64
  3
CADPAC LINETYPE
 72
      65
 73
       2
 40
3.0
 49
2.0
 74
       0
 49
-1.0
 74
       0
  0
LTYPE
  5
22
100
AcDbSymbolTableRecord
100
AcDbLinetypeTableRecord
  2
DASHEDX2
 70
      64
  3
CADPAC LINETYPE
 72
      65
 73
       2
 40
8.0
 49
6.66666667
 74
       0
 49
-1.33333333
 74
       0
  0
LTYPE
  5
23
100
AcDbSymbolTableRecord
100
AcDbLinetypeTableRecord
  2
DOTX2
 70
      64
  3
CADPAC LINETYPE
 72
      65
 73
       2
 40
2.91666667
 49
0.0
 74
       0
 49
-2.91666667
 74
       0
  0
LTYPE
  5
24
100
AcDbSymbolTableRecord
100
AcDbLinetypeTableRecord
  2
DOT
 70
      64
  3
CADPAC LINETYPE
 72
      65
 73
       2
 40
2.33333333
 49
0.0
 74
       0
 49
-2.33333333
 74
       0
  0
LTYPE
  5
25
100
AcDbSymbolTableRecord
100
AcDbLinetypeTableRecord
  2
DOT2
 70
      64
  3
CADPAC LINETYPE
 72
      65
 73
       2
 40
1.75
 49
0.0
 74
       0
 49
-1.75
 74
       0
  0
LTYPE
  5
26
100
AcDbSymbolTableRecord
100
AcDbLinetypeTableRecord
  2
CENTERX2
 70
      64
  3
CADPAC LINETYPE
 72
      65
 73
       4
 40
10.0
 49
4.16666667
 74
       0
 49
-2.08333333
 74
       0
 49
1.66666667
 74
       0
 49
-2.08333333
 74
       0
  0
LTYPE
  5
27
100
AcDbSymbolTableRecord
100
AcDbLinetypeTableRecord
  2
CENTER
 70
      64
  3
CADPAC LINETYPE
 72
      65
 73
       4
 40
7.66666667
 49
3.33333333
 74
       0
 49
-1.66666667
 74
       0
 49
1.0
 74
       0
 49
-1.66666667
 74
       0
  0
LTYPE
  5
28
100
AcDbSymbolTableRecord
100
AcDbLinetypeTableRecord
  2
CENTER2
 70
      64
  3
CADPAC LINETYPE
 72
      65
 73
       4
 40
5.33333333
 49
2.5
 74
       0
 49
-1.25
 74
       0
 49
0.33333333
 74
       0
 49
-1.25
 74
       0
  0
LTYPE
  5
29
100
AcDbSymbolTableRecord
100
AcDbLinetypeTableRecord
  2
DASHDOTX2
 70
      64
  3
CADPAC LINETYPE
 72
      65
 73
       4
 40
16.0
 49
8.0
 74
       0
 49
-2.66666667
 74
       0
 49
2.66666667
 74
       0
 49
-2.66666667
 74
       0
  0
LTYPE
  5
2A
100
AcDbSymbolTableRecord
100
AcDbLinetypeTableRecord
  2
DASHDOT
 70
      64
  3
CADPAC LINETYPE
 72
      65
 73
       4
 40
8.0
 49
4.0
 74
       0
 49
-1.33333333
 74
       0
 49
1.33333333
 74
       0
 49
-1.33333333
 74
       0
  0
LTYPE
  5
2B
100
AcDbSymbolTableRecord
100
AcDbLinetypeTableRecord
  2
DASHDOT2
 70
      64
  3
CADPAC LINETYPE
 72
      65
 73
       4
 40
5.13333333
 49
3.0
 74
       0
 49
-1.0
 74
       0
 49
0.13333333
 74
       0
 49
-1.0
 74
       0
  0
LTYPE
  5
2C
100
AcDbSymbolTableRecord
100
AcDbLinetypeTableRecord
  2
DIVIDEX2
 70
      64
  3
CADPAC LINETYPE
 72
      65
 73
       6
 40
21.33333333
 49
8.0
 74
       0
 49
-2.66666667
 74
       0
 49
2.66666667
 74
       0
 49
-2.66666667
 74
       0
 49
2.66666667
 74
       0
 49
-2.66666667
 74
       0
  0
LTYPE
  5
2D
100
AcDbSymbolTableRecord
100
AcDbLinetypeTableRecord
  2
DIVIDE
 70
      64
  3
CADPAC LINETYPE
 72
      65
 73
       6
 40
10.66666667
 49
4.0
 74
       0
 49
-1.33333333
 74
       0
 49
1.33333333
 74
       0
 49
-1.33333333
 74
       0
 49
1.33333333
 74
       0
 49
-1.33333333
 74
       0
  0
LTYPE
  5
2E
100
AcDbSymbolTableRecord
100
AcDbLinetypeTableRecord
  2
DIVIDE2
 70
      64
  3
CADPAC LINETYPE
 72
      65
 73
       6
 40
8.0
 49
3.0
 74
       0
 49
-1.0
 74
       0
 49
1.0
 74
       0
 49
-1.0
 74
       0
 49
1.0
 74
       0
 49
-1.0
 74
       0
  0
LTYPE
  5
2F
100
AcDbSymbolTableRecord
100
AcDbLinetypeTableRecord
  2
BORDERX2
 70
      64
  3
CADPAC LINETYPE
 72
      65
 73
       6
 40
14.58333333
 49
4.16666667
 74
       0
 49
-2.08333333
 74
       0
 49
4.16666667
 74
       0
 49
-2.08333333
 74
       0
 49
0.0
 74
       0
 49
-2.08333333
 74
       0
  0
LTYPE
  5
30
100
AcDbSymbolTableRecord
100
AcDbLinetypeTableRecord
  2
BORDER
 70
      64
  3
CADPAC LINETYPE
 72
      65
 73
       6
 40
11.66666667
 49
3.33333333
 74
       0
 49
-1.66666667
 74
       0
 49
3.33333333
 74
       0
 49
-1.66666667
 74
       0
 49
0.0
 74
       0
 49
-1.66666667
 74
       0
  0
LTYPE
  5
31
100
AcDbSymbolTableRecord
100
AcDbLinetypeTableRecord
  2
BORDER2
 70
      64
  3
CADPAC LINETYPE
 72
      65
 73
       6
 40
8.66666667
 49
2.66666667
 74
       0
 49
-1.66666667
 74
       0
 49
1.0
 74
       0
 49
-1.66666667
 74
       0
 49
0.0
 74
       0
 49
-1.66666667
 74
       0
  0
LTYPE
  5
32
100
AcDbSymbolTableRecord
100
AcDbLinetypeTableRecord
  2
PHANTOMX2
 70
      64
  3
CADPAC LINETYPE
 72
      65
 73
       6
 40
12.5
 49
4.16666667
 74
       0
 49
-1.66666667
 74
       0
 49
1.66666667
 74
       0
 49
-1.66666667
 74
       0
 49
1.66666667
 74
       0
 49
-1.66666667
 74
       0
  0
LTYPE
  5
33
100
AcDbSymbolTableRecord
100
AcDbLinetypeTableRecord
  2
PHANTOM
 70
      64
  3
CADPAC LINETYPE
 72
      65
 73
       6
 40
10.33333333
 49
3.33333333
 74
       0
 49
-1.66666667
 74
       0
 49
1.0
 74
       0
 49
-1.66666667
 74
       0
 49
1.0
 74
       0
 49
-1.66666667
 74
       0
  0
LTYPE
  5
34
100
AcDbSymbolTableRecord
100
AcDbLinetypeTableRecord
  2
PHANTOM2
 70
      64
  3
CADPAC LINETYPE
 72
      65
 73
       6
 40
8.83333333
 49
2.5
 74
       0
 49
-1.66666667
 74
       0
 49
0.66666667
 74
       0
 49
-1.66666667
 74
       0
 49
0.66666667
 74
       0
 49
-1.66666667
 74
       0
  0
LTYPE
  5
35
100
AcDbSymbolTableRecord
100
AcDbLinetypeTableRecord
  2
ACAD_ISO06W100
 70
      64
  3
CADPAC LINETYPE
 72
      65
 73
       8
 40
17.66666667
 49
8.0
 74
       0
 49
-1.66666667
 74
       0
 49
1.0
 74
       0
 49
-1.66666667
 74
       0
 49
1.0
 74
       0
 49
-1.66666667
 74
       0
 49
1.0
 74
       0
 49
-1.66666667
 74
       0
  0
LTYPE
  5
36
100
AcDbSymbolTableRecord
100
AcDbLinetypeTableRecord
  2
ACAD_ISO13W100
 70
      64
  3
CADPAC LINETYPE
 72
      65
 73
       8
 40
13.33333333
 49
3.33333333
 74
       0
 49
-1.66666667
 74
       0
 49
3.33333333
 74
       0
 49
-1.66666667
 74
       0
 49
0.0
 74
       0
 49
-1.66666667
 74
       0
 49
0.0
 74
       0
 49
-1.66666667
 74
       0
  0
LTYPE
  5
37
100
AcDbSymbolTableRecord
100
AcDbLinetypeTableRecord
  2
ACAD_ISO14W100
 70
      64
  3
CADPAC LINETYPE
 72
      65
 73
       8
 40
10.0
 49
3.33333333
 74
       0
 49
-1.66666667
 74
       0
 49
0.0
 74
       0
 49
-1.66666667
 74
       0
 49
0.0
 74
       0
 49
-1.66666667
 74
       0
 49
0.0
 74
       0
 49
-1.66666667
 74
       0
  0
ENDTAB
  0
TABLE
  2
LAYER
  5
2
100
AcDbSymbolTable
 70
       4
  0
LAYER
  5
14
100
AcDbSymbolTableRecord
100
AcDbLayerTableRecord
  2
0
 70
       0
 62
       7
  6
CONTINUOUS
  0
LAYER
  5
38
100
AcDbSymbolTableRecord
100
AcDbLayerTableRecord
  2
LAYER0001
 70
       0
 62
       7
  6
CONTINUOUS
  0
LAYER
  5
39
100
AcDbSymbolTableRecord
100
AcDbLayerTableRecord
  2
LAYER0240
 70
       0
 62
       7
  6
CONTINUOUS
  0
LAYER
  5
3A
100
AcDbSymbolTableRecord
100
AcDbLayerTableRecord
  2
ZUWAKU
 70
       0
 62
       7
  6
CONTINUOUS
  0
ENDTAB
  0
TABLE
  2
STYLE
  5
3
100
AcDbSymbolTable
 70
       2
  0
STYLE
  5
17
100
AcDbSymbolTableRecord
100
AcDbTextStyleTableRecord
  2
STANDARD
 70
       0
 40
13.6
 41
0.8
 50
0.0
 71
       0
 42
13.6
  3
txt.shx
  4
bigfont.shx
  0
STYLE
  5
3B
100
AcDbSymbolTableRecord
100
AcDbTextStyleTableRecord
  2
FDASTYLE1
 70
       4
 40
12.0
 41
0.8
 50
0.0
 71
       0
 42
12.0
  3
txt.shx
  4
bigfont.shx
  0
ENDTAB
  0
TABLE
  2
VIEW
  5
5
100
AcDbSymbolTable
 70
       1
  0
VIEW
  5
3C
100
AcDbSymbolTableRecord
100
AcDbViewTableRecord
  2
QQQQ
 70
       0
 40
1188.0
 10
0.0
 20
0.0
 41
840.0
 11
0.0
 21
0.0
 31
1.0
 12
100.0
 22
100.0
 32
0.0
 42
50.0
 43
0.0
 44
0.0
 50
0.0
 71
       0
  0
ENDTAB
  0
TABLE
  2
UCS
  5
6
100
AcDbSymbolTable
 70
       0
  0
ENDTAB
  0
TABLE
  2
APPID
  5
8
100
AcDbSymbolTable
 70
       1
  0
APPID
  5
16
100
AcDbSymbolTableRecord
100
AcDbRegAppTableRecord
  2
ACAD
 70
       0
  0
ENDTAB
  0
TABLE
  2
DIMSTYLE
  5
9
100
AcDbSymbolTable
 70
       1
  0
DIMSTYLE
105
18
100
AcDbSymbolTableRecord
100
AcDbDimStyleTableRecord
  2
STANDARD
 70
       0
  3

  4

  5

  6

  7

 40
1.0
 41
0.18
 42
0.0625
 43
0.38
 44
0.18
 45
0.0
 46
0.0
 47
0.0
 48
0.0
 71
       0
 72
       0
 73
       1
 74
       1
 75
       0
 76
       0
 77
       0
 78
       0
140
0.18
141
0.09
142
0.0
143
25.4
144
1.0
145
0.0
146
1.0
147
0.09
170
       0
171
       2
172
       0
173
       0
174
       0
175
       0
176
       0
177
       0
178
       0
270
       2
271
       4
272
       4
273
       2
274
       2
275
       0
280
       0
281
       0
282
       0
283
       1
284
       0
285
       0
286
       0
287
       3
288
       0
340
17
  0
ENDTAB
  0
TABLE
  2
BLOCK_RECORD
  5
1
100
AcDbSymbolTable
 70
      13
  0
BLOCK_RECORD
  5
A
100
AcDbSymbolTableRecord
100
AcDbBlockTableRecord
  2
*MODEL_SPACE
  0
BLOCK_RECORD
  5
B
100
AcDbSymbolTableRecord
100
AcDbBlockTableRecord
  2
*PAPER_SPACE
  0
BLOCK_RECORD
  5
3D
100
AcDbSymbolTableRecord
100
AcDbBlockTableRecord
  2
GROUP_1
  0
BLOCK_RECORD
  5
3E
100
AcDbSymbolTableRecord
100
AcDbBlockTableRecord
  2
DA_IMAGEDIMGROUP_1
  0
BLOCK_RECORD
  5
3F
100
AcDbSymbolTableRecord
100
AcDbBlockTableRecord
  2
_OPEN30
  0
BLOCK_RECORD
  5
40
100
AcDbSymbolTableRecord
100
AcDbBlockTableRecord
  2
DA_IMAGEDIMGROUP_2
  0
BLOCK_RECORD
  5
41
100
AcDbSymbolTableRecord
100
AcDbBlockTableRecord
  2
DA_IMAGEDIMGROUP_3
  0
BLOCK_RECORD
  5
42
100
AcDbSymbolTableRecord
100
AcDbBlockTableRecord
  2
DA_IMAGEDIMGROUP_4
  0
BLOCK_RECORD
  5
43
100
AcDbSymbolTableRecord
100
AcDbBlockTableRecord
  2
DA_IMAGEDIMGROUP_5
  0
BLOCK_RECORD
  5
44
100
AcDbSymbolTableRecord
100
AcDbBlockTableRecord
  2
DA_IMAGEDIMGROUP_6
  0
BLOCK_RECORD
  5
45
100
AcDbSymbolTableRecord
100
AcDbBlockTableRecord
  2
DA_IMAGEDIMGROUP_7
  0
BLOCK_RECORD
  5
46
100
AcDbSymbolTableRecord
100
AcDbBlockTableRecord
  2
DA_IMAGEDIMGROUP_8
  0
BLOCK_RECORD
  5
47
100
AcDbSymbolTableRecord
100
AcDbBlockTableRecord
  2
DA_IMAGEDIMGROUP_9
  0
BLOCK_RECORD
  5
48
100
AcDbSymbolTableRecord
100
AcDbBlockTableRecord
  2
DA_IMAGEDIMGROUP_10
  0
BLOCK_RECORD
  5
49
100
AcDbSymbolTableRecord
100
AcDbBlockTableRecord
  2
GROUP_2
  0
ENDTAB
  0
ENDSEC
  0
SECTION
  2
BLOCKS
  0
BLOCK
  5
D
100
AcDbEntity
  8
0
100
AcDbBlockBegin
  2
*MODEL_SPACE
 70
       0
 10
0.0
 20
0.0
 30
0.0
  3
*MODEL_SPACE
  1

  0
ENDBLK
  5
E
100
AcDbEntity
  8
0
100
AcDbBlockEnd
  0
BLOCK
  5
F
100
AcDbEntity
 67
       1
  8
0
100
AcDbBlockBegin
  2
*PAPER_SPACE
 70
       0
 10
0.0
 20
0.0
 30
0.0
  3
*PAPER_SPACE
  1

  0
ENDBLK
  5
10
100
AcDbEntity
 67
       1
  8
0
100
AcDbBlockEnd
  0
BLOCK
  5
4A
100
AcDbEntity
  8
0
100
AcDbBlockBegin
  2
GROUP_1
 70
       0
 10
0.0
 20
0.0
 30
0.0
  3
GROUP_1
  1

  0
LINE
  5
4B
100
AcDbEntity
  8
LAYER0240
  6
CONTINUOUS
 62
       4
100
AcDbLine
 10
120.57360567
 20
-457.48217317
 30
0.0
 11
110.33918744
 21
-457.48217317
 31
0.0
  0
CIRCLE
  5
4C
100
AcDbEntity
  8
LAYER0240
  6
CONTINUOUS
 62
       4
100
AcDbCircle
 10
115.45639655
 20
-457.48217317
 30
0.0
 40
6.70639655
  0
TEXT
  5
4D
100
AcDbEntity
  8
LAYER0240
 62
       4
100
AcDbText
 10
121.55
 20
-465.48217317
 30
0.0
 40
16.0
  1
トラスタッピンネジ
 41
0.6923
 72
       5
 11
236.75
 21
-465.48217317
 31
0.0
100
AcDbText
  0
ENDBLK
  5
4E
100
AcDbEntity
  8
0
100
AcDbBlockEnd
  0
BLOCK
  5
4F
100
AcDbEntity
  8
0
100
AcDbBlockBegin
  2
DA_IMAGEDIMGROUP_1
 70
       0
 10
0.0
 20
0.0
 30
0.0
  3
DA_IMAGEDIMGROUP_1
  1

  0
LINE
  5
50
100
AcDbEntity
  8
0
  6
CONTINUOUS
 62
       9
100
AcDbLine
 10
-244.79489599
 20
-8.90225564
 30
0.0
 11
155.20510699
 21
-8.90225564
 31
0.0
  0
INSERT
  5
51
100
AcDbEntity
  8
0
  6
CONTINUOUS
 62
       9
100
AcDbBlockReference
  2
_OPEN30
 10
-244.79489599
 20
-8.90225564
 30
0.0
 41
12.00001115
 42
11.9999571
 50
180.0
  0
INSERT
  5
52
100
AcDbEntity
  8
0
  6
CONTINUOUS
 62
       9
100
AcDbBlockReference
  2
_OPEN30
 10
155.20510699
 20
-8.90225564
 30
0.0
 41
12.00001115
 42
11.9999571
 50
360.0
  0
LINE
  5
53
100
AcDbEntity
  8
0
  6
CONTINUOUS
 62
       9
100
AcDbLine
 10
-244.79489599
 20
-59.08448172
 30
0.0
 11
-244.79489599
 21
-4.90225564
 31
0.0
  0
LINE
  5
54
100
AcDbEntity
  8
0
  6
CONTINUOUS
 62
       9
100
AcDbLine
 10
155.20510997
 20
-59.08448172
 30
0.0
 11
155.20510675
 21
-4.90225564
 31
0.0
  0
TEXT
  5
55
100
AcDbEntity
  8
0
 62
       7
100
AcDbText
 10
-63.9948945
 20
-4.90225564
 30
0.0
 40
16.0
  1
400
 41
0.8
 72
       5
 11
-25.5948945
 21
-4.90225564
 31
0.0
100
AcDbText
  0
ENDBLK
  5
56
100
AcDbEntity
  8
0
100
AcDbBlockEnd
  0
BLOCK
  5
57
100
AcDbEntity
  8
0
100
AcDbBlockBegin
  2
_OPEN30
 70
       0
 10
0.0
 20
0.0
 30
0.0
  3
_OPEN30
  1

  0
LINE
  5
58
100
AcDbEntity
  8
0
  6
CONTINUOUS
 62
       0
100
AcDbLine
 10
0.0
 20
0.0
 30
0.0
 11
-0.96592583
 21
0.25881905
 31
0.0
  0
LINE
  5
59
100
AcDbEntity
  8
0
  6
CONTINUOUS
 62
       0
100
AcDbLine
 10
0.0
 20
0.0
 30
0.0
 11
-0.96592583
 21
-0.25881905
 31
0.0
  0
LINE
  5
5A
100
AcDbEntity
  8
0
  6
CONTINUOUS
 62
       0
100
AcDbLine
 10
0.0
 20
0.0
 30
0.0
 11
-1.0
 21
0.0
 31
0.0
  0
ENDBLK
  5
5B
100
AcDbEntity
  8
0
100
AcDbBlockEnd
  0
BLOCK
  5
5C
100
AcDbEntity
  8
0
100
AcDbBlockBegin
  2
DA_IMAGEDIMGROUP_2
 70
       0
 10
0.0
 20
0.0
 30
0.0
  3
DA_IMAGEDIMGROUP_2
  1

  0
LINE
  5
5D
100
AcDbEntity
  8
0
  6
CONTINUOUS
 62
       9
100
AcDbLine
 10
-221.79489301
 20
179.38257408
 30
0.0
 11
-221.79489301
 21
228.03921569
 31
0.0
  0
LINE
  5
5E
100
AcDbEntity
  8
0
  6
CONTINUOUS
 62
       9
100
AcDbLine
 10
-44.79489301
 20
205.30755888
 30
0.0
 11
-44.79489301
 21
228.03921569
 31
0.0
  0
LINE
  5
5F
100
AcDbEntity
  8
0
  6
CONTINUOUS
 62
       9
100
AcDbLine
 10
132.20510699
 20
179.38257408
 30
0.0
 11
132.20510699
 21
228.03921569
 31
0.0
  0
LINE
  5
60
100
AcDbEntity
  8
0
  6
CONTINUOUS
 62
       9
100
AcDbLine
 10
-221.79489301
 20
224.03921569
 30
0.0
 11
-44.79489301
 21
224.03921569
 31
0.0
  0
INSERT
  5
61
100
AcDbEntity
  8
0
  6
CONTINUOUS
 62
       9
100
AcDbBlockReference
  2
_OPEN30
 10
-221.79489301
 20
224.03921569
 30
0.0
 41
12.00001115
 42
11.9999571
 50
180.0
  0
INSERT
  5
62
100
AcDbEntity
  8
0
  6
CONTINUOUS
 62
       9
100
AcDbBlockReference
  2
_OPEN30
 10
-44.79489301
 20
224.03921569
 30
0.0
 41
12.00001115
 42
11.9999571
 50
360.0
  0
LINE
  5
63
100
AcDbEntity
  8
0
  6
CONTINUOUS
 62
       9
100
AcDbLine
 10
-44.79489301
 20
224.03921569
 30
0.0
 11
132.20510699
 21
224.03921569
 31
0.0
  0
INSERT
  5
64
100
AcDbEntity
  8
0
  6
CONTINUOUS
 62
       9
100
AcDbBlockReference
  2
_OPEN30
 10
-44.79489301
 20
224.03921569
 30
0.0
 41
12.00001115
 42
11.9999571
 50
180.0
  0
INSERT
  5
65
100
AcDbEntity
  8
0
  6
CONTINUOUS
 62
       9
100
AcDbBlockReference
  2
_OPEN30
 10
132.20510699
 20
224.03921569
 30
0.0
 41
12.00001115
 42
11.9999571
 50
360.0
  0
TEXT
  5
66
100
AcDbEntity
  8
0
 62
       7
100
AcDbText
 10
-152.49489301
 20
228.03921569
 30
0.0
 40
16.0
  1
177
 41
0.8
 72
       5
 11
-114.09489301
 21
228.03921569
 31
0.0
100
AcDbText
  0
TEXT
  5
67
100
AcDbEntity
  8
0
 62
       7
100
AcDbText
 10
24.50510699
 20
228.03921569
 30
0.0
 40
16.0
  1
177
 41
0.8
 72
       5
 11
62.90510699
 21
228.03921569
 31
0.0
100
AcDbText
  0
ENDBLK
  5
68
100
AcDbEntity
  8
0
100
AcDbBlockEnd
  0
BLOCK
  5
69
100
AcDbEntity
  8
0
100
AcDbBlockBegin
  2
DA_IMAGEDIMGROUP_3
 70
       0
 10
0.0
 20
0.0
 30
0.0
  3
DA_IMAGEDIMGROUP_3
  1

  0
LINE
  5
6A
100
AcDbEntity
  8
0
  6
CONTINUOUS
 62
       9
100
AcDbLine
 10
-290.82430966
 20
233.01270075
 30
0.0
 11
-241.49176773
 21
182.24181364
 31
0.0
  0
INSERT
  5
6B
100
AcDbEntity
  8
0
  6
CONTINUOUS
 62
       9
100
AcDbBlockReference
  2
_OPEN30
 10
-241.49176773
 20
182.24181364
 30
0.0
 41
12.00001115
 42
11.9999571
 50
314.17679706
  0
TEXT
  5
6C
100
AcDbEntity
  8
0
 62
       7
100
AcDbText
 10
-285.16803926
 20
232.93142812
 30
0.0
 40
16.0
  1
2-Ｒ1
 50
-45.82320294
 41
0.8
 72
       5
 11
-249.4880536
 21
196.21115275
 31
0.0
100
AcDbText
  0
ENDBLK
  5
6D
100
AcDbEntity
  8
0
100
AcDbBlockEnd
  0
BLOCK
  5
6E
100
AcDbEntity
  8
0
100
AcDbBlockBegin
  2
DA_IMAGEDIMGROUP_4
 70
       0
 10
0.0
 20
0.0
 30
0.0
  3
DA_IMAGEDIMGROUP_4
  1

  0
LINE
  5
6F
100
AcDbEntity
  8
0
  6
CONTINUOUS
 62
       9
100
AcDbLine
 10
130.72511943
 20
162.50976672
 30
0.0
 11
133.68509455
 21
166.53947481
 31
0.0
  0
LINE
  5
70
100
AcDbEntity
  8
0
  6
CONTINUOUS
 62
       9
100
AcDbLine
 10
191.60499051
 20
245.39158105
 30
0.0
 11
133.68509455
 21
166.53947481
 31
0.0
  0
INSERT
  5
71
100
AcDbEntity
  8
0
  6
CONTINUOUS
 62
       9
100
AcDbBlockReference
  2
_OPEN30
 10
133.68509455
 20
166.53947481
 30
0.0
 41
12.00001115
 42
11.9999571
 50
233.70129059
  0
LINE
  5
72
100
AcDbEntity
  8
0
  6
CONTINUOUS
 62
       9
100
AcDbLine
 10
118.88521893
 20
146.39093438
 30
0.0
 11
130.72511943
 21
162.50976672
 31
0.0
  0
INSERT
  5
73
100
AcDbEntity
  8
0
  6
CONTINUOUS
 62
       9
100
AcDbBlockReference
  2
_OPEN30
 10
130.72511943
 20
162.50976672
 30
0.0
 41
12.00001115
 42
11.9999571
 50
53.70129059
  0
TEXT
  5
74
100
AcDbEntity
  8
0
 62
       7
100
AcDbText
 10
155.70309865
 20
203.27158388
 30
0.0
 40
16.0
  1
3-φ5
 50
53.70129059
 41
0.8
 72
       5
 11
186.01324394
 21
244.53579468
 31
0.0
100
AcDbText
  0
ENDBLK
  5
75
100
AcDbEntity
  8
0
100
AcDbBlockEnd
  0
BLOCK
  5
76
100
AcDbEntity
  8
0
100
AcDbBlockBegin
  2
DA_IMAGEDIMGROUP_5
 70
       0
 10
0.0
 20
0.0
 30
0.0
  3
DA_IMAGEDIMGROUP_5
  1

  0
LINE
  5
77
100
AcDbEntity
  8
0
  6
CONTINUOUS
 62
       9
100
AcDbLine
 10
159.20510997
 20
127.52462077
 30
0.0
 11
218.42105263
 21
127.52462077
 31
0.0
  0
LINE
  5
78
100
AcDbEntity
  8
0
  6
CONTINUOUS
 62
       9
100
AcDbLine
 10
159.20510997
 20
157.5246201
 30
0.0
 11
218.42105263
 21
157.5246201
 31
0.0
  0
LINE
  5
79
100
AcDbEntity
  8
0
  6
CONTINUOUS
 62
       9
100
AcDbLine
 10
214.42105263
 20
127.52462077
 30
0.0
 11
214.42105263
 21
157.5246201
 31
0.0
  0
INSERT
  5
7A
100
AcDbEntity
  8
0
  6
CONTINUOUS
 62
       9
100
AcDbBlockReference
  2
_OPEN30
 10
214.42105263
 20
127.52462077
 30
0.0
 41
12.00001115
 42
11.9999571
 50
270.0
  0
INSERT
  5
7B
100
AcDbEntity
  8
0
  6
CONTINUOUS
 62
       9
100
AcDbBlockReference
  2
_OPEN30
 10
214.42105263
 20
157.5246201
 30
0.0
 41
12.00001115
 42
11.9999571
 50
90.0
  0
TEXT
  5
7C
100
AcDbEntity
  8
0
 62
       7
100
AcDbText
 10
210.42105263
 20
129.72462043
 30
0.0
 40
16.0
  1
30
 50
90.0
 41
0.8
 72
       5
 11
210.42105263
 21
155.32462043
 31
0.0
100
AcDbText
  0
ENDBLK
  5
7D
100
AcDbEntity
  8
0
100
AcDbBlockEnd
  0
BLOCK
  5
7E
100
AcDbEntity
  8
0
100
AcDbBlockBegin
  2
DA_IMAGEDIMGROUP_6
 70
       0
 10
0.0
 20
0.0
 30
0.0
  3
DA_IMAGEDIMGROUP_6
  1

  0
LINE
  5
7F
100
AcDbEntity
  8
0
  6
CONTINUOUS
 62
       9
100
AcDbLine
 10
145.81453634
 20
164.52462077
 30
0.0
 11
254.04511278
 21
164.52462077
 31
0.0
  0
LINE
  5
80
100
AcDbEntity
  8
0
  6
CONTINUOUS
 62
       9
100
AcDbLine
 10
159.20510997
 20
127.52462077
 30
0.0
 11
254.04511278
 21
127.52462077
 31
0.0
  0
LINE
  5
81
100
AcDbEntity
  8
0
  6
CONTINUOUS
 62
       9
100
AcDbLine
 10
250.04511278
 20
127.52462077
 30
0.0
 11
250.04511278
 21
164.52462077
 31
0.0
  0
INSERT
  5
82
100
AcDbEntity
  8
0
  6
CONTINUOUS
 62
       9
100
AcDbBlockReference
  2
_OPEN30
 10
250.04511278
 20
127.52462077
 30
0.0
 41
12.00001115
 42
11.9999571
 50
270.0
  0
INSERT
  5
83
100
AcDbEntity
  8
0
  6
CONTINUOUS
 62
       9
100
AcDbBlockReference
  2
_OPEN30
 10
250.04511278
 20
164.52462077
 30
0.0
 41
12.00001115
 42
11.9999571
 50
90.0
  0
TEXT
  5
84
100
AcDbEntity
  8
0
 62
       7
100
AcDbText
 10
246.04511278
 20
133.22462077
 30
0.0
 40
16.0
  1
37
 50
90.0
 41
0.8
 72
       5
 11
246.04511278
 21
158.82462077
 31
0.0
100
AcDbText
  0
ENDBLK
  5
85
100
AcDbEntity
  8
0
100
AcDbBlockEnd
  0
BLOCK
  5
86
100
AcDbEntity
  8
0
100
AcDbBlockBegin
  2
DA_IMAGEDIMGROUP_7
 70
       0
 10
0.0
 20
0.0
 30
0.0
  3
DA_IMAGEDIMGROUP_7
  1

  0
LINE
  5
87
100
AcDbEntity
  8
0
  6
CONTINUOUS
 62
       9
100
AcDbLine
 10
155.20510699
 20
182.52462077
 30
0.0
 11
291.21804511
 21
182.52462077
 31
0.0
  0
LINE
  5
88
100
AcDbEntity
  8
0
  6
CONTINUOUS
 62
       9
100
AcDbLine
 10
159.20510997
 20
127.52462077
 30
0.0
 11
291.21804511
 21
127.52462077
 31
0.0
  0
LINE
  5
89
100
AcDbEntity
  8
0
  6
CONTINUOUS
 62
       9
100
AcDbLine
 10
287.21804511
 20
127.52462077
 30
0.0
 11
287.21804511
 21
182.52462077
 31
0.0
  0
INSERT
  5
8A
100
AcDbEntity
  8
0
  6
CONTINUOUS
 62
       9
100
AcDbBlockReference
  2
_OPEN30
 10
287.21804511
 20
127.52462077
 30
0.0
 41
12.00001115
 42
11.9999571
 50
270.0
  0
INSERT
  5
8B
100
AcDbEntity
  8
0
  6
CONTINUOUS
 62
       9
100
AcDbBlockReference
  2
_OPEN30
 10
287.21804511
 20
182.52462077
 30
0.0
 41
12.00001115
 42
11.9999571
 50
90.0
  0
TEXT
  5
8C
100
AcDbEntity
  8
0
 62
       7
100
AcDbText
 10
283.21804511
 20
142.22462077
 30
0.0
 40
16.0
  1
55
 50
90.0
 41
0.8
 72
       5
 11
283.21804511
 21
167.82462077
 31
0.0
100
AcDbText
  0
ENDBLK
  5
8D
100
AcDbEntity
  8
0
100
AcDbBlockEnd
  0
BLOCK
  5
8E
100
AcDbEntity
  8
0
100
AcDbBlockBegin
  2
DA_IMAGEDIMGROUP_8
 70
       0
 10
0.0
 20
0.0
 30
0.0
  3
DA_IMAGEDIMGROUP_8
  1

  0
LINE
  5
8F
100
AcDbEntity
  8
0
  6
CONTINUOUS
 62
       9
100
AcDbLine
 10
155.20510997
 20
-59.08448172
 30
0.0
 11
155.20510699
 21
-30.58646617
 31
0.0
  0
LINE
  5
90
100
AcDbEntity
  8
0
  6
CONTINUOUS
 62
       9
100
AcDbLine
 10
152.20510699
 20
-129.08448321
 30
0.0
 11
152.20510699
 21
-30.58646617
 31
0.0
  0
LINE
  5
91
100
AcDbEntity
  8
0
  6
CONTINUOUS
 62
       9
100
AcDbLine
 10
152.20510699
 20
-34.58646617
 30
0.0
 11
155.20510699
 21
-34.58646617
 31
0.0
  0
LINE
  5
92
100
AcDbEntity
  8
0
  6
CONTINUOUS
 62
       9
100
AcDbLine
 10
187.59622699
 20
-34.58646617
 30
0.0
 11
155.20510699
 21
-34.58646617
 31
0.0
  0
INSERT
  5
93
100
AcDbEntity
  8
0
  6
CONTINUOUS
 62
       9
100
AcDbBlockReference
  2
_OPEN30
 10
155.20510699
 20
-34.58646617
 30
0.0
 41
12.00001115
 42
11.9999571
 50
180.0
  0
LINE
  5
94
100
AcDbEntity
  8
0
  6
CONTINUOUS
 62
       9
100
AcDbLine
 10
132.20510699
 20
-34.58646617
 30
0.0
 11
152.20510699
 21
-34.58646617
 31
0.0
  0
INSERT
  5
95
100
AcDbEntity
  8
0
  6
CONTINUOUS
 62
       9
100
AcDbBlockReference
  2
_OPEN30
 10
152.20510699
 20
-34.58646617
 30
0.0
 41
12.00001115
 42
11.9999571
 50
360.0
  0
TEXT
  5
96
100
AcDbEntity
  8
0
 62
       7
100
AcDbText
 10
170.79622699
 20
-30.58646617
 30
0.0
 40
16.0
  1
3
 41
0.8
 72
       5
 11
183.59622699
 21
-30.58646617
 31
0.0
100
AcDbText
  0
ENDBLK
  5
97
100
AcDbEntity
  8
0
100
AcDbBlockEnd
  0
BLOCK
  5
98
100
AcDbEntity
  8
0
100
AcDbBlockBegin
  2
DA_IMAGEDIMGROUP_9
 70
       0
 10
0.0
 20
0.0
 30
0.0
  3
DA_IMAGEDIMGROUP_9
  1

  0
LINE
  5
99
100
AcDbEntity
  8
0
  6
CONTINUOUS
 62
       9
100
AcDbLine
 10
214.42105263
 20
-65.08448205
 30
0.0
 11
214.42105263
 21
-63.08448172
 31
0.0
  0
LINE
  5
9A
100
AcDbEntity
  8
0
  6
CONTINUOUS
 62
       9
100
AcDbLine
 10
156.20510389
 20
-65.08448205
 30
0.0
 11
218.42105263
 21
-65.08448205
 31
0.0
  0
LINE
  5
9B
100
AcDbEntity
  8
0
  6
CONTINUOUS
 62
       9
100
AcDbLine
 10
156.20510389
 20
-63.08448172
 30
0.0
 11
218.42105263
 21
-63.08448172
 31
0.0
  0
LINE
  5
9C
100
AcDbEntity
  8
0
  6
CONTINUOUS
 62
       9
100
AcDbLine
 10
214.42105263
 20
-97.47560205
 30
0.0
 11
214.42105263
 21
-65.08448205
 31
0.0
  0
INSERT
  5
9D
100
AcDbEntity
  8
0
  6
CONTINUOUS
 62
       9
100
AcDbBlockReference
  2
_OPEN30
 10
214.42105263
 20
-65.08448205
 30
0.0
 41
12.00001115
 42
11.9999571
 50
90.0
  0
LINE
  5
9E
100
AcDbEntity
  8
0
  6
CONTINUOUS
 62
       9
100
AcDbLine
 10
214.42105263
 20
-43.08448172
 30
0.0
 11
214.42105263
 21
-63.08448172
 31
0.0
  0
INSERT
  5
9F
100
AcDbEntity
  8
0
  6
CONTINUOUS
 62
       9
100
AcDbBlockReference
  2
_OPEN30
 10
214.42105263
 20
-63.08448172
 30
0.0
 41
12.00001115
 42
11.9999571
 50
270.0
  0
TEXT
  5
A0
100
AcDbEntity
  8
0
 62
       7
100
AcDbText
 10
210.42105263
 20
-93.47560205
 30
0.0
 40
16.0
  1
2
 50
90.0
 41
0.8
 72
       5
 11
210.42105263
 21
-80.67560205
 31
0.0
100
AcDbText
  0
ENDBLK
  5
A1
100
AcDbEntity
  8
0
100
AcDbBlockEnd
  0
BLOCK
  5
A2
100
AcDbEntity
  8
0
100
AcDbBlockBegin
  2
DA_IMAGEDIMGROUP_10
 70
       0
 10
0.0
 20
0.0
 30
0.0
  3
DA_IMAGEDIMGROUP_10
  1

  0
LINE
  5
A3
100
AcDbEntity
  8
0
  6
CONTINUOUS
 62
       9
100
AcDbLine
 10
250.04511278
 20
-138.08448321
 30
0.0
 11
250.04511278
 21
-63.08448172
 31
0.0
  0
INSERT
  5
A4
100
AcDbEntity
  8
0
  6
CONTINUOUS
 62
       9
100
AcDbBlockReference
  2
_OPEN30
 10
250.04511278
 20
-138.08448321
 30
0.0
 41
12.00001115
 42
11.9999571
 50
270.0
  0
INSERT
  5
A5
100
AcDbEntity
  8
0
  6
CONTINUOUS
 62
       9
100
AcDbBlockReference
  2
_OPEN30
 10
250.04511278
 20
-63.08448172
 30
0.0
 41
12.00001115
 42
11.9999571
 50
90.0
  0
LINE
  5
A6
100
AcDbEntity
  8
0
  6
CONTINUOUS
 62
       9
100
AcDbLine
 10
155.20510699
 20
-138.08448321
 30
0.0
 11
254.04511278
 21
-138.08448321
 31
0.0
  0
LINE
  5
A7
100
AcDbEntity
  8
0
  6
CONTINUOUS
 62
       9
100
AcDbLine
 10
159.20510997
 20
-63.08448172
 30
0.0
 11
254.04511278
 21
-63.08448172
 31
0.0
  0
TEXT
  5
A8
100
AcDbEntity
  8
0
 62
       7
100
AcDbText
 10
246.04511278
 20
-113.38448247
 30
0.0
 40
16.0
  1
75
 50
90.0
 41
0.8
 72
       5
 11
246.04511278
 21
-87.78448247
 31
0.0
100
AcDbText
  0
ENDBLK
  5
A9
100
AcDbEntity
  8
0
100
AcDbBlockEnd
  0
BLOCK
  5
AA
100
AcDbEntity
  8
0
100
AcDbBlockBegin
  2
GROUP_2
 70
       0
 10
0.0
 20
0.0
 30
0.0
  3
GROUP_2
  1

  0
LINE
  5
AB
100
AcDbEntity
  8
LAYER0001
  6
CONTINUOUS
 62
       9
100
AcDbLine
 10
127.10776942
 20
127.54548135
 30
0.0
 11
175.88638178
 21
64.73903276
 31
0.0
  0
INSERT
  5
AC
100
AcDbEntity
  8
LAYER0001
  6
CONTINUOUS
 62
       9
100
AcDbBlockReference
  2
_OPEN30
 10
127.10776942
 20
127.54548135
 30
0.0
 41
12.00001115
 42
11.9999571
 50
127.83469127
  0
CIRCLE
  5
AD
100
AcDbEntity
  8
LAYER0001
  6
CONTINUOUS
 62
       9
100
AcDbCircle
 10
186.9273183
 20
50.52292496
 30
0.0
 40
18.0
  0
TEXT
  5
AE
100
AcDbEntity
  8
LAYER0001
 62
       4
100
AcDbText
 10
180.5273183
 20
42.52292496
 30
0.0
 40
16.0
  1
1
 41
0.8
 72
       5
 11
193.3273183
 21
42.52292496
 31
0.0
100
AcDbText
  0
ENDBLK
  5
AF
100
AcDbEntity
  8
0
100
AcDbBlockEnd
  0
ENDSEC
  0
SECTION
  2
ENTITIES
  0
LINE
  5
B0
100
AcDbEntity
  8
ZUWAKU
  6
CONTINUOUS
 62
      32
100
AcDbLine
 10
-228.55
 20
-552.23217317
 30
0.0
 11
-226.3
 21
-545.98217317
 31
0.0
  0
LINE
  5
B1
100
AcDbEntity
  8
ZUWAKU
  6
CONTINUOUS
 62
      32
100
AcDbLine
 10
-245.2
 20
-552.23217317
 30
0.0
 11
-241.7
 21
-542.73217317
 31
0.0
  0
LINE
  5
B2
100
AcDbEntity
  8
ZUWAKU
  6
CONTINUOUS
 62
      32
100
AcDbLine
 10
-248.45
 20
-539.23217317
 30
0.0
 11
-249.7
 21
-542.73217317
 31
0.0
  0
LINE
  5
B3
100
AcDbEntity
  8
ZUWAKU
  6
CONTINUOUS
 62
      32
100
AcDbLine
 10
-236.95
 20
-552.23217317
 30
0.0
 11
-233.2
 21
-541.23217317
 31
0.0
  0
LINE
  5
B4
100
AcDbEntity
  8
ZUWAKU
  6
CONTINUOUS
 62
      32
100
AcDbLine
 10
-184.5
 20
-552.23217317
 30
0.0
 11
-188.75
 21
-545.23217317
 31
0.0
  0
LINE
  5
B5
100
AcDbEntity
  8
ZUWAKU
  6
CONTINUOUS
 62
      32
100
AcDbLine
 10
-248.45
 20
-539.23217317
 30
0.0
 11
-243.7
 21
-539.23217317
 31
0.0
  0
LINE
  5
B6
100
AcDbEntity
  8
ZUWAKU
  6
CONTINUOUS
 62
      32
100
AcDbLine
 10
-223.05
 20
-536.98217317
 30
0.0
 11
-214.8
 21
-536.98217317
 31
0.0
  0
LINE
  5
B7
100
AcDbEntity
  8
ZUWAKU
  6
CONTINUOUS
 62
      32
100
AcDbLine
 10
-205.3
 20
-536.23217317
 30
0.0
 11
-202.8
 21
-536.23217317
 31
0.0
  0
LINE
  5
B8
100
AcDbEntity
  8
ZUWAKU
  6
CONTINUOUS
 62
      32
100
AcDbLine
 10
-221.3
 20
-532.48217317
 30
0.0
 11
-223.05
 21
-536.98217317
 31
0.0
  0
LINE
  5
B9
100
AcDbEntity
  8
ZUWAKU
  6
CONTINUOUS
 62
      32
100
AcDbLine
 10
-213.3
 20
-532.48217317
 30
0.0
 11
-214.8
 21
-536.98217317
 31
0.0
  0
LINE
  5
BA
100
AcDbEntity
  8
ZUWAKU
  6
CONTINUOUS
 62
      32
100
AcDbLine
 10
-245.2
 20
-552.23217317
 30
0.0
 11
-236.95
 21
-552.23217317
 31
0.0
  0
LINE
  5
BB
100
AcDbEntity
  8
ZUWAKU
  6
CONTINUOUS
 62
      32
100
AcDbLine
 10
-232.45
 20
-532.48217317
 30
0.0
 11
-223.2
 21
-532.48217317
 31
0.0
  0
LINE
  5
BC
100
AcDbEntity
  8
ZUWAKU
  6
CONTINUOUS
 62
      32
100
AcDbLine
 10
-191.67029744
 20
-536.98217317
 30
0.0
 11
-200.5
 21
-536.98217317
 31
0.0
  0
LINE
  5
BD
100
AcDbEntity
  8
ZUWAKU
  6
CONTINUOUS
 62
      32
100
AcDbLine
 10
-182.0
 20
-532.48217317
 30
0.0
 11
-199.0
 21
-532.48217317
 31
0.0
  0
LINE
  5
BE
100
AcDbEntity
  8
ZUWAKU
  6
CONTINUOUS
 62
      32
100
AcDbLine
 10
-249.7
 20
-542.73217317
 30
0.0
 11
-241.7
 21
-542.73217317
 31
0.0
  0
LINE
  5
BF
100
AcDbEntity
  8
ZUWAKU
  6
CONTINUOUS
 62
      32
100
AcDbLine
 10
-228.55
 20
-552.23217317
 30
0.0
 11
-215.3
 21
-552.23217317
 31
0.0
  0
LINE
  5
C0
100
AcDbEntity
  8
ZUWAKU
  6
CONTINUOUS
 62
      32
100
AcDbLine
 10
-226.3
 20
-545.98217317
 30
0.0
 11
-214.3
 21
-545.98217317
 31
0.0
  0
LINE
  5
C1
100
AcDbEntity
  8
ZUWAKU
  6
CONTINUOUS
 62
      32
100
AcDbLine
 10
-184.5
 20
-552.23217317
 30
0.0
 11
-190.75
 21
-552.23217317
 31
0.0
  0
LINE
  5
C2
100
AcDbEntity
  8
ZUWAKU
  6
CONTINUOUS
 62
      32
100
AcDbLine
 10
-200.5
 20
-536.98217317
 30
0.0
 11
-199.0
 21
-532.48217317
 31
0.0
  0
LINE
  5
C3
100
AcDbEntity
  8
ZUWAKU
  6
CONTINUOUS
 62
      32
100
AcDbLine
 10
-287.45
 20
-532.48217317
 30
0.0
 11
-291.7
 21
-544.48217317
 31
0.0
  0
LINE
  5
C4
100
AcDbEntity
  8
ZUWAKU
  6
CONTINUOUS
 62
      32
100
AcDbLine
 10
-291.7
 20
-544.48217317
 30
0.0
 11
-285.95
 21
-544.48217317
 31
0.0
  0
LINE
  5
C5
100
AcDbEntity
  8
ZUWAKU
  6
CONTINUOUS
 62
      32
100
AcDbLine
 10
-285.95
 20
-544.48217317
 30
0.0
 11
-281.45
 21
-532.48217317
 31
0.0
  0
LINE
  5
C6
100
AcDbEntity
  8
ZUWAKU
  6
CONTINUOUS
 62
      32
100
AcDbLine
 10
-281.45
 20
-532.48217317
 30
0.0
 11
-287.45
 21
-532.48217317
 31
0.0
  0
LINE
  5
C7
100
AcDbEntity
  8
ZUWAKU
  6
CONTINUOUS
 62
      32
100
AcDbLine
 10
-211.3
 20
-544.48217317
 30
0.0
 11
-208.55
 21
-542.23217317
 31
0.0
  0
LINE
  5
C8
100
AcDbEntity
  8
ZUWAKU
  6
CONTINUOUS
 62
      32
100
AcDbLine
 10
-208.55
 20
-542.23217317
 30
0.0
 11
-206.55
 21
-539.48217317
 31
0.0
  0
LINE
  5
C9
100
AcDbEntity
  8
ZUWAKU
  6
CONTINUOUS
 62
      32
100
AcDbLine
 10
-206.55
 20
-539.48217317
 30
0.0
 11
-205.3
 21
-536.23217317
 31
0.0
  0
LINE
  5
CA
100
AcDbEntity
  8
ZUWAKU
  6
CONTINUOUS
 62
      32
100
AcDbLine
 10
-266.9
 20
-532.48217317
 30
0.0
 11
-248.65
 21
-532.48217317
 31
0.0
  0
LINE
  5
CB
100
AcDbEntity
  8
ZUWAKU
  6
CONTINUOUS
 62
      32
100
AcDbLine
 10
-248.65
 20
-532.48217317
 30
0.0
 11
-250.15
 21
-536.98217317
 31
0.0
  0
LINE
  5
CC
100
AcDbEntity
  8
ZUWAKU
  6
CONTINUOUS
 62
      32
100
AcDbLine
 10
-248.65
 20
-532.48217317
 30
0.0
 11
-250.15
 21
-536.98217317
 31
0.0
  0
LINE
  5
CD
100
AcDbEntity
  8
ZUWAKU
  6
CONTINUOUS
 62
      32
100
AcDbLine
 10
-250.15
 20
-536.98217317
 30
0.0
 11
-268.4
 21
-536.98217317
 31
0.0
  0
LINE
  5
CE
100
AcDbEntity
  8
ZUWAKU
  6
CONTINUOUS
 62
      32
100
AcDbLine
 10
-268.4
 20
-536.98217317
 30
0.0
 11
-266.9
 21
-532.48217317
 31
0.0
  0
LINE
  5
CF
100
AcDbEntity
  8
ZUWAKU
  6
CONTINUOUS
 62
      32
100
AcDbLine
 10
-268.4
 20
-536.98217317
 30
0.0
 11
-266.9
 21
-532.48217317
 31
0.0
  0
LINE
  5
D0
100
AcDbEntity
  8
ZUWAKU
  6
CONTINUOUS
 62
      32
100
AcDbLine
 10
-248.65
 20
-532.48217317
 30
0.0
 11
-266.9
 21
-532.48217317
 31
0.0
  0
LINE
  5
D1
100
AcDbEntity
  8
ZUWAKU
  6
CONTINUOUS
 62
      32
100
AcDbLine
 10
-266.9
 20
-532.48217317
 30
0.0
 11
-268.4
 21
-536.98217317
 31
0.0
  0
LINE
  5
D2
100
AcDbEntity
  8
ZUWAKU
  6
CONTINUOUS
 62
      32
100
AcDbLine
 10
-268.4
 20
-536.98217317
 30
0.0
 11
-250.15
 21
-536.98217317
 31
0.0
  0
LINE
  5
D3
100
AcDbEntity
  8
ZUWAKU
  6
CONTINUOUS
 62
      32
100
AcDbLine
 10
-259.15
 20
-551.73217317
 30
0.0
 11
-257.15
 21
-550.73217317
 31
0.0
  0
LINE
  5
D4
100
AcDbEntity
  8
ZUWAKU
  6
CONTINUOUS
 62
      32
100
AcDbLine
 10
-257.15
 20
-550.73217317
 30
0.0
 11
-255.65
 21
-549.23217317
 31
0.0
  0
LINE
  5
D5
100
AcDbEntity
  8
ZUWAKU
  6
CONTINUOUS
 62
      32
100
AcDbLine
 10
-255.65
 20
-549.23217317
 30
0.0
 11
-253.9
 21
-547.48217317
 31
0.0
  0
LINE
  5
D6
100
AcDbEntity
  8
ZUWAKU
  6
CONTINUOUS
 62
      32
100
AcDbLine
 10
-253.9
 20
-547.48217317
 30
0.0
 11
-250.9
 21
-539.23217317
 31
0.0
  0
LINE
  5
D7
100
AcDbEntity
  8
ZUWAKU
  6
CONTINUOUS
 62
      32
100
AcDbLine
 10
-250.9
 20
-539.23217317
 30
0.0
 11
-268.9
 21
-539.23217317
 31
0.0
  0
LINE
  5
D8
100
AcDbEntity
  8
ZUWAKU
  6
CONTINUOUS
 62
      32
100
AcDbLine
 10
-268.9
 20
-539.23217317
 30
0.0
 11
-269.9
 21
-542.73217317
 31
0.0
  0
LINE
  5
D9
100
AcDbEntity
  8
ZUWAKU
  6
CONTINUOUS
 62
      32
100
AcDbLine
 10
-269.9
 20
-542.73217317
 30
0.0
 11
-259.4
 21
-542.73217317
 31
0.0
  0
LINE
  5
DA
100
AcDbEntity
  8
ZUWAKU
  6
CONTINUOUS
 62
      32
100
AcDbLine
 10
-259.4
 20
-542.73217317
 30
0.0
 11
-259.9
 21
-544.48217317
 31
0.0
  0
LINE
  5
DB
100
AcDbEntity
  8
ZUWAKU
  6
CONTINUOUS
 62
      32
100
AcDbLine
 10
-259.9
 20
-544.48217317
 30
0.0
 11
-261.15
 21
-545.98217317
 31
0.0
  0
LINE
  5
DC
100
AcDbEntity
  8
ZUWAKU
  6
CONTINUOUS
 62
      32
100
AcDbLine
 10
-261.15
 20
-545.98217317
 30
0.0
 11
-262.4
 21
-547.23217317
 31
0.0
  0
LINE
  5
DD
100
AcDbEntity
  8
ZUWAKU
  6
CONTINUOUS
 62
      32
100
AcDbLine
 10
-262.4
 20
-547.23217317
 30
0.0
 11
-264.15
 21
-548.48217317
 31
0.0
  0
LINE
  5
DE
100
AcDbEntity
  8
ZUWAKU
  6
CONTINUOUS
 62
      32
100
AcDbLine
 10
-264.15
 20
-548.48217317
 30
0.0
 11
-272.4
 21
-548.48217317
 31
0.0
  0
LINE
  5
DF
100
AcDbEntity
  8
ZUWAKU
  6
CONTINUOUS
 62
      32
100
AcDbLine
 10
-272.4
 20
-548.48217317
 30
0.0
 11
-273.9
 21
-552.23217317
 31
0.0
  0
LINE
  5
E0
100
AcDbEntity
  8
ZUWAKU
  6
CONTINUOUS
 62
      32
100
AcDbLine
 10
-289.95
 20
-552.23217317
 30
0.0
 11
-288.7
 21
-548.48217317
 31
0.0
  0
LINE
  5
E1
100
AcDbEntity
  8
ZUWAKU
  6
CONTINUOUS
 62
      32
100
AcDbLine
 10
-288.7
 20
-548.48217317
 30
0.0
 11
-286.45
 21
-548.48217317
 31
0.0
  0
LINE
  5
E2
100
AcDbEntity
  8
ZUWAKU
  6
CONTINUOUS
 62
      32
100
AcDbLine
 10
-286.45
 20
-548.48217317
 30
0.0
 11
-284.45
 21
-548.23217317
 31
0.0
  0
LINE
  5
E3
100
AcDbEntity
  8
ZUWAKU
  6
CONTINUOUS
 62
      32
100
AcDbLine
 10
-284.45
 20
-548.23217317
 30
0.0
 11
-282.45
 21
-547.23217317
 31
0.0
  0
LINE
  5
E4
100
AcDbEntity
  8
ZUWAKU
  6
CONTINUOUS
 62
      32
100
AcDbLine
 10
-282.45
 20
-547.23217317
 30
0.0
 11
-281.2
 21
-545.23217317
 31
0.0
  0
LINE
  5
E5
100
AcDbEntity
  8
ZUWAKU
  6
CONTINUOUS
 62
      32
100
AcDbLine
 10
-281.2
 20
-545.23217317
 30
0.0
 11
-276.45
 21
-532.48217317
 31
0.0
  0
LINE
  5
E6
100
AcDbEntity
  8
ZUWAKU
  6
CONTINUOUS
 62
      32
100
AcDbLine
 10
-276.45
 20
-532.48217317
 30
0.0
 11
-269.7
 21
-532.48217317
 31
0.0
  0
LINE
  5
E7
100
AcDbEntity
  8
ZUWAKU
  6
CONTINUOUS
 62
      32
100
AcDbLine
 10
-269.7
 20
-532.48217317
 30
0.0
 11
-274.7
 21
-547.23217317
 31
0.0
  0
LINE
  5
E8
100
AcDbEntity
  8
ZUWAKU
  6
CONTINUOUS
 62
      32
100
AcDbLine
 10
-274.7
 20
-547.23217317
 30
0.0
 11
-276.7
 21
-549.23217317
 31
0.0
  0
LINE
  5
E9
100
AcDbEntity
  8
ZUWAKU
  6
CONTINUOUS
 62
      32
100
AcDbLine
 10
-276.7
 20
-549.23217317
 30
0.0
 11
-278.7
 21
-550.98217317
 31
0.0
  0
LINE
  5
EA
100
AcDbEntity
  8
ZUWAKU
  6
CONTINUOUS
 62
      32
100
AcDbLine
 10
-278.7
 20
-550.98217317
 30
0.0
 11
-281.2
 21
-551.98217317
 31
0.0
  0
LINE
  5
EB
100
AcDbEntity
  8
ZUWAKU
  6
CONTINUOUS
 62
      32
100
AcDbLine
 10
-223.2
 20
-532.48217317
 30
0.0
 11
-224.7
 21
-535.73217317
 31
0.0
  0
LINE
  5
EC
100
AcDbEntity
  8
ZUWAKU
  6
CONTINUOUS
 62
      32
100
AcDbLine
 10
-224.7
 20
-535.73217317
 30
0.0
 11
-227.2
 21
-538.23217317
 31
0.0
  0
LINE
  5
ED
100
AcDbEntity
  8
ZUWAKU
  6
CONTINUOUS
 62
      32
100
AcDbLine
 10
-224.7
 20
-535.73217317
 30
0.0
 11
-227.2
 21
-538.23217317
 31
0.0
  0
LINE
  5
EE
100
AcDbEntity
  8
ZUWAKU
  6
CONTINUOUS
 62
      32
100
AcDbLine
 10
-227.2
 20
-538.23217317
 30
0.0
 11
-229.95
 21
-540.23217317
 31
0.0
  0
LINE
  5
EF
100
AcDbEntity
  8
ZUWAKU
  6
CONTINUOUS
 62
      32
100
AcDbLine
 10
-229.95
 20
-540.23217317
 30
0.0
 11
-233.2
 21
-541.23217317
 31
0.0
  0
LINE
  5
F0
100
AcDbEntity
  8
ZUWAKU
  6
CONTINUOUS
 62
      32
100
AcDbLine
 10
-229.95
 20
-540.23217317
 30
0.0
 11
-233.2
 21
-541.23217317
 31
0.0
  0
LINE
  5
F1
100
AcDbEntity
  8
ZUWAKU
  6
CONTINUOUS
 62
      32
100
AcDbLine
 10
-233.2
 20
-541.23217317
 30
0.0
 11
-236.95
 21
-552.23217317
 31
0.0
  0
LINE
  5
F2
100
AcDbEntity
  8
ZUWAKU
  6
CONTINUOUS
 62
      32
100
AcDbLine
 10
-236.95
 20
-552.23217317
 30
0.0
 11
-245.2
 21
-552.23217317
 31
0.0
  0
LINE
  5
F3
100
AcDbEntity
  8
ZUWAKU
  6
CONTINUOUS
 62
      32
100
AcDbLine
 10
-236.95
 20
-552.23217317
 30
0.0
 11
-245.2
 21
-552.23217317
 31
0.0
  0
LINE
  5
F4
100
AcDbEntity
  8
ZUWAKU
  6
CONTINUOUS
 62
      32
100
AcDbLine
 10
-242.1
 20
-542.73217317
 30
0.0
 11
-249.7
 21
-542.73217317
 31
0.0
  0
LINE
  5
F5
100
AcDbEntity
  8
ZUWAKU
  6
CONTINUOUS
 62
      32
100
AcDbLine
 10
-249.7
 20
-542.73217317
 30
0.0
 11
-248.45
 21
-539.23217317
 31
0.0
  0
LINE
  5
F6
100
AcDbEntity
  8
ZUWAKU
  6
CONTINUOUS
 62
      32
100
AcDbLine
 10
-245.2
 20
-552.23217317
 30
0.0
 11
-241.7
 21
-542.73217317
 31
0.0
  0
LINE
  5
F7
100
AcDbEntity
  8
ZUWAKU
  6
CONTINUOUS
 62
      32
100
AcDbLine
 10
-245.2
 20
-552.23217317
 30
0.0
 11
-241.7
 21
-542.73217317
 31
0.0
  0
LINE
  5
F8
100
AcDbEntity
  8
ZUWAKU
  6
CONTINUOUS
 62
      32
100
AcDbLine
 10
-248.45
 20
-539.23217317
 30
0.0
 11
-243.7
 21
-539.23217317
 31
0.0
  0
LINE
  5
F9
100
AcDbEntity
  8
ZUWAKU
  6
CONTINUOUS
 62
      32
100
AcDbLine
 10
-248.45
 20
-539.23217317
 30
0.0
 11
-243.7
 21
-539.23217317
 31
0.0
  0
LINE
  5
FA
100
AcDbEntity
  8
ZUWAKU
  6
CONTINUOUS
 62
      32
100
AcDbLine
 10
-243.7
 20
-539.23217317
 30
0.0
 11
-240.45
 21
-538.98217317
 31
0.0
  0
LINE
  5
FB
100
AcDbEntity
  8
ZUWAKU
  6
CONTINUOUS
 62
      32
100
AcDbLine
 10
-243.7
 20
-539.23217317
 30
0.0
 11
-240.45
 21
-538.98217317
 31
0.0
  0
LINE
  5
FC
100
AcDbEntity
  8
ZUWAKU
  6
CONTINUOUS
 62
      32
100
AcDbLine
 10
-240.45
 20
-538.98217317
 30
0.0
 11
-236.95
 21
-537.48217317
 31
0.0
  0
LINE
  5
FD
100
AcDbEntity
  8
ZUWAKU
  6
CONTINUOUS
 62
      32
100
AcDbLine
 10
-240.45
 20
-538.98217317
 30
0.0
 11
-236.95
 21
-537.48217317
 31
0.0
  0
LINE
  5
FE
100
AcDbEntity
  8
ZUWAKU
  6
CONTINUOUS
 62
      32
100
AcDbLine
 10
-236.95
 20
-537.48217317
 30
0.0
 11
-234.45
 21
-535.23217317
 31
0.0
  0
LINE
  5
FF
100
AcDbEntity
  8
ZUWAKU
  6
CONTINUOUS
 62
      32
100
AcDbLine
 10
-236.95
 20
-537.48217317
 30
0.0
 11
-234.45
 21
-535.23217317
 31
0.0
  0
LINE
  5
100
100
AcDbEntity
  8
ZUWAKU
  6
CONTINUOUS
 62
      32
100
AcDbLine
 10
-281.45
 20
-532.48217317
 30
0.0
 11
-285.95
 21
-544.48217317
 31
0.0
  0
LINE
  5
101
100
AcDbEntity
  8
ZUWAKU
  6
CONTINUOUS
 62
      32
100
AcDbLine
 10
-285.95
 20
-544.48217317
 30
0.0
 11
-291.7
 21
-544.48217317
 31
0.0
  0
LINE
  5
102
100
AcDbEntity
  8
ZUWAKU
  6
CONTINUOUS
 62
      32
100
AcDbLine
 10
-285.95
 20
-544.48217317
 30
0.0
 11
-291.7
 21
-544.48217317
 31
0.0
  0
LINE
  5
103
100
AcDbEntity
  8
ZUWAKU
  6
CONTINUOUS
 62
      32
100
AcDbLine
 10
-291.7
 20
-544.48217317
 30
0.0
 11
-287.45
 21
-532.48217317
 31
0.0
  0
LINE
  5
104
100
AcDbEntity
  8
ZUWAKU
  6
CONTINUOUS
 62
      32
100
AcDbLine
 10
-287.45
 20
-532.48217317
 30
0.0
 11
-281.45
 21
-532.48217317
 31
0.0
  0
LINE
  5
105
100
AcDbEntity
  8
ZUWAKU
  6
CONTINUOUS
 62
      32
100
AcDbLine
 10
-287.45
 20
-532.48217317
 30
0.0
 11
-281.45
 21
-532.48217317
 31
0.0
  0
LINE
  5
106
100
AcDbEntity
  8
ZUWAKU
  6
CONTINUOUS
 62
      32
100
AcDbLine
 10
-199.0
 20
-532.48217317
 30
0.0
 11
-200.5
 21
-536.98217317
 31
0.0
  0
LINE
  5
107
100
AcDbEntity
  8
ZUWAKU
  6
CONTINUOUS
 62
      32
100
AcDbLine
 10
-200.5
 20
-536.98217317
 30
0.0
 11
-192.5
 21
-536.98217317
 31
0.0
  0
LINE
  5
108
100
AcDbEntity
  8
ZUWAKU
  6
CONTINUOUS
 62
      32
100
AcDbLine
 10
-200.5
 20
-536.98217317
 30
0.0
 11
-192.5
 21
-536.98217317
 31
0.0
  0
LINE
  5
109
100
AcDbEntity
  8
ZUWAKU
  6
CONTINUOUS
 62
      32
100
AcDbLine
 10
-206.0
 20
-548.23217317
 30
0.0
 11
-207.5
 21
-552.48217317
 31
0.0
  0
LINE
  5
10A
100
AcDbEntity
  8
ZUWAKU
  6
CONTINUOUS
 62
      32
100
AcDbLine
 10
-206.0
 20
-548.23217317
 30
0.0
 11
-207.5
 21
-552.48217317
 31
0.0
  0
LINE
  5
10B
100
AcDbEntity
  8
ZUWAKU
  6
CONTINUOUS
 62
      32
100
AcDbLine
 10
-207.5
 20
-552.48217317
 30
0.0
 11
-200.0
 21
-551.23217317
 31
0.0
  0
LINE
  5
10C
100
AcDbEntity
  8
ZUWAKU
  6
CONTINUOUS
 62
      32
100
AcDbLine
 10
-200.0
 20
-551.23217317
 30
0.0
 11
-196.5
 21
-550.23217317
 31
0.0
  0
LINE
  5
10D
100
AcDbEntity
  8
ZUWAKU
  6
CONTINUOUS
 62
      32
100
AcDbLine
 10
-200.0
 20
-551.23217317
 30
0.0
 11
-196.5
 21
-550.23217317
 31
0.0
  0
LINE
  5
10E
100
AcDbEntity
  8
ZUWAKU
  6
CONTINUOUS
 62
      32
100
AcDbLine
 10
-192.75
 20
-548.98217317
 30
0.0
 11
-190.75
 21
-552.23217317
 31
0.0
  0
LINE
  5
10F
100
AcDbEntity
  8
ZUWAKU
  6
CONTINUOUS
 62
      32
100
AcDbLine
 10
-190.75
 20
-552.23217317
 30
0.0
 11
-184.5
 21
-552.23217317
 31
0.0
  0
LINE
  5
110
100
AcDbEntity
  8
ZUWAKU
  6
CONTINUOUS
 62
      32
100
AcDbLine
 10
-190.75
 20
-552.23217317
 30
0.0
 11
-184.5
 21
-552.23217317
 31
0.0
  0
LINE
  5
111
100
AcDbEntity
  8
ZUWAKU
  6
CONTINUOUS
 62
      32
100
AcDbLine
 10
-188.75
 20
-545.23217317
 30
0.0
 11
-186.5
 21
-542.23217317
 31
0.0
  0
LINE
  5
112
100
AcDbEntity
  8
ZUWAKU
  6
CONTINUOUS
 62
      32
100
AcDbLine
 10
-186.5
 20
-542.23217317
 30
0.0
 11
-184.5
 21
-539.23217317
 31
0.0
  0
LINE
  5
113
100
AcDbEntity
  8
ZUWAKU
  6
CONTINUOUS
 62
      32
100
AcDbLine
 10
-184.5
 20
-539.23217317
 30
0.0
 11
-183.0
 21
-535.98217317
 31
0.0
  0
LINE
  5
114
100
AcDbEntity
  8
ZUWAKU
  6
CONTINUOUS
 62
      32
100
AcDbLine
 10
-183.0
 20
-535.98217317
 30
0.0
 11
-182.0
 21
-532.48217317
 31
0.0
  0
LINE
  5
115
100
AcDbEntity
  8
ZUWAKU
  6
CONTINUOUS
 62
      32
100
AcDbLine
 10
-183.0
 20
-535.98217317
 30
0.0
 11
-182.0
 21
-532.48217317
 31
0.0
  0
LINE
  5
116
100
AcDbEntity
  8
ZUWAKU
  6
CONTINUOUS
 62
      32
100
AcDbLine
 10
-182.0
 20
-532.48217317
 30
0.0
 11
-199.0
 21
-532.48217317
 31
0.0
  0
LINE
  5
117
100
AcDbEntity
  8
ZUWAKU
  6
CONTINUOUS
 62
      32
100
AcDbLine
 10
-197.25
 20
-544.98217317
 30
0.0
 11
-201.25
 21
-547.23217317
 31
0.0
  0
LINE
  5
118
100
AcDbEntity
  8
ZUWAKU
  6
CONTINUOUS
 62
      32
100
AcDbLine
 10
-196.5
 20
-550.23217317
 30
0.0
 11
-192.75
 21
-548.98217317
 31
0.0
  0
LINE
  5
119
100
AcDbEntity
  8
ZUWAKU
  6
CONTINUOUS
 62
      32
100
AcDbLine
 10
-196.5
 20
-550.23217317
 30
0.0
 11
-192.75
 21
-548.98217317
 31
0.0
  0
LINE
  5
11A
100
AcDbEntity
  8
ZUWAKU
  6
CONTINUOUS
 62
      32
100
AcDbLine
 10
-184.5
 20
-552.23217317
 30
0.0
 11
-188.75
 21
-545.23217317
 31
0.0
  0
LINE
  5
11B
100
AcDbEntity
  8
ZUWAKU
  6
CONTINUOUS
 62
      32
100
AcDbLine
 10
-184.5
 20
-552.23217317
 30
0.0
 11
-188.75
 21
-545.23217317
 31
0.0
  0
LINE
  5
11C
100
AcDbEntity
  8
ZUWAKU
  6
CONTINUOUS
 62
      32
100
AcDbLine
 10
-194.0
 20
-541.23217317
 30
0.0
 11
-197.25
 21
-544.98217317
 31
0.0
  0
LINE
  5
11D
100
AcDbEntity
  8
ZUWAKU
  6
CONTINUOUS
 62
      32
100
AcDbLine
 10
-194.0
 20
-541.23217317
 30
0.0
 11
-197.25
 21
-544.98217317
 31
0.0
  0
LINE
  5
11E
100
AcDbEntity
  8
ZUWAKU
  6
CONTINUOUS
 62
      32
100
AcDbLine
 10
-243.7
 20
-539.23217317
 30
0.0
 11
-240.45
 21
-538.98217317
 31
0.0
  0
LINE
  5
11F
100
AcDbEntity
  8
ZUWAKU
  6
CONTINUOUS
 62
      32
100
AcDbLine
 10
-240.45
 20
-538.98217317
 30
0.0
 11
-236.95
 21
-537.48217317
 31
0.0
  0
LINE
  5
120
100
AcDbEntity
  8
ZUWAKU
  6
CONTINUOUS
 62
      32
100
AcDbLine
 10
-236.95
 20
-537.48217317
 30
0.0
 11
-234.45
 21
-535.23217317
 31
0.0
  0
LINE
  5
121
100
AcDbEntity
  8
ZUWAKU
  6
CONTINUOUS
 62
      32
100
AcDbLine
 10
-234.45
 20
-535.23217317
 30
0.0
 11
-232.45
 21
-532.48217317
 31
0.0
  0
LINE
  5
122
100
AcDbEntity
  8
ZUWAKU
  6
CONTINUOUS
 62
      32
100
AcDbLine
 10
-215.3
 20
-552.23217317
 30
0.0
 11
-210.8
 21
-550.23217317
 31
0.0
  0
LINE
  5
123
100
AcDbEntity
  8
ZUWAKU
  6
CONTINUOUS
 62
      32
100
AcDbLine
 10
-210.8
 20
-550.23217317
 30
0.0
 11
-206.8
 21
-546.48217317
 31
0.0
  0
LINE
  5
124
100
AcDbEntity
  8
ZUWAKU
  6
CONTINUOUS
 62
      32
100
AcDbLine
 10
-206.8
 20
-546.48217317
 30
0.0
 11
-203.8
 21
-541.48217317
 31
0.0
  0
LINE
  5
125
100
AcDbEntity
  8
ZUWAKU
  6
CONTINUOUS
 62
      32
100
AcDbLine
 10
-203.8
 20
-541.48217317
 30
0.0
 11
-202.8
 21
-536.23217317
 31
0.0
  0
LINE
  5
126
100
AcDbEntity
  8
ZUWAKU
  6
CONTINUOUS
 62
      32
100
AcDbLine
 10
-206.0
 20
-548.23217317
 30
0.0
 11
-201.25
 21
-547.23217317
 31
0.0
  0
LINE
  5
127
100
AcDbEntity
  8
ZUWAKU
  6
CONTINUOUS
 62
      32
100
AcDbLine
 10
-201.25
 20
-547.23217317
 30
0.0
 11
-197.25
 21
-544.98217317
 31
0.0
  0
LINE
  5
128
100
AcDbEntity
  8
ZUWAKU
  6
CONTINUOUS
 62
      32
100
AcDbLine
 10
-197.25
 20
-544.98217317
 30
0.0
 11
-194.0
 21
-541.23217317
 31
0.0
  0
LINE
  5
129
100
AcDbEntity
  8
ZUWAKU
  6
CONTINUOUS
 62
      32
100
AcDbLine
 10
-233.2
 20
-541.23217317
 30
0.0
 11
-229.95
 21
-540.23217317
 31
0.0
  0
LINE
  5
12A
100
AcDbEntity
  8
ZUWAKU
  6
CONTINUOUS
 62
      32
100
AcDbLine
 10
-229.95
 20
-540.23217317
 30
0.0
 11
-227.2
 21
-538.23217317
 31
0.0
  0
LINE
  5
12B
100
AcDbEntity
  8
ZUWAKU
  6
CONTINUOUS
 62
      32
100
AcDbLine
 10
-227.2
 20
-538.23217317
 30
0.0
 11
-224.7
 21
-535.73217317
 31
0.0
  0
LINE
  5
12C
100
AcDbEntity
  8
ZUWAKU
  6
CONTINUOUS
 62
      32
100
AcDbLine
 10
-224.7
 20
-535.73217317
 30
0.0
 11
-223.2
 21
-532.48217317
 31
0.0
  0
LINE
  5
12D
100
AcDbEntity
  8
ZUWAKU
  6
CONTINUOUS
 62
      32
100
AcDbLine
 10
-188.75
 20
-545.23217317
 30
0.0
 11
-186.5
 21
-542.23217317
 31
0.0
  0
LINE
  5
12E
100
AcDbEntity
  8
ZUWAKU
  6
CONTINUOUS
 62
      32
100
AcDbLine
 10
-186.5
 20
-542.23217317
 30
0.0
 11
-184.5
 21
-539.23217317
 31
0.0
  0
LINE
  5
12F
100
AcDbEntity
  8
ZUWAKU
  6
CONTINUOUS
 62
      32
100
AcDbLine
 10
-184.5
 20
-539.23217317
 30
0.0
 11
-183.0
 21
-535.98217317
 31
0.0
  0
LINE
  5
130
100
AcDbEntity
  8
ZUWAKU
  6
CONTINUOUS
 62
      32
100
AcDbLine
 10
-183.0
 20
-535.98217317
 30
0.0
 11
-182.0
 21
-532.48217317
 31
0.0
  0
LINE
  5
131
100
AcDbEntity
  8
ZUWAKU
  6
CONTINUOUS
 62
      32
100
AcDbLine
 10
-200.0
 20
-551.23217317
 30
0.0
 11
-196.5
 21
-550.23217317
 31
0.0
  0
LINE
  5
132
100
AcDbEntity
  8
ZUWAKU
  6
CONTINUOUS
 62
      32
100
AcDbLine
 10
-196.5
 20
-550.23217317
 30
0.0
 11
-192.75
 21
-548.98217317
 31
0.0
  0
LINE
  5
133
100
AcDbEntity
  8
ZUWAKU
  6
CONTINUOUS
 62
      32
100
AcDbLine
 10
-206.55
 20
-539.48217317
 30
0.0
 11
-205.3
 21
-536.23217317
 31
0.0
  0
LINE
  5
134
100
AcDbEntity
  8
ZUWAKU
  6
CONTINUOUS
 62
      32
100
AcDbLine
 10
-205.3
 20
-536.23217317
 30
0.0
 11
-202.8
 21
-536.23217317
 31
0.0
  0
LINE
  5
135
100
AcDbEntity
  8
ZUWAKU
  6
CONTINUOUS
 62
      32
100
AcDbLine
 10
-205.3
 20
-536.23217317
 30
0.0
 11
-202.8
 21
-536.23217317
 31
0.0
  0
LINE
  5
136
100
AcDbEntity
  8
ZUWAKU
  6
CONTINUOUS
 62
      32
100
AcDbLine
 10
-202.8
 20
-536.23217317
 30
0.0
 11
-203.8
 21
-541.48217317
 31
0.0
  0
LINE
  5
137
100
AcDbEntity
  8
ZUWAKU
  6
CONTINUOUS
 62
      32
100
AcDbLine
 10
-203.8
 20
-541.48217317
 30
0.0
 11
-206.8
 21
-546.48217317
 31
0.0
  0
LINE
  5
138
100
AcDbEntity
  8
ZUWAKU
  6
CONTINUOUS
 62
      32
100
AcDbLine
 10
-203.8
 20
-541.48217317
 30
0.0
 11
-206.8
 21
-546.48217317
 31
0.0
  0
LINE
  5
139
100
AcDbEntity
  8
ZUWAKU
  6
CONTINUOUS
 62
      32
100
AcDbLine
 10
-206.8
 20
-546.48217317
 30
0.0
 11
-210.8
 21
-550.23217317
 31
0.0
  0
LINE
  5
13A
100
AcDbEntity
  8
ZUWAKU
  6
CONTINUOUS
 62
      32
100
AcDbLine
 10
-215.8
 20
-552.23217317
 30
0.0
 11
-228.55
 21
-552.23217317
 31
0.0
  0
LINE
  5
13B
100
AcDbEntity
  8
ZUWAKU
  6
CONTINUOUS
 62
      32
100
AcDbLine
 10
-228.55
 20
-552.23217317
 30
0.0
 11
-226.3
 21
-545.98217317
 31
0.0
  0
LINE
  5
13C
100
AcDbEntity
  8
ZUWAKU
  6
CONTINUOUS
 62
      32
100
AcDbLine
 10
-228.55
 20
-552.23217317
 30
0.0
 11
-226.3
 21
-545.98217317
 31
0.0
  0
LINE
  5
13D
100
AcDbEntity
  8
ZUWAKU
  6
CONTINUOUS
 62
      32
100
AcDbLine
 10
-208.55
 20
-542.23217317
 30
0.0
 11
-206.55
 21
-539.48217317
 31
0.0
  0
LINE
  5
13E
100
AcDbEntity
  8
ZUWAKU
  6
CONTINUOUS
 62
      32
100
AcDbLine
 10
-226.3
 20
-545.98217317
 30
0.0
 11
-214.3
 21
-545.98217317
 31
0.0
  0
LINE
  5
13F
100
AcDbEntity
  8
ZUWAKU
  6
CONTINUOUS
 62
      32
100
AcDbLine
 10
-226.3
 20
-545.98217317
 30
0.0
 11
-214.3
 21
-545.98217317
 31
0.0
  0
LINE
  5
140
100
AcDbEntity
  8
ZUWAKU
  6
CONTINUOUS
 62
      32
100
AcDbLine
 10
-214.3
 20
-545.98217317
 30
0.0
 11
-211.3
 21
-544.48217317
 31
0.0
  0
LINE
  5
141
100
AcDbEntity
  8
ZUWAKU
  6
CONTINUOUS
 62
      32
100
AcDbLine
 10
-214.3
 20
-545.98217317
 30
0.0
 11
-211.3
 21
-544.48217317
 31
0.0
  0
LINE
  5
142
100
AcDbEntity
  8
ZUWAKU
  6
CONTINUOUS
 62
      32
100
AcDbLine
 10
-211.3
 20
-544.48217317
 30
0.0
 11
-208.55
 21
-542.23217317
 31
0.0
  0
LINE
  5
143
100
AcDbEntity
  8
ZUWAKU
  6
CONTINUOUS
 62
      32
100
AcDbLine
 10
-250.9
 20
-539.23217317
 30
0.0
 11
-253.9
 21
-547.48217317
 31
0.0
  0
LINE
  5
144
100
AcDbEntity
  8
ZUWAKU
  6
CONTINUOUS
 62
      32
100
AcDbLine
 10
-253.9
 20
-547.48217317
 30
0.0
 11
-255.65
 21
-549.23217317
 31
0.0
  0
LINE
  5
145
100
AcDbEntity
  8
ZUWAKU
  6
CONTINUOUS
 62
      32
100
AcDbLine
 10
-253.9
 20
-547.48217317
 30
0.0
 11
-255.65
 21
-549.23217317
 31
0.0
  0
LINE
  5
146
100
AcDbEntity
  8
ZUWAKU
  6
CONTINUOUS
 62
      32
100
AcDbLine
 10
-255.65
 20
-549.23217317
 30
0.0
 11
-257.15
 21
-550.73217317
 31
0.0
  0
LINE
  5
147
100
AcDbEntity
  8
ZUWAKU
  6
CONTINUOUS
 62
      32
100
AcDbLine
 10
-257.15
 20
-550.73217317
 30
0.0
 11
-259.15
 21
-551.73217317
 31
0.0
  0
LINE
  5
148
100
AcDbEntity
  8
ZUWAKU
  6
CONTINUOUS
 62
      32
100
AcDbLine
 10
-257.15
 20
-550.73217317
 30
0.0
 11
-259.15
 21
-551.73217317
 31
0.0
  0
LINE
  5
149
100
AcDbEntity
  8
ZUWAKU
  6
CONTINUOUS
 62
      32
100
AcDbLine
 10
-259.15
 20
-551.73217317
 30
0.0
 11
-261.15
 21
-552.23217317
 31
0.0
  0
LINE
  5
14A
100
AcDbEntity
  8
ZUWAKU
  6
CONTINUOUS
 62
      32
100
AcDbLine
 10
-261.15
 20
-552.23217317
 30
0.0
 11
-273.9
 21
-552.23217317
 31
0.0
  0
LINE
  5
14B
100
AcDbEntity
  8
ZUWAKU
  6
CONTINUOUS
 62
      32
100
AcDbLine
 10
-261.15
 20
-552.23217317
 30
0.0
 11
-273.9
 21
-552.23217317
 31
0.0
  0
LINE
  5
14C
100
AcDbEntity
  8
ZUWAKU
  6
CONTINUOUS
 62
      32
100
AcDbLine
 10
-273.9
 20
-552.23217317
 30
0.0
 11
-272.4
 21
-548.48217317
 31
0.0
  0
LINE
  5
14D
100
AcDbEntity
  8
ZUWAKU
  6
CONTINUOUS
 62
      32
100
AcDbLine
 10
-272.4
 20
-548.48217317
 30
0.0
 11
-264.15
 21
-548.48217317
 31
0.0
  0
LINE
  5
14E
100
AcDbEntity
  8
ZUWAKU
  6
CONTINUOUS
 62
      32
100
AcDbLine
 10
-272.4
 20
-548.48217317
 30
0.0
 11
-264.15
 21
-548.48217317
 31
0.0
  0
LINE
  5
14F
100
AcDbEntity
  8
ZUWAKU
  6
CONTINUOUS
 62
      32
100
AcDbLine
 10
-259.4
 20
-542.73217317
 30
0.0
 11
-269.9
 21
-542.73217317
 31
0.0
  0
LINE
  5
150
100
AcDbEntity
  8
ZUWAKU
  6
CONTINUOUS
 62
      32
100
AcDbLine
 10
-269.9
 20
-542.73217317
 30
0.0
 11
-268.9
 21
-539.23217317
 31
0.0
  0
LINE
  5
151
100
AcDbEntity
  8
ZUWAKU
  6
CONTINUOUS
 62
      32
100
AcDbLine
 10
-269.9
 20
-542.73217317
 30
0.0
 11
-268.9
 21
-539.23217317
 31
0.0
  0
LINE
  5
152
100
AcDbEntity
  8
ZUWAKU
  6
CONTINUOUS
 62
      32
100
AcDbLine
 10
-264.15
 20
-548.48217317
 30
0.0
 11
-262.4
 21
-547.23217317
 31
0.0
  0
LINE
  5
153
100
AcDbEntity
  8
ZUWAKU
  6
CONTINUOUS
 62
      32
100
AcDbLine
 10
-264.15
 20
-548.48217317
 30
0.0
 11
-262.4
 21
-547.23217317
 31
0.0
  0
LINE
  5
154
100
AcDbEntity
  8
ZUWAKU
  6
CONTINUOUS
 62
      32
100
AcDbLine
 10
-262.4
 20
-547.23217317
 30
0.0
 11
-261.15
 21
-545.98217317
 31
0.0
  0
LINE
  5
155
100
AcDbEntity
  8
ZUWAKU
  6
CONTINUOUS
 62
      32
100
AcDbLine
 10
-262.4
 20
-547.23217317
 30
0.0
 11
-261.15
 21
-545.98217317
 31
0.0
  0
LINE
  5
156
100
AcDbEntity
  8
ZUWAKU
  6
CONTINUOUS
 62
      32
100
AcDbLine
 10
-261.15
 20
-545.98217317
 30
0.0
 11
-259.9
 21
-544.48217317
 31
0.0
  0
LINE
  5
157
100
AcDbEntity
  8
ZUWAKU
  6
CONTINUOUS
 62
      32
100
AcDbLine
 10
-261.15
 20
-545.98217317
 30
0.0
 11
-259.9
 21
-544.48217317
 31
0.0
  0
LINE
  5
158
100
AcDbEntity
  8
ZUWAKU
  6
CONTINUOUS
 62
      32
100
AcDbLine
 10
-259.9
 20
-544.48217317
 30
0.0
 11
-259.4
 21
-542.73217317
 31
0.0
  0
LINE
  5
159
100
AcDbEntity
  8
ZUWAKU
  6
CONTINUOUS
 62
      32
100
AcDbLine
 10
-259.9
 20
-544.48217317
 30
0.0
 11
-259.4
 21
-542.73217317
 31
0.0
  0
LINE
  5
15A
100
AcDbEntity
  8
ZUWAKU
  6
CONTINUOUS
 62
      32
100
AcDbLine
 10
-275.65
 20
-532.48217317
 30
0.0
 11
-270.15198505
 21
-532.48217317
 31
0.0
  0
LINE
  5
15B
100
AcDbEntity
  8
ZUWAKU
  6
CONTINUOUS
 62
      32
100
AcDbLine
 10
-274.7
 20
-547.23217317
 30
0.0
 11
-276.7
 21
-549.23217317
 31
0.0
  0
LINE
  5
15C
100
AcDbEntity
  8
ZUWAKU
  6
CONTINUOUS
 62
      32
100
AcDbLine
 10
-276.7
 20
-549.23217317
 30
0.0
 11
-278.7
 21
-550.98217317
 31
0.0
  0
LINE
  5
15D
100
AcDbEntity
  8
ZUWAKU
  6
CONTINUOUS
 62
      32
100
AcDbLine
 10
-276.7
 20
-549.23217317
 30
0.0
 11
-278.7
 21
-550.98217317
 31
0.0
  0
LINE
  5
15E
100
AcDbEntity
  8
ZUWAKU
  6
CONTINUOUS
 62
      32
100
AcDbLine
 10
-278.7
 20
-550.98217317
 30
0.0
 11
-281.2
 21
-551.98217317
 31
0.0
  0
LINE
  5
15F
100
AcDbEntity
  8
ZUWAKU
  6
CONTINUOUS
 62
      32
100
AcDbLine
 10
-281.2
 20
-551.98217317
 30
0.0
 11
-283.7
 21
-552.23217317
 31
0.0
  0
LINE
  5
160
100
AcDbEntity
  8
ZUWAKU
  6
CONTINUOUS
 62
      32
100
AcDbLine
 10
-283.7
 20
-552.23217317
 30
0.0
 11
-289.95
 21
-552.23217317
 31
0.0
  0
LINE
  5
161
100
AcDbEntity
  8
ZUWAKU
  6
CONTINUOUS
 62
      32
100
AcDbLine
 10
-289.95
 20
-552.23217317
 30
0.0
 11
-288.7
 21
-548.48217317
 31
0.0
  0
LINE
  5
162
100
AcDbEntity
  8
ZUWAKU
  6
CONTINUOUS
 62
      32
100
AcDbLine
 10
-289.95
 20
-552.23217317
 30
0.0
 11
-288.7
 21
-548.48217317
 31
0.0
  0
LINE
  5
163
100
AcDbEntity
  8
ZUWAKU
  6
CONTINUOUS
 62
      32
100
AcDbLine
 10
-281.2
 20
-545.23217317
 30
0.0
 11
-276.45
 21
-532.48217317
 31
0.0
  0
LINE
  5
164
100
AcDbEntity
  8
ZUWAKU
  6
CONTINUOUS
 62
      32
100
AcDbLine
 10
-288.7
 20
-548.48217317
 30
0.0
 11
-286.45
 21
-548.48217317
 31
0.0
  0
LINE
  5
165
100
AcDbEntity
  8
ZUWAKU
  6
CONTINUOUS
 62
      32
100
AcDbLine
 10
-288.7
 20
-548.48217317
 30
0.0
 11
-286.45
 21
-548.48217317
 31
0.0
  0
LINE
  5
166
100
AcDbEntity
  8
ZUWAKU
  6
CONTINUOUS
 62
      32
100
AcDbLine
 10
-282.45
 20
-547.23217317
 30
0.0
 11
-281.2
 21
-545.23217317
 31
0.0
  0
LINE
  5
167
100
AcDbEntity
  8
ZUWAKU
  6
CONTINUOUS
 62
      32
100
AcDbLine
 10
-284.45
 20
-548.23217317
 30
0.0
 11
-282.45
 21
-547.23217317
 31
0.0
  0
LINE
  5
168
100
AcDbEntity
  8
ZUWAKU
  6
CONTINUOUS
 62
      32
100
AcDbLine
 10
-286.45
 20
-548.48217317
 30
0.0
 11
-284.45
 21
-548.23217317
 31
0.0
  0
LINE
  5
169
100
AcDbEntity
  8
ZUWAKU
  6
CONTINUOUS
 62
      32
100
AcDbLine
 10
-286.45
 20
-548.48217317
 30
0.0
 11
-284.45
 21
-548.23217317
 31
0.0
  0
LINE
  5
16A
100
AcDbEntity
  8
ZUWAKU
  6
CONTINUOUS
 62
      32
100
AcDbLine
 10
-221.3
 20
-532.48217317
 30
0.0
 11
-213.3
 21
-532.48217317
 31
0.0
  0
LINE
  5
16B
100
AcDbEntity
  8
ZUWAKU
  6
CONTINUOUS
 62
      32
100
AcDbLine
 10
-213.3
 20
-532.48217317
 30
0.0
 11
-214.8
 21
-536.98217317
 31
0.0
  0
LINE
  5
16C
100
AcDbEntity
  8
ZUWAKU
  6
CONTINUOUS
 62
      32
100
AcDbLine
 10
-213.3
 20
-532.48217317
 30
0.0
 11
-214.8
 21
-536.98217317
 31
0.0
  0
LINE
  5
16D
100
AcDbEntity
  8
ZUWAKU
  6
CONTINUOUS
 62
      32
100
AcDbLine
 10
-215.2
 20
-536.98217317
 30
0.0
 11
-223.05
 21
-536.98217317
 31
0.0
  0
LINE
  5
16E
100
AcDbEntity
  8
ZUWAKU
  6
CONTINUOUS
 62
      32
100
AcDbLine
 10
-191.67029744
 20
-536.94891528
 30
0.0
 11
-194.0
 21
-541.23217317
 31
0.0
  0
LINE
  5
16F
100
AcDbEntity
  8
ZUWAKU
  6
CONTINUOUS
 62
      32
100
AcDbLine
 10
-184.75
 20
-532.48217317
 30
0.0
 11
-197.25
 21
-544.98217317
 31
0.0
  0
LINE
  5
170
100
AcDbEntity
  8
ZUWAKU
  6
CONTINUOUS
 62
      32
100
AcDbLine
 10
-197.25
 20
-544.98217317
 30
0.0
 11
-204.2
 21
-551.93217317
 31
0.0
  0
LINE
  5
171
100
AcDbEntity
  8
ZUWAKU
  6
CONTINUOUS
 62
      32
100
AcDbLine
 10
-185.88137085
 20
-532.48217317
 30
0.0
 11
-193.24706188
 21
-539.8478642
 31
0.0
  0
LINE
  5
172
100
AcDbEntity
  8
ZUWAKU
  6
CONTINUOUS
 62
      32
100
AcDbLine
 10
-199.83599051
 20
-546.43679284
 30
0.0
 11
-205.55764502
 21
-552.15844734
 31
0.0
  0
LINE
  5
173
100
AcDbEntity
  8
ZUWAKU
  6
CONTINUOUS
 62
      32
100
AcDbLine
 10
-187.0127417
 20
-532.48217317
 30
0.0
 11
-191.89785127
 21
-537.36728275
 31
0.0
  0
LINE
  5
174
100
AcDbEntity
  8
ZUWAKU
  6
CONTINUOUS
 62
      32
100
AcDbLine
 10
-201.89947282
 20
-547.36890429
 30
0.0
 11
-206.91529004
 21
-552.38472151
 31
0.0
  0
LINE
  5
175
100
AcDbEntity
  8
ZUWAKU
  6
CONTINUOUS
 62
      32
100
AcDbLine
 10
-188.14411255
 20
-532.48217317
 30
0.0
 11
-192.64411255
 21
-536.98217317
 31
0.0
  0
LINE
  5
176
100
AcDbEntity
  8
ZUWAKU
  6
CONTINUOUS
 62
      32
100
AcDbLine
 10
-203.33254256
 20
-547.67060319
 30
0.0
 11
-207.14866588
 21
-551.48672651
 31
0.0
  0
LINE
  5
177
100
AcDbEntity
  8
ZUWAKU
  6
CONTINUOUS
 62
      32
100
AcDbLine
 10
-189.2754834
 20
-532.48217317
 30
0.0
 11
-193.7754834
 21
-536.98217317
 31
0.0
  0
LINE
  5
178
100
AcDbEntity
  8
ZUWAKU
  6
CONTINUOUS
 62
      32
100
AcDbLine
 10
-204.76561231
 20
-547.97230208
 30
0.0
 11
-206.53155451
 21
-549.73824428
 31
0.0
  0
LINE
  5
179
100
AcDbEntity
  8
ZUWAKU
  6
CONTINUOUS
 62
      32
100
AcDbLine
 10
-190.40685425
 20
-532.48217317
 30
0.0
 11
-194.90685425
 21
-536.98217317
 31
0.0
  0
LINE
  5
17A
100
AcDbEntity
  8
ZUWAKU
  6
CONTINUOUS
 62
      32
100
AcDbLine
 10
-191.5382251
 20
-532.48217317
 30
0.0
 11
-196.0382251
 21
-536.98217317
 31
0.0
  0
LINE
  5
17B
100
AcDbEntity
  8
ZUWAKU
  6
CONTINUOUS
 62
      32
100
AcDbLine
 10
-192.66959595
 20
-532.48217317
 30
0.0
 11
-197.16959595
 21
-536.98217317
 31
0.0
  0
LINE
  5
17C
100
AcDbEntity
  8
ZUWAKU
  6
CONTINUOUS
 62
      32
100
AcDbLine
 10
-193.8009668
 20
-532.48217317
 30
0.0
 11
-198.3009668
 21
-536.98217317
 31
0.0
  0
LINE
  5
17D
100
AcDbEntity
  8
ZUWAKU
  6
CONTINUOUS
 62
      32
100
AcDbLine
 10
-194.93233765
 20
-532.48217317
 30
0.0
 11
-199.43233765
 21
-536.98217317
 31
0.0
  0
LINE
  5
17E
100
AcDbEntity
  8
ZUWAKU
  6
CONTINUOUS
 62
      32
100
AcDbLine
 10
-196.0637085
 20
-532.48217317
 30
0.0
 11
-200.46814575
 21
-536.88661043
 31
0.0
  0
LINE
  5
17F
100
AcDbEntity
  8
ZUWAKU
  6
CONTINUOUS
 62
      32
100
AcDbLine
 10
-197.19507935
 20
-532.48217317
 30
0.0
 11
-199.90246033
 21
-535.18955415
 31
0.0
  0
LINE
  5
180
100
AcDbEntity
  8
ZUWAKU
  6
CONTINUOUS
 62
      32
100
AcDbLine
 10
-198.3264502
 20
-532.48217317
 30
0.0
 11
-199.3367749
 21
-533.49249788
 31
0.0
  0
LINE
  5
181
100
AcDbEntity
  8
ZUWAKU
  6
CONTINUOUS
 62
      32
100
AcDbLine
 10
-183.61862915
 20
-532.48217317
 30
0.0
 11
-202.84235498
 21
-551.705899
 31
0.0
  0
LINE
  5
182
100
AcDbEntity
  8
ZUWAKU
  6
CONTINUOUS
 62
      32
100
AcDbLine
 10
-182.4872583
 20
-532.48217317
 30
0.0
 11
-201.48470996
 21
-551.47962483
 31
0.0
  0
LINE
  5
183
100
AcDbEntity
  8
ZUWAKU
  6
CONTINUOUS
 62
      32
100
AcDbLine
 10
-182.25764502
 20
-533.38393074
 30
0.0
 11
-200.12706494
 21
-551.25335066
 31
0.0
  0
LINE
  5
184
100
AcDbEntity
  8
ZUWAKU
  6
CONTINUOUS
 62
      32
100
AcDbLine
 10
-182.71019336
 20
-534.96784993
 30
0.0
 11
-198.56432324
 21
-550.82197982
 31
0.0
  0
LINE
  5
185
100
AcDbEntity
  8
ZUWAKU
  6
CONTINUOUS
 62
      32
100
AcDbLine
 10
-183.34873221
 20
-536.73775964
 30
0.0
 11
-196.98040405
 21
-550.36943148
 31
0.0
  0
LINE
  5
186
100
AcDbEntity
  8
ZUWAKU
  6
CONTINUOUS
 62
      32
100
AcDbLine
 10
-184.31847866
 20
-538.83887693
 30
0.0
 11
-195.31766235
 21
-549.83806063
 31
0.0
  0
LINE
  5
187
100
AcDbEntity
  8
ZUWAKU
  6
CONTINUOUS
 62
      32
100
AcDbLine
 10
-186.3391919
 20
-541.99096102
 30
0.0
 11
-193.62060608
 21
-549.2723752
 31
0.0
  0
LINE
  5
188
100
AcDbEntity
  8
ZUWAKU
  6
CONTINUOUS
 62
      32
100
AcDbLine
 10
-188.63630143
 20
-545.41944141
 30
0.0
 11
-192.54010789
 21
-549.32324786
 31
0.0
  0
LINE
  5
189
100
AcDbEntity
  8
ZUWAKU
  6
CONTINUOUS
 62
      32
100
AcDbLine
 10
-188.20889467
 20
-546.12340549
 30
0.0
 11
-192.10910947
 21
-550.02362029
 31
0.0
  0
LINE
  5
18A
100
AcDbEntity
  8
ZUWAKU
  6
CONTINUOUS
 62
      32
100
AcDbLine
 10
-187.7814879
 20
-546.82736957
 30
0.0
 11
-191.67811105
 21
-550.72399272
 31
0.0
  0
LINE
  5
18B
100
AcDbEntity
  8
ZUWAKU
  6
CONTINUOUS
 62
      32
100
AcDbLine
 10
-187.35408113
 20
-547.53133366
 30
0.0
 11
-191.24711263
 21
-551.42436515
 31
0.0
  0
LINE
  5
18C
100
AcDbEntity
  8
ZUWAKU
  6
CONTINUOUS
 62
      32
100
AcDbLine
 10
-186.92667437
 20
-548.23529774
 30
0.0
 11
-190.81611421
 21
-552.12473758
 31
0.0
  0
LINE
  5
18D
100
AcDbEntity
  8
ZUWAKU
  6
CONTINUOUS
 62
      32
100
AcDbLine
 10
-186.4992676
 20
-548.93926183
 30
0.0
 11
-189.79217895
 21
-552.23217317
 31
0.0
  0
LINE
  5
18E
100
AcDbEntity
  8
ZUWAKU
  6
CONTINUOUS
 62
      32
100
AcDbLine
 10
-186.07186084
 20
-549.64322591
 30
0.0
 11
-188.6608081
 21
-552.23217317
 31
0.0
  0
LINE
  5
18F
100
AcDbEntity
  8
ZUWAKU
  6
CONTINUOUS
 62
      32
100
AcDbLine
 10
-185.64445407
 20
-550.34719
 30
0.0
 11
-187.52943725
 21
-552.23217317
 31
0.0
  0
LINE
  5
190
100
AcDbEntity
  8
ZUWAKU
  6
CONTINUOUS
 62
      32
100
AcDbLine
 10
-185.21704731
 20
-551.05115408
 30
0.0
 11
-186.3980664
 21
-552.23217317
 31
0.0
  0
LINE
  5
191
100
AcDbEntity
  8
ZUWAKU
  6
CONTINUOUS
 62
      32
100
AcDbLine
 10
-184.78964054
 20
-551.75511816
 30
0.0
 11
-185.26669555
 21
-552.23217317
 31
0.0
  0
LINE
  5
192
100
AcDbEntity
  8
ZUWAKU
  6
CONTINUOUS
 62
      32
100
AcDbLine
 10
-215.925
 20
-532.48217317
 30
0.0
 11
-220.425
 21
-536.98217317
 31
0.0
  0
LINE
  5
193
100
AcDbEntity
  8
ZUWAKU
  6
CONTINUOUS
 62
      32
100
AcDbLine
 10
-217.05637085
 20
-532.48217317
 30
0.0
 11
-221.55637085
 21
-536.98217317
 31
0.0
  0
LINE
  5
194
100
AcDbEntity
  8
ZUWAKU
  6
CONTINUOUS
 62
      32
100
AcDbLine
 10
-218.1877417
 20
-532.48217317
 30
0.0
 11
-222.6877417
 21
-536.98217317
 31
0.0
  0
LINE
  5
195
100
AcDbEntity
  8
ZUWAKU
  6
CONTINUOUS
 62
      32
100
AcDbLine
 10
-219.31911255
 20
-532.48217317
 30
0.0
 11
-222.56056474
 21
-535.72362537
 31
0.0
  0
LINE
  5
196
100
AcDbEntity
  8
ZUWAKU
  6
CONTINUOUS
 62
      32
100
AcDbLine
 10
-220.4504834
 20
-532.48217317
 30
0.0
 11
-221.84060147
 21
-533.87229125
 31
0.0
  0
LINE
  5
197
100
AcDbEntity
  8
ZUWAKU
  6
CONTINUOUS
 62
      32
100
AcDbLine
 10
-214.79362915
 20
-532.48217317
 30
0.0
 11
-219.29362915
 21
-536.98217317
 31
0.0
  0
LINE
  5
198
100
AcDbEntity
  8
ZUWAKU
  6
CONTINUOUS
 62
      32
100
AcDbLine
 10
-213.6622583
 20
-532.48217317
 30
0.0
 11
-218.1622583
 21
-536.98217317
 31
0.0
  0
LINE
  5
199
100
AcDbEntity
  8
ZUWAKU
  6
CONTINUOUS
 62
      32
100
AcDbLine
 10
-213.68455627
 20
-533.635842
 30
0.0
 11
-217.03088745
 21
-536.98217317
 31
0.0
  0
LINE
  5
19A
100
AcDbEntity
  8
ZUWAKU
  6
CONTINUOUS
 62
      32
100
AcDbLine
 10
-214.2502417
 20
-535.33289827
 30
0.0
 11
-215.8995166
 21
-536.98217317
 31
0.0
  0
LINE
  5
19B
100
AcDbEntity
  8
ZUWAKU
  6
CONTINUOUS
 62
      32
100
AcDbLine
 10
-214.76814575
 20
-536.98217317
 30
0.0
 11
-214.81592712
 21
-537.02995455
 31
0.0
  0
LINE
  5
19C
100
AcDbEntity
  8
ZUWAKU
  6
CONTINUOUS
 62
      32
100
AcDbLine
 10
-217.425
 20
-545.98217317
 30
0.0
 11
-223.675
 21
-552.23217317
 31
0.0
  0
LINE
  5
19D
100
AcDbEntity
  8
ZUWAKU
  6
CONTINUOUS
 62
      32
100
AcDbLine
 10
-218.55637085
 20
-545.98217317
 30
0.0
 11
-224.80637085
 21
-552.23217317
 31
0.0
  0
LINE
  5
19E
100
AcDbEntity
  8
ZUWAKU
  6
CONTINUOUS
 62
      32
100
AcDbLine
 10
-219.6877417
 20
-545.98217317
 30
0.0
 11
-225.9377417
 21
-552.23217317
 31
0.0
  0
LINE
  5
19F
100
AcDbEntity
  8
ZUWAKU
  6
CONTINUOUS
 62
      32
100
AcDbLine
 10
-220.81911255
 20
-545.98217317
 30
0.0
 11
-227.06911255
 21
-552.23217317
 31
0.0
  0
LINE
  5
1A0
100
AcDbEntity
  8
ZUWAKU
  6
CONTINUOUS
 62
      32
100
AcDbLine
 10
-221.9504834
 20
-545.98217317
 30
0.0
 11
-228.2004834
 21
-552.23217317
 31
0.0
  0
LINE
  5
1A1
100
AcDbEntity
  8
ZUWAKU
  6
CONTINUOUS
 62
      32
100
AcDbLine
 10
-223.08185425
 20
-545.98217317
 30
0.0
 11
-228.11020698
 21
-551.01052591
 31
0.0
  0
LINE
  5
1A2
100
AcDbEntity
  8
ZUWAKU
  6
CONTINUOUS
 62
      32
100
AcDbLine
 10
-224.2132251
 20
-545.98217317
 30
0.0
 11
-227.47381088
 21
-549.24275896
 31
0.0
  0
LINE
  5
1A3
100
AcDbEntity
  8
ZUWAKU
  6
CONTINUOUS
 62
      32
100
AcDbLine
 10
-225.34459595
 20
-545.98217317
 30
0.0
 11
-226.83741478
 21
-547.474992
 31
0.0
  0
LINE
  5
1A4
100
AcDbEntity
  8
ZUWAKU
  6
CONTINUOUS
 62
      32
100
AcDbLine
 10
-216.29362915
 20
-545.98217317
 30
0.0
 11
-222.54362915
 21
-552.23217317
 31
0.0
  0
LINE
  5
1A5
100
AcDbEntity
  8
ZUWAKU
  6
CONTINUOUS
 62
      32
100
AcDbLine
 10
-215.1622583
 20
-545.98217317
 30
0.0
 11
-221.4122583
 21
-552.23217317
 31
0.0
  0
LINE
  5
1A6
100
AcDbEntity
  8
ZUWAKU
  6
CONTINUOUS
 62
      32
100
AcDbLine
 10
-204.28088745
 20
-536.23217317
 30
0.0
 11
-205.93694534
 21
-537.88823107
 31
0.0
  0
LINE
  5
1A7
100
AcDbEntity
  8
ZUWAKU
  6
CONTINUOUS
 62
      32
100
AcDbLine
 10
-213.7617749
 20
-545.71306063
 30
0.0
 11
-220.28088745
 21
-552.23217317
 31
0.0
  0
LINE
  5
1A8
100
AcDbEntity
  8
ZUWAKU
  6
CONTINUOUS
 62
      32
100
AcDbLine
 10
-203.1495166
 20
-536.23217317
 30
0.0
 11
-206.95128907
 21
-540.03394564
 31
0.0
  0
LINE
  5
1A9
100
AcDbEntity
  8
ZUWAKU
  6
CONTINUOUS
 62
      32
100
AcDbLine
 10
-211.4990332
 20
-544.58168978
 30
0.0
 11
-219.1495166
 21
-552.23217317
 31
0.0
  0
LINE
  5
1AA
100
AcDbEntity
  8
ZUWAKU
  6
CONTINUOUS
 62
      32
100
AcDbLine
 10
-202.98396571
 20
-537.19799313
 30
0.0
 11
-218.01814575
 21
-552.23217317
 31
0.0
  0
LINE
  5
1AB
100
AcDbEntity
  8
ZUWAKU
  6
CONTINUOUS
 62
      32
100
AcDbLine
 10
-203.25017061
 20
-538.59556889
 30
0.0
 11
-216.8867749
 21
-552.23217317
 31
0.0
  0
LINE
  5
1AC
100
AcDbEntity
  8
ZUWAKU
  6
CONTINUOUS
 62
      32
100
AcDbLine
 10
-203.51637552
 20
-539.99314464
 30
0.0
 11
-215.75540405
 21
-552.23217317
 31
0.0
  0
LINE
  5
1AD
100
AcDbEntity
  8
ZUWAKU
  6
CONTINUOUS
 62
      32
100
AcDbLine
 10
-203.78258042
 20
-541.3907204
 30
0.0
 11
-214.08325976
 21
-551.69139974
 31
0.0
  0
LINE
  5
1AE
100
AcDbEntity
  8
ZUWAKU
  6
CONTINUOUS
 62
      32
100
AcDbLine
 10
-205.38600647
 20
-544.1255173
 30
0.0
 11
-212.04679223
 21
-550.78630306
 31
0.0
  0
LINE
  5
1AF
100
AcDbEntity
  8
ZUWAKU
  6
CONTINUOUS
 62
      32
100
AcDbLine
 10
-226.575
 20
-532.48217317
 30
0.0
 11
-244.54375
 21
-550.45092317
 31
0.0
  0
LINE
  5
1B0
100
AcDbEntity
  8
ZUWAKU
  6
CONTINUOUS
 62
      32
100
AcDbLine
 10
-227.70637085
 20
-532.48217317
 30
0.0
 11
-243.88378367
 21
-548.659586
 31
0.0
  0
LINE
  5
1B1
100
AcDbEntity
  8
ZUWAKU
  6
CONTINUOUS
 62
      32
100
AcDbLine
 10
-228.8377417
 20
-532.48217317
 30
0.0
 11
-243.22381734
 21
-546.86824882
 31
0.0
  0
LINE
  5
1B2
100
AcDbEntity
  8
ZUWAKU
  6
CONTINUOUS
 62
      32
100
AcDbLine
 10
-229.96911255
 20
-532.48217317
 30
0.0
 11
-242.56385101
 21
-545.07691164
 31
0.0
  0
LINE
  5
1B3
100
AcDbEntity
  8
ZUWAKU
  6
CONTINUOUS
 62
      32
100
AcDbLine
 10
-231.1004834
 20
-532.48217317
 30
0.0
 11
-241.90388468
 21
-543.28557446
 31
0.0
  0
LINE
  5
1B4
100
AcDbEntity
  8
ZUWAKU
  6
CONTINUOUS
 62
      32
100
AcDbLine
 10
-232.23185425
 20
-532.48217317
 30
0.0
 11
-233.031722
 21
-533.28204093
 31
0.0
  0
LINE
  5
1B5
100
AcDbEntity
  8
ZUWAKU
  6
CONTINUOUS
 62
      32
100
AcDbLine
 10
-237.44324494
 20
-537.69356386
 30
0.0
 11
-242.48185425
 21
-542.73217317
 31
0.0
  0
LINE
  5
1B6
100
AcDbEntity
  8
ZUWAKU
  6
CONTINUOUS
 62
      32
100
AcDbLine
 10
-239.42314392
 20
-538.542092
 30
0.0
 11
-243.6132251
 21
-542.73217317
 31
0.0
  0
LINE
  5
1B7
100
AcDbEntity
  8
ZUWAKU
  6
CONTINUOUS
 62
      32
100
AcDbLine
 10
-241.03997895
 20
-539.02755617
 30
0.0
 11
-244.74459595
 21
-542.73217317
 31
0.0
  0
LINE
  5
1B8
100
AcDbEntity
  8
ZUWAKU
  6
CONTINUOUS
 62
      32
100
AcDbLine
 10
-242.2656307
 20
-539.12183707
 30
0.0
 11
-245.8759668
 21
-542.73217317
 31
0.0
  0
LINE
  5
1B9
100
AcDbEntity
  8
ZUWAKU
  6
CONTINUOUS
 62
      32
100
AcDbLine
 10
-243.49128245
 20
-539.21611798
 30
0.0
 11
-247.00733765
 21
-542.73217317
 31
0.0
  0
LINE
  5
1BA
100
AcDbEntity
  8
ZUWAKU
  6
CONTINUOUS
 62
      32
100
AcDbLine
 10
-244.6387085
 20
-539.23217317
 30
0.0
 11
-248.1387085
 21
-542.73217317
 31
0.0
  0
LINE
  5
1BB
100
AcDbEntity
  8
ZUWAKU
  6
CONTINUOUS
 62
      32
100
AcDbLine
 10
-245.77007935
 20
-539.23217317
 30
0.0
 11
-249.27007935
 21
-542.73217317
 31
0.0
  0
LINE
  5
1BC
100
AcDbEntity
  8
ZUWAKU
  6
CONTINUOUS
 62
      32
100
AcDbLine
 10
-246.9014502
 20
-539.23217317
 30
0.0
 11
-249.31030545
 21
-541.64102842
 31
0.0
  0
LINE
  5
1BD
100
AcDbEntity
  8
ZUWAKU
  6
CONTINUOUS
 62
      32
100
AcDbLine
 10
-248.03282105
 20
-539.23217317
 30
0.0
 11
-248.68176608
 21
-539.88111821
 31
0.0
  0
LINE
  5
1BE
100
AcDbEntity
  8
ZUWAKU
  6
CONTINUOUS
 62
      32
100
AcDbLine
 10
-225.44362915
 20
-532.48217317
 30
0.0
 11
-245.20371633
 21
-552.24226035
 31
0.0
  0
LINE
  5
1BF
100
AcDbEntity
  8
ZUWAKU
  6
CONTINUOUS
 62
      32
100
AcDbLine
 10
-224.3122583
 20
-532.48217317
 30
0.0
 11
-233.00103977
 21
-541.17095464
 31
0.0
  0
LINE
  5
1C0
100
AcDbEntity
  8
ZUWAKU
  6
CONTINUOUS
 62
      32
100
AcDbLine
 10
-233.27124571
 20
-541.44116058
 30
0.0
 11
-244.0622583
 21
-552.23217317
 31
0.0
  0
LINE
  5
1C1
100
AcDbEntity
  8
ZUWAKU
  6
CONTINUOUS
 62
      32
100
AcDbLine
 10
-223.18088745
 20
-532.48217317
 30
0.0
 11
-231.36683743
 21
-540.66812315
 31
0.0
  0
LINE
  5
1C2
100
AcDbEntity
  8
ZUWAKU
  6
CONTINUOUS
 62
      32
100
AcDbLine
 10
-233.85643753
 20
-543.15772325
 30
0.0
 11
-242.93088745
 21
-552.23217317
 31
0.0
  0
LINE
  5
1C3
100
AcDbEntity
  8
ZUWAKU
  6
CONTINUOUS
 62
      32
100
AcDbLine
 10
-224.18612863
 20
-534.6187852
 30
0.0
 11
-229.39822753
 21
-539.83088411
 31
0.0
  0
LINE
  5
1C4
100
AcDbEntity
  8
ZUWAKU
  6
CONTINUOUS
 62
      32
100
AcDbLine
 10
-234.44162934
 20
-544.87428592
 30
0.0
 11
-241.7995166
 21
-552.23217317
 31
0.0
  0
LINE
  5
1C5
100
AcDbEntity
  8
ZUWAKU
  6
CONTINUOUS
 62
      32
100
AcDbLine
 10
-235.02682116
 20
-546.59084859
 30
0.0
 11
-240.66814575
 21
-552.23217317
 31
0.0
  0
LINE
  5
1C6
100
AcDbEntity
  8
ZUWAKU
  6
CONTINUOUS
 62
      32
100
AcDbLine
 10
-235.61201298
 20
-548.30741126
 30
0.0
 11
-239.5367749
 21
-552.23217317
 31
0.0
  0
LINE
  5
1C7
100
AcDbEntity
  8
ZUWAKU
  6
CONTINUOUS
 62
      32
100
AcDbLine
 10
-236.1972048
 20
-550.02397393
 30
0.0
 11
-238.40540405
 21
-552.23217317
 31
0.0
  0
LINE
  5
1C8
100
AcDbEntity
  8
ZUWAKU
  6
CONTINUOUS
 62
      32
100
AcDbLine
 10
-236.78239662
 20
-551.74053659
 30
0.0
 11
-237.2740332
 21
-552.23217317
 31
0.0
  0
LINE
  5
1C9
100
AcDbEntity
  8
ZUWAKU
  6
CONTINUOUS
 62
      32
100
AcDbLine
 10
-256.275
 20
-532.48217317
 30
0.0
 11
-260.775
 21
-536.98217317
 31
0.0
  0
LINE
  5
1CA
100
AcDbEntity
  8
ZUWAKU
  6
CONTINUOUS
 62
      32
100
AcDbLine
 10
-257.40637085
 20
-532.48217317
 30
0.0
 11
-261.90637085
 21
-536.98217317
 31
0.0
  0
LINE
  5
1CB
100
AcDbEntity
  8
ZUWAKU
  6
CONTINUOUS
 62
      32
100
AcDbLine
 10
-258.5377417
 20
-532.48217317
 30
0.0
 11
-263.0377417
 21
-536.98217317
 31
0.0
  0
LINE
  5
1CC
100
AcDbEntity
  8
ZUWAKU
  6
CONTINUOUS
 62
      32
100
AcDbLine
 10
-259.66911255
 20
-532.48217317
 30
0.0
 11
-264.16911255
 21
-536.98217317
 31
0.0
  0
LINE
  5
1CD
100
AcDbEntity
  8
ZUWAKU
  6
CONTINUOUS
 62
      32
100
AcDbLine
 10
-260.8004834
 20
-532.48217317
 30
0.0
 11
-265.3004834
 21
-536.98217317
 31
0.0
  0
LINE
  5
1CE
100
AcDbEntity
  8
ZUWAKU
  6
CONTINUOUS
 62
      32
100
AcDbLine
 10
-261.93185425
 20
-532.48217317
 30
0.0
 11
-266.43185425
 21
-536.98217317
 31
0.0
  0
LINE
  5
1CF
100
AcDbEntity
  8
ZUWAKU
  6
CONTINUOUS
 62
      32
100
AcDbLine
 10
-263.0632251
 20
-532.48217317
 30
0.0
 11
-267.5632251
 21
-536.98217317
 31
0.0
  0
LINE
  5
1D0
100
AcDbEntity
  8
ZUWAKU
  6
CONTINUOUS
 62
      32
100
AcDbLine
 10
-264.19459595
 20
-532.48217317
 30
0.0
 11
-268.25270203
 21
-536.54027925
 31
0.0
  0
LINE
  5
1D1
100
AcDbEntity
  8
ZUWAKU
  6
CONTINUOUS
 62
      32
100
AcDbLine
 10
-265.3259668
 20
-532.48217317
 30
0.0
 11
-267.6870166
 21
-534.84322298
 31
0.0
  0
LINE
  5
1D2
100
AcDbEntity
  8
ZUWAKU
  6
CONTINUOUS
 62
      32
100
AcDbLine
 10
-266.45733765
 20
-532.48217317
 30
0.0
 11
-267.12133118
 21
-533.1461667
 31
0.0
  0
LINE
  5
1D3
100
AcDbEntity
  8
ZUWAKU
  6
CONTINUOUS
 62
      32
100
AcDbLine
 10
-255.14362915
 20
-532.48217317
 30
0.0
 11
-259.64362915
 21
-536.98217317
 31
0.0
  0
LINE
  5
1D4
100
AcDbEntity
  8
ZUWAKU
  6
CONTINUOUS
 62
      32
100
AcDbLine
 10
-254.0122583
 20
-532.48217317
 30
0.0
 11
-258.5122583
 21
-536.98217317
 31
0.0
  0
LINE
  5
1D5
100
AcDbEntity
  8
ZUWAKU
  6
CONTINUOUS
 62
      32
100
AcDbLine
 10
-252.88088745
 20
-532.48217317
 30
0.0
 11
-257.38088745
 21
-536.98217317
 31
0.0
  0
LINE
  5
1D6
100
AcDbEntity
  8
ZUWAKU
  6
CONTINUOUS
 62
      32
100
AcDbLine
 10
-251.7495166
 20
-532.48217317
 30
0.0
 11
-256.2495166
 21
-536.98217317
 31
0.0
  0
LINE
  5
1D7
100
AcDbEntity
  8
ZUWAKU
  6
CONTINUOUS
 62
      32
100
AcDbLine
 10
-250.61814575
 20
-532.48217317
 30
0.0
 11
-255.11814575
 21
-536.98217317
 31
0.0
  0
LINE
  5
1D8
100
AcDbEntity
  8
ZUWAKU
  6
CONTINUOUS
 62
      32
100
AcDbLine
 10
-249.4867749
 20
-532.48217317
 30
0.0
 11
-253.9867749
 21
-536.98217317
 31
0.0
  0
LINE
  5
1D9
100
AcDbEntity
  8
ZUWAKU
  6
CONTINUOUS
 62
      32
100
AcDbLine
 10
-248.79729797
 20
-532.9240671
 30
0.0
 11
-252.85540405
 21
-536.98217317
 31
0.0
  0
LINE
  5
1DA
100
AcDbEntity
  8
ZUWAKU
  6
CONTINUOUS
 62
      32
100
AcDbLine
 10
-249.3629834
 20
-534.62112337
 30
0.0
 11
-251.7240332
 21
-536.98217317
 31
0.0
  0
LINE
  5
1DB
100
AcDbEntity
  8
ZUWAKU
  6
CONTINUOUS
 62
      32
100
AcDbLine
 10
-249.92866882
 20
-536.31817965
 30
0.0
 11
-250.59266235
 21
-536.98217317
 31
0.0
  0
LINE
  5
1DC
100
AcDbEntity
  8
ZUWAKU
  6
CONTINUOUS
 62
      32
100
AcDbLine
 10
-255.9
 20
-539.23217317
 30
0.0
 11
-259.4
 21
-542.73217317
 31
0.0
  0
LINE
  5
1DD
100
AcDbEntity
  8
ZUWAKU
  6
CONTINUOUS
 62
      32
100
AcDbLine
 10
-265.15
 20
-548.48217317
 30
0.0
 11
-268.9
 21
-552.23217317
 31
0.0
  0
LINE
  5
1DE
100
AcDbEntity
  8
ZUWAKU
  6
CONTINUOUS
 62
      32
100
AcDbLine
 10
-257.03137085
 20
-539.23217317
 30
0.0
 11
-260.53137085
 21
-542.73217317
 31
0.0
  0
LINE
  5
1DF
100
AcDbEntity
  8
ZUWAKU
  6
CONTINUOUS
 62
      32
100
AcDbLine
 10
-266.28137085
 20
-548.48217317
 30
0.0
 11
-270.03137085
 21
-552.23217317
 31
0.0
  0
LINE
  5
1E0
100
AcDbEntity
  8
ZUWAKU
  6
CONTINUOUS
 62
      32
100
AcDbLine
 10
-258.1627417
 20
-539.23217317
 30
0.0
 11
-261.6627417
 21
-542.73217317
 31
0.0
  0
LINE
  5
1E1
100
AcDbEntity
  8
ZUWAKU
  6
CONTINUOUS
 62
      32
100
AcDbLine
 10
-267.4127417
 20
-548.48217317
 30
0.0
 11
-271.1627417
 21
-552.23217317
 31
0.0
  0
LINE
  5
1E2
100
AcDbEntity
  8
ZUWAKU
  6
CONTINUOUS
 62
      32
100
AcDbLine
 10
-259.29411255
 20
-539.23217317
 30
0.0
 11
-262.79411255
 21
-542.73217317
 31
0.0
  0
LINE
  5
1E3
100
AcDbEntity
  8
ZUWAKU
  6
CONTINUOUS
 62
      32
100
AcDbLine
 10
-268.54411255
 20
-548.48217317
 30
0.0
 11
-272.29411255
 21
-552.23217317
 31
0.0
  0
LINE
  5
1E4
100
AcDbEntity
  8
ZUWAKU
  6
CONTINUOUS
 62
      32
100
AcDbLine
 10
-260.4254834
 20
-539.23217317
 30
0.0
 11
-263.9254834
 21
-542.73217317
 31
0.0
  0
LINE
  5
1E5
100
AcDbEntity
  8
ZUWAKU
  6
CONTINUOUS
 62
      32
100
AcDbLine
 10
-269.6754834
 20
-548.48217317
 30
0.0
 11
-273.4254834
 21
-552.23217317
 31
0.0
  0
LINE
  5
1E6
100
AcDbEntity
  8
ZUWAKU
  6
CONTINUOUS
 62
      32
100
AcDbLine
 10
-261.55685425
 20
-539.23217317
 30
0.0
 11
-265.05685425
 21
-542.73217317
 31
0.0
  0
LINE
  5
1E7
100
AcDbEntity
  8
ZUWAKU
  6
CONTINUOUS
 62
      32
100
AcDbLine
 10
-270.80685425
 20
-548.48217317
 30
0.0
 11
-273.46209717
 21
-551.13741609
 31
0.0
  0
LINE
  5
1E8
100
AcDbEntity
  8
ZUWAKU
  6
CONTINUOUS
 62
      32
100
AcDbLine
 10
-262.6882251
 20
-539.23217317
 30
0.0
 11
-266.1882251
 21
-542.73217317
 31
0.0
  0
LINE
  5
1E9
100
AcDbEntity
  8
ZUWAKU
  6
CONTINUOUS
 62
      32
100
AcDbLine
 10
-271.9382251
 20
-548.48217317
 30
0.0
 11
-272.70784993
 21
-549.25179801
 31
0.0
  0
LINE
  5
1EA
100
AcDbEntity
  8
ZUWAKU
  6
CONTINUOUS
 62
      32
100
AcDbLine
 10
-263.81959595
 20
-539.23217317
 30
0.0
 11
-267.31959595
 21
-542.73217317
 31
0.0
  0
LINE
  5
1EB
100
AcDbEntity
  8
ZUWAKU
  6
CONTINUOUS
 62
      32
100
AcDbLine
 10
-264.9509668
 20
-539.23217317
 30
0.0
 11
-268.4509668
 21
-542.73217317
 31
0.0
  0
LINE
  5
1EC
100
AcDbEntity
  8
ZUWAKU
  6
CONTINUOUS
 62
      32
100
AcDbLine
 10
-266.08233765
 20
-539.23217317
 30
0.0
 11
-269.58233765
 21
-542.73217317
 31
0.0
  0
LINE
  5
1ED
100
AcDbEntity
  8
ZUWAKU
  6
CONTINUOUS
 62
      32
100
AcDbLine
 10
-267.2137085
 20
-539.23217317
 30
0.0
 11
-269.5745166
 21
-541.59298128
 31
0.0
  0
LINE
  5
1EE
100
AcDbEntity
  8
ZUWAKU
  6
CONTINUOUS
 62
      32
100
AcDbLine
 10
-268.34507935
 20
-539.23217317
 30
0.0
 11
-269.12196826
 21
-540.00906209
 31
0.0
  0
LINE
  5
1EF
100
AcDbEntity
  8
ZUWAKU
  6
CONTINUOUS
 62
      32
100
AcDbLine
 10
-254.76862915
 20
-539.23217317
 30
0.0
 11
-259.85254834
 21
-544.31609236
 31
0.0
  0
LINE
  5
1F0
100
AcDbEntity
  8
ZUWAKU
  6
CONTINUOUS
 62
      32
100
AcDbLine
 10
-263.69020203
 20
-548.15374605
 30
0.0
 11
-267.76862915
 21
-552.23217317
 31
0.0
  0
LINE
  5
1F1
100
AcDbEntity
  8
ZUWAKU
  6
CONTINUOUS
 62
      32
100
AcDbLine
 10
-253.6372583
 20
-539.23217317
 30
0.0
 11
-266.6372583
 21
-552.23217317
 31
0.0
  0
LINE
  5
1F2
100
AcDbEntity
  8
ZUWAKU
  6
CONTINUOUS
 62
      32
100
AcDbLine
 10
-252.50588745
 20
-539.23217317
 30
0.0
 11
-265.50588745
 21
-552.23217317
 31
0.0
  0
LINE
  5
1F3
100
AcDbEntity
  8
ZUWAKU
  6
CONTINUOUS
 62
      32
100
AcDbLine
 10
-251.3745166
 20
-539.23217317
 30
0.0
 11
-264.3745166
 21
-552.23217317
 31
0.0
  0
LINE
  5
1F4
100
AcDbEntity
  8
ZUWAKU
  6
CONTINUOUS
 62
      32
100
AcDbLine
 10
-251.27534529
 20
-540.26437271
 30
0.0
 11
-263.24314575
 21
-552.23217317
 31
0.0
  0
LINE
  5
1F5
100
AcDbEntity
  8
ZUWAKU
  6
CONTINUOUS
 62
      32
100
AcDbLine
 10
-251.92184291
 20
-542.04224119
 30
0.0
 11
-262.1117749
 21
-552.23217317
 31
0.0
  0
LINE
  5
1F6
100
AcDbEntity
  8
ZUWAKU
  6
CONTINUOUS
 62
      32
100
AcDbLine
 10
-252.56834054
 20
-543.82010967
 30
0.0
 11
-260.92387207
 21
-552.17564119
 31
0.0
  0
LINE
  5
1F7
100
AcDbEntity
  8
ZUWAKU
  6
CONTINUOUS
 62
      32
100
AcDbLine
 10
-253.21483817
 20
-545.59797815
 30
0.0
 11
-259.4153776
 21
-551.79851758
 31
0.0
  0
LINE
  5
1F8
100
AcDbEntity
  8
ZUWAKU
  6
CONTINUOUS
 62
      32
100
AcDbLine
 10
-253.8613358
 20
-547.37584662
 30
0.0
 11
-257.2853247
 21
-550.79983553
 31
0.0
  0
LINE
  5
1F9
100
AcDbEntity
  8
ZUWAKU
  6
CONTINUOUS
 62
      32
100
AcDbLine
 10
-269.95
 20
-532.48217317
 30
0.0
 11
-280.309375
 21
-542.84154817
 31
0.0
  0
LINE
  5
1FA
100
AcDbEntity
  8
ZUWAKU
  6
CONTINUOUS
 62
      32
100
AcDbLine
 10
-285.87857143
 20
-548.4107446
 30
0.0
 11
-289.7
 21
-552.23217317
 31
0.0
  0
LINE
  5
1FB
100
AcDbEntity
  8
ZUWAKU
  6
CONTINUOUS
 62
      32
100
AcDbLine
 10
-271.08137085
 20
-532.48217317
 30
0.0
 11
-279.63762356
 21
-541.03842588
 31
0.0
  0
LINE
  5
1FC
100
AcDbEntity
  8
ZUWAKU
  6
CONTINUOUS
 62
      32
100
AcDbLine
 10
-287.08137085
 20
-548.48217317
 30
0.0
 11
-289.50931458
 21
-550.9101169
 31
0.0
  0
LINE
  5
1FD
100
AcDbEntity
  8
ZUWAKU
  6
CONTINUOUS
 62
      32
100
AcDbLine
 10
-272.2127417
 20
-532.48217317
 30
0.0
 11
-278.96587212
 21
-539.23530359
 31
0.0
  0
LINE
  5
1FE
100
AcDbEntity
  8
ZUWAKU
  6
CONTINUOUS
 62
      32
100
AcDbLine
 10
-288.2127417
 20
-548.48217317
 30
0.0
 11
-288.94362915
 21
-549.21306063
 31
0.0
  0
LINE
  5
1FF
100
AcDbEntity
  8
ZUWAKU
  6
CONTINUOUS
 62
      32
100
AcDbLine
 10
-273.34411255
 20
-532.48217317
 30
0.0
 11
-278.29412067
 21
-537.4321813
 31
0.0
  0
LINE
  5
200
100
AcDbEntity
  8
ZUWAKU
  6
CONTINUOUS
 62
      32
100
AcDbLine
 10
-274.4754834
 20
-532.48217317
 30
0.0
 11
-277.62236923
 21
-535.62905901
 31
0.0
  0
LINE
  5
201
100
AcDbEntity
  8
ZUWAKU
  6
CONTINUOUS
 62
      32
100
AcDbLine
 10
-275.60685425
 20
-532.48217317
 30
0.0
 11
-276.95061779
 21
-533.82593671
 31
0.0
  0
LINE
  5
202
100
AcDbEntity
  8
ZUWAKU
  6
CONTINUOUS
 62
      32
100
AcDbLine
 10
-270.15198505
 20
-533.81552908
 30
0.0
 11
-280.98112644
 21
-544.64467047
 31
0.0
  0
LINE
  5
203
100
AcDbEntity
  8
ZUWAKU
  6
CONTINUOUS
 62
      32
100
AcDbLine
 10
-284.58557617
 20
-548.2491202
 30
0.0
 11
-288.56862915
 21
-552.23217317
 31
0.0
  0
LINE
  5
204
100
AcDbEntity
  8
ZUWAKU
  6
CONTINUOUS
 62
      32
100
AcDbLine
 10
-270.73217523
 20
-535.52709011
 30
0.0
 11
-282.4245166
 21
-547.21943148
 31
0.0
  0
LINE
  5
205
100
AcDbEntity
  8
ZUWAKU
  6
CONTINUOUS
 62
      32
100
AcDbLine
 10
-282.47123617
 20
-547.26615104
 30
0.0
 11
-287.4372583
 21
-552.23217317
 31
0.0
  0
LINE
  5
206
100
AcDbEntity
  8
ZUWAKU
  6
CONTINUOUS
 62
      32
100
AcDbLine
 10
-271.31236541
 20
-537.23865113
 30
0.0
 11
-286.30588745
 21
-552.23217317
 31
0.0
  0
LINE
  5
207
100
AcDbEntity
  8
ZUWAKU
  6
CONTINUOUS
 62
      32
100
AcDbLine
 10
-271.89255559
 20
-538.95021216
 30
0.0
 11
-285.1745166
 21
-552.23217317
 31
0.0
  0
LINE
  5
208
100
AcDbEntity
  8
ZUWAKU
  6
CONTINUOUS
 62
      32
100
AcDbLine
 10
-272.47274577
 20
-540.66177319
 30
0.0
 11
-284.04314575
 21
-552.23217317
 31
0.0
  0
LINE
  5
209
100
AcDbEntity
  8
ZUWAKU
  6
CONTINUOUS
 62
      32
100
AcDbLine
 10
-273.05293595
 20
-542.37333422
 30
0.0
 11
-282.82419433
 21
-552.14459261
 31
0.0
  0
LINE
  5
20A
100
AcDbEntity
  8
ZUWAKU
  6
CONTINUOUS
 62
      32
100
AcDbLine
 10
-273.63312613
 20
-544.08489525
 30
0.0
 11
-281.56711561
 21
-552.01888474
 31
0.0
  0
LINE
  5
20B
100
AcDbEntity
  8
ZUWAKU
  6
CONTINUOUS
 62
      32
100
AcDbLine
 10
-274.21331631
 20
-545.79645628
 30
0.0
 11
-279.86505533
 21
-551.44819531
 31
0.0
  0
LINE
  5
20C
100
AcDbEntity
  8
ZUWAKU
  6
CONTINUOUS
 62
      32
100
AcDbLine
 10
-281.975
 20
-533.88217317
 30
0.0
 11
-291.22016129
 21
-543.12733447
 31
0.0
  0
LINE
  5
20D
100
AcDbEntity
  8
ZUWAKU
  6
CONTINUOUS
 62
      32
100
AcDbLine
 10
-281.70637085
 20
-532.48217317
 30
0.0
 11
-290.59973211
 21
-541.37553444
 31
0.0
  0
LINE
  5
20E
100
AcDbEntity
  8
ZUWAKU
  6
CONTINUOUS
 62
      32
100
AcDbLine
 10
-282.8377417
 20
-532.48217317
 30
0.0
 11
-289.97930294
 21
-539.62373441
 31
0.0
  0
LINE
  5
20F
100
AcDbEntity
  8
ZUWAKU
  6
CONTINUOUS
 62
      32
100
AcDbLine
 10
-283.96911255
 20
-532.48217317
 30
0.0
 11
-289.35887376
 21
-537.87193439
 31
0.0
  0
LINE
  5
210
100
AcDbEntity
  8
ZUWAKU
  6
CONTINUOUS
 62
      32
100
AcDbLine
 10
-285.1004834
 20
-532.48217317
 30
0.0
 11
-288.73844459
 21
-536.12013436
 31
0.0
  0
LINE
  5
211
100
AcDbEntity
  8
ZUWAKU
  6
CONTINUOUS
 62
      32
100
AcDbLine
 10
-286.23185425
 20
-532.48217317
 30
0.0
 11
-288.11801541
 21
-534.36833434
 31
0.0
  0
LINE
  5
212
100
AcDbEntity
  8
ZUWAKU
  6
CONTINUOUS
 62
      32
100
AcDbLine
 10
-287.3632251
 20
-532.48217317
 30
0.0
 11
-287.49758624
 21
-532.61653431
 31
0.0
  0
LINE
  5
213
100
AcDbEntity
  8
ZUWAKU
  6
CONTINUOUS
 62
      32
100
AcDbLine
 10
-282.65382251
 20
-535.69236653
 30
0.0
 11
-291.44362915
 21
-544.48217317
 31
0.0
  0
LINE
  5
214
100
AcDbEntity
  8
ZUWAKU
  6
CONTINUOUS
 62
      32
100
AcDbLine
 10
-283.33264502
 20
-537.50255989
 30
0.0
 11
-290.3122583
 21
-544.48217317
 31
0.0
  0
LINE
  5
215
100
AcDbEntity
  8
ZUWAKU
  6
CONTINUOUS
 62
      32
100
AcDbLine
 10
-284.01146753
 20
-539.31275325
 30
0.0
 11
-289.18088745
 21
-544.48217317
 31
0.0
  0
LINE
  5
216
100
AcDbEntity
  8
ZUWAKU
  6
CONTINUOUS
 62
      32
100
AcDbLine
 10
-284.69029004
 20
-541.12294661
 30
0.0
 11
-288.0495166
 21
-544.48217317
 31
0.0
  0
LINE
  5
217
100
AcDbEntity
  8
ZUWAKU
  6
CONTINUOUS
 62
      32
100
AcDbLine
 10
-285.36911255
 20
-542.93313997
 30
0.0
 11
-286.91814575
 21
-544.48217317
 31
0.0
  0
LINE
  5
218
100
AcDbEntity
  8
ZUWAKU
  6
CONTINUOUS
 62
      32
100
AcDbLine
 10
392.0
 20
480.51782683
 30
0.0
 11
414.0
 21
480.51782683
 31
0.0
  0
LINE
  5
219
100
AcDbEntity
  8
ZUWAKU
  6
CONTINUOUS
 62
      32
100
AcDbLine
 10
392.0
 20
460.51782683
 30
0.0
 11
414.0
 21
460.51782683
 31
0.0
  0
LINE
  5
21A
100
AcDbEntity
  8
ZUWAKU
  6
CONTINUOUS
 62
      32
100
AcDbLine
 10
414.0
 20
480.51782683
 30
0.0
 11
414.0
 21
460.51782683
 31
0.0
  0
LINE
  5
21B
100
AcDbEntity
  8
ZUWAKU
  6
CONTINUOUS
 62
      32
100
AcDbLine
 10
392.0
 20
480.51782683
 30
0.0
 11
392.0
 21
460.51782683
 31
0.0
  0
LINE
  5
21C
100
AcDbEntity
  8
ZUWAKU
  6
CONTINUOUS
 62
      32
100
AcDbLine
 10
414.0
 20
460.5874661
 30
0.0
 11
413.93036072
 21
460.51782683
 31
0.0
  0
LINE
  5
21D
100
AcDbEntity
  8
ZUWAKU
  6
CONTINUOUS
 62
      32
100
AcDbLine
 10
402.26155271
 20
480.51782683
 30
0.0
 11
392.0
 21
470.25627412
 31
0.0
  0
LINE
  5
21E
100
AcDbEntity
  8
ZUWAKU
  6
CONTINUOUS
 62
      32
100
AcDbLine
 10
401.13018186
 20
480.51782683
 30
0.0
 11
392.0
 21
471.38764497
 31
0.0
  0
LINE
  5
21F
100
AcDbEntity
  8
ZUWAKU
  6
CONTINUOUS
 62
      32
100
AcDbLine
 10
399.99881101
 20
480.51782683
 30
0.0
 11
392.0
 21
472.51901582
 31
0.0
  0
LINE
  5
220
100
AcDbEntity
  8
ZUWAKU
  6
CONTINUOUS
 62
      32
100
AcDbLine
 10
398.86744016
 20
480.51782683
 30
0.0
 11
392.0
 21
473.65038667
 31
0.0
  0
LINE
  5
221
100
AcDbEntity
  8
ZUWAKU
  6
CONTINUOUS
 62
      32
100
AcDbLine
 10
397.73606931
 20
480.51782683
 30
0.0
 11
392.0
 21
474.78175752
 31
0.0
  0
LINE
  5
222
100
AcDbEntity
  8
ZUWAKU
  6
CONTINUOUS
 62
      32
100
AcDbLine
 10
396.60469846
 20
480.51782683
 30
0.0
 11
392.0
 21
475.91312837
 31
0.0
  0
LINE
  5
223
100
AcDbEntity
  8
ZUWAKU
  6
CONTINUOUS
 62
      32
100
AcDbLine
 10
395.47332761
 20
480.51782683
 30
0.0
 11
392.0
 21
477.04449922
 31
0.0
  0
LINE
  5
224
100
AcDbEntity
  8
ZUWAKU
  6
CONTINUOUS
 62
      32
100
AcDbLine
 10
394.34195676
 20
480.51782683
 30
0.0
 11
392.0
 21
478.17587007
 31
0.0
  0
LINE
  5
225
100
AcDbEntity
  8
ZUWAKU
  6
CONTINUOUS
 62
      32
100
AcDbLine
 10
393.21058591
 20
480.51782683
 30
0.0
 11
392.0
 21
479.30724092
 31
0.0
  0
LINE
  5
226
100
AcDbEntity
  8
ZUWAKU
  6
CONTINUOUS
 62
      32
100
AcDbLine
 10
403.39292356
 20
480.51782683
 30
0.0
 11
392.0
 21
469.12490327
 31
0.0
  0
LINE
  5
227
100
AcDbEntity
  8
ZUWAKU
  6
CONTINUOUS
 62
      32
100
AcDbLine
 10
404.52429441
 20
480.51782683
 30
0.0
 11
392.0
 21
467.99353242
 31
0.0
  0
LINE
  5
228
100
AcDbEntity
  8
ZUWAKU
  6
CONTINUOUS
 62
      32
100
AcDbLine
 10
405.65566526
 20
480.51782683
 30
0.0
 11
392.0
 21
466.86216157
 31
0.0
  0
LINE
  5
229
100
AcDbEntity
  8
ZUWAKU
  6
CONTINUOUS
 62
      32
100
AcDbLine
 10
406.78703611
 20
480.51782683
 30
0.0
 11
392.0
 21
465.73079072
 31
0.0
  0
LINE
  5
22A
100
AcDbEntity
  8
ZUWAKU
  6
CONTINUOUS
 62
      32
100
AcDbLine
 10
407.91840696
 20
480.51782683
 30
0.0
 11
392.0
 21
464.59941987
 31
0.0
  0
LINE
  5
22B
100
AcDbEntity
  8
ZUWAKU
  6
CONTINUOUS
 62
      32
100
AcDbLine
 10
409.04977781
 20
480.51782683
 30
0.0
 11
392.0
 21
463.46804902
 31
0.0
  0
LINE
  5
22C
100
AcDbEntity
  8
ZUWAKU
  6
CONTINUOUS
 62
      32
100
AcDbLine
 10
410.18114866
 20
480.51782683
 30
0.0
 11
392.0
 21
462.33667817
 31
0.0
  0
LINE
  5
22D
100
AcDbEntity
  8
ZUWAKU
  6
CONTINUOUS
 62
      32
100
AcDbLine
 10
411.31251951
 20
480.51782683
 30
0.0
 11
392.0
 21
461.20530732
 31
0.0
  0
LINE
  5
22E
100
AcDbEntity
  8
ZUWAKU
  6
CONTINUOUS
 62
      32
100
AcDbLine
 10
412.44389036
 20
480.51782683
 30
0.0
 11
392.44389036
 21
460.51782683
 31
0.0
  0
LINE
  5
22F
100
AcDbEntity
  8
ZUWAKU
  6
CONTINUOUS
 62
      32
100
AcDbLine
 10
413.57526121
 20
480.51782683
 30
0.0
 11
393.57526121
 21
460.51782683
 31
0.0
  0
LINE
  5
230
100
AcDbEntity
  8
ZUWAKU
  6
CONTINUOUS
 62
      32
100
AcDbLine
 10
414.0
 20
479.81119477
 30
0.0
 11
394.70663206
 21
460.51782683
 31
0.0
  0
LINE
  5
231
100
AcDbEntity
  8
ZUWAKU
  6
CONTINUOUS
 62
      32
100
AcDbLine
 10
414.0
 20
478.67982392
 30
0.0
 11
395.83800291
 21
460.51782683
 31
0.0
  0
LINE
  5
232
100
AcDbEntity
  8
ZUWAKU
  6
CONTINUOUS
 62
      32
100
AcDbLine
 10
414.0
 20
477.54845307
 30
0.0
 11
396.96937376
 21
460.51782683
 31
0.0
  0
LINE
  5
233
100
AcDbEntity
  8
ZUWAKU
  6
CONTINUOUS
 62
      32
100
AcDbLine
 10
414.0
 20
476.41708222
 30
0.0
 11
398.10074461
 21
460.51782683
 31
0.0
  0
LINE
  5
234
100
AcDbEntity
  8
ZUWAKU
  6
CONTINUOUS
 62
      32
100
AcDbLine
 10
414.0
 20
475.28571137
 30
0.0
 11
399.23211546
 21
460.51782683
 31
0.0
  0
LINE
  5
235
100
AcDbEntity
  8
ZUWAKU
  6
CONTINUOUS
 62
      32
100
AcDbLine
 10
414.0
 20
474.15434052
 30
0.0
 11
400.36348631
 21
460.51782683
 31
0.0
  0
LINE
  5
236
100
AcDbEntity
  8
ZUWAKU
  6
CONTINUOUS
 62
      32
100
AcDbLine
 10
414.0
 20
473.02296967
 30
0.0
 11
401.49485716
 21
460.51782683
 31
0.0
  0
LINE
  5
237
100
AcDbEntity
  8
ZUWAKU
  6
CONTINUOUS
 62
      32
100
AcDbLine
 10
414.0
 20
471.89159882
 30
0.0
 11
402.62622801
 21
460.51782683
 31
0.0
  0
LINE
  5
238
100
AcDbEntity
  8
ZUWAKU
  6
CONTINUOUS
 62
      32
100
AcDbLine
 10
414.0
 20
470.76022797
 30
0.0
 11
403.75759886
 21
460.51782683
 31
0.0
  0
LINE
  5
239
100
AcDbEntity
  8
ZUWAKU
  6
CONTINUOUS
 62
      32
100
AcDbLine
 10
414.0
 20
469.62885712
 30
0.0
 11
404.88896971
 21
460.51782683
 31
0.0
  0
LINE
  5
23A
100
AcDbEntity
  8
ZUWAKU
  6
CONTINUOUS
 62
      32
100
AcDbLine
 10
414.0
 20
468.49748627
 30
0.0
 11
406.02034056
 21
460.51782683
 31
0.0
  0
LINE
  5
23B
100
AcDbEntity
  8
ZUWAKU
  6
CONTINUOUS
 62
      32
100
AcDbLine
 10
414.0
 20
467.36611542
 30
0.0
 11
407.15171141
 21
460.51782683
 31
0.0
  0
LINE
  5
23C
100
AcDbEntity
  8
ZUWAKU
  6
CONTINUOUS
 62
      32
100
AcDbLine
 10
414.0
 20
466.23474457
 30
0.0
 11
408.28308226
 21
460.51782683
 31
0.0
  0
LINE
  5
23D
100
AcDbEntity
  8
ZUWAKU
  6
CONTINUOUS
 62
      32
100
AcDbLine
 10
414.0
 20
465.10337372
 30
0.0
 11
409.41445311
 21
460.51782683
 31
0.0
  0
LINE
  5
23E
100
AcDbEntity
  8
ZUWAKU
  6
CONTINUOUS
 62
      32
100
AcDbLine
 10
414.0
 20
463.97200287
 30
0.0
 11
410.54582396
 21
460.51782683
 31
0.0
  0
LINE
  5
23F
100
AcDbEntity
  8
ZUWAKU
  6
CONTINUOUS
 62
      32
100
AcDbLine
 10
414.0
 20
462.84063202
 30
0.0
 11
411.67719481
 21
460.51782683
 31
0.0
  0
LINE
  5
240
100
AcDbEntity
  8
ZUWAKU
  6
CONTINUOUS
 62
      32
100
AcDbLine
 10
414.0
 20
461.70926117
 30
0.0
 11
412.80856566
 21
460.51782683
 31
0.0
  0
LINE
  5
241
100
AcDbEntity
  8
ZUWAKU
  6
CONTINUOUS
 62
      32
100
AcDbLine
 10
414.0
 20
460.57789032
 30
0.0
 11
413.93993651
 21
460.51782683
 31
0.0
  0
LINE
  5
242
100
AcDbEntity
  8
ZUWAKU
  6
CONTINUOUS
 62
      32
100
AcDbLine
 10
-325.0
 20
558.76782683
 30
0.0
 11
-328.39017391
 21
564.76582683
 31
0.0
  0
LINE
  5
243
100
AcDbEntity
  8
ZUWAKU
  6
CONTINUOUS
 62
      32
100
AcDbLine
 10
-341.9022233
 20
570.01782683
 30
0.0
 11
-341.48555663
 21
571.26782683
 31
0.0
  0
LINE
  5
244
100
AcDbEntity
  8
ZUWAKU
  6
CONTINUOUS
 62
      32
100
AcDbLine
 10
-310.04119076
 20
560.24723145
 30
0.0
 11
-310.496
 21
560.01982683
 31
0.0
  0
LINE
  5
245
100
AcDbEntity
  8
ZUWAKU
  6
CONTINUOUS
 62
      32
100
AcDbLine
 10
-309.75
 20
558.76782683
 30
0.0
 11
-307.65
 21
560.86782683
 31
0.0
  0
LINE
  5
246
100
AcDbEntity
  8
ZUWAKU
  6
CONTINUOUS
 62
      32
100
AcDbLine
 10
-308.0
 20
558.76782683
 30
0.0
 11
-307.65
 21
560.86782683
 31
0.0
  0
LINE
  5
247
100
AcDbEntity
  8
ZUWAKU
  6
CONTINUOUS
 62
      32
100
AcDbLine
 10
-298.75
 20
560.51782683
 30
0.0
 11
-298.75
 21
560.01982683
 31
0.0
  0
LINE
  5
248
100
AcDbEntity
  8
ZUWAKU
  6
CONTINUOUS
 62
      32
100
AcDbLine
 10
-287.68991781
 20
558.76782683
 30
0.0
 11
-292.25
 21
558.76782683
 31
0.0
  0
LINE
  5
249
100
AcDbEntity
  8
ZUWAKU
  6
CONTINUOUS
 62
      32
100
AcDbLine
 10
-294.71387009
 20
560.54944049
 30
0.0
 11
-296.75
 21
558.76782683
 31
0.0
  0
LINE
  5
24A
100
AcDbEntity
  8
ZUWAKU
  6
CONTINUOUS
 62
      32
100
AcDbLine
 10
-280.26700799
 20
558.76782683
 30
0.0
 11
-285.5
 21
558.76782683
 31
0.0
  0
LINE
  5
24B
100
AcDbEntity
  8
ZUWAKU
  6
CONTINUOUS
 62
      32
100
AcDbLine
 10
-332.4055
 20
560.01982683
 30
0.0
 11
-328.65625
 21
570.01782683
 31
0.0
  0
LINE
  5
24C
100
AcDbEntity
  8
ZUWAKU
  6
CONTINUOUS
 62
      32
100
AcDbLine
 10
-328.81911341
 20
566.01782683
 30
0.0
 11
-322.96728861
 21
566.01782683
 31
0.0
  0
LINE
  5
24D
100
AcDbEntity
  8
ZUWAKU
  6
CONTINUOUS
 62
      32
100
AcDbLine
 10
-291.15909091
 20
561.76782683
 30
0.0
 11
-292.0
 21
561.76782683
 31
0.0
  0
LINE
  5
24E
100
AcDbEntity
  8
ZUWAKU
  6
CONTINUOUS
 62
      32
100
AcDbLine
 10
-292.0
 20
561.76782683
 30
0.0
 11
-292.82645644
 21
561.76782683
 31
0.0
  0
LINE
  5
24F
100
AcDbEntity
  8
ZUWAKU
  6
CONTINUOUS
 62
      32
100
AcDbLine
 10
-300.13897921
 20
558.76782683
 30
0.0
 11
-296.75
 21
558.76782683
 31
0.0
  0
CIRCLE
  5
250
100
AcDbEntity
  8
ZUWAKU
  6
CONTINUOUS
 62
      32
100
AcDbCircle
 10
-305.63230096
 20
565.76782683
 30
0.0
 40
0.75730096
  0
LINE
  5
251
100
AcDbEntity
  8
ZUWAKU
  6
CONTINUOUS
 62
      32
100
AcDbLine
 10
-331.46875
 20
570.01782683
 30
0.0
 11
-328.65625
 21
570.01782683
 31
0.0
  0
LINE
  5
252
100
AcDbEntity
  8
ZUWAKU
  6
CONTINUOUS
 62
      32
100
AcDbLine
 10
-327.31911341
 20
570.01782683
 30
0.0
 11
-322.96728861
 21
570.01782683
 31
0.0
  0
LINE
  5
253
100
AcDbEntity
  8
ZUWAKU
  6
CONTINUOUS
 62
      32
100
AcDbLine
 10
-335.75
 20
558.76782683
 30
0.0
 11
-335.2805
 21
560.01982683
 31
0.0
  0
LINE
  5
254
100
AcDbEntity
  8
ZUWAKU
  6
CONTINUOUS
 62
      32
100
AcDbLine
 10
-331.46875
 20
570.01782683
 30
0.0
 11
-331.0
 21
571.26782683
 31
0.0
  0
LINE
  5
255
100
AcDbEntity
  8
ZUWAKU
  6
CONTINUOUS
 62
      32
100
AcDbLine
 10
-332.09435388
 20
570.01782683
 30
0.0
 11
-331.62560388
 21
571.26782683
 31
0.0
  0
LINE
  5
256
100
AcDbEntity
  8
ZUWAKU
  6
CONTINUOUS
 62
      32
100
AcDbLine
 10
-322.96728861
 20
571.26782683
 30
0.0
 11
-331.0
 21
571.26782683
 31
0.0
  0
LINE
  5
257
100
AcDbEntity
  8
ZUWAKU
  6
CONTINUOUS
 62
      32
100
AcDbLine
 10
-331.62560388
 20
571.26782683
 30
0.0
 11
-332.8132414
 21
571.26782683
 31
0.0
  0
LINE
  5
258
100
AcDbEntity
  8
ZUWAKU
  6
CONTINUOUS
 62
      32
100
AcDbLine
 10
-333.2819914
 20
570.01782683
 30
0.0
 11
-332.09435388
 21
570.01782683
 31
0.0
  0
LINE
  5
259
100
AcDbEntity
  8
ZUWAKU
  6
CONTINUOUS
 62
      32
100
AcDbLine
 10
-333.73740118
 20
570.01782683
 30
0.0
 11
-333.26865118
 21
571.26782683
 31
0.0
  0
LINE
  5
25A
100
AcDbEntity
  8
ZUWAKU
  6
CONTINUOUS
 62
      32
100
AcDbLine
 10
-333.26865118
 20
571.26782683
 30
0.0
 11
-334.2641694
 21
571.26782683
 31
0.0
  0
LINE
  5
25B
100
AcDbEntity
  8
ZUWAKU
  6
CONTINUOUS
 62
      32
100
AcDbLine
 10
-334.7329194
 20
570.01782683
 30
0.0
 11
-333.73740118
 21
570.01782683
 31
0.0
  0
LINE
  5
25C
100
AcDbEntity
  8
ZUWAKU
  6
CONTINUOUS
 62
      32
100
AcDbLine
 10
-334.7329194
 20
570.01782683
 30
0.0
 11
-334.2641694
 21
571.26782683
 31
0.0
  0
LINE
  5
25D
100
AcDbEntity
  8
ZUWAKU
  6
CONTINUOUS
 62
      32
100
AcDbLine
 10
-335.11411672
 20
571.26782683
 30
0.0
 11
-336.0896492
 21
571.26782683
 31
0.0
  0
LINE
  5
25E
100
AcDbEntity
  8
ZUWAKU
  6
CONTINUOUS
 62
      32
100
AcDbLine
 10
-336.5583992
 20
570.01782683
 30
0.0
 11
-335.58286672
 21
570.01782683
 31
0.0
  0
LINE
  5
25F
100
AcDbEntity
  8
ZUWAKU
  6
CONTINUOUS
 62
      32
100
AcDbLine
 10
-336.5583992
 20
570.01782683
 30
0.0
 11
-336.0896492
 21
571.26782683
 31
0.0
  0
LINE
  5
260
100
AcDbEntity
  8
ZUWAKU
  6
CONTINUOUS
 62
      32
100
AcDbLine
 10
-333.2819914
 20
570.01782683
 30
0.0
 11
-332.8132414
 21
571.26782683
 31
0.0
  0
LINE
  5
261
100
AcDbEntity
  8
ZUWAKU
  6
CONTINUOUS
 62
      32
100
AcDbLine
 10
-335.58286672
 20
570.01782683
 30
0.0
 11
-335.11411672
 21
571.26782683
 31
0.0
  0
LINE
  5
262
100
AcDbEntity
  8
ZUWAKU
  6
CONTINUOUS
 62
      32
100
AcDbLine
 10
-337.28905806
 20
570.01782683
 30
0.0
 11
-336.82030806
 21
571.26782683
 31
0.0
  0
LINE
  5
263
100
AcDbEntity
  8
ZUWAKU
  6
CONTINUOUS
 62
      32
100
AcDbLine
 10
-336.82030806
 20
571.26782683
 30
0.0
 11
-337.72228259
 21
571.26782683
 31
0.0
  0
LINE
  5
264
100
AcDbEntity
  8
ZUWAKU
  6
CONTINUOUS
 62
      32
100
AcDbLine
 10
-338.19103259
 20
570.01782683
 30
0.0
 11
-337.28905806
 21
570.01782683
 31
0.0
  0
LINE
  5
265
100
AcDbEntity
  8
ZUWAKU
  6
CONTINUOUS
 62
      32
100
AcDbLine
 10
-338.19103259
 20
570.01782683
 30
0.0
 11
-337.72228259
 21
571.26782683
 31
0.0
  0
LINE
  5
266
100
AcDbEntity
  8
ZUWAKU
  6
CONTINUOUS
 62
      32
100
AcDbLine
 10
-338.95457014
 20
570.01782683
 30
0.0
 11
-338.48582014
 21
571.26782683
 31
0.0
  0
LINE
  5
267
100
AcDbEntity
  8
ZUWAKU
  6
CONTINUOUS
 62
      32
100
AcDbLine
 10
-338.48582014
 20
571.26782683
 30
0.0
 11
-339.28790347
 21
571.26782683
 31
0.0
  0
LINE
  5
268
100
AcDbEntity
  8
ZUWAKU
  6
CONTINUOUS
 62
      32
100
AcDbLine
 10
-339.70457014
 20
570.01782683
 30
0.0
 11
-338.95457014
 21
570.01782683
 31
0.0
  0
LINE
  5
269
100
AcDbEntity
  8
ZUWAKU
  6
CONTINUOUS
 62
      32
100
AcDbLine
 10
-339.70457014
 20
570.01782683
 30
0.0
 11
-339.28790347
 21
571.26782683
 31
0.0
  0
LINE
  5
26A
100
AcDbEntity
  8
ZUWAKU
  6
CONTINUOUS
 62
      32
100
AcDbLine
 10
-340.50326021
 20
570.01782683
 30
0.0
 11
-340.08659354
 21
571.26782683
 31
0.0
  0
LINE
  5
26B
100
AcDbEntity
  8
ZUWAKU
  6
CONTINUOUS
 62
      32
100
AcDbLine
 10
-341.1522233
 20
570.01782683
 30
0.0
 11
-340.73555663
 21
571.26782683
 31
0.0
  0
LINE
  5
26C
100
AcDbEntity
  8
ZUWAKU
  6
CONTINUOUS
 62
      32
100
AcDbLine
 10
-342.36055663
 20
570.01782683
 30
0.0
 11
-341.94388997
 21
571.26782683
 31
0.0
  0
LINE
  5
26D
100
AcDbEntity
  8
ZUWAKU
  6
CONTINUOUS
 62
      32
100
AcDbLine
 10
-343.1522233
 20
570.01782683
 30
0.0
 11
-342.73555663
 21
571.26782683
 31
0.0
  0
LINE
  5
26E
100
AcDbEntity
  8
ZUWAKU
  6
CONTINUOUS
 62
      32
100
AcDbLine
 10
-343.36055663
 20
570.01782683
 30
0.0
 11
-342.94388997
 21
571.26782683
 31
0.0
  0
LINE
  5
26F
100
AcDbEntity
  8
ZUWAKU
  6
CONTINUOUS
 62
      32
100
AcDbLine
 10
-340.08659354
 20
571.26782683
 30
0.0
 11
-340.73555663
 21
571.26782683
 31
0.0
  0
LINE
  5
270
100
AcDbEntity
  8
ZUWAKU
  6
CONTINUOUS
 62
      32
100
AcDbLine
 10
-341.1522233
 20
570.01782683
 30
0.0
 11
-340.50326021
 21
570.01782683
 31
0.0
  0
LINE
  5
271
100
AcDbEntity
  8
ZUWAKU
  6
CONTINUOUS
 62
      32
100
AcDbLine
 10
-341.48555663
 20
571.26782683
 30
0.0
 11
-341.94388997
 21
571.26782683
 31
0.0
  0
LINE
  5
272
100
AcDbEntity
  8
ZUWAKU
  6
CONTINUOUS
 62
      32
100
AcDbLine
 10
-342.73555663
 20
571.26782683
 30
0.0
 11
-342.94388997
 21
571.26782683
 31
0.0
  0
LINE
  5
273
100
AcDbEntity
  8
ZUWAKU
  6
CONTINUOUS
 62
      32
100
AcDbLine
 10
-342.36055663
 20
570.01782683
 30
0.0
 11
-341.9022233
 21
570.01782683
 31
0.0
  0
LINE
  5
274
100
AcDbEntity
  8
ZUWAKU
  6
CONTINUOUS
 62
      32
100
AcDbLine
 10
-343.1522233
 20
570.01782683
 30
0.0
 11
-343.36055663
 21
570.01782683
 31
0.0
  0
ARC
  5
275
100
AcDbEntity
  8
ZUWAKU
  6
CONTINUOUS
 62
      32
100
AcDbCircle
 10
-322.96728861
 20
568.01782683
 30
0.0
 40
2.0
100
AcDbArc
 50
270.0
 51
450.0
  0
LINE
  5
276
100
AcDbEntity
  8
ZUWAKU
  6
CONTINUOUS
 62
      32
100
AcDbLine
 10
-335.2805
 20
560.01982683
 30
0.0
 11
-332.4055
 21
560.01982683
 31
0.0
  0
LINE
  5
277
100
AcDbEntity
  8
ZUWAKU
  6
CONTINUOUS
 62
      32
100
AcDbLine
 10
-335.75
 20
558.76782683
 30
0.0
 11
-331.53786341
 21
558.76782683
 31
0.0
  0
LINE
  5
278
100
AcDbEntity
  8
ZUWAKU
  6
CONTINUOUS
 62
      32
100
AcDbLine
 10
-331.53786341
 20
558.76782683
 30
0.0
 11
-329.28861341
 21
564.76582683
 31
0.0
  0
LINE
  5
279
100
AcDbEntity
  8
ZUWAKU
  6
CONTINUOUS
 62
      32
100
AcDbLine
 10
-328.81911341
 20
566.01782683
 30
0.0
 11
-327.31911341
 21
570.01782683
 31
0.0
  0
LINE
  5
27A
100
AcDbEntity
  8
ZUWAKU
  6
CONTINUOUS
 62
      32
100
AcDbLine
 10
-329.28861341
 20
564.76582683
 30
0.0
 11
-328.39017391
 21
564.76582683
 31
0.0
  0
LINE
  5
27B
100
AcDbEntity
  8
ZUWAKU
  6
CONTINUOUS
 62
      32
100
AcDbLine
 10
-326.95202385
 20
564.76582683
 30
0.0
 11
-322.96728861
 21
564.76582683
 31
0.0
  0
LINE
  5
27C
100
AcDbEntity
  8
ZUWAKU
  6
CONTINUOUS
 62
      32
100
AcDbLine
 10
-324.26950211
 20
560.01982683
 30
0.0
 11
-326.95202385
 21
564.76582683
 31
0.0
  0
ARC
  5
27D
100
AcDbEntity
  8
ZUWAKU
  6
CONTINUOUS
 62
      32
100
AcDbCircle
 10
-322.96728861
 20
568.01782683
 30
0.0
 40
3.25
100
AcDbArc
 50
270.0
 51
450.0
  0
ELLIPSE
  5
27E
100
AcDbEntity
  8
ZUWAKU
  6
CONTINUOUS
 62
      32
100
AcDbEllipse
 10
-318.82646226
 20
561.58606647
 30
0.0
 11
-0.3292746530997306
 21
-0.6036701973492882
 31
0.0
210
0.0
220
0.0
230
1.0
 40
0.75209874
 41
0.0
 42
6.2831853071796004
  0
LINE
  5
27F
100
AcDbEntity
  8
ZUWAKU
  6
CONTINUOUS
 62
      32
100
AcDbLine
 10
-325.0
 20
558.76782683
 30
0.0
 11
-320.5
 21
558.76782683
 31
0.0
  0
ELLIPSE
  5
280
100
AcDbEntity
  8
ZUWAKU
  6
CONTINUOUS
 62
      32
100
AcDbEllipse
 10
-318.82646226
 20
561.58606647
 30
0.0
 11
-1.0519956968041697
 21
-1.928658777473629
 31
0.0
210
0.0
220
0.0
230
1.0
 40
0.75209874
 41
1.1633802511780513
 42
5.8601607076995652
  0
LINE
  5
281
100
AcDbEntity
  8
ZUWAKU
  6
CONTINUOUS
 62
      32
100
AcDbLine
 10
-324.26950211
 20
560.01982683
 30
0.0
 11
-320.57509614
 21
560.01982683
 31
0.0
  0
ARC
  5
282
100
AcDbEntity
  8
ZUWAKU
  6
CONTINUOUS
 62
      32
100
AcDbCircle
 10
-320.94751762
 20
562.82769695
 30
0.0
 40
2.83246048
100
AcDbArc
 50
277.55531967
 51
282.61004677
  0
ARC
  5
283
100
AcDbEntity
  8
ZUWAKU
  6
CONTINUOUS
 62
      32
100
AcDbCircle
 10
-320.94751762
 20
562.82769695
 30
0.0
 40
4.08446048
100
AcDbArc
 50
276.29029269
 51
293.79815684
  0
ARC
  5
284
100
AcDbEntity
  8
ZUWAKU
  6
CONTINUOUS
 62
      32
100
AcDbCircle
 10
-320.94751762
 20
562.82769695
 30
0.0
 40
4.08446048
100
AcDbArc
 50
316.57125834
 51
318.01426788
  0
ARC
  5
285
100
AcDbEntity
  8
ZUWAKU
  6
CONTINUOUS
 62
      32
100
AcDbCircle
 10
-318.01385879
 20
561.48244278
 30
0.0
 40
2.71547536
100
AcDbArc
 50
209.3318227
 51
211.50126528
  0
ARC
  5
286
100
AcDbEntity
  8
ZUWAKU
  6
CONTINUOUS
 62
      32
100
AcDbCircle
 10
-318.01385879
 20
561.48244278
 30
0.0
 40
2.71547536
100
AcDbArc
 50
241.74457829
 51
270.0
  0
ELLIPSE
  5
287
100
AcDbEntity
  8
ZUWAKU
  6
CONTINUOUS
 62
      32
100
AcDbEllipse
 10
-312.43314238
 20
563.2672051
 30
0.0
 11
-0.5481721846488767
 21
-1.1306051308384895
 31
0.0
210
0.0
220
0.0
230
1.0
 40
0.44219156
 41
0.0
 42
6.2831853071796004
  0
ARC
  5
288
100
AcDbEntity
  8
ZUWAKU
  6
CONTINUOUS
 62
      32
100
AcDbCircle
 10
-311.28022282
 20
563.59803375
 30
0.0
 40
4.85642735
100
AcDbArc
 50
241.28311564
 51
264.0434522
  0
LINE
  5
289
100
AcDbEntity
  8
ZUWAKU
  6
CONTINUOUS
 62
      32
100
AcDbLine
 10
-318.01385879
 20
558.76782683
 30
0.0
 11
-315.19647106
 21
558.76782683
 31
0.0
  0
ARC
  5
28A
100
AcDbEntity
  8
ZUWAKU
  6
CONTINUOUS
 62
      32
100
AcDbCircle
 10
-311.28022282
 20
563.59803375
 30
0.0
 40
3.60442735
100
AcDbArc
 50
251.08708107
 51
263.08482824
  0
ARC
  5
28B
100
AcDbEntity
  8
ZUWAKU
  6
CONTINUOUS
 62
      32
100
AcDbCircle
 10
-316.25919497
 20
564.19219272
 30
0.0
 40
4.27548835
100
AcDbArc
 50
282.60950936
 51
291.93126974
  0
ELLIPSE
  5
28C
100
AcDbEntity
  8
ZUWAKU
  6
CONTINUOUS
 62
      32
100
AcDbEllipse
 10
-312.43314238
 20
563.2672051
 30
0.0
 11
-1.7513488327440427
 21
-3.6121569675352703
 31
0.0
210
0.0
220
0.0
230
1.0
 40
0.44219156
 41
1.162166382047795
 42
5.8906096214263082
  0
LINE
  5
28D
100
AcDbEntity
  8
ZUWAKU
  6
CONTINUOUS
 62
      32
100
AcDbLine
 10
-317.98126025
 20
560.01982683
 30
0.0
 11
-315.32583358
 21
560.01982683
 31
0.0
  0
ARC
  5
28E
100
AcDbEntity
  8
ZUWAKU
  6
CONTINUOUS
 62
      32
100
AcDbCircle
 10
-316.25919497
 20
564.19219272
 30
0.0
 40
5.52748835
100
AcDbArc
 50
313.58286141
 51
326.24939265
  0
ARC
  5
28F
100
AcDbEntity
  8
ZUWAKU
  6
CONTINUOUS
 62
      32
100
AcDbCircle
 10
-316.25919497
 20
564.19219272
 30
0.0
 40
5.52748835
100
AcDbArc
 50
281.08479974
 51
298.5950739
  0
LINE
  5
290
100
AcDbEntity
  8
ZUWAKU
  6
CONTINUOUS
 62
      32
100
AcDbLine
 10
-311.7841947
 20
558.76782683
 30
0.0
 11
-309.75
 21
558.76782683
 31
0.0
  0
LINE
  5
291
100
AcDbEntity
  8
ZUWAKU
  6
CONTINUOUS
 62
      32
100
AcDbLine
 10
-310.04119076
 20
560.24723145
 30
0.0
 11
-306.63927011
 21
563.6491521
 31
0.0
  0
LINE
  5
292
100
AcDbEntity
  8
ZUWAKU
  6
CONTINUOUS
 62
      32
100
AcDbLine
 10
-306.52206355
 20
560.01982683
 30
0.0
 11
-305.97200589
 21
563.32017279
 31
0.0
  0
LINE
  5
293
100
AcDbEntity
  8
ZUWAKU
  6
CONTINUOUS
 62
      32
100
AcDbLine
 10
-311.71419484
 20
560.01982683
 30
0.0
 11
-310.496
 21
560.01982683
 31
0.0
  0
ARC
  5
294
100
AcDbEntity
  8
ZUWAKU
  6
CONTINUOUS
 62
      32
100
AcDbCircle
 10
-306.35519298
 20
563.38403731
 30
0.0
 40
0.38856874
100
AcDbArc
 50
350.53767779
 51
496.97750576
  0
ELLIPSE
  5
295
100
AcDbEntity
  8
ZUWAKU
  6
CONTINUOUS
 62
      32
100
AcDbEllipse
 10
-301.05059931
 20
561.11975214
 30
0.0
 11
-0.3647265199069238
 21
-0.6142762440537126
 31
0.0
210
0.0
220
0.0
230
1.0
 40
0.58819821
 41
0.0
 42
6.2831853071796004
  0
LINE
  5
296
100
AcDbEntity
  8
ZUWAKU
  6
CONTINUOUS
 62
      32
100
AcDbLine
 10
-305.20186368
 20
560.01982683
 30
0.0
 11
-303.11810398
 21
561.02068779
 31
0.0
  0
LINE
  5
297
100
AcDbEntity
  8
ZUWAKU
  6
CONTINUOUS
 62
      32
100
AcDbLine
 10
-305.0
 20
558.76782683
 30
0.0
 11
-303.25540234
 21
559.54087976
 31
0.0
  0
LINE
  5
298
100
AcDbEntity
  8
ZUWAKU
  6
CONTINUOUS
 62
      32
100
AcDbLine
 10
-306.52206355
 20
560.01982683
 30
0.0
 11
-305.20186368
 21
560.01982683
 31
0.0
  0
LINE
  5
299
100
AcDbEntity
  8
ZUWAKU
  6
CONTINUOUS
 62
      32
100
AcDbLine
 10
-300.72250351
 20
559.33190032
 30
0.0
 11
-300.13897921
 21
558.76782683
 31
0.0
  0
LINE
  5
29A
100
AcDbEntity
  8
ZUWAKU
  6
CONTINUOUS
 62
      32
100
AcDbLine
 10
-298.75
 20
560.01982683
 30
0.0
 11
-296.99115103
 21
560.01982683
 31
0.0
  0
LINE
  5
29B
100
AcDbEntity
  8
ZUWAKU
  6
CONTINUOUS
 62
      32
100
AcDbLine
 10
-292.99343674
 20
563.51782683
 30
0.0
 11
-296.99115103
 21
560.01982683
 31
0.0
  0
ELLIPSE
  5
29C
100
AcDbEntity
  8
ZUWAKU
  6
CONTINUOUS
 62
      32
100
AcDbEllipse
 10
-301.31148918
 20
560.971816
 30
0.0
 11
-1.5887408375478458
 21
-1.9683311589067216
 31
0.0
210
0.0
220
0.0
230
1.0
 40
0.63020876
 41
2.7713952963881434
 42
5.1608192210644299
  0
ELLIPSE
  5
29D
100
AcDbEntity
  8
ZUWAKU
  6
CONTINUOUS
 62
      32
100
AcDbEllipse
 10
-301.31148918
 20
560.971816
 30
0.0
 11
-1.5887408375478458
 21
-1.9683311589067216
 31
0.0
210
0.0
220
0.0
230
1.0
 40
0.63020876
 41
5.8878630804447303
 42
7.4876029260781634
  0
LINE
  5
29E
100
AcDbEntity
  8
ZUWAKU
  6
CONTINUOUS
 62
      32
100
AcDbLine
 10
-299.07915917
 20
563.27621019
 30
0.0
 11
-297.7469515
 21
563.27621019
 31
0.0
  0
LINE
  5
29F
100
AcDbEntity
  8
ZUWAKU
  6
CONTINUOUS
 62
      32
100
AcDbLine
 10
-299.38157852
 20
562.44455698
 30
0.0
 11
-299.07915917
 21
563.27621019
 31
0.0
  0
LINE
  5
2A0
100
AcDbEntity
  8
ZUWAKU
  6
CONTINUOUS
 62
      32
100
AcDbLine
 10
-298.75
 20
560.51782683
 30
0.0
 11
-297.7469515
 21
563.27621019
 31
0.0
  0
LINE
  5
2A1
100
AcDbEntity
  8
ZUWAKU
  6
CONTINUOUS
 62
      32
100
AcDbLine
 10
-295.34740779
 20
558.80721181
 30
0.0
 11
-294.71387009
 21
560.54944049
 31
0.0
  0
LINE
  5
2A2
100
AcDbEntity
  8
ZUWAKU
  6
CONTINUOUS
 62
      32
100
AcDbLine
 10
-292.82645644
 20
561.76782683
 30
0.0
 11
-293.91736553
 21
558.76782683
 31
0.0
  0
LINE
  5
2A3
100
AcDbEntity
  8
ZUWAKU
  6
CONTINUOUS
 62
      32
100
AcDbLine
 10
-292.25
 20
558.76782683
 30
0.0
 11
-291.15909091
 21
561.76782683
 31
0.0
  0
LINE
  5
2A4
100
AcDbEntity
  8
ZUWAKU
  6
CONTINUOUS
 62
      32
100
AcDbLine
 10
-289.33516124
 20
562.72113341
 30
0.0
 11
-290.31745455
 21
560.01982683
 31
0.0
  0
LINE
  5
2A5
100
AcDbEntity
  8
ZUWAKU
  6
CONTINUOUS
 62
      32
100
AcDbLine
 10
-289.75082737
 20
563.51782683
 30
0.0
 11
-289.33516124
 21
562.72113341
 31
0.0
  0
LINE
  5
2A6
100
AcDbEntity
  8
ZUWAKU
  6
CONTINUOUS
 62
      32
100
AcDbLine
 10
-292.49360526
 20
562.77422156
 30
0.0
 11
-292.24766808
 21
563.51782683
 31
0.0
  0
LINE
  5
2A7
100
AcDbEntity
  8
ZUWAKU
  6
CONTINUOUS
 62
      32
100
AcDbLine
 10
-292.49360526
 20
562.77422156
 30
0.0
 11
-291.16181092
 21
563.51782683
 31
0.0
  0
LINE
  5
2A8
100
AcDbEntity
  8
ZUWAKU
  6
CONTINUOUS
 62
      32
100
AcDbLine
 10
-289.75082737
 20
563.51782683
 30
0.0
 11
-291.16181092
 21
563.51782683
 31
0.0
  0
LINE
  5
2A9
100
AcDbEntity
  8
ZUWAKU
  6
CONTINUOUS
 62
      32
100
AcDbLine
 10
-292.24766808
 20
563.51782683
 30
0.0
 11
-292.99343674
 21
563.51782683
 31
0.0
  0
ELLIPSE
  5
2AA
100
AcDbEntity
  8
ZUWAKU
  6
CONTINUOUS
 62
      32
100
AcDbEllipse
 10
-278.59347025
 20
561.58606647
 30
0.0
 11
-0.3292746530997306
 21
-0.6036701973492882
 31
0.0
210
0.0
220
0.0
230
1.0
 40
0.75209874
 41
0.0
 42
6.2831853071796004
  0
ELLIPSE
  5
2AB
100
AcDbEntity
  8
ZUWAKU
  6
CONTINUOUS
 62
      32
100
AcDbEllipse
 10
-278.59347025
 20
561.58606647
 30
0.0
 11
-1.0519956968041697
 21
-1.928658777473629
 31
0.0
210
0.0
220
0.0
230
1.0
 40
0.75209874
 41
1.1633802511780513
 42
5.8601607076995652
  0
ARC
  5
2AC
100
AcDbEntity
  8
ZUWAKU
  6
CONTINUOUS
 62
      32
100
AcDbCircle
 10
-280.71452561
 20
562.82769695
 30
0.0
 40
2.83246048
100
AcDbArc
 50
277.55531967
 51
282.61004677
  0
ARC
  5
2AD
100
AcDbEntity
  8
ZUWAKU
  6
CONTINUOUS
 62
      32
100
AcDbCircle
 10
-280.71452561
 20
562.82769695
 30
0.0
 40
4.08446048
100
AcDbArc
 50
276.29029269
 51
293.79815684
  0
ARC
  5
2AE
100
AcDbEntity
  8
ZUWAKU
  6
CONTINUOUS
 62
      32
100
AcDbCircle
 10
-280.71452561
 20
562.82769695
 30
0.0
 40
4.08446048
100
AcDbArc
 50
316.57125834
 51
318.01426788
  0
ARC
  5
2AF
100
AcDbEntity
  8
ZUWAKU
  6
CONTINUOUS
 62
      32
100
AcDbCircle
 10
-277.78086678
 20
561.48244278
 30
0.0
 40
2.71547536
100
AcDbArc
 50
209.3318227
 51
211.50126528
  0
ARC
  5
2B0
100
AcDbEntity
  8
ZUWAKU
  6
CONTINUOUS
 62
      32
100
AcDbCircle
 10
-277.78086678
 20
561.48244278
 30
0.0
 40
2.71547536
100
AcDbArc
 50
241.74457829
 51
270.0
  0
LINE
  5
2B1
100
AcDbEntity
  8
ZUWAKU
  6
CONTINUOUS
 62
      32
100
AcDbLine
 10
-284.69080778
 20
560.01982683
 30
0.0
 11
-280.34210413
 21
560.01982683
 31
0.0
  0
LINE
  5
2B2
100
AcDbEntity
  8
ZUWAKU
  6
CONTINUOUS
 62
      32
100
AcDbLine
 10
-277.78086678
 20
558.76782683
 30
0.0
 11
-275.37336966
 21
558.76782683
 31
0.0
  0
LINE
  5
2B3
100
AcDbEntity
  8
ZUWAKU
  6
CONTINUOUS
 62
      32
100
AcDbLine
 10
-277.74826824
 20
560.01982683
 30
0.0
 11
-275.09284157
 21
560.01982683
 31
0.0
  0
LINE
  5
2B4
100
AcDbEntity
  8
ZUWAKU
  6
CONTINUOUS
 62
      32
100
AcDbLine
 10
-308.0
 20
558.76782683
 30
0.0
 11
-305.0
 21
558.76782683
 31
0.0
  0
LINE
  5
2B5
100
AcDbEntity
  8
ZUWAKU
  6
CONTINUOUS
 62
      32
100
AcDbLine
 10
-295.34740779
 20
558.80721181
 30
0.0
 11
-293.91736553
 21
558.76782683
 31
0.0
  0
LINE
  5
2B6
100
AcDbEntity
  8
ZUWAKU
  6
CONTINUOUS
 62
      32
100
AcDbLine
 10
-290.31745455
 20
560.01982683
 30
0.0
 11
-288.00564288
 21
560.01982683
 31
0.0
  0
LINE
  5
2B7
100
AcDbEntity
  8
ZUWAKU
  6
CONTINUOUS
 62
      32
100
AcDbLine
 10
-283.73931793
 20
561.82220568
 30
0.0
 11
-282.80538332
 21
562.57713616
 31
0.0
  0
ARC
  5
2B8
100
AcDbEntity
  8
ZUWAKU
  6
CONTINUOUS
 62
      32
100
AcDbCircle
 10
-284.69080778
 20
561.17982683
 30
0.0
 40
1.16
100
AcDbArc
 50
34.07537472
 51
270.0
  0
ARC
  5
2B9
100
AcDbEntity
  8
ZUWAKU
  6
CONTINUOUS
 62
      32
100
AcDbCircle
 10
-284.69080778
 20
561.17982683
 30
0.0
 40
2.34676347
100
AcDbArc
 50
36.54256145
 51
190.98612084
  0
LINE
  5
2BA
100
AcDbEntity
  8
ZUWAKU
  6
CONTINUOUS
 62
      32
100
AcDbLine
 10
-287.68991781
 20
558.76782683
 30
0.0
 11
-286.50121583
 21
559.64253206
 31
0.0
  0
LINE
  5
2BB
100
AcDbEntity
  8
ZUWAKU
  6
CONTINUOUS
 62
      32
100
AcDbLine
 10
-287.00947009
 20
560.75285964
 30
0.0
 11
-288.00564288
 21
560.01982683
 31
0.0
  0
LINE
  5
2BC
100
AcDbEntity
  8
ZUWAKU
  6
CONTINUOUS
 62
      32
100
AcDbLine
 10
-286.50121583
 20
559.64253206
 30
0.0
 11
-285.5
 21
558.76782683
 31
0.0
  0
LINE
  5
2BD
100
AcDbEntity
  8
ZUWAKU
  6
CONTINUOUS
 62
      32
100
AcDbLine
 10
-275.09284157
 20
560.01982683
 30
0.0
 11
-275.37336966
 21
558.76782683
 31
0.0
  0
LINE
  5
2BE
100
AcDbEntity
  8
ZUWAKU
  6
CONTINUOUS
 62
      32
100
AcDbLine
 10
-341.57930663
 20
570.98657683
 30
0.0
 11
-342.26680663
 21
570.29907683
 31
0.0
  0
LINE
  5
2BF
100
AcDbEntity
  8
ZUWAKU
  6
CONTINUOUS
 62
      32
100
AcDbLine
 10
-340.1326861
 20
571.12954914
 30
0.0
 11
-341.10613074
 21
570.15610451
 31
0.0
  0
LINE
  5
2C0
100
AcDbEntity
  8
ZUWAKU
  6
CONTINUOUS
 62
      32
100
AcDbLine
 10
-338.49519514
 20
571.24282683
 30
0.0
 11
-339.69675764
 21
570.04126433
 31
0.0
  0
LINE
  5
2C1
100
AcDbEntity
  8
ZUWAKU
  6
CONTINUOUS
 62
      32
100
AcDbLine
 10
-336.88067033
 20
571.26782683
 30
0.0
 11
-338.13067033
 21
570.01782683
 31
0.0
  0
LINE
  5
2C2
100
AcDbEntity
  8
ZUWAKU
  6
CONTINUOUS
 62
      32
100
AcDbLine
 10
-335.21125796
 20
571.26782683
 30
0.0
 11
-336.46125796
 21
570.01782683
 31
0.0
  0
LINE
  5
2C3
100
AcDbEntity
  8
ZUWAKU
  6
CONTINUOUS
 62
      32
100
AcDbLine
 10
-333.37578529
 20
571.26782683
 30
0.0
 11
-334.62578529
 21
570.01782683
 31
0.0
  0
LINE
  5
2C4
100
AcDbEntity
  8
ZUWAKU
  6
CONTINUOUS
 62
      32
100
AcDbLine
 10
-331.82879764
 20
571.26782683
 30
0.0
 11
-333.07879764
 21
570.01782683
 31
0.0
  0
LINE
  5
2C5
100
AcDbEntity
  8
ZUWAKU
  6
CONTINUOUS
 62
      32
100
AcDbLine
 10
-331.39632425
 20
559.14526458
 30
0.0
 11
-331.77376201
 21
558.76782683
 31
0.0
  0
LINE
  5
2C6
100
AcDbEntity
  8
ZUWAKU
  6
CONTINUOUS
 62
      32
100
AcDbLine
 10
-330.71750174
 20
560.95545794
 30
0.0
 11
-332.90513286
 21
558.76782683
 31
0.0
  0
LINE
  5
2C7
100
AcDbEntity
  8
ZUWAKU
  6
CONTINUOUS
 62
      32
100
AcDbLine
 10
-330.03867923
 20
562.7656513
 30
0.0
 11
-332.17809777
 21
560.62623277
 31
0.0
  0
LINE
  5
2C8
100
AcDbEntity
  8
ZUWAKU
  6
CONTINUOUS
 62
      32
100
AcDbLine
 10
-332.78450371
 20
560.01982683
 30
0.0
 11
-334.03650371
 21
558.76782683
 31
0.0
  0
LINE
  5
2C9
100
AcDbEntity
  8
ZUWAKU
  6
CONTINUOUS
 62
      32
100
AcDbLine
 10
-329.35985672
 20
564.57584466
 30
0.0
 11
-331.49927526
 21
562.43642613
 31
0.0
  0
LINE
  5
2CA
100
AcDbEntity
  8
ZUWAKU
  6
CONTINUOUS
 62
      32
100
AcDbLine
 10
-333.91587456
 20
560.01982683
 30
0.0
 11
-335.16787456
 21
558.76782683
 31
0.0
  0
LINE
  5
2CB
100
AcDbEntity
  8
ZUWAKU
  6
CONTINUOUS
 62
      32
100
AcDbLine
 10
-335.04724541
 20
560.01982683
 30
0.0
 11
-335.42045275
 21
559.64661949
 31
0.0
  0
LINE
  5
2CC
100
AcDbEntity
  8
ZUWAKU
  6
CONTINUOUS
 62
      32
100
AcDbLine
 10
-327.19335796
 20
571.26782683
 30
0.0
 11
-328.78398522
 21
569.67719957
 31
0.0
  0
LINE
  5
2CD
100
AcDbEntity
  8
ZUWAKU
  6
CONTINUOUS
 62
      32
100
AcDbLine
 10
-328.32472881
 20
571.26782683
 30
0.0
 11
-329.57472881
 21
570.01782683
 31
0.0
  0
LINE
  5
2CE
100
AcDbEntity
  8
ZUWAKU
  6
CONTINUOUS
 62
      32
100
AcDbLine
 10
-329.45609966
 20
571.26782683
 30
0.0
 11
-330.70609966
 21
570.01782683
 31
0.0
  0
LINE
  5
2CF
100
AcDbEntity
  8
ZUWAKU
  6
CONTINUOUS
 62
      32
100
AcDbLine
 10
-330.58747051
 20
571.26782683
 30
0.0
 11
-331.24751769
 21
570.60777965
 31
0.0
  0
LINE
  5
2D0
100
AcDbEntity
  8
ZUWAKU
  6
CONTINUOUS
 62
      32
100
AcDbLine
 10
-319.11641162
 20
563.50558127
 30
0.0
 11
-320.31317162
 21
562.30882127
 31
0.0
  0
LINE
  5
2D1
100
AcDbEntity
  8
ZUWAKU
  6
CONTINUOUS
 62
      32
100
AcDbLine
 10
-317.91159556
 20
563.57902648
 30
0.0
 11
-320.60823773
 21
560.88238431
 31
0.0
  0
LINE
  5
2D2
100
AcDbEntity
  8
ZUWAKU
  6
CONTINUOUS
 62
      32
100
AcDbLine
 10
-317.03740871
 20
562.19047163
 30
0.0
 11
-320.45481838
 21
558.77306196
 31
0.0
  0
LINE
  5
2D3
100
AcDbEntity
  8
ZUWAKU
  6
CONTINUOUS
 62
      32
100
AcDbLine
 10
-324.93061626
 20
571.26782683
 30
0.0
 11
-326.18061626
 21
570.01782683
 31
0.0
  0
LINE
  5
2D4
100
AcDbEntity
  8
ZUWAKU
  6
CONTINUOUS
 62
      32
100
AcDbLine
 10
-328.0022117
 20
568.19623138
 30
0.0
 11
-330.14163024
 21
566.05681285
 31
0.0
  0
LINE
  5
2D5
100
AcDbEntity
  8
ZUWAKU
  6
CONTINUOUS
 62
      32
100
AcDbLine
 10
-323.79924541
 20
571.26782683
 30
0.0
 11
-325.04924541
 21
570.01782683
 31
0.0
  0
LINE
  5
2D6
100
AcDbEntity
  8
ZUWAKU
  6
CONTINUOUS
 62
      32
100
AcDbLine
 10
-328.68103421
 20
566.38603802
 30
0.0
 11
-330.82045275
 21
564.24661949
 31
0.0
  0
LINE
  5
2D7
100
AcDbEntity
  8
ZUWAKU
  6
CONTINUOUS
 62
      32
100
AcDbLine
 10
-322.68054849
 20
571.2551529
 30
0.0
 11
-323.91787456
 21
570.01782683
 31
0.0
  0
LINE
  5
2D8
100
AcDbEntity
  8
ZUWAKU
  6
CONTINUOUS
 62
      32
100
AcDbLine
 10
-327.91787456
 20
566.01782683
 30
0.0
 11
-329.16987456
 21
564.76582683
 31
0.0
  0
LINE
  5
2D9
100
AcDbEntity
  8
ZUWAKU
  6
CONTINUOUS
 62
      32
100
AcDbLine
 10
-321.76647817
 20
571.03785237
 30
0.0
 11
-322.79402308
 21
570.01030745
 31
0.0
  0
LINE
  5
2DA
100
AcDbEntity
  8
ZUWAKU
  6
CONTINUOUS
 62
      32
100
AcDbLine
 10
-326.78650371
 20
566.01782683
 30
0.0
 11
-328.2631819
 21
564.54114864
 31
0.0
  0
LINE
  5
2DB
100
AcDbEntity
  8
ZUWAKU
  6
CONTINUOUS
 62
      32
100
AcDbLine
 10
-321.03899429
 20
570.63396539
 30
0.0
 11
-321.93945363
 21
569.73350606
 31
0.0
  0
LINE
  5
2DC
100
AcDbEntity
  8
ZUWAKU
  6
CONTINUOUS
 62
      32
100
AcDbLine
 10
-320.45815323
 20
570.08343561
 30
0.0
 11
-321.34880736
 21
569.19278148
 31
0.0
  0
LINE
  5
2DD
100
AcDbEntity
  8
ZUWAKU
  6
CONTINUOUS
 62
      32
100
AcDbLine
 10
-320.02086455
 20
569.38935344
 30
0.0
 11
-321.00513801
 21
568.40507998
 31
0.0
  0
LINE
  5
2DE
100
AcDbEntity
  8
ZUWAKU
  6
CONTINUOUS
 62
      32
100
AcDbLine
 10
-319.75666208
 20
568.52218506
 30
0.0
 11
-321.20302435
 21
567.07582279
 31
0.0
  0
LINE
  5
2DF
100
AcDbEntity
  8
ZUWAKU
  6
CONTINUOUS
 62
      32
100
AcDbLine
 10
-326.06198711
 20
571.26782683
 30
0.0
 11
-327.31198711
 21
570.01782683
 31
0.0
  0
LINE
  5
2E0
100
AcDbEntity
  8
ZUWAKU
  6
CONTINUOUS
 62
      32
100
AcDbLine
 10
-327.32338919
 20
570.00642474
 30
0.0
 11
-329.46280773
 21
567.86700621
 31
0.0
  0
LINE
  5
2E1
100
AcDbEntity
  8
ZUWAKU
  6
CONTINUOUS
 62
      32
100
AcDbLine
 10
-324.52376201
 20
566.01782683
 30
0.0
 11
-325.77576201
 21
564.76582683
 31
0.0
  0
LINE
  5
2E2
100
AcDbEntity
  8
ZUWAKU
  6
CONTINUOUS
 62
      32
100
AcDbLine
 10
-326.52726263
 20
564.01432621
 30
0.0
 11
-327.44608073
 21
563.09550811
 31
0.0
  0
LINE
  5
2E3
100
AcDbEntity
  8
ZUWAKU
  6
CONTINUOUS
 62
      32
100
AcDbLine
 10
-325.65513286
 20
566.01782683
 30
0.0
 11
-326.90713286
 21
564.76582683
 31
0.0
  0
LINE
  5
2E4
100
AcDbEntity
  8
ZUWAKU
  6
CONTINUOUS
 62
      32
100
AcDbLine
 10
-326.93581322
 20
564.73714647
 30
0.0
 11
-327.85463131
 21
563.81832838
 31
0.0
  0
LINE
  5
2E5
100
AcDbEntity
  8
ZUWAKU
  6
CONTINUOUS
 62
      32
100
AcDbLine
 10
-323.39239116
 20
566.01782683
 30
0.0
 11
-324.64439116
 21
564.76582683
 31
0.0
  0
LINE
  5
2E6
100
AcDbEntity
  8
ZUWAKU
  6
CONTINUOUS
 62
      32
100
AcDbLine
 10
-326.11871205
 20
563.29150594
 30
0.0
 11
-327.03753014
 21
562.37268785
 31
0.0
  0
LINE
  5
2E7
100
AcDbEntity
  8
ZUWAKU
  6
CONTINUOUS
 62
      32
100
AcDbLine
 10
-322.02528458
 20
566.25356256
 30
0.0
 11
-323.51302031
 21
564.76582683
 31
0.0
  0
LINE
  5
2E8
100
AcDbEntity
  8
ZUWAKU
  6
CONTINUOUS
 62
      32
100
AcDbLine
 10
-325.71016146
 20
562.56868568
 30
0.0
 11
-326.62897956
 21
561.64986758
 31
0.0
  0
LINE
  5
2E9
100
AcDbEntity
  8
ZUWAKU
  6
CONTINUOUS
 62
      32
100
AcDbLine
 10
-319.78380251
 20
567.36367378
 30
0.0
 11
-322.31313557
 21
564.83434072
 31
0.0
  0
LINE
  5
2EA
100
AcDbEntity
  8
ZUWAKU
  6
CONTINUOUS
 62
      32
100
AcDbLine
 10
-325.30161088
 20
561.84586541
 30
0.0
 11
-326.22042897
 21
560.92704732
 31
0.0
  0
LINE
  5
2EB
100
AcDbEntity
  8
ZUWAKU
  6
CONTINUOUS
 62
      32
100
AcDbLine
 10
-324.89306029
 20
561.12304515
 30
0.0
 11
-325.81187839
 21
560.20422705
 31
0.0
  0
LINE
  5
2EC
100
AcDbEntity
  8
ZUWAKU
  6
CONTINUOUS
 62
      32
100
AcDbLine
 10
-324.48450971
 20
560.40022488
 30
0.0
 11
-325.4033278
 21
559.48140679
 31
0.0
  0
LINE
  5
2ED
100
AcDbEntity
  8
ZUWAKU
  6
CONTINUOUS
 62
      32
100
AcDbLine
 10
-323.73353691
 20
560.01982683
 30
0.0
 11
-324.98553691
 21
558.76782683
 31
0.0
  0
LINE
  5
2EE
100
AcDbEntity
  8
ZUWAKU
  6
CONTINUOUS
 62
      32
100
AcDbLine
 10
-322.60216606
 20
560.01982683
 30
0.0
 11
-323.85416606
 21
558.76782683
 31
0.0
  0
LINE
  5
2EF
100
AcDbEntity
  8
ZUWAKU
  6
CONTINUOUS
 62
      32
100
AcDbLine
 10
-321.47079521
 20
560.01982683
 30
0.0
 11
-322.72279521
 21
558.76782683
 31
0.0
  0
LINE
  5
2F0
100
AcDbEntity
  8
ZUWAKU
  6
CONTINUOUS
 62
      32
100
AcDbLine
 10
-317.29737415
 20
563.06187704
 30
0.0
 11
-318.33420777
 21
562.02504342
 31
0.0
  0
LINE
  5
2F1
100
AcDbEntity
  8
ZUWAKU
  6
CONTINUOUS
 62
      32
100
AcDbLine
 10
-319.27587559
 20
561.0833756
 30
0.0
 11
-321.59142436
 21
558.76782683
 31
0.0
  0
LINE
  5
2F2
100
AcDbEntity
  8
ZUWAKU
  6
CONTINUOUS
 62
      32
100
AcDbLine
 10
-311.13836887
 20
566.95814062
 30
0.0
 11
-314.00704513
 21
564.08946436
 31
0.0
  0
LINE
  5
2F3
100
AcDbEntity
  8
ZUWAKU
  6
CONTINUOUS
 62
      32
100
AcDbLine
 10
-317.48445569
 20
560.6120538
 30
0.0
 11
-319.10199204
 21
558.99451745
 31
0.0
  0
LINE
  5
2F4
100
AcDbEntity
  8
ZUWAKU
  6
CONTINUOUS
 62
      32
100
AcDbLine
 10
-310.36110596
 20
566.60403268
 30
0.0
 11
-314.65251449
 21
562.31262415
 31
0.0
  0
LINE
  5
2F5
100
AcDbEntity
  8
ZUWAKU
  6
CONTINUOUS
 62
      32
100
AcDbLine
 10
-316.94531181
 20
560.01982683
 30
0.0
 11
-318.19230183
 21
558.77283681
 31
0.0
  0
LINE
  5
2F6
100
AcDbEntity
  8
ZUWAKU
  6
CONTINUOUS
 62
      32
100
AcDbLine
 10
-315.81394096
 20
560.01982683
 30
0.0
 11
-317.06594096
 21
558.76782683
 31
0.0
  0
LINE
  5
2F7
100
AcDbEntity
  8
ZUWAKU
  6
CONTINUOUS
 62
      32
100
AcDbLine
 10
-310.07940873
 20
565.75435906
 30
0.0
 11
-311.70847151
 21
564.12529628
 31
0.0
  0
LINE
  5
2F8
100
AcDbEntity
  8
ZUWAKU
  6
CONTINUOUS
 62
      32
100
AcDbLine
 10
-313.1733554
 20
562.66041239
 30
0.0
 11
-314.80241817
 21
561.03134962
 31
0.0
  0
LINE
  5
2F9
100
AcDbEntity
  8
ZUWAKU
  6
CONTINUOUS
 62
      32
100
AcDbLine
 10
-310.14447883
 20
564.55791811
 30
0.0
 11
-315.93457012
 21
558.76782683
 31
0.0
  0
LINE
  5
2FA
100
AcDbEntity
  8
ZUWAKU
  6
CONTINUOUS
 62
      32
100
AcDbLine
 10
-310.63585052
 20
562.93517557
 30
0.0
 11
-314.67420144
 21
558.89682465
 31
0.0
  0
LINE
  5
2FB
100
AcDbEntity
  8
ZUWAKU
  6
CONTINUOUS
 62
      32
100
AcDbLine
 10
-306.40695534
 20
563.76914291
 30
0.0
 11
-311.40827142
 21
558.76782683
 31
0.0
  0
LINE
  5
2FC
100
AcDbEntity
  8
ZUWAKU
  6
CONTINUOUS
 62
      32
100
AcDbLine
 10
-306.02119005
 20
566.41764989
 30
0.0
 11
-306.28212402
 21
566.15671592
 31
0.0
  0
LINE
  5
2FD
100
AcDbEntity
  8
ZUWAKU
  6
CONTINUOUS
 62
      32
100
AcDbLine
 10
-312.29842869
 20
560.14041125
 30
0.0
 11
-313.27061652
 21
559.16822342
 31
0.0
  0
LINE
  5
2FE
100
AcDbEntity
  8
ZUWAKU
  6
CONTINUOUS
 62
      32
100
AcDbLine
 10
-305.05248688
 20
566.25498222
 30
0.0
 11
-306.11945635
 21
565.18801274
 31
0.0
  0
LINE
  5
2FF
100
AcDbEntity
  8
ZUWAKU
  6
CONTINUOUS
 62
      32
100
AcDbLine
 10
-311.28764227
 20
560.01982683
 30
0.0
 11
-312.42822515
 21
558.87924394
 31
0.0
  0
LINE
  5
300
100
AcDbEntity
  8
ZUWAKU
  6
CONTINUOUS
 62
      32
100
AcDbLine
 10
-300.22662976
 20
563.16124338
 30
0.0
 11
-304.31771921
 21
559.07015393
 31
0.0
  0
LINE
  5
301
100
AcDbEntity
  8
ZUWAKU
  6
CONTINUOUS
 62
      32
100
AcDbLine
 10
-305.63078802
 20
560.01982683
 30
0.0
 11
-306.88278802
 21
558.76782683
 31
0.0
  0
LINE
  5
302
100
AcDbEntity
  8
ZUWAKU
  6
CONTINUOUS
 62
      32
100
AcDbLine
 10
-306.47404449
 20
560.30794121
 30
0.0
 11
-308.01415887
 21
558.76782683
 31
0.0
  0
LINE
  5
303
100
AcDbEntity
  8
ZUWAKU
  6
CONTINUOUS
 62
      32
100
AcDbLine
 10
-306.24777032
 20
561.66558622
 30
0.0
 11
-307.77089406
 21
560.14246249
 31
0.0
  0
LINE
  5
304
100
AcDbEntity
  8
ZUWAKU
  6
CONTINUOUS
 62
      32
100
AcDbLine
 10
-310.27690057
 20
558.76782683
 30
0.0
 11
-306.02149615
 21
563.02323124
 31
0.0
  0
LINE
  5
305
100
AcDbEntity
  8
ZUWAKU
  6
CONTINUOUS
 62
      32
100
AcDbLine
 10
-297.84892125
 20
563.27621019
 30
0.0
 11
-302.3497745
 21
558.77535694
 31
0.0
  0
LINE
  5
306
100
AcDbEntity
  8
ZUWAKU
  6
CONTINUOUS
 62
      32
100
AcDbLine
 10
-298.3351807
 20
561.65857989
 30
0.0
 11
-300.69166797
 21
559.30209263
 31
0.0
  0
LINE
  5
307
100
AcDbEntity
  8
ZUWAKU
  6
CONTINUOUS
 62
      32
100
AcDbLine
 10
-298.75
 20
560.11238974
 30
0.0
 11
-300.09456292
 21
558.76782683
 31
0.0
  0
LINE
  5
308
100
AcDbEntity
  8
ZUWAKU
  6
CONTINUOUS
 62
      32
100
AcDbLine
 10
-297.71119207
 20
560.01982683
 30
0.0
 11
-298.96319207
 21
558.76782683
 31
0.0
  0
LINE
  5
309
100
AcDbEntity
  8
ZUWAKU
  6
CONTINUOUS
 62
      32
100
AcDbLine
 10
-293.70051254
 20
562.8991355
 30
0.0
 11
-297.83182122
 21
558.76782683
 31
0.0
  0
LINE
  5
30A
100
AcDbEntity
  8
ZUWAKU
  6
CONTINUOUS
 62
      32
100
AcDbLine
 10
-301.93191258
 20
562.58733141
 30
0.0
 11
-302.574929
 21
561.944315
 31
0.0
  0
LINE
  5
30B
100
AcDbEntity
  8
ZUWAKU
  6
CONTINUOUS
 62
      32
100
AcDbLine
 10
-303.8501863
 20
560.6690577
 30
0.0
 11
-305.75141717
 21
558.76782683
 31
0.0
  0
LINE
  5
30C
100
AcDbEntity
  8
ZUWAKU
  6
CONTINUOUS
 62
      32
100
AcDbLine
 10
-301.54999535
 20
560.70650694
 30
0.0
 11
-303.07361769
 21
559.1828846
 31
0.0
  0
LINE
  5
30D
100
AcDbEntity
  8
ZUWAKU
  6
CONTINUOUS
 62
      32
100
AcDbLine
 10
-298.9802921
 20
563.27621019
 30
0.0
 11
-299.13565463
 21
563.12084766
 31
0.0
  0
LINE
  5
30E
100
AcDbEntity
  8
ZUWAKU
  6
CONTINUOUS
 62
      32
100
AcDbLine
 10
-299.52677822
 20
562.72972407
 30
0.0
 11
-300.60240514
 21
561.65409716
 31
0.0
  0
LINE
  5
30F
100
AcDbEntity
  8
ZUWAKU
  6
CONTINUOUS
 62
      32
100
AcDbLine
 10
-290.77466323
 20
563.51782683
 30
0.0
 11
-292.52466323
 21
561.76782683
 31
0.0
  0
LINE
  5
310
100
AcDbEntity
  8
ZUWAKU
  6
CONTINUOUS
 62
      32
100
AcDbLine
 10
-292.9989097
 20
561.29358036
 30
0.0
 11
-295.26862468
 21
559.02386537
 31
0.0
  0
TEXT
  5
311
100
AcDbEntity
  8
ZUWAKU
 62
      32
100
AcDbText
 10
-338.20475062
 20
-552.23217317
 30
0.0
 40
13.6
  1
株式会社
 41
0.6667
 72
       5
 11
-294.68475062
 21
-552.23217317
 31
0.0
100
AcDbText
  0
LINE
  5
312
100
AcDbEntity
  8
ZUWAKU
  6
CONTINUOUS
 62
       3
100
AcDbLine
 10
-398.44564244
 20
563.64794497
 30
0.0
 11
-398.45960995
 21
563.63397746
 31
0.0
  0
LINE
  5
313
100
AcDbEntity
  8
ZUWAKU
  6
CONTINUOUS
 62
       3
100
AcDbLine
 10
-399.01571983
 20
563.64355301
 30
0.0
 11
-399.02529538
 21
563.63397746
 31
0.0
  0
LINE
  5
314
100
AcDbEntity
  8
ZUWAKU
  6
CONTINUOUS
 62
       3
100
AcDbLine
 10
-399.58579721
 20
563.63916105
 30
0.0
 11
-399.5909808
 21
563.63397746
 31
0.0
  0
LINE
  5
315
100
AcDbEntity
  8
ZUWAKU
  6
CONTINUOUS
 62
       3
100
AcDbLine
 10
123.0
 20
575.26782683
 30
0.0
 11
375.5
 21
575.26782683
 31
0.0
  0
LINE
  5
316
100
AcDbEntity
  8
ZUWAKU
  6
CONTINUOUS
 62
       3
100
AcDbLine
 10
123.0
 20
575.26782683
 30
0.0
 11
123.0
 21
535.64327828
 31
0.0
  0
LINE
  5
317
100
AcDbEntity
  8
ZUWAKU
  6
CONTINUOUS
 62
       3
100
AcDbLine
 10
375.5
 20
575.26782683
 30
0.0
 11
375.5
 21
535.64327828
 31
0.0
  0
LINE
  5
318
100
AcDbEntity
  8
ZUWAKU
  6
CONTINUOUS
 62
       3
100
AcDbLine
 10
-338.5
 20
-507.48217317
 30
0.0
 11
-338.5
 21
-327.48217317
 31
0.0
  0
LINE
  5
319
100
AcDbEntity
  8
ZUWAKU
  6
CONTINUOUS
 62
       3
100
AcDbLine
 10
-152.25
 20
-507.48217317
 30
0.0
 11
-152.25
 21
-327.48217317
 31
0.0
  0
LINE
  5
31A
100
AcDbEntity
  8
ZUWAKU
  6
CONTINUOUS
 62
       3
100
AcDbLine
 10
60.25
 20
-507.48217317
 30
0.0
 11
60.25
 21
-327.48217317
 31
0.0
  0
LINE
  5
31B
100
AcDbEntity
  8
ZUWAKU
  6
CONTINUOUS
 62
       3
100
AcDbLine
 10
122.0
 20
-562.48217317
 30
0.0
 11
122.0
 21
-514.23217317
 31
0.0
  0
LINE
  5
31C
100
AcDbEntity
  8
ZUWAKU
  6
CONTINUOUS
 62
       3
100
AcDbLine
 10
102.0
 20
-562.48217317
 30
0.0
 11
102.0
 21
-514.23217317
 31
0.0
  0
LINE
  5
31D
100
AcDbEntity
  8
ZUWAKU
  6
CONTINUOUS
 62
       3
100
AcDbLine
 10
-148.25
 20
-562.48217317
 30
0.0
 11
-148.25
 21
-514.23217317
 31
0.0
  0
LINE
  5
31E
100
AcDbEntity
  8
ZUWAKU
  6
CONTINUOUS
 62
       3
100
AcDbLine
 10
-168.25
 20
-562.48217317
 30
0.0
 11
-168.25
 21
-514.23217317
 31
0.0
  0
LINE
  5
31F
100
AcDbEntity
  8
ZUWAKU
  6
CONTINUOUS
 62
       3
100
AcDbLine
 10
-366.25
 20
-487.48217317
 30
0.0
 11
371.5
 21
-487.48217317
 31
0.0
  0
LINE
  5
320
100
AcDbEntity
  8
ZUWAKU
  6
CONTINUOUS
 62
       3
100
AcDbLine
 10
-366.25
 20
-467.48217317
 30
0.0
 11
371.5
 21
-467.48217317
 31
0.0
  0
LINE
  5
321
100
AcDbEntity
  8
ZUWAKU
  6
CONTINUOUS
 62
       3
100
AcDbLine
 10
-366.25
 20
-447.48217317
 30
0.0
 11
371.5
 21
-447.48217317
 31
0.0
  0
LINE
  5
322
100
AcDbEntity
  8
ZUWAKU
  6
CONTINUOUS
 62
       3
100
AcDbLine
 10
-366.25
 20
-427.48217317
 30
0.0
 11
371.5
 21
-427.48217317
 31
0.0
  0
LINE
  5
323
100
AcDbEntity
  8
ZUWAKU
  6
CONTINUOUS
 62
       3
100
AcDbLine
 10
-366.25
 20
-387.48217317
 30
0.0
 11
371.5
 21
-387.48217317
 31
0.0
  0
LINE
  5
324
100
AcDbEntity
  8
ZUWAKU
  6
CONTINUOUS
 62
       3
100
AcDbLine
 10
-366.25
 20
-347.48217317
 30
0.0
 11
371.5
 21
-347.48217317
 31
0.0
  0
POINT
  5
325
100
AcDbEntity
  8
ZUWAKU
  6
CONTINUOUS
 62
       3
100
AcDbPoint
 10
-366.25
 20
-157.8619574
 30
0.0
  0
POINT
  5
326
100
AcDbEntity
  8
ZUWAKU
  6
CONTINUOUS
 62
       3
100
AcDbPoint
 10
-366.25
 20
162.1380426
 30
0.0
  0
POINT
  5
327
100
AcDbEntity
  8
ZUWAKU
  6
CONTINUOUS
 62
       3
100
AcDbPoint
 10
-422.0
 20
2.1380426
 30
0.0
  0
LINE
  5
328
100
AcDbEntity
  8
ZUWAKU
  6
CONTINUOUS
 62
       3
100
AcDbLine
 10
104.75
 20
-507.48217317
 30
0.0
 11
104.75
 21
-327.48217317
 31
0.0
  0
LINE
  5
329
100
AcDbEntity
  8
ZUWAKU
  6
CONTINUOUS
 62
       3
100
AcDbLine
 10
-366.25
 20
-407.48217317
 30
0.0
 11
371.5
 21
-407.48217317
 31
0.0
  0
LINE
  5
32A
100
AcDbEntity
  8
ZUWAKU
  6
CONTINUOUS
 62
       3
100
AcDbLine
 10
-366.25
 20
-367.48217317
 30
0.0
 11
371.5
 21
-367.48217317
 31
0.0
  0
TEXT
  5
32B
100
AcDbEntity
  8
ZUWAKU
 62
       4
100
AcDbText
 10
393.21237074
 20
457.75669085
 30
0.0
 40
16.0
  1
タオル掛
 50
-90.0
 41
0.6667
 72
       5
 11
393.21237074
 21
406.55669085
 31
0.0
100
AcDbText
  0
TEXT
  5
32C
100
AcDbEntity
  8
ZUWAKU
 62
       4
100
AcDbText
 10
-158.25197874
 20
-517.66360947
 30
0.0
 40
9.996
  1
品 名
 41
0.8
  7
FDASTYLE1
100
AcDbText
  0
TEXT
  5
32D
100
AcDbEntity
  8
ZUWAKU
 62
       4
100
AcDbText
 10
111.75697477
 20
-517.73399534
 30
0.0
 40
9.996
  1
品　番
 41
0.8
  7
FDASTYLE1
100
AcDbText
  0
TEXT
  5
32E
100
AcDbEntity
  8
ZUWAKU
 62
       4
100
AcDbText
 10
-359.40298532
 20
-485.32230678
 30
0.0
 40
16.0
  1
1
 41
0.8
 72
       5
 11
-346.60298532
 21
-485.32230678
 31
0.0
100
AcDbText
  0
TEXT
  5
32F
100
AcDbEntity
  8
ZUWAKU
 62
       4
100
AcDbText
 10
-359.40298532
 20
-465.32230678
 30
0.0
 40
16.0
  1
2
 41
0.8
 72
       5
 11
-346.60298532
 21
-465.32230678
 31
0.0
100
AcDbText
  0
TEXT
  5
330
100
AcDbEntity
  8
ZUWAKU
 62
       4
100
AcDbText
 10
-359.40298532
 20
-445.32230678
 30
0.0
 40
16.0
  1
3
 41
0.8
 72
       5
 11
-346.60298532
 21
-445.32230678
 31
0.0
100
AcDbText
  0
TEXT
  5
331
100
AcDbEntity
  8
ZUWAKU
 62
       4
100
AcDbText
 10
-359.40298532
 20
-425.32230678
 30
0.0
 40
16.0
  1
4
 41
0.8
 72
       5
 11
-346.60298532
 21
-425.32230678
 31
0.0
100
AcDbText
  0
TEXT
  5
332
100
AcDbEntity
  8
ZUWAKU
 62
       4
100
AcDbText
 10
-359.40298532
 20
-405.32230678
 30
0.0
 40
16.0
  1
5
 41
0.8
 72
       5
 11
-346.60298532
 21
-405.32230678
 31
0.0
100
AcDbText
  0
TEXT
  5
333
100
AcDbEntity
  8
ZUWAKU
 62
       4
100
AcDbText
 10
-359.40298532
 20
-385.32230678
 30
0.0
 40
16.0
  1
6
 41
0.8
 72
       5
 11
-346.60298532
 21
-385.32230678
 31
0.0
100
AcDbText
  0
TEXT
  5
334
100
AcDbEntity
  8
ZUWAKU
 62
       4
100
AcDbText
 10
-359.40298532
 20
-365.32230678
 30
0.0
 40
16.0
  1
7
 41
0.8
 72
       5
 11
-346.60298532
 21
-365.32230678
 31
0.0
100
AcDbText
  0
TEXT
  5
335
100
AcDbEntity
  8
ZUWAKU
 62
       4
100
AcDbText
 10
205.4884048
 20
-505.2433722
 30
0.0
 40
16.0
  1
摘要・仕上
 41
0.7143
 72
       5
 11
269.4884048
 21
-505.2433722
 31
0.0
100
AcDbText
  0
TEXT
  5
336
100
AcDbEntity
  8
ZUWAKU
 62
       4
100
AcDbText
 10
62.94584517
 20
-505.2433722
 30
0.0
 40
16.0
  1
個　数
 41
0.75
 72
       5
 11
101.34584517
 21
-505.2433722
 31
0.0
100
AcDbText
  0
TEXT
  5
337
100
AcDbEntity
  8
ZUWAKU
 62
       4
100
AcDbText
 10
-71.43779203
 20
-505.2433722
 30
0.0
 40
16.0
  1
材　　質
 41
0.6667
 72
       5
 11
-20.23779203
 21
-505.2433722
 31
0.0
100
AcDbText
  0
TEXT
  5
338
100
AcDbEntity
  8
ZUWAKU
 62
       4
100
AcDbText
 10
-277.50747107
 20
-505.2433722
 30
0.0
 40
16.0
  1
部　品　名
 41
0.7143
 72
       5
 11
-213.50747107
 21
-505.2433722
 31
0.0
100
AcDbText
  0
TEXT
  5
339
100
AcDbEntity
  8
ZUWAKU
 62
       4
100
AcDbText
 10
-365.6759242
 20
-505.2433722
 30
0.0
 40
16.0
  1
部番
 41
0.6667
 72
       5
 11
-340.0759242
 21
-505.2433722
 31
0.0
100
AcDbText
  0
TEXT
  5
33A
100
AcDbEntity
  8
ZUWAKU
 62
       4
100
AcDbText
 10
295.67456714
 20
-584.50598467
 30
0.0
 40
16.0
  1
071031
 41
0.8
 72
       5
 11
372.47456714
 21
-584.50598467
 31
0.0
100
AcDbText
  0
TEXT
  5
33B
100
AcDbEntity
  8
ZUWAKU
 62
       4
100
AcDbText
 10
-359.40298532
 20
-345.32230678
 30
0.0
 40
16.0
  1
8
 41
0.8
 72
       5
 11
-346.60298532
 21
-345.32230678
 31
0.0
100
AcDbText
  0
LINE
  5
33C
100
AcDbEntity
  8
ZUWAKU
  6
CONTINUOUS
 62
      43
100
AcDbLine
 10
-367.25
 20
535.64327828
 30
0.0
 11
375.5
 21
535.64327828
 31
0.0
  0
LINE
  5
33D
100
AcDbEntity
  8
ZUWAKU
  6
CONTINUOUS
 62
      43
100
AcDbLine
 10
-366.25
 20
-562.48217317
 30
0.0
 11
371.5
 21
-562.48217317
 31
0.0
  0
LINE
  5
33E
100
AcDbEntity
  8
ZUWAKU
  6
CONTINUOUS
 62
      43
100
AcDbLine
 10
-366.25
 20
-514.23217317
 30
0.0
 11
371.5
 21
-514.23217317
 31
0.0
  0
LINE
  5
33F
100
AcDbEntity
  8
ZUWAKU
  6
CONTINUOUS
 62
      43
100
AcDbLine
 10
-366.25
 20
-507.48217317
 30
0.0
 11
371.5
 21
-507.48217317
 31
0.0
  0
LINE
  5
340
100
AcDbEntity
  8
ZUWAKU
  6
CONTINUOUS
 62
      43
100
AcDbLine
 10
-366.25
 20
-507.48217317
 30
0.0
 11
-366.25
 21
-327.48217317
 31
0.0
  0
LINE
  5
341
100
AcDbEntity
  8
ZUWAKU
  6
CONTINUOUS
 62
      43
100
AcDbLine
 10
371.5
 20
-507.48217317
 30
0.0
 11
371.5
 21
-327.48217317
 31
0.0
  0
LINE
  5
342
100
AcDbEntity
  8
ZUWAKU
  6
CONTINUOUS
 62
      43
100
AcDbLine
 10
-366.25
 20
-327.48217317
 30
0.0
 11
371.5
 21
-327.48217317
 31
0.0
  0
ELLIPSE
  5
343
100
AcDbEntity
  8
ZUWAKU
  6
CONTINUOUS
 62
      43
100
AcDbEllipse
 10
-309.375
 20
563.63397746
 30
0.0
 11
-51.125
 21
0.0
 31
0.0
210
0.0
220
0.0
230
1.0
 40
0.40365317
 41
0.0
 42
6.2831853071796004
  0
LINE
  5
344
100
AcDbEntity
  8
ZUWAKU
  6
CONTINUOUS
 62
      43
100
AcDbLine
 10
-350.5
 20
573.51782683
 30
0.0
 11
-350.5
 21
554.01782683
 31
0.0
  0
LINE
  5
345
100
AcDbEntity
  8
ZUWAKU
  6
CONTINUOUS
 62
      43
100
AcDbLine
 10
-268.0
 20
573.51782683
 30
0.0
 11
-268.0
 21
554.01782683
 31
0.0
  0
LINE
  5
346
100
AcDbEntity
  8
ZUWAKU
  6
CONTINUOUS
 62
      43
100
AcDbLine
 10
-350.5
 20
573.51782683
 30
0.0
 11
-268.0
 21
573.51782683
 31
0.0
  0
LINE
  5
347
100
AcDbEntity
  8
ZUWAKU
  6
CONTINUOUS
 62
      43
100
AcDbLine
 10
-350.5
 20
554.01782683
 30
0.0
 11
-268.0
 21
554.01782683
 31
0.0
  0
LINE
  5
348
100
AcDbEntity
  8
ZUWAKU
  6
CONTINUOUS
 62
      43
100
AcDbLine
 10
-314.47040714
 20
584.167995
 30
0.0
 11
-325.12057532
 21
573.51782683
 31
0.0
  0
LINE
  5
349
100
AcDbEntity
  8
ZUWAKU
  6
CONTINUOUS
 62
      43
100
AcDbLine
 10
-315.65532653
 20
584.11444646
 30
0.0
 11
-326.25194617
 21
573.51782683
 31
0.0
  0
LINE
  5
34A
100
AcDbEntity
  8
ZUWAKU
  6
CONTINUOUS
 62
      43
100
AcDbLine
 10
-316.85230802
 20
584.04883582
 30
0.0
 11
-327.38331702
 21
573.51782683
 31
0.0
  0
LINE
  5
34B
100
AcDbEntity
  8
ZUWAKU
  6
CONTINUOUS
 62
      43
100
AcDbLine
 10
-318.06185006
 20
583.97066463
 30
0.0
 11
-328.51468787
 21
573.51782683
 31
0.0
  0
LINE
  5
34C
100
AcDbEntity
  8
ZUWAKU
  6
CONTINUOUS
 62
      43
100
AcDbLine
 10
-319.28450934
 20
583.8793762
 30
0.0
 11
-329.64605872
 21
573.51782683
 31
0.0
  0
LINE
  5
34D
100
AcDbEntity
  8
ZUWAKU
  6
CONTINUOUS
 62
      43
100
AcDbLine
 10
-320.52090972
 20
583.77434667
 30
0.0
 11
-330.77742956
 21
573.51782683
 31
0.0
  0
LINE
  5
34E
100
AcDbEntity
  8
ZUWAKU
  6
CONTINUOUS
 62
      43
100
AcDbLine
 10
-321.77175304
 20
583.6548742
 30
0.0
 11
-331.90880041
 21
573.51782683
 31
0.0
  0
LINE
  5
34F
100
AcDbEntity
  8
ZUWAKU
  6
CONTINUOUS
 62
      43
100
AcDbLine
 10
-323.03783244
 20
583.52016565
 30
0.0
 11
-333.04017126
 21
573.51782683
 31
0.0
  0
LINE
  5
350
100
AcDbEntity
  8
ZUWAKU
  6
CONTINUOUS
 62
      43
100
AcDbLine
 10
-324.32004884
 20
583.3693201
 30
0.0
 11
-334.17154211
 21
573.51782683
 31
0.0
  0
LINE
  5
351
100
AcDbEntity
  8
ZUWAKU
  6
CONTINUOUS
 62
      43
100
AcDbLine
 10
-325.61943152
 20
583.20130827
 30
0.0
 11
-335.30291296
 21
573.51782683
 31
0.0
  0
LINE
  5
352
100
AcDbEntity
  8
ZUWAKU
  6
CONTINUOUS
 62
      43
100
AcDbLine
 10
-326.93716421
 20
583.01494643
 30
0.0
 11
-336.43428381
 21
573.51782683
 31
0.0
  0
LINE
  5
353
100
AcDbEntity
  8
ZUWAKU
  6
CONTINUOUS
 62
      43
100
AcDbLine
 10
-328.27461859
 20
582.8088629
 30
0.0
 11
-337.56565466
 21
573.51782683
 31
0.0
  0
LINE
  5
354
100
AcDbEntity
  8
ZUWAKU
  6
CONTINUOUS
 62
      43
100
AcDbLine
 10
-329.63339785
 20
582.58145448
 30
0.0
 11
-338.69702551
 21
573.51782683
 31
0.0
  0
LINE
  5
355
100
AcDbEntity
  8
ZUWAKU
  6
CONTINUOUS
 62
      43
100
AcDbLine
 10
-331.01539444
 20
582.33082875
 30
0.0
 11
-339.82839636
 21
573.51782683
 31
0.0
  0
LINE
  5
356
100
AcDbEntity
  8
ZUWAKU
  6
CONTINUOUS
 62
      43
100
AcDbLine
 10
-332.42286791
 20
582.05472613
 30
0.0
 11
-340.95976721
 21
573.51782683
 31
0.0
  0
LINE
  5
357
100
AcDbEntity
  8
ZUWAKU
  6
CONTINUOUS
 62
      43
100
AcDbLine
 10
-350.5
 20
563.97759404
 30
0.0
 11
-350.70976721
 21
563.76782683
 31
0.0
  0
LINE
  5
358
100
AcDbEntity
  8
ZUWAKU
  6
CONTINUOUS
 62
      43
100
AcDbLine
 10
-333.85855245
 20
581.75041244
 30
0.0
 11
-342.09113806
 21
573.51782683
 31
0.0
  0
LINE
  5
359
100
AcDbEntity
  8
ZUWAKU
  6
CONTINUOUS
 62
      43
100
AcDbLine
 10
-350.5
 20
565.10896489
 30
0.0
 11
-351.84113806
 21
563.76782683
 31
0.0
  0
LINE
  5
35A
100
AcDbEntity
  8
ZUWAKU
  6
CONTINUOUS
 62
      43
100
AcDbLine
 10
-335.32580884
 20
581.4145269
 30
0.0
 11
-343.22250891
 21
573.51782683
 31
0.0
  0
LINE
  5
35B
100
AcDbEntity
  8
ZUWAKU
  6
CONTINUOUS
 62
      43
100
AcDbLine
 10
-350.5
 20
566.24033574
 30
0.0
 11
-352.97250891
 21
563.76782683
 31
0.0
  0
LINE
  5
35C
100
AcDbEntity
  8
ZUWAKU
  6
CONTINUOUS
 62
      43
100
AcDbLine
 10
-336.82884612
 20
581.04286047
 30
0.0
 11
-344.35387976
 21
573.51782683
 31
0.0
  0
LINE
  5
35D
100
AcDbEntity
  8
ZUWAKU
  6
CONTINUOUS
 62
      43
100
AcDbLine
 10
-350.5
 20
567.37170659
 30
0.0
 11
-354.10387976
 21
563.76782683
 31
0.0
  0
LINE
  5
35E
100
AcDbEntity
  8
ZUWAKU
  6
CONTINUOUS
 62
      43
100
AcDbLine
 10
-338.37305634
 20
580.6300211
 30
0.0
 11
-345.48525061
 21
573.51782683
 31
0.0
  0
LINE
  5
35F
100
AcDbEntity
  8
ZUWAKU
  6
CONTINUOUS
 62
      43
100
AcDbLine
 10
-350.5
 20
568.50307744
 30
0.0
 11
-355.23525061
 21
563.76782683
 31
0.0
  0
LINE
  5
360
100
AcDbEntity
  8
ZUWAKU
  6
CONTINUOUS
 62
      43
100
AcDbLine
 10
-339.96554234
 20
580.16890595
 30
0.0
 11
-346.61662146
 21
573.51782683
 31
0.0
  0
LINE
  5
361
100
AcDbEntity
  8
ZUWAKU
  6
CONTINUOUS
 62
      43
100
AcDbLine
 10
-350.5
 20
569.63444829
 30
0.0
 11
-356.36662146
 21
563.76782683
 31
0.0
  0
LINE
  5
362
100
AcDbEntity
  8
ZUWAKU
  6
CONTINUOUS
 62
      43
100
AcDbLine
 10
-341.61599563
 20
579.64982351
 30
0.0
 11
-347.74799231
 21
573.51782683
 31
0.0
  0
LINE
  5
363
100
AcDbEntity
  8
ZUWAKU
  6
CONTINUOUS
 62
      43
100
AcDbLine
 10
-350.5
 20
570.76581914
 30
0.0
 11
-357.49799231
 21
563.76782683
 31
0.0
  0
LINE
  5
364
100
AcDbEntity
  8
ZUWAKU
  6
CONTINUOUS
 62
      43
100
AcDbLine
 10
-343.33825928
 20
579.05893071
 30
0.0
 11
-348.87936316
 21
573.51782683
 31
0.0
  0
LINE
  5
365
100
AcDbEntity
  8
ZUWAKU
  6
CONTINUOUS
 62
      43
100
AcDbLine
 10
-350.5
 20
571.89718999
 30
0.0
 11
-358.62936316
 21
563.76782683
 31
0.0
  0
LINE
  5
366
100
AcDbEntity
  8
ZUWAKU
  6
CONTINUOUS
 62
      43
100
AcDbLine
 10
-345.15337244
 20
578.3751884
 30
0.0
 11
-350.01073401
 21
573.51782683
 31
0.0
  0
LINE
  5
367
100
AcDbEntity
  8
ZUWAKU
  6
CONTINUOUS
 62
      43
100
AcDbLine
 10
-350.5
 20
573.02856084
 30
0.0
 11
-359.76073401
 21
563.76782683
 31
0.0
  0
LINE
  5
368
100
AcDbEntity
  8
ZUWAKU
  6
CONTINUOUS
 62
      43
100
AcDbLine
 10
-347.09629683
 20
577.56363486
 30
0.0
 11
-360.48225339
 21
564.1776783
 31
0.0
  0
LINE
  5
369
100
AcDbEntity
  8
ZUWAKU
  6
CONTINUOUS
 62
      43
100
AcDbLine
 10
-349.23391109
 20
576.55739145
 30
0.0
 11
-360.29035406
 21
565.50094848
 31
0.0
  0
LINE
  5
36A
100
AcDbEntity
  8
ZUWAKU
  6
CONTINUOUS
 62
      43
100
AcDbLine
 10
-351.73272999
 20
575.1899434
 30
0.0
 11
-359.73725008
 21
567.18542331
 31
0.0
  0
LINE
  5
36B
100
AcDbEntity
  8
ZUWAKU
  6
CONTINUOUS
 62
      43
100
AcDbLine
 10
-355.62779369
 20
572.42625055
 30
0.0
 11
-357.7879013
 21
570.26614294
 31
0.0
  0
LINE
  5
36C
100
AcDbEntity
  8
ZUWAKU
  6
CONTINUOUS
 62
      43
100
AcDbLine
 10
-313.29710221
 20
584.20992908
 30
0.0
 11
-323.98920447
 21
573.51782683
 31
0.0
  0
LINE
  5
36D
100
AcDbEntity
  8
ZUWAKU
  6
CONTINUOUS
 62
      43
100
AcDbLine
 10
-312.1350088
 20
584.24065164
 30
0.0
 11
-322.85783362
 21
573.51782683
 31
0.0
  0
LINE
  5
36E
100
AcDbEntity
  8
ZUWAKU
  6
CONTINUOUS
 62
      43
100
AcDbLine
 10
-310.98376342
 20
584.26052617
 30
0.0
 11
-321.72646277
 21
573.51782683
 31
0.0
  0
LINE
  5
36F
100
AcDbEntity
  8
ZUWAKU
  6
CONTINUOUS
 62
      43
100
AcDbLine
 10
-309.8430377
 20
584.26988104
 30
0.0
 11
-320.59509192
 21
573.51782683
 31
0.0
  0
LINE
  5
370
100
AcDbEntity
  8
ZUWAKU
  6
CONTINUOUS
 62
      43
100
AcDbLine
 10
-308.71253462
 20
584.26901327
 30
0.0
 11
-319.46372107
 21
573.51782683
 31
0.0
  0
LINE
  5
371
100
AcDbEntity
  8
ZUWAKU
  6
CONTINUOUS
 62
      43
100
AcDbLine
 10
-307.59198534
 20
584.2581917
 30
0.0
 11
-318.33235022
 21
573.51782683
 31
0.0
  0
LINE
  5
372
100
AcDbEntity
  8
ZUWAKU
  6
CONTINUOUS
 62
      43
100
AcDbLine
 10
-306.48114652
 20
584.23765967
 30
0.0
 11
-317.20097937
 21
573.51782683
 31
0.0
  0
LINE
  5
373
100
AcDbEntity
  8
ZUWAKU
  6
CONTINUOUS
 62
      43
100
AcDbLine
 10
-305.3797979
 20
584.20763745
 30
0.0
 11
-316.06960852
 21
573.51782683
 31
0.0
  0
LINE
  5
374
100
AcDbEntity
  8
ZUWAKU
  6
CONTINUOUS
 62
      43
100
AcDbLine
 10
-304.28774034
 20
584.16832415
 30
0.0
 11
-314.93823767
 21
573.51782683
 31
0.0
  0
LINE
  5
375
100
AcDbEntity
  8
ZUWAKU
  6
CONTINUOUS
 62
      43
100
AcDbLine
 10
-303.20479406
 20
584.11989958
 30
0.0
 11
-313.80686682
 21
573.51782683
 31
0.0
  0
LINE
  5
376
100
AcDbEntity
  8
ZUWAKU
  6
CONTINUOUS
 62
      43
100
AcDbLine
 10
-302.13079711
 20
584.06252568
 30
0.0
 11
-312.67549597
 21
573.51782683
 31
0.0
  0
LINE
  5
377
100
AcDbEntity
  8
ZUWAKU
  6
CONTINUOUS
 62
      43
100
AcDbLine
 10
-301.06560408
 20
583.99634786
 30
0.0
 11
-311.54412512
 21
573.51782683
 31
0.0
  0
LINE
  5
378
100
AcDbEntity
  8
ZUWAKU
  6
CONTINUOUS
 62
      43
100
AcDbLine
 10
-300.00908495
 20
583.92149614
 30
0.0
 11
-310.41275427
 21
573.51782683
 31
0.0
  0
LINE
  5
379
100
AcDbEntity
  8
ZUWAKU
  6
CONTINUOUS
 62
      43
100
AcDbLine
 10
-298.96112413
 20
583.83808611
 30
0.0
 11
-309.28138342
 21
573.51782683
 31
0.0
  0
LINE
  5
37A
100
AcDbEntity
  8
ZUWAKU
  6
CONTINUOUS
 62
      43
100
AcDbLine
 10
-297.92161958
 20
583.74621982
 30
0.0
 11
-308.15001257
 21
573.51782683
 31
0.0
  0
LINE
  5
37B
100
AcDbEntity
  8
ZUWAKU
  6
CONTINUOUS
 62
      43
100
AcDbLine
 10
-296.89048211
 20
583.64598643
 30
0.0
 11
-307.01864172
 21
573.51782683
 31
0.0
  0
LINE
  5
37C
100
AcDbEntity
  8
ZUWAKU
  6
CONTINUOUS
 62
      43
100
AcDbLine
 10
-295.86763476
 20
583.53746293
 30
0.0
 11
-305.88727087
 21
573.51782683
 31
0.0
  0
LINE
  5
37D
100
AcDbEntity
  8
ZUWAKU
  6
CONTINUOUS
 62
      43
100
AcDbLine
 10
-294.85301226
 20
583.42071458
 30
0.0
 11
-304.75590002
 21
573.51782683
 31
0.0
  0
LINE
  5
37E
100
AcDbEntity
  8
ZUWAKU
  6
CONTINUOUS
 62
      43
100
AcDbLine
 10
-293.84656061
 20
583.29579538
 30
0.0
 11
-303.62452917
 21
573.51782683
 31
0.0
  0
LINE
  5
37F
100
AcDbEntity
  8
ZUWAKU
  6
CONTINUOUS
 62
      43
100
AcDbLine
 10
-292.84823672
 20
583.16274842
 30
0.0
 11
-302.49315832
 21
573.51782683
 31
0.0
  0
LINE
  5
380
100
AcDbEntity
  8
ZUWAKU
  6
CONTINUOUS
 62
      43
100
AcDbLine
 10
-291.85800811
 20
583.02160618
 30
0.0
 11
-301.36178747
 21
573.51782683
 31
0.0
  0
LINE
  5
381
100
AcDbEntity
  8
ZUWAKU
  6
CONTINUOUS
 62
      43
100
AcDbLine
 10
-290.87585274
 20
582.8723907
 30
0.0
 11
-300.23041662
 21
573.51782683
 31
0.0
  0
LINE
  5
382
100
AcDbEntity
  8
ZUWAKU
  6
CONTINUOUS
 62
      43
100
AcDbLine
 10
-289.90175884
 20
582.71511375
 30
0.0
 11
-299.09904577
 21
573.51782683
 31
0.0
  0
LINE
  5
383
100
AcDbEntity
  8
ZUWAKU
  6
CONTINUOUS
 62
      43
100
AcDbLine
 10
-288.93572485
 20
582.54977689
 30
0.0
 11
-297.96767492
 21
573.51782683
 31
0.0
  0
LINE
  5
384
100
AcDbEntity
  8
ZUWAKU
  6
CONTINUOUS
 62
      43
100
AcDbLine
 10
-287.9777594
 20
582.37637149
 30
0.0
 11
-296.83630407
 21
573.51782683
 31
0.0
  0
LINE
  5
385
100
AcDbEntity
  8
ZUWAKU
  6
CONTINUOUS
 62
      43
100
AcDbLine
 10
-287.02788137
 20
582.19487868
 30
0.0
 11
-295.70493322
 21
573.51782683
 31
0.0
  0
LINE
  5
386
100
AcDbEntity
  8
ZUWAKU
  6
CONTINUOUS
 62
      43
100
AcDbLine
 10
-286.08612001
 20
582.00526919
 30
0.0
 11
-294.57356237
 21
573.51782683
 31
0.0
  0
LINE
  5
387
100
AcDbEntity
  8
ZUWAKU
  6
CONTINUOUS
 62
      43
100
AcDbLine
 10
-285.15251512
 20
581.80750322
 30
0.0
 11
-293.44219152
 21
573.51782683
 31
0.0
  0
LINE
  5
388
100
AcDbEntity
  8
ZUWAKU
  6
CONTINUOUS
 62
      43
100
AcDbLine
 10
-284.22711735
 20
581.60153015
 30
0.0
 11
-292.31082067
 21
573.51782683
 31
0.0
  0
LINE
  5
389
100
AcDbEntity
  8
ZUWAKU
  6
CONTINUOUS
 62
      43
100
AcDbLine
 10
-283.30998844
 20
581.38728821
 30
0.0
 11
-291.17944982
 21
573.51782683
 31
0.0
  0
LINE
  5
38A
100
AcDbEntity
  8
ZUWAKU
  6
CONTINUOUS
 62
      43
100
AcDbLine
 10
-282.40120172
 20
581.16470407
 30
0.0
 11
-290.04807897
 21
573.51782683
 31
0.0
  0
LINE
  5
38B
100
AcDbEntity
  8
ZUWAKU
  6
CONTINUOUS
 62
      43
100
AcDbLine
 10
-281.50084257
 20
580.93369237
 30
0.0
 11
-288.91670812
 21
573.51782683
 31
0.0
  0
LINE
  5
38C
100
AcDbEntity
  8
ZUWAKU
  6
CONTINUOUS
 62
      43
100
AcDbLine
 10
-280.60900902
 20
580.69415508
 30
0.0
 11
-287.78533727
 21
573.51782683
 31
0.0
  0
LINE
  5
38D
100
AcDbEntity
  8
ZUWAKU
  6
CONTINUOUS
 62
      43
100
AcDbLine
 10
-279.7258124
 20
580.44598085
 30
0.0
 11
-286.65396642
 21
573.51782683
 31
0.0
  0
LINE
  5
38E
100
AcDbEntity
  8
ZUWAKU
  6
CONTINUOUS
 62
      43
100
AcDbLine
 10
-278.85137821
 20
580.18904418
 30
0.0
 11
-285.52259557
 21
573.51782683
 31
0.0
  0
LINE
  5
38F
100
AcDbEntity
  8
ZUWAKU
  6
CONTINUOUS
 62
      43
100
AcDbLine
 10
-277.98584703
 20
579.92320451
 30
0.0
 11
-284.39122472
 21
573.51782683
 31
0.0
  0
LINE
  5
390
100
AcDbEntity
  8
ZUWAKU
  6
CONTINUOUS
 62
      43
100
AcDbLine
 10
-277.12937561
 20
579.64830509
 30
0.0
 11
-283.25985387
 21
573.51782683
 31
0.0
  0
LINE
  5
391
100
AcDbEntity
  8
ZUWAKU
  6
CONTINUOUS
 62
      43
100
AcDbLine
 10
-276.28213809
 20
579.36417175
 30
0.0
 11
-282.12848302
 21
573.51782683
 31
0.0
  0
LINE
  5
392
100
AcDbEntity
  8
ZUWAKU
  6
CONTINUOUS
 62
      43
100
AcDbLine
 10
-275.44432752
 20
579.07061147
 30
0.0
 11
-280.99711217
 21
573.51782683
 31
0.0
  0
LINE
  5
393
100
AcDbEntity
  8
ZUWAKU
  6
CONTINUOUS
 62
      43
100
AcDbLine
 10
-274.61615746
 20
578.76741069
 30
0.0
 11
-279.86574132
 21
573.51782683
 31
0.0
  0
LINE
  5
394
100
AcDbEntity
  8
ZUWAKU
  6
CONTINUOUS
 62
      43
100
AcDbLine
 10
-273.79786394
 20
578.45433336
 30
0.0
 11
-278.73437047
 21
573.51782683
 31
0.0
  0
LINE
  5
395
100
AcDbEntity
  8
ZUWAKU
  6
CONTINUOUS
 62
      43
100
AcDbLine
 10
-272.9897077
 20
578.13111875
 30
0.0
 11
-277.60299962
 21
573.51782683
 31
0.0
  0
LINE
  5
396
100
AcDbEntity
  8
ZUWAKU
  6
CONTINUOUS
 62
      43
100
AcDbLine
 10
-272.19197679
 20
577.7974788
 30
0.0
 11
-276.47162877
 21
573.51782683
 31
0.0
  0
LINE
  5
397
100
AcDbEntity
  8
ZUWAKU
  6
CONTINUOUS
 62
      43
100
AcDbLine
 10
-271.40498961
 20
577.45309513
 30
0.0
 11
-275.34025792
 21
573.51782683
 31
0.0
  0
LINE
  5
398
100
AcDbEntity
  8
ZUWAKU
  6
CONTINUOUS
 62
      43
100
AcDbLine
 10
-270.62909844
 20
577.09761546
 30
0.0
 11
-274.20888707
 21
573.51782683
 31
0.0
  0
LINE
  5
399
100
AcDbEntity
  8
ZUWAKU
  6
CONTINUOUS
 62
      43
100
AcDbLine
 10
-269.86469359
 20
576.73064946
 30
0.0
 11
-273.07751622
 21
573.51782683
 31
0.0
  0
LINE
  5
39A
100
AcDbEntity
  8
ZUWAKU
  6
CONTINUOUS
 62
      43
100
AcDbLine
 10
-269.11220838
 20
576.35176382
 30
0.0
 11
-271.94614537
 21
573.51782683
 31
0.0
  0
LINE
  5
39B
100
AcDbEntity
  8
ZUWAKU
  6
CONTINUOUS
 62
      43
100
AcDbLine
 10
-268.37212494
 20
575.9604764
 30
0.0
 11
-270.81477452
 21
573.51782683
 31
0.0
  0
LINE
  5
39C
100
AcDbEntity
  8
ZUWAKU
  6
CONTINUOUS
 62
      43
100
AcDbLine
 10
-267.64498124
 20
575.55624926
 30
0.0
 11
-269.68340367
 21
573.51782683
 31
0.0
  0
LINE
  5
39D
100
AcDbEntity
  8
ZUWAKU
  6
CONTINUOUS
 62
      43
100
AcDbLine
 10
-266.93137945
 20
575.13848019
 30
0.0
 11
-268.55203282
 21
573.51782683
 31
0.0
  0
LINE
  5
39E
100
AcDbEntity
  8
ZUWAKU
  6
CONTINUOUS
 62
      43
100
AcDbLine
 10
-266.2319962
 20
574.70649259
 30
0.0
 11
-268.0
 21
572.9384888
 31
0.0
  0
LINE
  5
39F
100
AcDbEntity
  8
ZUWAKU
  6
CONTINUOUS
 62
      43
100
AcDbLine
 10
-265.54759504
 20
574.25952291
 30
0.0
 11
-268.0
 21
571.80711795
 31
0.0
  0
LINE
  5
3A0
100
AcDbEntity
  8
ZUWAKU
  6
CONTINUOUS
 62
      43
100
AcDbLine
 10
-264.87904183
 20
573.79670527
 30
0.0
 11
-268.0
 21
570.6757471
 31
0.0
  0
LINE
  5
3A1
100
AcDbEntity
  8
ZUWAKU
  6
CONTINUOUS
 62
      43
100
AcDbLine
 10
-264.22732396
 20
573.31705229
 30
0.0
 11
-268.0
 21
569.54437625
 31
0.0
  0
LINE
  5
3A2
100
AcDbEntity
  8
ZUWAKU
  6
CONTINUOUS
 62
      43
100
AcDbLine
 10
-263.59357461
 20
572.81943078
 30
0.0
 11
-268.0
 21
568.4130054
 31
0.0
  0
LINE
  5
3A3
100
AcDbEntity
  8
ZUWAKU
  6
CONTINUOUS
 62
      43
100
AcDbLine
 10
-262.97910369
 20
572.30253086
 30
0.0
 11
-268.0
 21
567.28163455
 31
0.0
  0
LINE
  5
3A4
100
AcDbEntity
  8
ZUWAKU
  6
CONTINUOUS
 62
      43
100
AcDbLine
 10
-262.38543795
 20
571.76482575
 30
0.0
 11
-268.0
 21
566.1502637
 31
0.0
  0
LINE
  5
3A5
100
AcDbEntity
  8
ZUWAKU
  6
CONTINUOUS
 62
      43
100
AcDbLine
 10
-261.81437388
 20
571.20451897
 30
0.0
 11
-268.0
 21
565.01889285
 31
0.0
  0
LINE
  5
3A6
100
AcDbEntity
  8
ZUWAKU
  6
CONTINUOUS
 62
      43
100
AcDbLine
 10
-261.26804856
 20
570.61947343
 30
0.0
 11
-268.0
 21
563.887522
 31
0.0
  0
LINE
  5
3A7
100
AcDbEntity
  8
ZUWAKU
  6
CONTINUOUS
 62
      43
100
AcDbLine
 10
-260.74903682
 20
570.00711432
 30
0.0
 11
-266.98832432
 21
563.76782683
 31
0.0
  0
LINE
  5
3A8
100
AcDbEntity
  8
ZUWAKU
  6
CONTINUOUS
 62
      43
100
AcDbLine
 10
-260.26048745
 20
569.36429284
 30
0.0
 11
-265.85695347
 21
563.76782683
 31
0.0
  0
LINE
  5
3A9
100
AcDbEntity
  8
ZUWAKU
  6
CONTINUOUS
 62
      43
100
AcDbLine
 10
-259.80631999
 20
568.68708945
 30
0.0
 11
-264.72558262
 21
563.76782683
 31
0.0
  0
LINE
  5
3AA
100
AcDbEntity
  8
ZUWAKU
  6
CONTINUOUS
 62
      43
100
AcDbLine
 10
-259.39151843
 20
567.97052016
 30
0.0
 11
-263.59421177
 21
563.76782683
 31
0.0
  0
LINE
  5
3AB
100
AcDbEntity
  8
ZUWAKU
  6
CONTINUOUS
 62
      43
100
AcDbLine
 10
-259.02258785
 20
567.2080799
 30
0.0
 11
-262.46284092
 21
563.76782683
 31
0.0
  0
LINE
  5
3AC
100
AcDbEntity
  8
ZUWAKU
  6
CONTINUOUS
 62
      43
100
AcDbLine
 10
-258.70830055
 20
566.39099635
 30
0.0
 11
-261.33147007
 21
563.76782683
 31
0.0
  0
LINE
  5
3AD
100
AcDbEntity
  8
ZUWAKU
  6
CONTINUOUS
 62
      43
100
AcDbLine
 10
-258.46099457
 20
565.50693148
 30
0.0
 11
-260.20009922
 21
563.76782683
 31
0.0
  0
LINE
  5
3AE
100
AcDbEntity
  8
ZUWAKU
  6
CONTINUOUS
 62
      43
100
AcDbLine
 10
-258.2990268
 20
564.5375284
 30
0.0
 11
-259.06872837
 21
563.76782683
 31
0.0
  0
LINE
  5
3AF
100
AcDbEntity
  8
ZUWAKU
  6
CONTINUOUS
 62
      43
100
AcDbLine
 10
-293.49557649
 20
554.01782683
 30
0.0
 11
-304.4190021
 21
543.09440122
 31
0.0
  0
LINE
  5
3B0
100
AcDbEntity
  8
ZUWAKU
  6
CONTINUOUS
 62
      43
100
AcDbLine
 10
-294.62694734
 20
554.01782683
 30
0.0
 11
-305.59096041
 21
543.05381376
 31
0.0
  0
LINE
  5
3B1
100
AcDbEntity
  8
ZUWAKU
  6
CONTINUOUS
 62
      43
100
AcDbLine
 10
-295.75831819
 20
554.01782683
 30
0.0
 11
-306.75175217
 21
543.02439285
 31
0.0
  0
LINE
  5
3B2
100
AcDbEntity
  8
ZUWAKU
  6
CONTINUOUS
 62
      43
100
AcDbLine
 10
-296.88968904
 20
554.01782683
 30
0.0
 11
-307.90173649
 21
543.00577937
 31
0.0
  0
LINE
  5
3B3
100
AcDbEntity
  8
ZUWAKU
  6
CONTINUOUS
 62
      43
100
AcDbLine
 10
-298.02105989
 20
554.01782683
 30
0.0
 11
-309.04123788
 21
542.99764884
 31
0.0
  0
LINE
  5
3B4
100
AcDbEntity
  8
ZUWAKU
  6
CONTINUOUS
 62
      43
100
AcDbLine
 10
-299.15243074
 20
554.01782683
 30
0.0
 11
-310.17054984
 21
542.99970773
 31
0.0
  0
LINE
  5
3B5
100
AcDbEntity
  8
ZUWAKU
  6
CONTINUOUS
 62
      43
100
AcDbLine
 10
-300.28380159
 20
554.01782683
 30
0.0
 11
-311.28993807
 21
543.01169035
 31
0.0
  0
LINE
  5
3B6
100
AcDbEntity
  8
ZUWAKU
  6
CONTINUOUS
 62
      43
100
AcDbLine
 10
-301.41517244
 20
554.01782683
 30
0.0
 11
-312.39964306
 21
543.0333562
 31
0.0
  0
LINE
  5
3B7
100
AcDbEntity
  8
ZUWAKU
  6
CONTINUOUS
 62
      43
100
AcDbLine
 10
-302.54654329
 20
554.01782683
 30
0.0
 11
-313.49988248
 21
543.06448764
 31
0.0
  0
LINE
  5
3B8
100
AcDbEntity
  8
ZUWAKU
  6
CONTINUOUS
 62
      43
100
AcDbLine
 10
-303.67791414
 20
554.01782683
 30
0.0
 11
-314.59085308
 21
543.10488789
 31
0.0
  0
LINE
  5
3B9
100
AcDbEntity
  8
ZUWAKU
  6
CONTINUOUS
 62
      43
100
AcDbLine
 10
-304.80928499
 20
554.01782683
 30
0.0
 11
-315.67273247
 21
543.15437935
 31
0.0
  0
LINE
  5
3BA
100
AcDbEntity
  8
ZUWAKU
  6
CONTINUOUS
 62
      43
100
AcDbLine
 10
-305.94065584
 20
554.01782683
 30
0.0
 11
-316.74568056
 21
543.21280211
 31
0.0
  0
LINE
  5
3BB
100
AcDbEntity
  8
ZUWAKU
  6
CONTINUOUS
 62
      43
100
AcDbLine
 10
-307.07202669
 20
554.01782683
 30
0.0
 11
-317.8098409
 21
543.28001261
 31
0.0
  0
LINE
  5
3BC
100
AcDbEntity
  8
ZUWAKU
  6
CONTINUOUS
 62
      43
100
AcDbLine
 10
-308.20339754
 20
554.01782683
 30
0.0
 11
-318.86534176
 21
543.35588261
 31
0.0
  0
LINE
  5
3BD
100
AcDbEntity
  8
ZUWAKU
  6
CONTINUOUS
 62
      43
100
AcDbLine
 10
-309.33476839
 20
554.01782683
 30
0.0
 11
-319.91229707
 21
543.44029815
 31
0.0
  0
LINE
  5
3BE
100
AcDbEntity
  8
ZUWAKU
  6
CONTINUOUS
 62
      43
100
AcDbLine
 10
-310.46613924
 20
554.01782683
 30
0.0
 11
-320.95080732
 21
543.53315875
 31
0.0
  0
LINE
  5
3BF
100
AcDbEntity
  8
ZUWAKU
  6
CONTINUOUS
 62
      43
100
AcDbLine
 10
-311.59751009
 20
554.01782683
 30
0.0
 11
-321.98096021
 21
543.6343767
 31
0.0
  0
LINE
  5
3C0
100
AcDbEntity
  8
ZUWAKU
  6
CONTINUOUS
 62
      43
100
AcDbLine
 10
-312.72888094
 20
554.01782683
 30
0.0
 11
-323.00283131
 21
543.74387645
 31
0.0
  0
LINE
  5
3C1
100
AcDbEntity
  8
ZUWAKU
  6
CONTINUOUS
 62
      43
100
AcDbLine
 10
-313.86025179
 20
554.01782683
 30
0.0
 11
-324.01648453
 21
543.86159409
 31
0.0
  0
LINE
  5
3C2
100
AcDbEntity
  8
ZUWAKU
  6
CONTINUOUS
 62
      43
100
AcDbLine
 10
-314.99162264
 20
554.01782683
 30
0.0
 11
-325.02197256
 21
543.98747691
 31
0.0
  0
LINE
  5
3C3
100
AcDbEntity
  8
ZUWAKU
  6
CONTINUOUS
 62
      43
100
AcDbLine
 10
-316.12299349
 20
554.01782683
 30
0.0
 11
-326.01933722
 21
544.12148309
 31
0.0
  0
LINE
  5
3C4
100
AcDbEntity
  8
ZUWAKU
  6
CONTINUOUS
 62
      43
100
AcDbLine
 10
-317.25436434
 20
554.01782683
 30
0.0
 11
-327.00860975
 21
544.26358142
 31
0.0
  0
LINE
  5
3C5
100
AcDbEntity
  8
ZUWAKU
  6
CONTINUOUS
 62
      43
100
AcDbLine
 10
-318.38573519
 20
554.01782683
 30
0.0
 11
-327.98981097
 21
544.41375105
 31
0.0
  0
LINE
  5
3C6
100
AcDbEntity
  8
ZUWAKU
  6
CONTINUOUS
 62
      43
100
AcDbLine
 10
-319.51710604
 20
554.01782683
 30
0.0
 11
-328.96295143
 21
544.57198144
 31
0.0
  0
LINE
  5
3C7
100
AcDbEntity
  8
ZUWAKU
  6
CONTINUOUS
 62
      43
100
AcDbLine
 10
-320.64847689
 20
554.01782683
 30
0.0
 11
-329.92803149
 21
544.73827222
 31
0.0
  0
LINE
  5
3C8
100
AcDbEntity
  8
ZUWAKU
  6
CONTINUOUS
 62
      43
100
AcDbLine
 10
-321.77984774
 20
554.01782683
 30
0.0
 11
-330.88504132
 21
544.91263324
 31
0.0
  0
LINE
  5
3C9
100
AcDbEntity
  8
ZUWAKU
  6
CONTINUOUS
 62
      43
100
AcDbLine
 10
-322.91121859
 20
554.01782683
 30
0.0
 11
-331.83396081
 21
545.0950846
 31
0.0
  0
LINE
  5
3CA
100
AcDbEntity
  8
ZUWAKU
  6
CONTINUOUS
 62
      43
100
AcDbLine
 10
-324.04258944
 20
554.01782683
 30
0.0
 11
-332.77475948
 21
545.28565679
 31
0.0
  0
LINE
  5
3CB
100
AcDbEntity
  8
ZUWAKU
  6
CONTINUOUS
 62
      43
100
AcDbLine
 10
-325.17396029
 20
554.01782683
 30
0.0
 11
-333.70739625
 21
545.48439087
 31
0.0
  0
LINE
  5
3CC
100
AcDbEntity
  8
ZUWAKU
  6
CONTINUOUS
 62
      43
100
AcDbLine
 10
-326.30533114
 20
554.01782683
 30
0.0
 11
-334.63181919
 21
545.69133877
 31
0.0
  0
LINE
  5
3CD
100
AcDbEntity
  8
ZUWAKU
  6
CONTINUOUS
 62
      43
100
AcDbLine
 10
-327.43670199
 20
554.01782683
 30
0.0
 11
-335.5479652
 21
545.90656361
 31
0.0
  0
LINE
  5
3CE
100
AcDbEntity
  8
ZUWAKU
  6
CONTINUOUS
 62
      43
100
AcDbLine
 10
-328.56807284
 20
554.01782683
 30
0.0
 11
-336.45575956
 21
546.1301401
 31
0.0
  0
LINE
  5
3CF
100
AcDbEntity
  8
ZUWAKU
  6
CONTINUOUS
 62
      43
100
AcDbLine
 10
-329.69944369
 20
554.01782683
 30
0.0
 11
-337.35511543
 21
546.36215509
 31
0.0
  0
LINE
  5
3D0
100
AcDbEntity
  8
ZUWAKU
  6
CONTINUOUS
 62
      43
100
AcDbLine
 10
-330.83081454
 20
554.01782683
 30
0.0
 11
-338.24593324
 21
546.60270813
 31
0.0
  0
LINE
  5
3D1
100
AcDbEntity
  8
ZUWAKU
  6
CONTINUOUS
 62
      43
100
AcDbLine
 10
-331.96218539
 20
554.01782683
 30
0.0
 11
-339.12810002
 21
546.8519122
 31
0.0
  0
LINE
  5
3D2
100
AcDbEntity
  8
ZUWAKU
  6
CONTINUOUS
 62
      43
100
AcDbLine
 10
-333.09355624
 20
554.01782683
 30
0.0
 11
-340.00148854
 21
547.10989453
 31
0.0
  0
LINE
  5
3D3
100
AcDbEntity
  8
ZUWAKU
  6
CONTINUOUS
 62
      43
100
AcDbLine
 10
-334.22492709
 20
554.01782683
 30
0.0
 11
-340.86595637
 21
547.37679754
 31
0.0
  0
LINE
  5
3D4
100
AcDbEntity
  8
ZUWAKU
  6
CONTINUOUS
 62
      43
100
AcDbLine
 10
-335.35629794
 20
554.01782683
 30
0.0
 11
-341.72134479
 21
547.65277998
 31
0.0
  0
LINE
  5
3D5
100
AcDbEntity
  8
ZUWAKU
  6
CONTINUOUS
 62
      43
100
AcDbLine
 10
-336.48766879
 20
554.01782683
 30
0.0
 11
-342.56747747
 21
547.93801815
 31
0.0
  0
LINE
  5
3D6
100
AcDbEntity
  8
ZUWAKU
  6
CONTINUOUS
 62
      43
100
AcDbLine
 10
-337.61903964
 20
554.01782683
 30
0.0
 11
-343.40415904
 21
548.23270742
 31
0.0
  0
LINE
  5
3D7
100
AcDbEntity
  8
ZUWAKU
  6
CONTINUOUS
 62
      43
100
AcDbLine
 10
-338.75041049
 20
554.01782683
 30
0.0
 11
-344.2311734
 21
548.53706392
 31
0.0
  0
LINE
  5
3D8
100
AcDbEntity
  8
ZUWAKU
  6
CONTINUOUS
 62
      43
100
AcDbLine
 10
-339.88178134
 20
554.01782683
 30
0.0
 11
-345.0482817
 21
548.85132646
 31
0.0
  0
LINE
  5
3D9
100
AcDbEntity
  8
ZUWAKU
  6
CONTINUOUS
 62
      43
100
AcDbLine
 10
-341.01315219
 20
554.01782683
 30
0.0
 11
-345.85522012
 21
549.17575889
 31
0.0
  0
LINE
  5
3DA
100
AcDbEntity
  8
ZUWAKU
  6
CONTINUOUS
 62
      43
100
AcDbLine
 10
-342.14452304
 20
554.01782683
 30
0.0
 11
-346.65169718
 21
549.51065268
 31
0.0
  0
LINE
  5
3DB
100
AcDbEntity
  8
ZUWAKU
  6
CONTINUOUS
 62
      43
100
AcDbLine
 10
-343.27589389
 20
554.01782683
 30
0.0
 11
-347.43739069
 21
549.85633003
 31
0.0
  0
LINE
  5
3DC
100
AcDbEntity
  8
ZUWAKU
  6
CONTINUOUS
 62
      43
100
AcDbLine
 10
-344.40726474
 20
554.01782683
 30
0.0
 11
-348.21194408
 21
550.21314748
 31
0.0
  0
LINE
  5
3DD
100
AcDbEntity
  8
ZUWAKU
  6
CONTINUOUS
 62
      43
100
AcDbLine
 10
-345.53863559
 20
554.01782683
 30
0.0
 11
-348.97496223
 21
550.58150019
 31
0.0
  0
LINE
  5
3DE
100
AcDbEntity
  8
ZUWAKU
  6
CONTINUOUS
 62
      43
100
AcDbLine
 10
-346.67000644
 20
554.01782683
 30
0.0
 11
-349.72600637
 21
550.9618269
 31
0.0
  0
LINE
  5
3DF
100
AcDbEntity
  8
ZUWAKU
  6
CONTINUOUS
 62
      43
100
AcDbLine
 10
-347.80137729
 20
554.01782683
 30
0.0
 11
-350.46458815
 21
551.35461597
 31
0.0
  0
LINE
  5
3E0
100
AcDbEntity
  8
ZUWAKU
  6
CONTINUOUS
 62
      43
100
AcDbLine
 10
-348.93274814
 20
554.01782683
 30
0.0
 11
-351.19016248
 21
551.76041248
 31
0.0
  0
LINE
  5
3E1
100
AcDbEntity
  8
ZUWAKU
  6
CONTINUOUS
 62
      43
100
AcDbLine
 10
-350.06411899
 20
554.01782683
 30
0.0
 11
-351.90211896
 21
552.17982686
 31
0.0
  0
LINE
  5
3E2
100
AcDbEntity
  8
ZUWAKU
  6
CONTINUOUS
 62
      43
100
AcDbLine
 10
-350.5
 20
554.71331666
 30
0.0
 11
-352.59977136
 21
552.6135453
 31
0.0
  0
LINE
  5
3E3
100
AcDbEntity
  8
ZUWAKU
  6
CONTINUOUS
 62
      43
100
AcDbLine
 10
-350.5
 20
555.84468751
 30
0.0
 11
-353.28234491
 21
553.06234261
 31
0.0
  0
LINE
  5
3E4
100
AcDbEntity
  8
ZUWAKU
  6
CONTINUOUS
 62
      43
100
AcDbLine
 10
-350.5
 20
556.97605836
 30
0.0
 11
-353.94896045
 21
553.52709791
 31
0.0
  0
LINE
  5
3E5
100
AcDbEntity
  8
ZUWAKU
  6
CONTINUOUS
 62
      43
100
AcDbLine
 10
-350.5
 20
558.10742921
 30
0.0
 11
-354.59861471
 21
554.0088145
 31
0.0
  0
LINE
  5
3E6
100
AcDbEntity
  8
ZUWAKU
  6
CONTINUOUS
 62
      43
100
AcDbLine
 10
-350.5
 20
559.23880006
 30
0.0
 11
-355.23015539
 21
554.50864467
 31
0.0
  0
LINE
  5
3E7
100
AcDbEntity
  8
ZUWAKU
  6
CONTINUOUS
 62
      43
100
AcDbLine
 10
-350.5
 20
560.37017091
 30
0.0
 11
-355.84224922
 21
555.02792169
 31
0.0
  0
LINE
  5
3E8
100
AcDbEntity
  8
ZUWAKU
  6
CONTINUOUS
 62
      43
100
AcDbLine
 10
-350.5
 20
561.50154176
 30
0.0
 11
-356.43334059
 21
555.56820118
 31
0.0
  0
LINE
  5
3E9
100
AcDbEntity
  8
ZUWAKU
  6
CONTINUOUS
 62
      43
100
AcDbLine
 10
-350.5
 20
562.63291261
 30
0.0
 11
-357.00159682
 21
556.1313158
 31
0.0
  0
LINE
  5
3EA
100
AcDbEntity
  8
ZUWAKU
  6
CONTINUOUS
 62
      43
100
AcDbLine
 10
-350.49645664
 20
563.76782683
 30
0.0
 11
-357.54483473
 21
556.71944874
 31
0.0
  0
LINE
  5
3EB
100
AcDbEntity
  8
ZUWAKU
  6
CONTINUOUS
 62
      43
100
AcDbLine
 10
-351.62782749
 20
563.76782683
 30
0.0
 11
-358.06041964
 21
557.33523467
 31
0.0
  0
LINE
  5
3EC
100
AcDbEntity
  8
ZUWAKU
  6
CONTINUOUS
 62
      43
100
AcDbLine
 10
-352.75919834
 20
563.76782683
 30
0.0
 11
-358.5451233
 21
557.98190186
 31
0.0
  0
LINE
  5
3ED
100
AcDbEntity
  8
ZUWAKU
  6
CONTINUOUS
 62
      43
100
AcDbLine
 10
-353.89056919
 20
563.76782683
 30
0.0
 11
-358.99491797
 21
558.66347804
 31
0.0
  0
LINE
  5
3EE
100
AcDbEntity
  8
ZUWAKU
  6
CONTINUOUS
 62
      43
100
AcDbLine
 10
-355.02194004
 20
563.76782683
 30
0.0
 11
-359.40466766
 21
559.3850992
 31
0.0
  0
LINE
  5
3EF
100
AcDbEntity
  8
ZUWAKU
  6
CONTINUOUS
 62
      43
100
AcDbLine
 10
-356.15331089
 20
563.76782683
 30
0.0
 11
-359.76764554
 21
560.15349217
 31
0.0
  0
LINE
  5
3F0
100
AcDbEntity
  8
ZUWAKU
  6
CONTINUOUS
 62
      43
100
AcDbLine
 10
-357.28468174
 20
563.76782683
 30
0.0
 11
-360.0747401
 21
560.97776847
 31
0.0
  0
LINE
  5
3F1
100
AcDbEntity
  8
ZUWAKU
  6
CONTINUOUS
 62
      43
100
AcDbLine
 10
-358.41605259
 20
563.76782683
 30
0.0
 11
-360.31306181
 21
561.87081761
 31
0.0
  0
LINE
  5
3F2
100
AcDbEntity
  8
ZUWAKU
  6
CONTINUOUS
 62
      43
100
AcDbLine
 10
-359.54742344
 20
563.76782683
 30
0.0
 11
-360.46328041
 21
562.85196986
 31
0.0
  0
LINE
  5
3F3
100
AcDbEntity
  8
ZUWAKU
  6
CONTINUOUS
 62
      43
100
AcDbLine
 10
-292.36420564
 20
554.01782683
 30
0.0
 11
-303.23547922
 21
543.14655325
 31
0.0
  0
LINE
  5
3F4
100
AcDbEntity
  8
ZUWAKU
  6
CONTINUOUS
 62
      43
100
AcDbLine
 10
-291.23283479
 20
554.01782683
 30
0.0
 11
-302.03994972
 21
543.2107119
 31
0.0
  0
LINE
  5
3F5
100
AcDbEntity
  8
ZUWAKU
  6
CONTINUOUS
 62
      43
100
AcDbLine
 10
-290.10146394
 20
554.01782683
 30
0.0
 11
-300.83192153
 21
543.28736924
 31
0.0
  0
LINE
  5
3F6
100
AcDbEntity
  8
ZUWAKU
  6
CONTINUOUS
 62
      43
100
AcDbLine
 10
-288.97009309
 20
554.01782683
 30
0.0
 11
-299.61084527
 21
543.37707465
 31
0.0
  0
LINE
  5
3F7
100
AcDbEntity
  8
ZUWAKU
  6
CONTINUOUS
 62
      43
100
AcDbLine
 10
-287.83872224
 20
554.01782683
 30
0.0
 11
-298.37610555
 21
543.48044352
 31
0.0
  0
LINE
  5
3F8
100
AcDbEntity
  8
ZUWAKU
  6
CONTINUOUS
 62
      43
100
AcDbLine
 10
-286.70735139
 20
554.01782683
 30
0.0
 11
-297.12701041
 21
543.59816781
 31
0.0
  0
LINE
  5
3F9
100
AcDbEntity
  8
ZUWAKU
  6
CONTINUOUS
 62
      43
100
AcDbLine
 10
-285.57598054
 20
554.01782683
 30
0.0
 11
-295.86277828
 21
543.73102909
 31
0.0
  0
LINE
  5
3FA
100
AcDbEntity
  8
ZUWAKU
  6
CONTINUOUS
 62
      43
100
AcDbLine
 10
-284.44460969
 20
554.01782683
 30
0.0
 11
-294.58252199
 21
543.87991453
 31
0.0
  0
LINE
  5
3FB
100
AcDbEntity
  8
ZUWAKU
  6
CONTINUOUS
 62
      43
100
AcDbLine
 10
-283.31323884
 20
554.01782683
 30
0.0
 11
-293.28522869
 21
544.04583698
 31
0.0
  0
LINE
  5
3FC
100
AcDbEntity
  8
ZUWAKU
  6
CONTINUOUS
 62
      43
100
AcDbLine
 10
-282.18186799
 20
554.01782683
 30
0.0
 11
-291.96973449
 21
544.22996033
 31
0.0
  0
LINE
  5
3FD
100
AcDbEntity
  8
ZUWAKU
  6
CONTINUOUS
 62
      43
100
AcDbLine
 10
-281.05049714
 20
554.01782683
 30
0.0
 11
-290.634692
 21
544.43363197
 31
0.0
  0
LINE
  5
3FE
100
AcDbEntity
  8
ZUWAKU
  6
CONTINUOUS
 62
      43
100
AcDbLine
 10
-279.91912629
 20
554.01782683
 30
0.0
 11
-289.27852811
 21
544.65842501
 31
0.0
  0
LINE
  5
3FF
100
AcDbEntity
  8
ZUWAKU
  6
CONTINUOUS
 62
      43
100
AcDbLine
 10
-278.78775545
 20
554.01782683
 30
0.0
 11
-287.89938819
 21
544.90619408
 31
0.0
  0
LINE
  5
400
100
AcDbEntity
  8
ZUWAKU
  6
CONTINUOUS
 62
      43
100
AcDbLine
 10
-267.9063846
 20
563.76782683
 30
0.0
 11
-268.0
 21
563.67421142
 31
0.0
  0
LINE
  5
401
100
AcDbEntity
  8
ZUWAKU
  6
CONTINUOUS
 62
      43
100
AcDbLine
 10
-277.6563846
 20
554.01782683
 30
0.0
 11
-286.49506103
 21
545.17915039
 31
0.0
  0
LINE
  5
402
100
AcDbEntity
  8
ZUWAKU
  6
CONTINUOUS
 62
      43
100
AcDbLine
 10
-266.77501375
 20
563.76782683
 30
0.0
 11
-268.0
 21
562.54284057
 31
0.0
  0
LINE
  5
403
100
AcDbEntity
  8
ZUWAKU
  6
CONTINUOUS
 62
      43
100
AcDbLine
 10
-276.52501375
 20
554.01782683
 30
0.0
 11
-285.06287551
 21
545.47996506
 31
0.0
  0
LINE
  5
404
100
AcDbEntity
  8
ZUWAKU
  6
CONTINUOUS
 62
      43
100
AcDbLine
 10
-265.6436429
 20
563.76782683
 30
0.0
 11
-268.0
 21
561.41146972
 31
0.0
  0
LINE
  5
405
100
AcDbEntity
  8
ZUWAKU
  6
CONTINUOUS
 62
      43
100
AcDbLine
 10
-275.3936429
 20
554.01782683
 30
0.0
 11
-283.59955485
 21
545.81191487
 31
0.0
  0
LINE
  5
406
100
AcDbEntity
  8
ZUWAKU
  6
CONTINUOUS
 62
      43
100
AcDbLine
 10
-264.51227205
 20
563.76782683
 30
0.0
 11
-268.0
 21
560.28009887
 31
0.0
  0
LINE
  5
407
100
AcDbEntity
  8
ZUWAKU
  6
CONTINUOUS
 62
      43
100
AcDbLine
 10
-274.26227205
 20
554.01782683
 30
0.0
 11
-282.10100509
 21
546.17909378
 31
0.0
  0
LINE
  5
408
100
AcDbEntity
  8
ZUWAKU
  6
CONTINUOUS
 62
      43
100
AcDbLine
 10
-263.3809012
 20
563.76782683
 30
0.0
 11
-268.0
 21
559.14872802
 31
0.0
  0
LINE
  5
409
100
AcDbEntity
  8
ZUWAKU
  6
CONTINUOUS
 62
      43
100
AcDbLine
 10
-273.1309012
 20
554.01782683
 30
0.0
 11
-280.5619969
 21
546.58673112
 31
0.0
  0
LINE
  5
40A
100
AcDbEntity
  8
ZUWAKU
  6
CONTINUOUS
 62
      43
100
AcDbLine
 10
-262.24953035
 20
563.76782683
 30
0.0
 11
-268.0
 21
558.01735717
 31
0.0
  0
LINE
  5
40B
100
AcDbEntity
  8
ZUWAKU
  6
CONTINUOUS
 62
      43
100
AcDbLine
 10
-271.99953035
 20
554.01782683
 30
0.0
 11
-278.97566675
 21
547.04169042
 31
0.0
  0
LINE
  5
40C
100
AcDbEntity
  8
ZUWAKU
  6
CONTINUOUS
 62
      43
100
AcDbLine
 10
-261.1181595
 20
563.76782683
 30
0.0
 11
-268.0
 21
556.88598632
 31
0.0
  0
LINE
  5
40D
100
AcDbEntity
  8
ZUWAKU
  6
CONTINUOUS
 62
      43
100
AcDbLine
 10
-270.8681595
 20
554.01782683
 30
0.0
 11
-277.33269293
 21
547.55329339
 31
0.0
  0
LINE
  5
40E
100
AcDbEntity
  8
ZUWAKU
  6
CONTINUOUS
 62
      43
100
AcDbLine
 10
-259.98678865
 20
563.76782683
 30
0.0
 11
-268.0
 21
555.75461547
 31
0.0
  0
LINE
  5
40F
100
AcDbEntity
  8
ZUWAKU
  6
CONTINUOUS
 62
      43
100
AcDbLine
 10
-269.73678865
 20
554.01782683
 30
0.0
 11
-275.61984192
 21
548.13477356
 31
0.0
  0
LINE
  5
410
100
AcDbEntity
  8
ZUWAKU
  6
CONTINUOUS
 62
      43
100
AcDbLine
 10
-258.8554178
 20
563.76782683
 30
0.0
 11
-268.0
 21
554.62324462
 31
0.0
  0
LINE
  5
411
100
AcDbEntity
  8
ZUWAKU
  6
CONTINUOUS
 62
      43
100
AcDbLine
 10
-268.6054178
 20
554.01782683
 30
0.0
 11
-273.81717069
 21
548.80607394
 31
0.0
  0
LINE
  5
412
100
AcDbEntity
  8
ZUWAKU
  6
CONTINUOUS
 62
      43
100
AcDbLine
 10
-258.25969102
 20
563.23218275
 30
0.0
 11
-271.89195295
 21
549.59992082
 31
0.0
  0
LINE
  5
413
100
AcDbEntity
  8
ZUWAKU
  6
CONTINUOUS
 62
      43
100
AcDbLine
 10
-258.42305214
 20
561.93745078
 30
0.0
 11
-269.78287692
 21
550.57762601
 31
0.0
  0
LINE
  5
414
100
AcDbEntity
  8
ZUWAKU
  6
CONTINUOUS
 62
      43
100
AcDbLine
 10
-258.91646894
 20
560.31266313
 30
0.0
 11
-267.34374519
 21
551.88538688
 31
0.0
  0
LINE
  5
415
100
AcDbEntity
  8
ZUWAKU
  6
CONTINUOUS
 62
      43
100
AcDbLine
 10
-260.44270421
 20
557.65505701
 30
0.0
 11
-263.871795
 21
554.22596622
 31
0.0
  0
POINT
  5
416
100
AcDbEntity
  8
ZUWAKU
  6
CONTINUOUS
 62
       9
100
AcDbPoint
 10
249.25
 20
555.45555255
 30
0.0
  0
POINT
  5
417
100
AcDbEntity
  8
ZUWAKU
  6
CONTINUOUS
 62
       9
100
AcDbPoint
 10
-61.61104651
 20
555.45555255
 30
0.0
  0
POINT
  5
418
100
AcDbEntity
  8
ZUWAKU
  6
CONTINUOUS
 62
       9
100
AcDbPoint
 10
246.75
 20
-538.35717317
 30
0.0
  0
POINT
  5
419
100
AcDbEntity
  8
ZUWAKU
  6
CONTINUOUS
 62
       9
100
AcDbPoint
 10
-23.125
 20
-538.35717317
 30
0.0
  0
POINT
  5
41A
100
AcDbEntity
  8
ZUWAKU
  6
CONTINUOUS
 62
       9
100
AcDbPoint
 10
82.5
 20
-477.48217317
 30
0.0
  0
POINT
  5
41B
100
AcDbEntity
  8
ZUWAKU
  6
CONTINUOUS
 62
       9
100
AcDbPoint
 10
-334.5
 20
-477.48217317
 30
0.0
  0
POINT
  5
41C
100
AcDbEntity
  8
ZUWAKU
  6
CONTINUOUS
 62
       9
100
AcDbPoint
 10
-148.25
 20
-477.48217317
 30
0.0
  0
POINT
  5
41D
100
AcDbEntity
  8
ZUWAKU
  6
CONTINUOUS
 62
       9
100
AcDbPoint
 10
108.75
 20
-477.48217317
 30
0.0
  0
LINE
  5
41E
100
AcDbEntity
  8
ZUWAKU
  6
CONTINUOUS
 62
       9
100
AcDbLine
 10
-422.0
 20
616.0
 30
0.0
 11
-422.0
 21
596.0
 31
0.0
  0
LINE
  5
41F
100
AcDbEntity
  8
ZUWAKU
  6
CONTINUOUS
 62
       9
100
AcDbLine
 10
-422.0
 20
596.0
 30
0.0
 11
-442.0
 21
596.0
 31
0.0
  0
LINE
  5
420
100
AcDbEntity
  8
ZUWAKU
  6
CONTINUOUS
 62
       9
100
AcDbLine
 10
418.0
 20
596.0
 30
0.0
 11
438.0
 21
596.0
 31
0.0
  0
LINE
  5
421
100
AcDbEntity
  8
ZUWAKU
  6
CONTINUOUS
 62
       9
100
AcDbLine
 10
418.0
 20
596.0
 30
0.0
 11
418.0
 21
616.0
 31
0.0
  0
LINE
  5
422
100
AcDbEntity
  8
ZUWAKU
  6
CONTINUOUS
 62
       9
100
AcDbLine
 10
418.0
 20
-612.0
 30
0.0
 11
418.0
 21
-592.0
 31
0.0
  0
LINE
  5
423
100
AcDbEntity
  8
ZUWAKU
  6
CONTINUOUS
 62
       9
100
AcDbLine
 10
418.0
 20
-592.0
 30
0.0
 11
438.0
 21
-592.0
 31
0.0
  0
LINE
  5
424
100
AcDbEntity
  8
ZUWAKU
  6
CONTINUOUS
 62
       9
100
AcDbLine
 10
-442.09249238
 20
-592.0
 30
0.0
 11
-422.0
 21
-592.0
 31
0.0
  0
LINE
  5
425
100
AcDbEntity
  8
ZUWAKU
  6
CONTINUOUS
 62
       9
100
AcDbLine
 10
-422.0
 20
-592.1380426
 30
0.0
 11
-422.0
 21
-611.99978613
 31
0.0
  0
POINT
  5
426
100
AcDbEntity
  8
ZUWAKU
  6
CONTINUOUS
 62
       9
100
AcDbPoint
 10
-334.5
 20
-457.48217317
 30
0.0
  0
POINT
  5
427
100
AcDbEntity
  8
ZUWAKU
  6
CONTINUOUS
 62
       9
100
AcDbPoint
 10
-148.25
 20
-457.48217317
 30
0.0
  0
POINT
  5
428
100
AcDbEntity
  8
ZUWAKU
  6
CONTINUOUS
 62
       9
100
AcDbPoint
 10
108.75
 20
-457.48217317
 30
0.0
  0
POINT
  5
429
100
AcDbEntity
  8
ZUWAKU
  6
CONTINUOUS
 62
       9
100
AcDbPoint
 10
-334.5
 20
-437.48217317
 30
0.0
  0
POINT
  5
42A
100
AcDbEntity
  8
ZUWAKU
  6
CONTINUOUS
 62
       9
100
AcDbPoint
 10
-148.25
 20
-437.48217317
 30
0.0
  0
POINT
  5
42B
100
AcDbEntity
  8
ZUWAKU
  6
CONTINUOUS
 62
       9
100
AcDbPoint
 10
-334.5
 20
-417.48217317
 30
0.0
  0
POINT
  5
42C
100
AcDbEntity
  8
ZUWAKU
  6
CONTINUOUS
 62
       9
100
AcDbPoint
 10
-148.25
 20
-417.48217317
 30
0.0
  0
POINT
  5
42D
100
AcDbEntity
  8
ZUWAKU
  6
CONTINUOUS
 62
       9
100
AcDbPoint
 10
-334.5
 20
-397.48217317
 30
0.0
  0
POINT
  5
42E
100
AcDbEntity
  8
ZUWAKU
  6
CONTINUOUS
 62
       9
100
AcDbPoint
 10
-148.25
 20
-397.48217317
 30
0.0
  0
POINT
  5
42F
100
AcDbEntity
  8
ZUWAKU
  6
CONTINUOUS
 62
       9
100
AcDbPoint
 10
108.75
 20
-397.48217317
 30
0.0
  0
POINT
  5
430
100
AcDbEntity
  8
ZUWAKU
  6
CONTINUOUS
 62
       9
100
AcDbPoint
 10
82.5
 20
-457.48217317
 30
0.0
  0
POINT
  5
431
100
AcDbEntity
  8
ZUWAKU
  6
CONTINUOUS
 62
       9
100
AcDbPoint
 10
-334.5
 20
-377.48217317
 30
0.0
  0
POINT
  5
432
100
AcDbEntity
  8
ZUWAKU
  6
CONTINUOUS
 62
       9
100
AcDbPoint
 10
-148.25
 20
-377.48217317
 30
0.0
  0
POINT
  5
433
100
AcDbEntity
  8
ZUWAKU
  6
CONTINUOUS
 62
       9
100
AcDbPoint
 10
108.75
 20
-377.48217317
 30
0.0
  0
POINT
  5
434
100
AcDbEntity
  8
ZUWAKU
  6
CONTINUOUS
 62
       9
100
AcDbPoint
 10
-334.5
 20
-357.48217317
 30
0.0
  0
POINT
  5
435
100
AcDbEntity
  8
ZUWAKU
  6
CONTINUOUS
 62
       9
100
AcDbPoint
 10
-148.25
 20
-357.48217317
 30
0.0
  0
POINT
  5
436
100
AcDbEntity
  8
ZUWAKU
  6
CONTINUOUS
 62
       9
100
AcDbPoint
 10
108.75
 20
-357.48217317
 30
0.0
  0
TEXT
  5
437
100
AcDbEntity
  8
LAYER0240
 62
       4
100
AcDbText
 10
-334.5
 20
-485.48217317
 30
0.0
 40
16.0
  1
本体
 41
0.6667
 72
       5
 11
-312.1
 21
-485.48217317
 31
0.0
100
AcDbText
  0
TEXT
  5
438
100
AcDbEntity
  8
LAYER0240
 62
       4
100
AcDbText
 10
-148.25
 20
-485.48217317
 30
0.0
 40
16.0
  1
SUS304
 41
0.8
 72
       5
 11
-71.45
 21
-485.48217317
 31
0.0
100
AcDbText
  0
TEXT
  5
439
100
AcDbEntity
  8
LAYER0240
 62
       4
100
AcDbText
 10
76.1
 20
-485.48217317
 30
0.0
 40
16.0
  1
1
 41
0.8
 72
       5
 11
88.9
 21
-485.48217317
 31
0.0
100
AcDbText
  0
TEXT
  5
43A
100
AcDbEntity
  8
LAYER0240
 62
       4
100
AcDbText
 10
108.75
 20
-485.48217317
 30
0.0
 40
16.0
  1
♯600研磨
 41
0.75
 72
       5
 11
185.55
 21
-485.48217317
 31
0.0
100
AcDbText
  0
TEXT
  5
43B
100
AcDbEntity
  8
LAYER0240
 62
       4
100
AcDbText
 10
-128.725
 20
-550.35717317
 30
0.0
 40
24.0
  1
カウンター用タオル掛Ｌ
 41
0.6875
 72
       5
 11
82.475
 21
-550.35717317
 31
0.0
100
AcDbText
  0
TEXT
  5
43C
100
AcDbEntity
  8
LAYER0240
 62
       4
100
AcDbText
 10
198.75
 20
-550.35717317
 30
0.0
 40
24.0
  1
R9003
 41
0.8
 72
       5
 11
294.75
 21
-550.35717317
 31
0.0
100
AcDbText
  0
TEXT
  5
43D
100
AcDbEntity
  8
LAYER0240
 62
       4
100
AcDbText
 10
-167.21104651
 20
543.45555255
 30
0.0
 40
24.0
  1
カウンター用タオル掛Ｌ
 41
0.6875
 72
       5
 11
43.98895349
 21
543.45555255
 31
0.0
100
AcDbText
  0
TEXT
  5
43E
100
AcDbEntity
  8
LAYER0240
 62
       4
100
AcDbText
 10
201.25
 20
543.45555255
 30
0.0
 40
24.0
  1
R9003
 41
0.8
 72
       5
 11
297.25
 21
543.45555255
 31
0.0
100
AcDbText
  0
TEXT
  5
43F
100
AcDbEntity
  8
LAYER0240
 62
       4
100
AcDbText
 10
-334.5
 20
-465.48217317
 30
0.0
 40
16.0
  1
取付ﾈｼﾞ　4×15
 41
0.6333
 72
       5
 11
-206.5
 21
-465.48217317
 31
0.0
100
AcDbText
  0
TEXT
  5
440
100
AcDbEntity
  8
LAYER0240
 62
       4
100
AcDbText
 10
76.1
 20
-465.48217317
 30
0.0
 40
16.0
  1
3
 41
0.8
 72
       5
 11
88.9
 21
-465.48217317
 31
0.0
100
AcDbText
  0
TEXT
  5
441
100
AcDbEntity
  8
LAYER0240
 62
       4
100
AcDbText
 10
-148.25
 20
-465.48217317
 30
0.0
 40
16.0
  1
SUS304
 41
0.8
 72
       5
 11
-71.45
 21
-465.48217317
 31
0.0
100
AcDbText
  0
INSERT
  5
442
100
AcDbEntity
  8
0
  6
CONTINUOUS
100
AcDbBlockReference
  2
GROUP_1
 10
0.0
 20
0.0
 30
0.0
  0
INSERT
  5
443
100
AcDbEntity
  8
0
  6
CONTINUOUS
100
AcDbBlockReference
  2
DA_IMAGEDIMGROUP_1
 10
0.0
 20
0.0
 30
0.0
  0
INSERT
  5
444
100
AcDbEntity
  8
0
  6
CONTINUOUS
100
AcDbBlockReference
  2
DA_IMAGEDIMGROUP_2
 10
0.0
 20
0.0
 30
0.0
  0
INSERT
  5
445
100
AcDbEntity
  8
0
  6
CONTINUOUS
100
AcDbBlockReference
  2
DA_IMAGEDIMGROUP_3
 10
0.0
 20
0.0
 30
0.0
  0
INSERT
  5
446
100
AcDbEntity
  8
0
  6
CONTINUOUS
100
AcDbBlockReference
  2
DA_IMAGEDIMGROUP_4
 10
0.0
 20
0.0
 30
0.0
  0
INSERT
  5
447
100
AcDbEntity
  8
0
  6
CONTINUOUS
100
AcDbBlockReference
  2
DA_IMAGEDIMGROUP_5
 10
0.0
 20
0.0
 30
0.0
  0
INSERT
  5
448
100
AcDbEntity
  8
0
  6
CONTINUOUS
100
AcDbBlockReference
  2
DA_IMAGEDIMGROUP_6
 10
0.0
 20
0.0
 30
0.0
  0
INSERT
  5
449
100
AcDbEntity
  8
0
  6
CONTINUOUS
100
AcDbBlockReference
  2
DA_IMAGEDIMGROUP_7
 10
0.0
 20
0.0
 30
0.0
  0
INSERT
  5
44A
100
AcDbEntity
  8
0
  6
CONTINUOUS
100
AcDbBlockReference
  2
DA_IMAGEDIMGROUP_8
 10
0.0
 20
0.0
 30
0.0
  0
INSERT
  5
44B
100
AcDbEntity
  8
0
  6
CONTINUOUS
100
AcDbBlockReference
  2
DA_IMAGEDIMGROUP_9
 10
0.0
 20
0.0
 30
0.0
  0
INSERT
  5
44C
100
AcDbEntity
  8
0
  6
CONTINUOUS
100
AcDbBlockReference
  2
DA_IMAGEDIMGROUP_10
 10
0.0
 20
0.0
 30
0.0
  0
INSERT
  5
44D
100
AcDbEntity
  8
0
  6
CONTINUOUS
100
AcDbBlockReference
  2
GROUP_2
 10
0.0
 20
0.0
 30
0.0
  0
LINE
  5
44E
100
AcDbEntity
  8
LAYER0240
  6
CONTINUOUS
 62
       4
100
AcDbLine
 10
115.43629263
 20
-462.54878292
 30
0.0
 11
115.43629263
 21
-452.57850878
 31
0.0
  0
LINE
  5
44F
100
AcDbEntity
  8
LAYER0001
  6
CENTER
 62
       9
100
AcDbLine
 10
-44.79489301
 20
-151.95193735
 30
0.0
 11
-44.79489301
 21
-50.48915561
 31
0.0
  0
LINE
  5
450
100
AcDbEntity
  8
LAYER0001
  6
CENTER
 62
       9
100
AcDbLine
 10
-44.79489301
 20
109.45704067
 30
0.0
 11
-44.79489301
 21
201.30755888
 31
0.0
  0
ARC
  5
451
100
AcDbEntity
  8
0
  6
CONTINUOUS
 62
       3
100
AcDbCircle
 10
-240.79489301
 20
-134.08448321
 30
0.0
 40
4.0
100
AcDbArc
 50
180.0
 51
270.0
  0
LINE
  5
452
100
AcDbEntity
  8
0
  6
CONTINUOUS
 62
       3
100
AcDbLine
 10
-241.79488991
 20
-63.08448172
 30
0.0
 11
-244.79489599
 21
-63.08448172
 31
0.0
  0
LINE
  5
453
100
AcDbEntity
  8
0
  6
CONTINUOUS
 62
       3
100
AcDbLine
 10
-241.79489301
 20
-133.08448321
 30
0.0
 11
-241.79488991
 21
-63.08448172
 31
0.0
  0
ARC
  5
454
100
AcDbEntity
  8
0
  6
CONTINUOUS
 62
       3
100
AcDbCircle
 10
-239.79489301
 20
-133.08448321
 30
0.0
 40
2.0
100
AcDbArc
 50
180.0
 51
270.0
  0
LINE
  5
455
100
AcDbEntity
  8
0
  6
CONTINUOUS
 62
       3
100
AcDbLine
 10
150.20510699
 20
-135.08448321
 30
0.0
 11
-239.79489301
 21
-135.08448321
 31
0.0
  0
ARC
  5
456
100
AcDbEntity
  8
0
  6
CONTINUOUS
 62
       3
100
AcDbCircle
 10
150.20510699
 20
-133.08448321
 30
0.0
 40
2.0
100
AcDbArc
 50
270.0
 51
360.0
  0
ARC
  5
457
100
AcDbEntity
  8
0
  6
CONTINUOUS
 62
       3
100
AcDbCircle
 10
151.20510699
 20
-134.08448321
 30
0.0
 40
4.0
100
AcDbArc
 50
270.0
 51
360.0
  0
LINE
  5
458
100
AcDbEntity
  8
0
  6
CONTINUOUS
 62
       3
100
AcDbLine
 10
155.20510699
 20
-134.08448321
 30
0.0
 11
155.20510997
 21
-63.08448172
 31
0.0
  0
LINE
  5
459
100
AcDbEntity
  8
0
  6
CONTINUOUS
 62
       3
100
AcDbLine
 10
155.20510997
 20
-63.08448172
 30
0.0
 11
152.20510389
 21
-63.08448172
 31
0.0
  0
LINE
  5
45A
100
AcDbEntity
  8
0
  6
CONTINUOUS
 62
       3
100
AcDbLine
 10
152.20510389
 20
-63.08448172
 30
0.0
 11
152.20510699
 21
-133.08448321
 31
0.0
  0
LINE
  5
45B
100
AcDbEntity
  8
0
  6
CONTINUOUS
 62
       3
100
AcDbLine
 10
-244.79489599
 20
-63.08448172
 30
0.0
 11
-244.79489301
 21
-134.08448321
 31
0.0
  0
LINE
  5
45C
100
AcDbEntity
  8
0
  6
CONTINUOUS
 62
       3
100
AcDbLine
 10
-240.79489301
 20
-138.08448321
 30
0.0
 11
151.20510699
 21
-138.08448321
 31
0.0
  0
LINE
  5
45D
100
AcDbEntity
  8
0
  6
CONTINUOUS
 62
       3
100
AcDbLine
 10
152.20510389
 20
-65.08448205
 30
0.0
 11
152.20510389
 21
-63.08448172
 31
0.0
  0
LINE
  5
45E
100
AcDbEntity
  8
0
  6
CONTINUOUS
 62
       3
100
AcDbLine
 10
-241.79488991
 20
-65.08448205
 30
0.0
 11
-241.79488991
 21
-63.08448172
 31
0.0
  0
LINE
  5
45F
100
AcDbEntity
  8
0
  6
CONTINUOUS
 62
       3
100
AcDbLine
 10
-241.79488991
 20
-63.08448172
 30
0.0
 11
152.20510389
 21
-63.08448172
 31
0.0
  0
LINE
  5
460
100
AcDbEntity
  8
0
  6
CONTINUOUS
 62
       3
100
AcDbLine
 10
-241.79488991
 20
-65.08448205
 30
0.0
 11
152.20510389
 21
-65.08448205
 31
0.0
  0
LINE
  5
461
100
AcDbEntity
  8
0
  6
CONTINUOUS
 62
       3
100
AcDbLine
 10
152.20510389
 20
157.5246201
 30
0.0
 11
152.20510389
 21
127.52462077
 31
0.0
  0
LINE
  5
462
100
AcDbEntity
  8
0
  6
CONTINUOUS
 62
       3
100
AcDbLine
 10
155.20510997
 20
157.5246201
 30
0.0
 11
152.20510389
 21
157.5246201
 31
0.0
  0
LINE
  5
463
100
AcDbEntity
  8
0
  6
CONTINUOUS
 62
       3
100
AcDbLine
 10
155.20510997
 20
157.5246201
 30
0.0
 11
155.20510997
 21
127.52462077
 31
0.0
  0
LINE
  5
464
100
AcDbEntity
  8
0
  6
CONTINUOUS
 62
       3
100
AcDbLine
 10
155.20510997
 20
127.52462077
 30
0.0
 11
152.20510389
 21
127.52462077
 31
0.0
  0
LINE
  5
465
100
AcDbEntity
  8
0
  6
CONTINUOUS
 62
       3
100
AcDbLine
 10
-244.79489599
 20
157.5246201
 30
0.0
 11
-244.79489599
 21
127.52462077
 31
0.0
  0
LINE
  5
466
100
AcDbEntity
  8
0
  6
CONTINUOUS
 62
       3
100
AcDbLine
 10
-241.79488991
 20
157.5246201
 30
0.0
 11
-244.79489599
 21
157.5246201
 31
0.0
  0
LINE
  5
467
100
AcDbEntity
  8
0
  6
CONTINUOUS
 62
       3
100
AcDbLine
 10
-241.79488991
 20
127.52462077
 30
0.0
 11
-244.79489599
 21
127.52462077
 31
0.0
  0
LINE
  5
468
100
AcDbEntity
  8
0
  6
CONTINUOUS
 62
       3
100
AcDbLine
 10
-241.79488991
 20
157.5246201
 30
0.0
 11
-241.79488991
 21
127.52462077
 31
0.0
  0
LINE
  5
469
100
AcDbEntity
  8
0
  6
CONTINUOUS
 62
       3
100
AcDbLine
 10
152.20510389
 20
127.52462077
 30
0.0
 11
152.20510699
 21
181.52462077
 31
0.0
  0
LINE
  5
46A
100
AcDbEntity
  8
0
  6
CONTINUOUS
 62
       3
100
AcDbLine
 10
-241.79488991
 20
127.52462077
 30
0.0
 11
152.20510389
 21
127.52462077
 31
0.0
  0
LINE
  5
46B
100
AcDbEntity
  8
0
  6
CONTINUOUS
 62
       3
100
AcDbLine
 10
-241.79489301
 20
181.52462077
 30
0.0
 11
-241.79488991
 21
127.52462077
 31
0.0
  0
ARC
  5
46C
100
AcDbEntity
  8
0
  6
CONTINUOUS
 62
       3
100
AcDbCircle
 10
-240.79489301
 20
181.52462077
 30
0.0
 40
1.0
100
AcDbArc
 50
90.0
 51
180.0
  0
LINE
  5
46D
100
AcDbEntity
  8
0
  6
CONTINUOUS
 62
       3
100
AcDbLine
 10
151.20510699
 20
182.52462077
 30
0.0
 11
-240.79489301
 21
182.52462077
 31
0.0
  0
CIRCLE
  5
46E
100
AcDbEntity
  8
0
  6
CONTINUOUS
 62
       3
100
AcDbCircle
 10
132.20510699
 20
164.52462077
 30
0.0
 40
2.5
  0
CIRCLE
  5
46F
100
AcDbEntity
  8
0
  6
CONTINUOUS
 62
       3
100
AcDbCircle
 10
-221.79489301
 20
164.52462077
 30
0.0
 40
2.5
  0
CIRCLE
  5
470
100
AcDbEntity
  8
0
  6
CONTINUOUS
 62
       3
100
AcDbCircle
 10
-44.79489301
 20
164.52462077
 30
0.0
 40
2.5
  0
ARC
  5
471
100
AcDbEntity
  8
0
  6
CONTINUOUS
 62
       3
100
AcDbCircle
 10
151.20510699
 20
181.52462077
 30
0.0
 40
1.0
100
AcDbArc
 50
0.0
 51
90.0
  0
LINE
  5
472
100
AcDbEntity
  8
0
  6
CONTINUOUS
 62
       3
100
AcDbLine
 10
332.52439366
 20
-138.08448321
 30
0.0
 11
302.52439366
 21
-138.08448321
 31
0.0
  0
LINE
  5
473
100
AcDbEntity
  8
0
  6
CONTINUOUS
 62
       3
100
AcDbLine
 10
302.52439366
 20
-138.08448321
 30
0.0
 11
302.52439366
 21
-134.08448321
 31
0.0
  0
LINE
  5
474
100
AcDbEntity
  8
0
  6
CONTINUOUS
 62
       3
100
AcDbLine
 10
332.52439366
 20
-134.08448321
 30
0.0
 11
332.52439366
 21
-138.08448321
 31
0.0
  0
LINE
  5
475
100
AcDbEntity
  8
0
  6
CONTINUOUS
 62
       3
100
AcDbLine
 10
332.52439298
 20
-63.08448172
 30
0.0
 11
302.52439366
 21
-63.08448172
 31
0.0
  0
LINE
  5
476
100
AcDbEntity
  8
0
  6
CONTINUOUS
 62
       3
100
AcDbLine
 10
332.52439366
 20
-134.08448321
 30
0.0
 11
332.52439298
 21
-63.08448172
 31
0.0
  0
LINE
  5
477
100
AcDbEntity
  8
0
  6
CONTINUOUS
 62
       3
100
AcDbLine
 10
302.52439366
 20
-134.08448321
 30
0.0
 11
302.52439366
 21
-63.08448172
 31
0.0
  0
LINE
  5
478
100
AcDbEntity
  8
0
  6
CONTINUOUS
 62
       3
100
AcDbLine
 10
356.52439366
 20
-63.08448321
 30
0.0
 11
357.52439366
 21
-63.08448321
 31
0.0
  0
LINE
  5
479
100
AcDbEntity
  8
0
  6
CONTINUOUS
 62
       3
100
AcDbLine
 10
357.52439366
 20
-63.08448321
 30
0.0
 11
357.52439366
 21
-65.08448321
 31
0.0
  0
LINE
  5
47A
100
AcDbEntity
  8
0
  6
CONTINUOUS
 62
       3
100
AcDbLine
 10
357.52439366
 20
-65.08448321
 30
0.0
 11
356.52439366
 21
-65.08448321
 31
0.0
  0
LINE
  5
47B
100
AcDbEntity
  8
0
  6
CONTINUOUS
 62
       3
100
AcDbLine
 10
332.52439298
 20
-63.08448172
 30
0.0
 11
356.52439366
 21
-63.08448321
 31
0.0
  0
LINE
  5
47C
100
AcDbEntity
  8
0
  6
CONTINUOUS
 62
       3
100
AcDbLine
 10
332.52439298
 20
-65.08448205
 30
0.0
 11
356.52439366
 21
-65.08448321
 31
0.0
  0
LINE
  5
47D
100
AcDbEntity
  8
0
  6
CENTER
 62
       9
100
AcDbLine
 10
-221.79489301
 20
175.38257408
 30
0.0
 11
-221.79489301
 21
156.25475453
 31
0.0
  0
LINE
  5
47E
100
AcDbEntity
  8
0
  6
CENTER
 62
       9
100
AcDbLine
 10
132.20510699
 20
175.38257408
 30
0.0
 11
132.20510699
 21
156.25475453
 31
0.0
  0
LINE
  5
47F
100
AcDbEntity
  8
0
  6
CENTER
 62
       9
100
AcDbLine
 10
122.68671679
 20
164.52462077
 30
0.0
 11
141.81453634
 21
164.52462077
 31
0.0
  0
LINE
  5
480
100
AcDbEntity
  8
0
  6
CENTER
 62
       9
100
AcDbLine
 10
-231.17794486
 20
164.52462077
 30
0.0
 11
-209.92481203
 21
164.52462077
 31
0.0
  0
LINE
  5
481
100
AcDbEntity
  8
0
  6
CENTER
 62
       9
100
AcDbLine
 10
-54.77694236
 20
164.52462077
 30
0.0
 11
-35.64912281
 21
164.52462077
 31
0.0
  0
LINE
  5
482
100
AcDbEntity
  8
0
  6
CENTER
 62
       9
100
AcDbLine
 10
-221.79489301
 20
-55.88972431
 30
0.0
 11
-221.79489301
 21
-75.01754386
 31
0.0
  0
LINE
  5
483
100
AcDbEntity
  8
0
  6
CENTER
 62
       9
100
AcDbLine
 10
132.20510699
 20
-55.88972431
 30
0.0
 11
132.20510699
 21
-75.01754386
 31
0.0
  0
LINE
  5
484
100
AcDbEntity
  8
0
  6
CENTER
 62
       9
100
AcDbLine
 10
339.52439366
 20
-75.01754386
 30
0.0
 11
339.52439366
 21
-55.88972431
 31
0.0
  0
ENDSEC
  0
SECTION
  2
OBJECTS
  0
DICTIONARY
  5
19
100
AcDbDictionary
  3
ACAD_GROUP
350
1A
  3
ACAD_MLINESTYLE
350
1B
  0
DICTIONARY
  5
1A
102
{ACAD_REACTORS
330
19
102
}
100
AcDbDictionary
  0
DICTIONARY
  5
1B
102
{ACAD_REACTORS
330
19
102
}
100
AcDbDictionary
  3
STANDARD
350
1C
  0
MLINESTYLE
  5
1C
102
{ACAD_REACTORS
330
1B
102
}
100
AcDbMlineStyle
  2
STANDARD
 70
       0
  3

 62
       0
 51
90.0
 52
90.0
 71
       2
 49
0.5
 62
     256
  6
BYLAYER
 49
-0.5
 62
     256
  6
BYLAYER
  0
ENDSEC
  0
EOF
