  0
SECTION
  2
HEADER
  9
$ACADVER
  1
AC1014
  9
$ACADMAINTVER
 70
       0
  9
$DWGCODEPAGE
  3
ANSI_932
  9
$INSBASE
 10
0.0
 20
0.0
 30
0.0
  9
$EXTMIN
 10
-661.09249238
 20
-920.0
 30
0.0
  9
$EXTMAX
 10
659.04624619
 20
922.0
 30
0.0
  9
$LIMMIN
 10
-210.0
 20
-297.0
  9
$LIMMAX
 10
210.0
 20
297.0
  9
$ORTHOMODE
 70
       0
  9
$REGENMODE
 70
       1
  9
$FILLMODE
 70
       1
  9
$QTEXTMODE
 70
       0
  9
$MIRRTEXT
 70
       1
  9
$DRAGMODE
 70
       2
  9
$LTSCALE
 40
2.0
  9
$OSMODE
 70
       0
  9
$ATTMODE
 70
       1
  9
$TEXTSIZE
 40
0.2
  9
$TRACEWID
 40
0.05
  9
$TEXTSTYLE
  7
STANDARD
  9
$CLAYER
  8
0
  9
$CELTYPE
  6
CONTINUOUS
  9
$CECOLOR
 62
     256
  9
$CELTSCALE
 40
1.0
  9
$DELOBJ
 70
       1
  9
$DISPSILH
 70
       0
  9
$DIMSCALE
 40
1.0
  9
$DIMASZ
 40
4.0
  9
$DIMEXO
 40
0.0625
  9
$DIMDLI
 40
0.38
  9
$DIMRND
 40
0.0
  9
$DIMDLE
 40
0.0
  9
$DIMEXE
 40
0.18
  9
$DIMTP
 40
0.0
  9
$DIMTM
 40
0.0
  9
$DIMTXT
 40
4.0
  9
$DIMCEN
 40
0.09
  9
$DIMTSZ
 40
0.0
  9
$DIMTOL
 70
       0
  9
$DIMLIM
 70
       0
  9
$DIMTIH
 70
       1
  9
$DIMTOH
 70
       1
  9
$DIMSE1
 70
       0
  9
$DIMSE2
 70
       0
  9
$DIMTAD
 70
       0
  9
$DIMZIN
 70
       0
  9
$DIMBLK
  1

  9
$DIMASO
 70
       1
  9
$DIMSHO
 70
       1
  9
$DIMPOST
  1

  9
$DIMAPOST
  1

  9
$DIMALT
 70
       0
  9
$DIMALTD
 70
       2
  9
$DIMALTF
 40
25.4
  9
$DIMLFAC
 40
1.0
  9
$DIMTOFL
 70
       0
  9
$DIMTVP
 40
0.0
  9
$DIMTIX
 70
       0
  9
$DIMSOXD
 70
       0
  9
$DIMSAH
 70
       0
  9
$DIMBLK1
  1

  9
$DIMBLK2
  1

  9
$DIMSTYLE
  2
STANDARD
  9
$DIMCLRD
 70
       0
  9
$DIMCLRE
 70
       0
  9
$DIMCLRT
 70
       0
  9
$DIMTFAC
 40
1.0
  9
$DIMGAP
 40
0.09
  9
$DIMJUST
 70
       0
  9
$DIMSD1
 70
       0
  9
$DIMSD2
 70
       0
  9
$DIMTOLJ
 70
       1
  9
$DIMTZIN
 70
       0
  9
$DIMALTZ
 70
       0
  9
$DIMALTTZ
 70
       0
  9
$DIMFIT
 70
       3
  9
$DIMUPT
 70
       0
  9
$DIMUNIT
 70
       2
  9
$DIMDEC
 70
       4
  9
$DIMTDEC
 70
       4
  9
$DIMALTU
 70
       2
  9
$DIMALTTD
 70
       2
  9
$DIMTXSTY
  7
STANDARD
  9
$DIMAUNIT
 70
       0
  9
$LUNITS
 70
       2
  9
$LUPREC
 70
       4
  9
$SKETCHINC
 40
0.1
  9
$FILLETRAD
 40
0.0
  9
$AUNITS
 70
       0
  9
$AUPREC
 70
       0
  9
$MENU
  1
acad
  9
$ELEVATION
 40
0.0
  9
$PELEVATION
 40
0.0
  9
$THICKNESS
 40
0.0
  9
$LIMCHECK
 70
       0
  9
$BLIPMODE
 70
       1
  9
$CHAMFERA
 40
0.0
  9
$CHAMFERB
 40
0.0
  9
$CHAMFERC
 40
0.0
  9
$CHAMFERD
 40
0.0
  9
$SKPOLY
 70
       0
  9
$TDCREATE
 40
0.000000000
  9
$TDUPDATE
 40
0.000000000
  9
$TDINDWG
 40
0.0000000000
  9
$TDUSRTIMER
 40
0.0000000000
  9
$USRTIMER
 70
       1
  9
$ANGBASE
 50
0.0
  9
$ANGDIR
 70
       0
  9
$PDMODE
 70
       0
  9
$PDSIZE
 40
1.0
  9
$PLINEWID
 40
0.0
  9
$COORDS
 70
       1
  9
$SPLFRAME
 70
       0
  9
$SPLINETYPE
 70
       6
  9
$SPLINESEGS
 70
       8
  9
$ATTDIA
 70
       0
  9
$ATTREQ
 70
       1
  9
$HANDLING
 70
       1
  9
$HANDSEED
  5
47E
  9
$SURFTAB1
 70
       6
  9
$SURFTAB2
 70
       6
  9
$SURFTYPE
 70
       6
  9
$SURFU
 70
       6
  9
$SURFV
 70
       6
  9
$UCSNAME
  2

  9
$UCSORG
 10
0.0
 20
0.0
 30
0.0
  9
$UCSXDIR
 10
1.0
 20
0.0
 30
0.0
  9
$UCSYDIR
 10
0.0
 20
1.0
 30
0.0
  9
$PUCSNAME
  2

  9
$PUCSORG
 10
0.0
 20
0.0
 30
0.0
  9
$PUCSXDIR
 10
1.0
 20
0.0
 30
0.0
  9
$PUCSYDIR
 10
0.0
 20
1.0
 30
0.0
  9
$USERI1
 70
       0
  9
$USERI2
 70
       0
  9
$USERI3
 70
       0
  9
$USERI4
 70
       0
  9
$USERI5
 70
       0
  9
$USERR1
 40
0.0
  9
$USERR2
 40
0.0
  9
$USERR3
 40
0.0
  9
$USERR4
 40
0.0
  9
$USERR5
 40
0.0
  9
$WORLDVIEW
 70
       1
  9
$SHADEDGE
 70
       3
  9
$SHADEDIF
 70
      70
  9
$TILEMODE
 70
       1
  9
$MAXACTVP
 70
      16
  9
$PINSBASE
 10
0.0
 20
0.0
 30
0.0
  9
$PLIMCHECK
 70
       0
  9
$PEXTMIN
 10
1.00000000E+20
 20
1.00000000E+20
 30
1.00000000E+20
  9
$PEXTMAX
 10
-1.00000000E+20
 20
-1.00000000E+20
 30
-1.00000000E+20
  9
$PLIMMIN
 10
0.0
 20
0.0
  9
$PLIMMAX
 10
12.0
 20
9.0
  9
$UNITMODE
 70
       0
  9
$VISRETAIN
 70
       0
  9
$PLINEGEN
 70
       1
  9
$PSLTSCALE
 70
       0
  9
$TREEDEPTH
 70
    3020
  9
$PICKSTYLE
 70
       1
  9
$CMLSTYLE
  2
STANDARD
  9
$CMLJUST
 70
       0
  9
$CMLSCALE
 40
1.0
  9
$PROXYGRAPHICS
 70
       0
  9
$MEASUREMENT
 70
       0
  0
ENDSEC
  0
SECTION
  2
CLASSES
  0
CLASS
  1
LWPOLYLINE
  2
AcDbPolyline
  3
"AutoCAD"
 90
        0
280
       0
281
       1
  0
CLASS
  1
IMAGE
  2
AcDbRasterImage
  3
ISM
 90
      127
280
       0
281
       1
  0
CLASS
  1
OLE2FRAME
  2
AcDbOle2Frame
  3
""
 90
        0
280
       0
281
       1
  0
CLASS
  1
HATCH
  2
AcDbHatch
  3
"ACAD_SEDONA"
 90
        0
280
       0
281
       1
  0
CLASS
  1
DICTIONARYVAR
  2
AcDbDictionaryVar
  3
"AutoCAD"
 90
        0
280
       0
281
       0
  0
CLASS
  1
RASTERVARIABLES
  2
AcDbRasterVariables
  3
ISM
 90
        0
280
       0
281
       0
  0
CLASS
  1
IMAGEDEF
  2
AcDbRasterImageDef
  3
ISM
 90
        0
280
       0
281
       0
  0
CLASS
  1
IMAGEDEF_REACTOR
  2
AcDbRasterImageDefReactor
  3
ISM
 90
        1
280
       0
281
       0
  0
CLASS
  1
IDBUFFER
  2
AcDbIdBuffer
  3
"Acad"
 90
        0
280
       0
281
       0
  0
CLASS
  1
SPATIAL_FILTER
  2
AcDbSpatialFilter
  3
"Acad"
 90
        0
280
       0
281
       0
  0
CLASS
  1
XRECORD
  2
AcDbXrecord
  3
"<Built In>"
 90
        0
280
       0
281
       0
  0
CLASS
  1
SORTENTSTABLE
  2
AcDbSortentsTable
  3
"AutoCAD"
 90
        0
280
       0
281
       0
  0
CLASS
  1
LAYER_INDEX
  2
AcDbLayerIndex
  3
"Acad"
 90
        0
280
       0
281
       0
  0
CLASS
  1
SPATIAL_INDEX
  2
AcDbSpatialIndex
  3
"Acad"
 90
        0
280
       0
281
       0
  0
CLASS
  1
OBJECT_PTR
  2
CAseDLPNTableRecord
  3
"ASE-LPNTableRecord"
 90
        1
280
       0
281
       0
  0
CLASS
  1
LAYOUT
  2
AcDbLayout
  3
"AutoCAD 2000"
 90
        0
280
       0
281
       0
  0
CLASS
  1
PLOTSETTINGS
  2
AcDbPlotSettings
  3
"AutoCAD 2000"
 90
        0
280
       0
281
       0
  0
CLASS
  1
ACDBDICTIONARYWDFLT
  2
AcDbDictionaryWithDefault
  3
"AutoCAD 2000"
 90
        0
280
       0
281
       0
  0
CLASS
  1
ACDBPLACEHOLDER
  2
AcDbPlaceHolder
  3
"AutoCAD 2000"
 90
        0
280
       0
281
       0
  0
CLASS
  1
VBA_PROJECT
  2
AcDbVbaProject
  3
"acadvba"
 90
        0
280
       0
281
       0
  0
CLASS
  1
WIPEOUT
  2
AcDbWipeout
  3
WipeOut|AutoCAD Express Tool|expresstools@autodesk.com
 90
      127
280
       0
281
       1
  0
CLASS
  1
WIPEOUTVARIABLES
  2
AcDbWipeoutVariables
  3
WipeOut|AutoCAD Express Tool|expresstools@autodesk.com
 90
        0
280
       0
281
       0
  0
CLASS
  1
RTEXT
  2
RText
  3
RText|AutoCAD Express Tool|expresstools@autodesk.com
 90
        0
280
       0
281
       1
  0
CLASS
  1
ARCALIGNEDTEXT
  2
AcDbArcAlignedText
  3
ATEXT|AutoCAD Express Tool|expresstools@autodesk.com
 90
        0
280
       0
281
       1
  0
ENDSEC
  0
SECTION
  2
TABLES
  0
TABLE
  2
VPORT
  5
7
100
AcDbSymbolTable
 70
       1
  0
VPORT
  5
15
100
AcDbSymbolTableRecord
100
AcDbViewportTableRecord
  2
*ACTIVE
 70
       0
 10
0.0
 20
0.0
 11
1.0
 21
1.0
 12
0.0
 22
0.0
 13
0.0
 23
0.0
 14
1.0
 24
1.0
 15
0.0
 25
0.0
 16
0.0
 26
0.0
 36
1.0
 17
0.0
 27
0.0
 37
0.0
 40
594.0
 41
0.70707071
 42
50.0
 43
0.0
 44
0.0
 50
0.0
 51
0.0
 71
       0
 72
     100
 73
       1
 74
       1
 75
       0
 76
       0
 77
       0
 78
       0
  0
ENDTAB
  0
TABLE
  2
LTYPE
  5
4
100
AcDbSymbolTable
 70
      30
  0
LTYPE
  5
11
100
AcDbSymbolTableRecord
100
AcDbLinetypeTableRecord
  2
BYBLOCK
 70
      64
  3

 72
      65
 73
       0
 40
0.0
  0
LTYPE
  5
12
100
AcDbSymbolTableRecord
100
AcDbLinetypeTableRecord
  2
BYLAYER
 70
      64
  3

 72
      65
 73
       0
 40
0.0
  0
LTYPE
  5
13
100
AcDbSymbolTableRecord
100
AcDbLinetypeTableRecord
  2
CONTINUOUS
 70
      64
  3
Solid line
 72
      65
 73
       0
 40
0.0
  0
LTYPE
  5
1D
100
AcDbSymbolTableRecord
100
AcDbLinetypeTableRecord
  2
HIDDENX2
 70
      64
  3
CADPAC LINETYPE
 72
      65
 73
       2
 40
6.66666667
 49
5.0
 74
       0
 49
-1.66666667
 74
       0
  0
LTYPE
  5
1E
100
AcDbSymbolTableRecord
100
AcDbLinetypeTableRecord
  2
HIDDEN
 70
      64
  3
CADPAC LINETYPE
 72
      65
 73
       2
 40
5.0
 49
3.33333333
 74
       0
 49
-1.66666667
 74
       0
  0
LTYPE
  5
1F
100
AcDbSymbolTableRecord
100
AcDbLinetypeTableRecord
  2
HIDDEN2
 70
      64
  3
CADPAC LINETYPE
 72
      65
 73
       2
 40
4.16666667
 49
2.5
 74
       0
 49
-1.66666667
 74
       0
  0
LTYPE
  5
20
100
AcDbSymbolTableRecord
100
AcDbLinetypeTableRecord
  2
DASHED
 70
      64
  3
CADPAC LINETYPE
 72
      65
 73
       2
 40
4.66666667
 49
3.33333333
 74
       0
 49
-1.33333333
 74
       0
  0
LTYPE
  5
21
100
AcDbSymbolTableRecord
100
AcDbLinetypeTableRecord
  2
DASHED2
 70
      64
  3
CADPAC LINETYPE
 72
      65
 73
       2
 40
3.0
 49
2.0
 74
       0
 49
-1.0
 74
       0
  0
LTYPE
  5
22
100
AcDbSymbolTableRecord
100
AcDbLinetypeTableRecord
  2
DASHEDX2
 70
      64
  3
CADPAC LINETYPE
 72
      65
 73
       2
 40
8.0
 49
6.66666667
 74
       0
 49
-1.33333333
 74
       0
  0
LTYPE
  5
23
100
AcDbSymbolTableRecord
100
AcDbLinetypeTableRecord
  2
DOTX2
 70
      64
  3
CADPAC LINETYPE
 72
      65
 73
       2
 40
2.91666667
 49
0.0
 74
       0
 49
-2.91666667
 74
       0
  0
LTYPE
  5
24
100
AcDbSymbolTableRecord
100
AcDbLinetypeTableRecord
  2
DOT
 70
      64
  3
CADPAC LINETYPE
 72
      65
 73
       2
 40
2.33333333
 49
0.0
 74
       0
 49
-2.33333333
 74
       0
  0
LTYPE
  5
25
100
AcDbSymbolTableRecord
100
AcDbLinetypeTableRecord
  2
DOT2
 70
      64
  3
CADPAC LINETYPE
 72
      65
 73
       2
 40
1.75
 49
0.0
 74
       0
 49
-1.75
 74
       0
  0
LTYPE
  5
26
100
AcDbSymbolTableRecord
100
AcDbLinetypeTableRecord
  2
CENTERX2
 70
      64
  3
CADPAC LINETYPE
 72
      65
 73
       4
 40
10.0
 49
4.16666667
 74
       0
 49
-2.08333333
 74
       0
 49
1.66666667
 74
       0
 49
-2.08333333
 74
       0
  0
LTYPE
  5
27
100
AcDbSymbolTableRecord
100
AcDbLinetypeTableRecord
  2
CENTER
 70
      64
  3
CADPAC LINETYPE
 72
      65
 73
       4
 40
7.66666667
 49
3.33333333
 74
       0
 49
-1.66666667
 74
       0
 49
1.0
 74
       0
 49
-1.66666667
 74
       0
  0
LTYPE
  5
28
100
AcDbSymbolTableRecord
100
AcDbLinetypeTableRecord
  2
CENTER2
 70
      64
  3
CADPAC LINETYPE
 72
      65
 73
       4
 40
5.33333333
 49
2.5
 74
       0
 49
-1.25
 74
       0
 49
0.33333333
 74
       0
 49
-1.25
 74
       0
  0
LTYPE
  5
29
100
AcDbSymbolTableRecord
100
AcDbLinetypeTableRecord
  2
DASHDOTX2
 70
      64
  3
CADPAC LINETYPE
 72
      65
 73
       4
 40
16.0
 49
8.0
 74
       0
 49
-2.66666667
 74
       0
 49
2.66666667
 74
       0
 49
-2.66666667
 74
       0
  0
LTYPE
  5
2A
100
AcDbSymbolTableRecord
100
AcDbLinetypeTableRecord
  2
DASHDOT
 70
      64
  3
CADPAC LINETYPE
 72
      65
 73
       4
 40
8.0
 49
4.0
 74
       0
 49
-1.33333333
 74
       0
 49
1.33333333
 74
       0
 49
-1.33333333
 74
       0
  0
LTYPE
  5
2B
100
AcDbSymbolTableRecord
100
AcDbLinetypeTableRecord
  2
DASHDOT2
 70
      64
  3
CADPAC LINETYPE
 72
      65
 73
       4
 40
5.13333333
 49
3.0
 74
       0
 49
-1.0
 74
       0
 49
0.13333333
 74
       0
 49
-1.0
 74
       0
  0
LTYPE
  5
2C
100
AcDbSymbolTableRecord
100
AcDbLinetypeTableRecord
  2
DIVIDEX2
 70
      64
  3
CADPAC LINETYPE
 72
      65
 73
       6
 40
21.33333333
 49
8.0
 74
       0
 49
-2.66666667
 74
       0
 49
2.66666667
 74
       0
 49
-2.66666667
 74
       0
 49
2.66666667
 74
       0
 49
-2.66666667
 74
       0
  0
LTYPE
  5
2D
100
AcDbSymbolTableRecord
100
AcDbLinetypeTableRecord
  2
DIVIDE
 70
      64
  3
CADPAC LINETYPE
 72
      65
 73
       6
 40
10.66666667
 49
4.0
 74
       0
 49
-1.33333333
 74
       0
 49
1.33333333
 74
       0
 49
-1.33333333
 74
       0
 49
1.33333333
 74
       0
 49
-1.33333333
 74
       0
  0
LTYPE
  5
2E
100
AcDbSymbolTableRecord
100
AcDbLinetypeTableRecord
  2
DIVIDE2
 70
      64
  3
CADPAC LINETYPE
 72
      65
 73
       6
 40
8.0
 49
3.0
 74
       0
 49
-1.0
 74
       0
 49
1.0
 74
       0
 49
-1.0
 74
       0
 49
1.0
 74
       0
 49
-1.0
 74
       0
  0
LTYPE
  5
2F
100
AcDbSymbolTableRecord
100
AcDbLinetypeTableRecord
  2
BORDERX2
 70
      64
  3
CADPAC LINETYPE
 72
      65
 73
       6
 40
14.58333333
 49
4.16666667
 74
       0
 49
-2.08333333
 74
       0
 49
4.16666667
 74
       0
 49
-2.08333333
 74
       0
 49
0.0
 74
       0
 49
-2.08333333
 74
       0
  0
LTYPE
  5
30
100
AcDbSymbolTableRecord
100
AcDbLinetypeTableRecord
  2
BORDER
 70
      64
  3
CADPAC LINETYPE
 72
      65
 73
       6
 40
11.66666667
 49
3.33333333
 74
       0
 49
-1.66666667
 74
       0
 49
3.33333333
 74
       0
 49
-1.66666667
 74
       0
 49
0.0
 74
       0
 49
-1.66666667
 74
       0
  0
LTYPE
  5
31
100
AcDbSymbolTableRecord
100
AcDbLinetypeTableRecord
  2
BORDER2
 70
      64
  3
CADPAC LINETYPE
 72
      65
 73
       6
 40
8.66666667
 49
2.66666667
 74
       0
 49
-1.66666667
 74
       0
 49
1.0
 74
       0
 49
-1.66666667
 74
       0
 49
0.0
 74
       0
 49
-1.66666667
 74
       0
  0
LTYPE
  5
32
100
AcDbSymbolTableRecord
100
AcDbLinetypeTableRecord
  2
PHANTOMX2
 70
      64
  3
CADPAC LINETYPE
 72
      65
 73
       6
 40
12.5
 49
4.16666667
 74
       0
 49
-1.66666667
 74
       0
 49
1.66666667
 74
       0
 49
-1.66666667
 74
       0
 49
1.66666667
 74
       0
 49
-1.66666667
 74
       0
  0
LTYPE
  5
33
100
AcDbSymbolTableRecord
100
AcDbLinetypeTableRecord
  2
PHANTOM
 70
      64
  3
CADPAC LINETYPE
 72
      65
 73
       6
 40
10.33333333
 49
3.33333333
 74
       0
 49
-1.66666667
 74
       0
 49
1.0
 74
       0
 49
-1.66666667
 74
       0
 49
1.0
 74
       0
 49
-1.66666667
 74
       0
  0
LTYPE
  5
34
100
AcDbSymbolTableRecord
100
AcDbLinetypeTableRecord
  2
PHANTOM2
 70
      64
  3
CADPAC LINETYPE
 72
      65
 73
       6
 40
8.83333333
 49
2.5
 74
       0
 49
-1.66666667
 74
       0
 49
0.66666667
 74
       0
 49
-1.66666667
 74
       0
 49
0.66666667
 74
       0
 49
-1.66666667
 74
       0
  0
LTYPE
  5
35
100
AcDbSymbolTableRecord
100
AcDbLinetypeTableRecord
  2
ACAD_ISO06W100
 70
      64
  3
CADPAC LINETYPE
 72
      65
 73
       8
 40
17.66666667
 49
8.0
 74
       0
 49
-1.66666667
 74
       0
 49
1.0
 74
       0
 49
-1.66666667
 74
       0
 49
1.0
 74
       0
 49
-1.66666667
 74
       0
 49
1.0
 74
       0
 49
-1.66666667
 74
       0
  0
LTYPE
  5
36
100
AcDbSymbolTableRecord
100
AcDbLinetypeTableRecord
  2
ACAD_ISO13W100
 70
      64
  3
CADPAC LINETYPE
 72
      65
 73
       8
 40
13.33333333
 49
3.33333333
 74
       0
 49
-1.66666667
 74
       0
 49
3.33333333
 74
       0
 49
-1.66666667
 74
       0
 49
0.0
 74
       0
 49
-1.66666667
 74
       0
 49
0.0
 74
       0
 49
-1.66666667
 74
       0
  0
LTYPE
  5
37
100
AcDbSymbolTableRecord
100
AcDbLinetypeTableRecord
  2
ACAD_ISO14W100
 70
      64
  3
CADPAC LINETYPE
 72
      65
 73
       8
 40
10.0
 49
3.33333333
 74
       0
 49
-1.66666667
 74
       0
 49
0.0
 74
       0
 49
-1.66666667
 74
       0
 49
0.0
 74
       0
 49
-1.66666667
 74
       0
 49
0.0
 74
       0
 49
-1.66666667
 74
       0
  0
ENDTAB
  0
TABLE
  2
LAYER
  5
2
100
AcDbSymbolTable
 70
       4
  0
LAYER
  5
14
100
AcDbSymbolTableRecord
100
AcDbLayerTableRecord
  2
0
 70
       0
 62
       7
  6
CONTINUOUS
  0
LAYER
  5
38
100
AcDbSymbolTableRecord
100
AcDbLayerTableRecord
  2
LAYER0001
 70
       0
 62
       7
  6
CONTINUOUS
  0
LAYER
  5
39
100
AcDbSymbolTableRecord
100
AcDbLayerTableRecord
  2
LAYER0240
 70
       0
 62
       7
  6
CONTINUOUS
  0
LAYER
  5
3A
100
AcDbSymbolTableRecord
100
AcDbLayerTableRecord
  2
ZUWAKU
 70
       0
 62
       7
  6
CONTINUOUS
  0
ENDTAB
  0
TABLE
  2
STYLE
  5
3
100
AcDbSymbolTable
 70
       2
  0
STYLE
  5
17
100
AcDbSymbolTableRecord
100
AcDbTextStyleTableRecord
  2
STANDARD
 70
       0
 40
6.8
 41
0.8
 50
0.0
 71
       0
 42
6.8
  3
txt.shx
  4
bigfont.shx
  0
STYLE
  5
3B
100
AcDbSymbolTableRecord
100
AcDbTextStyleTableRecord
  2
FDASTYLE1
 70
       4
 40
6.0
 41
0.8
 50
0.0
 71
       0
 42
6.0
  3
txt.shx
  4
bigfont.shx
  0
ENDTAB
  0
TABLE
  2
VIEW
  5
5
100
AcDbSymbolTable
 70
       1
  0
VIEW
  5
3C
100
AcDbSymbolTableRecord
100
AcDbViewTableRecord
  2
QQQQ
 70
       0
 40
594.0
 10
0.0
 20
0.0
 41
420.0
 11
0.0
 21
0.0
 31
1.0
 12
100.0
 22
100.0
 32
0.0
 42
50.0
 43
0.0
 44
0.0
 50
0.0
 71
       0
  0
ENDTAB
  0
TABLE
  2
UCS
  5
6
100
AcDbSymbolTable
 70
       0
  0
ENDTAB
  0
TABLE
  2
APPID
  5
8
100
AcDbSymbolTable
 70
       1
  0
APPID
  5
16
100
AcDbSymbolTableRecord
100
AcDbRegAppTableRecord
  2
ACAD
 70
       0
  0
ENDTAB
  0
TABLE
  2
DIMSTYLE
  5
9
100
AcDbSymbolTable
 70
       1
  0
DIMSTYLE
105
18
100
AcDbSymbolTableRecord
100
AcDbDimStyleTableRecord
  2
STANDARD
 70
       0
  3

  4

  5

  6

  7

 40
1.0
 41
0.18
 42
0.0625
 43
0.38
 44
0.18
 45
0.0
 46
0.0
 47
0.0
 48
0.0
 71
       0
 72
       0
 73
       1
 74
       1
 75
       0
 76
       0
 77
       0
 78
       0
140
0.18
141
0.09
142
0.0
143
25.4
144
1.0
145
0.0
146
1.0
147
0.09
170
       0
171
       2
172
       0
173
       0
174
       0
175
       0
176
       0
177
       0
178
       0
270
       2
271
       4
272
       4
273
       2
274
       2
275
       0
280
       0
281
       0
282
       0
283
       1
284
       0
285
       0
286
       0
287
       3
288
       0
340
17
  0
ENDTAB
  0
TABLE
  2
BLOCK_RECORD
  5
1
100
AcDbSymbolTable
 70
      13
  0
BLOCK_RECORD
  5
A
100
AcDbSymbolTableRecord
100
AcDbBlockTableRecord
  2
*MODEL_SPACE
  0
BLOCK_RECORD
  5
B
100
AcDbSymbolTableRecord
100
AcDbBlockTableRecord
  2
*PAPER_SPACE
  0
BLOCK_RECORD
  5
3D
100
AcDbSymbolTableRecord
100
AcDbBlockTableRecord
  2
DA_IMAGEDIMGROUP_1
  0
BLOCK_RECORD
  5
3E
100
AcDbSymbolTableRecord
100
AcDbBlockTableRecord
  2
_OPEN30
  0
BLOCK_RECORD
  5
3F
100
AcDbSymbolTableRecord
100
AcDbBlockTableRecord
  2
DA_IMAGEDIMGROUP_2
  0
BLOCK_RECORD
  5
40
100
AcDbSymbolTableRecord
100
AcDbBlockTableRecord
  2
DA_IMAGEDIMGROUP_3
  0
BLOCK_RECORD
  5
41
100
AcDbSymbolTableRecord
100
AcDbBlockTableRecord
  2
DA_IMAGEDIMGROUP_4
  0
BLOCK_RECORD
  5
42
100
AcDbSymbolTableRecord
100
AcDbBlockTableRecord
  2
DA_IMAGEDIMGROUP_5
  0
BLOCK_RECORD
  5
43
100
AcDbSymbolTableRecord
100
AcDbBlockTableRecord
  2
DA_IMAGEDIMGROUP_6
  0
BLOCK_RECORD
  5
44
100
AcDbSymbolTableRecord
100
AcDbBlockTableRecord
  2
DA_IMAGEDIMGROUP_7
  0
BLOCK_RECORD
  5
45
100
AcDbSymbolTableRecord
100
AcDbBlockTableRecord
  2
DA_IMAGEDIMGROUP_8
  0
BLOCK_RECORD
  5
46
100
AcDbSymbolTableRecord
100
AcDbBlockTableRecord
  2
DA_IMAGEDIMGROUP_9
  0
BLOCK_RECORD
  5
47
100
AcDbSymbolTableRecord
100
AcDbBlockTableRecord
  2
DA_IMAGEDIMGROUP_10
  0
BLOCK_RECORD
  5
48
100
AcDbSymbolTableRecord
100
AcDbBlockTableRecord
  2
GROUP_1
  0
BLOCK_RECORD
  5
49
100
AcDbSymbolTableRecord
100
AcDbBlockTableRecord
  2
GROUP_2
  0
ENDTAB
  0
ENDSEC
  0
SECTION
  2
BLOCKS
  0
BLOCK
  5
D
100
AcDbEntity
  8
0
100
AcDbBlockBegin
  2
*MODEL_SPACE
 70
       0
 10
0.0
 20
0.0
 30
0.0
  3
*MODEL_SPACE
  1

  0
ENDBLK
  5
E
100
AcDbEntity
  8
0
100
AcDbBlockEnd
  0
BLOCK
  5
F
100
AcDbEntity
 67
       1
  8
0
100
AcDbBlockBegin
  2
*PAPER_SPACE
 70
       0
 10
0.0
 20
0.0
 30
0.0
  3
*PAPER_SPACE
  1

  0
ENDBLK
  5
10
100
AcDbEntity
 67
       1
  8
0
100
AcDbBlockEnd
  0
BLOCK
  5
4A
100
AcDbEntity
  8
0
100
AcDbBlockBegin
  2
DA_IMAGEDIMGROUP_1
 70
       0
 10
0.0
 20
0.0
 30
0.0
  3
DA_IMAGEDIMGROUP_1
  1

  0
LINE
  5
4B
100
AcDbEntity
  8
0
  6
CONTINUOUS
 62
       9
100
AcDbLine
 10
-120.15768116
 20
124.68900192
 30
0.0
 11
-120.15768116
 21
156.20153324
 31
0.0
  0
LINE
  5
4C
100
AcDbEntity
  8
0
  6
CONTINUOUS
 62
       9
100
AcDbLine
 10
35.84231884
 20
124.68900192
 30
0.0
 11
35.84231884
 21
156.20153324
 31
0.0
  0
LINE
  5
4D
100
AcDbEntity
  8
0
  6
CONTINUOUS
 62
       9
100
AcDbLine
 10
-120.15768116
 20
154.20153324
 30
0.0
 11
35.84231884
 21
154.20153324
 31
0.0
  0
INSERT
  5
4E
100
AcDbEntity
  8
0
  6
CONTINUOUS
 62
       9
100
AcDbBlockReference
  2
_OPEN30
 10
-120.15768116
 20
154.20153324
 30
0.0
 41
6.00000558
 42
5.99997855
 50
180.0
  0
INSERT
  5
4F
100
AcDbEntity
  8
0
  6
CONTINUOUS
 62
       9
100
AcDbBlockReference
  2
_OPEN30
 10
35.84231884
 20
154.20153324
 30
0.0
 41
6.00000558
 42
5.99997855
 50
360.0
  0
TEXT
  5
50
100
AcDbEntity
  8
0
 62
       7
100
AcDbText
 10
-51.75768116
 20
156.20153324
 30
0.0
 40
8.0
  1
156
 41
0.8
 72
       5
 11
-32.55768116
 21
156.20153324
 31
0.0
100
AcDbText
  0
ENDBLK
  5
51
100
AcDbEntity
  8
0
100
AcDbBlockEnd
  0
BLOCK
  5
52
100
AcDbEntity
  8
0
100
AcDbBlockBegin
  2
_OPEN30
 70
       0
 10
0.0
 20
0.0
 30
0.0
  3
_OPEN30
  1

  0
LINE
  5
53
100
AcDbEntity
  8
0
  6
CONTINUOUS
 62
       0
100
AcDbLine
 10
0.0
 20
0.0
 30
0.0
 11
-0.96592583
 21
0.25881905
 31
0.0
  0
LINE
  5
54
100
AcDbEntity
  8
0
  6
CONTINUOUS
 62
       0
100
AcDbLine
 10
0.0
 20
0.0
 30
0.0
 11
-0.96592583
 21
-0.25881905
 31
0.0
  0
LINE
  5
55
100
AcDbEntity
  8
0
  6
CONTINUOUS
 62
       0
100
AcDbLine
 10
0.0
 20
0.0
 30
0.0
 11
-1.0
 21
0.0
 31
0.0
  0
ENDBLK
  5
56
100
AcDbEntity
  8
0
100
AcDbBlockEnd
  0
BLOCK
  5
57
100
AcDbEntity
  8
0
100
AcDbBlockBegin
  2
DA_IMAGEDIMGROUP_2
 70
       0
 10
0.0
 20
0.0
 30
0.0
  3
DA_IMAGEDIMGROUP_2
  1

  0
LINE
  5
58
100
AcDbEntity
  8
0
  6
CONTINUOUS
 62
       9
100
AcDbLine
 10
59.84232033
 20
80.70755264
 30
0.0
 11
91.79133486
 21
80.70755264
 31
0.0
  0
LINE
  5
59
100
AcDbEntity
  8
0
  6
CONTINUOUS
 62
       9
100
AcDbLine
 10
59.84232033
 20
105.70755301
 30
0.0
 11
91.79133486
 21
105.70755301
 31
0.0
  0
LINE
  5
5A
100
AcDbEntity
  8
0
  6
CONTINUOUS
 62
       9
100
AcDbLine
 10
89.79133486
 20
80.70755264
 30
0.0
 11
89.79133486
 21
105.70755301
 31
0.0
  0
INSERT
  5
5B
100
AcDbEntity
  8
0
  6
CONTINUOUS
 62
       9
100
AcDbBlockReference
  2
_OPEN30
 10
89.79133486
 20
80.70755264
 30
0.0
 41
6.00000558
 42
5.99997855
 50
270.0
  0
INSERT
  5
5C
100
AcDbEntity
  8
0
  6
CONTINUOUS
 62
       9
100
AcDbBlockReference
  2
_OPEN30
 10
89.79133486
 20
105.70755301
 30
0.0
 41
6.00000558
 42
5.99997855
 50
90.0
  0
TEXT
  5
5D
100
AcDbEntity
  8
0
 62
       7
100
AcDbText
 10
87.79133486
 20
86.80755283
 30
0.0
 40
8.0
  1
25
 50
90.0
 41
0.8
 72
       5
 11
87.79133486
 21
99.60755283
 31
0.0
100
AcDbText
  0
ENDBLK
  5
5E
100
AcDbEntity
  8
0
100
AcDbBlockEnd
  0
BLOCK
  5
5F
100
AcDbEntity
  8
0
100
AcDbBlockBegin
  2
DA_IMAGEDIMGROUP_3
 70
       0
 10
0.0
 20
0.0
 30
0.0
  3
DA_IMAGEDIMGROUP_3
  1

  0
LINE
  5
60
100
AcDbEntity
  8
0
  6
CONTINUOUS
 62
       9
100
AcDbLine
 10
47.45549526
 20
112.70755264
 30
0.0
 11
110.68857797
 21
112.70755264
 31
0.0
  0
LINE
  5
61
100
AcDbEntity
  8
0
  6
CONTINUOUS
 62
       9
100
AcDbLine
 10
59.84232033
 20
80.70755264
 30
0.0
 11
110.68857797
 21
80.70755264
 31
0.0
  0
LINE
  5
62
100
AcDbEntity
  8
0
  6
CONTINUOUS
 62
       9
100
AcDbLine
 10
108.68857797
 20
80.70755264
 30
0.0
 11
108.68857797
 21
112.70755264
 31
0.0
  0
INSERT
  5
63
100
AcDbEntity
  8
0
  6
CONTINUOUS
 62
       9
100
AcDbBlockReference
  2
_OPEN30
 10
108.68857797
 20
80.70755264
 30
0.0
 41
6.00000558
 42
5.99997855
 50
270.0
  0
INSERT
  5
64
100
AcDbEntity
  8
0
  6
CONTINUOUS
 62
       9
100
AcDbBlockReference
  2
_OPEN30
 10
108.68857797
 20
112.70755264
 30
0.0
 41
6.00000558
 42
5.99997855
 50
90.0
  0
TEXT
  5
65
100
AcDbEntity
  8
0
 62
       7
100
AcDbText
 10
106.68857797
 20
90.30755264
 30
0.0
 40
8.0
  1
32
 50
90.0
 41
0.8
 72
       5
 11
106.68857797
 21
103.10755264
 31
0.0
100
AcDbText
  0
ENDBLK
  5
66
100
AcDbEntity
  8
0
100
AcDbBlockEnd
  0
BLOCK
  5
67
100
AcDbEntity
  8
0
100
AcDbBlockBegin
  2
DA_IMAGEDIMGROUP_4
 70
       0
 10
0.0
 20
0.0
 30
0.0
  3
DA_IMAGEDIMGROUP_4
  1

  0
LINE
  5
68
100
AcDbEntity
  8
0
  6
CONTINUOUS
 62
       9
100
AcDbLine
 10
55.84231884
 20
130.70755264
 30
0.0
 11
131.7662722
 21
130.70755264
 31
0.0
  0
LINE
  5
69
100
AcDbEntity
  8
0
  6
CONTINUOUS
 62
       9
100
AcDbLine
 10
59.84232033
 20
80.70755264
 30
0.0
 11
131.7662722
 21
80.70755264
 31
0.0
  0
LINE
  5
6A
100
AcDbEntity
  8
0
  6
CONTINUOUS
 62
       9
100
AcDbLine
 10
129.7662722
 20
80.70755264
 30
0.0
 11
129.7662722
 21
130.70755264
 31
0.0
  0
INSERT
  5
6B
100
AcDbEntity
  8
0
  6
CONTINUOUS
 62
       9
100
AcDbBlockReference
  2
_OPEN30
 10
129.7662722
 20
80.70755264
 30
0.0
 41
6.00000558
 42
5.99997855
 50
270.0
  0
INSERT
  5
6C
100
AcDbEntity
  8
0
  6
CONTINUOUS
 62
       9
100
AcDbBlockReference
  2
_OPEN30
 10
129.7662722
 20
130.70755264
 30
0.0
 41
6.00000558
 42
5.99997855
 50
90.0
  0
TEXT
  5
6D
100
AcDbEntity
  8
0
 62
       7
100
AcDbText
 10
127.7662722
 20
99.30755264
 30
0.0
 40
8.0
  1
50
 50
90.0
 41
0.8
 72
       5
 11
127.7662722
 21
112.10755264
 31
0.0
100
AcDbText
  0
ENDBLK
  5
6E
100
AcDbEntity
  8
0
100
AcDbBlockEnd
  0
BLOCK
  5
6F
100
AcDbEntity
  8
0
100
AcDbBlockBegin
  2
DA_IMAGEDIMGROUP_5
 70
       0
 10
0.0
 20
0.0
 30
0.0
  3
DA_IMAGEDIMGROUP_5
  1

  0
LINE
  5
70
100
AcDbEntity
  8
0
  6
CONTINUOUS
 62
       9
100
AcDbLine
 10
-164.76141142
 20
154.54458797
 30
0.0
 11
-138.88864203
 21
130.38997202
 31
0.0
  0
INSERT
  5
71
100
AcDbEntity
  8
0
  6
CONTINUOUS
 62
       9
100
AcDbBlockReference
  2
_OPEN30
 10
-138.88864203
 20
130.38997202
 30
0.0
 41
6.00000558
 42
5.99997855
 50
316.9670079
  0
TEXT
  5
72
100
AcDbEntity
  8
0
 62
       7
100
AcDbText
 10
-161.93465093
 20
154.64167096
 30
0.0
 40
8.0
  1
2-Ｒ1
 50
-43.0329921
 41
0.8
 72
       5
 11
-143.22205261
 21
137.17173495
 31
0.0
100
AcDbText
  0
ENDBLK
  5
73
100
AcDbEntity
  8
0
100
AcDbBlockEnd
  0
BLOCK
  5
74
100
AcDbEntity
  8
0
100
AcDbBlockBegin
  2
DA_IMAGEDIMGROUP_6
 70
       0
 10
0.0
 20
0.0
 30
0.0
  3
DA_IMAGEDIMGROUP_6
  1

  0
LINE
  5
75
100
AcDbEntity
  8
0
  6
CONTINUOUS
 62
       9
100
AcDbLine
 10
34.38985052
 20
110.67277114
 30
0.0
 11
37.29478717
 21
114.74233414
 31
0.0
  0
LINE
  5
76
100
AcDbEntity
  8
0
  6
CONTINUOUS
 62
       9
100
AcDbLine
 10
70.21255007
 20
160.85725036
 30
0.0
 11
37.29478717
 21
114.74233414
 31
0.0
  0
INSERT
  5
77
100
AcDbEntity
  8
0
  6
CONTINUOUS
 62
       9
100
AcDbBlockReference
  2
_OPEN30
 10
37.29478717
 20
114.74233414
 30
0.0
 41
6.00000558
 42
5.99997855
 50
234.47998384
  0
LINE
  5
78
100
AcDbEntity
  8
0
  6
CONTINUOUS
 62
       9
100
AcDbLine
 10
28.57997722
 20
102.53364512
 30
0.0
 11
34.38985052
 21
110.67277114
 31
0.0
  0
INSERT
  5
79
100
AcDbEntity
  8
0
  6
CONTINUOUS
 62
       9
100
AcDbBlockReference
  2
_OPEN30
 10
34.38985052
 20
110.67277114
 30
0.0
 41
6.00000558
 42
5.99997855
 50
54.47998384
  0
TEXT
  5
7A
100
AcDbEntity
  8
0
 62
       7
100
AcDbText
 10
52.54947457
 20
139.55523723
 30
0.0
 40
8.0
  1
2-φ5
 50
54.47998384
 41
0.8
 72
       5
 11
67.42275021
 21
160.39139982
 31
0.0
100
AcDbText
  0
ENDBLK
  5
7B
100
AcDbEntity
  8
0
100
AcDbBlockEnd
  0
BLOCK
  5
7C
100
AcDbEntity
  8
0
100
AcDbBlockBegin
  2
DA_IMAGEDIMGROUP_7
 70
       0
 10
0.0
 20
0.0
 30
0.0
  3
DA_IMAGEDIMGROUP_7
  1

  0
LINE
  5
7D
100
AcDbEntity
  8
0
  6
CONTINUOUS
 62
       9
100
AcDbLine
 10
-142.15768265
 20
23.27192982
 30
0.0
 11
57.84232033
 21
23.27192982
 31
0.0
  0
INSERT
  5
7E
100
AcDbEntity
  8
0
  6
CONTINUOUS
 62
       9
100
AcDbBlockReference
  2
_OPEN30
 10
-142.15768265
 20
23.27192982
 30
0.0
 41
6.00000558
 42
5.99997855
 50
180.0
  0
INSERT
  5
7F
100
AcDbEntity
  8
0
  6
CONTINUOUS
 62
       9
100
AcDbBlockReference
  2
_OPEN30
 10
57.84232033
 20
23.27192982
 30
0.0
 41
6.00000558
 42
5.99997855
 50
360.0
  0
LINE
  5
80
100
AcDbEntity
  8
0
  6
CONTINUOUS
 62
       9
100
AcDbLine
 10
-142.15768265
 20
-18.53822669
 30
0.0
 11
-142.15768265
 21
25.27192982
 31
0.0
  0
LINE
  5
81
100
AcDbEntity
  8
0
  6
CONTINUOUS
 62
       9
100
AcDbLine
 10
57.84232033
 20
-18.53822669
 30
0.0
 11
57.84232033
 21
25.27192982
 31
0.0
  0
TEXT
  5
82
100
AcDbEntity
  8
0
 62
       7
100
AcDbText
 10
-51.75768116
 20
25.27192982
 30
0.0
 40
8.0
  1
200
 41
0.8
 72
       5
 11
-32.55768116
 21
25.27192982
 31
0.0
100
AcDbText
  0
ENDBLK
  5
83
100
AcDbEntity
  8
0
100
AcDbBlockEnd
  0
BLOCK
  5
84
100
AcDbEntity
  8
0
100
AcDbBlockBegin
  2
DA_IMAGEDIMGROUP_8
 70
       0
 10
0.0
 20
0.0
 30
0.0
  3
DA_IMAGEDIMGROUP_8
  1

  0
LINE
  5
85
100
AcDbEntity
  8
0
  6
CONTINUOUS
 62
       9
100
AcDbLine
 10
54.8423217
 20
6.55513784
 30
0.0
 11
57.84232033
 21
6.55513784
 31
0.0
  0
LINE
  5
86
100
AcDbEntity
  8
0
  6
CONTINUOUS
 62
       9
100
AcDbLine
 10
54.8423217
 20
-18.53822669
 30
0.0
 11
54.8423217
 21
8.55513784
 31
0.0
  0
LINE
  5
87
100
AcDbEntity
  8
0
  6
CONTINUOUS
 62
       9
100
AcDbLine
 10
57.84232033
 20
-18.53822669
 30
0.0
 11
57.84232033
 21
8.55513784
 31
0.0
  0
LINE
  5
88
100
AcDbEntity
  8
0
  6
CONTINUOUS
 62
       9
100
AcDbLine
 10
74.03788033
 20
6.55513784
 30
0.0
 11
57.84232033
 21
6.55513784
 31
0.0
  0
INSERT
  5
89
100
AcDbEntity
  8
0
  6
CONTINUOUS
 62
       9
100
AcDbBlockReference
  2
_OPEN30
 10
57.84232033
 20
6.55513784
 30
0.0
 41
6.00000558
 42
5.99997855
 50
180.0
  0
LINE
  5
8A
100
AcDbEntity
  8
0
  6
CONTINUOUS
 62
       9
100
AcDbLine
 10
44.8423217
 20
6.55513784
 30
0.0
 11
54.8423217
 21
6.55513784
 31
0.0
  0
INSERT
  5
8B
100
AcDbEntity
  8
0
  6
CONTINUOUS
 62
       9
100
AcDbBlockReference
  2
_OPEN30
 10
54.8423217
 20
6.55513784
 30
0.0
 41
6.00000558
 42
5.99997855
 50
360.0
  0
TEXT
  5
8C
100
AcDbEntity
  8
0
 62
       7
100
AcDbText
 10
65.63788033
 20
8.55513784
 30
0.0
 40
8.0
  1
3
 41
0.8
 72
       5
 11
72.03788033
 21
8.55513784
 31
0.0
100
AcDbText
  0
ENDBLK
  5
8D
100
AcDbEntity
  8
0
100
AcDbBlockEnd
  0
BLOCK
  5
8E
100
AcDbEntity
  8
0
100
AcDbBlockBegin
  2
DA_IMAGEDIMGROUP_9
 70
       0
 10
0.0
 20
0.0
 30
0.0
  3
DA_IMAGEDIMGROUP_9
  1

  0
LINE
  5
8F
100
AcDbEntity
  8
0
  6
CONTINUOUS
 62
       9
100
AcDbLine
 10
89.79133486
 20
-22.53822702
 30
0.0
 11
89.79133486
 21
-20.53822669
 31
0.0
  0
LINE
  5
90
100
AcDbEntity
  8
0
  6
CONTINUOUS
 62
       9
100
AcDbLine
 10
56.8423217
 20
-22.53822702
 30
0.0
 11
91.79133486
 21
-22.53822702
 31
0.0
  0
LINE
  5
91
100
AcDbEntity
  8
0
  6
CONTINUOUS
 62
       9
100
AcDbLine
 10
59.84232033
 20
-20.53822669
 30
0.0
 11
91.79133486
 21
-20.53822669
 31
0.0
  0
LINE
  5
92
100
AcDbEntity
  8
0
  6
CONTINUOUS
 62
       9
100
AcDbLine
 10
89.79133486
 20
-38.73378702
 30
0.0
 11
89.79133486
 21
-22.53822702
 31
0.0
  0
INSERT
  5
93
100
AcDbEntity
  8
0
  6
CONTINUOUS
 62
       9
100
AcDbBlockReference
  2
_OPEN30
 10
89.79133486
 20
-22.53822702
 30
0.0
 41
6.00000558
 42
5.99997855
 50
90.0
  0
LINE
  5
94
100
AcDbEntity
  8
0
  6
CONTINUOUS
 62
       9
100
AcDbLine
 10
89.79133486
 20
-10.53822669
 30
0.0
 11
89.79133486
 21
-20.53822669
 31
0.0
  0
INSERT
  5
95
100
AcDbEntity
  8
0
  6
CONTINUOUS
 62
       9
100
AcDbBlockReference
  2
_OPEN30
 10
89.79133486
 20
-20.53822669
 30
0.0
 41
6.00000558
 42
5.99997855
 50
270.0
  0
TEXT
  5
96
100
AcDbEntity
  8
0
 62
       7
100
AcDbText
 10
87.79133486
 20
-36.73378702
 30
0.0
 40
8.0
  1
2
 50
90.0
 41
0.8
 72
       5
 11
87.79133486
 21
-30.33378702
 31
0.0
100
AcDbText
  0
ENDBLK
  5
97
100
AcDbEntity
  8
0
100
AcDbBlockEnd
  0
BLOCK
  5
98
100
AcDbEntity
  8
0
100
AcDbBlockBegin
  2
DA_IMAGEDIMGROUP_10
 70
       0
 10
0.0
 20
0.0
 30
0.0
  3
DA_IMAGEDIMGROUP_10
  1

  0
LINE
  5
99
100
AcDbEntity
  8
0
  6
CONTINUOUS
 62
       9
100
AcDbLine
 10
108.68857797
 20
-95.53822818
 30
0.0
 11
108.68857797
 21
-20.53822669
 31
0.0
  0
INSERT
  5
9A
100
AcDbEntity
  8
0
  6
CONTINUOUS
 62
       9
100
AcDbBlockReference
  2
_OPEN30
 10
108.68857797
 20
-95.53822818
 30
0.0
 41
6.00000558
 42
5.99997855
 50
270.0
  0
INSERT
  5
9B
100
AcDbEntity
  8
0
  6
CONTINUOUS
 62
       9
100
AcDbBlockReference
  2
_OPEN30
 10
108.68857797
 20
-20.53822669
 30
0.0
 41
6.00000558
 42
5.99997855
 50
90.0
  0
LINE
  5
9C
100
AcDbEntity
  8
0
  6
CONTINUOUS
 62
       9
100
AcDbLine
 10
55.84231884
 20
-95.53822818
 30
0.0
 11
110.68857797
 21
-95.53822818
 31
0.0
  0
LINE
  5
9D
100
AcDbEntity
  8
0
  6
CONTINUOUS
 62
       9
100
AcDbLine
 10
59.84232033
 20
-20.53822669
 30
0.0
 11
110.68857797
 21
-20.53822669
 31
0.0
  0
TEXT
  5
9E
100
AcDbEntity
  8
0
 62
       7
100
AcDbText
 10
106.68857797
 20
-64.43822743
 30
0.0
 40
8.0
  1
75
 50
90.0
 41
0.8
 72
       5
 11
106.68857797
 21
-51.63822743
 31
0.0
100
AcDbText
  0
ENDBLK
  5
9F
100
AcDbEntity
  8
0
100
AcDbBlockEnd
  0
BLOCK
  5
A0
100
AcDbEntity
  8
0
100
AcDbBlockBegin
  2
GROUP_1
 70
       0
 10
0.0
 20
0.0
 30
0.0
  3
GROUP_1
  1

  0
LINE
  5
A1
100
AcDbEntity
  8
LAYER0240
  6
CONTINUOUS
 62
       4
100
AcDbLine
 10
60.28680283
 20
-228.74108659
 30
0.0
 11
55.16959372
 21
-228.74108659
 31
0.0
  0
CIRCLE
  5
A2
100
AcDbEntity
  8
LAYER0240
  6
CONTINUOUS
 62
       4
100
AcDbCircle
 10
57.72819828
 20
-228.74108659
 30
0.0
 40
3.35319828
  0
TEXT
  5
A3
100
AcDbEntity
  8
LAYER0240
 62
       4
100
AcDbText
 10
60.775
 20
-232.74108659
 30
0.0
 40
8.0
  1
トラスタッピンネジ
 41
0.6923
 72
       5
 11
118.375
 21
-232.74108659
 31
0.0
100
AcDbText
  0
ENDBLK
  5
A4
100
AcDbEntity
  8
0
100
AcDbBlockEnd
  0
BLOCK
  5
A5
100
AcDbEntity
  8
0
100
AcDbBlockBegin
  2
GROUP_2
 70
       0
 10
0.0
 20
0.0
 30
0.0
  3
GROUP_2
  1

  0
LINE
  5
A6
100
AcDbEntity
  8
LAYER0001
  6
CONTINUOUS
 62
       9
100
AcDbLine
 10
36.23529412
 20
80.88235294
 30
0.0
 11
61.06133119
 21
55.02189765
 31
0.0
  0
INSERT
  5
A7
100
AcDbEntity
  8
LAYER0001
  6
CONTINUOUS
 62
       9
100
AcDbBlockReference
  2
_OPEN30
 10
36.23529412
 20
80.88235294
 30
0.0
 41
6.00000558
 42
5.99997855
 50
133.83086067
  0
CIRCLE
  5
A8
100
AcDbEntity
  8
LAYER0001
  6
CONTINUOUS
 62
       9
100
AcDbCircle
 10
67.29411765
 20
48.52941176
 30
0.0
 40
9.0
  0
TEXT
  5
A9
100
AcDbEntity
  8
LAYER0001
 62
       4
100
AcDbText
 10
64.09411765
 20
44.52941176
 30
0.0
 40
8.0
  1
1
 41
0.8
 72
       5
 11
70.49411765
 21
44.52941176
 31
0.0
100
AcDbText
  0
ENDBLK
  5
AA
100
AcDbEntity
  8
0
100
AcDbBlockEnd
  0
ENDSEC
  0
SECTION
  2
ENTITIES
  0
LINE
  5
AB
100
AcDbEntity
  8
ZUWAKU
  6
CONTINUOUS
 62
      32
100
AcDbLine
 10
-114.275
 20
-276.11608659
 30
0.0
 11
-113.15
 21
-272.99108659
 31
0.0
  0
LINE
  5
AC
100
AcDbEntity
  8
ZUWAKU
  6
CONTINUOUS
 62
      32
100
AcDbLine
 10
-122.6
 20
-276.11608659
 30
0.0
 11
-120.85
 21
-271.36608659
 31
0.0
  0
LINE
  5
AD
100
AcDbEntity
  8
ZUWAKU
  6
CONTINUOUS
 62
      32
100
AcDbLine
 10
-124.225
 20
-269.61608659
 30
0.0
 11
-124.85
 21
-271.36608659
 31
0.0
  0
LINE
  5
AE
100
AcDbEntity
  8
ZUWAKU
  6
CONTINUOUS
 62
      32
100
AcDbLine
 10
-118.475
 20
-276.11608659
 30
0.0
 11
-116.6
 21
-270.61608659
 31
0.0
  0
LINE
  5
AF
100
AcDbEntity
  8
ZUWAKU
  6
CONTINUOUS
 62
      32
100
AcDbLine
 10
-92.25
 20
-276.11608659
 30
0.0
 11
-94.375
 21
-272.61608659
 31
0.0
  0
LINE
  5
B0
100
AcDbEntity
  8
ZUWAKU
  6
CONTINUOUS
 62
      32
100
AcDbLine
 10
-124.225
 20
-269.61608659
 30
0.0
 11
-121.85
 21
-269.61608659
 31
0.0
  0
LINE
  5
B1
100
AcDbEntity
  8
ZUWAKU
  6
CONTINUOUS
 62
      32
100
AcDbLine
 10
-111.525
 20
-268.49108659
 30
0.0
 11
-107.4
 21
-268.49108659
 31
0.0
  0
LINE
  5
B2
100
AcDbEntity
  8
ZUWAKU
  6
CONTINUOUS
 62
      32
100
AcDbLine
 10
-102.65
 20
-268.11608659
 30
0.0
 11
-101.4
 21
-268.11608659
 31
0.0
  0
LINE
  5
B3
100
AcDbEntity
  8
ZUWAKU
  6
CONTINUOUS
 62
      32
100
AcDbLine
 10
-110.65
 20
-266.24108659
 30
0.0
 11
-111.525
 21
-268.49108659
 31
0.0
  0
LINE
  5
B4
100
AcDbEntity
  8
ZUWAKU
  6
CONTINUOUS
 62
      32
100
AcDbLine
 10
-106.65
 20
-266.24108659
 30
0.0
 11
-107.4
 21
-268.49108659
 31
0.0
  0
LINE
  5
B5
100
AcDbEntity
  8
ZUWAKU
  6
CONTINUOUS
 62
      32
100
AcDbLine
 10
-122.6
 20
-276.11608659
 30
0.0
 11
-118.475
 21
-276.11608659
 31
0.0
  0
LINE
  5
B6
100
AcDbEntity
  8
ZUWAKU
  6
CONTINUOUS
 62
      32
100
AcDbLine
 10
-116.225
 20
-266.24108659
 30
0.0
 11
-111.6
 21
-266.24108659
 31
0.0
  0
LINE
  5
B7
100
AcDbEntity
  8
ZUWAKU
  6
CONTINUOUS
 62
      32
100
AcDbLine
 10
-95.83514872
 20
-268.49108659
 30
0.0
 11
-100.25
 21
-268.49108659
 31
0.0
  0
LINE
  5
B8
100
AcDbEntity
  8
ZUWAKU
  6
CONTINUOUS
 62
      32
100
AcDbLine
 10
-91.0
 20
-266.24108659
 30
0.0
 11
-99.5
 21
-266.24108659
 31
0.0
  0
LINE
  5
B9
100
AcDbEntity
  8
ZUWAKU
  6
CONTINUOUS
 62
      32
100
AcDbLine
 10
-124.85
 20
-271.36608659
 30
0.0
 11
-120.85
 21
-271.36608659
 31
0.0
  0
LINE
  5
BA
100
AcDbEntity
  8
ZUWAKU
  6
CONTINUOUS
 62
      32
100
AcDbLine
 10
-114.275
 20
-276.11608659
 30
0.0
 11
-107.65
 21
-276.11608659
 31
0.0
  0
LINE
  5
BB
100
AcDbEntity
  8
ZUWAKU
  6
CONTINUOUS
 62
      32
100
AcDbLine
 10
-113.15
 20
-272.99108659
 30
0.0
 11
-107.15
 21
-272.99108659
 31
0.0
  0
LINE
  5
BC
100
AcDbEntity
  8
ZUWAKU
  6
CONTINUOUS
 62
      32
100
AcDbLine
 10
-92.25
 20
-276.11608659
 30
0.0
 11
-95.375
 21
-276.11608659
 31
0.0
  0
LINE
  5
BD
100
AcDbEntity
  8
ZUWAKU
  6
CONTINUOUS
 62
      32
100
AcDbLine
 10
-100.25
 20
-268.49108659
 30
0.0
 11
-99.5
 21
-266.24108659
 31
0.0
  0
LINE
  5
BE
100
AcDbEntity
  8
ZUWAKU
  6
CONTINUOUS
 62
      32
100
AcDbLine
 10
-143.725
 20
-266.24108659
 30
0.0
 11
-145.85
 21
-272.24108659
 31
0.0
  0
LINE
  5
BF
100
AcDbEntity
  8
ZUWAKU
  6
CONTINUOUS
 62
      32
100
AcDbLine
 10
-145.85
 20
-272.24108659
 30
0.0
 11
-142.975
 21
-272.24108659
 31
0.0
  0
LINE
  5
C0
100
AcDbEntity
  8
ZUWAKU
  6
CONTINUOUS
 62
      32
100
AcDbLine
 10
-142.975
 20
-272.24108659
 30
0.0
 11
-140.725
 21
-266.24108659
 31
0.0
  0
LINE
  5
C1
100
AcDbEntity
  8
ZUWAKU
  6
CONTINUOUS
 62
      32
100
AcDbLine
 10
-140.725
 20
-266.24108659
 30
0.0
 11
-143.725
 21
-266.24108659
 31
0.0
  0
LINE
  5
C2
100
AcDbEntity
  8
ZUWAKU
  6
CONTINUOUS
 62
      32
100
AcDbLine
 10
-105.65
 20
-272.24108659
 30
0.0
 11
-104.275
 21
-271.11608659
 31
0.0
  0
LINE
  5
C3
100
AcDbEntity
  8
ZUWAKU
  6
CONTINUOUS
 62
      32
100
AcDbLine
 10
-104.275
 20
-271.11608659
 30
0.0
 11
-103.275
 21
-269.74108659
 31
0.0
  0
LINE
  5
C4
100
AcDbEntity
  8
ZUWAKU
  6
CONTINUOUS
 62
      32
100
AcDbLine
 10
-103.275
 20
-269.74108659
 30
0.0
 11
-102.65
 21
-268.11608659
 31
0.0
  0
LINE
  5
C5
100
AcDbEntity
  8
ZUWAKU
  6
CONTINUOUS
 62
      32
100
AcDbLine
 10
-133.45
 20
-266.24108659
 30
0.0
 11
-124.325
 21
-266.24108659
 31
0.0
  0
LINE
  5
C6
100
AcDbEntity
  8
ZUWAKU
  6
CONTINUOUS
 62
      32
100
AcDbLine
 10
-124.325
 20
-266.24108659
 30
0.0
 11
-125.075
 21
-268.49108659
 31
0.0
  0
LINE
  5
C7
100
AcDbEntity
  8
ZUWAKU
  6
CONTINUOUS
 62
      32
100
AcDbLine
 10
-124.325
 20
-266.24108659
 30
0.0
 11
-125.075
 21
-268.49108659
 31
0.0
  0
LINE
  5
C8
100
AcDbEntity
  8
ZUWAKU
  6
CONTINUOUS
 62
      32
100
AcDbLine
 10
-125.075
 20
-268.49108659
 30
0.0
 11
-134.2
 21
-268.49108659
 31
0.0
  0
LINE
  5
C9
100
AcDbEntity
  8
ZUWAKU
  6
CONTINUOUS
 62
      32
100
AcDbLine
 10
-134.2
 20
-268.49108659
 30
0.0
 11
-133.45
 21
-266.24108659
 31
0.0
  0
LINE
  5
CA
100
AcDbEntity
  8
ZUWAKU
  6
CONTINUOUS
 62
      32
100
AcDbLine
 10
-134.2
 20
-268.49108659
 30
0.0
 11
-133.45
 21
-266.24108659
 31
0.0
  0
LINE
  5
CB
100
AcDbEntity
  8
ZUWAKU
  6
CONTINUOUS
 62
      32
100
AcDbLine
 10
-124.325
 20
-266.24108659
 30
0.0
 11
-133.45
 21
-266.24108659
 31
0.0
  0
LINE
  5
CC
100
AcDbEntity
  8
ZUWAKU
  6
CONTINUOUS
 62
      32
100
AcDbLine
 10
-133.45
 20
-266.24108659
 30
0.0
 11
-134.2
 21
-268.49108659
 31
0.0
  0
LINE
  5
CD
100
AcDbEntity
  8
ZUWAKU
  6
CONTINUOUS
 62
      32
100
AcDbLine
 10
-134.2
 20
-268.49108659
 30
0.0
 11
-125.075
 21
-268.49108659
 31
0.0
  0
LINE
  5
CE
100
AcDbEntity
  8
ZUWAKU
  6
CONTINUOUS
 62
      32
100
AcDbLine
 10
-129.575
 20
-275.86608659
 30
0.0
 11
-128.575
 21
-275.36608659
 31
0.0
  0
LINE
  5
CF
100
AcDbEntity
  8
ZUWAKU
  6
CONTINUOUS
 62
      32
100
AcDbLine
 10
-128.575
 20
-275.36608659
 30
0.0
 11
-127.825
 21
-274.61608659
 31
0.0
  0
LINE
  5
D0
100
AcDbEntity
  8
ZUWAKU
  6
CONTINUOUS
 62
      32
100
AcDbLine
 10
-127.825
 20
-274.61608659
 30
0.0
 11
-126.95
 21
-273.74108659
 31
0.0
  0
LINE
  5
D1
100
AcDbEntity
  8
ZUWAKU
  6
CONTINUOUS
 62
      32
100
AcDbLine
 10
-126.95
 20
-273.74108659
 30
0.0
 11
-125.45
 21
-269.61608659
 31
0.0
  0
LINE
  5
D2
100
AcDbEntity
  8
ZUWAKU
  6
CONTINUOUS
 62
      32
100
AcDbLine
 10
-125.45
 20
-269.61608659
 30
0.0
 11
-134.45
 21
-269.61608659
 31
0.0
  0
LINE
  5
D3
100
AcDbEntity
  8
ZUWAKU
  6
CONTINUOUS
 62
      32
100
AcDbLine
 10
-134.45
 20
-269.61608659
 30
0.0
 11
-134.95
 21
-271.36608659
 31
0.0
  0
LINE
  5
D4
100
AcDbEntity
  8
ZUWAKU
  6
CONTINUOUS
 62
      32
100
AcDbLine
 10
-134.95
 20
-271.36608659
 30
0.0
 11
-129.7
 21
-271.36608659
 31
0.0
  0
LINE
  5
D5
100
AcDbEntity
  8
ZUWAKU
  6
CONTINUOUS
 62
      32
100
AcDbLine
 10
-129.7
 20
-271.36608659
 30
0.0
 11
-129.95
 21
-272.24108659
 31
0.0
  0
LINE
  5
D6
100
AcDbEntity
  8
ZUWAKU
  6
CONTINUOUS
 62
      32
100
AcDbLine
 10
-129.95
 20
-272.24108659
 30
0.0
 11
-130.575
 21
-272.99108659
 31
0.0
  0
LINE
  5
D7
100
AcDbEntity
  8
ZUWAKU
  6
CONTINUOUS
 62
      32
100
AcDbLine
 10
-130.575
 20
-272.99108659
 30
0.0
 11
-131.2
 21
-273.61608659
 31
0.0
  0
LINE
  5
D8
100
AcDbEntity
  8
ZUWAKU
  6
CONTINUOUS
 62
      32
100
AcDbLine
 10
-131.2
 20
-273.61608659
 30
0.0
 11
-132.075
 21
-274.24108659
 31
0.0
  0
LINE
  5
D9
100
AcDbEntity
  8
ZUWAKU
  6
CONTINUOUS
 62
      32
100
AcDbLine
 10
-132.075
 20
-274.24108659
 30
0.0
 11
-136.2
 21
-274.24108659
 31
0.0
  0
LINE
  5
DA
100
AcDbEntity
  8
ZUWAKU
  6
CONTINUOUS
 62
      32
100
AcDbLine
 10
-136.2
 20
-274.24108659
 30
0.0
 11
-136.95
 21
-276.11608659
 31
0.0
  0
LINE
  5
DB
100
AcDbEntity
  8
ZUWAKU
  6
CONTINUOUS
 62
      32
100
AcDbLine
 10
-144.975
 20
-276.11608659
 30
0.0
 11
-144.35
 21
-274.24108659
 31
0.0
  0
LINE
  5
DC
100
AcDbEntity
  8
ZUWAKU
  6
CONTINUOUS
 62
      32
100
AcDbLine
 10
-144.35
 20
-274.24108659
 30
0.0
 11
-143.225
 21
-274.24108659
 31
0.0
  0
LINE
  5
DD
100
AcDbEntity
  8
ZUWAKU
  6
CONTINUOUS
 62
      32
100
AcDbLine
 10
-143.225
 20
-274.24108659
 30
0.0
 11
-142.225
 21
-274.11608659
 31
0.0
  0
LINE
  5
DE
100
AcDbEntity
  8
ZUWAKU
  6
CONTINUOUS
 62
      32
100
AcDbLine
 10
-142.225
 20
-274.11608659
 30
0.0
 11
-141.225
 21
-273.61608659
 31
0.0
  0
LINE
  5
DF
100
AcDbEntity
  8
ZUWAKU
  6
CONTINUOUS
 62
      32
100
AcDbLine
 10
-141.225
 20
-273.61608659
 30
0.0
 11
-140.6
 21
-272.61608659
 31
0.0
  0
LINE
  5
E0
100
AcDbEntity
  8
ZUWAKU
  6
CONTINUOUS
 62
      32
100
AcDbLine
 10
-140.6
 20
-272.61608659
 30
0.0
 11
-138.225
 21
-266.24108659
 31
0.0
  0
LINE
  5
E1
100
AcDbEntity
  8
ZUWAKU
  6
CONTINUOUS
 62
      32
100
AcDbLine
 10
-138.225
 20
-266.24108659
 30
0.0
 11
-134.85
 21
-266.24108659
 31
0.0
  0
LINE
  5
E2
100
AcDbEntity
  8
ZUWAKU
  6
CONTINUOUS
 62
      32
100
AcDbLine
 10
-134.85
 20
-266.24108659
 30
0.0
 11
-137.35
 21
-273.61608659
 31
0.0
  0
LINE
  5
E3
100
AcDbEntity
  8
ZUWAKU
  6
CONTINUOUS
 62
      32
100
AcDbLine
 10
-137.35
 20
-273.61608659
 30
0.0
 11
-138.35
 21
-274.61608659
 31
0.0
  0
LINE
  5
E4
100
AcDbEntity
  8
ZUWAKU
  6
CONTINUOUS
 62
      32
100
AcDbLine
 10
-138.35
 20
-274.61608659
 30
0.0
 11
-139.35
 21
-275.49108659
 31
0.0
  0
LINE
  5
E5
100
AcDbEntity
  8
ZUWAKU
  6
CONTINUOUS
 62
      32
100
AcDbLine
 10
-139.35
 20
-275.49108659
 30
0.0
 11
-140.6
 21
-275.99108659
 31
0.0
  0
LINE
  5
E6
100
AcDbEntity
  8
ZUWAKU
  6
CONTINUOUS
 62
      32
100
AcDbLine
 10
-111.6
 20
-266.24108659
 30
0.0
 11
-112.35
 21
-267.86608659
 31
0.0
  0
LINE
  5
E7
100
AcDbEntity
  8
ZUWAKU
  6
CONTINUOUS
 62
      32
100
AcDbLine
 10
-112.35
 20
-267.86608659
 30
0.0
 11
-113.6
 21
-269.11608659
 31
0.0
  0
LINE
  5
E8
100
AcDbEntity
  8
ZUWAKU
  6
CONTINUOUS
 62
      32
100
AcDbLine
 10
-112.35
 20
-267.86608659
 30
0.0
 11
-113.6
 21
-269.11608659
 31
0.0
  0
LINE
  5
E9
100
AcDbEntity
  8
ZUWAKU
  6
CONTINUOUS
 62
      32
100
AcDbLine
 10
-113.6
 20
-269.11608659
 30
0.0
 11
-114.975
 21
-270.11608659
 31
0.0
  0
LINE
  5
EA
100
AcDbEntity
  8
ZUWAKU
  6
CONTINUOUS
 62
      32
100
AcDbLine
 10
-114.975
 20
-270.11608659
 30
0.0
 11
-116.6
 21
-270.61608659
 31
0.0
  0
LINE
  5
EB
100
AcDbEntity
  8
ZUWAKU
  6
CONTINUOUS
 62
      32
100
AcDbLine
 10
-114.975
 20
-270.11608659
 30
0.0
 11
-116.6
 21
-270.61608659
 31
0.0
  0
LINE
  5
EC
100
AcDbEntity
  8
ZUWAKU
  6
CONTINUOUS
 62
      32
100
AcDbLine
 10
-116.6
 20
-270.61608659
 30
0.0
 11
-118.475
 21
-276.11608659
 31
0.0
  0
LINE
  5
ED
100
AcDbEntity
  8
ZUWAKU
  6
CONTINUOUS
 62
      32
100
AcDbLine
 10
-118.475
 20
-276.11608659
 30
0.0
 11
-122.6
 21
-276.11608659
 31
0.0
  0
LINE
  5
EE
100
AcDbEntity
  8
ZUWAKU
  6
CONTINUOUS
 62
      32
100
AcDbLine
 10
-118.475
 20
-276.11608659
 30
0.0
 11
-122.6
 21
-276.11608659
 31
0.0
  0
LINE
  5
EF
100
AcDbEntity
  8
ZUWAKU
  6
CONTINUOUS
 62
      32
100
AcDbLine
 10
-121.05
 20
-271.36608659
 30
0.0
 11
-124.85
 21
-271.36608659
 31
0.0
  0
LINE
  5
F0
100
AcDbEntity
  8
ZUWAKU
  6
CONTINUOUS
 62
      32
100
AcDbLine
 10
-124.85
 20
-271.36608659
 30
0.0
 11
-124.225
 21
-269.61608659
 31
0.0
  0
LINE
  5
F1
100
AcDbEntity
  8
ZUWAKU
  6
CONTINUOUS
 62
      32
100
AcDbLine
 10
-122.6
 20
-276.11608659
 30
0.0
 11
-120.85
 21
-271.36608659
 31
0.0
  0
LINE
  5
F2
100
AcDbEntity
  8
ZUWAKU
  6
CONTINUOUS
 62
      32
100
AcDbLine
 10
-122.6
 20
-276.11608659
 30
0.0
 11
-120.85
 21
-271.36608659
 31
0.0
  0
LINE
  5
F3
100
AcDbEntity
  8
ZUWAKU
  6
CONTINUOUS
 62
      32
100
AcDbLine
 10
-124.225
 20
-269.61608659
 30
0.0
 11
-121.85
 21
-269.61608659
 31
0.0
  0
LINE
  5
F4
100
AcDbEntity
  8
ZUWAKU
  6
CONTINUOUS
 62
      32
100
AcDbLine
 10
-124.225
 20
-269.61608659
 30
0.0
 11
-121.85
 21
-269.61608659
 31
0.0
  0
LINE
  5
F5
100
AcDbEntity
  8
ZUWAKU
  6
CONTINUOUS
 62
      32
100
AcDbLine
 10
-121.85
 20
-269.61608659
 30
0.0
 11
-120.225
 21
-269.49108659
 31
0.0
  0
LINE
  5
F6
100
AcDbEntity
  8
ZUWAKU
  6
CONTINUOUS
 62
      32
100
AcDbLine
 10
-121.85
 20
-269.61608659
 30
0.0
 11
-120.225
 21
-269.49108659
 31
0.0
  0
LINE
  5
F7
100
AcDbEntity
  8
ZUWAKU
  6
CONTINUOUS
 62
      32
100
AcDbLine
 10
-120.225
 20
-269.49108659
 30
0.0
 11
-118.475
 21
-268.74108659
 31
0.0
  0
LINE
  5
F8
100
AcDbEntity
  8
ZUWAKU
  6
CONTINUOUS
 62
      32
100
AcDbLine
 10
-120.225
 20
-269.49108659
 30
0.0
 11
-118.475
 21
-268.74108659
 31
0.0
  0
LINE
  5
F9
100
AcDbEntity
  8
ZUWAKU
  6
CONTINUOUS
 62
      32
100
AcDbLine
 10
-118.475
 20
-268.74108659
 30
0.0
 11
-117.225
 21
-267.61608659
 31
0.0
  0
LINE
  5
FA
100
AcDbEntity
  8
ZUWAKU
  6
CONTINUOUS
 62
      32
100
AcDbLine
 10
-118.475
 20
-268.74108659
 30
0.0
 11
-117.225
 21
-267.61608659
 31
0.0
  0
LINE
  5
FB
100
AcDbEntity
  8
ZUWAKU
  6
CONTINUOUS
 62
      32
100
AcDbLine
 10
-140.725
 20
-266.24108659
 30
0.0
 11
-142.975
 21
-272.24108659
 31
0.0
  0
LINE
  5
FC
100
AcDbEntity
  8
ZUWAKU
  6
CONTINUOUS
 62
      32
100
AcDbLine
 10
-142.975
 20
-272.24108659
 30
0.0
 11
-145.85
 21
-272.24108659
 31
0.0
  0
LINE
  5
FD
100
AcDbEntity
  8
ZUWAKU
  6
CONTINUOUS
 62
      32
100
AcDbLine
 10
-142.975
 20
-272.24108659
 30
0.0
 11
-145.85
 21
-272.24108659
 31
0.0
  0
LINE
  5
FE
100
AcDbEntity
  8
ZUWAKU
  6
CONTINUOUS
 62
      32
100
AcDbLine
 10
-145.85
 20
-272.24108659
 30
0.0
 11
-143.725
 21
-266.24108659
 31
0.0
  0
LINE
  5
FF
100
AcDbEntity
  8
ZUWAKU
  6
CONTINUOUS
 62
      32
100
AcDbLine
 10
-143.725
 20
-266.24108659
 30
0.0
 11
-140.725
 21
-266.24108659
 31
0.0
  0
LINE
  5
100
100
AcDbEntity
  8
ZUWAKU
  6
CONTINUOUS
 62
      32
100
AcDbLine
 10
-143.725
 20
-266.24108659
 30
0.0
 11
-140.725
 21
-266.24108659
 31
0.0
  0
LINE
  5
101
100
AcDbEntity
  8
ZUWAKU
  6
CONTINUOUS
 62
      32
100
AcDbLine
 10
-99.5
 20
-266.24108659
 30
0.0
 11
-100.25
 21
-268.49108659
 31
0.0
  0
LINE
  5
102
100
AcDbEntity
  8
ZUWAKU
  6
CONTINUOUS
 62
      32
100
AcDbLine
 10
-100.25
 20
-268.49108659
 30
0.0
 11
-96.25
 21
-268.49108659
 31
0.0
  0
LINE
  5
103
100
AcDbEntity
  8
ZUWAKU
  6
CONTINUOUS
 62
      32
100
AcDbLine
 10
-100.25
 20
-268.49108659
 30
0.0
 11
-96.25
 21
-268.49108659
 31
0.0
  0
LINE
  5
104
100
AcDbEntity
  8
ZUWAKU
  6
CONTINUOUS
 62
      32
100
AcDbLine
 10
-103.0
 20
-274.11608659
 30
0.0
 11
-103.75
 21
-276.24108659
 31
0.0
  0
LINE
  5
105
100
AcDbEntity
  8
ZUWAKU
  6
CONTINUOUS
 62
      32
100
AcDbLine
 10
-103.0
 20
-274.11608659
 30
0.0
 11
-103.75
 21
-276.24108659
 31
0.0
  0
LINE
  5
106
100
AcDbEntity
  8
ZUWAKU
  6
CONTINUOUS
 62
      32
100
AcDbLine
 10
-103.75
 20
-276.24108659
 30
0.0
 11
-100.0
 21
-275.61608659
 31
0.0
  0
LINE
  5
107
100
AcDbEntity
  8
ZUWAKU
  6
CONTINUOUS
 62
      32
100
AcDbLine
 10
-100.0
 20
-275.61608659
 30
0.0
 11
-98.25
 21
-275.11608659
 31
0.0
  0
LINE
  5
108
100
AcDbEntity
  8
ZUWAKU
  6
CONTINUOUS
 62
      32
100
AcDbLine
 10
-100.0
 20
-275.61608659
 30
0.0
 11
-98.25
 21
-275.11608659
 31
0.0
  0
LINE
  5
109
100
AcDbEntity
  8
ZUWAKU
  6
CONTINUOUS
 62
      32
100
AcDbLine
 10
-96.375
 20
-274.49108659
 30
0.0
 11
-95.375
 21
-276.11608659
 31
0.0
  0
LINE
  5
10A
100
AcDbEntity
  8
ZUWAKU
  6
CONTINUOUS
 62
      32
100
AcDbLine
 10
-95.375
 20
-276.11608659
 30
0.0
 11
-92.25
 21
-276.11608659
 31
0.0
  0
LINE
  5
10B
100
AcDbEntity
  8
ZUWAKU
  6
CONTINUOUS
 62
      32
100
AcDbLine
 10
-95.375
 20
-276.11608659
 30
0.0
 11
-92.25
 21
-276.11608659
 31
0.0
  0
LINE
  5
10C
100
AcDbEntity
  8
ZUWAKU
  6
CONTINUOUS
 62
      32
100
AcDbLine
 10
-94.375
 20
-272.61608659
 30
0.0
 11
-93.25
 21
-271.11608659
 31
0.0
  0
LINE
  5
10D
100
AcDbEntity
  8
ZUWAKU
  6
CONTINUOUS
 62
      32
100
AcDbLine
 10
-93.25
 20
-271.11608659
 30
0.0
 11
-92.25
 21
-269.61608659
 31
0.0
  0
LINE
  5
10E
100
AcDbEntity
  8
ZUWAKU
  6
CONTINUOUS
 62
      32
100
AcDbLine
 10
-92.25
 20
-269.61608659
 30
0.0
 11
-91.5
 21
-267.99108659
 31
0.0
  0
LINE
  5
10F
100
AcDbEntity
  8
ZUWAKU
  6
CONTINUOUS
 62
      32
100
AcDbLine
 10
-91.5
 20
-267.99108659
 30
0.0
 11
-91.0
 21
-266.24108659
 31
0.0
  0
LINE
  5
110
100
AcDbEntity
  8
ZUWAKU
  6
CONTINUOUS
 62
      32
100
AcDbLine
 10
-91.5
 20
-267.99108659
 30
0.0
 11
-91.0
 21
-266.24108659
 31
0.0
  0
LINE
  5
111
100
AcDbEntity
  8
ZUWAKU
  6
CONTINUOUS
 62
      32
100
AcDbLine
 10
-91.0
 20
-266.24108659
 30
0.0
 11
-99.5
 21
-266.24108659
 31
0.0
  0
LINE
  5
112
100
AcDbEntity
  8
ZUWAKU
  6
CONTINUOUS
 62
      32
100
AcDbLine
 10
-98.625
 20
-272.49108659
 30
0.0
 11
-100.625
 21
-273.61608659
 31
0.0
  0
LINE
  5
113
100
AcDbEntity
  8
ZUWAKU
  6
CONTINUOUS
 62
      32
100
AcDbLine
 10
-98.25
 20
-275.11608659
 30
0.0
 11
-96.375
 21
-274.49108659
 31
0.0
  0
LINE
  5
114
100
AcDbEntity
  8
ZUWAKU
  6
CONTINUOUS
 62
      32
100
AcDbLine
 10
-98.25
 20
-275.11608659
 30
0.0
 11
-96.375
 21
-274.49108659
 31
0.0
  0
LINE
  5
115
100
AcDbEntity
  8
ZUWAKU
  6
CONTINUOUS
 62
      32
100
AcDbLine
 10
-92.25
 20
-276.11608659
 30
0.0
 11
-94.375
 21
-272.61608659
 31
0.0
  0
LINE
  5
116
100
AcDbEntity
  8
ZUWAKU
  6
CONTINUOUS
 62
      32
100
AcDbLine
 10
-92.25
 20
-276.11608659
 30
0.0
 11
-94.375
 21
-272.61608659
 31
0.0
  0
LINE
  5
117
100
AcDbEntity
  8
ZUWAKU
  6
CONTINUOUS
 62
      32
100
AcDbLine
 10
-97.0
 20
-270.61608659
 30
0.0
 11
-98.625
 21
-272.49108659
 31
0.0
  0
LINE
  5
118
100
AcDbEntity
  8
ZUWAKU
  6
CONTINUOUS
 62
      32
100
AcDbLine
 10
-97.0
 20
-270.61608659
 30
0.0
 11
-98.625
 21
-272.49108659
 31
0.0
  0
LINE
  5
119
100
AcDbEntity
  8
ZUWAKU
  6
CONTINUOUS
 62
      32
100
AcDbLine
 10
-121.85
 20
-269.61608659
 30
0.0
 11
-120.225
 21
-269.49108659
 31
0.0
  0
LINE
  5
11A
100
AcDbEntity
  8
ZUWAKU
  6
CONTINUOUS
 62
      32
100
AcDbLine
 10
-120.225
 20
-269.49108659
 30
0.0
 11
-118.475
 21
-268.74108659
 31
0.0
  0
LINE
  5
11B
100
AcDbEntity
  8
ZUWAKU
  6
CONTINUOUS
 62
      32
100
AcDbLine
 10
-118.475
 20
-268.74108659
 30
0.0
 11
-117.225
 21
-267.61608659
 31
0.0
  0
LINE
  5
11C
100
AcDbEntity
  8
ZUWAKU
  6
CONTINUOUS
 62
      32
100
AcDbLine
 10
-117.225
 20
-267.61608659
 30
0.0
 11
-116.225
 21
-266.24108659
 31
0.0
  0
LINE
  5
11D
100
AcDbEntity
  8
ZUWAKU
  6
CONTINUOUS
 62
      32
100
AcDbLine
 10
-107.65
 20
-276.11608659
 30
0.0
 11
-105.4
 21
-275.11608659
 31
0.0
  0
LINE
  5
11E
100
AcDbEntity
  8
ZUWAKU
  6
CONTINUOUS
 62
      32
100
AcDbLine
 10
-105.4
 20
-275.11608659
 30
0.0
 11
-103.4
 21
-273.24108659
 31
0.0
  0
LINE
  5
11F
100
AcDbEntity
  8
ZUWAKU
  6
CONTINUOUS
 62
      32
100
AcDbLine
 10
-103.4
 20
-273.24108659
 30
0.0
 11
-101.9
 21
-270.74108659
 31
0.0
  0
LINE
  5
120
100
AcDbEntity
  8
ZUWAKU
  6
CONTINUOUS
 62
      32
100
AcDbLine
 10
-101.9
 20
-270.74108659
 30
0.0
 11
-101.4
 21
-268.11608659
 31
0.0
  0
LINE
  5
121
100
AcDbEntity
  8
ZUWAKU
  6
CONTINUOUS
 62
      32
100
AcDbLine
 10
-103.0
 20
-274.11608659
 30
0.0
 11
-100.625
 21
-273.61608659
 31
0.0
  0
LINE
  5
122
100
AcDbEntity
  8
ZUWAKU
  6
CONTINUOUS
 62
      32
100
AcDbLine
 10
-100.625
 20
-273.61608659
 30
0.0
 11
-98.625
 21
-272.49108659
 31
0.0
  0
LINE
  5
123
100
AcDbEntity
  8
ZUWAKU
  6
CONTINUOUS
 62
      32
100
AcDbLine
 10
-98.625
 20
-272.49108659
 30
0.0
 11
-97.0
 21
-270.61608659
 31
0.0
  0
LINE
  5
124
100
AcDbEntity
  8
ZUWAKU
  6
CONTINUOUS
 62
      32
100
AcDbLine
 10
-116.6
 20
-270.61608659
 30
0.0
 11
-114.975
 21
-270.11608659
 31
0.0
  0
LINE
  5
125
100
AcDbEntity
  8
ZUWAKU
  6
CONTINUOUS
 62
      32
100
AcDbLine
 10
-114.975
 20
-270.11608659
 30
0.0
 11
-113.6
 21
-269.11608659
 31
0.0
  0
LINE
  5
126
100
AcDbEntity
  8
ZUWAKU
  6
CONTINUOUS
 62
      32
100
AcDbLine
 10
-113.6
 20
-269.11608659
 30
0.0
 11
-112.35
 21
-267.86608659
 31
0.0
  0
LINE
  5
127
100
AcDbEntity
  8
ZUWAKU
  6
CONTINUOUS
 62
      32
100
AcDbLine
 10
-112.35
 20
-267.86608659
 30
0.0
 11
-111.6
 21
-266.24108659
 31
0.0
  0
LINE
  5
128
100
AcDbEntity
  8
ZUWAKU
  6
CONTINUOUS
 62
      32
100
AcDbLine
 10
-94.375
 20
-272.61608659
 30
0.0
 11
-93.25
 21
-271.11608659
 31
0.0
  0
LINE
  5
129
100
AcDbEntity
  8
ZUWAKU
  6
CONTINUOUS
 62
      32
100
AcDbLine
 10
-93.25
 20
-271.11608659
 30
0.0
 11
-92.25
 21
-269.61608659
 31
0.0
  0
LINE
  5
12A
100
AcDbEntity
  8
ZUWAKU
  6
CONTINUOUS
 62
      32
100
AcDbLine
 10
-92.25
 20
-269.61608659
 30
0.0
 11
-91.5
 21
-267.99108659
 31
0.0
  0
LINE
  5
12B
100
AcDbEntity
  8
ZUWAKU
  6
CONTINUOUS
 62
      32
100
AcDbLine
 10
-91.5
 20
-267.99108659
 30
0.0
 11
-91.0
 21
-266.24108659
 31
0.0
  0
LINE
  5
12C
100
AcDbEntity
  8
ZUWAKU
  6
CONTINUOUS
 62
      32
100
AcDbLine
 10
-100.0
 20
-275.61608659
 30
0.0
 11
-98.25
 21
-275.11608659
 31
0.0
  0
LINE
  5
12D
100
AcDbEntity
  8
ZUWAKU
  6
CONTINUOUS
 62
      32
100
AcDbLine
 10
-98.25
 20
-275.11608659
 30
0.0
 11
-96.375
 21
-274.49108659
 31
0.0
  0
LINE
  5
12E
100
AcDbEntity
  8
ZUWAKU
  6
CONTINUOUS
 62
      32
100
AcDbLine
 10
-103.275
 20
-269.74108659
 30
0.0
 11
-102.65
 21
-268.11608659
 31
0.0
  0
LINE
  5
12F
100
AcDbEntity
  8
ZUWAKU
  6
CONTINUOUS
 62
      32
100
AcDbLine
 10
-102.65
 20
-268.11608659
 30
0.0
 11
-101.4
 21
-268.11608659
 31
0.0
  0
LINE
  5
130
100
AcDbEntity
  8
ZUWAKU
  6
CONTINUOUS
 62
      32
100
AcDbLine
 10
-102.65
 20
-268.11608659
 30
0.0
 11
-101.4
 21
-268.11608659
 31
0.0
  0
LINE
  5
131
100
AcDbEntity
  8
ZUWAKU
  6
CONTINUOUS
 62
      32
100
AcDbLine
 10
-101.4
 20
-268.11608659
 30
0.0
 11
-101.9
 21
-270.74108659
 31
0.0
  0
LINE
  5
132
100
AcDbEntity
  8
ZUWAKU
  6
CONTINUOUS
 62
      32
100
AcDbLine
 10
-101.9
 20
-270.74108659
 30
0.0
 11
-103.4
 21
-273.24108659
 31
0.0
  0
LINE
  5
133
100
AcDbEntity
  8
ZUWAKU
  6
CONTINUOUS
 62
      32
100
AcDbLine
 10
-101.9
 20
-270.74108659
 30
0.0
 11
-103.4
 21
-273.24108659
 31
0.0
  0
LINE
  5
134
100
AcDbEntity
  8
ZUWAKU
  6
CONTINUOUS
 62
      32
100
AcDbLine
 10
-103.4
 20
-273.24108659
 30
0.0
 11
-105.4
 21
-275.11608659
 31
0.0
  0
LINE
  5
135
100
AcDbEntity
  8
ZUWAKU
  6
CONTINUOUS
 62
      32
100
AcDbLine
 10
-107.9
 20
-276.11608659
 30
0.0
 11
-114.275
 21
-276.11608659
 31
0.0
  0
LINE
  5
136
100
AcDbEntity
  8
ZUWAKU
  6
CONTINUOUS
 62
      32
100
AcDbLine
 10
-114.275
 20
-276.11608659
 30
0.0
 11
-113.15
 21
-272.99108659
 31
0.0
  0
LINE
  5
137
100
AcDbEntity
  8
ZUWAKU
  6
CONTINUOUS
 62
      32
100
AcDbLine
 10
-114.275
 20
-276.11608659
 30
0.0
 11
-113.15
 21
-272.99108659
 31
0.0
  0
LINE
  5
138
100
AcDbEntity
  8
ZUWAKU
  6
CONTINUOUS
 62
      32
100
AcDbLine
 10
-104.275
 20
-271.11608659
 30
0.0
 11
-103.275
 21
-269.74108659
 31
0.0
  0
LINE
  5
139
100
AcDbEntity
  8
ZUWAKU
  6
CONTINUOUS
 62
      32
100
AcDbLine
 10
-113.15
 20
-272.99108659
 30
0.0
 11
-107.15
 21
-272.99108659
 31
0.0
  0
LINE
  5
13A
100
AcDbEntity
  8
ZUWAKU
  6
CONTINUOUS
 62
      32
100
AcDbLine
 10
-113.15
 20
-272.99108659
 30
0.0
 11
-107.15
 21
-272.99108659
 31
0.0
  0
LINE
  5
13B
100
AcDbEntity
  8
ZUWAKU
  6
CONTINUOUS
 62
      32
100
AcDbLine
 10
-107.15
 20
-272.99108659
 30
0.0
 11
-105.65
 21
-272.24108659
 31
0.0
  0
LINE
  5
13C
100
AcDbEntity
  8
ZUWAKU
  6
CONTINUOUS
 62
      32
100
AcDbLine
 10
-107.15
 20
-272.99108659
 30
0.0
 11
-105.65
 21
-272.24108659
 31
0.0
  0
LINE
  5
13D
100
AcDbEntity
  8
ZUWAKU
  6
CONTINUOUS
 62
      32
100
AcDbLine
 10
-105.65
 20
-272.24108659
 30
0.0
 11
-104.275
 21
-271.11608659
 31
0.0
  0
LINE
  5
13E
100
AcDbEntity
  8
ZUWAKU
  6
CONTINUOUS
 62
      32
100
AcDbLine
 10
-125.45
 20
-269.61608659
 30
0.0
 11
-126.95
 21
-273.74108659
 31
0.0
  0
LINE
  5
13F
100
AcDbEntity
  8
ZUWAKU
  6
CONTINUOUS
 62
      32
100
AcDbLine
 10
-126.95
 20
-273.74108659
 30
0.0
 11
-127.825
 21
-274.61608659
 31
0.0
  0
LINE
  5
140
100
AcDbEntity
  8
ZUWAKU
  6
CONTINUOUS
 62
      32
100
AcDbLine
 10
-126.95
 20
-273.74108659
 30
0.0
 11
-127.825
 21
-274.61608659
 31
0.0
  0
LINE
  5
141
100
AcDbEntity
  8
ZUWAKU
  6
CONTINUOUS
 62
      32
100
AcDbLine
 10
-127.825
 20
-274.61608659
 30
0.0
 11
-128.575
 21
-275.36608659
 31
0.0
  0
LINE
  5
142
100
AcDbEntity
  8
ZUWAKU
  6
CONTINUOUS
 62
      32
100
AcDbLine
 10
-128.575
 20
-275.36608659
 30
0.0
 11
-129.575
 21
-275.86608659
 31
0.0
  0
LINE
  5
143
100
AcDbEntity
  8
ZUWAKU
  6
CONTINUOUS
 62
      32
100
AcDbLine
 10
-128.575
 20
-275.36608659
 30
0.0
 11
-129.575
 21
-275.86608659
 31
0.0
  0
LINE
  5
144
100
AcDbEntity
  8
ZUWAKU
  6
CONTINUOUS
 62
      32
100
AcDbLine
 10
-129.575
 20
-275.86608659
 30
0.0
 11
-130.575
 21
-276.11608659
 31
0.0
  0
LINE
  5
145
100
AcDbEntity
  8
ZUWAKU
  6
CONTINUOUS
 62
      32
100
AcDbLine
 10
-130.575
 20
-276.11608659
 30
0.0
 11
-136.95
 21
-276.11608659
 31
0.0
  0
LINE
  5
146
100
AcDbEntity
  8
ZUWAKU
  6
CONTINUOUS
 62
      32
100
AcDbLine
 10
-130.575
 20
-276.11608659
 30
0.0
 11
-136.95
 21
-276.11608659
 31
0.0
  0
LINE
  5
147
100
AcDbEntity
  8
ZUWAKU
  6
CONTINUOUS
 62
      32
100
AcDbLine
 10
-136.95
 20
-276.11608659
 30
0.0
 11
-136.2
 21
-274.24108659
 31
0.0
  0
LINE
  5
148
100
AcDbEntity
  8
ZUWAKU
  6
CONTINUOUS
 62
      32
100
AcDbLine
 10
-136.2
 20
-274.24108659
 30
0.0
 11
-132.075
 21
-274.24108659
 31
0.0
  0
LINE
  5
149
100
AcDbEntity
  8
ZUWAKU
  6
CONTINUOUS
 62
      32
100
AcDbLine
 10
-136.2
 20
-274.24108659
 30
0.0
 11
-132.075
 21
-274.24108659
 31
0.0
  0
LINE
  5
14A
100
AcDbEntity
  8
ZUWAKU
  6
CONTINUOUS
 62
      32
100
AcDbLine
 10
-129.7
 20
-271.36608659
 30
0.0
 11
-134.95
 21
-271.36608659
 31
0.0
  0
LINE
  5
14B
100
AcDbEntity
  8
ZUWAKU
  6
CONTINUOUS
 62
      32
100
AcDbLine
 10
-134.95
 20
-271.36608659
 30
0.0
 11
-134.45
 21
-269.61608659
 31
0.0
  0
LINE
  5
14C
100
AcDbEntity
  8
ZUWAKU
  6
CONTINUOUS
 62
      32
100
AcDbLine
 10
-134.95
 20
-271.36608659
 30
0.0
 11
-134.45
 21
-269.61608659
 31
0.0
  0
LINE
  5
14D
100
AcDbEntity
  8
ZUWAKU
  6
CONTINUOUS
 62
      32
100
AcDbLine
 10
-132.075
 20
-274.24108659
 30
0.0
 11
-131.2
 21
-273.61608659
 31
0.0
  0
LINE
  5
14E
100
AcDbEntity
  8
ZUWAKU
  6
CONTINUOUS
 62
      32
100
AcDbLine
 10
-132.075
 20
-274.24108659
 30
0.0
 11
-131.2
 21
-273.61608659
 31
0.0
  0
LINE
  5
14F
100
AcDbEntity
  8
ZUWAKU
  6
CONTINUOUS
 62
      32
100
AcDbLine
 10
-131.2
 20
-273.61608659
 30
0.0
 11
-130.575
 21
-272.99108659
 31
0.0
  0
LINE
  5
150
100
AcDbEntity
  8
ZUWAKU
  6
CONTINUOUS
 62
      32
100
AcDbLine
 10
-131.2
 20
-273.61608659
 30
0.0
 11
-130.575
 21
-272.99108659
 31
0.0
  0
LINE
  5
151
100
AcDbEntity
  8
ZUWAKU
  6
CONTINUOUS
 62
      32
100
AcDbLine
 10
-130.575
 20
-272.99108659
 30
0.0
 11
-129.95
 21
-272.24108659
 31
0.0
  0
LINE
  5
152
100
AcDbEntity
  8
ZUWAKU
  6
CONTINUOUS
 62
      32
100
AcDbLine
 10
-130.575
 20
-272.99108659
 30
0.0
 11
-129.95
 21
-272.24108659
 31
0.0
  0
LINE
  5
153
100
AcDbEntity
  8
ZUWAKU
  6
CONTINUOUS
 62
      32
100
AcDbLine
 10
-129.95
 20
-272.24108659
 30
0.0
 11
-129.7
 21
-271.36608659
 31
0.0
  0
LINE
  5
154
100
AcDbEntity
  8
ZUWAKU
  6
CONTINUOUS
 62
      32
100
AcDbLine
 10
-129.95
 20
-272.24108659
 30
0.0
 11
-129.7
 21
-271.36608659
 31
0.0
  0
LINE
  5
155
100
AcDbEntity
  8
ZUWAKU
  6
CONTINUOUS
 62
      32
100
AcDbLine
 10
-137.825
 20
-266.24108659
 30
0.0
 11
-135.07599253
 21
-266.24108659
 31
0.0
  0
LINE
  5
156
100
AcDbEntity
  8
ZUWAKU
  6
CONTINUOUS
 62
      32
100
AcDbLine
 10
-137.35
 20
-273.61608659
 30
0.0
 11
-138.35
 21
-274.61608659
 31
0.0
  0
LINE
  5
157
100
AcDbEntity
  8
ZUWAKU
  6
CONTINUOUS
 62
      32
100
AcDbLine
 10
-138.35
 20
-274.61608659
 30
0.0
 11
-139.35
 21
-275.49108659
 31
0.0
  0
LINE
  5
158
100
AcDbEntity
  8
ZUWAKU
  6
CONTINUOUS
 62
      32
100
AcDbLine
 10
-138.35
 20
-274.61608659
 30
0.0
 11
-139.35
 21
-275.49108659
 31
0.0
  0
LINE
  5
159
100
AcDbEntity
  8
ZUWAKU
  6
CONTINUOUS
 62
      32
100
AcDbLine
 10
-139.35
 20
-275.49108659
 30
0.0
 11
-140.6
 21
-275.99108659
 31
0.0
  0
LINE
  5
15A
100
AcDbEntity
  8
ZUWAKU
  6
CONTINUOUS
 62
      32
100
AcDbLine
 10
-140.6
 20
-275.99108659
 30
0.0
 11
-141.85
 21
-276.11608659
 31
0.0
  0
LINE
  5
15B
100
AcDbEntity
  8
ZUWAKU
  6
CONTINUOUS
 62
      32
100
AcDbLine
 10
-141.85
 20
-276.11608659
 30
0.0
 11
-144.975
 21
-276.11608659
 31
0.0
  0
LINE
  5
15C
100
AcDbEntity
  8
ZUWAKU
  6
CONTINUOUS
 62
      32
100
AcDbLine
 10
-144.975
 20
-276.11608659
 30
0.0
 11
-144.35
 21
-274.24108659
 31
0.0
  0
LINE
  5
15D
100
AcDbEntity
  8
ZUWAKU
  6
CONTINUOUS
 62
      32
100
AcDbLine
 10
-144.975
 20
-276.11608659
 30
0.0
 11
-144.35
 21
-274.24108659
 31
0.0
  0
LINE
  5
15E
100
AcDbEntity
  8
ZUWAKU
  6
CONTINUOUS
 62
      32
100
AcDbLine
 10
-140.6
 20
-272.61608659
 30
0.0
 11
-138.225
 21
-266.24108659
 31
0.0
  0
LINE
  5
15F
100
AcDbEntity
  8
ZUWAKU
  6
CONTINUOUS
 62
      32
100
AcDbLine
 10
-144.35
 20
-274.24108659
 30
0.0
 11
-143.225
 21
-274.24108659
 31
0.0
  0
LINE
  5
160
100
AcDbEntity
  8
ZUWAKU
  6
CONTINUOUS
 62
      32
100
AcDbLine
 10
-144.35
 20
-274.24108659
 30
0.0
 11
-143.225
 21
-274.24108659
 31
0.0
  0
LINE
  5
161
100
AcDbEntity
  8
ZUWAKU
  6
CONTINUOUS
 62
      32
100
AcDbLine
 10
-141.225
 20
-273.61608659
 30
0.0
 11
-140.6
 21
-272.61608659
 31
0.0
  0
LINE
  5
162
100
AcDbEntity
  8
ZUWAKU
  6
CONTINUOUS
 62
      32
100
AcDbLine
 10
-142.225
 20
-274.11608659
 30
0.0
 11
-141.225
 21
-273.61608659
 31
0.0
  0
LINE
  5
163
100
AcDbEntity
  8
ZUWAKU
  6
CONTINUOUS
 62
      32
100
AcDbLine
 10
-143.225
 20
-274.24108659
 30
0.0
 11
-142.225
 21
-274.11608659
 31
0.0
  0
LINE
  5
164
100
AcDbEntity
  8
ZUWAKU
  6
CONTINUOUS
 62
      32
100
AcDbLine
 10
-143.225
 20
-274.24108659
 30
0.0
 11
-142.225
 21
-274.11608659
 31
0.0
  0
LINE
  5
165
100
AcDbEntity
  8
ZUWAKU
  6
CONTINUOUS
 62
      32
100
AcDbLine
 10
-110.65
 20
-266.24108659
 30
0.0
 11
-106.65
 21
-266.24108659
 31
0.0
  0
LINE
  5
166
100
AcDbEntity
  8
ZUWAKU
  6
CONTINUOUS
 62
      32
100
AcDbLine
 10
-106.65
 20
-266.24108659
 30
0.0
 11
-107.4
 21
-268.49108659
 31
0.0
  0
LINE
  5
167
100
AcDbEntity
  8
ZUWAKU
  6
CONTINUOUS
 62
      32
100
AcDbLine
 10
-106.65
 20
-266.24108659
 30
0.0
 11
-107.4
 21
-268.49108659
 31
0.0
  0
LINE
  5
168
100
AcDbEntity
  8
ZUWAKU
  6
CONTINUOUS
 62
      32
100
AcDbLine
 10
-107.6
 20
-268.49108659
 30
0.0
 11
-111.525
 21
-268.49108659
 31
0.0
  0
LINE
  5
169
100
AcDbEntity
  8
ZUWAKU
  6
CONTINUOUS
 62
      32
100
AcDbLine
 10
-95.83514872
 20
-268.47445764
 30
0.0
 11
-97.0
 21
-270.61608659
 31
0.0
  0
LINE
  5
16A
100
AcDbEntity
  8
ZUWAKU
  6
CONTINUOUS
 62
      32
100
AcDbLine
 10
-92.375
 20
-266.24108659
 30
0.0
 11
-98.625
 21
-272.49108659
 31
0.0
  0
LINE
  5
16B
100
AcDbEntity
  8
ZUWAKU
  6
CONTINUOUS
 62
      32
100
AcDbLine
 10
-98.625
 20
-272.49108659
 30
0.0
 11
-102.1
 21
-275.96608659
 31
0.0
  0
LINE
  5
16C
100
AcDbEntity
  8
ZUWAKU
  6
CONTINUOUS
 62
      32
100
AcDbLine
 10
-92.94068542
 20
-266.24108659
 30
0.0
 11
-96.62353094
 21
-269.9239321
 31
0.0
  0
LINE
  5
16D
100
AcDbEntity
  8
ZUWAKU
  6
CONTINUOUS
 62
      32
100
AcDbLine
 10
-99.91799526
 20
-273.21839642
 30
0.0
 11
-102.77882251
 21
-276.07922367
 31
0.0
  0
LINE
  5
16E
100
AcDbEntity
  8
ZUWAKU
  6
CONTINUOUS
 62
      32
100
AcDbLine
 10
-93.50637085
 20
-266.24108659
 30
0.0
 11
-95.94892564
 21
-268.68364137
 31
0.0
  0
LINE
  5
16F
100
AcDbEntity
  8
ZUWAKU
  6
CONTINUOUS
 62
      32
100
AcDbLine
 10
-100.94973641
 20
-273.68445215
 30
0.0
 11
-103.45764502
 21
-276.19236076
 31
0.0
  0
LINE
  5
170
100
AcDbEntity
  8
ZUWAKU
  6
CONTINUOUS
 62
      32
100
AcDbLine
 10
-94.07205627
 20
-266.24108659
 30
0.0
 11
-96.32205627
 21
-268.49108659
 31
0.0
  0
LINE
  5
171
100
AcDbEntity
  8
ZUWAKU
  6
CONTINUOUS
 62
      32
100
AcDbLine
 10
-101.66627128
 20
-273.83530159
 30
0.0
 11
-103.57433294
 21
-275.74336325
 31
0.0
  0
LINE
  5
172
100
AcDbEntity
  8
ZUWAKU
  6
CONTINUOUS
 62
      32
100
AcDbLine
 10
-94.6377417
 20
-266.24108659
 30
0.0
 11
-96.8877417
 21
-268.49108659
 31
0.0
  0
LINE
  5
173
100
AcDbEntity
  8
ZUWAKU
  6
CONTINUOUS
 62
      32
100
AcDbLine
 10
-102.38280615
 20
-273.98615104
 30
0.0
 11
-103.26577725
 21
-274.86912214
 31
0.0
  0
LINE
  5
174
100
AcDbEntity
  8
ZUWAKU
  6
CONTINUOUS
 62
      32
100
AcDbLine
 10
-95.20342712
 20
-266.24108659
 30
0.0
 11
-97.45342712
 21
-268.49108659
 31
0.0
  0
LINE
  5
175
100
AcDbEntity
  8
ZUWAKU
  6
CONTINUOUS
 62
      32
100
AcDbLine
 10
-95.76911255
 20
-266.24108659
 30
0.0
 11
-98.01911255
 21
-268.49108659
 31
0.0
  0
LINE
  5
176
100
AcDbEntity
  8
ZUWAKU
  6
CONTINUOUS
 62
      32
100
AcDbLine
 10
-96.33479797
 20
-266.24108659
 30
0.0
 11
-98.58479797
 21
-268.49108659
 31
0.0
  0
LINE
  5
177
100
AcDbEntity
  8
ZUWAKU
  6
CONTINUOUS
 62
      32
100
AcDbLine
 10
-96.9004834
 20
-266.24108659
 30
0.0
 11
-99.1504834
 21
-268.49108659
 31
0.0
  0
LINE
  5
178
100
AcDbEntity
  8
ZUWAKU
  6
CONTINUOUS
 62
      32
100
AcDbLine
 10
-97.46616882
 20
-266.24108659
 30
0.0
 11
-99.71616882
 21
-268.49108659
 31
0.0
  0
LINE
  5
179
100
AcDbEntity
  8
ZUWAKU
  6
CONTINUOUS
 62
      32
100
AcDbLine
 10
-98.03185425
 20
-266.24108659
 30
0.0
 11
-100.23407288
 21
-268.44330521
 31
0.0
  0
LINE
  5
17A
100
AcDbEntity
  8
ZUWAKU
  6
CONTINUOUS
 62
      32
100
AcDbLine
 10
-98.59753967
 20
-266.24108659
 30
0.0
 11
-99.95123016
 21
-267.59477708
 31
0.0
  0
LINE
  5
17B
100
AcDbEntity
  8
ZUWAKU
  6
CONTINUOUS
 62
      32
100
AcDbLine
 10
-99.1632251
 20
-266.24108659
 30
0.0
 11
-99.66838745
 21
-266.74624894
 31
0.0
  0
LINE
  5
17C
100
AcDbEntity
  8
ZUWAKU
  6
CONTINUOUS
 62
      32
100
AcDbLine
 10
-91.80931458
 20
-266.24108659
 30
0.0
 11
-101.42117749
 21
-275.8529495
 31
0.0
  0
LINE
  5
17D
100
AcDbEntity
  8
ZUWAKU
  6
CONTINUOUS
 62
      32
100
AcDbLine
 10
-91.24362915
 20
-266.24108659
 30
0.0
 11
-100.74235498
 21
-275.73981242
 31
0.0
  0
LINE
  5
17E
100
AcDbEntity
  8
ZUWAKU
  6
CONTINUOUS
 62
      32
100
AcDbLine
 10
-91.12882251
 20
-266.69196537
 30
0.0
 11
-100.06353247
 21
-275.62667533
 31
0.0
  0
LINE
  5
17F
100
AcDbEntity
  8
ZUWAKU
  6
CONTINUOUS
 62
      32
100
AcDbLine
 10
-91.35509668
 20
-267.48392497
 30
0.0
 11
-99.28216162
 21
-275.41098991
 31
0.0
  0
LINE
  5
180
100
AcDbEntity
  8
ZUWAKU
  6
CONTINUOUS
 62
      32
100
AcDbLine
 10
-91.67436611
 20
-268.36887982
 30
0.0
 11
-98.49020203
 21
-275.18471574
 31
0.0
  0
LINE
  5
181
100
AcDbEntity
  8
ZUWAKU
  6
CONTINUOUS
 62
      32
100
AcDbLine
 10
-92.15923933
 20
-269.41943847
 30
0.0
 11
-97.65883118
 21
-274.91903031
 31
0.0
  0
LINE
  5
182
100
AcDbEntity
  8
ZUWAKU
  6
CONTINUOUS
 62
      32
100
AcDbLine
 10
-93.16959595
 20
-270.99548051
 30
0.0
 11
-96.81030304
 21
-274.6361876
 31
0.0
  0
LINE
  5
183
100
AcDbEntity
  8
ZUWAKU
  6
CONTINUOUS
 62
      32
100
AcDbLine
 10
-94.31815072
 20
-272.7097207
 30
0.0
 11
-96.27005394
 21
-274.66162393
 31
0.0
  0
LINE
  5
184
100
AcDbEntity
  8
ZUWAKU
  6
CONTINUOUS
 62
      32
100
AcDbLine
 10
-94.10444733
 20
-273.06170274
 30
0.0
 11
-96.05455473
 21
-275.01181015
 31
0.0
  0
LINE
  5
185
100
AcDbEntity
  8
ZUWAKU
  6
CONTINUOUS
 62
      32
100
AcDbLine
 10
-93.89074395
 20
-273.41368479
 30
0.0
 11
-95.83905552
 21
-275.36199636
 31
0.0
  0
LINE
  5
186
100
AcDbEntity
  8
ZUWAKU
  6
CONTINUOUS
 62
      32
100
AcDbLine
 10
-93.67704057
 20
-273.76566683
 30
0.0
 11
-95.62355631
 21
-275.71218258
 31
0.0
  0
LINE
  5
187
100
AcDbEntity
  8
ZUWAKU
  6
CONTINUOUS
 62
      32
100
AcDbLine
 10
-93.46333718
 20
-274.11764887
 30
0.0
 11
-95.4080571
 21
-276.06236879
 31
0.0
  0
LINE
  5
188
100
AcDbEntity
  8
ZUWAKU
  6
CONTINUOUS
 62
      32
100
AcDbLine
 10
-93.2496338
 20
-274.46963091
 30
0.0
 11
-94.89608948
 21
-276.11608659
 31
0.0
  0
LINE
  5
189
100
AcDbEntity
  8
ZUWAKU
  6
CONTINUOUS
 62
      32
100
AcDbLine
 10
-93.03593042
 20
-274.82161296
 30
0.0
 11
-94.33040405
 21
-276.11608659
 31
0.0
  0
LINE
  5
18A
100
AcDbEntity
  8
ZUWAKU
  6
CONTINUOUS
 62
      32
100
AcDbLine
 10
-92.82222704
 20
-275.173595
 30
0.0
 11
-93.76471863
 21
-276.11608659
 31
0.0
  0
LINE
  5
18B
100
AcDbEntity
  8
ZUWAKU
  6
CONTINUOUS
 62
      32
100
AcDbLine
 10
-92.60852365
 20
-275.52557704
 30
0.0
 11
-93.1990332
 21
-276.11608659
 31
0.0
  0
LINE
  5
18C
100
AcDbEntity
  8
ZUWAKU
  6
CONTINUOUS
 62
      32
100
AcDbLine
 10
-92.39482027
 20
-275.87755908
 30
0.0
 11
-92.63334778
 21
-276.11608659
 31
0.0
  0
LINE
  5
18D
100
AcDbEntity
  8
ZUWAKU
  6
CONTINUOUS
 62
      32
100
AcDbLine
 10
-107.9625
 20
-266.24108659
 30
0.0
 11
-110.2125
 21
-268.49108659
 31
0.0
  0
LINE
  5
18E
100
AcDbEntity
  8
ZUWAKU
  6
CONTINUOUS
 62
      32
100
AcDbLine
 10
-108.52818542
 20
-266.24108659
 30
0.0
 11
-110.77818542
 21
-268.49108659
 31
0.0
  0
LINE
  5
18F
100
AcDbEntity
  8
ZUWAKU
  6
CONTINUOUS
 62
      32
100
AcDbLine
 10
-109.09387085
 20
-266.24108659
 30
0.0
 11
-111.34387085
 21
-268.49108659
 31
0.0
  0
LINE
  5
190
100
AcDbEntity
  8
ZUWAKU
  6
CONTINUOUS
 62
      32
100
AcDbLine
 10
-109.65955627
 20
-266.24108659
 30
0.0
 11
-111.28028237
 21
-267.86181268
 31
0.0
  0
LINE
  5
191
100
AcDbEntity
  8
ZUWAKU
  6
CONTINUOUS
 62
      32
100
AcDbLine
 10
-110.2252417
 20
-266.24108659
 30
0.0
 11
-110.92030074
 21
-266.93614562
 31
0.0
  0
LINE
  5
192
100
AcDbEntity
  8
ZUWAKU
  6
CONTINUOUS
 62
      32
100
AcDbLine
 10
-107.39681458
 20
-266.24108659
 30
0.0
 11
-109.64681458
 21
-268.49108659
 31
0.0
  0
LINE
  5
193
100
AcDbEntity
  8
ZUWAKU
  6
CONTINUOUS
 62
      32
100
AcDbLine
 10
-106.83112915
 20
-266.24108659
 30
0.0
 11
-109.08112915
 21
-268.49108659
 31
0.0
  0
LINE
  5
194
100
AcDbEntity
  8
ZUWAKU
  6
CONTINUOUS
 62
      32
100
AcDbLine
 10
-106.84227814
 20
-266.817921
 30
0.0
 11
-108.51544373
 21
-268.49108659
 31
0.0
  0
LINE
  5
195
100
AcDbEntity
  8
ZUWAKU
  6
CONTINUOUS
 62
      32
100
AcDbLine
 10
-107.12512085
 20
-267.66644914
 30
0.0
 11
-107.9497583
 21
-268.49108659
 31
0.0
  0
LINE
  5
196
100
AcDbEntity
  8
ZUWAKU
  6
CONTINUOUS
 62
      32
100
AcDbLine
 10
-107.38407288
 20
-268.49108659
 30
0.0
 11
-107.40796356
 21
-268.51497727
 31
0.0
  0
LINE
  5
197
100
AcDbEntity
  8
ZUWAKU
  6
CONTINUOUS
 62
      32
100
AcDbLine
 10
-108.7125
 20
-272.99108659
 30
0.0
 11
-111.8375
 21
-276.11608659
 31
0.0
  0
LINE
  5
198
100
AcDbEntity
  8
ZUWAKU
  6
CONTINUOUS
 62
      32
100
AcDbLine
 10
-109.27818542
 20
-272.99108659
 30
0.0
 11
-112.40318542
 21
-276.11608659
 31
0.0
  0
LINE
  5
199
100
AcDbEntity
  8
ZUWAKU
  6
CONTINUOUS
 62
      32
100
AcDbLine
 10
-109.84387085
 20
-272.99108659
 30
0.0
 11
-112.96887085
 21
-276.11608659
 31
0.0
  0
LINE
  5
19A
100
AcDbEntity
  8
ZUWAKU
  6
CONTINUOUS
 62
      32
100
AcDbLine
 10
-110.40955627
 20
-272.99108659
 30
0.0
 11
-113.53455627
 21
-276.11608659
 31
0.0
  0
LINE
  5
19B
100
AcDbEntity
  8
ZUWAKU
  6
CONTINUOUS
 62
      32
100
AcDbLine
 10
-110.9752417
 20
-272.99108659
 30
0.0
 11
-114.1002417
 21
-276.11608659
 31
0.0
  0
LINE
  5
19C
100
AcDbEntity
  8
ZUWAKU
  6
CONTINUOUS
 62
      32
100
AcDbLine
 10
-111.54092712
 20
-272.99108659
 30
0.0
 11
-114.05510349
 21
-275.50526296
 31
0.0
  0
LINE
  5
19D
100
AcDbEntity
  8
ZUWAKU
  6
CONTINUOUS
 62
      32
100
AcDbLine
 10
-112.10661255
 20
-272.99108659
 30
0.0
 11
-113.73690544
 21
-274.62137948
 31
0.0
  0
LINE
  5
19E
100
AcDbEntity
  8
ZUWAKU
  6
CONTINUOUS
 62
      32
100
AcDbLine
 10
-112.67229797
 20
-272.99108659
 30
0.0
 11
-113.41870739
 21
-273.737496
 31
0.0
  0
LINE
  5
19F
100
AcDbEntity
  8
ZUWAKU
  6
CONTINUOUS
 62
      32
100
AcDbLine
 10
-108.14681458
 20
-272.99108659
 30
0.0
 11
-111.27181458
 21
-276.11608659
 31
0.0
  0
LINE
  5
1A0
100
AcDbEntity
  8
ZUWAKU
  6
CONTINUOUS
 62
      32
100
AcDbLine
 10
-107.58112915
 20
-272.99108659
 30
0.0
 11
-110.70612915
 21
-276.11608659
 31
0.0
  0
LINE
  5
1A1
100
AcDbEntity
  8
ZUWAKU
  6
CONTINUOUS
 62
      32
100
AcDbLine
 10
-102.14044373
 20
-268.11608659
 30
0.0
 11
-102.96847267
 21
-268.94411553
 31
0.0
  0
LINE
  5
1A2
100
AcDbEntity
  8
ZUWAKU
  6
CONTINUOUS
 62
      32
100
AcDbLine
 10
-106.88088745
 20
-272.85653031
 30
0.0
 11
-110.14044373
 21
-276.11608659
 31
0.0
  0
LINE
  5
1A3
100
AcDbEntity
  8
ZUWAKU
  6
CONTINUOUS
 62
      32
100
AcDbLine
 10
-101.5747583
 20
-268.11608659
 30
0.0
 11
-103.47564453
 21
-270.01697282
 31
0.0
  0
LINE
  5
1A4
100
AcDbEntity
  8
ZUWAKU
  6
CONTINUOUS
 62
      32
100
AcDbLine
 10
-105.7495166
 20
-272.29084489
 30
0.0
 11
-109.5747583
 21
-276.11608659
 31
0.0
  0
LINE
  5
1A5
100
AcDbEntity
  8
ZUWAKU
  6
CONTINUOUS
 62
      32
100
AcDbLine
 10
-101.49198285
 20
-268.59899657
 30
0.0
 11
-109.00907288
 21
-276.11608659
 31
0.0
  0
LINE
  5
1A6
100
AcDbEntity
  8
ZUWAKU
  6
CONTINUOUS
 62
      32
100
AcDbLine
 10
-101.62508531
 20
-269.29778444
 30
0.0
 11
-108.44338745
 21
-276.11608659
 31
0.0
  0
LINE
  5
1A7
100
AcDbEntity
  8
ZUWAKU
  6
CONTINUOUS
 62
      32
100
AcDbLine
 10
-101.75818776
 20
-269.99657232
 30
0.0
 11
-107.87770203
 21
-276.11608659
 31
0.0
  0
LINE
  5
1A8
100
AcDbEntity
  8
ZUWAKU
  6
CONTINUOUS
 62
      32
100
AcDbLine
 10
-101.89129021
 20
-270.6953602
 30
0.0
 11
-107.04162988
 21
-275.84569987
 31
0.0
  0
LINE
  5
1A9
100
AcDbEntity
  8
ZUWAKU
  6
CONTINUOUS
 62
      32
100
AcDbLine
 10
-102.69300324
 20
-272.06275865
 30
0.0
 11
-106.02339612
 21
-275.39315153
 31
0.0
  0
LINE
  5
1AA
100
AcDbEntity
  8
ZUWAKU
  6
CONTINUOUS
 62
      32
100
AcDbLine
 10
-113.2875
 20
-266.24108659
 30
0.0
 11
-122.271875
 21
-275.22546159
 31
0.0
  0
LINE
  5
1AB
100
AcDbEntity
  8
ZUWAKU
  6
CONTINUOUS
 62
      32
100
AcDbLine
 10
-113.85318542
 20
-266.24108659
 30
0.0
 11
-121.94189184
 21
-274.329793
 31
0.0
  0
LINE
  5
1AC
100
AcDbEntity
  8
ZUWAKU
  6
CONTINUOUS
 62
      32
100
AcDbLine
 10
-114.41887085
 20
-266.24108659
 30
0.0
 11
-121.61190867
 21
-273.43412441
 31
0.0
  0
LINE
  5
1AD
100
AcDbEntity
  8
ZUWAKU
  6
CONTINUOUS
 62
      32
100
AcDbLine
 10
-114.98455627
 20
-266.24108659
 30
0.0
 11
-121.28192551
 21
-272.53845582
 31
0.0
  0
LINE
  5
1AE
100
AcDbEntity
  8
ZUWAKU
  6
CONTINUOUS
 62
      32
100
AcDbLine
 10
-115.5502417
 20
-266.24108659
 30
0.0
 11
-120.95194234
 21
-271.64278723
 31
0.0
  0
LINE
  5
1AF
100
AcDbEntity
  8
ZUWAKU
  6
CONTINUOUS
 62
      32
100
AcDbLine
 10
-116.11592712
 20
-266.24108659
 30
0.0
 11
-116.515861
 21
-266.64102046
 31
0.0
  0
LINE
  5
1B0
100
AcDbEntity
  8
ZUWAKU
  6
CONTINUOUS
 62
      32
100
AcDbLine
 10
-118.72162247
 20
-268.84678193
 30
0.0
 11
-121.24092712
 21
-271.36608659
 31
0.0
  0
LINE
  5
1B1
100
AcDbEntity
  8
ZUWAKU
  6
CONTINUOUS
 62
      32
100
AcDbLine
 10
-119.71157196
 20
-269.271046
 30
0.0
 11
-121.80661255
 21
-271.36608659
 31
0.0
  0
LINE
  5
1B2
100
AcDbEntity
  8
ZUWAKU
  6
CONTINUOUS
 62
      32
100
AcDbLine
 10
-120.51998947
 20
-269.51377809
 30
0.0
 11
-122.37229797
 21
-271.36608659
 31
0.0
  0
LINE
  5
1B3
100
AcDbEntity
  8
ZUWAKU
  6
CONTINUOUS
 62
      32
100
AcDbLine
 10
-121.13281535
 20
-269.56091854
 30
0.0
 11
-122.9379834
 21
-271.36608659
 31
0.0
  0
LINE
  5
1B4
100
AcDbEntity
  8
ZUWAKU
  6
CONTINUOUS
 62
      32
100
AcDbLine
 10
-121.74564123
 20
-269.60805899
 30
0.0
 11
-123.50366882
 21
-271.36608659
 31
0.0
  0
LINE
  5
1B5
100
AcDbEntity
  8
ZUWAKU
  6
CONTINUOUS
 62
      32
100
AcDbLine
 10
-122.31935425
 20
-269.61608659
 30
0.0
 11
-124.06935425
 21
-271.36608659
 31
0.0
  0
LINE
  5
1B6
100
AcDbEntity
  8
ZUWAKU
  6
CONTINUOUS
 62
      32
100
AcDbLine
 10
-122.88503967
 20
-269.61608659
 30
0.0
 11
-124.63503967
 21
-271.36608659
 31
0.0
  0
LINE
  5
1B7
100
AcDbEntity
  8
ZUWAKU
  6
CONTINUOUS
 62
      32
100
AcDbLine
 10
-123.4507251
 20
-269.61608659
 30
0.0
 11
-124.65515272
 21
-270.82051421
 31
0.0
  0
LINE
  5
1B8
100
AcDbEntity
  8
ZUWAKU
  6
CONTINUOUS
 62
      32
100
AcDbLine
 10
-124.01641052
 20
-269.61608659
 30
0.0
 11
-124.34088304
 21
-269.94055911
 31
0.0
  0
LINE
  5
1B9
100
AcDbEntity
  8
ZUWAKU
  6
CONTINUOUS
 62
      32
100
AcDbLine
 10
-112.72181458
 20
-266.24108659
 30
0.0
 11
-122.60185816
 21
-276.12113018
 31
0.0
  0
LINE
  5
1BA
100
AcDbEntity
  8
ZUWAKU
  6
CONTINUOUS
 62
      32
100
AcDbLine
 10
-112.15612915
 20
-266.24108659
 30
0.0
 11
-116.50051988
 21
-270.58547732
 31
0.0
  0
LINE
  5
1BB
100
AcDbEntity
  8
ZUWAKU
  6
CONTINUOUS
 62
      32
100
AcDbLine
 10
-116.63562285
 20
-270.72058029
 30
0.0
 11
-122.03112915
 21
-276.11608659
 31
0.0
  0
LINE
  5
1BC
100
AcDbEntity
  8
ZUWAKU
  6
CONTINUOUS
 62
      32
100
AcDbLine
 10
-111.59044373
 20
-266.24108659
 30
0.0
 11
-115.68341871
 21
-270.33406158
 31
0.0
  0
LINE
  5
1BD
100
AcDbEntity
  8
ZUWAKU
  6
CONTINUOUS
 62
      32
100
AcDbLine
 10
-116.92821876
 20
-271.57886163
 30
0.0
 11
-121.46544373
 21
-276.11608659
 31
0.0
  0
LINE
  5
1BE
100
AcDbEntity
  8
ZUWAKU
  6
CONTINUOUS
 62
      32
100
AcDbLine
 10
-112.09306431
 20
-267.3093926
 30
0.0
 11
-114.69911377
 21
-269.91544205
 31
0.0
  0
LINE
  5
1BF
100
AcDbEntity
  8
ZUWAKU
  6
CONTINUOUS
 62
      32
100
AcDbLine
 10
-117.22081467
 20
-272.43714296
 30
0.0
 11
-120.8997583
 21
-276.11608659
 31
0.0
  0
LINE
  5
1C0
100
AcDbEntity
  8
ZUWAKU
  6
CONTINUOUS
 62
      32
100
AcDbLine
 10
-117.51341058
 20
-273.29542429
 30
0.0
 11
-120.33407288
 21
-276.11608659
 31
0.0
  0
LINE
  5
1C1
100
AcDbEntity
  8
ZUWAKU
  6
CONTINUOUS
 62
      32
100
AcDbLine
 10
-117.80600649
 20
-274.15370563
 30
0.0
 11
-119.76838745
 21
-276.11608659
 31
0.0
  0
LINE
  5
1C2
100
AcDbEntity
  8
ZUWAKU
  6
CONTINUOUS
 62
      32
100
AcDbLine
 10
-118.0986024
 20
-275.01198696
 30
0.0
 11
-119.20270203
 21
-276.11608659
 31
0.0
  0
LINE
  5
1C3
100
AcDbEntity
  8
ZUWAKU
  6
CONTINUOUS
 62
      32
100
AcDbLine
 10
-118.39119831
 20
-275.8702683
 30
0.0
 11
-118.6370166
 21
-276.11608659
 31
0.0
  0
LINE
  5
1C4
100
AcDbEntity
  8
ZUWAKU
  6
CONTINUOUS
 62
      32
100
AcDbLine
 10
-128.1375
 20
-266.24108659
 30
0.0
 11
-130.3875
 21
-268.49108659
 31
0.0
  0
LINE
  5
1C5
100
AcDbEntity
  8
ZUWAKU
  6
CONTINUOUS
 62
      32
100
AcDbLine
 10
-128.70318542
 20
-266.24108659
 30
0.0
 11
-130.95318542
 21
-268.49108659
 31
0.0
  0
LINE
  5
1C6
100
AcDbEntity
  8
ZUWAKU
  6
CONTINUOUS
 62
      32
100
AcDbLine
 10
-129.26887085
 20
-266.24108659
 30
0.0
 11
-131.51887085
 21
-268.49108659
 31
0.0
  0
LINE
  5
1C7
100
AcDbEntity
  8
ZUWAKU
  6
CONTINUOUS
 62
      32
100
AcDbLine
 10
-129.83455627
 20
-266.24108659
 30
0.0
 11
-132.08455627
 21
-268.49108659
 31
0.0
  0
LINE
  5
1C8
100
AcDbEntity
  8
ZUWAKU
  6
CONTINUOUS
 62
      32
100
AcDbLine
 10
-130.4002417
 20
-266.24108659
 30
0.0
 11
-132.6502417
 21
-268.49108659
 31
0.0
  0
LINE
  5
1C9
100
AcDbEntity
  8
ZUWAKU
  6
CONTINUOUS
 62
      32
100
AcDbLine
 10
-130.96592712
 20
-266.24108659
 30
0.0
 11
-133.21592712
 21
-268.49108659
 31
0.0
  0
LINE
  5
1CA
100
AcDbEntity
  8
ZUWAKU
  6
CONTINUOUS
 62
      32
100
AcDbLine
 10
-131.53161255
 20
-266.24108659
 30
0.0
 11
-133.78161255
 21
-268.49108659
 31
0.0
  0
LINE
  5
1CB
100
AcDbEntity
  8
ZUWAKU
  6
CONTINUOUS
 62
      32
100
AcDbLine
 10
-132.09729797
 20
-266.24108659
 30
0.0
 11
-134.12635101
 21
-268.27013963
 31
0.0
  0
LINE
  5
1CC
100
AcDbEntity
  8
ZUWAKU
  6
CONTINUOUS
 62
      32
100
AcDbLine
 10
-132.6629834
 20
-266.24108659
 30
0.0
 11
-133.8435083
 21
-267.42161149
 31
0.0
  0
LINE
  5
1CD
100
AcDbEntity
  8
ZUWAKU
  6
CONTINUOUS
 62
      32
100
AcDbLine
 10
-133.22866882
 20
-266.24108659
 30
0.0
 11
-133.56066559
 21
-266.57308335
 31
0.0
  0
LINE
  5
1CE
100
AcDbEntity
  8
ZUWAKU
  6
CONTINUOUS
 62
      32
100
AcDbLine
 10
-127.57181458
 20
-266.24108659
 30
0.0
 11
-129.82181458
 21
-268.49108659
 31
0.0
  0
LINE
  5
1CF
100
AcDbEntity
  8
ZUWAKU
  6
CONTINUOUS
 62
      32
100
AcDbLine
 10
-127.00612915
 20
-266.24108659
 30
0.0
 11
-129.25612915
 21
-268.49108659
 31
0.0
  0
LINE
  5
1D0
100
AcDbEntity
  8
ZUWAKU
  6
CONTINUOUS
 62
      32
100
AcDbLine
 10
-126.44044373
 20
-266.24108659
 30
0.0
 11
-128.69044373
 21
-268.49108659
 31
0.0
  0
LINE
  5
1D1
100
AcDbEntity
  8
ZUWAKU
  6
CONTINUOUS
 62
      32
100
AcDbLine
 10
-125.8747583
 20
-266.24108659
 30
0.0
 11
-128.1247583
 21
-268.49108659
 31
0.0
  0
LINE
  5
1D2
100
AcDbEntity
  8
ZUWAKU
  6
CONTINUOUS
 62
      32
100
AcDbLine
 10
-125.30907288
 20
-266.24108659
 30
0.0
 11
-127.55907288
 21
-268.49108659
 31
0.0
  0
LINE
  5
1D3
100
AcDbEntity
  8
ZUWAKU
  6
CONTINUOUS
 62
      32
100
AcDbLine
 10
-124.74338745
 20
-266.24108659
 30
0.0
 11
-126.99338745
 21
-268.49108659
 31
0.0
  0
LINE
  5
1D4
100
AcDbEntity
  8
ZUWAKU
  6
CONTINUOUS
 62
      32
100
AcDbLine
 10
-124.39864899
 20
-266.46203355
 30
0.0
 11
-126.42770203
 21
-268.49108659
 31
0.0
  0
LINE
  5
1D5
100
AcDbEntity
  8
ZUWAKU
  6
CONTINUOUS
 62
      32
100
AcDbLine
 10
-124.6814917
 20
-267.31056169
 30
0.0
 11
-125.8620166
 21
-268.49108659
 31
0.0
  0
LINE
  5
1D6
100
AcDbEntity
  8
ZUWAKU
  6
CONTINUOUS
 62
      32
100
AcDbLine
 10
-124.96433441
 20
-268.15908982
 30
0.0
 11
-125.29633118
 21
-268.49108659
 31
0.0
  0
LINE
  5
1D7
100
AcDbEntity
  8
ZUWAKU
  6
CONTINUOUS
 62
      32
100
AcDbLine
 10
-127.95
 20
-269.61608659
 30
0.0
 11
-129.7
 21
-271.36608659
 31
0.0
  0
LINE
  5
1D8
100
AcDbEntity
  8
ZUWAKU
  6
CONTINUOUS
 62
      32
100
AcDbLine
 10
-132.575
 20
-274.24108659
 30
0.0
 11
-134.45
 21
-276.11608659
 31
0.0
  0
LINE
  5
1D9
100
AcDbEntity
  8
ZUWAKU
  6
CONTINUOUS
 62
      32
100
AcDbLine
 10
-128.51568542
 20
-269.61608659
 30
0.0
 11
-130.26568542
 21
-271.36608659
 31
0.0
  0
LINE
  5
1DA
100
AcDbEntity
  8
ZUWAKU
  6
CONTINUOUS
 62
      32
100
AcDbLine
 10
-133.14068542
 20
-274.24108659
 30
0.0
 11
-135.01568542
 21
-276.11608659
 31
0.0
  0
LINE
  5
1DB
100
AcDbEntity
  8
ZUWAKU
  6
CONTINUOUS
 62
      32
100
AcDbLine
 10
-129.08137085
 20
-269.61608659
 30
0.0
 11
-130.83137085
 21
-271.36608659
 31
0.0
  0
LINE
  5
1DC
100
AcDbEntity
  8
ZUWAKU
  6
CONTINUOUS
 62
      32
100
AcDbLine
 10
-133.70637085
 20
-274.24108659
 30
0.0
 11
-135.58137085
 21
-276.11608659
 31
0.0
  0
LINE
  5
1DD
100
AcDbEntity
  8
ZUWAKU
  6
CONTINUOUS
 62
      32
100
AcDbLine
 10
-129.64705627
 20
-269.61608659
 30
0.0
 11
-131.39705627
 21
-271.36608659
 31
0.0
  0
LINE
  5
1DE
100
AcDbEntity
  8
ZUWAKU
  6
CONTINUOUS
 62
      32
100
AcDbLine
 10
-134.27205627
 20
-274.24108659
 30
0.0
 11
-136.14705627
 21
-276.11608659
 31
0.0
  0
LINE
  5
1DF
100
AcDbEntity
  8
ZUWAKU
  6
CONTINUOUS
 62
      32
100
AcDbLine
 10
-130.2127417
 20
-269.61608659
 30
0.0
 11
-131.9627417
 21
-271.36608659
 31
0.0
  0
LINE
  5
1E0
100
AcDbEntity
  8
ZUWAKU
  6
CONTINUOUS
 62
      32
100
AcDbLine
 10
-134.8377417
 20
-274.24108659
 30
0.0
 11
-136.7127417
 21
-276.11608659
 31
0.0
  0
LINE
  5
1E1
100
AcDbEntity
  8
ZUWAKU
  6
CONTINUOUS
 62
      32
100
AcDbLine
 10
-130.77842712
 20
-269.61608659
 30
0.0
 11
-132.52842712
 21
-271.36608659
 31
0.0
  0
LINE
  5
1E2
100
AcDbEntity
  8
ZUWAKU
  6
CONTINUOUS
 62
      32
100
AcDbLine
 10
-135.40342712
 20
-274.24108659
 30
0.0
 11
-136.73104858
 21
-275.56870805
 31
0.0
  0
LINE
  5
1E3
100
AcDbEntity
  8
ZUWAKU
  6
CONTINUOUS
 62
      32
100
AcDbLine
 10
-131.34411255
 20
-269.61608659
 30
0.0
 11
-133.09411255
 21
-271.36608659
 31
0.0
  0
LINE
  5
1E4
100
AcDbEntity
  8
ZUWAKU
  6
CONTINUOUS
 62
      32
100
AcDbLine
 10
-135.96911255
 20
-274.24108659
 30
0.0
 11
-136.35392497
 21
-274.625899
 31
0.0
  0
LINE
  5
1E5
100
AcDbEntity
  8
ZUWAKU
  6
CONTINUOUS
 62
      32
100
AcDbLine
 10
-131.90979797
 20
-269.61608659
 30
0.0
 11
-133.65979797
 21
-271.36608659
 31
0.0
  0
LINE
  5
1E6
100
AcDbEntity
  8
ZUWAKU
  6
CONTINUOUS
 62
      32
100
AcDbLine
 10
-132.4754834
 20
-269.61608659
 30
0.0
 11
-134.2254834
 21
-271.36608659
 31
0.0
  0
LINE
  5
1E7
100
AcDbEntity
  8
ZUWAKU
  6
CONTINUOUS
 62
      32
100
AcDbLine
 10
-133.04116882
 20
-269.61608659
 30
0.0
 11
-134.79116882
 21
-271.36608659
 31
0.0
  0
LINE
  5
1E8
100
AcDbEntity
  8
ZUWAKU
  6
CONTINUOUS
 62
      32
100
AcDbLine
 10
-133.60685425
 20
-269.61608659
 30
0.0
 11
-134.7872583
 21
-270.79649064
 31
0.0
  0
LINE
  5
1E9
100
AcDbEntity
  8
ZUWAKU
  6
CONTINUOUS
 62
      32
100
AcDbLine
 10
-134.17253967
 20
-269.61608659
 30
0.0
 11
-134.56098413
 21
-270.00453104
 31
0.0
  0
LINE
  5
1EA
100
AcDbEntity
  8
ZUWAKU
  6
CONTINUOUS
 62
      32
100
AcDbLine
 10
-127.38431458
 20
-269.61608659
 30
0.0
 11
-129.92627417
 21
-272.15804618
 31
0.0
  0
LINE
  5
1EB
100
AcDbEntity
  8
ZUWAKU
  6
CONTINUOUS
 62
      32
100
AcDbLine
 10
-131.84510101
 20
-274.07687303
 30
0.0
 11
-133.88431458
 21
-276.11608659
 31
0.0
  0
LINE
  5
1EC
100
AcDbEntity
  8
ZUWAKU
  6
CONTINUOUS
 62
      32
100
AcDbLine
 10
-126.81862915
 20
-269.61608659
 30
0.0
 11
-133.31862915
 21
-276.11608659
 31
0.0
  0
LINE
  5
1ED
100
AcDbEntity
  8
ZUWAKU
  6
CONTINUOUS
 62
      32
100
AcDbLine
 10
-126.25294373
 20
-269.61608659
 30
0.0
 11
-132.75294373
 21
-276.11608659
 31
0.0
  0
LINE
  5
1EE
100
AcDbEntity
  8
ZUWAKU
  6
CONTINUOUS
 62
      32
100
AcDbLine
 10
-125.6872583
 20
-269.61608659
 30
0.0
 11
-132.1872583
 21
-276.11608659
 31
0.0
  0
LINE
  5
1EF
100
AcDbEntity
  8
ZUWAKU
  6
CONTINUOUS
 62
      32
100
AcDbLine
 10
-125.63767264
 20
-270.13218635
 30
0.0
 11
-131.62157288
 21
-276.11608659
 31
0.0
  0
LINE
  5
1F0
100
AcDbEntity
  8
ZUWAKU
  6
CONTINUOUS
 62
      32
100
AcDbLine
 10
-125.96092146
 20
-271.02112059
 30
0.0
 11
-131.05588745
 21
-276.11608659
 31
0.0
  0
LINE
  5
1F1
100
AcDbEntity
  8
ZUWAKU
  6
CONTINUOUS
 62
      32
100
AcDbLine
 10
-126.28417027
 20
-271.91005483
 30
0.0
 11
-130.46193603
 21
-276.0878206
 31
0.0
  0
LINE
  5
1F2
100
AcDbEntity
  8
ZUWAKU
  6
CONTINUOUS
 62
      32
100
AcDbLine
 10
-126.60741909
 20
-272.79898907
 30
0.0
 11
-129.7076888
 21
-275.89925879
 31
0.0
  0
LINE
  5
1F3
100
AcDbEntity
  8
ZUWAKU
  6
CONTINUOUS
 62
      32
100
AcDbLine
 10
-126.9306679
 20
-273.68792331
 30
0.0
 11
-128.64266235
 21
-275.39991776
 31
0.0
  0
LINE
  5
1F4
100
AcDbEntity
  8
ZUWAKU
  6
CONTINUOUS
 62
      32
100
AcDbLine
 10
-134.975
 20
-266.24108659
 30
0.0
 11
-140.1546875
 21
-271.42077409
 31
0.0
  0
LINE
  5
1F5
100
AcDbEntity
  8
ZUWAKU
  6
CONTINUOUS
 62
      32
100
AcDbLine
 10
-142.93928571
 20
-274.2053723
 30
0.0
 11
-144.85
 21
-276.11608659
 31
0.0
  0
LINE
  5
1F6
100
AcDbEntity
  8
ZUWAKU
  6
CONTINUOUS
 62
      32
100
AcDbLine
 10
-135.54068542
 20
-266.24108659
 30
0.0
 11
-139.81881178
 21
-270.51921294
 31
0.0
  0
LINE
  5
1F7
100
AcDbEntity
  8
ZUWAKU
  6
CONTINUOUS
 62
      32
100
AcDbLine
 10
-143.54068542
 20
-274.24108659
 30
0.0
 11
-144.75465729
 21
-275.45505845
 31
0.0
  0
LINE
  5
1F8
100
AcDbEntity
  8
ZUWAKU
  6
CONTINUOUS
 62
      32
100
AcDbLine
 10
-136.10637085
 20
-266.24108659
 30
0.0
 11
-139.48293606
 21
-269.6176518
 31
0.0
  0
LINE
  5
1F9
100
AcDbEntity
  8
ZUWAKU
  6
CONTINUOUS
 62
      32
100
AcDbLine
 10
-144.10637085
 20
-274.24108659
 30
0.0
 11
-144.47181458
 21
-274.60653031
 31
0.0
  0
LINE
  5
1FA
100
AcDbEntity
  8
ZUWAKU
  6
CONTINUOUS
 62
      32
100
AcDbLine
 10
-136.67205627
 20
-266.24108659
 30
0.0
 11
-139.14706034
 21
-268.71609065
 31
0.0
  0
LINE
  5
1FB
100
AcDbEntity
  8
ZUWAKU
  6
CONTINUOUS
 62
      32
100
AcDbLine
 10
-137.2377417
 20
-266.24108659
 30
0.0
 11
-138.81118462
 21
-267.8145295
 31
0.0
  0
LINE
  5
1FC
100
AcDbEntity
  8
ZUWAKU
  6
CONTINUOUS
 62
      32
100
AcDbLine
 10
-137.80342712
 20
-266.24108659
 30
0.0
 11
-138.47530889
 21
-266.91296836
 31
0.0
  0
LINE
  5
1FD
100
AcDbEntity
  8
ZUWAKU
  6
CONTINUOUS
 62
      32
100
AcDbLine
 10
-135.07599253
 20
-266.90776454
 30
0.0
 11
-140.49056322
 21
-272.32233523
 31
0.0
  0
LINE
  5
1FE
100
AcDbEntity
  8
ZUWAKU
  6
CONTINUOUS
 62
      32
100
AcDbLine
 10
-142.29278809
 20
-274.1245601
 30
0.0
 11
-144.28431458
 21
-276.11608659
 31
0.0
  0
LINE
  5
1FF
100
AcDbEntity
  8
ZUWAKU
  6
CONTINUOUS
 62
      32
100
AcDbLine
 10
-135.36608762
 20
-267.76354505
 30
0.0
 11
-141.2122583
 21
-273.60971574
 31
0.0
  0
LINE
  5
200
100
AcDbEntity
  8
ZUWAKU
  6
CONTINUOUS
 62
      32
100
AcDbLine
 10
-141.23561808
 20
-273.63307552
 30
0.0
 11
-143.71862915
 21
-276.11608659
 31
0.0
  0
LINE
  5
201
100
AcDbEntity
  8
ZUWAKU
  6
CONTINUOUS
 62
      32
100
AcDbLine
 10
-135.65618271
 20
-268.61932557
 30
0.0
 11
-143.15294373
 21
-276.11608659
 31
0.0
  0
LINE
  5
202
100
AcDbEntity
  8
ZUWAKU
  6
CONTINUOUS
 62
      32
100
AcDbLine
 10
-135.94627779
 20
-269.47510608
 30
0.0
 11
-142.5872583
 21
-276.11608659
 31
0.0
  0
LINE
  5
203
100
AcDbEntity
  8
ZUWAKU
  6
CONTINUOUS
 62
      32
100
AcDbLine
 10
-136.23637288
 20
-270.3308866
 30
0.0
 11
-142.02157288
 21
-276.11608659
 31
0.0
  0
LINE
  5
204
100
AcDbEntity
  8
ZUWAKU
  6
CONTINUOUS
 62
      32
100
AcDbLine
 10
-136.52646797
 20
-271.18666711
 30
0.0
 11
-141.41209717
 21
-276.0722963
 31
0.0
  0
LINE
  5
205
100
AcDbEntity
  8
ZUWAKU
  6
CONTINUOUS
 62
      32
100
AcDbLine
 10
-136.81656306
 20
-272.04244763
 30
0.0
 11
-140.78355781
 21
-276.00944237
 31
0.0
  0
LINE
  5
206
100
AcDbEntity
  8
ZUWAKU
  6
CONTINUOUS
 62
      32
100
AcDbLine
 10
-137.10665815
 20
-272.89822814
 30
0.0
 11
-139.93252767
 21
-275.72409765
 31
0.0
  0
LINE
  5
207
100
AcDbEntity
  8
ZUWAKU
  6
CONTINUOUS
 62
      32
100
AcDbLine
 10
-140.9875
 20
-266.94108659
 30
0.0
 11
-145.61008065
 21
-271.56366723
 31
0.0
  0
LINE
  5
208
100
AcDbEntity
  8
ZUWAKU
  6
CONTINUOUS
 62
      32
100
AcDbLine
 10
-140.85318542
 20
-266.24108659
 30
0.0
 11
-145.29986606
 21
-270.68776722
 31
0.0
  0
LINE
  5
209
100
AcDbEntity
  8
ZUWAKU
  6
CONTINUOUS
 62
      32
100
AcDbLine
 10
-141.41887085
 20
-266.24108659
 30
0.0
 11
-144.98965147
 21
-269.81186721
 31
0.0
  0
LINE
  5
20A
100
AcDbEntity
  8
ZUWAKU
  6
CONTINUOUS
 62
      32
100
AcDbLine
 10
-141.98455627
 20
-266.24108659
 30
0.0
 11
-144.67943688
 21
-268.93596719
 31
0.0
  0
LINE
  5
20B
100
AcDbEntity
  8
ZUWAKU
  6
CONTINUOUS
 62
      32
100
AcDbLine
 10
-142.5502417
 20
-266.24108659
 30
0.0
 11
-144.36922229
 21
-268.06006718
 31
0.0
  0
LINE
  5
20C
100
AcDbEntity
  8
ZUWAKU
  6
CONTINUOUS
 62
      32
100
AcDbLine
 10
-143.11592712
 20
-266.24108659
 30
0.0
 11
-144.05900771
 21
-267.18416717
 31
0.0
  0
LINE
  5
20D
100
AcDbEntity
  8
ZUWAKU
  6
CONTINUOUS
 62
      32
100
AcDbLine
 10
-143.68161255
 20
-266.24108659
 30
0.0
 11
-143.74879312
 21
-266.30826716
 31
0.0
  0
LINE
  5
20E
100
AcDbEntity
  8
ZUWAKU
  6
CONTINUOUS
 62
      32
100
AcDbLine
 10
-141.32691125
 20
-267.84618327
 30
0.0
 11
-145.72181458
 21
-272.24108659
 31
0.0
  0
LINE
  5
20F
100
AcDbEntity
  8
ZUWAKU
  6
CONTINUOUS
 62
      32
100
AcDbLine
 10
-141.66632251
 20
-268.75127995
 30
0.0
 11
-145.15612915
 21
-272.24108659
 31
0.0
  0
LINE
  5
210
100
AcDbEntity
  8
ZUWAKU
  6
CONTINUOUS
 62
      32
100
AcDbLine
 10
-142.00573376
 20
-269.65637663
 30
0.0
 11
-144.59044373
 21
-272.24108659
 31
0.0
  0
LINE
  5
211
100
AcDbEntity
  8
ZUWAKU
  6
CONTINUOUS
 62
      32
100
AcDbLine
 10
-142.34514502
 20
-270.56147331
 30
0.0
 11
-144.0247583
 21
-272.24108659
 31
0.0
  0
LINE
  5
212
100
AcDbEntity
  8
ZUWAKU
  6
CONTINUOUS
 62
      32
100
AcDbLine
 10
-142.68455627
 20
-271.46656999
 30
0.0
 11
-143.45907288
 21
-272.24108659
 31
0.0
  0
LINE
  5
213
100
AcDbEntity
  8
ZUWAKU
  6
CONTINUOUS
 62
      32
100
AcDbLine
 10
196.0
 20
240.25891341
 30
0.0
 11
207.0
 21
240.25891341
 31
0.0
  0
LINE
  5
214
100
AcDbEntity
  8
ZUWAKU
  6
CONTINUOUS
 62
      32
100
AcDbLine
 10
196.0
 20
230.25891341
 30
0.0
 11
207.0
 21
230.25891341
 31
0.0
  0
LINE
  5
215
100
AcDbEntity
  8
ZUWAKU
  6
CONTINUOUS
 62
      32
100
AcDbLine
 10
207.0
 20
240.25891341
 30
0.0
 11
207.0
 21
230.25891341
 31
0.0
  0
LINE
  5
216
100
AcDbEntity
  8
ZUWAKU
  6
CONTINUOUS
 62
      32
100
AcDbLine
 10
196.0
 20
240.25891341
 30
0.0
 11
196.0
 21
230.25891341
 31
0.0
  0
LINE
  5
217
100
AcDbEntity
  8
ZUWAKU
  6
CONTINUOUS
 62
      32
100
AcDbLine
 10
207.0
 20
230.29373305
 30
0.0
 11
206.96518036
 21
230.25891341
 31
0.0
  0
LINE
  5
218
100
AcDbEntity
  8
ZUWAKU
  6
CONTINUOUS
 62
      32
100
AcDbLine
 10
201.13077635
 20
240.25891341
 30
0.0
 11
196.0
 21
235.12813706
 31
0.0
  0
LINE
  5
219
100
AcDbEntity
  8
ZUWAKU
  6
CONTINUOUS
 62
      32
100
AcDbLine
 10
200.56509093
 20
240.25891341
 30
0.0
 11
196.0
 21
235.69382248
 31
0.0
  0
LINE
  5
21A
100
AcDbEntity
  8
ZUWAKU
  6
CONTINUOUS
 62
      32
100
AcDbLine
 10
199.9994055
 20
240.25891341
 30
0.0
 11
196.0
 21
236.25950791
 31
0.0
  0
LINE
  5
21B
100
AcDbEntity
  8
ZUWAKU
  6
CONTINUOUS
 62
      32
100
AcDbLine
 10
199.43372008
 20
240.25891341
 30
0.0
 11
196.0
 21
236.82519333
 31
0.0
  0
LINE
  5
21C
100
AcDbEntity
  8
ZUWAKU
  6
CONTINUOUS
 62
      32
100
AcDbLine
 10
198.86803465
 20
240.25891341
 30
0.0
 11
196.0
 21
237.39087876
 31
0.0
  0
LINE
  5
21D
100
AcDbEntity
  8
ZUWAKU
  6
CONTINUOUS
 62
      32
100
AcDbLine
 10
198.30234923
 20
240.25891341
 30
0.0
 11
196.0
 21
237.95656418
 31
0.0
  0
LINE
  5
21E
100
AcDbEntity
  8
ZUWAKU
  6
CONTINUOUS
 62
      32
100
AcDbLine
 10
197.7366638
 20
240.25891341
 30
0.0
 11
196.0
 21
238.52224961
 31
0.0
  0
LINE
  5
21F
100
AcDbEntity
  8
ZUWAKU
  6
CONTINUOUS
 62
      32
100
AcDbLine
 10
197.17097838
 20
240.25891341
 30
0.0
 11
196.0
 21
239.08793503
 31
0.0
  0
LINE
  5
220
100
AcDbEntity
  8
ZUWAKU
  6
CONTINUOUS
 62
      32
100
AcDbLine
 10
196.60529295
 20
240.25891341
 30
0.0
 11
196.0
 21
239.65362046
 31
0.0
  0
LINE
  5
221
100
AcDbEntity
  8
ZUWAKU
  6
CONTINUOUS
 62
      32
100
AcDbLine
 10
201.69646178
 20
240.25891341
 30
0.0
 11
196.0
 21
234.56245163
 31
0.0
  0
LINE
  5
222
100
AcDbEntity
  8
ZUWAKU
  6
CONTINUOUS
 62
      32
100
AcDbLine
 10
202.2621472
 20
240.25891341
 30
0.0
 11
196.0
 21
233.99676621
 31
0.0
  0
LINE
  5
223
100
AcDbEntity
  8
ZUWAKU
  6
CONTINUOUS
 62
      32
100
AcDbLine
 10
202.82783263
 20
240.25891341
 30
0.0
 11
196.0
 21
233.43108078
 31
0.0
  0
LINE
  5
224
100
AcDbEntity
  8
ZUWAKU
  6
CONTINUOUS
 62
      32
100
AcDbLine
 10
203.39351805
 20
240.25891341
 30
0.0
 11
196.0
 21
232.86539536
 31
0.0
  0
LINE
  5
225
100
AcDbEntity
  8
ZUWAKU
  6
CONTINUOUS
 62
      32
100
AcDbLine
 10
203.95920348
 20
240.25891341
 30
0.0
 11
196.0
 21
232.29970993
 31
0.0
  0
LINE
  5
226
100
AcDbEntity
  8
ZUWAKU
  6
CONTINUOUS
 62
      32
100
AcDbLine
 10
204.5248889
 20
240.25891341
 30
0.0
 11
196.0
 21
231.73402451
 31
0.0
  0
LINE
  5
227
100
AcDbEntity
  8
ZUWAKU
  6
CONTINUOUS
 62
      32
100
AcDbLine
 10
205.09057433
 20
240.25891341
 30
0.0
 11
196.0
 21
231.16833908
 31
0.0
  0
LINE
  5
228
100
AcDbEntity
  8
ZUWAKU
  6
CONTINUOUS
 62
      32
100
AcDbLine
 10
205.65625975
 20
240.25891341
 30
0.0
 11
196.0
 21
230.60265366
 31
0.0
  0
LINE
  5
229
100
AcDbEntity
  8
ZUWAKU
  6
CONTINUOUS
 62
      32
100
AcDbLine
 10
206.22194518
 20
240.25891341
 30
0.0
 11
196.22194518
 21
230.25891341
 31
0.0
  0
LINE
  5
22A
100
AcDbEntity
  8
ZUWAKU
  6
CONTINUOUS
 62
      32
100
AcDbLine
 10
206.7876306
 20
240.25891341
 30
0.0
 11
196.7876306
 21
230.25891341
 31
0.0
  0
LINE
  5
22B
100
AcDbEntity
  8
ZUWAKU
  6
CONTINUOUS
 62
      32
100
AcDbLine
 10
207.0
 20
239.90559738
 30
0.0
 11
197.35331603
 21
230.25891341
 31
0.0
  0
LINE
  5
22C
100
AcDbEntity
  8
ZUWAKU
  6
CONTINUOUS
 62
      32
100
AcDbLine
 10
207.0
 20
239.33991196
 30
0.0
 11
197.91900145
 21
230.25891341
 31
0.0
  0
LINE
  5
22D
100
AcDbEntity
  8
ZUWAKU
  6
CONTINUOUS
 62
      32
100
AcDbLine
 10
207.0
 20
238.77422653
 30
0.0
 11
198.48468688
 21
230.25891341
 31
0.0
  0
LINE
  5
22E
100
AcDbEntity
  8
ZUWAKU
  6
CONTINUOUS
 62
      32
100
AcDbLine
 10
207.0
 20
238.20854111
 30
0.0
 11
199.0503723
 21
230.25891341
 31
0.0
  0
LINE
  5
22F
100
AcDbEntity
  8
ZUWAKU
  6
CONTINUOUS
 62
      32
100
AcDbLine
 10
207.0
 20
237.64285568
 30
0.0
 11
199.61605773
 21
230.25891341
 31
0.0
  0
LINE
  5
230
100
AcDbEntity
  8
ZUWAKU
  6
CONTINUOUS
 62
      32
100
AcDbLine
 10
207.0
 20
237.07717026
 30
0.0
 11
200.18174315
 21
230.25891341
 31
0.0
  0
LINE
  5
231
100
AcDbEntity
  8
ZUWAKU
  6
CONTINUOUS
 62
      32
100
AcDbLine
 10
207.0
 20
236.51148483
 30
0.0
 11
200.74742858
 21
230.25891341
 31
0.0
  0
LINE
  5
232
100
AcDbEntity
  8
ZUWAKU
  6
CONTINUOUS
 62
      32
100
AcDbLine
 10
207.0
 20
235.94579941
 30
0.0
 11
201.313114
 21
230.25891341
 31
0.0
  0
LINE
  5
233
100
AcDbEntity
  8
ZUWAKU
  6
CONTINUOUS
 62
      32
100
AcDbLine
 10
207.0
 20
235.38011398
 30
0.0
 11
201.87879943
 21
230.25891341
 31
0.0
  0
LINE
  5
234
100
AcDbEntity
  8
ZUWAKU
  6
CONTINUOUS
 62
      32
100
AcDbLine
 10
207.0
 20
234.81442856
 30
0.0
 11
202.44448485
 21
230.25891341
 31
0.0
  0
LINE
  5
235
100
AcDbEntity
  8
ZUWAKU
  6
CONTINUOUS
 62
      32
100
AcDbLine
 10
207.0
 20
234.24874313
 30
0.0
 11
203.01017028
 21
230.25891341
 31
0.0
  0
LINE
  5
236
100
AcDbEntity
  8
ZUWAKU
  6
CONTINUOUS
 62
      32
100
AcDbLine
 10
207.0
 20
233.68305771
 30
0.0
 11
203.5758557
 21
230.25891341
 31
0.0
  0
LINE
  5
237
100
AcDbEntity
  8
ZUWAKU
  6
CONTINUOUS
 62
      32
100
AcDbLine
 10
207.0
 20
233.11737228
 30
0.0
 11
204.14154113
 21
230.25891341
 31
0.0
  0
LINE
  5
238
100
AcDbEntity
  8
ZUWAKU
  6
CONTINUOUS
 62
      32
100
AcDbLine
 10
207.0
 20
232.55168686
 30
0.0
 11
204.70722655
 21
230.25891341
 31
0.0
  0
LINE
  5
239
100
AcDbEntity
  8
ZUWAKU
  6
CONTINUOUS
 62
      32
100
AcDbLine
 10
207.0
 20
231.98600143
 30
0.0
 11
205.27291198
 21
230.25891341
 31
0.0
  0
LINE
  5
23A
100
AcDbEntity
  8
ZUWAKU
  6
CONTINUOUS
 62
      32
100
AcDbLine
 10
207.0
 20
231.42031601
 30
0.0
 11
205.8385974
 21
230.25891341
 31
0.0
  0
LINE
  5
23B
100
AcDbEntity
  8
ZUWAKU
  6
CONTINUOUS
 62
      32
100
AcDbLine
 10
207.0
 20
230.85463058
 30
0.0
 11
206.40428283
 21
230.25891341
 31
0.0
  0
LINE
  5
23C
100
AcDbEntity
  8
ZUWAKU
  6
CONTINUOUS
 62
      32
100
AcDbLine
 10
207.0
 20
230.28894516
 30
0.0
 11
206.96996825
 21
230.25891341
 31
0.0
  0
LINE
  5
23D
100
AcDbEntity
  8
ZUWAKU
  6
CONTINUOUS
 62
      32
100
AcDbLine
 10
-162.5
 20
279.38391341
 30
0.0
 11
-164.19508696
 21
282.38291341
 31
0.0
  0
LINE
  5
23E
100
AcDbEntity
  8
ZUWAKU
  6
CONTINUOUS
 62
      32
100
AcDbLine
 10
-170.95111165
 20
285.00891341
 30
0.0
 11
-170.74277832
 21
285.63391341
 31
0.0
  0
LINE
  5
23F
100
AcDbEntity
  8
ZUWAKU
  6
CONTINUOUS
 62
      32
100
AcDbLine
 10
-155.02059538
 20
280.12361572
 30
0.0
 11
-155.248
 21
280.00991341
 31
0.0
  0
LINE
  5
240
100
AcDbEntity
  8
ZUWAKU
  6
CONTINUOUS
 62
      32
100
AcDbLine
 10
-154.875
 20
279.38391341
 30
0.0
 11
-153.825
 21
280.43391341
 31
0.0
  0
LINE
  5
241
100
AcDbEntity
  8
ZUWAKU
  6
CONTINUOUS
 62
      32
100
AcDbLine
 10
-154.0
 20
279.38391341
 30
0.0
 11
-153.825
 21
280.43391341
 31
0.0
  0
LINE
  5
242
100
AcDbEntity
  8
ZUWAKU
  6
CONTINUOUS
 62
      32
100
AcDbLine
 10
-149.375
 20
280.25891341
 30
0.0
 11
-149.375
 21
280.00991341
 31
0.0
  0
LINE
  5
243
100
AcDbEntity
  8
ZUWAKU
  6
CONTINUOUS
 62
      32
100
AcDbLine
 10
-143.84495891
 20
279.38391341
 30
0.0
 11
-146.125
 21
279.38391341
 31
0.0
  0
LINE
  5
244
100
AcDbEntity
  8
ZUWAKU
  6
CONTINUOUS
 62
      32
100
AcDbLine
 10
-147.35693505
 20
280.27472025
 30
0.0
 11
-148.375
 21
279.38391341
 31
0.0
  0
LINE
  5
245
100
AcDbEntity
  8
ZUWAKU
  6
CONTINUOUS
 62
      32
100
AcDbLine
 10
-140.13350399
 20
279.38391341
 30
0.0
 11
-142.75
 21
279.38391341
 31
0.0
  0
LINE
  5
246
100
AcDbEntity
  8
ZUWAKU
  6
CONTINUOUS
 62
      32
100
AcDbLine
 10
-166.20275
 20
280.00991341
 30
0.0
 11
-164.328125
 21
285.00891341
 31
0.0
  0
LINE
  5
247
100
AcDbEntity
  8
ZUWAKU
  6
CONTINUOUS
 62
      32
100
AcDbLine
 10
-164.40955671
 20
283.00891341
 30
0.0
 11
-161.48364431
 21
283.00891341
 31
0.0
  0
LINE
  5
248
100
AcDbEntity
  8
ZUWAKU
  6
CONTINUOUS
 62
      32
100
AcDbLine
 10
-145.57954545
 20
280.88391341
 30
0.0
 11
-146.0
 21
280.88391341
 31
0.0
  0
LINE
  5
249
100
AcDbEntity
  8
ZUWAKU
  6
CONTINUOUS
 62
      32
100
AcDbLine
 10
-146.0
 20
280.88391341
 30
0.0
 11
-146.41322822
 21
280.88391341
 31
0.0
  0
LINE
  5
24A
100
AcDbEntity
  8
ZUWAKU
  6
CONTINUOUS
 62
      32
100
AcDbLine
 10
-150.0694896
 20
279.38391341
 30
0.0
 11
-148.375
 21
279.38391341
 31
0.0
  0
CIRCLE
  5
24B
100
AcDbEntity
  8
ZUWAKU
  6
CONTINUOUS
 62
      32
100
AcDbCircle
 10
-152.81615048
 20
282.88391341
 30
0.0
 40
0.37865048
  0
LINE
  5
24C
100
AcDbEntity
  8
ZUWAKU
  6
CONTINUOUS
 62
      32
100
AcDbLine
 10
-165.734375
 20
285.00891341
 30
0.0
 11
-164.328125
 21
285.00891341
 31
0.0
  0
LINE
  5
24D
100
AcDbEntity
  8
ZUWAKU
  6
CONTINUOUS
 62
      32
100
AcDbLine
 10
-163.65955671
 20
285.00891341
 30
0.0
 11
-161.48364431
 21
285.00891341
 31
0.0
  0
LINE
  5
24E
100
AcDbEntity
  8
ZUWAKU
  6
CONTINUOUS
 62
      32
100
AcDbLine
 10
-167.875
 20
279.38391341
 30
0.0
 11
-167.64025
 21
280.00991341
 31
0.0
  0
LINE
  5
24F
100
AcDbEntity
  8
ZUWAKU
  6
CONTINUOUS
 62
      32
100
AcDbLine
 10
-165.734375
 20
285.00891341
 30
0.0
 11
-165.5
 21
285.63391341
 31
0.0
  0
LINE
  5
250
100
AcDbEntity
  8
ZUWAKU
  6
CONTINUOUS
 62
      32
100
AcDbLine
 10
-166.04717694
 20
285.00891341
 30
0.0
 11
-165.81280194
 21
285.63391341
 31
0.0
  0
LINE
  5
251
100
AcDbEntity
  8
ZUWAKU
  6
CONTINUOUS
 62
      32
100
AcDbLine
 10
-161.48364431
 20
285.63391341
 30
0.0
 11
-165.5
 21
285.63391341
 31
0.0
  0
LINE
  5
252
100
AcDbEntity
  8
ZUWAKU
  6
CONTINUOUS
 62
      32
100
AcDbLine
 10
-165.81280194
 20
285.63391341
 30
0.0
 11
-166.4066207
 21
285.63391341
 31
0.0
  0
LINE
  5
253
100
AcDbEntity
  8
ZUWAKU
  6
CONTINUOUS
 62
      32
100
AcDbLine
 10
-166.6409957
 20
285.00891341
 30
0.0
 11
-166.04717694
 21
285.00891341
 31
0.0
  0
LINE
  5
254
100
AcDbEntity
  8
ZUWAKU
  6
CONTINUOUS
 62
      32
100
AcDbLine
 10
-166.86870059
 20
285.00891341
 30
0.0
 11
-166.63432559
 21
285.63391341
 31
0.0
  0
LINE
  5
255
100
AcDbEntity
  8
ZUWAKU
  6
CONTINUOUS
 62
      32
100
AcDbLine
 10
-166.63432559
 20
285.63391341
 30
0.0
 11
-167.1320847
 21
285.63391341
 31
0.0
  0
LINE
  5
256
100
AcDbEntity
  8
ZUWAKU
  6
CONTINUOUS
 62
      32
100
AcDbLine
 10
-167.3664597
 20
285.00891341
 30
0.0
 11
-166.86870059
 21
285.00891341
 31
0.0
  0
LINE
  5
257
100
AcDbEntity
  8
ZUWAKU
  6
CONTINUOUS
 62
      32
100
AcDbLine
 10
-167.3664597
 20
285.00891341
 30
0.0
 11
-167.1320847
 21
285.63391341
 31
0.0
  0
LINE
  5
258
100
AcDbEntity
  8
ZUWAKU
  6
CONTINUOUS
 62
      32
100
AcDbLine
 10
-167.55705836
 20
285.63391341
 30
0.0
 11
-168.0448246
 21
285.63391341
 31
0.0
  0
LINE
  5
259
100
AcDbEntity
  8
ZUWAKU
  6
CONTINUOUS
 62
      32
100
AcDbLine
 10
-168.2791996
 20
285.00891341
 30
0.0
 11
-167.79143336
 21
285.00891341
 31
0.0
  0
LINE
  5
25A
100
AcDbEntity
  8
ZUWAKU
  6
CONTINUOUS
 62
      32
100
AcDbLine
 10
-168.2791996
 20
285.00891341
 30
0.0
 11
-168.0448246
 21
285.63391341
 31
0.0
  0
LINE
  5
25B
100
AcDbEntity
  8
ZUWAKU
  6
CONTINUOUS
 62
      32
100
AcDbLine
 10
-166.6409957
 20
285.00891341
 30
0.0
 11
-166.4066207
 21
285.63391341
 31
0.0
  0
LINE
  5
25C
100
AcDbEntity
  8
ZUWAKU
  6
CONTINUOUS
 62
      32
100
AcDbLine
 10
-167.79143336
 20
285.00891341
 30
0.0
 11
-167.55705836
 21
285.63391341
 31
0.0
  0
LINE
  5
25D
100
AcDbEntity
  8
ZUWAKU
  6
CONTINUOUS
 62
      32
100
AcDbLine
 10
-168.64452903
 20
285.00891341
 30
0.0
 11
-168.41015403
 21
285.63391341
 31
0.0
  0
LINE
  5
25E
100
AcDbEntity
  8
ZUWAKU
  6
CONTINUOUS
 62
      32
100
AcDbLine
 10
-168.41015403
 20
285.63391341
 30
0.0
 11
-168.8611413
 21
285.63391341
 31
0.0
  0
LINE
  5
25F
100
AcDbEntity
  8
ZUWAKU
  6
CONTINUOUS
 62
      32
100
AcDbLine
 10
-169.0955163
 20
285.00891341
 30
0.0
 11
-168.64452903
 21
285.00891341
 31
0.0
  0
LINE
  5
260
100
AcDbEntity
  8
ZUWAKU
  6
CONTINUOUS
 62
      32
100
AcDbLine
 10
-169.0955163
 20
285.00891341
 30
0.0
 11
-168.8611413
 21
285.63391341
 31
0.0
  0
LINE
  5
261
100
AcDbEntity
  8
ZUWAKU
  6
CONTINUOUS
 62
      32
100
AcDbLine
 10
-169.47728507
 20
285.00891341
 30
0.0
 11
-169.24291007
 21
285.63391341
 31
0.0
  0
LINE
  5
262
100
AcDbEntity
  8
ZUWAKU
  6
CONTINUOUS
 62
      32
100
AcDbLine
 10
-169.24291007
 20
285.63391341
 30
0.0
 11
-169.64395174
 21
285.63391341
 31
0.0
  0
LINE
  5
263
100
AcDbEntity
  8
ZUWAKU
  6
CONTINUOUS
 62
      32
100
AcDbLine
 10
-169.85228507
 20
285.00891341
 30
0.0
 11
-169.47728507
 21
285.00891341
 31
0.0
  0
LINE
  5
264
100
AcDbEntity
  8
ZUWAKU
  6
CONTINUOUS
 62
      32
100
AcDbLine
 10
-169.85228507
 20
285.00891341
 30
0.0
 11
-169.64395174
 21
285.63391341
 31
0.0
  0
LINE
  5
265
100
AcDbEntity
  8
ZUWAKU
  6
CONTINUOUS
 62
      32
100
AcDbLine
 10
-170.2516301
 20
285.00891341
 30
0.0
 11
-170.04329677
 21
285.63391341
 31
0.0
  0
LINE
  5
266
100
AcDbEntity
  8
ZUWAKU
  6
CONTINUOUS
 62
      32
100
AcDbLine
 10
-170.57611165
 20
285.00891341
 30
0.0
 11
-170.36777832
 21
285.63391341
 31
0.0
  0
LINE
  5
267
100
AcDbEntity
  8
ZUWAKU
  6
CONTINUOUS
 62
      32
100
AcDbLine
 10
-171.18027832
 20
285.00891341
 30
0.0
 11
-170.97194498
 21
285.63391341
 31
0.0
  0
LINE
  5
268
100
AcDbEntity
  8
ZUWAKU
  6
CONTINUOUS
 62
      32
100
AcDbLine
 10
-171.57611165
 20
285.00891341
 30
0.0
 11
-171.36777832
 21
285.63391341
 31
0.0
  0
LINE
  5
269
100
AcDbEntity
  8
ZUWAKU
  6
CONTINUOUS
 62
      32
100
AcDbLine
 10
-171.68027832
 20
285.00891341
 30
0.0
 11
-171.47194498
 21
285.63391341
 31
0.0
  0
LINE
  5
26A
100
AcDbEntity
  8
ZUWAKU
  6
CONTINUOUS
 62
      32
100
AcDbLine
 10
-170.04329677
 20
285.63391341
 30
0.0
 11
-170.36777832
 21
285.63391341
 31
0.0
  0
LINE
  5
26B
100
AcDbEntity
  8
ZUWAKU
  6
CONTINUOUS
 62
      32
100
AcDbLine
 10
-170.57611165
 20
285.00891341
 30
0.0
 11
-170.2516301
 21
285.00891341
 31
0.0
  0
LINE
  5
26C
100
AcDbEntity
  8
ZUWAKU
  6
CONTINUOUS
 62
      32
100
AcDbLine
 10
-170.74277832
 20
285.63391341
 30
0.0
 11
-170.97194498
 21
285.63391341
 31
0.0
  0
LINE
  5
26D
100
AcDbEntity
  8
ZUWAKU
  6
CONTINUOUS
 62
      32
100
AcDbLine
 10
-171.36777832
 20
285.63391341
 30
0.0
 11
-171.47194498
 21
285.63391341
 31
0.0
  0
LINE
  5
26E
100
AcDbEntity
  8
ZUWAKU
  6
CONTINUOUS
 62
      32
100
AcDbLine
 10
-171.18027832
 20
285.00891341
 30
0.0
 11
-170.95111165
 21
285.00891341
 31
0.0
  0
LINE
  5
26F
100
AcDbEntity
  8
ZUWAKU
  6
CONTINUOUS
 62
      32
100
AcDbLine
 10
-171.57611165
 20
285.00891341
 30
0.0
 11
-171.68027832
 21
285.00891341
 31
0.0
  0
ARC
  5
270
100
AcDbEntity
  8
ZUWAKU
  6
CONTINUOUS
 62
      32
100
AcDbCircle
 10
-161.48364431
 20
284.00891341
 30
0.0
 40
1.0
100
AcDbArc
 50
270.0
 51
450.0
  0
LINE
  5
271
100
AcDbEntity
  8
ZUWAKU
  6
CONTINUOUS
 62
      32
100
AcDbLine
 10
-167.64025
 20
280.00991341
 30
0.0
 11
-166.20275
 21
280.00991341
 31
0.0
  0
LINE
  5
272
100
AcDbEntity
  8
ZUWAKU
  6
CONTINUOUS
 62
      32
100
AcDbLine
 10
-167.875
 20
279.38391341
 30
0.0
 11
-165.76893171
 21
279.38391341
 31
0.0
  0
LINE
  5
273
100
AcDbEntity
  8
ZUWAKU
  6
CONTINUOUS
 62
      32
100
AcDbLine
 10
-165.76893171
 20
279.38391341
 30
0.0
 11
-164.64430671
 21
282.38291341
 31
0.0
  0
LINE
  5
274
100
AcDbEntity
  8
ZUWAKU
  6
CONTINUOUS
 62
      32
100
AcDbLine
 10
-164.40955671
 20
283.00891341
 30
0.0
 11
-163.65955671
 21
285.00891341
 31
0.0
  0
LINE
  5
275
100
AcDbEntity
  8
ZUWAKU
  6
CONTINUOUS
 62
      32
100
AcDbLine
 10
-164.64430671
 20
282.38291341
 30
0.0
 11
-164.19508696
 21
282.38291341
 31
0.0
  0
LINE
  5
276
100
AcDbEntity
  8
ZUWAKU
  6
CONTINUOUS
 62
      32
100
AcDbLine
 10
-163.47601193
 20
282.38291341
 30
0.0
 11
-161.48364431
 21
282.38291341
 31
0.0
  0
LINE
  5
277
100
AcDbEntity
  8
ZUWAKU
  6
CONTINUOUS
 62
      32
100
AcDbLine
 10
-162.13475106
 20
280.00991341
 30
0.0
 11
-163.47601193
 21
282.38291341
 31
0.0
  0
ARC
  5
278
100
AcDbEntity
  8
ZUWAKU
  6
CONTINUOUS
 62
      32
100
AcDbCircle
 10
-161.48364431
 20
284.00891341
 30
0.0
 40
1.625
100
AcDbArc
 50
270.0
 51
450.0
  0
ELLIPSE
  5
279
100
AcDbEntity
  8
ZUWAKU
  6
CONTINUOUS
 62
      32
100
AcDbEllipse
 10
-159.41323113
 20
280.79303323
 30
0.0
 11
-0.1646373265498653
 21
-0.3018350986746441
 31
0.0
210
0.0
220
0.0
230
1.0
 40
0.75209874
 41
0.0
 42
6.2831853071796004
  0
LINE
  5
27A
100
AcDbEntity
  8
ZUWAKU
  6
CONTINUOUS
 62
      32
100
AcDbLine
 10
-162.5
 20
279.38391341
 30
0.0
 11
-160.25
 21
279.38391341
 31
0.0
  0
ELLIPSE
  5
27B
100
AcDbEntity
  8
ZUWAKU
  6
CONTINUOUS
 62
      32
100
AcDbEllipse
 10
-159.41323113
 20
280.79303323
 30
0.0
 11
-0.5259978484020849
 21
-0.9643293887368145
 31
0.0
210
0.0
220
0.0
230
1.0
 40
0.75209874
 41
1.1633802511780513
 42
5.8601607076995652
  0
LINE
  5
27C
100
AcDbEntity
  8
ZUWAKU
  6
CONTINUOUS
 62
      32
100
AcDbLine
 10
-162.13475106
 20
280.00991341
 30
0.0
 11
-160.28754807
 21
280.00991341
 31
0.0
  0
ARC
  5
27D
100
AcDbEntity
  8
ZUWAKU
  6
CONTINUOUS
 62
      32
100
AcDbCircle
 10
-160.47375881
 20
281.41384847
 30
0.0
 40
1.41623024
100
AcDbArc
 50
277.55531967
 51
282.61004677
  0
ARC
  5
27E
100
AcDbEntity
  8
ZUWAKU
  6
CONTINUOUS
 62
      32
100
AcDbCircle
 10
-160.47375881
 20
281.41384847
 30
0.0
 40
2.04223024
100
AcDbArc
 50
276.29029269
 51
293.79815684
  0
ARC
  5
27F
100
AcDbEntity
  8
ZUWAKU
  6
CONTINUOUS
 62
      32
100
AcDbCircle
 10
-160.47375881
 20
281.41384847
 30
0.0
 40
2.04223024
100
AcDbArc
 50
316.57125834
 51
318.01426788
  0
ARC
  5
280
100
AcDbEntity
  8
ZUWAKU
  6
CONTINUOUS
 62
      32
100
AcDbCircle
 10
-159.00692939
 20
280.74122139
 30
0.0
 40
1.35773768
100
AcDbArc
 50
209.3318227
 51
211.50126528
  0
ARC
  5
281
100
AcDbEntity
  8
ZUWAKU
  6
CONTINUOUS
 62
      32
100
AcDbCircle
 10
-159.00692939
 20
280.74122139
 30
0.0
 40
1.35773768
100
AcDbArc
 50
241.74457829
 51
270.0
  0
ELLIPSE
  5
282
100
AcDbEntity
  8
ZUWAKU
  6
CONTINUOUS
 62
      32
100
AcDbEllipse
 10
-156.21657119
 20
281.63360255
 30
0.0
 11
-0.2740860923244384
 21
-0.5653025654192447
 31
0.0
210
0.0
220
0.0
230
1.0
 40
0.44219156
 41
0.0
 42
6.2831853071796004
  0
ARC
  5
283
100
AcDbEntity
  8
ZUWAKU
  6
CONTINUOUS
 62
      32
100
AcDbCircle
 10
-155.64011141
 20
281.79901687
 30
0.0
 40
2.42821367
100
AcDbArc
 50
241.28311564
 51
264.0434522
  0
LINE
  5
284
100
AcDbEntity
  8
ZUWAKU
  6
CONTINUOUS
 62
      32
100
AcDbLine
 10
-159.00692939
 20
279.38391341
 30
0.0
 11
-157.59823553
 21
279.38391341
 31
0.0
  0
ARC
  5
285
100
AcDbEntity
  8
ZUWAKU
  6
CONTINUOUS
 62
      32
100
AcDbCircle
 10
-155.64011141
 20
281.79901687
 30
0.0
 40
1.80221367
100
AcDbArc
 50
251.08708107
 51
263.08482824
  0
ARC
  5
286
100
AcDbEntity
  8
ZUWAKU
  6
CONTINUOUS
 62
      32
100
AcDbCircle
 10
-158.12959748
 20
282.09609636
 30
0.0
 40
2.13774418
100
AcDbArc
 50
282.60950936
 51
291.93126974
  0
ELLIPSE
  5
287
100
AcDbEntity
  8
ZUWAKU
  6
CONTINUOUS
 62
      32
100
AcDbEllipse
 10
-156.21657119
 20
281.63360255
 30
0.0
 11
-0.8756744163720214
 21
-1.8060784837676351
 31
0.0
210
0.0
220
0.0
230
1.0
 40
0.44219156
 41
1.162166382047795
 42
5.8906096214263082
  0
LINE
  5
288
100
AcDbEntity
  8
ZUWAKU
  6
CONTINUOUS
 62
      32
100
AcDbLine
 10
-158.99063012
 20
280.00991341
 30
0.0
 11
-157.66291679
 21
280.00991341
 31
0.0
  0
ARC
  5
289
100
AcDbEntity
  8
ZUWAKU
  6
CONTINUOUS
 62
      32
100
AcDbCircle
 10
-158.12959748
 20
282.09609636
 30
0.0
 40
2.76374418
100
AcDbArc
 50
313.58286141
 51
326.24939265
  0
ARC
  5
28A
100
AcDbEntity
  8
ZUWAKU
  6
CONTINUOUS
 62
      32
100
AcDbCircle
 10
-158.12959748
 20
282.09609636
 30
0.0
 40
2.76374418
100
AcDbArc
 50
281.08479974
 51
298.5950739
  0
LINE
  5
28B
100
AcDbEntity
  8
ZUWAKU
  6
CONTINUOUS
 62
      32
100
AcDbLine
 10
-155.89209735
 20
279.38391341
 30
0.0
 11
-154.875
 21
279.38391341
 31
0.0
  0
LINE
  5
28C
100
AcDbEntity
  8
ZUWAKU
  6
CONTINUOUS
 62
      32
100
AcDbLine
 10
-155.02059538
 20
280.12361572
 30
0.0
 11
-153.31963505
 21
281.82457605
 31
0.0
  0
LINE
  5
28D
100
AcDbEntity
  8
ZUWAKU
  6
CONTINUOUS
 62
      32
100
AcDbLine
 10
-153.26103178
 20
280.00991341
 30
0.0
 11
-152.98600295
 21
281.6600864
 31
0.0
  0
LINE
  5
28E
100
AcDbEntity
  8
ZUWAKU
  6
CONTINUOUS
 62
      32
100
AcDbLine
 10
-155.85709742
 20
280.00991341
 30
0.0
 11
-155.248
 21
280.00991341
 31
0.0
  0
ARC
  5
28F
100
AcDbEntity
  8
ZUWAKU
  6
CONTINUOUS
 62
      32
100
AcDbCircle
 10
-153.17759649
 20
281.69201865
 30
0.0
 40
0.19428437
100
AcDbArc
 50
350.53767779
 51
496.97750576
  0
ELLIPSE
  5
290
100
AcDbEntity
  8
ZUWAKU
  6
CONTINUOUS
 62
      32
100
AcDbEllipse
 10
-150.52529965
 20
280.55987607
 30
0.0
 11
-0.1823632599534619
 21
-0.3071381220268563
 31
0.0
210
0.0
220
0.0
230
1.0
 40
0.58819821
 41
0.0
 42
6.2831853071796004
  0
LINE
  5
291
100
AcDbEntity
  8
ZUWAKU
  6
CONTINUOUS
 62
      32
100
AcDbLine
 10
-152.60093184
 20
280.00991341
 30
0.0
 11
-151.55905199
 21
280.51034389
 31
0.0
  0
LINE
  5
292
100
AcDbEntity
  8
ZUWAKU
  6
CONTINUOUS
 62
      32
100
AcDbLine
 10
-152.5
 20
279.38391341
 30
0.0
 11
-151.62770117
 21
279.77043988
 31
0.0
  0
LINE
  5
293
100
AcDbEntity
  8
ZUWAKU
  6
CONTINUOUS
 62
      32
100
AcDbLine
 10
-153.26103178
 20
280.00991341
 30
0.0
 11
-152.60093184
 21
280.00991341
 31
0.0
  0
LINE
  5
294
100
AcDbEntity
  8
ZUWAKU
  6
CONTINUOUS
 62
      32
100
AcDbLine
 10
-150.36125176
 20
279.66595016
 30
0.0
 11
-150.0694896
 21
279.38391341
 31
0.0
  0
LINE
  5
295
100
AcDbEntity
  8
ZUWAKU
  6
CONTINUOUS
 62
      32
100
AcDbLine
 10
-149.375
 20
280.00991341
 30
0.0
 11
-148.49557552
 21
280.00991341
 31
0.0
  0
LINE
  5
296
100
AcDbEntity
  8
ZUWAKU
  6
CONTINUOUS
 62
      32
100
AcDbLine
 10
-146.49671837
 20
281.75891341
 30
0.0
 11
-148.49557552
 21
280.00991341
 31
0.0
  0
ELLIPSE
  5
297
100
AcDbEntity
  8
ZUWAKU
  6
CONTINUOUS
 62
      32
100
AcDbEllipse
 10
-150.65574459
 20
280.485908
 30
0.0
 11
-0.7943704187739229
 21
-0.9841655794533608
 31
0.0
210
0.0
220
0.0
230
1.0
 40
0.63020876
 41
2.7713952963881434
 42
5.1608192210644299
  0
ELLIPSE
  5
298
100
AcDbEntity
  8
ZUWAKU
  6
CONTINUOUS
 62
      32
100
AcDbEllipse
 10
-150.65574459
 20
280.485908
 30
0.0
 11
-0.7943704187739229
 21
-0.9841655794533608
 31
0.0
210
0.0
220
0.0
230
1.0
 40
0.63020876
 41
5.8878630804447303
 42
7.4876029260781634
  0
LINE
  5
299
100
AcDbEntity
  8
ZUWAKU
  6
CONTINUOUS
 62
      32
100
AcDbLine
 10
-149.53957958
 20
281.6381051
 30
0.0
 11
-148.87347575
 21
281.6381051
 31
0.0
  0
LINE
  5
29A
100
AcDbEntity
  8
ZUWAKU
  6
CONTINUOUS
 62
      32
100
AcDbLine
 10
-149.69078926
 20
281.22227849
 30
0.0
 11
-149.53957958
 21
281.6381051
 31
0.0
  0
LINE
  5
29B
100
AcDbEntity
  8
ZUWAKU
  6
CONTINUOUS
 62
      32
100
AcDbLine
 10
-149.375
 20
280.25891341
 30
0.0
 11
-148.87347575
 21
281.6381051
 31
0.0
  0
LINE
  5
29C
100
AcDbEntity
  8
ZUWAKU
  6
CONTINUOUS
 62
      32
100
AcDbLine
 10
-147.6737039
 20
279.40360591
 30
0.0
 11
-147.35693505
 21
280.27472025
 31
0.0
  0
LINE
  5
29D
100
AcDbEntity
  8
ZUWAKU
  6
CONTINUOUS
 62
      32
100
AcDbLine
 10
-146.41322822
 20
280.88391341
 30
0.0
 11
-146.95868276
 21
279.38391341
 31
0.0
  0
LINE
  5
29E
100
AcDbEntity
  8
ZUWAKU
  6
CONTINUOUS
 62
      32
100
AcDbLine
 10
-146.125
 20
279.38391341
 30
0.0
 11
-145.57954545
 21
280.88391341
 31
0.0
  0
LINE
  5
29F
100
AcDbEntity
  8
ZUWAKU
  6
CONTINUOUS
 62
      32
100
AcDbLine
 10
-144.66758062
 20
281.36056671
 30
0.0
 11
-145.15872727
 21
280.00991341
 31
0.0
  0
LINE
  5
2A0
100
AcDbEntity
  8
ZUWAKU
  6
CONTINUOUS
 62
      32
100
AcDbLine
 10
-144.87541369
 20
281.75891341
 30
0.0
 11
-144.66758062
 21
281.36056671
 31
0.0
  0
LINE
  5
2A1
100
AcDbEntity
  8
ZUWAKU
  6
CONTINUOUS
 62
      32
100
AcDbLine
 10
-146.24680263
 20
281.38711078
 30
0.0
 11
-146.12383404
 21
281.75891341
 31
0.0
  0
LINE
  5
2A2
100
AcDbEntity
  8
ZUWAKU
  6
CONTINUOUS
 62
      32
100
AcDbLine
 10
-146.24680263
 20
281.38711078
 30
0.0
 11
-145.58090546
 21
281.75891341
 31
0.0
  0
LINE
  5
2A3
100
AcDbEntity
  8
ZUWAKU
  6
CONTINUOUS
 62
      32
100
AcDbLine
 10
-144.87541369
 20
281.75891341
 30
0.0
 11
-145.58090546
 21
281.75891341
 31
0.0
  0
LINE
  5
2A4
100
AcDbEntity
  8
ZUWAKU
  6
CONTINUOUS
 62
      32
100
AcDbLine
 10
-146.12383404
 20
281.75891341
 30
0.0
 11
-146.49671837
 21
281.75891341
 31
0.0
  0
ELLIPSE
  5
2A5
100
AcDbEntity
  8
ZUWAKU
  6
CONTINUOUS
 62
      32
100
AcDbEllipse
 10
-139.29673512
 20
280.79303323
 30
0.0
 11
-0.1646373265498653
 21
-0.3018350986746441
 31
0.0
210
0.0
220
0.0
230
1.0
 40
0.75209874
 41
0.0
 42
6.2831853071796004
  0
ELLIPSE
  5
2A6
100
AcDbEntity
  8
ZUWAKU
  6
CONTINUOUS
 62
      32
100
AcDbEllipse
 10
-139.29673512
 20
280.79303323
 30
0.0
 11
-0.5259978484020849
 21
-0.9643293887368145
 31
0.0
210
0.0
220
0.0
230
1.0
 40
0.75209874
 41
1.1633802511780513
 42
5.8601607076995652
  0
ARC
  5
2A7
100
AcDbEntity
  8
ZUWAKU
  6
CONTINUOUS
 62
      32
100
AcDbCircle
 10
-140.35726281
 20
281.41384847
 30
0.0
 40
1.41623024
100
AcDbArc
 50
277.55531967
 51
282.61004677
  0
ARC
  5
2A8
100
AcDbEntity
  8
ZUWAKU
  6
CONTINUOUS
 62
      32
100
AcDbCircle
 10
-140.35726281
 20
281.41384847
 30
0.0
 40
2.04223024
100
AcDbArc
 50
276.29029269
 51
293.79815684
  0
ARC
  5
2A9
100
AcDbEntity
  8
ZUWAKU
  6
CONTINUOUS
 62
      32
100
AcDbCircle
 10
-140.35726281
 20
281.41384847
 30
0.0
 40
2.04223024
100
AcDbArc
 50
316.57125834
 51
318.01426788
  0
ARC
  5
2AA
100
AcDbEntity
  8
ZUWAKU
  6
CONTINUOUS
 62
      32
100
AcDbCircle
 10
-138.89043339
 20
280.74122139
 30
0.0
 40
1.35773768
100
AcDbArc
 50
209.3318227
 51
211.50126528
  0
ARC
  5
2AB
100
AcDbEntity
  8
ZUWAKU
  6
CONTINUOUS
 62
      32
100
AcDbCircle
 10
-138.89043339
 20
280.74122139
 30
0.0
 40
1.35773768
100
AcDbArc
 50
241.74457829
 51
270.0
  0
LINE
  5
2AC
100
AcDbEntity
  8
ZUWAKU
  6
CONTINUOUS
 62
      32
100
AcDbLine
 10
-142.34540389
 20
280.00991341
 30
0.0
 11
-140.17105206
 21
280.00991341
 31
0.0
  0
LINE
  5
2AD
100
AcDbEntity
  8
ZUWAKU
  6
CONTINUOUS
 62
      32
100
AcDbLine
 10
-138.89043339
 20
279.38391341
 30
0.0
 11
-137.68668483
 21
279.38391341
 31
0.0
  0
LINE
  5
2AE
100
AcDbEntity
  8
ZUWAKU
  6
CONTINUOUS
 62
      32
100
AcDbLine
 10
-138.87413412
 20
280.00991341
 30
0.0
 11
-137.54642079
 21
280.00991341
 31
0.0
  0
LINE
  5
2AF
100
AcDbEntity
  8
ZUWAKU
  6
CONTINUOUS
 62
      32
100
AcDbLine
 10
-154.0
 20
279.38391341
 30
0.0
 11
-152.5
 21
279.38391341
 31
0.0
  0
LINE
  5
2B0
100
AcDbEntity
  8
ZUWAKU
  6
CONTINUOUS
 62
      32
100
AcDbLine
 10
-147.6737039
 20
279.40360591
 30
0.0
 11
-146.95868276
 21
279.38391341
 31
0.0
  0
LINE
  5
2B1
100
AcDbEntity
  8
ZUWAKU
  6
CONTINUOUS
 62
      32
100
AcDbLine
 10
-145.15872727
 20
280.00991341
 30
0.0
 11
-144.00282144
 21
280.00991341
 31
0.0
  0
LINE
  5
2B2
100
AcDbEntity
  8
ZUWAKU
  6
CONTINUOUS
 62
      32
100
AcDbLine
 10
-141.86965896
 20
280.91110284
 30
0.0
 11
-141.40269166
 21
281.28856808
 31
0.0
  0
ARC
  5
2B3
100
AcDbEntity
  8
ZUWAKU
  6
CONTINUOUS
 62
      32
100
AcDbCircle
 10
-142.34540389
 20
280.58991341
 30
0.0
 40
0.58
100
AcDbArc
 50
34.07537472
 51
270.0
  0
ARC
  5
2B4
100
AcDbEntity
  8
ZUWAKU
  6
CONTINUOUS
 62
      32
100
AcDbCircle
 10
-142.34540389
 20
280.58991341
 30
0.0
 40
1.17338174
100
AcDbArc
 50
36.54256145
 51
190.98612084
  0
LINE
  5
2B5
100
AcDbEntity
  8
ZUWAKU
  6
CONTINUOUS
 62
      32
100
AcDbLine
 10
-143.84495891
 20
279.38391341
 30
0.0
 11
-143.25060792
 21
279.82126603
 31
0.0
  0
LINE
  5
2B6
100
AcDbEntity
  8
ZUWAKU
  6
CONTINUOUS
 62
      32
100
AcDbLine
 10
-143.50473504
 20
280.37642982
 30
0.0
 11
-144.00282144
 21
280.00991341
 31
0.0
  0
LINE
  5
2B7
100
AcDbEntity
  8
ZUWAKU
  6
CONTINUOUS
 62
      32
100
AcDbLine
 10
-143.25060792
 20
279.82126603
 30
0.0
 11
-142.75
 21
279.38391341
 31
0.0
  0
LINE
  5
2B8
100
AcDbEntity
  8
ZUWAKU
  6
CONTINUOUS
 62
      32
100
AcDbLine
 10
-137.54642079
 20
280.00991341
 30
0.0
 11
-137.68668483
 21
279.38391341
 31
0.0
  0
LINE
  5
2B9
100
AcDbEntity
  8
ZUWAKU
  6
CONTINUOUS
 62
      32
100
AcDbLine
 10
-170.78965332
 20
285.49328841
 30
0.0
 11
-171.13340332
 21
285.14953841
 31
0.0
  0
LINE
  5
2BA
100
AcDbEntity
  8
ZUWAKU
  6
CONTINUOUS
 62
      32
100
AcDbLine
 10
-170.06634305
 20
285.56477457
 30
0.0
 11
-170.55306537
 21
285.07805225
 31
0.0
  0
LINE
  5
2BB
100
AcDbEntity
  8
ZUWAKU
  6
CONTINUOUS
 62
      32
100
AcDbLine
 10
-169.24759757
 20
285.62141341
 30
0.0
 11
-169.84837882
 21
285.02063216
 31
0.0
  0
LINE
  5
2BC
100
AcDbEntity
  8
ZUWAKU
  6
CONTINUOUS
 62
      32
100
AcDbLine
 10
-168.44033516
 20
285.63391341
 30
0.0
 11
-169.06533516
 21
285.00891341
 31
0.0
  0
LINE
  5
2BD
100
AcDbEntity
  8
ZUWAKU
  6
CONTINUOUS
 62
      32
100
AcDbLine
 10
-167.60562898
 20
285.63391341
 30
0.0
 11
-168.23062898
 21
285.00891341
 31
0.0
  0
LINE
  5
2BE
100
AcDbEntity
  8
ZUWAKU
  6
CONTINUOUS
 62
      32
100
AcDbLine
 10
-166.68789265
 20
285.63391341
 30
0.0
 11
-167.31289265
 21
285.00891341
 31
0.0
  0
LINE
  5
2BF
100
AcDbEntity
  8
ZUWAKU
  6
CONTINUOUS
 62
      32
100
AcDbLine
 10
-165.91439882
 20
285.63391341
 30
0.0
 11
-166.53939882
 21
285.00891341
 31
0.0
  0
LINE
  5
2C0
100
AcDbEntity
  8
ZUWAKU
  6
CONTINUOUS
 62
      32
100
AcDbLine
 10
-165.69816213
 20
279.57263229
 30
0.0
 11
-165.88688101
 21
279.38391341
 31
0.0
  0
LINE
  5
2C1
100
AcDbEntity
  8
ZUWAKU
  6
CONTINUOUS
 62
      32
100
AcDbLine
 10
-165.35875087
 20
280.47772897
 30
0.0
 11
-166.45256643
 21
279.38391341
 31
0.0
  0
LINE
  5
2C2
100
AcDbEntity
  8
ZUWAKU
  6
CONTINUOUS
 62
      32
100
AcDbLine
 10
-165.01933962
 20
281.38282565
 30
0.0
 11
-166.08904889
 21
280.31311638
 31
0.0
  0
LINE
  5
2C3
100
AcDbEntity
  8
ZUWAKU
  6
CONTINUOUS
 62
      32
100
AcDbLine
 10
-166.39225186
 20
280.00991341
 30
0.0
 11
-167.01825186
 21
279.38391341
 31
0.0
  0
LINE
  5
2C4
100
AcDbEntity
  8
ZUWAKU
  6
CONTINUOUS
 62
      32
100
AcDbLine
 10
-164.67992836
 20
282.28792233
 30
0.0
 11
-165.74963763
 21
281.21821306
 31
0.0
  0
LINE
  5
2C5
100
AcDbEntity
  8
ZUWAKU
  6
CONTINUOUS
 62
      32
100
AcDbLine
 10
-166.95793728
 20
280.00991341
 30
0.0
 11
-167.58393728
 21
279.38391341
 31
0.0
  0
LINE
  5
2C6
100
AcDbEntity
  8
ZUWAKU
  6
CONTINUOUS
 62
      32
100
AcDbLine
 10
-167.52362271
 20
280.00991341
 30
0.0
 11
-167.71022638
 21
279.82330974
 31
0.0
  0
LINE
  5
2C7
100
AcDbEntity
  8
ZUWAKU
  6
CONTINUOUS
 62
      32
100
AcDbLine
 10
-163.59667898
 20
285.63391341
 30
0.0
 11
-164.39199261
 21
284.83859978
 31
0.0
  0
LINE
  5
2C8
100
AcDbEntity
  8
ZUWAKU
  6
CONTINUOUS
 62
      32
100
AcDbLine
 10
-164.16236441
 20
285.63391341
 30
0.0
 11
-164.78736441
 21
285.00891341
 31
0.0
  0
LINE
  5
2C9
100
AcDbEntity
  8
ZUWAKU
  6
CONTINUOUS
 62
      32
100
AcDbLine
 10
-164.72804983
 20
285.63391341
 30
0.0
 11
-165.35304983
 21
285.00891341
 31
0.0
  0
LINE
  5
2CA
100
AcDbEntity
  8
ZUWAKU
  6
CONTINUOUS
 62
      32
100
AcDbLine
 10
-165.29373526
 20
285.63391341
 30
0.0
 11
-165.62375885
 21
285.30388982
 31
0.0
  0
LINE
  5
2CB
100
AcDbEntity
  8
ZUWAKU
  6
CONTINUOUS
 62
      32
100
AcDbLine
 10
-159.55820581
 20
281.75279064
 30
0.0
 11
-160.15658581
 21
281.15441063
 31
0.0
  0
LINE
  5
2CC
100
AcDbEntity
  8
ZUWAKU
  6
CONTINUOUS
 62
      32
100
AcDbLine
 10
-158.95579778
 20
281.78951324
 30
0.0
 11
-160.30411887
 21
280.44119215
 31
0.0
  0
LINE
  5
2CD
100
AcDbEntity
  8
ZUWAKU
  6
CONTINUOUS
 62
      32
100
AcDbLine
 10
-158.51870436
 20
281.09523581
 30
0.0
 11
-160.22740919
 21
279.38653098
 31
0.0
  0
LINE
  5
2CE
100
AcDbEntity
  8
ZUWAKU
  6
CONTINUOUS
 62
      32
100
AcDbLine
 10
-162.46530813
 20
285.63391341
 30
0.0
 11
-163.09030813
 21
285.00891341
 31
0.0
  0
LINE
  5
2CF
100
AcDbEntity
  8
ZUWAKU
  6
CONTINUOUS
 62
      32
100
AcDbLine
 10
-164.00110585
 20
284.09811569
 30
0.0
 11
-165.07081512
 21
283.02840642
 31
0.0
  0
LINE
  5
2D0
100
AcDbEntity
  8
ZUWAKU
  6
CONTINUOUS
 62
      32
100
AcDbLine
 10
-161.89962271
 20
285.63391341
 30
0.0
 11
-162.52462271
 21
285.00891341
 31
0.0
  0
LINE
  5
2D1
100
AcDbEntity
  8
ZUWAKU
  6
CONTINUOUS
 62
      32
100
AcDbLine
 10
-164.34051711
 20
283.19301901
 30
0.0
 11
-165.41022638
 21
282.12330974
 31
0.0
  0
LINE
  5
2D2
100
AcDbEntity
  8
ZUWAKU
  6
CONTINUOUS
 62
      32
100
AcDbLine
 10
-161.34027425
 20
285.62757645
 30
0.0
 11
-161.95893728
 21
285.00891341
 31
0.0
  0
LINE
  5
2D3
100
AcDbEntity
  8
ZUWAKU
  6
CONTINUOUS
 62
      32
100
AcDbLine
 10
-163.95893728
 20
283.00891341
 30
0.0
 11
-164.58493728
 21
282.38291341
 31
0.0
  0
LINE
  5
2D4
100
AcDbEntity
  8
ZUWAKU
  6
CONTINUOUS
 62
      32
100
AcDbLine
 10
-160.88323909
 20
285.51892618
 30
0.0
 11
-161.39701154
 21
285.00515373
 31
0.0
  0
LINE
  5
2D5
100
AcDbEntity
  8
ZUWAKU
  6
CONTINUOUS
 62
      32
100
AcDbLine
 10
-163.39325186
 20
283.00891341
 30
0.0
 11
-164.13159095
 21
282.27057432
 31
0.0
  0
LINE
  5
2D6
100
AcDbEntity
  8
ZUWAKU
  6
CONTINUOUS
 62
      32
100
AcDbLine
 10
-160.51949715
 20
285.3169827
 30
0.0
 11
-160.96972681
 21
284.86675303
 31
0.0
  0
LINE
  5
2D7
100
AcDbEntity
  8
ZUWAKU
  6
CONTINUOUS
 62
      32
100
AcDbLine
 10
-160.22907662
 20
285.0417178
 30
0.0
 11
-160.67440368
 21
284.59639074
 31
0.0
  0
LINE
  5
2D8
100
AcDbEntity
  8
ZUWAKU
  6
CONTINUOUS
 62
      32
100
AcDbLine
 10
-160.01043228
 20
284.69467672
 30
0.0
 11
-160.502569
 21
284.20253999
 31
0.0
  0
LINE
  5
2D9
100
AcDbEntity
  8
ZUWAKU
  6
CONTINUOUS
 62
      32
100
AcDbLine
 10
-159.87833104
 20
284.26109253
 30
0.0
 11
-160.60151217
 21
283.53791139
 31
0.0
  0
LINE
  5
2DA
100
AcDbEntity
  8
ZUWAKU
  6
CONTINUOUS
 62
      32
100
AcDbLine
 10
-163.03099356
 20
285.63391341
 30
0.0
 11
-163.65599356
 21
285.00891341
 31
0.0
  0
LINE
  5
2DB
100
AcDbEntity
  8
ZUWAKU
  6
CONTINUOUS
 62
      32
100
AcDbLine
 10
-163.6616946
 20
285.00321237
 30
0.0
 11
-164.73140387
 21
283.9335031
 31
0.0
  0
LINE
  5
2DC
100
AcDbEntity
  8
ZUWAKU
  6
CONTINUOUS
 62
      32
100
AcDbLine
 10
-162.26188101
 20
283.00891341
 30
0.0
 11
-162.88788101
 21
282.38291341
 31
0.0
  0
LINE
  5
2DD
100
AcDbEntity
  8
ZUWAKU
  6
CONTINUOUS
 62
      32
100
AcDbLine
 10
-163.26363132
 20
282.0071631
 30
0.0
 11
-163.72304036
 21
281.54775406
 31
0.0
  0
LINE
  5
2DE
100
AcDbEntity
  8
ZUWAKU
  6
CONTINUOUS
 62
      32
100
AcDbLine
 10
-162.82756643
 20
283.00891341
 30
0.0
 11
-163.45356643
 21
282.38291341
 31
0.0
  0
LINE
  5
2DF
100
AcDbEntity
  8
ZUWAKU
  6
CONTINUOUS
 62
      32
100
AcDbLine
 10
-163.46790661
 20
282.36857324
 30
0.0
 11
-163.92731566
 21
281.90916419
 31
0.0
  0
LINE
  5
2E0
100
AcDbEntity
  8
ZUWAKU
  6
CONTINUOUS
 62
      32
100
AcDbLine
 10
-161.69619558
 20
283.00891341
 30
0.0
 11
-162.32219558
 21
282.38291341
 31
0.0
  0
LINE
  5
2E1
100
AcDbEntity
  8
ZUWAKU
  6
CONTINUOUS
 62
      32
100
AcDbLine
 10
-163.05935602
 20
281.64575297
 30
0.0
 11
-163.51876507
 21
281.18634392
 31
0.0
  0
LINE
  5
2E2
100
AcDbEntity
  8
ZUWAKU
  6
CONTINUOUS
 62
      32
100
AcDbLine
 10
-161.01264229
 20
283.12678128
 30
0.0
 11
-161.75651016
 21
282.38291341
 31
0.0
  0
LINE
  5
2E3
100
AcDbEntity
  8
ZUWAKU
  6
CONTINUOUS
 62
      32
100
AcDbLine
 10
-162.85508073
 20
281.28434284
 30
0.0
 11
-163.31448978
 21
280.82493379
 31
0.0
  0
LINE
  5
2E4
100
AcDbEntity
  8
ZUWAKU
  6
CONTINUOUS
 62
      32
100
AcDbLine
 10
-159.89190125
 20
283.68183689
 30
0.0
 11
-161.15656779
 21
282.41717036
 31
0.0
  0
LINE
  5
2E5
100
AcDbEntity
  8
ZUWAKU
  6
CONTINUOUS
 62
      32
100
AcDbLine
 10
-162.65080544
 20
280.92293271
 30
0.0
 11
-163.11021449
 21
280.46352366
 31
0.0
  0
LINE
  5
2E6
100
AcDbEntity
  8
ZUWAKU
  6
CONTINUOUS
 62
      32
100
AcDbLine
 10
-162.44653015
 20
280.56152257
 30
0.0
 11
-162.90593919
 21
280.10211353
 31
0.0
  0
LINE
  5
2E7
100
AcDbEntity
  8
ZUWAKU
  6
CONTINUOUS
 62
      32
100
AcDbLine
 10
-162.24225485
 20
280.20011244
 30
0.0
 11
-162.7016639
 21
279.74070339
 31
0.0
  0
LINE
  5
2E8
100
AcDbEntity
  8
ZUWAKU
  6
CONTINUOUS
 62
      32
100
AcDbLine
 10
-161.86676846
 20
280.00991341
 30
0.0
 11
-162.49276846
 21
279.38391341
 31
0.0
  0
LINE
  5
2E9
100
AcDbEntity
  8
ZUWAKU
  6
CONTINUOUS
 62
      32
100
AcDbLine
 10
-161.30108303
 20
280.00991341
 30
0.0
 11
-161.92708303
 21
279.38391341
 31
0.0
  0
LINE
  5
2EA
100
AcDbEntity
  8
ZUWAKU
  6
CONTINUOUS
 62
      32
100
AcDbLine
 10
-160.73539761
 20
280.00991341
 30
0.0
 11
-161.36139761
 21
279.38391341
 31
0.0
  0
LINE
  5
2EB
100
AcDbEntity
  8
ZUWAKU
  6
CONTINUOUS
 62
      32
100
AcDbLine
 10
-158.64868707
 20
281.53093852
 30
0.0
 11
-159.16710388
 21
281.01252171
 31
0.0
  0
LINE
  5
2EC
100
AcDbEntity
  8
ZUWAKU
  6
CONTINUOUS
 62
      32
100
AcDbLine
 10
-159.63793779
 20
280.5416878
 30
0.0
 11
-160.79571218
 21
279.38391341
 31
0.0
  0
LINE
  5
2ED
100
AcDbEntity
  8
ZUWAKU
  6
CONTINUOUS
 62
      32
100
AcDbLine
 10
-155.56918443
 20
283.47907031
 30
0.0
 11
-157.00352256
 21
282.04473218
 31
0.0
  0
LINE
  5
2EE
100
AcDbEntity
  8
ZUWAKU
  6
CONTINUOUS
 62
      32
100
AcDbLine
 10
-158.74222784
 20
280.3060269
 30
0.0
 11
-159.55099602
 21
279.49725872
 31
0.0
  0
LINE
  5
2EF
100
AcDbEntity
  8
ZUWAKU
  6
CONTINUOUS
 62
      32
100
AcDbLine
 10
-155.18055298
 20
283.30201634
 30
0.0
 11
-157.32625725
 21
281.15631207
 31
0.0
  0
LINE
  5
2F0
100
AcDbEntity
  8
ZUWAKU
  6
CONTINUOUS
 62
      32
100
AcDbLine
 10
-158.47265591
 20
280.00991341
 30
0.0
 11
-159.09615091
 21
279.38641841
 31
0.0
  0
LINE
  5
2F1
100
AcDbEntity
  8
ZUWAKU
  6
CONTINUOUS
 62
      32
100
AcDbLine
 10
-157.90697048
 20
280.00991341
 30
0.0
 11
-158.53297048
 21
279.38391341
 31
0.0
  0
LINE
  5
2F2
100
AcDbEntity
  8
ZUWAKU
  6
CONTINUOUS
 62
      32
100
AcDbLine
 10
-155.03970436
 20
282.87717953
 30
0.0
 11
-155.85423575
 21
282.06264814
 31
0.0
  0
LINE
  5
2F3
100
AcDbEntity
  8
ZUWAKU
  6
CONTINUOUS
 62
      32
100
AcDbLine
 10
-156.5866777
 20
281.3302062
 30
0.0
 11
-157.40120909
 21
280.51567481
 31
0.0
  0
LINE
  5
2F4
100
AcDbEntity
  8
ZUWAKU
  6
CONTINUOUS
 62
      32
100
AcDbLine
 10
-155.07223941
 20
282.27895906
 30
0.0
 11
-157.96728506
 21
279.38391341
 31
0.0
  0
LINE
  5
2F5
100
AcDbEntity
  8
ZUWAKU
  6
CONTINUOUS
 62
      32
100
AcDbLine
 10
-155.31792526
 20
281.46758779
 30
0.0
 11
-157.33710072
 21
279.44841233
 31
0.0
  0
LINE
  5
2F6
100
AcDbEntity
  8
ZUWAKU
  6
CONTINUOUS
 62
      32
100
AcDbLine
 10
-153.20347767
 20
281.88457145
 30
0.0
 11
-155.70413571
 21
279.38391341
 31
0.0
  0
LINE
  5
2F7
100
AcDbEntity
  8
ZUWAKU
  6
CONTINUOUS
 62
      32
100
AcDbLine
 10
-153.01059503
 20
283.20882494
 30
0.0
 11
-153.14106201
 21
283.07835796
 31
0.0
  0
LINE
  5
2F8
100
AcDbEntity
  8
ZUWAKU
  6
CONTINUOUS
 62
      32
100
AcDbLine
 10
-156.14921434
 20
280.07020563
 30
0.0
 11
-156.63530826
 21
279.58411171
 31
0.0
  0
LINE
  5
2F9
100
AcDbEntity
  8
ZUWAKU
  6
CONTINUOUS
 62
      32
100
AcDbLine
 10
-152.52624344
 20
283.12749111
 30
0.0
 11
-153.05972817
 21
282.59400637
 31
0.0
  0
LINE
  5
2FA
100
AcDbEntity
  8
ZUWAKU
  6
CONTINUOUS
 62
      32
100
AcDbLine
 10
-155.64382113
 20
280.00991341
 30
0.0
 11
-156.21411258
 21
279.43962197
 31
0.0
  0
LINE
  5
2FB
100
AcDbEntity
  8
ZUWAKU
  6
CONTINUOUS
 62
      32
100
AcDbLine
 10
-150.11331488
 20
281.58062169
 30
0.0
 11
-152.15885961
 21
279.53507697
 31
0.0
  0
LINE
  5
2FC
100
AcDbEntity
  8
ZUWAKU
  6
CONTINUOUS
 62
      32
100
AcDbLine
 10
-152.81539401
 20
280.00991341
 30
0.0
 11
-153.44139401
 21
279.38391341
 31
0.0
  0
LINE
  5
2FD
100
AcDbEntity
  8
ZUWAKU
  6
CONTINUOUS
 62
      32
100
AcDbLine
 10
-153.23702224
 20
280.1539706
 30
0.0
 11
-154.00707943
 21
279.38391341
 31
0.0
  0
LINE
  5
2FE
100
AcDbEntity
  8
ZUWAKU
  6
CONTINUOUS
 62
      32
100
AcDbLine
 10
-153.12388516
 20
280.83279311
 30
0.0
 11
-153.88544703
 21
280.07123124
 31
0.0
  0
LINE
  5
2FF
100
AcDbEntity
  8
ZUWAKU
  6
CONTINUOUS
 62
      32
100
AcDbLine
 10
-155.13845028
 20
279.38391341
 30
0.0
 11
-153.01074807
 21
281.51161562
 31
0.0
  0
LINE
  5
300
100
AcDbEntity
  8
ZUWAKU
  6
CONTINUOUS
 62
      32
100
AcDbLine
 10
-148.92446063
 20
281.6381051
 30
0.0
 11
-151.17488725
 21
279.38767847
 31
0.0
  0
LINE
  5
301
100
AcDbEntity
  8
ZUWAKU
  6
CONTINUOUS
 62
      32
100
AcDbLine
 10
-149.16759035
 20
280.82928995
 30
0.0
 11
-150.34583398
 21
279.65104631
 31
0.0
  0
LINE
  5
302
100
AcDbEntity
  8
ZUWAKU
  6
CONTINUOUS
 62
      32
100
AcDbLine
 10
-149.375
 20
280.05619487
 30
0.0
 11
-150.04728146
 21
279.38391341
 31
0.0
  0
LINE
  5
303
100
AcDbEntity
  8
ZUWAKU
  6
CONTINUOUS
 62
      32
100
AcDbLine
 10
-148.85559603
 20
280.00991341
 30
0.0
 11
-149.48159603
 21
279.38391341
 31
0.0
  0
LINE
  5
304
100
AcDbEntity
  8
ZUWAKU
  6
CONTINUOUS
 62
      32
100
AcDbLine
 10
-146.85025627
 20
281.44956775
 30
0.0
 11
-148.91591061
 21
279.38391341
 31
0.0
  0
LINE
  5
305
100
AcDbEntity
  8
ZUWAKU
  6
CONTINUOUS
 62
      32
100
AcDbLine
 10
-150.96595629
 20
281.29366571
 30
0.0
 11
-151.2874645
 21
280.9721575
 31
0.0
  0
LINE
  5
306
100
AcDbEntity
  8
ZUWAKU
  6
CONTINUOUS
 62
      32
100
AcDbLine
 10
-151.92509315
 20
280.33452885
 30
0.0
 11
-152.87570858
 21
279.38391341
 31
0.0
  0
LINE
  5
307
100
AcDbEntity
  8
ZUWAKU
  6
CONTINUOUS
 62
      32
100
AcDbLine
 10
-150.77499768
 20
280.35325347
 30
0.0
 11
-151.53680885
 21
279.5914423
 31
0.0
  0
LINE
  5
308
100
AcDbEntity
  8
ZUWAKU
  6
CONTINUOUS
 62
      32
100
AcDbLine
 10
-149.49014605
 20
281.6381051
 30
0.0
 11
-149.56782732
 21
281.56042383
 31
0.0
  0
LINE
  5
309
100
AcDbEntity
  8
ZUWAKU
  6
CONTINUOUS
 62
      32
100
AcDbLine
 10
-149.76338911
 20
281.36486203
 30
0.0
 11
-150.30120257
 21
280.82704858
 31
0.0
  0
LINE
  5
30A
100
AcDbEntity
  8
ZUWAKU
  6
CONTINUOUS
 62
      32
100
AcDbLine
 10
-145.38733162
 20
281.75891341
 30
0.0
 11
-146.26233162
 21
280.88391341
 31
0.0
  0
LINE
  5
30B
100
AcDbEntity
  8
ZUWAKU
  6
CONTINUOUS
 62
      32
100
AcDbLine
 10
-146.49945485
 20
280.64679018
 30
0.0
 11
-147.63431234
 21
279.51193269
 31
0.0
  0
TEXT
  5
30C
100
AcDbEntity
  8
ZUWAKU
 62
      32
100
AcDbText
 10
-169.10237531
 20
-276.11608659
 30
0.0
 40
6.8
  1
株式会社
 41
0.6667
 72
       5
 11
-147.34237531
 21
-276.11608659
 31
0.0
100
AcDbText
  0
LINE
  5
30D
100
AcDbEntity
  8
ZUWAKU
  6
CONTINUOUS
 62
       3
100
AcDbLine
 10
-199.22282122
 20
281.82397248
 30
0.0
 11
-199.22980498
 21
281.81698873
 31
0.0
  0
LINE
  5
30E
100
AcDbEntity
  8
ZUWAKU
  6
CONTINUOUS
 62
       3
100
AcDbLine
 10
-199.50785991
 20
281.8217765
 30
0.0
 11
-199.51264769
 21
281.81698873
 31
0.0
  0
LINE
  5
30F
100
AcDbEntity
  8
ZUWAKU
  6
CONTINUOUS
 62
       3
100
AcDbLine
 10
-199.79289861
 20
281.81958052
 30
0.0
 11
-199.7954904
 21
281.81698873
 31
0.0
  0
LINE
  5
310
100
AcDbEntity
  8
ZUWAKU
  6
CONTINUOUS
 62
       3
100
AcDbLine
 10
61.5
 20
287.63391341
 30
0.0
 11
187.75
 21
287.63391341
 31
0.0
  0
LINE
  5
311
100
AcDbEntity
  8
ZUWAKU
  6
CONTINUOUS
 62
       3
100
AcDbLine
 10
61.5
 20
287.63391341
 30
0.0
 11
61.5
 21
267.82163914
 31
0.0
  0
LINE
  5
312
100
AcDbEntity
  8
ZUWAKU
  6
CONTINUOUS
 62
       3
100
AcDbLine
 10
187.75
 20
287.63391341
 30
0.0
 11
187.75
 21
267.82163914
 31
0.0
  0
LINE
  5
313
100
AcDbEntity
  8
ZUWAKU
  6
CONTINUOUS
 62
       3
100
AcDbLine
 10
61.0
 20
-281.24108659
 30
0.0
 11
61.0
 21
-257.11608659
 31
0.0
  0
LINE
  5
314
100
AcDbEntity
  8
ZUWAKU
  6
CONTINUOUS
 62
       3
100
AcDbLine
 10
51.0
 20
-281.24108659
 30
0.0
 11
51.0
 21
-257.11608659
 31
0.0
  0
LINE
  5
315
100
AcDbEntity
  8
ZUWAKU
  6
CONTINUOUS
 62
       3
100
AcDbLine
 10
-74.125
 20
-281.24108659
 30
0.0
 11
-74.125
 21
-257.11608659
 31
0.0
  0
LINE
  5
316
100
AcDbEntity
  8
ZUWAKU
  6
CONTINUOUS
 62
       3
100
AcDbLine
 10
-84.125
 20
-281.24108659
 30
0.0
 11
-84.125
 21
-257.11608659
 31
0.0
  0
POINT
  5
317
100
AcDbEntity
  8
ZUWAKU
  6
CONTINUOUS
 62
       3
100
AcDbPoint
 10
-183.125
 20
-78.9309787
 30
0.0
  0
POINT
  5
318
100
AcDbEntity
  8
ZUWAKU
  6
CONTINUOUS
 62
       3
100
AcDbPoint
 10
-183.125
 20
81.0690213
 30
0.0
  0
POINT
  5
319
100
AcDbEntity
  8
ZUWAKU
  6
CONTINUOUS
 62
       3
100
AcDbPoint
 10
-211.0
 20
1.0690213
 30
0.0
  0
LINE
  5
31A
100
AcDbEntity
  8
ZUWAKU
  6
CONTINUOUS
 62
       3
100
AcDbLine
 10
-76.125
 20
-253.74108659
 30
0.0
 11
-76.125
 21
-163.74108659
 31
0.0
  0
LINE
  5
31B
100
AcDbEntity
  8
ZUWAKU
  6
CONTINUOUS
 62
       3
100
AcDbLine
 10
30.125
 20
-253.74108659
 30
0.0
 11
30.125
 21
-163.74108659
 31
0.0
  0
LINE
  5
31C
100
AcDbEntity
  8
ZUWAKU
  6
CONTINUOUS
 62
       3
100
AcDbLine
 10
52.375
 20
-253.74108659
 30
0.0
 11
52.375
 21
-163.74108659
 31
0.0
  0
LINE
  5
31D
100
AcDbEntity
  8
ZUWAKU
  6
CONTINUOUS
 62
       3
100
AcDbLine
 10
-169.25
 20
-253.74108659
 30
0.0
 11
-169.25
 21
-163.74108659
 31
0.0
  0
LINE
  5
31E
100
AcDbEntity
  8
ZUWAKU
  6
CONTINUOUS
 62
       3
100
AcDbLine
 10
-183.125
 20
-243.74108659
 30
0.0
 11
185.75
 21
-243.74108659
 31
0.0
  0
LINE
  5
31F
100
AcDbEntity
  8
ZUWAKU
  6
CONTINUOUS
 62
       3
100
AcDbLine
 10
-183.125
 20
-233.74108659
 30
0.0
 11
185.75
 21
-233.74108659
 31
0.0
  0
LINE
  5
320
100
AcDbEntity
  8
ZUWAKU
  6
CONTINUOUS
 62
       3
100
AcDbLine
 10
-183.125
 20
-223.74108659
 30
0.0
 11
185.75
 21
-223.74108659
 31
0.0
  0
LINE
  5
321
100
AcDbEntity
  8
ZUWAKU
  6
CONTINUOUS
 62
       3
100
AcDbLine
 10
-183.125
 20
-213.74108659
 30
0.0
 11
185.75
 21
-213.74108659
 31
0.0
  0
LINE
  5
322
100
AcDbEntity
  8
ZUWAKU
  6
CONTINUOUS
 62
       3
100
AcDbLine
 10
-183.125
 20
-193.74108659
 30
0.0
 11
185.75
 21
-193.74108659
 31
0.0
  0
LINE
  5
323
100
AcDbEntity
  8
ZUWAKU
  6
CONTINUOUS
 62
       3
100
AcDbLine
 10
-183.125
 20
-173.74108659
 30
0.0
 11
185.75
 21
-173.74108659
 31
0.0
  0
LINE
  5
324
100
AcDbEntity
  8
ZUWAKU
  6
CONTINUOUS
 62
       3
100
AcDbLine
 10
-183.125
 20
-203.74108659
 30
0.0
 11
185.75
 21
-203.74108659
 31
0.0
  0
LINE
  5
325
100
AcDbEntity
  8
ZUWAKU
  6
CONTINUOUS
 62
       3
100
AcDbLine
 10
-183.125
 20
-183.74108659
 30
0.0
 11
185.75
 21
-183.74108659
 31
0.0
  0
TEXT
  5
326
100
AcDbEntity
  8
ZUWAKU
 62
       4
100
AcDbText
 10
196.60618537
 20
228.87834542
 30
0.0
 40
8.0
  1
タオル掛
 50
-90.0
 41
0.6667
 72
       5
 11
196.60618537
 21
203.27834542
 31
0.0
100
AcDbText
  0
TEXT
  5
327
100
AcDbEntity
  8
ZUWAKU
 62
       4
100
AcDbText
 10
-79.12598937
 20
-258.83180473
 30
0.0
 40
4.998
  1
品 名
 41
0.8
  7
FDASTYLE1
100
AcDbText
  0
TEXT
  5
328
100
AcDbEntity
  8
ZUWAKU
 62
       4
100
AcDbText
 10
55.87848738
 20
-258.86699767
 30
0.0
 40
4.998
  1
品　番
 41
0.8
  7
FDASTYLE1
100
AcDbText
  0
TEXT
  5
329
100
AcDbEntity
  8
ZUWAKU
 62
       4
100
AcDbText
 10
147.83728357
 20
-292.25299234
 30
0.0
 40
8.0
  1
071031
 41
0.8
 72
       5
 11
186.23728357
 21
-292.25299234
 31
0.0
100
AcDbText
  0
TEXT
  5
32A
100
AcDbEntity
  8
ZUWAKU
 62
       4
100
AcDbText
 10
-179.70149266
 20
-242.66115339
 30
0.0
 40
8.0
  1
1
 41
0.8
 72
       5
 11
-173.30149266
 21
-242.66115339
 31
0.0
100
AcDbText
  0
TEXT
  5
32B
100
AcDbEntity
  8
ZUWAKU
 62
       4
100
AcDbText
 10
-179.70149266
 20
-232.66115339
 30
0.0
 40
8.0
  1
2
 41
0.8
 72
       5
 11
-173.30149266
 21
-232.66115339
 31
0.0
100
AcDbText
  0
TEXT
  5
32C
100
AcDbEntity
  8
ZUWAKU
 62
       4
100
AcDbText
 10
-179.70149266
 20
-222.66115339
 30
0.0
 40
8.0
  1
3
 41
0.8
 72
       5
 11
-173.30149266
 21
-222.66115339
 31
0.0
100
AcDbText
  0
TEXT
  5
32D
100
AcDbEntity
  8
ZUWAKU
 62
       4
100
AcDbText
 10
-179.70149266
 20
-212.66115339
 30
0.0
 40
8.0
  1
4
 41
0.8
 72
       5
 11
-173.30149266
 21
-212.66115339
 31
0.0
100
AcDbText
  0
TEXT
  5
32E
100
AcDbEntity
  8
ZUWAKU
 62
       4
100
AcDbText
 10
-179.70149266
 20
-202.66115339
 30
0.0
 40
8.0
  1
5
 41
0.8
 72
       5
 11
-173.30149266
 21
-202.66115339
 31
0.0
100
AcDbText
  0
TEXT
  5
32F
100
AcDbEntity
  8
ZUWAKU
 62
       4
100
AcDbText
 10
-179.70149266
 20
-192.66115339
 30
0.0
 40
8.0
  1
6
 41
0.8
 72
       5
 11
-173.30149266
 21
-192.66115339
 31
0.0
100
AcDbText
  0
TEXT
  5
330
100
AcDbEntity
  8
ZUWAKU
 62
       4
100
AcDbText
 10
-179.70149266
 20
-182.66115339
 30
0.0
 40
8.0
  1
7
 41
0.8
 72
       5
 11
-173.30149266
 21
-182.66115339
 31
0.0
100
AcDbText
  0
TEXT
  5
331
100
AcDbEntity
  8
ZUWAKU
 62
       4
100
AcDbText
 10
102.7442024
 20
-252.6216861
 30
0.0
 40
8.0
  1
摘要・仕上
 41
0.7143
 72
       5
 11
134.7442024
 21
-252.6216861
 31
0.0
100
AcDbText
  0
TEXT
  5
332
100
AcDbEntity
  8
ZUWAKU
 62
       4
100
AcDbText
 10
31.47292259
 20
-252.6216861
 30
0.0
 40
8.0
  1
個　数
 41
0.75
 72
       5
 11
50.67292259
 21
-252.6216861
 31
0.0
100
AcDbText
  0
TEXT
  5
333
100
AcDbEntity
  8
ZUWAKU
 62
       4
100
AcDbText
 10
-35.71889602
 20
-252.6216861
 30
0.0
 40
8.0
  1
材　　質
 41
0.6667
 72
       5
 11
-10.11889602
 21
-252.6216861
 31
0.0
100
AcDbText
  0
TEXT
  5
334
100
AcDbEntity
  8
ZUWAKU
 62
       4
100
AcDbText
 10
-138.75373553
 20
-252.6216861
 30
0.0
 40
8.0
  1
部　品　名
 41
0.7143
 72
       5
 11
-106.75373553
 21
-252.6216861
 31
0.0
100
AcDbText
  0
TEXT
  5
335
100
AcDbEntity
  8
ZUWAKU
 62
       4
100
AcDbText
 10
-182.8379621
 20
-252.6216861
 30
0.0
 40
8.0
  1
部番
 41
0.6667
 72
       5
 11
-170.0379621
 21
-252.6216861
 31
0.0
100
AcDbText
  0
TEXT
  5
336
100
AcDbEntity
  8
ZUWAKU
 62
       4
100
AcDbText
 10
-179.70149266
 20
-172.66115339
 30
0.0
 40
8.0
  1
8
 41
0.8
 72
       5
 11
-173.30149266
 21
-172.66115339
 31
0.0
100
AcDbText
  0
LINE
  5
337
100
AcDbEntity
  8
ZUWAKU
  6
CONTINUOUS
 62
      43
100
AcDbLine
 10
-183.625
 20
267.82163914
 30
0.0
 11
187.75
 21
267.82163914
 31
0.0
  0
LINE
  5
338
100
AcDbEntity
  8
ZUWAKU
  6
CONTINUOUS
 62
      43
100
AcDbLine
 10
-183.125
 20
-281.24108659
 30
0.0
 11
185.75
 21
-281.24108659
 31
0.0
  0
LINE
  5
339
100
AcDbEntity
  8
ZUWAKU
  6
CONTINUOUS
 62
      43
100
AcDbLine
 10
-183.125
 20
-257.11608659
 30
0.0
 11
185.75
 21
-257.11608659
 31
0.0
  0
ELLIPSE
  5
33A
100
AcDbEntity
  8
ZUWAKU
  6
CONTINUOUS
 62
      43
100
AcDbEllipse
 10
-154.6875
 20
281.81698873
 30
0.0
 11
-25.5625
 21
0.0
 31
0.0
210
0.0
220
0.0
230
1.0
 40
0.40365317
 41
0.0
 42
6.2831853071796004
  0
LINE
  5
33B
100
AcDbEntity
  8
ZUWAKU
  6
CONTINUOUS
 62
      43
100
AcDbLine
 10
-175.25
 20
286.75891341
 30
0.0
 11
-175.25
 21
277.00891341
 31
0.0
  0
LINE
  5
33C
100
AcDbEntity
  8
ZUWAKU
  6
CONTINUOUS
 62
      43
100
AcDbLine
 10
-134.0
 20
286.75891341
 30
0.0
 11
-134.0
 21
277.00891341
 31
0.0
  0
LINE
  5
33D
100
AcDbEntity
  8
ZUWAKU
  6
CONTINUOUS
 62
      43
100
AcDbLine
 10
-175.25
 20
286.75891341
 30
0.0
 11
-134.0
 21
286.75891341
 31
0.0
  0
LINE
  5
33E
100
AcDbEntity
  8
ZUWAKU
  6
CONTINUOUS
 62
      43
100
AcDbLine
 10
-175.25
 20
277.00891341
 30
0.0
 11
-134.0
 21
277.00891341
 31
0.0
  0
LINE
  5
33F
100
AcDbEntity
  8
ZUWAKU
  6
CONTINUOUS
 62
      43
100
AcDbLine
 10
-157.23520357
 20
292.0839975
 30
0.0
 11
-162.56028766
 21
286.75891341
 31
0.0
  0
LINE
  5
340
100
AcDbEntity
  8
ZUWAKU
  6
CONTINUOUS
 62
      43
100
AcDbLine
 10
-157.82766327
 20
292.05722323
 30
0.0
 11
-163.12597308
 21
286.75891341
 31
0.0
  0
LINE
  5
341
100
AcDbEntity
  8
ZUWAKU
  6
CONTINUOUS
 62
      43
100
AcDbLine
 10
-158.42615401
 20
292.02441791
 30
0.0
 11
-163.69165851
 21
286.75891341
 31
0.0
  0
LINE
  5
342
100
AcDbEntity
  8
ZUWAKU
  6
CONTINUOUS
 62
      43
100
AcDbLine
 10
-159.03092503
 20
291.98533232
 30
0.0
 11
-164.25734393
 21
286.75891341
 31
0.0
  0
LINE
  5
343
100
AcDbEntity
  8
ZUWAKU
  6
CONTINUOUS
 62
      43
100
AcDbLine
 10
-159.64225467
 20
291.9396881
 30
0.0
 11
-164.82302936
 21
286.75891341
 31
0.0
  0
LINE
  5
344
100
AcDbEntity
  8
ZUWAKU
  6
CONTINUOUS
 62
      43
100
AcDbLine
 10
-160.26045486
 20
291.88717334
 30
0.0
 11
-165.38871478
 21
286.75891341
 31
0.0
  0
LINE
  5
345
100
AcDbEntity
  8
ZUWAKU
  6
CONTINUOUS
 62
      43
100
AcDbLine
 10
-160.88587652
 20
291.8274371
 30
0.0
 11
-165.95440021
 21
286.75891341
 31
0.0
  0
LINE
  5
346
100
AcDbEntity
  8
ZUWAKU
  6
CONTINUOUS
 62
      43
100
AcDbLine
 10
-161.51891622
 20
291.76008282
 30
0.0
 11
-166.52008563
 21
286.75891341
 31
0.0
  0
LINE
  5
347
100
AcDbEntity
  8
ZUWAKU
  6
CONTINUOUS
 62
      43
100
AcDbLine
 10
-162.16002442
 20
291.68466005
 30
0.0
 11
-167.08577106
 21
286.75891341
 31
0.0
  0
LINE
  5
348
100
AcDbEntity
  8
ZUWAKU
  6
CONTINUOUS
 62
      43
100
AcDbLine
 10
-162.80971576
 20
291.60065413
 30
0.0
 11
-167.65145648
 21
286.75891341
 31
0.0
  0
LINE
  5
349
100
AcDbEntity
  8
ZUWAKU
  6
CONTINUOUS
 62
      43
100
AcDbLine
 10
-163.46858211
 20
291.50747321
 30
0.0
 11
-168.21714191
 21
286.75891341
 31
0.0
  0
LINE
  5
34A
100
AcDbEntity
  8
ZUWAKU
  6
CONTINUOUS
 62
      43
100
AcDbLine
 10
-164.1373093
 20
291.40443145
 30
0.0
 11
-168.78282733
 21
286.75891341
 31
0.0
  0
LINE
  5
34B
100
AcDbEntity
  8
ZUWAKU
  6
CONTINUOUS
 62
      43
100
AcDbLine
 10
-164.81669893
 20
291.29072724
 30
0.0
 11
-169.34851276
 21
286.75891341
 31
0.0
  0
LINE
  5
34C
100
AcDbEntity
  8
ZUWAKU
  6
CONTINUOUS
 62
      43
100
AcDbLine
 10
-165.50769722
 20
291.16541438
 30
0.0
 11
-169.91419818
 21
286.75891341
 31
0.0
  0
LINE
  5
34D
100
AcDbEntity
  8
ZUWAKU
  6
CONTINUOUS
 62
      43
100
AcDbLine
 10
-166.21143396
 20
291.02736306
 30
0.0
 11
-170.47988361
 21
286.75891341
 31
0.0
  0
LINE
  5
34E
100
AcDbEntity
  8
ZUWAKU
  6
CONTINUOUS
 62
      43
100
AcDbLine
 10
-175.25
 20
281.98879702
 30
0.0
 11
-175.35488361
 21
281.88391341
 31
0.0
  0
LINE
  5
34F
100
AcDbEntity
  8
ZUWAKU
  6
CONTINUOUS
 62
      43
100
AcDbLine
 10
-166.92927622
 20
290.87520622
 30
0.0
 11
-171.04556903
 21
286.75891341
 31
0.0
  0
LINE
  5
350
100
AcDbEntity
  8
ZUWAKU
  6
CONTINUOUS
 62
      43
100
AcDbLine
 10
-175.25
 20
282.55448244
 30
0.0
 11
-175.92056903
 21
281.88391341
 31
0.0
  0
LINE
  5
351
100
AcDbEntity
  8
ZUWAKU
  6
CONTINUOUS
 62
      43
100
AcDbLine
 10
-167.66290442
 20
290.70726345
 30
0.0
 11
-171.61125446
 21
286.75891341
 31
0.0
  0
LINE
  5
352
100
AcDbEntity
  8
ZUWAKU
  6
CONTINUOUS
 62
      43
100
AcDbLine
 10
-175.25
 20
283.12016787
 30
0.0
 11
-176.48625446
 21
281.88391341
 31
0.0
  0
LINE
  5
353
100
AcDbEntity
  8
ZUWAKU
  6
CONTINUOUS
 62
      43
100
AcDbLine
 10
-168.41442306
 20
290.52143023
 30
0.0
 11
-172.17693988
 21
286.75891341
 31
0.0
  0
LINE
  5
354
100
AcDbEntity
  8
ZUWAKU
  6
CONTINUOUS
 62
      43
100
AcDbLine
 10
-175.25
 20
283.68585329
 30
0.0
 11
-177.05193988
 21
281.88391341
 31
0.0
  0
LINE
  5
355
100
AcDbEntity
  8
ZUWAKU
  6
CONTINUOUS
 62
      43
100
AcDbLine
 10
-169.18652817
 20
290.31501055
 30
0.0
 11
-172.74262531
 21
286.75891341
 31
0.0
  0
LINE
  5
356
100
AcDbEntity
  8
ZUWAKU
  6
CONTINUOUS
 62
      43
100
AcDbLine
 10
-175.25
 20
284.25153872
 30
0.0
 11
-177.61762531
 21
281.88391341
 31
0.0
  0
LINE
  5
357
100
AcDbEntity
  8
ZUWAKU
  6
CONTINUOUS
 62
      43
100
AcDbLine
 10
-169.98277117
 20
290.08445298
 30
0.0
 11
-173.30831073
 21
286.75891341
 31
0.0
  0
LINE
  5
358
100
AcDbEntity
  8
ZUWAKU
  6
CONTINUOUS
 62
      43
100
AcDbLine
 10
-175.25
 20
284.81722414
 30
0.0
 11
-178.18331073
 21
281.88391341
 31
0.0
  0
LINE
  5
359
100
AcDbEntity
  8
ZUWAKU
  6
CONTINUOUS
 62
      43
100
AcDbLine
 10
-170.80799782
 20
289.82491175
 30
0.0
 11
-173.87399616
 21
286.75891341
 31
0.0
  0
LINE
  5
35A
100
AcDbEntity
  8
ZUWAKU
  6
CONTINUOUS
 62
      43
100
AcDbLine
 10
-175.25
 20
285.38290957
 30
0.0
 11
-178.74899616
 21
281.88391341
 31
0.0
  0
LINE
  5
35B
100
AcDbEntity
  8
ZUWAKU
  6
CONTINUOUS
 62
      43
100
AcDbLine
 10
-171.66912964
 20
289.52946536
 30
0.0
 11
-174.43968158
 21
286.75891341
 31
0.0
  0
LINE
  5
35C
100
AcDbEntity
  8
ZUWAKU
  6
CONTINUOUS
 62
      43
100
AcDbLine
 10
-175.25
 20
285.94859499
 30
0.0
 11
-179.31468158
 21
281.88391341
 31
0.0
  0
LINE
  5
35D
100
AcDbEntity
  8
ZUWAKU
  6
CONTINUOUS
 62
      43
100
AcDbLine
 10
-172.57668622
 20
289.1875942
 30
0.0
 11
-175.00536701
 21
286.75891341
 31
0.0
  0
LINE
  5
35E
100
AcDbEntity
  8
ZUWAKU
  6
CONTINUOUS
 62
      43
100
AcDbLine
 10
-175.25
 20
286.51428042
 30
0.0
 11
-179.88036701
 21
281.88391341
 31
0.0
  0
LINE
  5
35F
100
AcDbEntity
  8
ZUWAKU
  6
CONTINUOUS
 62
      43
100
AcDbLine
 10
-173.54814842
 20
288.78181743
 30
0.0
 11
-180.2411267
 21
282.08883915
 31
0.0
  0
LINE
  5
360
100
AcDbEntity
  8
ZUWAKU
  6
CONTINUOUS
 62
      43
100
AcDbLine
 10
-174.61695554
 20
288.27869572
 30
0.0
 11
-180.14517703
 21
282.75047424
 31
0.0
  0
LINE
  5
361
100
AcDbEntity
  8
ZUWAKU
  6
CONTINUOUS
 62
      43
100
AcDbLine
 10
-175.866365
 20
287.5949717
 30
0.0
 11
-179.86862504
 21
283.59271166
 31
0.0
  0
LINE
  5
362
100
AcDbEntity
  8
ZUWAKU
  6
CONTINUOUS
 62
      43
100
AcDbLine
 10
-177.81389684
 20
286.21312527
 30
0.0
 11
-178.89395065
 21
285.13307147
 31
0.0
  0
LINE
  5
363
100
AcDbEntity
  8
ZUWAKU
  6
CONTINUOUS
 62
      43
100
AcDbLine
 10
-156.64855111
 20
292.10496454
 30
0.0
 11
-161.99460223
 21
286.75891341
 31
0.0
  0
LINE
  5
364
100
AcDbEntity
  8
ZUWAKU
  6
CONTINUOUS
 62
      43
100
AcDbLine
 10
-156.0675044
 20
292.12032582
 30
0.0
 11
-161.42891681
 21
286.75891341
 31
0.0
  0
LINE
  5
365
100
AcDbEntity
  8
ZUWAKU
  6
CONTINUOUS
 62
      43
100
AcDbLine
 10
-155.49188171
 20
292.13026308
 30
0.0
 11
-160.86323138
 21
286.75891341
 31
0.0
  0
LINE
  5
366
100
AcDbEntity
  8
ZUWAKU
  6
CONTINUOUS
 62
      43
100
AcDbLine
 10
-154.92151885
 20
292.13494052
 30
0.0
 11
-160.29754596
 21
286.75891341
 31
0.0
  0
LINE
  5
367
100
AcDbEntity
  8
ZUWAKU
  6
CONTINUOUS
 62
      43
100
AcDbLine
 10
-154.35626731
 20
292.13450664
 30
0.0
 11
-159.73186053
 21
286.75891341
 31
0.0
  0
LINE
  5
368
100
AcDbEntity
  8
ZUWAKU
  6
CONTINUOUS
 62
      43
100
AcDbLine
 10
-153.79599267
 20
292.12909585
 30
0.0
 11
-159.16617511
 21
286.75891341
 31
0.0
  0
LINE
  5
369
100
AcDbEntity
  8
ZUWAKU
  6
CONTINUOUS
 62
      43
100
AcDbLine
 10
-153.24057326
 20
292.11882984
 30
0.0
 11
-158.60048968
 21
286.75891341
 31
0.0
  0
LINE
  5
36A
100
AcDbEntity
  8
ZUWAKU
  6
CONTINUOUS
 62
      43
100
AcDbLine
 10
-152.68989895
 20
292.10381872
 30
0.0
 11
-158.03480426
 21
286.75891341
 31
0.0
  0
LINE
  5
36B
100
AcDbEntity
  8
ZUWAKU
  6
CONTINUOUS
 62
      43
100
AcDbLine
 10
-152.14387017
 20
292.08416208
 30
0.0
 11
-157.46911883
 21
286.75891341
 31
0.0
  0
LINE
  5
36C
100
AcDbEntity
  8
ZUWAKU
  6
CONTINUOUS
 62
      43
100
AcDbLine
 10
-151.60239703
 20
292.05994979
 30
0.0
 11
-156.90343341
 21
286.75891341
 31
0.0
  0
LINE
  5
36D
100
AcDbEntity
  8
ZUWAKU
  6
CONTINUOUS
 62
      43
100
AcDbLine
 10
-151.06539856
 20
292.03126284
 30
0.0
 11
-156.33774798
 21
286.75891341
 31
0.0
  0
LINE
  5
36E
100
AcDbEntity
  8
ZUWAKU
  6
CONTINUOUS
 62
      43
100
AcDbLine
 10
-150.53280204
 20
291.99817393
 30
0.0
 11
-155.77206256
 21
286.75891341
 31
0.0
  0
LINE
  5
36F
100
AcDbEntity
  8
ZUWAKU
  6
CONTINUOUS
 62
      43
100
AcDbLine
 10
-150.00454248
 20
291.96074807
 30
0.0
 11
-155.20637713
 21
286.75891341
 31
0.0
  0
LINE
  5
370
100
AcDbEntity
  8
ZUWAKU
  6
CONTINUOUS
 62
      43
100
AcDbLine
 10
-149.48056206
 20
291.91904306
 30
0.0
 11
-154.64069171
 21
286.75891341
 31
0.0
  0
LINE
  5
371
100
AcDbEntity
  8
ZUWAKU
  6
CONTINUOUS
 62
      43
100
AcDbLine
 10
-148.96080979
 20
291.87310991
 30
0.0
 11
-154.07500628
 21
286.75891341
 31
0.0
  0
LINE
  5
372
100
AcDbEntity
  8
ZUWAKU
  6
CONTINUOUS
 62
      43
100
AcDbLine
 10
-148.44524105
 20
291.82299322
 30
0.0
 11
-153.50932086
 21
286.75891341
 31
0.0
  0
LINE
  5
373
100
AcDbEntity
  8
ZUWAKU
  6
CONTINUOUS
 62
      43
100
AcDbLine
 10
-147.93381738
 20
291.76873147
 30
0.0
 11
-152.94363543
 21
286.75891341
 31
0.0
  0
LINE
  5
374
100
AcDbEntity
  8
ZUWAKU
  6
CONTINUOUS
 62
      43
100
AcDbLine
 10
-147.42650613
 20
291.71035729
 30
0.0
 11
-152.37795001
 21
286.75891341
 31
0.0
  0
LINE
  5
375
100
AcDbEntity
  8
ZUWAKU
  6
CONTINUOUS
 62
      43
100
AcDbLine
 10
-146.92328031
 20
291.64789769
 30
0.0
 11
-151.81226458
 21
286.75891341
 31
0.0
  0
LINE
  5
376
100
AcDbEntity
  8
ZUWAKU
  6
CONTINUOUS
 62
      43
100
AcDbLine
 10
-146.42411836
 20
291.58137421
 30
0.0
 11
-151.24657916
 21
286.75891341
 31
0.0
  0
LINE
  5
377
100
AcDbEntity
  8
ZUWAKU
  6
CONTINUOUS
 62
      43
100
AcDbLine
 10
-145.92900406
 20
291.51080309
 30
0.0
 11
-150.68089373
 21
286.75891341
 31
0.0
  0
LINE
  5
378
100
AcDbEntity
  8
ZUWAKU
  6
CONTINUOUS
 62
      43
100
AcDbLine
 10
-145.43792637
 20
291.43619535
 30
0.0
 11
-150.11520831
 21
286.75891341
 31
0.0
  0
LINE
  5
379
100
AcDbEntity
  8
ZUWAKU
  6
CONTINUOUS
 62
      43
100
AcDbLine
 10
-144.95087942
 20
291.35755687
 30
0.0
 11
-149.54952288
 21
286.75891341
 31
0.0
  0
LINE
  5
37A
100
AcDbEntity
  8
ZUWAKU
  6
CONTINUOUS
 62
      43
100
AcDbLine
 10
-144.46786243
 20
291.27488845
 30
0.0
 11
-148.98383746
 21
286.75891341
 31
0.0
  0
LINE
  5
37B
100
AcDbEntity
  8
ZUWAKU
  6
CONTINUOUS
 62
      43
100
AcDbLine
 10
-143.9888797
 20
291.18818575
 30
0.0
 11
-148.41815203
 21
286.75891341
 31
0.0
  0
LINE
  5
37C
100
AcDbEntity
  8
ZUWAKU
  6
CONTINUOUS
 62
      43
100
AcDbLine
 10
-143.51394068
 20
291.09743934
 30
0.0
 11
-147.85246661
 21
286.75891341
 31
0.0
  0
LINE
  5
37D
100
AcDbEntity
  8
ZUWAKU
  6
CONTINUOUS
 62
      43
100
AcDbLine
 10
-143.04306
 20
291.00263459
 30
0.0
 11
-147.28678118
 21
286.75891341
 31
0.0
  0
LINE
  5
37E
100
AcDbEntity
  8
ZUWAKU
  6
CONTINUOUS
 62
      43
100
AcDbLine
 10
-142.57625756
 20
290.90375161
 30
0.0
 11
-146.72109576
 21
286.75891341
 31
0.0
  0
LINE
  5
37F
100
AcDbEntity
  8
ZUWAKU
  6
CONTINUOUS
 62
      43
100
AcDbLine
 10
-142.11355867
 20
290.80076507
 30
0.0
 11
-146.15541033
 21
286.75891341
 31
0.0
  0
LINE
  5
380
100
AcDbEntity
  8
ZUWAKU
  6
CONTINUOUS
 62
      43
100
AcDbLine
 10
-141.65499422
 20
290.6936441
 30
0.0
 11
-145.58972491
 21
286.75891341
 31
0.0
  0
LINE
  5
381
100
AcDbEntity
  8
ZUWAKU
  6
CONTINUOUS
 62
      43
100
AcDbLine
 10
-141.20060086
 20
290.58235204
 30
0.0
 11
-145.02403948
 21
286.75891341
 31
0.0
  0
LINE
  5
382
100
AcDbEntity
  8
ZUWAKU
  6
CONTINUOUS
 62
      43
100
AcDbLine
 10
-140.75042129
 20
290.46684618
 30
0.0
 11
-144.45835406
 21
286.75891341
 31
0.0
  0
LINE
  5
383
100
AcDbEntity
  8
ZUWAKU
  6
CONTINUOUS
 62
      43
100
AcDbLine
 10
-140.30450451
 20
290.34707754
 30
0.0
 11
-143.89266863
 21
286.75891341
 31
0.0
  0
LINE
  5
384
100
AcDbEntity
  8
ZUWAKU
  6
CONTINUOUS
 62
      43
100
AcDbLine
 10
-139.8629062
 20
290.22299042
 30
0.0
 11
-143.32698321
 21
286.75891341
 31
0.0
  0
LINE
  5
385
100
AcDbEntity
  8
ZUWAKU
  6
CONTINUOUS
 62
      43
100
AcDbLine
 10
-139.4256891
 20
290.09452209
 30
0.0
 11
-142.76129778
 21
286.75891341
 31
0.0
  0
LINE
  5
386
100
AcDbEntity
  8
ZUWAKU
  6
CONTINUOUS
 62
      43
100
AcDbLine
 10
-138.99292352
 20
289.96160226
 30
0.0
 11
-142.19561236
 21
286.75891341
 31
0.0
  0
LINE
  5
387
100
AcDbEntity
  8
ZUWAKU
  6
CONTINUOUS
 62
      43
100
AcDbLine
 10
-138.5646878
 20
289.82415254
 30
0.0
 11
-141.62992693
 21
286.75891341
 31
0.0
  0
LINE
  5
388
100
AcDbEntity
  8
ZUWAKU
  6
CONTINUOUS
 62
      43
100
AcDbLine
 10
-138.14106905
 20
289.68208588
 30
0.0
 11
-141.06424151
 21
286.75891341
 31
0.0
  0
LINE
  5
389
100
AcDbEntity
  8
ZUWAKU
  6
CONTINUOUS
 62
      43
100
AcDbLine
 10
-137.72216376
 20
289.53530574
 30
0.0
 11
-140.49855608
 21
286.75891341
 31
0.0
  0
LINE
  5
38A
100
AcDbEntity
  8
ZUWAKU
  6
CONTINUOUS
 62
      43
100
AcDbLine
 10
-137.30807873
 20
289.38370534
 30
0.0
 11
-139.93287066
 21
286.75891341
 31
0.0
  0
LINE
  5
38B
100
AcDbEntity
  8
ZUWAKU
  6
CONTINUOUS
 62
      43
100
AcDbLine
 10
-136.89893197
 20
289.22716668
 30
0.0
 11
-139.36718523
 21
286.75891341
 31
0.0
  0
LINE
  5
38C
100
AcDbEntity
  8
ZUWAKU
  6
CONTINUOUS
 62
      43
100
AcDbLine
 10
-136.49485385
 20
289.06555937
 30
0.0
 11
-138.80149981
 21
286.75891341
 31
0.0
  0
LINE
  5
38D
100
AcDbEntity
  8
ZUWAKU
  6
CONTINUOUS
 62
      43
100
AcDbLine
 10
-136.0959884
 20
288.8987394
 30
0.0
 11
-138.23581438
 21
286.75891341
 31
0.0
  0
LINE
  5
38E
100
AcDbEntity
  8
ZUWAKU
  6
CONTINUOUS
 62
      43
100
AcDbLine
 10
-135.70249481
 20
288.72654757
 30
0.0
 11
-137.67012896
 21
286.75891341
 31
0.0
  0
LINE
  5
38F
100
AcDbEntity
  8
ZUWAKU
  6
CONTINUOUS
 62
      43
100
AcDbLine
 10
-135.31454922
 20
288.54880773
 30
0.0
 11
-137.10444353
 21
286.75891341
 31
0.0
  0
LINE
  5
390
100
AcDbEntity
  8
ZUWAKU
  6
CONTINUOUS
 62
      43
100
AcDbLine
 10
-134.93234679
 20
288.36532473
 30
0.0
 11
-136.53875811
 21
286.75891341
 31
0.0
  0
LINE
  5
391
100
AcDbEntity
  8
ZUWAKU
  6
CONTINUOUS
 62
      43
100
AcDbLine
 10
-134.55610419
 20
288.17588191
 30
0.0
 11
-135.97307269
 21
286.75891341
 31
0.0
  0
LINE
  5
392
100
AcDbEntity
  8
ZUWAKU
  6
CONTINUOUS
 62
      43
100
AcDbLine
 10
-134.18606247
 20
287.9802382
 30
0.0
 11
-135.40738726
 21
286.75891341
 31
0.0
  0
LINE
  5
393
100
AcDbEntity
  8
ZUWAKU
  6
CONTINUOUS
 62
      43
100
AcDbLine
 10
-133.82249062
 20
287.77812463
 30
0.0
 11
-134.84170184
 21
286.75891341
 31
0.0
  0
LINE
  5
394
100
AcDbEntity
  8
ZUWAKU
  6
CONTINUOUS
 62
      43
100
AcDbLine
 10
-133.46568973
 20
287.5692401
 30
0.0
 11
-134.27601641
 21
286.75891341
 31
0.0
  0
LINE
  5
395
100
AcDbEntity
  8
ZUWAKU
  6
CONTINUOUS
 62
      43
100
AcDbLine
 10
-133.1159981
 20
287.3532463
 30
0.0
 11
-134.0
 21
286.4692444
 31
0.0
  0
LINE
  5
396
100
AcDbEntity
  8
ZUWAKU
  6
CONTINUOUS
 62
      43
100
AcDbLine
 10
-132.77379752
 20
287.12976145
 30
0.0
 11
-134.0
 21
285.90355897
 31
0.0
  0
LINE
  5
397
100
AcDbEntity
  8
ZUWAKU
  6
CONTINUOUS
 62
      43
100
AcDbLine
 10
-132.43952091
 20
286.89835263
 30
0.0
 11
-134.0
 21
285.33787355
 31
0.0
  0
LINE
  5
398
100
AcDbEntity
  8
ZUWAKU
  6
CONTINUOUS
 62
      43
100
AcDbLine
 10
-132.11366198
 20
286.65852614
 30
0.0
 11
-134.0
 21
284.77218812
 31
0.0
  0
LINE
  5
399
100
AcDbEntity
  8
ZUWAKU
  6
CONTINUOUS
 62
      43
100
AcDbLine
 10
-131.79678731
 20
286.40971539
 30
0.0
 11
-134.0
 21
284.2065027
 31
0.0
  0
LINE
  5
39A
100
AcDbEntity
  8
ZUWAKU
  6
CONTINUOUS
 62
      43
100
AcDbLine
 10
-131.48955184
 20
286.15126543
 30
0.0
 11
-134.0
 21
283.64081727
 31
0.0
  0
LINE
  5
39B
100
AcDbEntity
  8
ZUWAKU
  6
CONTINUOUS
 62
      43
100
AcDbLine
 10
-131.19271897
 20
285.88241287
 30
0.0
 11
-134.0
 21
283.07513185
 31
0.0
  0
LINE
  5
39C
100
AcDbEntity
  8
ZUWAKU
  6
CONTINUOUS
 62
      43
100
AcDbLine
 10
-130.90718694
 20
285.60225949
 30
0.0
 11
-134.0
 21
282.50944642
 31
0.0
  0
LINE
  5
39D
100
AcDbEntity
  8
ZUWAKU
  6
CONTINUOUS
 62
      43
100
AcDbLine
 10
-130.63402428
 20
285.30973672
 30
0.0
 11
-134.0
 21
281.943761
 31
0.0
  0
LINE
  5
39E
100
AcDbEntity
  8
ZUWAKU
  6
CONTINUOUS
 62
      43
100
AcDbLine
 10
-130.37451841
 20
285.00355716
 30
0.0
 11
-133.49416216
 21
281.88391341
 31
0.0
  0
LINE
  5
39F
100
AcDbEntity
  8
ZUWAKU
  6
CONTINUOUS
 62
      43
100
AcDbLine
 10
-130.13024373
 20
284.68214642
 30
0.0
 11
-132.92847674
 21
281.88391341
 31
0.0
  0
LINE
  5
3A0
100
AcDbEntity
  8
ZUWAKU
  6
CONTINUOUS
 62
      43
100
AcDbLine
 10
-129.90316
 20
284.34354473
 30
0.0
 11
-132.36279131
 21
281.88391341
 31
0.0
  0
LINE
  5
3A1
100
AcDbEntity
  8
ZUWAKU
  6
CONTINUOUS
 62
      43
100
AcDbLine
 10
-129.69575922
 20
283.98526008
 30
0.0
 11
-131.79710589
 21
281.88391341
 31
0.0
  0
LINE
  5
3A2
100
AcDbEntity
  8
ZUWAKU
  6
CONTINUOUS
 62
      43
100
AcDbLine
 10
-129.51129392
 20
283.60403995
 30
0.0
 11
-131.23142046
 21
281.88391341
 31
0.0
  0
LINE
  5
3A3
100
AcDbEntity
  8
ZUWAKU
  6
CONTINUOUS
 62
      43
100
AcDbLine
 10
-129.35415028
 20
283.19549817
 30
0.0
 11
-130.66573504
 21
281.88391341
 31
0.0
  0
LINE
  5
3A4
100
AcDbEntity
  8
ZUWAKU
  6
CONTINUOUS
 62
      43
100
AcDbLine
 10
-129.23049728
 20
282.75346574
 30
0.0
 11
-130.10004961
 21
281.88391341
 31
0.0
  0
LINE
  5
3A5
100
AcDbEntity
  8
ZUWAKU
  6
CONTINUOUS
 62
      43
100
AcDbLine
 10
-129.1495134
 20
282.2687642
 30
0.0
 11
-129.53436419
 21
281.88391341
 31
0.0
  0
LINE
  5
3A6
100
AcDbEntity
  8
ZUWAKU
  6
CONTINUOUS
 62
      43
100
AcDbLine
 10
-146.74778825
 20
277.00891341
 30
0.0
 11
-152.20950105
 21
271.54720061
 31
0.0
  0
LINE
  5
3A7
100
AcDbEntity
  8
ZUWAKU
  6
CONTINUOUS
 62
      43
100
AcDbLine
 10
-147.31347367
 20
277.00891341
 30
0.0
 11
-152.7954802
 21
271.52690688
 31
0.0
  0
LINE
  5
3A8
100
AcDbEntity
  8
ZUWAKU
  6
CONTINUOUS
 62
      43
100
AcDbLine
 10
-147.8791591
 20
277.00891341
 30
0.0
 11
-153.37587608
 21
271.51219643
 31
0.0
  0
LINE
  5
3A9
100
AcDbEntity
  8
ZUWAKU
  6
CONTINUOUS
 62
      43
100
AcDbLine
 10
-148.44484452
 20
277.00891341
 30
0.0
 11
-153.95086825
 21
271.50288969
 31
0.0
  0
LINE
  5
3AA
100
AcDbEntity
  8
ZUWAKU
  6
CONTINUOUS
 62
      43
100
AcDbLine
 10
-149.01052995
 20
277.00891341
 30
0.0
 11
-154.52061894
 21
271.49882442
 31
0.0
  0
LINE
  5
3AB
100
AcDbEntity
  8
ZUWAKU
  6
CONTINUOUS
 62
      43
100
AcDbLine
 10
-149.57621537
 20
277.00891341
 30
0.0
 11
-155.08527492
 21
271.49985386
 31
0.0
  0
LINE
  5
3AC
100
AcDbEntity
  8
ZUWAKU
  6
CONTINUOUS
 62
      43
100
AcDbLine
 10
-150.1419008
 20
277.00891341
 30
0.0
 11
-155.64496903
 21
271.50584518
 31
0.0
  0
LINE
  5
3AD
100
AcDbEntity
  8
ZUWAKU
  6
CONTINUOUS
 62
      43
100
AcDbLine
 10
-150.70758622
 20
277.00891341
 30
0.0
 11
-156.19982153
 21
271.5166781
 31
0.0
  0
LINE
  5
3AE
100
AcDbEntity
  8
ZUWAKU
  6
CONTINUOUS
 62
      43
100
AcDbLine
 10
-151.27327165
 20
277.00891341
 30
0.0
 11
-156.74994124
 21
271.53224382
 31
0.0
  0
LINE
  5
3AF
100
AcDbEntity
  8
ZUWAKU
  6
CONTINUOUS
 62
      43
100
AcDbLine
 10
-151.83895707
 20
277.00891341
 30
0.0
 11
-157.29542654
 21
271.55244394
 31
0.0
  0
LINE
  5
3B0
100
AcDbEntity
  8
ZUWAKU
  6
CONTINUOUS
 62
      43
100
AcDbLine
 10
-152.4046425
 20
277.00891341
 30
0.0
 11
-157.83636623
 21
271.57718968
 31
0.0
  0
LINE
  5
3B1
100
AcDbEntity
  8
ZUWAKU
  6
CONTINUOUS
 62
      43
100
AcDbLine
 10
-152.97032792
 20
277.00891341
 30
0.0
 11
-158.37284028
 21
271.60640105
 31
0.0
  0
LINE
  5
3B2
100
AcDbEntity
  8
ZUWAKU
  6
CONTINUOUS
 62
      43
100
AcDbLine
 10
-153.53601335
 20
277.00891341
 30
0.0
 11
-158.90492045
 21
271.64000631
 31
0.0
  0
LINE
  5
3B3
100
AcDbEntity
  8
ZUWAKU
  6
CONTINUOUS
 62
      43
100
AcDbLine
 10
-154.10169877
 20
277.00891341
 30
0.0
 11
-159.43267088
 21
271.67794131
 31
0.0
  0
LINE
  5
3B4
100
AcDbEntity
  8
ZUWAKU
  6
CONTINUOUS
 62
      43
100
AcDbLine
 10
-154.6673842
 20
277.00891341
 30
0.0
 11
-159.95614853
 21
271.72014907
 31
0.0
  0
LINE
  5
3B5
100
AcDbEntity
  8
ZUWAKU
  6
CONTINUOUS
 62
      43
100
AcDbLine
 10
-155.23306962
 20
277.00891341
 30
0.0
 11
-160.47540366
 21
271.76657938
 31
0.0
  0
LINE
  5
3B6
100
AcDbEntity
  8
ZUWAKU
  6
CONTINUOUS
 62
      43
100
AcDbLine
 10
-155.79875505
 20
277.00891341
 30
0.0
 11
-160.99048011
 21
271.81718835
 31
0.0
  0
LINE
  5
3B7
100
AcDbEntity
  8
ZUWAKU
  6
CONTINUOUS
 62
      43
100
AcDbLine
 10
-156.36444047
 20
277.00891341
 30
0.0
 11
-161.50141566
 21
271.87193823
 31
0.0
  0
LINE
  5
3B8
100
AcDbEntity
  8
ZUWAKU
  6
CONTINUOUS
 62
      43
100
AcDbLine
 10
-156.9301259
 20
277.00891341
 30
0.0
 11
-162.00824226
 21
271.93079704
 31
0.0
  0
LINE
  5
3B9
100
AcDbEntity
  8
ZUWAKU
  6
CONTINUOUS
 62
      43
100
AcDbLine
 10
-157.49581132
 20
277.00891341
 30
0.0
 11
-162.51098628
 21
271.99373846
 31
0.0
  0
LINE
  5
3BA
100
AcDbEntity
  8
ZUWAKU
  6
CONTINUOUS
 62
      43
100
AcDbLine
 10
-158.06149675
 20
277.00891341
 30
0.0
 11
-163.00966861
 21
272.06074155
 31
0.0
  0
LINE
  5
3BB
100
AcDbEntity
  8
ZUWAKU
  6
CONTINUOUS
 62
      43
100
AcDbLine
 10
-158.62718217
 20
277.00891341
 30
0.0
 11
-163.50430488
 21
272.13179071
 31
0.0
  0
LINE
  5
3BC
100
AcDbEntity
  8
ZUWAKU
  6
CONTINUOUS
 62
      43
100
AcDbLine
 10
-159.1928676
 20
277.00891341
 30
0.0
 11
-163.99490548
 21
272.20687552
 31
0.0
  0
LINE
  5
3BD
100
AcDbEntity
  8
ZUWAKU
  6
CONTINUOUS
 62
      43
100
AcDbLine
 10
-159.75855302
 20
277.00891341
 30
0.0
 11
-164.48147571
 21
272.28599072
 31
0.0
  0
LINE
  5
3BE
100
AcDbEntity
  8
ZUWAKU
  6
CONTINUOUS
 62
      43
100
AcDbLine
 10
-160.32423845
 20
277.00891341
 30
0.0
 11
-164.96401575
 21
272.36913611
 31
0.0
  0
LINE
  5
3BF
100
AcDbEntity
  8
ZUWAKU
  6
CONTINUOUS
 62
      43
100
AcDbLine
 10
-160.88992387
 20
277.00891341
 30
0.0
 11
-165.44252066
 21
272.45631662
 31
0.0
  0
LINE
  5
3C0
100
AcDbEntity
  8
ZUWAKU
  6
CONTINUOUS
 62
      43
100
AcDbLine
 10
-161.4556093
 20
277.00891341
 30
0.0
 11
-165.91698041
 21
272.5475423
 31
0.0
  0
LINE
  5
3C1
100
AcDbEntity
  8
ZUWAKU
  6
CONTINUOUS
 62
      43
100
AcDbLine
 10
-162.02129472
 20
277.00891341
 30
0.0
 11
-166.38737974
 21
272.64282839
 31
0.0
  0
LINE
  5
3C2
100
AcDbEntity
  8
ZUWAKU
  6
CONTINUOUS
 62
      43
100
AcDbLine
 10
-162.58698015
 20
277.00891341
 30
0.0
 11
-166.85369812
 21
272.74219543
 31
0.0
  0
LINE
  5
3C3
100
AcDbEntity
  8
ZUWAKU
  6
CONTINUOUS
 62
      43
100
AcDbLine
 10
-163.15266557
 20
277.00891341
 30
0.0
 11
-167.3159096
 21
272.84566939
 31
0.0
  0
LINE
  5
3C4
100
AcDbEntity
  8
ZUWAKU
  6
CONTINUOUS
 62
      43
100
AcDbLine
 10
-163.718351
 20
277.00891341
 30
0.0
 11
-167.7739826
 21
272.95328181
 31
0.0
  0
LINE
  5
3C5
100
AcDbEntity
  8
ZUWAKU
  6
CONTINUOUS
 62
      43
100
AcDbLine
 10
-164.28403642
 20
277.00891341
 30
0.0
 11
-168.22787978
 21
273.06507005
 31
0.0
  0
LINE
  5
3C6
100
AcDbEntity
  8
ZUWAKU
  6
CONTINUOUS
 62
      43
100
AcDbLine
 10
-164.84972185
 20
277.00891341
 30
0.0
 11
-168.67755771
 21
273.18107755
 31
0.0
  0
LINE
  5
3C7
100
AcDbEntity
  8
ZUWAKU
  6
CONTINUOUS
 62
      43
100
AcDbLine
 10
-165.41540727
 20
277.00891341
 30
0.0
 11
-169.12296662
 21
273.30135406
 31
0.0
  0
LINE
  5
3C8
100
AcDbEntity
  8
ZUWAKU
  6
CONTINUOUS
 62
      43
100
AcDbLine
 10
-165.9810927
 20
277.00891341
 30
0.0
 11
-169.56405001
 21
273.4259561
 31
0.0
  0
LINE
  5
3C9
100
AcDbEntity
  8
ZUWAKU
  6
CONTINUOUS
 62
      43
100
AcDbLine
 10
-166.54677812
 20
277.00891341
 30
0.0
 11
-170.00074427
 21
273.55494726
 31
0.0
  0
LINE
  5
3CA
100
AcDbEntity
  8
ZUWAKU
  6
CONTINUOUS
 62
      43
100
AcDbLine
 10
-167.11246355
 20
277.00891341
 30
0.0
 11
-170.43297819
 21
273.68839877
 31
0.0
  0
LINE
  5
3CB
100
AcDbEntity
  8
ZUWAKU
  6
CONTINUOUS
 62
      43
100
AcDbLine
 10
-167.67814897
 20
277.00891341
 30
0.0
 11
-170.86067239
 21
273.82638999
 31
0.0
  0
LINE
  5
3CC
100
AcDbEntity
  8
ZUWAKU
  6
CONTINUOUS
 62
      43
100
AcDbLine
 10
-168.24383439
 20
277.00891341
 30
0.0
 11
-171.28373873
 21
273.96900907
 31
0.0
  0
LINE
  5
3CD
100
AcDbEntity
  8
ZUWAKU
  6
CONTINUOUS
 62
      43
100
AcDbLine
 10
-168.80951982
 20
277.00891341
 30
0.0
 11
-171.70207952
 21
274.11635371
 31
0.0
  0
LINE
  5
3CE
100
AcDbEntity
  8
ZUWAKU
  6
CONTINUOUS
 62
      43
100
AcDbLine
 10
-169.37520524
 20
277.00891341
 30
0.0
 11
-172.1155867
 21
274.26853196
 31
0.0
  0
LINE
  5
3CF
100
AcDbEntity
  8
ZUWAKU
  6
CONTINUOUS
 62
      43
100
AcDbLine
 10
-169.94089067
 20
277.00891341
 30
0.0
 11
-172.52414085
 21
274.42566323
 31
0.0
  0
LINE
  5
3D0
100
AcDbEntity
  8
ZUWAKU
  6
CONTINUOUS
 62
      43
100
AcDbLine
 10
-170.50657609
 20
277.00891341
 30
0.0
 11
-172.92761006
 21
274.58787945
 31
0.0
  0
LINE
  5
3D1
100
AcDbEntity
  8
ZUWAKU
  6
CONTINUOUS
 62
      43
100
AcDbLine
 10
-171.07226152
 20
277.00891341
 30
0.0
 11
-173.32584859
 21
274.75532634
 31
0.0
  0
LINE
  5
3D2
100
AcDbEntity
  8
ZUWAKU
  6
CONTINUOUS
 62
      43
100
AcDbLine
 10
-171.63794694
 20
277.00891341
 30
0.0
 11
-173.71869534
 21
274.92816501
 31
0.0
  0
LINE
  5
3D3
100
AcDbEntity
  8
ZUWAKU
  6
CONTINUOUS
 62
      43
100
AcDbLine
 10
-172.20363237
 20
277.00891341
 30
0.0
 11
-174.10597204
 21
275.10657374
 31
0.0
  0
LINE
  5
3D4
100
AcDbEntity
  8
ZUWAKU
  6
CONTINUOUS
 62
      43
100
AcDbLine
 10
-172.76931779
 20
277.00891341
 30
0.0
 11
-174.48748111
 21
275.29075009
 31
0.0
  0
LINE
  5
3D5
100
AcDbEntity
  8
ZUWAKU
  6
CONTINUOUS
 62
      43
100
AcDbLine
 10
-173.33500322
 20
277.00891341
 30
0.0
 11
-174.86300318
 21
275.48091345
 31
0.0
  0
LINE
  5
3D6
100
AcDbEntity
  8
ZUWAKU
  6
CONTINUOUS
 62
      43
100
AcDbLine
 10
-173.90068864
 20
277.00891341
 30
0.0
 11
-175.23229407
 21
275.67730798
 31
0.0
  0
LINE
  5
3D7
100
AcDbEntity
  8
ZUWAKU
  6
CONTINUOUS
 62
      43
100
AcDbLine
 10
-174.46637407
 20
277.00891341
 30
0.0
 11
-175.59508124
 21
275.88020624
 31
0.0
  0
LINE
  5
3D8
100
AcDbEntity
  8
ZUWAKU
  6
CONTINUOUS
 62
      43
100
AcDbLine
 10
-175.03205949
 20
277.00891341
 30
0.0
 11
-175.95105948
 21
276.08991343
 31
0.0
  0
LINE
  5
3D9
100
AcDbEntity
  8
ZUWAKU
  6
CONTINUOUS
 62
      43
100
AcDbLine
 10
-175.25
 20
277.35665833
 30
0.0
 11
-176.29988568
 21
276.30677265
 31
0.0
  0
LINE
  5
3DA
100
AcDbEntity
  8
ZUWAKU
  6
CONTINUOUS
 62
      43
100
AcDbLine
 10
-175.25
 20
277.92234376
 30
0.0
 11
-176.64117245
 21
276.5311713
 31
0.0
  0
LINE
  5
3DB
100
AcDbEntity
  8
ZUWAKU
  6
CONTINUOUS
 62
      43
100
AcDbLine
 10
-175.25
 20
278.48802918
 30
0.0
 11
-176.97448022
 21
276.76354896
 31
0.0
  0
LINE
  5
3DC
100
AcDbEntity
  8
ZUWAKU
  6
CONTINUOUS
 62
      43
100
AcDbLine
 10
-175.25
 20
279.05371461
 30
0.0
 11
-177.29930736
 21
277.00440725
 31
0.0
  0
LINE
  5
3DD
100
AcDbEntity
  8
ZUWAKU
  6
CONTINUOUS
 62
      43
100
AcDbLine
 10
-175.25
 20
279.61940003
 30
0.0
 11
-177.6150777
 21
277.25432234
 31
0.0
  0
LINE
  5
3DE
100
AcDbEntity
  8
ZUWAKU
  6
CONTINUOUS
 62
      43
100
AcDbLine
 10
-175.25
 20
280.18508546
 30
0.0
 11
-177.92112461
 21
277.51396084
 31
0.0
  0
LINE
  5
3DF
100
AcDbEntity
  8
ZUWAKU
  6
CONTINUOUS
 62
      43
100
AcDbLine
 10
-175.25
 20
280.75077088
 30
0.0
 11
-178.21667029
 21
277.78410059
 31
0.0
  0
LINE
  5
3E0
100
AcDbEntity
  8
ZUWAKU
  6
CONTINUOUS
 62
      43
100
AcDbLine
 10
-175.25
 20
281.31645631
 30
0.0
 11
-178.50079841
 21
278.0656579
 31
0.0
  0
LINE
  5
3E1
100
AcDbEntity
  8
ZUWAKU
  6
CONTINUOUS
 62
      43
100
AcDbLine
 10
-175.24822832
 20
281.88391341
 30
0.0
 11
-178.77241736
 21
278.35972437
 31
0.0
  0
LINE
  5
3E2
100
AcDbEntity
  8
ZUWAKU
  6
CONTINUOUS
 62
      43
100
AcDbLine
 10
-175.81391374
 20
281.88391341
 30
0.0
 11
-179.03020982
 21
278.66761734
 31
0.0
  0
LINE
  5
3E3
100
AcDbEntity
  8
ZUWAKU
  6
CONTINUOUS
 62
      43
100
AcDbLine
 10
-176.37959917
 20
281.88391341
 30
0.0
 11
-179.27256165
 21
278.99095093
 31
0.0
  0
LINE
  5
3E4
100
AcDbEntity
  8
ZUWAKU
  6
CONTINUOUS
 62
      43
100
AcDbLine
 10
-176.94528459
 20
281.88391341
 30
0.0
 11
-179.49745899
 21
279.33173902
 31
0.0
  0
LINE
  5
3E5
100
AcDbEntity
  8
ZUWAKU
  6
CONTINUOUS
 62
      43
100
AcDbLine
 10
-177.51097002
 20
281.88391341
 30
0.0
 11
-179.70233383
 21
279.6925496
 31
0.0
  0
LINE
  5
3E6
100
AcDbEntity
  8
ZUWAKU
  6
CONTINUOUS
 62
      43
100
AcDbLine
 10
-178.07665544
 20
281.88391341
 30
0.0
 11
-179.88382277
 21
280.07674609
 31
0.0
  0
LINE
  5
3E7
100
AcDbEntity
  8
ZUWAKU
  6
CONTINUOUS
 62
      43
100
AcDbLine
 10
-178.64234087
 20
281.88391341
 30
0.0
 11
-180.03737005
 21
280.48888423
 31
0.0
  0
LINE
  5
3E8
100
AcDbEntity
  8
ZUWAKU
  6
CONTINUOUS
 62
      43
100
AcDbLine
 10
-179.20802629
 20
281.88391341
 30
0.0
 11
-180.1565309
 21
280.9354088
 31
0.0
  0
LINE
  5
3E9
100
AcDbEntity
  8
ZUWAKU
  6
CONTINUOUS
 62
      43
100
AcDbLine
 10
-179.77371172
 20
281.88391341
 30
0.0
 11
-180.2316402
 21
281.42598493
 31
0.0
  0
LINE
  5
3EA
100
AcDbEntity
  8
ZUWAKU
  6
CONTINUOUS
 62
      43
100
AcDbLine
 10
-146.18210282
 20
277.00891341
 30
0.0
 11
-151.61773961
 21
271.57327663
 31
0.0
  0
LINE
  5
3EB
100
AcDbEntity
  8
ZUWAKU
  6
CONTINUOUS
 62
      43
100
AcDbLine
 10
-145.6164174
 20
277.00891341
 30
0.0
 11
-151.01997486
 21
271.60535595
 31
0.0
  0
LINE
  5
3EC
100
AcDbEntity
  8
ZUWAKU
  6
CONTINUOUS
 62
      43
100
AcDbLine
 10
-145.05073197
 20
277.00891341
 30
0.0
 11
-150.41596076
 21
271.64368462
 31
0.0
  0
LINE
  5
3ED
100
AcDbEntity
  8
ZUWAKU
  6
CONTINUOUS
 62
      43
100
AcDbLine
 10
-144.48504655
 20
277.00891341
 30
0.0
 11
-149.80542263
 21
271.68853733
 31
0.0
  0
LINE
  5
3EE
100
AcDbEntity
  8
ZUWAKU
  6
CONTINUOUS
 62
      43
100
AcDbLine
 10
-143.91936112
 20
277.00891341
 30
0.0
 11
-149.18805278
 21
271.74022176
 31
0.0
  0
LINE
  5
3EF
100
AcDbEntity
  8
ZUWAKU
  6
CONTINUOUS
 62
      43
100
AcDbLine
 10
-143.3536757
 20
277.00891341
 30
0.0
 11
-148.5635052
 21
271.79908391
 31
0.0
  0
LINE
  5
3F0
100
AcDbEntity
  8
ZUWAKU
  6
CONTINUOUS
 62
      43
100
AcDbLine
 10
-142.78799027
 20
277.00891341
 30
0.0
 11
-147.93138914
 21
271.86551454
 31
0.0
  0
LINE
  5
3F1
100
AcDbEntity
  8
ZUWAKU
  6
CONTINUOUS
 62
      43
100
AcDbLine
 10
-142.22230485
 20
277.00891341
 30
0.0
 11
-147.291261
 21
271.93995726
 31
0.0
  0
LINE
  5
3F2
100
AcDbEntity
  8
ZUWAKU
  6
CONTINUOUS
 62
      43
100
AcDbLine
 10
-141.65661942
 20
277.00891341
 30
0.0
 11
-146.64261434
 21
272.02291849
 31
0.0
  0
LINE
  5
3F3
100
AcDbEntity
  8
ZUWAKU
  6
CONTINUOUS
 62
      43
100
AcDbLine
 10
-141.090934
 20
277.00891341
 30
0.0
 11
-145.98486724
 21
272.11498017
 31
0.0
  0
LINE
  5
3F4
100
AcDbEntity
  8
ZUWAKU
  6
CONTINUOUS
 62
      43
100
AcDbLine
 10
-140.52524857
 20
277.00891341
 30
0.0
 11
-145.317346
 21
272.21681599
 31
0.0
  0
LINE
  5
3F5
100
AcDbEntity
  8
ZUWAKU
  6
CONTINUOUS
 62
      43
100
AcDbLine
 10
-139.95956315
 20
277.00891341
 30
0.0
 11
-144.63926405
 21
272.32921251
 31
0.0
  0
LINE
  5
3F6
100
AcDbEntity
  8
ZUWAKU
  6
CONTINUOUS
 62
      43
100
AcDbLine
 10
-139.39387772
 20
277.00891341
 30
0.0
 11
-143.9496941
 21
272.45309704
 31
0.0
  0
LINE
  5
3F7
100
AcDbEntity
  8
ZUWAKU
  6
CONTINUOUS
 62
      43
100
AcDbLine
 10
-133.9531923
 20
281.88391341
 30
0.0
 11
-134.0
 21
281.83710571
 31
0.0
  0
LINE
  5
3F8
100
AcDbEntity
  8
ZUWAKU
  6
CONTINUOUS
 62
      43
100
AcDbLine
 10
-138.8281923
 20
277.00891341
 30
0.0
 11
-143.24753052
 21
272.58957519
 31
0.0
  0
LINE
  5
3F9
100
AcDbEntity
  8
ZUWAKU
  6
CONTINUOUS
 62
      43
100
AcDbLine
 10
-133.38750687
 20
281.88391341
 30
0.0
 11
-134.0
 21
281.27142029
 31
0.0
  0
LINE
  5
3FA
100
AcDbEntity
  8
ZUWAKU
  6
CONTINUOUS
 62
      43
100
AcDbLine
 10
-138.26250687
 20
277.00891341
 30
0.0
 11
-142.53143775
 21
272.73998253
 31
0.0
  0
LINE
  5
3FB
100
AcDbEntity
  8
ZUWAKU
  6
CONTINUOUS
 62
      43
100
AcDbLine
 10
-132.82182145
 20
281.88391341
 30
0.0
 11
-134.0
 21
280.70573486
 31
0.0
  0
LINE
  5
3FC
100
AcDbEntity
  8
ZUWAKU
  6
CONTINUOUS
 62
      43
100
AcDbLine
 10
-137.69682145
 20
277.00891341
 30
0.0
 11
-141.79977742
 21
272.90595744
 31
0.0
  0
LINE
  5
3FD
100
AcDbEntity
  8
ZUWAKU
  6
CONTINUOUS
 62
      43
100
AcDbLine
 10
-132.25613602
 20
281.88391341
 30
0.0
 11
-134.0
 21
280.14004944
 31
0.0
  0
LINE
  5
3FE
100
AcDbEntity
  8
ZUWAKU
  6
CONTINUOUS
 62
      43
100
AcDbLine
 10
-137.13113602
 20
277.00891341
 30
0.0
 11
-141.05050255
 21
273.08954689
 31
0.0
  0
LINE
  5
3FF
100
AcDbEntity
  8
ZUWAKU
  6
CONTINUOUS
 62
      43
100
AcDbLine
 10
-131.6904506
 20
281.88391341
 30
0.0
 11
-134.0
 21
279.57436401
 31
0.0
  0
LINE
  5
400
100
AcDbEntity
  8
ZUWAKU
  6
CONTINUOUS
 62
      43
100
AcDbLine
 10
-136.5654506
 20
277.00891341
 30
0.0
 11
-140.28099845
 21
273.29336556
 31
0.0
  0
LINE
  5
401
100
AcDbEntity
  8
ZUWAKU
  6
CONTINUOUS
 62
      43
100
AcDbLine
 10
-131.12476517
 20
281.88391341
 30
0.0
 11
-134.0
 21
279.00867859
 31
0.0
  0
LINE
  5
402
100
AcDbEntity
  8
ZUWAKU
  6
CONTINUOUS
 62
      43
100
AcDbLine
 10
-135.99976517
 20
277.00891341
 30
0.0
 11
-139.48783337
 21
273.52084521
 31
0.0
  0
LINE
  5
403
100
AcDbEntity
  8
ZUWAKU
  6
CONTINUOUS
 62
      43
100
AcDbLine
 10
-130.55907975
 20
281.88391341
 30
0.0
 11
-134.0
 21
278.44299316
 31
0.0
  0
LINE
  5
404
100
AcDbEntity
  8
ZUWAKU
  6
CONTINUOUS
 62
      43
100
AcDbLine
 10
-135.43407975
 20
277.00891341
 30
0.0
 11
-138.66634647
 21
273.7766467
 31
0.0
  0
LINE
  5
405
100
AcDbEntity
  8
ZUWAKU
  6
CONTINUOUS
 62
      43
100
AcDbLine
 10
-129.99339432
 20
281.88391341
 30
0.0
 11
-134.0
 21
277.87730774
 31
0.0
  0
LINE
  5
406
100
AcDbEntity
  8
ZUWAKU
  6
CONTINUOUS
 62
      43
100
AcDbLine
 10
-134.86839432
 20
277.00891341
 30
0.0
 11
-137.80992096
 21
274.06738678
 31
0.0
  0
LINE
  5
407
100
AcDbEntity
  8
ZUWAKU
  6
CONTINUOUS
 62
      43
100
AcDbLine
 10
-129.4277089
 20
281.88391341
 30
0.0
 11
-134.0
 21
277.31162231
 31
0.0
  0
LINE
  5
408
100
AcDbEntity
  8
ZUWAKU
  6
CONTINUOUS
 62
      43
100
AcDbLine
 10
-134.3027089
 20
277.00891341
 30
0.0
 11
-136.90858534
 21
274.40303697
 31
0.0
  0
LINE
  5
409
100
AcDbEntity
  8
ZUWAKU
  6
CONTINUOUS
 62
      43
100
AcDbLine
 10
-129.12984551
 20
281.61609138
 30
0.0
 11
-135.94597648
 21
274.79996041
 31
0.0
  0
LINE
  5
40A
100
AcDbEntity
  8
ZUWAKU
  6
CONTINUOUS
 62
      43
100
AcDbLine
 10
-129.21152607
 20
280.96872539
 30
0.0
 11
-134.89143846
 21
275.288813
 31
0.0
  0
LINE
  5
40B
100
AcDbEntity
  8
ZUWAKU
  6
CONTINUOUS
 62
      43
100
AcDbLine
 10
-129.45823447
 20
280.15633157
 30
0.0
 11
-133.6718726
 21
275.94269344
 31
0.0
  0
LINE
  5
40C
100
AcDbEntity
  8
ZUWAKU
  6
CONTINUOUS
 62
      43
100
AcDbLine
 10
-130.22135211
 20
278.8275285
 30
0.0
 11
-131.9358975
 21
277.11298311
 31
0.0
  0
LINE
  5
40D
100
AcDbEntity
  8
ZUWAKU
  6
CONTINUOUS
 62
      43
100
AcDbLine
 10
-183.125
 20
-253.74108659
 30
0.0
 11
185.75
 21
-253.74108659
 31
0.0
  0
LINE
  5
40E
100
AcDbEntity
  8
ZUWAKU
  6
CONTINUOUS
 62
      43
100
AcDbLine
 10
-183.125
 20
-253.74108659
 30
0.0
 11
-183.125
 21
-163.74108659
 31
0.0
  0
LINE
  5
40F
100
AcDbEntity
  8
ZUWAKU
  6
CONTINUOUS
 62
      43
100
AcDbLine
 10
185.75
 20
-253.74108659
 30
0.0
 11
185.75
 21
-163.74108659
 31
0.0
  0
LINE
  5
410
100
AcDbEntity
  8
ZUWAKU
  6
CONTINUOUS
 62
      43
100
AcDbLine
 10
-183.125
 20
-163.74108659
 30
0.0
 11
185.75
 21
-163.74108659
 31
0.0
  0
POINT
  5
411
100
AcDbEntity
  8
ZUWAKU
  6
CONTINUOUS
 62
       9
100
AcDbPoint
 10
124.625
 20
277.72777628
 30
0.0
  0
POINT
  5
412
100
AcDbEntity
  8
ZUWAKU
  6
CONTINUOUS
 62
       9
100
AcDbPoint
 10
-30.80552326
 20
277.72777628
 30
0.0
  0
POINT
  5
413
100
AcDbEntity
  8
ZUWAKU
  6
CONTINUOUS
 62
       9
100
AcDbPoint
 10
123.375
 20
-269.17858659
 30
0.0
  0
POINT
  5
414
100
AcDbEntity
  8
ZUWAKU
  6
CONTINUOUS
 62
       9
100
AcDbPoint
 10
-11.5625
 20
-269.17858659
 30
0.0
  0
LINE
  5
415
100
AcDbEntity
  8
ZUWAKU
  6
CONTINUOUS
 62
       9
100
AcDbLine
 10
-211.0
 20
308.0
 30
0.0
 11
-211.0
 21
298.0
 31
0.0
  0
LINE
  5
416
100
AcDbEntity
  8
ZUWAKU
  6
CONTINUOUS
 62
       9
100
AcDbLine
 10
-211.0
 20
298.0
 30
0.0
 11
-221.0
 21
298.0
 31
0.0
  0
LINE
  5
417
100
AcDbEntity
  8
ZUWAKU
  6
CONTINUOUS
 62
       9
100
AcDbLine
 10
209.0
 20
298.0
 30
0.0
 11
219.0
 21
298.0
 31
0.0
  0
LINE
  5
418
100
AcDbEntity
  8
ZUWAKU
  6
CONTINUOUS
 62
       9
100
AcDbLine
 10
209.0
 20
298.0
 30
0.0
 11
209.0
 21
308.0
 31
0.0
  0
LINE
  5
419
100
AcDbEntity
  8
ZUWAKU
  6
CONTINUOUS
 62
       9
100
AcDbLine
 10
209.0
 20
-306.0
 30
0.0
 11
209.0
 21
-296.0
 31
0.0
  0
LINE
  5
41A
100
AcDbEntity
  8
ZUWAKU
  6
CONTINUOUS
 62
       9
100
AcDbLine
 10
209.0
 20
-296.0
 30
0.0
 11
219.0
 21
-296.0
 31
0.0
  0
LINE
  5
41B
100
AcDbEntity
  8
ZUWAKU
  6
CONTINUOUS
 62
       9
100
AcDbLine
 10
-221.04624619
 20
-296.0
 30
0.0
 11
-211.0
 21
-296.0
 31
0.0
  0
LINE
  5
41C
100
AcDbEntity
  8
ZUWAKU
  6
CONTINUOUS
 62
       9
100
AcDbLine
 10
-211.0
 20
-296.0690213
 30
0.0
 11
-211.0
 21
-305.99989306
 31
0.0
  0
POINT
  5
41D
100
AcDbEntity
  8
ZUWAKU
  6
CONTINUOUS
 62
       9
100
AcDbPoint
 10
41.25
 20
-238.74108659
 30
0.0
  0
POINT
  5
41E
100
AcDbEntity
  8
ZUWAKU
  6
CONTINUOUS
 62
       9
100
AcDbPoint
 10
-167.25
 20
-238.74108659
 30
0.0
  0
POINT
  5
41F
100
AcDbEntity
  8
ZUWAKU
  6
CONTINUOUS
 62
       9
100
AcDbPoint
 10
-74.125
 20
-238.74108659
 30
0.0
  0
POINT
  5
420
100
AcDbEntity
  8
ZUWAKU
  6
CONTINUOUS
 62
       9
100
AcDbPoint
 10
54.375
 20
-238.74108659
 30
0.0
  0
POINT
  5
421
100
AcDbEntity
  8
ZUWAKU
  6
CONTINUOUS
 62
       9
100
AcDbPoint
 10
-167.25
 20
-228.74108659
 30
0.0
  0
POINT
  5
422
100
AcDbEntity
  8
ZUWAKU
  6
CONTINUOUS
 62
       9
100
AcDbPoint
 10
-74.125
 20
-228.74108659
 30
0.0
  0
POINT
  5
423
100
AcDbEntity
  8
ZUWAKU
  6
CONTINUOUS
 62
       9
100
AcDbPoint
 10
54.375
 20
-228.74108659
 30
0.0
  0
POINT
  5
424
100
AcDbEntity
  8
ZUWAKU
  6
CONTINUOUS
 62
       9
100
AcDbPoint
 10
-167.25
 20
-218.74108659
 30
0.0
  0
POINT
  5
425
100
AcDbEntity
  8
ZUWAKU
  6
CONTINUOUS
 62
       9
100
AcDbPoint
 10
-74.125
 20
-218.74108659
 30
0.0
  0
POINT
  5
426
100
AcDbEntity
  8
ZUWAKU
  6
CONTINUOUS
 62
       9
100
AcDbPoint
 10
-167.25
 20
-208.74108659
 30
0.0
  0
POINT
  5
427
100
AcDbEntity
  8
ZUWAKU
  6
CONTINUOUS
 62
       9
100
AcDbPoint
 10
-74.125
 20
-208.74108659
 30
0.0
  0
POINT
  5
428
100
AcDbEntity
  8
ZUWAKU
  6
CONTINUOUS
 62
       9
100
AcDbPoint
 10
-167.25
 20
-198.74108659
 30
0.0
  0
POINT
  5
429
100
AcDbEntity
  8
ZUWAKU
  6
CONTINUOUS
 62
       9
100
AcDbPoint
 10
-74.125
 20
-198.74108659
 30
0.0
  0
POINT
  5
42A
100
AcDbEntity
  8
ZUWAKU
  6
CONTINUOUS
 62
       9
100
AcDbPoint
 10
54.375
 20
-198.74108659
 30
0.0
  0
POINT
  5
42B
100
AcDbEntity
  8
ZUWAKU
  6
CONTINUOUS
 62
       9
100
AcDbPoint
 10
41.25
 20
-228.74108659
 30
0.0
  0
POINT
  5
42C
100
AcDbEntity
  8
ZUWAKU
  6
CONTINUOUS
 62
       9
100
AcDbPoint
 10
-167.25
 20
-188.74108659
 30
0.0
  0
POINT
  5
42D
100
AcDbEntity
  8
ZUWAKU
  6
CONTINUOUS
 62
       9
100
AcDbPoint
 10
-74.125
 20
-188.74108659
 30
0.0
  0
POINT
  5
42E
100
AcDbEntity
  8
ZUWAKU
  6
CONTINUOUS
 62
       9
100
AcDbPoint
 10
54.375
 20
-188.74108659
 30
0.0
  0
POINT
  5
42F
100
AcDbEntity
  8
ZUWAKU
  6
CONTINUOUS
 62
       9
100
AcDbPoint
 10
-167.25
 20
-178.74108659
 30
0.0
  0
POINT
  5
430
100
AcDbEntity
  8
ZUWAKU
  6
CONTINUOUS
 62
       9
100
AcDbPoint
 10
-74.125
 20
-178.74108659
 30
0.0
  0
POINT
  5
431
100
AcDbEntity
  8
ZUWAKU
  6
CONTINUOUS
 62
       9
100
AcDbPoint
 10
54.375
 20
-178.74108659
 30
0.0
  0
TEXT
  5
432
100
AcDbEntity
  8
LAYER0240
 62
       4
100
AcDbText
 10
-64.3625
 20
-275.17858659
 30
0.0
 40
12.0
  1
カウンター用タオル掛Ｓ
 41
0.6875
 72
       5
 11
41.2375
 21
-275.17858659
 31
0.0
100
AcDbText
  0
TEXT
  5
433
100
AcDbEntity
  8
LAYER0240
 62
       4
100
AcDbText
 10
99.375
 20
-275.17858659
 30
0.0
 40
12.0
  1
R9004
 41
0.8
 72
       5
 11
147.375
 21
-275.17858659
 31
0.0
100
AcDbText
  0
TEXT
  5
434
100
AcDbEntity
  8
LAYER0240
 62
       4
100
AcDbText
 10
-83.60552326
 20
271.72777628
 30
0.0
 40
12.0
  1
カウンター用タオル掛Ｓ
 41
0.6875
 72
       5
 11
21.99447674
 21
271.72777628
 31
0.0
100
AcDbText
  0
TEXT
  5
435
100
AcDbEntity
  8
LAYER0240
 62
       4
100
AcDbText
 10
100.625
 20
271.72777628
 30
0.0
 40
12.0
  1
R9004
 41
0.8
 72
       5
 11
148.625
 21
271.72777628
 31
0.0
100
AcDbText
  0
TEXT
  5
436
100
AcDbEntity
  8
LAYER0240
 62
       4
100
AcDbText
 10
-167.25
 20
-242.74108659
 30
0.0
 40
8.0
  1
本体
 41
0.6667
 72
       5
 11
-156.05
 21
-242.74108659
 31
0.0
100
AcDbText
  0
TEXT
  5
437
100
AcDbEntity
  8
LAYER0240
 62
       4
100
AcDbText
 10
-74.125
 20
-242.74108659
 30
0.0
 40
8.0
  1
SUS304
 41
0.8
 72
       5
 11
-35.725
 21
-242.74108659
 31
0.0
100
AcDbText
  0
TEXT
  5
438
100
AcDbEntity
  8
LAYER0240
 62
       4
100
AcDbText
 10
38.05
 20
-242.74108659
 30
0.0
 40
8.0
  1
1
 41
0.8
 72
       5
 11
44.45
 21
-242.74108659
 31
0.0
100
AcDbText
  0
TEXT
  5
439
100
AcDbEntity
  8
LAYER0240
 62
       4
100
AcDbText
 10
54.375
 20
-242.74108659
 30
0.0
 40
8.0
  1
♯600研磨
 41
0.75
 72
       5
 11
92.775
 21
-242.74108659
 31
0.0
100
AcDbText
  0
TEXT
  5
43A
100
AcDbEntity
  8
LAYER0240
 62
       4
100
AcDbText
 10
-167.25
 20
-232.74108659
 30
0.0
 40
8.0
  1
取付ﾈｼﾞ　4×15
 41
0.6333
 72
       5
 11
-103.25
 21
-232.74108659
 31
0.0
100
AcDbText
  0
TEXT
  5
43B
100
AcDbEntity
  8
LAYER0240
 62
       4
100
AcDbText
 10
38.05
 20
-232.74108659
 30
0.0
 40
8.0
  1
2
 41
0.8
 72
       5
 11
44.45
 21
-232.74108659
 31
0.0
100
AcDbText
  0
TEXT
  5
43C
100
AcDbEntity
  8
LAYER0240
 62
       4
100
AcDbText
 10
-74.125
 20
-232.74108659
 30
0.0
 40
8.0
  1
SUS304
 41
0.8
 72
       5
 11
-35.725
 21
-232.74108659
 31
0.0
100
AcDbText
  0
LINE
  5
43D
100
AcDbEntity
  8
LAYER0001
  6
CENTER
 62
       9
100
AcDbLine
 10
-42.15768116
 20
-106.223337
 30
0.0
 11
-42.15768116
 21
-5.82352941
 31
0.0
  0
LINE
  5
43E
100
AcDbEntity
  8
LAYER0001
  6
CENTER
 62
       9
100
AcDbLine
 10
-42.15768116
 20
69.35409937
 30
0.0
 11
-42.15768116
 21
139.40344581
 31
0.0
  0
ARC
  5
43F
100
AcDbEntity
  8
0
  6
CONTINUOUS
 62
       3
100
AcDbCircle
 10
-137.15768116
 20
-90.53822818
 30
0.0
 40
2.0
100
AcDbArc
 50
180.0
 51
270.0
  0
ARC
  5
440
100
AcDbEntity
  8
0
  6
CONTINUOUS
 62
       3
100
AcDbCircle
 10
52.84231884
 20
-90.53822818
 30
0.0
 40
2.0
100
AcDbArc
 50
270.0
 51
360.0
  0
ARC
  5
441
100
AcDbEntity
  8
0
  6
CONTINUOUS
 62
       3
100
AcDbCircle
 10
53.84231884
 20
-91.53822818
 30
0.0
 40
4.0
100
AcDbArc
 50
270.0
 51
360.0
  0
ARC
  5
442
100
AcDbEntity
  8
0
  6
CONTINUOUS
 62
       3
100
AcDbCircle
 10
-138.15768116
 20
-91.53822818
 30
0.0
 40
4.0
100
AcDbArc
 50
180.0
 51
270.0
  0
LINE
  5
443
100
AcDbEntity
  8
0
  6
CONTINUOUS
 62
       3
100
AcDbLine
 10
52.84231884
 20
-92.53822818
 30
0.0
 11
-137.15768116
 21
-92.53822818
 31
0.0
  0
LINE
  5
444
100
AcDbEntity
  8
0
  6
CONTINUOUS
 62
       3
100
AcDbLine
 10
-139.15768116
 20
-90.53822818
 30
0.0
 11
-139.15768402
 21
-20.53822669
 31
0.0
  0
LINE
  5
445
100
AcDbEntity
  8
0
  6
CONTINUOUS
 62
       3
100
AcDbLine
 10
-139.15768402
 20
-20.53822669
 30
0.0
 11
-142.15768265
 21
-20.53822669
 31
0.0
  0
LINE
  5
446
100
AcDbEntity
  8
0
  6
CONTINUOUS
 62
       3
100
AcDbLine
 10
-142.15768265
 20
-20.53822669
 30
0.0
 11
-142.15768116
 21
-91.53822818
 31
0.0
  0
LINE
  5
447
100
AcDbEntity
  8
0
  6
CONTINUOUS
 62
       3
100
AcDbLine
 10
-138.15768116
 20
-95.53822818
 30
0.0
 11
53.84231884
 21
-95.53822818
 31
0.0
  0
LINE
  5
448
100
AcDbEntity
  8
0
  6
CONTINUOUS
 62
       3
100
AcDbLine
 10
57.84231884
 20
-91.53822818
 30
0.0
 11
57.84232033
 21
-20.53822669
 31
0.0
  0
LINE
  5
449
100
AcDbEntity
  8
0
  6
CONTINUOUS
 62
       3
100
AcDbLine
 10
57.84232033
 20
-20.53822669
 30
0.0
 11
54.8423217
 21
-20.53822669
 31
0.0
  0
LINE
  5
44A
100
AcDbEntity
  8
0
  6
CONTINUOUS
 62
       3
100
AcDbLine
 10
54.8423217
 20
-20.53822669
 30
0.0
 11
54.84231884
 21
-90.53822818
 31
0.0
  0
LINE
  5
44B
100
AcDbEntity
  8
0
  6
CONTINUOUS
 62
       3
100
AcDbLine
 10
54.8423217
 20
-22.53822702
 30
0.0
 11
54.8423217
 21
-20.53822669
 31
0.0
  0
LINE
  5
44C
100
AcDbEntity
  8
0
  6
CONTINUOUS
 62
       3
100
AcDbLine
 10
-139.15768402
 20
-22.53822702
 30
0.0
 11
54.8423217
 21
-22.53822702
 31
0.0
  0
LINE
  5
44D
100
AcDbEntity
  8
0
  6
CONTINUOUS
 62
       3
100
AcDbLine
 10
-139.15768402
 20
-20.53822669
 30
0.0
 11
54.8423217
 21
-20.53822669
 31
0.0
  0
LINE
  5
44E
100
AcDbEntity
  8
0
  6
CONTINUOUS
 62
       3
100
AcDbLine
 10
-139.15768402
 20
-22.53822702
 30
0.0
 11
-139.15768402
 21
-20.53822669
 31
0.0
  0
LINE
  5
44F
100
AcDbEntity
  8
0
  6
CONTINUOUS
 62
       3
100
AcDbLine
 10
57.84232033
 20
105.70755301
 30
0.0
 11
54.8423217
 21
105.70755301
 31
0.0
  0
LINE
  5
450
100
AcDbEntity
  8
0
  6
CONTINUOUS
 62
       3
100
AcDbLine
 10
57.84232033
 20
105.70755301
 30
0.0
 11
57.84232033
 21
80.70755264
 31
0.0
  0
LINE
  5
451
100
AcDbEntity
  8
0
  6
CONTINUOUS
 62
       3
100
AcDbLine
 10
57.84232033
 20
80.70755264
 30
0.0
 11
54.8423217
 21
80.70755264
 31
0.0
  0
LINE
  5
452
100
AcDbEntity
  8
0
  6
CONTINUOUS
 62
       3
100
AcDbLine
 10
54.8423217
 20
105.70755301
 30
0.0
 11
54.8423217
 21
80.70755264
 31
0.0
  0
LINE
  5
453
100
AcDbEntity
  8
0
  6
CONTINUOUS
 62
       3
100
AcDbLine
 10
-142.15768265
 20
105.70755301
 30
0.0
 11
-142.15768265
 21
80.70755264
 31
0.0
  0
LINE
  5
454
100
AcDbEntity
  8
0
  6
CONTINUOUS
 62
       3
100
AcDbLine
 10
-139.15768402
 20
105.70755301
 30
0.0
 11
-142.15768265
 21
105.70755301
 31
0.0
  0
LINE
  5
455
100
AcDbEntity
  8
0
  6
CONTINUOUS
 62
       3
100
AcDbLine
 10
-139.15768402
 20
80.70755264
 30
0.0
 11
-142.15768265
 21
80.70755264
 31
0.0
  0
LINE
  5
456
100
AcDbEntity
  8
0
  6
CONTINUOUS
 62
       3
100
AcDbLine
 10
-139.15768402
 20
105.70755301
 30
0.0
 11
-139.15768402
 21
80.70755264
 31
0.0
  0
ARC
  5
457
100
AcDbEntity
  8
0
  6
CONTINUOUS
 62
       3
100
AcDbCircle
 10
53.84231884
 20
129.70755264
 30
0.0
 40
1.0
100
AcDbArc
 50
0.0
 51
90.0
  0
LINE
  5
458
100
AcDbEntity
  8
0
  6
CONTINUOUS
 62
       3
100
AcDbLine
 10
54.8423217
 20
80.70755264
 30
0.0
 11
54.84231884
 21
129.70755264
 31
0.0
  0
LINE
  5
459
100
AcDbEntity
  8
0
  6
CONTINUOUS
 62
       3
100
AcDbLine
 10
-139.15768402
 20
80.70755264
 30
0.0
 11
54.8423217
 21
80.70755264
 31
0.0
  0
LINE
  5
45A
100
AcDbEntity
  8
0
  6
CONTINUOUS
 62
       3
100
AcDbLine
 10
-139.15768116
 20
129.70755264
 30
0.0
 11
-139.15768402
 21
80.70755264
 31
0.0
  0
ARC
  5
45B
100
AcDbEntity
  8
0
  6
CONTINUOUS
 62
       3
100
AcDbCircle
 10
-138.15768116
 20
129.70755264
 30
0.0
 40
1.0
100
AcDbArc
 50
90.0
 51
180.0
  0
CIRCLE
  5
45C
100
AcDbEntity
  8
0
  6
CONTINUOUS
 62
       3
100
AcDbCircle
 10
35.84231884
 20
112.70755264
 30
0.0
 40
2.5
  0
CIRCLE
  5
45D
100
AcDbEntity
  8
0
  6
CONTINUOUS
 62
       3
100
AcDbCircle
 10
-120.15768116
 20
112.70755264
 30
0.0
 40
2.5
  0
LINE
  5
45E
100
AcDbEntity
  8
0
  6
CONTINUOUS
 62
       3
100
AcDbLine
 10
53.84231884
 20
130.70755264
 30
0.0
 11
-138.15768116
 21
130.70755264
 31
0.0
  0
LINE
  5
45F
100
AcDbEntity
  8
0
  6
CONTINUOUS
 62
       3
100
AcDbLine
 10
154.86492754
 20
-95.53822818
 30
0.0
 11
129.86492754
 21
-95.53822818
 31
0.0
  0
LINE
  5
460
100
AcDbEntity
  8
0
  6
CONTINUOUS
 62
       3
100
AcDbLine
 10
129.86492754
 20
-95.53822818
 30
0.0
 11
129.86492754
 21
-91.53822818
 31
0.0
  0
LINE
  5
461
100
AcDbEntity
  8
0
  6
CONTINUOUS
 62
       3
100
AcDbLine
 10
154.86492754
 20
-91.53822818
 30
0.0
 11
154.86492754
 21
-95.53822818
 31
0.0
  0
LINE
  5
462
100
AcDbEntity
  8
0
  6
CONTINUOUS
 62
       3
100
AcDbLine
 10
129.86492754
 20
-91.53822818
 30
0.0
 11
129.86492754
 21
-20.53822669
 31
0.0
  0
LINE
  5
463
100
AcDbEntity
  8
0
  6
CONTINUOUS
 62
       3
100
AcDbLine
 10
154.86492791
 20
-20.53822669
 30
0.0
 11
129.86492754
 21
-20.53822669
 31
0.0
  0
LINE
  5
464
100
AcDbEntity
  8
0
  6
CONTINUOUS
 62
       3
100
AcDbLine
 10
154.86492754
 20
-91.53822818
 30
0.0
 11
154.86492791
 21
-20.53822669
 31
0.0
  0
LINE
  5
465
100
AcDbEntity
  8
0
  6
CONTINUOUS
 62
       3
100
AcDbLine
 10
179.86492754
 20
-20.53822818
 30
0.0
 11
179.86492754
 21
-22.53822818
 31
0.0
  0
LINE
  5
466
100
AcDbEntity
  8
0
  6
CONTINUOUS
 62
       3
100
AcDbLine
 10
178.86492754
 20
-20.53822818
 30
0.0
 11
179.86492754
 21
-20.53822818
 31
0.0
  0
LINE
  5
467
100
AcDbEntity
  8
0
  6
CONTINUOUS
 62
       3
100
AcDbLine
 10
179.86492754
 20
-22.53822818
 30
0.0
 11
178.86492754
 21
-22.53822818
 31
0.0
  0
LINE
  5
468
100
AcDbEntity
  8
0
  6
CONTINUOUS
 62
       3
100
AcDbLine
 10
154.86492791
 20
-20.53822669
 30
0.0
 11
178.86492754
 21
-20.53822818
 31
0.0
  0
LINE
  5
469
100
AcDbEntity
  8
0
  6
CONTINUOUS
 62
       3
100
AcDbLine
 10
154.86492791
 20
-22.53822702
 30
0.0
 11
178.86492754
 21
-22.53822818
 31
0.0
  0
LINE
  5
46A
100
AcDbEntity
  8
0
  6
CENTER
 62
       9
100
AcDbLine
 10
-120.15768116
 20
122.68900192
 30
0.0
 11
-120.15768116
 21
102.68900192
 31
0.0
  0
LINE
  5
46B
100
AcDbEntity
  8
0
  6
CENTER
 62
       9
100
AcDbLine
 10
35.84231884
 20
122.68900192
 30
0.0
 11
35.84231884
 21
102.68900192
 31
0.0
  0
LINE
  5
46C
100
AcDbEntity
  8
0
  6
CENTER
 62
       9
100
AcDbLine
 10
-120.15768116
 20
-12.05639098
 30
0.0
 11
-120.15768116
 21
-32.05639098
 31
0.0
  0
LINE
  5
46D
100
AcDbEntity
  8
0
  6
CENTER
 62
       9
100
AcDbLine
 10
35.84231884
 20
-12.05639098
 30
0.0
 11
35.84231884
 21
-32.05639098
 31
0.0
  0
LINE
  5
46E
100
AcDbEntity
  8
0
  6
CENTER
 62
       9
100
AcDbLine
 10
161.86492754
 20
-32.05639098
 30
0.0
 11
161.86492754
 21
-12.05639098
 31
0.0
  0
LINE
  5
46F
100
AcDbEntity
  8
0
  6
CENTER
 62
       9
100
AcDbLine
 10
-128.25377792
 20
112.70755264
 30
0.0
 11
-111.53698594
 21
112.70755264
 31
0.0
  0
LINE
  5
470
100
AcDbEntity
  8
0
  6
CENTER
 62
       9
100
AcDbLine
 10
26.55825215
 20
112.70755264
 30
0.0
 11
45.45549526
 21
112.70755264
 31
0.0
  0
INSERT
  5
471
100
AcDbEntity
  8
0
  6
CONTINUOUS
100
AcDbBlockReference
  2
DA_IMAGEDIMGROUP_1
 10
0.0
 20
0.0
 30
0.0
  0
INSERT
  5
472
100
AcDbEntity
  8
0
  6
CONTINUOUS
100
AcDbBlockReference
  2
DA_IMAGEDIMGROUP_2
 10
0.0
 20
0.0
 30
0.0
  0
INSERT
  5
473
100
AcDbEntity
  8
0
  6
CONTINUOUS
100
AcDbBlockReference
  2
DA_IMAGEDIMGROUP_3
 10
0.0
 20
0.0
 30
0.0
  0
INSERT
  5
474
100
AcDbEntity
  8
0
  6
CONTINUOUS
100
AcDbBlockReference
  2
DA_IMAGEDIMGROUP_4
 10
0.0
 20
0.0
 30
0.0
  0
INSERT
  5
475
100
AcDbEntity
  8
0
  6
CONTINUOUS
100
AcDbBlockReference
  2
DA_IMAGEDIMGROUP_5
 10
0.0
 20
0.0
 30
0.0
  0
INSERT
  5
476
100
AcDbEntity
  8
0
  6
CONTINUOUS
100
AcDbBlockReference
  2
DA_IMAGEDIMGROUP_6
 10
0.0
 20
0.0
 30
0.0
  0
INSERT
  5
477
100
AcDbEntity
  8
0
  6
CONTINUOUS
100
AcDbBlockReference
  2
DA_IMAGEDIMGROUP_7
 10
0.0
 20
0.0
 30
0.0
  0
INSERT
  5
478
100
AcDbEntity
  8
0
  6
CONTINUOUS
100
AcDbBlockReference
  2
DA_IMAGEDIMGROUP_8
 10
0.0
 20
0.0
 30
0.0
  0
INSERT
  5
479
100
AcDbEntity
  8
0
  6
CONTINUOUS
100
AcDbBlockReference
  2
DA_IMAGEDIMGROUP_9
 10
0.0
 20
0.0
 30
0.0
  0
INSERT
  5
47A
100
AcDbEntity
  8
0
  6
CONTINUOUS
100
AcDbBlockReference
  2
DA_IMAGEDIMGROUP_10
 10
0.0
 20
0.0
 30
0.0
  0
INSERT
  5
47B
100
AcDbEntity
  8
0
  6
CONTINUOUS
100
AcDbBlockReference
  2
GROUP_1
 10
0.0
 20
0.0
 30
0.0
  0
INSERT
  5
47C
100
AcDbEntity
  8
0
  6
CONTINUOUS
100
AcDbBlockReference
  2
GROUP_2
 10
0.0
 20
0.0
 30
0.0
  0
LINE
  5
47D
100
AcDbEntity
  8
LAYER0240
  6
CONTINUOUS
 62
       4
100
AcDbLine
 10
57.71814631
 20
-231.27439146
 30
0.0
 11
57.71814631
 21
-226.28925439
 31
0.0
  0
ENDSEC
  0
SECTION
  2
OBJECTS
  0
DICTIONARY
  5
19
100
AcDbDictionary
  3
ACAD_GROUP
350
1A
  3
ACAD_MLINESTYLE
350
1B
  0
DICTIONARY
  5
1A
102
{ACAD_REACTORS
330
19
102
}
100
AcDbDictionary
  0
DICTIONARY
  5
1B
102
{ACAD_REACTORS
330
19
102
}
100
AcDbDictionary
  3
STANDARD
350
1C
  0
MLINESTYLE
  5
1C
102
{ACAD_REACTORS
330
1B
102
}
100
AcDbMlineStyle
  2
STANDARD
 70
       0
  3

 62
       0
 51
90.0
 52
90.0
 71
       2
 49
0.5
 62
     256
  6
BYLAYER
 49
-0.5
 62
     256
  6
BYLAYER
  0
ENDSEC
  0
EOF
