  0
SECTION
  2
HEADER
  9
$ACADVER
  1
AC1014
  9
$ACADMAINTVER
 70
       0
  9
$DWGCODEPAGE
  3
ANSI_932
  9
$INSBASE
 10
0.0
 20
0.0
 30
0.0
  9
$EXTMIN
 10
-114.92358556
 20
-159.14
 30
0.0
  9
$EXTMAX
 10
113.90046246
 20
160.14
 30
0.0
  9
$LIMMIN
 10
-122.07433706
 20
-169.1175
  9
$LIMMAX
 10
121.05121396
 20
170.1175
  9
$ORTHOMODE
 70
       0
  9
$REGENMODE
 70
       1
  9
$FILLMODE
 70
       1
  9
$QTEXTMODE
 70
       0
  9
$MIRRTEXT
 70
       1
  9
$DRAGMODE
 70
       2
  9
$LTSCALE
 40
1.0
  9
$OSMODE
 70
       0
  9
$ATTMODE
 70
       1
  9
$TEXTSIZE
 40
0.2
  9
$TRACEWID
 40
0.05
  9
$TEXTSTYLE
  7
STANDARD
  9
$CLAYER
  8
0
  9
$CELTYPE
  6
CONTINUOUS
  9
$CECOLOR
 62
     256
  9
$CELTSCALE
 40
1.0
  9
$DELOBJ
 70
       1
  9
$DISPSILH
 70
       0
  9
$DIMSCALE
 40
1.0
  9
$DIMASZ
 40
0.18
  9
$DIMEXO
 40
0.0625
  9
$DIMDLI
 40
0.38
  9
$DIMRND
 40
0.0
  9
$DIMDLE
 40
0.0
  9
$DIMEXE
 40
0.18
  9
$DIMTP
 40
0.0
  9
$DIMTM
 40
0.0
  9
$DIMTXT
 40
0.18
  9
$DIMCEN
 40
0.09
  9
$DIMTSZ
 40
0.0
  9
$DIMTOL
 70
       0
  9
$DIMLIM
 70
       0
  9
$DIMTIH
 70
       1
  9
$DIMTOH
 70
       1
  9
$DIMSE1
 70
       0
  9
$DIMSE2
 70
       0
  9
$DIMTAD
 70
       0
  9
$DIMZIN
 70
       0
  9
$DIMBLK
  1

  9
$DIMASO
 70
       1
  9
$DIMSHO
 70
       1
  9
$DIMPOST
  1

  9
$DIMAPOST
  1

  9
$DIMALT
 70
       0
  9
$DIMALTD
 70
       2
  9
$DIMALTF
 40
25.4
  9
$DIMLFAC
 40
1.0
  9
$DIMTOFL
 70
       0
  9
$DIMTVP
 40
0.0
  9
$DIMTIX
 70
       0
  9
$DIMSOXD
 70
       0
  9
$DIMSAH
 70
       0
  9
$DIMBLK1
  1

  9
$DIMBLK2
  1

  9
$DIMSTYLE
  2
STANDARD
  9
$DIMCLRD
 70
       0
  9
$DIMCLRE
 70
       0
  9
$DIMCLRT
 70
       0
  9
$DIMTFAC
 40
1.0
  9
$DIMGAP
 40
0.09
  9
$DIMJUST
 70
       0
  9
$DIMSD1
 70
       0
  9
$DIMSD2
 70
       0
  9
$DIMTOLJ
 70
       1
  9
$DIMTZIN
 70
       0
  9
$DIMALTZ
 70
       0
  9
$DIMALTTZ
 70
       0
  9
$DIMFIT
 70
       3
  9
$DIMUPT
 70
       0
  9
$DIMUNIT
 70
       2
  9
$DIMDEC
 70
       4
  9
$DIMTDEC
 70
       4
  9
$DIMALTU
 70
       2
  9
$DIMALTTD
 70
       2
  9
$DIMTXSTY
  7
STANDARD
  9
$DIMAUNIT
 70
       0
  9
$LUNITS
 70
       2
  9
$LUPREC
 70
       4
  9
$SKETCHINC
 40
0.1
  9
$FILLETRAD
 40
0.0
  9
$AUNITS
 70
       0
  9
$AUPREC
 70
       0
  9
$MENU
  1
acad
  9
$ELEVATION
 40
0.0
  9
$PELEVATION
 40
0.0
  9
$THICKNESS
 40
0.0
  9
$LIMCHECK
 70
       0
  9
$BLIPMODE
 70
       1
  9
$CHAMFERA
 40
0.0
  9
$CHAMFERB
 40
0.0
  9
$CHAMFERC
 40
0.0
  9
$CHAMFERD
 40
0.0
  9
$SKPOLY
 70
       0
  9
$TDCREATE
 40
0.000000000
  9
$TDUPDATE
 40
0.000000000
  9
$TDINDWG
 40
0.0000000000
  9
$TDUSRTIMER
 40
0.0000000000
  9
$USRTIMER
 70
       1
  9
$ANGBASE
 50
0.0
  9
$ANGDIR
 70
       0
  9
$PDMODE
 70
       0
  9
$PDSIZE
 40
1.0
  9
$PLINEWID
 40
0.0
  9
$COORDS
 70
       1
  9
$SPLFRAME
 70
       0
  9
$SPLINETYPE
 70
       6
  9
$SPLINESEGS
 70
       8
  9
$ATTDIA
 70
       0
  9
$ATTREQ
 70
       1
  9
$HANDLING
 70
       1
  9
$HANDSEED
  5
467
  9
$SURFTAB1
 70
       6
  9
$SURFTAB2
 70
       6
  9
$SURFTYPE
 70
       6
  9
$SURFU
 70
       6
  9
$SURFV
 70
       6
  9
$UCSNAME
  2

  9
$UCSORG
 10
0.0
 20
0.0
 30
0.0
  9
$UCSXDIR
 10
1.0
 20
0.0
 30
0.0
  9
$UCSYDIR
 10
0.0
 20
1.0
 30
0.0
  9
$PUCSNAME
  2

  9
$PUCSORG
 10
0.0
 20
0.0
 30
0.0
  9
$PUCSXDIR
 10
1.0
 20
0.0
 30
0.0
  9
$PUCSYDIR
 10
0.0
 20
1.0
 30
0.0
  9
$USERI1
 70
       0
  9
$USERI2
 70
       0
  9
$USERI3
 70
       0
  9
$USERI4
 70
       0
  9
$USERI5
 70
       0
  9
$USERR1
 40
0.0
  9
$USERR2
 40
0.0
  9
$USERR3
 40
0.0
  9
$USERR4
 40
0.0
  9
$USERR5
 40
0.0
  9
$WORLDVIEW
 70
       1
  9
$SHADEDGE
 70
       3
  9
$SHADEDIF
 70
      70
  9
$TILEMODE
 70
       1
  9
$MAXACTVP
 70
      16
  9
$PINSBASE
 10
0.0
 20
0.0
 30
0.0
  9
$PLIMCHECK
 70
       0
  9
$PEXTMIN
 10
1.00000000E+20
 20
1.00000000E+20
 30
1.00000000E+20
  9
$PEXTMAX
 10
-1.00000000E+20
 20
-1.00000000E+20
 30
-1.00000000E+20
  9
$PLIMMIN
 10
0.0
 20
0.0
  9
$PLIMMAX
 10
12.0
 20
9.0
  9
$UNITMODE
 70
       0
  9
$VISRETAIN
 70
       0
  9
$PLINEGEN
 70
       1
  9
$PSLTSCALE
 70
       0
  9
$TREEDEPTH
 70
    3020
  9
$PICKSTYLE
 70
       1
  9
$CMLSTYLE
  2
STANDARD
  9
$CMLJUST
 70
       0
  9
$CMLSCALE
 40
1.0
  9
$PROXYGRAPHICS
 70
       0
  9
$MEASUREMENT
 70
       0
  0
ENDSEC
  0
SECTION
  2
CLASSES
  0
CLASS
  1
LWPOLYLINE
  2
AcDbPolyline
  3
"AutoCAD"
 90
        0
280
       0
281
       1
  0
CLASS
  1
IMAGE
  2
AcDbRasterImage
  3
ISM
 90
      127
280
       0
281
       1
  0
CLASS
  1
OLE2FRAME
  2
AcDbOle2Frame
  3
""
 90
        0
280
       0
281
       1
  0
CLASS
  1
HATCH
  2
AcDbHatch
  3
"ACAD_SEDONA"
 90
        0
280
       0
281
       1
  0
CLASS
  1
DICTIONARYVAR
  2
AcDbDictionaryVar
  3
"AutoCAD"
 90
        0
280
       0
281
       0
  0
CLASS
  1
RASTERVARIABLES
  2
AcDbRasterVariables
  3
ISM
 90
        0
280
       0
281
       0
  0
CLASS
  1
IMAGEDEF
  2
AcDbRasterImageDef
  3
ISM
 90
        0
280
       0
281
       0
  0
CLASS
  1
IMAGEDEF_REACTOR
  2
AcDbRasterImageDefReactor
  3
ISM
 90
        1
280
       0
281
       0
  0
CLASS
  1
IDBUFFER
  2
AcDbIdBuffer
  3
"Acad"
 90
        0
280
       0
281
       0
  0
CLASS
  1
SPATIAL_FILTER
  2
AcDbSpatialFilter
  3
"Acad"
 90
        0
280
       0
281
       0
  0
CLASS
  1
XRECORD
  2
AcDbXrecord
  3
"<Built In>"
 90
        0
280
       0
281
       0
  0
CLASS
  1
SORTENTSTABLE
  2
AcDbSortentsTable
  3
"AutoCAD"
 90
        0
280
       0
281
       0
  0
CLASS
  1
LAYER_INDEX
  2
AcDbLayerIndex
  3
"Acad"
 90
        0
280
       0
281
       0
  0
CLASS
  1
SPATIAL_INDEX
  2
AcDbSpatialIndex
  3
"Acad"
 90
        0
280
       0
281
       0
  0
CLASS
  1
OBJECT_PTR
  2
CAseDLPNTableRecord
  3
"ASE-LPNTableRecord"
 90
        1
280
       0
281
       0
  0
CLASS
  1
LAYOUT
  2
AcDbLayout
  3
"AutoCAD 2000"
 90
        1
280
       0
281
       0
  0
CLASS
  1
PLOTSETTINGS
  2
AcDbPlotSettings
  3
"AutoCAD 2000"
 90
        1
280
       0
281
       0
  0
CLASS
  1
ACDBDICTIONARYWDFLT
  2
AcDbDictionaryWithDefault
  3
"AutoCAD 2000"
 90
        1
280
       0
281
       0
  0
CLASS
  1
ACDBPLACEHOLDER
  2
AcDbPlaceHolder
  3
"AutoCAD 2000"
 90
        1
280
       0
281
       0
  0
CLASS
  1
VBA_PROJECT
  2
AcDbVbaProject
  3
"acadvba"
 90
        1
280
       0
281
       0
  0
CLASS
  1
WIPEOUT
  2
AcDbWipeout
  3
WipeOut|AutoCAD Express Tool|expresstools@autodesk.com
 90
      127
280
       0
281
       1
  0
CLASS
  1
WIPEOUTVARIABLES
  2
AcDbWipeoutVariables
  3
WipeOut|AutoCAD Express Tool|expresstools@autodesk.com
 90
        0
280
       0
281
       0
  0
CLASS
  1
RTEXT
  2
RText
  3
RText|AutoCAD Express Tool|expresstools@autodesk.com
 90
        0
280
       0
281
       1
  0
CLASS
  1
ARCALIGNEDTEXT
  2
AcDbArcAlignedText
  3
ATEXT|AutoCAD Express Tool|expresstools@autodesk.com
 90
        0
280
       0
281
       1
  0
ENDSEC
  0
SECTION
  2
TABLES
  0
TABLE
  2
VPORT
  5
7
100
AcDbSymbolTable
 70
       1
  0
VPORT
  5
15
100
AcDbSymbolTableRecord
100
AcDbViewportTableRecord
  2
*ACTIVE
 70
       0
 10
0.0
 20
0.0
 11
1.0
 21
1.0
 12
-0.51156155
 22
0.5
 13
0.0
 23
0.0
 14
1.0
 24
1.0
 15
0.0
 25
0.0
 16
0.0
 26
0.0
 36
1.0
 17
0.0
 27
0.0
 37
0.0
 40
339.235
 41
0.7166877
 42
50.0
 43
0.0
 44
0.0
 50
0.0
 51
0.0
 71
       0
 72
     100
 73
       1
 74
       1
 75
       0
 76
       0
 77
       0
 78
       0
  0
ENDTAB
  0
TABLE
  2
LTYPE
  5
4
100
AcDbSymbolTable
 70
      30
  0
LTYPE
  5
11
100
AcDbSymbolTableRecord
100
AcDbLinetypeTableRecord
  2
BYBLOCK
 70
      64
  3

 72
      65
 73
       0
 40
0.0
  0
LTYPE
  5
12
100
AcDbSymbolTableRecord
100
AcDbLinetypeTableRecord
  2
BYLAYER
 70
      64
  3

 72
      65
 73
       0
 40
0.0
  0
LTYPE
  5
13
100
AcDbSymbolTableRecord
100
AcDbLinetypeTableRecord
  2
CONTINUOUS
 70
      64
  3
Solid line
 72
      65
 73
       0
 40
0.0
  0
LTYPE
  5
1D
100
AcDbSymbolTableRecord
100
AcDbLinetypeTableRecord
  2
HIDDENX2
 70
      64
  3
CADPAC LINETYPE
 72
      65
 73
       2
 40
11.88
 49
8.91
 74
       0
 49
-2.97
 74
       0
  0
LTYPE
  5
1E
100
AcDbSymbolTableRecord
100
AcDbLinetypeTableRecord
  2
HIDDEN
 70
      64
  3
CADPAC LINETYPE
 72
      65
 73
       2
 40
8.91
 49
5.94
 74
       0
 49
-2.97
 74
       0
  0
LTYPE
  5
1F
100
AcDbSymbolTableRecord
100
AcDbLinetypeTableRecord
  2
HIDDEN2
 70
      64
  3
CADPAC LINETYPE
 72
      65
 73
       2
 40
7.425
 49
4.455
 74
       0
 49
-2.97
 74
       0
  0
LTYPE
  5
20
100
AcDbSymbolTableRecord
100
AcDbLinetypeTableRecord
  2
DASHED
 70
      64
  3
CADPAC LINETYPE
 72
      65
 73
       2
 40
8.91
 49
5.94
 74
       0
 49
-2.97
 74
       0
  0
LTYPE
  5
21
100
AcDbSymbolTableRecord
100
AcDbLinetypeTableRecord
  2
DASHED2
 70
      64
  3
CADPAC LINETYPE
 72
      65
 73
       2
 40
6.6825
 49
4.455
 74
       0
 49
-2.2275
 74
       0
  0
LTYPE
  5
22
100
AcDbSymbolTableRecord
100
AcDbLinetypeTableRecord
  2
DASHEDX2
 70
      64
  3
CADPAC LINETYPE
 72
      65
 73
       2
 40
13.365
 49
8.91
 74
       0
 49
-4.455
 74
       0
  0
LTYPE
  5
23
100
AcDbSymbolTableRecord
100
AcDbLinetypeTableRecord
  2
DOTX2
 70
      64
  3
CADPAC LINETYPE
 72
      65
 73
       2
 40
3.7125
 49
0.0
 74
       0
 49
-3.7125
 74
       0
  0
LTYPE
  5
24
100
AcDbSymbolTableRecord
100
AcDbLinetypeTableRecord
  2
DOT
 70
      64
  3
CADPAC LINETYPE
 72
      65
 73
       2
 40
2.97
 49
0.0
 74
       0
 49
-2.97
 74
       0
  0
LTYPE
  5
25
100
AcDbSymbolTableRecord
100
AcDbLinetypeTableRecord
  2
DOT2
 70
      64
  3
CADPAC LINETYPE
 72
      65
 73
       2
 40
2.2275
 49
0.0
 74
       0
 49
-2.2275
 74
       0
  0
LTYPE
  5
26
100
AcDbSymbolTableRecord
100
AcDbLinetypeTableRecord
  2
CENTERX2
 70
      64
  3
CADPAC LINETYPE
 72
      65
 73
       4
 40
17.82
 49
7.425
 74
       0
 49
-3.7125
 74
       0
 49
2.97
 74
       0
 49
-3.7125
 74
       0
  0
LTYPE
  5
27
100
AcDbSymbolTableRecord
100
AcDbLinetypeTableRecord
  2
CENTER
 70
      64
  3
CADPAC LINETYPE
 72
      65
 73
       4
 40
13.662
 49
5.94
 74
       0
 49
-2.97
 74
       0
 49
1.782
 74
       0
 49
-2.97
 74
       0
  0
LTYPE
  5
28
100
AcDbSymbolTableRecord
100
AcDbLinetypeTableRecord
  2
CENTER2
 70
      64
  3
CADPAC LINETYPE
 72
      65
 73
       4
 40
9.504
 49
4.455
 74
       0
 49
-2.2275
 74
       0
 49
0.594
 74
       0
 49
-2.2275
 74
       0
  0
LTYPE
  5
29
100
AcDbSymbolTableRecord
100
AcDbLinetypeTableRecord
  2
DASHDOTX2
 70
      64
  3
CADPAC LINETYPE
 72
      65
 73
       4
 40
14.85
 49
7.425
 74
       0
 49
-3.7125
 74
       0
 49
0.0
 74
       0
 49
-3.7125
 74
       0
  0
LTYPE
  5
2A
100
AcDbSymbolTableRecord
100
AcDbLinetypeTableRecord
  2
DASHDOT
 70
      64
  3
CADPAC LINETYPE
 72
      65
 73
       4
 40
11.88
 49
5.94
 74
       0
 49
-2.97
 74
       0
 49
0.0
 74
       0
 49
-2.97
 74
       0
  0
LTYPE
  5
2B
100
AcDbSymbolTableRecord
100
AcDbLinetypeTableRecord
  2
DASHDOT2
 70
      64
  3
CADPAC LINETYPE
 72
      65
 73
       4
 40
8.91
 49
4.455
 74
       0
 49
-2.2275
 74
       0
 49
0.0
 74
       0
 49
-2.2275
 74
       0
  0
LTYPE
  5
2C
100
AcDbSymbolTableRecord
100
AcDbLinetypeTableRecord
  2
DIVIDEX2
 70
      64
  3
CADPAC LINETYPE
 72
      65
 73
       6
 40
18.5625
 49
7.425
 74
       0
 49
-3.7125
 74
       0
 49
0.0
 74
       0
 49
-3.7125
 74
       0
 49
0.0
 74
       0
 49
-3.7125
 74
       0
  0
LTYPE
  5
2D
100
AcDbSymbolTableRecord
100
AcDbLinetypeTableRecord
  2
DIVIDE
 70
      64
  3
CADPAC LINETYPE
 72
      65
 73
       6
 40
14.85
 49
5.94
 74
       0
 49
-2.97
 74
       0
 49
0.0
 74
       0
 49
-2.97
 74
       0
 49
0.0
 74
       0
 49
-2.97
 74
       0
  0
LTYPE
  5
2E
100
AcDbSymbolTableRecord
100
AcDbLinetypeTableRecord
  2
DIVIDE2
 70
      64
  3
CADPAC LINETYPE
 72
      65
 73
       6
 40
11.1375
 49
4.455
 74
       0
 49
-2.2275
 74
       0
 49
0.0
 74
       0
 49
-2.2275
 74
       0
 49
0.0
 74
       0
 49
-2.2275
 74
       0
  0
LTYPE
  5
2F
100
AcDbSymbolTableRecord
100
AcDbLinetypeTableRecord
  2
BORDERX2
 70
      64
  3
CADPAC LINETYPE
 72
      65
 73
       6
 40
25.9875
 49
7.425
 74
       0
 49
-3.7125
 74
       0
 49
7.425
 74
       0
 49
-3.7125
 74
       0
 49
0.0
 74
       0
 49
-3.7125
 74
       0
  0
LTYPE
  5
30
100
AcDbSymbolTableRecord
100
AcDbLinetypeTableRecord
  2
BORDER
 70
      64
  3
CADPAC LINETYPE
 72
      65
 73
       6
 40
20.79
 49
5.94
 74
       0
 49
-2.97
 74
       0
 49
5.94
 74
       0
 49
-2.97
 74
       0
 49
0.0
 74
       0
 49
-2.97
 74
       0
  0
LTYPE
  5
31
100
AcDbSymbolTableRecord
100
AcDbLinetypeTableRecord
  2
BORDER2
 70
      64
  3
CADPAC LINETYPE
 72
      65
 73
       6
 40
15.5925
 49
4.455
 74
       0
 49
-2.2275
 74
       0
 49
4.455
 74
       0
 49
-2.2275
 74
       0
 49
0.0
 74
       0
 49
-2.2275
 74
       0
  0
LTYPE
  5
32
100
AcDbSymbolTableRecord
100
AcDbLinetypeTableRecord
  2
PHANTOMX2
 70
      64
  3
CADPAC LINETYPE
 72
      65
 73
       6
 40
22.275
 49
7.425
 74
       0
 49
-2.97
 74
       0
 49
2.97
 74
       0
 49
-2.97
 74
       0
 49
2.97
 74
       0
 49
-2.97
 74
       0
  0
LTYPE
  5
33
100
AcDbSymbolTableRecord
100
AcDbLinetypeTableRecord
  2
PHANTOM
 70
      64
  3
CADPAC LINETYPE
 72
      65
 73
       6
 40
18.414
 49
5.94
 74
       0
 49
-2.97
 74
       0
 49
1.782
 74
       0
 49
-2.97
 74
       0
 49
1.782
 74
       0
 49
-2.97
 74
       0
  0
LTYPE
  5
34
100
AcDbSymbolTableRecord
100
AcDbLinetypeTableRecord
  2
PHANTOM2
 70
      64
  3
CADPAC LINETYPE
 72
      65
 73
       6
 40
15.741
 49
4.455
 74
       0
 49
-2.97
 74
       0
 49
1.188
 74
       0
 49
-2.97
 74
       0
 49
1.188
 74
       0
 49
-2.97
 74
       0
  0
LTYPE
  5
35
100
AcDbSymbolTableRecord
100
AcDbLinetypeTableRecord
  2
ACAD_ISO06W100
 70
      64
  3
CADPAC LINETYPE
 72
      65
 73
       8
 40
20.0475
 49
7.425
 74
       0
 49
-3.7125
 74
       0
 49
0.0
 74
       0
 49
-2.97
 74
       0
 49
0.0
 74
       0
 49
-2.97
 74
       0
 49
0.0
 74
       0
 49
-2.97
 74
       0
  0
LTYPE
  5
36
100
AcDbSymbolTableRecord
100
AcDbLinetypeTableRecord
  2
ACAD_ISO13W100
 70
      64
  3
CADPAC LINETYPE
 72
      65
 73
       8
 40
23.76
 49
5.94
 74
       0
 49
-2.97
 74
       0
 49
5.94
 74
       0
 49
-2.97
 74
       0
 49
0.0
 74
       0
 49
-2.97
 74
       0
 49
0.0
 74
       0
 49
-2.97
 74
       0
  0
LTYPE
  5
37
100
AcDbSymbolTableRecord
100
AcDbLinetypeTableRecord
  2
ACAD_ISO14W100
 70
      64
  3
CADPAC LINETYPE
 72
      65
 73
       8
 40
17.82
 49
5.94
 74
       0
 49
-2.97
 74
       0
 49
0.0
 74
       0
 49
-2.97
 74
       0
 49
0.0
 74
       0
 49
-2.97
 74
       0
 49
0.0
 74
       0
 49
-2.97
 74
       0
  0
ENDTAB
  0
TABLE
  2
LAYER
  5
2
100
AcDbSymbolTable
 70
       7
  0
LAYER
  5
14
100
AcDbSymbolTableRecord
100
AcDbLayerTableRecord
  2
0
 70
       0
 62
       7
  6
CONTINUOUS
  0
LAYER
  5
38
100
AcDbSymbolTableRecord
100
AcDbLayerTableRecord
  2
LAYER0001
 70
       0
 62
       7
  6
CONTINUOUS
  0
LAYER
  5
39
100
AcDbSymbolTableRecord
100
AcDbLayerTableRecord
  2
LAYER0006
 70
       0
 62
       7
  6
CONTINUOUS
  0
LAYER
  5
3A
100
AcDbSymbolTableRecord
100
AcDbLayerTableRecord
  2
LAYER0007
 70
       0
 62
       7
  6
CONTINUOUS
  0
LAYER
  5
3B
100
AcDbSymbolTableRecord
100
AcDbLayerTableRecord
  2
LAYER0011
 70
       0
 62
       7
  6
CONTINUOUS
  0
LAYER
  5
3C
100
AcDbSymbolTableRecord
100
AcDbLayerTableRecord
  2
LAYER0240
 70
       0
 62
       7
  6
CONTINUOUS
  0
LAYER
  5
3D
100
AcDbSymbolTableRecord
100
AcDbLayerTableRecord
  2
ZUWAKU
 70
       0
 62
       7
  6
CONTINUOUS
  0
ENDTAB
  0
TABLE
  2
STYLE
  5
3
100
AcDbSymbolTable
 70
       2
  0
STYLE
  5
17
100
AcDbSymbolTableRecord
100
AcDbTextStyleTableRecord
  2
STANDARD
 70
       0
 40
0.0
 41
0.8
 50
0.0
 71
       0
 42
4.0
  3
txt.shx
  4
bigfont.shx
  0
STYLE
  5
3E
100
AcDbSymbolTableRecord
100
AcDbTextStyleTableRecord
  2
FDASTYLE1
 70
       4
 40
0.0
 41
0.8
 50
0.0
 71
       0
 42
3.0
  3
txt.shx
  4
bigfont.shx
  0
ENDTAB
  0
TABLE
  2
VIEW
  5
5
100
AcDbSymbolTable
 70
       1
  0
VIEW
  5
3F
100
AcDbSymbolTableRecord
100
AcDbViewTableRecord
  2
QQQQ
 70
       0
 40
339.235
 10
-0.51156155
 20
0.5
 41
243.12555102
 11
0.0
 21
0.0
 31
1.0
 12
100.0
 22
100.0
 32
0.0
 42
50.0
 43
0.0
 44
0.0
 50
0.0
 71
       0
  0
ENDTAB
  0
TABLE
  2
UCS
  5
6
100
AcDbSymbolTable
 70
       0
  0
ENDTAB
  0
TABLE
  2
APPID
  5
8
100
AcDbSymbolTable
 70
       1
  0
APPID
  5
16
100
AcDbSymbolTableRecord
100
AcDbRegAppTableRecord
  2
ACAD
 70
       0
  0
ENDTAB
  0
TABLE
  2
DIMSTYLE
  5
9
100
AcDbSymbolTable
 70
       1
  0
DIMSTYLE
105
18
100
AcDbSymbolTableRecord
100
AcDbDimStyleTableRecord
  2
STANDARD
 70
       0
  3

  4

  5

  6

  7

 40
1.0
 41
0.18
 42
0.0625
 43
0.38
 44
0.18
 45
0.0
 46
0.0
 47
0.0
 48
0.0
 71
       0
 72
       0
 73
       1
 74
       1
 75
       0
 76
       0
 77
       0
 78
       0
140
0.18
141
0.09
142
0.0
143
25.4
144
1.0
145
0.0
146
1.0
147
0.09
170
       0
171
       2
172
       0
173
       0
174
       0
175
       0
176
       0
177
       0
178
       0
270
       2
271
       4
272
       4
273
       2
274
       2
275
       0
280
       0
281
       0
282
       0
283
       1
284
       0
285
       0
286
       0
287
       0
288
       0
340
17
  0
ENDTAB
  0
TABLE
  2
BLOCK_RECORD
  5
1
100
AcDbSymbolTable
 70
       2
  0
BLOCK_RECORD
  5
A
100
AcDbSymbolTableRecord
100
AcDbBlockTableRecord
  2
*MODEL_SPACE
  0
BLOCK_RECORD
  5
B
100
AcDbSymbolTableRecord
100
AcDbBlockTableRecord
  2
*PAPER_SPACE
  0
BLOCK_RECORD
  5
40
100
AcDbSymbolTableRecord
100
AcDbBlockTableRecord
  2
_OPEN30
  0
BLOCK_RECORD
  5
41
100
AcDbSymbolTableRecord
100
AcDbBlockTableRecord
  2
GROUP_1
  0
ENDTAB
  0
ENDSEC
  0
SECTION
  2
BLOCKS
  0
BLOCK
  5
D
100
AcDbEntity
  8
0
100
AcDbBlockBegin
  2
*MODEL_SPACE
 70
       0
 10
0.0
 20
0.0
 30
0.0
  3
*MODEL_SPACE
  1

  0
ENDBLK
  5
E
100
AcDbEntity
  8
0
100
AcDbBlockEnd
  0
BLOCK
  5
F
100
AcDbEntity
 67
       1
  8
0
100
AcDbBlockBegin
  2
*PAPER_SPACE
 70
       0
 10
0.0
 20
0.0
 30
0.0
  3
*PAPER_SPACE
  1

  0
ENDBLK
  5
10
100
AcDbEntity
 67
       1
  8
0
100
AcDbBlockEnd
  0
BLOCK
  5
42
100
AcDbEntity
  8
0
100
AcDbBlockBegin
  2
_OPEN30
 70
       0
 10
0.0
 20
0.0
 30
0.0
  3
_OPEN30
  1

  0
LINE
  5
43
100
AcDbEntity
  8
0
  6
CONTINUOUS
 62
       0
100
AcDbLine
 10
0.0
 20
0.0
 30
0.0
 11
-0.96592583
 21
0.25881905
 31
0.0
  0
LINE
  5
44
100
AcDbEntity
  8
0
  6
CONTINUOUS
 62
       0
100
AcDbLine
 10
0.0
 20
0.0
 30
0.0
 11
-0.96592583
 21
-0.25881905
 31
0.0
  0
ENDBLK
  5
45
100
AcDbEntity
  8
0
100
AcDbBlockEnd
  0
BLOCK
  5
46
100
AcDbEntity
  8
0
100
AcDbBlockBegin
  2
GROUP_1
 70
       0
 10
0.0
 20
0.0
 30
0.0
  3
GROUP_1
  1

  0
LINE
  5
47
100
AcDbEntity
  8
0
  6
CONTINUOUS
 62
       7
100
AcDbLine
 10
-22.25706152
 20
7.08116718
 30
0.0
 11
-38.70446097
 21
41.03531599
 31
0.0
  0
INSERT
  5
48
100
AcDbEntity
  8
0
  6
CONTINUOUS
 62
       7
100
AcDbBlockReference
  2
_OPEN30
 10
-22.25706152
 20
7.08116718
 30
0.0
 41
3.00000279
 42
2.99998927
 50
295.84556109
  0
LINE
  5
49
100
AcDbEntity
  8
0
  6
CONTINUOUS
 62
       7
100
AcDbLine
 10
-38.70446097
 20
41.03531599
 30
0.0
 11
-57.90446097
 21
41.03531599
 31
0.0
  0
TEXT
  5
4A
100
AcDbEntity
  8
0
 62
       7
100
AcDbText
 10
-57.90446097
 20
41.03531599
 30
0.0
 40
4.0
  1
Ｍ6Ｘ1.0
 41
0.8
 72
       5
 11
-38.70446097
 21
41.03531599
 31
0.0
100
AcDbText
  0
ENDBLK
  5
4B
100
AcDbEntity
  8
0
100
AcDbBlockEnd
  0
ENDSEC
  0
SECTION
  2
ENTITIES
  0
TEXT
  5
4C
100
AcDbEntity
  8
LAYER0240
 62
       4
100
AcDbText
 10
-83.625
 20
-121.37054329
 30
0.0
 40
4.0
  1
本体
 41
0.8
 72
       5
 11
-77.225
 21
-121.37054329
 31
0.0
100
AcDbText
  0
TEXT
  5
4D
100
AcDbEntity
  8
LAYER0240
 62
       4
100
AcDbText
 10
-37.0625
 20
-121.37054329
 30
0.0
 40
4.0
  1
SUS304
 41
0.8
 72
       5
 11
-17.8625
 21
-121.37054329
 31
0.0
100
AcDbText
  0
TEXT
  5
4E
100
AcDbEntity
  8
LAYER0240
 62
       4
100
AcDbText
 10
19.025
 20
-121.37054329
 30
0.0
 40
4.0
  1
1
 41
0.8
 72
       5
 11
22.225
 21
-121.37054329
 31
0.0
100
AcDbText
  0
TEXT
  5
4F
100
AcDbEntity
  8
LAYER0240
 62
       4
100
AcDbText
 10
-27.40276163
 20
135.86388814
 30
0.0
 40
6.0
  1
メカヘビー
 41
0.8
 72
       5
 11
-3.40276163
 21
135.86388814
 31
0.0
100
AcDbText
  0
TEXT
  5
50
100
AcDbEntity
  8
LAYER0240
 62
       4
100
AcDbText
 10
47.9125
 20
135.86388814
 30
0.0
 40
6.0
  1
ＲK45-6
 41
0.8
 72
       5
 11
76.7125
 21
135.86388814
 31
0.0
100
AcDbText
  0
TEXT
  5
51
100
AcDbEntity
  8
LAYER0240
 62
       4
100
AcDbText
 10
47.9125
 20
-137.63251474
 30
0.0
 40
6.0
  1
ＲK45-6
 41
0.8
 72
       5
 11
76.7125
 21
-137.63251474
 31
0.0
100
AcDbText
  0
TEXT
  5
52
100
AcDbEntity
  8
LAYER0240
 62
       4
100
AcDbText
 10
-20.6590274
 20
-137.67651575
 30
0.0
 40
6.0
  1
メカヘビー
 41
0.8
 72
       5
 11
3.3409726
 21
-137.67651575
 31
0.0
100
AcDbText
  0
TEXT
  5
53
100
AcDbEntity
  8
LAYER0240
 62
       4
100
AcDbText
 10
27.1875
 20
-121.37054329
 30
0.0
 40
4.0
  1
t=1.0
 41
0.8
 72
       5
 11
43.1875
 21
-121.37054329
 31
0.0
100
AcDbText
  0
TEXT
  5
54
100
AcDbEntity
  8
LAYER0240
 62
       4
100
AcDbText
 10
34.70507971
 20
-68.75913059
 30
0.0
 40
4.0
  1
下穴　φ12
 41
0.8
 72
       5
 11
53.90507971
 21
-68.75913059
 31
0.0
100
AcDbText
  0
TEXT
  5
55
100
AcDbEntity
  8
LAYER0240
 62
       4
100
AcDbText
 10
34.70507971
 20
-74.60129527
 30
0.0
 40
4.0
  1
必要壁裏空間寸法　40ｍｍ以上
 41
0.8
 72
       5
 11
82.70507971
 21
-74.60129527
 31
0.0
100
AcDbText
  0
TEXT
  5
56
100
AcDbEntity
  8
LAYER0240
 62
       4
100
AcDbText
 10
34.70507971
 20
-81.26889612
 30
0.0
 40
4.0
  1
使用ボルト　M6
 41
0.8
 72
       5
 11
60.30507971
 21
-81.26889612
 31
0.0
100
AcDbText
  0
LINE
  5
57
100
AcDbEntity
  8
ZUWAKU
  6
CONTINUOUS
 62
      32
100
AcDbLine
 10
-57.1375
 20
-138.05804329
 30
0.0
 11
-56.575
 21
-136.49554329
 31
0.0
  0
LINE
  5
58
100
AcDbEntity
  8
ZUWAKU
  6
CONTINUOUS
 62
      32
100
AcDbLine
 10
-61.3
 20
-138.05804329
 30
0.0
 11
-60.425
 21
-135.68304329
 31
0.0
  0
LINE
  5
59
100
AcDbEntity
  8
ZUWAKU
  6
CONTINUOUS
 62
      32
100
AcDbLine
 10
-62.1125
 20
-134.80804329
 30
0.0
 11
-62.425
 21
-135.68304329
 31
0.0
  0
LINE
  5
5A
100
AcDbEntity
  8
ZUWAKU
  6
CONTINUOUS
 62
      32
100
AcDbLine
 10
-59.2375
 20
-138.05804329
 30
0.0
 11
-58.3
 21
-135.30804329
 31
0.0
  0
LINE
  5
5B
100
AcDbEntity
  8
ZUWAKU
  6
CONTINUOUS
 62
      32
100
AcDbLine
 10
-46.125
 20
-138.05804329
 30
0.0
 11
-47.1875
 21
-136.30804329
 31
0.0
  0
LINE
  5
5C
100
AcDbEntity
  8
ZUWAKU
  6
CONTINUOUS
 62
      32
100
AcDbLine
 10
-62.1125
 20
-134.80804329
 30
0.0
 11
-60.925
 21
-134.80804329
 31
0.0
  0
LINE
  5
5D
100
AcDbEntity
  8
ZUWAKU
  6
CONTINUOUS
 62
      32
100
AcDbLine
 10
-55.7625
 20
-134.24554329
 30
0.0
 11
-53.7
 21
-134.24554329
 31
0.0
  0
LINE
  5
5E
100
AcDbEntity
  8
ZUWAKU
  6
CONTINUOUS
 62
      32
100
AcDbLine
 10
-51.325
 20
-134.05804329
 30
0.0
 11
-50.7
 21
-134.05804329
 31
0.0
  0
LINE
  5
5F
100
AcDbEntity
  8
ZUWAKU
  6
CONTINUOUS
 62
      32
100
AcDbLine
 10
-55.325
 20
-133.12054329
 30
0.0
 11
-55.7625
 21
-134.24554329
 31
0.0
  0
LINE
  5
60
100
AcDbEntity
  8
ZUWAKU
  6
CONTINUOUS
 62
      32
100
AcDbLine
 10
-53.325
 20
-133.12054329
 30
0.0
 11
-53.7
 21
-134.24554329
 31
0.0
  0
LINE
  5
61
100
AcDbEntity
  8
ZUWAKU
  6
CONTINUOUS
 62
      32
100
AcDbLine
 10
-61.3
 20
-138.05804329
 30
0.0
 11
-59.2375
 21
-138.05804329
 31
0.0
  0
LINE
  5
62
100
AcDbEntity
  8
ZUWAKU
  6
CONTINUOUS
 62
      32
100
AcDbLine
 10
-58.1125
 20
-133.12054329
 30
0.0
 11
-55.8
 21
-133.12054329
 31
0.0
  0
LINE
  5
63
100
AcDbEntity
  8
ZUWAKU
  6
CONTINUOUS
 62
      32
100
AcDbLine
 10
-47.91757436
 20
-134.24554329
 30
0.0
 11
-50.125
 21
-134.24554329
 31
0.0
  0
LINE
  5
64
100
AcDbEntity
  8
ZUWAKU
  6
CONTINUOUS
 62
      32
100
AcDbLine
 10
-45.5
 20
-133.12054329
 30
0.0
 11
-49.75
 21
-133.12054329
 31
0.0
  0
LINE
  5
65
100
AcDbEntity
  8
ZUWAKU
  6
CONTINUOUS
 62
      32
100
AcDbLine
 10
-62.425
 20
-135.68304329
 30
0.0
 11
-60.425
 21
-135.68304329
 31
0.0
  0
LINE
  5
66
100
AcDbEntity
  8
ZUWAKU
  6
CONTINUOUS
 62
      32
100
AcDbLine
 10
-57.1375
 20
-138.05804329
 30
0.0
 11
-53.825
 21
-138.05804329
 31
0.0
  0
LINE
  5
67
100
AcDbEntity
  8
ZUWAKU
  6
CONTINUOUS
 62
      32
100
AcDbLine
 10
-56.575
 20
-136.49554329
 30
0.0
 11
-53.575
 21
-136.49554329
 31
0.0
  0
LINE
  5
68
100
AcDbEntity
  8
ZUWAKU
  6
CONTINUOUS
 62
      32
100
AcDbLine
 10
-46.125
 20
-138.05804329
 30
0.0
 11
-47.6875
 21
-138.05804329
 31
0.0
  0
LINE
  5
69
100
AcDbEntity
  8
ZUWAKU
  6
CONTINUOUS
 62
      32
100
AcDbLine
 10
-50.125
 20
-134.24554329
 30
0.0
 11
-49.75
 21
-133.12054329
 31
0.0
  0
LINE
  5
6A
100
AcDbEntity
  8
ZUWAKU
  6
CONTINUOUS
 62
      32
100
AcDbLine
 10
-71.8625
 20
-133.12054329
 30
0.0
 11
-72.925
 21
-136.12054329
 31
0.0
  0
LINE
  5
6B
100
AcDbEntity
  8
ZUWAKU
  6
CONTINUOUS
 62
      32
100
AcDbLine
 10
-72.925
 20
-136.12054329
 30
0.0
 11
-71.4875
 21
-136.12054329
 31
0.0
  0
LINE
  5
6C
100
AcDbEntity
  8
ZUWAKU
  6
CONTINUOUS
 62
      32
100
AcDbLine
 10
-71.4875
 20
-136.12054329
 30
0.0
 11
-70.3625
 21
-133.12054329
 31
0.0
  0
LINE
  5
6D
100
AcDbEntity
  8
ZUWAKU
  6
CONTINUOUS
 62
      32
100
AcDbLine
 10
-70.3625
 20
-133.12054329
 30
0.0
 11
-71.8625
 21
-133.12054329
 31
0.0
  0
LINE
  5
6E
100
AcDbEntity
  8
ZUWAKU
  6
CONTINUOUS
 62
      32
100
AcDbLine
 10
-52.825
 20
-136.12054329
 30
0.0
 11
-52.1375
 21
-135.55804329
 31
0.0
  0
LINE
  5
6F
100
AcDbEntity
  8
ZUWAKU
  6
CONTINUOUS
 62
      32
100
AcDbLine
 10
-52.1375
 20
-135.55804329
 30
0.0
 11
-51.6375
 21
-134.87054329
 31
0.0
  0
LINE
  5
70
100
AcDbEntity
  8
ZUWAKU
  6
CONTINUOUS
 62
      32
100
AcDbLine
 10
-51.6375
 20
-134.87054329
 30
0.0
 11
-51.325
 21
-134.05804329
 31
0.0
  0
LINE
  5
71
100
AcDbEntity
  8
ZUWAKU
  6
CONTINUOUS
 62
      32
100
AcDbLine
 10
-66.725
 20
-133.12054329
 30
0.0
 11
-62.1625
 21
-133.12054329
 31
0.0
  0
LINE
  5
72
100
AcDbEntity
  8
ZUWAKU
  6
CONTINUOUS
 62
      32
100
AcDbLine
 10
-62.1625
 20
-133.12054329
 30
0.0
 11
-62.5375
 21
-134.24554329
 31
0.0
  0
LINE
  5
73
100
AcDbEntity
  8
ZUWAKU
  6
CONTINUOUS
 62
      32
100
AcDbLine
 10
-62.1625
 20
-133.12054329
 30
0.0
 11
-62.5375
 21
-134.24554329
 31
0.0
  0
LINE
  5
74
100
AcDbEntity
  8
ZUWAKU
  6
CONTINUOUS
 62
      32
100
AcDbLine
 10
-62.5375
 20
-134.24554329
 30
0.0
 11
-67.1
 21
-134.24554329
 31
0.0
  0
LINE
  5
75
100
AcDbEntity
  8
ZUWAKU
  6
CONTINUOUS
 62
      32
100
AcDbLine
 10
-67.1
 20
-134.24554329
 30
0.0
 11
-66.725
 21
-133.12054329
 31
0.0
  0
LINE
  5
76
100
AcDbEntity
  8
ZUWAKU
  6
CONTINUOUS
 62
      32
100
AcDbLine
 10
-67.1
 20
-134.24554329
 30
0.0
 11
-66.725
 21
-133.12054329
 31
0.0
  0
LINE
  5
77
100
AcDbEntity
  8
ZUWAKU
  6
CONTINUOUS
 62
      32
100
AcDbLine
 10
-62.1625
 20
-133.12054329
 30
0.0
 11
-66.725
 21
-133.12054329
 31
0.0
  0
LINE
  5
78
100
AcDbEntity
  8
ZUWAKU
  6
CONTINUOUS
 62
      32
100
AcDbLine
 10
-66.725
 20
-133.12054329
 30
0.0
 11
-67.1
 21
-134.24554329
 31
0.0
  0
LINE
  5
79
100
AcDbEntity
  8
ZUWAKU
  6
CONTINUOUS
 62
      32
100
AcDbLine
 10
-67.1
 20
-134.24554329
 30
0.0
 11
-62.5375
 21
-134.24554329
 31
0.0
  0
LINE
  5
7A
100
AcDbEntity
  8
ZUWAKU
  6
CONTINUOUS
 62
      32
100
AcDbLine
 10
-64.7875
 20
-137.93304329
 30
0.0
 11
-64.2875
 21
-137.68304329
 31
0.0
  0
LINE
  5
7B
100
AcDbEntity
  8
ZUWAKU
  6
CONTINUOUS
 62
      32
100
AcDbLine
 10
-64.2875
 20
-137.68304329
 30
0.0
 11
-63.9125
 21
-137.30804329
 31
0.0
  0
LINE
  5
7C
100
AcDbEntity
  8
ZUWAKU
  6
CONTINUOUS
 62
      32
100
AcDbLine
 10
-63.9125
 20
-137.30804329
 30
0.0
 11
-63.475
 21
-136.87054329
 31
0.0
  0
LINE
  5
7D
100
AcDbEntity
  8
ZUWAKU
  6
CONTINUOUS
 62
      32
100
AcDbLine
 10
-63.475
 20
-136.87054329
 30
0.0
 11
-62.725
 21
-134.80804329
 31
0.0
  0
LINE
  5
7E
100
AcDbEntity
  8
ZUWAKU
  6
CONTINUOUS
 62
      32
100
AcDbLine
 10
-62.725
 20
-134.80804329
 30
0.0
 11
-67.225
 21
-134.80804329
 31
0.0
  0
LINE
  5
7F
100
AcDbEntity
  8
ZUWAKU
  6
CONTINUOUS
 62
      32
100
AcDbLine
 10
-67.225
 20
-134.80804329
 30
0.0
 11
-67.475
 21
-135.68304329
 31
0.0
  0
LINE
  5
80
100
AcDbEntity
  8
ZUWAKU
  6
CONTINUOUS
 62
      32
100
AcDbLine
 10
-67.475
 20
-135.68304329
 30
0.0
 11
-64.85
 21
-135.68304329
 31
0.0
  0
LINE
  5
81
100
AcDbEntity
  8
ZUWAKU
  6
CONTINUOUS
 62
      32
100
AcDbLine
 10
-64.85
 20
-135.68304329
 30
0.0
 11
-64.975
 21
-136.12054329
 31
0.0
  0
LINE
  5
82
100
AcDbEntity
  8
ZUWAKU
  6
CONTINUOUS
 62
      32
100
AcDbLine
 10
-64.975
 20
-136.12054329
 30
0.0
 11
-65.2875
 21
-136.49554329
 31
0.0
  0
LINE
  5
83
100
AcDbEntity
  8
ZUWAKU
  6
CONTINUOUS
 62
      32
100
AcDbLine
 10
-65.2875
 20
-136.49554329
 30
0.0
 11
-65.6
 21
-136.80804329
 31
0.0
  0
LINE
  5
84
100
AcDbEntity
  8
ZUWAKU
  6
CONTINUOUS
 62
      32
100
AcDbLine
 10
-65.6
 20
-136.80804329
 30
0.0
 11
-66.0375
 21
-137.12054329
 31
0.0
  0
LINE
  5
85
100
AcDbEntity
  8
ZUWAKU
  6
CONTINUOUS
 62
      32
100
AcDbLine
 10
-66.0375
 20
-137.12054329
 30
0.0
 11
-68.1
 21
-137.12054329
 31
0.0
  0
LINE
  5
86
100
AcDbEntity
  8
ZUWAKU
  6
CONTINUOUS
 62
      32
100
AcDbLine
 10
-68.1
 20
-137.12054329
 30
0.0
 11
-68.475
 21
-138.05804329
 31
0.0
  0
LINE
  5
87
100
AcDbEntity
  8
ZUWAKU
  6
CONTINUOUS
 62
      32
100
AcDbLine
 10
-72.4875
 20
-138.05804329
 30
0.0
 11
-72.175
 21
-137.12054329
 31
0.0
  0
LINE
  5
88
100
AcDbEntity
  8
ZUWAKU
  6
CONTINUOUS
 62
      32
100
AcDbLine
 10
-72.175
 20
-137.12054329
 30
0.0
 11
-71.6125
 21
-137.12054329
 31
0.0
  0
LINE
  5
89
100
AcDbEntity
  8
ZUWAKU
  6
CONTINUOUS
 62
      32
100
AcDbLine
 10
-71.6125
 20
-137.12054329
 30
0.0
 11
-71.1125
 21
-137.05804329
 31
0.0
  0
LINE
  5
8A
100
AcDbEntity
  8
ZUWAKU
  6
CONTINUOUS
 62
      32
100
AcDbLine
 10
-71.1125
 20
-137.05804329
 30
0.0
 11
-70.6125
 21
-136.80804329
 31
0.0
  0
LINE
  5
8B
100
AcDbEntity
  8
ZUWAKU
  6
CONTINUOUS
 62
      32
100
AcDbLine
 10
-70.6125
 20
-136.80804329
 30
0.0
 11
-70.3
 21
-136.30804329
 31
0.0
  0
LINE
  5
8C
100
AcDbEntity
  8
ZUWAKU
  6
CONTINUOUS
 62
      32
100
AcDbLine
 10
-70.3
 20
-136.30804329
 30
0.0
 11
-69.1125
 21
-133.12054329
 31
0.0
  0
LINE
  5
8D
100
AcDbEntity
  8
ZUWAKU
  6
CONTINUOUS
 62
      32
100
AcDbLine
 10
-69.1125
 20
-133.12054329
 30
0.0
 11
-67.425
 21
-133.12054329
 31
0.0
  0
LINE
  5
8E
100
AcDbEntity
  8
ZUWAKU
  6
CONTINUOUS
 62
      32
100
AcDbLine
 10
-67.425
 20
-133.12054329
 30
0.0
 11
-68.675
 21
-136.80804329
 31
0.0
  0
LINE
  5
8F
100
AcDbEntity
  8
ZUWAKU
  6
CONTINUOUS
 62
      32
100
AcDbLine
 10
-68.675
 20
-136.80804329
 30
0.0
 11
-69.175
 21
-137.30804329
 31
0.0
  0
LINE
  5
90
100
AcDbEntity
  8
ZUWAKU
  6
CONTINUOUS
 62
      32
100
AcDbLine
 10
-69.175
 20
-137.30804329
 30
0.0
 11
-69.675
 21
-137.74554329
 31
0.0
  0
LINE
  5
91
100
AcDbEntity
  8
ZUWAKU
  6
CONTINUOUS
 62
      32
100
AcDbLine
 10
-69.675
 20
-137.74554329
 30
0.0
 11
-70.3
 21
-137.99554329
 31
0.0
  0
LINE
  5
92
100
AcDbEntity
  8
ZUWAKU
  6
CONTINUOUS
 62
      32
100
AcDbLine
 10
-55.8
 20
-133.12054329
 30
0.0
 11
-56.175
 21
-133.93304329
 31
0.0
  0
LINE
  5
93
100
AcDbEntity
  8
ZUWAKU
  6
CONTINUOUS
 62
      32
100
AcDbLine
 10
-56.175
 20
-133.93304329
 30
0.0
 11
-56.8
 21
-134.55804329
 31
0.0
  0
LINE
  5
94
100
AcDbEntity
  8
ZUWAKU
  6
CONTINUOUS
 62
      32
100
AcDbLine
 10
-56.175
 20
-133.93304329
 30
0.0
 11
-56.8
 21
-134.55804329
 31
0.0
  0
LINE
  5
95
100
AcDbEntity
  8
ZUWAKU
  6
CONTINUOUS
 62
      32
100
AcDbLine
 10
-56.8
 20
-134.55804329
 30
0.0
 11
-57.4875
 21
-135.05804329
 31
0.0
  0
LINE
  5
96
100
AcDbEntity
  8
ZUWAKU
  6
CONTINUOUS
 62
      32
100
AcDbLine
 10
-57.4875
 20
-135.05804329
 30
0.0
 11
-58.3
 21
-135.30804329
 31
0.0
  0
LINE
  5
97
100
AcDbEntity
  8
ZUWAKU
  6
CONTINUOUS
 62
      32
100
AcDbLine
 10
-57.4875
 20
-135.05804329
 30
0.0
 11
-58.3
 21
-135.30804329
 31
0.0
  0
LINE
  5
98
100
AcDbEntity
  8
ZUWAKU
  6
CONTINUOUS
 62
      32
100
AcDbLine
 10
-58.3
 20
-135.30804329
 30
0.0
 11
-59.2375
 21
-138.05804329
 31
0.0
  0
LINE
  5
99
100
AcDbEntity
  8
ZUWAKU
  6
CONTINUOUS
 62
      32
100
AcDbLine
 10
-59.2375
 20
-138.05804329
 30
0.0
 11
-61.3
 21
-138.05804329
 31
0.0
  0
LINE
  5
9A
100
AcDbEntity
  8
ZUWAKU
  6
CONTINUOUS
 62
      32
100
AcDbLine
 10
-59.2375
 20
-138.05804329
 30
0.0
 11
-61.3
 21
-138.05804329
 31
0.0
  0
LINE
  5
9B
100
AcDbEntity
  8
ZUWAKU
  6
CONTINUOUS
 62
      32
100
AcDbLine
 10
-60.525
 20
-135.68304329
 30
0.0
 11
-62.425
 21
-135.68304329
 31
0.0
  0
LINE
  5
9C
100
AcDbEntity
  8
ZUWAKU
  6
CONTINUOUS
 62
      32
100
AcDbLine
 10
-62.425
 20
-135.68304329
 30
0.0
 11
-62.1125
 21
-134.80804329
 31
0.0
  0
LINE
  5
9D
100
AcDbEntity
  8
ZUWAKU
  6
CONTINUOUS
 62
      32
100
AcDbLine
 10
-61.3
 20
-138.05804329
 30
0.0
 11
-60.425
 21
-135.68304329
 31
0.0
  0
LINE
  5
9E
100
AcDbEntity
  8
ZUWAKU
  6
CONTINUOUS
 62
      32
100
AcDbLine
 10
-61.3
 20
-138.05804329
 30
0.0
 11
-60.425
 21
-135.68304329
 31
0.0
  0
LINE
  5
9F
100
AcDbEntity
  8
ZUWAKU
  6
CONTINUOUS
 62
      32
100
AcDbLine
 10
-62.1125
 20
-134.80804329
 30
0.0
 11
-60.925
 21
-134.80804329
 31
0.0
  0
LINE
  5
A0
100
AcDbEntity
  8
ZUWAKU
  6
CONTINUOUS
 62
      32
100
AcDbLine
 10
-62.1125
 20
-134.80804329
 30
0.0
 11
-60.925
 21
-134.80804329
 31
0.0
  0
LINE
  5
A1
100
AcDbEntity
  8
ZUWAKU
  6
CONTINUOUS
 62
      32
100
AcDbLine
 10
-60.925
 20
-134.80804329
 30
0.0
 11
-60.1125
 21
-134.74554329
 31
0.0
  0
LINE
  5
A2
100
AcDbEntity
  8
ZUWAKU
  6
CONTINUOUS
 62
      32
100
AcDbLine
 10
-60.925
 20
-134.80804329
 30
0.0
 11
-60.1125
 21
-134.74554329
 31
0.0
  0
LINE
  5
A3
100
AcDbEntity
  8
ZUWAKU
  6
CONTINUOUS
 62
      32
100
AcDbLine
 10
-60.1125
 20
-134.74554329
 30
0.0
 11
-59.2375
 21
-134.37054329
 31
0.0
  0
LINE
  5
A4
100
AcDbEntity
  8
ZUWAKU
  6
CONTINUOUS
 62
      32
100
AcDbLine
 10
-60.1125
 20
-134.74554329
 30
0.0
 11
-59.2375
 21
-134.37054329
 31
0.0
  0
LINE
  5
A5
100
AcDbEntity
  8
ZUWAKU
  6
CONTINUOUS
 62
      32
100
AcDbLine
 10
-59.2375
 20
-134.37054329
 30
0.0
 11
-58.6125
 21
-133.80804329
 31
0.0
  0
LINE
  5
A6
100
AcDbEntity
  8
ZUWAKU
  6
CONTINUOUS
 62
      32
100
AcDbLine
 10
-59.2375
 20
-134.37054329
 30
0.0
 11
-58.6125
 21
-133.80804329
 31
0.0
  0
LINE
  5
A7
100
AcDbEntity
  8
ZUWAKU
  6
CONTINUOUS
 62
      32
100
AcDbLine
 10
-70.3625
 20
-133.12054329
 30
0.0
 11
-71.4875
 21
-136.12054329
 31
0.0
  0
LINE
  5
A8
100
AcDbEntity
  8
ZUWAKU
  6
CONTINUOUS
 62
      32
100
AcDbLine
 10
-71.4875
 20
-136.12054329
 30
0.0
 11
-72.925
 21
-136.12054329
 31
0.0
  0
LINE
  5
A9
100
AcDbEntity
  8
ZUWAKU
  6
CONTINUOUS
 62
      32
100
AcDbLine
 10
-71.4875
 20
-136.12054329
 30
0.0
 11
-72.925
 21
-136.12054329
 31
0.0
  0
LINE
  5
AA
100
AcDbEntity
  8
ZUWAKU
  6
CONTINUOUS
 62
      32
100
AcDbLine
 10
-72.925
 20
-136.12054329
 30
0.0
 11
-71.8625
 21
-133.12054329
 31
0.0
  0
LINE
  5
AB
100
AcDbEntity
  8
ZUWAKU
  6
CONTINUOUS
 62
      32
100
AcDbLine
 10
-71.8625
 20
-133.12054329
 30
0.0
 11
-70.3625
 21
-133.12054329
 31
0.0
  0
LINE
  5
AC
100
AcDbEntity
  8
ZUWAKU
  6
CONTINUOUS
 62
      32
100
AcDbLine
 10
-71.8625
 20
-133.12054329
 30
0.0
 11
-70.3625
 21
-133.12054329
 31
0.0
  0
LINE
  5
AD
100
AcDbEntity
  8
ZUWAKU
  6
CONTINUOUS
 62
      32
100
AcDbLine
 10
-49.75
 20
-133.12054329
 30
0.0
 11
-50.125
 21
-134.24554329
 31
0.0
  0
LINE
  5
AE
100
AcDbEntity
  8
ZUWAKU
  6
CONTINUOUS
 62
      32
100
AcDbLine
 10
-50.125
 20
-134.24554329
 30
0.0
 11
-48.125
 21
-134.24554329
 31
0.0
  0
LINE
  5
AF
100
AcDbEntity
  8
ZUWAKU
  6
CONTINUOUS
 62
      32
100
AcDbLine
 10
-50.125
 20
-134.24554329
 30
0.0
 11
-48.125
 21
-134.24554329
 31
0.0
  0
LINE
  5
B0
100
AcDbEntity
  8
ZUWAKU
  6
CONTINUOUS
 62
      32
100
AcDbLine
 10
-51.5
 20
-137.05804329
 30
0.0
 11
-51.875
 21
-138.12054329
 31
0.0
  0
LINE
  5
B1
100
AcDbEntity
  8
ZUWAKU
  6
CONTINUOUS
 62
      32
100
AcDbLine
 10
-51.5
 20
-137.05804329
 30
0.0
 11
-51.875
 21
-138.12054329
 31
0.0
  0
LINE
  5
B2
100
AcDbEntity
  8
ZUWAKU
  6
CONTINUOUS
 62
      32
100
AcDbLine
 10
-51.875
 20
-138.12054329
 30
0.0
 11
-50.0
 21
-137.80804329
 31
0.0
  0
LINE
  5
B3
100
AcDbEntity
  8
ZUWAKU
  6
CONTINUOUS
 62
      32
100
AcDbLine
 10
-50.0
 20
-137.80804329
 30
0.0
 11
-49.125
 21
-137.55804329
 31
0.0
  0
LINE
  5
B4
100
AcDbEntity
  8
ZUWAKU
  6
CONTINUOUS
 62
      32
100
AcDbLine
 10
-50.0
 20
-137.80804329
 30
0.0
 11
-49.125
 21
-137.55804329
 31
0.0
  0
LINE
  5
B5
100
AcDbEntity
  8
ZUWAKU
  6
CONTINUOUS
 62
      32
100
AcDbLine
 10
-48.1875
 20
-137.24554329
 30
0.0
 11
-47.6875
 21
-138.05804329
 31
0.0
  0
LINE
  5
B6
100
AcDbEntity
  8
ZUWAKU
  6
CONTINUOUS
 62
      32
100
AcDbLine
 10
-47.6875
 20
-138.05804329
 30
0.0
 11
-46.125
 21
-138.05804329
 31
0.0
  0
LINE
  5
B7
100
AcDbEntity
  8
ZUWAKU
  6
CONTINUOUS
 62
      32
100
AcDbLine
 10
-47.6875
 20
-138.05804329
 30
0.0
 11
-46.125
 21
-138.05804329
 31
0.0
  0
LINE
  5
B8
100
AcDbEntity
  8
ZUWAKU
  6
CONTINUOUS
 62
      32
100
AcDbLine
 10
-47.1875
 20
-136.30804329
 30
0.0
 11
-46.625
 21
-135.55804329
 31
0.0
  0
LINE
  5
B9
100
AcDbEntity
  8
ZUWAKU
  6
CONTINUOUS
 62
      32
100
AcDbLine
 10
-46.625
 20
-135.55804329
 30
0.0
 11
-46.125
 21
-134.80804329
 31
0.0
  0
LINE
  5
BA
100
AcDbEntity
  8
ZUWAKU
  6
CONTINUOUS
 62
      32
100
AcDbLine
 10
-46.125
 20
-134.80804329
 30
0.0
 11
-45.75
 21
-133.99554329
 31
0.0
  0
LINE
  5
BB
100
AcDbEntity
  8
ZUWAKU
  6
CONTINUOUS
 62
      32
100
AcDbLine
 10
-45.75
 20
-133.99554329
 30
0.0
 11
-45.5
 21
-133.12054329
 31
0.0
  0
LINE
  5
BC
100
AcDbEntity
  8
ZUWAKU
  6
CONTINUOUS
 62
      32
100
AcDbLine
 10
-45.75
 20
-133.99554329
 30
0.0
 11
-45.5
 21
-133.12054329
 31
0.0
  0
LINE
  5
BD
100
AcDbEntity
  8
ZUWAKU
  6
CONTINUOUS
 62
      32
100
AcDbLine
 10
-45.5
 20
-133.12054329
 30
0.0
 11
-49.75
 21
-133.12054329
 31
0.0
  0
LINE
  5
BE
100
AcDbEntity
  8
ZUWAKU
  6
CONTINUOUS
 62
      32
100
AcDbLine
 10
-49.3125
 20
-136.24554329
 30
0.0
 11
-50.3125
 21
-136.80804329
 31
0.0
  0
LINE
  5
BF
100
AcDbEntity
  8
ZUWAKU
  6
CONTINUOUS
 62
      32
100
AcDbLine
 10
-49.125
 20
-137.55804329
 30
0.0
 11
-48.1875
 21
-137.24554329
 31
0.0
  0
LINE
  5
C0
100
AcDbEntity
  8
ZUWAKU
  6
CONTINUOUS
 62
      32
100
AcDbLine
 10
-49.125
 20
-137.55804329
 30
0.0
 11
-48.1875
 21
-137.24554329
 31
0.0
  0
LINE
  5
C1
100
AcDbEntity
  8
ZUWAKU
  6
CONTINUOUS
 62
      32
100
AcDbLine
 10
-46.125
 20
-138.05804329
 30
0.0
 11
-47.1875
 21
-136.30804329
 31
0.0
  0
LINE
  5
C2
100
AcDbEntity
  8
ZUWAKU
  6
CONTINUOUS
 62
      32
100
AcDbLine
 10
-46.125
 20
-138.05804329
 30
0.0
 11
-47.1875
 21
-136.30804329
 31
0.0
  0
LINE
  5
C3
100
AcDbEntity
  8
ZUWAKU
  6
CONTINUOUS
 62
      32
100
AcDbLine
 10
-48.5
 20
-135.30804329
 30
0.0
 11
-49.3125
 21
-136.24554329
 31
0.0
  0
LINE
  5
C4
100
AcDbEntity
  8
ZUWAKU
  6
CONTINUOUS
 62
      32
100
AcDbLine
 10
-48.5
 20
-135.30804329
 30
0.0
 11
-49.3125
 21
-136.24554329
 31
0.0
  0
LINE
  5
C5
100
AcDbEntity
  8
ZUWAKU
  6
CONTINUOUS
 62
      32
100
AcDbLine
 10
-60.925
 20
-134.80804329
 30
0.0
 11
-60.1125
 21
-134.74554329
 31
0.0
  0
LINE
  5
C6
100
AcDbEntity
  8
ZUWAKU
  6
CONTINUOUS
 62
      32
100
AcDbLine
 10
-60.1125
 20
-134.74554329
 30
0.0
 11
-59.2375
 21
-134.37054329
 31
0.0
  0
LINE
  5
C7
100
AcDbEntity
  8
ZUWAKU
  6
CONTINUOUS
 62
      32
100
AcDbLine
 10
-59.2375
 20
-134.37054329
 30
0.0
 11
-58.6125
 21
-133.80804329
 31
0.0
  0
LINE
  5
C8
100
AcDbEntity
  8
ZUWAKU
  6
CONTINUOUS
 62
      32
100
AcDbLine
 10
-58.6125
 20
-133.80804329
 30
0.0
 11
-58.1125
 21
-133.12054329
 31
0.0
  0
LINE
  5
C9
100
AcDbEntity
  8
ZUWAKU
  6
CONTINUOUS
 62
      32
100
AcDbLine
 10
-53.825
 20
-138.05804329
 30
0.0
 11
-52.7
 21
-137.55804329
 31
0.0
  0
LINE
  5
CA
100
AcDbEntity
  8
ZUWAKU
  6
CONTINUOUS
 62
      32
100
AcDbLine
 10
-52.7
 20
-137.55804329
 30
0.0
 11
-51.7
 21
-136.62054329
 31
0.0
  0
LINE
  5
CB
100
AcDbEntity
  8
ZUWAKU
  6
CONTINUOUS
 62
      32
100
AcDbLine
 10
-51.7
 20
-136.62054329
 30
0.0
 11
-50.95
 21
-135.37054329
 31
0.0
  0
LINE
  5
CC
100
AcDbEntity
  8
ZUWAKU
  6
CONTINUOUS
 62
      32
100
AcDbLine
 10
-50.95
 20
-135.37054329
 30
0.0
 11
-50.7
 21
-134.05804329
 31
0.0
  0
LINE
  5
CD
100
AcDbEntity
  8
ZUWAKU
  6
CONTINUOUS
 62
      32
100
AcDbLine
 10
-51.5
 20
-137.05804329
 30
0.0
 11
-50.3125
 21
-136.80804329
 31
0.0
  0
LINE
  5
CE
100
AcDbEntity
  8
ZUWAKU
  6
CONTINUOUS
 62
      32
100
AcDbLine
 10
-50.3125
 20
-136.80804329
 30
0.0
 11
-49.3125
 21
-136.24554329
 31
0.0
  0
LINE
  5
CF
100
AcDbEntity
  8
ZUWAKU
  6
CONTINUOUS
 62
      32
100
AcDbLine
 10
-49.3125
 20
-136.24554329
 30
0.0
 11
-48.5
 21
-135.30804329
 31
0.0
  0
LINE
  5
D0
100
AcDbEntity
  8
ZUWAKU
  6
CONTINUOUS
 62
      32
100
AcDbLine
 10
-58.3
 20
-135.30804329
 30
0.0
 11
-57.4875
 21
-135.05804329
 31
0.0
  0
LINE
  5
D1
100
AcDbEntity
  8
ZUWAKU
  6
CONTINUOUS
 62
      32
100
AcDbLine
 10
-57.4875
 20
-135.05804329
 30
0.0
 11
-56.8
 21
-134.55804329
 31
0.0
  0
LINE
  5
D2
100
AcDbEntity
  8
ZUWAKU
  6
CONTINUOUS
 62
      32
100
AcDbLine
 10
-56.8
 20
-134.55804329
 30
0.0
 11
-56.175
 21
-133.93304329
 31
0.0
  0
LINE
  5
D3
100
AcDbEntity
  8
ZUWAKU
  6
CONTINUOUS
 62
      32
100
AcDbLine
 10
-56.175
 20
-133.93304329
 30
0.0
 11
-55.8
 21
-133.12054329
 31
0.0
  0
LINE
  5
D4
100
AcDbEntity
  8
ZUWAKU
  6
CONTINUOUS
 62
      32
100
AcDbLine
 10
-47.1875
 20
-136.30804329
 30
0.0
 11
-46.625
 21
-135.55804329
 31
0.0
  0
LINE
  5
D5
100
AcDbEntity
  8
ZUWAKU
  6
CONTINUOUS
 62
      32
100
AcDbLine
 10
-46.625
 20
-135.55804329
 30
0.0
 11
-46.125
 21
-134.80804329
 31
0.0
  0
LINE
  5
D6
100
AcDbEntity
  8
ZUWAKU
  6
CONTINUOUS
 62
      32
100
AcDbLine
 10
-46.125
 20
-134.80804329
 30
0.0
 11
-45.75
 21
-133.99554329
 31
0.0
  0
LINE
  5
D7
100
AcDbEntity
  8
ZUWAKU
  6
CONTINUOUS
 62
      32
100
AcDbLine
 10
-45.75
 20
-133.99554329
 30
0.0
 11
-45.5
 21
-133.12054329
 31
0.0
  0
LINE
  5
D8
100
AcDbEntity
  8
ZUWAKU
  6
CONTINUOUS
 62
      32
100
AcDbLine
 10
-50.0
 20
-137.80804329
 30
0.0
 11
-49.125
 21
-137.55804329
 31
0.0
  0
LINE
  5
D9
100
AcDbEntity
  8
ZUWAKU
  6
CONTINUOUS
 62
      32
100
AcDbLine
 10
-49.125
 20
-137.55804329
 30
0.0
 11
-48.1875
 21
-137.24554329
 31
0.0
  0
LINE
  5
DA
100
AcDbEntity
  8
ZUWAKU
  6
CONTINUOUS
 62
      32
100
AcDbLine
 10
-51.6375
 20
-134.87054329
 30
0.0
 11
-51.325
 21
-134.05804329
 31
0.0
  0
LINE
  5
DB
100
AcDbEntity
  8
ZUWAKU
  6
CONTINUOUS
 62
      32
100
AcDbLine
 10
-51.325
 20
-134.05804329
 30
0.0
 11
-50.7
 21
-134.05804329
 31
0.0
  0
LINE
  5
DC
100
AcDbEntity
  8
ZUWAKU
  6
CONTINUOUS
 62
      32
100
AcDbLine
 10
-51.325
 20
-134.05804329
 30
0.0
 11
-50.7
 21
-134.05804329
 31
0.0
  0
LINE
  5
DD
100
AcDbEntity
  8
ZUWAKU
  6
CONTINUOUS
 62
      32
100
AcDbLine
 10
-50.7
 20
-134.05804329
 30
0.0
 11
-50.95
 21
-135.37054329
 31
0.0
  0
LINE
  5
DE
100
AcDbEntity
  8
ZUWAKU
  6
CONTINUOUS
 62
      32
100
AcDbLine
 10
-50.95
 20
-135.37054329
 30
0.0
 11
-51.7
 21
-136.62054329
 31
0.0
  0
LINE
  5
DF
100
AcDbEntity
  8
ZUWAKU
  6
CONTINUOUS
 62
      32
100
AcDbLine
 10
-50.95
 20
-135.37054329
 30
0.0
 11
-51.7
 21
-136.62054329
 31
0.0
  0
LINE
  5
E0
100
AcDbEntity
  8
ZUWAKU
  6
CONTINUOUS
 62
      32
100
AcDbLine
 10
-51.7
 20
-136.62054329
 30
0.0
 11
-52.7
 21
-137.55804329
 31
0.0
  0
LINE
  5
E1
100
AcDbEntity
  8
ZUWAKU
  6
CONTINUOUS
 62
      32
100
AcDbLine
 10
-53.95
 20
-138.05804329
 30
0.0
 11
-57.1375
 21
-138.05804329
 31
0.0
  0
LINE
  5
E2
100
AcDbEntity
  8
ZUWAKU
  6
CONTINUOUS
 62
      32
100
AcDbLine
 10
-57.1375
 20
-138.05804329
 30
0.0
 11
-56.575
 21
-136.49554329
 31
0.0
  0
LINE
  5
E3
100
AcDbEntity
  8
ZUWAKU
  6
CONTINUOUS
 62
      32
100
AcDbLine
 10
-57.1375
 20
-138.05804329
 30
0.0
 11
-56.575
 21
-136.49554329
 31
0.0
  0
LINE
  5
E4
100
AcDbEntity
  8
ZUWAKU
  6
CONTINUOUS
 62
      32
100
AcDbLine
 10
-52.1375
 20
-135.55804329
 30
0.0
 11
-51.6375
 21
-134.87054329
 31
0.0
  0
LINE
  5
E5
100
AcDbEntity
  8
ZUWAKU
  6
CONTINUOUS
 62
      32
100
AcDbLine
 10
-56.575
 20
-136.49554329
 30
0.0
 11
-53.575
 21
-136.49554329
 31
0.0
  0
LINE
  5
E6
100
AcDbEntity
  8
ZUWAKU
  6
CONTINUOUS
 62
      32
100
AcDbLine
 10
-56.575
 20
-136.49554329
 30
0.0
 11
-53.575
 21
-136.49554329
 31
0.0
  0
LINE
  5
E7
100
AcDbEntity
  8
ZUWAKU
  6
CONTINUOUS
 62
      32
100
AcDbLine
 10
-53.575
 20
-136.49554329
 30
0.0
 11
-52.825
 21
-136.12054329
 31
0.0
  0
LINE
  5
E8
100
AcDbEntity
  8
ZUWAKU
  6
CONTINUOUS
 62
      32
100
AcDbLine
 10
-53.575
 20
-136.49554329
 30
0.0
 11
-52.825
 21
-136.12054329
 31
0.0
  0
LINE
  5
E9
100
AcDbEntity
  8
ZUWAKU
  6
CONTINUOUS
 62
      32
100
AcDbLine
 10
-52.825
 20
-136.12054329
 30
0.0
 11
-52.1375
 21
-135.55804329
 31
0.0
  0
LINE
  5
EA
100
AcDbEntity
  8
ZUWAKU
  6
CONTINUOUS
 62
      32
100
AcDbLine
 10
-62.725
 20
-134.80804329
 30
0.0
 11
-63.475
 21
-136.87054329
 31
0.0
  0
LINE
  5
EB
100
AcDbEntity
  8
ZUWAKU
  6
CONTINUOUS
 62
      32
100
AcDbLine
 10
-63.475
 20
-136.87054329
 30
0.0
 11
-63.9125
 21
-137.30804329
 31
0.0
  0
LINE
  5
EC
100
AcDbEntity
  8
ZUWAKU
  6
CONTINUOUS
 62
      32
100
AcDbLine
 10
-63.475
 20
-136.87054329
 30
0.0
 11
-63.9125
 21
-137.30804329
 31
0.0
  0
LINE
  5
ED
100
AcDbEntity
  8
ZUWAKU
  6
CONTINUOUS
 62
      32
100
AcDbLine
 10
-63.9125
 20
-137.30804329
 30
0.0
 11
-64.2875
 21
-137.68304329
 31
0.0
  0
LINE
  5
EE
100
AcDbEntity
  8
ZUWAKU
  6
CONTINUOUS
 62
      32
100
AcDbLine
 10
-64.2875
 20
-137.68304329
 30
0.0
 11
-64.7875
 21
-137.93304329
 31
0.0
  0
LINE
  5
EF
100
AcDbEntity
  8
ZUWAKU
  6
CONTINUOUS
 62
      32
100
AcDbLine
 10
-64.2875
 20
-137.68304329
 30
0.0
 11
-64.7875
 21
-137.93304329
 31
0.0
  0
LINE
  5
F0
100
AcDbEntity
  8
ZUWAKU
  6
CONTINUOUS
 62
      32
100
AcDbLine
 10
-64.7875
 20
-137.93304329
 30
0.0
 11
-65.2875
 21
-138.05804329
 31
0.0
  0
LINE
  5
F1
100
AcDbEntity
  8
ZUWAKU
  6
CONTINUOUS
 62
      32
100
AcDbLine
 10
-65.2875
 20
-138.05804329
 30
0.0
 11
-68.475
 21
-138.05804329
 31
0.0
  0
LINE
  5
F2
100
AcDbEntity
  8
ZUWAKU
  6
CONTINUOUS
 62
      32
100
AcDbLine
 10
-65.2875
 20
-138.05804329
 30
0.0
 11
-68.475
 21
-138.05804329
 31
0.0
  0
LINE
  5
F3
100
AcDbEntity
  8
ZUWAKU
  6
CONTINUOUS
 62
      32
100
AcDbLine
 10
-68.475
 20
-138.05804329
 30
0.0
 11
-68.1
 21
-137.12054329
 31
0.0
  0
LINE
  5
F4
100
AcDbEntity
  8
ZUWAKU
  6
CONTINUOUS
 62
      32
100
AcDbLine
 10
-68.1
 20
-137.12054329
 30
0.0
 11
-66.0375
 21
-137.12054329
 31
0.0
  0
LINE
  5
F5
100
AcDbEntity
  8
ZUWAKU
  6
CONTINUOUS
 62
      32
100
AcDbLine
 10
-68.1
 20
-137.12054329
 30
0.0
 11
-66.0375
 21
-137.12054329
 31
0.0
  0
LINE
  5
F6
100
AcDbEntity
  8
ZUWAKU
  6
CONTINUOUS
 62
      32
100
AcDbLine
 10
-64.85
 20
-135.68304329
 30
0.0
 11
-67.475
 21
-135.68304329
 31
0.0
  0
LINE
  5
F7
100
AcDbEntity
  8
ZUWAKU
  6
CONTINUOUS
 62
      32
100
AcDbLine
 10
-67.475
 20
-135.68304329
 30
0.0
 11
-67.225
 21
-134.80804329
 31
0.0
  0
LINE
  5
F8
100
AcDbEntity
  8
ZUWAKU
  6
CONTINUOUS
 62
      32
100
AcDbLine
 10
-67.475
 20
-135.68304329
 30
0.0
 11
-67.225
 21
-134.80804329
 31
0.0
  0
LINE
  5
F9
100
AcDbEntity
  8
ZUWAKU
  6
CONTINUOUS
 62
      32
100
AcDbLine
 10
-66.0375
 20
-137.12054329
 30
0.0
 11
-65.6
 21
-136.80804329
 31
0.0
  0
LINE
  5
FA
100
AcDbEntity
  8
ZUWAKU
  6
CONTINUOUS
 62
      32
100
AcDbLine
 10
-66.0375
 20
-137.12054329
 30
0.0
 11
-65.6
 21
-136.80804329
 31
0.0
  0
LINE
  5
FB
100
AcDbEntity
  8
ZUWAKU
  6
CONTINUOUS
 62
      32
100
AcDbLine
 10
-65.6
 20
-136.80804329
 30
0.0
 11
-65.2875
 21
-136.49554329
 31
0.0
  0
LINE
  5
FC
100
AcDbEntity
  8
ZUWAKU
  6
CONTINUOUS
 62
      32
100
AcDbLine
 10
-65.6
 20
-136.80804329
 30
0.0
 11
-65.2875
 21
-136.49554329
 31
0.0
  0
LINE
  5
FD
100
AcDbEntity
  8
ZUWAKU
  6
CONTINUOUS
 62
      32
100
AcDbLine
 10
-65.2875
 20
-136.49554329
 30
0.0
 11
-64.975
 21
-136.12054329
 31
0.0
  0
LINE
  5
FE
100
AcDbEntity
  8
ZUWAKU
  6
CONTINUOUS
 62
      32
100
AcDbLine
 10
-65.2875
 20
-136.49554329
 30
0.0
 11
-64.975
 21
-136.12054329
 31
0.0
  0
LINE
  5
FF
100
AcDbEntity
  8
ZUWAKU
  6
CONTINUOUS
 62
      32
100
AcDbLine
 10
-64.975
 20
-136.12054329
 30
0.0
 11
-64.85
 21
-135.68304329
 31
0.0
  0
LINE
  5
100
100
AcDbEntity
  8
ZUWAKU
  6
CONTINUOUS
 62
      32
100
AcDbLine
 10
-64.975
 20
-136.12054329
 30
0.0
 11
-64.85
 21
-135.68304329
 31
0.0
  0
LINE
  5
101
100
AcDbEntity
  8
ZUWAKU
  6
CONTINUOUS
 62
      32
100
AcDbLine
 10
-68.9125
 20
-133.12054329
 30
0.0
 11
-67.53799626
 21
-133.12054329
 31
0.0
  0
LINE
  5
102
100
AcDbEntity
  8
ZUWAKU
  6
CONTINUOUS
 62
      32
100
AcDbLine
 10
-68.675
 20
-136.80804329
 30
0.0
 11
-69.175
 21
-137.30804329
 31
0.0
  0
LINE
  5
103
100
AcDbEntity
  8
ZUWAKU
  6
CONTINUOUS
 62
      32
100
AcDbLine
 10
-69.175
 20
-137.30804329
 30
0.0
 11
-69.675
 21
-137.74554329
 31
0.0
  0
LINE
  5
104
100
AcDbEntity
  8
ZUWAKU
  6
CONTINUOUS
 62
      32
100
AcDbLine
 10
-69.175
 20
-137.30804329
 30
0.0
 11
-69.675
 21
-137.74554329
 31
0.0
  0
LINE
  5
105
100
AcDbEntity
  8
ZUWAKU
  6
CONTINUOUS
 62
      32
100
AcDbLine
 10
-69.675
 20
-137.74554329
 30
0.0
 11
-70.3
 21
-137.99554329
 31
0.0
  0
LINE
  5
106
100
AcDbEntity
  8
ZUWAKU
  6
CONTINUOUS
 62
      32
100
AcDbLine
 10
-70.3
 20
-137.99554329
 30
0.0
 11
-70.925
 21
-138.05804329
 31
0.0
  0
LINE
  5
107
100
AcDbEntity
  8
ZUWAKU
  6
CONTINUOUS
 62
      32
100
AcDbLine
 10
-70.925
 20
-138.05804329
 30
0.0
 11
-72.4875
 21
-138.05804329
 31
0.0
  0
LINE
  5
108
100
AcDbEntity
  8
ZUWAKU
  6
CONTINUOUS
 62
      32
100
AcDbLine
 10
-72.4875
 20
-138.05804329
 30
0.0
 11
-72.175
 21
-137.12054329
 31
0.0
  0
LINE
  5
109
100
AcDbEntity
  8
ZUWAKU
  6
CONTINUOUS
 62
      32
100
AcDbLine
 10
-72.4875
 20
-138.05804329
 30
0.0
 11
-72.175
 21
-137.12054329
 31
0.0
  0
LINE
  5
10A
100
AcDbEntity
  8
ZUWAKU
  6
CONTINUOUS
 62
      32
100
AcDbLine
 10
-70.3
 20
-136.30804329
 30
0.0
 11
-69.1125
 21
-133.12054329
 31
0.0
  0
LINE
  5
10B
100
AcDbEntity
  8
ZUWAKU
  6
CONTINUOUS
 62
      32
100
AcDbLine
 10
-72.175
 20
-137.12054329
 30
0.0
 11
-71.6125
 21
-137.12054329
 31
0.0
  0
LINE
  5
10C
100
AcDbEntity
  8
ZUWAKU
  6
CONTINUOUS
 62
      32
100
AcDbLine
 10
-72.175
 20
-137.12054329
 30
0.0
 11
-71.6125
 21
-137.12054329
 31
0.0
  0
LINE
  5
10D
100
AcDbEntity
  8
ZUWAKU
  6
CONTINUOUS
 62
      32
100
AcDbLine
 10
-70.6125
 20
-136.80804329
 30
0.0
 11
-70.3
 21
-136.30804329
 31
0.0
  0
LINE
  5
10E
100
AcDbEntity
  8
ZUWAKU
  6
CONTINUOUS
 62
      32
100
AcDbLine
 10
-71.1125
 20
-137.05804329
 30
0.0
 11
-70.6125
 21
-136.80804329
 31
0.0
  0
LINE
  5
10F
100
AcDbEntity
  8
ZUWAKU
  6
CONTINUOUS
 62
      32
100
AcDbLine
 10
-71.6125
 20
-137.12054329
 30
0.0
 11
-71.1125
 21
-137.05804329
 31
0.0
  0
LINE
  5
110
100
AcDbEntity
  8
ZUWAKU
  6
CONTINUOUS
 62
      32
100
AcDbLine
 10
-71.6125
 20
-137.12054329
 30
0.0
 11
-71.1125
 21
-137.05804329
 31
0.0
  0
LINE
  5
111
100
AcDbEntity
  8
ZUWAKU
  6
CONTINUOUS
 62
      32
100
AcDbLine
 10
-55.325
 20
-133.12054329
 30
0.0
 11
-53.325
 21
-133.12054329
 31
0.0
  0
LINE
  5
112
100
AcDbEntity
  8
ZUWAKU
  6
CONTINUOUS
 62
      32
100
AcDbLine
 10
-53.325
 20
-133.12054329
 30
0.0
 11
-53.7
 21
-134.24554329
 31
0.0
  0
LINE
  5
113
100
AcDbEntity
  8
ZUWAKU
  6
CONTINUOUS
 62
      32
100
AcDbLine
 10
-53.325
 20
-133.12054329
 30
0.0
 11
-53.7
 21
-134.24554329
 31
0.0
  0
LINE
  5
114
100
AcDbEntity
  8
ZUWAKU
  6
CONTINUOUS
 62
      32
100
AcDbLine
 10
-53.8
 20
-134.24554329
 30
0.0
 11
-55.7625
 21
-134.24554329
 31
0.0
  0
LINE
  5
115
100
AcDbEntity
  8
ZUWAKU
  6
CONTINUOUS
 62
      32
100
AcDbLine
 10
-47.91757436
 20
-134.23722882
 30
0.0
 11
-48.5
 21
-135.30804329
 31
0.0
  0
LINE
  5
116
100
AcDbEntity
  8
ZUWAKU
  6
CONTINUOUS
 62
      32
100
AcDbLine
 10
-46.1875
 20
-133.12054329
 30
0.0
 11
-49.3125
 21
-136.24554329
 31
0.0
  0
LINE
  5
117
100
AcDbEntity
  8
ZUWAKU
  6
CONTINUOUS
 62
      32
100
AcDbLine
 10
-49.3125
 20
-136.24554329
 30
0.0
 11
-51.05
 21
-137.98304329
 31
0.0
  0
LINE
  5
118
100
AcDbEntity
  8
ZUWAKU
  6
CONTINUOUS
 62
      32
100
AcDbLine
 10
-46.47034271
 20
-133.12054329
 30
0.0
 11
-48.31176547
 21
-134.96196605
 31
0.0
  0
LINE
  5
119
100
AcDbEntity
  8
ZUWAKU
  6
CONTINUOUS
 62
      32
100
AcDbLine
 10
-49.95899763
 20
-136.60919821
 30
0.0
 11
-51.38941125
 21
-138.03961184
 31
0.0
  0
LINE
  5
11A
100
AcDbEntity
  8
ZUWAKU
  6
CONTINUOUS
 62
      32
100
AcDbLine
 10
-46.75318542
 20
-133.12054329
 30
0.0
 11
-47.97446282
 21
-134.34182069
 31
0.0
  0
LINE
  5
11B
100
AcDbEntity
  8
ZUWAKU
  6
CONTINUOUS
 62
      32
100
AcDbLine
 10
-50.4748682
 20
-136.84222607
 30
0.0
 11
-51.72882251
 21
-138.09618038
 31
0.0
  0
LINE
  5
11C
100
AcDbEntity
  8
ZUWAKU
  6
CONTINUOUS
 62
      32
100
AcDbLine
 10
-47.03602814
 20
-133.12054329
 30
0.0
 11
-48.16102814
 21
-134.24554329
 31
0.0
  0
LINE
  5
11D
100
AcDbEntity
  8
ZUWAKU
  6
CONTINUOUS
 62
      32
100
AcDbLine
 10
-50.83313564
 20
-136.9176508
 30
0.0
 11
-51.78716647
 21
-137.87168163
 31
0.0
  0
LINE
  5
11E
100
AcDbEntity
  8
ZUWAKU
  6
CONTINUOUS
 62
      32
100
AcDbLine
 10
-47.31887085
 20
-133.12054329
 30
0.0
 11
-48.44387085
 21
-134.24554329
 31
0.0
  0
LINE
  5
11F
100
AcDbEntity
  8
ZUWAKU
  6
CONTINUOUS
 62
      32
100
AcDbLine
 10
-51.19140308
 20
-136.99307552
 30
0.0
 11
-51.63288863
 21
-137.43456107
 31
0.0
  0
LINE
  5
120
100
AcDbEntity
  8
ZUWAKU
  6
CONTINUOUS
 62
      32
100
AcDbLine
 10
-47.60171356
 20
-133.12054329
 30
0.0
 11
-48.72671356
 21
-134.24554329
 31
0.0
  0
LINE
  5
121
100
AcDbEntity
  8
ZUWAKU
  6
CONTINUOUS
 62
      32
100
AcDbLine
 10
-47.88455627
 20
-133.12054329
 30
0.0
 11
-49.00955627
 21
-134.24554329
 31
0.0
  0
LINE
  5
122
100
AcDbEntity
  8
ZUWAKU
  6
CONTINUOUS
 62
      32
100
AcDbLine
 10
-48.16739899
 20
-133.12054329
 30
0.0
 11
-49.29239899
 21
-134.24554329
 31
0.0
  0
LINE
  5
123
100
AcDbEntity
  8
ZUWAKU
  6
CONTINUOUS
 62
      32
100
AcDbLine
 10
-48.4502417
 20
-133.12054329
 30
0.0
 11
-49.5752417
 21
-134.24554329
 31
0.0
  0
LINE
  5
124
100
AcDbEntity
  8
ZUWAKU
  6
CONTINUOUS
 62
      32
100
AcDbLine
 10
-48.73308441
 20
-133.12054329
 30
0.0
 11
-49.85808441
 21
-134.24554329
 31
0.0
  0
LINE
  5
125
100
AcDbEntity
  8
ZUWAKU
  6
CONTINUOUS
 62
      32
100
AcDbLine
 10
-49.01592712
 20
-133.12054329
 30
0.0
 11
-50.11703644
 21
-134.22165261
 31
0.0
  0
LINE
  5
126
100
AcDbEntity
  8
ZUWAKU
  6
CONTINUOUS
 62
      32
100
AcDbLine
 10
-49.29876984
 20
-133.12054329
 30
0.0
 11
-49.97561508
 21
-133.79738854
 31
0.0
  0
LINE
  5
127
100
AcDbEntity
  8
ZUWAKU
  6
CONTINUOUS
 62
      32
100
AcDbLine
 10
-49.58161255
 20
-133.12054329
 30
0.0
 11
-49.83419373
 21
-133.37312447
 31
0.0
  0
LINE
  5
128
100
AcDbEntity
  8
ZUWAKU
  6
CONTINUOUS
 62
      32
100
AcDbLine
 10
-45.90465729
 20
-133.12054329
 30
0.0
 11
-50.71058875
 21
-137.92647475
 31
0.0
  0
LINE
  5
129
100
AcDbEntity
  8
ZUWAKU
  6
CONTINUOUS
 62
      32
100
AcDbLine
 10
-45.62181458
 20
-133.12054329
 30
0.0
 11
-50.37117749
 21
-137.86990621
 31
0.0
  0
LINE
  5
12A
100
AcDbEntity
  8
ZUWAKU
  6
CONTINUOUS
 62
      32
100
AcDbLine
 10
-45.56441125
 20
-133.34598269
 30
0.0
 11
-50.03176624
 21
-137.81333767
 31
0.0
  0
LINE
  5
12B
100
AcDbEntity
  8
ZUWAKU
  6
CONTINUOUS
 62
      32
100
AcDbLine
 10
-45.67754834
 20
-133.74196248
 30
0.0
 11
-49.64108081
 21
-137.70549495
 31
0.0
  0
LINE
  5
12C
100
AcDbEntity
  8
ZUWAKU
  6
CONTINUOUS
 62
      32
100
AcDbLine
 10
-45.83718305
 20
-134.18443991
 30
0.0
 11
-49.24510101
 21
-137.59235787
 31
0.0
  0
LINE
  5
12D
100
AcDbEntity
  8
ZUWAKU
  6
CONTINUOUS
 62
      32
100
AcDbLine
 10
-46.07961966
 20
-134.70971923
 30
0.0
 11
-48.82941559
 21
-137.45951516
 31
0.0
  0
LINE
  5
12E
100
AcDbEntity
  8
ZUWAKU
  6
CONTINUOUS
 62
      32
100
AcDbLine
 10
-46.58479797
 20
-135.49774026
 30
0.0
 11
-48.40515152
 21
-137.3180938
 31
0.0
  0
LINE
  5
12F
100
AcDbEntity
  8
ZUWAKU
  6
CONTINUOUS
 62
      32
100
AcDbLine
 10
-47.15907536
 20
-136.35486035
 30
0.0
 11
-48.13502697
 21
-137.33081197
 31
0.0
  0
LINE
  5
130
100
AcDbEntity
  8
ZUWAKU
  6
CONTINUOUS
 62
      32
100
AcDbLine
 10
-47.05222367
 20
-136.53085137
 30
0.0
 11
-48.02727737
 21
-137.50590507
 31
0.0
  0
LINE
  5
131
100
AcDbEntity
  8
ZUWAKU
  6
CONTINUOUS
 62
      32
100
AcDbLine
 10
-46.94537198
 20
-136.70684239
 30
0.0
 11
-47.91952776
 21
-137.68099818
 31
0.0
  0
LINE
  5
132
100
AcDbEntity
  8
ZUWAKU
  6
CONTINUOUS
 62
      32
100
AcDbLine
 10
-46.83852028
 20
-136.88283341
 30
0.0
 11
-47.81177816
 21
-137.85609129
 31
0.0
  0
LINE
  5
133
100
AcDbEntity
  8
ZUWAKU
  6
CONTINUOUS
 62
      32
100
AcDbLine
 10
-46.73166859
 20
-137.05882444
 30
0.0
 11
-47.70402855
 21
-138.0311844
 31
0.0
  0
LINE
  5
134
100
AcDbEntity
  8
ZUWAKU
  6
CONTINUOUS
 62
      32
100
AcDbLine
 10
-46.6248169
 20
-137.23481546
 30
0.0
 11
-47.44804474
 21
-138.05804329
 31
0.0
  0
LINE
  5
135
100
AcDbEntity
  8
ZUWAKU
  6
CONTINUOUS
 62
      32
100
AcDbLine
 10
-46.51796521
 20
-137.41080648
 30
0.0
 11
-47.16520203
 21
-138.05804329
 31
0.0
  0
LINE
  5
136
100
AcDbEntity
  8
ZUWAKU
  6
CONTINUOUS
 62
      32
100
AcDbLine
 10
-46.41111352
 20
-137.5867975
 30
0.0
 11
-46.88235931
 21
-138.05804329
 31
0.0
  0
LINE
  5
137
100
AcDbEntity
  8
ZUWAKU
  6
CONTINUOUS
 62
      32
100
AcDbLine
 10
-46.30426183
 20
-137.76278852
 30
0.0
 11
-46.5995166
 21
-138.05804329
 31
0.0
  0
LINE
  5
138
100
AcDbEntity
  8
ZUWAKU
  6
CONTINUOUS
 62
      32
100
AcDbLine
 10
-46.19741014
 20
-137.93877954
 30
0.0
 11
-46.31667389
 21
-138.05804329
 31
0.0
  0
LINE
  5
139
100
AcDbEntity
  8
ZUWAKU
  6
CONTINUOUS
 62
      32
100
AcDbLine
 10
-53.98125
 20
-133.12054329
 30
0.0
 11
-55.10625
 21
-134.24554329
 31
0.0
  0
LINE
  5
13A
100
AcDbEntity
  8
ZUWAKU
  6
CONTINUOUS
 62
      32
100
AcDbLine
 10
-54.26409271
 20
-133.12054329
 30
0.0
 11
-55.38909271
 21
-134.24554329
 31
0.0
  0
LINE
  5
13B
100
AcDbEntity
  8
ZUWAKU
  6
CONTINUOUS
 62
      32
100
AcDbLine
 10
-54.54693542
 20
-133.12054329
 30
0.0
 11
-55.67193542
 21
-134.24554329
 31
0.0
  0
LINE
  5
13C
100
AcDbEntity
  8
ZUWAKU
  6
CONTINUOUS
 62
      32
100
AcDbLine
 10
-54.82977814
 20
-133.12054329
 30
0.0
 11
-55.64014119
 21
-133.93090634
 31
0.0
  0
LINE
  5
13D
100
AcDbEntity
  8
ZUWAKU
  6
CONTINUOUS
 62
      32
100
AcDbLine
 10
-55.11262085
 20
-133.12054329
 30
0.0
 11
-55.46015037
 21
-133.46807281
 31
0.0
  0
LINE
  5
13E
100
AcDbEntity
  8
ZUWAKU
  6
CONTINUOUS
 62
      32
100
AcDbLine
 10
-53.69840729
 20
-133.12054329
 30
0.0
 11
-54.82340729
 21
-134.24554329
 31
0.0
  0
LINE
  5
13F
100
AcDbEntity
  8
ZUWAKU
  6
CONTINUOUS
 62
      32
100
AcDbLine
 10
-53.41556458
 20
-133.12054329
 30
0.0
 11
-54.54056458
 21
-134.24554329
 31
0.0
  0
LINE
  5
140
100
AcDbEntity
  8
ZUWAKU
  6
CONTINUOUS
 62
      32
100
AcDbLine
 10
-53.42113907
 20
-133.4089605
 30
0.0
 11
-54.25772186
 21
-134.24554329
 31
0.0
  0
LINE
  5
141
100
AcDbEntity
  8
ZUWAKU
  6
CONTINUOUS
 62
      32
100
AcDbLine
 10
-53.56256042
 20
-133.83322457
 30
0.0
 11
-53.97487915
 21
-134.24554329
 31
0.0
  0
LINE
  5
142
100
AcDbEntity
  8
ZUWAKU
  6
CONTINUOUS
 62
      32
100
AcDbLine
 10
-53.69203644
 20
-134.24554329
 30
0.0
 11
-53.70398178
 21
-134.25748864
 31
0.0
  0
LINE
  5
143
100
AcDbEntity
  8
ZUWAKU
  6
CONTINUOUS
 62
      32
100
AcDbLine
 10
-54.35625
 20
-136.49554329
 30
0.0
 11
-55.91875
 21
-138.05804329
 31
0.0
  0
LINE
  5
144
100
AcDbEntity
  8
ZUWAKU
  6
CONTINUOUS
 62
      32
100
AcDbLine
 10
-54.63909271
 20
-136.49554329
 30
0.0
 11
-56.20159271
 21
-138.05804329
 31
0.0
  0
LINE
  5
145
100
AcDbEntity
  8
ZUWAKU
  6
CONTINUOUS
 62
      32
100
AcDbLine
 10
-54.92193542
 20
-136.49554329
 30
0.0
 11
-56.48443542
 21
-138.05804329
 31
0.0
  0
LINE
  5
146
100
AcDbEntity
  8
ZUWAKU
  6
CONTINUOUS
 62
      32
100
AcDbLine
 10
-55.20477814
 20
-136.49554329
 30
0.0
 11
-56.76727814
 21
-138.05804329
 31
0.0
  0
LINE
  5
147
100
AcDbEntity
  8
ZUWAKU
  6
CONTINUOUS
 62
      32
100
AcDbLine
 10
-55.48762085
 20
-136.49554329
 30
0.0
 11
-57.05012085
 21
-138.05804329
 31
0.0
  0
LINE
  5
148
100
AcDbEntity
  8
ZUWAKU
  6
CONTINUOUS
 62
      32
100
AcDbLine
 10
-55.77046356
 20
-136.49554329
 30
0.0
 11
-57.02755175
 21
-137.75263148
 31
0.0
  0
LINE
  5
149
100
AcDbEntity
  8
ZUWAKU
  6
CONTINUOUS
 62
      32
100
AcDbLine
 10
-56.05330627
 20
-136.49554329
 30
0.0
 11
-56.86845272
 21
-137.31068974
 31
0.0
  0
LINE
  5
14A
100
AcDbEntity
  8
ZUWAKU
  6
CONTINUOUS
 62
      32
100
AcDbLine
 10
-56.33614899
 20
-136.49554329
 30
0.0
 11
-56.70935369
 21
-136.868748
 31
0.0
  0
LINE
  5
14B
100
AcDbEntity
  8
ZUWAKU
  6
CONTINUOUS
 62
      32
100
AcDbLine
 10
-54.07340729
 20
-136.49554329
 30
0.0
 11
-55.63590729
 21
-138.05804329
 31
0.0
  0
LINE
  5
14C
100
AcDbEntity
  8
ZUWAKU
  6
CONTINUOUS
 62
      32
100
AcDbLine
 10
-53.79056458
 20
-136.49554329
 30
0.0
 11
-55.35306458
 21
-138.05804329
 31
0.0
  0
LINE
  5
14D
100
AcDbEntity
  8
ZUWAKU
  6
CONTINUOUS
 62
      32
100
AcDbLine
 10
-51.07022186
 20
-134.05804329
 30
0.0
 11
-51.48423634
 21
-134.47205777
 31
0.0
  0
LINE
  5
14E
100
AcDbEntity
  8
ZUWAKU
  6
CONTINUOUS
 62
      32
100
AcDbLine
 10
-53.44044373
 20
-136.42826516
 30
0.0
 11
-55.07022186
 21
-138.05804329
 31
0.0
  0
LINE
  5
14F
100
AcDbEntity
  8
ZUWAKU
  6
CONTINUOUS
 62
      32
100
AcDbLine
 10
-50.78737915
 20
-134.05804329
 30
0.0
 11
-51.73782227
 21
-135.00848641
 31
0.0
  0
LINE
  5
150
100
AcDbEntity
  8
ZUWAKU
  6
CONTINUOUS
 62
      32
100
AcDbLine
 10
-52.8747583
 20
-136.14542244
 30
0.0
 11
-54.78737915
 21
-138.05804329
 31
0.0
  0
LINE
  5
151
100
AcDbEntity
  8
ZUWAKU
  6
CONTINUOUS
 62
      32
100
AcDbLine
 10
-50.74599143
 20
-134.29949828
 30
0.0
 11
-54.50453644
 21
-138.05804329
 31
0.0
  0
LINE
  5
152
100
AcDbEntity
  8
ZUWAKU
  6
CONTINUOUS
 62
      32
100
AcDbLine
 10
-50.81254265
 20
-134.64889222
 30
0.0
 11
-54.22169373
 21
-138.05804329
 31
0.0
  0
LINE
  5
153
100
AcDbEntity
  8
ZUWAKU
  6
CONTINUOUS
 62
      32
100
AcDbLine
 10
-50.87909388
 20
-134.99828616
 30
0.0
 11
-53.93885101
 21
-138.05804329
 31
0.0
  0
LINE
  5
154
100
AcDbEntity
  8
ZUWAKU
  6
CONTINUOUS
 62
      32
100
AcDbLine
 10
-50.94564511
 20
-135.3476801
 30
0.0
 11
-53.52081494
 21
-137.92284993
 31
0.0
  0
LINE
  5
155
100
AcDbEntity
  8
ZUWAKU
  6
CONTINUOUS
 62
      32
100
AcDbLine
 10
-51.34650162
 20
-136.03137932
 30
0.0
 11
-53.01169806
 21
-137.69657576
 31
0.0
  0
LINE
  5
156
100
AcDbEntity
  8
ZUWAKU
  6
CONTINUOUS
 62
      32
100
AcDbLine
 10
-56.64375
 20
-133.12054329
 30
0.0
 11
-61.1359375
 21
-137.61273079
 31
0.0
  0
LINE
  5
157
100
AcDbEntity
  8
ZUWAKU
  6
CONTINUOUS
 62
      32
100
AcDbLine
 10
-56.92659271
 20
-133.12054329
 30
0.0
 11
-60.97094592
 21
-137.1648965
 31
0.0
  0
LINE
  5
158
100
AcDbEntity
  8
ZUWAKU
  6
CONTINUOUS
 62
      32
100
AcDbLine
 10
-57.20943542
 20
-133.12054329
 30
0.0
 11
-60.80595434
 21
-136.7170622
 31
0.0
  0
LINE
  5
159
100
AcDbEntity
  8
ZUWAKU
  6
CONTINUOUS
 62
      32
100
AcDbLine
 10
-57.49227814
 20
-133.12054329
 30
0.0
 11
-60.64096275
 21
-136.26922791
 31
0.0
  0
LINE
  5
15A
100
AcDbEntity
  8
ZUWAKU
  6
CONTINUOUS
 62
      32
100
AcDbLine
 10
-57.77512085
 20
-133.12054329
 30
0.0
 11
-60.47597117
 21
-135.82139361
 31
0.0
  0
LINE
  5
15B
100
AcDbEntity
  8
ZUWAKU
  6
CONTINUOUS
 62
      32
100
AcDbLine
 10
-58.05796356
 20
-133.12054329
 30
0.0
 11
-58.2579305
 21
-133.32051023
 31
0.0
  0
LINE
  5
15C
100
AcDbEntity
  8
ZUWAKU
  6
CONTINUOUS
 62
      32
100
AcDbLine
 10
-59.36081123
 20
-134.42339097
 30
0.0
 11
-60.62046356
 21
-135.68304329
 31
0.0
  0
LINE
  5
15D
100
AcDbEntity
  8
ZUWAKU
  6
CONTINUOUS
 62
      32
100
AcDbLine
 10
-59.85578598
 20
-134.635523
 30
0.0
 11
-60.90330627
 21
-135.68304329
 31
0.0
  0
LINE
  5
15E
100
AcDbEntity
  8
ZUWAKU
  6
CONTINUOUS
 62
      32
100
AcDbLine
 10
-60.25999474
 20
-134.75688904
 30
0.0
 11
-61.18614899
 21
-135.68304329
 31
0.0
  0
LINE
  5
15F
100
AcDbEntity
  8
ZUWAKU
  6
CONTINUOUS
 62
      32
100
AcDbLine
 10
-60.56640767
 20
-134.78045927
 30
0.0
 11
-61.4689917
 21
-135.68304329
 31
0.0
  0
LINE
  5
160
100
AcDbEntity
  8
ZUWAKU
  6
CONTINUOUS
 62
      32
100
AcDbLine
 10
-60.87282061
 20
-134.80402949
 30
0.0
 11
-61.75183441
 21
-135.68304329
 31
0.0
  0
LINE
  5
161
100
AcDbEntity
  8
ZUWAKU
  6
CONTINUOUS
 62
      32
100
AcDbLine
 10
-61.15967712
 20
-134.80804329
 30
0.0
 11
-62.03467712
 21
-135.68304329
 31
0.0
  0
LINE
  5
162
100
AcDbEntity
  8
ZUWAKU
  6
CONTINUOUS
 62
      32
100
AcDbLine
 10
-61.44251984
 20
-134.80804329
 30
0.0
 11
-62.31751984
 21
-135.68304329
 31
0.0
  0
LINE
  5
163
100
AcDbEntity
  8
ZUWAKU
  6
CONTINUOUS
 62
      32
100
AcDbLine
 10
-61.72536255
 20
-134.80804329
 30
0.0
 11
-62.32757636
 21
-135.41025711
 31
0.0
  0
LINE
  5
164
100
AcDbEntity
  8
ZUWAKU
  6
CONTINUOUS
 62
      32
100
AcDbLine
 10
-62.00820526
 20
-134.80804329
 30
0.0
 11
-62.17044152
 21
-134.97027955
 31
0.0
  0
LINE
  5
165
100
AcDbEntity
  8
ZUWAKU
  6
CONTINUOUS
 62
      32
100
AcDbLine
 10
-56.36090729
 20
-133.12054329
 30
0.0
 11
-61.30092908
 21
-138.06056509
 31
0.0
  0
LINE
  5
166
100
AcDbEntity
  8
ZUWAKU
  6
CONTINUOUS
 62
      32
100
AcDbLine
 10
-56.07806458
 20
-133.12054329
 30
0.0
 11
-58.25025994
 21
-135.29273866
 31
0.0
  0
LINE
  5
167
100
AcDbEntity
  8
ZUWAKU
  6
CONTINUOUS
 62
      32
100
AcDbLine
 10
-58.31781143
 20
-135.36029015
 30
0.0
 11
-61.01556458
 21
-138.05804329
 31
0.0
  0
LINE
  5
168
100
AcDbEntity
  8
ZUWAKU
  6
CONTINUOUS
 62
      32
100
AcDbLine
 10
-55.79522186
 20
-133.12054329
 30
0.0
 11
-57.84170936
 21
-135.16703079
 31
0.0
  0
LINE
  5
169
100
AcDbEntity
  8
ZUWAKU
  6
CONTINUOUS
 62
      32
100
AcDbLine
 10
-58.46410938
 20
-135.78943081
 30
0.0
 11
-60.73272186
 21
-138.05804329
 31
0.0
  0
LINE
  5
16A
100
AcDbEntity
  8
ZUWAKU
  6
CONTINUOUS
 62
      32
100
AcDbLine
 10
-56.04653216
 20
-133.6546963
 30
0.0
 11
-57.34955688
 21
-134.95772103
 31
0.0
  0
LINE
  5
16B
100
AcDbEntity
  8
ZUWAKU
  6
CONTINUOUS
 62
      32
100
AcDbLine
 10
-58.61040734
 20
-136.21857148
 30
0.0
 11
-60.44987915
 21
-138.05804329
 31
0.0
  0
LINE
  5
16C
100
AcDbEntity
  8
ZUWAKU
  6
CONTINUOUS
 62
      32
100
AcDbLine
 10
-58.75670529
 20
-136.64771215
 30
0.0
 11
-60.16703644
 21
-138.05804329
 31
0.0
  0
LINE
  5
16D
100
AcDbEntity
  8
ZUWAKU
  6
CONTINUOUS
 62
      32
100
AcDbLine
 10
-58.90300325
 20
-137.07685281
 30
0.0
 11
-59.88419373
 21
-138.05804329
 31
0.0
  0
LINE
  5
16E
100
AcDbEntity
  8
ZUWAKU
  6
CONTINUOUS
 62
      32
100
AcDbLine
 10
-59.0493012
 20
-137.50599348
 30
0.0
 11
-59.60135101
 21
-138.05804329
 31
0.0
  0
LINE
  5
16F
100
AcDbEntity
  8
ZUWAKU
  6
CONTINUOUS
 62
      32
100
AcDbLine
 10
-59.19559916
 20
-137.93513415
 30
0.0
 11
-59.3185083
 21
-138.05804329
 31
0.0
  0
LINE
  5
170
100
AcDbEntity
  8
ZUWAKU
  6
CONTINUOUS
 62
      32
100
AcDbLine
 10
-64.06875
 20
-133.12054329
 30
0.0
 11
-65.19375
 21
-134.24554329
 31
0.0
  0
LINE
  5
171
100
AcDbEntity
  8
ZUWAKU
  6
CONTINUOUS
 62
      32
100
AcDbLine
 10
-64.35159271
 20
-133.12054329
 30
0.0
 11
-65.47659271
 21
-134.24554329
 31
0.0
  0
LINE
  5
172
100
AcDbEntity
  8
ZUWAKU
  6
CONTINUOUS
 62
      32
100
AcDbLine
 10
-64.63443542
 20
-133.12054329
 30
0.0
 11
-65.75943542
 21
-134.24554329
 31
0.0
  0
LINE
  5
173
100
AcDbEntity
  8
ZUWAKU
  6
CONTINUOUS
 62
      32
100
AcDbLine
 10
-64.91727814
 20
-133.12054329
 30
0.0
 11
-66.04227814
 21
-134.24554329
 31
0.0
  0
LINE
  5
174
100
AcDbEntity
  8
ZUWAKU
  6
CONTINUOUS
 62
      32
100
AcDbLine
 10
-65.20012085
 20
-133.12054329
 30
0.0
 11
-66.32512085
 21
-134.24554329
 31
0.0
  0
LINE
  5
175
100
AcDbEntity
  8
ZUWAKU
  6
CONTINUOUS
 62
      32
100
AcDbLine
 10
-65.48296356
 20
-133.12054329
 30
0.0
 11
-66.60796356
 21
-134.24554329
 31
0.0
  0
LINE
  5
176
100
AcDbEntity
  8
ZUWAKU
  6
CONTINUOUS
 62
      32
100
AcDbLine
 10
-65.76580627
 20
-133.12054329
 30
0.0
 11
-66.89080627
 21
-134.24554329
 31
0.0
  0
LINE
  5
177
100
AcDbEntity
  8
ZUWAKU
  6
CONTINUOUS
 62
      32
100
AcDbLine
 10
-66.04864899
 20
-133.12054329
 30
0.0
 11
-67.06317551
 21
-134.13506981
 31
0.0
  0
LINE
  5
178
100
AcDbEntity
  8
ZUWAKU
  6
CONTINUOUS
 62
      32
100
AcDbLine
 10
-66.3314917
 20
-133.12054329
 30
0.0
 11
-66.92175415
 21
-133.71080574
 31
0.0
  0
LINE
  5
179
100
AcDbEntity
  8
ZUWAKU
  6
CONTINUOUS
 62
      32
100
AcDbLine
 10
-66.61433441
 20
-133.12054329
 30
0.0
 11
-66.78033279
 21
-133.28654168
 31
0.0
  0
LINE
  5
17A
100
AcDbEntity
  8
ZUWAKU
  6
CONTINUOUS
 62
      32
100
AcDbLine
 10
-63.78590729
 20
-133.12054329
 30
0.0
 11
-64.91090729
 21
-134.24554329
 31
0.0
  0
LINE
  5
17B
100
AcDbEntity
  8
ZUWAKU
  6
CONTINUOUS
 62
      32
100
AcDbLine
 10
-63.50306458
 20
-133.12054329
 30
0.0
 11
-64.62806458
 21
-134.24554329
 31
0.0
  0
LINE
  5
17C
100
AcDbEntity
  8
ZUWAKU
  6
CONTINUOUS
 62
      32
100
AcDbLine
 10
-63.22022186
 20
-133.12054329
 30
0.0
 11
-64.34522186
 21
-134.24554329
 31
0.0
  0
LINE
  5
17D
100
AcDbEntity
  8
ZUWAKU
  6
CONTINUOUS
 62
      32
100
AcDbLine
 10
-62.93737915
 20
-133.12054329
 30
0.0
 11
-64.06237915
 21
-134.24554329
 31
0.0
  0
LINE
  5
17E
100
AcDbEntity
  8
ZUWAKU
  6
CONTINUOUS
 62
      32
100
AcDbLine
 10
-62.65453644
 20
-133.12054329
 30
0.0
 11
-63.77953644
 21
-134.24554329
 31
0.0
  0
LINE
  5
17F
100
AcDbEntity
  8
ZUWAKU
  6
CONTINUOUS
 62
      32
100
AcDbLine
 10
-62.37169373
 20
-133.12054329
 30
0.0
 11
-63.49669373
 21
-134.24554329
 31
0.0
  0
LINE
  5
180
100
AcDbEntity
  8
ZUWAKU
  6
CONTINUOUS
 62
      32
100
AcDbLine
 10
-62.19932449
 20
-133.23101677
 30
0.0
 11
-63.21385101
 21
-134.24554329
 31
0.0
  0
LINE
  5
181
100
AcDbEntity
  8
ZUWAKU
  6
CONTINUOUS
 62
      32
100
AcDbLine
 10
-62.34074585
 20
-133.65528084
 30
0.0
 11
-62.9310083
 21
-134.24554329
 31
0.0
  0
LINE
  5
182
100
AcDbEntity
  8
ZUWAKU
  6
CONTINUOUS
 62
      32
100
AcDbLine
 10
-62.48216721
 20
-134.07954491
 30
0.0
 11
-62.64816559
 21
-134.24554329
 31
0.0
  0
LINE
  5
183
100
AcDbEntity
  8
ZUWAKU
  6
CONTINUOUS
 62
      32
100
AcDbLine
 10
-63.975
 20
-134.80804329
 30
0.0
 11
-64.85
 21
-135.68304329
 31
0.0
  0
LINE
  5
184
100
AcDbEntity
  8
ZUWAKU
  6
CONTINUOUS
 62
      32
100
AcDbLine
 10
-66.2875
 20
-137.12054329
 30
0.0
 11
-67.225
 21
-138.05804329
 31
0.0
  0
LINE
  5
185
100
AcDbEntity
  8
ZUWAKU
  6
CONTINUOUS
 62
      32
100
AcDbLine
 10
-64.25784271
 20
-134.80804329
 30
0.0
 11
-65.13284271
 21
-135.68304329
 31
0.0
  0
LINE
  5
186
100
AcDbEntity
  8
ZUWAKU
  6
CONTINUOUS
 62
      32
100
AcDbLine
 10
-66.57034271
 20
-137.12054329
 30
0.0
 11
-67.50784271
 21
-138.05804329
 31
0.0
  0
LINE
  5
187
100
AcDbEntity
  8
ZUWAKU
  6
CONTINUOUS
 62
      32
100
AcDbLine
 10
-64.54068542
 20
-134.80804329
 30
0.0
 11
-65.41568542
 21
-135.68304329
 31
0.0
  0
LINE
  5
188
100
AcDbEntity
  8
ZUWAKU
  6
CONTINUOUS
 62
      32
100
AcDbLine
 10
-66.85318542
 20
-137.12054329
 30
0.0
 11
-67.79068542
 21
-138.05804329
 31
0.0
  0
LINE
  5
189
100
AcDbEntity
  8
ZUWAKU
  6
CONTINUOUS
 62
      32
100
AcDbLine
 10
-64.82352814
 20
-134.80804329
 30
0.0
 11
-65.69852814
 21
-135.68304329
 31
0.0
  0
LINE
  5
18A
100
AcDbEntity
  8
ZUWAKU
  6
CONTINUOUS
 62
      32
100
AcDbLine
 10
-67.13602814
 20
-137.12054329
 30
0.0
 11
-68.07352814
 21
-138.05804329
 31
0.0
  0
LINE
  5
18B
100
AcDbEntity
  8
ZUWAKU
  6
CONTINUOUS
 62
      32
100
AcDbLine
 10
-65.10637085
 20
-134.80804329
 30
0.0
 11
-65.98137085
 21
-135.68304329
 31
0.0
  0
LINE
  5
18C
100
AcDbEntity
  8
ZUWAKU
  6
CONTINUOUS
 62
      32
100
AcDbLine
 10
-67.41887085
 20
-137.12054329
 30
0.0
 11
-68.35637085
 21
-138.05804329
 31
0.0
  0
LINE
  5
18D
100
AcDbEntity
  8
ZUWAKU
  6
CONTINUOUS
 62
      32
100
AcDbLine
 10
-65.38921356
 20
-134.80804329
 30
0.0
 11
-66.26421356
 21
-135.68304329
 31
0.0
  0
LINE
  5
18E
100
AcDbEntity
  8
ZUWAKU
  6
CONTINUOUS
 62
      32
100
AcDbLine
 10
-67.70171356
 20
-137.12054329
 30
0.0
 11
-68.36552429
 21
-137.78435402
 31
0.0
  0
LINE
  5
18F
100
AcDbEntity
  8
ZUWAKU
  6
CONTINUOUS
 62
      32
100
AcDbLine
 10
-65.67205627
 20
-134.80804329
 30
0.0
 11
-66.54705627
 21
-135.68304329
 31
0.0
  0
LINE
  5
190
100
AcDbEntity
  8
ZUWAKU
  6
CONTINUOUS
 62
      32
100
AcDbLine
 10
-67.98455627
 20
-137.12054329
 30
0.0
 11
-68.17696248
 21
-137.3129495
 31
0.0
  0
LINE
  5
191
100
AcDbEntity
  8
ZUWAKU
  6
CONTINUOUS
 62
      32
100
AcDbLine
 10
-65.95489899
 20
-134.80804329
 30
0.0
 11
-66.82989899
 21
-135.68304329
 31
0.0
  0
LINE
  5
192
100
AcDbEntity
  8
ZUWAKU
  6
CONTINUOUS
 62
      32
100
AcDbLine
 10
-66.2377417
 20
-134.80804329
 30
0.0
 11
-67.1127417
 21
-135.68304329
 31
0.0
  0
LINE
  5
193
100
AcDbEntity
  8
ZUWAKU
  6
CONTINUOUS
 62
      32
100
AcDbLine
 10
-66.52058441
 20
-134.80804329
 30
0.0
 11
-67.39558441
 21
-135.68304329
 31
0.0
  0
LINE
  5
194
100
AcDbEntity
  8
ZUWAKU
  6
CONTINUOUS
 62
      32
100
AcDbLine
 10
-66.80342712
 20
-134.80804329
 30
0.0
 11
-67.39362915
 21
-135.39824532
 31
0.0
  0
LINE
  5
195
100
AcDbEntity
  8
ZUWAKU
  6
CONTINUOUS
 62
      32
100
AcDbLine
 10
-67.08626984
 20
-134.80804329
 30
0.0
 11
-67.28049207
 21
-135.00226552
 31
0.0
  0
LINE
  5
196
100
AcDbEntity
  8
ZUWAKU
  6
CONTINUOUS
 62
      32
100
AcDbLine
 10
-63.69215729
 20
-134.80804329
 30
0.0
 11
-64.96313708
 21
-136.07902309
 31
0.0
  0
LINE
  5
197
100
AcDbEntity
  8
ZUWAKU
  6
CONTINUOUS
 62
      32
100
AcDbLine
 10
-65.92255051
 20
-137.03843651
 30
0.0
 11
-66.94215729
 21
-138.05804329
 31
0.0
  0
LINE
  5
198
100
AcDbEntity
  8
ZUWAKU
  6
CONTINUOUS
 62
      32
100
AcDbLine
 10
-63.40931458
 20
-134.80804329
 30
0.0
 11
-66.65931458
 21
-138.05804329
 31
0.0
  0
LINE
  5
199
100
AcDbEntity
  8
ZUWAKU
  6
CONTINUOUS
 62
      32
100
AcDbLine
 10
-63.12647186
 20
-134.80804329
 30
0.0
 11
-66.37647186
 21
-138.05804329
 31
0.0
  0
LINE
  5
19A
100
AcDbEntity
  8
ZUWAKU
  6
CONTINUOUS
 62
      32
100
AcDbLine
 10
-62.84362915
 20
-134.80804329
 30
0.0
 11
-66.09362915
 21
-138.05804329
 31
0.0
  0
LINE
  5
19B
100
AcDbEntity
  8
ZUWAKU
  6
CONTINUOUS
 62
      32
100
AcDbLine
 10
-62.81883632
 20
-135.06609318
 30
0.0
 11
-65.81078644
 21
-138.05804329
 31
0.0
  0
LINE
  5
19C
100
AcDbEntity
  8
ZUWAKU
  6
CONTINUOUS
 62
      32
100
AcDbLine
 10
-62.98046073
 20
-135.5105603
 30
0.0
 11
-65.52794373
 21
-138.05804329
 31
0.0
  0
LINE
  5
19D
100
AcDbEntity
  8
ZUWAKU
  6
CONTINUOUS
 62
      32
100
AcDbLine
 10
-63.14208514
 20
-135.95502742
 30
0.0
 11
-65.23096802
 21
-138.0439103
 31
0.0
  0
LINE
  5
19E
100
AcDbEntity
  8
ZUWAKU
  6
CONTINUOUS
 62
      32
100
AcDbLine
 10
-63.30370954
 20
-136.39949454
 30
0.0
 11
-64.8538444
 21
-137.94962939
 31
0.0
  0
LINE
  5
19F
100
AcDbEntity
  8
ZUWAKU
  6
CONTINUOUS
 62
      32
100
AcDbLine
 10
-63.46533395
 20
-136.84396166
 30
0.0
 11
-64.32133118
 21
-137.69995888
 31
0.0
  0
LINE
  5
1A0
100
AcDbEntity
  8
ZUWAKU
  6
CONTINUOUS
 62
      32
100
AcDbLine
 10
-67.4875
 20
-133.12054329
 30
0.0
 11
-70.07734375
 21
-135.71038704
 31
0.0
  0
LINE
  5
1A1
100
AcDbEntity
  8
ZUWAKU
  6
CONTINUOUS
 62
      32
100
AcDbLine
 10
-71.46964286
 20
-137.10268615
 30
0.0
 11
-72.425
 21
-138.05804329
 31
0.0
  0
LINE
  5
1A2
100
AcDbEntity
  8
ZUWAKU
  6
CONTINUOUS
 62
      32
100
AcDbLine
 10
-67.77034271
 20
-133.12054329
 30
0.0
 11
-69.90940589
 21
-135.25960647
 31
0.0
  0
LINE
  5
1A3
100
AcDbEntity
  8
ZUWAKU
  6
CONTINUOUS
 62
      32
100
AcDbLine
 10
-71.77034271
 20
-137.12054329
 30
0.0
 11
-72.37732864
 21
-137.72752923
 31
0.0
  0
LINE
  5
1A4
100
AcDbEntity
  8
ZUWAKU
  6
CONTINUOUS
 62
      32
100
AcDbLine
 10
-68.05318542
 20
-133.12054329
 30
0.0
 11
-69.74146803
 21
-134.8088259
 31
0.0
  0
LINE
  5
1A5
100
AcDbEntity
  8
ZUWAKU
  6
CONTINUOUS
 62
      32
100
AcDbLine
 10
-72.05318542
 20
-137.12054329
 30
0.0
 11
-72.23590729
 21
-137.30326516
 31
0.0
  0
LINE
  5
1A6
100
AcDbEntity
  8
ZUWAKU
  6
CONTINUOUS
 62
      32
100
AcDbLine
 10
-68.33602814
 20
-133.12054329
 30
0.0
 11
-69.57353017
 21
-134.35804532
 31
0.0
  0
LINE
  5
1A7
100
AcDbEntity
  8
ZUWAKU
  6
CONTINUOUS
 62
      32
100
AcDbLine
 10
-68.61887085
 20
-133.12054329
 30
0.0
 11
-69.40559231
 21
-133.90726475
 31
0.0
  0
LINE
  5
1A8
100
AcDbEntity
  8
ZUWAKU
  6
CONTINUOUS
 62
      32
100
AcDbLine
 10
-68.90171356
 20
-133.12054329
 30
0.0
 11
-69.23765445
 21
-133.45648418
 31
0.0
  0
LINE
  5
1A9
100
AcDbEntity
  8
ZUWAKU
  6
CONTINUOUS
 62
      32
100
AcDbLine
 10
-67.53799626
 20
-133.45388227
 30
0.0
 11
-70.24528161
 21
-136.16116762
 31
0.0
  0
LINE
  5
1AA
100
AcDbEntity
  8
ZUWAKU
  6
CONTINUOUS
 62
      32
100
AcDbLine
 10
-71.14639404
 20
-137.06228005
 30
0.0
 11
-72.14215729
 21
-138.05804329
 31
0.0
  0
LINE
  5
1AB
100
AcDbEntity
  8
ZUWAKU
  6
CONTINUOUS
 62
      32
100
AcDbLine
 10
-67.68304381
 20
-133.88177253
 30
0.0
 11
-70.60612915
 21
-136.80485787
 31
0.0
  0
LINE
  5
1AC
100
AcDbEntity
  8
ZUWAKU
  6
CONTINUOUS
 62
      32
100
AcDbLine
 10
-70.61780904
 20
-136.81653776
 30
0.0
 11
-71.85931458
 21
-138.05804329
 31
0.0
  0
LINE
  5
1AD
100
AcDbEntity
  8
ZUWAKU
  6
CONTINUOUS
 62
      32
100
AcDbLine
 10
-67.82809135
 20
-134.30966278
 30
0.0
 11
-71.57647186
 21
-138.05804329
 31
0.0
  0
LINE
  5
1AE
100
AcDbEntity
  8
ZUWAKU
  6
CONTINUOUS
 62
      32
100
AcDbLine
 10
-67.9731389
 20
-134.73755304
 30
0.0
 11
-71.29362915
 21
-138.05804329
 31
0.0
  0
LINE
  5
1AF
100
AcDbEntity
  8
ZUWAKU
  6
CONTINUOUS
 62
      32
100
AcDbLine
 10
-68.11818644
 20
-135.1654433
 30
0.0
 11
-71.01078644
 21
-138.05804329
 31
0.0
  0
LINE
  5
1B0
100
AcDbEntity
  8
ZUWAKU
  6
CONTINUOUS
 62
      32
100
AcDbLine
 10
-68.26323399
 20
-135.59333356
 30
0.0
 11
-70.70604858
 21
-138.03614815
 31
0.0
  0
LINE
  5
1B1
100
AcDbEntity
  8
ZUWAKU
  6
CONTINUOUS
 62
      32
100
AcDbLine
 10
-68.40828153
 20
-136.02122381
 30
0.0
 11
-70.3917789
 21
-138.00472118
 31
0.0
  0
LINE
  5
1B2
100
AcDbEntity
  8
ZUWAKU
  6
CONTINUOUS
 62
      32
100
AcDbLine
 10
-68.55332908
 20
-136.44911407
 30
0.0
 11
-69.96626383
 21
-137.86204883
 31
0.0
  0
LINE
  5
1B3
100
AcDbEntity
  8
ZUWAKU
  6
CONTINUOUS
 62
      32
100
AcDbLine
 10
-70.49375
 20
-133.47054329
 30
0.0
 11
-72.80504032
 21
-135.78183362
 31
0.0
  0
LINE
  5
1B4
100
AcDbEntity
  8
ZUWAKU
  6
CONTINUOUS
 62
      32
100
AcDbLine
 10
-70.42659271
 20
-133.12054329
 30
0.0
 11
-72.64993303
 21
-135.34388361
 31
0.0
  0
LINE
  5
1B5
100
AcDbEntity
  8
ZUWAKU
  6
CONTINUOUS
 62
      32
100
AcDbLine
 10
-70.70943542
 20
-133.12054329
 30
0.0
 11
-72.49482573
 21
-134.9059336
 31
0.0
  0
LINE
  5
1B6
100
AcDbEntity
  8
ZUWAKU
  6
CONTINUOUS
 62
      32
100
AcDbLine
 10
-70.99227814
 20
-133.12054329
 30
0.0
 11
-72.33971844
 21
-134.4679836
 31
0.0
  0
LINE
  5
1B7
100
AcDbEntity
  8
ZUWAKU
  6
CONTINUOUS
 62
      32
100
AcDbLine
 10
-71.27512085
 20
-133.12054329
 30
0.0
 11
-72.18461115
 21
-134.03003359
 31
0.0
  0
LINE
  5
1B8
100
AcDbEntity
  8
ZUWAKU
  6
CONTINUOUS
 62
      32
100
AcDbLine
 10
-71.55796356
 20
-133.12054329
 30
0.0
 11
-72.02950385
 21
-133.59208358
 31
0.0
  0
LINE
  5
1B9
100
AcDbEntity
  8
ZUWAKU
  6
CONTINUOUS
 62
      32
100
AcDbLine
 10
-71.84080627
 20
-133.12054329
 30
0.0
 11
-71.87439656
 21
-133.15413358
 31
0.0
  0
LINE
  5
1BA
100
AcDbEntity
  8
ZUWAKU
  6
CONTINUOUS
 62
      32
100
AcDbLine
 10
-70.66345563
 20
-133.92309163
 30
0.0
 11
-72.86090729
 21
-136.12054329
 31
0.0
  0
LINE
  5
1BB
100
AcDbEntity
  8
ZUWAKU
  6
CONTINUOUS
 62
      32
100
AcDbLine
 10
-70.83316125
 20
-134.37563997
 30
0.0
 11
-72.57806458
 21
-136.12054329
 31
0.0
  0
LINE
  5
1BC
100
AcDbEntity
  8
ZUWAKU
  6
CONTINUOUS
 62
      32
100
AcDbLine
 10
-71.00286688
 20
-134.82818831
 30
0.0
 11
-72.29522186
 21
-136.12054329
 31
0.0
  0
LINE
  5
1BD
100
AcDbEntity
  8
ZUWAKU
  6
CONTINUOUS
 62
      32
100
AcDbLine
 10
-71.17257251
 20
-135.28073665
 30
0.0
 11
-72.01237915
 21
-136.12054329
 31
0.0
  0
LINE
  5
1BE
100
AcDbEntity
  8
ZUWAKU
  6
CONTINUOUS
 62
      32
100
AcDbLine
 10
-71.34227814
 20
-135.73328499
 30
0.0
 11
-71.72953644
 21
-136.12054329
 31
0.0
  0
LINE
  5
1BF
100
AcDbEntity
  8
ZUWAKU
  6
CONTINUOUS
 62
      32
100
AcDbLine
 10
-81.25
 20
139.69195671
 30
0.0
 11
-82.09754348
 21
141.19145671
 31
0.0
  0
LINE
  5
1C0
100
AcDbEntity
  8
ZUWAKU
  6
CONTINUOUS
 62
      32
100
AcDbLine
 10
-85.47555583
 20
142.50445671
 30
0.0
 11
-85.37138916
 21
142.81695671
 31
0.0
  0
LINE
  5
1C1
100
AcDbEntity
  8
ZUWAKU
  6
CONTINUOUS
 62
      32
100
AcDbLine
 10
-77.51029769
 20
140.06180786
 30
0.0
 11
-77.624
 21
140.00495671
 31
0.0
  0
LINE
  5
1C2
100
AcDbEntity
  8
ZUWAKU
  6
CONTINUOUS
 62
      32
100
AcDbLine
 10
-77.4375
 20
139.69195671
 30
0.0
 11
-76.9125
 21
140.21695671
 31
0.0
  0
LINE
  5
1C3
100
AcDbEntity
  8
ZUWAKU
  6
CONTINUOUS
 62
      32
100
AcDbLine
 10
-77.0
 20
139.69195671
 30
0.0
 11
-76.9125
 21
140.21695671
 31
0.0
  0
LINE
  5
1C4
100
AcDbEntity
  8
ZUWAKU
  6
CONTINUOUS
 62
      32
100
AcDbLine
 10
-74.6875
 20
140.12945671
 30
0.0
 11
-74.6875
 21
140.00495671
 31
0.0
  0
LINE
  5
1C5
100
AcDbEntity
  8
ZUWAKU
  6
CONTINUOUS
 62
      32
100
AcDbLine
 10
-71.92247945
 20
139.69195671
 30
0.0
 11
-73.0625
 21
139.69195671
 31
0.0
  0
LINE
  5
1C6
100
AcDbEntity
  8
ZUWAKU
  6
CONTINUOUS
 62
      32
100
AcDbLine
 10
-73.67846752
 20
140.13736012
 30
0.0
 11
-74.1875
 21
139.69195671
 31
0.0
  0
LINE
  5
1C7
100
AcDbEntity
  8
ZUWAKU
  6
CONTINUOUS
 62
      32
100
AcDbLine
 10
-70.066752
 20
139.69195671
 30
0.0
 11
-71.375
 21
139.69195671
 31
0.0
  0
LINE
  5
1C8
100
AcDbEntity
  8
ZUWAKU
  6
CONTINUOUS
 62
      32
100
AcDbLine
 10
-83.101375
 20
140.00495671
 30
0.0
 11
-82.1640625
 21
142.50445671
 31
0.0
  0
LINE
  5
1C9
100
AcDbEntity
  8
ZUWAKU
  6
CONTINUOUS
 62
      32
100
AcDbLine
 10
-82.20477835
 20
141.50445671
 30
0.0
 11
-80.74182215
 21
141.50445671
 31
0.0
  0
LINE
  5
1CA
100
AcDbEntity
  8
ZUWAKU
  6
CONTINUOUS
 62
      32
100
AcDbLine
 10
-72.78977273
 20
140.44195671
 30
0.0
 11
-73.0
 21
140.44195671
 31
0.0
  0
LINE
  5
1CB
100
AcDbEntity
  8
ZUWAKU
  6
CONTINUOUS
 62
      32
100
AcDbLine
 10
-73.0
 20
140.44195671
 30
0.0
 11
-73.20661411
 21
140.44195671
 31
0.0
  0
LINE
  5
1CC
100
AcDbEntity
  8
ZUWAKU
  6
CONTINUOUS
 62
      32
100
AcDbLine
 10
-75.0347448
 20
139.69195671
 30
0.0
 11
-74.1875
 21
139.69195671
 31
0.0
  0
CIRCLE
  5
1CD
100
AcDbEntity
  8
ZUWAKU
  6
CONTINUOUS
 62
      32
100
AcDbCircle
 10
-76.40807524
 20
141.44195671
 30
0.0
 40
0.18932524
  0
LINE
  5
1CE
100
AcDbEntity
  8
ZUWAKU
  6
CONTINUOUS
 62
      32
100
AcDbLine
 10
-82.8671875
 20
142.50445671
 30
0.0
 11
-82.1640625
 21
142.50445671
 31
0.0
  0
LINE
  5
1CF
100
AcDbEntity
  8
ZUWAKU
  6
CONTINUOUS
 62
      32
100
AcDbLine
 10
-81.82977835
 20
142.50445671
 30
0.0
 11
-80.74182215
 21
142.50445671
 31
0.0
  0
LINE
  5
1D0
100
AcDbEntity
  8
ZUWAKU
  6
CONTINUOUS
 62
      32
100
AcDbLine
 10
-83.9375
 20
139.69195671
 30
0.0
 11
-83.820125
 21
140.00495671
 31
0.0
  0
LINE
  5
1D1
100
AcDbEntity
  8
ZUWAKU
  6
CONTINUOUS
 62
      32
100
AcDbLine
 10
-82.8671875
 20
142.50445671
 30
0.0
 11
-82.75
 21
142.81695671
 31
0.0
  0
LINE
  5
1D2
100
AcDbEntity
  8
ZUWAKU
  6
CONTINUOUS
 62
      32
100
AcDbLine
 10
-83.02358847
 20
142.50445671
 30
0.0
 11
-82.90640097
 21
142.81695671
 31
0.0
  0
LINE
  5
1D3
100
AcDbEntity
  8
ZUWAKU
  6
CONTINUOUS
 62
      32
100
AcDbLine
 10
-80.74182215
 20
142.81695671
 30
0.0
 11
-82.75
 21
142.81695671
 31
0.0
  0
LINE
  5
1D4
100
AcDbEntity
  8
ZUWAKU
  6
CONTINUOUS
 62
      32
100
AcDbLine
 10
-82.90640097
 20
142.81695671
 30
0.0
 11
-83.20331035
 21
142.81695671
 31
0.0
  0
LINE
  5
1D5
100
AcDbEntity
  8
ZUWAKU
  6
CONTINUOUS
 62
      32
100
AcDbLine
 10
-83.32049785
 20
142.50445671
 30
0.0
 11
-83.02358847
 21
142.50445671
 31
0.0
  0
LINE
  5
1D6
100
AcDbEntity
  8
ZUWAKU
  6
CONTINUOUS
 62
      32
100
AcDbLine
 10
-83.43435029
 20
142.50445671
 30
0.0
 11
-83.31716279
 21
142.81695671
 31
0.0
  0
LINE
  5
1D7
100
AcDbEntity
  8
ZUWAKU
  6
CONTINUOUS
 62
      32
100
AcDbLine
 10
-83.31716279
 20
142.81695671
 30
0.0
 11
-83.56604235
 21
142.81695671
 31
0.0
  0
LINE
  5
1D8
100
AcDbEntity
  8
ZUWAKU
  6
CONTINUOUS
 62
      32
100
AcDbLine
 10
-83.68322985
 20
142.50445671
 30
0.0
 11
-83.43435029
 21
142.50445671
 31
0.0
  0
LINE
  5
1D9
100
AcDbEntity
  8
ZUWAKU
  6
CONTINUOUS
 62
      32
100
AcDbLine
 10
-83.68322985
 20
142.50445671
 30
0.0
 11
-83.56604235
 21
142.81695671
 31
0.0
  0
LINE
  5
1DA
100
AcDbEntity
  8
ZUWAKU
  6
CONTINUOUS
 62
      32
100
AcDbLine
 10
-83.77852918
 20
142.81695671
 30
0.0
 11
-84.0224123
 21
142.81695671
 31
0.0
  0
LINE
  5
1DB
100
AcDbEntity
  8
ZUWAKU
  6
CONTINUOUS
 62
      32
100
AcDbLine
 10
-84.1395998
 20
142.50445671
 30
0.0
 11
-83.89571668
 21
142.50445671
 31
0.0
  0
LINE
  5
1DC
100
AcDbEntity
  8
ZUWAKU
  6
CONTINUOUS
 62
      32
100
AcDbLine
 10
-84.1395998
 20
142.50445671
 30
0.0
 11
-84.0224123
 21
142.81695671
 31
0.0
  0
LINE
  5
1DD
100
AcDbEntity
  8
ZUWAKU
  6
CONTINUOUS
 62
      32
100
AcDbLine
 10
-83.32049785
 20
142.50445671
 30
0.0
 11
-83.20331035
 21
142.81695671
 31
0.0
  0
LINE
  5
1DE
100
AcDbEntity
  8
ZUWAKU
  6
CONTINUOUS
 62
      32
100
AcDbLine
 10
-83.89571668
 20
142.50445671
 30
0.0
 11
-83.77852918
 21
142.81695671
 31
0.0
  0
LINE
  5
1DF
100
AcDbEntity
  8
ZUWAKU
  6
CONTINUOUS
 62
      32
100
AcDbLine
 10
-84.32226452
 20
142.50445671
 30
0.0
 11
-84.20507702
 21
142.81695671
 31
0.0
  0
LINE
  5
1E0
100
AcDbEntity
  8
ZUWAKU
  6
CONTINUOUS
 62
      32
100
AcDbLine
 10
-84.20507702
 20
142.81695671
 30
0.0
 11
-84.43057065
 21
142.81695671
 31
0.0
  0
LINE
  5
1E1
100
AcDbEntity
  8
ZUWAKU
  6
CONTINUOUS
 62
      32
100
AcDbLine
 10
-84.54775815
 20
142.50445671
 30
0.0
 11
-84.32226452
 21
142.50445671
 31
0.0
  0
LINE
  5
1E2
100
AcDbEntity
  8
ZUWAKU
  6
CONTINUOUS
 62
      32
100
AcDbLine
 10
-84.54775815
 20
142.50445671
 30
0.0
 11
-84.43057065
 21
142.81695671
 31
0.0
  0
LINE
  5
1E3
100
AcDbEntity
  8
ZUWAKU
  6
CONTINUOUS
 62
      32
100
AcDbLine
 10
-84.73864253
 20
142.50445671
 30
0.0
 11
-84.62145503
 21
142.81695671
 31
0.0
  0
LINE
  5
1E4
100
AcDbEntity
  8
ZUWAKU
  6
CONTINUOUS
 62
      32
100
AcDbLine
 10
-84.62145503
 20
142.81695671
 30
0.0
 11
-84.82197587
 21
142.81695671
 31
0.0
  0
LINE
  5
1E5
100
AcDbEntity
  8
ZUWAKU
  6
CONTINUOUS
 62
      32
100
AcDbLine
 10
-84.92614253
 20
142.50445671
 30
0.0
 11
-84.73864253
 21
142.50445671
 31
0.0
  0
LINE
  5
1E6
100
AcDbEntity
  8
ZUWAKU
  6
CONTINUOUS
 62
      32
100
AcDbLine
 10
-84.92614253
 20
142.50445671
 30
0.0
 11
-84.82197587
 21
142.81695671
 31
0.0
  0
LINE
  5
1E7
100
AcDbEntity
  8
ZUWAKU
  6
CONTINUOUS
 62
      32
100
AcDbLine
 10
-85.12581505
 20
142.50445671
 30
0.0
 11
-85.02164839
 21
142.81695671
 31
0.0
  0
LINE
  5
1E8
100
AcDbEntity
  8
ZUWAKU
  6
CONTINUOUS
 62
      32
100
AcDbLine
 10
-85.28805583
 20
142.50445671
 30
0.0
 11
-85.18388916
 21
142.81695671
 31
0.0
  0
LINE
  5
1E9
100
AcDbEntity
  8
ZUWAKU
  6
CONTINUOUS
 62
      32
100
AcDbLine
 10
-85.59013916
 20
142.50445671
 30
0.0
 11
-85.48597249
 21
142.81695671
 31
0.0
  0
LINE
  5
1EA
100
AcDbEntity
  8
ZUWAKU
  6
CONTINUOUS
 62
      32
100
AcDbLine
 10
-85.78805583
 20
142.50445671
 30
0.0
 11
-85.68388916
 21
142.81695671
 31
0.0
  0
LINE
  5
1EB
100
AcDbEntity
  8
ZUWAKU
  6
CONTINUOUS
 62
      32
100
AcDbLine
 10
-85.84013916
 20
142.50445671
 30
0.0
 11
-85.73597249
 21
142.81695671
 31
0.0
  0
LINE
  5
1EC
100
AcDbEntity
  8
ZUWAKU
  6
CONTINUOUS
 62
      32
100
AcDbLine
 10
-85.02164839
 20
142.81695671
 30
0.0
 11
-85.18388916
 21
142.81695671
 31
0.0
  0
LINE
  5
1ED
100
AcDbEntity
  8
ZUWAKU
  6
CONTINUOUS
 62
      32
100
AcDbLine
 10
-85.28805583
 20
142.50445671
 30
0.0
 11
-85.12581505
 21
142.50445671
 31
0.0
  0
LINE
  5
1EE
100
AcDbEntity
  8
ZUWAKU
  6
CONTINUOUS
 62
      32
100
AcDbLine
 10
-85.37138916
 20
142.81695671
 30
0.0
 11
-85.48597249
 21
142.81695671
 31
0.0
  0
LINE
  5
1EF
100
AcDbEntity
  8
ZUWAKU
  6
CONTINUOUS
 62
      32
100
AcDbLine
 10
-85.68388916
 20
142.81695671
 30
0.0
 11
-85.73597249
 21
142.81695671
 31
0.0
  0
LINE
  5
1F0
100
AcDbEntity
  8
ZUWAKU
  6
CONTINUOUS
 62
      32
100
AcDbLine
 10
-85.59013916
 20
142.50445671
 30
0.0
 11
-85.47555583
 21
142.50445671
 31
0.0
  0
LINE
  5
1F1
100
AcDbEntity
  8
ZUWAKU
  6
CONTINUOUS
 62
      32
100
AcDbLine
 10
-85.78805583
 20
142.50445671
 30
0.0
 11
-85.84013916
 21
142.50445671
 31
0.0
  0
ARC
  5
1F2
100
AcDbEntity
  8
ZUWAKU
  6
CONTINUOUS
 62
      32
100
AcDbCircle
 10
-80.74182215
 20
142.00445671
 30
0.0
 40
0.5
100
AcDbArc
 50
270.0
 51
450.0
  0
LINE
  5
1F3
100
AcDbEntity
  8
ZUWAKU
  6
CONTINUOUS
 62
      32
100
AcDbLine
 10
-83.820125
 20
140.00495671
 30
0.0
 11
-83.101375
 21
140.00495671
 31
0.0
  0
LINE
  5
1F4
100
AcDbEntity
  8
ZUWAKU
  6
CONTINUOUS
 62
      32
100
AcDbLine
 10
-83.9375
 20
139.69195671
 30
0.0
 11
-82.88446585
 21
139.69195671
 31
0.0
  0
LINE
  5
1F5
100
AcDbEntity
  8
ZUWAKU
  6
CONTINUOUS
 62
      32
100
AcDbLine
 10
-82.88446585
 20
139.69195671
 30
0.0
 11
-82.32215335
 21
141.19145671
 31
0.0
  0
LINE
  5
1F6
100
AcDbEntity
  8
ZUWAKU
  6
CONTINUOUS
 62
      32
100
AcDbLine
 10
-82.20477835
 20
141.50445671
 30
0.0
 11
-81.82977835
 21
142.50445671
 31
0.0
  0
LINE
  5
1F7
100
AcDbEntity
  8
ZUWAKU
  6
CONTINUOUS
 62
      32
100
AcDbLine
 10
-82.32215335
 20
141.19145671
 30
0.0
 11
-82.09754348
 21
141.19145671
 31
0.0
  0
LINE
  5
1F8
100
AcDbEntity
  8
ZUWAKU
  6
CONTINUOUS
 62
      32
100
AcDbLine
 10
-81.73800596
 20
141.19145671
 30
0.0
 11
-80.74182215
 21
141.19145671
 31
0.0
  0
LINE
  5
1F9
100
AcDbEntity
  8
ZUWAKU
  6
CONTINUOUS
 62
      32
100
AcDbLine
 10
-81.06737553
 20
140.00495671
 30
0.0
 11
-81.73800596
 21
141.19145671
 31
0.0
  0
ARC
  5
1FA
100
AcDbEntity
  8
ZUWAKU
  6
CONTINUOUS
 62
      32
100
AcDbCircle
 10
-80.74182215
 20
142.00445671
 30
0.0
 40
0.8125
100
AcDbArc
 50
270.0
 51
450.0
  0
ELLIPSE
  5
1FB
100
AcDbEntity
  8
ZUWAKU
  6
CONTINUOUS
 62
      32
100
AcDbEllipse
 10
-79.70661556
 20
140.39651662
 30
0.0
 11
-0.0823186632749326
 21
-0.150917549337322
 31
0.0
210
0.0
220
0.0
230
1.0
 40
0.75209874
 41
0.0
 42
6.2831853071796004
  0
LINE
  5
1FC
100
AcDbEntity
  8
ZUWAKU
  6
CONTINUOUS
 62
      32
100
AcDbLine
 10
-81.25
 20
139.69195671
 30
0.0
 11
-80.125
 21
139.69195671
 31
0.0
  0
ELLIPSE
  5
1FD
100
AcDbEntity
  8
ZUWAKU
  6
CONTINUOUS
 62
      32
100
AcDbEllipse
 10
-79.70661556
 20
140.39651662
 30
0.0
 11
-0.2629989242010424
 21
-0.4821646943684073
 31
0.0
210
0.0
220
0.0
230
1.0
 40
0.75209874
 41
1.163380251178052
 42
5.8601607076995661
  0
LINE
  5
1FE
100
AcDbEntity
  8
ZUWAKU
  6
CONTINUOUS
 62
      32
100
AcDbLine
 10
-81.06737553
 20
140.00495671
 30
0.0
 11
-80.14377403
 21
140.00495671
 31
0.0
  0
ARC
  5
1FF
100
AcDbEntity
  8
ZUWAKU
  6
CONTINUOUS
 62
      32
100
AcDbCircle
 10
-80.23687941
 20
140.70692424
 30
0.0
 40
0.70811512
100
AcDbArc
 50
277.55531967
 51
282.61004677
  0
ARC
  5
200
100
AcDbEntity
  8
ZUWAKU
  6
CONTINUOUS
 62
      32
100
AcDbCircle
 10
-80.23687941
 20
140.70692424
 30
0.0
 40
1.02111512
100
AcDbArc
 50
276.29029269
 51
293.79815684
  0
ARC
  5
201
100
AcDbEntity
  8
ZUWAKU
  6
CONTINUOUS
 62
      32
100
AcDbCircle
 10
-80.23687941
 20
140.70692424
 30
0.0
 40
1.02111512
100
AcDbArc
 50
316.57125834
 51
318.01426788
  0
ARC
  5
202
100
AcDbEntity
  8
ZUWAKU
  6
CONTINUOUS
 62
      32
100
AcDbCircle
 10
-79.5034647
 20
140.37061069
 30
0.0
 40
0.67886884
100
AcDbArc
 50
209.3318227
 51
211.50126528
  0
ARC
  5
203
100
AcDbEntity
  8
ZUWAKU
  6
CONTINUOUS
 62
      32
100
AcDbCircle
 10
-79.5034647
 20
140.37061069
 30
0.0
 40
0.67886884
100
AcDbArc
 50
241.74457829
 51
270.0
  0
ELLIPSE
  5
204
100
AcDbEntity
  8
ZUWAKU
  6
CONTINUOUS
 62
      32
100
AcDbEllipse
 10
-78.10828559
 20
140.81680127
 30
0.0
 11
-0.1370430461622192
 21
-0.2826512827096224
 31
0.0
210
0.0
220
0.0
230
1.0
 40
0.44219156
 41
0.0
 42
6.2831853071796004
  0
ARC
  5
205
100
AcDbEntity
  8
ZUWAKU
  6
CONTINUOUS
 62
      32
100
AcDbCircle
 10
-77.82005571
 20
140.89950844
 30
0.0
 40
1.21410684
100
AcDbArc
 50
241.28311564
 51
264.0434522
  0
LINE
  5
206
100
AcDbEntity
  8
ZUWAKU
  6
CONTINUOUS
 62
      32
100
AcDbLine
 10
-79.5034647
 20
139.69195671
 30
0.0
 11
-78.79911776
 21
139.69195671
 31
0.0
  0
ARC
  5
207
100
AcDbEntity
  8
ZUWAKU
  6
CONTINUOUS
 62
      32
100
AcDbCircle
 10
-77.82005571
 20
140.89950844
 30
0.0
 40
0.90110684
100
AcDbArc
 50
251.08708107
 51
263.08482824
  0
ARC
  5
208
100
AcDbEntity
  8
ZUWAKU
  6
CONTINUOUS
 62
      32
100
AcDbCircle
 10
-79.06479874
 20
141.04804818
 30
0.0
 40
1.06887209
100
AcDbArc
 50
282.60950936
 51
291.93126974
  0
ELLIPSE
  5
209
100
AcDbEntity
  8
ZUWAKU
  6
CONTINUOUS
 62
      32
100
AcDbEllipse
 10
-78.10828559
 20
140.81680127
 30
0.0
 11
-0.4378372081860107
 21
-0.9030392418838176
 31
0.0
210
0.0
220
0.0
230
1.0
 40
0.44219156
 41
1.1621663820477954
 42
5.8906096214263117
  0
LINE
  5
20A
100
AcDbEntity
  8
ZUWAKU
  6
CONTINUOUS
 62
      32
100
AcDbLine
 10
-79.49531506
 20
140.00495671
 30
0.0
 11
-78.8314584
 21
140.00495671
 31
0.0
  0
ARC
  5
20B
100
AcDbEntity
  8
ZUWAKU
  6
CONTINUOUS
 62
      32
100
AcDbCircle
 10
-79.06479874
 20
141.04804818
 30
0.0
 40
1.38187209
100
AcDbArc
 50
313.58286141
 51
326.24939265
  0
ARC
  5
20C
100
AcDbEntity
  8
ZUWAKU
  6
CONTINUOUS
 62
      32
100
AcDbCircle
 10
-79.06479874
 20
141.04804818
 30
0.0
 40
1.38187209
100
AcDbArc
 50
281.08479974
 51
298.5950739
  0
LINE
  5
20D
100
AcDbEntity
  8
ZUWAKU
  6
CONTINUOUS
 62
      32
100
AcDbLine
 10
-77.94604868
 20
139.69195671
 30
0.0
 11
-77.4375
 21
139.69195671
 31
0.0
  0
LINE
  5
20E
100
AcDbEntity
  8
ZUWAKU
  6
CONTINUOUS
 62
      32
100
AcDbLine
 10
-77.51029769
 20
140.06180786
 30
0.0
 11
-76.65981753
 21
140.91228802
 31
0.0
  0
LINE
  5
20F
100
AcDbEntity
  8
ZUWAKU
  6
CONTINUOUS
 62
      32
100
AcDbLine
 10
-76.63051589
 20
140.00495671
 30
0.0
 11
-76.49300147
 21
140.8300432
 31
0.0
  0
LINE
  5
210
100
AcDbEntity
  8
ZUWAKU
  6
CONTINUOUS
 62
      32
100
AcDbLine
 10
-77.92854871
 20
140.00495671
 30
0.0
 11
-77.624
 21
140.00495671
 31
0.0
  0
ARC
  5
211
100
AcDbEntity
  8
ZUWAKU
  6
CONTINUOUS
 62
      32
100
AcDbCircle
 10
-76.58879825
 20
140.84600933
 30
0.0
 40
0.09714219
100
AcDbArc
 50
350.53767779
 51
496.97750576
  0
ELLIPSE
  5
212
100
AcDbEntity
  8
ZUWAKU
  6
CONTINUOUS
 62
      32
100
AcDbEllipse
 10
-75.26264983
 20
140.27993804
 30
0.0
 11
-0.091181629976731
 21
-0.1535690610134282
 31
0.0
210
0.0
220
0.0
230
1.0
 40
0.58819821
 41
0.0
 42
6.2831853071796004
  0
LINE
  5
213
100
AcDbEntity
  8
ZUWAKU
  6
CONTINUOUS
 62
      32
100
AcDbLine
 10
-76.30046592
 20
140.00495671
 30
0.0
 11
-75.77952599
 21
140.25517195
 31
0.0
  0
LINE
  5
214
100
AcDbEntity
  8
ZUWAKU
  6
CONTINUOUS
 62
      32
100
AcDbLine
 10
-76.25
 20
139.69195671
 30
0.0
 11
-75.81385059
 21
139.88521994
 31
0.0
  0
LINE
  5
215
100
AcDbEntity
  8
ZUWAKU
  6
CONTINUOUS
 62
      32
100
AcDbLine
 10
-76.63051589
 20
140.00495671
 30
0.0
 11
-76.30046592
 21
140.00495671
 31
0.0
  0
LINE
  5
216
100
AcDbEntity
  8
ZUWAKU
  6
CONTINUOUS
 62
      32
100
AcDbLine
 10
-75.18062588
 20
139.83297508
 30
0.0
 11
-75.0347448
 21
139.69195671
 31
0.0
  0
LINE
  5
217
100
AcDbEntity
  8
ZUWAKU
  6
CONTINUOUS
 62
      32
100
AcDbLine
 10
-74.6875
 20
140.00495671
 30
0.0
 11
-74.24778776
 21
140.00495671
 31
0.0
  0
LINE
  5
218
100
AcDbEntity
  8
ZUWAKU
  6
CONTINUOUS
 62
      32
100
AcDbLine
 10
-73.24835919
 20
140.87945671
 30
0.0
 11
-74.24778776
 21
140.00495671
 31
0.0
  0
ELLIPSE
  5
219
100
AcDbEntity
  8
ZUWAKU
  6
CONTINUOUS
 62
      32
100
AcDbEllipse
 10
-75.3278723
 20
140.242954
 30
0.0
 11
-0.3971852093869615
 21
-0.4920827897266804
 31
0.0
210
0.0
220
0.0
230
1.0
 40
0.63020876
 41
2.7713952963881447
 42
5.1608192210644308
  0
ELLIPSE
  5
21A
100
AcDbEntity
  8
ZUWAKU
  6
CONTINUOUS
 62
      32
100
AcDbEllipse
 10
-75.3278723
 20
140.242954
 30
0.0
 11
-0.3971852093869615
 21
-0.4920827897266804
 31
0.0
210
0.0
220
0.0
230
1.0
 40
0.63020876
 41
5.8878630804447329
 42
7.4876029260781642
  0
LINE
  5
21B
100
AcDbEntity
  8
ZUWAKU
  6
CONTINUOUS
 62
      32
100
AcDbLine
 10
-74.76978979
 20
140.81905255
 30
0.0
 11
-74.43673788
 21
140.81905255
 31
0.0
  0
LINE
  5
21C
100
AcDbEntity
  8
ZUWAKU
  6
CONTINUOUS
 62
      32
100
AcDbLine
 10
-74.84539463
 20
140.61113924
 30
0.0
 11
-74.76978979
 21
140.81905255
 31
0.0
  0
LINE
  5
21D
100
AcDbEntity
  8
ZUWAKU
  6
CONTINUOUS
 62
      32
100
AcDbLine
 10
-74.6875
 20
140.12945671
 30
0.0
 11
-74.43673788
 21
140.81905255
 31
0.0
  0
LINE
  5
21E
100
AcDbEntity
  8
ZUWAKU
  6
CONTINUOUS
 62
      32
100
AcDbLine
 10
-73.83685195
 20
139.70180295
 30
0.0
 11
-73.67846752
 21
140.13736012
 31
0.0
  0
LINE
  5
21F
100
AcDbEntity
  8
ZUWAKU
  6
CONTINUOUS
 62
      32
100
AcDbLine
 10
-73.20661411
 20
140.44195671
 30
0.0
 11
-73.47934138
 21
139.69195671
 31
0.0
  0
LINE
  5
220
100
AcDbEntity
  8
ZUWAKU
  6
CONTINUOUS
 62
      32
100
AcDbLine
 10
-73.0625
 20
139.69195671
 30
0.0
 11
-72.78977273
 21
140.44195671
 31
0.0
  0
LINE
  5
221
100
AcDbEntity
  8
ZUWAKU
  6
CONTINUOUS
 62
      32
100
AcDbLine
 10
-72.33379031
 20
140.68028335
 30
0.0
 11
-72.57936364
 21
140.00495671
 31
0.0
  0
LINE
  5
222
100
AcDbEntity
  8
ZUWAKU
  6
CONTINUOUS
 62
      32
100
AcDbLine
 10
-72.43770684
 20
140.87945671
 30
0.0
 11
-72.33379031
 21
140.68028335
 31
0.0
  0
LINE
  5
223
100
AcDbEntity
  8
ZUWAKU
  6
CONTINUOUS
 62
      32
100
AcDbLine
 10
-73.12340132
 20
140.69355539
 30
0.0
 11
-73.06191702
 21
140.87945671
 31
0.0
  0
LINE
  5
224
100
AcDbEntity
  8
ZUWAKU
  6
CONTINUOUS
 62
      32
100
AcDbLine
 10
-73.12340132
 20
140.69355539
 30
0.0
 11
-72.79045273
 21
140.87945671
 31
0.0
  0
LINE
  5
225
100
AcDbEntity
  8
ZUWAKU
  6
CONTINUOUS
 62
      32
100
AcDbLine
 10
-72.43770684
 20
140.87945671
 30
0.0
 11
-72.79045273
 21
140.87945671
 31
0.0
  0
LINE
  5
226
100
AcDbEntity
  8
ZUWAKU
  6
CONTINUOUS
 62
      32
100
AcDbLine
 10
-73.06191702
 20
140.87945671
 30
0.0
 11
-73.24835919
 21
140.87945671
 31
0.0
  0
ELLIPSE
  5
227
100
AcDbEntity
  8
ZUWAKU
  6
CONTINUOUS
 62
      32
100
AcDbEllipse
 10
-69.64836756
 20
140.39651662
 30
0.0
 11
-0.0823186632749326
 21
-0.150917549337322
 31
0.0
210
0.0
220
0.0
230
1.0
 40
0.75209874
 41
0.0
 42
6.2831853071796004
  0
ELLIPSE
  5
228
100
AcDbEntity
  8
ZUWAKU
  6
CONTINUOUS
 62
      32
100
AcDbEllipse
 10
-69.64836756
 20
140.39651662
 30
0.0
 11
-0.2629989242010424
 21
-0.4821646943684073
 31
0.0
210
0.0
220
0.0
230
1.0
 40
0.75209874
 41
1.163380251178052
 42
5.8601607076995661
  0
ARC
  5
229
100
AcDbEntity
  8
ZUWAKU
  6
CONTINUOUS
 62
      32
100
AcDbCircle
 10
-70.1786314
 20
140.70692424
 30
0.0
 40
0.70811512
100
AcDbArc
 50
277.55531967
 51
282.61004677
  0
ARC
  5
22A
100
AcDbEntity
  8
ZUWAKU
  6
CONTINUOUS
 62
      32
100
AcDbCircle
 10
-70.1786314
 20
140.70692424
 30
0.0
 40
1.02111512
100
AcDbArc
 50
276.29029269
 51
293.79815684
  0
ARC
  5
22B
100
AcDbEntity
  8
ZUWAKU
  6
CONTINUOUS
 62
      32
100
AcDbCircle
 10
-70.1786314
 20
140.70692424
 30
0.0
 40
1.02111512
100
AcDbArc
 50
316.57125834
 51
318.01426788
  0
ARC
  5
22C
100
AcDbEntity
  8
ZUWAKU
  6
CONTINUOUS
 62
      32
100
AcDbCircle
 10
-69.44521669
 20
140.37061069
 30
0.0
 40
0.67886884
100
AcDbArc
 50
209.3318227
 51
211.50126528
  0
ARC
  5
22D
100
AcDbEntity
  8
ZUWAKU
  6
CONTINUOUS
 62
      32
100
AcDbCircle
 10
-69.44521669
 20
140.37061069
 30
0.0
 40
0.67886884
100
AcDbArc
 50
241.74457829
 51
270.0
  0
LINE
  5
22E
100
AcDbEntity
  8
ZUWAKU
  6
CONTINUOUS
 62
      32
100
AcDbLine
 10
-71.17270194
 20
140.00495671
 30
0.0
 11
-70.08552603
 21
140.00495671
 31
0.0
  0
LINE
  5
22F
100
AcDbEntity
  8
ZUWAKU
  6
CONTINUOUS
 62
      32
100
AcDbLine
 10
-69.44521669
 20
139.69195671
 30
0.0
 11
-68.84334242
 21
139.69195671
 31
0.0
  0
LINE
  5
230
100
AcDbEntity
  8
ZUWAKU
  6
CONTINUOUS
 62
      32
100
AcDbLine
 10
-69.43706706
 20
140.00495671
 30
0.0
 11
-68.77321039
 21
140.00495671
 31
0.0
  0
LINE
  5
231
100
AcDbEntity
  8
ZUWAKU
  6
CONTINUOUS
 62
      32
100
AcDbLine
 10
-77.0
 20
139.69195671
 30
0.0
 11
-76.25
 21
139.69195671
 31
0.0
  0
LINE
  5
232
100
AcDbEntity
  8
ZUWAKU
  6
CONTINUOUS
 62
      32
100
AcDbLine
 10
-73.83685195
 20
139.70180295
 30
0.0
 11
-73.47934138
 21
139.69195671
 31
0.0
  0
LINE
  5
233
100
AcDbEntity
  8
ZUWAKU
  6
CONTINUOUS
 62
      32
100
AcDbLine
 10
-72.57936364
 20
140.00495671
 30
0.0
 11
-72.00141072
 21
140.00495671
 31
0.0
  0
LINE
  5
234
100
AcDbEntity
  8
ZUWAKU
  6
CONTINUOUS
 62
      32
100
AcDbLine
 10
-70.93482948
 20
140.45555142
 30
0.0
 11
-70.70134583
 21
140.64428404
 31
0.0
  0
ARC
  5
235
100
AcDbEntity
  8
ZUWAKU
  6
CONTINUOUS
 62
      32
100
AcDbCircle
 10
-71.17270194
 20
140.29495671
 30
0.0
 40
0.29
100
AcDbArc
 50
34.07537472
 51
270.0
  0
ARC
  5
236
100
AcDbEntity
  8
ZUWAKU
  6
CONTINUOUS
 62
      32
100
AcDbCircle
 10
-71.17270194
 20
140.29495671
 30
0.0
 40
0.58669087
100
AcDbArc
 50
36.54256145
 51
190.98612084
  0
LINE
  5
237
100
AcDbEntity
  8
ZUWAKU
  6
CONTINUOUS
 62
      32
100
AcDbLine
 10
-71.92247945
 20
139.69195671
 30
0.0
 11
-71.62530396
 21
139.91063301
 31
0.0
  0
LINE
  5
238
100
AcDbEntity
  8
ZUWAKU
  6
CONTINUOUS
 62
      32
100
AcDbLine
 10
-71.75236752
 20
140.18821491
 30
0.0
 11
-72.00141072
 21
140.00495671
 31
0.0
  0
LINE
  5
239
100
AcDbEntity
  8
ZUWAKU
  6
CONTINUOUS
 62
      32
100
AcDbLine
 10
-71.62530396
 20
139.91063301
 30
0.0
 11
-71.375
 21
139.69195671
 31
0.0
  0
LINE
  5
23A
100
AcDbEntity
  8
ZUWAKU
  6
CONTINUOUS
 62
      32
100
AcDbLine
 10
-68.77321039
 20
140.00495671
 30
0.0
 11
-68.84334242
 21
139.69195671
 31
0.0
  0
LINE
  5
23B
100
AcDbEntity
  8
ZUWAKU
  6
CONTINUOUS
 62
      32
100
AcDbLine
 10
-85.39482666
 20
142.74664421
 30
0.0
 11
-85.56670166
 21
142.57476921
 31
0.0
  0
LINE
  5
23C
100
AcDbEntity
  8
ZUWAKU
  6
CONTINUOUS
 62
      32
100
AcDbLine
 10
-85.03317153
 20
142.78238729
 30
0.0
 11
-85.27653268
 21
142.53902613
 31
0.0
  0
LINE
  5
23D
100
AcDbEntity
  8
ZUWAKU
  6
CONTINUOUS
 62
      32
100
AcDbLine
 10
-84.62379878
 20
142.81070671
 30
0.0
 11
-84.92418941
 21
142.51031608
 31
0.0
  0
LINE
  5
23E
100
AcDbEntity
  8
ZUWAKU
  6
CONTINUOUS
 62
      32
100
AcDbLine
 10
-84.22016758
 20
142.81695671
 30
0.0
 11
-84.53266758
 21
142.50445671
 31
0.0
  0
LINE
  5
23F
100
AcDbEntity
  8
ZUWAKU
  6
CONTINUOUS
 62
      32
100
AcDbLine
 10
-83.80281449
 20
142.81695671
 30
0.0
 11
-84.11531449
 21
142.50445671
 31
0.0
  0
LINE
  5
240
100
AcDbEntity
  8
ZUWAKU
  6
CONTINUOUS
 62
      32
100
AcDbLine
 10
-83.34394632
 20
142.81695671
 30
0.0
 11
-83.65644632
 21
142.50445671
 31
0.0
  0
LINE
  5
241
100
AcDbEntity
  8
ZUWAKU
  6
CONTINUOUS
 62
      32
100
AcDbLine
 10
-82.95719941
 20
142.81695671
 30
0.0
 11
-83.26969941
 21
142.50445671
 31
0.0
  0
LINE
  5
242
100
AcDbEntity
  8
ZUWAKU
  6
CONTINUOUS
 62
      32
100
AcDbLine
 10
-82.84908106
 20
139.78631615
 30
0.0
 11
-82.9434405
 21
139.69195671
 31
0.0
  0
LINE
  5
243
100
AcDbEntity
  8
ZUWAKU
  6
CONTINUOUS
 62
      32
100
AcDbLine
 10
-82.67937544
 20
140.23886449
 30
0.0
 11
-83.22628322
 21
139.69195671
 31
0.0
  0
LINE
  5
244
100
AcDbEntity
  8
ZUWAKU
  6
CONTINUOUS
 62
      32
100
AcDbLine
 10
-82.50966981
 20
140.69141283
 30
0.0
 11
-83.04452444
 21
140.15655819
 31
0.0
  0
LINE
  5
245
100
AcDbEntity
  8
ZUWAKU
  6
CONTINUOUS
 62
      32
100
AcDbLine
 10
-83.19612593
 20
140.00495671
 30
0.0
 11
-83.50912593
 21
139.69195671
 31
0.0
  0
LINE
  5
246
100
AcDbEntity
  8
ZUWAKU
  6
CONTINUOUS
 62
      32
100
AcDbLine
 10
-82.33996418
 20
141.14396117
 30
0.0
 11
-82.87481882
 21
140.60910653
 31
0.0
  0
LINE
  5
247
100
AcDbEntity
  8
ZUWAKU
  6
CONTINUOUS
 62
      32
100
AcDbLine
 10
-83.47896864
 20
140.00495671
 30
0.0
 11
-83.79196864
 21
139.69195671
 31
0.0
  0
LINE
  5
248
100
AcDbEntity
  8
ZUWAKU
  6
CONTINUOUS
 62
      32
100
AcDbLine
 10
-83.76181135
 20
140.00495671
 30
0.0
 11
-83.85511319
 21
139.91165487
 31
0.0
  0
LINE
  5
249
100
AcDbEntity
  8
ZUWAKU
  6
CONTINUOUS
 62
      32
100
AcDbLine
 10
-81.79833949
 20
142.81695671
 30
0.0
 11
-82.19599631
 21
142.41929989
 31
0.0
  0
LINE
  5
24A
100
AcDbEntity
  8
ZUWAKU
  6
CONTINUOUS
 62
      32
100
AcDbLine
 10
-82.0811822
 20
142.81695671
 30
0.0
 11
-82.3936822
 21
142.50445671
 31
0.0
  0
LINE
  5
24B
100
AcDbEntity
  8
ZUWAKU
  6
CONTINUOUS
 62
      32
100
AcDbLine
 10
-82.36402492
 20
142.81695671
 30
0.0
 11
-82.67652492
 21
142.50445671
 31
0.0
  0
LINE
  5
24C
100
AcDbEntity
  8
ZUWAKU
  6
CONTINUOUS
 62
      32
100
AcDbLine
 10
-82.64686763
 20
142.81695671
 30
0.0
 11
-82.81187942
 21
142.65194491
 31
0.0
  0
LINE
  5
24D
100
AcDbEntity
  8
ZUWAKU
  6
CONTINUOUS
 62
      32
100
AcDbLine
 10
-79.7791029
 20
140.87639532
 30
0.0
 11
-80.07829291
 21
140.57720532
 31
0.0
  0
LINE
  5
24E
100
AcDbEntity
  8
ZUWAKU
  6
CONTINUOUS
 62
      32
100
AcDbLine
 10
-79.47789889
 20
140.89475662
 30
0.0
 11
-80.15205943
 21
140.22059608
 31
0.0
  0
LINE
  5
24F
100
AcDbEntity
  8
ZUWAKU
  6
CONTINUOUS
 62
      32
100
AcDbLine
 10
-79.25935218
 20
140.54761791
 30
0.0
 11
-80.1137046
 21
139.69326549
 31
0.0
  0
LINE
  5
250
100
AcDbEntity
  8
ZUWAKU
  6
CONTINUOUS
 62
      32
100
AcDbLine
 10
-81.23265407
 20
142.81695671
 30
0.0
 11
-81.54515407
 21
142.50445671
 31
0.0
  0
LINE
  5
251
100
AcDbEntity
  8
ZUWAKU
  6
CONTINUOUS
 62
      32
100
AcDbLine
 10
-82.00055293
 20
142.04905785
 30
0.0
 11
-82.53540756
 21
141.51420321
 31
0.0
  0
LINE
  5
252
100
AcDbEntity
  8
ZUWAKU
  6
CONTINUOUS
 62
      32
100
AcDbLine
 10
-80.94981135
 20
142.81695671
 30
0.0
 11
-81.26231135
 21
142.50445671
 31
0.0
  0
LINE
  5
253
100
AcDbEntity
  8
ZUWAKU
  6
CONTINUOUS
 62
      32
100
AcDbLine
 10
-82.17025855
 20
141.59650951
 30
0.0
 11
-82.70511319
 21
141.06165487
 31
0.0
  0
LINE
  5
254
100
AcDbEntity
  8
ZUWAKU
  6
CONTINUOUS
 62
      32
100
AcDbLine
 10
-80.67013712
 20
142.81378822
 30
0.0
 11
-80.97946864
 21
142.50445671
 31
0.0
  0
LINE
  5
255
100
AcDbEntity
  8
ZUWAKU
  6
CONTINUOUS
 62
      32
100
AcDbLine
 10
-81.97946864
 20
141.50445671
 30
0.0
 11
-82.29246864
 21
141.19145671
 31
0.0
  0
LINE
  5
256
100
AcDbEntity
  8
ZUWAKU
  6
CONTINUOUS
 62
      32
100
AcDbLine
 10
-80.44161954
 20
142.75946309
 30
0.0
 11
-80.69850577
 21
142.50257686
 31
0.0
  0
LINE
  5
257
100
AcDbEntity
  8
ZUWAKU
  6
CONTINUOUS
 62
      32
100
AcDbLine
 10
-81.69662593
 20
141.50445671
 30
0.0
 11
-82.06579547
 21
141.13528716
 31
0.0
  0
LINE
  5
258
100
AcDbEntity
  8
ZUWAKU
  6
CONTINUOUS
 62
      32
100
AcDbLine
 10
-80.25974857
 20
142.65849135
 30
0.0
 11
-80.48486341
 21
142.43337652
 31
0.0
  0
LINE
  5
259
100
AcDbEntity
  8
ZUWAKU
  6
CONTINUOUS
 62
      32
100
AcDbLine
 10
-80.11453831
 20
142.5208589
 30
0.0
 11
-80.33720184
 21
142.29819537
 31
0.0
  0
LINE
  5
25A
100
AcDbEntity
  8
ZUWAKU
  6
CONTINUOUS
 62
      32
100
AcDbLine
 10
-80.00521614
 20
142.34733836
 30
0.0
 11
-80.2512845
 21
142.10126999
 31
0.0
  0
LINE
  5
25B
100
AcDbEntity
  8
ZUWAKU
  6
CONTINUOUS
 62
      32
100
AcDbLine
 10
-79.93916552
 20
142.13054627
 30
0.0
 11
-80.30075609
 21
141.7689557
 31
0.0
  0
LINE
  5
25C
100
AcDbEntity
  8
ZUWAKU
  6
CONTINUOUS
 62
      32
100
AcDbLine
 10
-81.51549678
 20
142.81695671
 30
0.0
 11
-81.82799678
 21
142.50445671
 31
0.0
  0
LINE
  5
25D
100
AcDbEntity
  8
ZUWAKU
  6
CONTINUOUS
 62
      32
100
AcDbLine
 10
-81.8308473
 20
142.50160619
 30
0.0
 11
-82.36570193
 21
141.96675155
 31
0.0
  0
LINE
  5
25E
100
AcDbEntity
  8
ZUWAKU
  6
CONTINUOUS
 62
      32
100
AcDbLine
 10
-81.1309405
 20
141.50445671
 30
0.0
 11
-81.4439405
 21
141.19145671
 31
0.0
  0
LINE
  5
25F
100
AcDbEntity
  8
ZUWAKU
  6
CONTINUOUS
 62
      32
100
AcDbLine
 10
-81.63181566
 20
141.00358155
 30
0.0
 11
-81.86152018
 21
140.77387703
 31
0.0
  0
LINE
  5
260
100
AcDbEntity
  8
ZUWAKU
  6
CONTINUOUS
 62
      32
100
AcDbLine
 10
-81.41378322
 20
141.50445671
 30
0.0
 11
-81.72678322
 21
141.19145671
 31
0.0
  0
LINE
  5
261
100
AcDbEntity
  8
ZUWAKU
  6
CONTINUOUS
 62
      32
100
AcDbLine
 10
-81.7339533
 20
141.18428662
 30
0.0
 11
-81.96365783
 21
140.95458209
 31
0.0
  0
LINE
  5
262
100
AcDbEntity
  8
ZUWAKU
  6
CONTINUOUS
 62
      32
100
AcDbLine
 10
-80.84809779
 20
141.50445671
 30
0.0
 11
-81.16109779
 21
141.19145671
 31
0.0
  0
LINE
  5
263
100
AcDbEntity
  8
ZUWAKU
  6
CONTINUOUS
 62
      32
100
AcDbLine
 10
-81.52967801
 20
140.82287649
 30
0.0
 11
-81.75938254
 21
140.59317196
 31
0.0
  0
LINE
  5
264
100
AcDbEntity
  8
ZUWAKU
  6
CONTINUOUS
 62
      32
100
AcDbLine
 10
-80.50632114
 20
141.56339064
 30
0.0
 11
-80.87825508
 21
141.19145671
 31
0.0
  0
LINE
  5
265
100
AcDbEntity
  8
ZUWAKU
  6
CONTINUOUS
 62
      32
100
AcDbLine
 10
-81.42754037
 20
140.64217142
 30
0.0
 11
-81.65724489
 21
140.4124669
 31
0.0
  0
LINE
  5
266
100
AcDbEntity
  8
ZUWAKU
  6
CONTINUOUS
 62
      32
100
AcDbLine
 10
-79.94595063
 20
141.84091845
 30
0.0
 11
-80.57828389
 21
141.20858518
 31
0.0
  0
LINE
  5
267
100
AcDbEntity
  8
ZUWAKU
  6
CONTINUOUS
 62
      32
100
AcDbLine
 10
-81.32540272
 20
140.46146635
 30
0.0
 11
-81.55510724
 21
140.23176183
 31
0.0
  0
LINE
  5
268
100
AcDbEntity
  8
ZUWAKU
  6
CONTINUOUS
 62
      32
100
AcDbLine
 10
-81.22326507
 20
140.28076129
 30
0.0
 11
-81.4529696
 21
140.05105676
 31
0.0
  0
LINE
  5
269
100
AcDbEntity
  8
ZUWAKU
  6
CONTINUOUS
 62
      32
100
AcDbLine
 10
-81.12112743
 20
140.10005622
 30
0.0
 11
-81.35083195
 21
139.8703517
 31
0.0
  0
LINE
  5
26A
100
AcDbEntity
  8
ZUWAKU
  6
CONTINUOUS
 62
      32
100
AcDbLine
 10
-80.93338423
 20
140.00495671
 30
0.0
 11
-81.24638423
 21
139.69195671
 31
0.0
  0
LINE
  5
26B
100
AcDbEntity
  8
ZUWAKU
  6
CONTINUOUS
 62
      32
100
AcDbLine
 10
-80.65054152
 20
140.00495671
 30
0.0
 11
-80.96354152
 21
139.69195671
 31
0.0
  0
LINE
  5
26C
100
AcDbEntity
  8
ZUWAKU
  6
CONTINUOUS
 62
      32
100
AcDbLine
 10
-80.3676988
 20
140.00495671
 30
0.0
 11
-80.6806988
 21
139.69195671
 31
0.0
  0
LINE
  5
26D
100
AcDbEntity
  8
ZUWAKU
  6
CONTINUOUS
 62
      32
100
AcDbLine
 10
-79.32434354
 20
140.76546926
 30
0.0
 11
-79.58355194
 21
140.50626085
 31
0.0
  0
LINE
  5
26E
100
AcDbEntity
  8
ZUWAKU
  6
CONTINUOUS
 62
      32
100
AcDbLine
 10
-79.8189689
 20
140.2708439
 30
0.0
 11
-80.39785609
 21
139.69195671
 31
0.0
  0
LINE
  5
26F
100
AcDbEntity
  8
ZUWAKU
  6
CONTINUOUS
 62
      32
100
AcDbLine
 10
-77.78459222
 20
141.73953516
 30
0.0
 11
-78.50176128
 21
141.02236609
 31
0.0
  0
LINE
  5
270
100
AcDbEntity
  8
ZUWAKU
  6
CONTINUOUS
 62
      32
100
AcDbLine
 10
-79.37111392
 20
140.15301345
 30
0.0
 11
-79.77549801
 21
139.74862936
 31
0.0
  0
LINE
  5
271
100
AcDbEntity
  8
ZUWAKU
  6
CONTINUOUS
 62
      32
100
AcDbLine
 10
-77.59027649
 20
141.65100817
 30
0.0
 11
-78.66312862
 21
140.57815604
 31
0.0
  0
LINE
  5
272
100
AcDbEntity
  8
ZUWAKU
  6
CONTINUOUS
 62
      32
100
AcDbLine
 10
-79.23632795
 20
140.00495671
 30
0.0
 11
-79.54807546
 21
139.6932092
 31
0.0
  0
LINE
  5
273
100
AcDbEntity
  8
ZUWAKU
  6
CONTINUOUS
 62
      32
100
AcDbLine
 10
-78.95348524
 20
140.00495671
 30
0.0
 11
-79.26648524
 21
139.69195671
 31
0.0
  0
LINE
  5
274
100
AcDbEntity
  8
ZUWAKU
  6
CONTINUOUS
 62
      32
100
AcDbLine
 10
-77.51985218
 20
141.43858977
 30
0.0
 11
-77.92711788
 21
141.03132407
 31
0.0
  0
LINE
  5
275
100
AcDbEntity
  8
ZUWAKU
  6
CONTINUOUS
 62
      32
100
AcDbLine
 10
-78.29333885
 20
140.6651031
 30
0.0
 11
-78.70060454
 21
140.2578374
 31
0.0
  0
LINE
  5
276
100
AcDbEntity
  8
ZUWAKU
  6
CONTINUOUS
 62
      32
100
AcDbLine
 10
-77.53611971
 20
141.13947953
 30
0.0
 11
-78.98364253
 21
139.69195671
 31
0.0
  0
LINE
  5
277
100
AcDbEntity
  8
ZUWAKU
  6
CONTINUOUS
 62
      32
100
AcDbLine
 10
-77.65896263
 20
140.73379389
 30
0.0
 11
-78.66855036
 21
139.72420616
 31
0.0
  0
LINE
  5
278
100
AcDbEntity
  8
ZUWAKU
  6
CONTINUOUS
 62
      32
100
AcDbLine
 10
-76.60173883
 20
140.94228573
 30
0.0
 11
-77.85206785
 21
139.69195671
 31
0.0
  0
LINE
  5
279
100
AcDbEntity
  8
ZUWAKU
  6
CONTINUOUS
 62
      32
100
AcDbLine
 10
-76.50529751
 20
141.60441247
 30
0.0
 11
-76.57053101
 21
141.53917898
 31
0.0
  0
LINE
  5
27A
100
AcDbEntity
  8
ZUWAKU
  6
CONTINUOUS
 62
      32
100
AcDbLine
 10
-78.07460717
 20
140.03510281
 30
0.0
 11
-78.31765413
 21
139.79205586
 31
0.0
  0
LINE
  5
27B
100
AcDbEntity
  8
ZUWAKU
  6
CONTINUOUS
 62
      32
100
AcDbLine
 10
-76.26312172
 20
141.56374555
 30
0.0
 11
-76.52986409
 21
141.29700319
 31
0.0
  0
LINE
  5
27C
100
AcDbEntity
  8
ZUWAKU
  6
CONTINUOUS
 62
      32
100
AcDbLine
 10
-77.82191057
 20
140.00495671
 30
0.0
 11
-78.10705629
 21
139.71981099
 31
0.0
  0
LINE
  5
27D
100
AcDbEntity
  8
ZUWAKU
  6
CONTINUOUS
 62
      32
100
AcDbLine
 10
-75.05665744
 20
140.79031085
 30
0.0
 11
-76.0794298
 21
139.76753848
 31
0.0
  0
LINE
  5
27E
100
AcDbEntity
  8
ZUWAKU
  6
CONTINUOUS
 62
      32
100
AcDbLine
 10
-76.407697
 20
140.00495671
 30
0.0
 11
-76.720697
 21
139.69195671
 31
0.0
  0
LINE
  5
27F
100
AcDbEntity
  8
ZUWAKU
  6
CONTINUOUS
 62
      32
100
AcDbLine
 10
-76.61851112
 20
140.0769853
 30
0.0
 11
-77.00353972
 21
139.69195671
 31
0.0
  0
LINE
  5
280
100
AcDbEntity
  8
ZUWAKU
  6
CONTINUOUS
 62
      32
100
AcDbLine
 10
-76.56194258
 20
140.41639656
 30
0.0
 11
-76.94272351
 21
140.03561562
 31
0.0
  0
LINE
  5
281
100
AcDbEntity
  8
ZUWAKU
  6
CONTINUOUS
 62
      32
100
AcDbLine
 10
-77.56922514
 20
139.69195671
 30
0.0
 11
-76.50537404
 21
140.75580781
 31
0.0
  0
LINE
  5
282
100
AcDbEntity
  8
ZUWAKU
  6
CONTINUOUS
 62
      32
100
AcDbLine
 10
-74.46223031
 20
140.81905255
 30
0.0
 11
-75.58744363
 21
139.69383924
 31
0.0
  0
LINE
  5
283
100
AcDbEntity
  8
ZUWAKU
  6
CONTINUOUS
 62
      32
100
AcDbLine
 10
-74.58379518
 20
140.41464497
 30
0.0
 11
-75.17291699
 21
139.82552316
 31
0.0
  0
LINE
  5
284
100
AcDbEntity
  8
ZUWAKU
  6
CONTINUOUS
 62
      32
100
AcDbLine
 10
-74.6875
 20
140.02809744
 30
0.0
 11
-75.02364073
 21
139.69195671
 31
0.0
  0
LINE
  5
285
100
AcDbEntity
  8
ZUWAKU
  6
CONTINUOUS
 62
      32
100
AcDbLine
 10
-74.42779802
 20
140.00495671
 30
0.0
 11
-74.74079802
 21
139.69195671
 31
0.0
  0
LINE
  5
286
100
AcDbEntity
  8
ZUWAKU
  6
CONTINUOUS
 62
      32
100
AcDbLine
 10
-73.42512814
 20
140.72478388
 30
0.0
 11
-74.4579553
 21
139.69195671
 31
0.0
  0
LINE
  5
287
100
AcDbEntity
  8
ZUWAKU
  6
CONTINUOUS
 62
      32
100
AcDbLine
 10
-75.48297815
 20
140.64683285
 30
0.0
 11
-75.64373225
 21
140.48607875
 31
0.0
  0
LINE
  5
288
100
AcDbEntity
  8
ZUWAKU
  6
CONTINUOUS
 62
      32
100
AcDbLine
 10
-75.96254657
 20
140.16726442
 30
0.0
 11
-76.43785429
 21
139.69195671
 31
0.0
  0
LINE
  5
289
100
AcDbEntity
  8
ZUWAKU
  6
CONTINUOUS
 62
      32
100
AcDbLine
 10
-75.38749884
 20
140.17662674
 30
0.0
 11
-75.76840442
 21
139.79572115
 31
0.0
  0
LINE
  5
28A
100
AcDbEntity
  8
ZUWAKU
  6
CONTINUOUS
 62
      32
100
AcDbLine
 10
-74.74507303
 20
140.81905255
 30
0.0
 11
-74.78391366
 21
140.78021192
 31
0.0
  0
LINE
  5
28B
100
AcDbEntity
  8
ZUWAKU
  6
CONTINUOUS
 62
      32
100
AcDbLine
 10
-74.88169456
 20
140.68243102
 30
0.0
 11
-75.15060128
 21
140.41352429
 31
0.0
  0
LINE
  5
28C
100
AcDbEntity
  8
ZUWAKU
  6
CONTINUOUS
 62
      32
100
AcDbLine
 10
-72.69366581
 20
140.87945671
 30
0.0
 11
-73.13116581
 21
140.44195671
 31
0.0
  0
LINE
  5
28D
100
AcDbEntity
  8
ZUWAKU
  6
CONTINUOUS
 62
      32
100
AcDbLine
 10
-73.24972742
 20
140.32339509
 30
0.0
 11
-73.81715617
 21
139.75596634
 31
0.0
  0
TEXT
  5
28E
100
AcDbEntity
  8
ZUWAKU
 62
      32
100
AcDbText
 10
-84.55118766
 20
-138.05804329
 30
0.0
 40
3.4
  1
株式会社
 41
0.8
 72
       5
 11
-73.67118766
 21
-138.05804329
 31
0.0
100
AcDbText
  0
LINE
  5
28F
100
AcDbEntity
  8
ZUWAKU
  6
CONTINUOUS
 62
      43
100
AcDbLine
 10
-91.8125
 20
133.91081957
 30
0.0
 11
93.875
 21
133.91081957
 31
0.0
  0
LINE
  5
290
100
AcDbEntity
  8
ZUWAKU
  6
CONTINUOUS
 62
      43
100
AcDbLine
 10
-91.5625
 20
-140.62054329
 30
0.0
 11
92.875
 21
-140.62054329
 31
0.0
  0
LINE
  5
291
100
AcDbEntity
  8
ZUWAKU
  6
CONTINUOUS
 62
      43
100
AcDbLine
 10
-91.5625
 20
-128.55804329
 30
0.0
 11
92.875
 21
-128.55804329
 31
0.0
  0
LINE
  5
292
100
AcDbEntity
  8
ZUWAKU
  6
CONTINUOUS
 62
      43
100
AcDbLine
 10
-91.5625
 20
-126.87054329
 30
0.0
 11
92.875
 21
-126.87054329
 31
0.0
  0
LINE
  5
293
100
AcDbEntity
  8
ZUWAKU
  6
CONTINUOUS
 62
      43
100
AcDbLine
 10
-91.5625
 20
-126.87054329
 30
0.0
 11
-91.5625
 21
-86.87054329
 31
0.0
  0
LINE
  5
294
100
AcDbEntity
  8
ZUWAKU
  6
CONTINUOUS
 62
      43
100
AcDbLine
 10
92.875
 20
-126.87054329
 30
0.0
 11
92.875
 21
-86.87054329
 31
0.0
  0
LINE
  5
295
100
AcDbEntity
  8
ZUWAKU
  6
CONTINUOUS
 62
      43
100
AcDbLine
 10
-91.5625
 20
-86.87054329
 30
0.0
 11
92.875
 21
-86.87054329
 31
0.0
  0
ELLIPSE
  5
296
100
AcDbEntity
  8
ZUWAKU
  6
CONTINUOUS
 62
      43
100
AcDbEllipse
 10
-77.34375
 20
140.90849436
 30
0.0
 11
-12.78125
 21
0.0
 31
0.0
210
0.0
220
0.0
230
1.0
 40
0.40365317
 41
0.0
 42
6.2831853071796004
  0
LINE
  5
297
100
AcDbEntity
  8
ZUWAKU
  6
CONTINUOUS
 62
      43
100
AcDbLine
 10
-87.625
 20
143.37945671
 30
0.0
 11
-87.625
 21
138.50445671
 31
0.0
  0
LINE
  5
298
100
AcDbEntity
  8
ZUWAKU
  6
CONTINUOUS
 62
      43
100
AcDbLine
 10
-67.0
 20
143.37945671
 30
0.0
 11
-67.0
 21
138.50445671
 31
0.0
  0
LINE
  5
299
100
AcDbEntity
  8
ZUWAKU
  6
CONTINUOUS
 62
      43
100
AcDbLine
 10
-87.625
 20
143.37945671
 30
0.0
 11
-67.0
 21
143.37945671
 31
0.0
  0
LINE
  5
29A
100
AcDbEntity
  8
ZUWAKU
  6
CONTINUOUS
 62
      43
100
AcDbLine
 10
-87.625
 20
138.50445671
 30
0.0
 11
-67.0
 21
138.50445671
 31
0.0
  0
LINE
  5
29B
100
AcDbEntity
  8
ZUWAKU
  6
CONTINUOUS
 62
      43
100
AcDbLine
 10
-78.61760178
 20
146.04199875
 30
0.0
 11
-81.28014383
 21
143.37945671
 31
0.0
  0
LINE
  5
29C
100
AcDbEntity
  8
ZUWAKU
  6
CONTINUOUS
 62
      43
100
AcDbLine
 10
-78.91383163
 20
146.02861161
 30
0.0
 11
-81.56298654
 21
143.37945671
 31
0.0
  0
LINE
  5
29D
100
AcDbEntity
  8
ZUWAKU
  6
CONTINUOUS
 62
      43
100
AcDbLine
 10
-79.213077
 20
146.01220896
 30
0.0
 11
-81.84582925
 21
143.37945671
 31
0.0
  0
LINE
  5
29E
100
AcDbEntity
  8
ZUWAKU
  6
CONTINUOUS
 62
      43
100
AcDbLine
 10
-79.51546251
 20
145.99266616
 30
0.0
 11
-82.12867197
 21
143.37945671
 31
0.0
  0
LINE
  5
29F
100
AcDbEntity
  8
ZUWAKU
  6
CONTINUOUS
 62
      43
100
AcDbLine
 10
-79.82112734
 20
145.96984405
 30
0.0
 11
-82.41151468
 21
143.37945671
 31
0.0
  0
LINE
  5
2A0
100
AcDbEntity
  8
ZUWAKU
  6
CONTINUOUS
 62
      43
100
AcDbLine
 10
-80.13022743
 20
145.94358667
 30
0.0
 11
-82.69435739
 21
143.37945671
 31
0.0
  0
LINE
  5
2A1
100
AcDbEntity
  8
ZUWAKU
  6
CONTINUOUS
 62
      43
100
AcDbLine
 10
-80.44293826
 20
145.91371855
 30
0.0
 11
-82.9772001
 21
143.37945671
 31
0.0
  0
LINE
  5
2A2
100
AcDbEntity
  8
ZUWAKU
  6
CONTINUOUS
 62
      43
100
AcDbLine
 10
-80.75945811
 20
145.88004141
 30
0.0
 11
-83.26004282
 21
143.37945671
 31
0.0
  0
LINE
  5
2A3
100
AcDbEntity
  8
ZUWAKU
  6
CONTINUOUS
 62
      43
100
AcDbLine
 10
-81.08001221
 20
145.84233002
 30
0.0
 11
-83.54288553
 21
143.37945671
 31
0.0
  0
LINE
  5
2A4
100
AcDbEntity
  8
ZUWAKU
  6
CONTINUOUS
 62
      43
100
AcDbLine
 10
-81.40485788
 20
145.80032707
 30
0.0
 11
-83.82572824
 21
143.37945671
 31
0.0
  0
LINE
  5
2A5
100
AcDbEntity
  8
ZUWAKU
  6
CONTINUOUS
 62
      43
100
AcDbLine
 10
-81.73429105
 20
145.75373661
 30
0.0
 11
-84.10857095
 21
143.37945671
 31
0.0
  0
LINE
  5
2A6
100
AcDbEntity
  8
ZUWAKU
  6
CONTINUOUS
 62
      43
100
AcDbLine
 10
-82.06865465
 20
145.70221572
 30
0.0
 11
-84.39141367
 21
143.37945671
 31
0.0
  0
LINE
  5
2A7
100
AcDbEntity
  8
ZUWAKU
  6
CONTINUOUS
 62
      43
100
AcDbLine
 10
-82.40834946
 20
145.64536362
 30
0.0
 11
-84.67425638
 21
143.37945671
 31
0.0
  0
LINE
  5
2A8
100
AcDbEntity
  8
ZUWAKU
  6
CONTINUOUS
 62
      43
100
AcDbLine
 10
-82.75384861
 20
145.58270719
 30
0.0
 11
-84.95709909
 21
143.37945671
 31
0.0
  0
LINE
  5
2A9
100
AcDbEntity
  8
ZUWAKU
  6
CONTINUOUS
 62
      43
100
AcDbLine
 10
-83.10571698
 20
145.51368153
 30
0.0
 11
-85.2399418
 21
143.37945671
 31
0.0
  0
LINE
  5
2AA
100
AcDbEntity
  8
ZUWAKU
  6
CONTINUOUS
 62
      43
100
AcDbLine
 10
-87.625
 20
140.99439851
 30
0.0
 11
-87.6774418
 21
140.94195671
 31
0.0
  0
LINE
  5
2AB
100
AcDbEntity
  8
ZUWAKU
  6
CONTINUOUS
 62
      43
100
AcDbLine
 10
-83.46463811
 20
145.43760311
 30
0.0
 11
-85.52278452
 21
143.37945671
 31
0.0
  0
LINE
  5
2AC
100
AcDbEntity
  8
ZUWAKU
  6
CONTINUOUS
 62
      43
100
AcDbLine
 10
-87.625
 20
141.27724122
 30
0.0
 11
-87.96028452
 21
140.94195671
 31
0.0
  0
LINE
  5
2AD
100
AcDbEntity
  8
ZUWAKU
  6
CONTINUOUS
 62
      43
100
AcDbLine
 10
-83.83145221
 20
145.35363173
 30
0.0
 11
-85.80562723
 21
143.37945671
 31
0.0
  0
LINE
  5
2AE
100
AcDbEntity
  8
ZUWAKU
  6
CONTINUOUS
 62
      43
100
AcDbLine
 10
-87.625
 20
141.56008393
 30
0.0
 11
-88.24312723
 21
140.94195671
 31
0.0
  0
LINE
  5
2AF
100
AcDbEntity
  8
ZUWAKU
  6
CONTINUOUS
 62
      43
100
AcDbLine
 10
-84.20721153
 20
145.26071512
 30
0.0
 11
-86.08846994
 21
143.37945671
 31
0.0
  0
LINE
  5
2B0
100
AcDbEntity
  8
ZUWAKU
  6
CONTINUOUS
 62
      43
100
AcDbLine
 10
-87.625
 20
141.84292665
 30
0.0
 11
-88.52596994
 21
140.94195671
 31
0.0
  0
LINE
  5
2B1
100
AcDbEntity
  8
ZUWAKU
  6
CONTINUOUS
 62
      43
100
AcDbLine
 10
-84.59326409
 20
145.15750527
 30
0.0
 11
-86.37131265
 21
143.37945671
 31
0.0
  0
LINE
  5
2B2
100
AcDbEntity
  8
ZUWAKU
  6
CONTINUOUS
 62
      43
100
AcDbLine
 10
-87.625
 20
142.12576936
 30
0.0
 11
-88.80881265
 21
140.94195671
 31
0.0
  0
LINE
  5
2B3
100
AcDbEntity
  8
ZUWAKU
  6
CONTINUOUS
 62
      43
100
AcDbLine
 10
-84.99138558
 20
145.04222649
 30
0.0
 11
-86.65415537
 21
143.37945671
 31
0.0
  0
LINE
  5
2B4
100
AcDbEntity
  8
ZUWAKU
  6
CONTINUOUS
 62
      43
100
AcDbLine
 10
-87.625
 20
142.40861207
 30
0.0
 11
-89.09165537
 21
140.94195671
 31
0.0
  0
LINE
  5
2B5
100
AcDbEntity
  8
ZUWAKU
  6
CONTINUOUS
 62
      43
100
AcDbLine
 10
-85.40399891
 20
144.91245588
 30
0.0
 11
-86.93699808
 21
143.37945671
 31
0.0
  0
LINE
  5
2B6
100
AcDbEntity
  8
ZUWAKU
  6
CONTINUOUS
 62
      43
100
AcDbLine
 10
-87.625
 20
142.69145478
 30
0.0
 11
-89.37449808
 21
140.94195671
 31
0.0
  0
LINE
  5
2B7
100
AcDbEntity
  8
ZUWAKU
  6
CONTINUOUS
 62
      43
100
AcDbLine
 10
-85.83456482
 20
144.76473268
 30
0.0
 11
-87.21984079
 21
143.37945671
 31
0.0
  0
LINE
  5
2B8
100
AcDbEntity
  8
ZUWAKU
  6
CONTINUOUS
 62
      43
100
AcDbLine
 10
-87.625
 20
142.9742975
 30
0.0
 11
-89.65734079
 21
140.94195671
 31
0.0
  0
LINE
  5
2B9
100
AcDbEntity
  8
ZUWAKU
  6
CONTINUOUS
 62
      43
100
AcDbLine
 10
-86.28834311
 20
144.5937971
 30
0.0
 11
-87.5026835
 21
143.37945671
 31
0.0
  0
LINE
  5
2BA
100
AcDbEntity
  8
ZUWAKU
  6
CONTINUOUS
 62
      43
100
AcDbLine
 10
-87.625
 20
143.25714021
 30
0.0
 11
-89.9401835
 21
140.94195671
 31
0.0
  0
LINE
  5
2BB
100
AcDbEntity
  8
ZUWAKU
  6
CONTINUOUS
 62
      43
100
AcDbLine
 10
-86.77407421
 20
144.39090871
 30
0.0
 11
-90.12056335
 21
141.04441957
 31
0.0
  0
LINE
  5
2BC
100
AcDbEntity
  8
ZUWAKU
  6
CONTINUOUS
 62
      43
100
AcDbLine
 10
-87.30847777
 20
144.13934786
 30
0.0
 11
-90.07258851
 21
141.37523712
 31
0.0
  0
LINE
  5
2BD
100
AcDbEntity
  8
ZUWAKU
  6
CONTINUOUS
 62
      43
100
AcDbLine
 10
-87.9331825
 20
143.79748585
 30
0.0
 11
-89.93431252
 21
141.79635583
 31
0.0
  0
LINE
  5
2BE
100
AcDbEntity
  8
ZUWAKU
  6
CONTINUOUS
 62
      43
100
AcDbLine
 10
-88.90694842
 20
143.10656264
 30
0.0
 11
-89.44697533
 21
142.56653573
 31
0.0
  0
LINE
  5
2BF
100
AcDbEntity
  8
ZUWAKU
  6
CONTINUOUS
 62
      43
100
AcDbLine
 10
-78.32427555
 20
146.05248227
 30
0.0
 11
-80.99730112
 21
143.37945671
 31
0.0
  0
LINE
  5
2C0
100
AcDbEntity
  8
ZUWAKU
  6
CONTINUOUS
 62
      43
100
AcDbLine
 10
-78.0337522
 20
146.06016291
 30
0.0
 11
-80.7144584
 21
143.37945671
 31
0.0
  0
LINE
  5
2C1
100
AcDbEntity
  8
ZUWAKU
  6
CONTINUOUS
 62
      43
100
AcDbLine
 10
-77.74594086
 20
146.06513154
 30
0.0
 11
-80.43161569
 21
143.37945671
 31
0.0
  0
LINE
  5
2C2
100
AcDbEntity
  8
ZUWAKU
  6
CONTINUOUS
 62
      43
100
AcDbLine
 10
-77.46075943
 20
146.06747026
 30
0.0
 11
-80.14877298
 21
143.37945671
 31
0.0
  0
LINE
  5
2C3
100
AcDbEntity
  8
ZUWAKU
  6
CONTINUOUS
 62
      43
100
AcDbLine
 10
-77.17813365
 20
146.06725332
 30
0.0
 11
-79.86593027
 21
143.37945671
 31
0.0
  0
LINE
  5
2C4
100
AcDbEntity
  8
ZUWAKU
  6
CONTINUOUS
 62
      43
100
AcDbLine
 10
-76.89799634
 20
146.06454792
 30
0.0
 11
-79.58308755
 21
143.37945671
 31
0.0
  0
LINE
  5
2C5
100
AcDbEntity
  8
ZUWAKU
  6
CONTINUOUS
 62
      43
100
AcDbLine
 10
-76.62028663
 20
146.05941492
 30
0.0
 11
-79.30024484
 21
143.37945671
 31
0.0
  0
LINE
  5
2C6
100
AcDbEntity
  8
ZUWAKU
  6
CONTINUOUS
 62
      43
100
AcDbLine
 10
-76.34494947
 20
146.05190936
 30
0.0
 11
-79.01740213
 21
143.37945671
 31
0.0
  0
LINE
  5
2C7
100
AcDbEntity
  8
ZUWAKU
  6
CONTINUOUS
 62
      43
100
AcDbLine
 10
-76.07193508
 20
146.04208104
 30
0.0
 11
-78.73455942
 21
143.37945671
 31
0.0
  0
LINE
  5
2C8
100
AcDbEntity
  8
ZUWAKU
  6
CONTINUOUS
 62
      43
100
AcDbLine
 10
-75.80119851
 20
146.0299749
 30
0.0
 11
-78.4517167
 21
143.37945671
 31
0.0
  0
LINE
  5
2C9
100
AcDbEntity
  8
ZUWAKU
  6
CONTINUOUS
 62
      43
100
AcDbLine
 10
-75.53269928
 20
146.01563142
 30
0.0
 11
-78.16887399
 21
143.37945671
 31
0.0
  0
LINE
  5
2CA
100
AcDbEntity
  8
ZUWAKU
  6
CONTINUOUS
 62
      43
100
AcDbLine
 10
-75.26640102
 20
145.99908696
 30
0.0
 11
-77.88603128
 21
143.37945671
 31
0.0
  0
LINE
  5
2CB
100
AcDbEntity
  8
ZUWAKU
  6
CONTINUOUS
 62
      43
100
AcDbLine
 10
-75.00227124
 20
145.98037403
 30
0.0
 11
-77.60318857
 21
143.37945671
 31
0.0
  0
LINE
  5
2CC
100
AcDbEntity
  8
ZUWAKU
  6
CONTINUOUS
 62
      43
100
AcDbLine
 10
-74.74028103
 20
145.95952153
 30
0.0
 11
-77.32034585
 21
143.37945671
 31
0.0
  0
LINE
  5
2CD
100
AcDbEntity
  8
ZUWAKU
  6
CONTINUOUS
 62
      43
100
AcDbLine
 10
-74.48040489
 20
145.93655495
 30
0.0
 11
-77.03750314
 21
143.37945671
 31
0.0
  0
LINE
  5
2CE
100
AcDbEntity
  8
ZUWAKU
  6
CONTINUOUS
 62
      43
100
AcDbLine
 10
-74.22262053
 20
145.91149661
 30
0.0
 11
-76.75466043
 21
143.37945671
 31
0.0
  0
LINE
  5
2CF
100
AcDbEntity
  8
ZUWAKU
  6
CONTINUOUS
 62
      43
100
AcDbLine
 10
-73.96690869
 20
145.88436573
 30
0.0
 11
-76.47181772
 21
143.37945671
 31
0.0
  0
LINE
  5
2D0
100
AcDbEntity
  8
ZUWAKU
  6
CONTINUOUS
 62
      43
100
AcDbLine
 10
-73.71325307
 20
145.85517864
 30
0.0
 11
-76.188975
 21
143.37945671
 31
0.0
  0
LINE
  5
2D1
100
AcDbEntity
  8
ZUWAKU
  6
CONTINUOUS
 62
      43
100
AcDbLine
 10
-73.46164015
 20
145.82394884
 30
0.0
 11
-75.90613229
 21
143.37945671
 31
0.0
  0
LINE
  5
2D2
100
AcDbEntity
  8
ZUWAKU
  6
CONTINUOUS
 62
      43
100
AcDbLine
 10
-73.21205918
 20
145.79068711
 30
0.0
 11
-75.62328958
 21
143.37945671
 31
0.0
  0
LINE
  5
2D3
100
AcDbEntity
  8
ZUWAKU
  6
CONTINUOUS
 62
      43
100
AcDbLine
 10
-72.96450203
 20
145.75540155
 30
0.0
 11
-75.34044687
 21
143.37945671
 31
0.0
  0
LINE
  5
2D4
100
AcDbEntity
  8
ZUWAKU
  6
CONTINUOUS
 62
      43
100
AcDbLine
 10
-72.71896319
 20
145.71809768
 30
0.0
 11
-75.05760415
 21
143.37945671
 31
0.0
  0
LINE
  5
2D5
100
AcDbEntity
  8
ZUWAKU
  6
CONTINUOUS
 62
      43
100
AcDbLine
 10
-72.47543971
 20
145.67877844
 30
0.0
 11
-74.77476144
 21
143.37945671
 31
0.0
  0
LINE
  5
2D6
100
AcDbEntity
  8
ZUWAKU
  6
CONTINUOUS
 62
      43
100
AcDbLine
 10
-72.23393121
 20
145.63744422
 30
0.0
 11
-74.49191873
 21
143.37945671
 31
0.0
  0
LINE
  5
2D7
100
AcDbEntity
  8
ZUWAKU
  6
CONTINUOUS
 62
      43
100
AcDbLine
 10
-71.99443985
 20
145.59409287
 30
0.0
 11
-74.20907602
 21
143.37945671
 31
0.0
  0
LINE
  5
2D8
100
AcDbEntity
  8
ZUWAKU
  6
CONTINUOUS
 62
      43
100
AcDbLine
 10
-71.75697034
 20
145.54871967
 30
0.0
 11
-73.9262333
 21
143.37945671
 31
0.0
  0
LINE
  5
2D9
100
AcDbEntity
  8
ZUWAKU
  6
CONTINUOUS
 62
      43
100
AcDbLine
 10
-71.52153
 20
145.5013173
 30
0.0
 11
-73.64339059
 21
143.37945671
 31
0.0
  0
LINE
  5
2DA
100
AcDbEntity
  8
ZUWAKU
  6
CONTINUOUS
 62
      43
100
AcDbLine
 10
-71.28812878
 20
145.4518758
 30
0.0
 11
-73.36054788
 21
143.37945671
 31
0.0
  0
LINE
  5
2DB
100
AcDbEntity
  8
ZUWAKU
  6
CONTINUOUS
 62
      43
100
AcDbLine
 10
-71.05677934
 20
145.40038254
 30
0.0
 11
-73.07770517
 21
143.37945671
 31
0.0
  0
LINE
  5
2DC
100
AcDbEntity
  8
ZUWAKU
  6
CONTINUOUS
 62
      43
100
AcDbLine
 10
-70.82749711
 20
145.34682205
 30
0.0
 11
-72.79486245
 21
143.37945671
 31
0.0
  0
LINE
  5
2DD
100
AcDbEntity
  8
ZUWAKU
  6
CONTINUOUS
 62
      43
100
AcDbLine
 10
-70.60030043
 20
145.29117602
 30
0.0
 11
-72.51201974
 21
143.37945671
 31
0.0
  0
LINE
  5
2DE
100
AcDbEntity
  8
ZUWAKU
  6
CONTINUOUS
 62
      43
100
AcDbLine
 10
-70.37521064
 20
145.23342309
 30
0.0
 11
-72.22917703
 21
143.37945671
 31
0.0
  0
LINE
  5
2DF
100
AcDbEntity
  8
ZUWAKU
  6
CONTINUOUS
 62
      43
100
AcDbLine
 10
-70.15225225
 20
145.17353877
 30
0.0
 11
-71.94633432
 21
143.37945671
 31
0.0
  0
LINE
  5
2E0
100
AcDbEntity
  8
ZUWAKU
  6
CONTINUOUS
 62
      43
100
AcDbLine
 10
-69.9314531
 20
145.11149521
 30
0.0
 11
-71.6634916
 21
143.37945671
 31
0.0
  0
LINE
  5
2E1
100
AcDbEntity
  8
ZUWAKU
  6
CONTINUOUS
 62
      43
100
AcDbLine
 10
-69.71284455
 20
145.04726105
 30
0.0
 11
-71.38064889
 21
143.37945671
 31
0.0
  0
LINE
  5
2E2
100
AcDbEntity
  8
ZUWAKU
  6
CONTINUOUS
 62
      43
100
AcDbLine
 10
-69.49646176
 20
144.98080113
 30
0.0
 11
-71.09780618
 21
143.37945671
 31
0.0
  0
LINE
  5
2E3
100
AcDbEntity
  8
ZUWAKU
  6
CONTINUOUS
 62
      43
100
AcDbLine
 10
-69.2823439
 20
144.91207627
 30
0.0
 11
-70.81496347
 21
143.37945671
 31
0.0
  0
LINE
  5
2E4
100
AcDbEntity
  8
ZUWAKU
  6
CONTINUOUS
 62
      43
100
AcDbLine
 10
-69.07053452
 20
144.84104294
 30
0.0
 11
-70.53212075
 21
143.37945671
 31
0.0
  0
LINE
  5
2E5
100
AcDbEntity
  8
ZUWAKU
  6
CONTINUOUS
 62
      43
100
AcDbLine
 10
-68.86108188
 20
144.76765287
 30
0.0
 11
-70.24927804
 21
143.37945671
 31
0.0
  0
LINE
  5
2E6
100
AcDbEntity
  8
ZUWAKU
  6
CONTINUOUS
 62
      43
100
AcDbLine
 10
-68.65403936
 20
144.69185267
 30
0.0
 11
-69.96643533
 21
143.37945671
 31
0.0
  0
LINE
  5
2E7
100
AcDbEntity
  8
ZUWAKU
  6
CONTINUOUS
 62
      43
100
AcDbLine
 10
-68.44946598
 20
144.61358334
 30
0.0
 11
-69.68359262
 21
143.37945671
 31
0.0
  0
LINE
  5
2E8
100
AcDbEntity
  8
ZUWAKU
  6
CONTINUOUS
 62
      43
100
AcDbLine
 10
-68.24742692
 20
144.53277969
 30
0.0
 11
-69.4007499
 21
143.37945671
 31
0.0
  0
LINE
  5
2E9
100
AcDbEntity
  8
ZUWAKU
  6
CONTINUOUS
 62
      43
100
AcDbLine
 10
-68.0479942
 20
144.4493697
 30
0.0
 11
-69.11790719
 21
143.37945671
 31
0.0
  0
LINE
  5
2EA
100
AcDbEntity
  8
ZUWAKU
  6
CONTINUOUS
 62
      43
100
AcDbLine
 10
-67.8512474
 20
144.36327378
 30
0.0
 11
-68.83506448
 21
143.37945671
 31
0.0
  0
LINE
  5
2EB
100
AcDbEntity
  8
ZUWAKU
  6
CONTINUOUS
 62
      43
100
AcDbLine
 10
-67.65727461
 20
144.27440386
 30
0.0
 11
-68.55222177
 21
143.37945671
 31
0.0
  0
LINE
  5
2EC
100
AcDbEntity
  8
ZUWAKU
  6
CONTINUOUS
 62
      43
100
AcDbLine
 10
-67.4661734
 20
144.18266236
 30
0.0
 11
-68.26937906
 21
143.37945671
 31
0.0
  0
LINE
  5
2ED
100
AcDbEntity
  8
ZUWAKU
  6
CONTINUOUS
 62
      43
100
AcDbLine
 10
-67.27805209
 20
144.08794095
 30
0.0
 11
-67.98653634
 21
143.37945671
 31
0.0
  0
LINE
  5
2EE
100
AcDbEntity
  8
ZUWAKU
  6
CONTINUOUS
 62
      43
100
AcDbLine
 10
-67.09303124
 20
143.9901191
 30
0.0
 11
-67.70369363
 21
143.37945671
 31
0.0
  0
LINE
  5
2EF
100
AcDbEntity
  8
ZUWAKU
  6
CONTINUOUS
 62
      43
100
AcDbLine
 10
-66.91124531
 20
143.88906231
 30
0.0
 11
-67.42085092
 21
143.37945671
 31
0.0
  0
LINE
  5
2F0
100
AcDbEntity
  8
ZUWAKU
  6
CONTINUOUS
 62
      43
100
AcDbLine
 10
-66.73284486
 20
143.78462005
 30
0.0
 11
-67.13800821
 21
143.37945671
 31
0.0
  0
LINE
  5
2F1
100
AcDbEntity
  8
ZUWAKU
  6
CONTINUOUS
 62
      43
100
AcDbLine
 10
-66.55799905
 20
143.67662315
 30
0.0
 11
-67.0
 21
143.2346222
 31
0.0
  0
LINE
  5
2F2
100
AcDbEntity
  8
ZUWAKU
  6
CONTINUOUS
 62
      43
100
AcDbLine
 10
-66.38689876
 20
143.56488073
 30
0.0
 11
-67.0
 21
142.95177949
 31
0.0
  0
LINE
  5
2F3
100
AcDbEntity
  8
ZUWAKU
  6
CONTINUOUS
 62
      43
100
AcDbLine
 10
-66.21976046
 20
143.44917632
 30
0.0
 11
-67.0
 21
142.66893677
 31
0.0
  0
LINE
  5
2F4
100
AcDbEntity
  8
ZUWAKU
  6
CONTINUOUS
 62
      43
100
AcDbLine
 10
-66.05683099
 20
143.32926307
 30
0.0
 11
-67.0
 21
142.38609406
 31
0.0
  0
LINE
  5
2F5
100
AcDbEntity
  8
ZUWAKU
  6
CONTINUOUS
 62
      43
100
AcDbLine
 10
-65.89839365
 20
143.2048577
 30
0.0
 11
-67.0
 21
142.10325135
 31
0.0
  0
LINE
  5
2F6
100
AcDbEntity
  8
ZUWAKU
  6
CONTINUOUS
 62
      43
100
AcDbLine
 10
-65.74477592
 20
143.07563271
 30
0.0
 11
-67.0
 21
141.82040864
 31
0.0
  0
LINE
  5
2F7
100
AcDbEntity
  8
ZUWAKU
  6
CONTINUOUS
 62
      43
100
AcDbLine
 10
-65.59635949
 20
142.94120644
 30
0.0
 11
-67.0
 21
141.53756592
 31
0.0
  0
LINE
  5
2F8
100
AcDbEntity
  8
ZUWAKU
  6
CONTINUOUS
 62
      43
100
AcDbLine
 10
-65.45359347
 20
142.80112974
 30
0.0
 11
-67.0
 21
141.25472321
 31
0.0
  0
LINE
  5
2F9
100
AcDbEntity
  8
ZUWAKU
  6
CONTINUOUS
 62
      43
100
AcDbLine
 10
-65.31701214
 20
142.65486836
 30
0.0
 11
-67.0
 21
140.9718805
 31
0.0
  0
LINE
  5
2FA
100
AcDbEntity
  8
ZUWAKU
  6
CONTINUOUS
 62
      43
100
AcDbLine
 10
-65.18725921
 20
142.50177858
 30
0.0
 11
-66.74708108
 21
140.94195671
 31
0.0
  0
LINE
  5
2FB
100
AcDbEntity
  8
ZUWAKU
  6
CONTINUOUS
 62
      43
100
AcDbLine
 10
-65.06512186
 20
142.34107321
 30
0.0
 11
-66.46423837
 21
140.94195671
 31
0.0
  0
LINE
  5
2FC
100
AcDbEntity
  8
ZUWAKU
  6
CONTINUOUS
 62
      43
100
AcDbLine
 10
-64.95158
 20
142.17177236
 30
0.0
 11
-66.18139566
 21
140.94195671
 31
0.0
  0
LINE
  5
2FD
100
AcDbEntity
  8
ZUWAKU
  6
CONTINUOUS
 62
      43
100
AcDbLine
 10
-64.84787961
 20
141.99263004
 30
0.0
 11
-65.89855294
 21
140.94195671
 31
0.0
  0
LINE
  5
2FE
100
AcDbEntity
  8
ZUWAKU
  6
CONTINUOUS
 62
      43
100
AcDbLine
 10
-64.75564696
 20
141.80201998
 30
0.0
 11
-65.61571023
 21
140.94195671
 31
0.0
  0
LINE
  5
2FF
100
AcDbEntity
  8
ZUWAKU
  6
CONTINUOUS
 62
      43
100
AcDbLine
 10
-64.67707514
 20
141.59774909
 30
0.0
 11
-65.33286752
 21
140.94195671
 31
0.0
  0
LINE
  5
300
100
AcDbEntity
  8
ZUWAKU
  6
CONTINUOUS
 62
      43
100
AcDbLine
 10
-64.61524864
 20
141.37673287
 30
0.0
 11
-65.05002481
 21
140.94195671
 31
0.0
  0
LINE
  5
301
100
AcDbEntity
  8
ZUWAKU
  6
CONTINUOUS
 62
      43
100
AcDbLine
 10
-64.5747567
 20
141.1343821
 30
0.0
 11
-64.76718209
 21
140.94195671
 31
0.0
  0
LINE
  5
302
100
AcDbEntity
  8
ZUWAKU
  6
CONTINUOUS
 62
      43
100
AcDbLine
 10
-73.37389412
 20
138.50445671
 30
0.0
 11
-76.10475052
 21
135.77360031
 31
0.0
  0
LINE
  5
303
100
AcDbEntity
  8
ZUWAKU
  6
CONTINUOUS
 62
      43
100
AcDbLine
 10
-73.65673684
 20
138.50445671
 30
0.0
 11
-76.3977401
 21
135.76345344
 31
0.0
  0
LINE
  5
304
100
AcDbEntity
  8
ZUWAKU
  6
CONTINUOUS
 62
      43
100
AcDbLine
 10
-73.93957955
 20
138.50445671
 30
0.0
 11
-76.68793804
 21
135.75609821
 31
0.0
  0
LINE
  5
305
100
AcDbEntity
  8
ZUWAKU
  6
CONTINUOUS
 62
      43
100
AcDbLine
 10
-74.22242226
 20
138.50445671
 30
0.0
 11
-76.97543412
 21
135.75144484
 31
0.0
  0
LINE
  5
306
100
AcDbEntity
  8
ZUWAKU
  6
CONTINUOUS
 62
      43
100
AcDbLine
 10
-74.50526497
 20
138.50445671
 30
0.0
 11
-77.26030947
 21
135.74941221
 31
0.0
  0
LINE
  5
307
100
AcDbEntity
  8
ZUWAKU
  6
CONTINUOUS
 62
      43
100
AcDbLine
 10
-74.78810769
 20
138.50445671
 30
0.0
 11
-77.54263746
 21
135.74992693
 31
0.0
  0
LINE
  5
308
100
AcDbEntity
  8
ZUWAKU
  6
CONTINUOUS
 62
      43
100
AcDbLine
 10
-75.0709504
 20
138.50445671
 30
0.0
 11
-77.82248452
 21
135.75292259
 31
0.0
  0
LINE
  5
309
100
AcDbEntity
  8
ZUWAKU
  6
CONTINUOUS
 62
      43
100
AcDbLine
 10
-75.35379311
 20
138.50445671
 30
0.0
 11
-78.09991077
 21
135.75833905
 31
0.0
  0
LINE
  5
30A
100
AcDbEntity
  8
ZUWAKU
  6
CONTINUOUS
 62
      43
100
AcDbLine
 10
-75.63663582
 20
138.50445671
 30
0.0
 11
-78.37497062
 21
135.76612191
 31
0.0
  0
LINE
  5
30B
100
AcDbEntity
  8
ZUWAKU
  6
CONTINUOUS
 62
      43
100
AcDbLine
 10
-75.91947854
 20
138.50445671
 30
0.0
 11
-78.64771327
 21
135.77622197
 31
0.0
  0
LINE
  5
30C
100
AcDbEntity
  8
ZUWAKU
  6
CONTINUOUS
 62
      43
100
AcDbLine
 10
-76.20232125
 20
138.50445671
 30
0.0
 11
-78.91818312
 21
135.78859484
 31
0.0
  0
LINE
  5
30D
100
AcDbEntity
  8
ZUWAKU
  6
CONTINUOUS
 62
      43
100
AcDbLine
 10
-76.48516396
 20
138.50445671
 30
0.0
 11
-79.18642014
 21
135.80320053
 31
0.0
  0
LINE
  5
30E
100
AcDbEntity
  8
ZUWAKU
  6
CONTINUOUS
 62
      43
100
AcDbLine
 10
-76.76800667
 20
138.50445671
 30
0.0
 11
-79.45246023
 21
135.82000315
 31
0.0
  0
LINE
  5
30F
100
AcDbEntity
  8
ZUWAKU
  6
CONTINUOUS
 62
      43
100
AcDbLine
 10
-77.05084939
 20
138.50445671
 30
0.0
 11
-79.71633544
 21
135.83897065
 31
0.0
  0
LINE
  5
310
100
AcDbEntity
  8
ZUWAKU
  6
CONTINUOUS
 62
      43
100
AcDbLine
 10
-77.3336921
 20
138.50445671
 30
0.0
 11
-79.97807427
 21
135.86007454
 31
0.0
  0
LINE
  5
311
100
AcDbEntity
  8
ZUWAKU
  6
CONTINUOUS
 62
      43
100
AcDbLine
 10
-77.61653481
 20
138.50445671
 30
0.0
 11
-80.23770183
 21
135.88328969
 31
0.0
  0
LINE
  5
312
100
AcDbEntity
  8
ZUWAKU
  6
CONTINUOUS
 62
      43
100
AcDbLine
 10
-77.89937752
 20
138.50445671
 30
0.0
 11
-80.49524005
 21
135.90859418
 31
0.0
  0
LINE
  5
313
100
AcDbEntity
  8
ZUWAKU
  6
CONTINUOUS
 62
      43
100
AcDbLine
 10
-78.18222024
 20
138.50445671
 30
0.0
 11
-80.75070783
 21
135.93596911
 31
0.0
  0
LINE
  5
314
100
AcDbEntity
  8
ZUWAKU
  6
CONTINUOUS
 62
      43
100
AcDbLine
 10
-78.46506295
 20
138.50445671
 30
0.0
 11
-81.00412113
 21
135.96539852
 31
0.0
  0
LINE
  5
315
100
AcDbEntity
  8
ZUWAKU
  6
CONTINUOUS
 62
      43
100
AcDbLine
 10
-78.74790566
 20
138.50445671
 30
0.0
 11
-81.25549314
 21
135.99686923
 31
0.0
  0
LINE
  5
316
100
AcDbEntity
  8
ZUWAKU
  6
CONTINUOUS
 62
      43
100
AcDbLine
 10
-79.03074837
 20
138.50445671
 30
0.0
 11
-81.50483431
 21
136.03037077
 31
0.0
  0
LINE
  5
317
100
AcDbEntity
  8
ZUWAKU
  6
CONTINUOUS
 62
      43
100
AcDbLine
 10
-79.31359109
 20
138.50445671
 30
0.0
 11
-81.75215244
 21
136.06589535
 31
0.0
  0
LINE
  5
318
100
AcDbEntity
  8
ZUWAKU
  6
CONTINUOUS
 62
      43
100
AcDbLine
 10
-79.5964338
 20
138.50445671
 30
0.0
 11
-81.99745274
 21
136.10343776
 31
0.0
  0
LINE
  5
319
100
AcDbEntity
  8
ZUWAKU
  6
CONTINUOUS
 62
      43
100
AcDbLine
 10
-79.87927651
 20
138.50445671
 30
0.0
 11
-82.24073786
 21
136.14299536
 31
0.0
  0
LINE
  5
31A
100
AcDbEntity
  8
ZUWAKU
  6
CONTINUOUS
 62
      43
100
AcDbLine
 10
-80.16211922
 20
138.50445671
 30
0.0
 11
-82.48200787
 21
136.18456806
 31
0.0
  0
LINE
  5
31B
100
AcDbEntity
  8
ZUWAKU
  6
CONTINUOUS
 62
      43
100
AcDbLine
 10
-80.44496194
 20
138.50445671
 30
0.0
 11
-82.72126033
 21
136.22815831
 31
0.0
  0
LINE
  5
31C
100
AcDbEntity
  8
ZUWAKU
  6
CONTINUOUS
 62
      43
100
AcDbLine
 10
-80.72780465
 20
138.50445671
 30
0.0
 11
-82.9584902
 21
136.27377115
 31
0.0
  0
LINE
  5
31D
100
AcDbEntity
  8
ZUWAKU
  6
CONTINUOUS
 62
      43
100
AcDbLine
 10
-81.01064736
 20
138.50445671
 30
0.0
 11
-83.19368987
 21
136.3214142
 31
0.0
  0
LINE
  5
31E
100
AcDbEntity
  8
ZUWAKU
  6
CONTINUOUS
 62
      43
100
AcDbLine
 10
-81.29349007
 20
138.50445671
 30
0.0
 11
-83.42684906
 21
136.37109772
 31
0.0
  0
LINE
  5
31F
100
AcDbEntity
  8
ZUWAKU
  6
CONTINUOUS
 62
      43
100
AcDbLine
 10
-81.57633279
 20
138.50445671
 30
0.0
 11
-83.6579548
 21
136.42283469
 31
0.0
  0
LINE
  5
320
100
AcDbEntity
  8
ZUWAKU
  6
CONTINUOUS
 62
      43
100
AcDbLine
 10
-81.8591755
 20
138.50445671
 30
0.0
 11
-83.8869913
 21
136.4766409
 31
0.0
  0
LINE
  5
321
100
AcDbEntity
  8
ZUWAKU
  6
CONTINUOUS
 62
      43
100
AcDbLine
 10
-82.14201821
 20
138.50445671
 30
0.0
 11
-84.11393989
 21
136.53253503
 31
0.0
  0
LINE
  5
322
100
AcDbEntity
  8
ZUWAKU
  6
CONTINUOUS
 62
      43
100
AcDbLine
 10
-82.42486092
 20
138.50445671
 30
0.0
 11
-84.33877886
 21
136.59053877
 31
0.0
  0
LINE
  5
323
100
AcDbEntity
  8
ZUWAKU
  6
CONTINUOUS
 62
      43
100
AcDbLine
 10
-82.70770364
 20
138.50445671
 30
0.0
 11
-84.56148331
 21
136.65067703
 31
0.0
  0
LINE
  5
324
100
AcDbEntity
  8
ZUWAKU
  6
CONTINUOUS
 62
      43
100
AcDbLine
 10
-82.99054635
 20
138.50445671
 30
0.0
 11
-84.782025
 21
136.71297805
 31
0.0
  0
LINE
  5
325
100
AcDbEntity
  8
ZUWAKU
  6
CONTINUOUS
 62
      43
100
AcDbLine
 10
-83.27338906
 20
138.50445671
 30
0.0
 11
-85.00037213
 21
136.77747363
 31
0.0
  0
LINE
  5
326
100
AcDbEntity
  8
ZUWAKU
  6
CONTINUOUS
 62
      43
100
AcDbLine
 10
-83.55623177
 20
138.50445671
 30
0.0
 11
-85.21648909
 21
136.84419939
 31
0.0
  0
LINE
  5
327
100
AcDbEntity
  8
ZUWAKU
  6
CONTINUOUS
 62
      43
100
AcDbLine
 10
-83.83907449
 20
138.50445671
 30
0.0
 11
-85.4303362
 21
136.91319499
 31
0.0
  0
LINE
  5
328
100
AcDbEntity
  8
ZUWAKU
  6
CONTINUOUS
 62
      43
100
AcDbLine
 10
-84.1219172
 20
138.50445671
 30
0.0
 11
-85.64186937
 21
136.98450454
 31
0.0
  0
LINE
  5
329
100
AcDbEntity
  8
ZUWAKU
  6
CONTINUOUS
 62
      43
100
AcDbLine
 10
-84.40475991
 20
138.50445671
 30
0.0
 11
-85.85103976
 21
137.05817686
 31
0.0
  0
LINE
  5
32A
100
AcDbEntity
  8
ZUWAKU
  6
CONTINUOUS
 62
      43
100
AcDbLine
 10
-84.68760262
 20
138.50445671
 30
0.0
 11
-86.05779335
 21
137.13426598
 31
0.0
  0
LINE
  5
32B
100
AcDbEntity
  8
ZUWAKU
  6
CONTINUOUS
 62
      43
100
AcDbLine
 10
-84.97044533
 20
138.50445671
 30
0.0
 11
-86.26207043
 21
137.21283162
 31
0.0
  0
LINE
  5
32C
100
AcDbEntity
  8
ZUWAKU
  6
CONTINUOUS
 62
      43
100
AcDbLine
 10
-85.25328805
 20
138.50445671
 30
0.0
 11
-86.46380503
 21
137.29393972
 31
0.0
  0
LINE
  5
32D
100
AcDbEntity
  8
ZUWAKU
  6
CONTINUOUS
 62
      43
100
AcDbLine
 10
-85.53613076
 20
138.50445671
 30
0.0
 11
-86.6629243
 21
137.37766317
 31
0.0
  0
LINE
  5
32E
100
AcDbEntity
  8
ZUWAKU
  6
CONTINUOUS
 62
      43
100
AcDbLine
 10
-85.81897347
 20
138.50445671
 30
0.0
 11
-86.85934767
 21
137.46408251
 31
0.0
  0
LINE
  5
32F
100
AcDbEntity
  8
ZUWAKU
  6
CONTINUOUS
 62
      43
100
AcDbLine
 10
-86.10181618
 20
138.50445671
 30
0.0
 11
-87.05298602
 21
137.55328687
 31
0.0
  0
LINE
  5
330
100
AcDbEntity
  8
ZUWAKU
  6
CONTINUOUS
 62
      43
100
AcDbLine
 10
-86.3846589
 20
138.50445671
 30
0.0
 11
-87.24374056
 21
137.64537505
 31
0.0
  0
LINE
  5
331
100
AcDbEntity
  8
ZUWAKU
  6
CONTINUOUS
 62
      43
100
AcDbLine
 10
-86.66750161
 20
138.50445671
 30
0.0
 11
-87.43150159
 21
137.74045672
 31
0.0
  0
LINE
  5
332
100
AcDbEntity
  8
ZUWAKU
  6
CONTINUOUS
 62
      43
100
AcDbLine
 10
-86.95034432
 20
138.50445671
 30
0.0
 11
-87.61614704
 21
137.83865399
 31
0.0
  0
LINE
  5
333
100
AcDbEntity
  8
ZUWAKU
  6
CONTINUOUS
 62
      43
100
AcDbLine
 10
-87.23318703
 20
138.50445671
 30
0.0
 11
-87.79754062
 21
137.94010312
 31
0.0
  0
LINE
  5
334
100
AcDbEntity
  8
ZUWAKU
  6
CONTINUOUS
 62
      43
100
AcDbLine
 10
-87.51602975
 20
138.50445671
 30
0.0
 11
-87.97552974
 21
138.04495671
 31
0.0
  0
LINE
  5
335
100
AcDbEntity
  8
ZUWAKU
  6
CONTINUOUS
 62
      43
100
AcDbLine
 10
-87.625
 20
138.67832917
 30
0.0
 11
-88.14994284
 21
138.15338633
 31
0.0
  0
LINE
  5
336
100
AcDbEntity
  8
ZUWAKU
  6
CONTINUOUS
 62
      43
100
AcDbLine
 10
-87.625
 20
138.96117188
 30
0.0
 11
-88.32058623
 21
138.26558565
 31
0.0
  0
LINE
  5
337
100
AcDbEntity
  8
ZUWAKU
  6
CONTINUOUS
 62
      43
100
AcDbLine
 10
-87.625
 20
139.24401459
 30
0.0
 11
-88.48724011
 21
138.38177448
 31
0.0
  0
LINE
  5
338
100
AcDbEntity
  8
ZUWAKU
  6
CONTINUOUS
 62
      43
100
AcDbLine
 10
-87.625
 20
139.5268573
 30
0.0
 11
-88.64965368
 21
138.50220362
 31
0.0
  0
LINE
  5
339
100
AcDbEntity
  8
ZUWAKU
  6
CONTINUOUS
 62
      43
100
AcDbLine
 10
-87.625
 20
139.80970002
 30
0.0
 11
-88.80753885
 21
138.62716117
 31
0.0
  0
LINE
  5
33A
100
AcDbEntity
  8
ZUWAKU
  6
CONTINUOUS
 62
      43
100
AcDbLine
 10
-87.625
 20
140.09254273
 30
0.0
 11
-88.96056231
 21
138.75698042
 31
0.0
  0
LINE
  5
33B
100
AcDbEntity
  8
ZUWAKU
  6
CONTINUOUS
 62
      43
100
AcDbLine
 10
-87.625
 20
140.37538544
 30
0.0
 11
-89.10833515
 21
138.89205029
 31
0.0
  0
LINE
  5
33C
100
AcDbEntity
  8
ZUWAKU
  6
CONTINUOUS
 62
      43
100
AcDbLine
 10
-87.625
 20
140.65822815
 30
0.0
 11
-89.2503992
 21
139.03282895
 31
0.0
  0
LINE
  5
33D
100
AcDbEntity
  8
ZUWAKU
  6
CONTINUOUS
 62
      43
100
AcDbLine
 10
-87.62411416
 20
140.94195671
 30
0.0
 11
-89.38620868
 21
139.17986218
 31
0.0
  0
LINE
  5
33E
100
AcDbEntity
  8
ZUWAKU
  6
CONTINUOUS
 62
      43
100
AcDbLine
 10
-87.90695687
 20
140.94195671
 30
0.0
 11
-89.51510491
 21
139.33380867
 31
0.0
  0
LINE
  5
33F
100
AcDbEntity
  8
ZUWAKU
  6
CONTINUOUS
 62
      43
100
AcDbLine
 10
-88.18979958
 20
140.94195671
 30
0.0
 11
-89.63628083
 21
139.49547546
 31
0.0
  0
LINE
  5
340
100
AcDbEntity
  8
ZUWAKU
  6
CONTINUOUS
 62
      43
100
AcDbLine
 10
-88.4726423
 20
140.94195671
 30
0.0
 11
-89.74872949
 21
139.66586951
 31
0.0
  0
LINE
  5
341
100
AcDbEntity
  8
ZUWAKU
  6
CONTINUOUS
 62
      43
100
AcDbLine
 10
-88.75548501
 20
140.94195671
 30
0.0
 11
-89.85116692
 21
139.8462748
 31
0.0
  0
LINE
  5
342
100
AcDbEntity
  8
ZUWAKU
  6
CONTINUOUS
 62
      43
100
AcDbLine
 10
-89.03832772
 20
140.94195671
 30
0.0
 11
-89.94191139
 21
140.03837304
 31
0.0
  0
LINE
  5
343
100
AcDbEntity
  8
ZUWAKU
  6
CONTINUOUS
 62
      43
100
AcDbLine
 10
-89.32117043
 20
140.94195671
 30
0.0
 11
-90.01868502
 21
140.24444212
 31
0.0
  0
LINE
  5
344
100
AcDbEntity
  8
ZUWAKU
  6
CONTINUOUS
 62
      43
100
AcDbLine
 10
-89.60401315
 20
140.94195671
 30
0.0
 11
-90.07826545
 21
140.4677044
 31
0.0
  0
LINE
  5
345
100
AcDbEntity
  8
ZUWAKU
  6
CONTINUOUS
 62
      43
100
AcDbLine
 10
-89.88685586
 20
140.94195671
 30
0.0
 11
-90.1158201
 21
140.71299246
 31
0.0
  0
LINE
  5
346
100
AcDbEntity
  8
ZUWAKU
  6
CONTINUOUS
 62
      43
100
AcDbLine
 10
-73.09105141
 20
138.50445671
 30
0.0
 11
-75.8088698
 21
135.78663831
 31
0.0
  0
LINE
  5
347
100
AcDbEntity
  8
ZUWAKU
  6
CONTINUOUS
 62
      43
100
AcDbLine
 10
-72.8082087
 20
138.50445671
 30
0.0
 11
-75.50998743
 21
135.80267797
 31
0.0
  0
LINE
  5
348
100
AcDbEntity
  8
ZUWAKU
  6
CONTINUOUS
 62
      43
100
AcDbLine
 10
-72.52536599
 20
138.50445671
 30
0.0
 11
-75.20798038
 21
135.82184231
 31
0.0
  0
LINE
  5
349
100
AcDbEntity
  8
ZUWAKU
  6
CONTINUOUS
 62
      43
100
AcDbLine
 10
-72.24252327
 20
138.50445671
 30
0.0
 11
-74.90271132
 21
135.84426866
 31
0.0
  0
LINE
  5
34A
100
AcDbEntity
  8
ZUWAKU
  6
CONTINUOUS
 62
      43
100
AcDbLine
 10
-71.95968056
 20
138.50445671
 30
0.0
 11
-74.59402639
 21
135.87011088
 31
0.0
  0
LINE
  5
34B
100
AcDbEntity
  8
ZUWAKU
  6
CONTINUOUS
 62
      43
100
AcDbLine
 10
-71.67683785
 20
138.50445671
 30
0.0
 11
-74.2817526
 21
135.89954195
 31
0.0
  0
LINE
  5
34C
100
AcDbEntity
  8
ZUWAKU
  6
CONTINUOUS
 62
      43
100
AcDbLine
 10
-71.39399514
 20
138.50445671
 30
0.0
 11
-73.96569457
 21
135.93275727
 31
0.0
  0
LINE
  5
34D
100
AcDbEntity
  8
ZUWAKU
  6
CONTINUOUS
 62
      43
100
AcDbLine
 10
-71.11115242
 20
138.50445671
 30
0.0
 11
-73.6456305
 21
135.96997863
 31
0.0
  0
LINE
  5
34E
100
AcDbEntity
  8
ZUWAKU
  6
CONTINUOUS
 62
      43
100
AcDbLine
 10
-70.82830971
 20
138.50445671
 30
0.0
 11
-73.32130717
 21
136.01145925
 31
0.0
  0
LINE
  5
34F
100
AcDbEntity
  8
ZUWAKU
  6
CONTINUOUS
 62
      43
100
AcDbLine
 10
-70.545467
 20
138.50445671
 30
0.0
 11
-72.99243362
 21
136.05749008
 31
0.0
  0
LINE
  5
350
100
AcDbEntity
  8
ZUWAKU
  6
CONTINUOUS
 62
      43
100
AcDbLine
 10
-70.26262429
 20
138.50445671
 30
0.0
 11
-72.658673
 21
136.10840799
 31
0.0
  0
LINE
  5
351
100
AcDbEntity
  8
ZUWAKU
  6
CONTINUOUS
 62
      43
100
AcDbLine
 10
-69.97978157
 20
138.50445671
 30
0.0
 11
-72.31963203
 21
136.16460625
 31
0.0
  0
LINE
  5
352
100
AcDbEntity
  8
ZUWAKU
  6
CONTINUOUS
 62
      43
100
AcDbLine
 10
-69.69693886
 20
138.50445671
 30
0.0
 11
-71.97484705
 21
136.22654852
 31
0.0
  0
LINE
  5
353
100
AcDbEntity
  8
ZUWAKU
  6
CONTINUOUS
 62
      43
100
AcDbLine
 10
-66.97659615
 20
140.94195671
 30
0.0
 11
-67.0
 21
140.91855286
 31
0.0
  0
LINE
  5
354
100
AcDbEntity
  8
ZUWAKU
  6
CONTINUOUS
 62
      43
100
AcDbLine
 10
-69.41409615
 20
138.50445671
 30
0.0
 11
-71.62376526
 21
136.2947876
 31
0.0
  0
LINE
  5
355
100
AcDbEntity
  8
ZUWAKU
  6
CONTINUOUS
 62
      43
100
AcDbLine
 10
-66.69375344
 20
140.94195671
 30
0.0
 11
-67.0
 21
140.63571014
 31
0.0
  0
LINE
  5
356
100
AcDbEntity
  8
ZUWAKU
  6
CONTINUOUS
 62
      43
100
AcDbLine
 10
-69.13125344
 20
138.50445671
 30
0.0
 11
-71.26571888
 21
136.36999127
 31
0.0
  0
LINE
  5
357
100
AcDbEntity
  8
ZUWAKU
  6
CONTINUOUS
 62
      43
100
AcDbLine
 10
-66.41091072
 20
140.94195671
 30
0.0
 11
-67.0
 21
140.35286743
 31
0.0
  0
LINE
  5
358
100
AcDbEntity
  8
ZUWAKU
  6
CONTINUOUS
 62
      43
100
AcDbLine
 10
-68.84841072
 20
138.50445671
 30
0.0
 11
-70.89988871
 21
136.45297872
 31
0.0
  0
LINE
  5
359
100
AcDbEntity
  8
ZUWAKU
  6
CONTINUOUS
 62
      43
100
AcDbLine
 10
-66.12806801
 20
140.94195671
 30
0.0
 11
-67.0
 21
140.07002472
 31
0.0
  0
LINE
  5
35A
100
AcDbEntity
  8
ZUWAKU
  6
CONTINUOUS
 62
      43
100
AcDbLine
 10
-68.56556801
 20
138.50445671
 30
0.0
 11
-70.52525127
 21
136.54477345
 31
0.0
  0
LINE
  5
35B
100
AcDbEntity
  8
ZUWAKU
  6
CONTINUOUS
 62
      43
100
AcDbLine
 10
-65.8452253
 20
140.94195671
 30
0.0
 11
-67.0
 21
139.78718201
 31
0.0
  0
LINE
  5
35C
100
AcDbEntity
  8
ZUWAKU
  6
CONTINUOUS
 62
      43
100
AcDbLine
 10
-68.2827253
 20
138.50445671
 30
0.0
 11
-70.14049923
 21
136.64668278
 31
0.0
  0
LINE
  5
35D
100
AcDbEntity
  8
ZUWAKU
  6
CONTINUOUS
 62
      43
100
AcDbLine
 10
-65.56238259
 20
140.94195671
 30
0.0
 11
-67.0
 21
139.50433929
 31
0.0
  0
LINE
  5
35E
100
AcDbEntity
  8
ZUWAKU
  6
CONTINUOUS
 62
      43
100
AcDbLine
 10
-67.99988259
 20
138.50445671
 30
0.0
 11
-69.74391669
 21
136.76042261
 31
0.0
  0
LINE
  5
35F
100
AcDbEntity
  8
ZUWAKU
  6
CONTINUOUS
 62
      43
100
AcDbLine
 10
-65.27953987
 20
140.94195671
 30
0.0
 11
-67.0
 21
139.22149658
 31
0.0
  0
LINE
  5
360
100
AcDbEntity
  8
ZUWAKU
  6
CONTINUOUS
 62
      43
100
AcDbLine
 10
-67.71703987
 20
138.50445671
 30
0.0
 11
-69.33317323
 21
136.88832335
 31
0.0
  0
LINE
  5
361
100
AcDbEntity
  8
ZUWAKU
  6
CONTINUOUS
 62
      43
100
AcDbLine
 10
-64.99669716
 20
140.94195671
 30
0.0
 11
-67.0
 21
138.93865387
 31
0.0
  0
LINE
  5
362
100
AcDbEntity
  8
ZUWAKU
  6
CONTINUOUS
 62
      43
100
AcDbLine
 10
-67.43419716
 20
138.50445671
 30
0.0
 11
-68.90496048
 21
137.03369339
 31
0.0
  0
LINE
  5
363
100
AcDbEntity
  8
ZUWAKU
  6
CONTINUOUS
 62
      43
100
AcDbLine
 10
-64.71385445
 20
140.94195671
 30
0.0
 11
-67.0
 21
138.65581116
 31
0.0
  0
LINE
  5
364
100
AcDbEntity
  8
ZUWAKU
  6
CONTINUOUS
 62
      43
100
AcDbLine
 10
-67.15135445
 20
138.50445671
 30
0.0
 11
-68.45429267
 21
137.20151848
 31
0.0
  0
LINE
  5
365
100
AcDbEntity
  8
ZUWAKU
  6
CONTINUOUS
 62
      43
100
AcDbLine
 10
-64.56492276
 20
140.80804569
 30
0.0
 11
-67.97298824
 21
137.3999802
 31
0.0
  0
LINE
  5
366
100
AcDbEntity
  8
ZUWAKU
  6
CONTINUOUS
 62
      43
100
AcDbLine
 10
-64.60576303
 20
140.4843627
 30
0.0
 11
-67.44571923
 21
137.6444065
 31
0.0
  0
LINE
  5
367
100
AcDbEntity
  8
ZUWAKU
  6
CONTINUOUS
 62
      43
100
AcDbLine
 10
-64.72911724
 20
140.07816578
 30
0.0
 11
-66.8359363
 21
137.97134672
 31
0.0
  0
LINE
  5
368
100
AcDbEntity
  8
ZUWAKU
  6
CONTINUOUS
 62
      43
100
AcDbLine
 10
-65.11067605
 20
139.41376425
 30
0.0
 11
-65.96794875
 21
138.55649156
 31
0.0
  0
LINE
  5
369
100
AcDbEntity
  8
ZUWAKU
  6
CONTINUOUS
 62
       3
100
AcDbLine
 10
30.75
 20
143.81695671
 30
0.0
 11
93.875
 21
143.81695671
 31
0.0
  0
LINE
  5
36A
100
AcDbEntity
  8
ZUWAKU
  6
CONTINUOUS
 62
       3
100
AcDbLine
 10
30.75
 20
143.81695671
 30
0.0
 11
30.75
 21
133.91081957
 31
0.0
  0
LINE
  5
36B
100
AcDbEntity
  8
ZUWAKU
  6
CONTINUOUS
 62
       3
100
AcDbLine
 10
93.875
 20
143.81695671
 30
0.0
 11
93.875
 21
133.91081957
 31
0.0
  0
LINE
  5
36C
100
AcDbEntity
  8
ZUWAKU
  6
CONTINUOUS
 62
       3
100
AcDbLine
 10
-84.625
 20
-126.87054329
 30
0.0
 11
-84.625
 21
-86.87054329
 31
0.0
  0
LINE
  5
36D
100
AcDbEntity
  8
ZUWAKU
  6
CONTINUOUS
 62
       3
100
AcDbLine
 10
-38.0625
 20
-126.87054329
 30
0.0
 11
-38.0625
 21
-86.87054329
 31
0.0
  0
LINE
  5
36E
100
AcDbEntity
  8
ZUWAKU
  6
CONTINUOUS
 62
       3
100
AcDbLine
 10
15.0625
 20
-126.87054329
 30
0.0
 11
15.0625
 21
-86.87054329
 31
0.0
  0
LINE
  5
36F
100
AcDbEntity
  8
ZUWAKU
  6
CONTINUOUS
 62
       3
100
AcDbLine
 10
26.1875
 20
-126.87054329
 30
0.0
 11
26.1875
 21
-86.87054329
 31
0.0
  0
LINE
  5
370
100
AcDbEntity
  8
ZUWAKU
  6
CONTINUOUS
 62
       3
100
AcDbLine
 10
30.5
 20
-140.62054329
 30
0.0
 11
30.5
 21
-128.55804329
 31
0.0
  0
LINE
  5
371
100
AcDbEntity
  8
ZUWAKU
  6
CONTINUOUS
 62
       3
100
AcDbLine
 10
25.5
 20
-140.62054329
 30
0.0
 11
25.5
 21
-128.55804329
 31
0.0
  0
LINE
  5
372
100
AcDbEntity
  8
ZUWAKU
  6
CONTINUOUS
 62
       3
100
AcDbLine
 10
-37.0625
 20
-140.62054329
 30
0.0
 11
-37.0625
 21
-128.55804329
 31
0.0
  0
LINE
  5
373
100
AcDbEntity
  8
ZUWAKU
  6
CONTINUOUS
 62
       3
100
AcDbLine
 10
-42.0625
 20
-140.62054329
 30
0.0
 11
-42.0625
 21
-128.55804329
 31
0.0
  0
LINE
  5
374
100
AcDbEntity
  8
ZUWAKU
  6
CONTINUOUS
 62
       3
100
AcDbLine
 10
-91.5625
 20
-121.87054329
 30
0.0
 11
92.875
 21
-121.87054329
 31
0.0
  0
LINE
  5
375
100
AcDbEntity
  8
ZUWAKU
  6
CONTINUOUS
 62
       3
100
AcDbLine
 10
-91.5625
 20
-116.87054329
 30
0.0
 11
92.875
 21
-116.87054329
 31
0.0
  0
LINE
  5
376
100
AcDbEntity
  8
ZUWAKU
  6
CONTINUOUS
 62
       3
100
AcDbLine
 10
-91.5625
 20
-111.87054329
 30
0.0
 11
92.875
 21
-111.87054329
 31
0.0
  0
LINE
  5
377
100
AcDbEntity
  8
ZUWAKU
  6
CONTINUOUS
 62
       3
100
AcDbLine
 10
-91.5625
 20
-106.87054329
 30
0.0
 11
92.875
 21
-106.87054329
 31
0.0
  0
LINE
  5
378
100
AcDbEntity
  8
ZUWAKU
  6
CONTINUOUS
 62
       3
100
AcDbLine
 10
-91.5625
 20
-101.87054329
 30
0.0
 11
92.875
 21
-101.87054329
 31
0.0
  0
LINE
  5
379
100
AcDbEntity
  8
ZUWAKU
  6
CONTINUOUS
 62
       3
100
AcDbLine
 10
-91.5625
 20
-96.87054329
 30
0.0
 11
92.875
 21
-96.87054329
 31
0.0
  0
LINE
  5
37A
100
AcDbEntity
  8
ZUWAKU
  6
CONTINUOUS
 62
       3
100
AcDbLine
 10
-91.5625
 20
-91.87054329
 30
0.0
 11
92.875
 21
-91.87054329
 31
0.0
  0
POINT
  5
37B
100
AcDbEntity
  8
ZUWAKU
  6
CONTINUOUS
 62
       3
100
AcDbPoint
 10
-91.5625
 20
-39.46548935
 30
0.0
  0
POINT
  5
37C
100
AcDbEntity
  8
ZUWAKU
  6
CONTINUOUS
 62
       3
100
AcDbPoint
 10
-91.5625
 20
40.53451065
 30
0.0
  0
POINT
  5
37D
100
AcDbEntity
  8
ZUWAKU
  6
CONTINUOUS
 62
       3
100
AcDbPoint
 10
-105.5
 20
0.53451065
 30
0.0
  0
TEXT
  5
37E
100
AcDbEntity
  8
ZUWAKU
 62
       4
100
AcDbText
 10
-39.56299468
 20
-129.41590237
 30
0.0
 40
3.0
  1
品 名
 41
1.03494498
  7
FDASTYLE1
100
AcDbText
  0
TEXT
  5
37F
100
AcDbEntity
  8
ZUWAKU
 62
       4
100
AcDbText
 10
27.93924369
 20
-129.43349884
 30
0.0
 40
3.0
  1
品　番
 41
1.03494498
  7
FDASTYLE1
100
AcDbText
  0
TEXT
  5
380
100
AcDbEntity
  8
ZUWAKU
 62
       4
100
AcDbText
 10
-89.85074633
 20
-121.3305767
 30
0.0
 40
4.0
  1
1
 41
0.8
 72
       5
 11
-86.65074633
 21
-121.3305767
 31
0.0
100
AcDbText
  0
TEXT
  5
381
100
AcDbEntity
  8
ZUWAKU
 62
       4
100
AcDbText
 10
-89.85074633
 20
-116.3305767
 30
0.0
 40
4.0
  1
2
 41
0.8
 72
       5
 11
-86.65074633
 21
-116.3305767
 31
0.0
100
AcDbText
  0
TEXT
  5
382
100
AcDbEntity
  8
ZUWAKU
 62
       4
100
AcDbText
 10
-89.85074633
 20
-111.3305767
 30
0.0
 40
4.0
  1
3
 41
0.8
 72
       5
 11
-86.65074633
 21
-111.3305767
 31
0.0
100
AcDbText
  0
TEXT
  5
383
100
AcDbEntity
  8
ZUWAKU
 62
       4
100
AcDbText
 10
-89.85074633
 20
-106.3305767
 30
0.0
 40
4.0
  1
4
 41
0.8
 72
       5
 11
-86.65074633
 21
-106.3305767
 31
0.0
100
AcDbText
  0
TEXT
  5
384
100
AcDbEntity
  8
ZUWAKU
 62
       4
100
AcDbText
 10
-89.85074633
 20
-101.3305767
 30
0.0
 40
4.0
  1
5
 41
0.8
 72
       5
 11
-86.65074633
 21
-101.3305767
 31
0.0
100
AcDbText
  0
TEXT
  5
385
100
AcDbEntity
  8
ZUWAKU
 62
       4
100
AcDbText
 10
-89.85074633
 20
-96.3305767
 30
0.0
 40
4.0
  1
6
 41
0.8
 72
       5
 11
-86.65074633
 21
-96.3305767
 31
0.0
100
AcDbText
  0
TEXT
  5
386
100
AcDbEntity
  8
ZUWAKU
 62
       4
100
AcDbText
 10
-89.85074633
 20
-91.3305767
 30
0.0
 40
4.0
  1
7
 41
0.8
 72
       5
 11
-86.65074633
 21
-91.3305767
 31
0.0
100
AcDbText
  0
TEXT
  5
387
100
AcDbEntity
  8
ZUWAKU
 62
       4
100
AcDbText
 10
51.3721012
 20
-126.31084305
 30
0.0
 40
4.0
  1
摘要・仕上
 41
0.8
 72
       5
 11
67.3721012
 21
-126.31084305
 31
0.0
100
AcDbText
  0
TEXT
  5
388
100
AcDbEntity
  8
ZUWAKU
 62
       4
100
AcDbText
 10
15.73646129
 20
-126.31084305
 30
0.0
 40
4.0
  1
個　数
 41
0.8
 72
       5
 11
25.33646129
 21
-126.31084305
 31
0.0
100
AcDbText
  0
TEXT
  5
389
100
AcDbEntity
  8
ZUWAKU
 62
       4
100
AcDbText
 10
-17.85944801
 20
-126.31084305
 30
0.0
 40
4.0
  1
材　　質
 41
0.8
 72
       5
 11
-5.05944801
 21
-126.31084305
 31
0.0
100
AcDbText
  0
TEXT
  5
38A
100
AcDbEntity
  8
ZUWAKU
 62
       4
100
AcDbText
 10
-69.37686777
 20
-126.31084305
 30
0.0
 40
4.0
  1
部　品　名
 41
0.8
 72
       5
 11
-53.37686777
 21
-126.31084305
 31
0.0
100
AcDbText
  0
TEXT
  5
38B
100
AcDbEntity
  8
ZUWAKU
 62
       4
100
AcDbText
 10
-91.41898105
 20
-126.31084305
 30
0.0
 40
4.0
  1
部番
 41
0.8
 72
       5
 11
-85.01898105
 21
-126.31084305
 31
0.0
100
AcDbText
  0
TEXT
  5
38C
100
AcDbEntity
  8
ZUWAKU
 62
       4
100
AcDbText
 10
73.91864179
 20
-146.12649617
 30
0.0
 40
4.0
  1
080909
 41
0.8
 72
       5
 11
93.11864179
 21
-146.12649617
 31
0.0
100
AcDbText
  0
POINT
  5
38D
100
AcDbEntity
  8
ZUWAKU
  6
CONTINUOUS
 62
       9
100
AcDbPoint
 10
62.3125
 20
138.86388814
 30
0.0
  0
POINT
  5
38E
100
AcDbEntity
  8
ZUWAKU
  6
CONTINUOUS
 62
       9
100
AcDbPoint
 10
-15.40276163
 20
138.86388814
 30
0.0
  0
POINT
  5
38F
100
AcDbEntity
  8
ZUWAKU
  6
CONTINUOUS
 62
       9
100
AcDbPoint
 10
61.6875
 20
-134.58929329
 30
0.0
  0
POINT
  5
390
100
AcDbEntity
  8
ZUWAKU
  6
CONTINUOUS
 62
       9
100
AcDbPoint
 10
-5.78125
 20
-134.58929329
 30
0.0
  0
POINT
  5
391
100
AcDbEntity
  8
ZUWAKU
  6
CONTINUOUS
 62
       9
100
AcDbPoint
 10
20.625
 20
-119.37054329
 30
0.0
  0
POINT
  5
392
100
AcDbEntity
  8
ZUWAKU
  6
CONTINUOUS
 62
       9
100
AcDbPoint
 10
-83.625
 20
-119.37054329
 30
0.0
  0
POINT
  5
393
100
AcDbEntity
  8
ZUWAKU
  6
CONTINUOUS
 62
       9
100
AcDbPoint
 10
-37.0625
 20
-119.37054329
 30
0.0
  0
POINT
  5
394
100
AcDbEntity
  8
ZUWAKU
  6
CONTINUOUS
 62
       9
100
AcDbPoint
 10
27.1875
 20
-119.37054329
 30
0.0
  0
LINE
  5
395
100
AcDbEntity
  8
ZUWAKU
  6
CONTINUOUS
 62
       9
100
AcDbLine
 10
-105.5
 20
154.0
 30
0.0
 11
-105.5
 21
149.0
 31
0.0
  0
LINE
  5
396
100
AcDbEntity
  8
ZUWAKU
  6
CONTINUOUS
 62
       9
100
AcDbLine
 10
-105.5
 20
149.0
 30
0.0
 11
-110.5
 21
149.0
 31
0.0
  0
LINE
  5
397
100
AcDbEntity
  8
ZUWAKU
  6
CONTINUOUS
 62
       9
100
AcDbLine
 10
104.5
 20
149.0
 30
0.0
 11
109.5
 21
149.0
 31
0.0
  0
LINE
  5
398
100
AcDbEntity
  8
ZUWAKU
  6
CONTINUOUS
 62
       9
100
AcDbLine
 10
104.5
 20
149.0
 30
0.0
 11
104.5
 21
154.0
 31
0.0
  0
LINE
  5
399
100
AcDbEntity
  8
ZUWAKU
  6
CONTINUOUS
 62
       9
100
AcDbLine
 10
104.5
 20
-153.0
 30
0.0
 11
104.5
 21
-148.0
 31
0.0
  0
LINE
  5
39A
100
AcDbEntity
  8
ZUWAKU
  6
CONTINUOUS
 62
       9
100
AcDbLine
 10
104.5
 20
-148.0
 30
0.0
 11
109.5
 21
-148.0
 31
0.0
  0
LINE
  5
39B
100
AcDbEntity
  8
ZUWAKU
  6
CONTINUOUS
 62
       9
100
AcDbLine
 10
-110.52312309
 20
-148.0
 30
0.0
 11
-105.5
 21
-148.0
 31
0.0
  0
LINE
  5
39C
100
AcDbEntity
  8
ZUWAKU
  6
CONTINUOUS
 62
       9
100
AcDbLine
 10
-105.5
 20
-148.03451065
 30
0.0
 11
-105.5
 21
-152.99994653
 31
0.0
  0
POINT
  5
39D
100
AcDbEntity
  8
ZUWAKU
  6
CONTINUOUS
 62
       9
100
AcDbPoint
 10
20.625
 20
-114.37054329
 30
0.0
  0
POINT
  5
39E
100
AcDbEntity
  8
ZUWAKU
  6
CONTINUOUS
 62
       9
100
AcDbPoint
 10
-83.625
 20
-114.37054329
 30
0.0
  0
POINT
  5
39F
100
AcDbEntity
  8
ZUWAKU
  6
CONTINUOUS
 62
       9
100
AcDbPoint
 10
-37.0625
 20
-114.37054329
 30
0.0
  0
POINT
  5
3A0
100
AcDbEntity
  8
ZUWAKU
  6
CONTINUOUS
 62
       9
100
AcDbPoint
 10
27.1875
 20
-114.37054329
 30
0.0
  0
POINT
  5
3A1
100
AcDbEntity
  8
ZUWAKU
  6
CONTINUOUS
 62
       9
100
AcDbPoint
 10
20.625
 20
-109.37054329
 30
0.0
  0
POINT
  5
3A2
100
AcDbEntity
  8
ZUWAKU
  6
CONTINUOUS
 62
       9
100
AcDbPoint
 10
-83.625
 20
-109.37054329
 30
0.0
  0
POINT
  5
3A3
100
AcDbEntity
  8
ZUWAKU
  6
CONTINUOUS
 62
       9
100
AcDbPoint
 10
-37.0625
 20
-109.37054329
 30
0.0
  0
POINT
  5
3A4
100
AcDbEntity
  8
ZUWAKU
  6
CONTINUOUS
 62
       9
100
AcDbPoint
 10
27.1875
 20
-109.37054329
 30
0.0
  0
POINT
  5
3A5
100
AcDbEntity
  8
ZUWAKU
  6
CONTINUOUS
 62
       9
100
AcDbPoint
 10
20.625
 20
-104.37054329
 30
0.0
  0
POINT
  5
3A6
100
AcDbEntity
  8
ZUWAKU
  6
CONTINUOUS
 62
       9
100
AcDbPoint
 10
-83.625
 20
-104.37054329
 30
0.0
  0
POINT
  5
3A7
100
AcDbEntity
  8
ZUWAKU
  6
CONTINUOUS
 62
       9
100
AcDbPoint
 10
-37.0625
 20
-104.37054329
 30
0.0
  0
POINT
  5
3A8
100
AcDbEntity
  8
ZUWAKU
  6
CONTINUOUS
 62
       9
100
AcDbPoint
 10
27.1875
 20
-104.37054329
 30
0.0
  0
POINT
  5
3A9
100
AcDbEntity
  8
ZUWAKU
  6
CONTINUOUS
 62
       9
100
AcDbPoint
 10
20.625
 20
-99.37054329
 30
0.0
  0
POINT
  5
3AA
100
AcDbEntity
  8
ZUWAKU
  6
CONTINUOUS
 62
       9
100
AcDbPoint
 10
-83.625
 20
-99.37054329
 30
0.0
  0
POINT
  5
3AB
100
AcDbEntity
  8
ZUWAKU
  6
CONTINUOUS
 62
       9
100
AcDbPoint
 10
-37.0625
 20
-99.37054329
 30
0.0
  0
POINT
  5
3AC
100
AcDbEntity
  8
ZUWAKU
  6
CONTINUOUS
 62
       9
100
AcDbPoint
 10
27.1875
 20
-99.37054329
 30
0.0
  0
POINT
  5
3AD
100
AcDbEntity
  8
ZUWAKU
  6
CONTINUOUS
 62
       9
100
AcDbPoint
 10
20.625
 20
-94.37054329
 30
0.0
  0
POINT
  5
3AE
100
AcDbEntity
  8
ZUWAKU
  6
CONTINUOUS
 62
       9
100
AcDbPoint
 10
-83.625
 20
-94.37054329
 30
0.0
  0
POINT
  5
3AF
100
AcDbEntity
  8
ZUWAKU
  6
CONTINUOUS
 62
       9
100
AcDbPoint
 10
-37.0625
 20
-94.37054329
 30
0.0
  0
POINT
  5
3B0
100
AcDbEntity
  8
ZUWAKU
  6
CONTINUOUS
 62
       9
100
AcDbPoint
 10
27.1875
 20
-94.37054329
 30
0.0
  0
POINT
  5
3B1
100
AcDbEntity
  8
ZUWAKU
  6
CONTINUOUS
 62
       9
100
AcDbPoint
 10
20.625
 20
-89.37054329
 30
0.0
  0
POINT
  5
3B2
100
AcDbEntity
  8
ZUWAKU
  6
CONTINUOUS
 62
       9
100
AcDbPoint
 10
-83.625
 20
-89.37054329
 30
0.0
  0
POINT
  5
3B3
100
AcDbEntity
  8
ZUWAKU
  6
CONTINUOUS
 62
       9
100
AcDbPoint
 10
-37.0625
 20
-89.37054329
 30
0.0
  0
POINT
  5
3B4
100
AcDbEntity
  8
ZUWAKU
  6
CONTINUOUS
 62
       9
100
AcDbPoint
 10
27.1875
 20
-89.37054329
 30
0.0
  0
POINT
  5
3B5
100
AcDbEntity
  8
LAYER0011
  6
CONTINUOUS
 62
       3
100
AcDbPoint
 10
-72.25592231
 20
0.08132667
 30
0.0
  0
POINT
  5
3B6
100
AcDbEntity
  8
LAYER0011
  6
CONTINUOUS
 62
       3
100
AcDbPoint
 10
27.74179928
 20
0.08132667
 30
0.0
  0
ARC
  5
3B7
100
AcDbEntity
  8
LAYER0011
  6
CONTINUOUS
 62
       3
100
AcDbCircle
 10
-62.75613876
 20
0.08132667
 30
0.0
 40
3.99990886
100
AcDbArc
 50
90.0
 51
180.0
  0
LINE
  5
3B8
100
AcDbEntity
  8
LAYER0011
  6
CONTINUOUS
 62
       3
100
AcDbLine
 10
-70.25596788
 20
-1.91862776
 30
0.0
 11
-66.75604763
 21
-1.91862776
 31
0.0
  0
ARC
  5
3B9
100
AcDbEntity
  8
LAYER0011
  6
CONTINUOUS
 62
       3
100
AcDbCircle
 10
-66.25605902
 20
0.08132667
 30
0.0
 40
5.9998633
100
AcDbArc
 50
90.0
 51
180.0
  0
ARC
  5
3BA
100
AcDbEntity
  8
LAYER0011
  6
CONTINUOUS
 62
       3
100
AcDbCircle
 10
-70.25596788
 20
0.08132667
 30
0.0
 40
1.99995443
100
AcDbArc
 50
180.0
 51
270.0
  0
LINE
  5
3BB
100
AcDbEntity
  8
LAYER0011
  6
CONTINUOUS
 62
       3
100
AcDbLine
 10
-52.7563666
 20
-1.91862776
 30
0.0
 11
-30.97320608
 21
-1.91862776
 31
0.0
  0
LINE
  5
3BC
100
AcDbEntity
  8
LAYER0011
  6
CONTINUOUS
 62
       3
100
AcDbLine
 10
-47.25649192
 20
4.08123554
 30
0.0
 11
-42.25660584
 21
4.08123554
 31
0.0
  0
ARC
  5
3BD
100
AcDbEntity
  8
LAYER0011
  6
CONTINUOUS
 62
       3
100
AcDbCircle
 10
-56.75627547
 20
0.08132667
 30
0.0
 40
3.99990886
100
AcDbArc
 50
360.0
 51
450.0
  0
LINE
  5
3BE
100
AcDbEntity
  8
LAYER0011
  6
CONTINUOUS
 62
       3
100
AcDbLine
 10
-66.75604763
 20
-1.91862776
 30
0.0
 11
-52.7563666
 21
-1.91862776
 31
0.0
  0
LINE
  5
3BF
100
AcDbEntity
  8
LAYER0011
  6
CONTINUOUS
 62
       3
100
AcDbLine
 10
-52.7563666
 20
-1.91862776
 30
0.0
 11
-66.75604763
 21
-1.91862776
 31
0.0
  0
LINE
  5
3C0
100
AcDbEntity
  8
LAYER0011
  6
CONTINUOUS
 62
       3
100
AcDbLine
 10
-52.7563666
 20
-0.91865054
 30
0.0
 11
-66.75604763
 21
-0.91865054
 31
0.0
  0
LINE
  5
3C1
100
AcDbEntity
  8
LAYER0011
  6
CONTINUOUS
 62
       3
100
AcDbLine
 10
-64.75609319
 20
-0.91865054
 30
0.0
 11
-54.75632103
 21
-0.91865054
 31
0.0
  0
LINE
  5
3C2
100
AcDbEntity
  8
LAYER0011
  6
CONTINUOUS
 62
       3
100
AcDbLine
 10
-64.75609319
 20
-1.91862776
 30
0.0
 11
-64.75609319
 21
-0.91865054
 31
0.0
  0
LINE
  5
3C3
100
AcDbEntity
  8
LAYER0011
  6
CONTINUOUS
 62
       3
100
AcDbLine
 10
-66.75604763
 20
0.08132667
 30
0.0
 11
-66.75604763
 21
-1.91862776
 31
0.0
  0
LINE
  5
3C4
100
AcDbEntity
  8
LAYER0011
  6
CONTINUOUS
 62
       3
100
AcDbLine
 10
-66.75604763
 20
0.08132667
 30
0.0
 11
-66.75604763
 21
-1.91862776
 31
0.0
  0
LINE
  5
3C5
100
AcDbEntity
  8
LAYER0011
  6
CONTINUOUS
 62
       3
100
AcDbLine
 10
-54.75632103
 20
-0.91865054
 30
0.0
 11
-54.75632103
 21
-1.91862776
 31
0.0
  0
LINE
  5
3C6
100
AcDbEntity
  8
LAYER0011
  6
CONTINUOUS
 62
       3
100
AcDbLine
 10
-52.7563666
 20
-1.91922073
 30
0.0
 11
-52.7563666
 21
0.08132667
 31
0.0
  0
LINE
  5
3C7
100
AcDbEntity
  8
LAYER0011
  6
CONTINUOUS
 62
       3
100
AcDbLine
 10
-66.25605902
 20
6.08118997
 30
0.0
 11
-51.72852598
 21
6.08118997
 31
0.0
  0
LINE
  5
3C8
100
AcDbEntity
  8
LAYER0011
  6
CONTINUOUS
 62
       3
100
AcDbLine
 10
-56.75627547
 20
4.08123554
 30
0.0
 11
-62.75613876
 21
4.08123554
 31
0.0
  0
ARC
  5
3C9
100
AcDbEntity
  8
LAYER0011
  6
CONTINUOUS
 62
       3
100
AcDbCircle
 10
-51.72852598
 20
0.08132667
 30
0.0
 40
5.9998633
100
AcDbArc
 50
41.8103149
 51
90.0
  0
ARC
  5
3CA
100
AcDbEntity
  8
LAYER0011
  6
CONTINUOUS
 62
       3
100
AcDbCircle
 10
-35.25676532
 20
1.08130389
 30
0.0
 40
1.59996355
100
AcDbArc
 50
360.0
 51
719.88540844
  0
LINE
  5
3CB
100
AcDbEntity
  8
LAYER0011
  6
CONTINUOUS
 62
       3
100
AcDbLine
 10
-2.2575172
 20
5.08121275
 30
0.0
 11
-16.75718683
 21
5.08121275
 31
0.0
  0
ARC
  5
3CC
100
AcDbEntity
  8
LAYER0011
  6
CONTINUOUS
 62
       3
100
AcDbCircle
 10
-8.25738049
 20
4.08123554
 30
0.0
 40
5.9998633
100
AcDbArc
 50
270.0
 51
360.0
  0
LINE
  5
3CD
100
AcDbEntity
  8
LAYER0011
  6
CONTINUOUS
 62
       3
100
AcDbLine
 10
-26.15697266
 20
5.08121275
 30
0.0
 11
-42.25660584
 21
5.08121275
 31
0.0
  0
LINE
  5
3CE
100
AcDbEntity
  8
LAYER0011
  6
CONTINUOUS
 62
       3
100
AcDbLine
 10
-36.25674254
 20
-1.91862776
 30
0.0
 11
-8.25738049
 21
-1.91862776
 31
0.0
  0
ARC
  5
3CF
100
AcDbEntity
  8
LAYER0011
  6
CONTINUOUS
 62
       3
100
AcDbCircle
 10
-35.25676532
 20
1.08130389
 30
0.0
 40
1.59996355
100
AcDbArc
 50
360.0
 51
719.88540844
  0
ARC
  5
3D0
100
AcDbEntity
  8
LAYER0011
  6
CONTINUOUS
 62
       3
100
AcDbCircle
 10
-36.25674254
 20
4.08123554
 30
0.0
 40
5.9998633
100
AcDbArc
 50
180.0
 51
270.0
  0
LINE
  5
3D1
100
AcDbEntity
  8
LAYER0011
  6
CONTINUOUS
 62
       3
100
AcDbLine
 10
-42.25660584
 20
5.08121275
 30
0.0
 11
-42.25660584
 21
4.08123554
 31
0.0
  0
ARC
  5
3D2
100
AcDbEntity
  8
LAYER0011
  6
CONTINUOUS
 62
       3
100
AcDbCircle
 10
-9.25735771
 20
1.08130389
 30
0.0
 40
1.59996355
100
AcDbArc
 50
360.0
 51
719.88540844
  0
LINE
  5
3D3
100
AcDbEntity
  8
LAYER0011
  6
CONTINUOUS
 62
       3
100
AcDbLine
 10
-16.75718683
 20
5.08121275
 30
0.0
 11
-18.35715037
 21
5.08121275
 31
0.0
  0
LINE
  5
3D4
100
AcDbEntity
  8
LAYER0011
  6
CONTINUOUS
 62
       3
100
AcDbLine
 10
-24.85700228
 20
7.08116718
 30
0.0
 11
-25.85697949
 21
7.08116718
 31
0.0
  0
LINE
  5
3D5
100
AcDbEntity
  8
LAYER0011
  6
CONTINUOUS
 62
       3
100
AcDbLine
 10
-26.15697266
 20
5.08121275
 30
0.0
 11
-18.35715037
 21
5.08121275
 31
0.0
  0
ARC
  5
3D6
100
AcDbEntity
  8
LAYER0011
  6
CONTINUOUS
 62
       3
100
AcDbCircle
 10
-26.15697266
 20
5.38120592
 30
0.0
 40
0.29999316
100
AcDbArc
 50
270.0
 51
360.0
  0
LINE
  5
3D7
100
AcDbEntity
  8
LAYER0011
  6
CONTINUOUS
 62
       3
100
AcDbLine
 10
-25.85697949
 20
7.08116718
 30
0.0
 11
-25.85697949
 21
5.38120592
 31
0.0
  0
LINE
  5
3D8
100
AcDbEntity
  8
LAYER0011
  6
CONTINUOUS
 62
       3
100
AcDbLine
 10
-18.65714354
 20
7.08116718
 30
0.0
 11
-19.65712075
 21
7.08116718
 31
0.0
  0
ARC
  5
3D9
100
AcDbEntity
  8
LAYER0011
  6
CONTINUOUS
 62
       3
100
AcDbCircle
 10
-18.35715037
 20
5.38120592
 30
0.0
 40
0.29999316
100
AcDbArc
 50
180.0
 51
270.0
  0
LINE
  5
3DA
100
AcDbEntity
  8
LAYER0011
  6
CONTINUOUS
 62
       3
100
AcDbLine
 10
-18.65714354
 20
5.38120592
 30
0.0
 11
-18.65714354
 21
7.08116718
 31
0.0
  0
LINE
  5
3DB
100
AcDbEntity
  8
LAYER0011
  6
CONTINUOUS
 62
       3
100
AcDbLine
 10
-24.85700228
 20
7.08116718
 30
0.0
 11
-19.65712075
 21
7.08116718
 31
0.0
  0
LINE
  5
3DC
100
AcDbEntity
  8
LAYER0011
  6
CONTINUOUS
 62
       3
100
AcDbLine
 10
-2.2575172
 20
4.08123554
 30
0.0
 11
-2.2575172
 21
5.08121275
 31
0.0
  0
LINE
  5
3DD
100
AcDbEntity
  8
LAYER0011
  6
CONTINUOUS
 62
       3
100
AcDbLine
 10
54.97997411
 20
6.08118997
 30
0.0
 11
55.97995133
 21
6.08118997
 31
0.0
  0
ARC
  5
3DE
100
AcDbEntity
  8
LAYER0011
  6
CONTINUOUS
 62
       3
100
AcDbCircle
 10
55.47996272
 20
-1.41863915
 30
0.0
 40
0.49998861
100
AcDbArc
 50
180.0
 51
270.0
  0
ARC
  5
3DF
100
AcDbEntity
  8
LAYER0011
  6
CONTINUOUS
 62
       3
100
AcDbCircle
 10
55.47996271
 20
-1.41863914
 30
0.0
 40
0.49998861
100
AcDbArc
 50
179.99999971
 51
269.99999971
  0
LINE
  5
3E0
100
AcDbEntity
  8
LAYER0011
  6
CONTINUOUS
 62
       3
100
AcDbLine
 10
53.9799969
 20
-1.91862776
 30
0.0
 11
60.4798488
 21
-1.91862776
 31
0.0
  0
LINE
  5
3E1
100
AcDbEntity
  8
LAYER0011
  6
CONTINUOUS
 62
       3
100
AcDbLine
 10
61.22983171
 20
7.08116718
 30
0.0
 11
54.72997981
 21
7.08116718
 31
0.0
  0
LINE
  5
3E2
100
AcDbEntity
  8
LAYER0011
  6
CONTINUOUS
 62
       3
100
AcDbLine
 10
54.97997411
 20
-1.41863915
 30
0.0
 11
54.97997411
 21
6.08118997
 31
0.0
  0
LINE
  5
3E3
100
AcDbEntity
  8
LAYER0011
  6
CONTINUOUS
 62
       3
100
AcDbLine
 10
54.72997981
 20
-0.91865054
 30
0.0
 11
54.72997981
 21
4.08123554
 31
0.0
  0
LINE
  5
3E4
100
AcDbEntity
  8
LAYER0011
  6
CONTINUOUS
 62
       3
100
AcDbLine
 10
53.73000259
 20
4.28123098
 30
0.0
 11
53.73000259
 21
-1.91862776
 31
0.0
  0
LINE
  5
3E5
100
AcDbEntity
  8
LAYER0011
  6
CONTINUOUS
 62
       3
100
AcDbLine
 10
53.9799969
 20
-0.91865054
 30
0.0
 11
53.9799969
 21
-1.91862776
 31
0.0
  0
LINE
  5
3E6
100
AcDbEntity
  8
LAYER0011
  6
CONTINUOUS
 62
       3
100
AcDbLine
 10
53.73000259
 20
-1.91862776
 30
0.0
 11
54.72997981
 21
-1.91862776
 31
0.0
  0
LINE
  5
3E7
100
AcDbEntity
  8
LAYER0011
  6
CONTINUOUS
 62
       3
100
AcDbLine
 10
59.47997283
 20
-0.91865054
 30
0.0
 11
56.4798387
 21
-0.91865054
 31
0.0
  0
LINE
  5
3E8
100
AcDbEntity
  8
LAYER0011
  6
CONTINUOUS
 62
       3
100
AcDbLine
 10
54.72997981
 20
7.08116718
 30
0.0
 11
54.72997981
 21
5.08121275
 31
0.0
  0
LINE
  5
3E9
100
AcDbEntity
  8
LAYER0011
  6
CONTINUOUS
 62
       3
100
AcDbLine
 10
54.72997981
 20
5.08121275
 30
0.0
 11
54.97997411
 21
5.08121275
 31
0.0
  0
LINE
  5
3EA
100
AcDbEntity
  8
LAYER0011
  6
CONTINUOUS
 62
       3
100
AcDbLine
 10
54.72997981
 20
5.08121275
 30
0.0
 11
54.52998437
 21
5.08121275
 31
0.0
  0
LINE
  5
3EB
100
AcDbEntity
  8
LAYER0011
  6
CONTINUOUS
 62
       3
100
AcDbLine
 10
54.72997981
 20
4.08123554
 30
0.0
 11
54.97997411
 21
4.08123554
 31
0.0
  0
ARC
  5
3EC
100
AcDbEntity
  8
LAYER0011
  6
CONTINUOUS
 62
       3
100
AcDbCircle
 10
54.52998437
 20
4.28123098
 30
0.0
 40
0.79998177
100
AcDbArc
 50
90.0
 51
180.0
  0
LINE
  5
3ED
100
AcDbEntity
  8
LAYER0011
  6
CONTINUOUS
 62
       3
100
AcDbLine
 10
59.97986019
 20
6.08118997
 30
0.0
 11
59.97996144
 21
-0.41865415
 31
0.0
  0
LINE
  5
3EE
100
AcDbEntity
  8
LAYER0011
  6
CONTINUOUS
 62
       3
100
AcDbLine
 10
60.97983741
 20
6.08118997
 30
0.0
 11
60.97983741
 21
-1.41863915
 31
0.0
  0
LINE
  5
3EF
100
AcDbEntity
  8
LAYER0011
  6
CONTINUOUS
 62
       3
100
AcDbLine
 10
61.22983171
 20
4.08123554
 30
0.0
 11
61.22983171
 21
-0.91865054
 31
0.0
  0
LINE
  5
3F0
100
AcDbEntity
  8
LAYER0011
  6
CONTINUOUS
 62
       3
100
AcDbLine
 10
62.22980893
 20
-1.91862776
 30
0.0
 11
62.22980893
 21
4.28123098
 31
0.0
  0
LINE
  5
3F1
100
AcDbEntity
  8
LAYER0011
  6
CONTINUOUS
 62
       3
100
AcDbLine
 10
55.97995133
 20
6.08118997
 30
0.0
 11
55.97985009
 21
-0.41865415
 31
0.0
  0
LINE
  5
3F2
100
AcDbEntity
  8
LAYER0011
  6
CONTINUOUS
 62
       3
100
AcDbLine
 10
61.97981463
 20
-0.91865054
 30
0.0
 11
61.97981463
 21
-1.91862776
 31
0.0
  0
ARC
  5
3F3
100
AcDbEntity
  8
LAYER0011
  6
CONTINUOUS
 62
       3
100
AcDbCircle
 10
60.4798488
 20
-1.41863915
 30
0.0
 40
0.49998861
100
AcDbArc
 50
270.0
 51
360.0
  0
LINE
  5
3F4
100
AcDbEntity
  8
LAYER0011
  6
CONTINUOUS
 62
       3
100
AcDbLine
 10
61.22983171
 20
-1.91862776
 30
0.0
 11
62.22980893
 21
-1.91862776
 31
0.0
  0
LINE
  5
3F5
100
AcDbEntity
  8
LAYER0011
  6
CONTINUOUS
 62
       3
100
AcDbLine
 10
61.97981463
 20
-1.91862776
 30
0.0
 11
60.4798488
 21
-1.91862776
 31
0.0
  0
LINE
  5
3F6
100
AcDbEntity
  8
LAYER0011
  6
CONTINUOUS
 62
       3
100
AcDbLine
 10
53.9799969
 20
-0.91865054
 30
0.0
 11
54.97997411
 21
-0.91865054
 31
0.0
  0
LINE
  5
3F7
100
AcDbEntity
  8
LAYER0011
  6
CONTINUOUS
 62
       3
100
AcDbLine
 10
61.22983171
 20
5.08121275
 30
0.0
 11
61.22983171
 21
7.08116718
 31
0.0
  0
ARC
  5
3F8
100
AcDbEntity
  8
LAYER0011
  6
CONTINUOUS
 62
       3
100
AcDbCircle
 10
61.42982716
 20
4.28123098
 30
0.0
 40
0.79998177
100
AcDbArc
 50
360.0
 51
450.0
  0
LINE
  5
3F9
100
AcDbEntity
  8
LAYER0011
  6
CONTINUOUS
 62
       3
100
AcDbLine
 10
61.42982716
 20
5.08121275
 30
0.0
 11
61.22983171
 21
5.08121275
 31
0.0
  0
LINE
  5
3FA
100
AcDbEntity
  8
LAYER0011
  6
CONTINUOUS
 62
       3
100
AcDbLine
 10
60.97983741
 20
5.08121275
 30
0.0
 11
61.45740988
 21
5.08121275
 31
0.0
  0
LINE
  5
3FB
100
AcDbEntity
  8
LAYER0011
  6
CONTINUOUS
 62
       3
100
AcDbLine
 10
60.97983741
 20
6.08118997
 30
0.0
 11
59.97986019
 21
6.08118997
 31
0.0
  0
LINE
  5
3FC
100
AcDbEntity
  8
LAYER0011
  6
CONTINUOUS
 62
       3
100
AcDbLine
 10
60.97983741
 20
4.08123554
 30
0.0
 11
61.22983171
 21
4.08123554
 31
0.0
  0
LINE
  5
3FD
100
AcDbEntity
  8
LAYER0011
  6
CONTINUOUS
 62
       3
100
AcDbLine
 10
55.97993575
 20
5.08121275
 30
0.0
 11
59.97987577
 21
5.08121275
 31
0.0
  0
LINE
  5
3FE
100
AcDbEntity
  8
LAYER0011
  6
CONTINUOUS
 62
       3
100
AcDbLine
 10
55.97992018
 20
4.08123554
 30
0.0
 11
59.97989135
 21
4.08123554
 31
0.0
  0
ARC
  5
3FF
100
AcDbEntity
  8
LAYER0011
  6
CONTINUOUS
 62
       3
100
AcDbCircle
 10
12.24215243
 20
0.08132667
 30
0.0
 40
3.99990886
100
AcDbArc
 50
90.0
 51
180.0
  0
ARC
  5
400
100
AcDbEntity
  8
LAYER0011
  6
CONTINUOUS
 62
       3
100
AcDbCircle
 10
18.24201573
 20
0.08132667
 30
0.0
 40
3.99990886
100
AcDbArc
 50
360.0
 51
450.0
  0
ARC
  5
401
100
AcDbEntity
  8
LAYER0011
  6
CONTINUOUS
 62
       3
100
AcDbCircle
 10
21.74193599
 20
0.08132667
 30
0.0
 40
5.9998633
100
AcDbArc
 50
360.0
 51
450.0
  0
ARC
  5
402
100
AcDbEntity
  8
LAYER0011
  6
CONTINUOUS
 62
       3
100
AcDbCircle
 10
7.21440294
 20
0.08132667
 30
0.0
 40
5.9998633
100
AcDbArc
 50
90.0
 51
138.1896851
  0
ARC
  5
403
100
AcDbEntity
  8
LAYER0011
  6
CONTINUOUS
 62
       3
100
AcDbCircle
 10
25.74184485
 20
0.08132667
 30
0.0
 40
1.99995443
100
AcDbArc
 50
270.0
 51
360.0
  0
LINE
  5
404
100
AcDbEntity
  8
LAYER0011
  6
CONTINUOUS
 62
       3
100
AcDbLine
 10
8.24224357
 20
-1.91862776
 30
0.0
 11
-13.54091695
 21
-1.91862776
 31
0.0
  0
LINE
  5
405
100
AcDbEntity
  8
LAYER0011
  6
CONTINUOUS
 62
       3
100
AcDbLine
 10
2.74236888
 20
4.08123554
 30
0.0
 11
-2.2575172
 21
4.08123554
 31
0.0
  0
LINE
  5
406
100
AcDbEntity
  8
LAYER0011
  6
CONTINUOUS
 62
       3
100
AcDbLine
 10
22.24192459
 20
-1.91862776
 30
0.0
 11
8.24224357
 21
-1.91862776
 31
0.0
  0
LINE
  5
407
100
AcDbEntity
  8
LAYER0011
  6
CONTINUOUS
 62
       3
100
AcDbLine
 10
8.24224357
 20
-1.91862776
 30
0.0
 11
22.24192459
 21
-1.91862776
 31
0.0
  0
LINE
  5
408
100
AcDbEntity
  8
LAYER0011
  6
CONTINUOUS
 62
       3
100
AcDbLine
 10
8.24224357
 20
-0.91865054
 30
0.0
 11
22.24192459
 21
-0.91865054
 31
0.0
  0
LINE
  5
409
100
AcDbEntity
  8
LAYER0011
  6
CONTINUOUS
 62
       3
100
AcDbLine
 10
20.24197016
 20
-0.91865054
 30
0.0
 11
10.242198
 21
-0.91865054
 31
0.0
  0
LINE
  5
40A
100
AcDbEntity
  8
LAYER0011
  6
CONTINUOUS
 62
       3
100
AcDbLine
 10
12.24215243
 20
4.08123554
 30
0.0
 11
18.24201573
 21
4.08123554
 31
0.0
  0
LINE
  5
40B
100
AcDbEntity
  8
LAYER0011
  6
CONTINUOUS
 62
       3
100
AcDbLine
 10
22.24192459
 20
0.08132667
 30
0.0
 11
22.24192459
 21
-1.91862776
 31
0.0
  0
LINE
  5
40C
100
AcDbEntity
  8
LAYER0011
  6
CONTINUOUS
 62
       3
100
AcDbLine
 10
22.24192459
 20
0.08132667
 30
0.0
 11
22.24192459
 21
-1.91862776
 31
0.0
  0
LINE
  5
40D
100
AcDbEntity
  8
LAYER0011
  6
CONTINUOUS
 62
       3
100
AcDbLine
 10
25.74184485
 20
-1.91862776
 30
0.0
 11
22.24192459
 21
-1.91862776
 31
0.0
  0
LINE
  5
40E
100
AcDbEntity
  8
LAYER0011
  6
CONTINUOUS
 62
       3
100
AcDbLine
 10
20.24197016
 20
-1.91862776
 30
0.0
 11
20.24197016
 21
-0.91865054
 31
0.0
  0
LINE
  5
40F
100
AcDbEntity
  8
LAYER0011
  6
CONTINUOUS
 62
       3
100
AcDbLine
 10
8.24224357
 20
-1.91922073
 30
0.0
 11
8.24224357
 21
0.08132667
 31
0.0
  0
LINE
  5
410
100
AcDbEntity
  8
LAYER0011
  6
CONTINUOUS
 62
       3
100
AcDbLine
 10
10.242198
 20
-0.91865054
 30
0.0
 11
10.242198
 21
-1.91862776
 31
0.0
  0
LINE
  5
411
100
AcDbEntity
  8
LAYER0011
  6
CONTINUOUS
 62
       3
100
AcDbLine
 10
21.74193599
 20
6.08118997
 30
0.0
 11
7.21440294
 21
6.08118997
 31
0.0
  0
ARC
  5
412
100
AcDbEntity
  8
LAYER0011
  6
CONTINUOUS
 62
       3
100
AcDbCircle
 10
59.47997283
 20
-0.41866194
 30
0.0
 40
0.49998861
100
AcDbArc
 50
270.0
 51
360.00089245
  0
ARC
  5
413
100
AcDbEntity
  8
LAYER0011
  6
CONTINUOUS
 62
       3
100
AcDbCircle
 10
56.4798387
 20
-0.41866194
 30
0.0
 40
0.49998861
100
AcDbArc
 50
179.99910755
 51
270.0
  0
LINE
  5
414
100
AcDbEntity
  8
LAYER0011
  6
CONTINUOUS
 62
       3
100
AcDbLine
 10
60.97983741
 20
-0.91865054
 30
0.0
 11
61.97981463
 21
-0.91865054
 31
0.0
  0
LINE
  5
415
100
AcDbEntity
  8
LAYER0011
  6
CONTINUOUS
 62
       3
100
AcDbLine
 10
56.4798387
 20
-0.91865054
 30
0.0
 11
59.47997283
 21
-0.91865054
 31
0.0
  0
POINT
  5
416
100
AcDbEntity
  8
LAYER0007
  6
CONTINUOUS
 62
       3
100
AcDbPoint
 10
27.74179928
 20
0.08132667
 30
0.0
  0
POINT
  5
417
100
AcDbEntity
  8
LAYER0007
  6
CONTINUOUS
 62
       3
100
AcDbPoint
 10
-72.25592231
 20
0.08132667
 30
0.0
  0
POINT
  5
418
100
AcDbEntity
  8
LAYER0007
  6
CONTINUOUS
 62
       3
100
AcDbPoint
 10
54.72997981
 20
7.08116718
 30
0.0
  0
POINT
  5
419
100
AcDbEntity
  8
LAYER0007
  6
CONTINUOUS
 62
       3
100
AcDbPoint
 10
54.72997981
 20
5.08121275
 30
0.0
  0
POINT
  5
41A
100
AcDbEntity
  8
LAYER0007
  6
CONTINUOUS
 62
       3
100
AcDbPoint
 10
21.74193599
 20
6.08118997
 30
0.0
  0
POINT
  5
41B
100
AcDbEntity
  8
LAYER0007
  6
CONTINUOUS
 62
       3
100
AcDbPoint
 10
25.74184485
 20
-1.91862776
 30
0.0
  0
POINT
  5
41C
100
AcDbEntity
  8
LAYER0007
  6
CONTINUOUS
 62
       3
100
AcDbPoint
 10
53.73000259
 20
-1.91862776
 30
0.0
  0
POINT
  5
41D
100
AcDbEntity
  8
LAYER0007
  6
CONTINUOUS
 62
       3
100
AcDbPoint
 10
62.22980893
 20
-1.91862776
 30
0.0
  0
POINT
  5
41E
100
AcDbEntity
  8
LAYER0007
  6
CONTINUOUS
 62
       3
100
AcDbPoint
 10
-2.2575172
 20
5.08121275
 30
0.0
  0
POINT
  5
41F
100
AcDbEntity
  8
LAYER0007
  6
CONTINUOUS
 62
       3
100
AcDbPoint
 10
-42.25660584
 20
5.08121275
 30
0.0
  0
POINT
  5
420
100
AcDbEntity
  8
LAYER0007
  6
CONTINUOUS
 62
       3
100
AcDbPoint
 10
-42.25660584
 20
13.95361308
 30
0.0
  0
POINT
  5
421
100
AcDbEntity
  8
LAYER0007
  6
CONTINUOUS
 62
       3
100
AcDbPoint
 10
-64.75609319
 20
-1.91862776
 30
0.0
  0
POINT
  5
422
100
AcDbEntity
  8
LAYER0007
  6
CONTINUOUS
 62
       3
100
AcDbPoint
 10
-54.75632103
 20
-1.91862776
 30
0.0
  0
POINT
  5
423
100
AcDbEntity
  8
LAYER0007
  6
CONTINUOUS
 62
       3
100
AcDbPoint
 10
53.9799969
 20
-1.91862776
 30
0.0
  0
POINT
  5
424
100
AcDbEntity
  8
LAYER0007
  6
CONTINUOUS
 62
       3
100
AcDbPoint
 10
61.97981463
 20
-1.91862776
 30
0.0
  0
LINE
  5
425
100
AcDbEntity
  8
LAYER0006
  6
DASHED2
 62
       2
100
AcDbLine
 10
-18.85713898
 20
4.08123554
 30
0.0
 11
-2.2575172
 21
4.08123554
 31
0.0
  0
LINE
  5
426
100
AcDbEntity
  8
LAYER0006
  6
DASHED2
 62
       2
100
AcDbLine
 10
-42.25660584
 20
4.08123554
 30
0.0
 11
-25.65698405
 21
4.08123554
 31
0.0
  0
ARC
  5
427
100
AcDbEntity
  8
LAYER0006
  6
DASHED2
 62
       2
100
AcDbCircle
 10
-25.65698405
 20
4.88121731
 30
0.0
 40
0.79998177
100
AcDbArc
 50
270.0
 51
360.0
  0
LINE
  5
428
100
AcDbEntity
  8
LAYER0006
  6
DASHED2
 62
       2
100
AcDbLine
 10
-26.85695671
 20
5.08121275
 30
0.0
 11
-26.85695671
 21
4.08123554
 31
0.0
  0
LINE
  5
429
100
AcDbEntity
  8
LAYER0006
  6
DASHED2
 62
       2
100
AcDbLine
 10
-28.6569157
 20
5.08121275
 30
0.0
 11
-28.6569157
 21
4.08123554
 31
0.0
  0
ARC
  5
42A
100
AcDbEntity
  8
LAYER0006
  6
DASHED2
 62
       2
100
AcDbCircle
 10
-18.85713898
 20
4.88121731
 30
0.0
 40
0.79998177
100
AcDbArc
 50
180.0
 51
270.0
  0
LINE
  5
42B
100
AcDbEntity
  8
LAYER0006
  6
DASHED2
 62
       2
100
AcDbLine
 10
-19.65712075
 20
7.08116718
 30
0.0
 11
-19.65712075
 21
5.08121275
 31
0.0
  0
LINE
  5
42C
100
AcDbEntity
  8
LAYER0006
  6
DASHED2
 62
       2
100
AcDbLine
 10
-24.85700228
 20
5.08121275
 30
0.0
 11
-24.85700228
 21
7.08116718
 31
0.0
  0
LINE
  5
42D
100
AcDbEntity
  8
LAYER0006
  6
DASHED2
 62
       2
100
AcDbLine
 10
-15.85720733
 20
5.08121275
 30
0.0
 11
-15.85720733
 21
4.08123554
 31
0.0
  0
LINE
  5
42E
100
AcDbEntity
  8
LAYER0006
  6
DASHED2
 62
       2
100
AcDbLine
 10
-17.65716632
 20
5.08121275
 30
0.0
 11
-17.65716632
 21
4.08123554
 31
0.0
  0
LINE
  5
42F
100
AcDbEntity
  8
LAYER0006
  6
DASHED
 62
       3
100
AcDbLine
 10
-19.65712075
 20
5.08121275
 30
0.0
 11
-19.65712075
 21
4.88121731
 31
0.0
  0
LINE
  5
430
100
AcDbEntity
  8
LAYER0006
  6
DASHED
 62
       3
100
AcDbLine
 10
-24.85700228
 20
5.08121275
 30
0.0
 11
-24.85700228
 21
4.88121731
 31
0.0
  0
LINE
  5
431
100
AcDbEntity
  8
LAYER0001
  6
CENTER
 62
       9
100
AcDbLine
 10
-75.24730987
 20
1.08130389
 30
0.0
 11
29.07087845
 21
1.08130389
 31
0.0
  0
LINE
  5
432
100
AcDbEntity
  8
LAYER0001
  6
CENTER
 62
       9
100
AcDbLine
 10
-22.25706152
 20
-5.20065167
 30
0.0
 11
-22.25706152
 21
8.60860147
 31
0.0
  0
LINE
  5
433
100
AcDbEntity
  8
LAYER0001
  6
CENTER
 62
       9
100
AcDbLine
 10
-35.25676532
 20
-1.08515918
 30
0.0
 11
-35.25676532
 21
3.13206667
 31
0.0
  0
LINE
  5
434
100
AcDbEntity
  8
LAYER0001
  6
CENTER
 62
       9
100
AcDbLine
 10
-9.25735771
 20
-1.00947412
 30
0.0
 11
-9.25735771
 21
3.13206667
 31
0.0
  0
LINE
  5
435
100
AcDbEntity
  8
LAYER0001
  6
CENTER
 62
       9
100
AcDbLine
 10
-27.7569362
 20
5.42657895
 30
0.0
 11
-27.7569362
 21
3.72654914
 31
0.0
  0
LINE
  5
436
100
AcDbEntity
  8
LAYER0001
  6
CENTER
 62
       9
100
AcDbLine
 10
-16.75718683
 20
5.42657895
 30
0.0
 11
-16.75718683
 21
3.72654914
 31
0.0
  0
LINE
  5
437
100
AcDbEntity
  8
LAYER0001
  6
CENTER
 62
       9
100
AcDbLine
 10
57.97990576
 20
-2.9594724
 30
0.0
 11
57.97990576
 21
8.24158042
 31
0.0
  0
LINE
  5
438
100
AcDbEntity
  8
0
  6
CONTINUOUS
 62
       9
100
AcDbLine
 10
27.74179928
 20
27.44728152
 30
0.0
 11
-72.25592231
 21
27.44728152
 31
0.0
  0
INSERT
  5
439
100
AcDbEntity
  8
0
  6
CONTINUOUS
 62
       9
100
AcDbBlockReference
  2
_OPEN30
 10
27.74179928
 20
27.44728152
 30
0.0
 41
3.00000279
 42
2.99998927
 50
360.0
  0
INSERT
  5
43A
100
AcDbEntity
  8
0
  6
CONTINUOUS
 62
       9
100
AcDbBlockReference
  2
_OPEN30
 10
-72.25592231
 20
27.44728152
 30
0.0
 41
3.00000279
 42
2.99998927
 50
180.0
  0
LINE
  5
43B
100
AcDbEntity
  8
0
  6
CONTINUOUS
 62
       9
100
AcDbLine
 10
-2.2575172
 20
19.59116749
 30
0.0
 11
-42.25660584
 21
19.59116749
 31
0.0
  0
INSERT
  5
43C
100
AcDbEntity
  8
0
  6
CONTINUOUS
 62
       9
100
AcDbBlockReference
  2
_OPEN30
 10
-2.2575172
 20
19.59116749
 30
0.0
 41
3.00000279
 42
2.99998927
 50
360.0
  0
INSERT
  5
43D
100
AcDbEntity
  8
0
  6
CONTINUOUS
 62
       9
100
AcDbBlockReference
  2
_OPEN30
 10
-42.25660584
 20
19.59116749
 30
0.0
 41
3.00000279
 42
2.99998927
 50
180.0
  0
LINE
  5
43E
100
AcDbEntity
  8
0
  6
CONTINUOUS
 62
       9
100
AcDbLine
 10
-64.75609319
 20
-10.82064624
 30
0.0
 11
-54.75632103
 21
-10.82064624
 31
0.0
  0
INSERT
  5
43F
100
AcDbEntity
  8
0
  6
CONTINUOUS
 62
       9
100
AcDbBlockReference
  2
_OPEN30
 10
-64.75609319
 20
-10.82064624
 30
0.0
 41
3.00000279
 42
2.99998927
 50
180.0
  0
INSERT
  5
440
100
AcDbEntity
  8
0
  6
CONTINUOUS
 62
       9
100
AcDbBlockReference
  2
_OPEN30
 10
-54.75632103
 20
-10.82064624
 30
0.0
 41
3.00000279
 42
2.99998927
 50
360.0
  0
LINE
  5
441
100
AcDbEntity
  8
0
  6
CONTINUOUS
 62
       9
100
AcDbLine
 10
33.6445509
 20
-1.91862776
 30
0.0
 11
33.6445509
 21
6.08118997
 31
0.0
  0
INSERT
  5
442
100
AcDbEntity
  8
0
  6
CONTINUOUS
 62
       9
100
AcDbBlockReference
  2
_OPEN30
 10
33.6445509
 20
-1.91862776
 30
0.0
 41
3.00000279
 42
2.99998927
 50
270.0
  0
INSERT
  5
443
100
AcDbEntity
  8
0
  6
CONTINUOUS
 62
       9
100
AcDbBlockReference
  2
_OPEN30
 10
33.6445509
 20
6.08118997
 30
0.0
 41
3.00000279
 42
2.99998927
 50
90.0
  0
LINE
  5
444
100
AcDbEntity
  8
0
  6
CONTINUOUS
 62
       9
100
AcDbLine
 10
53.9799969
 20
-10.69971485
 30
0.0
 11
61.97981463
 21
-10.69971485
 31
0.0
  0
INSERT
  5
445
100
AcDbEntity
  8
0
  6
CONTINUOUS
 62
       9
100
AcDbBlockReference
  2
_OPEN30
 10
53.9799969
 20
-10.69971485
 30
0.0
 41
3.00000279
 42
2.99998927
 50
180.0
  0
INSERT
  5
446
100
AcDbEntity
  8
0
  6
CONTINUOUS
 62
       9
100
AcDbBlockReference
  2
_OPEN30
 10
61.97981463
 20
-10.69971485
 30
0.0
 41
3.00000279
 42
2.99998927
 50
360.0
  0
LINE
  5
447
100
AcDbEntity
  8
0
  6
CONTINUOUS
 62
       9
100
AcDbLine
 10
27.74179928
 20
0.08132667
 30
0.0
 11
27.74179928
 21
28.44728152
 31
0.0
  0
LINE
  5
448
100
AcDbEntity
  8
0
  6
CONTINUOUS
 62
       9
100
AcDbLine
 10
-72.25592231
 20
1.77045267
 30
0.0
 11
-72.25592231
 21
28.44728152
 31
0.0
  0
LINE
  5
449
100
AcDbEntity
  8
0
  6
CONTINUOUS
 62
       9
100
AcDbLine
 10
-2.2575172
 20
6.08121275
 30
0.0
 11
-2.2575172
 21
20.59116749
 31
0.0
  0
LINE
  5
44A
100
AcDbEntity
  8
0
  6
CONTINUOUS
 62
       9
100
AcDbLine
 10
-42.25660584
 20
6.08121275
 30
0.0
 11
-42.25660584
 21
20.59116749
 31
0.0
  0
LINE
  5
44B
100
AcDbEntity
  8
0
  6
CONTINUOUS
 62
       9
100
AcDbLine
 10
-64.75609319
 20
-2.34731683
 30
0.0
 11
-64.75609319
 21
-11.82064624
 31
0.0
  0
LINE
  5
44C
100
AcDbEntity
  8
0
  6
CONTINUOUS
 62
       9
100
AcDbLine
 10
-54.75632103
 20
-2.34731683
 30
0.0
 11
-54.75632103
 21
-11.82064624
 31
0.0
  0
LINE
  5
44D
100
AcDbEntity
  8
0
  6
CONTINUOUS
 62
       9
100
AcDbLine
 10
23.0593595
 20
6.08118997
 30
0.0
 11
34.6445509
 21
6.08118997
 31
0.0
  0
LINE
  5
44E
100
AcDbEntity
  8
0
  6
CONTINUOUS
 62
       9
100
AcDbLine
 10
26.13563706
 20
-1.91862776
 30
0.0
 11
34.6445509
 21
-1.91862776
 31
0.0
  0
LINE
  5
44F
100
AcDbEntity
  8
0
  6
CONTINUOUS
 62
       9
100
AcDbLine
 10
54.21472377
 20
5.08121275
 30
0.0
 11
46.27052377
 21
5.08121275
 31
0.0
  0
LINE
  5
450
100
AcDbEntity
  8
0
  6
CONTINUOUS
 62
       9
100
AcDbLine
 10
54.60513766
 20
7.08116718
 30
0.0
 11
46.27052377
 21
7.08116718
 31
0.0
  0
LINE
  5
451
100
AcDbEntity
  8
0
  6
CONTINUOUS
 62
       9
100
AcDbLine
 10
47.27052377
 20
5.08121275
 30
0.0
 11
47.27052377
 21
7.08116718
 31
0.0
  0
LINE
  5
452
100
AcDbEntity
  8
0
  6
CONTINUOUS
 62
       9
100
AcDbLine
 10
53.9799969
 20
-2.21323645
 30
0.0
 11
53.9799969
 21
-11.69971485
 31
0.0
  0
LINE
  5
453
100
AcDbEntity
  8
0
  6
CONTINUOUS
 62
       9
100
AcDbLine
 10
61.97981463
 20
-2.21323645
 30
0.0
 11
61.97981463
 21
-11.69971485
 31
0.0
  0
LINE
  5
454
100
AcDbEntity
  8
0
  6
CONTINUOUS
 62
       9
100
AcDbLine
 10
53.73000259
 20
-2.21323645
 30
0.0
 11
53.73000259
 21
-20.36130536
 31
0.0
  0
LINE
  5
455
100
AcDbEntity
  8
0
  6
CONTINUOUS
 62
       9
100
AcDbLine
 10
62.22980893
 20
-2.21323645
 30
0.0
 11
62.22980893
 21
-20.36130536
 31
0.0
  0
LINE
  5
456
100
AcDbEntity
  8
0
  6
CONTINUOUS
 62
       9
100
AcDbLine
 10
53.73000259
 20
-19.36130536
 30
0.0
 11
62.22980893
 21
-19.36130536
 31
0.0
  0
LINE
  5
457
100
AcDbEntity
  8
0
  6
CONTINUOUS
 62
       9
100
AcDbLine
 10
47.27052377
 20
15.17894718
 30
0.0
 11
47.27052377
 21
7.08116718
 31
0.0
  0
INSERT
  5
458
100
AcDbEntity
  8
0
  6
CONTINUOUS
 62
       9
100
AcDbBlockReference
  2
_OPEN30
 10
47.27052377
 20
7.08116718
 30
0.0
 41
3.00000279
 42
2.99998927
 50
270.0
  0
LINE
  5
459
100
AcDbEntity
  8
0
  6
CONTINUOUS
 62
       9
100
AcDbLine
 10
47.27052377
 20
0.08121275
 30
0.0
 11
47.27052377
 21
5.08121275
 31
0.0
  0
INSERT
  5
45A
100
AcDbEntity
  8
0
  6
CONTINUOUS
 62
       9
100
AcDbBlockReference
  2
_OPEN30
 10
47.27052377
 20
5.08121275
 30
0.0
 41
3.00000279
 42
2.99998927
 50
90.0
  0
LINE
  5
45B
100
AcDbEntity
  8
0
  6
CONTINUOUS
 62
       9
100
AcDbLine
 10
67.22980893
 20
-19.36130536
 30
0.0
 11
62.22980893
 21
-19.36130536
 31
0.0
  0
INSERT
  5
45C
100
AcDbEntity
  8
0
  6
CONTINUOUS
 62
       9
100
AcDbBlockReference
  2
_OPEN30
 10
62.22980893
 20
-19.36130536
 30
0.0
 41
3.00000279
 42
2.99998927
 50
180.0
  0
LINE
  5
45D
100
AcDbEntity
  8
0
  6
CONTINUOUS
 62
       9
100
AcDbLine
 10
48.73000259
 20
-19.36130536
 30
0.0
 11
53.73000259
 21
-19.36130536
 31
0.0
  0
INSERT
  5
45E
100
AcDbEntity
  8
0
  6
CONTINUOUS
 62
       9
100
AcDbBlockReference
  2
_OPEN30
 10
53.73000259
 20
-19.36130536
 30
0.0
 41
3.00000279
 42
2.99998927
 50
360.0
  0
TEXT
  5
45F
100
AcDbEntity
  8
0
 62
       7
100
AcDbText
 10
-27.05706152
 20
27.7816514
 30
0.0
 40
4.0
  1
100
 41
0.8
 72
       5
 11
-17.45706152
 21
27.7816514
 31
0.0
100
AcDbText
  0
TEXT
  5
460
100
AcDbEntity
  8
0
 62
       7
100
AcDbText
 10
-25.45706152
 20
20.59116749
 30
0.0
 40
4.0
  1
40
 41
0.8
 72
       5
 11
-19.05706152
 21
20.59116749
 31
0.0
100
AcDbText
  0
TEXT
  5
461
100
AcDbEntity
  8
0
 62
       7
100
AcDbText
 10
-62.95620711
 20
-9.82064624
 30
0.0
 40
4.0
  1
10
 41
0.8
 72
       5
 11
-56.55620711
 21
-9.82064624
 31
0.0
100
AcDbText
  0
TEXT
  5
462
100
AcDbEntity
  8
0
 62
       7
100
AcDbText
 10
32.6445509
 20
0.4812811
 30
0.0
 40
4.0
  1
8
 50
90.0
 41
0.8
 72
       5
 11
32.6445509
 21
3.6812811
 31
0.0
100
AcDbText
  0
TEXT
  5
463
100
AcDbEntity
  8
0
 62
       7
100
AcDbText
 10
46.27052377
 20
10.97894718
 30
0.0
 40
4.0
  1
2
 50
90.0
 41
0.8
 72
       5
 11
46.27052377
 21
14.17894718
 31
0.0
100
AcDbText
  0
TEXT
  5
464
100
AcDbEntity
  8
0
 62
       7
100
AcDbText
 10
56.37990576
 20
-9.69971485
 30
0.0
 40
4.0
  1
8
 41
0.8
 72
       5
 11
59.57990576
 21
-9.69971485
 31
0.0
100
AcDbText
  0
TEXT
  5
465
100
AcDbEntity
  8
0
 62
       7
100
AcDbText
 10
53.17990576
 20
-18.36130536
 30
0.0
 40
4.0
  1
8.5
 41
0.8
 72
       5
 11
62.77990576
 21
-18.36130536
 31
0.0
100
AcDbText
  0
INSERT
  5
466
100
AcDbEntity
  8
0
  6
CONTINUOUS
100
AcDbBlockReference
  2
GROUP_1
 10
0.0
 20
0.0
 30
0.0
  0
ENDSEC
  0
SECTION
  2
OBJECTS
  0
DICTIONARY
  5
19
100
AcDbDictionary
  3
ACAD_GROUP
350
1A
  3
ACAD_MLINESTYLE
350
1B
  0
DICTIONARY
  5
1A
102
{ACAD_REACTORS
330
19
102
}
100
AcDbDictionary
  0
DICTIONARY
  5
1B
102
{ACAD_REACTORS
330
19
102
}
100
AcDbDictionary
  3
STANDARD
350
1C
  0
MLINESTYLE
  5
1C
102
{ACAD_REACTORS
330
1B
102
}
100
AcDbMlineStyle
  2
STANDARD
 70
       0
  3

 62
       0
 51
90.0
 52
90.0
 71
       2
 49
0.5
 62
     256
  6
BYLAYER
 49
-0.5
 62
     256
  6
BYLAYER
  0
ENDSEC
  0
EOF
